999
DXF file: 3180-5223_front.dxf
999
Pro/ENGINEER 2018400 by Parametric Technology Corporation
  0
SECTION
  2
HEADER
  9
$ACADVER
  1
AC1027
  9
$DWGCODEPAGE
  3
ANSI_1252
  9
$EXTMAX
 10
11.0
 20
8.5
 30
0.0
  9
$EXTMIN
 10
0.0
 20
0.0
 30
0.0
  9
$LIMMIN
 10
0.0
 20
0.0
  9
$LIMMAX
 10
11.0
 20
8.5
  9
$VIEWCTR
 10
5.5
 20
4.25
  9
$VIEWSIZE
 40
8.5
  9
$CLAYER
  8
0
  9
$LTSCALE
 40
0.605
  9
$CELTYPE
  6
BYLAYER
  9
$DIMSCALE
 40
1.0
  9
$DIMASZ
 40
0.1
  9
$DIMEXO
 40
0.0625
  9
$DIMDLI
 40
0.418
  9
$DIMEXE
 40
0.125
  9
$DIMCEN
 40
0.099
  9
$DIMLFAC
 40
1.0
  9
$DIMBLK
  1
_FILLED
  9
$DIMALT
 70
1
  9
$DIMALTD
 70
1
  9
$DIMALTTD
 70
2
  9
$DIMALTF
 40
25.4
  9
$DIMTXT
 40
0.08
  9
$DIMTOL
 70
1
  9
$DIMLIM
 70
0
  9
$DIMTFAC
 40
1.0
  9
$DIMTP
 40
0.01
  9
$DIMTM
 40
0.01
  9
$DIMGAP
 40
0.09
  9
$DIMDSEP
 70
46
  9
$AUNITS
 70
0
  9
$PDMODE
 70
3
  9
$PDSIZE
 40
0.3125
  9
$HANDSEED
  5
404
  9
$TILEMODE
 70
1
  9
$MEASUREMENT
 70
0
  9
$INSUNITS
 70
1
  0
ENDSEC
  0
SECTION
  2
CLASSES
  0
CLASS
  1
ACDBDICTIONARYWDFLT
  2
AcDbDictionaryWithDefault
  3
AutoCAD 2000
 90
0
 91
1
280
0
281
0
  0
CLASS
  1
ACDBPLACEHOLDER
  2
AcDbPlaceHolder
  3
AutoCAD 2000
 90
0
 91
1
280
0
281
0
  0
CLASS
  1
LAYOUT
  2
AcDbLayout
  3
AutoCAD 2000
 90
0
 91
0
280
0
281
0
  0
ENDSEC
  0
SECTION
  2
TABLES
  0
TABLE
  2
VPORT
  5
8
100
AcDbSymbolTable
 70
2
  0
VPORT
  5
1F4
100
AcDbSymbolTableRecord
100
AcDbViewportTableRecord
  2
*ACTIVE
 70
0
 10
0.0
 20
0.0
 11
1.0
 21
1.0
 12
5.5
 22
4.25
 13
0.0
 23
0.0
 14
1.0
 24
1.0
 15
0.0
 25
0.0
 16
0.0
 26
0.0
 36
1.0
 17
0.0
 27
0.0
 37
0.0
 40
8.5
 41
1.2941176471
 42
50.0
 43
0.0
 44
0.0
 50
0.0
 51
0.0
 71
0
 72
100
 73
1
 74
1
 75
0
 76
0
 77
0
 78
0
  0
ENDTAB
  0
TABLE
  2
LTYPE
  5
5
100
AcDbSymbolTable
 70
6
  0
LTYPE
  5
14
100
AcDbSymbolTableRecord
100
AcDbLinetypeTableRecord
  2
BYBLOCK
 70
0
  3

 72
65
 73
0
 40
0.0
  0
LTYPE
  5
15
100
AcDbSymbolTableRecord
100
AcDbLinetypeTableRecord
  2
BYLAYER
 70
0
  3

 72
65
 73
0
 40
0.0
  0
LTYPE
  5
16
100
AcDbSymbolTableRecord
100
AcDbLinetypeTableRecord
  2
CONTINUOUS
 70
64
  3
Solid line
 72
65
 73
0
 40
0.0
  0
LTYPE
  5
1F5
100
AcDbSymbolTableRecord
100
AcDbLinetypeTableRecord
  2
CENTER
 70
64
  3
____ _ ____ _ ____ _ ____ _ ____ _ ____ _ ____
 72
65
 73
4
 40
0.6
 49
0.375
 74
0
 49
-0.075
 74
0
 49
0.075
 74
0
 49
-0.075
 74
0
  0
LTYPE
  5
1F6
100
AcDbSymbolTableRecord
100
AcDbLinetypeTableRecord
  2
HIDDEN
 70
64
  3
- - - - - - - - - - - - - - - - - - - -
 72
65
 73
2
 40
0.2
 49
0.1
 74
0
 49
-0.1
 74
0
  0
LTYPE
  5
1F7
100
AcDbSymbolTableRecord
100
AcDbLinetypeTableRecord
  2
PHANTOM
 70
64
  3
_____ _ _ _____ _ _ _____ _ _ _____
 72
65
 73
6
 40
0.8
 49
0.45
 74
0
 49
-0.05
 74
0
 49
0.1
 74
0
 49
-0.05
 74
0
 49
0.1
 74
0
 49
-0.05
 74
0
  0
LTYPE
  5
1F8
100
AcDbSymbolTableRecord
100
AcDbLinetypeTableRecord
  2
DOT
 70
64
  3
. . . . . . . . . . . . . . . . . . . .
 72
65
 73
2
 40
0.2
 49
0.1
 74
0
 49
-0.1
 74
0
  0
LTYPE
  5
1F9
100
AcDbSymbolTableRecord
100
AcDbLinetypeTableRecord
  2
DASHED
 70
64
  3
- - - - - - - - - - - - - - - - - - - -
 72
65
 73
2
 40
0.2
 49
0.1
 74
0
 49
-0.1
 74
0
  0
ENDTAB
  0
TABLE
  2
LAYER
  5
2
100
AcDbSymbolTable
 70
36
  0
LAYER
  5
10
100
AcDbSymbolTableRecord
100
AcDbLayerTableRecord
  2
0
 70
0
 62
7
  6
CONTINUOUS
370
-3
390
F
  0
LAYER
  5
1FA
100
AcDbSymbolTableRecord
100
AcDbLayerTableRecord
  2
DEFAULT_1
 70
0
 62
7
  6
CENTER
370
-3
390
F
  0
LAYER
  5
1FB
100
AcDbSymbolTableRecord
100
AcDbLayerTableRecord
  2
DEFAULT_2
 70
0
 62
8
  6
HIDDEN
370
-3
390
F
  0
LAYER
  5
1FC
100
AcDbSymbolTableRecord
100
AcDbLayerTableRecord
  2
DEFAULT_3
 70
0
 62
7
  6
PHANTOM
370
-3
390
F
  0
LAYER
  5
1FD
100
AcDbSymbolTableRecord
100
AcDbLayerTableRecord
  2
DEFAULT_COORDINATE_SYSTEM
 70
0
 62
7
  6
CONTINUOUS
370
-3
390
F
  0
LAYER
  5
1FE
100
AcDbSymbolTableRecord
100
AcDbLayerTableRecord
  2
DEFAULT_DATUM_AXES
 70
0
 62
7
  6
CONTINUOUS
370
-3
390
F
  0
LAYER
  5
1FF
100
AcDbSymbolTableRecord
100
AcDbLayerTableRecord
  2
DEFAULT_DATUM_PLANES
 70
0
 62
7
  6
CONTINUOUS
370
-3
390
F
  0
ENDTAB
  0
TABLE
  2
STYLE
  5
3
100
AcDbSymbolTable
 70
1
  0
STYLE
  5
11
100
AcDbSymbolTableRecord
100
AcDbTextStyleTableRecord
  2
STANDARD
 70
0
 40
0.0
 41
0.8
 50
0.0
 71
0
 42
0.2
  3
txt
  4

  0
STYLE
  5
200
100
AcDbSymbolTableRecord
100
AcDbTextStyleTableRecord
  2
TEXTSTYLE_1
 70
0
 40
0.0
 41
0.8
 50
0.0
 71
0
 42
0.2
  3
gdt
  4

  0
ENDTAB
  0
TABLE
  2
VIEW
  5
6
100
AcDbSymbolTable
 70
0
  0
ENDTAB
  0
TABLE
  2
UCS
  5
7
100
AcDbSymbolTable
 70
0
  0
ENDTAB
  0
TABLE
  2
APPID
  5
9
100
AcDbSymbolTable
 70
1
  0
APPID
  5
201
100
AcDbSymbolTableRecord
100
AcDbRegAppTableRecord
  2
ACAD
 70
0
  0
ENDTAB
  0
TABLE
  2
BLOCK_RECORD
  5
1
100
AcDbSymbolTable
 70
0
  0
BLOCK_RECORD
  5
202
100
AcDbSymbolTableRecord
100
AcDbBlockTableRecord
  2
*Model_Space
  0
BLOCK_RECORD
  5
203
100
AcDbSymbolTableRecord
100
AcDbBlockTableRecord
  2
*Paper_Space
  0
BLOCK_RECORD
  5
204
100
AcDbSymbolTableRecord
100
AcDbBlockTableRecord
  2
_FILLED
  0
ENDTAB
  0
TABLE
  2
DIMSTYLE
  5
A
100
AcDbSymbolTable
 70
1
100
AcDbDimStyleTable
 71
0
  0
DIMSTYLE
105
205
100
AcDbSymbolTableRecord
100
AcDbDimStyleTableRecord
  2
STANDARD
 70
0
  3

  4

 40
1.0
 41
0.1
 42
0.0625
 43
0.38
 44
0.125
 45
0.0
 46
0.0
 47
0.01
 48
0.01
140
0.08
141
0.09
142
0.0
143
25.4
144
1.0
145
0.0
146
1.0
147
0.09
 71
1.0
 72
0.0
 73
1
 74
1
 75
0
 76
0
 77
0
 78
4
 79
1
170
1
171
1
172
0
173
0
174
0
175
0
176
0
177
0
178
0
270
2
179
2
271
2
272
2
273
2
274
2
275
0
280
0
281
0
282
0
283
1
284
4
285
0
286
0
287
3
288
0
340
11
278
46
341
204
342
204
343
204
344
204
  0
ENDTAB
  0
ENDSEC
  0
SECTION
  2
BLOCKS
  0
BLOCK
  5
20
100
AcDbEntity
  8
0
100
AcDbBlockBegin
  2
*Model_Space
 70
0
 10
0.0
 20
0.0
 30
0.0
  3
*Model_Space
  1

  0
ENDBLK
  5
21
100
AcDbEntity
  8
0
100
AcDbBlockEnd
  0
BLOCK
  5
1C
100
AcDbEntity
  8
0
100
AcDbBlockBegin
  2
*Paper_Space
 70
0
 10
0.0
 20
0.0
 30
0.0
  3
*Paper_Space
  1

  0
ENDBLK
  5
1D
100
AcDbEntity
  8
0
100
AcDbBlockEnd
  0
BLOCK
  5
206
100
AcDbEntity
  8
0
100
AcDbBlockBegin
  2
_FILLED
 70
64
 10
0.0
 20
0.0
  3
_FILLED
  1

  0
SOLID
  5
207
100
AcDbEntity
  8
0
  6
BYBLOCK
 62
0
100
AcDbTrace
 10
0.0
 20
0.0
 11
-1.0
 21
0.2
 12
-1.0
 22
-0.2
 13
-1.0
 23
-0.2
  0
ENDBLK
  5
208
100
AcDbEntity
  8
0
  6
BYBLOCK
 62
0
100
AcDbBlockEnd
  0
ENDSEC
  0
SECTION
  2
ENTITIES
  0
MTEXT
  5
209
100
AcDbEntity
  8
0
100
AcDbMText
 62
2
  6
CONTINUOUS
  7
STANDARD
 71
3
 72
1
 10
4.7851708075
 20
0.3458156425
 30
0.0
 11
1.0
 21
0.0
 31
0.0
 73
2
 44
0.9
  1
SCALE  .500
 40
0.08
 41
0.704
  0
LINE
  5
20A
100
AcDbEntity
  8
0
100
AcDbLine
 62
7
  6
CONTINUOUS
 10
0.0
 20
0.0
 11
0.0
 21
8.5
  0
LINE
  5
20B
100
AcDbEntity
  8
0
100
AcDbLine
 62
7
  6
CONTINUOUS
 10
0.0
 20
0.0
 11
11.0
 21
0.0
  0
LINE
  5
20C
100
AcDbEntity
  8
0
100
AcDbLine
 62
7
  6
CONTINUOUS
 10
0.0
 20
8.5
 11
11.0
 21
8.5
  0
LINE
  5
20D
100
AcDbEntity
  8
0
100
AcDbLine
 62
7
  6
CONTINUOUS
 10
11.0
 20
0.0
 11
11.0
 21
8.5
  0
LINE
  5
20E
100
AcDbEntity
  8
0
100
AcDbLine
 62
7
  6
CONTINUOUS
 10
3.8754760605
 20
0.6252876922
 11
4.9975225713
 21
0.6252876922
  0
LINE
  5
20F
100
AcDbEntity
  8
0
100
AcDbLine
 62
7
  6
CONTINUOUS
 10
4.9975229379
 20
0.9055632827
 11
3.8754756939
 21
0.9055632827
  0
LINE
  5
210
100
AcDbEntity
  8
0
100
AcDbLine
 62
7
  6
CONTINUOUS
 10
4.9825229379
 20
0.9205632827
 11
3.8904756939
 21
0.9205632827
  0
LINE
  5
211
100
AcDbEntity
  8
0
100
AcDbLine
 62
7
  6
CONTINUOUS
 10
3.9148457726
 20
0.9355632827
 11
4.9581528592
 21
0.9355632827
  0
LINE
  5
212
100
AcDbEntity
  8
0
100
AcDbLine
 62
7
  6
CONTINUOUS
 10
4.9581528592
 20
0.9449333615
 11
3.9148457726
 21
0.9449333615
  0
LINE
  5
213
100
AcDbEntity
  8
0
100
AcDbLine
 62
7
  6
CONTINUOUS
 10
4.9431528592
 20
0.9599333615
 11
3.9298457726
 21
0.9599333615
  0
LWPOLYLINE
  5
214
100
AcDbEntity
  8
0
100
AcDbPolyline
 62
7
  6
CONTINUOUS
 90
9
 70
0
 10
5.5799932621
 20
2.2549333615
 10
5.580120577
 20
2.254934172
 10
5.5806905082
 20
2.2549576988
 10
5.5812581707
 20
2.2550136838
 10
5.5818217174
 20
2.255101945
 10
5.5823793147
 20
2.2552221951
 10
5.5829291483
 20
2.2553740429
 10
5.5834694292
 20
2.2555569943
 10
5.5839983995
 20
2.255770454
  0
LINE
  5
215
100
AcDbEntity
  8
0
100
AcDbLine
 62
7
  6
CONTINUOUS
 10
5.8959993159
 20
2.2384137945
 11
6.1859993159
 21
2.2384137945
  0
LINE
  5
216
100
AcDbEntity
  8
0
100
AcDbLine
 62
7
  6
CONTINUOUS
 10
5.8909993159
 20
2.2434137945
 11
6.1909993159
 21
2.2434137945
  0
LINE
  5
217
100
AcDbEntity
  8
0
100
AcDbLine
 62
7
  6
CONTINUOUS
 10
5.5799932621
 20
2.2549333615
 11
5.4089993159
 21
2.2549333615
  0
LINE
  5
218
100
AcDbEntity
  8
0
100
AcDbLine
 62
7
  6
CONTINUOUS
 10
5.3839993159
 20
2.2549333615
 11
4.9614993159
 21
2.2549333615
  0
LINE
  5
219
100
AcDbEntity
  8
0
100
AcDbLine
 62
7
  6
CONTINUOUS
 10
6.1909993159
 20
2.4833979284
 11
5.8909993159
 21
2.4833979284
  0
LINE
  5
21A
100
AcDbEntity
  8
0
100
AcDbLine
 62
7
  6
CONTINUOUS
 10
5.8559993159
 20
2.4883979284
 11
6.2259993159
 21
2.4883979284
  0
LINE
  5
21B
100
AcDbEntity
  8
0
100
AcDbLine
 62
7
  6
CONTINUOUS
 10
5.8509993159
 20
2.4933979284
 11
6.2309993159
 21
2.4933979284
  0
LINE
  5
21C
100
AcDbEntity
  8
0
100
AcDbLine
 62
7
  6
CONTINUOUS
 10
6.2309993159
 20
2.5227680071
 11
5.8509993159
 21
2.5227680071
  0
LINE
  5
21D
100
AcDbEntity
  8
0
100
AcDbLine
 62
7
  6
CONTINUOUS
 10
5.8159993159
 20
2.5277680071
 11
6.2659993159
 21
2.5277680071
  0
LINE
  5
21E
100
AcDbEntity
  8
0
100
AcDbLine
 62
7
  6
CONTINUOUS
 10
5.8109993159
 20
2.5327680071
 11
6.2709993159
 21
2.5327680071
  0
LINE
  5
21F
100
AcDbEntity
  8
0
100
AcDbLine
 62
7
  6
CONTINUOUS
 10
5.7739993159
 20
2.5561833615
 11
5.8059993159
 21
2.5561833615
  0
LINE
  5
220
100
AcDbEntity
  8
0
100
AcDbLine
 62
7
  6
CONTINUOUS
 10
4.1469982834
 20
6.093923155
 11
4.1081926151
 21
6.0277429274
  0
LINE
  5
221
100
AcDbEntity
  8
0
100
AcDbLine
 62
7
  6
CONTINUOUS
 10
5.7739993159
 20
2.8536833615
 11
5.8059993159
 21
2.8536833615
  0
LINE
  5
222
100
AcDbEntity
  8
0
100
AcDbLine
 62
7
  6
CONTINUOUS
 10
5.8109993159
 20
2.8770987158
 11
6.2709993159
 21
2.8770987158
  0
LINE
  5
223
100
AcDbEntity
  8
0
100
AcDbLine
 62
7
  6
CONTINUOUS
 10
5.8159993159
 20
2.8820987158
 11
6.2659993159
 21
2.8820987158
  0
LINE
  5
224
100
AcDbEntity
  8
0
100
AcDbLine
 62
7
  6
CONTINUOUS
 10
6.2309993159
 20
2.8870987158
 11
5.8509993159
 21
2.8870987158
  0
LINE
  5
225
100
AcDbEntity
  8
0
100
AcDbLine
 62
7
  6
CONTINUOUS
 10
5.8509993159
 20
2.9164687945
 11
6.2309993159
 21
2.9164687945
  0
LINE
  5
226
100
AcDbEntity
  8
0
100
AcDbLine
 62
7
  6
CONTINUOUS
 10
5.8559993159
 20
2.9214687945
 11
6.2259993159
 21
2.9214687945
  0
LINE
  5
227
100
AcDbEntity
  8
0
100
AcDbLine
 62
7
  6
CONTINUOUS
 10
5.8909993159
 20
2.9264687945
 11
6.1909993159
 21
2.9264687945
  0
LINE
  5
228
100
AcDbEntity
  8
0
100
AcDbLine
 62
7
  6
CONTINUOUS
 10
3.8754756939
 20
0.9055632827
 11
3.8754756939
 21
0.6252876922
  0
LINE
  5
229
100
AcDbEntity
  8
0
100
AcDbLine
 62
7
  6
CONTINUOUS
 10
3.9139993159
 20
3.9249333615
 11
3.9139993159
 21
3.7699333615
  0
LINE
  5
22A
100
AcDbEntity
  8
0
100
AcDbLine
 62
7
  6
CONTINUOUS
 10
3.9148457726
 20
0.9449333615
 11
3.9148457726
 21
0.9355632827
  0
LINE
  5
22B
100
AcDbEntity
  8
0
100
AcDbLine
 62
7
  6
CONTINUOUS
 10
3.9539993159
 20
3.9649333615
 11
3.9539993159
 21
3.9449333615
  0
LINE
  5
22C
100
AcDbEntity
  8
0
100
AcDbLine
 62
7
  6
CONTINUOUS
 10
3.9614993159
 20
0.9599333615
 11
3.9614993159
 21
3.7449333615
  0
LINE
  5
22D
100
AcDbEntity
  8
0
100
AcDbLine
 62
7
  6
CONTINUOUS
 10
5.7639993159
 20
3.1149333615
 11
5.7389993159
 21
3.1149333615
  0
LINE
  5
22E
100
AcDbEntity
  8
0
100
AcDbLine
 62
7
  6
CONTINUOUS
 10
5.7289993159
 20
3.1549333615
 11
5.4089993159
 21
3.1549333615
  0
LINE
  5
22F
100
AcDbEntity
  8
0
100
AcDbLine
 62
7
  6
CONTINUOUS
 10
4.9614993159
 20
3.1549333615
 11
5.3839993159
 21
3.1549333615
  0
LINE
  5
230
100
AcDbEntity
  8
0
100
AcDbLine
 62
7
  6
CONTINUOUS
 10
4.0989993159
 20
5.0264090338
 11
4.0989993159
 21
5.9941778279
  0
LINE
  5
231
100
AcDbEntity
  8
0
100
AcDbLine
 62
7
  6
CONTINUOUS
 10
4.1164993159
 20
4.0199333615
 11
4.1164993159
 21
3.9749333615
  0
LINE
  5
232
100
AcDbEntity
  8
0
100
AcDbLine
 62
7
  6
CONTINUOUS
 10
4.1516267842
 20
7.7863213482
 11
4.1516267842
 21
6.0999597746
  0
LINE
  5
233
100
AcDbEntity
  8
0
100
AcDbLine
 62
7
  6
CONTINUOUS
 10
4.1516267842
 20
4.9557579747
 11
4.1516267842
 21
4.0424333615
  0
LINE
  5
234
100
AcDbEntity
  8
0
100
AcDbLine
 62
7
  6
CONTINUOUS
 10
4.1554993159
 20
6.1034375837
 11
4.1554993159
 21
6.1070907577
  0
LINE
  5
235
100
AcDbEntity
  8
0
100
AcDbLine
 62
7
  6
CONTINUOUS
 10
4.3218000678
 20
5.5407537957
 11
4.3218000678
 21
5.555581204
  0
LINE
  5
236
100
AcDbEntity
  8
0
100
AcDbLine
 62
7
  6
CONTINUOUS
 10
4.3932280007
 20
4.9477307585
 11
4.3894821651
 21
4.9441533984
  0
LINE
  5
237
100
AcDbEntity
  8
0
100
AcDbLine
 62
7
  6
CONTINUOUS
 10
4.3871506828
 20
4.9419267787
 11
4.3840245171
 21
4.9389412178
  0
LINE
  5
238
100
AcDbEntity
  8
0
100
AcDbLine
 62
7
  6
CONTINUOUS
 10
4.4415000421
 20
4.9938316795
 11
4.4452458778
 21
4.9974090396
  0
LINE
  5
239
100
AcDbEntity
  8
0
100
AcDbLine
 62
7
  6
CONTINUOUS
 10
4.44757736
 20
4.9996356593
 11
4.4507035257
 21
5.0026212202
  0
LINE
  5
23A
100
AcDbEntity
  8
0
100
AcDbLine
 62
7
  6
CONTINUOUS
 10
4.3981938526
 20
4.9313812806
 11
4.406020361
 21
4.938855778
  0
LINE
  5
23B
100
AcDbEntity
  8
0
100
AcDbLine
 62
7
  6
CONTINUOUS
 10
4.4546321665
 20
4.9852811817
 11
4.462458675
 21
4.9927556791
  0
LINE
  5
23C
100
AcDbEntity
  8
0
100
AcDbLine
 62
7
  6
CONTINUOUS
 10
4.4105399568
 20
4.9310855006
 11
4.4183664653
 21
4.938559998
  0
LINE
  5
23D
100
AcDbEntity
  8
0
100
AcDbLine
 62
7
  6
CONTINUOUS
 10
4.4669782708
 20
4.9849854016
 11
4.4748047792
 21
4.992459899
  0
LINE
  5
23E
100
AcDbEntity
  8
0
100
AcDbLine
 62
7
  6
CONTINUOUS
 10
4.4314985897
 20
4.9468138962
 11
4.427752754
 21
4.9432365361
  0
LINE
  5
23F
100
AcDbEntity
  8
0
100
AcDbLine
 62
7
  6
CONTINUOUS
 10
4.4254212718
 20
4.9410099164
 11
4.4222951061
 21
4.9380243555
  0
LINE
  5
240
100
AcDbEntity
  8
0
100
AcDbLine
 62
7
  6
CONTINUOUS
 10
4.4797706311
 20
4.9929148172
 11
4.4835164667
 21
4.9964921773
  0
LINE
  5
241
100
AcDbEntity
  8
0
100
AcDbLine
 62
7
  6
CONTINUOUS
 10
4.485847949
 20
4.998718797
 11
4.4889741147
 21
5.0017043579
  0
LINE
  5
242
100
AcDbEntity
  8
0
100
AcDbLine
 62
7
  6
CONTINUOUS
 10
4.3491916572
 20
4.950859086
 11
4.3383208187
 21
4.9476319029
  0
LINE
  5
243
100
AcDbEntity
  8
0
100
AcDbLine
 62
7
  6
CONTINUOUS
 10
4.3252797888
 20
4.9437604635
 11
4.3224821074
 21
4.9429299268
  0
LINE
  5
244
100
AcDbEntity
  8
0
100
AcDbLine
 62
7
  6
CONTINUOUS
 10
4.4892825775
 20
4.9924473277
 11
4.5001534161
 21
4.9956745109
  0
LINE
  5
245
100
AcDbEntity
  8
0
100
AcDbLine
 62
7
  6
CONTINUOUS
 10
4.506919641
 20
4.9976831735
 11
4.5159921273
 21
5.0003764869
  0
LINE
  5
246
100
AcDbEntity
  8
0
100
AcDbLine
 62
7
  6
CONTINUOUS
 10
4.3376786358
 20
4.9346664611
 11
4.360392048
 21
4.9414093026
  0
LINE
  5
247
100
AcDbEntity
  8
0
100
AcDbLine
 62
7
  6
CONTINUOUS
 10
4.5014690023
 20
4.9832902643
 11
4.5241824144
 21
4.9900331058
  0
LINE
  5
248
100
AcDbEntity
  8
0
100
AcDbLine
 62
7
  6
CONTINUOUS
 10
4.3488162174
 20
4.9338080739
 11
4.3715296295
 21
4.9405509154
  0
LINE
  5
249
100
AcDbEntity
  8
0
100
AcDbLine
 62
7
  6
CONTINUOUS
 10
4.5126065838
 20
4.9824318771
 11
4.535319996
 21
4.9891747186
  0
LINE
  5
24A
100
AcDbEntity
  8
0
100
AcDbLine
 62
7
  6
CONTINUOUS
 10
4.3284993159
 20
5.540042507
 11
4.3284993159
 21
5.5548699153
  0
LINE
  5
24B
100
AcDbEntity
  8
0
100
AcDbLine
 62
7
  6
CONTINUOUS
 10
4.3379993159
 20
5.534975752
 11
4.3379993159
 21
5.5523668677
  0
LINE
  5
24C
100
AcDbEntity
  8
0
100
AcDbLine
 62
7
  6
CONTINUOUS
 10
4.5349993159
 20
5.534975752
 11
4.5349993159
 21
5.5523668677
  0
LINE
  5
24D
100
AcDbEntity
  8
0
100
AcDbLine
 62
7
  6
CONTINUOUS
 10
4.5444956379
 20
5.5557512049
 11
4.5444993159
 21
5.540042507
  0
LINE
  5
24E
100
AcDbEntity
  8
0
100
AcDbLine
 62
7
  6
CONTINUOUS
 10
4.551198564
 20
5.555581204
 11
4.551198564
 21
5.5407537957
  0
LWPOLYLINE
  5
24F
100
AcDbEntity
  8
0
100
AcDbPolyline
 62
7
  6
CONTINUOUS
 90
94
 70
0
 10
4.5444993159
 20
5.5400425071
 10
4.5444819076
 20
5.5381361889
 10
4.5443603366
 20
5.5346508234
 10
4.5441213767
 20
5.5311559076
 10
4.5437633234
 20
5.5276556294
 10
4.5432846267
 20
5.5241561153
 10
4.5426841862
 20
5.5206653665
 10
4.5419609468
 20
5.5171885027
 10
4.5411144883
 20
5.5137297476
 10
4.5401452493
 20
5.5102957487
 10
4.539053153
 20
5.5068905464
 10
4.5378382638
 20
5.5035186631
 10
4.5365018917
 20
5.5001873168
 10
4.5350447857
 20
5.4969002161
 10
4.5334679584
 20
5.4936611808
 10
4.5317740873
 20
5.4904770063
 10
4.5299645957
 20
5.4873514679
 10
4.5280408038
 20
5.4842881486
 10
4.5260059809
 20
5.4812929182
 10
4.5238620546
 20
5.4783686168
 10
4.5216109938
 20
5.4755181222
 10
4.5192568119
 20
5.4727466431
 10
4.5168016606
 20
5.4700567967
 10
4.5142479548
 20
5.467451389
 10
4.5116008072
 20
5.4649353079
 10
4.508862833
 20
5.462510583
 10
4.5060370591
 20
5.4601796286
 10
4.5031298448
 20
5.4579472845
 10
4.5001443152
 20
5.4558154084
 10
4.49708392
 20
5.4537857886
 10
4.4939561584
 20
5.4518624114
 10
4.490764926
 20
5.4500465902
 10
4.487514015
 20
5.4483395769
 10
4.4842112312
 20
5.4467444771
 10
4.4808619174
 20
5.4452625231
 10
4.477469504
 20
5.443893658
 10
4.4740391268
 20
5.4426385428
 10
4.4705767056
 20
5.4414979858
 10
4.4670852243
 20
5.4404717674
 10
4.4635652398
 20
5.4395591956
 10
4.4600214278
 20
5.438760465
 10
4.4564584079
 20
5.4380755411
 10
4.4528766543
 20
5.4375037928
 10
4.4492806693
 20
5.4370455559
 10
4.4456749019
 20
5.4367011388
 10
4.4420596479
 20
5.4364702952
 10
4.4384395511
 20
5.4363529044
 10
4.4348192045
 20
5.4363487988
 10
4.4311989066
 20
5.436457999
 10
4.4275832438
 20
5.4366807238
 10
4.4239768422
 20
5.4370170712
 10
4.4203799774
 20
5.437467154
 10
4.4167971212
 20
5.4380306925
 10
4.4132328022
 20
5.4387073869
 10
4.4096875322
 20
5.4394978923
 10
4.4061659583
 20
5.4404022701
 10
4.4026726699
 20
5.4414202576
 10
4.3992081987
 20
5.4425525147
 10
4.395775617
 20
5.4437992392
 10
4.3923808217
 20
5.4451596477
 10
4.3890288014
 20
5.4466331681
 10
4.3857229696
 20
5.4482198766
 10
4.3824686871
 20
5.4499185049
 10
4.3792737147
 20
5.4517259916
 10
4.3761418798
 20
5.4536410819
 10
4.3730771266
 20
5.4556624517
 10
4.3700869316
 20
5.4577861591
 10
4.367174713
 20
5.4600104028
 10
4.364343609
 20
5.4623333438
 10
4.3615999546
 20
5.464750229
 10
4.3589468251
 20
5.4672586609
 10
4.3563868449
 20
5.4698566317
 10
4.3539249586
 20
5.4725392738
 10
4.3515636066
 20
5.4753038262
 10
4.349304995
 20
5.4781478005
 10
4.3471531038
 20
5.4810662497
 10
4.3451099124
 20
5.4840562347
 10
4.3431772972
 20
5.4871146395
 10
4.3413585236
 20
5.4902358512
 10
4.3396551474
 20
5.4934166478
 10
4.3380686042
 20
5.4966535007
 10
4.3366013755
 20
5.4999399979
 10
4.3352544773
 20
5.5032723538
 10
4.3340287863
 20
5.5066467106
 10
4.3329258075
 20
5.510056089
 10
4.3319458586
 20
5.5134962062
 10
4.3310890997
 20
5.5169628176
 10
4.3303559312
 20
5.5204485873
 10
4.3297458588
 20
5.5239489438
 10
4.3292581862
 20
5.5274593455
 10
4.3288921721
 20
5.530972375
 10
4.3286465127
 20
5.5344825259
 10
4.3285194213
 20
5.5379858468
 10
4.3284993159
 20
5.5400425096
  0
LINE
  5
250
100
AcDbEntity
  8
0
100
AcDbLine
 62
7
  6
CONTINUOUS
 10
4.7700773202
 20
5.0122959693
 11
4.7700952889
 21
5.0123280547
  0
LINE
  5
251
100
AcDbEntity
  8
0
100
AcDbLine
 62
7
  6
CONTINUOUS
 10
4.7700960691
 20
5.0123280443
 11
4.7486613904
 21
4.9757726681
  0
LINE
  5
252
100
AcDbEntity
  8
0
100
AcDbLine
 62
7
  6
CONTINUOUS
 10
4.6479790078
 20
4.96536951
 11
4.6395791135
 21
4.9571640543
  0
LINE
  5
253
100
AcDbEntity
  8
0
100
AcDbLine
 62
7
  6
CONTINUOUS
 10
4.9114993159
 20
3.7449333615
 11
3.9614993159
 21
3.7449333615
  0
LINE
  5
254
100
AcDbEntity
  8
0
100
AcDbLine
 62
7
  6
CONTINUOUS
 10
4.9489993159
 20
3.7599333615
 11
3.9239993159
 21
3.7599333615
  0
LINE
  5
255
100
AcDbEntity
  8
0
100
AcDbLine
 62
7
  6
CONTINUOUS
 10
4.9589993159
 20
3.7699333615
 11
3.9139993159
 21
3.7699333615
  0
LINE
  5
256
100
AcDbEntity
  8
0
100
AcDbLine
 62
7
  6
CONTINUOUS
 10
4.1029213116
 20
5.0122959693
 11
4.1243372414
 21
4.9757726681
  0
LWPOLYLINE
  5
257
100
AcDbEntity
  8
0
100
AcDbPolyline
 62
7
  6
CONTINUOUS
 90
58
 70
0
 10
4.7213718476
 20
7.7863213482
 10
4.7212649188
 20
7.7941983631
 10
4.720944103
 20
7.8020698113
 10
4.7204093556
 20
7.8099295779
 10
4.7196606393
 20
7.8177714801
 10
4.718697906
 20
7.8255894634
 10
4.7175210793
 20
7.8333775995
 10
4.7161300956
 20
7.8411297751
 10
4.7145248966
 20
7.8488398438
 10
4.7127053847
 20
7.8565018176
 10
4.7106713582
 20
7.8641100099
 10
4.7084228473
 20
7.8716578118
 10
4.7059603467
 20
7.879137924
 10
4.7032861421
 20
7.8865446911
 10
4.7004037588
 20
7.8938734026
 10
4.6973170286
 20
7.9011186589
 10
4.69402972
 20
7.9082753202
 10
4.6905454078
 20
7.9153386828
 10
4.6868676518
 20
7.9223040143
 10
4.6830001132
 20
7.9291663613
 10
4.6789464191
 20
7.9359208318
 10
4.6747100376
 20
7.9425627685
 10
4.6702947313
 20
7.9490870325
 10
4.6657039829
 20
7.9554889095
 10
4.6609407473
 20
7.9617643178
 10
4.656008392
 20
7.9679084918
 10
4.6509106323
 20
7.9739162207
 10
4.6456508612
 20
7.9797826876
 10
4.6402325617
 20
7.9855029459
 10
4.6346593279
 20
7.9910719278
 10
4.6289347095
 20
7.9964846169
 10
4.6230621552
 20
8.0017360845
 10
4.6170453086
 20
8.0068212213
 10
4.6108880376
 20
8.0117347611
 10
4.6045936175
 20
8.0164719251
 10
4.598166193
 20
8.0210278611
 10
4.5916123642
 20
8.0253991499
 10
4.5849384563
 20
8.0295836923
 10
4.5781499129
 20
8.0335799583
 10
4.5712525578
 20
8.0373861476
 10
4.5642523083
 20
8.0410004064
 10
4.557154971
 20
8.044420939
 10
4.5499661878
 20
8.0476460133
 10
4.5426919279
 20
8.0506737385
 10
4.5353379089
 20
8.0535023323
 10
4.5279093633
 20
8.056130161
 10
4.5204122348
 20
8.058555299
 10
4.512852218
 20
8.0607759049
 10
4.5052341295
 20
8.0627903422
 10
4.4975634919
 20
8.064596703
 10
4.4898463808
 20
8.0661929409
 10
4.4820884215
 20
8.0675771138
 10
4.4742954157
 20
8.0687472344
 10
4.4664731871
 20
8.0697013108
 10
4.4586273978
 20
8.0704373637
 10
4.45076382
 20
8.0709533887
 10
4.4428883372
 20
8.0712473712
 10
4.4364993159
 20
8.0713213482
  0
LINE
  5
258
100
AcDbEntity
  8
0
100
AcDbLine
 62
7
  6
CONTINUOUS
 10
4.7174993159
 20
6.1034376806
 11
4.7174993159
 21
6.1070907577
  0
LINE
  5
259
100
AcDbEntity
  8
0
100
AcDbLine
 62
7
  6
CONTINUOUS
 10
4.7213718476
 20
4.0424333615
 11
4.7213718476
 21
4.9557573265
  0
LINE
  5
25A
100
AcDbEntity
  8
0
100
AcDbLine
 62
7
  6
CONTINUOUS
 10
4.7213718476
 20
6.0999600137
 11
4.7213718476
 21
7.7863213482
  0
LINE
  5
25B
100
AcDbEntity
  8
0
100
AcDbLine
 62
7
  6
CONTINUOUS
 10
4.7564993159
 20
4.0199333615
 11
4.7564993159
 21
3.9749333615
  0
LINE
  5
25C
100
AcDbEntity
  8
0
100
AcDbLine
 62
7
  6
CONTINUOUS
 10
4.7739993159
 20
5.0264090338
 11
4.7739993159
 21
5.9941778279
  0
LINE
  5
25D
100
AcDbEntity
  8
0
100
AcDbLine
 62
7
  6
CONTINUOUS
 10
4.9589993159
 20
3.9249333615
 11
3.9139993159
 21
3.9249333615
  0
LINE
  5
25E
100
AcDbEntity
  8
0
100
AcDbLine
 62
7
  6
CONTINUOUS
 10
4.9489993159
 20
3.9349333615
 11
3.9239993159
 21
3.9349333615
  0
LINE
  5
25F
100
AcDbEntity
  8
0
100
AcDbLine
 62
7
  6
CONTINUOUS
 10
3.9539993159
 20
3.9449333615
 11
4.9189993159
 21
3.9449333615
  0
LINE
  5
260
100
AcDbEntity
  8
0
100
AcDbLine
 62
7
  6
CONTINUOUS
 10
4.9189993159
 20
3.9649333615
 11
3.9539993159
 21
3.9649333615
  0
LINE
  5
261
100
AcDbEntity
  8
0
100
AcDbLine
 62
7
  6
CONTINUOUS
 10
4.9089993159
 20
3.9749333615
 11
3.9639993159
 21
3.9749333615
  0
LINE
  5
262
100
AcDbEntity
  8
0
100
AcDbLine
 62
7
  6
CONTINUOUS
 10
4.7564993159
 20
4.0199333615
 11
4.1164993159
 21
4.0199333615
  0
LINE
  5
263
100
AcDbEntity
  8
0
100
AcDbLine
 62
7
  6
CONTINUOUS
 10
4.7414993159
 20
4.0349333615
 11
4.1314993159
 21
4.0349333615
  0
LINE
  5
264
100
AcDbEntity
  8
0
100
AcDbLine
 62
7
  6
CONTINUOUS
 10
4.1516286156
 20
4.0424333615
 11
4.7213700162
 21
4.0424333615
  0
LINE
  5
265
100
AcDbEntity
  8
0
100
AcDbLine
 62
7
  6
CONTINUOUS
 10
4.9114993159
 20
3.7449333615
 11
4.9114993159
 21
3.2049333615
  0
LINE
  5
266
100
AcDbEntity
  8
0
100
AcDbLine
 62
7
  6
CONTINUOUS
 10
4.9114993159
 20
2.2049333615
 11
4.9114993159
 21
0.9599333615
  0
LINE
  5
267
100
AcDbEntity
  8
0
100
AcDbLine
 62
7
  6
CONTINUOUS
 10
4.9189993159
 20
3.9649333615
 11
4.9189993159
 21
3.9449333615
  0
LINE
  5
268
100
AcDbEntity
  8
0
100
AcDbLine
 62
7
  6
CONTINUOUS
 10
4.9581528592
 20
0.9449333615
 11
4.9581528592
 21
0.9355632827
  0
LINE
  5
269
100
AcDbEntity
  8
0
100
AcDbLine
 62
7
  6
CONTINUOUS
 10
4.9589993159
 20
3.9249333615
 11
4.9589993159
 21
3.7699333615
  0
LINE
  5
26A
100
AcDbEntity
  8
0
100
AcDbLine
 62
7
  6
CONTINUOUS
 10
4.9975229379
 20
0.9055632827
 11
4.9975229379
 21
0.6252876922
  0
LINE
  5
26B
100
AcDbEntity
  8
0
100
AcDbLine
 62
7
  6
CONTINUOUS
 10
5.8909993159
 20
4.3574137945
 11
6.1909993159
 21
4.3574137945
  0
LINE
  5
26C
100
AcDbEntity
  8
0
100
AcDbLine
 62
7
  6
CONTINUOUS
 10
5.8959993159
 20
4.3624137945
 11
6.1859993159
 21
4.3624137945
  0
LINE
  5
26D
100
AcDbEntity
  8
0
100
AcDbLine
 62
7
  6
CONTINUOUS
 10
4.4415000421
 20
4.9468138962
 11
4.4452458778
 21
4.9432365361
  0
LINE
  5
26E
100
AcDbEntity
  8
0
100
AcDbLine
 62
7
  6
CONTINUOUS
 10
4.44757736
 20
4.9410099164
 11
4.4507035257
 21
4.9380243555
  0
LINE
  5
26F
100
AcDbEntity
  8
0
100
AcDbLine
 62
7
  6
CONTINUOUS
 10
4.3932280007
 20
4.9929148172
 11
4.3894821651
 21
4.9964921773
  0
LINE
  5
270
100
AcDbEntity
  8
0
100
AcDbLine
 62
7
  6
CONTINUOUS
 10
4.3871506828
 20
4.998718797
 11
4.3840245171
 21
5.0017043579
  0
LINE
  5
271
100
AcDbEntity
  8
0
100
AcDbLine
 62
7
  6
CONTINUOUS
 10
4.462458675
 20
4.9310855006
 11
4.4546321665
 21
4.938559998
  0
LINE
  5
272
100
AcDbEntity
  8
0
100
AcDbLine
 62
7
  6
CONTINUOUS
 10
4.406020361
 20
4.9849854016
 11
4.3981938526
 21
4.992459899
  0
LINE
  5
273
100
AcDbEntity
  8
0
100
AcDbLine
 62
7
  6
CONTINUOUS
 10
4.4748047792
 20
4.9313812806
 11
4.4669782708
 21
4.938855778
  0
LINE
  5
274
100
AcDbEntity
  8
0
100
AcDbLine
 62
7
  6
CONTINUOUS
 10
4.4183664653
 20
4.9852811817
 11
4.4105399568
 21
4.9927556791
  0
LINE
  5
275
100
AcDbEntity
  8
0
100
AcDbLine
 62
7
  6
CONTINUOUS
 10
4.4797706311
 20
4.9477307585
 11
4.4835164667
 21
4.9441533984
  0
LINE
  5
276
100
AcDbEntity
  8
0
100
AcDbLine
 62
7
  6
CONTINUOUS
 10
4.485847949
 20
4.9419267787
 11
4.4889741147
 21
4.9389412178
  0
LINE
  5
277
100
AcDbEntity
  8
0
100
AcDbLine
 62
7
  6
CONTINUOUS
 10
4.4314985897
 20
4.9938316795
 11
4.427752754
 21
4.9974090396
  0
LINE
  5
278
100
AcDbEntity
  8
0
100
AcDbLine
 62
7
  6
CONTINUOUS
 10
4.4254212718
 20
4.9996356593
 11
4.4222951061
 21
5.0026212202
  0
LINE
  5
279
100
AcDbEntity
  8
0
100
AcDbLine
 62
7
  6
CONTINUOUS
 10
4.225019624
 20
4.96536951
 11
4.2334195183
 21
4.9571640543
  0
LINE
  5
27A
100
AcDbEntity
  8
0
100
AcDbLine
 62
7
  6
CONTINUOUS
 10
5.3839993159
 20
3.1549333615
 11
5.3839993159
 21
2.2549333615
  0
LINE
  5
27B
100
AcDbEntity
  8
0
100
AcDbLine
 62
7
  6
CONTINUOUS
 10
5.3989993159
 20
2.2649333615
 11
5.3989993159
 21
3.1449333615
  0
LINE
  5
27C
100
AcDbEntity
  8
0
100
AcDbLine
 62
7
  6
CONTINUOUS
 10
5.4089993159
 20
2.2549333615
 11
5.4089993159
 21
3.1549333615
  0
LINE
  5
27D
100
AcDbEntity
  8
0
100
AcDbLine
 62
7
  6
CONTINUOUS
 10
4.5773231213
 20
4.9392824961
 11
4.5419461524
 21
4.9446336454
  0
LINE
  5
27E
100
AcDbEntity
  8
0
100
AcDbLine
 62
7
  6
CONTINUOUS
 10
4.3222136446
 20
4.9778705648
 11
4.2868366758
 21
4.9832217141
  0
LINE
  5
27F
100
AcDbEntity
  8
0
100
AcDbLine
 62
7
  6
CONTINUOUS
 10
4.586161956
 20
4.9406194655
 11
4.5507849872
 21
4.9459706148
  0
LINE
  5
280
100
AcDbEntity
  8
0
100
AcDbLine
 62
7
  6
CONTINUOUS
 10
4.3310524794
 20
4.9792075342
 11
4.2956755105
 21
4.9845586835
  0
LINE
  5
281
100
AcDbEntity
  8
0
100
AcDbLine
 62
7
  6
CONTINUOUS
 10
4.337090422
 20
4.989503811
 11
4.3241685843
 21
4.9914583788
  0
LINE
  5
282
100
AcDbEntity
  8
0
100
AcDbLine
 62
7
  6
CONTINUOUS
 10
4.3136299418
 20
4.9930524625
 11
4.2994992131
 21
4.9951898881
  0
LINE
  5
283
100
AcDbEntity
  8
0
100
AcDbLine
 62
7
  6
CONTINUOUS
 10
4.5592970362
 20
4.9558926563
 11
4.5678872081
 21
4.9545932999
  0
LINE
  5
284
100
AcDbEntity
  8
0
100
AcDbLine
 62
7
  6
CONTINUOUS
 10
4.5241824144
 20
4.9338080739
 11
4.5014690023
 21
4.9405509154
  0
LINE
  5
285
100
AcDbEntity
  8
0
100
AcDbLine
 62
7
  6
CONTINUOUS
 10
4.360392048
 20
4.9824318771
 11
4.3376786358
 21
4.9891747186
  0
LINE
  5
286
100
AcDbEntity
  8
0
100
AcDbLine
 62
7
  6
CONTINUOUS
 10
4.535319996
 20
4.9346664611
 11
4.5126065838
 21
4.9414093026
  0
LINE
  5
287
100
AcDbEntity
  8
0
100
AcDbLine
 62
7
  6
CONTINUOUS
 10
4.3715296295
 20
4.9832902643
 11
4.3488162174
 21
4.9900331058
  0
LINE
  5
288
100
AcDbEntity
  8
0
100
AcDbLine
 62
7
  6
CONTINUOUS
 10
4.3837160543
 20
4.9924473277
 11
4.3728452157
 21
4.9956745109
  0
LINE
  5
289
100
AcDbEntity
  8
0
100
AcDbLine
 62
7
  6
CONTINUOUS
 10
4.3660789908
 20
4.9976831735
 11
4.3570065045
 21
5.0003764869
  0
LINE
  5
28A
100
AcDbEntity
  8
0
100
AcDbLine
 62
7
  6
CONTINUOUS
 10
4.5238069746
 20
4.950859086
 11
4.5346778132
 21
4.9476319029
  0
LINE
  5
28B
100
AcDbEntity
  8
0
100
AcDbLine
 62
7
  6
CONTINUOUS
 10
4.547718843
 20
4.9437604635
 11
4.5505165244
 21
4.9429299268
  0
LINE
  5
28C
100
AcDbEntity
  8
0
100
AcDbLine
 62
7
  6
CONTINUOUS
 10
5.7289993159
 20
2.3121470382
 11
5.7289993159
 21
3.1549333615
  0
LINE
  5
28D
100
AcDbEntity
  8
0
100
AcDbLine
 62
7
  6
CONTINUOUS
 10
5.7389993159
 20
3.1449330126
 11
5.7389993159
 21
2.3208756232
  0
LINE
  5
28E
100
AcDbEntity
  8
0
100
AcDbLine
 62
7
  6
CONTINUOUS
 10
5.7639993159
 20
2.3638060051
 11
5.7639993159
 21
3.1149333615
  0
LINE
  5
28F
100
AcDbEntity
  8
0
100
AcDbLine
 62
7
  6
CONTINUOUS
 10
5.7739993159
 20
3.1049333615
 11
5.7739993159
 21
2.3721261846
  0
LINE
  5
290
100
AcDbEntity
  8
0
100
AcDbLine
 62
7
  6
CONTINUOUS
 10
5.8109993159
 20
2.5327680071
 11
5.8109993159
 21
2.5511833615
  0
LINE
  5
291
100
AcDbEntity
  8
0
100
AcDbLine
 62
7
  6
CONTINUOUS
 10
5.8109993159
 20
2.8586833615
 11
5.8109993159
 21
2.8770987158
  0
LINE
  5
292
100
AcDbEntity
  8
0
100
AcDbLine
 62
7
  6
CONTINUOUS
 10
5.8509993159
 20
2.4933979284
 11
5.8509993159
 21
2.5227680071
  0
LINE
  5
293
100
AcDbEntity
  8
0
100
AcDbLine
 62
7
  6
CONTINUOUS
 10
5.8509993159
 20
2.8870987158
 11
5.8509993159
 21
2.9164687945
  0
LINE
  5
294
100
AcDbEntity
  8
0
100
AcDbLine
 62
7
  6
CONTINUOUS
 10
4.2956755105
 20
4.9392824961
 11
4.3310524794
 21
4.9446336454
  0
LINE
  5
295
100
AcDbEntity
  8
0
100
AcDbLine
 62
7
  6
CONTINUOUS
 10
4.5507849872
 20
4.9778705648
 11
4.586161956
 21
4.9832217141
  0
LINE
  5
296
100
AcDbEntity
  8
0
100
AcDbLine
 62
7
  6
CONTINUOUS
 10
4.2868366758
 20
4.9406194655
 11
4.3222136446
 21
4.9459706148
  0
LINE
  5
297
100
AcDbEntity
  8
0
100
AcDbLine
 62
7
  6
CONTINUOUS
 10
4.5419461524
 20
4.9792075342
 11
4.5773231213
 21
4.9845586835
  0
LINE
  5
298
100
AcDbEntity
  8
0
100
AcDbLine
 62
7
  6
CONTINUOUS
 10
4.3137015956
 20
4.9558926563
 11
4.3051114237
 21
4.9545932999
  0
LINE
  5
299
100
AcDbEntity
  8
0
100
AcDbLine
 62
7
  6
CONTINUOUS
 10
4.5359082098
 20
4.989503811
 11
4.5488300475
 21
4.9914583788
  0
LINE
  5
29A
100
AcDbEntity
  8
0
100
AcDbLine
 62
7
  6
CONTINUOUS
 10
4.55936869
 20
4.9930524625
 11
4.5734994187
 21
4.9951898881
  0
LINE
  5
29B
100
AcDbEntity
  8
0
100
AcDbLine
 62
7
  6
CONTINUOUS
 10
4.256319619
 20
4.9469728927
 11
4.3008972002
 21
4.950408542
  0
LINE
  5
29C
100
AcDbEntity
  8
0
100
AcDbLine
 62
7
  6
CONTINUOUS
 10
4.5777763128
 20
4.9717479579
 11
4.6223538941
 21
4.9751836072
  0
LINE
  5
29D
100
AcDbEntity
  8
0
100
AcDbLine
 62
7
  6
CONTINUOUS
 10
4.2506447377
 20
4.9486575724
 11
4.295222319
 21
4.9520932218
  0
LINE
  5
29E
100
AcDbEntity
  8
0
100
AcDbLine
 62
7
  6
CONTINUOUS
 10
4.5721014316
 20
4.9734326376
 11
4.6166790128
 21
4.9768682869
  0
LINE
  5
29F
100
AcDbEntity
  8
0
100
AcDbLine
 62
7
  6
CONTINUOUS
 10
4.2902318305
 20
4.9623387484
 11
4.2861889526
 21
4.9620271588
  0
LINE
  5
2A0
100
AcDbEntity
  8
0
100
AcDbLine
 62
7
  6
CONTINUOUS
 10
4.5997904285
 20
4.9861968126
 11
4.6175961855
 21
4.9875691243
  0
LINE
  5
2A1
100
AcDbEntity
  8
0
100
AcDbLine
 62
7
  6
CONTINUOUS
 10
4.2346009715
 20
4.956126474
 11
4.284015601
 21
4.9573103181
  0
LINE
  5
2A2
100
AcDbEntity
  8
0
100
AcDbLine
 62
7
  6
CONTINUOUS
 10
4.5909384616
 20
4.9646633797
 11
4.6403530911
 21
4.9658472238
  0
LINE
  5
2A3
100
AcDbEntity
  8
0
100
AcDbLine
 62
7
  6
CONTINUOUS
 10
4.2326455407
 20
4.9579939559
 11
4.2820601702
 21
4.9591778
  0
LINE
  5
2A4
100
AcDbEntity
  8
0
100
AcDbLine
 62
7
  6
CONTINUOUS
 10
4.5889830308
 20
4.9665308615
 11
4.6383976603
 21
4.9677147056
  0
LINE
  5
2A5
100
AcDbEntity
  8
0
100
AcDbLine
 62
7
  6
CONTINUOUS
 10
4.2289541514
 20
4.9683175823
 11
4.2229712371
 21
4.9681742474
  0
LINE
  5
2A6
100
AcDbEntity
  8
0
100
AcDbLine
 62
7
  6
CONTINUOUS
 10
4.6272139424
 20
4.9778588356
 11
4.6439659289
 21
4.978260169
  0
LINE
  5
2A7
100
AcDbEntity
  8
0
100
AcDbLine
 62
7
  6
CONTINUOUS
 10
4.2326455407
 20
4.9658472238
 11
4.2820601702
 21
4.9646633797
  0
LINE
  5
2A8
100
AcDbEntity
  8
0
100
AcDbLine
 62
7
  6
CONTINUOUS
 10
4.5889830308
 20
4.9573103181
 11
4.6383976603
 21
4.956126474
  0
LINE
  5
2A9
100
AcDbEntity
  8
0
100
AcDbLine
 62
7
  6
CONTINUOUS
 10
4.2346009715
 20
4.9677147056
 11
4.284015601
 21
4.9665308615
  0
LINE
  5
2AA
100
AcDbEntity
  8
0
100
AcDbLine
 62
7
  6
CONTINUOUS
 10
4.5909384616
 20
4.9591778
 11
4.6403530911
 21
4.9579939559
  0
LINE
  5
2AB
100
AcDbEntity
  8
0
100
AcDbLine
 62
7
  6
CONTINUOUS
 10
4.2457846894
 20
4.9778588356
 11
4.2290327029
 21
4.978260169
  0
LINE
  5
2AC
100
AcDbEntity
  8
0
100
AcDbLine
 62
7
  6
CONTINUOUS
 10
4.6440444804
 20
4.9683175823
 11
4.6500273947
 21
4.9681742474
  0
LINE
  5
2AD
100
AcDbEntity
  8
0
100
AcDbLine
 62
7
  6
CONTINUOUS
 10
4.6166790128
 20
4.9469728927
 11
4.5721014316
 21
4.950408542
  0
LINE
  5
2AE
100
AcDbEntity
  8
0
100
AcDbLine
 62
7
  6
CONTINUOUS
 10
4.295222319
 20
4.9717479579
 11
4.2506447377
 21
4.9751836072
  0
LINE
  5
2AF
100
AcDbEntity
  8
0
100
AcDbLine
 62
7
  6
CONTINUOUS
 10
4.6223538941
 20
4.9486575724
 11
4.5777763128
 21
4.9520932218
  0
LINE
  5
2B0
100
AcDbEntity
  8
0
100
AcDbLine
 62
7
  6
CONTINUOUS
 10
4.3008972002
 20
4.9734326376
 11
4.256319619
 21
4.9768682869
  0
LINE
  5
2B1
100
AcDbEntity
  8
0
100
AcDbLine
 62
7
  6
CONTINUOUS
 10
4.2732082033
 20
4.9861968126
 11
4.2554024463
 21
4.9875691243
  0
LINE
  5
2B2
100
AcDbEntity
  8
0
100
AcDbLine
 62
7
  6
CONTINUOUS
 10
4.5827668013
 20
4.9623387484
 11
4.5868096792
 21
4.9620271588
  0
LINE
  5
2B3
100
AcDbEntity
  8
0
100
AcDbLine
 62
7
  6
CONTINUOUS
 10
4.7260003484
 20
6.093923155
 11
4.7648060167
 21
6.0277429274
  0
LINE
  5
2B4
100
AcDbEntity
  8
0
100
AcDbLine
 62
7
  6
CONTINUOUS
 10
5.8909993159
 20
4.3574137945
 11
5.8909993159
 21
2.9264687945
  0
LINE
  5
2B5
100
AcDbEntity
  8
0
100
AcDbLine
 62
7
  6
CONTINUOUS
 10
5.8909993159
 20
2.4833979284
 11
5.8909993159
 21
2.2434137945
  0
LINE
  5
2B6
100
AcDbEntity
  8
0
100
AcDbLine
 62
7
  6
CONTINUOUS
 10
6.1909993159
 20
4.3574137945
 11
6.1909993159
 21
2.9264687945
  0
LINE
  5
2B7
100
AcDbEntity
  8
0
100
AcDbLine
 62
7
  6
CONTINUOUS
 10
6.1909993159
 20
2.4833979284
 11
6.1909993159
 21
2.2434137945
  0
LINE
  5
2B8
100
AcDbEntity
  8
0
100
AcDbLine
 62
7
  6
CONTINUOUS
 10
6.2309993159
 20
2.4933979284
 11
6.2309993159
 21
2.5227680071
  0
LINE
  5
2B9
100
AcDbEntity
  8
0
100
AcDbLine
 62
7
  6
CONTINUOUS
 10
6.2309993159
 20
2.8870987158
 11
6.2309993159
 21
2.9164687945
  0
LINE
  5
2BA
100
AcDbEntity
  8
0
100
AcDbLine
 62
7
  6
CONTINUOUS
 10
6.2709993159
 20
2.5327680071
 11
6.2709993159
 21
2.8770987158
  0
LINE
  5
2BB
100
AcDbEntity
  8
0
100
AcDbLine
 62
7
  6
CONTINUOUS
 10
4.5429289489
 20
5.5220883301
 11
4.5341243225
 21
5.5220883301
  0
LINE
  5
2BC
100
AcDbEntity
  8
0
100
AcDbLine
 62
7
  6
CONTINUOUS
 10
4.3388742984
 20
5.5220883301
 11
4.3300701427
 21
5.5220883301
  0
LINE
  5
2BD
100
AcDbEntity
  8
0
100
AcDbLine
 62
7
  6
CONTINUOUS
 10
5.5799942837
 20
2.254933417
 11
5.5847573015
 21
2.257046078
  0
LINE
  5
2BE
100
AcDbEntity
  8
0
100
AcDbLine
 62
7
  6
CONTINUOUS
 10
5.7389993159
 20
2.3531504704
 11
5.7472482821
 21
2.3560309046
  0
LINE
  5
2BF
100
AcDbEntity
  8
0
100
AcDbLine
 62
7
  6
CONTINUOUS
 10
5.7472482821
 20
2.3560309046
 11
5.7514471335
 21
2.3574655602
  0
LINE
  5
2C0
100
AcDbEntity
  8
0
100
AcDbLine
 62
7
  6
CONTINUOUS
 10
5.7513903757
 20
2.357446455
 11
5.7555708323
 21
2.3588536341
  0
LINE
  5
2C1
100
AcDbEntity
  8
0
100
AcDbLine
 62
7
  6
CONTINUOUS
 10
5.7555708323
 20
2.3588536341
 11
5.7598468489
 21
2.3602700221
  0
LINE
  5
2C2
100
AcDbEntity
  8
0
100
AcDbLine
 62
7
  6
CONTINUOUS
 10
5.7597893318
 20
2.3602512799
 11
5.7670393309
 21
2.362599469
  0
LINE
  5
2C3
100
AcDbEntity
  8
0
100
AcDbLine
 62
7
  6
CONTINUOUS
 10
5.5839983995
 20
2.255770454
 11
5.5906101116
 21
2.258633732
  0
LINE
  5
2C4
100
AcDbEntity
  8
0
100
AcDbLine
 62
7
  6
CONTINUOUS
 10
5.5905342265
 20
2.2586009883
 11
5.5981060088
 21
2.2618442817
  0
LINE
  5
2C5
100
AcDbEntity
  8
0
100
AcDbLine
 62
7
  6
CONTINUOUS
 10
5.5979955973
 20
2.2617972636
 11
5.6057346493
 21
2.2650720108
  0
LINE
  5
2C6
100
AcDbEntity
  8
0
100
AcDbLine
 62
7
  6
CONTINUOUS
 10
5.6056083711
 20
2.2650189238
 11
5.6151857442
 21
2.2690133517
  0
LINE
  5
2C7
100
AcDbEntity
  8
0
100
AcDbLine
 62
7
  6
CONTINUOUS
 10
5.6150500254
 20
2.2689572101
 11
5.6225453906
 21
2.2720368799
  0
LINE
  5
2C8
100
AcDbEntity
  8
0
100
AcDbLine
 62
7
  6
CONTINUOUS
 10
5.6224048021
 20
2.2719795101
 11
5.6307857513
 21
2.2753731597
  0
LINE
  5
2C9
100
AcDbEntity
  8
0
100
AcDbLine
 62
7
  6
CONTINUOUS
 10
5.6306401544
 20
2.2753146661
 11
5.6399360734
 21
2.2790149671
  0
LINE
  5
2CA
100
AcDbEntity
  8
0
100
AcDbLine
 62
7
  6
CONTINUOUS
 10
5.6397868649
 20
2.2789561293
 11
5.6500219107
 21
2.2829494083
  0
LINE
  5
2CB
100
AcDbEntity
  8
0
100
AcDbLine
 62
7
  6
CONTINUOUS
 10
5.6498706266
 20
2.2828910274
 11
5.6610804891
 21
2.287163085
  0
LINE
  5
2CC
100
AcDbEntity
  8
0
100
AcDbLine
 62
7
  6
CONTINUOUS
 10
5.6609297013
 20
2.2871063544
 11
5.6669958889
 21
2.2893723113
  0
LINE
  5
2CD
100
AcDbEntity
  8
0
100
AcDbLine
 62
7
  6
CONTINUOUS
 10
5.66684634
 20
2.2893168532
 11
5.6731768226
 21
2.2916462972
  0
LINE
  5
2CE
100
AcDbEntity
  8
0
100
AcDbLine
 62
7
  6
CONTINUOUS
 10
5.6730290787
 20
2.2915923613
 11
5.6796253083
 21
2.2939802269
  0
LINE
  5
2CF
100
AcDbEntity
  8
0
100
AcDbLine
 62
7
  6
CONTINUOUS
 10
5.6794800082
 20
2.2939280752
 11
5.6863626403
 21
2.2963755301
  0
LINE
  5
2D0
100
AcDbEntity
  8
0
100
AcDbLine
 62
7
  6
CONTINUOUS
 10
5.6862204149
 20
2.2963254278
 11
5.6933915818
 21
2.2988261159
  0
LINE
  5
2D1
100
AcDbEntity
  8
0
100
AcDbLine
 62
7
  6
CONTINUOUS
 10
5.6932526888
 20
2.298778186
 11
5.7007149162
 21
2.3013251627
  0
LINE
  5
2D2
100
AcDbEntity
  8
0
100
AcDbLine
 62
7
  6
CONTINUOUS
 10
5.7005800604
 20
2.3012796535
 11
5.7083568075
 21
2.3038720565
  0
LINE
  5
2D3
100
AcDbEntity
  8
0
100
AcDbLine
 62
7
  6
CONTINUOUS
 10
5.7082267671
 20
2.3038292458
 11
5.7163282017
 21
2.3064603381
  0
LINE
  5
2D4
100
AcDbEntity
  8
0
100
AcDbLine
 62
7
  6
CONTINUOUS
 10
5.7162035746
 20
2.306420429
 11
5.7246253839
 21
2.3090775747
  0
LINE
  5
2D5
100
AcDbEntity
  8
0
100
AcDbLine
 62
7
  6
CONTINUOUS
 10
5.724506593
 20
2.3090406719
 11
5.7318895369
 21
2.3113023989
  0
LWPOLYLINE
  5
2D6
100
AcDbEntity
  8
0
100
AcDbPolyline
 62
7
  6
CONTINUOUS
 90
58
 70
0
 10
4.4364993159
 20
8.0713213482
 10
4.4302424853
 20
8.0712503979
 10
4.4223645126
 20
8.0709600382
 10
4.4144983516
 20
8.0704474705
 10
4.4066498897
 20
8.0697147107
 10
4.3988249057
 20
8.0687637647
 10
4.3910290714
 20
8.0675966141
 10
4.383268216
 20
8.0662152526
 10
4.375548146
 20
8.0646216693
 10
4.367874496
 20
8.0628178091
 10
4.360253348
 20
8.0608057208
 10
4.3526902285
 20
8.0585873141
 10
4.3451899592
 20
8.0561642283
 10
4.337758241
 20
8.053538307
 10
4.3304010215
 20
8.0507114776
 10
4.3231235357
 20
8.0476853749
 10
4.3159315069
 20
8.0444617834
 10
4.3088309088
 20
8.0410425954
 10
4.3018273845
 20
8.0374295428
 10
4.2949267453
 20
8.0336244226
 10
4.2881349144
 20
8.0296290903
 10
4.2814577193
 20
8.0254453465
 10
4.2749006077
 20
8.0210747221
 10
4.2684699115
 20
8.016519318
 10
4.2621722503
 20
8.0117825376
 10
4.256011782
 20
8.0068692239
 10
4.2499917852
 20
8.00178416
 10
4.2441161323
 20
7.9965326171
 10
4.2383884694
 20
7.9911197082
 10
4.2328122495
 20
7.9855503671
 10
4.2273910285
 20
7.9798296177
 10
4.2221284045
 20
7.9739625336
 10
4.2170278627
 20
7.9679540649
 10
4.2120927999
 20
7.9618090343
 10
4.2073269348
 20
7.9555326576
 10
4.2027336375
 20
7.9491297046
 10
4.198315865
 20
7.9426042611
 10
4.1940771036
 20
7.9359610461
 10
4.1900211184
 20
7.9292052029
 10
4.1861513795
 20
7.9223413909
 10
4.1824715174
 20
7.9153745069
 10
4.1789851962
 20
7.9083095084
 10
4.1756959772
 20
7.9011511283
 10
4.1726074374
 20
7.8939040714
 10
4.1697233505
 20
7.8865734849
 10
4.1670475536
 20
7.8791647777
 10
4.1645835769
 20
7.8716826674
 10
4.1623337158
 20
7.8641328087
 10
4.1602984671
 20
7.8565225022
 10
4.1584778607
 20
7.8488583612
 10
4.1568716955
 20
7.8411460789
 10
4.155479874
 20
7.833391649
 10
4.154302338
 20
7.8256012229
 10
4.1533390242
 20
7.8177809198
 10
4.1525898564
 20
7.8099366761
 10
4.1520547866
 20
7.8020745524
 10
4.1517337774
 20
7.7942007362
 10
4.1516267842
 20
7.7863213482
  0
ARC
  5
2D7
100
AcDbEntity
  8
0
100
AcDbCircle
 62
7
  6
CONTINUOUS
 10
4.9614988586
 20
3.2049328943
 40
0.0499999533
100
AcDbArc
 50
179.9994646434
 51
270.0005240481
  0
ARC
  5
2D8
100
AcDbEntity
  8
0
100
AcDbCircle
 62
7
  6
CONTINUOUS
 10
4.9614987966
 20
2.2049338916
 40
0.049999947
100
AcDbArc
 50
89.9994049116
 51
180.0006074962
  0
ARC
  5
2D9
100
AcDbEntity
  8
0
100
AcDbCircle
 62
7
  6
CONTINUOUS
 10
4.9731528592
 20
0.9355632827
 40
0.015
100
AcDbArc
 50
180.0
 51
270.0
  0
ARC
  5
2DA
100
AcDbEntity
  8
0
100
AcDbCircle
 62
7
  6
CONTINUOUS
 10
3.8998457726
 20
0.9355632827
 40
0.015
100
AcDbArc
 50
270.0
 51
360.0
  0
ARC
  5
2DB
100
AcDbEntity
  8
0
100
AcDbCircle
 62
7
  6
CONTINUOUS
 10
4.9825229379
 20
0.9055632827
 40
0.015
100
AcDbArc
 50
0.0
 51
90.0
  0
ARC
  5
2DC
100
AcDbEntity
  8
0
100
AcDbCircle
 62
7
  6
CONTINUOUS
 10
3.8904756939
 20
0.9055632827
 40
0.015
100
AcDbArc
 50
90.0
 51
180.0
  0
ARC
  5
2DD
100
AcDbEntity
  8
0
100
AcDbCircle
 62
7
  6
CONTINUOUS
 10
4.9431528592
 20
0.9449333615
 40
0.015
100
AcDbArc
 50
0.0
 51
90.0
  0
ARC
  5
2DE
100
AcDbEntity
  8
0
100
AcDbCircle
 62
7
  6
CONTINUOUS
 10
3.9298457726
 20
0.9449333615
 40
0.015
100
AcDbArc
 50
90.0
 51
180.0
  0
ARC
  5
2DF
100
AcDbEntity
  8
0
100
AcDbCircle
 62
7
  6
CONTINUOUS
 10
4.4357657108
 20
3.641165637
 40
1.3615222225
100
AcDbArc
 50
90.5668812289
 51
92.177904997
  0
ARC
  5
2E0
100
AcDbEntity
  8
0
100
AcDbCircle
 62
7
  6
CONTINUOUS
 10
4.4358100428
 20
3.6801452484
 40
1.3128536552
100
AcDbArc
 50
91.1029094403
 51
91.6418767855
  0
ARC
  5
2E1
100
AcDbEntity
  8
0
100
AcDbCircle
 62
7
  6
CONTINUOUS
 10
4.4171275758
 20
3.9949974448
 40
1.0071750402
100
AcDbArc
 50
93.4221783624
 51
95.3921102291
  0
ARC
  5
2E2
100
AcDbEntity
  8
0
100
AcDbCircle
 62
7
  6
CONTINUOUS
 10
4.4359988873
 20
3.9914731467
 40
0.9939644424
100
AcDbArc
 50
91.0164512092
 51
91.7283350166
  0
ARC
  5
2E3
100
AcDbEntity
  8
0
100
AcDbCircle
 62
7
  6
CONTINUOUS
 10
4.4182894579
 20
4.01593288
 40
0.9765745138
100
AcDbArc
 50
94.07945176
 51
94.7348368315
  0
ARC
  5
2E4
100
AcDbEntity
  8
0
100
AcDbCircle
 62
7
  6
CONTINUOUS
 10
4.422866848
 20
4.2445050879
 40
0.7405667066
100
AcDbArc
 50
93.9750191879
 51
94.8392694036
  0
ARC
  5
2E5
100
AcDbEntity
  8
0
100
AcDbCircle
 62
7
  6
CONTINUOUS
 10
4.3666191577
 20
4.4856576467
 40
0.5039198801
100
AcDbArc
 50
98.0931914419
 51
99.1096136816
  0
ARC
  5
2E6
100
AcDbEntity
  8
0
100
AcDbCircle
 62
7
  6
CONTINUOUS
 10
4.3839030852
 20
4.5999213538
 40
0.3829506407
100
AcDbArc
 50
97.9326475938
 51
99.2701575297
  0
ARC
  5
2E7
100
AcDbEntity
  8
0
100
AcDbCircle
 62
7
  6
CONTINUOUS
 10
3.9764993159
 20
3.7449333615
 40
0.015
100
AcDbArc
 50
90.0
 51
180.0
  0
ARC
  5
2E8
100
AcDbEntity
  8
0
100
AcDbCircle
 62
7
  6
CONTINUOUS
 10
4.1314993159
 20
4.0199333615
 40
0.015
100
AcDbArc
 50
90.0
 51
180.0
  0
ARC
  5
2E9
100
AcDbEntity
  8
0
100
AcDbCircle
 62
7
  6
CONTINUOUS
 10
3.9639993159
 20
3.9649333615
 40
0.01
100
AcDbArc
 50
90.0
 51
180.0
  0
ARC
  5
2EA
100
AcDbEntity
  8
0
100
AcDbCircle
 62
7
  6
CONTINUOUS
 10
3.9439993159
 20
3.9449333615
 40
0.01
100
AcDbArc
 50
270.0
 51
360.0
  0
ARC
  5
2EB
100
AcDbEntity
  8
0
100
AcDbCircle
 62
7
  6
CONTINUOUS
 10
3.9239993159
 20
3.9249333615
 40
0.01
100
AcDbArc
 50
90.0
 51
180.0
  0
ARC
  5
2EC
100
AcDbEntity
  8
0
100
AcDbCircle
 62
7
  6
CONTINUOUS
 10
3.9239993159
 20
3.7699333615
 40
0.01
100
AcDbArc
 50
180.0
 51
270.0
  0
ARC
  5
2ED
100
AcDbEntity
  8
0
100
AcDbCircle
 62
7
  6
CONTINUOUS
 10
4.4356624164
 20
6.2375338869
 40
1.3066899112
100
AcDbArc
 50
268.3568520325
 51
268.8983617417
  0
ARC
  5
2EE
100
AcDbEntity
  8
0
100
AcDbCircle
 62
7
  6
CONTINUOUS
 10
4.4358512481
 20
5.9262054485
 40
0.9878002094
100
AcDbArc
 50
268.2694437474
 51
268.9857700267
  0
ARC
  5
2EF
100
AcDbEntity
  8
0
100
AcDbCircle
 62
7
  6
CONTINUOUS
 10
4.4360098729
 20
5.9343000014
 40
0.9874964099
100
AcDbArc
 50
267.5169649896
 51
269.7382487846
  0
ARC
  5
2F0
100
AcDbEntity
  8
0
100
AcDbCircle
 62
7
  6
CONTINUOUS
 10
4.4171678182
 20
5.8933550141
 40
0.9619783115
100
AcDbArc
 50
265.2601909983
 51
265.9255204101
  0
ARC
  5
2F1
100
AcDbEntity
  8
0
100
AcDbCircle
 62
7
  6
CONTINUOUS
 10
4.42174511
 20
5.6647815303
 40
0.7259694057
100
AcDbArc
 50
265.1520415478
 51
266.0336698607
  0
ARC
  5
2F2
100
AcDbEntity
  8
0
100
AcDbCircle
 62
7
  6
CONTINUOUS
 10
4.3644597533
 20
5.4239075005
 40
0.4894820395
100
AcDbArc
 50
260.8753956311
 51
261.9217992454
  0
ARC
  5
2F3
100
AcDbEntity
  8
0
100
AcDbCircle
 62
7
  6
CONTINUOUS
 10
4.3817434915
 20
5.3096425418
 40
0.3685119715
100
AcDbArc
 50
260.7036387182
 51
262.0935561583
  0
ARC
  5
2F4
100
AcDbEntity
  8
0
100
AcDbCircle
 62
7
  6
CONTINUOUS
 10
4.4331969491
 20
5.5254977836
 40
0.111319549
100
AcDbArc
 50
7.4488458428
 51
7.7615999444
  0
ARC
  5
2F5
100
AcDbEntity
  8
0
100
AcDbCircle
 62
7
  6
CONTINUOUS
 10
4.4350292847
 20
5.5257129302
 40
0.1094747874
100
AcDbArc
 50
3.8317163951
 51
7.4615191077
  0
ARC
  5
2F6
100
AcDbEntity
  8
0
100
AcDbCircle
 62
7
  6
CONTINUOUS
 10
4.434371809
 20
5.5349878652
 40
0.096372853
100
AcDbArc
 50
181.5227033502
 51
199.8882731796
  0
ARC
  5
2F7
100
AcDbEntity
  8
0
100
AcDbCircle
 62
7
  6
CONTINUOUS
 10
4.4342868404
 20
5.5349757398
 40
0.096287489
100
AcDbArc
 50
179.9999927543
 51
181.5168342753
  0
ARC
  5
2F8
100
AcDbEntity
  8
0
100
AcDbCircle
 62
7
  6
CONTINUOUS
 10
4.4363551977
 20
5.5235901919
 40
0.0879740614
100
AcDbArc
 50
236.1005462402
 51
254.8450310491
  0
ARC
  5
2F9
100
AcDbEntity
  8
0
100
AcDbCircle
 62
7
  6
CONTINUOUS
 10
4.3278454369
 20
4.9962171928
 40
0.0507290476
100
AcDbArc
 50
275.2991893704
 51
275.6902012503
  0
ARC
  5
2FA
100
AcDbEntity
  8
0
100
AcDbCircle
 62
7
  6
CONTINUOUS
 10
4.3854427843
 20
4.9570244525
 40
0.0151728341
100
AcDbArc
 50
282.1103217351
 51
283.7297434956
  0
ARC
  5
2FB
100
AcDbEntity
  8
0
100
AcDbCircle
 62
7
  6
CONTINUOUS
 10
4.4293202146
 20
5.0118945108
 40
0.0145447955
100
AcDbArc
 50
256.2354040034
 51
257.9247423302
  0
ARC
  5
2FC
100
AcDbEntity
  8
0
100
AcDbCircle
 62
7
  6
CONTINUOUS
 10
4.292402204
 20
4.9768134456
 40
0.0139128449
100
AcDbArc
 50
230.1859308863
 51
233.1563174643
  0
ARC
  5
2FD
100
AcDbEntity
  8
0
100
AcDbCircle
 62
7
  6
CONTINUOUS
 10
4.4268897562
 20
4.9464627334
 40
0.0056440267
100
AcDbArc
 50
249.0162691233
 51
251.3829119556
  0
ARC
  5
2FE
100
AcDbEntity
  8
0
100
AcDbCircle
 62
7
  6
CONTINUOUS
 10
4.437232921
 20
3.641165637
 40
1.3615222225
100
AcDbArc
 50
87.822095003
 51
89.4331187711
  0
ARC
  5
2FF
100
AcDbEntity
  8
0
100
AcDbCircle
 62
7
  6
CONTINUOUS
 10
4.4373362154
 20
3.6863072928
 40
1.3066899112
100
AcDbArc
 50
88.3568520325
 51
88.8983617417
  0
ARC
  5
300
100
AcDbEntity
  8
0
100
AcDbCircle
 62
7
  6
CONTINUOUS
 10
4.4558710561
 20
3.9949974448
 40
1.0071750402
100
AcDbArc
 50
84.6078897709
 51
86.5778216376
  0
ARC
  5
301
100
AcDbEntity
  8
0
100
AcDbCircle
 62
7
  6
CONTINUOUS
 10
4.4371473837
 20
3.9976357311
 40
0.9878002094
100
AcDbArc
 50
88.2694437474
 51
88.9857700267
  0
ARC
  5
302
100
AcDbEntity
  8
0
100
AcDbCircle
 62
7
  6
CONTINUOUS
 10
4.4558308136
 20
4.0304861656
 40
0.9619783115
100
AcDbArc
 50
85.2601909983
 51
85.9255204101
  0
ARC
  5
303
100
AcDbEntity
  8
0
100
AcDbCircle
 62
7
  6
CONTINUOUS
 10
4.4512535218
 20
4.2590596493
 40
0.7259694057
100
AcDbArc
 50
85.1520415478
 51
86.0336698607
  0
ARC
  5
304
100
AcDbEntity
  8
0
100
AcDbCircle
 62
7
  6
CONTINUOUS
 10
4.5085388785
 20
4.4999336791
 40
0.4894820394
100
AcDbArc
 50
80.875395631
 51
81.9217992455
  0
ARC
  5
305
100
AcDbEntity
  8
0
100
AcDbCircle
 62
7
  6
CONTINUOUS
 10
4.4912551403
 20
4.6141986378
 40
0.3685119715
100
AcDbArc
 50
80.7036387182
 51
82.0935561583
  0
ARC
  5
306
100
AcDbEntity
  8
0
100
AcDbCircle
 62
7
  6
CONTINUOUS
 10
4.8964993159
 20
3.7449333615
 40
0.015
100
AcDbArc
 50
0.0
 51
90.0
  0
ARC
  5
307
100
AcDbEntity
  8
0
100
AcDbCircle
 62
7
  6
CONTINUOUS
 10
4.7414993159
 20
4.0199333615
 40
0.015
100
AcDbArc
 50
0.0
 51
90.0
  0
ARC
  5
308
100
AcDbEntity
  8
0
100
AcDbCircle
 62
7
  6
CONTINUOUS
 10
4.9089993159
 20
3.9649333615
 40
0.01
100
AcDbArc
 50
0.0
 51
90.0
  0
ARC
  5
309
100
AcDbEntity
  8
0
100
AcDbCircle
 62
7
  6
CONTINUOUS
 10
4.9289993159
 20
3.9449333615
 40
0.01
100
AcDbArc
 50
180.0
 51
270.0
  0
ARC
  5
30A
100
AcDbEntity
  8
0
100
AcDbCircle
 62
7
  6
CONTINUOUS
 10
4.9489993159
 20
3.9249333615
 40
0.01
100
AcDbArc
 50
0.0
 51
90.0
  0
ARC
  5
30B
100
AcDbEntity
  8
0
100
AcDbCircle
 62
7
  6
CONTINUOUS
 10
4.9489993159
 20
3.7699333615
 40
0.01
100
AcDbArc
 50
270.0
 51
360.0
  0
ARC
  5
30C
100
AcDbEntity
  8
0
100
AcDbCircle
 62
7
  6
CONTINUOUS
 10
4.4371885891
 20
6.2436959312
 40
1.3128536552
100
AcDbArc
 50
271.1029094403
 51
271.6418767856
  0
ARC
  5
30D
100
AcDbEntity
  8
0
100
AcDbCircle
 62
7
  6
CONTINUOUS
 10
4.4369997445
 20
5.932368033
 40
0.9939644425
100
AcDbArc
 50
271.0164512092
 51
271.7283350166
  0
ARC
  5
30E
100
AcDbEntity
  8
0
100
AcDbCircle
 62
7
  6
CONTINUOUS
 10
4.4369887589
 20
5.9343000014
 40
0.9874964099
100
AcDbArc
 50
270.2617512154
 51
272.4830350104
  0
ARC
  5
30F
100
AcDbEntity
  8
0
100
AcDbCircle
 62
7
  6
CONTINUOUS
 10
4.4547091739
 20
5.9079082996
 40
0.9765745138
100
AcDbArc
 50
274.0794517601
 51
274.7348368315
  0
ARC
  5
310
100
AcDbEntity
  8
0
100
AcDbCircle
 62
7
  6
CONTINUOUS
 10
4.4501317838
 20
5.6793360918
 40
0.7405667066
100
AcDbArc
 50
273.9750191879
 51
274.8392694037
  0
ARC
  5
311
100
AcDbEntity
  8
0
100
AcDbCircle
 62
7
  6
CONTINUOUS
 10
4.5063794741
 20
5.4381835329
 40
0.5039198801
100
AcDbArc
 50
278.0931914419
 51
279.1096136816
  0
ARC
  5
312
100
AcDbEntity
  8
0
100
AcDbCircle
 62
7
  6
CONTINUOUS
 10
4.4890955466
 20
5.3239198258
 40
0.3829506406
100
AcDbArc
 50
277.9326475938
 51
279.2701575297
  0
ARC
  5
313
100
AcDbEntity
  8
0
100
AcDbCircle
 62
7
  6
CONTINUOUS
 10
4.4398018372
 20
5.5254977617
 40
0.1113197051
100
AcDbArc
 50
172.2378598819
 51
172.5511568007
  0
ARC
  5
314
100
AcDbEntity
  8
0
100
AcDbCircle
 62
7
  6
CONTINUOUS
 10
4.4384914456
 20
5.5256613344
 40
0.1099991664
100
AcDbArc
 50
172.5471523064
 51
176.1632337957
  0
ARC
  5
315
100
AcDbEntity
  8
0
100
AcDbCircle
 62
7
  6
CONTINUOUS
 10
4.4366436839
 20
5.5235897049
 40
0.0879735168
100
AcDbArc
 50
285.1815719398
 51
303.8996740003
  0
ARC
  5
316
100
AcDbEntity
  8
0
100
AcDbCircle
 62
7
  6
CONTINUOUS
 10
4.5451043657
 20
4.9957095905
 40
0.0502191052
100
AcDbArc
 50
264.3078135058
 51
264.7027958735
  0
ARC
  5
317
100
AcDbEntity
  8
0
100
AcDbCircle
 62
7
  6
CONTINUOUS
 10
4.4435379254
 20
5.0125069513
 40
0.0151730781
100
AcDbArc
 50
282.1102358782
 51
283.7296177883
  0
ARC
  5
318
100
AcDbEntity
  8
0
100
AcDbCircle
 62
7
  6
CONTINUOUS
 10
4.4874153538
 20
4.956412009
 40
0.0145445482
100
AcDbArc
 50
256.2352766613
 51
257.9246581078
  0
ARC
  5
319
100
AcDbEntity
  8
0
100
AcDbCircle
 62
7
  6
CONTINUOUS
 10
4.5803303244
 20
4.9771500421
 40
0.0143417834
100
AcDbArc
 50
306.8881116643
 51
309.7696399854
  0
ARC
  5
31A
100
AcDbEntity
  8
0
100
AcDbCircle
 62
7
  6
CONTINUOUS
 10
4.4849849577
 20
5.001945012
 40
0.0056440456
100
AcDbArc
 50
249.0162717083
 51
251.3829777202
  0
ARC
  5
31B
100
AcDbEntity
  8
0
100
AcDbCircle
 62
7
  6
CONTINUOUS
 10
6.056776509
 20
1.4703514967
 40
0.94020181
100
AcDbArc
 50
108.1435154091
 51
109.7543565539
  0
ARC
  5
31C
100
AcDbEntity
  8
0
100
AcDbCircle
 62
7
  6
CONTINUOUS
 10
5.3839993159
 20
3.1399333615
 40
0.015
100
AcDbArc
 50
0.0
 51
90.0
  0
ARC
  5
31D
100
AcDbEntity
  8
0
100
AcDbCircle
 62
7
  6
CONTINUOUS
 10
5.3839993159
 20
2.2699333615
 40
0.015
100
AcDbArc
 50
270.0
 51
360.0
  0
ARC
  5
31E
100
AcDbEntity
  8
0
100
AcDbCircle
 62
7
  6
CONTINUOUS
 10
5.7289984492
 20
2.3235967543
 40
0.0114497162
100
AcDbArc
 50
270.0043371069
 51
276.5502358931
  0
ARC
  5
31F
100
AcDbEntity
  8
0
100
AcDbCircle
 62
7
  6
CONTINUOUS
 10
5.7290103721
 20
2.3234973034
 40
0.0113495543
100
AcDbArc
 50
276.5477103527
 51
279.8412177694
  0
ARC
  5
320
100
AcDbEntity
  8
0
100
AcDbCircle
 62
7
  6
CONTINUOUS
 10
5.7289993159
 20
2.3208756232
 40
0.01
100
AcDbArc
 50
286.7956432779
 51
359.9999919406
  0
ARC
  5
321
100
AcDbEntity
  8
0
100
AcDbCircle
 62
7
  6
CONTINUOUS
 10
5.7639993159
 20
2.3721261846
 40
0.01
100
AcDbArc
 50
287.6991084031
 51
359.9999933856
  0
ARC
  5
322
100
AcDbEntity
  8
0
100
AcDbCircle
 62
7
  6
CONTINUOUS
 10
5.4089993159
 20
2.2649333615
 40
0.01
100
AcDbArc
 50
180.0
 51
270.0
  0
ARC
  5
323
100
AcDbEntity
  8
0
100
AcDbCircle
 62
7
  6
CONTINUOUS
 10
5.4089993159
 20
3.1449333615
 40
0.01
100
AcDbArc
 50
90.0
 51
180.0
  0
ARC
  5
324
100
AcDbEntity
  8
0
100
AcDbCircle
 62
7
  6
CONTINUOUS
 10
5.7289993159
 20
3.1449333615
 40
0.01
100
AcDbArc
 50
0.0
 51
90.0
  0
ARC
  5
325
100
AcDbEntity
  8
0
100
AcDbCircle
 62
7
  6
CONTINUOUS
 10
5.7639993159
 20
3.1049333615
 40
0.01
100
AcDbArc
 50
0.0
 51
90.0
  0
ARC
  5
326
100
AcDbEntity
  8
0
100
AcDbCircle
 62
7
  6
CONTINUOUS
 10
5.8059993159
 20
2.5511833615
 40
0.005
100
AcDbArc
 50
0.0
 51
90.0000000002
  0
ARC
  5
327
100
AcDbEntity
  8
0
100
AcDbCircle
 62
7
  6
CONTINUOUS
 10
5.8059993159
 20
2.8586833615
 40
0.005
100
AcDbArc
 50
269.9999999998
 51
360.0
  0
ARC
  5
328
100
AcDbEntity
  8
0
100
AcDbCircle
 62
7
  6
CONTINUOUS
 10
6.2259993159
 20
2.9164687945
 40
0.005
100
AcDbArc
 50
0.0
 51
90.0
  0
ARC
  5
329
100
AcDbEntity
  8
0
100
AcDbCircle
 62
7
  6
CONTINUOUS
 10
5.8559993159
 20
2.9164687945
 40
0.005
100
AcDbArc
 50
90.0
 51
180.0
  0
ARC
  5
32A
100
AcDbEntity
  8
0
100
AcDbCircle
 62
7
  6
CONTINUOUS
 10
5.8459993159
 20
2.8870987158
 40
0.005
100
AcDbArc
 50
270.000000006
 51
360.0
  0
ARC
  5
32B
100
AcDbEntity
  8
0
100
AcDbCircle
 62
7
  6
CONTINUOUS
 10
6.2359993159
 20
2.8870987158
 40
0.005
100
AcDbArc
 50
180.0
 51
269.999999994
  0
ARC
  5
32C
100
AcDbEntity
  8
0
100
AcDbCircle
 62
7
  6
CONTINUOUS
 10
5.8559993159
 20
2.4933979284
 40
0.005
100
AcDbArc
 50
180.0
 51
270.0
  0
ARC
  5
32D
100
AcDbEntity
  8
0
100
AcDbCircle
 62
7
  6
CONTINUOUS
 10
6.2259993159
 20
2.4933979284
 40
0.005
100
AcDbArc
 50
270.0
 51
360.0
  0
ARC
  5
32E
100
AcDbEntity
  8
0
100
AcDbCircle
 62
7
  6
CONTINUOUS
 10
6.2359993159
 20
2.5227680071
 40
0.005
100
AcDbArc
 50
90.0000000053
 51
180.0
  0
ARC
  5
32F
100
AcDbEntity
  8
0
100
AcDbCircle
 62
7
  6
CONTINUOUS
 10
5.8459993159
 20
2.5227680071
 40
0.005
100
AcDbArc
 50
0.0
 51
89.9999999947
  0
ARC
  5
330
100
AcDbEntity
  8
0
100
AcDbCircle
 62
7
  6
CONTINUOUS
 10
5.8159993159
 20
2.5327680071
 40
0.005
100
AcDbArc
 50
180.0
 51
270.0
  0
ARC
  5
331
100
AcDbEntity
  8
0
100
AcDbCircle
 62
7
  6
CONTINUOUS
 10
6.2659993159
 20
2.5327680071
 40
0.005
100
AcDbArc
 50
270.0
 51
360.0
  0
ARC
  5
332
100
AcDbEntity
  8
0
100
AcDbCircle
 62
7
  6
CONTINUOUS
 10
6.2659993159
 20
2.8770987158
 40
0.005
100
AcDbArc
 50
0.0
 51
90.0
  0
ARC
  5
333
100
AcDbEntity
  8
0
100
AcDbCircle
 62
7
  6
CONTINUOUS
 10
5.8159993159
 20
2.8770987158
 40
0.005
100
AcDbArc
 50
90.0
 51
180.0
  0
ARC
  5
334
100
AcDbEntity
  8
0
100
AcDbCircle
 62
7
  6
CONTINUOUS
 10
5.8959993159
 20
2.2434137945
 40
0.005
100
AcDbArc
 50
180.0
 51
270.0
  0
ARC
  5
335
100
AcDbEntity
  8
0
100
AcDbCircle
 62
7
  6
CONTINUOUS
 10
6.1859993159
 20
2.2434137945
 40
0.005
100
AcDbArc
 50
270.0
 51
360.0
  0
ARC
  5
336
100
AcDbEntity
  8
0
100
AcDbCircle
 62
7
  6
CONTINUOUS
 10
5.8859993159
 20
2.4833979284
 40
0.005
100
AcDbArc
 50
0.0
 51
90.0
  0
ARC
  5
337
100
AcDbEntity
  8
0
100
AcDbCircle
 62
7
  6
CONTINUOUS
 10
6.1959993159
 20
2.4833979284
 40
0.005
100
AcDbArc
 50
90.0
 51
180.0
  0
ARC
  5
338
100
AcDbEntity
  8
0
100
AcDbCircle
 62
7
  6
CONTINUOUS
 10
6.1959993159
 20
2.9264687945
 40
0.005
100
AcDbArc
 50
180.0
 51
270.0
  0
ARC
  5
339
100
AcDbEntity
  8
0
100
AcDbCircle
 62
7
  6
CONTINUOUS
 10
5.8859993159
 20
2.9264687945
 40
0.005
100
AcDbArc
 50
270.0
 51
360.0
  0
ARC
  5
33A
100
AcDbEntity
  8
0
100
AcDbCircle
 62
7
  6
CONTINUOUS
 10
5.8959993159
 20
4.3574137945
 40
0.005
100
AcDbArc
 50
90.0
 51
180.0
  0
ARC
  5
33B
100
AcDbEntity
  8
0
100
AcDbCircle
 62
7
  6
CONTINUOUS
 10
6.1859993159
 20
4.3574137945
 40
0.005
100
AcDbArc
 50
0.0
 51
90.0
  0
LINE
  5
33C
100
AcDbEntity
  8
0
100
AcDbLine
 62
7
  6
CONTINUOUS
 10
4.2334195182
 20
4.9571640543
 11
4.2346009715
 21
4.956126474
  0
SPLINE
  5
33D
100
AcDbEntity
  8
0
100
AcDbSpline
 62
7
  6
CONTINUOUS
 70
0
 71
3
 72
11
 73
7
 74
0
 42
0.0000001
 43
0.0000001
 44
0.0000000001
 40
0.0
 40
0.0
 40
0.0
 40
0.0
 40
0.2766356841
 40
0.5311378823
 40
0.7697474491
 40
1.0
 40
1.0
 40
1.0
 40
1.0
 10
4.7193418679
 20
6.1019114043
 30
0.0
 10
4.7196650309
 20
6.1023216394
 30
0.0
 10
4.720240406
 20
6.1031470459
 30
0.0
 10
4.7208904901
 20
6.1044534132
 30
0.0
 10
4.7212835458
 20
6.1057687145
 30
0.0
 10
4.7213718476
 20
6.1066560869
 30
0.0
 10
4.7213718476
 20
6.1070907577
 30
0.0
  0
SPLINE
  5
33E
100
AcDbEntity
  8
0
100
AcDbSpline
 62
7
  6
CONTINUOUS
 70
0
 71
3
 72
26
 73
22
 74
0
 42
0.0000001
 43
0.0000001
 44
0.0000000001
 40
0.0
 40
0.0
 40
0.0
 40
0.0
 40
0.0621787529
 40
0.0932836789
 40
0.1243902498
 40
0.1866052815
 40
0.2488556737
 40
0.2800062911
 40
0.3111691077
 40
0.3735155724
 40
0.4359197544
 40
0.4983852095
 40
0.5609130974
 40
0.6235021798
 40
0.6861489072
 40
0.7488473868
 40
0.8115901665
 40
0.8743669274
 40
0.9057734015
 40
0.9371873769
 40
1.0
 40
1.0
 40
1.0
 40
1.0
 10
4.3379993159
 20
5.534975752
 30
0.0
 10
4.3379993159
 20
5.531787316
 30
0.0
 10
4.3382372345
 20
5.5269994214
 30
0.0
 10
4.3390270532
 20
5.5206680856
 30
0.0
 10
4.3401301375
 20
5.5143813176
 30
0.0
 10
4.3420924965
 20
5.5066346417
 30
0.0
 10
4.3448127101
 20
5.4991180813
 30
0.0
 10
4.3474265309
 20
5.4932874159
 30
0.0
 10
4.3503273671
 20
5.4875886181
 30
0.0
 10
4.3544790671
 20
5.480739553
 30
0.0
 10
4.3602487397
 20
5.4730476278
 30
0.0
 10
4.3667525392
 20
5.4659524081
 30
0.0
 10
4.3739273927
 20
5.4595226107
 30
0.0
 10
4.3817041394
 20
5.4538198078
 30
0.0
 10
4.3900077584
 20
5.4488987501
 30
0.0
 10
4.398758423
 20
5.4448065239
 30
0.0
 10
4.4078713751
 20
5.4415824658
 30
0.0
 10
4.4156956571
 20
5.4396446789
 30
0.0
 10
4.4220455997
 20
5.4385552499
 30
0.0
 10
4.4284422797
 20
5.4377750056
 30
0.0
 10
4.4332783759
 20
5.4375400675
 30
0.0
 10
4.4364993159
 20
5.4375400675
 30
0.0
  0
SPLINE
  5
33F
100
AcDbEntity
  8
0
100
AcDbSpline
 62
7
  6
CONTINUOUS
 70
0
 71
3
 72
26
 73
22
 74
0
 42
0.0000001
 43
0.0000001
 44
0.0000000001
 40
0.0
 40
0.0
 40
0.0
 40
0.0
 40
0.0628126267
 40
0.0942266048
 40
0.1256330802
 40
0.1884098419
 40
0.2511526219
 40
0.3138511004
 40
0.3764978259
 40
0.4390869057
 40
0.5016147908
 40
0.5640802431
 40
0.6264844225
 40
0.6888308852
 40
0.719993701
 40
0.751144318
 40
0.8133947103
 40
0.8756097427
 40
0.906716315
 40
0.9378212436
 40
1.0
 40
1.0
 40
1.0
 40
1.0
 10
4.4364993159
 20
5.4375400675
 30
0.0
 10
4.4397202561
 20
5.4375400675
 30
0.0
 10
4.4445563526
 20
5.4377750057
 30
0.0
 10
4.450953033
 20
5.43855525
 30
0.0
 10
4.4573029759
 20
5.4396446792
 30
0.0
 10
4.4651272579
 20
5.4415824662
 30
0.0
 10
4.47424021
 20
5.4448065244
 30
0.0
 10
4.4829908744
 20
5.4488987507
 30
0.0
 10
4.4912944931
 20
5.4538198083
 30
0.0
 10
4.4990712394
 20
5.459522611
 30
0.0
 10
4.5062460927
 20
5.4659524081
 30
0.0
 10
4.5127498919
 20
5.4730476275
 30
0.0
 10
4.5185195642
 20
5.4807395523
 30
0.0
 10
4.5226712641
 20
5.4875886173
 30
0.0
 10
4.5255721005
 20
5.4932874148
 30
0.0
 10
4.5281859212
 20
5.4991180802
 30
0.0
 10
4.5309061349
 20
5.5066346405
 30
0.0
 10
4.5328684941
 20
5.5143813165
 30
0.0
 10
4.5339715785
 20
5.5206680847
 30
0.0
 10
4.5347613972
 20
5.5269994209
 30
0.0
 10
4.5349993159
 20
5.5317873158
 30
0.0
 10
4.5349993159
 20
5.534975752
 30
0.0
  0
SPLINE
  5
340
100
AcDbEntity
  8
0
100
AcDbSpline
 62
7
  6
CONTINUOUS
 70
0
 71
3
 72
26
 73
22
 74
0
 42
0.0000001
 43
0.0000001
 44
0.0000000001
 40
0.0
 40
0.0
 40
0.0
 40
0.0
 40
0.0622657696
 40
0.0934130714
 40
0.1245608161
 40
0.1868528085
 40
0.2491704901
 40
0.2803503079
 40
0.3115389765
 40
0.373926151
 40
0.4363551649
 40
0.4988286658
 40
0.5613475568
 40
0.6239110018
 40
0.6865164812
 40
0.7491597156
 40
0.8118353937
 40
0.8745357447
 40
0.9059014428
 40
0.9372734318
 40
1.0
 40
1.0
 40
1.0
 40
1.0
 10
4.5349993159
 20
5.5523668677
 30
0.0
 10
4.5349993159
 20
5.5555622933
 30
0.0
 10
4.5347611241
 20
5.5603606162
 30
0.0
 10
4.5339703782
 20
5.5667057464
 30
0.0
 10
4.5328660775
 20
5.573005792
 30
0.0
 10
4.5309017137
 20
5.5807682932
 30
0.0
 10
4.5281787762
 20
5.5883000575
 30
0.0
 10
4.5255625068
 20
5.594142048
 30
0.0
 10
4.5226594645
 20
5.5998509151
 30
0.0
 10
4.5185051419
 20
5.6067112821
 30
0.0
 10
4.5127323961
 20
5.6144151336
 30
0.0
 10
4.5062262138
 20
5.6215201649
 30
0.0
 10
4.499049941
 20
5.627957762
 30
0.0
 10
4.4912729345
 20
5.6336665383
 30
0.0
 10
4.482970317
 20
5.638591987
 30
0.0
 10
4.474221914
 20
5.6426872965
 30
0.0
 10
4.4651123822
 20
5.645913404
 30
0.0
 10
4.4572915355
 20
5.6478522978
 30
0.0
 10
4.4509447966
 20
5.6489422632
 30
0.0
 10
4.4445517452
 20
5.6497228417
 30
0.0
 10
4.4397183894
 20
5.6499578847
 30
0.0
 10
4.4364993159
 20
5.6499578847
 30
0.0
  0
SPLINE
  5
341
100
AcDbEntity
  8
0
100
AcDbSpline
 62
7
  6
CONTINUOUS
 70
0
 71
3
 72
26
 73
22
 74
0
 42
0.0000001
 43
0.0000001
 44
0.0000000001
 40
0.0
 40
0.0
 40
0.0
 40
0.0
 40
0.0627265813
 40
0.0940985803
 40
0.1254642833
 40
0.1881646374
 40
0.2508403164
 40
0.3134835469
 40
0.3760890193
 40
0.438652455
 40
0.5011713355
 40
0.5636448257
 40
0.6260738301
 40
0.6884609972
 40
0.7196496632
 40
0.7508294793
 40
0.8131471613
 40
0.8754391566
 40
0.9065869057
 40
0.9377342174
 40
1.0
 40
1.0
 40
1.0
 40
1.0
 10
4.4364993159
 20
5.6499578847
 30
0.0
 10
4.4332802418
 20
5.6499578847
 30
0.0
 10
4.4284468848
 20
5.6497228415
 30
0.0
 10
4.4220538319
 20
5.6489422628
 30
0.0
 10
4.4157070922
 20
5.647852297
 30
0.0
 10
4.4078862451
 20
5.6459134026
 30
0.0
 10
4.3987767135
 20
5.6426872947
 30
0.0
 10
4.3900283112
 20
5.638591985
 30
0.0
 10
4.3817256947
 20
5.6336665365
 30
0.0
 10
4.3739486894
 20
5.6279577609
 30
0.0
 10
4.3667724179
 20
5.6215201647
 30
0.0
 10
4.3602662366
 20
5.6144151346
 30
0.0
 10
4.3544934915
 20
5.6067112844
 30
0.0
 10
4.3503391693
 20
5.5998509184
 30
0.0
 10
4.3474361268
 20
5.5941420521
 30
0.0
 10
4.3448198575
 20
5.5883000617
 30
0.0
 10
4.3420969194
 20
5.5807682976
 30
0.0
 10
4.3401325552
 20
5.5730057961
 30
0.0
 10
4.339028254
 20
5.5667057496
 30
0.0
 10
4.338237508
 20
5.560360618
 30
0.0
 10
4.3379993159
 20
5.555562294
 30
0.0
 10
4.3379993159
 20
5.5523668677
 30
0.0
  0
SPLINE
  5
342
100
AcDbEntity
  8
0
100
AcDbSpline
 62
7
  6
CONTINUOUS
 70
0
 71
3
 72
20
 73
16
 74
0
 42
0.0000001
 43
0.0000001
 44
0.0000000001
 40
0.0
 40
0.0
 40
0.0
 40
0.0
 40
0.1327804157
 40
0.2595860826
 40
0.3211212997
 40
0.3816408591
 40
0.5005918292
 40
0.5595887171
 40
0.618730693
 40
0.6784547122
 40
0.7392016867
 40
0.8012814909
 40
0.8650350827
 40
0.9309953287
 40
1.0
 40
1.0
 40
1.0
 40
1.0
 10
4.1768171594
 20
6.1145347077
 30
0.0
 10
4.1752806947
 20
6.1139724648
 30
0.0
 10
4.1722953341
 20
6.1128217847
 30
0.0
 10
4.1686648099
 20
6.1112445363
 30
0.0
 10
4.1659005857
 20
6.1099162681
 30
0.0
 10
4.1632597462
 20
6.1085575188
 30
0.0
 10
4.160709455
 20
6.1070926682
 30
0.0
 10
4.1582600088
 20
6.1054994017
 30
0.0
 10
4.1564744158
 20
6.1042273254
 30
0.0
 10
4.1547345181
 20
6.1028580873
 30
0.0
 10
4.1530400177
 20
6.1013770576
 30
0.0
 10
4.1514002432
 20
6.0997635441
 30
0.0
 10
4.1498259476
 20
6.0979984973
 30
0.0
 10
4.1483313538
 20
6.0960560451
 30
0.0
 10
4.1474283659
 20
6.0946566292
 30
0.0
 10
4.1469982834
 20
6.093923155
 30
0.0
  0
SPLINE
  5
343
100
AcDbEntity
  8
0
100
AcDbSpline
 62
7
  6
CONTINUOUS
 70
0
 71
3
 72
19
 73
15
 74
0
 42
0.0000001
 43
0.0000001
 44
0.0000000001
 40
0.0
 40
0.0
 40
0.0
 40
0.0
 40
0.0690002597
 40
0.1349665839
 40
0.1987257602
 40
0.2608074765
 40
0.3215544652
 40
0.3812789527
 40
0.4993953894
 40
0.6183495817
 40
0.6788707428
 40
0.7404076407
 40
0.867215824
 40
1.0
 40
1.0
 40
1.0
 40
1.0
 10
4.7260003484
 20
6.093923155
 30
0.0
 10
4.7255703087
 20
6.0946565564
 30
0.0
 10
4.7246673235
 20
6.096055928
 30
0.0
 10
4.7231727508
 20
6.0979983978
 30
0.0
 10
4.7215984271
 20
6.0997635339
 30
0.0
 10
4.719958643
 20
6.1013770494
 30
0.0
 10
4.7182641588
 20
6.1028580412
 30
0.0
 10
4.7159531438
 20
6.1046767987
 30
0.0
 10
4.7129210808
 20
6.1067298996
 30
0.0
 10
4.7097391006
 20
6.1085573748
 30
0.0
 10
4.7070982156
 20
6.109916178
 30
0.0
 10
4.7043340584
 20
6.1112444478
 30
0.0
 10
4.7007035463
 20
6.1128216483
 30
0.0
 10
4.6977182392
 20
6.1139723569
 30
0.0
 10
4.6961817868
 20
6.1145345996
 30
0.0
  0
SPLINE
  5
344
100
AcDbEntity
  8
0
100
AcDbSpline
 62
7
  6
CONTINUOUS
 70
0
 71
3
 72
13
 73
9
 74
0
 42
0.0000001
 43
0.0000001
 44
0.0000000001
 40
0.0
 40
0.0
 40
0.0
 40
0.0
 40
0.2414298332
 40
0.4901905983
 40
0.6166282021
 40
0.743919893
 40
0.8717142584
 40
1.0
 40
1.0
 40
1.0
 40
1.0
 10
4.1081940069
 20
6.0277451695
 30
0.0
 10
4.1067608867
 20
6.0253015233
 30
0.0
 10
4.1041559011
 20
6.0201542394
 30
0.0
 10
4.1017363059
 20
6.0133119704
 30
0.0
 10
4.1003354274
 20
6.0075807738
 30
0.0
 10
4.0995681329
 20
6.003166606
 30
0.0
 10
4.0991031053
 20
5.9986889378
 30
0.0
 10
4.0989993159
 20
5.9956831051
 30
0.0
 10
4.0989993159
 20
5.9941778279
 30
0.0
  0
SPLINE
  5
345
100
AcDbEntity
  8
0
100
AcDbSpline
 62
7
  6
CONTINUOUS
 70
0
 71
3
 72
13
 73
9
 74
0
 42
0.0000001
 43
0.0000001
 44
0.0000000001
 40
0.0
 40
0.0
 40
0.0
 40
0.0
 40
0.128306822
 40
0.2560601281
 40
0.3833344019
 40
0.5097820595
 40
0.7585481562
 40
1.0
 40
1.0
 40
1.0
 40
1.0
 10
4.7739993159
 20
5.9941778279
 30
0.0
 10
4.7739993159
 20
5.9956832085
 30
0.0
 10
4.7738956657
 20
5.9986885233
 30
0.0
 10
4.7734306755
 20
6.0031653277
 30
0.0
 10
4.7726634183
 20
6.0075784821
 30
0.0
 10
4.7712632585
 20
6.0133092352
 30
0.0
 10
4.7688441781
 20
6.0201514773
 30
0.0
 10
4.7662390651
 20
6.0252983953
 30
0.0
 10
4.7648063698
 20
6.027742276
 30
0.0
  0
SPLINE
  5
346
100
AcDbEntity
  8
0
100
AcDbSpline
 62
7
  6
CONTINUOUS
 70
0
 71
3
 72
14
 73
10
 74
0
 42
0.0000001
 43
0.0000001
 44
0.0000000001
 40
0.0
 40
0.0
 40
0.0
 40
0.0
 40
0.1173890475
 40
0.2375080543
 40
0.3603330435
 40
0.4852888499
 40
0.61178589
 40
0.7394935131
 40
1.0
 40
1.0
 40
1.0
 40
1.0
 10
4.7700768964
 20
5.0122936378
 30
0.0
 10
4.7703703836
 20
5.0127937676
 30
0.0
 10
4.7709354918
 20
5.0138228444
 30
0.0
 10
4.7716974416
 20
5.0154327037
 30
0.0
 10
4.7723708032
 20
5.0171220534
 30
0.0
 10
4.7729450014
 20
5.0188808182
 30
0.0
 10
4.7734074667
 20
5.0206974581
 30
0.0
 10
4.7738618003
 20
5.0232005773
 30
0.0
 10
4.7739993159
 20
5.0251221731
 30
0.0
 10
4.7739993159
 20
5.0264090338
 30
0.0
  0
SPLINE
  5
347
100
AcDbEntity
  8
0
100
AcDbSpline
 62
7
  6
CONTINUOUS
 70
0
 71
3
 72
14
 73
10
 74
0
 42
0.0000001
 43
0.0000001
 44
0.0000000001
 40
0.0
 40
0.0
 40
0.0
 40
0.0
 40
0.260593779
 40
0.3882334129
 40
0.5146753843
 40
0.6396141766
 40
0.7624613179
 40
0.882614235
 40
1.0
 40
1.0
 40
1.0
 40
1.0
 10
4.0989993159
 20
5.0264090338
 30
0.0
 10
4.0989993159
 20
5.0251214891
 30
0.0
 10
4.0991366887
 20
5.0231993933
 30
0.0
 10
4.0995914263
 20
5.0206960115
 30
0.0
 10
4.1000541136
 20
5.0188797637
 30
0.0
 10
4.1006286027
 20
5.0171209734
 30
0.0
 10
4.1013022082
 20
5.0154311373
 30
0.0
 10
4.1020641584
 20
5.0138206033
 30
0.0
 10
4.1026294464
 20
5.0127911836
 30
0.0
 10
4.102923012
 20
5.0122909865
 30
0.0
  0
SPLINE
  5
348
100
AcDbEntity
  8
0
100
AcDbSpline
 62
7
  6
CONTINUOUS
 70
0
 71
3
 72
67
 73
63
 74
0
 42
0.0000001
 43
0.0000001
 44
0.0000000001
 40
0.0
 40
0.0
 40
0.0
 40
0.0
 40
0.0048418094
 40
0.0094533664
 40
0.0139093201
 40
0.0182551025
 40
0.0203971717
 40
0.0225241841
 40
0.026755232
 40
0.0309912689
 40
0.0352677535
 40
0.044044149
 40
0.0532574894
 40
0.058065439
 40
0.0630232935
 40
0.0734162457
 40
0.0844845026
 40
0.0962548324
 40
0.10874073
 40
0.1219442219
 40
0.1358601219
 40
0.1504759705
 40
0.1657750654
 40
0.1817356694
 40
0.2155388146
 40
0.2516527067
 40
0.2898065959
 40
0.3297007643
 40
0.3710128527
 40
0.4134031167
 40
0.4565191047
 40
0.5000000242
 40
0.5434809428
 40
0.5865969281
 40
0.6289871876
 40
0.67029927
 40
0.7101934307
 40
0.7483473107
 40
0.784461192
 40
0.8182643244
 40
0.8342249209
 40
0.8495240077
 40
0.8641398515
 40
0.8780557372
 40
0.8912592287
 40
0.9037451035
 40
0.9155154545
 40
0.9265836746
 40
0.9369766771
 40
0.9419345249
 40
0.9467424571
 40
0.9559558386
 40
0.9647322349
 40
0.969008712
 40
0.9732447083
 40
0.9774757683
 40
0.9796028186
 40
0.9817449464
 40
0.9860907933
 40
0.9905466096
 40
0.9951578645
 40
1.0
 40
1.0
 40
1.0
 40
1.0
 10
4.1243372414
 20
4.9757726681
 30
0.0
 10
4.1248631055
 20
4.9748758454
 30
0.0
 10
4.1259799859
 20
4.9731759132
 30
0.0
 10
4.1278564419
 20
4.970847642
 30
0.0
 10
4.1298434316
 20
4.9687587847
 30
0.0
 10
4.1315855718
 20
4.9671789327
 30
0.0
 10
4.13301378
 20
4.9660030602
 30
0.0
 10
4.1344565587
 20
4.9648848518
 30
0.0
 10
4.1363130227
 20
4.9635682527
 30
0.0
 10
4.1386214019
 20
4.9620973333
 30
0.0
 10
4.1418339774
 20
4.9602353159
 30
0.0
 10
4.1461059275
 20
4.958079528
 30
0.0
 10
4.1506014235
 20
4.9561367248
 30
0.0
 10
4.1543985244
 20
4.9546564003
 30
0.0
 10
4.1584649381
 20
4.9531723066
 30
0.0
 10
4.1638520278
 20
4.9513905721
 30
0.0
 10
4.1706985409
 20
4.9493769501
 30
0.0
 10
4.1780340553
 20
4.9474447397
 30
0.0
 10
4.1858607918
 20
4.945587824
 30
0.0
 10
4.1941760253
 20
4.9438032555
 30
0.0
 10
4.2029725782
 20
4.9420901174
 30
0.0
 10
4.2122400603
 20
4.9404487681
 30
0.0
 10
4.221965087
 20
4.9388803032
 30
0.0
 10
4.2357872896
 20
4.9368495388
 30
0.0
 10
4.2540818669
 20
4.9345264089
 30
0.0
 10
4.2771620291
 20
4.9321092389
 30
0.0
 10
4.3015878107
 20
4.9300300786
 30
0.0
 10
4.3271597445
 20
4.9283050269
 30
0.0
 10
4.3536646055
 20
4.9269481373
 30
0.0
 10
4.380878328
 20
4.925970666
 30
0.0
 10
4.4085689577
 20
4.9253808455
 30
0.0
 10
4.4364993323
 20
4.9251836787
 30
0.0
 10
4.4644297062
 20
4.925380846
 30
0.0
 10
4.4921203341
 20
4.925970667
 30
0.0
 10
4.5193340538
 20
4.9269481385
 30
0.0
 10
4.5458389109
 20
4.9283050283
 30
0.0
 10
4.5714108397
 20
4.93003008
 30
0.0
 10
4.5958366155
 20
4.9321092401
 30
0.0
 10
4.6189167707
 20
4.9345264096
 30
0.0
 10
4.6372113413
 20
4.9368495384
 30
0.0
 10
4.6510335378
 20
4.9388803024
 30
0.0
 10
4.6607585603
 20
4.9404487656
 30
0.0
 10
4.6700260364
 20
4.9420901153
 30
0.0
 10
4.6788225859
 20
4.9438032493
 30
0.0
 10
4.6871378104
 20
4.9455878208
 30
0.0
 10
4.6949645493
 20
4.9474447256
 30
0.0
 10
4.7023000504
 20
4.9493769529
 30
0.0
 10
4.7091465804
 20
4.9513905448
 30
0.0
 10
4.7145336611
 20
4.9531723112
 30
0.0
 10
4.7186000866
 20
4.9546563882
 30
0.0
 10
4.7223971959
 20
4.956136702
 30
0.0
 10
4.726892687
 20
4.9580795298
 30
0.0
 10
4.7311646447
 20
4.9602353188
 30
0.0
 10
4.7343772114
 20
4.9620973299
 30
0.0
 10
4.7366856071
 20
4.9635682096
 30
0.0
 10
4.7385420585
 20
4.9648848311
 30
0.0
 10
4.7399848486
 20
4.9660030626
 30
0.0
 10
4.7414130838
 20
4.9671789567
 30
0.0
 10
4.7431552076
 20
4.9687588224
 30
0.0
 10
4.7451421537
 20
4.9708476075
 30
0.0
 10
4.7470186313
 20
4.9731758317
 30
0.0
 10
4.7481354909
 20
4.974875785
 30
0.0
 10
4.7486613904
 20
4.9757726681
 30
0.0
  0
SPLINE
  5
349
100
AcDbEntity
  8
0
100
AcDbSpline
 62
7
  6
CONTINUOUS
 70
0
 71
3
 72
11
 73
7
 74
0
 42
0.0000001
 43
0.0000001
 44
0.0000000001
 40
0.0
 40
0.0
 40
0.0
 40
0.0
 40
0.2302526987
 40
0.4688623473
 40
0.7233645079
 40
1.0
 40
1.0
 40
1.0
 40
1.0
 10
4.1516267842
 20
6.1070907577
 30
0.0
 10
4.1516267842
 20
6.1066560889
 30
0.0
 10
4.1517150852
 20
6.1057687205
 30
0.0
 10
4.1521081374
 20
6.1044534251
 30
0.0
 10
4.1527582157
 20
6.1031470635
 30
0.0
 10
4.1533335859
 20
6.1023216603
 30
0.0
 10
4.1536567461
 20
6.1019114269
 30
0.0
  0
LINE
  5
34A
100
AcDbEntity
  8
0
100
AcDbLine
 62
7
  6
CONTINUOUS
 10
4.5777763128
 20
4.9717479579
 11
4.5721014316
 21
4.9734326376
  0
LINE
  5
34B
100
AcDbEntity
  8
0
100
AcDbLine
 62
7
  6
CONTINUOUS
 10
4.3008972002
 20
4.9734326376
 11
4.295222319
 21
4.9717479579
  0
LINE
  5
34C
100
AcDbEntity
  8
0
100
AcDbLine
 62
7
  6
CONTINUOUS
 10
4.5909384616
 20
4.9646633797
 11
4.5889830308
 21
4.9665308615
  0
LINE
  5
34D
100
AcDbEntity
  8
0
100
AcDbLine
 62
7
  6
CONTINUOUS
 10
4.284015601
 20
4.9665308615
 11
4.2820601702
 21
4.9646633797
  0
LINE
  5
34E
100
AcDbEntity
  8
0
100
AcDbLine
 62
7
  6
CONTINUOUS
 10
4.6383976603
 20
4.956126474
 11
4.6395791136
 21
4.9571640543
  0
LINE
  5
34F
100
AcDbEntity
  8
0
100
AcDbLine
 62
7
  6
CONTINUOUS
 10
4.6166790128
 20
4.9469728927
 11
4.6223538941
 21
4.9486575724
  0
LINE
  5
350
100
AcDbEntity
  8
0
100
AcDbLine
 62
7
  6
CONTINUOUS
 10
4.2506447377
 20
4.9486575724
 11
4.256319619
 21
4.9469728927
  0
SPLINE
  5
351
100
AcDbEntity
  8
0
100
AcDbSpline
 62
7
  6
CONTINUOUS
 70
0
 71
3
 72
11
 73
7
 74
0
 42
0.0000001
 43
0.0000001
 44
0.0000000001
 40
0.0
 40
0.0
 40
0.0
 40
0.0
 40
0.2797799283
 40
0.5399136562
 40
0.7800636214
 40
1.0
 40
1.0
 40
1.0
 40
1.0
 10
4.2554024463
 20
4.9875691243
 30
0.0
 10
4.2537375034
 20
4.9871691185
 30
0.0
 10
4.2505328284
 20
4.9863619112
 30
0.0
 10
4.2459346048
 20
4.9850754158
 30
0.0
 10
4.2417269738
 20
4.9837593919
 30
0.0
 10
4.2390704711
 20
4.9828229551
 30
0.0
 10
4.2378113874
 20
4.9823469357
 30
0.0
  0
SPLINE
  5
352
100
AcDbEntity
  8
0
100
AcDbSpline
 62
7
  6
CONTINUOUS
 70
0
 71
3
 72
25
 73
21
 74
0
 42
0.0000001
 43
0.0000001
 44
0.0000000001
 40
0.0
 40
0.0
 40
0.0
 40
0.0
 40
0.0166965856
 40
0.0346213835
 40
0.0537630662
 40
0.0741068384
 40
0.0956337417
 40
0.1183225874
 40
0.1670844422
 40
0.2201717957
 40
0.2773292661
 40
0.3382728676
 40
0.4026934694
 40
0.4702597462
 40
0.5406208645
 40
0.6134090795
 40
0.6882419337
 40
0.7647255078
 40
0.8424543824
 40
1.0
 40
1.0
 40
1.0
 40
1.0
 10
4.1768171643
 20
6.1145346389
 30
0.0
 10
4.178185901
 20
6.1150354242
 30
0.0
 10
4.181042218
 20
6.1160245943
 30
0.0
 10
4.1855198428
 20
6.1174319355
 30
0.0
 10
4.1903374815
 20
6.118813835
 30
0.0
 10
4.1954886467
 20
6.1201682545
 30
0.0
 10
4.2009664688
 20
6.1214934632
 30
0.0
 10
4.208888078
 20
6.1232615206
 30
0.0
 10
4.2195546541
 20
6.1253695271
 30
0.0
 10
4.2332390112
 20
6.1276991688
 30
0.0
 10
4.2480246148
 20
6.1298723438
 30
0.0
 10
4.2638315465
 20
6.1318768915
 30
0.0
 10
4.2805744189
 20
6.133701516
 30
0.0
 10
4.2981625986
 20
6.1353360421
 30
0.0
 10
4.3165008261
 20
6.1367713791
 30
0.0
 10
4.3354897189
 20
6.137999572
 30
0.0
 10
4.3550263642
 20
6.1390138262
 30
0.0
 10
4.3750048117
 20
6.1398085727
 30
0.0
 10
4.4022083648
 20
6.1405729013
 30
0.0
 10
4.4227468989
 20
6.1407995687
 30
0.0
 10
4.4364993159
 20
6.1407995687
 30
0.0
  0
SPLINE
  5
353
100
AcDbEntity
  8
0
100
AcDbSpline
 62
7
  6
CONTINUOUS
 70
0
 71
3
 72
10
 73
6
 74
0
 42
0.0000001
 43
0.0000001
 44
0.0000000001
 40
0.0
 40
0.0
 40
0.0
 40
0.0
 40
0.2760198744
 40
0.5334601938
 40
1.0
 40
1.0
 40
1.0
 40
1.0
 10
4.6479790151
 20
4.9653695099
 30
0.0
 10
4.648208742
 20
4.9655939193
 30
0.0
 10
4.6486380613
 20
4.966043424
 30
0.0
 10
4.6493698445
 20
4.9669484493
 30
0.0
 10
4.6498088748
 20
4.9676773632
 30
0.0
 10
4.6500273947
 20
4.9681742474
 30
0.0
  0
SPLINE
  5
354
100
AcDbEntity
  8
0
100
AcDbSpline
 62
7
  6
CONTINUOUS
 70
0
 71
3
 72
13
 73
9
 74
0
 42
0.0000001
 43
0.0000001
 44
0.0000000001
 40
0.0
 40
0.0
 40
0.0
 40
0.0
 40
0.3051905402
 40
0.4427441131
 40
0.5707412618
 40
0.6897196207
 40
0.8003642851
 40
1.0
 40
1.0
 40
1.0
 40
1.0
 10
4.2290327029
 20
4.978260169
 30
0.0
 10
4.2282905054
 20
4.9778163116
 30
0.0
 10
4.2272370238
 20
4.9771301988
 30
0.0
 10
4.2259602035
 20
4.9761362517
 30
0.0
 10
4.2251437636
 20
4.9754135092
 30
0.0
 10
4.224435075
 20
4.9746873525
 30
0.0
 10
4.2236615447
 20
4.9737480609
 30
0.0
 10
4.2231989673
 20
4.9729891557
 30
0.0
 10
4.2229712371
 20
4.9724713283
 30
0.0
  0
SPLINE
  5
355
100
AcDbEntity
  8
0
100
AcDbSpline
 62
7
  6
CONTINUOUS
 70
0
 71
3
 72
63
 73
59
 74
0
 42
0.0000001
 43
0.0000001
 44
0.0000000001
 40
0.0
 40
0.0
 40
0.0
 40
0.0
 40
0.0042571018
 40
0.0066344695
 40
0.0091961466
 40
0.0119530255
 40
0.0149134135
 40
0.018083718
 40
0.0214687834
 40
0.0250720314
 40
0.02889592
 40
0.0372110213
 40
0.046420252
 40
0.056521044
 40
0.0675044077
 40
0.07935694
 40
0.0920610404
 40
0.1055959591
 40
0.1199379922
 40
0.1350607799
 40
0.1509358079
 40
0.1675321715
 40
0.2027559239
 40
0.2404500596
 40
0.2803070542
 40
0.3219983874
 40
0.3651781134
 40
0.409486352
 40
0.4545527587
 40
0.5
 40
0.5454472413
 40
0.590513648
 40
0.6348218866
 40
0.6780016126
 40
0.7196929458
 40
0.7595499404
 40
0.7972440761
 40
0.8324678285
 40
0.8490641921
 40
0.8649392201
 40
0.8800620078
 40
0.8944040409
 40
0.9079389596
 40
0.92064306
 40
0.9324955923
 40
0.943478956
 40
0.953579748
 40
0.9627889787
 40
0.97110408
 40
0.9749279686
 40
0.9785312166
 40
0.981916282
 40
0.9850865865
 40
0.9880469745
 40
0.9908038534
 40
0.9933655305
 40
0.9957428982
 40
1.0
 40
1.0
 40
1.0
 40
1.0
 10
4.1469982758
 20
6.0939231551
 30
0.0
 10
4.1474229321
 20
6.0946473994
 30
0.0
 10
4.1482234057
 20
6.0956967634
 30
0.0
 10
4.1494933892
 20
6.0969920402
 30
0.0
 10
4.1506344276
 20
6.0979951717
 30
0.0
 10
4.1519276406
 20
6.0989932511
 30
0.0
 10
4.1533728363
 20
6.0999864123
 30
0.0
 10
4.15496926
 20
6.1009741093
 30
0.0
 10
4.1567162255
 20
6.1019558896
 30
0.0
 10
4.1586128298
 20
6.1029313535
 30
0.0
 10
4.1614191568
 20
6.104260222
 30
0.0
 10
4.165303026
 20
6.10589103
 30
0.0
 10
4.1704203558
 20
6.1077646717
 30
0.0
 10
4.1761065776
 20
6.1096015427
 30
0.0
 10
4.1823498548
 20
6.1113977505
 30
0.0
 10
4.1891372935
 20
6.1131491577
 30
0.0
 10
4.1964545966
 20
6.1148519477
 30
0.0
 10
4.2042862742
 20
6.1165023037
 30
0.0
 10
4.2126156662
 20
6.1180965833
 30
0.0
 10
4.2214250127
 20
6.1196313032
 30
0.0
 10
4.2306954877
 20
6.1211030838
 30
0.0
 10
4.243908626
 20
6.1230153219
 30
0.0
 10
4.2614271677
 20
6.1252084484
 30
0.0
 10
4.2835515725
 20
6.1274949574
 30
0.0
 10
4.306986543
 20
6.1294649238
 30
0.0
 10
4.3315313443
 20
6.1311010007
 30
0.0
 10
4.3569757986
 20
6.1323886761
 30
0.0
 10
4.3831018766
 20
6.1333166164
 30
0.0
 10
4.4096856711
 20
6.1338766595
 30
0.0
 10
4.4364993159
 20
6.1340638886
 30
0.0
 10
4.4633129607
 20
6.1338766595
 30
0.0
 10
4.4898967552
 20
6.1333166164
 30
0.0
 10
4.5160228332
 20
6.1323886761
 30
0.0
 10
4.5414672875
 20
6.1311010007
 30
0.0
 10
4.5660120888
 20
6.1294649238
 30
0.0
 10
4.5894470593
 20
6.1274949574
 30
0.0
 10
4.6115714641
 20
6.1252084484
 30
0.0
 10
4.6290900058
 20
6.1230153219
 30
0.0
 10
4.6423031441
 20
6.1211030838
 30
0.0
 10
4.6515736191
 20
6.1196313032
 30
0.0
 10
4.6603829656
 20
6.1180965833
 30
0.0
 10
4.6687123576
 20
6.1165023037
 30
0.0
 10
4.6765440352
 20
6.1148519477
 30
0.0
 10
4.6838613383
 20
6.1131491577
 30
0.0
 10
4.690648777
 20
6.1113977505
 30
0.0
 10
4.6968920542
 20
6.1096015427
 30
0.0
 10
4.702578276
 20
6.1077646717
 30
0.0
 10
4.7076956058
 20
6.10589103
 30
0.0
 10
4.711579475
 20
6.104260222
 30
0.0
 10
4.714385802
 20
6.1029313535
 30
0.0
 10
4.7162824063
 20
6.1019558896
 30
0.0
 10
4.7180293718
 20
6.1009741093
 30
0.0
 10
4.7196257955
 20
6.0999864123
 30
0.0
 10
4.7210709912
 20
6.0989932511
 30
0.0
 10
4.7223642042
 20
6.0979951717
 30
0.0
 10
4.7235052426
 20
6.0969920402
 30
0.0
 10
4.7247752261
 20
6.0956967634
 30
0.0
 10
4.7255756997
 20
6.0946473994
 30
0.0
 10
4.726000356
 20
6.0939231551
 30
0.0
  0
LINE
  5
356
100
AcDbEntity
  8
0
100
AcDbLine
 62
7
  6
CONTINUOUS
 10
4.2840595904
 20
4.9656793514
 11
4.2849693759
 21
4.9650418288
  0
LINE
  5
357
100
AcDbEntity
  8
0
100
AcDbLine
 62
7
  6
CONTINUOUS
 10
4.2849693759
 20
4.9650418288
 11
4.2871412117
 21
4.9637775332
  0
SPLINE
  5
358
100
AcDbEntity
  8
0
100
AcDbSpline
 62
7
  6
CONTINUOUS
 70
0
 71
3
 72
10
 73
6
 74
0
 42
0.0000001
 43
0.0000001
 44
0.0000000001
 40
0.0
 40
0.0
 40
0.0
 40
0.0
 40
0.4665398062
 40
0.7239801256
 40
1.0
 40
1.0
 40
1.0
 40
1.0
 10
4.2229712371
 20
4.9681742474
 30
0.0
 10
4.223189757
 20
4.9676773632
 30
0.0
 10
4.2236287873
 20
4.9669484493
 30
0.0
 10
4.2243605705
 20
4.966043424
 30
0.0
 10
4.2247898898
 20
4.9655939193
 30
0.0
 10
4.2250196167
 20
4.9653695099
 30
0.0
  0
SPLINE
  5
359
100
AcDbEntity
  8
0
100
AcDbSpline
 62
7
  6
CONTINUOUS
 70
0
 71
3
 72
15
 73
11
 74
0
 42
0.0000001
 43
0.0000001
 44
0.0000000001
 40
0.0
 40
0.0
 40
0.0
 40
0.0
 40
0.1359737134
 40
0.2703716207
 40
0.4018081216
 40
0.5292717252
 40
0.6522905834
 40
0.7710552919
 40
0.8864581178
 40
1.0
 40
1.0
 40
1.0
 40
1.0
 10
5.7639993159
 20
2.3638060051
 30
0.0
 10
5.7646517968
 20
2.3638060051
 30
0.0
 10
5.7659517359
 20
2.3639118066
 30
0.0
 10
5.7678301878
 20
2.3643831159
 30
0.0
 10
5.7695653486
 20
2.3651497827
 30
0.0
 10
5.7710908579
 20
2.3661843474
 30
0.0
 10
5.7723481297
 20
2.367449536
 30
0.0
 10
5.7732869772
 20
2.3688995417
 30
0.0
 10
5.7738678238
 20
2.3704784821
 30
0.0
 10
5.7739993159
 20
2.3715813446
 30
0.0
 10
5.7739993159
 20
2.3721261846
 30
0.0
  0
SPLINE
  5
35A
100
AcDbEntity
  8
0
100
AcDbSpline
 62
7
  6
CONTINUOUS
 70
0
 71
3
 72
11
 73
7
 74
0
 42
0.0000001
 43
0.0000001
 44
0.0000000001
 40
0.0
 40
0.0
 40
0.0
 40
0.0
 40
0.2085503735
 40
0.4450410323
 40
0.7090821619
 40
1.0
 40
1.0
 40
1.0
 40
1.0
 10
4.2902318305
 20
4.9623387484
 30
0.0
 10
4.2914096262
 20
4.9618450656
 30
0.0
 10
4.2939617457
 20
4.9608834463
 30
0.0
 10
4.2981005894
 20
4.9595660172
 30
0.0
 10
4.3027769005
 20
4.9582885395
 30
0.0
 10
4.3060841116
 20
4.9575041896
 30
0.0
 10
4.3078228894
 20
4.9571165598
 30
0.0
  0
SPLINE
  5
35B
100
AcDbEntity
  8
0
100
AcDbSpline
 62
7
  6
CONTINUOUS
 70
0
 71
3
 72
11
 73
7
 74
0
 42
0.0000001
 43
0.0000001
 44
0.0000000001
 40
0.0
 40
0.0
 40
0.0
 40
0.0
 40
0.2271669714
 40
0.4701444058
 40
0.728071502
 40
1.0
 40
1.0
 40
1.0
 40
1.0
 10
4.3137015956
 20
4.9558926563
 30
0.0
 10
4.3157616581
 20
4.9554915557
 30
0.0
 10
4.3200355996
 20
4.9547145285
 30
0.0
 10
4.3266776016
 20
4.9536492267
 30
0.0
 10
4.3337474738
 20
4.9526481671
 30
0.0
 10
4.3386051915
 20
4.9520415091
 30
0.0
 10
4.3411003123
 20
4.951748304
 30
0.0
  0
LINE
  5
35C
100
AcDbEntity
  8
0
100
AcDbLine
 62
7
  6
CONTINUOUS
 10
5.7309502191
 20
2.3123147555
 11
5.733422182
 21
2.3130472302
  0
SPLINE
  5
35D
100
AcDbEntity
  8
0
100
AcDbSpline
 62
7
  6
CONTINUOUS
 70
0
 71
3
 72
15
 73
11
 74
0
 42
0.0000001
 43
0.0000001
 44
0.0000000001
 40
0.0
 40
0.0
 40
0.0
 40
0.0
 40
0.1324246625
 40
0.2626644767
 40
0.3905266339
 40
0.5159998906
 40
0.6392512563
 40
0.7606221179
 40
0.8806963241
 40
1.0
 40
1.0
 40
1.0
 40
1.0
 10
5.733422182
 20
2.3130472302
 30
0.0
 10
5.7338346248
 20
2.313224789
 30
0.0
 10
5.7346315355
 20
2.3136290527
 30
0.0
 10
5.7357269893
 20
2.3143797758
 30
0.0
 10
5.7366935609
 20
2.3152563694
 30
0.0
 10
5.7375121711
 20
2.3162421747
 30
0.0
 10
5.7381666113
 20
2.3173184261
 30
0.0
 10
5.7386439917
 20
2.3184646002
 30
0.0
 10
5.7389341611
 20
2.3196579168
 30
0.0
 10
5.7389993159
 20
2.3204710759
 30
0.0
 10
5.7389993159
 20
2.3208756232
 30
0.0
  0
SPLINE
  5
35E
100
AcDbEntity
  8
0
100
AcDbSpline
 62
7
  6
CONTINUOUS
 70
0
 71
3
 72
9
 73
5
 74
0
 42
0.0000001
 43
0.0000001
 44
0.0000000001
 40
0.0
 40
0.0
 40
0.0
 40
0.0
 40
0.4845258178
 40
1.0
 40
1.0
 40
1.0
 40
1.0
 10
4.3491916572
 20
4.950859086
 30
0.0
 10
4.3547553483
 20
4.9502880772
 30
0.0
 10
4.3662549261
 20
4.9492706536
 30
0.0
 10
4.3777747437
 20
4.9485225556
 30
0.0
 10
4.3837160543
 20
4.948198248
 30
0.0
  0
SPLINE
  5
35F
100
AcDbEntity
  8
0
100
AcDbSpline
 62
7
  6
CONTINUOUS
 70
0
 71
3
 72
9
 73
5
 74
0
 42
0.0000001
 43
0.0000001
 44
0.0000000001
 40
0.0
 40
0.0
 40
0.0
 40
0.0
 40
0.5154741822
 40
1.0
 40
1.0
 40
1.0
 40
1.0
 10
4.4892825775
 20
4.948198248
 30
0.0
 10
4.4952238881
 20
4.9485225556
 30
0.0
 10
4.5067437057
 20
4.9492706536
 30
0.0
 10
4.5182432835
 20
4.9502880772
 30
0.0
 10
4.5238069746
 20
4.950859086
 30
0.0
  0
SPLINE
  5
360
100
AcDbEntity
  8
0
100
AcDbSpline
 62
7
  6
CONTINUOUS
 70
0
 71
3
 72
11
 73
7
 74
0
 42
0.0000001
 43
0.0000001
 44
0.0000000001
 40
0.0
 40
0.0
 40
0.0
 40
0.0
 40
0.271928498
 40
0.5298555942
 40
0.7728330286
 40
1.0
 40
1.0
 40
1.0
 40
1.0
 10
4.5318983195
 20
4.951748304
 30
0.0
 10
4.5343934403
 20
4.9520415091
 30
0.0
 10
4.539251158
 20
4.9526481671
 30
0.0
 10
4.5463210302
 20
4.9536492267
 30
0.0
 10
4.5529630322
 20
4.9547145285
 30
0.0
 10
4.5572369737
 20
4.9554915557
 30
0.0
 10
4.5592970362
 20
4.9558926563
 30
0.0
  0
SPLINE
  5
361
100
AcDbEntity
  8
0
100
AcDbSpline
 62
7
  6
CONTINUOUS
 70
0
 71
3
 72
65
 73
61
 74
0
 42
0.0000001
 43
0.0000001
 44
0.0000000001
 40
0.0
 40
0.0
 40
0.0
 40
0.0
 40
0.0042572423
 40
0.0066347089
 40
0.0091964987
 40
0.0119534731
 40
0.0149139595
 40
0.0180843876
 40
0.0214695575
 40
0.0250728935
 40
0.028896891
 40
0.0372122059
 40
0.0464216468
 40
0.0565226025
 40
0.0675061802
 40
0.0793588315
 40
0.0920631273
 40
0.1055981474
 40
0.1199403288
 40
0.1350632301
 40
0.1509383351
 40
0.1675348215
 40
0.184819968
 40
0.2027592993
 40
0.2404534904
 40
0.2803104852
 40
0.3220017752
 40
0.3651814235
 40
0.4094895478
 40
0.4545557967
 40
0.5000028398
 40
0.545449854
 40
0.5905160167
 40
0.6348239982
 40
0.6780034484
 40
0.7196944868
 40
0.7595511791
 40
0.7972450194
 40
0.8151841583
 40
0.8324691017
 40
0.8490653749
 40
0.8649402571
 40
0.8800629265
 40
0.8944048677
 40
0.9079396401
 40
0.9206436814
 40
0.9324960725
 40
0.9434793851
 40
0.9535800724
 40
0.962789243
 40
0.9711042879
 40
0.9749281514
 40
0.9785313547
 40
0.9819163936
 40
0.9850866931
 40
0.9880470544
 40
0.990803908
 40
0.9933655828
 40
0.9957429419
 40
1.0
 40
1.0
 40
1.0
 40
1.0
 10
4.1081930136
 20
6.0277436231
 30
0.0
 10
4.1086746701
 20
6.0285649383
 30
0.0
 10
4.1095825363
 20
6.0297549541
 30
0.0
 10
4.111022879
 20
6.031223841
 30
0.0
 10
4.1123169663
 20
6.0323614248
 30
0.0
 10
4.1137836115
 20
6.0334932906
 30
0.0
 10
4.1154226143
 20
6.0346195756
 30
0.0
 10
4.1172331273
 20
6.035739645
 30
0.0
 10
4.1192143471
 20
6.036853018
 30
0.0
 10
4.1213652555
 20
6.0379592342
 30
0.0
 10
4.1245478634
 20
6.0394662075
 30
0.0
 10
4.1289524733
 20
6.0413156018
 30
0.0
 10
4.1347558979
 20
6.0434403613
 30
0.0
 10
4.1412044582
 20
6.045523451
 30
0.0
 10
4.1482847345
 20
6.0475603791
 30
0.0
 10
4.1559821035
 20
6.0495465592
 30
0.0
 10
4.1642803499
 20
6.0514775438
 30
0.0
 10
4.173161913
 20
6.053349119
 30
0.0
 10
4.1826078939
 20
6.0551570619
 30
0.0
 10
4.192598156
 20
6.0568974835
 30
0.0
 10
4.2031113465
 20
6.0585665021
 30
0.0
 10
4.2141249815
 20
6.0601604956
 30
0.0
 10
4.2256154895
 20
6.0616760242
 30
0.0
 10
4.2418077767
 20
6.0636197222
 30
0.0
 10
4.2630527179
 20
6.0658149747
 30
0.0
 10
4.2896288884
 20
6.068049058
 30
0.0
 10
4.3174637621
 20
6.0699043686
 30
0.0
 10
4.3463188157
 20
6.0713646124
 30
0.0
 10
4.3759468448
 20
6.0724168891
 30
0.0
 10
4.4060939135
 20
6.0730519603
 30
0.0
 10
4.4365016175
 20
6.0732642496
 30
0.0
 10
4.4669093016
 20
6.0730518962
 30
0.0
 10
4.4970563114
 20
6.0724167614
 30
0.0
 10
4.5266842427
 20
6.0713644222
 30
0.0
 10
4.5555391605
 20
6.0699041176
 30
0.0
 10
4.5833738618
 20
6.0680487485
 30
0.0
 10
4.6099498245
 20
6.0658146093
 30
0.0
 10
4.6311945709
 20
6.0636193113
 30
0.0
 10
4.6473866858
 20
6.0616755782
 30
0.0
 10
4.6588770533
 20
6.0601600254
 30
0.0
 10
4.6698905405
 20
6.0585660087
 30
0.0
 10
4.6804035763
 20
6.0568969679
 30
0.0
 10
4.690393677
 20
6.0551565253
 30
0.0
 10
4.6998394902
 20
6.0533485625
 30
0.0
 10
4.7087208797
 20
6.0514769688
 30
0.0
 10
4.717018947
 20
6.0495459668
 30
0.0
 10
4.7247161319
 20
6.0475597707
 30
0.0
 10
4.7317962193
 20
6.0455228279
 30
0.0
 10
4.7382445865
 20
6.0434397251
 30
0.0
 10
4.7440478143
 20
6.0413149536
 30
0.0
 10
4.7484522566
 20
6.039465549
 30
0.0
 10
4.7516347279
 20
6.0379585676
 30
0.0
 10
4.753785534
 20
6.0368523469
 30
0.0
 10
4.7557666509
 20
6.0357389697
 30
0.0
 10
4.7575770604
 20
6.0346188964
 30
0.0
 10
4.7592159593
 20
6.0334926078
 30
0.0
 10
4.7606825002
 20
6.0323607387
 30
0.0
 10
4.7619764826
 20
6.0312231517
 30
0.0
 10
4.763416691
 20
6.0297542603
 30
0.0
 10
4.7643244475
 20
6.0285642407
 30
0.0
 10
4.764806026
 20
6.0277429276
 30
0.0
  0
SPLINE
  5
362
100
AcDbEntity
  8
0
100
AcDbSpline
 62
7
  6
CONTINUOUS
 70
0
 71
3
 72
11
 73
7
 74
0
 42
0.0000001
 43
0.0000001
 44
0.0000000001
 40
0.0
 40
0.0
 40
0.0
 40
0.0
 40
0.2909178381
 40
0.5549589677
 40
0.7914496265
 40
1.0
 40
1.0
 40
1.0
 40
1.0
 10
4.5651757424
 20
4.9571165598
 30
0.0
 10
4.5669145202
 20
4.9575041896
 30
0.0
 10
4.5702217313
 20
4.9582885395
 30
0.0
 10
4.5748980424
 20
4.9595660172
 30
0.0
 10
4.5790368861
 20
4.9608834463
 30
0.0
 10
4.5815890056
 20
4.9618450656
 30
0.0
 10
4.5827668013
 20
4.9623387484
 30
0.0
  0
LINE
  5
363
100
AcDbEntity
  8
0
100
AcDbLine
 62
7
  6
CONTINUOUS
 10
4.5858574201
 20
4.9637775332
 11
4.5880292559
 21
4.9650418288
  0
LINE
  5
364
100
AcDbEntity
  8
0
100
AcDbLine
 62
7
  6
CONTINUOUS
 10
4.5880292559
 20
4.9650418288
 11
4.5889390414
 21
4.9656793514
  0
SPLINE
  5
365
100
AcDbEntity
  8
0
100
AcDbSpline
 62
7
  6
CONTINUOUS
 70
0
 71
3
 72
13
 73
9
 74
0
 42
0.0000001
 43
0.0000001
 44
0.0000000001
 40
0.0
 40
0.0
 40
0.0
 40
0.0
 40
0.1996357149
 40
0.3102803793
 40
0.4292587382
 40
0.5572558869
 40
0.6948094598
 40
1.0
 40
1.0
 40
1.0
 40
1.0
 10
4.6500273947
 20
4.9724713283
 30
0.0
 10
4.6497996645
 20
4.9729891557
 30
0.0
 10
4.6493370871
 20
4.9737480609
 30
0.0
 10
4.6485635568
 20
4.9746873525
 30
0.0
 10
4.6478548682
 20
4.9754135092
 30
0.0
 10
4.6470384283
 20
4.9761362517
 30
0.0
 10
4.645761608
 20
4.9771301988
 30
0.0
 10
4.6447081264
 20
4.9778163116
 30
0.0
 10
4.6439659289
 20
4.978260169
 30
0.0
  0
SPLINE
  5
366
100
AcDbEntity
  8
0
100
AcDbSpline
 62
7
  6
CONTINUOUS
 70
0
 71
3
 72
13
 73
9
 74
0
 42
0.0000001
 43
0.0000001
 44
0.0000000001
 40
0.0
 40
0.0
 40
0.0
 40
0.0
 40
0.3084304503
 40
0.5719397789
 40
0.6887730588
 40
0.7974950629
 40
0.9003144551
 40
1.0
 40
1.0
 40
1.0
 40
1.0
 10
5.7639993159
 20
2.3638060051
 30
0.0
 10
5.7642526748
 20
2.3635616634
 30
0.0
 10
5.7647525179
 20
2.3631377193
 30
0.0
 10
5.7654420287
 20
2.3627450465
 30
0.0
 10
5.7659744426
 20
2.3625715548
 30
0.0
 10
5.7663460611
 20
2.3625112786
 30
0.0
 10
5.7667031385
 20
2.3625165701
 30
0.0
 10
5.766930945
 20
2.3625649107
 30
0.0
 10
5.7670393231
 20
2.3625994955
 30
0.0
  0
SPLINE
  5
367
100
AcDbEntity
  8
0
100
AcDbSpline
 62
7
  6
CONTINUOUS
 70
0
 71
3
 72
11
 73
7
 74
0
 42
0.0000001
 43
0.0000001
 44
0.0000000001
 40
0.0
 40
0.0
 40
0.0
 40
0.0
 40
0.2659793222
 40
0.5185371374
 40
0.7617039042
 40
1.0
 40
1.0
 40
1.0
 40
1.0
 10
4.7700960691
 20
5.0123280443
 30
0.0
 10
4.7703047485
 20
5.0126865291
 30
0.0
 10
4.7706749563
 20
5.0134078446
 30
0.0
 10
4.7710848639
 20
5.0145262111
 30
0.0
 10
4.7713316523
 20
5.0156476514
 30
0.0
 10
4.7713868113
 20
5.0163995916
 30
0.0
 10
4.7713868113
 20
5.0167712184
 30
0.0
  0
SPLINE
  5
368
100
AcDbEntity
  8
0
100
AcDbSpline
 62
7
  6
CONTINUOUS
 70
0
 71
3
 72
11
 73
7
 74
0
 42
0.0000001
 43
0.0000001
 44
0.0000000001
 40
0.0
 40
0.0
 40
0.0
 40
0.0
 40
0.2199363786
 40
0.4600863438
 40
0.7202200717
 40
1.0
 40
1.0
 40
1.0
 40
1.0
 10
4.6351872444
 20
4.9823469357
 30
0.0
 10
4.6339281607
 20
4.9828229551
 30
0.0
 10
4.631271658
 20
4.9837593919
 30
0.0
 10
4.627064027
 20
4.9850754158
 30
0.0
 10
4.6224658034
 20
4.9863619112
 30
0.0
 10
4.6192611284
 20
4.9871691185
 30
0.0
 10
4.6175961855
 20
4.9875691243
 30
0.0
  0
SPLINE
  5
369
100
AcDbEntity
  8
0
100
AcDbSpline
 62
7
  6
CONTINUOUS
 70
0
 71
3
 72
11
 73
7
 74
0
 42
0.0000001
 43
0.0000001
 44
0.0000000001
 40
0.0
 40
0.0
 40
0.0
 40
0.0
 40
0.2661846679
 40
0.5187785693
 40
0.7618576202
 40
1.0
 40
1.0
 40
1.0
 40
1.0
 10
4.7486613993
 20
4.975772668
 30
0.0
 10
4.7488594489
 20
4.9761104337
 30
0.0
 10
4.7492108382
 20
4.9767900744
 30
0.0
 10
4.7496000684
 20
4.977844258
 30
0.0
 10
4.7498344255
 20
4.9789014042
 30
0.0
 10
4.7498868113
 20
4.979610305
 30
0.0
 10
4.7498868113
 20
4.9799606033
 30
0.0
  0
SPLINE
  5
36A
100
AcDbEntity
  8
0
100
AcDbSpline
 62
7
  6
CONTINUOUS
 70
0
 71
3
 72
12
 73
8
 74
0
 42
0.0000001
 43
0.0000001
 44
0.0000000001
 40
0.0
 40
0.0
 40
0.0
 40
0.0
 40
0.2932767377
 40
0.5523889148
 40
0.7837819361
 40
0.892932559
 40
1.0
 40
1.0
 40
1.0
 40
1.0
 10
5.7289993159
 20
2.3121470382
 30
0.0
 10
5.7292391413
 20
2.3119578828
 30
0.0
 10
5.7297168158
 20
2.3116317961
 30
0.0
 10
5.7304698311
 20
2.3113022937
 30
0.0
 10
5.7310939132
 20
2.3111955796
 30
0.0
 10
5.7315609485
 20
2.3112221531
 30
0.0
 10
5.731782145
 20
2.3112700159
 30
0.0
 10
5.7318889024
 20
2.3113022215
 30
0.0
  0
SPLINE
  5
36B
100
AcDbEntity
  8
0
100
AcDbSpline
 62
7
  6
CONTINUOUS
 70
0
 71
3
 72
9
 73
5
 74
0
 42
0.0000001
 43
0.0000001
 44
0.0000000001
 40
0.0
 40
0.0
 40
0.0
 40
0.0
 40
0.4783388069
 40
1.0
 40
1.0
 40
1.0
 40
1.0
 10
4.6008981353
 20
4.9910455358
 30
0.0
 10
4.5965504597
 20
4.9918346891
 30
0.0
 10
4.5874334006
 20
4.9933319259
 30
0.0
 10
4.5782804966
 20
4.9945872252
 30
0.0
 10
4.5734994187
 20
4.9951898881
 30
0.0
  0
SPLINE
  5
36C
100
AcDbEntity
  8
0
100
AcDbSpline
 62
7
  6
CONTINUOUS
 70
0
 71
3
 72
144
 73
140
 74
0
 42
0.0000001
 43
0.0000001
 44
0.0000000001
 40
0.0
 40
0.0
 40
0.0
 40
0.0
 40
0.0000036378
 40
0.0000080468
 40
0.0000141817
 40
0.0000316266
 40
0.0000559671
 40
0.0000871976
 40
0.0001253128
 40
0.000170307
 40
0.000222175
 40
0.0003465099
 40
0.0004982737
 40
0.0006774226
 40
0.0008839127
 40
0.0011177003
 40
0.0013787414
 40
0.0019823567
 40
0.0026940577
 40
0.0035130382
 40
0.0044384919
 40
0.0054696124
 40
0.0066055637
 40
0.0078451476
 40
0.0106294543
 40
0.0138109927
 40
0.0173778628
 40
0.021317191
 40
0.0256159311
 40
0.0302605293
 40
0.035236612
 40
0.0405297369
 40
0.0520107487
 40
0.0645931318
 40
0.0781716363
 40
0.0926464793
 40
0.1079277323
 40
0.1239319079
 40
0.1405855118
 40
0.1578203589
 40
0.1755777854
 40
0.1938027514
 40
0.2124483522
 40
0.2508311567
 40
0.2606277247
 40
0.2704962242
 40
0.2904345495
 40
0.3004976372
 40
0.3106189747
 40
0.3310244257
 40
0.3413033859
 40
0.3516294149
 40
0.3620002859
 40
0.3724139116
 40
0.3828678277
 40
0.3881095691
 40
0.3933609435
 40
0.403890567
 40
0.4144553039
 40
0.4250539771
 40
0.4356843418
 40
0.4463456524
 40
0.4570341698
 40
0.4677480927
 40
0.4731145795
 40
0.4784859817
 40
0.4838605249
 40
0.4892380998
 40
0.4946182157
 40
0.4999995741
 40
0.5053809599
 40
0.5107610627
 40
0.5161385531
 40
0.521513175
 40
0.5268846977
 40
0.5322511862
 40
0.5429652781
 40
0.5536536243
 40
0.5643152052
 40
0.5749456309
 40
0.5855442774
 40
0.5961088992
 40
0.6066386557
 40
0.6118900923
 40
0.6171318577
 40
0.6275857984
 40
0.6379994001
 40
0.6483702288
 40
0.6586962516
 40
0.6689752177
 40
0.6893807
 40
0.6995020674
 40
0.709565178
 40
0.7195668111
 40
0.7295036168
 40
0.7393721279
 40
0.7491687123
 40
0.7875515969
 40
0.8061972333
 40
0.8244222153
 40
0.8421796429
 40
0.8594144867
 40
0.8760680904
 40
0.8920722665
 40
0.907353517
 40
0.9218283635
 40
0.9354068794
 40
0.9479892513
 40
0.9594702336
 40
0.9647633549
 40
0.9697394438
 40
0.9743840528
 40
0.9786828032
 40
0.9826221385
 40
0.9861890119
 40
0.9893705493
 40
0.9921548532
 40
0.9933944361
 40
0.9945303871
 40
0.9955615084
 40
0.9964869634
 40
0.9973059453
 40
0.9980176474
 40
0.9986212632
 40
0.9988823042
 40
0.9991160914
 40
0.9993225809
 40
0.9995017292
 40
0.9996534924
 40
0.9997778266
 40
0.9998296942
 40
0.9998746882
 40
0.9999128031
 40
0.9999440334
 40
0.9999683737
 40
0.9999858185
 40
0.9999919533
 40
0.9999963623
 40
1.0
 40
1.0
 40
1.0
 40
1.0
 10
4.9614993159
 20
3.1549333615
 30
0.0
 10
4.9614980059
 20
3.1549327899
 30
0.0
 10
4.9614960491
 20
3.1549300674
 30
0.0
 10
4.9614917797
 20
3.1549265692
 30
0.0
 10
4.9614838392
 20
3.1549189077
 30
0.0
 10
4.9614700107
 20
3.1549061692
 30
0.0
 10
4.9614491145
 20
3.1548864951
 30
0.0
 10
4.9614222578
 20
3.1548613308
 30
0.0
 10
4.961389518
 20
3.1548305672
 30
0.0
 10
4.9613508749
 20
3.1547942487
 30
0.0
 10
4.9612875703
 20
3.1547347051
 30
0.0
 10
4.9611937454
 20
3.1546463827
 30
0.0
 10
4.9610635622
 20
3.1545237251
 30
0.0
 10
4.9609099417
 20
3.1543788732
 30
0.0
 10
4.9607329336
 20
3.1542118496
 30
0.0
 10
4.9605325871
 20
3.1540226773
 30
0.0
 10
4.9602188884
 20
3.1537262847
 30
0.0
 10
4.9597689128
 20
3.153300717
 30
0.0
 10
4.9591598555
 20
3.152724329
 30
0.0
 10
4.9584590442
 20
3.1520609324
 30
0.0
 10
4.9576670985
 20
3.151311255
 30
0.0
 10
4.9567846502
 20
3.1504760291
 30
0.0
 10
4.955812424
 20
3.1495561125
 30
0.0
 10
4.954339739
 20
3.1481628973
 30
0.0
 10
4.9522833016
 20
3.1462172614
 30
0.0
 10
4.9495635107
 20
3.1436422982
 30
0.0
 10
4.9465155582
 20
3.1407538864
 30
0.0
 10
4.9431502424
 20
3.1375622347
 30
0.0
 10
4.939478871
 20
3.1340779584
 30
0.0
 10
4.9355133561
 20
3.1303118925
 30
0.0
 10
4.9312664322
 20
3.1262748029
 30
0.0
 10
4.9250759804
 20
3.1203837246
 30
0.0
 10
4.9167281184
 20
3.1124246315
 30
0.0
 10
4.9060372697
 20
3.102205543
 30
0.0
 10
4.8945129068
 20
3.0911561549
 30
0.0
 10
4.8822446236
 20
3.0793505377
 30
0.0
 10
4.8693158711
 20
3.0668568675
 30
0.0
 10
4.8558030009
 20
3.0537358647
 30
0.0
 10
4.8417778807
 20
3.0400406919
 30
0.0
 10
4.8273056613
 20
3.0258175434
 30
0.0
 10
4.812449052
 20
3.0111049356
 30
0.0
 10
4.7972644969
 20
2.995935984
 30
0.0
 10
4.7764573291
 20
2.9749299686
 30
0.0
 10
4.7581515454
 20
2.956107157
 30
0.0
 10
4.7424304126
 20
2.9395845733
 30
0.0
 10
4.7317590529
 20
2.9282604262
 30
0.0
 10
4.7211098041
 20
2.9167717255
 30
0.0
 10
4.7105088644
 20
2.9051043009
 30
0.0
 10
4.6998723761
 20
2.8932218407
 30
0.0
 10
4.6893314285
 20
2.8811403575
 30
0.0
 10
4.6789298989
 20
2.8688342556
 30
0.0
 10
4.671188512
 20
2.8594430362
 30
0.0
 10
4.6635464401
 20
2.8499028218
 30
0.0
 10
4.6560262589
 20
2.840202411
 30
0.0
 10
4.6498935151
 20
2.8319783029
 30
0.0
 10
4.645079925
 20
2.8253026294
 30
0.0
 10
4.6403256926
 20
2.8185481614
 30
0.0
 10
4.6345283397
 20
2.8099711794
 30
0.0
 10
4.6278632033
 20
2.7994506836
 30
0.0
 10
4.6215470985
 20
2.788670004
 30
0.0
 10
4.6156681273
 20
2.7776005602
 30
0.0
 10
4.6103218815
 20
2.7662231005
 30
0.0
 10
4.6056406686
 20
2.7545187118
 30
0.0
 10
4.6024083705
 20
2.7444992946
 30
0.0
 10
4.6002949122
 20
2.7363381875
 30
0.0
 10
4.5989641603
 20
2.7301471052
 30
0.0
 10
4.5979078276
 20
2.7238987008
 30
0.0
 10
4.5971476812
 20
2.7176037159
 30
0.0
 10
4.5966903221
 20
2.711276845
 30
0.0
 10
4.5965366658
 20
2.7049338064
 30
0.0
 10
4.5966890969
 20
2.6985907438
 30
0.0
 10
4.5971457779
 20
2.6922638242
 30
0.0
 10
4.5979073851
 20
2.6859690023
 30
0.0
 10
4.5989650949
 20
2.6797207969
 30
0.0
 10
4.6002964642
 20
2.6735297795
 30
0.0
 10
4.6024090958
 20
2.665368375
 30
0.0
 10
4.6056379373
 20
2.6553478182
 30
0.0
 10
4.6103206067
 20
2.6436437474
 30
0.0
 10
4.6156704489
 20
2.6322679631
 30
0.0
 10
4.6215482007
 20
2.6211978163
 30
0.0
 10
4.6278618929
 20
2.6104157404
 30
0.0
 10
4.6345267599
 20
2.5998950386
 30
0.0
 10
4.6403255671
 20
2.5913189952
 30
0.0
 10
4.6450805619
 20
2.5845649628
 30
0.0
 10
4.6498944454
 20
2.5778894484
 30
0.0
 10
4.6560271939
 20
2.5696653368
 30
0.0
 10
4.663546875
 20
2.5599645622
 30
0.0
 10
4.671188344
 20
2.5504238999
 30
0.0
 10
4.6789294086
 20
2.5410324352
 30
0.0
 10
4.6893306139
 20
2.5287260427
 30
0.0
 10
4.6998717146
 20
2.516644649
 30
0.0
 10
4.7105085192
 20
2.5047624348
 30
0.0
 10
4.7184841899
 20
2.495984605
 30
0.0
 10
4.726468842
 20
2.4873133114
 30
0.0
 10
4.7344538546
 20
2.4787465904
 30
0.0
 10
4.7424302224
 20
2.4702821976
 30
0.0
 10
4.7581513387
 20
2.4537595523
 30
0.0
 10
4.7764572612
 20
2.4349367941
 30
0.0
 10
4.7972644689
 20
2.4139307475
 30
0.0
 10
4.8124490422
 20
2.3987617844
 30
0.0
 10
4.8273056583
 20
2.384049176
 30
0.0
 10
4.84177788
 20
2.3698260311
 30
0.0
 10
4.8558030001
 20
2.3561308599
 30
0.0
 10
4.8693158683
 20
2.3430098562
 30
0.0
 10
4.8822446166
 20
2.3305161809
 30
0.0
 10
4.894512906
 20
2.3187105631
 30
0.0
 10
4.9060372928
 20
2.3076611978
 30
0.0
 10
4.9167281242
 20
2.2974421078
 30
0.0
 10
4.9250759341
 20
2.2894829852
 30
0.0
 10
4.9312663725
 20
2.2835919081
 30
0.0
 10
4.9355133076
 20
2.2795548227
 30
0.0
 10
4.9394788422
 20
2.275788762
 30
0.0
 10
4.9431502318
 20
2.2723044889
 30
0.0
 10
4.9465155599
 20
2.2691128383
 30
0.0
 10
4.949563518
 20
2.266224427
 30
0.0
 10
4.9522833077
 20
2.2636494628
 30
0.0
 10
4.9543397413
 20
2.2617038256
 30
0.0
 10
4.9558124237
 20
2.2603106101
 30
0.0
 10
4.9567846495
 20
2.2593906934
 30
0.0
 10
4.957667099
 20
2.2585554676
 30
0.0
 10
4.9584590466
 20
2.2578057904
 30
0.0
 10
4.9591598602
 20
2.257142394
 30
0.0
 10
4.9597689194
 20
2.2565660062
 30
0.0
 10
4.9602188958
 20
2.2561404385
 30
0.0
 10
4.9605325944
 20
2.2558440458
 30
0.0
 10
4.9607329403
 20
2.2556548735
 30
0.0
 10
4.9609099476
 20
2.2554878499
 30
0.0
 10
4.9610635671
 20
2.255342998
 30
0.0
 10
4.9611937492
 20
2.2552203403
 30
0.0
 10
4.9612875731
 20
2.2551320179
 30
0.0
 10
4.9613508771
 20
2.2550724742
 30
0.0
 10
4.9613895197
 20
2.2550361557
 30
0.0
 10
4.961422259
 20
2.2550053921
 30
0.0
 10
4.9614491153
 20
2.2549802278
 30
0.0
 10
4.9614700112
 20
2.2549605537
 30
0.0
 10
4.9614838395
 20
2.2549478152
 30
0.0
 10
4.9614917798
 20
2.2549401537
 30
0.0
 10
4.9614960492
 20
2.2549366555
 30
0.0
 10
4.9614980059
 20
2.254933933
 30
0.0
 10
4.9614993159
 20
2.2549333615
 30
0.0
  0
SPLINE
  5
36D
100
AcDbEntity
  8
0
100
AcDbSpline
 62
7
  6
CONTINUOUS
 70
0
 71
3
 72
9
 73
5
 74
0
 42
0.0000001
 43
0.0000001
 44
0.0000000001
 40
0.0
 40
0.0
 40
0.0
 40
0.0
 40
0.497294366
 40
1.0
 40
1.0
 40
1.0
 40
1.0
 10
4.3415751224
 20
5.5783912652
 30
0.0
 10
4.3385345569
 20
5.5725209184
 30
0.0
 10
4.333390786
 20
5.5601881662
 30
0.0
 10
4.3304047256
 20
5.547154455
 30
0.0
 10
4.3295021209
 20
5.5405326987
 30
0.0
  0
SPLINE
  5
36E
100
AcDbEntity
  8
0
100
AcDbSpline
 62
7
  6
CONTINUOUS
 70
0
 71
3
 72
39
 73
35
 74
0
 42
0.0000001
 43
0.0000001
 44
0.0000000001
 40
0.0
 40
0.0
 40
0.0
 40
0.0
 40
0.0310395173
 40
0.0622140148
 40
0.0934770742
 40
0.1247849463
 40
0.1561018372
 40
0.1874039117
 40
0.2186792838
 40
0.2499268423
 40
0.2811534035
 40
0.3123705151
 40
0.3435911996
 40
0.3748268113
 40
0.40608475
 40
0.437367061
 40
0.468669811
 40
0.4999845096
 40
0.5312997123
 40
0.5626038258
 40
0.5938880725
 40
0.6251480251
 40
0.6563853048
 40
0.6876068418
 40
0.7188237748
 40
0.7500490844
 40
0.7812945598
 40
0.8125675474
 40
0.8438677084
 40
0.8751841646
 40
0.9064940334
 40
0.9377625843
 40
0.968946175
 40
1.0
 40
1.0
 40
1.0
 40
1.0
 10
4.3284993159
 20
5.5548699153
 30
0.0
 10
4.3284993827
 20
5.5583913981
 30
0.0
 10
4.3288531544
 20
5.5654545662
 30
0.0
 10
4.3304271566
 20
5.575958567
 30
0.0
 10
4.3330226053
 20
5.5862899647
 30
0.0
 10
4.3366044612
 20
5.5963386396
 30
0.0
 10
4.341128788
 20
5.6060043884
 30
0.0
 10
4.3465457373
 20
5.6151951851
 30
0.0
 10
4.3528018391
 20
5.623826941
 30
0.0
 10
4.3598410139
 20
5.6318216757
 30
0.0
 10
4.3676044119
 20
5.6391058781
 30
0.0
 10
4.3760293134
 20
5.6456092118
 30
0.0
 10
4.3850474228
 20
5.6512640209
 30
0.0
 10
4.3945828411
 20
5.6560061109
 30
0.0
 10
4.4045505531
 20
5.6597764369
 30
0.0
 10
4.4148556378
 20
5.6625235931
 30
0.0
 10
4.4253936198
 20
5.6642078769
 30
0.0
 10
4.4360526611
 20
5.6648027748
 30
0.0
 10
4.446716589
 20
5.6642996195
 30
0.0
 10
4.4572690635
 20
5.6627056346
 30
0.0
 10
4.4675977477
 20
5.6600460406
 30
0.0
 10
4.4775974441
 20
5.6563594325
 30
0.0
 10
4.4871724179
 20
5.6516964624
 30
0.0
 10
4.4962368218
 20
5.6461155827
 30
0.0
 10
4.5047140494
 20
5.6396806609
 30
0.0
 10
4.5125352509
 20
5.6324591094
 30
0.0
 10
4.5196372955
 20
5.6245210224
 30
0.0
 10
4.5259610763
 20
5.6159396198
 30
0.0
 10
4.5314502998
 20
5.6067924388
 30
0.0
 10
4.5360512517
 20
5.5971629909
 30
0.0
 10
4.5397137251
 20
5.5871425911
 30
0.0
 10
4.5423931454
 20
5.5768307395
 30
0.0
 10
4.5440536698
 20
5.5663367809
 30
0.0
 10
4.5444661703
 20
5.5592741605
 30
0.0
 10
4.5444956291
 20
5.5557511776
 30
0.0
  0
SPLINE
  5
36F
100
AcDbEntity
  8
0
100
AcDbSpline
 62
7
  6
CONTINUOUS
 70
0
 71
3
 72
9
 73
5
 74
0
 42
0.0000001
 43
0.0000001
 44
0.0000000001
 40
0.0
 40
0.0
 40
0.0
 40
0.0
 40
0.5027056094
 40
1.0
 40
1.0
 40
1.0
 40
1.0
 10
4.5434966525
 20
5.5405316596
 30
0.0
 10
4.5425940927
 20
5.5471535527
 30
0.0
 10
4.5396080696
 20
5.5601875423
 30
0.0
 10
4.5344642455
 20
5.5725205563
 30
0.0
 10
4.5314236341
 20
5.5783910243
 30
0.0
  0
SPLINE
  5
370
100
AcDbEntity
  8
0
100
AcDbSpline
 62
7
  6
CONTINUOUS
 70
0
 71
3
 72
39
 73
35
 74
0
 42
0.0000001
 43
0.0000001
 44
0.0000000001
 40
0.0
 40
0.0
 40
0.0
 40
0.0
 40
0.0949369539
 40
0.1890088197
 40
0.2813498468
 40
0.3710947544
 40
0.4573801482
 40
0.498957164
 40
0.5393474024
 40
0.6161529903
 40
0.6524078264
 40
0.6871439743
 40
0.7202983528
 40
0.7518087232
 40
0.781613975
 40
0.8096545192
 40
0.8358728449
 40
0.8602143275
 40
0.8826284365
 40
0.9030706028
 40
0.9215052119
 40
0.9379112568
 40
0.9453600768
 40
0.9523176528
 40
0.9587964796
 40
0.9648120117
 40
0.9703835367
 40
0.9755353088
 40
0.9802979783
 40
0.9847102915
 40
0.9888208963
 40
0.9926898235
 40
0.9963888769
 40
1.0
 40
1.0
 40
1.0
 40
1.0
 10
4.4364993159
 20
6.1502000915
 30
0.0
 10
4.4271953892
 20
6.1502000915
 30
0.0
 10
4.4086720148
 20
6.1500584833
 30
0.0
 10
4.3811055266
 20
6.1494330391
 30
0.0
 10
4.3540600763
 20
6.1484078585
 30
0.0
 10
4.3277961927
 20
6.146996021
 30
0.0
 10
4.3065223761
 20
6.1454907314
 30
0.0
 10
4.2900925888
 20
6.1440921485
 30
0.0
 10
4.2746026461
 20
6.1426163964
 30
0.0
 10
4.2596551568
 20
6.1409509852
 30
0.0
 10
4.2452927669
 20
6.1390736019
 30
0.0
 10
4.2351907329
 20
6.1376156572
 30
0.0
 10
4.2255699989
 20
6.1360848175
 30
0.0
 10
4.2164506109
 20
6.1344853585
 30
0.0
 10
4.2078526059
 20
6.1328215836
 30
0.0
 10
4.1997959724
 20
6.1310978223
 30
0.0
 10
4.1923006385
 20
6.129318442
 30
0.0
 10
4.1853864195
 20
6.1274878482
 30
0.0
 10
4.1790730078
 20
6.1256105153
 30
0.0
 10
4.1733797026
 20
6.1236909023
 30
0.0
 10
4.1683257012
 20
6.121733649
 30
0.0
 10
4.1645472719
 20
6.1200229346
 30
0.0
 10
4.1618695082
 20
6.1186257326
 30
0.0
 10
4.160094821
 20
6.1176047129
 30
0.0
 10
4.1584882081
 20
6.1165771624
 30
0.0
 10
4.1570495444
 20
6.1155435587
 30
0.0
 10
4.1557786906
 20
6.1145043459
 30
0.0
 10
4.1546755353
 20
6.1134598439
 30
0.0
 10
4.1537400574
 20
6.1124102358
 30
0.0
 10
4.15297244
 20
6.1113555468
 30
0.0
 10
4.1523732317
 20
6.1102957817
 30
0.0
 10
4.1519434817
 20
6.109230996
 30
0.0
 10
4.1516846645
 20
6.1081623102
 30
0.0
 10
4.1516267842
 20
6.1074446518
 30
0.0
 10
4.1516267842
 20
6.1070907577
 30
0.0
  0
SPLINE
  5
371
100
AcDbEntity
  8
0
100
AcDbSpline
 62
7
  6
CONTINUOUS
 70
0
 71
3
 72
25
 73
21
 74
0
 42
0.0000001
 43
0.0000001
 44
0.0000000001
 40
0.0
 40
0.0
 40
0.0
 40
0.0
 40
0.1575457865
 40
0.2352747396
 40
0.3117583856
 40
0.3865913024
 40
0.4593795689
 40
0.5297407256
 40
0.5973070259
 40
0.6617276345
 40
0.7226712249
 40
0.7798286649
 40
0.8329159678
 40
0.8816777512
 40
0.9043665533
 40
0.9258934078
 40
0.9462371258
 40
0.9653787494
 40
0.9833034832
 40
1.0
 40
1.0
 40
1.0
 40
1.0
 10
4.4364993159
 20
6.1407995687
 30
0.0
 10
4.4502517635
 20
6.1407995687
 30
0.0
 10
4.4707903429
 20
6.1405729003
 30
0.0
 10
4.4979939552
 20
6.1398085683
 30
0.0
 10
4.5179724442
 20
6.1390138183
 30
0.0
 10
4.5375091281
 20
6.1379995597
 30
0.0
 10
4.5564980559
 20
6.1367713615
 30
0.0
 10
4.5748363141
 20
6.1353360182
 30
0.0
 10
4.5924245196
 20
6.1337014853
 30
0.0
 10
4.6091674124
 20
6.1318768533
 30
0.0
 10
4.6249743586
 20
6.1298722973
 30
0.0
 10
4.6397599702
 20
6.1276991138
 30
0.0
 10
4.6534443285
 20
6.125369463
 30
0.0
 10
4.6641109011
 20
6.1232614483
 30
0.0
 10
4.6720325037
 20
6.1214933842
 30
0.0
 10
4.6775103182
 20
6.1201681707
 30
0.0
 10
4.6826614738
 20
6.1188137463
 30
0.0
 10
4.687479101
 20
6.117431842
 30
0.0
 10
4.6919567124
 20
6.116024496
 30
0.0
 10
4.6948130196
 20
6.1150353223
 30
0.0
 10
4.696181751
 20
6.1145345352
 30
0.0
  0
SPLINE
  5
372
100
AcDbEntity
  8
0
100
AcDbSpline
 62
7
  6
CONTINUOUS
 70
0
 71
3
 72
71
 73
67
 74
0
 42
0.0000001
 43
0.0000001
 44
0.0000000001
 40
0.0
 40
0.0
 40
0.0
 40
0.0
 40
0.0018042727
 40
0.0036543975
 40
0.0055923682
 40
0.007654696
 40
0.0098715564
 40
0.0122669841
 40
0.0148597625
 40
0.0176642804
 40
0.0206913079
 40
0.0239490095
 40
0.0274435217
 40
0.0311791488
 40
0.0351589096
 40
0.0393848909
 40
0.0485784426
 40
0.0587615627
 40
0.0699265297
 40
0.0820593524
 40
0.0951405719
 40
0.1091467378
 40
0.1240504762
 40
0.1398212202
 40
0.1564255796
 40
0.1738272823
 40
0.191987892
 40
0.2304197085
 40
0.2713717039
 40
0.3144659816
 40
0.3593016354
 40
0.4054594109
 40
0.4525062779
 40
0.5
 40
0.5474937221
 40
0.5945405891
 40
0.6406983646
 40
0.6855340184
 40
0.7286282961
 40
0.7695802915
 40
0.808012108
 40
0.8261727177
 40
0.8435744204
 40
0.8601787798
 40
0.8759495238
 40
0.8908532622
 40
0.9048594281
 40
0.9179406476
 40
0.9300734703
 40
0.9412384373
 40
0.9514215574
 40
0.9606151091
 40
0.9648410904
 40
0.9688208512
 40
0.9725564783
 40
0.9760509905
 40
0.9793086921
 40
0.9823357196
 40
0.9851402375
 40
0.9877330159
 40
0.9901284436
 40
0.992345304
 40
0.9944076318
 40
0.9963456025
 40
0.9981957273
 40
1.0
 40
1.0
 40
1.0
 40
1.0
 10
4.1399993159
 20
4.9703227879
 30
0.0
 10
4.1399993159
 20
4.9699547576
 30
0.0
 10
4.1400607066
 20
4.9692079996
 30
0.0
 10
4.1403348489
 20
4.9680962836
 30
0.0
 10
4.1407896534
 20
4.9669887043
 30
0.0
 10
4.1414233405
 20
4.9658865345
 30
0.0
 10
4.1422343296
 20
4.9647897732
 30
0.0
 10
4.1432215006
 20
4.9636982828
 30
0.0
 10
4.1443841517
 20
4.9626120392
 30
0.0
 10
4.1457216436
 20
4.9615311994
 30
0.0
 10
4.1472332573
 20
4.9604560128
 30
0.0
 10
4.1489182636
 20
4.9593869291
 30
0.0
 10
4.150775836
 20
4.9583245163
 30
0.0
 10
4.1528049465
 20
4.9572692908
 30
0.0
 10
4.1550044635
 20
4.9562217911
 30
0.0
 10
4.1582550628
 20
4.9547960398
 30
0.0
 10
4.1627439917
 20
4.9530497411
 30
0.0
 10
4.168645266
 20
4.9510486861
 30
0.0
 10
4.1751897792
 20
4.949092435
 30
0.0
 10
4.1823621703
 20
4.9471859205
 30
0.0
 10
4.1901456715
 20
4.9453338576
 30
0.0
 10
4.1985218059
 20
4.9435409595
 30
0.0
 10
4.2074706099
 20
4.9418116474
 30
0.0
 10
4.2169706735
 20
4.9401502017
 30
0.0
 10
4.2269992147
 20
4.9385607809
 30
0.0
 10
4.2375321675
 20
4.9370471803
 30
0.0
 10
4.2524993016
 20
4.9350983977
 30
0.0
 10
4.272275776
 20
4.9328959129
 30
0.0
 10
4.297159259
 20
4.9306539959
 30
0.0
 10
4.3233833915
 20
4.9287885899
 30
0.0
 10
4.3506959046
 20
4.9273181462
 30
0.0
 10
4.3788341261
 20
4.9262573134
 30
0.0
 10
4.4075273041
 20
4.9256165852
 30
0.0
 10
4.4364993159
 20
4.9254023023
 30
0.0
 10
4.4654713277
 20
4.9256165852
 30
0.0
 10
4.4941645057
 20
4.9262573134
 30
0.0
 10
4.5223027272
 20
4.9273181462
 30
0.0
 10
4.5496152403
 20
4.9287885899
 30
0.0
 10
4.5758393728
 20
4.9306539959
 30
0.0
 10
4.6007228558
 20
4.9328959129
 30
0.0
 10
4.6204993302
 20
4.9350983977
 30
0.0
 10
4.6354664643
 20
4.9370471803
 30
0.0
 10
4.6459994171
 20
4.9385607809
 30
0.0
 10
4.6560279583
 20
4.9401502017
 30
0.0
 10
4.6655280219
 20
4.9418116474
 30
0.0
 10
4.6744768259
 20
4.9435409595
 30
0.0
 10
4.6828529603
 20
4.9453338576
 30
0.0
 10
4.6906364615
 20
4.9471859205
 30
0.0
 10
4.6978088526
 20
4.949092435
 30
0.0
 10
4.7043533658
 20
4.9510486861
 30
0.0
 10
4.7102546401
 20
4.9530497411
 30
0.0
 10
4.714743569
 20
4.9547960398
 30
0.0
 10
4.7179941683
 20
4.9562217911
 30
0.0
 10
4.7201936853
 20
4.9572692908
 30
0.0
 10
4.7222227958
 20
4.9583245163
 30
0.0
 10
4.7240803682
 20
4.9593869291
 30
0.0
 10
4.7257653745
 20
4.9604560128
 30
0.0
 10
4.7272769882
 20
4.9615311994
 30
0.0
 10
4.7286144801
 20
4.9626120392
 30
0.0
 10
4.7297771312
 20
4.9636982828
 30
0.0
 10
4.7307643022
 20
4.9647897732
 30
0.0
 10
4.7315752913
 20
4.9658865345
 30
0.0
 10
4.7322089784
 20
4.9669887043
 30
0.0
 10
4.7326637829
 20
4.9680962836
 30
0.0
 10
4.7329379252
 20
4.9692079996
 30
0.0
 10
4.7329993159
 20
4.9699547576
 30
0.0
 10
4.7329993159
 20
4.9703227879
 30
0.0
  0
SPLINE
  5
373
100
AcDbEntity
  8
0
100
AcDbSpline
 62
7
  6
CONTINUOUS
 70
0
 71
3
 72
11
 73
7
 74
0
 42
0.0000001
 43
0.0000001
 44
0.0000000001
 40
0.0
 40
0.0
 40
0.0
 40
0.0
 40
0.2381423798
 40
0.4812214307
 40
0.7338153321
 40
1.0
 40
1.0
 40
1.0
 40
1.0
 10
4.1231118205
 20
4.9799606033
 30
0.0
 10
4.1231118205
 20
4.979610305
 30
0.0
 10
4.1231642063
 20
4.9789014042
 30
0.0
 10
4.1233985634
 20
4.977844258
 30
0.0
 10
4.1237877936
 20
4.9767900744
 30
0.0
 10
4.1241391829
 20
4.9761104337
 30
0.0
 10
4.1243372325
 20
4.975772668
 30
0.0
  0
SPLINE
  5
374
100
AcDbEntity
  8
0
100
AcDbSpline
 62
7
  6
CONTINUOUS
 70
0
 71
3
 72
11
 73
7
 74
0
 42
0.0000001
 43
0.0000001
 44
0.0000000001
 40
0.0
 40
0.0
 40
0.0
 40
0.0
 40
0.2381423798
 40
0.4812214307
 40
0.7338153321
 40
1.0
 40
1.0
 40
1.0
 40
1.0
 10
4.1016118205
 20
5.0167712184
 30
0.0
 10
4.1016118205
 20
5.0163968879
 30
0.0
 10
4.1016678002
 20
5.0156393529
 30
0.0
 10
4.1019182354
 20
5.014509681
 30
0.0
 10
4.1023341688
 20
5.0133831749
 30
0.0
 10
4.1027096652
 20
5.0126569073
 30
0.0
 10
4.1029213021
 20
5.0122959691
 30
0.0
  0
SPLINE
  5
375
100
AcDbEntity
  8
0
100
AcDbSpline
 62
7
  6
CONTINUOUS
 70
0
 71
3
 72
13
 73
9
 74
0
 42
0.0000001
 43
0.0000001
 44
0.0000000001
 40
0.0
 40
0.0
 40
0.0
 40
0.0
 40
0.1457107329
 40
0.3785586108
 40
0.5183207545
 40
0.6698183525
 40
0.8309285417
 40
1.0
 40
1.0
 40
1.0
 40
1.0
 10
5.5847573015
 20
2.257046078
 30
0.0
 10
5.591620595
 20
2.2600793775
 30
0.0
 10
5.609497561
 20
2.267855972
 30
0.0
 10
5.6341502276
 20
2.2780956572
 30
0.0
 10
5.6592720264
 20
2.2879654433
 30
0.0
 10
5.6810954336
 20
2.2961201361
 30
0.0
 10
5.704503042
 20
2.304334237
 30
0.0
 10
5.7206801203
 20
2.3095783638
 30
0.0
 10
5.7289993159
 20
2.3121470382
 30
0.0
  0
SPLINE
  5
376
100
AcDbEntity
  8
0
100
AcDbSpline
 62
7
  6
CONTINUOUS
 70
0
 71
3
 72
71
 73
67
 74
0
 42
0.0000001
 43
0.0000001
 44
0.0000000001
 40
0.0
 40
0.0
 40
0.0
 40
0.0
 40
0.0018042727
 40
0.0036543975
 40
0.0055923682
 40
0.007654696
 40
0.0098715564
 40
0.0122669841
 40
0.0148597625
 40
0.0176642804
 40
0.0206913079
 40
0.0239490095
 40
0.0274435217
 40
0.0311791488
 40
0.0351589096
 40
0.0393848909
 40
0.0485784426
 40
0.0587615627
 40
0.0699265297
 40
0.0820593524
 40
0.0951405719
 40
0.1091467378
 40
0.1240504762
 40
0.1398212202
 40
0.1564255796
 40
0.1738272823
 40
0.191987892
 40
0.2304197085
 40
0.2713717039
 40
0.3144659816
 40
0.3593016354
 40
0.4054594109
 40
0.4525062779
 40
0.5
 40
0.5474937221
 40
0.5945405891
 40
0.6406983646
 40
0.6855340184
 40
0.7286282961
 40
0.7695802915
 40
0.808012108
 40
0.8261727177
 40
0.8435744204
 40
0.8601787798
 40
0.8759495238
 40
0.8908532622
 40
0.9048594281
 40
0.9179406476
 40
0.9300734703
 40
0.9412384373
 40
0.9514215574
 40
0.9606151091
 40
0.9648410904
 40
0.9688208512
 40
0.9725564783
 40
0.9760509905
 40
0.9793086921
 40
0.9823357196
 40
0.9851402375
 40
0.9877330159
 40
0.9901284436
 40
0.992345304
 40
0.9944076318
 40
0.9963456025
 40
0.9981957273
 40
1.0
 40
1.0
 40
1.0
 40
1.0
 10
4.1399993159
 20
4.9703227879
 30
0.0
 10
4.1399993159
 20
4.9706908181
 30
0.0
 10
4.1400607066
 20
4.9714375761
 30
0.0
 10
4.1403348489
 20
4.9725492922
 30
0.0
 10
4.1407896534
 20
4.9736568714
 30
0.0
 10
4.1414233405
 20
4.9747590412
 30
0.0
 10
4.1422343296
 20
4.9758558025
 30
0.0
 10
4.1432215006
 20
4.9769472929
 30
0.0
 10
4.1443841517
 20
4.9780335365
 30
0.0
 10
4.1457216436
 20
4.9791143764
 30
0.0
 10
4.1472332573
 20
4.9801895629
 30
0.0
 10
4.1489182636
 20
4.9812586467
 30
0.0
 10
4.150775836
 20
4.9823210594
 30
0.0
 10
4.1528049465
 20
4.9833762849
 30
0.0
 10
4.1550044635
 20
4.9844237846
 30
0.0
 10
4.1582550628
 20
4.985849536
 30
0.0
 10
4.1627439917
 20
4.9875958346
 30
0.0
 10
4.168645266
 20
4.9895968897
 30
0.0
 10
4.1751897792
 20
4.9915531408
 30
0.0
 10
4.1823621703
 20
4.9934596552
 30
0.0
 10
4.1901456715
 20
4.9953117181
 30
0.0
 10
4.1985218059
 20
4.9971046162
 30
0.0
 10
4.2074706099
 20
4.9988339283
 30
0.0
 10
4.2169706735
 20
5.000495374
 30
0.0
 10
4.2269992147
 20
5.0020847949
 30
0.0
 10
4.2375321675
 20
5.0035983954
 30
0.0
 10
4.2524993016
 20
5.005547178
 30
0.0
 10
4.272275776
 20
5.0077496628
 30
0.0
 10
4.297159259
 20
5.0099915798
 30
0.0
 10
4.3233833915
 20
5.0118569858
 30
0.0
 10
4.3506959046
 20
5.0133274295
 30
0.0
 10
4.3788341261
 20
5.0143882623
 30
0.0
 10
4.4075273041
 20
5.0150289905
 30
0.0
 10
4.4364993159
 20
5.0152432734
 30
0.0
 10
4.4654713277
 20
5.0150289905
 30
0.0
 10
4.4941645057
 20
5.0143882623
 30
0.0
 10
4.5223027272
 20
5.0133274295
 30
0.0
 10
4.5496152403
 20
5.0118569858
 30
0.0
 10
4.5758393728
 20
5.0099915798
 30
0.0
 10
4.6007228558
 20
5.0077496628
 30
0.0
 10
4.6204993302
 20
5.005547178
 30
0.0
 10
4.6354664643
 20
5.0035983954
 30
0.0
 10
4.6459994171
 20
5.0020847949
 30
0.0
 10
4.6560279583
 20
5.000495374
 30
0.0
 10
4.6655280219
 20
4.9988339283
 30
0.0
 10
4.6744768259
 20
4.9971046162
 30
0.0
 10
4.6828529603
 20
4.9953117181
 30
0.0
 10
4.6906364615
 20
4.9934596552
 30
0.0
 10
4.6978088526
 20
4.9915531408
 30
0.0
 10
4.7043533658
 20
4.9895968897
 30
0.0
 10
4.7102546401
 20
4.9875958346
 30
0.0
 10
4.714743569
 20
4.985849536
 30
0.0
 10
4.7179941683
 20
4.9844237846
 30
0.0
 10
4.7201936853
 20
4.9833762849
 30
0.0
 10
4.7222227958
 20
4.9823210594
 30
0.0
 10
4.7240803682
 20
4.9812586467
 30
0.0
 10
4.7257653745
 20
4.9801895629
 30
0.0
 10
4.7272769882
 20
4.9791143764
 30
0.0
 10
4.7286144801
 20
4.9780335365
 30
0.0
 10
4.7297771312
 20
4.9769472929
 30
0.0
 10
4.7307643022
 20
4.9758558025
 30
0.0
 10
4.7315752913
 20
4.9747590412
 30
0.0
 10
4.7322089784
 20
4.9736568714
 30
0.0
 10
4.7326637829
 20
4.9725492922
 30
0.0
 10
4.7329379252
 20
4.9714375761
 30
0.0
 10
4.7329993159
 20
4.9706908181
 30
0.0
 10
4.7329993159
 20
4.9703227879
 30
0.0
  0
SPLINE
  5
377
100
AcDbEntity
  8
0
100
AcDbSpline
 62
7
  6
CONTINUOUS
 70
0
 71
3
 72
73
 73
69
 74
0
 42
0.0000001
 43
0.0000001
 44
0.0000000001
 40
0.0
 40
0.0
 40
0.0
 40
0.0
 40
0.0018042917
 40
0.0036544255
 40
0.0055923967
 40
0.0076547198
 40
0.0098715727
 40
0.0122669994
 40
0.0148597916
 40
0.0176643068
 40
0.020691324
 40
0.0239490342
 40
0.027443547
 40
0.0311791526
 40
0.0351589109
 40
0.0393849117
 40
0.0485784261
 40
0.0587615624
 40
0.0699265187
 40
0.0820593094
 40
0.0951405513
 40
0.1091466519
 40
0.1240504052
 40
0.1398211256
 40
0.1564254418
 40
0.1738271651
 40
0.1919876987
 40
0.2108663346
 40
0.230420112
 40
0.2713720669
 40
0.3144662677
 40
0.3593018373
 40
0.4054595432
 40
0.4525063485
 40
0.5
 40
0.5474936515
 40
0.5945404568
 40
0.6406981627
 40
0.6855337323
 40
0.7286279331
 40
0.769579888
 40
0.7891336654
 40
0.8080123013
 40
0.8261728349
 40
0.8435745582
 40
0.8601788744
 40
0.8759495948
 40
0.8908533481
 40
0.9048594487
 40
0.9179406906
 40
0.9300734813
 40
0.9412384376
 40
0.9514215739
 40
0.9606150883
 40
0.9648410891
 40
0.9688208474
 40
0.972556453
 40
0.9760509658
 40
0.979308676
 40
0.9823356932
 40
0.9851402084
 40
0.9877330006
 40
0.9901284273
 40
0.9923452802
 40
0.9944076033
 40
0.9963455745
 40
0.9981957083
 40
1.0
 40
1.0
 40
1.0
 40
1.0
 10
4.1231118205
 20
4.9799606033
 30
0.0
 10
4.1231118205
 20
4.9803495997
 30
0.0
 10
4.1231767066
 20
4.9811388972
 30
0.0
 10
4.1234664627
 20
4.9823139405
 30
0.0
 10
4.1239471763
 20
4.9834846044
 30
0.0
 10
4.1246169652
 20
4.9846495429
 30
0.0
 10
4.125474143
 20
4.9858087713
 30
0.0
 10
4.1265175419
 20
4.9869624312
 30
0.0
 10
4.1277464232
 20
4.9881105383
 30
0.0
 10
4.1291600912
 20
4.9892529448
 30
0.0
 10
4.1307577981
 20
4.9903893764
 30
0.0
 10
4.1325387845
 20
4.9915193422
 30
0.0
 10
4.1345021595
 20
4.9926422613
 30
0.0
 10
4.1366468344
 20
4.9937575952
 30
0.0
 10
4.1389716307
 20
4.9948647554
 30
0.0
 10
4.1424073784
 20
4.996371697
 30
0.0
 10
4.1471519762
 20
4.9982174819
 30
0.0
 10
4.1533893727
 20
5.0003324908
 30
0.0
 10
4.1603066382
 20
5.0024001649
 30
0.0
 10
4.1678875441
 20
5.0044152781
 30
0.0
 10
4.1761143632
 20
5.0063728037
 30
0.0
 10
4.1849675699
 20
5.0082678429
 30
0.0
 10
4.1944260631
 20
5.0100956318
 30
0.0
 10
4.2044672145
 20
5.0118517071
 30
0.0
 10
4.2150669453
 20
5.0135316746
 30
0.0
 10
4.2261998072
 20
5.0151314292
 30
0.0
 10
4.2378390439
 20
5.0166470515
 30
0.0
 10
4.2499566685
 20
5.0180748217
 30
0.0
 10
4.2669758967
 20
5.0198846215
 30
0.0
 10
4.2892231106
 20
5.0218886952
 30
0.0
 10
4.3169407564
 20
5.0238604515
 30
0.0
 10
4.3458089001
 20
5.0254146233
 30
0.0
 10
4.3755497486
 20
5.0265358855
 30
0.0
 10
4.405877176
 20
5.0272130963
 30
0.0
 10
4.4364993159
 20
5.0274395796
 30
0.0
 10
4.4671214558
 20
5.0272130963
 30
0.0
 10
4.4974488832
 20
5.0265358855
 30
0.0
 10
4.5271897317
 20
5.0254146233
 30
0.0
 10
4.5560578755
 20
5.0238604515
 30
0.0
 10
4.5837755212
 20
5.0218886952
 30
0.0
 10
4.6060227351
 20
5.0198846215
 30
0.0
 10
4.6230419633
 20
5.0180748217
 30
0.0
 10
4.6351595879
 20
5.0166470515
 30
0.0
 10
4.6467988246
 20
5.0151314292
 30
0.0
 10
4.6579316865
 20
5.0135316746
 30
0.0
 10
4.6685314173
 20
5.0118517071
 30
0.0
 10
4.6785725687
 20
5.0100956318
 30
0.0
 10
4.6880310619
 20
5.0082678429
 30
0.0
 10
4.6968842686
 20
5.0063728037
 30
0.0
 10
4.7051110877
 20
5.0044152781
 30
0.0
 10
4.7126919936
 20
5.0024001649
 30
0.0
 10
4.7196092591
 20
5.0003324908
 30
0.0
 10
4.7258466556
 20
4.9982174819
 30
0.0
 10
4.7305912534
 20
4.996371697
 30
0.0
 10
4.7340270011
 20
4.9948647554
 30
0.0
 10
4.7363517974
 20
4.9937575952
 30
0.0
 10
4.7384964723
 20
4.9926422613
 30
0.0
 10
4.7404598473
 20
4.9915193422
 30
0.0
 10
4.7422408337
 20
4.9903893764
 30
0.0
 10
4.7438385406
 20
4.9892529448
 30
0.0
 10
4.7452522086
 20
4.9881105383
 30
0.0
 10
4.7464810899
 20
4.9869624312
 30
0.0
 10
4.7475244888
 20
4.9858087713
 30
0.0
 10
4.7483816666
 20
4.9846495429
 30
0.0
 10
4.7490514555
 20
4.9834846044
 30
0.0
 10
4.7495321691
 20
4.9823139405
 30
0.0
 10
4.7498219252
 20
4.9811388972
 30
0.0
 10
4.7498868113
 20
4.9803495997
 30
0.0
 10
4.7498868113
 20
4.9799606033
 30
0.0
  0
SPLINE
  5
378
100
AcDbEntity
  8
0
100
AcDbSpline
 62
7
  6
CONTINUOUS
 70
0
 71
3
 72
73
 73
69
 74
0
 42
0.0000001
 43
0.0000001
 44
0.0000000001
 40
0.0
 40
0.0
 40
0.0
 40
0.0
 40
0.0018042917
 40
0.0036544255
 40
0.0055923967
 40
0.0076547198
 40
0.0098715727
 40
0.0122669994
 40
0.0148597916
 40
0.0176643068
 40
0.020691324
 40
0.0239490342
 40
0.027443547
 40
0.0311791526
 40
0.0351589109
 40
0.0393849117
 40
0.0485784261
 40
0.0587615624
 40
0.0699265187
 40
0.0820593094
 40
0.0951405513
 40
0.1091466519
 40
0.1240504052
 40
0.1398211256
 40
0.1564254418
 40
0.1738271651
 40
0.1919876987
 40
0.2108663346
 40
0.230420112
 40
0.2713720669
 40
0.3144662677
 40
0.3593018373
 40
0.4054595432
 40
0.4525063485
 40
0.5
 40
0.5474936515
 40
0.5945404568
 40
0.6406981627
 40
0.6855337323
 40
0.7286279331
 40
0.769579888
 40
0.7891336654
 40
0.8080123013
 40
0.8261728349
 40
0.8435745582
 40
0.8601788744
 40
0.8759495948
 40
0.8908533481
 40
0.9048594487
 40
0.9179406906
 40
0.9300734813
 40
0.9412384376
 40
0.9514215739
 40
0.9606150883
 40
0.9648410891
 40
0.9688208474
 40
0.972556453
 40
0.9760509658
 40
0.979308676
 40
0.9823356932
 40
0.9851402084
 40
0.9877330006
 40
0.9901284273
 40
0.9923452802
 40
0.9944076033
 40
0.9963455745
 40
0.9981957083
 40
1.0
 40
1.0
 40
1.0
 40
1.0
 10
4.1016118205
 20
5.0167712184
 30
0.0
 10
4.1016118205
 20
5.017186902
 30
0.0
 10
4.1016811582
 20
5.0180303494
 30
0.0
 10
4.101990793
 20
5.0192860067
 30
0.0
 10
4.102504486
 20
5.0205369842
 30
0.0
 10
4.1032202259
 20
5.0217818435
 30
0.0
 10
4.1041362105
 20
5.0230206009
 30
0.0
 10
4.1052511919
 20
5.0242534079
 30
0.0
 10
4.1065643809
 20
5.0254802811
 30
0.0
 10
4.1080750338
 20
5.0267010626
 30
0.0
 10
4.1097823516
 20
5.0279154592
 30
0.0
 10
4.1116855229
 20
5.0291229465
 30
0.0
 10
4.1137835956
 20
5.0303229036
 30
0.0
 10
4.1160754062
 20
5.0315147553
 30
0.0
 10
4.1185596956
 20
5.0326978723
 30
0.0
 10
4.1222311533
 20
5.0343081979
 30
0.0
 10
4.127301255
 20
5.0362806132
 30
0.0
 10
4.1339665691
 20
5.0385407226
 30
0.0
 10
4.1413583948
 20
5.0407502498
 30
0.0
 10
4.1494593899
 20
5.0429036101
 30
0.0
 10
4.1582506113
 20
5.0449954322
 30
0.0
 10
4.1677111936
 20
5.0470204808
 30
0.0
 10
4.1778185882
 20
5.0489736655
 30
0.0
 10
4.1885486145
 20
5.0508502166
 30
0.0
 10
4.1998755415
 20
5.0526454385
 30
0.0
 10
4.2117721752
 20
5.0543549446
 30
0.0
 10
4.2242099237
 20
5.0559745464
 30
0.0
 10
4.2371588799
 20
5.057500269
 30
0.0
 10
4.255345715
 20
5.0594342304
 30
0.0
 10
4.2791192026
 20
5.0615757939
 30
0.0
 10
4.308738422
 20
5.0636828228
 30
0.0
 10
4.3395870694
 20
5.0653436189
 30
0.0
 10
4.3713682936
 20
5.0665418054
 30
0.0
 10
4.4037763392
 20
5.0672654764
 30
0.0
 10
4.4364993159
 20
5.0675074976
 30
0.0
 10
4.4692222926
 20
5.0672654764
 30
0.0
 10
4.5016303382
 20
5.0665418054
 30
0.0
 10
4.5334115624
 20
5.0653436189
 30
0.0
 10
4.5642602098
 20
5.0636828228
 30
0.0
 10
4.5938794292
 20
5.0615757939
 30
0.0
 10
4.6176529168
 20
5.0594342304
 30
0.0
 10
4.6358397519
 20
5.057500269
 30
0.0
 10
4.6487887081
 20
5.0559745464
 30
0.0
 10
4.6612264566
 20
5.0543549446
 30
0.0
 10
4.6731230903
 20
5.0526454385
 30
0.0
 10
4.6844500173
 20
5.0508502166
 30
0.0
 10
4.6951800436
 20
5.0489736655
 30
0.0
 10
4.7052874382
 20
5.0470204808
 30
0.0
 10
4.7147480205
 20
5.0449954322
 30
0.0
 10
4.723539242
 20
5.0429036101
 30
0.0
 10
4.7316402371
 20
5.0407502498
 30
0.0
 10
4.7390320627
 20
5.0385407226
 30
0.0
 10
4.7456973768
 20
5.0362806132
 30
0.0
 10
4.7507674785
 20
5.0343081979
 30
0.0
 10
4.7544389362
 20
5.0326978723
 30
0.0
 10
4.7569232256
 20
5.0315147553
 30
0.0
 10
4.7592150362
 20
5.0303229036
 30
0.0
 10
4.7613131089
 20
5.0291229465
 30
0.0
 10
4.7632162802
 20
5.0279154592
 30
0.0
 10
4.764923598
 20
5.0267010626
 30
0.0
 10
4.7664342509
 20
5.0254802811
 30
0.0
 10
4.7677474399
 20
5.0242534079
 30
0.0
 10
4.7688624213
 20
5.0230206009
 30
0.0
 10
4.7697784059
 20
5.0217818435
 30
0.0
 10
4.7704941458
 20
5.0205369842
 30
0.0
 10
4.7710078388
 20
5.0192860067
 30
0.0
 10
4.7713174736
 20
5.0180303494
 30
0.0
 10
4.7713868113
 20
5.017186902
 30
0.0
 10
4.7713868113
 20
5.0167712184
 30
0.0
  0
SPLINE
  5
379
100
AcDbEntity
  8
0
100
AcDbSpline
 62
7
  6
CONTINUOUS
 70
0
 71
3
 72
73
 73
69
 74
0
 42
0.0000001
 43
0.0000001
 44
0.0000000001
 40
0.0
 40
0.0
 40
0.0
 40
0.0
 40
0.0018042917
 40
0.0036544255
 40
0.0055923967
 40
0.0076547198
 40
0.0098715727
 40
0.0122669994
 40
0.0148597916
 40
0.0176643068
 40
0.020691324
 40
0.0239490342
 40
0.027443547
 40
0.0311791526
 40
0.0351589109
 40
0.0393849117
 40
0.0485784261
 40
0.0587615624
 40
0.0699265187
 40
0.0820593094
 40
0.0951405513
 40
0.1091466519
 40
0.1240504052
 40
0.1398211256
 40
0.1564254418
 40
0.1738271651
 40
0.1919876987
 40
0.2108663346
 40
0.230420112
 40
0.2713720669
 40
0.3144662677
 40
0.3593018373
 40
0.4054595432
 40
0.4525063485
 40
0.5
 40
0.5474936515
 40
0.5945404568
 40
0.6406981627
 40
0.6855337323
 40
0.7286279331
 40
0.769579888
 40
0.7891336654
 40
0.8080123013
 40
0.8261728349
 40
0.8435745582
 40
0.8601788744
 40
0.8759495948
 40
0.8908533481
 40
0.9048594487
 40
0.9179406906
 40
0.9300734813
 40
0.9412384376
 40
0.9514215739
 40
0.9606150883
 40
0.9648410891
 40
0.9688208474
 40
0.972556453
 40
0.9760509658
 40
0.979308676
 40
0.9823356932
 40
0.9851402084
 40
0.9877330006
 40
0.9901284273
 40
0.9923452802
 40
0.9944076033
 40
0.9963455745
 40
0.9981957083
 40
1.0
 40
1.0
 40
1.0
 40
1.0
 10
4.0989993159
 20
5.0264090338
 30
0.0
 10
4.0989993159
 20
5.0268279602
 30
0.0
 10
4.0990691944
 20
5.0276779875
 30
0.0
 10
4.0993812448
 20
5.0289434403
 30
0.0
 10
4.0998989452
 20
5.0302041769
 30
0.0
 10
4.1006202687
 20
5.0314587475
 30
0.0
 10
4.101543399
 20
5.0327071686
 30
0.0
 10
4.1026670785
 20
5.0339495929
 30
0.0
 10
4.1039905119
 20
5.0351860371
 30
0.0
 10
4.1055129496
 20
5.0364163421
 30
0.0
 10
4.1072335864
 20
5.0376402124
 30
0.0
 10
4.1091516046
 20
5.0388571194
 30
0.0
 10
4.1112660447
 20
5.0400664376
 30
0.0
 10
4.1135757341
 20
5.0412675871
 30
0.0
 10
4.1160794037
 20
5.0424599338
 30
0.0
 10
4.119779503
 20
5.0440828217
 30
0.0
 10
4.1248891573
 20
5.0460706241
 30
0.0
 10
4.1316064684
 20
5.048348365
 30
0.0
 10
4.1390559588
 20
5.050575129
 30
0.0
 10
4.1472201509
 20
5.052745288
 30
0.0
 10
4.1560799538
 20
5.0548534287
 30
0.0
 10
4.1656143396
 20
5.056894275
 30
0.0
 10
4.1758005834
 20
5.0588626967
 30
0.0
 10
4.1866143161
 20
5.0607538871
 30
0.0
 10
4.1980296061
 20
5.0625631138
 30
0.0
 10
4.2100190471
 20
5.0642859559
 30
0.0
 10
4.2225538242
 20
5.0659181925
 30
0.0
 10
4.235603797
 20
5.0674558174
 30
0.0
 10
4.2539325102
 20
5.0694048659
 30
0.0
 10
4.2778914582
 20
5.0715631361
 30
0.0
 10
4.3077417412
 20
5.0736866023
 30
0.0
 10
4.3388310432
 20
5.0753603544
 30
0.0
 10
4.3708601973
 20
5.0765678882
 30
0.0
 10
4.4035210626
 20
5.0772972047
 30
0.0
 10
4.4364993159
 20
5.0775411139
 30
0.0
 10
4.4694775692
 20
5.0772972047
 30
0.0
 10
4.5021384345
 20
5.0765678882
 30
0.0
 10
4.5341675886
 20
5.0753603544
 30
0.0
 10
4.5652568906
 20
5.0736866023
 30
0.0
 10
4.5951071736
 20
5.0715631361
 30
0.0
 10
4.6190661216
 20
5.0694048659
 30
0.0
 10
4.6373948348
 20
5.0674558174
 30
0.0
 10
4.6504448076
 20
5.0659181925
 30
0.0
 10
4.6629795847
 20
5.0642859559
 30
0.0
 10
4.6749690257
 20
5.0625631138
 30
0.0
 10
4.6863843157
 20
5.0607538871
 30
0.0
 10
4.6971980484
 20
5.0588626967
 30
0.0
 10
4.7073842922
 20
5.056894275
 30
0.0
 10
4.716918678
 20
5.0548534287
 30
0.0
 10
4.7257784809
 20
5.052745288
 30
0.0
 10
4.733942673
 20
5.050575129
 30
0.0
 10
4.7413921634
 20
5.048348365
 30
0.0
 10
4.7481094745
 20
5.0460706241
 30
0.0
 10
4.7532191288
 20
5.0440828217
 30
0.0
 10
4.7569192281
 20
5.0424599338
 30
0.0
 10
4.7594228977
 20
5.0412675871
 30
0.0
 10
4.7617325871
 20
5.0400664376
 30
0.0
 10
4.7638470272
 20
5.0388571194
 30
0.0
 10
4.7657650454
 20
5.0376402124
 30
0.0
 10
4.7674856822
 20
5.0364163421
 30
0.0
 10
4.7690081199
 20
5.0351860371
 30
0.0
 10
4.7703315533
 20
5.0339495929
 30
0.0
 10
4.7714552328
 20
5.0327071686
 30
0.0
 10
4.7723783631
 20
5.0314587475
 30
0.0
 10
4.7730996866
 20
5.0302041769
 30
0.0
 10
4.773617387
 20
5.0289434403
 30
0.0
 10
4.7739294374
 20
5.0276779875
 30
0.0
 10
4.7739993159
 20
5.0268279602
 30
0.0
 10
4.7739993159
 20
5.0264090338
 30
0.0
  0
SPLINE
  5
37A
100
AcDbEntity
  8
0
100
AcDbSpline
 62
7
  6
CONTINUOUS
 70
0
 71
3
 72
43
 73
39
 74
0
 42
0.0000001
 43
0.0000001
 44
0.0000000001
 40
0.0
 40
0.0
 40
0.0
 40
0.0
 40
0.0310322211
 40
0.0621974991
 40
0.0934519448
 40
0.1247523225
 40
0.1560642947
 40
0.1717213763
 40
0.1873736135
 40
0.2186506848
 40
0.2499031298
 40
0.2655263365
 40
0.2811460645
 40
0.3123717843
 40
0.3436009805
 40
0.3748433491
 40
0.4061054458
 40
0.4373884533
 40
0.4686890674
 40
0.4999995186
 40
0.5313099843
 40
0.5626105817
 40
0.5938935992
 40
0.6251556792
 40
0.6563980535
 40
0.6876272402
 40
0.7188529732
 40
0.7344727101
 40
0.7500959225
 40
0.7813483947
 40
0.8126254983
 40
0.8282777738
 40
0.843934871
 40
0.8752469079
 40
0.9065473704
 40
0.9378018184
 40
0.9689675249
 40
1.0
 40
1.0
 40
1.0
 40
1.0
 10
4.3218000678
 20
5.555581204
 30
0.0
 10
4.3218002136
 20
5.5593006765
 30
0.0
 10
4.3221849674
 20
5.5667608493
 30
0.0
 10
4.3238856184
 20
5.5778500341
 30
0.0
 10
4.3266933971
 20
5.588746026
 30
0.0
 10
4.3305616972
 20
5.5993293882
 30
0.0
 10
4.3346299374
 20
5.607800304
 30
0.0
 10
4.3383600929
 20
5.6143163016
 30
0.0
 10
4.3423962311
 20
5.6206424563
 30
0.0
 10
4.3479997206
 20
5.6281721859
 30
0.0
 10
4.354294129
 20
5.6351299393
 30
0.0
 10
4.3597065671
 20
5.6403118622
 30
0.0
 10
4.3653585692
 20
5.6452264205
 30
0.0
 10
4.3728573956
 20
5.6508507773
 30
0.0
 10
4.3824655368
 20
5.6566984194
 30
0.0
 10
4.39260325
 20
5.6615825999
 30
0.0
 10
4.4031785164
 20
5.6654480084
 30
0.0
 10
4.4140923777
 20
5.668246362
 30
0.0
 10
4.4252372008
 20
5.6699407699
 30
0.0
 10
4.4364992206
 20
5.6705085507
 30
0.0
 10
4.4477612341
 20
5.6699407607
 30
0.0
 10
4.4589060719
 20
5.6682464209
 30
0.0
 10
4.4698199071
 20
5.6654479866
 30
0.0
 10
4.4803952175
 20
5.6615826969
 30
0.0
 10
4.4905328909
 20
5.6566984401
 30
0.0
 10
4.5001411081
 20
5.6508509231
 30
0.0
 10
4.5076399133
 20
5.6452265336
 30
0.0
 10
4.5132919749
 20
5.6403120405
 30
0.0
 10
4.5187044376
 20
5.6351301335
 30
0.0
 10
4.5249987785
 20
5.6281723035
 30
0.0
 10
4.5306022541
 20
5.6206425635
 30
0.0
 10
4.5346386412
 20
5.6143165593
 30
0.0
 10
4.5383689902
 20
5.6078006444
 30
0.0
 10
4.5424368387
 20
5.5993295385
 30
0.0
 10
4.546305624
 20
5.5887462904
 30
0.0
 10
4.5491122105
 20
5.5778500029
 30
0.0
 10
4.5508155239
 20
5.5667611121
 30
0.0
 10
4.5511985495
 20
5.5593007069
 30
0.0
 10
4.551198564
 20
5.555581204
 30
0.0
  0
SPLINE
  5
37B
100
AcDbEntity
  8
0
100
AcDbSpline
 62
7
  6
CONTINUOUS
 70
0
 71
3
 72
39
 73
35
 74
0
 42
0.0000001
 43
0.0000001
 44
0.0000000001
 40
0.0
 40
0.0
 40
0.0
 40
0.0
 40
0.0315720994
 40
0.047289205
 40
0.0629531073
 40
0.0941164934
 40
0.1250905208
 40
0.1405232689
 40
0.1559252197
 40
0.1866567182
 40
0.2173620922
 40
0.2481107722
 40
0.2789674664
 40
0.3099855008
 40
0.3412019208
 40
0.372633145
 40
0.4042736198
 40
0.4360951539
 40
0.5000099465
 40
0.5639247293
 40
0.5957462265
 40
0.6273867253
 40
0.6588179321
 40
0.6900343635
 40
0.7210524076
 40
0.7519091185
 40
0.7826578289
 40
0.8133632289
 40
0.8440947406
 40
0.874919211
 40
0.9058933116
 40
0.937056776
 40
0.9684273406
 40
1.0
 40
1.0
 40
1.0
 40
1.0
 10
4.551198564
 20
5.5407537957
 30
0.0
 10
4.5511984192
 20
5.5370550102
 30
0.0
 10
4.5509138132
 20
5.5315093403
 30
0.0
 10
4.5499678458
 20
5.5241927105
 30
0.0
 10
4.5486527817
 20
5.5169813187
 30
0.0
 10
4.5463183516
 20
5.5081525501
 30
0.0
 10
4.5430887703
 20
5.4996395035
 30
0.0
 10
4.5399988321
 20
5.4930876038
 30
0.0
 10
4.5365879206
 20
5.4867292523
 30
0.0
 10
4.5317237374
 20
5.4791342015
 30
0.0
 10
4.5249911637
 20
5.4706665762
 30
0.0
 10
4.5174317273
 20
5.4629076909
 30
0.0
 10
4.5091150419
 20
5.4559106073
 30
0.0
 10
4.500112184
 20
5.4497252453
 30
0.0
 10
4.4905009825
 20
5.4443959893
 30
0.0
 10
4.4803642283
 20
5.4399667659
 30
0.0
 10
4.4697923044
 20
5.4364752902
 30
0.0
 10
4.45523572
 20
5.4331114102
 30
0.0
 10
4.4364994032
 20
5.431412725
 30
0.0
 10
4.4177631054
 20
5.4331114339
 30
0.0
 10
4.4032064976
 20
5.4364752171
 30
0.0
 10
4.3926346023
 20
5.4399667641
 30
0.0
 10
4.3824978022
 20
5.4443958835
 30
0.0
 10
4.3728866153
 20
5.449725177
 30
0.0
 10
4.3638837286
 20
5.4559104799
 30
0.0
 10
4.3555669316
 20
5.4629074968
 30
0.0
 10
4.3480076626
 20
5.4706664052
 30
0.0
 10
4.341274873
 20
5.4791344056
 30
0.0
 10
4.3354346785
 20
5.4882520888
 30
0.0
 10
4.3305502049
 20
5.4979512612
 30
0.0
 10
4.3266800051
 20
5.5081522386
 30
0.0
 10
4.3238754962
 20
5.5187627485
 30
0.0
 10
4.3221768802
 20
5.5296751478
 30
0.0
 10
4.3218000826
 20
5.5370549446
 30
0.0
 10
4.3218000678
 20
5.5407537957
 30
0.0
  0
SPLINE
  5
37C
100
AcDbEntity
  8
0
100
AcDbSpline
 62
7
  6
CONTINUOUS
 70
0
 71
3
 72
73
 73
69
 74
0
 42
0.0000001
 43
0.0000001
 44
0.0000000001
 40
0.0
 40
0.0
 40
0.0
 40
0.0
 40
0.0018042917
 40
0.0036544255
 40
0.0055923967
 40
0.0076547198
 40
0.0098715727
 40
0.0122669994
 40
0.0148597916
 40
0.0176643068
 40
0.020691324
 40
0.0239490342
 40
0.027443547
 40
0.0311791526
 40
0.0351589109
 40
0.0393849117
 40
0.0485784261
 40
0.0587615624
 40
0.0699265187
 40
0.0820593094
 40
0.0951405513
 40
0.1091466519
 40
0.1240504052
 40
0.1398211256
 40
0.1564254418
 40
0.1738271651
 40
0.1919876987
 40
0.2108663346
 40
0.230420112
 40
0.2713720669
 40
0.3144662677
 40
0.3593018373
 40
0.4054595432
 40
0.4525063485
 40
0.5
 40
0.5474936515
 40
0.5945404568
 40
0.6406981627
 40
0.6855337323
 40
0.7286279331
 40
0.769579888
 40
0.7891336654
 40
0.8080123013
 40
0.8261728349
 40
0.8435745582
 40
0.8601788744
 40
0.8759495948
 40
0.8908533481
 40
0.9048594487
 40
0.9179406906
 40
0.9300734813
 40
0.9412384376
 40
0.9514215739
 40
0.9606150883
 40
0.9648410891
 40
0.9688208474
 40
0.972556453
 40
0.9760509658
 40
0.979308676
 40
0.9823356932
 40
0.9851402084
 40
0.9877330006
 40
0.9901284273
 40
0.9923452802
 40
0.9944076033
 40
0.9963455745
 40
0.9981957083
 40
1.0
 40
1.0
 40
1.0
 40
1.0
 10
4.0989993159
 20
5.9941778279
 30
0.0
 10
4.0989993159
 20
5.9945967543
 30
0.0
 10
4.0990691944
 20
5.9954467816
 30
0.0
 10
4.0993812448
 20
5.9967122345
 30
0.0
 10
4.0998989452
 20
5.997972971
 30
0.0
 10
4.1006202687
 20
5.9992275417
 30
0.0
 10
4.101543399
 20
6.0004759628
 30
0.0
 10
4.1026670785
 20
6.001718387
 30
0.0
 10
4.1039905119
 20
6.0029548312
 30
0.0
 10
4.1055129496
 20
6.0041851362
 30
0.0
 10
4.1072335864
 20
6.0054090065
 30
0.0
 10
4.1091516046
 20
6.0066259136
 30
0.0
 10
4.1112660447
 20
6.0078352318
 30
0.0
 10
4.1135757341
 20
6.0090363812
 30
0.0
 10
4.1160794037
 20
6.0102287279
 30
0.0
 10
4.119779503
 20
6.0118516159
 30
0.0
 10
4.1248891573
 20
6.0138394183
 30
0.0
 10
4.1316064684
 20
6.0161171591
 30
0.0
 10
4.1390559588
 20
6.0183439231
 30
0.0
 10
4.1472201509
 20
6.0205140821
 30
0.0
 10
4.1560799538
 20
6.0226222228
 30
0.0
 10
4.1656143396
 20
6.0246630691
 30
0.0
 10
4.1758005834
 20
6.0266314909
 30
0.0
 10
4.1866143161
 20
6.0285226812
 30
0.0
 10
4.1980296061
 20
6.0303319079
 30
0.0
 10
4.2100190471
 20
6.03205475
 30
0.0
 10
4.2225538242
 20
6.0336869866
 30
0.0
 10
4.235603797
 20
6.0352246116
 30
0.0
 10
4.2539325102
 20
6.0371736601
 30
0.0
 10
4.2778914582
 20
6.0393319303
 30
0.0
 10
4.3077417412
 20
6.0414553964
 30
0.0
 10
4.3388310432
 20
6.0431291485
 30
0.0
 10
4.3708601973
 20
6.0443366823
 30
0.0
 10
4.4035210626
 20
6.0450659988
 30
0.0
 10
4.4364993159
 20
6.045309908
 30
0.0
 10
4.4694775692
 20
6.0450659988
 30
0.0
 10
4.5021384345
 20
6.0443366823
 30
0.0
 10
4.5341675886
 20
6.0431291485
 30
0.0
 10
4.5652568906
 20
6.0414553964
 30
0.0
 10
4.5951071736
 20
6.0393319303
 30
0.0
 10
4.6190661216
 20
6.0371736601
 30
0.0
 10
4.6373948348
 20
6.0352246116
 30
0.0
 10
4.6504448076
 20
6.0336869866
 30
0.0
 10
4.6629795847
 20
6.03205475
 30
0.0
 10
4.6749690257
 20
6.0303319079
 30
0.0
 10
4.6863843157
 20
6.0285226812
 30
0.0
 10
4.6971980484
 20
6.0266314909
 30
0.0
 10
4.7073842922
 20
6.0246630691
 30
0.0
 10
4.716918678
 20
6.0226222228
 30
0.0
 10
4.7257784809
 20
6.0205140821
 30
0.0
 10
4.733942673
 20
6.0183439231
 30
0.0
 10
4.7413921634
 20
6.0161171591
 30
0.0
 10
4.7481094745
 20
6.0138394183
 30
0.0
 10
4.7532191288
 20
6.0118516159
 30
0.0
 10
4.7569192281
 20
6.0102287279
 30
0.0
 10
4.7594228977
 20
6.0090363812
 30
0.0
 10
4.7617325871
 20
6.0078352318
 30
0.0
 10
4.7638470272
 20
6.0066259136
 30
0.0
 10
4.7657650454
 20
6.0054090065
 30
0.0
 10
4.7674856822
 20
6.0041851362
 30
0.0
 10
4.7690081199
 20
6.0029548312
 30
0.0
 10
4.7703315533
 20
6.001718387
 30
0.0
 10
4.7714552328
 20
6.0004759628
 30
0.0
 10
4.7723783631
 20
5.9992275417
 30
0.0
 10
4.7730996866
 20
5.997972971
 30
0.0
 10
4.773617387
 20
5.9967122345
 30
0.0
 10
4.7739294374
 20
5.9954467816
 30
0.0
 10
4.7739993159
 20
5.9945967543
 30
0.0
 10
4.7739993159
 20
5.9941778279
 30
0.0
  0
SPLINE
  5
37D
100
AcDbEntity
  8
0
100
AcDbSpline
 62
7
  6
CONTINUOUS
 70
0
 71
3
 72
39
 73
35
 74
0
 42
0.0000001
 43
0.0000001
 44
0.0000000001
 40
0.0
 40
0.0
 40
0.0
 40
0.0
 40
0.0949881905
 40
0.1890808322
 40
0.2813967234
 40
0.3710679021
 40
0.4572564521
 40
0.5391604578
 40
0.6160241115
 40
0.652345226
 40
0.6871487124
 40
0.720357384
 40
0.7518988622
 40
0.7817064264
 40
0.8097186154
 40
0.8358812059
 40
0.8601467218
 40
0.8824767327
 40
0.9028430172
 40
0.9212300137
 40
0.9296820204
 40
0.9376416828
 40
0.9451128232
 40
0.9521017693
 40
0.9586173149
 40
0.9646713515
 40
0.9702802771
 40
0.9754659713
 40
0.9802569778
 40
0.9846905908
 40
0.9888150427
 40
0.9926907461
 40
0.9963908999
 40
1.0
 40
1.0
 40
1.0
 40
1.0
 10
4.4364993159
 20
6.1495950482
 30
0.0
 10
4.4456805822
 20
6.1495950482
 30
0.0
 10
4.4639568492
 20
6.1494598811
 30
0.0
 10
4.4911499964
 20
6.1488526329
 30
0.0
 10
4.5178171771
 20
6.1478472699
 30
0.0
 10
4.5437019025
 20
6.1464536881
 30
0.0
 10
4.5685551174
 20
6.1446858024
 30
0.0
 10
4.5921377804
 20
6.1425610847
 30
0.0
 10
4.6108804047
 20
6.1404737564
 30
0.0
 10
4.6250651052
 20
6.1386268251
 30
0.0
 10
4.6350474275
 20
6.1371923706
 30
0.0
 10
4.6445517121
 20
6.1356860293
 30
0.0
 10
4.6535551473
 20
6.1341114344
 30
0.0
 10
4.6620361373
 20
6.1324725487
 30
0.0
 10
4.6699743977
 20
6.1307733405
 30
0.0
 10
4.6773510028
 20
6.1290181406
 30
0.0
 10
4.6841484466
 20
6.1272112564
 30
0.0
 10
4.6903508392
 20
6.1253572891
 30
0.0
 10
4.6959436206
 20
6.1234608522
 30
0.0
 10
4.7001978753
 20
6.1218058264
 30
0.0
 10
4.7032785498
 20
6.1204546032
 30
0.0
 10
4.7053631072
 20
6.119461896
 30
0.0
 10
4.7072861256
 20
6.11846181
 30
0.0
 10
4.7090465729
 20
6.1174549176
 30
0.0
 10
4.7106435287
 20
6.1164417711
 30
0.0
 10
4.7120761273
 20
6.1154227956
 30
0.0
 10
4.713343663
 20
6.1143984115
 30
0.0
 10
4.7144455524
 20
6.1133689502
 30
0.0
 10
4.7153811584
 20
6.1123345297
 30
0.0
 10
4.7161496927
 20
6.1112950769
 30
0.0
 10
4.7167502351
 20
6.1102505843
 30
0.0
 10
4.717181376
 20
6.1092010067
 30
0.0
 10
4.7174411669
 20
6.1081473699
 30
0.0
 10
4.7174992778
 20
6.1074396022
 30
0.0
 10
4.7174992778
 20
6.1070907577
 30
0.0
  0
SPLINE
  5
37E
100
AcDbEntity
  8
0
100
AcDbSpline
 62
7
  6
CONTINUOUS
 70
0
 71
3
 72
22
 73
18
 74
0
 42
0.0000001
 43
0.0000001
 44
0.0000000001
 40
0.0
 40
0.0
 40
0.0
 40
0.0
 40
0.1699663751
 40
0.3442658983
 40
0.5131948853
 40
0.5926760593
 40
0.6673411691
 40
0.736173121
 40
0.7982345542
 40
0.8527239414
 40
0.8989757505
 40
0.9365269509
 40
0.9652251837
 40
0.9763828539
 40
0.9856130977
 40
0.9932741541
 40
1.0
 40
1.0
 40
1.0
 40
1.0
 10
4.3218000678
 20
5.555581204
 30
0.0
 10
4.3221880605
 20
5.5556024116
 30
0.0
 10
4.3229748876
 20
5.555629096
 30
0.0
 10
4.3241483502
 20
5.5556268662
 30
0.0
 10
4.3251143144
 20
5.5555903172
 30
0.0
 10
4.3258512107
 20
5.5555393641
 30
0.0
 10
4.3263588701
 20
5.5554924912
 30
0.0
 10
4.3268255824
 20
5.5554369747
 30
0.0
 10
4.3272447326
 20
5.5553736214
 30
0.0
 10
4.3276103565
 20
5.5553034728
 30
0.0
 10
4.3279175822
 20
5.5552277188
 30
0.0
 10
4.3281621257
 20
5.5551475544
 30
0.0
 10
4.3283239077
 20
5.5550734101
 30
0.0
 10
4.3284165136
 20
5.5550094448
 30
0.0
 10
4.3284629172
 20
5.5549646129
 30
0.0
 10
4.3284922082
 20
5.5549183917
 30
0.0
 10
4.3284993159
 20
5.5548852917
 30
0.0
 10
4.3284993159
 20
5.5548699153
 30
0.0
  0
SPLINE
  5
37F
100
AcDbEntity
  8
0
100
AcDbSpline
 62
7
  6
CONTINUOUS
 70
0
 71
3
 72
22
 73
18
 74
0
 42
0.0000001
 43
0.0000001
 44
0.0000000001
 40
0.0
 40
0.0
 40
0.0
 40
0.0
 40
0.1699663838
 40
0.3442659178
 40
0.513194916
 40
0.5926760953
 40
0.6673412098
 40
0.7361731658
 40
0.7982346018
 40
0.8527239905
 40
0.8989757991
 40
0.9365269963
 40
0.9652252218
 40
0.9763828861
 40
0.9856131217
 40
0.9932741673
 40
1.0
 40
1.0
 40
1.0
 40
1.0
 10
4.3218000678
 20
5.5407537957
 30
0.0
 10
4.3221880605
 20
5.5407750031
 30
0.0
 10
4.3229748876
 20
5.5408016873
 30
0.0
 10
4.3241483502
 20
5.5407994573
 30
0.0
 10
4.3251143144
 20
5.5407629082
 30
0.0
 10
4.3258512107
 20
5.540711955
 30
0.0
 10
4.3263588701
 20
5.540665082
 30
0.0
 10
4.3268255824
 20
5.5406095656
 30
0.0
 10
4.3272447326
 20
5.5405462123
 30
0.0
 10
4.3276103565
 20
5.5404760638
 30
0.0
 10
4.3279175822
 20
5.5404003099
 30
0.0
 10
4.3281621257
 20
5.5403201456
 30
0.0
 10
4.3283239077
 20
5.5402460015
 30
0.0
 10
4.3284165136
 20
5.5401820362
 30
0.0
 10
4.3284629172
 20
5.5401372045
 30
0.0
 10
4.3284922082
 20
5.5400909833
 30
0.0
 10
4.3284993159
 20
5.5400578834
 30
0.0
 10
4.3284993159
 20
5.540042507
 30
0.0
  0
SPLINE
  5
380
100
AcDbEntity
  8
0
100
AcDbSpline
 62
7
  6
CONTINUOUS
 70
0
 71
3
 72
22
 73
18
 74
0
 42
0.0000001
 43
0.0000001
 44
0.0000000001
 40
0.0
 40
0.0
 40
0.0
 40
0.0
 40
0.1699663838
 40
0.34426592
 40
0.513194923
 40
0.5926761055
 40
0.6673412238
 40
0.7361731839
 40
0.7982346242
 40
0.852724017
 40
0.8989758291
 40
0.9365270282
 40
0.9652252525
 40
0.9763829138
 40
0.9856131439
 40
0.9932741805
 40
1.0
 40
1.0
 40
1.0
 40
1.0
 10
4.551198564
 20
5.5407537957
 30
0.0
 10
4.5508105713
 20
5.540775003
 30
0.0
 10
4.5500237443
 20
5.5408016869
 30
0.0
 10
4.5488502817
 20
5.5407994566
 30
0.0
 10
4.5478843176
 20
5.5407629074
 30
0.0
 10
4.5471474214
 20
5.5407119542
 30
0.0
 10
4.546639762
 20
5.5406650812
 30
0.0
 10
4.5461730497
 20
5.5406095648
 30
0.0
 10
4.5457538994
 20
5.5405462116
 30
0.0
 10
4.5453882755
 20
5.5404760631
 30
0.0
 10
4.5450810499
 20
5.5404003093
 30
0.0
 10
4.5448365063
 20
5.5403201451
 30
0.0
 10
4.5446747243
 20
5.5402460012
 30
0.0
 10
4.5445821183
 20
5.5401820361
 30
0.0
 10
4.5445357147
 20
5.5401372044
 30
0.0
 10
4.5445064237
 20
5.5400909833
 30
0.0
 10
4.5444993159
 20
5.5400578835
 30
0.0
 10
4.5444993159
 20
5.5400425071
 30
0.0
  0
SPLINE
  5
381
100
AcDbEntity
  8
0
100
AcDbSpline
 62
7
  6
CONTINUOUS
 70
0
 71
3
 72
22
 73
18
 74
0
 42
0.0000001
 43
0.0000001
 44
0.0000000001
 40
0.0
 40
0.0
 40
0.0
 40
0.0
 40
0.1699663838
 40
0.3442659178
 40
0.513194916
 40
0.5926760953
 40
0.6673412098
 40
0.7361731658
 40
0.7982346018
 40
0.8527239905
 40
0.8989757991
 40
0.9365269963
 40
0.9652252218
 40
0.9763828861
 40
0.9856131217
 40
0.9932741673
 40
1.0
 40
1.0
 40
1.0
 40
1.0
 10
4.551198564
 20
5.555581204
 30
0.0
 10
4.5508105713
 20
5.5556024114
 30
0.0
 10
4.5500237442
 20
5.5556290956
 30
0.0
 10
4.5488502816
 20
5.5556268656
 30
0.0
 10
4.5478843174
 20
5.5555903165
 30
0.0
 10
4.5471474211
 20
5.5555393633
 30
0.0
 10
4.5466397617
 20
5.5554924904
 30
0.0
 10
4.5461730494
 20
5.5554369739
 30
0.0
 10
4.5457538992
 20
5.5553736206
 30
0.0
 10
4.5453882753
 20
5.5553034721
 30
0.0
 10
4.5450810496
 20
5.5552277182
 30
0.0
 10
4.5448365061
 20
5.5551475539
 30
0.0
 10
4.5446747241
 20
5.5550734098
 30
0.0
 10
4.5445821182
 20
5.5550094446
 30
0.0
 10
4.5445357146
 20
5.5549646128
 30
0.0
 10
4.5445064236
 20
5.5549183916
 30
0.0
 10
4.5444993159
 20
5.5548852917
 30
0.0
 10
4.5444993159
 20
5.5548699153
 30
0.0
  0
SPLINE
  5
382
100
AcDbEntity
  8
0
100
AcDbSpline
 62
7
  6
CONTINUOUS
 70
0
 71
3
 72
44
 73
40
 74
0
 42
0.0000001
 43
0.0000001
 44
0.0000000001
 40
0.0
 40
0.0
 40
0.0
 40
0.0
 40
0.0000229192
 40
0.0000912474
 40
0.000204912
 40
0.0003638403
 40
0.0005679597
 40
0.0008171973
 40
0.0014507369
 40
0.0022638776
 40
0.0032560381
 40
0.0044266356
 40
0.005775021
 40
0.0073004486
 40
0.0090021651
 40
0.012931453
 40
0.0175568367
 40
0.0228699752
 40
0.0288586174
 40
0.0355101372
 40
0.0428117377
 40
0.0507494594
 40
0.0684755946
 40
0.0885702188
 40
0.1109067441
 40
0.1353572109
 40
0.1617935909
 40
0.1900908465
 40
0.2201283518
 40
0.2517906561
 40
0.3195603991
 40
0.3926099814
 40
0.4702506658
 40
0.5518790724
 40
0.636947263
 40
0.7249193207
 40
0.8152190479
 40
0.9071730254
 40
1.0
 40
1.0
 40
1.0
 40
1.0
 10
5.8109993159
 20
2.5511833615
 30
0.0
 10
5.8109996888
 20
2.5511845728
 30
0.0
 10
5.8110031281
 20
2.5511884955
 30
0.0
 10
5.8110085015
 20
2.5511983825
 30
0.0
 10
5.8110190254
 20
2.5512141037
 30
0.0
 10
5.8110330066
 20
2.551236423
 30
0.0
 10
5.8110512663
 20
2.5512649499
 30
0.0
 10
5.8110835343
 20
2.5513156545
 30
0.0
 10
5.8111339763
 20
2.5513947241
 30
0.0
 10
5.8112065092
 20
2.5515084279
 30
0.0
 10
5.8112950688
 20
2.5516471385
 30
0.0
 10
5.8113996023
 20
2.5518107676
 30
0.0
 10
5.8115200458
 20
2.5519992272
 30
0.0
 10
5.8116562749
 20
2.5522124555
 30
0.0
 10
5.8118692423
 20
2.5525460253
 30
0.0
 10
5.8121741168
 20
2.5530243073
 30
0.0
 10
5.8125855153
 20
2.5536715256
 30
0.0
 10
5.8130569198
 20
2.5544155445
 30
0.0
 10
5.8135870096
 20
2.5552550236
 30
0.0
 10
5.8141743163
 20
2.5561884235
 30
0.0
 10
5.8148173402
 20
2.5572141112
 30
0.0
 10
5.8157827478
 20
2.5587605248
 30
0.0
 10
5.8171157401
 20
2.5609114645
 30
0.0
 10
5.8188540926
 20
2.5637479282
 30
0.0
 10
5.8207683708
 20
2.5669126513
 30
0.0
 10
5.8228412162
 20
2.57039124
 30
0.0
 10
5.8250544306
 20
2.5741697759
 30
0.0
 10
5.8273896055
 20
2.5782347663
 30
0.0
 10
5.8298278312
 20
2.5825736244
 30
0.0
 10
5.833269677
 20
2.5888519828
 30
0.0
 10
5.8377050706
 20
2.597297669
 30
0.0
 10
5.8430164962
 20
2.6081506549
 30
0.0
 10
5.8482635517
 20
2.6198811298
 30
0.0
 10
5.8532644471
 20
2.632438716
 30
0.0
 10
5.8578196065
 20
2.6457724014
 30
0.0
 10
5.8617117936
 20
2.65981568
 30
0.0
 10
5.8647151658
 20
2.6744681667
 30
0.0
 10
5.8666208869
 20
2.6895761869
 30
0.0
 10
5.8670563477
 20
2.6997999436
 30
0.0
 10
5.8670563546
 20
2.7049333615
 30
0.0
  0
SPLINE
  5
383
100
AcDbEntity
  8
0
100
AcDbSpline
 62
7
  6
CONTINUOUS
 70
0
 71
3
 72
44
 73
40
 74
0
 42
0.0000001
 43
0.0000001
 44
0.0000000001
 40
0.0
 40
0.0
 40
0.0
 40
0.0
 40
0.0928271275
 40
0.1847811226
 40
0.2750808378
 40
0.3630528549
 40
0.4481210166
 40
0.5297494267
 40
0.6073901172
 40
0.6804396981
 40
0.7482094233
 40
0.7798717835
 40
0.8099094809
 40
0.8382068097
 40
0.8646427024
 40
0.8890926984
 40
0.911429797
 40
0.9315250509
 40
0.9492502494
 40
0.9571873014
 40
0.964488542
 40
0.9711401854
 40
0.9771292388
 40
0.9824428289
 40
0.9870684653
 40
0.9909977621
 40
0.99269943
 40
0.994224795
 40
0.9955731197
 40
0.9967436733
 40
0.997735813
 40
0.998548958
 40
0.9991825287
 40
0.9994317926
 40
0.9996359457
 40
0.9997949154
 40
0.9999086293
 40
0.999977015
 40
1.0
 40
1.0
 40
1.0
 40
1.0
 10
5.8670563546
 20
2.7049333615
 30
0.0
 10
5.8670563458
 20
2.7100667876
 30
0.0
 10
5.8666208441
 20
2.7202905507
 30
0.0
 10
5.8647151738
 20
2.7353985848
 30
0.0
 10
5.8617117763
 20
2.7500510652
 30
0.0
 10
5.8578195867
 20
2.7640943372
 30
0.0
 10
5.8532644208
 20
2.777428016
 30
0.0
 10
5.848263531
 20
2.7899856026
 30
0.0
 10
5.8430164782
 20
2.8017160787
 30
0.0
 10
5.8377050545
 20
2.8125690643
 30
0.0
 10
5.8332696588
 20
2.8210147511
 30
0.0
 10
5.8298278167
 20
2.8272931256
 30
0.0
 10
5.8273896094
 20
2.8316320142
 30
0.0
 10
5.8250544667
 20
2.8356970089
 30
0.0
 10
5.8228412174
 20
2.8394754678
 30
0.0
 10
5.8207682961
 20
2.8429539861
 30
0.0
 10
5.8188540666
 20
2.8461187852
 30
0.0
 10
5.8171158327
 20
2.8489553391
 30
0.0
 10
5.8157827716
 20
2.8511061729
 30
0.0
 10
5.8148173191
 20
2.8526524302
 30
0.0
 10
5.8141742777
 20
2.8536780477
 30
0.0
 10
5.8135869802
 20
2.8546114646
 30
0.0
 10
5.8130569055
 20
2.8554510178
 30
0.0
 10
5.8125855182
 20
2.8561951206
 30
0.0
 10
5.8121741239
 20
2.8568423882
 30
0.0
 10
5.8118692428
 20
2.85732068
 30
0.0
 10
5.8116562724
 20
2.857654241
 30
0.0
 10
5.811520043
 20
2.8578674579
 30
0.0
 10
5.8113995998
 20
2.8580559067
 30
0.0
 10
5.8112950676
 20
2.8582195285
 30
0.0
 10
5.811206511
 20
2.8583582369
 30
0.0
 10
5.8111339803
 20
2.8584719433
 30
0.0
 10
5.8110835424
 20
2.858551019
 30
0.0
 10
5.8110512732
 20
2.8586017297
 30
0.0
 10
5.8110330185
 20
2.8586302648
 30
0.0
 10
5.8110190231
 20
2.8586525872
 30
0.0
 10
5.8110085273
 20
2.8586683271
 30
0.0
 10
5.8110030989
 20
2.858678206
 30
0.0
 10
5.810999711
 20
2.8586821533
 30
0.0
 10
5.8109993159
 20
2.8586833615
 30
0.0
  0
SPLINE
  5
384
100
AcDbEntity
  8
0
100
AcDbSpline
 62
7
  6
CONTINUOUS
 70
0
 71
3
 72
39
 73
35
 74
0
 42
0.0000001
 43
0.0000001
 44
0.0000000001
 40
0.0
 40
0.0
 40
0.0
 40
0.0
 40
0.0036091001
 40
0.0073092539
 40
0.0111849573
 40
0.0153094092
 40
0.0197430222
 40
0.0245340287
 40
0.0297197229
 40
0.0353286485
 40
0.0413826851
 40
0.0478982307
 40
0.0548871768
 40
0.0623583172
 40
0.0703179796
 40
0.0787699863
 40
0.0971569828
 40
0.1175232673
 40
0.1398532782
 40
0.1641187941
 40
0.1902813846
 40
0.2182935736
 40
0.2481011378
 40
0.279642616
 40
0.3128512876
 40
0.347654774
 40
0.3839758885
 40
0.4608395422
 40
0.5427435479
 40
0.6289320979
 40
0.7186032766
 40
0.8109191678
 40
0.9050118095
 40
1.0
 40
1.0
 40
1.0
 40
1.0
 10
4.155499354
 20
6.1070907577
 30
0.0
 10
4.155499354
 20
6.1074396022
 30
0.0
 10
4.1555574649
 20
6.1081473699
 30
0.0
 10
4.1558172558
 20
6.1092010067
 30
0.0
 10
4.1562483967
 20
6.1102505843
 30
0.0
 10
4.1568489391
 20
6.1112950769
 30
0.0
 10
4.1576174734
 20
6.1123345297
 30
0.0
 10
4.1585530794
 20
6.1133689502
 30
0.0
 10
4.1596549688
 20
6.1143984115
 30
0.0
 10
4.1609225045
 20
6.1154227956
 30
0.0
 10
4.1623551031
 20
6.1164417711
 30
0.0
 10
4.1639520589
 20
6.1174549176
 30
0.0
 10
4.1657125062
 20
6.11846181
 30
0.0
 10
4.1676355246
 20
6.119461896
 30
0.0
 10
4.169720082
 20
6.1204546032
 30
0.0
 10
4.1728007565
 20
6.1218058264
 30
0.0
 10
4.1770550112
 20
6.1234608522
 30
0.0
 10
4.1826477926
 20
6.1253572891
 30
0.0
 10
4.1888501852
 20
6.1272112564
 30
0.0
 10
4.195647629
 20
6.1290181406
 30
0.0
 10
4.2030242341
 20
6.1307733405
 30
0.0
 10
4.2109624945
 20
6.1324725487
 30
0.0
 10
4.2194434845
 20
6.1341114344
 30
0.0
 10
4.2284469197
 20
6.1356860293
 30
0.0
 10
4.2379512043
 20
6.1371923706
 30
0.0
 10
4.2479335266
 20
6.1386268251
 30
0.0
 10
4.2621182271
 20
6.1404737564
 30
0.0
 10
4.2808608514
 20
6.1425610847
 30
0.0
 10
4.3044435144
 20
6.1446858024
 30
0.0
 10
4.3292967293
 20
6.1464536881
 30
0.0
 10
4.3551814547
 20
6.1478472699
 30
0.0
 10
4.3818486354
 20
6.1488526329
 30
0.0
 10
4.4090417826
 20
6.1494598811
 30
0.0
 10
4.4273180496
 20
6.1495950482
 30
0.0
 10
4.4364993159
 20
6.1495950482
 30
0.0
  0
SPLINE
  5
385
100
AcDbEntity
  8
0
100
AcDbSpline
 62
7
  6
CONTINUOUS
 70
0
 71
3
 72
144
 73
140
 74
0
 42
0.0000001
 43
0.0000001
 44
0.0000000001
 40
0.0
 40
0.0
 40
0.0
 40
0.0
 40
0.0000009573
 40
0.0000036638
 40
0.0000081191
 40
0.0000143226
 40
0.0000319712
 40
0.0000566036
 40
0.0000882138
 40
0.0001267957
 40
0.0001723435
 40
0.000224851
 40
0.0003507214
 40
0.0005043588
 40
0.0006857151
 40
0.0008947423
 40
0.0011313923
 40
0.0013956169
 40
0.0020065235
 40
0.0027267204
 40
0.0035553989
 40
0.0044917502
 40
0.0055349657
 40
0.006684147
 40
0.0079379438
 40
0.0092948641
 40
0.0107534159
 40
0.0139694371
 40
0.0175735479
 40
0.021552493
 40
0.0258928904
 40
0.0305804761
 40
0.0356003045
 40
0.0409374612
 40
0.0465774921
 40
0.0525061971
 40
0.0651736055
 40
0.0788319202
 40
0.0933797261
 40
0.108725484
 40
0.1247856887
 40
0.1414852015
 40
0.1587567786
 40
0.1765404262
 40
0.2134348989
 40
0.2324548068
 40
0.2518044143
 40
0.2714484656
 40
0.2913566446
 40
0.3115015203
 40
0.3318580991
 40
0.3421090797
 40
0.3524047446
 40
0.3627427791
 40
0.3731213302
 40
0.3835375491
 40
0.3939893898
 40
0.4044757593
 40
0.4149936277
 40
0.4202641949
 40
0.4255425013
 40
0.4361186817
 40
0.4467194916
 40
0.4573443344
 40
0.4679889005
 40
0.4733183562
 40
0.4786505745
 40
0.4839851266
 40
0.4893221537
 40
0.4946610558
 40
0.5000009503
 40
0.5053408736
 40
0.5106798452
 40
0.5160169436
 40
0.5213514532
 40
0.5266835079
 40
0.5320128841
 40
0.5426576704
 40
0.5532824526
 40
0.5638832042
 40
0.5744591043
 40
0.5797373977
 40
0.5850079862
 40
0.5955257457
 40
0.6060120557
 40
0.6268790458
 40
0.637257648
 40
0.6475956863
 40
0.6578913013
 40
0.6681422265
 40
0.6884987145
 40
0.708643512
 40
0.7285516617
 40
0.7481956893
 40
0.7675452623
 40
0.7865651348
 40
0.8234595611
 40
0.8412432079
 40
0.8585147906
 40
0.8752143077
 40
0.8912745124
 40
0.9066202658
 40
0.9211680728
 40
0.9348264061
 40
0.9474938144
 40
0.9534225014
 40
0.9590625125
 40
0.9643996592
 40
0.9694194922
 40
0.9741070903
 40
0.9784475
 40
0.982426453
 40
0.9860305673
 40
0.9892465877
 40
0.9907051381
 40
0.9920620569
 40
0.9933158526
 40
0.9944650336
 40
0.9955082498
 40
0.9964446026
 40
0.9972732826
 40
0.9979934808
 40
0.998604388
 40
0.9988686124
 40
0.999105262
 40
0.9993142885
 40
0.9994956441
 40
0.9996492807
 40
0.9997751504
 40
0.9998276576
 40
0.999873205
 40
0.9999117867
 40
0.9999433966
 40
0.9999680288
 40
0.9999856773
 40
0.9999918808
 40
0.9999963362
 40
0.9999990427
 40
1.0
 40
1.0
 40
1.0
 40
1.0
 10
4.9114993159
 20
3.2049333615
 30
0.0
 10
4.9114992164
 20
3.2049329866
 30
0.0
 10
4.9114979717
 20
3.2049319819
 30
0.0
 10
4.9114961421
 20
3.2049293262
 30
0.0
 10
4.9114924894
 20
3.2049252639
 30
0.0
 10
4.911485162
 20
3.204916474
 30
0.0
 10
4.9114723482
 20
3.2049015553
 30
0.0
 10
4.9114529351
 20
3.204878774
 30
0.0
 10
4.9114279434
 20
3.2048495846
 30
0.0
 10
4.9113974416
 20
3.204813963
 30
0.0
 10
4.9113614083
 20
3.2047719276
 30
0.0
 10
4.9113023367
 20
3.2047030564
 30
0.0
 10
4.9112147059
 20
3.204600979
 30
0.0
 10
4.9110930092
 20
3.2044593374
 30
0.0
 10
4.910949294
 20
3.2042921899
 30
0.0
 10
4.910783588
 20
3.2040995898
 30
0.0
 10
4.9105959187
 20
3.2038815907
 30
0.0
 10
4.9103019133
 20
3.2035402632
 30
0.0
 10
4.9098798451
 20
3.203050647
 30
0.0
 10
4.9093083444
 20
3.2023878804
 30
0.0
 10
4.9086507613
 20
3.2016252166
 30
0.0
 10
4.9079078627
 20
3.2007632921
 30
0.0
 10
4.9070804374
 20
3.199802773
 30
0.0
 10
4.9061694221
 20
3.1987444878
 30
0.0
 10
4.9051757716
 20
3.1975896146
 30
0.0
 10
4.9041005917
 20
3.1963395189
 30
0.0
 10
4.9025072046
 20
3.1944864046
 30
0.0
 10
4.9003204462
 20
3.1919426174
 30
0.0
 10
4.8974684014
 20
3.1886239962
 30
0.0
 10
4.8943206726
 20
3.1849587608
 30
0.0
 10
4.8908888169
 20
3.1809588332
 30
0.0
 10
4.8871844982
 20
3.1766369475
 30
0.0
 10
4.8832195541
 20
3.1720065068
 30
0.0
 10
4.8790058771
 20
3.1670809692
 30
0.0
 10
4.8745556141
 20
3.1618731776
 30
0.0
 10
4.8681805032
 20
3.1544032766
 30
0.0
 10
4.8597073043
 20
3.1444526054
 30
0.0
 10
4.8489903745
 20
3.131825468
 30
0.0
 10
4.8375957509
 20
3.1183500909
 30
0.0
 10
4.8256033396
 20
3.1041056985
 30
0.0
 10
4.8130867316
 20
3.0891629817
 30
0.0
 10
4.8001138003
 20
3.0735846712
 30
0.0
 10
4.7867481682
 20
3.0574247329
 30
0.0
 10
4.7682548548
 20
3.034886945
 30
0.0
 10
4.7494720613
 20
3.0116703739
 30
0.0
 10
4.730512822
 20
2.9877826936
 30
0.0
 10
4.7160419344
 20
2.9692573866
 30
0.0
 10
4.7015194203
 20
2.9503167498
 30
0.0
 10
4.6870196469
 20
2.9309543024
 30
0.0
 10
4.6726138313
 20
2.9111632762
 30
0.0
 10
4.6608015603
 20
2.8943275225
 30
0.0
 10
4.6515013976
 20
2.8806084307
 30
0.0
 10
4.6446083977
 20
2.8701629895
 30
0.0
 10
4.637835874
 20
2.8595775249
 30
0.0
 10
4.6312046912
 20
2.8488453156
 30
0.0
 10
4.6247491682
 20
2.8379526226
 30
0.0
 10
4.6185072524
 20
2.8268856341
 30
0.0
 10
4.6125171547
 20
2.8156333384
 30
0.0
 10
4.6077818495
 20
2.8060958322
 30
0.0
 10
4.604172346
 20
2.7983598788
 30
0.0
 10
4.6006865796
 20
2.7905415479
 30
0.0
 10
4.5965976377
 20
2.7806289842
 30
0.0
 10
4.59221375
 20
2.7685063811
 30
0.0
 10
4.5884407384
 20
2.7561498925
 30
0.0
 10
4.5858737484
 20
2.7456750854
 30
0.0
 10
4.5842107677
 20
2.7372022041
 30
0.0
 10
4.583171974
 20
2.7308030446
 30
0.0
 10
4.5823558275
 20
2.7243684974
 30
0.0
 10
4.5817742778
 20
2.7179057434
 30
0.0
 10
4.5814257681
 20
2.7114241191
 30
0.0
 10
4.5813100082
 20
2.7049329949
 30
0.0
 10
4.5814263173
 20
2.6984418539
 30
0.0
 10
4.5817751059
 20
2.6919601811
 30
0.0
 10
4.58235632
 20
2.6854973658
 30
0.0
 10
4.5831718293
 20
2.6790627852
 30
0.0
 10
4.5842112129
 20
2.6726638273
 30
0.0
 10
4.5858753096
 20
2.6641911769
 30
0.0
 10
4.5884422253
 20
2.65371638
 30
0.0
 10
4.5922123423
 20
2.6413589724
 30
0.0
 10
4.5965955644
 20
2.6292362371
 30
0.0
 10
4.6006863555
 20
2.6193245659
 30
0.0
 10
4.6041739252
 20
2.6115071612
 30
0.0
 10
4.607784759
 20
2.6037718836
 30
0.0
 10
4.6125203045
 20
2.5942345415
 30
0.0
 10
4.6204926596
 20
2.5792563434
 30
0.0
 10
4.6289786846
 20
2.5646229064
 30
0.0
 10
4.6378345748
 20
2.5502877779
 30
0.0
 10
4.6446071255
 20
2.5397022183
 30
0.0
 10
4.6515003813
 20
2.5292570219
 30
0.0
 10
4.6608012363
 20
2.5155384858
 30
0.0
 10
4.6726138639
 20
2.4987031049
 30
0.0
 10
4.6870196448
 20
2.4789121523
 30
0.0
 10
4.7015194042
 20
2.4595497612
 30
0.0
 10
4.7160418892
 20
2.4406091465
 30
0.0
 10
4.7305128173
 20
2.4220839191
 30
0.0
 10
4.7494720871
 20
2.3981963232
 30
0.0
 10
4.7682548838
 20
2.3749797982
 30
0.0
 10
4.7867481772
 20
2.3524420155
 30
0.0
 10
4.8001138059
 20
2.3362820698
 30
0.0
 10
4.8130867343
 20
2.3207037516
 30
0.0
 10
4.8256033395
 20
2.3057610326
 30
0.0
 10
4.8375957553
 20
2.2915166457
 30
0.0
 10
4.848990388
 20
2.2780412683
 30
0.0
 10
4.8597072918
 20
2.2654140984
 30
0.0
 10
4.8681804796
 20
2.2554634174
 30
0.0
 10
4.8745556107
 20
2.2479935539
 30
0.0
 10
4.8790058852
 20
2.2427857976
 30
0.0
 10
4.8832195687
 20
2.2378602789
 30
0.0
 10
4.8871845085
 20
2.233229831
 30
0.0
 10
4.8908888206
 20
2.2289079239
 30
0.0
 10
4.8943206714
 20
2.2249079747
 30
0.0
 10
4.8974683993
 20
2.2212427258
 30
0.0
 10
4.900320444
 20
2.217924099
 30
0.0
 10
4.9025072036
 20
2.2153803122
 30
0.0
 10
4.9041005915
 20
2.2135272004
 30
0.0
 10
4.9051757716
 20
2.2122771071
 30
0.0
 10
4.9061694223
 20
2.2111222356
 30
0.0
 10
4.9070804379
 20
2.2100639509
 30
0.0
 10
4.9079078631
 20
2.2091034308
 30
0.0
 10
4.9086507616
 20
2.2082415043
 30
0.0
 10
4.9093083446
 20
2.207478838
 30
0.0
 10
4.909879845
 20
2.2068160693
 30
0.0
 10
4.9103019131
 20
2.206326452
 30
0.0
 10
4.9105959184
 20
2.2059851246
 30
0.0
 10
4.9107835876
 20
2.205767126
 30
0.0
 10
4.9109492935
 20
2.2055745268
 30
0.0
 10
4.9110930086
 20
2.2054073804
 30
0.0
 10
4.9112147052
 20
2.20526574
 30
0.0
 10
4.911302336
 20
2.2051636635
 30
0.0
 10
4.9113614077
 20
2.2050947931
 30
0.0
 10
4.911397441
 20
2.2050527582
 30
0.0
 10
4.9114279429
 20
2.2050171371
 30
0.0
 10
4.9114529346
 20
2.2049879481
 30
0.0
 10
4.9114723478
 20
2.2049651671
 30
0.0
 10
4.9114851616
 20
2.2049502486
 30
0.0
 10
4.9114924893
 20
2.2049414589
 30
0.0
 10
4.9114961417
 20
2.2049373967
 30
0.0
 10
4.9114979719
 20
2.204934741
 30
0.0
 10
4.9114992161
 20
2.2049337363
 30
0.0
 10
4.9114993159
 20
2.2049333615
 30
0.0
  0
LINE
  5
386
100
AcDbEntity
  8
0
100
AcDbLine
 62
7
  6
CONTINUOUS
 10
4.3894821651
 20
4.9964921773
 11
4.3900348227
 21
4.9966752672
  0
LINE
  5
387
100
AcDbEntity
  8
0
100
AcDbLine
 62
7
  6
CONTINUOUS
 10
4.4452458778
 20
4.9974090396
 11
4.4467211346
 21
4.9976715383
  0
LINE
  5
388
100
AcDbEntity
  8
0
100
AcDbLine
 62
7
  6
CONTINUOUS
 10
4.4471391088
 20
4.9977674202
 11
4.4486147093
 21
4.9982944094
  0
SPLINE
  5
389
100
AcDbEntity
  8
0
100
AcDbSpline
 62
7
  6
CONTINUOUS
 70
0
 71
3
 72
18
 73
14
 74
0
 42
0.0000001
 43
0.0000001
 44
0.0000000001
 40
0.0
 40
0.0
 40
0.0
 40
0.0
 40
0.1931070142
 40
0.3710690619
 40
0.5309966059
 40
0.6706198648
 40
0.7880069249
 40
0.8379352778
 40
0.8818750493
 40
0.9198205501
 40
0.9518919062
 40
0.9783905835
 40
1.0
 40
1.0
 40
1.0
 40
1.0
 10
4.5001534161
 20
4.9956745109
 30
0.0
 10
4.5006124088
 20
4.9957089825
 30
0.0
 10
4.5014936916
 20
4.9957853212
 30
0.0
 10
4.5027513866
 20
4.9959286845
 30
0.0
 10
4.5038777294
 20
4.9960943604
 30
0.0
 10
4.5048544458
 20
4.996279402
 30
0.0
 10
4.5055654217
 20
4.9964547789
 30
0.0
 10
4.5060456746
 20
4.996606733
 30
0.0
 10
4.5063399419
 20
4.9967173813
 30
0.0
 10
4.5065872143
 20
4.9968304302
 30
0.0
 10
4.5067869718
 20
4.9969455806
 30
0.0
 10
4.5069388974
 20
4.9970625651
 30
0.0
 10
4.5070148993
 20
4.9971504326
 30
0.0
 10
4.5070417122
 20
4.9971944111
 30
0.0
  0
SPLINE
  5
38A
100
AcDbEntity
  8
0
100
AcDbSpline
 62
7
  6
CONTINUOUS
 70
0
 71
3
 72
18
 73
14
 74
0
 42
0.0000001
 43
0.0000001
 44
0.0000000001
 40
0.0
 40
0.0
 40
0.0
 40
0.0
 40
0.1807371081
 40
0.3527999098
 40
0.511891417
 40
0.6541770038
 40
0.7762651362
 40
0.8288674598
 40
0.87546727
 40
0.9158809407
 40
0.9500255785
 40
0.9779558497
 40
1.0
 40
1.0
 40
1.0
 40
1.0
 10
4.5488300475
 20
4.9914583788
 30
0.0
 10
4.5494778684
 20
4.9914728573
 30
0.0
 10
4.5507421451
 20
4.9915163705
 30
0.0
 10
4.5525742413
 20
4.9916274567
 30
0.0
 10
4.5542650541
 20
4.9917802428
 30
0.0
 10
4.5557716301
 20
4.9919705101
 30
0.0
 10
4.556892198
 20
4.992163761
 30
0.0
 10
4.5576662789
 20
4.99233843
 30
0.0
 10
4.5581497467
 20
4.9924688357
 30
0.0
 10
4.5585627268
 20
4.9926042423
 30
0.0
 10
4.5589032034
 20
4.9927438404
 30
0.0
 10
4.5591693955
 20
4.992886603
 30
0.0
 10
4.5593134641
 20
4.9929959263
 30
0.0
 10
4.55936869
 20
4.9930524625
 30
0.0
  0
SPLINE
  5
38B
100
AcDbEntity
  8
0
100
AcDbSpline
 62
7
  6
CONTINUOUS
 70
0
 71
3
 72
14
 73
10
 74
0
 42
0.0000001
 43
0.0000001
 44
0.0000000001
 40
0.0
 40
0.0
 40
0.0
 40
0.0
 40
0.3061359315
 40
0.4503614492
 40
0.5856831827
 40
0.7100384892
 40
0.8215545525
 40
0.9186619985
 40
1.0
 40
1.0
 40
1.0
 40
1.0
 10
4.5898430476
 20
4.9851563521
 30
0.0
 10
4.5908659475
 20
4.9851718859
 30
0.0
 10
4.5923706234
 20
4.985222478
 30
0.0
 10
4.5943236689
 20
4.9853515982
 30
0.0
 10
4.5956681014
 20
4.9854727624
 30
0.0
 10
4.5969001581
 20
4.9856180442
 30
0.0
 10
4.5980005804
 20
4.985784912
 30
0.0
 10
4.5989518923
 20
4.9859705012
 30
0.0
 10
4.5995304185
 20
4.9861176014
 30
0.0
 10
4.5997904285
 20
4.9861968126
 30
0.0
  0
SPLINE
  5
38C
100
AcDbEntity
  8
0
100
AcDbSpline
 62
7
  6
CONTINUOUS
 70
0
 71
3
 72
39
 73
35
 74
0
 42
0.0000001
 43
0.0000001
 44
0.0000000001
 40
0.0
 40
0.0
 40
0.0
 40
0.0
 40
0.0036111231
 40
0.0073101765
 40
0.0111791037
 40
0.0152897085
 40
0.0197020217
 40
0.0244646912
 40
0.0296164633
 40
0.0351879883
 40
0.0412035204
 40
0.0476823472
 40
0.0546399232
 40
0.0620887432
 40
0.0784947881
 40
0.0969293972
 40
0.1173715635
 40
0.1397856725
 40
0.1641271551
 40
0.1903454808
 40
0.218386025
 40
0.2481912768
 40
0.2797016472
 40
0.3128560257
 40
0.3475921736
 40
0.3838470097
 40
0.4606525976
 40
0.501042836
 40
0.5426198518
 40
0.6289052456
 40
0.7186501532
 40
0.8109911803
 40
0.9050630461
 40
1.0
 40
1.0
 40
1.0
 40
1.0
 10
4.7213718476
 20
6.1070907577
 30
0.0
 10
4.7213718476
 20
6.1074446518
 30
0.0
 10
4.7213139674
 20
6.1081623102
 30
0.0
 10
4.7210551501
 20
6.109230996
 30
0.0
 10
4.7206254001
 20
6.1102957817
 30
0.0
 10
4.7200261918
 20
6.1113555468
 30
0.0
 10
4.7192585744
 20
6.1124102358
 30
0.0
 10
4.7183230965
 20
6.1134598439
 30
0.0
 10
4.7172199412
 20
6.1145043459
 30
0.0
 10
4.7159490874
 20
6.1155435587
 30
0.0
 10
4.7145104237
 20
6.1165771624
 30
0.0
 10
4.7129038108
 20
6.1176047129
 30
0.0
 10
4.7111291236
 20
6.1186257326
 30
0.0
 10
4.7084513599
 20
6.1200229346
 30
0.0
 10
4.7046729306
 20
6.121733649
 30
0.0
 10
4.6996189292
 20
6.1236909023
 30
0.0
 10
4.693925624
 20
6.1256105153
 30
0.0
 10
4.6876122123
 20
6.1274878482
 30
0.0
 10
4.6806979933
 20
6.129318442
 30
0.0
 10
4.6732026594
 20
6.1310978223
 30
0.0
 10
4.6651460259
 20
6.1328215836
 30
0.0
 10
4.6565480209
 20
6.1344853585
 30
0.0
 10
4.6474286329
 20
6.1360848175
 30
0.0
 10
4.6378078989
 20
6.1376156572
 30
0.0
 10
4.6277058649
 20
6.1390736019
 30
0.0
 10
4.613343475
 20
6.1409509852
 30
0.0
 10
4.5983959857
 20
6.1426163964
 30
0.0
 10
4.582906043
 20
6.1440921485
 30
0.0
 10
4.5664762557
 20
6.1454907314
 30
0.0
 10
4.5452024391
 20
6.146996021
 30
0.0
 10
4.5189385555
 20
6.1484078585
 30
0.0
 10
4.4918931052
 20
6.1494330391
 30
0.0
 10
4.464326617
 20
6.1500584833
 30
0.0
 10
4.4458032426
 20
6.1502000915
 30
0.0
 10
4.4364993159
 20
6.1502000915
 30
0.0
  0
SPLINE
  5
38D
100
AcDbEntity
  8
0
100
AcDbSpline
 62
7
  6
CONTINUOUS
 70
0
 71
3
 72
39
 73
35
 74
0
 42
0.0000001
 43
0.0000001
 44
0.0000000001
 40
0.0
 40
0.0
 40
0.0
 40
0.0
 40
0.0036111231
 40
0.0073101765
 40
0.0111791037
 40
0.0152897085
 40
0.0197020217
 40
0.0244646912
 40
0.0296164633
 40
0.0351879883
 40
0.0412035204
 40
0.0476823472
 40
0.0546399232
 40
0.0620887432
 40
0.0784947881
 40
0.0969293972
 40
0.1173715635
 40
0.1397856725
 40
0.1641271551
 40
0.1903454808
 40
0.218386025
 40
0.2481912768
 40
0.2797016472
 40
0.3128560257
 40
0.3475921736
 40
0.3838470097
 40
0.4606525976
 40
0.501042836
 40
0.5426198518
 40
0.6289052456
 40
0.7186501532
 40
0.8109911803
 40
0.9050630461
 40
1.0
 40
1.0
 40
1.0
 40
1.0
 10
4.7213718476
 20
6.2924333615
 30
0.0
 10
4.7213718476
 20
6.2927872555
 30
0.0
 10
4.7213139674
 20
6.293504914
 30
0.0
 10
4.7210551501
 20
6.2945735998
 30
0.0
 10
4.7206254001
 20
6.2956383854
 30
0.0
 10
4.7200261918
 20
6.2966981505
 30
0.0
 10
4.7192585744
 20
6.2977528395
 30
0.0
 10
4.7183230965
 20
6.2988024477
 30
0.0
 10
4.7172199412
 20
6.2998469497
 30
0.0
 10
4.7159490874
 20
6.3008861625
 30
0.0
 10
4.7145104237
 20
6.3019197661
 30
0.0
 10
4.7129038108
 20
6.3029473166
 30
0.0
 10
4.7111291236
 20
6.3039683364
 30
0.0
 10
4.7084513599
 20
6.3053655383
 30
0.0
 10
4.7046729306
 20
6.3070762528
 30
0.0
 10
4.6996189292
 20
6.3090335061
 30
0.0
 10
4.693925624
 20
6.3109531191
 30
0.0
 10
4.6876122123
 20
6.312830452
 30
0.0
 10
4.6806979933
 20
6.3146610457
 30
0.0
 10
4.6732026594
 20
6.316440426
 30
0.0
 10
4.6651460259
 20
6.3181641874
 30
0.0
 10
4.6565480209
 20
6.3198279623
 30
0.0
 10
4.6474286329
 20
6.3214274213
 30
0.0
 10
4.6378078989
 20
6.322958261
 30
0.0
 10
4.6277058649
 20
6.3244162056
 30
0.0
 10
4.613343475
 20
6.326293589
 30
0.0
 10
4.5983959857
 20
6.3279590002
 30
0.0
 10
4.582906043
 20
6.3294347523
 30
0.0
 10
4.5664762557
 20
6.3308333352
 30
0.0
 10
4.5452024391
 20
6.3323386247
 30
0.0
 10
4.5189385555
 20
6.3337504623
 30
0.0
 10
4.4918931052
 20
6.3347756428
 30
0.0
 10
4.464326617
 20
6.335401087
 30
0.0
 10
4.4458032426
 20
6.3355426952
 30
0.0
 10
4.4364993159
 20
6.3355426952
 30
0.0
  0
LINE
  5
38E
100
AcDbEntity
  8
0
100
AcDbLine
 62
7
  6
CONTINUOUS
 10
4.4831831476
 20
4.9965962989
 11
4.4835164667
 21
4.9964921773
  0
LINE
  5
38F
100
AcDbEntity
  8
0
100
AcDbLine
 62
7
  6
CONTINUOUS
 10
4.6395791136
 20
4.9571640543
 11
4.6403530911
 21
4.9579939559
  0
SPLINE
  5
390
100
AcDbEntity
  8
0
100
AcDbSpline
 62
7
  6
CONTINUOUS
 70
0
 71
3
 72
45
 73
41
 74
0
 42
0.0000001
 43
0.0000001
 44
0.0000000001
 40
0.0
 40
0.0
 40
0.0
 40
0.0
 40
0.0933392307
 40
0.1857418311
 40
0.2763855816
 40
0.3645831474
 40
0.449763995
 40
0.5314070051
 40
0.6089808067
 40
0.6818975809
 40
0.7494831473
 40
0.7810385551
 40
0.8109621062
 40
0.839139934
 40
0.8654539332
 40
0.8897816036
 40
0.9119980505
 40
0.931977073
 40
0.9495940704
 40
0.9574808753
 40
0.9647346004
 40
0.9713418704
 40
0.977290265
 40
0.9825674368
 40
0.9871615348
 40
0.9910644001
 40
0.992754581
 40
0.9942695079
 40
0.9956083662
 40
0.9967703663
 40
0.9977549331
 40
0.9985616017
 40
0.9991899077
 40
0.9994370295
 40
0.9996393863
 40
0.99979692
 40
0.9999095723
 40
0.9999490497
 40
0.999977285
 40
1.0
 40
1.0
 40
1.0
 40
1.0
 10
5.8632749858
 20
2.7049333615
 30
0.0
 10
5.8632749765
 20
2.709966883
 30
0.0
 10
5.8628178019
 20
2.7199892373
 30
0.0
 10
5.8608220108
 20
2.7347771268
 30
0.0
 10
5.8576895129
 20
2.7490802118
 30
0.0
 10
5.8536500203
 20
2.7627440378
 30
0.0
 10
5.8489461071
 20
2.7756748934
 30
0.0
 10
5.84380587
 20
2.7878161135
 30
0.0
 10
5.8384347641
 20
2.7991270913
 30
0.0
 10
5.8330170775
 20
2.8095673076
 30
0.0
 10
5.8285059123
 20
2.8176767166
 30
0.0
 10
5.8250123413
 20
2.8236966214
 30
0.0
 10
5.8225411216
 20
2.8278524075
 30
0.0
 10
5.8201769723
 20
2.8317427325
 30
0.0
 10
5.8179387699
 20
2.8353562772
 30
0.0
 10
5.8158444448
 20
2.8386806365
 30
0.0
 10
5.8139118391
 20
2.8417030006
 30
0.0
 10
5.8121582865
 20
2.8444102339
 30
0.0
 10
5.810815005
 20
2.84646247
 30
0.0
 10
5.809842545
 20
2.8479372318
 30
0.0
 10
5.8091948874
 20
2.848914982
 30
0.0
 10
5.8086032405
 20
2.8498044449
 30
0.0
 10
5.8080693268
 20
2.8506042917
 30
0.0
 10
5.8075947829
 20
2.851313238
 30
0.0
 10
5.8071811973
 20
2.8519302462
 30
0.0
 10
5.8068750338
 20
2.8523863873
 30
0.0
 10
5.8066611872
 20
2.8527045044
 30
0.0
 10
5.8065243693
 20
2.852907795
 30
0.0
 10
5.8064033364
 20
2.8530873758
 30
0.0
 10
5.8062981526
 20
2.8532431482
 30
0.0
 10
5.8062089045
 20
2.8533750511
 30
0.0
 10
5.806135688
 20
2.8534830524
 30
0.0
 10
5.8060847095
 20
2.8535580816
 30
0.0
 10
5.8060520201
 20
2.8536061419
 30
0.0
 10
5.8060335728
 20
2.8536331783
 30
0.0
 10
5.8060192616
 20
2.8536542764
 30
0.0
 10
5.8060097476
 20
2.8536679736
 30
0.0
 10
5.8060043885
 20
2.8536761288
 30
0.0
 10
5.8060014039
 20
2.8536799312
 30
0.0
 10
5.8060002966
 20
2.8536826275
 30
0.0
 10
5.8059993159
 20
2.8536833615
 30
0.0
  0
SPLINE
  5
391
100
AcDbEntity
  8
0
100
AcDbSpline
 62
7
  6
CONTINUOUS
 70
0
 71
3
 72
44
 73
40
 74
0
 42
0.0000001
 43
0.0000001
 44
0.0000000001
 40
0.0
 40
0.0
 40
0.0
 40
0.0
 40
0.0000226607
 40
0.0000903272
 40
0.0002029408
 40
0.000360443
 40
0.0005627753
 40
0.0008098792
 40
0.0014381679
 40
0.0022448415
 40
0.0032294332
 40
0.0043914754
 40
0.0057303892
 40
0.007245374
 40
0.008935603
 40
0.0128384854
 40
0.0174324141
 40
0.0227092357
 40
0.0286572756
 40
0.0352643756
 40
0.0425182829
 40
0.0504055467
 40
0.0680233386
 40
0.0880020346
 40
0.1102179391
 40
0.1345457023
 40
0.1608600044
 40
0.1890379395
 40
0.2189615001
 40
0.2505169159
 40
0.3181025024
 40
0.3910192743
 40
0.4685930743
 40
0.5502360932
 40
0.6354169581
 40
0.7236145403
 40
0.8142582926
 40
0.9066608909
 40
1.0
 40
1.0
 40
1.0
 40
1.0
 10
5.8059993159
 20
2.5561833615
 30
0.0
 10
5.8060002558
 20
2.5561841424
 30
0.0
 10
5.8060024077
 20
2.5561887097
 30
0.0
 10
5.8060091594
 20
2.5561972182
 30
0.0
 10
5.8060190986
 20
2.5562125644
 30
0.0
 10
5.8060335943
 20
2.5562334837
 30
0.0
 10
5.8060519609
 20
2.5562605884
 30
0.0
 10
5.8060846777
 20
2.5563086175
 30
0.0
 10
5.8061356261
 20
2.5563836709
 30
0.0
 10
5.8062088489
 20
2.5564916663
 30
0.0
 10
5.8062980949
 20
2.5566235761
 30
0.0
 10
5.8064032883
 20
2.5567793497
 30
0.0
 10
5.8065243351
 20
2.5569589314
 30
0.0
 10
5.806661169
 20
2.5571622217
 30
0.0
 10
5.8068750332
 20
2.5574803349
 30
0.0
 10
5.8071811989
 20
2.5579364678
 30
0.0
 10
5.8075947319
 20
2.5585534788
 30
0.0
 10
5.8080691619
 20
2.5592624446
 30
0.0
 10
5.8086029639
 20
2.5600623091
 30
0.0
 10
5.8091945567
 20
2.5609517857
 30
0.0
 10
5.8098422804
 20
2.5619295226
 30
0.0
 10
5.8108149488
 20
2.5634042397
 30
0.0
 10
5.8121584599
 20
2.5654563858
 30
0.0
 10
5.8139118402
 20
2.5681637267
 30
0.0
 10
5.8158442433
 20
2.57118617
 30
0.0
 10
5.8179386309
 20
2.5745104801
 30
0.0
 10
5.8201769476
 20
2.5781239862
 30
0.0
 10
5.8225411303
 20
2.5820143176
 30
0.0
 10
5.8250123491
 20
2.5861701122
 30
0.0
 10
5.8285059235
 20
2.5921900174
 30
0.0
 10
5.8330170879
 20
2.6002994286
 30
0.0
 10
5.8384347667
 20
2.61073965
 30
0.0
 10
5.8438058689
 20
2.6220506299
 30
0.0
 10
5.8489461176
 20
2.6341918465
 30
0.0
 10
5.8536500467
 20
2.6471226987
 30
0.0
 10
5.8576895396
 20
2.6607865282
 30
0.0
 10
5.8608220055
 20
2.6750896192
 30
0.0
 10
5.8628178574
 20
2.6898774953
 30
0.0
 10
5.8632749784
 20
2.6998998465
 30
0.0
 10
5.8632749858
 20
2.7049333615
 30
0.0
  0
LINE
  5
392
100
AcDbEntity
  8
0
100
AcDbLine
 62
7
  6
CONTINUOUS
 10
4.425087946
 20
4.9411140403
 11
4.4254212718
 21
4.9410099164
  0
LINE
  5
393
100
AcDbEntity
  8
0
100
AcDbLine
 62
7
  6
CONTINUOUS
 10
4.4243839225
 20
4.9982944094
 11
4.425859523
 21
4.9977674202
  0
LINE
  5
394
100
AcDbEntity
  8
0
100
AcDbLine
 62
7
  6
CONTINUOUS
 10
4.4262774972
 20
4.9976715383
 11
4.427752754
 21
4.9974090396
  0
SPLINE
  5
395
100
AcDbEntity
  8
0
100
AcDbSpline
 62
7
  6
CONTINUOUS
 70
0
 71
3
 72
25
 73
21
 74
0
 42
0.0000001
 43
0.0000001
 44
0.0000000001
 40
0.0
 40
0.0
 40
0.0
 40
0.0
 40
0.0621371989
 40
0.0932197502
 40
0.1243074611
 40
0.1864858542
 40
0.2487038307
 40
0.2798406247
 40
0.310991173
 40
0.373318625
 40
0.4357117125
 40
0.4981743984
 40
0.5607079686
 40
0.6233109726
 40
0.6859793615
 40
0.7487063787
 40
0.8114837223
 40
0.874299204
 40
0.9371439627
 40
1.0
 40
1.0
 40
1.0
 40
1.0
 10
4.5349992805
 20
5.5523668677
 30
0.0
 10
4.5349992805
 20
5.5491817426
 30
0.0
 10
4.5347615206
 20
5.5443988992
 30
0.0
 10
4.5339722662
 20
5.5380741506
 30
0.0
 10
4.5328698365
 20
5.5317937199
 30
0.0
 10
4.5309086643
 20
5.5240544478
 30
0.0
 10
4.5281900076
 20
5.5165449841
 30
0.0
 10
4.5255775005
 20
5.5107196117
 30
0.0
 10
4.5226780102
 20
5.5050253809
 30
0.0
 10
4.5185277756
 20
5.4981814305
 30
0.0
 10
4.5127598541
 20
5.490494753
 30
0.0
 10
4.5062573909
 20
5.4834037118
 30
0.0
 10
4.4990833298
 20
5.4769770829
 30
0.0
 10
4.4913067258
 20
5.4712765568
 30
0.0
 10
4.4830025115
 20
5.4663570332
 30
0.0
 10
4.4742506358
 20
5.4622657612
 30
0.0
 10
4.4651354678
 20
5.4590422094
 30
0.0
 10
4.4557443758
 20
5.4567171499
 30
0.0
 10
4.4461690278
 20
5.4553132428
 30
0.0
 10
4.4397212883
 20
5.4550002198
 30
0.0
 10
4.4364993159
 20
5.4550002198
 30
0.0
  0
SPLINE
  5
396
100
AcDbEntity
  8
0
100
AcDbSpline
 62
7
  6
CONTINUOUS
 70
0
 71
3
 72
25
 73
21
 74
0
 42
0.0000001
 43
0.0000001
 44
0.0000000001
 40
0.0
 40
0.0
 40
0.0
 40
0.0
 40
0.0621371989
 40
0.0932197502
 40
0.1243074611
 40
0.1864858542
 40
0.2487038307
 40
0.2798406247
 40
0.310991173
 40
0.373318625
 40
0.4357117125
 40
0.4981743984
 40
0.5607079686
 40
0.6233109726
 40
0.6859793615
 40
0.7487063787
 40
0.8114837223
 40
0.874299204
 40
0.9371439627
 40
1.0
 40
1.0
 40
1.0
 40
1.0
 10
4.3379993513
 20
5.5523668677
 30
0.0
 10
4.3379993513
 20
5.5491817426
 30
0.0
 10
4.3382371112
 20
5.5443988992
 30
0.0
 10
4.3390263656
 20
5.5380741506
 30
0.0
 10
4.3401287953
 20
5.5317937199
 30
0.0
 10
4.3420899675
 20
5.5240544478
 30
0.0
 10
4.3448086242
 20
5.5165449841
 30
0.0
 10
4.3474211313
 20
5.5107196117
 30
0.0
 10
4.3503206216
 20
5.5050253809
 30
0.0
 10
4.3544708562
 20
5.4981814305
 30
0.0
 10
4.3602387777
 20
5.490494753
 30
0.0
 10
4.3667412409
 20
5.4834037118
 30
0.0
 10
4.373915302
 20
5.4769770829
 30
0.0
 10
4.381691906
 20
5.4712765568
 30
0.0
 10
4.3899961203
 20
5.4663570332
 30
0.0
 10
4.398747996
 20
5.4622657612
 30
0.0
 10
4.407863164
 20
5.4590422094
 30
0.0
 10
4.417254256
 20
5.4567171499
 30
0.0
 10
4.426829604
 20
5.4553132428
 30
0.0
 10
4.4332773435
 20
5.4550002198
 30
0.0
 10
4.4364993159
 20
5.4550002198
 30
0.0
  0
SPLINE
  5
397
100
AcDbEntity
  8
0
100
AcDbSpline
 62
7
  6
CONTINUOUS
 70
0
 71
3
 72
23
 73
19
 74
0
 42
0.0000001
 43
0.0000001
 44
0.0000000001
 40
0.0
 40
0.0
 40
0.0
 40
0.0
 40
0.0621456069
 40
0.1243326131
 40
0.1865661683
 40
0.2488502626
 40
0.3111877742
 40
0.3735803319
 40
0.4360281807
 40
0.4985302899
 40
0.5610844638
 40
0.6236871999
 40
0.6863336324
 40
0.7490187549
 40
0.8117354975
 40
0.8744743175
 40
0.9372381999
 40
1.0
 40
1.0
 40
1.0
 40
1.0
 10
4.3437467255
 20
5.5022030203
 30
0.0
 10
4.3445946014
 20
5.499858227
 30
0.0
 10
4.3464734858
 20
5.4952308146
 30
0.0
 10
4.349819893
 20
5.4885272421
 30
0.0
 10
4.3536764722
 20
5.4820966024
 30
0.0
 10
4.3580202357
 20
5.4759772496
 30
0.0
 10
4.3628256143
 20
5.4702049812
 30
0.0
 10
4.3680643694
 20
5.4648138268
 30
0.0
 10
4.3737057094
 20
5.4598355307
 30
0.0
 10
4.3797163503
 20
5.4552992745
 30
0.0
 10
4.3860609456
 20
5.4512317277
 30
0.0
 10
4.3927022284
 20
5.4476569196
 30
0.0
 10
4.3996010766
 20
5.4445957512
 30
0.0
 10
4.4067169277
 20
5.4420662145
 30
0.0
 10
4.4140078239
 20
5.4400832775
 30
0.0
 10
4.4214313232
 20
5.4386583717
 30
0.0
 10
4.4289428391
 20
5.4378003039
 30
0.0
 10
4.4339812122
 20
5.4376091042
 30
0.0
 10
4.4364993159
 20
5.4376091042
 30
0.0
  0
SPLINE
  5
398
100
AcDbEntity
  8
0
100
AcDbSpline
 62
7
  6
CONTINUOUS
 70
0
 71
3
 72
39
 73
35
 74
0
 42
0.0000001
 43
0.0000001
 44
0.0000000001
 40
0.0
 40
0.0
 40
0.0
 40
0.0
 40
0.0949369539
 40
0.1890088197
 40
0.2813498468
 40
0.3710947544
 40
0.4573801482
 40
0.498957164
 40
0.5393474024
 40
0.6161529903
 40
0.6524078264
 40
0.6871439743
 40
0.7202983528
 40
0.7518087232
 40
0.781613975
 40
0.8096545192
 40
0.8358728449
 40
0.8602143275
 40
0.8826284365
 40
0.9030706028
 40
0.9215052119
 40
0.9379112568
 40
0.9453600768
 40
0.9523176528
 40
0.9587964796
 40
0.9648120117
 40
0.9703835367
 40
0.9755353088
 40
0.9802979783
 40
0.9847102915
 40
0.9888208963
 40
0.9926898235
 40
0.9963888769
 40
1.0
 40
1.0
 40
1.0
 40
1.0
 10
4.4364993159
 20
6.3355426952
 30
0.0
 10
4.4271953892
 20
6.3355426952
 30
0.0
 10
4.4086720148
 20
6.335401087
 30
0.0
 10
4.3811055266
 20
6.3347756428
 30
0.0
 10
4.3540600763
 20
6.3337504623
 30
0.0
 10
4.3277961927
 20
6.3323386247
 30
0.0
 10
4.3065223761
 20
6.3308333352
 30
0.0
 10
4.2900925888
 20
6.3294347523
 30
0.0
 10
4.2746026461
 20
6.3279590002
 30
0.0
 10
4.2596551568
 20
6.326293589
 30
0.0
 10
4.2452927669
 20
6.3244162056
 30
0.0
 10
4.2351907329
 20
6.322958261
 30
0.0
 10
4.2255699989
 20
6.3214274213
 30
0.0
 10
4.2164506109
 20
6.3198279623
 30
0.0
 10
4.2078526059
 20
6.3181641874
 30
0.0
 10
4.1997959724
 20
6.316440426
 30
0.0
 10
4.1923006385
 20
6.3146610457
 30
0.0
 10
4.1853864195
 20
6.312830452
 30
0.0
 10
4.1790730078
 20
6.3109531191
 30
0.0
 10
4.1733797026
 20
6.3090335061
 30
0.0
 10
4.1683257012
 20
6.3070762528
 30
0.0
 10
4.1645472719
 20
6.3053655383
 30
0.0
 10
4.1618695082
 20
6.3039683364
 30
0.0
 10
4.160094821
 20
6.3029473166
 30
0.0
 10
4.1584882081
 20
6.3019197661
 30
0.0
 10
4.1570495444
 20
6.3008861625
 30
0.0
 10
4.1557786906
 20
6.2998469497
 30
0.0
 10
4.1546755353
 20
6.2988024477
 30
0.0
 10
4.1537400574
 20
6.2977528395
 30
0.0
 10
4.15297244
 20
6.2966981505
 30
0.0
 10
4.1523732317
 20
6.2956383854
 30
0.0
 10
4.1519434817
 20
6.2945735998
 30
0.0
 10
4.1516846645
 20
6.293504914
 30
0.0
 10
4.1516267842
 20
6.2927872555
 30
0.0
 10
4.1516267842
 20
6.2924333615
 30
0.0
  0
LINE
  5
399
100
AcDbEntity
  8
0
100
AcDbLine
 62
7
  6
CONTINUOUS
 10
4.4824791156
 20
4.9428121497
 11
4.4839546896
 21
4.9422851663
  0
LINE
  5
39A
100
AcDbEntity
  8
0
100
AcDbLine
 62
7
  6
CONTINUOUS
 10
4.4843726672
 20
4.9421892828
 11
4.485847949
 21
4.9419267787
  0
LINE
  5
39B
100
AcDbEntity
  8
0
100
AcDbLine
 62
7
  6
CONTINUOUS
 10
4.5345557409
 20
4.9471431421
 11
4.5353945728
 21
4.9466154459
  0
SPLINE
  5
39C
100
AcDbEntity
  8
0
100
AcDbSpline
 62
7
  6
CONTINUOUS
 70
0
 71
3
 72
12
 73
8
 74
0
 42
0.0000001
 43
0.0000001
 44
0.0000000001
 40
0.0
 40
0.0
 40
0.0
 40
0.0
 40
0.0844973254
 40
0.1815329649
 40
0.4117357565
 40
0.6864048657
 40
1.0
 40
1.0
 40
1.0
 40
1.0
 10
4.5353945728
 20
4.9466154459
 30
0.0
 10
4.5355215325
 20
4.9465673608
 30
0.0
 10
4.5357982786
 20
4.9464745366
 30
0.0
 10
4.5364359075
 20
4.9462975898
 30
0.0
 10
4.5373831734
 20
4.9460985631
 30
0.0
 10
4.5386828422
 20
4.9458961043
 30
0.0
 10
4.5396220679
 20
4.9457880932
 30
0.0
 10
4.5401234314
 20
4.9457381105
 30
0.0
  0
SPLINE
  5
39D
100
AcDbEntity
  8
0
100
AcDbSpline
 62
7
  6
CONTINUOUS
 70
0
 71
3
 72
39
 73
35
 74
0
 42
0.0000001
 43
0.0000001
 44
0.0000000001
 40
0.0
 40
0.0
 40
0.0
 40
0.0
 40
0.0314289649
 40
0.0628529397
 40
0.0942616799
 40
0.1256516126
 40
0.1570162996
 40
0.1883516969
 40
0.2196544035
 40
0.2509223934
 40
0.2821549356
 40
0.3133526668
 40
0.3445175703
 40
0.375652902
 40
0.4067630666
 40
0.4378534478
 40
0.4689301984
 40
0.5
 40
0.5310698016
 40
0.5621465522
 40
0.5932369334
 40
0.624347098
 40
0.6554824297
 40
0.6866473332
 40
0.7178450644
 40
0.7490776066
 40
0.7803455965
 40
0.8116483031
 40
0.8429837004
 40
0.8743483874
 40
0.9057383201
 40
0.9371470603
 40
0.9685710351
 40
1.0
 40
1.0
 40
1.0
 40
1.0
 10
4.4364993159
 20
5.6390093696
 30
0.0
 10
4.4337254242
 20
5.6390093696
 30
0.0
 10
4.4281743183
 20
5.638739859
 30
0.0
 10
4.4199305505
 20
5.6375312146
 30
0.0
 10
4.4118454016
 20
5.6355294464
 30
0.0
 10
4.4039978263
 20
5.6327541977
 30
0.0
 10
4.3964630118
 20
5.6292318698
 30
0.0
 10
4.3893136023
 20
5.6249964827
 30
0.0
 10
4.3826184345
 20
5.620088702
 30
0.0
 10
4.3764420096
 20
5.6145557602
 30
0.0
 10
4.3708438517
 20
5.6084508851
 30
0.0
 10
4.3658779097
 20
5.60183285
 30
0.0
 10
4.3615920517
 20
5.5947653755
 30
0.0
 10
4.3580276012
 20
5.5873165229
 30
0.0
 10
4.3552189358
 20
5.5795580389
 30
0.0
 10
4.3531931522
 20
5.5715646657
 30
0.0
 10
4.3519698018
 20
5.563413421
 30
0.0
 10
4.3515606984
 20
5.5551828542
 30
0.0
 10
4.3519698018
 20
5.5469522873
 30
0.0
 10
4.3531931522
 20
5.5388010426
 30
0.0
 10
4.3552189358
 20
5.5308076695
 30
0.0
 10
4.3580276012
 20
5.5230491854
 30
0.0
 10
4.3615920517
 20
5.5156003328
 30
0.0
 10
4.3658779097
 20
5.5085328584
 30
0.0
 10
4.3708438517
 20
5.5019148232
 30
0.0
 10
4.3764420096
 20
5.4958099482
 30
0.0
 10
4.3826184345
 20
5.4902770063
 30
0.0
 10
4.3893136023
 20
5.4853692256
 30
0.0
 10
4.3964630118
 20
5.4811338385
 30
0.0
 10
4.4039978263
 20
5.4776115106
 30
0.0
 10
4.4118454016
 20
5.4748362619
 30
0.0
 10
4.4199305505
 20
5.4728344937
 30
0.0
 10
4.4281743183
 20
5.4716258493
 30
0.0
 10
4.4337254242
 20
5.4713563387
 30
0.0
 10
4.4364993159
 20
5.4713563387
 30
0.0
  0
LINE
  5
39E
100
AcDbEntity
  8
0
100
AcDbLine
 62
7
  6
CONTINUOUS
 10
4.6223538941
 20
4.9751836072
 11
4.6166790128
 21
4.9768682869
  0
LINE
  5
39F
100
AcDbEntity
  8
0
100
AcDbLine
 62
7
  6
CONTINUOUS
 10
4.256319619
 20
4.9768682869
 11
4.2506447377
 21
4.9751836072
  0
SPLINE
  5
3A0
100
AcDbEntity
  8
0
100
AcDbSpline
 62
7
  6
CONTINUOUS
 70
0
 71
3
 72
25
 73
21
 74
0
 42
0.0000001
 43
0.0000001
 44
0.0000000001
 40
0.0
 40
0.0
 40
0.0
 40
0.0
 40
0.0628560373
 40
0.125700796
 40
0.1885162776
 40
0.2512936213
 40
0.3140206385
 40
0.3766890274
 40
0.4392920314
 40
0.5018256016
 40
0.5642882875
 40
0.626681375
 40
0.689008827
 40
0.7201593753
 40
0.7512961693
 40
0.8135141458
 40
0.8756925389
 40
0.9067802498
 40
0.9378628011
 40
1.0
 40
1.0
 40
1.0
 40
1.0
 10
4.4364993159
 20
5.4376091042
 30
0.0
 10
4.4397212883
 20
5.4376091042
 30
0.0
 10
4.4461690278
 20
5.4379221271
 30
0.0
 10
4.4557443758
 20
5.4393260342
 30
0.0
 10
4.4651354678
 20
5.4416510938
 30
0.0
 10
4.4742506358
 20
5.4448746455
 30
0.0
 10
4.4830025115
 20
5.4489659176
 30
0.0
 10
4.4913067258
 20
5.4538854412
 30
0.0
 10
4.4990833298
 20
5.4595859673
 30
0.0
 10
4.5062573909
 20
5.4660125961
 30
0.0
 10
4.5127598541
 20
5.4731036374
 30
0.0
 10
4.5185277756
 20
5.4807903149
 30
0.0
 10
4.5226780102
 20
5.4876342653
 30
0.0
 10
4.5255775005
 20
5.4933284961
 30
0.0
 10
4.5281900076
 20
5.4991538685
 30
0.0
 10
4.5309086643
 20
5.5066633322
 30
0.0
 10
4.5328698365
 20
5.5144026043
 30
0.0
 10
4.5339722662
 20
5.5206830349
 30
0.0
 10
4.5347615206
 20
5.5270077836
 30
0.0
 10
4.5349992805
 20
5.5317906269
 30
0.0
 10
4.5349992805
 20
5.534975752
 30
0.0
  0
SPLINE
  5
3A1
100
AcDbEntity
  8
0
100
AcDbSpline
 62
7
  6
CONTINUOUS
 70
0
 71
3
 72
39
 73
35
 74
0
 42
0.0000001
 43
0.0000001
 44
0.0000000001
 40
0.0
 40
0.0
 40
0.0
 40
0.0
 40
0.0314289649
 40
0.0628529397
 40
0.0942616799
 40
0.1256516126
 40
0.1570162996
 40
0.1883516969
 40
0.2196544035
 40
0.2509223934
 40
0.2821549356
 40
0.3133526668
 40
0.3445175703
 40
0.375652902
 40
0.4067630666
 40
0.4378534478
 40
0.4689301984
 40
0.5
 40
0.5310698016
 40
0.5621465522
 40
0.5932369334
 40
0.624347098
 40
0.6554824297
 40
0.6866473332
 40
0.7178450644
 40
0.7490776066
 40
0.7803455965
 40
0.8116483031
 40
0.8429837004
 40
0.8743483874
 40
0.9057383201
 40
0.9371470603
 40
0.9685710351
 40
1.0
 40
1.0
 40
1.0
 40
1.0
 10
4.4364993159
 20
5.6390093696
 30
0.0
 10
4.4392732076
 20
5.6390093696
 30
0.0
 10
4.4448243135
 20
5.638739859
 30
0.0
 10
4.4530680813
 20
5.6375312146
 30
0.0
 10
4.4611532303
 20
5.6355294464
 30
0.0
 10
4.4690008055
 20
5.6327541977
 30
0.0
 10
4.47653562
 20
5.6292318698
 30
0.0
 10
4.4836850295
 20
5.6249964827
 30
0.0
 10
4.4903801973
 20
5.620088702
 30
0.0
 10
4.4965566222
 20
5.6145557602
 30
0.0
 10
4.5021547801
 20
5.6084508851
 30
0.0
 10
4.5071207221
 20
5.60183285
 30
0.0
 10
4.5114065801
 20
5.5947653755
 30
0.0
 10
4.5149710306
 20
5.5873165229
 30
0.0
 10
4.517779696
 20
5.5795580389
 30
0.0
 10
4.5198054796
 20
5.5715646657
 30
0.0
 10
4.52102883
 20
5.563413421
 30
0.0
 10
4.5214379334
 20
5.5551828542
 30
0.0
 10
4.52102883
 20
5.5469522873
 30
0.0
 10
4.5198054796
 20
5.5388010426
 30
0.0
 10
4.517779696
 20
5.5308076695
 30
0.0
 10
4.5149710306
 20
5.5230491854
 30
0.0
 10
4.5114065801
 20
5.5156003328
 30
0.0
 10
4.5071207221
 20
5.5085328584
 30
0.0
 10
4.5021547801
 20
5.5019148232
 30
0.0
 10
4.4965566222
 20
5.4958099482
 30
0.0
 10
4.4903801973
 20
5.4902770063
 30
0.0
 10
4.4836850295
 20
5.4853692256
 30
0.0
 10
4.47653562
 20
5.4811338385
 30
0.0
 10
4.4690008055
 20
5.4776115106
 30
0.0
 10
4.4611532303
 20
5.4748362619
 30
0.0
 10
4.4530680813
 20
5.4728344937
 30
0.0
 10
4.4448243135
 20
5.4716258493
 30
0.0
 10
4.4392732076
 20
5.4713563387
 30
0.0
 10
4.4364993159
 20
5.4713563387
 30
0.0
  0
LINE
  5
3A2
100
AcDbEntity
  8
0
100
AcDbLine
 62
7
  6
CONTINUOUS
 10
4.6403530911
 20
4.9658472238
 11
4.6383976603
 21
4.9677147056
  0
LINE
  5
3A3
100
AcDbEntity
  8
0
100
AcDbLine
 62
7
  6
CONTINUOUS
 10
4.2346009715
 20
4.9677147056
 11
4.2326455407
 21
4.9658472238
  0
LINE
  5
3A4
100
AcDbEntity
  8
0
100
AcDbLine
 62
7
  6
CONTINUOUS
 10
4.5889830308
 20
4.9573103181
 11
4.5909384616
 21
4.9591778
  0
LINE
  5
3A5
100
AcDbEntity
  8
0
100
AcDbLine
 62
7
  6
CONTINUOUS
 10
4.2820601702
 20
4.9591778
 11
4.284015601
 21
4.9573103181
  0
LINE
  5
3A6
100
AcDbEntity
  8
0
100
AcDbLine
 62
7
  6
CONTINUOUS
 10
4.2326455407
 20
4.9579939559
 11
4.2334195182
 21
4.9571640543
  0
LINE
  5
3A7
100
AcDbEntity
  8
0
100
AcDbLine
 62
7
  6
CONTINUOUS
 10
4.5721014316
 20
4.950408542
 11
4.5777763128
 21
4.9520932218
  0
LINE
  5
3A8
100
AcDbEntity
  8
0
100
AcDbLine
 62
7
  6
CONTINUOUS
 10
4.295222319
 20
4.9520932218
 11
4.3008972002
 21
4.950408542
  0
LINE
  5
3A9
100
AcDbEntity
  8
0
100
AcDbLine
 62
7
  6
CONTINUOUS
 10
4.3659569196
 20
4.9971944111
 11
4.3667957829
 21
4.9966667043
  0
SPLINE
  5
3AA
100
AcDbEntity
  8
0
100
AcDbSpline
 62
7
  6
CONTINUOUS
 70
0
 71
3
 72
13
 73
9
 74
0
 42
0.0000001
 43
0.0000001
 44
0.0000000001
 40
0.0
 40
0.0
 40
0.0
 40
0.0
 40
0.0807535546
 40
0.1756169288
 40
0.2840910774
 40
0.405420658
 40
0.6830448258
 40
1.0
 40
1.0
 40
1.0
 40
1.0
 10
4.3667957829
 20
4.9966667043
 30
0.0
 10
4.3669504864
 20
4.9966081126
 30
0.0
 10
4.3672928397
 20
4.9964963065
 30
0.0
 10
4.3678559791
 20
4.9963486633
 30
0.0
 10
4.3685064355
 20
4.996208988
 30
0.0
 10
4.3695299833
 20
4.9960267251
 30
0.0
 10
4.3709844912
 20
4.9958338342
 30
0.0
 10
4.3721977426
 20
4.9957231379
 30
0.0
 10
4.3728452157
 20
4.9956745109
 30
0.0
  0
SPLINE
  5
3AB
100
AcDbEntity
  8
0
100
AcDbSpline
 62
7
  6
CONTINUOUS
 70
0
 71
3
 72
17
 73
13
 74
0
 42
0.0000001
 43
0.0000001
 44
0.0000000001
 40
0.0
 40
0.0
 40
0.0
 40
0.0
 40
0.194135314
 40
0.3714911827
 40
0.530108249
 40
0.6682658512
 40
0.7845686248
 40
0.8782008254
 40
0.9165155896
 40
0.9493184676
 40
0.9769299594
 40
1.0
 40
1.0
 40
1.0
 40
1.0
 10
4.3328752004
 20
4.9457381105
 30
0.0
 10
4.3332502981
 20
4.9457755053
 30
0.0
 10
4.3339672957
 20
4.9458552958
 30
0.0
 10
4.3349868953
 20
4.9459976202
 30
0.0
 10
4.3358940397
 20
4.9461557744
 30
0.0
 10
4.3366779382
 20
4.9463273928
 30
0.0
 10
4.3373289906
 20
4.9465102635
 30
0.0
 10
4.3377818571
 20
4.9466788194
 30
0.0
 10
4.338067972
 20
4.9468226347
 30
0.0
 10
4.338230694
 20
4.9469247708
 30
0.0
 10
4.3383560676
 20
4.9470283483
 30
0.0
 10
4.3384195721
 20
4.9471048944
 30
0.0
 10
4.3384428909
 20
4.9471431421
 30
0.0
  0
SPLINE
  5
3AC
100
AcDbEntity
  8
0
100
AcDbSpline
 62
7
  6
CONTINUOUS
 70
0
 71
3
 72
9
 73
5
 74
0
 42
0.0000001
 43
0.0000001
 44
0.0000000001
 40
0.0
 40
0.0
 40
0.0
 40
0.0
 40
0.5216611931
 40
1.0
 40
1.0
 40
1.0
 40
1.0
 10
4.2994992131
 20
4.9951898881
 30
0.0
 10
4.2947181352
 20
4.9945872252
 30
0.0
 10
4.2855652312
 20
4.9933319259
 30
0.0
 10
4.2764481721
 20
4.9918346891
 30
0.0
 10
4.2721004965
 20
4.9910455358
 30
0.0
  0
SPLINE
  5
3AD
100
AcDbEntity
  8
0
100
AcDbSpline
 62
7
  6
CONTINUOUS
 70
0
 71
3
 72
14
 73
10
 74
0
 42
0.0000001
 43
0.0000001
 44
0.0000000001
 40
0.0
 40
0.0
 40
0.0
 40
0.0
 40
0.0813380015
 40
0.1784454475
 40
0.2899615108
 40
0.4143168173
 40
0.5496385508
 40
0.6938640685
 40
1.0
 40
1.0
 40
1.0
 40
1.0
 10
4.2732082033
 20
4.9861968126
 30
0.0
 10
4.2734682133
 20
4.9861176014
 30
0.0
 10
4.2740467395
 20
4.9859705012
 30
0.0
 10
4.2749980514
 20
4.985784912
 30
0.0
 10
4.2760984738
 20
4.9856180442
 30
0.0
 10
4.2773305304
 20
4.9854727624
 30
0.0
 10
4.2786749629
 20
4.9853515982
 30
0.0
 10
4.2806280084
 20
4.985222478
 30
0.0
 10
4.2821326843
 20
4.9851718859
 30
0.0
 10
4.2831555842
 20
4.9851563521
 30
0.0
  0
SPLINE
  5
3AE
100
AcDbEntity
  8
0
100
AcDbSpline
 62
7
  6
CONTINUOUS
 70
0
 71
3
 72
18
 73
14
 74
0
 42
0.0000001
 43
0.0000001
 44
0.0000000001
 40
0.0
 40
0.0
 40
0.0
 40
0.0
 40
0.0220441503
 40
0.0499744215
 40
0.0841190593
 40
0.12453273
 40
0.1711325402
 40
0.2237348638
 40
0.3458229962
 40
0.488108583
 40
0.6472000902
 40
0.8192628919
 40
1.0
 40
1.0
 40
1.0
 40
1.0
 10
4.3136299418
 20
4.9930524625
 30
0.0
 10
4.3136851677
 20
4.9929959263
 30
0.0
 10
4.3138292363
 20
4.992886603
 30
0.0
 10
4.3140954284
 20
4.9927438404
 30
0.0
 10
4.314435905
 20
4.9926042423
 30
0.0
 10
4.3148488851
 20
4.9924688357
 30
0.0
 10
4.3153323529
 20
4.99233843
 30
0.0
 10
4.3161064338
 20
4.992163761
 30
0.0
 10
4.3172270017
 20
4.9919705101
 30
0.0
 10
4.3187335777
 20
4.9917802428
 30
0.0
 10
4.3204243905
 20
4.9916274567
 30
0.0
 10
4.3222564867
 20
4.9915163705
 30
0.0
 10
4.3235207634
 20
4.9914728573
 30
0.0
 10
4.3241685843
 20
4.9914583788
 30
0.0
  0
LINE
  5
3AF
100
AcDbEntity
  8
0
100
AcDbLine
 62
7
  6
CONTINUOUS
 10
4.3871506828
 20
4.9419267787
 11
4.3886259646
 21
4.9421892828
  0
LINE
  5
3B0
100
AcDbEntity
  8
0
100
AcDbLine
 62
7
  6
CONTINUOUS
 10
4.3890439422
 20
4.9422851663
 11
4.3905195162
 21
4.9428121497
  0
LINE
  5
3B1
100
AcDbEntity
  8
0
100
AcDbLine
 62
7
  6
CONTINUOUS
 10
4.44757736
 20
4.9410099164
 11
4.4481300177
 21
4.9411930064
  0
ELLIPSE
  5
3B2
100
AcDbEntity
  8
0
100
AcDbEllipse
 62
7
  6
CONTINUOUS
 10
4.4364993159
 20
4.9579191829
 30
0.0
 11
0.1552053493
 21
-0.0201473899
 31
0.0
 40
0.474907773
 41
0.258853807
 42
0.3435651275
  0
ELLIPSE
  5
3B3
100
AcDbEntity
  8
0
100
AcDbEllipse
 62
7
  6
CONTINUOUS
 10
4.4364993159
 20
4.9579191829
 30
0.0
 11
0.1527400974
 21
0.0381527728
 31
0.0
 40
0.7644786049
 41
2.7069432621
 42
2.7556226393
  0
ELLIPSE
  5
3B4
100
AcDbEntity
  8
0
100
AcDbEllipse
 62
7
  6
CONTINUOUS
 10
4.3344607439
 20
5.071523919
 30
0.0
 11
0.2780673526
 21
-0.1367000485
 31
0.0
 40
0.400608112
 41
-1.7243496147
 42
-1.6765756426
  0
ELLIPSE
  5
3B5
100
AcDbEntity
  8
0
100
AcDbEllipse
 62
7
  6
CONTINUOUS
 10
4.4364993159
 20
4.9579191829
 30
0.0
 11
0.1476090399
 21
0.0781993839
 31
0.0
 40
0.6254045512
 41
2.251972384
 42
2.3102099534
  0
ELLIPSE
  5
3B6
100
AcDbEntity
  8
0
100
AcDbEllipse
 62
7
  6
CONTINUOUS
 10
4.277570514
 20
5.0777760084
 30
0.0
 11
0.3060327977
 21
-0.1743251988
 31
0.0
 40
0.2229739838
 41
-1.4621927447
 42
-1.4144187726
  0
ELLIPSE
  5
3B7
100
AcDbEntity
  8
0
100
AcDbEllipse
 62
7
  6
CONTINUOUS
 10
4.4364993159
 20
4.9579191829
 30
0.0
 11
0.1490736958
 21
0.0942070627
 31
0.0
 40
0.4696165267
 41
8.2309035246
 42
8.3106815228
  0
ELLIPSE
  5
3B8
100
AcDbEntity
  8
0
100
AcDbEllipse
 62
7
  6
CONTINUOUS
 10
4.2362373425
 20
5.0863812712
 30
0.0
 11
0.3312434189
 21
-0.1995166648
 31
0.0
 40
0.0855355287
 41
-1.2562766852
 42
-1.2085027131
  0
ELLIPSE
  5
3B9
100
AcDbEntity
  8
0
100
AcDbEllipse
 62
7
  6
CONTINUOUS
 10
4.4364993159
 20
4.9579191829
 30
0.0
 11
0.1520897922
 21
0.1010713739
 31
0.0
 40
0.3204410998
 41
1.7073048605
 42
1.792016181
  0
ELLIPSE
  5
3BA
100
AcDbEntity
  8
0
100
AcDbEllipse
 62
7
  6
CONTINUOUS
 10
4.4364993159
 20
4.9579191829
 30
0.0
 11
0.1554584671
 21
-0.0984867217
 31
0.0
 40
0.0364896329
 41
1.7911926689
 42
1.8759039894
  0
ELLIPSE
  5
3BB
100
AcDbEntity
  8
0
100
AcDbEllipse
 62
7
  6
CONTINUOUS
 10
4.4364993159
 20
4.9579191829
 30
0.0
 11
0.154441083
 21
0.1022144226
 31
0.0
 40
0.177238619
 41
1.4861918926
 42
1.570903213
  0
ELLIPSE
  5
3BC
100
AcDbEntity
  8
0
100
AcDbEllipse
 62
7
  6
CONTINUOUS
 10
4.4364993159
 20
4.9579191829
 30
0.0
 11
0.154441083
 21
-0.1022144226
 31
0.0
 40
0.177238619
 41
1.5706894406
 42
1.655400761
  0
ELLIPSE
  5
3BD
100
AcDbEntity
  8
0
100
AcDbEllipse
 62
7
  6
CONTINUOUS
 10
4.4364993159
 20
4.9579191829
 30
0.0
 11
0.1554584671
 21
0.0984867217
 31
0.0
 40
0.0364896329
 41
1.2656886642
 42
1.3503999847
  0
ELLIPSE
  5
3BE
100
AcDbEntity
  8
0
100
AcDbEllipse
 62
7
  6
CONTINUOUS
 10
4.4364993159
 20
4.9579191829
 30
0.0
 11
0.1520897922
 21
-0.1010713739
 31
0.0
 40
0.3204410998
 41
1.3495764726
 42
1.4342877931
  0
ELLIPSE
  5
3BF
100
AcDbEntity
  8
0
100
AcDbEllipse
 62
7
  6
CONTINUOUS
 10
4.6367612893
 20
5.0863812712
 30
0.0
 11
0.3312434189
 21
0.1995166648
 31
0.0
 40
0.0855355287
 41
-1.9330899405
 42
-1.8853159684
  0
ELLIPSE
  5
3C0
100
AcDbEntity
  8
0
100
AcDbEllipse
 62
7
  6
CONTINUOUS
 10
4.4364993159
 20
4.9579191829
 30
0.0
 11
0.1490736958
 21
-0.0942070627
 31
0.0
 40
0.4696165267
 41
7.3972817451
 42
7.4770597433
  0
ELLIPSE
  5
3C1
100
AcDbEntity
  8
0
100
AcDbEllipse
 62
7
  6
CONTINUOUS
 10
4.5954281178
 20
5.0777760084
 30
0.0
 11
0.3060327977
 21
0.1743251988
 31
0.0
 40
0.2229739838
 41
-1.727173881
 42
-1.6793999089
  0
ELLIPSE
  5
3C2
100
AcDbEntity
  8
0
100
AcDbEllipse
 62
7
  6
CONTINUOUS
 10
4.4364993159
 20
4.9579191829
 30
0.0
 11
0.1476090399
 21
-0.0781993839
 31
0.0
 40
0.6254045512
 41
0.8313827002
 42
0.8896202696
  0
ELLIPSE
  5
3C3
100
AcDbEntity
  8
0
100
AcDbEllipse
 62
7
  6
CONTINUOUS
 10
4.5385378879
 20
5.071523919
 30
0.0
 11
0.2780673526
 21
0.1367000485
 31
0.0
 40
0.400608112
 41
-1.465017011
 42
-1.4172430389
  0
ELLIPSE
  5
3C4
100
AcDbEntity
  8
0
100
AcDbEllipse
 62
7
  6
CONTINUOUS
 10
4.4364993159
 20
4.9579191829
 30
0.0
 11
0.1527400974
 21
-0.0381527728
 31
0.0
 40
0.7644786049
 41
0.3859700143
 42
0.4346493915
  0
ELLIPSE
  5
3C5
100
AcDbEntity
  8
0
100
AcDbEllipse
 62
7
  6
CONTINUOUS
 10
4.4716594116
 20
5.068237001
 30
0.0
 11
0.2639514758
 21
0.064190678
 31
0.0
 40
0.5981924693
 41
-1.0305441771
 42
-0.982770205
  0
ELLIPSE
  5
3C6
100
AcDbEntity
  8
0
100
AcDbEllipse
 62
7
  6
CONTINUOUS
 10
4.5385378879
 20
5.1321074997
 30
0.0
 11
0.2512550434
 21
0.2272586745
 31
0.0
 40
0.5769452805
 41
-1.7515328715
 42
-1.7136656554
  0
ELLIPSE
  5
3C7
100
AcDbEntity
  8
0
100
AcDbEllipse
 62
7
  6
CONTINUOUS
 10
4.4364993159
 20
4.9579191829
 30
0.0
 11
0.1541678658
 21
-0.0533236968
 31
0.0
 40
0.3808919632
 41
0.6424315011
 42
0.7271428215
  0
ELLIPSE
  5
3C8
100
AcDbEntity
  8
0
100
AcDbEllipse
 62
7
  6
CONTINUOUS
 10
4.5954281178
 20
5.1258554103
 30
0.0
 11
0.2945730228
 21
0.2339247142
 31
0.0
 40
0.3916518469
 41
-1.9023705699
 42
-1.8611476661
  0
ELLIPSE
  5
3C9
100
AcDbEntity
  8
0
100
AcDbEllipse
 62
7
  6
CONTINUOUS
 10
4.4364993159
 20
4.9579191829
 30
0.0
 11
0.1543793624
 21
-0.0755061509
 31
0.0
 40
0.2468008202
 41
0.9457297314
 42
1.0304410518
  0
ELLIPSE
  5
3CA
100
AcDbEntity
  8
0
100
AcDbEllipse
 62
7
  6
CONTINUOUS
 10
4.6367612893
 20
5.1172501474
 30
0.0
 11
0.3264151636
 21
0.2346957394
 31
0.0
 40
0.2508682184
 41
-2.0600729705
 42
-2.0122989984
  0
ELLIPSE
  5
3CB
100
AcDbEntity
  8
0
100
AcDbEllipse
 62
7
  6
CONTINUOUS
 10
4.4364993159
 20
4.9579191829
 30
0.0
 11
0.1552146655
 21
-0.0898539117
 31
0.0
 40
0.1047902948
 41
1.2003501317
 42
1.2850614522
  0
ELLIPSE
  5
3CC
100
AcDbEntity
  8
0
100
AcDbEllipse
 62
7
  6
CONTINUOUS
 10
4.6584914235
 20
5.1071340542
 30
0.0
 11
0.3438470535
 21
0.2290817503
 31
0.0
 40
0.1351315396
 41
-2.2216129982
 42
-2.1738390261
  0
ELLIPSE
  5
3CD
100
AcDbEntity
  8
0
100
AcDbEllipse
 62
7
  6
CONTINUOUS
 10
4.2145072083
 20
5.0964973644
 30
0.0
 11
0.3451833695
 21
-0.2173599675
 31
0.0
 40
0.0281814881
 41
-0.7996071634
 42
-0.7518331913
  0
ELLIPSE
  5
3CE
100
AcDbEntity
  8
0
100
AcDbEllipse
 62
7
  6
CONTINUOUS
 10
4.6584914235
 20
5.0964973644
 30
0.0
 11
0.3451833695
 21
0.2173599675
 31
0.0
 40
0.0281814881
 41
-2.3897594623
 42
-2.3419854902
  0
ELLIPSE
  5
3CF
100
AcDbEntity
  8
0
100
AcDbEllipse
 62
7
  6
CONTINUOUS
 10
4.2145072083
 20
5.1071340542
 30
0.0
 11
0.3438470535
 21
-0.2290817503
 31
0.0
 40
0.1351315396
 41
-0.9677536274
 42
-0.9199796553
  0
ELLIPSE
  5
3D0
100
AcDbEntity
  8
0
100
AcDbEllipse
 62
7
  6
CONTINUOUS
 10
4.4364993159
 20
4.9579191829
 30
0.0
 11
0.1552146655
 21
0.0898539117
 31
0.0
 40
0.1047902948
 41
1.8565312014
 42
1.9412425218
  0
ELLIPSE
  5
3D1
100
AcDbEntity
  8
0
100
AcDbEllipse
 62
7
  6
CONTINUOUS
 10
4.2362373425
 20
5.1172501474
 30
0.0
 11
0.3264151636
 21
-0.2346957394
 31
0.0
 40
0.2508682184
 41
-1.1292936552
 42
-1.0815196831
  0
ELLIPSE
  5
3D2
100
AcDbEntity
  8
0
100
AcDbEllipse
 62
7
  6
CONTINUOUS
 10
4.4364993159
 20
4.9579191829
 30
0.0
 11
0.1543793624
 21
0.0755061509
 31
0.0
 40
0.2468008202
 41
2.1111516017
 42
2.1958629222
  0
ELLIPSE
  5
3D3
100
AcDbEntity
  8
0
100
AcDbEllipse
 62
7
  6
CONTINUOUS
 10
4.277570514
 20
5.1258554103
 30
0.0
 11
0.2945730228
 21
-0.2339247142
 31
0.0
 40
0.3916518469
 41
-1.2804449875
 42
-1.2392220837
  0
ELLIPSE
  5
3D4
100
AcDbEntity
  8
0
100
AcDbEllipse
 62
7
  6
CONTINUOUS
 10
4.4364993159
 20
4.9579191829
 30
0.0
 11
0.1541678658
 21
0.0533236968
 31
0.0
 40
0.3808919632
 41
2.414449832
 42
2.4991611525
  0
ELLIPSE
  5
3D5
100
AcDbEntity
  8
0
100
AcDbEllipse
 62
7
  6
CONTINUOUS
 10
4.3344607439
 20
5.1321074997
 30
0.0
 11
-0.2512550434
 21
0.2272586745
 31
0.0
 40
0.5769452805
 41
-4.5695196518
 42
-4.5316524357
  0
ELLIPSE
  5
3D6
100
AcDbEntity
  8
0
100
AcDbEllipse
 62
7
  6
CONTINUOUS
 10
4.4364993159
 20
4.9579191829
 30
0.0
 11
0.1552053493
 21
0.0201473899
 31
0.0
 40
0.474907773
 41
2.7980275261
 42
2.8827388466
  0
ELLIPSE
  5
3D7
100
AcDbEntity
  8
0
100
AcDbEllipse
 62
7
  6
CONTINUOUS
 10
4.4013392202
 20
5.068237001
 30
0.0
 11
0.2639514758
 21
-0.064190678
 31
0.0
 40
0.5981924693
 41
-2.1588224486
 42
-2.1110484765
  0
ELLIPSE
  5
3D8
100
AcDbEntity
  8
0
100
AcDbEllipse
 62
7
  6
CONTINUOUS
 10
4.378404121
 20
4.9497027714
 30
0.0
 11
0.0124148781
 21
-0.0082165935
 31
0.0
 40
0.177238619
 41
-0.6790149145
 42
0.5983936307
  0
ELLIPSE
  5
3D9
100
AcDbEntity
  8
0
100
AcDbEllipse
 62
7
  6
CONTINUOUS
 10
4.4364993159
 20
4.9483109639
 30
0.0
 11
0.0124966613
 21
-0.007916939
 31
0.0
 40
0.0364896329
 41
-0.4585116862
 42
0.8188968591
  0
ELLIPSE
  5
3DA
100
AcDbEntity
  8
0
100
AcDbEllipse
 62
7
  6
CONTINUOUS
 10
4.5470029433
 20
4.9997540421
 30
0.0
 11
0.0119834161
 21
-0.007572915
 31
0.0
 40
0.4696165267
 41
-1.1356079172
 42
0.1418006281
  0
ELLIPSE
  5
3DB
100
AcDbEntity
  8
0
100
AcDbEllipse
 62
7
  6
CONTINUOUS
 10
4.5885945108
 20
4.9934628674
 30
0.0
 11
0.0118656784
 21
-0.0062861241
 31
0.0
 40
0.6254045512
 41
-1.2564033032
 42
-0.1409131096
  0
ELLIPSE
  5
3DC
100
AcDbEntity
  8
0
100
AcDbEllipse
 62
7
  6
CONTINUOUS
 10
4.5470029433
 20
4.9537419542
 30
0.0
 11
0.0122258675
 21
0.0081247085
 31
0.0
 40
0.3204410998
 41
9.047497298
 42
10.2715953839
  0
ELLIPSE
  5
3DD
100
AcDbEntity
  8
0
100
AcDbEllipse
 62
7
  6
CONTINUOUS
 10
4.4945945108
 20
4.9497027714
 30
0.0
 11
0.0124148781
 21
0.0082165935
 31
0.0
 40
0.177238619
 41
8.82638433
 42
10.1037928753
  0
ELLIPSE
  5
3DE
100
AcDbEntity
  8
0
100
AcDbEllipse
 62
7
  6
CONTINUOUS
 10
4.4364993159
 20
4.9483109639
 30
0.0
 11
0.0124966613
 21
0.007916939
 31
0.0
 40
0.0364896329
 41
8.6058811017
 42
9.8832896469
  0
ELLIPSE
  5
3DF
100
AcDbEntity
  8
0
100
AcDbEllipse
 62
7
  6
CONTINUOUS
 10
4.4716594116
 20
5.1353944176
 30
0.0
 11
0.1919189317
 21
0.2229178264
 31
0.0
 40
0.8309556449
 41
-3.4808774576
 42
-3.4331034856
  0
ELLIPSE
  5
3E0
100
AcDbEntity
  8
0
100
AcDbEllipse
 62
7
  6
CONTINUOUS
 10
4.5385378879
 20
5.1321074997
 30
0.0
 11
0.2512550434
 21
0.2272586745
 31
0.0
 40
0.5769452805
 41
-3.5786503826
 42
-3.5308764105
  0
ELLIPSE
  5
3E1
100
AcDbEntity
  8
0
100
AcDbEllipse
 62
7
  6
CONTINUOUS
 10
4.5954281178
 20
5.1258554103
 30
0.0
 11
0.2945730228
 21
0.2339247142
 31
0.0
 40
0.3916518469
 41
2.5536972262
 42
2.6014711983
  0
ELLIPSE
  5
3E2
100
AcDbEntity
  8
0
100
AcDbEllipse
 62
7
  6
CONTINUOUS
 10
4.6367612893
 20
5.1172501474
 30
0.0
 11
0.3264151636
 21
0.2346957394
 31
0.0
 40
0.2508682184
 41
2.3959948255
 42
2.4437687976
  0
ELLIPSE
  5
3E3
100
AcDbEntity
  8
0
100
AcDbEllipse
 62
7
  6
CONTINUOUS
 10
4.2145072083
 20
5.0964973644
 30
0.0
 11
0.3451833695
 21
-0.2173599675
 31
0.0
 40
0.0281814881
 41
1.0275103477
 42
1.0752843198
  0
ELLIPSE
  5
3E4
100
AcDbEntity
  8
0
100
AcDbEllipse
 62
7
  6
CONTINUOUS
 10
4.6584914235
 20
5.1071340542
 30
0.0
 11
0.3438470535
 21
0.2290817503
 31
0.0
 40
0.1351315396
 41
2.2344547978
 42
2.2822287699
  0
ELLIPSE
  5
3E5
100
AcDbEntity
  8
0
100
AcDbEllipse
 62
7
  6
CONTINUOUS
 10
4.2145072083
 20
5.1071340542
 30
0.0
 11
0.3438470535
 21
-0.2290817503
 31
0.0
 40
0.1351315396
 41
0.8593638837
 42
0.9071378558
  0
ELLIPSE
  5
3E6
100
AcDbEntity
  8
0
100
AcDbEllipse
 62
7
  6
CONTINUOUS
 10
4.6584914235
 20
5.0964973644
 30
0.0
 11
0.3451833695
 21
0.2173599675
 31
0.0
 40
0.0281814881
 41
2.0663083338
 42
2.1140823059
  0
ELLIPSE
  5
3E7
100
AcDbEntity
  8
0
100
AcDbEllipse
 62
7
  6
CONTINUOUS
 10
4.2362373425
 20
5.1172501474
 30
0.0
 11
0.3264151636
 21
-0.2346957394
 31
0.0
 40
0.2508682184
 41
0.697823856
 42
0.7455978281
  0
ELLIPSE
  5
3E8
100
AcDbEntity
  8
0
100
AcDbEllipse
 62
7
  6
CONTINUOUS
 10
4.3259956885
 20
4.9537419542
 30
0.0
 11
0.0122258675
 21
-0.0081247085
 31
0.0
 40
0.3204410998
 41
-0.8468174231
 42
0.3772806628
  0
ELLIPSE
  5
3E9
100
AcDbEntity
  8
0
100
AcDbEllipse
 62
7
  6
CONTINUOUS
 10
4.277570514
 20
5.1258554103
 30
0.0
 11
0.2945730228
 21
-0.2339247142
 31
0.0
 40
0.3916518469
 41
0.5401214553
 42
0.5878954274
  0
ELLIPSE
  5
3EA
100
AcDbEntity
  8
0
100
AcDbEllipse
 62
7
  6
CONTINUOUS
 10
4.3344607439
 20
5.1321074997
 30
0.0
 11
-0.2512550434
 21
0.2272586745
 31
0.0
 40
0.5769452805
 41
-2.7523088966
 42
-2.7045349245
  0
ELLIPSE
  5
3EB
100
AcDbEntity
  8
0
100
AcDbEllipse
 62
7
  6
CONTINUOUS
 10
4.4013392202
 20
5.1353944176
 30
0.0
 11
-0.1919189317
 21
0.2229178264
 31
0.0
 40
0.8309556449
 41
-2.8500818216
 42
-2.8023078495
  0
ELLIPSE
  5
3EC
100
AcDbEntity
  8
0
100
AcDbEllipse
 62
7
  6
CONTINUOUS
 10
4.4716594116
 20
5.1353944176
 30
0.0
 11
0.1919189317
 21
0.2229178264
 31
0.0
 40
0.8309556449
 41
-1.6537599465
 42
-1.6059859744
  0
ELLIPSE
  5
3ED
100
AcDbEntity
  8
0
100
AcDbEllipse
 62
7
  6
CONTINUOUS
 10
4.4364993159
 20
4.9579191829
 30
0.0
 11
0.1527400974
 21
0.0381527728
 31
0.0
 40
0.7644786049
 41
-0.305562503
 42
-0.2607509723
  0
ELLIPSE
  5
3EE
100
AcDbEntity
  8
0
100
AcDbEllipse
 62
7
  6
CONTINUOUS
 10
4.4364993159
 20
4.9579191829
 30
0.0
 11
0.1476090399
 21
0.0781993839
 31
0.0
 40
0.6254045512
 41
-0.7509751889
 42
-0.6662638684
  0
ELLIPSE
  5
3EF
100
AcDbEntity
  8
0
100
AcDbEllipse
 62
7
  6
CONTINUOUS
 10
4.4364993159
 20
4.9579191829
 30
0.0
 11
0.1490736958
 21
0.0942070627
 31
0.0
 40
0.4696165267
 41
-1.0336889266
 42
-0.9489776062
  0
ELLIPSE
  5
3F0
100
AcDbEntity
  8
0
100
AcDbEllipse
 62
7
  6
CONTINUOUS
 10
4.4364993159
 20
4.9579191829
 30
0.0
 11
0.1520897922
 21
0.1010713739
 31
0.0
 40
0.3204410998
 41
-1.2691689613
 42
-1.1844576408
  0
ELLIPSE
  5
3F1
100
AcDbEntity
  8
0
100
AcDbEllipse
 62
7
  6
CONTINUOUS
 10
4.4364993159
 20
4.9579191829
 30
0.0
 11
0.154441083
 21
0.1022144226
 31
0.0
 40
0.177238619
 41
-1.4902819292
 42
-1.4055706088
  0
ELLIPSE
  5
3F2
100
AcDbEntity
  8
0
100
AcDbEllipse
 62
7
  6
CONTINUOUS
 10
4.4364993159
 20
4.9579191829
 30
0.0
 11
0.1554584671
 21
-0.0984867217
 31
0.0
 40
0.0364896329
 41
-1.5155188165
 42
-1.430807496
  0
ELLIPSE
  5
3F3
100
AcDbEntity
  8
0
100
AcDbEllipse
 62
7
  6
CONTINUOUS
 10
4.4364993159
 20
4.9579191829
 30
0.0
 11
0.1554584671
 21
0.0984867217
 31
0.0
 40
0.0364896329
 41
-1.7107851576
 42
-1.6260738371
  0
ELLIPSE
  5
3F4
100
AcDbEntity
  8
0
100
AcDbEllipse
 62
7
  6
CONTINUOUS
 10
4.4364993159
 20
4.9579191829
 30
0.0
 11
0.154441083
 21
-0.1022144226
 31
0.0
 40
0.177238619
 41
-1.7360220448
 42
-1.6513107244
  0
ELLIPSE
  5
3F5
100
AcDbEntity
  8
0
100
AcDbEllipse
 62
7
  6
CONTINUOUS
 10
4.4364993159
 20
4.9579191829
 30
0.0
 11
0.1520897922
 21
-0.1010713739
 31
0.0
 40
0.3204410998
 41
-1.9571350128
 42
-1.8724236923
  0
ELLIPSE
  5
3F6
100
AcDbEntity
  8
0
100
AcDbEllipse
 62
7
  6
CONTINUOUS
 10
4.4364993159
 20
4.9579191829
 30
0.0
 11
0.1490736958
 21
-0.0942070627
 31
0.0
 40
0.4696165267
 41
-2.1926150474
 42
-2.107903727
  0
ELLIPSE
  5
3F7
100
AcDbEntity
  8
0
100
AcDbEllipse
 62
7
  6
CONTINUOUS
 10
4.4364993159
 20
4.9579191829
 30
0.0
 11
0.1476090399
 21
-0.0781993839
 31
0.0
 40
0.6254045512
 41
-2.4753287852
 42
-2.3906174647
  0
ELLIPSE
  5
3F8
100
AcDbEntity
  8
0
100
AcDbEllipse
 62
7
  6
CONTINUOUS
 10
4.4945945108
 20
5.0037932248
 30
0.0
 11
0.0122258675
 21
-0.0081247085
 31
0.0
 40
0.3204410998
 41
-0.9001278825
 42
0.3772806628
  0
ELLIPSE
  5
3F9
100
AcDbEntity
  8
0
100
AcDbEllipse
 62
7
  6
CONTINUOUS
 10
4.4364993159
 20
5.0051850323
 30
0.0
 11
0.0124148781
 21
-0.0082165935
 31
0.0
 40
0.177238619
 41
-0.6790149145
 42
0.5983936307
  0
ELLIPSE
  5
3FA
100
AcDbEntity
  8
0
100
AcDbEllipse
 62
7
  6
CONTINUOUS
 10
4.4364993159
 20
4.9579191829
 30
0.0
 11
0.1527400974
 21
-0.0381527728
 31
0.0
 40
0.7644786049
 41
-2.8808416813
 42
-2.8360301506
  0
ELLIPSE
  5
3FB
100
AcDbEntity
  8
0
100
AcDbEllipse
 62
7
  6
CONTINUOUS
 10
4.4013392202
 20
5.1353944176
 30
0.0
 11
-0.1919189317
 21
0.2229178264
 31
0.0
 40
0.8309556449
 41
-4.6771993328
 42
-4.6294253607
  0
ELLIPSE
  5
3FC
100
AcDbEntity
  8
0
100
AcDbEllipse
 62
7
  6
CONTINUOUS
 10
4.378404121
 20
5.0037932248
 30
0.0
 11
0.0124966613
 21
-0.007916939
 31
0.0
 40
0.0364896329
 41
-0.4585116862
 42
0.8188968591
  0
ELLIPSE
  5
3FD
100
AcDbEntity
  8
0
100
AcDbEllipse
 62
7
  6
CONTINUOUS
 10
4.284404121
 20
4.9934628674
 30
0.0
 11
0.0118656784
 21
0.0062861241
 31
0.0
 40
0.6254045512
 41
-3.000679544
 42
-1.8851893504
  0
ELLIPSE
  5
3FE
100
AcDbEntity
  8
0
100
AcDbEllipse
 62
7
  6
CONTINUOUS
 10
4.3259956885
 20
4.9997540421
 30
0.0
 11
0.0119834161
 21
0.007572915
 31
0.0
 40
0.4696165267
 41
2.9997920255
 42
4.2772005707
  0
ELLIPSE
  5
3FF
100
AcDbEntity
  8
0
100
AcDbEllipse
 62
7
  6
CONTINUOUS
 10
4.378404121
 20
5.0037932248
 30
0.0
 11
0.0122258675
 21
0.0081247085
 31
0.0
 40
0.3204410998
 41
9.047497298
 42
10.3249058432
  0
ELLIPSE
  5
400
100
AcDbEntity
  8
0
100
AcDbEllipse
 62
7
  6
CONTINUOUS
 10
4.4364993159
 20
5.0051850323
 30
0.0
 11
0.0124148781
 21
0.0082165935
 31
0.0
 40
0.177238619
 41
8.82638433
 42
10.1037928753
  0
ELLIPSE
  5
401
100
AcDbEntity
  8
0
100
AcDbEllipse
 62
7
  6
CONTINUOUS
 10
4.4945945108
 20
5.0037932248
 30
0.0
 11
0.0124966613
 21
0.007916939
 31
0.0
 40
0.0364896329
 41
8.6058811017
 42
9.8832896469
  0
ENDSEC
  0
SECTION
  2
OBJECTS
  0
DICTIONARY
  5
C
100
AcDbDictionary
280
0
281
1
  3
ACAD_GROUP
350
D
  3
ACAD_MLINESTYLE
350
17
  3
ACAD_LAYOUT
350
1A
  3
ACAD_PLOTSETTINGS
350
19
  3
ACAD_PLOTSTYLENAME
350
E
  0
DICTIONARY
  5
D
102
{ACAD_REACTORS
330
C
102
}
100
AcDbDictionary
280
0
281
1
  0
ACDBDICTIONARYWDFLT
  5
E
102
{ACAD_REACTORS
330
C
102
}
100
AcDbDictionary
281
1
  3
Normal
350
F
100
AcDbDictionaryWithDefault
340
F
  0
DICTIONARY
  5
17
102
{ACAD_REACTORS
330
C
102
}
100
AcDbDictionary
280
0
281
1
  3
Standard
350
18
  0
DICTIONARY
  5
19
102
{ACAD_REACTORS
330
C
102
}
100
AcDbDictionary
281
1
  0
DICTIONARY
  5
1A
102
{ACAD_REACTORS
330
C
102
}
100
AcDbDictionary
281
1
  3
Model
350
402
  3
Layout1
350
403
  0
ACDBPLACEHOLDER
  5
F
102
{ACAD_REACTORS
330
E
102
}
  0
MLINESTYLE
  5
18
102
{ACAD_REACTORS
330
17
102
}
100
AcDbMlineStyle
  2
STANDARD
 70
0
  3

 62
256
 51
90.0
 52
90.0
 71
2
 49
0.5
 62
256
  6
BYLAYER
 49
-0.5
 62
256
  6
BYLAYER
  0
LAYOUT
  5
402
102
{ACAD_REACTORS
330
1A
102
}
100
AcDbPlotSettings
  1

  2
none_device
  4
ANSI_A_(11.00_x_8.50_Inches)
  6

 40
0.0
 41
0.0
 42
0.0
 43
0.0
 44
279.4
 45
215.9
 46
0.0
 47
0.0
 48
0.0
 49
0.0
140
0.0
141
0.0
142
1.0
143
1.0
 70
1024
 72
0
 73
0
 74
0
  7

 75
0
147
1.0
148
0.0
149
0.0
100
AcDbLayout
  1
Model
 70
0
 71
0
 10
0.0
 20
0.0
 11
11.0
 21
8.5
 12
0.0
 22
0.0
 32
0.0
 14
0.0
 24
0.0
 34
0.0
 15
0.0
 25
0.0
 35
0.0
146
0.0
 13
0.0
 23
0.0
 33
0.0
 16
1.0
 26
0.0
 36
0.0
 17
0.0
 27
1.0
 37
0.0
 76
0
330
202
345
0
346
0
  0
LAYOUT
  5
403
102
{ACAD_REACTORS
330
1A
102
}
100
AcDbPlotSettings
  1

  2
none_device
  4
ANSI_A_(11.00_x_8.50_Inches)
  6

 40
0.0
 41
0.0
 42
0.0
 43
0.0
 44
279.4
 45
215.9
 46
0.0
 47
0.0
 48
0.0
 49
0.0
140
0.0
141
0.0
142
1.0
143
1.0
 70
0
 72
0
 73
0
 74
0
  7

 75
0
147
1.0
148
0.0
149
0.0
100
AcDbLayout
  1
Layout1
 70
0
 71
1
 10
0.0
 20
0.0
 11
11.0
 21
8.5
 12
0.0
 22
0.0
 32
0.0
 14
0.0
 24
0.0
 34
0.0
 15
0.0
 25
0.0
 35
0.0
146
0.0
 13
0.0
 23
0.0
 33
0.0
 16
1.0
 26
0.0
 36
0.0
 17
0.0
 27
1.0
 37
0.0
 76
0
330
203
345
0
346
0
  0
ENDSEC
  0
EOF
