999
DXF file: 3180-5223_right.dxf
999
Pro/ENGINEER 2018400 by Parametric Technology Corporation
  0
SECTION
  2
HEADER
  9
$ACADVER
  1
AC1027
  9
$DWGCODEPAGE
  3
ANSI_1252
  9
$EXTMAX
 10
11.0
 20
8.5
 30
0.0
  9
$EXTMIN
 10
0.0
 20
0.0
 30
0.0
  9
$LIMMIN
 10
0.0
 20
0.0
  9
$LIMMAX
 10
11.0
 20
8.5
  9
$VIEWCTR
 10
5.5
 20
4.25
  9
$VIEWSIZE
 40
8.5
  9
$CLAYER
  8
0
  9
$LTSCALE
 40
0.605
  9
$CELTYPE
  6
BYLAYER
  9
$DIMSCALE
 40
1.0
  9
$DIMASZ
 40
0.1
  9
$DIMEXO
 40
0.0625
  9
$DIMDLI
 40
0.418
  9
$DIMEXE
 40
0.125
  9
$DIMCEN
 40
0.099
  9
$DIMLFAC
 40
1.0
  9
$DIMBLK
  1
_FILLED
  9
$DIMALT
 70
1
  9
$DIMALTD
 70
1
  9
$DIMALTTD
 70
2
  9
$DIMALTF
 40
25.4
  9
$DIMTXT
 40
0.08
  9
$DIMTOL
 70
1
  9
$DIMLIM
 70
0
  9
$DIMTFAC
 40
1.0
  9
$DIMTP
 40
0.01
  9
$DIMTM
 40
0.01
  9
$DIMGAP
 40
0.09
  9
$DIMDSEP
 70
46
  9
$AUNITS
 70
0
  9
$PDMODE
 70
3
  9
$PDSIZE
 40
0.3125
  9
$HANDSEED
  5
30F
  9
$TILEMODE
 70
1
  9
$MEASUREMENT
 70
0
  9
$INSUNITS
 70
1
  0
ENDSEC
  0
SECTION
  2
CLASSES
  0
CLASS
  1
ACDBDICTIONARYWDFLT
  2
AcDbDictionaryWithDefault
  3
AutoCAD 2000
 90
0
 91
1
280
0
281
0
  0
CLASS
  1
ACDBPLACEHOLDER
  2
AcDbPlaceHolder
  3
AutoCAD 2000
 90
0
 91
1
280
0
281
0
  0
CLASS
  1
LAYOUT
  2
AcDbLayout
  3
AutoCAD 2000
 90
0
 91
0
280
0
281
0
  0
ENDSEC
  0
SECTION
  2
TABLES
  0
TABLE
  2
VPORT
  5
8
100
AcDbSymbolTable
 70
2
  0
VPORT
  5
1F4
100
AcDbSymbolTableRecord
100
AcDbViewportTableRecord
  2
*ACTIVE
 70
0
 10
0.0
 20
0.0
 11
1.0
 21
1.0
 12
5.5
 22
4.25
 13
0.0
 23
0.0
 14
1.0
 24
1.0
 15
0.0
 25
0.0
 16
0.0
 26
0.0
 36
1.0
 17
0.0
 27
0.0
 37
0.0
 40
8.5
 41
1.2941176471
 42
50.0
 43
0.0
 44
0.0
 50
0.0
 51
0.0
 71
0
 72
100
 73
1
 74
1
 75
0
 76
0
 77
0
 78
0
  0
ENDTAB
  0
TABLE
  2
LTYPE
  5
5
100
AcDbSymbolTable
 70
6
  0
LTYPE
  5
14
100
AcDbSymbolTableRecord
100
AcDbLinetypeTableRecord
  2
BYBLOCK
 70
0
  3

 72
65
 73
0
 40
0.0
  0
LTYPE
  5
15
100
AcDbSymbolTableRecord
100
AcDbLinetypeTableRecord
  2
BYLAYER
 70
0
  3

 72
65
 73
0
 40
0.0
  0
LTYPE
  5
16
100
AcDbSymbolTableRecord
100
AcDbLinetypeTableRecord
  2
CONTINUOUS
 70
64
  3
Solid line
 72
65
 73
0
 40
0.0
  0
LTYPE
  5
1F5
100
AcDbSymbolTableRecord
100
AcDbLinetypeTableRecord
  2
CENTER
 70
64
  3
____ _ ____ _ ____ _ ____ _ ____ _ ____ _ ____
 72
65
 73
4
 40
0.6
 49
0.375
 74
0
 49
-0.075
 74
0
 49
0.075
 74
0
 49
-0.075
 74
0
  0
LTYPE
  5
1F6
100
AcDbSymbolTableRecord
100
AcDbLinetypeTableRecord
  2
HIDDEN
 70
64
  3
- - - - - - - - - - - - - - - - - - - -
 72
65
 73
2
 40
0.2
 49
0.1
 74
0
 49
-0.1
 74
0
  0
LTYPE
  5
1F7
100
AcDbSymbolTableRecord
100
AcDbLinetypeTableRecord
  2
PHANTOM
 70
64
  3
_____ _ _ _____ _ _ _____ _ _ _____
 72
65
 73
6
 40
0.8
 49
0.45
 74
0
 49
-0.05
 74
0
 49
0.1
 74
0
 49
-0.05
 74
0
 49
0.1
 74
0
 49
-0.05
 74
0
  0
LTYPE
  5
1F8
100
AcDbSymbolTableRecord
100
AcDbLinetypeTableRecord
  2
DOT
 70
64
  3
. . . . . . . . . . . . . . . . . . . .
 72
65
 73
2
 40
0.2
 49
0.1
 74
0
 49
-0.1
 74
0
  0
LTYPE
  5
1F9
100
AcDbSymbolTableRecord
100
AcDbLinetypeTableRecord
  2
DASHED
 70
64
  3
- - - - - - - - - - - - - - - - - - - -
 72
65
 73
2
 40
0.2
 49
0.1
 74
0
 49
-0.1
 74
0
  0
ENDTAB
  0
TABLE
  2
LAYER
  5
2
100
AcDbSymbolTable
 70
36
  0
LAYER
  5
10
100
AcDbSymbolTableRecord
100
AcDbLayerTableRecord
  2
0
 70
0
 62
7
  6
CONTINUOUS
370
-3
390
F
  0
LAYER
  5
1FA
100
AcDbSymbolTableRecord
100
AcDbLayerTableRecord
  2
DEFAULT_1
 70
0
 62
7
  6
CENTER
370
-3
390
F
  0
LAYER
  5
1FB
100
AcDbSymbolTableRecord
100
AcDbLayerTableRecord
  2
DEFAULT_2
 70
0
 62
8
  6
HIDDEN
370
-3
390
F
  0
LAYER
  5
1FC
100
AcDbSymbolTableRecord
100
AcDbLayerTableRecord
  2
DEFAULT_3
 70
0
 62
7
  6
PHANTOM
370
-3
390
F
  0
LAYER
  5
1FD
100
AcDbSymbolTableRecord
100
AcDbLayerTableRecord
  2
DEFAULT_COORDINATE_SYSTEM
 70
0
 62
7
  6
CONTINUOUS
370
-3
390
F
  0
LAYER
  5
1FE
100
AcDbSymbolTableRecord
100
AcDbLayerTableRecord
  2
DEFAULT_DATUM_AXES
 70
0
 62
7
  6
CONTINUOUS
370
-3
390
F
  0
LAYER
  5
1FF
100
AcDbSymbolTableRecord
100
AcDbLayerTableRecord
  2
DEFAULT_DATUM_PLANES
 70
0
 62
7
  6
CONTINUOUS
370
-3
390
F
  0
ENDTAB
  0
TABLE
  2
STYLE
  5
3
100
AcDbSymbolTable
 70
1
  0
STYLE
  5
11
100
AcDbSymbolTableRecord
100
AcDbTextStyleTableRecord
  2
STANDARD
 70
0
 40
0.0
 41
0.8
 50
0.0
 71
0
 42
0.2
  3
txt
  4

  0
STYLE
  5
200
100
AcDbSymbolTableRecord
100
AcDbTextStyleTableRecord
  2
TEXTSTYLE_1
 70
0
 40
0.0
 41
0.8
 50
0.0
 71
0
 42
0.2
  3
gdt
  4

  0
ENDTAB
  0
TABLE
  2
VIEW
  5
6
100
AcDbSymbolTable
 70
0
  0
ENDTAB
  0
TABLE
  2
UCS
  5
7
100
AcDbSymbolTable
 70
0
  0
ENDTAB
  0
TABLE
  2
APPID
  5
9
100
AcDbSymbolTable
 70
1
  0
APPID
  5
201
100
AcDbSymbolTableRecord
100
AcDbRegAppTableRecord
  2
ACAD
 70
0
  0
ENDTAB
  0
TABLE
  2
BLOCK_RECORD
  5
1
100
AcDbSymbolTable
 70
0
  0
BLOCK_RECORD
  5
202
100
AcDbSymbolTableRecord
100
AcDbBlockTableRecord
  2
*Model_Space
  0
BLOCK_RECORD
  5
203
100
AcDbSymbolTableRecord
100
AcDbBlockTableRecord
  2
*Paper_Space
  0
BLOCK_RECORD
  5
204
100
AcDbSymbolTableRecord
100
AcDbBlockTableRecord
  2
_FILLED
  0
ENDTAB
  0
TABLE
  2
DIMSTYLE
  5
A
100
AcDbSymbolTable
 70
1
100
AcDbDimStyleTable
 71
0
  0
DIMSTYLE
105
205
100
AcDbSymbolTableRecord
100
AcDbDimStyleTableRecord
  2
STANDARD
 70
0
  3

  4

 40
1.0
 41
0.1
 42
0.0625
 43
0.38
 44
0.125
 45
0.0
 46
0.0
 47
0.01
 48
0.01
140
0.08
141
0.09
142
0.0
143
25.4
144
1.0
145
0.0
146
1.0
147
0.09
 71
1.0
 72
0.0
 73
1
 74
1
 75
0
 76
0
 77
0
 78
4
 79
1
170
1
171
1
172
0
173
0
174
0
175
0
176
0
177
0
178
0
270
2
179
2
271
2
272
2
273
2
274
2
275
0
280
0
281
0
282
0
283
1
284
4
285
0
286
0
287
3
288
0
340
11
278
46
341
204
342
204
343
204
344
204
  0
ENDTAB
  0
ENDSEC
  0
SECTION
  2
BLOCKS
  0
BLOCK
  5
20
100
AcDbEntity
  8
0
100
AcDbBlockBegin
  2
*Model_Space
 70
0
 10
0.0
 20
0.0
 30
0.0
  3
*Model_Space
  1

  0
ENDBLK
  5
21
100
AcDbEntity
  8
0
100
AcDbBlockEnd
  0
BLOCK
  5
1C
100
AcDbEntity
  8
0
100
AcDbBlockBegin
  2
*Paper_Space
 70
0
 10
0.0
 20
0.0
 30
0.0
  3
*Paper_Space
  1

  0
ENDBLK
  5
1D
100
AcDbEntity
  8
0
100
AcDbBlockEnd
  0
BLOCK
  5
206
100
AcDbEntity
  8
0
100
AcDbBlockBegin
  2
_FILLED
 70
64
 10
0.0
 20
0.0
  3
_FILLED
  1

  0
SOLID
  5
207
100
AcDbEntity
  8
0
  6
BYBLOCK
 62
0
100
AcDbTrace
 10
0.0
 20
0.0
 11
-1.0
 21
0.2
 12
-1.0
 22
-0.2
 13
-1.0
 23
-0.2
  0
ENDBLK
  5
208
100
AcDbEntity
  8
0
  6
BYBLOCK
 62
0
100
AcDbBlockEnd
  0
ENDSEC
  0
SECTION
  2
ENTITIES
  0
MTEXT
  5
209
100
AcDbEntity
  8
0
100
AcDbMText
 62
2
  6
CONTINUOUS
  7
STANDARD
 71
3
 72
1
 10
4.5212143609
 20
0.3458156425
 30
0.0
 11
1.0
 21
0.0
 31
0.0
 73
2
 44
0.9
  1
SCALE  .500
 40
0.08
 41
0.704
  0
LINE
  5
20A
100
AcDbEntity
  8
0
100
AcDbLine
 62
7
  6
CONTINUOUS
 10
0.0
 20
0.0
 11
0.0
 21
8.5
  0
LINE
  5
20B
100
AcDbEntity
  8
0
100
AcDbLine
 62
7
  6
CONTINUOUS
 10
0.0
 20
0.0
 11
11.0
 21
0.0
  0
LINE
  5
20C
100
AcDbEntity
  8
0
100
AcDbLine
 62
7
  6
CONTINUOUS
 10
0.0
 20
8.5
 11
11.0
 21
8.5
  0
LINE
  5
20D
100
AcDbEntity
  8
0
100
AcDbLine
 62
7
  6
CONTINUOUS
 10
11.0
 20
0.0
 11
11.0
 21
8.5
  0
LINE
  5
20E
100
AcDbEntity
  8
0
100
AcDbLine
 62
7
  6
CONTINUOUS
 10
6.2456579527
 20
0.6252876922
 11
7.3677051968
 21
0.6252876922
  0
LINE
  5
20F
100
AcDbEntity
  8
0
100
AcDbLine
 62
7
  6
CONTINUOUS
 10
7.3677051968
 20
0.9055632827
 11
6.2456579527
 21
0.9055632827
  0
LINE
  5
210
100
AcDbEntity
  8
0
100
AcDbLine
 62
7
  6
CONTINUOUS
 10
7.3527051968
 20
0.9205632827
 11
6.2606579527
 21
0.9205632827
  0
LINE
  5
211
100
AcDbEntity
  8
0
100
AcDbLine
 62
7
  6
CONTINUOUS
 10
6.2850280315
 20
0.9355632827
 11
7.3283351181
 21
0.9355632827
  0
LINE
  5
212
100
AcDbEntity
  8
0
100
AcDbLine
 62
7
  6
CONTINUOUS
 10
7.3283351181
 20
0.9449333615
 11
6.2850280315
 21
0.9449333615
  0
LINE
  5
213
100
AcDbEntity
  8
0
100
AcDbLine
 62
7
  6
CONTINUOUS
 10
7.3133351181
 20
0.9599333615
 11
6.3000280315
 21
0.9599333615
  0
LINE
  5
214
100
AcDbEntity
  8
0
100
AcDbLine
 62
7
  6
CONTINUOUS
 10
2.9884175344
 20
6.1340013041
 11
2.9397011233
 21
6.0731932831
  0
LINE
  5
215
100
AcDbEntity
  8
0
100
AcDbLine
 62
7
  6
CONTINUOUS
 10
2.8386679901
 20
5.6390093696
 11
2.8130134713
 21
5.4713563387
  0
LINE
  5
216
100
AcDbEntity
  8
0
100
AcDbLine
 62
7
  6
CONTINUOUS
 10
2.8591424757
 20
5.6497335155
 11
2.8293440941
 21
5.4550002198
  0
LINE
  5
217
100
AcDbEntity
  8
0
100
AcDbLine
 62
7
  6
CONTINUOUS
 10
2.927425378
 20
6.0452283548
 11
2.8700561901
 21
5.670319033
  0
LINE
  5
218
100
AcDbEntity
  8
0
100
AcDbLine
 62
7
  6
CONTINUOUS
 10
2.8336024888
 20
5.4320930282
 11
2.7793359426
 21
5.0774595606
  0
LINE
  5
219
100
AcDbEntity
  8
0
100
AcDbLine
 62
7
  6
CONTINUOUS
 10
2.8728259287
 20
5.5576266529
 11
2.8702576432
 21
5.5407988106
  0
LINE
  5
21A
100
AcDbEntity
  8
0
100
AcDbLine
 62
7
  6
CONTINUOUS
 10
2.8728207324
 20
5.555581204
 11
2.8705518201
 21
5.5407537957
  0
LINE
  5
21B
100
AcDbEntity
  8
0
100
AcDbLine
 62
7
  6
CONTINUOUS
 10
3.024960817
 20
6.3355426952
 11
2.9965994133
 21
6.1502000915
  0
LINE
  5
21C
100
AcDbEntity
  8
0
100
AcDbLine
 62
7
  6
CONTINUOUS
 10
2.9992074913
 20
6.1407995687
 11
3.0005533888
 21
6.1495950482
  0
LWPOLYLINE
  5
21D
100
AcDbEntity
  8
0
100
AcDbPolyline
 62
7
  6
CONTINUOUS
 90
31
 70
0
 10
2.8702576432
 20
5.5407988106
 10
2.8699686935
 20
5.5389487091
 10
2.8693951384
 20
5.5354769384
 10
2.8687799589
 20
5.5320005028
 10
2.8681238777
 20
5.5285240797
 10
2.8674276485
 20
5.5250522796
 10
2.866692046
 20
5.5215896413
 10
2.8659180465
 20
5.5181408274
 10
2.8651071874
 20
5.5147098863
 10
2.8642611703
 20
5.5113005525
 10
2.8633817078
 20
5.5079164296
 10
2.8624707355
 20
5.5045617971
 10
2.8615304054
 20
5.5012414315
 10
2.8605630234
 20
5.4979593481
 10
2.8595711606
 20
5.4947190198
 10
2.8585575769
 20
5.4915242909
 10
2.8575250499
 20
5.4883788789
 10
2.8564764449
 20
5.4852866041
 10
2.8554147513
 20
5.4822513884
 10
2.8543427648
 20
5.4792757578
 10
2.8532640497
 20
5.4763639425
 10
2.8521829002
 20
5.4735218386
 10
2.8511023532
 20
5.470751788
 10
2.8500261405
 20
5.4680578381
 10
2.8489595619
 20
5.4654476308
 10
2.8479059676
 20
5.4629236508
 10
2.8468687294
 20
5.4604884019
 10
2.845852953
 20
5.4581483265
 10
2.8448621006
 20
5.4559058907
 10
2.8438991068
 20
5.4537624257
 10
2.8429678357
 20
5.4517216491
  0
LWPOLYLINE
  5
21E
100
AcDbEntity
  8
0
100
AcDbPolyline
 62
7
  6
CONTINUOUS
 90
4
 70
0
 10
2.8429548128
 20
5.4516933852
 10
2.8420602216
 20
5.4497618399
 10
2.84120263
 20
5.447935274
 10
2.8403844555
 20
5.4462145724
  0
LWPOLYLINE
  5
21F
100
AcDbEntity
  8
0
100
AcDbPolyline
 62
7
  6
CONTINUOUS
 90
6
 70
0
 10
2.8341059336
 20
5.433636657
 10
2.8339627507
 20
5.4333361961
 10
2.833839874
 20
5.4330268736
 10
2.8337378482
 20
5.4327100601
 10
2.833657126
 20
5.4323871604
 10
2.8336030514
 20
5.4320929424
  0
LINE
  5
220
100
AcDbEntity
  8
0
100
AcDbLine
 62
7
  6
CONTINUOUS
 10
2.8403844555
 20
5.4462145724
 11
2.8388764213
 21
5.4430955495
  0
LINE
  5
221
100
AcDbEntity
  8
0
100
AcDbLine
 62
7
  6
CONTINUOUS
 10
2.8388764213
 20
5.4430955495
 11
2.8375536478
 21
5.440413019
  0
LINE
  5
222
100
AcDbEntity
  8
0
100
AcDbLine
 62
7
  6
CONTINUOUS
 10
2.8375561868
 20
5.4404182233
 11
2.8364313603
 21
5.4381750004
  0
LINE
  5
223
100
AcDbEntity
  8
0
100
AcDbLine
 62
7
  6
CONTINUOUS
 10
2.8364313603
 20
5.4381750004
 11
2.8351466794
 21
5.4356512413
  0
LINE
  5
224
100
AcDbEntity
  8
0
100
AcDbLine
 62
7
  6
CONTINUOUS
 10
2.8351466794
 20
5.4356512413
 11
2.8341059336
 21
5.433636657
  0
LINE
  5
225
100
AcDbEntity
  8
0
100
AcDbLine
 62
7
  6
CONTINUOUS
 10
2.8336119282
 20
5.4321107578
 11
2.8336025743
 21
5.4320929379
  0
LINE
  5
226
100
AcDbEntity
  8
0
100
AcDbLine
 62
7
  6
CONTINUOUS
 10
7.0213898737
 20
2.3208756224
 11
7.0131318623
 21
2.3185817855
  0
LINE
  5
227
100
AcDbEntity
  8
0
100
AcDbLine
 62
7
  6
CONTINUOUS
 10
7.0285810632
 20
2.3721261844
 11
7.0200464676
 21
2.3700064397
  0
LINE
  5
228
100
AcDbEntity
  8
0
100
AcDbLine
 62
7
  6
CONTINUOUS
 10
6.6616815748
 20
2.2384137945
 11
6.9516815748
 21
2.2384137945
  0
LINE
  5
229
100
AcDbEntity
  8
0
100
AcDbLine
 62
7
  6
CONTINUOUS
 10
6.6566815748
 20
2.2434137945
 11
6.9566815748
 21
2.2434137945
  0
LINE
  5
22A
100
AcDbEntity
  8
0
100
AcDbLine
 62
7
  6
CONTINUOUS
 10
2.872569669
 20
5.6529389499
 11
2.8728477912
 21
5.6508953408
  0
LWPOLYLINE
  5
22B
100
AcDbEntity
  8
0
100
AcDbPolyline
 62
7
  6
CONTINUOUS
 90
3
 70
0
 10
2.8728418631
 20
5.650939534
 10
2.8731242695
 20
5.6487798207
 10
2.8732754398
 20
5.6475708681
  0
LWPOLYLINE
  5
22C
100
AcDbEntity
  8
0
100
AcDbPolyline
 62
7
  6
CONTINUOUS
 90
30
 70
0
 10
2.8731179893
 20
5.6488287951
 10
2.8733959951
 20
5.6466079974
 10
2.8736735947
 20
5.6442800526
 10
2.8739482238
 20
5.6418496369
 10
2.8742175016
 20
5.6393188541
 10
2.8744788778
 20
5.6366910982
 10
2.8747294205
 20
5.633974073
 10
2.8749666805
 20
5.6311711628
 10
2.8751882199
 20
5.6282857998
 10
2.875391261
 20
5.6253269109
 10
2.8755734411
 20
5.6222994651
 10
2.8757325589
 20
5.6192064663
 10
2.8758663092
 20
5.6160546627
 10
2.8759726891
 20
5.6128494014
 10
2.8760498495
 20
5.6095939543
 10
2.8760959464
 20
5.6062923448
 10
2.8761092545
 20
5.6029488363
 10
2.8760883049
 20
5.5995677675
 10
2.8760317065
 20
5.5961532532
 10
2.8759381277
 20
5.5927095183
 10
2.8758065105
 20
5.5892409728
 10
2.8756360165
 20
5.5857520191
 10
2.8754258631
 20
5.5822470148
 10
2.8751755063
 20
5.578730312
 10
2.8748846998
 20
5.5752063303
 10
2.8745532636
 20
5.5716794236
 10
2.8741812714
 20
5.5681538333
 10
2.8737690461
 20
5.564633712
 10
2.8733170039
 20
5.5611231856
 10
2.8728259287
 20
5.5576266529
  0
LINE
  5
22D
100
AcDbEntity
  8
0
100
AcDbLine
 62
7
  6
CONTINUOUS
 10
3.5560869532
 20
6.0645864672
 11
3.5547410557
 21
6.0557909877
  0
LINE
  5
22E
100
AcDbEntity
  8
0
100
AcDbLine
 62
7
  6
CONTINUOUS
 10
3.5804611395
 20
6.1974280986
 11
3.5600409287
 21
6.0639814239
  0
LINE
  5
22F
100
AcDbEntity
  8
0
100
AcDbLine
 62
7
  6
CONTINUOUS
 10
6.9566815748
 20
2.4833979284
 11
6.6566815748
 21
2.4833979284
  0
LINE
  5
230
100
AcDbEntity
  8
0
100
AcDbLine
 62
7
  6
CONTINUOUS
 10
6.6216815748
 20
2.4883979284
 11
6.9916815748
 21
2.4883979284
  0
LINE
  5
231
100
AcDbEntity
  8
0
100
AcDbLine
 62
7
  6
CONTINUOUS
 10
6.6166815748
 20
2.4933979284
 11
6.9966815748
 21
2.4933979284
  0
LINE
  5
232
100
AcDbEntity
  8
0
100
AcDbLine
 62
7
  6
CONTINUOUS
 10
6.9966815748
 20
2.5227680071
 11
6.6166815748
 21
2.5227680071
  0
LINE
  5
233
100
AcDbEntity
  8
0
100
AcDbLine
 62
7
  6
CONTINUOUS
 10
6.5816815748
 20
2.5277680071
 11
7.031681231
 21
2.5277680071
  0
LINE
  5
234
100
AcDbEntity
  8
0
100
AcDbLine
 62
7
  6
CONTINUOUS
 10
6.5766815748
 20
2.5327680071
 11
7.0366815748
 21
2.5327680071
  0
LINE
  5
235
100
AcDbEntity
  8
0
100
AcDbLine
 62
7
  6
CONTINUOUS
 10
2.7804435944
 20
5.0674265756
 11
2.7960633973
 21
5.0273638529
  0
LINE
  5
236
100
AcDbEntity
  8
0
100
AcDbLine
 62
7
  6
CONTINUOUS
 10
2.8700562407
 20
5.6703193639
 11
2.8707007238
 21
5.6666978181
  0
LINE
  5
237
100
AcDbEntity
  8
0
100
AcDbLine
 62
7
  6
CONTINUOUS
 10
2.8704048534
 20
5.6683819742
 11
2.8707007238
 21
5.6666978181
  0
LINE
  5
238
100
AcDbEntity
  8
0
100
AcDbLine
 62
7
  6
CONTINUOUS
 10
2.8700750646
 20
5.6686951526
 11
2.8704661906
 21
5.6664588488
  0
LINE
  5
239
100
AcDbEntity
  8
0
100
AcDbLine
 62
7
  6
CONTINUOUS
 10
2.8704661906
 20
5.6664588488
 11
2.8709377496
 21
5.6636641281
  0
LINE
  5
23A
100
AcDbEntity
  8
0
100
AcDbLine
 62
7
  6
CONTINUOUS
 10
2.8709377496
 20
5.6636641281
 11
2.8713404366
 21
5.6611860617
  0
LINE
  5
23B
100
AcDbEntity
  8
0
100
AcDbLine
 62
7
  6
CONTINUOUS
 10
2.8713372636
 20
5.6612060981
 11
2.8717972723
 21
5.6582518057
  0
LINE
  5
23C
100
AcDbEntity
  8
0
100
AcDbLine
 62
7
  6
CONTINUOUS
 10
2.8718013545
 20
5.6582246546
 11
2.8723085692
 21
5.6547900832
  0
LINE
  5
23D
100
AcDbEntity
  8
0
100
AcDbLine
 62
7
  6
CONTINUOUS
 10
2.8723034764
 20
5.6548253994
 11
2.8725752045
 21
5.6528992954
  0
LINE
  5
23E
100
AcDbEntity
  8
0
100
AcDbLine
 62
7
  6
CONTINUOUS
 10
3.5946587516
 20
5.9431273011
 11
3.4465693162
 21
4.975358507
  0
LINE
  5
23F
100
AcDbEntity
  8
0
100
AcDbLine
 62
7
  6
CONTINUOUS
 10
3.4425120783
 20
4.9661158612
 11
3.4156266441
 21
4.9325573537
  0
LINE
  5
240
100
AcDbEntity
  8
0
100
AcDbLine
 62
7
  6
CONTINUOUS
 10
6.5766815748
 20
2.8770987158
 11
7.0366815748
 21
2.8770987158
  0
LINE
  5
241
100
AcDbEntity
  8
0
100
AcDbLine
 62
7
  6
CONTINUOUS
 10
6.5816815748
 20
2.8820987158
 11
7.031681231
 21
2.8820987158
  0
LINE
  5
242
100
AcDbEntity
  8
0
100
AcDbLine
 62
7
  6
CONTINUOUS
 10
6.9966815748
 20
2.8870987158
 11
6.6166815748
 21
2.8870987158
  0
LINE
  5
243
100
AcDbEntity
  8
0
100
AcDbLine
 62
7
  6
CONTINUOUS
 10
6.6166815748
 20
2.9164687945
 11
6.9966815748
 21
2.9164687945
  0
LINE
  5
244
100
AcDbEntity
  8
0
100
AcDbLine
 62
7
  6
CONTINUOUS
 10
6.6216815748
 20
2.9214687945
 11
6.9916815748
 21
2.9214687945
  0
LINE
  5
245
100
AcDbEntity
  8
0
100
AcDbLine
 62
7
  6
CONTINUOUS
 10
6.6566815748
 20
2.9264687945
 11
6.9566815748
 21
2.9264687945
  0
LINE
  5
246
100
AcDbEntity
  8
0
100
AcDbLine
 62
7
  6
CONTINUOUS
 10
6.5847820864
 20
2.3721261844
 11
6.593316682
 21
2.3700064397
  0
LINE
  5
247
100
AcDbEntity
  8
0
100
AcDbLine
 62
7
  6
CONTINUOUS
 10
6.5919732759
 20
2.3208756224
 11
6.6002312873
 21
2.3185817855
  0
LINE
  5
248
100
AcDbEntity
  8
0
100
AcDbLine
 62
7
  6
CONTINUOUS
 10
7.2816815748
 20
3.7449333615
 11
6.9566815748
 21
3.7449333615
  0
LINE
  5
249
100
AcDbEntity
  8
0
100
AcDbLine
 62
7
  6
CONTINUOUS
 10
6.6566815748
 20
3.7449333615
 11
6.3316815748
 21
3.7449333615
  0
LINE
  5
24A
100
AcDbEntity
  8
0
100
AcDbLine
 62
7
  6
CONTINUOUS
 10
7.3191812317
 20
3.7599333615
 11
6.9566815748
 21
3.7599333615
  0
LINE
  5
24B
100
AcDbEntity
  8
0
100
AcDbLine
 62
7
  6
CONTINUOUS
 10
6.6566815748
 20
3.7599333615
 11
6.2941819179
 21
3.7599333615
  0
LINE
  5
24C
100
AcDbEntity
  8
0
100
AcDbLine
 62
7
  6
CONTINUOUS
 10
7.3291815748
 20
3.7699333615
 11
6.9566815748
 21
3.7699333615
  0
LINE
  5
24D
100
AcDbEntity
  8
0
100
AcDbLine
 62
7
  6
CONTINUOUS
 10
6.6566815748
 20
3.7699333615
 11
6.2841815748
 21
3.7699333615
  0
LINE
  5
24E
100
AcDbEntity
  8
0
100
AcDbLine
 62
7
  6
CONTINUOUS
 10
3.5630043093
 20
6.0460771722
 11
3.5913073947
 21
5.9734835121
  0
LINE
  5
24F
100
AcDbEntity
  8
0
100
AcDbLine
 62
7
  6
CONTINUOUS
 10
7.3291815748
 20
3.9249333615
 11
6.9566815748
 21
3.9249333615
  0
LINE
  5
250
100
AcDbEntity
  8
0
100
AcDbLine
 62
7
  6
CONTINUOUS
 10
6.6566815748
 20
3.9249333615
 11
6.2841815748
 21
3.9249333615
  0
LINE
  5
251
100
AcDbEntity
  8
0
100
AcDbLine
 62
7
  6
CONTINUOUS
 10
7.3191812317
 20
3.9349333615
 11
6.9566815748
 21
3.9349333615
  0
LINE
  5
252
100
AcDbEntity
  8
0
100
AcDbLine
 62
7
  6
CONTINUOUS
 10
6.6566815748
 20
3.9349333615
 11
6.2941819179
 21
3.9349333615
  0
LINE
  5
253
100
AcDbEntity
  8
0
100
AcDbLine
 62
7
  6
CONTINUOUS
 10
6.3241815748
 20
3.9449333615
 11
6.6566815748
 21
3.9449333615
  0
LINE
  5
254
100
AcDbEntity
  8
0
100
AcDbLine
 62
7
  6
CONTINUOUS
 10
6.9566815748
 20
3.9449333615
 11
7.2891815748
 21
3.9449333615
  0
LINE
  5
255
100
AcDbEntity
  8
0
100
AcDbLine
 62
7
  6
CONTINUOUS
 10
7.2891815748
 20
3.9649333615
 11
6.9566815748
 21
3.9649333615
  0
LINE
  5
256
100
AcDbEntity
  8
0
100
AcDbLine
 62
7
  6
CONTINUOUS
 10
6.6566815748
 20
3.9649333615
 11
6.3241815748
 21
3.9649333615
  0
LINE
  5
257
100
AcDbEntity
  8
0
100
AcDbLine
 62
7
  6
CONTINUOUS
 10
7.2791815748
 20
3.9749333615
 11
6.9566815748
 21
3.9749333615
  0
LINE
  5
258
100
AcDbEntity
  8
0
100
AcDbLine
 62
7
  6
CONTINUOUS
 10
6.6566815748
 20
3.9749333615
 11
6.3341815748
 21
3.9749333615
  0
LINE
  5
259
100
AcDbEntity
  8
0
100
AcDbLine
 62
7
  6
CONTINUOUS
 10
7.1266815748
 20
4.0199333615
 11
6.9566815748
 21
4.0199333615
  0
LINE
  5
25A
100
AcDbEntity
  8
0
100
AcDbLine
 62
7
  6
CONTINUOUS
 10
6.6566815748
 20
4.0199333615
 11
6.4866815748
 21
4.0199333615
  0
LINE
  5
25B
100
AcDbEntity
  8
0
100
AcDbLine
 62
7
  6
CONTINUOUS
 10
7.1116815748
 20
4.0349333615
 11
6.9566815748
 21
4.0349333615
  0
LINE
  5
25C
100
AcDbEntity
  8
0
100
AcDbLine
 62
7
  6
CONTINUOUS
 10
6.6566815748
 20
4.0349333615
 11
6.5016815748
 21
4.0349333615
  0
LINE
  5
25D
100
AcDbEntity
  8
0
100
AcDbLine
 62
7
  6
CONTINUOUS
 10
6.5216815748
 20
4.0424333615
 11
6.6566815748
 21
4.0424333615
  0
LINE
  5
25E
100
AcDbEntity
  8
0
100
AcDbLine
 62
7
  6
CONTINUOUS
 10
6.9566815748
 20
4.0424333615
 11
7.0916815748
 21
4.0424333615
  0
LINE
  5
25F
100
AcDbEntity
  8
0
100
AcDbLine
 62
7
  6
CONTINUOUS
 10
6.6566815748
 20
4.3574137945
 11
6.9566815748
 21
4.3574137945
  0
LINE
  5
260
100
AcDbEntity
  8
0
100
AcDbLine
 62
7
  6
CONTINUOUS
 10
6.6616815748
 20
4.3624137945
 11
6.9516815748
 21
4.3624137945
  0
LINE
  5
261
100
AcDbEntity
  8
0
100
AcDbLine
 62
7
  6
CONTINUOUS
 10
3.3045927214
 20
4.9310855006
 11
3.207318064
 21
4.9459706148
  0
LINE
  5
262
100
AcDbEntity
  8
0
100
AcDbLine
 62
7
  6
CONTINUOUS
 10
3.2007681489
 20
4.9469728927
 11
3.1673066485
 21
4.9520932218
  0
LINE
  5
263
100
AcDbEntity
  8
0
100
AcDbLine
 62
7
  6
CONTINUOUS
 10
3.0851602987
 20
4.9646633797
 11
3.0652197944
 21
4.9677147056
  0
LINE
  5
264
100
AcDbEntity
  8
0
100
AcDbLine
 62
7
  6
CONTINUOUS
 10
3.0388623729
 20
4.9717479579
 11
3.0054008726
 21
4.9768682869
  0
LINE
  5
265
100
AcDbEntity
  8
0
100
AcDbLine
 62
7
  6
CONTINUOUS
 10
2.9988509574
 20
4.9778705648
 11
2.9015763001
 21
4.9927556791
  0
LINE
  5
266
100
AcDbEntity
  8
0
100
AcDbLine
 62
7
  6
CONTINUOUS
 10
3.1210087227
 20
4.9591778
 11
3.1409492271
 21
4.956126474
  0
LINE
  5
267
100
AcDbEntity
  8
0
100
AcDbLine
 62
7
  6
CONTINUOUS
 10
3.3974586651
 20
4.9254739547
 11
2.8112817903
 21
5.0151716211
  0
LINE
  5
268
100
AcDbEntity
  8
0
100
AcDbLine
 62
7
  6
CONTINUOUS
 10
2.7960633973
 20
5.0273638529
 11
3.4156266441
 21
4.9325573537
  0
LINE
  5
269
100
AcDbEntity
  8
0
100
AcDbLine
 62
7
  6
CONTINUOUS
 10
2.7804435944
 20
5.0674265756
 11
3.4425120783
 21
4.9661158612
  0
LINE
  5
26A
100
AcDbEntity
  8
0
100
AcDbLine
 62
7
  6
CONTINUOUS
 10
2.7793359426
 20
5.0774595606
 11
3.4465693162
 21
4.975358507
  0
LINE
  5
26B
100
AcDbEntity
  8
0
100
AcDbLine
 62
7
  6
CONTINUOUS
 10
7.0285810633
 20
2.3721261846
 11
7.0341285505
 21
2.3638060051
  0
LINE
  5
26C
100
AcDbEntity
  8
0
100
AcDbLine
 62
7
  6
CONTINUOUS
 10
2.8434770663
 20
5.4528375712
 11
2.8293440941
 21
5.4550002198
  0
LINE
  5
26D
100
AcDbEntity
  8
0
100
AcDbLine
 62
7
  6
CONTINUOUS
 10
2.8705518201
 20
5.5407537957
 11
2.8702576432
 21
5.5407988106
  0
LINE
  5
26E
100
AcDbEntity
  8
0
100
AcDbLine
 62
7
  6
CONTINUOUS
 10
2.8728207324
 20
5.555581204
 11
2.8725265556
 21
5.5556262194
  0
LINE
  5
26F
100
AcDbEntity
  8
0
100
AcDbLine
 62
7
  6
CONTINUOUS
 10
7.0213898738
 20
2.3208756232
 11
7.0262696079
 21
2.3121470382
  0
LINE
  5
270
100
AcDbEntity
  8
0
100
AcDbLine
 62
7
  6
CONTINUOUS
 10
6.2456579527
 20
0.9055632827
 11
6.2456579527
 21
0.6252876922
  0
LINE
  5
271
100
AcDbEntity
  8
0
100
AcDbLine
 62
7
  6
CONTINUOUS
 10
2.8732754606
 20
5.6475708649
 11
2.8591424757
 21
5.6497335155
  0
LINE
  5
272
100
AcDbEntity
  8
0
100
AcDbLine
 62
7
  6
CONTINUOUS
 10
6.2841815748
 20
3.7699333615
 11
6.2841815748
 21
3.9249333615
  0
LINE
  5
273
100
AcDbEntity
  8
0
100
AcDbLine
 62
7
  6
CONTINUOUS
 10
6.2850280315
 20
0.9449333615
 11
6.2850280315
 21
0.9355632827
  0
LINE
  5
274
100
AcDbEntity
  8
0
100
AcDbLine
 62
7
  6
CONTINUOUS
 10
6.3241815748
 20
3.9449333615
 11
6.3241815748
 21
3.9649333615
  0
LINE
  5
275
100
AcDbEntity
  8
0
100
AcDbLine
 62
7
  6
CONTINUOUS
 10
6.3316815748
 20
0.9599333615
 11
6.3316815748
 21
3.7449333615
  0
LINE
  5
276
100
AcDbEntity
  8
0
100
AcDbLine
 62
7
  6
CONTINUOUS
 10
6.4866815748
 20
3.9749333615
 11
6.4866815748
 21
4.0199333615
  0
LINE
  5
277
100
AcDbEntity
  8
0
100
AcDbLine
 62
7
  6
CONTINUOUS
 10
6.5216815748
 20
4.0424333615
 11
6.5216815748
 21
6.0261952431
  0
LINE
  5
278
100
AcDbEntity
  8
0
100
AcDbLine
 62
7
  6
CONTINUOUS
 10
2.927425378
 20
6.0452283548
 11
3.5946587516
 21
5.9431273011
  0
LINE
  5
279
100
AcDbEntity
  8
0
100
AcDbLine
 62
7
  6
CONTINUOUS
 10
2.9397011233
 20
6.0731932831
 11
3.5913073947
 21
5.9734835121
  0
LINE
  5
27A
100
AcDbEntity
  8
0
100
AcDbLine
 62
7
  6
CONTINUOUS
 10
2.9884175344
 20
6.1340013041
 11
3.5630043093
 21
6.0460771722
  0
LINE
  5
27B
100
AcDbEntity
  8
0
100
AcDbLine
 62
7
  6
CONTINUOUS
 10
2.9992074913
 20
6.1407995687
 11
3.5547410557
 21
6.0557909877
  0
LINE
  5
27C
100
AcDbEntity
  8
0
100
AcDbLine
 62
7
  6
CONTINUOUS
 10
3.5600409287
 20
6.0639814239
 11
2.9965994133
 21
6.1502000915
  0
LINE
  5
27D
100
AcDbEntity
  8
0
100
AcDbLine
 62
7
  6
CONTINUOUS
 10
6.5766815748
 20
2.8770987158
 11
6.5766815748
 21
2.5327680071
  0
LINE
  5
27E
100
AcDbEntity
  8
0
100
AcDbLine
 62
7
  6
CONTINUOUS
 10
6.6166815748
 20
2.9164687945
 11
6.6166815748
 21
2.8870987158
  0
LINE
  5
27F
100
AcDbEntity
  8
0
100
AcDbLine
 62
7
  6
CONTINUOUS
 10
6.6166815748
 20
2.5227680071
 11
6.6166815748
 21
2.4933979284
  0
LINE
  5
280
100
AcDbEntity
  8
0
100
AcDbLine
 62
7
  6
CONTINUOUS
 10
6.6566815748
 20
2.2434137945
 11
6.6566815748
 21
2.4833979284
  0
LINE
  5
281
100
AcDbEntity
  8
0
100
AcDbLine
 62
7
  6
CONTINUOUS
 10
6.6566815748
 20
2.9264687945
 11
6.6566815748
 21
4.3574137945
  0
LINE
  5
282
100
AcDbEntity
  8
0
100
AcDbLine
 62
7
  6
CONTINUOUS
 10
6.5216815748
 20
6.0261952431
 11
7.0916815748
 21
6.0261952431
  0
LINE
  5
283
100
AcDbEntity
  8
0
100
AcDbLine
 62
7
  6
CONTINUOUS
 10
3.5834929099
 20
6.2500752749
 11
3.024960817
 21
6.3355426952
  0
LINE
  5
284
100
AcDbEntity
  8
0
100
AcDbLine
 62
7
  6
CONTINUOUS
 10
6.9566815748
 20
2.2434137945
 11
6.9566815748
 21
2.4833979284
  0
LINE
  5
285
100
AcDbEntity
  8
0
100
AcDbLine
 62
7
  6
CONTINUOUS
 10
6.9566815748
 20
2.9264687945
 11
6.9566815748
 21
4.3574137945
  0
LINE
  5
286
100
AcDbEntity
  8
0
100
AcDbLine
 62
7
  6
CONTINUOUS
 10
6.9966815748
 20
2.9164687945
 11
6.9966815748
 21
2.8870987158
  0
LINE
  5
287
100
AcDbEntity
  8
0
100
AcDbLine
 62
7
  6
CONTINUOUS
 10
6.9966815748
 20
2.5227680071
 11
6.9966815748
 21
2.4933979284
  0
LINE
  5
288
100
AcDbEntity
  8
0
100
AcDbLine
 62
7
  6
CONTINUOUS
 10
7.0366815748
 20
2.8770987158
 11
7.0366815748
 21
2.5327680071
  0
LINE
  5
289
100
AcDbEntity
  8
0
100
AcDbLine
 62
7
  6
CONTINUOUS
 10
7.0916815748
 20
4.0424333615
 11
7.0916815748
 21
6.0261952431
  0
LINE
  5
28A
100
AcDbEntity
  8
0
100
AcDbLine
 62
7
  6
CONTINUOUS
 10
7.1266815748
 20
3.9749333615
 11
7.1266815748
 21
4.0199333615
  0
LINE
  5
28B
100
AcDbEntity
  8
0
100
AcDbLine
 62
7
  6
CONTINUOUS
 10
7.2816815748
 20
0.9599333615
 11
7.2816815748
 21
3.7449333615
  0
LINE
  5
28C
100
AcDbEntity
  8
0
100
AcDbLine
 62
7
  6
CONTINUOUS
 10
7.2891815748
 20
3.9449333615
 11
7.2891815748
 21
3.9649333615
  0
LINE
  5
28D
100
AcDbEntity
  8
0
100
AcDbLine
 62
7
  6
CONTINUOUS
 10
7.3283351181
 20
0.9449333615
 11
7.3283351181
 21
0.9355632827
  0
LINE
  5
28E
100
AcDbEntity
  8
0
100
AcDbLine
 62
7
  6
CONTINUOUS
 10
7.3291815748
 20
3.7699333615
 11
7.3291815748
 21
3.9249333615
  0
LINE
  5
28F
100
AcDbEntity
  8
0
100
AcDbLine
 62
7
  6
CONTINUOUS
 10
7.3677051968
 20
0.9055632827
 11
7.3677051968
 21
0.6252876922
  0
LINE
  5
290
100
AcDbEntity
  8
0
100
AcDbLine
 62
7
  6
CONTINUOUS
 10
6.5870935417
 20
2.3121470382
 11
6.5919732758
 21
2.3208756232
  0
LINE
  5
291
100
AcDbEntity
  8
0
100
AcDbLine
 62
7
  6
CONTINUOUS
 10
6.5792345991
 20
2.3638060051
 11
6.5847820863
 21
2.3721261846
  0
ARC
  5
292
100
AcDbEntity
  8
0
100
AcDbCircle
 62
7
  6
CONTINUOUS
 10
2.4442257694
 20
5.6367808942
 40
0.4398993583
100
AcDbArc
 50
332.2725730721
 51
332.7628240865
  0
ARC
  5
293
100
AcDbEntity
  8
0
100
AcDbCircle
 62
7
  6
CONTINUOUS
 10
3.0948011379
 20
5.5140261284
 40
0.285
100
AcDbArc
 50
153.9893829162
 51
188.6106170838
  0
ARC
  5
294
100
AcDbEntity
  8
0
100
AcDbCircle
 62
7
  6
CONTINUOUS
 10
3.862489555
 20
6.2076083713
 40
0.2822110354
100
AcDbArc
 50
171.3452719434
 51
182.0672864475
  0
ARC
  5
295
100
AcDbEntity
  8
0
100
AcDbCircle
 62
7
  6
CONTINUOUS
 10
2.9857465173
 20
6.0363039664
 40
0.059
100
AcDbArc
 50
141.3
 51
171.3
  0
ARC
  5
296
100
AcDbEntity
  8
0
100
AcDbCircle
 62
7
  6
CONTINUOUS
 10
3.5363376122
 20
5.9520516895
 40
0.059
100
AcDbArc
 50
351.3
 51
21.3
  0
ARC
  5
297
100
AcDbEntity
  8
0
100
AcDbCircle
 62
7
  6
CONTINUOUS
 10
3.0036359273
 20
6.1218090723
 40
0.0195
100
AcDbArc
 50
103.1263543347
 51
141.3
  0
ARC
  5
298
100
AcDbEntity
  8
0
100
AcDbCircle
 62
7
  6
CONTINUOUS
 10
2.7986115734
 20
5.0745099746
 40
0.0195
100
AcDbArc
 50
171.3
 51
201.3
  0
ARC
  5
299
100
AcDbEntity
  8
0
100
AcDbCircle
 62
7
  6
CONTINUOUS
 10
2.8142313763
 20
5.0344472519
 40
0.0195
100
AcDbArc
 50
201.3
 51
261.3
  0
ARC
  5
29A
100
AcDbEntity
  8
0
100
AcDbCircle
 62
7
  6
CONTINUOUS
 10
3.5448363304
 20
6.0389937732
 40
0.0195
100
AcDbArc
 50
21.3
 51
59.4736456653
  0
ARC
  5
29B
100
AcDbEntity
  8
0
100
AcDbCircle
 62
7
  6
CONTINUOUS
 10
3.4272936854
 20
4.978308093
 40
0.0195
100
AcDbArc
 50
321.3
 51
351.3
  0
ARC
  5
29C
100
AcDbEntity
  8
0
100
AcDbCircle
 62
7
  6
CONTINUOUS
 10
3.4004082511
 20
4.9447495854
 40
0.0195
100
AcDbArc
 50
261.3
 51
321.3
  0
ARC
  5
29D
100
AcDbEntity
  8
0
100
AcDbCircle
 62
7
  6
CONTINUOUS
 10
2.8322936801
 20
5.4742758506
 40
0.0195
100
AcDbArc
 50
188.6106170838
 51
261.3
  0
ARC
  5
29E
100
AcDbEntity
  8
0
100
AcDbCircle
 62
7
  6
CONTINUOUS
 10
2.8561928897
 20
5.6304578847
 40
0.0195
100
AcDbArc
 50
81.3
 51
153.9893829162
  0
ARC
  5
29F
100
AcDbEntity
  8
0
100
AcDbCircle
 62
7
  6
CONTINUOUS
 10
2.8749991466
 20
5.6695626543
 40
0.0049999768
100
AcDbArc
 50
171.3000000008
 51
189.9915719674
  0
ARC
  5
2A0
100
AcDbEntity
  8
0
100
AcDbCircle
 62
7
  6
CONTINUOUS
 10
6.3000280315
 20
0.9449333615
 40
0.015
100
AcDbArc
 50
90.0
 51
180.0
  0
ARC
  5
2A1
100
AcDbEntity
  8
0
100
AcDbCircle
 62
7
  6
CONTINUOUS
 10
6.2606579527
 20
0.9055632827
 40
0.015
100
AcDbArc
 50
90.0
 51
180.0
  0
ARC
  5
2A2
100
AcDbEntity
  8
0
100
AcDbCircle
 62
7
  6
CONTINUOUS
 10
6.2700280315
 20
0.9355632827
 40
0.015
100
AcDbArc
 50
270.0
 51
360.0
  0
ARC
  5
2A3
100
AcDbEntity
  8
0
100
AcDbCircle
 62
7
  6
CONTINUOUS
 10
6.1160816376
 20
2.0697134751
 40
0.9395027553
100
AcDbArc
 50
15.5057564981
 51
17.567493057
  0
ARC
  5
2A4
100
AcDbEntity
  8
0
100
AcDbCircle
 62
7
  6
CONTINUOUS
 10
6.1092378567
 20
2.0762941942
 40
0.9358032113
100
AcDbArc
 50
15.0053180241
 51
17.4970104725
  0
ARC
  5
2A5
100
AcDbEntity
  8
0
100
AcDbCircle
 62
7
  6
CONTINUOUS
 10
6.6516815748
 20
2.4833979284
 40
0.005
100
AcDbArc
 50
0.0
 51
89.9999999884
  0
ARC
  5
2A6
100
AcDbEntity
  8
0
100
AcDbCircle
 62
7
  6
CONTINUOUS
 10
6.6616815748
 20
2.2434137945
 40
0.005
100
AcDbArc
 50
180.0
 51
270.0
  0
ARC
  5
2A7
100
AcDbEntity
  8
0
100
AcDbCircle
 62
7
  6
CONTINUOUS
 10
6.6216815748
 20
2.4933979284
 40
0.005
100
AcDbArc
 50
180.0
 51
270.0
  0
ARC
  5
2A8
100
AcDbEntity
  8
0
100
AcDbCircle
 62
7
  6
CONTINUOUS
 10
6.5816815748
 20
2.5327680071
 40
0.005
100
AcDbArc
 50
180.0
 51
270.0
  0
ARC
  5
2A9
100
AcDbEntity
  8
0
100
AcDbCircle
 62
7
  6
CONTINUOUS
 10
6.6116815748
 20
2.5227680071
 40
0.005
100
AcDbArc
 50
0.0
 51
90.0
  0
ARC
  5
2AA
100
AcDbEntity
  8
0
100
AcDbCircle
 62
7
  6
CONTINUOUS
 10
6.5816815748
 20
2.8770987158
 40
0.005
100
AcDbArc
 50
90.0
 51
180.0
  0
ARC
  5
2AB
100
AcDbEntity
  8
0
100
AcDbCircle
 62
7
  6
CONTINUOUS
 10
6.6516815748
 20
2.9264687945
 40
0.005
100
AcDbArc
 50
270.0000000314
 51
360.0
  0
ARC
  5
2AC
100
AcDbEntity
  8
0
100
AcDbCircle
 62
7
  6
CONTINUOUS
 10
6.6116815748
 20
2.8870987158
 40
0.005
100
AcDbArc
 50
270.0
 51
360.0
  0
ARC
  5
2AD
100
AcDbEntity
  8
0
100
AcDbCircle
 62
7
  6
CONTINUOUS
 10
6.6216815748
 20
2.9164687945
 40
0.005
100
AcDbArc
 50
90.0
 51
180.0
  0
ARC
  5
2AE
100
AcDbEntity
  8
0
100
AcDbCircle
 62
7
  6
CONTINUOUS
 10
6.8066815748
 20
2.7049333615
 40
0.45
100
AcDbArc
 50
289.4717301722
 51
70.5273219968
  0
ARC
  5
2AF
100
AcDbEntity
  8
0
100
AcDbCircle
 62
7
  6
CONTINUOUS
 10
6.8066815748
 20
2.7049333615
 40
0.45
100
AcDbArc
 50
109.4726780032
 51
250.5282665884
  0
ARC
  5
2B0
100
AcDbEntity
  8
0
100
AcDbCircle
 62
7
  6
CONTINUOUS
 10
6.8066815748
 20
2.7049333615
 40
0.44
100
AcDbArc
 50
299.2074663017
 51
70.0668781745
  0
ARC
  5
2B1
100
AcDbEntity
  8
0
100
AcDbCircle
 62
7
  6
CONTINUOUS
 10
6.8066815748
 20
2.7049333615
 40
0.44
100
AcDbArc
 50
109.9331217933
 51
240.7925336983
  0
ARC
  5
2B2
100
AcDbEntity
  8
0
100
AcDbCircle
 62
7
  6
CONTINUOUS
 10
6.8066815748
 20
2.7049333615
 40
0.41
100
AcDbArc
 50
111.4619953332
 51
238.5342951909
  0
ARC
  5
2B3
100
AcDbEntity
  8
0
100
AcDbCircle
 62
7
  6
CONTINUOUS
 10
6.8066815748
 20
2.7049333615
 40
0.41
100
AcDbArc
 50
301.4657048905
 51
68.5380046668
  0
ARC
  5
2B4
100
AcDbEntity
  8
0
100
AcDbCircle
 62
7
  6
CONTINUOUS
 10
6.8072621794
 20
2.6608514475
 40
0.4000127764
100
AcDbArc
 50
238.8312400261
 51
247.8833753908
  0
ARC
  5
2B5
100
AcDbEntity
  8
0
100
AcDbCircle
 62
7
  6
CONTINUOUS
 10
6.8066815748
 20
2.7049333615
 40
0.4
100
AcDbArc
 50
303.6934090694
 51
67.974904985
  0
ARC
  5
2B6
100
AcDbEntity
  8
0
100
AcDbCircle
 62
7
  6
CONTINUOUS
 10
6.8066815748
 20
2.7049333615
 40
0.4
100
AcDbArc
 50
112.0250950116
 51
236.3065909306
  0
ARC
  5
2B7
100
AcDbEntity
  8
0
100
AcDbCircle
 62
7
  6
CONTINUOUS
 10
6.8062516396
 20
2.6605425175
 40
0.3996705753
100
AcDbArc
 50
292.1132924297
 51
301.173199785
  0
ARC
  5
2B8
100
AcDbEntity
  8
0
100
AcDbCircle
 62
7
  6
CONTINUOUS
 10
6.8078628066
 20
2.668039027
 40
0.3672239952
100
AcDbArc
 50
234.250840471
 51
237.6969402749
  0
ARC
  5
2B9
100
AcDbEntity
  8
0
100
AcDbCircle
 62
7
  6
CONTINUOUS
 10
6.8060231933
 20
2.6672646309
 40
0.366290041
100
AcDbArc
 50
302.2986650198
 51
305.7535542343
  0
ARC
  5
2BA
100
AcDbEntity
  8
0
100
AcDbCircle
 62
7
  6
CONTINUOUS
 10
6.7934849409
 20
2.5352991459
 40
0.1850032861
100
AcDbArc
 50
331.9169323307
 51
345.3108325088
  0
ARC
  5
2BB
100
AcDbEntity
  8
0
100
AcDbCircle
 62
7
  6
CONTINUOUS
 10
6.8066815748
 20
2.5386833615
 40
0.16875
100
AcDbArc
 50
332.7550742884
 51
342.6661272379
  0
ARC
  5
2BC
100
AcDbEntity
  8
0
100
AcDbCircle
 62
7
  6
CONTINUOUS
 10
6.8066815748
 20
2.5386833615
 40
0.16875
100
AcDbArc
 50
197.3340266746
 51
207.244201202
  0
ARC
  5
2BD
100
AcDbEntity
  8
0
100
AcDbCircle
 62
7
  6
CONTINUOUS
 10
7.3133351181
 20
0.9449333615
 40
0.015
100
AcDbArc
 50
0.0
 51
90.0
  0
ARC
  5
2BE
100
AcDbEntity
  8
0
100
AcDbCircle
 62
7
  6
CONTINUOUS
 10
7.3527051968
 20
0.9055632827
 40
0.015
100
AcDbArc
 50
0.0
 51
90.0
  0
ARC
  5
2BF
100
AcDbEntity
  8
0
100
AcDbCircle
 62
7
  6
CONTINUOUS
 10
7.3433351181
 20
0.9355632827
 40
0.015
100
AcDbArc
 50
180.0
 51
270.0
  0
ARC
  5
2C0
100
AcDbEntity
  8
0
100
AcDbCircle
 62
7
  6
CONTINUOUS
 10
7.5239161083
 20
2.0705252612
 40
0.9564129275
100
AcDbArc
 50
162.5298403306
 51
164.967831174
  0
ARC
  5
2C1
100
AcDbEntity
  8
0
100
AcDbCircle
 62
7
  6
CONTINUOUS
 10
7.4967084267
 20
2.069892804
 40
0.9389025875
100
AcDbArc
 50
162.4323935989
 51
164.4954393379
  0
ARC
  5
2C2
100
AcDbEntity
  8
0
100
AcDbCircle
 62
7
  6
CONTINUOUS
 10
6.8202156427
 20
2.5354353064
 40
0.1853654772
100
AcDbArc
 50
194.7034228788
 51
208.0711618664
  0
ARC
  5
2C3
100
AcDbEntity
  8
0
100
AcDbCircle
 62
7
  6
CONTINUOUS
 10
7.0316815748
 20
2.8770987158
 40
0.005
100
AcDbArc
 50
0.0
 51
90.0
  0
ARC
  5
2C4
100
AcDbEntity
  8
0
100
AcDbCircle
 62
7
  6
CONTINUOUS
 10
7.0316815748
 20
2.5327680071
 40
0.005
100
AcDbArc
 50
270.0
 51
360.0
  0
ARC
  5
2C5
100
AcDbEntity
  8
0
100
AcDbCircle
 62
7
  6
CONTINUOUS
 10
7.0016815748
 20
2.5227680071
 40
0.005
100
AcDbArc
 50
90.0
 51
180.0
  0
ARC
  5
2C6
100
AcDbEntity
  8
0
100
AcDbCircle
 62
7
  6
CONTINUOUS
 10
6.9916815748
 20
2.4933979284
 40
0.005
100
AcDbArc
 50
270.0
 51
360.0
  0
ARC
  5
2C7
100
AcDbEntity
  8
0
100
AcDbCircle
 62
7
  6
CONTINUOUS
 10
6.9616815748
 20
2.9264687945
 40
0.005
100
AcDbArc
 50
180.0
 51
269.9999999686
  0
ARC
  5
2C8
100
AcDbEntity
  8
0
100
AcDbCircle
 62
7
  6
CONTINUOUS
 10
6.9616815748
 20
2.4833979284
 40
0.005
100
AcDbArc
 50
90.0000000116
 51
180.0
  0
ARC
  5
2C9
100
AcDbEntity
  8
0
100
AcDbCircle
 62
7
  6
CONTINUOUS
 10
6.9516815748
 20
2.2434137945
 40
0.005
100
AcDbArc
 50
270.0
 51
360.0
  0
ARC
  5
2CA
100
AcDbEntity
  8
0
100
AcDbCircle
 62
7
  6
CONTINUOUS
 10
7.0016815748
 20
2.8870987158
 40
0.005
100
AcDbArc
 50
180.0
 51
270.0
  0
ARC
  5
2CB
100
AcDbEntity
  8
0
100
AcDbCircle
 62
7
  6
CONTINUOUS
 10
6.9916815748
 20
2.9164687945
 40
0.005
100
AcDbArc
 50
0.0
 51
90.0
  0
ARC
  5
2CC
100
AcDbEntity
  8
0
100
AcDbCircle
 62
7
  6
CONTINUOUS
 10
5.0465554697
 20
6.0261952431
 40
2.0451261051
100
AcDbArc
 50
0.0
 51
171.3
  0
ARC
  5
2CD
100
AcDbEntity
  8
0
100
AcDbCircle
 62
7
  6
CONTINUOUS
 10
5.0465554659
 20
6.0261952023
 40
1.4751261089
100
AcDbArc
 50
0.0000015831
 51
169.2604007164
  0
ARC
  5
2CE
100
AcDbEntity
  8
0
100
AcDbCircle
 62
7
  6
CONTINUOUS
 10
6.5016815748
 20
4.0199333615
 40
0.015
100
AcDbArc
 50
90.0
 51
180.0
  0
ARC
  5
2CF
100
AcDbEntity
  8
0
100
AcDbCircle
 62
7
  6
CONTINUOUS
 10
7.1116815748
 20
4.0199333615
 40
0.015
100
AcDbArc
 50
0.0
 51
90.0
  0
ARC
  5
2D0
100
AcDbEntity
  8
0
100
AcDbCircle
 62
7
  6
CONTINUOUS
 10
6.3466815748
 20
3.7449333615
 40
0.015
100
AcDbArc
 50
90.0
 51
180.0
  0
ARC
  5
2D1
100
AcDbEntity
  8
0
100
AcDbCircle
 62
7
  6
CONTINUOUS
 10
7.2666815748
 20
3.7449333615
 40
0.015
100
AcDbArc
 50
0.0
 51
90.0
  0
ARC
  5
2D2
100
AcDbEntity
  8
0
100
AcDbCircle
 62
7
  6
CONTINUOUS
 10
7.3191815748
 20
3.7699333615
 40
0.01
100
AcDbArc
 50
270.0
 51
360.0
  0
ARC
  5
2D3
100
AcDbEntity
  8
0
100
AcDbCircle
 62
7
  6
CONTINUOUS
 10
6.2941815748
 20
3.7699333615
 40
0.01
100
AcDbArc
 50
180.0
 51
270.0
  0
ARC
  5
2D4
100
AcDbEntity
  8
0
100
AcDbCircle
 62
7
  6
CONTINUOUS
 10
7.3191815748
 20
3.9249333615
 40
0.01
100
AcDbArc
 50
0.0
 51
90.0
  0
ARC
  5
2D5
100
AcDbEntity
  8
0
100
AcDbCircle
 62
7
  6
CONTINUOUS
 10
6.2941815748
 20
3.9249333615
 40
0.01
100
AcDbArc
 50
90.0
 51
180.0
  0
ARC
  5
2D6
100
AcDbEntity
  8
0
100
AcDbCircle
 62
7
  6
CONTINUOUS
 10
7.2991815748
 20
3.9449333615
 40
0.01
100
AcDbArc
 50
180.0
 51
270.0
  0
ARC
  5
2D7
100
AcDbEntity
  8
0
100
AcDbCircle
 62
7
  6
CONTINUOUS
 10
6.3141815748
 20
3.9449333615
 40
0.01
100
AcDbArc
 50
270.0
 51
360.0
  0
ARC
  5
2D8
100
AcDbEntity
  8
0
100
AcDbCircle
 62
7
  6
CONTINUOUS
 10
7.2791815748
 20
3.9649333615
 40
0.01
100
AcDbArc
 50
0.0
 51
90.0
  0
ARC
  5
2D9
100
AcDbEntity
  8
0
100
AcDbCircle
 62
7
  6
CONTINUOUS
 10
6.3341815748
 20
3.9649333615
 40
0.01
100
AcDbArc
 50
90.0
 51
180.0
  0
ARC
  5
2DA
100
AcDbEntity
  8
0
100
AcDbCircle
 62
7
  6
CONTINUOUS
 10
6.6616815748
 20
4.3574137945
 40
0.005
100
AcDbArc
 50
90.0
 51
180.0
  0
ARC
  5
2DB
100
AcDbEntity
  8
0
100
AcDbCircle
 62
7
  6
CONTINUOUS
 10
6.9516815748
 20
4.3574137945
 40
0.005
100
AcDbArc
 50
0.0
 51
90.0
  0
SPLINE
  5
2DC
100
AcDbEntity
  8
0
100
AcDbSpline
 62
7
  6
CONTINUOUS
 70
0
 71
3
 72
15
 73
11
 74
0
 42
0.0000001
 43
0.0000001
 44
0.0000000001
 40
0.0
 40
0.0
 40
0.0
 40
0.0
 40
0.1940740416
 40
0.3806909621
 40
0.5528413165
 40
0.7041727114
 40
0.8290282617
 40
0.9224483137
 40
0.9803617688
 40
1.0
 40
1.0
 40
1.0
 40
1.0
 10
3.5834929099
 20
6.2500752749
 30
0.0
 10
3.5840109048
 20
6.2534603869
 30
0.0
 10
3.585173462
 20
6.2600790895
 30
0.0
 10
3.5872736111
 20
6.2696082402
 30
0.0
 10
3.5895628998
 20
6.2783154624
 30
0.0
 10
3.5918470373
 20
6.285891147
 30
0.0
 10
3.5939170135
 20
6.2920766448
 30
0.0
 10
3.5955724573
 20
6.2966606818
 30
0.0
 10
3.5966434615
 20
6.2994811322
 30
0.0
 10
3.597140661
 20
6.3007560468
 30
0.0
 10
3.5972673109
 20
6.3010785977
 30
0.0
  0
SPLINE
  5
2DD
100
AcDbEntity
  8
0
100
AcDbSpline
 62
7
  6
CONTINUOUS
 70
0
 71
3
 72
14
 73
10
 74
0
 42
0.0000001
 43
0.0000001
 44
0.0000000001
 40
0.0
 40
0.0
 40
0.0
 40
0.0
 40
0.2499850204
 40
0.3749873513
 40
0.4999888225
 40
0.6249878923
 40
0.7499862905
 40
0.8749918794
 40
1.0
 40
1.0
 40
1.0
 40
1.0
 10
6.593316682
 20
2.3700064397
 30
0.0
 10
6.5957324735
 20
2.3800576967
 30
0.0
 10
6.5995697946
 20
2.3950851717
 30
0.0
 10
6.6051510154
 20
2.4149940566
 30
0.0
 10
6.6095787545
 20
2.4298565865
 30
0.0
 10
6.61425998
 20
2.4446410915
 30
0.0
 10
6.6192093245
 20
2.4593383309
 30
0.0
 10
6.6244396035
 20
2.4739383782
 30
0.0
 10
6.6281248077
 20
2.4835989572
 30
0.0
 10
6.6300203389
 20
2.4884082803
 30
0.0
  0
SPLINE
  5
2DE
100
AcDbEntity
  8
0
100
AcDbSpline
 62
7
  6
CONTINUOUS
 70
0
 71
3
 72
14
 73
10
 74
0
 42
0.0000001
 43
0.0000001
 44
0.0000000001
 40
0.0
 40
0.0
 40
0.0
 40
0.0
 40
0.1250081117
 40
0.2500135422
 40
0.3750118955
 40
0.5000110784
 40
0.6250126862
 40
0.750015053
 40
1.0
 40
1.0
 40
1.0
 40
1.0
 10
6.9833417078
 20
2.4884079917
 30
0.0
 10
6.985237518
 20
2.4835987726
 30
0.0
 10
6.9889234849
 20
2.4739384798
 30
0.0
 10
6.9941544288
 20
2.4593386549
 30
0.0
 10
6.9991036907
 20
2.4446413691
 30
0.0
 10
7.0037845579
 20
2.4298567227
 30
0.0
 10
7.0082120353
 20
2.4149940853
 30
0.0
 10
7.0137932371
 20
2.3950851678
 30
0.0
 10
7.0176306786
 20
2.3800577064
 30
0.0
 10
7.0200464676
 20
2.3700064397
 30
0.0
  0
SPLINE
  5
2DF
100
AcDbEntity
  8
0
100
AcDbSpline
 62
7
  6
CONTINUOUS
 70
0
 71
3
 72
18
 73
14
 74
0
 42
0.0000001
 43
0.0000001
 44
0.0000000001
 40
0.0
 40
0.0
 40
0.0
 40
0.0
 40
0.0574238101
 40
0.1151422949
 40
0.1733315651
 40
0.2322247806
 40
0.2919859487
 40
0.3527192399
 40
0.4770502738
 40
0.6051945489
 40
0.7361350511
 40
0.8683182446
 40
1.0
 40
1.0
 40
1.0
 40
1.0
 10
6.5792345991
 20
2.3638060051
 30
0.0
 10
6.5795158515
 20
2.3636184798
 30
0.0
 10
6.5801060746
 20
2.3632803046
 30
0.0
 10
6.581054061
 20
2.36289513
 30
0.0
 10
6.5820532561
 20
2.3626368898
 30
0.0
 10
6.5830892471
 20
2.3625090404
 30
0.0
 10
6.5841480664
 20
2.3625129126
 30
0.0
 10
6.5855808093
 20
2.3626948369
 30
0.0
 10
6.5873563084
 20
2.3632546299
 30
0.0
 10
6.5893213531
 20
2.3643989694
 30
0.0
 10
6.5910391318
 20
2.3659582164
 30
0.0
 10
6.5924186713
 20
2.3678472376
 30
0.0
 10
6.5930694366
 20
2.3692717569
 30
0.0
 10
6.593316682
 20
2.3700064397
 30
0.0
  0
SPLINE
  5
2E0
100
AcDbEntity
  8
0
100
AcDbSpline
 62
7
  6
CONTINUOUS
 70
0
 71
3
 72
11
 73
7
 74
0
 42
0.0000001
 43
0.0000001
 44
0.0000000001
 40
0.0
 40
0.0
 40
0.0
 40
0.0
 40
0.2499507596
 40
0.4999366632
 40
0.7499696747
 40
1.0
 40
1.0
 40
1.0
 40
1.0
 10
6.6015948777
 20
2.3532826473
 30
0.0
 10
6.6008279474
 20
2.3531661975
 30
0.0
 10
6.5992665284
 20
2.3530907776
 30
0.0
 10
6.5969492746
 20
2.3534083026
 30
0.0
 10
6.5947198358
 20
2.3541128442
 30
0.0
 10
6.593328314
 20
2.354817683
 30
0.0
 10
6.5926664502
 20
2.3552227289
 30
0.0
  0
SPLINE
  5
2E1
100
AcDbEntity
  8
0
100
AcDbSpline
 62
7
  6
CONTINUOUS
 70
0
 71
3
 72
11
 73
7
 74
0
 42
0.0000001
 43
0.0000001
 44
0.0000000001
 40
0.0
 40
0.0
 40
0.0
 40
0.0
 40
0.2253730781
 40
0.4693522454
 40
0.7293321891
 40
1.0
 40
1.0
 40
1.0
 40
1.0
 10
6.6116191457
 20
2.3576491052
 30
0.0
 10
6.6109758487
 20
2.3571247163
 30
0.0
 10
6.60955317
 20
2.3561322278
 30
0.0
 10
6.6071678939
 20
2.3548838391
 30
0.0
 10
6.6044915508
 20
2.3538768275
 30
0.0
 10
6.6025803317
 20
2.3534322772
 30
0.0
 10
6.6015948777
 20
2.3532826473
 30
0.0
  0
SPLINE
  5
2E2
100
AcDbEntity
  8
0
100
AcDbSpline
 62
7
  6
CONTINUOUS
 70
0
 71
3
 72
18
 73
14
 74
0
 42
0.0000001
 43
0.0000001
 44
0.0000000001
 40
0.0
 40
0.0
 40
0.0
 40
0.0
 40
0.0569128953
 40
0.1141241991
 40
0.1718257899
 40
0.2302583195
 40
0.2895975096
 40
0.3499620085
 40
0.4737969232
 40
0.6018586723
 40
0.7332635744
 40
0.8665534854
 40
1.0
 40
1.0
 40
1.0
 40
1.0
 10
6.5870935417
 20
2.3121470382
 30
0.0
 10
6.5873679707
 20
2.3119936181
 30
0.0
 10
6.5879391206
 20
2.3117217224
 30
0.0
 10
6.5888441818
 20
2.3114273552
 30
0.0
 10
6.5897878455
 20
2.3112497538
 30
0.0
 10
6.5907578768
 20
2.3111909982
 30
0.0
 10
6.5917425336
 20
2.31125147
 30
0.0
 10
6.5930689233
 20
2.3114918566
 30
0.0
 10
6.5947029943
 20
2.3120907655
 30
0.0
 10
6.5965057076
 20
2.3132286164
 30
0.0
 10
6.5980860365
 20
2.3147355274
 30
0.0
 10
6.599368826
 20
2.3165373933
 30
0.0
 10
6.5999885878
 20
2.3178856862
 30
0.0
 10
6.6002312873
 20
2.3185817855
 30
0.0
  0
SPLINE
  5
2E3
100
AcDbEntity
  8
0
100
AcDbSpline
 62
7
  6
CONTINUOUS
 70
0
 71
3
 72
18
 73
14
 74
0
 42
0.0000001
 43
0.0000001
 44
0.0000000001
 40
0.0
 40
0.0
 40
0.0
 40
0.0
 40
0.0569128733
 40
0.1141241571
 40
0.1718257708
 40
0.2302583195
 40
0.2895975201
 40
0.3499620293
 40
0.4737969555
 40
0.6018587038
 40
0.733263591
 40
0.8665534866
 40
1.0
 40
1.0
 40
1.0
 40
1.0
 10
7.0262696079
 20
2.3121470382
 30
0.0
 10
7.0259951789
 20
2.3119936181
 30
0.0
 10
7.0254240291
 20
2.3117217224
 30
0.0
 10
7.0245189679
 20
2.3114273554
 30
0.0
 10
7.023575304
 20
2.3112497537
 30
0.0
 10
7.0226052722
 20
2.3111909979
 30
0.0
 10
7.021620615
 20
2.3112514695
 30
0.0
 10
7.0202942249
 20
2.3114918557
 30
0.0
 10
7.0186601534
 20
2.3120907643
 30
0.0
 10
7.0168574392
 20
2.3132286147
 30
0.0
 10
7.0152771108
 20
2.3147355261
 30
0.0
 10
7.0139943177
 20
2.3165373903
 30
0.0
 10
7.0133745618
 20
2.3178856861
 30
0.0
 10
7.0131318623
 20
2.3185817855
 30
0.0
  0
SPLINE
  5
2E4
100
AcDbEntity
  8
0
100
AcDbSpline
 62
7
  6
CONTINUOUS
 70
0
 71
3
 72
18
 73
14
 74
0
 42
0.0000001
 43
0.0000001
 44
0.0000000001
 40
0.0
 40
0.0
 40
0.0
 40
0.0
 40
0.0574238084
 40
0.1151422916
 40
0.1733315638
 40
0.232224781
 40
0.29198595
 40
0.352719242
 40
0.4770502766
 40
0.6051945511
 40
0.7361350515
 40
0.868318243
 40
1.0
 40
1.0
 40
1.0
 40
1.0
 10
7.0341285505
 20
2.3638060051
 30
0.0
 10
7.0338472981
 20
2.3636184798
 30
0.0
 10
7.033257075
 20
2.3632803046
 30
0.0
 10
7.0323090886
 20
2.36289513
 30
0.0
 10
7.0313098935
 20
2.3626368898
 30
0.0
 10
7.0302739024
 20
2.3625090404
 30
0.0
 10
7.029215083
 20
2.3625129126
 30
0.0
 10
7.0277823401
 20
2.3626948368
 30
0.0
 10
7.026006841
 20
2.3632546298
 30
0.0
 10
7.0240417962
 20
2.3643989692
 30
0.0
 10
7.0223240175
 20
2.3659582162
 30
0.0
 10
7.0209444778
 20
2.3678472373
 30
0.0
 10
7.020293713
 20
2.3692717568
 30
0.0
 10
7.0200464676
 20
2.3700064397
 30
0.0
  0
SPLINE
  5
2E5
100
AcDbEntity
  8
0
100
AcDbSpline
 62
7
  6
CONTINUOUS
 70
0
 71
3
 72
11
 73
7
 74
0
 42
0.0000001
 43
0.0000001
 44
0.0000000001
 40
0.0
 40
0.0
 40
0.0
 40
0.0
 40
0.2253618471
 40
0.4693482098
 40
0.7293304591
 40
1.0
 40
1.0
 40
1.0
 40
1.0
 10
7.0017439267
 20
2.3576490801
 30
0.0
 10
7.0023871664
 20
2.3571247285
 30
0.0
 10
7.0038101257
 20
2.3561327763
 30
0.0
 10
7.0061950124
 20
2.3548839163
 30
0.0
 10
7.0088713607
 20
2.3538769797
 30
0.0
 10
7.0107825004
 20
2.3534323523
 30
0.0
 10
7.0117679243
 20
2.3532826958
 30
0.0
  0
SPLINE
  5
2E6
100
AcDbEntity
  8
0
100
AcDbSpline
 62
7
  6
CONTINUOUS
 70
0
 71
3
 72
79
 73
75
 74
0
 42
0.0000001
 43
0.0000001
 44
0.0000000001
 40
0.0
 40
0.0
 40
0.0
 40
0.0
 40
0.0166225318
 40
0.0330406451
 40
0.0492525504
 40
0.0652609928
 40
0.0810711919
 40
0.0966924191
 40
0.1121346907
 40
0.127411078
 40
0.1425344781
 40
0.1575199783
 40
0.1871330349
 40
0.2018007492
 40
0.2163971291
 40
0.2309428169
 40
0.2454586249
 40
0.2599684184
 40
0.2744999724
 40
0.2890837712
 40
0.3037573721
 40
0.3185632923
 40
0.3260324295
 40
0.3335546973
 40
0.3487927222
 40
0.3643519383
 40
0.3722753506
 40
0.380306401
 40
0.3884526909
 40
0.3967214001
 40
0.4051132959
 40
0.4136206554
 40
0.4222304188
 40
0.4309205108
 40
0.4396621982
 40
0.4484179747
 40
0.4571494933
 40
0.4658201874
 40
0.4744042586
 40
0.4828817315
 40
0.4912415519
 40
0.4994767973
 40
0.5075907799
 40
0.5155914886
 40
0.5234872136
 40
0.5312870589
 40
0.5466347524
 40
0.5617084249
 40
0.5765754513
 40
0.5839493914
 40
0.5912921788
 40
0.6059041891
 40
0.6204508082
 40
0.6349653199
 40
0.6494757659
 40
0.6640080977
 40
0.6785834344
 40
0.7079389824
 40
0.7227608077
 40
0.7376997784
 40
0.7679827092
 40
0.7989092743
 40
0.8305753733
 40
0.8467121717
 40
0.8630550439
 40
0.8796031818
 40
0.8963517464
 40
0.9132898205
 40
0.9304002845
 40
0.939014025
 40
0.9476610927
 40
0.9650378139
 40
0.982499025
 40
1.0
 40
1.0
 40
1.0
 40
1.0
 10
6.6566629899
 20
3.1766390764
 30
0.0
 10
6.6497255326
 20
3.1739435454
 30
0.0
 10
6.6360741494
 20
3.1682219191
 30
0.0
 10
6.6161949915
 20
3.1586539039
 30
0.0
 10
6.5970662738
 20
3.1482247318
 30
0.0
 10
6.5787085273
 20
3.1370064275
 30
0.0
 10
6.5611301442
 20
3.1250679446
 30
0.0
 10
6.5443342818
 20
3.1124704872
 30
0.0
 10
6.5283167963
 20
3.0992704296
 30
0.0
 10
6.5130712275
 20
3.0855172977
 30
0.0
 10
6.4985852403
 20
3.0712561573
 30
0.0
 10
6.4803434398
 20
3.051695607
 30
0.0
 10
6.4634671322
 20
3.031170893
 30
0.0
 10
6.4479837538
 20
3.0098285252
 30
0.0
 10
6.4370962998
 20
2.9935050866
 30
0.0
 10
6.4268889093
 20
2.9768284081
 30
0.0
 10
6.4173470611
 20
2.9598066661
 30
0.0
 10
6.4084600758
 20
2.9424412658
 30
0.0
 10
6.4002199249
 20
2.9247262758
 30
0.0
 10
6.3926169363
 20
2.9066490177
 30
0.0
 10
6.3856492868
 20
2.8881862738
 30
0.0
 10
6.3803845626
 20
2.872498221
 30
0.0
 10
6.3764945465
 20
2.8597354901
 30
0.0
 10
6.3727895247
 20
2.8467165277
 30
0.0
 10
6.368562036
 20
2.8300834509
 30
0.0
 10
6.3649365647
 20
2.8131249377
 30
0.0
 10
6.3623856551
 20
2.7992464683
 30
0.0
 10
6.3606403731
 20
2.7885967174
 30
0.0
 10
6.3590843526
 20
2.7777614433
 30
0.0
 10
6.3577292247
 20
2.766736361
 30
0.0
 10
6.3565842335
 20
2.7555249492
 30
0.0
 10
6.3556556042
 20
2.7441403267
 30
0.0
 10
6.3549523557
 20
2.7326057397
 30
0.0
 10
6.3544916357
 20
2.7209538427
 30
0.0
 10
6.354281667
 20
2.709229384
 30
0.0
 10
6.354314255
 20
2.6974845974
 30
0.0
 10
6.3545905639
 20
2.6857747387
 30
0.0
 10
6.3551181933
 20
2.6741504529
 30
0.0
 10
6.3558839651
 20
2.6626535172
 30
0.0
 10
6.3568709953
 20
2.651313215
 30
0.0
 10
6.3580720554
 20
2.6401506411
 30
0.0
 10
6.3594821196
 20
2.6291766226
 30
0.0
 10
6.3610908383
 20
2.618392556
 30
0.0
 10
6.3628859535
 20
2.6077921654
 30
0.0
 10
6.3648586472
 20
2.5973664733
 30
0.0
 10
6.3677057149
 20
2.5837608711
 30
0.0
 10
6.3716892934
 20
2.5671127553
 30
0.0
 10
6.3771539441
 20
2.547580402
 30
0.0
 10
6.3822538484
 20
2.5316657449
 30
0.0
 10
6.3866484017
 20
2.5191691581
 30
0.0
 10
6.3912334722
 20
2.5068630023
 30
0.0
 10
6.39736517
 20
2.4917089323
 30
0.0
 10
6.4053718467
 20
2.4738637832
 30
0.0
 10
6.4140207686
 20
2.4563713608
 30
0.0
 10
6.4233224232
 20
2.4392244956
 30
0.0
 10
6.4332847291
 20
2.4224204966
 30
0.0
 10
6.4474993889
 20
2.4004335657
 30
0.0
 10
6.4630788432
 20
2.379195173
 30
0.0
 10
6.4800077705
 20
2.3588393825
 30
0.0
 10
6.4980432042
 20
2.3388929292
 30
0.0
 10
6.5225100567
 20
2.3150804618
 30
0.0
 10
6.5548027249
 20
2.2887933541
 30
0.0
 10
6.5841388405
 20
2.2691416838
 30
0.0
 10
6.6091095953
 20
2.2549314559
 30
0.0
 10
6.6287179708
 20
2.2450399699
 30
0.0
 10
6.649058113
 20
2.2360558776
 30
0.0
 10
6.6700909759
 20
2.22805486
 30
0.0
 10
6.6917635423
 20
2.2211193182
 30
0.0
 10
6.7102577291
 20
2.2162970707
 30
0.0
 10
6.7252997439
 20
2.2130360091
 30
0.0
 10
6.7405443168
 20
2.2101752035
 30
0.0
 10
6.7598277327
 20
2.2074010138
 30
0.0
 10
6.7831875643
 20
2.2053875504
 30
0.0
 10
6.7988455244
 20
2.2049343877
 30
0.0
 10
6.8066815748
 20
2.2049333615
 30
0.0
  0
SPLINE
  5
2E7
100
AcDbEntity
  8
0
100
AcDbSpline
 62
7
  6
CONTINUOUS
 70
0
 71
3
 72
78
 73
74
 74
0
 42
0.0000001
 43
0.0000001
 44
0.0000000001
 40
0.0
 40
0.0
 40
0.0
 40
0.0
 40
0.0175009884
 40
0.0349622088
 40
0.0523389471
 40
0.0609860219
 40
0.0695997671
 40
0.0867102399
 40
0.1036483293
 40
0.120396902
 40
0.1369450487
 40
0.1532879386
 40
0.1694247486
 40
0.2010908612
 40
0.2320174498
 40
0.2623003933
 40
0.2772393698
 40
0.292061209
 40
0.3214168211
 40
0.3359922
 40
0.350524578
 40
0.3650350584
 40
0.3795495946
 40
0.3940962862
 40
0.4087084464
 40
0.4234249058
 40
0.4382920874
 40
0.4533651362
 40
0.4687120125
 40
0.4765118395
 40
0.4844078678
 40
0.4924092087
 40
0.5005238464
 40
0.5087590687
 40
0.5171185592
 40
0.5255957629
 40
0.5341800449
 40
0.5428508942
 40
0.5515822915
 40
0.5603380509
 40
0.5690798391
 40
0.5777699331
 40
0.5863793902
 40
0.5948869614
 40
0.6032791646
 40
0.6115480859
 40
0.6196938477
 40
0.6277242083
 40
0.6356472277
 40
0.6512066376
 40
0.6664456586
 40
0.6739682238
 40
0.6814374105
 40
0.696243042
 40
0.7109163524
 40
0.7255000568
 40
0.7400315715
 40
0.7545413635
 40
0.769057147
 40
0.7836028065
 40
0.7981991611
 40
0.8128668592
 40
0.8424799226
 40
0.8574654357
 40
0.8725888488
 40
0.8878652456
 40
0.9033075253
 40
0.9189287608
 40
0.9347389713
 40
0.9507474252
 40
0.966959339
 40
0.9833774595
 40
1.0
 40
1.0
 40
1.0
 40
1.0
 10
6.8066815748
 20
2.2049333615
 30
0.0
 10
6.8145176259
 20
2.2049344288
 30
0.0
 10
6.8301755861
 20
2.205387487
 30
0.0
 10
6.8535354233
 20
2.2074009729
 30
0.0
 10
6.8728188247
 20
2.2101752604
 30
0.0
 10
6.8880634089
 20
2.2130360151
 30
0.0
 10
6.9031054348
 20
2.2162970226
 30
0.0
 10
6.9215996088
 20
2.2211193284
 30
0.0
 10
6.9432721547
 20
2.2280549185
 30
0.0
 10
6.9643050759
 20
2.2360557793
 30
0.0
 10
6.9846452086
 20
2.2450399056
 30
0.0
 10
7.0042535205
 20
2.254931519
 30
0.0
 10
7.0292243011
 20
2.2691416955
 30
0.0
 10
7.0585604494
 20
2.2887933205
 30
0.0
 10
7.0908530865
 20
2.3150804574
 30
0.0
 10
7.1153199534
 20
2.3388929022
 30
0.0
 10
7.1333553905
 20
2.3588393479
 30
0.0
 10
7.1502843351
 20
2.3791951497
 30
0.0
 10
7.1658637787
 20
2.4004335967
 30
0.0
 10
7.1800784121
 20
2.4224206059
 30
0.0
 10
7.1900406937
 20
2.4392246651
 30
0.0
 10
7.1993423619
 20
2.4563715698
 30
0.0
 10
7.2079912967
 20
2.4738640044
 30
0.0
 10
7.2159980549
 20
2.4917093433
 30
0.0
 10
7.2233679428
 20
2.5099245545
 30
0.0
 10
7.2301052043
 20
2.5285358168
 30
0.0
 10
7.2362083289
 20
2.5475814685
 30
0.0
 10
7.2416739404
 20
2.5671130427
 30
0.0
 10
7.2456586038
 20
2.5837601963
 30
0.0
 10
7.2485057456
 20
2.5973655382
 30
0.0
 10
7.2504781382
 20
2.6077917015
 30
0.0
 10
7.2522722931
 20
2.6183929722
 30
0.0
 10
7.2538802574
 20
2.6291777111
 30
0.0
 10
7.2552905019
 20
2.6401518276
 30
0.0
 10
7.2564924819
 20
2.6513140134
 30
0.0
 10
7.2574798627
 20
2.6626541115
 30
0.0
 10
7.2582449357
 20
2.6741511299
 30
0.0
 10
7.2587727018
 20
2.6857755051
 30
0.0
 10
7.2590492329
 20
2.6974853624
 30
0.0
 10
7.2590813264
 20
2.7092301279
 30
0.0
 10
7.2588712375
 20
2.7209546089
 30
0.0
 10
7.258410899
 20
2.7326064253
 30
0.0
 10
7.2577070332
 20
2.7441409285
 30
0.0
 10
7.2567784016
 20
2.7555256306
 30
0.0
 10
7.2556342695
 20
2.7667374493
 30
0.0
 10
7.2542796273
 20
2.7777625867
 30
0.0
 10
7.2527230241
 20
2.7885973214
 30
0.0
 10
7.2509767563
 20
2.7992461715
 30
0.0
 10
7.2484251314
 20
2.8131240905
 30
0.0
 10
7.2447999507
 20
2.8300829935
 30
0.0
 10
7.2405738041
 20
2.8467170867
 30
0.0
 10
7.2368692422
 20
2.8597368
 30
0.0
 10
7.2329793107
 20
2.8724995775
 30
0.0
 10
7.2277142061
 20
2.8881872461
 30
0.0
 10
7.2207462214
 20
2.9066495208
 30
0.0
 10
7.213143247
 20
2.9247265617
 30
0.0
 10
7.2049030772
 20
2.9424414613
 30
0.0
 10
7.196016145
 20
2.9598068407
 30
0.0
 10
7.1864742831
 20
2.9768285331
 30
0.0
 10
7.1762668764
 20
2.9935051451
 30
0.0
 10
7.1653794049
 20
3.0098285184
 30
0.0
 10
7.149896017
 20
3.0311708374
 30
0.0
 10
7.1330197309
 20
3.0516955467
 30
0.0
 10
7.11477794
 20
3.0712561014
 30
0.0
 10
7.1002919578
 20
3.0855172499
 30
0.0
 10
7.0850463934
 20
3.0992703864
 30
0.0
 10
7.0690289101
 20
3.1124704431
 30
0.0
 10
7.0522330453
 20
3.1250678945
 30
0.0
 10
7.0346546715
 20
3.1370063892
 30
0.0
 10
7.0162969507
 20
3.1482247348
 30
0.0
 10
6.9971682322
 20
3.1586539029
 30
0.0
 10
6.9772890478
 20
3.1682218548
 30
0.0
 10
6.9636376569
 20
3.1739434533
 30
0.0
 10
6.9567001994
 20
3.1766389806
 30
0.0
  0
SPLINE
  5
2E8
100
AcDbEntity
  8
0
100
AcDbSpline
 62
7
  6
CONTINUOUS
 70
0
 71
3
 72
13
 73
9
 74
0
 42
0.0000001
 43
0.0000001
 44
0.0000000001
 40
0.0
 40
0.0
 40
0.0
 40
0.0
 40
0.1686947174
 40
0.332613765
 40
0.4873622217
 40
0.6290663667
 40
0.8597721081
 40
1.0
 40
1.0
 40
1.0
 40
1.0
 10
2.8705518201
 20
5.5407537957
 30
0.0
 10
2.869603263
 20
5.5345554869
 30
0.0
 10
2.8673585632
 20
5.5223882655
 30
0.0
 10
2.8630134297
 20
5.5047917033
 30
0.0
 10
2.8579953553
 20
5.4884231434
 30
0.0
 10
2.851336819
 20
5.4699880334
 30
0.0
 10
2.8438208868
 20
5.4524592891
 30
0.0
 10
2.8377340766
 20
5.4400845892
 30
0.0
 10
2.8353489116
 20
5.4354499899
 30
0.0
  0
SPLINE
  5
2E9
100
AcDbEntity
  8
0
100
AcDbSpline
 62
7
  6
CONTINUOUS
 70
0
 71
3
 72
13
 73
9
 74
0
 42
0.0000001
 43
0.0000001
 44
0.0000000001
 40
0.0
 40
0.0
 40
0.0
 40
0.0
 40
0.1395009412
 40
0.3700725528
 40
0.5118836938
 40
0.6668297456
 40
0.8310097013
 40
1.0
 40
1.0
 40
1.0
 40
1.0
 10
2.8707007238
 20
5.6666978181
 30
0.0
 10
2.8715883029
 20
5.6615840269
 30
0.0
 10
2.8736976978
 20
5.6479748501
 30
0.0
 10
2.8756352626
 20
5.6290114287
 30
0.0
 10
2.8764860935
 20
5.6094041577
 30
0.0
 10
2.8763854464
 20
5.5922466301
 30
0.0
 10
2.8752711966
 20
5.5741104021
 30
0.0
 10
2.8737717642
 20
5.5617962836
 30
0.0
 10
2.8728207324
 20
5.555581204
 30
0.0
  0
SPLINE
  5
2EA
100
AcDbEntity
  8
0
100
AcDbSpline
 62
7
  6
CONTINUOUS
 70
0
 71
3
 72
14
 73
10
 74
0
 42
0.0000001
 43
0.0000001
 44
0.0000000001
 40
0.0
 40
0.0
 40
0.0
 40
0.0
 40
0.2499850825
 40
0.3749880568
 40
0.4999903106
 40
0.6249900455
 40
0.7499879557
 40
0.8749913292
 40
1.0
 40
1.0
 40
1.0
 40
1.0
 10
6.5847820863
 20
2.3721261846
 30
0.0
 10
6.5872340669
 20
2.3819984399
 30
0.0
 10
6.5911231136
 20
2.3967563314
 30
0.0
 10
6.5967651393
 20
2.4163042422
 30
0.0
 10
6.6012336849
 20
2.4308954871
 30
0.0
 10
6.6059497977
 20
2.4454084119
 30
0.0
 10
6.6109277219
 20
2.4598338208
 30
0.0
 10
6.616180318
 20
2.4741619086
 30
0.0
 10
6.61987464
 20
2.4836416739
 30
0.0
 10
6.6217728195
 20
2.4883609959
 30
0.0
  0
SPLINE
  5
2EB
100
AcDbEntity
  8
0
100
AcDbSpline
 62
7
  6
CONTINUOUS
 70
0
 71
3
 72
14
 73
10
 74
0
 42
0.0000001
 43
0.0000001
 44
0.0000000001
 40
0.0
 40
0.0
 40
0.0
 40
0.0
 40
0.125008725
 40
0.2500122024
 40
0.375010107
 40
0.5000097065
 40
0.6250118376
 40
0.7500148065
 40
1.0
 40
1.0
 40
1.0
 40
1.0
 10
6.9915930996
 20
2.4883621246
 30
0.0
 10
6.9934906985
 20
2.4836425629
 30
0.0
 10
6.9971838755
 20
2.4741623399
 30
0.0
 10
7.0024355616
 20
2.4598339072
 30
0.0
 10
7.0074133005
 20
2.4454084285
 30
0.0
 10
7.0121295601
 20
2.4308955522
 30
0.0
 10
7.0165982091
 20
2.4163043381
 30
0.0
 10
7.0222401593
 20
2.3967563903
 30
0.0
 10
7.0261290868
 20
2.381998453
 30
0.0
 10
7.0285810633
 20
2.3721261846
 30
0.0
  0
SPLINE
  5
2EC
100
AcDbEntity
  8
0
100
AcDbSpline
 62
7
  6
CONTINUOUS
 70
0
 71
3
 72
11
 73
7
 74
0
 42
0.0000001
 43
0.0000001
 44
0.0000000001
 40
0.0
 40
0.0
 40
0.0
 40
0.0
 40
0.2500303298
 40
0.5000633506
 40
0.7500492455
 40
1.0
 40
1.0
 40
1.0
 40
1.0
 10
7.0206966996
 20
2.355222729
 30
0.0
 10
7.0200348108
 20
2.3548176679
 30
0.0
 10
7.018643234
 20
2.3541128068
 30
0.0
 10
7.0164137042
 20
2.353408258
 30
0.0
 10
7.0140963572
 20
2.353090762
 30
0.0
 10
7.0125348799
 20
2.3531662181
 30
0.0
 10
7.0117679243
 20
2.3532826958
 30
0.0
  0
ELLIPSE
  5
2ED
100
AcDbEntity
  8
0
100
AcDbEllipse
 62
7
  6
CONTINUOUS
 10
3.3439293134
 20
5.068237001
 30
0.0
 11
0.3749246542
 21
0.1691937401
 31
0.0
 40
0.0549449437
 41
-2.1674769265
 42
-2.1197029544
  0
ELLIPSE
  5
2EE
100
AcDbEntity
  8
0
100
AcDbEllipse
 62
7
  6
CONTINUOUS
 10
3.0897359325
 20
5.1071340542
 30
0.0
 11
-0.2308483399
 21
0.1533507792
 31
0.0
 40
0.7641869673
 41
1.1791245969
 42
1.226898569
  0
ELLIPSE
  5
2EF
100
AcDbEntity
  8
0
100
AcDbEllipse
 62
7
  6
CONTINUOUS
 10
3.0236269675
 20
5.1172501474
 30
0.0
 11
-0.2383801614
 21
0.2168205982
 31
0.0
 40
0.5099348041
 41
1.5493177388
 42
1.5970917109
  0
ELLIPSE
  5
2F0
100
AcDbEntity
  8
0
100
AcDbEllipse
 62
7
  6
CONTINUOUS
 10
2.9673913231
 20
5.1258554103
 30
0.0
 11
0.2674336396
 21
-0.2466177306
 31
0.0
 40
0.3175215947
 41
-1.3776904542
 42
-1.3299164821
  0
ELLIPSE
  5
2F1
100
AcDbEntity
  8
0
100
AcDbEllipse
 62
7
  6
CONTINUOUS
 10
3.1024722094
 20
4.9579191829
 30
0.0
 11
0.1633751911
 21
0.0598422315
 31
0.0
 40
0.365809989
 41
2.0950693363
 42
2.1173952585
  0
ELLIPSE
  5
2F2
100
AcDbEntity
  8
0
100
AcDbEllipse
 62
7
  6
CONTINUOUS
 10
2.9265337357
 20
5.1321074997
 30
0.0
 11
0.2928651842
 21
-0.2647453016
 31
0.0
 40
0.1730990572
 41
-1.1940495874
 42
-1.1462756153
  0
ELLIPSE
  5
2F3
100
AcDbEntity
  8
0
100
AcDbEllipse
 62
7
  6
CONTINUOUS
 10
3.1024722094
 20
4.9579191829
 30
0.0
 11
0.1667257209
 21
0.0705973697
 31
0.0
 40
0.2168892597
 41
1.7842187962
 42
1.8689301166
  0
ELLIPSE
  5
2F4
100
AcDbEntity
  8
0
100
AcDbEllipse
 62
7
  6
CONTINUOUS
 10
2.9050536309
 20
5.1353944176
 30
0.0
 11
0.3071723952
 21
-0.2735692558
 31
0.0
 40
0.0549449437
 41
-1.0218896992
 42
-0.9741157271
  0
ELLIPSE
  5
2F5
100
AcDbEntity
  8
0
100
AcDbEllipse
 62
7
  6
CONTINUOUS
 10
3.1024722094
 20
4.9579191829
 30
0.0
 11
0.1686872999
 21
0.0754476739
 31
0.0
 40
0.0717446904
 41
1.5567623972
 42
1.6414737176
  0
ELLIPSE
  5
2F6
100
AcDbEntity
  8
0
100
AcDbEllipse
 62
7
  6
CONTINUOUS
 10
3.1024722094
 20
4.9579191829
 30
0.0
 11
0.1384062923
 21
-0.1224395969
 31
0.0
 40
0.0717446904
 41
1.5001189359
 42
1.5848302564
  0
ELLIPSE
  5
2F7
100
AcDbEntity
  8
0
100
AcDbEllipse
 62
7
  6
CONTINUOUS
 10
3.1024722094
 20
4.9579191829
 30
0.0
 11
0.1379849133
 21
-0.1172246489
 31
0.0
 40
0.2168892597
 41
1.272662537
 42
1.3573738574
  0
ELLIPSE
  5
2F8
100
AcDbEntity
  8
0
100
AcDbEllipse
 62
7
  6
CONTINUOUS
 10
3.3224492086
 20
5.071523919
 30
0.0
 11
0.3586334144
 21
0.1650520069
 31
0.0
 40
0.1730990572
 41
-1.9953170383
 42
-1.9475430662
  0
ELLIPSE
  5
2F9
100
AcDbEntity
  8
0
100
AcDbEllipse
 62
7
  6
CONTINUOUS
 10
3.1024722094
 20
4.9579191829
 30
0.0
 11
0.1380039277
 21
-0.1059597172
 31
0.0
 40
0.365809989
 41
1.024197395
 42
1.0465233173
  0
ELLIPSE
  5
2FA
100
AcDbEntity
  8
0
100
AcDbEllipse
 62
7
  6
CONTINUOUS
 10
3.2815916213
 20
5.0777760084
 30
0.0
 11
0.3289447256
 21
0.1553590168
 31
0.0
 40
0.3175215947
 41
-1.8116761715
 42
-1.7639021994
  0
ELLIPSE
  5
2FB
100
AcDbEntity
  8
0
100
AcDbEllipse
 62
7
  6
CONTINUOUS
 10
3.2253559768
 20
5.0863812712
 30
0.0
 11
0.292310167
 21
0.1356135665
 31
0.0
 40
0.5099348041
 41
-1.5970917109
 42
-1.5493177388
  0
ELLIPSE
  5
2FC
100
AcDbEntity
  8
0
100
AcDbEllipse
 62
7
  6
CONTINUOUS
 10
3.1592470119
 20
5.0964973644
 30
0.0
 11
0.2661429342
 21
0.0773004274
 31
0.0
 40
0.7641869673
 41
-1.226898569
 42
-1.1791245969
  0
ELLIPSE
  5
2FD
100
AcDbEntity
  8
0
100
AcDbEllipse
 62
7
  6
CONTINUOUS
 10
3.1627801681
 20
4.9679604713
 30
0.0
 11
0.0110920348
 21
-0.0094232033
 31
0.0
 40
0.2168892597
 41
-0.9770418181
 42
0.3003667271
  0
ELLIPSE
  5
2FE
100
AcDbEntity
  8
0
100
AcDbEllipse
 62
7
  6
CONTINUOUS
 10
3.105353423
 20
4.9767479981
 30
0.0
 11
0.0111259077
 21
-0.0098424113
 31
0.0
 40
0.0717446904
 41
-0.7495854192
 42
0.5278231261
  0
ELLIPSE
  5
2FF
100
AcDbEntity
  8
0
100
AcDbEllipse
 62
7
  6
CONTINUOUS
 10
3.105353423
 20
4.9767479981
 30
0.0
 11
0.0135600723
 21
0.0060649256
 31
0.0
 40
0.0717446904
 41
8.8969548347
 42
10.1743633799
  0
ELLIPSE
  5
300
100
AcDbEntity
  8
0
100
AcDbEllipse
 62
7
  6
CONTINUOUS
 10
3.047926678
 20
4.985535525
 30
0.0
 11
0.0134023891
 21
0.0056750297
 31
0.0
 40
0.2168892597
 41
9.1244112336
 42
10.4018197789
  0
ELLIPSE
  5
301
100
AcDbEntity
  8
0
100
AcDbEllipse
 62
7
  6
CONTINUOUS
 10
2.9961212629
 20
4.9934628674
 30
0.0
 11
0.0131330539
 21
0.0048104688
 31
0.0
 40
0.365809989
 41
3.0896910684
 42
4.2838609223
  0
ELLIPSE
  5
302
100
AcDbEntity
  8
0
100
AcDbEllipse
 62
7
  6
CONTINUOUS
 10
3.2145855832
 20
4.9600331288
 30
0.0
 11
0.0110935633
 21
-0.0085176622
 31
0.0
 40
0.365809989
 41
-1.1422682687
 42
0.0519015852
  0
ELLIPSE
  5
303
100
AcDbEntity
  8
0
100
AcDbEllipse
 62
7
  6
CONTINUOUS
 10
3.1592470119
 20
5.0964973644
 30
0.0
 11
0.2661429342
 21
0.0773004274
 31
0.0
 40
0.7641869673
 41
-3.0540160801
 42
-3.006242108
  0
ELLIPSE
  5
304
100
AcDbEntity
  8
0
100
AcDbEllipse
 62
7
  6
CONTINUOUS
 10
3.2253559768
 20
5.0863812712
 30
0.0
 11
0.292310167
 21
0.1356135665
 31
0.0
 40
0.5099348041
 41
2.8589760851
 42
2.9067500572
  0
ELLIPSE
  5
305
100
AcDbEntity
  8
0
100
AcDbEllipse
 62
7
  6
CONTINUOUS
 10
3.2815916213
 20
5.0777760084
 30
0.0
 11
0.3289447256
 21
0.1553590168
 31
0.0
 40
0.3175215947
 41
2.6443916245
 42
2.6921655966
  0
ELLIPSE
  5
306
100
AcDbEntity
  8
0
100
AcDbEllipse
 62
7
  6
CONTINUOUS
 10
3.3224492086
 20
5.071523919
 30
0.0
 11
0.3586334144
 21
0.1650520069
 31
0.0
 40
0.1730990572
 41
2.4607507577
 42
2.5085247298
  0
ELLIPSE
  5
307
100
AcDbEntity
  8
0
100
AcDbEllipse
 62
7
  6
CONTINUOUS
 10
3.3439293134
 20
5.068237001
 30
0.0
 11
0.3749246542
 21
0.1691937401
 31
0.0
 40
0.0549449437
 41
2.2885908696
 42
2.3363648417
  0
ELLIPSE
  5
308
100
AcDbEntity
  8
0
100
AcDbEllipse
 62
7
  6
CONTINUOUS
 10
2.9050536309
 20
5.1353944176
 30
0.0
 11
0.3071723952
 21
-0.2735692558
 31
0.0
 40
0.0549449437
 41
0.8052278119
 42
0.853001784
  0
ELLIPSE
  5
309
100
AcDbEntity
  8
0
100
AcDbEllipse
 62
7
  6
CONTINUOUS
 10
2.9265337357
 20
5.1321074997
 30
0.0
 11
0.2928651842
 21
-0.2647453016
 31
0.0
 40
0.1730990572
 41
0.6330679237
 42
0.6808418958
  0
ELLIPSE
  5
30A
100
AcDbEntity
  8
0
100
AcDbEllipse
 62
7
  6
CONTINUOUS
 10
2.9673913231
 20
5.1258554103
 30
0.0
 11
0.2674336396
 21
-0.2466177306
 31
0.0
 40
0.3175215947
 41
0.449427057
 42
0.4972010291
  0
ELLIPSE
  5
30B
100
AcDbEntity
  8
0
100
AcDbEllipse
 62
7
  6
CONTINUOUS
 10
3.0236269675
 20
5.1172501474
 30
0.0
 11
-0.2383801614
 21
0.2168205982
 31
0.0
 40
0.5099348041
 41
-2.9067500572
 42
-2.8589760851
  0
ELLIPSE
  5
30C
100
AcDbEntity
  8
0
100
AcDbEllipse
 62
7
  6
CONTINUOUS
 10
3.0897359325
 20
5.1071340542
 30
0.0
 11
-0.2308483399
 21
0.1533507792
 31
0.0
 40
0.7641869673
 41
-3.2769431992
 42
-3.2291692271
  0
ENDSEC
  0
SECTION
  2
OBJECTS
  0
DICTIONARY
  5
C
100
AcDbDictionary
280
0
281
1
  3
ACAD_GROUP
350
D
  3
ACAD_MLINESTYLE
350
17
  3
ACAD_LAYOUT
350
1A
  3
ACAD_PLOTSETTINGS
350
19
  3
ACAD_PLOTSTYLENAME
350
E
  0
DICTIONARY
  5
D
102
{ACAD_REACTORS
330
C
102
}
100
AcDbDictionary
280
0
281
1
  0
ACDBDICTIONARYWDFLT
  5
E
102
{ACAD_REACTORS
330
C
102
}
100
AcDbDictionary
281
1
  3
Normal
350
F
100
AcDbDictionaryWithDefault
340
F
  0
DICTIONARY
  5
17
102
{ACAD_REACTORS
330
C
102
}
100
AcDbDictionary
280
0
281
1
  3
Standard
350
18
  0
DICTIONARY
  5
19
102
{ACAD_REACTORS
330
C
102
}
100
AcDbDictionary
281
1
  0
DICTIONARY
  5
1A
102
{ACAD_REACTORS
330
C
102
}
100
AcDbDictionary
281
1
  3
Model
350
30D
  3
Layout1
350
30E
  0
ACDBPLACEHOLDER
  5
F
102
{ACAD_REACTORS
330
E
102
}
  0
MLINESTYLE
  5
18
102
{ACAD_REACTORS
330
17
102
}
100
AcDbMlineStyle
  2
STANDARD
 70
0
  3

 62
256
 51
90.0
 52
90.0
 71
2
 49
0.5
 62
256
  6
BYLAYER
 49
-0.5
 62
256
  6
BYLAYER
  0
LAYOUT
  5
30D
102
{ACAD_REACTORS
330
1A
102
}
100
AcDbPlotSettings
  1

  2
none_device
  4
ANSI_A_(11.00_x_8.50_Inches)
  6

 40
0.0
 41
0.0
 42
0.0
 43
0.0
 44
279.4
 45
215.9
 46
0.0
 47
0.0
 48
0.0
 49
0.0
140
0.0
141
0.0
142
1.0
143
1.0
 70
1024
 72
0
 73
0
 74
0
  7

 75
0
147
1.0
148
0.0
149
0.0
100
AcDbLayout
  1
Model
 70
0
 71
0
 10
0.0
 20
0.0
 11
11.0
 21
8.5
 12
0.0
 22
0.0
 32
0.0
 14
0.0
 24
0.0
 34
0.0
 15
0.0
 25
0.0
 35
0.0
146
0.0
 13
0.0
 23
0.0
 33
0.0
 16
1.0
 26
0.0
 36
0.0
 17
0.0
 27
1.0
 37
0.0
 76
0
330
202
345
0
346
0
  0
LAYOUT
  5
30E
102
{ACAD_REACTORS
330
1A
102
}
100
AcDbPlotSettings
  1

  2
none_device
  4
ANSI_A_(11.00_x_8.50_Inches)
  6

 40
0.0
 41
0.0
 42
0.0
 43
0.0
 44
279.4
 45
215.9
 46
0.0
 47
0.0
 48
0.0
 49
0.0
140
0.0
141
0.0
142
1.0
143
1.0
 70
0
 72
0
 73
0
 74
0
  7

 75
0
147
1.0
148
0.0
149
0.0
100
AcDbLayout
  1
Layout1
 70
0
 71
1
 10
0.0
 20
0.0
 11
11.0
 21
8.5
 12
0.0
 22
0.0
 32
0.0
 14
0.0
 24
0.0
 34
0.0
 15
0.0
 25
0.0
 35
0.0
146
0.0
 13
0.0
 23
0.0
 33
0.0
 16
1.0
 26
0.0
 36
0.0
 17
0.0
 27
1.0
 37
0.0
 76
0
330
203
345
0
346
0
  0
ENDSEC
  0
EOF
