999
DXF file: 3180-5243_RIGHT.dxf
999
Pro/ENGINEER 2023134 by Parametric Technology Corporation
  0
SECTION
  2
HEADER
  9
$ACADVER
  1
AC1032
  9
$DWGCODEPAGE
  3
ANSI_1252
  9
$EXTMAX
 10
11.0
 20
8.5
 30
0.0
  9
$EXTMIN
 10
0.0
 20
0.0
 30
0.0
  9
$LIMMIN
 10
0.0
 20
0.0
  9
$LIMMAX
 10
11.0
 20
8.5
  9
$VIEWCTR
 10
5.5
 20
4.25
  9
$VIEWSIZE
 40
8.5
  9
$CLAYER
  8
0
  9
$LTSCALE
 40
0.605
  9
$CELTYPE
  6
BYLAYER
  9
$DIMSCALE
 40
1.0
  9
$DIMASZ
 40
0.1
  9
$DIMEXO
 40
0.0625
  9
$DIMDLI
 40
0.418
  9
$DIMEXE
 40
0.125
  9
$DIMCEN
 40
0.099
  9
$DIMLFAC
 40
1.0
  9
$DIMBLK
  1
_FILLED
  9
$DIMALT
 70
1
  9
$DIMALTD
 70
2
  9
$DIMALTTD
 70
2
  9
$DIMALTF
 40
25.4
  9
$DIMTXT
 40
0.08
  9
$DIMTOL
 70
1
  9
$DIMLIM
 70
0
  9
$DIMTFAC
 40
1.0
  9
$DIMTP
 40
0.001
  9
$DIMTM
 40
0.001
  9
$DIMGAP
 40
0.09
  9
$DIMDSEP
 70
46
  9
$AUNITS
 70
0
  9
$PDMODE
 70
3
  9
$PDSIZE
 40
0.3125
  9
$HANDSEED
  5
31F
  9
$TILEMODE
 70
1
  9
$MEASUREMENT
 70
0
  9
$INSUNITS
 70
1
  0
ENDSEC
  0
SECTION
  2
CLASSES
  0
CLASS
  1
ACDBDICTIONARYWDFLT
  2
AcDbDictionaryWithDefault
  3
AutoCAD 2000
 90
0
 91
1
280
0
281
0
  0
CLASS
  1
ACDBPLACEHOLDER
  2
AcDbPlaceHolder
  3
AutoCAD 2000
 90
0
 91
1
280
0
281
0
  0
CLASS
  1
LAYOUT
  2
AcDbLayout
  3
AutoCAD 2000
 90
0
 91
0
280
0
281
0
  0
ENDSEC
  0
SECTION
  2
TABLES
  0
TABLE
  2
VPORT
  5
8
100
AcDbSymbolTable
 70
2
  0
VPORT
  5
1F4
100
AcDbSymbolTableRecord
100
AcDbViewportTableRecord
  2
*ACTIVE
 70
0
 10
0.0
 20
0.0
 11
1.0
 21
1.0
 12
5.5
 22
4.25
 13
0.0
 23
0.0
 14
1.0
 24
1.0
 15
0.0
 25
0.0
 16
0.0
 26
0.0
 36
1.0
 17
0.0
 27
0.0
 37
0.0
 40
8.5
 41
1.2941176471
 42
50.0
 43
0.0
 44
0.0
 50
0.0
 51
0.0
 71
0
 72
100
 73
1
 74
1
 75
0
 76
0
 77
0
 78
0
  0
ENDTAB
  0
TABLE
  2
LTYPE
  5
5
100
AcDbSymbolTable
 70
6
  0
LTYPE
  5
14
100
AcDbSymbolTableRecord
100
AcDbLinetypeTableRecord
  2
BYBLOCK
 70
0
  3

 72
65
 73
0
 40
0.0
  0
LTYPE
  5
15
100
AcDbSymbolTableRecord
100
AcDbLinetypeTableRecord
  2
BYLAYER
 70
0
  3

 72
65
 73
0
 40
0.0
  0
LTYPE
  5
16
100
AcDbSymbolTableRecord
100
AcDbLinetypeTableRecord
  2
CONTINUOUS
 70
64
  3
Solid line
 72
65
 73
0
 40
0.0
  0
LTYPE
  5
1F5
100
AcDbSymbolTableRecord
100
AcDbLinetypeTableRecord
  2
CENTER
 70
64
  3
____ _ ____ _ ____ _ ____ _ ____ _ ____ _ ____
 72
65
 73
4
 40
0.6
 49
0.375
 74
0
 49
-0.075
 74
0
 49
0.075
 74
0
 49
-0.075
 74
0
  0
LTYPE
  5
1F6
100
AcDbSymbolTableRecord
100
AcDbLinetypeTableRecord
  2
HIDDEN
 70
64
  3
- - - - - - - - - - - - - - - - - - - -
 72
65
 73
2
 40
0.2
 49
0.1
 74
0
 49
-0.1
 74
0
  0
LTYPE
  5
1F7
100
AcDbSymbolTableRecord
100
AcDbLinetypeTableRecord
  2
PHANTOM
 70
64
  3
_____ _ _ _____ _ _ _____ _ _ _____
 72
65
 73
6
 40
0.8
 49
0.45
 74
0
 49
-0.05
 74
0
 49
0.1
 74
0
 49
-0.05
 74
0
 49
0.1
 74
0
 49
-0.05
 74
0
  0
LTYPE
  5
1F8
100
AcDbSymbolTableRecord
100
AcDbLinetypeTableRecord
  2
DOT
 70
64
  3
. . . . . . . . . . . . . . . . . . . .
 72
65
 73
2
 40
0.2
 49
0.1
 74
0
 49
-0.1
 74
0
  0
LTYPE
  5
1F9
100
AcDbSymbolTableRecord
100
AcDbLinetypeTableRecord
  2
DASHED
 70
64
  3
- - - - - - - - - - - - - - - - - - - -
 72
65
 73
2
 40
0.2
 49
0.1
 74
0
 49
-0.1
 74
0
  0
ENDTAB
  0
TABLE
  2
LAYER
  5
2
100
AcDbSymbolTable
 70
36
  0
LAYER
  5
10
100
AcDbSymbolTableRecord
100
AcDbLayerTableRecord
  2
0
 70
0
 62
7
  6
CONTINUOUS
370
-3
390
F
  0
LAYER
  5
1FA
100
AcDbSymbolTableRecord
100
AcDbLayerTableRecord
  2
DEFAULT_1
 70
0
 62
7
  6
CENTER
370
-3
390
F
  0
LAYER
  5
1FB
100
AcDbSymbolTableRecord
100
AcDbLayerTableRecord
  2
DEFAULT_2
 70
0
 62
8
  6
HIDDEN
370
-3
390
F
  0
LAYER
  5
1FC
100
AcDbSymbolTableRecord
100
AcDbLayerTableRecord
  2
DEFAULT_3
 70
0
 62
7
  6
PHANTOM
370
-3
390
F
  0
LAYER
  5
1FD
100
AcDbSymbolTableRecord
100
AcDbLayerTableRecord
  2
DEFAULT_COORDINATE_SYSTEM
 70
0
 62
7
  6
CONTINUOUS
370
-3
390
F
  0
LAYER
  5
1FE
100
AcDbSymbolTableRecord
100
AcDbLayerTableRecord
  2
DEFAULT_DATUM_AXES
 70
0
 62
7
  6
CONTINUOUS
370
-3
390
F
  0
LAYER
  5
1FF
100
AcDbSymbolTableRecord
100
AcDbLayerTableRecord
  2
DEFAULT_DATUM_PLANES
 70
0
 62
7
  6
CONTINUOUS
370
-3
390
F
  0
ENDTAB
  0
TABLE
  2
STYLE
  5
3
100
AcDbSymbolTable
 70
1
  0
STYLE
  5
11
100
AcDbSymbolTableRecord
100
AcDbTextStyleTableRecord
  2
STANDARD
 70
0
 40
0.0
 41
0.8
 50
0.0
 71
0
 42
0.2
  3
txt
  4

  0
STYLE
  5
200
100
AcDbSymbolTableRecord
100
AcDbTextStyleTableRecord
  2
TEXTSTYLE_1
 70
0
 40
0.0
 41
0.8
 50
0.0
 71
0
 42
0.2
  3
gdt
  4

  0
ENDTAB
  0
TABLE
  2
VIEW
  5
6
100
AcDbSymbolTable
 70
0
  0
ENDTAB
  0
TABLE
  2
UCS
  5
7
100
AcDbSymbolTable
 70
0
  0
ENDTAB
  0
TABLE
  2
APPID
  5
9
100
AcDbSymbolTable
 70
1
  0
APPID
  5
201
100
AcDbSymbolTableRecord
100
AcDbRegAppTableRecord
  2
ACAD
 70
0
  0
ENDTAB
  0
TABLE
  2
BLOCK_RECORD
  5
1
100
AcDbSymbolTable
 70
0
  0
BLOCK_RECORD
  5
202
100
AcDbSymbolTableRecord
100
AcDbBlockTableRecord
  2
*Model_Space
  0
BLOCK_RECORD
  5
203
100
AcDbSymbolTableRecord
100
AcDbBlockTableRecord
  2
*Paper_Space
  0
BLOCK_RECORD
  5
204
100
AcDbSymbolTableRecord
100
AcDbBlockTableRecord
  2
_FILLED
  0
ENDTAB
  0
TABLE
  2
DIMSTYLE
  5
A
100
AcDbSymbolTable
 70
1
100
AcDbDimStyleTable
 71
0
  0
DIMSTYLE
105
205
100
AcDbSymbolTableRecord
100
AcDbDimStyleTableRecord
  2
STANDARD
 70
0
  3

  4

 40
1.0
 41
0.1
 42
0.0625
 43
0.38
 44
0.125
 45
0.0
 46
0.0
 47
0.001
 48
0.001
140
0.08
141
0.09
142
0.0
143
25.4
144
1.0
145
0.0
146
1.0
147
0.09
 71
1
 72
0
 73
1
 74
1
 75
0
 76
0
 77
0
 78
4
 79
1
170
1
171
2
172
0
173
0
174
0
175
0
176
0
177
0
178
0
270
2
179
3
271
3
272
3
273
2
274
2
275
0
280
0
281
0
282
0
283
1
284
4
285
0
286
0
287
3
288
0
340
11
278
46
341
204
342
204
343
204
344
204
  0
ENDTAB
  0
ENDSEC
  0
SECTION
  2
BLOCKS
  0
BLOCK
  5
20
100
AcDbEntity
  8
0
100
AcDbBlockBegin
  2
*Model_Space
 70
0
 10
0.0
 20
0.0
 30
0.0
  3
*Model_Space
  1

  0
ENDBLK
  5
21
100
AcDbEntity
  8
0
100
AcDbBlockEnd
  0
BLOCK
  5
1C
100
AcDbEntity
  8
0
100
AcDbBlockBegin
  2
*Paper_Space
 70
0
 10
0.0
 20
0.0
 30
0.0
  3
*Paper_Space
  1

  0
ENDBLK
  5
1D
100
AcDbEntity
  8
0
100
AcDbBlockEnd
  0
BLOCK
  5
206
100
AcDbEntity
  8
0
100
AcDbBlockBegin
  2
_FILLED
 70
64
 10
0.0
 20
0.0
  3
_FILLED
  1

  0
SOLID
  5
207
100
AcDbEntity
  8
0
  6
BYBLOCK
 62
0
100
AcDbTrace
 10
0.0
 20
0.0
 11
-1.0
 21
0.2
 12
-1.0
 22
-0.2
 13
-1.0
 23
-0.2
  0
ENDBLK
  5
208
100
AcDbEntity
  8
0
  6
BYBLOCK
 62
0
100
AcDbBlockEnd
  0
ENDSEC
  0
SECTION
  2
ENTITIES
  0
LINE
  5
209
100
AcDbEntity
  8
0
100
AcDbLine
 62
7
  6
CONTINUOUS
 10
0.0
 20
0.0
 11
0.0
 21
8.5
  0
LINE
  5
20A
100
AcDbEntity
  8
0
100
AcDbLine
 62
7
  6
CONTINUOUS
 10
0.0
 20
0.0
 11
11.0
 21
0.0
  0
LINE
  5
20B
100
AcDbEntity
  8
0
100
AcDbLine
 62
7
  6
CONTINUOUS
 10
0.0
 20
8.5
 11
11.0
 21
8.5
  0
LINE
  5
20C
100
AcDbEntity
  8
0
100
AcDbLine
 62
7
  6
CONTINUOUS
 10
11.0
 20
0.0
 11
11.0
 21
8.5
  0
LINE
  5
20D
100
AcDbEntity
  8
0
100
AcDbLine
 62
7
  6
CONTINUOUS
 10
6.7726017945
 20
1.1769121668
 11
7.5486017945
 21
1.1769121668
  0
LINE
  5
20E
100
AcDbEntity
  8
0
100
AcDbLine
 62
7
  6
CONTINUOUS
 10
7.5486017945
 20
1.3529121668
 11
6.7726017945
 21
1.3529121668
  0
LINE
  5
20F
100
AcDbEntity
  8
0
100
AcDbLine
 62
7
  6
CONTINUOUS
 10
7.5366017945
 20
1.3649121668
 11
6.7846017945
 21
1.3649121668
  0
LINE
  5
210
100
AcDbEntity
  8
0
100
AcDbLine
 62
7
  6
CONTINUOUS
 10
7.5166017945
 20
1.3769121668
 11
6.8046017945
 21
1.3769121668
  0
LINE
  5
211
100
AcDbEntity
  8
0
100
AcDbLine
 62
7
  6
CONTINUOUS
 10
6.8046017945
 20
1.3849121668
 11
7.5166017945
 21
1.3849121668
  0
LINE
  5
212
100
AcDbEntity
  8
0
100
AcDbLine
 62
7
  6
CONTINUOUS
 10
6.8166017945
 20
1.3969121668
 11
7.5046017945
 21
1.3969121668
  0
LINE
  5
213
100
AcDbEntity
  8
0
100
AcDbLine
 62
7
  6
CONTINUOUS
 10
4.1352251883
 20
5.8471699019
 11
4.1125360653
 21
5.6988958189
  0
LINE
  5
214
100
AcDbEntity
  8
0
100
AcDbLine
 62
7
  6
CONTINUOUS
 10
3.9710321609
 20
4.7741636626
 11
4.111931022
 21
5.6949418433
  0
LINE
  5
215
100
AcDbEntity
  8
0
100
AcDbLine
 62
7
  6
CONTINUOUS
 10
4.0322281836
 20
4.7607527951
 11
4.0293863884
 21
4.7421815803
  0
LINE
  5
216
100
AcDbEntity
  8
0
100
AcDbLine
 62
7
  6
CONTINUOUS
 10
4.0495169412
 20
4.7581072434
 11
4.046675146
 21
4.7395360286
  0
LINE
  5
217
100
AcDbEntity
  8
0
100
AcDbLine
 62
7
  6
CONTINUOUS
 10
4.0820091769
 20
4.7531352327
 11
4.0791673817
 21
4.7345640179
  0
LINE
  5
218
100
AcDbEntity
  8
0
100
AcDbLine
 62
7
  6
CONTINUOUS
 10
4.1224829424
 20
4.7469418763
 11
4.1196411472
 21
4.7283706615
  0
LINE
  5
219
100
AcDbEntity
  8
0
100
AcDbLine
 62
7
  6
CONTINUOUS
 10
4.1257858478
 20
4.7464364607
 11
4.1229440526
 21
4.7278652459
  0
LINE
  5
21A
100
AcDbEntity
  8
0
100
AcDbLine
 62
7
  6
CONTINUOUS
 10
4.1662596132
 20
4.7402431043
 11
4.163417818
 21
4.7216718895
  0
LINE
  5
21B
100
AcDbEntity
  8
0
100
AcDbLine
 62
7
  6
CONTINUOUS
 10
4.1755668411
 20
4.7388188983
 11
4.1727250459
 21
4.7202476835
  0
LINE
  5
21C
100
AcDbEntity
  8
0
100
AcDbLine
 62
7
  6
CONTINUOUS
 10
4.5052582187
 20
5.3008619365
 11
4.5064378086
 21
5.3030817795
  0
LINE
  5
21D
100
AcDbEntity
  8
0
100
AcDbLine
 62
7
  6
CONTINUOUS
 10
4.5064378086
 20
5.3030817795
 11
4.5075630055
 21
5.3051573021
  0
LINE
  5
21E
100
AcDbEntity
  8
0
100
AcDbLine
 62
7
  6
CONTINUOUS
 10
4.5075630055
 20
5.3051573021
 11
4.5086272018
 21
5.3070848392
  0
LINE
  5
21F
100
AcDbEntity
  8
0
100
AcDbLine
 62
7
  6
CONTINUOUS
 10
4.5086272018
 20
5.3070848392
 11
4.5096248075
 21
5.3088624343
  0
LINE
  5
220
100
AcDbEntity
  8
0
100
AcDbLine
 62
7
  6
CONTINUOUS
 10
4.5096248075
 20
5.3088624343
 11
4.5105510181
 21
5.3104890552
  0
LINE
  5
221
100
AcDbEntity
  8
0
100
AcDbLine
 62
7
  6
CONTINUOUS
 10
4.5105510181
 20
5.3104890552
 11
4.5114019747
 21
5.3119639674
  0
LWPOLYLINE
  5
222
100
AcDbEntity
  8
0
100
AcDbPolyline
 62
7
  6
CONTINUOUS
 90
10
 70
0
 10
4.5153285025
 20
5.318548267
 10
4.5154202061
 20
5.3187064803
 10
4.5155045524
 20
5.3188686586
 10
4.515581374
 20
5.3190344601
 10
4.5156505015
 20
5.3192034888
 10
4.5157118215
 20
5.3193754336
 10
4.5157652554
 20
5.3195500781
 10
4.5158106949
 20
5.319727123
 10
4.5158480144
 20
5.3199061421
 10
4.5158685358
 20
5.3200276926
  0
LINE
  5
223
100
AcDbEntity
  8
0
100
AcDbLine
 62
7
  6
CONTINUOUS
 10
4.5114019747
 20
5.3119639674
 11
4.512174818
 21
5.3132876752
  0
LINE
  5
224
100
AcDbEntity
  8
0
100
AcDbLine
 62
7
  6
CONTINUOUS
 10
4.512174818
 20
5.3132876752
 11
4.5131815006
 21
5.3149906452
  0
LINE
  5
225
100
AcDbEntity
  8
0
100
AcDbLine
 62
7
  6
CONTINUOUS
 10
4.5131815006
 20
5.3149906452
 11
4.513998449
 21
5.3163563968
  0
LINE
  5
226
100
AcDbEntity
  8
0
100
AcDbLine
 62
7
  6
CONTINUOUS
 10
4.513998449
 20
5.3163563968
 11
4.5147873927
 21
5.3176606657
  0
LWPOLYLINE
  5
227
100
AcDbEntity
  8
0
100
AcDbPolyline
 62
7
  6
CONTINUOUS
 90
3
 70
0
 10
4.5147873927
 20
5.3176606657
 10
4.5153173283
 20
5.3185301206
 10
4.5153285025
 20
5.318548267
  0
LINE
  5
228
100
AcDbEntity
  8
0
100
AcDbLine
 62
7
  6
CONTINUOUS
 10
4.5153554757
 20
5.3191980048
 11
4.5158683802
 21
5.3200267707
  0
LINE
  5
229
100
AcDbEntity
  8
0
100
AcDbLine
 62
7
  6
CONTINUOUS
 10
7.0446017945
 20
2.4696965133
 11
7.2766017945
 21
2.4696965133
  0
LINE
  5
22A
100
AcDbEntity
  8
0
100
AcDbLine
 62
7
  6
CONTINUOUS
 10
7.0406017945
 20
2.4736965133
 11
7.2806017945
 21
2.4736965133
  0
LWPOLYLINE
  5
22B
100
AcDbEntity
  8
0
100
AcDbPolyline
 62
7
  6
CONTINUOUS
 90
10
 70
0
 10
4.4853744586
 20
5.1207480105
 10
4.4853912227
 20
5.1208701187
 10
4.4854091457
 20
5.1210521058
 10
4.4854187299
 20
5.1212346377
 10
4.4854199678
 20
5.1214172703
 10
4.485412873
 20
5.1215996854
 10
4.4853974557
 20
5.1217816523
 10
4.4853737314
 20
5.1219628402
 10
4.4853417433
 20
5.1221428205
 10
4.4853015488
 20
5.1223212173
  0
LINE
  5
22C
100
AcDbEntity
  8
0
100
AcDbLine
 62
7
  6
CONTINUOUS
 10
4.2160406065
 20
4.7326255419
 11
4.2131988113
 21
4.7140543271
  0
LINE
  5
22D
100
AcDbEntity
  8
0
100
AcDbLine
 62
7
  6
CONTINUOUS
 10
4.2253478344
 20
4.7312013359
 11
4.2225060392
 21
4.7126301211
  0
LINE
  5
22E
100
AcDbEntity
  8
0
100
AcDbLine
 62
7
  6
CONTINUOUS
 10
4.2658215998
 20
4.7250079795
 11
4.2629798046
 21
4.7064367647
  0
LINE
  5
22F
100
AcDbEntity
  8
0
100
AcDbLine
 62
7
  6
CONTINUOUS
 10
4.2691245052
 20
4.7245025639
 11
4.26628271
 21
4.7059313491
  0
LINE
  5
230
100
AcDbEntity
  8
0
100
AcDbLine
 62
7
  6
CONTINUOUS
 10
4.3095982707
 20
4.7183092075
 11
4.3067564755
 21
4.6997379927
  0
LINE
  5
231
100
AcDbEntity
  8
0
100
AcDbLine
 62
7
  6
CONTINUOUS
 10
4.3420905064
 20
4.7133371967
 11
4.3392487112
 21
4.6947659819
  0
LINE
  5
232
100
AcDbEntity
  8
0
100
AcDbLine
 62
7
  6
CONTINUOUS
 10
4.359379264
 20
4.7106916451
 11
4.3565374688
 21
4.6921204303
  0
LINE
  5
233
100
AcDbEntity
  8
0
100
AcDbLine
 62
7
  6
CONTINUOUS
 10
4.4787886628
 20
5.2168495921
 11
4.4808458099
 21
5.230293109
  0
LINE
  5
234
100
AcDbEntity
  8
0
100
AcDbLine
 62
7
  6
CONTINUOUS
 10
4.4789537239
 20
5.2154568459
 11
4.4812108043
 21
5.2302372581
  0
LINE
  5
235
100
AcDbEntity
  8
0
100
AcDbLine
 62
7
  6
CONTINUOUS
 10
4.4830419613
 20
5.1319467129
 11
4.4839183246
 21
5.1376737729
  0
LINE
  5
236
100
AcDbEntity
  8
0
100
AcDbLine
 62
7
  6
CONTINUOUS
 10
4.509451151
 20
5.304531541
 11
4.5102939324
 21
5.310039142
  0
LINE
  5
237
100
AcDbEntity
  8
0
100
AcDbLine
 62
7
  6
CONTINUOUS
 10
4.5859784007
 20
5.7781949678
 11
4.5632892777
 21
5.6299208848
  0
LINE
  5
238
100
AcDbEntity
  8
0
100
AcDbLine
 62
7
  6
CONTINUOUS
 10
4.4217853733
 20
4.7051887286
 11
4.4853748692
 21
5.1207479454
  0
LINE
  5
239
100
AcDbEntity
  8
0
100
AcDbLine
 62
7
  6
CONTINUOUS
 10
4.5158689464
 20
5.3200276321
 11
4.5626842344
 21
5.6259669093
  0
LWPOLYLINE
  5
23A
100
AcDbEntity
  8
0
100
AcDbPolyline
 62
7
  6
CONTINUOUS
 90
45
 70
0
 10
4.4812108043
 20
5.2302372581
 10
4.4814118144
 20
5.2315223607
 10
4.4817084552
 20
5.233325483
 10
4.4820222417
 20
5.2351293365
 10
4.4823529164
 20
5.2369325266
 10
4.4827003649
 20
5.2387344969
 10
4.4830646525
 20
5.2405355149
 10
4.4834456079
 20
5.2423345642
 10
4.4838430461
 20
5.2441305996
 10
4.4842570624
 20
5.2459237943
 10
4.48468747
 20
5.2477132225
 10
4.4851338867
 20
5.2494979412
 10
4.4855961504
 20
5.2512780466
 10
4.48607387
 20
5.2530527105
 10
4.4865666351
 20
5.2548210749
 10
4.4870742745
 20
5.2565831371
 10
4.4875963604
 20
5.258337975
 10
4.4881324554
 20
5.2600846751
 10
4.4886823852
 20
5.2618231838
 10
4.4892456832
 20
5.2635526952
 10
4.4898217091
 20
5.2652722466
 10
4.4904100148
 20
5.2669815138
 10
4.491010117
 20
5.2686800666
 10
4.4916211914
 20
5.2703665474
 10
4.4922422459
 20
5.272039241
 10
4.4928725898
 20
5.2736973336
 10
4.4935114395
 20
5.2753398076
 10
4.4941576138
 20
5.2769647117
 10
4.4948103119
 20
5.2785712584
 10
4.4954686808
 20
5.2801586598
 10
4.4961314176
 20
5.2817251121
 10
4.4967977238
 20
5.2832700786
 10
4.497466625
 20
5.2847926379
 10
4.4981365352
 20
5.2862905503
 10
4.4988065671
 20
5.2877632235
 10
4.499475762
 20
5.2892099224
 10
4.5001424325
 20
5.2906283905
 10
4.5008056642
 20
5.2920180763
 10
4.5014645523
 20
5.2933784489
 10
4.5021174699
 20
5.294707521
 10
4.5027634823
 20
5.2960047661
 10
4.5034017564
 20
5.2972698573
 10
4.5040308746
 20
5.2985013196
 10
4.5046499636
 20
5.2996987679
 10
4.5052582187
 20
5.3008619365
  0
LINE
  5
23B
100
AcDbEntity
  8
0
100
AcDbLine
 62
7
  6
CONTINUOUS
 10
4.0738700683
 20
4.7194432815
 11
4.0822857568
 21
4.7282522524
  0
LINE
  5
23C
100
AcDbEntity
  8
0
100
AcDbLine
 62
7
  6
CONTINUOUS
 10
4.106362304
 20
4.7144712707
 11
4.1196411472
 21
4.7283706615
  0
LINE
  5
23D
100
AcDbEntity
  8
0
100
AcDbLine
 62
7
  6
CONTINUOUS
 10
4.1501389749
 20
4.7077724987
 11
4.163417818
 21
4.7216718895
  0
LINE
  5
23E
100
AcDbEntity
  8
0
100
AcDbLine
 62
7
  6
CONTINUOUS
 10
4.1999199682
 20
4.7001549363
 11
4.2131988113
 21
4.7140543271
  0
LINE
  5
23F
100
AcDbEntity
  8
0
100
AcDbLine
 62
7
  6
CONTINUOUS
 10
4.2497009615
 20
4.6925373739
 11
4.2629798046
 21
4.7064367647
  0
LINE
  5
240
100
AcDbEntity
  8
0
100
AcDbLine
 62
7
  6
CONTINUOUS
 10
4.2934776323
 20
4.6858386019
 11
4.3067564755
 21
4.6997379927
  0
LINE
  5
241
100
AcDbEntity
  8
0
100
AcDbLine
 62
7
  6
CONTINUOUS
 10
7.2806017945
 20
2.6656838204
 11
7.0406017945
 21
2.6656838204
  0
LINE
  5
242
100
AcDbEntity
  8
0
100
AcDbLine
 62
7
  6
CONTINUOUS
 10
7.3086017945
 20
2.6696838204
 11
7.0126017945
 21
2.6696838204
  0
LINE
  5
243
100
AcDbEntity
  8
0
100
AcDbLine
 62
7
  6
CONTINUOUS
 10
7.0086017945
 20
2.6736838204
 11
7.3126017945
 21
2.6736838204
  0
LINE
  5
244
100
AcDbEntity
  8
0
100
AcDbLine
 62
7
  6
CONTINUOUS
 10
7.3126017945
 20
2.6971798833
 11
7.0086017945
 21
2.6971798833
  0
LINE
  5
245
100
AcDbEntity
  8
0
100
AcDbLine
 62
7
  6
CONTINUOUS
 10
6.9806017945
 20
2.7011798833
 11
7.3406017945
 21
2.7011798833
  0
LINE
  5
246
100
AcDbEntity
  8
0
100
AcDbLine
 62
7
  6
CONTINUOUS
 10
6.9766017945
 20
2.7051798833
 11
7.3446017945
 21
2.7051798833
  0
LINE
  5
247
100
AcDbEntity
  8
0
100
AcDbLine
 62
7
  6
CONTINUOUS
 10
4.5378693438
 20
5.1294181069
 11
4.5634021703
 21
5.296275875
  0
LINE
  5
248
100
AcDbEntity
  8
0
100
AcDbLine
 62
7
  6
CONTINUOUS
 10
4.5552194234
 20
5.1394809322
 11
4.5769491207
 21
5.2814851397
  0
LINE
  5
249
100
AcDbEntity
  8
0
100
AcDbLine
 62
7
  6
CONTINUOUS
 10
4.3259698681
 20
4.6808665912
 11
4.3392487112
 21
4.6947659819
  0
LINE
  5
24A
100
AcDbEntity
  8
0
100
AcDbLine
 62
7
  6
CONTINUOUS
 10
4.3432586256
 20
4.6782210395
 11
4.3565374688
 21
4.6921204303
  0
LINE
  5
24B
100
AcDbEntity
  8
0
100
AcDbLine
 62
7
  6
CONTINUOUS
 10
6.9766017945
 20
2.9806444503
 11
7.3446017945
 21
2.9806444503
  0
LINE
  5
24C
100
AcDbEntity
  8
0
100
AcDbLine
 62
7
  6
CONTINUOUS
 10
6.9806017945
 20
2.9846444503
 11
7.3406017945
 21
2.9846444503
  0
LINE
  5
24D
100
AcDbEntity
  8
0
100
AcDbLine
 62
7
  6
CONTINUOUS
 10
7.3126017945
 20
2.9886444503
 11
7.0086017945
 21
2.9886444503
  0
LINE
  5
24E
100
AcDbEntity
  8
0
100
AcDbLine
 62
7
  6
CONTINUOUS
 10
7.0086017945
 20
3.0121405133
 11
7.3126017945
 21
3.0121405133
  0
LINE
  5
24F
100
AcDbEntity
  8
0
100
AcDbLine
 62
7
  6
CONTINUOUS
 10
7.0126017945
 20
3.0161405133
 11
7.3086017945
 21
3.0161405133
  0
LINE
  5
250
100
AcDbEntity
  8
0
100
AcDbLine
 62
7
  6
CONTINUOUS
 10
7.0406017945
 20
3.0201405133
 11
7.2806017945
 21
3.0201405133
  0
LINE
  5
251
100
AcDbEntity
  8
0
100
AcDbLine
 62
7
  6
CONTINUOUS
 10
4.0379011113
 20
4.7249473053
 11
4.0293863884
 21
4.7421815803
  0
LINE
  5
252
100
AcDbEntity
  8
0
100
AcDbLine
 62
7
  6
CONTINUOUS
 10
4.0551898688
 20
4.7223017537
 11
4.046675146
 21
4.7395360286
  0
LINE
  5
253
100
AcDbEntity
  8
0
100
AcDbLine
 62
7
  6
CONTINUOUS
 10
4.0876821046
 20
4.7173297429
 11
4.0791673817
 21
4.7345640179
  0
LINE
  5
254
100
AcDbEntity
  8
0
100
AcDbLine
 62
7
  6
CONTINUOUS
 10
4.1314587754
 20
4.7106309709
 11
4.1229440526
 21
4.7278652459
  0
LINE
  5
255
100
AcDbEntity
  8
0
100
AcDbLine
 62
7
  6
CONTINUOUS
 10
4.1812397687
 20
4.7030134085
 11
4.1727250459
 21
4.7202476835
  0
LINE
  5
256
100
AcDbEntity
  8
0
100
AcDbLine
 62
7
  6
CONTINUOUS
 10
4.231020762
 20
4.6953958461
 11
4.2225060392
 21
4.7126301211
  0
LINE
  5
257
100
AcDbEntity
  8
0
100
AcDbLine
 62
7
  6
CONTINUOUS
 10
4.2747974328
 20
4.6886970741
 11
4.26628271
 21
4.7059313491
  0
LINE
  5
258
100
AcDbEntity
  8
0
100
AcDbLine
 62
7
  6
CONTINUOUS
 10
4.3072896686
 20
4.6837250634
 11
4.3018933208
 21
4.6946475729
  0
LINE
  5
259
100
AcDbEntity
  8
0
100
AcDbLine
 62
7
  6
CONTINUOUS
 10
4.4853748567
 20
5.1207478677
 11
4.4853740129
 21
5.1207510692
  0
LINE
  5
25A
100
AcDbEntity
  8
0
100
AcDbLine
 62
7
  6
CONTINUOUS
 10
4.4853740129
 20
5.1207510692
 11
4.4848898341
 21
5.1226556635
  0
LINE
  5
25B
100
AcDbEntity
  8
0
100
AcDbLine
 62
7
  6
CONTINUOUS
 10
4.4850733606
 20
5.1219286586
 11
4.4848898218
 21
5.1226555599
  0
LINE
  5
25C
100
AcDbEntity
  8
0
100
AcDbLine
 62
7
  6
CONTINUOUS
 10
4.4853015488
 20
5.1223212173
 11
4.4848831985
 21
5.1240092561
  0
LINE
  5
25D
100
AcDbEntity
  8
0
100
AcDbLine
 62
7
  6
CONTINUOUS
 10
4.4848883946
 20
5.123988097
 11
4.4844414549
 21
5.12583432
  0
LINE
  5
25E
100
AcDbEntity
  8
0
100
AcDbLine
 62
7
  6
CONTINUOUS
 10
4.4845733357
 20
5.1252843778
 11
4.4840147626
 21
5.1276399423
  0
LINE
  5
25F
100
AcDbEntity
  8
0
100
AcDbLine
 62
7
  6
CONTINUOUS
 10
4.4840242016
 20
5.1276002495
 11
4.4836885764
 21
5.1290531173
  0
LINE
  5
260
100
AcDbEntity
  8
0
100
AcDbLine
 62
7
  6
CONTINUOUS
 10
4.4836982996
 20
5.1290104501
 11
4.4833315287
 21
5.1306346838
  0
LINE
  5
261
100
AcDbEntity
  8
0
100
AcDbLine
 62
7
  6
CONTINUOUS
 10
4.48334165
 20
5.1305885631
 11
4.4829465173
 21
5.1323829339
  0
LINE
  5
262
100
AcDbEntity
  8
0
100
AcDbLine
 62
7
  6
CONTINUOUS
 10
4.4831526765
 20
5.1314404747
 11
4.4830419321
 21
5.1319465221
  0
LINE
  5
263
100
AcDbEntity
  8
0
100
AcDbLine
 62
7
  6
CONTINUOUS
 10
4.4829465173
 20
5.1323829339
 11
4.4825371258
 21
5.1342962134
  0
LINE
  5
264
100
AcDbEntity
  8
0
100
AcDbLine
 62
7
  6
CONTINUOUS
 10
4.4825371258
 20
5.1342962134
 11
4.4821072529
 21
5.1363729089
  0
LINE
  5
265
100
AcDbEntity
  8
0
100
AcDbLine
 62
7
  6
CONTINUOUS
 10
4.4821072529
 20
5.1363729089
 11
4.4816612867
 21
5.138609594
  0
LWPOLYLINE
  5
266
100
AcDbEntity
  8
0
100
AcDbPolyline
 62
7
  6
CONTINUOUS
 90
46
 70
0
 10
4.4816612867
 20
5.138609594
 10
4.4812039089
 20
5.1410023385
 10
4.4809726805
 20
5.1422552337
 10
4.4807406227
 20
5.143545208
 10
4.4805085399
 20
5.1448709577
 10
4.4802770842
 20
5.1462320306
 10
4.4800469511
 20
5.1476277574
 10
4.4798190334
 20
5.149056323
 10
4.4795940253
 20
5.1505171904
 10
4.4793726657
 20
5.152009565
 10
4.4791559197
 20
5.1535310293
 10
4.4789444932
 20
5.1550808112
 10
4.478739093
 20
5.1566581195
 10
4.4785406536
 20
5.1582602684
 10
4.4783498658
 20
5.1598862594
 10
4.4781673905
 20
5.1615352895
 10
4.4779940642
 20
5.1632047647
 10
4.4778305361
 20
5.1648935113
 10
4.4776773935
 20
5.1666007777
 10
4.47753531
 20
5.1683244513
 10
4.4774048371
 20
5.1700634835
 10
4.4772865076
 20
5.1718169012
 10
4.4771809031
 20
5.173582623
 10
4.4770884889
 20
5.1753594978
 10
4.4770096777
 20
5.1771465726
 10
4.476944898
 20
5.1789419978
 10
4.4768945294
 20
5.1807442303
 10
4.4768588888
 20
5.1825527332
 10
4.4768382445
 20
5.1843671348
 10
4.4768328616
 20
5.1861862607
 10
4.4768429893
 20
5.1880092411
 10
4.4768688703
 20
5.1898361964
 10
4.4769106855
 20
5.1916661224
 10
4.47696859
 20
5.1934980242
 10
4.477042778
 20
5.1953320518
 10
4.4771333804
 20
5.197167258
 10
4.4772404621
 20
5.1990026641
 10
4.4773641533
 20
5.2008384144
 10
4.4775045148
 20
5.20267357
 10
4.4776615361
 20
5.2045071965
 10
4.4778352904
 20
5.2063394811
 10
4.4780257566
 20
5.2081695081
 10
4.4782328517
 20
5.2099963892
 10
4.4784566063
 20
5.2118203787
 10
4.4786969708
 20
5.2136409736
 10
4.4789537239
 20
5.2154568459
  0
LINE
  5
267
100
AcDbEntity
  8
0
100
AcDbLine
 62
7
  6
CONTINUOUS
 10
7.4806017945
 20
3.6249121668
 11
7.2806017945
 21
3.6249121668
  0
LINE
  5
268
100
AcDbEntity
  8
0
100
AcDbLine
 62
7
  6
CONTINUOUS
 10
7.0406017945
 20
3.6249121668
 11
6.8406017945
 21
3.6249121668
  0
LINE
  5
269
100
AcDbEntity
  8
0
100
AcDbLine
 62
7
  6
CONTINUOUS
 10
7.5106017945
 20
3.6369121668
 11
7.2806017945
 21
3.6369121668
  0
LINE
  5
26A
100
AcDbEntity
  8
0
100
AcDbLine
 62
7
  6
CONTINUOUS
 10
7.0406017945
 20
3.6369121668
 11
6.8106017945
 21
3.6369121668
  0
LINE
  5
26B
100
AcDbEntity
  8
0
100
AcDbLine
 62
7
  6
CONTINUOUS
 10
7.5186017945
 20
3.6449121668
 11
7.2806017945
 21
3.6449121668
  0
LINE
  5
26C
100
AcDbEntity
  8
0
100
AcDbLine
 62
7
  6
CONTINUOUS
 10
7.0406017945
 20
3.6449121668
 11
6.8026017945
 21
3.6449121668
  0
LINE
  5
26D
100
AcDbEntity
  8
0
100
AcDbLine
 62
7
  6
CONTINUOUS
 10
7.5186017945
 20
3.7689121668
 11
7.2806017945
 21
3.7689121668
  0
LINE
  5
26E
100
AcDbEntity
  8
0
100
AcDbLine
 62
7
  6
CONTINUOUS
 10
7.0406017945
 20
3.7689121668
 11
6.8026017945
 21
3.7689121668
  0
LINE
  5
26F
100
AcDbEntity
  8
0
100
AcDbLine
 62
7
  6
CONTINUOUS
 10
7.5106017945
 20
3.7769121668
 11
7.2806017945
 21
3.7769121668
  0
LINE
  5
270
100
AcDbEntity
  8
0
100
AcDbLine
 62
7
  6
CONTINUOUS
 10
7.0406017945
 20
3.7769121668
 11
6.8106017945
 21
3.7769121668
  0
LINE
  5
271
100
AcDbEntity
  8
0
100
AcDbLine
 62
7
  6
CONTINUOUS
 10
6.8346017945
 20
3.7849121668
 11
7.0406017945
 21
3.7849121668
  0
LINE
  5
272
100
AcDbEntity
  8
0
100
AcDbLine
 62
7
  6
CONTINUOUS
 10
7.2806017945
 20
3.7849121668
 11
7.4866017945
 21
3.7849121668
  0
LINE
  5
273
100
AcDbEntity
  8
0
100
AcDbLine
 62
7
  6
CONTINUOUS
 10
7.4866017945
 20
3.8009121668
 11
7.2806017945
 21
3.8009121668
  0
LINE
  5
274
100
AcDbEntity
  8
0
100
AcDbLine
 62
7
  6
CONTINUOUS
 10
7.0406017945
 20
3.8009121668
 11
6.8346017945
 21
3.8009121668
  0
LINE
  5
275
100
AcDbEntity
  8
0
100
AcDbLine
 62
7
  6
CONTINUOUS
 10
7.4786017945
 20
3.8089121668
 11
7.2806017945
 21
3.8089121668
  0
LINE
  5
276
100
AcDbEntity
  8
0
100
AcDbLine
 62
7
  6
CONTINUOUS
 10
7.0406017945
 20
3.8089121668
 11
6.8426017945
 21
3.8089121668
  0
LINE
  5
277
100
AcDbEntity
  8
0
100
AcDbLine
 62
7
  6
CONTINUOUS
 10
7.4166017945
 20
3.8449121668
 11
7.2806017945
 21
3.8449121668
  0
LINE
  5
278
100
AcDbEntity
  8
0
100
AcDbLine
 62
7
  6
CONTINUOUS
 10
7.0406017945
 20
3.8449121668
 11
6.9046017945
 21
3.8449121668
  0
LINE
  5
279
100
AcDbEntity
  8
0
100
AcDbLine
 62
7
  6
CONTINUOUS
 10
7.4046017945
 20
3.8569121668
 11
7.2806017945
 21
3.8569121668
  0
LINE
  5
27A
100
AcDbEntity
  8
0
100
AcDbLine
 62
7
  6
CONTINUOUS
 10
7.0406017945
 20
3.8569121668
 11
6.9166017945
 21
3.8569121668
  0
LINE
  5
27B
100
AcDbEntity
  8
0
100
AcDbLine
 62
7
  6
CONTINUOUS
 10
7.0406017945
 20
4.1648965133
 11
7.2806017945
 21
4.1648965133
  0
LINE
  5
27C
100
AcDbEntity
  8
0
100
AcDbLine
 62
7
  6
CONTINUOUS
 10
7.0446017945
 20
4.1688965133
 11
7.2766017945
 21
4.1688965133
  0
LINE
  5
27D
100
AcDbEntity
  8
0
100
AcDbLine
 62
7
  6
CONTINUOUS
 10
4.0379011113
 20
4.7249473053
 11
4.0738700683
 21
4.7194432815
  0
LINE
  5
27E
100
AcDbEntity
  8
0
100
AcDbLine
 62
7
  6
CONTINUOUS
 10
4.0876821046
 20
4.7173297429
 11
4.106362304
 21
4.7144712707
  0
LINE
  5
27F
100
AcDbEntity
  8
0
100
AcDbLine
 62
7
  6
CONTINUOUS
 10
4.1314587754
 20
4.7106309709
 11
4.1501389749
 21
4.7077724987
  0
LINE
  5
280
100
AcDbEntity
  8
0
100
AcDbLine
 62
7
  6
CONTINUOUS
 10
4.1812397687
 20
4.7030134085
 11
4.1999199682
 21
4.7001549363
  0
LINE
  5
281
100
AcDbEntity
  8
0
100
AcDbLine
 62
7
  6
CONTINUOUS
 10
4.231020762
 20
4.6953958461
 11
4.2497009615
 21
4.6925373739
  0
LINE
  5
282
100
AcDbEntity
  8
0
100
AcDbLine
 62
7
  6
CONTINUOUS
 10
4.2747974328
 20
4.6886970741
 11
4.2934776323
 21
4.6858386019
  0
LINE
  5
283
100
AcDbEntity
  8
0
100
AcDbLine
 62
7
  6
CONTINUOUS
 10
4.3072896686
 20
4.6837250634
 11
4.3432586256
 21
4.6782210395
  0
LINE
  5
284
100
AcDbEntity
  8
0
100
AcDbLine
 62
7
  6
CONTINUOUS
 10
4.0293863884
 20
4.7421815803
 11
4.1196411472
 21
4.7283706615
  0
LINE
  5
285
100
AcDbEntity
  8
0
100
AcDbLine
 62
7
  6
CONTINUOUS
 10
4.1229440526
 20
4.7278652459
 11
4.163417818
 21
4.7216718895
  0
LINE
  5
286
100
AcDbEntity
  8
0
100
AcDbLine
 62
7
  6
CONTINUOUS
 10
4.1727250459
 20
4.7202476835
 11
4.2131988113
 21
4.7140543271
  0
LINE
  5
287
100
AcDbEntity
  8
0
100
AcDbLine
 62
7
  6
CONTINUOUS
 10
4.2225060392
 20
4.7126301211
 11
4.2629798046
 21
4.7064367647
  0
LINE
  5
288
100
AcDbEntity
  8
0
100
AcDbLine
 62
7
  6
CONTINUOUS
 10
4.26628271
 20
4.7059313491
 11
4.3565374688
 21
4.6921204303
  0
LINE
  5
289
100
AcDbEntity
  8
0
100
AcDbLine
 62
7
  6
CONTINUOUS
 10
4.4172263544
 20
4.7018397963
 11
3.9743810932
 21
4.7696046438
  0
LINE
  5
28A
100
AcDbEntity
  8
0
100
AcDbLine
 62
7
  6
CONTINUOUS
 10
4.4217853733
 20
4.7051887286
 11
3.9710321609
 21
4.7741636626
  0
LINE
  5
28B
100
AcDbEntity
  8
0
100
AcDbLine
 62
7
  6
CONTINUOUS
 10
7.3276040707
 20
2.6282164797
 11
7.3325159036
 21
2.6219018976
  0
LINE
  5
28C
100
AcDbEntity
  8
0
100
AcDbLine
 62
7
  6
CONTINUOUS
 10
7.3209665729
 20
2.5846504046
 11
7.3251866983
 21
2.5778540421
  0
LINE
  5
28D
100
AcDbEntity
  8
0
100
AcDbLine
 62
7
  6
CONTINUOUS
 10
4.4839183246
 20
5.1376737729
 11
4.5378693438
 21
5.1294181069
  0
LINE
  5
28E
100
AcDbEntity
  8
0
100
AcDbLine
 62
7
  6
CONTINUOUS
 10
4.4787886628
 20
5.2168495921
 11
4.479153657
 21
5.2167937401
  0
LINE
  5
28F
100
AcDbEntity
  8
0
100
AcDbLine
 62
7
  6
CONTINUOUS
 10
4.4808458099
 20
5.230293109
 11
4.4812108043
 21
5.2302372581
  0
LINE
  5
290
100
AcDbEntity
  8
0
100
AcDbLine
 62
7
  6
CONTINUOUS
 10
4.509451151
 20
5.304531541
 11
4.5634021703
 21
5.296275875
  0
LINE
  5
291
100
AcDbEntity
  8
0
100
AcDbLine
 62
7
  6
CONTINUOUS
 10
6.7726017945
 20
1.3529121668
 11
6.7726017945
 21
1.1769121668
  0
LINE
  5
292
100
AcDbEntity
  8
0
100
AcDbLine
 62
7
  6
CONTINUOUS
 10
6.8026017945
 20
3.6449121668
 11
6.8026017945
 21
3.7689121668
  0
LINE
  5
293
100
AcDbEntity
  8
0
100
AcDbLine
 62
7
  6
CONTINUOUS
 10
6.8046017945
 20
1.3769121668
 11
6.8046017945
 21
1.3849121668
  0
LINE
  5
294
100
AcDbEntity
  8
0
100
AcDbLine
 62
7
  6
CONTINUOUS
 10
6.8346017945
 20
3.7849121668
 11
6.8346017945
 21
3.8009121668
  0
LINE
  5
295
100
AcDbEntity
  8
0
100
AcDbLine
 62
7
  6
CONTINUOUS
 10
6.8406017945
 20
1.3969121668
 11
6.8406017945
 21
3.6249121668
  0
LINE
  5
296
100
AcDbEntity
  8
0
100
AcDbLine
 62
7
  6
CONTINUOUS
 10
6.9046017945
 20
3.8089121668
 11
6.9046017945
 21
3.8449121668
  0
LINE
  5
297
100
AcDbEntity
  8
0
100
AcDbLine
 62
7
  6
CONTINUOUS
 10
6.9326017945
 20
3.8569121668
 11
6.9326017945
 21
5.5996919401
  0
LINE
  5
298
100
AcDbEntity
  8
0
100
AcDbLine
 62
7
  6
CONTINUOUS
 10
7.0031604619
 20
2.5771146464
 11
7.0021223327
 21
2.584219701
  0
LINE
  5
299
100
AcDbEntity
  8
0
100
AcDbLine
 62
7
  6
CONTINUOUS
 10
6.9964336163
 20
2.6205536477
 11
6.9955656203
 21
2.6276233421
  0
LINE
  5
29A
100
AcDbEntity
  8
0
100
AcDbLine
 62
7
  6
CONTINUOUS
 10
6.9766017945
 20
2.9806444503
 11
6.9766017945
 21
2.7051798833
  0
LINE
  5
29B
100
AcDbEntity
  8
0
100
AcDbLine
 62
7
  6
CONTINUOUS
 10
7.0086017945
 20
3.0121405133
 11
7.0086017945
 21
2.9886444503
  0
LINE
  5
29C
100
AcDbEntity
  8
0
100
AcDbLine
 62
7
  6
CONTINUOUS
 10
7.0086017945
 20
2.6971798833
 11
7.0086017945
 21
2.6736838204
  0
LINE
  5
29D
100
AcDbEntity
  8
0
100
AcDbLine
 62
7
  6
CONTINUOUS
 10
7.0406017945
 20
2.4736965133
 11
7.0406017945
 21
2.6656838204
  0
LINE
  5
29E
100
AcDbEntity
  8
0
100
AcDbLine
 62
7
  6
CONTINUOUS
 10
7.0406017945
 20
3.0201405133
 11
7.0406017945
 21
4.1648965133
  0
LINE
  5
29F
100
AcDbEntity
  8
0
100
AcDbLine
 62
7
  6
CONTINUOUS
 10
6.9326017945
 20
5.5996919401
 11
7.3886017945
 21
5.5996919401
  0
LINE
  5
2A0
100
AcDbEntity
  8
0
100
AcDbLine
 62
7
  6
CONTINUOUS
 10
4.5626842344
 20
5.6259669093
 11
4.111931022
 21
5.6949418433
  0
LINE
  5
2A1
100
AcDbEntity
  8
0
100
AcDbLine
 62
7
  6
CONTINUOUS
 10
4.5632892777
 20
5.6299208848
 11
4.1125360653
 21
5.6988958189
  0
LINE
  5
2A2
100
AcDbEntity
  8
0
100
AcDbLine
 62
7
  6
CONTINUOUS
 10
4.5859784007
 20
5.7781949678
 11
4.1352251883
 21
5.8471699019
  0
LINE
  5
2A3
100
AcDbEntity
  8
0
100
AcDbLine
 62
7
  6
CONTINUOUS
 10
7.2806017945
 20
2.4736965133
 11
7.2806017945
 21
2.6656838204
  0
LINE
  5
2A4
100
AcDbEntity
  8
0
100
AcDbLine
 62
7
  6
CONTINUOUS
 10
7.2806017945
 20
3.0201405133
 11
7.2806017945
 21
4.1648965133
  0
LINE
  5
2A5
100
AcDbEntity
  8
0
100
AcDbLine
 62
7
  6
CONTINUOUS
 10
7.3126017945
 20
3.0121405133
 11
7.3126017945
 21
2.9886444503
  0
LINE
  5
2A6
100
AcDbEntity
  8
0
100
AcDbLine
 62
7
  6
CONTINUOUS
 10
7.3126017945
 20
2.6971798833
 11
7.3126017945
 21
2.6736838204
  0
LINE
  5
2A7
100
AcDbEntity
  8
0
100
AcDbLine
 62
7
  6
CONTINUOUS
 10
7.3446017945
 20
2.9806444503
 11
7.3446017945
 21
2.7051798833
  0
LINE
  5
2A8
100
AcDbEntity
  8
0
100
AcDbLine
 62
7
  6
CONTINUOUS
 10
7.3886017945
 20
3.8569121668
 11
7.3886017945
 21
5.5996919401
  0
LINE
  5
2A9
100
AcDbEntity
  8
0
100
AcDbLine
 62
7
  6
CONTINUOUS
 10
7.4166017945
 20
3.8089121668
 11
7.4166017945
 21
3.8449121668
  0
LINE
  5
2AA
100
AcDbEntity
  8
0
100
AcDbLine
 62
7
  6
CONTINUOUS
 10
7.4806017945
 20
1.3969121668
 11
7.4806017945
 21
3.6249121668
  0
LINE
  5
2AB
100
AcDbEntity
  8
0
100
AcDbLine
 62
7
  6
CONTINUOUS
 10
7.4866017945
 20
3.7849121668
 11
7.4866017945
 21
3.8009121668
  0
LINE
  5
2AC
100
AcDbEntity
  8
0
100
AcDbLine
 62
7
  6
CONTINUOUS
 10
7.5166017945
 20
1.3769121668
 11
7.5166017945
 21
1.3849121668
  0
LINE
  5
2AD
100
AcDbEntity
  8
0
100
AcDbLine
 62
7
  6
CONTINUOUS
 10
7.5186017945
 20
3.6449121668
 11
7.5186017945
 21
3.7689121668
  0
LINE
  5
2AE
100
AcDbEntity
  8
0
100
AcDbLine
 62
7
  6
CONTINUOUS
 10
7.5486017945
 20
1.3529121668
 11
7.5486017945
 21
1.1769121668
  0
LINE
  5
2AF
100
AcDbEntity
  8
0
100
AcDbLine
 62
7
  6
CONTINUOUS
 10
6.9960169034
 20
2.5778540343
 11
7.0002370343
 21
2.5846503933
  0
LINE
  5
2B0
100
AcDbEntity
  8
0
100
AcDbLine
 62
7
  6
CONTINUOUS
 10
6.9886876861
 20
2.6219018971
 11
6.9935995188
 21
2.6282164791
  0
ARC
  5
2B1
100
AcDbEntity
  8
0
100
AcDbCircle
 62
7
  6
CONTINUOUS
 10
5.75250091
 20
5.5996919348
 40
1.6361008845
100
AcDbArc
 50
0.0000001876
 51
171.2999998124
  0
ARC
  5
2B2
100
AcDbEntity
  8
0
100
AcDbCircle
 62
7
  6
CONTINUOUS
 10
5.7525009104
 20
5.5996919401
 40
1.1801008841
100
AcDbArc
 50
0.0
 51
171.3
  0
ARC
  5
2B3
100
AcDbEntity
  8
0
100
AcDbCircle
 62
7
  6
CONTINUOUS
 10
4.8098465153
 20
5.1376133017
 40
0.3459739448
100
AcDbArc
 50
148.3418065959
 51
148.5220330441
  0
ARC
  5
2B4
100
AcDbEntity
  8
0
100
AcDbCircle
 62
7
  6
CONTINUOUS
 10
4.2424378834
 20
5.2600078928
 40
0.3352
100
AcDbArc
 50
338.9263748838
 51
3.6736251162
  0
ARC
  5
2B5
100
AcDbEntity
  8
0
100
AcDbCircle
 62
7
  6
CONTINUOUS
 10
4.6862060049
 20
5.19208367
 40
0.2082389925
100
AcDbArc
 50
169.2957849922
 51
169.4565661111
  0
ARC
  5
2B6
100
AcDbEntity
  8
0
100
AcDbCircle
 62
7
  6
CONTINUOUS
 10
4.6857108062
 20
5.1921753041
 40
0.2077353871
100
AcDbArc
 50
169.4564213527
 51
171.2993729958
  0
ARC
  5
2B7
100
AcDbEntity
  8
0
100
AcDbCircle
 62
7
  6
CONTINUOUS
 10
4.6856833966
 20
5.192183595
 40
0.2077070388
100
AcDbArc
 50
171.3004899546
 51
173.2049375015
  0
ARC
  5
2B8
100
AcDbEntity
  8
0
100
AcDbCircle
 62
7
  6
CONTINUOUS
 10
4.540289517
 20
5.1452340091
 40
0.016
100
AcDbArc
 50
261.3
 51
338.9263748838
  0
ARC
  5
2B9
100
AcDbEntity
  8
0
100
AcDbCircle
 62
7
  6
CONTINUOUS
 10
4.5609819972
 20
5.2804599728
 40
0.016
100
AcDbArc
 50
3.6736251162
 51
81.3
  0
ARC
  5
2BA
100
AcDbEntity
  8
0
100
AcDbCircle
 62
7
  6
CONTINUOUS
 10
3.9749861364
 20
4.7735586194
 40
0.004
100
AcDbArc
 50
171.3
 51
261.3
  0
ARC
  5
2BB
100
AcDbEntity
  8
0
100
AcDbCircle
 62
7
  6
CONTINUOUS
 10
4.4178313977
 20
4.7057937719
 40
0.004
100
AcDbArc
 50
261.3
 51
351.3
  0
ARC
  5
2BC
100
AcDbEntity
  8
0
100
AcDbCircle
 62
7
  6
CONTINUOUS
 10
4.1158849976
 20
5.6943368
 40
0.004
100
AcDbArc
 50
81.3
 51
171.3
  0
ARC
  5
2BD
100
AcDbEntity
  8
0
100
AcDbCircle
 62
7
  6
CONTINUOUS
 10
4.5587302588
 20
5.6265719526
 40
0.004
100
AcDbArc
 50
351.3
 51
81.3
  0
ARC
  5
2BE
100
AcDbEntity
  8
0
100
AcDbCircle
 62
7
  6
CONTINUOUS
 10
6.7926017945
 20
1.3769121668
 40
0.012
100
AcDbArc
 50
270.0
 51
360.0
  0
ARC
  5
2BF
100
AcDbEntity
  8
0
100
AcDbCircle
 62
7
  6
CONTINUOUS
 10
6.8166017945
 20
1.3849121668
 40
0.012
100
AcDbArc
 50
90.0
 51
180.0
  0
ARC
  5
2C0
100
AcDbEntity
  8
0
100
AcDbCircle
 62
7
  6
CONTINUOUS
 10
6.7846017945
 20
1.3529121668
 40
0.012
100
AcDbArc
 50
90.0
 51
180.0
  0
ARC
  5
2C1
100
AcDbEntity
  8
0
100
AcDbCircle
 62
7
  6
CONTINUOUS
 10
6.7329475866
 20
2.3856405567
 40
0.6108543238
100
AcDbArc
 50
18.8365921542
 51
21.8553340887
  0
ARC
  5
2C2
100
AcDbEntity
  8
0
100
AcDbCircle
 62
7
  6
CONTINUOUS
 10
6.743228802
 20
2.3808811236
 40
0.6106987651
100
AcDbArc
 50
19.4485727527
 51
22.0084643593
  0
ARC
  5
2C3
100
AcDbEntity
  8
0
100
AcDbCircle
 62
7
  6
CONTINUOUS
 10
7.1572670596
 20
2.8131303343
 40
0.2769142618
100
AcDbArc
 50
296.4492347565
 51
303.7435279033
  0
ARC
  5
2C4
100
AcDbEntity
  8
0
100
AcDbCircle
 62
7
  6
CONTINUOUS
 10
7.1544191116
 20
2.8219003717
 40
0.2545320986
100
AcDbArc
 50
304.8582197699
 51
309.8115343186
  0
ARC
  5
2C5
100
AcDbEntity
  8
0
100
AcDbCircle
 62
7
  6
CONTINUOUS
 10
7.147611083
 20
2.7215954918
 40
0.1568274067
100
AcDbArc
 50
327.9968713945
 51
340.6682318034
  0
ARC
  5
2C6
100
AcDbEntity
  8
0
100
AcDbCircle
 62
7
  6
CONTINUOUS
 10
7.0366017945
 20
3.0201405133
 40
0.004
100
AcDbArc
 50
270.0000000314
 51
360.0
  0
ARC
  5
2C7
100
AcDbEntity
  8
0
100
AcDbCircle
 62
7
  6
CONTINUOUS
 10
7.0366017945
 20
2.6656838204
 40
0.004
100
AcDbArc
 50
0.0
 51
89.9999999884
  0
ARC
  5
2C8
100
AcDbEntity
  8
0
100
AcDbCircle
 62
7
  6
CONTINUOUS
 10
7.0446017945
 20
2.4736965133
 40
0.004
100
AcDbArc
 50
180.0
 51
270.0
  0
ARC
  5
2C9
100
AcDbEntity
  8
0
100
AcDbCircle
 62
7
  6
CONTINUOUS
 10
6.9806017945
 20
2.9806444503
 40
0.004
100
AcDbArc
 50
90.0
 51
180.0
  0
ARC
  5
2CA
100
AcDbEntity
  8
0
100
AcDbCircle
 62
7
  6
CONTINUOUS
 10
6.9806017945
 20
2.7051798833
 40
0.004
100
AcDbArc
 50
180.0
 51
270.0
  0
ARC
  5
2CB
100
AcDbEntity
  8
0
100
AcDbCircle
 62
7
  6
CONTINUOUS
 10
7.0046017945
 20
2.6971798833
 40
0.004
100
AcDbArc
 50
0.0
 51
90.0
  0
ARC
  5
2CC
100
AcDbEntity
  8
0
100
AcDbCircle
 62
7
  6
CONTINUOUS
 10
7.0126017945
 20
2.6736838204
 40
0.004
100
AcDbArc
 50
180.0
 51
270.0
  0
ARC
  5
2CD
100
AcDbEntity
  8
0
100
AcDbCircle
 62
7
  6
CONTINUOUS
 10
7.0046017945
 20
2.9886444503
 40
0.004
100
AcDbArc
 50
270.0
 51
360.0
  0
ARC
  5
2CE
100
AcDbEntity
  8
0
100
AcDbCircle
 62
7
  6
CONTINUOUS
 10
7.0126017945
 20
3.0121405133
 40
0.004
100
AcDbArc
 50
90.0
 51
180.0
  0
ARC
  5
2CF
100
AcDbEntity
  8
0
100
AcDbCircle
 62
7
  6
CONTINUOUS
 10
7.5286017945
 20
1.3769121668
 40
0.012
100
AcDbArc
 50
180.0
 51
270.0
  0
ARC
  5
2D0
100
AcDbEntity
  8
0
100
AcDbCircle
 62
7
  6
CONTINUOUS
 10
7.5046017945
 20
1.3849121668
 40
0.012
100
AcDbArc
 50
0.0
 51
90.0
  0
ARC
  5
2D1
100
AcDbEntity
  8
0
100
AcDbCircle
 62
7
  6
CONTINUOUS
 10
7.5366017945
 20
1.3529121668
 40
0.012
100
AcDbArc
 50
0.0
 51
90.0
  0
ARC
  5
2D2
100
AcDbEntity
  8
0
100
AcDbCircle
 62
7
  6
CONTINUOUS
 10
7.5839270953
 20
2.3872179884
 40
0.6062477497
100
AcDbArc
 50
158.1307314006
 51
161.1724161827
  0
ARC
  5
2D3
100
AcDbEntity
  8
0
100
AcDbCircle
 62
7
  6
CONTINUOUS
 10
7.5683722102
 20
2.384502475
 40
0.6004380828
100
AcDbArc
 50
157.9684918985
 51
160.5721732798
  0
ARC
  5
2D4
100
AcDbEntity
  8
0
100
AcDbCircle
 62
7
  6
CONTINUOUS
 10
7.1606017945
 20
2.8429121668
 40
0.3143444843
100
AcDbArc
 50
112.4431246305
 51
247.5568753695
  0
ARC
  5
2D5
100
AcDbEntity
  8
0
100
AcDbCircle
 62
7
  6
CONTINUOUS
 10
7.1606017945
 20
2.8429121668
 40
0.3143444843
100
AcDbArc
 50
292.4431246305
 51
67.5568753695
  0
ARC
  5
2D6
100
AcDbEntity
  8
0
100
AcDbCircle
 62
7
  6
CONTINUOUS
 10
7.1606017945
 20
2.8429121668
 40
0.312
100
AcDbArc
 50
292.6199078732
 51
67.3795016684
  0
ARC
  5
2D7
100
AcDbEntity
  8
0
100
AcDbCircle
 62
7
  6
CONTINUOUS
 10
7.1606017945
 20
2.8429121668
 40
0.312
100
AcDbArc
 50
112.6204983307
 51
247.3800923426
  0
ARC
  5
2D8
100
AcDbEntity
  8
0
100
AcDbCircle
 62
7
  6
CONTINUOUS
 10
7.1606017945
 20
2.8429121668
 40
0.304
100
AcDbArc
 50
301.8374404039
 51
66.7496576449
  0
ARC
  5
2D9
100
AcDbEntity
  8
0
100
AcDbCircle
 62
7
  6
CONTINUOUS
 10
7.1606017945
 20
2.8429121668
 40
0.304
100
AcDbArc
 50
113.2503424048
 51
238.162305742
  0
ARC
  5
2DA
100
AcDbEntity
  8
0
100
AcDbCircle
 62
7
  6
CONTINUOUS
 10
7.1606017945
 20
2.8429121668
 40
0.28
100
AcDbArc
 50
115.3776607063
 51
235.3936631901
  0
ARC
  5
2DB
100
AcDbEntity
  8
0
100
AcDbCircle
 62
7
  6
CONTINUOUS
 10
7.1606017945
 20
2.8429121668
 40
0.28
100
AcDbArc
 50
304.6063368099
 51
64.6223392931
  0
ARC
  5
2DC
100
AcDbEntity
  8
0
100
AcDbCircle
 62
7
  6
CONTINUOUS
 10
7.1639405645
 20
2.813137931
 40
0.2769228528
100
AcDbArc
 50
236.2566600258
 51
243.5507312767
  0
ARC
  5
2DD
100
AcDbEntity
  8
0
100
AcDbCircle
 62
7
  6
CONTINUOUS
 10
7.1606017945
 20
2.8429121668
 40
0.272
100
AcDbArc
 50
307.8777628375
 51
63.8201737042
  0
ARC
  5
2DE
100
AcDbEntity
  8
0
100
AcDbCircle
 62
7
  6
CONTINUOUS
 10
7.1606017945
 20
2.8429121668
 40
0.272
100
AcDbArc
 50
116.1798262404
 51
232.1223232528
  0
ARC
  5
2DF
100
AcDbEntity
  8
0
100
AcDbCircle
 62
7
  6
CONTINUOUS
 10
7.1667863473
 20
2.8219028747
 40
0.2545352212
100
AcDbArc
 50
230.1885043274
 51
235.1417568697
  0
ARC
  5
2E0
100
AcDbEntity
  8
0
100
AcDbCircle
 62
7
  6
CONTINUOUS
 10
7.1735921052
 20
2.7215952932
 40
0.1568269592
100
AcDbArc
 50
199.3317487699
 51
212.0031504152
  0
ARC
  5
2E1
100
AcDbEntity
  8
0
100
AcDbCircle
 62
7
  6
CONTINUOUS
 10
7.1606017945
 20
2.7253121668
 40
0.1412
100
AcDbArc
 50
203.2012071763
 51
211.7993472492
  0
ARC
  5
2E2
100
AcDbEntity
  8
0
100
AcDbCircle
 62
7
  6
CONTINUOUS
 10
7.1606017945
 20
2.7253121668
 40
0.1412
100
AcDbArc
 50
328.2006515767
 51
336.7987983612
  0
ARC
  5
2E3
100
AcDbEntity
  8
0
100
AcDbCircle
 62
7
  6
CONTINUOUS
 10
7.2846017945
 20
3.0201405133
 40
0.004
100
AcDbArc
 50
180.0
 51
269.9999999686
  0
ARC
  5
2E4
100
AcDbEntity
  8
0
100
AcDbCircle
 62
7
  6
CONTINUOUS
 10
7.2846017945
 20
2.6656838204
 40
0.004
100
AcDbArc
 50
90.0000000116
 51
180.0
  0
ARC
  5
2E5
100
AcDbEntity
  8
0
100
AcDbCircle
 62
7
  6
CONTINUOUS
 10
7.2766017945
 20
2.4736965133
 40
0.004
100
AcDbArc
 50
270.0
 51
360.0
  0
ARC
  5
2E6
100
AcDbEntity
  8
0
100
AcDbCircle
 62
7
  6
CONTINUOUS
 10
7.3406017945
 20
2.9806444503
 40
0.004
100
AcDbArc
 50
0.0
 51
90.0
  0
ARC
  5
2E7
100
AcDbEntity
  8
0
100
AcDbCircle
 62
7
  6
CONTINUOUS
 10
7.3406017945
 20
2.7051798833
 40
0.004
100
AcDbArc
 50
270.0
 51
360.0
  0
ARC
  5
2E8
100
AcDbEntity
  8
0
100
AcDbCircle
 62
7
  6
CONTINUOUS
 10
7.3166017945
 20
2.6971798833
 40
0.004
100
AcDbArc
 50
90.0
 51
180.0
  0
ARC
  5
2E9
100
AcDbEntity
  8
0
100
AcDbCircle
 62
7
  6
CONTINUOUS
 10
7.3086017945
 20
2.6736838204
 40
0.004
100
AcDbArc
 50
270.0
 51
360.0
  0
ARC
  5
2EA
100
AcDbEntity
  8
0
100
AcDbCircle
 62
7
  6
CONTINUOUS
 10
7.3166017945
 20
2.9886444503
 40
0.004
100
AcDbArc
 50
180.0
 51
270.0
  0
ARC
  5
2EB
100
AcDbEntity
  8
0
100
AcDbCircle
 62
7
  6
CONTINUOUS
 10
7.3086017945
 20
3.0121405133
 40
0.004
100
AcDbArc
 50
0.0
 51
90.0
  0
ARC
  5
2EC
100
AcDbEntity
  8
0
100
AcDbCircle
 62
7
  6
CONTINUOUS
 10
6.9166017945
 20
3.8449121668
 40
0.012
100
AcDbArc
 50
90.0
 51
180.0
  0
ARC
  5
2ED
100
AcDbEntity
  8
0
100
AcDbCircle
 62
7
  6
CONTINUOUS
 10
7.4046017945
 20
3.8449121668
 40
0.012
100
AcDbArc
 50
0.0
 51
90.0
  0
ARC
  5
2EE
100
AcDbEntity
  8
0
100
AcDbCircle
 62
7
  6
CONTINUOUS
 10
6.8526017945
 20
3.6249121668
 40
0.012
100
AcDbArc
 50
90.0
 51
180.0
  0
ARC
  5
2EF
100
AcDbEntity
  8
0
100
AcDbCircle
 62
7
  6
CONTINUOUS
 10
7.4686017945
 20
3.6249121668
 40
0.012
100
AcDbArc
 50
0.0
 51
90.0
  0
ARC
  5
2F0
100
AcDbEntity
  8
0
100
AcDbCircle
 62
7
  6
CONTINUOUS
 10
7.5106017945
 20
3.6449121668
 40
0.008
100
AcDbArc
 50
270.0
 51
360.0
  0
ARC
  5
2F1
100
AcDbEntity
  8
0
100
AcDbCircle
 62
7
  6
CONTINUOUS
 10
6.8106017945
 20
3.6449121668
 40
0.008
100
AcDbArc
 50
180.0
 51
270.0
  0
ARC
  5
2F2
100
AcDbEntity
  8
0
100
AcDbCircle
 62
7
  6
CONTINUOUS
 10
7.5106017945
 20
3.7689121668
 40
0.008
100
AcDbArc
 50
0.0
 51
90.0
  0
ARC
  5
2F3
100
AcDbEntity
  8
0
100
AcDbCircle
 62
7
  6
CONTINUOUS
 10
6.8106017945
 20
3.7689121668
 40
0.008
100
AcDbArc
 50
90.0
 51
180.0
  0
ARC
  5
2F4
100
AcDbEntity
  8
0
100
AcDbCircle
 62
7
  6
CONTINUOUS
 10
7.4946017945
 20
3.7849121668
 40
0.008
100
AcDbArc
 50
180.0
 51
270.0
  0
ARC
  5
2F5
100
AcDbEntity
  8
0
100
AcDbCircle
 62
7
  6
CONTINUOUS
 10
6.8266017945
 20
3.7849121668
 40
0.008
100
AcDbArc
 50
270.0
 51
360.0
  0
ARC
  5
2F6
100
AcDbEntity
  8
0
100
AcDbCircle
 62
7
  6
CONTINUOUS
 10
7.4786017945
 20
3.8009121668
 40
0.008
100
AcDbArc
 50
0.0
 51
90.0
  0
ARC
  5
2F7
100
AcDbEntity
  8
0
100
AcDbCircle
 62
7
  6
CONTINUOUS
 10
6.8426017945
 20
3.8009121668
 40
0.008
100
AcDbArc
 50
90.0
 51
180.0
  0
ARC
  5
2F8
100
AcDbEntity
  8
0
100
AcDbCircle
 62
7
  6
CONTINUOUS
 10
7.0446017945
 20
4.1648965133
 40
0.004
100
AcDbArc
 50
90.0
 51
180.0
  0
ARC
  5
2F9
100
AcDbEntity
  8
0
100
AcDbCircle
 62
7
  6
CONTINUOUS
 10
7.2766017945
 20
4.1648965133
 40
0.004
100
AcDbArc
 50
0.0
 51
90.0
  0
SPLINE
  5
2FA
100
AcDbEntity
  8
0
100
AcDbSpline
 62
7
  6
CONTINUOUS
 70
0
 71
3
 72
20
 73
16
 74
0
 42
0.0000001
 43
0.0000001
 44
0.0000000001
 40
0.0
 40
0.0
 40
0.0
 40
0.0
 40
0.0864604098
 40
0.1722427091
 40
0.2566892467
 40
0.3391888684
 40
0.4961111164
 40
0.6390399501
 40
0.7041334972
 40
0.7643932427
 40
0.8686466435
 40
0.9117598879
 40
0.9482833606
 40
0.9778180858
 40
1.0
 40
1.0
 40
1.0
 40
1.0
 10
4.4808458099
 20
5.230293109
 30
0.0
 10
4.4812596858
 20
5.2329974918
 30
0.0
 10
4.4821957034
 20
5.2383686337
 30
0.0
 10
4.4839135147
 20
5.2463094512
 30
0.0
 10
4.4859152179
 20
5.2540541764
 30
0.0
 10
4.4888545729
 20
5.2638738787
 30
0.0
 10
4.4929359572
 20
5.2752739669
 30
0.0
 10
4.4974885272
 20
5.2858932655
 30
0.0
 10
4.5011336359
 20
5.2935608398
 30
0.0
 10
4.5043987082
 20
5.3000518366
 30
0.0
 10
4.5075149243
 20
5.3058374251
 30
0.0
 10
4.5103917467
 20
5.3108954868
 30
0.0
 10
4.5121359837
 20
5.3138774063
 30
0.0
 10
4.5135687263
 20
5.3162740127
 30
0.0
 10
4.514419223
 20
5.3176721305
 30
0.0
 10
4.5147857406
 20
5.3182707393
 30
0.0
  0
SPLINE
  5
2FB
100
AcDbEntity
  8
0
100
AcDbSpline
 62
7
  6
CONTINUOUS
 70
0
 71
3
 72
51
 73
47
 74
0
 42
0.0000001
 43
0.0000001
 44
0.0000000001
 40
0.0
 40
0.0
 40
0.0
 40
0.0
 40
0.0186586519
 40
0.0370015636
 40
0.0550294197
 40
0.0727467133
 40
0.1072744276
 40
0.1406767808
 40
0.1730569703
 40
0.2045246451
 40
0.23518948
 40
0.2651572964
 40
0.2945293813
 40
0.3234049288
 40
0.3518844317
 40
0.3800782129
 40
0.4081297051
 40
0.4362941726
 40
0.4506039292
 40
0.4653371821
 40
0.4730362685
 40
0.4811718755
 40
0.4900752158
 40
0.5000001073
 40
0.5099225938
 40
0.5188278904
 40
0.5269640444
 40
0.5346629091
 40
0.549396008
 40
0.5637056522
 40
0.5918701851
 40
0.6199217462
 40
0.6481155056
 40
0.6765950221
 40
0.7054706004
 40
0.7348427013
 40
0.7648105128
 40
0.7954753574
 40
0.8269430245
 40
0.8593232089
 40
0.8927255678
 40
0.9272532689
 40
0.9449705752
 40
0.9629984327
 40
0.9813413423
 40
1.0
 40
1.0
 40
1.0
 40
1.0
 10
7.0405989508
 20
3.1357705302
 30
0.0
 10
7.0362708351
 20
3.1340156464
 30
0.0
 10
7.0277629982
 20
3.1303467365
 30
0.0
 10
7.0153603855
 20
3.1243457117
 30
0.0
 10
7.003432912
 20
3.1179314211
 30
0.0
 10
6.988301338
 20
3.1089549176
 30
0.0
 10
6.9705485138
 20
3.0968913001
 30
0.0
 10
6.9509543257
 20
3.0811512005
 30
0.0
 10
6.9331942915
 20
3.0644694993
 30
0.0
 10
6.9171999011
 20
3.0470094465
 30
0.0
 10
6.9028979622
 20
3.02890349
 30
0.0
 10
6.8902179936
 20
3.0102594943
 30
0.0
 10
6.8790948532
 20
2.9911646777
 30
0.0
 10
6.8694702898
 20
2.9716880089
 30
0.0
 10
6.8612933874
 20
2.9518801081
 30
0.0
 10
6.8545204758
 20
2.9317671522
 30
0.0
 10
6.8491135965
 20
2.911327037
 30
0.0
 10
6.8457367281
 20
2.8939855592
 30
0.0
 10
6.8437097813
 20
2.8798082146
 30
0.0
 10
6.842723923
 20
2.8706622686
 30
0.0
 10
6.8421111989
 20
2.8630351668
 30
0.0
 10
6.8417362471
 20
2.8568540308
 30
0.0
 10
6.8414738028
 20
2.8501093574
 30
0.0
 10
6.8413752422
 20
2.8429126858
 30
0.0
 10
6.8414738503
 20
2.8357155268
 30
0.0
 10
6.8417362027
 20
2.8289708251
 30
0.0
 10
6.8421111867
 20
2.8227891183
 30
0.0
 10
6.8427239387
 20
2.8151619759
 30
0.0
 10
6.8437097769
 20
2.8060161509
 30
0.0
 10
6.8457367185
 20
2.7918388562
 30
0.0
 10
6.8491135785
 20
2.7744973715
 30
0.0
 10
6.8545204606
 20
2.7540572275
 30
0.0
 10
6.8612933757
 20
2.7339442569
 30
0.0
 10
6.869470278
 20
2.7141363499
 30
0.0
 10
6.8790948466
 20
2.6946596668
 30
0.0
 10
6.890217992
 20
2.6755648409
 30
0.0
 10
6.9028979638
 20
2.656920841
 30
0.0
 10
6.9171999028
 20
2.6388148855
 30
0.0
 10
6.9331942924
 20
2.6213548331
 30
0.0
 10
6.9509543257
 20
2.6046731336
 30
0.0
 10
6.9705485106
 20
2.5889330349
 30
0.0
 10
6.9883013365
 20
2.5768694177
 30
0.0
 10
7.0034329102
 20
2.5678929133
 30
0.0
 10
7.0153603864
 20
2.5614786213
 30
0.0
 10
7.0277630003
 20
2.5554775962
 30
0.0
 10
7.0362708381
 20
2.5518086858
 30
0.0
 10
7.0405989552
 20
2.5500538015
 30
0.0
  0
LINE
  5
2FC
100
AcDbEntity
  8
0
100
AcDbLine
 62
7
  6
CONTINUOUS
 10
4.4794353527
 20
5.2167591592
 11
4.4793927709
 21
5.2163991514
  0
SPLINE
  5
2FD
100
AcDbEntity
  8
0
100
AcDbSpline
 62
7
  6
CONTINUOUS
 70
0
 71
3
 72
48
 73
44
 74
0
 42
0.0000001
 43
0.0000001
 44
0.0000000001
 40
0.0
 40
0.0
 40
0.0
 40
0.0
 40
0.0989425385
 40
0.1962373618
 40
0.2910793792
 40
0.3827168073
 40
0.4704478803
 40
0.5536114457
 40
0.631572499
 40
0.7037087326
 40
0.7373995673
 40
0.7694019623
 40
0.7996385667
 40
0.8280323181
 40
0.8545067445
 40
0.8789866002
 40
0.901398527
 40
0.921671661
 40
0.9397387582
 40
0.9555372369
 40
0.9625675717
 40
0.9690099012
 40
0.9748578993
 40
0.9801060885
 40
0.9847494024
 40
0.9887830057
 40
0.9922031065
 40
0.9936819992
 40
0.9950062042
 40
0.9961753655
 40
0.9971892493
 40
0.998047632
 40
0.9987502902
 40
0.9990431527
 40
0.9992970001
 40
0.9995118054
 40
0.9996875555
 40
0.99982425
 40
0.9999218889
 40
0.9999560625
 40
0.9999804722
 40
0.9999951181
 40
1.0
 40
1.0
 40
1.0
 40
1.0
 10
4.4793927709
 20
5.2163991514
 30
0.0
 10
4.4790881804
 20
5.2138046341
 30
0.0
 10
4.4785808984
 20
5.2086469144
 30
0.0
 10
4.4781112213
 20
5.2009744425
 30
0.0
 10
4.4779184234
 20
5.1934830473
 30
0.0
 10
4.4779743822
 20
5.1862421472
 30
0.0
 10
4.4782439596
 20
5.1793148379
 30
0.0
 10
4.4786874121
 20
5.1727585722
 30
0.0
 10
4.4792625726
 20
5.1666261918
 30
0.0
 10
4.4798280145
 20
5.1618063534
 30
0.0
 10
4.4803089831
 20
5.1581991814
 30
0.0
 10
4.4806678355
 20
5.1556919007
 30
0.0
 10
4.4810280181
 20
5.1533261983
 30
0.0
 10
4.4813845866
 20
5.151107663
 30
0.0
 10
4.4817327501
 20
5.149041787
 30
0.0
 10
4.4820679301
 20
5.1471339372
 30
0.0
 10
4.482385779
 20
5.1453893194
 30
0.0
 10
4.4826821936
 20
5.1438129259
 30
0.0
 10
4.4829533745
 20
5.1424094801
 30
0.0
 10
4.483162871
 20
5.1413502391
 30
0.0
 10
4.4833150207
 20
5.140592531
 30
0.0
 10
4.4834163167
 20
5.1400925746
 30
0.0
 10
4.4835089674
 20
5.1396388765
 30
0.0
 10
4.4835926861
 20
5.1392318337
 30
0.0
 10
4.483667211
 20
5.1388718077
 30
0.0
 10
4.4837322819
 20
5.1385591143
 30
0.0
 10
4.4837805505
 20
5.1383282632
 30
0.0
 10
4.4838142802
 20
5.1381674542
 30
0.0
 10
4.4838358445
 20
5.1380648174
 30
0.0
 10
4.4838549096
 20
5.1379742009
 30
0.0
 10
4.4838714642
 20
5.1378956243
 30
0.0
 10
4.4838854964
 20
5.137829104
 30
0.0
 10
4.4838956106
 20
5.1377812116
 30
0.0
 10
4.4839024302
 20
5.1377489393
 30
0.0
 10
4.4839065899
 20
5.1377292648
 30
0.0
 10
4.4839101049
 20
5.1377126283
 30
0.0
 10
4.4839129959
 20
5.1376989825
 30
0.0
 10
4.4839152054
 20
5.1376884563
 30
0.0
 10
4.4839167338
 20
5.1376813817
 30
0.0
 10
4.4839175036
 20
5.1376775326
 30
0.0
 10
4.4839180405
 20
5.1376753347
 30
0.0
 10
4.4839180385
 20
5.1376747405
 30
0.0
 10
4.4839183957
 20
5.137673676
 30
0.0
 10
4.4839183195
 20
5.1376737799
 30
0.0
  0
SPLINE
  5
2FE
100
AcDbEntity
  8
0
100
AcDbSpline
 62
7
  6
CONTINUOUS
 70
0
 71
3
 72
9
 73
5
 74
0
 42
0.0000001
 43
0.0000001
 44
0.0000000001
 40
0.0
 40
0.0
 40
0.0
 40
0.0
 40
0.4999992679
 40
1.0
 40
1.0
 40
1.0
 40
1.0
 10
7.3023646206
 20
2.669685306
 30
0.0
 10
7.305131852
 20
2.6625634235
 30
0.0
 10
7.3103845788
 20
2.6482089598
 30
0.0
 10
7.3151297042
 20
2.633679947
 30
0.0
 10
7.3173869406
 20
2.6263803575
 30
0.0
  0
SPLINE
  5
2FF
100
AcDbEntity
  8
0
100
AcDbSpline
 62
7
  6
CONTINUOUS
 70
0
 71
3
 72
9
 73
5
 74
0
 42
0.0000001
 43
0.0000001
 44
0.0000000001
 40
0.0
 40
0.0
 40
0.0
 40
0.0
 40
0.5000007495
 40
1.0
 40
1.0
 40
1.0
 40
1.0
 10
7.0038166509
 20
2.6263803519
 30
0.0
 10
7.0060739217
 20
2.6336799332
 30
0.0
 10
7.0108189834
 20
2.6482089694
 30
0.0
 10
7.0160717204
 20
2.6625634365
 30
0.0
 10
7.0188390013
 20
2.6696853017
 30
0.0
  0
SPLINE
  5
300
100
AcDbEntity
  8
0
100
AcDbSpline
 62
7
  6
CONTINUOUS
 70
0
 71
3
 72
17
 73
13
 74
0
 42
0.0000001
 43
0.0000001
 44
0.0000000001
 40
0.0
 40
0.0
 40
0.0
 40
0.0
 40
0.1130066848
 40
0.1710841941
 40
0.2301179857
 40
0.290110663
 40
0.3510553788
 40
0.4756000648
 40
0.6033341878
 40
0.7337820926
 40
0.8662981269
 40
1.0
 40
1.0
 40
1.0
 40
1.0
 10
7.2998963439
 20
2.6130392581
 30
0.0
 10
7.3002238349
 20
2.6128418154
 30
0.0
 10
7.3007270699
 20
2.612554919
 30
0.0
 10
7.3014187275
 20
2.6121970057
 30
0.0
 10
7.3019584619
 20
2.611936344
 30
0.0
 10
7.3025134226
 20
2.6116853828
 30
0.0
 10
7.303278139
 20
2.6113607947
 30
0.0
 10
7.304268363
 20
2.6109815292
 30
0.0
 10
7.3054994547
 20
2.6105777455
 30
0.0
 10
7.3067749808
 20
2.6102278029
 30
0.0
 10
7.3080866367
 20
2.6099399177
 30
0.0
 10
7.308976452
 20
2.609795484
 30
0.0
 10
7.3094250342
 20
2.6097365548
 30
0.0
  0
SPLINE
  5
301
100
AcDbEntity
  8
0
100
AcDbSpline
 62
7
  6
CONTINUOUS
 70
0
 71
3
 72
12
 73
8
 74
0
 42
0.0000001
 43
0.0000001
 44
0.0000000001
 40
0.0
 40
0.0
 40
0.0
 40
0.0
 40
0.2299987321
 40
0.4755201551
 40
0.733704563
 40
0.8662595974
 40
1.0
 40
1.0
 40
1.0
 40
1.0
 10
7.0213072453
 20
2.613039258
 30
0.0
 10
7.020640966
 20
2.6126375456
 30
0.0
 10
7.0192158992
 20
2.6118841703
 30
0.0
 10
7.016915799
 20
2.610942846
 30
0.0
 10
7.0148512676
 20
2.6103208096
 30
0.0
 10
7.0131178001
 20
2.6099400666
 30
0.0
 10
7.0122280326
 20
2.6097956151
 30
0.0
 10
7.0117794908
 20
2.6097366553
 30
0.0
  0
SPLINE
  5
302
100
AcDbEntity
  8
0
100
AcDbSpline
 62
7
  6
CONTINUOUS
 70
0
 71
3
 72
13
 73
9
 74
0
 42
0.0000001
 43
0.0000001
 44
0.0000000001
 40
0.0
 40
0.0
 40
0.0
 40
0.0
 40
0.1250388082
 40
0.2500856817
 40
0.375137319
 40
0.5001928311
 40
0.750082979
 40
1.0
 40
1.0
 40
1.0
 40
1.0
 10
7.0117794908
 20
2.6097366553
 30
0.0
 10
7.0113340213
 20
2.6096780989
 30
0.0
 10
7.010435462
 20
2.6096132576
 30
0.0
 10
7.0090861114
 20
2.6096609289
 30
0.0
 10
7.0077481008
 20
2.6098419098
 30
0.0
 10
7.0059955773
 20
2.6102471761
 30
0.0
 10
7.0038826756
 20
2.6110396678
 30
0.0
 10
7.002319197
 20
2.61194155
 30
0.0
 10
7.0015800554
 20
2.6124515703
 30
0.0
  0
SPLINE
  5
303
100
AcDbEntity
  8
0
100
AcDbSpline
 62
7
  6
CONTINUOUS
 70
0
 71
3
 72
51
 73
47
 74
0
 42
0.0000001
 43
0.0000001
 44
0.0000000001
 40
0.0
 40
0.0
 40
0.0
 40
0.0
 40
0.0186586222
 40
0.0370015407
 40
0.0550294165
 40
0.0727467319
 40
0.1072744176
 40
0.1406767867
 40
0.1730569713
 40
0.2045246823
 40
0.2351895081
 40
0.2651573051
 40
0.2945293824
 40
0.3234049106
 40
0.351884379
 40
0.3800781004
 40
0.4081295873
 40
0.4362940693
 40
0.4506038153
 40
0.4653372191
 40
0.4730357448
 40
0.4811714991
 40
0.4900751761
 40
0.5000001197
 40
0.509923268
 40
0.518827348
 40
0.5269637925
 40
0.5346633317
 40
0.5493962308
 40
0.5637058846
 40
0.5918703335
 40
0.6199218241
 40
0.6481155457
 40
0.6765950433
 40
0.7054705962
 40
0.7348426792
 40
0.7648104751
 40
0.7954753113
 40
0.826943004
 40
0.8593232069
 40
0.892725562
 40
0.9272532414
 40
0.9449705691
 40
0.9629984454
 40
0.9813413651
 40
1.0
 40
1.0
 40
1.0
 40
1.0
 10
7.2806052112
 20
2.5500540376
 30
0.0
 10
7.2849333117
 20
2.5518089191
 30
0.0
 10
7.2934411197
 20
2.5554778439
 30
0.0
 10
7.3058437028
 20
2.5614788759
 30
0.0
 10
7.3177711571
 20
2.5678931815
 30
0.0
 10
7.3329026899
 20
2.5768697046
 30
0.0
 10
7.3506554727
 20
2.5889333239
 30
0.0
 10
7.3702496066
 20
2.6046734197
 30
0.0
 10
7.3880095837
 20
2.621355141
 30
0.0
 10
7.4040039287
 20
2.63881519
 30
0.0
 10
7.4183058234
 20
2.6569211361
 30
0.0
 10
7.4309857485
 20
2.6755651056
 30
0.0
 10
7.4421088588
 20
2.6946598846
 30
0.0
 10
7.4517333893
 20
2.7141365133
 30
0.0
 10
7.4599102501
 20
2.7339443626
 30
0.0
 10
7.4666831374
 20
2.7540572636
 30
0.0
 10
7.4720900013
 20
2.7744973344
 30
0.0
 10
7.4754668575
 20
2.7918387846
 30
0.0
 10
7.4774938101
 20
2.8060161442
 30
0.0
 10
7.4784796436
 20
2.8151619717
 30
0.0
 10
7.4790923846
 20
2.8227889937
 30
0.0
 10
7.4794673276
 20
2.828970101
 30
0.0
 10
7.4797297845
 20
2.8357148971
 30
0.0
 10
7.4798283582
 20
2.8429118198
 30
0.0
 10
7.4797297525
 20
2.8501088418
 30
0.0
 10
7.4794673596
 20
2.8568534645
 30
0.0
 10
7.4790924001
 20
2.8630350992
 30
0.0
 10
7.4784796686
 20
2.8706624233
 30
0.0
 10
7.47749378
 20
2.87980835
 30
0.0
 10
7.4754668598
 20
2.8939855542
 30
0.0
 10
7.4720900062
 20
2.9113269744
 30
0.0
 10
7.4666831468
 20
2.9317670386
 30
0.0
 10
7.4599102585
 20
2.9518799481
 30
0.0
 10
7.4517333949
 20
2.9716878109
 30
0.0
 10
7.4421088573
 20
2.9911644529
 30
0.0
 10
7.4309857426
 20
3.0102592377
 30
0.0
 10
7.4183058147
 20
3.0289032099
 30
0.0
 10
7.4040039203
 20
3.0470091533
 30
0.0
 10
7.3880095728
 20
3.0644692036
 30
0.0
 10
7.3702495977
 20
3.0811509219
 30
0.0
 10
7.3506554634
 20
3.0968910164
 30
0.0
 10
7.3329026819
 20
3.108954634
 30
0.0
 10
7.3177711475
 20
3.1179311575
 30
0.0
 10
7.30584369
 20
3.1243454646
 30
0.0
 10
7.2934411031
 20
3.1303464971
 30
0.0
 10
7.2849332918
 20
3.1340154231
 30
0.0
 10
7.2806051884
 20
3.1357703056
 30
0.0
  0
SPLINE
  5
304
100
AcDbEntity
  8
0
100
AcDbSpline
 62
7
  6
CONTINUOUS
 70
0
 71
3
 72
18
 73
14
 74
0
 42
0.0000001
 43
0.0000001
 44
0.0000000001
 40
0.0
 40
0.0
 40
0.0
 40
0.0
 40
0.1225470615
 40
0.2472628811
 40
0.3102054372
 40
0.373395445
 40
0.500168667
 40
0.563613133
 40
0.6269541335
 40
0.6901024528
 40
0.7529811106
 40
0.87755253
 40
1.0
 40
1.0
 40
1.0
 40
1.0
 10
7.3173826079
 20
2.6263836265
 30
0.0
 10
7.3175804424
 20
2.6260434457
 30
0.0
 10
7.3180118166
 20
2.6253752937
 30
0.0
 10
7.318628013
 20
2.624590686
 30
0.0
 10
7.3191695836
 20
2.623993996
 30
0.0
 10
7.3197442524
 20
2.6234197631
 30
0.0
 10
7.3203605576
 20
2.6228862713
 30
0.0
 10
7.3210108141
 20
2.6223959157
 30
0.0
 10
7.3215140151
 20
2.6220508548
 30
0.0
 10
7.3220314861
 20
2.6217309962
 30
0.0
 10
7.3227362507
 20
2.6213419789
 30
0.0
 10
7.3236414371
 20
2.6209246919
 30
0.0
 10
7.3243921776
 20
2.6206638242
 30
0.0
 10
7.3247698273
 20
2.6205543226
 30
0.0
  0
SPLINE
  5
305
100
AcDbEntity
  8
0
100
AcDbSpline
 62
7
  6
CONTINUOUS
 70
0
 71
3
 72
20
 73
16
 74
0
 42
0.0000001
 43
0.0000001
 44
0.0000000001
 40
0.0
 40
0.0
 40
0.0
 40
0.0
 40
0.1458686249
 40
0.2181390908
 40
0.2896234547
 40
0.3600651552
 40
0.4291968087
 40
0.4967774622
 40
0.5625878763
 40
0.6264125491
 40
0.6880284013
 40
0.7472065138
 40
0.8037323507
 40
0.9081049993
 40
1.0
 40
1.0
 40
1.0
 40
1.0
 10
7.3256377639
 20
2.6276221041
 30
0.0
 10
7.3252412314
 20
2.6275332611
 30
0.0
 10
7.3246466955
 20
2.6274071827
 30
0.0
 10
7.3238550233
 20
2.6272514657
 30
0.0
 10
7.3232687954
 20
2.6271400792
 30
0.0
 10
7.3226905669
 20
2.6270334882
 30
0.0
 10
7.3221224042
 20
2.6269323323
 30
0.0
 10
7.3215660258
 20
2.6268386723
 30
0.0
 10
7.321022938
 20
2.6267554635
 30
0.0
 10
7.3204953686
 20
2.6266809991
 30
0.0
 10
7.3199854743
 20
2.6266136768
 30
0.0
 10
7.31949523
 20
2.6265529912
 30
0.0
 10
7.3188861221
 20
2.6264831169
 30
0.0
 10
7.3181848986
 20
2.6264169649
 30
0.0
 10
7.3176385681
 20
2.6263882851
 30
0.0
 10
7.3173826079
 20
2.6263836265
 30
0.0
  0
SPLINE
  5
306
100
AcDbEntity
  8
0
100
AcDbSpline
 62
7
  6
CONTINUOUS
 70
0
 71
3
 72
15
 73
11
 74
0
 42
0.0000001
 43
0.0000001
 44
0.0000000001
 40
0.0
 40
0.0
 40
0.0
 40
0.0
 40
0.130041083
 40
0.258375385
 40
0.3850510652
 40
0.510018183
 40
0.6337706303
 40
0.7564750908
 40
0.878349146
 40
1.0
 40
1.0
 40
1.0
 40
1.0
 10
7.3247648633
 20
2.62055513
 30
0.0
 10
7.3251047907
 20
2.6204565855
 30
0.0
 10
7.3257912813
 20
2.6202966915
 30
0.0
 10
7.3268342375
 20
2.6201742348
 30
0.0
 10
7.3278706275
 20
2.6201710512
 30
0.0
 10
7.3288883402
 20
2.6202850012
 30
0.0
 10
7.3298742905
 20
2.6205190351
 30
0.0
 10
7.3308173372
 20
2.6208662143
 30
0.0
 10
7.331705666
 20
2.6213236005
 30
0.0
 10
7.3322545859
 20
2.6216985937
 30
0.0
 10
7.332515942
 20
2.6219018482
 30
0.0
  0
SPLINE
  5
307
100
AcDbEntity
  8
0
100
AcDbSpline
 62
7
  6
CONTINUOUS
 70
0
 71
3
 72
48
 73
44
 74
0
 42
0.0000001
 43
0.0000001
 44
0.0000000001
 40
0.0
 40
0.0
 40
0.0
 40
0.0
 40
0.000004882
 40
0.0000195278
 40
0.0000439376
 40
0.0000781112
 40
0.0001757502
 40
0.0003124448
 40
0.000488195
 40
0.0007030002
 40
0.0009568478
 40
0.0012497105
 40
0.0019523691
 40
0.0028107526
 40
0.0038246371
 40
0.004993799
 40
0.0063180046
 40
0.0077968982
 40
0.0112170013
 40
0.015250607
 40
0.0198939237
 40
0.0251421162
 40
0.0309901177
 40
0.0374324509
 40
0.0444627899
 40
0.0602612769
 40
0.0783283827
 40
0.0986015256
 40
0.1210134616
 40
0.1454933267
 40
0.1719677627
 40
0.2003615242
 40
0.2305981383
 40
0.2626005424
 40
0.2962913857
 40
0.3684276337
 40
0.4463886962
 40
0.529552265
 40
0.6172833338
 40
0.7089207475
 40
0.8037627393
 40
0.9010575204
 40
1.0
 40
1.0
 40
1.0
 40
1.0
 10
4.5094511441
 20
5.3045315359
 30
0.0
 10
4.5094510403
 20
5.3045314593
 30
0.0
 10
4.5094508865
 20
5.3045309226
 30
0.0
 10
4.5094502228
 20
5.3045299956
 30
0.0
 10
4.5094493295
 20
5.3045282624
 30
0.0
 10
4.5094472757
 20
5.3045246957
 30
0.0
 10
4.5094438268
 20
5.304518494
 30
0.0
 10
4.5094385102
 20
5.3045090657
 30
0.0
 10
4.5094316944
 20
5.3044969262
 30
0.0
 10
4.5094233568
 20
5.3044820958
 30
0.0
 10
4.5094135068
 20
5.3044645676
 30
0.0
 10
4.5093973472
 20
5.3044358104
 30
0.0
 10
4.5093733747
 20
5.3043931346
 30
0.0
 10
4.509340092
 20
5.304333854
 30
0.0
 10
4.5093007973
 20
5.3042638234
 30
0.0
 10
4.5092555064
 20
5.3041830545
 30
0.0
 10
4.5092042361
 20
5.3040915626
 30
0.0
 10
4.5091239612
 20
5.3039481983
 30
0.0
 10
4.5090088671
 20
5.3037423446
 30
0.0
 10
4.5088532653
 20
5.303463418
 30
0.0
 10
4.5086744876
 20
5.3031421517
 30
0.0
 10
4.5084728769
 20
5.3027787693
 30
0.0
 10
4.508248791
 20
5.3023735373
 30
0.0
 10
4.5080026222
 20
5.3019267491
 30
0.0
 10
4.5076308481
 20
5.3012492105
 30
0.0
 10
4.5071141804
 20
5.3003010852
 30
0.0
 10
4.5064357192
 20
5.2990429512
 30
0.0
 10
4.5056814604
 20
5.297627329
 30
0.0
 10
4.5048564423
 20
5.2960575897
 30
0.0
 10
4.5039660728
 20
5.2943372702
 30
0.0
 10
4.5030160575
 20
5.2924700378
 30
0.0
 10
4.5020123705
 20
5.2904596449
 30
0.0
 10
4.5009612258
 20
5.2883098996
 30
0.0
 10
4.4998690127
 20
5.2860246566
 30
0.0
 10
4.4983313583
 20
5.2827263679
 30
0.0
 10
4.4963504588
 20
5.2782961622
 30
0.0
 10
4.4939677816
 20
5.272616379
 30
0.0
 10
4.4915840273
 20
5.2664927206
 30
0.0
 10
4.4892552356
 20
5.2599630012
 30
0.0
 10
4.4870365122
 20
5.2530701597
 30
0.0
 10
4.4849802557
 20
5.2458638976
 30
0.0
 10
4.4831340608
 20
5.2384020471
 30
0.0
 10
4.4820757635
 20
5.2333286346
 30
0.0
 10
4.481590551
 20
5.2307617517
 30
0.0
  0
LINE
  5
308
100
AcDbEntity
  8
0
100
AcDbLine
 62
7
  6
CONTINUOUS
 10
7.325636757
 20
2.6276234915
 11
7.3247648633
 21
2.62055513
  0
SPLINE
  5
309
100
AcDbEntity
  8
0
100
AcDbSpline
 62
7
  6
CONTINUOUS
 70
0
 71
3
 72
20
 73
16
 74
0
 42
0.0000001
 43
0.0000001
 44
0.0000000001
 40
0.0
 40
0.0
 40
0.0
 40
0.0
 40
0.0918972588
 40
0.1962676132
 40
0.2527925704
 40
0.3119701802
 40
0.3735858124
 40
0.4374104042
 40
0.5032208058
 40
0.5708014879
 40
0.6399332359
 40
0.71037513
 40
0.7818597823
 40
0.8541306009
 40
1.0
 40
1.0
 40
1.0
 40
1.0
 10
7.0038211913
 20
2.6263837622
 30
0.0
 10
7.0035652168
 20
2.6263883212
 30
0.0
 10
7.0030188643
 20
2.6264169001
 30
0.0
 10
7.0023176272
 20
2.6264830647
 30
0.0
 10
7.001708517
 20
2.6265529583
 30
0.0
 10
7.0012182663
 20
2.6266136527
 30
0.0
 10
7.0007083617
 20
2.6266809741
 30
0.0
 10
7.0001807798
 20
2.626755435
 30
0.0
 10
6.9996376779
 20
2.6268386382
 30
0.0
 10
6.9990812844
 20
2.6269322927
 30
0.0
 10
6.9985131072
 20
2.6270334514
 30
0.0
 10
6.9979348653
 20
2.6271400565
 30
0.0
 10
6.9973486227
 20
2.627251455
 30
0.0
 10
6.9965569284
 20
2.6274071811
 30
0.0
 10
6.9959623755
 20
2.6275332644
 30
0.0
 10
6.9955658311
 20
2.627622109
 30
0.0
  0
SPLINE
  5
30A
100
AcDbEntity
  8
0
100
AcDbSpline
 62
7
  6
CONTINUOUS
 70
0
 71
3
 72
18
 73
14
 74
0
 42
0.0000001
 43
0.0000001
 44
0.0000000001
 40
0.0
 40
0.0
 40
0.0
 40
0.0
 40
0.1224482017
 40
0.247020164
 40
0.3098991605
 40
0.3730478684
 40
0.4363892173
 40
0.4998340027
 40
0.6266078198
 40
0.6897981877
 40
0.752741153
 40
0.8774569767
 40
1.0
 40
1.0
 40
1.0
 40
1.0
 10
6.9964337847
 20
2.6205543279
 30
0.0
 10
6.9968114627
 20
2.6206637693
 30
0.0
 10
6.997562192
 20
2.6209247467
 30
0.0
 10
6.998467415
 20
2.6213420035
 30
0.0
 10
6.999172189
 20
2.6217310493
 30
0.0
 10
6.99968967
 20
2.6220509216
 30
0.0
 10
7.0001928821
 20
2.6223959947
 30
0.0
 10
7.0008431517
 20
2.6228863677
 30
0.0
 10
7.0014594663
 20
2.6234198814
 30
0.0
 10
7.002034132
 20
2.6239941475
 30
0.0
 10
7.0025756911
 20
2.6245908743
 30
0.0
 10
7.0031918653
 20
2.6253755084
 30
0.0
 10
7.0036233
 20
2.6260436201
 30
0.0
 10
7.0038211913
 20
2.6263837622
 30
0.0
  0
SPLINE
  5
30B
100
AcDbEntity
  8
0
100
AcDbSpline
 62
7
  6
CONTINUOUS
 70
0
 71
3
 72
15
 73
11
 74
0
 42
0.0000001
 43
0.0000001
 44
0.0000000001
 40
0.0
 40
0.0
 40
0.0
 40
0.0
 40
0.1216527545
 40
0.2435302984
 40
0.3662398928
 40
0.4899899991
 40
0.6149568567
 40
0.7416323368
 40
0.8699631493
 40
1.0
 40
1.0
 40
1.0
 40
1.0
 10
6.9886876492
 20
2.6219018496
 30
0.0
 10
6.9889488386
 20
2.6216987235
 30
0.0
 10
6.9894973954
 20
2.6213239427
 30
0.0
 10
6.9903851214
 20
2.6208667524
 30
0.0
 10
6.9913274907
 20
2.6205195847
 30
0.0
 10
6.9923127497
 20
2.620285468
 30
0.0
 10
6.9933297512
 20
2.6201712723
 30
0.0
 10
6.9943654565
 20
2.6201740083
 30
0.0
 10
6.9954077599
 20
2.6202959395
 30
0.0
 10
6.9960938773
 20
2.620455322
 30
0.0
 10
6.9964336163
 20
2.6205536477
 30
0.0
  0
SPLINE
  5
30C
100
AcDbEntity
  8
0
100
AcDbSpline
 62
7
  6
CONTINUOUS
 70
0
 71
3
 72
15
 73
11
 74
0
 42
0.0000001
 43
0.0000001
 44
0.0000000001
 40
0.0
 40
0.0
 40
0.0
 40
0.0
 40
0.1244164674
 40
0.2502803617
 40
0.3769961704
 40
0.5038926201
 40
0.6302899621
 40
0.755520833
 40
0.8789434088
 40
1.0
 40
1.0
 40
1.0
 40
1.0
 10
7.3110886434
 20
2.5828654622
 30
0.0
 10
7.311278596
 20
2.5825337202
 30
0.0
 10
7.311694487
 20
2.5818852692
 30
0.0
 10
7.3124054875
 20
2.5809690528
 30
0.0
 10
7.3131992192
 20
2.5801129038
 30
0.0
 10
7.3140658501
 20
2.5793282378
 30
0.0
 10
7.3149944607
 20
2.5786254464
 30
0.0
 10
7.3159733921
 20
2.5780145014
 30
0.0
 10
7.3169893644
 20
2.5775027059
 30
0.0
 10
7.3176914476
 20
2.5772317291
 30
0.0
 10
7.3180443609
 20
2.5771142526
 30
0.0
  0
SPLINE
  5
30D
100
AcDbEntity
  8
0
100
AcDbSpline
 62
7
  6
CONTINUOUS
 70
0
 71
3
 72
15
 73
11
 74
0
 42
0.0000001
 43
0.0000001
 44
0.0000000001
 40
0.0
 40
0.0
 40
0.0
 40
0.0
 40
0.1437819316
 40
0.2856596991
 40
0.4237846337
 40
0.5563863573
 40
0.6817950244
 40
0.7984546419
 40
0.9049493803
 40
1.0
 40
1.0
 40
1.0
 40
1.0
 10
7.3190815699
 20
2.5842196898
 30
0.0
 10
7.3187033843
 20
2.5841288283
 30
0.0
 10
7.3179502484
 20
2.5839556716
 30
0.0
 10
7.3168294123
 20
2.5837147814
 30
0.0
 10
7.3157342526
 20
2.5834990614
 30
0.0
 10
7.3146794066
 20
2.5833100417
 30
0.0
 10
7.3136784941
 20
2.5831501555
 30
0.0
 10
7.3127443059
 20
2.5830217347
 30
0.0
 10
7.3118888617
 20
2.5829248249
 30
0.0
 10
7.3113452191
 20
2.5828822356
 30
0.0
 10
7.3110886434
 20
2.5828654622
 30
0.0
  0
SPLINE
  5
30E
100
AcDbEntity
  8
0
100
AcDbSpline
 62
7
  6
CONTINUOUS
 70
0
 71
3
 72
15
 73
11
 74
0
 42
0.0000001
 43
0.0000001
 44
0.0000000001
 40
0.0
 40
0.0
 40
0.0
 40
0.0
 40
0.2576484326
 40
0.3842262448
 40
0.5092093982
 40
0.5712330682
 40
0.6330580102
 40
0.755970065
 40
0.8780815321
 40
1.0
 40
1.0
 40
1.0
 40
1.0
 10
7.3180400085
 20
2.5771156952
 30
0.0
 10
7.3186445369
 20
2.5769152625
 30
0.0
 10
7.3195803917
 20
2.5767063646
 30
0.0
 10
7.3208385173
 20
2.5766312512
 30
0.0
 10
7.3216145891
 20
2.5766680433
 30
0.0
 10
7.3222247074
 20
2.5767482643
 30
0.0
 10
7.3228242756
 20
2.5768619578
 30
0.0
 10
7.323556773
 20
2.5770654755
 30
0.0
 10
7.3243995787
 20
2.5774057062
 30
0.0
 10
7.3249306701
 20
2.5776950582
 30
0.0
 10
7.3251867134
 20
2.5778540178
 30
0.0
  0
LINE
  5
30F
100
AcDbEntity
  8
0
100
AcDbLine
 62
7
  6
CONTINUOUS
 10
7.3190804927
 20
2.5842198195
 11
7.3180400085
 21
2.5771156952
  0
SPLINE
  5
310
100
AcDbEntity
  8
0
100
AcDbSpline
 62
7
  6
CONTINUOUS
 70
0
 71
3
 72
19
 73
15
 74
0
 42
0.0000001
 43
0.0000001
 44
0.0000000001
 40
0.0
 40
0.0
 40
0.0
 40
0.0
 40
0.0510790271
 40
0.0873723476
 40
0.1303143542
 40
0.2343842811
 40
0.3597317147
 40
0.5028146244
 40
0.5798968855
 40
0.6600345099
 40
0.7427067151
 40
0.8273447804
 40
0.9133291203
 40
1.0
 40
1.0
 40
1.0
 40
1.0
 10
4.4848898341
 20
5.1226556635
 30
0.0
 10
4.4844955308
 20
5.1242248252
 30
0.0
 10
4.4838410311
 20
5.1269139956
 30
0.0
 10
4.4829156899
 20
5.1309367627
 30
0.0
 10
4.4816825556
 20
5.1366106866
 30
0.0
 10
4.4800443552
 20
5.1450825858
 30
0.0
 10
4.4782573486
 20
5.1567492367
 30
0.0
 10
4.4771424963
 20
5.1676429412
 30
0.0
 10
4.4766000156
 20
5.1771410638
 30
0.0
 10
4.4764205905
 20
5.1847391833
 30
0.0
 10
4.4765174265
 20
5.1925783564
 30
0.0
 10
4.4769224342
 20
5.2005933947
 30
0.0
 10
4.4776576511
 20
5.208712134
 30
0.0
 10
4.478373404
 20
5.2141358525
 30
0.0
 10
4.4787886628
 20
5.2168495921
 30
0.0
  0
SPLINE
  5
311
100
AcDbEntity
  8
0
100
AcDbSpline
 62
7
  6
CONTINUOUS
 70
0
 71
3
 72
15
 73
11
 74
0
 42
0.0000001
 43
0.0000001
 44
0.0000000001
 40
0.0
 40
0.0
 40
0.0
 40
0.0
 40
0.0950827288
 40
0.2015210707
 40
0.3181669059
 40
0.4435624029
 40
0.5761653848
 40
0.714300458
 40
0.8561981863
 40
1.0
 40
1.0
 40
1.0
 40
1.0
 10
7.0101209666
 20
2.5828698565
 30
0.0
 10
7.0098638779
 20
2.582882007
 30
0.0
 10
7.0093197927
 20
2.5829246137
 30
0.0
 10
7.0084641647
 20
2.5830231965
 30
0.0
 10
7.0075292297
 20
2.5831490722
 30
0.0
 10
7.0065279129
 20
2.5833101968
 30
0.0
 10
7.0054722801
 20
2.583498649
 30
0.0
 10
7.0043763735
 20
2.5837147732
 30
0.0
 10
7.0032546626
 20
2.5839556945
 30
0.0
 10
7.0025007435
 20
2.5841281847
 30
0.0
 10
7.0021223583
 20
2.584219516
 30
0.0
  0
SPLINE
  5
312
100
AcDbEntity
  8
0
100
AcDbSpline
 62
7
  6
CONTINUOUS
 70
0
 71
3
 72
15
 73
11
 74
0
 42
0.0000001
 43
0.0000001
 44
0.0000000001
 40
0.0
 40
0.0
 40
0.0
 40
0.0
 40
0.1210728419
 40
0.2445229111
 40
0.3697557712
 40
0.4961694724
 40
0.6230768193
 40
0.7497977418
 40
0.8756831178
 40
1.0
 40
1.0
 40
1.0
 40
1.0
 10
7.0031604575
 20
2.5771147189
 30
0.0
 10
7.0035138242
 20
2.5772316935
 30
0.0
 10
7.0042159657
 20
2.5775041958
 30
0.0
 10
7.0052332015
 20
2.5780152398
 30
0.0
 10
7.0062119763
 20
2.5786280587
 30
0.0
 10
7.0071414794
 20
2.5793309555
 30
0.0
 10
7.0080076777
 20
2.580117278
 30
0.0
 10
7.0088025849
 20
2.5809734488
 30
0.0
 10
7.00951178
 20
2.5818917916
 30
0.0
 10
7.0099280891
 20
2.5825398967
 30
0.0
 10
7.0101209666
 20
2.5828698565
 30
0.0
  0
SPLINE
  5
313
100
AcDbEntity
  8
0
100
AcDbSpline
 62
7
  6
CONTINUOUS
 70
0
 71
3
 72
16
 73
12
 74
0
 42
0.0000001
 43
0.0000001
 44
0.0000000001
 40
0.0
 40
0.0
 40
0.0
 40
0.0
 40
0.1218760483
 40
0.2439466165
 40
0.3668197724
 40
0.42862144
 40
0.490621797
 40
0.6155637132
 40
0.7420957962
 40
0.8702005511
 40
1.0
 40
1.0
 40
1.0
 40
1.0
 10
6.9960168934
 20
2.577854018
 30
0.0
 10
6.9962728218
 20
2.5776951283
 30
0.0
 10
6.996803671
 20
2.5774058894
 30
0.0
 10
6.9976460874
 20
2.5770657492
 30
0.0
 10
6.9983782379
 20
2.5768622132
 30
0.0
 10
6.9989775197
 20
2.5767484862
 30
0.0
 10
6.9995873645
 20
2.5766681986
 30
0.0
 10
7.0003629544
 20
2.5766312464
 30
0.0
 10
7.0013012381
 20
2.5766870722
 30
0.0
 10
7.0022401423
 20
2.5768439037
 30
0.0
 10
7.0028558039
 20
2.5770140911
 30
0.0
 10
7.0031604619
 20
2.5771146464
 30
0.0
  0
SPLINE
  5
314
100
AcDbEntity
  8
0
100
AcDbSpline
 62
7
  6
CONTINUOUS
 70
0
 71
3
 72
9
 73
5
 74
0
 42
0.0000001
 43
0.0000001
 44
0.0000000001
 40
0.0
 40
0.0
 40
0.0
 40
0.0
 40
0.5000015661
 40
1.0
 40
1.0
 40
1.0
 40
1.0
 10
6.9955656943
 20
2.6276233428
 30
0.0
 10
6.9978593489
 20
2.6347900126
 30
0.0
 10
7.0026732057
 20
2.6490519609
 30
0.0
 10
7.0079829211
 20
2.6631378907
 30
0.0
 10
7.0107742528
 20
2.6701257205
 30
0.0
  0
SPLINE
  5
315
100
AcDbEntity
  8
0
100
AcDbSpline
 62
7
  6
CONTINUOUS
 70
0
 71
3
 72
11
 73
7
 74
0
 42
0.0000001
 43
0.0000001
 44
0.0000000001
 40
0.0
 40
0.0
 40
0.0
 40
0.0
 40
0.2498957989
 40
0.499876333
 40
0.7499205251
 40
1.0
 40
1.0
 40
1.0
 40
1.0
 10
6.9955656943
 20
2.6276233428
 30
0.0
 10
6.9953919025
 20
2.6276020288
 30
0.0
 10
6.9950380704
 20
2.6276018306
 30
0.0
 10
6.9945210021
 20
2.6277119764
 30
0.0
 10
6.9940340679
 20
2.627917098
 30
0.0
 10
6.9937381413
 20
2.628108602
 30
0.0
 10
6.9935998473
 20
2.628216202
 30
0.0
  0
SPLINE
  5
316
100
AcDbEntity
  8
0
100
AcDbSpline
 62
7
  6
CONTINUOUS
 70
0
 71
3
 72
11
 73
7
 74
0
 42
0.0000001
 43
0.0000001
 44
0.0000000001
 40
0.0
 40
0.0
 40
0.0
 40
0.0
 40
0.2498928553
 40
0.4998747963
 40
0.7499197859
 40
1.0
 40
1.0
 40
1.0
 40
1.0
 10
7.3256378567
 20
2.6276234799
 30
0.0
 10
7.3258116713
 20
2.6276020633
 30
0.0
 10
7.3261655975
 20
2.6276017864
 30
0.0
 10
7.3266827511
 20
2.627712051
 30
0.0
 10
7.3271698046
 20
2.6279171962
 30
0.0
 10
7.3274657229
 20
2.6281088525
 30
0.0
 10
7.3276040463
 20
2.628216476
 30
0.0
  0
SPLINE
  5
317
100
AcDbEntity
  8
0
100
AcDbSpline
 62
7
  6
CONTINUOUS
 70
0
 71
3
 72
9
 73
5
 74
0
 42
0.0000001
 43
0.0000001
 44
0.0000000001
 40
0.0
 40
0.0
 40
0.0
 40
0.0
 40
0.4999984609
 40
1.0
 40
1.0
 40
1.0
 40
1.0
 10
7.310429351
 20
2.6701257246
 30
0.0
 10
7.3132205679
 20
2.6631378744
 30
0.0
 10
7.3185303207
 20
2.6490520161
 30
0.0
 10
7.3233442739
 20
2.634790147
 30
0.0
 10
7.3256378567
 20
2.6276234799
 30
0.0
  0
SPLINE
  5
318
100
AcDbEntity
  8
0
100
AcDbSpline
 62
7
  6
CONTINUOUS
 70
0
 71
3
 72
71
 73
67
 74
0
 42
0.0000001
 43
0.0000001
 44
0.0000000001
 40
0.0
 40
0.0
 40
0.0
 40
0.0
 40
0.017707219
 40
0.0351871879
 40
0.0524410182
 40
0.0694728007
 40
0.086288925
 40
0.1028973393
 40
0.1193073201
 40
0.1355287146
 40
0.1515716848
 40
0.1674467778
 40
0.1831642983
 40
0.1987346786
 40
0.2294692747
 40
0.2597330391
 40
0.2747133923
 40
0.2896031354
 40
0.3191428233
 40
0.3484286916
 40
0.3775422002
 40
0.4065940837
 40
0.4357932482
 40
0.4506054387
 40
0.4581306348
 40
0.4657908609
 40
0.4736654559
 40
0.4777215953
 40
0.4818885608
 40
0.4861867864
 40
0.4906486157
 40
0.4952748886
 40
0.5000035787
 40
0.502376061
 40
0.5047323328
 40
0.5070613238
 40
0.5093558169
 40
0.5138225856
 40
0.5181212202
 40
0.5222833742
 40
0.5263416705
 40
0.5303131153
 40
0.5342165693
 40
0.5418766549
 40
0.5494020526
 40
0.5642140223
 40
0.5934132991
 40
0.6224651751
 40
0.6515787133
 40
0.68086461
 40
0.7104043345
 40
0.7252941005
 40
0.740274474
 40
0.7705382434
 40
0.8012728112
 40
0.8168432006
 40
0.8325607391
 40
0.8484358288
 40
0.864478788
 40
0.8807001832
 40
0.8971101746
 40
0.9305272061
 40
0.9475589854
 40
0.9648128166
 40
0.9822927839
 40
1.0
 40
1.0
 40
1.0
 40
1.0
 10
7.2806039578
 20
2.5129747801
 30
0.0
 10
7.284971595
 20
2.5149661771
 30
0.0
 10
7.2935571181
 20
2.5191326744
 30
0.0
 10
7.306043998
 20
2.5259380556
 30
0.0
 10
7.3180489823
 20
2.5332141446
 30
0.0
 10
7.3295670841
 20
2.5409189284
 30
0.0
 10
7.3405974358
 20
2.549014356
 30
0.0
 10
7.3511432215
 20
2.5574641659
 30
0.0
 10
7.3612093871
 20
2.5662361428
 30
0.0
 10
7.3708026953
 20
2.5753007867
 30
0.0
 10
7.3799315603
 20
2.5846309263
 30
0.0
 10
7.3886045961
 20
2.5942023946
 30
0.0
 10
7.3968312587
 20
2.6039933548
 30
0.0
 10
7.4071713889
 20
2.6172553195
 30
0.0
 10
7.4190523557
 20
2.6342978126
 30
0.0
 10
7.4296519019
 20
2.6519770707
 30
0.0
 10
7.4373284285
 20
2.666360853
 30
0.0
 10
7.4444458213
 20
2.6808107627
 30
0.0
 10
7.4524113458
 20
2.6991536891
 30
0.0
 10
7.4605291946
 20
2.7215837277
 30
0.0
 10
7.4672260134
 20
2.7443403664
 30
0.0
 10
7.4725390761
 20
2.767434198
 30
0.0
 10
7.4758238836
 20
2.7869793302
 30
0.0
 10
7.4775187885
 20
2.8008489484
 30
0.0
 10
7.4783201419
 20
2.8089416462
 30
0.0
 10
7.4788389595
 20
2.8151716138
 30
0.0
 10
7.4791937918
 20
2.820470867
 30
0.0
 10
7.4794307877
 20
2.8248283538
 30
0.0
 10
7.4795843848
 20
2.8282192951
 30
0.0
 10
7.479712446
 20
2.831721351
 30
0.0
 10
7.4798088753
 20
2.8353490025
 30
0.0
 10
7.4798674979
 20
2.8390941627
 30
0.0
 10
7.4798860877
 20
2.8422733316
 30
0.0
 10
7.4798791555
 20
2.844837127
 30
0.0
 10
7.4798630869
 20
2.8467503335
 30
0.0
 10
7.4798371452
 20
2.8486422862
 30
0.0
 10
7.4797913077
 20
2.8511061182
 30
0.0
 10
7.479712993
 20
2.8541033499
 30
0.0
 10
7.4795850901
 20
2.8576055659
 30
0.0
 10
7.4794300443
 20
2.8609958273
 30
0.0
 10
7.4792514178
 20
2.8642961022
 30
0.0
 10
7.4790485477
 20
2.8675247121
 30
0.0
 10
7.4787495705
 20
2.8717254587
 30
0.0
 10
7.4783201322
 20
2.8768826148
 30
0.0
 10
7.4775188666
 20
2.8849752688
 30
0.0
 10
7.4758237981
 20
2.8988448988
 30
0.0
 10
7.4725391385
 20
2.9183900166
 30
0.0
 10
7.4672260129
 20
2.9414838761
 30
0.0
 10
7.4605292194
 20
2.9642405341
 30
0.0
 10
7.4524113635
 20
2.9866705985
 30
0.0
 10
7.4444458333
 20
3.0050135481
 30
0.0
 10
7.437328432
 20
3.0194634778
 30
0.0
 10
7.4296519014
 20
3.0338472726
 30
0.0
 10
7.4190523628
 20
3.0515265359
 30
0.0
 10
7.4071713553
 20
3.0685689947
 30
0.0
 10
7.3968312408
 20
3.0818309721
 30
0.0
 10
7.3886046128
 20
3.0916219637
 30
0.0
 10
7.3799315458
 20
3.1011934315
 30
0.0
 10
7.3708027149
 20
3.1105234984
 30
0.0
 10
7.3612091843
 20
3.1195883058
 30
0.0
 10
7.347707985
 20
3.1313539244
 30
0.0
 10
7.3333079679
 20
3.1424031686
 30
0.0
 10
7.3180491427
 20
3.1526100545
 30
0.0
 10
7.3060439511
 20
3.1598863354
 30
0.0
 10
7.293557131
 20
3.1666916665
 30
0.0
 10
7.2849715759
 20
3.1708581338
 30
0.0
 10
7.2806039377
 20
3.1728495266
 30
0.0
  0
SPLINE
  5
319
100
AcDbEntity
  8
0
100
AcDbSpline
 62
7
  6
CONTINUOUS
 70
0
 71
3
 72
11
 73
7
 74
0
 42
0.0000001
 43
0.0000001
 44
0.0000000001
 40
0.0
 40
0.0
 40
0.0
 40
0.0
 40
0.2499241185
 40
0.4999091622
 40
0.7499412994
 40
1.0
 40
1.0
 40
1.0
 40
1.0
 10
7.0021223353
 20
2.5842197011
 30
0.0
 10
7.0019599206
 20
2.5841959888
 30
0.0
 10
7.0016292143
 20
2.5841834849
 30
0.0
 10
7.001139778
 20
2.5842570369
 30
0.0
 10
7.0006699338
 20
2.5844119943
 30
0.0
 10
7.0003767936
 20
2.5845635816
 30
0.0
 10
7.000237284
 20
2.584650224
 30
0.0
  0
SPLINE
  5
31A
100
AcDbEntity
  8
0
100
AcDbSpline
 62
7
  6
CONTINUOUS
 70
0
 71
3
 72
11
 73
7
 74
0
 42
0.0000001
 43
0.0000001
 44
0.0000000001
 40
0.0
 40
0.0
 40
0.0
 40
0.0
 40
0.2499228193
 40
0.4999091458
 40
0.7499423064
 40
1.0
 40
1.0
 40
1.0
 40
1.0
 10
7.3190815401
 20
2.5842197714
 30
0.0
 10
7.3192438112
 20
2.5841960232
 30
0.0
 10
7.3195742502
 20
2.5841834678
 30
0.0
 10
7.3200632725
 20
2.5842569638
 30
0.0
 10
7.3205327932
 20
2.5844115906
 30
0.0
 10
7.3208256952
 20
2.5845630597
 30
0.0
 10
7.3209650882
 20
2.5846496304
 30
0.0
  0
SPLINE
  5
31B
100
AcDbEntity
  8
0
100
AcDbSpline
 62
7
  6
CONTINUOUS
 70
0
 71
3
 72
13
 73
9
 74
0
 42
0.0000001
 43
0.0000001
 44
0.0000000001
 40
0.0
 40
0.0
 40
0.0
 40
0.0
 40
0.2499170287
 40
0.4998072014
 40
0.6248626939
 40
0.7499143281
 40
0.8749611976
 40
1.0
 40
1.0
 40
1.0
 40
1.0
 10
7.3196235342
 20
2.6124515706
 30
0.0
 10
7.3188844572
 20
2.6119415944
 30
0.0
 10
7.3173211232
 20
2.6110397788
 30
0.0
 10
7.3152084246
 20
2.6102473116
 30
0.0
 10
7.313456068
 20
2.6098420197
 30
0.0
 10
7.312118183
 20
2.6096609967
 30
0.0
 10
7.3107689525
 20
2.6096132397
 30
0.0
 10
7.3098704695
 20
2.6096780391
 30
0.0
 10
7.3094250342
 20
2.6097365548
 30
0.0
  0
SPLINE
  5
31C
100
AcDbEntity
  8
0
100
AcDbSpline
 62
7
  6
CONTINUOUS
 70
0
 71
3
 72
70
 73
66
 74
0
 42
0.0000001
 43
0.0000001
 44
0.0000000001
 40
0.0
 40
0.0
 40
0.0
 40
0.0
 40
0.017707349
 40
0.0351874501
 40
0.052441418
 40
0.0694733327
 40
0.102890621
 40
0.1193007341
 40
0.1355222454
 40
0.1515653536
 40
0.1674405824
 40
0.1831582198
 40
0.198728732
 40
0.2294635834
 40
0.2597276015
 40
0.2747080705
 40
0.2895979406
 40
0.3191378641
 40
0.3484239747
 40
0.3775377226
 40
0.4065898413
 40
0.4357892549
 40
0.4506015851
 40
0.465786693
 40
0.4736613395
 40
0.4777172933
 40
0.4818844401
 40
0.4861832355
 40
0.4906441649
 40
0.4952707337
 40
0.4976280595
 40
0.4999998308
 40
0.5023724783
 40
0.5047289418
 40
0.5070576645
 40
0.5093514047
 40
0.5138181485
 40
0.5181175274
 40
0.5222797358
 40
0.526337811
 40
0.5303091478
 40
0.5342127794
 40
0.5418730317
 40
0.5493983874
 40
0.5642105443
 40
0.5934100457
 40
0.6224621663
 40
0.6515759435
 40
0.6808620793
 40
0.7104020361
 40
0.7252919268
 40
0.7402724125
 40
0.7705364308
 40
0.8012712537
 40
0.8168417765
 40
0.8325594301
 40
0.8484346529
 40
0.8644777509
 40
0.880699265
 40
0.8971093876
 40
0.930526674
 40
0.947558585
 40
0.964812553
 40
0.9822926531
 40
1.0
 40
1.0
 40
1.0
 40
1.0
 10
7.0405979131
 20
3.1728487411
 30
0.0
 10
7.0362303094
 20
3.1708573321
 30
0.0
 10
7.0276448363
 20
3.1666908071
 30
0.0
 10
7.0151581063
 20
3.159885459
 30
0.0
 10
7.0031530182
 20
3.152609137
 30
0.0
 10
6.9878943279
 20
3.1424022082
 30
0.0
 10
6.9734944624
 20
3.1313529192
 30
0.0
 10
6.959993328
 20
3.1195873677
 30
0.0
 10
6.9503998679
 20
3.1105225745
 30
0.0
 10
6.9412711536
 20
3.1011924705
 30
0.0
 10
6.9325981919
 20
3.0916209878
 30
0.0
 10
6.9243715866
 20
3.0818300612
 30
0.0
 10
6.9140315467
 20
3.0685681203
 30
0.0
 10
6.902150676
 20
3.0515256694
 30
0.0
 10
6.8915512382
 20
3.0338464531
 30
0.0
 10
6.8838747649
 20
3.0194627234
 30
0.0
 10
6.8767574494
 20
3.0050128582
 30
0.0
 10
6.8687919857
 20
2.9866700021
 30
0.0
 10
6.8606742191
 20
2.9642400508
 30
0.0
 10
6.8539774511
 20
2.9414834962
 30
0.0
 10
6.8486644639
 20
2.9183897942
 30
0.0
 10
6.8453795907
 20
2.898844634
 30
0.0
 10
6.8434329953
 20
2.8829138799
 30
0.0
 10
6.842500953
 20
2.8726878507
 30
0.0
 10
6.8420098106
 20
2.8653533607
 30
0.0
 10
6.8417727576
 20
2.8609959124
 30
0.0
 10
6.841619151
 20
2.8576048618
 30
0.0
 10
6.8414913145
 20
2.8541028822
 30
0.0
 10
6.8413945379
 20
2.8504752987
 30
0.0
 10
6.8413460467
 20
2.8473731082
 30
0.0
 10
6.841325234
 20
2.8448370173
 30
0.0
 10
6.8413194071
 20
2.8429118488
 30
0.0
 10
6.841324324
 20
2.840986911
 30
0.0
 10
6.8413402752
 20
2.8390737034
 30
0.0
 10
6.8413663284
 20
2.8371820006
 30
0.0
 10
6.841412438
 20
2.8347184886
 30
0.0
 10
6.8414907035
 20
2.8317213041
 30
0.0
 10
6.8416184282
 20
2.8282189155
 30
0.0
 10
6.8417735075
 20
2.8248285415
 30
0.0
 10
6.8419521687
 20
2.821528385
 30
0.0
 10
6.8421550706
 20
2.8182998594
 30
0.0
 10
6.8424539905
 20
2.814099098
 30
0.0
 10
6.8428834171
 20
2.8089419238
 30
0.0
 10
6.8436847266
 20
2.8008492928
 30
0.0
 10
6.8453797188
 20
2.7869797311
 30
0.0
 10
6.8486643928
 20
2.7674346879
 30
0.0
 10
6.8539774524
 20
2.7443409251
 30
0.0
 10
6.8606741907
 20
2.721584359
 30
0.0
 10
6.8687919647
 20
2.699154381
 30
0.0
 10
6.8767574324
 20
2.6808115042
 30
0.0
 10
6.8838747543
 20
2.6663616206
 30
0.0
 10
6.8915512302
 20
2.6519778811
 30
0.0
 10
6.9021506614
 20
2.634298663
 30
0.0
 10
6.9140315722
 20
2.6172562465
 30
0.0
 10
6.9243715891
 20
2.6039942894
 30
0.0
 10
6.9325981662
 20
2.5942033312
 30
0.0
 10
6.9412711489
 20
2.5846318666
 30
0.0
 10
6.9503998851
 20
2.5753017896
 30
0.0
 10
6.9599933358
 20
2.5662369867
 30
0.0
 10
6.9734944308
 20
2.5544713855
 30
0.0
 10
6.9878943073
 20
2.5434221048
 30
0.0
 10
7.0031530133
 20
2.5332152033
 30
0.0
 10
7.0151580937
 20
2.5259388715
 30
0.0
 10
7.0276448209
 20
2.5191335189
 30
0.0
 10
7.0362303048
 20
2.5149670177
 30
0.0
 10
7.0405979096
 20
2.5129756126
 30
0.0
  0
ENDSEC
  0
SECTION
  2
OBJECTS
  0
DICTIONARY
  5
C
100
AcDbDictionary
280
0
281
1
  3
ACAD_GROUP
350
D
  3
ACAD_MLINESTYLE
350
17
  3
ACAD_LAYOUT
350
1A
  3
ACAD_PLOTSETTINGS
350
19
  3
ACAD_PLOTSTYLENAME
350
E
  0
DICTIONARY
  5
D
102
{ACAD_REACTORS
330
C
102
}
100
AcDbDictionary
280
0
281
1
  0
ACDBDICTIONARYWDFLT
  5
E
102
{ACAD_REACTORS
330
C
102
}
100
AcDbDictionary
281
1
  3
Normal
350
F
100
AcDbDictionaryWithDefault
340
F
  0
DICTIONARY
  5
17
102
{ACAD_REACTORS
330
C
102
}
100
AcDbDictionary
280
0
281
1
  3
Standard
350
18
  0
DICTIONARY
  5
19
102
{ACAD_REACTORS
330
C
102
}
100
AcDbDictionary
281
1
  0
DICTIONARY
  5
1A
102
{ACAD_REACTORS
330
C
102
}
100
AcDbDictionary
281
1
  3
Model
350
31D
  3
Layout1
350
31E
  0
ACDBPLACEHOLDER
  5
F
102
{ACAD_REACTORS
330
E
102
}
  0
MLINESTYLE
  5
18
102
{ACAD_REACTORS
330
17
102
}
100
AcDbMlineStyle
  2
STANDARD
 70
0
  3

 62
256
 51
90.0
 52
90.0
 71
2
 49
0.5
 62
256
  6
BYLAYER
 49
-0.5
 62
256
  6
BYLAYER
  0
LAYOUT
  5
31D
102
{ACAD_REACTORS
330
1A
102
}
100
AcDbPlotSettings
  1

  2
none_device
  4
ANSI_A_(11.00_x_8.50_Inches)
  6

 40
0.0
 41
0.0
 42
0.0
 43
0.0
 44
279.4
 45
215.9
 46
0.0
 47
0.0
 48
0.0
 49
0.0
140
0.0
141
0.0
142
1.0
143
1.0
 70
1024
 72
0
 73
0
 74
0
  7

 75
0
147
1.0
148
0.0
149
0.0
100
AcDbLayout
  1
Model
 70
0
 71
0
 10
0.0
 20
0.0
 11
11.0
 21
8.5
 12
0.0
 22
0.0
 32
0.0
 14
0.0
 24
0.0
 34
0.0
 15
0.0
 25
0.0
 35
0.0
146
0.0
 13
0.0
 23
0.0
 33
0.0
 16
1.0
 26
0.0
 36
0.0
 17
0.0
 27
1.0
 37
0.0
 76
0
330
202
345
0
346
0
  0
LAYOUT
  5
31E
102
{ACAD_REACTORS
330
1A
102
}
100
AcDbPlotSettings
  1

  2
none_device
  4
ANSI_A_(11.00_x_8.50_Inches)
  6

 40
0.0
 41
0.0
 42
0.0
 43
0.0
 44
279.4
 45
215.9
 46
0.0
 47
0.0
 48
0.0
 49
0.0
140
0.0
141
0.0
142
1.0
143
1.0
 70
0
 72
0
 73
0
 74
0
  7

 75
0
147
1.0
148
0.0
149
0.0
100
AcDbLayout
  1
Layout1
 70
0
 71
1
 10
0.0
 20
0.0
 11
11.0
 21
8.5
 12
0.0
 22
0.0
 32
0.0
 14
0.0
 24
0.0
 34
0.0
 15
0.0
 25
0.0
 35
0.0
146
0.0
 13
0.0
 23
0.0
 33
0.0
 16
1.0
 26
0.0
 36
0.0
 17
0.0
 27
1.0
 37
0.0
 76
0
330
203
345
0
346
0
  0
ENDSEC
  0
EOF
