999
DXF file: E:\BT Custom\CADOUTPUT\_FRONT.dxf
999
Pro/ENGINEER 2018400 by Parametric Technology Corporation
  0
SECTION
  2
HEADER
  9
$ACADVER
  1
AC1018
  9
$DWGCODEPAGE
  3
ANSI_1252
  9
$EXTMAX
 10
22.0
 20
17.0
 30
0.0
  9
$EXTMIN
 10
0.0
 20
0.0
 30
0.0
  9
$LIMMIN
 10
0.0
 20
0.0
  9
$LIMMAX
 10
22.0
 20
17.0
  9
$VIEWCTR
 10
11.0
 20
8.5
  9
$VIEWSIZE
 40
17.0
  9
$CLAYER
  8
0
  9
$LTSCALE
 40
1.21
  9
$CELTYPE
  6
BYLAYER
  9
$DIMSCALE
 40
1.0
  9
$DIMASZ
 40
0.1
  9
$DIMEXO
 40
0.0625
  9
$DIMDLI
 40
0.836
  9
$DIMEXE
 40
0.125
  9
$DIMCEN
 40
0.198
  9
$DIMLFAC
 40
1.0
  9
$DIMBLK
  1
_FILLED
  9
$DIMALT
 70
1
  9
$DIMALTD
 70
2
  9
$DIMALTTD
 70
2
  9
$DIMALTF
 40
25.4
  9
$DIMTXT
 40
0.08
  9
$DIMTOL
 70
1
  9
$DIMLIM
 70
0
  9
$DIMTFAC
 40
1.0
  9
$DIMTP
 40
0.001
  9
$DIMTM
 40
0.001
  9
$DIMGAP
 40
0.09
  9
$DIMDSEP
 70
46
  9
$AUNITS
 70
0
  9
$PDMODE
 70
3
  9
$PDSIZE
 40
0.06
  9
$HANDSEED
  5
26F
  9
$TILEMODE
 70
1
  9
$MEASUREMENT
 70
0
  9
$INSUNITS
 70
1
  0
ENDSEC
  0
SECTION
  2
CLASSES
  0
CLASS
  1
ACDBDICTIONARYWDFLT
  2
AcDbDictionaryWithDefault
  3
AutoCAD 2000
 90
0
 91
1
280
0
281
0
  0
CLASS
  1
ACDBPLACEHOLDER
  2
AcDbPlaceHolder
  3
AutoCAD 2000
 90
0
 91
1
280
0
281
0
  0
CLASS
  1
LAYOUT
  2
AcDbLayout
  3
AutoCAD 2000
 90
0
 91
0
280
0
281
0
  0
ENDSEC
  0
SECTION
  2
TABLES
  0
TABLE
  2
VPORT
  5
8
100
AcDbSymbolTable
 70
2
  0
VPORT
  5
1F4
100
AcDbSymbolTableRecord
100
AcDbViewportTableRecord
  2
*ACTIVE
 70
0
 10
0.0
 20
0.0
 11
1.0
 21
1.0
 12
11.0
 22
8.5
 13
0.0
 23
0.0
 14
1.0
 24
1.0
 15
0.0
 25
0.0
 16
0.0
 26
0.0
 36
1.0
 17
0.0
 27
0.0
 37
0.0
 40
17.0
 41
1.2941176471
 42
50.0
 43
0.0
 44
0.0
 50
0.0
 51
0.0
 71
0
 72
100
 73
1
 74
1
 75
0
 76
0
 77
0
 78
0
  0
ENDTAB
  0
TABLE
  2
LTYPE
  5
5
100
AcDbSymbolTable
 70
6
  0
LTYPE
  5
14
100
AcDbSymbolTableRecord
100
AcDbLinetypeTableRecord
  2
BYBLOCK
 70
0
  3

 72
65
 73
0
 40
0.0
  0
LTYPE
  5
15
100
AcDbSymbolTableRecord
100
AcDbLinetypeTableRecord
  2
BYLAYER
 70
0
  3

 72
65
 73
0
 40
0.0
  0
LTYPE
  5
16
100
AcDbSymbolTableRecord
100
AcDbLinetypeTableRecord
  2
CONTINUOUS
 70
64
  3
Solid line
 72
65
 73
0
 40
0.0
  0
LTYPE
  5
1F5
100
AcDbSymbolTableRecord
100
AcDbLinetypeTableRecord
  2
CENTER
 70
64
  3
____ _ ____ _ ____ _ ____ _ ____ _ ____ _ ____
 72
65
 73
4
 40
0.6
 49
0.375
 74
0
 49
-0.075
 74
0
 49
0.075
 74
0
 49
-0.075
 74
0
  0
LTYPE
  5
1F6
100
AcDbSymbolTableRecord
100
AcDbLinetypeTableRecord
  2
HIDDEN
 70
64
  3
- - - - - - - - - - - - - - - - - - - -
 72
65
 73
2
 40
0.2
 49
0.1
 74
0
 49
-0.1
 74
0
  0
LTYPE
  5
1F7
100
AcDbSymbolTableRecord
100
AcDbLinetypeTableRecord
  2
PHANTOM
 70
64
  3
_____ _ _ _____ _ _ _____ _ _ _____
 72
65
 73
6
 40
0.8
 49
0.45
 74
0
 49
-0.05
 74
0
 49
0.1
 74
0
 49
-0.05
 74
0
 49
0.1
 74
0
 49
-0.05
 74
0
  0
LTYPE
  5
1F8
100
AcDbSymbolTableRecord
100
AcDbLinetypeTableRecord
  2
DOT
 70
64
  3
. . . . . . . . . . . . . . . . . . . .
 72
65
 73
2
 40
0.2
 49
0.1
 74
0
 49
-0.1
 74
0
  0
LTYPE
  5
1F9
100
AcDbSymbolTableRecord
100
AcDbLinetypeTableRecord
  2
DASHED
 70
64
  3
- - - - - - - - - - - - - - - - - - - -
 72
65
 73
2
 40
0.2
 49
0.1
 74
0
 49
-0.1
 74
0
  0
ENDTAB
  0
TABLE
  2
LAYER
  5
2
100
AcDbSymbolTable
 70
36
  0
LAYER
  5
10
100
AcDbSymbolTableRecord
100
AcDbLayerTableRecord
  2
0
 70
0
 62
7
  6
CONTINUOUS
370
-3
390
F
  0
LAYER
  5
1FA
100
AcDbSymbolTableRecord
100
AcDbLayerTableRecord
  2
DEFAULT_1
 70
0
 62
7
  6
CENTER
370
-3
390
F
  0
LAYER
  5
1FB
100
AcDbSymbolTableRecord
100
AcDbLayerTableRecord
  2
DEFAULT_2
 70
0
 62
8
  6
HIDDEN
370
-3
390
F
  0
LAYER
  5
1FC
100
AcDbSymbolTableRecord
100
AcDbLayerTableRecord
  2
DEFAULT_3
 70
0
 62
7
  6
PHANTOM
370
-3
390
F
  0
LAYER
  5
1FD
100
AcDbSymbolTableRecord
100
AcDbLayerTableRecord
  2
ALL_FEATURES
 70
0
 62
7
  6
CONTINUOUS
370
-3
390
F
  0
LAYER
  5
1FE
100
AcDbSymbolTableRecord
100
AcDbLayerTableRecord
  2
AXES_FEATURES
 70
0
 62
7
  6
CONTINUOUS
370
-3
390
F
  0
LAYER
  5
1FF
100
AcDbSymbolTableRecord
100
AcDbLayerTableRecord
  2
DIMENSIONS
 70
0
 62
7
  6
CONTINUOUS
370
-3
390
F
  0
ENDTAB
  0
TABLE
  2
STYLE
  5
3
100
AcDbSymbolTable
 70
1
  0
STYLE
  5
11
100
AcDbSymbolTableRecord
100
AcDbTextStyleTableRecord
  2
STANDARD
 70
0
 40
0.0
 41
0.8
 50
0.0
 71
0
 42
0.2
  3
txt
  4

  0
STYLE
  5
200
100
AcDbSymbolTableRecord
100
AcDbTextStyleTableRecord
  2
TEXTSTYLE_1
 70
0
 40
0.0
 41
0.8
 50
0.0
 71
0
 42
0.2
  3
gdt
  4

  0
ENDTAB
  0
TABLE
  2
VIEW
  5
6
100
AcDbSymbolTable
 70
0
  0
ENDTAB
  0
TABLE
  2
UCS
  5
7
100
AcDbSymbolTable
 70
0
  0
ENDTAB
  0
TABLE
  2
APPID
  5
9
100
AcDbSymbolTable
 70
1
  0
APPID
  5
201
100
AcDbSymbolTableRecord
100
AcDbRegAppTableRecord
  2
ACAD
 70
0
  0
ENDTAB
  0
TABLE
  2
BLOCK_RECORD
  5
1
100
AcDbSymbolTable
 70
0
  0
BLOCK_RECORD
  5
202
100
AcDbSymbolTableRecord
100
AcDbBlockTableRecord
  2
*Model_Space
  0
BLOCK_RECORD
  5
203
100
AcDbSymbolTableRecord
100
AcDbBlockTableRecord
  2
*Paper_Space
  0
BLOCK_RECORD
  5
204
100
AcDbSymbolTableRecord
100
AcDbBlockTableRecord
  2
_FILLED
  0
ENDTAB
  0
TABLE
  2
DIMSTYLE
  5
A
100
AcDbSymbolTable
 70
1
100
AcDbDimStyleTable
 71
0
  0
DIMSTYLE
105
205
100
AcDbSymbolTableRecord
100
AcDbDimStyleTableRecord
  2
STANDARD
 70
0
  3

  4

 40
1.0
 41
0.1
 42
0.0625
 43
0.38
 44
0.125
 45
0.0
 46
0.0
 47
0.001
 48
0.001
140
0.08
141
0.09
142
0.0
143
25.4
144
1.0
145
0.0
146
1.0
147
0.09
 71
1.0
 72
0.0
 73
1
 74
1
 75
0
 76
0
 77
0
 78
4
 79
1
170
1
171
2
172
0
173
0
174
0
175
0
176
0
177
0
178
0
270
2
179
3
271
3
272
3
273
2
274
2
275
0
280
0
281
0
282
0
283
1
284
4
285
0
286
0
287
3
288
0
340
11
278
46
341
204
342
204
343
204
344
204
  0
ENDTAB
  0
ENDSEC
  0
SECTION
  2
BLOCKS
  0
BLOCK
  5
20
100
AcDbEntity
  8
0
100
AcDbBlockBegin
  2
*Model_Space
 70
0
 10
0.0
 20
0.0
 30
0.0
  3
*Model_Space
  1

  0
ENDBLK
  5
21
100
AcDbEntity
  8
0
100
AcDbBlockEnd
  0
BLOCK
  5
1C
100
AcDbEntity
  8
0
100
AcDbBlockBegin
  2
*Paper_Space
 70
0
 10
0.0
 20
0.0
 30
0.0
  3
*Paper_Space
  1

  0
ENDBLK
  5
1D
100
AcDbEntity
  8
0
100
AcDbBlockEnd
  0
BLOCK
  5
206
100
AcDbEntity
  8
0
100
AcDbBlockBegin
  2
_FILLED
 70
64
 10
0.0
 20
0.0
  3
_FILLED
  1

  0
SOLID
  5
207
100
AcDbEntity
  8
0
  6
BYBLOCK
 62
0
100
AcDbTrace
 10
0.0
 20
0.0
 11
-1.0
 21
0.2
 12
-1.0
 22
-0.2
 13
-1.0
 23
-0.2
  0
ENDBLK
  5
208
100
AcDbEntity
  8
0
  6
BYBLOCK
 62
0
100
AcDbBlockEnd
  0
ENDSEC
  0
SECTION
  2
ENTITIES
  0
LINE
  5
209
100
AcDbEntity
  8
0
100
AcDbLine
 62
7
  6
CONTINUOUS
 10
10.7176923427
 20
4.5469485715
 11
11.1576912133
 21
4.5469485715
  0
LINE
  5
20A
100
AcDbEntity
  8
0
100
AcDbLine
 62
9
  6
CONTINUOUS
 10
10.6876923427
 20
4.5769485715
 11
11.1876923427
 21
4.5769485715
  0
LINE
  5
20B
100
AcDbEntity
  8
0
100
AcDbLine
 62
7
  6
CONTINUOUS
 10
10.3376923427
 20
8.3719485715
 11
11.5376923427
 21
8.3719485715
  0
LINE
  5
20C
100
AcDbEntity
  8
0
100
AcDbLine
 62
7
  6
CONTINUOUS
 10
10.3376923427
 20
13.9683904328
 11
10.3376923427
 21
12.3119485715
  0
LINE
  5
20D
100
AcDbEntity
  8
0
100
AcDbLine
 62
7
  6
CONTINUOUS
 10
10.3376923427
 20
9.1319485715
 11
10.3376923427
 21
7.915903635
  0
LINE
  5
20E
100
AcDbEntity
  8
0
100
AcDbLine
 62
7
  6
CONTINUOUS
 10
10.3376923427
 20
9.4519485715
 11
10.3376923427
 21
11.9919485715
  0
LINE
  5
20F
100
AcDbEntity
  8
0
100
AcDbLine
 62
7
  6
CONTINUOUS
 10
10.3776923427
 20
9.1319485715
 11
10.3776923427
 21
9.4319485715
  0
LINE
  5
210
100
AcDbEntity
  8
0
100
AcDbLine
 62
7
  6
CONTINUOUS
 10
10.3776923427
 20
11.9919485715
 11
10.3776923427
 21
12.2919485715
  0
LINE
  5
211
100
AcDbEntity
  8
0
100
AcDbLine
 62
7
  6
CONTINUOUS
 10
10.3876923427
 20
12.3519485715
 11
10.3876923427
 21
13.201921939
  0
LINE
  5
212
100
AcDbEntity
  8
0
100
AcDbLine
 62
7
  6
CONTINUOUS
 10
10.4676923427
 20
12.3119485715
 11
10.4676923427
 21
12.2919485715
  0
LINE
  5
213
100
AcDbEntity
  8
0
100
AcDbLine
 62
7
  6
CONTINUOUS
 10
10.4676923427
 20
9.4519485715
 11
10.4676923427
 21
9.4319485715
  0
LINE
  5
214
100
AcDbEntity
  8
0
100
AcDbLine
 62
7
  6
CONTINUOUS
 10
10.4751923427
 20
12.3519485715
 11
10.4751923427
 21
12.1669485715
  0
LINE
  5
215
100
AcDbEntity
  8
0
100
AcDbLine
 62
7
  6
CONTINUOUS
 10
10.5714423427
 20
11.9969485715
 11
10.5714423427
 21
11.9889485715
  0
LWPOLYLINE
  5
216
100
AcDbEntity
  8
0
100
AcDbPolyline
 62
7
  6
CONTINUOUS
 90
4
 70
0
 10
10.3376949182
 20
7.915903635
 10
10.3375831918
 20
7.9122444303
 10
10.3359589924
 20
7.9015781714
 10
10.3325061017
 20
7.8915008657
  0
LINE
  5
217
100
AcDbEntity
  8
0
100
AcDbLine
 62
7
  6
CONTINUOUS
 10
10.6876923427
 20
4.5769485715
 11
10.6876923427
 21
7.0099136184
  0
LINE
  5
218
100
AcDbEntity
  8
0
100
AcDbLine
 62
7
  6
CONTINUOUS
 10
10.6876923427
 20
10.1819485715
 11
10.6876923427
 21
12.7134027348
  0
LINE
  5
219
100
AcDbEntity
  8
0
100
AcDbLine
 62
9
  6
CONTINUOUS
 10
10.9376923997
 20
8.3444485715
 11
10.9376923639
 21
8.2844481941
  0
LINE
  5
21A
100
AcDbEntity
  8
0
100
AcDbLine
 62
7
  6
CONTINUOUS
 10
11.5376923427
 20
9.1319485715
 11
11.4976923427
 21
9.1319485715
  0
LINE
  5
21B
100
AcDbEntity
  8
0
100
AcDbLine
 62
7
  6
CONTINUOUS
 10
10.3776923427
 20
9.1319485715
 11
10.3376923427
 21
9.1319485715
  0
LINE
  5
21C
100
AcDbEntity
  8
0
100
AcDbLine
 62
7
  6
CONTINUOUS
 10
11.1876923427
 20
4.5769485715
 11
11.1876923427
 21
7.0099136184
  0
LINE
  5
21D
100
AcDbEntity
  8
0
100
AcDbLine
 62
7
  6
CONTINUOUS
 10
11.1876923427
 20
10.1819485715
 11
11.1876923427
 21
12.7134027348
  0
LINE
  5
21E
100
AcDbEntity
  8
0
100
AcDbLine
 62
7
  6
CONTINUOUS
 10
11.3039423427
 20
11.9969485715
 11
11.3039423427
 21
11.9889485715
  0
LINE
  5
21F
100
AcDbEntity
  8
0
100
AcDbLine
 62
7
  6
CONTINUOUS
 10
11.4976923427
 20
9.4319485715
 11
10.3776923427
 21
9.4319485715
  0
LINE
  5
220
100
AcDbEntity
  8
0
100
AcDbLine
 62
7
  6
CONTINUOUS
 10
10.3376929928
 20
9.4519485715
 11
11.5376916926
 21
9.4519485715
  0
LINE
  5
221
100
AcDbEntity
  8
0
100
AcDbLine
 62
7
  6
CONTINUOUS
 10
10.3576923427
 20
9.5519485715
 11
11.5176912578
 21
9.5519485715
  0
LINE
  5
222
100
AcDbEntity
  8
0
100
AcDbLine
 62
9
  6
CONTINUOUS
 10
10.3376923427
 20
9.5719485715
 11
11.5376923427
 21
9.5719485715
  0
LWPOLYLINE
  5
223
100
AcDbEntity
  8
0
100
AcDbPolyline
 62
7
  6
CONTINUOUS
 90
4
 70
0
 10
11.5428785747
 20
7.8915008962
 10
11.5394249979
 20
7.901580993
 10
11.5378013086
 20
7.912247385
 10
11.537689762
 20
7.9159036451
  0
LINE
  5
224
100
AcDbEntity
  8
0
100
AcDbLine
 62
7
  6
CONTINUOUS
 10
11.4001923427
 20
12.3519485715
 11
11.4001923427
 21
12.1669485715
  0
LINE
  5
225
100
AcDbEntity
  8
0
100
AcDbLine
 62
7
  6
CONTINUOUS
 10
11.4076923427
 20
12.3119485715
 11
11.4076923427
 21
12.2919485715
  0
LINE
  5
226
100
AcDbEntity
  8
0
100
AcDbLine
 62
7
  6
CONTINUOUS
 10
11.4076923427
 20
9.4519485715
 11
11.4076923427
 21
9.4319485715
  0
LINE
  5
227
100
AcDbEntity
  8
0
100
AcDbLine
 62
7
  6
CONTINUOUS
 10
11.4876923427
 20
12.3519485715
 11
11.4876923427
 21
13.2019219666
  0
LINE
  5
228
100
AcDbEntity
  8
0
100
AcDbLine
 62
7
  6
CONTINUOUS
 10
11.4976923427
 20
12.2919485715
 11
11.4976923427
 21
11.9919485715
  0
LINE
  5
229
100
AcDbEntity
  8
0
100
AcDbLine
 62
7
  6
CONTINUOUS
 10
11.4976923427
 20
9.4319485715
 11
11.4976923427
 21
9.1319485715
  0
LINE
  5
22A
100
AcDbEntity
  8
0
100
AcDbLine
 62
7
  6
CONTINUOUS
 10
11.5376923427
 20
13.9683904328
 11
11.5376923427
 21
12.3119485715
  0
LINE
  5
22B
100
AcDbEntity
  8
0
100
AcDbLine
 62
7
  6
CONTINUOUS
 10
11.5376923427
 20
9.1319485715
 11
11.5376923427
 21
7.9159036451
  0
LINE
  5
22C
100
AcDbEntity
  8
0
100
AcDbLine
 62
7
  6
CONTINUOUS
 10
11.5376923427
 20
9.4519485715
 11
11.5376923427
 21
11.9919485715
  0
LINE
  5
22D
100
AcDbEntity
  8
0
100
AcDbLine
 62
7
  6
CONTINUOUS
 10
10.7176923427
 20
10.1519485715
 11
11.1576912133
 21
10.1519485715
  0
LINE
  5
22E
100
AcDbEntity
  8
0
100
AcDbLine
 62
9
  6
CONTINUOUS
 10
10.6876923427
 20
10.1819485715
 11
11.1876923427
 21
10.1819485715
  0
LINE
  5
22F
100
AcDbEntity
  8
0
100
AcDbLine
 62
7
  6
CONTINUOUS
 10
11.5376916806
 20
11.2319485715
 11
11.1876923427
 21
11.2319485715
  0
LINE
  5
230
100
AcDbEntity
  8
0
100
AcDbLine
 62
7
  6
CONTINUOUS
 10
10.6876923427
 20
11.2319485715
 11
10.3376930049
 21
11.2319485715
  0
LINE
  5
231
100
AcDbEntity
  8
0
100
AcDbLine
 62
7
  6
CONTINUOUS
 10
10.5714423427
 20
11.9889485715
 11
10.6876923427
 21
11.9889485715
  0
LINE
  5
232
100
AcDbEntity
  8
0
100
AcDbLine
 62
7
  6
CONTINUOUS
 10
11.1876923427
 20
11.9889485715
 11
11.3039423427
 21
11.9889485715
  0
LINE
  5
233
100
AcDbEntity
  8
0
100
AcDbLine
 62
7
  6
CONTINUOUS
 10
11.5376923427
 20
11.9919485715
 11
11.4976923427
 21
11.9919485715
  0
LINE
  5
234
100
AcDbEntity
  8
0
100
AcDbLine
 62
7
  6
CONTINUOUS
 10
10.3776923427
 20
11.9919485715
 11
10.3376923427
 21
11.9919485715
  0
LINE
  5
235
100
AcDbEntity
  8
0
100
AcDbLine
 62
7
  6
CONTINUOUS
 10
10.5195239579
 20
11.9969485715
 11
10.6876923427
 21
11.9969485715
  0
LINE
  5
236
100
AcDbEntity
  8
0
100
AcDbLine
 62
7
  6
CONTINUOUS
 10
11.1876923427
 20
11.9969485715
 11
11.3558557738
 21
11.9969485715
  0
LINE
  5
237
100
AcDbEntity
  8
0
100
AcDbLine
 62
9
  6
CONTINUOUS
 10
11.3649804299
 20
12.0028460077
 11
11.1876923427
 21
12.0028460074
  0
LINE
  5
238
100
AcDbEntity
  8
0
100
AcDbLine
 62
9
  6
CONTINUOUS
 10
10.6876923427
 20
12.0028460074
 11
10.5104042555
 21
12.0028460077
  0
LINE
  5
239
100
AcDbEntity
  8
0
100
AcDbLine
 62
9
  6
CONTINUOUS
 10
10.4751923427
 20
12.1669485715
 11
10.6876923427
 21
12.1669485715
  0
LINE
  5
23A
100
AcDbEntity
  8
0
100
AcDbLine
 62
9
  6
CONTINUOUS
 10
11.1876923427
 20
12.1669485715
 11
11.4001923427
 21
12.1669485715
  0
LINE
  5
23B
100
AcDbEntity
  8
0
100
AcDbLine
 62
7
  6
CONTINUOUS
 10
11.4976923427
 20
12.2919485715
 11
11.4001923427
 21
12.2919485715
  0
LINE
  5
23C
100
AcDbEntity
  8
0
100
AcDbLine
 62
7
  6
CONTINUOUS
 10
10.4751923427
 20
12.2919485715
 11
10.3776923427
 21
12.2919485715
  0
LINE
  5
23D
100
AcDbEntity
  8
0
100
AcDbLine
 62
7
  6
CONTINUOUS
 10
10.3376929928
 20
12.3119485715
 11
10.4751923427
 21
12.3119485715
  0
LINE
  5
23E
100
AcDbEntity
  8
0
100
AcDbLine
 62
7
  6
CONTINUOUS
 10
11.4001923427
 20
12.3119485715
 11
11.5376916926
 21
12.3119485715
  0
LINE
  5
23F
100
AcDbEntity
  8
0
100
AcDbLine
 62
7
  6
CONTINUOUS
 10
10.387701324
 20
12.3519485715
 11
10.6876923427
 21
12.3519485715
  0
LINE
  5
240
100
AcDbEntity
  8
0
100
AcDbLine
 62
7
  6
CONTINUOUS
 10
11.1876923427
 20
12.3519485715
 11
11.4876833615
 21
12.3519485715
  0
LINE
  5
241
100
AcDbEntity
  8
0
100
AcDbLine
 62
9
  6
CONTINUOUS
 10
11.5376923427
 20
13.9683904328
 11
10.3376923427
 21
13.9683904328
  0
LINE
  5
242
100
AcDbEntity
  8
0
100
AcDbLine
 62
7
  6
CONTINUOUS
 10
11.5176923427
 20
13.9883904328
 11
10.3576934086
 21
13.9883904328
  0
ARC
  5
243
100
AcDbEntity
  8
0
100
AcDbCircle
 62
7
  6
CONTINUOUS
 10
10.7176923427
 20
4.5769485715
 40
0.03
100
AcDbArc
 50
180.0
 51
270.0
  0
ARC
  5
244
100
AcDbEntity
  8
0
100
AcDbCircle
 62
7
  6
CONTINUOUS
 10
10.8751923427
 20
12.1669485715
 40
0.4
100
AcDbArc
 50
180.0
 51
204.2209430598
  0
ARC
  5
245
100
AcDbEntity
  8
0
100
AcDbCircle
 62
7
  6
CONTINUOUS
 10
10.7176923427
 20
10.1819485715
 40
0.03
100
AcDbArc
 50
180.0
 51
270.0
  0
ARC
  5
246
100
AcDbEntity
  8
0
100
AcDbCircle
 62
7
  6
CONTINUOUS
 10
10.3576923427
 20
9.5719485715
 40
0.02
100
AcDbArc
 50
180.0
 51
270.0
  0
ARC
  5
247
100
AcDbEntity
  8
0
100
AcDbCircle
 62
7
  6
CONTINUOUS
 10
10.3576923427
 20
13.9683904328
 40
0.02
100
AcDbArc
 50
90.0
 51
180.0
  0
ARC
  5
248
100
AcDbEntity
  8
0
100
AcDbCircle
 62
7
  6
CONTINUOUS
 10
10.5195239579
 20
12.0069485715
 40
0.01
100
AcDbArc
 50
204.2209411427
 51
270.0
  0
ARC
  5
249
100
AcDbEntity
  8
0
100
AcDbCircle
 62
7
  6
CONTINUOUS
 10
10.9376923427
 20
7.6219485715
 40
1.46
100
AcDbArc
 50
279.8797507737
 51
65.7107453459
  0
ARC
  5
24A
100
AcDbEntity
  8
0
100
AcDbCircle
 62
7
  6
CONTINUOUS
 10
10.9376923427
 20
7.6219485715
 40
1.46
100
AcDbArc
 50
114.2892546541
 51
260.1202492263
  0
ARC
  5
24B
100
AcDbEntity
  8
0
100
AcDbCircle
 62
9
  6
CONTINUOUS
 10
10.9376923427
 20
7.6219485715
 40
1.44
100
AcDbArc
 50
280.015080075
 51
65.3430277267
  0
ARC
  5
24C
100
AcDbEntity
  8
0
100
AcDbCircle
 62
9
  6
CONTINUOUS
 10
10.9376923427
 20
7.6219485715
 40
1.44
100
AcDbArc
 50
114.649958627
 51
259.9832838194
  0
ARC
  5
24D
100
AcDbEntity
  8
0
100
AcDbCircle
 62
9
  6
CONTINUOUS
 10
10.9376923427
 20
7.6219485715
 40
1.405
100
AcDbArc
 50
280.2700329041
 51
64.6800139557
  0
ARC
  5
24E
100
AcDbEntity
  8
0
100
AcDbCircle
 62
9
  6
CONTINUOUS
 10
10.9376923427
 20
7.6219485715
 40
1.405
100
AcDbArc
 50
115.3273177243
 51
259.7320533384
  0
ARC
  5
24F
100
AcDbEntity
  8
0
100
AcDbCircle
 62
7
  6
CONTINUOUS
 10
10.9376923427
 20
7.6219485715
 40
1.385
100
AcDbArc
 50
280.4227996844
 51
64.273558098
  0
ARC
  5
250
100
AcDbEntity
  8
0
100
AcDbCircle
 62
7
  6
CONTINUOUS
 10
10.9376923427
 20
7.6219485715
 40
1.385
100
AcDbArc
 50
115.726441902
 51
259.5787042551
  0
ARC
  5
251
100
AcDbEntity
  8
0
100
AcDbCircle
 62
9
  6
CONTINUOUS
 10
10.9376923427
 20
7.6219485715
 40
1.365
100
AcDbArc
 50
116.1326941143
 51
259.4243779553
  0
ARC
  5
252
100
AcDbEntity
  8
0
100
AcDbCircle
 62
9
  6
CONTINUOUS
 10
10.9376923427
 20
7.6219485715
 40
1.365
100
AcDbArc
 50
280.5743670272
 51
63.8644906345
  0
ARC
  5
253
100
AcDbEntity
  8
0
100
AcDbCircle
 62
7
  6
CONTINUOUS
 10
10.9376923427
 20
7.6219485715
 40
0.86
100
AcDbArc
 50
134.2924790118
 51
253.0742276345
  0
ARC
  5
254
100
AcDbEntity
  8
0
100
AcDbCircle
 62
7
  6
CONTINUOUS
 10
10.9376923427
 20
7.6219485715
 40
0.86
100
AcDbArc
 50
286.92245714
 51
45.7104428666
  0
ARC
  5
255
100
AcDbEntity
  8
0
100
AcDbCircle
 62
7
  6
CONTINUOUS
 10
10.9376923427
 20
7.6219485715
 40
0.85
100
AcDbArc
 50
135.020142119
 51
252.8458103931
  0
ARC
  5
256
100
AcDbEntity
  8
0
100
AcDbCircle
 62
7
  6
CONTINUOUS
 10
10.9376923427
 20
7.6219485715
 40
0.85
100
AcDbArc
 50
287.1543141412
 51
44.9828600945
  0
CIRCLE
  5
257
100
AcDbEntity
  8
0
100
AcDbCircle
 62
7
  6
CONTINUOUS
 10
10.9376923427
 20
7.6219485715
 40
0.6625
  0
CIRCLE
  5
258
100
AcDbEntity
  8
0
100
AcDbCircle
 62
9
  6
CONTINUOUS
 10
10.9376923427
 20
7.6219485715
 40
0.6325
  0
CIRCLE
  5
259
100
AcDbEntity
  8
0
100
AcDbCircle
 62
9
  6
CONTINUOUS
 10
10.9376923427
 20
7.6219485715
 40
0.6175
  0
CIRCLE
  5
25A
100
AcDbEntity
  8
0
100
AcDbCircle
 62
7
  6
CONTINUOUS
 10
10.9376923427
 20
7.6219485715
 40
0.5875
  0
ARC
  5
25B
100
AcDbEntity
  8
0
100
AcDbCircle
 62
7
  6
CONTINUOUS
 10
10.9376923427
 20
7.6219485715
 40
0.5875
100
AcDbArc
 50
171.43670475
 51
180.0
  0
CIRCLE
  5
25C
100
AcDbEntity
  8
0
100
AcDbCircle
 62
9
  6
CONTINUOUS
 10
10.9376923427
 20
7.6219485715
 40
0.5575
  0
ARC
  5
25D
100
AcDbEntity
  8
0
100
AcDbCircle
 62
7
  6
CONTINUOUS
 10
11.1576923427
 20
4.5769485715
 40
0.03
100
AcDbArc
 50
270.0
 51
360.0
  0
CIRCLE
  5
25E
100
AcDbEntity
  8
0
100
AcDbCircle
 62
7
  6
CONTINUOUS
 10
10.9376923427
 20
13.2019485715
 40
0.55
  0
CIRCLE
  5
25F
100
AcDbEntity
  8
0
100
AcDbCircle
 62
9
  6
CONTINUOUS
 10
10.9376923427
 20
13.2019485715
 40
0.52
  0
CIRCLE
  5
260
100
AcDbEntity
  8
0
100
AcDbCircle
 62
9
  6
CONTINUOUS
 10
10.9376923427
 20
13.2019485715
 40
0.505
  0
CIRCLE
  5
261
100
AcDbEntity
  8
0
100
AcDbCircle
 62
7
  6
CONTINUOUS
 10
10.9376923427
 20
13.2019485715
 40
0.475
  0
ARC
  5
262
100
AcDbEntity
  8
0
100
AcDbCircle
 62
7
  6
CONTINUOUS
 10
10.9376923427
 20
13.2019485715
 40
0.475
100
AcDbArc
 50
4.5759457171
 51
171.4375753983
  0
CIRCLE
  5
263
100
AcDbEntity
  8
0
100
AcDbCircle
 62
9
  6
CONTINUOUS
 10
10.9376923427
 20
13.2019485715
 40
0.445
  0
ARC
  5
264
100
AcDbEntity
  8
0
100
AcDbCircle
 62
7
  6
CONTINUOUS
 10
11.0001923427
 20
12.1669485715
 40
0.4
100
AcDbArc
 50
335.7790569402
 51
360.0
  0
ARC
  5
265
100
AcDbEntity
  8
0
100
AcDbCircle
 62
7
  6
CONTINUOUS
 10
11.1576923427
 20
10.1819485715
 40
0.03
100
AcDbArc
 50
270.0
 51
360.0
  0
ARC
  5
266
100
AcDbEntity
  8
0
100
AcDbCircle
 62
7
  6
CONTINUOUS
 10
11.5176923427
 20
9.5719485715
 40
0.02
100
AcDbArc
 50
270.0
 51
360.0
  0
ARC
  5
267
100
AcDbEntity
  8
0
100
AcDbCircle
 62
7
  6
CONTINUOUS
 10
11.5176923427
 20
13.9683904328
 40
0.02
100
AcDbArc
 50
0.0
 51
90.0
  0
ARC
  5
268
100
AcDbEntity
  8
0
100
AcDbCircle
 62
7
  6
CONTINUOUS
 10
11.3558607276
 20
12.0069485715
 40
0.01
100
AcDbArc
 50
270.0
 51
335.7790588573
  0
SPLINE
  5
269
100
AcDbEntity
  8
0
100
AcDbSpline
 62
9
  6
CONTINUOUS
 70
0
 71
3
 72
35
 73
31
 74
0
 42
0.0000001
 43
0.0000001
 44
0.0000000001
 40
0.0
 40
0.0
 40
0.0
 40
0.0
 40
0.0001860684
 40
0.0007381558
 40
0.0016472907
 40
0.002904507
 40
0.006427342
 40
0.0112350404
 40
0.0172490868
 40
0.0243631862
 40
0.0324643648
 40
0.0414400329
 40
0.0616205783
 40
0.0842836112
 40
0.1089063004
 40
0.1351214911
 40
0.1626367299
 40
0.1912871718
 40
0.2514766289
 40
0.314846854
 40
0.3810555574
 40
0.4499567972
 40
0.5214839683
 40
0.5956427991
 40
0.6723664597
 40
0.7515907939
 40
0.8329564971
 40
0.8743431103
 40
0.9160656347
 40
1.0
 40
1.0
 40
1.0
 40
1.0
 10
11.5376897623
 20
7.9159095607
 30
0.0
 10
11.5376726353
 20
7.915954969
 30
0.0
 10
11.5375989998
 20
7.9161328987
 30
0.0
 10
11.5374405777
 20
7.916532254
 30
0.0
 10
11.5371734643
 20
7.9171890661
 30
0.0
 10
11.536614515
 20
7.9185636265
 30
0.0
 10
11.5356626712
 20
7.9208761187
 30
0.0
 10
11.534223975
 20
7.924329848
 30
0.0
 10
11.5324035827
 20
7.928639241
 30
0.0
 10
11.5302157033
 20
7.9337258039
 30
0.0
 10
11.5276778539
 20
7.9395025475
 30
0.0
 10
11.5236905051
 20
7.9483645352
 30
0.0
 10
11.5179543457
 20
7.9606037368
 30
0.0
 10
11.5101381545
 20
7.9763710863
 30
0.0
 10
11.5011951732
 20
7.9933305476
 30
0.0
 10
11.4911825083
 20
8.0111489462
 30
0.0
 10
11.4801151336
 20
8.0295701502
 30
0.0
 10
11.4637119613
 20
8.0551076622
 30
0.0
 10
11.440683484
 20
8.0874837186
 30
0.0
 10
11.4092747845
 20
8.1257901082
 30
0.0
 10
11.3735911813
 20
8.1633624066
 30
0.0
 10
11.3335221401
 20
8.1994927893
 30
0.0
 10
11.2889552168
 20
8.233461928
 30
0.0
 10
11.2398585446
 20
8.264505277
 30
0.0
 10
11.1862986411
 20
8.2917900862
 30
0.0
 10
11.1285670088
 20
8.3143890305
 30
0.0
 10
11.077710575
 20
8.3285296221
 30
0.0
 10
11.0355690127
 20
8.3366573559
 30
0.0
 10
10.992393753
 20
8.3426045275
 30
0.0
 10
10.9595843534
 20
8.3444454899
 30
0.0
 10
10.9376923426
 20
8.3444481008
 30
0.0
  0
SPLINE
  5
26A
100
AcDbEntity
  8
0
100
AcDbSpline
 62
9
  6
CONTINUOUS
 70
0
 71
3
 72
46
 73
42
 74
0
 42
0.0000001
 43
0.0000001
 44
0.0000000001
 40
0.0
 40
0.0
 40
0.0
 40
0.0
 40
0.0839312214
 40
0.125652484
 40
0.1670379406
 40
0.2484014173
 40
0.3276235916
 40
0.404345182
 40
0.4785020041
 40
0.5500271881
 40
0.6189264725
 40
0.6523796325
 40
0.6851449509
 40
0.717201896
 40
0.7485232277
 40
0.7790630378
 40
0.8087188855
 40
0.8373684574
 40
0.8648828724
 40
0.8910972886
 40
0.9157192328
 40
0.9273257222
 40
0.9383819251
 40
0.9488175995
 40
0.9585620403
 40
0.9675373721
 40
0.9756382279
 40
0.9827520221
 40
0.9859034849
 40
0.9887657912
 40
0.9913256457
 40
0.9935732372
 40
0.9954996219
 40
0.9970958498
 40
0.9983529653
 40
0.9988515558
 40
0.9992620073
 40
0.9995831989
 40
0.9998140093
 40
0.999953317
 40
1.0
 40
1.0
 40
1.0
 40
1.0
 10
10.9376923428
 20
8.3444481748
 30
0.0
 10
10.9158004876
 20
8.344445674
 30
0.0
 10
10.8829912336
 20
8.3426047068
 30
0.0
 10
10.8398161142
 20
8.3366574687
 30
0.0
 10
10.7976744765
 20
8.3285296452
 30
0.0
 10
10.746817898
 20
8.314389044
 30
0.0
 10
10.6890860303
 20
8.2917900854
 30
0.0
 10
10.6355260249
 20
8.2645052707
 30
0.0
 10
10.5864289495
 20
8.2334615178
 30
0.0
 10
10.5418628973
 20
8.1994932318
 30
0.0
 10
10.5081424291
 20
8.1690869438
 30
0.0
 10
10.4833925168
 20
8.143987455
 30
0.0
 10
10.466088543
 20
8.1250677907
 30
0.0
 10
10.4498459989
 20
8.1059546468
 30
0.0
 10
10.4346497505
 20
8.0867346117
 30
0.0
 10
10.4204944306
 20
8.0675086105
 30
0.0
 10
10.4073680954
 20
8.0484063763
 30
0.0
 10
10.3952691111
 20
8.0295693528
 30
0.0
 10
10.384201787
 20
8.0111483198
 30
0.0
 10
10.3741891677
 20
7.9933298817
 30
0.0
 10
10.3665913141
 20
7.9789214141
 30
0.0
 10
10.3610489643
 20
7.9679033068
 30
0.0
 10
10.3572604831
 20
7.9601456767
 30
0.0
 10
10.3537663444
 20
7.9527854065
 30
0.0
 10
10.3505770134
 20
7.9458817274
 30
0.0
 10
10.3477065946
 20
7.9395019733
 30
0.0
 10
10.3451687606
 20
7.9337252936
 30
0.0
 10
10.3432759235
 20
7.9293246146
 30
0.0
 10
10.3419390085
 20
7.9261723147
 30
0.0
 10
10.3410718353
 20
7.9241110362
 30
0.0
 10
10.340300585
 20
7.9222651421
 30
0.0
 10
10.3396273229
 20
7.9206430034
 30
0.0
 10
10.3390535087
 20
7.9192513611
 30
0.0
 10
10.3385810735
 20
7.9180984081
 30
0.0
 10
10.3382508287
 20
7.9172871083
 30
0.0
 10
10.3380394705
 20
7.9167658779
 30
0.0
 10
10.3379175424
 20
7.916463227
 30
0.0
 10
10.3378282812
 20
7.9162437126
 30
0.0
 10
10.3377507633
 20
7.916045955
 30
0.0
 10
10.337728574
 20
7.9159987714
 30
0.0
 10
10.3376916167
 20
7.9158978171
 30
0.0
 10
10.3376949179
 20
7.9159095375
 30
0.0
  0
SPLINE
  5
26B
100
AcDbEntity
  8
0
100
AcDbSpline
 62
9
  6
CONTINUOUS
 70
0
 71
3
 72
23
 73
19
 74
0
 42
0.0000001
 43
0.0000001
 44
0.0000000001
 40
0.0
 40
0.0
 40
0.0
 40
0.0
 40
0.0699294331
 40
0.1382385493
 40
0.205047576
 40
0.2705339767
 40
0.3348593747
 40
0.3666371859
 40
0.398173617
 40
0.4605852998
 40
0.5222304988
 40
0.5832362356
 40
0.6437250897
 40
0.7037792988
 40
0.7634517953
 40
0.8228229707
 40
0.8820000375
 40
1.0
 40
1.0
 40
1.0
 40
1.0
 10
11.1882575277
 20
12.6233185207
 30
0.0
 10
11.2018224728
 20
12.6315262415
 30
0.0
 10
11.2279162376
 20
12.6489777299
 30
0.0
 10
11.26422874
 20
12.6780877415
 30
0.0
 10
11.2973373685
 20
12.7093416478
 30
0.0
 10
11.3273411049
 20
12.742366784
 30
0.0
 10
11.3499678002
 20
12.7712228189
 30
0.0
 10
11.366626416
 20
12.7948920223
 30
0.0
 10
11.3822513516
 20
12.8187389028
 30
0.0
 10
11.4001357914
 20
12.8491766185
 30
0.0
 10
11.4191098598
 20
12.8866283044
 30
0.0
 10
11.4356195318
 20
12.9247543331
 30
0.0
 10
11.4497429244
 20
12.9634415097
 30
0.0
 10
11.4615602685
 20
13.0025769794
 30
0.0
 10
11.4711562489
 20
13.0420528796
 30
0.0
 10
11.4785768339
 20
13.0817942133
 30
0.0
 10
11.4855945851
 20
13.1349819568
 30
0.0
 10
11.4876895562
 20
13.1751949613
 30
0.0
 10
11.4876923427
 20
13.2019485715
 30
0.0
  0
SPLINE
  5
26C
100
AcDbEntity
  8
0
100
AcDbSpline
 62
9
  6
CONTINUOUS
 70
0
 71
3
 72
24
 73
20
 74
0
 42
0.0000001
 43
0.0000001
 44
0.0000000001
 40
0.0
 40
0.0
 40
0.0
 40
0.0
 40
0.0699262988
 40
0.1042825011
 40
0.1382468607
 40
0.2050533067
 40
0.2705372117
 40
0.334859417
 40
0.3981607091
 40
0.4605693096
 40
0.5222133289
 40
0.5832179519
 40
0.6437008328
 40
0.7037471545
 40
0.763418178
 40
0.8227937722
 40
0.8819715645
 40
0.941025071
 40
1.0
 40
1.0
 40
1.0
 40
1.0
 10
10.6871477362
 20
12.6233055386
 30
0.0
 10
10.6735820927
 20
12.6315125651
 30
0.0
 10
10.653892631
 20
12.6446790603
 30
0.0
 10
10.6290198846
 20
12.6637658943
 30
0.0
 10
10.6055056118
 20
12.6834202721
 30
0.0
 10
10.5780627953
 20
12.709326205
 30
0.0
 10
10.5480578771
 20
12.7423511678
 30
0.0
 10
10.5210172476
 20
12.7768348701
 30
0.0
 10
10.4967948994
 20
12.8125081093
 30
0.0
 10
10.4752575444
 20
12.8491574362
 30
0.0
 10
10.4562828496
 20
12.8866111302
 30
0.0
 10
10.4397738795
 20
12.9247378617
 30
0.0
 10
10.4256478773
 20
12.9634231036
 30
0.0
 10
10.4138267717
 20
13.0025562536
 30
0.0
 10
10.4042298695
 20
13.0420338218
 30
0.0
 10
10.3968108585
 20
13.0817770613
 30
0.0
 10
10.3915417785
 20
13.1217205934
 30
0.0
 10
10.3883926569
 20
13.1617942174
 30
0.0
 10
10.3876941221
 20
13.188561088
 30
0.0
 10
10.3876923446
 20
13.2019330134
 30
0.0
  0
ENDSEC
  0
SECTION
  2
OBJECTS
  0
DICTIONARY
  5
C
100
AcDbDictionary
280
0
281
1
  3
ACAD_GROUP
350
D
  3
ACAD_MLINESTYLE
350
17
  3
ACAD_LAYOUT
350
1A
  3
ACAD_PLOTSETTINGS
350
19
  3
ACAD_PLOTSTYLENAME
350
E
  0
DICTIONARY
  5
D
102
{ACAD_REACTORS
330
C
102
}
100
AcDbDictionary
280
0
281
1
  0
ACDBDICTIONARYWDFLT
  5
E
102
{ACAD_REACTORS
330
C
102
}
100
AcDbDictionary
281
1
  3
Normal
350
F
100
AcDbDictionaryWithDefault
340
F
  0
DICTIONARY
  5
17
102
{ACAD_REACTORS
330
C
102
}
100
AcDbDictionary
280
0
281
1
  3
Standard
350
18
  0
DICTIONARY
  5
19
102
{ACAD_REACTORS
330
C
102
}
100
AcDbDictionary
281
1
  0
DICTIONARY
  5
1A
102
{ACAD_REACTORS
330
C
102
}
100
AcDbDictionary
281
1
  3
Model
350
26D
  3
Layout1
350
26E
  0
ACDBPLACEHOLDER
  5
F
102
{ACAD_REACTORS
330
E
102
}
  0
MLINESTYLE
  5
18
102
{ACAD_REACTORS
330
17
102
}
100
AcDbMlineStyle
  2
STANDARD
 70
0
  3

 62
256
 51
90.0
 52
90.0
 71
2
 49
0.5
 62
256
  6
BYLAYER
 49
-0.5
 62
256
  6
BYLAYER
  0
LAYOUT
  5
26D
102
{ACAD_REACTORS
330
1A
102
}
100
AcDbPlotSettings
  1

  2
none_device
  4
ANSI_C_(22.00_x_17.00_Inches)
  6

 40
0.0
 41
0.0
 42
0.0
 43
0.0
 44
558.8
 45
431.8
 46
0.0
 47
0.0
 48
0.0
 49
0.0
140
0.0
141
0.0
142
1.0
143
1.0
 70
1024
 72
0
 73
0
 74
0
  7

 75
0
147
1.0
148
0.0
149
0.0
100
AcDbLayout
  1
Model
 70
0
 71
0
 10
0.0
 20
0.0
 11
22.0
 21
17.0
 12
0.0
 22
0.0
 32
0.0
 14
0.0
 24
0.0
 34
0.0
 15
0.0
 25
0.0
 35
0.0
146
0.0
 13
0.0
 23
0.0
 33
0.0
 16
1.0
 26
0.0
 36
0.0
 17
0.0
 27
1.0
 37
0.0
 76
0
330
202
345
0
346
0
  0
LAYOUT
  5
26E
102
{ACAD_REACTORS
330
1A
102
}
100
AcDbPlotSettings
  1

  2
none_device
  4
ANSI_C_(22.00_x_17.00_Inches)
  6

 40
0.0
 41
0.0
 42
0.0
 43
0.0
 44
558.8
 45
431.8
 46
0.0
 47
0.0
 48
0.0
 49
0.0
140
0.0
141
0.0
142
1.0
143
1.0
 70
0
 72
0
 73
0
 74
0
  7

 75
0
147
1.0
148
0.0
149
0.0
100
AcDbLayout
  1
Layout1
 70
0
 71
1
 10
0.0
 20
0.0
 11
22.0
 21
17.0
 12
0.0
 22
0.0
 32
0.0
 14
0.0
 24
0.0
 34
0.0
 15
0.0
 25
0.0
 35
0.0
146
0.0
 13
0.0
 23
0.0
 33
0.0
 16
1.0
 26
0.0
 36
0.0
 17
0.0
 27
1.0
 37
0.0
 76
0
330
203
345
0
346
0
  0
ENDSEC
  0
EOF
