999
DXF file: E:\BT Custom\CADOUTPUT\_RIGHT.dxf
999
Pro/ENGINEER 2018400 by Parametric Technology Corporation
  0
SECTION
  2
HEADER
  9
$ACADVER
  1
AC1018
  9
$DWGCODEPAGE
  3
ANSI_1252
  9
$EXTMAX
 10
22.0
 20
17.0
 30
0.0
  9
$EXTMIN
 10
0.0
 20
0.0
 30
0.0
  9
$LIMMIN
 10
0.0
 20
0.0
  9
$LIMMAX
 10
22.0
 20
17.0
  9
$VIEWCTR
 10
11.0
 20
8.5
  9
$VIEWSIZE
 40
17.0
  9
$CLAYER
  8
0
  9
$LTSCALE
 40
1.21
  9
$CELTYPE
  6
BYLAYER
  9
$DIMSCALE
 40
1.0
  9
$DIMASZ
 40
0.1
  9
$DIMEXO
 40
0.0625
  9
$DIMDLI
 40
0.836
  9
$DIMEXE
 40
0.125
  9
$DIMCEN
 40
0.198
  9
$DIMLFAC
 40
1.0
  9
$DIMBLK
  1
_FILLED
  9
$DIMALT
 70
1
  9
$DIMALTD
 70
2
  9
$DIMALTTD
 70
2
  9
$DIMALTF
 40
25.4
  9
$DIMTXT
 40
0.08
  9
$DIMTOL
 70
1
  9
$DIMLIM
 70
0
  9
$DIMTFAC
 40
1.0
  9
$DIMTP
 40
0.001
  9
$DIMTM
 40
0.001
  9
$DIMGAP
 40
0.09
  9
$DIMDSEP
 70
46
  9
$AUNITS
 70
0
  9
$PDMODE
 70
3
  9
$PDSIZE
 40
0.06
  9
$HANDSEED
  5
2F5
  9
$TILEMODE
 70
1
  9
$MEASUREMENT
 70
0
  9
$INSUNITS
 70
1
  0
ENDSEC
  0
SECTION
  2
CLASSES
  0
CLASS
  1
ACDBDICTIONARYWDFLT
  2
AcDbDictionaryWithDefault
  3
AutoCAD 2000
 90
0
 91
1
280
0
281
0
  0
CLASS
  1
ACDBPLACEHOLDER
  2
AcDbPlaceHolder
  3
AutoCAD 2000
 90
0
 91
1
280
0
281
0
  0
CLASS
  1
LAYOUT
  2
AcDbLayout
  3
AutoCAD 2000
 90
0
 91
0
280
0
281
0
  0
ENDSEC
  0
SECTION
  2
TABLES
  0
TABLE
  2
VPORT
  5
8
100
AcDbSymbolTable
 70
2
  0
VPORT
  5
1F4
100
AcDbSymbolTableRecord
100
AcDbViewportTableRecord
  2
*ACTIVE
 70
0
 10
0.0
 20
0.0
 11
1.0
 21
1.0
 12
11.0
 22
8.5
 13
0.0
 23
0.0
 14
1.0
 24
1.0
 15
0.0
 25
0.0
 16
0.0
 26
0.0
 36
1.0
 17
0.0
 27
0.0
 37
0.0
 40
17.0
 41
1.2941176471
 42
50.0
 43
0.0
 44
0.0
 50
0.0
 51
0.0
 71
0
 72
100
 73
1
 74
1
 75
0
 76
0
 77
0
 78
0
  0
ENDTAB
  0
TABLE
  2
LTYPE
  5
5
100
AcDbSymbolTable
 70
6
  0
LTYPE
  5
14
100
AcDbSymbolTableRecord
100
AcDbLinetypeTableRecord
  2
BYBLOCK
 70
0
  3

 72
65
 73
0
 40
0.0
  0
LTYPE
  5
15
100
AcDbSymbolTableRecord
100
AcDbLinetypeTableRecord
  2
BYLAYER
 70
0
  3

 72
65
 73
0
 40
0.0
  0
LTYPE
  5
16
100
AcDbSymbolTableRecord
100
AcDbLinetypeTableRecord
  2
CONTINUOUS
 70
64
  3
Solid line
 72
65
 73
0
 40
0.0
  0
LTYPE
  5
1F5
100
AcDbSymbolTableRecord
100
AcDbLinetypeTableRecord
  2
CENTER
 70
64
  3
____ _ ____ _ ____ _ ____ _ ____ _ ____ _ ____
 72
65
 73
4
 40
0.6
 49
0.375
 74
0
 49
-0.075
 74
0
 49
0.075
 74
0
 49
-0.075
 74
0
  0
LTYPE
  5
1F6
100
AcDbSymbolTableRecord
100
AcDbLinetypeTableRecord
  2
HIDDEN
 70
64
  3
- - - - - - - - - - - - - - - - - - - -
 72
65
 73
2
 40
0.2
 49
0.1
 74
0
 49
-0.1
 74
0
  0
LTYPE
  5
1F7
100
AcDbSymbolTableRecord
100
AcDbLinetypeTableRecord
  2
PHANTOM
 70
64
  3
_____ _ _ _____ _ _ _____ _ _ _____
 72
65
 73
6
 40
0.8
 49
0.45
 74
0
 49
-0.05
 74
0
 49
0.1
 74
0
 49
-0.05
 74
0
 49
0.1
 74
0
 49
-0.05
 74
0
  0
LTYPE
  5
1F8
100
AcDbSymbolTableRecord
100
AcDbLinetypeTableRecord
  2
DOT
 70
64
  3
. . . . . . . . . . . . . . . . . . . .
 72
65
 73
2
 40
0.2
 49
0.1
 74
0
 49
-0.1
 74
0
  0
LTYPE
  5
1F9
100
AcDbSymbolTableRecord
100
AcDbLinetypeTableRecord
  2
DASHED
 70
64
  3
- - - - - - - - - - - - - - - - - - - -
 72
65
 73
2
 40
0.2
 49
0.1
 74
0
 49
-0.1
 74
0
  0
ENDTAB
  0
TABLE
  2
LAYER
  5
2
100
AcDbSymbolTable
 70
36
  0
LAYER
  5
10
100
AcDbSymbolTableRecord
100
AcDbLayerTableRecord
  2
0
 70
0
 62
7
  6
CONTINUOUS
370
-3
390
F
  0
LAYER
  5
1FA
100
AcDbSymbolTableRecord
100
AcDbLayerTableRecord
  2
DEFAULT_1
 70
0
 62
7
  6
CENTER
370
-3
390
F
  0
LAYER
  5
1FB
100
AcDbSymbolTableRecord
100
AcDbLayerTableRecord
  2
DEFAULT_2
 70
0
 62
8
  6
HIDDEN
370
-3
390
F
  0
LAYER
  5
1FC
100
AcDbSymbolTableRecord
100
AcDbLayerTableRecord
  2
DEFAULT_3
 70
0
 62
7
  6
PHANTOM
370
-3
390
F
  0
LAYER
  5
1FD
100
AcDbSymbolTableRecord
100
AcDbLayerTableRecord
  2
ALL_FEATURES
 70
0
 62
7
  6
CONTINUOUS
370
-3
390
F
  0
LAYER
  5
1FE
100
AcDbSymbolTableRecord
100
AcDbLayerTableRecord
  2
AXES_FEATURES
 70
0
 62
7
  6
CONTINUOUS
370
-3
390
F
  0
LAYER
  5
1FF
100
AcDbSymbolTableRecord
100
AcDbLayerTableRecord
  2
DIMENSIONS
 70
0
 62
7
  6
CONTINUOUS
370
-3
390
F
  0
ENDTAB
  0
TABLE
  2
STYLE
  5
3
100
AcDbSymbolTable
 70
1
  0
STYLE
  5
11
100
AcDbSymbolTableRecord
100
AcDbTextStyleTableRecord
  2
STANDARD
 70
0
 40
0.0
 41
0.8
 50
0.0
 71
0
 42
0.2
  3
txt
  4

  0
STYLE
  5
200
100
AcDbSymbolTableRecord
100
AcDbTextStyleTableRecord
  2
TEXTSTYLE_1
 70
0
 40
0.0
 41
0.8
 50
0.0
 71
0
 42
0.2
  3
gdt
  4

  0
ENDTAB
  0
TABLE
  2
VIEW
  5
6
100
AcDbSymbolTable
 70
0
  0
ENDTAB
  0
TABLE
  2
UCS
  5
7
100
AcDbSymbolTable
 70
0
  0
ENDTAB
  0
TABLE
  2
APPID
  5
9
100
AcDbSymbolTable
 70
1
  0
APPID
  5
201
100
AcDbSymbolTableRecord
100
AcDbRegAppTableRecord
  2
ACAD
 70
0
  0
ENDTAB
  0
TABLE
  2
BLOCK_RECORD
  5
1
100
AcDbSymbolTable
 70
0
  0
BLOCK_RECORD
  5
202
100
AcDbSymbolTableRecord
100
AcDbBlockTableRecord
  2
*Model_Space
  0
BLOCK_RECORD
  5
203
100
AcDbSymbolTableRecord
100
AcDbBlockTableRecord
  2
*Paper_Space
  0
BLOCK_RECORD
  5
204
100
AcDbSymbolTableRecord
100
AcDbBlockTableRecord
  2
_FILLED
  0
ENDTAB
  0
TABLE
  2
DIMSTYLE
  5
A
100
AcDbSymbolTable
 70
1
100
AcDbDimStyleTable
 71
0
  0
DIMSTYLE
105
205
100
AcDbSymbolTableRecord
100
AcDbDimStyleTableRecord
  2
STANDARD
 70
0
  3

  4

 40
1.0
 41
0.1
 42
0.0625
 43
0.38
 44
0.125
 45
0.0
 46
0.0
 47
0.001
 48
0.001
140
0.08
141
0.09
142
0.0
143
25.4
144
1.0
145
0.0
146
1.0
147
0.09
 71
1.0
 72
0.0
 73
1
 74
1
 75
0
 76
0
 77
0
 78
4
 79
1
170
1
171
2
172
0
173
0
174
0
175
0
176
0
177
0
178
0
270
2
179
3
271
3
272
3
273
2
274
2
275
0
280
0
281
0
282
0
283
1
284
4
285
0
286
0
287
3
288
0
340
11
278
46
341
204
342
204
343
204
344
204
  0
ENDTAB
  0
ENDSEC
  0
SECTION
  2
BLOCKS
  0
BLOCK
  5
20
100
AcDbEntity
  8
0
100
AcDbBlockBegin
  2
*Model_Space
 70
0
 10
0.0
 20
0.0
 30
0.0
  3
*Model_Space
  1

  0
ENDBLK
  5
21
100
AcDbEntity
  8
0
100
AcDbBlockEnd
  0
BLOCK
  5
1C
100
AcDbEntity
  8
0
100
AcDbBlockBegin
  2
*Paper_Space
 70
0
 10
0.0
 20
0.0
 30
0.0
  3
*Paper_Space
  1

  0
ENDBLK
  5
1D
100
AcDbEntity
  8
0
100
AcDbBlockEnd
  0
BLOCK
  5
206
100
AcDbEntity
  8
0
100
AcDbBlockBegin
  2
_FILLED
 70
64
 10
0.0
 20
0.0
  3
_FILLED
  1

  0
SOLID
  5
207
100
AcDbEntity
  8
0
  6
BYBLOCK
 62
0
100
AcDbTrace
 10
0.0
 20
0.0
 11
-1.0
 21
0.2
 12
-1.0
 22
-0.2
 13
-1.0
 23
-0.2
  0
ENDBLK
  5
208
100
AcDbEntity
  8
0
  6
BYBLOCK
 62
0
100
AcDbBlockEnd
  0
ENDSEC
  0
SECTION
  2
ENTITIES
  0
LINE
  5
209
100
AcDbEntity
  8
0
100
AcDbLine
 62
7
  6
CONTINUOUS
 10
-2.8580165109
 20
13.3891701516
 11
-2.8580165109
 21
12.4991715952
  0
LINE
  5
20A
100
AcDbEntity
  8
0
100
AcDbLine
 62
9
  6
CONTINUOUS
 10
-2.8280165109
 20
13.4191708734
 11
-2.8280165109
 21
12.4691708734
  0
LINE
  5
20B
100
AcDbEntity
  8
0
100
AcDbLine
 62
9
  6
CONTINUOUS
 10
-2.8080165109
 20
12.4691708734
 11
-2.8080165109
 21
13.4191708734
  0
LINE
  5
20C
100
AcDbEntity
  8
0
100
AcDbLine
 62
7
  6
CONTINUOUS
 10
-2.7780165109
 20
12.4241774702
 11
-2.7780165109
 21
13.4641642766
  0
LINE
  5
20D
100
AcDbEntity
  8
0
100
AcDbLine
 62
9
  6
CONTINUOUS
 10
-2.7480165109
 20
13.4941708734
 11
-2.7480165109
 21
12.3941708734
  0
LINE
  5
20E
100
AcDbEntity
  8
0
100
AcDbLine
 62
7
  6
CONTINUOUS
 10
-2.6879365109
 20
9.9241708734
 11
-2.6879365109
 21
12.3988120224
  0
LINE
  5
20F
100
AcDbEntity
  8
0
100
AcDbLine
 62
7
  6
CONTINUOUS
 10
-2.1879365109
 20
9.9241708734
 11
-2.1879365109
 21
12.3988086745
  0
LINE
  5
210
100
AcDbEntity
  8
0
100
AcDbLine
 62
7
  6
CONTINUOUS
 10
-1.4020165109
 20
12.394171178
 11
-1.4020165109
 21
13.4941705688
  0
LINE
  5
211
100
AcDbEntity
  8
0
100
AcDbLine
 62
7
  6
CONTINUOUS
 10
-1.4000165109
 20
13.3146646756
 11
-1.4000165109
 21
12.5736770712
  0
LINE
  5
212
100
AcDbEntity
  8
0
100
AcDbLine
 62
7
  6
CONTINUOUS
 10
-1.3826665112
 20
12.9441708734
 11
-1.3826665112
 21
13.3285402922
  0
LINE
  5
213
100
AcDbEntity
  8
0
100
AcDbLine
 62
7
  6
CONTINUOUS
 10
-1.382601776
 20
12.9441709454
 11
-1.3826665112
 21
13.3320208731
  0
LINE
  5
214
100
AcDbEntity
  8
0
100
AcDbLine
 62
7
  6
CONTINUOUS
 10
-1.3720165109
 20
13.4941618922
 11
-1.3720165109
 21
12.3941798547
  0
LINE
  5
215
100
AcDbEntity
  8
0
100
AcDbLine
 62
7
  6
CONTINUOUS
 10
-1.1720165109
 20
12.2941708734
 11
-1.1720165109
 21
12.0941708734
  0
LINE
  5
216
100
AcDbEntity
  8
0
100
AcDbLine
 62
7
  6
CONTINUOUS
 10
-1.0845165109
 20
12.0941708734
 11
-1.0845165109
 21
11.9091708734
  0
LINE
  5
217
100
AcDbEntity
  8
0
100
AcDbLine
 62
7
  6
CONTINUOUS
 10
-0.9882665109
 20
11.7391708734
 11
-0.9882665109
 21
11.7311708734
  0
LINE
  5
218
100
AcDbEntity
  8
0
100
AcDbLine
 62
7
  6
CONTINUOUS
 10
-1.3761231927
 20
12.5499266576
 11
-1.3724796155
 21
12.5562349703
  0
LINE
  5
219
100
AcDbEntity
  8
0
100
AcDbLine
 62
7
  6
CONTINUOUS
 10
-1.3823091511
 20
13.3323782332
 11
-1.3720165109
 21
13.3426708734
  0
LINE
  5
21A
100
AcDbEntity
  8
0
100
AcDbLine
 62
7
  6
CONTINUOUS
 10
-1.4000165109
 20
13.3146708734
 11
-1.3826680333
 21
13.3320193509
  0
LINE
  5
21B
100
AcDbEntity
  8
0
100
AcDbLine
 62
7
  6
CONTINUOUS
 10
-0.2557665109
 20
11.7391708734
 11
-0.2557665109
 21
11.7311708734
  0
LINE
  5
21C
100
AcDbEntity
  8
0
100
AcDbLine
 62
7
  6
CONTINUOUS
 10
-0.1595165109
 20
12.0941708734
 11
-0.1595165109
 21
11.9091708734
  0
LINE
  5
21D
100
AcDbEntity
  8
0
100
AcDbLine
 62
7
  6
CONTINUOUS
 10
-0.0720165109
 20
12.2941708734
 11
-0.0720165109
 21
12.0941708734
  0
LINE
  5
21E
100
AcDbEntity
  8
0
100
AcDbLine
 62
7
  6
CONTINUOUS
 10
0.7279834891
 20
12.3941798547
 11
0.7279834891
 21
13.4941618922
  0
LINE
  5
21F
100
AcDbEntity
  8
0
100
AcDbLine
 62
7
  6
CONTINUOUS
 10
-1.4000165109
 20
12.5736708734
 11
-1.3762325472
 21
12.5498869097
  0
LINE
  5
220
100
AcDbEntity
  8
0
100
AcDbLine
 62
7
  6
CONTINUOUS
 10
18.5709835443
 20
4.2891708734
 11
19.0109834339
 21
4.2891708734
  0
LINE
  5
221
100
AcDbEntity
  8
0
100
AcDbLine
 62
9
  6
CONTINUOUS
 10
18.5409834891
 20
4.3191708734
 11
19.0409834891
 21
4.3191708734
  0
LINE
  5
222
100
AcDbEntity
  8
0
100
AcDbLine
 62
7
  6
CONTINUOUS
 10
24.2779834891
 20
5.9041708734
 11
24.2599834891
 21
5.9041708734
  0
LINE
  5
223
100
AcDbEntity
  8
0
100
AcDbLine
 62
7
  6
CONTINUOUS
 10
24.0959834891
 20
5.9041708734
 11
23.8079834891
 21
5.9041708734
  0
LINE
  5
224
100
AcDbEntity
  8
0
100
AcDbLine
 62
7
  6
CONTINUOUS
 10
23.7679834891
 20
5.9791708734
 11
23.7279834891
 21
5.9791708734
  0
LINE
  5
225
100
AcDbEntity
  8
0
100
AcDbLine
 62
7
  6
CONTINUOUS
 10
18.4809834891
 20
6.7016708734
 11
18.5309834891
 21
6.7016708734
  0
LINE
  5
226
100
AcDbEntity
  8
0
100
AcDbLine
 62
7
  6
CONTINUOUS
 10
19.0509834891
 20
6.7016708734
 11
19.8379834891
 21
6.7016708734
  0
LINE
  5
227
100
AcDbEntity
  8
0
100
AcDbLine
 62
7
  6
CONTINUOUS
 10
19.8679834891
 20
6.7016708734
 11
23.7079834891
 21
6.7016708734
  0
LINE
  5
228
100
AcDbEntity
  8
0
100
AcDbLine
 62
7
  6
CONTINUOUS
 10
18.4209834891
 20
6.7766708734
 11
18.4009834891
 21
6.7766708734
  0
LINE
  5
229
100
AcDbEntity
  8
0
100
AcDbLine
 62
7
  6
CONTINUOUS
 10
19.8539834891
 20
6.8916708734
 11
19.8584131529
 21
6.8916708734
  0
LINE
  5
22A
100
AcDbEntity
  8
0
100
AcDbLine
 62
7
  6
CONTINUOUS
 10
19.8379834891
 20
6.9129813373
 11
19.8412186327
 21
6.9129813373
  0
LINE
  5
22B
100
AcDbEntity
  8
0
100
AcDbLine
 62
7
  6
CONTINUOUS
 10
9.1379834891
 20
13.4141708734
 11
9.1379834891
 21
12.4741708734
  0
LINE
  5
22C
100
AcDbEntity
  8
0
100
AcDbLine
 62
7
  6
CONTINUOUS
 10
9.5979834891
 20
13.7106127347
 11
9.5979834891
 21
13.4741708734
  0
LINE
  5
22D
100
AcDbEntity
  8
0
100
AcDbLine
 62
7
  6
CONTINUOUS
 10
9.5979834891
 20
12.4141708734
 11
9.5979834891
 21
12.0541708734
  0
LINE
  5
22E
100
AcDbEntity
  8
0
100
AcDbLine
 62
7
  6
CONTINUOUS
 10
9.5979834891
 20
9.3141708734
 11
9.5979834891
 21
12.0341708734
  0
LINE
  5
22F
100
AcDbEntity
  8
0
100
AcDbLine
 62
7
  6
CONTINUOUS
 10
9.7279834891
 20
12.0341708734
 11
9.7279834891
 21
12.0541708734
  0
LINE
  5
230
100
AcDbEntity
  8
0
100
AcDbLine
 62
7
  6
CONTINUOUS
 10
19.8610734173
 20
7.8153608728
 11
19.8510405597
 21
7.8153608728
  0
LINE
  5
231
100
AcDbEntity
  8
0
100
AcDbLine
 62
7
  6
CONTINUOUS
 10
18.4209834891
 20
7.9516708734
 11
18.4009834891
 21
7.9516708734
  0
LINE
  5
232
100
AcDbEntity
  8
0
100
AcDbLine
 62
7
  6
CONTINUOUS
 10
18.4809834891
 20
8.0266708734
 11
19.8379834891
 21
8.0266708734
  0
LINE
  5
233
100
AcDbEntity
  8
0
100
AcDbLine
 62
7
  6
CONTINUOUS
 10
19.8679834891
 20
8.0266708734
 11
20.1079841195
 21
8.0266708734
  0
LINE
  5
234
100
AcDbEntity
  8
0
100
AcDbLine
 62
7
  6
CONTINUOUS
 10
21.4279828771
 20
8.0266708734
 11
23.7079834891
 21
8.0266708734
  0
LINE
  5
235
100
AcDbEntity
  8
0
100
AcDbLine
 62
7
  6
CONTINUOUS
 10
21.3679834891
 20
8.1141708734
 11
20.1679834891
 21
8.1141708734
  0
LINE
  5
236
100
AcDbEntity
  8
0
100
AcDbLine
 62
7
  6
CONTINUOUS
 10
9.9825768968
 20
12.0341708734
 11
9.9825768968
 21
11.7341708734
  0
LINE
  5
237
100
AcDbEntity
  8
0
100
AcDbLine
 62
7
  6
CONTINUOUS
 10
10.4133900814
 20
11.7341708734
 11
10.4133900814
 21
12.0341708734
  0
LINE
  5
238
100
AcDbEntity
  8
0
100
AcDbLine
 62
7
  6
CONTINUOUS
 10
10.6679834891
 20
12.0341708734
 11
10.6679834891
 21
12.0541708734
  0
LINE
  5
239
100
AcDbEntity
  8
0
100
AcDbLine
 62
7
  6
CONTINUOUS
 10
10.7979834891
 20
13.7106127347
 11
10.7979834891
 21
12.0541708734
  0
LINE
  5
23A
100
AcDbEntity
  8
0
100
AcDbLine
 62
7
  6
CONTINUOUS
 10
10.7979834891
 20
9.3141708734
 11
10.7979834891
 21
9.5541708734
  0
LINE
  5
23B
100
AcDbEntity
  8
0
100
AcDbLine
 62
7
  6
CONTINUOUS
 10
10.7979834891
 20
10.6141708734
 11
10.7979834891
 21
12.0341708734
  0
LINE
  5
23C
100
AcDbEntity
  8
0
100
AcDbLine
 62
7
  6
CONTINUOUS
 10
23.7679834891
 20
8.7491708734
 11
23.7279834891
 21
8.7491708734
  0
LINE
  5
23D
100
AcDbEntity
  8
0
100
AcDbLine
 62
7
  6
CONTINUOUS
 10
24.2779834891
 20
8.8241708734
 11
23.8079834891
 21
8.8241708734
  0
LINE
  5
23E
100
AcDbEntity
  8
0
100
AcDbLine
 62
7
  6
CONTINUOUS
 10
20.9833900814
 20
8.8741708734
 11
20.5525768968
 21
8.8741708734
  0
LINE
  5
23F
100
AcDbEntity
  8
0
100
AcDbLine
 62
7
  6
CONTINUOUS
 10
11.2579834891
 20
9.6141708734
 11
11.2579834891
 21
10.5541708734
  0
LINE
  5
240
100
AcDbEntity
  8
0
100
AcDbLine
 62
7
  6
CONTINUOUS
 10
21.3679780245
 20
9.1741708734
 11
20.1679889538
 21
9.1741708734
  0
LINE
  5
241
100
AcDbEntity
  8
0
100
AcDbLine
 62
7
  6
CONTINUOUS
 10
20.1679834891
 20
9.1941708734
 11
21.3679834891
 21
9.1941708734
  0
LINE
  5
242
100
AcDbEntity
  8
0
100
AcDbLine
 62
7
  6
CONTINUOUS
 10
9.6179835089
 20
9.2941708734
 11
10.7779834694
 21
9.2941708734
  0
LINE
  5
243
100
AcDbEntity
  8
0
100
AcDbLine
 62
9
  6
CONTINUOUS
 10
9.5979834891
 20
9.3141708734
 11
10.7979834891
 21
9.3141708734
  0
LINE
  5
244
100
AcDbEntity
  8
0
100
AcDbLine
 62
7
  6
CONTINUOUS
 10
20.1079834891
 20
9.6141708734
 11
19.7079834891
 21
9.6141708734
  0
LINE
  5
245
100
AcDbEntity
  8
0
100
AcDbLine
 62
7
  6
CONTINUOUS
 10
10.8579834891
 20
9.6141708734
 11
11.2579834891
 21
9.6141708734
  0
LINE
  5
246
100
AcDbEntity
  8
0
100
AcDbLine
 62
7
  6
CONTINUOUS
 10
19.7079834891
 20
9.7091708734
 11
11.2579834891
 21
9.7091708734
  0
LINE
  5
247
100
AcDbEntity
  8
0
100
AcDbLine
 62
7
  6
CONTINUOUS
 10
-2.6579364557
 20
9.8941708734
 11
-2.2179365661
 21
9.8941708734
  0
LINE
  5
248
100
AcDbEntity
  8
0
100
AcDbLine
 62
9
  6
CONTINUOUS
 10
-2.6879365109
 20
9.9241708734
 11
-2.1879365109
 21
9.9241708734
  0
LINE
  5
249
100
AcDbEntity
  8
0
100
AcDbLine
 62
7
  6
CONTINUOUS
 10
19.7079834891
 20
10.4591708734
 11
11.2579834891
 21
10.4591708734
  0
LINE
  5
24A
100
AcDbEntity
  8
0
100
AcDbLine
 62
7
  6
CONTINUOUS
 10
20.1079834891
 20
10.5541708734
 11
19.7079834891
 21
10.5541708734
  0
LINE
  5
24B
100
AcDbEntity
  8
0
100
AcDbLine
 62
7
  6
CONTINUOUS
 10
10.8579834891
 20
10.5541708734
 11
11.2579834891
 21
10.5541708734
  0
LINE
  5
24C
100
AcDbEntity
  8
0
100
AcDbLine
 62
9
  6
CONTINUOUS
 10
21.3679834891
 20
10.8506127347
 11
20.1679834891
 21
10.8506127347
  0
LINE
  5
24D
100
AcDbEntity
  8
0
100
AcDbLine
 62
7
  6
CONTINUOUS
 10
21.3479834694
 20
10.8706127347
 11
20.1879835089
 21
10.8706127347
  0
LINE
  5
24E
100
AcDbEntity
  8
0
100
AcDbLine
 62
7
  6
CONTINUOUS
 10
10.7979834891
 20
10.9741708734
 11
9.5979834891
 21
10.9741708734
  0
LINE
  5
24F
100
AcDbEntity
  8
0
100
AcDbLine
 62
7
  6
CONTINUOUS
 10
19.8443244756
 20
7.8270118598
 11
19.8444120425
 21
7.826987336
  0
LINE
  5
250
100
AcDbEntity
  8
0
100
AcDbLine
 62
7
  6
CONTINUOUS
 10
19.844324474
 20
7.8270118582
 11
19.8444141866
 21
7.8269840556
  0
LINE
  5
251
100
AcDbEntity
  8
0
100
AcDbLine
 62
7
  6
CONTINUOUS
 10
-0.9882663085
 20
11.7311708734
 11
-0.2557667132
 21
11.7311708734
  0
LINE
  5
252
100
AcDbEntity
  8
0
100
AcDbLine
 62
7
  6
CONTINUOUS
 10
10.4133900814
 20
11.7341708734
 11
9.9825768968
 21
11.7341708734
  0
LINE
  5
253
100
AcDbEntity
  8
0
100
AcDbLine
 62
7
  6
CONTINUOUS
 10
-0.2038483439
 20
11.7391708734
 11
-1.0401846778
 21
11.7391708734
  0
LINE
  5
254
100
AcDbEntity
  8
0
100
AcDbLine
 62
9
  6
CONTINUOUS
 10
-0.1947284238
 20
11.7450683093
 11
-1.0493045979
 21
11.7450683093
  0
LINE
  5
255
100
AcDbEntity
  8
0
100
AcDbLine
 62
9
  6
CONTINUOUS
 10
-1.0845165109
 20
11.9091708734
 11
-0.1595165109
 21
11.9091708734
  0
LINE
  5
256
100
AcDbEntity
  8
0
100
AcDbLine
 62
7
  6
CONTINUOUS
 10
10.7979780245
 20
12.0341708734
 11
9.5979889538
 21
12.0341708734
  0
LINE
  5
257
100
AcDbEntity
  8
0
100
AcDbLine
 62
7
  6
CONTINUOUS
 10
9.5979834891
 20
12.0541708734
 11
10.7979834891
 21
12.0541708734
  0
LINE
  5
258
100
AcDbEntity
  8
0
100
AcDbLine
 62
7
  6
CONTINUOUS
 10
-1.1720165109
 20
12.0941708734
 11
-0.0720165109
 21
12.0941708734
  0
LINE
  5
259
100
AcDbEntity
  8
0
100
AcDbLine
 62
7
  6
CONTINUOUS
 10
-2.7480165109
 20
12.3941708734
 11
-2.6979365109
 21
12.3941708734
  0
LINE
  5
25A
100
AcDbEntity
  8
0
100
AcDbLine
 62
7
  6
CONTINUOUS
 10
-2.1779365109
 20
12.3941708734
 11
-1.4020165109
 21
12.3941708734
  0
LINE
  5
25B
100
AcDbEntity
  8
0
100
AcDbLine
 62
7
  6
CONTINUOUS
 10
0.7279834891
 20
12.3941708734
 11
0.0279832856
 21
12.3941708734
  0
LINE
  5
25C
100
AcDbEntity
  8
0
100
AcDbLine
 62
7
  6
CONTINUOUS
 10
-1.2720163073
 20
12.3941708734
 11
-1.3720165109
 21
12.3941708734
  0
LINE
  5
25D
100
AcDbEntity
  8
0
100
AcDbLine
 62
7
  6
CONTINUOUS
 10
-2.8080165109
 20
12.4691708734
 11
-2.8280165109
 21
12.4691708734
  0
LINE
  5
25E
100
AcDbEntity
  8
0
100
AcDbLine
 62
7
  6
CONTINUOUS
 10
9.5379834891
 20
12.4741708734
 11
9.1379834891
 21
12.4741708734
  0
LINE
  5
25F
100
AcDbEntity
  8
0
100
AcDbLine
 62
7
  6
CONTINUOUS
 10
-1.3726283454
 20
12.5563208742
 11
-1.3720165109
 21
12.5563208742
  0
LINE
  5
260
100
AcDbEntity
  8
0
100
AcDbLine
 62
7
  6
CONTINUOUS
 10
9.1379834891
 20
12.5691708734
 11
0.7279834891
 21
12.5691708734
  0
LINE
  5
261
100
AcDbEntity
  8
0
100
AcDbLine
 62
7
  6
CONTINUOUS
 10
-1.4000165109
 20
12.6506708734
 11
-1.4020165109
 21
12.6506708734
  0
LINE
  5
262
100
AcDbEntity
  8
0
100
AcDbLine
 62
7
  6
CONTINUOUS
 10
-1.4020165109
 20
12.6816711434
 11
-1.4000165109
 21
12.6816711434
  0
LINE
  5
263
100
AcDbEntity
  8
0
100
AcDbLine
 62
7
  6
CONTINUOUS
 10
-1.4000165109
 20
12.9131706034
 11
-1.4020165109
 21
12.9131706034
  0
LINE
  5
264
100
AcDbEntity
  8
0
100
AcDbLine
 62
7
  6
CONTINUOUS
 10
-1.4020165109
 20
12.9751711434
 11
-1.4000165109
 21
12.9751711434
  0
LINE
  5
265
100
AcDbEntity
  8
0
100
AcDbLine
 62
7
  6
CONTINUOUS
 10
-1.4000165109
 20
13.2066706034
 11
-1.4020165109
 21
13.2066706034
  0
LINE
  5
266
100
AcDbEntity
  8
0
100
AcDbLine
 62
7
  6
CONTINUOUS
 10
-1.4020165109
 20
13.2376708734
 11
-1.4000165109
 21
13.2376708734
  0
LINE
  5
267
100
AcDbEntity
  8
0
100
AcDbLine
 62
7
  6
CONTINUOUS
 10
9.1379834891
 20
13.3191708734
 11
0.7279834891
 21
13.3191708734
  0
LINE
  5
268
100
AcDbEntity
  8
0
100
AcDbLine
 62
7
  6
CONTINUOUS
 10
9.5379834891
 20
13.4141708734
 11
9.1379834891
 21
13.4141708734
  0
LINE
  5
269
100
AcDbEntity
  8
0
100
AcDbLine
 62
7
  6
CONTINUOUS
 10
-2.8080165109
 20
13.4191708734
 11
-2.8280165109
 21
13.4191708734
  0
LINE
  5
26A
100
AcDbEntity
  8
0
100
AcDbLine
 62
7
  6
CONTINUOUS
 10
-2.7480165109
 20
13.4941708734
 11
-1.4020165109
 21
13.4941708734
  0
LINE
  5
26B
100
AcDbEntity
  8
0
100
AcDbLine
 62
7
  6
CONTINUOUS
 10
0.7279834891
 20
13.4941708734
 11
-1.3720165109
 21
13.4941708734
  0
LINE
  5
26C
100
AcDbEntity
  8
0
100
AcDbLine
 62
9
  6
CONTINUOUS
 10
10.7979834891
 20
13.7106127347
 11
9.5979834891
 21
13.7106127347
  0
LINE
  5
26D
100
AcDbEntity
  8
0
100
AcDbLine
 62
7
  6
CONTINUOUS
 10
10.7779834694
 20
13.7306127347
 11
9.6179835089
 21
13.7306127347
  0
LINE
  5
26E
100
AcDbEntity
  8
0
100
AcDbLine
 62
7
  6
CONTINUOUS
 10
19.8528630651
 20
6.8927912974
 11
19.8539834891
 21
6.8916708734
  0
LINE
  5
26F
100
AcDbEntity
  8
0
100
AcDbLine
 62
7
  6
CONTINUOUS
 10
19.8528630651
 20
6.8927912974
 11
19.8525564631
 21
6.8931984047
  0
LINE
  5
270
100
AcDbEntity
  8
0
100
AcDbLine
 62
7
  6
CONTINUOUS
 10
19.852864472
 20
6.8927898906
 11
19.8525203865
 21
6.8932607479
  0
LINE
  5
271
100
AcDbEntity
  8
0
100
AcDbLine
 62
7
  6
CONTINUOUS
 10
18.3709834891
 20
7.9216637112
 11
18.3709834891
 21
6.8066780356
  0
LINE
  5
272
100
AcDbEntity
  8
0
100
AcDbLine
 62
9
  6
CONTINUOUS
 10
18.4009834891
 20
7.9516708734
 11
18.4009834891
 21
6.7766708734
  0
LINE
  5
273
100
AcDbEntity
  8
0
100
AcDbLine
 62
9
  6
CONTINUOUS
 10
18.4209834891
 20
6.7766708734
 11
18.4209834891
 21
7.9516708734
  0
LINE
  5
274
100
AcDbEntity
  8
0
100
AcDbLine
 62
7
  6
CONTINUOUS
 10
18.4509834891
 20
6.7316708734
 11
18.4509834891
 21
7.9966705023
  0
LINE
  5
275
100
AcDbEntity
  8
0
100
AcDbLine
 62
9
  6
CONTINUOUS
 10
18.4809834891
 20
8.0266708734
 11
18.4809834891
 21
6.7016708734
  0
LINE
  5
276
100
AcDbEntity
  8
0
100
AcDbLine
 62
7
  6
CONTINUOUS
 10
19.8379834891
 20
7.8206708734
 11
19.8443175499
 21
7.8270049341
  0
LINE
  5
277
100
AcDbEntity
  8
0
100
AcDbLine
 62
7
  6
CONTINUOUS
 10
19.8511812542
 20
7.8152381343
 11
19.8444036203
 21
7.826973488
  0
LINE
  5
278
100
AcDbEntity
  8
0
100
AcDbLine
 62
7
  6
CONTINUOUS
 10
19.8410559693
 20
6.9131138808
 11
19.8497209624
 21
6.8981099579
  0
LINE
  5
279
100
AcDbEntity
  8
0
100
AcDbLine
 62
7
  6
CONTINUOUS
 10
19.8497209624
 20
6.8981099579
 11
19.8525228317
 21
6.8932583069
  0
LINE
  5
27A
100
AcDbEntity
  8
0
100
AcDbLine
 62
7
  6
CONTINUOUS
 10
18.5409834891
 20
4.3191708734
 11
18.5409834891
 21
6.7055094621
  0
LINE
  5
27B
100
AcDbEntity
  8
0
100
AcDbLine
 62
7
  6
CONTINUOUS
 10
19.0409834891
 20
4.3191708734
 11
19.0409834891
 21
6.7055123309
  0
LINE
  5
27C
100
AcDbEntity
  8
0
100
AcDbLine
 62
7
  6
CONTINUOUS
 10
19.8679834891
 20
7.8277564022
 11
19.860742949
 21
7.8152192468
  0
LINE
  5
27D
100
AcDbEntity
  8
0
100
AcDbLine
 62
7
  6
CONTINUOUS
 10
19.7079834891
 20
10.5541708734
 11
19.7079834891
 21
9.6141708734
  0
LINE
  5
27E
100
AcDbEntity
  8
0
100
AcDbLine
 62
7
  6
CONTINUOUS
 10
19.8379834891
 20
6.7016712391
 11
19.8379834891
 21
8.0266705078
  0
LINE
  5
27F
100
AcDbEntity
  8
0
100
AcDbLine
 62
7
  6
CONTINUOUS
 10
19.8539834891
 20
7.0059444884
 11
19.8539834891
 21
6.8916708734
  0
LINE
  5
280
100
AcDbEntity
  8
0
100
AcDbLine
 62
7
  6
CONTINUOUS
 10
19.8679834891
 20
8.0266708734
 11
19.8679834891
 21
6.7016708734
  0
LINE
  5
281
100
AcDbEntity
  8
0
100
AcDbLine
 62
7
  6
CONTINUOUS
 10
20.1679834891
 20
10.8506127347
 11
20.1679834891
 21
10.6141708734
  0
LINE
  5
282
100
AcDbEntity
  8
0
100
AcDbLine
 62
7
  6
CONTINUOUS
 10
20.1679834891
 20
9.5541708734
 11
20.1679834891
 21
9.1941708734
  0
LINE
  5
283
100
AcDbEntity
  8
0
100
AcDbLine
 62
7
  6
CONTINUOUS
 10
20.1679834891
 20
8.0866708734
 11
20.1679834891
 21
9.1741708734
  0
LINE
  5
284
100
AcDbEntity
  8
0
100
AcDbLine
 62
7
  6
CONTINUOUS
 10
20.2979834891
 20
9.1741708734
 11
20.2979834891
 21
9.1941708734
  0
LINE
  5
285
100
AcDbEntity
  8
0
100
AcDbLine
 62
7
  6
CONTINUOUS
 10
19.8585726128
 20
6.8918049932
 11
19.8679834891
 21
6.9080996785
  0
LINE
  5
286
100
AcDbEntity
  8
0
100
AcDbLine
 62
7
  6
CONTINUOUS
 10
20.5525768968
 20
9.1741708734
 11
20.5525768968
 21
8.8741708734
  0
LINE
  5
287
100
AcDbEntity
  8
0
100
AcDbLine
 62
7
  6
CONTINUOUS
 10
20.9833900814
 20
8.8741708734
 11
20.9833900814
 21
9.1741708734
  0
LINE
  5
288
100
AcDbEntity
  8
0
100
AcDbLine
 62
7
  6
CONTINUOUS
 10
21.2379834891
 20
9.1741708734
 11
21.2379834891
 21
9.1941708734
  0
LINE
  5
289
100
AcDbEntity
  8
0
100
AcDbLine
 62
7
  6
CONTINUOUS
 10
21.3679834891
 20
10.8506127347
 11
21.3679834891
 21
9.1941708734
  0
LINE
  5
28A
100
AcDbEntity
  8
0
100
AcDbLine
 62
7
  6
CONTINUOUS
 10
21.3679834891
 20
8.0866708734
 11
21.3679834891
 21
9.1741708734
  0
LINE
  5
28B
100
AcDbEntity
  8
0
100
AcDbLine
 62
7
  6
CONTINUOUS
 10
23.7079834891
 20
5.9991708734
 11
23.7079834891
 21
8.7291708734
  0
LINE
  5
28C
100
AcDbEntity
  8
0
100
AcDbLine
 62
9
  6
CONTINUOUS
 10
23.7279834891
 20
8.7491708734
 11
23.7279834891
 21
5.9791708734
  0
LINE
  5
28D
100
AcDbEntity
  8
0
100
AcDbLine
 62
9
  6
CONTINUOUS
 10
23.7679834891
 20
5.9791708734
 11
23.7679834891
 21
8.7491708734
  0
LINE
  5
28E
100
AcDbEntity
  8
0
100
AcDbLine
 62
7
  6
CONTINUOUS
 10
23.7879834891
 20
5.9241708734
 11
23.7879834891
 21
8.8041708734
  0
LINE
  5
28F
100
AcDbEntity
  8
0
100
AcDbLine
 62
9
  6
CONTINUOUS
 10
23.8079834891
 20
8.8241708734
 11
23.8079834891
 21
5.9041708734
  0
LINE
  5
290
100
AcDbEntity
  8
0
100
AcDbLine
 62
7
  6
CONTINUOUS
 10
24.2779834891
 20
5.9041708734
 11
24.2779834891
 21
8.8241708734
  0
ARC
  5
291
100
AcDbEntity
  8
0
100
AcDbCircle
 62
7
  6
CONTINUOUS
 10
24.1781520019
 20
4.3591171881
 40
1.5472370714
100
AcDbArc
 50
90.0062402014
 51
93.0442165931
  0
ARC
  5
292
100
AcDbEntity
  8
0
100
AcDbCircle
 62
7
  6
CONTINUOUS
 10
24.1778788552
 20
4.3615162539
 40
1.5448379999
100
AcDbArc
 50
86.953423925
 51
89.9961192804
  0
ARC
  5
293
100
AcDbEntity
  8
0
100
AcDbCircle
 62
7
  6
CONTINUOUS
 10
20.2894584039
 20
6.9606665855
 40
0.4430853174
100
AcDbArc
 50
185.9009346935
 51
186.0580948591
  0
ARC
  5
294
100
AcDbEntity
  8
0
100
AcDbCircle
 62
7
  6
CONTINUOUS
 10
-0.6845165109
 20
11.9091708734
 40
0.4
100
AcDbArc
 50
180.0
 51
204.220943109
  0
ARC
  5
295
100
AcDbEntity
  8
0
100
AcDbCircle
 62
7
  6
CONTINUOUS
 10
-0.5595165109
 20
11.9091708734
 40
0.4
100
AcDbArc
 50
335.779056891
 51
360.0
  0
ARC
  5
296
100
AcDbEntity
  8
0
100
AcDbCircle
 62
7
  6
CONTINUOUS
 10
20.1919552908
 20
6.9501766128
 40
0.3450213197
100
AcDbArc
 50
186.1730915514
 51
186.7174989668
  0
ARC
  5
297
100
AcDbEntity
  8
0
100
AcDbCircle
 62
7
  6
CONTINUOUS
 10
-2.6579365109
 20
9.9241708734
 40
0.03
100
AcDbArc
 50
180.0
 51
270.0001054048
  0
ARC
  5
298
100
AcDbEntity
  8
0
100
AcDbCircle
 62
7
  6
CONTINUOUS
 10
-2.2179365109
 20
9.9241708734
 40
0.03
100
AcDbArc
 50
269.9998945952
 51
360.0
  0
ARC
  5
299
100
AcDbEntity
  8
0
100
AcDbCircle
 62
7
  6
CONTINUOUS
 10
18.5709834891
 20
4.3191708734
 40
0.03
100
AcDbArc
 50
180.0
 51
270.0001054048
  0
ARC
  5
29A
100
AcDbEntity
  8
0
100
AcDbCircle
 62
7
  6
CONTINUOUS
 10
19.0109834891
 20
4.3191708734
 40
0.03
100
AcDbArc
 50
269.9998945952
 51
360.0
  0
ARC
  5
29B
100
AcDbEntity
  8
0
100
AcDbCircle
 62
7
  6
CONTINUOUS
 10
-2.8080165109
 20
12.4391708734
 40
0.03
100
AcDbArc
 50
0.0
 51
90.0
  0
ARC
  5
29C
100
AcDbEntity
  8
0
100
AcDbCircle
 62
7
  6
CONTINUOUS
 10
-2.8280165109
 20
12.4991708734
 40
0.03
100
AcDbArc
 50
180.0
 51
270.0
  0
ARC
  5
29D
100
AcDbEntity
  8
0
100
AcDbCircle
 62
7
  6
CONTINUOUS
 10
-2.8280165109
 20
13.3891708734
 40
0.03
100
AcDbArc
 50
90.0
 51
180.0
  0
ARC
  5
29E
100
AcDbEntity
  8
0
100
AcDbCircle
 62
7
  6
CONTINUOUS
 10
-2.8080165109
 20
13.4491708734
 40
0.03
100
AcDbArc
 50
270.0
 51
360.0
  0
ARC
  5
29F
100
AcDbEntity
  8
0
100
AcDbCircle
 62
7
  6
CONTINUOUS
 10
-2.7480165109
 20
12.4241708734
 40
0.03
100
AcDbArc
 50
180.0
 51
270.0
  0
ARC
  5
2A0
100
AcDbEntity
  8
0
100
AcDbCircle
 62
7
  6
CONTINUOUS
 10
-2.7480165109
 20
13.4641708734
 40
0.03
100
AcDbArc
 50
90.0
 51
180.0
  0
ARC
  5
2A1
100
AcDbEntity
  8
0
100
AcDbCircle
 62
7
  6
CONTINUOUS
 10
18.4209834891
 20
6.7466708734
 40
0.03
100
AcDbArc
 50
0.0
 51
90.0
  0
ARC
  5
2A2
100
AcDbEntity
  8
0
100
AcDbCircle
 62
7
  6
CONTINUOUS
 10
18.4009834891
 20
6.8066708734
 40
0.03
100
AcDbArc
 50
180.0
 51
270.0
  0
ARC
  5
2A3
100
AcDbEntity
  8
0
100
AcDbCircle
 62
7
  6
CONTINUOUS
 10
18.4009834891
 20
7.9216708734
 40
0.03
100
AcDbArc
 50
90.0
 51
180.0
  0
ARC
  5
2A4
100
AcDbEntity
  8
0
100
AcDbCircle
 62
7
  6
CONTINUOUS
 10
18.4209834891
 20
7.9816708734
 40
0.03
100
AcDbArc
 50
270.0
 51
360.0
  0
ARC
  5
2A5
100
AcDbEntity
  8
0
100
AcDbCircle
 62
7
  6
CONTINUOUS
 10
18.4809834891
 20
6.7316708734
 40
0.03
100
AcDbArc
 50
180.0
 51
270.0
  0
ARC
  5
2A6
100
AcDbEntity
  8
0
100
AcDbCircle
 62
7
  6
CONTINUOUS
 10
18.4809834891
 20
7.9966708734
 40
0.03
100
AcDbArc
 50
90.0
 51
180.0
  0
ARC
  5
2A7
100
AcDbEntity
  8
0
100
AcDbCircle
 62
7
  6
CONTINUOUS
 10
23.7279834891
 20
8.7291708734
 40
0.02
100
AcDbArc
 50
90.0
 51
180.0
  0
ARC
  5
2A8
100
AcDbEntity
  8
0
100
AcDbCircle
 62
7
  6
CONTINUOUS
 10
23.7279834891
 20
5.9991708734
 40
0.02
100
AcDbArc
 50
180.0
 51
270.0
  0
ARC
  5
2A9
100
AcDbEntity
  8
0
100
AcDbCircle
 62
7
  6
CONTINUOUS
 10
23.7679834891
 20
5.9591708734
 40
0.02
100
AcDbArc
 50
0.0
 51
90.0
  0
ARC
  5
2AA
100
AcDbEntity
  8
0
100
AcDbCircle
 62
7
  6
CONTINUOUS
 10
23.8079834891
 20
8.8041708734
 40
0.02
100
AcDbArc
 50
90.0
 51
180.0
  0
ARC
  5
2AB
100
AcDbEntity
  8
0
100
AcDbCircle
 62
7
  6
CONTINUOUS
 10
23.8079834891
 20
5.9241708734
 40
0.02
100
AcDbArc
 50
180.0
 51
270.0
  0
ARC
  5
2AC
100
AcDbEntity
  8
0
100
AcDbCircle
 62
7
  6
CONTINUOUS
 10
23.7679834891
 20
8.7691708734
 40
0.02
100
AcDbArc
 50
270.0
 51
360.0
  0
ARC
  5
2AD
100
AcDbEntity
  8
0
100
AcDbCircle
 62
7
  6
CONTINUOUS
 10
9.6179834891
 20
9.3141708734
 40
0.02
100
AcDbArc
 50
180.0
 51
270.0000566486
  0
ARC
  5
2AE
100
AcDbEntity
  8
0
100
AcDbCircle
 62
7
  6
CONTINUOUS
 10
10.7779834891
 20
9.3141708734
 40
0.02
100
AcDbArc
 50
269.9999433514
 51
360.0
  0
ARC
  5
2AF
100
AcDbEntity
  8
0
100
AcDbCircle
 62
7
  6
CONTINUOUS
 10
10.7779834891
 20
13.7106127347
 40
0.02
100
AcDbArc
 50
0.0
 51
90.0000565776
  0
ARC
  5
2B0
100
AcDbEntity
  8
0
100
AcDbCircle
 62
7
  6
CONTINUOUS
 10
9.6179834891
 20
13.7106127347
 40
0.02
100
AcDbArc
 50
89.9999434224
 51
180.0
  0
ARC
  5
2B1
100
AcDbEntity
  8
0
100
AcDbCircle
 62
7
  6
CONTINUOUS
 10
21.3479834891
 20
10.8506127347
 40
0.02
100
AcDbArc
 50
0.0
 51
90.0000565776
  0
ARC
  5
2B2
100
AcDbEntity
  8
0
100
AcDbCircle
 62
7
  6
CONTINUOUS
 10
20.1879834891
 20
10.8506127347
 40
0.02
100
AcDbArc
 50
89.9999434224
 51
180.0
  0
ARC
  5
2B3
100
AcDbEntity
  8
0
100
AcDbCircle
 62
7
  6
CONTINUOUS
 10
-1.0401848957
 20
11.7491708734
 40
0.01
100
AcDbArc
 50
204.220943109
 51
270.0
  0
ARC
  5
2B4
100
AcDbEntity
  8
0
100
AcDbCircle
 62
7
  6
CONTINUOUS
 10
-0.203848126
 20
11.7491708734
 40
0.01
100
AcDbArc
 50
270.0
 51
335.779056891
  0
ARC
  5
2B5
100
AcDbEntity
  8
0
100
AcDbCircle
 62
7
  6
CONTINUOUS
 10
19.8559911188
 20
6.8952625407
 40
0.0040066749
100
AcDbArc
 50
208.5155176837
 51
209.91105145
  0
ARC
  5
2B6
100
AcDbEntity
  8
0
100
AcDbCircle
 62
7
  6
CONTINUOUS
 10
-1.3812255643
 20
13.3312898133
 40
0.0015355421
100
AcDbArc
 50
132.2459446421
 51
134.9719823079
  0
SPLINE
  5
2B7
100
AcDbEntity
  8
0
100
AcDbSpline
 62
7
  6
CONTINUOUS
 70
0
 71
3
 72
20
 73
16
 74
0
 42
0.0000001
 43
0.0000001
 44
0.0000000001
 40
0.0
 40
0.0
 40
0.0
 40
0.0
 40
0.1985844521
 40
0.3775662216
 40
0.5361259645
 40
0.6734954147
 40
0.734024841
 40
0.7890202729
 40
0.8384123514
 40
0.8821374631
 40
0.920159216
 40
0.9524650809
 40
0.9790615544
 40
0.9902326535
 40
1.0
 40
1.0
 40
1.0
 40
1.0
 10
-1.3720148159
 20
13.2531542239
 30
0.0
 10
-1.3723389181
 20
13.2583198131
 30
0.0
 10
-1.3729819746
 20
13.2681394412
 30
0.0
 10
-1.3739977537
 20
13.2820757984
 30
0.0
 10
-1.3750137426
 20
13.2944119277
 30
0.0
 10
-1.3758902657
 20
13.3036613477
 30
0.0
 10
-1.3766026898
 20
13.3102140739
 30
0.0
 10
-1.3771144271
 20
13.3144818713
 30
0.0
 10
-1.3776264138
 20
13.3183082158
 30
0.0
 10
-1.3781390298
 20
13.3216876642
 30
0.0
 10
-1.3786516451
 20
13.3246161011
 30
0.0
 10
-1.3791635729
 20
13.327090237
 30
0.0
 10
-1.37961009
 20
13.3288623095
 30
0.0
 10
-1.3799762717
 20
13.3300461433
 30
0.0
 10
-1.3801605781
 20
13.3305601183
 30
0.0
 10
-1.3802540248
 20
13.3307969151
 30
0.0
  0
SPLINE
  5
2B8
100
AcDbEntity
  8
0
100
AcDbSpline
 62
7
  6
CONTINUOUS
 70
0
 71
3
 72
8
 73
4
 74
0
 42
0.0000001
 43
0.0000001
 44
0.0000000001
 40
0.0
 40
0.0
 40
0.0
 40
0.0
 40
1.0
 40
1.0
 40
1.0
 40
1.0
 10
-1.3822580261
 20
13.3324266264
 30
0.0
 10
-1.3822760536
 20
13.3324102138
 30
0.0
 10
-1.382293654
 20
13.3323933564
 30
0.0
 10
-1.3823108629
 20
13.3323761758
 30
0.0
  0
SPLINE
  5
2B9
100
AcDbEntity
  8
0
100
AcDbSpline
 62
7
  6
CONTINUOUS
 70
0
 71
3
 72
46
 73
42
 74
0
 42
0.0000001
 43
0.0000001
 44
0.0000000001
 40
0.0
 40
0.0
 40
0.0
 40
0.0
 40
0.1977361525
 40
0.2941645539
 40
0.3876823923
 40
0.4773313018
 40
0.5622357518
 40
0.6415931818
 40
0.7146036198
 40
0.7484791408
 40
0.7804831587
 40
0.8105493454
 40
0.8386126635
 40
0.8646081092
 40
0.8884707268
 40
0.9101356302
 40
0.92953804
 40
0.9383706789
 40
0.9466158934
 40
0.9542709874
 40
0.9613334935
 40
0.9678009827
 40
0.9736710798
 40
0.9789414893
 40
0.9836100359
 40
0.9876747387
 40
0.9911339475
 40
0.9939866288
 40
0.9951855856
 40
0.9962332131
 40
0.9971300715
 40
0.9978772619
 40
0.998476962
 40
0.9989337965
 40
0.9991119742
 40
0.9992599427
 40
0.9994861221
 40
0.9995887002
 40
0.9997019476
 40
0.9998368193
 40
1.0
 40
1.0
 40
1.0
 40
1.0
 10
-1.3725159732
 20
12.9441621941
 30
0.0
 10
-1.372936107
 20
12.9697562257
 30
0.0
 10
-1.3735610296
 20
13.0078314959
 30
0.0
 10
-1.3744095378
 20
13.0580108581
 30
0.0
 10
-1.3750402738
 20
13.0941997124
 30
0.0
 10
-1.3756708713
 20
13.1288965282
 30
0.0
 10
-1.3763011582
 20
13.1617599305
 30
0.0
 10
-1.3769306751
 20
13.1924690322
 30
0.0
 10
-1.3774667945
 20
13.2165728007
 30
0.0
 10
-1.3778994469
 20
13.2345472824
 30
0.0
 10
-1.37821578
 20
13.2469636918
 30
0.0
 10
-1.3785319637
 20
13.2586274412
 30
0.0
 10
-1.3788479757
 20
13.2695130655
 30
0.0
 10
-1.3791637636
 20
13.2795952651
 30
0.0
 10
-1.3794792439
 20
13.2888487453
 30
0.0
 10
-1.3797943475
 20
13.2972482101
 30
0.0
 10
-1.3800642087
 20
13.303702285
 30
0.0
 10
-1.3802820305
 20
13.3084197346
 30
0.0
 10
-1.3804402119
 20
13.3116175783
 30
0.0
 10
-1.3805983175
 20
13.3145859774
 30
0.0
 10
-1.3807563374
 20
13.3173238987
 30
0.0
 10
-1.3809142437
 20
13.3198303379
 30
0.0
 10
-1.3810720023
 20
13.322104293
 30
0.0
 10
-1.3812295556
 20
13.3241447705
 30
0.0
 10
-1.3813868378
 20
13.3259507801
 30
0.0
 10
-1.3815436749
 20
13.3275213783
 30
0.0
 10
-1.3816999829
 20
13.328855597
 30
0.0
 10
-1.3818360125
 20
13.3298185158
 30
0.0
 10
-1.3819474979
 20
13.3304691947
 30
0.0
 10
-1.3820260178
 20
13.3308685327
 30
0.0
 10
-1.3821043042
 20
13.3312081378
 30
0.0
 10
-1.3821821516
 20
13.3314881493
 30
0.0
 10
-1.3822596777
 20
13.331708572
 30
0.0
 10
-1.3823279315
 20
13.3318537716
 30
0.0
 10
-1.3823854371
 20
13.3319378142
 30
0.0
 10
-1.3824333801
 20
13.3319904146
 30
0.0
 10
-1.3824911789
 20
13.332023646
 30
0.0
 10
-1.3825497195
 20
13.3320174897
 30
0.0
 10
-1.3825907845
 20
13.3319964865
 30
0.0
 10
-1.3826306403
 20
13.3319606052
 30
0.0
 10
-1.3826544535
 20
13.3319300529
 30
0.0
 10
-1.3826665097
 20
13.331912707
 30
0.0
  0
SPLINE
  5
2BA
100
AcDbEntity
  8
0
100
AcDbSpline
 62
7
  6
CONTINUOUS
 70
0
 71
3
 72
14
 73
10
 74
0
 42
0.0000001
 43
0.0000001
 44
0.0000000001
 40
0.0
 40
0.0
 40
0.0
 40
0.0
 40
0.0950148155
 40
0.1766711811
 40
0.2849863785
 40
0.4210228683
 40
0.5853333721
 40
0.7782509417
 40
1.0
 40
1.0
 40
1.0
 40
1.0
 10
-1.3725197461
 20
12.5563471475
 30
0.0
 10
-1.3725872535
 20
12.5563468228
 30
0.0
 10
-1.3726870857
 20
12.5564636056
 30
0.0
 10
-1.3727706943
 20
12.5566384251
 30
0.0
 10
-1.3728512878
 20
12.5568592833
 30
0.0
 10
-1.3729295072
 20
12.5571378457
 30
0.0
 10
-1.3730092051
 20
12.5574796376
 30
0.0
 10
-1.3730887845
 20
12.5578831454
 30
0.0
 10
-1.3731385753
 20
12.5581735932
 30
0.0
 10
-1.373163765
 20
12.5583291196
 30
0.0
  0
SPLINE
  5
2BB
100
AcDbEntity
  8
0
100
AcDbSpline
 62
7
  6
CONTINUOUS
 70
0
 71
3
 72
28
 73
24
 74
0
 42
0.0000001
 43
0.0000001
 44
0.0000000001
 40
0.0
 40
0.0
 40
0.0
 40
0.0
 40
0.0026315124
 40
0.0057894308
 40
0.0136751162
 40
0.0236350528
 40
0.0356437565
 40
0.0496723176
 40
0.0656884823
 40
0.1035518961
 40
0.1489527509
 40
0.2015753379
 40
0.2609463842
 40
0.3264914023
 40
0.4739683715
 40
0.5547059438
 40
0.639196403
 40
0.6826171562
 40
0.7266987014
 40
0.816497742
 40
0.8620426563
 40
0.9078862135
 40
1.0
 40
1.0
 40
1.0
 40
1.0
 10
-1.373163765
 20
12.5583291196
 30
0.0
 10
-1.3732178982
 20
12.5586633506
 30
0.0
 10
-1.3733229782
 20
12.5594009363
 30
0.0
 10
-1.3735308756
 20
12.561148218
 30
0.0
 10
-1.3737811057
 20
12.5638394177
 30
0.0
 10
-1.3740674241
 20
12.5676700449
 30
0.0
 10
-1.3743551707
 20
12.572292821
 30
0.0
 10
-1.3746442742
 20
12.5776959843
 30
0.0
 10
-1.3750538932
 20
12.5864239023
 30
0.0
 10
-1.3755536209
 20
12.599188311
 30
0.0
 10
-1.3761290988
 20
12.6166629276
 30
0.0
 10
-1.3767056097
 20
12.6369061073
 30
0.0
 10
-1.37728377
 20
12.6597420185
 30
0.0
 10
-1.3780907731
 20
12.6947805
 30
0.0
 10
-1.3788508336
 20
12.7325698177
 30
0.0
 10
-1.379607156
 20
12.7727972343
 30
0.0
 10
-1.380093739
 20
12.7996388545
 30
0.0
 10
-1.3804746653
 20
12.8217652141
 30
0.0
 10
-1.3808525525
 20
12.8445747549
 30
0.0
 10
-1.3812309652
 20
12.8676576373
 30
0.0
 10
-1.3816481536
 20
12.8909665997
 30
0.0
 10
-1.3820883851
 20
12.9145730091
 30
0.0
 10
-1.3824111669
 20
12.932320532
 30
0.0
 10
-1.382601776
 20
12.9441709204
 30
0.0
  0
SPLINE
  5
2BC
100
AcDbEntity
  8
0
100
AcDbSpline
 62
7
  6
CONTINUOUS
 70
0
 71
3
 72
47
 73
43
 74
0
 42
0.0000001
 43
0.0000001
 44
0.0000000001
 40
0.0
 40
0.0
 40
0.0
 40
0.0
 40
0.0957079367
 40
0.1433034285
 40
0.1905358733
 40
0.2372996521
 40
0.2834970572
 40
0.3737946312
 40
0.4607033577
 40
0.5435193076
 40
0.6216128631
 40
0.6943404647
 40
0.7284856952
 40
0.7610363336
 40
0.7919038655
 40
0.8209981345
 40
0.8482275787
 40
0.8735001954
 40
0.8967234347
 40
0.917803936
 40
0.9366523652
 40
0.9531876933
 40
0.960562815
 40
0.9673294533
 40
0.9734778906
 40
0.9790011035
 40
0.9838931947
 40
0.9881482645
 40
0.9917604069
 40
0.9933235331
 40
0.9947237101
 40
0.995960198
 40
0.9970322573
 40
0.9979393439
 40
0.9986814086
 40
0.9992584789
 40
0.9994851498
 40
0.9996705825
 40
0.9998147804
 40
0.999917747
 40
0.9999794857
 40
1.0
 40
1.0
 40
1.0
 40
1.0
 10
-2.4379365109
 20
12.4595060408
 30
0.0
 10
-2.4293125458
 20
12.4595060408
 30
0.0
 10
-2.4163965549
 20
12.4591578313
 30
0.0
 10
-2.3992642641
 20
12.4580218316
 30
0.0
 10
-2.3865587551
 20
12.4568441578
 30
0.0
 10
-2.3740125058
 20
12.4553597796
 30
0.0
 10
-2.3576649836
 20
12.453018715
 30
0.0
 10
-2.3378445678
 20
12.4494562794
 30
0.0
 10
-2.3149802048
 20
12.4443099444
 30
0.0
 10
-2.2934010341
 20
12.4385469918
 30
0.0
 10
-2.2732605754
 20
12.4324053276
 30
0.0
 10
-2.2574732676
 20
12.4270551447
 30
0.0
 10
-2.2456594007
 20
12.4227808906
 30
0.0
 10
-2.2374298342
 20
12.4196885579
 30
0.0
 10
-2.229660372
 20
12.4166673731
 30
0.0
 10
-2.2223681047
 20
12.4137432873
 30
0.0
 10
-2.2155699342
 20
12.4109425278
 30
0.0
 10
-2.2092836008
 20
12.4082889087
 30
0.0
 10
-2.2035271385
 20
12.4058053039
 30
0.0
 10
-2.1983179772
 20
12.4035148
 30
0.0
 10
-2.1936728041
 20
12.4014390676
 30
0.0
 10
-2.1901637595
 20
12.3998480243
 30
0.0
 10
-2.1876503767
 20
12.3986974381
 30
0.0
 10
-2.1859895724
 20
12.3979329899
 30
0.0
 10
-2.1844815434
 20
12.397235731
 30
0.0
 10
-2.1831278328
 20
12.3966071947
 30
0.0
 10
-2.1819297217
 20
12.3960486578
 30
0.0
 10
-2.1808883862
 20
12.395561379
 30
0.0
 10
-2.1801192118
 20
12.3952002289
 30
0.0
 10
-2.179583108
 20
12.3949479533
 30
0.0
 10
-2.179240769
 20
12.394786668
 30
0.0
 10
-2.1789385027
 20
12.3946441336
 30
0.0
 10
-2.1786764602
 20
12.3945205149
 30
0.0
 10
-2.1784546605
 20
12.3944158828
 30
0.0
 10
-2.1782733187
 20
12.3943303826
 30
0.0
 10
-2.1781471291
 20
12.3942708149
 30
0.0
 10
-2.1780668235
 20
12.3942330474
 30
0.0
 10
-2.1780208223
 20
12.3942111644
 30
0.0
 10
-2.1779872648
 20
12.3941958595
 30
0.0
 10
-2.1779582356
 20
12.3941810263
 30
0.0
 10
-2.1779498809
 20
12.3941791193
 30
0.0
 10
-2.1779362053
 20
12.3941705901
 30
0.0
 10
-2.1779373861
 20
12.3941720123
 30
0.0
  0
SPLINE
  5
2BD
100
AcDbEntity
  8
0
100
AcDbSpline
 62
7
  6
CONTINUOUS
 70
0
 71
3
 72
48
 73
44
 74
0
 42
0.0000001
 43
0.0000001
 44
0.0000000001
 40
0.0
 40
0.0
 40
0.0
 40
0.0
 40
0.0000207072
 40
0.0000465179
 40
0.0000826328
 40
0.0001857734
 40
0.0003301255
 40
0.0005156857
 40
0.0007424506
 40
0.0013195803
 40
0.0020614871
 40
0.0029681433
 40
0.0040395214
 40
0.0052754469
 40
0.0066752493
 40
0.0082381538
 40
0.0118501701
 40
0.0161053025
 40
0.0209973639
 40
0.0265201739
 40
0.0326675593
 40
0.0394327344
 40
0.0468062904
 40
0.0633381936
 40
0.0821828304
 40
0.1032588317
 40
0.1264764278
 40
0.1517428964
 40
0.1789662809
 40
0.20805463
 40
0.2389164918
 40
0.3056010851
 40
0.3783224312
 40
0.4564151713
 40
0.539238814
 40
0.6261577465
 40
0.6709346497
 40
0.7164729126
 40
0.7626782978
 40
0.8094496459
 40
0.856689149
 40
0.9042893287
 40
1.0
 40
1.0
 40
1.0
 40
1.0
 10
-2.6979356356
 20
12.3941720123
 30
0.0
 10
-2.6979344437
 20
12.3941734478
 30
0.0
 10
-2.6979298789
 20
12.3941742437
 30
0.0
 10
-2.6979235475
 20
12.3941779397
 30
0.0
 10
-2.6979098703
 20
12.3941839986
 30
0.0
 10
-2.6978869302
 20
12.3941951256
 30
0.0
 10
-2.6978515592
 20
12.3942116738
 30
0.0
 10
-2.6978062258
 20
12.3942331182
 30
0.0
 10
-2.6977255754
 20
12.3942711377
 30
0.0
 10
-2.6975996064
 20
12.3943305687
 30
0.0
 10
-2.6974182085
 20
12.3944161043
 30
0.0
 10
-2.6971965298
 20
12.3945206314
 30
0.0
 10
-2.6969345804
 20
12.3946441295
 30
0.0
 10
-2.6966324302
 20
12.3947865604
 30
0.0
 10
-2.6962901732
 20
12.3949477816
 30
0.0
 10
-2.6957541235
 20
12.3952000236
 30
0.0
 10
-2.6949849818
 20
12.3955611916
 30
0.0
 10
-2.6939436754
 20
12.3960485229
 30
0.0
 10
-2.6927456134
 20
12.3966070989
 30
0.0
 10
-2.6913920303
 20
12.3972356063
 30
0.0
 10
-2.6898842123
 20
12.3979327106
 30
0.0
 10
-2.6882237064
 20
12.3986969448
 30
0.0
 10
-2.6857108193
 20
12.3998472431
 30
0.0
 10
-2.682202467
 20
12.4014379333
 30
0.0
 10
-2.6775582493
 20
12.4035132651
 30
0.0
 10
-2.6723502002
 20
12.4058032354
 30
0.0
 10
-2.6665949643
 20
12.4082860401
 30
0.0
 10
-2.6603100303
 20
12.4109389062
 30
0.0
 10
-2.6535134464
 20
12.4137392987
 30
0.0
 10
-2.6462225728
 20
12.4166626982
 30
0.0
 10
-2.6355873148
 20
12.4207979435
 30
0.0
 10
-2.6211914874
 20
12.4261083411
 30
0.0
 10
-2.6026276797
 20
12.4323995952
 30
0.0
 10
-2.5824871365
 20
12.4385419286
 30
0.0
 10
-2.5609065014
 20
12.444304674
 30
0.0
 10
-2.5420428024
 20
12.4485520739
 30
0.0
 10
-2.5263563499
 20
12.4515547319
 30
0.0
 10
-2.5142229988
 20
12.4535889535
 30
0.0
 10
-2.5018666694
 20
12.455358861
 30
0.0
 10
-2.489318437
 20
12.4568438748
 30
0.0
 10
-2.4766111251
 20
12.4580216706
 30
0.0
 10
-2.4594774635
 20
12.4591576455
 30
0.0
 10
-2.4465607564
 20
12.4595060408
 30
0.0
 10
-2.4379365109
 20
12.4595060408
 30
0.0
  0
SPLINE
  5
2BE
100
AcDbEntity
  8
0
100
AcDbSpline
 62
7
  6
CONTINUOUS
 70
0
 71
3
 72
16
 73
12
 74
0
 42
0.0000001
 43
0.0000001
 44
0.0000000001
 40
0.0
 40
0.0
 40
0.0
 40
0.0
 40
0.0154279156
 40
0.0368565909
 40
0.0983429929
 40
0.1850651713
 40
0.2971746018
 40
0.434720364
 40
0.5977129231
 40
0.7861449935
 40
1.0
 40
1.0
 40
1.0
 40
1.0
 10
19.844415719
 20
7.8269813752
 30
0.0
 10
19.8444296191
 20
7.8269582045
 30
0.0
 10
19.8444550433
 20
7.8268984058
 30
0.0
 10
19.8445050781
 20
7.8267335929
 30
0.0
 10
19.8445625457
 20
7.8264414739
 30
0.0
 10
19.8446284049
 20
7.825990436
 30
0.0
 10
19.8446946643
 20
7.825404901
 30
0.0
 10
19.8447616224
 20
7.8246853033
 30
0.0
 10
19.8448287753
 20
7.8238315312
 30
0.0
 10
19.8448960994
 20
7.8228437899
 30
0.0
 10
19.8449383503
 20
7.8221404893
 30
0.0
 10
19.8449596902
 20
7.8217665547
 30
0.0
  0
SPLINE
  5
2BF
100
AcDbEntity
  8
0
100
AcDbSpline
 62
7
  6
CONTINUOUS
 70
0
 71
3
 72
22
 73
18
 74
0
 42
0.0000001
 43
0.0000001
 44
0.0000000001
 40
0.0
 40
0.0
 40
0.0
 40
0.0
 40
0.0077490804
 40
0.017451343
 40
0.0290862197
 40
0.0426326165
 40
0.075345971
 40
0.1153298493
 40
0.1622672528
 40
0.2157854369
 40
0.2754599581
 40
0.3408264545
 40
0.4113670231
 40
0.4865324925
 40
0.6483659182
 40
0.8212973269
 40
1.0
 40
1.0
 40
1.0
 40
1.0
 10
19.8449596902
 20
7.8217665547
 30
0.0
 10
19.8450270411
 20
7.8205863806
 30
0.0
 10
19.8451550451
 20
7.8179272306
 30
0.0
 10
19.8453274052
 20
7.8134935581
 30
0.0
 10
19.8455005958
 20
7.8081749893
 30
0.0
 10
19.8457483422
 20
7.7993468299
 30
0.0
 10
19.8460492256
 20
7.7861940416
 30
0.0
 10
19.8463939851
 20
7.7679474443
 30
0.0
 10
19.8467397031
 20
7.7465266786
 30
0.0
 10
19.8470878588
 20
7.7221018802
 30
0.0
 10
19.8474368912
 20
7.6948655465
 30
0.0
 10
19.8477844871
 20
7.665032301
 30
0.0
 10
19.8481317235
 20
7.6328358167
 30
0.0
 10
19.8486070532
 20
7.5859241867
 30
0.0
 10
19.849193872
 20
7.5233935423
 30
0.0
 10
19.8498765731
 20
7.445068901
 30
0.0
 10
19.8503397458
 20
7.3914303883
 30
0.0
 10
19.8505653108
 20
7.3641708734
 30
0.0
  0
SPLINE
  5
2C0
100
AcDbEntity
  8
0
100
AcDbSpline
 62
7
  6
CONTINUOUS
 70
0
 71
3
 72
37
 73
33
 74
0
 42
0.0000001
 43
0.0000001
 44
0.0000000001
 40
0.0
 40
0.0
 40
0.0
 40
0.0
 40
0.1093201469
 40
0.2143840237
 40
0.3146952929
 40
0.4097601505
 40
0.4990848313
 40
0.5821880031
 40
0.6586804285
 40
0.7282144314
 40
0.7904426996
 40
0.8187087322
 40
0.8450183104
 40
0.8693359238
 40
0.8916398236
 40
0.9119097436
 40
0.9301255194
 40
0.9462671425
 40
0.9603148575
 40
0.9722493461
 40
0.982052118
 40
0.9861488613
 40
0.9897067003
 40
0.992724734
 40
0.9952049343
 40
0.9962446618
 40
0.9971518017
 40
0.9979275738
 40
0.9985738973
 40
0.9990940697
 40
0.9994944443
 40
1.0
 40
1.0
 40
1.0
 40
1.0
 10
19.8679807971
 20
7.5561778838
 30
0.0
 10
19.8678357506
 20
7.5656298893
 30
0.0
 10
19.8675466513
 20
7.5841658252
 30
0.0
 10
19.8671051764
 20
7.6113745388
 30
0.0
 10
19.8666638955
 20
7.6373504051
 30
0.0
 10
19.8662228527
 20
7.6619650718
 30
0.0
 10
19.8657821347
 20
7.6850914759
 30
0.0
 10
19.8653415466
 20
7.7066115786
 30
0.0
 10
19.8649013525
 20
7.7264199679
 30
0.0
 10
19.8644617865
 20
7.7444227931
 30
0.0
 10
19.8640852312
 20
7.7582556453
 30
0.0
 10
19.8637810198
 20
7.7683513204
 30
0.0
 10
19.8635603276
 20
7.7751698017
 30
0.0
 10
19.8633397102
 20
7.7814724386
 30
0.0
 10
19.8631192545
 20
7.7872524752
 30
0.0
 10
19.8628990154
 20
7.7925044648
 30
0.0
 10
19.8626790803
 20
7.7972230909
 30
0.0
 10
19.8624595484
 20
7.8014030391
 30
0.0
 10
19.8622406946
 20
7.8050390389
 30
0.0
 10
19.8620226462
 20
7.8081257955
 30
0.0
 10
19.8618328298
 20
7.8103517921
 30
0.0
 10
19.8616769779
 20
7.8118533376
 30
0.0
 10
19.8615675097
 20
7.8127697571
 30
0.0
 10
19.8614583926
 20
7.8135452758
 30
0.0
 10
19.8613633651
 20
7.8141027295
 30
0.0
 10
19.8612854338
 20
7.8144775938
 30
0.0
 10
19.8612306476
 20
7.8147065608
 30
0.0
 10
19.8611758343
 20
7.8149005958
 30
0.0
 10
19.8611217935
 20
7.8150592887
 30
0.0
 10
19.86106649
 20
7.8151845471
 30
0.0
 10
19.8610063624
 20
7.8152883671
 30
0.0
 10
19.8609378664
 20
7.8153501812
 30
0.0
 10
19.8608941501
 20
7.8153501812
 30
0.0
  0
LINE
  5
2C1
100
AcDbEntity
  8
0
100
AcDbLine
 62
7
  6
CONTINUOUS
 10
19.8524705023
 20
6.8933497671
 11
19.8516448421
 21
6.8955997653
  0
LINE
  5
2C2
100
AcDbEntity
  8
0
100
AcDbLine
 62
7
  6
CONTINUOUS
 10
19.8516448421
 20
6.8955997653
 11
19.8513512099
 21
6.8967516787
  0
SPLINE
  5
2C3
100
AcDbEntity
  8
0
100
AcDbSpline
 62
7
  6
CONTINUOUS
 70
0
 71
3
 72
16
 73
12
 74
0
 42
0.0000001
 43
0.0000001
 44
0.0000000001
 40
0.0
 40
0.0
 40
0.0
 40
0.0
 40
0.032696515
 40
0.0698254148
 40
0.1113201042
 40
0.1571067867
 40
0.2611810667
 40
0.3812533328
 40
0.5163420769
 40
0.665343897
 40
1.0
 40
1.0
 40
1.0
 40
1.0
 10
19.8489345513
 20
6.913075625
 30
0.0
 10
19.848692159
 20
6.9153105419
 30
0.0
 10
19.8482138034
 20
6.9200876215
 30
0.0
 10
19.8475394826
 20
6.9277116973
 30
0.0
 10
19.8468636946
 20
6.9362387917
 30
0.0
 10
19.8459212891
 20
6.9493615929
 30
0.0
 10
19.8447608323
 20
6.9678846711
 30
0.0
 10
19.8434104412
 20
6.9925468134
 30
0.0
 10
19.8420518204
 20
7.0203016028
 30
0.0
 10
19.8401584996
 20
7.0628009798
 30
0.0
 10
19.838850523
 20
7.0960289819
 30
0.0
 10
19.8379840162
 20
7.1190216754
 30
0.0
  0
SPLINE
  5
2C4
100
AcDbEntity
  8
0
100
AcDbSpline
 62
7
  6
CONTINUOUS
 70
0
 71
3
 72
23
 73
19
 74
0
 42
0.0000001
 43
0.0000001
 44
0.0000000001
 40
0.0
 40
0.0
 40
0.0
 40
0.0
 40
0.0040977267
 40
0.0099149667
 40
0.0174996923
 40
0.0268679764
 40
0.038025304
 40
0.0509724423
 40
0.0822275999
 40
0.1206076425
 40
0.1660762347
 40
0.2185928378
 40
0.2781147331
 40
0.3445979583
 40
0.417997791
 40
0.5853635949
 40
0.779657919
 40
1.0
 40
1.0
 40
1.0
 40
1.0
 10
19.8410559693
 20
6.9131138808
 30
0.0
 10
19.8410159674
 20
6.9131831456
 30
0.0
 10
19.8409440626
 20
6.913364297
 30
0.0
 10
19.8408513677
 20
6.9136929436
 30
0.0
 10
19.840757707
 20
6.9141277903
 30
0.0
 10
19.8406632064
 20
6.9146683165
 30
0.0
 10
19.8405682723
 20
6.9153148397
 30
0.0
 10
19.8404326428
 20
6.916386933
 30
0.0
 10
19.8402677903
 20
6.9179906458
 30
0.0
 10
19.840078665
 20
6.9202295077
 30
0.0
 10
19.8398887945
 20
6.9228845821
 30
0.0
 10
19.8396982884
 20
6.9259531784
 30
0.0
 10
19.8395074152
 20
6.9294326419
 30
0.0
 10
19.8393162478
 20
6.9333202638
 30
0.0
 10
19.8390492663
 20
6.9393117067
 30
0.0
 10
19.8387207384
 20
6.9477976084
 30
0.0
 10
19.8383405373
 20
6.9591517192
 30
0.0
 10
19.8381011332
 20
6.9672417294
 30
0.0
 10
19.8379799608
 20
6.9715410091
 30
0.0
  0
SPLINE
  5
2C5
100
AcDbEntity
  8
0
100
AcDbSpline
 62
7
  6
CONTINUOUS
 70
0
 71
3
 72
18
 73
14
 74
0
 42
0.0000001
 43
0.0000001
 44
0.0000000001
 40
0.0
 40
0.0
 40
0.0
 40
0.0
 40
0.2000412808
 40
0.3805294566
 40
0.5402290454
 40
0.6782512202
 40
0.7938254523
 40
0.8429915157
 40
0.8863085917
 40
0.9237075431
 40
0.9551449399
 40
0.9805857039
 40
1.0
 40
1.0
 40
1.0
 40
1.0
 10
19.8539834891
 20
7.0059444884
 30
0.0
 10
19.8541390672
 20
6.9984825066
 30
0.0
 10
19.8544412545
 20
6.9842880441
 30
0.0
 10
19.8549079063
 20
6.9641373101
 30
0.0
 10
19.8553786713
 20
6.9463013118
 30
0.0
 10
19.855850179
 20
6.9308882746
 30
0.0
 10
19.8562583438
 20
6.9195993728
 30
0.0
 10
19.8565919933
 20
6.9118438305
 30
0.0
 10
19.8568279851
 20
6.9070035993
 30
0.0
 10
19.8570633894
 20
6.9028257078
 30
0.0
 10
19.8572974993
 20
6.8993158724
 30
0.0
 10
19.85752999
 20
6.8964788335
 30
0.0
 10
19.8577050879
 20
6.8948140407
 30
0.0
 10
19.8577992319
 20
6.8940958311
 30
0.0
  0
SPLINE
  5
2C6
100
AcDbEntity
  8
0
100
AcDbSpline
 62
7
  6
CONTINUOUS
 70
0
 71
3
 72
16
 73
12
 74
0
 42
0.0000001
 43
0.0000001
 44
0.0000000001
 40
0.0
 40
0.0
 40
0.0
 40
0.0
 40
0.2243552771
 40
0.4194511973
 40
0.5853945301
 40
0.7223665336
 40
0.8307019543
 40
0.9111047917
 40
0.9413620773
 40
0.9655604073
 40
1.0
 40
1.0
 40
1.0
 40
1.0
 10
19.8577992319
 20
6.8940958311
 30
0.0
 10
19.8578240745
 20
6.8939063114
 30
0.0
 10
19.8578731439
 20
6.8935523213
 30
0.0
 10
19.8579516759
 20
6.8930597626
 30
0.0
 10
19.8580299761
 20
6.8926427074
 30
0.0
 10
19.8581076558
 20
6.8923009018
 30
0.0
 10
19.8581850735
 20
6.8920342603
 30
0.0
 10
19.8582528713
 20
6.8918598955
 30
0.0
 10
19.8583111798
 20
6.8917600759
 30
0.0
 10
19.8583573401
 20
6.8917010482
 30
0.0
 10
19.8584049942
 20
6.89167146
 30
0.0
 10
19.8584343352
 20
6.8916714088
 30
0.0
  0
SPLINE
  5
2C7
100
AcDbEntity
  8
0
100
AcDbSpline
 62
7
  6
CONTINUOUS
 70
0
 71
3
 72
16
 73
12
 74
0
 42
0.0000001
 43
0.0000001
 44
0.0000000001
 40
0.0
 40
0.0
 40
0.0
 40
0.0
 40
0.1411325863
 40
0.2807874758
 40
0.4172879213
 40
0.5490957551
 40
0.6746746205
 40
0.7925735682
 40
0.8482156042
 40
0.9014347004
 40
1.0
 40
1.0
 40
1.0
 40
1.0
 10
19.8505813138
 20
7.3641708734
 30
0.0
 10
19.850720764
 20
7.3473183166
 30
0.0
 10
19.8509869258
 20
7.3137895617
 30
0.0
 10
19.8514041183
 20
7.2639615015
 30
0.0
 10
19.8518383509
 20
7.215247132
 30
0.0
 10
19.8522726574
 20
7.1682137005
 30
0.0
 10
19.8527054773
 20
7.1234016215
 30
0.0
 10
19.8530731566
 20
7.0876845693
 30
0.0
 10
19.853361191
 20
7.0606078889
 30
0.0
 10
19.8536247711
 20
7.0358397834
 30
0.0
 10
19.8538264448
 20
7.0177157795
 30
0.0
 10
19.8539804502
 20
7.0059467613
 30
0.0
  0
SPLINE
  5
2C8
100
AcDbEntity
  8
0
100
AcDbSpline
 62
7
  6
CONTINUOUS
 70
0
 71
3
 72
39
 73
35
 74
0
 42
0.0000001
 43
0.0000001
 44
0.0000000001
 40
0.0
 40
0.0
 40
0.0
 40
0.0
 40
0.0201141933
 40
0.0433328711
 40
0.0694957447
 40
0.0984412
 40
0.1638636777
 40
0.2377766596
 40
0.3181936269
 40
0.4028925549
 40
0.4895791091
 40
0.5758734866
 40
0.6594237877
 40
0.6994564869
 40
0.7379498546
 40
0.774643857
 40
0.8092986709
 40
0.8416751822
 40
0.8715364815
 40
0.8986825656
 40
0.9229442296
 40
0.9441533035
 40
0.9535606303
 40
0.9621448639
 40
0.9698951433
 40
0.976801663
 40
0.9828546826
 40
0.9880445719
 40
0.9923619027
 40
0.9957976622
 40
0.9971824285
 40
0.9983440092
 40
0.9992826299
 40
1.0
 40
1.0
 40
1.0
 40
1.0
 10
19.8679836269
 20
6.9558663229
 30
0.0
 10
19.8677958294
 20
6.9616229047
 30
0.0
 10
19.8674286229
 20
6.9740257763
 30
0.0
 10
19.8669162004
 20
6.9939191219
 30
0.0
 10
19.8664023552
 20
7.0163419841
 30
0.0
 10
19.8656869171
 20
7.0508482542
 30
0.0
 10
19.8648114769
 20
7.0990271478
 30
0.0
 10
19.8637931769
 20
7.1619444324
 30
0.0
 10
19.8627730063
 20
7.2303821071
 30
0.0
 10
19.8617506854
 20
7.3024778037
 30
0.0
 10
19.86072809
 20
7.3762566404
 30
0.0
 10
19.8597054069
 20
7.4497065377
 30
0.0
 10
19.8588420956
 20
7.5097981549
 30
0.0
 10
19.8581437803
 20
7.5562030277
 30
0.0
 10
19.8576275818
 20
7.5891919434
 30
0.0
 10
19.8571115457
 20
7.6206407226
 30
0.0
 10
19.8565958918
 20
7.6503377154
 30
0.0
 10
19.8560807909
 20
7.67807788
 30
0.0
 10
19.8555660563
 20
7.7036675497
 30
0.0
 10
19.85505195
 20
7.7269330604
 30
0.0
 10
19.8545389994
 20
7.7477203861
 30
0.0
 10
19.8540973875
 20
7.7634284167
 30
0.0
 10
19.853738897
 20
7.7746476987
 30
0.0
 10
19.8534810214
 20
7.7820143059
 30
0.0
 10
19.853223469
 20
7.7886643446
 30
0.0
 10
19.852966367
 20
7.7945889977
 30
0.0
 10
19.8527098658
 20
7.7997797373
 30
0.0
 10
19.8524544781
 20
7.8042281256
 30
0.0
 10
19.8522003366
 20
7.8079256499
 30
0.0
 10
19.8519783036
 20
7.8105330926
 30
0.0
 10
19.851794202
 20
7.8122361933
 30
0.0
 10
19.851666906
 20
7.8132260856
 30
0.0
 10
19.8515404589
 20
7.8140229837
 30
0.0
 10
19.8514451689
 20
7.8144879443
 30
0.0
 10
19.8513941869
 20
7.8146869342
 30
0.0
  0
LINE
  5
2C9
100
AcDbEntity
  8
0
100
AcDbLine
 62
7
  6
CONTINUOUS
 10
19.8513941869
 20
7.8146869342
 11
19.8511943596
 21
7.8152374869
  0
SPLINE
  5
2CA
100
AcDbEntity
  8
0
100
AcDbSpline
 62
7
  6
CONTINUOUS
 70
0
 71
3
 72
43
 73
39
 74
0
 42
0.0000001
 43
0.0000001
 44
0.0000000001
 40
0.0
 40
0.0
 40
0.0
 40
0.0
 40
0.096409319
 40
0.1919481959
 40
0.2390685634
 40
0.2856144611
 40
0.3314824163
 40
0.3765705077
 40
0.4640333468
 40
0.5472594422
 40
0.6255542786
 40
0.6982502479
 40
0.7646809427
 40
0.8241711766
 40
0.8511028646
 40
0.8760450811
 40
0.8989154522
 40
0.9196360617
 40
0.9381287754
 40
0.9543172308
 40
0.968139292
 40
0.9741452488
 40
0.9795383694
 40
0.9843115503
 40
0.9884579803
 40
0.9919736086
 40
0.9948558649
 40
0.9960586796
 40
0.9971021921
 40
0.9979860826
 40
0.998710031
 40
0.9992737172
 40
0.9994953619
 40
0.999676821
 40
0.9998180544
 40
0.9999190221
 40
0.9999796839
 40
1.0
 40
1.0
 40
1.0
 40
1.0
 10
18.7909834891
 20
6.7548218355
 30
0.0
 10
18.7995625111
 20
6.7548218355
 30
0.0
 10
18.8166450671
 20
6.7544577938
 30
0.0
 10
18.8378829188
 20
6.7531211548
 30
0.0
 10
18.8546465253
 20
6.7515457815
 30
0.0
 10
18.8669840658
 20
6.7501404985
 30
0.0
 10
18.8791128899
 20
6.7485212169
 30
0.0
 10
18.8948080643
 20
6.7461223145
 30
0.0
 10
18.9137082852
 20
6.7427130581
 30
0.0
 10
18.9353735108
 20
6.7380588458
 30
0.0
 10
18.9556122311
 20
6.7330690917
 30
0.0
 10
18.9742673132
 20
6.7279321355
 30
0.0
 10
18.9911917605
 20
6.7228347052
 30
0.0
 10
19.0041333959
 20
6.718646296
 30
0.0
 10
19.01351942
 20
6.7154669663
 30
0.0
 10
19.0198020124
 20
6.7132834608
 30
0.0
 10
19.0255481771
 20
6.7112405967
 30
0.0
 10
19.0307413876
 20
6.7093560454
 30
0.0
 10
19.0353657984
 20
6.7076474049
 30
0.0
 10
19.0394071524
 20
6.7061321088
 30
0.0
 10
19.0424032316
 20
6.7049940341
 30
0.0
 10
19.0444989001
 20
6.7041908408
 30
0.0
 10
19.0458418114
 20
6.7036735545
 30
0.0
 10
19.0470296481
 20
6.7032140293
 30
0.0
 10
19.0480612611
 20
6.7028137314
 30
0.0
 10
19.0489357051
 20
6.7024735312
 30
0.0
 10
19.0495658108
 20
6.7022277305
 30
0.0
 10
19.0499908568
 20
6.702061572
 30
0.0
 10
19.0502502354
 20
6.7019600376
 30
0.0
 10
19.0504698973
 20
6.7018739412
 30
0.0
 10
19.0506497662
 20
6.7018033294
 30
0.0
 10
19.0507747757
 20
6.7017542272
 30
0.0
 10
19.050854811
 20
6.7017226886
 30
0.0
 10
19.0508999239
 20
6.7017050223
 30
0.0
 10
19.0509348871
 20
6.701690992
 30
0.0
 10
19.0509602101
 20
6.7016815763
 30
0.0
 10
19.0509748265
 20
6.701674801
 30
0.0
 10
19.0509819872
 20
6.7016730124
 30
0.0
 10
19.0509834775
 20
6.701671989
 30
0.0
  0
SPLINE
  5
2CB
100
AcDbEntity
  8
0
100
AcDbSpline
 62
7
  6
CONTINUOUS
 70
0
 71
3
 72
46
 73
42
 74
0
 42
0.0000001
 43
0.0000001
 44
0.0000000001
 40
0.0
 40
0.0
 40
0.0
 40
0.0
 40
0.0000200736
 40
0.0000805473
 40
0.0001813822
 40
0.0003225336
 40
0.0005039569
 40
0.0007256075
 40
0.0012894124
 40
0.0020135916
 40
0.0028977884
 40
0.0039416467
 40
0.00514481
 40
0.0080276272
 40
0.0115433926
 40
0.0156892604
 40
0.0204618879
 40
0.0258550229
 40
0.0318613692
 40
0.0384736408
 40
0.0456845643
 40
0.0618733319
 40
0.0803667392
 40
0.1010894113
 40
0.1239619945
 40
0.148905654
 40
0.1758388845
 40
0.2046760484
 40
0.2353321454
 40
0.3017631841
 40
0.3744580495
 40
0.452751127
 40
0.5359721987
 40
0.6234300853
 40
0.668515563
 40
0.7143805473
 40
0.7609239062
 40
0.8080427889
 40
0.8556361643
 40
0.9035881894
 40
1.0
 40
1.0
 40
1.0
 40
1.0
 10
18.5309835001
 20
6.701671996
 30
0.0
 10
18.5309820464
 20
6.701670958
 30
0.0
 10
18.530996325
 20
6.7016777085
 30
0.0
 10
18.531003971
 20
6.7016796383
 30
0.0
 10
18.5310332142
 20
6.7016917904
 30
0.0
 10
18.5310664078
 20
6.7017046008
 30
0.0
 10
18.5311121853
 20
6.7017227424
 30
0.0
 10
18.5311918989
 20
6.7017540773
 30
0.0
 10
18.5313171377
 20
6.7018033691
 30
0.0
 10
18.5314969529
 20
6.7018739814
 30
0.0
 10
18.5317167042
 20
6.7019601769
 30
0.0
 10
18.5319761379
 20
6.7020617823
 30
0.0
 10
18.5324012729
 20
6.7022280432
 30
0.0
 10
18.5330314516
 20
6.7024739139
 30
0.0
 10
18.5339059263
 20
6.7028140875
 30
0.0
 10
18.5349375342
 20
6.7032141743
 30
0.0
 10
18.5361253655
 20
6.7036734622
 30
0.0
 10
18.5374683286
 20
6.7041906
 30
0.0
 10
18.5389650153
 20
6.704764076
 30
0.0
 10
18.5406139275
 20
6.7053923506
 30
0.0
 10
18.5431114753
 20
6.7063381796
 30
0.0
 10
18.5466021839
 20
6.7076467129
 30
0.0
 10
18.5512268529
 20
6.7093555208
 30
0.0
 10
18.5564203232
 20
6.7112407434
 30
0.0
 10
18.5621668093
 20
6.713284332
 30
0.0
 10
18.5684497938
 20
6.7154682243
 30
0.0
 10
18.5752524746
 20
6.717772952
 30
0.0
 10
18.5825580602
 20
6.7201766357
 30
0.0
 10
18.5932354044
 20
6.7235767115
 30
0.0
 10
18.6077035446
 20
6.727932299
 30
0.0
 10
18.6263587747
 20
6.7330680507
 30
0.0
 10
18.6465965162
 20
6.7380593186
 30
0.0
 10
18.6682605361
 20
6.7427148776
 30
0.0
 10
18.6871599548
 20
6.7461229821
 30
0.0
 10
18.7028543584
 20
6.7485212827
 30
0.0
 10
18.714982552
 20
6.7501403965
 30
0.0
 10
18.7273195177
 20
6.7515456459
 30
0.0
 10
18.7398349831
 20
6.7527215121
 30
0.0
 10
18.7524969989
 20
6.7536512526
 30
0.0
 10
18.769555761
 20
6.7545473423
 30
0.0
 10
18.782404196
 20
6.7548218355
 30
0.0
 10
18.7909834891
 20
6.7548218355
 30
0.0
  0
SPLINE
  5
2CC
100
AcDbEntity
  8
0
100
AcDbSpline
 62
7
  6
CONTINUOUS
 70
0
 71
3
 72
17
 73
13
 74
0
 42
0.0000001
 43
0.0000001
 44
0.0000000001
 40
0.0
 40
0.0
 40
0.0
 40
0.0
 40
0.1166045786
 40
0.2399487007
 40
0.3038376149
 40
0.368769934
 40
0.4999998997
 40
0.6312298825
 40
0.6961622215
 40
0.7600511619
 40
0.8833953495
 40
1.0
 40
1.0
 40
1.0
 40
1.0
 10
10.8579834891
 20
9.6141710499
 30
0.0
 10
10.8543253056
 20
9.6141710607
 30
0.0
 10
10.8467829202
 20
9.6134707256
 30
0.0
 10
10.837556578
 20
9.6108335712
 30
0.0
 10
10.8303542071
 20
9.6075303489
 30
0.0
 10
10.8233028339
 20
9.6034058172
 30
0.0
 10
10.8152433383
 20
9.596911056
 30
0.0
 10
10.8087485848
 20
9.5888515535
 30
0.0
 10
10.8046240586
 20
9.5818001749
 30
0.0
 10
10.8013208409
 20
9.574597798
 30
0.0
 10
10.7986836916
 20
9.565371449
 30
0.0
 10
10.7979833598
 20
9.5578290591
 30
0.0
 10
10.7979833719
 20
9.5541708734
 30
0.0
  0
SPLINE
  5
2CD
100
AcDbEntity
  8
0
100
AcDbSpline
 62
7
  6
CONTINUOUS
 70
0
 71
3
 72
17
 73
13
 74
0
 42
0.0000001
 43
0.0000001
 44
0.0000000001
 40
0.0
 40
0.0
 40
0.0
 40
0.0
 40
0.1166045616
 40
0.2399486744
 40
0.3038375873
 40
0.3687699071
 40
0.4999998781
 40
0.6312298698
 40
0.6961622138
 40
0.7600511586
 40
0.883395351
 40
1.0
 40
1.0
 40
1.0
 40
1.0
 10
10.8579834891
 20
10.5541706728
 30
0.0
 10
10.8543253046
 20
10.5541706604
 30
0.0
 10
10.8467829164
 20
10.554870993
 30
0.0
 10
10.8375565703
 20
10.5575081461
 30
0.0
 10
10.8303541961
 20
10.5608113688
 30
0.0
 10
10.8233028193
 20
10.5649359018
 30
0.0
 10
10.8152433199
 20
10.5714306663
 30
0.0
 10
10.8087485645
 20
10.5794901738
 30
0.0
 10
10.8046240378
 20
10.586541557
 30
0.0
 10
10.8013208205
 20
10.5937439383
 30
0.0
 10
10.7986836733
 20
10.6029702925
 30
0.0
 10
10.7979833443
 20
10.6105126862
 30
0.0
 10
10.7979833581
 20
10.6141708735
 30
0.0
  0
SPLINE
  5
2CE
100
AcDbEntity
  8
0
100
AcDbSpline
 62
9
  6
CONTINUOUS
 70
0
 71
3
 72
71
 73
67
 74
0
 42
0.0000001
 43
0.0000001
 44
0.0000000001
 40
0.0
 40
0.0
 40
0.0
 40
0.0
 40
0.000051821
 40
0.0001160683
 40
0.0002057677
 40
0.0004612055
 40
0.0008174999
 40
0.0012740164
 40
0.0018301206
 40
0.0024851781
 40
0.0032385546
 40
0.0050377272
 40
0.0072225646
 40
0.0097879936
 40
0.0127289418
 40
0.0160393544
 40
0.0197092458
 40
0.0280836089
 40
0.0377643734
 40
0.0486639707
 40
0.0606954612
 40
0.0737741596
 40
0.0878161405
 40
0.1027377577
 40
0.1349114161
 40
0.1697584418
 40
0.2067973206
 40
0.2456414032
 40
0.2859493252
 40
0.327411432
 40
0.3697883202
 40
0.4128346911
 40
0.4563122847
 40
0.5000004426
 40
0.5436886176
 40
0.58716632
 40
0.6302128526
 40
0.6725896457
 40
0.7140517732
 40
0.754359781
 40
0.7932038174
 40
0.8302425799
 40
0.8650895255
 40
0.8972631248
 40
0.9121847064
 40
0.926226644
 40
0.9393052898
 40
0.9513367173
 40
0.9622362404
 40
0.971916921
 40
0.9802911922
 40
0.9839610353
 40
0.9872713983
 40
0.9902122961
 40
0.9927776748
 40
0.9949624631
 40
0.9967615889
 40
0.9975149431
 40
0.9981699793
 40
0.9987260633
 40
0.9991825609
 40
0.9995388377
 40
0.9997942594
 40
0.9998839513
 40
0.9999481916
 40
1.0
 40
1.0
 40
1.0
 40
1.0
 10
10.8579834793
 20
9.6141710499
 30
0.0
 10
10.857969769
 20
9.6141842898
 30
0.0
 10
10.8579424215
 20
9.6142172074
 30
0.0
 10
10.8578908212
 20
9.6142725336
 30
0.0
 10
10.8577899894
 20
9.6143843831
 30
0.0
 10
10.8576163132
 20
9.6145751328
 30
0.0
 10
10.8573525176
 20
9.6148663142
 30
0.0
 10
10.8570143801
 20
9.6152393494
 30
0.0
 10
10.856602704
 20
9.6156940393
 30
0.0
 10
10.8561179188
 20
9.6162298218
 30
0.0
 10
10.85532673
 20
9.6171049365
 30
0.0
 10
10.8541589761
 20
9.6183981092
 30
0.0
 10
10.8525459192
 20
9.6201871515
 30
0.0
 10
10.8506532775
 20
9.6222895423
 30
0.0
 10
10.8484855354
 20
9.6247012991
 30
0.0
 10
10.8460484178
 20
9.6274171243
 30
0.0
 10
10.8422811891
 20
9.631624394
 30
0.0
 10
10.8369632395
 20
9.6375881195
 30
0.0
 10
10.8299015426
 20
9.6455595608
 30
0.0
 10
10.8219815661
 20
9.6545675388
 30
0.0
 10
10.8132780717
 20
9.6645506051
 30
0.0
 10
10.8038703601
 20
9.6754528224
 30
0.0
 10
10.7938369605
 20
9.6872188556
 30
0.0
 10
10.7793594352
 20
9.7044244056
 30
0.0
 10
10.7602158402
 20
9.7277036556
 30
0.0
 10
10.7364861053
 20
9.7577357144
 30
0.0
 10
10.7120137362
 20
9.7902958627
 30
0.0
 10
10.6874540759
 20
9.8252791979
 30
0.0
 10
10.6634446611
 20
9.8626017918
 30
0.0
 10
10.6409138827
 20
9.902350947
 30
0.0
 10
10.6208330139
 20
9.9445356415
 30
0.0
 10
10.6046099208
 20
9.9891819845
 30
0.0
 10
10.5938432651
 20
10.0359990136
 30
0.0
 10
10.5900357563
 20
10.0841713731
 30
0.0
 10
10.5938434048
 20
10.1323437536
 30
0.0
 10
10.6046101329
 20
10.179160886
 30
0.0
 10
10.6208336108
 20
10.2238071535
 30
0.0
 10
10.6409143528
 20
10.2659919359
 30
0.0
 10
10.6634452925
 20
10.3057410145
 30
0.0
 10
10.6874548959
 20
10.3430635098
 30
0.0
 10
10.7120145661
 20
10.3780468019
 30
0.0
 10
10.7364868529
 20
10.4106069003
 30
0.0
 10
10.7602165217
 20
10.4406388917
 30
0.0
 10
10.7793600761
 20
10.4639180919
 30
0.0
 10
10.7938375679
 20
10.4811236036
 30
0.0
 10
10.8038709357
 20
10.4928896005
 30
0.0
 10
10.8132786095
 20
10.5037917733
 30
0.0
 10
10.8219820595
 20
10.5137747856
 30
0.0
 10
10.8299019859
 20
10.5227826994
 30
0.0
 10
10.8369636262
 20
10.5307540678
 30
0.0
 10
10.8422815249
 20
10.5367177285
 30
0.0
 10
10.8460487096
 20
10.5409249439
 30
0.0
 10
10.8484857922
 20
10.5436407273
 30
0.0
 10
10.8506534982
 20
10.5460524422
 30
0.0
 10
10.8525461034
 20
10.5481547918
 30
0.0
 10
10.8541591242
 20
10.5499437941
 30
0.0
 10
10.8553268486
 20
10.5512369348
 30
0.0
 10
10.8561180147
 20
10.5521120251
 30
0.0
 10
10.8566027839
 20
10.5526477905
 30
0.0
 10
10.8570144446
 20
10.5531024644
 30
0.0
 10
10.8573525681
 20
10.5534754841
 30
0.0
 10
10.8576163492
 20
10.5537666526
 30
0.0
 10
10.8577900171
 20
10.5539573892
 30
0.0
 10
10.8578908381
 20
10.5540692337
 30
0.0
 10
10.8579424367
 20
10.5541245474
 30
0.0
 10
10.8579697692
 20
10.55415747
 30
0.0
 10
10.8579834824
 20
10.5541707003
 30
0.0
  0
SPLINE
  5
2CF
100
AcDbEntity
  8
0
100
AcDbSpline
 62
9
  6
CONTINUOUS
 70
0
 71
3
 72
101
 73
97
 74
0
 42
0.0000001
 43
0.0000001
 44
0.0000000001
 40
0.0
 40
0.0
 40
0.0
 40
0.0
 40
0.000003308
 40
0.0000130269
 40
0.0000291529
 40
0.0000516821
 40
0.0001159344
 40
0.0002057524
 40
0.0003211046
 40
0.0004619596
 40
0.0006282861
 40
0.0008200525
 40
0.0012797789
 40
0.0018407926
 40
0.0025025575
 40
0.0032645143
 40
0.0041261042
 40
0.0050867634
 40
0.0073020218
 40
0.0099024173
 40
0.0128796561
 40
0.0162244884
 40
0.0199271268
 40
0.0239773387
 40
0.0283638166
 40
0.0330750941
 40
0.038099677
 40
0.0490426806
 40
0.0611003372
 40
0.0741808392
 40
0.0881978731
 40
0.1030700105
 40
0.1187208635
 40
0.1350814333
 40
0.1520880911
 40
0.1696833648
 40
0.2064353715
 40
0.2255043503
 40
0.2449826752
 40
0.2850316385
 40
0.3055453564
 40
0.3263481996
 40
0.3474152899
 40
0.3687228076
 40
0.4119431548
 40
0.4338104768
 40
0.455801895
 40
0.4778790708
 40
0.5000001931
 40
0.5221213171
 40
0.5441985008
 40
0.5661898969
 40
0.588057183
 40
0.6312775587
 40
0.6525851133
 40
0.6736522745
 40
0.6944550592
 40
0.7149687049
 40
0.755017478
 40
0.7744957451
 40
0.7935647269
 40
0.8303166811
 40
0.8479119657
 40
0.8649186555
 40
0.8812791892
 40
0.8969299948
 40
0.9118021217
 40
0.9258191506
 40
0.9388996451
 40
0.9509573135
 40
0.9619003347
 40
0.9669249227
 40
0.9716361994
 40
0.9760226711
 40
0.9800728755
 40
0.9837755075
 40
0.9871203346
 40
0.990097572
 40
0.9926979697
 40
0.9949132404
 40
0.9958739113
 40
0.9967355135
 40
0.9974974814
 40
0.9981592543
 40
0.9987202713
 40
0.9991799943
 40
0.9993717565
 40
0.9995380776
 40
0.9996789265
 40
0.999794272
 40
0.9998840832
 40
0.9999483289
 40
0.999970855
 40
0.9999869781
 40
0.9999966944
 40
1.0
 40
1.0
 40
1.0
 40
1.0
 10
10.7979834891
 20
9.5541708734
 30
0.0
 10
10.797983174
 20
9.5541721407
 30
0.0
 10
10.7979791431
 20
9.5541758516
 30
0.0
 10
10.7979733783
 20
9.5541856188
 30
0.0
 10
10.7979616116
 20
9.5542008263
 30
0.0
 10
10.7979380683
 20
9.5542338439
 30
0.0
 10
10.7978968068
 20
9.5542901075
 30
0.0
 10
10.7978343257
 20
9.5543761469
 30
0.0
 10
10.7977538505
 20
9.5544865376
 30
0.0
 10
10.7976556298
 20
9.5546213511
 30
0.0
 10
10.7975395953
 20
9.5547805152
 30
0.0
 10
10.7973493816
 20
9.5550413793
 30
0.0
 10
10.7970672853
 20
9.5554280791
 30
0.0
 10
10.7966757695
 20
9.5559646205
 30
0.0
 10
10.7962139963
 20
9.5565975936
 30
0.0
 10
10.7956824627
 20
9.5573265522
 30
0.0
 10
10.7950816793
 20
9.558151047
 30
0.0
 10
10.7941435353
 20
9.5594395893
 30
0.0
 10
10.7928025705
 20
9.5612839348
 30
0.0
 10
10.7909955024
 20
9.5637736477
 30
0.0
 10
10.7889288078
 20
9.5666259155
 30
0.0
 10
10.7866099888
 20
9.5698328467
 30
0.0
 10
10.7840471881
 20
9.573386064
 30
0.0
 10
10.7812489622
 20
9.5772764821
 30
0.0
 10
10.7782242545
 20
9.5814944721
 30
0.0
 10
10.7749822347
 20
9.5860299496
 30
0.0
 10
10.7702461316
 20
9.5926790001
 30
0.0
 10
10.7638535922
 20
9.6017087726
 30
0.0
 10
10.7556745967
 20
9.6133701863
 30
0.0
 10
10.7468612042
 20
9.6260687073
 30
0.0
 10
10.7374924198
 20
9.6397339175
 30
0.0
 10
10.7276446033
 20
9.6543005609
 30
0.0
 10
10.7173907825
 20
9.6697089282
 30
0.0
 10
10.706804428
 20
9.6859074304
 30
0.0
 10
10.6959565995
 20
9.702851144
 30
0.0
 10
10.6810194556
 20
9.7267331877
 30
0.0
 10
10.6660942409
 20
9.7515819309
 30
0.0
 10
10.6513657159
 20
9.7774038407
 30
0.0
 10
10.6364557687
 20
9.8046149657
 30
0.0
 10
10.6220878744
 20
9.8327710133
 30
0.0
 10
10.6085613561
 20
9.8619082164
 30
0.0
 10
10.5988227143
 20
9.8845318913
 30
0.0
 10
10.5897028576
 20
9.9077511435
 30
0.0
 10
10.578499629
 20
9.9396349135
 30
0.0
 10
10.5691675422
 20
9.9724978737
 30
0.0
 10
10.562269428
 20
10.0061884642
 30
0.0
 10
10.5584345346
 20
10.0319480418
 30
0.0
 10
10.5560787933
 20
10.0579863189
 30
0.0
 10
10.5552835876
 20
10.0841711013
 30
0.0
 10
10.5560787197
 20
10.1103558945
 30
0.0
 10
10.5584346606
 20
10.1363941487
 30
0.0
 10
10.5622695083
 20
10.1621537097
 30
0.0
 10
10.5691676114
 20
10.1958442933
 30
0.0
 10
10.5784998044
 20
10.2287072375
 30
0.0
 10
10.5897030878
 20
10.2605910417
 30
0.0
 10
10.598822801
 20
10.2838103718
 30
0.0
 10
10.6085615216
 20
10.3064339891
 30
0.0
 10
10.6220880492
 20
10.3355710466
 30
0.0
 10
10.6364558864
 20
10.3637269828
 30
0.0
 10
10.6513658738
 20
10.390937974
 30
0.0
 10
10.666094172
 20
10.4167599645
 30
0.0
 10
10.681019516
 20
10.4416086156
 30
0.0
 10
10.695956692
 20
10.4654906334
 30
0.0
 10
10.7068044349
 20
10.4824344051
 30
0.0
 10
10.7173908017
 20
10.4986328754
 30
0.0
 10
10.7276446391
 20
10.5140411868
 30
0.0
 10
10.7374924113
 20
10.5286078302
 30
0.0
 10
10.7468611861
 20
10.5422730361
 30
0.0
 10
10.7556746012
 20
10.5549715411
 30
0.0
 10
10.7638535963
 20
10.5666329655
 30
0.0
 10
10.7702461314
 20
10.5756627578
 30
0.0
 10
10.7749822338
 20
10.5823118194
 30
0.0
 10
10.7782242547
 20
10.5868472951
 30
0.0
 10
10.7812489653
 20
10.5910652761
 30
0.0
 10
10.7840471941
 20
10.5949556823
 30
0.0
 10
10.7866099959
 20
10.5985088895
 30
0.0
 10
10.7889288151
 20
10.6017158142
 30
0.0
 10
10.7909955108
 20
10.6045680791
 30
0.0
 10
10.7928025798
 20
10.6070577977
 30
0.0
 10
10.7941435429
 20
10.6089021572
 30
0.0
 10
10.7950816834
 20
10.6101907197
 30
0.0
 10
10.7956824652
 20
10.6110152329
 30
0.0
 10
10.796213997
 20
10.6117442082
 30
0.0
 10
10.7966757686
 20
10.6123771934
 30
0.0
 10
10.7970672834
 20
10.6129137394
 30
0.0
 10
10.7973493815
 20
10.6133004358
 30
0.0
 10
10.7975395969
 20
10.6135612921
 30
0.0
 10
10.797655632
 20
10.6137204483
 30
0.0
 10
10.7977538529
 20
10.6138552526
 30
0.0
 10
10.7978343284
 20
10.6139656336
 30
0.0
 10
10.7978968087
 20
10.6140516636
 30
0.0
 10
10.7979380711
 20
10.614107919
 30
0.0
 10
10.7979616126
 20
10.6141409313
 30
0.0
 10
10.7979733812
 20
10.614156134
 30
0.0
 10
10.797979141
 20
10.6141658995
 30
0.0
 10
10.7979831756
 20
10.6141696067
 30
0.0
 10
10.7979834891
 20
10.6141708734
 30
0.0
  0
SPLINE
  5
2D0
100
AcDbEntity
  8
0
100
AcDbSpline
 62
7
  6
CONTINUOUS
 70
0
 71
3
 72
17
 73
13
 74
0
 42
0.0000001
 43
0.0000001
 44
0.0000000001
 40
0.0
 40
0.0
 40
0.0
 40
0.0
 40
0.1166045788
 40
0.2399487009
 40
0.3038376152
 40
0.3687699342
 40
0.4999998999
 40
0.6312298826
 40
0.6961622216
 40
0.7600511619
 40
0.8833953495
 40
1.0
 40
1.0
 40
1.0
 40
1.0
 10
9.5379834891
 20
13.4141706972
 30
0.0
 10
9.5416416726
 20
13.4141706863
 30
0.0
 10
9.549184058
 20
13.4148710215
 30
0.0
 10
9.5584104002
 20
13.4175081759
 30
0.0
 10
9.5656127711
 20
13.4208113982
 30
0.0
 10
9.5726641443
 20
13.4249359299
 30
0.0
 10
9.5807236398
 20
13.431430691
 30
0.0
 10
9.5872183932
 20
13.4394901935
 30
0.0
 10
9.5913429194
 20
13.4465415721
 30
0.0
 10
9.5946461372
 20
13.4537439489
 30
0.0
 10
9.5972832865
 20
13.4629702978
 30
0.0
 10
9.5979836184
 20
13.4705126877
 30
0.0
 10
9.5979836062
 20
13.4741708735
 30
0.0
  0
SPLINE
  5
2D1
100
AcDbEntity
  8
0
100
AcDbSpline
 62
7
  6
CONTINUOUS
 70
0
 71
3
 72
17
 73
13
 74
0
 42
0.0000001
 43
0.0000001
 44
0.0000000001
 40
0.0
 40
0.0
 40
0.0
 40
0.0
 40
0.1166045618
 40
0.2399486747
 40
0.3038375876
 40
0.3687699074
 40
0.4999998783
 40
0.6312298699
 40
0.6961622139
 40
0.7600511586
 40
0.883395351
 40
1.0
 40
1.0
 40
1.0
 40
1.0
 10
9.5379834891
 20
12.4741710738
 30
0.0
 10
9.5416416737
 20
12.4741710861
 30
0.0
 10
9.5491840618
 20
12.4734707535
 30
0.0
 10
9.5584104079
 20
12.4708336004
 30
0.0
 10
9.5656127821
 20
12.4675303777
 30
0.0
 10
9.5726641588
 20
12.4634058448
 30
0.0
 10
9.5807236581
 20
12.4569110803
 30
0.0
 10
9.5872184136
 20
12.4488515728
 30
0.0
 10
9.5913429402
 20
12.4418001896
 30
0.0
 10
9.5946461576
 20
12.4345978084
 30
0.0
 10
9.5972833048
 20
12.4253714542
 30
0.0
 10
9.5979836338
 20
12.4178290606
 30
0.0
 10
9.5979836201
 20
12.4141708734
 30
0.0
  0
SPLINE
  5
2D2
100
AcDbEntity
  8
0
100
AcDbSpline
 62
9
  6
CONTINUOUS
 70
0
 71
3
 72
71
 73
67
 74
0
 42
0.0000001
 43
0.0000001
 44
0.0000000001
 40
0.0
 40
0.0
 40
0.0
 40
0.0
 40
0.0000518208
 40
0.0001160679
 40
0.0002057672
 40
0.0004612048
 40
0.000817499
 40
0.0012740154
 40
0.0018301195
 40
0.0024851769
 40
0.0032385532
 40
0.0050377257
 40
0.0072225629
 40
0.0097879917
 40
0.0127289396
 40
0.0160393517
 40
0.0197092426
 40
0.0280836043
 40
0.0377643674
 40
0.0486639632
 40
0.0606954521
 40
0.073774149
 40
0.0878161284
 40
0.1027377439
 40
0.1349113987
 40
0.1697584218
 40
0.2067973006
 40
0.2456413853
 40
0.2859493112
 40
0.3274114226
 40
0.3697883148
 40
0.4128346886
 40
0.4563122836
 40
0.5000004427
 40
0.5436886189
 40
0.5871663227
 40
0.6302128581
 40
0.6725896553
 40
0.7140517872
 40
0.754359799
 40
0.7932038376
 40
0.8302426
 40
0.8650895429
 40
0.8972631387
 40
0.9121847186
 40
0.9262266546
 40
0.939305299
 40
0.9513367249
 40
0.9622362465
 40
0.9719169256
 40
0.9802911955
 40
0.9839610381
 40
0.9872714006
 40
0.9902122981
 40
0.9927776766
 40
0.9949624647
 40
0.9967615902
 40
0.9975149443
 40
0.9981699804
 40
0.9987260643
 40
0.9991825617
 40
0.9995388383
 40
0.9997942599
 40
0.9998839517
 40
0.9999481919
 40
1.0
 40
1.0
 40
1.0
 40
1.0
 10
9.5379835241
 20
13.4141706971
 30
0.0
 10
9.5379972342
 20
13.4141574571
 30
0.0
 10
9.5380245819
 20
13.4141245399
 30
0.0
 10
9.5380761819
 20
13.4140692137
 30
0.0
 10
9.5381770137
 20
13.4139573644
 30
0.0
 10
9.5383506898
 20
13.4137666148
 30
0.0
 10
9.5386144852
 20
13.4134754336
 30
0.0
 10
9.5389526226
 20
13.4131023985
 30
0.0
 10
9.5393642986
 20
13.4126477086
 30
0.0
 10
9.5398490838
 20
13.4121119262
 30
0.0
 10
9.5406402725
 20
13.4112368117
 30
0.0
 10
9.5418080263
 20
13.4099436391
 30
0.0
 10
9.5434210831
 20
13.4081545971
 30
0.0
 10
9.5453137247
 20
13.4060522066
 30
0.0
 10
9.5474814666
 20
13.4036404501
 30
0.0
 10
9.549918584
 20
13.4009246252
 30
0.0
 10
9.5536858123
 20
13.3967173563
 30
0.0
 10
9.5590037613
 20
13.3907536317
 30
0.0
 10
9.5660654572
 20
13.3827821918
 30
0.0
 10
9.5739854329
 20
13.3737742153
 30
0.0
 10
9.5826889264
 20
13.3637911504
 30
0.0
 10
9.5920966372
 20
13.3528889346
 30
0.0
 10
9.6021300359
 20
13.3411229027
 30
0.0
 10
9.6166075598
 20
13.3239173549
 30
0.0
 10
9.6357511533
 20
13.3006381072
 30
0.0
 10
9.659480887
 20
13.2706060504
 30
0.0
 10
9.6839532569
 20
13.2380459028
 30
0.0
 10
9.7085129195
 20
13.2030625662
 30
0.0
 10
9.7325223369
 20
13.1657399692
 30
0.0
 10
9.7550531182
 20
13.1259908103
 30
0.0
 10
9.7751339898
 20
13.0838061123
 30
0.0
 10
9.791357082
 20
13.0391597656
 30
0.0
 10
9.8021237391
 20
12.9923427347
 30
0.0
 10
9.8059312479
 20
12.9441703737
 30
0.0
 10
9.8021235994
 20
12.8959979916
 30
0.0
 10
9.7913568699
 20
12.8491808573
 30
0.0
 10
9.7751333928
 20
12.8045345862
 30
0.0
 10
9.755052648
 20
12.7623498003
 30
0.0
 10
9.7325217054
 20
12.722600718
 30
0.0
 10
9.7085120993
 20
12.6852782196
 30
0.0
 10
9.683952427
 20
12.6502949262
 30
0.0
 10
9.6594801394
 20
12.6177348285
 30
0.0
 10
9.6357504718
 20
12.5877028391
 30
0.0
 10
9.6166069189
 20
12.5644236412
 30
0.0
 10
9.6021294285
 20
12.5472181316
 30
0.0
 10
9.5920960615
 20
12.5354521362
 30
0.0
 10
9.5826883886
 20
12.5245499649
 30
0.0
 10
9.5739849394
 20
12.514566954
 30
0.0
 10
9.5660650139
 20
12.5055590416
 30
0.0
 10
9.5590033744
 20
12.4975876745
 30
0.0
 10
9.5536854765
 20
12.4916240149
 30
0.0
 10
9.5499182922
 20
12.4874168002
 30
0.0
 10
9.5474812098
 20
12.4847010172
 30
0.0
 10
9.545313504
 20
12.4822893026
 30
0.0
 10
9.543420899
 20
12.4801869533
 30
0.0
 10
9.5418078782
 20
12.4783979512
 30
0.0
 10
9.5406401539
 20
12.4771048107
 30
0.0
 10
9.5398489879
 20
12.4762297205
 30
0.0
 10
9.5393642187
 20
12.4756939552
 30
0.0
 10
9.5389525581
 20
12.4752392814
 30
0.0
 10
9.5386144347
 20
12.4748662618
 30
0.0
 10
9.5383506537
 20
12.4745750935
 30
0.0
 10
9.538176986
 20
12.474384357
 30
0.0
 10
9.538076165
 20
12.4742725127
 30
0.0
 10
9.5380245667
 20
12.474217199
 30
0.0
 10
9.537997234
 20
12.4741842767
 30
0.0
 10
9.5379835211
 20
12.4741710463
 30
0.0
  0
SPLINE
  5
2D3
100
AcDbEntity
  8
0
100
AcDbSpline
 62
9
  6
CONTINUOUS
 70
0
 71
3
 72
101
 73
97
 74
0
 42
0.0000001
 43
0.0000001
 44
0.0000000001
 40
0.0
 40
0.0
 40
0.0
 40
0.0
 40
0.000003308
 40
0.0000130268
 40
0.0000291528
 40
0.000051682
 40
0.0001159343
 40
0.0002057523
 40
0.0003211046
 40
0.0004619597
 40
0.0006282863
 40
0.0008200528
 40
0.0012797794
 40
0.0018407938
 40
0.0025025595
 40
0.0032645172
 40
0.0041261073
 40
0.0050867661
 40
0.0073020251
 40
0.009902422
 40
0.0128796622
 40
0.0162244965
 40
0.0199271354
 40
0.0239773478
 40
0.0283638274
 40
0.0330751072
 40
0.0380996923
 40
0.0490426987
 40
0.0611003597
 40
0.0741808664
 40
0.0881979071
 40
0.1030700506
 40
0.1187209059
 40
0.1350814742
 40
0.152088135
 40
0.1696834139
 40
0.2064354148
 40
0.2255043948
 40
0.2449827132
 40
0.285031633
 40
0.3055453297
 40
0.3263481488
 40
0.3474152357
 40
0.3687227503
 40
0.4119431006
 40
0.4338104214
 40
0.4558018455
 40
0.4778790291
 40
0.5000001558
 40
0.522121287
 40
0.544198473
 40
0.5661898698
 40
0.5880571602
 40
0.6312775436
 40
0.6525850946
 40
0.6736522407
 40
0.6944550156
 40
0.7149686591
 40
0.7550174091
 40
0.7744956788
 40
0.7935646704
 40
0.8303166188
 40
0.8479119131
 40
0.8649186128
 40
0.8812791505
 40
0.8969299597
 40
0.9118020913
 40
0.9258191244
 40
0.9388996222
 40
0.9509572948
 40
0.9619003192
 40
0.9669249096
 40
0.9716361887
 40
0.9760226621
 40
0.9800728671
 40
0.9837754997
 40
0.9871203289
 40
0.9900975676
 40
0.9926979667
 40
0.9949132379
 40
0.9958739085
 40
0.996735511
 40
0.9974974796
 40
0.9981592533
 40
0.9987202709
 40
0.9991799941
 40
0.9993717564
 40
0.9995380776
 40
0.9996789265
 40
0.9997942721
 40
0.9998840833
 40
0.999948329
 40
0.9999708551
 40
0.9999869782
 40
0.9999966944
 40
1.0
 40
1.0
 40
1.0
 40
1.0
 10
9.5979834891
 20
13.4741708734
 30
0.0
 10
9.5979838043
 20
13.4741696061
 30
0.0
 10
9.5979878351
 20
13.4741658953
 30
0.0
 10
9.5979936
 20
13.4741561281
 30
0.0
 10
9.5980053667
 20
13.4741409207
 30
0.0
 10
9.59802891
 20
13.4741079032
 30
0.0
 10
9.5980701717
 20
13.4740516396
 30
0.0
 10
9.5981326528
 20
13.4739656002
 30
0.0
 10
9.5982131282
 20
13.4738552095
 30
0.0
 10
9.598311349
 20
13.473720396
 30
0.0
 10
9.5984273836
 20
13.4735612317
 30
0.0
 10
9.5986175973
 20
13.4733003675
 30
0.0
 10
9.5988996936
 20
13.4729136672
 30
0.0
 10
9.5992912095
 20
13.472377125
 30
0.0
 10
9.599752983
 20
13.4717441511
 30
0.0
 10
9.600284517
 20
13.4710151918
 30
0.0
 10
9.6008853006
 20
13.4701906967
 30
0.0
 10
9.6018234451
 20
13.4689021546
 30
0.0
 10
9.6031644107
 20
13.4670578089
 30
0.0
 10
9.6049714796
 20
13.4645680949
 30
0.0
 10
9.6070381743
 20
13.4617158249
 30
0.0
 10
9.6093569941
 20
13.4585088925
 30
0.0
 10
9.6119197959
 20
13.4549556745
 30
0.0
 10
9.6147180232
 20
13.4510652561
 30
0.0
 10
9.6177427321
 20
13.4468472647
 30
0.0
 10
9.620984752
 20
13.4423117843
 30
0.0
 10
9.6257208565
 20
13.4356627313
 30
0.0
 10
9.6321133994
 20
13.4266329566
 30
0.0
 10
9.6402923964
 20
13.4149715383
 30
0.0
 10
9.6491057932
 20
13.4022730127
 30
0.0
 10
9.6584745822
 20
13.3886077972
 30
0.0
 10
9.6683223971
 20
13.3740411454
 30
0.0
 10
9.6785762235
 20
13.3586327787
 30
0.0
 10
9.6891625843
 20
13.3424342788
 30
0.0
 10
9.7000104024
 20
13.3254905553
 30
0.0
 10
9.7149475387
 20
13.301608506
 30
0.0
 10
9.7298727862
 20
13.276759782
 30
0.0
 10
9.7446012785
 20
13.2509378583
 30
0.0
 10
9.7595112003
 20
13.2237267419
 30
0.0
 10
9.7738791169
 20
13.1955707374
 30
0.0
 10
9.7874056184
 20
13.1664335648
 30
0.0
 10
9.7971442419
 20
13.1438099027
 30
0.0
 10
9.8062640829
 20
13.1205906579
 30
0.0
 10
9.817467348
 20
13.0887069016
 30
0.0
 10
9.8267993956
 20
13.0558439321
 30
0.0
 10
9.8336975673
 20
13.0221533496
 30
0.0
 10
9.8375324083
 20
12.9963937593
 30
0.0
 10
9.8398882016
 20
12.9703554807
 30
0.0
 10
9.8406833962
 20
12.9441706886
 30
0.0
 10
9.8398882385
 20
12.917985892
 30
0.0
 10
9.8375323414
 20
12.8919476296
 30
0.0
 10
9.8336974635
 20
12.8661880698
 30
0.0
 10
9.8267993807
 20
12.8324974775
 30
0.0
 10
9.8174671724
 20
12.7996345339
 30
0.0
 10
9.8062639134
 20
12.7677507258
 30
0.0
 10
9.7971441801
 20
12.7445314152
 30
0.0
 10
9.7874054539
 20
12.7219078128
 30
0.0
 10
9.7738789935
 20
12.6927707391
 30
0.0
 10
9.7595111027
 20
12.664614839
 30
0.0
 10
9.7446011239
 20
12.6374038487
 30
0.0
 10
9.7298728705
 20
12.6115818294
 30
0.0
 10
9.7149474827
 20
12.5867331978
 30
0.0
 10
9.7000103137
 20
12.5628511696
 30
0.0
 10
9.6891625789
 20
12.5459073815
 30
0.0
 10
9.6785762035
 20
12.5297089085
 30
0.0
 10
9.6683223586
 20
12.5143005964
 30
0.0
 10
9.6584745885
 20
12.4997339457
 30
0.0
 10
9.6491058102
 20
12.4860687363
 30
0.0
 10
9.640292392
 20
12.4733702279
 30
0.0
 10
9.6321133955
 20
12.4617087993
 30
0.0
 10
9.6257208568
 20
12.4526790049
 30
0.0
 10
9.620984753
 20
12.4460299404
 30
0.0
 10
9.6177427319
 20
12.4414944617
 30
0.0
 10
9.61471802
 20
12.4372764794
 30
0.0
 10
9.6119197898
 20
12.4333860727
 30
0.0
 10
9.6093569868
 20
12.4298328647
 30
0.0
 10
9.6070381668
 20
12.4266259387
 30
0.0
 10
9.604971471
 20
12.4237736716
 30
0.0
 10
9.6031644012
 20
12.4212839519
 30
0.0
 10
9.6018234372
 20
12.4194395922
 30
0.0
 10
9.6008852962
 20
12.4181510299
 30
0.0
 10
9.6002845143
 20
12.4173265165
 30
0.0
 10
9.5997529822
 20
12.4165975405
 30
0.0
 10
9.5992912103
 20
12.4159645545
 30
0.0
 10
9.5988996954
 20
12.4154280078
 30
0.0
 10
9.5986175973
 20
12.415041311
 30
0.0
 10
9.5984273818
 20
12.4147804545
 30
0.0
 10
9.5983113467
 20
12.4146212983
 30
0.0
 10
9.5982131257
 20
12.4144864939
 30
0.0
 10
9.5981326501
 20
12.4143761129
 30
0.0
 10
9.5980701697
 20
12.4142900829
 30
0.0
 10
9.5980289072
 20
12.4142338276
 30
0.0
 10
9.5980053657
 20
12.4142008154
 30
0.0
 10
9.5979935971
 20
12.4141856127
 30
0.0
 10
9.5979878373
 20
12.4141758473
 30
0.0
 10
9.5979838027
 20
12.4141721401
 30
0.0
 10
9.5979834891
 20
12.4141708734
 30
0.0
  0
SPLINE
  5
2D4
100
AcDbEntity
  8
0
100
AcDbSpline
 62
7
  6
CONTINUOUS
 70
0
 71
3
 72
17
 73
13
 74
0
 42
0.0000001
 43
0.0000001
 44
0.0000000001
 40
0.0
 40
0.0
 40
0.0
 40
0.0
 40
0.1166045788
 40
0.2399487009
 40
0.3038376152
 40
0.3687699342
 40
0.4999998999
 40
0.6312298826
 40
0.6961622216
 40
0.7600511619
 40
0.8833953495
 40
1.0
 40
1.0
 40
1.0
 40
1.0
 10
20.1079834891
 20
10.5541706972
 30
0.0
 10
20.1116416726
 20
10.5541706863
 30
0.0
 10
20.119184058
 20
10.5548710215
 30
0.0
 10
20.1284104002
 20
10.5575081759
 30
0.0
 10
20.1356127711
 20
10.5608113982
 30
0.0
 10
20.1426641443
 20
10.5649359299
 30
0.0
 10
20.1507236398
 20
10.571430691
 30
0.0
 10
20.1572183932
 20
10.5794901935
 30
0.0
 10
20.1613429194
 20
10.5865415721
 30
0.0
 10
20.1646461372
 20
10.5937439489
 30
0.0
 10
20.1672832865
 20
10.6029702978
 30
0.0
 10
20.1679836184
 20
10.6105126877
 30
0.0
 10
20.1679836062
 20
10.6141708735
 30
0.0
  0
SPLINE
  5
2D5
100
AcDbEntity
  8
0
100
AcDbSpline
 62
7
  6
CONTINUOUS
 70
0
 71
3
 72
17
 73
13
 74
0
 42
0.0000001
 43
0.0000001
 44
0.0000000001
 40
0.0
 40
0.0
 40
0.0
 40
0.0
 40
0.1166045618
 40
0.2399486747
 40
0.3038375876
 40
0.3687699074
 40
0.4999998783
 40
0.6312298699
 40
0.6961622139
 40
0.7600511586
 40
0.883395351
 40
1.0
 40
1.0
 40
1.0
 40
1.0
 10
20.1079834891
 20
9.6141710738
 30
0.0
 10
20.1116416737
 20
9.6141710861
 30
0.0
 10
20.1191840618
 20
9.6134707535
 30
0.0
 10
20.1284104079
 20
9.6108336004
 30
0.0
 10
20.1356127821
 20
9.6075303777
 30
0.0
 10
20.1426641588
 20
9.6034058448
 30
0.0
 10
20.1507236581
 20
9.5969110803
 30
0.0
 10
20.1572184136
 20
9.5888515728
 30
0.0
 10
20.1613429402
 20
9.5818001896
 30
0.0
 10
20.1646461576
 20
9.5745978084
 30
0.0
 10
20.1672833048
 20
9.5653714542
 30
0.0
 10
20.1679836338
 20
9.5578290606
 30
0.0
 10
20.1679836201
 20
9.5541708734
 30
0.0
  0
SPLINE
  5
2D6
100
AcDbEntity
  8
0
100
AcDbSpline
 62
9
  6
CONTINUOUS
 70
0
 71
3
 72
71
 73
67
 74
0
 42
0.0000001
 43
0.0000001
 44
0.0000000001
 40
0.0
 40
0.0
 40
0.0
 40
0.0
 40
0.0000518208
 40
0.0001160679
 40
0.0002057672
 40
0.0004612048
 40
0.000817499
 40
0.0012740154
 40
0.0018301195
 40
0.0024851769
 40
0.0032385532
 40
0.0050377257
 40
0.0072225629
 40
0.0097879917
 40
0.0127289396
 40
0.0160393517
 40
0.0197092426
 40
0.0280836043
 40
0.0377643674
 40
0.0486639632
 40
0.0606954521
 40
0.073774149
 40
0.0878161284
 40
0.1027377439
 40
0.1349113987
 40
0.1697584218
 40
0.2067973006
 40
0.2456413853
 40
0.2859493112
 40
0.3274114226
 40
0.3697883148
 40
0.4128346886
 40
0.4563122836
 40
0.5000004427
 40
0.5436886189
 40
0.5871663227
 40
0.6302128581
 40
0.6725896553
 40
0.7140517872
 40
0.754359799
 40
0.7932038376
 40
0.8302426
 40
0.8650895429
 40
0.8972631387
 40
0.9121847186
 40
0.9262266546
 40
0.939305299
 40
0.9513367249
 40
0.9622362465
 40
0.9719169256
 40
0.9802911955
 40
0.9839610381
 40
0.9872714006
 40
0.9902122981
 40
0.9927776766
 40
0.9949624647
 40
0.9967615902
 40
0.9975149443
 40
0.9981699804
 40
0.9987260643
 40
0.9991825617
 40
0.9995388383
 40
0.9997942599
 40
0.9998839517
 40
0.9999481919
 40
1.0
 40
1.0
 40
1.0
 40
1.0
 10
20.1079835241
 20
10.5541706971
 30
0.0
 10
20.1079972342
 20
10.5541574571
 30
0.0
 10
20.1080245819
 20
10.5541245399
 30
0.0
 10
20.1080761819
 20
10.5540692137
 30
0.0
 10
20.1081770137
 20
10.5539573644
 30
0.0
 10
20.1083506898
 20
10.5537666148
 30
0.0
 10
20.1086144852
 20
10.5534754336
 30
0.0
 10
20.1089526226
 20
10.5531023985
 30
0.0
 10
20.1093642986
 20
10.5526477086
 30
0.0
 10
20.1098490838
 20
10.5521119262
 30
0.0
 10
20.1106402725
 20
10.5512368117
 30
0.0
 10
20.1118080263
 20
10.5499436391
 30
0.0
 10
20.1134210831
 20
10.5481545971
 30
0.0
 10
20.1153137247
 20
10.5460522066
 30
0.0
 10
20.1174814666
 20
10.5436404501
 30
0.0
 10
20.119918584
 20
10.5409246252
 30
0.0
 10
20.1236858123
 20
10.5367173563
 30
0.0
 10
20.1290037613
 20
10.5307536317
 30
0.0
 10
20.1360654572
 20
10.5227821918
 30
0.0
 10
20.1439854329
 20
10.5137742153
 30
0.0
 10
20.1526889264
 20
10.5037911504
 30
0.0
 10
20.1620966372
 20
10.4928889346
 30
0.0
 10
20.1721300359
 20
10.4811229027
 30
0.0
 10
20.1866075598
 20
10.4639173549
 30
0.0
 10
20.2057511533
 20
10.4406381072
 30
0.0
 10
20.229480887
 20
10.4106060504
 30
0.0
 10
20.2539532569
 20
10.3780459028
 30
0.0
 10
20.2785129195
 20
10.3430625662
 30
0.0
 10
20.3025223369
 20
10.3057399692
 30
0.0
 10
20.3250531182
 20
10.2659908103
 30
0.0
 10
20.3451339898
 20
10.2238061123
 30
0.0
 10
20.361357082
 20
10.1791597656
 30
0.0
 10
20.3721237391
 20
10.1323427347
 30
0.0
 10
20.3759312479
 20
10.0841703737
 30
0.0
 10
20.3721235994
 20
10.0359979916
 30
0.0
 10
20.3613568699
 20
9.9891808573
 30
0.0
 10
20.3451333928
 20
9.9445345862
 30
0.0
 10
20.325052648
 20
9.9023498003
 30
0.0
 10
20.3025217054
 20
9.862600718
 30
0.0
 10
20.2785120993
 20
9.8252782196
 30
0.0
 10
20.253952427
 20
9.7902949262
 30
0.0
 10
20.2294801394
 20
9.7577348285
 30
0.0
 10
20.2057504718
 20
9.7277028391
 30
0.0
 10
20.1866069189
 20
9.7044236412
 30
0.0
 10
20.1721294285
 20
9.6872181316
 30
0.0
 10
20.1620960615
 20
9.6754521362
 30
0.0
 10
20.1526883886
 20
9.6645499649
 30
0.0
 10
20.1439849394
 20
9.654566954
 30
0.0
 10
20.1360650139
 20
9.6455590416
 30
0.0
 10
20.1290033744
 20
9.6375876745
 30
0.0
 10
20.1236854765
 20
9.6316240149
 30
0.0
 10
20.1199182922
 20
9.6274168002
 30
0.0
 10
20.1174812098
 20
9.6247010172
 30
0.0
 10
20.115313504
 20
9.6222893026
 30
0.0
 10
20.113420899
 20
9.6201869533
 30
0.0
 10
20.1118078782
 20
9.6183979512
 30
0.0
 10
20.1106401539
 20
9.6171048107
 30
0.0
 10
20.1098489879
 20
9.6162297205
 30
0.0
 10
20.1093642187
 20
9.6156939552
 30
0.0
 10
20.1089525581
 20
9.6152392814
 30
0.0
 10
20.1086144347
 20
9.6148662618
 30
0.0
 10
20.1083506537
 20
9.6145750935
 30
0.0
 10
20.108176986
 20
9.614384357
 30
0.0
 10
20.108076165
 20
9.6142725127
 30
0.0
 10
20.1080245667
 20
9.614217199
 30
0.0
 10
20.107997234
 20
9.6141842767
 30
0.0
 10
20.1079835211
 20
9.6141710463
 30
0.0
  0
SPLINE
  5
2D7
100
AcDbEntity
  8
0
100
AcDbSpline
 62
9
  6
CONTINUOUS
 70
0
 71
3
 72
101
 73
97
 74
0
 42
0.0000001
 43
0.0000001
 44
0.0000000001
 40
0.0
 40
0.0
 40
0.0
 40
0.0
 40
0.000003308
 40
0.0000130268
 40
0.0000291528
 40
0.000051682
 40
0.0001159343
 40
0.0002057523
 40
0.0003211046
 40
0.0004619597
 40
0.0006282863
 40
0.0008200528
 40
0.0012797794
 40
0.0018407938
 40
0.0025025595
 40
0.0032645172
 40
0.0041261073
 40
0.0050867661
 40
0.0073020251
 40
0.009902422
 40
0.0128796622
 40
0.0162244965
 40
0.0199271354
 40
0.0239773478
 40
0.0283638274
 40
0.0330751072
 40
0.0380996923
 40
0.0490426987
 40
0.0611003597
 40
0.0741808664
 40
0.0881979071
 40
0.1030700506
 40
0.1187209059
 40
0.1350814742
 40
0.152088135
 40
0.1696834139
 40
0.2064354148
 40
0.2255043948
 40
0.2449827132
 40
0.285031633
 40
0.3055453297
 40
0.3263481488
 40
0.3474152357
 40
0.3687227503
 40
0.4119431006
 40
0.4338104214
 40
0.4558018455
 40
0.4778790291
 40
0.5000001558
 40
0.522121287
 40
0.544198473
 40
0.5661898698
 40
0.5880571602
 40
0.6312775436
 40
0.6525850946
 40
0.6736522407
 40
0.6944550156
 40
0.7149686591
 40
0.7550174091
 40
0.7744956788
 40
0.7935646704
 40
0.8303166188
 40
0.8479119131
 40
0.8649186128
 40
0.8812791505
 40
0.8969299597
 40
0.9118020913
 40
0.9258191244
 40
0.9388996222
 40
0.9509572948
 40
0.9619003192
 40
0.9669249096
 40
0.9716361887
 40
0.9760226621
 40
0.9800728671
 40
0.9837754997
 40
0.9871203289
 40
0.9900975676
 40
0.9926979667
 40
0.9949132379
 40
0.9958739085
 40
0.996735511
 40
0.9974974796
 40
0.9981592533
 40
0.9987202709
 40
0.9991799941
 40
0.9993717564
 40
0.9995380776
 40
0.9996789265
 40
0.9997942721
 40
0.9998840833
 40
0.999948329
 40
0.9999708551
 40
0.9999869782
 40
0.9999966944
 40
1.0
 40
1.0
 40
1.0
 40
1.0
 10
20.1679834891
 20
10.6141708734
 30
0.0
 10
20.1679838043
 20
10.6141696061
 30
0.0
 10
20.1679878351
 20
10.6141658953
 30
0.0
 10
20.1679936
 20
10.6141561281
 30
0.0
 10
20.1680053667
 20
10.6141409207
 30
0.0
 10
20.16802891
 20
10.6141079032
 30
0.0
 10
20.1680701717
 20
10.6140516396
 30
0.0
 10
20.1681326528
 20
10.6139656002
 30
0.0
 10
20.1682131282
 20
10.6138552095
 30
0.0
 10
20.168311349
 20
10.613720396
 30
0.0
 10
20.1684273836
 20
10.6135612317
 30
0.0
 10
20.1686175973
 20
10.6133003675
 30
0.0
 10
20.1688996936
 20
10.6129136672
 30
0.0
 10
20.1692912095
 20
10.612377125
 30
0.0
 10
20.169752983
 20
10.6117441511
 30
0.0
 10
20.170284517
 20
10.6110151918
 30
0.0
 10
20.1708853006
 20
10.6101906967
 30
0.0
 10
20.1718234451
 20
10.6089021546
 30
0.0
 10
20.1731644107
 20
10.6070578089
 30
0.0
 10
20.1749714796
 20
10.6045680949
 30
0.0
 10
20.1770381743
 20
10.6017158249
 30
0.0
 10
20.1793569941
 20
10.5985088925
 30
0.0
 10
20.1819197959
 20
10.5949556745
 30
0.0
 10
20.1847180232
 20
10.5910652561
 30
0.0
 10
20.1877427321
 20
10.5868472647
 30
0.0
 10
20.190984752
 20
10.5823117843
 30
0.0
 10
20.1957208565
 20
10.5756627313
 30
0.0
 10
20.2021133994
 20
10.5666329566
 30
0.0
 10
20.2102923964
 20
10.5549715383
 30
0.0
 10
20.2191057932
 20
10.5422730127
 30
0.0
 10
20.2284745822
 20
10.5286077972
 30
0.0
 10
20.2383223971
 20
10.5140411454
 30
0.0
 10
20.2485762235
 20
10.4986327787
 30
0.0
 10
20.2591625843
 20
10.4824342788
 30
0.0
 10
20.2700104024
 20
10.4654905553
 30
0.0
 10
20.2849475387
 20
10.441608506
 30
0.0
 10
20.2998727862
 20
10.416759782
 30
0.0
 10
20.3146012785
 20
10.3909378583
 30
0.0
 10
20.3295112003
 20
10.3637267419
 30
0.0
 10
20.3438791169
 20
10.3355707374
 30
0.0
 10
20.3574056184
 20
10.3064335648
 30
0.0
 10
20.3671442419
 20
10.2838099027
 30
0.0
 10
20.3762640829
 20
10.2605906579
 30
0.0
 10
20.387467348
 20
10.2287069016
 30
0.0
 10
20.3967993956
 20
10.1958439321
 30
0.0
 10
20.4036975673
 20
10.1621533496
 30
0.0
 10
20.4075324083
 20
10.1363937593
 30
0.0
 10
20.4098882016
 20
10.1103554807
 30
0.0
 10
20.4106833962
 20
10.0841706886
 30
0.0
 10
20.4098882385
 20
10.057985892
 30
0.0
 10
20.4075323414
 20
10.0319476296
 30
0.0
 10
20.4036974635
 20
10.0061880698
 30
0.0
 10
20.3967993807
 20
9.9724974775
 30
0.0
 10
20.3874671724
 20
9.9396345339
 30
0.0
 10
20.3762639134
 20
9.9077507258
 30
0.0
 10
20.3671441801
 20
9.8845314152
 30
0.0
 10
20.3574054539
 20
9.8619078128
 30
0.0
 10
20.3438789935
 20
9.8327707391
 30
0.0
 10
20.3295111027
 20
9.804614839
 30
0.0
 10
20.3146011239
 20
9.7774038487
 30
0.0
 10
20.2998728705
 20
9.7515818294
 30
0.0
 10
20.2849474827
 20
9.7267331978
 30
0.0
 10
20.2700103137
 20
9.7028511696
 30
0.0
 10
20.2591625789
 20
9.6859073815
 30
0.0
 10
20.2485762035
 20
9.6697089085
 30
0.0
 10
20.2383223586
 20
9.6543005964
 30
0.0
 10
20.2284745885
 20
9.6397339457
 30
0.0
 10
20.2191058102
 20
9.6260687363
 30
0.0
 10
20.210292392
 20
9.6133702279
 30
0.0
 10
20.2021133955
 20
9.6017087993
 30
0.0
 10
20.1957208568
 20
9.5926790049
 30
0.0
 10
20.190984753
 20
9.5860299404
 30
0.0
 10
20.1877427319
 20
9.5814944617
 30
0.0
 10
20.18471802
 20
9.5772764794
 30
0.0
 10
20.1819197898
 20
9.5733860727
 30
0.0
 10
20.1793569868
 20
9.5698328647
 30
0.0
 10
20.1770381668
 20
9.5666259387
 30
0.0
 10
20.174971471
 20
9.5637736716
 30
0.0
 10
20.1731644012
 20
9.5612839519
 30
0.0
 10
20.1718234372
 20
9.5594395922
 30
0.0
 10
20.1708852962
 20
9.5581510299
 30
0.0
 10
20.1702845143
 20
9.5573265165
 30
0.0
 10
20.1697529822
 20
9.5565975405
 30
0.0
 10
20.1692912103
 20
9.5559645545
 30
0.0
 10
20.1688996954
 20
9.5554280078
 30
0.0
 10
20.1686175973
 20
9.555041311
 30
0.0
 10
20.1684273818
 20
9.5547804545
 30
0.0
 10
20.1683113467
 20
9.5546212983
 30
0.0
 10
20.1682131257
 20
9.5544864939
 30
0.0
 10
20.1681326501
 20
9.5543761129
 30
0.0
 10
20.1680701697
 20
9.5542900829
 30
0.0
 10
20.1680289072
 20
9.5542338276
 30
0.0
 10
20.1680053657
 20
9.5542008154
 30
0.0
 10
20.1679935971
 20
9.5541856127
 30
0.0
 10
20.1679878373
 20
9.5541758473
 30
0.0
 10
20.1679838027
 20
9.5541721401
 30
0.0
 10
20.1679834891
 20
9.5541708734
 30
0.0
  0
SPLINE
  5
2D8
100
AcDbEntity
  8
0
100
AcDbSpline
 62
7
  6
CONTINUOUS
 70
0
 71
3
 72
21
 73
17
 74
0
 42
0.0000001
 43
0.0000001
 44
0.0000000001
 40
0.0
 40
0.0
 40
0.0
 40
0.0
 40
0.057368249
 40
0.1166633082
 40
0.1776238709
 40
0.2400883552
 40
0.3039430246
 40
0.3688405296
 40
0.5000001073
 40
0.6311596668
 40
0.6960571503
 40
0.7599117917
 40
0.8223762426
 40
0.8833367687
 40
0.9426317894
 40
1.0
 40
1.0
 40
1.0
 40
1.0
 10
-0.0720166157
 20
12.294170873
 30
0.0
 10
-0.0720166218
 20
12.2971721262
 30
0.0
 10
-0.0717354734
 20
12.303278791
 30
0.0
 10
-0.0704667283
 20
12.3124968018
 30
0.0
 10
-0.0682835046
 20
12.3218182669
 30
0.0
 10
-0.0651261102
 20
12.3311104414
 30
0.0
 10
-0.0609486719
 20
12.3402201109
 30
0.0
 10
-0.054074617
 20
12.3519716441
 30
0.0
 10
-0.0432500652
 20
12.3654044734
 30
0.0
 10
-0.0298172443
 20
12.3762290338
 30
0.0
 10
-0.0180657182
 20
12.3831030939
 30
0.0
 10
-0.0089560548
 20
12.3872805352
 30
0.0
 10
0.0003361135
 20
12.3904379319
 30
0.0
 10
0.0096575724
 20
12.3926211571
 30
0.0
 10
0.0188755772
 20
12.3938899031
 30
0.0
 10
0.0249822379
 20
12.3941710517
 30
0.0
 10
0.0279834891
 20
12.3941710456
 30
0.0
  0
SPLINE
  5
2D9
100
AcDbEntity
  8
0
100
AcDbSpline
 62
7
  6
CONTINUOUS
 70
0
 71
3
 72
21
 73
17
 74
0
 42
0.0000001
 43
0.0000001
 44
0.0000000001
 40
0.0
 40
0.0
 40
0.0
 40
0.0
 40
0.057368249
 40
0.1166633082
 40
0.1776238709
 40
0.2400883552
 40
0.3039430246
 40
0.3688405296
 40
0.5000001074
 40
0.6311596668
 40
0.6960571504
 40
0.7599117917
 40
0.8223762426
 40
0.8833367687
 40
0.9426317894
 40
1.0
 40
1.0
 40
1.0
 40
1.0
 10
-1.172016406
 20
12.294170873
 30
0.0
 10
-1.1720163999
 20
12.2971721262
 30
0.0
 10
-1.1722975483
 20
12.303278791
 30
0.0
 10
-1.1735662934
 20
12.3124968018
 30
0.0
 10
-1.1757495171
 20
12.3218182669
 30
0.0
 10
-1.1789069115
 20
12.3311104414
 30
0.0
 10
-1.1830843498
 20
12.3402201109
 30
0.0
 10
-1.1899584046
 20
12.3519716442
 30
0.0
 10
-1.2007829564
 20
12.3654044734
 30
0.0
 10
-1.2142157774
 20
12.3762290339
 30
0.0
 10
-1.2259673035
 20
12.383103094
 30
0.0
 10
-1.2350769669
 20
12.3872805352
 30
0.0
 10
-1.2443691352
 20
12.3904379319
 30
0.0
 10
-1.2536905942
 20
12.3926211572
 30
0.0
 10
-1.2629085989
 20
12.3938899032
 30
0.0
 10
-1.2690152596
 20
12.3941710518
 30
0.0
 10
-1.2720165109
 20
12.3941710457
 30
0.0
  0
LINE
  5
2DA
100
AcDbEntity
  8
0
100
AcDbLine
 62
9
  6
CONTINUOUS
 10
-0.6220163845
 20
12.944170724
 11
-1.2720161121
 21
12.3941710447
  0
SPLINE
  5
2DB
100
AcDbEntity
  8
0
100
AcDbSpline
 62
7
  6
CONTINUOUS
 70
0
 71
3
 72
17
 73
13
 74
0
 42
0.0000001
 43
0.0000001
 44
0.0000000001
 40
0.0
 40
0.0
 40
0.0
 40
0.0
 40
0.194489251
 40
0.3705275282
 40
0.5272594349
 40
0.663934023
 40
0.7799756068
 40
0.8748583236
 40
0.9142504616
 40
0.9482411436
 40
0.9768195951
 40
1.0
 40
1.0
 40
1.0
 40
1.0
 10
-1.3720165109
 20
13.2531718212
 30
0.0
 10
-1.3723246187
 20
13.258180207
 30
0.0
 10
-1.3729437629
 20
13.2677199083
 30
0.0
 10
-1.3739323211
 20
13.2812874831
 30
0.0
 10
-1.3749225513
 20
13.2933588634
 30
0.0
 10
-1.3759053233
 20
13.3038772441
 30
0.0
 10
-1.376883792
 20
13.3127921872
 30
0.0
 10
-1.3777394931
 20
13.319194741
 30
0.0
 10
-1.378446355
 20
13.3234784162
 30
0.0
 10
-1.3789423966
 20
13.3260623208
 30
0.0
 10
-1.3794369411
 20
13.3282191282
 30
0.0
 10
-1.3798020949
 20
13.3295049489
 30
0.0
 10
-1.3799919449
 20
13.3300720737
 30
0.0
  0
SPLINE
  5
2DC
100
AcDbEntity
  8
0
100
AcDbSpline
 62
7
  6
CONTINUOUS
 70
0
 71
3
 72
15
 73
11
 74
0
 42
0.0000001
 43
0.0000001
 44
0.0000000001
 40
0.0
 40
0.0
 40
0.0
 40
0.0
 40
0.2145874203
 40
0.396082945
 40
0.5456435726
 40
0.6653918954
 40
0.7595359669
 40
0.8366551561
 40
0.9114957327
 40
1.0
 40
1.0
 40
1.0
 40
1.0
 10
-1.3799919449
 20
13.3300720737
 30
0.0
 10
-1.3800793267
 20
13.3303331029
 30
0.0
 10
-1.3802512985
 20
13.3308115216
 30
0.0
 10
-1.3805306211
 20
13.3314539945
 30
0.0
 10
-1.3808095264
 20
13.3319619604
 30
0.0
 10
-1.3810897295
 20
13.3323372096
 30
0.0
 10
-1.3813762146
 20
13.3325840137
 30
0.0
 10
-1.3816856229
 20
13.3326912109
 30
0.0
 10
-1.3820006102
 20
13.3326289379
 30
0.0
 10
-1.382173847
 20
13.3325028053
 30
0.0
 10
-1.3822579314
 20
13.3324265225
 30
0.0
  0
SPLINE
  5
2DD
100
AcDbEntity
  8
0
100
AcDbSpline
 62
7
  6
CONTINUOUS
 70
0
 71
3
 72
42
 73
38
 74
0
 42
0.0000001
 43
0.0000001
 44
0.0000000001
 40
0.0
 40
0.0
 40
0.0
 40
0.0
 40
0.1977621651
 40
0.2941882125
 40
0.3876720087
 40
0.4773060895
 40
0.5622387003
 40
0.6416196636
 40
0.7146018073
 40
0.7484562484
 40
0.7804553593
 40
0.8105286341
 40
0.838605592
 40
0.8646157862
 40
0.888488819
 40
0.910154364
 40
0.929542689
 40
0.9466037665
 40
0.9542539896
 40
0.9613136687
 40
0.9677801044
 40
0.9736506516
 40
0.9789227437
 40
0.9835939349
 40
0.9876619726
 40
0.9911249342
 40
0.9939815119
 40
0.9951823836
 40
0.9962318565
 40
0.997130454
 40
0.9978792383
 40
0.9984803432
 40
0.9989383387
 40
0.9992643913
 40
0.9994909178
 40
0.9997033041
 40
1.0
 40
1.0
 40
1.0
 40
1.0
 10
-1.3725160348
 20
12.9441634213
 30
0.0
 10
-1.372936192
 20
12.969760545
 30
0.0
 10
-1.3735610246
 20
13.0078384701
 30
0.0
 10
-1.3744094583
 20
13.0580159493
 30
0.0
 10
-1.3750403865
 20
13.0941977789
 30
0.0
 10
-1.3756710904
 20
13.128891538
 30
0.0
 10
-1.3763011992
 20
13.1617593631
 30
0.0
 10
-1.3769304712
 20
13.1924711694
 30
0.0
 10
-1.3774667442
 20
13.2165713295
 30
0.0
 10
-1.37789956
 20
13.2345385849
 30
0.0
 10
-1.3782158683
 20
13.246952414
 30
0.0
 10
-1.3785320302
 20
13.2586180872
 30
0.0
 10
-1.3788480146
 20
13.2695081894
 30
0.0
 10
-1.3791637638
 20
13.2795953077
 30
0.0
 10
-1.3794792133
 20
13.2888520307
 30
0.0
 10
-1.3797942161
 20
13.29725102
 30
0.0
 10
-1.3801088279
 20
13.3047675215
 30
0.0
 10
-1.3803794883
 20
13.3104699031
 30
0.0
 10
-1.3805983447
 20
13.3145768818
 30
0.0
 10
-1.3807563701
 20
13.3173136386
 30
0.0
 10
-1.380914274
 20
13.3198196058
 30
0.0
 10
-1.3810720322
 20
13.3220936764
 30
0.0
 10
-1.381229585
 20
13.324134752
 30
0.0
 10
-1.3813868664
 20
13.3259417376
 30
0.0
 10
-1.3815437042
 20
13.3275135843
 30
0.0
 10
-1.3817000097
 20
13.3288492206
 30
0.0
 10
-1.381836038
 20
13.3298133774
 30
0.0
 10
-1.3819475045
 20
13.3304650595
 30
0.0
 10
-1.3820260466
 20
13.3308651103
 30
0.0
 10
-1.3821042672
 20
13.331205423
 30
0.0
 10
-1.3821823023
 20
13.3314859989
 30
0.0
 10
-1.3822593224
 20
13.3317071724
 30
0.0
 10
-1.3823369645
 20
13.3318696879
 30
0.0
 10
-1.3824123022
 20
13.3319769608
 30
0.0
 10
-1.3825046677
 20
13.3320317987
 30
0.0
 10
-1.3826031457
 20
13.3319975083
 30
0.0
 10
-1.3826445907
 20
13.3319442431
 30
0.0
 10
-1.3826665111
 20
13.3319127051
 30
0.0
  0
SPLINE
  5
2DE
100
AcDbEntity
  8
0
100
AcDbSpline
 62
7
  6
CONTINUOUS
 70
0
 71
3
 72
38
 73
34
 74
0
 42
0.0000001
 43
0.0000001
 44
0.0000000001
 40
0.0
 40
0.0
 40
0.0
 40
0.0
 40
0.0972291106
 40
0.1936788176
 40
0.2882939838
 40
0.3801917784
 40
0.4685041297
 40
0.5523596998
 40
0.6309532263
 40
0.7035349595
 40
0.7694162882
 40
0.7996409032
 40
0.8279611655
 40
0.854310874
 40
0.8786246902
 40
0.9008469075
 40
0.9209279493
 40
0.9388183839
 40
0.9544734254
 40
0.9678614351
 40
0.9736962051
 40
0.9789533339
 40
0.9836292617
 40
0.9877210828
 40
0.9912275951
 40
0.9941480578
 40
0.99648212
 40
0.997429409
 40
0.9982304732
 40
0.9988858392
 40
0.9993966211
 40
0.9997654351
 40
1.0
 40
1.0
 40
1.0
 40
1.0
 10
-1.3826147815
 20
12.9441708734
 30
0.0
 10
-1.3824817885
 20
12.9313894317
 30
0.0
 10
-1.3821939191
 20
12.905929251
 30
0.0
 10
-1.3817622903
 20
12.8680314093
 30
0.0
 10
-1.3813784001
 20
12.8308339659
 30
0.0
 10
-1.3809916484
 20
12.794706382
 30
0.0
 10
-1.3805877973
 20
12.7599935764
 30
0.0
 10
-1.3801907027
 20
12.72702985
 30
0.0
 10
-1.3798004995
 20
12.6961342027
 30
0.0
 10
-1.3794078219
 20
12.6676017572
 30
0.0
 10
-1.3790717621
 20
12.6454279263
 30
0.0
 10
-1.3788014683
 20
12.6290725829
 30
0.0
 10
-1.3786049089
 20
12.6179137244
 30
0.0
 10
-1.3784084414
 20
12.6075320503
 30
0.0
 10
-1.3782116996
 20
12.5979522099
 30
0.0
 10
-1.3780148132
 20
12.5891966653
 30
0.0
 10
-1.3778181453
 20
12.5812857935
 30
0.0
 10
-1.3776220471
 20
12.5742385474
 30
0.0
 10
-1.3774267495
 20
12.5680715561
 30
0.0
 10
-1.3772581486
 20
12.5634894419
 30
0.0
 10
-1.3771211782
 20
12.5602741207
 30
0.0
 10
-1.3770233846
 20
12.5582035176
 30
0.0
 10
-1.376925803
 20
12.5563623204
 30
0.0
 10
-1.3768284453
 20
12.5547516201
 30
0.0
 10
-1.3767314987
 20
12.5533721402
 30
0.0
 10
-1.3766350135
 20
12.5522244024
 30
0.0
 10
-1.3765507319
 20
12.5514133201
 30
0.0
 10
-1.3764810407
 20
12.5508811662
 30
0.0
 10
-1.3764326797
 20
12.5505687851
 30
0.0
 10
-1.3763846612
 20
12.5503147675
 30
0.0
 10
-1.3763372258
 20
12.5501180553
 30
0.0
 10
-1.3762907273
 20
12.5499798709
 30
0.0
 10
-1.3762532088
 20
12.5499075783
 30
0.0
 10
-1.3762314073
 20
12.5498857698
 30
0.0
  0
SPLINE
  5
2DF
100
AcDbEntity
  8
0
100
AcDbSpline
 62
7
  6
CONTINUOUS
 70
0
 71
3
 72
36
 73
32
 74
0
 42
0.0000001
 43
0.0000001
 44
0.0000000001
 40
0.0
 40
0.0
 40
0.0
 40
0.0
 40
0.0005025867
 40
0.0009288791
 40
0.0014920386
 40
0.002197498
 40
0.0030479694
 40
0.0040449838
 40
0.0051894857
 40
0.0079229259
 40
0.0112494181
 40
0.0196755554
 40
0.0304517358
 40
0.0435576362
 40
0.0589662657
 40
0.0766370284
 40
0.0965270153
 40
0.118592854
 40
0.1427826129
 40
0.1690340906
 40
0.1972844169
 40
0.2274697653
 40
0.2933434217
 40
0.3660171257
 40
0.4447947006
 40
0.5289199319
 40
0.6175769019
 40
0.7099048735
 40
0.8050393877
 40
0.9020886095
 40
1.0
 40
1.0
 40
1.0
 40
1.0
 10
-1.372517776
 20
12.5563232179
 30
0.0
 10
-1.3725828025
 20
12.5563234322
 30
0.0
 10
-1.372679275
 20
12.5564330546
 30
0.0
 10
-1.37276088
 20
12.5565993894
 30
0.0
 10
-1.3728388468
 20
12.5568076862
 30
0.0
 10
-1.372914632
 20
12.5570702578
 30
0.0
 10
-1.372991772
 20
12.5573918922
 30
0.0
 10
-1.3730688374
 20
12.557771196
 30
0.0
 10
-1.3731785846
 20
12.5583924215
 30
0.0
 10
-1.3733124188
 20
12.559315066
 30
0.0
 10
-1.3735353934
 20
12.5611761454
 30
0.0
 10
-1.3738028289
 20
12.5640791585
 30
0.0
 10
-1.3741087658
 20
12.5682482089
 30
0.0
 10
-1.3744162909
 20
12.573322628
 30
0.0
 10
-1.3747251597
 20
12.5792903457
 30
0.0
 10
-1.3750347952
 20
12.5861368033
 30
0.0
 10
-1.3753450123
 20
12.5938453431
 30
0.0
 10
-1.3756555676
 20
12.6023979374
 30
0.0
 10
-1.3759664028
 20
12.61177409
 30
0.0
 10
-1.3762775698
 20
12.6219508112
 30
0.0
 10
-1.3765890666
 20
12.6329035939
 30
0.0
 10
-1.3770173595
 20
12.6489815971
 30
0.0
 10
-1.3775476216
 20
12.6708065824
 30
0.0
 10
-1.3781654338
 20
12.698918288
 30
0.0
 10
-1.3787832737
 20
12.7293919822
 30
0.0
 10
-1.379411242
 20
12.7619338601
 30
0.0
 10
-1.3800397483
 20
12.7962292597
 30
0.0
 10
-1.3806380041
 20
12.83194983
 30
0.0
 10
-1.3812454764
 20
12.8687562322
 30
0.0
 10
-1.3819382906
 20
12.9062836538
 30
0.0
 10
-1.3823938871
 20
12.9315044356
 30
0.0
 10
-1.382601776
 20
12.9441709454
 30
0.0
  0
LINE
  5
2E0
100
AcDbEntity
  8
0
100
AcDbLine
 62
9
  6
CONTINUOUS
 10
0.0279827856
 20
12.3941711665
 11
-0.6220167407
 21
12.9441706017
  0
LINE
  5
2E1
100
AcDbEntity
  8
0
100
AcDbLine
 62
9
  6
CONTINUOUS
 10
-0.0720165109
 20
12.2941708734
 11
-0.6220165109
 21
12.9441708734
  0
LINE
  5
2E2
100
AcDbEntity
  8
0
100
AcDbLine
 62
9
  6
CONTINUOUS
 10
-1.1720165109
 20
12.2941708734
 11
-0.6220165109
 21
12.9441708734
  0
SPLINE
  5
2E3
100
AcDbEntity
  8
0
100
AcDbSpline
 62
7
  6
CONTINUOUS
 70
0
 71
3
 72
17
 73
13
 74
0
 42
0.0000001
 43
0.0000001
 44
0.0000000001
 40
0.0
 40
0.0
 40
0.0
 40
0.0
 40
0.1166044674
 40
0.2399485119
 40
0.303837405
 40
0.3687697149
 40
0.4999996926
 40
0.6312297236
 40
0.6961620959
 40
0.7600510705
 40
0.8833953165
 40
1.0
 40
1.0
 40
1.0
 40
1.0
 10
21.3679829286
 20
8.0866708734
 30
0.0
 10
21.3679828924
 20
8.0830126899
 30
0.0
 10
21.3686831782
 20
8.0754702981
 30
0.0
 10
21.3713202794
 20
8.0662439373
 30
0.0
 10
21.3746234655
 20
8.0590415449
 30
0.0
 10
21.3787479659
 20
8.0519901448
 30
0.0
 10
21.3852426986
 20
8.0439306106
 30
0.0
 10
21.3933021863
 20
8.0374358174
 30
0.0
 10
21.40035356
 20
8.0333112596
 30
0.0
 10
21.4075559359
 20
8.0300080116
 30
0.0
 10
21.416782289
 20
8.0273708279
 30
0.0
 10
21.4243246869
 20
8.0266704705
 30
0.0
 10
21.4279828772
 20
8.0266704708
 30
0.0
  0
SPLINE
  5
2E4
100
AcDbEntity
  8
0
100
AcDbSpline
 62
7
  6
CONTINUOUS
 70
0
 71
3
 72
17
 73
13
 74
0
 42
0.0000001
 43
0.0000001
 44
0.0000000001
 40
0.0
 40
0.0
 40
0.0
 40
0.0
 40
0.1166044641
 40
0.2399484972
 40
0.3038373817
 40
0.3687696819
 40
0.499999642
 40
0.6312296624
 40
0.6961620331
 40
0.7600510101
 40
0.8833952766
 40
1.0
 40
1.0
 40
1.0
 40
1.0
 10
20.1679840103
 20
8.0866708734
 30
0.0
 10
20.1679840439
 20
8.0830126933
 30
0.0
 10
20.1672837547
 20
8.0754703095
 30
0.0
 10
20.1646466534
 20
8.0662439589
 30
0.0
 10
20.1613434702
 20
8.0590415743
 30
0.0
 10
20.1572189747
 20
8.0519901814
 30
0.0
 10
20.150724251
 20
8.0439306541
 30
0.0
 10
20.1426647751
 20
8.0374358632
 30
0.0
 10
20.1356134111
 20
8.0333113046
 30
0.0
 10
20.1284110438
 20
8.0300080538
 30
0.0
 10
20.1191846997
 20
8.0273708639
 30
0.0
 10
20.1116423076
 20
8.0266704995
 30
0.0
 10
20.1079841194
 20
8.026670496
 30
0.0
  0
SPLINE
  5
2E5
100
AcDbEntity
  8
0
100
AcDbSpline
 62
9
  6
CONTINUOUS
 70
0
 71
3
 72
97
 73
93
 74
0
 42
0.0000001
 43
0.0000001
 44
0.0000000001
 40
0.0
 40
0.0
 40
0.0
 40
0.0
 40
0.000003459
 40
0.0000135267
 40
0.0000302123
 40
0.0000535249
 40
0.0001200665
 40
0.0002132232
 40
0.0003330666
 40
0.0004796686
 40
0.0006531015
 40
0.0008534375
 40
0.0013351092
 40
0.0019249868
 40
0.002622141
 40
0.0034253019
 40
0.0043331978
 40
0.0053445571
 40
0.007672646
 40
0.0103998131
 40
0.01351641
 40
0.0170121637
 40
0.0208756326
 40
0.0250952054
 40
0.0296583457
 40
0.0397615924
 40
0.0510783671
 40
0.0635032395
 40
0.0769349507
 40
0.0912773918
 40
0.106442421
 40
0.1223488041
 40
0.1389223561
 40
0.173813261
 40
0.2106632566
 40
0.2491076088
 40
0.2888521258
 40
0.3296569333
 40
0.3504002146
 40
0.371342204
 40
0.3924626218
 40
0.4137431671
 40
0.4351644921
 40
0.4567019687
 40
0.4783238281
 40
0.4999907428
 40
0.5108306725
 40
0.5216648911
 40
0.5324873282
 40
0.5432923053
 40
0.5648292968
 40
0.5862511281
 40
0.6075334334
 40
0.6286541237
 40
0.6495954821
 40
0.6703387468
 40
0.7111473695
 40
0.7508935355
 40
0.7893329926
 40
0.8261781074
 40
0.8610703299
 40
0.8776469623
 40
0.8935572772
 40
0.9087261693
 40
0.9230713809
 40
0.9365037715
 40
0.9489274664
 40
0.9602416229
 40
0.9703407431
 40
0.9749018923
 40
0.9791201586
 40
0.9829831821
 40
0.9864792266
 40
0.9895967076
 40
0.9923252005
 40
0.99465492
 40
0.9956671483
 40
0.9965758531
 40
0.9973796697
 40
0.9980772342
 40
0.9986671841
 40
0.9991485331
 40
0.9993485979
 40
0.9995217187
 40
0.9996679919
 40
0.9997875137
 40
0.99988038
 40
0.9999466863
 40
0.9999699092
 40
0.9999865278
 40
0.999996554
 40
1.0
 40
1.0
 40
1.0
 40
1.0
 10
21.4279828771
 20
8.0266708734
 30
0.0
 10
21.4279811447
 20
8.0266703834
 30
0.0
 10
21.4279765517
 20
8.0266643157
 30
0.0
 10
21.42796387
 20
8.0266555255
 30
0.0
 10
21.427944512
 20
8.0266377451
 30
0.0
 10
21.427902197
 20
8.0266021029
 30
0.0
 10
21.427830105
 20
8.0265396992
 30
0.0
 10
21.4277195087
 20
8.0264452323
 30
0.0
 10
21.427577231
 20
8.0263236003
 30
0.0
 10
21.4274029248
 20
8.0261751719
 30
0.0
 10
21.427196482
 20
8.0259998506
 30
0.0
 10
21.4268566631
 20
8.0257121727
 30
0.0
 10
21.4263503672
 20
8.0252856825
 30
0.0
 10
21.4256444944
 20
8.0246947567
 30
0.0
 10
21.4248091908
 20
8.0239977709
 30
0.0
 10
21.4238461381
 20
8.0231955315
 30
0.0
 10
21.4227571885
 20
8.0222889165
 30
0.0
 10
21.4210584178
 20
8.0208743031
 30
0.0
 10
21.4186332646
 20
8.0188522604
 30
0.0
 10
21.415367492
 20
8.0161273808
 30
0.0
 10
21.4116352979
 20
8.0130128829
 30
0.0
 10
21.4074484039
 20
8.0095201979
 30
0.0
 10
21.402818743
 20
8.0056620999
 30
0.0
 10
21.3977591965
 20
8.0014520695
 30
0.0
 10
21.3901978556
 20
7.995171199
 30
0.0
 10
21.3797833742
 20
7.9865440528
 30
0.0
 10
21.3661954447
 20
7.9753336016
 30
0.0
 10
21.3512420087
 20
7.9630561391
 30
0.0
 10
21.3350356271
 20
7.9498231281
 30
0.0
 10
21.3176812174
 20
7.9357413006
 30
0.0
 10
21.2992737323
 20
7.9209133288
 30
0.0
 10
21.2798988708
 20
7.9054354296
 30
0.0
 10
21.2524031532
 20
7.8836743527
 30
0.0
 10
21.2161298698
 20
7.8554395838
 30
0.0
 10
21.1703752081
 20
7.8208608762
 30
0.0
 10
21.1219091359
 20
7.7856936499
 30
0.0
 10
21.0708087133
 20
7.7506857466
 30
0.0
 10
21.0262166672
 20
7.7225200344
 30
0.0
 10
20.9889721189
 20
7.7011478612
 30
0.0
 10
20.9600614522
 20
7.6858746388
 30
0.0
 10
20.9302676577
 20
7.6717305723
 30
0.0
 10
20.8995376273
 20
7.6590679471
 30
0.0
 10
20.8678348293
 20
7.6483552028
 30
0.0
 10
20.8351975682
 20
7.6401427535
 30
0.0
 10
20.8018086439
 20
7.6349395035
 30
0.0
 10
20.773621436
 20
7.6334190486
 30
0.0
 10
20.7510616814
 20
7.6339926309
 30
0.0
 10
20.7341922658
 20
7.6353229422
 30
0.0
 10
20.7174321013
 20
7.6375142661
 30
0.0
 10
20.6953189145
 20
7.6415230065
 30
0.0
 10
20.668152338
 20
7.648385093
 30
0.0
 10
20.6364427044
 20
7.6590750118
 30
0.0
 10
20.6057043139
 20
7.6717229083
 30
0.0
 10
20.5759116375
 20
7.6858713284
 30
0.0
 10
20.547006122
 20
7.7011540069
 30
0.0
 10
20.5097653865
 20
7.7225355759
 30
0.0
 10
20.4651501671
 20
7.7506690775
 30
0.0
 10
20.4140443457
 20
7.7856710522
 30
0.0
 10
20.3656048784
 20
7.8208678592
 30
0.0
 10
20.3198679591
 20
7.8554624279
 30
0.0
 10
20.2835898322
 20
7.8836904167
 30
0.0
 10
20.2560816767
 20
7.9054427576
 30
0.0
 10
20.236695259
 20
7.9209152543
 30
0.0
 10
20.2182773384
 20
7.9357390386
 30
0.0
 10
20.200916001
 20
7.9498183756
 30
0.0
 10
20.1847081436
 20
7.9630514574
 30
0.0
 10
20.1697578782
 20
7.9753302284
 30
0.0
 10
20.1561760721
 20
7.986541625
 30
0.0
 10
20.1457691442
 20
7.9951707619
 30
0.0
 10
20.1382137181
 20
8.0014527035
 30
0.0
 10
20.1331569955
 20
8.0056630808
 30
0.0
 10
20.1285282929
 20
8.0095211404
 30
0.0
 10
20.1243407781
 20
8.0130136739
 30
0.0
 10
20.1206067422
 20
8.0161279958
 30
0.0
 10
20.1173382298
 20
8.0188527114
 30
0.0
 10
20.1149103105
 20
8.0208745448
 30
0.0
 10
20.1132091554
 20
8.022288985
 30
0.0
 10
20.1121185668
 20
8.0231955291
 30
0.0
 10
20.1111541855
 20
8.0239976976
 30
0.0
 10
20.1103180517
 20
8.024694613
 30
0.0
 10
20.1096120073
 20
8.0252854642
 30
0.0
 10
20.1091061443
 20
8.025712048
 30
0.0
 10
20.1087670129
 20
8.0259998078
 30
0.0
 10
20.1085611983
 20
8.026175135
 30
0.0
 10
20.1083875555
 20
8.026323569
 30
0.0
 10
20.1082459277
 20
8.0264452076
 30
0.0
 10
20.1081359172
 20
8.0265396792
 30
0.0
 10
20.1080642578
 20
8.0266020954
 30
0.0
 10
20.1080222153
 20
8.0266377398
 30
0.0
 10
20.108002998
 20
8.0266555276
 30
0.0
 10
20.1079903951
 20
8.0266643088
 30
0.0
 10
20.1079858464
 20
8.0266703888
 30
0.0
 10
20.1079841195
 20
8.0266708734
 30
0.0
  0
SPLINE
  5
2E6
100
AcDbEntity
  8
0
100
AcDbSpline
 62
7
  6
CONTINUOUS
 70
0
 71
3
 72
8
 73
4
 74
0
 42
0.0000001
 43
0.0000001
 44
0.0000000001
 40
0.0
 40
0.0
 40
0.0
 40
0.0
 40
1.0
 40
1.0
 40
1.0
 40
1.0
 10
19.8539836081
 20
7.0059791834
 30
0.0
 10
19.8539838434
 20
7.005967624
 30
0.0
 10
19.8539840787
 20
7.0059560646
 30
0.0
 10
19.8539843141
 20
7.0059445052
 30
0.0
  0
SPLINE
  5
2E7
100
AcDbEntity
  8
0
100
AcDbSpline
 62
7
  6
CONTINUOUS
 70
0
 71
3
 72
13
 73
9
 74
0
 42
0.0000001
 43
0.0000001
 44
0.0000000001
 40
0.0
 40
0.0
 40
0.0
 40
0.0
 40
0.385585426
 40
0.6804600973
 40
0.7939015485
 40
0.8847637096
 40
0.9532619006
 40
1.0
 40
1.0
 40
1.0
 40
1.0
 10
19.8574835056
 20
6.8971658674
 30
0.0
 10
19.8575445477
 20
6.8964705838
 30
0.0
 10
19.8576620831
 20
6.8952444862
 30
0.0
 10
19.857836993
 20
6.8938175428
 30
0.0
 10
19.85798407
 20
6.8929260237
 30
0.0
 10
19.8580834674
 20
6.8924418259
 30
0.0
 10
19.8581817147
 20
6.8920822783
 30
0.0
 10
19.8582583557
 20
6.8918862453
 30
0.0
 10
19.8583020795
 20
6.8918138181
 30
0.0
  0
LINE
  5
2E8
100
AcDbEntity
  8
0
100
AcDbLine
 62
7
  6
CONTINUOUS
 10
19.8583020795
 20
6.8918138181
 11
19.8584341984
 21
6.891699805
  0
SPLINE
  5
2E9
100
AcDbEntity
  8
0
100
AcDbSpline
 62
7
  6
CONTINUOUS
 70
0
 71
3
 72
31
 73
27
 74
0
 42
0.0000001
 43
0.0000001
 44
0.0000000001
 40
0.0
 40
0.0
 40
0.0
 40
0.0
 40
0.214475178
 40
0.3148192508
 40
0.4098328898
 40
0.4990720034
 40
0.5821485763
 40
0.6586752051
 40
0.7282645932
 40
0.7905296124
 40
0.8450854575
 40
0.8693748783
 40
0.8916456384
 40
0.9118807235
 40
0.9300632202
 40
0.94617637
 40
0.9602036638
 40
0.9721290229
 40
0.9819371788
 40
0.9896145894
 40
0.9951521511
 40
0.9971198626
 40
0.9985593569
 40
0.9990864104
 40
0.9994917186
 40
1.0
 40
1.0
 40
1.0
 40
1.0
 10
19.8679834817
 20
7.5559809116
 30
0.0
 10
19.8676987483
 20
7.5745395124
 30
0.0
 10
19.8672679797
 20
7.6017807258
 30
0.0
 10
19.8666660233
 20
7.637242756
 30
0.0
 10
19.8662246165
 20
7.6618679508
 30
0.0
 10
19.8657833762
 20
7.6849985569
 30
0.0
 10
19.865342512
 20
7.7065289858
 30
0.0
 10
19.8649021415
 20
7.7263585452
 30
0.0
 10
19.8644624811
 20
7.7443865991
 30
0.0
 10
19.8640237782
 20
7.7605126892
 30
0.0
 10
19.8636460738
 20
7.7727186465
 30
0.0
 10
19.8633397206
 20
7.7814639233
 30
0.0
 10
19.8631191165
 20
7.7872402183
 30
0.0
 10
19.8628987362
 20
7.7924876057
 30
0.0
 10
19.8626786563
 20
7.7972016094
 30
0.0
 10
19.8624589612
 20
7.8013777518
 30
0.0
 10
19.8622399661
 20
7.8050116116
 30
0.0
 10
19.8620216513
 20
7.8080987017
 30
0.0
 10
19.861805673
 20
7.8106349678
 30
0.0
 10
19.8615906039
 20
7.8126158311
 30
0.0
 10
19.8614039514
 20
7.8139171918
 30
0.0
 10
19.8612409941
 20
7.8146746982
 30
0.0
 10
19.8611474882
 20
7.8150018284
 30
0.0
 10
19.8610651608
 20
7.8151920898
 30
0.0
 10
19.8610051932
 20
7.8152973547
 30
0.0
 10
19.860936671
 20
7.815360855
 30
0.0
 10
19.8608926841
 20
7.8153608728
 30
0.0
  0
SPLINE
  5
2EA
100
AcDbEntity
  8
0
100
AcDbSpline
 62
7
  6
CONTINUOUS
 70
0
 71
3
 72
32
 73
28
 74
0
 42
0.0000001
 43
0.0000001
 44
0.0000000001
 40
0.0
 40
0.0
 40
0.0
 40
0.0
 40
0.0198720423
 40
0.0427917788
 40
0.0970648643
 40
0.1613979768
 40
0.2341651979
 40
0.3133369516
 40
0.3968315982
 40
0.4824571803
 40
0.5679074932
 40
0.6508855894
 40
0.7292301282
 40
0.8008536667
 40
0.8335043201
 40
0.863768118
 40
0.8914644689
 40
0.9164128306
 40
0.9384327394
 40
0.9573454319
 40
0.9730230063
 40
0.9796274671
 40
0.9853985579
 40
0.9903285585
 40
0.994409969
 40
0.9976357492
 40
1.0
 40
1.0
 40
1.0
 40
1.0
 10
19.8679834891
 20
6.9558689643
 30
0.0
 10
19.8677981227
 20
6.9615487875
 30
0.0
 10
19.8674357282
 20
6.9737807262
 30
0.0
 10
19.8667204318
 20
7.0015293782
 30
0.0
 10
19.8658521526
 20
7.0419926718
 30
0.0
 10
19.8648506758
 20
7.0967109774
 30
0.0
 10
19.8638468094
 20
7.15855062
 30
0.0
 10
19.8628385891
 20
7.2258704965
 30
0.0
 10
19.8618291016
 20
7.2968678733
 30
0.0
 10
19.8608192684
 20
7.3696609101
 30
0.0
 10
19.8598094806
 20
7.4423062146
 30
0.0
 10
19.8588000185
 20
7.5128691472
 30
0.0
 10
19.8577922949
 20
7.5794776112
 30
0.0
 10
19.8569317528
 20
7.6316943935
 30
0.0
 10
19.8562313272
 20
7.6701621225
 30
0.0
 10
19.8557226935
 20
7.6960692909
 30
0.0
 10
19.8552148772
 20
7.7197733795
 30
0.0
 10
19.8547080911
 20
7.7411193762
 30
0.0
 10
19.8542031293
 20
7.7599527633
 30
0.0
 10
19.8536997958
 20
7.7761339106
 30
0.0
 10
19.8532616161
 20
7.7879064445
 30
0.0
 10
19.8529023623
 20
7.7959208397
 30
0.0
 10
19.8526492483
 20
7.8008633205
 30
0.0
 10
19.8523970678
 20
7.8050832083
 30
0.0
 10
19.8521469305
 20
7.8085739591
 30
0.0
 10
19.8518988753
 20
7.8113285714
 30
0.0
 10
19.8517101222
 20
7.8129167398
 30
0.0
 10
19.8516057657
 20
7.8135847471
 30
0.0
  0
LINE
  5
2EB
100
AcDbEntity
  8
0
100
AcDbLine
 62
7
  6
CONTINUOUS
 10
19.8516057657
 20
7.8135847471
 11
19.8511976977
 21
7.8152381397
  0
SPLINE
  5
2EC
100
AcDbEntity
  8
0
100
AcDbSpline
 62
7
  6
CONTINUOUS
 70
0
 71
3
 72
15
 73
11
 74
0
 42
0.0000001
 43
0.0000001
 44
0.0000000001
 40
0.0
 40
0.0
 40
0.0
 40
0.0
 40
0.1411184112
 40
0.2808062201
 40
0.4173127924
 40
0.5491164594
 40
0.6746979433
 40
0.7925916303
 40
0.901464091
 40
1.0
 40
1.0
 40
1.0
 40
1.0
 10
19.850581273
 20
7.3641708734
 30
0.0
 10
19.8507234705
 20
7.3473176997
 30
0.0
 10
19.8509922162
 20
7.3137820854
 30
0.0
 10
19.8514021737
 20
7.2639440972
 30
0.0
 10
19.8518378792
 20
7.2152188303
 30
0.0
 10
19.8522731684
 20
7.1681783505
 30
0.0
 10
19.8527069243
 20
7.1233608908
 30
0.0
 10
19.8531392439
 20
7.0812822273
 30
0.0
 10
19.8535508221
 20
7.0424335803
 30
0.0
 10
19.853831982
 20
7.0176643814
 30
0.0
 10
19.8539780915
 20
7.0058971436
 30
0.0
  0
SPLINE
  5
2ED
100
AcDbEntity
  8
0
100
AcDbSpline
 62
7
  6
CONTINUOUS
 70
0
 71
3
 72
17
 73
13
 74
0
 42
0.0000001
 43
0.0000001
 44
0.0000000001
 40
0.0
 40
0.0
 40
0.0
 40
0.0
 40
0.0119705022
 40
0.0304572291
 40
0.0556384602
 40
0.0875755603
 40
0.1717996692
 40
0.2832005558
 40
0.4217660221
 40
0.5874591324
 40
0.7802321591
 40
1.0
 40
1.0
 40
1.0
 40
1.0
 10
19.8444142028
 20
7.8269837786
 30
0.0
 10
19.8444367981
 20
7.8269471193
 30
0.0
 10
19.8444744756
 20
7.8268428205
 30
0.0
 10
19.8445227318
 20
7.8266489895
 30
0.0
 10
19.8445715286
 20
7.8263810501
 30
0.0
 10
19.8446444955
 20
7.825877909
 30
0.0
 10
19.8447308315
 20
7.8250635135
 30
0.0
 10
19.8448294135
 20
7.8238653464
 30
0.0
 10
19.8449284647
 20
7.8223732386
 30
0.0
 10
19.8450279953
 20
7.8205879491
 30
0.0
 10
19.8451275365
 20
7.8185101397
 30
0.0
 10
19.8451897611
 20
7.8170273395
 30
0.0
 10
19.8452212005
 20
7.8162373592
 30
0.0
  0
SPLINE
  5
2EE
100
AcDbEntity
  8
0
100
AcDbSpline
 62
7
  6
CONTINUOUS
 70
0
 71
3
 72
10
 73
6
 74
0
 42
0.0000001
 43
0.0000001
 44
0.0000000001
 40
0.0
 40
0.0
 40
0.0
 40
0.0
 40
0.1777723209
 40
0.4028025349
 40
1.0
 40
1.0
 40
1.0
 40
1.0
 10
19.8525560896
 20
6.8932015096
 30
0.0
 10
19.852440877
 20
6.8933922108
 30
0.0
 10
19.852219559
 20
6.8938479537
 30
0.0
 10
19.8517826652
 20
6.8950233718
 30
0.0
 10
19.8515215023
 20
6.8960228382
 30
0.0
 10
19.8513492668
 20
6.8967512201
 30
0.0
  0
SPLINE
  5
2EF
100
AcDbEntity
  8
0
100
AcDbSpline
 62
7
  6
CONTINUOUS
 70
0
 71
3
 72
11
 73
7
 74
0
 42
0.0000001
 43
0.0000001
 44
0.0000000001
 40
0.0
 40
0.0
 40
0.0
 40
0.0
 40
0.1798600304
 40
0.4065582284
 40
0.6800074611
 40
1.0
 40
1.0
 40
1.0
 40
1.0
 10
19.8513492668
 20
6.8967512201
 30
0.0
 10
19.8511099892
 20
6.8977631221
 30
0.0
 10
19.8506549765
 20
6.9000704683
 30
0.0
 10
19.8500428535
 20
6.9039541334
 30
0.0
 10
19.8494264845
 20
6.9086557506
 30
0.0
 10
19.8490427965
 20
6.9120651695
 30
0.0
 10
19.8488475418
 20
6.9139047784
 30
0.0
  0
SPLINE
  5
2F0
100
AcDbEntity
  8
0
100
AcDbSpline
 62
7
  6
CONTINUOUS
 70
0
 71
3
 72
8
 73
4
 74
0
 42
0.0000001
 43
0.0000001
 44
0.0000000001
 40
0.0
 40
0.0
 40
0.0
 40
0.0
 40
1.0
 40
1.0
 40
1.0
 40
1.0
 10
19.8379850787
 20
7.1190217155
 30
0.0
 10
19.8379846376
 20
7.1190334046
 30
0.0
 10
19.8379841965
 20
7.1190450937
 30
0.0
 10
19.8379837554
 20
7.1190567827
 30
0.0
  0
SPLINE
  5
2F1
100
AcDbEntity
  8
0
100
AcDbSpline
 62
7
  6
CONTINUOUS
 70
0
 71
3
 72
12
 73
8
 74
0
 42
0.0000001
 43
0.0000001
 44
0.0000000001
 40
0.0
 40
0.0
 40
0.0
 40
0.0
 40
0.0677162681
 40
0.1521597377
 40
0.370530134
 40
0.6536774558
 40
1.0
 40
1.0
 40
1.0
 40
1.0
 10
19.8402243703
 20
6.9185620059
 30
0.0
 10
19.840115068
 20
6.9197967128
 30
0.0
 10
19.8399064485
 20
6.9225743632
 30
0.0
 10
19.8394948133
 20
6.9293444502
 30
0.0
 10
19.8390049713
 20
6.9400596672
 30
0.0
 10
19.8384446972
 20
6.9555691719
 30
0.0
 10
19.8381030219
 20
6.9670865402
 30
0.0
 10
19.8379271797
 20
6.9734234796
 30
0.0
  0
SPLINE
  5
2F2
100
AcDbEntity
  8
0
100
AcDbSpline
 62
9
  6
CONTINUOUS
 70
0
 71
3
 72
63
 73
59
 74
0
 42
0.0000001
 43
0.0000001
 44
0.0000000001
 40
0.0
 40
0.0
 40
0.0
 40
0.0
 40
0.0000550109
 40
0.0002177629
 40
0.0004874676
 40
0.0008633367
 40
0.0019304153
 40
0.0034126925
 40
0.0053038626
 40
0.0075976198
 40
0.0102876587
 40
0.013367674
 40
0.0206636107
 40
0.0293909831
 40
0.0394465606
 40
0.0507271373
 40
0.0631314725
 40
0.0765661158
 40
0.106160573
 40
0.1388136754
 40
0.17396572
 40
0.2111216789
 40
0.2499015903
 40
0.2899669373
 40
0.3310171944
 40
0.3728005425
 40
0.4150506192
 40
0.43629121
 40
0.457547339
 40
0.4999996328
 40
0.5424520728
 40
0.5637083069
 40
0.5849489827
 40
0.6271991366
 40
0.6689825112
 40
0.7100328266
 40
0.7500982527
 40
0.7888782322
 40
0.8260342312
 40
0.8611862801
 40
0.8938393655
 40
0.9234338045
 40
0.9368684449
 40
0.9492727847
 40
0.9605533749
 40
0.9706089696
 40
0.9793363559
 40
0.9866322968
 40
0.9897123089
 40
0.9924023425
 40
0.9946960943
 40
0.996587261
 40
0.9980695388
 40
0.9991366239
 40
0.9995124992
 40
0.9997822124
 40
0.9999449753
 40
1.0
 40
1.0
 40
1.0
 40
1.0
 10
21.3679829286
 20
8.0866704343
 30
0.0
 10
21.3679640964
 20
8.0866503031
 30
0.0
 10
21.3678858097
 20
8.0865742156
 30
0.0
 10
21.3677149669
 20
8.086399652
 30
0.0
 10
21.3674286518
 20
8.0861130997
 30
0.0
 10
21.3668239342
 20
8.0855041203
 30
0.0
 10
21.3657896356
 20
8.0844653716
 30
0.0
 10
21.3642196416
 20
8.0828884773
 30
0.0
 10
21.3622149172
 20
8.0808769845
 30
0.0
 10
21.3597821237
 20
8.0784376488
 30
0.0
 10
21.3569274976
 20
8.0755776348
 30
0.0
 10
21.3523002897
 20
8.0709452696
 30
0.0
 10
21.3455305465
 20
8.0641769128
 30
0.0
 10
21.3362764853
 20
8.0549494645
 30
0.0
 10
21.3255909025
 20
8.044329791
 30
0.0
 10
21.3135756072
 20
8.0324342429
 30
0.0
 10
21.3003288277
 20
8.0193758745
 30
0.0
 10
21.2804949572
 20
7.9999271589
 30
0.0
 10
21.2532905246
 20
7.9735025615
 30
0.0
 10
21.2180162857
 20
7.9397680637
 30
0.0
 10
21.1796081217
 20
7.903831974
 30
0.0
 10
21.1384305053
 20
7.866367941
 30
0.0
 10
21.0946663107
 20
7.8281026321
 30
0.0
 10
21.0484385354
 20
7.7897107519
 30
0.0
 10
20.9994591151
 20
7.7523358221
 30
0.0
 10
20.9475198044
 20
7.7171724152
 30
0.0
 10
20.9012076968
 20
7.6916268378
 30
0.0
 10
20.861970037
 20
7.6752459422
 30
0.0
 10
20.8213045766
 20
7.6625039983
 30
0.0
 10
20.7679840019
 20
7.6552185276
 30
0.0
 10
20.7146633538
 20
7.6625038491
 30
0.0
 10
20.673997687
 20
7.6752456977
 30
0.0
 10
20.6347598551
 20
7.6916265335
 30
0.0
 10
20.5884476394
 20
7.7171721185
 30
0.0
 10
20.5365082398
 20
7.7523355383
 30
0.0
 10
20.4875287477
 20
7.7897105105
 30
0.0
 10
20.4413008941
 20
7.8281024575
 30
0.0
 10
20.3975366327
 20
7.8663678326
 30
0.0
 10
20.3563589746
 20
7.9038319036
 30
0.0
 10
20.3179507893
 20
7.9397679905
 30
0.0
 10
20.2826765492
 20
7.9735024647
 30
0.0
 10
20.2554721276
 20
7.9999270459
 30
0.0
 10
20.2356382638
 20
8.0193757566
 30
0.0
 10
20.2223914803
 20
8.0324341316
 30
0.0
 10
20.2103761738
 20
8.0443296936
 30
0.0
 10
20.1996905763
 20
8.0549493841
 30
0.0
 10
20.1904365031
 20
8.0641768454
 30
0.0
 10
20.1836667543
 20
8.0709452072
 30
0.0
 10
20.1790395469
 20
8.0755775698
 30
0.0
 10
20.1761849248
 20
8.0784375779
 30
0.0
 10
20.1737521355
 20
8.0808769079
 30
0.0
 10
20.1717474127
 20
8.0828883964
 30
0.0
 10
20.1701774181
 20
8.0844652927
 30
0.0
 10
20.1691431117
 20
8.0855040433
 30
0.0
 10
20.1685383907
 20
8.086113034
 30
0.0
 10
20.1682520601
 20
8.0863995895
 30
0.0
 10
20.1680812179
 20
8.0865741763
 30
0.0
 10
20.1680029103
 20
8.0866502613
 30
0.0
 10
20.167984079
 20
8.0866704027
 30
0.0
  0
ENDSEC
  0
SECTION
  2
OBJECTS
  0
DICTIONARY
  5
C
100
AcDbDictionary
280
0
281
1
  3
ACAD_GROUP
350
D
  3
ACAD_MLINESTYLE
350
17
  3
ACAD_LAYOUT
350
1A
  3
ACAD_PLOTSETTINGS
350
19
  3
ACAD_PLOTSTYLENAME
350
E
  0
DICTIONARY
  5
D
102
{ACAD_REACTORS
330
C
102
}
100
AcDbDictionary
280
0
281
1
  0
ACDBDICTIONARYWDFLT
  5
E
102
{ACAD_REACTORS
330
C
102
}
100
AcDbDictionary
281
1
  3
Normal
350
F
100
AcDbDictionaryWithDefault
340
F
  0
DICTIONARY
  5
17
102
{ACAD_REACTORS
330
C
102
}
100
AcDbDictionary
280
0
281
1
  3
Standard
350
18
  0
DICTIONARY
  5
19
102
{ACAD_REACTORS
330
C
102
}
100
AcDbDictionary
281
1
  0
DICTIONARY
  5
1A
102
{ACAD_REACTORS
330
C
102
}
100
AcDbDictionary
281
1
  3
Model
350
2F3
  3
Layout1
350
2F4
  0
ACDBPLACEHOLDER
  5
F
102
{ACAD_REACTORS
330
E
102
}
  0
MLINESTYLE
  5
18
102
{ACAD_REACTORS
330
17
102
}
100
AcDbMlineStyle
  2
STANDARD
 70
0
  3

 62
256
 51
90.0
 52
90.0
 71
2
 49
0.5
 62
256
  6
BYLAYER
 49
-0.5
 62
256
  6
BYLAYER
  0
LAYOUT
  5
2F3
102
{ACAD_REACTORS
330
1A
102
}
100
AcDbPlotSettings
  1

  2
none_device
  4
ANSI_C_(22.00_x_17.00_Inches)
  6

 40
0.0
 41
0.0
 42
0.0
 43
0.0
 44
558.8
 45
431.8
 46
0.0
 47
0.0
 48
0.0
 49
0.0
140
0.0
141
0.0
142
1.0
143
1.0
 70
1024
 72
0
 73
0
 74
0
  7

 75
0
147
1.0
148
0.0
149
0.0
100
AcDbLayout
  1
Model
 70
0
 71
0
 10
0.0
 20
0.0
 11
22.0
 21
17.0
 12
0.0
 22
0.0
 32
0.0
 14
0.0
 24
0.0
 34
0.0
 15
0.0
 25
0.0
 35
0.0
146
0.0
 13
0.0
 23
0.0
 33
0.0
 16
1.0
 26
0.0
 36
0.0
 17
0.0
 27
1.0
 37
0.0
 76
0
330
202
345
0
346
0
  0
LAYOUT
  5
2F4
102
{ACAD_REACTORS
330
1A
102
}
100
AcDbPlotSettings
  1

  2
none_device
  4
ANSI_C_(22.00_x_17.00_Inches)
  6

 40
0.0
 41
0.0
 42
0.0
 43
0.0
 44
558.8
 45
431.8
 46
0.0
 47
0.0
 48
0.0
 49
0.0
140
0.0
141
0.0
142
1.0
143
1.0
 70
0
 72
0
 73
0
 74
0
  7

 75
0
147
1.0
148
0.0
149
0.0
100
AcDbLayout
  1
Layout1
 70
0
 71
1
 10
0.0
 20
0.0
 11
22.0
 21
17.0
 12
0.0
 22
0.0
 32
0.0
 14
0.0
 24
0.0
 34
0.0
 15
0.0
 25
0.0
 35
0.0
146
0.0
 13
0.0
 23
0.0
 33
0.0
 16
1.0
 26
0.0
 36
0.0
 17
0.0
 27
1.0
 37
0.0
 76
0
330
203
345
0
346
0
  0
ENDSEC
  0
EOF
