999
DXF file: 3180-5711_front.dxf
999
Pro/ENGINEER 2018400 by Parametric Technology Corporation
  0
SECTION
  2
HEADER
  9
$ACADVER
  1
AC1027
  9
$DWGCODEPAGE
  3
ANSI_1252
  9
$EXTMAX
 10
11.0
 20
8.5
 30
0.0
  9
$EXTMIN
 10
0.0
 20
0.0
 30
0.0
  9
$LIMMIN
 10
0.0
 20
0.0
  9
$LIMMAX
 10
11.0
 20
8.5
  9
$VIEWCTR
 10
5.5
 20
4.25
  9
$VIEWSIZE
 40
8.5
  9
$CLAYER
  8
0
  9
$LTSCALE
 40
0.605
  9
$CELTYPE
  6
BYLAYER
  9
$DIMSCALE
 40
1.0
  9
$DIMASZ
 40
0.1
  9
$DIMEXO
 40
0.0625
  9
$DIMDLI
 40
0.418
  9
$DIMEXE
 40
0.125
  9
$DIMCEN
 40
0.099
  9
$DIMLFAC
 40
1.0
  9
$DIMBLK
  1
_FILLED
  9
$DIMALT
 70
1
  9
$DIMALTD
 70
1
  9
$DIMALTTD
 70
2
  9
$DIMALTF
 40
25.4
  9
$DIMTXT
 40
0.08
  9
$DIMTOL
 70
1
  9
$DIMLIM
 70
0
  9
$DIMTFAC
 40
1.0
  9
$DIMTP
 40
0.01
  9
$DIMTM
 40
0.01
  9
$DIMGAP
 40
0.09
  9
$DIMDSEP
 70
46
  9
$AUNITS
 70
0
  9
$PDMODE
 70
3
  9
$PDSIZE
 40
0.3125
  9
$HANDSEED
  5
3C9
  9
$TILEMODE
 70
1
  9
$MEASUREMENT
 70
0
  9
$INSUNITS
 70
1
  0
ENDSEC
  0
SECTION
  2
CLASSES
  0
CLASS
  1
ACDBDICTIONARYWDFLT
  2
AcDbDictionaryWithDefault
  3
AutoCAD 2000
 90
0
 91
1
280
0
281
0
  0
CLASS
  1
ACDBPLACEHOLDER
  2
AcDbPlaceHolder
  3
AutoCAD 2000
 90
0
 91
1
280
0
281
0
  0
CLASS
  1
LAYOUT
  2
AcDbLayout
  3
AutoCAD 2000
 90
0
 91
0
280
0
281
0
  0
ENDSEC
  0
SECTION
  2
TABLES
  0
TABLE
  2
VPORT
  5
8
100
AcDbSymbolTable
 70
2
  0
VPORT
  5
1F4
100
AcDbSymbolTableRecord
100
AcDbViewportTableRecord
  2
*ACTIVE
 70
0
 10
0.0
 20
0.0
 11
1.0
 21
1.0
 12
5.5
 22
4.25
 13
0.0
 23
0.0
 14
1.0
 24
1.0
 15
0.0
 25
0.0
 16
0.0
 26
0.0
 36
1.0
 17
0.0
 27
0.0
 37
0.0
 40
8.5
 41
1.2941176471
 42
50.0
 43
0.0
 44
0.0
 50
0.0
 51
0.0
 71
0
 72
100
 73
1
 74
1
 75
0
 76
0
 77
0
 78
0
  0
ENDTAB
  0
TABLE
  2
LTYPE
  5
5
100
AcDbSymbolTable
 70
6
  0
LTYPE
  5
14
100
AcDbSymbolTableRecord
100
AcDbLinetypeTableRecord
  2
BYBLOCK
 70
0
  3

 72
65
 73
0
 40
0.0
  0
LTYPE
  5
15
100
AcDbSymbolTableRecord
100
AcDbLinetypeTableRecord
  2
BYLAYER
 70
0
  3

 72
65
 73
0
 40
0.0
  0
LTYPE
  5
16
100
AcDbSymbolTableRecord
100
AcDbLinetypeTableRecord
  2
CONTINUOUS
 70
64
  3
Solid line
 72
65
 73
0
 40
0.0
  0
LTYPE
  5
1F5
100
AcDbSymbolTableRecord
100
AcDbLinetypeTableRecord
  2
CENTER
 70
64
  3
____ _ ____ _ ____ _ ____ _ ____ _ ____ _ ____
 72
65
 73
4
 40
0.6
 49
0.375
 74
0
 49
-0.075
 74
0
 49
0.075
 74
0
 49
-0.075
 74
0
  0
LTYPE
  5
1F6
100
AcDbSymbolTableRecord
100
AcDbLinetypeTableRecord
  2
HIDDEN
 70
64
  3
- - - - - - - - - - - - - - - - - - - -
 72
65
 73
2
 40
0.2
 49
0.1
 74
0
 49
-0.1
 74
0
  0
LTYPE
  5
1F7
100
AcDbSymbolTableRecord
100
AcDbLinetypeTableRecord
  2
PHANTOM
 70
64
  3
_____ _ _ _____ _ _ _____ _ _ _____
 72
65
 73
6
 40
0.8
 49
0.45
 74
0
 49
-0.05
 74
0
 49
0.1
 74
0
 49
-0.05
 74
0
 49
0.1
 74
0
 49
-0.05
 74
0
  0
LTYPE
  5
1F8
100
AcDbSymbolTableRecord
100
AcDbLinetypeTableRecord
  2
DOT
 70
64
  3
. . . . . . . . . . . . . . . . . . . .
 72
65
 73
2
 40
0.2
 49
0.1
 74
0
 49
-0.1
 74
0
  0
LTYPE
  5
1F9
100
AcDbSymbolTableRecord
100
AcDbLinetypeTableRecord
  2
DASHED
 70
64
  3
- - - - - - - - - - - - - - - - - - - -
 72
65
 73
2
 40
0.2
 49
0.1
 74
0
 49
-0.1
 74
0
  0
ENDTAB
  0
TABLE
  2
LAYER
  5
2
100
AcDbSymbolTable
 70
36
  0
LAYER
  5
10
100
AcDbSymbolTableRecord
100
AcDbLayerTableRecord
  2
0
 70
0
 62
7
  6
CONTINUOUS
370
-3
390
F
  0
LAYER
  5
1FA
100
AcDbSymbolTableRecord
100
AcDbLayerTableRecord
  2
DEFAULT_1
 70
0
 62
7
  6
CENTER
370
-3
390
F
  0
LAYER
  5
1FB
100
AcDbSymbolTableRecord
100
AcDbLayerTableRecord
  2
DEFAULT_2
 70
0
 62
8
  6
HIDDEN
370
-3
390
F
  0
LAYER
  5
1FC
100
AcDbSymbolTableRecord
100
AcDbLayerTableRecord
  2
DEFAULT_3
 70
0
 62
7
  6
PHANTOM
370
-3
390
F
  0
LAYER
  5
1FD
100
AcDbSymbolTableRecord
100
AcDbLayerTableRecord
  2
DEFAULT_COORDINATE_SYSTEM
 70
0
 62
7
  6
CONTINUOUS
370
-3
390
F
  0
LAYER
  5
1FE
100
AcDbSymbolTableRecord
100
AcDbLayerTableRecord
  2
DEFAULT_DATUM_AXES
 70
0
 62
7
  6
CONTINUOUS
370
-3
390
F
  0
LAYER
  5
1FF
100
AcDbSymbolTableRecord
100
AcDbLayerTableRecord
  2
DEFAULT_DATUM_PLANES
 70
0
 62
7
  6
CONTINUOUS
370
-3
390
F
  0
ENDTAB
  0
TABLE
  2
STYLE
  5
3
100
AcDbSymbolTable
 70
1
  0
STYLE
  5
11
100
AcDbSymbolTableRecord
100
AcDbTextStyleTableRecord
  2
STANDARD
 70
0
 40
0.0
 41
0.8
 50
0.0
 71
0
 42
0.2
  3
txt
  4

  0
STYLE
  5
200
100
AcDbSymbolTableRecord
100
AcDbTextStyleTableRecord
  2
TEXTSTYLE_1
 70
0
 40
0.0
 41
0.8
 50
0.0
 71
0
 42
0.2
  3
gdt
  4

  0
ENDTAB
  0
TABLE
  2
VIEW
  5
6
100
AcDbSymbolTable
 70
0
  0
ENDTAB
  0
TABLE
  2
UCS
  5
7
100
AcDbSymbolTable
 70
0
  0
ENDTAB
  0
TABLE
  2
APPID
  5
9
100
AcDbSymbolTable
 70
1
  0
APPID
  5
201
100
AcDbSymbolTableRecord
100
AcDbRegAppTableRecord
  2
ACAD
 70
0
  0
ENDTAB
  0
TABLE
  2
BLOCK_RECORD
  5
1
100
AcDbSymbolTable
 70
0
  0
BLOCK_RECORD
  5
202
100
AcDbSymbolTableRecord
100
AcDbBlockTableRecord
  2
*Model_Space
  0
BLOCK_RECORD
  5
203
100
AcDbSymbolTableRecord
100
AcDbBlockTableRecord
  2
*Paper_Space
  0
BLOCK_RECORD
  5
204
100
AcDbSymbolTableRecord
100
AcDbBlockTableRecord
  2
_FILLED
  0
ENDTAB
  0
TABLE
  2
DIMSTYLE
  5
A
100
AcDbSymbolTable
 70
1
100
AcDbDimStyleTable
 71
0
  0
DIMSTYLE
105
205
100
AcDbSymbolTableRecord
100
AcDbDimStyleTableRecord
  2
STANDARD
 70
0
  3

  4

 40
1.0
 41
0.1
 42
0.0625
 43
0.38
 44
0.125
 45
0.0
 46
0.0
 47
0.01
 48
0.01
140
0.08
141
0.09
142
0.0
143
25.4
144
1.0
145
0.0
146
1.0
147
0.09
 71
1.0
 72
0.0
 73
1
 74
1
 75
0
 76
0
 77
0
 78
4
 79
1
170
1
171
1
172
0
173
0
174
0
175
0
176
0
177
0
178
0
270
2
179
2
271
2
272
2
273
2
274
2
275
0
280
0
281
0
282
0
283
1
284
4
285
0
286
0
287
3
288
0
340
11
278
46
341
204
342
204
343
204
344
204
  0
ENDTAB
  0
ENDSEC
  0
SECTION
  2
BLOCKS
  0
BLOCK
  5
20
100
AcDbEntity
  8
0
100
AcDbBlockBegin
  2
*Model_Space
 70
0
 10
0.0
 20
0.0
 30
0.0
  3
*Model_Space
  1

  0
ENDBLK
  5
21
100
AcDbEntity
  8
0
100
AcDbBlockEnd
  0
BLOCK
  5
1C
100
AcDbEntity
  8
0
100
AcDbBlockBegin
  2
*Paper_Space
 70
0
 10
0.0
 20
0.0
 30
0.0
  3
*Paper_Space
  1

  0
ENDBLK
  5
1D
100
AcDbEntity
  8
0
100
AcDbBlockEnd
  0
BLOCK
  5
206
100
AcDbEntity
  8
0
100
AcDbBlockBegin
  2
_FILLED
 70
64
 10
0.0
 20
0.0
  3
_FILLED
  1

  0
SOLID
  5
207
100
AcDbEntity
  8
0
  6
BYBLOCK
 62
0
100
AcDbTrace
 10
0.0
 20
0.0
 11
-1.0
 21
0.2
 12
-1.0
 22
-0.2
 13
-1.0
 23
-0.2
  0
ENDBLK
  5
208
100
AcDbEntity
  8
0
  6
BYBLOCK
 62
0
100
AcDbBlockEnd
  0
ENDSEC
  0
SECTION
  2
ENTITIES
  0
MTEXT
  5
209
100
AcDbEntity
  8
0
100
AcDbMText
 62
2
  6
CONTINUOUS
  7
STANDARD
 71
3
 72
1
 10
5.4077639752
 20
1.4182531056
 30
0.0
 11
1.0
 21
0.0
 31
0.0
 73
2
 44
0.9
  1
SCALE  .500
 40
0.08
 41
0.704
  0
LINE
  5
20A
100
AcDbEntity
  8
0
100
AcDbLine
 62
7
  6
CONTINUOUS
 10
0.0
 20
0.0
 11
0.0
 21
8.5
  0
LINE
  5
20B
100
AcDbEntity
  8
0
100
AcDbLine
 62
7
  6
CONTINUOUS
 10
0.0
 20
0.0
 11
11.0
 21
0.0
  0
LINE
  5
20C
100
AcDbEntity
  8
0
100
AcDbLine
 62
7
  6
CONTINUOUS
 10
0.0
 20
8.5
 11
11.0
 21
8.5
  0
LINE
  5
20D
100
AcDbEntity
  8
0
100
AcDbLine
 62
7
  6
CONTINUOUS
 10
11.0
 20
0.0
 11
11.0
 21
8.5
  0
LINE
  5
20E
100
AcDbEntity
  8
0
100
AcDbLine
 62
7
  6
CONTINUOUS
 10
5.1101301429
 20
2.4471428571
 11
5.4151301429
 21
2.4471428571
  0
LINE
  5
20F
100
AcDbEntity
  8
0
100
AcDbLine
 62
7
  6
CONTINUOUS
 10
5.1101301429
 20
2.4618928571
 11
5.4151301429
 21
2.4618928571
  0
LINE
  5
210
100
AcDbEntity
  8
0
100
AcDbLine
 62
7
  6
CONTINUOUS
 10
5.1101301429
 20
2.4913928571
 11
5.4151301429
 21
2.4913928571
  0
LINE
  5
211
100
AcDbEntity
  8
0
100
AcDbLine
 62
7
  6
CONTINUOUS
 10
5.1101301429
 20
2.5698928571
 11
5.4151301429
 21
2.5698928571
  0
LINE
  5
212
100
AcDbEntity
  8
0
100
AcDbLine
 62
7
  6
CONTINUOUS
 10
5.1101301429
 20
2.5993928571
 11
5.4151301429
 21
2.5993928571
  0
LINE
  5
213
100
AcDbEntity
  8
0
100
AcDbLine
 62
7
  6
CONTINUOUS
 10
4.7255178346
 20
2.5935987259
 11
4.3385244096
 21
2.7740567236
  0
LINE
  5
214
100
AcDbEntity
  8
0
100
AcDbLine
 62
7
  6
CONTINUOUS
 10
5.1101301429
 20
2.6778928571
 11
5.4151301429
 21
2.6778928571
  0
LINE
  5
215
100
AcDbEntity
  8
0
100
AcDbLine
 62
7
  6
CONTINUOUS
 10
5.1101301429
 20
2.7073928571
 11
5.4151301429
 21
2.7073928571
  0
LINE
  5
216
100
AcDbEntity
  8
0
100
AcDbLine
 62
7
  6
CONTINUOUS
 10
5.1101301429
 20
2.7858928571
 11
5.4151301429
 21
2.7858928571
  0
LINE
  5
217
100
AcDbEntity
  8
0
100
AcDbLine
 62
7
  6
CONTINUOUS
 10
5.1101301429
 20
2.8153928571
 11
5.4151301429
 21
2.8153928571
  0
LINE
  5
218
100
AcDbEntity
  8
0
100
AcDbLine
 62
7
  6
CONTINUOUS
 10
4.3549214233
 20
2.8092202331
 11
4.7419148483
 21
2.6287622353
  0
LINE
  5
219
100
AcDbEntity
  8
0
100
AcDbLine
 62
7
  6
CONTINUOUS
 10
4.7837129441
 20
2.7183985409
 11
4.396719519
 21
2.8988565386
  0
LINE
  5
21A
100
AcDbEntity
  8
0
100
AcDbLine
 62
7
  6
CONTINUOUS
 10
5.1101301429
 20
2.8938928571
 11
5.4151301429
 21
2.8938928571
  0
LINE
  5
21B
100
AcDbEntity
  8
0
100
AcDbLine
 62
7
  6
CONTINUOUS
 10
5.1101301429
 20
2.9233928571
 11
5.4151301429
 21
2.9233928571
  0
LINE
  5
21C
100
AcDbEntity
  8
0
100
AcDbLine
 62
7
  6
CONTINUOUS
 10
4.8000248593
 20
2.753379556
 11
4.4130314343
 21
2.9338375538
  0
LINE
  5
21D
100
AcDbEntity
  8
0
100
AcDbLine
 62
7
  6
CONTINUOUS
 10
4.8418229551
 20
2.8430158616
 11
4.45482953
 21
3.0234738593
  0
LINE
  5
21E
100
AcDbEntity
  8
0
100
AcDbLine
 62
7
  6
CONTINUOUS
 10
5.1101301429
 20
3.0018928571
 11
5.4151301429
 21
3.0018928571
  0
LINE
  5
21F
100
AcDbEntity
  8
0
100
AcDbLine
 62
7
  6
CONTINUOUS
 10
5.1101301429
 20
3.0313928571
 11
5.4151301429
 21
3.0313928571
  0
LINE
  5
220
100
AcDbEntity
  8
0
100
AcDbLine
 62
7
  6
CONTINUOUS
 10
4.8581348703
 20
2.8779968767
 11
4.4711414453
 21
3.0584548745
  0
LINE
  5
221
100
AcDbEntity
  8
0
100
AcDbLine
 62
7
  6
CONTINUOUS
 10
4.8999329661
 20
2.9676331823
 11
4.512939541
 21
3.1480911801
  0
LINE
  5
222
100
AcDbEntity
  8
0
100
AcDbLine
 62
7
  6
CONTINUOUS
 10
4.9162448813
 20
3.0026141975
 11
4.5292514562
 21
3.1830721952
  0
LINE
  5
223
100
AcDbEntity
  8
0
100
AcDbLine
 62
7
  6
CONTINUOUS
 10
5.0142387973
 20
3.2168188321
 11
5.112539337
 21
3.2168188321
  0
LINE
  5
224
100
AcDbEntity
  8
0
100
AcDbLine
 62
7
  6
CONTINUOUS
 10
4.958042977
 20
3.092250503
 11
4.571049552
 21
3.2727085008
  0
LINE
  5
225
100
AcDbEntity
  8
0
100
AcDbLine
 62
7
  6
CONTINUOUS
 10
4.9743548923
 20
3.1272315182
 11
4.5873614672
 21
3.3076895159
  0
LINE
  5
226
100
AcDbEntity
  8
0
100
AcDbLine
 62
7
  6
CONTINUOUS
 10
5.0145994485
 20
3.2175922511
 11
4.629159563
 21
3.3973258215
  0
LINE
  5
227
100
AcDbEntity
  8
0
100
AcDbLine
 62
7
  6
CONTINUOUS
 10
4.6454714782
 20
3.4323068366
 11
5.0309113638
 21
3.2525732662
  0
LINE
  5
228
100
AcDbEntity
  8
0
100
AcDbLine
 62
7
  6
CONTINUOUS
 10
5.1890732908
 20
3.6988060559
 11
4.8446372526
 21
3.8594192182
  0
LINE
  5
229
100
AcDbEntity
  8
0
100
AcDbLine
 62
7
  6
CONTINUOUS
 10
5.4151301429
 20
3.9371428571
 11
5.4145031339
 21
3.9371428571
  0
LINE
  5
22A
100
AcDbEntity
  8
0
100
AcDbLine
 62
7
  6
CONTINUOUS
 10
5.4151301429
 20
3.9503928571
 11
4.8301301429
 21
3.9503928571
  0
LINE
  5
22B
100
AcDbEntity
  8
0
100
AcDbLine
 62
7
  6
CONTINUOUS
 10
4.7138801429
 20
5.8154631991
 11
4.70528212
 21
5.7555226965
  0
LINE
  5
22C
100
AcDbEntity
  8
0
100
AcDbLine
 62
7
  6
CONTINUOUS
 10
4.5913801429
 20
5.7008928571
 11
4.5913801429
 21
5.5408928571
  0
LINE
  5
22D
100
AcDbEntity
  8
0
100
AcDbLine
 62
7
  6
CONTINUOUS
 10
4.6288801429
 20
5.7308928571
 11
4.6288801429
 21
5.7383928571
  0
LINE
  5
22E
100
AcDbEntity
  8
0
100
AcDbLine
 62
7
  6
CONTINUOUS
 10
4.6726301429
 20
5.0158928571
 11
4.6726301429
 21
5.0808928571
  0
LINE
  5
22F
100
AcDbEntity
  8
0
100
AcDbLine
 62
7
  6
CONTINUOUS
 10
4.6826301429
 20
4.9908928571
 11
4.6826301429
 21
5.0158928571
  0
LINE
  5
230
100
AcDbEntity
  8
0
100
AcDbLine
 62
7
  6
CONTINUOUS
 10
4.7138801429
 20
6.7333928571
 11
4.7138801429
 21
5.8154631991
  0
LINE
  5
231
100
AcDbEntity
  8
0
100
AcDbLine
 62
7
  6
CONTINUOUS
 10
4.7251301429
 20
4.9508928571
 11
4.7251301429
 21
4.7958928571
  0
LINE
  5
232
100
AcDbEntity
  8
0
100
AcDbLine
 62
7
  6
CONTINUOUS
 10
4.8078801429
 20
5.5264049893
 11
4.8078801429
 21
5.515730725
  0
LINE
  5
233
100
AcDbEntity
  8
0
100
AcDbLine
 62
7
  6
CONTINUOUS
 10
4.8078801429
 20
5.4919549893
 11
4.8078801429
 21
5.481280725
  0
LINE
  5
234
100
AcDbEntity
  8
0
100
AcDbLine
 62
7
  6
CONTINUOUS
 10
4.8078801429
 20
5.4575049893
 11
4.8078801429
 21
5.446830725
  0
LINE
  5
235
100
AcDbEntity
  8
0
100
AcDbLine
 62
7
  6
CONTINUOUS
 10
4.8078801429
 20
5.4230549893
 11
4.8078801429
 21
5.412380725
  0
LINE
  5
236
100
AcDbEntity
  8
0
100
AcDbLine
 62
7
  6
CONTINUOUS
 10
4.8078801429
 20
5.3886049893
 11
4.8078801429
 21
5.377930725
  0
LINE
  5
237
100
AcDbEntity
  8
0
100
AcDbLine
 62
7
  6
CONTINUOUS
 10
4.8078801429
 20
5.3541549893
 11
4.8078801429
 21
5.343480725
  0
LINE
  5
238
100
AcDbEntity
  8
0
100
AcDbLine
 62
7
  6
CONTINUOUS
 10
4.8078801429
 20
5.3197049893
 11
4.8078801429
 21
5.309030725
  0
LINE
  5
239
100
AcDbEntity
  8
0
100
AcDbLine
 62
7
  6
CONTINUOUS
 10
4.8078801429
 20
5.2852549893
 11
4.8078801429
 21
5.274580725
  0
LINE
  5
23A
100
AcDbEntity
  8
0
100
AcDbLine
 62
7
  6
CONTINUOUS
 10
4.8078801429
 20
5.2508049893
 11
4.8078801429
 21
5.240130725
  0
LINE
  5
23B
100
AcDbEntity
  8
0
100
AcDbLine
 62
7
  6
CONTINUOUS
 10
4.8078801429
 20
5.2163549893
 11
4.8078801429
 21
5.205680725
  0
LINE
  5
23C
100
AcDbEntity
  8
0
100
AcDbLine
 62
7
  6
CONTINUOUS
 10
4.8078801429
 20
5.1819049893
 11
4.8078801429
 21
5.171230725
  0
LINE
  5
23D
100
AcDbEntity
  8
0
100
AcDbLine
 62
7
  6
CONTINUOUS
 10
4.8078801429
 20
5.1474549893
 11
4.8078801429
 21
5.136780725
  0
LINE
  5
23E
100
AcDbEntity
  8
0
100
AcDbLine
 62
7
  6
CONTINUOUS
 10
4.8078801429
 20
5.1130049893
 11
4.8078801429
 21
5.102330725
  0
LINE
  5
23F
100
AcDbEntity
  8
0
100
AcDbLine
 62
7
  6
CONTINUOUS
 10
4.8078801429
 20
4.7685049893
 11
4.8078801429
 21
4.757830725
  0
LINE
  5
240
100
AcDbEntity
  8
0
100
AcDbLine
 62
7
  6
CONTINUOUS
 10
4.8282301429
 20
5.5408928571
 11
4.8282301429
 21
5.531864855
  0
LINE
  5
241
100
AcDbEntity
  8
0
100
AcDbLine
 62
7
  6
CONTINUOUS
 10
4.8282301429
 20
5.5104678571
 11
4.8282301429
 21
5.497414855
  0
LINE
  5
242
100
AcDbEntity
  8
0
100
AcDbLine
 62
7
  6
CONTINUOUS
 10
4.8282301429
 20
5.4760178571
 11
4.8282301429
 21
5.462964855
  0
LINE
  5
243
100
AcDbEntity
  8
0
100
AcDbLine
 62
7
  6
CONTINUOUS
 10
4.8282301429
 20
5.4415678571
 11
4.8282301429
 21
5.428514855
  0
LINE
  5
244
100
AcDbEntity
  8
0
100
AcDbLine
 62
7
  6
CONTINUOUS
 10
4.8282301429
 20
5.4071178571
 11
4.8282301429
 21
5.394064855
  0
LINE
  5
245
100
AcDbEntity
  8
0
100
AcDbLine
 62
7
  6
CONTINUOUS
 10
4.8282301429
 20
5.3726678571
 11
4.8282301429
 21
5.359614855
  0
LINE
  5
246
100
AcDbEntity
  8
0
100
AcDbLine
 62
7
  6
CONTINUOUS
 10
4.8282301429
 20
5.3382178571
 11
4.8282301429
 21
5.325164855
  0
LINE
  5
247
100
AcDbEntity
  8
0
100
AcDbLine
 62
7
  6
CONTINUOUS
 10
4.8282301429
 20
5.3037678571
 11
4.8282301429
 21
5.290714855
  0
LINE
  5
248
100
AcDbEntity
  8
0
100
AcDbLine
 62
7
  6
CONTINUOUS
 10
4.8282301429
 20
5.2693178571
 11
4.8282301429
 21
5.256264855
  0
LINE
  5
249
100
AcDbEntity
  8
0
100
AcDbLine
 62
7
  6
CONTINUOUS
 10
4.8282301429
 20
5.2348678571
 11
4.8282301429
 21
5.221814855
  0
LINE
  5
24A
100
AcDbEntity
  8
0
100
AcDbLine
 62
7
  6
CONTINUOUS
 10
4.8282301429
 20
5.2004178571
 11
4.8282301429
 21
5.187364855
  0
LINE
  5
24B
100
AcDbEntity
  8
0
100
AcDbLine
 62
7
  6
CONTINUOUS
 10
4.8282301429
 20
5.1659678571
 11
4.8282301429
 21
5.152914855
  0
LINE
  5
24C
100
AcDbEntity
  8
0
100
AcDbLine
 62
7
  6
CONTINUOUS
 10
4.8282301429
 20
5.1315178571
 11
4.8282301429
 21
5.118464855
  0
LINE
  5
24D
100
AcDbEntity
  8
0
100
AcDbLine
 62
7
  6
CONTINUOUS
 10
4.8282301429
 20
5.0970678571
 11
4.8282301429
 21
5.084014855
  0
LINE
  5
24E
100
AcDbEntity
  8
0
100
AcDbLine
 62
7
  6
CONTINUOUS
 10
4.8282301429
 20
4.7758928571
 11
4.8282301429
 21
4.773964855
  0
LINE
  5
24F
100
AcDbEntity
  8
0
100
AcDbLine
 62
7
  6
CONTINUOUS
 10
4.8282301429
 20
4.7525678571
 11
4.8282301429
 21
4.7456428571
  0
LINE
  5
250
100
AcDbEntity
  8
0
100
AcDbLine
 62
7
  6
CONTINUOUS
 10
4.8301301429
 20
4.7456428571
 11
4.8301301429
 21
3.9503928571
  0
LINE
  5
251
100
AcDbEntity
  8
0
100
AcDbLine
 62
7
  6
CONTINUOUS
 10
4.9051866743
 20
4.9508928571
 11
4.9051866743
 21
4.7958928571
  0
LINE
  5
252
100
AcDbEntity
  8
0
100
AcDbLine
 62
7
  6
CONTINUOUS
 10
4.9440956977
 20
4.9508928571
 11
4.9440956977
 21
4.7958928571
  0
LINE
  5
253
100
AcDbEntity
  8
0
100
AcDbLine
 62
7
  6
CONTINUOUS
 10
5.4162697319
 20
4.7693986966
 11
5.4366685474
 21
4.7746869683
  0
LINE
  5
254
100
AcDbEntity
  8
0
100
AcDbLine
 62
7
  6
CONTINUOUS
 10
5.1101301429
 20
2.4471428571
 11
5.1101301429
 21
2.4618928571
  0
LINE
  5
255
100
AcDbEntity
  8
0
100
AcDbLine
 62
7
  6
CONTINUOUS
 10
5.1101301429
 20
2.4913928571
 11
5.1101301429
 21
2.5698928571
  0
LINE
  5
256
100
AcDbEntity
  8
0
100
AcDbLine
 62
7
  6
CONTINUOUS
 10
5.1101301429
 20
2.5993928571
 11
5.1101301429
 21
2.6778928571
  0
LINE
  5
257
100
AcDbEntity
  8
0
100
AcDbLine
 62
7
  6
CONTINUOUS
 10
5.1101301429
 20
2.7073928571
 11
5.1101301429
 21
2.7858928571
  0
LINE
  5
258
100
AcDbEntity
  8
0
100
AcDbLine
 62
7
  6
CONTINUOUS
 10
5.1101301429
 20
2.8153928571
 11
5.1101301429
 21
2.8938928571
  0
LINE
  5
259
100
AcDbEntity
  8
0
100
AcDbLine
 62
7
  6
CONTINUOUS
 10
5.1101301429
 20
2.9233928571
 11
5.1101301429
 21
3.0018928571
  0
LINE
  5
25A
100
AcDbEntity
  8
0
100
AcDbLine
 62
7
  6
CONTINUOUS
 10
5.1101301429
 20
3.0313928571
 11
5.1101301429
 21
3.2168188321
  0
LINE
  5
25B
100
AcDbEntity
  8
0
100
AcDbLine
 62
7
  6
CONTINUOUS
 10
5.112539337
 20
3.2168188321
 11
5.112539337
 21
3.4276250197
  0
LINE
  5
25C
100
AcDbEntity
  8
0
100
AcDbLine
 62
7
  6
CONTINUOUS
 10
4.8289905537
 20
4.7741620177
 11
4.8085917382
 21
4.768873746
  0
LINE
  5
25D
100
AcDbEntity
  8
0
100
AcDbLine
 62
7
  6
CONTINUOUS
 10
5.4373801429
 20
4.7456428571
 11
4.8282306845
 21
4.7456428571
  0
LINE
  5
25E
100
AcDbEntity
  8
0
100
AcDbLine
 62
7
  6
CONTINUOUS
 10
5.5001301429
 20
4.7758928571
 11
4.7451301429
 21
4.7758928571
  0
LINE
  5
25F
100
AcDbEntity
  8
0
100
AcDbLine
 62
7
  6
CONTINUOUS
 10
5.3400736114
 20
4.7958928571
 11
5.301164588
 21
4.7958928571
  0
LINE
  5
260
100
AcDbEntity
  8
0
100
AcDbLine
 62
7
  6
CONTINUOUS
 10
4.9440956977
 20
4.7958928571
 11
4.9051866743
 21
4.7958928571
  0
LINE
  5
261
100
AcDbEntity
  8
0
100
AcDbLine
 62
7
  6
CONTINUOUS
 10
4.8085917383
 20
4.7574619683
 11
4.8281822832
 21
4.7523832691
  0
LINE
  5
262
100
AcDbEntity
  8
0
100
AcDbLine
 62
7
  6
CONTINUOUS
 10
5.301164588
 20
4.9508928571
 11
5.301164588
 21
4.7958928571
  0
LINE
  5
263
100
AcDbEntity
  8
0
100
AcDbLine
 62
7
  6
CONTINUOUS
 10
4.8446372526
 20
3.8594192182
 11
4.6454714782
 21
3.4323068366
  0
LINE
  5
264
100
AcDbEntity
  8
0
100
AcDbLine
 62
7
  6
CONTINUOUS
 10
4.3549214233
 20
2.8092202331
 11
4.396719519
 21
2.8988565386
  0
LINE
  5
265
100
AcDbEntity
  8
0
100
AcDbLine
 62
7
  6
CONTINUOUS
 10
4.4130314343
 20
2.9338375538
 11
4.45482953
 21
3.0234738593
  0
LINE
  5
266
100
AcDbEntity
  8
0
100
AcDbLine
 62
7
  6
CONTINUOUS
 10
4.4711414453
 20
3.0584548745
 11
4.512939541
 21
3.1480911801
  0
LINE
  5
267
100
AcDbEntity
  8
0
100
AcDbLine
 62
7
  6
CONTINUOUS
 10
4.5292514562
 20
3.1830721952
 11
4.571049552
 21
3.2727085008
  0
LINE
  5
268
100
AcDbEntity
  8
0
100
AcDbLine
 62
7
  6
CONTINUOUS
 10
4.5873614672
 20
3.3076895159
 11
4.629159563
 21
3.3973258215
  0
LINE
  5
269
100
AcDbEntity
  8
0
100
AcDbLine
 62
7
  6
CONTINUOUS
 10
5.4218397368
 20
5.0808928571
 11
5.4366685474
 21
5.0847369683
  0
LINE
  5
26A
100
AcDbEntity
  8
0
100
AcDbLine
 62
7
  6
CONTINUOUS
 10
4.7226311324
 20
4.9508928571
 11
5.5226291534
 21
4.9508928571
  0
LINE
  5
26B
100
AcDbEntity
  8
0
100
AcDbLine
 62
7
  6
CONTINUOUS
 10
5.4366685475
 20
4.751648746
 11
5.4170301429
 21
4.756739855
  0
LINE
  5
26C
100
AcDbEntity
  8
0
100
AcDbLine
 62
7
  6
CONTINUOUS
 10
5.3400736114
 20
4.9508928571
 11
5.3400736114
 21
4.7958928571
  0
LINE
  5
26D
100
AcDbEntity
  8
0
100
AcDbLine
 62
7
  6
CONTINUOUS
 10
5.4151301429
 20
4.7456428571
 11
5.4151301429
 21
3.9503928571
  0
LINE
  5
26E
100
AcDbEntity
  8
0
100
AcDbLine
 62
7
  6
CONTINUOUS
 10
5.4151301429
 20
2.4471428571
 11
5.4151301429
 21
2.4618928571
  0
LINE
  5
26F
100
AcDbEntity
  8
0
100
AcDbLine
 62
7
  6
CONTINUOUS
 10
5.4151301429
 20
2.4913928571
 11
5.4151301429
 21
2.5698928571
  0
LINE
  5
270
100
AcDbEntity
  8
0
100
AcDbLine
 62
7
  6
CONTINUOUS
 10
5.4151301429
 20
2.5993928571
 11
5.4151301429
 21
2.6778928571
  0
LINE
  5
271
100
AcDbEntity
  8
0
100
AcDbLine
 62
7
  6
CONTINUOUS
 10
5.4151301429
 20
2.7073928571
 11
5.4151301429
 21
2.7858928571
  0
LINE
  5
272
100
AcDbEntity
  8
0
100
AcDbLine
 62
7
  6
CONTINUOUS
 10
5.4151301429
 20
2.8153928571
 11
5.4151301429
 21
2.8938928571
  0
LINE
  5
273
100
AcDbEntity
  8
0
100
AcDbLine
 62
7
  6
CONTINUOUS
 10
5.4151301429
 20
2.9233928571
 11
5.4151301429
 21
3.0018928571
  0
LINE
  5
274
100
AcDbEntity
  8
0
100
AcDbLine
 62
7
  6
CONTINUOUS
 10
5.4151301429
 20
3.0313928571
 11
5.4151301429
 21
3.9371428571
  0
LINE
  5
275
100
AcDbEntity
  8
0
100
AcDbLine
 62
7
  6
CONTINUOUS
 10
5.4170301429
 20
4.7565428571
 11
5.4170301429
 21
4.7695958601
  0
LINE
  5
276
100
AcDbEntity
  8
0
100
AcDbLine
 62
7
  6
CONTINUOUS
 10
5.4170301429
 20
5.1010428571
 11
5.4170301429
 21
5.1140958601
  0
LINE
  5
277
100
AcDbEntity
  8
0
100
AcDbLine
 62
7
  6
CONTINUOUS
 10
5.4170301429
 20
5.1354928571
 11
5.4170301429
 21
5.1485458601
  0
LINE
  5
278
100
AcDbEntity
  8
0
100
AcDbLine
 62
7
  6
CONTINUOUS
 10
5.4170301429
 20
5.1699428571
 11
5.4170301429
 21
5.1829958601
  0
LINE
  5
279
100
AcDbEntity
  8
0
100
AcDbLine
 62
7
  6
CONTINUOUS
 10
5.4170301429
 20
5.2043928571
 11
5.4170301429
 21
5.2174458601
  0
LINE
  5
27A
100
AcDbEntity
  8
0
100
AcDbLine
 62
7
  6
CONTINUOUS
 10
5.4170301429
 20
5.2388428571
 11
5.4170301429
 21
5.2518958601
  0
LINE
  5
27B
100
AcDbEntity
  8
0
100
AcDbLine
 62
7
  6
CONTINUOUS
 10
5.4170301429
 20
5.2732928571
 11
5.4170301429
 21
5.2863458601
  0
LINE
  5
27C
100
AcDbEntity
  8
0
100
AcDbLine
 62
7
  6
CONTINUOUS
 10
5.4170301429
 20
5.3077428571
 11
5.4170301429
 21
5.3207958601
  0
LINE
  5
27D
100
AcDbEntity
  8
0
100
AcDbLine
 62
7
  6
CONTINUOUS
 10
5.4170301429
 20
5.3421928571
 11
5.4170301429
 21
5.3552458601
  0
LINE
  5
27E
100
AcDbEntity
  8
0
100
AcDbLine
 62
7
  6
CONTINUOUS
 10
5.4170301429
 20
5.3766428571
 11
5.4170301429
 21
5.3896958601
  0
LINE
  5
27F
100
AcDbEntity
  8
0
100
AcDbLine
 62
7
  6
CONTINUOUS
 10
5.4170301429
 20
5.4110928571
 11
5.4170301429
 21
5.4241458601
  0
LINE
  5
280
100
AcDbEntity
  8
0
100
AcDbLine
 62
7
  6
CONTINUOUS
 10
5.4170301429
 20
5.4455428571
 11
5.4170301429
 21
5.4585958601
  0
LINE
  5
281
100
AcDbEntity
  8
0
100
AcDbLine
 62
7
  6
CONTINUOUS
 10
5.4170301429
 20
5.4799928571
 11
5.4170301429
 21
5.4930458601
  0
LINE
  5
282
100
AcDbEntity
  8
0
100
AcDbLine
 62
7
  6
CONTINUOUS
 10
5.4170301429
 20
5.5144428571
 11
5.4170301429
 21
5.5274958601
  0
LINE
  5
283
100
AcDbEntity
  8
0
100
AcDbLine
 62
7
  6
CONTINUOUS
 10
5.4373801429
 20
5.5091799893
 11
5.4373801429
 21
5.498505725
  0
LINE
  5
284
100
AcDbEntity
  8
0
100
AcDbLine
 62
7
  6
CONTINUOUS
 10
5.4373801429
 20
5.4747299893
 11
5.4373801429
 21
5.464055725
  0
LINE
  5
285
100
AcDbEntity
  8
0
100
AcDbLine
 62
7
  6
CONTINUOUS
 10
5.4373801429
 20
5.4402799893
 11
5.4373801429
 21
5.429605725
  0
LINE
  5
286
100
AcDbEntity
  8
0
100
AcDbLine
 62
7
  6
CONTINUOUS
 10
5.4373801429
 20
5.4058299893
 11
5.4373801429
 21
5.395155725
  0
LINE
  5
287
100
AcDbEntity
  8
0
100
AcDbLine
 62
7
  6
CONTINUOUS
 10
5.4373801429
 20
5.3713799893
 11
5.4373801429
 21
5.360705725
  0
LINE
  5
288
100
AcDbEntity
  8
0
100
AcDbLine
 62
7
  6
CONTINUOUS
 10
5.4373801429
 20
5.3369299893
 11
5.4373801429
 21
5.326255725
  0
LINE
  5
289
100
AcDbEntity
  8
0
100
AcDbLine
 62
7
  6
CONTINUOUS
 10
5.4373801429
 20
5.3024799893
 11
5.4373801429
 21
5.291805725
  0
LINE
  5
28A
100
AcDbEntity
  8
0
100
AcDbLine
 62
7
  6
CONTINUOUS
 10
5.4373801429
 20
5.2680299893
 11
5.4373801429
 21
5.257355725
  0
LINE
  5
28B
100
AcDbEntity
  8
0
100
AcDbLine
 62
7
  6
CONTINUOUS
 10
5.4373801429
 20
5.2335799893
 11
5.4373801429
 21
5.222905725
  0
LINE
  5
28C
100
AcDbEntity
  8
0
100
AcDbLine
 62
7
  6
CONTINUOUS
 10
5.4373801429
 20
5.1991299893
 11
5.4373801429
 21
5.188455725
  0
LINE
  5
28D
100
AcDbEntity
  8
0
100
AcDbLine
 62
7
  6
CONTINUOUS
 10
5.4373801429
 20
5.1646799893
 11
5.4373801429
 21
5.154005725
  0
LINE
  5
28E
100
AcDbEntity
  8
0
100
AcDbLine
 62
7
  6
CONTINUOUS
 10
5.4373801429
 20
5.1302299893
 11
5.4373801429
 21
5.119555725
  0
LINE
  5
28F
100
AcDbEntity
  8
0
100
AcDbLine
 62
7
  6
CONTINUOUS
 10
5.4373801429
 20
5.0957799893
 11
5.4373801429
 21
5.085105725
  0
LINE
  5
290
100
AcDbEntity
  8
0
100
AcDbLine
 62
7
  6
CONTINUOUS
 10
5.4373801429
 20
4.7512799893
 11
5.4373801429
 21
4.7456428571
  0
LINE
  5
291
100
AcDbEntity
  8
0
100
AcDbLine
 62
7
  6
CONTINUOUS
 10
5.4373801429
 20
4.775055725
 11
5.4373801429
 21
4.7758928571
  0
LINE
  5
292
100
AcDbEntity
  8
0
100
AcDbLine
 62
7
  6
CONTINUOUS
 10
5.4373801429
 20
5.532955725
 11
5.4373801429
 21
5.5408928571
  0
LINE
  5
293
100
AcDbEntity
  8
0
100
AcDbLine
 62
7
  6
CONTINUOUS
 10
5.4460131395
 20
6.1933928571
 11
5.4460131395
 21
6.1908928571
  0
LINE
  5
294
100
AcDbEntity
  8
0
100
AcDbLine
 62
7
  6
CONTINUOUS
 10
5.4162697319
 20
5.1138986966
 11
5.4366685474
 21
5.1191869683
  0
LINE
  5
295
100
AcDbEntity
  8
0
100
AcDbLine
 62
7
  6
CONTINUOUS
 10
5.4162697319
 20
5.1483486966
 11
5.4366685474
 21
5.1536369683
  0
LINE
  5
296
100
AcDbEntity
  8
0
100
AcDbLine
 62
7
  6
CONTINUOUS
 10
5.4162697319
 20
5.1827986966
 11
5.4366685474
 21
5.1880869683
  0
LINE
  5
297
100
AcDbEntity
  8
0
100
AcDbLine
 62
7
  6
CONTINUOUS
 10
5.4162697319
 20
5.2172486966
 11
5.4366685474
 21
5.2225369683
  0
LINE
  5
298
100
AcDbEntity
  8
0
100
AcDbLine
 62
7
  6
CONTINUOUS
 10
4.8289905537
 20
5.0842120177
 11
4.8161880753
 21
5.0808928571
  0
LINE
  5
299
100
AcDbEntity
  8
0
100
AcDbLine
 62
7
  6
CONTINUOUS
 10
5.4162697319
 20
5.2516986966
 11
5.4366685474
 21
5.2569869683
  0
LINE
  5
29A
100
AcDbEntity
  8
0
100
AcDbLine
 62
7
  6
CONTINUOUS
 10
4.6826301429
 20
4.9908928571
 11
5.5626301429
 21
4.9908928571
  0
LINE
  5
29B
100
AcDbEntity
  8
0
100
AcDbLine
 62
7
  6
CONTINUOUS
 10
4.6726301429
 20
5.0158928571
 11
5.5726301429
 21
5.0158928571
  0
LINE
  5
29C
100
AcDbEntity
  8
0
100
AcDbLine
 62
7
  6
CONTINUOUS
 10
4.6726301429
 20
5.0808928571
 11
5.5726301429
 21
5.0808928571
  0
LINE
  5
29D
100
AcDbEntity
  8
0
100
AcDbLine
 62
7
  6
CONTINUOUS
 10
4.8085917383
 20
5.1019619683
 11
4.8281822832
 21
5.0968832691
  0
LINE
  5
29E
100
AcDbEntity
  8
0
100
AcDbLine
 62
7
  6
CONTINUOUS
 10
4.8085917383
 20
5.1364119683
 11
4.8281822832
 21
5.1313332691
  0
LINE
  5
29F
100
AcDbEntity
  8
0
100
AcDbLine
 62
7
  6
CONTINUOUS
 10
4.8085917383
 20
5.1708619683
 11
4.8281822832
 21
5.1657832691
  0
LINE
  5
2A0
100
AcDbEntity
  8
0
100
AcDbLine
 62
7
  6
CONTINUOUS
 10
5.4964721048
 20
6.1908928571
 11
5.4964721048
 21
6.1933928571
  0
LINE
  5
2A1
100
AcDbEntity
  8
0
100
AcDbLine
 62
7
  6
CONTINUOUS
 10
5.5018666291
 20
6.1933928571
 11
5.5018666291
 21
6.1908928571
  0
LINE
  5
2A2
100
AcDbEntity
  8
0
100
AcDbLine
 62
7
  6
CONTINUOUS
 10
5.5109860524
 20
6.1533928571
 11
5.5109860524
 21
6.2343928571
  0
LINE
  5
2A3
100
AcDbEntity
  8
0
100
AcDbLine
 62
7
  6
CONTINUOUS
 10
5.5131669728
 20
6.2240524328
 11
5.5131669728
 21
6.2016481754
  0
LINE
  5
2A4
100
AcDbEntity
  8
0
100
AcDbLine
 62
7
  6
CONTINUOUS
 10
5.5131669728
 20
6.1913077511
 11
5.5131669728
 21
6.1533928571
  0
LINE
  5
2A5
100
AcDbEntity
  8
0
100
AcDbLine
 62
7
  6
CONTINUOUS
 10
5.5159933416
 20
6.1913077511
 11
5.5159933416
 21
6.2016481754
  0
LINE
  5
2A6
100
AcDbEntity
  8
0
100
AcDbLine
 62
7
  6
CONTINUOUS
 10
5.5170211549
 20
6.2240524328
 11
5.5170211549
 21
6.2343928571
  0
LINE
  5
2A7
100
AcDbEntity
  8
0
100
AcDbLine
 62
7
  6
CONTINUOUS
 10
5.5201301429
 20
4.9508928571
 11
5.5201301429
 21
4.7958928571
  0
LINE
  5
2A8
100
AcDbEntity
  8
0
100
AcDbLine
 62
7
  6
CONTINUOUS
 10
5.5211236887
 20
6.2016481754
 11
5.5211236887
 21
6.1913077511
  0
LINE
  5
2A9
100
AcDbEntity
  8
0
100
AcDbLine
 62
7
  6
CONTINUOUS
 10
5.5221383034
 20
6.2343928571
 11
5.5221383034
 21
6.2240524328
  0
LINE
  5
2AA
100
AcDbEntity
  8
0
100
AcDbLine
 62
7
  6
CONTINUOUS
 10
5.5240042115
 20
6.2343928571
 11
5.5240042115
 21
6.1533928571
  0
LINE
  5
2AB
100
AcDbEntity
  8
0
100
AcDbLine
 62
7
  6
CONTINUOUS
 10
5.5247514386
 20
6.1533928571
 11
5.5247514386
 21
6.1637332826
  0
LINE
  5
2AC
100
AcDbEntity
  8
0
100
AcDbLine
 62
7
  6
CONTINUOUS
 10
5.5252622142
 20
6.2343928571
 11
5.5252622142
 21
6.1637332826
  0
LINE
  5
2AD
100
AcDbEntity
  8
0
100
AcDbLine
 62
7
  6
CONTINUOUS
 10
5.5297714408
 20
6.1637332826
 11
5.5297714408
 21
6.1533928571
  0
LINE
  5
2AE
100
AcDbEntity
  8
0
100
AcDbLine
 62
7
  6
CONTINUOUS
 10
5.5313801429
 20
6.7333928571
 11
5.5313801429
 21
5.8154631991
  0
LINE
  5
2AF
100
AcDbEntity
  8
0
100
AcDbLine
 62
7
  6
CONTINUOUS
 10
5.5626301429
 20
4.9908928571
 11
5.5626301429
 21
5.0158928571
  0
LINE
  5
2B0
100
AcDbEntity
  8
0
100
AcDbLine
 62
7
  6
CONTINUOUS
 10
5.5726301429
 20
5.0158928571
 11
5.5726301429
 21
5.0808928571
  0
LINE
  5
2B1
100
AcDbEntity
  8
0
100
AcDbLine
 62
7
  6
CONTINUOUS
 10
5.6163801429
 20
5.7308928571
 11
5.6163801429
 21
5.7383928571
  0
LINE
  5
2B2
100
AcDbEntity
  8
0
100
AcDbLine
 62
7
  6
CONTINUOUS
 10
5.112539337
 20
3.4276250197
 11
5.0309113638
 21
3.2525732662
  0
LINE
  5
2B3
100
AcDbEntity
  8
0
100
AcDbLine
 62
7
  6
CONTINUOUS
 10
5.0145994485
 20
3.2175922511
 11
5.0142387973
 21
3.2168188321
  0
LINE
  5
2B4
100
AcDbEntity
  8
0
100
AcDbLine
 62
7
  6
CONTINUOUS
 10
4.7419148483
 20
2.6287622353
 11
4.7837129441
 21
2.7183985409
  0
LINE
  5
2B5
100
AcDbEntity
  8
0
100
AcDbLine
 62
7
  6
CONTINUOUS
 10
4.8000248593
 20
2.753379556
 11
4.8418229551
 21
2.8430158616
  0
LINE
  5
2B6
100
AcDbEntity
  8
0
100
AcDbLine
 62
7
  6
CONTINUOUS
 10
4.8581348703
 20
2.8779968767
 11
4.8999329661
 21
2.9676331823
  0
LINE
  5
2B7
100
AcDbEntity
  8
0
100
AcDbLine
 62
7
  6
CONTINUOUS
 10
4.9162448813
 20
3.0026141975
 11
4.958042977
 21
3.092250503
  0
LINE
  5
2B8
100
AcDbEntity
  8
0
100
AcDbLine
 62
7
  6
CONTINUOUS
 10
4.9743548923
 20
3.1272315182
 11
5.0161301429
 21
3.2168188321
  0
LINE
  5
2B9
100
AcDbEntity
  8
0
100
AcDbLine
 62
7
  6
CONTINUOUS
 10
4.8289905537
 20
5.1186620177
 11
4.8085917382
 21
5.113373746
  0
LINE
  5
2BA
100
AcDbEntity
  8
0
100
AcDbLine
 62
7
  6
CONTINUOUS
 10
5.4162697319
 20
5.2861486966
 11
5.4366685474
 21
5.2914369683
  0
LINE
  5
2BB
100
AcDbEntity
  8
0
100
AcDbLine
 62
7
  6
CONTINUOUS
 10
4.8289905537
 20
5.1531120177
 11
4.8085917382
 21
5.147823746
  0
LINE
  5
2BC
100
AcDbEntity
  8
0
100
AcDbLine
 62
7
  6
CONTINUOUS
 10
5.4162697319
 20
5.3205986966
 11
5.4366685474
 21
5.3258869683
  0
LINE
  5
2BD
100
AcDbEntity
  8
0
100
AcDbLine
 62
7
  6
CONTINUOUS
 10
4.8289905537
 20
5.1875620177
 11
4.8085917382
 21
5.182273746
  0
LINE
  5
2BE
100
AcDbEntity
  8
0
100
AcDbLine
 62
7
  6
CONTINUOUS
 10
5.4162697319
 20
5.3550486966
 11
5.4366685474
 21
5.3603369683
  0
LINE
  5
2BF
100
AcDbEntity
  8
0
100
AcDbLine
 62
7
  6
CONTINUOUS
 10
4.8289905537
 20
5.2220120177
 11
4.8085917382
 21
5.216723746
  0
LINE
  5
2C0
100
AcDbEntity
  8
0
100
AcDbLine
 62
7
  6
CONTINUOUS
 10
5.4162697319
 20
5.3894986966
 11
5.4366685474
 21
5.3947869683
  0
LINE
  5
2C1
100
AcDbEntity
  8
0
100
AcDbLine
 62
7
  6
CONTINUOUS
 10
4.8289905537
 20
5.2564620177
 11
4.8085917382
 21
5.251173746
  0
LINE
  5
2C2
100
AcDbEntity
  8
0
100
AcDbLine
 62
7
  6
CONTINUOUS
 10
4.8085917383
 20
5.2053119683
 11
4.8281822832
 21
5.2002332691
  0
LINE
  5
2C3
100
AcDbEntity
  8
0
100
AcDbLine
 62
7
  6
CONTINUOUS
 10
4.8085917383
 20
5.2397619683
 11
4.8281822832
 21
5.2346832691
  0
LINE
  5
2C4
100
AcDbEntity
  8
0
100
AcDbLine
 62
7
  6
CONTINUOUS
 10
5.4366685475
 20
5.096148746
 11
5.4170301429
 21
5.101239855
  0
LINE
  5
2C5
100
AcDbEntity
  8
0
100
AcDbLine
 62
7
  6
CONTINUOUS
 10
4.8085917383
 20
5.2742119683
 11
4.8281822832
 21
5.2691332691
  0
LINE
  5
2C6
100
AcDbEntity
  8
0
100
AcDbLine
 62
7
  6
CONTINUOUS
 10
5.4366685475
 20
5.130598746
 11
5.4170301429
 21
5.135689855
  0
LINE
  5
2C7
100
AcDbEntity
  8
0
100
AcDbLine
 62
7
  6
CONTINUOUS
 10
4.8085917383
 20
5.3086619683
 11
4.8281822832
 21
5.3035832691
  0
LINE
  5
2C8
100
AcDbEntity
  8
0
100
AcDbLine
 62
7
  6
CONTINUOUS
 10
5.4366685475
 20
5.165048746
 11
5.4170301429
 21
5.170139855
  0
LINE
  5
2C9
100
AcDbEntity
  8
0
100
AcDbLine
 62
7
  6
CONTINUOUS
 10
4.8085917383
 20
5.3431119683
 11
4.8281822832
 21
5.3380332691
  0
LINE
  5
2CA
100
AcDbEntity
  8
0
100
AcDbLine
 62
7
  6
CONTINUOUS
 10
5.6538801429
 20
5.7008928571
 11
5.6538801429
 21
5.5408928571
  0
LINE
  5
2CB
100
AcDbEntity
  8
0
100
AcDbLine
 62
7
  6
CONTINUOUS
 10
5.4162697319
 20
5.4239486966
 11
5.4366685474
 21
5.4292369683
  0
LINE
  5
2CC
100
AcDbEntity
  8
0
100
AcDbLine
 62
7
  6
CONTINUOUS
 10
4.8289905537
 20
5.2909120177
 11
4.8085917382
 21
5.285623746
  0
LINE
  5
2CD
100
AcDbEntity
  8
0
100
AcDbLine
 62
7
  6
CONTINUOUS
 10
5.4162697319
 20
5.4583986966
 11
5.4366685474
 21
5.4636869683
  0
LINE
  5
2CE
100
AcDbEntity
  8
0
100
AcDbLine
 62
7
  6
CONTINUOUS
 10
4.8289905537
 20
5.3253620177
 11
4.8085917382
 21
5.320073746
  0
LINE
  5
2CF
100
AcDbEntity
  8
0
100
AcDbLine
 62
7
  6
CONTINUOUS
 10
5.4162697319
 20
5.4928486966
 11
5.4366685474
 21
5.4981369683
  0
LINE
  5
2D0
100
AcDbEntity
  8
0
100
AcDbLine
 62
7
  6
CONTINUOUS
 10
4.8289905537
 20
5.3598120177
 11
4.8085917382
 21
5.354523746
  0
LINE
  5
2D1
100
AcDbEntity
  8
0
100
AcDbLine
 62
7
  6
CONTINUOUS
 10
5.4162697319
 20
5.5272986966
 11
5.4366685474
 21
5.5325869683
  0
LINE
  5
2D2
100
AcDbEntity
  8
0
100
AcDbLine
 62
7
  6
CONTINUOUS
 10
4.8289905537
 20
5.3942620177
 11
4.8085917382
 21
5.388973746
  0
LINE
  5
2D3
100
AcDbEntity
  8
0
100
AcDbLine
 62
7
  6
CONTINUOUS
 10
5.4366685475
 20
5.199498746
 11
5.4170301429
 21
5.204589855
  0
LINE
  5
2D4
100
AcDbEntity
  8
0
100
AcDbLine
 62
7
  6
CONTINUOUS
 10
4.8085917383
 20
5.3775619683
 11
4.8281822832
 21
5.3724832691
  0
LINE
  5
2D5
100
AcDbEntity
  8
0
100
AcDbLine
 62
7
  6
CONTINUOUS
 10
5.4366685475
 20
5.233948746
 11
5.4170301429
 21
5.239039855
  0
LINE
  5
2D6
100
AcDbEntity
  8
0
100
AcDbLine
 62
7
  6
CONTINUOUS
 10
4.8085917383
 20
5.4120119683
 11
4.8281822832
 21
5.4069332691
  0
LINE
  5
2D7
100
AcDbEntity
  8
0
100
AcDbLine
 62
7
  6
CONTINUOUS
 10
5.4366685475
 20
5.268398746
 11
5.4170301429
 21
5.273489855
  0
LINE
  5
2D8
100
AcDbEntity
  8
0
100
AcDbLine
 62
7
  6
CONTINUOUS
 10
4.8085917383
 20
5.4464619683
 11
4.8281822832
 21
5.4413832691
  0
LINE
  5
2D9
100
AcDbEntity
  8
0
100
AcDbLine
 62
7
  6
CONTINUOUS
 10
5.4366685475
 20
5.302848746
 11
5.4170301429
 21
5.307939855
  0
LINE
  5
2DA
100
AcDbEntity
  8
0
100
AcDbLine
 62
7
  6
CONTINUOUS
 10
4.8085917383
 20
5.4809119683
 11
4.8281822832
 21
5.4758332691
  0
LINE
  5
2DB
100
AcDbEntity
  8
0
100
AcDbLine
 62
7
  6
CONTINUOUS
 10
5.4366685475
 20
5.337298746
 11
5.4170301429
 21
5.342389855
  0
LINE
  5
2DC
100
AcDbEntity
  8
0
100
AcDbLine
 62
7
  6
CONTINUOUS
 10
5.5313801429
 20
5.8154631991
 11
5.5399781658
 21
5.7555226965
  0
LINE
  5
2DD
100
AcDbEntity
  8
0
100
AcDbLine
 62
7
  6
CONTINUOUS
 10
4.8289905537
 20
5.4287120177
 11
4.8085917382
 21
5.423423746
  0
LINE
  5
2DE
100
AcDbEntity
  8
0
100
AcDbLine
 62
7
  6
CONTINUOUS
 10
4.8289905537
 20
5.4631620177
 11
4.8085917382
 21
5.457873746
  0
LINE
  5
2DF
100
AcDbEntity
  8
0
100
AcDbLine
 62
7
  6
CONTINUOUS
 10
4.8289905537
 20
5.4976120177
 11
4.8085917382
 21
5.492323746
  0
LINE
  5
2E0
100
AcDbEntity
  8
0
100
AcDbLine
 62
7
  6
CONTINUOUS
 10
4.8289905537
 20
5.5320620177
 11
4.8085917382
 21
5.526773746
  0
LINE
  5
2E1
100
AcDbEntity
  8
0
100
AcDbLine
 62
7
  6
CONTINUOUS
 10
4.5913801429
 20
5.5408928571
 11
5.6538801429
 21
5.5408928571
  0
LINE
  5
2E2
100
AcDbEntity
  8
0
100
AcDbLine
 62
7
  6
CONTINUOUS
 10
4.8085917383
 20
5.5153619683
 11
4.8281822832
 21
5.5102832691
  0
LINE
  5
2E3
100
AcDbEntity
  8
0
100
AcDbLine
 62
7
  6
CONTINUOUS
 10
5.4366685475
 20
5.371748746
 11
5.4170301429
 21
5.376839855
  0
LINE
  5
2E4
100
AcDbEntity
  8
0
100
AcDbLine
 62
7
  6
CONTINUOUS
 10
5.4366685475
 20
5.406198746
 11
5.4170301429
 21
5.411289855
  0
LINE
  5
2E5
100
AcDbEntity
  8
0
100
AcDbLine
 62
7
  6
CONTINUOUS
 10
5.4366685475
 20
5.440648746
 11
5.4170301429
 21
5.445739855
  0
LINE
  5
2E6
100
AcDbEntity
  8
0
100
AcDbLine
 62
7
  6
CONTINUOUS
 10
5.4366685475
 20
5.475098746
 11
5.4170301429
 21
5.480189855
  0
LINE
  5
2E7
100
AcDbEntity
  8
0
100
AcDbLine
 62
7
  6
CONTINUOUS
 10
5.5399781658
 20
5.7555226965
 11
5.5251301429
 21
5.7533928571
  0
LINE
  5
2E8
100
AcDbEntity
  8
0
100
AcDbLine
 62
7
  6
CONTINUOUS
 10
4.5913801429
 20
5.7008928571
 11
5.6538801429
 21
5.7008928571
  0
LINE
  5
2E9
100
AcDbEntity
  8
0
100
AcDbLine
 62
7
  6
CONTINUOUS
 10
4.6063801429
 20
5.7158928571
 11
5.6388801429
 21
5.7158928571
  0
LINE
  5
2EA
100
AcDbEntity
  8
0
100
AcDbLine
 62
7
  6
CONTINUOUS
 10
5.6163801429
 20
5.7308928571
 11
4.6288801429
 21
5.7308928571
  0
LINE
  5
2EB
100
AcDbEntity
  8
0
100
AcDbLine
 62
7
  6
CONTINUOUS
 10
4.6288801429
 20
5.7383928571
 11
5.6163801429
 21
5.7383928571
  0
LINE
  5
2EC
100
AcDbEntity
  8
0
100
AcDbLine
 62
7
  6
CONTINUOUS
 10
4.70528212
 20
5.7555226965
 11
4.7201301429
 21
5.7533928571
  0
LINE
  5
2ED
100
AcDbEntity
  8
0
100
AcDbLine
 62
7
  6
CONTINUOUS
 10
5.4366685475
 20
5.509548746
 11
5.4170301429
 21
5.514639855
  0
LINE
  5
2EE
100
AcDbEntity
  8
0
100
AcDbLine
 62
7
  6
CONTINUOUS
 10
4.6438801429
 20
5.7533928571
 11
5.6013801429
 21
5.7533928571
  0
LINE
  5
2EF
100
AcDbEntity
  8
0
100
AcDbLine
 62
7
  6
CONTINUOUS
 10
4.70528212
 20
5.7555226965
 11
5.5399781658
 21
5.7555226965
  0
LINE
  5
2F0
100
AcDbEntity
  8
0
100
AcDbLine
 62
7
  6
CONTINUOUS
 10
4.7138801429
 20
5.8154631991
 11
5.5313801429
 21
5.8154631991
  0
LINE
  5
2F1
100
AcDbEntity
  8
0
100
AcDbLine
 62
7
  6
CONTINUOUS
 10
5.3206301429
 20
6.0933928571
 11
4.9286301429
 21
6.0933928571
  0
LINE
  5
2F2
100
AcDbEntity
  8
0
100
AcDbLine
 62
7
  6
CONTINUOUS
 10
5.5297714408
 20
6.1533928571
 11
5.5240042115
 21
6.1533928571
  0
LINE
  5
2F3
100
AcDbEntity
  8
0
100
AcDbLine
 62
7
  6
CONTINUOUS
 10
5.5131669728
 20
6.1533928571
 11
5.5109860524
 21
6.1533928571
  0
LINE
  5
2F4
100
AcDbEntity
  8
0
100
AcDbLine
 62
7
  6
CONTINUOUS
 10
5.5240042115
 20
6.1637332826
 11
5.5297714408
 21
6.1637332826
  0
LINE
  5
2F5
100
AcDbEntity
  8
0
100
AcDbLine
 62
7
  6
CONTINUOUS
 10
5.5018666291
 20
6.1908928571
 11
5.4460131395
 21
6.1908928571
  0
LINE
  5
2F6
100
AcDbEntity
  8
0
100
AcDbLine
 62
7
  6
CONTINUOUS
 10
5.3206301429
 20
6.1908928571
 11
4.9286301429
 21
6.1908928571
  0
LINE
  5
2F7
100
AcDbEntity
  8
0
100
AcDbLine
 62
7
  6
CONTINUOUS
 10
5.5109860524
 20
6.1913077511
 11
5.5211236887
 21
6.1913077511
  0
LINE
  5
2F8
100
AcDbEntity
  8
0
100
AcDbLine
 62
7
  6
CONTINUOUS
 10
5.5018666291
 20
6.1933928571
 11
5.4460131395
 21
6.1933928571
  0
LINE
  5
2F9
100
AcDbEntity
  8
0
100
AcDbLine
 62
7
  6
CONTINUOUS
 10
5.5109860524
 20
6.2016481754
 11
5.5211236887
 21
6.2016481754
  0
LINE
  5
2FA
100
AcDbEntity
  8
0
100
AcDbLine
 62
7
  6
CONTINUOUS
 10
5.5109860524
 20
6.2240524328
 11
5.5221383034
 21
6.2240524328
  0
LINE
  5
2FB
100
AcDbEntity
  8
0
100
AcDbLine
 62
7
  6
CONTINUOUS
 10
5.5252622142
 20
6.2343928571
 11
5.5240042115
 21
6.2343928571
  0
LINE
  5
2FC
100
AcDbEntity
  8
0
100
AcDbLine
 62
7
  6
CONTINUOUS
 10
5.5109860524
 20
6.2343928571
 11
5.5221383034
 21
6.2343928571
  0
LINE
  5
2FD
100
AcDbEntity
  8
0
100
AcDbLine
 62
7
  6
CONTINUOUS
 10
5.3206301429
 20
6.2903928571
 11
4.9286301429
 21
6.2903928571
  0
LINE
  5
2FE
100
AcDbEntity
  8
0
100
AcDbLine
 62
7
  6
CONTINUOUS
 10
5.3206301429
 20
6.3878928571
 11
4.9286301429
 21
6.3878928571
  0
LINE
  5
2FF
100
AcDbEntity
  8
0
100
AcDbLine
 62
7
  6
CONTINUOUS
 10
4.7138801429
 20
6.7333928571
 11
5.5313801429
 21
6.7333928571
  0
LINE
  5
300
100
AcDbEntity
  8
0
100
AcDbLine
 62
7
  6
CONTINUOUS
 10
5.4163791941
 20
6.8483928571
 11
4.8288801429
 21
6.8483928571
  0
ARC
  5
301
100
AcDbEntity
  8
0
100
AcDbCircle
 62
7
  6
CONTINUOUS
 10
4.7290007748
 20
2.6134904736
 40
0.02
100
AcDbArc
 50
260.0684881595
 51
49.7815448422
  0
ARC
  5
302
100
AcDbEntity
  8
0
100
AcDbCircle
 62
7
  6
CONTINUOUS
 10
4.3515235815
 20
2.7895109796
 40
0.02
100
AcDbArc
 50
80.2184551578
 51
229.9315118405
  0
ARC
  5
303
100
AcDbEntity
  8
0
100
AcDbCircle
 62
7
  6
CONTINUOUS
 10
4.4096335925
 20
2.9141283003
 40
0.02
100
AcDbArc
 50
80.2184551578
 51
229.7815448422
  0
ARC
  5
304
100
AcDbEntity
  8
0
100
AcDbCircle
 62
7
  6
CONTINUOUS
 10
4.7871107858
 20
2.7381077943
 40
0.02
100
AcDbArc
 50
260.2184551578
 51
49.7815448422
  0
ARC
  5
305
100
AcDbEntity
  8
0
100
AcDbCircle
 62
7
  6
CONTINUOUS
 10
4.4677436035
 20
3.038745621
 40
0.02
100
AcDbArc
 50
80.2184551578
 51
229.7815448422
  0
ARC
  5
306
100
AcDbEntity
  8
0
100
AcDbCircle
 62
7
  6
CONTINUOUS
 10
4.8452207968
 20
2.862725115
 40
0.02
100
AcDbArc
 50
260.2184551578
 51
49.7815448422
  0
ARC
  5
307
100
AcDbEntity
  8
0
100
AcDbCircle
 62
7
  6
CONTINUOUS
 10
4.5258536145
 20
3.1633629418
 40
0.02
100
AcDbArc
 50
80.2184551578
 51
229.7815448422
  0
ARC
  5
308
100
AcDbEntity
  8
0
100
AcDbCircle
 62
7
  6
CONTINUOUS
 10
4.9033308078
 20
2.9873424358
 40
0.02
100
AcDbArc
 50
260.2184551578
 51
49.7815448422
  0
ARC
  5
309
100
AcDbEntity
  8
0
100
AcDbCircle
 62
7
  6
CONTINUOUS
 10
4.5839636255
 20
3.2879802625
 40
0.02
100
AcDbArc
 50
80.2184551578
 51
229.7815448422
  0
ARC
  5
30A
100
AcDbEntity
  8
0
100
AcDbCircle
 62
7
  6
CONTINUOUS
 10
4.9614408188
 20
3.1119597565
 40
0.02
100
AcDbArc
 50
260.2184551578
 51
49.7815448422
  0
ARC
  5
30B
100
AcDbEntity
  8
0
100
AcDbCircle
 62
7
  6
CONTINUOUS
 10
4.6420736365
 20
3.4125975832
 40
0.02
100
AcDbArc
 50
80.2184551578
 51
229.7815448422
  0
ARC
  5
30C
100
AcDbEntity
  8
0
100
AcDbCircle
 62
7
  6
CONTINUOUS
 10
4.8288801429
 20
6.7333928571
 40
0.115
100
AcDbArc
 50
90.0
 51
180.0
  0
ARC
  5
30D
100
AcDbEntity
  8
0
100
AcDbCircle
 62
7
  6
CONTINUOUS
 10
4.9286301429
 20
6.3391428571
 40
0.04875
100
AcDbArc
 50
90.0
 51
270.0
  0
ARC
  5
30E
100
AcDbEntity
  8
0
100
AcDbCircle
 62
7
  6
CONTINUOUS
 10
4.9286301429
 20
6.1421428571
 40
0.04875
100
AcDbArc
 50
90.0
 51
270.0
  0
ARC
  5
30F
100
AcDbEntity
  8
0
100
AcDbCircle
 62
7
  6
CONTINUOUS
 10
4.7226301429
 20
4.9908928571
 40
0.04
100
AcDbArc
 50
180.0
 51
270.0
  0
ARC
  5
310
100
AcDbEntity
  8
0
100
AcDbCircle
 62
7
  6
CONTINUOUS
 10
4.7451301429
 20
4.7958928571
 40
0.02
100
AcDbArc
 50
180.0
 51
270.0
  0
ARC
  5
311
100
AcDbEntity
  8
0
100
AcDbCircle
 62
7
  6
CONTINUOUS
 10
4.6438801429
 20
5.7383928571
 40
0.015
100
AcDbArc
 50
90.0
 51
180.0
  0
ARC
  5
312
100
AcDbEntity
  8
0
100
AcDbCircle
 62
7
  6
CONTINUOUS
 10
4.6138801429
 20
5.7308928571
 40
0.015
100
AcDbArc
 50
270.0
 51
360.0
  0
ARC
  5
313
100
AcDbEntity
  8
0
100
AcDbCircle
 62
7
  6
CONTINUOUS
 10
4.6063801429
 20
5.7008928571
 40
0.015
100
AcDbArc
 50
90.0
 51
180.0
  0
ARC
  5
314
100
AcDbEntity
  8
0
100
AcDbCircle
 62
7
  6
CONTINUOUS
 10
5.1226301429
 20
3.9503928571
 40
0.2925
100
AcDbArc
 50
180.0
 51
198.1207707255
  0
ARC
  5
315
100
AcDbEntity
  8
0
100
AcDbCircle
 62
7
  6
CONTINUOUS
 10
5.1226301429
 20
3.9503928571
 40
0.2925
100
AcDbArc
 50
357.4036616889
 51
360.0
  0
ARC
  5
316
100
AcDbEntity
  8
0
100
AcDbCircle
 62
7
  6
CONTINUOUS
 10
5.4117471641
 20
2.4766428571
 40
0.0151329787
100
AcDbArc
 50
282.9176327574
 51
77.0823672426
  0
ARC
  5
317
100
AcDbEntity
  8
0
100
AcDbCircle
 62
7
  6
CONTINUOUS
 10
5.1135131216
 20
2.4766428571
 40
0.0151329787
100
AcDbArc
 50
102.9176327574
 51
257.0823672426
  0
ARC
  5
318
100
AcDbEntity
  8
0
100
AcDbCircle
 62
7
  6
CONTINUOUS
 10
5.4117471641
 20
2.5846428571
 40
0.0151329787
100
AcDbArc
 50
282.9176327574
 51
77.0823672426
  0
ARC
  5
319
100
AcDbEntity
  8
0
100
AcDbCircle
 62
7
  6
CONTINUOUS
 10
5.1135131216
 20
2.5846428571
 40
0.0151329787
100
AcDbArc
 50
102.9176327574
 51
257.0823672426
  0
ARC
  5
31A
100
AcDbEntity
  8
0
100
AcDbCircle
 62
7
  6
CONTINUOUS
 10
5.4117471641
 20
2.6926428571
 40
0.0151329787
100
AcDbArc
 50
282.9176327574
 51
77.0823672426
  0
ARC
  5
31B
100
AcDbEntity
  8
0
100
AcDbCircle
 62
7
  6
CONTINUOUS
 10
5.1135131216
 20
2.6926428571
 40
0.0151329787
100
AcDbArc
 50
102.9176327574
 51
257.0823672426
  0
ARC
  5
31C
100
AcDbEntity
  8
0
100
AcDbCircle
 62
7
  6
CONTINUOUS
 10
5.4117471641
 20
2.8006428571
 40
0.0151329787
100
AcDbArc
 50
282.9176327574
 51
77.0823672426
  0
ARC
  5
31D
100
AcDbEntity
  8
0
100
AcDbCircle
 62
7
  6
CONTINUOUS
 10
5.1135131216
 20
2.8006428571
 40
0.0151329787
100
AcDbArc
 50
102.9176327574
 51
257.0823672426
  0
ARC
  5
31E
100
AcDbEntity
  8
0
100
AcDbCircle
 62
7
  6
CONTINUOUS
 10
5.4117471641
 20
2.9086428571
 40
0.0151329787
100
AcDbArc
 50
282.9176327574
 51
77.0823672426
  0
ARC
  5
31F
100
AcDbEntity
  8
0
100
AcDbCircle
 62
7
  6
CONTINUOUS
 10
5.1135131216
 20
2.9086428571
 40
0.0151329787
100
AcDbArc
 50
102.9176327574
 51
257.0823672426
  0
ARC
  5
320
100
AcDbEntity
  8
0
100
AcDbCircle
 62
7
  6
CONTINUOUS
 10
5.4117471641
 20
3.0166428571
 40
0.0151329787
100
AcDbArc
 50
282.9176327574
 51
77.0823672426
  0
ARC
  5
321
100
AcDbEntity
  8
0
100
AcDbCircle
 62
7
  6
CONTINUOUS
 10
5.1135131216
 20
3.0166428571
 40
0.0151329787
100
AcDbArc
 50
102.9176327574
 51
257.0823672426
  0
ARC
  5
322
100
AcDbEntity
  8
0
100
AcDbCircle
 62
7
  6
CONTINUOUS
 10
5.4163801429
 20
6.7333928571
 40
0.115
100
AcDbArc
 50
0.0
 51
90.0
  0
ARC
  5
323
100
AcDbEntity
  8
0
100
AcDbCircle
 62
7
  6
CONTINUOUS
 10
5.3206301429
 20
6.1421428571
 40
0.04875
100
AcDbArc
 50
270.0
 51
90.0
  0
ARC
  5
324
100
AcDbEntity
  8
0
100
AcDbCircle
 62
7
  6
CONTINUOUS
 10
5.3206301429
 20
6.3391428571
 40
0.04875
100
AcDbArc
 50
270.0
 51
90.0
  0
ARC
  5
325
100
AcDbEntity
  8
0
100
AcDbCircle
 62
7
  6
CONTINUOUS
 10
5.5226301429
 20
4.9908928571
 40
0.04
100
AcDbArc
 50
270.0
 51
360.0
  0
ARC
  5
326
100
AcDbEntity
  8
0
100
AcDbCircle
 62
7
  6
CONTINUOUS
 10
5.5001301429
 20
4.7958928571
 40
0.02
100
AcDbArc
 50
270.0
 51
360.0
  0
ARC
  5
327
100
AcDbEntity
  8
0
100
AcDbCircle
 62
7
  6
CONTINUOUS
 10
5.6013801429
 20
5.7383928571
 40
0.015
100
AcDbArc
 50
0.0
 51
90.0
  0
ARC
  5
328
100
AcDbEntity
  8
0
100
AcDbCircle
 62
7
  6
CONTINUOUS
 10
5.6313801429
 20
5.7308928571
 40
0.015
100
AcDbArc
 50
180.0
 51
270.0
  0
ARC
  5
329
100
AcDbEntity
  8
0
100
AcDbCircle
 62
7
  6
CONTINUOUS
 10
5.6388801429
 20
5.7008928571
 40
0.015
100
AcDbArc
 50
0.0
 51
90.0
  0
ARC
  5
32A
100
AcDbEntity
  8
0
100
AcDbCircle
 62
7
  6
CONTINUOUS
 10
5.4143911018
 20
5.2934060221
 40
0.0074965312
100
AcDbArc
 50
282.8635582227
 51
284.5129227368
  0
ARC
  5
32B
100
AcDbEntity
  8
0
100
AcDbCircle
 62
7
  6
CONTINUOUS
 10
5.414437159
 20
5.2587756124
 40
0.0073103213
100
AcDbArc
 50
283.1541381324
 51
284.5173458679
  0
ARC
  5
32C
100
AcDbEntity
  8
0
100
AcDbCircle
 62
7
  6
CONTINUOUS
 10
5.4144838403
 20
5.2241404557
 40
0.0071193654
100
AcDbArc
 50
283.445564744
 51
284.5269016651
  0
ARC
  5
32D
100
AcDbEntity
  8
0
100
AcDbCircle
 62
7
  6
CONTINUOUS
 10
5.4145328599
 20
5.1894995166
 40
0.0069222615
100
AcDbArc
 50
283.7483728152
 51
284.5314093326
  0
ARC
  5
32E
100
AcDbEntity
  8
0
100
AcDbCircle
 62
7
  6
CONTINUOUS
 10
5.4350125355
 20
5.1255778363
 40
0.0066018754
100
AcDbArc
 50
283.5491184772
 51
284.5250167734
  0
ARC
  5
32F
100
AcDbEntity
  8
0
100
AcDbCircle
 62
7
  6
CONTINUOUS
 10
5.4350125355
 20
5.1944778362
 40
0.0066018754
100
AcDbArc
 50
283.5491184749
 51
284.5250167752
  0
ARC
  5
330
100
AcDbEntity
  8
0
100
AcDbCircle
 62
7
  6
CONTINUOUS
 10
5.4350125355
 20
5.2289278362
 40
0.0066018754
100
AcDbArc
 50
283.5491184742
 51
284.5250167753
  0
ARC
  5
331
100
AcDbEntity
  8
0
100
AcDbCircle
 62
7
  6
CONTINUOUS
 10
5.4350125355
 20
5.0911278362
 40
0.0066018754
100
AcDbArc
 50
283.5491184755
 51
284.5250167755
  0
ARC
  5
332
100
AcDbEntity
  8
0
100
AcDbCircle
 62
7
  6
CONTINUOUS
 10
5.4350125355
 20
5.4700778362
 40
0.0066018754
100
AcDbArc
 50
283.5491184758
 51
284.5250167769
  0
ARC
  5
333
100
AcDbEntity
  8
0
100
AcDbCircle
 62
7
  6
CONTINUOUS
 10
5.4350125355
 20
5.2978278362
 40
0.0066018754
100
AcDbArc
 50
283.5491184734
 51
284.5250167768
  0
ARC
  5
334
100
AcDbEntity
  8
0
100
AcDbCircle
 62
7
  6
CONTINUOUS
 10
5.4350125355
 20
5.5045278362
 40
0.0066018754
100
AcDbArc
 50
283.5491184741
 51
284.5250167757
  0
ARC
  5
335
100
AcDbEntity
  8
0
100
AcDbCircle
 62
7
  6
CONTINUOUS
 10
5.4350125355
 20
5.3667278362
 40
0.0066018754
100
AcDbArc
 50
283.5491184731
 51
284.5250167773
  0
ARC
  5
336
100
AcDbEntity
  8
0
100
AcDbCircle
 62
7
  6
CONTINUOUS
 10
5.4350125355
 20
5.4356278362
 40
0.0066018754
100
AcDbArc
 50
283.5491184742
 51
284.5250167771
  0
ARC
  5
337
100
AcDbEntity
  8
0
100
AcDbCircle
 62
7
  6
CONTINUOUS
 10
5.4350125355
 20
5.3322778362
 40
0.0066018754
100
AcDbArc
 50
283.5491184713
 51
284.5250167776
  0
ARC
  5
338
100
AcDbEntity
  8
0
100
AcDbCircle
 62
7
  6
CONTINUOUS
 10
5.4350125472
 20
5.4011777903
 40
0.006601828
100
AcDbArc
 50
283.549199743
 51
284.5250181968
  0
ARC
  5
339
100
AcDbEntity
  8
0
100
AcDbCircle
 62
7
  6
CONTINUOUS
 10
5.4350125528
 20
5.2633777684
 40
0.0066018054
100
AcDbArc
 50
283.5492382079
 51
284.5250188803
  0
LINE
  5
33A
100
AcDbEntity
  8
0
100
AcDbLine
 62
7
  6
CONTINUOUS
 10
5.437380039
 20
5.5329557249
 11
5.4366685462
 21
5.5325869683
  0
LINE
  5
33B
100
AcDbEntity
  8
0
100
AcDbLine
 62
7
  6
CONTINUOUS
 10
5.4366683037
 20
4.7516487458
 11
5.4373801429
 21
4.7512799893
  0
LINE
  5
33C
100
AcDbEntity
  8
0
100
AcDbLine
 62
7
  6
CONTINUOUS
 10
4.808591982
 20
4.7688737458
 11
4.8078801429
 21
4.7685049893
  0
LINE
  5
33D
100
AcDbEntity
  8
0
100
AcDbLine
 62
7
  6
CONTINUOUS
 10
4.80859195
 20
4.7574619685
 11
4.8078801429
 21
4.757830725
  0
LINE
  5
33E
100
AcDbEntity
  8
0
100
AcDbLine
 62
7
  6
CONTINUOUS
 10
5.4366683037
 20
5.0961487458
 11
5.4373801429
 21
5.0957799893
  0
LINE
  5
33F
100
AcDbEntity
  8
0
100
AcDbLine
 62
7
  6
CONTINUOUS
 10
4.8085917402
 20
5.113373746
 11
4.8078801429
 21
5.1130049893
  0
LINE
  5
340
100
AcDbEntity
  8
0
100
AcDbLine
 62
7
  6
CONTINUOUS
 10
5.4366683037
 20
5.1305987458
 11
5.4373801429
 21
5.1302299893
  0
LINE
  5
341
100
AcDbEntity
  8
0
100
AcDbLine
 62
7
  6
CONTINUOUS
 10
5.4366683037
 20
5.1650487458
 11
5.4373801429
 21
5.1646799893
  0
LINE
  5
342
100
AcDbEntity
  8
0
100
AcDbLine
 62
7
  6
CONTINUOUS
 10
5.4366683037
 20
5.1994987458
 11
5.4373801429
 21
5.1991299893
  0
LINE
  5
343
100
AcDbEntity
  8
0
100
AcDbLine
 62
7
  6
CONTINUOUS
 10
5.4366682979
 20
5.2339487458
 11
5.4373801429
 21
5.2335799893
  0
LINE
  5
344
100
AcDbEntity
  8
0
100
AcDbLine
 62
7
  6
CONTINUOUS
 10
4.808591982
 20
5.1478237458
 11
4.8078801429
 21
5.1474549893
  0
LINE
  5
345
100
AcDbEntity
  8
0
100
AcDbLine
 62
7
  6
CONTINUOUS
 10
4.808591982
 20
5.1822737458
 11
4.8078801429
 21
5.1819049893
  0
LINE
  5
346
100
AcDbEntity
  8
0
100
AcDbLine
 62
7
  6
CONTINUOUS
 10
4.808591982
 20
5.2167237458
 11
4.8078801429
 21
5.2163549893
  0
LINE
  5
347
100
AcDbEntity
  8
0
100
AcDbLine
 62
7
  6
CONTINUOUS
 10
4.8078801429
 20
5.102330725
 11
4.8085919821
 21
5.1019619685
  0
LINE
  5
348
100
AcDbEntity
  8
0
100
AcDbLine
 62
7
  6
CONTINUOUS
 10
4.8078801429
 20
5.136780725
 11
4.8085919821
 21
5.1364119685
  0
LINE
  5
349
100
AcDbEntity
  8
0
100
AcDbLine
 62
7
  6
CONTINUOUS
 10
4.8078801429
 20
5.171230725
 11
4.8085919821
 21
5.1708619685
  0
LINE
  5
34A
100
AcDbEntity
  8
0
100
AcDbLine
 62
7
  6
CONTINUOUS
 10
4.8078801429
 20
5.205680725
 11
4.8085919821
 21
5.2053119685
  0
LINE
  5
34B
100
AcDbEntity
  8
0
100
AcDbLine
 62
7
  6
CONTINUOUS
 10
4.8078801429
 20
5.240130725
 11
4.8085919821
 21
5.2397619685
  0
LINE
  5
34C
100
AcDbEntity
  8
0
100
AcDbLine
 62
7
  6
CONTINUOUS
 10
4.8078801429
 20
5.274580725
 11
4.8085919751
 21
5.2742119685
  0
LINE
  5
34D
100
AcDbEntity
  8
0
100
AcDbLine
 62
7
  6
CONTINUOUS
 10
5.4366683037
 20
5.2683987458
 11
5.4373801429
 21
5.2680299893
  0
LINE
  5
34E
100
AcDbEntity
  8
0
100
AcDbLine
 62
7
  6
CONTINUOUS
 10
4.8078801429
 20
5.309030725
 11
4.8085919821
 21
5.3086619685
  0
LINE
  5
34F
100
AcDbEntity
  8
0
100
AcDbLine
 62
7
  6
CONTINUOUS
 10
5.4366683037
 20
5.3028487458
 11
5.4373801429
 21
5.3024799893
  0
LINE
  5
350
100
AcDbEntity
  8
0
100
AcDbLine
 62
7
  6
CONTINUOUS
 10
4.8078801429
 20
5.343480725
 11
4.8085919821
 21
5.3431119685
  0
LINE
  5
351
100
AcDbEntity
  8
0
100
AcDbLine
 62
7
  6
CONTINUOUS
 10
5.4366683037
 20
5.3372987458
 11
5.4373801429
 21
5.3369299893
  0
LINE
  5
352
100
AcDbEntity
  8
0
100
AcDbLine
 62
7
  6
CONTINUOUS
 10
4.8078801429
 20
5.377930725
 11
4.8085919821
 21
5.3775619685
  0
LINE
  5
353
100
AcDbEntity
  8
0
100
AcDbLine
 62
7
  6
CONTINUOUS
 10
4.8078801429
 20
5.412380725
 11
4.8085919713
 21
5.4120119685
  0
LINE
  5
354
100
AcDbEntity
  8
0
100
AcDbLine
 62
7
  6
CONTINUOUS
 10
5.436668551
 20
5.371748746
 11
5.4373801429
 21
5.3713799893
  0
LINE
  5
355
100
AcDbEntity
  8
0
100
AcDbLine
 62
7
  6
CONTINUOUS
 10
4.8078801429
 20
5.446830725
 11
4.8085919821
 21
5.4464619685
  0
LINE
  5
356
100
AcDbEntity
  8
0
100
AcDbLine
 62
7
  6
CONTINUOUS
 10
4.808591982
 20
5.2511737458
 11
4.8078801429
 21
5.2508049893
  0
LINE
  5
357
100
AcDbEntity
  8
0
100
AcDbLine
 62
7
  6
CONTINUOUS
 10
4.8078801429
 20
5.481280725
 11
4.8085919821
 21
5.4809119685
  0
LINE
  5
358
100
AcDbEntity
  8
0
100
AcDbLine
 62
7
  6
CONTINUOUS
 10
4.808591982
 20
5.2856237458
 11
4.8078801429
 21
5.2852549893
  0
LINE
  5
359
100
AcDbEntity
  8
0
100
AcDbLine
 62
7
  6
CONTINUOUS
 10
4.8078801429
 20
5.515730725
 11
4.8085919821
 21
5.5153619685
  0
LINE
  5
35A
100
AcDbEntity
  8
0
100
AcDbLine
 62
7
  6
CONTINUOUS
 10
4.808591982
 20
5.3200737458
 11
4.8078801429
 21
5.3197049893
  0
LINE
  5
35B
100
AcDbEntity
  8
0
100
AcDbLine
 62
7
  6
CONTINUOUS
 10
4.808591982
 20
5.3545237458
 11
4.8078801429
 21
5.3541549893
  0
LINE
  5
35C
100
AcDbEntity
  8
0
100
AcDbLine
 62
7
  6
CONTINUOUS
 10
5.4373801429
 20
5.085105725
 11
5.4366683036
 21
5.0847369685
  0
LINE
  5
35D
100
AcDbEntity
  8
0
100
AcDbLine
 62
7
  6
CONTINUOUS
 10
5.4373801429
 20
5.119555725
 11
5.4366683036
 21
5.1191869685
  0
LINE
  5
35E
100
AcDbEntity
  8
0
100
AcDbLine
 62
7
  6
CONTINUOUS
 10
5.4373801429
 20
5.154005725
 11
5.436668299
 21
5.1536369685
  0
LINE
  5
35F
100
AcDbEntity
  8
0
100
AcDbLine
 62
7
  6
CONTINUOUS
 10
5.4373801429
 20
5.188455725
 11
5.4366683036
 21
5.1880869685
  0
LINE
  5
360
100
AcDbEntity
  8
0
100
AcDbLine
 62
7
  6
CONTINUOUS
 10
5.4373801429
 20
5.222905725
 11
5.4366683036
 21
5.2225369685
  0
LINE
  5
361
100
AcDbEntity
  8
0
100
AcDbLine
 62
7
  6
CONTINUOUS
 10
5.4373801429
 20
5.257355725
 11
5.4366683036
 21
5.2569869685
  0
LINE
  5
362
100
AcDbEntity
  8
0
100
AcDbLine
 62
7
  6
CONTINUOUS
 10
5.4373801429
 20
5.291805725
 11
5.4366683036
 21
5.2914369685
  0
LINE
  5
363
100
AcDbEntity
  8
0
100
AcDbLine
 62
7
  6
CONTINUOUS
 10
5.4373801429
 20
5.326255725
 11
5.4366683036
 21
5.3258869685
  0
LINE
  5
364
100
AcDbEntity
  8
0
100
AcDbLine
 62
7
  6
CONTINUOUS
 10
5.4373801429
 20
5.360705725
 11
5.4366683036
 21
5.3603369685
  0
LINE
  5
365
100
AcDbEntity
  8
0
100
AcDbLine
 62
7
  6
CONTINUOUS
 10
5.4373801429
 20
5.395155725
 11
5.4366683036
 21
5.3947869685
  0
LINE
  5
366
100
AcDbEntity
  8
0
100
AcDbLine
 62
7
  6
CONTINUOUS
 10
5.4373801429
 20
5.429605725
 11
5.4366683036
 21
5.4292369685
  0
LINE
  5
367
100
AcDbEntity
  8
0
100
AcDbLine
 62
7
  6
CONTINUOUS
 10
5.4373801429
 20
5.464055725
 11
5.4366683036
 21
5.4636869685
  0
LINE
  5
368
100
AcDbEntity
  8
0
100
AcDbLine
 62
7
  6
CONTINUOUS
 10
5.4373801429
 20
5.498505725
 11
5.4366683036
 21
5.4981369685
  0
LINE
  5
369
100
AcDbEntity
  8
0
100
AcDbLine
 62
7
  6
CONTINUOUS
 10
5.4373801484
 20
4.7750557248
 11
5.4366685252
 21
4.7746869683
  0
LINE
  5
36A
100
AcDbEntity
  8
0
100
AcDbLine
 62
7
  6
CONTINUOUS
 10
5.4366683037
 20
5.4061987458
 11
5.4373801429
 21
5.4058299893
  0
LINE
  5
36B
100
AcDbEntity
  8
0
100
AcDbLine
 62
7
  6
CONTINUOUS
 10
5.4366683037
 20
5.4406487458
 11
5.4373801429
 21
5.4402799893
  0
LINE
  5
36C
100
AcDbEntity
  8
0
100
AcDbLine
 62
7
  6
CONTINUOUS
 10
5.4366683037
 20
5.4750987458
 11
5.4373801429
 21
5.4747299893
  0
LINE
  5
36D
100
AcDbEntity
  8
0
100
AcDbLine
 62
7
  6
CONTINUOUS
 10
4.808591982
 20
5.3889737458
 11
4.8078801429
 21
5.3886049893
  0
LINE
  5
36E
100
AcDbEntity
  8
0
100
AcDbLine
 62
7
  6
CONTINUOUS
 10
4.808591982
 20
5.4234237458
 11
4.8078801429
 21
5.4230549893
  0
LINE
  5
36F
100
AcDbEntity
  8
0
100
AcDbLine
 62
7
  6
CONTINUOUS
 10
4.808591982
 20
5.4578737458
 11
4.8078801429
 21
5.4575049893
  0
LINE
  5
370
100
AcDbEntity
  8
0
100
AcDbLine
 62
7
  6
CONTINUOUS
 10
4.8085919433
 20
5.4923237458
 11
4.8078801429
 21
5.4919549893
  0
LINE
  5
371
100
AcDbEntity
  8
0
100
AcDbLine
 62
7
  6
CONTINUOUS
 10
4.8085919544
 20
5.5267737458
 11
4.8078801429
 21
5.5264049893
  0
LINE
  5
372
100
AcDbEntity
  8
0
100
AcDbLine
 62
7
  6
CONTINUOUS
 10
5.4366683037
 20
5.5095487458
 11
5.4373801429
 21
5.5091799893
  0
SPLINE
  5
373
100
AcDbEntity
  8
0
100
AcDbSpline
 62
7
  6
CONTINUOUS
 70
0
 71
3
 72
45
 73
41
 74
0
 42
0.0000001
 43
0.0000001
 44
0.0000000001
 40
0.0
 40
0.0
 40
0.0
 40
0.0
 40
0.0009100686
 40
0.0020684834
 40
0.0034764675
 40
0.0051340867
 40
0.007040977
 40
0.0091965779
 40
0.0142508832
 40
0.0202879838
 40
0.0272963845
 40
0.0352628947
 40
0.04417126
 40
0.0540043856
 40
0.0647422783
 40
0.0888452449
 40
0.116287295
 40
0.1468484982
 40
0.180283737
 40
0.2163247767
 40
0.2546822274
 40
0.2950480375
 40
0.3370981182
 40
0.3804948164
 40
0.4699260442
 40
0.5604744619
 40
0.6492371659
 40
0.7333683879
 40
0.7728461224
 40
0.8101711235
 40
0.8450437408
 40
0.8771840011
 40
0.9063339763
 40
0.9322598345
 40
0.9547541435
 40
0.973636748
 40
0.9816757795
 40
0.9887586514
 40
0.9948709871
 40
1.0
 40
1.0
 40
1.0
 40
1.0
 10
5.436668299
 20
5.1536369685
 30
0.0
 10
5.4364855154
 20
5.1535895839
 30
0.0
 10
5.4360655135
 20
5.1534997284
 30
0.0
 10
5.4353542337
 20
5.1533793648
 30
0.0
 10
5.4344860998
 20
5.1532583457
 30
0.0
 10
5.4334615218
 20
5.1531368052
 30
0.0
 10
5.4322809188
 20
5.153014944
 30
0.0
 10
5.4303971258
 20
5.1528429096
 30
0.0
 10
5.4276565178
 20
5.1526323733
 30
0.0
 10
5.423908867
 20
5.1523898238
 30
0.0
 10
5.4195559333
 20
5.1521465491
 30
0.0
 10
5.414606485
 20
5.1519027072
 30
0.0
 10
5.4090703362
 20
5.1516584727
 30
0.0
 10
5.4029586769
 20
5.151413962
 30
0.0
 10
5.3936956943
 20
5.151074443
 30
0.0
 10
5.3807796393
 20
5.150655924
 30
0.0
 10
5.3637507358
 20
5.1501695306
 30
0.0
 10
5.3447848438
 20
5.1496822321
 30
0.0
 10
5.3240342764
 20
5.1491942138
 30
0.0
 10
5.3016657028
 20
5.1487057137
 30
0.0
 10
5.2778588267
 20
5.1482168528
 30
0.0
 10
5.2528049209
 20
5.1477277318
 30
0.0
 10
5.2267052599
 20
5.147238411
 30
0.0
 10
5.1904266549
 20
5.1465792185
 30
0.0
 10
5.1440865219
 20
5.1457653377
 30
0.0
 10
5.0883348673
 20
5.1447977719
 30
0.0
 10
5.0336830424
 20
5.1438307634
 30
0.0
 10
4.9896267019
 20
5.1430100413
 30
0.0
 10
4.9562419343
 20
5.1423438412
 30
0.0
 10
4.9330761037
 20
5.1418551179
 30
0.0
 10
4.9114330398
 20
5.1413668241
 30
0.0
 10
4.8914866205
 20
5.140879109
 30
0.0
 10
4.8733971055
 20
5.1403921799
 30
0.0
 10
4.8573097366
 20
5.1399065434
 30
0.0
 10
4.8433537547
 20
5.1394224826
 30
0.0
 10
4.8331091505
 20
5.1390024786
 30
0.0
 10
4.8260620715
 20
5.1386585671
 30
0.0
 10
4.821662964
 20
5.1384151921
 30
0.0
 10
4.8178686614
 20
5.1381725887
 30
0.0
 10
4.8155428084
 20
5.1379963799
 30
0.0
 10
4.8144824827
 20
5.137905725
 30
0.0
  0
SPLINE
  5
374
100
AcDbEntity
  8
0
100
AcDbSpline
 62
7
  6
CONTINUOUS
 70
0
 71
3
 72
44
 73
40
 74
0
 42
0.0000001
 43
0.0000001
 44
0.0000000001
 40
0.0
 40
0.0
 40
0.0
 40
0.0
 40
0.0009625489
 40
0.0021722567
 40
0.0036302654
 40
0.0053369669
 40
0.0094947463
 40
0.0146395252
 40
0.0207630434
 40
0.027853398
 40
0.0358969635
 40
0.0448783132
 40
0.0547791522
 40
0.0655804542
 40
0.0897954547
 40
0.1173303792
 40
0.1479653683
 40
0.1814553259
 40
0.2175323628
 40
0.2559079004
 40
0.2962748993
 40
0.3383102872
 40
0.3816775511
 40
0.4710112162
 40
0.5614213882
 40
0.6500188428
 40
0.7339725744
 40
0.7733614307
 40
0.8105998223
 40
0.8453898154
 40
0.8774530993
 40
0.9065332452
 40
0.9323976643
 40
0.9548401957
 40
0.9736818109
 40
0.9817048502
 40
0.9887747929
 40
0.994877398
 40
1.0
 40
1.0
 40
1.0
 40
1.0
 10
5.416269643
 20
5.1483486965
 30
0.0
 10
5.4160888381
 20
5.1483018222
 30
0.0
 10
5.4156766106
 20
5.1482124044
 30
0.0
 10
5.4149824363
 20
5.1480920466
 30
0.0
 10
5.4141421491
 20
5.1479710503
 30
0.0
 10
5.4127317947
 20
5.1477975237
 30
0.0
 10
5.4106055798
 20
5.1475871658
 30
0.0
 10
5.4076218108
 20
5.1473460428
 30
0.0
 10
5.4040674777
 20
5.1471039454
 30
0.0
 10
5.3999496062
 20
5.1468609464
 30
0.0
 10
5.3952763565
 20
5.1466174461
 30
0.0
 10
5.3900570982
 20
5.1463735881
 30
0.0
 10
5.3843021902
 20
5.1461294271
 30
0.0
 10
5.3755926094
 20
5.1457905932
 30
0.0
 10
5.3634617027
 20
5.1453727903
 30
0.0
 10
5.3474822916
 20
5.1448871204
 30
0.0
 10
5.3297023613
 20
5.1444005615
 30
0.0
 10
5.3102642964
 20
5.1439132974
 30
0.0
 10
5.2893237577
 20
5.1434255588
 30
0.0
 10
5.2670484025
 20
5.1429374658
 30
0.0
 10
5.2436165747
 20
5.1424491181
 30
0.0
 10
5.2192159076
 20
5.1419605748
 30
0.0
 10
5.1853147729
 20
5.1413025233
 30
0.0
 10
5.1420277668
 20
5.1404900064
 30
0.0
 10
5.0899651985
 20
5.1395239539
 30
0.0
 10
5.0389467749
 20
5.1385584618
 30
0.0
 10
4.9978280341
 20
5.1377389985
 30
0.0
 10
4.9666744474
 20
5.1370738342
 30
0.0
 10
4.9450594718
 20
5.1365858937
 30
0.0
 10
4.9248663948
 20
5.1360983819
 30
0.0
 10
4.9062569014
 20
5.1356114466
 30
0.0
 10
4.8893800368
 20
5.1351252973
 30
0.0
 10
4.8743708818
 20
5.1346404336
 30
0.0
 10
4.8613496418
 20
5.1341571391
 30
0.0
 10
4.8517906497
 20
5.1337378084
 30
0.0
 10
4.8452145731
 20
5.1333944669
 30
0.0
 10
4.8411087135
 20
5.1331514706
 30
0.0
 10
4.8375667694
 20
5.1329092464
 30
0.0
 10
4.835395524
 20
5.1327333422
 30
0.0
 10
4.8344056118
 20
5.1326428571
 30
0.0
  0
SPLINE
  5
375
100
AcDbEntity
  8
0
100
AcDbSpline
 62
7
  6
CONTINUOUS
 70
0
 71
3
 72
63
 73
59
 74
0
 42
0.0000001
 43
0.0000001
 44
0.0000000001
 40
0.0
 40
0.0
 40
0.0
 40
0.0
 40
0.0010305488
 40
0.0023428763
 40
0.0039379092
 40
0.0058154627
 40
0.0079749741
 40
0.0104156864
 40
0.0161361879
 40
0.0229645197
 40
0.0308862536
 40
0.0398832882
 40
0.0499354205
 40
0.0610198261
 40
0.0731109087
 40
0.1002008843
 40
0.1309571577
 40
0.1650974078
 40
0.2023081681
 40
0.2422476303
 40
0.284548844
 40
0.3288231691
 40
0.3746637636
 40
0.4216493439
 40
0.4693481802
 40
0.5173217944
 40
0.5651293801
 40
0.6123315063
 40
0.6584944184
 40
0.7031939143
 40
0.7460192019
 40
0.7865768078
 40
0.8244940777
 40
0.8594226492
 40
0.8756647097
 40
0.8910418262
 40
0.9055184197
 40
0.9190613758
 40
0.9316397528
 40
0.9432244591
 40
0.9537894533
 40
0.9633100455
 40
0.9717652419
 40
0.979135424
 40
0.9854046854
 40
0.9905593093
 40
0.9927153186
 40
0.9945893618
 40
0.996180879
 40
0.9974896931
 40
0.9980383526
 40
0.9985168556
 40
0.9989256789
 40
0.9992656229
 40
0.9995381323
 40
0.9996499814
 40
0.9997463072
 40
1.0
 40
1.0
 40
1.0
 40
1.0
 10
5.4365592154
 20
5.1880596947
 30
0.0
 10
5.43634914
 20
5.1880089771
 30
0.0
 10
5.435866989
 20
5.187912857
 30
0.0
 10
5.4350512104
 20
5.1877841214
 30
0.0
 10
5.4340560689
 20
5.1876546692
 30
0.0
 10
5.4328821267
 20
5.1875246521
 30
0.0
 10
5.4315299384
 20
5.1873942892
 30
0.0
 10
5.429373438
 20
5.1872102826
 30
0.0
 10
5.4262380114
 20
5.1869850924
 30
0.0
 10
5.4219530368
 20
5.186725611
 30
0.0
 10
5.4169799159
 20
5.1864653963
 30
0.0
 10
5.4113299847
 20
5.1862045326
 30
0.0
 10
5.4050162162
 20
5.1859432813
 30
0.0
 10
5.3980531255
 20
5.1856817155
 30
0.0
 10
5.3875184584
 20
5.1853187649
 30
0.0
 10
5.3728590438
 20
5.1848713727
 30
0.0
 10
5.3535760332
 20
5.184351161
 30
0.0
 10
5.3321699796
 20
5.1838299867
 30
0.0
 10
5.3088376701
 20
5.1833080517
 30
0.0
 10
5.2837935834
 20
5.1827856102
 30
0.0
 10
5.25726794
 20
5.182262796
 30
0.0
 10
5.2295045786
 20
5.1817397171
 30
0.0
 10
5.2007587197
 20
5.1812164508
 30
0.0
 10
5.1712946116
 20
5.1806930591
 30
0.0
 10
5.1413831315
 20
5.1801695939
 30
0.0
 10
5.1112992473
 20
5.179646101
 30
0.0
 10
5.081319541
 20
5.1791226247
 30
0.0
 10
5.0517196047
 20
5.1785992103
 30
0.0
 10
5.0227715509
 20
5.1780759076
 30
0.0
 10
4.9947414913
 20
5.1775527764
 30
0.0
 10
4.9678870982
 20
5.1770298869
 30
0.0
 10
4.9424552443
 20
5.1765073471
 30
0.0
 10
4.9186797306
 20
5.1759852534
 30
0.0
 10
4.9000028528
 20
5.1755406623
 30
0.0
 10
4.8860520779
 20
5.1751821849
 30
0.0
 10
4.8763891314
 20
5.1749199624
 30
0.0
 10
4.8672924173
 20
5.1746578357
 30
0.0
 10
4.8587828674
 20
5.1743958226
 30
0.0
 10
4.8508800621
 20
5.1741339652
 30
0.0
 10
4.8436021121
 20
5.1738722852
 30
0.0
 10
4.8369658335
 20
5.17361088
 30
0.0
 10
4.8309863706
 20
5.1733498037
 30
0.0
 10
4.8256775624
 20
5.1730892246
 30
0.0
 10
4.8210514443
 20
5.1728294046
 30
0.0
 10
4.8171186913
 20
5.1725705359
 30
0.0
 10
4.8142796764
 20
5.1723451989
 30
0.0
 10
4.8123624677
 20
5.1721601882
 30
0.0
 10
4.8111907277
 20
5.1720301869
 30
0.0
 10
4.8101978721
 20
5.1719006548
 30
0.0
 10
4.8094832783
 20
5.1717878378
 30
0.0
 10
4.8090021839
 20
5.1716953328
 30
0.0
 10
4.808708112
 20
5.1716302103
 30
0.0
 10
4.8084590102
 20
5.1715653723
 30
0.0
 10
4.8082546032
 20
5.1715006158
 30
0.0
 10
4.8081136501
 20
5.1714442822
 30
0.0
 10
4.8080236702
 20
5.1713972028
 30
0.0
 10
4.8079436254
 20
5.1713469044
 30
0.0
 10
4.8078801429
 20
5.1712839256
 30
0.0
 10
4.8078801429
 20
5.171230725
 30
0.0
  0
SPLINE
  5
376
100
AcDbEntity
  8
0
100
AcDbSpline
 62
7
  6
CONTINUOUS
 70
0
 71
3
 72
63
 73
59
 74
0
 42
0.0000001
 43
0.0000001
 44
0.0000000001
 40
0.0
 40
0.0
 40
0.0
 40
0.0
 40
0.0010774659
 40
0.0024355598
 40
0.0040750795
 40
0.0059960702
 40
0.0081982057
 40
0.0106806765
 40
0.0164810537
 40
0.023385373
 40
0.0313789136
 40
0.0404433386
 40
0.0505588847
 40
0.0617019356
 40
0.07384763
 40
0.1010330026
 40
0.1318666774
 40
0.1660664642
 40
0.2033192144
 40
0.2432835104
 40
0.2855932038
 40
0.3298605359
 40
0.3756797588
 40
0.4226309939
 40
0.4702837443
 40
0.5182012673
 40
0.5659442372
 40
0.6130750447
 40
0.6591617031
 40
0.7037817454
 40
0.7465262068
 40
0.7870032932
 40
0.8248420443
 40
0.859695876
 40
0.8912455832
 40
0.9056900338
 40
0.919202442
 40
0.9317523554
 40
0.9433108893
 40
0.9538516426
 40
0.9633510057
 40
0.9717869444
 40
0.9791412306
 40
0.9853969907
 40
0.9905415048
 40
0.9926938632
 40
0.9945648662
 40
0.99615424
 40
0.9974622691
 40
0.998011128
 40
0.9984902209
 40
0.9989000472
 40
0.9992414731
 40
0.9995161304
 40
0.9997272831
 40
0.9998112416
 40
0.999882802
 40
1.0
 40
1.0
 40
1.0
 40
1.0
 10
5.4161779929
 20
5.1827755861
 30
0.0
 10
5.41597273
 20
5.1827253064
 30
0.0
 10
5.4155044117
 20
5.1826295657
 30
0.0
 10
5.4147154926
 20
5.1825008259
 30
0.0
 10
5.413759388
 20
5.1823714067
 30
0.0
 10
5.4126365673
 20
5.1822414731
 30
0.0
 10
5.4113474897
 20
5.1821112227
 30
0.0
 10
5.4092991739
 20
5.1819276092
 30
0.0
 10
5.4063287795
 20
5.181702704
 30
0.0
 10
5.4022773152
 20
5.1814434786
 30
0.0
 10
5.3975845644
 20
5.1811835301
 30
0.0
 10
5.3922611721
 20
5.1809229437
 30
0.0
 10
5.3863194023
 20
5.1806620053
 30
0.0
 10
5.3797727713
 20
5.1804007337
 30
0.0
 10
5.3698795331
 20
5.1800383574
 30
0.0
 10
5.3561248076
 20
5.1795915655
 30
0.0
 10
5.3380446907
 20
5.1790719574
 30
0.0
 10
5.3179892803
 20
5.1785513995
 30
0.0
 10
5.2961424874
 20
5.1780300949
 30
0.0
 10
5.272704632
 20
5.1775082903
 30
0.0
 10
5.247890644
 20
5.1769861188
 30
0.0
 10
5.2219280504
 20
5.1764636859
 30
0.0
 10
5.1950549041
 20
5.1759410684
 30
0.0
 10
5.1675176314
 20
5.1754183277
 30
0.0
 10
5.1395687326
 20
5.1748955148
 30
0.0
 10
5.1114645186
 20
5.1743726755
 30
0.0
 10
5.0834626944
 20
5.1738498534
 30
0.0
 10
5.055820033
 20
5.1733270937
 30
0.0
 10
5.0287900034
 20
5.1728044464
 30
0.0
 10
5.0026204615
 20
5.1722819698
 30
0.0
 10
4.977551388
 20
5.1717597389
 30
0.0
 10
4.9538126738
 20
5.1712378445
 30
0.0
 10
4.9316219903
 20
5.1707164374
 30
0.0
 10
4.9111828043
 20
5.1701956532
 30
0.0
 10
4.8953317189
 20
5.1697503938
 30
0.0
 10
4.883665798
 20
5.1693906609
 30
0.0
 10
4.8757252119
 20
5.1691289657
 30
0.0
 10
4.8683509848
 20
5.1688674365
 30
0.0
 10
4.8615599973
 20
5.1686060968
 30
0.0
 10
4.855367808
 20
5.1683449996
 30
0.0
 10
4.8497886541
 20
5.1680842774
 30
0.0
 10
4.8448352234
 20
5.1678239919
 30
0.0
 10
4.8405189117
 20
5.1675645278
 30
0.0
 10
4.836849477
 20
5.1673059638
 30
0.0
 10
4.8342006578
 20
5.1670808909
 30
0.0
 10
4.8324119635
 20
5.1668961344
 30
0.0
 10
4.8313187175
 20
5.1667662824
 30
0.0
 10
4.830392383
 20
5.1666368873
 30
0.0
 10
4.8297257118
 20
5.1665242238
 30
0.0
 10
4.8292768949
 20
5.1664318678
 30
0.0
 10
4.8290024306
 20
5.1663668489
 30
0.0
 10
4.8287699149
 20
5.166302022
 30
0.0
 10
4.8285791368
 20
5.1662374814
 30
0.0
 10
4.8284300081
 20
5.1661731841
 30
0.0
 10
4.8283330261
 20
5.1661163291
 30
0.0
 10
4.8282785391
 20
5.166068893
 30
0.0
 10
4.8282441921
 20
5.1660279006
 30
0.0
 10
4.8282302589
 20
5.165990844
 30
0.0
 10
4.8282302595
 20
5.1659678571
 30
0.0
  0
SPLINE
  5
377
100
AcDbEntity
  8
0
100
AcDbSpline
 62
7
  6
CONTINUOUS
 70
0
 71
3
 72
63
 73
59
 74
0
 42
0.0000001
 43
0.0000001
 44
0.0000000001
 40
0.0
 40
0.0
 40
0.0
 40
0.0
 40
0.0010305488
 40
0.0023428763
 40
0.0039379092
 40
0.0058154627
 40
0.0079749741
 40
0.0104156864
 40
0.0161361879
 40
0.0229645197
 40
0.0308862536
 40
0.0398832882
 40
0.0499354205
 40
0.0610198261
 40
0.0731109087
 40
0.1002008843
 40
0.1309571577
 40
0.1650974078
 40
0.2023081681
 40
0.2422476303
 40
0.284548844
 40
0.3288231691
 40
0.3746637636
 40
0.4216493439
 40
0.4693481802
 40
0.5173217944
 40
0.5651293801
 40
0.6123315063
 40
0.6584944184
 40
0.7031939143
 40
0.7460192019
 40
0.7865768078
 40
0.8244940777
 40
0.8594226492
 40
0.8756647097
 40
0.8910418262
 40
0.9055184197
 40
0.9190613758
 40
0.9316397528
 40
0.9432244591
 40
0.9537894533
 40
0.9633100455
 40
0.9717652419
 40
0.979135424
 40
0.9854046854
 40
0.9905593093
 40
0.9927153186
 40
0.9945893618
 40
0.996180879
 40
0.9974896931
 40
0.9980383526
 40
0.9985168556
 40
0.9989256789
 40
0.9992656229
 40
0.9995381323
 40
0.9996499814
 40
0.9997463072
 40
1.0
 40
1.0
 40
1.0
 40
1.0
 10
5.4365592154
 20
5.2225096947
 30
0.0
 10
5.43634914
 20
5.2224589771
 30
0.0
 10
5.435866989
 20
5.222362857
 30
0.0
 10
5.4350512104
 20
5.2222341214
 30
0.0
 10
5.4340560689
 20
5.2221046692
 30
0.0
 10
5.4328821267
 20
5.2219746521
 30
0.0
 10
5.4315299384
 20
5.2218442892
 30
0.0
 10
5.429373438
 20
5.2216602826
 30
0.0
 10
5.4262380114
 20
5.2214350924
 30
0.0
 10
5.4219530368
 20
5.221175611
 30
0.0
 10
5.4169799159
 20
5.2209153963
 30
0.0
 10
5.4113299847
 20
5.2206545326
 30
0.0
 10
5.4050162162
 20
5.2203932813
 30
0.0
 10
5.3980531255
 20
5.2201317155
 30
0.0
 10
5.3875184584
 20
5.2197687649
 30
0.0
 10
5.3728590438
 20
5.2193213727
 30
0.0
 10
5.3535760332
 20
5.218801161
 30
0.0
 10
5.3321699796
 20
5.2182799867
 30
0.0
 10
5.3088376701
 20
5.2177580517
 30
0.0
 10
5.2837935834
 20
5.2172356102
 30
0.0
 10
5.25726794
 20
5.216712796
 30
0.0
 10
5.2295045786
 20
5.2161897171
 30
0.0
 10
5.2007587197
 20
5.2156664508
 30
0.0
 10
5.1712946116
 20
5.2151430591
 30
0.0
 10
5.1413831315
 20
5.2146195939
 30
0.0
 10
5.1112992473
 20
5.214096101
 30
0.0
 10
5.081319541
 20
5.2135726247
 30
0.0
 10
5.0517196047
 20
5.2130492103
 30
0.0
 10
5.0227715509
 20
5.2125259076
 30
0.0
 10
4.9947414913
 20
5.2120027764
 30
0.0
 10
4.9678870982
 20
5.2114798869
 30
0.0
 10
4.9424552443
 20
5.2109573471
 30
0.0
 10
4.9186797306
 20
5.2104352534
 30
0.0
 10
4.9000028528
 20
5.2099906623
 30
0.0
 10
4.8860520779
 20
5.2096321849
 30
0.0
 10
4.8763891314
 20
5.2093699624
 30
0.0
 10
4.8672924173
 20
5.2091078357
 30
0.0
 10
4.8587828674
 20
5.2088458226
 30
0.0
 10
4.8508800621
 20
5.2085839652
 30
0.0
 10
4.8436021121
 20
5.2083222852
 30
0.0
 10
4.8369658335
 20
5.20806088
 30
0.0
 10
4.8309863706
 20
5.2077998037
 30
0.0
 10
4.8256775624
 20
5.2075392246
 30
0.0
 10
4.8210514443
 20
5.2072794046
 30
0.0
 10
4.8171186913
 20
5.2070205359
 30
0.0
 10
4.8142796764
 20
5.2067951989
 30
0.0
 10
4.8123624677
 20
5.2066101882
 30
0.0
 10
4.8111907277
 20
5.2064801869
 30
0.0
 10
4.8101978721
 20
5.2063506548
 30
0.0
 10
4.8094832783
 20
5.2062378378
 30
0.0
 10
4.8090021839
 20
5.2061453328
 30
0.0
 10
4.808708112
 20
5.2060802103
 30
0.0
 10
4.8084590102
 20
5.2060153723
 30
0.0
 10
4.8082546032
 20
5.2059506158
 30
0.0
 10
4.8081136501
 20
5.2058942822
 30
0.0
 10
4.8080236702
 20
5.2058472028
 30
0.0
 10
4.8079436254
 20
5.2057969044
 30
0.0
 10
4.8078801429
 20
5.2057339256
 30
0.0
 10
4.8078801429
 20
5.205680725
 30
0.0
  0
SPLINE
  5
378
100
AcDbEntity
  8
0
100
AcDbSpline
 62
7
  6
CONTINUOUS
 70
0
 71
3
 72
62
 73
58
 74
0
 42
0.0000001
 43
0.0000001
 44
0.0000000001
 40
0.0
 40
0.0
 40
0.0
 40
0.0
 40
0.0010965866
 40
0.0024737159
 40
0.0041322567
 40
0.0060719814
 40
0.010792313
 40
0.0166274279
 40
0.0235646922
 40
0.0315894004
 40
0.0406835806
 40
0.050826569
 40
0.0619958286
 40
0.0741653438
 40
0.1013932681
 40
0.1322617984
 40
0.1664886916
 40
0.2037608584
 40
0.2437372605
 40
0.2860519985
 40
0.3303177299
 40
0.3761292108
 40
0.4230668885
 40
0.4707010515
 40
0.5185955006
 40
0.5663117122
 40
0.6134128343
 40
0.6594674731
 40
0.7040540408
 40
0.7467642129
 40
0.7872070963
 40
0.8250125045
 40
0.8598344494
 40
0.8913544145
 40
0.9057846547
 40
0.9192841245
 40
0.9318214074
 40
0.9433685236
 40
0.9538986866
 40
0.96338827
 40
0.9718158545
 40
0.979162273
 40
0.9854119139
 40
0.9905508626
 40
0.9927009249
 40
0.994570198
 40
0.9961580697
 40
0.9974646179
 40
0.998012813
 40
0.9984913373
 40
0.9989007222
 40
0.9992418612
 40
0.9995163631
 40
0.999727429
 40
0.9998113511
 40
0.999882873
 40
1.0
 40
1.0
 40
1.0
 40
1.0
 10
5.4161392453
 20
5.2172162231
 30
0.0
 10
5.4159300986
 20
5.2171661086
 30
0.0
 10
5.4154541697
 20
5.2170704974
 30
0.0
 10
5.4146539442
 20
5.2169417684
 30
0.0
 10
5.4136866691
 20
5.2168123665
 30
0.0
 10
5.4120657144
 20
5.2166268273
 30
0.0
 10
5.4096252112
 20
5.2164018325
 30
0.0
 10
5.4062041028
 20
5.2161439791
 30
0.0
 10
5.4021334459
 20
5.2158850052
 30
0.0
 10
5.3974225823
 20
5.2156251176
 30
0.0
 10
5.3920821893
 20
5.2153646936
 30
0.0
 10
5.3861244455
 20
5.2151038608
 30
0.0
 10
5.3795630456
 20
5.2148427484
 30
0.0
 10
5.3696523002
 20
5.2144805977
 30
0.0
 10
5.3558786342
 20
5.2140340893
 30
0.0
 10
5.3377792285
 20
5.2135147435
 30
0.0
 10
5.3177092039
 20
5.2129944594
 30
0.0
 10
5.295852382
 20
5.2124734321
 30
0.0
 10
5.2724089339
 20
5.2119519091
 30
0.0
 10
5.2475935697
 20
5.2114300212
 30
0.0
 10
5.2216335714
 20
5.210907874
 30
0.0
 10
5.1947667311
 20
5.2103855435
 30
0.0
 10
5.1672391415
 20
5.2098630901
 30
0.0
 10
5.1393029611
 20
5.2093405652
 30
0.0
 10
5.1112140655
 20
5.2088180142
 30
0.0
 10
5.0832297298
 20
5.2082954809
 30
0.0
 10
5.0556062873
 20
5.2077730107
 30
0.0
 10
5.0285967526
 20
5.2072506529
 30
0.0
 10
5.0024485506
 20
5.2067284656
 30
0.0
 10
4.977401171
 20
5.2062065237
 30
0.0
 10
4.953684035
 20
5.205684918
 30
0.0
 10
4.9315143538
 20
5.2051638012
 30
0.0
 10
4.911095177
 20
5.204643303
 30
0.0
 10
4.8952600378
 20
5.2041982987
 30
0.0
 10
4.8836060646
 20
5.2038387478
 30
0.0
 10
4.8756738172
 20
5.2035772136
 30
0.0
 10
4.8683073435
 20
5.2033158173
 30
0.0
 10
4.861523609
 20
5.2030546291
 30
0.0
 10
4.855338073
 20
5.2027936809
 30
0.0
 10
4.8497649313
 20
5.2025330878
 30
0.0
 10
4.8448169341
 20
5.2022729751
 30
0.0
 10
4.8405052987
 20
5.2020136193
 30
0.0
 10
4.8368399451
 20
5.2017552357
 30
0.0
 10
4.8341940487
 20
5.201530272
 30
0.0
 10
4.8324073587
 20
5.201345606
 30
0.0
 10
4.8313152698
 20
5.2012158373
 30
0.0
 10
4.8303899204
 20
5.2010865278
 30
0.0
 10
4.8297240115
 20
5.2009739184
 30
0.0
 10
4.82927576
 20
5.2008816087
 30
0.0
 10
4.8290016447
 20
5.2008166235
 30
0.0
 10
4.8287694012
 20
5.2007518284
 30
0.0
 10
4.8285788093
 20
5.2006873221
 30
0.0
 10
4.8284297895
 20
5.200623064
 30
0.0
 10
4.8283328583
 20
5.2005662468
 30
0.0
 10
4.8282783957
 20
5.2005188385
 30
0.0
 10
4.8282440701
 20
5.2004778695
 30
0.0
 10
4.8282301594
 20
5.2004408285
 30
0.0
 10
4.8282301721
 20
5.2004178571
 30
0.0
  0
SPLINE
  5
379
100
AcDbEntity
  8
0
100
AcDbSpline
 62
7
  6
CONTINUOUS
 70
0
 71
3
 72
63
 73
59
 74
0
 42
0.0000001
 43
0.0000001
 44
0.0000000001
 40
0.0
 40
0.0
 40
0.0
 40
0.0
 40
0.0010305416
 40
0.0023428619
 40
0.0039378877
 40
0.0058154343
 40
0.0079749388
 40
0.0104156446
 40
0.0161361336
 40
0.0229644536
 40
0.0308861761
 40
0.0398832001
 40
0.0499353226
 40
0.0610197192
 40
0.0731107932
 40
0.1002007531
 40
0.1309570125
 40
0.1650972518
 40
0.2023080047
 40
0.2422474627
 40
0.2845486779
 40
0.3288230064
 40
0.3746636042
 40
0.4216491935
 40
0.4693480336
 40
0.5173216559
 40
0.5651292498
 40
0.6123313846
 40
0.6584943065
 40
0.7031938133
 40
0.7460191116
 40
0.7865767278
 40
0.8244940104
 40
0.8594225918
 40
0.8756646579
 40
0.8910417806
 40
0.9055183797
 40
0.9190613411
 40
0.9316397229
 40
0.9432244345
 40
0.9537894337
 40
0.96331003
 40
0.9717652302
 40
0.9791354155
 40
0.9854046798
 40
0.990559306
 40
0.9927153161
 40
0.9945893599
 40
0.9961808777
 40
0.9974896922
 40
0.9980383519
 40
0.998516855
 40
0.9989256785
 40
0.9992656227
 40
0.9995381321
 40
0.9996499813
 40
0.9997463071
 40
1.0
 40
1.0
 40
1.0
 40
1.0
 10
5.4365592297
 20
5.2569596982
 30
0.0
 10
5.4363491559
 20
5.2569089805
 30
0.0
 10
5.435867008
 20
5.2568128603
 30
0.0
 10
5.4350512338
 20
5.2566841248
 30
0.0
 10
5.4340560969
 20
5.2565546725
 30
0.0
 10
5.432882159
 20
5.2564246554
 30
0.0
 10
5.431529975
 20
5.2562942925
 30
0.0
 10
5.42937348
 20
5.2561102858
 30
0.0
 10
5.4262380598
 20
5.2558850956
 30
0.0
 10
5.4219530926
 20
5.2556256141
 30
0.0
 10
5.4169799787
 20
5.2553653993
 30
0.0
 10
5.411330054
 20
5.2551045356
 30
0.0
 10
5.4050162915
 20
5.2548432843
 30
0.0
 10
5.3980532065
 20
5.2545817184
 30
0.0
 10
5.3875185461
 20
5.2542187677
 30
0.0
 10
5.3728591392
 20
5.2537713754
 30
0.0
 10
5.3535761367
 20
5.2532511637
 30
0.0
 10
5.3321700893
 20
5.2527299892
 30
0.0
 10
5.3088377839
 20
5.2522080542
 30
0.0
 10
5.2837936988
 20
5.2516856125
 30
0.0
 10
5.2572680547
 20
5.2511627982
 30
0.0
 10
5.2295046908
 20
5.2506397192
 30
0.0
 10
5.200758828
 20
5.2501164527
 30
0.0
 10
5.1712947158
 20
5.2495930609
 30
0.0
 10
5.1413832306
 20
5.2490695956
 30
0.0
 10
5.1112993415
 20
5.2485461027
 30
0.0
 10
5.0813196293
 20
5.2480226263
 30
0.0
 10
5.0517196867
 20
5.2474992118
 30
0.0
 10
5.0227716261
 20
5.246975909
 30
0.0
 10
4.9947415592
 20
5.2464527777
 30
0.0
 10
4.9678871588
 20
5.2459298882
 30
0.0
 10
4.9424552973
 20
5.2454073482
 30
0.0
 10
4.9186797761
 20
5.2448852544
 30
0.0
 10
4.9000028919
 20
5.2444406633
 30
0.0
 10
4.8860521122
 20
5.2440821858
 30
0.0
 10
4.8763891618
 20
5.2438199633
 30
0.0
 10
4.8672924439
 20
5.2435578364
 30
0.0
 10
4.8587828905
 20
5.2432958233
 30
0.0
 10
4.8508800818
 20
5.2430339659
 30
0.0
 10
4.8436021285
 20
5.2427722858
 30
0.0
 10
4.8369658467
 20
5.2425108806
 30
0.0
 10
4.8309863809
 20
5.2422498041
 30
0.0
 10
4.8256775703
 20
5.241989225
 30
0.0
 10
4.82105145
 20
5.241729405
 30
0.0
 10
4.8171186952
 20
5.2414705362
 30
0.0
 10
4.814279679
 20
5.2412451992
 30
0.0
 10
4.8123624694
 20
5.2410601884
 30
0.0
 10
4.811190729
 20
5.2409301871
 30
0.0
 10
4.810197873
 20
5.2408006549
 30
0.0
 10
4.809483279
 20
5.2406878379
 30
0.0
 10
4.8090021844
 20
5.2405953328
 30
0.0
 10
4.8087081124
 20
5.2405302103
 30
0.0
 10
4.8084590104
 20
5.2404653723
 30
0.0
 10
4.8082546034
 20
5.2404006159
 30
0.0
 10
4.8081136502
 20
5.2403442823
 30
0.0
 10
4.8080236702
 20
5.2402972028
 30
0.0
 10
4.8079436254
 20
5.2402469045
 30
0.0
 10
4.8078801429
 20
5.2401839256
 30
0.0
 10
4.8078801429
 20
5.240130725
 30
0.0
  0
SPLINE
  5
37A
100
AcDbEntity
  8
0
100
AcDbSpline
 62
7
  6
CONTINUOUS
 70
0
 71
3
 72
62
 73
58
 74
0
 42
0.0000001
 43
0.0000001
 44
0.0000000001
 40
0.0
 40
0.0
 40
0.0
 40
0.0
 40
0.0011155702
 40
0.0025112614
 40
0.0041879528
 40
0.0061457641
 40
0.01090149
 40
0.0167698863
 40
0.0237394825
 40
0.0317944185
 40
0.0409174141
 40
0.0510874682
 40
0.0622817361
 40
0.0744748853
 40
0.1017440382
 40
0.1326462569
 40
0.1668993948
 40
0.2041905477
 40
0.2441787799
 40
0.2864985507
 40
0.3307627118
 40
0.3765665082
 40
0.4234910152
 40
0.471107031
 40
0.5189791153
 40
0.5666693083
 40
0.6137414361
 40
0.6597649419
 40
0.704318897
 40
0.7469958809
 40
0.7874056214
 40
0.8251785882
 40
0.8599694746
 40
0.8914602599
 40
0.905877047
 40
0.919363477
 40
0.9318890031
 40
0.9434246087
 40
0.9539446946
 40
0.9634247696
 40
0.9718439963
 40
0.9791832122
 40
0.9854263274
 40
0.9905604351
 40
0.9927081905
 40
0.9945754032
 40
0.9961617188
 40
0.9974671962
 40
0.9980149008
 40
0.9984929248
 40
0.9989018301
 40
0.9992425437
 40
0.9995167073
 40
0.9997275515
 40
0.9998114117
 40
0.9998829017
 40
1.0
 40
1.0
 40
1.0
 40
1.0
 10
5.4161007798
 20
5.2516571039
 30
0.0
 10
5.4158877852
 20
5.2516071442
 30
0.0
 10
5.4154043682
 20
5.251511685
 30
0.0
 10
5.4145931384
 20
5.2513829543
 30
0.0
 10
5.4136150906
 20
5.251253565
 30
0.0
 10
5.4119800863
 20
5.2510682254
 30
0.0
 10
5.4095226562
 20
5.2508433739
 30
0.0
 10
5.4060819119
 20
5.250585564
 30
0.0
 10
5.4019926894
 20
5.2503267278
 30
0.0
 10
5.3972641923
 20
5.2500669343
 30
0.0
 10
5.3919072463
 20
5.2498066448
 30
0.0
 10
5.38593402
 20
5.2495459439
 30
0.0
 10
5.3793581986
 20
5.249284954
 30
0.0
 10
5.3694304753
 20
5.2489230578
 30
0.0
 10
5.3556383921
 20
5.2484768015
 30
0.0
 10
5.3375203507
 20
5.2479577174
 30
0.0
 10
5.3174361882
 20
5.2474376983
 30
0.0
 10
5.2955696376
 20
5.2469169423
 30
0.0
 10
5.2721207292
 20
5.2463956938
 30
0.0
 10
5.2473040296
 20
5.245874083
 30
0.0
 10
5.2213466009
 20
5.2453522137
 30
0.0
 10
5.1944859618
 20
5.244830162
 30
0.0
 10
5.1669678696
 20
5.2443079885
 30
0.0
 10
5.1390440934
 20
5.243785744
 30
0.0
 10
5.1109701325
 20
5.2432634743
 30
0.0
 10
5.0830028519
 20
5.2427412227
 30
0.0
 10
5.0553981601
 20
5.242219034
 30
0.0
 10
5.0284086283
 20
5.2416969577
 30
0.0
 10
5.0022811939
 20
5.2411750522
 30
0.0
 10
4.9772549022
 20
5.2406533922
 30
0.0
 10
4.9535587313
 20
5.240132069
 30
0.0
 10
4.9314094937
 20
5.2396112336
 30
0.0
 10
4.9110098654
 20
5.2390910193
 30
0.0
 10
4.8951902433
 20
5.2386462457
 30
0.0
 10
4.8835479717
 20
5.2382868977
 30
0.0
 10
4.8756237595
 20
5.2380254914
 30
0.0
 10
4.868264901
 20
5.2377642555
 30
0.0
 10
4.8614881629
 20
5.2375031891
 30
0.0
 10
4.8553091407
 20
5.2372423997
 30
0.0
 10
4.8497418544
 20
5.2369819387
 30
0.0
 10
4.8447991071
 20
5.2367219629
 30
0.0
 10
4.8404920919
 20
5.2364627684
 30
0.0
 10
4.8368306299
 20
5.2362044874
 30
0.0
 10
4.8341875902
 20
5.2359796849
 30
0.0
 10
4.832402828
 20
5.2357951053
 30
0.0
 10
4.8313119762
 20
5.2356653972
 30
0.0
 10
4.8303876098
 20
5.2355361517
 30
0.0
 10
4.829722354
 20
5.23542362
 30
0.0
 10
4.8292745359
 20
5.235331362
 30
0.0
 10
4.8290007282
 20
5.2352664111
 30
0.0
 10
4.8287687781
 20
5.2352016496
 30
0.0
 10
4.8285784471
 20
5.2351371756
 30
0.0
 10
4.8284296357
 20
5.2350729481
 30
0.0
 10
4.8283328405
 20
5.2350161576
 30
0.0
 10
4.8282784414
 20
5.234968779
 30
0.0
 10
4.828244136
 20
5.2349278304
 30
0.0
 10
4.8282302058
 20
5.2348908215
 30
0.0
 10
4.8282301922
 20
5.2348678572
 30
0.0
  0
SPLINE
  5
37B
100
AcDbEntity
  8
0
100
AcDbSpline
 62
7
  6
CONTINUOUS
 70
0
 71
3
 72
63
 73
59
 74
0
 42
0.0000001
 43
0.0000001
 44
0.0000000001
 40
0.0
 40
0.0
 40
0.0
 40
0.0
 40
0.0001173783
 40
0.0001890885
 40
0.0002732401
 40
0.0004849024
 40
0.0007602143
 40
0.0011024166
 40
0.0015131585
 40
0.0019933735
 40
0.0025436046
 40
0.0038550637
 40
0.0054486325
 40
0.0073244141
 40
0.0094820987
 40
0.0146399095
 40
0.0209116427
 40
0.0282845029
 40
0.0367419361
 40
0.046264921
 40
0.0568321706
 40
0.0684190747
 40
0.0809997863
 40
0.0945448908
 40
0.1090238208
 40
0.14064742
 40
0.1755803736
 40
0.213501917
 40
0.2540636238
 40
0.2968927059
 40
0.3415955972
 40
0.3877614237
 40
0.4349658696
 40
0.4827751149
 40
0.5307495841
 40
0.5784483958
 40
0.6254329952
 40
0.671271602
 40
0.7155429104
 40
0.7578399949
 40
0.7977742185
 40
0.8349784951
 40
0.8691111228
 40
0.8998586728
 40
0.9269390581
 40
0.9390253138
 40
0.9501042107
 40
0.9601509932
 40
0.9691425042
 40
0.977058472
 40
0.9838814877
 40
0.9895961933
 40
0.9920344565
 40
0.9941916814
 40
0.9960668434
 40
0.9976595955
 40
0.9989702528
 40
1.0
 40
1.0
 40
1.0
 40
1.0
 10
5.4170300664
 20
5.2732928571
 30
0.0
 10
5.4170300533
 20
5.2732698311
 30
0.0
 10
5.4170160457
 20
5.2732327169
 30
0.0
 10
5.4169815825
 20
5.2731916793
 30
0.0
 10
5.4169269145
 20
5.2731441777
 30
0.0
 10
5.4168296469
 20
5.2730872494
 30
0.0
 10
5.4166801129
 20
5.2730228653
 30
0.0
 10
5.4164888457
 20
5.2729582335
 30
0.0
 10
5.4162557429
 20
5.2728933122
 30
0.0
 10
5.415980566
 20
5.2728282026
 30
0.0
 10
5.4155305136
 20
5.272735719
 30
0.0
 10
5.4148619673
 20
5.2726229067
 30
0.0
 10
5.4139330484
 20
5.2724933401
 30
0.0
 10
5.4128368207
 20
5.2723633094
 30
0.0
 10
5.4110432495
 20
5.2721782768
 30
0.0
 10
5.4083872144
 20
5.2719529204
 30
0.0
 10
5.4047078046
 20
5.2716939926
 30
0.0
 10
5.4003798052
 20
5.2714341653
 30
0.0
 10
5.3954130833
 20
5.2711735383
 30
0.0
 10
5.3898189853
 20
5.270912439
 30
0.0
 10
5.3836104032
 20
5.2706510005
 30
0.0
 10
5.3768015204
 20
5.270389288
 30
0.0
 10
5.3694080872
 20
5.2701274076
 30
0.0
 10
5.3614470063
 20
5.2698653512
 30
0.0
 10
5.3497515384
 20
5.269505129
 30
0.0
 10
5.3338611267
 20
5.2690592664
 30
0.0
 10
5.3133724004
 20
5.2685377691
 30
0.0
 10
5.2911297912
 20
5.2680156489
 30
0.0
 10
5.2673378243
 20
5.2674930404
 30
0.0
 10
5.2422152738
 20
5.2669700948
 30
0.0
 10
5.2159931483
 20
5.2664469037
 30
0.0
 10
5.1889125517
 20
5.2659235422
 30
0.0
 10
5.1612224768
 20
5.2654000688
 30
0.0
 10
5.1331775416
 20
5.2648765339
 30
0.0
 10
5.1050356107
 20
5.2643529823
 30
0.0
 10
5.0770554771
 20
5.2638294584
 30
0.0
 10
5.0494944058
 20
5.2633060081
 30
0.0
 10
5.0226058248
 20
5.2627826832
 30
0.0
 10
4.9966369634
 20
5.2622595463
 30
0.0
 10
4.9718265965
 20
5.2617366743
 30
0.0
 10
4.9484028756
 20
5.2612141757
 30
0.0
 10
4.9265811782
 20
5.2606921841
 30
0.0
 10
4.9065621529
 20
5.260170952
 30
0.0
 10
4.8885298332
 20
5.2596506879
 30
0.0
 10
4.8748220925
 20
5.2592032298
 30
0.0
 10
4.8649721552
 20
5.2588402477
 30
0.0
 10
4.8584622483
 20
5.258578641
 30
0.0
 10
4.8525599535
 20
5.258317366
 30
0.0
 10
4.8472787798
 20
5.2580564804
 30
0.0
 10
4.8426308288
 20
5.2577962187
 30
0.0
 10
4.8386267969
 20
5.2575367516
 30
0.0
 10
4.8356974898
 20
5.2573114934
 30
0.0
 10
4.8336833067
 20
5.2571274625
 30
0.0
 10
4.8324206393
 20
5.2569970905
 30
0.0
 10
4.8313248046
 20
5.2568670542
 30
0.0
 10
4.8303962679
 20
5.2567375697
 30
0.0
 10
4.8296354412
 20
5.2566088176
 30
0.0
 10
4.8291861409
 20
5.2565127111
 30
0.0
 10
4.8289906008
 20
5.2564620177
 30
0.0
  0
SPLINE
  5
37C
100
AcDbEntity
  8
0
100
AcDbSpline
 62
7
  6
CONTINUOUS
 70
0
 71
3
 72
63
 73
59
 74
0
 42
0.0000001
 43
0.0000001
 44
0.0000000001
 40
0.0
 40
0.0
 40
0.0
 40
0.0
 40
0.0001173577
 40
0.0001890682
 40
0.0002732342
 40
0.0004849629
 40
0.0007603693
 40
0.0011026616
 40
0.0015134549
 40
0.0019936488
 40
0.0025437811
 40
0.0038550303
 40
0.0054486605
 40
0.0073246408
 40
0.0094823972
 40
0.0146398611
 40
0.0209118993
 40
0.0282845072
 40
0.0367420938
 40
0.0462650902
 40
0.0568321988
 40
0.0684193223
 40
0.0809997448
 40
0.0945451388
 40
0.1090238528
 40
0.1406475406
 40
0.175580604
 40
0.2135021172
 40
0.2540637432
 40
0.2968927929
 40
0.3415956339
 40
0.3877615164
 40
0.4349659937
 40
0.4827752201
 40
0.5307496978
 40
0.578448458
 40
0.625433107
 40
0.6712717583
 40
0.7155430664
 40
0.7578401424
 40
0.7977742297
 40
0.8349784871
 40
0.8691111449
 40
0.8998587851
 40
0.9269392987
 40
0.9390252631
 40
0.950104461
 40
0.9601509906
 40
0.9691426724
 40
0.9770586059
 40
0.9838814982
 40
0.9895964342
 40
0.9920345088
 40
0.994191612
 40
0.9960669313
 40
0.9976598773
 40
0.9989704465
 40
1.0
 40
1.0
 40
1.0
 40
1.0
 10
5.4170301334
 20
5.3077428572
 30
0.0
 10
5.4170301419
 20
5.3077198352
 30
0.0
 10
5.4170161528
 20
5.3076827111
 30
0.0
 10
5.4169816866
 20
5.3076416771
 30
0.0
 10
5.4169269985
 20
5.307594174
 30
0.0
 10
5.4168296883
 20
5.3075372498
 30
0.0
 10
5.4166801001
 20
5.3074728685
 30
0.0
 10
5.4164887836
 20
5.3074082386
 30
0.0
 10
5.4162556562
 20
5.3073433184
 30
0.0
 10
5.4159804934
 20
5.3072782077
 30
0.0
 10
5.4155305085
 20
5.3071857173
 30
0.0
 10
5.4148620132
 20
5.3070728923
 30
0.0
 10
5.4139330825
 20
5.3069433373
 30
0.0
 10
5.4128367883
 20
5.3068133149
 30
0.0
 10
5.4110432316
 20
5.3066282885
 30
0.0
 10
5.4083871936
 20
5.3064028969
 30
0.0
 10
5.4047078383
 20
5.3061440124
 30
0.0
 10
5.4003798004
 20
5.3058841532
 30
0.0
 10
5.3954130945
 20
5.3056235437
 30
0.0
 10
5.389818992
 20
5.3053624406
 30
0.0
 10
5.3836103924
 20
5.3051009946
 30
0.0
 10
5.3768015503
 20
5.3048392972
 30
0.0
 10
5.3694080745
 20
5.304577399
 30
0.0
 10
5.3614470351
 20
5.3043153588
 30
0.0
 10
5.3497515356
 20
5.3039551214
 30
0.0
 10
5.3338611268
 20
5.3035092694
 30
0.0
 10
5.3133723672
 20
5.3029877695
 30
0.0
 10
5.2911297577
 20
5.3024656495
 30
0.0
 10
5.2673378185
 20
5.3019430405
 30
0.0
 10
5.2422152996
 20
5.3014200947
 30
0.0
 10
5.2159931788
 20
5.3008969036
 30
0.0
 10
5.1889125744
 20
5.3003735424
 30
0.0
 10
5.1612224855
 20
5.2998500692
 30
0.0
 10
5.1331775455
 20
5.2993265342
 30
0.0
 10
5.1050356263
 20
5.2988029824
 30
0.0
 10
5.0770554908
 20
5.2982794584
 30
0.0
 10
5.0494944106
 20
5.2977560081
 30
0.0
 10
5.0226058106
 20
5.2972326836
 30
0.0
 10
4.9966369417
 20
5.2967095469
 30
0.0
 10
4.9718266028
 20
5.2961866749
 30
0.0
 10
4.9484029136
 20
5.2956641758
 30
0.0
 10
4.9265812404
 20
5.2951421832
 30
0.0
 10
4.9065621948
 20
5.2946209529
 30
0.0
 10
4.8885298262
 20
5.2941006843
 30
0.0
 10
4.8748220989
 20
5.2936532409
 30
0.0
 10
4.8649721351
 20
5.2932902376
 30
0.0
 10
4.858462275
 20
5.2930286521
 30
0.0
 10
4.8525599379
 20
5.2927673579
 30
0.0
 10
4.8472787865
 20
5.2925064835
 30
0.0
 10
4.8426308326
 20
5.2922462237
 30
0.0
 10
4.8386267877
 20
5.2919867375
 30
0.0
 10
4.8356974942
 20
5.2917615091
 30
0.0
 10
4.8336833282
 20
5.291577462
 30
0.0
 10
4.832420692
 20
5.2914470807
 30
0.0
 10
4.8313248115
 20
5.2913170497
 30
0.0
 10
4.83039622
 20
5.2911875829
 30
0.0
 10
4.8296354111
 20
5.2910588267
 30
0.0
 10
4.8291861693
 20
5.2909627105
 30
0.0
 10
4.8289906683
 20
5.2909120176
 30
0.0
  0
SPLINE
  5
37D
100
AcDbEntity
  8
0
100
AcDbSpline
 62
7
  6
CONTINUOUS
 70
0
 71
3
 72
63
 73
59
 74
0
 42
0.0000001
 43
0.0000001
 44
0.0000000001
 40
0.0
 40
0.0
 40
0.0
 40
0.0
 40
0.0009741777
 40
0.0022304304
 40
0.0037699167
 40
0.0055928937
 40
0.0076991166
 40
0.0100876375
 40
0.0157064779
 40
0.0224383674
 40
0.0302682007
 40
0.0391786084
 40
0.0491493552
 40
0.060157521
 40
0.0721781892
 40
0.099143565
 40
0.1297975942
 40
0.1638580901
 40
0.2010113079
 40
0.2409148907
 40
0.2832010555
 40
0.3274799987
 40
0.3733434966
 40
0.4203686966
 40
0.4681220297
 40
0.5161632109
 40
0.5640493019
 40
0.6113387966
 40
0.6575956942
 40
0.7023935219
 40
0.7453192717
 40
0.7859772152
 40
0.8239925793
 40
0.8590150315
 40
0.8753019421
 40
0.8907219333
 40
0.9052396316
 40
0.9188213387
 40
0.9314362234
 40
0.9430547905
 40
0.953650944
 40
0.963199883
 40
0.9716803426
 40
0.9790727664
 40
0.9853609243
 40
0.9905312168
 40
0.9926937641
 40
0.9945734771
 40
0.9961698111
 40
0.9974825962
 40
0.9980329098
 40
0.9985128437
 40
0.9989228757
 40
0.9992638069
 40
0.9995370834
 40
0.9996492344
 40
0.9997458083
 40
1.0
 40
1.0
 40
1.0
 40
1.0
 10
5.4366685252
 20
4.7746869683
 30
0.0
 10
5.4364707332
 20
4.7746357087
 30
0.0
 10
5.4360125791
 20
4.7745391883
 30
0.0
 10
5.4352323387
 20
4.7744104784
 30
0.0
 10
5.4342721707
 20
4.7742809601
 30
0.0
 10
5.4331325185
 20
4.7741508118
 30
0.0
 10
5.4318138264
 20
4.7740203039
 30
0.0
 10
5.4297005847
 20
4.7738358119
 30
0.0
 10
5.4266172518
 20
4.7736101851
 30
0.0
 10
5.422392461
 20
4.7733504329
 30
0.0
 10
5.4174762169
 20
4.7730898585
 30
0.0
 10
5.4118798616
 20
4.7728286299
 30
0.0
 10
5.4056162505
 20
4.7725669943
 30
0.0
 10
5.39869979
 20
4.7723050229
 30
0.0
 10
5.3882201864
 20
4.7719413643
 30
0.0
 10
5.373620545
 20
4.7714931786
 30
0.0
 10
5.3543984307
 20
4.7709721948
 30
0.0
 10
5.3330388189
 20
4.7704502248
 30
0.0
 10
5.3097386802
 20
4.769927479
 30
0.0
 10
5.2847128816
 20
4.7694042171
 30
0.0
 10
5.2581922196
 20
4.7688805757
 30
0.0
 10
5.2304212859
 20
4.7683566649
 30
0.0
 10
5.2016562103
 20
4.7678325632
 30
0.0
 10
5.1721622935
 20
4.7673083334
 30
0.0
 10
5.1422115553
 20
4.7667840281
 30
0.0
 10
5.112080225
 20
4.7662596938
 30
0.0
 10
5.0820461956
 20
4.765735375
 30
0.0
 10
5.0523864622
 20
4.7652111174
 30
0.0
 10
5.0233745688
 20
4.7646869711
 30
0.0
 10
4.9952780869
 20
4.7641629959
 30
0.0
 10
4.9683561491
 20
4.7636392627
 30
0.0
 10
4.9428570545
 20
4.7631158787
 30
0.0
 10
4.9190159764
 20
4.7625929423
 30
0.0
 10
4.9002860843
 20
4.7621476383
 30
0.0
 10
4.8862947223
 20
4.7617885936
 30
0.0
 10
4.8766030256
 20
4.7615259407
 30
0.0
 10
4.8674789415
 20
4.7612633944
 30
0.0
 10
4.8589434623
 20
4.7610009518
 30
0.0
 10
4.8510163553
 20
4.7607386734
 30
0.0
 10
4.8437158078
 20
4.7604765679
 30
0.0
 10
4.8370587581
 20
4.7602147378
 30
0.0
 10
4.8310604445
 20
4.7599532414
 30
0.0
 10
4.8257347763
 20
4.7596922348
 30
0.0
 10
4.8210939016
 20
4.759432001
 30
0.0
 10
4.8171485292
 20
4.7591727056
 30
0.0
 10
4.8143003836
 20
4.7589470069
 30
0.0
 10
4.8123769835
 20
4.7587616954
 30
0.0
 10
4.8112014618
 20
4.7586314834
 30
0.0
 10
4.8102053949
 20
4.7585017412
 30
0.0
 10
4.8094884812
 20
4.7583887448
 30
0.0
 10
4.8090058192
 20
4.7582960902
 30
0.0
 10
4.8087107929
 20
4.7582308626
 30
0.0
 10
4.808460885
 20
4.7581659202
 30
0.0
 10
4.8082558179
 20
4.7581010592
 30
0.0
 10
4.8081144098
 20
4.758044635
 30
0.0
 10
4.8080241343
 20
4.7579974767
 30
0.0
 10
4.8079438644
 20
4.7579471158
 30
0.0
 10
4.8078801429
 20
4.7578840397
 30
0.0
 10
4.8078801429
 20
4.757830725
 30
0.0
  0
SPLINE
  5
37E
100
AcDbEntity
  8
0
100
AcDbSpline
 62
7
  6
CONTINUOUS
 70
0
 71
3
 72
63
 73
59
 74
0
 42
0.0000001
 43
0.0000001
 44
0.0000000001
 40
0.0
 40
0.0
 40
0.0
 40
0.0
 40
0.001029764
 40
0.0023404593
 40
0.0039332284
 40
0.005808347
 40
0.007965546
 40
0.0104038321
 40
0.0161185687
 40
0.0229415373
 40
0.03085757
 40
0.0398490222
 40
0.0498958484
 40
0.0609747158
 40
0.0730609764
 40
0.1001413568
 40
0.1308889009
 40
0.1650215343
 40
0.2022258636
 40
0.2421600485
 40
0.284457162
 40
0.3287284364
 40
0.3745670327
 40
0.4215516692
 40
0.4692504256
 40
0.5172249633
 40
0.5650341432
 40
0.6122386184
 40
0.6584044438
 40
0.703107322
 40
0.7459364473
 40
0.7864981187
 40
0.8244196573
 40
0.8593525893
 40
0.8909761775
 40
0.9054551543
 40
0.9190002341
 40
0.9315809468
 40
0.9431678648
 40
0.9537350606
 40
0.9632581037
 40
0.9717154869
 40
0.9790884065
 40
0.9853600967
 40
0.9905179006
 40
0.9926756214
 40
0.9945513847
 40
0.9961449201
 40
0.9974563715
 40
0.9980066209
 40
0.9984868682
 40
0.9988976268
 40
0.9992398295
 40
0.9995151309
 40
0.9997267779
 40
0.9998109222
 40
0.9998826265
 40
1.0
 40
1.0
 40
1.0
 40
1.0
 10
5.4162697022
 20
4.7693986965
 30
0.0
 10
5.416074159
 20
4.7693480018
 30
0.0
 10
5.4156248475
 20
4.7692518962
 30
0.0
 10
5.4148640063
 20
4.7691231454
 30
0.0
 10
5.4139354672
 20
4.7689936621
 30
0.0
 10
5.4128396432
 20
4.768863622
 30
0.0
 10
5.4115769849
 20
4.7687332498
 30
0.0
 10
5.409562796
 20
4.7685492213
 30
0.0
 10
5.4066334874
 20
4.7683239646
 30
0.0
 10
5.4026294462
 20
4.7680644924
 30
0.0
 10
5.3979815028
 20
4.7678042366
 30
0.0
 10
5.3927003195
 20
4.7675433452
 30
0.0
 10
5.3867980331
 20
4.7672820745
 30
0.0
 10
5.3802881224
 20
4.7670204656
 30
0.0
 10
5.3704381907
 20
4.7666574847
 30
0.0
 10
5.3567304507
 20
4.7662100256
 30
0.0
 10
5.3386981316
 20
4.7656897619
 30
0.0
 10
5.3186790956
 20
4.7651685298
 30
0.0
 10
5.2968573939
 20
4.7646465385
 30
0.0
 10
5.273433664
 20
4.7641240397
 30
0.0
 10
5.2486233051
 20
4.7636011678
 30
0.0
 10
5.2226544461
 20
4.7630780307
 30
0.0
 10
5.195765866
 20
4.7625547059
 30
0.0
 10
5.1682047997
 20
4.7620312556
 30
0.0
 10
5.1402246556
 20
4.7615077316
 30
0.0
 10
5.1120827343
 20
4.7609841803
 30
0.0
 10
5.084037792
 20
4.7604606451
 30
0.0
 10
5.0563477238
 20
4.7599371717
 30
0.0
 10
5.0292671237
 20
4.7594138103
 30
0.0
 10
5.0030449918
 20
4.7588906191
 30
0.0
 10
4.9779224418
 20
4.7583676737
 30
0.0
 10
4.9541304738
 20
4.7578450652
 30
0.0
 10
4.9318878762
 20
4.7573229448
 30
0.0
 10
4.9113991567
 20
4.7568014477
 30
0.0
 10
4.895508742
 20
4.756355584
 30
0.0
 10
4.8838132716
 20
4.7559953637
 30
0.0
 10
4.8758521859
 20
4.7557333059
 30
0.0
 10
4.8684587545
 20
4.7554714253
 30
0.0
 10
4.8616498791
 20
4.755209715
 30
0.0
 10
4.8554412934
 20
4.7549482729
 30
0.0
 10
4.849847204
 20
4.7546871786
 30
0.0
 10
4.844880469
 20
4.7544265455
 30
0.0
 10
4.8405524758
 20
4.7541667236
 30
0.0
 10
4.8368730642
 20
4.7539077937
 30
0.0
 10
4.834217032
 20
4.7536824345
 30
0.0
 10
4.8324234581
 20
4.7534974069
 30
0.0
 10
4.8313272336
 20
4.7533673748
 30
0.0
 10
4.8303983266
 20
4.7532378064
 30
0.0
 10
4.8297297851
 20
4.7531249928
 30
0.0
 10
4.8292797241
 20
4.7530325097
 30
0.0
 10
4.829004533
 20
4.7529674024
 30
0.0
 10
4.82877142
 20
4.7529024815
 30
0.0
 10
4.8285801514
 20
4.7528378497
 30
0.0
 10
4.8284306228
 20
4.7527734656
 30
0.0
 10
4.8283333627
 20
4.7527165368
 30
0.0
 10
4.8282787024
 20
4.7526690348
 30
0.0
 10
4.8282442454
 20
4.7526279962
 30
0.0
 10
4.8282302441
 20
4.7525908822
 30
0.0
 10
4.8282302332
 20
4.7525678572
 30
0.0
  0
SPLINE
  5
37F
100
AcDbEntity
  8
0
100
AcDbSpline
 62
7
  6
CONTINUOUS
 70
0
 71
3
 72
63
 73
59
 74
0
 42
0.0000001
 43
0.0000001
 44
0.0000000001
 40
0.0
 40
0.0
 40
0.0
 40
0.0
 40
0.0001173492
 40
0.0001890304
 40
0.0002731518
 40
0.0004847725
 40
0.0007601007
 40
0.0011023933
 40
0.0015132508
 40
0.0019935417
 40
0.0025437712
 40
0.0038550833
 40
0.0054485028
 40
0.0073243562
 40
0.0094822561
 40
0.014639868
 40
0.0209116561
 40
0.0282845691
 40
0.0367418212
 40
0.046265073
 40
0.0568320454
 40
0.0684192019
 40
0.0809997324
 40
0.0945449042
 40
0.1090238712
 40
0.1406475254
 40
0.175580464
 40
0.2135019211
 40
0.2540635507
 40
0.2968926262
 40
0.3415955733
 40
0.387761414
 40
0.4349658881
 40
0.4827750881
 40
0.5307495507
 40
0.5784483831
 40
0.6254329975
 40
0.671271632
 40
0.7155428729
 40
0.7578399165
 40
0.7977740807
 40
0.8349783976
 40
0.8691111369
 40
0.8998587561
 40
0.9269391245
 40
0.9390251872
 40
0.9501041802
 40
0.9601510035
 40
0.9691423623
 40
0.9770585761
 40
0.9838812833
 40
0.9895962728
 40
0.992034531
 40
0.9941915345
 40
0.996066655
 40
0.9976595666
 40
0.9989703573
 40
1.0
 40
1.0
 40
1.0
 40
1.0
 10
5.417030027
 20
5.3421928572
 30
0.0
 10
5.4170300323
 20
5.3421698369
 30
0.0
 10
5.417016061
 20
5.3421327203
 30
0.0
 10
5.4169816279
 20
5.3420916785
 30
0.0
 10
5.4169269891
 20
5.342044173
 30
0.0
 10
5.4168297341
 20
5.3419872413
 30
0.0
 10
5.4166801853
 20
5.341922859
 30
0.0
 10
5.4164888697
 20
5.3418582338
 30
0.0
 10
5.4162557084
 20
5.3417933168
 30
0.0
 10
5.415980493
 20
5.3417282084
 30
0.0
 10
5.4155304553
 20
5.3416357247
 30
0.0
 10
5.4148619696
 20
5.3415229049
 30
0.0
 10
5.4139330959
 20
5.341393331
 30
0.0
 10
5.4128368402
 20
5.3412633058
 30
0.0
 10
5.4110432491
 20
5.3410782962
 30
0.0
 10
5.4083872029
 20
5.3408529066
 30
0.0
 10
5.4047078092
 20
5.3405939962
 30
0.0
 10
5.400379824
 20
5.3403341701
 30
0.0
 10
5.3954130752
 20
5.3400735291
 30
0.0
 10
5.3898190135
 20
5.3398124503
 30
0.0
 10
5.3836103843
 20
5.3395509902
 30
0.0
 10
5.3768015406
 20
5.3392892964
 30
0.0
 10
5.3694080802
 20
5.3390274033
 30
0.0
 10
5.3614470135
 20
5.3387653527
 30
0.0
 10
5.3497515136
 20
5.3384051285
 30
0.0
 10
5.3338610856
 20
5.3379592676
 30
0.0
 10
5.3133723669
 20
5.3374377697
 30
0.0
 10
5.2911297911
 20
5.3369156489
 30
0.0
 10
5.2673378558
 20
5.33639304
 30
0.0
 10
5.242215309
 20
5.3358700946
 30
0.0
 10
5.2159931691
 20
5.3353469039
 30
0.0
 10
5.1889125512
 20
5.3348235425
 30
0.0
 10
5.1612224749
 20
5.3343000691
 30
0.0
 10
5.1331775422
 20
5.3337765339
 30
0.0
 10
5.1050356154
 20
5.3332529822
 30
0.0
 10
5.077055474
 20
5.3327294584
 30
0.0
 10
5.0494943882
 20
5.3322060083
 30
0.0
 10
5.0226058102
 20
5.3316826835
 30
0.0
 10
4.9966369627
 20
5.3311595464
 30
0.0
 10
4.9718266269
 20
5.3306366742
 30
0.0
 10
4.948402916
 20
5.3301141752
 30
0.0
 10
4.9265811989
 20
5.3295921832
 30
0.0
 10
4.9065621288
 20
5.3290709526
 30
0.0
 10
4.8885297756
 20
5.3285506873
 30
0.0
 10
4.8748220613
 20
5.3281032348
 30
0.0
 10
4.8649721459
 20
5.3277402437
 30
0.0
 10
4.8584622495
 20
5.3274786408
 30
0.0
 10
4.8525599569
 20
5.3272173716
 30
0.0
 10
4.8472787573
 20
5.326956469
 30
0.0
 10
4.8426308465
 20
5.3266962351
 30
0.0
 10
4.838626773
 20
5.326436734
 30
0.0
 10
4.83569747
 20
5.3262114972
 30
0.0
 10
4.8336832749
 20
5.3260274707
 30
0.0
 10
4.8324206617
 20
5.3258970848
 30
0.0
 10
4.8313248478
 20
5.3257670455
 30
0.0
 10
4.8303962603
 20
5.3256375682
 30
0.0
 10
4.8296353939
 20
5.3255088298
 30
0.0
 10
4.8291860878
 20
5.3254127189
 30
0.0
 10
4.828990571
 20
5.3253620176
 30
0.0
  0
SPLINE
  5
380
100
AcDbEntity
  8
0
100
AcDbSpline
 62
7
  6
CONTINUOUS
 70
0
 71
3
 72
63
 73
59
 74
0
 42
0.0000001
 43
0.0000001
 44
0.0000000001
 40
0.0
 40
0.0
 40
0.0
 40
0.0
 40
0.0001173722
 40
0.000189081
 40
0.0002732352
 40
0.0004849145
 40
0.0007602539
 40
0.0011024851
 40
0.0015132474
 40
0.0019934642
 40
0.0025436893
 40
0.0038551512
 40
0.0054487234
 40
0.0073244857
 40
0.0094821047
 40
0.0146398198
 40
0.02091155
 40
0.0282843328
 40
0.0367417857
 40
0.0462646858
 40
0.0568319087
 40
0.0684187716
 40
0.0809994508
 40
0.0945445772
 40
0.1090234316
 40
0.1406469655
 40
0.175579937
 40
0.2135014427
 40
0.2540631432
 40
0.2968922129
 40
0.3415950854
 40
0.3877609326
 40
0.4349653946
 40
0.4827746523
 40
0.5307491748
 40
0.5784479765
 40
0.6254326385
 40
0.6712712789
 40
0.7155426195
 40
0.757839788
 40
0.797773996
 40
0.8349783374
 40
0.869110967
 40
0.8998585674
 40
0.9269390096
 40
0.9390252453
 40
0.9501041885
 40
0.9601509499
 40
0.9691425308
 40
0.97705846
 40
0.9838815081
 40
0.989596207
 40
0.9920344489
 40
0.9941916849
 40
0.9960668923
 40
0.9976596414
 40
0.9989702709
 40
1.0
 40
1.0
 40
1.0
 40
1.0
 10
5.4170301755
 20
5.3766428569
 30
0.0
 10
5.4170301723
 20
5.3766198322
 30
0.0
 10
5.4170161724
 20
5.3765827134
 30
0.0
 10
5.41698171
 20
5.3765416764
 30
0.0
 10
5.4169270372
 20
5.3764941746
 30
0.0
 10
5.416829757
 20
5.376437249
 30
0.0
 10
5.4166802059
 20
5.3763728686
 30
0.0
 10
5.4164889216
 20
5.3763082407
 30
0.0
 10
5.4162558073
 20
5.3762433231
 30
0.0
 10
5.4159806267
 20
5.3761782152
 30
0.0
 10
5.4155305742
 20
5.3760857331
 30
0.0
 10
5.4148620274
 20
5.3759729231
 30
0.0
 10
5.4139331109
 20
5.3758433563
 30
0.0
 10
5.4128368993
 20
5.3757133244
 30
0.0
 10
5.4110433641
 20
5.3755282854
 30
0.0
 10
5.4083873609
 20
5.375302928
 30
0.0
 10
5.4047079847
 20
5.3750440062
 30
0.0
 10
5.4003799968
 20
5.3747841744
 30
0.0
 10
5.3954133018
 20
5.3745235515
 30
0.0
 10
5.3898192212
 20
5.3742624477
 30
0.0
 10
5.3836106679
 20
5.3740010115
 30
0.0
 10
5.3768018037
 20
5.3737392986
 30
0.0
 10
5.3694083795
 20
5.3734774172
 30
0.0
 10
5.3614473141
 20
5.373215362
 30
0.0
 10
5.3497518676
 20
5.3728551372
 30
0.0
 10
5.3338614775
 20
5.3724092759
 30
0.0
 10
5.3133727645
 20
5.3718877779
 30
0.0
 10
5.2911301567
 20
5.3713656574
 30
0.0
 10
5.2673381969
 20
5.3708430486
 30
0.0
 10
5.2422156496
 20
5.3703201024
 30
0.0
 10
5.2159935218
 20
5.369796911
 30
0.0
 10
5.1889129172
 20
5.3692735491
 30
0.0
 10
5.1612228281
 20
5.3687500754
 30
0.0
 10
5.1331778721
 20
5.3682265401
 30
0.0
 10
5.1050359256
 20
5.3677029882
 30
0.0
 10
5.0770557666
 20
5.3671794638
 30
0.0
 10
5.0494946738
 20
5.3666560131
 30
0.0
 10
5.0226060632
 20
5.366132688
 30
0.0
 10
4.996637168
 20
5.3656095505
 30
0.0
 10
4.9718267773
 20
5.3650866784
 30
0.0
 10
4.9484030263
 20
5.3645641794
 30
0.0
 10
4.9265813154
 20
5.3640421871
 30
0.0
 10
4.9065622638
 20
5.3635209549
 30
0.0
 10
4.8885299197
 20
5.3630006897
 30
0.0
 10
4.8748221594
 20
5.3625532331
 30
0.0
 10
4.8649722043
 20
5.3621902485
 30
0.0
 10
4.8584622952
 20
5.3619286444
 30
0.0
 10
4.8525599809
 20
5.3616673652
 30
0.0
 10
4.8472788042
 20
5.3614064839
 30
0.0
 10
4.8426308401
 20
5.3611462179
 30
0.0
 10
4.8386268099
 20
5.3608867534
 30
0.0
 10
4.8356975014
 20
5.3606614953
 30
0.0
 10
4.8336833215
 20
5.3604774623
 30
0.0
 10
4.8324206471
 20
5.3603470891
 30
0.0
 10
4.8313248012
 20
5.3602170564
 30
0.0
 10
4.8303962615
 20
5.3600875712
 30
0.0
 10
4.8296354446
 20
5.3599588177
 30
0.0
 10
4.8291861536
 20
5.3598627104
 30
0.0
 10
4.828990617
 20
5.3598120177
 30
0.0
  0
LINE
  5
381
100
AcDbEntity
  8
0
100
AcDbLine
 62
7
  6
CONTINUOUS
 10
5.0529119569
 20
4.7758928537
 11
4.9853328489
 21
4.7746426051
  0
LINE
  5
382
100
AcDbEntity
  8
0
100
AcDbLine
 62
7
  6
CONTINUOUS
 10
4.9853328489
 20
4.7746426051
 11
4.9839201455
 21
4.7746152239
  0
SPLINE
  5
383
100
AcDbEntity
  8
0
100
AcDbSpline
 62
7
  6
CONTINUOUS
 70
0
 71
3
 72
26
 73
22
 74
0
 42
0.0000001
 43
0.0000001
 44
0.0000000001
 40
0.0
 40
0.0
 40
0.0
 40
0.0
 40
0.2034439384
 40
0.3898865031
 40
0.4757232009
 40
0.556140267
 40
0.6307943246
 40
0.6993648142
 40
0.761560721
 40
0.8171154466
 40
0.8657929605
 40
0.9073877562
 40
0.925472515
 40
0.9417237383
 40
0.9561254657
 40
0.968662342
 40
0.9793231497
 40
0.9881008623
 40
0.994991262
 40
0.9977297971
 40
1.0
 40
1.0
 40
1.0
 40
1.0
 10
4.9839201455
 20
4.7746152239
 30
0.0
 10
4.9720231627
 20
4.774384353
 30
0.0
 10
4.9492236606
 20
4.7739284194
 30
0.0
 10
4.9214056746
 20
4.7733228406
 30
0.0
 10
4.9007826534
 20
4.7728326817
 30
0.0
 10
4.8866967293
 20
4.7724754517
 30
0.0
 10
4.8736210273
 20
4.7721184998
 30
0.0
 10
4.8616114796
 20
4.7717618783
 30
0.0
 10
4.8507195542
 20
4.7714057268
 30
0.0
 10
4.840991805
 20
4.7710502705
 30
0.0
 10
4.8324698695
 20
4.770695676
 30
0.0
 10
4.8261395158
 20
4.7703889734
 30
0.0
 10
4.8217054071
 20
4.7701392567
 30
0.0
 10
4.8188603439
 20
4.769961036
 30
0.0
 10
4.8163404482
 20
4.7697831857
 30
0.0
 10
4.814148425
 20
4.7696057674
 30
0.0
 10
4.812286466
 20
4.7694291779
 30
0.0
 10
4.8107564978
 20
4.7692534961
 30
0.0
 10
4.809690568
 20
4.7690997268
 30
0.0
 10
4.8090063833
 20
4.7689717345
 30
0.0
 10
4.808720515
 20
4.7689070666
 30
0.0
 10
4.808591982
 20
4.7688737458
 30
0.0
  0
SPLINE
  5
384
100
AcDbEntity
  8
0
100
AcDbSpline
 62
7
  6
CONTINUOUS
 70
0
 71
3
 72
23
 73
19
 74
0
 42
0.0000001
 43
0.0000001
 44
0.0000000001
 40
0.0
 40
0.0
 40
0.0
 40
0.0
 40
0.0496976446
 40
0.1004643389
 40
0.1527974848
 40
0.2071173601
 40
0.2637226708
 40
0.3227952917
 40
0.3843946707
 40
0.4484584397
 40
0.5148023244
 40
0.5831177602
 40
0.6529676483
 40
0.7237798296
 40
0.7948380225
 40
0.8652743993
 40
0.9340579285
 40
1.0
 40
1.0
 40
1.0
 40
1.0
 10
5.4145031339
 20
3.9371428571
 30
0.0
 10
5.4139727488
 20
3.9315387877
 30
0.0
 10
5.4122214054
 20
3.9202640016
 30
0.0
 10
5.4076218392
 20
3.9035445864
 30
0.0
 10
5.4010702093
 20
3.8869271481
 30
0.0
 10
5.3926239546
 20
3.8704470879
 30
0.0
 10
5.382351503
 20
3.8541345076
 30
0.0
 10
5.370337992
 20
3.8380222633
 30
0.0
 10
5.3566852273
 20
3.8221459599
 30
0.0
 10
5.3415148766
 20
3.8065460484
 30
0.0
 10
5.3249717234
 20
3.7912687229
 30
0.0
 10
5.3072272121
 20
3.7763670905
 30
0.0
 10
5.2884834371
 20
3.7619022391
 30
0.0
 10
5.2689773799
 20
3.7479444753
 30
0.0
 10
5.2489851555
 20
3.734574507
 30
0.0
 10
5.2288262903
 20
3.7218849403
 30
0.0
 10
5.2088665792
 20
3.7099808521
 30
0.0
 10
5.1955999052
 20
3.7024379078
 30
0.0
 10
5.1890732908
 20
3.6988060559
 30
0.0
  0
SPLINE
  5
385
100
AcDbEntity
  8
0
100
AcDbSpline
 62
7
  6
CONTINUOUS
 70
0
 71
3
 72
51
 73
47
 74
0
 42
0.0000001
 43
0.0000001
 44
0.0000000001
 40
0.0
 40
0.0
 40
0.0
 40
0.0
 40
0.0001010003
 40
0.0002319079
 40
0.0004079587
 40
0.0006354676
 40
0.0009172906
 40
0.0012548905
 40
0.0016490943
 40
0.0021004051
 40
0.0031754745
 40
0.0044816066
 40
0.0060190707
 40
0.0077876387
 40
0.0097868792
 40
0.0120162429
 40
0.0171622685
 40
0.0232170046
 40
0.0301703162
 40
0.0380103312
 40
0.0467227231
 40
0.0562925732
 40
0.0667024453
 40
0.0779337139
 40
0.0899666054
 40
0.1163484808
 40
0.1456588388
 40
0.1776872156
 40
0.2122033622
 40
0.2489590277
 40
0.2876899297
 40
0.3281176411
 40
0.3699514441
 40
0.4128903091
 40
0.4566254352
 40
0.5008422923
 40
0.5894476878
 40
0.6761617105
 40
0.7584940534
 40
0.8340802337
 40
0.8686561171
 40
0.9007502731
 40
0.9301319995
 40
0.9565903238
 40
0.9799354305
 40
1.0
 40
1.0
 40
1.0
 40
1.0
 10
5.4373801429
 20
5.0957799893
 30
0.0
 10
5.4373801429
 20
5.0957597329
 30
0.0
 10
5.4373635481
 20
5.0957133271
 30
0.0
 10
5.4373040953
 20
5.0956553293
 30
0.0
 10
5.4372129232
 20
5.0955982602
 30
0.0
 10
5.4370874906
 20
5.0955413478
 30
0.0
 10
5.4369274575
 20
5.0954840997
 30
0.0
 10
5.4367323611
 20
5.0954266646
 30
0.0
 10
5.4365021319
 20
5.0953690482
 30
0.0
 10
5.4361256839
 20
5.0952872351
 30
0.0
 10
5.4355662694
 20
5.0951874108
 30
0.0
 10
5.4347886908
 20
5.0950727899
 30
0.0
 10
5.4338708031
 20
5.0949577878
 30
0.0
 10
5.4328130259
 20
5.0948424657
 30
0.0
 10
5.4316157835
 20
5.0947269335
 30
0.0
 10
5.4297426066
 20
5.0945648367
 30
0.0
 10
5.4270563658
 20
5.0943657576
 30
0.0
 10
5.4234226549
 20
5.0941357905
 30
0.0
 10
5.4192477387
 20
5.0939052687
 30
0.0
 10
5.4145391257
 20
5.0936743049
 30
0.0
 10
5.4093051976
 20
5.0934430216
 30
0.0
 10
5.4035554203
 20
5.0932115283
 30
0.0
 10
5.3973000962
 20
5.0929798586
 30
0.0
 10
5.3905504833
 20
5.0927480454
 30
0.0
 10
5.380598697
 20
5.0924289644
 30
0.0
 10
5.3670216183
 20
5.0920339883
 30
0.0
 10
5.3494346142
 20
5.0915725149
 30
0.0
 10
5.3302157227
 20
5.0911104818
 30
0.0
 10
5.3095032322
 20
5.0906480009
 30
0.0
 10
5.2874461932
 20
5.090185203
 30
0.0
 10
5.2642033035
 20
5.0897221659
 30
0.0
 10
5.2399417655
 20
5.0892589519
 30
0.0
 10
5.2148361428
 20
5.0887956073
 30
0.0
 10
5.1890670849
 20
5.0883321675
 30
0.0
 10
5.162820013
 20
5.0878686637
 30
0.0
 10
5.127415477
 20
5.0872502109
 30
0.0
 10
5.0833924353
 20
5.0864854257
 30
0.0
 10
5.0317265231
 20
5.0855688578
 30
0.0
 10
4.982672118
 20
5.0846536078
 30
0.0
 10
4.9440737689
 20
5.0838718746
 30
0.0
 10
4.9155502645
 20
5.0832362004
 30
0.0
 10
4.8962918764
 20
5.0827741247
 30
0.0
 10
4.8786620181
 20
5.0823126642
 30
0.0
 10
4.8627874767
 20
5.0818520776
 30
0.0
 10
4.8487824109
 20
5.0813926857
 30
0.0
 10
4.840082468
 20
5.0810622019
 30
0.0
 10
4.8360619293
 20
5.0808928612
 30
0.0
  0
SPLINE
  5
386
100
AcDbEntity
  8
0
100
AcDbSpline
 62
7
  6
CONTINUOUS
 70
0
 71
3
 72
55
 73
51
 74
0
 42
0.0000001
 43
0.0000001
 44
0.0000000001
 40
0.0
 40
0.0
 40
0.0
 40
0.0
 40
0.0001061984
 40
0.0001715451
 40
0.000248531
 40
0.0004428988
 40
0.0006963623
 40
0.0010117927
 40
0.0013906332
 40
0.001833689
 40
0.0023414439
 40
0.0035521139
 40
0.0050238927
 40
0.0067567628
 40
0.0087502949
 40
0.0135166605
 40
0.0193152431
 40
0.0261342288
 40
0.0339604884
 40
0.0427774145
 40
0.0525670275
 40
0.0633089032
 40
0.0749803118
 40
0.0875572738
 40
0.1010128682
 40
0.1304463453
 40
0.163033442
 40
0.1985002845
 40
0.2365487352
 40
0.2768588626
 40
0.3190916921
 40
0.3628920531
 40
0.4078914065
 40
0.4537112937
 40
0.4999662734
 40
0.5462672472
 40
0.6374522536
 40
0.7242045282
 40
0.7649996938
 40
0.8036116202
 40
0.8397156082
 40
0.8730080013
 40
0.9032090214
 40
0.930064949
 40
0.9533506229
 40
0.9728707019
 40
0.9811666577
 40
0.9884635711
 40
0.994745928
 40
1.0
 40
1.0
 40
1.0
 40
1.0
 10
5.4373801429
 20
5.1302299893
 30
0.0
 10
5.4373801429
 20
5.1302079252
 30
0.0
 10
5.4373663202
 20
5.1301723026
 30
0.0
 10
5.4373326572
 20
5.1301331863
 30
0.0
 10
5.437279083
 20
5.1300877095
 30
0.0
 10
5.4371838657
 20
5.1300332971
 30
0.0
 10
5.437037578
 20
5.1299717349
 30
0.0
 10
5.4368504478
 20
5.1299099243
 30
0.0
 10
5.4366223962
 20
5.129847821
 30
0.0
 10
5.436353202
 20
5.1297855313
 30
0.0
 10
5.435912888
 20
5.1296970326
 30
0.0
 10
5.4352587559
 20
5.1295890945
 30
0.0
 10
5.4343497658
 20
5.1294651611
 30
0.0
 10
5.4332769038
 20
5.129340785
 30
0.0
 10
5.4315212793
 20
5.1291637805
 30
0.0
 10
5.4289208435
 20
5.1289481742
 30
0.0
 10
5.4253175528
 20
5.1287005199
 30
0.0
 10
5.4210773112
 20
5.1284519344
 30
0.0
 10
5.4162090977
 20
5.1282026326
 30
0.0
 10
5.4107230095
 20
5.12795286
 30
0.0
 10
5.4046306214
 20
5.1277027587
 30
0.0
 10
5.3979447364
 20
5.1274524161
 30
0.0
 10
5.3906793808
 20
5.1272018802
 30
0.0
 10
5.3828499112
 20
5.1269512094
 30
0.0
 10
5.3713312952
 20
5.1266064188
 30
0.0
 10
5.3556559484
 20
5.1261796702
 30
0.0
 10
5.3354078386
 20
5.1256807292
 30
0.0
 10
5.3133693771
 20
5.1251811906
 30
0.0
 10
5.2897259891
 20
5.1246811762
 30
0.0
 10
5.2646765942
 20
5.1241808316
 30
0.0
 10
5.2384319462
 20
5.1236802418
 30
0.0
 10
5.2112128858
 20
5.1231794767
 30
0.0
 10
5.1832484491
 20
5.1226785887
 30
0.0
 10
5.154773956
 20
5.1221776213
 30
0.0
 10
5.1260289942
 20
5.1216766173
 30
0.0
 10
5.0878602764
 20
5.1210120032
 30
0.0
 10
5.0412791639
 20
5.1201920614
 30
0.0
 10
4.9958424673
 20
5.119353103
 30
0.0
 10
4.9613274783
 20
5.1186718806
 30
0.0
 10
4.9373337986
 20
5.1181717671
 30
0.0
 10
4.9148992636
 20
5.1176720964
 30
0.0
 10
4.8942126498
 20
5.1171730258
 30
0.0
 10
4.8754480258
 20
5.1166747722
 30
0.0
 10
4.8587631852
 20
5.1161778716
 30
0.0
 10
4.8442985196
 20
5.1156826181
 30
0.0
 10
4.833690059
 20
5.1152528077
 30
0.0
 10
4.8264033677
 20
5.1149006861
 30
0.0
 10
4.8218652922
 20
5.1146516863
 30
0.0
 10
4.8179602578
 20
5.1144035052
 30
0.0
 10
4.8155701145
 20
5.1142229788
 30
0.0
 10
4.8144824827
 20
5.1141299893
 30
0.0
  0
LINE
  5
387
100
AcDbEntity
  8
0
100
AcDbLine
 62
7
  6
CONTINUOUS
 10
4.8144824827
 20
5.1141299893
 11
4.8085917402
 21
5.113373746
  0
SPLINE
  5
388
100
AcDbEntity
  8
0
100
AcDbSpline
 62
7
  6
CONTINUOUS
 70
0
 71
3
 72
19
 73
15
 74
0
 42
0.0000001
 43
0.0000001
 44
0.0000000001
 40
0.0
 40
0.0
 40
0.0
 40
0.0
 40
0.0257927194
 40
0.0358395049
 40
0.0475630635
 40
0.0762581866
 40
0.1121765775
 40
0.1554557062
 40
0.2061684896
 40
0.2643552256
 40
0.4032294039
 40
0.5721682417
 40
0.771128639
 40
1.0
 40
1.0
 40
1.0
 40
1.0
 10
4.8078801429
 20
5.136780725
 30
0.0
 10
4.8078801429
 20
5.1368389319
 30
0.0
 10
4.8079544066
 20
5.1369059396
 30
0.0
 10
4.8080443744
 20
5.1369588881
 30
0.0
 10
4.8081475316
 20
5.1370093355
 30
0.0
 10
4.8083087184
 20
5.1370695392
 30
0.0
 10
4.8085424689
 20
5.1371387715
 30
0.0
 10
4.8088273509
 20
5.1372080812
 30
0.0
 10
4.8091637139
 20
5.1372777097
 30
0.0
 10
4.809714089
 20
5.1373766368
 30
0.0
 10
4.8105313673
 20
5.1374972846
 30
0.0
 10
4.8116666514
 20
5.1376358229
 30
0.0
 10
4.8130062596
 20
5.1377748449
 30
0.0
 10
4.8139678617
 20
5.1378617263
 30
0.0
 10
4.8144824827
 20
5.137905725
 30
0.0
  0
SPLINE
  5
389
100
AcDbEntity
  8
0
100
AcDbSpline
 62
7
  6
CONTINUOUS
 70
0
 71
3
 72
63
 73
59
 74
0
 42
0.0000001
 43
0.0000001
 44
0.0000000001
 40
0.0
 40
0.0
 40
0.0
 40
0.0
 40
0.000254191
 40
0.000350766
 40
0.0004629182
 40
0.0007361972
 40
0.00107713
 40
0.0014871617
 40
0.0019670922
 40
0.0025173986
 40
0.0038301623
 40
0.0054264966
 40
0.0073062185
 40
0.0094687628
 40
0.0146389989
 40
0.0209271831
 40
0.0283195225
 40
0.0367999915
 40
0.046348859
 40
0.0569449939
 40
0.0685635474
 40
0.0811783315
 40
0.0947600519
 40
0.1092776064
 40
0.124697646
 40
0.1409844071
 40
0.176006751
 40
0.2140220414
 40
0.2546798832
 40
0.2976054891
 40
0.3424031841
 40
0.3886599352
 40
0.4359493036
 40
0.4838353192
 40
0.5318764099
 40
0.5796297183
 40
0.6266548419
 40
0.6725182882
 40
0.7167971917
 40
0.7590833538
 40
0.7989870149
 40
0.8361403677
 40
0.8702010367
 40
0.9008552799
 40
0.9278208127
 40
0.9398413355
 40
0.950849789
 40
0.9608205501
 40
0.9697310661
 40
0.9775611231
 40
0.9842929399
 40
0.9899121839
 40
0.9923005825
 40
0.9944067562
 40
0.9962299755
 40
0.9977697303
 40
0.9990259738
 40
1.0
 40
1.0
 40
1.0
 40
1.0
 10
5.4373801429
 20
5.1646799893
 30
0.0
 10
5.4373801429
 20
5.1646266747
 30
0.0
 10
5.4373164187
 20
5.1645636002
 30
0.0
 10
5.437236148
 20
5.1645132403
 30
0.0
 10
5.4371458711
 20
5.1644660825
 30
0.0
 10
5.4370044617
 20
5.1644096588
 30
0.0
 10
5.4367993938
 20
5.1643447981
 30
0.0
 10
5.4365494864
 20
5.1642798557
 30
0.0
 10
5.4362544625
 20
5.1642146279
 30
0.0
 10
5.4357718077
 20
5.1641219727
 30
0.0
 10
5.4350549007
 20
5.1640089734
 30
0.0
 10
5.4340588366
 20
5.1638792317
 30
0.0
 10
5.432883314
 20
5.16374902
 30
0.0
 10
5.4309599252
 20
5.1635637098
 30
0.0
 10
5.4281117877
 20
5.1633380088
 30
0.0
 10
5.4241664402
 20
5.1630787206
 30
0.0
 10
5.4195255778
 20
5.1628184806
 30
0.0
 10
5.4141999419
 20
5.1625574793
 30
0.0
 10
5.4082016475
 20
5.1622959804
 30
0.0
 10
5.4015446218
 20
5.1620341521
 30
0.0
 10
5.3942441046
 20
5.1617720482
 30
0.0
 10
5.3863170216
 20
5.1615097673
 30
0.0
 10
5.3777815937
 20
5.1612473296
 30
0.0
 10
5.3686575301
 20
5.1609847789
 30
0.0
 10
5.358965888
 20
5.1607221315
 30
0.0
 10
5.3449745749
 20
5.1603630826
 30
0.0
 10
5.3262447587
 20
5.1599177827
 30
0.0
 10
5.3024037484
 20
5.1593948467
 30
0.0
 10
5.2769047296
 20
5.1588714642
 30
0.0
 10
5.2499828805
 20
5.1583477319
 30
0.0
 10
5.2218864972
 20
5.1578237578
 30
0.0
 10
5.1928746989
 20
5.1572996125
 30
0.0
 10
5.1632150488
 20
5.156775356
 30
0.0
 10
5.1331810911
 20
5.1562510383
 30
0.0
 10
5.1030498112
 20
5.1557267051
 30
0.0
 10
5.0730991235
 20
5.1552024011
 30
0.0
 10
5.043605249
 20
5.1546781724
 30
0.0
 10
5.0148402185
 20
5.1541540716
 30
0.0
 10
4.9870693142
 20
5.1536301618
 30
0.0
 10
4.9605486539
 20
5.1531065214
 30
0.0
 10
4.9355228198
 20
5.1525832606
 30
0.0
 10
4.9122226081
 20
5.1520605157
 30
0.0
 10
4.890862894
 20
5.1515385478
 30
0.0
 10
4.8716406723
 20
5.1510175624
 30
0.0
 10
4.8570409882
 20
5.1505693875
 30
0.0
 10
4.846561326
 20
5.1502057151
 30
0.0
 10
4.8396448347
 20
5.1499437553
 30
0.0
 10
4.8333811397
 20
5.1496821155
 30
0.0
 10
4.8277847138
 20
5.1494208848
 30
0.0
 10
4.822868416
 20
5.1491603252
 30
0.0
 10
4.8186435124
 20
5.1489005391
 30
0.0
 10
4.815560134
 20
5.1486749491
 30
0.0
 10
4.8134468447
 20
5.1484904496
 30
0.0
 10
4.8121281386
 20
5.1483599385
 30
0.0
 10
4.8109883883
 20
5.1482298004
 30
0.0
 10
4.8100281128
 20
5.1481002941
 30
0.0
 10
4.8092478519
 20
5.1479715668
 30
0.0
 10
4.8087897393
 20
5.1478750122
 30
0.0
 10
4.808591982
 20
5.1478237458
 30
0.0
  0
SPLINE
  5
38A
100
AcDbEntity
  8
0
100
AcDbSpline
 62
7
  6
CONTINUOUS
 70
0
 71
3
 72
63
 73
59
 74
0
 42
0.0000001
 43
0.0000001
 44
0.0000000001
 40
0.0
 40
0.0
 40
0.0
 40
0.0
 40
0.000254191
 40
0.000350766
 40
0.0004629182
 40
0.0007361972
 40
0.00107713
 40
0.0014871617
 40
0.0019670922
 40
0.0025173986
 40
0.0038301623
 40
0.0054264966
 40
0.0073062185
 40
0.0094687628
 40
0.0146389989
 40
0.0209271831
 40
0.0283195225
 40
0.0367999915
 40
0.046348859
 40
0.0569449939
 40
0.0685635474
 40
0.0811783315
 40
0.0947600519
 40
0.1092776064
 40
0.124697646
 40
0.1409844071
 40
0.176006751
 40
0.2140220414
 40
0.2546798832
 40
0.2976054891
 40
0.3424031841
 40
0.3886599352
 40
0.4359493036
 40
0.4838353192
 40
0.5318764099
 40
0.5796297183
 40
0.6266548419
 40
0.6725182882
 40
0.7167971917
 40
0.7590833538
 40
0.7989870149
 40
0.8361403677
 40
0.8702010367
 40
0.9008552799
 40
0.9278208127
 40
0.9398413355
 40
0.950849789
 40
0.9608205501
 40
0.9697310661
 40
0.9775611231
 40
0.9842929399
 40
0.9899121839
 40
0.9923005825
 40
0.9944067562
 40
0.9962299755
 40
0.9977697303
 40
0.9990259738
 40
1.0
 40
1.0
 40
1.0
 40
1.0
 10
5.4373801429
 20
5.1991299893
 30
0.0
 10
5.4373801429
 20
5.1990766747
 30
0.0
 10
5.4373164187
 20
5.1990136002
 30
0.0
 10
5.437236148
 20
5.1989632403
 30
0.0
 10
5.4371458711
 20
5.1989160825
 30
0.0
 10
5.4370044617
 20
5.1988596588
 30
0.0
 10
5.4367993938
 20
5.1987947981
 30
0.0
 10
5.4365494864
 20
5.1987298557
 30
0.0
 10
5.4362544625
 20
5.1986646279
 30
0.0
 10
5.4357718077
 20
5.1985719727
 30
0.0
 10
5.4350549007
 20
5.1984589734
 30
0.0
 10
5.4340588366
 20
5.1983292317
 30
0.0
 10
5.432883314
 20
5.19819902
 30
0.0
 10
5.4309599252
 20
5.1980137098
 30
0.0
 10
5.4281117877
 20
5.1977880088
 30
0.0
 10
5.4241664402
 20
5.1975287206
 30
0.0
 10
5.4195255778
 20
5.1972684806
 30
0.0
 10
5.4141999419
 20
5.1970074793
 30
0.0
 10
5.4082016475
 20
5.1967459804
 30
0.0
 10
5.4015446218
 20
5.1964841521
 30
0.0
 10
5.3942441046
 20
5.1962220482
 30
0.0
 10
5.3863170216
 20
5.1959597673
 30
0.0
 10
5.3777815937
 20
5.1956973296
 30
0.0
 10
5.3686575301
 20
5.1954347789
 30
0.0
 10
5.358965888
 20
5.1951721315
 30
0.0
 10
5.3449745749
 20
5.1948130826
 30
0.0
 10
5.3262447587
 20
5.1943677827
 30
0.0
 10
5.3024037484
 20
5.1938448467
 30
0.0
 10
5.2769047296
 20
5.1933214642
 30
0.0
 10
5.2499828805
 20
5.1927977319
 30
0.0
 10
5.2218864972
 20
5.1922737578
 30
0.0
 10
5.1928746989
 20
5.1917496125
 30
0.0
 10
5.1632150488
 20
5.191225356
 30
0.0
 10
5.1331810911
 20
5.1907010383
 30
0.0
 10
5.1030498112
 20
5.1901767051
 30
0.0
 10
5.0730991235
 20
5.1896524011
 30
0.0
 10
5.043605249
 20
5.1891281724
 30
0.0
 10
5.0148402185
 20
5.1886040716
 30
0.0
 10
4.9870693142
 20
5.1880801618
 30
0.0
 10
4.9605486539
 20
5.1875565214
 30
0.0
 10
4.9355228198
 20
5.1870332606
 30
0.0
 10
4.9122226081
 20
5.1865105157
 30
0.0
 10
4.890862894
 20
5.1859885478
 30
0.0
 10
4.8716406723
 20
5.1854675624
 30
0.0
 10
4.8570409882
 20
5.1850193875
 30
0.0
 10
4.846561326
 20
5.1846557151
 30
0.0
 10
4.8396448347
 20
5.1843937553
 30
0.0
 10
4.8333811397
 20
5.1841321155
 30
0.0
 10
4.8277847138
 20
5.1838708848
 30
0.0
 10
4.822868416
 20
5.1836103252
 30
0.0
 10
4.8186435124
 20
5.1833505391
 30
0.0
 10
4.815560134
 20
5.1831249491
 30
0.0
 10
4.8134468447
 20
5.1829404496
 30
0.0
 10
4.8121281386
 20
5.1828099385
 30
0.0
 10
4.8109883883
 20
5.1826798004
 30
0.0
 10
4.8100281128
 20
5.1825502941
 30
0.0
 10
4.8092478519
 20
5.1824215668
 30
0.0
 10
4.8087897393
 20
5.1823250122
 30
0.0
 10
4.808591982
 20
5.1822737458
 30
0.0
  0
SPLINE
  5
38B
100
AcDbEntity
  8
0
100
AcDbSpline
 62
7
  6
CONTINUOUS
 70
0
 71
3
 72
63
 73
59
 74
0
 42
0.0000001
 43
0.0000001
 44
0.0000000001
 40
0.0
 40
0.0
 40
0.0
 40
0.0
 40
0.000254191
 40
0.000350766
 40
0.0004629182
 40
0.0007361972
 40
0.00107713
 40
0.0014871617
 40
0.0019670922
 40
0.0025173986
 40
0.0038301623
 40
0.0054264966
 40
0.0073062185
 40
0.0094687628
 40
0.0146389989
 40
0.0209271831
 40
0.0283195225
 40
0.0367999915
 40
0.046348859
 40
0.0569449939
 40
0.0685635474
 40
0.0811783315
 40
0.0947600519
 40
0.1092776064
 40
0.124697646
 40
0.1409844071
 40
0.176006751
 40
0.2140220414
 40
0.2546798832
 40
0.2976054891
 40
0.3424031841
 40
0.3886599352
 40
0.4359493036
 40
0.4838353192
 40
0.5318764099
 40
0.5796297183
 40
0.6266548419
 40
0.6725182882
 40
0.7167971917
 40
0.7590833538
 40
0.7989870149
 40
0.8361403677
 40
0.8702010367
 40
0.9008552799
 40
0.9278208127
 40
0.9398413355
 40
0.950849789
 40
0.9608205501
 40
0.9697310661
 40
0.9775611231
 40
0.9842929399
 40
0.9899121839
 40
0.9923005825
 40
0.9944067562
 40
0.9962299755
 40
0.9977697303
 40
0.9990259738
 40
1.0
 40
1.0
 40
1.0
 40
1.0
 10
5.4373801429
 20
5.2335799893
 30
0.0
 10
5.4373801429
 20
5.2335266747
 30
0.0
 10
5.4373164187
 20
5.2334636002
 30
0.0
 10
5.437236148
 20
5.2334132403
 30
0.0
 10
5.4371458711
 20
5.2333660825
 30
0.0
 10
5.4370044617
 20
5.2333096588
 30
0.0
 10
5.4367993938
 20
5.2332447981
 30
0.0
 10
5.4365494864
 20
5.2331798557
 30
0.0
 10
5.4362544625
 20
5.2331146279
 30
0.0
 10
5.4357718077
 20
5.2330219727
 30
0.0
 10
5.4350549007
 20
5.2329089734
 30
0.0
 10
5.4340588366
 20
5.2327792317
 30
0.0
 10
5.432883314
 20
5.23264902
 30
0.0
 10
5.4309599252
 20
5.2324637098
 30
0.0
 10
5.4281117877
 20
5.2322380088
 30
0.0
 10
5.4241664402
 20
5.2319787206
 30
0.0
 10
5.4195255778
 20
5.2317184806
 30
0.0
 10
5.4141999419
 20
5.2314574793
 30
0.0
 10
5.4082016475
 20
5.2311959804
 30
0.0
 10
5.4015446218
 20
5.2309341521
 30
0.0
 10
5.3942441046
 20
5.2306720482
 30
0.0
 10
5.3863170216
 20
5.2304097673
 30
0.0
 10
5.3777815937
 20
5.2301473296
 30
0.0
 10
5.3686575301
 20
5.2298847789
 30
0.0
 10
5.358965888
 20
5.2296221315
 30
0.0
 10
5.3449745749
 20
5.2292630826
 30
0.0
 10
5.3262447587
 20
5.2288177827
 30
0.0
 10
5.3024037484
 20
5.2282948467
 30
0.0
 10
5.2769047296
 20
5.2277714642
 30
0.0
 10
5.2499828805
 20
5.2272477319
 30
0.0
 10
5.2218864972
 20
5.2267237578
 30
0.0
 10
5.1928746989
 20
5.2261996125
 30
0.0
 10
5.1632150488
 20
5.225675356
 30
0.0
 10
5.1331810911
 20
5.2251510383
 30
0.0
 10
5.1030498112
 20
5.2246267051
 30
0.0
 10
5.0730991235
 20
5.2241024011
 30
0.0
 10
5.043605249
 20
5.2235781724
 30
0.0
 10
5.0148402185
 20
5.2230540716
 30
0.0
 10
4.9870693142
 20
5.2225301618
 30
0.0
 10
4.9605486539
 20
5.2220065214
 30
0.0
 10
4.9355228198
 20
5.2214832606
 30
0.0
 10
4.9122226081
 20
5.2209605157
 30
0.0
 10
4.890862894
 20
5.2204385478
 30
0.0
 10
4.8716406723
 20
5.2199175624
 30
0.0
 10
4.8570409882
 20
5.2194693875
 30
0.0
 10
4.846561326
 20
5.2191057151
 30
0.0
 10
4.8396448347
 20
5.2188437553
 30
0.0
 10
4.8333811397
 20
5.2185821155
 30
0.0
 10
4.8277847138
 20
5.2183208848
 30
0.0
 10
4.822868416
 20
5.2180603252
 30
0.0
 10
4.8186435124
 20
5.2178005391
 30
0.0
 10
4.815560134
 20
5.2175749491
 30
0.0
 10
4.8134468447
 20
5.2173904496
 30
0.0
 10
4.8121281386
 20
5.2172599385
 30
0.0
 10
4.8109883883
 20
5.2171298004
 30
0.0
 10
4.8100281128
 20
5.2170002941
 30
0.0
 10
4.8092478519
 20
5.2168715668
 30
0.0
 10
4.8087897393
 20
5.2167750122
 30
0.0
 10
4.808591982
 20
5.2167237458
 30
0.0
  0
SPLINE
  5
38C
100
AcDbEntity
  8
0
100
AcDbSpline
 62
7
  6
CONTINUOUS
 70
0
 71
3
 72
63
 73
59
 74
0
 42
0.0000001
 43
0.0000001
 44
0.0000000001
 40
0.0
 40
0.0
 40
0.0
 40
0.0
 40
0.000254191
 40
0.000350766
 40
0.0004629182
 40
0.0007361972
 40
0.00107713
 40
0.0014871617
 40
0.0019670922
 40
0.0025173986
 40
0.0038301623
 40
0.0054264966
 40
0.0073062185
 40
0.0094687628
 40
0.0146389989
 40
0.0209271831
 40
0.0283195225
 40
0.0367999915
 40
0.046348859
 40
0.0569449939
 40
0.0685635474
 40
0.0811783315
 40
0.0947600519
 40
0.1092776064
 40
0.124697646
 40
0.1409844071
 40
0.176006751
 40
0.2140220414
 40
0.2546798832
 40
0.2976054891
 40
0.3424031841
 40
0.3886599352
 40
0.4359493036
 40
0.4838353192
 40
0.5318764099
 40
0.5796297183
 40
0.6266548419
 40
0.6725182882
 40
0.7167971917
 40
0.7590833538
 40
0.7989870149
 40
0.8361403677
 40
0.8702010367
 40
0.9008552799
 40
0.9278208127
 40
0.9398413355
 40
0.950849789
 40
0.9608205501
 40
0.9697310661
 40
0.9775611231
 40
0.9842929399
 40
0.9899121839
 40
0.9923005825
 40
0.9944067562
 40
0.9962299755
 40
0.9977697303
 40
0.9990259738
 40
1.0
 40
1.0
 40
1.0
 40
1.0
 10
5.4373801429
 20
5.2680299893
 30
0.0
 10
5.4373801429
 20
5.2679766747
 30
0.0
 10
5.4373164187
 20
5.2679136002
 30
0.0
 10
5.437236148
 20
5.2678632403
 30
0.0
 10
5.4371458711
 20
5.2678160825
 30
0.0
 10
5.4370044617
 20
5.2677596588
 30
0.0
 10
5.4367993938
 20
5.2676947981
 30
0.0
 10
5.4365494864
 20
5.2676298557
 30
0.0
 10
5.4362544625
 20
5.2675646279
 30
0.0
 10
5.4357718077
 20
5.2674719727
 30
0.0
 10
5.4350549007
 20
5.2673589734
 30
0.0
 10
5.4340588366
 20
5.2672292317
 30
0.0
 10
5.432883314
 20
5.26709902
 30
0.0
 10
5.4309599252
 20
5.2669137098
 30
0.0
 10
5.4281117877
 20
5.2666880088
 30
0.0
 10
5.4241664402
 20
5.2664287206
 30
0.0
 10
5.4195255778
 20
5.2661684806
 30
0.0
 10
5.4141999419
 20
5.2659074793
 30
0.0
 10
5.4082016475
 20
5.2656459804
 30
0.0
 10
5.4015446218
 20
5.2653841521
 30
0.0
 10
5.3942441046
 20
5.2651220482
 30
0.0
 10
5.3863170216
 20
5.2648597673
 30
0.0
 10
5.3777815937
 20
5.2645973296
 30
0.0
 10
5.3686575301
 20
5.2643347789
 30
0.0
 10
5.358965888
 20
5.2640721315
 30
0.0
 10
5.3449745749
 20
5.2637130826
 30
0.0
 10
5.3262447587
 20
5.2632677827
 30
0.0
 10
5.3024037484
 20
5.2627448467
 30
0.0
 10
5.2769047296
 20
5.2622214642
 30
0.0
 10
5.2499828805
 20
5.2616977319
 30
0.0
 10
5.2218864972
 20
5.2611737578
 30
0.0
 10
5.1928746989
 20
5.2606496125
 30
0.0
 10
5.1632150488
 20
5.260125356
 30
0.0
 10
5.1331810911
 20
5.2596010383
 30
0.0
 10
5.1030498112
 20
5.2590767051
 30
0.0
 10
5.0730991235
 20
5.2585524011
 30
0.0
 10
5.043605249
 20
5.2580281724
 30
0.0
 10
5.0148402185
 20
5.2575040716
 30
0.0
 10
4.9870693142
 20
5.2569801618
 30
0.0
 10
4.9605486539
 20
5.2564565214
 30
0.0
 10
4.9355228198
 20
5.2559332606
 30
0.0
 10
4.9122226081
 20
5.2554105157
 30
0.0
 10
4.890862894
 20
5.2548885478
 30
0.0
 10
4.8716406723
 20
5.2543675624
 30
0.0
 10
4.8570409882
 20
5.2539193875
 30
0.0
 10
4.846561326
 20
5.2535557151
 30
0.0
 10
4.8396448347
 20
5.2532937553
 30
0.0
 10
4.8333811397
 20
5.2530321155
 30
0.0
 10
4.8277847138
 20
5.2527708848
 30
0.0
 10
4.822868416
 20
5.2525103252
 30
0.0
 10
4.8186435124
 20
5.2522505391
 30
0.0
 10
4.815560134
 20
5.2520249491
 30
0.0
 10
4.8134468447
 20
5.2518404496
 30
0.0
 10
4.8121281386
 20
5.2517099385
 30
0.0
 10
4.8109883883
 20
5.2515798004
 30
0.0
 10
4.8100281128
 20
5.2514502941
 30
0.0
 10
4.8092478519
 20
5.2513215668
 30
0.0
 10
4.8087897393
 20
5.2512250122
 30
0.0
 10
4.808591982
 20
5.2511737458
 30
0.0
  0
SPLINE
  5
38D
100
AcDbEntity
  8
0
100
AcDbSpline
 62
7
  6
CONTINUOUS
 70
0
 71
3
 72
63
 73
59
 74
0
 42
0.0000001
 43
0.0000001
 44
0.0000000001
 40
0.0
 40
0.0
 40
0.0
 40
0.0
 40
0.000254191
 40
0.000350766
 40
0.0004629182
 40
0.0007361972
 40
0.00107713
 40
0.0014871617
 40
0.0019670922
 40
0.0025173986
 40
0.0038301623
 40
0.0054264966
 40
0.0073062185
 40
0.0094687628
 40
0.0146389989
 40
0.0209271831
 40
0.0283195225
 40
0.0367999915
 40
0.046348859
 40
0.0569449939
 40
0.0685635474
 40
0.0811783315
 40
0.0947600519
 40
0.1092776064
 40
0.124697646
 40
0.1409844071
 40
0.176006751
 40
0.2140220414
 40
0.2546798832
 40
0.2976054891
 40
0.3424031841
 40
0.3886599352
 40
0.4359493036
 40
0.4838353192
 40
0.5318764099
 40
0.5796297183
 40
0.6266548419
 40
0.6725182882
 40
0.7167971916
 40
0.7590833538
 40
0.7989870149
 40
0.8361403677
 40
0.8702010367
 40
0.9008552799
 40
0.9278208127
 40
0.9398413355
 40
0.950849789
 40
0.9608205501
 40
0.9697310661
 40
0.9775611231
 40
0.9842929399
 40
0.9899121839
 40
0.9923005825
 40
0.9944067562
 40
0.9962299755
 40
0.9977697303
 40
0.9990259738
 40
1.0
 40
1.0
 40
1.0
 40
1.0
 10
5.4373801429
 20
5.3024799893
 30
0.0
 10
5.4373801429
 20
5.3024266747
 30
0.0
 10
5.4373164187
 20
5.3023636002
 30
0.0
 10
5.437236148
 20
5.3023132403
 30
0.0
 10
5.4371458711
 20
5.3022660825
 30
0.0
 10
5.4370044617
 20
5.3022096588
 30
0.0
 10
5.4367993938
 20
5.3021447981
 30
0.0
 10
5.4365494864
 20
5.3020798557
 30
0.0
 10
5.4362544625
 20
5.3020146279
 30
0.0
 10
5.4357718077
 20
5.3019219727
 30
0.0
 10
5.4350549007
 20
5.3018089734
 30
0.0
 10
5.4340588366
 20
5.3016792317
 30
0.0
 10
5.432883314
 20
5.30154902
 30
0.0
 10
5.4309599252
 20
5.3013637098
 30
0.0
 10
5.4281117877
 20
5.3011380088
 30
0.0
 10
5.4241664402
 20
5.3008787206
 30
0.0
 10
5.4195255778
 20
5.3006184806
 30
0.0
 10
5.4141999419
 20
5.3003574793
 30
0.0
 10
5.4082016475
 20
5.3000959804
 30
0.0
 10
5.4015446218
 20
5.2998341521
 30
0.0
 10
5.3942441046
 20
5.2995720482
 30
0.0
 10
5.3863170216
 20
5.2993097673
 30
0.0
 10
5.3777815937
 20
5.2990473296
 30
0.0
 10
5.3686575301
 20
5.2987847789
 30
0.0
 10
5.358965888
 20
5.2985221315
 30
0.0
 10
5.3449745749
 20
5.2981630826
 30
0.0
 10
5.3262447587
 20
5.2977177827
 30
0.0
 10
5.3024037484
 20
5.2971948467
 30
0.0
 10
5.2769047296
 20
5.2966714642
 30
0.0
 10
5.2499828805
 20
5.2961477319
 30
0.0
 10
5.2218864972
 20
5.2956237578
 30
0.0
 10
5.1928746989
 20
5.2950996125
 30
0.0
 10
5.1632150488
 20
5.294575356
 30
0.0
 10
5.1331810911
 20
5.2940510383
 30
0.0
 10
5.1030498112
 20
5.2935267051
 30
0.0
 10
5.0730991235
 20
5.2930024011
 30
0.0
 10
5.043605249
 20
5.2924781724
 30
0.0
 10
5.0148402185
 20
5.2919540716
 30
0.0
 10
4.9870693142
 20
5.2914301618
 30
0.0
 10
4.9605486539
 20
5.2909065214
 30
0.0
 10
4.9355228198
 20
5.2903832606
 30
0.0
 10
4.9122226081
 20
5.2898605157
 30
0.0
 10
4.890862894
 20
5.2893385478
 30
0.0
 10
4.8716406723
 20
5.2888175624
 30
0.0
 10
4.8570409882
 20
5.2883693875
 30
0.0
 10
4.846561326
 20
5.2880057151
 30
0.0
 10
4.8396448347
 20
5.2877437553
 30
0.0
 10
4.8333811397
 20
5.2874821155
 30
0.0
 10
4.8277847138
 20
5.2872208848
 30
0.0
 10
4.822868416
 20
5.2869603252
 30
0.0
 10
4.8186435124
 20
5.2867005391
 30
0.0
 10
4.815560134
 20
5.2864749491
 30
0.0
 10
4.8134468447
 20
5.2862904496
 30
0.0
 10
4.8121281386
 20
5.2861599385
 30
0.0
 10
4.8109883883
 20
5.2860298004
 30
0.0
 10
4.8100281128
 20
5.2859002941
 30
0.0
 10
4.8092478519
 20
5.2857715668
 30
0.0
 10
4.8087897393
 20
5.2856750122
 30
0.0
 10
4.808591982
 20
5.2856237458
 30
0.0
  0
SPLINE
  5
38E
100
AcDbEntity
  8
0
100
AcDbSpline
 62
7
  6
CONTINUOUS
 70
0
 71
3
 72
63
 73
59
 74
0
 42
0.0000001
 43
0.0000001
 44
0.0000000001
 40
0.0
 40
0.0
 40
0.0
 40
0.0
 40
0.000254191
 40
0.000350766
 40
0.0004629182
 40
0.0007361972
 40
0.00107713
 40
0.0014871617
 40
0.0019670922
 40
0.0025173986
 40
0.0038301623
 40
0.0054264966
 40
0.0073062185
 40
0.0094687628
 40
0.0146389989
 40
0.0209271831
 40
0.0283195225
 40
0.0367999915
 40
0.046348859
 40
0.0569449939
 40
0.0685635474
 40
0.0811783315
 40
0.0947600519
 40
0.1092776064
 40
0.124697646
 40
0.1409844071
 40
0.176006751
 40
0.2140220414
 40
0.2546798832
 40
0.2976054891
 40
0.3424031841
 40
0.3886599352
 40
0.4359493036
 40
0.4838353192
 40
0.5318764099
 40
0.5796297183
 40
0.6266548419
 40
0.6725182882
 40
0.7167971916
 40
0.7590833538
 40
0.7989870149
 40
0.8361403677
 40
0.8702010367
 40
0.9008552799
 40
0.9278208127
 40
0.9398413355
 40
0.950849789
 40
0.9608205501
 40
0.9697310661
 40
0.9775611231
 40
0.9842929399
 40
0.9899121839
 40
0.9923005825
 40
0.9944067562
 40
0.9962299755
 40
0.9977697303
 40
0.9990259738
 40
1.0
 40
1.0
 40
1.0
 40
1.0
 10
5.4373801429
 20
5.3369299893
 30
0.0
 10
5.4373801429
 20
5.3368766747
 30
0.0
 10
5.4373164187
 20
5.3368136002
 30
0.0
 10
5.437236148
 20
5.3367632403
 30
0.0
 10
5.4371458711
 20
5.3367160825
 30
0.0
 10
5.4370044617
 20
5.3366596588
 30
0.0
 10
5.4367993938
 20
5.3365947981
 30
0.0
 10
5.4365494864
 20
5.3365298557
 30
0.0
 10
5.4362544625
 20
5.3364646279
 30
0.0
 10
5.4357718077
 20
5.3363719727
 30
0.0
 10
5.4350549007
 20
5.3362589734
 30
0.0
 10
5.4340588366
 20
5.3361292317
 30
0.0
 10
5.432883314
 20
5.33599902
 30
0.0
 10
5.4309599252
 20
5.3358137098
 30
0.0
 10
5.4281117877
 20
5.3355880088
 30
0.0
 10
5.4241664402
 20
5.3353287206
 30
0.0
 10
5.4195255778
 20
5.3350684806
 30
0.0
 10
5.4141999419
 20
5.3348074793
 30
0.0
 10
5.4082016475
 20
5.3345459804
 30
0.0
 10
5.4015446218
 20
5.3342841521
 30
0.0
 10
5.3942441046
 20
5.3340220482
 30
0.0
 10
5.3863170216
 20
5.3337597673
 30
0.0
 10
5.3777815937
 20
5.3334973296
 30
0.0
 10
5.3686575301
 20
5.3332347789
 30
0.0
 10
5.358965888
 20
5.3329721315
 30
0.0
 10
5.3449745749
 20
5.3326130826
 30
0.0
 10
5.3262447587
 20
5.3321677827
 30
0.0
 10
5.3024037484
 20
5.3316448467
 30
0.0
 10
5.2769047296
 20
5.3311214642
 30
0.0
 10
5.2499828805
 20
5.3305977319
 30
0.0
 10
5.2218864972
 20
5.3300737578
 30
0.0
 10
5.1928746989
 20
5.3295496125
 30
0.0
 10
5.1632150488
 20
5.329025356
 30
0.0
 10
5.1331810911
 20
5.3285010383
 30
0.0
 10
5.1030498112
 20
5.3279767051
 30
0.0
 10
5.0730991235
 20
5.3274524011
 30
0.0
 10
5.043605249
 20
5.3269281724
 30
0.0
 10
5.0148402185
 20
5.3264040716
 30
0.0
 10
4.9870693142
 20
5.3258801618
 30
0.0
 10
4.9605486539
 20
5.3253565214
 30
0.0
 10
4.9355228198
 20
5.3248332606
 30
0.0
 10
4.9122226081
 20
5.3243105157
 30
0.0
 10
4.890862894
 20
5.3237885478
 30
0.0
 10
4.8716406723
 20
5.3232675624
 30
0.0
 10
4.8570409882
 20
5.3228193875
 30
0.0
 10
4.846561326
 20
5.3224557151
 30
0.0
 10
4.8396448347
 20
5.3221937553
 30
0.0
 10
4.8333811397
 20
5.3219321155
 30
0.0
 10
4.8277847138
 20
5.3216708848
 30
0.0
 10
4.822868416
 20
5.3214103252
 30
0.0
 10
4.8186435124
 20
5.3211505391
 30
0.0
 10
4.815560134
 20
5.3209249491
 30
0.0
 10
4.8134468447
 20
5.3207404496
 30
0.0
 10
4.8121281386
 20
5.3206099385
 30
0.0
 10
4.8109883883
 20
5.3204798004
 30
0.0
 10
4.8100281128
 20
5.3203502941
 30
0.0
 10
4.8092478519
 20
5.3202215668
 30
0.0
 10
4.8087897393
 20
5.3201250122
 30
0.0
 10
4.808591982
 20
5.3200737458
 30
0.0
  0
SPLINE
  5
38F
100
AcDbEntity
  8
0
100
AcDbSpline
 62
7
  6
CONTINUOUS
 70
0
 71
3
 72
63
 73
59
 74
0
 42
0.0000001
 43
0.0000001
 44
0.0000000001
 40
0.0
 40
0.0
 40
0.0
 40
0.0
 40
0.0001173728
 40
0.000189092
 40
0.000273263
 40
0.0004849876
 40
0.0007603742
 40
0.0011026384
 40
0.0015134036
 40
0.0019935781
 40
0.0025437082
 40
0.0038550309
 40
0.0054486921
 40
0.0073246263
 40
0.0094823283
 40
0.0146398838
 40
0.0209118708
 40
0.0282844811
 40
0.0367420938
 40
0.0462650102
 40
0.0568322234
 40
0.0684192729
 40
0.0809997734
 40
0.0945450956
 40
0.1090238069
 40
0.1406475052
 40
0.1755805316
 40
0.2135021003
 40
0.2540637405
 40
0.2968927802
 40
0.3415956608
 40
0.3877614698
 40
0.4349659972
 40
0.4827751976
 40
0.5307496948
 40
0.5784484643
 40
0.6254330852
 40
0.6712717427
 40
0.7155430606
 40
0.7578401519
 40
0.7977742763
 40
0.8349785066
 40
0.8691111431
 40
0.899858768
 40
0.926939239
 40
0.939025301
 40
0.9501044567
 40
0.9601510018
 40
0.9691427009
 40
0.9770585636
 40
0.9838815606
 40
0.9895963978
 40
0.9920345044
 40
0.9941916608
 40
0.9960669878
 40
0.9976598483
 40
0.9989703964
 40
1.0
 40
1.0
 40
1.0
 40
1.0
 10
5.4170301425
 20
5.1010428571
 30
0.0
 10
5.4170301407
 20
5.1010198323
 30
0.0
 10
5.4170161328
 20
5.1009827118
 30
0.0
 10
5.4169816589
 20
5.100941678
 30
0.0
 10
5.4169269672
 20
5.1008941761
 30
0.0
 10
5.4168296625
 20
5.1008372511
 30
0.0
 10
5.4166800856
 20
5.1007728687
 30
0.0
 10
5.4164887851
 20
5.100708238
 30
0.0
 10
5.4162556732
 20
5.1006433174
 30
0.0
 10
5.4159805205
 20
5.1005782065
 30
0.0
 10
5.4155305256
 20
5.1004857137
 30
0.0
 10
5.4148620087
 20
5.1003728962
 30
0.0
 10
5.4139330668
 20
5.10024334
 30
0.0
 10
5.4128367866
 20
5.1001133149
 30
0.0
 10
5.4110432323
 20
5.099928283
 30
0.0
 10
5.408387196
 20
5.0997029031
 30
0.0
 10
5.4047078332
 20
5.0994440096
 30
0.0
 10
5.4003797997
 20
5.099184153
 30
0.0
 10
5.3954131039
 20
5.0989235458
 30
0.0
 10
5.3898189919
 20
5.0986624374
 30
0.0
 10
5.3836104018
 20
5.0984009982
 30
0.0
 10
5.3768015388
 20
5.0981392942
 30
0.0
 10
5.3694080763
 20
5.0978774012
 30
0.0
 10
5.3614470366
 20
5.0976153578
 30
0.0
 10
5.34975155
 20
5.0972551224
 30
0.0
 10
5.3338611474
 20
5.096809269
 30
0.0
 10
5.3133723826
 20
5.0962877694
 30
0.0
 10
5.2911297674
 20
5.0957656498
 30
0.0
 10
5.2673378171
 20
5.0952430405
 30
0.0
 10
5.2422152904
 20
5.0947200949
 30
0.0
 10
5.2159931789
 20
5.0941969037
 30
0.0
 10
5.188912572
 20
5.0936735423
 30
0.0
 10
5.1612224936
 20
5.0931500692
 30
0.0
 10
5.1331775459
 20
5.0926265342
 30
0.0
 10
5.1050356269
 20
5.0921029825
 30
0.0
 10
5.0770554921
 20
5.0915794584
 30
0.0
 10
5.0494944151
 20
5.0910560081
 30
0.0
 10
5.0226058183
 20
5.0905326835
 30
0.0
 10
4.996636944
 20
5.0900095467
 30
0.0
 10
4.9718265935
 20
5.089486675
 30
0.0
 10
4.9484029
 20
5.0889641758
 30
0.0
 10
4.9265812297
 20
5.0884421835
 30
0.0
 10
4.9065621972
 20
5.0879209525
 30
0.0
 10
4.8885298446
 20
5.0874006852
 30
0.0
 10
4.87482211
 20
5.0869532384
 30
0.0
 10
4.8649721438
 20
5.0865902396
 30
0.0
 10
4.8584622701
 20
5.0863286508
 30
0.0
 10
4.8525599349
 20
5.0860673573
 30
0.0
 10
4.847278791
 20
5.0858064869
 30
0.0
 10
4.8426308276
 20
5.0855462184
 30
0.0
 10
4.8386267949
 20
5.085286744
 30
0.0
 10
4.8356974948
 20
5.0850615048
 30
0.0
 10
4.8336833313
 20
5.0848774612
 30
0.0
 10
4.8324206766
 20
5.0847470817
 30
0.0
 10
4.8313248004
 20
5.084617055
 30
0.0
 10
4.8303962296
 20
5.0844875808
 30
0.0
 10
4.8296354323
 20
5.0843588225
 30
0.0
 10
4.8291861841
 20
5.0842627096
 30
0.0
 10
4.8289906728
 20
5.0842120177
 30
0.0
  0
SPLINE
  5
390
100
AcDbEntity
  8
0
100
AcDbSpline
 62
7
  6
CONTINUOUS
 70
0
 71
3
 72
63
 73
59
 74
0
 42
0.0000001
 43
0.0000001
 44
0.0000000001
 40
0.0
 40
0.0
 40
0.0
 40
0.0
 40
0.000254191
 40
0.000350766
 40
0.0004629182
 40
0.0007361972
 40
0.00107713
 40
0.0014871617
 40
0.0019670922
 40
0.0025173986
 40
0.0038301623
 40
0.0054264966
 40
0.0073062185
 40
0.0094687628
 40
0.0146389989
 40
0.0209271831
 40
0.0283195225
 40
0.0367999915
 40
0.046348859
 40
0.0569449939
 40
0.0685635474
 40
0.0811783315
 40
0.0947600519
 40
0.1092776064
 40
0.124697646
 40
0.1409844071
 40
0.176006751
 40
0.2140220414
 40
0.2546798832
 40
0.2976054891
 40
0.3424031841
 40
0.3886599352
 40
0.4359493036
 40
0.4838353192
 40
0.5318764099
 40
0.5796297183
 40
0.6266548419
 40
0.6725182882
 40
0.7167971916
 40
0.7590833538
 40
0.7989870149
 40
0.8361403677
 40
0.8702010367
 40
0.9008552799
 40
0.9278208127
 40
0.9398413355
 40
0.950849789
 40
0.9608205501
 40
0.9697310661
 40
0.9775611231
 40
0.9842929399
 40
0.9899121839
 40
0.9923005825
 40
0.9944067562
 40
0.9962299755
 40
0.9977697303
 40
0.9990259738
 40
1.0
 40
1.0
 40
1.0
 40
1.0
 10
5.4373801429
 20
5.3713799893
 30
0.0
 10
5.4373801429
 20
5.3713266747
 30
0.0
 10
5.4373164187
 20
5.3712636002
 30
0.0
 10
5.437236148
 20
5.3712132403
 30
0.0
 10
5.4371458711
 20
5.3711660825
 30
0.0
 10
5.4370044617
 20
5.3711096588
 30
0.0
 10
5.4367993938
 20
5.3710447981
 30
0.0
 10
5.4365494864
 20
5.3709798557
 30
0.0
 10
5.4362544625
 20
5.3709146279
 30
0.0
 10
5.4357718077
 20
5.3708219727
 30
0.0
 10
5.4350549007
 20
5.3707089734
 30
0.0
 10
5.4340588366
 20
5.3705792317
 30
0.0
 10
5.432883314
 20
5.37044902
 30
0.0
 10
5.4309599252
 20
5.3702637098
 30
0.0
 10
5.4281117877
 20
5.3700380088
 30
0.0
 10
5.4241664402
 20
5.3697787206
 30
0.0
 10
5.4195255778
 20
5.3695184806
 30
0.0
 10
5.4141999419
 20
5.3692574793
 30
0.0
 10
5.4082016475
 20
5.3689959804
 30
0.0
 10
5.4015446218
 20
5.3687341521
 30
0.0
 10
5.3942441046
 20
5.3684720482
 30
0.0
 10
5.3863170216
 20
5.3682097673
 30
0.0
 10
5.3777815937
 20
5.3679473296
 30
0.0
 10
5.3686575301
 20
5.3676847789
 30
0.0
 10
5.358965888
 20
5.3674221315
 30
0.0
 10
5.3449745749
 20
5.3670630826
 30
0.0
 10
5.3262447587
 20
5.3666177827
 30
0.0
 10
5.3024037484
 20
5.3660948467
 30
0.0
 10
5.2769047296
 20
5.3655714642
 30
0.0
 10
5.2499828805
 20
5.3650477319
 30
0.0
 10
5.2218864972
 20
5.3645237578
 30
0.0
 10
5.1928746989
 20
5.3639996125
 30
0.0
 10
5.1632150488
 20
5.363475356
 30
0.0
 10
5.1331810911
 20
5.3629510383
 30
0.0
 10
5.1030498112
 20
5.3624267051
 30
0.0
 10
5.0730991235
 20
5.3619024011
 30
0.0
 10
5.043605249
 20
5.3613781724
 30
0.0
 10
5.0148402185
 20
5.3608540716
 30
0.0
 10
4.9870693142
 20
5.3603301618
 30
0.0
 10
4.9605486539
 20
5.3598065214
 30
0.0
 10
4.9355228198
 20
5.3592832606
 30
0.0
 10
4.9122226081
 20
5.3587605157
 30
0.0
 10
4.890862894
 20
5.3582385478
 30
0.0
 10
4.8716406723
 20
5.3577175624
 30
0.0
 10
4.8570409882
 20
5.3572693875
 30
0.0
 10
4.846561326
 20
5.3569057151
 30
0.0
 10
4.8396448347
 20
5.3566437553
 30
0.0
 10
4.8333811397
 20
5.3563821155
 30
0.0
 10
4.8277847138
 20
5.3561208848
 30
0.0
 10
4.822868416
 20
5.3558603252
 30
0.0
 10
4.8186435124
 20
5.3556005391
 30
0.0
 10
4.815560134
 20
5.3553749491
 30
0.0
 10
4.8134468447
 20
5.3551904496
 30
0.0
 10
4.8121281386
 20
5.3550599385
 30
0.0
 10
4.8109883883
 20
5.3549298004
 30
0.0
 10
4.8100281128
 20
5.3548002941
 30
0.0
 10
4.8092478519
 20
5.3546715668
 30
0.0
 10
4.8087897393
 20
5.3545750122
 30
0.0
 10
4.808591982
 20
5.3545237458
 30
0.0
  0
SPLINE
  5
391
100
AcDbEntity
  8
0
100
AcDbSpline
 62
7
  6
CONTINUOUS
 70
0
 71
3
 72
63
 73
59
 74
0
 42
0.0000001
 43
0.0000001
 44
0.0000000001
 40
0.0
 40
0.0
 40
0.0
 40
0.0
 40
0.000254191
 40
0.000350766
 40
0.0004629182
 40
0.0007361972
 40
0.00107713
 40
0.0014871617
 40
0.0019670922
 40
0.0025173986
 40
0.0038301623
 40
0.0054264966
 40
0.0073062185
 40
0.0094687628
 40
0.0146389989
 40
0.0209271831
 40
0.0283195225
 40
0.0367999915
 40
0.046348859
 40
0.0569449939
 40
0.0685635474
 40
0.0811783315
 40
0.0947600519
 40
0.1092776064
 40
0.124697646
 40
0.1409844071
 40
0.176006751
 40
0.2140220414
 40
0.2546798832
 40
0.2976054891
 40
0.3424031841
 40
0.3886599352
 40
0.4359493036
 40
0.4838353192
 40
0.5318764099
 40
0.5796297183
 40
0.6266548419
 40
0.6725182882
 40
0.7167971917
 40
0.7590833538
 40
0.7989870149
 40
0.8361403677
 40
0.8702010367
 40
0.9008552799
 40
0.9278208127
 40
0.9398413355
 40
0.950849789
 40
0.9608205501
 40
0.9697310661
 40
0.9775611231
 40
0.9842929399
 40
0.9899121839
 40
0.9923005825
 40
0.9944067562
 40
0.9962299755
 40
0.9977697303
 40
0.9990259738
 40
1.0
 40
1.0
 40
1.0
 40
1.0
 10
5.4373801429
 20
5.4058299893
 30
0.0
 10
5.4373801429
 20
5.4057766747
 30
0.0
 10
5.4373164187
 20
5.4057136002
 30
0.0
 10
5.437236148
 20
5.4056632403
 30
0.0
 10
5.4371458711
 20
5.4056160825
 30
0.0
 10
5.4370044617
 20
5.4055596588
 30
0.0
 10
5.4367993938
 20
5.4054947981
 30
0.0
 10
5.4365494864
 20
5.4054298557
 30
0.0
 10
5.4362544625
 20
5.4053646279
 30
0.0
 10
5.4357718077
 20
5.4052719727
 30
0.0
 10
5.4350549007
 20
5.4051589734
 30
0.0
 10
5.4340588366
 20
5.4050292317
 30
0.0
 10
5.432883314
 20
5.40489902
 30
0.0
 10
5.4309599252
 20
5.4047137098
 30
0.0
 10
5.4281117877
 20
5.4044880088
 30
0.0
 10
5.4241664402
 20
5.4042287206
 30
0.0
 10
5.4195255778
 20
5.4039684806
 30
0.0
 10
5.4141999419
 20
5.4037074793
 30
0.0
 10
5.4082016475
 20
5.4034459804
 30
0.0
 10
5.4015446218
 20
5.4031841521
 30
0.0
 10
5.3942441046
 20
5.4029220482
 30
0.0
 10
5.3863170216
 20
5.4026597673
 30
0.0
 10
5.3777815937
 20
5.4023973296
 30
0.0
 10
5.3686575301
 20
5.4021347789
 30
0.0
 10
5.358965888
 20
5.4018721315
 30
0.0
 10
5.3449745749
 20
5.4015130826
 30
0.0
 10
5.3262447587
 20
5.4010677827
 30
0.0
 10
5.3024037484
 20
5.4005448467
 30
0.0
 10
5.2769047296
 20
5.4000214642
 30
0.0
 10
5.2499828805
 20
5.3994977319
 30
0.0
 10
5.2218864972
 20
5.3989737578
 30
0.0
 10
5.1928746989
 20
5.3984496125
 30
0.0
 10
5.1632150488
 20
5.397925356
 30
0.0
 10
5.1331810911
 20
5.3974010383
 30
0.0
 10
5.1030498112
 20
5.3968767051
 30
0.0
 10
5.0730991235
 20
5.3963524011
 30
0.0
 10
5.043605249
 20
5.3958281724
 30
0.0
 10
5.0148402185
 20
5.3953040716
 30
0.0
 10
4.9870693142
 20
5.3947801618
 30
0.0
 10
4.9605486539
 20
5.3942565214
 30
0.0
 10
4.9355228198
 20
5.3937332606
 30
0.0
 10
4.9122226081
 20
5.3932105157
 30
0.0
 10
4.890862894
 20
5.3926885478
 30
0.0
 10
4.8716406723
 20
5.3921675624
 30
0.0
 10
4.8570409882
 20
5.3917193875
 30
0.0
 10
4.846561326
 20
5.3913557151
 30
0.0
 10
4.8396448347
 20
5.3910937553
 30
0.0
 10
4.8333811397
 20
5.3908321155
 30
0.0
 10
4.8277847138
 20
5.3905708848
 30
0.0
 10
4.822868416
 20
5.3903103252
 30
0.0
 10
4.8186435124
 20
5.3900505391
 30
0.0
 10
4.815560134
 20
5.3898249491
 30
0.0
 10
4.8134468447
 20
5.3896404496
 30
0.0
 10
4.8121281386
 20
5.3895099385
 30
0.0
 10
4.8109883883
 20
5.3893798004
 30
0.0
 10
4.8100281128
 20
5.3892502941
 30
0.0
 10
4.8092478519
 20
5.3891215668
 30
0.0
 10
4.8087897393
 20
5.3890250122
 30
0.0
 10
4.808591982
 20
5.3889737458
 30
0.0
  0
SPLINE
  5
392
100
AcDbEntity
  8
0
100
AcDbSpline
 62
7
  6
CONTINUOUS
 70
0
 71
3
 72
63
 73
59
 74
0
 42
0.0000001
 43
0.0000001
 44
0.0000000001
 40
0.0
 40
0.0
 40
0.0
 40
0.0
 40
0.000254191
 40
0.000350766
 40
0.0004629182
 40
0.0007361972
 40
0.00107713
 40
0.0014871617
 40
0.0019670922
 40
0.0025173986
 40
0.0038301623
 40
0.0054264966
 40
0.0073062185
 40
0.0094687628
 40
0.0146389989
 40
0.0209271831
 40
0.0283195225
 40
0.0367999915
 40
0.046348859
 40
0.0569449939
 40
0.0685635474
 40
0.0811783315
 40
0.0947600519
 40
0.1092776064
 40
0.124697646
 40
0.1409844071
 40
0.176006751
 40
0.2140220414
 40
0.2546798832
 40
0.2976054891
 40
0.3424031841
 40
0.3886599352
 40
0.4359493036
 40
0.4838353192
 40
0.5318764099
 40
0.5796297183
 40
0.6266548419
 40
0.6725182882
 40
0.7167971917
 40
0.7590833538
 40
0.7989870149
 40
0.8361403677
 40
0.8702010367
 40
0.9008552799
 40
0.9278208127
 40
0.9398413355
 40
0.950849789
 40
0.9608205501
 40
0.9697310661
 40
0.9775611231
 40
0.9842929399
 40
0.9899121839
 40
0.9923005825
 40
0.9944067562
 40
0.9962299755
 40
0.9977697303
 40
0.9990259738
 40
1.0
 40
1.0
 40
1.0
 40
1.0
 10
5.4373801429
 20
5.4402799893
 30
0.0
 10
5.4373801429
 20
5.4402266747
 30
0.0
 10
5.4373164187
 20
5.4401636002
 30
0.0
 10
5.437236148
 20
5.4401132403
 30
0.0
 10
5.4371458711
 20
5.4400660825
 30
0.0
 10
5.4370044617
 20
5.4400096588
 30
0.0
 10
5.4367993938
 20
5.4399447981
 30
0.0
 10
5.4365494864
 20
5.4398798557
 30
0.0
 10
5.4362544625
 20
5.4398146279
 30
0.0
 10
5.4357718077
 20
5.4397219727
 30
0.0
 10
5.4350549007
 20
5.4396089734
 30
0.0
 10
5.4340588366
 20
5.4394792317
 30
0.0
 10
5.432883314
 20
5.43934902
 30
0.0
 10
5.4309599252
 20
5.4391637098
 30
0.0
 10
5.4281117877
 20
5.4389380088
 30
0.0
 10
5.4241664402
 20
5.4386787206
 30
0.0
 10
5.4195255778
 20
5.4384184806
 30
0.0
 10
5.4141999419
 20
5.4381574793
 30
0.0
 10
5.4082016475
 20
5.4378959804
 30
0.0
 10
5.4015446218
 20
5.4376341521
 30
0.0
 10
5.3942441046
 20
5.4373720482
 30
0.0
 10
5.3863170216
 20
5.4371097673
 30
0.0
 10
5.3777815937
 20
5.4368473296
 30
0.0
 10
5.3686575301
 20
5.4365847789
 30
0.0
 10
5.358965888
 20
5.4363221315
 30
0.0
 10
5.3449745749
 20
5.4359630826
 30
0.0
 10
5.3262447587
 20
5.4355177827
 30
0.0
 10
5.3024037484
 20
5.4349948467
 30
0.0
 10
5.2769047296
 20
5.4344714642
 30
0.0
 10
5.2499828805
 20
5.4339477319
 30
0.0
 10
5.2218864972
 20
5.4334237578
 30
0.0
 10
5.1928746989
 20
5.4328996125
 30
0.0
 10
5.1632150488
 20
5.432375356
 30
0.0
 10
5.1331810911
 20
5.4318510383
 30
0.0
 10
5.1030498112
 20
5.4313267051
 30
0.0
 10
5.0730991235
 20
5.4308024011
 30
0.0
 10
5.043605249
 20
5.4302781724
 30
0.0
 10
5.0148402185
 20
5.4297540716
 30
0.0
 10
4.9870693142
 20
5.4292301618
 30
0.0
 10
4.9605486539
 20
5.4287065214
 30
0.0
 10
4.9355228198
 20
5.4281832606
 30
0.0
 10
4.9122226081
 20
5.4276605157
 30
0.0
 10
4.890862894
 20
5.4271385478
 30
0.0
 10
4.8716406723
 20
5.4266175624
 30
0.0
 10
4.8570409882
 20
5.4261693875
 30
0.0
 10
4.846561326
 20
5.4258057151
 30
0.0
 10
4.8396448347
 20
5.4255437553
 30
0.0
 10
4.8333811397
 20
5.4252821155
 30
0.0
 10
4.8277847138
 20
5.4250208848
 30
0.0
 10
4.822868416
 20
5.4247603252
 30
0.0
 10
4.8186435124
 20
5.4245005391
 30
0.0
 10
4.815560134
 20
5.4242749491
 30
0.0
 10
4.8134468447
 20
5.4240904496
 30
0.0
 10
4.8121281386
 20
5.4239599385
 30
0.0
 10
4.8109883883
 20
5.4238298004
 30
0.0
 10
4.8100281128
 20
5.4237002941
 30
0.0
 10
4.8092478519
 20
5.4235715668
 30
0.0
 10
4.8087897393
 20
5.4234750122
 30
0.0
 10
4.808591982
 20
5.4234237458
 30
0.0
  0
SPLINE
  5
393
100
AcDbEntity
  8
0
100
AcDbSpline
 62
7
  6
CONTINUOUS
 70
0
 71
3
 72
63
 73
59
 74
0
 42
0.0000001
 43
0.0000001
 44
0.0000000001
 40
0.0
 40
0.0
 40
0.0
 40
0.0
 40
0.000254191
 40
0.000350766
 40
0.0004629182
 40
0.0007361972
 40
0.00107713
 40
0.0014871617
 40
0.0019670922
 40
0.0025173986
 40
0.0038301623
 40
0.0054264966
 40
0.0073062185
 40
0.0094687628
 40
0.0146389989
 40
0.0209271831
 40
0.0283195225
 40
0.0367999915
 40
0.046348859
 40
0.0569449939
 40
0.0685635474
 40
0.0811783315
 40
0.0947600519
 40
0.1092776064
 40
0.124697646
 40
0.1409844071
 40
0.176006751
 40
0.2140220414
 40
0.2546798832
 40
0.2976054891
 40
0.3424031841
 40
0.3886599352
 40
0.4359493036
 40
0.4838353192
 40
0.5318764099
 40
0.5796297183
 40
0.6266548419
 40
0.6725182882
 40
0.7167971917
 40
0.7590833538
 40
0.7989870149
 40
0.8361403677
 40
0.8702010367
 40
0.9008552799
 40
0.9278208127
 40
0.9398413355
 40
0.950849789
 40
0.9608205501
 40
0.9697310661
 40
0.9775611231
 40
0.9842929399
 40
0.9899121839
 40
0.9923005825
 40
0.9944067562
 40
0.9962299755
 40
0.9977697303
 40
0.9990259738
 40
1.0
 40
1.0
 40
1.0
 40
1.0
 10
5.4373801429
 20
5.4747299893
 30
0.0
 10
5.4373801429
 20
5.4746766747
 30
0.0
 10
5.4373164187
 20
5.4746136002
 30
0.0
 10
5.437236148
 20
5.4745632403
 30
0.0
 10
5.4371458711
 20
5.4745160825
 30
0.0
 10
5.4370044617
 20
5.4744596588
 30
0.0
 10
5.4367993938
 20
5.4743947981
 30
0.0
 10
5.4365494864
 20
5.4743298557
 30
0.0
 10
5.4362544625
 20
5.4742646279
 30
0.0
 10
5.4357718077
 20
5.4741719727
 30
0.0
 10
5.4350549007
 20
5.4740589734
 30
0.0
 10
5.4340588366
 20
5.4739292317
 30
0.0
 10
5.432883314
 20
5.47379902
 30
0.0
 10
5.4309599252
 20
5.4736137098
 30
0.0
 10
5.4281117877
 20
5.4733880088
 30
0.0
 10
5.4241664402
 20
5.4731287206
 30
0.0
 10
5.4195255778
 20
5.4728684806
 30
0.0
 10
5.4141999419
 20
5.4726074793
 30
0.0
 10
5.4082016475
 20
5.4723459804
 30
0.0
 10
5.4015446218
 20
5.4720841521
 30
0.0
 10
5.3942441046
 20
5.4718220482
 30
0.0
 10
5.3863170216
 20
5.4715597673
 30
0.0
 10
5.3777815937
 20
5.4712973296
 30
0.0
 10
5.3686575301
 20
5.4710347789
 30
0.0
 10
5.358965888
 20
5.4707721315
 30
0.0
 10
5.3449745749
 20
5.4704130826
 30
0.0
 10
5.3262447587
 20
5.4699677827
 30
0.0
 10
5.3024037484
 20
5.4694448467
 30
0.0
 10
5.2769047296
 20
5.4689214642
 30
0.0
 10
5.2499828805
 20
5.4683977319
 30
0.0
 10
5.2218864972
 20
5.4678737578
 30
0.0
 10
5.1928746989
 20
5.4673496125
 30
0.0
 10
5.1632150488
 20
5.466825356
 30
0.0
 10
5.1331810911
 20
5.4663010383
 30
0.0
 10
5.1030498112
 20
5.4657767051
 30
0.0
 10
5.0730991235
 20
5.4652524011
 30
0.0
 10
5.043605249
 20
5.4647281724
 30
0.0
 10
5.0148402185
 20
5.4642040716
 30
0.0
 10
4.9870693142
 20
5.4636801618
 30
0.0
 10
4.9605486539
 20
5.4631565214
 30
0.0
 10
4.9355228198
 20
5.4626332606
 30
0.0
 10
4.9122226081
 20
5.4621105157
 30
0.0
 10
4.890862894
 20
5.4615885478
 30
0.0
 10
4.8716406723
 20
5.4610675624
 30
0.0
 10
4.8570409882
 20
5.4606193875
 30
0.0
 10
4.846561326
 20
5.4602557151
 30
0.0
 10
4.8396448347
 20
5.4599937553
 30
0.0
 10
4.8333811397
 20
5.4597321155
 30
0.0
 10
4.8277847138
 20
5.4594708848
 30
0.0
 10
4.822868416
 20
5.4592103252
 30
0.0
 10
4.8186435124
 20
5.4589505391
 30
0.0
 10
4.815560134
 20
5.4587249491
 30
0.0
 10
4.8134468447
 20
5.4585404496
 30
0.0
 10
4.8121281386
 20
5.4584099385
 30
0.0
 10
4.8109883883
 20
5.4582798004
 30
0.0
 10
4.8100281128
 20
5.4581502941
 30
0.0
 10
4.8092478519
 20
5.4580215668
 30
0.0
 10
4.8087897393
 20
5.4579250122
 30
0.0
 10
4.808591982
 20
5.4578737458
 30
0.0
  0
SPLINE
  5
394
100
AcDbEntity
  8
0
100
AcDbSpline
 62
7
  6
CONTINUOUS
 70
0
 71
3
 72
30
 73
26
 74
0
 42
0.0000001
 43
0.0000001
 44
0.0000000001
 40
0.0
 40
0.0
 40
0.0
 40
0.0
 40
0.1821232368
 40
0.2722980116
 40
0.3606691965
 40
0.4463467154
 40
0.5284684641
 40
0.6062079713
 40
0.6787829994
 40
0.7454633732
 40
0.8055785096
 40
0.8585240977
 40
0.8821394441
 40
0.9037686033
 40
0.9233583823
 40
0.9408588558
 40
0.9562276178
 40
0.969425868
 40
0.9804228552
 40
0.9850874308
 40
0.9891926354
 40
0.9927369638
 40
0.99571935
 40
0.9981395885
 40
1.0
 40
1.0
 40
1.0
 40
1.0
 10
5.1548643363
 20
5.5011299893
 30
0.0
 10
5.1338360574
 20
5.5007617443
 30
0.0
 10
5.1023959365
 20
5.5002168373
 30
0.0
 10
5.0607524737
 20
5.4994843563
 30
0.0
 10
5.0302449851
 20
5.4989369075
 30
0.0
 10
5.0006676059
 20
5.4983896427
 30
0.0
 10
4.9723181799
 20
5.4978426494
 30
0.0
 10
4.9454821098
 20
5.4972960452
 30
0.0
 10
4.9204295829
 20
5.4967499774
 30
0.0
 10
4.8974128079
 20
5.4962047214
 30
0.0
 10
4.876663504
 20
5.4956605037
 30
0.0
 10
4.8608871061
 20
5.4951924198
 30
0.0
 10
4.8495545124
 20
5.4948125587
 30
0.0
 10
4.8420724712
 20
5.494538857
 30
0.0
 10
4.8352970726
 20
5.4942655285
 30
0.0
 10
4.8292452552
 20
5.4939926089
 30
0.0
 10
4.8239323225
 20
5.4937204309
 30
0.0
 10
4.8193715038
 20
5.4934490732
 30
0.0
 10
4.816046994
 20
5.4932133551
 30
0.0
 10
4.8137724648
 20
5.4930204822
 30
0.0
 10
4.8123569428
 20
5.492884158
 30
0.0
 10
4.8111366738
 20
5.4927482448
 30
0.0
 10
4.8101122305
 20
5.4926130436
 30
0.0
 10
4.809284252
 20
5.4924787153
 30
0.0
 10
4.808799908
 20
5.4923776592
 30
0.0
 10
4.8085919433
 20
5.4923237458
 30
0.0
  0
SPLINE
  5
395
100
AcDbEntity
  8
0
100
AcDbSpline
 62
7
  6
CONTINUOUS
 70
0
 71
3
 72
39
 73
35
 74
0
 42
0.0000001
 43
0.0000001
 44
0.0000000001
 40
0.0
 40
0.0
 40
0.0
 40
0.0
 40
0.0002340713
 40
0.0003780974
 40
0.0005477747
 40
0.0009761593
 40
0.0015347912
 40
0.0022300025
 40
0.0030649776
 40
0.0040414951
 40
0.0051606246
 40
0.0078290617
 40
0.0110729169
 40
0.0148921736
 40
0.0192859621
 40
0.0297914139
 40
0.0425715924
 40
0.0576010323
 40
0.0748504559
 40
0.0942832217
 40
0.1158602193
 40
0.1395354911
 40
0.1652601273
 40
0.192980062
 40
0.2226369228
 40
0.2875094194
 40
0.3593328275
 40
0.4375034158
 40
0.5213641238
 40
0.6102093251
 40
0.703293012
 40
0.7998291508
 40
0.8990129862
 40
1.0
 40
1.0
 40
1.0
 40
1.0
 10
5.4373801429
 20
5.5091799893
 30
0.0
 10
5.4373801429
 20
5.5091579247
 30
0.0
 10
5.4373663216
 20
5.5091223015
 30
0.0
 10
5.4373326602
 20
5.5090831836
 30
0.0
 10
5.4372790887
 20
5.5090377058
 30
0.0
 10
5.4371838749
 20
5.5089832921
 30
0.0
 10
5.4370375911
 20
5.5089217291
 30
0.0
 10
5.4368504641
 20
5.5088599182
 30
0.0
 10
5.4366224139
 20
5.5087978148
 30
0.0
 10
5.4363532184
 20
5.5087355257
 30
0.0
 10
5.4359128962
 20
5.5086470278
 30
0.0
 10
5.4352587565
 20
5.5085390956
 30
0.0
 10
5.4343497675
 20
5.5084151627
 30
0.0
 10
5.4332769171
 20
5.5082907868
 30
0.0
 10
5.4315212876
 20
5.5081137799
 30
0.0
 10
5.4289208546
 20
5.5078981798
 30
0.0
 10
5.4253175551
 20
5.5076505147
 30
0.0
 10
5.4210773197
 20
5.5074019356
 30
0.0
 10
5.4162091108
 20
5.5071526339
 30
0.0
 10
5.4107230119
 20
5.5069028569
 30
0.0
 10
5.4046306411
 20
5.5066527633
 30
0.0
 10
5.3979447304
 20
5.5064024108
 30
0.0
 10
5.3906793959
 20
5.5061518847
 30
0.0
 10
5.3828499074
 20
5.5059012065
 30
0.0
 10
5.3713313224
 20
5.5055564217
 30
0.0
 10
5.3556559844
 20
5.5051296685
 30
0.0
 10
5.3354078878
 20
5.5046307292
 30
0.0
 10
5.3133693997
 20
5.5041311902
 30
0.0
 10
5.2897259956
 20
5.5036311769
 30
0.0
 10
5.2646765319
 20
5.5031308309
 30
0.0
 10
5.238432007
 20
5.5026302441
 30
0.0
 10
5.2112127523
 20
5.5021294737
 30
0.0
 10
5.1832483765
 20
5.5016285869
 30
0.0
 10
5.1643823417
 20
5.5012966676
 30
0.0
 10
5.1548643363
 20
5.5011299893
 30
0.0
  0
SPLINE
  5
396
100
AcDbEntity
  8
0
100
AcDbSpline
 62
7
  6
CONTINUOUS
 70
0
 71
3
 72
25
 73
21
 74
0
 42
0.0000001
 43
0.0000001
 44
0.0000000001
 40
0.0
 40
0.0
 40
0.0
 40
0.0
 40
0.0624805428
 40
0.1249946975
 40
0.187480018
 40
0.2499756719
 40
0.2812488296
 40
0.3125214672
 40
0.3750140907
 40
0.4375071068
 40
0.4999999958
 40
0.5624928804
 40
0.6249859003
 40
0.6874785198
 40
0.7187511519
 40
0.7500243215
 40
0.8125200153
 40
0.8750050782
 40
0.9375192237
 40
1.0
 40
1.0
 40
1.0
 40
1.0
 10
5.0309113638
 20
3.2525732662
 30
0.0
 10
5.0317447751
 20
3.2518714222
 30
0.0
 10
5.0333013019
 20
3.2503295728
 30
0.0
 10
5.0352315323
 20
3.2476737775
 30
0.0
 10
5.0367068108
 20
3.2447398652
 30
0.0
 10
5.0375238739
 20
3.2421266354
 30
0.0
 10
5.0379149263
 20
3.2399792961
 30
0.0
 10
5.0381295406
 20
3.2378072863
 30
0.0
 10
5.0380619246
 20
3.2350698643
 30
0.0
 10
5.0374444069
 20
3.2318446325
 30
0.0
 10
5.0363062934
 20
3.2287638766
 30
0.0
 10
5.034677863
 20
3.2259117591
 30
0.0
 10
5.0326041244
 20
3.2233655744
 30
0.0
 10
5.0305506008
 20
3.2215541963
 30
0.0
 10
5.0287487935
 20
3.2203224589
 30
0.0
 10
5.0268524715
 20
3.2192417393
 30
0.0
 10
5.0243254261
 20
3.2181878982
 30
0.0
 10
5.0211296336
 20
3.217432137
 30
0.0
 10
5.0178544482
 20
3.2172036756
 30
0.0
 10
5.0156728027
 20
3.2174049569
 30
0.0
 10
5.0145994485
 20
3.2175922511
 30
0.0
  0
SPLINE
  5
397
100
AcDbEntity
  8
0
100
AcDbSpline
 62
7
  6
CONTINUOUS
 70
0
 71
3
 72
41
 73
37
 74
0
 42
0.0000001
 43
0.0000001
 44
0.0000000001
 40
0.0
 40
0.0
 40
0.0
 40
0.0
 40
0.0946454945
 40
0.1892712022
 40
0.2828434208
 40
0.3743397479
 40
0.4627607718
 40
0.5471404341
 40
0.6265571656
 40
0.7001435249
 40
0.7344962918
 40
0.7670960523
 40
0.7978529816
 40
0.8266839836
 40
0.8535095016
 40
0.8782573599
 40
0.9008592305
 40
0.9212546668
 40
0.9393873689
 40
0.9552095305
 40
0.9686779285
 40
0.9745187103
 40
0.9797586763
 40
0.9843943619
 40
0.9884236141
 40
0.991844911
 40
0.9933273057
 40
0.9946574868
 40
0.9958356124
 40
0.9968621735
 40
0.9977380245
 40
0.9984646191
 40
0.9990446197
 40
0.9992812996
 40
0.9994838563
 40
1.0
 40
1.0
 40
1.0
 40
1.0
 10
5.1548643363
 20
5.524905725
 30
0.0
 10
5.1439103242
 20
5.5247138995
 30
0.0
 10
5.1220045541
 20
5.5243323476
 30
0.0
 10
5.0892689743
 20
5.5237620424
 30
0.0
 10
5.0568979808
 20
5.5231918079
 30
0.0
 10
5.025245321
 20
5.5226217185
 30
0.0
 10
4.9946569187
 20
5.5220518598
 30
0.0
 10
4.965467035
 20
5.5214823547
 30
0.0
 10
4.9379946734
 20
5.5209133157
 30
0.0
 10
4.9163126781
 20
5.5204293051
 30
0.0
 10
4.900049275
 20
5.5200389964
 30
0.0
 10
4.8887425247
 20
5.5197531021
 30
0.0
 10
4.8780751593
 20
5.5194673026
 30
0.0
 10
4.8680764419
 20
5.5191816423
 30
0.0
 10
4.8587736031
 20
5.5188961274
 30
0.0
 10
4.8501921753
 20
5.5186108388
 30
0.0
 10
4.8423554978
 20
5.5183258096
 30
0.0
 10
4.835285098
 20
5.5180411741
 30
0.0
 10
4.8290001597
 20
5.5177570797
 30
0.0
 10
4.8235179562
 20
5.5174737104
 30
0.0
 10
4.8194586407
 20
5.5172284051
 30
0.0
 10
4.8166239563
 20
5.5170286913
 30
0.0
 10
4.8148102581
 20
5.5168863001
 30
0.0
 10
4.8132069437
 20
5.5167441903
 30
0.0
 10
4.8118150607
 20
5.5166024117
 30
0.0
 10
4.8107882482
 20
5.5164796352
 30
0.0
 10
4.810073575
 20
5.5163797122
 30
0.0
 10
4.8096171305
 20
5.5163084758
 30
0.0
 10
4.8092141511
 20
5.5162373636
 30
0.0
 10
4.8088646272
 20
5.5161663783
 30
0.0
 10
4.8085686086
 20
5.5160957152
 30
0.0
 10
4.8083257023
 20
5.5160251412
 30
0.0
 10
4.8081581921
 20
5.5159637838
 30
0.0
 10
4.8080508951
 20
5.5159123379
 30
0.0
 10
4.8079578568
 20
5.515858612
 30
0.0
 10
4.8078801429
 20
5.5157904712
 30
0.0
 10
4.8078801429
 20
5.515730725
 30
0.0
  0
SPLINE
  5
398
100
AcDbEntity
  8
0
100
AcDbSpline
 62
7
  6
CONTINUOUS
 70
0
 71
3
 72
39
 73
35
 74
0
 42
0.0000001
 43
0.0000001
 44
0.0000000001
 40
0.0
 40
0.0
 40
0.0
 40
0.0
 40
0.0220348889
 40
0.0469566227
 40
0.0745995349
 40
0.1047881145
 40
0.1720039632
 40
0.2468674102
 40
0.3274447487
 40
0.4116538583
 40
0.4973190093
 40
0.5822266158
 40
0.6641827134
 40
0.7033876907
 40
0.7410697661
 40
0.776985151
 40
0.8109013982
 40
0.8425992486
 40
0.8718738744
 40
0.8985360252
 40
0.9224132673
 40
0.9433516989
 40
0.9526761716
 40
0.9612167082
 40
0.9689600348
 40
0.9758938147
 40
0.9820068061
 40
0.987290091
 40
0.9917354137
 40
0.9953369175
 40
0.9968202148
 40
0.9980915557
 40
0.9991511224
 40
1.0
 40
1.0
 40
1.0
 40
1.0
 10
5.3989678358
 20
5.5408928571
 30
0.0
 10
5.394632752
 20
5.5407351157
 30
0.0
 10
5.3853936902
 20
5.5404248447
 30
0.0
 10
5.3707139531
 20
5.5399877453
 30
0.0
 10
5.3544284017
 20
5.5395498952
 30
0.0
 10
5.3298181043
 20
5.5389434617
 30
0.0
 10
5.2959122832
 20
5.5381990147
 30
0.0
 10
5.2520870137
 20
5.53733111
 30
0.0
 10
5.2049157522
 20
5.5364614739
 30
0.0
 10
5.1556176689
 20
5.535590732
 30
0.0
 10
5.1054669734
 20
5.5347196366
 30
0.0
 10
5.0557598873
 20
5.5338486958
 30
0.0
 10
5.0151983299
 20
5.5331131966
 30
0.0
 10
4.9839329372
 20
5.5325183644
 30
0.0
 10
4.9617301519
 20
5.5320789772
 30
0.0
 10
4.940568754
 20
5.531639783
 30
0.0
 10
4.9205857168
 20
5.5312008264
 30
0.0
 10
4.9019103557
 20
5.5307621958
 30
0.0
 10
4.884663502
 20
5.5303239964
 30
0.0
 10
4.8689567908
 20
5.5298864325
 30
0.0
 10
4.8548918864
 20
5.5294496604
 30
0.0
 10
4.8442400307
 20
5.5290737369
 30
0.0
 10
4.8366069662
 20
5.5287689204
 30
0.0
 10
4.8315702859
 20
5.5285494032
 30
0.0
 10
4.8270047317
 20
5.528330138
 30
0.0
 10
4.8229176698
 20
5.5281112101
 30
0.0
 10
4.8193156657
 20
5.5278926966
 30
0.0
 10
4.816204508
 20
5.5276749748
 30
0.0
 10
4.81358915
 20
5.5274581378
 30
0.0
 10
4.8117223125
 20
5.5272689808
 30
0.0
 10
4.8104806845
 20
5.5271131071
 30
0.0
 10
4.8097376344
 20
5.5270042688
 30
0.0
 10
4.8091210074
 20
5.5268959481
 30
0.0
 10
4.8087537232
 20
5.5268156831
 30
0.0
 10
4.8085919544
 20
5.5267737458
 30
0.0
  0
SPLINE
  5
399
100
AcDbEntity
  8
0
100
AcDbSpline
 62
7
  6
CONTINUOUS
 70
0
 71
3
 72
22
 73
18
 74
0
 42
0.0000001
 43
0.0000001
 44
0.0000000001
 40
0.0
 40
0.0
 40
0.0
 40
0.0
 40
0.0066200759
 40
0.0149023231
 40
0.0248529476
 40
0.0364717091
 40
0.0647018804
 40
0.0995602463
 40
0.1409873131
 40
0.1889088342
 40
0.2432402919
 40
0.3038770242
 40
0.3707094072
 40
0.4436101999
 40
0.6070580045
 40
0.7929889254
 40
1.0
 40
1.0
 40
1.0
 40
1.0
 10
5.4365592154
 20
5.0847096947
 30
0.0
 10
5.4363710426
 20
5.0846642649
 30
0.0
 10
5.4359437655
 20
5.084577432
 30
0.0
 10
5.4352264543
 20
5.0844603525
 30
0.0
 10
5.4343614336
 20
5.0843426951
 30
0.0
 10
5.4329149663
 20
5.0841741274
 30
0.0
 10
5.4307397998
 20
5.0839696167
 30
0.0
 10
5.4276925738
 20
5.0837351947
 30
0.0
 10
5.4240681769
 20
5.0834997836
 30
0.0
 10
5.4198734109
 20
5.0832635284
 30
0.0
 10
5.4151161753
 20
5.0830268206
 30
0.0
 10
5.4098053768
 20
5.0827897315
 30
0.0
 10
5.4039511122
 20
5.0825523915
 30
0.0
 10
5.3950918399
 20
5.0822229787
 30
0.0
 10
5.3827505027
 20
5.0818167719
 30
0.0
 10
5.3664878158
 20
5.0813445866
 30
0.0
 10
5.355001616
 20
5.0810445425
 30
0.0
 10
5.3489502606
 20
5.0808928609
 30
0.0
  0
SPLINE
  5
39A
100
AcDbEntity
  8
0
100
AcDbSpline
 62
7
  6
CONTINUOUS
 70
0
 71
3
 72
37
 73
33
 74
0
 42
0.0000001
 43
0.0000001
 44
0.0000000001
 40
0.0
 40
0.0
 40
0.0
 40
0.0
 40
0.0002963403
 40
0.000647559
 40
0.0010884297
 40
0.001636892
 40
0.0023022057
 40
0.0030894905
 40
0.0050406336
 40
0.0075044596
 40
0.0104871184
 40
0.013991799
 40
0.0180198014
 40
0.02257129
 40
0.0276459614
 40
0.0393621919
 40
0.0531617687
 40
0.06903252
 40
0.0869586023
 40
0.1069235521
 40
0.1289078385
 40
0.1528881286
 40
0.2067398765
 40
0.2682586685
 40
0.337193821
 40
0.413260069
 40
0.4961454569
 40
0.5855099855
 40
0.6809801797
 40
0.7821657111
 40
0.8886653088
 40
1.0
 40
1.0
 40
1.0
 40
1.0
 10
5.4373801429
 20
4.7512799893
 30
0.0
 10
5.4373801429
 20
4.7512649291
 30
0.0
 10
5.4373716861
 20
4.7512318281
 30
0.0
 10
5.4373380414
 20
4.751186888
 30
0.0
 10
5.437285342
 20
4.7511431453
 30
0.0
 10
5.4372131137
 20
4.7510996798
 30
0.0
 10
5.4371210755
 20
4.7510561633
 30
0.0
 10
5.4369597396
 20
4.7509934834
 30
0.0
 10
5.4367060806
 20
4.7509177604
 30
0.0
 10
5.4363401082
 20
4.7508313337
 30
0.0
 10
5.4358934626
 20
4.7507445155
 30
0.0
 10
5.4353661763
 20
4.7506573564
 30
0.0
 10
5.4347582577
 20
4.7505700039
 30
0.0
 10
5.4340698607
 20
4.7504824908
 30
0.0
 10
5.4329921735
 20
4.7503597086
 30
0.0
 10
5.4314447861
 20
4.7502088646
 30
0.0
 10
5.4293486742
 20
4.750034685
 30
0.0
 10
5.4269360643
 20
4.7498600837
 30
0.0
 10
5.4242094384
 20
4.7496851242
 30
0.0
 10
5.4211715626
 20
4.7495099493
 30
0.0
 10
5.4178255576
 20
4.7493346005
 30
0.0
 10
5.4127586579
 20
4.7490911019
 30
0.0
 10
5.4056830781
 20
4.7487906171
 30
0.0
 10
5.3963230155
 20
4.7484415484
 30
0.0
 10
5.3858333205
 20
4.7480918977
 30
0.0
 10
5.3742572371
 20
4.7477417518
 30
0.0
 10
5.3616424959
 20
4.7473912737
 30
0.0
 10
5.3480412892
 20
4.7470405475
 30
0.0
 10
5.3335097741
 20
4.7466896201
 30
0.0
 10
5.3181072086
 20
4.7463385315
 30
0.0
 10
5.3018982027
 20
4.7459873388
 30
0.0
 10
5.2908300896
 20
4.7457579321
 30
0.0
 10
5.2851731541
 20
4.7456428571
 30
0.0
  0
SPLINE
  5
39B
100
AcDbEntity
  8
0
100
AcDbSpline
 62
7
  6
CONTINUOUS
 70
0
 71
3
 72
63
 73
59
 74
0
 42
0.0000001
 43
0.0000001
 44
0.0000000001
 40
0.0
 40
0.0
 40
0.0
 40
0.0
 40
0.0010305488
 40
0.0023428763
 40
0.0039379092
 40
0.0058154627
 40
0.0079749741
 40
0.0104156864
 40
0.0161361879
 40
0.0229645197
 40
0.0308862536
 40
0.0398832882
 40
0.0499354205
 40
0.0610198261
 40
0.0731109087
 40
0.1002008843
 40
0.1309571577
 40
0.1650974078
 40
0.2023081681
 40
0.2422476303
 40
0.284548844
 40
0.3288231691
 40
0.3746637636
 40
0.4216493439
 40
0.4693481802
 40
0.5173217944
 40
0.5651293801
 40
0.6123315063
 40
0.6584944184
 40
0.7031939143
 40
0.7460192019
 40
0.7865768078
 40
0.8244940777
 40
0.8594226492
 40
0.8756647097
 40
0.8910418262
 40
0.9055184197
 40
0.9190613758
 40
0.9316397528
 40
0.9432244591
 40
0.9537894533
 40
0.9633100455
 40
0.9717652419
 40
0.979135424
 40
0.9854046854
 40
0.9905593093
 40
0.9927153186
 40
0.9945893618
 40
0.996180879
 40
0.9974896931
 40
0.9980383526
 40
0.9985168556
 40
0.9989256789
 40
0.9992656229
 40
0.9995381323
 40
0.9996499814
 40
0.9997463072
 40
1.0
 40
1.0
 40
1.0
 40
1.0
 10
5.4365592154
 20
5.2914096947
 30
0.0
 10
5.43634914
 20
5.2913589771
 30
0.0
 10
5.435866989
 20
5.291262857
 30
0.0
 10
5.4350512104
 20
5.2911341214
 30
0.0
 10
5.4340560689
 20
5.2910046692
 30
0.0
 10
5.4328821267
 20
5.2908746521
 30
0.0
 10
5.4315299384
 20
5.2907442892
 30
0.0
 10
5.429373438
 20
5.2905602826
 30
0.0
 10
5.4262380114
 20
5.2903350924
 30
0.0
 10
5.4219530368
 20
5.290075611
 30
0.0
 10
5.4169799159
 20
5.2898153963
 30
0.0
 10
5.4113299847
 20
5.2895545326
 30
0.0
 10
5.4050162162
 20
5.2892932813
 30
0.0
 10
5.3980531255
 20
5.2890317155
 30
0.0
 10
5.3875184584
 20
5.2886687649
 30
0.0
 10
5.3728590438
 20
5.2882213727
 30
0.0
 10
5.3535760332
 20
5.287701161
 30
0.0
 10
5.3321699796
 20
5.2871799867
 30
0.0
 10
5.3088376701
 20
5.2866580517
 30
0.0
 10
5.2837935834
 20
5.2861356102
 30
0.0
 10
5.25726794
 20
5.285612796
 30
0.0
 10
5.2295045786
 20
5.2850897171
 30
0.0
 10
5.2007587197
 20
5.2845664508
 30
0.0
 10
5.1712946116
 20
5.2840430591
 30
0.0
 10
5.1413831315
 20
5.2835195939
 30
0.0
 10
5.1112992473
 20
5.282996101
 30
0.0
 10
5.081319541
 20
5.2824726247
 30
0.0
 10
5.0517196047
 20
5.2819492103
 30
0.0
 10
5.0227715509
 20
5.2814259076
 30
0.0
 10
4.9947414913
 20
5.2809027764
 30
0.0
 10
4.9678870982
 20
5.2803798869
 30
0.0
 10
4.9424552443
 20
5.2798573471
 30
0.0
 10
4.9186797306
 20
5.2793352534
 30
0.0
 10
4.9000028528
 20
5.2788906623
 30
0.0
 10
4.8860520779
 20
5.2785321849
 30
0.0
 10
4.8763891314
 20
5.2782699624
 30
0.0
 10
4.8672924173
 20
5.2780078357
 30
0.0
 10
4.8587828674
 20
5.2777458226
 30
0.0
 10
4.8508800621
 20
5.2774839652
 30
0.0
 10
4.8436021121
 20
5.2772222852
 30
0.0
 10
4.8369658335
 20
5.27696088
 30
0.0
 10
4.8309863706
 20
5.2766998037
 30
0.0
 10
4.8256775624
 20
5.2764392246
 30
0.0
 10
4.8210514443
 20
5.2761794046
 30
0.0
 10
4.8171186913
 20
5.2759205359
 30
0.0
 10
4.8142796764
 20
5.2756951989
 30
0.0
 10
4.8123624677
 20
5.2755101882
 30
0.0
 10
4.8111907277
 20
5.2753801869
 30
0.0
 10
4.8101978721
 20
5.2752506548
 30
0.0
 10
4.8094832783
 20
5.2751378378
 30
0.0
 10
4.8090021839
 20
5.2750453328
 30
0.0
 10
4.808708112
 20
5.2749802103
 30
0.0
 10
4.8084590102
 20
5.2749153723
 30
0.0
 10
4.8082546032
 20
5.2748506158
 30
0.0
 10
4.8081136501
 20
5.2747942822
 30
0.0
 10
4.8080236702
 20
5.2747472028
 30
0.0
 10
4.8079436254
 20
5.2746969044
 30
0.0
 10
4.8078801429
 20
5.2746339256
 30
0.0
 10
4.8078801429
 20
5.274580725
 30
0.0
  0
SPLINE
  5
39C
100
AcDbEntity
  8
0
100
AcDbSpline
 62
7
  6
CONTINUOUS
 70
0
 71
3
 72
62
 73
58
 74
0
 42
0.0000001
 43
0.0000001
 44
0.0000000001
 40
0.0
 40
0.0
 40
0.0
 40
0.0
 40
0.0011351644
 40
0.002550389
 40
0.0042462241
 40
0.0062225838
 40
0.0110147108
 40
0.016918164
 40
0.0239207463
 40
0.0320075346
 40
0.0411600121
 40
0.0513582742
 40
0.0625785898
 40
0.0747959825
 40
0.102107807
 40
0.1330450796
 40
0.1673256176
 40
0.2046364906
 40
0.2446369851
 40
0.2869617418
 40
0.3312241979
 40
0.3770200379
 40
0.4239308556
 40
0.4715281512
 40
0.5193769208
 40
0.5670401014
 40
0.6140821853
 40
0.6600734141
 40
0.7045936869
 40
0.7472361757
 40
0.7876114285
 40
0.8253506019
 40
0.8601091841
 40
0.8915699243
 40
0.9059727756
 40
0.9194458392
 40
0.9319587508
 40
0.9434829544
 40
0.9539920674
 40
0.9634627501
 40
0.9718730197
 40
0.9792047849
 40
0.985441369
 40
0.9905700001
 40
0.9927157451
 40
0.9945810184
 40
0.9961654904
 40
0.9974694821
 40
0.9980166583
 40
0.998494299
 40
0.998902908
 40
0.9992433524
 40
0.9995172414
 40
0.9997278337
 40
0.9998115892
 40
0.9998829953
 40
1.0
 40
1.0
 40
1.0
 40
1.0
 10
5.4160600552
 20
5.2860976314
 30
0.0
 10
5.4158430983
 20
5.2860478172
 30
0.0
 10
5.4153518845
 20
5.2859525065
 30
0.0
 10
5.4145291444
 20
5.2858237966
 30
0.0
 10
5.4135398484
 20
5.2856944432
 30
0.0
 10
5.4118903225
 20
5.2855092735
 30
0.0
 10
5.409415339
 20
5.2852845629
 30
0.0
 10
5.4059542957
 20
5.2850268547
 30
0.0
 10
5.4018457334
 20
5.2847680975
 30
0.0
 10
5.3970990416
 20
5.2845084573
 30
0.0
 10
5.3917248931
 20
5.28424827
 30
0.0
 10
5.3857356493
 20
5.2839877239
 30
0.0
 10
5.3791448854
 20
5.2837268621
 30
0.0
 10
5.3691996177
 20
5.2833652187
 30
0.0
 10
5.3553885012
 20
5.2829192314
 30
0.0
 10
5.3372511174
 20
5.2824004182
 30
0.0
 10
5.3171522566
 20
5.2818806759
 30
0.0
 10
5.2952756062
 20
5.2813602023
 30
0.0
 10
5.2718211074
 20
5.2808392386
 30
0.0
 10
5.2470031175
 20
5.2803179143
 30
0.0
 10
5.2210484453
 20
5.2797963338
 30
0.0
 10
5.19419429
 20
5.279274572
 30
0.0
 10
5.1666860654
 20
5.2787526894
 30
0.0
 10
5.1387751981
 20
5.2782307368
 30
0.0
 10
5.1107167696
 20
5.2777087589
 30
0.0
 10
5.0827672349
 20
5.2771867993
 30
0.0
 10
5.0551820211
 20
5.276664903
 30
0.0
 10
5.0282132316
 20
5.2761431194
 30
0.0
 10
5.0021073515
 20
5.2756215071
 30
0.0
 10
4.9771029695
 20
5.2751001402
 30
0.0
 10
4.9534286358
 20
5.2745791096
 30
0.0
 10
4.931300696
 20
5.274058566
 30
0.0
 10
4.9109213703
 20
5.2735386441
 30
0.0
 10
4.8951178315
 20
5.2730941157
 30
0.0
 10
4.8834876327
 20
5.2727349717
 30
0.0
 10
4.8755718111
 20
5.2724737133
 30
0.0
 10
4.8682208066
 20
5.2722126164
 30
0.0
 10
4.8614514108
 20
5.2719517136
 30
0.0
 10
4.8552790584
 20
5.2716910477
 30
0.0
 10
4.8497179167
 20
5.2714307601
 30
0.0
 10
4.8447805813
 20
5.2711709079
 30
0.0
 10
4.8404783703
 20
5.270911872
 30
0.0
 10
4.836820984
 20
5.2706537424
 30
0.0
 10
4.8341808843
 20
5.2704290379
 30
0.0
 10
4.8323980952
 20
5.2702445891
 30
0.0
 10
4.831308457
 20
5.2701149559
 30
0.0
 10
4.8303851916
 20
5.2699857748
 30
0.0
 10
4.8297207426
 20
5.2698732975
 30
0.0
 10
4.8292734264
 20
5.2697810952
 30
0.0
 10
4.8289998735
 20
5.2697161838
 30
0.0
 10
4.8287681231
 20
5.2696514632
 30
0.0
 10
4.8285779666
 20
5.2695870308
 30
0.0
 10
4.8284293219
 20
5.2695228393
 30
0.0
 10
4.8283326617
 20
5.2694660757
 30
0.0
 10
4.8282783633
 20
5.2694187213
 30
0.0
 10
4.8282441297
 20
5.2693777874
 30
0.0
 10
4.8282302568
 20
5.2693408014
 30
0.0
 10
4.8282302606
 20
5.2693178571
 30
0.0
  0
SPLINE
  5
39D
100
AcDbEntity
  8
0
100
AcDbSpline
 62
7
  6
CONTINUOUS
 70
0
 71
3
 72
63
 73
59
 74
0
 42
0.0000001
 43
0.0000001
 44
0.0000000001
 40
0.0
 40
0.0
 40
0.0
 40
0.0
 40
0.0010305488
 40
0.0023428763
 40
0.0039379092
 40
0.0058154627
 40
0.0079749741
 40
0.0104156864
 40
0.0161361879
 40
0.0229645197
 40
0.0308862536
 40
0.0398832882
 40
0.0499354205
 40
0.0610198261
 40
0.0731109087
 40
0.1002008843
 40
0.1309571577
 40
0.1650974078
 40
0.2023081681
 40
0.2422476303
 40
0.284548844
 40
0.3288231691
 40
0.3746637636
 40
0.4216493439
 40
0.4693481802
 40
0.5173217944
 40
0.5651293801
 40
0.6123315063
 40
0.6584944184
 40
0.7031939143
 40
0.7460192019
 40
0.7865768078
 40
0.8244940777
 40
0.8594226492
 40
0.8756647097
 40
0.8910418262
 40
0.9055184197
 40
0.9190613758
 40
0.9316397528
 40
0.9432244591
 40
0.9537894533
 40
0.9633100455
 40
0.9717652419
 40
0.979135424
 40
0.9854046854
 40
0.9905593093
 40
0.9927153186
 40
0.9945893618
 40
0.996180879
 40
0.9974896931
 40
0.9980383526
 40
0.9985168556
 40
0.9989256789
 40
0.9992656229
 40
0.9995381323
 40
0.9996499814
 40
0.9997463072
 40
1.0
 40
1.0
 40
1.0
 40
1.0
 10
5.4365592154
 20
5.3258596947
 30
0.0
 10
5.43634914
 20
5.3258089771
 30
0.0
 10
5.435866989
 20
5.325712857
 30
0.0
 10
5.4350512104
 20
5.3255841214
 30
0.0
 10
5.4340560689
 20
5.3254546692
 30
0.0
 10
5.4328821267
 20
5.3253246521
 30
0.0
 10
5.4315299384
 20
5.3251942892
 30
0.0
 10
5.429373438
 20
5.3250102826
 30
0.0
 10
5.4262380114
 20
5.3247850924
 30
0.0
 10
5.4219530368
 20
5.324525611
 30
0.0
 10
5.4169799159
 20
5.3242653963
 30
0.0
 10
5.4113299847
 20
5.3240045326
 30
0.0
 10
5.4050162162
 20
5.3237432813
 30
0.0
 10
5.3980531255
 20
5.3234817155
 30
0.0
 10
5.3875184584
 20
5.3231187649
 30
0.0
 10
5.3728590438
 20
5.3226713727
 30
0.0
 10
5.3535760332
 20
5.322151161
 30
0.0
 10
5.3321699796
 20
5.3216299867
 30
0.0
 10
5.3088376701
 20
5.3211080517
 30
0.0
 10
5.2837935834
 20
5.3205856102
 30
0.0
 10
5.25726794
 20
5.320062796
 30
0.0
 10
5.2295045786
 20
5.3195397171
 30
0.0
 10
5.2007587197
 20
5.3190164508
 30
0.0
 10
5.1712946116
 20
5.3184930591
 30
0.0
 10
5.1413831315
 20
5.3179695939
 30
0.0
 10
5.1112992473
 20
5.317446101
 30
0.0
 10
5.081319541
 20
5.3169226247
 30
0.0
 10
5.0517196047
 20
5.3163992103
 30
0.0
 10
5.0227715509
 20
5.3158759076
 30
0.0
 10
4.9947414913
 20
5.3153527764
 30
0.0
 10
4.9678870982
 20
5.3148298869
 30
0.0
 10
4.9424552443
 20
5.3143073471
 30
0.0
 10
4.9186797306
 20
5.3137852534
 30
0.0
 10
4.9000028528
 20
5.3133406623
 30
0.0
 10
4.8860520779
 20
5.3129821849
 30
0.0
 10
4.8763891314
 20
5.3127199624
 30
0.0
 10
4.8672924173
 20
5.3124578357
 30
0.0
 10
4.8587828674
 20
5.3121958226
 30
0.0
 10
4.8508800621
 20
5.3119339652
 30
0.0
 10
4.8436021121
 20
5.3116722852
 30
0.0
 10
4.8369658335
 20
5.31141088
 30
0.0
 10
4.8309863706
 20
5.3111498037
 30
0.0
 10
4.8256775624
 20
5.3108892246
 30
0.0
 10
4.8210514443
 20
5.3106294046
 30
0.0
 10
4.8171186913
 20
5.3103705359
 30
0.0
 10
4.8142796764
 20
5.3101451989
 30
0.0
 10
4.8123624677
 20
5.3099601882
 30
0.0
 10
4.8111907277
 20
5.3098301869
 30
0.0
 10
4.8101978721
 20
5.3097006548
 30
0.0
 10
4.8094832783
 20
5.3095878378
 30
0.0
 10
4.8090021839
 20
5.3094953328
 30
0.0
 10
4.808708112
 20
5.3094302103
 30
0.0
 10
4.8084590102
 20
5.3093653723
 30
0.0
 10
4.8082546032
 20
5.3093006158
 30
0.0
 10
4.8081136501
 20
5.3092442822
 30
0.0
 10
4.8080236702
 20
5.3091972028
 30
0.0
 10
4.8079436254
 20
5.3091469044
 30
0.0
 10
4.8078801429
 20
5.3090839256
 30
0.0
 10
4.8078801429
 20
5.309030725
 30
0.0
  0
LINE
  5
39E
100
AcDbEntity
  8
0
100
AcDbLine
 62
7
  6
CONTINUOUS
 10
5.4162696182
 20
5.3205986966
 11
5.4160204783
 21
5.3205386561
  0
SPLINE
  5
39F
100
AcDbEntity
  8
0
100
AcDbSpline
 62
7
  6
CONTINUOUS
 70
0
 71
3
 72
62
 73
58
 74
0
 42
0.0000001
 43
0.0000001
 44
0.0000000001
 40
0.0
 40
0.0
 40
0.0
 40
0.0
 40
0.0011534709
 40
0.0025869035
 40
0.0043009338
 40
0.0062952089
 40
0.0111215281
 40
0.0170581493
 40
0.0240921893
 40
0.0322087338
 40
0.0413896471
 40
0.0516140822
 40
0.0628593976
 40
0.0750995005
 40
0.1024519547
 40
0.1334224343
 40
0.1677287871
 40
0.2050581716
 40
0.2450701242
 40
0.2873996929
 40
0.3316605732
 40
0.3774489584
 40
0.4243468558
 40
0.4719263052
 40
0.5197530859
 40
0.5673906931
 40
0.614404408
 40
0.6603651262
 40
0.7048533608
 40
0.7474631905
 40
0.7878057952
 40
0.8255131672
 40
0.8602413792
 40
0.8916736998
 40
0.906062996
 40
0.9195237288
 40
0.932024636
 40
0.9435378705
 40
0.9540369466
 40
0.9634982408
 40
0.9719006144
 40
0.9792248637
 40
0.9854555842
 40
0.990578951
 40
0.992722456
 40
0.9945860459
 40
0.9961691434
 40
0.9974717617
 40
0.9980183031
 40
0.9984953871
 40
0.9989035501
 40
0.9992436897
 40
0.9995174185
 40
0.999727939
 40
0.9998116711
 40
0.9998830529
 40
1.0
 40
1.0
 40
1.0
 40
1.0
 10
5.4160204783
 20
5.3205386561
 30
0.0
 10
5.415799823
 20
5.3204889867
 30
0.0
 10
5.4153013433
 20
5.3203937976
 30
0.0
 10
5.4144678038
 20
5.3202650994
 30
0.0
 10
5.4134678346
 20
5.320135788
 30
0.0
 10
5.4118045317
 20
5.3199508208
 30
0.0
 10
5.4093129297
 20
5.3197261919
 30
0.0
 10
5.4058326878
 20
5.3194685989
 30
0.0
 10
5.4017058622
 20
5.319209934
 30
0.0
 10
5.3969418875
 20
5.3189504028
 30
0.0
 10
5.3915515416
 20
5.3186903563
 30
0.0
 10
5.3855470819
 20
5.3184299158
 30
0.0
 10
5.3789422681
 20
5.3181692062
 30
0.0
 10
5.3689803449
 20
5.3178077788
 30
0.0
 10
5.3551512309
 20
5.3173620632
 30
0.0
 10
5.3369955419
 20
5.3168435017
 30
0.0
 10
5.3168828511
 20
5.3163240223
 30
0.0
 10
5.2949967599
 20
5.3158038145
 30
0.0
 10
5.271537049
 20
5.3152831208
 30
0.0
 10
5.2467178809
 20
5.3147620686
 30
0.0
 10
5.2207658182
 20
5.314240762
 30
0.0
 10
5.1939178121
 20
5.3137192753
 30
0.0
 10
5.1664189729
 20
5.3131976683
 30
0.0
 10
5.1385203689
 20
5.3126759916
 30
0.0
 10
5.1104766955
 20
5.3121542902
 30
0.0
 10
5.0825439721
 20
5.3116326076
 30
0.0
 10
5.0549772156
 20
5.3111109887
 30
0.0
 10
5.028028109
 20
5.3105894829
 30
0.0
 10
5.0019426939
 20
5.3100681477
 30
0.0
 10
4.9769591203
 20
5.3095470579
 30
0.0
 10
4.9533054572
 20
5.3090263043
 30
0.0
 10
4.9311976329
 20
5.3085060388
 30
0.0
 10
4.9108374734
 20
5.3079863916
 30
0.0
 10
4.8950492078
 20
5.3075421075
 30
0.0
 10
4.8834304586
 20
5.3071831381
 30
0.0
 10
4.8755226112
 20
5.3069220326
 30
0.0
 10
4.8681790358
 20
5.3066610661
 30
0.0
 10
4.861416579
 20
5.3064003041
 30
0.0
 10
4.8552506111
 20
5.3061397868
 30
0.0
 10
4.8496952108
 20
5.3058796172
 30
0.0
 10
4.8447630769
 20
5.3056199343
 30
0.0
 10
4.8404653364
 20
5.3053610018
 30
0.0
 10
4.8368118561
 20
5.3051030412
 30
0.0
 10
4.8341745603
 20
5.3048784489
 30
0.0
 10
4.8323936979
 20
5.3046940832
 30
0.0
 10
4.8313051732
 20
5.3045645251
 30
0.0
 10
4.8303828378
 20
5.3044354304
 30
0.0
 10
4.8297190993
 20
5.3043230063
 30
0.0
 10
4.8292723197
 20
5.3042308473
 30
0.0
 10
4.828999109
 20
5.3041659682
 30
0.0
 10
4.8287676333
 20
5.3041012786
 30
0.0
 10
4.8285776703
 20
5.3040368763
 30
0.0
 10
4.8284291375
 20
5.303972721
 30
0.0
 10
4.8283325243
 20
5.3039159943
 30
0.0
 10
4.8282782393
 20
5.303868668
 30
0.0
 10
4.8282440129
 20
5.3038277599
 30
0.0
 10
4.8282301479
 20
5.3037907885
 30
0.0
 10
4.8282301582
 20
5.3037678571
 30
0.0
  0
SPLINE
  5
3A0
100
AcDbEntity
  8
0
100
AcDbSpline
 62
7
  6
CONTINUOUS
 70
0
 71
3
 72
30
 73
26
 74
0
 42
0.0000001
 43
0.0000001
 44
0.0000000001
 40
0.0
 40
0.0
 40
0.0
 40
0.0
 40
0.1811743763
 40
0.2709938943
 40
0.3590893104
 40
0.4445669207
 40
0.5265625017
 40
0.6042460519
 40
0.6768316539
 40
0.7435850223
 40
0.8038310814
 40
0.8569609634
 40
0.8806864491
 40
0.902438371
 40
0.9221608453
 40
0.9398054843
 40
0.955327396
 40
0.9686889153
 40
0.9798574853
 40
0.984611067
 40
0.9888077304
 40
0.9924455175
 40
0.995522961
 40
0.998040251
 40
1.0
 40
1.0
 40
1.0
 40
1.0
 10
5.155449561
 20
5.5408928571
 30
0.0
 10
5.1357271425
 20
5.5405232441
 30
0.0
 10
5.1062269664
 20
5.5399766007
 30
0.0
 10
5.0671369785
 20
5.5392423983
 30
0.0
 10
5.0384646112
 20
5.5386934245
 30
0.0
 10
5.0106442538
 20
5.5381446283
 30
0.0
 10
4.9839577408
 20
5.5375960998
 30
0.0
 10
4.9586751838
 20
5.5370479547
 30
0.0
 10
4.9350525679
 20
5.5365003381
 30
0.0
 10
4.9133290342
 20
5.535953523
 30
0.0
 10
4.8937245074
 20
5.535407726
 30
0.0
 10
4.8788045179
 20
5.5349384245
 30
0.0
 10
4.8680751067
 20
5.5345576177
 30
0.0
 10
4.8609815754
 20
5.5342831494
 30
0.0
 10
4.8545506401
 20
5.5340089978
 30
0.0
 10
4.8487986761
 20
5.533735292
 30
0.0
 10
4.8437401119
 20
5.5334622541
 30
0.0
 10
4.839387784
 20
5.5331900553
 30
0.0
 10
4.8362080722
 20
5.5329537044
 30
0.0
 10
4.8340260834
 20
5.5327604566
 30
0.0
 10
4.8326623232
 20
5.5326236884
 30
0.0
 10
4.8314820647
 20
5.5324873122
 30
0.0
 10
4.8304859269
 20
5.5323515653
 30
0.0
 10
4.8296744735
 20
5.5322166248
 30
0.0
 10
4.8291972049
 20
5.5321155684
 30
0.0
 10
4.8289906607
 20
5.5320620177
 30
0.0
  0
SPLINE
  5
3A1
100
AcDbEntity
  8
0
100
AcDbSpline
 62
7
  6
CONTINUOUS
 70
0
 71
3
 72
63
 73
59
 74
0
 42
0.0000001
 43
0.0000001
 44
0.0000000001
 40
0.0
 40
0.0
 40
0.0
 40
0.0
 40
0.0010305488
 40
0.0023428763
 40
0.0039379092
 40
0.0058154627
 40
0.0079749741
 40
0.0104156864
 40
0.0161361879
 40
0.0229645197
 40
0.0308862536
 40
0.0398832882
 40
0.0499354205
 40
0.0610198261
 40
0.0731109087
 40
0.1002008843
 40
0.1309571577
 40
0.1650974078
 40
0.2023081681
 40
0.2422476303
 40
0.284548844
 40
0.3288231691
 40
0.3746637636
 40
0.4216493439
 40
0.4693481802
 40
0.5173217944
 40
0.5651293801
 40
0.6123315063
 40
0.6584944184
 40
0.7031939143
 40
0.7460192019
 40
0.7865768078
 40
0.8244940777
 40
0.8594226492
 40
0.8756647097
 40
0.8910418262
 40
0.9055184197
 40
0.9190613758
 40
0.9316397528
 40
0.9432244591
 40
0.9537894533
 40
0.9633100455
 40
0.9717652419
 40
0.979135424
 40
0.9854046854
 40
0.9905593093
 40
0.9927153186
 40
0.9945893618
 40
0.996180879
 40
0.9974896931
 40
0.9980383526
 40
0.9985168556
 40
0.9989256789
 40
0.9992656229
 40
0.9995381323
 40
0.9996499814
 40
0.9997463072
 40
1.0
 40
1.0
 40
1.0
 40
1.0
 10
5.4365592154
 20
5.3603096947
 30
0.0
 10
5.43634914
 20
5.3602589771
 30
0.0
 10
5.435866989
 20
5.360162857
 30
0.0
 10
5.4350512104
 20
5.3600341214
 30
0.0
 10
5.4340560689
 20
5.3599046692
 30
0.0
 10
5.4328821267
 20
5.3597746521
 30
0.0
 10
5.4315299384
 20
5.3596442892
 30
0.0
 10
5.429373438
 20
5.3594602826
 30
0.0
 10
5.4262380114
 20
5.3592350924
 30
0.0
 10
5.4219530368
 20
5.358975611
 30
0.0
 10
5.4169799159
 20
5.3587153963
 30
0.0
 10
5.4113299847
 20
5.3584545326
 30
0.0
 10
5.4050162162
 20
5.3581932813
 30
0.0
 10
5.3980531255
 20
5.3579317155
 30
0.0
 10
5.3875184584
 20
5.3575687649
 30
0.0
 10
5.3728590438
 20
5.3571213727
 30
0.0
 10
5.3535760332
 20
5.356601161
 30
0.0
 10
5.3321699796
 20
5.3560799867
 30
0.0
 10
5.3088376701
 20
5.3555580517
 30
0.0
 10
5.2837935834
 20
5.3550356102
 30
0.0
 10
5.25726794
 20
5.354512796
 30
0.0
 10
5.2295045786
 20
5.3539897171
 30
0.0
 10
5.2007587197
 20
5.3534664508
 30
0.0
 10
5.1712946116
 20
5.3529430591
 30
0.0
 10
5.1413831315
 20
5.3524195939
 30
0.0
 10
5.1112992473
 20
5.351896101
 30
0.0
 10
5.081319541
 20
5.3513726247
 30
0.0
 10
5.0517196047
 20
5.3508492103
 30
0.0
 10
5.0227715509
 20
5.3503259076
 30
0.0
 10
4.9947414913
 20
5.3498027764
 30
0.0
 10
4.9678870982
 20
5.3492798869
 30
0.0
 10
4.9424552443
 20
5.3487573471
 30
0.0
 10
4.9186797306
 20
5.3482352534
 30
0.0
 10
4.9000028528
 20
5.3477906623
 30
0.0
 10
4.8860520779
 20
5.3474321849
 30
0.0
 10
4.8763891314
 20
5.3471699624
 30
0.0
 10
4.8672924173
 20
5.3469078357
 30
0.0
 10
4.8587828674
 20
5.3466458226
 30
0.0
 10
4.8508800621
 20
5.3463839652
 30
0.0
 10
4.8436021121
 20
5.3461222852
 30
0.0
 10
4.8369658335
 20
5.34586088
 30
0.0
 10
4.8309863706
 20
5.3455998037
 30
0.0
 10
4.8256775624
 20
5.3453392246
 30
0.0
 10
4.8210514443
 20
5.3450794046
 30
0.0
 10
4.8171186913
 20
5.3448205359
 30
0.0
 10
4.8142796764
 20
5.3445951989
 30
0.0
 10
4.8123624677
 20
5.3444101882
 30
0.0
 10
4.8111907277
 20
5.3442801869
 30
0.0
 10
4.8101978721
 20
5.3441506548
 30
0.0
 10
4.8094832783
 20
5.3440378378
 30
0.0
 10
4.8090021839
 20
5.3439453328
 30
0.0
 10
4.808708112
 20
5.3438802103
 30
0.0
 10
4.8084590102
 20
5.3438153723
 30
0.0
 10
4.8082546032
 20
5.3437506158
 30
0.0
 10
4.8081136501
 20
5.3436942822
 30
0.0
 10
4.8080236702
 20
5.3436472028
 30
0.0
 10
4.8079436254
 20
5.3435969044
 30
0.0
 10
4.8078801429
 20
5.3435339256
 30
0.0
 10
4.8078801429
 20
5.343480725
 30
0.0
  0
LINE
  5
3A2
100
AcDbEntity
  8
0
100
AcDbLine
 62
7
  6
CONTINUOUS
 10
5.4162696776
 20
5.3550486965
 11
5.4159782118
 21
5.3549792399
  0
SPLINE
  5
3A3
100
AcDbEntity
  8
0
100
AcDbSpline
 62
7
  6
CONTINUOUS
 70
0
 71
3
 72
62
 73
58
 74
0
 42
0.0000001
 43
0.0000001
 44
0.0000000001
 40
0.0
 40
0.0
 40
0.0
 40
0.0
 40
0.0011730443
 40
0.0026256006
 40
0.004358324
 40
0.0063712126
 40
0.0112339497
 40
0.0172048327
 40
0.0242721248
 40
0.032419758
 40
0.041630272
 40
0.0518825396
 40
0.0631535783
 40
0.0754179805
 40
0.1028127416
 40
0.1338178525
 40
0.1681511376
 40
0.2054999653
 40
0.2455240964
 40
0.2878587113
 40
0.3321179796
 40
0.3778984017
 40
0.4247827054
 40
0.4723435315
 40
0.520147238
 40
0.5677581317
 40
0.6147420224
 40
0.6606707146
 40
0.7051254982
 40
0.7477011782
 40
0.7880097572
 40
0.8256837891
 40
0.8603800326
 40
0.8917824248
 40
0.9061579369
 40
0.9196052202
 40
0.9320940524
 40
0.9435955163
 40
0.9540841948
 40
0.9635357859
 40
0.9719294763
 40
0.9792463978
 40
0.985470397
 40
0.9905888061
 40
0.9927299844
 40
0.9945914471
 40
0.996172879
 40
0.9974743785
 40
0.9980204448
 40
0.9984970459
 40
0.9989047357
 40
0.9992444459
 40
0.9995178219
 40
0.9997280972
 40
0.9998117537
 40
0.9998830906
 40
1.0
 40
1.0
 40
1.0
 40
1.0
 10
5.4159782118
 20
5.3549792399
 30
0.0
 10
5.4157536092
 20
5.3549297165
 30
0.0
 10
5.4152474303
 20
5.3548346797
 30
0.0
 10
5.4144025705
 20
5.3547059871
 30
0.0
 10
5.4133915221
 20
5.3545766941
 30
0.0
 10
5.411713779
 20
5.3543919278
 30
0.0
 10
5.4092047772
 20
5.3541674491
 30
0.0
 10
5.4057043571
 20
5.3539099058
 30
0.0
 10
5.4015584588
 20
5.3536513829
 30
0.0
 10
5.3967763853
 20
5.3533919516
 30
0.0
 10
5.3913690549
 20
5.3531320435
 30
0.0
 10
5.3853487132
 20
5.3528717406
 30
0.0
 10
5.3787291054
 20
5.3526111574
 30
0.0
 10
5.3687497934
 20
5.3522499917
 30
0.0
 10
5.3549018323
 20
5.3518045365
 30
0.0
 10
5.3367271012
 20
5.3512862462
 30
0.0
 10
5.316599999
 20
5.3507670402
 30
0.0
 10
5.2947040317
 20
5.3502471131
 30
0.0
 10
5.2712388538
 20
5.3497267031
 30
0.0
 10
5.2464184483
 20
5.3492059369
 30
0.0
 10
5.220469182
 20
5.3486849174
 30
0.0
 10
5.1936276939
 20
5.3481637186
 30
0.0
 10
5.1661387566
 20
5.3476424006
 30
0.0
 10
5.1382530474
 20
5.3471210137
 30
0.0
 10
5.1102248523
 20
5.3465996026
 30
0.0
 10
5.0823097955
 20
5.346078211
 30
0.0
 10
5.0547624342
 20
5.3455568826
 30
0.0
 10
5.0278339986
 20
5.3450356674
 30
0.0
 10
5.001770039
 20
5.3445146233
 30
0.0
 10
4.9768082322
 20
5.3439938246
 30
0.0
 10
4.9531762161
 20
5.3434733626
 30
0.0
 10
4.9310894974
 20
5.3429533879
 30
0.0
 10
4.9107495114
 20
5.3424340336
 30
0.0
 10
4.8949772486
 20
5.3419899864
 30
0.0
 10
4.8833705632
 20
5.3416312289
 30
0.0
 10
4.8754710066
 20
5.3413702544
 30
0.0
 10
4.8681352843
 20
5.341109453
 30
0.0
 10
4.8613800409
 20
5.3408488191
 30
0.0
 10
4.8552207762
 20
5.3405884607
 30
0.0
 10
4.8496714294
 20
5.3403284347
 30
0.0
 10
4.844744702
 20
5.3400688859
 30
0.0
 10
4.8404517339
 20
5.339810126
 30
0.0
 10
4.8368022532
 20
5.3395522682
 30
0.0
 10
4.8341678953
 20
5.3393278396
 30
0.0
 10
4.8323890109
 20
5.3391435678
 30
0.0
 10
4.8313017682
 20
5.3390140737
 30
0.0
 10
4.8303804661
 20
5.3388850415
 30
0.0
 10
4.8297174132
 20
5.3387726948
 30
0.0
 10
4.8292710718
 20
5.3386805929
 30
0.0
 10
4.8289981621
 20
5.3386157501
 30
0.0
 10
4.8287669769
 20
5.3385510954
 30
0.0
 10
4.828577278
 20
5.3384867268
 30
0.0
 10
4.8284289631
 20
5.3384226036
 30
0.0
 10
4.8283324975
 20
5.3383659041
 30
0.0
 10
4.8282782897
 20
5.3383186075
 30
0.0
 10
4.8282440974
 20
5.3382777169
 30
0.0
 10
4.8282302248
 20
5.3382407795
 30
0.0
 10
4.8282302113
 20
5.3382178572
 30
0.0
  0
SPLINE
  5
3A4
100
AcDbEntity
  8
0
100
AcDbSpline
 62
7
  6
CONTINUOUS
 70
0
 71
3
 72
14
 73
10
 74
0
 42
0.0000001
 43
0.0000001
 44
0.0000000001
 40
0.0
 40
0.0
 40
0.0
 40
0.0
 40
0.1337966718
 40
0.2668479003
 40
0.3989050493
 40
0.5295636589
 40
0.6581058796
 40
0.783093791
 40
1.0
 40
1.0
 40
1.0
 40
1.0
 10
5.1890732908
 20
3.6988060559
 30
0.0
 10
5.1853134419
 20
3.6868137033
 30
0.0
 10
5.1779521452
 20
3.6628525712
 30
0.0
 10
5.1672867971
 20
3.6269316721
 30
0.0
 10
5.1569845995
 20
3.5912117148
 30
0.0
 10
5.1470310419
 20
3.5558329476
 30
0.0
 10
5.1374486168
 20
3.5210402065
 30
0.0
 10
5.1259127254
 20
3.4783828681
 30
0.0
 10
5.1176973655
 20
3.4473359794
 30
0.0
 10
5.112539337
 20
3.4276250197
 30
0.0
  0
SPLINE
  5
3A5
100
AcDbEntity
  8
0
100
AcDbSpline
 62
7
  6
CONTINUOUS
 70
0
 71
3
 72
63
 73
59
 74
0
 42
0.0000001
 43
0.0000001
 44
0.0000000001
 40
0.0
 40
0.0
 40
0.0
 40
0.0
 40
0.0010305439
 40
0.0023428665
 40
0.0039378946
 40
0.0058154434
 40
0.0079749501
 40
0.0104156581
 40
0.0161361513
 40
0.0229644753
 40
0.0308862016
 40
0.0398832294
 40
0.0499353554
 40
0.0610197556
 40
0.0731108327
 40
0.1002007982
 40
0.1309570638
 40
0.1650973053
 40
0.2023080595
 40
0.2422475171
 40
0.2845487262
 40
0.32882305
 40
0.3746636464
 40
0.4216492279
 40
0.469348067
 40
0.5173216871
 40
0.5651292758
 40
0.612331412
 40
0.658494333
 40
0.703193838
 40
0.7460191384
 40
0.7865767516
 40
0.824494031
 40
0.8594226088
 40
0.875664673
 40
0.8910417939
 40
0.9055183912
 40
0.919061351
 40
0.9316397314
 40
0.9432244415
 40
0.9537894395
 40
0.9633100346
 40
0.9717652337
 40
0.9791354181
 40
0.9854046816
 40
0.9905593072
 40
0.992715317
 40
0.9945893606
 40
0.9961808781
 40
0.9974896925
 40
0.9980383522
 40
0.9985168552
 40
0.9989256787
 40
0.9992656228
 40
0.9995381322
 40
0.9996499814
 40
0.9997463072
 40
1.0
 40
1.0
 40
1.0
 40
1.0
 10
5.4365592251
 20
5.3947596971
 30
0.0
 10
5.4363491508
 20
5.3947089794
 30
0.0
 10
5.4358670019
 20
5.3946128593
 30
0.0
 10
5.4350512263
 20
5.3944841237
 30
0.0
 10
5.4340560879
 20
5.3943546714
 30
0.0
 10
5.4328821486
 20
5.3942246543
 30
0.0
 10
5.4315299633
 20
5.3940942915
 30
0.0
 10
5.4293734665
 20
5.3939102848
 30
0.0
 10
5.4262380441
 20
5.3936850946
 30
0.0
 10
5.4219530744
 20
5.3934256131
 30
0.0
 10
5.4169799581
 20
5.3931653983
 30
0.0
 10
5.4113300311
 20
5.3929045346
 30
0.0
 10
5.4050162664
 20
5.3926432833
 30
0.0
 10
5.3980531792
 20
5.3923817174
 30
0.0
 10
5.3875185164
 20
5.3920187668
 30
0.0
 10
5.3728591064
 20
5.3915713745
 30
0.0
 10
5.3535761012
 20
5.3910511628
 30
0.0
 10
5.3321700519
 20
5.3905299884
 30
0.0
 10
5.308837746
 20
5.3900080533
 30
0.0
 10
5.2837936622
 20
5.3894856118
 30
0.0
 10
5.2572680206
 20
5.3889627976
 30
0.0
 10
5.2295046596
 20
5.3884397186
 30
0.0
 10
5.2007587998
 20
5.3879164522
 30
0.0
 10
5.17129469
 20
5.3873930605
 30
0.0
 10
5.1413832073
 20
5.3868695952
 30
0.0
 10
5.1112993202
 20
5.3863461023
 30
0.0
 10
5.0813196095
 20
5.3858226259
 30
0.0
 10
5.0517196681
 20
5.3852992115
 30
0.0
 10
5.022771608
 20
5.3847759086
 30
0.0
 10
4.9947415415
 20
5.3842527773
 30
0.0
 10
4.9678871418
 20
5.3837298878
 30
0.0
 10
4.9424552813
 20
5.3832073479
 30
0.0
 10
4.9186797624
 20
5.3826852541
 30
0.0
 10
4.9000028802
 20
5.382240663
 30
0.0
 10
4.8860521021
 20
5.3818821856
 30
0.0
 10
4.8763891529
 20
5.381619963
 30
0.0
 10
4.8672924362
 20
5.3813578362
 30
0.0
 10
4.8587828839
 20
5.3810958231
 30
0.0
 10
4.8508800762
 20
5.3808339657
 30
0.0
 10
4.8436021237
 20
5.3805722856
 30
0.0
 10
4.8369658429
 20
5.3803108804
 30
0.0
 10
4.8309863778
 20
5.380049804
 30
0.0
 10
4.8256775679
 20
5.3797892249
 30
0.0
 10
4.8210514482
 20
5.3795294049
 30
0.0
 10
4.8171186939
 20
5.3792705361
 30
0.0
 10
4.8142796781
 20
5.3790451991
 30
0.0
 10
4.8123624688
 20
5.3788601883
 30
0.0
 10
4.8111907285
 20
5.378730187
 30
0.0
 10
4.8101978727
 20
5.3786006549
 30
0.0
 10
4.8094832788
 20
5.3784878379
 30
0.0
 10
4.8090021842
 20
5.3783953328
 30
0.0
 10
4.8087081123
 20
5.3783302103
 30
0.0
 10
4.8084590103
 20
5.3782653723
 30
0.0
 10
4.8082546033
 20
5.3782006159
 30
0.0
 10
4.8081136502
 20
5.3781442823
 30
0.0
 10
4.8080236702
 20
5.3780972028
 30
0.0
 10
4.8079436254
 20
5.3780469045
 30
0.0
 10
4.8078801429
 20
5.3779839256
 30
0.0
 10
4.8078801429
 20
5.377930725
 30
0.0
  0
LINE
  5
3A6
100
AcDbEntity
  8
0
100
AcDbLine
 62
7
  6
CONTINUOUS
 10
5.4162697466
 20
5.3894986966
 11
5.4159369823
 21
5.3894202156
  0
SPLINE
  5
3A7
100
AcDbEntity
  8
0
100
AcDbSpline
 62
7
  6
CONTINUOUS
 70
0
 71
3
 72
62
 73
58
 74
0
 42
0.0000001
 43
0.0000001
 44
0.0000000001
 40
0.0
 40
0.0
 40
0.0
 40
0.0
 40
0.0011917355
 40
0.0026628804
 40
0.0044137858
 40
0.0064442606
 40
0.0113415203
 40
0.01734569
 40
0.0244442858
 40
0.032622176
 40
0.0418606508
 40
0.0521396639
 40
0.0634353968
 40
0.0757227799
 40
0.1031580213
 40
0.1341963188
 40
0.1685555901
 40
0.2059230851
 40
0.2459587594
 40
0.2882981069
 40
0.3325556648
 40
0.3783285278
 40
0.4251998336
 40
0.4727428177
 40
0.5205244593
 40
0.5681096385
 40
0.6150650662
 40
0.6609631485
 40
0.7053859404
 40
0.7479289631
 40
0.78820476
 40
0.8258467855
 40
0.8605124217
 40
0.8918863319
 40
0.9062486075
 40
0.919683297
 40
0.9321600979
 40
0.943650796
 40
0.9541290448
 40
0.9635717412
 40
0.9719569871
 40
0.979266774
 40
0.9854846562
 40
0.9905977863
 40
0.9927370683
 40
0.9945967582
 40
0.9961764556
 40
0.9974765101
 40
0.9980220437
 40
0.9984982651
 40
0.9989056827
 40
0.9992451678
 40
0.9995183152
 40
0.9997283668
 40
0.9998119262
 40
0.999883183
 40
1.0
 40
1.0
 40
1.0
 40
1.0
 10
5.4159369823
 20
5.3894202156
 30
0.0
 10
5.4157086175
 20
5.3893708216
 30
0.0
 10
5.4151950271
 20
5.3892759246
 30
0.0
 10
5.41433923
 20
5.3891472569
 30
0.0
 10
5.4133175111
 20
5.389018
 30
0.0
 10
5.4116260109
 20
5.3888333876
 30
0.0
 10
5.4091003752
 20
5.3886090441
 30
0.0
 10
5.4055807172
 20
5.3883516037
 30
0.0
 10
5.4014164826
 20
5.3880931578
 30
0.0
 10
5.3966171685
 20
5.387833874
 30
0.0
 10
5.3911935459
 20
5.3875740626
 30
0.0
 10
5.3851580492
 20
5.3873139077
 30
0.0
 10
5.3785243104
 20
5.3870534476
 30
0.0
 10
5.3685284118
 20
5.3866925216
 30
0.0
 10
5.354662479
 20
5.3862473227
 30
0.0
 10
5.3364694997
 20
5.3857292908
 30
0.0
 10
5.3163285691
 20
5.3852103492
 30
0.0
 10
5.2944231458
 20
5.384690691
 30
0.0
 10
5.2709527929
 20
5.3841705523
 30
0.0
 10
5.2461313062
 20
5.3836500594
 30
0.0
 10
5.2201847857
 20
5.3831293149
 30
0.0
 10
5.1933495842
 20
5.3826083924
 30
0.0
 10
5.1658701433
 20
5.3820873517
 30
0.0
 10
5.1379968033
 20
5.3815662427
 30
0.0
 10
5.1099834813
 20
5.3810451098
 30
0.0
 10
5.0820853721
 20
5.3805239963
 30
0.0
 10
5.0545566076
 20
5.3800029466
 30
0.0
 10
5.0276479553
 20
5.3794820104
 30
0.0
 10
5.0016045397
 20
5.3789612455
 30
0.0
 10
4.9766636238
 20
5.3784407263
 30
0.0
 10
4.9530524064
 20
5.3779205429
 30
0.0
 10
4.9309859739
 20
5.3774008461
 30
0.0
 10
4.9106653059
 20
5.3768817701
 30
0.0
 10
4.8949083538
 20
5.3764379586
 30
0.0
 10
4.8833131489
 20
5.376079392
 30
0.0
 10
4.8754215816
 20
5.3758185622
 30
0.0
 10
4.8680933244
 20
5.3755578892
 30
0.0
 10
4.8613450791
 20
5.3752974147
 30
0.0
 10
4.8551921566
 20
5.3750371725
 30
0.0
 10
4.8496486511
 20
5.37477731
 30
0.0
 10
4.8447270763
 20
5.3745178836
 30
0.0
 10
4.8404386702
 20
5.3742592667
 30
0.0
 10
4.8367930832
 20
5.3740015639
 30
0.0
 10
4.834161524
 20
5.3737772216
 30
0.0
 10
4.8323845196
 20
5.3735930731
 30
0.0
 10
4.8312984137
 20
5.3734636549
 30
0.0
 10
4.8303781505
 20
5.3733346839
 30
0.0
 10
4.829715876
 20
5.373222389
 30
0.0
 10
4.8292700298
 20
5.3731303372
 30
0.0
 10
4.8289973708
 20
5.3730655311
 30
0.0
 10
4.8287663715
 20
5.3730009149
 30
0.0
 10
4.828576824
 20
5.3729365871
 30
0.0
 10
4.8284286502
 20
5.372872501
 30
0.0
 10
4.8283323018
 20
5.3728158272
 30
0.0
 10
4.8282781858
 20
5.3727685528
 30
0.0
 10
4.828244062
 20
5.3727276767
 30
0.0
 10
4.8282302471
 20
5.3726907596
 30
0.0
 10
4.8282302539
 20
5.3726678571
 30
0.0
  0
SPLINE
  5
3A8
100
AcDbEntity
  8
0
100
AcDbSpline
 62
7
  6
CONTINUOUS
 70
0
 71
3
 72
39
 73
35
 74
0
 42
0.0000001
 43
0.0000001
 44
0.0000000001
 40
0.0
 40
0.0
 40
0.0
 40
0.0
 40
0.0946363783
 40
0.1892554026
 40
0.2828187957
 40
0.3743076388
 40
0.4627211429
 40
0.5470939832
 40
0.626504513
 40
0.7000855403
 40
0.7344364359
 40
0.7670337145
 40
0.7977893848
 40
0.8266184875
 40
0.853443336
 40
0.8781900899
 40
0.9007920407
 40
0.9211873491
 40
0.9393210184
 40
0.9551443605
 40
0.9686150587
 40
0.9796988483
 40
0.9843365848
 40
0.9883685254
 40
0.9917931104
 40
0.9946095439
 40
0.995790065
 40
0.9968194504
 40
0.9976986742
 40
0.9984293842
 40
0.9990145749
 40
0.9992544403
 40
0.9994607175
 40
1.0
 40
1.0
 40
1.0
 40
1.0
 10
5.152780251
 20
5.5196428571
 30
0.0
 10
5.1425345688
 20
5.5194510336
 30
0.0
 10
5.1220450445
 20
5.5190694807
 30
0.0
 10
5.0914259866
 20
5.5184991758
 30
0.0
 10
5.0611478102
 20
5.5179289389
 30
0.0
 10
5.031541702
 20
5.5173588507
 30
0.0
 10
5.0029309561
 20
5.5167889913
 30
0.0
 10
4.9756283436
 20
5.5162194855
 30
0.0
 10
4.9499321892
 20
5.515650448
 30
0.0
 10
4.9296520111
 20
5.5151664303
 30
0.0
 10
4.914440139
 20
5.514776134
 30
0.0
 10
4.9038643679
 20
5.5144902265
 30
0.0
 10
4.893886738
 20
5.5142044412
 30
0.0
 10
4.8845344307
 20
5.5139187656
 30
0.0
 10
4.875833103
 20
5.5136332654
 30
0.0
 10
4.8678064508
 20
5.5133479619
 30
0.0
 10
4.8604764725
 20
5.5130629433
 30
0.0
 10
4.8538631515
 20
5.5127783055
 30
0.0
 10
4.8479845687
 20
5.5124941792
 30
0.0
 10
4.842856726
 20
5.5122109219
 30
0.0
 10
4.838493565
 20
5.5119286637
 30
0.0
 10
4.8353419254
 20
5.5116830128
 30
0.0
 10
4.8332124517
 20
5.5114813027
 30
0.0
 10
4.8319104826
 20
5.5113395519
 30
0.0
 10
4.8308070363
 20
5.5111983208
 30
0.0
 10
4.8300126893
 20
5.5110753353
 30
0.0
 10
4.8294778038
 20
5.5109744874
 30
0.0
 10
4.8291508539
 20
5.5109034947
 30
0.0
 10
4.8288739024
 20
5.5108328162
 30
0.0
 10
4.8286466352
 20
5.5107622224
 30
0.0
 10
4.8284899077
 20
5.5107008154
 30
0.0
 10
4.82838978
 20
5.5106494511
 30
0.0
 10
4.8283012095
 20
5.5105948576
 30
0.0
 10
4.8282301406
 20
5.5105262521
 30
0.0
 10
4.8282301429
 20
5.5104678571
 30
0.0
  0
SPLINE
  5
3A9
100
AcDbEntity
  8
0
100
AcDbSpline
 62
7
  6
CONTINUOUS
 70
0
 71
3
 72
63
 73
59
 74
0
 42
0.0000001
 43
0.0000001
 44
0.0000000001
 40
0.0
 40
0.0
 40
0.0
 40
0.0
 40
0.0010305488
 40
0.0023428763
 40
0.0039379092
 40
0.0058154627
 40
0.0079749741
 40
0.0104156864
 40
0.0161361879
 40
0.0229645197
 40
0.0308862536
 40
0.0398832882
 40
0.0499354205
 40
0.0610198261
 40
0.0731109087
 40
0.1002008843
 40
0.1309571577
 40
0.1650974078
 40
0.2023081681
 40
0.2422476303
 40
0.284548844
 40
0.3288231691
 40
0.3746637636
 40
0.4216493439
 40
0.4693481802
 40
0.5173217944
 40
0.5651293801
 40
0.6123315063
 40
0.6584944184
 40
0.7031939143
 40
0.7460192019
 40
0.7865768078
 40
0.8244940777
 40
0.8594226492
 40
0.8756647097
 40
0.8910418262
 40
0.9055184197
 40
0.9190613758
 40
0.9316397528
 40
0.9432244591
 40
0.9537894533
 40
0.9633100455
 40
0.9717652419
 40
0.979135424
 40
0.9854046854
 40
0.9905593093
 40
0.9927153186
 40
0.9945893618
 40
0.996180879
 40
0.9974896931
 40
0.9980383526
 40
0.9985168556
 40
0.9989256789
 40
0.9992656229
 40
0.9995381323
 40
0.9996499814
 40
0.9997463072
 40
1.0
 40
1.0
 40
1.0
 40
1.0
 10
5.4365592154
 20
5.1191596947
 30
0.0
 10
5.43634914
 20
5.1191089771
 30
0.0
 10
5.435866989
 20
5.119012857
 30
0.0
 10
5.4350512104
 20
5.1188841214
 30
0.0
 10
5.4340560689
 20
5.1187546692
 30
0.0
 10
5.4328821267
 20
5.1186246521
 30
0.0
 10
5.4315299384
 20
5.1184942892
 30
0.0
 10
5.429373438
 20
5.1183102826
 30
0.0
 10
5.4262380114
 20
5.1180850924
 30
0.0
 10
5.4219530368
 20
5.117825611
 30
0.0
 10
5.4169799159
 20
5.1175653963
 30
0.0
 10
5.4113299847
 20
5.1173045326
 30
0.0
 10
5.4050162162
 20
5.1170432813
 30
0.0
 10
5.3980531255
 20
5.1167817155
 30
0.0
 10
5.3875184584
 20
5.1164187649
 30
0.0
 10
5.3728590438
 20
5.1159713727
 30
0.0
 10
5.3535760332
 20
5.115451161
 30
0.0
 10
5.3321699796
 20
5.1149299867
 30
0.0
 10
5.3088376701
 20
5.1144080517
 30
0.0
 10
5.2837935834
 20
5.1138856102
 30
0.0
 10
5.25726794
 20
5.113362796
 30
0.0
 10
5.2295045786
 20
5.1128397171
 30
0.0
 10
5.2007587197
 20
5.1123164508
 30
0.0
 10
5.1712946116
 20
5.1117930591
 30
0.0
 10
5.1413831315
 20
5.1112695939
 30
0.0
 10
5.1112992473
 20
5.110746101
 30
0.0
 10
5.081319541
 20
5.1102226247
 30
0.0
 10
5.0517196047
 20
5.1096992103
 30
0.0
 10
5.0227715509
 20
5.1091759076
 30
0.0
 10
4.9947414913
 20
5.1086527764
 30
0.0
 10
4.9678870982
 20
5.1081298869
 30
0.0
 10
4.9424552443
 20
5.1076073471
 30
0.0
 10
4.9186797306
 20
5.1070852534
 30
0.0
 10
4.9000028528
 20
5.1066406623
 30
0.0
 10
4.8860520779
 20
5.1062821849
 30
0.0
 10
4.8763891314
 20
5.1060199624
 30
0.0
 10
4.8672924173
 20
5.1057578357
 30
0.0
 10
4.8587828674
 20
5.1054958226
 30
0.0
 10
4.8508800621
 20
5.1052339652
 30
0.0
 10
4.8436021121
 20
5.1049722852
 30
0.0
 10
4.8369658335
 20
5.10471088
 30
0.0
 10
4.8309863706
 20
5.1044498037
 30
0.0
 10
4.8256775624
 20
5.1041892246
 30
0.0
 10
4.8210514443
 20
5.1039294046
 30
0.0
 10
4.8171186913
 20
5.1036705359
 30
0.0
 10
4.8142796764
 20
5.1034451989
 30
0.0
 10
4.8123624677
 20
5.1032601882
 30
0.0
 10
4.8111907277
 20
5.1031301869
 30
0.0
 10
4.8101978721
 20
5.1030006548
 30
0.0
 10
4.8094832783
 20
5.1028878378
 30
0.0
 10
4.8090021839
 20
5.1027953328
 30
0.0
 10
4.808708112
 20
5.1027302103
 30
0.0
 10
4.8084590102
 20
5.1026653723
 30
0.0
 10
4.8082546032
 20
5.1026006158
 30
0.0
 10
4.8081136501
 20
5.1025442822
 30
0.0
 10
4.8080236702
 20
5.1024972028
 30
0.0
 10
4.8079436254
 20
5.1024469044
 30
0.0
 10
4.8078801429
 20
5.1023839256
 30
0.0
 10
4.8078801429
 20
5.102330725
 30
0.0
  0
SPLINE
  5
3AA
100
AcDbEntity
  8
0
100
AcDbSpline
 62
7
  6
CONTINUOUS
 70
0
 71
3
 72
30
 73
26
 74
0
 42
0.0000001
 43
0.0000001
 44
0.0000000001
 40
0.0
 40
0.0
 40
0.0
 40
0.0
 40
0.181647294
 40
0.2715942389
 40
0.3597566469
 40
0.4452498597
 40
0.5272193662
 40
0.604844728
 40
0.6773495858
 40
0.7440085609
 40
0.8041553186
 40
0.8571886653
 40
0.8808693874
 40
0.9025795654
 40
0.9222647822
 40
0.9398762325
 40
0.95537092
 40
0.9687103026
 40
0.9798636611
 40
0.9846119018
 40
0.988804694
 40
0.9924404433
 40
0.9955179904
 40
0.9980370622
 40
1.0
 40
1.0
 40
1.0
 40
1.0
 10
5.152780251
 20
5.5063928571
 30
0.0
 10
5.1331679684
 20
5.5060256685
 30
0.0
 10
5.1038440959
 20
5.5054822925
 30
0.0
 10
5.0650015771
 20
5.5047519238
 30
0.0
 10
5.036540909
 20
5.5042060355
 30
0.0
 10
5.0089418667
 20
5.5036603256
 30
0.0
 10
4.9824809231
 20
5.5031148839
 30
0.0
 10
4.9574228686
 20
5.5025698241
 30
0.0
 10
4.9340185696
 20
5.502025291
 30
0.0
 10
4.9125022756
 20
5.5014815538
 30
0.0
 10
4.8930893802
 20
5.5009388302
 30
0.0
 10
4.8783173731
 20
5.5004721528
 30
0.0
 10
4.8676954728
 20
5.5000934938
 30
0.0
 10
4.8606733235
 20
5.4998205667
 30
0.0
 10
4.8543071072
 20
5.4995479763
 30
0.0
 10
4.8486127504
 20
5.4992757968
 30
0.0
 10
4.8436044962
 20
5.4990043181
 30
0.0
 10
4.8392947739
 20
5.4987336267
 30
0.0
 10
4.8361457172
 20
5.4984986285
 30
0.0
 10
4.8339842525
 20
5.4983064887
 30
0.0
 10
4.8326328957
 20
5.4981704849
 30
0.0
 10
4.8314629567
 20
5.4980348638
 30
0.0
 10
4.8304750255
 20
5.4978998805
 30
0.0
 10
4.8296697057
 20
5.4977656962
 30
0.0
 10
4.8291958429
 20
5.4976652255
 30
0.0
 10
4.8289906558
 20
5.4976120176
 30
0.0
  0
SPLINE
  5
3AB
100
AcDbEntity
  8
0
100
AcDbSpline
 62
7
  6
CONTINUOUS
 70
0
 71
3
 72
63
 73
59
 74
0
 42
0.0000001
 43
0.0000001
 44
0.0000000001
 40
0.0
 40
0.0
 40
0.0
 40
0.0
 40
0.0010295223
 40
0.0023401752
 40
0.0039331657
 40
0.0058084301
 40
0.0079654637
 40
0.0104035399
 40
0.016118587
 40
0.0229413675
 40
0.0308574218
 40
0.0398489942
 40
0.049895576
 40
0.0609747772
 40
0.0730606972
 40
0.1001411657
 40
0.1308888585
 40
0.1650215341
 40
0.2022258102
 40
0.2421599239
 40
0.2844569361
 40
0.3287282574
 40
0.374566875
 40
0.4215515545
 40
0.4692503225
 40
0.5172247897
 40
0.5650340114
 40
0.6122384823
 40
0.6584043725
 40
0.7031072503
 40
0.7459362824
 40
0.7864978968
 40
0.824419384
 40
0.8593523973
 40
0.8909761222
 40
0.9054548795
 40
0.9190002529
 40
0.9315806422
 40
0.9431678698
 40
0.9537348663
 40
0.9632579637
 40
0.9717154308
 40
0.9790881195
 40
0.9853601605
 40
0.9905175873
 40
0.992675412
 40
0.9945514092
 40
0.9961449408
 40
0.9974561584
 40
0.9980063144
 40
0.998486544
 40
0.9988973741
 40
0.9992396938
 40
0.9995151082
 40
0.9997268181
 40
0.9998109648
 40
0.9998826555
 40
1.0
 40
1.0
 40
1.0
 40
1.0
 10
5.4162696369
 20
5.1138986966
 30
0.0
 10
5.4160741428
 20
5.1138480016
 30
0.0
 10
5.4156248911
 20
5.1137518808
 30
0.0
 10
5.4148640611
 20
5.1136231352
 30
0.0
 10
5.4139354553
 20
5.1134936682
 30
0.0
 10
5.4128395909
 20
5.1133636336
 30
0.0
 10
5.4115769792
 20
5.11323325
 30
0.0
 10
5.4095628045
 20
5.1130492037
 30
0.0
 10
5.4066335102
 20
5.1128239837
 30
0.0
 10
5.4026294426
 20
5.1125644836
 30
0.0
 10
5.3979815075
 20
5.1123042368
 30
0.0
 10
5.392700344
 20
5.1120433526
 30
0.0
 10
5.386798017
 20
5.1117820642
 30
0.0
 10
5.3802881547
 20
5.111520477
 30
0.0
 10
5.3704382077
 20
5.1111574725
 30
0.0
 10
5.3567304873
 20
5.1107100298
 30
0.0
 10
5.3386981132
 20
5.1101897617
 30
0.0
 10
5.3186790497
 20
5.1096685312
 30
0.0
 10
5.2968573637
 20
5.109146539
 30
0.0
 10
5.2734336776
 20
5.1086240397
 30
0.0
 10
5.2486233428
 20
5.1081011676
 30
0.0
 10
5.2226544899
 20
5.1075780307
 30
0.0
 10
5.1957658874
 20
5.1070547062
 30
0.0
 10
5.1682048056
 20
5.1065312561
 30
0.0
 10
5.140224664
 20
5.106007732
 30
0.0
 10
5.1120827455
 20
5.1054841803
 30
0.0
 10
5.0840378092
 20
5.1049606451
 30
0.0
 10
5.0563477203
 20
5.1044371719
 30
0.0
 10
5.0292671078
 20
5.1039138108
 30
0.0
 10
5.0030449811
 20
5.1033906198
 30
0.0
 10
4.9779224601
 20
5.1028676741
 30
0.0
 10
4.9541305312
 20
5.1023450649
 30
0.0
 10
4.9318879384
 20
5.101822945
 30
0.0
 10
4.911399186
 20
5.1013014449
 30
0.0
 10
4.8955087709
 20
5.1008555919
 30
0.0
 10
4.8838132594
 20
5.1004953563
 30
0.0
 10
4.8758522219
 20
5.1002333165
 30
0.0
 10
4.8684587362
 20
5.0999714148
 30
0.0
 10
4.8616499017
 20
5.0997097238
 30
0.0
 10
4.855441284
 20
5.0994482688
 30
0.0
 10
4.8498472066
 20
5.0991871762
 30
0.0
 10
4.8448804888
 20
5.0989265571
 30
0.0
 10
4.8405524576
 20
5.0986667035
 30
0.0
 10
4.836873093
 20
5.0984078198
 30
0.0
 10
4.8342170488
 20
5.0981824207
 30
0.0
 10
4.832423482
 20
5.0979974005
 30
0.0
 10
4.8313271898
 20
5.0978673832
 30
0.0
 10
4.8303982826
 20
5.0977378201
 30
0.0
 10
4.8297298089
 20
5.0976249935
 30
0.0
 10
4.8292798179
 20
5.0975325059
 30
0.0
 10
4.8290046356
 20
5.0974673956
 30
0.0
 10
4.8287714877
 20
5.0974024761
 30
0.0
 10
4.8285801557
 20
5.0973378473
 30
0.0
 10
4.8284305635
 20
5.0972734679
 30
0.0
 10
4.8283332585
 20
5.0972165443
 30
0.0
 10
4.8282785875
 20
5.0971690383
 30
0.0
 10
4.8282441422
 20
5.0971279988
 30
0.0
 10
4.8282301726
 20
5.0970908764
 30
0.0
 10
4.828230186
 20
5.0970678571
 30
0.0
  0
SPLINE
  5
3AC
100
AcDbEntity
  8
0
100
AcDbSpline
 62
7
  6
CONTINUOUS
 70
0
 71
3
 72
20
 73
16
 74
0
 42
0.0000001
 43
0.0000001
 44
0.0000000001
 40
0.0
 40
0.0
 40
0.0
 40
0.0
 40
0.2280399651
 40
0.4263428567
 40
0.5948217436
 40
0.733428161
 40
0.7915384474
 40
0.8422114898
 40
0.885499221
 40
0.9214886744
 40
0.9503351848
 40
0.9723486727
 40
0.981007232
 40
0.9883032461
 40
1.0
 40
1.0
 40
1.0
 40
1.0
 10
4.8344056118
 20
5.1326428571
 30
0.0
 10
4.8339243708
 20
5.1325988683
 30
0.0
 10
4.833025055
 20
5.1325119924
 30
0.0
 10
4.8317721753
 20
5.1323729683
 30
0.0
 10
4.8307101257
 20
5.1322344012
 30
0.0
 10
4.8299455027
 20
5.1321137529
 30
0.0
 10
4.8294306221
 20
5.1320148166
 30
0.0
 10
4.8291159132
 20
5.1319451916
 30
0.0
 10
4.8288493542
 20
5.1318757794
 30
0.0
 10
4.828630685
 20
5.1318067186
 30
0.0
 10
4.8284598179
 20
5.1317379416
 30
0.0
 10
4.8283485005
 20
5.1316771816
 30
0.0
 10
4.8282857456
 20
5.1316262295
 30
0.0
 10
4.8282465558
 20
5.1315827623
 30
0.0
 10
4.8282301303
 20
5.1315426441
 30
0.0
 10
4.8282301288
 20
5.1315178571
 30
0.0
  0
LINE
  5
3AD
100
AcDbEntity
  8
0
100
AcDbLine
 62
7
  6
CONTINUOUS
 10
4.8344056118
 20
5.1193928571
 11
4.828990519
 21
5.1186620175
  0
SPLINE
  5
3AE
100
AcDbEntity
  8
0
100
AcDbSpline
 62
7
  6
CONTINUOUS
 70
0
 71
3
 72
63
 73
59
 74
0
 42
0.0000001
 43
0.0000001
 44
0.0000000001
 40
0.0
 40
0.0
 40
0.0
 40
0.0
 40
0.0001173503
 40
0.0001890525
 40
0.0002732121
 40
0.0004849357
 40
0.000760347
 40
0.0011026511
 40
0.0015134589
 40
0.001993666
 40
0.0025438055
 40
0.0038550342
 40
0.0054486313
 40
0.0073246264
 40
0.0094824126
 40
0.0146398493
 40
0.0209118961
 40
0.0282845241
 40
0.0367420686
 40
0.0462651089
 40
0.0568321719
 40
0.0684193407
 40
0.0809997339
 40
0.0945451256
 40
0.1090238513
 40
0.1406475706
 40
0.1755805932
 40
0.2135021144
 40
0.2540637288
 40
0.2968927537
 40
0.3415956481
 40
0.3877614829
 40
0.4349660127
 40
0.482775204
 40
0.5307496875
 40
0.578448471
 40
0.6254330977
 40
0.6712717828
 40
0.7155430636
 40
0.7578401311
 40
0.7977742263
 40
0.8349784796
 40
0.8691111578
 40
0.8998588138
 40
0.9269393105
 40
0.9390252559
 40
0.9501044703
 40
0.9601510056
 40
0.9691426406
 40
0.9770586197
 40
0.9838814724
 40
0.9895964656
 40
0.9920345334
 40
0.9941916045
 40
0.9960669019
 40
0.9976598712
 40
0.9989704647
 40
1.0
 40
1.0
 40
1.0
 40
1.0
 10
5.4170301202
 20
5.4110928572
 30
0.0
 10
5.4170301321
 20
5.4110698367
 30
0.0
 10
5.4170161539
 20
5.4110327124
 30
0.0
 10
5.4169816959
 20
5.4109916763
 30
0.0
 10
5.4169270134
 20
5.4109441725
 30
0.0
 10
5.4168297041
 20
5.4108872485
 30
0.0
 10
5.4166801132
 20
5.4108228681
 30
0.0
 10
5.41648879
 20
5.4107582386
 30
0.0
 10
5.4162556545
 20
5.4106933187
 30
0.0
 10
5.4159804846
 20
5.4106282083
 30
0.0
 10
5.4155304995
 20
5.4105357192
 30
0.0
 10
5.4148620138
 20
5.4104228927
 30
0.0
 10
5.413933091
 20
5.4102933354
 30
0.0
 10
5.4128367943
 20
5.410163315
 30
0.0
 10
5.4110432339
 20
5.4099782911
 30
0.0
 10
5.408387194
 20
5.4097528951
 30
0.0
 10
5.4047078383
 20
5.4094940125
 30
0.0
 10
5.400379803
 20
5.4092341545
 30
0.0
 10
5.3954130929
 20
5.4089735419
 30
0.0
 10
5.3898189988
 20
5.4087124428
 30
0.0
 10
5.3836103908
 20
5.4084509929
 30
0.0
 10
5.3768015543
 20
5.4081892985
 30
0.0
 10
5.3694080758
 20
5.4079273984
 30
0.0
 10
5.3614470403
 20
5.407665359
 30
0.0
 10
5.3497515328
 20
5.4073051217
 30
0.0
 10
5.3338611234
 20
5.4068592697
 30
0.0
 10
5.3133723639
 20
5.4063377695
 30
0.0
 10
5.2911297631
 20
5.4058156497
 30
0.0
 10
5.2673378294
 20
5.4052930405
 30
0.0
 10
5.242215307
 20
5.4047700947
 30
0.0
 10
5.2159931898
 20
5.4042469037
 30
0.0
 10
5.1889125739
 20
5.4037235424
 30
0.0
 10
5.1612224908
 20
5.4032000694
 30
0.0
 10
5.1331775462
 20
5.4026765342
 30
0.0
 10
5.1050356279
 20
5.4021529824
 30
0.0
 10
5.077055491
 20
5.4016294584
 30
0.0
 10
5.0494944039
 20
5.4011060081
 30
0.0
 10
5.0226058069
 20
5.4005826837
 30
0.0
 10
4.9966369383
 20
5.4000595468
 30
0.0
 10
4.9718266047
 20
5.3995366747
 30
0.0
 10
4.9484029163
 20
5.3990141756
 30
0.0
 10
4.9265812383
 20
5.398492183
 30
0.0
 10
4.9065621864
 20
5.3979709527
 30
0.0
 10
4.8885298139
 20
5.3974506842
 30
0.0
 10
4.8748220904
 20
5.3970032416
 30
0.0
 10
4.8649721304
 20
5.396640237
 30
0.0
 10
4.8584622697
 20
5.3963786516
 30
0.0
 10
4.8525599372
 20
5.3961173591
 30
0.0
 10
4.8472787852
 20
5.3958564814
 30
0.0
 10
4.8426308389
 20
5.3955962265
 30
0.0
 10
4.8386267821
 20
5.395336734
 30
0.0
 10
4.8356974861
 20
5.3951115101
 30
0.0
 10
4.8336833165
 20
5.3949274627
 30
0.0
 10
4.8324206923
 20
5.3947970807
 30
0.0
 10
4.831324818
 20
5.394667048
 30
0.0
 10
4.8303962214
 20
5.3945375825
 30
0.0
 10
4.829635406
 20
5.3944088295
 30
0.0
 10
4.8291861633
 20
5.3943127113
 30
0.0
 10
4.8289906663
 20
5.3942620176
 30
0.0
  0
SPLINE
  5
3AF
100
AcDbEntity
  8
0
100
AcDbSpline
 62
7
  6
CONTINUOUS
 70
0
 71
3
 72
43
 73
39
 74
0
 42
0.0000001
 43
0.0000001
 44
0.0000000001
 40
0.0
 40
0.0
 40
0.0
 40
0.0
 40
0.0001050661
 40
0.0002263949
 40
0.0003749753
 40
0.0005569162
 40
0.001032387
 40
0.0016666138
 40
0.0024647015
 40
0.0034291083
 40
0.0045610751
 40
0.0058611124
 40
0.0073294085
 40
0.0089659735
 40
0.0127433862
 40
0.0171917943
 40
0.0223077976
 40
0.0280866129
 40
0.0345232306
 40
0.0493465043
 40
0.0667210862
 40
0.0865818586
 40
0.1088521512
 40
0.1334469367
 40
0.1602715102
 40
0.1892224921
 40
0.2201888481
 40
0.2530506427
 40
0.2876818847
 40
0.3239484485
 40
0.4008238083
 40
0.4824920069
 40
0.5676945479
 40
0.6551182868
 40
0.7434155872
 40
0.8312264245
 40
0.9171948616
 40
1.0
 40
1.0
 40
1.0
 40
1.0
 10
5.4170300921
 20
4.7565428571
 30
0.0
 10
5.4170300833
 20
4.7565283575
 30
0.0
 10
5.4170229325
 20
4.7564969187
 30
0.0
 10
5.4169937369
 20
4.7564533208
 30
0.0
 10
5.4169476121
 20
4.7564108216
 30
0.0
 10
5.4168547532
 20
4.7563490511
 30
0.0
 10
5.4166913625
 20
4.7562756496
 30
0.0
 10
5.4164413988
 20
4.7561926745
 30
0.0
 10
5.4161211283
 20
4.7561091777
 30
0.0
 10
5.4157305477
 20
4.7560251898
 30
0.0
 10
5.4152693979
 20
4.755940933
 30
0.0
 10
5.4147377732
 20
4.7558564691
 30
0.0
 10
5.4141357674
 20
4.7557718568
 30
0.0
 10
5.4131934038
 20
4.755653153
 30
0.0
 10
5.411840086
 20
4.7555073024
 30
0.0
 10
5.4100065251
 20
4.7553388888
 30
0.0
 10
5.4078957887
 20
4.7551700824
 30
0.0
 10
5.405509936
 20
4.7550009172
 30
0.0
 10
5.4017859875
 20
4.7547637742
 30
0.0
 10
5.3964621146
 20
4.7544725627
 30
0.0
 10
5.3892856309
 20
4.7541359551
 30
0.0
 10
5.3810804749
 20
4.7537985474
 30
0.0
 10
5.3718781874
 20
4.753460448
 30
0.0
 10
5.3617142958
 20
4.7531219198
 30
0.0
 10
5.3506279849
 20
4.7527830582
 30
0.0
 10
5.3386619973
 20
4.752443947
 30
0.0
 10
5.3258625397
 20
4.7521046547
 30
0.0
 10
5.3122789259
 20
4.7517652061
 30
0.0
 10
5.2979636461
 20
4.751425645
 30
0.0
 10
5.2775754962
 20
4.7509637578
 30
0.0
 10
5.2506968866
 20
4.7503912244
 30
0.0
 10
5.2170655731
 20
4.7497160459
 30
0.0
 10
5.1819782645
 20
4.7490404127
 30
0.0
 10
5.1459759513
 20
4.7483644955
 30
0.0
 10
5.109613621
 20
4.7476884765
 30
0.0
 10
5.0734521623
 20
4.7470125176
 30
0.0
 10
5.0380487774
 20
4.746336777
 30
0.0
 10
5.014761808
 20
4.7458756018
 30
0.0
 10
5.0033366876
 20
4.7456428571
 30
0.0
  0
SPLINE
  5
3B0
100
AcDbEntity
  8
0
100
AcDbSpline
 62
7
  6
CONTINUOUS
 70
0
 71
3
 72
63
 73
59
 74
0
 42
0.0000001
 43
0.0000001
 44
0.0000000001
 40
0.0
 40
0.0
 40
0.0
 40
0.0
 40
0.0001173533
 40
0.0001890375
 40
0.0002731611
 40
0.0004847795
 40
0.0007600918
 40
0.0011023634
 40
0.0015132148
 40
0.0019935112
 40
0.0025437537
 40
0.003855097
 40
0.0054485254
 40
0.0073243361
 40
0.0094822186
 40
0.0146398722
 40
0.0209116176
 40
0.0282845753
 40
0.0367418258
 40
0.0462650512
 40
0.0568320453
 40
0.0684191645
 40
0.0809997561
 40
0.0945448887
 40
0.1090238665
 40
0.1406475061
 40
0.1755804517
 40
0.2135018911
 40
0.2540635527
 40
0.2968926339
 40
0.3415955693
 40
0.3877614195
 40
0.434965871
 40
0.4827750739
 40
0.5307495543
 40
0.5784483472
 40
0.6254330024
 40
0.6712715831
 40
0.7155428523
 40
0.7578399004
 40
0.7977740547
 40
0.8349784164
 40
0.8691111083
 40
0.8998587343
 40
0.9269390779
 40
0.9390251817
 40
0.9501041404
 40
0.9601510067
 40
0.9691423479
 40
0.9770585417
 40
0.9838812789
 40
0.9895962257
 40
0.9920345149
 40
0.9941915447
 40
0.9960666465
 40
0.9976595291
 40
0.9989703154
 40
1.0
 40
1.0
 40
1.0
 40
1.0
 10
5.4170300259
 20
5.4455428572
 30
0.0
 10
5.417030028
 20
5.4455198361
 30
0.0
 10
5.4170160518
 20
5.4454827203
 30
0.0
 10
5.4169816156
 20
5.4454416789
 30
0.0
 10
5.4169269755
 20
5.4453941742
 30
0.0
 10
5.4168297241
 20
5.445337243
 30
0.0
 10
5.4166801843
 20
5.4452728592
 30
0.0
 10
5.4164888781
 20
5.4452082323
 30
0.0
 10
5.4162557209
 20
5.4451433163
 30
0.0
 10
5.415980503
 20
5.4450782081
 30
0.0
 10
5.4155304552
 20
5.4449857247
 30
0.0
 10
5.4148619588
 20
5.4448729059
 30
0.0
 10
5.4139330855
 20
5.4447433327
 30
0.0
 10
5.4128368403
 20
5.4446133039
 30
0.0
 10
5.4110432529
 20
5.4444282944
 30
0.0
 10
5.4083872098
 20
5.4442029098
 30
0.0
 10
5.404707808
 20
5.4439439937
 30
0.0
 10
5.4003798224
 20
5.4436841715
 30
0.0
 10
5.3954130704
 20
5.4434235287
 30
0.0
 10
5.3898190099
 20
5.4431624493
 30
0.0
 10
5.3836103888
 20
5.4429009917
 30
0.0
 10
5.3768015363
 20
5.4426392949
 30
0.0
 10
5.3694080788
 20
5.4423774046
 30
0.0
 10
5.3614470057
 20
5.4421153514
 30
0.0
 10
5.349751514
 20
5.4417551293
 30
0.0
 10
5.3338610854
 20
5.4413092672
 30
0.0
 10
5.3133723715
 20
5.4407877696
 30
0.0
 10
5.2911297913
 20
5.4402656487
 30
0.0
 10
5.267337852
 20
5.43974304
 30
0.0
 10
5.2422152999
 20
5.4392200946
 30
0.0
 10
5.2159931591
 20
5.4386969038
 30
0.0
 10
5.188912546
 20
5.4381735424
 30
0.0
 10
5.1612224714
 20
5.437650069
 30
0.0
 10
5.1331775389
 20
5.4371265338
 30
0.0
 10
5.1050356156
 20
5.4366029822
 30
0.0
 10
5.0770554704
 20
5.4360794584
 30
0.0
 10
5.0494943947
 20
5.4355560083
 30
0.0
 10
5.0226058134
 20
5.4350326835
 30
0.0
 10
4.9966369699
 20
5.4345095463
 30
0.0
 10
4.9718266294
 20
5.4339866743
 30
0.0
 10
4.9484029107
 20
5.4334641751
 30
0.0
 10
4.9265811959
 20
5.4329421836
 30
0.0
 10
4.9065621248
 20
5.4324209526
 30
0.0
 10
4.8885297844
 20
5.4319006878
 30
0.0
 10
4.8748220654
 20
5.4314532333
 30
0.0
 10
4.8649721534
 20
5.4310902454
 30
0.0
 10
4.8584622473
 20
5.4308286394
 30
0.0
 10
4.8525599563
 20
5.4305673724
 30
0.0
 10
4.8472787557
 20
5.4303064693
 30
0.0
 10
4.8426308464
 20
5.4300462334
 30
0.0
 10
4.8386267791
 20
5.4297867369
 30
0.0
 10
4.8356974729
 20
5.4295614947
 30
0.0
 10
4.8336832747
 20
5.4293774706
 30
0.0
 10
4.8324206536
 20
5.4292470864
 30
0.0
 10
4.8313248441
 20
5.4291170459
 30
0.0
 10
4.8303962669
 20
5.4289875678
 30
0.0
 10
4.8296353996
 20
5.428858826
 30
0.0
 10
4.8291860852
 20
5.4287627191
 30
0.0
 10
4.8289905599
 20
5.4287120176
 30
0.0
  0
SPLINE
  5
3B1
100
AcDbEntity
  8
0
100
AcDbSpline
 62
7
  6
CONTINUOUS
 70
0
 71
3
 72
17
 73
13
 74
0
 42
0.0000001
 43
0.0000001
 44
0.0000000001
 40
0.0
 40
0.0
 40
0.0
 40
0.0
 40
0.1976699985
 40
0.3750008829
 40
0.5317377675
 40
0.667650458
 40
0.7825340505
 40
0.876258395
 40
0.915157898
 40
0.9487396861
 40
0.9770111466
 40
1.0
 40
1.0
 40
1.0
 40
1.0
 10
4.8500656912
 20
4.7758928527
 30
0.0
 10
4.8486730811
 20
4.7758242291
 30
0.0
 10
4.8460314355
 20
4.7756881574
 30
0.0
 10
4.8422868579
 20
4.7754733756
 30
0.0
 10
4.8389786717
 20
4.7752590078
 30
0.0
 10
4.8361119459
 20
4.7750453555
 30
0.0
 10
4.8336910823
 20
4.7748324845
 30
0.0
 10
4.8319549151
 20
4.7746469691
 30
0.0
 10
4.830792468
 20
4.7744944139
 30
0.0
 10
4.8300897956
 20
4.7743875361
 30
0.0
 10
4.8295008146
 20
4.7742811052
 30
0.0
 10
4.8291476322
 20
4.7742027188
 30
0.0
 10
4.8289906674
 20
4.7741620176
 30
0.0
  0
SPLINE
  5
3B2
100
AcDbEntity
  8
0
100
AcDbSpline
 62
7
  6
CONTINUOUS
 70
0
 71
3
 72
63
 73
59
 74
0
 42
0.0000001
 43
0.0000001
 44
0.0000000001
 40
0.0
 40
0.0
 40
0.0
 40
0.0
 40
0.0001173815
 40
0.0001890987
 40
0.0002732606
 40
0.0004849484
 40
0.0007602847
 40
0.0011025009
 40
0.0015132367
 40
0.001993417
 40
0.0025436034
 40
0.003855055
 40
0.0054486786
 40
0.0073245083
 40
0.0094821645
 40
0.0146399067
 40
0.0209117185
 40
0.0282844777
 40
0.0367420108
 40
0.0462649208
 40
0.0568322014
 40
0.0684191121
 40
0.0809997792
 40
0.094544962
 40
0.109023805
 40
0.1406474093
 40
0.1755804001
 40
0.213501981
 40
0.25406365
 40
0.2968927384
 40
0.3415956078
 40
0.3877614169
 40
0.4349659169
 40
0.4827751081
 40
0.5307496396
 40
0.5784483933
 40
0.6254330183
 40
0.6712716453
 40
0.71554294
 40
0.757840079
 40
0.7977742407
 40
0.8349785102
 40
0.8691111201
 40
0.8998586847
 40
0.9269391128
 40
0.9390253216
 40
0.9501042963
 40
0.9601509867
 40
0.9691425995
 40
0.9770584929
 40
0.9838815616
 40
0.989596258
 40
0.9920344654
 40
0.9941916918
 40
0.9960669364
 40
0.9976596879
 40
0.9989702914
 40
1.0
 40
1.0
 40
1.0
 40
1.0
 10
5.4170301021
 20
5.4799928571
 30
0.0
 10
5.4170300888
 20
5.4799698305
 30
0.0
 10
5.4170160753
 20
5.4799327151
 30
0.0
 10
5.4169816044
 20
5.4798916792
 30
0.0
 10
5.4169269248
 20
5.479844178
 30
0.0
 10
5.4168296431
 20
5.479787251
 30
0.0
 10
5.4166800953
 20
5.4797228674
 30
0.0
 10
5.4164888215
 20
5.4796582358
 30
0.0
 10
5.4162557242
 20
5.4795933148
 30
0.0
 10
5.4159805649
 20
5.4795282034
 30
0.0
 10
5.4155305309
 20
5.4794357149
 30
0.0
 10
5.4148619834
 20
5.4793229055
 30
0.0
 10
5.4139330454
 20
5.479193341
 30
0.0
 10
5.4128368028
 20
5.4790633124
 30
0.0
 10
5.4110432417
 20
5.4788782758
 30
0.0
 10
5.4083872105
 20
5.4786529163
 30
0.0
 10
5.404707818
 20
5.4783939986
 30
0.0
 10
5.4003798041
 20
5.4781341604
 30
0.0
 10
5.3954130967
 20
5.4778735429
 30
0.0
 10
5.3898189882
 20
5.4776124364
 30
0.0
 10
5.3836104133
 20
5.4773510016
 30
0.0
 10
5.376801532
 20
5.4770892892
 30
0.0
 10
5.3694080912
 20
5.4768274063
 30
0.0
 10
5.3614470206
 20
5.4765653537
 30
0.0
 10
5.3497515538
 20
5.4762051268
 30
0.0
 10
5.3338611512
 20
5.4757592673
 30
0.0
 10
5.3133724096
 20
5.4752377694
 30
0.0
 10
5.2911297935
 20
5.4747156495
 30
0.0
 10
5.2673378259
 20
5.4741930407
 30
0.0
 10
5.2422152864
 20
5.4736700951
 30
0.0
 10
5.2159931678
 20
5.4731469039
 30
0.0
 10
5.1889125688
 20
5.4726235424
 30
0.0
 10
5.1612224979
 20
5.4721000692
 30
0.0
 10
5.1331775509
 20
5.4715765341
 30
0.0
 10
5.1050356303
 20
5.4710529827
 30
0.0
 10
5.0770554914
 20
5.4705294586
 30
0.0
 10
5.049494423
 20
5.4700060083
 30
0.0
 10
5.0226058362
 20
5.4694826835
 30
0.0
 10
4.9966369633
 20
5.4689595465
 30
0.0
 10
4.971826601
 20
5.4684366748
 30
0.0
 10
4.9484028834
 20
5.4679141761
 30
0.0
 10
4.9265812035
 20
5.4673921841
 30
0.0
 10
4.9065621806
 20
5.4668709523
 30
0.0
 10
4.8885298535
 20
5.4663506872
 30
0.0
 10
4.8748221108
 20
5.4659032325
 30
0.0
 10
4.8649721594
 20
5.4655402454
 30
0.0
 10
4.8584622645
 20
5.4652786449
 30
0.0
 10
4.8525599529
 20
5.4650173621
 30
0.0
 10
4.8472787916
 20
5.4647564851
 30
0.0
 10
4.8426308253
 20
5.4644962157
 30
0.0
 10
4.8386267993
 20
5.4642367525
 30
0.0
 10
4.8356974944
 20
5.4640114965
 30
0.0
 10
4.8336833242
 20
5.4638274617
 30
0.0
 10
4.8324206516
 20
5.4636970872
 30
0.0
 10
4.8313247995
 20
5.463567058
 30
0.0
 10
4.8303962572
 20
5.4634375729
 30
0.0
 10
4.8296354494
 20
5.4633088181
 30
0.0
 10
4.8291861681
 20
5.4632127098
 30
0.0
 10
4.8289906355
 20
5.4631620177
 30
0.0
  0
SPLINE
  5
3B3
100
AcDbEntity
  8
0
100
AcDbSpline
 62
7
  6
CONTINUOUS
 70
0
 71
3
 72
55
 73
51
 74
0
 42
0.0000001
 43
0.0000001
 44
0.0000000001
 40
0.0
 40
0.0
 40
0.0
 40
0.0
 40
0.0001128487
 40
0.0002596562
 40
0.000457645
 40
0.0007139239
 40
0.0010316698
 40
0.001412476
 40
0.0018572268
 40
0.0023664457
 40
0.003579402
 40
0.0050528135
 40
0.0067871488
 40
0.0087821368
 40
0.0110369688
 40
0.013550692
 40
0.01935056
 40
0.0261710095
 40
0.0339977836
 40
0.042815523
 40
0.0526054247
 40
0.0633473935
 40
0.0750190604
 40
0.0875956041
 40
0.1010512259
 40
0.1304836712
 40
0.1630693816
 40
0.1985345941
 40
0.2365811903
 40
0.2768891737
 40
0.3191195584
 40
0.3629172345
 40
0.4079138683
 40
0.4537309421
 40
0.4999830933
 40
0.5462811969
 40
0.6374606323
 40
0.7242078439
 40
0.7650006973
 40
0.8036105559
 40
0.8397128114
 40
0.8730038737
 40
0.9032039589
 40
0.9300593548
 40
0.9533450587
 40
0.9728658316
 40
0.9811625672
 40
0.9884605144
 40
0.9947442128
 40
1.0
 40
1.0
 40
1.0
 40
1.0
 10
5.4170300507
 20
5.1354928572
 30
0.0
 10
5.4170300606
 20
5.1354709255
 30
0.0
 10
5.4170118669
 20
5.1354205929
 30
0.0
 10
5.4169468733
 20
5.1353579248
 30
0.0
 10
5.4168472194
 20
5.13529622
 30
0.0
 10
5.4167100411
 20
5.1352346951
 30
0.0
 10
5.4165349818
 20
5.1351727972
 30
0.0
 10
5.4163215449
 20
5.1351106975
 30
0.0
 10
5.4160696767
 20
5.1350484009
 30
0.0
 10
5.4156578857
 20
5.1349599433
 30
0.0
 10
5.4150461031
 20
5.1348520138
 30
0.0
 10
5.4141958789
 20
5.1347280531
 30
0.0
 10
5.4131923618
 20
5.1346036862
 30
0.0
 10
5.4120360363
 20
5.1344789751
 30
0.0
 10
5.4107274932
 20
5.1343540305
 30
0.0
 10
5.4086810296
 20
5.1341787488
 30
0.0
 10
5.4057475785
 20
5.1339634627
 30
0.0
 10
5.4017815095
 20
5.1337148001
 30
0.0
 10
5.3972279665
 20
5.1334655009
 30
0.0
 10
5.3920965934
 20
5.1332157365
 30
0.0
 10
5.3863980804
 20
5.1329656285
 30
0.0
 10
5.3801444458
 20
5.1327152808
 30
0.0
 10
5.3733488487
 20
5.1324647578
 30
0.0
 10
5.3660255392
 20
5.1322140698
 30
0.0
 10
5.3552517177
 20
5.1318692979
 30
0.0
 10
5.3405898649
 20
5.1314425373
 30
0.0
 10
5.3216509099
 20
5.1309435985
 30
0.0
 10
5.3010373131
 20
5.1304440588
 30
0.0
 10
5.2789225279
 20
5.1299440453
 30
0.0
 10
5.2554926505
 20
5.1294437005
 30
0.0
 10
5.2309448369
 20
5.1289431104
 30
0.0
 10
5.2054856245
 20
5.1284423445
 30
0.0
 10
5.1793292251
 20
5.1279414565
 30
0.0
 10
5.1526957242
 20
5.1274404893
 30
0.0
 10
5.1258092444
 20
5.1269394853
 30
0.0
 10
5.0901082858
 20
5.1262748706
 30
0.0
 10
5.0465387997
 20
5.1254549275
 30
0.0
 10
5.0040397875
 20
5.1246159701
 30
0.0
 10
4.9717563828
 20
5.1239347477
 30
0.0
 10
4.9493140106
 20
5.1234346335
 30
0.0
 10
4.9283299552
 20
5.1229349622
 30
0.0
 10
4.9089807865
 20
5.1224358913
 30
0.0
 10
4.8914293377
 20
5.1219376375
 30
0.0
 10
4.875823205
 20
5.1214407346
 30
0.0
 10
4.8622937035
 20
5.1209454773
 30
0.0
 10
4.8523711507
 20
5.1205156657
 30
0.0
 10
4.8455556509
 20
5.1201635495
 30
0.0
 10
4.8413109205
 20
5.1199145414
 30
0.0
 10
4.8376583098
 20
5.1196663551
 30
0.0
 10
4.8354228127
 20
5.1194858365
 30
0.0
 10
4.8344056118
 20
5.1193928571
 30
0.0
  0
SPLINE
  5
3B4
100
AcDbEntity
  8
0
100
AcDbSpline
 62
7
  6
CONTINUOUS
 70
0
 71
3
 72
63
 73
59
 74
0
 42
0.0000001
 43
0.0000001
 44
0.0000000001
 40
0.0
 40
0.0
 40
0.0
 40
0.0
 40
0.0001173745
 40
0.0001890798
 40
0.0002732254
 40
0.000484875
 40
0.0007601778
 40
0.0011023797
 40
0.0015131344
 40
0.0019933757
 40
0.0025436221
 40
0.0038550746
 40
0.0054486151
 40
0.0073243808
 40
0.0094820952
 40
0.0146399049
 40
0.0209116021
 40
0.0282845083
 40
0.0367418958
 40
0.0462649305
 40
0.0568321421
 40
0.0684190574
 40
0.0809997654
 40
0.0945448438
 40
0.1090238178
 40
0.1406474142
 40
0.1755803391
 40
0.2135018921
 40
0.2540635599
 40
0.2968926841
 40
0.3415955651
 40
0.3877613852
 40
0.4349658626
 40
0.4827750474
 40
0.5307495742
 40
0.5784483436
 40
0.6254329646
 40
0.6712715693
 40
0.7155428457
 40
0.7578399482
 40
0.7977741536
 40
0.834978459
 40
0.8691111046
 40
0.899858644
 40
0.9269390258
 40
0.939025293
 40
0.9501041633
 40
0.9601509782
 40
0.9691424389
 40
0.9770584633
 40
0.9838814438
 40
0.9895961731
 40
0.9920344547
 40
0.9941916584
 40
0.9960667828
 40
0.9976595482
 40
0.9989702374
 40
1.0
 40
1.0
 40
1.0
 40
1.0
 10
5.4170300542
 20
5.1699428571
 30
0.0
 10
5.4170300429
 20
5.1699198319
 30
0.0
 10
5.4170160404
 20
5.1698827178
 30
0.0
 10
5.4169815823
 20
5.1698416794
 30
0.0
 10
5.4169269207
 20
5.1697941775
 30
0.0
 10
5.4168296594
 20
5.1697372488
 30
0.0
 10
5.4166801301
 20
5.1696728647
 30
0.0
 10
5.4164888622
 20
5.1696082329
 30
0.0
 10
5.4162557513
 20
5.1695433118
 30
0.0
 10
5.415980563
 20
5.1694782042
 30
0.0
 10
5.4155305035
 20
5.1693857211
 30
0.0
 10
5.4148619613
 20
5.1692729077
 30
0.0
 10
5.4139330526
 20
5.1691433397
 30
0.0
 10
5.4128368279
 20
5.1690133078
 30
0.0
 10
5.4110432537
 20
5.1688282792
 30
0.0
 10
5.4083872203
 20
5.1686029208
 30
0.0
 10
5.4047078087
 20
5.168343991
 30
0.0
 10
5.400379816
 20
5.1680841682
 30
0.0
 10
5.3954130844
 20
5.1678235362
 30
0.0
 10
5.3898189928
 20
5.1675624411
 30
0.0
 10
5.3836104062
 20
5.1673009996
 30
0.0
 10
5.3768015292
 20
5.1670392888
 30
0.0
 10
5.3694080996
 20
5.1667774083
 30
0.0
 10
5.3614470157
 20
5.1665153508
 30
0.0
 10
5.3497515446
 20
5.1661551302
 30
0.0
 10
5.3338611303
 20
5.1657092666
 30
0.0
 10
5.3133724079
 20
5.1651877694
 30
0.0
 10
5.2911298097
 20
5.1646656491
 30
0.0
 10
5.2673378399
 20
5.1641430405
 30
0.0
 10
5.2422152904
 20
5.1636200951
 30
0.0
 10
5.2159931594
 20
5.1630969039
 30
0.0
 10
5.1889125594
 20
5.1625735425
 30
0.0
 10
5.161222491
 20
5.1620500691
 30
0.0
 10
5.1331775496
 20
5.161526534
 30
0.0
 10
5.1050356271
 20
5.1610029826
 30
0.0
 10
5.0770554858
 20
5.1604794586
 30
0.0
 10
5.0494944185
 20
5.1599560084
 30
0.0
 10
5.0226058395
 20
5.1594326836
 30
0.0
 10
4.9966369808
 20
5.1589095465
 30
0.0
 10
4.9718266198
 20
5.1583866746
 30
0.0
 10
4.9484028928
 20
5.1578641758
 30
0.0
 10
4.9265811895
 20
5.1573421845
 30
0.0
 10
4.9065621568
 20
5.1568209524
 30
0.0
 10
4.8885298361
 20
5.1563006886
 30
0.0
 10
4.8748220956
 20
5.1558532295
 30
0.0
 10
4.8649721617
 20
5.1554902486
 30
0.0
 10
4.8584622515
 20
5.15522864
 30
0.0
 10
4.852559965
 20
5.1549673687
 30
0.0
 10
4.847278784
 20
5.1547064782
 30
0.0
 10
4.8426308382
 20
5.1544462212
 30
0.0
 10
4.8386267977
 20
5.1541867501
 30
0.0
 10
4.8356974891
 20
5.153961493
 30
0.0
 10
4.8336833017
 20
5.1537774642
 30
0.0
 10
4.8324206423
 20
5.1536470921
 30
0.0
 10
4.8313248169
 20
5.1535170526
 30
0.0
 10
4.8303962785
 20
5.153387569
 30
0.0
 10
4.8296354396
 20
5.153258818
 30
0.0
 10
4.8291861296
 20
5.1531627122
 30
0.0
 10
4.8289905867
 20
5.1531120177
 30
0.0
  0
SPLINE
  5
3B5
100
AcDbEntity
  8
0
100
AcDbSpline
 62
7
  6
CONTINUOUS
 70
0
 71
3
 72
29
 73
25
 74
0
 42
0.0000001
 43
0.0000001
 44
0.0000000001
 40
0.0
 40
0.0
 40
0.0
 40
0.0
 40
0.0020652297
 40
0.0046490821
 40
0.0077540716
 40
0.0113810482
 40
0.0201971761
 40
0.0310858382
 40
0.0440307186
 40
0.0590077042
 40
0.0759898535
 40
0.0949460515
 40
0.1158396923
 40
0.138632734
 40
0.1897382997
 40
0.247875949
 40
0.3126045564
 40
0.3834318252
 40
0.4598194581
 40
0.5411866752
 40
0.6269147042
 40
0.7163524992
 40
0.8088143951
 40
1.0
 40
1.0
 40
1.0
 40
1.0
 10
5.416269626
 20
5.5272986965
 30
0.0
 10
5.4160939334
 20
5.5272531454
 30
0.0
 10
5.4156944634
 20
5.5271660687
 30
0.0
 10
5.4150231132
 20
5.5270486563
 30
0.0
 10
5.414212852
 20
5.5269306484
 30
0.0
 10
5.4128568558
 20
5.5267615761
 30
0.0
 10
5.4108163955
 20
5.5265564757
 30
0.0
 10
5.4079565785
 20
5.5263213408
 30
0.0
 10
5.4045538409
 20
5.5260852736
 30
0.0
 10
5.4006145614
 20
5.5258483394
 30
0.0
 10
5.3961461716
 20
5.5256109305
 30
0.0
 10
5.3911571702
 20
5.5253731739
 30
0.0
 10
5.3856569735
 20
5.5251351269
 30
0.0
 10
5.3773327537
 20
5.524804765
 30
0.0
 10
5.3657359256
 20
5.5243973674
 30
0.0
 10
5.3504538262
 20
5.5239238249
 30
0.0
 10
5.3334377793
 20
5.523449421
 30
0.0
 10
5.3148173008
 20
5.5229743317
 30
0.0
 10
5.294734122
 20
5.5224987804
 30
0.0
 10
5.2733410652
 20
5.5220228828
 30
0.0
 10
5.250800841
 20
5.5215467331
 30
0.0
 10
5.2272853644
 20
5.521070396
 30
0.0
 10
5.1945032844
 20
5.5204279498
 30
0.0
 10
5.1695795368
 20
5.5199573798
 30
0.0
 10
5.152780251
 20
5.5196428571
 30
0.0
  0
SPLINE
  5
3B6
100
AcDbEntity
  8
0
100
AcDbSpline
 62
7
  6
CONTINUOUS
 70
0
 71
3
 72
30
 73
26
 74
0
 42
0.0000001
 43
0.0000001
 44
0.0000000001
 40
0.0
 40
0.0
 40
0.0
 40
0.0
 40
0.0019559552
 40
0.0044345859
 40
0.0074380576
 40
0.0109669454
 40
0.0150210571
 40
0.019599435
 40
0.0303207193
 40
0.0431127667
 40
0.0579537708
 40
0.0748150271
 40
0.0936659853
 40
0.1144705213
 40
0.1371889105
 40
0.1881920052
 40
0.2462861212
 40
0.3110270144
 40
0.3819193764
 40
0.4584208025
 40
0.5399457545
 40
0.6258698419
 40
0.715536131
 40
0.808253272
 40
1.0
 40
1.0
 40
1.0
 40
1.0
 10
5.4366685462
 20
5.5325869683
 30
0.0
 10
5.4364905925
 20
5.5325408439
 30
0.0
 10
5.4360828035
 20
5.5324532108
 30
0.0
 10
5.4353936081
 20
5.5323356196
 30
0.0
 10
5.4345548843
 20
5.5322173833
 30
0.0
 10
5.4335669614
 20
5.5320986559
 30
0.0
 10
5.4324301297
 20
5.531979626
 30
0.0
 10
5.4306188666
 20
5.5318116876
 30
0.0
 10
5.4279865105
 20
5.5316060705
 30
0.0
 10
5.4243894502
 20
5.5313691581
 30
0.0
 10
5.4202142783
 20
5.5311315844
 30
0.0
 10
5.4154688873
 20
5.5308934117
 30
0.0
 10
5.4101623928
 20
5.5306549041
 30
0.0
 10
5.4043049191
 20
5.530416103
 30
0.0
 10
5.3954268912
 20
5.5300845108
 30
0.0
 10
5.3830446477
 20
5.5296757251
 30
0.0
 10
5.3667130303
 20
5.5292006771
 30
0.0
 10
5.3485114017
 20
5.528724749
 30
0.0
 10
5.3285792133
 20
5.5282481196
 30
0.0
 10
5.3070691401
 20
5.5277710188
 30
0.0
 10
5.2841459664
 20
5.5272935658
 30
0.0
 10
5.2599852209
 20
5.5268158551
 30
0.0
 10
5.2347723645
 20
5.5263379527
 30
0.0
 10
5.1996149501
 20
5.525693355
 30
0.0
 10
5.1728832479
 20
5.5252212703
 30
0.0
 10
5.1548643363
 20
5.524905725
 30
0.0
  0
SPLINE
  5
3B7
100
AcDbEntity
  8
0
100
AcDbSpline
 62
7
  6
CONTINUOUS
 70
0
 71
3
 72
63
 73
59
 74
0
 42
0.0000001
 43
0.0000001
 44
0.0000000001
 40
0.0
 40
0.0
 40
0.0
 40
0.0
 40
0.0010305488
 40
0.0023428763
 40
0.0039379092
 40
0.0058154627
 40
0.0079749741
 40
0.0104156864
 40
0.0161361879
 40
0.0229645197
 40
0.0308862536
 40
0.0398832882
 40
0.0499354205
 40
0.0610198261
 40
0.0731109087
 40
0.1002008843
 40
0.1309571577
 40
0.1650974078
 40
0.2023081681
 40
0.2422476303
 40
0.284548844
 40
0.3288231691
 40
0.3746637636
 40
0.4216493439
 40
0.4693481802
 40
0.5173217944
 40
0.5651293801
 40
0.6123315063
 40
0.6584944184
 40
0.7031939143
 40
0.7460192019
 40
0.7865768078
 40
0.8244940777
 40
0.8594226492
 40
0.8756647097
 40
0.8910418262
 40
0.9055184197
 40
0.9190613758
 40
0.9316397528
 40
0.9432244591
 40
0.9537894533
 40
0.9633100455
 40
0.9717652419
 40
0.979135424
 40
0.9854046854
 40
0.9905593093
 40
0.9927153186
 40
0.9945893618
 40
0.996180879
 40
0.9974896931
 40
0.9980383526
 40
0.9985168556
 40
0.9989256789
 40
0.9992656229
 40
0.9995381323
 40
0.9996499814
 40
0.9997463072
 40
1.0
 40
1.0
 40
1.0
 40
1.0
 10
5.4365592154
 20
5.4292096947
 30
0.0
 10
5.43634914
 20
5.4291589771
 30
0.0
 10
5.435866989
 20
5.429062857
 30
0.0
 10
5.4350512104
 20
5.4289341214
 30
0.0
 10
5.4340560689
 20
5.4288046692
 30
0.0
 10
5.4328821267
 20
5.4286746521
 30
0.0
 10
5.4315299384
 20
5.4285442892
 30
0.0
 10
5.429373438
 20
5.4283602826
 30
0.0
 10
5.4262380114
 20
5.4281350924
 30
0.0
 10
5.4219530368
 20
5.427875611
 30
0.0
 10
5.4169799159
 20
5.4276153963
 30
0.0
 10
5.4113299847
 20
5.4273545326
 30
0.0
 10
5.4050162162
 20
5.4270932813
 30
0.0
 10
5.3980531255
 20
5.4268317155
 30
0.0
 10
5.3875184584
 20
5.4264687649
 30
0.0
 10
5.3728590438
 20
5.4260213727
 30
0.0
 10
5.3535760332
 20
5.425501161
 30
0.0
 10
5.3321699796
 20
5.4249799867
 30
0.0
 10
5.3088376701
 20
5.4244580517
 30
0.0
 10
5.2837935834
 20
5.4239356102
 30
0.0
 10
5.25726794
 20
5.423412796
 30
0.0
 10
5.2295045786
 20
5.4228897171
 30
0.0
 10
5.2007587197
 20
5.4223664508
 30
0.0
 10
5.1712946116
 20
5.4218430591
 30
0.0
 10
5.1413831315
 20
5.4213195939
 30
0.0
 10
5.1112992473
 20
5.420796101
 30
0.0
 10
5.081319541
 20
5.4202726247
 30
0.0
 10
5.0517196047
 20
5.4197492103
 30
0.0
 10
5.0227715509
 20
5.4192259076
 30
0.0
 10
4.9947414913
 20
5.4187027764
 30
0.0
 10
4.9678870982
 20
5.4181798869
 30
0.0
 10
4.9424552443
 20
5.4176573471
 30
0.0
 10
4.9186797306
 20
5.4171352534
 30
0.0
 10
4.9000028528
 20
5.4166906623
 30
0.0
 10
4.8860520779
 20
5.4163321849
 30
0.0
 10
4.8763891314
 20
5.4160699624
 30
0.0
 10
4.8672924173
 20
5.4158078357
 30
0.0
 10
4.8587828674
 20
5.4155458226
 30
0.0
 10
4.8508800621
 20
5.4152839652
 30
0.0
 10
4.8436021121
 20
5.4150222852
 30
0.0
 10
4.8369658335
 20
5.41476088
 30
0.0
 10
4.8309863706
 20
5.4144998037
 30
0.0
 10
4.8256775624
 20
5.4142392246
 30
0.0
 10
4.8210514443
 20
5.4139794046
 30
0.0
 10
4.8171186913
 20
5.4137205359
 30
0.0
 10
4.8142796764
 20
5.4134951989
 30
0.0
 10
4.8123624677
 20
5.4133101882
 30
0.0
 10
4.8111907277
 20
5.4131801869
 30
0.0
 10
4.8101978721
 20
5.4130506548
 30
0.0
 10
4.8094832783
 20
5.4129378378
 30
0.0
 10
4.8090021839
 20
5.4128453328
 30
0.0
 10
4.808708112
 20
5.4127802103
 30
0.0
 10
4.8084590102
 20
5.4127153723
 30
0.0
 10
4.8082546032
 20
5.4126506158
 30
0.0
 10
4.8081136501
 20
5.4125942822
 30
0.0
 10
4.8080236702
 20
5.4125472028
 30
0.0
 10
4.8079436254
 20
5.4124969044
 30
0.0
 10
4.8078801429
 20
5.4124339256
 30
0.0
 10
4.8078801429
 20
5.412380725
 30
0.0
  0
LINE
  5
3B8
100
AcDbEntity
  8
0
100
AcDbLine
 62
7
  6
CONTINUOUS
 10
5.416269616
 20
5.4239486966
 11
5.4158935225
 21
5.4238609256
  0
SPLINE
  5
3B9
100
AcDbEntity
  8
0
100
AcDbSpline
 62
7
  6
CONTINUOUS
 70
0
 71
3
 72
62
 73
58
 74
0
 42
0.0000001
 43
0.0000001
 44
0.0000000001
 40
0.0
 40
0.0
 40
0.0
 40
0.0
 40
0.0012106249
 40
0.0027005657
 40
0.0044702572
 40
0.0065192346
 40
0.0114518121
 40
0.0174901828
 40
0.0246212073
 40
0.0328297515
 40
0.0420975297
 40
0.0524035405
 40
0.0637250399
 40
0.076035826
 40
0.1035128693
 40
0.1345853974
 40
0.1689711664
 40
0.2063577145
 40
0.2464051642
 40
0.2887493777
 40
0.3330053415
 40
0.3787704166
 40
0.4256284013
 40
0.473152978
 40
0.5209119007
 40
0.5684707799
 40
0.6153969221
 40
0.6612635685
 40
0.7056533751
 40
0.7481627068
 40
0.7884049527
 40
0.8260141963
 40
0.8606485614
 40
0.8919932143
 40
0.9063415161
 40
0.9197634462
 40
0.9322279707
 40
0.9437073265
 40
0.9541753058
 40
0.9636082739
 40
0.9719853956
 40
0.9792874819
 40
0.9854992773
 40
0.9906070715
 40
0.992744012
 40
0.9946019037
 40
0.9961802096
 40
0.9974789046
 40
0.9980237945
 40
0.9984994401
 40
0.9989063818
 40
0.9992455218
 40
0.9995184762
 40
0.9997284487
 40
0.9998119893
 40
0.9998832301
 40
1.0
 40
1.0
 40
1.0
 40
1.0
 10
5.4158935225
 20
5.4238609256
 30
0.0
 10
5.4156613598
 20
5.4238116662
 30
0.0
 10
5.4151402876
 20
5.4237168902
 30
0.0
 10
5.4142733614
 20
5.4235882408
 30
0.0
 10
5.4132406365
 20
5.4234590324
 30
0.0
 10
5.4115349267
 20
5.423274628
 30
0.0
 10
5.408992158
 20
5.423050376
 30
0.0
 10
5.4054527198
 20
5.4227930529
 30
0.0
 10
5.4012696882
 20
5.4225347049
 30
0.0
 10
5.3964525938
 20
5.4222755349
 30
0.0
 10
5.3910123086
 20
5.4220158702
 30
0.0
 10
5.3849611601
 20
5.4217558257
 30
0.0
 10
5.3783129732
 20
5.4214955219
 30
0.0
 10
5.3682999763
 20
5.4211348199
 30
0.0
 10
5.3544155788
 20
5.4206899017
 30
0.0
 10
5.3362038578
 20
5.4201721312
 30
0.0
 10
5.3160487955
 20
5.4196534615
 30
0.0
 10
5.2941337781
 20
5.4191340793
 30
0.0
 10
5.2706581915
 20
5.4186142199
 30
0.0
 10
5.2458356219
 20
5.4180940088
 30
0.0
 10
5.2198919396
 20
5.417573548
 30
0.0
 10
5.1930632096
 20
5.4170529102
 30
0.0
 10
5.1655935855
 20
5.4165321548
 30
0.0
 10
5.1377330198
 20
5.4160113313
 30
0.0
 10
5.1097350272
 20
5.4154904846
 30
0.0
 10
5.0818543718
 20
5.4149696579
 30
0.0
 10
5.0543447424
 20
5.4144488954
 30
0.0
 10
5.0274564893
 20
5.4139282466
 30
0.0
 10
5.0014342714
 20
5.4134077685
 30
0.0
 10
4.9765148849
 20
5.412887536
 30
0.0
 10
4.9529250569
 20
5.4123676395
 30
0.0
 10
4.9308794231
 20
5.4118482306
 30
0.0
 10
4.9105785806
 20
5.4113294391
 30
0.0
 10
4.8948374223
 20
5.4108858794
 30
0.0
 10
4.8832540691
 20
5.4105274958
 30
0.0
 10
4.8753707443
 20
5.4102668211
 30
0.0
 10
4.8680501719
 20
5.4100062872
 30
0.0
 10
4.8613090794
 20
5.4097459532
 30
0.0
 10
4.8551627646
 20
5.4094858697
 30
0.0
 10
4.8496251919
 20
5.4092261268
 30
0.0
 10
4.8447089965
 20
5.4089668755
 30
0.0
 10
4.8404252118
 20
5.4087083697
 30
0.0
 10
4.836783648
 20
5.4084508327
 30
0.0
 10
4.8341549859
 20
5.4082266155
 30
0.0
 10
4.8323799758
 20
5.4080425519
 30
0.0
 10
4.8312950366
 20
5.4079132062
 30
0.0
 10
4.830375732
 20
5.407784326
 30
0.0
 10
4.8297141736
 20
5.4076720897
 30
0.0
 10
4.8292688694
 20
5.4075800821
 30
0.0
 10
4.8289965659
 20
5.4075153096
 30
0.0
 10
4.8287658605
 20
5.4074507261
 30
0.0
 10
4.8285765291
 20
5.4073864283
 30
0.0
 10
4.8284284862
 20
5.4073223764
 30
0.0
 10
4.8283321937
 20
5.4072657406
 30
0.0
 10
4.8282780884
 20
5.4072184967
 30
0.0
 10
4.828243964
 20
5.4071776483
 30
0.0
 10
4.8282301411
 20
5.4071407487
 30
0.0
 10
4.8282301472
 20
5.4071178571
 30
0.0
  0
SPLINE
  5
3BA
100
AcDbEntity
  8
0
100
AcDbSpline
 62
7
  6
CONTINUOUS
 70
0
 71
3
 72
39
 73
35
 74
0
 42
0.0000001
 43
0.0000001
 44
0.0000000001
 40
0.0
 40
0.0
 40
0.0
 40
0.0
 40
0.0002487114
 40
0.0005722767
 40
0.0010086651
 40
0.0015735253
 40
0.0022738299
 40
0.0031130958
 40
0.0040932793
 40
0.0052155418
 40
0.0078887896
 40
0.0111361388
 40
0.0149586188
 40
0.0193554579
 40
0.0243249251
 40
0.0298649967
 40
0.0426477602
 40
0.0576795683
 40
0.0749294123
 40
0.0943632987
 40
0.1159396223
 40
0.139614566
 40
0.1653381667
 40
0.1930563413
 40
0.2227118007
 40
0.287579512
 40
0.359396749
 40
0.4375601407
 40
0.5214129365
 40
0.6102494623
 40
0.703324088
 40
0.7998493645
 40
0.8990248855
 40
1.0
 40
1.0
 40
1.0
 40
1.0
 10
5.4170300632
 20
5.5144428572
 30
0.0
 10
5.4170300743
 20
5.5144209256
 30
0.0
 10
5.4170118808
 20
5.5143705915
 30
0.0
 10
5.4169468819
 20
5.5143079234
 30
0.0
 10
5.4168472192
 20
5.5142462205
 30
0.0
 10
5.4167100334
 20
5.5141846966
 30
0.0
 10
5.4165349716
 20
5.5141227978
 30
0.0
 10
5.4163215373
 20
5.5140606978
 30
0.0
 10
5.4160696752
 20
5.5139984009
 30
0.0
 10
5.4156578935
 20
5.5139099427
 30
0.0
 10
5.4150461155
 20
5.5138020122
 30
0.0
 10
5.4141958849
 20
5.5136780521
 30
0.0
 10
5.413192358
 20
5.5135536886
 30
0.0
 10
5.4120360318
 20
5.5134289756
 30
0.0
 10
5.4107275
 20
5.5133040302
 30
0.0
 10
5.4086810335
 20
5.5131287464
 30
0.0
 10
5.4057475832
 20
5.5129134665
 30
0.0
 10
5.4017815091
 20
5.5126647979
 30
0.0
 10
5.3972279702
 20
5.5124155013
 30
0.0
 10
5.3920966019
 20
5.5121657379
 30
0.0
 10
5.38639808
 20
5.511915626
 30
0.0
 10
5.3801444535
 20
5.5116652835
 30
0.0
 10
5.3733488442
 20
5.5114147556
 30
0.0
 10
5.3660255432
 20
5.5111640711
 30
0.0
 10
5.3552517078
 20
5.5108192968
 30
0.0
 10
5.340589852
 20
5.510392538
 30
0.0
 10
5.3216509019
 20
5.5098935988
 30
0.0
 10
5.3010373159
 20
5.5093940584
 30
0.0
 10
5.2789225598
 20
5.5088940455
 30
0.0
 10
5.2554926112
 20
5.508393699
 30
0.0
 10
5.2309449563
 20
5.5078931137
 30
0.0
 10
5.2054854224
 20
5.5073923401
 30
0.0
 10
5.1793290886
 20
5.5068914541
 30
0.0
 10
5.1616827604
 20
5.5065595333
 30
0.0
 10
5.152780251
 20
5.5063928571
 30
0.0
  0
SPLINE
  5
3BB
100
AcDbEntity
  8
0
100
AcDbSpline
 62
7
  6
CONTINUOUS
 70
0
 71
3
 72
63
 73
59
 74
0
 42
0.0000001
 43
0.0000001
 44
0.0000000001
 40
0.0
 40
0.0
 40
0.0
 40
0.0
 40
0.0010305488
 40
0.0023428763
 40
0.0039379092
 40
0.0058154627
 40
0.0079749741
 40
0.0104156864
 40
0.0161361879
 40
0.0229645197
 40
0.0308862536
 40
0.0398832882
 40
0.0499354205
 40
0.0610198261
 40
0.0731109087
 40
0.1002008843
 40
0.1309571577
 40
0.1650974078
 40
0.2023081681
 40
0.2422476303
 40
0.284548844
 40
0.3288231691
 40
0.3746637636
 40
0.4216493439
 40
0.4693481802
 40
0.5173217944
 40
0.5651293801
 40
0.6123315063
 40
0.6584944184
 40
0.7031939143
 40
0.7460192019
 40
0.7865768078
 40
0.8244940777
 40
0.8594226492
 40
0.8756647097
 40
0.8910418262
 40
0.9055184197
 40
0.9190613758
 40
0.9316397528
 40
0.9432244591
 40
0.9537894533
 40
0.9633100455
 40
0.9717652419
 40
0.979135424
 40
0.9854046854
 40
0.9905593093
 40
0.9927153186
 40
0.9945893618
 40
0.996180879
 40
0.9974896931
 40
0.9980383526
 40
0.9985168556
 40
0.9989256789
 40
0.9992656229
 40
0.9995381323
 40
0.9996499814
 40
0.9997463072
 40
1.0
 40
1.0
 40
1.0
 40
1.0
 10
5.4365592154
 20
5.4636596947
 30
0.0
 10
5.43634914
 20
5.4636089771
 30
0.0
 10
5.435866989
 20
5.463512857
 30
0.0
 10
5.4350512104
 20
5.4633841214
 30
0.0
 10
5.4340560689
 20
5.4632546692
 30
0.0
 10
5.4328821267
 20
5.4631246521
 30
0.0
 10
5.4315299384
 20
5.4629942892
 30
0.0
 10
5.429373438
 20
5.4628102826
 30
0.0
 10
5.4262380114
 20
5.4625850924
 30
0.0
 10
5.4219530368
 20
5.462325611
 30
0.0
 10
5.4169799159
 20
5.4620653963
 30
0.0
 10
5.4113299847
 20
5.4618045326
 30
0.0
 10
5.4050162162
 20
5.4615432813
 30
0.0
 10
5.3980531255
 20
5.4612817155
 30
0.0
 10
5.3875184584
 20
5.4609187649
 30
0.0
 10
5.3728590438
 20
5.4604713727
 30
0.0
 10
5.3535760332
 20
5.459951161
 30
0.0
 10
5.3321699796
 20
5.4594299867
 30
0.0
 10
5.3088376701
 20
5.4589080517
 30
0.0
 10
5.2837935834
 20
5.4583856102
 30
0.0
 10
5.25726794
 20
5.457862796
 30
0.0
 10
5.2295045786
 20
5.4573397171
 30
0.0
 10
5.2007587197
 20
5.4568164508
 30
0.0
 10
5.1712946116
 20
5.4562930591
 30
0.0
 10
5.1413831315
 20
5.4557695939
 30
0.0
 10
5.1112992473
 20
5.455246101
 30
0.0
 10
5.081319541
 20
5.4547226247
 30
0.0
 10
5.0517196047
 20
5.4541992103
 30
0.0
 10
5.0227715509
 20
5.4536759076
 30
0.0
 10
4.9947414913
 20
5.4531527764
 30
0.0
 10
4.9678870982
 20
5.4526298869
 30
0.0
 10
4.9424552443
 20
5.4521073471
 30
0.0
 10
4.9186797306
 20
5.4515852534
 30
0.0
 10
4.9000028528
 20
5.4511406623
 30
0.0
 10
4.8860520779
 20
5.4507821849
 30
0.0
 10
4.8763891314
 20
5.4505199624
 30
0.0
 10
4.8672924173
 20
5.4502578357
 30
0.0
 10
4.8587828674
 20
5.4499958226
 30
0.0
 10
4.8508800621
 20
5.4497339652
 30
0.0
 10
4.8436021121
 20
5.4494722852
 30
0.0
 10
4.8369658335
 20
5.44921088
 30
0.0
 10
4.8309863706
 20
5.4489498037
 30
0.0
 10
4.8256775624
 20
5.4486892246
 30
0.0
 10
4.8210514443
 20
5.4484294046
 30
0.0
 10
4.8171186913
 20
5.4481705359
 30
0.0
 10
4.8142796764
 20
5.4479451989
 30
0.0
 10
4.8123624677
 20
5.4477601882
 30
0.0
 10
4.8111907277
 20
5.4476301869
 30
0.0
 10
4.8101978721
 20
5.4475006548
 30
0.0
 10
4.8094832783
 20
5.4473878378
 30
0.0
 10
4.8090021839
 20
5.4472953328
 30
0.0
 10
4.808708112
 20
5.4472302103
 30
0.0
 10
4.8084590102
 20
5.4471653723
 30
0.0
 10
4.8082546032
 20
5.4471006158
 30
0.0
 10
4.8081136501
 20
5.4470442822
 30
0.0
 10
4.8080236702
 20
5.4469972028
 30
0.0
 10
4.8079436254
 20
5.4469469044
 30
0.0
 10
4.8078801429
 20
5.4468839256
 30
0.0
 10
4.8078801429
 20
5.446830725
 30
0.0
  0
LINE
  5
3BC
100
AcDbEntity
  8
0
100
AcDbLine
 62
7
  6
CONTINUOUS
 10
5.4162696918
 20
5.4583986965
 11
5.4158495569
 21
5.4583016868
  0
SPLINE
  5
3BD
100
AcDbEntity
  8
0
100
AcDbSpline
 62
7
  6
CONTINUOUS
 70
0
 71
3
 72
62
 73
58
 74
0
 42
0.0000001
 43
0.0000001
 44
0.0000000001
 40
0.0
 40
0.0
 40
0.0
 40
0.0
 40
0.0012298088
 40
0.0027384684
 40
0.0045264414
 40
0.0065936185
 40
0.0115618052
 40
0.0176336646
 40
0.0247972066
 40
0.0330361442
 40
0.042332828
 40
0.0526660237
 40
0.0640126323
 40
0.0763471741
 40
0.1038655266
 40
0.1349718175
 40
0.1693838997
 40
0.2067893779
 40
0.2468486877
 40
0.2891978247
 40
0.3334521028
 40
0.3792094248
 40
0.4260540555
 40
0.473560418
 40
0.5212968255
 40
0.5688295131
 40
0.6157265892
 40
0.6615618978
 40
0.705919057
 40
0.7483950752
 40
0.7886040467
 40
0.8261807804
 40
0.8607838764
 40
0.8920993184
 40
0.9064342388
 40
0.9198430141
 40
0.9322957331
 40
0.9437636172
 40
0.9542213943
 40
0.963644981
 40
0.9720135552
 40
0.9793085456
 40
0.9855137405
 40
0.990616689
 40
0.9927514086
 40
0.9946072206
 40
0.9961838487
 40
0.99748143
 40
0.9980258812
 40
0.9985010902
 40
0.998907591
 40
0.9992463181
 40
0.9995189214
 40
0.9997286368
 40
0.9998120923
 40
0.9998832777
 40
1.0
 40
1.0
 40
1.0
 40
1.0
 10
5.4158495569
 20
5.4583016868
 30
0.0
 10
5.4156135423
 20
5.4582525591
 30
0.0
 10
5.4150849461
 20
5.4581579284
 30
0.0
 10
5.4142069553
 20
5.4580292901
 30
0.0
 10
5.4131634066
 20
5.4579001035
 30
0.0
 10
5.4114435962
 20
5.4577158918
 30
0.0
 10
5.4088838376
 20
5.4574917905
 30
0.0
 10
5.4053246972
 20
5.4572345192
 30
0.0
 10
5.4011230468
 20
5.4569763118
 30
0.0
 10
5.396288293
 20
5.456717241
 30
0.0
 10
5.3908314465
 20
5.4564577119
 30
0.0
 10
5.3847648244
 20
5.4561978039
 30
0.0
 10
5.3781022232
 20
5.4559376238
 30
0.0
 10
5.3680722963
 20
5.4555771785
 30
0.0
 10
5.3541695719
 20
5.455132515
 30
0.0
 10
5.3359393559
 20
5.4546150111
 30
0.0
 10
5.3157703375
 20
5.4540966101
 30
0.0
 10
5.2938457943
 20
5.4535775033
 30
0.0
 10
5.270364996
 20
5.4530579225
 30
0.0
 10
5.2455413602
 20
5.4525379921
 30
0.0
 10
5.2196005433
 20
5.4520178129
 30
0.0
 10
5.1927783299
 20
5.4514974577
 30
0.0
 10
5.1653185121
 20
5.4509769858
 30
0.0
 10
5.1374706768
 20
5.4504564467
 30
0.0
 10
5.1094879422
 20
5.4499358851
 30
0.0
 10
5.0816246633
 20
5.4494153436
 30
0.0
 10
5.0541341118
 20
5.4488948664
 30
0.0
 10
5.0272661549
 20
5.4483745027
 30
0.0
 10
5.0012649997
 20
5.4478543102
 30
0.0
 10
4.9763669714
 20
5.4473343635
 30
0.0
 10
4.9527983731
 20
5.446814753
 30
0.0
 10
4.9307734503
 20
5.4462956294
 30
0.0
 10
4.9104923888
 20
5.4457771255
 30
0.0
 10
4.8947669138
 20
5.4453337967
 30
0.0
 10
4.8831953741
 20
5.4449756229
 30
0.0
 10
4.8753201689
 20
5.4447150758
 30
0.0
 10
4.8680072977
 20
5.4444547035
 30
0.0
 10
4.8612732844
 20
5.4441944981
 30
0.0
 10
4.8551335274
 20
5.4439345651
 30
0.0
 10
4.8496018928
 20
5.4436749697
 30
0.0
 10
4.8446909804
 20
5.4434158427
 30
0.0
 10
4.8404118821
 20
5.4431575124
 30
0.0
 10
4.8367742352
 20
5.4429000746
 30
0.0
 10
4.8341484512
 20
5.4426760138
 30
0.0
 10
4.8323753707
 20
5.4424920473
 30
0.0
 10
4.8312916882
 20
5.4423627648
 30
0.0
 10
4.8303734116
 20
5.4422339432
 30
0.0
 10
4.8297125354
 20
5.4421217797
 30
0.0
 10
4.8292676529
 20
5.4420298307
 30
0.0
 10
4.8289956275
 20
5.4419650959
 30
0.0
 10
4.8287651939
 20
5.4419005469
 30
0.0
 10
4.8285761166
 20
5.4418362826
 30
0.0
 10
4.8284282907
 20
5.4417722629
 30
0.0
 10
4.8283321505
 20
5.4417156534
 30
0.0
 10
4.8282781321
 20
5.4416684379
 30
0.0
 10
4.8282440526
 20
5.4416276046
 30
0.0
 10
4.8282302385
 20
5.4415907377
 30
0.0
 10
4.8282302263
 20
5.4415678572
 30
0.0
  0
SPLINE
  5
3BE
100
AcDbEntity
  8
0
100
AcDbSpline
 62
7
  6
CONTINUOUS
 70
0
 71
3
 72
63
 73
59
 74
0
 42
0.0000001
 43
0.0000001
 44
0.0000000001
 40
0.0
 40
0.0
 40
0.0
 40
0.0
 40
0.0010305488
 40
0.0023428763
 40
0.0039379092
 40
0.0058154627
 40
0.0079749741
 40
0.0104156864
 40
0.0161361879
 40
0.0229645197
 40
0.0308862536
 40
0.0398832882
 40
0.0499354205
 40
0.0610198261
 40
0.0731109087
 40
0.1002008843
 40
0.1309571577
 40
0.1650974078
 40
0.2023081681
 40
0.2422476303
 40
0.284548844
 40
0.3288231691
 40
0.3746637636
 40
0.4216493439
 40
0.4693481802
 40
0.5173217944
 40
0.5651293801
 40
0.6123315063
 40
0.6584944184
 40
0.7031939143
 40
0.7460192019
 40
0.7865768078
 40
0.8244940777
 40
0.8594226492
 40
0.8756647097
 40
0.8910418262
 40
0.9055184197
 40
0.9190613758
 40
0.9316397528
 40
0.9432244591
 40
0.9537894533
 40
0.9633100455
 40
0.9717652419
 40
0.979135424
 40
0.9854046854
 40
0.9905593093
 40
0.9927153186
 40
0.9945893618
 40
0.996180879
 40
0.9974896931
 40
0.9980383526
 40
0.9985168556
 40
0.9989256789
 40
0.9992656229
 40
0.9995381323
 40
0.9996499814
 40
0.9997463072
 40
1.0
 40
1.0
 40
1.0
 40
1.0
 10
5.4365592154
 20
5.4981096947
 30
0.0
 10
5.43634914
 20
5.4980589771
 30
0.0
 10
5.435866989
 20
5.497962857
 30
0.0
 10
5.4350512104
 20
5.4978341214
 30
0.0
 10
5.4340560689
 20
5.4977046692
 30
0.0
 10
5.4328821267
 20
5.4975746521
 30
0.0
 10
5.4315299384
 20
5.4974442892
 30
0.0
 10
5.429373438
 20
5.4972602826
 30
0.0
 10
5.4262380114
 20
5.4970350924
 30
0.0
 10
5.4219530368
 20
5.496775611
 30
0.0
 10
5.4169799159
 20
5.4965153963
 30
0.0
 10
5.4113299847
 20
5.4962545326
 30
0.0
 10
5.4050162162
 20
5.4959932813
 30
0.0
 10
5.3980531255
 20
5.4957317155
 30
0.0
 10
5.3875184584
 20
5.4953687649
 30
0.0
 10
5.3728590438
 20
5.4949213727
 30
0.0
 10
5.3535760332
 20
5.494401161
 30
0.0
 10
5.3321699796
 20
5.4938799867
 30
0.0
 10
5.3088376701
 20
5.4933580517
 30
0.0
 10
5.2837935834
 20
5.4928356102
 30
0.0
 10
5.25726794
 20
5.492312796
 30
0.0
 10
5.2295045786
 20
5.4917897171
 30
0.0
 10
5.2007587197
 20
5.4912664508
 30
0.0
 10
5.1712946116
 20
5.4907430591
 30
0.0
 10
5.1413831315
 20
5.4902195939
 30
0.0
 10
5.1112992473
 20
5.489696101
 30
0.0
 10
5.081319541
 20
5.4891726247
 30
0.0
 10
5.0517196047
 20
5.4886492103
 30
0.0
 10
5.0227715509
 20
5.4881259076
 30
0.0
 10
4.9947414913
 20
5.4876027764
 30
0.0
 10
4.9678870982
 20
5.4870798869
 30
0.0
 10
4.9424552443
 20
5.4865573471
 30
0.0
 10
4.9186797306
 20
5.4860352534
 30
0.0
 10
4.9000028528
 20
5.4855906623
 30
0.0
 10
4.8860520779
 20
5.4852321849
 30
0.0
 10
4.8763891314
 20
5.4849699624
 30
0.0
 10
4.8672924173
 20
5.4847078357
 30
0.0
 10
4.8587828674
 20
5.4844458226
 30
0.0
 10
4.8508800621
 20
5.4841839652
 30
0.0
 10
4.8436021121
 20
5.4839222852
 30
0.0
 10
4.8369658335
 20
5.48366088
 30
0.0
 10
4.8309863706
 20
5.4833998037
 30
0.0
 10
4.8256775624
 20
5.4831392246
 30
0.0
 10
4.8210514443
 20
5.4828794046
 30
0.0
 10
4.8171186913
 20
5.4826205359
 30
0.0
 10
4.8142796764
 20
5.4823951989
 30
0.0
 10
4.8123624677
 20
5.4822101882
 30
0.0
 10
4.8111907277
 20
5.4820801869
 30
0.0
 10
4.8101978721
 20
5.4819506548
 30
0.0
 10
4.8094832783
 20
5.4818378378
 30
0.0
 10
4.8090021839
 20
5.4817453328
 30
0.0
 10
4.808708112
 20
5.4816802103
 30
0.0
 10
4.8084590102
 20
5.4816153723
 30
0.0
 10
4.8082546032
 20
5.4815506158
 30
0.0
 10
4.8081136501
 20
5.4814942822
 30
0.0
 10
4.8080236702
 20
5.4814472028
 30
0.0
 10
4.8079436254
 20
5.4813969044
 30
0.0
 10
4.8078801429
 20
5.4813339256
 30
0.0
 10
4.8078801429
 20
5.481280725
 30
0.0
  0
SPLINE
  5
3BF
100
AcDbEntity
  8
0
100
AcDbSpline
 62
7
  6
CONTINUOUS
 70
0
 71
3
 72
63
 73
59
 74
0
 42
0.0000001
 43
0.0000001
 44
0.0000000001
 40
0.0
 40
0.0
 40
0.0
 40
0.0
 40
0.0001173663
 40
0.0001890828
 40
0.000273253
 40
0.0004849829
 40
0.0007603818
 40
0.0011026613
 40
0.0015134407
 40
0.0019936237
 40
0.0025437524
 40
0.0038550325
 40
0.0054486811
 40
0.007324638
 40
0.0094823645
 40
0.0146398741
 40
0.0209119024
 40
0.0282845074
 40
0.0367421079
 40
0.0462650533
 40
0.0568322215
 40
0.068419321
 40
0.0809997827
 40
0.0945451364
 40
0.1090238342
 40
0.1406475471
 40
0.1755805896
 40
0.2135021248
 40
0.2540637696
 40
0.2968928017
 40
0.3415956594
 40
0.3877615206
 40
0.4349659936
 40
0.4827752411
 40
0.530749702
 40
0.5784484755
 40
0.6254331241
 40
0.6712717465
 40
0.7155431053
 40
0.7578401484
 40
0.7977742773
 40
0.8349785114
 40
0.8691111481
 40
0.8998587961
 40
0.9269392715
 40
0.9390252853
 40
0.9501044741
 40
0.9601510042
 40
0.9691426966
 40
0.9770585851
 40
0.9838815313
 40
0.9895964187
 40
0.9920345067
 40
0.9941916373
 40
0.9960669649
 40
0.9976598706
 40
0.9989704237
 40
1.0
 40
1.0
 40
1.0
 40
1.0
 10
5.4170301414
 20
5.2043928572
 30
0.0
 10
5.4170301451
 20
5.2043698335
 30
0.0
 10
5.4170161441
 20
5.2043327111
 30
0.0
 10
5.4169816726
 20
5.2042916776
 30
0.0
 10
5.4169269809
 20
5.2042441751
 30
0.0
 10
5.4168296718
 20
5.2041872505
 30
0.0
 10
5.4166800878
 20
5.2041228685
 30
0.0
 10
5.4164887787
 20
5.2040582381
 30
0.0
 10
5.4162556589
 20
5.2039933176
 30
0.0
 10
5.415980502
 20
5.2039282067
 30
0.0
 10
5.415530514
 20
5.203835715
 30
0.0
 10
5.4148620091
 20
5.2037228932
 30
0.0
 10
5.4139330733
 20
5.2035933385
 30
0.0
 10
5.4128367862
 20
5.2034633147
 30
0.0
 10
5.4110432313
 20
5.2032782856
 30
0.0
 10
5.4083871916
 20
5.2030528996
 30
0.0
 10
5.4047078302
 20
5.2027940112
 30
0.0
 10
5.4003797922
 20
5.2025341522
 30
0.0
 10
5.3954130941
 20
5.2022735446
 30
0.0
 10
5.3898189874
 20
5.2020124386
 30
0.0
 10
5.3836103907
 20
5.2017509963
 30
0.0
 10
5.3768015341
 20
5.2014892954
 30
0.0
 10
5.3694080633
 20
5.2012273996
 30
0.0
 10
5.3614470274
 20
5.2009653581
 30
0.0
 10
5.3497515343
 20
5.2006051215
 30
0.0
 10
5.3338611281
 20
5.200159269
 30
0.0
 10
5.3133723636
 20
5.1996377691
 30
0.0
 10
5.2911297505
 20
5.1991156494
 30
0.0
 10
5.2673378071
 20
5.1985930403
 30
0.0
 10
5.242215285
 20
5.1980700946
 30
0.0
 10
5.2159931689
 20
5.1975469034
 30
0.0
 10
5.1889125666
 20
5.1970235422
 30
0.0
 10
5.161222479
 20
5.196500069
 30
0.0
 10
5.1331775394
 20
5.195976534
 30
0.0
 10
5.1050356171
 20
5.1954529823
 30
0.0
 10
5.0770554828
 20
5.1949294582
 30
0.0
 10
5.049494406
 20
5.194406008
 30
0.0
 10
5.0226058023
 20
5.1938826833
 30
0.0
 10
4.9966369359
 20
5.1933595467
 30
0.0
 10
4.9718265856
 20
5.1928366747
 30
0.0
 10
4.9484028996
 20
5.1923141755
 30
0.0
 10
4.9265812273
 20
5.1917921832
 30
0.0
 10
4.9065621892
 20
5.1912709524
 30
0.0
 10
4.8885298309
 20
5.1907506846
 30
0.0
 10
4.8748221001
 20
5.1903032396
 30
0.0
 10
4.864972136
 20
5.1899402383
 30
0.0
 10
4.858462268
 20
5.1896786515
 30
0.0
 10
4.8525599306
 20
5.1894173571
 30
0.0
 10
4.8472787858
 20
5.1891564853
 30
0.0
 10
4.8426308284
 20
5.1888962208
 30
0.0
 10
4.838626791
 20
5.1886367407
 30
0.0
 10
4.8356974943
 20
5.188411507
 30
0.0
 10
4.8336833297
 20
5.1882274613
 30
0.0
 10
4.8324206838
 20
5.1880970809
 30
0.0
 10
4.8313248038
 20
5.1879670521
 30
0.0
 10
4.8303962224
 20
5.1878375822
 30
0.0
 10
4.8296354204
 20
5.1877088243
 30
0.0
 10
4.829186177
 20
5.1876127099
 30
0.0
 10
4.8289906712
 20
5.1875620177
 30
0.0
  0
LINE
  5
3C0
100
AcDbEntity
  8
0
100
AcDbLine
 62
7
  6
CONTINUOUS
 10
5.4162696938
 20
5.4928486967
 11
5.4158052239
 21
5.4927425234
  0
SPLINE
  5
3C1
100
AcDbEntity
  8
0
100
AcDbSpline
 62
7
  6
CONTINUOUS
 70
0
 71
3
 72
62
 73
58
 74
0
 42
0.0000001
 43
0.0000001
 44
0.0000000001
 40
0.0
 40
0.0
 40
0.0
 40
0.0
 40
0.0012487183
 40
0.0027761981
 40
0.0045825968
 40
0.006667606
 40
0.0116707611
 40
0.0177762949
 40
0.0249714762
 40
0.0332409982
 40
0.0425659767
 40
0.0529262243
 40
0.0642978068
 40
0.0766555345
 40
0.1042147867
 40
0.1353546305
 40
0.1697928829
 40
0.2072172401
 40
0.2472881192
 40
0.2896419955
 40
0.3338945348
 40
0.3796441209
 40
0.4264756426
 40
0.4739639021
 40
0.5216779759
 40
0.5691847009
 40
0.6160529419
 40
0.6618573587
 40
0.7061821595
 40
0.7486251352
 40
0.7888010179
 40
0.826345354
 40
0.8609175981
 40
0.8922042609
 40
0.9065257218
 40
0.9199218496
 40
0.9323623958
 40
0.943819441
 40
0.9542666682
 40
0.9636812081
 40
0.9720413258
 40
0.979329044
 40
0.9855281495
 40
0.990625699
 40
0.9927584723
 40
0.9946125484
 40
0.9961874565
 40
0.9974835598
 40
0.9980274434
 40
0.998502238
 40
0.9989084563
 40
0.9992469733
 40
0.9995193813
 40
0.9997288966
 40
0.9998122615
 40
0.9998833702
 40
1.0
 40
1.0
 40
1.0
 40
1.0
 10
5.4158052239
 20
5.4927425234
 30
0.0
 10
5.4155654194
 20
5.4926935138
 30
0.0
 10
5.4150293393
 20
5.4925990185
 30
0.0
 10
5.4141402917
 20
5.4924704109
 30
0.0
 10
5.4130859448
 20
5.4923412664
 30
0.0
 10
5.4113522126
 20
5.492157212
 30
0.0
 10
5.4087756308
 20
5.4919332504
 30
0.0
 10
5.4051970516
 20
5.4916760844
 30
0.0
 10
5.4009768897
 20
5.4914179566
 30
0.0
 10
5.3961247331
 20
5.4911590363
 30
0.0
 10
5.3906514406
 20
5.4908996075
 30
0.0
 10
5.3845695216
 20
5.4906398488
 30
0.0
 10
5.3778926754
 20
5.4903797946
 30
0.0
 10
5.3678460445
 20
5.4900195911
 30
0.0
 10
5.3539252346
 20
5.489575189
 30
0.0
 10
5.3356766834
 20
5.4890579475
 30
0.0
 10
5.3154937984
 20
5.4885398153
 30
0.0
 10
5.293559835
 20
5.488020982
 30
0.0
 10
5.2700739384
 20
5.4875016765
 30
0.0
 10
5.2452493503
 20
5.4869820239
 30
0.0
 10
5.2193114519
 20
5.4864621239
 30
0.0
 10
5.192495724
 20
5.4859420493
 30
0.0
 10
5.165045649
 20
5.4854218591
 30
0.0
 10
5.1372104481
 20
5.4849016022
 30
0.0
 10
5.1092428781
 20
5.4843813229
 30
0.0
 10
5.0813968586
 20
5.483861064
 30
0.0
 10
5.0539252156
 20
5.4833408696
 30
0.0
 10
5.0270773732
 20
5.4828207893
 30
0.0
 10
5.0010970908
 20
5.4823008804
 30
0.0
 10
4.9762202814
 20
5.4817812173
 30
0.0
 10
4.9526728076
 20
5.4812618897
 30
0.0
 10
4.9306684613
 20
5.4807430485
 30
0.0
 10
4.9104069977
 20
5.4802248266
 30
0.0
 10
4.8946970584
 20
5.4797817398
 30
0.0
 10
4.883137167
 20
5.4794237564
 30
0.0
 10
4.8752700704
 20
5.4791633593
 30
0.0
 10
4.8679647517
 20
5.4789031143
 30
0.0
 10
4.8612378341
 20
5.4786430721
 30
0.0
 10
4.8551045161
 20
5.4783832589
 30
0.0
 10
4.849578805
 20
5.4781238251
 30
0.0
 10
4.8446731273
 20
5.4778648294
 30
0.0
 10
4.8403986356
 20
5.4776066348
 30
0.0
 10
4.8367649443
 20
5.4773493634
 30
0.0
 10
4.8341419995
 20
5.4771253881
 30
0.0
 10
4.832370834
 20
5.4769415422
 30
0.0
 10
4.8312882926
 20
5.4768123409
 30
0.0
 10
4.8303710554
 20
5.4766835827
 30
0.0
 10
4.8297109713
 20
5.4765714718
 30
0.0
 10
4.8292666068
 20
5.4764795719
 30
0.0
 10
4.82899485
 20
5.476414872
 30
0.0
 10
4.8287646096
 20
5.4763503616
 30
0.0
 10
4.8285756772
 20
5.4762861377
 30
0.0
 10
4.8284279766
 20
5.4762221587
 30
0.0
 10
4.828331939
 20
5.4761655761
 30
0.0
 10
4.8282780042
 20
5.4761183827
 30
0.0
 10
4.8282439893
 20
5.4760775652
 30
0.0
 10
4.8282302314
 20
5.4760407177
 30
0.0
 10
4.8282302407
 20
5.4760178571
 30
0.0
  0
SPLINE
  5
3C2
100
AcDbEntity
  8
0
100
AcDbSpline
 62
7
  6
CONTINUOUS
 70
0
 71
3
 72
63
 73
59
 74
0
 42
0.0000001
 43
0.0000001
 44
0.0000000001
 40
0.0
 40
0.0
 40
0.0
 40
0.0
 40
0.0001173458
 40
0.0001890255
 40
0.0002731471
 40
0.0004847769
 40
0.0007601292
 40
0.0011024393
 40
0.0015133003
 40
0.0019935846
 40
0.0025438012
 40
0.0038550859
 40
0.0054485045
 40
0.0073243996
 40
0.0094822998
 40
0.0146398594
 40
0.020911699
 40
0.028284573
 40
0.0367418494
 40
0.0462650984
 40
0.0568320443
 40
0.0684192341
 40
0.0809997183
 40
0.094544941
 40
0.1090238824
 40
0.1406475357
 40
0.1755804923
 40
0.2135019618
 40
0.2540635479
 40
0.2968926579
 40
0.3415955523
 40
0.3877614366
 40
0.4349659005
 40
0.4827750846
 40
0.5307495793
 40
0.5784483582
 40
0.6254330203
 40
0.6712716343
 40
0.71554288
 40
0.757839926
 40
0.7977740642
 40
0.8349783817
 40
0.8691111246
 40
0.8998587578
 40
0.9269391616
 40
0.9390251773
 40
0.9501042061
 40
0.9601509825
 40
0.969142379
 40
0.977058602
 40
0.9838812913
 40
0.989596311
 40
0.9920345273
 40
0.9941915171
 40
0.9960666634
 40
0.9976596051
 40
0.9989703952
 40
1.0
 40
1.0
 40
1.0
 40
1.0
 10
5.4170300377
 20
5.2388428572
 30
0.0
 10
5.4170300458
 20
5.2388198376
 30
0.0
 10
5.417016078
 20
5.23878272
 30
0.0
 10
5.4169816461
 20
5.2387416783
 30
0.0
 10
5.4169270059
 20
5.238694172
 30
0.0
 10
5.4168297431
 20
5.23863724
 30
0.0
 10
5.4166801823
 20
5.2385728609
 30
0.0
 10
5.4164888575
 20
5.2385082354
 30
0.0
 10
5.4162556935
 20
5.2384433178
 30
0.0
 10
5.4159804815
 20
5.2383782089
 30
0.0
 10
5.4155304533
 20
5.2382857246
 30
0.0
 10
5.414861976
 20
5.2381729035
 30
0.0
 10
5.4139330996
 20
5.2380433293
 30
0.0
 10
5.4128368353
 20
5.2379133077
 30
0.0
 10
5.4110432465
 20
5.2377282967
 30
0.0
 10
5.4083872006
 20
5.2375029034
 30
0.0
 10
5.4047078143
 20
5.2372439994
 30
0.0
 10
5.4003798222
 20
5.2369841683
 30
0.0
 10
5.3954130766
 20
5.23672353
 30
0.0
 10
5.389819016
 20
5.2364624506
 30
0.0
 10
5.383610386
 20
5.2362009893
 30
0.0
 10
5.3768015501
 20
5.2359392979
 30
0.0
 10
5.3694080823
 20
5.2356774021
 30
0.0
 10
5.3614470196
 20
5.235415354
 30
0.0
 10
5.3497515149
 20
5.2350551275
 30
0.0
 10
5.3338610886
 20
5.234609268
 30
0.0
 10
5.3133723641
 20
5.2340877699
 30
0.0
 10
5.2911297908
 20
5.2335656491
 30
0.0
 10
5.2673378548
 20
5.2330430401
 30
0.0
 10
5.2422153201
 20
5.2325200947
 30
0.0
 10
5.2159931752
 20
5.2319969039
 30
0.0
 10
5.1889125611
 20
5.2314735427
 30
0.0
 10
5.1612224813
 20
5.2309500692
 30
0.0
 10
5.1331775474
 20
5.230426534
 30
0.0
 10
5.1050356278
 20
5.2299029824
 30
0.0
 10
5.0770554813
 20
5.2293794584
 30
0.0
 10
5.0494944006
 20
5.2288560085
 30
0.0
 10
5.0226058162
 20
5.2283326838
 30
0.0
 10
4.9966369713
 20
5.2278095467
 30
0.0
 10
4.9718266392
 20
5.2272866745
 30
0.0
 10
4.9484029328
 20
5.2267641755
 30
0.0
 10
4.92658122
 20
5.2262421834
 30
0.0
 10
4.9065621462
 20
5.2257209529
 30
0.0
 10
4.8885297827
 20
5.2252006871
 30
0.0
 10
4.8748220677
 20
5.2247532367
 30
0.0
 10
4.8649721477
 20
5.2243902424
 30
0.0
 10
4.8584622626
 20
5.224128643
 30
0.0
 10
4.8525599648
 20
5.2238673706
 30
0.0
 10
4.8472787652
 20
5.2236064695
 30
0.0
 10
4.8426308486
 20
5.2233462361
 30
0.0
 10
4.8386267712
 20
5.2230867319
 30
0.0
 10
4.8356974735
 20
5.2228615009
 30
0.0
 10
4.8336832838
 20
5.2226774706
 30
0.0
 10
4.8324206765
 20
5.2225470838
 30
0.0
 10
4.8313248542
 20
5.2224170455
 30
0.0
 10
4.8303962556
 20
5.2222875691
 30
0.0
 10
4.8296353904
 20
5.2221588332
 30
0.0
 10
4.829186093
 20
5.222062718
 30
0.0
 10
4.8289905835
 20
5.2220120176
 30
0.0
  0
ELLIPSE
  5
3C3
100
AcDbEntity
  8
0
100
AcDbEllipse
 62
7
  6
CONTINUOUS
 10
4.9839059299
 20
4.7958928571
 30
0.0
 11
-0.0398102322
 21
0.0
 31
0.0
 40
0.5023834047
 41
0.0
 42
1.5707963268
  0
ELLIPSE
  5
3C4
100
AcDbEntity
  8
0
100
AcDbEllipse
 62
7
  6
CONTINUOUS
 10
5.2613543558
 20
4.7958928571
 30
0.0
 11
-0.0398102322
 21
0.0
 31
0.0
 40
0.5023834047
 41
1.5707963268
 42
3.1415926536
  0
ELLIPSE
  5
3C5
100
AcDbEntity
  8
0
100
AcDbEllipse
 62
7
  6
CONTINUOUS
 10
4.8848974473
 20
4.7958928571
 30
0.0
 11
0.020289227
 21
-0.0
 31
0.0
 40
0.985744801
 41
-1.5707963268
 42
0.0
  0
ELLIPSE
  5
3C6
100
AcDbEntity
  8
0
100
AcDbEllipse
 62
7
  6
CONTINUOUS
 10
5.3603628384
 20
4.7958928571
 30
0.0
 11
0.020289227
 21
0.0
 31
0.0
 40
0.985744801
 41
-3.1415926536
 42
-1.5707963268
  0
ENDSEC
  0
SECTION
  2
OBJECTS
  0
DICTIONARY
  5
C
100
AcDbDictionary
280
0
281
1
  3
ACAD_GROUP
350
D
  3
ACAD_MLINESTYLE
350
17
  3
ACAD_LAYOUT
350
1A
  3
ACAD_PLOTSETTINGS
350
19
  3
ACAD_PLOTSTYLENAME
350
E
  0
DICTIONARY
  5
D
102
{ACAD_REACTORS
330
C
102
}
100
AcDbDictionary
280
0
281
1
  0
ACDBDICTIONARYWDFLT
  5
E
102
{ACAD_REACTORS
330
C
102
}
100
AcDbDictionary
281
1
  3
Normal
350
F
100
AcDbDictionaryWithDefault
340
F
  0
DICTIONARY
  5
17
102
{ACAD_REACTORS
330
C
102
}
100
AcDbDictionary
280
0
281
1
  3
Standard
350
18
  0
DICTIONARY
  5
19
102
{ACAD_REACTORS
330
C
102
}
100
AcDbDictionary
281
1
  0
DICTIONARY
  5
1A
102
{ACAD_REACTORS
330
C
102
}
100
AcDbDictionary
281
1
  3
Model
350
3C7
  3
Layout1
350
3C8
  0
ACDBPLACEHOLDER
  5
F
102
{ACAD_REACTORS
330
E
102
}
  0
MLINESTYLE
  5
18
102
{ACAD_REACTORS
330
17
102
}
100
AcDbMlineStyle
  2
STANDARD
 70
0
  3

 62
256
 51
90.0
 52
90.0
 71
2
 49
0.5
 62
256
  6
BYLAYER
 49
-0.5
 62
256
  6
BYLAYER
  0
LAYOUT
  5
3C7
102
{ACAD_REACTORS
330
1A
102
}
100
AcDbPlotSettings
  1

  2
none_device
  4
ANSI_A_(11.00_x_8.50_Inches)
  6

 40
0.0
 41
0.0
 42
0.0
 43
0.0
 44
279.4
 45
215.9
 46
0.0
 47
0.0
 48
0.0
 49
0.0
140
0.0
141
0.0
142
1.0
143
1.0
 70
1024
 72
0
 73
0
 74
0
  7

 75
0
147
1.0
148
0.0
149
0.0
100
AcDbLayout
  1
Model
 70
0
 71
0
 10
0.0
 20
0.0
 11
11.0
 21
8.5
 12
0.0
 22
0.0
 32
0.0
 14
0.0
 24
0.0
 34
0.0
 15
0.0
 25
0.0
 35
0.0
146
0.0
 13
0.0
 23
0.0
 33
0.0
 16
1.0
 26
0.0
 36
0.0
 17
0.0
 27
1.0
 37
0.0
 76
0
330
202
345
0
346
0
  0
LAYOUT
  5
3C8
102
{ACAD_REACTORS
330
1A
102
}
100
AcDbPlotSettings
  1

  2
none_device
  4
ANSI_A_(11.00_x_8.50_Inches)
  6

 40
0.0
 41
0.0
 42
0.0
 43
0.0
 44
279.4
 45
215.9
 46
0.0
 47
0.0
 48
0.0
 49
0.0
140
0.0
141
0.0
142
1.0
143
1.0
 70
0
 72
0
 73
0
 74
0
  7

 75
0
147
1.0
148
0.0
149
0.0
100
AcDbLayout
  1
Layout1
 70
0
 71
1
 10
0.0
 20
0.0
 11
11.0
 21
8.5
 12
0.0
 22
0.0
 32
0.0
 14
0.0
 24
0.0
 34
0.0
 15
0.0
 25
0.0
 35
0.0
146
0.0
 13
0.0
 23
0.0
 33
0.0
 16
1.0
 26
0.0
 36
0.0
 17
0.0
 27
1.0
 37
0.0
 76
0
330
203
345
0
346
0
  0
ENDSEC
  0
EOF
