999
DXF file: 3180-5711_right.dxf
999
Pro/ENGINEER 2018400 by Parametric Technology Corporation
  0
SECTION
  2
HEADER
  9
$ACADVER
  1
AC1027
  9
$DWGCODEPAGE
  3
ANSI_1252
  9
$EXTMAX
 10
11.0
 20
8.5
 30
0.0
  9
$EXTMIN
 10
0.0
 20
0.0
 30
0.0
  9
$LIMMIN
 10
0.0
 20
0.0
  9
$LIMMAX
 10
11.0
 20
8.5
  9
$VIEWCTR
 10
5.5
 20
4.25
  9
$VIEWSIZE
 40
8.5
  9
$CLAYER
  8
0
  9
$LTSCALE
 40
0.605
  9
$CELTYPE
  6
BYLAYER
  9
$DIMSCALE
 40
1.0
  9
$DIMASZ
 40
0.1
  9
$DIMEXO
 40
0.0625
  9
$DIMDLI
 40
0.418
  9
$DIMEXE
 40
0.125
  9
$DIMCEN
 40
0.099
  9
$DIMLFAC
 40
1.0
  9
$DIMBLK
  1
_FILLED
  9
$DIMALT
 70
1
  9
$DIMALTD
 70
1
  9
$DIMALTTD
 70
2
  9
$DIMALTF
 40
25.4
  9
$DIMTXT
 40
0.08
  9
$DIMTOL
 70
1
  9
$DIMLIM
 70
0
  9
$DIMTFAC
 40
1.0
  9
$DIMTP
 40
0.01
  9
$DIMTM
 40
0.01
  9
$DIMGAP
 40
0.09
  9
$DIMDSEP
 70
46
  9
$AUNITS
 70
0
  9
$PDMODE
 70
3
  9
$PDSIZE
 40
0.3125
  9
$HANDSEED
  5
3CA
  9
$TILEMODE
 70
1
  9
$MEASUREMENT
 70
0
  9
$INSUNITS
 70
1
  0
ENDSEC
  0
SECTION
  2
CLASSES
  0
CLASS
  1
ACDBDICTIONARYWDFLT
  2
AcDbDictionaryWithDefault
  3
AutoCAD 2000
 90
0
 91
1
280
0
281
0
  0
CLASS
  1
ACDBPLACEHOLDER
  2
AcDbPlaceHolder
  3
AutoCAD 2000
 90
0
 91
1
280
0
281
0
  0
CLASS
  1
LAYOUT
  2
AcDbLayout
  3
AutoCAD 2000
 90
0
 91
0
280
0
281
0
  0
ENDSEC
  0
SECTION
  2
TABLES
  0
TABLE
  2
VPORT
  5
8
100
AcDbSymbolTable
 70
2
  0
VPORT
  5
1F4
100
AcDbSymbolTableRecord
100
AcDbViewportTableRecord
  2
*ACTIVE
 70
0
 10
0.0
 20
0.0
 11
1.0
 21
1.0
 12
5.5
 22
4.25
 13
0.0
 23
0.0
 14
1.0
 24
1.0
 15
0.0
 25
0.0
 16
0.0
 26
0.0
 36
1.0
 17
0.0
 27
0.0
 37
0.0
 40
8.5
 41
1.2941176471
 42
50.0
 43
0.0
 44
0.0
 50
0.0
 51
0.0
 71
0
 72
100
 73
1
 74
1
 75
0
 76
0
 77
0
 78
0
  0
ENDTAB
  0
TABLE
  2
LTYPE
  5
5
100
AcDbSymbolTable
 70
6
  0
LTYPE
  5
14
100
AcDbSymbolTableRecord
100
AcDbLinetypeTableRecord
  2
BYBLOCK
 70
0
  3

 72
65
 73
0
 40
0.0
  0
LTYPE
  5
15
100
AcDbSymbolTableRecord
100
AcDbLinetypeTableRecord
  2
BYLAYER
 70
0
  3

 72
65
 73
0
 40
0.0
  0
LTYPE
  5
16
100
AcDbSymbolTableRecord
100
AcDbLinetypeTableRecord
  2
CONTINUOUS
 70
64
  3
Solid line
 72
65
 73
0
 40
0.0
  0
LTYPE
  5
1F5
100
AcDbSymbolTableRecord
100
AcDbLinetypeTableRecord
  2
CENTER
 70
64
  3
____ _ ____ _ ____ _ ____ _ ____ _ ____ _ ____
 72
65
 73
4
 40
0.6
 49
0.375
 74
0
 49
-0.075
 74
0
 49
0.075
 74
0
 49
-0.075
 74
0
  0
LTYPE
  5
1F6
100
AcDbSymbolTableRecord
100
AcDbLinetypeTableRecord
  2
HIDDEN
 70
64
  3
- - - - - - - - - - - - - - - - - - - -
 72
65
 73
2
 40
0.2
 49
0.1
 74
0
 49
-0.1
 74
0
  0
LTYPE
  5
1F7
100
AcDbSymbolTableRecord
100
AcDbLinetypeTableRecord
  2
PHANTOM
 70
64
  3
_____ _ _ _____ _ _ _____ _ _ _____
 72
65
 73
6
 40
0.8
 49
0.45
 74
0
 49
-0.05
 74
0
 49
0.1
 74
0
 49
-0.05
 74
0
 49
0.1
 74
0
 49
-0.05
 74
0
  0
LTYPE
  5
1F8
100
AcDbSymbolTableRecord
100
AcDbLinetypeTableRecord
  2
DOT
 70
64
  3
. . . . . . . . . . . . . . . . . . . .
 72
65
 73
2
 40
0.2
 49
0.1
 74
0
 49
-0.1
 74
0
  0
LTYPE
  5
1F9
100
AcDbSymbolTableRecord
100
AcDbLinetypeTableRecord
  2
DASHED
 70
64
  3
- - - - - - - - - - - - - - - - - - - -
 72
65
 73
2
 40
0.2
 49
0.1
 74
0
 49
-0.1
 74
0
  0
ENDTAB
  0
TABLE
  2
LAYER
  5
2
100
AcDbSymbolTable
 70
36
  0
LAYER
  5
10
100
AcDbSymbolTableRecord
100
AcDbLayerTableRecord
  2
0
 70
0
 62
7
  6
CONTINUOUS
370
-3
390
F
  0
LAYER
  5
1FA
100
AcDbSymbolTableRecord
100
AcDbLayerTableRecord
  2
DEFAULT_1
 70
0
 62
7
  6
CENTER
370
-3
390
F
  0
LAYER
  5
1FB
100
AcDbSymbolTableRecord
100
AcDbLayerTableRecord
  2
DEFAULT_2
 70
0
 62
8
  6
HIDDEN
370
-3
390
F
  0
LAYER
  5
1FC
100
AcDbSymbolTableRecord
100
AcDbLayerTableRecord
  2
DEFAULT_3
 70
0
 62
7
  6
PHANTOM
370
-3
390
F
  0
LAYER
  5
1FD
100
AcDbSymbolTableRecord
100
AcDbLayerTableRecord
  2
DEFAULT_COORDINATE_SYSTEM
 70
0
 62
7
  6
CONTINUOUS
370
-3
390
F
  0
LAYER
  5
1FE
100
AcDbSymbolTableRecord
100
AcDbLayerTableRecord
  2
DEFAULT_DATUM_AXES
 70
0
 62
7
  6
CONTINUOUS
370
-3
390
F
  0
LAYER
  5
1FF
100
AcDbSymbolTableRecord
100
AcDbLayerTableRecord
  2
DEFAULT_DATUM_PLANES
 70
0
 62
7
  6
CONTINUOUS
370
-3
390
F
  0
ENDTAB
  0
TABLE
  2
STYLE
  5
3
100
AcDbSymbolTable
 70
1
  0
STYLE
  5
11
100
AcDbSymbolTableRecord
100
AcDbTextStyleTableRecord
  2
STANDARD
 70
0
 40
0.0
 41
0.8
 50
0.0
 71
0
 42
0.2
  3
txt
  4

  0
STYLE
  5
200
100
AcDbSymbolTableRecord
100
AcDbTextStyleTableRecord
  2
TEXTSTYLE_1
 70
0
 40
0.0
 41
0.8
 50
0.0
 71
0
 42
0.2
  3
gdt
  4

  0
ENDTAB
  0
TABLE
  2
VIEW
  5
6
100
AcDbSymbolTable
 70
0
  0
ENDTAB
  0
TABLE
  2
UCS
  5
7
100
AcDbSymbolTable
 70
0
  0
ENDTAB
  0
TABLE
  2
APPID
  5
9
100
AcDbSymbolTable
 70
1
  0
APPID
  5
201
100
AcDbSymbolTableRecord
100
AcDbRegAppTableRecord
  2
ACAD
 70
0
  0
ENDTAB
  0
TABLE
  2
BLOCK_RECORD
  5
1
100
AcDbSymbolTable
 70
0
  0
BLOCK_RECORD
  5
202
100
AcDbSymbolTableRecord
100
AcDbBlockTableRecord
  2
*Model_Space
  0
BLOCK_RECORD
  5
203
100
AcDbSymbolTableRecord
100
AcDbBlockTableRecord
  2
*Paper_Space
  0
BLOCK_RECORD
  5
204
100
AcDbSymbolTableRecord
100
AcDbBlockTableRecord
  2
_FILLED
  0
ENDTAB
  0
TABLE
  2
DIMSTYLE
  5
A
100
AcDbSymbolTable
 70
1
100
AcDbDimStyleTable
 71
0
  0
DIMSTYLE
105
205
100
AcDbSymbolTableRecord
100
AcDbDimStyleTableRecord
  2
STANDARD
 70
0
  3

  4

 40
1.0
 41
0.1
 42
0.0625
 43
0.38
 44
0.125
 45
0.0
 46
0.0
 47
0.01
 48
0.01
140
0.08
141
0.09
142
0.0
143
25.4
144
1.0
145
0.0
146
1.0
147
0.09
 71
1.0
 72
0.0
 73
1
 74
1
 75
0
 76
0
 77
0
 78
4
 79
1
170
1
171
1
172
0
173
0
174
0
175
0
176
0
177
0
178
0
270
2
179
2
271
2
272
2
273
2
274
2
275
0
280
0
281
0
282
0
283
1
284
4
285
0
286
0
287
3
288
0
340
11
278
46
341
204
342
204
343
204
344
204
  0
ENDTAB
  0
ENDSEC
  0
SECTION
  2
BLOCKS
  0
BLOCK
  5
20
100
AcDbEntity
  8
0
100
AcDbBlockBegin
  2
*Model_Space
 70
0
 10
0.0
 20
0.0
 30
0.0
  3
*Model_Space
  1

  0
ENDBLK
  5
21
100
AcDbEntity
  8
0
100
AcDbBlockEnd
  0
BLOCK
  5
1C
100
AcDbEntity
  8
0
100
AcDbBlockBegin
  2
*Paper_Space
 70
0
 10
0.0
 20
0.0
 30
0.0
  3
*Paper_Space
  1

  0
ENDBLK
  5
1D
100
AcDbEntity
  8
0
100
AcDbBlockEnd
  0
BLOCK
  5
206
100
AcDbEntity
  8
0
100
AcDbBlockBegin
  2
_FILLED
 70
64
 10
0.0
 20
0.0
  3
_FILLED
  1

  0
SOLID
  5
207
100
AcDbEntity
  8
0
  6
BYBLOCK
 62
0
100
AcDbTrace
 10
0.0
 20
0.0
 11
-1.0
 21
0.2
 12
-1.0
 22
-0.2
 13
-1.0
 23
-0.2
  0
ENDBLK
  5
208
100
AcDbEntity
  8
0
  6
BYBLOCK
 62
0
100
AcDbBlockEnd
  0
ENDSEC
  0
SECTION
  2
ENTITIES
  0
MTEXT
  5
209
100
AcDbEntity
  8
0
100
AcDbMText
 62
2
  6
CONTINUOUS
  7
STANDARD
 71
3
 72
1
 10
5.325822294
 20
1.4182531056
 30
0.0
 11
1.0
 21
0.0
 31
0.0
 73
2
 44
0.9
  1
SCALE  .500
 40
0.08
 41
0.704
  0
LINE
  5
20A
100
AcDbEntity
  8
0
100
AcDbLine
 62
7
  6
CONTINUOUS
 10
0.0
 20
0.0
 11
0.0
 21
8.5
  0
LINE
  5
20B
100
AcDbEntity
  8
0
100
AcDbLine
 62
7
  6
CONTINUOUS
 10
0.0
 20
0.0
 11
11.0
 21
0.0
  0
LINE
  5
20C
100
AcDbEntity
  8
0
100
AcDbLine
 62
7
  6
CONTINUOUS
 10
0.0
 20
8.5
 11
11.0
 21
8.5
  0
LINE
  5
20D
100
AcDbEntity
  8
0
100
AcDbLine
 62
7
  6
CONTINUOUS
 10
11.0
 20
0.0
 11
11.0
 21
8.5
  0
LINE
  5
20E
100
AcDbEntity
  8
0
100
AcDbLine
 62
7
  6
CONTINUOUS
 10
4.8402018634
 20
2.4471428571
 11
5.1452018634
 21
2.4471428571
  0
LINE
  5
20F
100
AcDbEntity
  8
0
100
AcDbLine
 62
7
  6
CONTINUOUS
 10
4.8402018634
 20
2.4618928571
 11
5.1452018634
 21
2.4618928571
  0
LINE
  5
210
100
AcDbEntity
  8
0
100
AcDbLine
 62
7
  6
CONTINUOUS
 10
4.8402018634
 20
2.4913928571
 11
5.1452018634
 21
2.4913928571
  0
LINE
  5
211
100
AcDbEntity
  8
0
100
AcDbLine
 62
7
  6
CONTINUOUS
 10
4.8402018634
 20
2.5698928571
 11
5.1452018634
 21
2.5698928571
  0
LINE
  5
212
100
AcDbEntity
  8
0
100
AcDbLine
 62
7
  6
CONTINUOUS
 10
4.8402018634
 20
2.5993928571
 11
5.1452018634
 21
2.5993928571
  0
LINE
  5
213
100
AcDbEntity
  8
0
100
AcDbLine
 62
7
  6
CONTINUOUS
 10
4.8402018634
 20
2.6778928571
 11
5.1452018634
 21
2.6778928571
  0
LINE
  5
214
100
AcDbEntity
  8
0
100
AcDbLine
 62
7
  6
CONTINUOUS
 10
4.8402018634
 20
2.7073928571
 11
5.1452018634
 21
2.7073928571
  0
LINE
  5
215
100
AcDbEntity
  8
0
100
AcDbLine
 62
7
  6
CONTINUOUS
 10
4.8402018634
 20
2.7858928571
 11
5.1452018634
 21
2.7858928571
  0
LINE
  5
216
100
AcDbEntity
  8
0
100
AcDbLine
 62
7
  6
CONTINUOUS
 10
4.8402018634
 20
2.8153928571
 11
5.1452018634
 21
2.8153928571
  0
LINE
  5
217
100
AcDbEntity
  8
0
100
AcDbLine
 62
7
  6
CONTINUOUS
 10
4.8402018634
 20
2.8938928571
 11
5.1452018634
 21
2.8938928571
  0
LINE
  5
218
100
AcDbEntity
  8
0
100
AcDbLine
 62
7
  6
CONTINUOUS
 10
4.8402018634
 20
2.9233928571
 11
5.1452018634
 21
2.9233928571
  0
LINE
  5
219
100
AcDbEntity
  8
0
100
AcDbLine
 62
7
  6
CONTINUOUS
 10
4.8402018634
 20
3.0018928571
 11
5.1452018634
 21
3.0018928571
  0
LINE
  5
21A
100
AcDbEntity
  8
0
100
AcDbLine
 62
7
  6
CONTINUOUS
 10
4.8402018634
 20
3.0313928571
 11
5.1452018634
 21
3.0313928571
  0
LINE
  5
21B
100
AcDbEntity
  8
0
100
AcDbLine
 62
7
  6
CONTINUOUS
 10
5.0065165144
 20
3.9371428571
 11
4.9788872123
 21
3.9371428571
  0
LINE
  5
21C
100
AcDbEntity
  8
0
100
AcDbLine
 62
7
  6
CONTINUOUS
 10
4.7002018634
 20
3.9503928571
 11
5.2852018634
 21
3.9503928571
  0
LINE
  5
21D
100
AcDbEntity
  8
0
100
AcDbLine
 62
7
  6
CONTINUOUS
 10
4.4614518634
 20
5.5408928571
 11
4.4614518634
 21
5.7008928571
  0
LINE
  5
21E
100
AcDbEntity
  8
0
100
AcDbLine
 62
7
  6
CONTINUOUS
 10
4.4989518634
 20
5.7308928571
 11
4.4989518634
 21
5.7383928571
  0
LINE
  5
21F
100
AcDbEntity
  8
0
100
AcDbLine
 62
7
  6
CONTINUOUS
 10
4.5427018634
 20
5.0158928571
 11
4.5427018634
 21
5.0808928571
  0
LINE
  5
220
100
AcDbEntity
  8
0
100
AcDbLine
 62
7
  6
CONTINUOUS
 10
4.5527018634
 20
4.9908928571
 11
4.5527018634
 21
5.0158928571
  0
LINE
  5
221
100
AcDbEntity
  8
0
100
AcDbLine
 62
7
  6
CONTINUOUS
 10
4.5753538404
 20
5.7555226965
 11
4.5839518634
 21
5.8154631991
  0
LINE
  5
222
100
AcDbEntity
  8
0
100
AcDbLine
 62
7
  6
CONTINUOUS
 10
4.5839518634
 20
5.8154631991
 11
4.5839518634
 21
6.0933928571
  0
LINE
  5
223
100
AcDbEntity
  8
0
100
AcDbLine
 62
7
  6
CONTINUOUS
 10
4.5839518634
 20
6.1908928571
 11
4.5839518634
 21
6.2903928571
  0
LINE
  5
224
100
AcDbEntity
  8
0
100
AcDbLine
 62
7
  6
CONTINUOUS
 10
4.5839518634
 20
6.3878928571
 11
4.5839518634
 21
6.7333928571
  0
LINE
  5
225
100
AcDbEntity
  8
0
100
AcDbLine
 62
7
  6
CONTINUOUS
 10
4.6377018634
 20
4.7758928571
 11
4.6377018634
 21
4.9508928571
  0
LINE
  5
226
100
AcDbEntity
  8
0
100
AcDbLine
 62
7
  6
CONTINUOUS
 10
4.6603091166
 20
4.9508928571
 11
4.6603091166
 21
4.7958928571
  0
LINE
  5
227
100
AcDbEntity
  8
0
100
AcDbLine
 62
7
  6
CONTINUOUS
 10
4.6779518634
 20
4.766443225
 11
4.6779518634
 21
4.7758928571
  0
LINE
  5
228
100
AcDbEntity
  8
0
100
AcDbLine
 62
7
  6
CONTINUOUS
 10
4.6779518634
 20
5.0808928571
 11
4.6779518634
 21
5.0871674893
  0
LINE
  5
229
100
AcDbEntity
  8
0
100
AcDbLine
 62
7
  6
CONTINUOUS
 10
4.6779518634
 20
5.110943225
 11
4.6779518634
 21
5.1216174893
  0
LINE
  5
22A
100
AcDbEntity
  8
0
100
AcDbLine
 62
7
  6
CONTINUOUS
 10
4.6779518634
 20
5.145393225
 11
4.6779518634
 21
5.1560674893
  0
LINE
  5
22B
100
AcDbEntity
  8
0
100
AcDbLine
 62
7
  6
CONTINUOUS
 10
4.6779518634
 20
5.179843225
 11
4.6779518634
 21
5.1905174893
  0
LINE
  5
22C
100
AcDbEntity
  8
0
100
AcDbLine
 62
7
  6
CONTINUOUS
 10
4.6779518634
 20
5.214293225
 11
4.6779518634
 21
5.2249674893
  0
LINE
  5
22D
100
AcDbEntity
  8
0
100
AcDbLine
 62
7
  6
CONTINUOUS
 10
4.6779518634
 20
5.248743225
 11
4.6779518634
 21
5.2594174893
  0
LINE
  5
22E
100
AcDbEntity
  8
0
100
AcDbLine
 62
7
  6
CONTINUOUS
 10
4.6779518634
 20
5.283193225
 11
4.6779518634
 21
5.2938674893
  0
LINE
  5
22F
100
AcDbEntity
  8
0
100
AcDbLine
 62
7
  6
CONTINUOUS
 10
4.6779518634
 20
5.317643225
 11
4.6779518634
 21
5.3283174893
  0
LINE
  5
230
100
AcDbEntity
  8
0
100
AcDbLine
 62
7
  6
CONTINUOUS
 10
4.6779518634
 20
5.352093225
 11
4.6779518634
 21
5.3627674893
  0
LINE
  5
231
100
AcDbEntity
  8
0
100
AcDbLine
 62
7
  6
CONTINUOUS
 10
4.6779518634
 20
5.386543225
 11
4.6779518634
 21
5.3972174893
  0
LINE
  5
232
100
AcDbEntity
  8
0
100
AcDbLine
 62
7
  6
CONTINUOUS
 10
4.6779518634
 20
5.420993225
 11
4.6779518634
 21
5.4316674893
  0
LINE
  5
233
100
AcDbEntity
  8
0
100
AcDbLine
 62
7
  6
CONTINUOUS
 10
4.6779518634
 20
5.455443225
 11
4.6779518634
 21
5.4661174893
  0
LINE
  5
234
100
AcDbEntity
  8
0
100
AcDbLine
 62
7
  6
CONTINUOUS
 10
4.6779518634
 20
5.489893225
 11
4.6779518634
 21
5.5005674893
  0
LINE
  5
235
100
AcDbEntity
  8
0
100
AcDbLine
 62
7
  6
CONTINUOUS
 10
4.6779518634
 20
5.524343225
 11
4.6779518634
 21
5.5350174893
  0
LINE
  5
236
100
AcDbEntity
  8
0
100
AcDbLine
 62
7
  6
CONTINUOUS
 10
4.6983018634
 20
5.5408928571
 11
4.6983018634
 21
5.540477355
  0
LINE
  5
237
100
AcDbEntity
  8
0
100
AcDbLine
 62
7
  6
CONTINUOUS
 10
4.6983018634
 20
5.5190803571
 11
4.6983018634
 21
5.506027355
  0
LINE
  5
238
100
AcDbEntity
  8
0
100
AcDbLine
 62
7
  6
CONTINUOUS
 10
4.6983018634
 20
5.4846303571
 11
4.6983018634
 21
5.471577355
  0
LINE
  5
239
100
AcDbEntity
  8
0
100
AcDbLine
 62
7
  6
CONTINUOUS
 10
4.6983018634
 20
5.4501803571
 11
4.6983018634
 21
5.437127355
  0
LINE
  5
23A
100
AcDbEntity
  8
0
100
AcDbLine
 62
7
  6
CONTINUOUS
 10
4.6983018634
 20
5.4157303571
 11
4.6983018634
 21
5.402677355
  0
LINE
  5
23B
100
AcDbEntity
  8
0
100
AcDbLine
 62
7
  6
CONTINUOUS
 10
4.6983018634
 20
5.3812803571
 11
4.6983018634
 21
5.368227355
  0
LINE
  5
23C
100
AcDbEntity
  8
0
100
AcDbLine
 62
7
  6
CONTINUOUS
 10
4.6983018634
 20
5.3468303571
 11
4.6983018634
 21
5.333777355
  0
LINE
  5
23D
100
AcDbEntity
  8
0
100
AcDbLine
 62
7
  6
CONTINUOUS
 10
4.6983018634
 20
5.3123803571
 11
4.6983018634
 21
5.299327355
  0
LINE
  5
23E
100
AcDbEntity
  8
0
100
AcDbLine
 62
7
  6
CONTINUOUS
 10
4.6983018634
 20
5.2779303571
 11
4.6983018634
 21
5.264877355
  0
LINE
  5
23F
100
AcDbEntity
  8
0
100
AcDbLine
 62
7
  6
CONTINUOUS
 10
4.6983018634
 20
5.2434803571
 11
4.6983018634
 21
5.230427355
  0
LINE
  5
240
100
AcDbEntity
  8
0
100
AcDbLine
 62
7
  6
CONTINUOUS
 10
4.6983018634
 20
5.2090303571
 11
4.6983018634
 21
5.195977355
  0
LINE
  5
241
100
AcDbEntity
  8
0
100
AcDbLine
 62
7
  6
CONTINUOUS
 10
4.6983018634
 20
5.1745803571
 11
4.6983018634
 21
5.161527355
  0
LINE
  5
242
100
AcDbEntity
  8
0
100
AcDbLine
 62
7
  6
CONTINUOUS
 10
4.6983018634
 20
5.1401303571
 11
4.6983018634
 21
5.127077355
  0
LINE
  5
243
100
AcDbEntity
  8
0
100
AcDbLine
 62
7
  6
CONTINUOUS
 10
4.6983018634
 20
5.1056803571
 11
4.6983018634
 21
5.092627355
  0
LINE
  5
244
100
AcDbEntity
  8
0
100
AcDbLine
 62
7
  6
CONTINUOUS
 10
4.6983018634
 20
4.7611803571
 11
4.6983018634
 21
4.748127355
  0
LINE
  5
245
100
AcDbEntity
  8
0
100
AcDbLine
 62
7
  6
CONTINUOUS
 10
4.7002018634
 20
3.9503928571
 11
4.7002018634
 21
4.7456428571
  0
LINE
  5
246
100
AcDbEntity
  8
0
100
AcDbLine
 62
7
  6
CONTINUOUS
 10
4.7427018634
 20
6.1933928571
 11
4.7427018634
 21
6.1908928571
  0
LINE
  5
247
100
AcDbEntity
  8
0
100
AcDbLine
 62
7
  6
CONTINUOUS
 10
4.7792018634
 20
3.7504985572
 11
4.7792018634
 21
3.3420778378
  0
LINE
  5
248
100
AcDbEntity
  8
0
100
AcDbLine
 62
7
  6
CONTINUOUS
 10
4.7792018634
 20
3.2847109115
 11
4.7792018634
 21
3.2174605171
  0
LINE
  5
249
100
AcDbEntity
  8
0
100
AcDbLine
 62
7
  6
CONTINUOUS
 10
4.7792018634
 20
3.1600590099
 11
4.7792018634
 21
3.0928431963
  0
LINE
  5
24A
100
AcDbEntity
  8
0
100
AcDbLine
 62
7
  6
CONTINUOUS
 10
4.7792018634
 20
3.0354416892
 11
4.7792018634
 21
2.9682258756
  0
LINE
  5
24B
100
AcDbEntity
  8
0
100
AcDbLine
 62
7
  6
CONTINUOUS
 10
4.7792018634
 20
2.9108243684
 11
4.7792018634
 21
2.8436085549
  0
LINE
  5
24C
100
AcDbEntity
  8
0
100
AcDbLine
 62
7
  6
CONTINUOUS
 10
4.7792018634
 20
2.7862070477
 11
4.7792018634
 21
2.7189912342
  0
LINE
  5
24D
100
AcDbEntity
  8
0
100
AcDbLine
 62
7
  6
CONTINUOUS
 10
4.8402018634
 20
6.1933928571
 11
4.8402018634
 21
6.1908928571
  0
LINE
  5
24E
100
AcDbEntity
  8
0
100
AcDbLine
 62
7
  6
CONTINUOUS
 10
4.8402018634
 20
2.4471428571
 11
4.8402018634
 21
2.4618928571
  0
LINE
  5
24F
100
AcDbEntity
  8
0
100
AcDbLine
 62
7
  6
CONTINUOUS
 10
4.8402018634
 20
2.4913928571
 11
4.8402018634
 21
2.5698928571
  0
LINE
  5
250
100
AcDbEntity
  8
0
100
AcDbLine
 62
7
  6
CONTINUOUS
 10
4.8402018634
 20
2.5993928571
 11
4.8402018634
 21
2.6778928571
  0
LINE
  5
251
100
AcDbEntity
  8
0
100
AcDbLine
 62
7
  6
CONTINUOUS
 10
4.8402018634
 20
2.7073928571
 11
4.8402018634
 21
2.7858928571
  0
LINE
  5
252
100
AcDbEntity
  8
0
100
AcDbLine
 62
7
  6
CONTINUOUS
 10
4.8402018634
 20
2.8153928571
 11
4.8402018634
 21
2.8938928571
  0
LINE
  5
253
100
AcDbEntity
  8
0
100
AcDbLine
 62
7
  6
CONTINUOUS
 10
4.8402018634
 20
2.9233928571
 11
4.8402018634
 21
3.0018928571
  0
LINE
  5
254
100
AcDbEntity
  8
0
100
AcDbLine
 62
7
  6
CONTINUOUS
 10
4.8402018634
 20
3.0313928571
 11
4.8402018634
 21
3.7437530739
  0
LINE
  5
255
100
AcDbEntity
  8
0
100
AcDbLine
 62
7
  6
CONTINUOUS
 10
4.8652018634
 20
6.1533928571
 11
4.8652018634
 21
6.2343928571
  0
LINE
  5
256
100
AcDbEntity
  8
0
100
AcDbLine
 62
7
  6
CONTINUOUS
 10
4.8720472035
 20
6.2240524328
 11
4.8720472035
 21
6.2016481754
  0
LINE
  5
257
100
AcDbEntity
  8
0
100
AcDbLine
 62
7
  6
CONTINUOUS
 10
4.8720472035
 20
6.1913077511
 11
4.8720472035
 21
6.1533928571
  0
LINE
  5
258
100
AcDbEntity
  8
0
100
AcDbLine
 62
7
  6
CONTINUOUS
 10
4.9017103451
 20
6.2016481754
 11
4.9017103451
 21
6.1913077511
  0
LINE
  5
259
100
AcDbEntity
  8
0
100
AcDbLine
 62
7
  6
CONTINUOUS
 10
4.9062739041
 20
6.2343928571
 11
4.9062739041
 21
6.2240524328
  0
LINE
  5
25A
100
AcDbEntity
  8
0
100
AcDbLine
 62
7
  6
CONTINUOUS
 10
4.9154010254
 20
6.2343928571
 11
4.9154010254
 21
6.1533928571
  0
LINE
  5
25B
100
AcDbEntity
  8
0
100
AcDbLine
 62
7
  6
CONTINUOUS
 10
4.9222463622
 20
6.2343928571
 11
4.9222463622
 21
6.1637332826
  0
LINE
  5
25C
100
AcDbEntity
  8
0
100
AcDbLine
 62
7
  6
CONTINUOUS
 10
4.9564730629
 20
6.1637332826
 11
4.9564730629
 21
6.1533928571
  0
LINE
  5
25D
100
AcDbEntity
  8
0
100
AcDbLine
 62
7
  6
CONTINUOUS
 10
4.9702018634
 20
4.9508928571
 11
4.9702018634
 21
4.7958928571
  0
LINE
  5
25E
100
AcDbEntity
  8
0
100
AcDbLine
 62
7
  6
CONTINUOUS
 10
5.0152018634
 20
4.9508928571
 11
5.0152018634
 21
4.7958928571
  0
LINE
  5
25F
100
AcDbEntity
  8
0
100
AcDbLine
 62
7
  6
CONTINUOUS
 10
5.1452018634
 20
2.4471428571
 11
5.1452018634
 21
2.4618928571
  0
LINE
  5
260
100
AcDbEntity
  8
0
100
AcDbLine
 62
7
  6
CONTINUOUS
 10
5.1452018634
 20
2.4913928571
 11
5.1452018634
 21
2.5698928571
  0
LINE
  5
261
100
AcDbEntity
  8
0
100
AcDbLine
 62
7
  6
CONTINUOUS
 10
5.1452018634
 20
2.5993928571
 11
5.1452018634
 21
2.6778928571
  0
LINE
  5
262
100
AcDbEntity
  8
0
100
AcDbLine
 62
7
  6
CONTINUOUS
 10
5.1452018634
 20
2.7073928571
 11
5.1452018634
 21
2.7858928571
  0
LINE
  5
263
100
AcDbEntity
  8
0
100
AcDbLine
 62
7
  6
CONTINUOUS
 10
5.1452018634
 20
2.8153928571
 11
5.1452018634
 21
2.8938928571
  0
LINE
  5
264
100
AcDbEntity
  8
0
100
AcDbLine
 62
7
  6
CONTINUOUS
 10
5.1452018634
 20
2.9233928571
 11
5.1452018634
 21
3.0018928571
  0
LINE
  5
265
100
AcDbEntity
  8
0
100
AcDbLine
 62
7
  6
CONTINUOUS
 10
5.1452018634
 20
3.0313928571
 11
5.1452018634
 21
3.7437530739
  0
LINE
  5
266
100
AcDbEntity
  8
0
100
AcDbLine
 62
7
  6
CONTINUOUS
 10
4.6990622742
 20
4.7483245177
 11
4.6887189418
 21
4.7456428571
  0
LINE
  5
267
100
AcDbEntity
  8
0
100
AcDbLine
 62
7
  6
CONTINUOUS
 10
4.6887195194
 20
4.7456428571
 11
5.3074518305
 21
4.7456428571
  0
LINE
  5
268
100
AcDbEntity
  8
0
100
AcDbLine
 62
7
  6
CONTINUOUS
 10
5.3477018634
 20
4.7758928571
 11
4.6377018634
 21
4.7758928571
  0
LINE
  5
269
100
AcDbEntity
  8
0
100
AcDbLine
 62
7
  6
CONTINUOUS
 10
5.3477018634
 20
4.7958928571
 11
5.3250946101
 21
4.7958928571
  0
LINE
  5
26A
100
AcDbEntity
  8
0
100
AcDbLine
 62
7
  6
CONTINUOUS
 10
5.0152018634
 20
4.7958928571
 11
4.9702018634
 21
4.7958928571
  0
LINE
  5
26B
100
AcDbEntity
  8
0
100
AcDbLine
 62
7
  6
CONTINUOUS
 10
4.6603091166
 20
4.7958928571
 11
4.6377018634
 21
4.7958928571
  0
LINE
  5
26C
100
AcDbEntity
  8
0
100
AcDbLine
 62
7
  6
CONTINUOUS
 10
4.6786634588
 20
4.7660744683
 11
4.6982540037
 21
4.7609957691
  0
LINE
  5
26D
100
AcDbEntity
  8
0
100
AcDbLine
 62
7
  6
CONTINUOUS
 10
5.2062018634
 20
3.7504985572
 11
5.2062018634
 21
3.3420778378
  0
LINE
  5
26E
100
AcDbEntity
  8
0
100
AcDbLine
 62
7
  6
CONTINUOUS
 10
5.2062018634
 20
3.2846899067
 11
5.2062018634
 21
3.2174605171
  0
LINE
  5
26F
100
AcDbEntity
  8
0
100
AcDbLine
 62
7
  6
CONTINUOUS
 10
5.2062018634
 20
3.1600949951
 11
5.2062018634
 21
3.0928431963
  0
LINE
  5
270
100
AcDbEntity
  8
0
100
AcDbLine
 62
7
  6
CONTINUOUS
 10
5.2062018634
 20
3.0354776743
 11
5.2062018634
 21
2.9682258756
  0
LINE
  5
271
100
AcDbEntity
  8
0
100
AcDbLine
 62
7
  6
CONTINUOUS
 10
5.2062018634
 20
2.9108603536
 11
5.2062018634
 21
2.8436085549
  0
LINE
  5
272
100
AcDbEntity
  8
0
100
AcDbLine
 62
7
  6
CONTINUOUS
 10
5.2062018634
 20
2.7862430329
 11
5.2062018634
 21
2.7189912342
  0
LINE
  5
273
100
AcDbEntity
  8
0
100
AcDbLine
 62
7
  6
CONTINUOUS
 10
5.2852018634
 20
3.9503928571
 11
5.2852018634
 21
4.7456428571
  0
LINE
  5
274
100
AcDbEntity
  8
0
100
AcDbLine
 62
7
  6
CONTINUOUS
 10
5.2871018634
 20
4.7651553571
 11
5.2871018634
 21
4.7758928571
  0
LINE
  5
275
100
AcDbEntity
  8
0
100
AcDbLine
 62
7
  6
CONTINUOUS
 10
5.2871018634
 20
5.0808928571
 11
5.2871018634
 21
5.0882583601
  0
LINE
  5
276
100
AcDbEntity
  8
0
100
AcDbLine
 62
7
  6
CONTINUOUS
 10
5.2871018634
 20
5.1096553571
 11
5.2871018634
 21
5.1227083601
  0
LINE
  5
277
100
AcDbEntity
  8
0
100
AcDbLine
 62
7
  6
CONTINUOUS
 10
5.2871018634
 20
5.1441053571
 11
5.2871018634
 21
5.1571583601
  0
LINE
  5
278
100
AcDbEntity
  8
0
100
AcDbLine
 62
7
  6
CONTINUOUS
 10
5.2871018634
 20
5.1785553571
 11
5.2871018634
 21
5.1916083601
  0
LINE
  5
279
100
AcDbEntity
  8
0
100
AcDbLine
 62
7
  6
CONTINUOUS
 10
5.2871018634
 20
5.2130053571
 11
5.2871018634
 21
5.2260583601
  0
LINE
  5
27A
100
AcDbEntity
  8
0
100
AcDbLine
 62
7
  6
CONTINUOUS
 10
5.2871018634
 20
5.2474553571
 11
5.2871018634
 21
5.2605083601
  0
LINE
  5
27B
100
AcDbEntity
  8
0
100
AcDbLine
 62
7
  6
CONTINUOUS
 10
5.2871018634
 20
5.2819053571
 11
5.2871018634
 21
5.2949583601
  0
LINE
  5
27C
100
AcDbEntity
  8
0
100
AcDbLine
 62
7
  6
CONTINUOUS
 10
5.2871018634
 20
5.3163553571
 11
5.2871018634
 21
5.3294083601
  0
LINE
  5
27D
100
AcDbEntity
  8
0
100
AcDbLine
 62
7
  6
CONTINUOUS
 10
5.2871018634
 20
5.3508053571
 11
5.2871018634
 21
5.3638583601
  0
LINE
  5
27E
100
AcDbEntity
  8
0
100
AcDbLine
 62
7
  6
CONTINUOUS
 10
5.2871018634
 20
5.3852553571
 11
5.2871018634
 21
5.3983083601
  0
LINE
  5
27F
100
AcDbEntity
  8
0
100
AcDbLine
 62
7
  6
CONTINUOUS
 10
5.2871018634
 20
5.4197053571
 11
5.2871018634
 21
5.4327583601
  0
LINE
  5
280
100
AcDbEntity
  8
0
100
AcDbLine
 62
7
  6
CONTINUOUS
 10
5.2871018634
 20
5.4541553571
 11
5.2871018634
 21
5.4672083601
  0
LINE
  5
281
100
AcDbEntity
  8
0
100
AcDbLine
 62
7
  6
CONTINUOUS
 10
5.2871018634
 20
5.4886053571
 11
5.2871018634
 21
5.5016583601
  0
LINE
  5
282
100
AcDbEntity
  8
0
100
AcDbLine
 62
7
  6
CONTINUOUS
 10
5.2871018634
 20
5.5230553571
 11
5.2871018634
 21
5.5361083601
  0
LINE
  5
283
100
AcDbEntity
  8
0
100
AcDbLine
 62
7
  6
CONTINUOUS
 10
5.3074518634
 20
4.7456428571
 11
5.3074518634
 21
4.7598924893
  0
LINE
  5
284
100
AcDbEntity
  8
0
100
AcDbLine
 62
7
  6
CONTINUOUS
 10
5.3074518634
 20
5.093718225
 11
5.3074518634
 21
5.1043924893
  0
LINE
  5
285
100
AcDbEntity
  8
0
100
AcDbLine
 62
7
  6
CONTINUOUS
 10
5.3074518634
 20
5.128168225
 11
5.3074518634
 21
5.1388424893
  0
LINE
  5
286
100
AcDbEntity
  8
0
100
AcDbLine
 62
7
  6
CONTINUOUS
 10
5.3074518634
 20
5.162618225
 11
5.3074518634
 21
5.1732924893
  0
LINE
  5
287
100
AcDbEntity
  8
0
100
AcDbLine
 62
7
  6
CONTINUOUS
 10
5.3074518634
 20
5.197068225
 11
5.3074518634
 21
5.2077424893
  0
LINE
  5
288
100
AcDbEntity
  8
0
100
AcDbLine
 62
7
  6
CONTINUOUS
 10
5.3074518634
 20
5.231518225
 11
5.3074518634
 21
5.2421924893
  0
LINE
  5
289
100
AcDbEntity
  8
0
100
AcDbLine
 62
7
  6
CONTINUOUS
 10
5.3074518634
 20
5.265968225
 11
5.3074518634
 21
5.2766424893
  0
LINE
  5
28A
100
AcDbEntity
  8
0
100
AcDbLine
 62
7
  6
CONTINUOUS
 10
5.3074518634
 20
5.300418225
 11
5.3074518634
 21
5.3110924893
  0
LINE
  5
28B
100
AcDbEntity
  8
0
100
AcDbLine
 62
7
  6
CONTINUOUS
 10
5.3074518634
 20
5.334868225
 11
5.3074518634
 21
5.3455424893
  0
LINE
  5
28C
100
AcDbEntity
  8
0
100
AcDbLine
 62
7
  6
CONTINUOUS
 10
5.3074518634
 20
5.369318225
 11
5.3074518634
 21
5.3799924893
  0
LINE
  5
28D
100
AcDbEntity
  8
0
100
AcDbLine
 62
7
  6
CONTINUOUS
 10
5.3074518634
 20
5.403768225
 11
5.3074518634
 21
5.4144424893
  0
LINE
  5
28E
100
AcDbEntity
  8
0
100
AcDbLine
 62
7
  6
CONTINUOUS
 10
5.3074518634
 20
5.438218225
 11
5.3074518634
 21
5.4488924893
  0
LINE
  5
28F
100
AcDbEntity
  8
0
100
AcDbLine
 62
7
  6
CONTINUOUS
 10
5.3074518634
 20
5.472668225
 11
5.3074518634
 21
5.4833424893
  0
LINE
  5
290
100
AcDbEntity
  8
0
100
AcDbLine
 62
7
  6
CONTINUOUS
 10
5.3074518634
 20
5.507118225
 11
5.3074518634
 21
5.5177924893
  0
LINE
  5
291
100
AcDbEntity
  8
0
100
AcDbLine
 62
7
  6
CONTINUOUS
 10
4.5927018634
 20
4.9508928571
 11
5.3927018634
 21
4.9508928571
  0
LINE
  5
292
100
AcDbEntity
  8
0
100
AcDbLine
 62
7
  6
CONTINUOUS
 10
5.306740268
 20
4.760261246
 11
5.2871018634
 21
4.765352355
  0
LINE
  5
293
100
AcDbEntity
  8
0
100
AcDbLine
 62
7
  6
CONTINUOUS
 10
5.3250946101
 20
4.9508928571
 11
5.3250946101
 21
4.7958928571
  0
LINE
  5
294
100
AcDbEntity
  8
0
100
AcDbLine
 62
7
  6
CONTINUOUS
 10
5.3477018634
 20
4.9508928571
 11
5.3477018634
 21
4.7758928571
  0
LINE
  5
295
100
AcDbEntity
  8
0
100
AcDbLine
 62
7
  6
CONTINUOUS
 10
5.4014518634
 20
5.8154631991
 11
5.4014518634
 21
6.7333928571
  0
LINE
  5
296
100
AcDbEntity
  8
0
100
AcDbLine
 62
7
  6
CONTINUOUS
 10
5.4327018634
 20
4.9908928571
 11
5.4327018634
 21
5.0158928571
  0
LINE
  5
297
100
AcDbEntity
  8
0
100
AcDbLine
 62
7
  6
CONTINUOUS
 10
5.4427018634
 20
5.0158928571
 11
5.4427018634
 21
5.0808928571
  0
LINE
  5
298
100
AcDbEntity
  8
0
100
AcDbLine
 62
7
  6
CONTINUOUS
 10
5.2863414524
 20
5.0880611966
 11
5.3067402679
 21
5.0933494683
  0
LINE
  5
299
100
AcDbEntity
  8
0
100
AcDbLine
 62
7
  6
CONTINUOUS
 10
5.2863414524
 20
5.1225111966
 11
5.3067402679
 21
5.1277994683
  0
LINE
  5
29A
100
AcDbEntity
  8
0
100
AcDbLine
 62
7
  6
CONTINUOUS
 10
5.2863414524
 20
5.1569611966
 11
5.3067402679
 21
5.1622494683
  0
LINE
  5
29B
100
AcDbEntity
  8
0
100
AcDbLine
 62
7
  6
CONTINUOUS
 10
5.2863414524
 20
5.1914111966
 11
5.3067402679
 21
5.1966994683
  0
LINE
  5
29C
100
AcDbEntity
  8
0
100
AcDbLine
 62
7
  6
CONTINUOUS
 10
4.5527018634
 20
4.9908928571
 11
5.4327018634
 21
4.9908928571
  0
LINE
  5
29D
100
AcDbEntity
  8
0
100
AcDbLine
 62
7
  6
CONTINUOUS
 10
5.4427018634
 20
5.0158928571
 11
4.5427018634
 21
5.0158928571
  0
LINE
  5
29E
100
AcDbEntity
  8
0
100
AcDbLine
 62
7
  6
CONTINUOUS
 10
5.4427018634
 20
5.0808928571
 11
4.5427018634
 21
5.0808928571
  0
LINE
  5
29F
100
AcDbEntity
  8
0
100
AcDbLine
 62
7
  6
CONTINUOUS
 10
4.6786634588
 20
5.1105744683
 11
4.6982540037
 21
5.1054957691
  0
LINE
  5
2A0
100
AcDbEntity
  8
0
100
AcDbLine
 62
7
  6
CONTINUOUS
 10
4.6786634588
 20
5.1450244683
 11
4.6982540037
 21
5.1399457691
  0
LINE
  5
2A1
100
AcDbEntity
  8
0
100
AcDbLine
 62
7
  6
CONTINUOUS
 10
4.6786634588
 20
5.1794744683
 11
4.6982540037
 21
5.1743957691
  0
LINE
  5
2A2
100
AcDbEntity
  8
0
100
AcDbLine
 62
7
  6
CONTINUOUS
 10
4.6786634588
 20
5.2139244683
 11
4.6982540037
 21
5.2088457691
  0
LINE
  5
2A3
100
AcDbEntity
  8
0
100
AcDbLine
 62
7
  6
CONTINUOUS
 10
5.4864518634
 20
5.7308928571
 11
5.4864518634
 21
5.7383928571
  0
LINE
  5
2A4
100
AcDbEntity
  8
0
100
AcDbLine
 62
7
  6
CONTINUOUS
 10
5.5239518634
 20
5.5408928571
 11
5.5239518634
 21
5.7008928571
  0
LINE
  5
2A5
100
AcDbEntity
  8
0
100
AcDbLine
 62
7
  6
CONTINUOUS
 10
5.2863414524
 20
5.2258611966
 11
5.3067402679
 21
5.2311494683
  0
LINE
  5
2A6
100
AcDbEntity
  8
0
100
AcDbLine
 62
7
  6
CONTINUOUS
 10
4.6990622742
 20
5.0928245177
 11
4.6786634587
 21
5.087536246
  0
LINE
  5
2A7
100
AcDbEntity
  8
0
100
AcDbLine
 62
7
  6
CONTINUOUS
 10
5.2863414524
 20
5.2603111966
 11
5.3067402679
 21
5.2655994683
  0
LINE
  5
2A8
100
AcDbEntity
  8
0
100
AcDbLine
 62
7
  6
CONTINUOUS
 10
4.6990622742
 20
5.1272745177
 11
4.6786634587
 21
5.121986246
  0
LINE
  5
2A9
100
AcDbEntity
  8
0
100
AcDbLine
 62
7
  6
CONTINUOUS
 10
5.2863414524
 20
5.2947611966
 11
5.3067402679
 21
5.3000494683
  0
LINE
  5
2AA
100
AcDbEntity
  8
0
100
AcDbLine
 62
7
  6
CONTINUOUS
 10
4.6990622742
 20
5.1617245177
 11
4.6786634587
 21
5.156436246
  0
LINE
  5
2AB
100
AcDbEntity
  8
0
100
AcDbLine
 62
7
  6
CONTINUOUS
 10
5.2863414524
 20
5.3292111966
 11
5.3067402679
 21
5.3344994683
  0
LINE
  5
2AC
100
AcDbEntity
  8
0
100
AcDbLine
 62
7
  6
CONTINUOUS
 10
4.6990622742
 20
5.1961745177
 11
4.6786634587
 21
5.190886246
  0
LINE
  5
2AD
100
AcDbEntity
  8
0
100
AcDbLine
 62
7
  6
CONTINUOUS
 10
5.2863414524
 20
5.3636611966
 11
5.3067402679
 21
5.3689494683
  0
LINE
  5
2AE
100
AcDbEntity
  8
0
100
AcDbLine
 62
7
  6
CONTINUOUS
 10
4.6786634588
 20
5.2483744683
 11
4.6982540037
 21
5.2432957691
  0
LINE
  5
2AF
100
AcDbEntity
  8
0
100
AcDbLine
 62
7
  6
CONTINUOUS
 10
5.306740268
 20
5.104761246
 11
5.2871018634
 21
5.109852355
  0
LINE
  5
2B0
100
AcDbEntity
  8
0
100
AcDbLine
 62
7
  6
CONTINUOUS
 10
4.6786634588
 20
5.2828244683
 11
4.6982540037
 21
5.2777457691
  0
LINE
  5
2B1
100
AcDbEntity
  8
0
100
AcDbLine
 62
7
  6
CONTINUOUS
 10
5.306740268
 20
5.139211246
 11
5.2871018634
 21
5.144302355
  0
LINE
  5
2B2
100
AcDbEntity
  8
0
100
AcDbLine
 62
7
  6
CONTINUOUS
 10
4.6786634588
 20
5.3172744683
 11
4.6982540037
 21
5.3121957691
  0
LINE
  5
2B3
100
AcDbEntity
  8
0
100
AcDbLine
 62
7
  6
CONTINUOUS
 10
5.306740268
 20
5.173661246
 11
5.2871018634
 21
5.178752355
  0
LINE
  5
2B4
100
AcDbEntity
  8
0
100
AcDbLine
 62
7
  6
CONTINUOUS
 10
4.6786634588
 20
5.3517244683
 11
4.6982540037
 21
5.3466457691
  0
LINE
  5
2B5
100
AcDbEntity
  8
0
100
AcDbLine
 62
7
  6
CONTINUOUS
 10
5.306740268
 20
5.208111246
 11
5.2871018634
 21
5.213202355
  0
LINE
  5
2B6
100
AcDbEntity
  8
0
100
AcDbLine
 62
7
  6
CONTINUOUS
 10
5.4100498863
 20
5.7555226965
 11
5.4014518634
 21
5.8154631991
  0
LINE
  5
2B7
100
AcDbEntity
  8
0
100
AcDbLine
 62
7
  6
CONTINUOUS
 10
4.6990622742
 20
5.2306245177
 11
4.6786634587
 21
5.225336246
  0
LINE
  5
2B8
100
AcDbEntity
  8
0
100
AcDbLine
 62
7
  6
CONTINUOUS
 10
5.2863414524
 20
5.3981111966
 11
5.3067402679
 21
5.4033994683
  0
LINE
  5
2B9
100
AcDbEntity
  8
0
100
AcDbLine
 62
7
  6
CONTINUOUS
 10
4.6990622742
 20
5.2650745177
 11
4.6786634587
 21
5.259786246
  0
LINE
  5
2BA
100
AcDbEntity
  8
0
100
AcDbLine
 62
7
  6
CONTINUOUS
 10
5.2863414524
 20
5.4325611966
 11
5.3067402679
 21
5.4378494683
  0
LINE
  5
2BB
100
AcDbEntity
  8
0
100
AcDbLine
 62
7
  6
CONTINUOUS
 10
4.6990622742
 20
5.2995245177
 11
4.6786634587
 21
5.294236246
  0
LINE
  5
2BC
100
AcDbEntity
  8
0
100
AcDbLine
 62
7
  6
CONTINUOUS
 10
5.2863414524
 20
5.4670111966
 11
5.3067402679
 21
5.4722994683
  0
LINE
  5
2BD
100
AcDbEntity
  8
0
100
AcDbLine
 62
7
  6
CONTINUOUS
 10
4.6990622742
 20
5.3339745177
 11
4.6786634587
 21
5.328686246
  0
LINE
  5
2BE
100
AcDbEntity
  8
0
100
AcDbLine
 62
7
  6
CONTINUOUS
 10
5.2863414524
 20
5.5014611966
 11
5.3067402679
 21
5.5067494683
  0
LINE
  5
2BF
100
AcDbEntity
  8
0
100
AcDbLine
 62
7
  6
CONTINUOUS
 10
4.6990622742
 20
5.3684245177
 11
4.6786634587
 21
5.363136246
  0
LINE
  5
2C0
100
AcDbEntity
  8
0
100
AcDbLine
 62
7
  6
CONTINUOUS
 10
5.0356221318
 20
5.3721299893
 11
4.9927018634
 21
5.3713799893
  0
LINE
  5
2C1
100
AcDbEntity
  8
0
100
AcDbLine
 62
7
  6
CONTINUOUS
 10
4.9927018634
 20
5.395155725
 11
5.0356221318
 21
5.395905725
  0
LINE
  5
2C2
100
AcDbEntity
  8
0
100
AcDbLine
 62
7
  6
CONTINUOUS
 10
4.6786634588
 20
5.3861744683
 11
4.6982540037
 21
5.3810957691
  0
LINE
  5
2C3
100
AcDbEntity
  8
0
100
AcDbLine
 62
7
  6
CONTINUOUS
 10
5.306740268
 20
5.242561246
 11
5.2871018634
 21
5.247652355
  0
LINE
  5
2C4
100
AcDbEntity
  8
0
100
AcDbLine
 62
7
  6
CONTINUOUS
 10
4.6786634588
 20
5.4206244683
 11
4.6982540037
 21
5.4155457691
  0
LINE
  5
2C5
100
AcDbEntity
  8
0
100
AcDbLine
 62
7
  6
CONTINUOUS
 10
5.306740268
 20
5.277011246
 11
5.2871018634
 21
5.282102355
  0
LINE
  5
2C6
100
AcDbEntity
  8
0
100
AcDbLine
 62
7
  6
CONTINUOUS
 10
4.6786634588
 20
5.4550744683
 11
4.6982540037
 21
5.4499957691
  0
LINE
  5
2C7
100
AcDbEntity
  8
0
100
AcDbLine
 62
7
  6
CONTINUOUS
 10
5.306740268
 20
5.311461246
 11
5.2871018634
 21
5.316552355
  0
LINE
  5
2C8
100
AcDbEntity
  8
0
100
AcDbLine
 62
7
  6
CONTINUOUS
 10
4.6786634588
 20
5.4895244683
 11
4.6982540037
 21
5.4844457691
  0
LINE
  5
2C9
100
AcDbEntity
  8
0
100
AcDbLine
 62
7
  6
CONTINUOUS
 10
5.306740268
 20
5.345911246
 11
5.2871018634
 21
5.351002355
  0
LINE
  5
2CA
100
AcDbEntity
  8
0
100
AcDbLine
 62
7
  6
CONTINUOUS
 10
4.6786634588
 20
5.5239744683
 11
4.6982540037
 21
5.5188957691
  0
LINE
  5
2CB
100
AcDbEntity
  8
0
100
AcDbLine
 62
7
  6
CONTINUOUS
 10
5.2863414524
 20
5.5359111966
 11
5.305557381
 21
5.5408928571
  0
LINE
  5
2CC
100
AcDbEntity
  8
0
100
AcDbLine
 62
7
  6
CONTINUOUS
 10
4.6990622742
 20
5.4028745177
 11
4.6786634587
 21
5.397586246
  0
LINE
  5
2CD
100
AcDbEntity
  8
0
100
AcDbLine
 62
7
  6
CONTINUOUS
 10
4.6990622742
 20
5.4373245177
 11
4.6786634587
 21
5.432036246
  0
LINE
  5
2CE
100
AcDbEntity
  8
0
100
AcDbLine
 62
7
  6
CONTINUOUS
 10
4.6990622742
 20
5.4717745177
 11
4.6786634587
 21
5.466486246
  0
LINE
  5
2CF
100
AcDbEntity
  8
0
100
AcDbLine
 62
7
  6
CONTINUOUS
 10
4.6990622742
 20
5.5062245177
 11
4.6786634587
 21
5.500936246
  0
LINE
  5
2D0
100
AcDbEntity
  8
0
100
AcDbLine
 62
7
  6
CONTINUOUS
 10
4.6998498001
 20
5.5063928571
 11
4.6990622742
 21
5.5062245177
  0
LINE
  5
2D1
100
AcDbEntity
  8
0
100
AcDbLine
 62
7
  6
CONTINUOUS
 10
4.6796067991
 20
5.5011299893
 11
4.6786634587
 21
5.500936246
  0
LINE
  5
2D2
100
AcDbEntity
  8
0
100
AcDbLine
 62
7
  6
CONTINUOUS
 10
4.4614528916
 20
5.5408928571
 11
5.5239508351
 21
5.5408928571
  0
LINE
  5
2D3
100
AcDbEntity
  8
0
100
AcDbLine
 62
7
  6
CONTINUOUS
 10
5.306740268
 20
5.380361246
 11
5.2871018634
 21
5.385452355
  0
LINE
  5
2D4
100
AcDbEntity
  8
0
100
AcDbLine
 62
7
  6
CONTINUOUS
 10
5.306740268
 20
5.414811246
 11
5.2871018634
 21
5.419902355
  0
LINE
  5
2D5
100
AcDbEntity
  8
0
100
AcDbLine
 62
7
  6
CONTINUOUS
 10
5.306740268
 20
5.449261246
 11
5.2871018634
 21
5.454352355
  0
LINE
  5
2D6
100
AcDbEntity
  8
0
100
AcDbLine
 62
7
  6
CONTINUOUS
 10
5.306740268
 20
5.483711246
 11
5.2871018634
 21
5.488802355
  0
LINE
  5
2D7
100
AcDbEntity
  8
0
100
AcDbLine
 62
7
  6
CONTINUOUS
 10
5.306740268
 20
5.518161246
 11
5.2871018634
 21
5.523252355
  0
LINE
  5
2D8
100
AcDbEntity
  8
0
100
AcDbLine
 62
7
  6
CONTINUOUS
 10
4.6990622742
 20
5.5406745177
 11
4.6786634587
 21
5.535386246
  0
LINE
  5
2D9
100
AcDbEntity
  8
0
100
AcDbLine
 62
7
  6
CONTINUOUS
 10
4.7001369205
 20
5.5408928571
 11
4.6990622742
 21
5.5406745177
  0
LINE
  5
2DA
100
AcDbEntity
  8
0
100
AcDbLine
 62
7
  6
CONTINUOUS
 10
5.3952018634
 20
5.7533928571
 11
5.4100498863
 21
5.7555226965
  0
LINE
  5
2DB
100
AcDbEntity
  8
0
100
AcDbLine
 62
7
  6
CONTINUOUS
 10
4.4614518634
 20
5.7008928571
 11
5.5239518634
 21
5.7008928571
  0
LINE
  5
2DC
100
AcDbEntity
  8
0
100
AcDbLine
 62
7
  6
CONTINUOUS
 10
4.4764528581
 20
5.7158928571
 11
5.5089508686
 21
5.7158928571
  0
LINE
  5
2DD
100
AcDbEntity
  8
0
100
AcDbLine
 62
7
  6
CONTINUOUS
 10
4.5902018634
 20
5.7533928571
 11
4.5753538404
 21
5.7555226965
  0
LINE
  5
2DE
100
AcDbEntity
  8
0
100
AcDbLine
 62
7
  6
CONTINUOUS
 10
5.4864518634
 20
5.7308928571
 11
4.4989518634
 21
5.7308928571
  0
LINE
  5
2DF
100
AcDbEntity
  8
0
100
AcDbLine
 62
7
  6
CONTINUOUS
 10
4.4989518634
 20
5.7383928571
 11
5.4864518634
 21
5.7383928571
  0
LINE
  5
2E0
100
AcDbEntity
  8
0
100
AcDbLine
 62
7
  6
CONTINUOUS
 10
4.5139527859
 20
5.7533928571
 11
5.4714509408
 21
5.7533928571
  0
LINE
  5
2E1
100
AcDbEntity
  8
0
100
AcDbLine
 62
7
  6
CONTINUOUS
 10
5.4100498863
 20
5.7555226965
 11
4.5753538404
 21
5.7555226965
  0
LINE
  5
2E2
100
AcDbEntity
  8
0
100
AcDbLine
 62
7
  6
CONTINUOUS
 10
5.4014518634
 20
5.8154631991
 11
4.5839518634
 21
5.8154631991
  0
LINE
  5
2E3
100
AcDbEntity
  8
0
100
AcDbLine
 62
7
  6
CONTINUOUS
 10
4.6351091306
 20
6.0933928571
 11
4.5839518634
 21
6.0933928571
  0
LINE
  5
2E4
100
AcDbEntity
  8
0
100
AcDbLine
 62
7
  6
CONTINUOUS
 10
4.9564730629
 20
6.1533928571
 11
4.9154010254
 21
6.1533928571
  0
LINE
  5
2E5
100
AcDbEntity
  8
0
100
AcDbLine
 62
7
  6
CONTINUOUS
 10
4.8720472035
 20
6.1533928571
 11
4.8652018634
 21
6.1533928571
  0
LINE
  5
2E6
100
AcDbEntity
  8
0
100
AcDbLine
 62
7
  6
CONTINUOUS
 10
4.9564730629
 20
6.1637332826
 11
4.9222463622
 21
6.1637332826
  0
LINE
  5
2E7
100
AcDbEntity
  8
0
100
AcDbLine
 62
7
  6
CONTINUOUS
 10
4.8402018634
 20
6.1908928571
 11
4.7427018634
 21
6.1908928571
  0
LINE
  5
2E8
100
AcDbEntity
  8
0
100
AcDbLine
 62
7
  6
CONTINUOUS
 10
4.6351091306
 20
6.1908928571
 11
4.5839518634
 21
6.1908928571
  0
LINE
  5
2E9
100
AcDbEntity
  8
0
100
AcDbLine
 62
7
  6
CONTINUOUS
 10
4.9017103451
 20
6.1913077511
 11
4.8720472035
 21
6.1913077511
  0
LINE
  5
2EA
100
AcDbEntity
  8
0
100
AcDbLine
 62
7
  6
CONTINUOUS
 10
4.8402018634
 20
6.1933928571
 11
4.7427018634
 21
6.1933928571
  0
LINE
  5
2EB
100
AcDbEntity
  8
0
100
AcDbLine
 62
7
  6
CONTINUOUS
 10
4.8720472035
 20
6.2016481754
 11
4.9017103451
 21
6.2016481754
  0
LINE
  5
2EC
100
AcDbEntity
  8
0
100
AcDbLine
 62
7
  6
CONTINUOUS
 10
4.9062739041
 20
6.2240524328
 11
4.8720472035
 21
6.2240524328
  0
LINE
  5
2ED
100
AcDbEntity
  8
0
100
AcDbLine
 62
7
  6
CONTINUOUS
 10
4.9222463622
 20
6.2343928571
 11
4.9154010254
 21
6.2343928571
  0
LINE
  5
2EE
100
AcDbEntity
  8
0
100
AcDbLine
 62
7
  6
CONTINUOUS
 10
4.8652018634
 20
6.2343928571
 11
4.9062739041
 21
6.2343928571
  0
LINE
  5
2EF
100
AcDbEntity
  8
0
100
AcDbLine
 62
7
  6
CONTINUOUS
 10
4.6351091306
 20
6.2903928571
 11
4.5839518634
 21
6.2903928571
  0
LINE
  5
2F0
100
AcDbEntity
  8
0
100
AcDbLine
 62
7
  6
CONTINUOUS
 10
4.6351091306
 20
6.3878928571
 11
4.5839518634
 21
6.3878928571
  0
LINE
  5
2F1
100
AcDbEntity
  8
0
100
AcDbLine
 62
7
  6
CONTINUOUS
 10
5.4014518634
 20
6.7333928571
 11
4.5839518634
 21
6.7333928571
  0
LINE
  5
2F2
100
AcDbEntity
  8
0
100
AcDbLine
 62
7
  6
CONTINUOUS
 10
5.2864518634
 20
6.8483928571
 11
4.6989518634
 21
6.8483928571
  0
ARC
  5
2F3
100
AcDbEntity
  8
0
100
AcDbCircle
 62
7
  6
CONTINUOUS
 10
4.9927018634
 20
3.9503928571
 40
0.2925
100
AcDbArc
 50
311.0443782716
 51
360.0
  0
ARC
  5
2F4
100
AcDbEntity
  8
0
100
AcDbCircle
 62
7
  6
CONTINUOUS
 10
4.9927018634
 20
3.9503928571
 40
0.2925
100
AcDbArc
 50
180.0
 51
228.9556217284
  0
ARC
  5
2F5
100
AcDbEntity
  8
0
100
AcDbCircle
 62
7
  6
CONTINUOUS
 10
5.2864518634
 20
6.7333928571
 40
0.115
100
AcDbArc
 50
0.0
 51
90.0
  0
ARC
  5
2F6
100
AcDbEntity
  8
0
100
AcDbCircle
 62
7
  6
CONTINUOUS
 10
4.6989518634
 20
6.7333928571
 40
0.115
100
AcDbArc
 50
90.0
 51
180.0
  0
ARC
  5
2F7
100
AcDbEntity
  8
0
100
AcDbCircle
 62
7
  6
CONTINUOUS
 10
4.5927018634
 20
4.9908928571
 40
0.04
100
AcDbArc
 50
180.0
 51
270.0
  0
ARC
  5
2F8
100
AcDbEntity
  8
0
100
AcDbCircle
 62
7
  6
CONTINUOUS
 10
5.3927018634
 20
4.9908928571
 40
0.04
100
AcDbArc
 50
270.0
 51
360.0
  0
ARC
  5
2F9
100
AcDbEntity
  8
0
100
AcDbCircle
 62
7
  6
CONTINUOUS
 10
5.1418188846
 20
2.4766428571
 40
0.0151329787
100
AcDbArc
 50
282.9176327574
 51
77.0823672426
  0
ARC
  5
2FA
100
AcDbEntity
  8
0
100
AcDbCircle
 62
7
  6
CONTINUOUS
 10
5.1418188846
 20
2.5846428571
 40
0.0151329787
100
AcDbArc
 50
282.9176327574
 51
77.0823672426
  0
ARC
  5
2FB
100
AcDbEntity
  8
0
100
AcDbCircle
 62
7
  6
CONTINUOUS
 10
5.1418188846
 20
2.6926428571
 40
0.0151329787
100
AcDbArc
 50
282.9176327574
 51
77.0823672426
  0
ARC
  5
2FC
100
AcDbEntity
  8
0
100
AcDbCircle
 62
7
  6
CONTINUOUS
 10
5.1418188846
 20
2.8006428571
 40
0.0151329787
100
AcDbArc
 50
282.9176327574
 51
77.0823672426
  0
ARC
  5
2FD
100
AcDbEntity
  8
0
100
AcDbCircle
 62
7
  6
CONTINUOUS
 10
5.1418188846
 20
2.9086428571
 40
0.0151329787
100
AcDbArc
 50
282.9176327574
 51
77.0823672426
  0
ARC
  5
2FE
100
AcDbEntity
  8
0
100
AcDbCircle
 62
7
  6
CONTINUOUS
 10
5.1418188846
 20
3.0166428571
 40
0.0151329787
100
AcDbArc
 50
282.9176327574
 51
77.0823672426
  0
ARC
  5
2FF
100
AcDbEntity
  8
0
100
AcDbCircle
 62
7
  6
CONTINUOUS
 10
4.8435848421
 20
2.4766428571
 40
0.0151329787
100
AcDbArc
 50
102.9176327574
 51
257.0823672426
  0
ARC
  5
300
100
AcDbEntity
  8
0
100
AcDbCircle
 62
7
  6
CONTINUOUS
 10
4.8435848421
 20
2.5846428571
 40
0.0151329787
100
AcDbArc
 50
102.9176327574
 51
257.0823672426
  0
ARC
  5
301
100
AcDbEntity
  8
0
100
AcDbCircle
 62
7
  6
CONTINUOUS
 10
4.8435848421
 20
2.6926428571
 40
0.0151329787
100
AcDbArc
 50
102.9176327574
 51
257.0823672426
  0
ARC
  5
302
100
AcDbEntity
  8
0
100
AcDbCircle
 62
7
  6
CONTINUOUS
 10
4.8435848421
 20
2.8006428571
 40
0.0151329787
100
AcDbArc
 50
102.9176327574
 51
257.0823672426
  0
ARC
  5
303
100
AcDbEntity
  8
0
100
AcDbCircle
 62
7
  6
CONTINUOUS
 10
4.8435848421
 20
2.9086428571
 40
0.0151329787
100
AcDbArc
 50
102.9176327574
 51
257.0823672426
  0
ARC
  5
304
100
AcDbEntity
  8
0
100
AcDbCircle
 62
7
  6
CONTINUOUS
 10
4.8435848421
 20
3.0166428571
 40
0.0151329787
100
AcDbArc
 50
102.9176327574
 51
257.0823672426
  0
ARC
  5
305
100
AcDbEntity
  8
0
100
AcDbCircle
 62
7
  6
CONTINUOUS
 10
5.5089518634
 20
5.7008928571
 40
0.015
100
AcDbArc
 50
0.0
 51
90.0
  0
ARC
  5
306
100
AcDbEntity
  8
0
100
AcDbCircle
 62
7
  6
CONTINUOUS
 10
4.4764518634
 20
5.7008928571
 40
0.015
100
AcDbArc
 50
90.0
 51
180.0
  0
ARC
  5
307
100
AcDbEntity
  8
0
100
AcDbCircle
 62
7
  6
CONTINUOUS
 10
5.5014518634
 20
5.7308928571
 40
0.015
100
AcDbArc
 50
180.0
 51
270.0
  0
ARC
  5
308
100
AcDbEntity
  8
0
100
AcDbCircle
 62
7
  6
CONTINUOUS
 10
4.4839518634
 20
5.7308928571
 40
0.015
100
AcDbArc
 50
270.0
 51
360.0
  0
ARC
  5
309
100
AcDbEntity
  8
0
100
AcDbCircle
 62
7
  6
CONTINUOUS
 10
4.5139518634
 20
5.7383928571
 40
0.015
100
AcDbArc
 50
90.0
 51
180.0
  0
ARC
  5
30A
100
AcDbEntity
  8
0
100
AcDbCircle
 62
7
  6
CONTINUOUS
 10
5.4714518634
 20
5.7383928571
 40
0.015
100
AcDbArc
 50
0.0
 51
90.0
  0
ARC
  5
30B
100
AcDbEntity
  8
0
100
AcDbCircle
 62
7
  6
CONTINUOUS
 10
5.2844741416
 20
5.0952738016
 40
0.0074504014
100
AcDbArc
 50
282.9305470303
 51
284.5148420773
  0
LINE
  5
30C
100
AcDbEntity
  8
0
100
AcDbLine
 62
7
  6
CONTINUOUS
 10
4.6779518721
 20
5.524343225
 11
4.6786634582
 21
5.5239744682
  0
LINE
  5
30D
100
AcDbEntity
  8
0
100
AcDbLine
 62
7
  6
CONTINUOUS
 10
4.6779519748
 20
5.489893225
 11
4.6786634799
 21
5.4895244682
  0
LINE
  5
30E
100
AcDbEntity
  8
0
100
AcDbLine
 62
7
  6
CONTINUOUS
 10
4.6779519748
 20
5.455443225
 11
4.6786634799
 21
5.4550744682
  0
LINE
  5
30F
100
AcDbEntity
  8
0
100
AcDbLine
 62
7
  6
CONTINUOUS
 10
4.6779519748
 20
5.420993225
 11
4.6786634799
 21
5.4206244682
  0
LINE
  5
310
100
AcDbEntity
  8
0
100
AcDbLine
 62
7
  6
CONTINUOUS
 10
4.6779519749
 20
5.386543225
 11
4.6786634798
 21
5.3861744682
  0
LINE
  5
311
100
AcDbEntity
  8
0
100
AcDbLine
 62
7
  6
CONTINUOUS
 10
4.6779519748
 20
5.352093225
 11
4.6786634799
 21
5.3517244682
  0
LINE
  5
312
100
AcDbEntity
  8
0
100
AcDbLine
 62
7
  6
CONTINUOUS
 10
4.6779519748
 20
5.317643225
 11
4.6786634799
 21
5.3172744682
  0
LINE
  5
313
100
AcDbEntity
  8
0
100
AcDbLine
 62
7
  6
CONTINUOUS
 10
4.6779519748
 20
5.283193225
 11
4.6786634799
 21
5.2828244682
  0
LINE
  5
314
100
AcDbEntity
  8
0
100
AcDbLine
 62
7
  6
CONTINUOUS
 10
4.6779519749
 20
5.248743225
 11
4.6786634798
 21
5.2483744682
  0
LINE
  5
315
100
AcDbEntity
  8
0
100
AcDbLine
 62
7
  6
CONTINUOUS
 10
4.6779519748
 20
5.214293225
 11
4.6786634799
 21
5.2139244682
  0
LINE
  5
316
100
AcDbEntity
  8
0
100
AcDbLine
 62
7
  6
CONTINUOUS
 10
4.6779519748
 20
5.179843225
 11
4.6786634799
 21
5.1794744682
  0
LINE
  5
317
100
AcDbEntity
  8
0
100
AcDbLine
 62
7
  6
CONTINUOUS
 10
4.6779519738
 20
5.145393225
 11
4.6786634653
 21
5.1450244683
  0
LINE
  5
318
100
AcDbEntity
  8
0
100
AcDbLine
 62
7
  6
CONTINUOUS
 10
4.6779519748
 20
5.110943225
 11
4.6786634799
 21
5.1105744682
  0
LINE
  5
319
100
AcDbEntity
  8
0
100
AcDbLine
 62
7
  6
CONTINUOUS
 10
5.3074517519
 20
5.507118225
 11
5.3067402469
 21
5.5067494682
  0
LINE
  5
31A
100
AcDbEntity
  8
0
100
AcDbLine
 62
7
  6
CONTINUOUS
 10
5.3074517519
 20
5.472668225
 11
5.3067402469
 21
5.4722994682
  0
LINE
  5
31B
100
AcDbEntity
  8
0
100
AcDbLine
 62
7
  6
CONTINUOUS
 10
5.3074517519
 20
5.438218225
 11
5.3067402469
 21
5.4378494682
  0
LINE
  5
31C
100
AcDbEntity
  8
0
100
AcDbLine
 62
7
  6
CONTINUOUS
 10
5.3074517698
 20
5.403768225
 11
5.3067402028
 21
5.4033994682
  0
LINE
  5
31D
100
AcDbEntity
  8
0
100
AcDbLine
 62
7
  6
CONTINUOUS
 10
5.3074517519
 20
5.369318225
 11
5.3067402469
 21
5.3689494682
  0
LINE
  5
31E
100
AcDbEntity
  8
0
100
AcDbLine
 62
7
  6
CONTINUOUS
 10
5.3074517519
 20
5.334868225
 11
5.3067402469
 21
5.3344994682
  0
LINE
  5
31F
100
AcDbEntity
  8
0
100
AcDbLine
 62
7
  6
CONTINUOUS
 10
5.3074517519
 20
5.300418225
 11
5.3067402469
 21
5.3000494682
  0
LINE
  5
320
100
AcDbEntity
  8
0
100
AcDbLine
 62
7
  6
CONTINUOUS
 10
5.3074518633
 20
5.2659682248
 11
5.3067401863
 21
5.2655994683
  0
LINE
  5
321
100
AcDbEntity
  8
0
100
AcDbLine
 62
7
  6
CONTINUOUS
 10
5.3074517519
 20
5.231518225
 11
5.3067402469
 21
5.2311494682
  0
LINE
  5
322
100
AcDbEntity
  8
0
100
AcDbLine
 62
7
  6
CONTINUOUS
 10
5.3074517519
 20
5.197068225
 11
5.3067402469
 21
5.1966994682
  0
LINE
  5
323
100
AcDbEntity
  8
0
100
AcDbLine
 62
7
  6
CONTINUOUS
 10
5.3074517519
 20
5.162618225
 11
5.3067402469
 21
5.1622494682
  0
LINE
  5
324
100
AcDbEntity
  8
0
100
AcDbLine
 62
7
  6
CONTINUOUS
 10
5.3074517518
 20
5.128168225
 11
5.3067402469
 21
5.1277994682
  0
LINE
  5
325
100
AcDbEntity
  8
0
100
AcDbLine
 62
7
  6
CONTINUOUS
 10
5.3074517519
 20
5.093718225
 11
5.3067402469
 21
5.0933494682
  0
SPLINE
  5
326
100
AcDbEntity
  8
0
100
AcDbSpline
 62
7
  6
CONTINUOUS
 70
0
 71
3
 72
33
 73
29
 74
0
 42
0.0000001
 43
0.0000001
 44
0.0000000001
 40
0.0
 40
0.0
 40
0.0
 40
0.0
 40
0.0203760966
 40
0.0416231976
 40
0.0640319847
 40
0.087830121
 40
0.1131804308
 40
0.1401881326
 40
0.1689217761
 40
0.1994203684
 40
0.2316982376
 40
0.2657433272
 40
0.3388379059
 40
0.4176930688
 40
0.5000000076
 40
0.5823069361
 40
0.6611620949
 40
0.7342566704
 40
0.7683017603
 40
0.8005796301
 40
0.8310782232
 40
0.8598118678
 40
0.88681957
 40
0.9121698796
 40
0.9359680158
 40
0.9583768026
 40
0.9796239035
 40
1.0
 40
1.0
 40
1.0
 40
1.0
 10
4.6351091306
 20
6.0933928571
 30
0.0
 10
4.6359670902
 20
6.0933928571
 30
0.0
 10
4.6377224451
 20
6.0935451882
 30
0.0
 10
4.6403481841
 20
6.0941969404
 30
0.0
 10
4.6429898372
 20
6.0952630573
 30
0.0
 10
4.64562776
 20
6.0967330615
 30
0.0
 10
4.6482438166
 20
6.0985976539
 30
0.0
 10
4.6508160783
 20
6.1008509638
 30
0.0
 10
4.6533205762
 20
6.1034868035
 30
0.0
 10
4.6557288393
 20
6.1065002616
 30
0.0
 10
4.6580095637
 20
6.1098848008
 30
0.0
 10
4.6608986556
 20
6.1150008461
 30
0.0
 10
4.6639277935
 20
6.1222601491
 30
0.0
 10
4.6662825965
 20
6.1318796894
 30
0.0
 10
4.6671126839
 20
6.1421428577
 30
0.0
 10
4.6662825963
 20
6.1524060258
 30
0.0
 10
4.6639277935
 20
6.1620255653
 30
0.0
 10
4.6608986557
 20
6.1692848681
 30
0.0
 10
4.6580095638
 20
6.1744009133
 30
0.0
 10
4.6557288394
 20
6.1777854526
 30
0.0
 10
4.6533205762
 20
6.1807989108
 30
0.0
 10
4.6508160782
 20
6.1834347505
 30
0.0
 10
4.6482438165
 20
6.1856880605
 30
0.0
 10
4.6456277599
 20
6.1875526528
 30
0.0
 10
4.6429898371
 20
6.189022657
 30
0.0
 10
4.6403481841
 20
6.1900887739
 30
0.0
 10
4.637722445
 20
6.1907405261
 30
0.0
 10
4.6359670902
 20
6.1908928571
 30
0.0
 10
4.6351091306
 20
6.1908928571
 30
0.0
  0
SPLINE
  5
327
100
AcDbEntity
  8
0
100
AcDbSpline
 62
7
  6
CONTINUOUS
 70
0
 71
3
 72
33
 73
29
 74
0
 42
0.0000001
 43
0.0000001
 44
0.0000000001
 40
0.0
 40
0.0
 40
0.0
 40
0.0
 40
0.0203760966
 40
0.0416231976
 40
0.0640319847
 40
0.087830121
 40
0.1131804308
 40
0.1401881326
 40
0.1689217761
 40
0.1994203684
 40
0.2316982376
 40
0.2657433272
 40
0.3388379059
 40
0.4176930688
 40
0.5000000076
 40
0.5823069361
 40
0.6611620949
 40
0.7342566704
 40
0.7683017603
 40
0.8005796301
 40
0.8310782232
 40
0.8598118678
 40
0.88681957
 40
0.9121698796
 40
0.9359680158
 40
0.9583768026
 40
0.9796239035
 40
1.0
 40
1.0
 40
1.0
 40
1.0
 10
4.6351091306
 20
6.2903928571
 30
0.0
 10
4.6359670902
 20
6.2903928571
 30
0.0
 10
4.6377224451
 20
6.2905451882
 30
0.0
 10
4.6403481841
 20
6.2911969404
 30
0.0
 10
4.6429898372
 20
6.2922630573
 30
0.0
 10
4.64562776
 20
6.2937330615
 30
0.0
 10
4.6482438166
 20
6.2955976539
 30
0.0
 10
4.6508160783
 20
6.2978509638
 30
0.0
 10
4.6533205762
 20
6.3004868035
 30
0.0
 10
4.6557288393
 20
6.3035002616
 30
0.0
 10
4.6580095637
 20
6.3068848008
 30
0.0
 10
4.6608986556
 20
6.3120008461
 30
0.0
 10
4.6639277935
 20
6.3192601491
 30
0.0
 10
4.6662825965
 20
6.3288796894
 30
0.0
 10
4.6671126839
 20
6.3391428577
 30
0.0
 10
4.6662825963
 20
6.3494060258
 30
0.0
 10
4.6639277935
 20
6.3590255653
 30
0.0
 10
4.6608986557
 20
6.3662848681
 30
0.0
 10
4.6580095638
 20
6.3714009133
 30
0.0
 10
4.6557288394
 20
6.3747854526
 30
0.0
 10
4.6533205762
 20
6.3777989108
 30
0.0
 10
4.6508160782
 20
6.3804347505
 30
0.0
 10
4.6482438165
 20
6.3826880605
 30
0.0
 10
4.6456277599
 20
6.3845526528
 30
0.0
 10
4.6429898371
 20
6.386022657
 30
0.0
 10
4.6403481841
 20
6.3870887739
 30
0.0
 10
4.637722445
 20
6.3877405261
 30
0.0
 10
4.6359670902
 20
6.3878928571
 30
0.0
 10
4.6351091306
 20
6.3878928571
 30
0.0
  0
SPLINE
  5
328
100
AcDbEntity
  8
0
100
AcDbSpline
 62
7
  6
CONTINUOUS
 70
0
 71
3
 72
33
 73
29
 74
0
 42
0.0000001
 43
0.0000001
 44
0.0000000001
 40
0.0
 40
0.0
 40
0.0
 40
0.0
 40
0.0205845238
 40
0.0422892423
 40
0.065301002
 40
0.0897531953
 40
0.1157330971
 40
0.1432988274
 40
0.1724821179
 40
0.2032983142
 40
0.2357360546
 40
0.2697656565
 40
0.3422467857
 40
0.4196826318
 40
0.4999999478
 40
0.5803172749
 40
0.6577531338
 40
0.7302342756
 40
0.7642638857
 40
0.796701634
 40
0.827517837
 40
0.856701134
 40
0.8842668707
 40
0.9102467794
 40
0.9346989798
 40
0.9577107465
 40
0.9794154711
 40
1.0
 40
1.0
 40
1.0
 40
1.0
 10
4.6361261352
 20
6.2907423302
 30
0.0
 10
4.6369230962
 20
6.2909134749
 30
0.0
 10
4.6385362052
 20
6.2913857601
 30
0.0
 10
4.6409090968
 20
6.2924283247
 30
0.0
 10
4.6432784552
 20
6.2938134177
 30
0.0
 10
4.6456290399
 20
6.2955338002
 30
0.0
 10
4.6479439601
 20
6.2975846748
 30
0.0
 10
4.6502047872
 20
6.2999605803
 30
0.0
 10
4.6523898818
 20
6.3026574193
 30
0.0
 10
4.654476012
 20
6.3056692103
 30
0.0
 10
4.6564358797
 20
6.3089897259
 30
0.0
 10
4.6588923112
 20
6.3139175028
 30
0.0
 10
4.66143613
 20
6.3207709141
 30
0.0
 10
4.663389391
 20
6.3297069129
 30
0.0
 10
4.66407172
 20
6.3391428456
 30
0.0
 10
4.6633893943
 20
6.3485787791
 30
0.0
 10
4.661436136
 20
6.3575147799
 30
0.0
 10
4.658892319
 20
6.3643681933
 30
0.0
 10
4.6564358886
 20
6.3692959721
 30
0.0
 10
4.6544760216
 20
6.3726164891
 30
0.0
 10
4.6523898919
 20
6.3756282815
 30
0.0
 10
4.6502047978
 20
6.3783251219
 30
0.0
 10
4.647943971
 20
6.3807010289
 30
0.0
 10
4.6456290511
 20
6.382751905
 30
0.0
 10
4.6432784666
 20
6.3844722891
 30
0.0
 10
4.6409091083
 20
6.3858573838
 30
0.0
 10
4.6385362166
 20
6.38689995
 30
0.0
 10
4.6369231075
 20
6.3873722364
 30
0.0
 10
4.6361261464
 20
6.3875433817
 30
0.0
  0
SPLINE
  5
329
100
AcDbEntity
  8
0
100
AcDbSpline
 62
7
  6
CONTINUOUS
 70
0
 71
3
 72
33
 73
29
 74
0
 42
0.0000001
 43
0.0000001
 44
0.0000000001
 40
0.0
 40
0.0
 40
0.0
 40
0.0
 40
0.0205845238
 40
0.0422892423
 40
0.065301002
 40
0.0897531953
 40
0.1157330971
 40
0.1432988274
 40
0.1724821179
 40
0.2032983142
 40
0.2357360546
 40
0.2697656565
 40
0.3422467857
 40
0.4196826318
 40
0.4999999478
 40
0.5803172749
 40
0.6577531338
 40
0.7302342756
 40
0.7642638857
 40
0.796701634
 40
0.827517837
 40
0.856701134
 40
0.8842668707
 40
0.9102467794
 40
0.9346989798
 40
0.9577107465
 40
0.9794154711
 40
1.0
 40
1.0
 40
1.0
 40
1.0
 10
4.6361261352
 20
6.0937423302
 30
0.0
 10
4.6369230962
 20
6.0939134749
 30
0.0
 10
4.6385362052
 20
6.0943857601
 30
0.0
 10
4.6409090968
 20
6.0954283247
 30
0.0
 10
4.6432784552
 20
6.0968134177
 30
0.0
 10
4.6456290399
 20
6.0985338002
 30
0.0
 10
4.6479439601
 20
6.1005846748
 30
0.0
 10
4.6502047872
 20
6.1029605803
 30
0.0
 10
4.6523898818
 20
6.1056574193
 30
0.0
 10
4.654476012
 20
6.1086692103
 30
0.0
 10
4.6564358797
 20
6.1119897259
 30
0.0
 10
4.6588923112
 20
6.1169175028
 30
0.0
 10
4.66143613
 20
6.1237709141
 30
0.0
 10
4.663389391
 20
6.1327069129
 30
0.0
 10
4.66407172
 20
6.1421428456
 30
0.0
 10
4.6633893943
 20
6.1515787791
 30
0.0
 10
4.661436136
 20
6.1605147799
 30
0.0
 10
4.658892319
 20
6.1673681933
 30
0.0
 10
4.6564358886
 20
6.1722959721
 30
0.0
 10
4.6544760216
 20
6.1756164891
 30
0.0
 10
4.6523898919
 20
6.1786282815
 30
0.0
 10
4.6502047978
 20
6.1813251219
 30
0.0
 10
4.647943971
 20
6.1837010289
 30
0.0
 10
4.6456290511
 20
6.185751905
 30
0.0
 10
4.6432784666
 20
6.1874722891
 30
0.0
 10
4.6409091083
 20
6.1888573838
 30
0.0
 10
4.6385362166
 20
6.18989995
 30
0.0
 10
4.6369231075
 20
6.1903722364
 30
0.0
 10
4.6361261464
 20
6.1905433817
 30
0.0
  0
LINE
  5
32A
100
AcDbEntity
  8
0
100
AcDbLine
 62
7
  6
CONTINUOUS
 10
5.3067402469
 20
4.760261246
 11
5.3074517519
 21
4.7598924893
  0
LINE
  5
32B
100
AcDbEntity
  8
0
100
AcDbLine
 62
7
  6
CONTINUOUS
 10
5.3067402469
 20
5.104761246
 11
5.3074517519
 21
5.1043924893
  0
LINE
  5
32C
100
AcDbEntity
  8
0
100
AcDbLine
 62
7
  6
CONTINUOUS
 10
4.6786634798
 20
5.087536246
 11
4.6779519748
 21
5.0871674893
  0
LINE
  5
32D
100
AcDbEntity
  8
0
100
AcDbLine
 62
7
  6
CONTINUOUS
 10
5.3067402469
 20
5.139211246
 11
5.3074517519
 21
5.1388424893
  0
LINE
  5
32E
100
AcDbEntity
  8
0
100
AcDbLine
 62
7
  6
CONTINUOUS
 10
5.3067402469
 20
5.173661246
 11
5.3074517519
 21
5.1732924893
  0
SPLINE
  5
32F
100
AcDbEntity
  8
0
100
AcDbSpline
 62
7
  6
CONTINUOUS
 70
0
 71
3
 72
30
 73
26
 74
0
 42
0.0000001
 43
0.0000001
 44
0.0000000001
 40
0.0
 40
0.0
 40
0.0
 40
0.0
 40
0.059405325
 40
0.1177172979
 40
0.1466165858
 40
0.1754103886
 40
0.2041263732
 40
0.2327927538
 40
0.2614407745
 40
0.2900848661
 40
0.3187381792
 40
0.3474273832
 40
0.3761808489
 40
0.4050205246
 40
0.4339983067
 40
0.4631687648
 40
0.5222576219
 40
0.5828381888
 40
0.6138485527
 40
0.645414506
 40
0.7103998608
 40
0.7781560981
 40
0.8489320264
 40
0.922863967
 40
1.0
 40
1.0
 40
1.0
 40
1.0
 10
5.206206799
 20
2.7414143819
 30
0.0
 10
5.2081750108
 20
2.7388959086
 30
0.0
 10
5.2117978307
 20
2.733679225
 30
0.0
 10
5.2154390188
 20
2.7266517008
 30
0.0
 10
5.2177032631
 20
2.7208298516
 30
0.0
 10
5.219062044
 20
2.716378779
 30
0.0
 10
5.220073742
 20
2.7118490006
 30
0.0
 10
5.2207239902
 20
2.7072609597
 30
0.0
 10
5.2210015336
 20
2.7026392321
 30
0.0
 10
5.22090757
 20
2.6980108414
 30
0.0
 10
5.2204394095
 20
2.6934029595
 30
0.0
 10
5.2196035426
 20
2.6888416897
 30
0.0
 10
5.2184145147
 20
2.6843493498
 30
0.0
 10
5.2168831513
 20
2.6799457222
 30
0.0
 10
5.2150262149
 20
2.6756450077
 30
0.0
 10
5.2121286124
 20
2.6700370869
 30
0.0
 10
5.2077500525
 20
2.6633042162
 30
0.0
 10
5.2025505922
 20
2.6570617504
 30
0.0
 10
5.1979292911
 20
2.6523095513
 30
0.0
 10
5.192908596
 20
2.6476261981
 30
0.0
 10
5.1860363101
 20
2.6420459928
 30
0.0
 10
5.1770042446
 20
2.6358374712
 30
0.0
 10
5.1671449831
 20
2.6300345354
 30
0.0
 10
5.1564940088
 20
2.6246314157
 30
0.0
 10
5.1490467348
 20
2.6213633695
 30
0.0
 10
5.1452060077
 20
2.6197904126
 30
0.0
  0
SPLINE
  5
330
100
AcDbEntity
  8
0
100
AcDbSpline
 62
7
  6
CONTINUOUS
 70
0
 71
3
 72
30
 73
26
 74
0
 42
0.0000001
 43
0.0000001
 44
0.0000000001
 40
0.0
 40
0.0
 40
0.0
 40
0.0
 40
0.059405325
 40
0.1177172979
 40
0.1466165858
 40
0.1754103886
 40
0.2041263732
 40
0.2327927538
 40
0.2614407745
 40
0.2900848661
 40
0.3187381792
 40
0.3474273832
 40
0.3761808489
 40
0.4050205246
 40
0.4339983067
 40
0.4631687648
 40
0.5222576219
 40
0.5828381888
 40
0.6138485527
 40
0.645414506
 40
0.7103998608
 40
0.7781560981
 40
0.8489320264
 40
0.922863967
 40
1.0
 40
1.0
 40
1.0
 40
1.0
 10
5.206206799
 20
2.8660317026
 30
0.0
 10
5.2081750108
 20
2.8635132293
 30
0.0
 10
5.2117978307
 20
2.8582965457
 30
0.0
 10
5.2154390188
 20
2.8512690215
 30
0.0
 10
5.2177032631
 20
2.8454471723
 30
0.0
 10
5.219062044
 20
2.8409960997
 30
0.0
 10
5.220073742
 20
2.8364663214
 30
0.0
 10
5.2207239902
 20
2.8318782804
 30
0.0
 10
5.2210015336
 20
2.8272565528
 30
0.0
 10
5.22090757
 20
2.8226281621
 30
0.0
 10
5.2204394095
 20
2.8180202802
 30
0.0
 10
5.2196035426
 20
2.8134590104
 30
0.0
 10
5.2184145147
 20
2.8089666705
 30
0.0
 10
5.2168831513
 20
2.8045630429
 30
0.0
 10
5.2150262149
 20
2.8002623284
 30
0.0
 10
5.2121286124
 20
2.7946544076
 30
0.0
 10
5.2077500525
 20
2.7879215369
 30
0.0
 10
5.2025505922
 20
2.7816790712
 30
0.0
 10
5.1979292911
 20
2.7769268721
 30
0.0
 10
5.192908596
 20
2.7722435188
 30
0.0
 10
5.1860363101
 20
2.7666633136
 30
0.0
 10
5.1770042446
 20
2.7604547919
 30
0.0
 10
5.1671449831
 20
2.7546518561
 30
0.0
 10
5.1564940088
 20
2.7492487364
 30
0.0
 10
5.1490467348
 20
2.7459806902
 30
0.0
 10
5.1452060077
 20
2.7444077333
 30
0.0
  0
SPLINE
  5
331
100
AcDbEntity
  8
0
100
AcDbSpline
 62
7
  6
CONTINUOUS
 70
0
 71
3
 72
30
 73
26
 74
0
 42
0.0000001
 43
0.0000001
 44
0.0000000001
 40
0.0
 40
0.0
 40
0.0
 40
0.0
 40
0.059405325
 40
0.1177172979
 40
0.1466165858
 40
0.1754103886
 40
0.2041263732
 40
0.2327927538
 40
0.2614407745
 40
0.2900848661
 40
0.3187381792
 40
0.3474273832
 40
0.3761808489
 40
0.4050205246
 40
0.4339983067
 40
0.4631687648
 40
0.5222576219
 40
0.5828381888
 40
0.6138485527
 40
0.645414506
 40
0.7103998608
 40
0.7781560981
 40
0.8489320264
 40
0.922863967
 40
1.0
 40
1.0
 40
1.0
 40
1.0
 10
5.206206799
 20
2.9906490233
 30
0.0
 10
5.2081750108
 20
2.98813055
 30
0.0
 10
5.2117978307
 20
2.9829138664
 30
0.0
 10
5.2154390188
 20
2.9758863423
 30
0.0
 10
5.2177032631
 20
2.9700644931
 30
0.0
 10
5.219062044
 20
2.9656134205
 30
0.0
 10
5.220073742
 20
2.9610836421
 30
0.0
 10
5.2207239902
 20
2.9564956011
 30
0.0
 10
5.2210015336
 20
2.9518738735
 30
0.0
 10
5.22090757
 20
2.9472454829
 30
0.0
 10
5.2204394095
 20
2.9426376009
 30
0.0
 10
5.2196035426
 20
2.9380763312
 30
0.0
 10
5.2184145147
 20
2.9335839913
 30
0.0
 10
5.2168831513
 20
2.9291803637
 30
0.0
 10
5.2150262149
 20
2.9248796491
 30
0.0
 10
5.2121286124
 20
2.9192717284
 30
0.0
 10
5.2077500525
 20
2.9125388576
 30
0.0
 10
5.2025505922
 20
2.9062963919
 30
0.0
 10
5.1979292911
 20
2.9015441928
 30
0.0
 10
5.192908596
 20
2.8968608395
 30
0.0
 10
5.1860363101
 20
2.8912806343
 30
0.0
 10
5.1770042446
 20
2.8850721126
 30
0.0
 10
5.1671449831
 20
2.8792691769
 30
0.0
 10
5.1564940088
 20
2.8738660571
 30
0.0
 10
5.1490467348
 20
2.870598011
 30
0.0
 10
5.1452060077
 20
2.869025054
 30
0.0
  0
SPLINE
  5
332
100
AcDbEntity
  8
0
100
AcDbSpline
 62
7
  6
CONTINUOUS
 70
0
 71
3
 72
30
 73
26
 74
0
 42
0.0000001
 43
0.0000001
 44
0.0000000001
 40
0.0
 40
0.0
 40
0.0
 40
0.0
 40
0.059405325
 40
0.1177172979
 40
0.1466165858
 40
0.1754103886
 40
0.2041263732
 40
0.2327927538
 40
0.2614407745
 40
0.2900848661
 40
0.3187381792
 40
0.3474273832
 40
0.3761808489
 40
0.4050205246
 40
0.4339983067
 40
0.4631687648
 40
0.5222576219
 40
0.5828381888
 40
0.6138485527
 40
0.645414506
 40
0.7103998608
 40
0.7781560981
 40
0.8489320264
 40
0.922863967
 40
1.0
 40
1.0
 40
1.0
 40
1.0
 10
5.206206799
 20
3.115266344
 30
0.0
 10
5.2081750108
 20
3.1127478707
 30
0.0
 10
5.2117978307
 20
3.1075311872
 30
0.0
 10
5.2154390188
 20
3.100503663
 30
0.0
 10
5.2177032631
 20
3.0946818138
 30
0.0
 10
5.219062044
 20
3.0902307412
 30
0.0
 10
5.220073742
 20
3.0857009628
 30
0.0
 10
5.2207239902
 20
3.0811129219
 30
0.0
 10
5.2210015336
 20
3.0764911942
 30
0.0
 10
5.22090757
 20
3.0718628036
 30
0.0
 10
5.2204394095
 20
3.0672549216
 30
0.0
 10
5.2196035426
 20
3.0626936519
 30
0.0
 10
5.2184145147
 20
3.058201312
 30
0.0
 10
5.2168831513
 20
3.0537976844
 30
0.0
 10
5.2150262149
 20
3.0494969699
 30
0.0
 10
5.2121286124
 20
3.0438890491
 30
0.0
 10
5.2077500525
 20
3.0371561783
 30
0.0
 10
5.2025505922
 20
3.0309137126
 30
0.0
 10
5.1979292911
 20
3.0261615135
 30
0.0
 10
5.192908596
 20
3.0214781602
 30
0.0
 10
5.1860363101
 20
3.015897955
 30
0.0
 10
5.1770042446
 20
3.0096894333
 30
0.0
 10
5.1671449831
 20
3.0038864976
 30
0.0
 10
5.1564940088
 20
2.9984833778
 30
0.0
 10
5.1490467348
 20
2.9952153317
 30
0.0
 10
5.1452060077
 20
2.9936423747
 30
0.0
  0
SPLINE
  5
333
100
AcDbEntity
  8
0
100
AcDbSpline
 62
7
  6
CONTINUOUS
 70
0
 71
3
 72
30
 73
26
 74
0
 42
0.0000001
 43
0.0000001
 44
0.0000000001
 40
0.0
 40
0.0
 40
0.0
 40
0.0
 40
0.059405325
 40
0.1177172979
 40
0.1466165858
 40
0.1754103886
 40
0.2041263732
 40
0.2327927538
 40
0.2614407745
 40
0.2900848661
 40
0.3187381792
 40
0.3474273832
 40
0.3761808489
 40
0.4050205246
 40
0.4339983067
 40
0.4631687648
 40
0.5222576219
 40
0.5828381888
 40
0.6138485527
 40
0.645414506
 40
0.7103998608
 40
0.7781560981
 40
0.8489320264
 40
0.922863967
 40
1.0
 40
1.0
 40
1.0
 40
1.0
 10
5.206206799
 20
3.2398836648
 30
0.0
 10
5.2081750108
 20
3.2373651915
 30
0.0
 10
5.2117978307
 20
3.2321485079
 30
0.0
 10
5.2154390188
 20
3.2251209837
 30
0.0
 10
5.2177032631
 20
3.2192991345
 30
0.0
 10
5.219062044
 20
3.2148480619
 30
0.0
 10
5.220073742
 20
3.2103182835
 30
0.0
 10
5.2207239902
 20
3.2057302426
 30
0.0
 10
5.2210015336
 20
3.2011085149
 30
0.0
 10
5.22090757
 20
3.1964801243
 30
0.0
 10
5.2204394095
 20
3.1918722423
 30
0.0
 10
5.2196035426
 20
3.1873109726
 30
0.0
 10
5.2184145147
 20
3.1828186327
 30
0.0
 10
5.2168831513
 20
3.1784150051
 30
0.0
 10
5.2150262149
 20
3.1741142906
 30
0.0
 10
5.2121286124
 20
3.1685063698
 30
0.0
 10
5.2077500525
 20
3.161773499
 30
0.0
 10
5.2025505922
 20
3.1555310333
 30
0.0
 10
5.1979292911
 20
3.1507788342
 30
0.0
 10
5.192908596
 20
3.1460954809
 30
0.0
 10
5.1860363101
 20
3.1405152757
 30
0.0
 10
5.1770042446
 20
3.134306754
 30
0.0
 10
5.1671449831
 20
3.1285038183
 30
0.0
 10
5.1564940088
 20
3.1231006986
 30
0.0
 10
5.1490467348
 20
3.1198326524
 30
0.0
 10
5.1452060077
 20
3.1182596954
 30
0.0
  0
SPLINE
  5
334
100
AcDbEntity
  8
0
100
AcDbSpline
 62
7
  6
CONTINUOUS
 70
0
 71
3
 72
26
 73
22
 74
0
 42
0.0000001
 43
0.0000001
 44
0.0000000001
 40
0.0
 40
0.0
 40
0.0
 40
0.0
 40
0.0771482092
 40
0.1510917526
 40
0.2218789761
 40
0.2896460536
 40
0.354640153
 40
0.3862092675
 40
0.4172239934
 40
0.4778110122
 40
0.5369135648
 40
0.5950302947
 40
0.6525988874
 40
0.6812907862
 40
0.7099528428
 40
0.7672095809
 40
0.8245618411
 40
0.8533598873
 40
0.8822639979
 40
0.9405859871
 40
1.0
 40
1.0
 40
1.0
 40
1.0
 10
4.8401962995
 20
3.2428775975
 30
0.0
 10
4.8363561644
 20
3.2444503434
 30
0.0
 10
4.8289100203
 20
3.2477178946
 30
0.0
 10
4.8182606562
 20
3.2531201879
 30
0.0
 10
4.8084027086
 20
3.2589219713
 30
0.0
 10
4.7993720174
 20
3.2651294297
 30
0.0
 10
4.7925004302
 20
3.270708079
 30
0.0
 10
4.7874805084
 20
3.2753904724
 30
0.0
 10
4.7828597956
 20
3.2801412891
 30
0.0
 10
4.7776596207
 20
3.2863825059
 30
0.0
 10
4.7724313761
 20
3.2944204574
 30
0.0
 10
4.7683742114
 20
3.3029345775
 30
0.0
 10
4.7660828177
 20
3.3103887791
 30
0.0
 10
4.7649660084
 20
3.3164744965
 30
0.0
 10
4.7643424736
 20
3.3226134131
 30
0.0
 10
4.764491039
 20
3.3303544402
 30
0.0
 10
4.7658877671
 20
3.3379752895
 30
0.0
 10
4.7676944693
 20
3.3438994379
 30
0.0
 10
4.7699571196
 20
3.3497212519
 30
0.0
 10
4.7735953777
 20
3.3567487962
 30
0.0
 10
4.7772165262
 20
3.361965555
 30
0.0
 10
4.7791837854
 20
3.3644841119
 30
0.0
  0
LINE
  5
335
100
AcDbEntity
  8
0
100
AcDbLine
 62
7
  6
CONTINUOUS
 10
5.3067402469
 20
5.208111246
 11
5.3074517519
 21
5.2077424893
  0
SPLINE
  5
336
100
AcDbEntity
  8
0
100
AcDbSpline
 62
7
  6
CONTINUOUS
 70
0
 71
3
 72
29
 73
25
 74
0
 42
0.0000001
 43
0.0000001
 44
0.0000000001
 40
0.0
 40
0.0
 40
0.0
 40
0.0
 40
0.0771394863
 40
0.1510752571
 40
0.221855407
 40
0.2896161897
 40
0.3546061317
 40
0.3861738707
 40
0.4171864976
 40
0.4777707704
 40
0.5368644974
 40
0.5660355668
 40
0.5950127772
 40
0.6238560369
 40
0.6526103122
 40
0.6812988331
 40
0.7099546407
 40
0.7386003563
 40
0.7672479528
 40
0.8245898492
 40
0.8533824696
 40
0.8822823359
 40
0.9405952898
 40
1.0
 40
1.0
 40
1.0
 40
1.0
 10
4.8402008401
 20
2.6197891356
 30
0.0
 10
4.8363608113
 20
2.6213617483
 30
0.0
 10
4.8289148373
 20
2.6246290375
 30
0.0
 10
4.8182656281
 20
2.6300308698
 30
0.0
 10
4.8084077282
 20
2.6358322253
 30
0.0
 10
4.7993768178
 20
2.6420391901
 30
0.0
 10
4.792504988
 20
2.647617621
 30
0.0
 10
4.7874846149
 20
2.6522996705
 30
0.0
 10
4.7828634777
 20
2.6570504537
 30
0.0
 10
4.7776634805
 20
2.6632907825
 30
0.0
 10
4.7732845038
 20
2.6700217243
 30
0.0
 10
4.7703856457
 20
2.6756276285
 30
0.0
 10
4.7685277
 20
2.6799269524
 30
0.0
 10
4.7669957248
 20
2.6843294313
 30
0.0
 10
4.7658048485
 20
2.6888203408
 30
0.0
 10
4.7649671664
 20
2.6933803832
 30
0.0
 10
4.7644981829
 20
2.6979871965
 30
0.0
 10
4.7644015325
 20
2.7026149117
 30
0.0
 10
4.764768544
 20
2.7087758694
 30
0.0
 10
4.765885325
 20
2.7148796527
 30
0.0
 10
4.7676911156
 20
2.7208029003
 30
0.0
 10
4.7699526359
 20
2.7266247197
 30
0.0
 10
4.7735893418
 20
2.7336523234
 30
0.0
 10
4.7772095229
 20
2.7388691744
 30
0.0
 10
4.7791762569
 20
2.7413878197
 30
0.0
  0
LINE
  5
337
100
AcDbEntity
  8
0
100
AcDbLine
 62
7
  6
CONTINUOUS
 10
5.3067402404
 20
5.242561246
 11
5.307451863
 21
5.2421924891
  0
SPLINE
  5
338
100
AcDbEntity
  8
0
100
AcDbSpline
 62
7
  6
CONTINUOUS
 70
0
 71
3
 72
29
 73
25
 74
0
 42
0.0000001
 43
0.0000001
 44
0.0000000001
 40
0.0
 40
0.0
 40
0.0
 40
0.0
 40
0.0771394863
 40
0.1510752571
 40
0.221855407
 40
0.2896161897
 40
0.3546061317
 40
0.3861738707
 40
0.4171864976
 40
0.4777707704
 40
0.5368644974
 40
0.5660355668
 40
0.5950127772
 40
0.6238560369
 40
0.6526103122
 40
0.6812988331
 40
0.7099546407
 40
0.7386003563
 40
0.7672479528
 40
0.8245898492
 40
0.8533824696
 40
0.8822823359
 40
0.9405952898
 40
1.0
 40
1.0
 40
1.0
 40
1.0
 10
4.8402008401
 20
2.7444064563
 30
0.0
 10
4.8363608113
 20
2.7459790691
 30
0.0
 10
4.8289148373
 20
2.7492463582
 30
0.0
 10
4.8182656281
 20
2.7546481906
 30
0.0
 10
4.8084077282
 20
2.760449546
 30
0.0
 10
4.7993768178
 20
2.7666565109
 30
0.0
 10
4.792504988
 20
2.7722349417
 30
0.0
 10
4.7874846149
 20
2.7769169912
 30
0.0
 10
4.7828634777
 20
2.7816677744
 30
0.0
 10
4.7776634805
 20
2.7879081032
 30
0.0
 10
4.7732845038
 20
2.794639045
 30
0.0
 10
4.7703856457
 20
2.8002449492
 30
0.0
 10
4.7685277
 20
2.8045442731
 30
0.0
 10
4.7669957248
 20
2.808946752
 30
0.0
 10
4.7658048485
 20
2.8134376615
 30
0.0
 10
4.7649671664
 20
2.8179977039
 30
0.0
 10
4.7644981829
 20
2.8226045173
 30
0.0
 10
4.7644015325
 20
2.8272322324
 30
0.0
 10
4.764768544
 20
2.8333931901
 30
0.0
 10
4.765885325
 20
2.8394969734
 30
0.0
 10
4.7676911156
 20
2.845420221
 30
0.0
 10
4.7699526359
 20
2.8512420404
 30
0.0
 10
4.7735893418
 20
2.8582696442
 30
0.0
 10
4.7772095229
 20
2.8634864951
 30
0.0
 10
4.7791762569
 20
2.8660051404
 30
0.0
  0
LINE
  5
339
100
AcDbEntity
  8
0
100
AcDbLine
 62
7
  6
CONTINUOUS
 10
4.678663498
 20
5.121986246
 11
4.6779519738
 21
5.1216174893
  0
SPLINE
  5
33A
100
AcDbEntity
  8
0
100
AcDbSpline
 62
7
  6
CONTINUOUS
 70
0
 71
3
 72
29
 73
25
 74
0
 42
0.0000001
 43
0.0000001
 44
0.0000000001
 40
0.0
 40
0.0
 40
0.0
 40
0.0
 40
0.0771394863
 40
0.1510752571
 40
0.221855407
 40
0.2896161897
 40
0.3546061317
 40
0.3861738707
 40
0.4171864976
 40
0.4777707704
 40
0.5368644974
 40
0.5660355668
 40
0.5950127772
 40
0.6238560369
 40
0.6526103122
 40
0.6812988331
 40
0.7099546407
 40
0.7386003563
 40
0.7672479528
 40
0.8245898492
 40
0.8533824696
 40
0.8822823359
 40
0.9405952898
 40
1.0
 40
1.0
 40
1.0
 40
1.0
 10
4.8402008401
 20
2.869023777
 30
0.0
 10
4.8363608113
 20
2.8705963898
 30
0.0
 10
4.8289148373
 20
2.8738636789
 30
0.0
 10
4.8182656281
 20
2.8792655113
 30
0.0
 10
4.8084077282
 20
2.8850668668
 30
0.0
 10
4.7993768178
 20
2.8912738316
 30
0.0
 10
4.792504988
 20
2.8968522625
 30
0.0
 10
4.7874846149
 20
2.9015343119
 30
0.0
 10
4.7828634777
 20
2.9062850951
 30
0.0
 10
4.7776634805
 20
2.9125254239
 30
0.0
 10
4.7732845038
 20
2.9192563657
 30
0.0
 10
4.7703856457
 20
2.9248622699
 30
0.0
 10
4.7685277
 20
2.9291615938
 30
0.0
 10
4.7669957248
 20
2.9335640727
 30
0.0
 10
4.7658048485
 20
2.9380549822
 30
0.0
 10
4.7649671664
 20
2.9426150246
 30
0.0
 10
4.7644981829
 20
2.947221838
 30
0.0
 10
4.7644015325
 20
2.9518495531
 30
0.0
 10
4.764768544
 20
2.9580105108
 30
0.0
 10
4.765885325
 20
2.9641142942
 30
0.0
 10
4.7676911156
 20
2.9700375417
 30
0.0
 10
4.7699526359
 20
2.9758593612
 30
0.0
 10
4.7735893418
 20
2.9828869649
 30
0.0
 10
4.7772095229
 20
2.9881038158
 30
0.0
 10
4.7791762569
 20
2.9906224611
 30
0.0
  0
LINE
  5
33B
100
AcDbEntity
  8
0
100
AcDbLine
 62
7
  6
CONTINUOUS
 10
4.6786634798
 20
5.156436246
 11
4.6779519748
 21
5.1560674893
  0
SPLINE
  5
33C
100
AcDbEntity
  8
0
100
AcDbSpline
 62
7
  6
CONTINUOUS
 70
0
 71
3
 72
29
 73
25
 74
0
 42
0.0000001
 43
0.0000001
 44
0.0000000001
 40
0.0
 40
0.0
 40
0.0
 40
0.0
 40
0.0771394863
 40
0.1510752571
 40
0.221855407
 40
0.2896161897
 40
0.3546061317
 40
0.3861738707
 40
0.4171864976
 40
0.4777707704
 40
0.5368644974
 40
0.5660355668
 40
0.5950127772
 40
0.6238560369
 40
0.6526103122
 40
0.6812988331
 40
0.7099546407
 40
0.7386003563
 40
0.7672479528
 40
0.8245898492
 40
0.8533824696
 40
0.8822823359
 40
0.9405952898
 40
1.0
 40
1.0
 40
1.0
 40
1.0
 10
4.8402008401
 20
2.9936410977
 30
0.0
 10
4.8363608113
 20
2.9952137105
 30
0.0
 10
4.8289148373
 20
2.9984809996
 30
0.0
 10
4.8182656281
 20
3.003882832
 30
0.0
 10
4.8084077282
 20
3.0096841875
 30
0.0
 10
4.7993768178
 20
3.0158911523
 30
0.0
 10
4.792504988
 20
3.0214695832
 30
0.0
 10
4.7874846149
 20
3.0261516326
 30
0.0
 10
4.7828634777
 20
3.0309024158
 30
0.0
 10
4.7776634805
 20
3.0371427446
 30
0.0
 10
4.7732845038
 20
3.0438736864
 30
0.0
 10
4.7703856457
 20
3.0494795906
 30
0.0
 10
4.7685277
 20
3.0537789145
 30
0.0
 10
4.7669957248
 20
3.0581813935
 30
0.0
 10
4.7658048485
 20
3.062672303
 30
0.0
 10
4.7649671664
 20
3.0672323453
 30
0.0
 10
4.7644981829
 20
3.0718391587
 30
0.0
 10
4.7644015325
 20
3.0764668738
 30
0.0
 10
4.764768544
 20
3.0826278315
 30
0.0
 10
4.765885325
 20
3.0887316149
 30
0.0
 10
4.7676911156
 20
3.0946548624
 30
0.0
 10
4.7699526359
 20
3.1004766819
 30
0.0
 10
4.7735893418
 20
3.1075042856
 30
0.0
 10
4.7772095229
 20
3.1127211365
 30
0.0
 10
4.7791762569
 20
3.1152397818
 30
0.0
  0
LINE
  5
33D
100
AcDbEntity
  8
0
100
AcDbLine
 62
7
  6
CONTINUOUS
 10
4.6786634798
 20
5.190886246
 11
4.6779519748
 21
5.1905174893
  0
SPLINE
  5
33E
100
AcDbEntity
  8
0
100
AcDbSpline
 62
7
  6
CONTINUOUS
 70
0
 71
3
 72
29
 73
25
 74
0
 42
0.0000001
 43
0.0000001
 44
0.0000000001
 40
0.0
 40
0.0
 40
0.0
 40
0.0
 40
0.0771394863
 40
0.1510752571
 40
0.221855407
 40
0.2896161897
 40
0.3546061317
 40
0.3861738707
 40
0.4171864976
 40
0.4777707704
 40
0.5368644974
 40
0.5660355668
 40
0.5950127772
 40
0.6238560369
 40
0.6526103122
 40
0.6812988331
 40
0.7099546407
 40
0.7386003563
 40
0.7672479528
 40
0.8245898492
 40
0.8533824696
 40
0.8822823359
 40
0.9405952898
 40
1.0
 40
1.0
 40
1.0
 40
1.0
 10
4.8402008401
 20
3.1182584184
 30
0.0
 10
4.8363608113
 20
3.1198310312
 30
0.0
 10
4.8289148373
 20
3.1230983203
 30
0.0
 10
4.8182656281
 20
3.1285001527
 30
0.0
 10
4.8084077282
 20
3.1343015082
 30
0.0
 10
4.7993768178
 20
3.140508473
 30
0.0
 10
4.792504988
 20
3.1460869039
 30
0.0
 10
4.7874846149
 20
3.1507689534
 30
0.0
 10
4.7828634777
 20
3.1555197365
 30
0.0
 10
4.7776634805
 20
3.1617600654
 30
0.0
 10
4.7732845038
 20
3.1684910072
 30
0.0
 10
4.7703856457
 20
3.1740969113
 30
0.0
 10
4.7685277
 20
3.1783962352
 30
0.0
 10
4.7669957248
 20
3.1827987142
 30
0.0
 10
4.7658048485
 20
3.1872896237
 30
0.0
 10
4.7649671664
 20
3.191849666
 30
0.0
 10
4.7644981829
 20
3.1964564794
 30
0.0
 10
4.7644015325
 20
3.2010841945
 30
0.0
 10
4.764768544
 20
3.2072451523
 30
0.0
 10
4.765885325
 20
3.2133489356
 30
0.0
 10
4.7676911156
 20
3.2192721831
 30
0.0
 10
4.7699526359
 20
3.2250940026
 30
0.0
 10
4.7735893418
 20
3.2321216063
 30
0.0
 10
4.7772095229
 20
3.2373384572
 30
0.0
 10
4.7791762569
 20
3.2398571025
 30
0.0
  0
LINE
  5
33F
100
AcDbEntity
  8
0
100
AcDbLine
 62
7
  6
CONTINUOUS
 10
4.6786634798
 20
5.225336246
 11
4.6779519748
 21
5.2249674893
  0
LINE
  5
340
100
AcDbEntity
  8
0
100
AcDbLine
 62
7
  6
CONTINUOUS
 10
4.6779519123
 20
4.7664432249
 11
4.6786634855
 21
4.7660744683
  0
LINE
  5
341
100
AcDbEntity
  8
0
100
AcDbLine
 62
7
  6
CONTINUOUS
 10
5.3067402469
 20
5.277011246
 11
5.3074517519
 21
5.2766424893
  0
LINE
  5
342
100
AcDbEntity
  8
0
100
AcDbLine
 62
7
  6
CONTINUOUS
 10
5.3067402469
 20
5.311461246
 11
5.3074517519
 21
5.3110924893
  0
LINE
  5
343
100
AcDbEntity
  8
0
100
AcDbLine
 62
7
  6
CONTINUOUS
 10
5.3067402469
 20
5.345911246
 11
5.3074517519
 21
5.3455424893
  0
LINE
  5
344
100
AcDbEntity
  8
0
100
AcDbLine
 62
7
  6
CONTINUOUS
 10
4.6786634798
 20
5.259786246
 11
4.6779519748
 21
5.2594174893
  0
LINE
  5
345
100
AcDbEntity
  8
0
100
AcDbLine
 62
7
  6
CONTINUOUS
 10
4.6786634798
 20
5.294236246
 11
4.6779519748
 21
5.2938674893
  0
LINE
  5
346
100
AcDbEntity
  8
0
100
AcDbLine
 62
7
  6
CONTINUOUS
 10
4.6786634798
 20
5.328686246
 11
4.6779519748
 21
5.3283174893
  0
LINE
  5
347
100
AcDbEntity
  8
0
100
AcDbLine
 62
7
  6
CONTINUOUS
 10
4.6786634798
 20
5.363136246
 11
4.6779519748
 21
5.3627674893
  0
LINE
  5
348
100
AcDbEntity
  8
0
100
AcDbLine
 62
7
  6
CONTINUOUS
 10
4.6786635616
 20
5.535386246
 11
4.6779518864
 21
5.5350174893
  0
LINE
  5
349
100
AcDbEntity
  8
0
100
AcDbLine
 62
7
  6
CONTINUOUS
 10
5.3067402469
 20
5.518161246
 11
5.3074517519
 21
5.5177924893
  0
LINE
  5
34A
100
AcDbEntity
  8
0
100
AcDbLine
 62
7
  6
CONTINUOUS
 10
4.6786636264
 20
5.500936246
 11
4.6779518721
 21
5.5005674893
  0
LINE
  5
34B
100
AcDbEntity
  8
0
100
AcDbLine
 62
7
  6
CONTINUOUS
 10
4.6786634798
 20
5.466486246
 11
4.6779519748
 21
5.4661174893
  0
LINE
  5
34C
100
AcDbEntity
  8
0
100
AcDbLine
 62
7
  6
CONTINUOUS
 10
4.6786634798
 20
5.432036246
 11
4.6779519748
 21
5.4316674893
  0
LINE
  5
34D
100
AcDbEntity
  8
0
100
AcDbLine
 62
7
  6
CONTINUOUS
 10
5.3067402678
 20
5.380361246
 11
5.3074517698
 21
5.3799924893
  0
LINE
  5
34E
100
AcDbEntity
  8
0
100
AcDbLine
 62
7
  6
CONTINUOUS
 10
4.6786634798
 20
5.397586246
 11
4.6779519748
 21
5.3972174893
  0
LINE
  5
34F
100
AcDbEntity
  8
0
100
AcDbLine
 62
7
  6
CONTINUOUS
 10
5.3067402469
 20
5.483711246
 11
5.3074517519
 21
5.4833424893
  0
LINE
  5
350
100
AcDbEntity
  8
0
100
AcDbLine
 62
7
  6
CONTINUOUS
 10
5.3067402469
 20
5.449261246
 11
5.3074517519
 21
5.4488924893
  0
LINE
  5
351
100
AcDbEntity
  8
0
100
AcDbLine
 62
7
  6
CONTINUOUS
 10
5.3067402469
 20
5.414811246
 11
5.3074517519
 21
5.4144424893
  0
SPLINE
  5
352
100
AcDbEntity
  8
0
100
AcDbSpline
 62
7
  6
CONTINUOUS
 70
0
 71
3
 72
30
 73
26
 74
0
 42
0.0000001
 43
0.0000001
 44
0.0000000001
 40
0.0
 40
0.0
 40
0.0
 40
0.0
 40
0.0594010963
 40
0.1177087397
 40
0.1466087024
 40
0.1754040073
 40
0.2041193129
 40
0.2327863203
 40
0.2614360416
 40
0.2900814791
 40
0.3187354739
 40
0.3474253442
 40
0.3761807565
 40
0.4050225094
 40
0.4339994851
 40
0.4631701965
 40
0.5222606067
 40
0.5828393767
 40
0.6138489744
 40
0.6454139481
 40
0.7103982985
 40
0.7781552832
 40
0.8489318365
 40
0.9228640334
 40
1.0
 40
1.0
 40
1.0
 40
1.0
 10
5.2062232854
 20
3.3644800095
 30
0.0
 10
5.2081902137
 20
3.361961513
 30
0.0
 10
5.2118101304
 20
3.356744726
 30
0.0
 10
5.2154487927
 20
3.3497178674
 30
0.0
 10
5.2177100701
 20
3.3438961166
 30
0.0
 10
5.2190671477
 20
3.3394452911
 30
0.0
 10
5.2200775487
 20
3.3349159409
 30
0.0
 10
5.2207257094
 20
3.3303283024
 30
0.0
 10
5.2210016242
 20
3.3257070856
 30
0.0
 10
5.2209064016
 20
3.3210793107
 30
0.0
 10
5.2204369636
 20
3.3164721998
 30
0.0
 10
5.2195996659
 20
3.3119118131
 30
0.0
 10
5.218409487
 20
3.3074203509
 30
0.0
 10
5.2168775821
 20
3.3030175708
 30
0.0
 10
5.2150198364
 20
3.2987179751
 30
0.0
 10
5.2121212855
 20
3.2931117072
 30
0.0
 10
5.2077425608
 20
3.2863806
 30
0.0
 10
5.2025430172
 20
3.2801400734
 30
0.0
 10
5.1979221393
 20
3.2753893124
 30
0.0
 10
5.192902052
 20
3.2707072413
 30
0.0
 10
5.1860306775
 20
3.265128418
 30
0.0
 10
5.176999845
 20
3.258921371
 30
0.0
 10
5.1671420765
 20
3.2531195767
 30
0.0
 10
5.1564928039
 20
3.2477175047
 30
0.0
 10
5.1490467928
 20
3.2444500078
 30
0.0
 10
5.1452067279
 20
3.2428773084
 30
0.0
  0
SPLINE
  5
353
100
AcDbEntity
  8
0
100
AcDbSpline
 62
7
  6
CONTINUOUS
 70
0
 71
3
 72
39
 73
35
 74
0
 42
0.0000001
 43
0.0000001
 44
0.0000000001
 40
0.0
 40
0.0
 40
0.0
 40
0.0
 40
0.0002370941
 40
0.0003818743
 40
0.000551755
 40
0.0009790612
 40
0.0015349645
 40
0.0022260091
 40
0.0030554346
 40
0.0040250252
 40
0.0051358315
 40
0.0077833055
 40
0.0110007521
 40
0.0147890556
 40
0.0191476293
 40
0.0295683055
 40
0.0422463059
 40
0.0571589784
 40
0.0742766607
 40
0.0935672274
 40
0.1149913333
 40
0.138507154
 40
0.1640676769
 40
0.1916213738
 40
0.2211141119
 40
0.2856742595
 40
0.3572309961
 40
0.4352108423
 40
0.5189885967
 40
0.6078916293
 40
0.7012080827
 40
0.7981848251
 40
0.8980543519
 40
1.0
 40
1.0
 40
1.0
 40
1.0
 10
5.3074517698
 20
5.3799924893
 30
0.0
 10
5.3074517779
 20
5.3799709845
 30
0.0
 10
5.3074387479
 20
5.3799363114
 30
0.0
 10
5.3074066108
 20
5.3798979606
 30
0.0
 10
5.307355619
 20
5.3798535777
 30
0.0
 10
5.3072648454
 20
5.3798003847
 30
0.0
 10
5.3071252585
 20
5.3797402342
 30
0.0
 10
5.3069466917
 20
5.3796798533
 30
0.0
 10
5.3067290705
 20
5.3796192004
 30
0.0
 10
5.3064721946
 20
5.3795583689
 30
0.0
 10
5.3060521194
 20
5.3794719585
 30
0.0
 10
5.3054280777
 20
5.3793665473
 30
0.0
 10
5.3045608616
 20
5.3792454855
 30
0.0
 10
5.3035372218
 20
5.3791240032
 30
0.0
 10
5.3018619646
 20
5.3789511259
 30
0.0
 10
5.2993802904
 20
5.3787405188
 30
0.0
 10
5.2959410342
 20
5.3784986062
 30
0.0
 10
5.2918931251
 20
5.3782558399
 30
0.0
 10
5.2872445749
 20
5.378012311
 30
0.0
 10
5.2820047339
 20
5.3777683718
 30
0.0
 10
5.2761840278
 20
5.3775240806
 30
0.0
 10
5.2697941826
 20
5.3772795632
 30
0.0
 10
5.2628480082
 20
5.3770348686
 30
0.0
 10
5.2553594125
 20
5.3767900176
 30
0.0
 10
5.2443346274
 20
5.3764531793
 30
0.0
 10
5.2293193139
 20
5.3760362363
 30
0.0
 10
5.2099064797
 20
5.3755488782
 30
0.0
 10
5.1887500891
 20
5.3750609304
 30
0.0
 10
5.1660199855
 20
5.3745725177
 30
0.0
 10
5.1418985321
 20
5.3740837754
 30
0.0
 10
5.1165796805
 20
5.3735947951
 30
0.0
 10
5.0902659755
 20
5.373105626
 30
0.0
 10
5.0631694595
 20
5.3726163402
 30
0.0
 10
5.0448673454
 20
5.3722925578
 30
0.0
 10
5.0356221318
 20
5.3721299893
 30
0.0
  0
SPLINE
  5
354
100
AcDbEntity
  8
0
100
AcDbSpline
 62
7
  6
CONTINUOUS
 70
0
 71
3
 72
23
 73
19
 74
0
 42
0.0000001
 43
0.0000001
 44
0.0000000001
 40
0.0
 40
0.0
 40
0.0
 40
0.0
 40
0.0216665118
 40
0.0437948284
 40
0.0897116347
 40
0.1382352329
 40
0.1896351682
 40
0.2440293451
 40
0.301419099
 40
0.3617190357
 40
0.424780655
 40
0.4904083172
 40
0.5583724427
 40
0.6284199454
 40
0.7002788473
 40
0.773661202
 40
0.8482767327
 40
1.0
 40
1.0
 40
1.0
 40
1.0
 10
5.1452018365
 20
3.743753088
 30
0.0
 10
5.1452018593
 20
3.7455077937
 30
0.0
 10
5.1450682949
 20
3.7490558634
 30
0.0
 10
5.1442870721
 20
3.7562839438
 30
0.0
 10
5.1423457579
 20
3.7655491501
 30
0.0
 10
5.1386544254
 20
3.776788727
 30
0.0
 10
5.1336673056
 20
3.7882647394
 30
0.0
 10
5.1274773812
 20
3.7999533759
 30
0.0
 10
5.1201769376
 20
3.8118340404
 30
0.0
 10
5.1118585608
 20
3.8238862739
 30
0.0
 10
5.1026151747
 20
3.8360907191
 30
0.0
 10
5.0925397185
 20
3.8484287663
 30
0.0
 10
5.0817252614
 20
3.8608829164
 30
0.0
 10
5.0702646733
 20
3.8734365519
 30
0.0
 10
5.0582507313
 20
3.8860737137
 30
0.0
 10
5.0457759179
 20
3.8987795195
 30
0.0
 10
5.0285553958
 20
3.9158873935
 30
0.0
 10
5.015375743
 20
3.9286281946
 30
0.0
 10
5.0065165144
 20
3.9371428571
 30
0.0
  0
SPLINE
  5
355
100
AcDbEntity
  8
0
100
AcDbSpline
 62
7
  6
CONTINUOUS
 70
0
 71
3
 72
39
 73
35
 74
0
 42
0.0000001
 43
0.0000001
 44
0.0000000001
 40
0.0
 40
0.0
 40
0.0
 40
0.0
 40
0.000522443
 40
0.0007225193
 40
0.0009552567
 40
0.0015233136
 40
0.0022329777
 40
0.0030871452
 40
0.0040873247
 40
0.0052343691
 40
0.0079707117
 40
0.0112981435
 40
0.0152168847
 40
0.0197258015
 40
0.0305042131
 40
0.0436114798
 40
0.0590180463
 40
0.0766875226
 40
0.0965788924
 40
0.1186437664
 40
0.1428305587
 40
0.1690801068
 40
0.1973305283
 40
0.2275130044
 40
0.2595556403
 40
0.2933809986
 40
0.3660507836
 40
0.4448230863
 40
0.5289400226
 40
0.6175916474
 40
0.7099254491
 40
0.8050502783
 40
0.9020555645
 40
1.0
 40
1.0
 40
1.0
 40
1.0
 10
5.3074517519
 20
5.3455424893
 30
0.0
 10
5.3074517519
 20
5.3454876281
 30
0.0
 10
5.307384813
 20
5.3454232321
 30
0.0
 10
5.3073014946
 20
5.3453720239
 30
0.0
 10
5.3072071988
 20
5.3453237999
 30
0.0
 10
5.3070595717
 20
5.345266156
 30
0.0
 10
5.3068454537
 20
5.3451998953
 30
0.0
 10
5.3065844767
 20
5.3451335563
 30
0.0
 10
5.3062763622
 20
5.3450669194
 30
0.0
 10
5.3057723145
 20
5.34497226
 30
0.0
 10
5.3050237913
 20
5.3448568028
 30
0.0
 10
5.303983896
 20
5.3447242145
 30
0.0
 10
5.3027566386
 20
5.3445911548
 30
0.0
 10
5.3007486926
 20
5.3444018107
 30
0.0
 10
5.2977757657
 20
5.3441711563
 30
0.0
 10
5.2936581857
 20
5.3439062037
 30
0.0
 10
5.2888157632
 20
5.3436402948
 30
0.0
 10
5.2832600815
 20
5.3433735655
 30
0.0
 10
5.2770045293
 20
5.3431063749
 30
0.0
 10
5.270064061
 20
5.3428387988
 30
0.0
 10
5.262455487
 20
5.342570987
 30
0.0
 10
5.254197015
 20
5.3423029572
 30
0.0
 10
5.2453086408
 20
5.3420347933
 30
0.0
 10
5.2358116868
 20
5.3417664988
 30
0.0
 10
5.2257290983
 20
5.3414981112
 30
0.0
 10
5.2111860163
 20
5.3411313338
 30
0.0
 10
5.1917365843
 20
5.3406764568
 30
0.0
 10
5.1670065486
 20
5.3401421319
 30
0.0
 10
5.140597922
 20
5.3396073551
 30
0.0
 10
5.1127649496
 20
5.3390722249
 30
0.0
 10
5.0837758511
 20
5.3385368574
 30
0.0
 10
5.0539094026
 20
5.3380013175
 30
0.0
 10
5.023453697
 20
5.3374656779
 30
0.0
 10
5.0029853426
 20
5.3371091256
 30
0.0
 10
4.9927018634
 20
5.3369299893
 30
0.0
  0
SPLINE
  5
356
100
AcDbEntity
  8
0
100
AcDbSpline
 62
7
  6
CONTINUOUS
 70
0
 71
3
 72
39
 73
35
 74
0
 42
0.0000001
 43
0.0000001
 44
0.0000000001
 40
0.0
 40
0.0
 40
0.0
 40
0.0
 40
0.000522443
 40
0.0007225193
 40
0.0009552567
 40
0.0015233136
 40
0.0022329777
 40
0.0030871452
 40
0.0040873247
 40
0.0052343691
 40
0.0079707117
 40
0.0112981435
 40
0.0152168847
 40
0.0197258015
 40
0.0305042131
 40
0.0436114798
 40
0.0590180463
 40
0.0766875226
 40
0.0965788924
 40
0.1186437664
 40
0.1428305587
 40
0.1690801068
 40
0.1973305283
 40
0.2275130044
 40
0.2595556403
 40
0.2933809986
 40
0.3660507836
 40
0.4448230863
 40
0.5289400226
 40
0.6175916474
 40
0.7099254491
 40
0.8050502783
 40
0.9020555645
 40
1.0
 40
1.0
 40
1.0
 40
1.0
 10
5.3074517519
 20
5.3110924893
 30
0.0
 10
5.3074517519
 20
5.3110376281
 30
0.0
 10
5.307384813
 20
5.3109732321
 30
0.0
 10
5.3073014946
 20
5.3109220239
 30
0.0
 10
5.3072071988
 20
5.3108737999
 30
0.0
 10
5.3070595717
 20
5.310816156
 30
0.0
 10
5.3068454537
 20
5.3107498953
 30
0.0
 10
5.3065844767
 20
5.3106835563
 30
0.0
 10
5.3062763622
 20
5.3106169194
 30
0.0
 10
5.3057723145
 20
5.31052226
 30
0.0
 10
5.3050237913
 20
5.3104068028
 30
0.0
 10
5.303983896
 20
5.3102742145
 30
0.0
 10
5.3027566386
 20
5.3101411548
 30
0.0
 10
5.3007486926
 20
5.3099518107
 30
0.0
 10
5.2977757657
 20
5.3097211563
 30
0.0
 10
5.2936581857
 20
5.3094562037
 30
0.0
 10
5.2888157632
 20
5.3091902948
 30
0.0
 10
5.2832600815
 20
5.3089235655
 30
0.0
 10
5.2770045293
 20
5.3086563749
 30
0.0
 10
5.270064061
 20
5.3083887988
 30
0.0
 10
5.262455487
 20
5.308120987
 30
0.0
 10
5.254197015
 20
5.3078529572
 30
0.0
 10
5.2453086408
 20
5.3075847933
 30
0.0
 10
5.2358116868
 20
5.3073164988
 30
0.0
 10
5.2257290983
 20
5.3070481112
 30
0.0
 10
5.2111860163
 20
5.3066813338
 30
0.0
 10
5.1917365843
 20
5.3062264568
 30
0.0
 10
5.1670065486
 20
5.3056921319
 30
0.0
 10
5.140597922
 20
5.3051573551
 30
0.0
 10
5.1127649496
 20
5.3046222249
 30
0.0
 10
5.0837758511
 20
5.3040868574
 30
0.0
 10
5.0539094026
 20
5.3035513175
 30
0.0
 10
5.023453697
 20
5.3030156779
 30
0.0
 10
5.0029853426
 20
5.3026591256
 30
0.0
 10
4.9927018634
 20
5.3024799893
 30
0.0
  0
SPLINE
  5
357
100
AcDbEntity
  8
0
100
AcDbSpline
 62
7
  6
CONTINUOUS
 70
0
 71
3
 72
39
 73
35
 74
0
 42
0.0000001
 43
0.0000001
 44
0.0000000001
 40
0.0
 40
0.0
 40
0.0
 40
0.0
 40
0.000522443
 40
0.0007225193
 40
0.0009552567
 40
0.0015233136
 40
0.0022329777
 40
0.0030871452
 40
0.0040873247
 40
0.0052343691
 40
0.0079707117
 40
0.0112981435
 40
0.0152168847
 40
0.0197258015
 40
0.0305042131
 40
0.0436114798
 40
0.0590180463
 40
0.0766875226
 40
0.0965788924
 40
0.1186437664
 40
0.1428305587
 40
0.1690801068
 40
0.1973305283
 40
0.2275130044
 40
0.2595556403
 40
0.2933809986
 40
0.3660507836
 40
0.4448230863
 40
0.5289400226
 40
0.6175916474
 40
0.7099254491
 40
0.8050502783
 40
0.9020555645
 40
1.0
 40
1.0
 40
1.0
 40
1.0
 10
5.3074517519
 20
5.2766424893
 30
0.0
 10
5.3074517519
 20
5.2765876281
 30
0.0
 10
5.307384813
 20
5.2765232321
 30
0.0
 10
5.3073014946
 20
5.2764720239
 30
0.0
 10
5.3072071988
 20
5.2764237999
 30
0.0
 10
5.3070595717
 20
5.276366156
 30
0.0
 10
5.3068454537
 20
5.2762998953
 30
0.0
 10
5.3065844767
 20
5.2762335563
 30
0.0
 10
5.3062763622
 20
5.2761669194
 30
0.0
 10
5.3057723145
 20
5.27607226
 30
0.0
 10
5.3050237913
 20
5.2759568028
 30
0.0
 10
5.303983896
 20
5.2758242145
 30
0.0
 10
5.3027566386
 20
5.2756911548
 30
0.0
 10
5.3007486926
 20
5.2755018107
 30
0.0
 10
5.2977757657
 20
5.2752711563
 30
0.0
 10
5.2936581857
 20
5.2750062037
 30
0.0
 10
5.2888157632
 20
5.2747402948
 30
0.0
 10
5.2832600815
 20
5.2744735655
 30
0.0
 10
5.2770045293
 20
5.2742063749
 30
0.0
 10
5.270064061
 20
5.2739387988
 30
0.0
 10
5.262455487
 20
5.273670987
 30
0.0
 10
5.254197015
 20
5.2734029572
 30
0.0
 10
5.2453086408
 20
5.2731347933
 30
0.0
 10
5.2358116868
 20
5.2728664988
 30
0.0
 10
5.2257290983
 20
5.2725981112
 30
0.0
 10
5.2111860163
 20
5.2722313338
 30
0.0
 10
5.1917365843
 20
5.2717764568
 30
0.0
 10
5.1670065486
 20
5.2712421319
 30
0.0
 10
5.140597922
 20
5.2707073551
 30
0.0
 10
5.1127649496
 20
5.2701722249
 30
0.0
 10
5.0837758511
 20
5.2696368574
 30
0.0
 10
5.0539094026
 20
5.2691013175
 30
0.0
 10
5.023453697
 20
5.2685656779
 30
0.0
 10
5.0029853426
 20
5.2682091256
 30
0.0
 10
4.9927018634
 20
5.2680299893
 30
0.0
  0
SPLINE
  5
358
100
AcDbEntity
  8
0
100
AcDbSpline
 62
7
  6
CONTINUOUS
 70
0
 71
3
 72
39
 73
35
 74
0
 42
0.0000001
 43
0.0000001
 44
0.0000000001
 40
0.0
 40
0.0
 40
0.0
 40
0.0
 40
0.0005224677
 40
0.0007225728
 40
0.0009553479
 40
0.0015235054
 40
0.0022332601
 40
0.0030874541
 40
0.0040876087
 40
0.0052345927
 40
0.0079707756
 40
0.0112981099
 40
0.0152168904
 40
0.0197257609
 40
0.0305040073
 40
0.0436113434
 40
0.0590177284
 40
0.0766872442
 40
0.0965785095
 40
0.1186433939
 40
0.1428301351
 40
0.169079624
 40
0.197330054
 40
0.2275124605
 40
0.2595551692
 40
0.293380491
 40
0.3660502426
 40
0.4448226252
 40
0.5289396223
 40
0.6175912644
 40
0.7099252065
 40
0.8050500242
 40
0.9020555653
 40
1.0
 40
1.0
 40
1.0
 40
1.0
 10
5.307451863
 20
5.2421924891
 30
0.0
 10
5.3074518626
 20
5.2421376254
 30
0.0
 10
5.3073849027
 20
5.2420732336
 30
0.0
 10
5.3073015714
 20
5.242022031
 30
0.0
 10
5.3072072545
 20
5.2419738087
 30
0.0
 10
5.3070596002
 20
5.2419161694
 30
0.0
 10
5.3068454574
 20
5.2418499118
 30
0.0
 10
5.3065844706
 20
5.2417835718
 30
0.0
 10
5.3062763625
 20
5.2417169344
 30
0.0
 10
5.305772341
 20
5.2416222739
 30
0.0
 10
5.3050238519
 20
5.2415068129
 30
0.0
 10
5.3039839796
 20
5.2413742219
 30
0.0
 10
5.3027567325
 20
5.2412411659
 30
0.0
 10
5.3007488045
 20
5.241051819
 30
0.0
 10
5.2977758918
 20
5.2408211617
 30
0.0
 10
5.2936583393
 20
5.2405562167
 30
0.0
 10
5.2888159235
 20
5.2402903005
 30
0.0
 10
5.2832602659
 20
5.2400235759
 30
0.0
 10
5.2770047178
 20
5.2397563813
 30
0.0
 10
5.2700642628
 20
5.2394888069
 30
0.0
 10
5.2624556972
 20
5.2392209941
 30
0.0
 10
5.2541972336
 20
5.2389529637
 30
0.0
 10
5.2453088695
 20
5.2386848005
 30
0.0
 10
5.2358119117
 20
5.2384165042
 30
0.0
 10
5.2257293238
 20
5.2381481177
 30
0.0
 10
5.2111862374
 20
5.2377813384
 30
0.0
 10
5.1917367989
 20
5.2373264617
 30
0.0
 10
5.1670067449
 20
5.236792136
 30
0.0
 10
5.1405980943
 20
5.2362573584
 30
0.0
 10
5.1127650912
 20
5.2357222276
 30
0.0
 10
5.0837759691
 20
5.2351868596
 30
0.0
 10
5.0539094719
 20
5.2346513187
 30
0.0
 10
5.0234537323
 20
5.2341156785
 30
0.0
 10
5.0029853454
 20
5.2337591257
 30
0.0
 10
4.9927018634
 20
5.2335799893
 30
0.0
  0
SPLINE
  5
359
100
AcDbEntity
  8
0
100
AcDbSpline
 62
7
  6
CONTINUOUS
 70
0
 71
3
 72
22
 73
18
 74
0
 42
0.0000001
 43
0.0000001
 44
0.0000000001
 40
0.0
 40
0.0
 40
0.0
 40
0.0
 40
0.0472865833
 40
0.095078193
 40
0.1438599507
 40
0.1940791594
 40
0.246132447
 40
0.3003622165
 40
0.3570492362
 40
0.4164209042
 40
0.4786501147
 40
0.5438612736
 40
0.6121394967
 40
0.6835278199
 40
0.7580405496
 40
0.8356604724
 40
1.0
 40
1.0
 40
1.0
 40
1.0
 10
4.7792018645
 20
3.3420778378
 30
0.0
 10
4.7792018764
 20
3.340619186
 30
0.0
 10
4.7793711643
 20
3.3376835912
 30
0.0
 10
4.7801296451
 20
3.3333022385
 30
0.0
 10
4.7813909814
 20
3.3289440857
 30
0.0
 10
4.7831505649
 20
3.3246209215
 30
0.0
 10
4.7854025485
 20
3.3203426097
 30
0.0
 10
4.7881411242
 20
3.3161193459
 30
0.0
 10
4.7913582825
 20
3.3119599287
 30
0.0
 10
4.7950465005
 20
3.3078738406
 30
0.0
 10
4.7991966495
 20
3.3038698777
 30
0.0
 10
4.8037988089
 20
3.2999566612
 30
0.0
 10
4.8088425837
 20
3.296143393
 30
0.0
 10
4.8143158386
 20
3.2924380957
 30
0.0
 10
4.8202063152
 20
3.2888495278
 30
0.0
 10
4.828761038
 20
3.284141786
 30
0.0
 10
4.8355191421
 20
3.2809513202
 30
0.0
 10
4.8401737089
 20
3.2789429064
 30
0.0
  0
SPLINE
  5
35A
100
AcDbEntity
  8
0
100
AcDbSpline
 62
7
  6
CONTINUOUS
 70
0
 71
3
 72
15
 73
11
 74
0
 42
0.0000001
 43
0.0000001
 44
0.0000000001
 40
0.0
 40
0.0
 40
0.0
 40
0.0
 40
0.2184797565
 40
0.4090474033
 40
0.571887543
 40
0.7073134491
 40
0.8158949812
 40
0.8604687428
 40
0.8988609118
 40
1.0
 40
1.0
 40
1.0
 40
1.0
 10
4.6998498001
 20
5.5196428571
 30
0.0
 10
4.6997287423
 20
5.5196208424
 30
0.0
 10
4.699502498
 20
5.5195773358
 30
0.0
 10
4.699187969
 20
5.5195077183
 30
0.0
 10
4.6989215006
 20
5.5194383828
 30
0.0
 10
4.6987028072
 20
5.5193691252
 30
0.0
 10
4.6985519791
 20
5.519308866
 30
0.0
 10
4.6984556754
 20
5.5192585033
 30
0.0
 10
4.6983699727
 20
5.5192046753
 30
0.0
 10
4.6983019864
 20
5.5191373166
 30
0.0
 10
4.6983019155
 20
5.5190803572
 30
0.0
  0
SPLINE
  5
35B
100
AcDbEntity
  8
0
100
AcDbSpline
 62
7
  6
CONTINUOUS
 70
0
 71
3
 72
39
 73
35
 74
0
 42
0.0000001
 43
0.0000001
 44
0.0000000001
 40
0.0
 40
0.0
 40
0.0
 40
0.0
 40
0.000522443
 40
0.0007225193
 40
0.0009552567
 40
0.0015233136
 40
0.0022329777
 40
0.0030871452
 40
0.0040873247
 40
0.0052343691
 40
0.0079707117
 40
0.0112981435
 40
0.0152168847
 40
0.0197258015
 40
0.0305042131
 40
0.0436114798
 40
0.0590180463
 40
0.0766875226
 40
0.0965788924
 40
0.1186437664
 40
0.1428305587
 40
0.1690801068
 40
0.1973305283
 40
0.2275130044
 40
0.2595556403
 40
0.2933809986
 40
0.3660507836
 40
0.4448230863
 40
0.5289400226
 40
0.6175916474
 40
0.7099254491
 40
0.8050502783
 40
0.9020555645
 40
1.0
 40
1.0
 40
1.0
 40
1.0
 10
5.3074517519
 20
5.2077424893
 30
0.0
 10
5.3074517519
 20
5.2076876281
 30
0.0
 10
5.307384813
 20
5.2076232321
 30
0.0
 10
5.3073014946
 20
5.2075720239
 30
0.0
 10
5.3072071988
 20
5.2075237999
 30
0.0
 10
5.3070595717
 20
5.207466156
 30
0.0
 10
5.3068454537
 20
5.2073998953
 30
0.0
 10
5.3065844767
 20
5.2073335563
 30
0.0
 10
5.3062763622
 20
5.2072669194
 30
0.0
 10
5.3057723145
 20
5.20717226
 30
0.0
 10
5.3050237913
 20
5.2070568028
 30
0.0
 10
5.303983896
 20
5.2069242145
 30
0.0
 10
5.3027566386
 20
5.2067911548
 30
0.0
 10
5.3007486926
 20
5.2066018107
 30
0.0
 10
5.2977757657
 20
5.2063711563
 30
0.0
 10
5.2936581857
 20
5.2061062037
 30
0.0
 10
5.2888157632
 20
5.2058402948
 30
0.0
 10
5.2832600815
 20
5.2055735655
 30
0.0
 10
5.2770045293
 20
5.2053063749
 30
0.0
 10
5.270064061
 20
5.2050387988
 30
0.0
 10
5.262455487
 20
5.204770987
 30
0.0
 10
5.254197015
 20
5.2045029572
 30
0.0
 10
5.2453086408
 20
5.2042347933
 30
0.0
 10
5.2358116868
 20
5.2039664988
 30
0.0
 10
5.2257290983
 20
5.2036981112
 30
0.0
 10
5.2111860163
 20
5.2033313338
 30
0.0
 10
5.1917365843
 20
5.2028764568
 30
0.0
 10
5.1670065486
 20
5.2023421319
 30
0.0
 10
5.140597922
 20
5.2018073551
 30
0.0
 10
5.1127649496
 20
5.2012722249
 30
0.0
 10
5.0837758511
 20
5.2007368574
 30
0.0
 10
5.0539094026
 20
5.2002013175
 30
0.0
 10
5.023453697
 20
5.1996656779
 30
0.0
 10
5.0029853426
 20
5.1993091256
 30
0.0
 10
4.9927018634
 20
5.1991299893
 30
0.0
  0
SPLINE
  5
35C
100
AcDbEntity
  8
0
100
AcDbSpline
 62
7
  6
CONTINUOUS
 70
0
 71
3
 72
39
 73
35
 74
0
 42
0.0000001
 43
0.0000001
 44
0.0000000001
 40
0.0
 40
0.0
 40
0.0
 40
0.0
 40
0.093478315
 40
0.1872588766
 40
0.2802719572
 40
0.3714615371
 40
0.4597895434
 40
0.5442515275
 40
0.6238869066
 40
0.6977900298
 40
0.7323267706
 40
0.7651207872
 40
0.7960794568
 40
0.8251139863
 40
0.8521428729
 40
0.8770884093
 40
0.8998810024
 40
0.9204549265
 40
0.9387534459
 40
0.9547240087
 40
0.96832361
 40
0.9795142601
 40
0.9841974928
 40
0.9882690454
 40
0.9917267195
 40
0.9945699183
 40
0.9957616387
 40
0.9968006787
 40
0.9976879085
 40
0.9984248565
 40
0.9990143719
 40
0.9992556233
 40
0.9994627422
 40
1.0
 40
1.0
 40
1.0
 40
1.0
 10
5.0328471439
 20
5.3906428571
 30
0.0
 10
5.0224154187
 20
5.3904467454
 30
0.0
 10
5.001518185
 20
5.3900567679
 30
0.0
 10
4.970241083
 20
5.3894749315
 30
0.0
 10
4.939219481
 20
5.3888931486
 30
0.0
 10
4.9088065709
 20
5.3883115024
 30
0.0
 10
4.8793482645
 20
5.38773008
 30
0.0
 10
4.8511798311
 20
5.3871490096
 30
0.0
 10
4.8246217794
 20
5.3865684103
 30
0.0
 10
4.8036355795
 20
5.3860747092
 30
0.0
 10
4.787876805
 20
5.3856765865
 30
0.0
 10
4.776910121
 20
5.3853848456
 30
0.0
 10
4.7665577911
 20
5.3850932256
 30
0.0
 10
4.7568492026
 20
5.3848017183
 30
0.0
 10
4.7478120859
 20
5.3845103929
 30
0.0
 10
4.7394720442
 20
5.3842192595
 30
0.0
 10
4.7318529367
 20
5.3839284323
 30
0.0
 10
4.7249763099
 20
5.3836379697
 30
0.0
 10
4.7188618528
 20
5.3833480638
 30
0.0
 10
4.7135267602
 20
5.3830589974
 30
0.0
 10
4.7089863087
 20
5.3827710138
 30
0.0
 10
4.7057060084
 20
5.3825203231
 30
0.0
 10
4.7034892876
 20
5.3823145112
 30
0.0
 10
4.7021338263
 20
5.3821698776
 30
0.0
 10
4.7009850493
 20
5.382025762
 30
0.0
 10
4.700158047
 20
5.3819002493
 30
0.0
 10
4.6996011014
 20
5.3817973445
 30
0.0
 10
4.699260637
 20
5.3817249058
 30
0.0
 10
4.6989722304
 20
5.3816527947
 30
0.0
 10
4.6987355657
 20
5.3815807705
 30
0.0
 10
4.6985723632
 20
5.3815181295
 30
0.0
 10
4.6984680408
 20
5.3814656844
 30
0.0
 10
4.6983763374
 20
5.3814102514
 30
0.0
 10
4.6983019213
 20
5.381340323
 30
0.0
 10
4.6983019512
 20
5.3812803571
 30
0.0
  0
SPLINE
  5
35D
100
AcDbEntity
  8
0
100
AcDbSpline
 62
7
  6
CONTINUOUS
 70
0
 71
3
 72
12
 73
8
 74
0
 42
0.0000001
 43
0.0000001
 44
0.0000000001
 40
0.0
 40
0.0
 40
0.0
 40
0.0
 40
0.2747016155
 40
0.5392983723
 40
0.784064576
 40
0.8961607147
 40
1.0
 40
1.0
 40
1.0
 40
1.0
 10
4.9927018634
 20
5.085105725
 30
0.0
 10
4.9726718337
 20
5.0847568055
 30
0.0
 10
4.933348573
 20
5.0840719113
 30
0.0
 10
4.8761786904
 20
5.0830393266
 30
0.0
 10
4.830866296
 20
5.0821579578
 30
0.0
 10
4.7972765429
 20
5.0814394731
 30
0.0
 10
4.7815332728
 20
5.0810762654
 30
0.0
 10
4.773962843
 20
5.0808928609
 30
0.0
  0
SPLINE
  5
35E
100
AcDbEntity
  8
0
100
AcDbSpline
 62
7
  6
CONTINUOUS
 70
0
 71
3
 72
30
 73
26
 74
0
 42
0.0000001
 43
0.0000001
 44
0.0000000001
 40
0.0
 40
0.0
 40
0.0
 40
0.0
 40
0.1871952894
 40
0.2787245434
 40
0.3677975185
 40
0.453625249
 40
0.5354519329
 40
0.6125554168
 40
0.6842559485
 40
0.7499212207
 40
0.808972689
 40
0.8608903728
 40
0.8840291009
 40
0.9052177572
 40
0.9244110532
 40
0.9415662246
 40
0.9566465401
 40
0.9696197108
 40
0.9804581081
 40
0.9850703887
 40
0.9891416202
 40
0.9926700473
 40
0.9956552528
 40
0.9980978099
 40
1.0
 40
1.0
 40
1.0
 40
1.0
 10
4.9927018634
 20
5.0957799893
 30
0.0
 10
4.9730992723
 20
5.0954385157
 30
0.0
 10
4.9439119792
 20
5.0949301893
 30
0.0
 10
4.9053975215
 20
5.0942412688
 30
0.0
 10
4.8774981635
 20
5.0937285629
 30
0.0
 10
4.8506151601
 20
5.0932160486
 30
0.0
 10
4.8249859917
 20
5.0927038032
 30
0.0
 10
4.8008367129
 20
5.0921919309
 30
0.0
 10
4.7783804644
 20
5.0916805647
 30
0.0
 10
4.7578153691
 20
5.0911699552
 30
0.0
 10
4.7393228734
 20
5.0906603076
 30
0.0
 10
4.7252841152
 20
5.0902218326
 30
0.0
 10
4.715210325
 20
5.0898660897
 30
0.0
 10
4.7085625232
 20
5.0896098311
 30
0.0
 10
4.7025418919
 20
5.0893539095
 30
0.0
 10
4.6971616289
 20
5.0890983695
 30
0.0
 10
4.6924335998
 20
5.0888434712
 30
0.0
 10
4.6883682102
 20
5.0885893599
 30
0.0
 10
4.6853993495
 20
5.0883686673
 30
0.0
 10
4.6833626983
 20
5.0881882616
 30
0.0
 10
4.6820900505
 20
5.0880605893
 30
0.0
 10
4.6809887553
 20
5.087933261
 30
0.0
 10
4.6800592263
 20
5.0878065249
 30
0.0
 10
4.6793018661
 20
5.0876805548
 30
0.0
 10
4.6788563307
 20
5.0875862272
 30
0.0
 10
4.6786634798
 20
5.087536246
 30
0.0
  0
SPLINE
  5
35F
100
AcDbEntity
  8
0
100
AcDbSpline
 62
7
  6
CONTINUOUS
 70
0
 71
3
 72
30
 73
26
 74
0
 42
0.0000001
 43
0.0000001
 44
0.0000000001
 40
0.0
 40
0.0
 40
0.0
 40
0.0
 40
0.1871953475
 40
0.278724538
 40
0.3677975429
 40
0.4536252769
 40
0.535451975
 40
0.6125554627
 40
0.6842559723
 40
0.7499212397
 40
0.8089727039
 40
0.8608904089
 40
0.8840291397
 40
0.9052178276
 40
0.9244110604
 40
0.941566316
 40
0.9566465476
 40
0.9696198094
 40
0.9804581448
 40
0.985070389
 40
0.9891416702
 40
0.9926701576
 40
0.9956553265
 40
0.9980978225
 40
1.0
 40
1.0
 40
1.0
 40
1.0
 10
4.9927018634
 20
5.1302299893
 30
0.0
 10
4.9730992673
 20
5.1298885156
 30
0.0
 10
4.9439119765
 20
5.1293801892
 30
0.0
 10
4.9053975184
 20
5.1286912687
 30
0.0
 10
4.8774981651
 20
5.1281785629
 30
0.0
 10
4.8506151582
 20
5.1276660486
 30
0.0
 10
4.824985989
 20
5.1271538032
 30
0.0
 10
4.8008367121
 20
5.126641931
 30
0.0
 10
4.7783804672
 20
5.1261305647
 30
0.0
 10
4.7578153764
 20
5.1256199552
 30
0.0
 10
4.7393228805
 20
5.1251103074
 30
0.0
 10
4.7252841209
 20
5.1246718329
 30
0.0
 10
4.7152103255
 20
5.1243160892
 30
0.0
 10
4.708562527
 20
5.1240598322
 30
0.0
 10
4.7025418908
 20
5.1238039077
 30
0.0
 10
4.6971616344
 20
5.1235483718
 30
0.0
 10
4.6924335963
 20
5.1232934687
 30
0.0
 10
4.6883682124
 20
5.1230393618
 30
0.0
 10
4.6853993527
 20
5.1228186679
 30
0.0
 10
4.6833627069
 20
5.1226382602
 30
0.0
 10
4.6820900513
 20
5.1225105887
 30
0.0
 10
4.6809887481
 20
5.1223832632
 30
0.0
 10
4.6800592233
 20
5.1222565258
 30
0.0
 10
4.6793018751
 20
5.1221305542
 30
0.0
 10
4.6788563479
 20
5.1220362258
 30
0.0
 10
4.678663498
 20
5.121986246
 30
0.0
  0
SPLINE
  5
360
100
AcDbEntity
  8
0
100
AcDbSpline
 62
7
  6
CONTINUOUS
 70
0
 71
3
 72
39
 73
35
 74
0
 42
0.0000001
 43
0.0000001
 44
0.0000000001
 40
0.0
 40
0.0
 40
0.0
 40
0.0
 40
0.0979444355
 40
0.1949497217
 40
0.2900745509
 40
0.3824083526
 40
0.4710599774
 40
0.5551769137
 40
0.6339492164
 40
0.7066190014
 40
0.7404443597
 40
0.7724869956
 40
0.8026694717
 40
0.8309198932
 40
0.8571694413
 40
0.8813562336
 40
0.9034211076
 40
0.9233124774
 40
0.9409819537
 40
0.9563885202
 40
0.9694957869
 40
0.9802741985
 40
0.9847831153
 40
0.9887018565
 40
0.9920292883
 40
0.9947656309
 40
0.9959126753
 40
0.9969128548
 40
0.9977670223
 40
0.9984766864
 40
0.9990447433
 40
0.9992774807
 40
0.999477557
 40
1.0
 40
1.0
 40
1.0
 40
1.0
 10
4.9927018634
 20
5.119555725
 30
0.0
 10
4.9824183841
 20
5.1193765886
 30
0.0
 10
4.9619500297
 20
5.1190200364
 30
0.0
 10
4.9314943241
 20
5.1184843968
 30
0.0
 10
4.9016278756
 20
5.1179488569
 30
0.0
 10
4.8726387771
 20
5.1174134894
 30
0.0
 10
4.8448058047
 20
5.1168783592
 30
0.0
 10
4.8183971781
 20
5.1163435824
 30
0.0
 10
4.7936671424
 20
5.1158092575
 30
0.0
 10
4.7742177104
 20
5.1153543805
 30
0.0
 10
4.7596746284
 20
5.1149876031
 30
0.0
 10
4.7495920399
 20
5.1147192155
 30
0.0
 10
4.7400950859
 20
5.114450921
 30
0.0
 10
4.7312067117
 20
5.1141827571
 30
0.0
 10
4.7229482397
 20
5.1139147273
 30
0.0
 10
4.7153396657
 20
5.1136469155
 30
0.0
 10
4.7083991974
 20
5.1133793394
 30
0.0
 10
4.7021436452
 20
5.1131121488
 30
0.0
 10
4.6965879635
 20
5.1128454195
 30
0.0
 10
4.691745541
 20
5.1125795105
 30
0.0
 10
4.687627961
 20
5.112314558
 30
0.0
 10
4.6846550341
 20
5.1120839036
 30
0.0
 10
4.6826470881
 20
5.1118945595
 30
0.0
 10
4.6814198307
 20
5.1117614997
 30
0.0
 10
4.6803799354
 20
5.1116289115
 30
0.0
 10
4.6796314122
 20
5.1115134543
 30
0.0
 10
4.6791273645
 20
5.1114187949
 30
0.0
 10
4.67881925
 20
5.111352158
 30
0.0
 10
4.678558273
 20
5.111285819
 30
0.0
 10
4.678344155
 20
5.1112195583
 30
0.0
 10
4.6781965279
 20
5.1111619144
 30
0.0
 10
4.6781022322
 20
5.1111136903
 30
0.0
 10
4.6780189137
 20
5.1110624822
 30
0.0
 10
4.6779519748
 20
5.1109980862
 30
0.0
 10
4.6779519748
 20
5.110943225
 30
0.0
  0
SPLINE
  5
361
100
AcDbEntity
  8
0
100
AcDbSpline
 62
7
  6
CONTINUOUS
 70
0
 71
3
 72
30
 73
26
 74
0
 42
0.0000001
 43
0.0000001
 44
0.0000000001
 40
0.0
 40
0.0
 40
0.0
 40
0.0
 40
0.1798524124
 40
0.2693138785
 40
0.3572205206
 40
0.4426528822
 40
0.5247199391
 40
0.6025649638
 40
0.675375722
 40
0.7423924294
 40
0.8029162267
 40
0.8563160376
 40
0.8801673854
 40
0.9020360377
 40
0.9218640124
 40
0.9396012457
 40
0.9552009293
 40
0.9686243527
 40
0.9798372092
 40
0.9846062341
 40
0.9888136487
 40
0.9924572821
 40
0.9955356127
 40
0.9980490163
 40
1.0
 40
1.0
 40
1.0
 40
1.0
 10
5.0328471439
 20
5.3773928571
 30
0.0
 10
5.012829463
 20
5.3770165338
 30
0.0
 10
4.9828545201
 20
5.3764608917
 30
0.0
 10
4.9430956112
 20
5.3757161827
 30
0.0
 10
4.9138459044
 20
5.3751587278
 30
0.0
 10
4.8854194944
 20
5.3746014458
 30
0.0
 10
4.8581133631
 20
5.3740444313
 30
0.0
 10
4.8322125688
 20
5.3734878027
 30
0.0
 10
4.8079875808
 20
5.3729317095
 30
0.0
 10
4.7856913188
 20
5.3723764299
 30
0.0
 10
4.7655565962
 20
5.3718221873
 30
0.0
 10
4.7502268004
 20
5.3713456593
 30
0.0
 10
4.7391995205
 20
5.3709589663
 30
0.0
 10
4.7319080136
 20
5.3706802353
 30
0.0
 10
4.7252976598
 20
5.3704018255
 30
0.0
 10
4.7193858325
 20
5.3701238783
 30
0.0
 10
4.7141877986
 20
5.3698466048
 30
0.0
 10
4.7097172017
 20
5.3695702073
 30
0.0
 10
4.7064524661
 20
5.3693301689
 30
0.0
 10
4.7042135403
 20
5.3691338781
 30
0.0
 10
4.7028155079
 20
5.3689949982
 30
0.0
 10
4.7016067044
 20
5.3688565226
 30
0.0
 10
4.7005877688
 20
5.3687186949
 30
0.0
 10
4.6997592792
 20
5.3685817126
 30
0.0
 10
4.6992726015
 20
5.3684790221
 30
0.0
 10
4.6990623679
 20
5.3684245177
 30
0.0
  0
SPLINE
  5
362
100
AcDbEntity
  8
0
100
AcDbSpline
 62
7
  6
CONTINUOUS
 70
0
 71
3
 72
39
 73
35
 74
0
 42
0.0000001
 43
0.0000001
 44
0.0000000001
 40
0.0
 40
0.0
 40
0.0
 40
0.0
 40
0.0979443522
 40
0.194949762
 40
0.290074521
 40
0.382408345
 40
0.4710599582
 40
0.5551769042
 40
0.6339492106
 40
0.706619004
 40
0.7404443214
 40
0.7724870048
 40
0.8026694309
 40
0.8309198828
 40
0.8571694139
 40
0.8813562006
 40
0.9034211042
 40
0.923312415
 40
0.9409819652
 40
0.9563884474
 40
0.9694958169
 40
0.9802741337
 40
0.9847830512
 40
0.9887018805
 40
0.9920293044
 40
0.9947655837
 40
0.9959126016
 40
0.996912772
 40
0.9977669576
 40
0.998476674
 40
0.9990447695
 40
0.9992775127
 40
0.9994775879
 40
1.0
 40
1.0
 40
1.0
 40
1.0
 10
4.9927018634
 20
5.154005725
 30
0.0
 10
4.9824183927
 20
5.1538265888
 30
0.0
 10
4.9619500336
 20
5.1534700364
 30
0.0
 10
4.9314943305
 20
5.1529343969
 30
0.0
 10
4.9016278734
 20
5.1523988568
 30
0.0
 10
4.8726387806
 20
5.1518634894
 30
0.0
 10
4.8448058055
 20
5.1513283592
 30
0.0
 10
4.8183971782
 20
5.1507935824
 30
0.0
 10
4.7936671397
 20
5.1502592573
 30
0.0
 10
4.7742177103
 20
5.1498043811
 30
0.0
 10
4.7596746264
 20
5.1494376025
 30
0.0
 10
4.7495920422
 20
5.1491692161
 30
0.0
 10
4.7400950852
 20
5.1489009205
 30
0.0
 10
4.7312067146
 20
5.1486327575
 30
0.0
 10
4.7229482416
 20
5.1483647273
 30
0.0
 10
4.7153396668
 20
5.148096915
 30
0.0
 10
4.708399202
 20
5.1478293405
 30
0.0
 10
4.7021436451
 20
5.1475621471
 30
0.0
 10
4.6965879703
 20
5.1472954219
 30
0.0
 10
4.6917455383
 20
5.1470295076
 30
0.0
 10
4.6876279658
 20
5.146764561
 30
0.0
 10
4.6846550382
 20
5.1465339032
 30
0.0
 10
4.682647093
 20
5.1463445574
 30
0.0
 10
4.6814198266
 20
5.1462115017
 30
0.0
 10
4.6803799295
 20
5.146078913
 30
0.0
 10
4.6796314169
 20
5.1459634544
 30
0.0
 10
4.6791273798
 20
5.1458687945
 30
0.0
 10
4.6788192672
 20
5.1458021572
 30
0.0
 10
4.6785582839
 20
5.145735817
 30
0.0
 10
4.6783441535
 20
5.1456695582
 30
0.0
 10
4.6781965149
 20
5.1456119159
 30
0.0
 10
4.6781022144
 20
5.1455636906
 30
0.0
 10
4.6780188982
 20
5.1455124849
 30
0.0
 10
4.6779519644
 20
5.1454480829
 30
0.0
 10
4.6779519738
 20
5.145393225
 30
0.0
  0
SPLINE
  5
363
100
AcDbEntity
  8
0
100
AcDbSpline
 62
7
  6
CONTINUOUS
 70
0
 71
3
 72
30
 73
26
 74
0
 42
0.0000001
 43
0.0000001
 44
0.0000000001
 40
0.0
 40
0.0
 40
0.0
 40
0.0
 40
0.1871952894
 40
0.2787245434
 40
0.3677975185
 40
0.453625249
 40
0.5354519329
 40
0.6125554168
 40
0.6842559485
 40
0.7499212207
 40
0.808972689
 40
0.8608903728
 40
0.8840291009
 40
0.9052177572
 40
0.9244110532
 40
0.9415662246
 40
0.9566465401
 40
0.9696197108
 40
0.9804581081
 40
0.9850703887
 40
0.9891416202
 40
0.9926700473
 40
0.9956552528
 40
0.9980978099
 40
1.0
 40
1.0
 40
1.0
 40
1.0
 10
4.9927018634
 20
5.1646799893
 30
0.0
 10
4.9730992723
 20
5.1643385157
 30
0.0
 10
4.9439119792
 20
5.1638301893
 30
0.0
 10
4.9053975215
 20
5.1631412688
 30
0.0
 10
4.8774981635
 20
5.1626285629
 30
0.0
 10
4.8506151601
 20
5.1621160486
 30
0.0
 10
4.8249859917
 20
5.1616038032
 30
0.0
 10
4.8008367129
 20
5.1610919309
 30
0.0
 10
4.7783804644
 20
5.1605805647
 30
0.0
 10
4.7578153691
 20
5.1600699552
 30
0.0
 10
4.7393228734
 20
5.1595603076
 30
0.0
 10
4.7252841152
 20
5.1591218326
 30
0.0
 10
4.715210325
 20
5.1587660897
 30
0.0
 10
4.7085625232
 20
5.1585098311
 30
0.0
 10
4.7025418919
 20
5.1582539095
 30
0.0
 10
4.6971616289
 20
5.1579983695
 30
0.0
 10
4.6924335998
 20
5.1577434712
 30
0.0
 10
4.6883682102
 20
5.1574893599
 30
0.0
 10
4.6853993495
 20
5.1572686673
 30
0.0
 10
4.6833626983
 20
5.1570882616
 30
0.0
 10
4.6820900505
 20
5.1569605893
 30
0.0
 10
4.6809887553
 20
5.156833261
 30
0.0
 10
4.6800592263
 20
5.1567065249
 30
0.0
 10
4.6793018661
 20
5.1565805548
 30
0.0
 10
4.6788563307
 20
5.1564862272
 30
0.0
 10
4.6786634798
 20
5.156436246
 30
0.0
  0
SPLINE
  5
364
100
AcDbEntity
  8
0
100
AcDbSpline
 62
7
  6
CONTINUOUS
 70
0
 71
3
 72
39
 73
35
 74
0
 42
0.0000001
 43
0.0000001
 44
0.0000000001
 40
0.0
 40
0.0
 40
0.0
 40
0.0
 40
0.0979444355
 40
0.1949497217
 40
0.2900745509
 40
0.3824083526
 40
0.4710599774
 40
0.5551769137
 40
0.6339492164
 40
0.7066190014
 40
0.7404443597
 40
0.7724869956
 40
0.8026694717
 40
0.8309198932
 40
0.8571694413
 40
0.8813562336
 40
0.9034211076
 40
0.9233124774
 40
0.9409819537
 40
0.9563885202
 40
0.9694957869
 40
0.9802741985
 40
0.9847831153
 40
0.9887018565
 40
0.9920292883
 40
0.9947656309
 40
0.9959126753
 40
0.9969128548
 40
0.9977670223
 40
0.9984766864
 40
0.9990447433
 40
0.9992774807
 40
0.999477557
 40
1.0
 40
1.0
 40
1.0
 40
1.0
 10
4.9927018634
 20
5.188455725
 30
0.0
 10
4.9824183841
 20
5.1882765886
 30
0.0
 10
4.9619500297
 20
5.1879200364
 30
0.0
 10
4.9314943241
 20
5.1873843968
 30
0.0
 10
4.9016278756
 20
5.1868488569
 30
0.0
 10
4.8726387771
 20
5.1863134894
 30
0.0
 10
4.8448058047
 20
5.1857783592
 30
0.0
 10
4.8183971781
 20
5.1852435824
 30
0.0
 10
4.7936671424
 20
5.1847092575
 30
0.0
 10
4.7742177104
 20
5.1842543805
 30
0.0
 10
4.7596746284
 20
5.1838876031
 30
0.0
 10
4.7495920399
 20
5.1836192155
 30
0.0
 10
4.7400950859
 20
5.183350921
 30
0.0
 10
4.7312067117
 20
5.1830827571
 30
0.0
 10
4.7229482397
 20
5.1828147273
 30
0.0
 10
4.7153396657
 20
5.1825469155
 30
0.0
 10
4.7083991974
 20
5.1822793394
 30
0.0
 10
4.7021436452
 20
5.1820121488
 30
0.0
 10
4.6965879635
 20
5.1817454195
 30
0.0
 10
4.691745541
 20
5.1814795105
 30
0.0
 10
4.687627961
 20
5.181214558
 30
0.0
 10
4.6846550341
 20
5.1809839036
 30
0.0
 10
4.6826470881
 20
5.1807945595
 30
0.0
 10
4.6814198307
 20
5.1806614997
 30
0.0
 10
4.6803799354
 20
5.1805289115
 30
0.0
 10
4.6796314122
 20
5.1804134543
 30
0.0
 10
4.6791273645
 20
5.1803187949
 30
0.0
 10
4.67881925
 20
5.180252158
 30
0.0
 10
4.678558273
 20
5.180185819
 30
0.0
 10
4.678344155
 20
5.1801195583
 30
0.0
 10
4.6781965279
 20
5.1800619144
 30
0.0
 10
4.6781022322
 20
5.1800136903
 30
0.0
 10
4.6780189137
 20
5.1799624822
 30
0.0
 10
4.6779519748
 20
5.1798980862
 30
0.0
 10
4.6779519748
 20
5.179843225
 30
0.0
  0
SPLINE
  5
365
100
AcDbEntity
  8
0
100
AcDbSpline
 62
7
  6
CONTINUOUS
 70
0
 71
3
 72
30
 73
26
 74
0
 42
0.0000001
 43
0.0000001
 44
0.0000000001
 40
0.0
 40
0.0
 40
0.0
 40
0.0
 40
0.1871952894
 40
0.2787245434
 40
0.3677975185
 40
0.453625249
 40
0.5354519329
 40
0.6125554168
 40
0.6842559485
 40
0.7499212207
 40
0.808972689
 40
0.8608903728
 40
0.8840291009
 40
0.9052177572
 40
0.9244110532
 40
0.9415662246
 40
0.9566465401
 40
0.9696197108
 40
0.9804581081
 40
0.9850703887
 40
0.9891416202
 40
0.9926700473
 40
0.9956552528
 40
0.9980978099
 40
1.0
 40
1.0
 40
1.0
 40
1.0
 10
4.9927018634
 20
5.1991299893
 30
0.0
 10
4.9730992723
 20
5.1987885157
 30
0.0
 10
4.9439119792
 20
5.1982801893
 30
0.0
 10
4.9053975215
 20
5.1975912688
 30
0.0
 10
4.8774981635
 20
5.1970785629
 30
0.0
 10
4.8506151601
 20
5.1965660486
 30
0.0
 10
4.8249859917
 20
5.1960538032
 30
0.0
 10
4.8008367129
 20
5.1955419309
 30
0.0
 10
4.7783804644
 20
5.1950305647
 30
0.0
 10
4.7578153691
 20
5.1945199552
 30
0.0
 10
4.7393228734
 20
5.1940103076
 30
0.0
 10
4.7252841152
 20
5.1935718326
 30
0.0
 10
4.715210325
 20
5.1932160897
 30
0.0
 10
4.7085625232
 20
5.1929598311
 30
0.0
 10
4.7025418919
 20
5.1927039095
 30
0.0
 10
4.6971616289
 20
5.1924483695
 30
0.0
 10
4.6924335998
 20
5.1921934712
 30
0.0
 10
4.6883682102
 20
5.1919393599
 30
0.0
 10
4.6853993495
 20
5.1917186673
 30
0.0
 10
4.6833626983
 20
5.1915382616
 30
0.0
 10
4.6820900505
 20
5.1914105893
 30
0.0
 10
4.6809887553
 20
5.191283261
 30
0.0
 10
4.6800592263
 20
5.1911565249
 30
0.0
 10
4.6793018661
 20
5.1910305548
 30
0.0
 10
4.6788563307
 20
5.1909362272
 30
0.0
 10
4.6786634798
 20
5.190886246
 30
0.0
  0
SPLINE
  5
366
100
AcDbEntity
  8
0
100
AcDbSpline
 62
7
  6
CONTINUOUS
 70
0
 71
3
 72
39
 73
35
 74
0
 42
0.0000001
 43
0.0000001
 44
0.0000000001
 40
0.0
 40
0.0
 40
0.0
 40
0.0
 40
0.0979444355
 40
0.1949497217
 40
0.2900745509
 40
0.3824083526
 40
0.4710599774
 40
0.5551769137
 40
0.6339492164
 40
0.7066190014
 40
0.7404443597
 40
0.7724869956
 40
0.8026694717
 40
0.8309198932
 40
0.8571694413
 40
0.8813562336
 40
0.9034211076
 40
0.9233124774
 40
0.9409819537
 40
0.9563885202
 40
0.9694957869
 40
0.9802741985
 40
0.9847831153
 40
0.9887018565
 40
0.9920292883
 40
0.9947656309
 40
0.9959126753
 40
0.9969128548
 40
0.9977670223
 40
0.9984766864
 40
0.9990447433
 40
0.9992774807
 40
0.999477557
 40
1.0
 40
1.0
 40
1.0
 40
1.0
 10
4.9927018634
 20
5.222905725
 30
0.0
 10
4.9824183841
 20
5.2227265886
 30
0.0
 10
4.9619500297
 20
5.2223700364
 30
0.0
 10
4.9314943241
 20
5.2218343968
 30
0.0
 10
4.9016278756
 20
5.2212988569
 30
0.0
 10
4.8726387771
 20
5.2207634894
 30
0.0
 10
4.8448058047
 20
5.2202283592
 30
0.0
 10
4.8183971781
 20
5.2196935824
 30
0.0
 10
4.7936671424
 20
5.2191592575
 30
0.0
 10
4.7742177104
 20
5.2187043805
 30
0.0
 10
4.7596746284
 20
5.2183376031
 30
0.0
 10
4.7495920399
 20
5.2180692155
 30
0.0
 10
4.7400950859
 20
5.217800921
 30
0.0
 10
4.7312067117
 20
5.2175327571
 30
0.0
 10
4.7229482397
 20
5.2172647273
 30
0.0
 10
4.7153396657
 20
5.2169969155
 30
0.0
 10
4.7083991974
 20
5.2167293394
 30
0.0
 10
4.7021436452
 20
5.2164621488
 30
0.0
 10
4.6965879635
 20
5.2161954195
 30
0.0
 10
4.691745541
 20
5.2159295105
 30
0.0
 10
4.687627961
 20
5.215664558
 30
0.0
 10
4.6846550341
 20
5.2154339036
 30
0.0
 10
4.6826470881
 20
5.2152445595
 30
0.0
 10
4.6814198307
 20
5.2151114997
 30
0.0
 10
4.6803799354
 20
5.2149789115
 30
0.0
 10
4.6796314122
 20
5.2148634543
 30
0.0
 10
4.6791273645
 20
5.2147687949
 30
0.0
 10
4.67881925
 20
5.214702158
 30
0.0
 10
4.678558273
 20
5.214635819
 30
0.0
 10
4.678344155
 20
5.2145695583
 30
0.0
 10
4.6781965279
 20
5.2145119144
 30
0.0
 10
4.6781022322
 20
5.2144636903
 30
0.0
 10
4.6780189137
 20
5.2144124822
 30
0.0
 10
4.6779519748
 20
5.2143480862
 30
0.0
 10
4.6779519748
 20
5.214293225
 30
0.0
  0
SPLINE
  5
367
100
AcDbEntity
  8
0
100
AcDbSpline
 62
7
  6
CONTINUOUS
 70
0
 71
3
 72
30
 73
26
 74
0
 42
0.0000001
 43
0.0000001
 44
0.0000000001
 40
0.0
 40
0.0
 40
0.0
 40
0.0
 40
0.1871952894
 40
0.2787245434
 40
0.3677975185
 40
0.453625249
 40
0.5354519329
 40
0.6125554168
 40
0.6842559485
 40
0.7499212207
 40
0.808972689
 40
0.8608903728
 40
0.8840291009
 40
0.9052177572
 40
0.9244110532
 40
0.9415662246
 40
0.9566465401
 40
0.9696197108
 40
0.9804581081
 40
0.9850703887
 40
0.9891416202
 40
0.9926700473
 40
0.9956552528
 40
0.9980978099
 40
1.0
 40
1.0
 40
1.0
 40
1.0
 10
4.9927018634
 20
5.2335799893
 30
0.0
 10
4.9730992723
 20
5.2332385157
 30
0.0
 10
4.9439119792
 20
5.2327301893
 30
0.0
 10
4.9053975215
 20
5.2320412688
 30
0.0
 10
4.8774981635
 20
5.2315285629
 30
0.0
 10
4.8506151601
 20
5.2310160486
 30
0.0
 10
4.8249859917
 20
5.2305038032
 30
0.0
 10
4.8008367129
 20
5.2299919309
 30
0.0
 10
4.7783804644
 20
5.2294805647
 30
0.0
 10
4.7578153691
 20
5.2289699552
 30
0.0
 10
4.7393228734
 20
5.2284603076
 30
0.0
 10
4.7252841152
 20
5.2280218326
 30
0.0
 10
4.715210325
 20
5.2276660897
 30
0.0
 10
4.7085625232
 20
5.2274098311
 30
0.0
 10
4.7025418919
 20
5.2271539095
 30
0.0
 10
4.6971616289
 20
5.2268983695
 30
0.0
 10
4.6924335998
 20
5.2266434712
 30
0.0
 10
4.6883682102
 20
5.2263893599
 30
0.0
 10
4.6853993495
 20
5.2261686673
 30
0.0
 10
4.6833626983
 20
5.2259882616
 30
0.0
 10
4.6820900505
 20
5.2258605893
 30
0.0
 10
4.6809887553
 20
5.225733261
 30
0.0
 10
4.6800592263
 20
5.2256065249
 30
0.0
 10
4.6793018661
 20
5.2254805548
 30
0.0
 10
4.6788563307
 20
5.2253862272
 30
0.0
 10
4.6786634798
 20
5.225336246
 30
0.0
  0
SPLINE
  5
368
100
AcDbEntity
  8
0
100
AcDbSpline
 62
7
  6
CONTINUOUS
 70
0
 71
3
 72
30
 73
26
 74
0
 42
0.0000001
 43
0.0000001
 44
0.0000000001
 40
0.0
 40
0.0
 40
0.0
 40
0.0
 40
0.1871952894
 40
0.2787245434
 40
0.3677975185
 40
0.453625249
 40
0.5354519329
 40
0.6125554168
 40
0.6842559485
 40
0.7499212207
 40
0.808972689
 40
0.8608903728
 40
0.8840291009
 40
0.9052177572
 40
0.9244110532
 40
0.9415662246
 40
0.9566465401
 40
0.9696197108
 40
0.9804581081
 40
0.9850703887
 40
0.9891416202
 40
0.9926700473
 40
0.9956552528
 40
0.9980978099
 40
1.0
 40
1.0
 40
1.0
 40
1.0
 10
4.9927018634
 20
5.2680299893
 30
0.0
 10
4.9730992723
 20
5.2676885157
 30
0.0
 10
4.9439119792
 20
5.2671801893
 30
0.0
 10
4.9053975215
 20
5.2664912688
 30
0.0
 10
4.8774981635
 20
5.2659785629
 30
0.0
 10
4.8506151601
 20
5.2654660486
 30
0.0
 10
4.8249859917
 20
5.2649538032
 30
0.0
 10
4.8008367129
 20
5.2644419309
 30
0.0
 10
4.7783804644
 20
5.2639305647
 30
0.0
 10
4.7578153691
 20
5.2634199552
 30
0.0
 10
4.7393228734
 20
5.2629103076
 30
0.0
 10
4.7252841152
 20
5.2624718326
 30
0.0
 10
4.715210325
 20
5.2621160897
 30
0.0
 10
4.7085625232
 20
5.2618598311
 30
0.0
 10
4.7025418919
 20
5.2616039095
 30
0.0
 10
4.6971616289
 20
5.2613483695
 30
0.0
 10
4.6924335998
 20
5.2610934712
 30
0.0
 10
4.6883682102
 20
5.2608393599
 30
0.0
 10
4.6853993495
 20
5.2606186673
 30
0.0
 10
4.6833626983
 20
5.2604382616
 30
0.0
 10
4.6820900505
 20
5.2603105893
 30
0.0
 10
4.6809887553
 20
5.260183261
 30
0.0
 10
4.6800592263
 20
5.2600565249
 30
0.0
 10
4.6793018661
 20
5.2599305548
 30
0.0
 10
4.6788563307
 20
5.2598362272
 30
0.0
 10
4.6786634798
 20
5.259786246
 30
0.0
  0
SPLINE
  5
369
100
AcDbEntity
  8
0
100
AcDbSpline
 62
7
  6
CONTINUOUS
 70
0
 71
3
 72
39
 73
35
 74
0
 42
0.0000001
 43
0.0000001
 44
0.0000000001
 40
0.0
 40
0.0
 40
0.0
 40
0.0
 40
0.0979444339
 40
0.1949497171
 40
0.2900745495
 40
0.3824083537
 40
0.4710599801
 40
0.5551769169
 40
0.6339492164
 40
0.706618998
 40
0.7404443556
 40
0.7724869912
 40
0.8026694671
 40
0.8309198888
 40
0.8571694373
 40
0.8813562308
 40
0.9034211067
 40
0.9233124783
 40
0.9409819553
 40
0.9563885208
 40
0.9694957875
 40
0.9802741994
 40
0.9847831167
 40
0.9887018584
 40
0.99202929
 40
0.994765632
 40
0.995912676
 40
0.9969128553
 40
0.9977670226
 40
0.9984766866
 40
0.9990447435
 40
0.9992774809
 40
0.9994775572
 40
1.0
 40
1.0
 40
1.0
 40
1.0
 10
4.9927018634
 20
5.257355725
 30
0.0
 10
4.9824183843
 20
5.2571765886
 30
0.0
 10
4.9619500304
 20
5.2568200364
 30
0.0
 10
4.9314943249
 20
5.2562843968
 30
0.0
 10
4.9016278761
 20
5.2557488569
 30
0.0
 10
4.8726387769
 20
5.2552134894
 30
0.0
 10
4.844805804
 20
5.2546783592
 30
0.0
 10
4.8183971775
 20
5.2541435824
 30
0.0
 10
4.7936671425
 20
5.2536092575
 30
0.0
 10
4.7742177112
 20
5.2531543805
 30
0.0
 10
4.7596746297
 20
5.2527876032
 30
0.0
 10
4.7495920413
 20
5.2525192155
 30
0.0
 10
4.7400950874
 20
5.2522509211
 30
0.0
 10
4.7312067131
 20
5.2519827571
 30
0.0
 10
4.7229482409
 20
5.2517147273
 30
0.0
 10
4.7153396666
 20
5.2514469155
 30
0.0
 10
4.7083991978
 20
5.2511793394
 30
0.0
 10
4.7021436451
 20
5.2509121488
 30
0.0
 10
4.6965879633
 20
5.2506454195
 30
0.0
 10
4.6917455408
 20
5.2503795105
 30
0.0
 10
4.6876279608
 20
5.250114558
 30
0.0
 10
4.6846550338
 20
5.2498839036
 30
0.0
 10
4.6826470877
 20
5.2496945594
 30
0.0
 10
4.6814198303
 20
5.2495614997
 30
0.0
 10
4.680379935
 20
5.2494289114
 30
0.0
 10
4.6796314119
 20
5.2493134542
 30
0.0
 10
4.6791273643
 20
5.2492187949
 30
0.0
 10
4.6788192499
 20
5.249152158
 30
0.0
 10
4.6785582729
 20
5.2490858189
 30
0.0
 10
4.678344155
 20
5.2490195583
 30
0.0
 10
4.6781965279
 20
5.2489619144
 30
0.0
 10
4.6781022322
 20
5.2489136903
 30
0.0
 10
4.6780189137
 20
5.2488624822
 30
0.0
 10
4.6779519749
 20
5.2487980861
 30
0.0
 10
4.6779519749
 20
5.248743225
 30
0.0
  0
SPLINE
  5
36A
100
AcDbEntity
  8
0
100
AcDbSpline
 62
7
  6
CONTINUOUS
 70
0
 71
3
 72
39
 73
35
 74
0
 42
0.0000001
 43
0.0000001
 44
0.0000000001
 40
0.0
 40
0.0
 40
0.0
 40
0.0
 40
0.0979444355
 40
0.1949497217
 40
0.2900745509
 40
0.3824083526
 40
0.4710599774
 40
0.5551769137
 40
0.6339492164
 40
0.7066190014
 40
0.7404443597
 40
0.7724869956
 40
0.8026694717
 40
0.8309198932
 40
0.8571694413
 40
0.8813562336
 40
0.9034211076
 40
0.9233124774
 40
0.9409819537
 40
0.9563885202
 40
0.9694957869
 40
0.9802741985
 40
0.9847831153
 40
0.9887018565
 40
0.9920292883
 40
0.9947656309
 40
0.9959126753
 40
0.9969128548
 40
0.9977670223
 40
0.9984766864
 40
0.9990447433
 40
0.9992774807
 40
0.999477557
 40
1.0
 40
1.0
 40
1.0
 40
1.0
 10
4.9927018634
 20
5.291805725
 30
0.0
 10
4.9824183841
 20
5.2916265886
 30
0.0
 10
4.9619500297
 20
5.2912700364
 30
0.0
 10
4.9314943241
 20
5.2907343968
 30
0.0
 10
4.9016278756
 20
5.2901988569
 30
0.0
 10
4.8726387771
 20
5.2896634894
 30
0.0
 10
4.8448058047
 20
5.2891283592
 30
0.0
 10
4.8183971781
 20
5.2885935824
 30
0.0
 10
4.7936671424
 20
5.2880592575
 30
0.0
 10
4.7742177104
 20
5.2876043805
 30
0.0
 10
4.7596746284
 20
5.2872376031
 30
0.0
 10
4.7495920399
 20
5.2869692155
 30
0.0
 10
4.7400950859
 20
5.286700921
 30
0.0
 10
4.7312067117
 20
5.2864327571
 30
0.0
 10
4.7229482397
 20
5.2861647273
 30
0.0
 10
4.7153396657
 20
5.2858969155
 30
0.0
 10
4.7083991974
 20
5.2856293394
 30
0.0
 10
4.7021436452
 20
5.2853621488
 30
0.0
 10
4.6965879635
 20
5.2850954195
 30
0.0
 10
4.691745541
 20
5.2848295105
 30
0.0
 10
4.687627961
 20
5.284564558
 30
0.0
 10
4.6846550341
 20
5.2843339036
 30
0.0
 10
4.6826470881
 20
5.2841445595
 30
0.0
 10
4.6814198307
 20
5.2840114997
 30
0.0
 10
4.6803799354
 20
5.2838789115
 30
0.0
 10
4.6796314122
 20
5.2837634543
 30
0.0
 10
4.6791273645
 20
5.2836687949
 30
0.0
 10
4.67881925
 20
5.283602158
 30
0.0
 10
4.678558273
 20
5.283535819
 30
0.0
 10
4.678344155
 20
5.2834695583
 30
0.0
 10
4.6781965279
 20
5.2834119144
 30
0.0
 10
4.6781022322
 20
5.2833636903
 30
0.0
 10
4.6780189137
 20
5.2833124822
 30
0.0
 10
4.6779519748
 20
5.2832480862
 30
0.0
 10
4.6779519748
 20
5.283193225
 30
0.0
  0
SPLINE
  5
36B
100
AcDbEntity
  8
0
100
AcDbSpline
 62
7
  6
CONTINUOUS
 70
0
 71
3
 72
30
 73
26
 74
0
 42
0.0000001
 43
0.0000001
 44
0.0000000001
 40
0.0
 40
0.0
 40
0.0
 40
0.0
 40
0.1871952894
 40
0.2787245434
 40
0.3677975185
 40
0.453625249
 40
0.5354519329
 40
0.6125554168
 40
0.6842559485
 40
0.7499212207
 40
0.808972689
 40
0.8608903728
 40
0.8840291009
 40
0.9052177572
 40
0.9244110532
 40
0.9415662246
 40
0.9566465401
 40
0.9696197108
 40
0.9804581081
 40
0.9850703887
 40
0.9891416202
 40
0.9926700473
 40
0.9956552528
 40
0.9980978099
 40
1.0
 40
1.0
 40
1.0
 40
1.0
 10
4.9927018634
 20
5.3024799893
 30
0.0
 10
4.9730992723
 20
5.3021385157
 30
0.0
 10
4.9439119792
 20
5.3016301893
 30
0.0
 10
4.9053975215
 20
5.3009412688
 30
0.0
 10
4.8774981635
 20
5.3004285629
 30
0.0
 10
4.8506151601
 20
5.2999160486
 30
0.0
 10
4.8249859917
 20
5.2994038032
 30
0.0
 10
4.8008367129
 20
5.2988919309
 30
0.0
 10
4.7783804644
 20
5.2983805647
 30
0.0
 10
4.7578153691
 20
5.2978699552
 30
0.0
 10
4.7393228734
 20
5.2973603076
 30
0.0
 10
4.7252841152
 20
5.2969218326
 30
0.0
 10
4.715210325
 20
5.2965660897
 30
0.0
 10
4.7085625232
 20
5.2963098311
 30
0.0
 10
4.7025418919
 20
5.2960539095
 30
0.0
 10
4.6971616289
 20
5.2957983695
 30
0.0
 10
4.6924335998
 20
5.2955434712
 30
0.0
 10
4.6883682102
 20
5.2952893599
 30
0.0
 10
4.6853993495
 20
5.2950686673
 30
0.0
 10
4.6833626983
 20
5.2948882616
 30
0.0
 10
4.6820900505
 20
5.2947605893
 30
0.0
 10
4.6809887553
 20
5.294633261
 30
0.0
 10
4.6800592263
 20
5.2945065249
 30
0.0
 10
4.6793018661
 20
5.2943805548
 30
0.0
 10
4.6788563307
 20
5.2942862272
 30
0.0
 10
4.6786634798
 20
5.294236246
 30
0.0
  0
SPLINE
  5
36C
100
AcDbEntity
  8
0
100
AcDbSpline
 62
7
  6
CONTINUOUS
 70
0
 71
3
 72
39
 73
35
 74
0
 42
0.0000001
 43
0.0000001
 44
0.0000000001
 40
0.0
 40
0.0
 40
0.0
 40
0.0
 40
0.0979444355
 40
0.1949497217
 40
0.2900745509
 40
0.3824083526
 40
0.4710599774
 40
0.5551769137
 40
0.6339492164
 40
0.7066190014
 40
0.7404443597
 40
0.7724869956
 40
0.8026694717
 40
0.8309198932
 40
0.8571694413
 40
0.8813562336
 40
0.9034211076
 40
0.9233124774
 40
0.9409819537
 40
0.9563885202
 40
0.9694957869
 40
0.9802741985
 40
0.9847831153
 40
0.9887018565
 40
0.9920292883
 40
0.9947656309
 40
0.9959126753
 40
0.9969128548
 40
0.9977670223
 40
0.9984766864
 40
0.9990447433
 40
0.9992774807
 40
0.999477557
 40
1.0
 40
1.0
 40
1.0
 40
1.0
 10
4.9927018634
 20
5.326255725
 30
0.0
 10
4.9824183841
 20
5.3260765886
 30
0.0
 10
4.9619500297
 20
5.3257200364
 30
0.0
 10
4.9314943241
 20
5.3251843968
 30
0.0
 10
4.9016278756
 20
5.3246488569
 30
0.0
 10
4.8726387771
 20
5.3241134894
 30
0.0
 10
4.8448058047
 20
5.3235783592
 30
0.0
 10
4.8183971781
 20
5.3230435824
 30
0.0
 10
4.7936671424
 20
5.3225092575
 30
0.0
 10
4.7742177104
 20
5.3220543805
 30
0.0
 10
4.7596746284
 20
5.3216876031
 30
0.0
 10
4.7495920399
 20
5.3214192155
 30
0.0
 10
4.7400950859
 20
5.321150921
 30
0.0
 10
4.7312067117
 20
5.3208827571
 30
0.0
 10
4.7229482397
 20
5.3206147273
 30
0.0
 10
4.7153396657
 20
5.3203469155
 30
0.0
 10
4.7083991974
 20
5.3200793394
 30
0.0
 10
4.7021436452
 20
5.3198121488
 30
0.0
 10
4.6965879635
 20
5.3195454195
 30
0.0
 10
4.691745541
 20
5.3192795105
 30
0.0
 10
4.687627961
 20
5.319014558
 30
0.0
 10
4.6846550341
 20
5.3187839036
 30
0.0
 10
4.6826470881
 20
5.3185945595
 30
0.0
 10
4.6814198307
 20
5.3184614997
 30
0.0
 10
4.6803799354
 20
5.3183289115
 30
0.0
 10
4.6796314122
 20
5.3182134543
 30
0.0
 10
4.6791273645
 20
5.3181187949
 30
0.0
 10
4.67881925
 20
5.318052158
 30
0.0
 10
4.678558273
 20
5.317985819
 30
0.0
 10
4.678344155
 20
5.3179195583
 30
0.0
 10
4.6781965279
 20
5.3178619144
 30
0.0
 10
4.6781022322
 20
5.3178136903
 30
0.0
 10
4.6780189137
 20
5.3177624822
 30
0.0
 10
4.6779519748
 20
5.3176980862
 30
0.0
 10
4.6779519748
 20
5.317643225
 30
0.0
  0
SPLINE
  5
36D
100
AcDbEntity
  8
0
100
AcDbSpline
 62
7
  6
CONTINUOUS
 70
0
 71
3
 72
30
 73
26
 74
0
 42
0.0000001
 43
0.0000001
 44
0.0000000001
 40
0.0
 40
0.0
 40
0.0
 40
0.0
 40
0.1871952894
 40
0.2787245434
 40
0.3677975185
 40
0.453625249
 40
0.5354519329
 40
0.6125554168
 40
0.6842559485
 40
0.7499212207
 40
0.808972689
 40
0.8608903728
 40
0.8840291009
 40
0.9052177572
 40
0.9244110532
 40
0.9415662246
 40
0.9566465401
 40
0.9696197108
 40
0.9804581081
 40
0.9850703887
 40
0.9891416202
 40
0.9926700473
 40
0.9956552528
 40
0.9980978099
 40
1.0
 40
1.0
 40
1.0
 40
1.0
 10
4.9927018634
 20
5.3369299893
 30
0.0
 10
4.9730992723
 20
5.3365885157
 30
0.0
 10
4.9439119792
 20
5.3360801893
 30
0.0
 10
4.9053975215
 20
5.3353912688
 30
0.0
 10
4.8774981635
 20
5.3348785629
 30
0.0
 10
4.8506151601
 20
5.3343660486
 30
0.0
 10
4.8249859917
 20
5.3338538032
 30
0.0
 10
4.8008367129
 20
5.3333419309
 30
0.0
 10
4.7783804644
 20
5.3328305647
 30
0.0
 10
4.7578153691
 20
5.3323199552
 30
0.0
 10
4.7393228734
 20
5.3318103076
 30
0.0
 10
4.7252841152
 20
5.3313718326
 30
0.0
 10
4.715210325
 20
5.3310160897
 30
0.0
 10
4.7085625232
 20
5.3307598311
 30
0.0
 10
4.7025418919
 20
5.3305039095
 30
0.0
 10
4.6971616289
 20
5.3302483695
 30
0.0
 10
4.6924335998
 20
5.3299934712
 30
0.0
 10
4.6883682102
 20
5.3297393599
 30
0.0
 10
4.6853993495
 20
5.3295186673
 30
0.0
 10
4.6833626983
 20
5.3293382616
 30
0.0
 10
4.6820900505
 20
5.3292105893
 30
0.0
 10
4.6809887553
 20
5.329083261
 30
0.0
 10
4.6800592263
 20
5.3289565249
 30
0.0
 10
4.6793018661
 20
5.3288305548
 30
0.0
 10
4.6788563307
 20
5.3287362272
 30
0.0
 10
4.6786634798
 20
5.328686246
 30
0.0
  0
SPLINE
  5
36E
100
AcDbEntity
  8
0
100
AcDbSpline
 62
7
  6
CONTINUOUS
 70
0
 71
3
 72
39
 73
35
 74
0
 42
0.0000001
 43
0.0000001
 44
0.0000000001
 40
0.0
 40
0.0
 40
0.0
 40
0.0
 40
0.0979444355
 40
0.1949497217
 40
0.2900745509
 40
0.3824083526
 40
0.4710599774
 40
0.5551769137
 40
0.6339492164
 40
0.7066190014
 40
0.7404443597
 40
0.7724869956
 40
0.8026694717
 40
0.8309198932
 40
0.8571694413
 40
0.8813562336
 40
0.9034211076
 40
0.9233124774
 40
0.9409819537
 40
0.9563885202
 40
0.9694957869
 40
0.9802741985
 40
0.9847831153
 40
0.9887018565
 40
0.9920292883
 40
0.9947656309
 40
0.9959126753
 40
0.9969128548
 40
0.9977670223
 40
0.9984766864
 40
0.9990447433
 40
0.9992774807
 40
0.999477557
 40
1.0
 40
1.0
 40
1.0
 40
1.0
 10
4.9927018634
 20
5.360705725
 30
0.0
 10
4.9824183841
 20
5.3605265886
 30
0.0
 10
4.9619500297
 20
5.3601700364
 30
0.0
 10
4.9314943241
 20
5.3596343968
 30
0.0
 10
4.9016278756
 20
5.3590988569
 30
0.0
 10
4.8726387771
 20
5.3585634894
 30
0.0
 10
4.8448058047
 20
5.3580283592
 30
0.0
 10
4.8183971781
 20
5.3574935824
 30
0.0
 10
4.7936671424
 20
5.3569592575
 30
0.0
 10
4.7742177104
 20
5.3565043805
 30
0.0
 10
4.7596746284
 20
5.3561376031
 30
0.0
 10
4.7495920399
 20
5.3558692155
 30
0.0
 10
4.7400950859
 20
5.355600921
 30
0.0
 10
4.7312067117
 20
5.3553327571
 30
0.0
 10
4.7229482397
 20
5.3550647273
 30
0.0
 10
4.7153396657
 20
5.3547969155
 30
0.0
 10
4.7083991974
 20
5.3545293394
 30
0.0
 10
4.7021436452
 20
5.3542621488
 30
0.0
 10
4.6965879635
 20
5.3539954195
 30
0.0
 10
4.691745541
 20
5.3537295105
 30
0.0
 10
4.687627961
 20
5.353464558
 30
0.0
 10
4.6846550341
 20
5.3532339036
 30
0.0
 10
4.6826470881
 20
5.3530445595
 30
0.0
 10
4.6814198307
 20
5.3529114997
 30
0.0
 10
4.6803799354
 20
5.3527789115
 30
0.0
 10
4.6796314122
 20
5.3526634543
 30
0.0
 10
4.6791273645
 20
5.3525687949
 30
0.0
 10
4.67881925
 20
5.352502158
 30
0.0
 10
4.678558273
 20
5.352435819
 30
0.0
 10
4.678344155
 20
5.3523695583
 30
0.0
 10
4.6781965279
 20
5.3523119144
 30
0.0
 10
4.6781022322
 20
5.3522636903
 30
0.0
 10
4.6780189137
 20
5.3522124822
 30
0.0
 10
4.6779519748
 20
5.3521480862
 30
0.0
 10
4.6779519748
 20
5.352093225
 30
0.0
  0
SPLINE
  5
36F
100
AcDbEntity
  8
0
100
AcDbSpline
 62
7
  6
CONTINUOUS
 70
0
 71
3
 72
30
 73
26
 74
0
 42
0.0000001
 43
0.0000001
 44
0.0000000001
 40
0.0
 40
0.0
 40
0.0
 40
0.0
 40
0.1871952894
 40
0.2787245434
 40
0.3677975185
 40
0.453625249
 40
0.5354519329
 40
0.6125554168
 40
0.6842559485
 40
0.7499212207
 40
0.808972689
 40
0.8608903728
 40
0.8840291009
 40
0.9052177572
 40
0.9244110532
 40
0.9415662246
 40
0.9566465401
 40
0.9696197108
 40
0.9804581081
 40
0.9850703887
 40
0.9891416202
 40
0.9926700473
 40
0.9956552528
 40
0.9980978099
 40
1.0
 40
1.0
 40
1.0
 40
1.0
 10
4.9927018634
 20
5.3713799893
 30
0.0
 10
4.9730992723
 20
5.3710385157
 30
0.0
 10
4.9439119792
 20
5.3705301893
 30
0.0
 10
4.9053975215
 20
5.3698412688
 30
0.0
 10
4.8774981635
 20
5.3693285629
 30
0.0
 10
4.8506151601
 20
5.3688160486
 30
0.0
 10
4.8249859917
 20
5.3683038032
 30
0.0
 10
4.8008367129
 20
5.3677919309
 30
0.0
 10
4.7783804644
 20
5.3672805647
 30
0.0
 10
4.7578153691
 20
5.3667699552
 30
0.0
 10
4.7393228734
 20
5.3662603076
 30
0.0
 10
4.7252841152
 20
5.3658218326
 30
0.0
 10
4.715210325
 20
5.3654660897
 30
0.0
 10
4.7085625232
 20
5.3652098311
 30
0.0
 10
4.7025418919
 20
5.3649539095
 30
0.0
 10
4.6971616289
 20
5.3646983695
 30
0.0
 10
4.6924335998
 20
5.3644434712
 30
0.0
 10
4.6883682102
 20
5.3641893599
 30
0.0
 10
4.6853993495
 20
5.3639686673
 30
0.0
 10
4.6833626983
 20
5.3637882616
 30
0.0
 10
4.6820900505
 20
5.3636605893
 30
0.0
 10
4.6809887553
 20
5.363533261
 30
0.0
 10
4.6800592263
 20
5.3634065249
 30
0.0
 10
4.6793018661
 20
5.3632805548
 30
0.0
 10
4.6788563307
 20
5.3631862272
 30
0.0
 10
4.6786634798
 20
5.363136246
 30
0.0
  0
SPLINE
  5
370
100
AcDbEntity
  8
0
100
AcDbSpline
 62
7
  6
CONTINUOUS
 70
0
 71
3
 72
30
 73
26
 74
0
 42
0.0000001
 43
0.0000001
 44
0.0000000001
 40
0.0
 40
0.0
 40
0.0
 40
0.0
 40
0.1871952894
 40
0.2787245434
 40
0.3677975185
 40
0.453625249
 40
0.5354519329
 40
0.6125554168
 40
0.6842559485
 40
0.7499212207
 40
0.808972689
 40
0.8608903728
 40
0.8840291009
 40
0.9052177572
 40
0.9244110532
 40
0.9415662246
 40
0.9566465401
 40
0.9696197108
 40
0.9804581081
 40
0.9850703887
 40
0.9891416202
 40
0.9926700473
 40
0.9956552528
 40
0.9980978099
 40
1.0
 40
1.0
 40
1.0
 40
1.0
 10
4.9927018634
 20
5.4058299893
 30
0.0
 10
4.9730992723
 20
5.4054885157
 30
0.0
 10
4.9439119792
 20
5.4049801893
 30
0.0
 10
4.9053975215
 20
5.4042912688
 30
0.0
 10
4.8774981635
 20
5.4037785629
 30
0.0
 10
4.8506151601
 20
5.4032660486
 30
0.0
 10
4.8249859917
 20
5.4027538032
 30
0.0
 10
4.8008367129
 20
5.4022419309
 30
0.0
 10
4.7783804644
 20
5.4017305647
 30
0.0
 10
4.7578153691
 20
5.4012199552
 30
0.0
 10
4.7393228734
 20
5.4007103076
 30
0.0
 10
4.7252841152
 20
5.4002718326
 30
0.0
 10
4.715210325
 20
5.3999160897
 30
0.0
 10
4.7085625232
 20
5.3996598311
 30
0.0
 10
4.7025418919
 20
5.3994039095
 30
0.0
 10
4.6971616289
 20
5.3991483695
 30
0.0
 10
4.6924335998
 20
5.3988934712
 30
0.0
 10
4.6883682102
 20
5.3986393599
 30
0.0
 10
4.6853993495
 20
5.3984186673
 30
0.0
 10
4.6833626983
 20
5.3982382616
 30
0.0
 10
4.6820900505
 20
5.3981105893
 30
0.0
 10
4.6809887553
 20
5.397983261
 30
0.0
 10
4.6800592263
 20
5.3978565249
 30
0.0
 10
4.6793018661
 20
5.3977305548
 30
0.0
 10
4.6788563307
 20
5.3976362272
 30
0.0
 10
4.6786634798
 20
5.397586246
 30
0.0
  0
SPLINE
  5
371
100
AcDbEntity
  8
0
100
AcDbSpline
 62
7
  6
CONTINUOUS
 70
0
 71
3
 72
39
 73
35
 74
0
 42
0.0000001
 43
0.0000001
 44
0.0000000001
 40
0.0
 40
0.0
 40
0.0
 40
0.0
 40
0.0979444361
 40
0.1949497217
 40
0.2900745568
 40
0.3824083636
 40
0.4710599932
 40
0.555176932
 40
0.633949234
 40
0.7066190177
 40
0.7404443729
 40
0.7724870063
 40
0.8026694812
 40
0.8309199019
 40
0.8571694484
 40
0.8813562385
 40
0.9034211108
 40
0.9233124793
 40
0.940981955
 40
0.9563885218
 40
0.9694957884
 40
0.9802741996
 40
0.9847831161
 40
0.9887018569
 40
0.9920292886
 40
0.9947656314
 40
0.9959126758
 40
0.9969128553
 40
0.9977670227
 40
0.9984766865
 40
0.9990447432
 40
0.9992774807
 40
0.999477557
 40
1.0
 40
1.0
 40
1.0
 40
1.0
 10
4.9927018634
 20
5.395155725
 30
0.0
 10
4.9824183841
 20
5.3949765886
 30
0.0
 10
4.9619500297
 20
5.3946200364
 30
0.0
 10
4.9314943234
 20
5.3940843968
 30
0.0
 10
4.9016278739
 20
5.3935488569
 30
0.0
 10
4.8726387737
 20
5.3930134893
 30
0.0
 10
4.8448058
 20
5.3924783591
 30
0.0
 10
4.8183971727
 20
5.3919435823
 30
0.0
 10
4.793667137
 20
5.3914092573
 30
0.0
 10
4.7742177055
 20
5.3909543804
 30
0.0
 10
4.7596746242
 20
5.390587603
 30
0.0
 10
4.7495920364
 20
5.3903192154
 30
0.0
 10
4.7400950829
 20
5.3900509209
 30
0.0
 10
4.7312067091
 20
5.389782757
 30
0.0
 10
4.7229482376
 20
5.3895147272
 30
0.0
 10
4.7153396642
 20
5.3892469154
 30
0.0
 10
4.7083991965
 20
5.3889793394
 30
0.0
 10
4.7021436446
 20
5.3887121488
 30
0.0
 10
4.6965879631
 20
5.3884454194
 30
0.0
 10
4.6917455406
 20
5.3881795105
 30
0.0
 10
4.6876279606
 20
5.387914558
 30
0.0
 10
4.6846550338
 20
5.3876839036
 30
0.0
 10
4.682647088
 20
5.3874945595
 30
0.0
 10
4.6814198307
 20
5.3873614997
 30
0.0
 10
4.6803799354
 20
5.3872289114
 30
0.0
 10
4.6796314122
 20
5.3871134543
 30
0.0
 10
4.6791273644
 20
5.3870187949
 30
0.0
 10
4.6788192499
 20
5.386952158
 30
0.0
 10
4.678558273
 20
5.386885819
 30
0.0
 10
4.678344155
 20
5.3868195583
 30
0.0
 10
4.678196528
 20
5.3867619144
 30
0.0
 10
4.6781022323
 20
5.3867136903
 30
0.0
 10
4.6780189138
 20
5.3866624821
 30
0.0
 10
4.6779519749
 20
5.3865980862
 30
0.0
 10
4.6779519749
 20
5.386543225
 30
0.0
  0
SPLINE
  5
372
100
AcDbEntity
  8
0
100
AcDbSpline
 62
7
  6
CONTINUOUS
 70
0
 71
3
 72
39
 73
35
 74
0
 42
0.0000001
 43
0.0000001
 44
0.0000000001
 40
0.0
 40
0.0
 40
0.0
 40
0.0
 40
0.0979444355
 40
0.1949497217
 40
0.2900745509
 40
0.3824083526
 40
0.4710599774
 40
0.5551769137
 40
0.6339492164
 40
0.7066190014
 40
0.7404443597
 40
0.7724869956
 40
0.8026694717
 40
0.8309198932
 40
0.8571694413
 40
0.8813562336
 40
0.9034211076
 40
0.9233124774
 40
0.9409819537
 40
0.9563885202
 40
0.9694957869
 40
0.9802741985
 40
0.9847831153
 40
0.9887018565
 40
0.9920292883
 40
0.9947656309
 40
0.9959126753
 40
0.9969128548
 40
0.9977670223
 40
0.9984766864
 40
0.9990447433
 40
0.9992774807
 40
0.999477557
 40
1.0
 40
1.0
 40
1.0
 40
1.0
 10
4.9927018634
 20
5.429605725
 30
0.0
 10
4.9824183841
 20
5.4294265886
 30
0.0
 10
4.9619500297
 20
5.4290700364
 30
0.0
 10
4.9314943241
 20
5.4285343968
 30
0.0
 10
4.9016278756
 20
5.4279988569
 30
0.0
 10
4.8726387771
 20
5.4274634894
 30
0.0
 10
4.8448058047
 20
5.4269283592
 30
0.0
 10
4.8183971781
 20
5.4263935824
 30
0.0
 10
4.7936671424
 20
5.4258592575
 30
0.0
 10
4.7742177104
 20
5.4254043805
 30
0.0
 10
4.7596746284
 20
5.4250376031
 30
0.0
 10
4.7495920399
 20
5.4247692155
 30
0.0
 10
4.7400950859
 20
5.424500921
 30
0.0
 10
4.7312067117
 20
5.4242327571
 30
0.0
 10
4.7229482397
 20
5.4239647273
 30
0.0
 10
4.7153396657
 20
5.4236969155
 30
0.0
 10
4.7083991974
 20
5.4234293394
 30
0.0
 10
4.7021436452
 20
5.4231621488
 30
0.0
 10
4.6965879635
 20
5.4228954195
 30
0.0
 10
4.691745541
 20
5.4226295105
 30
0.0
 10
4.687627961
 20
5.422364558
 30
0.0
 10
4.6846550341
 20
5.4221339036
 30
0.0
 10
4.6826470881
 20
5.4219445595
 30
0.0
 10
4.6814198307
 20
5.4218114997
 30
0.0
 10
4.6803799354
 20
5.4216789115
 30
0.0
 10
4.6796314122
 20
5.4215634543
 30
0.0
 10
4.6791273645
 20
5.4214687949
 30
0.0
 10
4.67881925
 20
5.421402158
 30
0.0
 10
4.678558273
 20
5.421335819
 30
0.0
 10
4.678344155
 20
5.4212695583
 30
0.0
 10
4.6781965279
 20
5.4212119144
 30
0.0
 10
4.6781022322
 20
5.4211636903
 30
0.0
 10
4.6780189137
 20
5.4211124822
 30
0.0
 10
4.6779519748
 20
5.4210480862
 30
0.0
 10
4.6779519748
 20
5.420993225
 30
0.0
  0
SPLINE
  5
373
100
AcDbEntity
  8
0
100
AcDbSpline
 62
7
  6
CONTINUOUS
 70
0
 71
3
 72
30
 73
26
 74
0
 42
0.0000001
 43
0.0000001
 44
0.0000000001
 40
0.0
 40
0.0
 40
0.0
 40
0.0
 40
0.1871952894
 40
0.2787245434
 40
0.3677975185
 40
0.453625249
 40
0.5354519329
 40
0.6125554168
 40
0.6842559485
 40
0.7499212207
 40
0.808972689
 40
0.8608903728
 40
0.8840291009
 40
0.9052177572
 40
0.9244110532
 40
0.9415662246
 40
0.9566465401
 40
0.9696197108
 40
0.9804581081
 40
0.9850703887
 40
0.9891416202
 40
0.9926700473
 40
0.9956552528
 40
0.9980978099
 40
1.0
 40
1.0
 40
1.0
 40
1.0
 10
4.9927018634
 20
5.4402799893
 30
0.0
 10
4.9730992723
 20
5.4399385157
 30
0.0
 10
4.9439119792
 20
5.4394301893
 30
0.0
 10
4.9053975215
 20
5.4387412688
 30
0.0
 10
4.8774981635
 20
5.4382285629
 30
0.0
 10
4.8506151601
 20
5.4377160486
 30
0.0
 10
4.8249859917
 20
5.4372038032
 30
0.0
 10
4.8008367129
 20
5.4366919309
 30
0.0
 10
4.7783804644
 20
5.4361805647
 30
0.0
 10
4.7578153691
 20
5.4356699552
 30
0.0
 10
4.7393228734
 20
5.4351603076
 30
0.0
 10
4.7252841152
 20
5.4347218326
 30
0.0
 10
4.715210325
 20
5.4343660897
 30
0.0
 10
4.7085625232
 20
5.4341098311
 30
0.0
 10
4.7025418919
 20
5.4338539095
 30
0.0
 10
4.6971616289
 20
5.4335983695
 30
0.0
 10
4.6924335998
 20
5.4333434712
 30
0.0
 10
4.6883682102
 20
5.4330893599
 30
0.0
 10
4.6853993495
 20
5.4328686673
 30
0.0
 10
4.6833626983
 20
5.4326882616
 30
0.0
 10
4.6820900505
 20
5.4325605893
 30
0.0
 10
4.6809887553
 20
5.432433261
 30
0.0
 10
4.6800592263
 20
5.4323065249
 30
0.0
 10
4.6793018661
 20
5.4321805548
 30
0.0
 10
4.6788563307
 20
5.4320862272
 30
0.0
 10
4.6786634798
 20
5.432036246
 30
0.0
  0
SPLINE
  5
374
100
AcDbEntity
  8
0
100
AcDbSpline
 62
7
  6
CONTINUOUS
 70
0
 71
3
 72
39
 73
35
 74
0
 42
0.0000001
 43
0.0000001
 44
0.0000000001
 40
0.0
 40
0.0
 40
0.0
 40
0.0
 40
0.0979444355
 40
0.1949497217
 40
0.2900745509
 40
0.3824083526
 40
0.4710599774
 40
0.5551769137
 40
0.6339492164
 40
0.7066190014
 40
0.7404443597
 40
0.7724869956
 40
0.8026694717
 40
0.8309198932
 40
0.8571694413
 40
0.8813562336
 40
0.9034211076
 40
0.9233124774
 40
0.9409819537
 40
0.9563885202
 40
0.9694957869
 40
0.9802741985
 40
0.9847831153
 40
0.9887018565
 40
0.9920292883
 40
0.9947656309
 40
0.9959126753
 40
0.9969128548
 40
0.9977670223
 40
0.9984766864
 40
0.9990447433
 40
0.9992774807
 40
0.999477557
 40
1.0
 40
1.0
 40
1.0
 40
1.0
 10
4.9927018634
 20
5.464055725
 30
0.0
 10
4.9824183841
 20
5.4638765886
 30
0.0
 10
4.9619500297
 20
5.4635200364
 30
0.0
 10
4.9314943241
 20
5.4629843968
 30
0.0
 10
4.9016278756
 20
5.4624488569
 30
0.0
 10
4.8726387771
 20
5.4619134894
 30
0.0
 10
4.8448058047
 20
5.4613783592
 30
0.0
 10
4.8183971781
 20
5.4608435824
 30
0.0
 10
4.7936671424
 20
5.4603092575
 30
0.0
 10
4.7742177104
 20
5.4598543805
 30
0.0
 10
4.7596746284
 20
5.4594876031
 30
0.0
 10
4.7495920399
 20
5.4592192155
 30
0.0
 10
4.7400950859
 20
5.458950921
 30
0.0
 10
4.7312067117
 20
5.4586827571
 30
0.0
 10
4.7229482397
 20
5.4584147273
 30
0.0
 10
4.7153396657
 20
5.4581469155
 30
0.0
 10
4.7083991974
 20
5.4578793394
 30
0.0
 10
4.7021436452
 20
5.4576121488
 30
0.0
 10
4.6965879635
 20
5.4573454195
 30
0.0
 10
4.691745541
 20
5.4570795105
 30
0.0
 10
4.687627961
 20
5.456814558
 30
0.0
 10
4.6846550341
 20
5.4565839036
 30
0.0
 10
4.6826470881
 20
5.4563945595
 30
0.0
 10
4.6814198307
 20
5.4562614997
 30
0.0
 10
4.6803799354
 20
5.4561289115
 30
0.0
 10
4.6796314122
 20
5.4560134543
 30
0.0
 10
4.6791273645
 20
5.4559187949
 30
0.0
 10
4.67881925
 20
5.455852158
 30
0.0
 10
4.678558273
 20
5.455785819
 30
0.0
 10
4.678344155
 20
5.4557195583
 30
0.0
 10
4.6781965279
 20
5.4556619144
 30
0.0
 10
4.6781022322
 20
5.4556136903
 30
0.0
 10
4.6780189137
 20
5.4555624822
 30
0.0
 10
4.6779519748
 20
5.4554980862
 30
0.0
 10
4.6779519748
 20
5.455443225
 30
0.0
  0
SPLINE
  5
375
100
AcDbEntity
  8
0
100
AcDbSpline
 62
7
  6
CONTINUOUS
 70
0
 71
3
 72
30
 73
26
 74
0
 42
0.0000001
 43
0.0000001
 44
0.0000000001
 40
0.0
 40
0.0
 40
0.0
 40
0.0
 40
0.1871952894
 40
0.2787245434
 40
0.3677975185
 40
0.453625249
 40
0.5354519329
 40
0.6125554168
 40
0.6842559485
 40
0.7499212207
 40
0.808972689
 40
0.8608903728
 40
0.8840291009
 40
0.9052177572
 40
0.9244110532
 40
0.9415662246
 40
0.9566465401
 40
0.9696197108
 40
0.9804581081
 40
0.9850703887
 40
0.9891416202
 40
0.9926700473
 40
0.9956552528
 40
0.9980978099
 40
1.0
 40
1.0
 40
1.0
 40
1.0
 10
4.9927018634
 20
5.4747299893
 30
0.0
 10
4.9730992723
 20
5.4743885157
 30
0.0
 10
4.9439119792
 20
5.4738801893
 30
0.0
 10
4.9053975215
 20
5.4731912688
 30
0.0
 10
4.8774981635
 20
5.4726785629
 30
0.0
 10
4.8506151601
 20
5.4721660486
 30
0.0
 10
4.8249859917
 20
5.4716538032
 30
0.0
 10
4.8008367129
 20
5.4711419309
 30
0.0
 10
4.7783804644
 20
5.4706305647
 30
0.0
 10
4.7578153691
 20
5.4701199552
 30
0.0
 10
4.7393228734
 20
5.4696103076
 30
0.0
 10
4.7252841152
 20
5.4691718326
 30
0.0
 10
4.715210325
 20
5.4688160897
 30
0.0
 10
4.7085625232
 20
5.4685598311
 30
0.0
 10
4.7025418919
 20
5.4683039095
 30
0.0
 10
4.6971616289
 20
5.4680483695
 30
0.0
 10
4.6924335998
 20
5.4677934712
 30
0.0
 10
4.6883682102
 20
5.4675393599
 30
0.0
 10
4.6853993495
 20
5.4673186673
 30
0.0
 10
4.6833626983
 20
5.4671382616
 30
0.0
 10
4.6820900505
 20
5.4670105893
 30
0.0
 10
4.6809887553
 20
5.466883261
 30
0.0
 10
4.6800592263
 20
5.4667565249
 30
0.0
 10
4.6793018661
 20
5.4666305548
 30
0.0
 10
4.6788563307
 20
5.4665362272
 30
0.0
 10
4.6786634798
 20
5.466486246
 30
0.0
  0
SPLINE
  5
376
100
AcDbEntity
  8
0
100
AcDbSpline
 62
7
  6
CONTINUOUS
 70
0
 71
3
 72
39
 73
35
 74
0
 42
0.0000001
 43
0.0000001
 44
0.0000000001
 40
0.0
 40
0.0
 40
0.0
 40
0.0
 40
0.0979444355
 40
0.1949497217
 40
0.2900745509
 40
0.3824083526
 40
0.4710599774
 40
0.5551769137
 40
0.6339492164
 40
0.7066190014
 40
0.7404443597
 40
0.7724869956
 40
0.8026694717
 40
0.8309198932
 40
0.8571694413
 40
0.8813562336
 40
0.9034211076
 40
0.9233124774
 40
0.9409819537
 40
0.9563885202
 40
0.9694957869
 40
0.9802741985
 40
0.9847831153
 40
0.9887018565
 40
0.9920292883
 40
0.9947656309
 40
0.9959126753
 40
0.9969128548
 40
0.9977670223
 40
0.9984766864
 40
0.9990447433
 40
0.9992774807
 40
0.999477557
 40
1.0
 40
1.0
 40
1.0
 40
1.0
 10
4.9927018634
 20
5.498505725
 30
0.0
 10
4.9824183841
 20
5.4983265886
 30
0.0
 10
4.9619500297
 20
5.4979700364
 30
0.0
 10
4.9314943241
 20
5.4974343968
 30
0.0
 10
4.9016278756
 20
5.4968988569
 30
0.0
 10
4.8726387771
 20
5.4963634894
 30
0.0
 10
4.8448058047
 20
5.4958283592
 30
0.0
 10
4.8183971781
 20
5.4952935824
 30
0.0
 10
4.7936671424
 20
5.4947592575
 30
0.0
 10
4.7742177104
 20
5.4943043805
 30
0.0
 10
4.7596746284
 20
5.4939376031
 30
0.0
 10
4.7495920399
 20
5.4936692155
 30
0.0
 10
4.7400950859
 20
5.493400921
 30
0.0
 10
4.7312067117
 20
5.4931327571
 30
0.0
 10
4.7229482397
 20
5.4928647273
 30
0.0
 10
4.7153396657
 20
5.4925969155
 30
0.0
 10
4.7083991974
 20
5.4923293394
 30
0.0
 10
4.7021436452
 20
5.4920621488
 30
0.0
 10
4.6965879635
 20
5.4917954195
 30
0.0
 10
4.691745541
 20
5.4915295105
 30
0.0
 10
4.687627961
 20
5.491264558
 30
0.0
 10
4.6846550341
 20
5.4910339036
 30
0.0
 10
4.6826470881
 20
5.4908445595
 30
0.0
 10
4.6814198307
 20
5.4907114997
 30
0.0
 10
4.6803799354
 20
5.4905789115
 30
0.0
 10
4.6796314122
 20
5.4904634543
 30
0.0
 10
4.6791273645
 20
5.4903687949
 30
0.0
 10
4.67881925
 20
5.490302158
 30
0.0
 10
4.678558273
 20
5.490235819
 30
0.0
 10
4.678344155
 20
5.4901695583
 30
0.0
 10
4.6781965279
 20
5.4901119144
 30
0.0
 10
4.6781022322
 20
5.4900636903
 30
0.0
 10
4.6780189137
 20
5.4900124822
 30
0.0
 10
4.6779519748
 20
5.4899480862
 30
0.0
 10
4.6779519748
 20
5.489893225
 30
0.0
  0
SPLINE
  5
377
100
AcDbEntity
  8
0
100
AcDbSpline
 62
7
  6
CONTINUOUS
 70
0
 71
3
 72
27
 73
23
 74
0
 42
0.0000001
 43
0.0000001
 44
0.0000000001
 40
0.0
 40
0.0
 40
0.0
 40
0.0
 40
0.183408033
 40
0.360655796
 40
0.4450972747
 40
0.5257951246
 40
0.6020702557
 40
0.6732813888
 40
0.7388297154
 40
0.7981643436
 40
0.8507870156
 40
0.8962562021
 40
0.916187155
 40
0.9341915414
 40
0.9502327911
 40
0.9642771059
 40
0.9762964324
 40
0.9862678688
 40
0.990479464
 40
0.9941727309
 40
0.9973464656
 40
1.0
 40
1.0
 40
1.0
 40
1.0
 10
4.9927018634
 20
5.5091799893
 30
0.0
 10
4.9735547393
 20
5.5088464499
 30
0.0
 10
4.9359036009
 20
5.5081905942
 30
0.0
 10
4.889437552
 20
5.507354179
 30
0.0
 10
4.8536946113
 20
5.5066757198
 30
0.0
 10
4.8284929691
 20
5.5061753312
 30
0.0
 10
4.8046730146
 20
5.5056752769
 30
0.0
 10
4.7824352138
 20
5.5051756677
 30
0.0
 10
4.761966673
 20
5.504676664
 30
0.0
 10
4.7434395931
 20
5.5041785926
 30
0.0
 10
4.7270098323
 20
5.5036816946
 30
0.0
 10
4.7146942065
 20
5.5032527236
 30
0.0
 10
4.7059927391
 20
5.5029036411
 30
0.0
 10
4.7003624476
 20
5.5026537559
 30
0.0
 10
4.6953474431
 20
5.5024043257
 30
0.0
 10
4.6909581717
 20
5.5021555703
 30
0.0
 10
4.687203795
 20
5.5019076223
 30
0.0
 10
4.6844763057
 20
5.5016920602
 30
0.0
 10
4.682618135
 20
5.5015154895
 30
0.0
 10
4.6814680738
 20
5.5013909167
 30
0.0
 10
4.6804817471
 20
5.5012667666
 30
0.0
 10
4.6798799372
 20
5.5011764488
 30
0.0
 10
4.6796067991
 20
5.5011299893
 30
0.0
  0
SPLINE
  5
378
100
AcDbEntity
  8
0
100
AcDbSpline
 62
7
  6
CONTINUOUS
 70
0
 71
3
 72
45
 73
41
 74
0
 42
0.0000001
 43
0.0000001
 44
0.0000000001
 40
0.0
 40
0.0
 40
0.0
 40
0.0
 40
0.0015497755
 40
0.0033563248
 40
0.0077366522
 40
0.0131336534
 40
0.0195368122
 40
0.0269336973
 40
0.0353099339
 40
0.0549287518
 40
0.078231884
 40
0.105027012
 40
0.1350924472
 40
0.1681791235
 40
0.204012765
 40
0.2422962827
 40
0.2827122522
 40
0.3249255422
 40
0.4133317449
 40
0.504587873
 40
0.5956725641
 40
0.6835701315
 40
0.7254074995
 40
0.7653704209
 40
0.8031275297
 40
0.8383657775
 40
0.870793027
 40
0.9001404919
 40
0.9261650944
 40
0.9486515981
 40
0.9585090719
 40
0.9674145961
 40
0.9753504741
 40
0.9823000014
 40
0.9882497973
 40
0.993188497
 40
0.9952756907
 40
0.9971070257
 40
0.9986819064
 40
1.0
 40
1.0
 40
1.0
 40
1.0
 10
5.3050670818
 20
5.5408928571
 30
0.0
 10
5.3047470332
 20
5.540847481
 30
0.0
 10
5.3040525824
 20
5.5407585498
 30
0.0
 10
5.3024485049
 20
5.5405821478
 30
0.0
 10
5.30004165
 20
5.5403679761
 30
0.0
 10
5.2966756349
 20
5.5401224171
 30
0.0
 10
5.2926790779
 20
5.5398758854
 30
0.0
 10
5.2880601792
 20
5.5396284608
 30
0.0
 10
5.2806864214
 20
5.5392792627
 30
0.0
 10
5.2699951293
 20
5.5388524997
 30
0.0
 10
5.2554619507
 20
5.5383604679
 30
0.0
 10
5.238748803
 20
5.5378668536
 30
0.0
 10
5.2199942826
 20
5.5373719716
 30
0.0
 10
5.1993539545
 20
5.5368763073
 30
0.0
 10
5.1769990765
 20
5.5363800652
 30
0.0
 10
5.1531151272
 20
5.5358834187
 30
0.0
 10
5.1279002587
 20
5.5353864604
 30
0.0
 10
5.0922323515
 20
5.5347131974
 30
0.0
 10
5.0459613894
 20
5.5338829342
 30
0.0
 10
4.9894980323
 20
5.5329002162
 30
0.0
 10
4.9331407803
 20
5.5319175525
 30
0.0
 10
4.8870901217
 20
5.5310866358
 30
0.0
 10
4.8517012723
 20
5.5304126995
 30
0.0
 10
4.8267691601
 20
5.5299158002
 30
0.0
 10
4.80321376
 20
5.529419234
 30
0.0
 10
4.7812304965
 20
5.5289231092
 30
0.0
 10
4.7610017668
 20
5.5284275861
 30
0.0
 10
4.7426954017
 20
5.5279329862
 30
0.0
 10
4.7264632708
 20
5.527439548
 30
0.0
 10
4.7142962386
 20
5.5270135634
 30
0.0
 10
4.70569946
 20
5.5266669305
 30
0.0
 10
4.700136168
 20
5.5264187859
 30
0.0
 10
4.6951800576
 20
5.5261711027
 30
0.0
 10
4.6908412652
 20
5.5259240716
 30
0.0
 10
4.6871287451
 20
5.525677847
 30
0.0
 10
4.6844306299
 20
5.5254637904
 30
0.0
 10
4.6825915044
 20
5.5252884835
 30
0.0
 10
4.6814523495
 20
5.5251647737
 30
0.0
 10
4.6804746562
 20
5.5250414799
 30
0.0
 10
4.6798778317
 20
5.5249518264
 30
0.0
 10
4.6796067991
 20
5.524905725
 30
0.0
  0
SPLINE
  5
379
100
AcDbEntity
  8
0
100
AcDbSpline
 62
7
  6
CONTINUOUS
 70
0
 71
3
 72
15
 73
11
 74
0
 42
0.0000001
 43
0.0000001
 44
0.0000000001
 40
0.0
 40
0.0
 40
0.0
 40
0.0
 40
0.2200229032
 40
0.4118002867
 40
0.5754925315
 40
0.7113757823
 40
0.8199589793
 40
0.8643296214
 40
0.9023585972
 40
1.0
 40
1.0
 40
1.0
 40
1.0
 10
4.6796067991
 20
5.524905725
 30
0.0
 10
4.6794774006
 20
5.5248837149
 30
0.0
 10
4.6792355968
 20
5.524840225
 30
0.0
 10
4.6788993413
 20
5.5247706159
 30
0.0
 10
4.6786145092
 20
5.5247013085
 30
0.0
 10
4.6783807496
 20
5.5246320789
 30
0.0
 10
4.6782195237
 20
5.5245718744
 30
0.0
 10
4.6781163149
 20
5.5245214269
 30
0.0
 10
4.678026277
 20
5.5244684636
 30
0.0
 10
4.6779519215
 20
5.524401474
 30
0.0
 10
4.6779518721
 20
5.524343225
 30
0.0
  0
SPLINE
  5
37A
100
AcDbEntity
  8
0
100
AcDbSpline
 62
7
  6
CONTINUOUS
 70
0
 71
3
 72
25
 73
21
 74
0
 42
0.0000001
 43
0.0000001
 44
0.0000000001
 40
0.0
 40
0.0
 40
0.0
 40
0.0
 40
0.2044268069
 40
0.391127415
 40
0.4769066574
 40
0.5571779507
 40
0.6316273532
 40
0.6999619003
 40
0.7619133637
 40
0.8172393388
 40
0.8657219619
 40
0.9071745293
 40
0.9414357059
 40
0.9558290523
 40
0.9683784973
 40
0.9790749419
 40
0.9879114282
 40
0.9948840317
 40
0.9976730662
 40
1.0
 40
1.0
 40
1.0
 40
1.0
 10
4.8420199401
 20
5.5408928571
 30
0.0
 10
4.8308813655
 20
5.5406718538
 30
0.0
 10
4.8095703289
 20
5.5402353095
 30
0.0
 10
4.7835865459
 20
5.5396539107
 30
0.0
 10
4.7643682123
 20
5.5391834199
 30
0.0
 10
4.7512660195
 20
5.5388407626
 30
0.0
 10
4.7391148606
 20
5.5384983732
 30
0.0
 10
4.7279625064
 20
5.5381562997
 30
0.0
 10
4.717852851
 20
5.537814675
 30
0.0
 10
4.7088257388
 20
5.5374736653
 30
0.0
 10
4.7009166085
 20
5.5371336351
 30
0.0
 10
4.6941566331
 20
5.5367948393
 30
0.0
 10
4.6892547066
 20
5.5365001087
 30
0.0
 10
4.6859279626
 20
5.536258344
 30
0.0
 10
4.6838837516
 20
5.5360880942
 30
0.0
 10
4.6821434705
 20
5.5359186375
 30
0.0
 10
4.680708785
 20
5.5357500276
 30
0.0
 10
4.6797056751
 20
5.5356024933
 30
0.0
 10
4.6790582936
 20
5.5354799507
 30
0.0
 10
4.6787863172
 20
5.5354180646
 30
0.0
 10
4.6786635616
 20
5.535386246
 30
0.0
  0
SPLINE
  5
37B
100
AcDbEntity
  8
0
100
AcDbSpline
 62
7
  6
CONTINUOUS
 70
0
 71
3
 72
15
 73
11
 74
0
 42
0.0000001
 43
0.0000001
 44
0.0000000001
 40
0.0
 40
0.0
 40
0.0
 40
0.0
 40
0.296838458
 40
0.4391305135
 40
0.5741813565
 40
0.6997651204
 40
0.8138123003
 40
0.9144415841
 40
0.9592029295
 40
1.0
 40
1.0
 40
1.0
 40
1.0
 10
4.9927018634
 20
4.7512799893
 30
0.0
 10
4.9660307451
 20
4.7508153833
 30
0.0
 10
4.9265745848
 20
4.7501285897
 30
0.0
 10
4.8749848453
 20
4.7491843005
 30
0.0
 10
4.8387828566
 20
4.7484867314
 30
0.0
 10
4.805119545
 20
4.7477903107
 30
0.0
 10
4.7745501901
 20
4.7470953874
 30
0.0
 10
4.7512436075
 20
4.746497676
 30
0.0
 10
4.7345190439
 20
4.7460113701
 30
0.0
 10
4.7268342873
 20
4.7457664547
 30
0.0
 10
4.7231701732
 20
4.7456428571
 30
0.0
  0
SPLINE
  5
37C
100
AcDbEntity
  8
0
100
AcDbSpline
 62
7
  6
CONTINUOUS
 70
0
 71
3
 72
39
 73
35
 74
0
 42
0.0000001
 43
0.0000001
 44
0.0000000001
 40
0.0
 40
0.0
 40
0.0
 40
0.0
 40
0.000522443
 40
0.0007225193
 40
0.0009552567
 40
0.0015233136
 40
0.0022329777
 40
0.0030871452
 40
0.0040873247
 40
0.0052343691
 40
0.0079707117
 40
0.0112981435
 40
0.0152168847
 40
0.0197258015
 40
0.0305042131
 40
0.0436114798
 40
0.0590180463
 40
0.0766875226
 40
0.0965788924
 40
0.1186437664
 40
0.1428305587
 40
0.1690801068
 40
0.1973305283
 40
0.2275130044
 40
0.2595556403
 40
0.2933809986
 40
0.3660507836
 40
0.4448230863
 40
0.5289400226
 40
0.6175916474
 40
0.7099254491
 40
0.8050502783
 40
0.9020555645
 40
1.0
 40
1.0
 40
1.0
 40
1.0
 10
5.3074517519
 20
5.1732924893
 30
0.0
 10
5.3074517519
 20
5.1732376281
 30
0.0
 10
5.307384813
 20
5.1731732321
 30
0.0
 10
5.3073014946
 20
5.1731220239
 30
0.0
 10
5.3072071988
 20
5.1730737999
 30
0.0
 10
5.3070595717
 20
5.173016156
 30
0.0
 10
5.3068454537
 20
5.1729498953
 30
0.0
 10
5.3065844767
 20
5.1728835563
 30
0.0
 10
5.3062763622
 20
5.1728169194
 30
0.0
 10
5.3057723145
 20
5.17272226
 30
0.0
 10
5.3050237913
 20
5.1726068028
 30
0.0
 10
5.303983896
 20
5.1724742145
 30
0.0
 10
5.3027566386
 20
5.1723411548
 30
0.0
 10
5.3007486926
 20
5.1721518107
 30
0.0
 10
5.2977757657
 20
5.1719211563
 30
0.0
 10
5.2936581857
 20
5.1716562037
 30
0.0
 10
5.2888157632
 20
5.1713902948
 30
0.0
 10
5.2832600815
 20
5.1711235655
 30
0.0
 10
5.2770045293
 20
5.1708563749
 30
0.0
 10
5.270064061
 20
5.1705887988
 30
0.0
 10
5.262455487
 20
5.170320987
 30
0.0
 10
5.254197015
 20
5.1700529572
 30
0.0
 10
5.2453086408
 20
5.1697847933
 30
0.0
 10
5.2358116868
 20
5.1695164988
 30
0.0
 10
5.2257290983
 20
5.1692481112
 30
0.0
 10
5.2111860163
 20
5.1688813338
 30
0.0
 10
5.1917365843
 20
5.1684264568
 30
0.0
 10
5.1670065486
 20
5.1678921319
 30
0.0
 10
5.140597922
 20
5.1673573551
 30
0.0
 10
5.1127649496
 20
5.1668222249
 30
0.0
 10
5.0837758511
 20
5.1662868574
 30
0.0
 10
5.0539094026
 20
5.1657513175
 30
0.0
 10
5.023453697
 20
5.1652156779
 30
0.0
 10
5.0029853426
 20
5.1648591256
 30
0.0
 10
4.9927018634
 20
5.1646799893
 30
0.0
  0
SPLINE
  5
37D
100
AcDbEntity
  8
0
100
AcDbSpline
 62
7
  6
CONTINUOUS
 70
0
 71
3
 72
22
 73
18
 74
0
 42
0.0000001
 43
0.0000001
 44
0.0000000001
 40
0.0
 40
0.0
 40
0.0
 40
0.0
 40
0.0472858147
 40
0.0950767068
 40
0.1438576938
 40
0.1940763084
 40
0.2461291001
 40
0.3003586206
 40
0.3570456236
 40
0.4164170796
 40
0.4786463753
 40
0.5438576819
 40
0.6121363927
 40
0.6835254342
 40
0.7580384996
 40
0.8356589918
 40
1.0
 40
1.0
 40
1.0
 40
1.0
 10
4.7792018634
 20
2.7189912342
 30
0.0
 10
4.7792018634
 20
2.717532513
 30
0.0
 10
4.7793711757
 20
2.7145967749
 30
0.0
 10
4.7801297563
 20
2.7102152242
 30
0.0
 10
4.7813911644
 20
2.7058568567
 30
0.0
 10
4.7831509483
 20
2.7015335128
 30
0.0
 10
4.785403124
 20
2.6972550018
 30
0.0
 10
4.7881419583
 20
2.6930315485
 30
0.0
 10
4.7913594363
 20
2.6888719745
 30
0.0
 10
4.7950479552
 20
2.6847856907
 30
0.0
 10
4.7991985019
 20
2.6807816079
 30
0.0
 10
4.8038010639
 20
2.6768682373
 30
0.0
 10
4.8088452993
 20
2.6730548383
 30
0.0
 10
4.8143190557
 20
2.6693494464
 30
0.0
 10
4.820210025
 20
2.6657607451
 30
0.0
 10
4.8287655057
 20
2.6610529349
 30
0.0
 10
4.8355241696
 20
2.657862392
 30
0.0
 10
4.8401791326
 20
2.6558539648
 30
0.0
  0
SPLINE
  5
37E
100
AcDbEntity
  8
0
100
AcDbSpline
 62
7
  6
CONTINUOUS
 70
0
 71
3
 72
39
 73
35
 74
0
 42
0.0000001
 43
0.0000001
 44
0.0000000001
 40
0.0
 40
0.0
 40
0.0
 40
0.0
 40
0.000522443
 40
0.0007225193
 40
0.0009552567
 40
0.0015233136
 40
0.0022329777
 40
0.0030871452
 40
0.0040873247
 40
0.0052343691
 40
0.0079707117
 40
0.0112981435
 40
0.0152168847
 40
0.0197258015
 40
0.0305042131
 40
0.0436114798
 40
0.0590180463
 40
0.0766875226
 40
0.0965788924
 40
0.1186437664
 40
0.1428305587
 40
0.1690801068
 40
0.1973305283
 40
0.2275130044
 40
0.2595556403
 40
0.2933809986
 40
0.3660507836
 40
0.4448230863
 40
0.5289400226
 40
0.6175916474
 40
0.7099254491
 40
0.8050502783
 40
0.9020555645
 40
1.0
 40
1.0
 40
1.0
 40
1.0
 10
5.3074517519
 20
5.1388424893
 30
0.0
 10
5.3074517519
 20
5.1387876281
 30
0.0
 10
5.307384813
 20
5.1387232321
 30
0.0
 10
5.3073014946
 20
5.1386720239
 30
0.0
 10
5.3072071988
 20
5.1386237999
 30
0.0
 10
5.3070595717
 20
5.138566156
 30
0.0
 10
5.3068454537
 20
5.1384998953
 30
0.0
 10
5.3065844767
 20
5.1384335563
 30
0.0
 10
5.3062763622
 20
5.1383669194
 30
0.0
 10
5.3057723145
 20
5.13827226
 30
0.0
 10
5.3050237913
 20
5.1381568028
 30
0.0
 10
5.303983896
 20
5.1380242145
 30
0.0
 10
5.3027566386
 20
5.1378911548
 30
0.0
 10
5.3007486926
 20
5.1377018107
 30
0.0
 10
5.2977757657
 20
5.1374711563
 30
0.0
 10
5.2936581857
 20
5.1372062037
 30
0.0
 10
5.2888157632
 20
5.1369402948
 30
0.0
 10
5.2832600815
 20
5.1366735655
 30
0.0
 10
5.2770045293
 20
5.1364063749
 30
0.0
 10
5.270064061
 20
5.1361387988
 30
0.0
 10
5.262455487
 20
5.135870987
 30
0.0
 10
5.254197015
 20
5.1356029572
 30
0.0
 10
5.2453086408
 20
5.1353347933
 30
0.0
 10
5.2358116868
 20
5.1350664988
 30
0.0
 10
5.2257290983
 20
5.1347981112
 30
0.0
 10
5.2111860163
 20
5.1344313338
 30
0.0
 10
5.1917365843
 20
5.1339764568
 30
0.0
 10
5.1670065486
 20
5.1334421319
 30
0.0
 10
5.140597922
 20
5.1329073551
 30
0.0
 10
5.1127649496
 20
5.1323722249
 30
0.0
 10
5.0837758511
 20
5.1318368574
 30
0.0
 10
5.0539094026
 20
5.1313013175
 30
0.0
 10
5.023453697
 20
5.1307656779
 30
0.0
 10
5.0029853426
 20
5.1304091256
 30
0.0
 10
4.9927018634
 20
5.1302299893
 30
0.0
  0
SPLINE
  5
37F
100
AcDbEntity
  8
0
100
AcDbSpline
 62
7
  6
CONTINUOUS
 70
0
 71
3
 72
22
 73
18
 74
0
 42
0.0000001
 43
0.0000001
 44
0.0000000001
 40
0.0
 40
0.0
 40
0.0
 40
0.0
 40
0.1643395276
 40
0.2419594504
 40
0.3164721801
 40
0.3878605033
 40
0.4561387264
 40
0.5213498853
 40
0.5835790958
 40
0.6429507638
 40
0.6996377835
 40
0.753867553
 40
0.8059208406
 40
0.8561400493
 40
0.904921807
 40
0.9527134167
 40
1.0
 40
1.0
 40
1.0
 40
1.0
 10
5.1452300178
 20
3.2789429064
 30
0.0
 10
5.1498845846
 20
3.2809513202
 30
0.0
 10
5.1566426887
 20
3.284141786
 30
0.0
 10
5.1651974116
 20
3.2888495278
 30
0.0
 10
5.1710878881
 20
3.2924380957
 30
0.0
 10
5.176561143
 20
3.296143393
 30
0.0
 10
5.1816049178
 20
3.2999566612
 30
0.0
 10
5.1862070772
 20
3.3038698777
 30
0.0
 10
5.1903572262
 20
3.3078738406
 30
0.0
 10
5.1940454442
 20
3.3119599287
 30
0.0
 10
5.1972626025
 20
3.3161193459
 30
0.0
 10
5.2000011782
 20
3.3203426097
 30
0.0
 10
5.2022531618
 20
3.3246209215
 30
0.0
 10
5.2040127453
 20
3.3289440857
 30
0.0
 10
5.2052740816
 20
3.3333022385
 30
0.0
 10
5.2060325624
 20
3.3376835912
 30
0.0
 10
5.2062018503
 20
3.340619186
 30
0.0
 10
5.2062018622
 20
3.3420778378
 30
0.0
  0
SPLINE
  5
380
100
AcDbEntity
  8
0
100
AcDbSpline
 62
7
  6
CONTINUOUS
 70
0
 71
3
 72
63
 73
59
 74
0
 42
0.0000001
 43
0.0000001
 44
0.0000000001
 40
0.0
 40
0.0
 40
0.0
 40
0.0
 40
0.0001173584
 40
0.0001890694
 40
0.0002732359
 40
0.0004849649
 40
0.0007603708
 40
0.0011026622
 40
0.0015134543
 40
0.0019936474
 40
0.0025437792
 40
0.0038550305
 40
0.0054486626
 40
0.0073246413
 40
0.0094823952
 40
0.0146398621
 40
0.0209118997
 40
0.0282845069
 40
0.0367420955
 40
0.0462650879
 40
0.0568322007
 40
0.0684193215
 40
0.080999747
 40
0.0945451393
 40
0.1090238519
 40
0.1406475396
 40
0.1755806038
 40
0.2135021172
 40
0.254063745
 40
0.2968927946
 40
0.3415956345
 40
0.3877615185
 40
0.4349659928
 40
0.482775223
 40
0.5307496988
 40
0.5784484594
 40
0.6254331104
 40
0.6712717569
 40
0.7155430697
 40
0.7578401433
 40
0.7977742321
 40
0.8349784889
 40
0.8691111443
 40
0.8998587846
 40
0.9269392969
 40
0.9390252641
 40
0.950104461
 40
0.9601509906
 40
0.9691426747
 40
0.9770586044
 40
0.9838815004
 40
0.9895964322
 40
0.9920345078
 40
0.9941916133
 40
0.9960669339
 40
0.9976598773
 40
0.9989704449
 40
1.0
 40
1.0
 40
1.0
 40
1.0
 10
5.2871018547
 20
5.1096553572
 30
0.0
 10
5.287101863
 20
5.1096323351
 30
0.0
 10
5.2870878728
 20
5.1095952111
 30
0.0
 10
5.2870534061
 20
5.1095541772
 30
0.0
 10
5.2869987176
 20
5.1095066741
 30
0.0
 10
5.2869014074
 20
5.1094497499
 30
0.0
 10
5.2867518194
 20
5.1093853685
 30
0.0
 10
5.2865605035
 20
5.1093207386
 30
0.0
 10
5.2863273767
 20
5.1092558183
 30
0.0
 10
5.2860522144
 20
5.1091907076
 30
0.0
 10
5.2856022294
 20
5.1090982171
 30
0.0
 10
5.2849337333
 20
5.1089853923
 30
0.0
 10
5.2840048022
 20
5.1088558374
 30
0.0
 10
5.2829085084
 20
5.1087258149
 30
0.0
 10
5.281114952
 20
5.1085407883
 30
0.0
 10
5.2784589139
 20
5.1083153971
 30
0.0
 10
5.2747795583
 20
5.1080565123
 30
0.0
 10
5.2704515203
 20
5.1077966531
 30
0.0
 10
5.2654848149
 20
5.1075360437
 30
0.0
 10
5.259890712
 20
5.1072749405
 30
0.0
 10
5.2536821129
 20
5.1070134947
 30
0.0
 10
5.2468732699
 20
5.1067517971
 30
0.0
 10
5.2394797944
 20
5.1064898991
 30
0.0
 10
5.231518755
 20
5.1062278588
 30
0.0
 10
5.2198232562
 20
5.1058676214
 30
0.0
 10
5.2039328475
 20
5.1054217694
 30
0.0
 10
5.1834440877
 20
5.1049002695
 30
0.0
 10
5.1612014777
 20
5.1043781495
 30
0.0
 10
5.1374095382
 20
5.1038555405
 30
0.0
 10
5.1122870192
 20
5.1033325947
 30
0.0
 10
5.0860648983
 20
5.1028094035
 30
0.0
 10
5.0589842944
 20
5.1022860423
 30
0.0
 10
5.0312942051
 20
5.1017625692
 30
0.0
 10
5.0032492654
 20
5.1012390341
 30
0.0
 10
4.9751073457
 20
5.1007154824
 30
0.0
 10
4.9471272102
 20
5.1001919583
 30
0.0
 10
4.9195661304
 20
5.0996685081
 30
0.0
 10
4.8926775301
 20
5.0991451836
 30
0.0
 10
4.8667086617
 20
5.0986220469
 30
0.0
 10
4.841898322
 20
5.0980991749
 30
0.0
 10
4.8184746331
 20
5.0975766757
 30
0.0
 10
4.7966529603
 20
5.0970546832
 30
0.0
 10
4.7766339153
 20
5.0965334529
 30
0.0
 10
4.7586015474
 20
5.0960131843
 30
0.0
 10
4.7448938197
 20
5.0955657409
 30
0.0
 10
4.7350438559
 20
5.0952027377
 30
0.0
 10
4.7285339954
 20
5.0949411521
 30
0.0
 10
4.7226316581
 20
5.0946798578
 30
0.0
 10
4.717350507
 20
5.0944189836
 30
0.0
 10
4.7127025526
 20
5.0941587234
 30
0.0
 10
4.7086985086
 20
5.0938992378
 30
0.0
 10
4.705769215
 20
5.093674009
 30
0.0
 10
4.7037550492
 20
5.093489962
 30
0.0
 10
4.7024924121
 20
5.0933595807
 30
0.0
 10
4.7013965313
 20
5.0932295499
 30
0.0
 10
4.7004679405
 20
5.0931000829
 30
0.0
 10
4.6997071321
 20
5.0929713265
 30
0.0
 10
4.6992578903
 20
5.0928752105
 30
0.0
 10
4.699062389
 20
5.0928245176
 30
0.0
  0
SPLINE
  5
381
100
AcDbEntity
  8
0
100
AcDbSpline
 62
7
  6
CONTINUOUS
 70
0
 71
3
 72
11
 73
7
 74
0
 42
0.0000001
 43
0.0000001
 44
0.0000000001
 40
0.0
 40
0.0
 40
0.0
 40
0.0
 40
0.2241428639
 40
0.465579693
 40
0.724318003
 40
1.0
 40
1.0
 40
1.0
 40
1.0
 10
5.1847700169
 20
3.7297890124
 30
0.0
 10
5.1821605889
 20
3.7275171857
 30
0.0
 10
5.1764899089
 20
3.7230816286
 30
0.0
 10
5.1671090826
 20
3.7169782338
 30
0.0
 10
5.1565998988
 20
3.7112150166
 30
0.0
 10
5.1491156709
 20
3.7077313194
 30
0.0
 10
5.145208331
 20
3.7060458594
 30
0.0
  0
SPLINE
  5
382
100
AcDbEntity
  8
0
100
AcDbSpline
 62
7
  6
CONTINUOUS
 70
0
 71
3
 72
22
 73
18
 74
0
 42
0.0000001
 43
0.0000001
 44
0.0000000001
 40
0.0
 40
0.0
 40
0.0
 40
0.0
 40
0.0472858147
 40
0.0950767068
 40
0.1438576938
 40
0.1940763084
 40
0.2461291001
 40
0.3003586206
 40
0.3570456236
 40
0.4164170796
 40
0.4786463753
 40
0.5438576819
 40
0.6121363927
 40
0.6835254342
 40
0.7580384996
 40
0.8356589918
 40
1.0
 40
1.0
 40
1.0
 40
1.0
 10
5.2062018634
 20
2.8436085549
 30
0.0
 10
5.2062018634
 20
2.8421498338
 30
0.0
 10
5.206032551
 20
2.8392140956
 30
0.0
 10
5.2052739704
 20
2.8348325449
 30
0.0
 10
5.2040125623
 20
2.8304741774
 30
0.0
 10
5.2022527784
 20
2.8261508335
 30
0.0
 10
5.2000006027
 20
2.8218723225
 30
0.0
 10
5.1972617684
 20
2.8176488692
 30
0.0
 10
5.1940442904
 20
2.8134892952
 30
0.0
 10
5.1903557715
 20
2.8094030114
 30
0.0
 10
5.1862052249
 20
2.8053989286
 30
0.0
 10
5.1816026628
 20
2.801485558
 30
0.0
 10
5.1765584274
 20
2.7976721591
 30
0.0
 10
5.171084671
 20
2.7939667671
 30
0.0
 10
5.1651937017
 20
2.7903780658
 30
0.0
 10
5.156638221
 20
2.7856702556
 30
0.0
 10
5.1498795571
 20
2.7824797127
 30
0.0
 10
5.1452245941
 20
2.7804712855
 30
0.0
  0
SPLINE
  5
383
100
AcDbEntity
  8
0
100
AcDbSpline
 62
7
  6
CONTINUOUS
 70
0
 71
3
 72
21
 73
17
 74
0
 42
0.0000001
 43
0.0000001
 44
0.0000000001
 40
0.0
 40
0.0
 40
0.0
 40
0.0
 40
0.0491308533
 40
0.0986831099
 40
0.1490643642
 40
0.2006574777
 40
0.2538085253
 40
0.308824849
 40
0.3659702947
 40
0.425463095
 40
0.4874834318
 40
0.5521704819
 40
0.6898818813
 40
0.7630699988
 40
0.839162751
 40
1.0
 40
1.0
 40
1.0
 40
1.0
 10
5.2062018634
 20
2.9682258756
 30
0.0
 10
5.2062018634
 20
2.9669204055
 30
0.0
 10
5.2060665313
 20
2.9642963126
 30
0.0
 10
5.2054597088
 20
2.960375778
 30
0.0
 10
5.2044502756
 20
2.9564714069
 30
0.0
 10
5.2030405017
 20
2.9525918111
 30
0.0
 10
5.2012345486
 20
2.9487440894
 30
0.0
 10
5.1990361183
 20
2.9449356061
 30
0.0
 10
5.1964499187
 20
2.941173329
 30
0.0
 10
5.1934816632
 20
2.9374636764
 30
0.0
 10
5.1901366712
 20
2.9338134546
 30
0.0
 10
5.1850776853
 20
2.9289328181
 30
0.0
 10
5.1793769733
 20
2.9243113897
 30
0.0
 10
5.1731298675
 20
2.9199353665
 30
0.0
 10
5.1661760173
 20
2.9155100271
 30
0.0
 10
5.1606568329
 20
2.9124645769
 30
0.0
 10
5.1568468421
 20
2.9105285808
 30
0.0
  0
SPLINE
  5
384
100
AcDbEntity
  8
0
100
AcDbSpline
 62
7
  6
CONTINUOUS
 70
0
 71
3
 72
22
 73
18
 74
0
 42
0.0000001
 43
0.0000001
 44
0.0000000001
 40
0.0
 40
0.0
 40
0.0
 40
0.0
 40
0.0472858147
 40
0.0950767068
 40
0.1438576938
 40
0.1940763084
 40
0.2461291001
 40
0.3003586206
 40
0.3570456236
 40
0.4164170796
 40
0.4786463753
 40
0.5438576819
 40
0.6121363927
 40
0.6835254342
 40
0.7580384996
 40
0.8356589918
 40
1.0
 40
1.0
 40
1.0
 40
1.0
 10
5.2062018634
 20
3.2174605171
 30
0.0
 10
5.2062018634
 20
3.2160017959
 30
0.0
 10
5.206032551
 20
3.2130660578
 30
0.0
 10
5.2052739704
 20
3.2086845071
 30
0.0
 10
5.2040125623
 20
3.2043261395
 30
0.0
 10
5.2022527784
 20
3.2000027957
 30
0.0
 10
5.2000006027
 20
3.1957242847
 30
0.0
 10
5.1972617684
 20
3.1915008314
 30
0.0
 10
5.1940442904
 20
3.1873412574
 30
0.0
 10
5.1903557715
 20
3.1832549736
 30
0.0
 10
5.1862052249
 20
3.1792508907
 30
0.0
 10
5.1816026628
 20
3.1753375202
 30
0.0
 10
5.1765584274
 20
3.1715241212
 30
0.0
 10
5.171084671
 20
3.1678187292
 30
0.0
 10
5.1651937017
 20
3.164230028
 30
0.0
 10
5.156638221
 20
3.1595222177
 30
0.0
 10
5.1498795571
 20
3.1563316749
 30
0.0
 10
5.1452245941
 20
3.1543232477
 30
0.0
  0
SPLINE
  5
385
100
AcDbEntity
  8
0
100
AcDbSpline
 62
7
  6
CONTINUOUS
 70
0
 71
3
 72
22
 73
18
 74
0
 42
0.0000001
 43
0.0000001
 44
0.0000000001
 40
0.0
 40
0.0
 40
0.0
 40
0.0
 40
0.0476181918
 40
0.0957256416
 40
0.1447928404
 40
0.1952554077
 40
0.2475007456
 40
0.3018655397
 40
0.3586278714
 40
0.4180136815
 40
0.4801987946
 40
0.5453100702
 40
0.6134375093
 40
0.6846303577
 40
0.7589073989
 40
0.8362604734
 40
1.0
 40
1.0
 40
1.0
 40
1.0
 10
5.2062018634
 20
3.0928431963
 30
0.0
 10
5.2062018634
 20
3.091412876
 30
0.0
 10
5.206039143
 20
3.0885349779
 30
0.0
 10
5.2053099862
 20
3.0842388713
 30
0.0
 10
5.2040974054
 20
3.0799645074
 30
0.0
 10
5.2024053756
 20
3.0757230893
 30
0.0
 10
5.2002395409
 20
3.0715238602
 30
0.0
 10
5.1976051254
 20
3.0673765197
 30
0.0
 10
5.1945095365
 20
3.0632894975
 30
0.0
 10
5.190959971
 20
3.059271567
 30
0.0
 10
5.1869645937
 20
3.0553313674
 30
0.0
 10
5.1825328673
 20
3.0514767999
 30
0.0
 10
5.17767431
 20
3.0477166699
 30
0.0
 10
5.1724001437
 20
3.0440587246
 30
0.0
 10
5.1667219144
 20
3.0405109205
 30
0.0
 10
5.1584724748
 20
3.0358500309
 30
0.0
 10
5.1519501989
 20
3.0326816321
 30
0.0
 10
5.1474561531
 20
3.030683356
 30
0.0
  0
SPLINE
  5
386
100
AcDbEntity
  8
0
100
AcDbSpline
 62
7
  6
CONTINUOUS
 70
0
 71
3
 72
30
 73
26
 74
0
 42
0.0000001
 43
0.0000001
 44
0.0000000001
 40
0.0
 40
0.0
 40
0.0
 40
0.0
 40
0.0019021902
 40
0.0043447473
 40
0.0073299528
 40
0.01085838
 40
0.0149296116
 40
0.0195418922
 40
0.0303802895
 40
0.0433534604
 40
0.0584337759
 40
0.0755889474
 40
0.0947822435
 40
0.1159708998
 40
0.1391096279
 40
0.1910273118
 40
0.2500787802
 40
0.3157440523
 40
0.387444584
 40
0.4645480678
 40
0.5463747517
 40
0.6322024821
 40
0.721275457
 40
0.8128047108
 40
1.0
 40
1.0
 40
1.0
 40
1.0
 10
5.3067402469
 20
5.0933494682
 30
0.0
 10
5.3065473959
 20
5.0932994871
 30
0.0
 10
5.3061018605
 20
5.0932051594
 30
0.0
 10
5.3053445003
 20
5.0930791893
 30
0.0
 10
5.3044149714
 20
5.0929524533
 30
0.0
 10
5.3033136761
 20
5.092825125
 30
0.0
 10
5.3020410283
 20
5.0926974527
 30
0.0
 10
5.3000043771
 20
5.092517047
 30
0.0
 10
5.2970355163
 20
5.0922963544
 30
0.0
 10
5.2929701267
 20
5.0920422431
 30
0.0
 10
5.2882420976
 20
5.0917873448
 30
0.0
 10
5.2828618345
 20
5.0915318048
 30
0.0
 10
5.2768412033
 20
5.0912758832
 30
0.0
 10
5.2701934015
 20
5.0910196246
 30
0.0
 10
5.2601196113
 20
5.0906638817
 30
0.0
 10
5.246080853
 20
5.0902254067
 30
0.0
 10
5.2275883573
 20
5.0897157591
 30
0.0
 10
5.2070232621
 20
5.0892051495
 30
0.0
 10
5.1845670135
 20
5.0886937834
 30
0.0
 10
5.1604177348
 20
5.0881819111
 30
0.0
 10
5.1347885664
 20
5.0876696656
 30
0.0
 10
5.107905563
 20
5.0871571514
 30
0.0
 10
5.0800062051
 20
5.0866444455
 30
0.0
 10
5.0414917474
 20
5.085955525
 30
0.0
 10
5.0123044544
 20
5.0854471986
 30
0.0
 10
4.9927018634
 20
5.085105725
 30
0.0
  0
SPLINE
  5
387
100
AcDbEntity
  8
0
100
AcDbSpline
 62
7
  6
CONTINUOUS
 70
0
 71
3
 72
27
 73
23
 74
0
 42
0.0000001
 43
0.0000001
 44
0.0000000001
 40
0.0
 40
0.0
 40
0.0
 40
0.0
 40
0.0023312187
 40
0.0051615168
 40
0.0084920714
 40
0.0123230404
 40
0.0214841764
 40
0.0326359597
 40
0.0457613314
 40
0.0608413499
 40
0.0778522834
 40
0.0967658892
 40
0.140178733
 40
0.1907963103
 40
0.2482873451
 40
0.3122754122
 40
0.3823398147
 40
0.4580195964
 40
0.5388174796
 40
0.6242024118
 40
0.8064586026
 40
1.0
 40
1.0
 40
1.0
 40
1.0
 10
5.2861413162
 20
5.0880123273
 30
0.0
 10
5.2859614427
 20
5.0879708234
 30
0.0
 10
5.2855605224
 20
5.0878905346
 30
0.0
 10
5.2848969991
 20
5.0877809218
 30
0.0
 10
5.2841134098
 20
5.087670893
 30
0.0
 10
5.2828303541
 20
5.0875143206
 30
0.0
 10
5.2809278461
 20
5.0873235744
 30
0.0
 10
5.2782890144
 20
5.0871045249
 30
0.0
 10
5.2751801805
 20
5.086884655
 30
0.0
 10
5.2716064458
 20
5.0866641451
 30
0.0
 10
5.2675736216
 20
5.086443222
 30
0.0
 10
5.2612988128
 20
5.0861338482
 30
0.0
 10
5.2523632094
 20
5.0857539796
 30
0.0
 10
5.2403728478
 20
5.0853145214
 30
0.0
 10
5.2267522952
 20
5.0848739793
 30
0.0
 10
5.2115911438
 20
5.0844325663
 30
0.0
 10
5.1949891621
 20
5.0839905864
 30
0.0
 10
5.1770556574
 20
5.0835481835
 30
0.0
 10
5.1579086463
 20
5.0831054565
 30
0.0
 10
5.1303237695
 20
5.082501675
 30
0.0
 10
5.0938121737
 20
5.0817564949
 30
0.0
 10
5.0640597933
 20
5.081183544
 30
0.0
 10
5.0487367883
 20
5.0808928548
 30
0.0
  0
SPLINE
  5
388
100
AcDbEntity
  8
0
100
AcDbSpline
 62
7
  6
CONTINUOUS
 70
0
 71
3
 72
30
 73
26
 74
0
 42
0.0000001
 43
0.0000001
 44
0.0000000001
 40
0.0
 40
0.0
 40
0.0
 40
0.0
 40
0.0019021898
 40
0.0043447465
 40
0.0073299518
 40
0.0108583791
 40
0.014929611
 40
0.0195418918
 40
0.0303802892
 40
0.0433534598
 40
0.0584337744
 40
0.0755889464
 40
0.0947822435
 40
0.1159709002
 40
0.1391096276
 40
0.1910273099
 40
0.2500787757
 40
0.3157440422
 40
0.3874445737
 40
0.4645480558
 40
0.5463747425
 40
0.6322024763
 40
0.7212754557
 40
0.8128047132
 40
1.0
 40
1.0
 40
1.0
 40
1.0
 10
5.3067402469
 20
5.1277994682
 30
0.0
 10
5.306547396
 20
5.1277494871
 30
0.0
 10
5.3061018607
 20
5.1276551594
 30
0.0
 10
5.3053445006
 20
5.1275291893
 30
0.0
 10
5.3044149716
 20
5.1274024533
 30
0.0
 10
5.3033136764
 20
5.127275125
 30
0.0
 10
5.3020410285
 20
5.1271474527
 30
0.0
 10
5.3000043772
 20
5.126967047
 30
0.0
 10
5.2970355164
 20
5.1267463544
 30
0.0
 10
5.292970127
 20
5.1264922431
 30
0.0
 10
5.2882420979
 20
5.1262373448
 30
0.0
 10
5.2828618348
 20
5.1259818048
 30
0.0
 10
5.2768412034
 20
5.1257258832
 30
0.0
 10
5.2701934015
 20
5.1254696246
 30
0.0
 10
5.2601196114
 20
5.1251138817
 30
0.0
 10
5.2460808537
 20
5.1246754067
 30
0.0
 10
5.2275883591
 20
5.1241657592
 30
0.0
 10
5.2070232647
 20
5.1236551496
 30
0.0
 10
5.1845670169
 20
5.1231437835
 30
0.0
 10
5.1604177381
 20
5.1226319112
 30
0.0
 10
5.1347885693
 20
5.1221196657
 30
0.0
 10
5.1079055647
 20
5.1216071514
 30
0.0
 10
5.0800062056
 20
5.1210944455
 30
0.0
 10
5.0414917473
 20
5.120405525
 30
0.0
 10
5.0123044541
 20
5.1198971986
 30
0.0
 10
4.9927018634
 20
5.119555725
 30
0.0
  0
LINE
  5
389
100
AcDbEntity
  8
0
100
AcDbLine
 62
7
  6
CONTINUOUS
 10
5.2863413388
 20
5.1225111966
 11
5.2861018311
 21
5.1224533294
  0
SPLINE
  5
38A
100
AcDbEntity
  8
0
100
AcDbSpline
 62
7
  6
CONTINUOUS
 70
0
 71
3
 72
62
 73
58
 74
0
 42
0.0000001
 43
0.0000001
 44
0.0000000001
 40
0.0
 40
0.0
 40
0.0
 40
0.0
 40
0.0011489886
 40
0.0025779869
 40
0.0042876482
 40
0.0062776288
 40
0.0110956052
 40
0.0170242372
 40
0.0240506611
 40
0.0321599794
 40
0.0413340686
 40
0.0515520954
 40
0.0627914266
 40
0.0750259764
 40
0.1023686375
 40
0.133331098
 40
0.1676312052
 40
0.2049560929
 40
0.2449652527
 40
0.2872936623
 40
0.3315549261
 40
0.3773451358
 40
0.4242461648
 40
0.4718299228
 40
0.5196620304
 40
0.5673058218
 40
0.614326417
 40
0.6602945223
 40
0.7047904926
 40
0.7474082165
 40
0.7877587076
 40
0.8254737914
 40
0.8602093762
 40
0.8916485887
 40
0.9060411058
 40
0.9195048865
 40
0.9320086537
 40
0.943524552
 40
0.9540260726
 40
0.9634895925
 40
0.9718939496
 40
0.9792199416
 40
0.9854521498
 40
0.9905767415
 40
0.9927207624
 40
0.9945847997
 40
0.9961682731
 40
0.9974712002
 40
0.9980178714
 40
0.9984950687
 40
0.9989033277
 40
0.9992435459
 40
0.9995173355
 40
0.9997278989
 40
0.9998116461
 40
0.9998830389
 40
1.0
 40
1.0
 40
1.0
 40
1.0
 10
5.2861018311
 20
5.1224533294
 30
0.0
 10
5.2858820805
 20
5.1224036263
 30
0.0
 10
5.2853853754
 20
5.1223084043
 30
0.0
 10
5.2845544578
 20
5.1221797031
 30
0.0
 10
5.2835570614
 20
5.122050384
 30
0.0
 10
5.2818970901
 20
5.1218653722
 30
0.0
 10
5.2794095081
 20
5.1216407141
 30
0.0
 10
5.2759339177
 20
5.1213831003
 30
0.0
 10
5.2718115095
 20
5.1211244108
 30
0.0
 10
5.2670517109
 20
5.1208648514
 30
0.0
 10
5.261665292
 20
5.1206047751
 30
0.0
 10
5.2556645043
 20
5.1203443036
 30
0.0
 10
5.2490631023
 20
5.1200835622
 30
0.0
 10
5.2391051991
 20
5.1197220779
 30
0.0
 10
5.2252804387
 20
5.1192762998
 30
0.0
 10
5.2071291658
 20
5.1187576764
 30
0.0
 10
5.1870198189
 20
5.1182381335
 30
0.0
 10
5.1651360166
 20
5.1177178611
 30
0.0
 10
5.1416775704
 20
5.117197102
 30
0.0
 10
5.1168586867
 20
5.116675984
 30
0.0
 10
5.090905984
 20
5.116154611
 30
0.0
 10
5.0640564813
 20
5.1156330579
 30
0.0
 10
5.0365553646
 20
5.1151113841
 30
0.0
 10
5.0086537896
 20
5.1145896405
 30
0.0
 10
4.9806065441
 20
5.1140678721
 30
0.0
 10
4.952669746
 20
5.1135461225
 30
0.0
 10
4.925098517
 20
5.1130244365
 30
0.0
 10
4.898144644
 20
5.1125028635
 30
0.0
 10
4.872054278
 20
5.1119814611
 30
0.0
 10
4.8470656742
 20
5.1114603042
 30
0.0
 10
4.8234070078
 20
5.1109394834
 30
0.0
 10
4.8012943083
 20
5.1104191508
 30
0.0
 10
4.7809294979
 20
5.1098994364
 30
0.0
 10
4.7651375387
 20
5.1094550956
 30
0.0
 10
4.7535160138
 20
5.1090960803
 30
0.0
 10
4.7456062437
 20
5.108834941
 30
0.0
 10
4.7382608642
 20
5.1085739407
 30
0.0
 10
4.7314967314
 20
5.108313145
 30
0.0
 10
4.7253292219
 20
5.1080525938
 30
0.0
 10
4.7197724237
 20
5.1077923907
 30
0.0
 10
4.7148390399
 20
5.1075326741
 30
0.0
 10
4.7105402047
 20
5.1072737082
 30
0.0
 10
4.7068857893
 20
5.1070157142
 30
0.0
 10
4.7042478161
 20
5.1067910926
 30
0.0
 10
4.7024664946
 20
5.1066067032
 30
0.0
 10
4.7013776889
 20
5.1064771285
 30
0.0
 10
4.7004551159
 20
5.1063480169
 30
0.0
 10
4.6997912064
 20
5.1062355782
 30
0.0
 10
4.699344311
 20
5.1061434073
 30
0.0
 10
4.6990710291
 20
5.1060785198
 30
0.0
 10
4.698839493
 20
5.1060138219
 30
0.0
 10
4.6986494804
 20
5.1059494115
 30
0.0
 10
4.6985009092
 20
5.105885248
 30
0.0
 10
4.6984042709
 20
5.1058285142
 30
0.0
 10
4.6983499719
 20
5.1057811814
 30
0.0
 10
4.6983157376
 20
5.1057402685
 30
0.0
 10
4.6983018692
 20
5.1057032916
 30
0.0
 10
4.6983018798
 20
5.1056803571
 30
0.0
  0
SPLINE
  5
38B
100
AcDbEntity
  8
0
100
AcDbSpline
 62
7
  6
CONTINUOUS
 70
0
 71
3
 72
39
 73
35
 74
0
 42
0.0000001
 43
0.0000001
 44
0.0000000001
 40
0.0
 40
0.0
 40
0.0
 40
0.0
 40
0.000522443
 40
0.0007225193
 40
0.0009552567
 40
0.0015233136
 40
0.0022329777
 40
0.0030871452
 40
0.0040873247
 40
0.0052343691
 40
0.0079707117
 40
0.0112981435
 40
0.0152168847
 40
0.0197258015
 40
0.0305042131
 40
0.0436114798
 40
0.0590180463
 40
0.0766875226
 40
0.0965788924
 40
0.1186437664
 40
0.1428305587
 40
0.1690801068
 40
0.1973305283
 40
0.2275130044
 40
0.2595556403
 40
0.2933809986
 40
0.3660507836
 40
0.4448230863
 40
0.5289400226
 40
0.6175916474
 40
0.7099254491
 40
0.8050502783
 40
0.9020555645
 40
1.0
 40
1.0
 40
1.0
 40
1.0
 10
5.3074517519
 20
5.1043924893
 30
0.0
 10
5.3074517519
 20
5.1043376281
 30
0.0
 10
5.307384813
 20
5.1042732321
 30
0.0
 10
5.3073014946
 20
5.1042220239
 30
0.0
 10
5.3072071988
 20
5.1041737999
 30
0.0
 10
5.3070595717
 20
5.104116156
 30
0.0
 10
5.3068454537
 20
5.1040498953
 30
0.0
 10
5.3065844767
 20
5.1039835563
 30
0.0
 10
5.3062763622
 20
5.1039169194
 30
0.0
 10
5.3057723145
 20
5.10382226
 30
0.0
 10
5.3050237913
 20
5.1037068028
 30
0.0
 10
5.303983896
 20
5.1035742145
 30
0.0
 10
5.3027566386
 20
5.1034411548
 30
0.0
 10
5.3007486926
 20
5.1032518107
 30
0.0
 10
5.2977757657
 20
5.1030211563
 30
0.0
 10
5.2936581857
 20
5.1027562037
 30
0.0
 10
5.2888157632
 20
5.1024902948
 30
0.0
 10
5.2832600815
 20
5.1022235655
 30
0.0
 10
5.2770045293
 20
5.1019563749
 30
0.0
 10
5.270064061
 20
5.1016887988
 30
0.0
 10
5.262455487
 20
5.101420987
 30
0.0
 10
5.254197015
 20
5.1011529572
 30
0.0
 10
5.2453086408
 20
5.1008847933
 30
0.0
 10
5.2358116868
 20
5.1006164988
 30
0.0
 10
5.2257290983
 20
5.1003481112
 30
0.0
 10
5.2111860163
 20
5.0999813338
 30
0.0
 10
5.1917365843
 20
5.0995264568
 30
0.0
 10
5.1670065486
 20
5.0989921319
 30
0.0
 10
5.140597922
 20
5.0984573551
 30
0.0
 10
5.1127649496
 20
5.0979222249
 30
0.0
 10
5.0837758511
 20
5.0973868574
 30
0.0
 10
5.0539094026
 20
5.0968513175
 30
0.0
 10
5.023453697
 20
5.0963156779
 30
0.0
 10
5.0029853426
 20
5.0959591256
 30
0.0
 10
4.9927018634
 20
5.0957799893
 30
0.0
  0
SPLINE
  5
38C
100
AcDbEntity
  8
0
100
AcDbSpline
 62
7
  6
CONTINUOUS
 70
0
 71
3
 72
63
 73
59
 74
0
 42
0.0000001
 43
0.0000001
 44
0.0000000001
 40
0.0
 40
0.0
 40
0.0
 40
0.0
 40
0.0001173489
 40
0.0001890299
 40
0.0002731513
 40
0.0004847724
 40
0.0007601022
 40
0.0011023963
 40
0.0015132542
 40
0.0019935446
 40
0.0025437731
 40
0.0038550829
 40
0.005448502
 40
0.0073243589
 40
0.0094822594
 40
0.0146398676
 40
0.0209116593
 40
0.0282845689
 40
0.0367418222
 40
0.0462650752
 40
0.0568320458
 40
0.0684192048
 40
0.0809997307
 40
0.0945449065
 40
0.1090238728
 40
0.140647527
 40
0.175580466
 40
0.2135019255
 40
0.2540635501
 40
0.2968926279
 40
0.3415955724
 40
0.3877614143
 40
0.4349658892
 40
0.4827750876
 40
0.5307495513
 40
0.5784483826
 40
0.6254329974
 40
0.6712716336
 40
0.7155428731
 40
0.7578399174
 40
0.7977740806
 40
0.8349783959
 40
0.8691111379
 40
0.8998587565
 40
0.9269391286
 40
0.9390251878
 40
0.9501041829
 40
0.9601510021
 40
0.9691423634
 40
0.9770585788
 40
0.9838812841
 40
0.9895962762
 40
0.9920345313
 40
0.9941915332
 40
0.9960666555
 40
0.9976595694
 40
0.9989703604
 40
1.0
 40
1.0
 40
1.0
 40
1.0
 10
5.287101748
 20
5.1441053572
 30
0.0
 10
5.2871017536
 20
5.144082337
 30
0.0
 10
5.2870877826
 20
5.1440452203
 30
0.0
 10
5.2870533496
 20
5.1440041785
 30
0.0
 10
5.2869987108
 20
5.1439566729
 30
0.0
 10
5.2869014554
 20
5.1438997411
 30
0.0
 10
5.2867519057
 20
5.1438353591
 30
0.0
 10
5.2865605893
 20
5.143770734
 30
0.0
 10
5.2863274279
 20
5.1437058169
 30
0.0
 10
5.2860522127
 20
5.1436407085
 30
0.0
 10
5.2856021758
 20
5.1435482247
 30
0.0
 10
5.2849336908
 20
5.1434354049
 30
0.0
 10
5.284004817
 20
5.1433058309
 30
0.0
 10
5.2829085604
 20
5.143175806
 30
0.0
 10
5.2811149693
 20
5.1429907963
 30
0.0
 10
5.278458923
 20
5.1427654063
 30
0.0
 10
5.27477953
 20
5.1425064964
 30
0.0
 10
5.2704515446
 20
5.14224667
 30
0.0
 10
5.2654847959
 20
5.1419860291
 30
0.0
 10
5.2598907341
 20
5.1417249504
 30
0.0
 10
5.2536821045
 20
5.1414634901
 30
0.0
 10
5.2468732617
 20
5.1412017965
 30
0.0
 10
5.2394798009
 20
5.1409399032
 30
0.0
 10
5.2315187344
 20
5.1406778528
 30
0.0
 10
5.2198232338
 20
5.1403176284
 30
0.0
 10
5.2039328059
 20
5.1398717676
 30
0.0
 10
5.1834440867
 20
5.1393502697
 30
0.0
 10
5.1612015113
 20
5.1388281489
 30
0.0
 10
5.1374095761
 20
5.13830554
 30
0.0
 10
5.1122870303
 20
5.1377825946
 30
0.0
 10
5.0860648902
 20
5.1372594039
 30
0.0
 10
5.0589842725
 20
5.1367360425
 30
0.0
 10
5.0312941961
 20
5.1362125691
 30
0.0
 10
5.0032492633
 20
5.1356890339
 30
0.0
 10
4.9751073368
 20
5.1351654822
 30
0.0
 10
4.9471271954
 20
5.1346419584
 30
0.0
 10
4.9195661094
 20
5.1341185083
 30
0.0
 10
4.8926775312
 20
5.1335951836
 30
0.0
 10
4.8667086836
 20
5.1330720464
 30
0.0
 10
4.8418983481
 20
5.1325491742
 30
0.0
 10
4.8184746376
 20
5.1320266752
 30
0.0
 10
4.7966529205
 20
5.1315046832
 30
0.0
 10
4.7766338502
 20
5.1309834526
 30
0.0
 10
4.758601496
 20
5.1304631873
 30
0.0
 10
4.7448937816
 20
5.1300157349
 30
0.0
 10
4.7350438658
 20
5.1296527436
 30
0.0
 10
4.7285339705
 20
5.129391141
 30
0.0
 10
4.7226316778
 20
5.1291298715
 30
0.0
 10
4.7173504783
 20
5.128868969
 30
0.0
 10
4.712702567
 20
5.1286087352
 30
0.0
 10
4.7086984931
 20
5.1283492338
 30
0.0
 10
4.7057691905
 20
5.1281239974
 30
0.0
 10
4.7037549959
 20
5.1279399708
 30
0.0
 10
4.7024923833
 20
5.1278095847
 30
0.0
 10
4.7013965688
 20
5.1276795455
 30
0.0
 10
4.7004679804
 20
5.1275500683
 30
0.0
 10
4.6997071141
 20
5.1274213301
 30
0.0
 10
4.6992578087
 20
5.1273252189
 30
0.0
 10
4.6990622924
 20
5.1272745176
 30
0.0
  0
SPLINE
  5
38D
100
AcDbEntity
  8
0
100
AcDbSpline
 62
7
  6
CONTINUOUS
 70
0
 71
3
 72
39
 73
35
 74
0
 42
0.0000001
 43
0.0000001
 44
0.0000000001
 40
0.0
 40
0.0
 40
0.0
 40
0.0
 40
0.000522443
 40
0.0007225193
 40
0.0009552567
 40
0.0015233136
 40
0.0022329777
 40
0.0030871452
 40
0.0040873247
 40
0.0052343691
 40
0.0079707117
 40
0.0112981435
 40
0.0152168847
 40
0.0197258015
 40
0.0305042131
 40
0.0436114798
 40
0.0590180463
 40
0.0766875226
 40
0.0965788924
 40
0.1186437664
 40
0.1428305587
 40
0.1690801068
 40
0.1973305283
 40
0.2275130044
 40
0.2595556403
 40
0.2933809986
 40
0.3660507836
 40
0.4448230863
 40
0.5289400226
 40
0.6175916474
 40
0.7099254491
 40
0.8050502783
 40
0.9020555645
 40
1.0
 40
1.0
 40
1.0
 40
1.0
 10
5.3074517519
 20
4.7598924893
 30
0.0
 10
5.3074517519
 20
4.7598376281
 30
0.0
 10
5.307384813
 20
4.7597732321
 30
0.0
 10
5.3073014946
 20
4.759722024
 30
0.0
 10
5.3072071988
 20
4.7596737999
 30
0.0
 10
5.3070595717
 20
4.759616156
 30
0.0
 10
5.3068454537
 20
4.7595498953
 30
0.0
 10
5.3065844767
 20
4.7594835563
 30
0.0
 10
5.3062763622
 20
4.7594169194
 30
0.0
 10
5.3057723145
 20
4.75932226
 30
0.0
 10
5.3050237913
 20
4.7592068028
 30
0.0
 10
5.303983896
 20
4.7590742145
 30
0.0
 10
5.3027566386
 20
4.7589411548
 30
0.0
 10
5.3007486926
 20
4.7587518107
 30
0.0
 10
5.2977757657
 20
4.7585211563
 30
0.0
 10
5.2936581857
 20
4.7582562037
 30
0.0
 10
5.2888157632
 20
4.7579902948
 30
0.0
 10
5.2832600815
 20
4.7577235655
 30
0.0
 10
5.2770045293
 20
4.7574563749
 30
0.0
 10
5.270064061
 20
4.7571887988
 30
0.0
 10
5.262455487
 20
4.756920987
 30
0.0
 10
5.254197015
 20
4.7566529572
 30
0.0
 10
5.2453086408
 20
4.7563847933
 30
0.0
 10
5.2358116868
 20
4.7561164988
 30
0.0
 10
5.2257290983
 20
4.7558481112
 30
0.0
 10
5.2111860163
 20
4.7554813338
 30
0.0
 10
5.1917365843
 20
4.7550264568
 30
0.0
 10
5.1670065486
 20
4.7544921319
 30
0.0
 10
5.140597922
 20
4.7539573551
 30
0.0
 10
5.1127649496
 20
4.7534222249
 30
0.0
 10
5.0837758511
 20
4.7528868574
 30
0.0
 10
5.0539094026
 20
4.7523513175
 30
0.0
 10
5.023453697
 20
4.7518156779
 30
0.0
 10
5.0029853426
 20
4.7514591256
 30
0.0
 10
4.9927018634
 20
4.7512799893
 30
0.0
  0
SPLINE
  5
38E
100
AcDbEntity
  8
0
100
AcDbSpline
 62
7
  6
CONTINUOUS
 70
0
 71
3
 72
63
 73
59
 74
0
 42
0.0000001
 43
0.0000001
 44
0.0000000001
 40
0.0
 40
0.0
 40
0.0
 40
0.0
 40
0.0001173802
 40
0.0001890939
 40
0.0002732505
 40
0.0004849245
 40
0.0007602468
 40
0.001102454
 40
0.0015131909
 40
0.0019933871
 40
0.0025436007
 40
0.003855063
 40
0.0054486598
 40
0.0073244618
 40
0.0094821264
 40
0.014639907
 40
0.02091167
 40
0.0282844908
 40
0.0367419799
 40
0.046264923
 40
0.0568321801
 40
0.0684190751
 40
0.0809997863
 40
0.0945449376
 40
0.1090238212
 40
0.1406473994
 40
0.1755804038
 40
0.2135019332
 40
0.2540636517
 40
0.2968927279
 40
0.3415956012
 40
0.3877614402
 40
0.4349658842
 40
0.4827751238
 40
0.5307496147
 40
0.5784483891
 40
0.625433014
 40
0.671271615
 40
0.7155429177
 40
0.7578400425
 40
0.7977742138
 40
0.8349785165
 40
0.8691111099
 40
0.8998586764
 40
0.9269390862
 40
0.9390253102
 40
0.9501042381
 40
0.9601509919
 40
0.9691425586
 40
0.977058482
 40
0.9838815205
 40
0.9895962139
 40
0.9920344557
 40
0.9941916895
 40
0.9960668918
 40
0.9976596395
 40
0.9989702701
 40
1.0
 40
1.0
 40
1.0
 40
1.0
 10
5.2871018038
 20
5.1785553571
 30
0.0
 10
5.2871017902
 20
5.1785323307
 30
0.0
 10
5.2870877793
 20
5.1784952162
 30
0.0
 10
5.2870533122
 20
5.1784541793
 30
0.0
 10
5.2869986387
 20
5.178406678
 30
0.0
 10
5.2869013648
 20
5.1783497503
 30
0.0
 10
5.286751825
 20
5.1782853664
 30
0.0
 10
5.2865605557
 20
5.1782207347
 30
0.0
 10
5.2863274567
 20
5.1781558136
 30
0.0
 10
5.2860522884
 20
5.1780907026
 30
0.0
 10
5.285602243
 20
5.1779982174
 30
0.0
 10
5.2849336937
 20
5.1778854063
 30
0.0
 10
5.2840047645
 20
5.1777558406
 30
0.0
 10
5.2829085311
 20
5.1776258108
 30
0.0
 10
5.281114966
 20
5.1774407757
 30
0.0
 10
5.2784589349
 20
5.1772154189
 30
0.0
 10
5.2747795327
 20
5.1769564952
 30
0.0
 10
5.2704515246
 20
5.1766966632
 30
0.0
 10
5.2654848074
 20
5.1764360405
 30
0.0
 10
5.2598907055
 20
5.1761749375
 30
0.0
 10
5.2536821318
 20
5.1759135013
 30
0.0
 10
5.2468732494
 20
5.1756517885
 30
0.0
 10
5.2394798091
 20
5.1753899073
 30
0.0
 10
5.2315187281
 20
5.1751278522
 30
0.0
 10
5.2198232644
 20
5.1747676279
 30
0.0
 10
5.2039328561
 20
5.1743217668
 30
0.0
 10
5.1834441268
 20
5.1738002692
 30
0.0
 10
5.1612015082
 20
5.173278149
 30
0.0
 10
5.1374095431
 20
5.1727555406
 30
0.0
 10
5.1122869952
 20
5.1722325948
 30
0.0
 10
5.0860648721
 20
5.1717094037
 30
0.0
 10
5.0589842772
 20
5.1711860422
 30
0.0
 10
5.0312942015
 20
5.1706625689
 30
0.0
 10
5.0032492637
 20
5.1701390339
 30
0.0
 10
4.9751073372
 20
5.1696154824
 30
0.0
 10
4.9471272018
 20
5.1690919585
 30
0.0
 10
4.9195661342
 20
5.1685685082
 30
0.0
 10
4.8926775507
 20
5.1680451834
 30
0.0
 10
4.8667086838
 20
5.1675220463
 30
0.0
 10
4.8418983205
 20
5.1669991746
 30
0.0
 10
4.818474597
 20
5.1664766759
 30
0.0
 10
4.7966529117
 20
5.1659546841
 30
0.0
 10
4.7766338849
 20
5.1654334522
 30
0.0
 10
4.7586015641
 20
5.1649131874
 30
0.0
 10
4.7448938215
 20
5.164465731
 30
0.0
 10
4.7350438797
 20
5.1641027469
 30
0.0
 10
4.7285339786
 20
5.1638411427
 30
0.0
 10
4.7226316725
 20
5.163579864
 30
0.0
 10
4.7173505021
 20
5.1633189826
 30
0.0
 10
4.7127025446
 20
5.163058717
 30
0.0
 10
4.7086985192
 20
5.1627992526
 30
0.0
 10
4.7057692143
 20
5.1625739946
 30
0.0
 10
4.7037550362
 20
5.1623899618
 30
0.0
 10
4.7024923635
 20
5.1622595888
 30
0.0
 10
4.7013965195
 20
5.1621295559
 30
0.0
 10
4.700467981
 20
5.1620000709
 30
0.0
 10
4.6997071641
 20
5.1618713176
 30
0.0
 10
4.6992578728
 20
5.1617752104
 30
0.0
 10
4.6990623361
 20
5.1617245177
 30
0.0
  0
SPLINE
  5
38F
100
AcDbEntity
  8
0
100
AcDbSpline
 62
7
  6
CONTINUOUS
 70
0
 71
3
 72
63
 73
59
 74
0
 42
0.0000001
 43
0.0000001
 44
0.0000000001
 40
0.0
 40
0.0
 40
0.0
 40
0.0
 40
0.0001173508
 40
0.0001890537
 40
0.0002732138
 40
0.0004849379
 40
0.0007603489
 40
0.001102652
 40
0.0015134586
 40
0.0019936646
 40
0.0025438034
 40
0.0038550334
 40
0.0054486337
 40
0.0073246281
 40
0.0094824121
 40
0.0146398502
 40
0.0209118964
 40
0.0282845219
 40
0.0367420707
 40
0.0462651081
 40
0.0568321745
 40
0.068419339
 40
0.0809997338
 40
0.0945451269
 40
0.1090238522
 40
0.1406475681
 40
0.1755805938
 40
0.2135021152
 40
0.2540637289
 40
0.296892756
 40
0.3415956469
 40
0.387761483
 40
0.4349660118
 40
0.4827752032
 40
0.5307496878
 40
0.57844847
 40
0.6254330968
 40
0.6712717825
 40
0.7155430627
 40
0.7578401334
 40
0.7977742267
 40
0.8349784805
 40
0.8691111581
 40
0.8998588115
 40
0.9269393113
 40
0.9390252575
 40
0.9501044705
 40
0.9601510044
 40
0.9691426435
 40
0.9770586191
 40
0.983881475
 40
0.9895964639
 40
0.9920345318
 40
0.9941916053
 40
0.9960669046
 40
0.9976598723
 40
0.9989704635
 40
1.0
 40
1.0
 40
1.0
 40
1.0
 10
5.2871018418
 20
5.2130053572
 30
0.0
 10
5.2871018535
 20
5.2129823366
 30
0.0
 10
5.2870878746
 20
5.2129452122
 30
0.0
 10
5.2870534159
 20
5.2129041764
 30
0.0
 10
5.2869987329
 20
5.2128566727
 30
0.0
 10
5.2869014235
 20
5.2127997486
 30
0.0
 10
5.2867518328
 20
5.2127353681
 30
0.0
 10
5.2865605101
 20
5.2126707386
 30
0.0
 10
5.2863273753
 20
5.2126058187
 30
0.0
 10
5.286052206
 20
5.2125407082
 30
0.0
 10
5.285602221
 20
5.2124482191
 30
0.0
 10
5.2849337345
 20
5.2123353926
 30
0.0
 10
5.284004811
 20
5.2122058356
 30
0.0
 10
5.2829085142
 20
5.212075815
 30
0.0
 10
5.2811149542
 20
5.2118907909
 30
0.0
 10
5.2784589145
 20
5.2116653952
 30
0.0
 10
5.2747795591
 20
5.2114065125
 30
0.0
 10
5.2704515236
 20
5.2111466544
 30
0.0
 10
5.2654848137
 20
5.2108860421
 30
0.0
 10
5.2598907187
 20
5.2106249426
 30
0.0
 10
5.2536821114
 20
5.210363493
 30
0.0
 10
5.2468732748
 20
5.2101017984
 30
0.0
 10
5.2394797966
 20
5.2098398984
 30
0.0
 10
5.2315187605
 20
5.209577859
 30
0.0
 10
5.2198232535
 20
5.2092176217
 30
0.0
 10
5.2039328443
 20
5.2087717697
 30
0.0
 10
5.1834440849
 20
5.2082502695
 30
0.0
 10
5.1612014835
 20
5.2077281497
 30
0.0
 10
5.1374095495
 20
5.2072055405
 30
0.0
 10
5.1122870275
 20
5.2066825948
 30
0.0
 10
5.0860649103
 20
5.2061594037
 30
0.0
 10
5.058984295
 20
5.2056360424
 30
0.0
 10
5.0312942119
 20
5.2051125694
 30
0.0
 10
5.0032492672
 20
5.2045890342
 30
0.0
 10
4.975107349
 20
5.2040654824
 30
0.0
 10
4.9471272122
 20
5.2035419584
 30
0.0
 10
4.9195661251
 20
5.2030185081
 30
0.0
 10
4.8926775282
 20
5.2024951837
 30
0.0
 10
4.8667086589
 20
5.2019720468
 30
0.0
 10
4.8418983252
 20
5.2014491747
 30
0.0
 10
4.8184746365
 20
5.2009266756
 30
0.0
 10
4.7966529589
 20
5.200404683
 30
0.0
 10
4.7766339075
 20
5.1998834528
 30
0.0
 10
4.758601535
 20
5.1993631842
 30
0.0
 10
4.7448938113
 20
5.1989157416
 30
0.0
 10
4.7350438508
 20
5.198552737
 30
0.0
 10
4.7285339905
 20
5.1982911517
 30
0.0
 10
4.7226316578
 20
5.198029859
 30
0.0
 10
4.7173505059
 20
5.1977689815
 30
0.0
 10
4.7127025589
 20
5.1975087263
 30
0.0
 10
4.7086985029
 20
5.1972492343
 30
0.0
 10
4.7057692072
 20
5.19702401
 30
0.0
 10
4.7037550379
 20
5.1968399626
 30
0.0
 10
4.7024924129
 20
5.1967095807
 30
0.0
 10
4.701396538
 20
5.1965795482
 30
0.0
 10
4.7004679418
 20
5.1964500826
 30
0.0
 10
4.699707127
 20
5.1963213293
 30
0.0
 10
4.6992578845
 20
5.1962252112
 30
0.0
 10
4.6990623872
 20
5.1961745176
 30
0.0
  0
SPLINE
  5
390
100
AcDbEntity
  8
0
100
AcDbSpline
 62
7
  6
CONTINUOUS
 70
0
 71
3
 72
63
 73
59
 74
0
 42
0.0000001
 43
0.0000001
 44
0.0000000001
 40
0.0
 40
0.0
 40
0.0
 40
0.0
 40
0.0001173566
 40
0.0001890491
 40
0.0002731843
 40
0.0004848319
 40
0.0007601737
 40
0.001102467
 40
0.0015133276
 40
0.0019936223
 40
0.002543854
 40
0.0038551566
 40
0.0054485333
 40
0.007324299
 40
0.009482148
 40
0.0146397555
 40
0.0209114717
 40
0.0282843854
 40
0.0367415912
 40
0.0462647788
 40
0.0568317352
 40
0.0684188253
 40
0.0809993821
 40
0.0945444885
 40
0.1090234382
 40
0.1406470351
 40
0.1755799461
 40
0.2135013602
 40
0.2540630067
 40
0.2968920788
 40
0.34159502
 40
0.3877608789
 40
0.4349653497
 40
0.4827745781
 40
0.5307490841
 40
0.5784479159
 40
0.625432605
 40
0.6712712287
 40
0.7155425391
 40
0.757839628
 40
0.7977738252
 40
0.8349782257
 40
0.8691109582
 40
0.8998586217
 40
0.9269389974
 40
0.939025112
 40
0.9501040874
 40
0.9601509635
 40
0.9691423158
 40
0.9770585201
 40
0.9838812622
 40
0.9895962194
 40
0.9920345095
 40
0.9941915392
 40
0.996066644
 40
0.9976595303
 40
0.9989703181
 40
1.0
 40
1.0
 40
1.0
 40
1.0
 10
5.2871018637
 20
5.247455357
 30
0.0
 10
5.2871018624
 20
5.2474323352
 30
0.0
 10
5.2870878759
 20
5.2473952201
 30
0.0
 10
5.2870534287
 20
5.2473541825
 30
0.0
 10
5.2869987735
 20
5.2473066804
 30
0.0
 10
5.2869015043
 20
5.2472497532
 30
0.0
 10
5.2867519461
 20
5.2471853726
 30
0.0
 10
5.2865606267
 20
5.2471207477
 30
0.0
 10
5.2863274634
 20
5.2470558325
 30
0.0
 10
5.286052246
 20
5.2469907247
 30
0.0
 10
5.2856022088
 20
5.2468982415
 30
0.0
 10
5.2849337331
 20
5.2467854211
 30
0.0
 10
5.2840048873
 20
5.2466558453
 30
0.0
 10
5.2829086678
 20
5.2465258149
 30
0.0
 10
5.2811151048
 20
5.2463408043
 30
0.0
 10
5.2784590827
 20
5.2461154203
 30
0.0
 10
5.2747797036
 20
5.2458565058
 30
0.0
 10
5.2704517406
 20
5.2455966828
 30
0.0
 10
5.2654850127
 20
5.2453360396
 30
0.0
 10
5.259890975
 20
5.2450749601
 30
0.0
 10
5.2536823735
 20
5.2448135022
 30
0.0
 10
5.2468735399
 20
5.2445518055
 30
0.0
 10
5.239480099
 20
5.2442899147
 30
0.0
 10
5.2315190422
 20
5.2440278615
 30
0.0
 10
5.2198235678
 20
5.243667639
 30
0.0
 10
5.2039331575
 20
5.2432217766
 30
0.0
 10
5.1834444607
 20
5.2427002786
 30
0.0
 10
5.161201892
 20
5.2421781573
 30
0.0
 10
5.1374099588
 20
5.2416555482
 30
0.0
 10
5.1122874065
 20
5.2411326025
 30
0.0
 10
5.0860652608
 20
5.2406094113
 30
0.0
 10
5.058984637
 20
5.2400860494
 30
0.0
 10
5.0312945478
 20
5.2395625757
 30
0.0
 10
5.0032495973
 20
5.2390390401
 30
0.0
 10
4.9751076522
 20
5.2385154881
 30
0.0
 10
4.9471274834
 20
5.2379919639
 30
0.0
 10
4.9195663809
 20
5.2374685134
 30
0.0
 10
4.8926777725
 20
5.2369451883
 30
0.0
 10
4.8667089006
 20
5.2364220507
 30
0.0
 10
4.8418985319
 20
5.2358991783
 30
0.0
 10
4.8184747856
 20
5.2353766787
 30
0.0
 10
4.7966530436
 20
5.2348546867
 30
0.0
 10
4.7766339465
 20
5.2343334554
 30
0.0
 10
4.7586015818
 20
5.2338131901
 30
0.0
 10
4.744893845
 20
5.2333657355
 30
0.0
 10
4.7350439198
 20
5.233002747
 30
0.0
 10
4.7285340054
 20
5.2327411411
 30
0.0
 10
4.7226317062
 20
5.2324798738
 30
0.0
 10
4.7173504986
 20
5.2322189704
 30
0.0
 10
4.7127025835
 20
5.2319587346
 30
0.0
 10
4.7086985104
 20
5.2316992375
 30
0.0
 10
4.7057692006
 20
5.2314739955
 30
0.0
 10
4.7037549999
 20
5.2312899711
 30
0.0
 10
4.702492378
 20
5.2311595866
 30
0.0
 10
4.701396567
 20
5.2310295462
 30
0.0
 10
4.7004679881
 20
5.230900068
 30
0.0
 10
4.69970712
 20
5.2307713264
 30
0.0
 10
4.6992578059
 20
5.2306752192
 30
0.0
 10
4.6990622811
 20
5.2306245176
 30
0.0
  0
SPLINE
  5
391
100
AcDbEntity
  8
0
100
AcDbSpline
 62
7
  6
CONTINUOUS
 70
0
 71
3
 72
22
 73
18
 74
0
 42
0.0000001
 43
0.0000001
 44
0.0000000001
 40
0.0
 40
0.0
 40
0.0
 40
0.0
 40
0.1643410082
 40
0.2419615004
 40
0.3164745658
 40
0.3878636073
 40
0.4561423181
 40
0.5213536247
 40
0.5835829204
 40
0.6429543764
 40
0.6996413794
 40
0.7538708999
 40
0.8059236916
 40
0.8561423062
 40
0.9049232932
 40
0.9527141853
 40
1.0
 40
1.0
 40
1.0
 40
1.0
 10
5.1452245941
 20
2.6558539648
 30
0.0
 10
5.1498795571
 20
2.657862392
 30
0.0
 10
5.156638221
 20
2.6610529349
 30
0.0
 10
5.1651937017
 20
2.6657607451
 30
0.0
 10
5.171084671
 20
2.6693494464
 30
0.0
 10
5.1765584274
 20
2.6730548383
 30
0.0
 10
5.1816026628
 20
2.6768682373
 30
0.0
 10
5.1862052249
 20
2.6807816079
 30
0.0
 10
5.1903557715
 20
2.6847856907
 30
0.0
 10
5.1940442904
 20
2.6888719745
 30
0.0
 10
5.1972617684
 20
2.6930315485
 30
0.0
 10
5.2000006027
 20
2.6972550018
 30
0.0
 10
5.2022527784
 20
2.7015335128
 30
0.0
 10
5.2040125623
 20
2.7058568567
 30
0.0
 10
5.2052739704
 20
2.7102152242
 30
0.0
 10
5.206032551
 20
2.7145967749
 30
0.0
 10
5.2062018634
 20
2.717532513
 30
0.0
 10
5.2062018634
 20
2.7189912342
 30
0.0
  0
SPLINE
  5
392
100
AcDbEntity
  8
0
100
AcDbSpline
 62
7
  6
CONTINUOUS
 70
0
 71
3
 72
22
 73
18
 74
0
 42
0.0000001
 43
0.0000001
 44
0.0000000001
 40
0.0
 40
0.0
 40
0.0
 40
0.0
 40
0.1637395266
 40
0.2410926011
 40
0.3153696423
 40
0.3865624907
 40
0.4546899298
 40
0.5198012054
 40
0.5819863185
 40
0.6413721286
 40
0.6981344603
 40
0.7524992544
 40
0.8047445923
 40
0.8552071596
 40
0.9042743584
 40
0.9523818082
 40
1.0
 40
1.0
 40
1.0
 40
1.0
 10
4.8379475736
 20
3.030683356
 30
0.0
 10
4.8334535279
 20
3.0326816321
 30
0.0
 10
4.8269312519
 20
3.0358500309
 30
0.0
 10
4.8186818123
 20
3.0405109205
 30
0.0
 10
4.813003583
 20
3.0440587246
 30
0.0
 10
4.8077294167
 20
3.0477166699
 30
0.0
 10
4.8028708594
 20
3.0514767999
 30
0.0
 10
4.798439133
 20
3.0553313674
 30
0.0
 10
4.7944437557
 20
3.059271567
 30
0.0
 10
4.7908941902
 20
3.0632894975
 30
0.0
 10
4.7877986013
 20
3.0673765197
 30
0.0
 10
4.7851641858
 20
3.0715238602
 30
0.0
 10
4.7829983511
 20
3.0757230893
 30
0.0
 10
4.7813063213
 20
3.0799645074
 30
0.0
 10
4.7800937405
 20
3.0842388713
 30
0.0
 10
4.7793645837
 20
3.0885349779
 30
0.0
 10
4.7792018634
 20
3.091412876
 30
0.0
 10
4.7792018634
 20
3.0928431963
 30
0.0
  0
SPLINE
  5
393
100
AcDbEntity
  8
0
100
AcDbSpline
 62
7
  6
CONTINUOUS
 70
0
 71
3
 72
21
 73
17
 74
0
 42
0.0000001
 43
0.0000001
 44
0.0000000001
 40
0.0
 40
0.0
 40
0.0
 40
0.0
 40
0.160837249
 40
0.2369300012
 40
0.3101181187
 40
0.4478295181
 40
0.5125165682
 40
0.574536905
 40
0.6340297053
 40
0.691175151
 40
0.7461914747
 40
0.7993425223
 40
0.8509356358
 40
0.9013168901
 40
0.9508691467
 40
1.0
 40
1.0
 40
1.0
 40
1.0
 10
4.8285568846
 20
2.9105285808
 30
0.0
 10
4.8247468938
 20
2.9124645769
 30
0.0
 10
4.8192277094
 20
2.9155100271
 30
0.0
 10
4.8122738592
 20
2.9199353665
 30
0.0
 10
4.8060267534
 20
2.9243113897
 30
0.0
 10
4.8003260414
 20
2.9289328181
 30
0.0
 10
4.7952670555
 20
2.9338134546
 30
0.0
 10
4.7919220635
 20
2.9374636764
 30
0.0
 10
4.788953808
 20
2.941173329
 30
0.0
 10
4.7863676084
 20
2.9449356061
 30
0.0
 10
4.7841691781
 20
2.9487440894
 30
0.0
 10
4.782363225
 20
2.9525918111
 30
0.0
 10
4.7809534511
 20
2.9564714069
 30
0.0
 10
4.7799440179
 20
2.960375778
 30
0.0
 10
4.7793371954
 20
2.9642963126
 30
0.0
 10
4.7792018634
 20
2.9669204055
 30
0.0
 10
4.7792018634
 20
2.9682258756
 30
0.0
  0
SPLINE
  5
394
100
AcDbEntity
  8
0
100
AcDbSpline
 62
7
  6
CONTINUOUS
 70
0
 71
3
 72
30
 73
26
 74
0
 42
0.0000001
 43
0.0000001
 44
0.0000000001
 40
0.0
 40
0.0
 40
0.0
 40
0.0
 40
0.0019021902
 40
0.0043447473
 40
0.0073299528
 40
0.01085838
 40
0.0149296116
 40
0.0195418922
 40
0.0303802895
 40
0.0433534604
 40
0.0584337759
 40
0.0755889474
 40
0.0947822435
 40
0.1159708998
 40
0.1391096279
 40
0.1910273118
 40
0.2500787802
 40
0.3157440523
 40
0.387444584
 40
0.4645480678
 40
0.5463747517
 40
0.6322024821
 40
0.721275457
 40
0.8128047108
 40
1.0
 40
1.0
 40
1.0
 40
1.0
 10
5.3067402469
 20
5.1622494682
 30
0.0
 10
5.3065473959
 20
5.1621994871
 30
0.0
 10
5.3061018605
 20
5.1621051594
 30
0.0
 10
5.3053445003
 20
5.1619791893
 30
0.0
 10
5.3044149714
 20
5.1618524533
 30
0.0
 10
5.3033136761
 20
5.161725125
 30
0.0
 10
5.3020410283
 20
5.1615974527
 30
0.0
 10
5.3000043771
 20
5.161417047
 30
0.0
 10
5.2970355163
 20
5.1611963544
 30
0.0
 10
5.2929701267
 20
5.1609422431
 30
0.0
 10
5.2882420976
 20
5.1606873448
 30
0.0
 10
5.2828618345
 20
5.1604318048
 30
0.0
 10
5.2768412033
 20
5.1601758832
 30
0.0
 10
5.2701934015
 20
5.1599196246
 30
0.0
 10
5.2601196113
 20
5.1595638817
 30
0.0
 10
5.246080853
 20
5.1591254067
 30
0.0
 10
5.2275883573
 20
5.1586157591
 30
0.0
 10
5.2070232621
 20
5.1581051495
 30
0.0
 10
5.1845670135
 20
5.1575937834
 30
0.0
 10
5.1604177348
 20
5.1570819111
 30
0.0
 10
5.1347885664
 20
5.1565696656
 30
0.0
 10
5.107905563
 20
5.1560571514
 30
0.0
 10
5.0800062051
 20
5.1555444455
 30
0.0
 10
5.0414917474
 20
5.154855525
 30
0.0
 10
5.0123044544
 20
5.1543471986
 30
0.0
 10
4.9927018634
 20
5.154005725
 30
0.0
  0
LINE
  5
395
100
AcDbEntity
  8
0
100
AcDbLine
 62
7
  6
CONTINUOUS
 10
5.2863413968
 20
5.1569611965
 11
5.286059871
 21
5.1568939367
  0
SPLINE
  5
396
100
AcDbEntity
  8
0
100
AcDbSpline
 62
7
  6
CONTINUOUS
 70
0
 71
3
 72
62
 73
58
 74
0
 42
0.0000001
 43
0.0000001
 44
0.0000000001
 40
0.0
 40
0.0
 40
0.0
 40
0.0
 40
0.0011685153
 40
0.002616593
 40
0.0043449046
 40
0.0063534573
 40
0.0112077711
 40
0.0171705876
 40
0.0242301903
 40
0.0323705284
 40
0.0415741565
 40
0.0518199562
 40
0.0630849549
 40
0.0753437508
 40
0.1027286325
 40
0.1337256522
 40
0.1680526347
 40
0.205396931
 40
0.2454182419
 40
0.2877516929
 40
0.3320113524
 40
0.3777936162
 40
0.424681087
 40
0.4722462596
 40
0.5200553455
 40
0.5676724835
 40
0.6146633145
 40
0.6605994686
 40
0.7050620543
 40
0.7476457026
 40
0.7879622418
 40
0.8256440536
 40
0.8603477436
 40
0.891757087
 40
0.906135845
 40
0.9195862079
 40
0.9320779272
 40
0.9435820758
 40
0.954073224
 40
0.9635270546
 40
0.9719227537
 40
0.9792414289
 40
0.9854669314
 40
0.9905865754
 40
0.9927282706
 40
0.9945901853
 40
0.9961720014
 40
0.997473814
 40
0.9980200093
 40
0.998496722
 40
0.9989045073
 40
0.9992442962
 40
0.9995177342
 40
0.9997280542
 40
0.9998117267
 40
0.9998830757
 40
1.0
 40
1.0
 40
1.0
 40
1.0
 10
5.286059871
 20
5.1568939367
 30
0.0
 10
5.285836181
 20
5.1568443803
 30
0.0
 10
5.2853317933
 20
5.1567493106
 30
0.0
 10
5.2844895805
 20
5.1566206144
 30
0.0
 10
5.283481129
 20
5.1564913133
 30
0.0
 10
5.2818067482
 20
5.1563065023
 30
0.0
 10
5.2793018035
 20
5.1560819939
 30
0.0
 10
5.2758060777
 20
5.1558244293
 30
0.0
 10
5.271664637
 20
5.1555658815
 30
0.0
 10
5.2668867764
 20
5.1553064215
 30
0.0
 10
5.261483407
 20
5.1550464833
 30
0.0
 10
5.2554667684
 20
5.1547861489
 30
0.0
 10
5.2488506016
 20
5.1545255336
 30
0.0
 10
5.2388753421
 20
5.1541643104
 30
0.0
 10
5.2250317683
 20
5.153718792
 30
0.0
 10
5.2068614854
 20
5.1532004391
 30
0.0
 10
5.1867377483
 20
5.152681169
 30
0.0
 10
5.1648440815
 20
5.1521611765
 30
0.0
 10
5.1413801688
 20
5.1516407004
 30
0.0
 10
5.1165600397
 20
5.1511198676
 30
0.0
 10
5.090610116
 20
5.1505987811
 30
0.0
 10
5.0637671057
 20
5.150077515
 30
0.0
 10
5.0362758592
 20
5.1495561296
 30
0.0
 10
5.0083871403
 20
5.149034675
 30
0.0
 10
4.9803553294
 20
5.1485131963
 30
0.0
 10
4.9524361503
 20
5.1479917368
 30
0.0
 10
4.9248842645
 20
5.1474703407
 30
0.0
 10
4.8979510097
 20
5.1469490576
 30
0.0
 10
4.8718820442
 20
5.1464279455
 30
0.0
 10
4.8469151528
 20
5.1459070789
 30
0.0
 10
4.8232780794
 20
5.1453865491
 30
0.0
 10
4.8011864325
 20
5.1448665064
 30
0.0
 10
4.7808417462
 20
5.1443470844
 30
0.0
 10
4.7650657511
 20
5.1439029799
 30
0.0
 10
4.7534562617
 20
5.1435441758
 30
0.0
 10
4.745554762
 20
5.1432831673
 30
0.0
 10
4.7382172166
 20
5.1430223317
 30
0.0
 10
4.7314602795
 20
5.1427616637
 30
0.0
 10
4.7252994585
 20
5.1425012712
 30
0.0
 10
4.7197486984
 20
5.142241211
 30
0.0
 10
4.7148207088
 20
5.1419816285
 30
0.0
 10
4.710526634
 20
5.1417228344
 30
0.0
 10
4.7068762092
 20
5.1414649431
 30
0.0
 10
4.7042411674
 20
5.1412404851
 30
0.0
 10
4.70246182
 20
5.141056189
 30
0.0
 10
4.7013742931
 20
5.1409266781
 30
0.0
 10
4.7004527495
 20
5.1407976291
 30
0.0
 10
4.6997895229
 20
5.1406852678
 30
0.0
 10
4.6993430652
 20
5.1405931536
 30
0.0
 10
4.6990700848
 20
5.1405283022
 30
0.0
 10
4.6988388395
 20
5.1404636391
 30
0.0
 10
4.6986490908
 20
5.1403992622
 30
0.0
 10
4.6985007368
 20
5.1403351308
 30
0.0
 10
4.6984042453
 20
5.1402784241
 30
0.0
 10
4.6983500224
 20
5.140231121
 30
0.0
 10
4.6983158211
 20
5.1401902258
 30
0.0
 10
4.6983019439
 20
5.1401532828
 30
0.0
 10
4.6983019304
 20
5.1401303572
 30
0.0
  0
SPLINE
  5
397
100
AcDbEntity
  8
0
100
AcDbSpline
 62
7
  6
CONTINUOUS
 70
0
 71
3
 72
22
 73
18
 74
0
 42
0.0000001
 43
0.0000001
 44
0.0000000001
 40
0.0
 40
0.0
 40
0.0
 40
0.0
 40
0.1643410082
 40
0.2419615004
 40
0.3164745658
 40
0.3878636073
 40
0.4561423181
 40
0.5213536247
 40
0.5835829204
 40
0.6429543764
 40
0.6996413794
 40
0.7538708999
 40
0.8059236916
 40
0.8561423062
 40
0.9049232932
 40
0.9527141853
 40
1.0
 40
1.0
 40
1.0
 40
1.0
 10
4.8401791326
 20
2.7804712855
 30
0.0
 10
4.8355241696
 20
2.7824797127
 30
0.0
 10
4.8287655057
 20
2.7856702556
 30
0.0
 10
4.820210025
 20
2.7903780658
 30
0.0
 10
4.8143190557
 20
2.7939667671
 30
0.0
 10
4.8088452993
 20
2.7976721591
 30
0.0
 10
4.8038010639
 20
2.801485558
 30
0.0
 10
4.7991985019
 20
2.8053989286
 30
0.0
 10
4.7950479552
 20
2.8094030114
 30
0.0
 10
4.7913594363
 20
2.8134892952
 30
0.0
 10
4.7881419583
 20
2.8176488692
 30
0.0
 10
4.785403124
 20
2.8218723225
 30
0.0
 10
4.7831509483
 20
2.8261508335
 30
0.0
 10
4.7813911644
 20
2.8304741774
 30
0.0
 10
4.7801297563
 20
2.8348325449
 30
0.0
 10
4.7793711757
 20
2.8392140956
 30
0.0
 10
4.7792018634
 20
2.8421498338
 30
0.0
 10
4.7792018634
 20
2.8436085549
 30
0.0
  0
SPLINE
  5
398
100
AcDbEntity
  8
0
100
AcDbSpline
 62
7
  6
CONTINUOUS
 70
0
 71
3
 72
30
 73
26
 74
0
 42
0.0000001
 43
0.0000001
 44
0.0000000001
 40
0.0
 40
0.0
 40
0.0
 40
0.0
 40
0.0019021902
 40
0.0043447473
 40
0.0073299528
 40
0.01085838
 40
0.0149296116
 40
0.0195418922
 40
0.0303802895
 40
0.0433534604
 40
0.0584337759
 40
0.0755889474
 40
0.0947822435
 40
0.1159708998
 40
0.1391096279
 40
0.1910273118
 40
0.2500787802
 40
0.3157440523
 40
0.387444584
 40
0.4645480678
 40
0.5463747517
 40
0.6322024821
 40
0.721275457
 40
0.8128047108
 40
1.0
 40
1.0
 40
1.0
 40
1.0
 10
5.3067402469
 20
5.1966994682
 30
0.0
 10
5.3065473959
 20
5.1966494871
 30
0.0
 10
5.3061018605
 20
5.1965551594
 30
0.0
 10
5.3053445003
 20
5.1964291893
 30
0.0
 10
5.3044149714
 20
5.1963024533
 30
0.0
 10
5.3033136761
 20
5.196175125
 30
0.0
 10
5.3020410283
 20
5.1960474527
 30
0.0
 10
5.3000043771
 20
5.195867047
 30
0.0
 10
5.2970355163
 20
5.1956463544
 30
0.0
 10
5.2929701267
 20
5.1953922431
 30
0.0
 10
5.2882420976
 20
5.1951373448
 30
0.0
 10
5.2828618345
 20
5.1948818048
 30
0.0
 10
5.2768412033
 20
5.1946258832
 30
0.0
 10
5.2701934015
 20
5.1943696246
 30
0.0
 10
5.2601196113
 20
5.1940138817
 30
0.0
 10
5.246080853
 20
5.1935754067
 30
0.0
 10
5.2275883573
 20
5.1930657591
 30
0.0
 10
5.2070232621
 20
5.1925551495
 30
0.0
 10
5.1845670135
 20
5.1920437834
 30
0.0
 10
5.1604177348
 20
5.1915319111
 30
0.0
 10
5.1347885664
 20
5.1910196656
 30
0.0
 10
5.107905563
 20
5.1905071514
 30
0.0
 10
5.0800062051
 20
5.1899944455
 30
0.0
 10
5.0414917474
 20
5.189305525
 30
0.0
 10
5.0123044544
 20
5.1887971986
 30
0.0
 10
4.9927018634
 20
5.188455725
 30
0.0
  0
LINE
  5
399
100
AcDbEntity
  8
0
100
AcDbLine
 62
7
  6
CONTINUOUS
 10
5.28634143
 20
5.1914111966
 11
5.2860186826
 21
5.1913348793
  0
SPLINE
  5
39A
100
AcDbEntity
  8
0
100
AcDbSpline
 62
7
  6
CONTINUOUS
 70
0
 71
3
 72
62
 73
58
 74
0
 42
0.0000001
 43
0.0000001
 44
0.0000000001
 40
0.0
 40
0.0
 40
0.0
 40
0.0
 40
0.001187238
 40
0.0026539676
 40
0.0044005441
 40
0.0064267733
 40
0.0113157709
 40
0.0173120004
 40
0.0244030233
 40
0.0325737366
 40
0.0418054399
 40
0.0520780926
 40
0.0633678846
 40
0.0756497559
 40
0.1030752804
 40
0.1341056223
 40
0.1684586995
 40
0.2058217374
 40
0.2458546475
 40
0.2881928507
 40
0.3324507979
 40
0.3782254773
 40
0.4250998961
 40
0.4726471636
 40
0.5204340931
 40
0.5680254176
 40
0.6149876724
 40
0.6608930892
 40
0.7053235589
 40
0.7478744153
 40
0.7881580422
 40
0.8258077192
 40
0.8604806729
 40
0.8918614199
 40
0.9062268917
 40
0.9196646025
 40
0.9321442454
 40
0.943637581
 40
0.9541182605
 40
0.9635631617
 40
0.9719503771
 40
0.9792618939
 40
0.985481248
 40
0.990595599
 40
0.9927353904
 40
0.99459552
 40
0.9961755931
 40
0.9974759574
 40
0.9980216202
 40
0.9984979534
 40
0.9989054649
 40
0.9992450257
 40
0.9995182312
 40
0.999728325
 40
0.9998118998
 40
0.9998831683
 40
1.0
 40
1.0
 40
1.0
 40
1.0
 10
5.2860186826
 20
5.1913348793
 30
0.0
 10
5.2857912233
 20
5.1912854507
 30
0.0
 10
5.2852794043
 20
5.1911905192
 30
0.0
 10
5.2844262176
 20
5.1910618482
 30
0.0
 10
5.2834070479
 20
5.190932585
 30
0.0
 10
5.2817188426
 20
5.1907479323
 30
0.0
 10
5.2791971887
 20
5.1905235609
 30
0.0
 10
5.2756821445
 20
5.1902660975
 30
0.0
 10
5.2715222957
 20
5.1900076259
 30
0.0
 10
5.2667271252
 20
5.1897483142
 30
0.0
 10
5.2613073958
 20
5.1894884734
 30
0.0
 10
5.2552755383
 20
5.1892282875
 30
0.0
 10
5.2486451804
 20
5.1889677956
 30
0.0
 10
5.2386532633
 20
5.1886068131
 30
0.0
 10
5.2247916393
 20
5.188161552
 30
0.0
 10
5.2066030268
 20
5.1876434583
 30
0.0
 10
5.1864653972
 20
5.1871244535
 30
0.0
 10
5.164562226
 20
5.186604731
 30
0.0
 10
5.1410931075
 20
5.1860845271
 30
0.0
 10
5.1162718812
 20
5.1855639686
 30
0.0
 10
5.0903247033
 20
5.1850431581
 30
0.0
 10
5.0634879942
 20
5.1845221693
 30
0.0
 10
5.0360062708
 20
5.1840010622
 30
0.0
 10
5.0081299609
 20
5.1834798866
 30
0.0
 10
4.9801130717
 20
5.182958687
 30
0.0
 10
4.9522108987
 20
5.1824375067
 30
0.0
 10
4.9246776754
 20
5.1819163902
 30
0.0
 10
4.8977642747
 20
5.1813953872
 30
0.0
 10
4.8717159281
 20
5.1808745554
 30
0.0
 10
4.8467700032
 20
5.1803539693
 30
0.0
 10
4.823153805
 20
5.179833719
 30
0.0
 10
4.8010825196
 20
5.1793139554
 30
0.0
 10
4.7807572238
 20
5.1787948127
 30
0.0
 10
4.7649965966
 20
5.1783509445
 30
0.0
 10
4.753398631
 20
5.1779923324
 30
0.0
 10
4.7455051505
 20
5.1777314687
 30
0.0
 10
4.7381750995
 20
5.1774707623
 30
0.0
 10
4.7314251861
 20
5.177210254
 30
0.0
 10
4.7252707308
 20
5.1769499783
 30
0.0
 10
4.7197258342
 20
5.1766900823
 30
0.0
 10
4.7148030163
 20
5.1764306223
 30
0.0
 10
4.7105135217
 20
5.1761719723
 30
0.0
 10
4.7068670043
 20
5.1759142358
 30
0.0
 10
4.7042347714
 20
5.1756898649
 30
0.0
 10
4.7024573105
 20
5.1755056928
 30
0.0
 10
4.701370926
 20
5.1753762576
 30
0.0
 10
4.7004504261
 20
5.17524727
 30
0.0
 10
4.6997879802
 20
5.1751349607
 30
0.0
 10
4.699342018
 20
5.175042897
 30
0.0
 10
4.6990692886
 20
5.1749780826
 30
0.0
 10
4.69883823
 20
5.1749134582
 30
0.0
 10
4.6986486344
 20
5.1748491222
 30
0.0
 10
4.6985004236
 20
5.1747850277
 30
0.0
 10
4.6984040508
 20
5.1747283468
 30
0.0
 10
4.6983499205
 20
5.1746810661
 30
0.0
 10
4.6983157881
 20
5.1746401854
 30
0.0
 10
4.6983019687
 20
5.1746032629
 30
0.0
 10
4.6983019753
 20
5.1745803571
 30
0.0
  0
SPLINE
  5
39B
100
AcDbEntity
  8
0
100
AcDbSpline
 62
7
  6
CONTINUOUS
 70
0
 71
3
 72
23
 73
19
 74
0
 42
0.0000001
 43
0.0000001
 44
0.0000000001
 40
0.0
 40
0.0
 40
0.0
 40
0.0
 40
0.1517232674
 40
0.2263387982
 40
0.2997211529
 40
0.3715800547
 40
0.4416275573
 40
0.5095916829
 40
0.5752193454
 40
0.6382809644
 40
0.6985809009
 40
0.7559706552
 40
0.8103648321
 40
0.861764767
 40
0.9102883652
 40
0.9562051717
 40
0.9783334883
 40
1.0
 40
1.0
 40
1.0
 40
1.0
 10
4.9788872123
 20
3.9371428571
 30
0.0
 10
4.9700279837
 20
3.9286281946
 30
0.0
 10
4.9568483309
 20
3.9158873935
 30
0.0
 10
4.9396278088
 20
3.8987795195
 30
0.0
 10
4.9271529954
 20
3.8860737137
 30
0.0
 10
4.9151390534
 20
3.8734365519
 30
0.0
 10
4.9036784653
 20
3.8608829164
 30
0.0
 10
4.8928640082
 20
3.8484287663
 30
0.0
 10
4.882788552
 20
3.8360907191
 30
0.0
 10
4.8735451658
 20
3.8238862738
 30
0.0
 10
4.8652267891
 20
3.8118340404
 30
0.0
 10
4.8579263455
 20
3.7999533759
 30
0.0
 10
4.8517364211
 20
3.7882647393
 30
0.0
 10
4.8467493013
 20
3.776788727
 30
0.0
 10
4.8430579689
 20
3.7655491501
 30
0.0
 10
4.8411166546
 20
3.7562839438
 30
0.0
 10
4.8403354318
 20
3.7490558634
 30
0.0
 10
4.8402018674
 20
3.7455077937
 30
0.0
 10
4.8402018902
 20
3.743753088
 30
0.0
  0
SPLINE
  5
39C
100
AcDbEntity
  8
0
100
AcDbSpline
 62
7
  6
CONTINUOUS
 70
0
 71
3
 72
30
 73
26
 74
0
 42
0.0000001
 43
0.0000001
 44
0.0000000001
 40
0.0
 40
0.0
 40
0.0
 40
0.0
 40
0.0019021902
 40
0.0043447473
 40
0.0073299528
 40
0.01085838
 40
0.0149296116
 40
0.0195418922
 40
0.0303802895
 40
0.0433534604
 40
0.0584337759
 40
0.0755889474
 40
0.0947822435
 40
0.1159708998
 40
0.1391096279
 40
0.1910273118
 40
0.2500787802
 40
0.3157440523
 40
0.387444584
 40
0.4645480678
 40
0.5463747517
 40
0.6322024821
 40
0.721275457
 40
0.8128047108
 40
1.0
 40
1.0
 40
1.0
 40
1.0
 10
5.3067402469
 20
5.2311494682
 30
0.0
 10
5.3065473959
 20
5.2310994871
 30
0.0
 10
5.3061018605
 20
5.2310051594
 30
0.0
 10
5.3053445003
 20
5.2308791893
 30
0.0
 10
5.3044149714
 20
5.2307524533
 30
0.0
 10
5.3033136761
 20
5.230625125
 30
0.0
 10
5.3020410283
 20
5.2304974527
 30
0.0
 10
5.3000043771
 20
5.230317047
 30
0.0
 10
5.2970355163
 20
5.2300963544
 30
0.0
 10
5.2929701267
 20
5.2298422431
 30
0.0
 10
5.2882420976
 20
5.2295873448
 30
0.0
 10
5.2828618345
 20
5.2293318048
 30
0.0
 10
5.2768412033
 20
5.2290758832
 30
0.0
 10
5.2701934015
 20
5.2288196246
 30
0.0
 10
5.2601196113
 20
5.2284638817
 30
0.0
 10
5.246080853
 20
5.2280254067
 30
0.0
 10
5.2275883573
 20
5.2275157591
 30
0.0
 10
5.2070232621
 20
5.2270051495
 30
0.0
 10
5.1845670135
 20
5.2264937834
 30
0.0
 10
5.1604177348
 20
5.2259819111
 30
0.0
 10
5.1347885664
 20
5.2254696656
 30
0.0
 10
5.107905563
 20
5.2249571514
 30
0.0
 10
5.0800062051
 20
5.2244444455
 30
0.0
 10
5.0414917474
 20
5.223755525
 30
0.0
 10
5.0123044544
 20
5.2232471986
 30
0.0
 10
4.9927018634
 20
5.222905725
 30
0.0
  0
LINE
  5
39D
100
AcDbEntity
  8
0
100
AcDbLine
 62
7
  6
CONTINUOUS
 10
5.2863413367
 20
5.2258611966
 11
5.2859755992
 21
5.2257756277
  0
SPLINE
  5
39E
100
AcDbEntity
  8
0
100
AcDbSpline
 62
7
  6
CONTINUOUS
 70
0
 71
3
 72
62
 73
58
 74
0
 42
0.0000001
 43
0.0000001
 44
0.0000000001
 40
0.0
 40
0.0
 40
0.0
 40
0.0
 40
0.0012060892
 40
0.0026915476
 40
0.004456825
 40
0.0065014649
 40
0.0114256175
 40
0.0174559211
 40
0.0245792572
 40
0.0327805095
 40
0.0420414038
 40
0.0523409497
 40
0.0636564112
 40
0.075961596
 40
0.10342877
 40
0.1344932136
 40
0.1688726931
 40
0.2062547167
 40
0.2462993573
 40
0.2886424147
 40
0.3328987743
 40
0.3786656983
 40
0.4255268521
 40
0.4730557789
 40
0.5208200813
 40
0.5683852032
 40
0.6153182832
 40
0.6611923883
 40
0.7055899921
 40
0.7481072886
 40
0.7883574863
 40
0.8259745036
 40
0.8606163057
 40
0.8919679023
 40
0.9063194518
 40
0.9197444571
 40
0.9322118638
 40
0.9436939029
 40
0.954164345
 40
0.9635995569
 40
0.9719786795
 40
0.9792825212
 40
0.9854958163
 40
0.9906048435
 40
0.9927423039
 40
0.9946006472
 40
0.9961793329
 40
0.9974783383
 40
0.9980233589
 40
0.9984991184
 40
0.9989061569
 40
0.9992453761
 40
0.999518392
 40
0.9997284081
 40
0.999811964
 40
0.999883216
 40
1.0
 40
1.0
 40
1.0
 40
1.0
 10
5.2859755992
 20
5.2257756277
 30
0.0
 10
5.2857443478
 20
5.225726337
 30
0.0
 10
5.2852250663
 20
5.2256315287
 30
0.0
 10
5.2843607867
 20
5.2255028747
 30
0.0
 10
5.2833306579
 20
5.2253736578
 30
0.0
 10
5.2816283086
 20
5.2251892091
 30
0.0
 10
5.2790895944
 20
5.2249649269
 30
0.0
 10
5.2755548465
 20
5.2247075821
 30
0.0
 10
5.2713762675
 20
5.2244492087
 30
0.0
 10
5.2665633801
 20
5.2241900099
 30
0.0
 10
5.2611270492
 20
5.2239303148
 30
0.0
 10
5.255079597
 20
5.2236702388
 30
0.0
 10
5.2484348435
 20
5.2234099028
 30
0.0
 10
5.2384258875
 20
5.2230491433
 30
0.0
 10
5.2245458619
 20
5.2226041617
 30
0.0
 10
5.2063385693
 20
5.2220863284
 30
0.0
 10
5.1861868517
 20
5.2215675943
 30
0.0
 10
5.1642741126
 20
5.2210481466
 30
0.0
 10
5.1407997695
 20
5.2205282209
 30
0.0
 10
5.1159774542
 20
5.220007943
 30
0.0
 10
5.0900330927
 20
5.219487415
 30
0.0
 10
5.0632028193
 20
5.2189667098
 30
0.0
 10
5.035730865
 20
5.2184458868
 30
0.0
 10
5.0078672697
 20
5.2179249955
 30
0.0
 10
4.9798656424
 20
5.217404081
 30
0.0
 10
4.951980847
 20
5.2168831863
 30
0.0
 10
4.9244666766
 20
5.2163623558
 30
0.0
 10
4.8975735889
 20
5.2158416389
 30
0.0
 10
4.8715463506
 20
5.2153210928
 30
0.0
 10
4.8466218669
 20
5.2148007921
 30
0.0
 10
4.8230269702
 20
5.2142808276
 30
0.0
 10
4.8009763988
 20
5.2137613507
 30
0.0
 10
4.7806708477
 20
5.2132424912
 30
0.0
 10
4.7649259502
 20
5.212798874
 30
0.0
 10
4.7533397877
 20
5.2124404438
 30
0.0
 10
4.7454545163
 20
5.2121797349
 30
0.0
 10
4.7381321182
 20
5.2119191667
 30
0.0
 10
4.7313893305
 20
5.2116587987
 30
0.0
 10
4.7252414563
 20
5.2113986807
 30
0.0
 10
4.7197024689
 20
5.211138904
 30
0.0
 10
4.7147850086
 20
5.2108796185
 30
0.0
 10
4.7105001163
 20
5.2106210787
 30
0.0
 10
4.7068576069
 20
5.2103635081
 30
0.0
 10
4.7042282597
 20
5.2101392611
 30
0.0
 10
4.7024527853
 20
5.2099551736
 30
0.0
 10
4.7013675615
 20
5.209825811
 30
0.0
 10
4.7004480164
 20
5.2096969138
 30
0.0
 10
4.6997862851
 20
5.2095846625
 30
0.0
 10
4.699340864
 20
5.2094926429
 30
0.0
 10
4.6990684885
 20
5.2094278619
 30
0.0
 10
4.698837722
 20
5.2093632699
 30
0.0
 10
4.6986483403
 20
5.2092989639
 30
0.0
 10
4.6985002585
 20
5.2092349037
 30
0.0
 10
4.6984039404
 20
5.2091782607
 30
0.0
 10
4.6983498207
 20
5.2091310103
 30
0.0
 10
4.6983156881
 20
5.2090901572
 30
0.0
 10
4.6983018619
 20
5.2090532519
 30
0.0
 10
4.6983018683
 20
5.2090303571
 30
0.0
  0
SPLINE
  5
39F
100
AcDbEntity
  8
0
100
AcDbSpline
 62
7
  6
CONTINUOUS
 70
0
 71
3
 72
30
 73
26
 74
0
 42
0.0000001
 43
0.0000001
 44
0.0000000001
 40
0.0
 40
0.0
 40
0.0
 40
0.0
 40
0.0019022053
 40
0.0043446701
 40
0.0073297942
 40
0.010858268
 40
0.0149295476
 40
0.0195417892
 40
0.0303801545
 40
0.0433534689
 40
0.0584336936
 40
0.0755889777
 40
0.0947822023
 40
0.1159709168
 40
0.139109667
 40
0.1910273927
 40
0.250078859
 40
0.3157441446
 40
0.3874446298
 40
0.4645481169
 40
0.5463748055
 40
0.6322025234
 40
0.7212755231
 40
0.8128046809
 40
1.0
 40
1.0
 40
1.0
 40
1.0
 10
5.3067401863
 20
5.2655994683
 30
0.0
 10
5.3065473328
 20
5.2655494908
 30
0.0
 10
5.3061018062
 20
5.2654551626
 30
0.0
 10
5.3053444635
 20
5.2653291886
 30
0.0
 10
5.3044149487
 20
5.2652024486
 30
0.0
 10
5.303313652
 20
5.2650751225
 30
0.0
 10
5.3020409985
 20
5.2649474507
 30
0.0
 10
5.3000043503
 20
5.2647670427
 30
0.0
 10
5.2970354824
 20
5.2645463501
 30
0.0
 10
5.2929700912
 20
5.2642922444
 30
0.0
 10
5.2882420459
 20
5.2640373398
 30
0.0
 10
5.2828617889
 20
5.2637818048
 30
0.0
 10
5.2768411485
 20
5.2635258797
 30
0.0
 10
5.2701933469
 20
5.2632696233
 30
0.0
 10
5.2601195459
 20
5.2629138794
 30
0.0
 10
5.2460807839
 20
5.2624754051
 30
0.0
 10
5.2275882861
 20
5.2619657576
 30
0.0
 10
5.2070231985
 20
5.2614551481
 30
0.0
 10
5.1845669574
 20
5.260943782
 30
0.0
 10
5.1604176872
 20
5.2604319101
 30
0.0
 10
5.1347885242
 20
5.2599196648
 30
0.0
 10
5.1079055241
 20
5.2594071507
 30
0.0
 10
5.0800061803
 20
5.2588944451
 30
0.0
 10
5.0414917343
 20
5.2582055248
 30
0.0
 10
5.0123044538
 20
5.2576971985
 30
0.0
 10
4.9927018634
 20
5.257355725
 30
0.0
  0
LINE
  5
3A0
100
AcDbEntity
  8
0
100
AcDbLine
 62
7
  6
CONTINUOUS
 10
5.2863413739
 20
5.2603111966
 11
5.285931664
 21
5.2602163649
  0
SPLINE
  5
3A1
100
AcDbEntity
  8
0
100
AcDbSpline
 62
7
  6
CONTINUOUS
 70
0
 71
3
 72
62
 73
58
 74
0
 42
0.0000001
 43
0.0000001
 44
0.0000000001
 40
0.0
 40
0.0
 40
0.0
 40
0.0
 40
0.0012253258
 40
0.0027295398
 40
0.0045131333
 40
0.0065760177
 40
0.0115358961
 40
0.0175998141
 40
0.0247557781
 40
0.0329875213
 40
0.0422774163
 40
0.0526042389
 40
0.0639448983
 40
0.0762739191
 40
0.1037825413
 40
0.1348808695
 40
0.1692867541
 40
0.2066877756
 40
0.2467443253
 40
0.2890923238
 40
0.3333470036
 40
0.3791061516
 40
0.4259539119
 40
0.4734645715
 40
0.5212062815
 40
0.5687451333
 40
0.6156490495
 40
0.6614917134
 40
0.7058565637
 40
0.7483404315
 40
0.788557247
 40
0.8261416457
 40
0.8607520748
 40
0.8920743658
 40
0.9064124833
 40
0.9198242897
 40
0.9322798518
 40
0.9437503803
 40
0.954210592
 40
0.9636363838
 40
0.972006935
 40
0.9793036519
 40
0.9855103276
 40
0.9906144946
 40
0.9927497225
 40
0.9946059792
 40
0.9961829855
 40
0.9974808754
 40
0.9980254539
 40
0.9985007723
 40
0.9989073664
 40
0.9992461707
 40
0.9995188348
 40
0.9997285943
 40
0.9998120655
 40
0.9998832629
 40
1.0
 40
1.0
 40
1.0
 40
1.0
 10
5.285931664
 20
5.2602163649
 30
0.0
 10
5.2856965489
 20
5.2601672078
 30
0.0
 10
5.2851697244
 20
5.260072545
 30
0.0
 10
5.2842943548
 20
5.2599438994
 30
0.0
 10
5.2832533788
 20
5.2598147018
 30
0.0
 10
5.2815368892
 20
5.2596304454
 30
0.0
 10
5.2789811276
 20
5.2594063152
 30
0.0
 10
5.2754266071
 20
5.2591490236
 30
0.0
 10
5.2712293428
 20
5.258890791
 30
0.0
 10
5.2663987356
 20
5.2586316912
 30
0.0
 10
5.2609457868
 20
5.258372132
 30
0.0
 10
5.254882806
 20
5.2581121929
 30
0.0
 10
5.2482235861
 20
5.257851981
 30
0.0
 10
5.2381976387
 20
5.2574914789
 30
0.0
 10
5.224299218
 20
5.2570467529
 30
0.0
 10
5.2060733596
 20
5.256529187
 30
0.0
 10
5.1859076293
 20
5.2560107224
 30
0.0
 10
5.1639853222
 20
5.2554915508
 30
0.0
 10
5.1405057398
 20
5.2549719046
 30
0.0
 10
5.115682343
 20
5.2544519082
 30
0.0
 10
5.0897408456
 20
5.2539316627
 30
0.0
 10
5.062917099
 20
5.2534112409
 30
0.0
 10
5.0354549728
 20
5.2528907022
 30
0.0
 10
5.0076041404
 20
5.2523700963
 30
0.0
 10
4.9796178113
 20
5.2518494676
 30
0.0
 10
4.9517504415
 20
5.251328859
 30
0.0
 10
4.9242554033
 20
5.2508083146
 30
0.0
 10
4.8973826715
 20
5.2502878837
 30
0.0
 10
4.8713765592
 20
5.249767624
 30
0.0
 10
4.8464734979
 20
5.2492476101
 30
0.0
 10
4.8228998956
 20
5.2487279324
 30
0.0
 10
4.8008700977
 20
5.2482087416
 30
0.0
 10
4.7805843878
 20
5.2476901707
 30
0.0
 10
4.7648552222
 20
5.2472467852
 30
0.0
 10
4.7532809103
 20
5.2468885653
 30
0.0
 10
4.7454037848
 20
5.2466279845
 30
0.0
 10
4.7380891117
 20
5.2463675783
 30
0.0
 10
4.731353424
 20
5.2461073391
 30
0.0
 10
4.7252121282
 20
5.2458473725
 30
0.0
 10
4.7196790967
 20
5.2455877431
 30
0.0
 10
4.7147669374
 20
5.2453285829
 30
0.0
 10
4.7104867455
 20
5.2450702187
 30
0.0
 10
4.7068481653
 20
5.2448127476
 30
0.0
 10
4.7042217049
 20
5.2445886579
 30
0.0
 10
4.7024481666
 20
5.2444046673
 30
0.0
 10
4.7013642035
 20
5.2442753681
 30
0.0
 10
4.7004456883
 20
5.2441465299
 30
0.0
 10
4.6997846405
 20
5.2440343519
 30
0.0
 10
4.6993396429
 20
5.2439423909
 30
0.0
 10
4.6990675478
 20
5.2438776475
 30
0.0
 10
4.6988370551
 20
5.2438130902
 30
0.0
 10
4.6986479289
 20
5.2437488177
 30
0.0
 10
4.6985000645
 20
5.2436847898
 30
0.0
 10
4.6984038987
 20
5.2436281732
 30
0.0
 10
4.6983498653
 20
5.2435809512
 30
0.0
 10
4.6983157769
 20
5.2435401135
 30
0.0
 10
4.6983019582
 20
5.243503241
 30
0.0
 10
4.6983019458
 20
5.2434803572
 30
0.0
  0
SPLINE
  5
3A2
100
AcDbEntity
  8
0
100
AcDbSpline
 62
7
  6
CONTINUOUS
 70
0
 71
3
 72
11
 73
7
 74
0
 42
0.0000001
 43
0.0000001
 44
0.0000000001
 40
0.0
 40
0.0
 40
0.0
 40
0.0
 40
0.2756819972
 40
0.5344203071
 40
0.7758571359
 40
1.0
 40
1.0
 40
1.0
 40
1.0
 10
4.8401953956
 20
3.7060458594
 30
0.0
 10
4.8362880558
 20
3.7077313194
 30
0.0
 10
4.8288038279
 20
3.7112150166
 30
0.0
 10
4.8182946441
 20
3.7169782338
 30
0.0
 10
4.8089138178
 20
3.7230816286
 30
0.0
 10
4.8032431378
 20
3.7275171857
 30
0.0
 10
4.8006337098
 20
3.7297890124
 30
0.0
  0
SPLINE
  5
3A3
100
AcDbEntity
  8
0
100
AcDbSpline
 62
7
  6
CONTINUOUS
 70
0
 71
3
 72
50
 73
46
 74
0
 42
0.0000001
 43
0.0000001
 44
0.0000000001
 40
0.0
 40
0.0
 40
0.0
 40
0.0
 40
0.0009936717
 40
0.0022504922
 40
0.0037715943
 40
0.0055573136
 40
0.0076074071
 40
0.0099209934
 40
0.0153342766
 40
0.0217876215
 40
0.0292676513
 40
0.0377588515
 40
0.0472436382
 40
0.057701345
 40
0.0691103146
 40
0.0946812287
 40
0.1237376612
 40
0.1560305801
 40
0.1912829944
 40
0.2291922385
 40
0.2694328825
 40
0.3116594601
 40
0.3555093885
 40
0.400606147
 40
0.4929835076
 40
0.5856248923
 40
0.6753547202
 40
0.7181597167
 40
0.7590971115
 40
0.797815388
 40
0.8339821811
 40
0.8672871104
 40
0.897444281
 40
0.9241951329
 40
0.9473105845
 40
0.9574422737
 40
0.9665934114
 40
0.9747451869
 40
0.9818798205
 40
0.9879832042
 40
0.9930433048
 40
0.9951789993
 40
0.9970506805
 40
0.9986577693
 40
1.0
 40
1.0
 40
1.0
 40
1.0
 10
5.2863414044
 20
5.5359111965
 30
0.0
 10
5.2861532581
 20
5.5358624198
 30
0.0
 10
5.2857226118
 20
5.5357696595
 30
0.0
 10
5.2849953825
 20
5.5356451004
 30
0.0
 10
5.2841114363
 20
5.5355198687
 30
0.0
 10
5.2830711286
 20
5.5353941332
 30
0.0
 10
5.2818748658
 20
5.5352680874
 30
0.0
 10
5.2799707033
 20
5.5350902867
 30
0.0
 10
5.2772054261
 20
5.5348725596
 30
0.0
 10
5.2734294147
 20
5.5346216993
 30
0.0
 10
5.2690502539
 20
5.5343700966
 30
0.0
 10
5.264077321
 20
5.5341178922
 30
0.0
 10
5.2585212955
 20
5.5338653297
 30
0.0
 10
5.2523940279
 20
5.5336124431
 30
0.0
 10
5.2431216718
 20
5.5332615304
 30
0.0
 10
5.2302118992
 20
5.5328288913
 30
0.0
 10
5.2132173673
 20
5.5323259203
 30
0.0
 10
5.1943283801
 20
5.5318220208
 30
0.0
 10
5.1737072108
 20
5.5313173893
 30
0.0
 10
5.1515310175
 20
5.5308122659
 30
0.0
 10
5.127990328
 20
5.5303067782
 30
0.0
 10
5.1032873694
 20
5.52980103
 30
0.0
 10
5.0776343491
 20
5.5292950869
 30
0.0
 10
5.0421731726
 20
5.5286148979
 30
0.0
 10
4.9971694969
 20
5.5277756297
 30
0.0
 10
4.9434368893
 20
5.5267761647
 30
0.0
 10
4.8993996254
 20
5.5259315872
 30
0.0
 10
4.8654746914
 20
5.5252463858
 30
0.0
 10
4.8415262343
 20
5.5247407922
 30
0.0
 10
4.818876532
 20
5.5242355356
 30
0.0
 10
4.7977201525
 20
5.5237307284
 30
0.0
 10
4.7782388557
 20
5.5232265354
 30
0.0
 10
4.7605999949
 20
5.522723287
 30
0.0
 10
4.7449551059
 20
5.5222212279
 30
0.0
 10
4.7332271851
 20
5.5217878005
 30
0.0
 10
4.7249413978
 20
5.5214350701
 30
0.0
 10
4.7195810015
 20
5.5211825764
 30
0.0
 10
4.714807539
 20
5.5209305601
 30
0.0
 10
4.7106311114
 20
5.5206792145
 30
0.0
 10
4.7070606456
 20
5.520428703
 30
0.0
 10
4.7044682473
 20
5.520210874
 30
0.0
 10
4.7027035723
 20
5.5200324186
 30
0.0
 10
4.7016125446
 20
5.5199065542
 30
0.0
 10
4.7006778625
 20
5.5197811236
 30
0.0
 10
4.7001081092
 20
5.5196898314
 30
0.0
 10
4.6998498001
 20
5.5196428571
 30
0.0
  0
SPLINE
  5
3A4
100
AcDbEntity
  8
0
100
AcDbSpline
 62
7
  6
CONTINUOUS
 70
0
 71
3
 72
61
 73
57
 74
0
 42
0.0000001
 43
0.0000001
 44
0.0000000001
 40
0.0
 40
0.0
 40
0.0
 40
0.0
 40
0.0001162361
 40
0.0001870274
 40
0.0002699629
 40
0.0004782435
 40
0.0007488856
 40
0.0010851387
 40
0.0014886506
 40
0.0019602956
 40
0.0025005731
 40
0.0037880397
 40
0.0053523179
 40
0.0071936924
 40
0.0093119497
 40
0.0143751141
 40
0.0205321561
 40
0.0277708977
 40
0.0360750272
 40
0.0454268963
 40
0.0558052693
 40
0.0671871697
 40
0.0795471811
 40
0.0928572727
 40
0.1070880464
 40
0.1381804149
 40
0.1725446476
 40
0.209871513
 40
0.2498249053
 40
0.2920450315
 40
0.3361515363
 40
0.3817470902
 40
0.4284209773
 40
0.4757527174
 40
0.5233159004
 40
0.5706820603
 40
0.6174243625
 40
0.6631217976
 40
0.7073626378
 40
0.7497484154
 40
0.7898973792
 40
0.82744787
 40
0.8620618231
 40
0.8934275397
 40
0.9212629762
 40
0.9453180249
 40
0.9558593365
 40
0.9653772238
 40
0.973851099
 40
0.9812617144
 40
0.987593402
 40
0.9928331843
 40
0.9950401736
 40
0.9969706729
 40
0.998624048
 40
1.0
 40
1.0
 40
1.0
 40
1.0
 10
5.2871017488
 20
5.5230553571
 30
0.0
 10
5.2871017468
 20
5.5230325864
 30
0.0
 10
5.2870880934
 20
5.5229959002
 30
0.0
 10
5.287054312
 20
5.5229552152
 30
0.0
 10
5.2870007868
 20
5.522908208
 30
0.0
 10
5.2869054832
 20
5.5228518311
 30
0.0
 10
5.286758906
 20
5.5227880792
 30
0.0
 10
5.2865714068
 20
5.5227240866
 30
0.0
 10
5.2863428896
 20
5.5226598171
 30
0.0
 10
5.2860731417
 20
5.5225953584
 30
0.0
 10
5.2856320445
 20
5.5225038023
 30
0.0
 10
5.284976814
 20
5.522392112
 30
0.0
 10
5.2840663567
 20
5.5222638341
 30
0.0
 10
5.2829918407
 20
5.5221351014
 30
0.0
 10
5.2812337388
 20
5.521951937
 30
0.0
 10
5.2786300845
 20
5.5217288089
 30
0.0
 10
5.2750230023
 20
5.5214724724
 30
0.0
 10
5.2707797072
 20
5.5212152493
 30
0.0
 10
5.2659096167
 20
5.5209572118
 30
0.0
 10
5.2604237328
 20
5.5206987383
 30
0.0
 10
5.2543343339
 20
5.5204398973
 30
0.0
 10
5.2476551672
 20
5.5201808114
 30
0.0
 10
5.2404012878
 20
5.5199215419
 30
0.0
 10
5.2325889899
 20
5.519662105
 30
0.0
 10
5.221108248
 20
5.5193054403
 30
0.0
 10
5.205503674
 20
5.5188639736
 30
0.0
 10
5.1853749574
 20
5.5183476714
 30
0.0
 10
5.1635098554
 20
5.5178307502
 30
0.0
 10
5.1401053947
 20
5.5173133445
 30
0.0
 10
5.1153725024
 20
5.5167956033
 30
0.0
 10
5.0895340833
 20
5.5162776162
 30
0.0
 10
5.0628230057
 20
5.5157594571
 30
0.0
 10
5.03547999
 20
5.515241183
 30
0.0
 10
5.0077514483
 20
5.5147228428
 30
0.0
 10
4.9798872671
 20
5.51420448
 30
0.0
 10
4.9521385767
 20
5.5136861367
 30
0.0
 10
4.92475545
 20
5.5131678558
 30
0.0
 10
4.8979846839
 20
5.5126496854
 30
0.0
 10
4.8720675234
 20
5.5121316821
 30
0.0
 10
4.8472375305
 20
5.5116139169
 30
0.0
 10
4.8237184708
 20
5.5110964818
 30
0.0
 10
4.8017222932
 20
5.5105795102
 30
0.0
 10
4.7814472517
 20
5.5100631689
 30
0.0
 10
4.7630760331
 20
5.5095478016
 30
0.0
 10
4.7467741801
 20
5.5090336648
 30
0.0
 10
4.7345517389
 20
5.5085898107
 30
0.0
 10
4.7259172733
 20
5.5082285363
 30
0.0
 10
4.7203335935
 20
5.5079699515
 30
0.0
 10
4.7153639245
 20
5.5077118573
 30
0.0
 10
4.7110193259
 20
5.5074544767
 30
0.0
 10
4.7073095256
 20
5.5071979608
 30
0.0
 10
4.7046193876
 20
5.506974858
 30
0.0
 10
4.7027914591
 20
5.5067919801
 30
0.0
 10
4.7016643153
 20
5.506663105
 30
0.0
 10
4.7007011497
 20
5.5065346932
 30
0.0
 10
4.7001150001
 20
5.5064410846
 30
0.0
 10
4.6998498001
 20
5.5063928571
 30
0.0
  0
SPLINE
  5
3A5
100
AcDbEntity
  8
0
100
AcDbSpline
 62
7
  6
CONTINUOUS
 70
0
 71
3
 72
63
 73
59
 74
0
 42
0.0000001
 43
0.0000001
 44
0.0000000001
 40
0.0
 40
0.0
 40
0.0
 40
0.0
 40
0.0001173814
 40
0.0001890984
 40
0.0002732599
 40
0.0004849467
 40
0.0007602819
 40
0.0011024973
 40
0.001513233
 40
0.0019934143
 40
0.0025436028
 40
0.0038550559
 40
0.0054486779
 40
0.0073245055
 40
0.0094821618
 40
0.0146399067
 40
0.0209117143
 40
0.0282844783
 40
0.0367420092
 40
0.0462649213
 40
0.0568321999
 40
0.0684191083
 40
0.0809997795
 40
0.0945449609
 40
0.1090238071
 40
0.1406474074
 40
0.1755803996
 40
0.2135019774
 40
0.2540636482
 40
0.2968927373
 40
0.3415956058
 40
0.3877614164
 40
0.4349659145
 40
0.4827751058
 40
0.5307496382
 40
0.5784483909
 40
0.6254330172
 40
0.671271643
 40
0.7155429367
 40
0.7578400777
 40
0.7977742377
 40
0.8349785117
 40
0.8691111194
 40
0.8998586836
 40
0.9269391114
 40
0.9390253211
 40
0.9501042915
 40
0.9601509866
 40
0.9691425965
 40
0.9770584921
 40
0.9838815593
 40
0.9895962546
 40
0.9920344645
 40
0.9941916917
 40
0.9960669332
 40
0.997659684
 40
0.9989702896
 40
1.0
 40
1.0
 40
1.0
 40
1.0
 10
5.2871018214
 20
5.2819053571
 30
0.0
 10
5.287101808
 20
5.2818823305
 30
0.0
 10
5.2870877947
 20
5.2818452152
 30
0.0
 10
5.287053324
 20
5.2818041792
 30
0.0
 10
5.2869986449
 20
5.281756678
 30
0.0
 10
5.2869013638
 20
5.2816997509
 30
0.0
 10
5.2867518166
 20
5.2816353673
 30
0.0
 10
5.2865605433
 20
5.2815707358
 30
0.0
 10
5.2863274458
 20
5.2815058148
 30
0.0
 10
5.286052286
 20
5.2814407034
 30
0.0
 10
5.285602251
 20
5.2813482151
 30
0.0
 10
5.2849337032
 20
5.2812354056
 30
0.0
 10
5.2840047656
 20
5.281105841
 30
0.0
 10
5.2829085237
 20
5.2809758123
 30
0.0
 10
5.2811149625
 20
5.2807907758
 30
0.0
 10
5.2784589315
 20
5.2805654165
 30
0.0
 10
5.2747795383
 20
5.2803064984
 30
0.0
 10
5.2704515248
 20
5.2800466607
 30
0.0
 10
5.2654848164
 20
5.2797860427
 30
0.0
 10
5.2598907084
 20
5.2795249364
 30
0.0
 10
5.2536821339
 20
5.2792635016
 30
0.0
 10
5.2468732526
 20
5.2790017892
 30
0.0
 10
5.2394798117
 20
5.2787399064
 30
0.0
 10
5.23151874
 20
5.2784778536
 30
0.0
 10
5.2198232736
 20
5.2781176269
 30
0.0
 10
5.2039328708
 20
5.2776717672
 30
0.0
 10
5.1834441304
 20
5.2771502694
 30
0.0
 10
5.1612015143
 20
5.2766281495
 30
0.0
 10
5.1374095468
 20
5.2761055407
 30
0.0
 10
5.1122870069
 20
5.2755825951
 30
0.0
 10
5.086064888
 20
5.2750594039
 30
0.0
 10
5.0589842893
 20
5.2745360424
 30
0.0
 10
5.0312942184
 20
5.2740125692
 30
0.0
 10
5.0032492716
 20
5.2734890341
 30
0.0
 10
4.975107351
 20
5.2729654827
 30
0.0
 10
4.9471272118
 20
5.2724419586
 30
0.0
 10
4.9195661435
 20
5.2719185083
 30
0.0
 10
4.8926775569
 20
5.2713951835
 30
0.0
 10
4.8667086841
 20
5.2708720464
 30
0.0
 10
4.8418983219
 20
5.2703491748
 30
0.0
 10
4.8184746033
 20
5.2698266761
 30
0.0
 10
4.7966529232
 20
5.2693046841
 30
0.0
 10
4.7766338999
 20
5.2687834523
 30
0.0
 10
4.7586015734
 20
5.2682631872
 30
0.0
 10
4.7448938307
 20
5.2678157324
 30
0.0
 10
4.73504388
 20
5.2674527455
 30
0.0
 10
4.7285339848
 20
5.2671911448
 30
0.0
 10
4.7226316737
 20
5.2669298623
 30
0.0
 10
4.7173505117
 20
5.2666689849
 30
0.0
 10
4.7127025457
 20
5.2664087158
 30
0.0
 10
4.7086985198
 20
5.2661492526
 30
0.0
 10
4.7057692149
 20
5.2659239964
 30
0.0
 10
4.7037550443
 20
5.2657399617
 30
0.0
 10
4.7024923716
 20
5.2656095873
 30
0.0
 10
4.7013965202
 20
5.2654795579
 30
0.0
 10
4.7004679782
 20
5.2653500727
 30
0.0
 10
4.6997071698
 20
5.265221318
 30
0.0
 10
4.6992578877
 20
5.2651252098
 30
0.0
 10
4.6990623547
 20
5.2650745177
 30
0.0
  0
SPLINE
  5
3A6
100
AcDbEntity
  8
0
100
AcDbSpline
 62
7
  6
CONTINUOUS
 70
0
 71
3
 72
63
 73
59
 74
0
 42
0.0000001
 43
0.0000001
 44
0.0000000001
 40
0.0
 40
0.0
 40
0.0
 40
0.0
 40
0.0001173463
 40
0.000189041
 40
0.0002731933
 40
0.0004849102
 40
0.000760325
 40
0.0011026398
 40
0.0015134621
 40
0.0019936832
 40
0.0025438324
 40
0.003855051
 40
0.0054486069
 40
0.0073246043
 40
0.0094824139
 40
0.0146398407
 40
0.0209118927
 40
0.0282845585
 40
0.0367420522
 40
0.0462651234
 40
0.0568321454
 40
0.0684193607
 40
0.0809997502
 40
0.0945451275
 40
0.1090238648
 40
0.1406476041
 40
0.1755806131
 40
0.2135021166
 40
0.2540637381
 40
0.2968927539
 40
0.3415956553
 40
0.3877615113
 40
0.4349660093
 40
0.4827752224
 40
0.5307496843
 40
0.5784484642
 40
0.6254331224
 40
0.671271757
 40
0.7155430773
 40
0.7578400934
 40
0.7977742105
 40
0.8349784747
 40
0.8691111463
 40
0.899858838
 40
0.9269393059
 40
0.9390252364
 40
0.9501044526
 40
0.9601510136
 40
0.9691426053
 40
0.9770586283
 40
0.9838814376
 40
0.9895964709
 40
0.9920345415
 40
0.9941915875
 40
0.9960668638
 40
0.9976598476
 40
0.9989704754
 40
1.0
 40
1.0
 40
1.0
 40
1.0
 10
5.2871018284
 20
5.3163553572
 30
0.0
 10
5.2871018415
 20
5.3163323375
 30
0.0
 10
5.2870878692
 20
5.3162952143
 30
0.0
 10
5.2870534194
 20
5.3162541758
 30
0.0
 10
5.2869987431
 20
5.3162066711
 30
0.0
 10
5.2869014357
 20
5.3161497472
 30
0.0
 10
5.286751843
 20
5.3160853674
 30
0.0
 10
5.2865605137
 20
5.3160207383
 30
0.0
 10
5.2863273702
 20
5.3159558186
 30
0.0
 10
5.2860521926
 20
5.3158907082
 30
0.0
 10
5.2856022046
 20
5.3157982201
 30
0.0
 10
5.2849337272
 20
5.3156853932
 30
0.0
 10
5.2840048146
 20
5.3155558326
 30
0.0
 10
5.2829085207
 20
5.3154258142
 30
0.0
 10
5.2811149569
 20
5.3152407927
 30
0.0
 10
5.2784589136
 20
5.3150153944
 30
0.0
 10
5.2747795513
 20
5.3147565117
 30
0.0
 10
5.2704515173
 20
5.3144966559
 30
0.0
 10
5.2654848039
 20
5.3142360395
 30
0.0
 10
5.2598907215
 20
5.3139749445
 30
0.0
 10
5.2536821063
 20
5.3137134914
 30
0.0
 10
5.2468732693
 20
5.3134517992
 30
0.0
 10
5.2394797853
 20
5.3131898977
 30
0.0
 10
5.231518751
 20
5.3129278584
 30
0.0
 10
5.2198232399
 20
5.312567622
 30
0.0
 10
5.2039328268
 20
5.3121217695
 30
0.0
 10
5.1834440694
 20
5.3116002692
 30
0.0
 10
5.1612014731
 20
5.3110781494
 30
0.0
 10
5.137409543
 20
5.3105555401
 30
0.0
 10
5.1122870193
 20
5.3100325944
 30
0.0
 10
5.0860648981
 20
5.3095094034
 30
0.0
 10
5.0589842826
 20
5.3089860423
 30
0.0
 10
5.0312941971
 20
5.3084625691
 30
0.0
 10
5.0032492583
 20
5.307939034
 30
0.0
 10
4.9751073405
 20
5.3074154823
 30
0.0
 10
4.9471272021
 20
5.3068919582
 30
0.0
 10
4.919566119
 20
5.3063685081
 30
0.0
 10
4.8926775178
 20
5.3058451836
 30
0.0
 10
4.8667086611
 20
5.3053220467
 30
0.0
 10
4.8418983253
 20
5.3047991746
 30
0.0
 10
4.8184746403
 20
5.3042766754
 30
0.0
 10
4.796652957
 20
5.3037546831
 30
0.0
 10
4.7766338969
 20
5.3032334525
 30
0.0
 10
4.7586015242
 20
5.3027131843
 30
0.0
 10
4.7448938021
 20
5.3022657418
 30
0.0
 10
4.7350438503
 20
5.301902737
 30
0.0
 10
4.7285339871
 20
5.3016411506
 30
0.0
 10
4.7226316576
 20
5.3013798606
 30
0.0
 10
4.7173505005
 20
5.301118979
 30
0.0
 10
4.7127025623
 20
5.3008587291
 30
0.0
 10
4.7086984977
 20
5.3005992315
 30
0.0
 10
4.7057692016
 20
5.3003740105
 30
0.0
 10
4.7037550284
 20
5.3001899634
 30
0.0
 10
4.7024924129
 20
5.3000595806
 30
0.0
 10
4.701396545
 20
5.2999295467
 30
0.0
 10
4.700467943
 20
5.2998000806
 30
0.0
 10
4.6997071193
 20
5.2996713321
 30
0.0
 10
4.6992578721
 20
5.2995752121
 30
0.0
 10
4.6990623774
 20
5.2995245176
 30
0.0
  0
SPLINE
  5
3A7
100
AcDbEntity
  8
0
100
AcDbSpline
 62
7
  6
CONTINUOUS
 70
0
 71
3
 72
63
 73
59
 74
0
 42
0.0000001
 43
0.0000001
 44
0.0000000001
 40
0.0
 40
0.0
 40
0.0
 40
0.0
 40
0.0001173574
 40
0.0001890451
 40
0.0002731716
 40
0.0004847909
 40
0.0007600928
 40
0.0011023417
 40
0.0015131802
 40
0.001993476
 40
0.0025437266
 40
0.0038550967
 40
0.0054485399
 40
0.0073243222
 40
0.0094821835
 40
0.0146398815
 40
0.0209115889
 40
0.0282845605
 40
0.0367418199
 40
0.0462650264
 40
0.0568320624
 40
0.0684191278
 40
0.0809997449
 40
0.094544847
 40
0.1090238581
 40
0.1406474726
 40
0.1755804014
 40
0.2135018752
 40
0.2540635039
 40
0.2968926402
 40
0.3415955316
 40
0.3877613916
 40
0.4349658495
 40
0.4827750269
 40
0.5307495479
 40
0.5784483122
 40
0.6254329755
 40
0.6712715549
 40
0.7155428156
 40
0.7578398843
 40
0.7977740448
 40
0.8349784008
 40
0.8691111012
 40
0.8998586806
 40
0.9269390407
 40
0.9390251944
 40
0.950104107
 40
0.9601509809
 40
0.9691423264
 40
0.9770585105
 40
0.9838812913
 40
0.9895961856
 40
0.9920344868
 40
0.9941915477
 40
0.9960666388
 40
0.9976594976
 40
0.9989702773
 40
1.0
 40
1.0
 40
1.0
 40
1.0
 10
5.2871017466
 20
5.3508053571
 30
0.0
 10
5.2871017458
 20
5.3507823353
 30
0.0
 10
5.2870877646
 20
5.3507452201
 30
0.0
 10
5.2870533249
 20
5.3507041792
 30
0.0
 10
5.2869986823
 20
5.3506566752
 30
0.0
 10
5.2869014325
 20
5.3505997444
 30
0.0
 10
5.2867518998
 20
5.3505353603
 30
0.0
 10
5.2865606039
 20
5.3504707309
 30
0.0
 10
5.2863274538
 20
5.3504058156
 30
0.0
 10
5.2860522369
 20
5.3503407077
 30
0.0
 10
5.2856021822
 20
5.3502482246
 30
0.0
 10
5.2849336757
 20
5.3501354069
 30
0.0
 10
5.2840047997
 20
5.3500058346
 30
0.0
 10
5.2829085617
 20
5.3498758034
 30
0.0
 10
5.2811149754
 20
5.3496907923
 30
0.0
 10
5.2784589348
 20
5.3494654129
 30
0.0
 10
5.2747795294
 20
5.3492064918
 30
0.0
 10
5.2704515466
 20
5.3489466722
 30
0.0
 10
5.2654847939
 20
5.3486860294
 30
0.0
 10
5.2598907272
 20
5.3484249482
 30
0.0
 10
5.253682112
 20
5.3481634933
 30
0.0
 10
5.246873257
 20
5.3479017935
 30
0.0
 10
5.2394798109
 20
5.347639906
 30
0.0
 10
5.2315187323
 20
5.3473778509
 30
0.0
 10
5.219823245
 20
5.3470176303
 30
0.0
 10
5.2039328181
 20
5.346571767
 30
0.0
 10
5.1834441057
 20
5.3460502698
 30
0.0
 10
5.1612015286
 20
5.3455281489
 30
0.0
 10
5.1374095781
 20
5.3450055402
 30
0.0
 10
5.1122870303
 20
5.344482595
 30
0.0
 10
5.0860648855
 20
5.343959404
 30
0.0
 10
5.0589842778
 20
5.3434360426
 30
0.0
 10
5.0312942051
 20
5.3429125692
 30
0.0
 10
5.0032492685
 20
5.342389034
 30
0.0
 10
4.9751073478
 20
5.3418654825
 30
0.0
 10
4.9471271986
 20
5.3413419586
 30
0.0
 10
4.9195661273
 20
5.3408185085
 30
0.0
 10
4.8926775464
 20
5.3402951837
 30
0.0
 10
4.8667087007
 20
5.3397720465
 30
0.0
 10
4.8418983567
 20
5.3392491745
 30
0.0
 10
4.8184746338
 20
5.3387266754
 30
0.0
 10
4.7966529173
 20
5.3382046839
 30
0.0
 10
4.7766338548
 20
5.3376834529
 30
0.0
 10
4.7586015186
 20
5.3371631884
 30
0.0
 10
4.7448937959
 20
5.3367157319
 30
0.0
 10
4.7350438798
 20
5.3363527468
 30
0.0
 10
4.7285339715
 20
5.336091139
 30
0.0
 10
4.7226316872
 20
5.3358298731
 30
0.0
 10
4.7173504861
 20
5.3355689703
 30
0.0
 10
4.7127025695
 20
5.3353087315
 30
0.0
 10
4.7086985055
 20
5.33504924
 30
0.0
 10
4.705769199
 20
5.3348239937
 30
0.0
 10
4.7037550026
 20
5.3346399704
 30
0.0
 10
4.7024923749
 20
5.3345095886
 30
0.0
 10
4.7013965662
 20
5.334379547
 30
0.0
 10
4.7004679973
 20
5.3342500678
 30
0.0
 10
4.6997071289
 20
5.3341213232
 30
0.0
 10
4.6992578079
 20
5.3340252183
 30
0.0
 10
4.6990622746
 20
5.3339745177
 30
0.0
  0
SPLINE
  5
3A8
100
AcDbEntity
  8
0
100
AcDbSpline
 62
7
  6
CONTINUOUS
 70
0
 71
3
 72
63
 73
59
 74
0
 42
0.0000001
 43
0.0000001
 44
0.0000000001
 40
0.0
 40
0.0
 40
0.0
 40
0.0
 40
0.0010295306
 40
0.0023402558
 40
0.0039332393
 40
0.005808453
 40
0.0079654524
 40
0.0104035711
 40
0.0161186436
 40
0.0229413609
 40
0.0308575053
 40
0.0398489977
 40
0.0498956546
 40
0.060974794
 40
0.0730607254
 40
0.1001411831
 40
0.1308888473
 40
0.1650215752
 40
0.2022258594
 40
0.2421599755
 40
0.2844570223
 40
0.3287282651
 40
0.3745669387
 40
0.4215515685
 40
0.469250376
 40
0.5172248462
 40
0.5650340354
 40
0.6122385393
 40
0.6584043934
 40
0.7031073165
 40
0.745936358
 40
0.7864979559
 40
0.8244194357
 40
0.8593524213
 40
0.8909761169
 40
0.9054549559
 40
0.9190002857
 40
0.931580688
 40
0.9431679225
 40
0.9537348671
 40
0.9632580546
 40
0.9717154351
 40
0.9790881921
 40
0.9853601561
 40
0.9905176176
 40
0.9926754894
 40
0.9945514713
 40
0.9961449365
 40
0.9974561689
 40
0.9980063487
 40
0.998486603
 40
0.9988974513
 40
0.9992397756
 40
0.9995151747
 40
0.9997268473
 40
0.9998109771
 40
0.9998826585
 40
1.0
 40
1.0
 40
1.0
 40
1.0
 10
5.2863413808
 20
5.5014611967
 30
0.0
 10
5.2861458856
 20
5.5014104996
 30
0.0
 10
5.2856966177
 20
5.5013143776
 30
0.0
 10
5.2849357717
 20
5.5011856402
 30
0.0
 10
5.2840071638
 20
5.5010561688
 30
0.0
 10
5.2829113177
 20
5.5009261329
 30
0.0
 10
5.2816487145
 20
5.5007957475
 30
0.0
 10
5.2796345327
 20
5.5006117063
 30
0.0
 10
5.2767052375
 20
5.5003864856
 30
0.0
 10
5.2727011599
 20
5.5001269798
 30
0.0
 10
5.2680532347
 20
5.499866741
 30
0.0
 10
5.2627720549
 20
5.4996058488
 30
0.0
 10
5.2568697407
 20
5.499344567
 30
0.0
 10
5.2503598736
 20
5.4990829756
 30
0.0
 10
5.2405099384
 20
5.4987199738
 30
0.0
 10
5.2268022234
 20
5.4982725291
 30
0.0
 10
5.2087698467
 20
5.4977522615
 30
0.0
 10
5.1887507767
 20
5.4972310313
 30
0.0
 10
5.1669290782
 20
5.4967090389
 30
0.0
 10
5.1435053831
 20
5.4961865398
 30
0.0
 10
5.1186950562
 20
5.4956636676
 30
0.0
 10
5.0927262006
 20
5.4951405305
 30
0.0
 10
5.065837612
 20
5.4946172061
 30
0.0
 10
5.038276521
 20
5.4940937559
 30
0.0
 10
5.0102963807
 20
5.493570232
 30
0.0
 10
4.98215446
 20
5.4930466802
 30
0.0
 10
4.9541095227
 20
5.492523145
 30
0.0
 10
4.9264194406
 20
5.4919996717
 30
0.0
 10
4.8993388195
 20
5.4914763105
 30
0.0
 10
4.8731166889
 20
5.4909531197
 30
0.0
 10
4.8479941602
 20
5.490430174
 30
0.0
 10
4.8242022339
 20
5.4899075649
 30
0.0
 10
4.8019596511
 20
5.4893854446
 30
0.0
 10
4.7814709111
 20
5.4888639453
 30
0.0
 10
4.7655804911
 20
5.4884180899
 30
0.0
 10
4.7538849776
 20
5.4880578574
 30
0.0
 10
4.7459239301
 20
5.4877958151
 30
0.0
 10
4.7385304489
 20
5.4875339144
 30
0.0
 10
4.7317216206
 20
5.4872722255
 30
0.0
 10
4.7255129942
 20
5.4870107655
 30
0.0
 10
4.7199189259
 20
5.4867496798
 30
0.0
 10
4.7149521944
 20
5.4864890522
 30
0.0
 10
4.7106241814
 20
5.4862292076
 30
0.0
 10
4.706944812
 20
5.4859703174
 30
0.0
 10
4.704288767
 20
5.4857449183
 30
0.0
 10
4.7024951867
 20
5.4855599017
 30
0.0
 10
4.7013989011
 20
5.4854298856
 30
0.0
 10
4.7004700081
 20
5.4853003155
 30
0.0
 10
4.6998015397
 20
5.4851874911
 30
0.0
 10
4.6993515356
 20
5.4850950053
 30
0.0
 10
4.6990763398
 20
5.4850298955
 30
0.0
 10
4.698843182
 20
5.484964977
 30
0.0
 10
4.6986518481
 20
5.4849003491
 30
0.0
 10
4.6985022648
 20
5.4848359723
 30
0.0
 10
4.6984049765
 20
5.4847790455
 30
0.0
 10
4.698350324
 20
5.4847315372
 30
0.0
 10
4.6983158894
 20
5.4846904961
 30
0.0
 10
4.6983019253
 20
5.4846533758
 30
0.0
 10
4.6983019385
 20
5.4846303571
 30
0.0
  0
SPLINE
  5
3A9
100
AcDbEntity
  8
0
100
AcDbSpline
 62
7
  6
CONTINUOUS
 70
0
 71
3
 72
30
 73
26
 74
0
 42
0.0000001
 43
0.0000001
 44
0.0000000001
 40
0.0
 40
0.0
 40
0.0
 40
0.0
 40
0.0019021902
 40
0.0043447473
 40
0.0073299528
 40
0.01085838
 40
0.0149296116
 40
0.0195418922
 40
0.0303802895
 40
0.0433534604
 40
0.0584337759
 40
0.0755889474
 40
0.0947822435
 40
0.1159708998
 40
0.1391096279
 40
0.1910273118
 40
0.2500787802
 40
0.3157440523
 40
0.387444584
 40
0.4645480678
 40
0.5463747517
 40
0.6322024821
 40
0.721275457
 40
0.8128047108
 40
1.0
 40
1.0
 40
1.0
 40
1.0
 10
5.3067402469
 20
5.5067494682
 30
0.0
 10
5.3065473959
 20
5.5066994871
 30
0.0
 10
5.3061018605
 20
5.5066051594
 30
0.0
 10
5.3053445003
 20
5.5064791893
 30
0.0
 10
5.3044149714
 20
5.5063524533
 30
0.0
 10
5.3033136761
 20
5.506225125
 30
0.0
 10
5.3020410283
 20
5.5060974527
 30
0.0
 10
5.3000043771
 20
5.505917047
 30
0.0
 10
5.2970355163
 20
5.5056963544
 30
0.0
 10
5.2929701267
 20
5.5054422431
 30
0.0
 10
5.2882420976
 20
5.5051873448
 30
0.0
 10
5.2828618345
 20
5.5049318048
 30
0.0
 10
5.2768412033
 20
5.5046758832
 30
0.0
 10
5.2701934015
 20
5.5044196246
 30
0.0
 10
5.2601196113
 20
5.5040638817
 30
0.0
 10
5.246080853
 20
5.5036254067
 30
0.0
 10
5.2275883573
 20
5.5031157591
 30
0.0
 10
5.2070232621
 20
5.5026051495
 30
0.0
 10
5.1845670135
 20
5.5020937834
 30
0.0
 10
5.1604177348
 20
5.5015819111
 30
0.0
 10
5.1347885664
 20
5.5010696656
 30
0.0
 10
5.107905563
 20
5.5005571514
 30
0.0
 10
5.0800062051
 20
5.5000444455
 30
0.0
 10
5.0414917474
 20
5.499355525
 30
0.0
 10
5.0123044544
 20
5.4988471986
 30
0.0
 10
4.9927018634
 20
5.498505725
 30
0.0
  0
SPLINE
  5
3AA
100
AcDbEntity
  8
0
100
AcDbSpline
 62
7
  6
CONTINUOUS
 70
0
 71
3
 72
63
 73
59
 74
0
 42
0.0000001
 43
0.0000001
 44
0.0000000001
 40
0.0
 40
0.0
 40
0.0
 40
0.0
 40
0.00102976
 40
0.0023404858
 40
0.0039332791
 40
0.0058083736
 40
0.0079655353
 40
0.0104038435
 40
0.0161186336
 40
0.0229415282
 40
0.0308576056
 40
0.0398490035
 40
0.0498958786
 40
0.0609747499
 40
0.0730609785
 40
0.1001413336
 40
0.1308889023
 40
0.1650215366
 40
0.2022258945
 40
0.2421600769
 40
0.2844571624
 40
0.3287284419
 40
0.3745670263
 40
0.4215516505
 40
0.4692504486
 40
0.5172249306
 40
0.5650341546
 40
0.6122385948
 40
0.658404431
 40
0.7031073438
 40
0.745936431
 40
0.7864981493
 40
0.8244196189
 40
0.8593525692
 40
0.8909761615
 40
0.9054551557
 40
0.9190002279
 40
0.9315809341
 40
0.9431678973
 40
0.9537350335
 40
0.9632581353
 40
0.9717154662
 40
0.9790884304
 40
0.9853601042
 40
0.9905178873
 40
0.9926756593
 40
0.9945514152
 40
0.9961449146
 40
0.9974563439
 40
0.9980066004
 40
0.9984868736
 40
0.9988976578
 40
0.9992398674
 40
0.9995151624
 40
0.9997267961
 40
0.9998109334
 40
0.9998826316
 40
1.0
 40
1.0
 40
1.0
 40
1.0
 10
5.2863414409
 20
5.4670111965
 30
0.0
 10
5.286145899
 20
5.4669605001
 30
0.0
 10
5.2856965817
 20
5.4668643951
 30
0.0
 10
5.2849357303
 20
5.4667356465
 30
0.0
 10
5.2840071848
 20
5.4666061648
 30
0.0
 10
5.2829113683
 20
5.4664761229
 30
0.0
 10
5.281648718
 20
5.4663457484
 30
0.0
 10
5.2796345213
 20
5.4661617223
 30
0.0
 10
5.2767052122
 20
5.4659364678
 30
0.0
 10
5.2727011665
 20
5.4656769891
 30
0.0
 10
5.268053239
 20
5.4654167399
 30
0.0
 10
5.2627720482
 20
5.4651558436
 30
0.0
 10
5.2568697618
 20
5.4648945759
 30
0.0
 10
5.250359847
 20
5.4646329657
 30
0.0
 10
5.2405099255
 20
5.4642699846
 30
0.0
 10
5.2268021917
 20
5.4638225259
 30
0.0
 10
5.2087698721
 20
5.4633022619
 30
0.0
 10
5.188750825
 20
5.4627810301
 30
0.0
 10
5.1669291175
 20
5.4622590389
 30
0.0
 10
5.1435053874
 20
5.4617365399
 30
0.0
 10
5.1186950329
 20
5.461213668
 30
0.0
 10
5.0927261802
 20
5.4606905309
 30
0.0
 10
5.0658376032
 20
5.4601672061
 30
0.0
 10
5.0382765328
 20
5.4596437558
 30
0.0
 10
5.0102963933
 20
5.459120232
 30
0.0
 10
4.9821544654
 20
5.4585966805
 30
0.0
 10
4.9541095317
 20
5.4580731454
 30
0.0
 10
4.9264194589
 20
5.457549672
 30
0.0
 10
4.8993388561
 20
5.4570263105
 30
0.0
 10
4.8731167222
 20
5.4565031195
 30
0.0
 10
4.8479941631
 20
5.4559801739
 30
0.0
 10
4.8242022064
 20
5.4554575657
 30
0.0
 10
4.801959609
 20
5.4549354448
 30
0.0
 10
4.7814708983
 20
5.4544139478
 30
0.0
 10
4.7655804754
 20
5.4539680837
 30
0.0
 10
4.7538850019
 20
5.4536078644
 30
0.0
 10
4.7459239154
 20
5.4533458064
 30
0.0
 10
4.7385304778
 20
5.4530839242
 30
0.0
 10
4.7317216062
 20
5.452822217
 30
0.0
 10
4.7255130119
 20
5.4525607705
 30
0.0
 10
4.7199189326
 20
5.4522996815
 30
0.0
 10
4.7149521877
 20
5.4520390435
 30
0.0
 10
4.710624199
 20
5.4517792247
 30
0.0
 10
4.7069447857
 20
5.4515202952
 30
0.0
 10
4.7042887513
 20
5.4512949302
 30
0.0
 10
4.7024951721
 20
5.4511099091
 30
0.0
 10
4.7013989461
 20
5.4509798762
 30
0.0
 10
4.7004700523
 20
5.4508503065
 30
0.0
 10
4.6998015212
 20
5.4507374917
 30
0.0
 10
4.699351458
 20
5.4506450085
 30
0.0
 10
4.6990762549
 20
5.4505799022
 30
0.0
 10
4.6988431294
 20
5.4505149832
 30
0.0
 10
4.6986518554
 20
5.4504503513
 30
0.0
 10
4.6985023295
 20
5.4503859671
 30
0.0
 10
4.6984050755
 20
5.4503290375
 30
0.0
 10
4.6983504226
 20
5.4502815349
 30
0.0
 10
4.698315972
 20
5.4502404953
 30
0.0
 10
4.6983019775
 20
5.4502033812
 30
0.0
 10
4.6983019696
 20
5.4501803572
 30
0.0
  0
SPLINE
  5
3AB
100
AcDbEntity
  8
0
100
AcDbSpline
 62
7
  6
CONTINUOUS
 70
0
 71
3
 72
30
 73
26
 74
0
 42
0.0000001
 43
0.0000001
 44
0.0000000001
 40
0.0
 40
0.0
 40
0.0
 40
0.0
 40
0.0019021902
 40
0.0043447473
 40
0.0073299528
 40
0.01085838
 40
0.0149296116
 40
0.0195418922
 40
0.0303802895
 40
0.0433534604
 40
0.0584337759
 40
0.0755889474
 40
0.0947822435
 40
0.1159708998
 40
0.1391096279
 40
0.1910273118
 40
0.2500787802
 40
0.3157440523
 40
0.387444584
 40
0.4645480678
 40
0.5463747517
 40
0.6322024821
 40
0.721275457
 40
0.8128047108
 40
1.0
 40
1.0
 40
1.0
 40
1.0
 10
5.3067402469
 20
5.4722994682
 30
0.0
 10
5.3065473959
 20
5.4722494871
 30
0.0
 10
5.3061018605
 20
5.4721551594
 30
0.0
 10
5.3053445003
 20
5.4720291893
 30
0.0
 10
5.3044149714
 20
5.4719024533
 30
0.0
 10
5.3033136761
 20
5.471775125
 30
0.0
 10
5.3020410283
 20
5.4716474527
 30
0.0
 10
5.3000043771
 20
5.471467047
 30
0.0
 10
5.2970355163
 20
5.4712463544
 30
0.0
 10
5.2929701267
 20
5.4709922431
 30
0.0
 10
5.2882420976
 20
5.4707373448
 30
0.0
 10
5.2828618345
 20
5.4704818048
 30
0.0
 10
5.2768412033
 20
5.4702258832
 30
0.0
 10
5.2701934015
 20
5.4699696246
 30
0.0
 10
5.2601196113
 20
5.4696138817
 30
0.0
 10
5.246080853
 20
5.4691754067
 30
0.0
 10
5.2275883573
 20
5.4686657591
 30
0.0
 10
5.2070232621
 20
5.4681551495
 30
0.0
 10
5.1845670135
 20
5.4676437834
 30
0.0
 10
5.1604177348
 20
5.4671319111
 30
0.0
 10
5.1347885664
 20
5.4666196656
 30
0.0
 10
5.107905563
 20
5.4661071514
 30
0.0
 10
5.0800062051
 20
5.4655944455
 30
0.0
 10
5.0414917474
 20
5.464905525
 30
0.0
 10
5.0123044544
 20
5.4643971986
 30
0.0
 10
4.9927018634
 20
5.464055725
 30
0.0
  0
SPLINE
  5
3AC
100
AcDbEntity
  8
0
100
AcDbSpline
 62
7
  6
CONTINUOUS
 70
0
 71
3
 72
63
 73
59
 74
0
 42
0.0000001
 43
0.0000001
 44
0.0000000001
 40
0.0
 40
0.0
 40
0.0
 40
0.0
 40
0.0010296161
 40
0.0023401661
 40
0.0039330088
 40
0.0058083355
 40
0.0079655052
 40
0.0104036231
 40
0.0161184342
 40
0.0229414433
 40
0.0308572983
 40
0.039849005
 40
0.0498955666
 40
0.0609746956
 40
0.0730607668
 40
0.1001412497
 40
0.1308888577
 40
0.1650214859
 40
0.2022257346
 40
0.2421598383
 40
0.2844569648
 40
0.3287282659
 40
0.3745669282
 40
0.4215515523
 40
0.4692503121
 40
0.5172248217
 40
0.5650340189
 40
0.6122385395
 40
0.658404356
 40
0.7031072221
 40
0.7459362731
 40
0.7864979168
 40
0.824419477
 40
0.8593525222
 40
0.8909761849
 40
0.9054549101
 40
0.9190002305
 40
0.9315807547
 40
0.9431677736
 40
0.9537349968
 40
0.9632579073
 40
0.9717155281
 40
0.9790881485
 40
0.9853601113
 40
0.9905176866
 40
0.9926753793
 40
0.9945513031
 40
0.9961449675
 40
0.9974563111
 40
0.9980064439
 40
0.9984866158
 40
0.9988973753
 40
0.9992396325
 40
0.9995150131
 40
0.9997267344
 40
0.9998109051
 40
0.999882625
 40
1.0
 40
1.0
 40
1.0
 40
1.0
 10
5.2863413361
 20
5.4325611966
 30
0.0
 10
5.2861458222
 20
5.4325105048
 30
0.0
 10
5.285696571
 20
5.4324143925
 30
0.0
 10
5.2849357744
 20
5.4322856344
 30
0.0
 10
5.2840072071
 20
5.4321561583
 30
0.0
 10
5.2829113317
 20
5.4320261323
 30
0.0
 10
5.2816486722
 20
5.4318957531
 30
0.0
 10
5.2796345089
 20
5.4317117105
 30
0.0
 10
5.2767052096
 20
5.4314864687
 30
0.0
 10
5.2727011809
 20
5.4312269967
 30
0.0
 10
5.2680532153
 20
5.4309667271
 30
0.0
 10
5.2627720681
 20
5.4307058568
 30
0.0
 10
5.2568697334
 20
5.4304445639
 30
0.0
 10
5.25035986
 20
5.430182974
 30
0.0
 10
5.2405098949
 20
5.4298199765
 30
0.0
 10
5.2268021596
 20
5.4293725291
 30
0.0
 10
5.2087698096
 20
5.4288522617
 30
0.0
 10
5.1887507785
 20
5.4283310308
 30
0.0
 10
5.1669291103
 20
5.4278090384
 30
0.0
 10
5.1435054103
 20
5.4272865392
 30
0.0
 10
5.1186950604
 20
5.4267636676
 30
0.0
 10
5.0927261816
 20
5.4262405307
 30
0.0
 10
5.0658375866
 20
5.4257172061
 30
0.0
 10
5.03827651
 20
5.4251937558
 30
0.0
 10
5.0102963741
 20
5.4246702317
 30
0.0
 10
4.9821544552
 20
5.42414668
 30
0.0
 10
4.9541095071
 20
5.423623145
 30
0.0
 10
4.9264194293
 20
5.4230996719
 30
0.0
 10
4.8993388252
 20
5.4225763105
 30
0.0
 10
4.8731167129
 20
5.4220531193
 30
0.0
 10
4.8479941861
 20
5.4215301736
 30
0.0
 10
4.8242022347
 20
5.4210075645
 30
0.0
 10
4.8019596168
 20
5.4204854448
 30
0.0
 10
4.7814708571
 20
5.4199639456
 30
0.0
 10
4.7655804551
 20
5.4195180915
 30
0.0
 10
4.7538849731
 20
5.4191578569
 30
0.0
 10
4.7459239264
 20
5.4188958123
 30
0.0
 10
4.7385304656
 20
5.4186339208
 30
0.0
 10
4.731721602
 20
5.4183722154
 30
0.0
 10
4.7255130171
 20
5.4181107775
 30
0.0
 10
4.7199189027
 20
5.4178496683
 30
0.0
 10
4.7149522046
 20
5.4175890607
 30
0.0
 10
4.7106241722
 20
5.4173292058
 30
0.0
 10
4.7069448085
 20
5.4170703096
 30
0.0
 10
4.7042887746
 20
5.4168449325
 30
0.0
 10
4.7024952204
 20
5.4166598994
 30
0.0
 10
4.7013989436
 20
5.4165298738
 30
0.0
 10
4.7004699991
 20
5.4164003166
 30
0.0
 10
4.6998014765
 20
5.416287501
 30
0.0
 10
4.6993514775
 20
5.416195008
 30
0.0
 10
4.699076326
 20
5.416129897
 30
0.0
 10
4.6988432171
 20
5.4160649763
 30
0.0
 10
4.6986519206
 20
5.4160003455
 30
0.0
 10
4.6985023472
 20
5.415935963
 30
0.0
 10
4.6984050448
 20
5.4158790378
 30
0.0
 10
4.6983503538
 20
5.415831536
 30
0.0
 10
4.6983158793
 20
5.4157905021
 30
0.0
 10
4.6983018693
 20
5.4157533825
 30
0.0
 10
4.6983018652
 20
5.4157303572
 30
0.0
  0
SPLINE
  5
3AD
100
AcDbEntity
  8
0
100
AcDbSpline
 62
7
  6
CONTINUOUS
 70
0
 71
3
 72
30
 73
26
 74
0
 42
0.0000001
 43
0.0000001
 44
0.0000000001
 40
0.0
 40
0.0
 40
0.0
 40
0.0
 40
0.0019021902
 40
0.0043447473
 40
0.0073299528
 40
0.01085838
 40
0.0149296116
 40
0.0195418922
 40
0.0303802895
 40
0.0433534604
 40
0.0584337759
 40
0.0755889474
 40
0.0947822435
 40
0.1159708998
 40
0.1391096279
 40
0.1910273118
 40
0.2500787802
 40
0.3157440523
 40
0.387444584
 40
0.4645480678
 40
0.5463747517
 40
0.6322024821
 40
0.721275457
 40
0.8128047108
 40
1.0
 40
1.0
 40
1.0
 40
1.0
 10
5.3067402469
 20
5.4378494682
 30
0.0
 10
5.3065473959
 20
5.4377994871
 30
0.0
 10
5.3061018605
 20
5.4377051594
 30
0.0
 10
5.3053445003
 20
5.4375791893
 30
0.0
 10
5.3044149714
 20
5.4374524533
 30
0.0
 10
5.3033136761
 20
5.437325125
 30
0.0
 10
5.3020410283
 20
5.4371974527
 30
0.0
 10
5.3000043771
 20
5.437017047
 30
0.0
 10
5.2970355163
 20
5.4367963544
 30
0.0
 10
5.2929701267
 20
5.4365422431
 30
0.0
 10
5.2882420976
 20
5.4362873448
 30
0.0
 10
5.2828618345
 20
5.4360318048
 30
0.0
 10
5.2768412033
 20
5.4357758832
 30
0.0
 10
5.2701934015
 20
5.4355196246
 30
0.0
 10
5.2601196113
 20
5.4351638817
 30
0.0
 10
5.246080853
 20
5.4347254067
 30
0.0
 10
5.2275883573
 20
5.4342157591
 30
0.0
 10
5.2070232621
 20
5.4337051495
 30
0.0
 10
5.1845670135
 20
5.4331937834
 30
0.0
 10
5.1604177348
 20
5.4326819111
 30
0.0
 10
5.1347885664
 20
5.4321696656
 30
0.0
 10
5.107905563
 20
5.4316571514
 30
0.0
 10
5.0800062051
 20
5.4311444455
 30
0.0
 10
5.0414917474
 20
5.430455525
 30
0.0
 10
5.0123044544
 20
5.4299471986
 30
0.0
 10
4.9927018634
 20
5.429605725
 30
0.0
  0
SPLINE
  5
3AE
100
AcDbEntity
  8
0
100
AcDbSpline
 62
7
  6
CONTINUOUS
 70
0
 71
3
 72
29
 73
25
 74
0
 42
0.0000001
 43
0.0000001
 44
0.0000000001
 40
0.0
 40
0.0
 40
0.0
 40
0.0
 40
0.0020874098
 40
0.0046882778
 40
0.0078046601
 40
0.011436842
 40
0.0202461937
 40
0.0311079942
 40
0.0440045691
 40
0.0589143327
 40
0.0758124163
 40
0.0946676267
 40
0.1154474367
 40
0.138114388
 40
0.1889423743
 40
0.2467854983
 40
0.3112265969
 40
0.3817995963
 40
0.45799383
 40
0.5392576883
 40
0.6250035466
 40
0.7146116083
 40
0.8074276191
 40
1.0
 40
1.0
 40
1.0
 40
1.0
 10
5.286341397
 20
5.3981111967
 30
0.0
 10
5.2861705534
 20
5.3980668921
 30
0.0
 10
5.2857830818
 20
5.3979820337
 30
0.0
 10
5.2851331288
 20
5.3978674432
 30
0.0
 10
5.2843509563
 20
5.3977522889
 30
0.0
 10
5.2830458121
 20
5.3975874392
 30
0.0
 10
5.2810854168
 20
5.3973873254
 30
0.0
 10
5.2783412484
 20
5.3971579265
 30
0.0
 10
5.275079826
 20
5.3969275721
 30
0.0
 10
5.271307012
 20
5.3966964119
 30
0.0
 10
5.2670295806
 20
5.3964648121
 30
0.0
 10
5.2622552012
 20
5.3962328423
 30
0.0
 10
5.2569925453
 20
5.3960006269
 30
0.0
 10
5.2490279225
 20
5.3956783206
 30
0.0
 10
5.2379300736
 20
5.3952808376
 30
0.0
 10
5.2233003391
 20
5.3948188313
 30
0.0
 10
5.2070004042
 20
5.3943559941
 30
0.0
 10
5.1891482997
 20
5.393892493
 30
0.0
 10
5.1698733665
 20
5.3934285411
 30
0.0
 10
5.1493151987
 20
5.3929642493
 30
0.0
 10
5.1276225968
 20
5.3924997102
 30
0.0
 10
5.1049530271
 20
5.3920349864
 30
0.0
 10
5.0732524987
 20
5.3914074719
 30
0.0
 10
5.0491266661
 20
5.3909489048
 30
0.0
 10
5.0328471439
 20
5.3906428571
 30
0.0
  0
SPLINE
  5
3AF
100
AcDbEntity
  8
0
100
AcDbSpline
 62
7
  6
CONTINUOUS
 70
0
 71
3
 72
29
 73
25
 74
0
 42
0.0000001
 43
0.0000001
 44
0.0000000001
 40
0.0
 40
0.0
 40
0.0
 40
0.0
 40
0.0019769101
 40
0.0044705894
 40
0.0074834883
 40
0.0110165054
 40
0.0196405266
 40
0.0303314883
 40
0.0430737888
 40
0.0578454199
 40
0.074620124
 40
0.09336908
 40
0.114057338
 40
0.1366484748
 40
0.1873708919
 40
0.2451685063
 40
0.309620737
 40
0.380258078
 40
0.4565661679
 40
0.537989099
 40
0.6239334766
 40
0.7137739666
 40
0.8068507576
 40
1.0
 40
1.0
 40
1.0
 40
1.0
 10
5.3067402028
 20
5.4033994682
 30
0.0
 10
5.3065671592
 20
5.403354621
 30
0.0
 10
5.3061717423
 20
5.4032692158
 30
0.0
 10
5.3055047855
 20
5.4031544207
 30
0.0
 10
5.3046954791
 20
5.4030389967
 30
0.0
 10
5.3033337308
 20
5.4028733133
 30
0.0
 10
5.3012772486
 20
5.4026725717
 30
0.0
 10
5.2983875683
 20
5.4024425181
 30
0.0
 10
5.2949405753
 20
5.4022115139
 30
0.0
 10
5.2909424909
 20
5.401979648
 30
0.0
 10
5.2864004875
 20
5.4017472872
 30
0.0
 10
5.2813228775
 20
5.4015145861
 30
0.0
 10
5.2757188371
 20
5.4012815937
 30
0.0
 10
5.2672249379
 20
5.4009580777
 30
0.0
 10
5.2553759654
 20
5.4005591903
 30
0.0
 10
5.2397419193
 20
5.4000956847
 30
0.0
 10
5.2223063993
 20
5.3996313232
 30
0.0
 10
5.2031965669
 20
5.3991662803
 30
0.0
 10
5.1825517651
 20
5.3987007779
 30
0.0
 10
5.1605225164
 20
5.3982349304
 30
0.0
 10
5.1372693583
 20
5.3977688304
 30
0.0
 10
5.1129622109
 20
5.3973025403
 30
0.0
 10
5.0789625014
 20
5.3966728688
 30
0.0
 10
5.0530848101
 20
5.39621279
 30
0.0
 10
5.0356221318
 20
5.395905725
 30
0.0
  0
SPLINE
  5
3B0
100
AcDbEntity
  8
0
100
AcDbSpline
 62
7
  6
CONTINUOUS
 70
0
 71
3
 72
22
 73
18
 74
0
 42
0.0000001
 43
0.0000001
 44
0.0000000001
 40
0.0
 40
0.0
 40
0.0
 40
0.0
 40
0.1643410082
 40
0.2419615004
 40
0.3164745658
 40
0.3878636073
 40
0.4561423181
 40
0.5213536247
 40
0.5835829204
 40
0.6429543764
 40
0.6996413794
 40
0.7538708999
 40
0.8059236916
 40
0.8561423062
 40
0.9049232932
 40
0.9527141853
 40
1.0
 40
1.0
 40
1.0
 40
1.0
 10
4.8401791326
 20
3.1543232477
 30
0.0
 10
4.8355241696
 20
3.1563316749
 30
0.0
 10
4.8287655057
 20
3.1595222177
 30
0.0
 10
4.820210025
 20
3.164230028
 30
0.0
 10
4.8143190557
 20
3.1678187292
 30
0.0
 10
4.8088452993
 20
3.1715241212
 30
0.0
 10
4.8038010639
 20
3.1753375202
 30
0.0
 10
4.7991985019
 20
3.1792508907
 30
0.0
 10
4.7950479552
 20
3.1832549736
 30
0.0
 10
4.7913594363
 20
3.1873412574
 30
0.0
 10
4.7881419583
 20
3.1915008314
 30
0.0
 10
4.785403124
 20
3.1957242847
 30
0.0
 10
4.7831509483
 20
3.2000027957
 30
0.0
 10
4.7813911644
 20
3.2043261395
 30
0.0
 10
4.7801297563
 20
3.2086845071
 30
0.0
 10
4.7793711757
 20
3.2130660578
 30
0.0
 10
4.7792018634
 20
3.2160017959
 30
0.0
 10
4.7792018634
 20
3.2174605171
 30
0.0
  0
SPLINE
  5
3B1
100
AcDbEntity
  8
0
100
AcDbSpline
 62
7
  6
CONTINUOUS
 70
0
 71
3
 72
63
 73
59
 74
0
 42
0.0000001
 43
0.0000001
 44
0.0000000001
 40
0.0
 40
0.0
 40
0.0
 40
0.0
 40
0.0001173818
 40
0.0001891014
 40
0.0002732674
 40
0.0004849671
 40
0.0007603165
 40
0.0011025428
 40
0.0015132815
 40
0.001993453
 40
0.0025436158
 40
0.0038550455
 40
0.005448688
 40
0.0073245447
 40
0.0094822028
 40
0.0146399024
 40
0.0209117669
 40
0.0282844704
 40
0.036742038
 40
0.0462649265
 40
0.0568322142
 40
0.0684191585
 40
0.0809997779
 40
0.0945450007
 40
0.1090237936
 40
0.1406474299
 40
0.1755804346
 40
0.2135020259
 40
0.2540636856
 40
0.2968927553
 40
0.3415956299
 40
0.3877614341
 40
0.4349659447
 40
0.4827751485
 40
0.5307496582
 40
0.5784484269
 40
0.6254330423
 40
0.6712716818
 40
0.7155430024
 40
0.7578401119
 40
0.7977742758
 40
0.8349785068
 40
0.8691111318
 40
0.8998587273
 40
0.9269391755
 40
0.9390253232
 40
0.9501043949
 40
0.9601510004
 40
0.9691426798
 40
0.9770585316
 40
0.9838815889
 40
0.989596343
 40
0.9920344954
 40
0.9941916944
 40
0.9960670007
 40
0.9976597893
 40
0.9989703479
 40
1.0
 40
1.0
 40
1.0
 40
1.0
 10
5.2871018364
 20
4.7651553571
 30
0.0
 10
5.2871018241
 20
4.7651323304
 30
0.0
 10
5.2870878093
 20
4.7650952142
 30
0.0
 10
5.2870533357
 20
4.7650541789
 30
0.0
 10
5.2869986513
 20
4.7650066777
 30
0.0
 10
5.2869013628
 20
4.7649497513
 30
0.0
 10
5.2867518075
 20
4.7648853679
 30
0.0
 10
5.2865605283
 20
4.7648207365
 30
0.0
 10
5.2863274301
 20
4.7647558155
 30
0.0
 10
5.2860522768
 20
4.7646907042
 30
0.0
 10
5.2856022542
 20
4.7645982129
 30
0.0
 10
5.2849337119
 20
4.7644854038
 30
0.0
 10
5.284004769
 20
4.764355841
 30
0.0
 10
5.2829085168
 20
4.7642258135
 30
0.0
 10
5.2811149585
 20
4.7640407769
 30
0.0
 10
5.2784589254
 20
4.7638154131
 30
0.0
 10
5.2747795415
 20
4.7635565019
 30
0.0
 10
5.270451522
 20
4.7632966577
 30
0.0
 10
5.2654848229
 20
4.7630360446
 30
0.0
 10
5.2598907108
 20
4.7627749358
 30
0.0
 10
5.2536821323
 20
4.7625135014
 30
0.0
 10
5.2468732526
 20
4.7622517904
 30
0.0
 10
5.239479807
 20
4.7619899049
 30
0.0
 10
5.2315187481
 20
4.7617278551
 30
0.0
 10
5.2198232775
 20
4.7613676254
 30
0.0
 10
5.2039328762
 20
4.7609217677
 30
0.0
 10
5.1834441243
 20
4.7604002695
 30
0.0
 10
5.1612015062
 20
4.7598781497
 30
0.0
 10
5.1374095429
 20
4.7593555407
 30
0.0
 10
5.1122870088
 20
4.7588325951
 30
0.0
 10
5.0860648947
 20
4.7583094039
 30
0.0
 10
5.0589842946
 20
4.7577860424
 30
0.0
 10
5.0312942211
 20
4.7572625692
 30
0.0
 10
5.0032492749
 20
4.7567390343
 30
0.0
 10
4.9751073543
 20
4.7562154827
 30
0.0
 10
4.9471272196
 20
4.7556919586
 30
0.0
 10
4.9195661487
 20
4.7551685083
 30
0.0
 10
4.8926775573
 20
4.7546451836
 30
0.0
 10
4.8667086836
 20
4.7541220467
 30
0.0
 10
4.8418983225
 20
4.7535991751
 30
0.0
 10
4.8184746186
 20
4.7530766762
 30
0.0
 10
4.7966529437
 20
4.752554684
 30
0.0
 10
4.77663392
 20
4.7520334525
 30
0.0
 10
4.7586015807
 20
4.7515131864
 30
0.0
 10
4.7448938404
 20
4.7510657355
 30
0.0
 10
4.7350438786
 20
4.7507027426
 30
0.0
 10
4.7285339932
 20
4.7504411484
 30
0.0
 10
4.7226316667
 20
4.750179859
 30
0.0
 10
4.7173505171
 20
4.7499189875
 30
0.0
 10
4.7127025484
 20
4.7496587159
 30
0.0
 10
4.7086985219
 20
4.7493992495
 30
0.0
 10
4.7057692182
 20
4.7491740008
 30
0.0
 10
4.7037550533
 20
4.7489899615
 30
0.0
 10
4.7024923852
 20
4.7488595838
 30
0.0
 10
4.7013965186
 20
4.7487295585
 30
0.0
 10
4.7004679651
 20
4.7486000771
 30
0.0
 10
4.6997071705
 20
4.7484713198
 30
0.0
 10
4.6992579101
 20
4.7483752092
 30
0.0
 10
4.6990623888
 20
4.7483245177
 30
0.0
  0
SPLINE
  5
3B2
100
AcDbEntity
  8
0
100
AcDbSpline
 62
7
  6
CONTINUOUS
 70
0
 71
3
 72
30
 73
26
 74
0
 42
0.0000001
 43
0.0000001
 44
0.0000000001
 40
0.0
 40
0.0
 40
0.0
 40
0.0
 40
0.0019021902
 40
0.0043447473
 40
0.0073299528
 40
0.01085838
 40
0.0149296116
 40
0.0195418922
 40
0.0303802895
 40
0.0433534604
 40
0.0584337759
 40
0.0755889474
 40
0.0947822435
 40
0.1159708998
 40
0.1391096279
 40
0.1910273118
 40
0.2500787802
 40
0.3157440523
 40
0.387444584
 40
0.4645480678
 40
0.5463747517
 40
0.6322024821
 40
0.721275457
 40
0.8128047108
 40
1.0
 40
1.0
 40
1.0
 40
1.0
 10
5.3067402469
 20
5.3000494682
 30
0.0
 10
5.3065473959
 20
5.2999994871
 30
0.0
 10
5.3061018605
 20
5.2999051594
 30
0.0
 10
5.3053445003
 20
5.2997791893
 30
0.0
 10
5.3044149714
 20
5.2996524533
 30
0.0
 10
5.3033136761
 20
5.299525125
 30
0.0
 10
5.3020410283
 20
5.2993974527
 30
0.0
 10
5.3000043771
 20
5.299217047
 30
0.0
 10
5.2970355163
 20
5.2989963544
 30
0.0
 10
5.2929701267
 20
5.2987422431
 30
0.0
 10
5.2882420976
 20
5.2984873448
 30
0.0
 10
5.2828618345
 20
5.2982318048
 30
0.0
 10
5.2768412033
 20
5.2979758832
 30
0.0
 10
5.2701934015
 20
5.2977196246
 30
0.0
 10
5.2601196113
 20
5.2973638817
 30
0.0
 10
5.246080853
 20
5.2969254067
 30
0.0
 10
5.2275883573
 20
5.2964157591
 30
0.0
 10
5.2070232621
 20
5.2959051495
 30
0.0
 10
5.1845670135
 20
5.2953937834
 30
0.0
 10
5.1604177348
 20
5.2948819111
 30
0.0
 10
5.1347885664
 20
5.2943696656
 30
0.0
 10
5.107905563
 20
5.2938571514
 30
0.0
 10
5.0800062051
 20
5.2933444455
 30
0.0
 10
5.0414917474
 20
5.292655525
 30
0.0
 10
5.0123044544
 20
5.2921471986
 30
0.0
 10
4.9927018634
 20
5.291805725
 30
0.0
  0
LINE
  5
3B3
100
AcDbEntity
  8
0
100
AcDbLine
 62
7
  6
CONTINUOUS
 10
5.2863414156
 20
5.2947611967
 11
5.285887716
 21
5.2946572296
  0
SPLINE
  5
3B4
100
AcDbEntity
  8
0
100
AcDbSpline
 62
7
  6
CONTINUOUS
 70
0
 71
3
 72
62
 73
58
 74
0
 42
0.0000001
 43
0.0000001
 44
0.0000000001
 40
0.0
 40
0.0
 40
0.0
 40
0.0
 40
0.0012441788
 40
0.002767175
 40
0.0045691594
 40
0.0066498317
 40
0.0116445647
 40
0.0177420355
 40
0.0249295348
 40
0.0331917706
 40
0.0425098711
 40
0.0528636591
 40
0.0642292106
 40
0.0765813463
 40
0.1041307425
 40
0.1352625148
 40
0.169694492
 40
0.2071143338
 40
0.2471824173
 40
0.2895351442
 40
0.3337880874
 40
0.3795395265
 40
0.4263742182
 40
0.4738668283
 40
0.5215862794
 40
0.5690992426
 40
0.6159744161
 40
0.6617862823
 40
0.706118871
 40
0.7485698032
 40
0.7887536262
 40
0.8263057286
 40
0.8608853962
 40
0.8921789924
 40
0.9065036981
 40
0.9199028912
 40
0.9323463185
 40
0.943806038
 40
0.9542557301
 40
0.9636725082
 40
0.9720346229
 40
0.9793240954
 40
0.985524693
 40
0.9906234804
 40
0.9927567711
 40
0.9946112933
 40
0.9961865817
 40
0.9974829989
 40
0.9980270138
 40
0.9985019219
 40
0.9989082358
 40
0.9992468301
 40
0.9995192969
 40
0.9997288546
 40
0.9998122349
 40
0.9998833553
 40
1.0
 40
1.0
 40
1.0
 40
1.0
 10
5.285887716
 20
5.2946572296
 30
0.0
 10
5.2856488212
 20
5.2946081904
 30
0.0
 10
5.2851145301
 20
5.2945136632
 30
0.0
 10
5.2842281273
 20
5.2943850504
 30
0.0
 10
5.2831763746
 20
5.2942558967
 30
0.0
 10
5.281445999
 20
5.2940717986
 30
0.0
 10
5.2788734669
 20
5.2938478064
 30
0.0
 10
5.2752995713
 20
5.2935906181
 30
0.0
 10
5.2710838543
 20
5.2933324647
 30
0.0
 10
5.2662358965
 20
5.2930735153
 30
0.0
 10
5.2607665499
 20
5.292814056
 30
0.0
 10
5.2546883182
 20
5.2925542657
 30
0.0
 10
5.2480148954
 20
5.2922941792
 30
0.0
 10
5.2379722914
 20
5.2919339181
 30
0.0
 10
5.2240558353
 20
5.2914894525
 30
0.0
 10
5.2058116905
 20
5.2909721481
 30
0.0
 10
5.185632128
 20
5.2904539513
 30
0.0
 10
5.1637004197
 20
5.2899350523
 30
0.0
 10
5.1402157441
 20
5.2894156804
 30
0.0
 10
5.1153913874
 20
5.2888959608
 30
0.0
 10
5.0894527881
 20
5.2883759935
 30
0.0
 10
5.0626354962
 20
5.2878558514
 30
0.0
 10
5.0351830714
 20
5.2873355935
 30
0.0
 10
5.0073448227
 20
5.2868152686
 30
0.0
 10
4.9793736008
 20
5.2862949214
 30
0.0
 10
4.9515234256
 20
5.2857745943
 30
0.0
 10
4.9240472276
 20
5.2852543318
 30
0.0
 10
4.8971945381
 20
5.2847341833
 30
0.0
 10
4.871209224
 20
5.2842142062
 30
0.0
 10
4.8463273072
 20
5.2836944749
 30
0.0
 10
4.8227747551
 20
5.2831750791
 30
0.0
 10
4.8007654638
 20
5.2826561697
 30
0.0
 10
4.7804992851
 20
5.2821378798
 30
0.0
 10
4.7647856019
 20
5.2816947353
 30
0.0
 10
4.7532228985
 20
5.2813367054
 30
0.0
 10
4.7453538533
 20
5.2810762738
 30
0.0
 10
4.7380467083
 20
5.2808159947
 30
0.0
 10
4.7313180928
 20
5.2805559181
 30
0.0
 10
4.725183214
 20
5.2802960707
 30
0.0
 10
4.7196560862
 20
5.2800366027
 30
0.0
 10
4.7147491427
 20
5.2797775727
 30
0.0
 10
4.7104735432
 20
5.2795193445
 30
0.0
 10
4.7068389049
 20
5.2792620387
 30
0.0
 10
4.7042152743
 20
5.2790380342
 30
0.0
 10
4.7024436441
 20
5.2788541642
 30
0.0
 10
4.701360819
 20
5.2787249457
 30
0.0
 10
4.7004433409
 20
5.2785961704
 30
0.0
 10
4.6997830825
 20
5.2784840448
 30
0.0
 10
4.6993386
 20
5.2783921328
 30
0.0
 10
4.6990667713
 20
5.2783274245
 30
0.0
 10
4.6988364703
 20
5.2782629057
 30
0.0
 10
4.6986474888
 20
5.2781986735
 30
0.0
 10
4.6984997505
 20
5.278134686
 30
0.0
 10
4.6984036882
 20
5.278078096
 30
0.0
 10
4.698349739
 20
5.2780308962
 30
0.0
 10
4.6983157155
 20
5.2779900741
 30
0.0
 10
4.698301953
 20
5.277953221
 30
0.0
 10
4.6983019622
 20
5.2779303571
 30
0.0
  0
SPLINE
  5
3B5
100
AcDbEntity
  8
0
100
AcDbSpline
 62
7
  6
CONTINUOUS
 70
0
 71
3
 72
30
 73
26
 74
0
 42
0.0000001
 43
0.0000001
 44
0.0000000001
 40
0.0
 40
0.0
 40
0.0
 40
0.0
 40
0.0019021902
 40
0.0043447473
 40
0.0073299528
 40
0.01085838
 40
0.0149296116
 40
0.0195418922
 40
0.0303802895
 40
0.0433534604
 40
0.0584337759
 40
0.0755889474
 40
0.0947822435
 40
0.1159708998
 40
0.1391096279
 40
0.1910273118
 40
0.2500787802
 40
0.3157440523
 40
0.387444584
 40
0.4645480678
 40
0.5463747517
 40
0.6322024821
 40
0.721275457
 40
0.8128047108
 40
1.0
 40
1.0
 40
1.0
 40
1.0
 10
5.3067402469
 20
5.3344994682
 30
0.0
 10
5.3065473959
 20
5.3344494871
 30
0.0
 10
5.3061018605
 20
5.3343551594
 30
0.0
 10
5.3053445003
 20
5.3342291893
 30
0.0
 10
5.3044149714
 20
5.3341024533
 30
0.0
 10
5.3033136761
 20
5.333975125
 30
0.0
 10
5.3020410283
 20
5.3338474527
 30
0.0
 10
5.3000043771
 20
5.333667047
 30
0.0
 10
5.2970355163
 20
5.3334463544
 30
0.0
 10
5.2929701267
 20
5.3331922431
 30
0.0
 10
5.2882420976
 20
5.3329373448
 30
0.0
 10
5.2828618345
 20
5.3326818048
 30
0.0
 10
5.2768412033
 20
5.3324258832
 30
0.0
 10
5.2701934015
 20
5.3321696246
 30
0.0
 10
5.2601196113
 20
5.3318138817
 30
0.0
 10
5.246080853
 20
5.3313754067
 30
0.0
 10
5.2275883573
 20
5.3308657591
 30
0.0
 10
5.2070232621
 20
5.3303551495
 30
0.0
 10
5.1845670135
 20
5.3298437834
 30
0.0
 10
5.1604177348
 20
5.3293319111
 30
0.0
 10
5.1347885664
 20
5.3288196656
 30
0.0
 10
5.107905563
 20
5.3283071514
 30
0.0
 10
5.0800062051
 20
5.3277944455
 30
0.0
 10
5.0414917474
 20
5.327105525
 30
0.0
 10
5.0123044544
 20
5.3265971986
 30
0.0
 10
4.9927018634
 20
5.326255725
 30
0.0
  0
LINE
  5
3B6
100
AcDbEntity
  8
0
100
AcDbLine
 62
7
  6
CONTINUOUS
 10
5.2863413327
 20
5.3292111966
 11
5.2858411442
 21
5.3290977785
  0
SPLINE
  5
3B7
100
AcDbEntity
  8
0
100
AcDbSpline
 62
7
  6
CONTINUOUS
 70
0
 71
3
 72
62
 73
58
 74
0
 42
0.0000001
 43
0.0000001
 44
0.0000000001
 40
0.0
 40
0.0
 40
0.0
 40
0.0
 40
0.0012634088
 40
0.0028054886
 40
0.0046265135
 40
0.006725927
 40
0.0117564569
 40
0.0178886128
 40
0.025109012
 40
0.03340231
 40
0.0427500903
 40
0.0531312273
 40
0.0645228874
 40
0.0768987587
 40
0.1044904708
 40
0.1356568821
 40
0.1701157001
 40
0.2075547595
 40
0.2476347757
 40
0.2899923869
 40
0.3342436544
 40
0.3799872267
 40
0.426808309
 40
0.4742823063
 40
0.5219786953
 40
0.5694649799
 40
0.6163105327
 40
0.6620904653
 40
0.7063896967
 40
0.748806486
 40
0.7889563379
 40
0.8264752906
 40
0.8610232495
 40
0.8922872391
 40
0.9065978262
 40
0.9199840372
 40
0.9324150806
 40
0.9438632557
 40
0.954302624
 40
0.9637095377
 40
0.9720634175
 40
0.9793451143
 40
0.9855394778
 40
0.9906329508
 40
0.9927638548
 40
0.9946165025
 40
0.996190393
 40
0.9974854891
 40
0.9980288632
 40
0.9985031868
 40
0.9989090046
 40
0.9992472226
 40
0.9995194605
 40
0.9997289235
 40
0.9998122852
 40
0.9998833934
 40
1.0
 40
1.0
 40
1.0
 40
1.0
 10
5.2858411442
 20
5.3290977785
 30
0.0
 10
5.2855983969
 20
5.329048869
 30
0.0
 10
5.2850565141
 20
5.3289544648
 30
0.0
 10
5.2841588249
 20
5.3288258743
 30
0.0
 10
5.2830959266
 20
5.3286967709
 30
0.0
 10
5.2813511703
 20
5.3285128767
 30
0.0
 10
5.2787612915
 20
5.3282889804
 30
0.0
 10
5.2751673629
 20
5.3280319139
 30
0.0
 10
5.270932612
 20
5.3277738635
 30
0.0
 10
5.2660666612
 20
5.3275150298
 30
0.0
 10
5.2605804655
 20
5.3272557201
 30
0.0
 10
5.2544864113
 20
5.3269960431
 30
0.0
 10
5.2477983808
 20
5.3267361152
 30
0.0
 10
5.2377385058
 20
5.3263760821
 30
0.0
 10
5.2238034207
 20
5.3259319013
 30
0.0
 10
5.2055403907
 20
5.3254148635
 30
0.0
 10
5.1853466299
 20
5.3248969435
 30
0.0
 10
5.1634053173
 20
5.3243783252
 30
0.0
 10
5.1399154681
 20
5.3238592378
 30
0.0
 10
5.1150901422
 20
5.3233398049
 30
0.0
 10
5.0891545453
 20
5.3228201264
 30
0.0
 10
5.0623439523
 20
5.322300274
 30
0.0
 10
5.034901598
 20
5.3217803061
 30
0.0
 10
5.0070764296
 20
5.321260272
 30
0.0
 10
4.9791208609
 20
5.3207402159
 30
0.0
 10
4.9512884868
 20
5.3202201806
 30
0.0
 10
4.923831799
 20
5.3197002105
 30
0.0
 10
4.8969998785
 20
5.3191803541
 30
0.0
 10
4.8710361501
 20
5.3186606689
 30
0.0
 10
4.8461761294
 20
5.3181412293
 30
0.0
 10
4.8226453256
 20
5.3176221253
 30
0.0
 10
4.8006571811
 20
5.317103509
 30
0.0
 10
4.7804111533
 20
5.3165855087
 30
0.0
 10
4.7647135233
 20
5.3161426189
 30
0.0
 10
4.7531628683
 20
5.3157847772
 30
0.0
 10
4.7453021971
 20
5.3155245006
 30
0.0
 10
4.7380028765
 20
5.3152643672
 30
0.0
 10
4.7312815181
 20
5.315004429
 30
0.0
 10
4.7251533535
 20
5.3147447464
 30
0.0
 10
4.7196322444
 20
5.3144853986
 30
0.0
 10
4.7147307673
 20
5.3142265455
 30
0.0
 10
4.7104598749
 20
5.3139684359
 30
0.0
 10
4.7068293174
 20
5.3137112894
 30
0.0
 10
4.7042086296
 20
5.3134874197
 30
0.0
 10
4.7024390218
 20
5.3133036353
 30
0.0
 10
4.7013573944
 20
5.3131744863
 30
0.0
 10
4.7004408882
 20
5.3130458028
 30
0.0
 10
4.6997813413
 20
5.3129337414
 30
0.0
 10
4.6993373965
 20
5.312841874
 30
0.0
 10
4.6990659296
 20
5.3127772003
 30
0.0
 10
4.6988359357
 20
5.312712715
 30
0.0
 10
4.6986471889
 20
5.3126485141
 30
0.0
 10
4.6984996009
 20
5.3125845579
 30
0.0
 10
4.6984036074
 20
5.3125280061
 30
0.0
 10
4.6983496709
 20
5.3124808384
 30
0.0
 10
4.6983156437
 20
5.3124400442
 30
0.0
 10
4.6983018622
 20
5.3124032118
 30
0.0
 10
4.6983018635
 20
5.3123803571
 30
0.0
  0
SPLINE
  5
3B8
100
AcDbEntity
  8
0
100
AcDbSpline
 62
7
  6
CONTINUOUS
 70
0
 71
3
 72
63
 73
59
 74
0
 42
0.0000001
 43
0.0000001
 44
0.0000000001
 40
0.0
 40
0.0
 40
0.0
 40
0.0
 40
0.0001173806
 40
0.0001891017
 40
0.0002732711
 40
0.0004849822
 40
0.0007603459
 40
0.0011025851
 40
0.0015133309
 40
0.0019934994
 40
0.0025436448
 40
0.0038550405
 40
0.0054486951
 40
0.0073245792
 40
0.0094822478
 40
0.0146398999
 40
0.0209118105
 40
0.0282844781
 40
0.0367420741
 40
0.0462649613
 40
0.0568322267
 40
0.0684191965
 40
0.0809997888
 40
0.0945450588
 40
0.109023819
 40
0.1406474437
 40
0.175580503
 40
0.2135020441
 40
0.2540637308
 40
0.2968927858
 40
0.3415956361
 40
0.3877614922
 40
0.4349659409
 40
0.4827752039
 40
0.5307496717
 40
0.5784484493
 40
0.6254330788
 40
0.6712716942
 40
0.7155430345
 40
0.7578401345
 40
0.7977742768
 40
0.8349785256
 40
0.8691111312
 40
0.8998587287
 40
0.9269391885
 40
0.9390253109
 40
0.9501043775
 40
0.9601509931
 40
0.9691426854
 40
0.9770585315
 40
0.983881571
 40
0.9895963186
 40
0.9920344736
 40
0.9941916773
 40
0.9960669893
 40
0.9976597839
 40
0.9989703474
 40
1.0
 40
1.0
 40
1.0
 40
1.0
 10
5.287101849
 20
5.4886053571
 30
0.0
 10
5.2871018389
 20
5.4885823307
 30
0.0
 10
5.2870878244
 20
5.4885452133
 30
0.0
 10
5.2870533489
 20
5.4885041786
 30
0.0
 10
5.2869986604
 20
5.4884566773
 30
0.0
 10
5.286901365
 20
5.4883997513
 30
0.0
 10
5.2867518014
 20
5.4883353681
 30
0.0
 10
5.2865605151
 20
5.4882707369
 30
0.0
 10
5.2863274134
 20
5.4882058159
 30
0.0
 10
5.2860522628
 20
5.4881407047
 30
0.0
 10
5.2856022515
 20
5.4880482118
 30
0.0
 10
5.2849337172
 20
5.4879354008
 30
0.0
 10
5.2840047728
 20
5.4878058404
 30
0.0
 10
5.2829085106
 20
5.4876758139
 30
0.0
 10
5.2811149541
 20
5.4874907784
 30
0.0
 10
5.2784589194
 20
5.4872654096
 30
0.0
 10
5.2747795423
 20
5.4870065045
 30
0.0
 10
5.2704515153
 20
5.4867466553
 30
0.0
 10
5.2654848176
 20
5.4864860451
 30
0.0
 10
5.2598907043
 20
5.4862249356
 30
0.0
 10
5.2536821253
 20
5.4859635004
 30
0.0
 10
5.24687325
 20
5.4857017912
 30
0.0
 10
5.2394797952
 20
5.4854399035
 30
0.0
 10
5.2315187384
 20
5.4851778557
 30
0.0
 10
5.2198232668
 20
5.484817624
 30
0.0
 10
5.2039328628
 20
5.4843717677
 30
0.0
 10
5.1834441116
 20
5.4838502694
 30
0.0
 10
5.1612014864
 20
5.4833281493
 30
0.0
 10
5.1374095296
 20
5.4828055405
 30
0.0
 10
5.1122869968
 20
5.4822825947
 30
0.0
 10
5.0860648793
 20
5.4817594036
 30
0.0
 10
5.0589842848
 20
5.4812360422
 30
0.0
 10
5.0312942006
 20
5.4807125689
 30
0.0
 10
5.003249262
 20
5.480189034
 30
0.0
 10
4.9751073351
 20
5.4796654824
 30
0.0
 10
4.9471272031
 20
5.4791419583
 30
0.0
 10
4.9195661313
 20
5.478618508
 30
0.0
 10
4.8926775369
 20
5.4780951832
 30
0.0
 10
4.8667086649
 20
5.4775720464
 30
0.0
 10
4.8418983051
 20
5.4770491748
 30
0.0
 10
4.8184746029
 20
5.4765266758
 30
0.0
 10
4.7966529317
 20
5.4760046836
 30
0.0
 10
4.7766339072
 20
5.4754834524
 30
0.0
 10
4.7586015683
 20
5.4749631858
 30
0.0
 10
4.7448938296
 20
5.4745157355
 30
0.0
 10
4.7350438712
 20
5.4741527423
 30
0.0
 10
4.7285339895
 20
5.4738911483
 30
0.0
 10
4.7226316593
 20
5.4736298584
 30
0.0
 10
4.7173505061
 20
5.473368987
 30
0.0
 10
4.7127025393
 20
5.4731087158
 30
0.0
 10
4.7086985185
 20
5.4728492495
 30
0.0
 10
4.705769219
 20
5.4726240005
 30
0.0
 10
4.7037550539
 20
5.4724399609
 30
0.0
 10
4.7024923832
 20
5.472309583
 30
0.0
 10
4.7013965133
 20
5.4721795576
 30
0.0
 10
4.7004679565
 20
5.4720500765
 30
0.0
 10
4.6997071594
 20
5.4719213197
 30
0.0
 10
4.6992578978
 20
5.4718252093
 30
0.0
 10
4.6990623765
 20
5.4717745177
 30
0.0
  0
SPLINE
  5
3B9
100
AcDbEntity
  8
0
100
AcDbSpline
 62
7
  6
CONTINUOUS
 70
0
 71
3
 72
30
 73
26
 74
0
 42
0.0000001
 43
0.0000001
 44
0.0000000001
 40
0.0
 40
0.0
 40
0.0
 40
0.0
 40
0.0019021902
 40
0.0043447473
 40
0.0073299528
 40
0.01085838
 40
0.0149296116
 40
0.0195418922
 40
0.0303802895
 40
0.0433534604
 40
0.0584337759
 40
0.0755889474
 40
0.0947822435
 40
0.1159708998
 40
0.1391096279
 40
0.1910273118
 40
0.2500787802
 40
0.3157440523
 40
0.387444584
 40
0.4645480678
 40
0.5463747517
 40
0.6322024821
 40
0.721275457
 40
0.8128047108
 40
1.0
 40
1.0
 40
1.0
 40
1.0
 10
5.3067402469
 20
5.3689494682
 30
0.0
 10
5.3065473959
 20
5.3688994871
 30
0.0
 10
5.3061018605
 20
5.3688051594
 30
0.0
 10
5.3053445003
 20
5.3686791893
 30
0.0
 10
5.3044149714
 20
5.3685524533
 30
0.0
 10
5.3033136761
 20
5.368425125
 30
0.0
 10
5.3020410283
 20
5.3682974527
 30
0.0
 10
5.3000043771
 20
5.368117047
 30
0.0
 10
5.2970355163
 20
5.3678963544
 30
0.0
 10
5.2929701267
 20
5.3676422431
 30
0.0
 10
5.2882420976
 20
5.3673873448
 30
0.0
 10
5.2828618345
 20
5.3671318048
 30
0.0
 10
5.2768412033
 20
5.3668758832
 30
0.0
 10
5.2701934015
 20
5.3666196246
 30
0.0
 10
5.2601196113
 20
5.3662638817
 30
0.0
 10
5.246080853
 20
5.3658254067
 30
0.0
 10
5.2275883573
 20
5.3653157591
 30
0.0
 10
5.2070232621
 20
5.3648051495
 30
0.0
 10
5.1845670135
 20
5.3642937834
 30
0.0
 10
5.1604177348
 20
5.3637819111
 30
0.0
 10
5.1347885664
 20
5.3632696656
 30
0.0
 10
5.107905563
 20
5.3627571514
 30
0.0
 10
5.0800062051
 20
5.3622444455
 30
0.0
 10
5.0414917474
 20
5.361555525
 30
0.0
 10
5.0123044544
 20
5.3610471986
 30
0.0
 10
4.9927018634
 20
5.360705725
 30
0.0
  0
SPLINE
  5
3BA
100
AcDbEntity
  8
0
100
AcDbSpline
 62
7
  6
CONTINUOUS
 70
0
 71
3
 72
63
 73
59
 74
0
 42
0.0000001
 43
0.0000001
 44
0.0000000001
 40
0.0
 40
0.0
 40
0.0
 40
0.0
 40
0.0001173623
 40
0.0001890543
 40
0.0002731849
 40
0.0004848079
 40
0.0007601027
 40
0.0011023288
 40
0.0015131447
 40
0.001993433
 40
0.0025436873
 40
0.0038550825
 40
0.0054485463
 40
0.0073243113
 40
0.0094821423
 40
0.0146398919
 40
0.0209115739
 40
0.0282845419
 40
0.0367418177
 40
0.0462649937
 40
0.0568320868
 40
0.068419104
 40
0.0809997483
 40
0.094544821
 40
0.1090238479
 40
0.1406474614
 40
0.1755803765
 40
0.2135018703
 40
0.2540635217
 40
0.2968926431
 40
0.3415955531
 40
0.3877613839
 40
0.4349658447
 40
0.482775043
 40
0.5307495249
 40
0.578448343
 40
0.6254329464
 40
0.6712715602
 40
0.7155428169
 40
0.7578398809
 40
0.7977740854
 40
0.8349784051
 40
0.8691111161
 40
0.8998586648
 40
0.9269390255
 40
0.9390252284
 40
0.950104111
 40
0.960150985
 40
0.9691423415
 40
0.9770584897
 40
0.9838813217
 40
0.9895961673
 40
0.9920344759
 40
0.9941915786
 40
0.9960666642
 40
0.9976594931
 40
0.9989702531
 40
1.0
 40
1.0
 40
1.0
 40
1.0
 10
5.2871017458
 20
5.4541553571
 30
0.0
 10
5.2871017417
 20
5.4541323343
 30
0.0
 10
5.2870877548
 20
5.4540952197
 30
0.0
 10
5.2870533108
 20
5.4540541792
 30
0.0
 10
5.2869986646
 20
5.4540066758
 30
0.0
 10
5.2869014147
 20
5.4539497454
 30
0.0
 10
5.2867518876
 20
5.4538853613
 30
0.0
 10
5.2865606033
 20
5.4538207299
 30
0.0
 10
5.2863274641
 20
5.4537558138
 30
0.0
 10
5.2860522523
 20
5.4536907067
 30
0.0
 10
5.2856021933
 20
5.4535982238
 30
0.0
 10
5.2849336768
 20
5.4534854074
 30
0.0
 10
5.2840047951
 20
5.4533558365
 30
0.0
 10
5.2829085626
 20
5.4532258039
 30
0.0
 10
5.2811149759
 20
5.4530407893
 30
0.0
 10
5.2784589356
 20
5.452815416
 30
0.0
 10
5.2747795261
 20
5.45255649
 30
0.0
 10
5.2704515458
 20
5.452296672
 30
0.0
 10
5.2654847965
 20
5.4520360306
 30
0.0
 10
5.2598907216
 20
5.4517749466
 30
0.0
 10
5.2536821106
 20
5.4515134949
 30
0.0
 10
5.2468732487
 20
5.4512517917
 30
0.0
 10
5.2394798125
 20
5.4509899069
 30
0.0
 10
5.2315187315
 20
5.4507278503
 30
0.0
 10
5.2198232472
 20
5.4503676308
 30
0.0
 10
5.2039328204
 20
5.4499217665
 30
0.0
 10
5.1834441072
 20
5.4494002696
 30
0.0
 10
5.1612015248
 20
5.4488781486
 30
0.0
 10
5.1374095693
 20
5.4483555402
 30
0.0
 10
5.1122870167
 20
5.4478325949
 30
0.0
 10
5.0860648772
 20
5.4473094039
 30
0.0
 10
5.0589842715
 20
5.4467860425
 30
0.0
 10
5.0312942003
 20
5.4462625691
 30
0.0
 10
5.003249267
 20
5.4457390339
 30
0.0
 10
4.9751073399
 20
5.4452154824
 30
0.0
 10
4.9471272
 20
5.4446919586
 30
0.0
 10
4.9195661235
 20
5.4441685084
 30
0.0
 10
4.8926775488
 20
5.4436451835
 30
0.0
 10
4.8667086986
 20
5.4431220465
 30
0.0
 10
4.841898348
 20
5.4425991743
 30
0.0
 10
4.8184746249
 20
5.4420766755
 30
0.0
 10
4.7966529051
 20
5.4415546839
 30
0.0
 10
4.776633854
 20
5.4410334526
 30
0.0
 10
4.7586015219
 20
5.4405131885
 30
0.0
 10
4.7448937957
 20
5.4400657305
 30
0.0
 10
4.7350438758
 20
5.4397027477
 30
0.0
 10
4.7285339639
 20
5.4394411383
 30
0.0
 10
4.7226316834
 20
5.4391798725
 30
0.0
 10
4.7173504871
 20
5.4389189717
 30
0.0
 10
4.7127025657
 20
5.4386587288
 30
0.0
 10
4.7086985079
 20
5.4383992429
 30
0.0
 10
4.7057691998
 20
5.4381739925
 30
0.0
 10
4.7037550035
 20
5.4379899686
 30
0.0
 10
4.7024923668
 20
5.4378595901
 30
0.0
 10
4.7013965569
 20
5.4377295479
 30
0.0
 10
4.7004679991
 20
5.4376000677
 30
0.0
 10
4.699707136
 20
5.4374713211
 30
0.0
 10
4.6992578143
 20
5.4373752164
 30
0.0
 10
4.6990622756
 20
5.4373245177
 30
0.0
  0
SPLINE
  5
3BB
100
AcDbEntity
  8
0
100
AcDbSpline
 62
7
  6
CONTINUOUS
 70
0
 71
3
 72
63
 73
59
 74
0
 42
0.0000001
 43
0.0000001
 44
0.0000000001
 40
0.0
 40
0.0
 40
0.0
 40
0.0
 40
0.0010297648
 40
0.0023404665
 40
0.0039332399
 40
0.0058083524
 40
0.0079655454
 40
0.0104038363
 40
0.0161185817
 40
0.0229415364
 40
0.0308575781
 40
0.0398490201
 40
0.0498958575
 40
0.0609747227
 40
0.0730609768
 40
0.1001413532
 40
0.130888903
 40
0.1650215308
 40
0.2022258742
 40
0.2421600519
 40
0.2844571661
 40
0.3287284403
 40
0.3745670316
 40
0.4215516738
 40
0.469250428
 40
0.5172249656
 40
0.565034147
 40
0.6122386171
 40
0.6584044468
 40
0.7031073256
 40
0.7459364488
 40
0.786498126
 40
0.8244196498
 40
0.8593525877
 40
0.8909761717
 40
0.9054551522
 40
0.9190002315
 40
0.9315809469
 40
0.9431678714
 40
0.9537350538
 40
0.9632581075
 40
0.971715482
 40
0.9790884135
 40
0.9853600982
 40
0.990517898
 40
0.9926756276
 40
0.9945513884
 40
0.9961449172
 40
0.9974563656
 40
0.9980066174
 40
0.9984868708
 40
0.9988976338
 40
0.9992398373
 40
0.9995151372
 40
0.9997267815
 40
0.9998109244
 40
0.9998826275
 40
1.0
 40
1.0
 40
1.0
 40
1.0
 10
5.2863414264
 20
5.3636611965
 30
0.0
 10
5.2861458832
 20
5.3636105016
 30
0.0
 10
5.2856965701
 20
5.363514396
 30
0.0
 10
5.2849357266
 20
5.3633856456
 30
0.0
 10
5.2840071865
 20
5.3632561626
 30
0.0
 10
5.2829113641
 20
5.363126122
 30
0.0
 10
5.2816487073
 20
5.3629957495
 30
0.0
 10
5.2796345169
 20
5.3628117215
 30
0.0
 10
5.2767052083
 20
5.3625864651
 30
0.0
 10
5.2727011664
 20
5.3623269918
 30
0.0
 10
5.2680532258
 20
5.3620667372
 30
0.0
 10
5.2627720406
 20
5.3618058448
 30
0.0
 10
5.2568697543
 20
5.3615445748
 30
0.0
 10
5.2503598432
 20
5.3612829655
 30
0.0
 10
5.2405099139
 20
5.3609199848
 30
0.0
 10
5.2268021748
 20
5.3604725257
 30
0.0
 10
5.2087698564
 20
5.3599522619
 30
0.0
 10
5.1887508175
 20
5.3594310298
 30
0.0
 10
5.1669291154
 20
5.3589090386
 30
0.0
 10
5.1435053839
 20
5.3583865397
 30
0.0
 10
5.1186950261
 20
5.3578636679
 30
0.0
 10
5.0927261679
 20
5.3573405307
 30
0.0
 10
5.0658375876
 20
5.3568172059
 30
0.0
 10
5.0382765214
 20
5.3562937556
 30
0.0
 10
5.0102963765
 20
5.3557702316
 30
0.0
 10
4.9821544552
 20
5.3552466803
 30
0.0
 10
4.9541095135
 20
5.3547231451
 30
0.0
 10
4.926419445
 20
5.3541996717
 30
0.0
 10
4.8993388448
 20
5.3536763103
 30
0.0
 10
4.8731167122
 20
5.3531531192
 30
0.0
 10
4.8479941612
 20
5.3526301737
 30
0.0
 10
4.8242021953
 20
5.3521075653
 30
0.0
 10
4.8019595982
 20
5.3515854448
 30
0.0
 10
4.7814708812
 20
5.3510639477
 30
0.0
 10
4.7655804653
 20
5.3506180839
 30
0.0
 10
4.7538849951
 20
5.3502578639
 30
0.0
 10
4.7459239082
 20
5.349995806
 30
0.0
 10
4.738530475
 20
5.3497339251
 30
0.0
 10
4.7317216004
 20
5.3494722153
 30
0.0
 10
4.7255130139
 20
5.3492107725
 30
0.0
 10
4.7199189267
 20
5.3489496792
 30
0.0
 10
4.7149521891
 20
5.348689045
 30
0.0
 10
4.7106241963
 20
5.3484292239
 30
0.0
 10
4.7069447841
 20
5.3481702939
 30
0.0
 10
4.7042887522
 20
5.3479449338
 30
0.0
 10
4.7024951777
 20
5.3477599074
 30
0.0
 10
4.7013989533
 20
5.347629875
 30
0.0
 10
4.7004700488
 20
5.3475003063
 30
0.0
 10
4.6998015088
 20
5.3473874925
 30
0.0
 10
4.6993514466
 20
5.3472950093
 30
0.0
 10
4.6990762529
 20
5.3472299024
 30
0.0
 10
4.6988431375
 20
5.3471649818
 30
0.0
 10
4.6986518681
 20
5.3471003499
 30
0.0
 10
4.6985023402
 20
5.3470359659
 30
0.0
 10
4.6984050814
 20
5.3469790369
 30
0.0
 10
4.6983504226
 20
5.3469315348
 30
0.0
 10
4.6983159669
 20
5.346890496
 30
0.0
 10
4.6983019668
 20
5.346853382
 30
0.0
 10
4.6983019565
 20
5.3468303572
 30
0.0
  0
SPLINE
  5
3BC
100
AcDbEntity
  8
0
100
AcDbSpline
 62
7
  6
CONTINUOUS
 70
0
 71
3
 72
39
 73
35
 74
0
 42
0.0000001
 43
0.0000001
 44
0.0000000001
 40
0.0
 40
0.0
 40
0.0
 40
0.0
 40
0.000522443
 40
0.0007225193
 40
0.0009552567
 40
0.0015233136
 40
0.0022329777
 40
0.0030871452
 40
0.0040873247
 40
0.0052343691
 40
0.0079707117
 40
0.0112981435
 40
0.0152168847
 40
0.0197258015
 40
0.0305042131
 40
0.0436114798
 40
0.0590180463
 40
0.0766875226
 40
0.0965788924
 40
0.1186437664
 40
0.1428305587
 40
0.1690801068
 40
0.1973305283
 40
0.2275130044
 40
0.2595556403
 40
0.2933809986
 40
0.3660507836
 40
0.4448230863
 40
0.5289400226
 40
0.6175916474
 40
0.7099254491
 40
0.8050502783
 40
0.9020555645
 40
1.0
 40
1.0
 40
1.0
 40
1.0
 10
5.3074517519
 20
5.5177924893
 30
0.0
 10
5.3074517519
 20
5.5177376281
 30
0.0
 10
5.307384813
 20
5.5176732321
 30
0.0
 10
5.3073014946
 20
5.5176220239
 30
0.0
 10
5.3072071988
 20
5.5175737999
 30
0.0
 10
5.3070595717
 20
5.517516156
 30
0.0
 10
5.3068454537
 20
5.5174498953
 30
0.0
 10
5.3065844767
 20
5.5173835563
 30
0.0
 10
5.3062763622
 20
5.5173169194
 30
0.0
 10
5.3057723145
 20
5.51722226
 30
0.0
 10
5.3050237913
 20
5.5171068028
 30
0.0
 10
5.303983896
 20
5.5169742145
 30
0.0
 10
5.3027566386
 20
5.5168411548
 30
0.0
 10
5.3007486926
 20
5.5166518107
 30
0.0
 10
5.2977757657
 20
5.5164211563
 30
0.0
 10
5.2936581857
 20
5.5161562037
 30
0.0
 10
5.2888157632
 20
5.5158902948
 30
0.0
 10
5.2832600815
 20
5.5156235655
 30
0.0
 10
5.2770045293
 20
5.5153563749
 30
0.0
 10
5.270064061
 20
5.5150887988
 30
0.0
 10
5.262455487
 20
5.514820987
 30
0.0
 10
5.254197015
 20
5.5145529572
 30
0.0
 10
5.2453086408
 20
5.5142847933
 30
0.0
 10
5.2358116868
 20
5.5140164988
 30
0.0
 10
5.2257290983
 20
5.5137481112
 30
0.0
 10
5.2111860163
 20
5.5133813338
 30
0.0
 10
5.1917365843
 20
5.5129264568
 30
0.0
 10
5.1670065486
 20
5.5123921319
 30
0.0
 10
5.140597922
 20
5.5118573551
 30
0.0
 10
5.1127649496
 20
5.5113222249
 30
0.0
 10
5.0837758511
 20
5.5107868574
 30
0.0
 10
5.0539094026
 20
5.5102513175
 30
0.0
 10
5.023453697
 20
5.5097156779
 30
0.0
 10
5.0029853426
 20
5.5093591256
 30
0.0
 10
4.9927018634
 20
5.5091799893
 30
0.0
  0
SPLINE
  5
3BD
100
AcDbEntity
  8
0
100
AcDbSpline
 62
7
  6
CONTINUOUS
 70
0
 71
3
 72
63
 73
59
 74
0
 42
0.0000001
 43
0.0000001
 44
0.0000000001
 40
0.0
 40
0.0
 40
0.0
 40
0.0
 40
0.0001173432
 40
0.000189031
 40
0.0002731728
 40
0.000484875
 40
0.0007602873
 40
0.0011026094
 40
0.0015134449
 40
0.001993681
 40
0.0025438427
 40
0.0038550617
 40
0.0054485752
 40
0.0073245718
 40
0.0094824096
 40
0.01463984
 40
0.0209118628
 40
0.0282845666
 40
0.0367420147
 40
0.0462651393
 40
0.0568321165
 40
0.0684193415
 40
0.0809997276
 40
0.0945451015
 40
0.1090238856
 40
0.140647584
 40
0.1755806043
 40
0.2135020866
 40
0.2540636846
 40
0.2968927432
 40
0.3415956035
 40
0.3877615125
 40
0.434965976
 40
0.4827751927
 40
0.5307496686
 40
0.5784484309
 40
0.6254331131
 40
0.6712717357
 40
0.7155430356
 40
0.7578400622
 40
0.7977741645
 40
0.834978448
 40
0.8691111389
 40
0.8998588144
 40
0.9269392999
 40
0.9390252129
 40
0.9501043923
 40
0.9601509914
 40
0.9691425527
 40
0.9770586366
 40
0.983881395
 40
0.9895964478
 40
0.9920345304
 40
0.994191555
 40
0.9960668093
 40
0.9976598033
 40
0.9989704775
 40
1.0
 40
1.0
 40
1.0
 40
1.0
 10
5.2871018126
 20
5.4197053572
 30
0.0
 10
5.2871018262
 20
5.4196823381
 30
0.0
 10
5.2870878586
 20
5.4196452163
 30
0.0
 10
5.2870534166
 20
5.4196041763
 30
0.0
 10
5.2869987506
 20
5.4195566692
 30
0.0
 10
5.2869014486
 20
5.4194997456
 30
0.0
 10
5.2867518578
 20
5.4194353666
 30
0.0
 10
5.2865605244
 20
5.4193707382
 30
0.0
 10
5.2863273736
 20
5.4193058188
 30
0.0
 10
5.2860521878
 20
5.4192407086
 30
0.0
 10
5.2856021939
 20
5.4191482215
 30
0.0
 10
5.2849337224
 20
5.4190353953
 30
0.0
 10
5.2840048188
 20
5.4189058303
 30
0.0
 10
5.2829085276
 20
5.4187758135
 30
0.0
 10
5.2811149576
 20
5.4185907943
 30
0.0
 10
5.2784589138
 20
5.4183653949
 30
0.0
 10
5.2747795491
 20
5.41810651
 30
0.0
 10
5.2704515221
 20
5.4178466584
 30
0.0
 10
5.2654847998
 20
5.4175860372
 30
0.0
 10
5.2598907244
 20
5.4173249464
 30
0.0
 10
5.2536821057
 20
5.41706349
 30
0.0
 10
5.2468732761
 20
5.4168017998
 30
0.0
 10
5.2394797914
 20
5.4165398981
 30
0.0
 10
5.2315187491
 20
5.4162778579
 30
0.0
 10
5.2198232374
 20
5.4159176229
 30
0.0
 10
5.2039328208
 20
5.4154717693
 30
0.0
 10
5.183444073
 20
5.4149502696
 30
0.0
 10
5.1612014829
 20
5.4144281494
 30
0.0
 10
5.1374095528
 20
5.4139055403
 30
0.0
 10
5.1122870331
 20
5.4133825946
 30
0.0
 10
5.0860649008
 20
5.4128594035
 30
0.0
 10
5.0589842893
 20
5.4123360425
 30
0.0
 10
5.031294199
 20
5.4118125692
 30
0.0
 10
5.0032492632
 20
5.4112890341
 30
0.0
 10
4.975107345
 20
5.4107654823
 30
0.0
 10
4.9471272022
 20
5.4102419582
 30
0.0
 10
4.9195661198
 20
5.4097185082
 30
0.0
 10
4.8926775198
 20
5.4091951837
 30
0.0
 10
4.8667086671
 20
5.4086720468
 30
0.0
 10
4.8418983358
 20
5.4081491746
 30
0.0
 10
4.8184746475
 20
5.4076266754
 30
0.0
 10
4.7966529592
 20
5.4071046831
 30
0.0
 10
4.7766338945
 20
5.4065834528
 30
0.0
 10
4.7586015174
 20
5.4060631846
 30
0.0
 10
4.7448937983
 20
5.4056157417
 30
0.0
 10
4.7350438535
 20
5.4052527377
 30
0.0
 10
4.7285339934
 20
5.4049911497
 30
0.0
 10
4.7226316694
 20
5.4047298627
 30
0.0
 10
4.717350499
 20
5.4044689764
 30
0.0
 10
4.7127025645
 20
5.4042087318
 30
0.0
 10
4.7086984943
 20
5.40394923
 30
0.0
 10
4.7057692019
 20
5.4037240105
 30
0.0
 10
4.7037550266
 20
5.403539965
 30
0.0
 10
4.7024924173
 20
5.4034095809
 30
0.0
 10
4.7013965561
 20
5.4032795458
 30
0.0
 10
4.7004679476
 20
5.4031500778
 30
0.0
 10
4.6997071122
 20
5.4030213345
 30
0.0
 10
4.6992578563
 20
5.4029252131
 30
0.0
 10
4.6990623622
 20
5.4028745176
 30
0.0
  0
SPLINE
  5
3BE
100
AcDbEntity
  8
0
100
AcDbSpline
 62
7
  6
CONTINUOUS
 70
0
 71
3
 72
40
 73
36
 74
0
 42
0.0000001
 43
0.0000001
 44
0.0000000001
 40
0.0
 40
0.0
 40
0.0
 40
0.0
 40
0.0002520354
 40
0.0005771464
 40
0.0010129853
 40
0.0015753378
 40
0.0022713941
 40
0.0031048572
 40
0.0051913424
 40
0.0064467546
 40
0.0078442796
 40
0.0093841304
 40
0.0110663986
 40
0.0148581354
 40
0.019219055
 40
0.0241481401
 40
0.0296439788
 40
0.0423254238
 40
0.0572393604
 40
0.0743589083
 40
0.0936494933
 40
0.1150735805
 40
0.1385890812
 40
0.1641480462
 40
0.191700829
 40
0.2211912273
 40
0.2857467946
 40
0.3572974954
 40
0.435270016
 40
0.5190393664
 40
0.6079334417
 40
0.7012403685
 40
0.7982061103
 40
0.898066573
 40
1.0
 40
1.0
 40
1.0
 40
1.0
 10
5.2871018352
 20
5.3852553571
 30
0.0
 10
5.2871018235
 20
5.3852339722
 30
0.0
 10
5.2870845962
 20
5.3851850882
 30
0.0
 10
5.2870225736
 20
5.3851237118
 30
0.0
 10
5.2869274014
 20
5.3850633938
 30
0.0
 10
5.2867965051
 20
5.3850032541
 30
0.0
 10
5.2866295149
 20
5.3849427661
 30
0.0
 10
5.2863353322
 20
5.3848552005
 30
0.0
 10
5.2859896729
 20
5.3847761743
 30
0.0
 10
5.2855949845
 20
5.3846992271
 30
0.0
 10
5.2852444851
 20
5.3846381447
 30
0.0
 10
5.2848573092
 20
5.3845769638
 30
0.0
 10
5.2842682856
 20
5.3844919224
 30
0.0
 10
5.2834403814
 20
5.3843869125
 30
0.0
 10
5.2823370882
 20
5.3842650857
 30
0.0
 10
5.2810884536
 20
5.3841430466
 30
0.0
 10
5.279135376
 20
5.3839718503
 30
0.0
 10
5.2763354198
 20
5.3837615798
 30
0.0
 10
5.2725491628
 20
5.3835186714
 30
0.0
 10
5.2682011629
 20
5.3832752054
 30
0.0
 10
5.2633000595
 20
5.3830312338
 30
0.0
 10
5.2578556834
 20
5.3827869514
 30
0.0
 10
5.2518789717
 20
5.3825424379
 30
0.0
 10
5.2453818593
 20
5.3822977302
 30
0.0
 10
5.2383774589
 20
5.382052893
 30
0.0
 10
5.2280654765
 20
5.3817160422
 30
0.0
 10
5.2140209991
 20
5.3812991094
 30
0.0
 10
5.1958632507
 20
5.3808117475
 30
0.0
 10
5.1760747205
 20
5.3803237998
 30
0.0
 10
5.1548142299
 20
5.3798353855
 30
0.0
 10
5.1322523234
 20
5.3793466436
 30
0.0
 10
5.1085704791
 20
5.3788576644
 30
0.0
 10
5.0839579671
 20
5.3783684928
 30
0.0
 10
5.058613372
 20
5.3778792075
 30
0.0
 10
5.0414945177
 20
5.3775554239
 30
0.0
 10
5.0328471439
 20
5.3773928571
 30
0.0
  0
SPLINE
  5
3BF
100
AcDbEntity
  8
0
100
AcDbSpline
 62
7
  6
CONTINUOUS
 70
0
 71
3
 72
51
 73
47
 74
0
 42
0.0000001
 43
0.0000001
 44
0.0000000001
 40
0.0
 40
0.0
 40
0.0
 40
0.0
 40
0.0211965548
 40
0.045562562
 40
0.0729276622
 40
0.1030998272
 40
0.135867214
 40
0.1709999348
 40
0.2473600945
 40
0.330038552
 40
0.4167166059
 40
0.5049628027
 40
0.5489002968
 40
0.5923018579
 40
0.6348627089
 40
0.6762839344
 40
0.7162743735
 40
0.7545532214
 40
0.7908517639
 40
0.8249150808
 40
0.8565038457
 40
0.8853964237
 40
0.9113903444
 40
0.9232425132
 40
0.9343034689
 40
0.9445535018
 40
0.9539753073
 40
0.962552048
 40
0.9702689473
 40
0.9771131377
 40
0.9830724253
 40
0.9881375555
 40
0.9903323601
 40
0.9923007601
 40
0.9940421732
 40
0.9955564277
 40
0.9968435984
 40
0.9979041891
 40
0.9983499434
 40
0.9987397203
 40
0.9990740783
 40
0.9993539786
 40
0.9995810879
 40
0.9997585725
 40
0.9998931552
 40
1.0
 40
1.0
 40
1.0
 40
1.0
 10
5.2567286866
 20
4.7758928557
 30
0.0
 10
5.2527839754
 20
4.7757267831
 30
0.0
 10
5.244303375
 20
4.7754015479
 30
0.0
 10
5.2307269821
 20
4.7749469273
 30
0.0
 10
5.2154779342
 20
4.7744913136
 30
0.0
 10
5.19866339
 20
4.7740349678
 30
0.0
 10
5.1804015263
 20
4.7735780906
 30
0.0
 10
5.1535379997
 20
4.7729509098
 30
0.0
 10
5.1173786175
 20
4.7721788863
 30
0.0
 10
5.0716188057
 20
4.7712737865
 30
0.0
 10
5.0236446379
 20
4.7703675414
 30
0.0
 10
4.9828850762
 20
4.7696108894
 30
0.0
 10
4.9501851681
 20
4.7689991834
 30
0.0
 10
4.9259935196
 20
4.7685410862
 30
0.0
 10
4.9022706513
 20
4.7680830558
 30
0.0
 10
4.8791832795
 20
4.7676251221
 30
0.0
 10
4.8568936597
 20
4.7671673194
 30
0.0
 10
4.8355584287
 20
4.7667096927
 30
0.0
 10
4.8153274816
 20
4.7662523045
 30
0.0
 10
4.7963430012
 20
4.7657952313
 30
0.0
 10
4.7787384175
 20
4.7653386
 30
0.0
 10
4.7626374243
 20
4.7648825201
 30
0.0
 10
4.7502123542
 20
4.7644921357
 30
0.0
 10
4.7411080696
 20
4.7641767508
 30
0.0
 10
4.7349351303
 20
4.7639476658
 30
0.0
 10
4.7292152152
 20
4.7637187031
 30
0.0
 10
4.7239584181
 20
4.7634899219
 30
0.0
 10
4.7191739336
 20
4.7632613594
 30
0.0
 10
4.7148701601
 20
4.7630330813
 30
0.0
 10
4.7110546589
 20
4.7628052806
 30
0.0
 10
4.7077340618
 20
4.7625780036
 30
0.0
 10
4.7052795403
 20
4.7623812346
 30
0.0
 10
4.7035680667
 20
4.7622210503
 30
0.0
 10
4.7024741512
 20
4.7621068689
 30
0.0
 10
4.7015077476
 20
4.7619928864
 30
0.0
 10
4.7006691755
 20
4.7618792182
 30
0.0
 10
4.6999587215
 20
4.7617659262
 30
0.0
 10
4.6994476349
 20
4.7616672927
 30
0.0
 10
4.6991037699
 20
4.7615864778
 30
0.0
 10
4.6988933788
 20
4.7615295335
 30
0.0
 10
4.6987151009
 20
4.7614727452
 30
0.0
 10
4.6985688421
 20
4.7614161237
 30
0.0
 10
4.6984541839
 20
4.7613597344
 30
0.0
 10
4.698370726
 20
4.7613031494
 30
0.0
 10
4.6983165824
 20
4.7612452905
 30
0.0
 10
4.6983019828
 20
4.7612002588
 30
0.0
 10
4.6983019776
 20
4.7611803572
 30
0.0
  0
SPLINE
  5
3C0
100
AcDbEntity
  8
0
100
AcDbSpline
 62
7
  6
CONTINUOUS
 70
0
 71
3
 72
44
 73
40
 74
0
 42
0.0000001
 43
0.0000001
 44
0.0000000001
 40
0.0
 40
0.0
 40
0.0
 40
0.0
 40
0.0929363953
 40
0.1863242347
 40
0.279082043
 40
0.3701344167
 40
0.4584264612
 40
0.5429350265
 40
0.6226809769
 40
0.6967404362
 40
0.7313666752
 40
0.7642556028
 40
0.795311413
 40
0.8244447316
 40
0.8515706925
 40
0.8766113835
 40
0.8994939204
 40
0.9201528156
 40
0.9385281371
 40
0.9545677611
 40
0.9682257577
 40
0.9741498487
 40
0.9794647265
 40
0.9841671939
 40
0.9882547957
 40
0.9917254211
 40
0.9932289136
 40
0.9945778415
 40
0.99577246
 40
0.9968132138
 40
0.9977008644
 40
0.9984367519
 40
0.9990233873
 40
0.9992623191
 40
0.9994663727
 40
0.9996374621
 40
0.9997788718
 40
0.9998964159
 40
1.0
 40
1.0
 40
1.0
 40
1.0
 10
5.0405716789
 20
4.7758928571
 30
0.0
 10
5.0293309166
 20
4.7756947404
 30
0.0
 10
5.0067947316
 20
4.7753008319
 30
0.0
 10
4.9730393071
 20
4.7747136414
 30
0.0
 10
4.939511826
 20
4.7741264981
 30
0.0
 10
4.9066008761
 20
4.7735394833
 30
0.0
 10
4.8746879947
 20
4.7729526903
 30
0.0
 10
4.8441430826
 20
4.7723662484
 30
0.0
 10
4.8153202095
 20
4.7717802773
 30
0.0
 10
4.7925310792
 20
4.7712820848
 30
0.0
 10
4.7754095181
 20
4.7708803217
 30
0.0
 10
4.7634890276
 20
4.7705858783
 30
0.0
 10
4.7522332261
 20
4.7702915369
 30
0.0
 10
4.741674819
 20
4.7699973327
 30
0.0
 10
4.731844357
 20
4.769703285
 30
0.0
 10
4.7227704077
 20
4.7694094618
 30
0.0
 10
4.7144792131
 20
4.7691159164
 30
0.0
 10
4.7069948665
 20
4.7688227637
 30
0.0
 10
4.7003389809
 20
4.7685301814
 30
0.0
 10
4.6945308878
 20
4.7682383328
 30
0.0
 10
4.6902290522
 20
4.7679857129
 30
0.0
 10
4.6872242749
 20
4.7677800454
 30
0.0
 10
4.6853014028
 20
4.767633382
 30
0.0
 10
4.6836013804
 20
4.7674870144
 30
0.0
 10
4.6821253674
 20
4.7673409945
 30
0.0
 10
4.6810363952
 20
4.7672145506
 30
0.0
 10
4.6802784279
 20
4.7671116349
 30
0.0
 10
4.6797943623
 20
4.7670382726
 30
0.0
 10
4.6793669626
 20
4.7669650395
 30
0.0
 10
4.67899626
 20
4.7668919656
 30
0.0
 10
4.6786821928
 20
4.7668191577
 30
0.0
 10
4.6784247568
 20
4.7667466491
 30
0.0
 10
4.6782465326
 20
4.7666831182
 30
0.0
 10
4.6781334528
 20
4.7666306779
 30
0.0
 10
4.6780686797
 20
4.7665940965
 30
0.0
 10
4.6780178339
 20
4.766557473
 30
0.0
 10
4.6779807657
 20
4.7665205283
 30
0.0
 10
4.6779574863
 20
4.7664826796
 30
0.0
 10
4.6779519053
 20
4.7664557555
 30
0.0
 10
4.6779519123
 20
4.7664432249
 30
0.0
  0
SPLINE
  5
3C1
100
AcDbEntity
  8
0
100
AcDbSpline
 62
7
  6
CONTINUOUS
 70
0
 71
3
 72
39
 73
35
 74
0
 42
0.0000001
 43
0.0000001
 44
0.0000000001
 40
0.0
 40
0.0
 40
0.0
 40
0.0
 40
0.000522443
 40
0.0007225193
 40
0.0009552567
 40
0.0015233136
 40
0.0022329777
 40
0.0030871452
 40
0.0040873247
 40
0.0052343691
 40
0.0079707117
 40
0.0112981435
 40
0.0152168847
 40
0.0197258015
 40
0.0305042131
 40
0.0436114798
 40
0.0590180463
 40
0.0766875226
 40
0.0965788924
 40
0.1186437664
 40
0.1428305587
 40
0.1690801068
 40
0.1973305283
 40
0.2275130044
 40
0.2595556403
 40
0.2933809986
 40
0.3660507836
 40
0.4448230863
 40
0.5289400226
 40
0.6175916474
 40
0.7099254491
 40
0.8050502783
 40
0.9020555645
 40
1.0
 40
1.0
 40
1.0
 40
1.0
 10
5.3074517519
 20
5.4833424893
 30
0.0
 10
5.3074517519
 20
5.4832876281
 30
0.0
 10
5.307384813
 20
5.4832232321
 30
0.0
 10
5.3073014946
 20
5.4831720239
 30
0.0
 10
5.3072071988
 20
5.4831237999
 30
0.0
 10
5.3070595717
 20
5.483066156
 30
0.0
 10
5.3068454537
 20
5.4829998953
 30
0.0
 10
5.3065844767
 20
5.4829335563
 30
0.0
 10
5.3062763622
 20
5.4828669194
 30
0.0
 10
5.3057723145
 20
5.48277226
 30
0.0
 10
5.3050237913
 20
5.4826568028
 30
0.0
 10
5.303983896
 20
5.4825242145
 30
0.0
 10
5.3027566386
 20
5.4823911548
 30
0.0
 10
5.3007486926
 20
5.4822018107
 30
0.0
 10
5.2977757657
 20
5.4819711563
 30
0.0
 10
5.2936581857
 20
5.4817062037
 30
0.0
 10
5.2888157632
 20
5.4814402948
 30
0.0
 10
5.2832600815
 20
5.4811735655
 30
0.0
 10
5.2770045293
 20
5.4809063749
 30
0.0
 10
5.270064061
 20
5.4806387988
 30
0.0
 10
5.262455487
 20
5.480370987
 30
0.0
 10
5.254197015
 20
5.4801029572
 30
0.0
 10
5.2453086408
 20
5.4798347933
 30
0.0
 10
5.2358116868
 20
5.4795664988
 30
0.0
 10
5.2257290983
 20
5.4792981112
 30
0.0
 10
5.2111860163
 20
5.4789313338
 30
0.0
 10
5.1917365843
 20
5.4784764568
 30
0.0
 10
5.1670065486
 20
5.4779421319
 30
0.0
 10
5.140597922
 20
5.4774073551
 30
0.0
 10
5.1127649496
 20
5.4768722249
 30
0.0
 10
5.0837758511
 20
5.4763368574
 30
0.0
 10
5.0539094026
 20
5.4758013175
 30
0.0
 10
5.023453697
 20
5.4752656779
 30
0.0
 10
5.0029853426
 20
5.4749091256
 30
0.0
 10
4.9927018634
 20
5.4747299893
 30
0.0
  0
SPLINE
  5
3C2
100
AcDbEntity
  8
0
100
AcDbSpline
 62
7
  6
CONTINUOUS
 70
0
 71
3
 72
39
 73
35
 74
0
 42
0.0000001
 43
0.0000001
 44
0.0000000001
 40
0.0
 40
0.0
 40
0.0
 40
0.0
 40
0.000522443
 40
0.0007225193
 40
0.0009552567
 40
0.0015233136
 40
0.0022329777
 40
0.0030871452
 40
0.0040873247
 40
0.0052343691
 40
0.0079707117
 40
0.0112981435
 40
0.0152168847
 40
0.0197258015
 40
0.0305042131
 40
0.0436114798
 40
0.0590180463
 40
0.0766875226
 40
0.0965788924
 40
0.1186437664
 40
0.1428305587
 40
0.1690801068
 40
0.1973305283
 40
0.2275130044
 40
0.2595556403
 40
0.2933809986
 40
0.3660507836
 40
0.4448230863
 40
0.5289400226
 40
0.6175916474
 40
0.7099254491
 40
0.8050502783
 40
0.9020555645
 40
1.0
 40
1.0
 40
1.0
 40
1.0
 10
5.3074517519
 20
5.4488924893
 30
0.0
 10
5.3074517519
 20
5.4488376281
 30
0.0
 10
5.307384813
 20
5.4487732321
 30
0.0
 10
5.3073014946
 20
5.4487220239
 30
0.0
 10
5.3072071988
 20
5.4486737999
 30
0.0
 10
5.3070595717
 20
5.448616156
 30
0.0
 10
5.3068454537
 20
5.4485498953
 30
0.0
 10
5.3065844767
 20
5.4484835563
 30
0.0
 10
5.3062763622
 20
5.4484169194
 30
0.0
 10
5.3057723145
 20
5.44832226
 30
0.0
 10
5.3050237913
 20
5.4482068028
 30
0.0
 10
5.303983896
 20
5.4480742145
 30
0.0
 10
5.3027566386
 20
5.4479411548
 30
0.0
 10
5.3007486926
 20
5.4477518107
 30
0.0
 10
5.2977757657
 20
5.4475211563
 30
0.0
 10
5.2936581857
 20
5.4472562037
 30
0.0
 10
5.2888157632
 20
5.4469902948
 30
0.0
 10
5.2832600815
 20
5.4467235655
 30
0.0
 10
5.2770045293
 20
5.4464563749
 30
0.0
 10
5.270064061
 20
5.4461887988
 30
0.0
 10
5.262455487
 20
5.445920987
 30
0.0
 10
5.254197015
 20
5.4456529572
 30
0.0
 10
5.2453086408
 20
5.4453847933
 30
0.0
 10
5.2358116868
 20
5.4451164988
 30
0.0
 10
5.2257290983
 20
5.4448481112
 30
0.0
 10
5.2111860163
 20
5.4444813338
 30
0.0
 10
5.1917365843
 20
5.4440264568
 30
0.0
 10
5.1670065486
 20
5.4434921319
 30
0.0
 10
5.140597922
 20
5.4429573551
 30
0.0
 10
5.1127649496
 20
5.4424222249
 30
0.0
 10
5.0837758511
 20
5.4418868574
 30
0.0
 10
5.0539094026
 20
5.4413513175
 30
0.0
 10
5.023453697
 20
5.4408156779
 30
0.0
 10
5.0029853426
 20
5.4404591256
 30
0.0
 10
4.9927018634
 20
5.4402799893
 30
0.0
  0
SPLINE
  5
3C3
100
AcDbEntity
  8
0
100
AcDbSpline
 62
7
  6
CONTINUOUS
 70
0
 71
3
 72
39
 73
35
 74
0
 42
0.0000001
 43
0.0000001
 44
0.0000000001
 40
0.0
 40
0.0
 40
0.0
 40
0.0
 40
0.000522443
 40
0.0007225193
 40
0.0009552567
 40
0.0015233136
 40
0.0022329777
 40
0.0030871452
 40
0.0040873247
 40
0.0052343691
 40
0.0079707117
 40
0.0112981435
 40
0.0152168847
 40
0.0197258015
 40
0.0305042131
 40
0.0436114798
 40
0.0590180463
 40
0.0766875226
 40
0.0965788924
 40
0.1186437664
 40
0.1428305587
 40
0.1690801068
 40
0.1973305283
 40
0.2275130044
 40
0.2595556403
 40
0.2933809986
 40
0.3660507836
 40
0.4448230863
 40
0.5289400226
 40
0.6175916474
 40
0.7099254491
 40
0.8050502783
 40
0.9020555645
 40
1.0
 40
1.0
 40
1.0
 40
1.0
 10
5.3074517519
 20
5.4144424893
 30
0.0
 10
5.3074517519
 20
5.4143876281
 30
0.0
 10
5.307384813
 20
5.4143232321
 30
0.0
 10
5.3073014946
 20
5.4142720239
 30
0.0
 10
5.3072071988
 20
5.4142237999
 30
0.0
 10
5.3070595717
 20
5.414166156
 30
0.0
 10
5.3068454537
 20
5.4140998953
 30
0.0
 10
5.3065844767
 20
5.4140335563
 30
0.0
 10
5.3062763622
 20
5.4139669194
 30
0.0
 10
5.3057723145
 20
5.41387226
 30
0.0
 10
5.3050237913
 20
5.4137568028
 30
0.0
 10
5.303983896
 20
5.4136242145
 30
0.0
 10
5.3027566386
 20
5.4134911548
 30
0.0
 10
5.3007486926
 20
5.4133018107
 30
0.0
 10
5.2977757657
 20
5.4130711563
 30
0.0
 10
5.2936581857
 20
5.4128062037
 30
0.0
 10
5.2888157632
 20
5.4125402948
 30
0.0
 10
5.2832600815
 20
5.4122735655
 30
0.0
 10
5.2770045293
 20
5.4120063749
 30
0.0
 10
5.270064061
 20
5.4117387988
 30
0.0
 10
5.262455487
 20
5.411470987
 30
0.0
 10
5.254197015
 20
5.4112029572
 30
0.0
 10
5.2453086408
 20
5.4109347933
 30
0.0
 10
5.2358116868
 20
5.4106664988
 30
0.0
 10
5.2257290983
 20
5.4103981112
 30
0.0
 10
5.2111860163
 20
5.4100313338
 30
0.0
 10
5.1917365843
 20
5.4095764568
 30
0.0
 10
5.1670065486
 20
5.4090421319
 30
0.0
 10
5.140597922
 20
5.4085073551
 30
0.0
 10
5.1127649496
 20
5.4079722249
 30
0.0
 10
5.0837758511
 20
5.4074368574
 30
0.0
 10
5.0539094026
 20
5.4069013175
 30
0.0
 10
5.023453697
 20
5.4063656779
 30
0.0
 10
5.0029853426
 20
5.4060091256
 30
0.0
 10
4.9927018634
 20
5.4058299893
 30
0.0
  0
ELLIPSE
  5
3C4
100
AcDbEntity
  8
0
100
AcDbEllipse
 62
7
  6
CONTINUOUS
 10
5.0496235802
 20
4.7958928571
 30
0.0
 11
0.0344217168
 21
0.0
 31
0.0
 40
0.5810285439
 41
-3.1415926536
 42
-1.5707963268
  0
ELLIPSE
  5
3C5
100
AcDbEntity
  8
0
100
AcDbEllipse
 62
7
  6
CONTINUOUS
 10
5.2901751089
 20
4.7958928571
 30
0.0
 11
0.0349195013
 21
-0.0
 31
0.0
 40
0.5727458664
 41
-1.5707963268
 42
0.0
  0
ELLIPSE
  5
3C6
100
AcDbEntity
  8
0
100
AcDbEllipse
 62
7
  6
CONTINUOUS
 10
4.9357801465
 20
4.7958928571
 30
0.0
 11
0.0344217168
 21
0.0
 31
0.0
 40
0.5810285439
 41
-1.5707963268
 42
0.0
  0
ELLIPSE
  5
3C7
100
AcDbEntity
  8
0
100
AcDbEllipse
 62
7
  6
CONTINUOUS
 10
4.6952286178
 20
4.7958928571
 30
0.0
 11
0.0349195013
 21
-0.0
 31
0.0
 40
0.5727458664
 41
-3.1415926536
 42
-1.5707963268
  0
ENDSEC
  0
SECTION
  2
OBJECTS
  0
DICTIONARY
  5
C
100
AcDbDictionary
280
0
281
1
  3
ACAD_GROUP
350
D
  3
ACAD_MLINESTYLE
350
17
  3
ACAD_LAYOUT
350
1A
  3
ACAD_PLOTSETTINGS
350
19
  3
ACAD_PLOTSTYLENAME
350
E
  0
DICTIONARY
  5
D
102
{ACAD_REACTORS
330
C
102
}
100
AcDbDictionary
280
0
281
1
  0
ACDBDICTIONARYWDFLT
  5
E
102
{ACAD_REACTORS
330
C
102
}
100
AcDbDictionary
281
1
  3
Normal
350
F
100
AcDbDictionaryWithDefault
340
F
  0
DICTIONARY
  5
17
102
{ACAD_REACTORS
330
C
102
}
100
AcDbDictionary
280
0
281
1
  3
Standard
350
18
  0
DICTIONARY
  5
19
102
{ACAD_REACTORS
330
C
102
}
100
AcDbDictionary
281
1
  0
DICTIONARY
  5
1A
102
{ACAD_REACTORS
330
C
102
}
100
AcDbDictionary
281
1
  3
Model
350
3C8
  3
Layout1
350
3C9
  0
ACDBPLACEHOLDER
  5
F
102
{ACAD_REACTORS
330
E
102
}
  0
MLINESTYLE
  5
18
102
{ACAD_REACTORS
330
17
102
}
100
AcDbMlineStyle
  2
STANDARD
 70
0
  3

 62
256
 51
90.0
 52
90.0
 71
2
 49
0.5
 62
256
  6
BYLAYER
 49
-0.5
 62
256
  6
BYLAYER
  0
LAYOUT
  5
3C8
102
{ACAD_REACTORS
330
1A
102
}
100
AcDbPlotSettings
  1

  2
none_device
  4
ANSI_A_(11.00_x_8.50_Inches)
  6

 40
0.0
 41
0.0
 42
0.0
 43
0.0
 44
279.4
 45
215.9
 46
0.0
 47
0.0
 48
0.0
 49
0.0
140
0.0
141
0.0
142
1.0
143
1.0
 70
1024
 72
0
 73
0
 74
0
  7

 75
0
147
1.0
148
0.0
149
0.0
100
AcDbLayout
  1
Model
 70
0
 71
0
 10
0.0
 20
0.0
 11
11.0
 21
8.5
 12
0.0
 22
0.0
 32
0.0
 14
0.0
 24
0.0
 34
0.0
 15
0.0
 25
0.0
 35
0.0
146
0.0
 13
0.0
 23
0.0
 33
0.0
 16
1.0
 26
0.0
 36
0.0
 17
0.0
 27
1.0
 37
0.0
 76
0
330
202
345
0
346
0
  0
LAYOUT
  5
3C9
102
{ACAD_REACTORS
330
1A
102
}
100
AcDbPlotSettings
  1

  2
none_device
  4
ANSI_A_(11.00_x_8.50_Inches)
  6

 40
0.0
 41
0.0
 42
0.0
 43
0.0
 44
279.4
 45
215.9
 46
0.0
 47
0.0
 48
0.0
 49
0.0
140
0.0
141
0.0
142
1.0
143
1.0
 70
0
 72
0
 73
0
 74
0
  7

 75
0
147
1.0
148
0.0
149
0.0
100
AcDbLayout
  1
Layout1
 70
0
 71
1
 10
0.0
 20
0.0
 11
11.0
 21
8.5
 12
0.0
 22
0.0
 32
0.0
 14
0.0
 24
0.0
 34
0.0
 15
0.0
 25
0.0
 35
0.0
146
0.0
 13
0.0
 23
0.0
 33
0.0
 16
1.0
 26
0.0
 36
0.0
 17
0.0
 27
1.0
 37
0.0
 76
0
330
203
345
0
346
0
  0
ENDSEC
  0
EOF
