999
DXF file: 3180-5711_top.dxf
999
Pro/ENGINEER 2018400 by Parametric Technology Corporation
  0
SECTION
  2
HEADER
  9
$ACADVER
  1
AC1027
  9
$DWGCODEPAGE
  3
ANSI_1252
  9
$EXTMAX
 10
11.0
 20
8.5
 30
0.0
  9
$EXTMIN
 10
0.0
 20
0.0
 30
0.0
  9
$LIMMIN
 10
0.0
 20
0.0
  9
$LIMMAX
 10
11.0
 20
8.5
  9
$VIEWCTR
 10
5.5
 20
4.25
  9
$VIEWSIZE
 40
8.5
  9
$CLAYER
  8
0
  9
$LTSCALE
 40
0.605
  9
$CELTYPE
  6
BYLAYER
  9
$DIMSCALE
 40
1.0
  9
$DIMASZ
 40
0.1
  9
$DIMEXO
 40
0.0625
  9
$DIMDLI
 40
0.418
  9
$DIMEXE
 40
0.125
  9
$DIMCEN
 40
0.099
  9
$DIMLFAC
 40
1.0
  9
$DIMBLK
  1
_FILLED
  9
$DIMALT
 70
1
  9
$DIMALTD
 70
1
  9
$DIMALTTD
 70
2
  9
$DIMALTF
 40
25.4
  9
$DIMTXT
 40
0.08
  9
$DIMTOL
 70
1
  9
$DIMLIM
 70
0
  9
$DIMTFAC
 40
1.0
  9
$DIMTP
 40
0.01
  9
$DIMTM
 40
0.01
  9
$DIMGAP
 40
0.09
  9
$DIMDSEP
 70
46
  9
$AUNITS
 70
0
  9
$PDMODE
 70
3
  9
$PDSIZE
 40
0.3125
  9
$HANDSEED
  5
22C
  9
$TILEMODE
 70
1
  9
$MEASUREMENT
 70
0
  9
$INSUNITS
 70
1
  0
ENDSEC
  0
SECTION
  2
CLASSES
  0
CLASS
  1
ACDBDICTIONARYWDFLT
  2
AcDbDictionaryWithDefault
  3
AutoCAD 2000
 90
0
 91
1
280
0
281
0
  0
CLASS
  1
ACDBPLACEHOLDER
  2
AcDbPlaceHolder
  3
AutoCAD 2000
 90
0
 91
1
280
0
281
0
  0
CLASS
  1
LAYOUT
  2
AcDbLayout
  3
AutoCAD 2000
 90
0
 91
0
280
0
281
0
  0
ENDSEC
  0
SECTION
  2
TABLES
  0
TABLE
  2
VPORT
  5
8
100
AcDbSymbolTable
 70
2
  0
VPORT
  5
1F4
100
AcDbSymbolTableRecord
100
AcDbViewportTableRecord
  2
*ACTIVE
 70
0
 10
0.0
 20
0.0
 11
1.0
 21
1.0
 12
5.5
 22
4.25
 13
0.0
 23
0.0
 14
1.0
 24
1.0
 15
0.0
 25
0.0
 16
0.0
 26
0.0
 36
1.0
 17
0.0
 27
0.0
 37
0.0
 40
8.5
 41
1.2941176471
 42
50.0
 43
0.0
 44
0.0
 50
0.0
 51
0.0
 71
0
 72
100
 73
1
 74
1
 75
0
 76
0
 77
0
 78
0
  0
ENDTAB
  0
TABLE
  2
LTYPE
  5
5
100
AcDbSymbolTable
 70
6
  0
LTYPE
  5
14
100
AcDbSymbolTableRecord
100
AcDbLinetypeTableRecord
  2
BYBLOCK
 70
0
  3

 72
65
 73
0
 40
0.0
  0
LTYPE
  5
15
100
AcDbSymbolTableRecord
100
AcDbLinetypeTableRecord
  2
BYLAYER
 70
0
  3

 72
65
 73
0
 40
0.0
  0
LTYPE
  5
16
100
AcDbSymbolTableRecord
100
AcDbLinetypeTableRecord
  2
CONTINUOUS
 70
64
  3
Solid line
 72
65
 73
0
 40
0.0
  0
LTYPE
  5
1F5
100
AcDbSymbolTableRecord
100
AcDbLinetypeTableRecord
  2
CENTER
 70
64
  3
____ _ ____ _ ____ _ ____ _ ____ _ ____ _ ____
 72
65
 73
4
 40
0.6
 49
0.375
 74
0
 49
-0.075
 74
0
 49
0.075
 74
0
 49
-0.075
 74
0
  0
LTYPE
  5
1F6
100
AcDbSymbolTableRecord
100
AcDbLinetypeTableRecord
  2
HIDDEN
 70
64
  3
- - - - - - - - - - - - - - - - - - - -
 72
65
 73
2
 40
0.2
 49
0.1
 74
0
 49
-0.1
 74
0
  0
LTYPE
  5
1F7
100
AcDbSymbolTableRecord
100
AcDbLinetypeTableRecord
  2
PHANTOM
 70
64
  3
_____ _ _ _____ _ _ _____ _ _ _____
 72
65
 73
6
 40
0.8
 49
0.45
 74
0
 49
-0.05
 74
0
 49
0.1
 74
0
 49
-0.05
 74
0
 49
0.1
 74
0
 49
-0.05
 74
0
  0
LTYPE
  5
1F8
100
AcDbSymbolTableRecord
100
AcDbLinetypeTableRecord
  2
DOT
 70
64
  3
. . . . . . . . . . . . . . . . . . . .
 72
65
 73
2
 40
0.2
 49
0.1
 74
0
 49
-0.1
 74
0
  0
LTYPE
  5
1F9
100
AcDbSymbolTableRecord
100
AcDbLinetypeTableRecord
  2
DASHED
 70
64
  3
- - - - - - - - - - - - - - - - - - - -
 72
65
 73
2
 40
0.2
 49
0.1
 74
0
 49
-0.1
 74
0
  0
ENDTAB
  0
TABLE
  2
LAYER
  5
2
100
AcDbSymbolTable
 70
36
  0
LAYER
  5
10
100
AcDbSymbolTableRecord
100
AcDbLayerTableRecord
  2
0
 70
0
 62
7
  6
CONTINUOUS
370
-3
390
F
  0
LAYER
  5
1FA
100
AcDbSymbolTableRecord
100
AcDbLayerTableRecord
  2
DEFAULT_1
 70
0
 62
7
  6
CENTER
370
-3
390
F
  0
LAYER
  5
1FB
100
AcDbSymbolTableRecord
100
AcDbLayerTableRecord
  2
DEFAULT_2
 70
0
 62
8
  6
HIDDEN
370
-3
390
F
  0
LAYER
  5
1FC
100
AcDbSymbolTableRecord
100
AcDbLayerTableRecord
  2
DEFAULT_3
 70
0
 62
7
  6
PHANTOM
370
-3
390
F
  0
LAYER
  5
1FD
100
AcDbSymbolTableRecord
100
AcDbLayerTableRecord
  2
DEFAULT_COORDINATE_SYSTEM
 70
0
 62
7
  6
CONTINUOUS
370
-3
390
F
  0
LAYER
  5
1FE
100
AcDbSymbolTableRecord
100
AcDbLayerTableRecord
  2
DEFAULT_DATUM_AXES
 70
0
 62
7
  6
CONTINUOUS
370
-3
390
F
  0
LAYER
  5
1FF
100
AcDbSymbolTableRecord
100
AcDbLayerTableRecord
  2
DEFAULT_DATUM_PLANES
 70
0
 62
7
  6
CONTINUOUS
370
-3
390
F
  0
ENDTAB
  0
TABLE
  2
STYLE
  5
3
100
AcDbSymbolTable
 70
1
  0
STYLE
  5
11
100
AcDbSymbolTableRecord
100
AcDbTextStyleTableRecord
  2
STANDARD
 70
0
 40
0.0
 41
0.8
 50
0.0
 71
0
 42
0.2
  3
txt
  4

  0
STYLE
  5
200
100
AcDbSymbolTableRecord
100
AcDbTextStyleTableRecord
  2
TEXTSTYLE_1
 70
0
 40
0.0
 41
0.8
 50
0.0
 71
0
 42
0.2
  3
gdt
  4

  0
ENDTAB
  0
TABLE
  2
VIEW
  5
6
100
AcDbSymbolTable
 70
0
  0
ENDTAB
  0
TABLE
  2
UCS
  5
7
100
AcDbSymbolTable
 70
0
  0
ENDTAB
  0
TABLE
  2
APPID
  5
9
100
AcDbSymbolTable
 70
1
  0
APPID
  5
201
100
AcDbSymbolTableRecord
100
AcDbRegAppTableRecord
  2
ACAD
 70
0
  0
ENDTAB
  0
TABLE
  2
BLOCK_RECORD
  5
1
100
AcDbSymbolTable
 70
0
  0
BLOCK_RECORD
  5
202
100
AcDbSymbolTableRecord
100
AcDbBlockTableRecord
  2
*Model_Space
  0
BLOCK_RECORD
  5
203
100
AcDbSymbolTableRecord
100
AcDbBlockTableRecord
  2
*Paper_Space
  0
BLOCK_RECORD
  5
204
100
AcDbSymbolTableRecord
100
AcDbBlockTableRecord
  2
_FILLED
  0
ENDTAB
  0
TABLE
  2
DIMSTYLE
  5
A
100
AcDbSymbolTable
 70
1
100
AcDbDimStyleTable
 71
0
  0
DIMSTYLE
105
205
100
AcDbSymbolTableRecord
100
AcDbDimStyleTableRecord
  2
STANDARD
 70
0
  3

  4

 40
1.0
 41
0.1
 42
0.0625
 43
0.38
 44
0.125
 45
0.0
 46
0.0
 47
0.01
 48
0.01
140
0.08
141
0.09
142
0.0
143
25.4
144
1.0
145
0.0
146
1.0
147
0.09
 71
1.0
 72
0.0
 73
1
 74
1
 75
0
 76
0
 77
0
 78
4
 79
1
170
1
171
1
172
0
173
0
174
0
175
0
176
0
177
0
178
0
270
2
179
2
271
2
272
2
273
2
274
2
275
0
280
0
281
0
282
0
283
1
284
4
285
0
286
0
287
3
288
0
340
11
278
46
341
204
342
204
343
204
344
204
  0
ENDTAB
  0
ENDSEC
  0
SECTION
  2
BLOCKS
  0
BLOCK
  5
20
100
AcDbEntity
  8
0
100
AcDbBlockBegin
  2
*Model_Space
 70
0
 10
0.0
 20
0.0
 30
0.0
  3
*Model_Space
  1

  0
ENDBLK
  5
21
100
AcDbEntity
  8
0
100
AcDbBlockEnd
  0
BLOCK
  5
1C
100
AcDbEntity
  8
0
100
AcDbBlockBegin
  2
*Paper_Space
 70
0
 10
0.0
 20
0.0
 30
0.0
  3
*Paper_Space
  1

  0
ENDBLK
  5
1D
100
AcDbEntity
  8
0
100
AcDbBlockEnd
  0
BLOCK
  5
206
100
AcDbEntity
  8
0
100
AcDbBlockBegin
  2
_FILLED
 70
64
 10
0.0
 20
0.0
  3
_FILLED
  1

  0
SOLID
  5
207
100
AcDbEntity
  8
0
  6
BYBLOCK
 62
0
100
AcDbTrace
 10
0.0
 20
0.0
 11
-1.0
 21
0.2
 12
-1.0
 22
-0.2
 13
-1.0
 23
-0.2
  0
ENDBLK
  5
208
100
AcDbEntity
  8
0
  6
BYBLOCK
 62
0
100
AcDbBlockEnd
  0
ENDSEC
  0
SECTION
  2
ENTITIES
  0
MTEXT
  5
209
100
AcDbEntity
  8
0
100
AcDbMText
 62
2
  6
CONTINUOUS
  7
STANDARD
 71
3
 72
1
 10
5.4077639752
 20
3.0882298316
 30
0.0
 11
1.0
 21
0.0
 31
0.0
 73
2
 44
0.9
  1
SCALE  .500
 40
0.08
 41
0.704
  0
LINE
  5
20A
100
AcDbEntity
  8
0
100
AcDbLine
 62
7
  6
CONTINUOUS
 10
0.0
 20
0.0
 11
0.0
 21
8.5
  0
LINE
  5
20B
100
AcDbEntity
  8
0
100
AcDbLine
 62
7
  6
CONTINUOUS
 10
0.0
 20
0.0
 11
11.0
 21
0.0
  0
LINE
  5
20C
100
AcDbEntity
  8
0
100
AcDbLine
 62
7
  6
CONTINUOUS
 10
0.0
 20
8.5
 11
11.0
 21
8.5
  0
LINE
  5
20D
100
AcDbEntity
  8
0
100
AcDbLine
 62
7
  6
CONTINUOUS
 10
11.0
 20
0.0
 11
11.0
 21
8.5
  0
CIRCLE
  5
20E
100
AcDbEntity
  8
0
100
AcDbCircle
 62
7
  6
CONTINUOUS
 10
5.1226301429
 20
4.6477678571
 40
0.53125
  0
CIRCLE
  5
20F
100
AcDbEntity
  8
0
100
AcDbCircle
 62
7
  6
CONTINUOUS
 10
5.1226301429
 20
4.6477678571
 40
0.51625
  0
CIRCLE
  5
210
100
AcDbEntity
  8
0
100
AcDbCircle
 62
7
  6
CONTINUOUS
 10
5.1226301429
 20
4.6477678571
 40
0.50875
  0
CIRCLE
  5
211
100
AcDbEntity
  8
0
100
AcDbCircle
 62
7
  6
CONTINUOUS
 10
5.1226301429
 20
4.6477678571
 40
0.49375
  0
CIRCLE
  5
212
100
AcDbEntity
  8
0
100
AcDbCircle
 62
7
  6
CONTINUOUS
 10
5.1226301429
 20
4.6477678571
 40
0.47875
  0
CIRCLE
  5
213
100
AcDbEntity
  8
0
100
AcDbCircle
 62
7
  6
CONTINUOUS
 10
5.1226301429
 20
4.6477678571
 40
0.4173480229
  0
CIRCLE
  5
214
100
AcDbEntity
  8
0
100
AcDbCircle
 62
7
  6
CONTINUOUS
 10
5.1226301429
 20
4.6477678571
 40
0.40875
  0
CIRCLE
  5
215
100
AcDbEntity
  8
0
100
AcDbCircle
 62
7
  6
CONTINUOUS
 10
5.1226301429
 20
4.6477678571
 40
0.29375
  0
ARC
  5
216
100
AcDbEntity
  8
0
100
AcDbCircle
 62
7
  6
CONTINUOUS
 10
4.8215573544
 20
4.6478413183
 40
0.2341958987
100
AcDbArc
 50
165.75264129
 51
180.0179721861
  0
ARC
  5
217
100
AcDbEntity
  8
0
100
AcDbCircle
 62
7
  6
CONTINUOUS
 10
4.8215573544
 20
4.647694396
 40
0.2341958987
100
AcDbArc
 50
179.9820278139
 51
194.24735871
  0
SPLINE
  5
218
100
AcDbEntity
  8
0
100
AcDbSpline
 62
7
  6
CONTINUOUS
 70
0
 71
3
 72
15
 73
11
 74
0
 42
0.0000001
 43
0.0000001
 44
0.0000000001
 40
0.0
 40
0.0
 40
0.0
 40
0.0
 40
0.1228641554
 40
0.2465138961
 40
0.3708847098
 40
0.4958924099
 40
0.6214333282
 40
0.7473815861
 40
0.8736297516
 40
1.0
 40
1.0
 40
1.0
 40
1.0
 10
4.6116400087
 20
4.5025410434
 30
0.0
 10
4.6078064244
 20
4.5076255435
 30
0.0
 10
4.6005442006
 20
4.5181587298
 30
0.0
 10
4.5909783733
 20
4.5348556029
 30
0.0
 10
4.5827670606
 20
4.5523824208
 30
0.0
 10
4.5759691364
 20
4.5706081923
 30
0.0
 10
4.5706323244
 20
4.5893987147
 30
0.0
 10
4.5667929448
 20
4.6086170162
 30
0.0
 10
4.5644792666
 20
4.6281198928
 30
0.0
 10
4.5639636255
 20
4.641218373
 30
0.0
 10
4.5639636255
 20
4.6477678571
 30
0.0
  0
SPLINE
  5
219
100
AcDbEntity
  8
0
100
AcDbSpline
 62
7
  6
CONTINUOUS
 70
0
 71
3
 72
21
 73
17
 74
0
 42
0.0000001
 43
0.0000001
 44
0.0000000001
 40
0.0
 40
0.0
 40
0.0
 40
0.0
 40
0.060137569
 40
0.1205696238
 40
0.1813251312
 40
0.2424258751
 40
0.3038862584
 40
0.365712673
 40
0.4279033119
 40
0.4904486185
 40
0.5533312612
 40
0.6165264465
 40
0.6800032933
 40
0.7437252024
 40
0.8716500238
 40
1.0
 40
1.0
 40
1.0
 40
1.0
 10
4.6351120085
 20
4.4366987907
 30
0.0
 10
4.6303339127
 20
4.4388487972
 30
0.0
 10
4.6209207198
 20
4.4435401865
 30
0.0
 10
4.607359971
 20
4.4516741018
 30
0.0
 10
4.5943962185
 20
4.4608762388
 30
0.0
 10
4.5821002144
 20
4.4710930662
 30
0.0
 10
4.5705368167
 20
4.4822665667
 30
0.0
 10
4.5597676174
 20
4.4943345215
 30
0.0
 10
4.5498486348
 20
4.5072295347
 30
0.0
 10
4.540831464
 20
4.5208805946
 30
0.0
 10
4.5327632475
 20
4.535213372
 30
0.0
 10
4.5256849628
 20
4.5501494123
 30
0.0
 10
4.519633157
 20
4.5656090218
 30
0.0
 10
4.5129674442
 20
4.5868294932
 30
0.0
 10
4.5073553526
 20
4.6142298278
 30
0.0
 10
4.5058536145
 20
4.6365852603
 30
0.0
 10
4.5058536145
 20
4.6477678571
 30
0.0
  0
SPLINE
  5
21A
100
AcDbEntity
  8
0
100
AcDbSpline
 62
7
  6
CONTINUOUS
 70
0
 71
3
 72
25
 73
21
 74
0
 42
0.0000001
 43
0.0000001
 44
0.0000000001
 40
0.0
 40
0.0
 40
0.0
 40
0.0
 40
0.0599400344
 40
0.0899706491
 40
0.1200491219
 40
0.1803694279
 40
0.2409940288
 40
0.2714498108
 40
0.3020038665
 40
0.3634106506
 40
0.4252671537
 40
0.4875916075
 40
0.550385474
 40
0.6136336293
 40
0.6773049831
 40
0.7413537396
 40
0.8057220141
 40
0.8703365483
 40
0.9351285682
 40
1.0
 40
1.0
 40
1.0
 40
1.0
 10
4.6426695729
 20
4.4200177199
 30
0.0
 10
4.6361040604
 20
4.4204934948
 30
0.0
 10
4.6262763145
 20
4.4217182427
 30
0.0
 10
4.6133539541
 20
4.4243523475
 30
0.0
 10
4.600541537
 20
4.4276544414
 30
0.0
 10
4.5848158303
 20
4.4330202573
 30
0.0
 10
4.5696741153
 20
4.4399608901
 30
0.0
 10
4.5579751521
 20
4.4464184868
 30
0.0
 10
4.5465361498
 20
4.4534908668
 30
0.0
 10
4.532837328
 20
4.4634247385
 30
0.0
 10
4.5175437001
 20
4.4769432462
 30
0.0
 10
4.5034931568
 20
4.491959032
 30
0.0
 10
4.4908060642
 20
4.5083356497
 30
0.0
 10
4.4795889169
 20
4.5259269284
 30
0.0
 10
4.4699355837
 20
4.5445771373
 30
0.0
 10
4.4619262214
 20
4.5641226221
 30
0.0
 10
4.4556274862
 20
4.5843923635
 30
0.0
 10
4.4510902878
 20
4.6052112246
 30
0.0
 10
4.4483536031
 20
4.6263961404
 30
0.0
 10
4.4477436035
 20
4.6406435531
 30
0.0
 10
4.4477436035
 20
4.6477678571
 30
0.0
  0
SPLINE
  5
21B
100
AcDbEntity
  8
0
100
AcDbSpline
 62
7
  6
CONTINUOUS
 70
0
 71
3
 72
24
 73
20
 74
0
 42
0.0000001
 43
0.0000001
 44
0.0000000001
 40
0.0
 40
0.0
 40
0.0
 40
0.0
 40
0.0301314207
 40
0.0602396476
 40
0.1204185455
 40
0.180678157
 40
0.24113034
 40
0.3018780157
 40
0.36301051
 40
0.4245989906
 40
0.4866935885
 40
0.5493212776
 40
0.6124844169
 40
0.6761609599
 40
0.7403055363
 40
0.8048526724
 40
0.8697167846
 40
0.934803514
 40
1.0
 40
1.0
 40
1.0
 40
1.0
 10
4.6274589118
 20
4.4217429444
 30
0.0
 10
4.6237617539
 20
4.4211745669
 30
0.0
 10
4.6163350029
 20
4.4202538225
 30
0.0
 10
4.6014106599
 20
4.4192861437
 30
0.0
 10
4.5826794057
 20
4.4197222671
 30
0.0
 10
4.5603953671
 20
4.4228775192
 30
0.0
 10
4.5385608037
 20
4.4286231933
 30
0.0
 10
4.5174345147
 20
4.4368865918
 30
0.0
 10
4.4972611791
 20
4.4475641566
 30
0.0
 10
4.4782716502
 20
4.4605244389
 30
0.0
 10
4.4606796685
 20
4.4756107343
 30
0.0
 10
4.4446803704
 20
4.4926438738
 30
0.0
 10
4.4304488724
 20
4.5114247817
 30
0.0
 10
4.4181393881
 20
4.5317369554
 30
0.0
 10
4.4078839955
 20
4.5533488849
 30
0.0
 10
4.3997925447
 20
4.5760160565
 30
0.0
 10
4.3939505021
 20
4.5994848188
 30
0.0
 10
4.3904206871
 20
4.6234894462
 30
0.0
 10
4.3896335925
 20
4.6396741975
 30
0.0
 10
4.3896335925
 20
4.6477678571
 30
0.0
  0
SPLINE
  5
21C
100
AcDbEntity
  8
0
100
AcDbSpline
 62
7
  6
CONTINUOUS
 70
0
 71
3
 72
24
 73
20
 74
0
 42
0.0000001
 43
0.0000001
 44
0.0000000001
 40
0.0
 40
0.0
 40
0.0
 40
0.0
 40
0.0301314207
 40
0.0602396476
 40
0.1204185455
 40
0.180678157
 40
0.24113034
 40
0.3018780157
 40
0.36301051
 40
0.4245989906
 40
0.4866935885
 40
0.5493212776
 40
0.6124844169
 40
0.6761609599
 40
0.7403055363
 40
0.8048526724
 40
0.8697167846
 40
0.934803514
 40
1.0
 40
1.0
 40
1.0
 40
1.0
 10
4.5693489008
 20
4.4217429444
 30
0.0
 10
4.5656517429
 20
4.4211745669
 30
0.0
 10
4.5582249919
 20
4.4202538225
 30
0.0
 10
4.5433006489
 20
4.4192861437
 30
0.0
 10
4.5245693947
 20
4.4197222671
 30
0.0
 10
4.5022853561
 20
4.4228775192
 30
0.0
 10
4.4804507928
 20
4.4286231933
 30
0.0
 10
4.4593245038
 20
4.4368865918
 30
0.0
 10
4.4391511681
 20
4.4475641566
 30
0.0
 10
4.4201616392
 20
4.4605244389
 30
0.0
 10
4.4025696576
 20
4.4756107343
 30
0.0
 10
4.3865703594
 20
4.4926438738
 30
0.0
 10
4.3723388614
 20
4.5114247817
 30
0.0
 10
4.3600293771
 20
4.5317369554
 30
0.0
 10
4.3497739845
 20
4.5533488849
 30
0.0
 10
4.3416825338
 20
4.5760160565
 30
0.0
 10
4.3358404911
 20
4.5994848188
 30
0.0
 10
4.3323106761
 20
4.6234894462
 30
0.0
 10
4.3315235815
 20
4.6396741975
 30
0.0
 10
4.3315235815
 20
4.6477678571
 30
0.0
  0
SPLINE
  5
21D
100
AcDbEntity
  8
0
100
AcDbSpline
 62
7
  6
CONTINUOUS
 70
0
 71
3
 72
15
 73
11
 74
0
 42
0.0000001
 43
0.0000001
 44
0.0000000001
 40
0.0
 40
0.0
 40
0.0
 40
0.0
 40
0.1263705831
 40
0.2526189675
 40
0.3785673674
 40
0.504108333
 40
0.6291159706
 40
0.7534866432
 40
0.8771361512
 40
1.0
 40
1.0
 40
1.0
 40
1.0
 10
4.5639636255
 20
4.6477678571
 30
0.0
 10
4.5639636255
 20
4.6543176206
 30
0.0
 10
4.5644793102
 20
4.6674166539
 30
0.0
 10
4.5667931829
 20
4.6869203365
 30
0.0
 10
4.5706328819
 20
4.7061393969
 30
0.0
 10
4.5759701278
 20
4.724930617
 30
0.0
 10
4.5827685957
 20
4.7431570091
 30
0.0
 10
4.5909805529
 20
4.7606843575
 30
0.0
 10
4.6005471224
 20
4.7773816531
 30
0.0
 10
4.6078098816
 20
4.78791506
 30
0.0
 10
4.6116437541
 20
4.792999642
 30
0.0
  0
SPLINE
  5
21E
100
AcDbEntity
  8
0
100
AcDbSpline
 62
7
  6
CONTINUOUS
 70
0
 71
3
 72
21
 73
17
 74
0
 42
0.0000001
 43
0.0000001
 44
0.0000000001
 40
0.0
 40
0.0
 40
0.0
 40
0.0
 40
0.1283501987
 40
0.2562751219
 40
0.3199970411
 40
0.3834738784
 40
0.4466690448
 40
0.5095516533
 40
0.572096919
 40
0.6342875135
 40
0.6961138802
 40
0.7575742188
 40
0.8186749221
 40
0.8794303976
 40
0.9398624383
 40
1.0
 40
1.0
 40
1.0
 40
1.0
 10
4.5058536145
 20
4.6477678571
 30
0.0
 10
4.5058536145
 20
4.6589503748
 30
0.0
 10
4.5073553312
 20
4.6813056378
 30
0.0
 10
4.5129673346
 20
4.7087057674
 30
0.0
 10
4.5196329448
 20
4.7299260746
 30
0.0
 10
4.5256846459
 20
4.7453855658
 30
0.0
 10
4.5327628125
 20
4.7603214948
 30
0.0
 10
4.5408308936
 20
4.7746541719
 30
0.0
 10
4.5498479001
 20
4.7883051548
 30
0.0
 10
4.5597667211
 20
4.8012000965
 30
0.0
 10
4.5705357293
 20
4.8132680135
 30
0.0
 10
4.5820989283
 20
4.8244414996
 30
0.0
 10
4.5943947413
 20
4.834658319
 30
0.0
 10
4.6073582724
 20
4.8438605119
 30
0.0
 10
4.620918821
 20
4.8519944813
 30
0.0
 10
4.6303318769
 20
4.8566859327
 30
0.0
 10
4.6351099071
 20
4.8588359708
 30
0.0
  0
SPLINE
  5
21F
100
AcDbEntity
  8
0
100
AcDbSpline
 62
7
  6
CONTINUOUS
 70
0
 71
3
 72
25
 73
21
 74
0
 42
0.0000001
 43
0.0000001
 44
0.0000000001
 40
0.0
 40
0.0
 40
0.0
 40
0.0
 40
0.0648716075
 40
0.1296637437
 40
0.1942783636
 40
0.2586466755
 40
0.3226954319
 40
0.3863667576
 40
0.4496148561
 40
0.5124086471
 40
0.5747330094
 40
0.636589415
 40
0.6979961116
 40
0.7285501316
 40
0.7590058789
 40
0.8196304394
 40
0.8799507438
 40
0.9100292303
 40
0.9400598714
 40
1.0
 40
1.0
 40
1.0
 40
1.0
 10
4.4477436035
 20
4.6477678571
 30
0.0
 10
4.4477436035
 20
4.6548922703
 30
0.0
 10
4.4483536213
 20
4.6691398947
 30
0.0
 10
4.451090387
 20
4.690325114
 30
0.0
 10
4.4556277137
 20
4.7111442497
 30
0.0
 10
4.4619266229
 20
4.7314142319
 30
0.0
 10
4.469936197
 20
4.7509599193
 30
0.0
 10
4.4795897711
 20
4.7696102916
 30
0.0
 10
4.4908071926
 20
4.7872016875
 30
0.0
 10
4.5034945859
 20
4.8035783721
 30
0.0
 10
4.5175454492
 20
4.8185941752
 30
0.0
 10
4.5328394121
 20
4.8321126456
 30
0.0
 10
4.5465385051
 20
4.8420464687
 30
0.0
 10
4.5579777557
 20
4.8491187362
 30
0.0
 10
4.5696769374
 20
4.8555762593
 30
0.0
 10
4.5848189586
 20
4.8625167165
 30
0.0
 10
4.6005449621
 20
4.8678822941
 30
0.0
 10
4.6133575975
 20
4.8711842303
 30
0.0
 10
4.6262801969
 20
4.8738180666
 30
0.0
 10
4.6361080992
 20
4.8750426777
 30
0.0
 10
4.6426737163
 20
4.8755183002
 30
0.0
  0
SPLINE
  5
220
100
AcDbEntity
  8
0
100
AcDbSpline
 62
7
  6
CONTINUOUS
 70
0
 71
3
 72
24
 73
20
 74
0
 42
0.0000001
 43
0.0000001
 44
0.0000000001
 40
0.0
 40
0.0
 40
0.0
 40
0.0
 40
0.0651962187
 40
0.1302826624
 40
0.1951465271
 40
0.2596934709
 40
0.3238379501
 40
0.3875144987
 40
0.4506777524
 40
0.5133056512
 40
0.5754005321
 40
0.6369893373
 40
0.6981221521
 40
0.7588701042
 40
0.8193224596
 40
0.8795820869
 40
0.9397607969
 40
0.9698688334
 40
1.0
 40
1.0
 40
1.0
 40
1.0
 10
4.3896335925
 20
4.6477678571
 30
0.0
 10
4.3896335925
 20
4.6558601854
 30
0.0
 10
4.3904204277
 20
4.6720422684
 30
0.0
 10
4.3939490817
 20
4.6960430198
 30
0.0
 10
4.399789208
 20
4.7195081547
 30
0.0
 10
4.4078780292
 20
4.7421720803
 30
0.0
 10
4.4181301287
 20
4.7637812702
 30
0.0
 10
4.4304357297
 20
4.7840913279
 30
0.0
 10
4.4446628389
 20
4.8028708501
 30
0.0
 10
4.4606573434
 20
4.8199034295
 30
0.0
 10
4.4782442417
 20
4.8349900703
 30
0.0
 10
4.4972285254
 20
4.8479516671
 30
0.0
 10
4.5173965942
 20
4.8586315596
 30
0.0
 10
4.5385177431
 20
4.8668983179
 30
0.0
 10
4.5603474473
 20
4.8726483786
 30
0.0
 10
4.5826270603
 20
4.8758089931
 30
0.0
 10
4.6013551264
 20
4.8762503872
 30
0.0
 10
4.6162772796
 20
4.8752872711
 30
0.0
 10
4.6237030677
 20
4.8743689861
 30
0.0
 10
4.6273997788
 20
4.8738018593
 30
0.0
  0
SPLINE
  5
221
100
AcDbEntity
  8
0
100
AcDbSpline
 62
7
  6
CONTINUOUS
 70
0
 71
3
 72
24
 73
20
 74
0
 42
0.0000001
 43
0.0000001
 44
0.0000000001
 40
0.0
 40
0.0
 40
0.0
 40
0.0
 40
0.0651962187
 40
0.1302826624
 40
0.1951465271
 40
0.2596934709
 40
0.3238379501
 40
0.3875144987
 40
0.4506777524
 40
0.5133056512
 40
0.5754005321
 40
0.6369893373
 40
0.6981221521
 40
0.7588701042
 40
0.8193224596
 40
0.8795820869
 40
0.9397607969
 40
0.9698688334
 40
1.0
 40
1.0
 40
1.0
 40
1.0
 10
4.3315235815
 20
4.6477678571
 30
0.0
 10
4.3315235815
 20
4.6558601854
 30
0.0
 10
4.3323104167
 20
4.6720422684
 30
0.0
 10
4.3358390708
 20
4.6960430198
 30
0.0
 10
4.341679197
 20
4.7195081547
 30
0.0
 10
4.3497680183
 20
4.7421720803
 30
0.0
 10
4.3600201177
 20
4.7637812702
 30
0.0
 10
4.3723257188
 20
4.7840913279
 30
0.0
 10
4.3865528279
 20
4.8028708501
 30
0.0
 10
4.4025473324
 20
4.8199034295
 30
0.0
 10
4.4201342307
 20
4.8349900703
 30
0.0
 10
4.4391185144
 20
4.8479516671
 30
0.0
 10
4.4592865832
 20
4.8586315596
 30
0.0
 10
4.4804077321
 20
4.8668983179
 30
0.0
 10
4.5022374364
 20
4.8726483786
 30
0.0
 10
4.5245170493
 20
4.8758089931
 30
0.0
 10
4.5432451155
 20
4.8762503872
 30
0.0
 10
4.5581672686
 20
4.8752872711
 30
0.0
 10
4.5655930567
 20
4.8743689861
 30
0.0
 10
4.5692897678
 20
4.8738018593
 30
0.0
  0
SPLINE
  5
222
100
AcDbEntity
  8
0
100
AcDbSpline
 62
7
  6
CONTINUOUS
 70
0
 71
3
 72
26
 73
22
 74
0
 42
0.0000001
 43
0.0000001
 44
0.0000000001
 40
0.0
 40
0.0
 40
0.0
 40
0.0
 40
0.059323726
 40
0.0890876
 40
0.1189280021
 40
0.1788603352
 40
0.2392079113
 40
0.2695636343
 40
0.3000426546
 40
0.3613719028
 40
0.4232349586
 40
0.4856378386
 40
0.5170462949
 40
0.5485842287
 40
0.6120183023
 40
0.6759124196
 40
0.7402120293
 40
0.8048505513
 40
0.8697481047
 40
0.934834702
 40
1.0
 40
1.0
 40
1.0
 40
1.0
 10
4.5768079532
 20
4.4368013602
 30
0.0
 10
4.5711577222
 20
4.437770509
 30
0.0
 10
4.562736175
 20
4.4396406869
 30
0.0
 10
4.5517234791
 20
4.4429379357
 30
0.0
 10
4.5408250623
 20
4.4467790284
 30
0.0
 10
4.5275028637
 20
4.4525791363
 30
0.0
 10
4.5147431837
 20
4.4596320466
 30
0.0
 10
4.5049098536
 20
4.4659979621
 30
0.0
 10
4.4953026475
 20
4.4728647018
 30
0.0
 10
4.4838258169
 20
4.4823235075
 30
0.0
 10
4.4710489421
 20
4.4949420032
 30
0.0
 10
4.4613055505
 20
4.5064314481
 30
0.0
 10
4.4540857323
 20
4.5161617504
 30
0.0
 10
4.4472347234
 20
4.5262758818
 30
0.0
 10
4.4394479076
 20
4.5395297638
 30
0.0
 10
4.4314320211
 20
4.5562461219
 30
0.0
 10
4.4247865881
 20
4.5736779929
 30
0.0
 10
4.4195641071
 20
4.5916880403
 30
0.0
 10
4.4158039283
 20
4.6101368965
 30
0.0
 10
4.4135368511
 20
4.628877894
 30
0.0
 10
4.4130314343
 20
4.6414706127
 30
0.0
 10
4.4130314343
 20
4.6477678571
 30
0.0
  0
SPLINE
  5
223
100
AcDbEntity
  8
0
100
AcDbSpline
 62
7
  6
CONTINUOUS
 70
0
 71
3
 72
26
 73
22
 74
0
 42
0.0000001
 43
0.0000001
 44
0.0000000001
 40
0.0
 40
0.0
 40
0.0
 40
0.0
 40
0.065165298
 40
0.1302518953
 40
0.1951494487
 40
0.2597879707
 40
0.3240875804
 40
0.3879816977
 40
0.4514157713
 40
0.4829537051
 40
0.5143621614
 40
0.5767650414
 40
0.6386280972
 40
0.6999573454
 40
0.7304363657
 40
0.7607920887
 40
0.8211396648
 40
0.8810719979
 40
0.9109124
 40
0.940676274
 40
1.0
 40
1.0
 40
1.0
 40
1.0
 10
4.3549214233
 20
4.6477678571
 30
0.0
 10
4.3549214233
 20
4.6414706127
 30
0.0
 10
4.3554268402
 20
4.628877894
 30
0.0
 10
4.3576939173
 20
4.6101368965
 30
0.0
 10
4.3614540961
 20
4.5916880403
 30
0.0
 10
4.3666765771
 20
4.5736779929
 30
0.0
 10
4.3733220101
 20
4.5562461219
 30
0.0
 10
4.3813378966
 20
4.5395297638
 30
0.0
 10
4.3891247124
 20
4.5262758818
 30
0.0
 10
4.3959757214
 20
4.5161617504
 30
0.0
 10
4.4031955395
 20
4.5064314481
 30
0.0
 10
4.4129389311
 20
4.4949420032
 30
0.0
 10
4.4257158059
 20
4.4823235075
 30
0.0
 10
4.4371926366
 20
4.4728647018
 30
0.0
 10
4.4467998426
 20
4.4659979621
 30
0.0
 10
4.4566331727
 20
4.4596320466
 30
0.0
 10
4.4693928527
 20
4.4525791363
 30
0.0
 10
4.4827150513
 20
4.4467790284
 30
0.0
 10
4.4936134681
 20
4.4429379357
 30
0.0
 10
4.5046261641
 20
4.4396406869
 30
0.0
 10
4.5130477113
 20
4.437770509
 30
0.0
 10
4.5186979422
 20
4.4368013602
 30
0.0
  0
SPLINE
  5
224
100
AcDbEntity
  8
0
100
AcDbSpline
 62
7
  6
CONTINUOUS
 70
0
 71
3
 72
26
 73
22
 74
0
 42
0.0000001
 43
0.0000001
 44
0.0000000001
 40
0.0
 40
0.0
 40
0.0
 40
0.0
 40
0.0651654353
 40
0.1302521607
 40
0.1951498287
 40
0.2597884447
 40
0.324088122
 40
0.3879822776
 40
0.4514163582
 40
0.4829542844
 40
0.5143627256
 40
0.5767655531
 40
0.6386285324
 40
0.6999576875
 40
0.7304366586
 40
0.7607923317
 40
0.8211398103
 40
0.8810720614
 40
0.9109124333
 40
0.9406762857
 40
1.0
 40
1.0
 40
1.0
 40
1.0
 10
4.4130314343
 20
4.6477678571
 30
0.0
 10
4.4130314343
 20
4.6540653555
 30
0.0
 10
4.4135368918
 20
4.6666585815
 30
0.0
 10
4.4158041514
 20
4.6854003222
 30
0.0
 10
4.4195646311
 20
4.7038498864
 30
0.0
 10
4.4247875266
 20
4.7218605893
 30
0.0
 10
4.4314334817
 20
4.7392930469
 30
0.0
 10
4.4394499893
 20
4.7560099069
 30
0.0
 10
4.4472373995
 20
4.7692641273
 30
0.0
 10
4.4540889231
 20
4.7793784725
 30
0.0
 10
4.4613092758
 20
4.7891089459
 30
0.0
 10
4.4710533765
 20
4.8005985285
 30
0.0
 10
4.4838311564
 20
4.8132170568
 30
0.0
 10
4.4953087739
 20
4.8226757714
 30
0.0
 10
4.5049166183
 20
4.8295423626
 30
0.0
 10
4.5147505876
 20
4.8359080801
 30
0.0
 10
4.5275110707
 20
4.8429606478
 30
0.0
 10
4.5408340618
 20
4.8487602809
 30
0.0
 10
4.5517330945
 20
4.8526009165
 30
0.0
 10
4.5627463947
 20
4.8558976584
 30
0.0
 10
4.5711683754
 20
4.8577673971
 30
0.0
 10
4.576818882
 20
4.8587362283
 30
0.0
  0
SPLINE
  5
225
100
AcDbEntity
  8
0
100
AcDbSpline
 62
7
  6
CONTINUOUS
 70
0
 71
3
 72
26
 73
22
 74
0
 42
0.0000001
 43
0.0000001
 44
0.0000000001
 40
0.0
 40
0.0
 40
0.0
 40
0.0
 40
0.0651654353
 40
0.1302521607
 40
0.1951498287
 40
0.2597884447
 40
0.324088122
 40
0.3879822776
 40
0.4514163582
 40
0.4829542844
 40
0.5143627256
 40
0.5767655531
 40
0.6386285324
 40
0.6999576875
 40
0.7304366586
 40
0.7607923317
 40
0.8211398103
 40
0.8810720614
 40
0.9109124333
 40
0.9406762857
 40
1.0
 40
1.0
 40
1.0
 40
1.0
 10
4.4711414453
 20
4.6477678571
 30
0.0
 10
4.4711414453
 20
4.6540653555
 30
0.0
 10
4.4716469028
 20
4.6666585815
 30
0.0
 10
4.4739141624
 20
4.6854003222
 30
0.0
 10
4.4776746421
 20
4.7038498864
 30
0.0
 10
4.4828975376
 20
4.7218605893
 30
0.0
 10
4.4895434926
 20
4.7392930469
 30
0.0
 10
4.4975600003
 20
4.7560099069
 30
0.0
 10
4.5053474105
 20
4.7692641273
 30
0.0
 10
4.5121989341
 20
4.7793784725
 30
0.0
 10
4.5194192868
 20
4.7891089459
 30
0.0
 10
4.5291633875
 20
4.8005985285
 30
0.0
 10
4.5419411674
 20
4.8132170568
 30
0.0
 10
4.5534187848
 20
4.8226757714
 30
0.0
 10
4.5630266293
 20
4.8295423626
 30
0.0
 10
4.5728605986
 20
4.8359080801
 30
0.0
 10
4.5856210816
 20
4.8429606478
 30
0.0
 10
4.5989440728
 20
4.8487602809
 30
0.0
 10
4.6098431055
 20
4.8526009165
 30
0.0
 10
4.6208564057
 20
4.8558976584
 30
0.0
 10
4.6292783864
 20
4.8577673971
 30
0.0
 10
4.634928893
 20
4.8587362283
 30
0.0
  0
SPLINE
  5
226
100
AcDbEntity
  8
0
100
AcDbSpline
 62
7
  6
CONTINUOUS
 70
0
 71
3
 72
20
 73
16
 74
0
 42
0.0000001
 43
0.0000001
 44
0.0000000001
 40
0.0
 40
0.0
 40
0.0
 40
0.0
 40
0.1282873327
 40
0.1923401839
 40
0.2562475688
 40
0.3834169073
 40
0.5095332807
 40
0.5721457208
 40
0.6344073155
 40
0.6962996974
 40
0.7578101018
 40
0.818932227
 40
0.8796656516
 40
0.9400172248
 40
1.0
 40
1.0
 40
1.0
 40
1.0
 10
4.5292514562
 20
4.6477678571
 30
0.0
 10
4.5292514562
 20
4.6569757378
 30
0.0
 10
4.5300626663
 20
4.6707991127
 30
0.0
 10
4.5327566051
 20
4.6890007547
 30
0.0
 10
4.536503628
 20
4.7069352422
 30
0.0
 10
4.543135364
 20
4.7287742717
 30
0.0
 10
4.5523066348
 20
4.7495759168
 30
0.0
 10
4.5610659374
 20
4.7653290566
 30
0.0
 10
4.5682991493
 20
4.7766261274
 30
0.0
 10
4.5761795658
 20
4.7873834008
 30
0.0
 10
4.5846752117
 20
4.7975557639
 30
0.0
 10
4.5937496424
 20
4.8071010463
 30
0.0
 10
4.6033660133
 20
4.815978447
 30
0.0
 10
4.6134825513
 20
4.8241511676
 30
0.0
 10
4.6205552516
 20
4.8291219767
 30
0.0
 10
4.6241594553
 20
4.8314768104
 30
0.0
  0
SPLINE
  5
227
100
AcDbEntity
  8
0
100
AcDbSpline
 62
7
  6
CONTINUOUS
 70
0
 71
3
 72
20
 73
16
 74
0
 42
0.0000001
 43
0.0000001
 44
0.0000000001
 40
0.0
 40
0.0
 40
0.0
 40
0.0
 40
0.0599827752
 40
0.1203343484
 40
0.181067773
 40
0.2421898982
 40
0.3037003026
 40
0.3655926845
 40
0.4278542792
 40
0.4904667193
 40
0.6165830927
 40
0.7437524312
 40
0.8076598161
 40
0.8717126673
 40
1.0
 40
1.0
 40
1.0
 40
1.0
 10
4.6241594553
 20
4.4640589039
 30
0.0
 10
4.6205552516
 20
4.4664137376
 30
0.0
 10
4.6134825513
 20
4.4713845467
 30
0.0
 10
4.6033660133
 20
4.4795572673
 30
0.0
 10
4.5937496424
 20
4.488434668
 30
0.0
 10
4.5846752117
 20
4.4979799504
 30
0.0
 10
4.5761795658
 20
4.5081523135
 30
0.0
 10
4.5682991493
 20
4.5189095869
 30
0.0
 10
4.5610659374
 20
4.5302066576
 30
0.0
 10
4.5523066348
 20
4.5459597975
 30
0.0
 10
4.543135364
 20
4.5667614426
 30
0.0
 10
4.536503628
 20
4.5886004721
 30
0.0
 10
4.5327566051
 20
4.6065349596
 30
0.0
 10
4.5300626663
 20
4.6247366016
 30
0.0
 10
4.5292514562
 20
4.6385599765
 30
0.0
 10
4.5292514562
 20
4.6477678571
 30
0.0
  0
SPLINE
  5
228
100
AcDbEntity
  8
0
100
AcDbSpline
 62
7
  6
CONTINUOUS
 70
0
 71
3
 72
26
 73
22
 74
0
 42
0.0000001
 43
0.0000001
 44
0.0000000001
 40
0.0
 40
0.0
 40
0.0
 40
0.0
 40
0.059323726
 40
0.0890876
 40
0.1189280021
 40
0.1788603352
 40
0.2392079113
 40
0.2695636343
 40
0.3000426546
 40
0.3613719028
 40
0.4232349586
 40
0.4856378386
 40
0.5170462949
 40
0.5485842287
 40
0.6120183023
 40
0.6759124196
 40
0.7402120293
 40
0.8048505513
 40
0.8697481047
 40
0.934834702
 40
1.0
 40
1.0
 40
1.0
 40
1.0
 10
4.6349179642
 20
4.4368013602
 30
0.0
 10
4.6292677332
 20
4.437770509
 30
0.0
 10
4.620846186
 20
4.4396406869
 30
0.0
 10
4.6098334901
 20
4.4429379357
 30
0.0
 10
4.5989350733
 20
4.4467790284
 30
0.0
 10
4.5856128747
 20
4.4525791363
 30
0.0
 10
4.5728531947
 20
4.4596320466
 30
0.0
 10
4.5630198646
 20
4.4659979621
 30
0.0
 10
4.5534126585
 20
4.4728647018
 30
0.0
 10
4.5419358279
 20
4.4823235075
 30
0.0
 10
4.529158953
 20
4.4949420032
 30
0.0
 10
4.5194155615
 20
4.5064314481
 30
0.0
 10
4.5121957433
 20
4.5161617504
 30
0.0
 10
4.5053447344
 20
4.5262758818
 30
0.0
 10
4.4975579186
 20
4.5395297638
 30
0.0
 10
4.4895420321
 20
4.5562461219
 30
0.0
 10
4.4828965991
 20
4.5736779929
 30
0.0
 10
4.4776741181
 20
4.5916880403
 30
0.0
 10
4.4739139393
 20
4.6101368965
 30
0.0
 10
4.4716468621
 20
4.628877894
 30
0.0
 10
4.4711414453
 20
4.6414706127
 30
0.0
 10
4.4711414453
 20
4.6477678571
 30
0.0
  0
SPLINE
  5
229
100
AcDbEntity
  8
0
100
AcDbSpline
 62
7
  6
CONTINUOUS
 70
0
 71
3
 72
26
 73
22
 74
0
 42
0.0000001
 43
0.0000001
 44
0.0000000001
 40
0.0
 40
0.0
 40
0.0
 40
0.0
 40
0.0593237143
 40
0.0890875667
 40
0.1189279386
 40
0.1788601897
 40
0.2392076683
 40
0.2695633414
 40
0.3000423125
 40
0.3613714676
 40
0.4232344469
 40
0.4856372744
 40
0.5170457156
 40
0.5485836418
 40
0.6120177224
 40
0.675911878
 40
0.7402115553
 40
0.8048501713
 40
0.8697478393
 40
0.9348345647
 40
1.0
 40
1.0
 40
1.0
 40
1.0
 10
4.518708871
 20
4.8587362283
 30
0.0
 10
4.5130583644
 20
4.8577673971
 30
0.0
 10
4.5046363837
 20
4.8558976584
 30
0.0
 10
4.4936230835
 20
4.8526009165
 30
0.0
 10
4.4827240508
 20
4.8487602809
 30
0.0
 10
4.4694010597
 20
4.8429606478
 30
0.0
 10
4.4566405766
 20
4.8359080801
 30
0.0
 10
4.4468066073
 20
4.8295423626
 30
0.0
 10
4.4371987629
 20
4.8226757714
 30
0.0
 10
4.4257211454
 20
4.8132170568
 30
0.0
 10
4.4129433655
 20
4.8005985285
 30
0.0
 10
4.4031992648
 20
4.7891089459
 30
0.0
 10
4.3959789121
 20
4.7793784725
 30
0.0
 10
4.3891273885
 20
4.7692641273
 30
0.0
 10
4.3813399783
 20
4.7560099069
 30
0.0
 10
4.3733234707
 20
4.7392930469
 30
0.0
 10
4.3666775156
 20
4.7218605893
 30
0.0
 10
4.3614546201
 20
4.7038498864
 30
0.0
 10
4.3576941404
 20
4.6854003222
 30
0.0
 10
4.3554268809
 20
4.6666585815
 30
0.0
 10
4.3549214233
 20
4.6540653555
 30
0.0
 10
4.3549214233
 20
4.6477678571
 30
0.0
  0
ENDSEC
  0
SECTION
  2
OBJECTS
  0
DICTIONARY
  5
C
100
AcDbDictionary
280
0
281
1
  3
ACAD_GROUP
350
D
  3
ACAD_MLINESTYLE
350
17
  3
ACAD_LAYOUT
350
1A
  3
ACAD_PLOTSETTINGS
350
19
  3
ACAD_PLOTSTYLENAME
350
E
  0
DICTIONARY
  5
D
102
{ACAD_REACTORS
330
C
102
}
100
AcDbDictionary
280
0
281
1
  0
ACDBDICTIONARYWDFLT
  5
E
102
{ACAD_REACTORS
330
C
102
}
100
AcDbDictionary
281
1
  3
Normal
350
F
100
AcDbDictionaryWithDefault
340
F
  0
DICTIONARY
  5
17
102
{ACAD_REACTORS
330
C
102
}
100
AcDbDictionary
280
0
281
1
  3
Standard
350
18
  0
DICTIONARY
  5
19
102
{ACAD_REACTORS
330
C
102
}
100
AcDbDictionary
281
1
  0
DICTIONARY
  5
1A
102
{ACAD_REACTORS
330
C
102
}
100
AcDbDictionary
281
1
  3
Model
350
22A
  3
Layout1
350
22B
  0
ACDBPLACEHOLDER
  5
F
102
{ACAD_REACTORS
330
E
102
}
  0
MLINESTYLE
  5
18
102
{ACAD_REACTORS
330
17
102
}
100
AcDbMlineStyle
  2
STANDARD
 70
0
  3

 62
256
 51
90.0
 52
90.0
 71
2
 49
0.5
 62
256
  6
BYLAYER
 49
-0.5
 62
256
  6
BYLAYER
  0
LAYOUT
  5
22A
102
{ACAD_REACTORS
330
1A
102
}
100
AcDbPlotSettings
  1

  2
none_device
  4
ANSI_A_(11.00_x_8.50_Inches)
  6

 40
0.0
 41
0.0
 42
0.0
 43
0.0
 44
279.4
 45
215.9
 46
0.0
 47
0.0
 48
0.0
 49
0.0
140
0.0
141
0.0
142
1.0
143
1.0
 70
1024
 72
0
 73
0
 74
0
  7

 75
0
147
1.0
148
0.0
149
0.0
100
AcDbLayout
  1
Model
 70
0
 71
0
 10
0.0
 20
0.0
 11
11.0
 21
8.5
 12
0.0
 22
0.0
 32
0.0
 14
0.0
 24
0.0
 34
0.0
 15
0.0
 25
0.0
 35
0.0
146
0.0
 13
0.0
 23
0.0
 33
0.0
 16
1.0
 26
0.0
 36
0.0
 17
0.0
 27
1.0
 37
0.0
 76
0
330
202
345
0
346
0
  0
LAYOUT
  5
22B
102
{ACAD_REACTORS
330
1A
102
}
100
AcDbPlotSettings
  1

  2
none_device
  4
ANSI_A_(11.00_x_8.50_Inches)
  6

 40
0.0
 41
0.0
 42
0.0
 43
0.0
 44
279.4
 45
215.9
 46
0.0
 47
0.0
 48
0.0
 49
0.0
140
0.0
141
0.0
142
1.0
143
1.0
 70
0
 72
0
 73
0
 74
0
  7

 75
0
147
1.0
148
0.0
149
0.0
100
AcDbLayout
  1
Layout1
 70
0
 71
1
 10
0.0
 20
0.0
 11
11.0
 21
8.5
 12
0.0
 22
0.0
 32
0.0
 14
0.0
 24
0.0
 34
0.0
 15
0.0
 25
0.0
 35
0.0
146
0.0
 13
0.0
 23
0.0
 33
0.0
 16
1.0
 26
0.0
 36
0.0
 17
0.0
 27
1.0
 37
0.0
 76
0
330
203
345
0
346
0
  0
ENDSEC
  0
EOF
