999
DXF file: E:\BT Custom\CADOUTPUT\_RIGHT.dxf
999
Pro/ENGINEER 2018400 by Parametric Technology Corporation
  0
SECTION
  2
HEADER
  9
$ACADVER
  1
AC1018
  9
$DWGCODEPAGE
  3
ANSI_1252
  9
$EXTMAX
 10
22.0
 20
17.0
 30
0.0
  9
$EXTMIN
 10
0.0
 20
0.0
 30
0.0
  9
$LIMMIN
 10
0.0
 20
0.0
  9
$LIMMAX
 10
22.0
 20
17.0
  9
$VIEWCTR
 10
11.0
 20
8.5
  9
$VIEWSIZE
 40
17.0
  9
$CLAYER
  8
0
  9
$LTSCALE
 40
1.21
  9
$CELTYPE
  6
BYLAYER
  9
$DIMSCALE
 40
1.0
  9
$DIMASZ
 40
0.1
  9
$DIMEXO
 40
0.0625
  9
$DIMDLI
 40
0.836
  9
$DIMEXE
 40
0.125
  9
$DIMCEN
 40
0.198
  9
$DIMLFAC
 40
1.0
  9
$DIMBLK
  1
_FILLED
  9
$DIMALT
 70
1
  9
$DIMALTD
 70
2
  9
$DIMALTTD
 70
2
  9
$DIMALTF
 40
25.4
  9
$DIMTXT
 40
0.08
  9
$DIMTOL
 70
1
  9
$DIMLIM
 70
0
  9
$DIMTFAC
 40
1.0
  9
$DIMTP
 40
0.001
  9
$DIMTM
 40
0.001
  9
$DIMGAP
 40
0.09
  9
$DIMDSEP
 70
46
  9
$AUNITS
 70
0
  9
$PDMODE
 70
3
  9
$PDSIZE
 40
0.06
  9
$HANDSEED
  5
23B
  9
$TILEMODE
 70
1
  9
$MEASUREMENT
 70
0
  9
$INSUNITS
 70
1
  0
ENDSEC
  0
SECTION
  2
CLASSES
  0
CLASS
  1
ACDBDICTIONARYWDFLT
  2
AcDbDictionaryWithDefault
  3
AutoCAD 2000
 90
0
 91
1
280
0
281
0
  0
CLASS
  1
ACDBPLACEHOLDER
  2
AcDbPlaceHolder
  3
AutoCAD 2000
 90
0
 91
1
280
0
281
0
  0
CLASS
  1
LAYOUT
  2
AcDbLayout
  3
AutoCAD 2000
 90
0
 91
0
280
0
281
0
  0
ENDSEC
  0
SECTION
  2
TABLES
  0
TABLE
  2
VPORT
  5
8
100
AcDbSymbolTable
 70
2
  0
VPORT
  5
1F4
100
AcDbSymbolTableRecord
100
AcDbViewportTableRecord
  2
*ACTIVE
 70
0
 10
0.0
 20
0.0
 11
1.0
 21
1.0
 12
11.0
 22
8.5
 13
0.0
 23
0.0
 14
1.0
 24
1.0
 15
0.0
 25
0.0
 16
0.0
 26
0.0
 36
1.0
 17
0.0
 27
0.0
 37
0.0
 40
17.0
 41
1.2941176471
 42
50.0
 43
0.0
 44
0.0
 50
0.0
 51
0.0
 71
0
 72
100
 73
1
 74
1
 75
0
 76
0
 77
0
 78
0
  0
ENDTAB
  0
TABLE
  2
LTYPE
  5
5
100
AcDbSymbolTable
 70
6
  0
LTYPE
  5
14
100
AcDbSymbolTableRecord
100
AcDbLinetypeTableRecord
  2
BYBLOCK
 70
0
  3

 72
65
 73
0
 40
0.0
  0
LTYPE
  5
15
100
AcDbSymbolTableRecord
100
AcDbLinetypeTableRecord
  2
BYLAYER
 70
0
  3

 72
65
 73
0
 40
0.0
  0
LTYPE
  5
16
100
AcDbSymbolTableRecord
100
AcDbLinetypeTableRecord
  2
CONTINUOUS
 70
64
  3
Solid line
 72
65
 73
0
 40
0.0
  0
LTYPE
  5
1F5
100
AcDbSymbolTableRecord
100
AcDbLinetypeTableRecord
  2
CENTER
 70
64
  3
____ _ ____ _ ____ _ ____ _ ____ _ ____ _ ____
 72
65
 73
4
 40
0.6
 49
0.375
 74
0
 49
-0.075
 74
0
 49
0.075
 74
0
 49
-0.075
 74
0
  0
LTYPE
  5
1F6
100
AcDbSymbolTableRecord
100
AcDbLinetypeTableRecord
  2
HIDDEN
 70
64
  3
- - - - - - - - - - - - - - - - - - - -
 72
65
 73
2
 40
0.2
 49
0.1
 74
0
 49
-0.1
 74
0
  0
LTYPE
  5
1F7
100
AcDbSymbolTableRecord
100
AcDbLinetypeTableRecord
  2
PHANTOM
 70
64
  3
_____ _ _ _____ _ _ _____ _ _ _____
 72
65
 73
6
 40
0.8
 49
0.45
 74
0
 49
-0.05
 74
0
 49
0.1
 74
0
 49
-0.05
 74
0
 49
0.1
 74
0
 49
-0.05
 74
0
  0
LTYPE
  5
1F8
100
AcDbSymbolTableRecord
100
AcDbLinetypeTableRecord
  2
DOT
 70
64
  3
. . . . . . . . . . . . . . . . . . . .
 72
65
 73
2
 40
0.2
 49
0.1
 74
0
 49
-0.1
 74
0
  0
LTYPE
  5
1F9
100
AcDbSymbolTableRecord
100
AcDbLinetypeTableRecord
  2
DASHED
 70
64
  3
- - - - - - - - - - - - - - - - - - - -
 72
65
 73
2
 40
0.2
 49
0.1
 74
0
 49
-0.1
 74
0
  0
ENDTAB
  0
TABLE
  2
LAYER
  5
2
100
AcDbSymbolTable
 70
36
  0
LAYER
  5
10
100
AcDbSymbolTableRecord
100
AcDbLayerTableRecord
  2
0
 70
0
 62
7
  6
CONTINUOUS
370
-3
390
F
  0
LAYER
  5
1FA
100
AcDbSymbolTableRecord
100
AcDbLayerTableRecord
  2
DEFAULT_1
 70
0
 62
7
  6
CENTER
370
-3
390
F
  0
LAYER
  5
1FB
100
AcDbSymbolTableRecord
100
AcDbLayerTableRecord
  2
DEFAULT_2
 70
0
 62
8
  6
HIDDEN
370
-3
390
F
  0
LAYER
  5
1FC
100
AcDbSymbolTableRecord
100
AcDbLayerTableRecord
  2
DEFAULT_3
 70
0
 62
7
  6
PHANTOM
370
-3
390
F
  0
LAYER
  5
1FD
100
AcDbSymbolTableRecord
100
AcDbLayerTableRecord
  2
ALL_FEATURES
 70
0
 62
7
  6
CONTINUOUS
370
-3
390
F
  0
LAYER
  5
1FE
100
AcDbSymbolTableRecord
100
AcDbLayerTableRecord
  2
AXES_FEATURES
 70
0
 62
7
  6
CONTINUOUS
370
-3
390
F
  0
LAYER
  5
1FF
100
AcDbSymbolTableRecord
100
AcDbLayerTableRecord
  2
DEFAULT_COORDINATE_SYSTEM
 70
0
 62
7
  6
CONTINUOUS
370
-3
390
F
  0
LAYER
  5
200
100
AcDbSymbolTableRecord
100
AcDbLayerTableRecord
  2
DEFAULT_DATUM_AXES
 70
0
 62
7
  6
CONTINUOUS
370
-3
390
F
  0
LAYER
  5
201
100
AcDbSymbolTableRecord
100
AcDbLayerTableRecord
  2
DEFAULT_DATUM_PLANES
 70
0
 62
7
  6
CONTINUOUS
370
-3
390
F
  0
LAYER
  5
202
100
AcDbSymbolTableRecord
100
AcDbLayerTableRecord
  2
DIMENSIONS
 70
0
 62
7
  6
CONTINUOUS
370
-3
390
F
  0
ENDTAB
  0
TABLE
  2
STYLE
  5
3
100
AcDbSymbolTable
 70
1
  0
STYLE
  5
11
100
AcDbSymbolTableRecord
100
AcDbTextStyleTableRecord
  2
STANDARD
 70
0
 40
0.0
 41
0.8
 50
0.0
 71
0
 42
0.2
  3
txt
  4

  0
STYLE
  5
203
100
AcDbSymbolTableRecord
100
AcDbTextStyleTableRecord
  2
TEXTSTYLE_1
 70
0
 40
0.0
 41
0.8
 50
0.0
 71
0
 42
0.2
  3
gdt
  4

  0
ENDTAB
  0
TABLE
  2
VIEW
  5
6
100
AcDbSymbolTable
 70
0
  0
ENDTAB
  0
TABLE
  2
UCS
  5
7
100
AcDbSymbolTable
 70
0
  0
ENDTAB
  0
TABLE
  2
APPID
  5
9
100
AcDbSymbolTable
 70
1
  0
APPID
  5
204
100
AcDbSymbolTableRecord
100
AcDbRegAppTableRecord
  2
ACAD
 70
0
  0
ENDTAB
  0
TABLE
  2
BLOCK_RECORD
  5
1
100
AcDbSymbolTable
 70
0
  0
BLOCK_RECORD
  5
205
100
AcDbSymbolTableRecord
100
AcDbBlockTableRecord
  2
*Model_Space
  0
BLOCK_RECORD
  5
206
100
AcDbSymbolTableRecord
100
AcDbBlockTableRecord
  2
*Paper_Space
  0
BLOCK_RECORD
  5
207
100
AcDbSymbolTableRecord
100
AcDbBlockTableRecord
  2
_FILLED
  0
ENDTAB
  0
TABLE
  2
DIMSTYLE
  5
A
100
AcDbSymbolTable
 70
1
100
AcDbDimStyleTable
 71
0
  0
DIMSTYLE
105
208
100
AcDbSymbolTableRecord
100
AcDbDimStyleTableRecord
  2
STANDARD
 70
0
  3

  4

 40
1.0
 41
0.1
 42
0.0625
 43
0.38
 44
0.125
 45
0.0
 46
0.0
 47
0.001
 48
0.001
140
0.08
141
0.09
142
0.0
143
25.4
144
1.0
145
0.0
146
1.0
147
0.09
 71
1.0
 72
0.0
 73
1
 74
1
 75
0
 76
0
 77
0
 78
4
 79
1
170
1
171
2
172
0
173
0
174
0
175
0
176
0
177
0
178
0
270
2
179
3
271
3
272
3
273
2
274
2
275
0
280
0
281
0
282
0
283
1
284
4
285
0
286
0
287
3
288
0
340
11
278
46
341
207
342
207
343
207
344
207
  0
ENDTAB
  0
ENDSEC
  0
SECTION
  2
BLOCKS
  0
BLOCK
  5
20
100
AcDbEntity
  8
0
100
AcDbBlockBegin
  2
*Model_Space
 70
0
 10
0.0
 20
0.0
 30
0.0
  3
*Model_Space
  1

  0
ENDBLK
  5
21
100
AcDbEntity
  8
0
100
AcDbBlockEnd
  0
BLOCK
  5
1C
100
AcDbEntity
  8
0
100
AcDbBlockBegin
  2
*Paper_Space
 70
0
 10
0.0
 20
0.0
 30
0.0
  3
*Paper_Space
  1

  0
ENDBLK
  5
1D
100
AcDbEntity
  8
0
100
AcDbBlockEnd
  0
BLOCK
  5
209
100
AcDbEntity
  8
0
100
AcDbBlockBegin
  2
_FILLED
 70
64
 10
0.0
 20
0.0
  3
_FILLED
  1

  0
SOLID
  5
20A
100
AcDbEntity
  8
0
  6
BYBLOCK
 62
0
100
AcDbTrace
 10
0.0
 20
0.0
 11
-1.0
 21
0.2
 12
-1.0
 22
-0.2
 13
-1.0
 23
-0.2
  0
ENDBLK
  5
20B
100
AcDbEntity
  8
0
  6
BYBLOCK
 62
0
100
AcDbBlockEnd
  0
ENDSEC
  0
SECTION
  2
ENTITIES
  0
LINE
  5
20C
100
AcDbEntity
  8
0
100
AcDbLine
 62
7
  6
CONTINUOUS
 10
8.4815092263
 20
9.6362452321
 11
8.3780331601
 21
9.501364901
  0
LINE
  5
20D
100
AcDbEntity
  8
0
100
AcDbLine
 62
7
  6
CONTINUOUS
 10
8.8782160825
 20
9.3319038609
 11
8.7747400163
 21
9.1970235298
  0
LINE
  5
20E
100
AcDbEntity
  8
0
100
AcDbLine
 62
9
  6
CONTINUOUS
 10
9.4732763668
 20
9.625391804
 11
9.4732763668
 21
10.125391804
  0
LINE
  5
20F
100
AcDbEntity
  8
0
100
AcDbLine
 62
7
  6
CONTINUOUS
 10
13.0481261059
 20
7.799391804
 11
11.0681261059
 21
7.799391804
  0
LINE
  5
210
100
AcDbEntity
  8
0
100
AcDbLine
 62
7
  6
CONTINUOUS
 10
8.7326771226
 20
9.1914816007
 11
8.3835750892
 21
9.4593020074
  0
LINE
  5
211
100
AcDbEntity
  8
0
100
AcDbLine
 62
9
  6
CONTINUOUS
 10
13.0481261059
 20
8.124391804
 11
11.0681261059
 21
8.124391804
  0
LINE
  5
212
100
AcDbEntity
  8
0
100
AcDbLine
 62
7
  6
CONTINUOUS
 10
13.0181261059
 20
8.154391804
 11
11.0981261059
 21
8.154391804
  0
LINE
  5
213
100
AcDbEntity
  8
0
100
AcDbLine
 62
9
  6
CONTINUOUS
 10
8.7747400163
 20
9.1970235298
 11
8.3780331601
 21
9.501364901
  0
LINE
  5
214
100
AcDbEntity
  8
0
100
AcDbLine
 62
9
  6
CONTINUOUS
 10
8.8782160825
 20
9.3319038609
 11
8.4815092263
 21
9.6362452321
  0
LINE
  5
215
100
AcDbEntity
  8
0
100
AcDbLine
 62
9
  6
CONTINUOUS
 10
11.1431261059
 20
8.184391804
 11
12.9731261059
 21
8.184391804
  0
LINE
  5
216
100
AcDbEntity
  8
0
100
AcDbLine
 62
9
  6
CONTINUOUS
 10
12.9731261059
 20
8.199391804
 11
11.1431261059
 21
8.199391804
  0
LINE
  5
217
100
AcDbEntity
  8
0
100
AcDbLine
 62
7
  6
CONTINUOUS
 10
12.9431261059
 20
8.229391804
 11
11.1731261059
 21
8.229391804
  0
LINE
  5
218
100
AcDbEntity
  8
0
100
AcDbLine
 62
7
  6
CONTINUOUS
 10
11.343129878
 20
8.825391804
 11
12.7731223337
 21
8.825391804
  0
LINE
  5
219
100
AcDbEntity
  8
0
100
AcDbLine
 62
7
  6
CONTINUOUS
 10
11.0681261059
 20
8.124391804
 11
11.0681261059
 21
7.799391804
  0
LINE
  5
21A
100
AcDbEntity
  8
0
100
AcDbLine
 62
7
  6
CONTINUOUS
 10
11.1431261059
 20
8.199391804
 11
11.1431261059
 21
8.184391804
  0
LINE
  5
21B
100
AcDbEntity
  8
0
100
AcDbLine
 62
7
  6
CONTINUOUS
 10
11.3431261059
 20
8.825391804
 11
11.3431261059
 21
9.565391804
  0
LINE
  5
21C
100
AcDbEntity
  8
0
100
AcDbLine
 62
7
  6
CONTINUOUS
 10
11.2831261059
 20
9.625391804
 11
9.4732763668
 21
9.625391804
  0
LINE
  5
21D
100
AcDbEntity
  8
0
100
AcDbLine
 62
7
  6
CONTINUOUS
 10
11.4531261059
 20
8.229391804
 11
11.4531261059
 21
8.825391804
  0
LINE
  5
21E
100
AcDbEntity
  8
0
100
AcDbLine
 62
7
  6
CONTINUOUS
 10
11.2906644097
 20
10.125391804
 11
9.4732763668
 21
10.125391804
  0
LINE
  5
21F
100
AcDbEntity
  8
0
100
AcDbLine
 62
9
  6
CONTINUOUS
 10
12.7731261059
 20
10.1435305226
 11
11.3576793467
 21
10.1435305226
  0
LINE
  5
220
100
AcDbEntity
  8
0
100
AcDbLine
 62
9
  6
CONTINUOUS
 10
12.7162131499
 20
10.2034510546
 11
11.4000390618
 21
10.2034510546
  0
LINE
  5
221
100
AcDbEntity
  8
0
100
AcDbLine
 62
7
  6
CONTINUOUS
 10
12.6631261059
 20
8.229391804
 11
12.6631261059
 21
8.825391804
  0
LINE
  5
222
100
AcDbEntity
  8
0
100
AcDbLine
 62
7
  6
CONTINUOUS
 10
12.7731261059
 20
8.825391804
 11
12.7731261059
 21
10.1435305226
  0
LINE
  5
223
100
AcDbEntity
  8
0
100
AcDbLine
 62
7
  6
CONTINUOUS
 10
12.9731261059
 20
8.199391804
 11
12.9731261059
 21
8.184391804
  0
LINE
  5
224
100
AcDbEntity
  8
0
100
AcDbLine
 62
7
  6
CONTINUOUS
 10
13.0481261059
 20
8.124391804
 11
13.0481261059
 21
7.799391804
  0
ARC
  5
225
100
AcDbEntity
  8
0
100
AcDbCircle
 62
7
  6
CONTINUOUS
 10
12.0581261059
 20
-2.570233196
 40
12.790625
100
AcDbArc
 50
87.0507879325
 51
92.9492120675
  0
ARC
  5
226
100
AcDbEntity
  8
0
100
AcDbCircle
 62
7
  6
CONTINUOUS
 10
9.4732763668
 20
8.875391804
 40
1.25
100
AcDbArc
 50
90.0
 51
142.5056825053
  0
ARC
  5
227
100
AcDbEntity
  8
0
100
AcDbCircle
 62
7
  6
CONTINUOUS
 10
9.4732763668
 20
8.875391804
 40
0.75
100
AcDbArc
 50
90.0
 51
142.5056825053
  0
ARC
  5
228
100
AcDbEntity
  8
0
100
AcDbCircle
 62
7
  6
CONTINUOUS
 10
11.4031261059
 20
10.1435305226
 40
0.06
100
AcDbArc
 50
92.9492120675
 51
159.5833739648
  0
ARC
  5
229
100
AcDbEntity
  8
0
100
AcDbCircle
 62
7
  6
CONTINUOUS
 10
12.7131261059
 20
10.1435305226
 40
0.06
100
AcDbArc
 50
0.0
 51
87.0507879325
  0
ARC
  5
22A
100
AcDbEntity
  8
0
100
AcDbCircle
 62
7
  6
CONTINUOUS
 10
11.2906644097
 20
10.185391804
 40
0.06
100
AcDbArc
 50
270.0
 51
339.5833739639
  0
ARC
  5
22B
100
AcDbEntity
  8
0
100
AcDbCircle
 62
7
  6
CONTINUOUS
 10
11.2831261059
 20
9.565391804
 40
0.06
100
AcDbArc
 50
0.0
 51
90.0000000002
  0
ARC
  5
22C
100
AcDbEntity
  8
0
100
AcDbCircle
 62
7
  6
CONTINUOUS
 10
11.1731261059
 20
8.199391804
 40
0.03
100
AcDbArc
 50
90.0
 51
180.0
  0
ARC
  5
22D
100
AcDbEntity
  8
0
100
AcDbCircle
 62
7
  6
CONTINUOUS
 10
12.9431261059
 20
8.199391804
 40
0.03
100
AcDbArc
 50
0.0
 51
90.0
  0
ARC
  5
22E
100
AcDbEntity
  8
0
100
AcDbCircle
 62
7
  6
CONTINUOUS
 10
11.0981261059
 20
8.124391804
 40
0.03
100
AcDbArc
 50
90.0
 51
180.0
  0
ARC
  5
22F
100
AcDbEntity
  8
0
100
AcDbCircle
 62
7
  6
CONTINUOUS
 10
13.0181261059
 20
8.124391804
 40
0.03
100
AcDbArc
 50
0.0
 51
90.0
  0
ARC
  5
230
100
AcDbEntity
  8
0
100
AcDbCircle
 62
7
  6
CONTINUOUS
 10
13.0031261059
 20
8.184391804
 40
0.03
100
AcDbArc
 50
180.0
 51
270.0
  0
ARC
  5
231
100
AcDbEntity
  8
0
100
AcDbCircle
 62
7
  6
CONTINUOUS
 10
11.1131261059
 20
8.184391804
 40
0.03
100
AcDbArc
 50
270.0
 51
360.0
  0
ARC
  5
232
100
AcDbEntity
  8
0
100
AcDbCircle
 62
7
  6
CONTINUOUS
 10
8.4018355714
 20
9.4831044188
 40
0.03
100
AcDbArc
 50
142.5056825053
 51
232.5056825053
  0
ARC
  5
233
100
AcDbEntity
  8
0
100
AcDbCircle
 62
7
  6
CONTINUOUS
 10
8.7509376049
 20
9.2152840121
 40
0.03
100
AcDbArc
 50
232.5056825053
 51
322.5056825053
  0
SPLINE
  5
234
100
AcDbEntity
  8
0
100
AcDbSpline
 62
9
  6
CONTINUOUS
 70
0
 71
3
 72
29
 73
25
 74
0
 42
0.0000001
 43
0.0000001
 44
0.0000000001
 40
0.0
 40
0.0
 40
0.0
 40
0.0
 40
0.2503584987
 40
0.35993701
 40
0.4596541717
 40
0.5498876037
 40
0.6309854455
 40
0.7032725196
 40
0.7670626186
 40
0.8226589843
 40
0.8703543459
 40
0.9103994983
 40
0.942927917
 40
0.9564070321
 40
0.9680471426
 40
0.9778614361
 40
0.9858629981
 40
0.9920648109
 40
0.9944948411
 40
0.9964797545
 40
0.9980211442
 40
0.9991205964
 40
0.9997796906
 40
1.0
 40
1.0
 40
1.0
 40
1.0
 10
11.3576793467
 20
10.1435305226
 30
0.0
 10
11.356604574
 20
10.1451799646
 30
0.0
 10
11.3551118714
 20
10.1475864108
 30
0.0
 10
11.3533185401
 20
10.1507249078
 30
0.0
 10
11.35219461
 20
10.1527950203
 30
0.0
 10
11.3512143239
 20
10.1546877411
 30
0.0
 10
11.3503630666
 20
10.1564040295
 30
0.0
 10
11.349630838
 20
10.1579469433
 30
0.0
 10
11.3490070919
 20
10.159319124
 30
0.0
 10
11.3484814179
 20
10.1605232819
 30
0.0
 10
11.3480435711
 20
10.1615619199
 30
0.0
 10
11.3476835763
 20
10.1624364741
 30
0.0
 10
11.3474312804
 20
10.1630643702
 30
0.0
 10
11.347265152
 20
10.1634861482
 30
0.0
 10
11.3471655909
 20
10.1637421729
 30
0.0
 10
11.3470825896
 20
10.1639584207
 30
0.0
 10
11.3470156655
 20
10.1641350277
 30
0.0
 10
11.3469698953
 20
10.1642575619
 30
0.0
 10
11.3469408857
 20
10.1643358359
 30
0.0
 10
11.346924844
 20
10.1643798606
 30
0.0
 10
11.3469120983
 20
10.1644138799
 30
0.0
 10
11.346903883
 20
10.1644386194
 30
0.0
 10
11.3468975094
 20
10.1644526573
 30
0.0
 10
11.346896314
 20
10.1644597901
 30
0.0
 10
11.3468952578
 20
10.1644611633
 30
0.0
  0
SPLINE
  5
235
100
AcDbEntity
  8
0
100
AcDbSpline
 62
9
  6
CONTINUOUS
 70
0
 71
3
 72
49
 73
45
 74
0
 42
0.0000001
 43
0.0000001
 44
0.0000000001
 40
0.0
 40
0.0
 40
0.0
 40
0.0
 40
0.0000083968
 40
0.0000332953
 40
0.0000746782
 40
0.0001325282
 40
0.0002975609
 40
0.0005282553
 40
0.0008244737
 40
0.001186078
 40
0.0016129303
 40
0.0021048928
 40
0.0032835969
 40
0.0047210842
 40
0.0064158262
 40
0.0083654346
 40
0.0105674184
 40
0.0130192882
 40
0.0186627323
 40
0.0252730866
 40
0.0328205793
 40
0.0412743948
 40
0.0506027567
 40
0.0607708406
 40
0.0717433723
 40
0.0959613973
 40
0.1229786121
 40
0.1525231189
 40
0.1843323394
 40
0.2181586908
 40
0.2537682336
 40
0.2909361881
 40
0.3294445386
 40
0.4096131183
 40
0.4925462892
 40
0.5764544247
 40
0.6595185078
 40
0.7399468142
 40
0.7786322518
 40
0.8160072282
 40
0.8859538098
 40
0.9180687943
 40
0.9479538942
 40
1.0
 40
1.0
 40
1.0
 40
1.0
 10
11.3431261059
 20
9.565391804
 30
0.0
 10
11.3431263943
 20
9.5653934312
 30
0.0
 10
11.3431293179
 20
9.565399404
 30
0.0
 10
11.3431337578
 20
9.5654133662
 30
0.0
 10
11.3431425604
 20
9.5654361933
 30
0.0
 10
11.3431603201
 20
9.5654850525
 30
0.0
 10
11.3431913364
 20
9.5655687702
 30
0.0
 10
11.3432383115
 20
9.5656965768
 30
0.0
 10
11.3432987369
 20
9.5658606658
 30
0.0
 10
11.34337242
 20
9.5660610063
 30
0.0
 10
11.3434593741
 20
9.5662975121
 30
0.0
 10
11.343601738
 20
9.5666849729
 30
0.0
 10
11.343812523
 20
9.5672591854
 30
0.0
 10
11.3441045801
 20
9.5680557128
 30
0.0
 10
11.3444484097
 20
9.5689948463
 30
0.0
 10
11.3448430399
 20
9.5700755982
 30
0.0
 10
11.3452874955
 20
9.5712967796
 30
0.0
 10
11.3459782694
 20
9.5732018995
 30
0.0
 10
11.3469591758
 20
9.575924645
 30
0.0
 10
11.3482688807
 20
9.5795948211
 30
0.0
 10
11.349748971
 20
9.5837914028
 30
0.0
 10
11.3513875451
 20
9.5884992394
 30
0.0
 10
11.3531720907
 20
9.593702288
 30
0.0
 10
11.3550883932
 20
9.5993840966
 30
0.0
 10
11.3578937616
 20
9.6078583378
 30
0.0
 10
11.3616322904
 20
9.6195163008
 30
0.0
 10
11.3662707196
 20
9.6347224854
 30
0.0
 10
11.37107427
 20
9.6514380624
 30
0.0
 10
11.3759186233
 20
9.6695332223
 30
0.0
 10
11.3806815433
 20
9.6888819602
 30
0.0
 10
11.3852417151
 20
9.709361661
 30
0.0
 10
11.3894854664
 20
9.7308498933
 30
0.0
 10
11.3946438698
 20
9.761085834
 30
0.0
 10
11.3996728644
 20
9.8004667999
 30
0.0
 10
11.4028880459
 20
9.849002968
 30
0.0
 10
11.4030053701
 20
9.8982181669
 30
0.0
 10
11.4000035816
 20
9.9468454045
 30
0.0
 10
11.3951288034
 20
9.9863585846
 30
0.0
 10
11.3900685437
 20
10.0167398077
 30
0.0
 10
11.3846035214
 20
10.0449519386
 30
0.0
 10
11.3784232097
 20
10.0716990309
 30
0.0
 10
11.3717783754
 20
10.0968024929
 30
0.0
 10
11.3656313617
 20
10.118389408
 30
0.0
 10
11.3608523999
 20
10.1337918427
 30
0.0
 10
11.3576793467
 20
10.1435305226
 30
0.0
  0
SPLINE
  5
236
100
AcDbEntity
  8
0
100
AcDbSpline
 62
9
  6
CONTINUOUS
 70
0
 71
3
 72
55
 73
51
 74
0
 42
0.0000001
 43
0.0000001
 44
0.0000000001
 40
0.0
 40
0.0
 40
0.0
 40
0.0
 40
0.000007916
 40
0.0000314807
 40
0.0000706801
 40
0.0001255003
 40
0.0001959274
 40
0.0002819473
 40
0.00050071
 40
0.0007816769
 40
0.0011247365
 40
0.0015297772
 40
0.0019966876
 40
0.0031156719
 40
0.0044807984
 40
0.0060911644
 40
0.0079452663
 40
0.0100407371
 40
0.0123751459
 40
0.017751066
 40
0.0240536067
 40
0.0312606164
 40
0.0393451527
 40
0.0482799083
 40
0.058037454
 40
0.0685884966
 40
0.0799030295
 40
0.0919513048
 40
0.1181313975
 40
0.1468980923
 40
0.1780293055
 40
0.2113152166
 40
0.2465535693
 40
0.2835483519
 40
0.3221008915
 40
0.4030289998
 40
0.4449607644
 40
0.4875220542
 40
0.5304340924
 40
0.5519303864
 40
0.5734034209
 40
0.6161311691
 40
0.6583302066
 40
0.6997336397
 40
0.7400907409
 40
0.7791764571
 40
0.8167794486
 40
0.8867357345
 40
0.9483746875
 40
1.0
 40
1.0
 40
1.0
 40
1.0
 10
11.2831261059
 20
9.625391804
 30
0.0
 10
11.2831270301
 20
9.625392685
 30
0.0
 10
11.2831284712
 20
9.625397846
 30
0.0
 10
11.2831343754
 20
9.6254074429
 30
0.0
 10
11.2831423934
 20
9.6254247499
 30
0.0
 10
11.2831544384
 20
9.6254483328
 30
0.0
 10
11.2831695656
 20
9.6254788863
 30
0.0
 10
11.2831965915
 20
9.6255330259
 30
0.0
 10
11.2832386641
 20
9.6256176241
 30
0.0
 10
11.2832991865
 20
9.6257393407
 30
0.0
 10
11.283373
 20
9.6258880066
 30
0.0
 10
11.283460077
 20
9.6260635704
 30
0.0
 10
11.2836026306
 20
9.6263513182
 30
0.0
 10
11.2838136286
 20
9.6267779739
 30
0.0
 10
11.2841058606
 20
9.6273702077
 30
0.0
 10
11.2844499609
 20
9.6280690656
 30
0.0
 10
11.2848453062
 20
9.6288739957
 30
0.0
 10
11.2852909826
 20
9.6297843132
 30
0.0
 10
11.2859844115
 20
9.6312058015
 30
0.0
 10
11.2869703483
 20
9.6332395994
 30
0.0
 10
11.2882896829
 20
9.6359851506
 30
0.0
 10
11.2897859657
 20
9.6391303508
 30
0.0
 10
11.2914478602
 20
9.6426668739
 30
0.0
 10
11.2932639371
 20
9.6465854228
 30
0.0
 10
11.2952225965
 20
9.6508762908
 30
0.0
 10
11.2973105641
 20
9.6555299659
 30
0.0
 10
11.299514011
 20
9.6605366549
 30
0.0
 10
11.3026762799
 20
9.6678753014
 30
0.0
 10
11.3068248874
 20
9.6778536929
 30
0.0
 10
11.3119052202
 20
9.6907756125
 30
0.0
 10
11.3170956655
 20
9.7048822673
 30
0.0
 10
11.3222690737
 20
9.7201026466
 30
0.0
 10
11.3272983797
 20
9.736364487
 30
0.0
 10
11.3320526086
 20
9.7535928625
 30
0.0
 10
11.3379477382
 20
9.7781365937
 30
0.0
 10
11.3426153681
 20
9.8037818816
 30
0.0
 10
11.3457720486
 20
9.8302822057
 30
0.0
 10
11.3473232568
 20
9.8507798873
 30
0.0
 10
11.3478578512
 20
9.8680312457
 30
0.0
 10
11.3478207135
 20
9.8818842696
 30
0.0
 10
11.3474687022
 20
9.8957031155
 30
0.0
 10
11.3464591527
 20
9.9128410579
 30
0.0
 10
11.3443690466
 20
9.9331158844
 30
0.0
 10
11.3414858527
 20
9.952906426
 30
0.0
 10
11.3379032305
 20
9.9720709209
 30
0.0
 10
11.3337411427
 20
9.9904893868
 30
0.0
 10
11.3277272419
 20
10.0133687698
 30
0.0
 10
11.3195662519
 20
10.039428164
 30
0.0
 10
11.3092873998
 20
10.0671454879
 30
0.0
 10
11.3022404876
 20
10.0840050914
 30
0.0
 10
11.2989005976
 20
10.0916327061
 30
0.0
  0
SPLINE
  5
237
100
AcDbEntity
  8
0
100
AcDbSpline
 62
9
  6
CONTINUOUS
 70
0
 71
3
 72
36
 73
32
 74
0
 42
0.0000001
 43
0.0000001
 44
0.0000000001
 40
0.0
 40
0.0
 40
0.0
 40
0.0
 40
0.2360070873
 40
0.341909655
 40
0.4397127095
 40
0.5294505908
 40
0.6112338511
 40
0.6851405982
 40
0.7512122887
 40
0.8094827409
 40
0.8599866146
 40
0.8823317859
 40
0.902739219
 40
0.9212077043
 40
0.9377350847
 40
0.9523202276
 40
0.9649630199
 40
0.9756631737
 40
0.9802846201
 40
0.9844202056
 40
0.9880698367
 40
0.991233407
 40
0.9939107976
 40
0.9961018766
 40
0.9978064995
 40
0.9984763414
 40
0.9990245093
 40
0.9994509816
 40
0.999755736
 40
0.9999387494
 40
1.0
 40
1.0
 40
1.0
 40
1.0
 10
11.2989005976
 20
10.0916327061
 30
0.0
 10
11.2977980644
 20
10.0941512641
 30
0.0
 10
11.2963303248
 20
10.0978593156
 30
0.0
 10
11.294716287
 20
10.1027214917
 30
0.0
 10
11.2937531355
 20
10.106002166
 30
0.0
 10
11.2929710642
 20
10.1090411354
 30
0.0
 10
11.2923481759
 20
10.1118320038
 30
0.0
 10
11.2918622869
 20
10.114369629
 30
0.0
 10
11.2914903213
 20
10.116649199
 30
0.0
 10
11.2912127461
 20
10.1186672268
 30
0.0
 10
11.2910404782
 20
10.1201850696
 30
0.0
 10
11.2909357261
 20
10.1212663928
 30
0.0
 10
11.2908737518
 20
10.1219768868
 30
0.0
 10
11.2908230949
 20
10.1226203099
 30
0.0
 10
11.2907815421
 20
10.1231963995
 30
0.0
 10
11.2907477901
 20
10.1237050014
 30
0.0
 10
11.2907211347
 20
10.1241460338
 30
0.0
 10
11.2907033769
 20
10.1244713164
 30
0.0
 10
11.2906920595
 20
10.1246976962
 30
0.0
 10
11.2906852639
 20
10.124842065
 30
0.0
 10
11.2906796376
 20
10.1249694869
 30
0.0
 10
11.2906750763
 20
10.1250799501
 30
0.0
 10
11.2906714922
 20
10.1251734531
 30
0.0
 10
11.2906687504
 20
10.1252499643
 30
0.0
 10
11.2906670483
 20
10.1253031491
 30
0.0
 10
11.2906659371
 20
10.1253371367
 30
0.0
 10
11.2906655116
 20
10.1253563755
 30
0.0
 10
11.2906647318
 20
10.125371041
 30
0.0
 10
11.2906652497
 20
10.1253822136
 30
0.0
 10
11.2906636543
 20
10.1253876826
 30
0.0
 10
11.2906650484
 20
10.1253914859
 30
0.0
 10
11.2906644097
 20
10.125391804
 30
0.0
  0
SPLINE
  5
238
100
AcDbEntity
  8
0
100
AcDbSpline
 62
9
  6
CONTINUOUS
 70
0
 71
3
 72
15
 73
11
 74
0
 42
0.0000001
 43
0.0000001
 44
0.0000000001
 40
0.0
 40
0.0
 40
0.0
 40
0.0
 40
0.1154457366
 40
0.2342404175
 40
0.3565437655
 40
0.4821197659
 40
0.6102958382
 40
0.7400974602
 40
0.8704146921
 40
1.0
 40
1.0
 40
1.0
 40
1.0
 10
11.3576793467
 20
10.1435305226
 30
0.0
 10
11.3573108028
 20
10.1403004061
 30
0.0
 10
11.3558783916
 20
10.1338080175
 30
0.0
 10
11.3518417782
 20
10.1245531646
 30
0.0
 10
11.3460326162
 20
10.1159498124
 30
0.0
 10
11.3386551122
 20
10.1082830761
 30
0.0
 10
11.3299558194
 20
10.1018021237
 30
0.0
 10
11.3202244841
 20
10.0967157541
 30
0.0
 10
11.30978591
 20
10.0931934483
 30
0.0
 10
11.3025355055
 20
10.0919560192
 30
0.0
 10
11.2989005976
 20
10.0916327062
 30
0.0
  0
ENDSEC
  0
SECTION
  2
OBJECTS
  0
DICTIONARY
  5
C
100
AcDbDictionary
280
0
281
1
  3
ACAD_GROUP
350
D
  3
ACAD_MLINESTYLE
350
17
  3
ACAD_LAYOUT
350
1A
  3
ACAD_PLOTSETTINGS
350
19
  3
ACAD_PLOTSTYLENAME
350
E
  0
DICTIONARY
  5
D
102
{ACAD_REACTORS
330
C
102
}
100
AcDbDictionary
280
0
281
1
  0
ACDBDICTIONARYWDFLT
  5
E
102
{ACAD_REACTORS
330
C
102
}
100
AcDbDictionary
281
1
  3
Normal
350
F
100
AcDbDictionaryWithDefault
340
F
  0
DICTIONARY
  5
17
102
{ACAD_REACTORS
330
C
102
}
100
AcDbDictionary
280
0
281
1
  3
Standard
350
18
  0
DICTIONARY
  5
19
102
{ACAD_REACTORS
330
C
102
}
100
AcDbDictionary
281
1
  0
DICTIONARY
  5
1A
102
{ACAD_REACTORS
330
C
102
}
100
AcDbDictionary
281
1
  3
Model
350
239
  3
Layout1
350
23A
  0
ACDBPLACEHOLDER
  5
F
102
{ACAD_REACTORS
330
E
102
}
  0
MLINESTYLE
  5
18
102
{ACAD_REACTORS
330
17
102
}
100
AcDbMlineStyle
  2
STANDARD
 70
0
  3

 62
256
 51
90.0
 52
90.0
 71
2
 49
0.5
 62
256
  6
BYLAYER
 49
-0.5
 62
256
  6
BYLAYER
  0
LAYOUT
  5
239
102
{ACAD_REACTORS
330
1A
102
}
100
AcDbPlotSettings
  1

  2
none_device
  4
ANSI_C_(22.00_x_17.00_Inches)
  6

 40
0.0
 41
0.0
 42
0.0
 43
0.0
 44
558.8
 45
431.8
 46
0.0
 47
0.0
 48
0.0
 49
0.0
140
0.0
141
0.0
142
1.0
143
1.0
 70
1024
 72
0
 73
0
 74
0
  7

 75
0
147
1.0
148
0.0
149
0.0
100
AcDbLayout
  1
Model
 70
0
 71
0
 10
0.0
 20
0.0
 11
22.0
 21
17.0
 12
0.0
 22
0.0
 32
0.0
 14
0.0
 24
0.0
 34
0.0
 15
0.0
 25
0.0
 35
0.0
146
0.0
 13
0.0
 23
0.0
 33
0.0
 16
1.0
 26
0.0
 36
0.0
 17
0.0
 27
1.0
 37
0.0
 76
0
330
205
345
0
346
0
  0
LAYOUT
  5
23A
102
{ACAD_REACTORS
330
1A
102
}
100
AcDbPlotSettings
  1

  2
none_device
  4
ANSI_C_(22.00_x_17.00_Inches)
  6

 40
0.0
 41
0.0
 42
0.0
 43
0.0
 44
558.8
 45
431.8
 46
0.0
 47
0.0
 48
0.0
 49
0.0
140
0.0
141
0.0
142
1.0
143
1.0
 70
0
 72
0
 73
0
 74
0
  7

 75
0
147
1.0
148
0.0
149
0.0
100
AcDbLayout
  1
Layout1
 70
0
 71
1
 10
0.0
 20
0.0
 11
22.0
 21
17.0
 12
0.0
 22
0.0
 32
0.0
 14
0.0
 24
0.0
 34
0.0
 15
0.0
 25
0.0
 35
0.0
146
0.0
 13
0.0
 23
0.0
 33
0.0
 16
1.0
 26
0.0
 36
0.0
 17
0.0
 27
1.0
 37
0.0
 76
0
330
206
345
0
346
0
  0
ENDSEC
  0
EOF
