999
DXF file: E:\BT Custom\CADOUTPUT\_TOP.dxf
999
Pro/ENGINEER 2018400 by Parametric Technology Corporation
  0
SECTION
  2
HEADER
  9
$ACADVER
  1
AC1018
  9
$DWGCODEPAGE
  3
ANSI_1252
  9
$EXTMAX
 10
22.0
 20
17.0
 30
0.0
  9
$EXTMIN
 10
0.0
 20
0.0
 30
0.0
  9
$LIMMIN
 10
0.0
 20
0.0
  9
$LIMMAX
 10
22.0
 20
17.0
  9
$VIEWCTR
 10
11.0
 20
8.5
  9
$VIEWSIZE
 40
17.0
  9
$CLAYER
  8
0
  9
$LTSCALE
 40
1.21
  9
$CELTYPE
  6
BYLAYER
  9
$DIMSCALE
 40
1.0
  9
$DIMASZ
 40
0.1
  9
$DIMEXO
 40
0.0625
  9
$DIMDLI
 40
0.836
  9
$DIMEXE
 40
0.125
  9
$DIMCEN
 40
0.198
  9
$DIMLFAC
 40
1.0
  9
$DIMBLK
  1
_FILLED
  9
$DIMALT
 70
1
  9
$DIMALTD
 70
2
  9
$DIMALTTD
 70
2
  9
$DIMALTF
 40
25.4
  9
$DIMTXT
 40
0.08
  9
$DIMTOL
 70
1
  9
$DIMLIM
 70
0
  9
$DIMTFAC
 40
1.0
  9
$DIMTP
 40
0.001
  9
$DIMTM
 40
0.001
  9
$DIMGAP
 40
0.09
  9
$DIMDSEP
 70
46
  9
$AUNITS
 70
0
  9
$PDMODE
 70
3
  9
$PDSIZE
 40
0.06
  9
$HANDSEED
  5
474
  9
$TILEMODE
 70
1
  9
$MEASUREMENT
 70
0
  9
$INSUNITS
 70
1
  0
ENDSEC
  0
SECTION
  2
CLASSES
  0
CLASS
  1
ACDBDICTIONARYWDFLT
  2
AcDbDictionaryWithDefault
  3
AutoCAD 2000
 90
0
 91
1
280
0
281
0
  0
CLASS
  1
ACDBPLACEHOLDER
  2
AcDbPlaceHolder
  3
AutoCAD 2000
 90
0
 91
1
280
0
281
0
  0
CLASS
  1
LAYOUT
  2
AcDbLayout
  3
AutoCAD 2000
 90
0
 91
0
280
0
281
0
  0
ENDSEC
  0
SECTION
  2
TABLES
  0
TABLE
  2
VPORT
  5
8
100
AcDbSymbolTable
 70
2
  0
VPORT
  5
1F4
100
AcDbSymbolTableRecord
100
AcDbViewportTableRecord
  2
*ACTIVE
 70
0
 10
0.0
 20
0.0
 11
1.0
 21
1.0
 12
11.0
 22
8.5
 13
0.0
 23
0.0
 14
1.0
 24
1.0
 15
0.0
 25
0.0
 16
0.0
 26
0.0
 36
1.0
 17
0.0
 27
0.0
 37
0.0
 40
17.0
 41
1.2941176471
 42
50.0
 43
0.0
 44
0.0
 50
0.0
 51
0.0
 71
0
 72
100
 73
1
 74
1
 75
0
 76
0
 77
0
 78
0
  0
ENDTAB
  0
TABLE
  2
LTYPE
  5
5
100
AcDbSymbolTable
 70
6
  0
LTYPE
  5
14
100
AcDbSymbolTableRecord
100
AcDbLinetypeTableRecord
  2
BYBLOCK
 70
0
  3

 72
65
 73
0
 40
0.0
  0
LTYPE
  5
15
100
AcDbSymbolTableRecord
100
AcDbLinetypeTableRecord
  2
BYLAYER
 70
0
  3

 72
65
 73
0
 40
0.0
  0
LTYPE
  5
16
100
AcDbSymbolTableRecord
100
AcDbLinetypeTableRecord
  2
CONTINUOUS
 70
64
  3
Solid line
 72
65
 73
0
 40
0.0
  0
LTYPE
  5
1F5
100
AcDbSymbolTableRecord
100
AcDbLinetypeTableRecord
  2
CENTER
 70
64
  3
____ _ ____ _ ____ _ ____ _ ____ _ ____ _ ____
 72
65
 73
4
 40
0.6
 49
0.375
 74
0
 49
-0.075
 74
0
 49
0.075
 74
0
 49
-0.075
 74
0
  0
LTYPE
  5
1F6
100
AcDbSymbolTableRecord
100
AcDbLinetypeTableRecord
  2
HIDDEN
 70
64
  3
- - - - - - - - - - - - - - - - - - - -
 72
65
 73
2
 40
0.2
 49
0.1
 74
0
 49
-0.1
 74
0
  0
LTYPE
  5
1F7
100
AcDbSymbolTableRecord
100
AcDbLinetypeTableRecord
  2
PHANTOM
 70
64
  3
_____ _ _ _____ _ _ _____ _ _ _____
 72
65
 73
6
 40
0.8
 49
0.45
 74
0
 49
-0.05
 74
0
 49
0.1
 74
0
 49
-0.05
 74
0
 49
0.1
 74
0
 49
-0.05
 74
0
  0
LTYPE
  5
1F8
100
AcDbSymbolTableRecord
100
AcDbLinetypeTableRecord
  2
DOT
 70
64
  3
. . . . . . . . . . . . . . . . . . . .
 72
65
 73
2
 40
0.2
 49
0.1
 74
0
 49
-0.1
 74
0
  0
LTYPE
  5
1F9
100
AcDbSymbolTableRecord
100
AcDbLinetypeTableRecord
  2
DASHED
 70
64
  3
- - - - - - - - - - - - - - - - - - - -
 72
65
 73
2
 40
0.2
 49
0.1
 74
0
 49
-0.1
 74
0
  0
ENDTAB
  0
TABLE
  2
LAYER
  5
2
100
AcDbSymbolTable
 70
36
  0
LAYER
  5
10
100
AcDbSymbolTableRecord
100
AcDbLayerTableRecord
  2
0
 70
0
 62
7
  6
CONTINUOUS
370
-3
390
F
  0
LAYER
  5
1FA
100
AcDbSymbolTableRecord
100
AcDbLayerTableRecord
  2
DEFAULT_1
 70
0
 62
7
  6
CENTER
370
-3
390
F
  0
LAYER
  5
1FB
100
AcDbSymbolTableRecord
100
AcDbLayerTableRecord
  2
DEFAULT_2
 70
0
 62
8
  6
HIDDEN
370
-3
390
F
  0
LAYER
  5
1FC
100
AcDbSymbolTableRecord
100
AcDbLayerTableRecord
  2
DEFAULT_3
 70
0
 62
7
  6
PHANTOM
370
-3
390
F
  0
LAYER
  5
1FD
100
AcDbSymbolTableRecord
100
AcDbLayerTableRecord
  2
ALL_FEATURES
 70
0
 62
7
  6
CONTINUOUS
370
-3
390
F
  0
LAYER
  5
1FE
100
AcDbSymbolTableRecord
100
AcDbLayerTableRecord
  2
AXES_FEATURES
 70
0
 62
7
  6
CONTINUOUS
370
-3
390
F
  0
LAYER
  5
1FF
100
AcDbSymbolTableRecord
100
AcDbLayerTableRecord
  2
DIMENSIONS
 70
0
 62
7
  6
CONTINUOUS
370
-3
390
F
  0
ENDTAB
  0
TABLE
  2
STYLE
  5
3
100
AcDbSymbolTable
 70
1
  0
STYLE
  5
11
100
AcDbSymbolTableRecord
100
AcDbTextStyleTableRecord
  2
STANDARD
 70
0
 40
0.0
 41
0.8
 50
0.0
 71
0
 42
0.2
  3
txt
  4

  0
STYLE
  5
200
100
AcDbSymbolTableRecord
100
AcDbTextStyleTableRecord
  2
TEXTSTYLE_1
 70
0
 40
0.0
 41
0.8
 50
0.0
 71
0
 42
0.2
  3
gdt
  4

  0
ENDTAB
  0
TABLE
  2
VIEW
  5
6
100
AcDbSymbolTable
 70
0
  0
ENDTAB
  0
TABLE
  2
UCS
  5
7
100
AcDbSymbolTable
 70
0
  0
ENDTAB
  0
TABLE
  2
APPID
  5
9
100
AcDbSymbolTable
 70
1
  0
APPID
  5
201
100
AcDbSymbolTableRecord
100
AcDbRegAppTableRecord
  2
ACAD
 70
0
  0
ENDTAB
  0
TABLE
  2
BLOCK_RECORD
  5
1
100
AcDbSymbolTable
 70
0
  0
BLOCK_RECORD
  5
202
100
AcDbSymbolTableRecord
100
AcDbBlockTableRecord
  2
*Model_Space
  0
BLOCK_RECORD
  5
203
100
AcDbSymbolTableRecord
100
AcDbBlockTableRecord
  2
*Paper_Space
  0
BLOCK_RECORD
  5
204
100
AcDbSymbolTableRecord
100
AcDbBlockTableRecord
  2
_FILLED
  0
ENDTAB
  0
TABLE
  2
DIMSTYLE
  5
A
100
AcDbSymbolTable
 70
1
100
AcDbDimStyleTable
 71
0
  0
DIMSTYLE
105
205
100
AcDbSymbolTableRecord
100
AcDbDimStyleTableRecord
  2
STANDARD
 70
0
  3

  4

 40
1.0
 41
0.1
 42
0.0625
 43
0.38
 44
0.125
 45
0.0
 46
0.0
 47
0.001
 48
0.001
140
0.08
141
0.09
142
0.0
143
25.4
144
1.0
145
0.0
146
1.0
147
0.09
 71
1.0
 72
0.0
 73
1
 74
1
 75
0
 76
0
 77
0
 78
4
 79
1
170
1
171
2
172
0
173
0
174
0
175
0
176
0
177
0
178
0
270
2
179
3
271
3
272
3
273
2
274
2
275
0
280
0
281
0
282
0
283
1
284
4
285
0
286
0
287
3
288
0
340
11
278
46
341
204
342
204
343
204
344
204
  0
ENDTAB
  0
ENDSEC
  0
SECTION
  2
BLOCKS
  0
BLOCK
  5
20
100
AcDbEntity
  8
0
100
AcDbBlockBegin
  2
*Model_Space
 70
0
 10
0.0
 20
0.0
 30
0.0
  3
*Model_Space
  1

  0
ENDBLK
  5
21
100
AcDbEntity
  8
0
100
AcDbBlockEnd
  0
BLOCK
  5
1C
100
AcDbEntity
  8
0
100
AcDbBlockBegin
  2
*Paper_Space
 70
0
 10
0.0
 20
0.0
 30
0.0
  3
*Paper_Space
  1

  0
ENDBLK
  5
1D
100
AcDbEntity
  8
0
100
AcDbBlockEnd
  0
BLOCK
  5
206
100
AcDbEntity
  8
0
100
AcDbBlockBegin
  2
_FILLED
 70
64
 10
0.0
 20
0.0
  3
_FILLED
  1

  0
SOLID
  5
207
100
AcDbEntity
  8
0
  6
BYBLOCK
 62
0
100
AcDbTrace
 10
0.0
 20
0.0
 11
-1.0
 21
0.2
 12
-1.0
 22
-0.2
 13
-1.0
 23
-0.2
  0
ENDBLK
  5
208
100
AcDbEntity
  8
0
  6
BYBLOCK
 62
0
100
AcDbBlockEnd
  0
ENDSEC
  0
SECTION
  2
ENTITIES
  0
LINE
  5
209
100
AcDbEntity
  8
0
100
AcDbLine
 62
7
  6
CONTINUOUS
 10
9.6382382548
 20
1.9219412538
 11
9.6951072077
 21
1.9173960221
  0
LWPOLYLINE
  5
20A
100
AcDbEntity
  8
0
100
AcDbPolyline
 62
7
  6
CONTINUOUS
 90
6
 70
0
 10
10.0854783459
 20
1.9173960221
 10
10.1452340511
 20
1.9223949228
 10
10.2328727093
 20
1.9472408523
 10
10.3116558886
 20
1.991492696
 10
10.3768039789
 20
2.052430494
 10
10.4087275204
 20
2.0971540417
  0
LWPOLYLINE
  5
20B
100
AcDbEntity
  8
0
100
AcDbPolyline
 62
7
  6
CONTINUOUS
 90
4
 70
0
 10
9.6951072393
 20
1.9173960219
 10
9.8159232603
 20
1.916812334
 10
9.9678149926
 20
1.9168205602
 10
10.0854783158
 20
1.9173960219
  0
LINE
  5
20C
100
AcDbEntity
  8
0
100
AcDbLine
 62
7
  6
CONTINUOUS
 10
11.7068273755
 20
12.8395625338
 11
11.695601188
 21
12.8361146552
  0
LWPOLYLINE
  5
20D
100
AcDbEntity
  8
0
100
AcDbPolyline
 62
7
  6
CONTINUOUS
 90
5
 70
0
 10
10.0580662044
 20
2.4464662734
 10
10.1388388092
 20
2.4603106223
 10
10.2194278584
 20
2.4898358833
 10
10.2913448053
 20
2.5336339676
 10
10.350855525
 20
2.588838648
  0
LINE
  5
20E
100
AcDbEntity
  8
0
100
AcDbLine
 62
7
  6
CONTINUOUS
 10
10.0580591251
 20
2.4464656852
 11
10.0580661778
 21
2.4464662711
  0
LWPOLYLINE
  5
20F
100
AcDbEntity
  8
0
100
AcDbPolyline
 62
7
  6
CONTINUOUS
 90
4
 70
0
 10
9.7225261032
 20
2.4464657112
 10
9.8244847781
 20
2.4395902891
 10
9.9589351165
 20
2.4397140698
 10
10.0580591251
 20
2.4464656852
  0
LINE
  5
210
100
AcDbEntity
  8
0
100
AcDbLine
 62
7
  6
CONTINUOUS
 10
9.7225260749
 20
2.4464657135
 11
9.722519397
 21
2.4464662693
  0
LWPOLYLINE
  5
211
100
AcDbEntity
  8
0
100
AcDbPolyline
 62
7
  6
CONTINUOUS
 90
5
 70
0
 10
9.4312636329
 20
2.5871016939
 10
9.4908545482
 20
2.5324186134
 10
9.5625740302
 20
2.4891579312
 10
9.6426975247
 20
2.4600629075
 10
9.722519397
 20
2.4464662693
  0
LWPOLYLINE
  5
212
100
AcDbEntity
  8
0
100
AcDbPolyline
 62
7
  6
CONTINUOUS
 90
5
 70
0
 10
9.3718580494
 20
2.0971540166
 10
9.405617775
 20
2.0502523205
 10
9.471288562
 20
1.9897822566
 10
9.5504332365
 20
1.9461235281
 10
9.6382382548
 20
1.9219412538
  0
LINE
  5
213
100
AcDbEntity
  8
0
100
AcDbLine
 62
7
  6
CONTINUOUS
 10
9.029950423
 20
12.7511718771
 11
8.6836351316
 21
12.151336197
  0
LINE
  5
214
100
AcDbEntity
  8
0
100
AcDbLine
 62
7
  6
CONTINUOUS
 10
9.1493089646
 20
12.6286209227
 11
8.8494466422
 21
12.109244145
  0
LINE
  5
215
100
AcDbEntity
  8
0
100
AcDbLine
 62
9
  6
CONTINUOUS
 10
10.5459241704
 20
2.9040318306
 11
10.5463421634
 21
2.9037740165
  0
LINE
  5
216
100
AcDbEntity
  8
0
100
AcDbLine
 62
7
  6
CONTINUOUS
 10
9.4014666799
 20
2.6251825919
 11
9.4312636329
 21
2.5871016939
  0
LINE
  5
217
100
AcDbEntity
  8
0
100
AcDbLine
 62
7
  6
CONTINUOUS
 10
9.4014598404
 20
2.6251926217
 11
9.4014667114
 21
2.6251825458
  0
LINE
  5
218
100
AcDbEntity
  8
0
100
AcDbLine
 62
7
  6
CONTINUOUS
 10
9.3506765466
 20
2.7014862222
 11
9.4014598404
 21
2.6251926217
  0
LINE
  5
219
100
AcDbEntity
  8
0
100
AcDbLine
 62
9
  6
CONTINUOUS
 10
9.1712074161
 20
11.0687217677
 11
9.1645848236
 21
11.061484375
  0
LINE
  5
21A
100
AcDbEntity
  8
0
100
AcDbLine
 62
9
  6
CONTINUOUS
 10
10.6093781385
 20
12.6404032999
 11
10.616000731
 21
12.6476406926
  0
LINE
  5
21B
100
AcDbEntity
  8
0
100
AcDbLine
 62
9
  6
CONTINUOUS
 10
9.0523015946
 20
10.9471335342
 11
9.0449573046
 21
10.9391806799
  0
LINE
  5
21C
100
AcDbEntity
  8
0
100
AcDbLine
 62
9
  6
CONTINUOUS
 10
10.72828396
 20
12.7619915334
 11
10.7356282501
 21
12.7699443877
  0
LWPOLYLINE
  5
21D
100
AcDbEntity
  8
0
100
AcDbPolyline
 62
7
  6
CONTINUOUS
 90
3
 70
0
 10
9.2342433893
 20
2.9037740187
 10
9.2836146784
 20
2.8130500781
 10
9.3506765466
 20
2.7014862222
  0
LINE
  5
21E
100
AcDbEntity
  8
0
100
AcDbLine
 62
7
  6
CONTINUOUS
 10
9.1479707487
 20
2.4823249277
 11
9.1766895378
 21
2.4223743506
  0
LINE
  5
21F
100
AcDbEntity
  8
0
100
AcDbLine
 62
9
  6
CONTINUOUS
 10
9.371729247
 20
2.0974249358
 11
9.3718580505
 21
2.0971540148
  0
LINE
  5
220
100
AcDbEntity
  8
0
100
AcDbLine
 62
7
  6
CONTINUOUS
 10
9.1225852797
 20
2.5510216828
 11
9.1479707487
 21
2.4823249277
  0
LINE
  5
221
100
AcDbEntity
  8
0
100
AcDbLine
 62
9
  6
CONTINUOUS
 10
9.1766894188
 20
2.4223746726
 11
9.149956785
 21
2.4947170503
  0
LINE
  5
222
100
AcDbEntity
  8
0
100
AcDbLine
 62
7
  6
CONTINUOUS
 10
9.1106569682
 20
2.5909348421
 11
9.1229129199
 21
2.5501385289
  0
LINE
  5
223
100
AcDbEntity
  8
0
100
AcDbLine
 62
7
  6
CONTINUOUS
 10
11.695601188
 20
12.8361146552
 11
11.6893719725
 21
12.829325163
  0
LINE
  5
224
100
AcDbEntity
  8
0
100
AcDbLine
 62
7
  6
CONTINUOUS
 10
12.0457587209
 20
10.8695625338
 11
12.0569856083
 21
10.8730108777
  0
LINE
  5
225
100
AcDbEntity
  8
0
100
AcDbLine
 62
9
  6
CONTINUOUS
 10
10.085332597
 20
1.9177540603
 11
10.0854783158
 21
1.9173960219
  0
LINE
  5
226
100
AcDbEntity
  8
0
100
AcDbLine
 62
9
  6
CONTINUOUS
 10
9.4007152183
 20
2.6273747562
 11
9.4014598404
 21
2.6251926217
  0
LINE
  5
227
100
AcDbEntity
  8
0
100
AcDbLine
 62
9
  6
CONTINUOUS
 10
9.358362922
 20
2.147498134
 11
9.3717292389
 21
2.0974249568
  0
LINE
  5
228
100
AcDbEntity
  8
0
100
AcDbLine
 62
9
  6
CONTINUOUS
 10
10.2603689806
 20
13.0443354549
 11
10.2571537518
 21
13.033998686
  0
LINE
  5
229
100
AcDbEntity
  8
0
100
AcDbLine
 62
9
  6
CONTINUOUS
 10
10.2142646332
 20
12.8795831368
 11
10.2113081635
 21
12.8702291072
  0
LINE
  5
22A
100
AcDbEntity
  8
0
100
AcDbLine
 62
7
  6
CONTINUOUS
 10
10.6309937238
 20
2.854416097
 11
10.5712152151
 21
2.9630851636
  0
LINE
  5
22B
100
AcDbEntity
  8
0
100
AcDbLine
 62
7
  6
CONTINUOUS
 10
10.6322008052
 20
2.8521527828
 11
10.6309935972
 21
2.8544163364
  0
LINE
  5
22C
100
AcDbEntity
  8
0
100
AcDbLine
 62
9
  6
CONTINUOUS
 10
9.6952529573
 20
1.9177540563
 11
9.6818866403
 21
1.9678272334
  0
LINE
  5
22D
100
AcDbEntity
  8
0
100
AcDbLine
 62
7
  6
CONTINUOUS
 10
9.1023233534
 20
2.6892921148
 11
9.1106569682
 21
2.5909348421
  0
LWPOLYLINE
  5
22E
100
AcDbEntity
  8
0
100
AcDbPolyline
 62
7
  6
CONTINUOUS
 90
4
 70
0
 10
9.186484989
 20
3.0885852135
 10
9.1908561843
 20
3.0322906258
 10
9.2133084088
 20
2.9493894113
 10
9.2342434185
 20
2.903773955
  0
LINE
  5
22F
100
AcDbEntity
  8
0
100
AcDbLine
 62
7
  6
CONTINUOUS
 10
10.63127659
 20
11.080504145
 11
10.9311389124
 21
11.5998809227
  0
LINE
  5
230
100
AcDbEntity
  8
0
100
AcDbLine
 62
7
  6
CONTINUOUS
 10
10.5176864632
 20
3.3397889774
 11
10.5469372744
 21
3.2783986714
  0
LINE
  5
231
100
AcDbEntity
  8
0
100
AcDbLine
 62
7
  6
CONTINUOUS
 10
10.6599945447
 20
2.7865663662
 11
10.63220081
 21
2.8521527738
  0
LINE
  5
232
100
AcDbEntity
  8
0
100
AcDbLine
 62
9
  6
CONTINUOUS
 10
10.5176864632
 20
2.9804471763
 11
10.5459241751
 21
2.9040318395
  0
LINE
  5
233
100
AcDbEntity
  8
0
100
AcDbLine
 62
7
  6
CONTINUOUS
 10
9.3202927773
 20
11.8545625338
 11
9.3202927773
 21
3.2244553413
  0
LINE
  5
234
100
AcDbEntity
  8
0
100
AcDbLine
 62
7
  6
CONTINUOUS
 10
9.3202927773
 20
3.2066854186
 11
9.3202927773
 21
3.2010210621
  0
LINE
  5
235
100
AcDbEntity
  8
0
100
AcDbLine
 62
7
  6
CONTINUOUS
 10
11.689371984
 20
12.8293251565
 11
11.6702927773
 21
12.7920625338
  0
LINE
  5
236
100
AcDbEntity
  8
0
100
AcDbLine
 62
7
  6
CONTINUOUS
 10
10.5469364904
 20
3.278400793
 11
10.5732293404
 21
3.2072485339
  0
LINE
  5
237
100
AcDbEntity
  8
0
100
AcDbLine
 62
9
  6
CONTINUOUS
 10
10.0422277611
 20
2.5476421734
 11
10.056346617
 21
2.4477038543
  0
LINE
  5
238
100
AcDbEntity
  8
0
100
AcDbLine
 62
9
  6
CONTINUOUS
 10
9.2379537672
 20
2.8017937736
 11
9.2342927773
 21
2.7352217654
  0
LINE
  5
239
100
AcDbEntity
  8
0
100
AcDbLine
 62
7
  6
CONTINUOUS
 10
9.2466808564
 20
2.8809191156
 11
9.2379537672
 21
2.8017937736
  0
LINE
  5
23A
100
AcDbEntity
  8
0
100
AcDbLine
 62
7
  6
CONTINUOUS
 10
12.0569856083
 20
10.8730108777
 11
12.0632141557
 21
10.8797999229
  0
LINE
  5
23B
100
AcDbEntity
  8
0
100
AcDbLine
 62
7
  6
CONTINUOUS
 10
10.6783538343
 20
2.6875317984
 11
10.6599945447
 21
2.7865663662
  0
LINE
  5
23C
100
AcDbEntity
  8
0
100
AcDbLine
 62
9
  6
CONTINUOUS
 10
10.5939992849
 20
3.0891369456
 11
10.5941005656
 21
3.0885852564
  0
LINE
  5
23D
100
AcDbEntity
  8
0
100
AcDbLine
 62
9
  6
CONTINUOUS
 10
10.3798703354
 20
2.6273747548
 11
10.3657514795
 21
2.7273130739
  0
LINE
  5
23E
100
AcDbEntity
  8
0
100
AcDbLine
 62
9
  6
CONTINUOUS
 10
10.5462927773
 20
2.7352217654
 11
10.5426317874
 21
2.8017937736
  0
LINE
  5
23F
100
AcDbEntity
  8
0
100
AcDbLine
 62
9
  6
CONTINUOUS
 10
9.4148340752
 20
2.7273130739
 11
9.4007152192
 21
2.6273747548
  0
LINE
  5
240
100
AcDbEntity
  8
0
100
AcDbLine
 62
9
  6
CONTINUOUS
 10
9.1865862698
 20
3.0891369456
 11
9.186484989
 21
3.0885852135
  0
LINE
  5
241
100
AcDbEntity
  8
0
100
AcDbLine
 62
7
  6
CONTINUOUS
 10
9.1213289285
 20
2.7888222865
 11
9.1023233534
 21
2.6892921148
  0
LINE
  5
242
100
AcDbEntity
  8
0
100
AcDbLine
 62
9
  6
CONTINUOUS
 10
12.5464190601
 20
12.2147483958
 11
12.5463959479
 21
12.2147018564
  0
LINE
  5
243
100
AcDbEntity
  8
0
100
AcDbLine
 62
9
  6
CONTINUOUS
 10
12.8336080238
 20
12.0771674289
 11
12.739788605
 21
11.9419401562
  0
LINE
  5
244
100
AcDbEntity
  8
0
100
AcDbLine
 62
7
  6
CONTINUOUS
 10
10.5339067266
 20
2.8809007246
 11
10.5426317874
 21
2.8017937736
  0
LINE
  5
245
100
AcDbEntity
  8
0
100
AcDbLine
 62
7
  6
CONTINUOUS
 10
10.4602927773
 20
11.8545625338
 11
10.4602927773
 21
3.2244553413
  0
LINE
  5
246
100
AcDbEntity
  8
0
100
AcDbLine
 62
7
  6
CONTINUOUS
 10
10.4602927773
 20
3.2066854186
 11
10.4602927773
 21
3.2010210621
  0
LINE
  5
247
100
AcDbEntity
  8
0
100
AcDbLine
 62
9
  6
CONTINUOUS
 10
9.7242389376
 20
2.4477038543
 11
9.7383577936
 21
2.5476421734
  0
LINE
  5
248
100
AcDbEntity
  8
0
100
AcDbLine
 62
7
  6
CONTINUOUS
 10
12.0822927773
 20
10.9170625338
 11
12.063213715
 21
10.8798001693
  0
LINE
  5
249
100
AcDbEntity
  8
0
100
AcDbLine
 62
7
  6
CONTINUOUS
 10
12.885569548
 20
12.0920625338
 11
12.7917501294
 21
11.929562534
  0
LINE
  5
24A
100
AcDbEntity
  8
0
100
AcDbLine
 62
9
  6
CONTINUOUS
 10
12.8133846995
 20
11.9120909383
 11
12.9115171291
 21
12.0820625339
  0
LINE
  5
24B
100
AcDbEntity
  8
0
100
AcDbLine
 62
7
  6
CONTINUOUS
 10
9.2336484772
 20
3.2783992045
 11
9.2073590609
 21
3.2072562374
  0
LINE
  5
24C
100
AcDbEntity
  8
0
100
AcDbLine
 62
9
  6
CONTINUOUS
 10
9.2346613796
 20
2.9040318395
 11
9.2628990914
 21
2.9804471763
  0
LINE
  5
24D
100
AcDbEntity
  8
0
100
AcDbLine
 62
9
  6
CONTINUOUS
 10
13.4052008523
 20
11.7970341312
 11
13.3070684255
 21
11.6270625337
  0
LINE
  5
24E
100
AcDbEntity
  8
0
100
AcDbLine
 62
7
  6
CONTINUOUS
 10
13.3330160067
 20
11.6170625339
 11
13.4268354253
 21
11.7795625336
  0
LINE
  5
24F
100
AcDbEntity
  8
0
100
AcDbLine
 62
7
  6
CONTINUOUS
 10
8.6836351316
 20
11.5577888706
 11
9.029950423
 21
10.9579531906
  0
LINE
  5
250
100
AcDbEntity
  8
0
100
AcDbLine
 62
7
  6
CONTINUOUS
 10
10.6697114449
 20
2.5900035635
 11
10.6783538343
 21
2.6875317984
  0
LINE
  5
251
100
AcDbEntity
  8
0
100
AcDbLine
 62
7
  6
CONTINUOUS
 10
9.1483847466
 20
2.8521527775
 11
9.1213289285
 21
2.7888222865
  0
LINE
  5
252
100
AcDbEntity
  8
0
100
AcDbLine
 62
7
  6
CONTINUOUS
 10
9.2336484772
 20
3.2783992045
 11
9.2628990914
 21
3.3397889774
  0
LINE
  5
253
100
AcDbEntity
  8
0
100
AcDbLine
 62
7
  6
CONTINUOUS
 10
8.8494466422
 20
11.5998809227
 11
9.1493089646
 21
11.080504145
  0
LINE
  5
254
100
AcDbEntity
  8
0
100
AcDbLine
 62
9
  6
CONTINUOUS
 10
9.5692773911
 20
12.8702291072
 11
9.5663209214
 21
12.8795831368
  0
LINE
  5
255
100
AcDbEntity
  8
0
100
AcDbLine
 62
9
  6
CONTINUOUS
 10
9.5234318029
 20
13.033998686
 11
9.520216574
 21
13.0443354549
  0
LINE
  5
256
100
AcDbEntity
  8
0
100
AcDbLine
 62
7
  6
CONTINUOUS
 10
11.6702927773
 20
12.7920596901
 11
11.6702927773
 21
10.9170653776
  0
LINE
  5
257
100
AcDbEntity
  8
0
100
AcDbLine
 62
9
  6
CONTINUOUS
 10
11.7184935706
 20
12.8285770378
 11
11.7184935706
 21
12.6078661194
  0
LINE
  5
258
100
AcDbEntity
  8
0
100
AcDbLine
 62
9
  6
CONTINUOUS
 10
11.7184935706
 20
12.0752734523
 11
11.7184935706
 21
11.6338516154
  0
LINE
  5
259
100
AcDbEntity
  8
0
100
AcDbLine
 62
9
  6
CONTINUOUS
 10
11.7184935706
 20
11.1012589483
 11
11.7184935706
 21
10.8805480299
  0
LINE
  5
25A
100
AcDbEntity
  8
0
100
AcDbLine
 62
9
  6
CONTINUOUS
 10
11.7349271628
 20
12.8367790287
 11
11.7349271628
 21
12.6142095455
  0
LINE
  5
25B
100
AcDbEntity
  8
0
100
AcDbLine
 62
9
  6
CONTINUOUS
 10
11.7349271628
 20
12.0771320169
 11
11.7349271628
 21
11.6319930507
  0
LINE
  5
25C
100
AcDbEntity
  8
0
100
AcDbLine
 62
9
  6
CONTINUOUS
 10
11.7349271628
 20
11.0949155221
 11
11.7349271628
 21
10.872346039
  0
LINE
  5
25D
100
AcDbEntity
  8
0
100
AcDbLine
 62
7
  6
CONTINUOUS
 10
12.5464249402
 20
11.4944208369
 11
12.4768694514
 21
11.1466213305
  0
LINE
  5
25E
100
AcDbEntity
  8
0
100
AcDbLine
 62
9
  6
CONTINUOUS
 10
10.0986989143
 20
1.9678272334
 11
10.0853325974
 21
1.9177540563
  0
LINE
  5
25F
100
AcDbEntity
  8
0
100
AcDbLine
 62
9
  6
CONTINUOUS
 10
10.4088563157
 20
2.0974249568
 11
10.4222226327
 21
2.147498134
  0
LINE
  5
260
100
AcDbEntity
  8
0
100
AcDbLine
 62
9
  6
CONTINUOUS
 10
9.6952529569
 20
1.9177540563
 11
9.6951072352
 21
1.9173960219
  0
LINE
  5
261
100
AcDbEntity
  8
0
100
AcDbLine
 62
7
  6
CONTINUOUS
 10
9.1495919552
 20
2.8544163321
 11
9.1483847495
 21
2.852152783
  0
LINE
  5
262
100
AcDbEntity
  8
0
100
AcDbLine
 62
7
  6
CONTINUOUS
 10
9.2095375281
 20
2.9633127795
 11
9.1495918374
 21
2.8544161097
  0
LINE
  5
263
100
AcDbEntity
  8
0
100
AcDbLine
 62
9
  6
CONTINUOUS
 10
12.0176583919
 20
10.872346039
 11
12.0176583919
 21
11.0949155221
  0
LINE
  5
264
100
AcDbEntity
  8
0
100
AcDbLine
 62
9
  6
CONTINUOUS
 10
12.0176583919
 20
11.6319930507
 11
12.0176583919
 21
12.0771320169
  0
LINE
  5
265
100
AcDbEntity
  8
0
100
AcDbLine
 62
9
  6
CONTINUOUS
 10
12.0176583919
 20
12.6142095455
 11
12.0176583919
 21
12.8367790287
  0
LINE
  5
266
100
AcDbEntity
  8
0
100
AcDbLine
 62
9
  6
CONTINUOUS
 10
12.034091984
 20
10.8805480299
 11
12.034091984
 21
11.1012589483
  0
LINE
  5
267
100
AcDbEntity
  8
0
100
AcDbLine
 62
9
  6
CONTINUOUS
 10
12.034091984
 20
11.6338516154
 11
12.034091984
 21
12.0752734522
  0
LINE
  5
268
100
AcDbEntity
  8
0
100
AcDbLine
 62
9
  6
CONTINUOUS
 10
12.034091984
 20
12.6078661194
 11
12.034091984
 21
12.8285770378
  0
LINE
  5
269
100
AcDbEntity
  8
0
100
AcDbLine
 62
9
  6
CONTINUOUS
 10
12.0822927773
 20
10.9170625338
 11
12.0822927773
 21
12.7920625338
  0
LINE
  5
26A
100
AcDbEntity
  8
0
100
AcDbLine
 62
9
  6
CONTINUOUS
 10
12.213476987
 20
12.6829816626
 11
12.213476987
 21
11.026143405
  0
LINE
  5
26B
100
AcDbEntity
  8
0
100
AcDbLine
 62
7
  6
CONTINUOUS
 10
10.6579286956
 20
2.550828126
 11
10.6697114449
 21
2.5900035635
  0
LINE
  5
26C
100
AcDbEntity
  8
0
100
AcDbLine
 62
9
  6
CONTINUOUS
 10
10.3798703356
 20
2.6273747552
 11
10.3791253459
 21
2.62519208
  0
LINE
  5
26D
100
AcDbEntity
  8
0
100
AcDbLine
 62
7
  6
CONTINUOUS
 10
12.5460451972
 20
11.5155181826
 11
12.545791071
 21
11.5388399636
  0
LINE
  5
26E
100
AcDbEntity
  8
0
100
AcDbLine
 62
7
  6
CONTINUOUS
 10
12.545791071
 20
11.5388399636
 11
12.5453251696
 21
11.6175339425
  0
LINE
  5
26F
100
AcDbEntity
  8
0
100
AcDbLine
 62
9
  6
CONTINUOUS
 10
12.4053249128
 20
11.0757462532
 11
12.4053249128
 21
12.6333788144
  0
LINE
  5
270
100
AcDbEntity
  8
0
100
AcDbLine
 62
9
  6
CONTINUOUS
 10
12.4768694514
 20
11.1466213305
 11
12.476877424
 21
12.5624740541
  0
LINE
  5
271
100
AcDbEntity
  8
0
100
AcDbLine
 62
7
  6
CONTINUOUS
 10
12.5453251696
 20
11.6175339425
 11
12.5449149987
 21
11.8908298658
  0
LINE
  5
272
100
AcDbEntity
  8
0
100
AcDbLine
 62
7
  6
CONTINUOUS
 10
12.5449149987
 20
11.8908298658
 11
12.5454373497
 21
12.1162634357
  0
LINE
  5
273
100
AcDbEntity
  8
0
100
AcDbLine
 62
7
  6
CONTINUOUS
 10
12.5454373497
 20
12.1162634357
 11
12.545867767
 21
12.1784758149
  0
LINE
  5
274
100
AcDbEntity
  8
0
100
AcDbLine
 62
7
  6
CONTINUOUS
 10
12.545867767
 20
12.1784758149
 11
12.5460893889
 21
12.1966074566
  0
LINE
  5
275
100
AcDbEntity
  8
0
100
AcDbLine
 62
7
  6
CONTINUOUS
 10
12.5460893889
 20
12.1966074566
 11
12.5461959238
 21
12.2026589552
  0
LWPOLYLINE
  5
276
100
AcDbEntity
  8
0
100
AcDbPolyline
 62
7
  6
CONTINUOUS
 90
5
 70
0
 10
12.5461959238
 20
12.2026589552
 10
12.5462960205
 20
12.2068639702
 10
12.5463417505
 20
12.2083082799
 10
12.5463818281
 20
12.2093145546
 10
12.5463876726
 20
12.2094391466
  0
LINE
  5
277
100
AcDbEntity
  8
0
100
AcDbLine
 62
9
  6
CONTINUOUS
 10
10.6306287696
 20
2.4947170503
 11
10.6038961358
 21
2.4223746726
  0
LINE
  5
278
100
AcDbEntity
  8
0
100
AcDbLine
 62
7
  6
CONTINUOUS
 10
10.6579910969
 20
2.5509968455
 11
10.6326131635
 21
2.482320483
  0
LWPOLYLINE
  5
279
100
AcDbEntity
  8
0
100
AcDbPolyline
 62
7
  6
CONTINUOUS
 90
4
 70
0
 10
10.5463421315
 20
2.9037739464
 10
10.5683378339
 20
2.9521397793
 10
10.5901627217
 20
3.0351603356
 10
10.5941005656
 20
3.0885852564
  0
LINE
  5
27A
100
AcDbEntity
  8
0
100
AcDbLine
 62
9
  6
CONTINUOUS
 10
10.4088563156
 20
2.0974249565
 11
10.4087275204
 21
2.0971540417
  0
LINE
  5
27B
100
AcDbEntity
  8
0
100
AcDbLine
 62
7
  6
CONTINUOUS
 10
10.6038945961
 20
2.4223705059
 11
10.6326131635
 21
2.482320483
  0
LWPOLYLINE
  5
27C
100
AcDbEntity
  8
0
100
AcDbPolyline
 62
7
  6
CONTINUOUS
 90
4
 70
0
 10
10.3791253126
 20
2.625192031
 10
10.4312954566
 20
2.7036485848
 10
10.498319185
 20
2.81544229
 10
10.5463421634
 20
2.9037740165
  0
LINE
  5
27D
100
AcDbEntity
  8
0
100
AcDbLine
 62
7
  6
CONTINUOUS
 10
10.3791253459
 20
2.62519208
 11
10.3791208736
 21
2.6251855166
  0
LINE
  5
27E
100
AcDbEntity
  8
0
100
AcDbLine
 62
7
  6
CONTINUOUS
 10
10.350855525
 20
2.588838648
 11
10.3791208736
 21
2.6251855166
  0
LINE
  5
27F
100
AcDbEntity
  8
0
100
AcDbLine
 62
9
  6
CONTINUOUS
 10
9.0449573046
 20
12.7699443877
 11
9.0523015946
 21
12.7619915334
  0
LINE
  5
280
100
AcDbEntity
  8
0
100
AcDbLine
 62
9
  6
CONTINUOUS
 10
10.7356282501
 20
10.9391806799
 11
10.72828396
 21
10.9471335342
  0
LINE
  5
281
100
AcDbEntity
  8
0
100
AcDbLine
 62
9
  6
CONTINUOUS
 10
9.1645848236
 20
12.6476406926
 11
9.1712074161
 21
12.6404032999
  0
LINE
  5
282
100
AcDbEntity
  8
0
100
AcDbLine
 62
9
  6
CONTINUOUS
 10
10.616000731
 20
11.061484375
 11
10.6093781385
 21
11.0687217677
  0
LINE
  5
283
100
AcDbEntity
  8
0
100
AcDbLine
 62
7
  6
CONTINUOUS
 10
10.63127659
 20
12.6286209227
 11
10.9311389124
 21
12.109244145
  0
LINE
  5
284
100
AcDbEntity
  8
0
100
AcDbLine
 62
7
  6
CONTINUOUS
 10
11.689371984
 20
10.8797999111
 11
11.6702927773
 21
10.9170625338
  0
LWPOLYLINE
  5
285
100
AcDbEntity
  8
0
100
AcDbPolyline
 62
7
  6
CONTINUOUS
 90
3
 70
0
 10
11.6893719725
 20
10.8797999046
 10
11.6956011878
 20
10.8730104125
 10
11.7068273755
 20
10.8695625338
  0
LINE
  5
286
100
AcDbEntity
  8
0
100
AcDbLine
 62
9
  6
CONTINUOUS
 10
9.2346613796
 20
2.9040318394
 11
9.2342433886
 21
2.9037740203
  0
LINE
  5
287
100
AcDbEntity
  8
0
100
AcDbLine
 62
7
  6
CONTINUOUS
 10
12.4053249128
 20
11.0757462532
 11
12.213476987
 21
11.026143405
  0
LINE
  5
288
100
AcDbEntity
  8
0
100
AcDbLine
 62
9
  6
CONTINUOUS
 10
12.5463959473
 20
11.4944232051
 11
12.5464180552
 21
11.4943691244
  0
LINE
  5
289
100
AcDbEntity
  8
0
100
AcDbLine
 62
7
  6
CONTINUOUS
 10
12.0457402822
 20
10.8695625338
 11
11.7068539745
 21
10.8695625338
  0
LINE
  5
28A
100
AcDbEntity
  8
0
100
AcDbLine
 62
9
  6
CONTINUOUS
 10
11.7349276312
 20
10.872346039
 11
12.0176582233
 21
10.872346039
  0
LINE
  5
28B
100
AcDbEntity
  8
0
100
AcDbLine
 62
7
  6
CONTINUOUS
 10
11.6702927773
 20
10.9545625338
 11
10.4758005867
 21
10.9545625338
  0
LINE
  5
28C
100
AcDbEntity
  8
0
100
AcDbLine
 62
9
  6
CONTINUOUS
 10
12.0176579238
 20
11.0949155221
 11
11.734927331
 21
11.0949155221
  0
LINE
  5
28D
100
AcDbEntity
  8
0
100
AcDbLine
 62
9
  6
CONTINUOUS
 10
11.7336950802
 20
11.1091668043
 11
12.0188904744
 21
11.1091668043
  0
LINE
  5
28E
100
AcDbEntity
  8
0
100
AcDbLine
 62
7
  6
CONTINUOUS
 10
12.7917501293
 20
11.7795625338
 11
12.8855695479
 21
11.617062534
  0
LINE
  5
28F
100
AcDbEntity
  8
0
100
AcDbLine
 62
9
  6
CONTINUOUS
 10
12.9115171291
 20
11.6270625338
 11
12.8133849405
 21
11.7970342813
  0
LINE
  5
290
100
AcDbEntity
  8
0
100
AcDbLine
 62
7
  6
CONTINUOUS
 10
12.0822927773
 20
12.7920625338
 11
12.063213715
 21
12.8293248984
  0
LWPOLYLINE
  5
291
100
AcDbEntity
  8
0
100
AcDbPolyline
 62
7
  6
CONTINUOUS
 90
3
 70
0
 10
12.9597886246
 20
12.1563457715
 10
12.9441007985
 20
12.1524223483
 10
12.9375305013
 20
12.1520612716
  0
LINE
  5
292
100
AcDbEntity
  8
0
100
AcDbLine
 62
7
  6
CONTINUOUS
 10
13.0154733586
 20
11.5420625338
 11
13.2031121959
 21
11.5420625338
  0
LINE
  5
293
100
AcDbEntity
  8
0
100
AcDbLine
 62
7
  6
CONTINUOUS
 10
12.9375304509
 20
11.5570625338
 11
12.545649063
 21
11.5570625338
  0
LINE
  5
294
100
AcDbEntity
  8
0
100
AcDbLine
 62
9
  6
CONTINUOUS
 10
13.2074257326
 20
11.5695337982
 11
13.0111598221
 21
11.5695337982
  0
LINE
  5
295
100
AcDbEntity
  8
0
100
AcDbLine
 62
9
  6
CONTINUOUS
 10
8.8501920299
 20
12.0843883411
 11
8.8406129678
 21
12.086504978
  0
LINE
  5
296
100
AcDbEntity
  8
0
100
AcDbLine
 62
9
  6
CONTINUOUS
 10
10.9303935247
 20
11.6247367266
 11
10.9399725869
 21
11.6226200896
  0
LINE
  5
297
100
AcDbEntity
  8
0
100
AcDbLine
 62
9
  6
CONTINUOUS
 10
8.6854406202
 20
12.1265696864
 11
8.6748811013
 21
12.128953601
  0
LINE
  5
298
100
AcDbEntity
  8
0
100
AcDbLine
 62
9
  6
CONTINUOUS
 10
12.739788605
 20
11.7671849114
 11
12.8336080238
 21
11.6319576387
  0
LINE
  5
299
100
AcDbEntity
  8
0
100
AcDbLine
 62
9
  6
CONTINUOUS
 10
12.0188904744
 20
11.6149582633
 11
11.7336950802
 21
11.6149582633
  0
LINE
  5
29A
100
AcDbEntity
  8
0
100
AcDbLine
 62
9
  6
CONTINUOUS
 10
11.7349276307
 20
11.6319930507
 11
12.0176582233
 21
11.6319930507
  0
LINE
  5
29B
100
AcDbEntity
  8
0
100
AcDbLine
 62
9
  6
CONTINUOUS
 10
12.5449064098
 20
11.8545625338
 11
12.5447189889
 21
11.8545625338
  0
LINE
  5
29C
100
AcDbEntity
  8
0
100
AcDbLine
 62
9
  6
CONTINUOUS
 10
12.7116539384
 20
11.8545625747
 11
12.7716539398
 21
11.8545625689
  0
LWPOLYLINE
  5
29D
100
AcDbEntity
  8
0
100
AcDbPolyline
 62
7
  6
CONTINUOUS
 90
3
 70
0
 10
12.9375304473
 20
11.5570639539
 10
12.9441220599
 20
11.5567004915
 10
12.959787107
 20
11.5527796212
  0
LWPOLYLINE
  5
29E
100
AcDbEntity
  8
0
100
AcDbPolyline
 62
7
  6
CONTINUOUS
 90
3
 70
0
 10
12.0632141557
 20
12.8293251447
 10
12.0569856085
 20
12.8361141898
 10
12.0457587209
 20
12.8395625338
  0
LINE
  5
29F
100
AcDbEntity
  8
0
100
AcDbLine
 62
9
  6
CONTINUOUS
 10
13.3070684256
 20
12.0820625338
 11
13.4052006134
 21
11.9120907859
  0
LINE
  5
2A0
100
AcDbEntity
  8
0
100
AcDbLine
 62
7
  6
CONTINUOUS
 10
13.4268354253
 20
11.9295625339
 11
13.3330160067
 21
12.0920625337
  0
LINE
  5
2A1
100
AcDbEntity
  8
0
100
AcDbLine
 62
9
  6
CONTINUOUS
 10
8.6748811013
 20
11.5801714666
 11
8.6854406202
 21
11.5825553813
  0
LINE
  5
2A2
100
AcDbEntity
  8
0
100
AcDbLine
 62
9
  6
CONTINUOUS
 10
10.9399725869
 20
12.086504978
 11
10.9303935247
 21
12.0843883411
  0
LINE
  5
2A3
100
AcDbEntity
  8
0
100
AcDbLine
 62
9
  6
CONTINUOUS
 10
8.8406129678
 20
11.6226200896
 11
8.8501920299
 21
11.6247367266
  0
LINE
  5
2A4
100
AcDbEntity
  8
0
100
AcDbLine
 62
9
  6
CONTINUOUS
 10
12.0176579238
 20
12.0771320169
 11
11.734927331
 21
12.0771320169
  0
LINE
  5
2A5
100
AcDbEntity
  8
0
100
AcDbLine
 62
9
  6
CONTINUOUS
 10
11.7336950802
 20
12.0941668043
 11
12.0188904744
 21
12.0941668043
  0
LINE
  5
2A6
100
AcDbEntity
  8
0
100
AcDbLine
 62
9
  6
CONTINUOUS
 10
13.0111598221
 20
12.1395912694
 11
13.2074257326
 21
12.1395912694
  0
LINE
  5
2A7
100
AcDbEntity
  8
0
100
AcDbLine
 62
7
  6
CONTINUOUS
 10
12.9375305052
 20
12.1520625338
 11
12.5456486815
 21
12.1520625338
  0
LINE
  5
2A8
100
AcDbEntity
  8
0
100
AcDbLine
 62
7
  6
CONTINUOUS
 10
13.203112196
 20
12.1670625338
 11
13.0154733587
 21
12.1670625338
  0
LINE
  5
2A9
100
AcDbEntity
  8
0
100
AcDbLine
 62
9
  6
CONTINUOUS
 10
12.0188904744
 20
12.5999582633
 11
11.7336950802
 21
12.5999582633
  0
LINE
  5
2AA
100
AcDbEntity
  8
0
100
AcDbLine
 62
9
  6
CONTINUOUS
 10
11.7349276307
 20
12.6142095455
 11
12.0176582233
 21
12.6142095455
  0
LINE
  5
2AB
100
AcDbEntity
  8
0
100
AcDbLine
 62
7
  6
CONTINUOUS
 10
11.6702927773
 20
12.7545625338
 11
10.4758005867
 21
12.7545625338
  0
LINE
  5
2AC
100
AcDbEntity
  8
0
100
AcDbLine
 62
9
  6
CONTINUOUS
 10
12.0176579234
 20
12.8367790287
 11
11.7349273314
 21
12.8367790287
  0
LINE
  5
2AD
100
AcDbEntity
  8
0
100
AcDbLine
 62
7
  6
CONTINUOUS
 10
11.7068539745
 20
12.8395625338
 11
12.0457402822
 21
12.8395625338
  0
LINE
  5
2AE
100
AcDbEntity
  8
0
100
AcDbLine
 62
7
  6
CONTINUOUS
 10
10.1901550997
 20
12.8833025338
 11
9.5904304549
 21
12.8833025338
  0
LINE
  5
2AF
100
AcDbEntity
  8
0
100
AcDbLine
 62
7
  6
CONTINUOUS
 10
10.2366080687
 20
13.0479455402
 11
9.543977486
 21
13.0479455402
  0
LINE
  5
2B0
100
AcDbEntity
  8
0
100
AcDbLine
 62
7
  6
CONTINUOUS
 10
12.4053249128
 20
12.6333788144
 11
12.213476987
 21
12.6829816626
  0
ARC
  5
2B1
100
AcDbEntity
  8
0
100
AcDbCircle
 62
9
  6
CONTINUOUS
 10
-34.4175266912
 20
-13.7265690013
 40
49.9813756412
100
AcDbArc
 50
29.6029154394
 51
30.3970846314
  0
ARC
  5
2B2
100
AcDbEntity
  8
0
100
AcDbCircle
 62
9
  6
CONTINUOUS
 10
-32.2153423941
 20
-12.4551372424
 40
47.6019336293
100
AcDbArc
 50
29.6389893845
 51
30.3610106049
  0
ARC
  5
2B3
100
AcDbEntity
  8
0
100
AcDbCircle
 62
7
  6
CONTINUOUS
 10
-10.2922283351
 20
-8.9134958328
 40
24.1494418684
100
AcDbArc
 50
30.490408758
 51
30.7579006873
  0
ARC
  5
2B4
100
AcDbEntity
  8
0
100
AcDbCircle
 62
9
  6
CONTINUOUS
 10
8.6847915055
 20
3.827226582
 40
2.076100181
100
AcDbArc
 50
328.0079184433
 51
330.1679315154
  0
ARC
  5
2B5
100
AcDbEntity
  8
0
100
AcDbCircle
 62
9
  6
CONTINUOUS
 10
8.6041269313
 20
2.1410862668
 40
0.6607583209
100
AcDbArc
 50
33.1180885185
 51
33.5342407346
  0
ARC
  5
2B6
100
AcDbEntity
  8
0
100
AcDbCircle
 62
7
  6
CONTINUOUS
 10
8.9187286745
 20
11.6398809227
 40
0.08
100
AcDbArc
 50
192.4601428903
 51
210.0
  0
ARC
  5
2B7
100
AcDbEntity
  8
0
100
AcDbCircle
 62
7
  6
CONTINUOUS
 10
8.9187286745
 20
12.069244145
 40
0.08
100
AcDbArc
 50
150.0
 51
167.5398571094
  0
ARC
  5
2B8
100
AcDbEntity
  8
0
100
AcDbCircle
 62
7
  6
CONTINUOUS
 10
8.7529171639
 20
12.111336197
 40
0.08
100
AcDbArc
 50
150.0
 51
167.2781889381
  0
ARC
  5
2B9
100
AcDbEntity
  8
0
100
AcDbCircle
 62
7
  6
CONTINUOUS
 10
8.7529171639
 20
11.5977888706
 40
0.08
100
AcDbArc
 50
192.721811062
 51
210.0
  0
ARC
  5
2BA
100
AcDbEntity
  8
0
100
AcDbCircle
 62
9
  6
CONTINUOUS
 10
8.9082278693
 20
12.0715874389
 40
0.0594229167
100
AcDbArc
 50
149.6709261028
 51
167.5218750147
  0
ARC
  5
2BB
100
AcDbEntity
  8
0
100
AcDbCircle
 62
9
  6
CONTINUOUS
 10
8.9080220853
 20
11.6375292287
 40
0.0592280627
100
AcDbArc
 50
192.4734493342
 51
210.3256618358
  0
ARC
  5
2BC
100
AcDbEntity
  8
0
100
AcDbCircle
 62
9
  6
CONTINUOUS
 10
8.7431789942
 20
12.1135505793
 40
0.0591814791
100
AcDbArc
 50
149.6345861701
 51
167.2620916057
  0
ARC
  5
2BD
100
AcDbEntity
  8
0
100
AcDbCircle
 62
9
  6
CONTINUOUS
 10
8.7429483683
 20
11.5955494224
 40
0.0589575458
100
AcDbArc
 50
192.7323379663
 51
210.3617226943
  0
ARC
  5
2BE
100
AcDbEntity
  8
0
100
AcDbCircle
 62
7
  6
CONTINUOUS
 10
9.5083571524
 20
2.6599984364
 40
0.407562917
100
AcDbArc
 50
151.9290264095
 51
163.5040312414
  0
ARC
  5
2BF
100
AcDbEntity
  8
0
100
AcDbCircle
 62
7
  6
CONTINUOUS
 10
9.4866811531
 20
2.6664510901
 40
0.384946892
100
AcDbArc
 50
163.5088248767
 51
171.0713471609
  0
ARC
  5
2C0
100
AcDbEntity
  8
0
100
AcDbCircle
 62
7
  6
CONTINUOUS
 10
9.4730745883
 20
2.6684181022
 40
0.3711999558
100
AcDbArc
 50
171.0453197745
 51
177.7996602486
  0
ARC
  5
2C1
100
AcDbEntity
  8
0
100
AcDbCircle
 62
7
  6
CONTINUOUS
 10
9.4648658635
 20
2.6688169579
 40
0.3629819794
100
AcDbArc
 50
177.8128244144
 51
178.3803896038
  0
ARC
  5
2C2
100
AcDbEntity
  8
0
100
AcDbCircle
 62
7
  6
CONTINUOUS
 10
9.4617608923
 20
2.6688958189
 40
0.3598760198
100
AcDbArc
 50
178.3789680806
 51
179.9345533759
  0
ARC
  5
2C3
100
AcDbEntity
  8
0
100
AcDbCircle
 62
7
  6
CONTINUOUS
 10
9.4802022641
 20
2.6051239196
 40
0.3541998403
100
AcDbArc
 50
198.4351069937
 51
200.2852436288
  0
ARC
  5
2C4
100
AcDbEntity
  8
0
100
AcDbCircle
 62
7
  6
CONTINUOUS
 10
9.4517565242
 20
2.6686657161
 40
0.3498720044
100
AcDbArc
 50
179.8949998709
 51
188.3056977234
  0
ARC
  5
2C5
100
AcDbEntity
  8
0
100
AcDbCircle
 62
7
  6
CONTINUOUS
 10
9.4750634159
 20
2.6036862757
 40
0.3488609305
100
AcDbArc
 50
190.4111517326
 51
194.0333597754
  0
ARC
  5
2C6
100
AcDbEntity
  8
0
100
AcDbCircle
 62
7
  6
CONTINUOUS
 10
9.4734186042
 20
2.6033626223
 40
0.3471847116
100
AcDbArc
 50
188.7057483963
 51
190.4076712501
  0
ARC
  5
2C7
100
AcDbEntity
  8
0
100
AcDbCircle
 62
7
  6
CONTINUOUS
 10
9.5334249933
 20
3.0895623886
 40
0.3468389845
100
AcDbArc
 50
168.9691776062
 51
180.0702807249
  0
ARC
  5
2C8
100
AcDbEntity
  8
0
100
AcDbCircle
 62
7
  6
CONTINUOUS
 10
9.4376912335
 20
2.6665332164
 40
0.3356461982
100
AcDbArc
 50
188.2923253881
 51
194.2346524713
  0
ARC
  5
2C9
100
AcDbEntity
  8
0
100
AcDbCircle
 62
7
  6
CONTINUOUS
 10
9.5172070614
 20
3.092870753
 40
0.3302877075
100
AcDbArc
 50
159.7380890914
 51
168.9941835304
  0
ARC
  5
2CA
100
AcDbEntity
  8
0
100
AcDbCircle
 62
7
  6
CONTINUOUS
 10
9.4293935534
 20
2.6644385351
 40
0.3270882147
100
AcDbArc
 50
194.2364004913
 51
200.2920787553
  0
ARC
  5
2CB
100
AcDbEntity
  8
0
100
AcDbCircle
 62
9
  6
CONTINUOUS
 10
9.4286660644
 20
2.6695828562
 40
0.3190202337
100
AcDbArc
 50
195.0257602372
 51
201.3345876473
  0
ARC
  5
2CC
100
AcDbEntity
  8
0
100
AcDbCircle
 62
7
  6
CONTINUOUS
 10
9.5044204518
 20
3.0975859569
 40
0.3166594094
100
AcDbArc
 50
153.4531281861
 51
159.7372326556
  0
ARC
  5
2CD
100
AcDbEntity
  8
0
100
AcDbCircle
 62
7
  6
CONTINUOUS
 10
9.4191954162
 20
2.6602954271
 40
0.3160853151
100
AcDbArc
 50
200.3939113564
 51
210.1317636691
  0
ARC
  5
2CE
100
AcDbEntity
  8
0
100
AcDbCircle
 62
9
  6
CONTINUOUS
 10
9.4129792892
 20
2.656546284
 40
0.3088208025
100
AcDbArc
 50
211.1674807597
 51
211.6042706821
  0
ARC
  5
2CF
100
AcDbEntity
  8
0
100
AcDbCircle
 62
9
  6
CONTINUOUS
 10
9.4204257042
 20
2.6609438899
 40
0.3073655061
100
AcDbArc
 50
209.8303992688
 51
210.2475628476
  0
ARC
  5
2D0
100
AcDbEntity
  8
0
100
AcDbCircle
 62
7
  6
CONTINUOUS
 10
9.4107165028
 20
2.6555274001
 40
0.3063586551
100
AcDbArc
 50
210.1565614823
 51
211.2250786284
  0
ARC
  5
2D1
100
AcDbEntity
  8
0
100
AcDbCircle
 62
7
  6
CONTINUOUS
 10
9.2185909969
 20
11.120504145
 40
0.08
100
AcDbArc
 50
210.0
 51
227.5398571106
  0
ARC
  5
2D2
100
AcDbEntity
  8
0
100
AcDbCircle
 62
7
  6
CONTINUOUS
 10
9.2185909969
 20
12.5886209227
 40
0.08
100
AcDbArc
 50
132.4601428909
 51
150.0
  0
ARC
  5
2D3
100
AcDbEntity
  8
0
100
AcDbCircle
 62
7
  6
CONTINUOUS
 10
9.0992324553
 20
12.7111718771
 40
0.08
100
AcDbArc
 50
132.7218110626
 51
150.0
  0
ARC
  5
2D4
100
AcDbEntity
  8
0
100
AcDbCircle
 62
7
  6
CONTINUOUS
 10
9.0992324553
 20
10.9979531906
 40
0.08
100
AcDbArc
 50
210.0
 51
227.2781889373
  0
ARC
  5
2D5
100
AcDbEntity
  8
0
100
AcDbCircle
 62
9
  6
CONTINUOUS
 10
9.2113112423
 20
11.112581828
 40
0.0594229168
100
AcDbArc
 50
209.670926109
 51
227.5218750977
  0
ARC
  5
2D6
100
AcDbEntity
  8
0
100
AcDbCircle
 62
9
  6
CONTINUOUS
 10
9.2112010758
 20
12.5967172538
 40
0.059228063
100
AcDbArc
 50
132.4734493489
 51
150.3256618606
  0
ARC
  5
2D7
100
AcDbEntity
  8
0
100
AcDbCircle
 62
9
  6
CONTINUOUS
 10
9.0924456594
 20
10.9906268796
 40
0.0591814794
100
AcDbArc
 50
209.6345862061
 51
227.2620915843
  0
ARC
  5
2D8
100
AcDbEntity
  8
0
100
AcDbCircle
 62
9
  6
CONTINUOUS
 10
9.0923196381
 20
12.7186743455
 40
0.0589731174
100
AcDbArc
 50
132.7329109009
 51
150.3619375468
  0
ARC
  5
2D9
100
AcDbEntity
  8
0
100
AcDbCircle
 62
7
  6
CONTINUOUS
 10
-65.711553208
 20
48.007073979
 40
88.8932653209
100
AcDbArc
 50
328.9050320996
 51
329.1493082063
  0
ARC
  5
2DA
100
AcDbEntity
  8
0
100
AcDbCircle
 62
9
  6
CONTINUOUS
 10
-34.4171843874
 20
37.4354963804
 40
49.9809803634
100
AcDbArc
 50
329.602912288
 51
330.3970877612
  0
ARC
  5
2DB
100
AcDbEntity
  8
0
100
AcDbCircle
 62
9
  6
CONTINUOUS
 10
-32.2133907325
 20
36.1631355815
 40
47.5996801207
100
AcDbArc
 50
329.6389712038
 51
330.3610287441
  0
ARC
  5
2DC
100
AcDbEntity
  8
0
100
AcDbCircle
 62
7
  6
CONTINUOUS
 10
26.7098836812
 20
-6.9227507475
 40
20.2414672
100
AcDbArc
 50
149.2164190418
 51
149.5354122501
  0
ARC
  5
2DD
100
AcDbEntity
  8
0
100
AcDbCircle
 62
9
  6
CONTINUOUS
 10
9.6979042851
 20
2.3129146528
 40
0.395169491
100
AcDbArc
 50
257.9726456165
 51
269.6155800489
  0
ARC
  5
2DE
100
AcDbEntity
  8
0
100
AcDbCircle
 62
9
  6
CONTINUOUS
 10
9.6966469292
 20
2.3070496252
 40
0.3891712051
100
AcDbArc
 50
252.4166216612
 51
257.9737657304
  0
ARC
  5
2DF
100
AcDbEntity
  8
0
100
AcDbCircle
 62
9
  6
CONTINUOUS
 10
9.6959933221
 20
2.3052769671
 40
0.387283928
100
AcDbArc
 50
243.917526851
 51
252.4295756969
  0
ARC
  5
2E0
100
AcDbEntity
  8
0
100
AcDbCircle
 62
9
  6
CONTINUOUS
 10
9.6926591123
 20
2.2985431707
 40
0.3797699553
100
AcDbArc
 50
238.0200782854
 51
243.922663977
  0
ARC
  5
2E1
100
AcDbEntity
  8
0
100
AcDbCircle
 62
9
  6
CONTINUOUS
 10
9.6897031474
 20
2.2940431858
 40
0.3743873926
100
AcDbArc
 50
229.9004407156
 51
238.039063957
  0
ARC
  5
2E2
100
AcDbEntity
  8
0
100
AcDbCircle
 62
9
  6
CONTINUOUS
 10
9.6840474497
 20
2.3483501454
 40
0.3725270931
100
AcDbArc
 50
211.6301064631
 51
212.0095834695
  0
ARC
  5
2E3
100
AcDbEntity
  8
0
100
AcDbCircle
 62
9
  6
CONTINUOUS
 10
9.6786028223
 20
2.3353567289
 40
0.3712751895
100
AcDbArc
 50
210.3968389825
 51
210.7949687091
  0
ARC
  5
2E4
100
AcDbEntity
  8
0
100
AcDbCircle
 62
9
  6
CONTINUOUS
 10
9.6838089836
 20
2.2871087589
 40
0.3652865336
100
AcDbArc
 50
223.6281333312
 51
229.9070306427
  0
ARC
  5
2E5
100
AcDbEntity
  8
0
100
AcDbCircle
 62
9
  6
CONTINUOUS
 10
9.6785707524
 20
2.2826184327
 40
0.3583969
100
AcDbArc
 50
211.1129826717
 51
223.686325168
  0
ARC
  5
2E6
100
AcDbEntity
  8
0
100
AcDbCircle
 62
9
  6
CONTINUOUS
 10
9.669536495
 20
2.3140029777
 40
0.3464000508
100
AcDbArc
 50
271.6236373489
 51
272.0438459089
  0
ARC
  5
2E7
100
AcDbEntity
  8
0
100
AcDbCircle
 62
9
  6
CONTINUOUS
 10
9.6729453456
 20
2.3241459843
 40
0.3441868021
100
AcDbArc
 50
270.494991092
 51
270.8980617504
  0
ARC
  5
2E8
100
AcDbEntity
  8
0
100
AcDbCircle
 62
9
  6
CONTINUOUS
 10
9.9432925025
 20
2.6794817849
 40
0.7046781923
100
AcDbArc
 50
345.9199637322
 51
350.6031154545
  0
ARC
  5
2E9
100
AcDbEntity
  8
0
100
AcDbCircle
 62
9
  6
CONTINUOUS
 10
9.8372930521
 20
2.6794817849
 40
0.7046781923
100
AcDbArc
 50
189.3968845455
 51
194.0800362678
  0
ARC
  5
2EA
100
AcDbEntity
  8
0
100
AcDbCircle
 62
9
  6
CONTINUOUS
 10
9.9461360249
 20
2.6790010562
 40
0.7017943374
100
AcDbArc
 50
350.6039326369
 51
14.0896622805
  0
ARC
  5
2EB
100
AcDbEntity
  8
0
100
AcDbCircle
 62
9
  6
CONTINUOUS
 10
9.8344495297
 20
2.6790010562
 40
0.7017943374
100
AcDbArc
 50
165.9103377195
 51
189.396067363
  0
ARC
  5
2EC
100
AcDbEntity
  8
0
100
AcDbCircle
 62
9
  6
CONTINUOUS
 10
9.5402900492
 20
2.6541661008
 40
0.4332323682
100
AcDbArc
 50
152.817424722
 51
153.1435501757
  0
ARC
  5
2ED
100
AcDbEntity
  8
0
100
AcDbCircle
 62
9
  6
CONTINUOUS
 10
10.0827123895
 20
2.3125823028
 40
0.3948369408
100
AcDbArc
 50
270.3802277305
 51
282.3717819294
  0
ARC
  5
2EE
100
AcDbEntity
  8
0
100
AcDbCircle
 62
9
  6
CONTINUOUS
 10
10.0838960578
 20
2.3073218791
 40
0.3894450701
100
AcDbArc
 50
282.3674988245
 51
287.9604295694
  0
ARC
  5
2EF
100
AcDbEntity
  8
0
100
AcDbCircle
 62
9
  6
CONTINUOUS
 10
10.0844247708
 20
2.305693032
 40
0.3877325632
100
AcDbArc
 50
287.9603294874
 51
296.1517303684
  0
ARC
  5
2F0
100
AcDbEntity
  8
0
100
AcDbCircle
 62
9
  6
CONTINUOUS
 10
10.0875151647
 20
2.2992257007
 40
0.3805652098
100
AcDbArc
 50
296.1632394552
 51
302.057342936
  0
ARC
  5
2F1
100
AcDbEntity
  8
0
100
AcDbCircle
 62
9
  6
CONTINUOUS
 10
10.0900001365
 20
2.2952403025
 40
0.3758685731
100
AcDbArc
 50
302.0587551249
 51
310.4798044379
  0
ARC
  5
2F2
100
AcDbEntity
  8
0
100
AcDbCircle
 62
9
  6
CONTINUOUS
 10
10.096537994
 20
2.3483502142
 40
0.3725272238
100
AcDbArc
 50
327.9904166022
 51
328.3698934755
  0
ARC
  5
2F3
100
AcDbEntity
  8
0
100
AcDbCircle
 62
9
  6
CONTINUOUS
 10
10.1019827676
 20
2.3353567079
 40
0.3712751485
100
AcDbArc
 50
329.2050312801
 51
329.6031610491
  0
ARC
  5
2F4
100
AcDbEntity
  8
0
100
AcDbCircle
 62
9
  6
CONTINUOUS
 10
10.0963635547
 20
2.2875876266
 40
0.3659166998
100
AcDbArc
 50
310.499804037
 51
316.733228226
  0
ARC
  5
2F5
100
AcDbEntity
  8
0
100
AcDbCircle
 62
9
  6
CONTINUOUS
 10
10.1002248128
 20
2.2839838411
 40
0.3606350259
100
AcDbArc
 50
316.7296818746
 51
328.8482426972
  0
ARC
  5
2F6
100
AcDbEntity
  8
0
100
AcDbCircle
 62
9
  6
CONTINUOUS
 10
10.1110490512
 20
2.3140027144
 40
0.3463997873
100
AcDbArc
 50
267.9561539388
 51
268.3763628172
  0
ARC
  5
2F7
100
AcDbEntity
  8
0
100
AcDbCircle
 62
9
  6
CONTINUOUS
 10
10.1076402089
 20
2.3241459776
 40
0.3441867955
100
AcDbArc
 50
269.1019382474
 51
269.5050089134
  0
ARC
  5
2F8
100
AcDbEntity
  8
0
100
AcDbCircle
 62
9
  6
CONTINUOUS
 10
10.240295574
 20
2.6541661357
 40
0.4332322913
100
AcDbArc
 50
26.8564497991
 51
27.1825753105
  0
ARC
  5
2F9
100
AcDbEntity
  8
0
100
AcDbCircle
 62
7
  6
CONTINUOUS
 10
10.2632731323
 20
2.6557325735
 40
0.4174723451
100
AcDbArc
 50
25.8214422396
 51
28.0092154462
  0
ARC
  5
2FA
100
AcDbEntity
  8
0
100
AcDbCircle
 62
7
  6
CONTINUOUS
 10
10.2696482837
 20
2.6587127734
 40
0.4104356464
100
AcDbArc
 50
21.2711424817
 51
25.8345878102
  0
ARC
  5
2FB
100
AcDbEntity
  8
0
100
AcDbCircle
 62
7
  6
CONTINUOUS
 10
10.2756365584
 20
2.6610811801
 40
0.4039961149
100
AcDbArc
 50
19.734375389
 51
21.2662327271
  0
ARC
  5
2FC
100
AcDbEntity
  8
0
100
AcDbCircle
 62
7
  6
CONTINUOUS
 10
10.2800371291
 20
2.6626274469
 40
0.3993318866
100
AcDbArc
 50
16.8894198282
 51
19.7387436496
  0
ARC
  5
2FD
100
AcDbEntity
  8
0
100
AcDbCircle
 62
9
  6
CONTINUOUS
 10
10.2748901007
 20
2.6651832143
 40
0.3974343665
100
AcDbArc
 50
20.937065986
 51
27.6925623444
  0
ARC
  5
2FE
100
AcDbEntity
  8
0
100
AcDbCircle
 62
7
  6
CONTINUOUS
 10
10.2946344231
 20
2.6666214282
 40
0.3842040892
100
AcDbArc
 50
7.3066931063
 51
16.9519309777
  0
ARC
  5
2FF
100
AcDbEntity
  8
0
100
AcDbCircle
 62
7
  6
CONTINUOUS
 10
10.3077544701
 20
2.6684199793
 40
0.3709618597
100
AcDbArc
 50
4.0254110959
 51
7.2888798027
  0
ARC
  5
300
100
AcDbEntity
  8
0
100
AcDbCircle
 62
7
  6
CONTINUOUS
 10
10.3125541328
 20
2.6687606767
 40
0.3661501212
100
AcDbArc
 50
2.0666075375
 51
4.0249532432
  0
ARC
  5
301
100
AcDbEntity
  8
0
100
AcDbCircle
 62
7
  6
CONTINUOUS
 10
10.3003982917
 20
2.6051132359
 40
0.354182064
100
AcDbArc
 50
339.7147663787
 51
341.5657646946
  0
ARC
  5
302
100
AcDbEntity
  8
0
100
AcDbCircle
 62
7
  6
CONTINUOUS
 10
10.3442513186
 20
2.6661653701
 40
0.3342396269
100
AcDbArc
 50
345.7329901733
 51
347.7525663594
  0
ARC
  5
303
100
AcDbEntity
  8
0
100
AcDbCircle
 62
7
  6
CONTINUOUS
 10
10.3514249284
 20
2.6642368341
 40
0.3268120123
100
AcDbArc
 50
339.7266793643
 51
345.7507294754
  0
ARC
  5
304
100
AcDbEntity
  8
0
100
AcDbCircle
 62
7
  6
CONTINUOUS
 10
10.3574739484
 20
2.6620114343
 40
0.3203666121
100
AcDbArc
 50
336.8836393155
 51
339.6928998851
  0
ARC
  5
305
100
AcDbEntity
  8
0
100
AcDbCircle
 62
9
  6
CONTINUOUS
 10
10.3512698616
 20
2.6698308429
 40
0.3197035185
100
AcDbArc
 50
337.1798517134
 51
344.8892276819
  0
ARC
  5
306
100
AcDbEntity
  8
0
100
AcDbCircle
 62
7
  6
CONTINUOUS
 10
10.3627750904
 20
2.6596456178
 40
0.3145622971
100
AcDbArc
 50
330.2118586031
 51
336.9008768636
  0
ARC
  5
307
100
AcDbEntity
  8
0
100
AcDbCircle
 62
7
  6
CONTINUOUS
 10
10.3669932842
 20
2.6572733014
 40
0.3097229093
100
AcDbArc
 50
328.7745174108
 51
330.2050663721
  0
ARC
  5
308
100
AcDbEntity
  8
0
100
AcDbCircle
 62
9
  6
CONTINUOUS
 10
10.3676062337
 20
2.6565463033
 40
0.3088208396
100
AcDbArc
 50
328.3957293514
 51
328.8325192213
  0
ARC
  5
309
100
AcDbEntity
  8
0
100
AcDbCircle
 62
9
  6
CONTINUOUS
 10
10.3601598622
 20
2.6609438831
 40
0.3073654925
100
AcDbArc
 50
329.7524371351
 51
330.169600732
  0
ARC
  5
30A
100
AcDbEntity
  8
0
100
AcDbCircle
 62
9
  6
CONTINUOUS
 10
10.3679408362
 20
2.6629756739
 40
0.3016787629
100
AcDbArc
 50
329.0996815405
 51
337.1519190885
  0
ARC
  5
30B
100
AcDbEntity
  8
0
100
AcDbCircle
 62
9
  6
CONTINUOUS
 10
9.8902739648
 20
3.2479857319
 40
0.5895861852
100
AcDbArc
 50
269.6507512806
 51
270.20113529
  0
ARC
  5
30C
100
AcDbEntity
  8
0
100
AcDbCircle
 62
9
  6
CONTINUOUS
 10
9.8902927773
 20
3.2421182729
 40
0.5893831411
100
AcDbArc
 50
269.7158687299
 51
270.2841312701
  0
ARC
  5
30D
100
AcDbEntity
  8
0
100
AcDbCircle
 62
9
  6
CONTINUOUS
 10
9.9320152713
 20
3.2950665253
 40
0.5282775155
100
AcDbArc
 50
352.3953369569
 51
359.989161062
  0
ARC
  5
30E
100
AcDbEntity
  8
0
100
AcDbCircle
 62
9
  6
CONTINUOUS
 10
9.9328845747
 20
3.2066854676
 40
0.5274082026
100
AcDbArc
 50
359.2449613794
 51
359.9999946781
  0
ARC
  5
30F
100
AcDbEntity
  8
0
100
AcDbCircle
 62
7
  6
CONTINUOUS
 10
9.8477009799
 20
3.2066853696
 40
0.5274082026
100
AcDbArc
 50
179.2449613797
 51
179.9999946781
  0
ARC
  5
310
100
AcDbEntity
  8
0
100
AcDbCircle
 62
7
  6
CONTINUOUS
 10
9.846633942
 20
3.2244894551
 40
0.5263380417
100
AcDbArc
 50
181.3204368562
 51
182.5213171784
  0
ARC
  5
311
100
AcDbEntity
  8
0
100
AcDbCircle
 62
7
  6
CONTINUOUS
 10
9.9343001813
 20
3.2244683312
 40
0.525989512
100
AcDbArc
 50
357.3424622765
 51
358.6787094596
  0
ARC
  5
312
100
AcDbEntity
  8
0
100
AcDbCircle
 62
7
  6
CONTINUOUS
 10
9.9348513327
 20
3.2066825303
 40
0.5254414446
100
AcDbArc
 50
0.0003149587
 51
0.9794381483
  0
ARC
  5
313
100
AcDbEntity
  8
0
100
AcDbCircle
 62
7
  6
CONTINUOUS
 10
9.845704082
 20
3.2244699389
 40
0.5254079789
100
AcDbArc
 50
180.0015918495
 51
181.3206458689
  0
ARC
  5
314
100
AcDbEntity
  8
0
100
AcDbCircle
 62
7
  6
CONTINUOUS
 10
9.9353210556
 20
3.2244460676
 40
0.5249683958
100
AcDbArc
 50
358.6785694893
 51
0.0010121202
  0
ARC
  5
315
100
AcDbEntity
  8
0
100
AcDbCircle
 62
9
  6
CONTINUOUS
 10
10.031640594
 20
2.8818268313
 40
0.4334370525
100
AcDbArc
 50
293.4076334881
 51
302.7300705669
  0
ARC
  5
316
100
AcDbEntity
  8
0
100
AcDbCircle
 62
9
  6
CONTINUOUS
 10
10.1757373714
 20
3.1025824141
 40
0.420072137
100
AcDbArc
 50
331.7930098035
 51
340.0125752985
  0
ARC
  5
317
100
AcDbEntity
  8
0
100
AcDbCircle
 62
9
  6
CONTINUOUS
 10
10.0400360908
 20
2.8680775134
 40
0.4173316254
100
AcDbArc
 50
302.7810723934
 51
304.6494564892
  0
ARC
  5
318
100
AcDbEntity
  8
0
100
AcDbCircle
 62
9
  6
CONTINUOUS
 10
9.6014912432
 20
3.1011195768
 40
0.4164225319
100
AcDbArc
 50
199.8985620291
 51
208.2479324955
  0
ARC
  5
319
100
AcDbEntity
  8
0
100
AcDbCircle
 62
9
  6
CONTINUOUS
 10
9.7392384044
 20
2.8661952098
 40
0.4150361069
100
AcDbArc
 50
235.1767493663
 51
235.7411671117
  0
ARC
  5
31A
100
AcDbEntity
  8
0
100
AcDbCircle
 62
9
  6
CONTINUOUS
 10
10.0437568452
 20
2.8627460332
 40
0.4108302561
100
AcDbArc
 50
304.6453243686
 51
312.0793603505
  0
ARC
  5
31B
100
AcDbEntity
  8
0
100
AcDbCircle
 62
9
  6
CONTINUOUS
 10
9.7352379235
 20
2.8607785184
 40
0.4083050329
100
AcDbArc
 50
227.7536441512
 51
235.2035349175
  0
ARC
  5
31C
100
AcDbEntity
  8
0
100
AcDbCircle
 62
9
  6
CONTINUOUS
 10
10.0526281442
 20
2.8526265947
 40
0.3973742992
100
AcDbArc
 50
312.1077944102
 51
315.6093588637
  0
ARC
  5
31D
100
AcDbEntity
  8
0
100
AcDbCircle
 62
9
  6
CONTINUOUS
 10
9.7267011699
 20
2.8513579794
 40
0.3955919487
100
AcDbArc
 50
224.3456550215
 51
227.7515890195
  0
ARC
  5
31E
100
AcDbEntity
  8
0
100
AcDbCircle
 62
9
  6
CONTINUOUS
 10
9.7186029055
 20
2.8441670564
 40
0.3847745874
100
AcDbArc
 50
214.2931143401
 51
224.4228010414
  0
ARC
  5
31F
100
AcDbEntity
  8
0
100
AcDbCircle
 62
9
  6
CONTINUOUS
 10
10.1766925723
 20
3.1531010407
 40
0.3811037704
100
AcDbArc
 50
19.667058913
 51
28.8828529894
  0
ARC
  5
320
100
AcDbEntity
  8
0
100
AcDbCircle
 62
9
  6
CONTINUOUS
 10
9.6025127654
 20
3.1537212423
 40
0.37959513
100
AcDbArc
 50
151.0984808965
 51
161.2218936768
  0
ARC
  5
321
100
AcDbEntity
  8
0
100
AcDbCircle
 62
9
  6
CONTINUOUS
 10
10.1817801896
 20
3.1550669194
 40
0.3756513449
100
AcDbArc
 50
18.7501186703
 51
19.6458672554
  0
ARC
  5
322
100
AcDbEntity
  8
0
100
AcDbCircle
 62
9
  6
CONTINUOUS
 10
10.1878140538
 20
3.157029
 40
0.3693070161
100
AcDbArc
 50
10.5877055245
 51
18.7627756314
  0
ARC
  5
323
100
AcDbEntity
  8
0
100
AcDbCircle
 62
9
  6
CONTINUOUS
 10
9.5896428635
 20
3.157853631
 40
0.3660801032
100
AcDbArc
 50
161.185827009
 51
169.9356205863
  0
ARC
  5
324
100
AcDbEntity
  8
0
100
AcDbCircle
 62
9
  6
CONTINUOUS
 10
9.5518647977
 20
3.0892518987
 40
0.365278546
100
AcDbArc
 50
180.0180309749
 51
189.6216487179
  0
ARC
  5
325
100
AcDbEntity
  8
0
100
AcDbCircle
 62
7
  6
CONTINUOUS
 10
10.2438533762
 20
3.0892737041
 40
0.3501459354
100
AcDbArc
 50
359.9776216599
 51
10.2814954441
  0
ARC
  5
326
100
AcDbEntity
  8
0
100
AcDbCircle
 62
7
  6
CONTINUOUS
 10
9.5511129895
 20
3.1568181935
 40
0.3394779077
100
AcDbArc
 50
179.0379125322
 51
179.9823615717
  0
ARC
  5
327
100
AcDbEntity
  8
0
100
AcDbCircle
 62
7
  6
CONTINUOUS
 10
10.2315736372
 20
3.1569184177
 40
0.3373768196
100
AcDbArc
 50
0.0007274781
 51
0.9513108727
  0
ARC
  5
328
100
AcDbEntity
  8
0
100
AcDbCircle
 62
9
  6
CONTINUOUS
 10
10.2225487844
 20
3.1614189108
 40
0.3342139698
100
AcDbArc
 50
359.4155695102
 51
359.9998578779
  0
ARC
  5
329
100
AcDbEntity
  8
0
100
AcDbCircle
 62
9
  6
CONTINUOUS
 10
9.5579219669
 20
3.1614217183
 40
0.3340998229
100
AcDbArc
 50
180.0006365092
 51
180.5753533667
  0
ARC
  5
32A
100
AcDbEntity
  8
0
100
AcDbCircle
 62
7
  6
CONTINUOUS
 10
10.2600719862
 20
3.0919386763
 40
0.3337122072
100
AcDbArc
 50
10.3282969476
 51
20.2148144722
  0
ARC
  5
32B
100
AcDbEntity
  8
0
100
AcDbCircle
 62
9
  6
CONTINUOUS
 10
11.21916246
 20
2.1153311983
 40
0.7105855309
100
AcDbArc
 50
146.6369259916
 51
147.0240543732
  0
ARC
  5
32C
100
AcDbEntity
  8
0
100
AcDbCircle
 62
7
  6
CONTINUOUS
 10
10.6813530993
 20
10.9979531906
 40
0.08
100
AcDbArc
 50
312.7218110626
 51
327.1047860447
  0
ARC
  5
32D
100
AcDbEntity
  8
0
100
AcDbCircle
 62
7
  6
CONTINUOUS
 10
10.8618568801
 20
11.6398809227
 40
0.08
100
AcDbArc
 50
330.0
 51
347.5398571098
  0
ARC
  5
32E
100
AcDbEntity
  8
0
100
AcDbCircle
 62
7
  6
CONTINUOUS
 10
10.5619945577
 20
11.120504145
 40
0.08
100
AcDbArc
 50
312.4601428906
 51
330.0
  0
ARC
  5
32F
100
AcDbEntity
  8
0
100
AcDbCircle
 62
9
  6
CONTINUOUS
 10
10.8723576853
 20
11.6375376287
 40
0.0594229167
100
AcDbArc
 50
329.670926103
 51
347.5218750007
  0
ARC
  5
330
100
AcDbEntity
  8
0
100
AcDbCircle
 62
9
  6
CONTINUOUS
 10
10.5693844788
 20
11.1124078139
 40
0.059228063
100
AcDbArc
 50
312.4734492539
 51
330.3256618611
  0
ARC
  5
331
100
AcDbEntity
  8
0
100
AcDbCircle
 62
9
  6
CONTINUOUS
 10
10.6882769163
 20
10.9904396843
 40
0.0589575456
100
AcDbArc
 50
312.7323379361
 51
318.5114318772
  0
ARC
  5
332
100
AcDbEntity
  8
0
100
AcDbCircle
 62
7
  6
CONTINUOUS
 10
9.8411772467
 20
11.8545447247
 40
2.7291170629
100
AcDbArc
 50
7.5833518211
 51
15.0350291984
  0
ARC
  5
333
100
AcDbEntity
  8
0
100
AcDbCircle
 62
7
  6
CONTINUOUS
 10
9.8902927773
 20
11.8545625338
 40
1.246
100
AcDbArc
 50
107.278188937
 51
132.721811063
  0
ARC
  5
334
100
AcDbEntity
  8
0
100
AcDbCircle
 62
7
  6
CONTINUOUS
 10
9.8902927773
 20
11.8545625338
 40
1.246
100
AcDbArc
 50
47.278188937
 51
72.721811063
  0
ARC
  5
335
100
AcDbEntity
  8
0
100
AcDbCircle
 62
7
  6
CONTINUOUS
 10
9.8902927773
 20
11.8545625338
 40
1.246
100
AcDbArc
 50
297.2739066256
 51
312.721811063
  0
ARC
  5
336
100
AcDbEntity
  8
0
100
AcDbCircle
 62
7
  6
CONTINUOUS
 10
9.8902927773
 20
11.8545625338
 40
1.246
100
AcDbArc
 50
227.278188937
 51
242.7260933744
  0
ARC
  5
337
100
AcDbEntity
  8
0
100
AcDbCircle
 62
7
  6
CONTINUOUS
 10
9.8902927773
 20
11.8545625338
 40
1.246
100
AcDbArc
 50
167.2781889371
 51
192.7218110629
  0
ARC
  5
338
100
AcDbEntity
  8
0
100
AcDbCircle
 62
9
  6
CONTINUOUS
 10
9.8902927773
 20
11.8545625338
 40
1.2351747292
100
AcDbArc
 50
47.278188937
 51
72.7218110631
  0
ARC
  5
339
100
AcDbEntity
  8
0
100
AcDbCircle
 62
9
  6
CONTINUOUS
 10
9.8902927773
 20
11.8545625338
 40
1.2351747292
100
AcDbArc
 50
107.2781889369
 51
132.721811063
  0
ARC
  5
33A
100
AcDbEntity
  8
0
100
AcDbCircle
 62
9
  6
CONTINUOUS
 10
9.8902927773
 20
11.8545625338
 40
1.2351747292
100
AcDbArc
 50
227.278188937
 51
242.4605987339
  0
ARC
  5
33B
100
AcDbEntity
  8
0
100
AcDbCircle
 62
9
  6
CONTINUOUS
 10
9.8902927773
 20
11.8545625338
 40
1.2351747292
100
AcDbArc
 50
297.5394012661
 51
312.721811063
  0
ARC
  5
33C
100
AcDbEntity
  8
0
100
AcDbCircle
 62
9
  6
CONTINUOUS
 10
9.8902927773
 20
11.8545625338
 40
1.2351747292
100
AcDbArc
 50
167.2781889377
 51
192.7218110623
  0
ARC
  5
33D
100
AcDbEntity
  8
0
100
AcDbCircle
 62
7
  6
CONTINUOUS
 10
9.8902927773
 20
11.8545625338
 40
1.1065
100
AcDbArc
 50
301.0635981141
 51
305.148430071
  0
ARC
  5
33E
100
AcDbEntity
  8
0
100
AcDbCircle
 62
7
  6
CONTINUOUS
 10
9.8902927773
 20
11.8545625338
 40
1.1065
100
AcDbArc
 50
54.8602538389
 51
238.924701067
  0
ARC
  5
33F
100
AcDbEntity
  8
0
100
AcDbCircle
 62
7
  6
CONTINUOUS
 10
9.8902927773
 20
11.8545625338
 40
1.075
100
AcDbArc
 50
227.5398571098
 51
237.9111250335
  0
ARC
  5
340
100
AcDbEntity
  8
0
100
AcDbCircle
 62
7
  6
CONTINUOUS
 10
9.8902927773
 20
11.8545625338
 40
1.075
100
AcDbArc
 50
167.5398571097
 51
192.4601428903
  0
ARC
  5
341
100
AcDbEntity
  8
0
100
AcDbCircle
 62
7
  6
CONTINUOUS
 10
9.8902927773
 20
11.8545625338
 40
1.075
100
AcDbArc
 50
107.53985711
 51
132.4601428904
  0
ARC
  5
342
100
AcDbEntity
  8
0
100
AcDbCircle
 62
7
  6
CONTINUOUS
 10
9.8902927773
 20
11.8545625338
 40
1.075
100
AcDbArc
 50
47.5398571096
 51
72.4601428902
  0
ARC
  5
343
100
AcDbEntity
  8
0
100
AcDbCircle
 62
7
  6
CONTINUOUS
 10
9.8902927773
 20
11.8545625338
 40
1.075
100
AcDbArc
 50
347.5398571097
 51
12.4601428903
  0
ARC
  5
344
100
AcDbEntity
  8
0
100
AcDbCircle
 62
7
  6
CONTINUOUS
 10
9.8902927773
 20
11.8545625338
 40
1.075
100
AcDbArc
 50
302.0888749665
 51
312.4601428903
  0
ARC
  5
345
100
AcDbEntity
  8
0
100
AcDbCircle
 62
9
  6
CONTINUOUS
 10
9.8902927773
 20
11.8545625338
 40
1.0651898734
100
AcDbArc
 50
47.5398571093
 51
72.4601428902
  0
ARC
  5
346
100
AcDbEntity
  8
0
100
AcDbCircle
 62
9
  6
CONTINUOUS
 10
9.8902927773
 20
11.8545625338
 40
1.0651898734
100
AcDbArc
 50
347.5398571094
 51
12.4601428903
  0
ARC
  5
347
100
AcDbEntity
  8
0
100
AcDbCircle
 62
9
  6
CONTINUOUS
 10
9.8902927773
 20
11.8545625338
 40
1.0651898734
100
AcDbArc
 50
227.5398571095
 51
237.5877649578
  0
ARC
  5
348
100
AcDbEntity
  8
0
100
AcDbCircle
 62
9
  6
CONTINUOUS
 10
9.8902927773
 20
11.8545625338
 40
1.0651898734
100
AcDbArc
 50
107.5398571099
 51
132.4601428904
  0
ARC
  5
349
100
AcDbEntity
  8
0
100
AcDbCircle
 62
9
  6
CONTINUOUS
 10
9.8902927773
 20
11.8545625338
 40
1.0651898734
100
AcDbArc
 50
167.5398571094
 51
192.4601428903
  0
ARC
  5
34A
100
AcDbEntity
  8
0
100
AcDbCircle
 62
9
  6
CONTINUOUS
 10
9.8902927773
 20
11.8545625338
 40
1.0651898734
100
AcDbArc
 50
302.4122350422
 51
312.4601428904
  0
ARC
  5
34B
100
AcDbEntity
  8
0
100
AcDbCircle
 62
7
  6
CONTINUOUS
 10
9.8902927773
 20
11.8545625338
 40
1.0365
100
AcDbArc
 50
204.3546932157
 51
212.7933795562
  0
ARC
  5
34C
100
AcDbEntity
  8
0
100
AcDbCircle
 62
7
  6
CONTINUOUS
 10
9.8902927773
 20
11.8545625338
 40
1.0365
100
AcDbArc
 50
147.0475367392
 51
155.7177088773
  0
ARC
  5
34D
100
AcDbEntity
  8
0
100
AcDbCircle
 62
7
  6
CONTINUOUS
 10
9.8902927773
 20
11.8545625338
 40
1.0365
100
AcDbArc
 50
86.2017176696
 51
93.8691127608
  0
ARC
  5
34E
100
AcDbEntity
  8
0
100
AcDbCircle
 62
7
  6
CONTINUOUS
 10
9.8902927773
 20
11.8545625338
 40
0.9423115417
100
AcDbArc
 50
307.3292339977
 51
232.6920369247
  0
ARC
  5
34F
100
AcDbEntity
  8
0
100
AcDbCircle
 62
7
  6
CONTINUOUS
 10
9.8902927773
 20
11.8545625338
 40
0.8715
100
AcDbArc
 50
311.0359808702
 51
228.9476088983
  0
ARC
  5
350
100
AcDbEntity
  8
0
100
AcDbCircle
 62
7
  6
CONTINUOUS
 10
9.8902927773
 20
11.8545625338
 40
0.721
100
AcDbArc
 50
322.6961857582
 51
217.2818602193
  0
ARC
  5
351
100
AcDbEntity
  8
0
100
AcDbCircle
 62
7
  6
CONTINUOUS
 10
9.8902927773
 20
11.8545625338
 40
0.57
100
AcDbArc
 50
0.0
 51
180.0
  0
ARC
  5
352
100
AcDbEntity
  8
0
100
AcDbCircle
 62
7
  6
CONTINUOUS
 10
9.5904304549
 20
12.8033025338
 40
0.08
100
AcDbArc
 50
90.0
 51
107.5398571135
  0
ARC
  5
353
100
AcDbEntity
  8
0
100
AcDbCircle
 62
7
  6
CONTINUOUS
 10
10.1901550997
 20
12.8033025338
 40
0.08
100
AcDbArc
 50
72.4601428883
 51
90.0
  0
ARC
  5
354
100
AcDbEntity
  8
0
100
AcDbCircle
 62
7
  6
CONTINUOUS
 10
9.543977486
 20
12.9679455402
 40
0.08
100
AcDbArc
 50
90.0
 51
107.278188937
  0
ARC
  5
355
100
AcDbEntity
  8
0
100
AcDbCircle
 62
9
  6
CONTINUOUS
 10
9.5872094044
 20
12.8135681448
 40
0.0594229167
100
AcDbArc
 50
89.6709261205
 51
107.5218750423
  0
ARC
  5
356
100
AcDbEntity
  8
0
100
AcDbCircle
 62
9
  6
CONTINUOUS
 10
10.1934717648
 20
12.8137505478
 40
0.0592280743
100
AcDbArc
 50
72.4734499099
 51
90.3256621096
  0
ARC
  5
357
100
AcDbEntity
  8
0
100
AcDbCircle
 62
9
  6
CONTINUOUS
 10
9.5410261077
 20
12.9774863821
 40
0.0591813298
100
AcDbArc
 50
89.6345807485
 51
107.2620878349
  0
ARC
  5
358
100
AcDbEntity
  8
0
100
AcDbCircle
 62
7
  6
CONTINUOUS
 10
10.8618568801
 20
12.069244145
 40
0.08
100
AcDbArc
 50
12.4601428902
 51
30.0
  0
ARC
  5
359
100
AcDbEntity
  8
0
100
AcDbCircle
 62
9
  6
CONTINUOUS
 10
10.8725634694
 20
12.0715958389
 40
0.0592280627
100
AcDbArc
 50
12.4734493337
 51
30.3256618356
  0
ARC
  5
35A
100
AcDbEntity
  8
0
100
AcDbCircle
 62
7
  6
CONTINUOUS
 10
10.5619945577
 20
12.5886209227
 40
0.08
100
AcDbArc
 50
30.0
 51
47.5398571089
  0
ARC
  5
35B
100
AcDbEntity
  8
0
100
AcDbCircle
 62
7
  6
CONTINUOUS
 10
10.2366080687
 20
12.9679455402
 40
0.08
100
AcDbArc
 50
72.7218110631
 51
90.0
  0
ARC
  5
35C
100
AcDbEntity
  8
0
100
AcDbCircle
 62
7
  6
CONTINUOUS
 10
10.6813530993
 20
12.7111718771
 40
0.08
100
AcDbArc
 50
35.7792025688
 51
47.2781889373
  0
ARC
  5
35D
100
AcDbEntity
  8
0
100
AcDbCircle
 62
9
  6
CONTINUOUS
 10
10.5692743123
 20
12.5965432396
 40
0.0594229168
100
AcDbArc
 50
29.6709261081
 51
47.5218750021
  0
ARC
  5
35E
100
AcDbEntity
  8
0
100
AcDbCircle
 62
9
  6
CONTINUOUS
 10
10.6880544577
 20
12.7184684089
 40
0.0592678088
100
AcDbArc
 50
37.5640359485
 51
47.2520304123
  0
ARC
  5
35F
100
AcDbEntity
  8
0
100
AcDbCircle
 62
9
  6
CONTINUOUS
 10
10.2396530474
 20
12.9776984945
 40
0.0589575459
100
AcDbArc
 50
72.7323379832
 51
90.3617227048
  0
ARC
  5
360
100
AcDbEntity
  8
0
100
AcDbCircle
 62
9
  6
CONTINUOUS
 10
11.8163602902
 20
9.8741821912
 40
2.9578906771
100
AcDbArc
 50
91.9208195814
 51
92.1612514042
  0
ARC
  5
361
100
AcDbEntity
  8
0
100
AcDbCircle
 62
7
  6
CONTINUOUS
 10
12.2635412579
 20
10.8325108438
 40
0.2
100
AcDbArc
 50
104.4965291015
 51
154.9911371271
  0
ARC
  5
362
100
AcDbEntity
  8
0
100
AcDbCircle
 62
9
  6
CONTINUOUS
 10
12.9882060397
 20
11.7416857898
 40
0.1897061987
100
AcDbArc
 50
224.1398431622
 51
230.1651150558
  0
ARC
  5
363
100
AcDbEntity
  8
0
100
AcDbCircle
 62
7
  6
CONTINUOUS
 10
13.2031121961
 20
11.6920625338
 40
0.15
100
AcDbArc
 50
269.9999999541
 51
330.0
  0
ARC
  5
364
100
AcDbEntity
  8
0
100
AcDbCircle
 62
7
  6
CONTINUOUS
 10
13.0154733586
 20
11.6920625338
 40
0.15
100
AcDbArc
 50
209.9999999684
 51
270.0
  0
ARC
  5
365
100
AcDbEntity
  8
0
100
AcDbCircle
 62
9
  6
CONTINUOUS
 10
13.0112250869
 20
11.6847039815
 40
0.1151719097
100
AcDbArc
 50
210.0322308192
 51
269.9676270133
  0
ARC
  5
366
100
AcDbEntity
  8
0
100
AcDbCircle
 62
9
  6
CONTINUOUS
 10
13.2073607508
 20
11.6847041448
 40
0.1151718978
100
AcDbArc
 50
270.0322323732
 51
329.9676281055
  0
ARC
  5
367
100
AcDbEntity
  8
0
100
AcDbCircle
 62
7
  6
CONTINUOUS
 10
12.3802927773
 20
11.1725625338
 40
0.1
100
AcDbArc
 50
284.4965291015
 51
344.9648228554
  0
ARC
  5
368
100
AcDbEntity
  8
0
100
AcDbCircle
 62
9
  6
CONTINUOUS
 10
12.5265629997
 20
11.4970630406
 40
0.0200078621
100
AcDbArc
 50
352.4182934553
 51
359.9985486892
  0
ARC
  5
369
100
AcDbEntity
  8
0
100
AcDbCircle
 62
7
  6
CONTINUOUS
 10
12.5266001718
 20
11.4970625338
 40
0.02
100
AcDbArc
 50
352.4167602239
 51
6.2668442714
  0
ARC
  5
36A
100
AcDbEntity
  8
0
100
AcDbCircle
 62
7
  6
CONTINUOUS
 10
12.3802927773
 20
12.5365625338
 40
0.1
100
AcDbArc
 50
15.0351771446
 51
75.5034708985
  0
ARC
  5
36B
100
AcDbEntity
  8
0
100
AcDbCircle
 62
9
  6
CONTINUOUS
 10
12.5265622585
 20
12.2120619779
 40
0.0200086032
100
AcDbArc
 50
0.0015919073
 51
7.5815659512
  0
ARC
  5
36C
100
AcDbEntity
  8
0
100
AcDbCircle
 62
7
  6
CONTINUOUS
 10
12.5266001718
 20
12.2120625338
 40
0.02
100
AcDbArc
 50
352.4608566532
 51
0.0712141118
  0
ARC
  5
36D
100
AcDbEntity
  8
0
100
AcDbCircle
 62
9
  6
CONTINUOUS
 10
11.9408062685
 20
13.6898383671
 40
2.8127141685
100
AcDbArc
 50
271.9266298622
 51
272.1411296925
  0
ARC
  5
36E
100
AcDbEntity
  8
0
100
AcDbCircle
 62
7
  6
CONTINUOUS
 10
12.2635412579
 20
12.8766142238
 40
0.2
100
AcDbArc
 50
205.0088628729
 51
255.5034708985
  0
ARC
  5
36F
100
AcDbEntity
  8
0
100
AcDbCircle
 62
7
  6
CONTINUOUS
 10
12.9216539398
 20
11.8545625338
 40
0.15
100
AcDbArc
 50
149.9999999504
 51
210.0
  0
ARC
  5
370
100
AcDbEntity
  8
0
100
AcDbCircle
 62
9
  6
CONTINUOUS
 10
12.9134081123
 20
11.8546254557
 40
0.1154407475
100
AcDbArc
 50
160.0066323112
 51
199.9950625511
  0
ARC
  5
371
100
AcDbEntity
  8
0
100
AcDbCircle
 62
9
  6
CONTINUOUS
 10
12.9124476841
 20
11.8548075232
 40
0.114432795
100
AcDbArc
 50
149.9612461385
 51
159.9853320833
  0
ARC
  5
372
100
AcDbEntity
  8
0
100
AcDbCircle
 62
9
  6
CONTINUOUS
 10
12.9120868576
 20
11.8541517358
 40
0.1140371521
100
AcDbArc
 50
199.9983905039
 51
210.0573816965
  0
ARC
  5
373
100
AcDbEntity
  8
0
100
AcDbCircle
 62
9
  6
CONTINUOUS
 10
12.9892799245
 20
11.9662881696
 40
0.1912780094
100
AcDbArc
 50
129.8882730289
 51
135.9761077277
  0
ARC
  5
374
100
AcDbEntity
  8
0
100
AcDbCircle
 62
7
  6
CONTINUOUS
 10
13.0154733586
 20
12.0170625338
 40
0.15
100
AcDbArc
 50
89.9999999538
 51
150.0
  0
ARC
  5
375
100
AcDbEntity
  8
0
100
AcDbCircle
 62
9
  6
CONTINUOUS
 10
13.0112248037
 20
12.0244209229
 40
0.1151718977
100
AcDbArc
 50
90.032232334
 51
149.9676281438
  0
ARC
  5
376
100
AcDbEntity
  8
0
100
AcDbCircle
 62
7
  6
CONTINUOUS
 10
13.2969316148
 20
11.8545625338
 40
0.15
100
AcDbArc
 50
329.9999999356
 51
30.0
  0
ARC
  5
377
100
AcDbEntity
  8
0
100
AcDbCircle
 62
9
  6
CONTINUOUS
 10
13.3051774519
 20
11.8544996058
 40
0.1154407404
100
AcDbArc
 50
340.0066200459
 51
19.9950667745
  0
ARC
  5
378
100
AcDbEntity
  8
0
100
AcDbCircle
 62
9
  6
CONTINUOUS
 10
13.3061376725
 20
11.8543176433
 40
0.1144330125
100
AcDbArc
 50
329.9612529591
 51
339.9853199948
  0
ARC
  5
379
100
AcDbEntity
  8
0
100
AcDbCircle
 62
9
  6
CONTINUOUS
 10
13.3064986225
 20
11.8549732927
 40
0.1140372353
100
AcDbArc
 50
19.9983958952
 51
30.0573799359
  0
ARC
  5
37A
100
AcDbEntity
  8
0
100
AcDbCircle
 62
7
  6
CONTINUOUS
 10
13.2031121961
 20
12.0170625338
 40
0.15
100
AcDbArc
 50
29.9999999535
 51
90.0
  0
ARC
  5
37B
100
AcDbEntity
  8
0
100
AcDbCircle
 62
9
  6
CONTINUOUS
 10
13.2073604678
 20
12.0244210862
 40
0.1151719096
100
AcDbArc
 50
30.0322307915
 51
89.9676270371
  0
ARC
  5
37C
100
AcDbEntity
  8
0
100
AcDbCircle
 62
9
  6
CONTINUOUS
 10
17.4291349668
 20
12.1312474234
 40
4.8837045978
100
AcDbArc
 50
179.2607799693
 51
179.5900184745
  0
ARC
  5
37D
100
AcDbEntity
  8
0
100
AcDbCircle
 62
9
  6
CONTINUOUS
 10
51.9939762857
 20
-12.4540105131
 40
47.5996801191
100
AcDbArc
 50
149.6389712038
 51
150.3610287441
  0
ARC
  5
37E
100
AcDbEntity
  8
0
100
AcDbCircle
 62
9
  6
CONTINUOUS
 10
35.6406249731
 20
-12.2670293796
 40
29.3998316415
100
AcDbArc
 50
148.7348700189
 51
149.3196223037
  0
ARC
  5
37F
100
AcDbEntity
  8
0
100
AcDbCircle
 62
7
  6
CONTINUOUS
 10
84.7787749373
 20
47.5789020138
 40
88.0612701301
100
AcDbArc
 50
210.8495378406
 51
211.0961218537
  0
ARC
  5
380
100
AcDbEntity
  8
0
100
AcDbCircle
 62
9
  6
CONTINUOUS
 10
9.8902369549
 20
63.0422498638
 40
50.0067949546
100
AcDbArc
 50
269.6003174797
 51
270.3998104353
  0
ARC
  5
381
100
AcDbEntity
  8
0
100
AcDbCircle
 62
9
  6
CONTINUOUS
 10
51.9959279485
 20
36.1642623099
 40
47.6019336289
100
AcDbArc
 50
209.6389893845
 51
210.3610106049
  0
ARC
  5
382
100
AcDbEntity
  8
0
100
AcDbCircle
 62
9
  6
CONTINUOUS
 10
9.8902926295
 20
60.4697986086
 40
47.5977701971
100
AcDbArc
 50
269.6389568959
 51
270.3610434156
  0
ARC
  5
383
100
AcDbEntity
  8
0
100
AcDbCircle
 62
9
  6
CONTINUOUS
 10
9.8902927773
 20
28.7022602513
 40
26.7852163035
100
AcDbArc
 50
269.5827901068
 51
270.4172098932
  0
SPLINE
  5
384
100
AcDbEntity
  8
0
100
AcDbSpline
 62
7
  6
CONTINUOUS
 70
0
 71
3
 72
9
 73
5
 74
0
 42
0.0000001
 43
0.0000001
 44
0.0000000001
 40
0.0
 40
0.0
 40
0.0
 40
0.0
 40
0.5025417044
 40
1.0
 40
1.0
 40
1.0
 40
1.0
 10
10.5469368389
 20
3.2784009909
 30
0.0
 10
10.5538121773
 20
3.2598030649
 30
0.0
 10
10.564493299
 20
3.221608124
 30
0.0
 10
10.5685782316
 20
3.1821446162
 30
0.0
 10
10.5689039544
 20
3.1625197987
 30
0.0
  0
SPLINE
  5
385
100
AcDbEntity
  8
0
100
AcDbSpline
 62
7
  6
CONTINUOUS
 70
0
 71
3
 72
20
 73
16
 74
0
 42
0.0000001
 43
0.0000001
 44
0.0000000001
 40
0.0
 40
0.0
 40
0.0
 40
0.0
 40
0.1271681935
 40
0.1907900141
 40
0.2542456035
 40
0.317520148
 40
0.3806078796
 40
0.4434983087
 40
0.5061679697
 40
0.5686026406
 40
0.6308072925
 40
0.6927912537
 40
0.7545748256
 40
0.8774994821
 40
1.0
 40
1.0
 40
1.0
 40
1.0
 10
9.8902927773
 20
2.6761694101
 30
0.0
 10
9.9264632849
 20
2.6761694101
 30
0.0
 10
9.9808997281
 20
2.6811975894
 30
0.0
 10
10.0513895745
 20
2.6976490603
 30
0.0
 10
10.1028269415
 20
2.7148154264
 30
0.0
 10
10.1523121636
 20
2.7365941346
 30
0.0
 10
10.1994137613
 20
2.7628160833
 30
0.0
 10
10.2437073802
 20
2.7932398036
 30
0.0
 10
10.284809745
 20
2.8275670033
 30
0.0
 10
10.3223126652
 20
2.8655227899
 30
0.0
 10
10.3558886604
 20
2.9067395726
 30
0.0
 10
10.385245921
 20
2.9508455182
 30
0.0
 10
10.4182909772
 20
3.0128502141
 30
0.0
 10
10.4479328936
 20
3.0956713577
 30
0.0
 10
10.4581082144
 20
3.1652678972
 30
0.0
 10
10.4597237141
 20
3.2000733039
 30
0.0
  0
SPLINE
  5
386
100
AcDbEntity
  8
0
100
AcDbSpline
 62
7
  6
CONTINUOUS
 70
0
 71
3
 72
9
 73
5
 74
0
 42
0.0000001
 43
0.0000001
 44
0.0000000001
 40
0.0
 40
0.0
 40
0.0
 40
0.0
 40
0.4974541447
 40
1.0
 40
1.0
 40
1.0
 40
1.0
 10
9.2116829399
 20
3.1625183008
 30
0.0
 10
9.2120123826
 20
3.1821428965
 30
0.0
 10
9.2160885109
 20
3.221607026
 30
0.0
 10
9.2267745794
 20
3.2598010475
 30
0.0
 10
9.2336485806
 20
3.2783996468
 30
0.0
  0
SPLINE
  5
387
100
AcDbEntity
  8
0
100
AcDbSpline
 62
7
  6
CONTINUOUS
 70
0
 71
3
 72
9
 73
5
 74
0
 42
0.0000001
 43
0.0000001
 44
0.0000000001
 40
0.0
 40
0.0
 40
0.0
 40
0.0
 40
0.4964091645
 40
1.0
 40
1.0
 40
1.0
 40
1.0
 10
10.6708838553
 20
2.5952618144
 30
0.0
 10
10.6739453202
 20
2.6093628683
 30
0.0
 10
10.6782843997
 20
2.638194104
 30
0.0
 10
10.6789934616
 20
2.6673357042
 30
0.0
 10
10.6784661027
 20
2.6819645208
 30
0.0
  0
SPLINE
  5
388
100
AcDbEntity
  8
0
100
AcDbSpline
 62
7
  6
CONTINUOUS
 70
0
 71
3
 72
20
 73
16
 74
0
 42
0.0000001
 43
0.0000001
 44
0.0000000001
 40
0.0
 40
0.0
 40
0.0
 40
0.0
 40
0.1224967323
 40
0.2454154566
 40
0.3071963218
 40
0.3691788823
 40
0.4313829974
 40
0.4938180616
 40
0.5564889256
 40
0.6193808128
 40
0.6824704978
 40
0.7457478809
 40
0.8092064646
 40
0.872830608
 40
1.0
 40
1.0
 40
1.0
 40
1.0
 10
9.3208056577
 20
3.201329543
 30
0.0
 10
9.3223406088
 20
3.1664703185
 30
0.0
 10
9.3323734776
 20
3.0967499002
 30
0.0
 10
9.3618985823
 20
3.0137515331
 30
0.0
 10
9.3948857658
 20
2.951601976
 30
0.0
 10
9.42421838
 20
2.9073874942
 30
0.0
 10
9.457784936
 20
2.8660625515
 30
0.0
 10
9.4952976385
 20
2.8280053734
 30
0.0
 10
9.5364240161
 20
2.7935825833
 30
0.0
 10
9.5807551225
 20
2.7630711753
 30
0.0
 10
9.6279076694
 20
2.7367736779
 30
0.0
 10
9.6774540449
 20
2.7149306876
 30
0.0
 10
9.7289610216
 20
2.6977129881
 30
0.0
 10
9.7995508511
 20
2.681212795
 30
0.0
 10
9.8540687753
 20
2.6761694101
 30
0.0
 10
9.8902927773
 20
2.6761694101
 30
0.0
  0
SPLINE
  5
389
100
AcDbEntity
  8
0
100
AcDbSpline
 62
9
  6
CONTINUOUS
 70
0
 71
3
 72
17
 73
13
 74
0
 42
0.0000001
 43
0.0000001
 44
0.0000000001
 40
0.0
 40
0.0
 40
0.0
 40
0.0
 40
0.1770308667
 40
0.353250635
 40
0.5193727748
 40
0.6663554277
 40
0.7871579898
 40
0.8809929958
 40
0.9183611658
 40
0.9499251956
 40
0.9766025469
 40
1.0
 40
1.0
 40
1.0
 40
1.0
 10
12.7397886461
 20
11.7671848522
 30
0.0
 10
12.7426919065
 20
11.7687164556
 30
0.0
 10
12.748562423
 20
11.7716278987
 30
0.0
 10
12.7573849573
 20
11.7754982176
 30
0.0
 10
12.7658791628
 20
11.778698668
 30
0.0
 10
12.7735937504
 20
11.7810234468
 30
0.0
 10
12.7801971231
 20
11.7822575233
 30
0.0
 10
12.784900562
 20
11.7824376131
 30
0.0
 10
12.7878938491
 20
11.7819839904
 30
0.0
 10
12.7895903046
 20
11.7814340905
 30
0.0
 10
12.7909059374
 20
11.7806527905
 30
0.0
 10
12.7915332538
 20
11.7799381731
 30
0.0
 10
12.7917501704
 20
11.7795624626
 30
0.0
  0
SPLINE
  5
38A
100
AcDbEntity
  8
0
100
AcDbSpline
 62
9
  6
CONTINUOUS
 70
0
 71
3
 72
13
 73
9
 74
0
 42
0.0000001
 43
0.0000001
 44
0.0000000001
 40
0.0
 40
0.0
 40
0.0
 40
0.0
 40
0.0627698819
 40
0.1446325298
 40
0.2469175962
 40
0.3684363908
 40
0.6602091923
 40
1.0
 40
1.0
 40
1.0
 40
1.0
 10
10.5689504567
 20
3.1569227015
 30
0.0
 10
10.568853867
 20
3.1571840872
 30
0.0
 10
10.5684575464
 20
3.15771596
 30
0.0
 10
10.5675834373
 20
3.1583830882
 30
0.0
 10
10.5663864924
 20
3.1590322785
 30
0.0
 10
10.5642664922
 20
3.1599017463
 30
0.0
 10
10.5610328361
 20
3.1607925631
 30
0.0
 10
10.5582613145
 20
3.161246898
 30
0.0
 10
10.5567625908
 20
3.1614181006
 30
0.0
  0
SPLINE
  5
38B
100
AcDbEntity
  8
0
100
AcDbSpline
 62
9
  6
CONTINUOUS
 70
0
 71
3
 72
16
 73
12
 74
0
 42
0.0000001
 43
0.0000001
 44
0.0000000001
 40
0.0
 40
0.0
 40
0.0
 40
0.0
 40
0.0295004045
 40
0.0539829146
 40
0.0859890556
 40
0.1257723251
 40
0.1734339462
 40
0.2924814159
 40
0.4418602828
 40
0.6149492293
 40
1.0
 40
1.0
 40
1.0
 40
1.0
 10
12.8855695582
 20
11.6170625162
 30
0.0
 10
12.8857082692
 20
11.6168222563
 30
0.0
 10
12.8863015317
 20
11.6166803594
 30
0.0
 10
12.8870803589
 20
11.6167060783
 30
0.0
 10
12.8879887919
 20
11.6168339818
 30
0.0
 10
12.8890810768
 20
11.6170830049
 30
0.0
 10
12.8909505583
 20
11.6176172794
 30
0.0
 10
12.8937492693
 20
11.6186239306
 30
0.0
 10
12.8975797558
 20
11.6202294562
 30
0.0
 10
12.9036277953
 20
11.623004395
 30
0.0
 10
12.9083156269
 20
11.6253706104
 30
0.0
 10
12.9115171369
 20
11.6270625202
 30
0.0
  0
SPLINE
  5
38C
100
AcDbEntity
  8
0
100
AcDbSpline
 62
9
  6
CONTINUOUS
 70
0
 71
3
 72
18
 73
14
 74
0
 42
0.0000001
 43
0.0000001
 44
0.0000000001
 40
0.0
 40
0.0
 40
0.0
 40
0.0
 40
0.0129164233
 40
0.0275766201
 40
0.0486229906
 40
0.077484046
 40
0.1144653002
 40
0.1595228726
 40
0.2730882727
 40
0.416250631
 40
0.5867255547
 40
0.7821208254
 40
1.0
 40
1.0
 40
1.0
 40
1.0
 10
10.5176864614
 20
3.3397889804
 30
0.0
 10
10.5176868757
 20
3.3398231873
 30
0.0
 10
10.5176617956
 20
3.3399010235
 30
0.0
 10
10.5175364043
 20
3.3399578577
 30
0.0
 10
10.5173660725
 20
3.3399704721
 30
0.0
 10
10.5171356752
 20
3.3399502622
 30
0.0
 10
10.5168471027
 20
3.3398950567
 30
0.0
 10
10.5163451555
 20
3.3397655477
 30
0.0
 10
10.5155863845
 20
3.3395120958
 30
0.0
 10
10.5145316982
 20
3.3391018794
 30
0.0
 10
10.5132929291
 20
3.3385692435
 30
0.0
 10
10.5118892182
 20
3.3379209149
 30
0.0
 10
10.5109058667
 20
3.3374399767
 30
0.0
 10
10.5103898665
 20
3.3371816384
 30
0.0
  0
SPLINE
  5
38D
100
AcDbEntity
  8
0
100
AcDbSpline
 62
9
  6
CONTINUOUS
 70
0
 71
3
 72
16
 73
12
 74
0
 42
0.0000001
 43
0.0000001
 44
0.0000000001
 40
0.0
 40
0.0
 40
0.0
 40
0.0
 40
0.3850507618
 40
0.5581397007
 40
0.7075185515
 40
0.8265660259
 40
0.8742276613
 40
0.9140109467
 40
0.9460171001
 40
0.9704996148
 40
1.0
 40
1.0
 40
1.0
 40
1.0
 10
13.0111598221
 20
11.5695337982
 30
0.0
 10
13.0112953407
 20
11.5659152543
 30
0.0
 10
13.0115900546
 20
11.5606723653
 30
0.0
 10
13.0122109077
 20
11.5540471401
 30
0.0
 10
13.0127357258
 20
11.5499270788
 30
0.0
 10
13.0132632965
 20
11.5469999984
 30
0.0
 10
13.0137353424
 20
11.5451138423
 30
0.0
 10
13.0140658246
 20
11.5440433839
 30
0.0
 10
13.0144092737
 20
11.5431927058
 30
0.0
 10
13.0147764138
 20
11.5425053623
 30
0.0
 10
13.0151959321
 20
11.5420625303
 30
0.0
 10
13.0154733586
 20
11.5420625338
 30
0.0
  0
SPLINE
  5
38E
100
AcDbEntity
  8
0
100
AcDbSpline
 62
9
  6
CONTINUOUS
 70
0
 71
3
 72
9
 73
5
 74
0
 42
0.0000001
 43
0.0000001
 44
0.0000000001
 40
0.0
 40
0.0
 40
0.0
 40
0.0
 40
0.2508505304
 40
1.0
 40
1.0
 40
1.0
 40
1.0
 10
9.2701956864
 20
3.3371816353
 30
0.0
 10
9.2743267093
 20
3.3446218944
 30
0.0
 10
9.2908280576
 20
3.3742633372
 30
0.0
 10
9.3075313211
 20
3.4037939167
 30
0.0
 10
9.3202795262
 20
3.4257804694
 30
0.0
  0
SPLINE
  5
38F
100
AcDbEntity
  8
0
100
AcDbSpline
 62
9
  6
CONTINUOUS
 70
0
 71
3
 72
9
 73
5
 74
0
 42
0.0000001
 43
0.0000001
 44
0.0000000001
 40
0.0
 40
0.0
 40
0.0
 40
0.0
 40
0.2487900926
 40
1.0
 40
1.0
 40
1.0
 40
1.0
 10
10.460304691
 20
3.4257640529
 30
0.0
 10
10.4645189202
 20
3.4184524996
 30
0.0
 10
10.4813549403
 20
3.3890046846
 30
0.0
 10
10.4979068271
 20
3.3593960413
 30
0.0
 10
10.5103898682
 20
3.3371816353
 30
0.0
  0
SPLINE
  5
390
100
AcDbEntity
  8
0
100
AcDbSpline
 62
9
  6
CONTINUOUS
 70
0
 71
3
 72
9
 73
5
 74
0
 42
0.0000001
 43
0.0000001
 44
0.0000000001
 40
0.0
 40
0.0
 40
0.0
 40
0.0
 40
0.2511190348
 40
1.0
 40
1.0
 40
1.0
 40
1.0
 10
10.5508335435
 20
3.2248856295
 30
0.0
 10
10.5518106243
 20
3.2196358081
 30
0.0
 10
10.5552361386
 20
3.198646818
 30
0.0
 10
10.5567632604
 20
3.1773427422
 30
0.0
 10
10.5567634106
 20
3.1614180068
 30
0.0
  0
SPLINE
  5
391
100
AcDbEntity
  8
0
100
AcDbSpline
 62
9
  6
CONTINUOUS
 70
0
 71
3
 72
9
 73
5
 74
0
 42
0.0000001
 43
0.0000001
 44
0.0000000001
 40
0.0
 40
0.0
 40
0.0
 40
0.0
 40
0.2492465608
 40
1.0
 40
1.0
 40
1.0
 40
1.0
 10
9.2238228004
 20
3.1614180818
 30
0.0
 10
9.2238228043
 20
3.1664605356
 30
0.0
 10
9.2242805564
 20
3.1866893361
 30
0.0
 10
9.2265465036
 20
3.2068723691
 30
0.0
 10
9.2291959956
 20
3.221827824
 30
0.0
  0
SPLINE
  5
392
100
AcDbEntity
  8
0
100
AcDbSpline
 62
9
  6
CONTINUOUS
 70
0
 71
3
 72
18
 73
14
 74
0
 42
0.0000001
 43
0.0000001
 44
0.0000000001
 40
0.0
 40
0.0
 40
0.0
 40
0.0
 40
0.0130781644
 40
0.0279480902
 40
0.0493255098
 40
0.0786190154
 40
0.1160979883
 40
0.161679541
 40
0.2762124101
 40
0.419966316
 40
0.5903337417
 40
0.7845985628
 40
1.0
 40
1.0
 40
1.0
 40
1.0
 10
9.262899092
 20
3.3397889784
 30
0.0
 10
9.2628986725
 20
3.3398236161
 30
0.0
 10
9.2629243493
 20
3.3399025481
 30
0.0
 10
9.263052083
 20
3.3399592276
 30
0.0
 10
9.2632249768
 20
3.3399711073
 30
0.0
 10
9.263458666
 20
3.3399496329
 30
0.0
 10
9.2637508449
 20
3.3398927627
 30
0.0
 10
9.2642575954
 20
3.3397606286
 30
0.0
 10
9.2650211938
 20
3.3395040944
 30
0.0
 10
9.2660790748
 20
3.3390912764
 30
0.0
 10
9.2673160123
 20
3.3385584963
 30
0.0
 10
9.2687107019
 20
3.3379138582
 30
0.0
 10
9.269685519
 20
3.3374370546
 30
0.0
 10
9.2701956869
 20
3.3371816363
 30
0.0
  0
SPLINE
  5
393
100
AcDbEntity
  8
0
100
AcDbSpline
 62
9
  6
CONTINUOUS
 70
0
 71
3
 72
9
 73
5
 74
0
 42
0.0000001
 43
0.0000001
 44
0.0000000001
 40
0.0
 40
0.0
 40
0.0
 40
0.0
 40
0.4960089598
 40
1.0
 40
1.0
 40
1.0
 40
1.0
 10
9.2628990914
 20
2.9804471763
 30
0.0
 10
9.2462041651
 20
3.0062100998
 30
0.0
 10
9.2202634733
 20
3.0635107855
 30
0.0
 10
9.21163525
 20
3.1257293401
 30
0.0
 10
9.2116350979
 20
3.1569227013
 30
0.0
  0
SPLINE
  5
394
100
AcDbEntity
  8
0
100
AcDbSpline
 62
9
  6
CONTINUOUS
 70
0
 71
3
 72
13
 73
9
 74
0
 42
0.0000001
 43
0.0000001
 44
0.0000000001
 40
0.0
 40
0.0
 40
0.0
 40
0.0
 40
0.062769882
 40
0.1446325299
 40
0.2469175964
 40
0.368436391
 40
0.6602091924
 40
1.0
 40
1.0
 40
1.0
 40
1.0
 10
9.2116350979
 20
3.1569227011
 30
0.0
 10
9.2117316876
 20
3.1571840869
 30
0.0
 10
9.2121280083
 20
3.1577159596
 30
0.0
 10
9.2130021173
 20
3.1583830878
 30
0.0
 10
9.2141990622
 20
3.1590322781
 30
0.0
 10
9.2163190624
 20
3.1599017459
 30
0.0
 10
9.2195527185
 20
3.1607925628
 30
0.0
 10
9.2223242401
 20
3.1612468977
 30
0.0
 10
9.2238229638
 20
3.1614181002
 30
0.0
  0
SPLINE
  5
395
100
AcDbEntity
  8
0
100
AcDbSpline
 62
9
  6
CONTINUOUS
 70
0
 71
3
 72
15
 73
11
 74
0
 42
0.0000001
 43
0.0000001
 44
0.0000000001
 40
0.0
 40
0.0
 40
0.0
 40
0.0
 40
0.0304219387
 40
0.055295801
 40
0.0876231596
 40
0.1275922933
 40
0.1752124999
 40
0.29255034
 40
0.6066632351
 40
1.0
 40
1.0
 40
1.0
 40
1.0
 10
13.4268344882
 20
11.7795630887
 30
0.0
 10
13.4269775822
 20
11.7798109196
 30
0.0
 10
13.4268060902
 20
11.7804111364
 30
0.0
 10
13.4263828183
 20
11.7810848482
 30
0.0
 10
13.4258097804
 20
11.7818119217
 30
0.0
 10
13.4250402477
 20
11.7826328589
 30
0.0
 10
13.4236458728
 20
11.783967303
 30
0.0
 10
13.4201947477
 20
11.7868686852
 30
0.0
 10
13.413902456
 20
11.7914210968
 30
0.0
 10
13.4083331726
 20
11.7950657625
 30
0.0
 10
13.4052003333
 20
11.7970344623
 30
0.0
  0
SPLINE
  5
396
100
AcDbEntity
  8
0
100
AcDbSpline
 62
9
  6
CONTINUOUS
 70
0
 71
3
 72
16
 73
12
 74
0
 42
0.0000001
 43
0.0000001
 44
0.0000000001
 40
0.0
 40
0.0
 40
0.0
 40
0.0
 40
0.0295004045
 40
0.0539829146
 40
0.0859890556
 40
0.1257723252
 40
0.1734339462
 40
0.292481416
 40
0.4418602828
 40
0.6149492293
 40
1.0
 40
1.0
 40
1.0
 40
1.0
 10
13.2031122164
 20
11.5420625338
 30
0.0
 10
13.203389643
 20
11.5420625312
 30
0.0
 10
13.2038091606
 20
11.5425053631
 30
0.0
 10
13.204176301
 20
11.5431927067
 30
0.0
 10
13.2045197498
 20
11.5440433845
 30
0.0
 10
13.2048502319
 20
11.5451138425
 30
0.0
 10
13.2053222774
 20
11.5469999982
 30
0.0
 10
13.2058498474
 20
11.5499270786
 30
0.0
 10
13.2063746647
 20
11.5540471401
 30
0.0
 10
13.2069955169
 20
11.5606723653
 30
0.0
 10
13.2072902301
 20
11.5659152543
 30
0.0
 10
13.2074257482
 20
11.5695337982
 30
0.0
  0
LINE
  5
397
100
AcDbEntity
  8
0
100
AcDbLine
 62
9
  6
CONTINUOUS
 10
12.0632145692
 20
10.879799943
 11
12.0458922672
 21
10.8790879466
  0
SPLINE
  5
398
100
AcDbEntity
  8
0
100
AcDbSpline
 62
9
  6
CONTINUOUS
 70
0
 71
3
 72
16
 73
12
 74
0
 42
0.0000001
 43
0.0000001
 44
0.0000000001
 40
0.0
 40
0.0
 40
0.0
 40
0.0
 40
0.3850507618
 40
0.5581397007
 40
0.7075185515
 40
0.8265660259
 40
0.8742276613
 40
0.9140109467
 40
0.9460171002
 40
0.9704996148
 40
1.0
 40
1.0
 40
1.0
 40
1.0
 10
13.3070684256
 20
11.6270625338
 30
0.0
 10
13.3102699358
 20
11.6253706244
 30
0.0
 10
13.3149577678
 20
11.6230044096
 30
0.0
 10
13.3210058077
 20
11.6202294717
 30
0.0
 10
13.3248362945
 20
11.6186239468
 30
0.0
 10
13.3276350058
 20
11.6176172962
 30
0.0
 10
13.3295044879
 20
11.6170830218
 30
0.0
 10
13.3305967732
 20
11.6168339987
 30
0.0
 10
13.3315052066
 20
11.6167060952
 30
0.0
 10
13.3322840336
 20
11.6166803762
 30
0.0
 10
13.3328772965
 20
11.6168222737
 30
0.0
 10
13.3330160066
 20
11.6170625338
 30
0.0
  0
SPLINE
  5
399
100
AcDbEntity
  8
0
100
AcDbSpline
 62
9
  6
CONTINUOUS
 70
0
 71
3
 72
9
 73
5
 74
0
 42
0.0000001
 43
0.0000001
 44
0.0000000001
 40
0.0
 40
0.0
 40
0.0
 40
0.0
 40
0.25740718
 40
1.0
 40
1.0
 40
1.0
 40
1.0
 10
12.5459966073
 20
11.5015812342
 30
0.0
 10
12.5460904937
 20
11.5012013089
 30
0.0
 10
12.5464139763
 20
11.4997157551
 30
0.0
 10
12.5465708617
 20
11.4981915491
 30
0.0
 10
12.5465708617
 20
11.4970625338
 30
0.0
  0
LINE
  5
39A
100
AcDbEntity
  8
0
100
AcDbLine
 62
9
  6
CONTINUOUS
 10
10.9236479474
 20
12.1015939722
 11
10.9222271709
 21
12.1040214621
  0
LINE
  5
39B
100
AcDbEntity
  8
0
100
AcDbLine
 62
9
  6
CONTINUOUS
 10
10.62229776
 20
12.6235144406
 11
10.6209058636
 21
12.625958643
  0
SPLINE
  5
39C
100
AcDbEntity
  8
0
100
AcDbSpline
 62
9
  6
CONTINUOUS
 70
0
 71
3
 72
10
 73
6
 74
0
 42
0.0000001
 43
0.0000001
 44
0.0000000001
 40
0.0
 40
0.0
 40
0.0
 40
0.0
 40
0.5848809808
 40
0.8172250462
 40
1.0
 40
1.0
 40
1.0
 40
1.0
 10
10.6209058636
 20
12.625958643
 30
0.0
 10
10.6225131756
 20
12.6267010989
 30
0.0
 10
10.6248017525
 20
12.6276578589
 30
0.0
 10
10.6276930023
 20
12.6285578288
 30
0.0
 10
10.628923332
 20
12.6288314408
 30
0.0
 10
10.629471758
 20
12.6289045854
 30
0.0
  0
SPLINE
  5
39D
100
AcDbEntity
  8
0
100
AcDbSpline
 62
9
  6
CONTINUOUS
 70
0
 71
3
 72
10
 73
6
 74
0
 42
0.0000001
 43
0.0000001
 44
0.0000000001
 40
0.0
 40
0.0
 40
0.0
 40
0.0
 40
0.3554786617
 40
0.6372385873
 40
1.0
 40
1.0
 40
1.0
 40
1.0
 10
10.629471758
 20
12.6289045854
 30
0.0
 10
10.629693061
 20
12.628934101
 30
0.0
 10
10.6300973759
 20
12.6289708525
 30
0.0
 10
10.630706567
 20
12.6289592747
 30
0.0
 10
10.6311626717
 20
12.628818235
 30
0.0
 10
10.63127659
 20
12.6286209227
 30
0.0
  0
SPLINE
  5
39E
100
AcDbEntity
  8
0
100
AcDbSpline
 62
9
  6
CONTINUOUS
 70
0
 71
3
 72
10
 73
6
 74
0
 42
0.0000001
 43
0.0000001
 44
0.0000000001
 40
0.0
 40
0.0
 40
0.0
 40
0.0
 40
0.5837187693
 40
0.8165664902
 40
1.0
 40
1.0
 40
1.0
 40
1.0
 10
10.9236479474
 20
12.1015939722
 30
0.0
 10
10.9250918747
 20
12.1026128021
 30
0.0
 10
10.9270631486
 20
12.1041155693
 30
0.0
 10
10.9292891173
 20
12.1061689045
 30
0.0
 10
10.9301441847
 20
12.1070998975
 30
0.0
 10
10.9304830607
 20
12.107539855
 30
0.0
  0
SPLINE
  5
39F
100
AcDbEntity
  8
0
100
AcDbSpline
 62
9
  6
CONTINUOUS
 70
0
 71
3
 72
10
 73
6
 74
0
 42
0.0000001
 43
0.0000001
 44
0.0000000001
 40
0.0
 40
0.0
 40
0.0
 40
0.0
 40
0.3549894796
 40
0.6366620226
 40
1.0
 40
1.0
 40
1.0
 40
1.0
 10
10.9304830607
 20
12.107539855
 30
0.0
 10
10.9306190532
 20
12.107716412
 30
0.0
 10
10.9308527545
 20
12.1080476896
 30
0.0
 10
10.9311473877
 20
12.1085808101
 30
0.0
 10
10.9312529741
 20
12.1090465141
 30
0.0
 10
10.9311389542
 20
12.1092440726
 30
0.0
  0
SPLINE
  5
3A0
100
AcDbEntity
  8
0
100
AcDbSpline
 62
9
  6
CONTINUOUS
 70
0
 71
3
 72
16
 73
12
 74
0
 42
0.0000001
 43
0.0000001
 44
0.0000000001
 40
0.0
 40
0.0
 40
0.0
 40
0.0
 40
0.0295004042
 40
0.0539829143
 40
0.0859890555
 40
0.1257723252
 40
0.1734339464
 40
0.2924814163
 40
0.4418602829
 40
0.6149492294
 40
1.0
 40
1.0
 40
1.0
 40
1.0
 10
13.0154733383
 20
12.1670625338
 30
0.0
 10
13.0151959116
 20
12.1670625364
 30
0.0
 10
13.014776394
 20
12.1666197046
 30
0.0
 10
13.0144092536
 20
12.1659323609
 30
0.0
 10
13.0140658049
 20
12.1650816831
 30
0.0
 10
13.0137353227
 20
12.1640112251
 30
0.0
 10
13.0132632772
 20
12.1621250694
 30
0.0
 10
13.0127357072
 20
12.159197989
 30
0.0
 10
13.0122108899
 20
12.1550779275
 30
0.0
 10
13.0115900377
 20
12.1484527023
 30
0.0
 10
13.0112953245
 20
12.1432098133
 30
0.0
 10
13.0111598064
 20
12.1395912694
 30
0.0
  0
SPLINE
  5
3A1
100
AcDbEntity
  8
0
100
AcDbSpline
 62
9
  6
CONTINUOUS
 70
0
 71
3
 72
16
 73
12
 74
0
 42
0.0000001
 43
0.0000001
 44
0.0000000001
 40
0.0
 40
0.0
 40
0.0
 40
0.0
 40
0.3850507618
 40
0.5581397006
 40
0.7075185512
 40
0.8265660257
 40
0.8742276613
 40
0.9140109468
 40
0.9460171004
 40
0.9704996151
 40
1.0
 40
1.0
 40
1.0
 40
1.0
 10
12.9115171291
 20
12.0820625338
 30
0.0
 10
12.9083156188
 20
12.0837544432
 30
0.0
 10
12.9036277868
 20
12.086120658
 30
0.0
 10
12.8975797469
 20
12.0888955959
 30
0.0
 10
12.8937492601
 20
12.0905011209
 30
0.0
 10
12.8909505488
 20
12.0915077714
 30
0.0
 10
12.8890810668
 20
12.0920420458
 30
0.0
 10
12.8879887814
 20
12.0922910689
 30
0.0
 10
12.8870803481
 20
12.0924189724
 30
0.0
 10
12.886301521
 20
12.0924446914
 30
0.0
 10
12.8857082582
 20
12.092302794
 30
0.0
 10
12.885569548
 20
12.0920625338
 30
0.0
  0
SPLINE
  5
3A2
100
AcDbEntity
  8
0
100
AcDbSpline
 62
9
  6
CONTINUOUS
 70
0
 71
3
 72
16
 73
12
 74
0
 42
0.0000001
 43
0.0000001
 44
0.0000000001
 40
0.0
 40
0.0
 40
0.0
 40
0.0
 40
0.0295004042
 40
0.0539829143
 40
0.0859890555
 40
0.1257723252
 40
0.1734339464
 40
0.2924814162
 40
0.4418602828
 40
0.6149492293
 40
1.0
 40
1.0
 40
1.0
 40
1.0
 10
13.3330159964
 20
12.0920625514
 30
0.0
 10
13.3328772854
 20
12.0923028113
 30
0.0
 10
13.3322840229
 20
12.0924447083
 30
0.0
 10
13.3315051957
 20
12.0924189893
 30
0.0
 10
13.3305967627
 20
12.0922910858
 30
0.0
 10
13.3295044779
 20
12.0920420627
 30
0.0
 10
13.3276349963
 20
12.0915077882
 30
0.0
 10
13.3248362853
 20
12.0905011371
 30
0.0
 10
13.3210057988
 20
12.0888956114
 30
0.0
 10
13.3149577593
 20
12.0861206726
 30
0.0
 10
13.3102699277
 20
12.0837544572
 30
0.0
 10
13.3070684177
 20
12.0820625474
 30
0.0
  0
SPLINE
  5
3A3
100
AcDbEntity
  8
0
100
AcDbSpline
 62
9
  6
CONTINUOUS
 70
0
 71
3
 72
16
 73
12
 74
0
 42
0.0000001
 43
0.0000001
 44
0.0000000001
 40
0.0
 40
0.0
 40
0.0
 40
0.0
 40
0.3850507618
 40
0.5581397006
 40
0.7075185512
 40
0.8265660257
 40
0.8742276613
 40
0.9140109468
 40
0.9460171004
 40
0.9704996151
 40
1.0
 40
1.0
 40
1.0
 40
1.0
 10
13.2074257325
 20
12.1395912694
 30
0.0
 10
13.2072902139
 20
12.1432098134
 30
0.0
 10
13.2069955
 20
12.1484527024
 30
0.0
 10
13.2063746469
 20
12.1550779275
 30
0.0
 10
13.2058498288
 20
12.1591979888
 30
0.0
 10
13.2053222581
 20
12.1621250693
 30
0.0
 10
13.2048502123
 20
12.1640112253
 30
0.0
 10
13.20451973
 20
12.1650816837
 30
0.0
 10
13.2041762809
 20
12.1659323619
 30
0.0
 10
13.2038091408
 20
12.1666197054
 30
0.0
 10
13.2033896225
 20
12.1670625374
 30
0.0
 10
13.2031121961
 20
12.1670625338
 30
0.0
  0
SPLINE
  5
3A4
100
AcDbEntity
  8
0
100
AcDbSpline
 62
9
  6
CONTINUOUS
 70
0
 71
3
 72
15
 73
11
 74
0
 42
0.0000001
 43
0.0000001
 44
0.0000000001
 40
0.0
 40
0.0
 40
0.0
 40
0.0
 40
0.393219406
 40
0.7072325518
 40
0.824622132
 40
0.872258135
 40
0.9122445036
 40
0.9445925756
 40
0.9694896214
 40
1.0
 40
1.0
 40
1.0
 40
1.0
 10
13.4051990807
 20
11.9120901528
 30
0.0
 10
13.4083310167
 20
11.9140583223
 30
0.0
 10
13.4138991821
 20
11.9177012033
 30
0.0
 10
13.4201895127
 20
11.92225384
 30
0.0
 10
13.4236407234
 20
11.9251547391
 30
0.0
 10
13.4250361451
 20
11.9264892491
 30
0.0
 10
13.4258067463
 20
11.9273099321
 30
0.0
 10
13.4263808294
 20
11.9280368208
 30
0.0
 10
13.4268058774
 20
11.9287111269
 30
0.0
 10
13.4269767664
 20
11.9293127225
 30
0.0
 10
13.4268333281
 20
11.9295613203
 30
0.0
  0
SPLINE
  5
3A5
100
AcDbEntity
  8
0
100
AcDbSpline
 62
9
  6
CONTINUOUS
 70
0
 71
3
 72
15
 73
11
 74
0
 42
0.0000001
 43
0.0000001
 44
0.0000000001
 40
0.0
 40
0.0
 40
0.0
 40
0.0
 40
0.0304222989
 40
0.0552961624
 40
0.0876234991
 40
0.1275926128
 40
0.1752128097
 40
0.292550638
 40
0.6066634277
 40
1.0
 40
1.0
 40
1.0
 40
1.0
 10
12.7917510707
 20
11.9295619763
 30
0.0
 10
12.7916079756
 20
11.9293141422
 30
0.0
 10
12.7917794609
 20
11.9287139208
 30
0.0
 10
12.7922027396
 20
11.9280402077
 30
0.0
 10
12.7927757801
 20
11.9273131376
 30
0.0
 10
12.7935453162
 20
11.9264922041
 30
0.0
 10
12.7949396934
 20
11.9251577634
 30
0.0
 10
12.7983908169
 20
11.9222563817
 30
0.0
 10
12.804683103
 20
11.9177039684
 30
0.0
 10
12.8102523852
 20
11.9140593065
 30
0.0
 10
12.8133852226
 20
11.9120906076
 30
0.0
  0
SPLINE
  5
3A6
100
AcDbEntity
  8
0
100
AcDbSpline
 62
9
  6
CONTINUOUS
 70
0
 71
3
 72
19
 73
15
 74
0
 42
0.0000001
 43
0.0000001
 44
0.0000000001
 40
0.0
 40
0.0
 40
0.0
 40
0.0
 40
0.1176851644
 40
0.2384002261
 40
0.299711597
 40
0.3615594435
 40
0.4866931346
 40
0.5499018123
 40
0.6134862173
 40
0.6774075652
 40
0.7416205912
 40
0.8060542435
 40
0.8706338023
 40
1.0
 40
1.0
 40
1.0
 40
1.0
 10
10.623052863
 20
2.5020935867
 30
0.0
 10
10.6143599636
 20
2.4886963495
 30
0.0
 10
10.597632049
 20
2.4609870391
 30
0.0
 10
10.5776552926
 20
2.4255605683
 30
0.0
 10
10.5613596476
 20
2.3967554361
 30
0.0
 10
10.5445422904
 20
2.367557767
 30
0.0
 10
10.5272723537
 20
2.3383246274
 30
0.0
 10
10.5095581511
 20
2.3090840952
 30
0.0
 10
10.4959846939
 20
2.2870480806
 30
0.0
 10
10.4821741671
 20
2.2649987914
 30
0.0
 10
10.4681405564
 20
2.2429544836
 30
0.0
 10
10.4540763653
 20
2.2208232234
 30
0.0
 10
10.4355264998
 20
2.1910700234
 30
0.0
 10
10.4221517992
 20
2.1683863459
 30
0.0
 10
10.4137268515
 20
2.152984503
 30
0.0
  0
SPLINE
  5
3A7
100
AcDbEntity
  8
0
100
AcDbSpline
 62
9
  6
CONTINUOUS
 70
0
 71
3
 72
11
 73
7
 74
0
 42
0.0000001
 43
0.0000001
 44
0.0000000001
 40
0.0
 40
0.0
 40
0.0
 40
0.0
 40
0.2484721803
 40
0.4980782547
 40
0.7486591767
 40
1.0
 40
1.0
 40
1.0
 40
1.0
 10
10.4124259734
 20
2.1508880232
 30
0.0
 10
10.3907311608
 20
2.1310406124
 30
0.0
 10
10.3448404532
 20
2.0937973896
 30
0.0
 10
10.2698466352
 20
2.0462652005
 30
0.0
 10
10.1895448632
 20
2.0075985217
 30
0.0
 10
10.1332802901
 20
1.9880916335
 30
0.0
 10
10.104666739
 20
1.9799720264
 30
0.0
  0
SPLINE
  5
3A8
100
AcDbEntity
  8
0
100
AcDbSpline
 62
9
  6
CONTINUOUS
 70
0
 71
3
 72
15
 73
11
 74
0
 42
0.0000001
 43
0.0000001
 44
0.0000000001
 40
0.0
 40
0.0
 40
0.0
 40
0.0
 40
0.3932192614
 40
0.7072323312
 40
0.8246219168
 40
0.8722579322
 40
0.9122443175
 40
0.9445924092
 40
0.9694894817
 40
1.0
 40
1.0
 40
1.0
 40
1.0
 10
12.8133864791
 20
11.7970349151
 30
0.0
 10
12.8102545445
 20
11.7950667465
 30
0.0
 10
12.8046863809
 20
11.7914238675
 30
0.0
 10
12.7983960533
 20
11.7868712312
 30
0.0
 10
12.7949448432
 20
11.7839703328
 30
0.0
 10
12.7935494203
 20
11.782635824
 30
0.0
 10
12.7927788175
 20
11.781815142
 30
0.0
 10
12.7922047328
 20
11.781088254
 30
0.0
 10
12.7917796821
 20
11.7804139472
 30
0.0
 10
12.7916087941
 20
11.77981235
 30
0.0
 10
12.7917522323
 20
11.7795637507
 30
0.0
  0
SPLINE
  5
3A9
100
AcDbEntity
  8
0
100
AcDbSpline
 62
9
  6
CONTINUOUS
 70
0
 71
3
 72
13
 73
9
 74
0
 42
0.0000001
 43
0.0000001
 44
0.0000000001
 40
0.0
 40
0.0
 40
0.0
 40
0.0
 40
0.2485571472
 40
0.3740034304
 40
0.5000005327
 40
0.6259980569
 40
0.7514447144
 40
1.0
 40
1.0
 40
1.0
 40
1.0
 10
10.1022455997
 20
1.9800014609
 30
0.0
 10
10.0671262505
 20
1.9805519787
 30
0.0
 10
10.0142816583
 20
1.9813643697
 30
0.0
 10
9.9436288266
 20
1.9819834519
 30
0.0
 10
9.890292483
 20
1.9821345531
 30
0.0
 10
9.8369560787
 20
1.981985465
 30
0.0
 10
9.7663033897
 20
1.981366628
 30
0.0
 10
9.713459041
 20
1.980551975
 30
0.0
 10
9.6783399549
 20
1.9800014609
 30
0.0
  0
SPLINE
  5
3AA
100
AcDbEntity
  8
0
100
AcDbSpline
 62
9
  6
CONTINUOUS
 70
0
 71
3
 72
11
 73
7
 74
0
 42
0.0000001
 43
0.0000001
 44
0.0000000001
 40
0.0
 40
0.0
 40
0.0
 40
0.0
 40
0.2513408233
 40
0.5019217453
 40
0.7515278197
 40
1.0
 40
1.0
 40
1.0
 40
1.0
 10
9.6759188156
 20
1.9799720264
 30
0.0
 10
9.6473052645
 20
1.9880916335
 30
0.0
 10
9.5910406914
 20
2.0075985217
 30
0.0
 10
9.5107389195
 20
2.0462652005
 30
0.0
 10
9.4357451014
 20
2.0937973896
 30
0.0
 10
9.3898543938
 20
2.1310406124
 30
0.0
 10
9.3681595813
 20
2.1508880232
 30
0.0
  0
SPLINE
  5
3AB
100
AcDbEntity
  8
0
100
AcDbSpline
 62
9
  6
CONTINUOUS
 70
0
 71
3
 72
19
 73
15
 74
0
 42
0.0000001
 43
0.0000001
 44
0.0000000001
 40
0.0
 40
0.0
 40
0.0
 40
0.0
 40
0.1293720221
 40
0.1939523854
 40
0.2583839354
 40
0.3225925982
 40
0.386507077
 40
0.5132814096
 40
0.6384068399
 40
0.7002610203
 40
0.7615893712
 40
0.8223140104
 40
0.8823423551
 40
1.0
 40
1.0
 40
1.0
 40
1.0
 10
9.3668587032
 20
2.152984503
 30
0.0
 10
9.358398094
 20
2.1683678115
 30
0.0
 10
9.345016326
 20
2.1910467676
 30
0.0
 10
9.3264922511
 20
2.2208171984
 30
0.0
 10
9.3124530886
 20
2.2429635859
 30
0.0
 10
9.2984360265
 20
2.2650164696
 30
0.0
 10
9.280071626
 20
2.2943302176
 30
0.0
 10
9.257704724
 20
2.3308901174
 30
0.0
 10
9.2360225363
 20
2.3675358542
 30
0.0
 10
9.2192011369
 20
2.3967339879
 30
0.0
 10
9.2069275972
 20
2.4184645972
 30
0.0
 10
9.1948083017
 20
2.4399981504
 30
0.0
 10
9.1787376906
 20
2.4680764634
 30
0.0
 10
9.1662667612
 20
2.4887298566
 30
0.0
 10
9.1575425972
 20
2.5021024152
 30
0.0
  0
SPLINE
  5
3AC
100
AcDbEntity
  8
0
100
AcDbSpline
 62
9
  6
CONTINUOUS
 70
0
 71
3
 72
37
 73
33
 74
0
 42
0.0000001
 43
0.0000001
 44
0.0000000001
 40
0.0
 40
0.0
 40
0.0
 40
0.0
 40
0.0612295216
 40
0.0919649767
 40
0.1227499139
 40
0.1536143759
 40
0.1845835081
 40
0.2156661731
 40
0.2468650922
 40
0.2781827053
 40
0.3096156577
 40
0.341158367
 40
0.3727989984
 40
0.404522155
 40
0.436311002
 40
0.4681438864
 40
0.5
 40
0.5318561136
 40
0.563688998
 40
0.595477845
 40
0.6272010016
 40
0.658841633
 40
0.6903843423
 40
0.7218172947
 40
0.7531349078
 40
0.7843338269
 40
0.8154164919
 40
0.8463856241
 40
0.8772500861
 40
0.9080350233
 40
0.9387704784
 40
1.0
 40
1.0
 40
1.0
 40
1.0
 10
9.2342927773
 20
2.7352217654
 30
0.0
 10
9.2342927773
 20
2.6939800466
 30
0.0
 10
9.2406866656
 20
2.6317981378
 30
0.0
 10
9.2615454986
 20
2.5516945467
 30
0.0
 10
9.2832929866
 20
2.4932684612
 30
0.0
 10
9.3108700657
 20
2.4371957492
 30
0.0
 10
9.3440455914
 20
2.3840041844
 30
0.0
 10
9.3824586855
 20
2.334180442
 30
0.0
 10
9.4257738389
 20
2.2882306573
 30
0.0
 10
9.4735585359
 20
2.2465923743
 30
0.0
 10
9.5253443529
 20
2.2096500141
 30
0.0
 10
9.5806525525
 20
2.1777901945
 30
0.0
 10
9.6389263042
 20
2.1512749427
 30
0.0
 10
9.6996249516
 20
2.1303984357
 30
0.0
 10
9.7621532901
 20
2.115339394
 30
0.0
 10
9.8259131128
 20
2.1062362481
 30
0.0
 10
9.8902927773
 20
2.1032080906
 30
0.0
 10
9.9546724418
 20
2.1062362481
 30
0.0
 10
10.0184322645
 20
2.115339394
 30
0.0
 10
10.080960603
 20
2.1303984357
 30
0.0
 10
10.1416592504
 20
2.1512749427
 30
0.0
 10
10.1999330022
 20
2.1777901945
 30
0.0
 10
10.2552412017
 20
2.2096500141
 30
0.0
 10
10.3070270188
 20
2.2465923743
 30
0.0
 10
10.3548117157
 20
2.2882306573
 30
0.0
 10
10.3981268691
 20
2.334180442
 30
0.0
 10
10.4365399633
 20
2.3840041844
 30
0.0
 10
10.4697154889
 20
2.4371957492
 30
0.0
 10
10.497292568
 20
2.4932684612
 30
0.0
 10
10.5190400561
 20
2.5516945467
 30
0.0
 10
10.539898889
 20
2.6317981378
 30
0.0
 10
10.5462927773
 20
2.6939800466
 30
0.0
 10
10.5462927773
 20
2.7352217654
 30
0.0
  0
SPLINE
  5
3AD
100
AcDbEntity
  8
0
100
AcDbSpline
 62
9
  6
CONTINUOUS
 70
0
 71
3
 72
9
 73
5
 74
0
 42
0.0000001
 43
0.0000001
 44
0.0000000001
 40
0.0
 40
0.0
 40
0.0
 40
0.0
 40
0.2503956438
 40
1.0
 40
1.0
 40
1.0
 40
1.0
 10
9.1549058808
 20
2.8520785248
 30
0.0
 10
9.1583214568
 20
2.8581292981
 30
0.0
 10
9.1717630429
 20
2.8824069743
 30
0.0
 10
9.1846080807
 20
2.907007197
 30
0.0
 10
9.1942524363
 20
2.9254370559
 30
0.0
  0
LINE
  5
3AE
100
AcDbEntity
  8
0
100
AcDbLine
 62
9
  6
CONTINUOUS
 10
9.1942524363
 20
2.9254370559
 11
9.2111709285
 21
2.9575512122
  0
SPLINE
  5
3AF
100
AcDbEntity
  8
0
100
AcDbSpline
 62
9
  6
CONTINUOUS
 70
0
 71
3
 72
17
 73
13
 74
0
 42
0.0000001
 43
0.0000001
 44
0.0000000001
 40
0.0
 40
0.0
 40
0.0
 40
0.0
 40
0.1810859171
 40
0.3598645445
 40
0.5270750032
 40
0.6736843356
 40
0.7927995957
 40
0.8843691284
 40
0.9206530228
 40
0.9512819744
 40
0.9772143222
 40
1.0
 40
1.0
 40
1.0
 40
1.0
 10
12.739788605
 20
11.9419401562
 30
0.0
 10
12.7427587836
 20
11.9403732501
 30
0.0
 10
12.7487424737
 20
11.9374113376
 30
0.0
 10
12.7577051305
 20
11.9335009981
 30
0.0
 10
12.7662666487
 20
11.9303031876
 30
0.0
 10
12.7739731179
 20
11.92800952
 30
0.0
 10
12.7805045913
 20
11.9268210499
 30
0.0
 10
12.7851175803
 20
11.9266832847
 30
0.0
 10
12.7880269575
 20
11.9271620748
 30
0.0
 10
12.789666753
 20
11.9277202734
 30
0.0
 10
12.7909342763
 20
11.9284979093
 30
0.0
 10
12.7915388548
 20
11.9291965957
 30
0.0
 10
12.7917501293
 20
11.9295625338
 30
0.0
  0
LINE
  5
3B0
100
AcDbEntity
  8
0
100
AcDbLine
 62
9
  6
CONTINUOUS
 10
10.5696030044
 20
2.9572316309
 11
10.586325702
 21
2.9254198015
  0
SPLINE
  5
3B1
100
AcDbEntity
  8
0
100
AcDbSpline
 62
9
  6
CONTINUOUS
 70
0
 71
3
 72
9
 73
5
 74
0
 42
0.0000001
 43
0.0000001
 44
0.0000000001
 40
0.0
 40
0.0
 40
0.0
 40
0.0
 40
0.2494948894
 40
1.0
 40
1.0
 40
1.0
 40
1.0
 10
10.586325702
 20
2.9254198015
 30
0.0
 10
10.5895295558
 20
2.919283692
 30
0.0
 10
10.6023641483
 20
2.8946871106
 30
0.0
 10
10.6154050921
 20
2.8701896536
 30
0.0
 10
10.6256796739
 20
2.8520785248
 30
0.0
  0
SPLINE
  5
3B2
100
AcDbEntity
  8
0
100
AcDbSpline
 62
9
  6
CONTINUOUS
 70
0
 71
3
 72
12
 73
8
 74
0
 42
0.0000001
 43
0.0000001
 44
0.0000000001
 40
0.0
 40
0.0
 40
0.0
 40
0.0
 40
0.2737077991
 40
0.4088688076
 40
0.5391960828
 40
0.7809993527
 40
1.0
 40
1.0
 40
1.0
 40
1.0
 10
12.8336080021
 20
12.0771673977
 30
0.0
 10
12.8387104427
 20
12.0758708517
 30
0.0
 10
12.8465854672
 20
12.0747586738
 30
0.0
 10
12.8569721492
 20
12.0751559606
 30
0.0
 10
12.8666068867
 20
12.0769062155
 30
0.0
 10
12.8771462369
 20
12.0817776868
 30
0.0
 10
12.8834633586
 20
12.0884145067
 30
0.0
 10
12.8855695264
 20
12.0920624964
 30
0.0
  0
SPLINE
  5
3B3
100
AcDbEntity
  8
0
100
AcDbSpline
 62
9
  6
CONTINUOUS
 70
0
 71
3
 72
9
 73
5
 74
0
 42
0.0000001
 43
0.0000001
 44
0.0000000001
 40
0.0
 40
0.0
 40
0.0
 40
0.0
 40
0.2482511197
 40
1.0
 40
1.0
 40
1.0
 40
1.0
 10
9.1537795642
 20
2.5080437725
 30
0.0
 10
9.1516219428
 20
2.5116389893
 30
0.0
 10
9.1432456667
 20
2.5263084538
 30
0.0
 10
9.1361293299
 20
2.5416929096
 30
0.0
 10
9.1315077213
 20
2.5535189576
 30
0.0
  0
SPLINE
  5
3B4
100
AcDbEntity
  8
0
100
AcDbSpline
 62
9
  6
CONTINUOUS
 70
0
 71
3
 72
13
 73
9
 74
0
 42
0.0000001
 43
0.0000001
 44
0.0000000001
 40
0.0
 40
0.0
 40
0.0
 40
0.0
 40
0.2424486896
 40
0.3659200658
 40
0.490769046
 40
0.6168753761
 40
0.7440158787
 40
1.0
 40
1.0
 40
1.0
 40
1.0
 10
9.1205533357
 20
2.5868758078
 30
0.0
 10
9.1148626883
 20
2.608031398
 30
0.0
 10
9.1094721223
 20
2.6409414121
 30
0.0
 10
9.1087992828
 20
2.6853299285
 30
0.0
 10
9.111589685
 20
2.7191032077
 30
0.0
 10
9.1175473047
 20
2.7527944031
 30
0.0
 10
9.1295862171
 20
2.7972480163
 30
0.0
 10
9.1430296018
 20
2.8294037614
 30
0.0
 10
9.1537795641
 20
2.8498846091
 30
0.0
  0
LINE
  5
3B5
100
AcDbEntity
  8
0
100
AcDbLine
 62
9
  6
CONTINUOUS
 10
8.8569376072
 20
11.6075310954
 11
8.8583583837
 21
11.6051036055
  0
LINE
  5
3B6
100
AcDbEntity
  8
0
100
AcDbLine
 62
9
  6
CONTINUOUS
 10
9.1582877946
 20
11.085610627
 11
9.1596796911
 21
11.0831664246
  0
SPLINE
  5
3B7
100
AcDbEntity
  8
0
100
AcDbSpline
 62
9
  6
CONTINUOUS
 70
0
 71
3
 72
10
 73
6
 74
0
 42
0.0000001
 43
0.0000001
 44
0.0000000001
 40
0.0
 40
0.0
 40
0.0
 40
0.0
 40
0.4209698251
 40
0.691325278
 40
1.0
 40
1.0
 40
1.0
 40
1.0
 10
9.1487377482
 20
2.4967106577
 30
0.0
 10
9.1483143389
 20
2.497666617
 30
0.0
 10
9.148429582
 20
2.4995374689
 30
0.0
 10
9.1492652773
 20
2.5018543468
 30
0.0
 10
9.1499521676
 20
2.5031310986
 30
0.0
 10
9.1503555102
 20
2.5037830486
 30
0.0
  0
SPLINE
  5
3B8
100
AcDbEntity
  8
0
100
AcDbSpline
 62
9
  6
CONTINUOUS
 70
0
 71
3
 72
9
 73
5
 74
0
 42
0.0000001
 43
0.0000001
 44
0.0000000001
 40
0.0
 40
0.0
 40
0.0
 40
0.0
 40
0.2348652181
 40
1.0
 40
1.0
 40
1.0
 40
1.0
 10
9.1503555102
 20
2.5037830486
 30
0.0
 10
9.1505812889
 20
2.5041479901
 30
0.0
 10
9.1515945402
 20
2.5056694227
 30
0.0
 10
9.1527951027
 20
2.5070631599
 30
0.0
 10
9.1537856196
 20
2.5080497448
 30
0.0
  0
SPLINE
  5
3B9
100
AcDbEntity
  8
0
100
AcDbSpline
 62
9
  6
CONTINUOUS
 70
0
 71
3
 72
10
 73
6
 74
0
 42
0.0000001
 43
0.0000001
 44
0.0000000001
 40
0.0
 40
0.0
 40
0.0
 40
0.0
 40
0.4216970825
 40
0.6918843943
 40
1.0
 40
1.0
 40
1.0
 40
1.0
 10
9.1499567871
 20
2.4947170469
 30
0.0
 10
9.1495285885
 20
2.4956752398
 30
0.0
 10
9.1496290457
 20
2.4975498466
 30
0.0
 10
9.1504454175
 20
2.499879648
 30
0.0
 10
9.1511210471
 20
2.501163597
 30
0.0
 10
9.1515184884
 20
2.5018194012
 30
0.0
  0
SPLINE
  5
3BA
100
AcDbEntity
  8
0
100
AcDbSpline
 62
9
  6
CONTINUOUS
 70
0
 71
3
 72
9
 73
5
 74
0
 42
0.0000001
 43
0.0000001
 44
0.0000000001
 40
0.0
 40
0.0
 40
0.0
 40
0.0
 40
0.2349914271
 40
1.0
 40
1.0
 40
1.0
 40
1.0
 10
9.1515184884
 20
2.5018194012
 30
0.0
 10
9.1517407802
 20
2.5021861972
 30
0.0
 10
9.1527389021
 20
2.5037152063
 30
0.0
 10
9.1539254268
 20
2.5051183243
 30
0.0
 10
9.1549058828
 20
2.506112437
 30
0.0
  0
SPLINE
  5
3BB
100
AcDbEntity
  8
0
100
AcDbSpline
 62
9
  6
CONTINUOUS
 70
0
 71
3
 72
15
 73
11
 74
0
 42
0.0000001
 43
0.0000001
 44
0.0000000001
 40
0.0
 40
0.0
 40
0.0
 40
0.0
 40
0.0111120439
 40
0.0305963658
 40
0.093659185
 40
0.1866136279
 40
0.3066324087
 40
0.4508541943
 40
0.6164071692
 40
1.0
 40
1.0
 40
1.0
 40
1.0
 10
9.358362922
 20
2.147498134
 30
0.0
 10
9.3583828771
 20
2.1475298697
 30
0.0
 10
9.3584600132
 20
2.1476010122
 30
0.0
 10
9.3587022611
 20
2.1478016181
 30
0.0
 10
9.3591872506
 20
2.1481444684
 30
0.0
 10
9.3599571415
 20
2.1486668473
 30
0.0
 10
9.3609670829
 20
2.1493249931
 30
0.0
 10
9.3621894675
 20
2.1501046489
 30
0.0
 10
9.3641719997
 20
2.1513462969
 30
0.0
 10
9.3657518952
 20
2.1523139111
 30
0.0
 10
9.3668587032
 20
2.152984503
 30
0.0
  0
SPLINE
  5
3BC
100
AcDbEntity
  8
0
100
AcDbSpline
 62
9
  6
CONTINUOUS
 70
0
 71
3
 72
15
 73
11
 74
0
 42
0.0000001
 43
0.0000001
 44
0.0000000001
 40
0.0
 40
0.0
 40
0.0
 40
0.0
 40
0.1238885817
 40
0.2480882593
 40
0.372610938
 40
0.497466495
 40
0.6226561784
 40
0.7481672578
 40
0.873967797
 40
1.0
 40
1.0
 40
1.0
 40
1.0
 10
9.6793552891
 20
1.9677380396
 30
0.0
 10
9.6635296628
 20
1.9672384595
 30
0.0
 10
9.6317303083
 20
1.9683617101
 30
0.0
 10
9.5846589451
 20
1.9764371493
 30
0.0
 10
9.5389749544
 20
1.9908112491
 30
0.0
 10
9.4955282524
 20
2.0112549784
 30
0.0
 10
9.4551090478
 20
2.0374062305
 30
0.0
 10
9.4184396746
 20
2.0687841611
 30
0.0
 10
9.3861573467
 20
2.1047898025
 30
0.0
 10
9.3679092674
 20
2.1314305131
 30
0.0
 10
9.3596752364
 20
2.1452743366
 30
0.0
  0
SPLINE
  5
3BD
100
AcDbEntity
  8
0
100
AcDbSpline
 62
9
  6
CONTINUOUS
 70
0
 71
3
 72
9
 73
5
 74
0
 42
0.0000001
 43
0.0000001
 44
0.0000000001
 40
0.0
 40
0.0
 40
0.0
 40
0.0
 40
0.2554158793
 40
1.0
 40
1.0
 40
1.0
 40
1.0
 10
12.8336080238
 20
11.6319576387
 30
0.0
 10
12.8350170138
 20
11.6299268141
 30
0.0
 10
12.8407055094
 20
11.6220960056
 30
0.0
 10
12.8470480378
 20
11.614744325
 30
0.0
 10
12.8520648677
 20
11.6095721148
 30
0.0
  0
SPLINE
  5
3BE
100
AcDbEntity
  8
0
100
AcDbSpline
 62
9
  6
CONTINUOUS
 70
0
 71
3
 72
9
 73
5
 74
0
 42
0.0000001
 43
0.0000001
 44
0.0000000001
 40
0.0
 40
0.0
 40
0.0
 40
0.0
 40
0.2628019611
 40
1.0
 40
1.0
 40
1.0
 40
1.0
 10
12.8666845445
 20
11.5960116053
 30
0.0
 10
12.8696217429
 20
11.5935577959
 30
0.0
 10
12.8810699661
 20
11.5845483781
 30
0.0
 10
12.893481771
 20
11.5767827454
 30
0.0
 10
12.9029763264
 20
11.571770882
 30
0.0
  0
SPLINE
  5
3BF
100
AcDbEntity
  8
0
100
AcDbSpline
 62
9
  6
CONTINUOUS
 70
0
 71
3
 72
16
 73
12
 74
0
 42
0.0000001
 43
0.0000001
 44
0.0000000001
 40
0.0
 40
0.0
 40
0.0
 40
0.0
 40
0.3674105356
 40
0.5336658969
 40
0.6835425983
 40
0.812134275
 40
0.9125827529
 40
0.9499514828
 40
0.9775132274
 40
0.9943544044
 40
1.0
 40
1.0
 40
1.0
 40
1.0
 10
12.9029763264
 20
11.571770882
 30
0.0
 10
12.9070475315
 20
11.5696218267
 30
0.0
 10
12.9130609463
 20
11.5666844805
 30
0.0
 10
12.9209165627
 20
11.5632707219
 30
0.0
 10
12.9260829527
 20
11.5611811772
 30
0.0
 10
12.930524076
 20
11.559501607
 30
0.0
 10
12.9336682645
 20
11.558380034
 30
0.0
 10
12.9356261642
 20
11.5577015681
 30
0.0
 10
12.9365985259
 20
11.5573781001
 30
0.0
 10
12.9371898289
 20
11.55716993
 30
0.0
 10
12.9374604718
 20
11.5570898376
 30
0.0
 10
12.9375260729
 20
11.5570633721
 30
0.0
  0
SPLINE
  5
3C0
100
AcDbEntity
  8
0
100
AcDbSpline
 62
9
  6
CONTINUOUS
 70
0
 71
3
 72
11
 73
7
 74
0
 42
0.0000001
 43
0.0000001
 44
0.0000000001
 40
0.0
 40
0.0
 40
0.0
 40
0.0
 40
0.2528597789
 40
0.5043407258
 40
0.7534705821
 40
1.0
 40
1.0
 40
1.0
 40
1.0
 10
12.7116539398
 20
11.8545625338
 30
0.0
 10
12.711654212
 20
11.8467119933
 30
0.0
 10
12.7129335032
 20
11.831025206
 30
0.0
 10
12.7185383685
 20
11.8082179605
 30
0.0
 10
12.7274950912
 20
11.7867288282
 30
0.0
 10
12.7354260266
 20
11.7734739217
 30
0.0
 10
12.739788605
 20
11.7671849114
 30
0.0
  0
SPLINE
  5
3C1
100
AcDbEntity
  8
0
100
AcDbSpline
 62
9
  6
CONTINUOUS
 70
0
 71
3
 72
15
 73
11
 74
0
 42
0.0000001
 43
0.0000001
 44
0.0000000001
 40
0.0
 40
0.0
 40
0.0
 40
0.0
 40
0.0113191385
 40
0.0309590997
 40
0.0942449152
 40
0.1873304854
 40
0.3073930532
 40
0.4515693676
 40
0.61698367
 40
1.0
 40
1.0
 40
1.0
 40
1.0
 10
9.3596752364
 20
2.1452743366
 30
0.0
 10
9.3596944596
 20
2.1453076007
 30
0.0
 10
9.3597709704
 20
2.1453823489
 30
0.0
 10
9.3600119405
 20
2.1455903832
 30
0.0
 10
9.3604959604
 20
2.1459440062
 30
0.0
 10
9.3612646562
 20
2.1464803909
 30
0.0
 10
9.3622733948
 20
2.1471545361
 30
0.0
 10
9.3634944503
 20
2.1479516345
 30
0.0
 10
9.3654745399
 20
2.1492189389
 30
0.0
 10
9.3670533597
 20
2.1502051292
 30
0.0
 10
9.3681595813
 20
2.1508880231
 30
0.0
  0
SPLINE
  5
3C2
100
AcDbEntity
  8
0
100
AcDbSpline
 62
9
  6
CONTINUOUS
 70
0
 71
3
 72
11
 73
7
 74
0
 42
0.0000001
 43
0.0000001
 44
0.0000000001
 40
0.0
 40
0.0
 40
0.0
 40
0.0
 40
0.2465900117
 40
0.4957078818
 40
0.747139672
 40
1.0
 40
1.0
 40
1.0
 40
1.0
 10
12.739788605
 20
11.9419401562
 30
0.0
 10
12.7354247412
 20
11.9356497883
 30
0.0
 10
12.7274938052
 20
11.9223928243
 30
0.0
 10
12.7185424884
 20
11.9009021201
 30
0.0
 10
12.712929679
 20
11.8780988914
 30
0.0
 10
12.7116539967
 20
11.8624130573
 30
0.0
 10
12.7116539398
 20
11.8545625338
 30
0.0
  0
SPLINE
  5
3C3
100
AcDbEntity
  8
0
100
AcDbSpline
 62
9
  6
CONTINUOUS
 70
0
 71
3
 72
11
 73
7
 74
0
 42
0.0000001
 43
0.0000001
 44
0.0000000001
 40
0.0
 40
0.0
 40
0.0
 40
0.0
 40
0.2479012092
 40
0.4971955101
 40
0.7479706724
 40
1.0
 40
1.0
 40
1.0
 40
1.0
 10
9.6759188148
 20
1.9799720342
 30
0.0
 10
9.6455206619
 20
1.9791117892
 30
0.0
 10
9.5840441524
 20
1.9857622717
 30
0.0
 10
9.4975296726
 20
2.0194199642
 30
0.0
 10
9.4228811057
 20
2.0754253253
 30
0.0
 10
9.3840713749
 20
2.1243803147
 30
0.0
 10
9.3681595874
 20
2.150888027
 30
0.0
  0
SPLINE
  5
3C4
100
AcDbEntity
  8
0
100
AcDbSpline
 62
9
  6
CONTINUOUS
 70
0
 71
3
 72
12
 73
8
 74
0
 42
0.0000001
 43
0.0000001
 44
0.0000000001
 40
0.0
 40
0.0
 40
0.0
 40
0.0
 40
0.0623180727
 40
0.1461667023
 40
0.3732599396
 40
0.6647089248
 40
1.0
 40
1.0
 40
1.0
 40
1.0
 10
9.6793552891
 20
1.9677380396
 30
0.0
 10
9.6791564986
 20
1.9679158536
 30
0.0
 10
9.6787807358
 20
1.9684280437
 30
0.0
 10
9.6780629939
 20
1.969855701
 30
0.0
 10
9.6772689266
 20
1.9723224671
 30
0.0
 10
9.6764710699
 20
1.975888717
 30
0.0
 10
9.6760808667
 20
1.9785462082
 30
0.0
 10
9.6759188156
 20
1.9799720264
 30
0.0
  0
SPLINE
  5
3C5
100
AcDbEntity
  8
0
100
AcDbSpline
 62
9
  6
CONTINUOUS
 70
0
 71
3
 72
12
 73
8
 74
0
 42
0.0000001
 43
0.0000001
 44
0.0000000001
 40
0.0
 40
0.0
 40
0.0
 40
0.0
 40
0.0625468501
 40
0.1465158187
 40
0.3736203985
 40
0.6649089009
 40
1.0
 40
1.0
 40
1.0
 40
1.0
 10
9.6818866411
 20
1.9678272335
 30
0.0
 10
9.6816856656
 20
1.9680032443
 30
0.0
 10
9.6813039461
 20
1.9685112565
 30
0.0
 10
9.6805715564
 20
1.969929678
 30
0.0
 10
9.6797545141
 20
1.9723834034
 30
0.0
 10
9.67892577
 20
1.9759335889
 30
0.0
 10
9.6785135883
 20
1.9785807734
 30
0.0
 10
9.6783399556
 20
1.9800014609
 30
0.0
  0
SPLINE
  5
3C6
100
AcDbEntity
  8
0
100
AcDbSpline
 62
9
  6
CONTINUOUS
 70
0
 71
3
 72
12
 73
8
 74
0
 42
0.0000001
 43
0.0000001
 44
0.0000000001
 40
0.0
 40
0.0
 40
0.0
 40
0.0
 40
0.0625620223
 40
0.1465475699
 40
0.373679584
 40
0.6649666642
 40
1.0
 40
1.0
 40
1.0
 40
1.0
 10
10.0986989143
 20
1.9678272334
 30
0.0
 10
10.0988999385
 20
1.968003287
 30
0.0
 10
10.0992817316
 20
1.9685114189
 30
0.0
 10
10.100014187
 20
1.969930091
 30
0.0
 10
10.1008312068
 20
1.9723840164
 30
0.0
 10
10.1016598562
 20
1.9759340839
 30
0.0
 10
10.1020719969
 20
1.978581018
 30
0.0
 10
10.1022455997
 20
1.9800014609
 30
0.0
  0
SPLINE
  5
3C7
100
AcDbEntity
  8
0
100
AcDbSpline
 62
9
  6
CONTINUOUS
 70
0
 71
3
 72
15
 73
11
 74
0
 42
0.0000001
 43
0.0000001
 44
0.0000000001
 40
0.0
 40
0.0
 40
0.0
 40
0.0
 40
0.1259840786
 40
0.251822779
 40
0.3772946439
 40
0.5024928305
 40
0.6273529865
 40
0.7518569777
 40
0.876139251
 40
1.0
 40
1.0
 40
1.0
 40
1.0
 10
10.4209103183
 20
2.1452743366
 30
0.0
 10
10.4126794715
 20
2.1314358529
 30
0.0
 10
10.3944251737
 20
2.1048015258
 30
0.0
 10
10.362158435
 20
2.0687913555
 30
0.0
 10
10.325488231
 20
2.0374115554
 30
0.0
 10
10.2850659605
 20
2.0112725636
 30
0.0
 10
10.2416274556
 20
1.9908154944
 30
0.0
 10
10.1959359504
 20
1.9764320949
 30
0.0
 10
10.1488576156
 20
1.9683735811
 30
0.0
 10
10.1170522766
 20
1.9672387567
 30
0.0
 10
10.1012302655
 20
1.9677380396
 30
0.0
  0
SPLINE
  5
3C8
100
AcDbEntity
  8
0
100
AcDbSpline
 62
9
  6
CONTINUOUS
 70
0
 71
3
 72
12
 73
8
 74
0
 42
0.0000001
 43
0.0000001
 44
0.0000000001
 40
0.0
 40
0.0
 40
0.0
 40
0.0
 40
0.0623180726
 40
0.146166702
 40
0.373259939
 40
0.6647089242
 40
1.0
 40
1.0
 40
1.0
 40
1.0
 10
10.1012302656
 20
1.9677380396
 30
0.0
 10
10.1014290561
 20
1.9679158536
 30
0.0
 10
10.1018048189
 20
1.9684280437
 30
0.0
 10
10.1025225607
 20
1.9698557009
 30
0.0
 10
10.103316628
 20
1.9723224671
 30
0.0
 10
10.1041144848
 20
1.975888717
 30
0.0
 10
10.104504688
 20
1.9785462082
 30
0.0
 10
10.1046667391
 20
1.9799720264
 30
0.0
  0
SPLINE
  5
3C9
100
AcDbEntity
  8
0
100
AcDbSpline
 62
9
  6
CONTINUOUS
 70
0
 71
3
 72
11
 73
7
 74
0
 42
0.0000001
 43
0.0000001
 44
0.0000000001
 40
0.0
 40
0.0
 40
0.0
 40
0.0
 40
0.2519279963
 40
0.5026460475
 40
0.7520322147
 40
1.0
 40
1.0
 40
1.0
 40
1.0
 10
10.4124330259
 20
2.1508836116
 30
0.0
 10
10.3965273011
 20
2.1243858704
 30
0.0
 10
10.3577397286
 20
2.0754373606
 30
0.0
 10
10.2830969159
 20
2.0194311407
 30
0.0
 10
10.1965688403
 20
1.9857711759
 30
0.0
 10
10.1350728642
 20
1.97910334
 30
0.0
 10
10.1046657799
 20
1.9799631655
 30
0.0
  0
SPLINE
  5
3CA
100
AcDbEntity
  8
0
100
AcDbSpline
 62
9
  6
CONTINUOUS
 70
0
 71
3
 72
15
 73
11
 74
0
 42
0.0000001
 43
0.0000001
 44
0.0000000001
 40
0.0
 40
0.0
 40
0.0
 40
0.0
 40
0.0113191386
 40
0.0309590998
 40
0.0942449155
 40
0.1873304859
 40
0.3073930539
 40
0.4515693684
 40
0.6169836707
 40
1.0
 40
1.0
 40
1.0
 40
1.0
 10
10.4209103183
 20
2.1452743366
 30
0.0
 10
10.4208910951
 20
2.1453076008
 30
0.0
 10
10.4208145842
 20
2.1453823489
 30
0.0
 10
10.4205736142
 20
2.1455903832
 30
0.0
 10
10.4200895942
 20
2.1459440062
 30
0.0
 10
10.4193208984
 20
2.1464803909
 30
0.0
 10
10.4183121599
 20
2.1471545361
 30
0.0
 10
10.4170911043
 20
2.1479516345
 30
0.0
 10
10.4151110147
 20
2.1492189389
 30
0.0
 10
10.4135321949
 20
2.1502051292
 30
0.0
 10
10.4124259734
 20
2.1508880231
 30
0.0
  0
SPLINE
  5
3CB
100
AcDbEntity
  8
0
100
AcDbSpline
 62
9
  6
CONTINUOUS
 70
0
 71
3
 72
15
 73
11
 74
0
 42
0.0000001
 43
0.0000001
 44
0.0000000001
 40
0.0
 40
0.0
 40
0.0
 40
0.0
 40
0.0111088135
 40
0.0305875026
 40
0.0936341749
 40
0.186570038
 40
0.3065727409
 40
0.4507858966
 40
0.6163426387
 40
1.0
 40
1.0
 40
1.0
 40
1.0
 10
10.4222226349
 20
2.1474981379
 30
0.0
 10
10.4222026856
 20
2.1475298643
 30
0.0
 10
10.4221255736
 20
2.1476009877
 30
0.0
 10
10.4218833929
 20
2.1478015435
 30
0.0
 10
10.4213985194
 20
2.148144321
 30
0.0
 10
10.4206287749
 20
2.1486666108
 30
0.0
 10
10.4196189605
 20
2.1493246837
 30
0.0
 10
10.4183966391
 20
2.1501043073
 30
0.0
 10
10.41641394
 20
2.1513460677
 30
0.0
 10
10.4148338479
 20
2.1523138022
 30
0.0
 10
10.4137268538
 20
2.1529845069
 30
0.0
  0
SPLINE
  5
3CC
100
AcDbEntity
  8
0
100
AcDbSpline
 62
9
  6
CONTINUOUS
 70
0
 71
3
 72
10
 73
6
 74
0
 42
0.0000001
 43
0.0000001
 44
0.0000000001
 40
0.0
 40
0.0
 40
0.0
 40
0.0
 40
0.4217321038
 40
0.6919137523
 40
1.0
 40
1.0
 40
1.0
 40
1.0
 10
10.6306287696
 20
2.4947170503
 30
0.0
 10
10.6310570038
 20
2.4956753228
 30
0.0
 10
10.6309565214
 20
2.4975500252
 30
0.0
 10
10.630140063
 20
2.4998797955
 30
0.0
 10
10.6294644594
 20
2.5011636557
 30
0.0
 10
10.6290670539
 20
2.501819396
 30
0.0
  0
SPLINE
  5
3CD
100
AcDbEntity
  8
0
100
AcDbSpline
 62
9
  6
CONTINUOUS
 70
0
 71
3
 72
9
 73
5
 74
0
 42
0.0000001
 43
0.0000001
 44
0.0000000001
 40
0.0
 40
0.0
 40
0.0
 40
0.0
 40
0.2350098252
 40
1.0
 40
1.0
 40
1.0
 40
1.0
 10
10.6290670539
 20
2.501819396
 30
0.0
 10
10.6288447436
 20
2.5021862198
 30
0.0
 10
10.6278466173
 20
2.5037152249
 30
0.0
 10
10.626660106
 20
2.5051183522
 30
0.0
 10
10.6256796739
 20
2.5061124406
 30
0.0
  0
SPLINE
  5
3CE
100
AcDbEntity
  8
0
100
AcDbSpline
 62
9
  6
CONTINUOUS
 70
0
 71
3
 72
10
 73
6
 74
0
 42
0.0000001
 43
0.0000001
 44
0.0000000001
 40
0.0
 40
0.0
 40
0.0
 40
0.0
 40
0.4209698251
 40
0.6913252779
 40
1.0
 40
1.0
 40
1.0
 40
1.0
 10
10.6318478064
 20
2.4967106577
 30
0.0
 10
10.6322712158
 20
2.497666617
 30
0.0
 10
10.6321559726
 20
2.4995374689
 30
0.0
 10
10.6313202773
 20
2.5018543468
 30
0.0
 10
10.630633387
 20
2.5031310986
 30
0.0
 10
10.6302300444
 20
2.5037830487
 30
0.0
  0
SPLINE
  5
3CF
100
AcDbEntity
  8
0
100
AcDbSpline
 62
9
  6
CONTINUOUS
 70
0
 71
3
 72
9
 73
5
 74
0
 42
0.0000001
 43
0.0000001
 44
0.0000000001
 40
0.0
 40
0.0
 40
0.0
 40
0.0
 40
0.2348652181
 40
1.0
 40
1.0
 40
1.0
 40
1.0
 10
10.6302300444
 20
2.5037830487
 30
0.0
 10
10.6300042657
 20
2.5041479901
 30
0.0
 10
10.6289910145
 20
2.5056694227
 30
0.0
 10
10.6277904519
 20
2.5070631599
 30
0.0
 10
10.6267999351
 20
2.5080497448
 30
0.0
  0
SPLINE
  5
3D0
100
AcDbEntity
  8
0
100
AcDbSpline
 62
9
  6
CONTINUOUS
 70
0
 71
3
 72
13
 73
9
 74
0
 42
0.0000001
 43
0.0000001
 44
0.0000000001
 40
0.0
 40
0.0
 40
0.0
 40
0.0
 40
0.2559119289
 40
0.382728049
 40
0.5085139332
 40
0.6331730187
 40
0.756680841
 40
1.0
 40
1.0
 40
1.0
 40
1.0
 10
10.6460832656
 20
2.8072033184
 30
0.0
 10
10.6529338786
 20
2.7892996747
 30
0.0
 10
10.6612620966
 20
2.7617239997
 30
0.0
 10
10.6681277949
 20
2.7242307467
 30
0.0
 10
10.6710761713
 20
2.6960952558
 30
0.0
 10
10.6717647027
 20
2.668058602
 30
0.0
 10
10.6696294143
 20
2.6312773023
 30
0.0
 10
10.6646750778
 20
2.6040834343
 30
0.0
 10
10.6599191948
 20
2.5864886035
 30
0.0
  0
SPLINE
  5
3D1
100
AcDbEntity
  8
0
100
AcDbSpline
 62
9
  6
CONTINUOUS
 70
0
 71
3
 72
10
 73
6
 74
0
 42
0.0000001
 43
0.0000001
 44
0.0000000001
 40
0.0
 40
0.0
 40
0.0
 40
0.0
 40
0.5848809808
 40
0.8172250462
 40
1.0
 40
1.0
 40
1.0
 40
1.0
 10
9.1596796911
 20
11.0831664246
 30
0.0
 10
9.158072379
 20
11.0824239687
 30
0.0
 10
9.1557838021
 20
11.0814672087
 30
0.0
 10
9.1528925523
 20
11.0805672389
 30
0.0
 10
9.1516622226
 20
11.0802936268
 30
0.0
 10
9.1511137966
 20
11.0802204822
 30
0.0
  0
SPLINE
  5
3D2
100
AcDbEntity
  8
0
100
AcDbSpline
 62
9
  6
CONTINUOUS
 70
0
 71
3
 72
10
 73
6
 74
0
 42
0.0000001
 43
0.0000001
 44
0.0000000001
 40
0.0
 40
0.0
 40
0.0
 40
0.0
 40
0.3554786617
 40
0.6372385873
 40
1.0
 40
1.0
 40
1.0
 40
1.0
 10
9.1511137966
 20
11.0802204822
 30
0.0
 10
9.1508924936
 20
11.0801909666
 30
0.0
 10
9.1504881787
 20
11.0801542151
 30
0.0
 10
9.1498789877
 20
11.080165793
 30
0.0
 10
9.1494228829
 20
11.0803068327
 30
0.0
 10
9.1493089646
 20
11.0805041449
 30
0.0
  0
SPLINE
  5
3D3
100
AcDbEntity
  8
0
100
AcDbSpline
 62
9
  6
CONTINUOUS
 70
0
 71
3
 72
21
 73
17
 74
0
 42
0.0000001
 43
0.0000001
 44
0.0000000001
 40
0.0
 40
0.0
 40
0.0
 40
0.0
 40
0.0017574182
 40
0.0053166576
 40
0.010744859
 40
0.0180592035
 40
0.0383734937
 40
0.0662948307
 40
0.1018439156
 40
0.1450377739
 40
0.1958919588
 40
0.2544213203
 40
0.394563104
 40
0.565576921
 40
0.7675177568
 40
1.0
 40
1.0
 40
1.0
 40
1.0
 10
12.5463959479
 20
12.2147018564
 30
0.0
 10
12.5463865734
 20
12.2146943851
 30
0.0
 10
12.5463759267
 20
12.2146564435
 30
0.0
 10
12.5463599085
 20
12.2145872556
 30
0.0
 10
12.5463447548
 20
12.2144758243
 30
0.0
 10
12.5463199588
 20
12.2142524003
 30
0.0
 10
12.5462911645
 20
12.2138739944
 30
0.0
 10
12.5462572905
 20
12.2133037451
 30
0.0
 10
12.546222858
 20
12.2125768808
 30
0.0
 10
12.5461876843
 20
12.2116936195
 30
0.0
 10
12.5461521392
 20
12.2106534667
 30
0.0
 10
12.5461012885
 20
12.2089521951
 30
0.0
 10
12.5460392363
 20
12.2064312882
 30
0.0
 10
12.5459687834
 20
12.2029321184
 30
0.0
 10
12.5458998804
 20
12.1988029511
 30
0.0
 10
12.5458578905
 20
12.1958400105
 30
0.0
 10
12.5458368269
 20
12.1942543698
 30
0.0
  0
SPLINE
  5
3D4
100
AcDbEntity
  8
0
100
AcDbSpline
 62
9
  6
CONTINUOUS
 70
0
 71
3
 72
10
 73
6
 74
0
 42
0.0000001
 43
0.0000001
 44
0.0000000001
 40
0.0
 40
0.0
 40
0.0
 40
0.0
 40
0.1837101729
 40
0.4228918739
 40
1.0
 40
1.0
 40
1.0
 40
1.0
 10
12.5455553952
 20
12.1661926077
 30
0.0
 10
12.5454033774
 20
12.1471099066
 30
0.0
 10
12.54515896
 20
12.103181646
 30
0.0
 10
12.544806664
 20
11.9993049801
 30
0.0
 10
12.5447233886
 20
11.9145109359
 30
0.0
 10
12.5447189889
 20
11.8545625338
 30
0.0
  0
SPLINE
  5
3D5
100
AcDbEntity
  8
0
100
AcDbSpline
 62
9
  6
CONTINUOUS
 70
0
 71
3
 72
10
 73
6
 74
0
 42
0.0000001
 43
0.0000001
 44
0.0000000001
 40
0.0
 40
0.0
 40
0.0
 40
0.0
 40
0.5774183762
 40
0.8165543024
 40
1.0
 40
1.0
 40
1.0
 40
1.0
 10
12.5447189883
 20
11.8545625338
 30
0.0
 10
12.5447190967
 20
11.794517308
 30
0.0
 10
12.5448068861
 20
11.7096044372
 30
0.0
 10
12.5451609037
 20
11.6056159165
 30
0.0
 10
12.5454042332
 20
11.5616725966
 30
0.0
 10
12.5455581962
 20
11.5425968622
 30
0.0
  0
LINE
  5
3D6
100
AcDbEntity
  8
0
100
AcDbLine
 62
9
  6
CONTINUOUS
 10
12.5455581962
 20
11.5425968622
 11
12.5459625823
 21
11.5066618789
  0
SPLINE
  5
3D7
100
AcDbEntity
  8
0
100
AcDbSpline
 62
9
  6
CONTINUOUS
 70
0
 71
3
 72
18
 73
14
 74
0
 42
0.0000001
 43
0.0000001
 44
0.0000000001
 40
0.0
 40
0.0
 40
0.0
 40
0.0
 40
0.2329766746
 40
0.4353326809
 40
0.6069389492
 40
0.7476679706
 40
0.8573955781
 40
0.9005975375
 40
0.9360075473
 40
0.9636163894
 40
0.9834234143
 40
0.995458842
 40
1.0
 40
1.0
 40
1.0
 40
1.0
 10
12.5459625823
 20
11.5066618789
 30
0.0
 10
12.5459791564
 20
11.5057102107
 30
0.0
 10
12.5460120007
 20
11.5039319746
 30
0.0
 10
12.5460650096
 20
11.5014529652
 30
0.0
 10
12.5461180656
 20
11.499350767
 30
0.0
 10
12.5461711557
 20
11.4976275893
 30
0.0
 10
12.5462176677
 20
11.4964279896
 30
0.0
 10
12.546256772
 20
11.4956606611
 30
0.0
 10
12.5462831653
 20
11.4952251041
 30
0.0
 10
12.5463102361
 20
11.4948939625
 30
0.0
 10
12.5463340902
 20
11.4946381707
 30
0.0
 10
12.5463607959
 20
11.4945168408
 30
0.0
 10
12.5463773952
 20
11.4944233385
 30
0.0
 10
12.5463959473
 20
11.4944232051
 30
0.0
  0
SPLINE
  5
3D8
100
AcDbEntity
  8
0
100
AcDbSpline
 62
9
  6
CONTINUOUS
 70
0
 71
3
 72
11
 73
7
 74
0
 42
0.0000001
 43
0.0000001
 44
0.0000000001
 40
0.0
 40
0.0
 40
0.0
 40
0.0
 40
0.2812687465
 40
0.5529786604
 40
0.7975959191
 40
1.0
 40
1.0
 40
1.0
 40
1.0
 10
12.0188904744
 20
12.5999582634
 30
0.0
 10
12.0204459772
 20
12.6002266321
 30
0.0
 10
12.0235448448
 20
12.6005338504
 30
0.0
 10
12.0280332879
 20
12.6004012934
 30
0.0
 10
12.0320178244
 20
12.5997185222
 30
0.0
 10
12.0344022193
 20
12.5988219347
 30
0.0
 10
12.0353688695
 20
12.598225409
 30
0.0
  0
SPLINE
  5
3D9
100
AcDbEntity
  8
0
100
AcDbSpline
 62
9
  6
CONTINUOUS
 70
0
 71
3
 72
11
 73
7
 74
0
 42
0.0000001
 43
0.0000001
 44
0.0000000001
 40
0.0
 40
0.0
 40
0.0
 40
0.0
 40
0.2617373572
 40
0.5236652961
 40
0.7734565242
 40
1.0
 40
1.0
 40
1.0
 40
1.0
 10
12.0176583919
 20
12.6142095455
 30
0.0
 10
12.0192305058
 20
12.6142095433
 30
0.0
 10
12.0223811092
 20
12.613878516
 30
0.0
 10
12.0268669649
 20
12.6125884478
 30
0.0
 10
12.0308720403
 20
12.610635517
 30
0.0
 10
12.0331597472
 20
12.608857332
 30
0.0
 10
12.034091984
 20
12.6078661193
 30
0.0
  0
SPLINE
  5
3DA
100
AcDbEntity
  8
0
100
AcDbSpline
 62
9
  6
CONTINUOUS
 70
0
 71
3
 72
9
 73
5
 74
0
 42
0.0000001
 43
0.0000001
 44
0.0000000001
 40
0.0
 40
0.0
 40
0.0
 40
0.0
 40
0.531202372
 40
1.0
 40
1.0
 40
1.0
 40
1.0
 10
12.0188909764
 20
12.5999582633
 30
0.0
 10
12.0185068948
 20
12.6024636225
 30
0.0
 10
12.017910456
 20
12.6072007987
 30
0.0
 10
12.0176582273
 20
12.6119726806
 30
0.0
 10
12.0176582233
 20
12.6142095455
 30
0.0
  0
SPLINE
  5
3DB
100
AcDbEntity
  8
0
100
AcDbSpline
 62
9
  6
CONTINUOUS
 70
0
 71
3
 72
11
 73
7
 74
0
 42
0.0000001
 43
0.0000001
 44
0.0000000001
 40
0.0
 40
0.0
 40
0.0
 40
0.0
 40
0.2448314932
 40
0.4981909951
 40
0.7524968617
 40
1.0
 40
1.0
 40
1.0
 40
1.0
 10
12.0188906885
 20
12.8395625338
 30
0.0
 10
12.0204854855
 20
12.8395625161
 30
0.0
 10
12.0237398467
 20
12.839061337
 30
0.0
 10
12.0282981072
 20
12.8371540956
 30
0.0
 10
12.0323390599
 20
12.8342806866
 30
0.0
 10
12.0345063842
 20
12.8317729331
 30
0.0
 10
12.0353688695
 20
12.8304108365
 30
0.0
  0
SPLINE
  5
3DC
100
AcDbEntity
  8
0
100
AcDbSpline
 62
9
  6
CONTINUOUS
 70
0
 71
3
 72
11
 73
7
 74
0
 42
0.0000001
 43
0.0000001
 44
0.0000000001
 40
0.0
 40
0.0
 40
0.0
 40
0.0
 40
0.3654975603
 40
0.6362360504
 40
0.8312733415
 40
1.0
 40
1.0
 40
1.0
 40
1.0
 10
12.0176579234
 20
12.8367790287
 30
0.0
 10
12.017657924
 20
12.8371849675
 30
0.0
 10
12.0176927041
 20
12.8378943073
 30
0.0
 10
12.0178931076
 20
12.8387986039
 30
0.0
 10
12.018283598
 20
12.8394272683
 30
0.0
 10
12.0187032979
 20
12.8395625309
 30
0.0
 10
12.0188906937
 20
12.8395625338
 30
0.0
  0
SPLINE
  5
3DD
100
AcDbEntity
  8
0
100
AcDbSpline
 62
9
  6
CONTINUOUS
 70
0
 71
3
 72
9
 73
5
 74
0
 42
0.0000001
 43
0.0000001
 44
0.0000000001
 40
0.0
 40
0.0
 40
0.0
 40
0.0
 40
0.2418202256
 40
1.0
 40
1.0
 40
1.0
 40
1.0
 10
12.034091984
 20
12.8285770378
 30
0.0
 10
12.0335013945
 20
12.8293889737
 30
0.0
 10
12.03073564
 20
12.8325064998
 30
0.0
 10
12.0269845672
 20
12.8346831563
 30
0.0
 10
12.0240020486
 20
12.8356899857
 30
0.0
  0
SPLINE
  5
3DE
100
AcDbEntity
  8
0
100
AcDbSpline
 62
9
  6
CONTINUOUS
 70
0
 71
3
 72
9
 73
5
 74
0
 42
0.0000001
 43
0.0000001
 44
0.0000000001
 40
0.0
 40
0.0
 40
0.0
 40
0.0
 40
0.2540210226
 40
1.0
 40
1.0
 40
1.0
 40
1.0
 10
12.0240020486
 20
12.8356899857
 30
0.0
 10
12.0234844493
 20
12.8358647152
 30
0.0
 10
12.0214230143
 20
12.8364772824
 30
0.0
 10
12.0192626898
 20
12.8367790206
 30
0.0
 10
12.0176583919
 20
12.8367790287
 30
0.0
  0
LINE
  5
3DF
100
AcDbEntity
  8
0
100
AcDbLine
 62
9
  6
CONTINUOUS
 10
12.0353688695
 20
12.8304108365
 11
12.062648164
 21
12.8293506358
  0
SPLINE
  5
3E0
100
AcDbEntity
  8
0
100
AcDbSpline
 62
9
  6
CONTINUOUS
 70
0
 71
3
 72
9
 73
5
 74
0
 42
0.0000001
 43
0.0000001
 44
0.0000000001
 40
0.0
 40
0.0
 40
0.0
 40
0.0
 40
0.3225511901
 40
1.0
 40
1.0
 40
1.0
 40
1.0
 10
12.0340917782
 20
12.8285773207
 30
0.0
 10
12.0340917804
 20
12.8287693762
 30
0.0
 10
12.0341171346
 20
12.8293517723
 30
0.0
 10
12.0343436438
 20
12.8300033534
 30
0.0
 10
12.0346762015
 20
12.8302316367
 30
0.0
  0
LINE
  5
3E1
100
AcDbEntity
  8
0
100
AcDbLine
 62
9
  6
CONTINUOUS
 10
12.0346762015
 20
12.8302316367
 11
12.035368678
 21
12.8304111399
  0
SPLINE
  5
3E2
100
AcDbEntity
  8
0
100
AcDbSpline
 62
9
  6
CONTINUOUS
 70
0
 71
3
 72
9
 73
5
 74
0
 42
0.0000001
 43
0.0000001
 44
0.0000000001
 40
0.0
 40
0.0
 40
0.0
 40
0.0
 40
0.5331479701
 40
1.0
 40
1.0
 40
1.0
 40
1.0
 10
12.0353687095
 20
12.5982255059
 30
0.0
 10
12.0349737806
 20
12.5999108621
 30
0.0
 10
12.0343602614
 20
12.6031036702
 30
0.0
 10
12.0340918193
 20
12.6063505403
 30
0.0
 10
12.0340918121
 20
12.6078663022
 30
0.0
  0
SPLINE
  5
3E3
100
AcDbEntity
  8
0
100
AcDbSpline
 62
9
  6
CONTINUOUS
 70
0
 71
3
 72
11
 73
7
 74
0
 42
0.0000001
 43
0.0000001
 44
0.0000000001
 40
0.0
 40
0.0
 40
0.0
 40
0.0
 40
0.2496095564
 40
0.4989395059
 40
0.7488406063
 40
1.0
 40
1.0
 40
1.0
 40
1.0
 10
12.0353688695
 20
12.0867479614
 30
0.0
 10
12.0452253188
 20
12.1284772708
 30
0.0
 10
12.0589697016
 20
12.213353404
 30
0.0
 10
12.0653408844
 20
12.3420330173
 30
0.0
 10
12.0589451554
 20
12.4709772657
 30
0.0
 10
12.0452121807
 20
12.5562195113
 30
0.0
 10
12.0353688695
 20
12.5982254089
 30
0.0
  0
SPLINE
  5
3E4
100
AcDbEntity
  8
0
100
AcDbSpline
 62
9
  6
CONTINUOUS
 70
0
 71
3
 72
9
 73
5
 74
0
 42
0.0000001
 43
0.0000001
 44
0.0000000001
 40
0.0
 40
0.0
 40
0.0
 40
0.0
 40
0.2598936044
 40
1.0
 40
1.0
 40
1.0
 40
1.0
 10
12.0340917776
 20
12.0752735166
 30
0.0
 10
12.0340917811
 20
12.0762749363
 30
0.0
 10
12.034196611
 20
12.0801267017
 30
0.0
 10
12.0347131395
 20
12.0839727449
 30
0.0
 10
12.0353686775
 20
12.0867481493
 30
0.0
  0
SPLINE
  5
3E5
100
AcDbEntity
  8
0
100
AcDbSpline
 62
9
  6
CONTINUOUS
 70
0
 71
3
 72
11
 73
7
 74
0
 42
0.0000001
 43
0.0000001
 44
0.0000000001
 40
0.0
 40
0.0
 40
0.0
 40
0.0
 40
0.2667808223
 40
0.5345767254
 40
0.7848344213
 40
1.0
 40
1.0
 40
1.0
 40
1.0
 10
12.0188906886
 20
12.094166767
 30
0.0
 10
12.0204920985
 20
12.0938904691
 30
0.0
 10
12.0236622235
 20
12.093100511
 30
0.0
 10
12.0281442948
 20
12.091406301
 30
0.0
 10
12.0321122933
 20
12.089338011
 30
0.0
 10
12.0344243965
 20
12.0876566984
 30
0.0
 10
12.0353688695
 20
12.0867479612
 30
0.0
  0
SPLINE
  5
3E6
100
AcDbEntity
  8
0
100
AcDbSpline
 62
9
  6
CONTINUOUS
 70
0
 71
3
 72
9
 73
5
 74
0
 42
0.0000001
 43
0.0000001
 44
0.0000000001
 40
0.0
 40
0.0
 40
0.0
 40
0.0
 40
0.2603556752
 40
1.0
 40
1.0
 40
1.0
 40
1.0
 10
12.0176579238
 20
12.0771320169
 30
0.0
 10
12.0176579244
 20
12.0786150247
 30
0.0
 10
12.0177587124
 20
12.084310128
 30
0.0
 10
12.018252198
 20
12.0900023914
 30
0.0
 10
12.0188906939
 20
12.0941668043
 30
0.0
  0
SPLINE
  5
3E7
100
AcDbEntity
  8
0
100
AcDbSpline
 62
9
  6
CONTINUOUS
 70
0
 71
3
 72
10
 73
6
 74
0
 42
0.0000001
 43
0.0000001
 44
0.0000000001
 40
0.0
 40
0.0
 40
0.0
 40
0.0
 40
0.1968256687
 40
0.4424536547
 40
1.0
 40
1.0
 40
1.0
 40
1.0
 10
12.034091984
 20
12.0752734523
 30
0.0
 10
12.0330535129
 20
12.0755969631
 30
0.0
 10
12.0306573277
 20
12.0761184947
 30
0.0
 10
12.0251847919
 20
12.07688748
 30
0.0
 10
12.0207394974
 20
12.0771320134
 30
0.0
 10
12.0176583919
 20
12.0771320169
 30
0.0
  0
SPLINE
  5
3E8
100
AcDbEntity
  8
0
100
AcDbSpline
 62
9
  6
CONTINUOUS
 70
0
 71
3
 72
9
 73
5
 74
0
 42
0.0000001
 43
0.0000001
 44
0.0000000001
 40
0.0
 40
0.0
 40
0.0
 40
0.0
 40
0.2394782846
 40
1.0
 40
1.0
 40
1.0
 40
1.0
 10
12.0353687095
 20
11.6223769497
 30
0.0
 10
12.035156587
 20
11.6232750314
 30
0.0
 10
12.0343934119
 20
11.627053621
 30
0.0
 10
12.0340918217
 20
11.630921008
 30
0.0
 10
12.0340918121
 20
11.6338515618
 30
0.0
  0
SPLINE
  5
3E9
100
AcDbEntity
  8
0
100
AcDbSpline
 62
9
  6
CONTINUOUS
 70
0
 71
3
 72
15
 73
11
 74
0
 42
0.0000001
 43
0.0000001
 44
0.0000000001
 40
0.0
 40
0.0
 40
0.0
 40
0.0
 40
0.1257297584
 40
0.2511291862
 40
0.3762179211
 40
0.5010194696
 40
0.6256925857
 40
0.7503871056
 40
0.8751310278
 40
1.0
 40
1.0
 40
1.0
 40
1.0
 10
12.0353688695
 20
11.1108996587
 30
0.0
 10
12.0402985338
 20
11.1319366914
 30
0.0
 10
12.0486742758
 20
11.174312472
 30
0.0
 10
12.0571891694
 20
11.2384382861
 30
0.0
 10
12.062140071
 20
11.3027720811
 30
0.0
 10
12.0638038949
 20
11.3671481885
 30
0.0
 10
12.0621317105
 20
11.4314558957
 30
0.0
 10
12.0572022539
 20
11.4955885155
 30
0.0
 10
12.0486853513
 20
11.5593837109
 30
0.0
 10
12.0403017364
 20
11.6014927934
 30
0.0
 10
12.0353688695
 20
11.6223771062
 30
0.0
  0
SPLINE
  5
3EA
100
AcDbEntity
  8
0
100
AcDbSpline
 62
9
  6
CONTINUOUS
 70
0
 71
3
 72
9
 73
5
 74
0
 42
0.0000001
 43
0.0000001
 44
0.0000000001
 40
0.0
 40
0.0
 40
0.0
 40
0.0
 40
0.4668547088
 40
1.0
 40
1.0
 40
1.0
 40
1.0
 10
12.0340917776
 20
11.1012587288
 30
0.0
 10
12.0340917852
 20
11.1027745021
 30
0.0
 10
12.0343602286
 20
11.1060213779
 30
0.0
 10
12.0349737494
 20
11.1092141916
 30
0.0
 10
12.0353686775
 20
11.1108995423
 30
0.0
  0
LINE
  5
3EB
100
AcDbEntity
  8
0
100
AcDbLine
 62
9
  6
CONTINUOUS
 10
9.1499551795
 20
2.4947206479
 11
9.1548555078
 21
2.4867812867
  0
SPLINE
  5
3EC
100
AcDbEntity
  8
0
100
AcDbSpline
 62
9
  6
CONTINUOUS
 70
0
 71
3
 72
11
 73
7
 74
0
 42
0.0000001
 43
0.0000001
 44
0.0000000001
 40
0.0
 40
0.0
 40
0.0
 40
0.0
 40
0.2385775902
 40
0.4854783885
 40
0.7406143272
 40
1.0
 40
1.0
 40
1.0
 40
1.0
 10
9.1548555078
 20
2.4867812867
 30
0.0
 10
9.1713763222
 20
2.4600033773
 30
0.0
 10
9.2048867072
 20
2.4054467822
 30
0.0
 10
9.2554671215
 20
2.3218882929
 30
0.0
 10
9.3067475364
 20
2.2355499829
 30
0.0
 10
9.3410922113
 20
2.1770269818
 30
0.0
 10
9.3583632059
 20
2.1474985837
 30
0.0
  0
SPLINE
  5
3ED
100
AcDbEntity
  8
0
100
AcDbSpline
 62
9
  6
CONTINUOUS
 70
0
 71
3
 72
9
 73
5
 74
0
 42
0.0000001
 43
0.0000001
 44
0.0000000001
 40
0.0
 40
0.0
 40
0.0
 40
0.0
 40
0.4905292263
 40
1.0
 40
1.0
 40
1.0
 40
1.0
 10
12.0353687095
 20
10.8787139776
 30
0.0
 10
12.0351233789
 20
10.8787057087
 30
0.0
 10
12.0345840614
 20
10.8788223954
 30
0.0
 10
12.0343090901
 20
10.8792973792
 30
0.0
 10
12.0342282461
 20
10.8795391705
 30
0.0
  0
LINE
  5
3EE
100
AcDbEntity
  8
0
100
AcDbLine
 62
9
  6
CONTINUOUS
 10
12.0342282461
 20
10.8795391705
 11
12.0340918121
 21
10.8805477934
  0
SPLINE
  5
3EF
100
AcDbEntity
  8
0
100
AcDbSpline
 62
9
  6
CONTINUOUS
 70
0
 71
3
 72
10
 73
6
 74
0
 42
0.0000001
 43
0.0000001
 44
0.0000000001
 40
0.0
 40
0.0
 40
0.0
 40
0.0
 40
0.2444541551
 40
0.4983963511
 40
1.0
 40
1.0
 40
1.0
 40
1.0
 10
11.7336950802
 20
12.8395625338
 30
0.0
 10
11.732108836
 20
12.8395625338
 30
0.0
 10
11.7288617608
 20
12.8390611729
 30
0.0
 10
11.7228490373
 20
12.836565905
 30
0.0
 10
11.7189579553
 20
12.8331607712
 30
0.0
 10
11.7172166851
 20
12.8304108365
 30
0.0
  0
SPLINE
  5
3F0
100
AcDbEntity
  8
0
100
AcDbSpline
 62
9
  6
CONTINUOUS
 70
0
 71
3
 72
9
 73
5
 74
0
 42
0.0000001
 43
0.0000001
 44
0.0000000001
 40
0.0
 40
0.0
 40
0.0
 40
0.0
 40
0.2466701217
 40
1.0
 40
1.0
 40
1.0
 40
1.0
 10
11.7349271628
 20
12.8367790287
 30
0.0
 10
11.7338916543
 20
12.8367790268
 30
0.0
 10
11.7296984693
 20
12.8363989583
 30
0.0
 10
11.7256551656
 20
12.8347172793
 30
0.0
 10
11.7230484323
 20
12.8329267575
 30
0.0
  0
SPLINE
  5
3F1
100
AcDbEntity
  8
0
100
AcDbSpline
 62
9
  6
CONTINUOUS
 70
0
 71
3
 72
9
 73
5
 74
0
 42
0.0000001
 43
0.0000001
 44
0.0000000001
 40
0.0
 40
0.0
 40
0.0
 40
0.0
 40
0.2566517133
 40
1.0
 40
1.0
 40
1.0
 40
1.0
 10
11.7230484323
 20
12.8329267575
 30
0.0
 10
11.7226031549
 20
12.8326209038
 30
0.0
 10
11.7209142492
 20
12.8313653312
 30
0.0
 10
11.719413919
 20
12.8298423225
 30
0.0
 10
11.7184935706
 20
12.8285770378
 30
0.0
  0
SPLINE
  5
3F2
100
AcDbEntity
  8
0
100
AcDbSpline
 62
9
  6
CONTINUOUS
 70
0
 71
3
 72
9
 73
5
 74
0
 42
0.0000001
 43
0.0000001
 44
0.0000000001
 40
0.0
 40
0.0
 40
0.0
 40
0.0
 40
0.4999960362
 40
1.0
 40
1.0
 40
1.0
 40
1.0
 10
9.6818873768
 20
1.9678265888
 30
0.0
 10
9.7513169575
 20
1.97064367
 30
0.0
 10
9.8902922253
 20
1.9747051868
 30
0.0
 10
10.0292674959
 20
1.9706437043
 30
0.0
 10
10.0986981779
 20
1.9678265888
 30
0.0
  0
SPLINE
  5
3F3
100
AcDbEntity
  8
0
100
AcDbSpline
 62
9
  6
CONTINUOUS
 70
0
 71
3
 72
11
 73
7
 74
0
 42
0.0000001
 43
0.0000001
 44
0.0000000001
 40
0.0
 40
0.0
 40
0.0
 40
0.0
 40
0.1687477534
 40
0.3637946321
 40
0.6345169093
 40
1.0
 40
1.0
 40
1.0
 40
1.0
 10
11.7336945784
 20
12.8395625338
 30
0.0
 10
11.7338820041
 20
12.8395625303
 30
0.0
 10
11.7343017467
 20
12.8394272828
 30
0.0
 10
11.7346923906
 20
12.8387986547
 30
0.0
 10
11.734892643
 20
12.8378942845
 30
0.0
 10
11.7349273298
 20
12.8371849655
 30
0.0
 10
11.7349273314
 20
12.8367790287
 30
0.0
  0
SPLINE
  5
3F4
100
AcDbEntity
  8
0
100
AcDbSpline
 62
9
  6
CONTINUOUS
 70
0
 71
3
 72
11
 73
7
 74
0
 42
0.0000001
 43
0.0000001
 44
0.0000000001
 40
0.0
 40
0.0
 40
0.0
 40
0.0
 40
0.2827582955
 40
0.5547194353
 40
0.7987544316
 40
1.0
 40
1.0
 40
1.0
 40
1.0
 10
11.7336948661
 20
12.5999583006
 30
0.0
 10
11.7321311452
 20
12.6002280784
 30
0.0
 10
11.7290224059
 20
12.6005358634
 30
0.0
 10
11.7245275013
 20
12.6003989821
 30
0.0
 10
11.72055213
 20
12.599712709
 30
0.0
 10
11.7181777896
 20
12.5988185125
 30
0.0
 10
11.7172166851
 20
12.5982254091
 30
0.0
  0
SPLINE
  5
3F5
100
AcDbEntity
  8
0
100
AcDbSpline
 62
9
  6
CONTINUOUS
 70
0
 71
3
 72
9
 73
5
 74
0
 42
0.0000001
 43
0.0000001
 44
0.0000000001
 40
0.0
 40
0.0
 40
0.0
 40
0.0
 40
0.4687978661
 40
1.0
 40
1.0
 40
1.0
 40
1.0
 10
11.7349276307
 20
12.6142095455
 30
0.0
 10
11.7349276294
 20
12.6119726815
 30
0.0
 10
11.7346749742
 20
12.6072008321
 30
0.0
 10
11.7340789868
 20
12.6024636122
 30
0.0
 10
11.7336948609
 20
12.5999582633
 30
0.0
  0
SPLINE
  5
3F6
100
AcDbEntity
  8
0
100
AcDbSpline
 62
9
  6
CONTINUOUS
 70
0
 71
3
 72
11
 73
7
 74
0
 42
0.0000001
 43
0.0000001
 44
0.0000000001
 40
0.0
 40
0.0
 40
0.0
 40
0.0
 40
0.2265434706
 40
0.4763347151
 40
0.7382626985
 40
1.0
 40
1.0
 40
1.0
 40
1.0
 10
11.7184935706
 20
12.6078661193
 30
0.0
 10
11.7194258073
 20
12.6088573319
 30
0.0
 10
11.7217135153
 20
12.6106355151
 30
0.0
 10
11.7257185923
 20
12.6125884415
 30
0.0
 10
11.7302044475
 20
12.6138785081
 30
0.0
 10
11.7333550494
 20
12.6142095394
 30
0.0
 10
11.7349271628
 20
12.6142095455
 30
0.0
  0
SPLINE
  5
3F7
100
AcDbEntity
  8
0
100
AcDbSpline
 62
9
  6
CONTINUOUS
 70
0
 71
3
 72
11
 73
7
 74
0
 42
0.0000001
 43
0.0000001
 44
0.0000000001
 40
0.0
 40
0.0
 40
0.0
 40
0.0
 40
0.2501515675
 40
0.5000185939
 40
0.7498691721
 40
1.0
 40
1.0
 40
1.0
 40
1.0
 10
12.0188904744
 20
12.5999582633
 30
0.0
 10
12.028413738
 20
12.5585593913
 30
0.0
 10
12.0418857331
 20
12.4744527115
 30
0.0
 10
12.0476934768
 20
12.3470558124
 30
0.0
 10
12.0418856899
 20
12.2196623557
 30
0.0
 10
12.0284129973
 20
12.1355622328
 30
0.0
 10
12.0188904744
 20
12.0941668043
 30
0.0
  0
SPLINE
  5
3F8
100
AcDbEntity
  8
0
100
AcDbSpline
 62
9
  6
CONTINUOUS
 70
0
 71
3
 72
11
 73
7
 74
0
 42
0.0000001
 43
0.0000001
 44
0.0000000001
 40
0.0
 40
0.0
 40
0.0
 40
0.0
 40
0.2501316251
 40
0.4999828416
 40
0.7498491835
 40
1.0
 40
1.0
 40
1.0
 40
1.0
 10
11.7336950802
 20
12.0941668043
 30
0.0
 10
11.7241725278
 20
12.1355623638
 30
0.0
 10
11.7106998967
 20
12.2196627452
 30
0.0
 10
11.7048921591
 20
12.3470563223
 30
0.0
 10
11.7106998486
 20
12.4744530863
 30
0.0
 10
11.7241718446
 20
12.5585595169
 30
0.0
 10
11.7336950802
 20
12.5999582633
 30
0.0
  0
SPLINE
  5
3F9
100
AcDbEntity
  8
0
100
AcDbSpline
 62
9
  6
CONTINUOUS
 70
0
 71
3
 72
11
 73
7
 74
0
 42
0.0000001
 43
0.0000001
 44
0.0000000001
 40
0.0
 40
0.0
 40
0.0
 40
0.0
 40
0.2653519284
 40
0.5328265545
 40
0.7836119077
 40
1.0
 40
1.0
 40
1.0
 40
1.0
 10
11.7336950803
 20
12.0941668042
 30
0.0
 10
11.7321022264
 20
12.0938919914
 30
0.0
 10
11.7289424254
 20
12.0931051255
 30
0.0
 10
11.7244659659
 20
12.0914172633
 30
0.0
 10
11.7204881085
 20
12.0893488359
 30
0.0
 10
11.7181665361
 20
12.0876618731
 30
0.0
 10
11.7172166851
 20
12.0867479614
 30
0.0
  0
SPLINE
  5
3FA
100
AcDbEntity
  8
0
100
AcDbSpline
 62
9
  6
CONTINUOUS
 70
0
 71
3
 72
11
 73
7
 74
0
 42
0.0000001
 43
0.0000001
 44
0.0000000001
 40
0.0
 40
0.0
 40
0.0
 40
0.0
 40
0.2593834496
 40
0.514517582
 40
0.7614200276
 40
1.0
 40
1.0
 40
1.0
 40
1.0
 10
10.4222223543
 20
2.1474985749
 30
0.0
 10
10.4394931212
 20
2.1770265813
 30
0.0
 10
10.4738373576
 20
2.2355488558
 30
0.0
 10
10.5251173612
 20
2.3218864988
 30
0.0
 10
10.575697684
 20
2.4054448524
 30
0.0
 10
10.609208181
 20
2.4600016512
 30
0.0
 10
10.6257290817
 20
2.4867797036
 30
0.0
  0
LINE
  5
3FB
100
AcDbEntity
  8
0
100
AcDbLine
 62
9
  6
CONTINUOUS
 10
10.6257290817
 20
2.4867797036
 11
10.6306303438
 21
2.4947205778
  0
SPLINE
  5
3FC
100
AcDbEntity
  8
0
100
AcDbSpline
 62
9
  6
CONTINUOUS
 70
0
 71
3
 72
10
 73
6
 74
0
 42
0.0000001
 43
0.0000001
 44
0.0000000001
 40
0.0
 40
0.0
 40
0.0
 40
0.0
 40
0.5575464605
 40
0.8031743724
 40
1.0
 40
1.0
 40
1.0
 40
1.0
 10
11.7349271628
 20
12.077132017
 30
0.0
 10
11.7318460566
 20
12.0771320157
 30
0.0
 10
11.7274007616
 20
12.0768874826
 30
0.0
 10
11.7219282259
 20
12.0761184955
 30
0.0
 10
11.7195320415
 20
12.075596963
 30
0.0
 10
11.7184935706
 20
12.0752734523
 30
0.0
  0
SPLINE
  5
3FD
100
AcDbEntity
  8
0
100
AcDbSpline
 62
9
  6
CONTINUOUS
 70
0
 71
3
 72
9
 73
5
 74
0
 42
0.0000001
 43
0.0000001
 44
0.0000000001
 40
0.0
 40
0.0
 40
0.0
 40
0.0
 40
0.2384750205
 40
1.0
 40
1.0
 40
1.0
 40
1.0
 10
11.7336945785
 20
12.0941668043
 30
0.0
 10
11.7339004234
 20
12.0928240774
 30
0.0
 10
11.7346450552
 20
12.0871756419
 30
0.0
 10
11.7349273256
 20
12.0814698545
 30
0.0
 10
11.734927331
 20
12.0771320169
 30
0.0
  0
SPLINE
  5
3FE
100
AcDbEntity
  8
0
100
AcDbSpline
 62
9
  6
CONTINUOUS
 70
0
 71
3
 72
11
 73
7
 74
0
 42
0.0000001
 43
0.0000001
 44
0.0000000001
 40
0.0
 40
0.0
 40
0.0
 40
0.0
 40
0.2667808218
 40
0.5345767251
 40
0.7848344212
 40
1.0
 40
1.0
 40
1.0
 40
1.0
 10
11.7336948661
 20
11.6149583006
 30
0.0
 10
11.7320934563
 20
11.6152345985
 30
0.0
 10
11.7289233312
 20
11.6160245566
 30
0.0
 10
11.7244412599
 20
11.6177187666
 30
0.0
 10
11.7204732613
 20
11.6197870566
 30
0.0
 10
11.7181611581
 20
11.6214683692
 30
0.0
 10
11.7172166851
 20
11.6223771064
 30
0.0
  0
SPLINE
  5
3FF
100
AcDbEntity
  8
0
100
AcDbSpline
 62
9
  6
CONTINUOUS
 70
0
 71
3
 72
9
 73
5
 74
0
 42
0.0000001
 43
0.0000001
 44
0.0000000001
 40
0.0
 40
0.0
 40
0.0
 40
0.0
 40
0.2603556753
 40
1.0
 40
1.0
 40
1.0
 40
1.0
 10
11.7349276307
 20
11.6319930507
 30
0.0
 10
11.7349276301
 20
11.6305100429
 30
0.0
 10
11.7348268422
 20
11.6248149396
 30
0.0
 10
11.7343333568
 20
11.6191226762
 30
0.0
 10
11.7336948609
 20
11.6149582633
 30
0.0
  0
SPLINE
  5
400
100
AcDbEntity
  8
0
100
AcDbSpline
 62
9
  6
CONTINUOUS
 70
0
 71
3
 72
10
 73
6
 74
0
 42
0.0000001
 43
0.0000001
 44
0.0000000001
 40
0.0
 40
0.0
 40
0.0
 40
0.0
 40
0.1968256686
 40
0.4424536547
 40
1.0
 40
1.0
 40
1.0
 40
1.0
 10
11.7184935706
 20
11.6338516154
 30
0.0
 10
11.7195320417
 20
11.6335281045
 30
0.0
 10
11.7219282269
 20
11.6330065729
 30
0.0
 10
11.7274007628
 20
11.6322375876
 30
0.0
 10
11.7318460573
 20
11.6319930542
 30
0.0
 10
11.7349271628
 20
11.6319930507
 30
0.0
  0
SPLINE
  5
401
100
AcDbEntity
  8
0
100
AcDbSpline
 62
9
  6
CONTINUOUS
 70
0
 71
3
 72
11
 73
7
 74
0
 42
0.0000001
 43
0.0000001
 44
0.0000000001
 40
0.0
 40
0.0
 40
0.0
 40
0.0
 40
0.2501325498
 40
0.4999857256
 40
0.7498513803
 40
1.0
 40
1.0
 40
1.0
 40
1.0
 10
12.0188920176
 20
11.6149585296
 30
0.0
 10
12.0284146157
 20
11.573562769
 30
0.0
 10
12.0418872905
 20
11.4894618039
 30
0.0
 10
12.0476952959
 20
11.3620677163
 30
0.0
 10
12.0418874287
 20
11.2346709525
 30
0.0
 10
12.0284152372
 20
11.150564956
 30
0.0
 10
12.0188920176
 20
11.1091665381
 30
0.0
  0
SPLINE
  5
402
100
AcDbEntity
  8
0
100
AcDbSpline
 62
9
  6
CONTINUOUS
 70
0
 71
3
 72
11
 73
7
 74
0
 42
0.0000001
 43
0.0000001
 44
0.0000000001
 40
0.0
 40
0.0
 40
0.0
 40
0.0
 40
0.2501515199
 40
0.5000203952
 40
0.7498711127
 40
1.0
 40
1.0
 40
1.0
 40
1.0
 10
11.7336950802
 20
11.1091668043
 30
0.0
 10
11.7241717645
 20
11.1505656614
 30
0.0
 10
11.7106996781
 20
11.2346726435
 30
0.0
 10
11.7048916709
 20
11.3620698841
 30
0.0
 10
11.7106997882
 20
11.4894633659
 30
0.0
 10
11.7241726299
 20
11.5735631509
 30
0.0
 10
11.7336950802
 20
11.6149582633
 30
0.0
  0
SPLINE
  5
403
100
AcDbEntity
  8
0
100
AcDbSpline
 62
9
  6
CONTINUOUS
 70
0
 71
3
 72
11
 73
7
 74
0
 42
0.0000001
 43
0.0000001
 44
0.0000000001
 40
0.0
 40
0.0
 40
0.0
 40
0.0
 40
0.2812618059
 40
0.5529705338
 40
0.7975904975
 40
1.0
 40
1.0
 40
1.0
 40
1.0
 10
11.7336950802
 20
11.1091668043
 30
0.0
 10
11.7321396158
 20
11.1088984422
 30
0.0
 10
11.7290407945
 20
11.1085912265
 30
0.0
 10
11.7245523819
 20
11.1087237632
 30
0.0
 10
11.7205678028
 20
11.1094065182
 30
0.0
 10
11.7181833612
 20
11.110303117
 30
0.0
 10
11.7172166851
 20
11.1108996587
 30
0.0
  0
SPLINE
  5
404
100
AcDbEntity
  8
0
100
AcDbSpline
 62
9
  6
CONTINUOUS
 70
0
 71
3
 72
11
 73
7
 74
0
 42
0.0000001
 43
0.0000001
 44
0.0000000001
 40
0.0
 40
0.0
 40
0.0
 40
0.0
 40
0.2617373573
 40
0.5236652961
 40
0.7734565242
 40
1.0
 40
1.0
 40
1.0
 40
1.0
 10
11.7349271628
 20
11.0949155221
 30
0.0
 10
11.7333550488
 20
11.0949155243
 30
0.0
 10
11.7302044454
 20
11.0952465516
 30
0.0
 10
11.7257185897
 20
11.0965366199
 30
0.0
 10
11.7217135143
 20
11.0984895506
 30
0.0
 10
11.7194258074
 20
11.1002677356
 30
0.0
 10
11.7184935706
 20
11.1012589483
 30
0.0
  0
SPLINE
  5
405
100
AcDbEntity
  8
0
100
AcDbSpline
 62
9
  6
CONTINUOUS
 70
0
 71
3
 72
9
 73
5
 74
0
 42
0.0000001
 43
0.0000001
 44
0.0000000001
 40
0.0
 40
0.0
 40
0.0
 40
0.0
 40
0.5312023719
 40
1.0
 40
1.0
 40
1.0
 40
1.0
 10
11.7336945785
 20
11.1091668043
 30
0.0
 10
11.7340786602
 20
11.1066614452
 30
0.0
 10
11.7346750987
 20
11.1019242689
 30
0.0
 10
11.734927327
 20
11.097152387
 30
0.0
 10
11.734927331
 20
11.0949155221
 30
0.0
  0
SPLINE
  5
406
100
AcDbEntity
  8
0
100
AcDbSpline
 62
9
  6
CONTINUOUS
 70
0
 71
3
 72
11
 73
7
 74
0
 42
0.0000001
 43
0.0000001
 44
0.0000000001
 40
0.0
 40
0.0
 40
0.0
 40
0.0
 40
0.2448314932
 40
0.4981909951
 40
0.7524968617
 40
1.0
 40
1.0
 40
1.0
 40
1.0
 10
11.7336948662
 20
10.8695625338
 30
0.0
 10
11.7321000692
 20
10.8695625516
 30
0.0
 10
11.7288457079
 20
10.8700637307
 30
0.0
 10
11.7242874474
 20
10.871970972
 30
0.0
 10
11.7202464947
 20
10.8748443811
 30
0.0
 10
11.7180791704
 20
10.8773521345
 30
0.0
 10
11.7172166851
 20
10.8787142311
 30
0.0
  0
SPLINE
  5
407
100
AcDbEntity
  8
0
100
AcDbSpline
 62
9
  6
CONTINUOUS
 70
0
 71
3
 72
11
 73
7
 74
0
 42
0.0000001
 43
0.0000001
 44
0.0000000001
 40
0.0
 40
0.0
 40
0.0
 40
0.0
 40
0.3654975603
 40
0.6362360505
 40
0.8312733416
 40
1.0
 40
1.0
 40
1.0
 40
1.0
 10
11.7349276312
 20
10.872346039
 30
0.0
 10
11.7349276307
 20
10.8719401001
 30
0.0
 10
11.7348928505
 20
10.8712307603
 30
0.0
 10
11.7346924471
 20
10.8703264637
 30
0.0
 10
11.7343019566
 20
10.8696977993
 30
0.0
 10
11.7338822567
 20
10.8695625367
 30
0.0
 10
11.7336948609
 20
10.8695625338
 30
0.0
  0
SPLINE
  5
408
100
AcDbEntity
  8
0
100
AcDbSpline
 62
9
  6
CONTINUOUS
 70
0
 71
3
 72
9
 73
5
 74
0
 42
0.0000001
 43
0.0000001
 44
0.0000000001
 40
0.0
 40
0.0
 40
0.0
 40
0.0
 40
0.2418202256
 40
1.0
 40
1.0
 40
1.0
 40
1.0
 10
11.7184935706
 20
10.8805480299
 30
0.0
 10
11.7190841602
 20
10.8797360939
 30
0.0
 10
11.7218499146
 20
10.8766185679
 30
0.0
 10
11.7256009875
 20
10.8744419113
 30
0.0
 10
11.728583506
 20
10.873435082
 30
0.0
  0
SPLINE
  5
409
100
AcDbEntity
  8
0
100
AcDbSpline
 62
9
  6
CONTINUOUS
 70
0
 71
3
 72
9
 73
5
 74
0
 42
0.0000001
 43
0.0000001
 44
0.0000000001
 40
0.0
 40
0.0
 40
0.0
 40
0.0
 40
0.2540210226
 40
1.0
 40
1.0
 40
1.0
 40
1.0
 10
11.728583506
 20
10.873435082
 30
0.0
 10
11.7291011053
 20
10.8732603524
 30
0.0
 10
11.7311625404
 20
10.8726477853
 30
0.0
 10
11.7333228648
 20
10.872346047
 30
0.0
 10
11.7349271628
 20
10.872346039
 30
0.0
  0
LINE
  5
40A
100
AcDbEntity
  8
0
100
AcDbLine
 62
9
  6
CONTINUOUS
 10
9.1596796911
 20
12.625958643
 11
9.1582882479
 21
12.6235152375
  0
LINE
  5
40B
100
AcDbEntity
  8
0
100
AcDbLine
 62
9
  6
CONTINUOUS
 10
8.8583579491
 20
12.1040207219
 11
8.8569376072
 21
12.1015939722
  0
SPLINE
  5
40C
100
AcDbEntity
  8
0
100
AcDbSpline
 62
9
  6
CONTINUOUS
 70
0
 71
3
 72
10
 73
6
 74
0
 42
0.0000001
 43
0.0000001
 44
0.0000000001
 40
0.0
 40
0.0
 40
0.0
 40
0.0
 40
0.5848824378
 40
0.817226024
 40
1.0
 40
1.0
 40
1.0
 40
1.0
 10
8.8569376072
 20
12.1015939722
 30
0.0
 10
8.8554909591
 20
12.1026147219
 30
0.0
 10
8.8535180852
 20
12.1041183115
 30
0.0
 10
8.8512930583
 20
12.1061722253
 30
0.0
 10
8.8504409393
 20
12.1071009142
 30
0.0
 10
8.8501033824
 20
12.1075392912
 30
0.0
  0
SPLINE
  5
40D
100
AcDbEntity
  8
0
100
AcDbSpline
 62
9
  6
CONTINUOUS
 70
0
 71
3
 72
10
 73
6
 74
0
 42
0.0000001
 43
0.0000001
 44
0.0000000001
 40
0.0
 40
0.0
 40
0.0
 40
0.0
 40
0.3554719207
 40
0.6372307304
 40
1.0
 40
1.0
 40
1.0
 40
1.0
 10
8.8501033824
 20
12.1075392912
 30
0.0
 10
8.8499671782
 20
12.1077161764
 30
0.0
 10
8.8497332047
 20
12.1080479268
 30
0.0
 10
8.8494386462
 20
12.1085812704
 30
0.0
 10
8.8493327152
 20
12.1090467485
 30
0.0
 10
8.8494466011
 20
12.1092440737
 30
0.0
  0
SPLINE
  5
40E
100
AcDbEntity
  8
0
100
AcDbSpline
 62
9
  6
CONTINUOUS
 70
0
 71
3
 72
9
 73
5
 74
0
 42
0.0000001
 43
0.0000001
 44
0.0000000001
 40
0.0
 40
0.0
 40
0.0
 40
0.0
 40
0.2394782846
 40
1.0
 40
1.0
 40
1.0
 40
1.0
 10
11.7172168451
 20
12.0867481179
 30
0.0
 10
11.7174289676
 20
12.0858500362
 30
0.0
 10
11.7181921428
 20
12.0820714466
 30
0.0
 10
11.7184937329
 20
12.0782040597
 30
0.0
 10
11.7184937426
 20
12.0752735058
 30
0.0
  0
SPLINE
  5
40F
100
AcDbEntity
  8
0
100
AcDbSpline
 62
9
  6
CONTINUOUS
 70
0
 71
3
 72
11
 73
7
 74
0
 42
0.0000001
 43
0.0000001
 44
0.0000000001
 40
0.0
 40
0.0
 40
0.0
 40
0.0
 40
0.2511392575
 40
0.5010333686
 40
0.7503795095
 40
1.0
 40
1.0
 40
1.0
 40
1.0
 10
11.7172166851
 20
12.5982254089
 30
0.0
 10
11.7073741736
 20
12.5562229288
 30
0.0
 10
11.6936483354
 20
12.4709844486
 30
0.0
 10
11.6872453786
 20
12.3420429826
 30
0.0
 10
11.6936143708
 20
12.2133596309
 30
0.0
 10
11.7073598163
 20
12.1284790497
 30
0.0
 10
11.7172166851
 20
12.0867479614
 30
0.0
  0
SPLINE
  5
410
100
AcDbEntity
  8
0
100
AcDbSpline
 62
9
  6
CONTINUOUS
 70
0
 71
3
 72
9
 73
5
 74
0
 42
0.0000001
 43
0.0000001
 44
0.0000000001
 40
0.0
 40
0.0
 40
0.0
 40
0.0
 40
0.4668547088
 40
1.0
 40
1.0
 40
1.0
 40
1.0
 10
11.718493777
 20
12.6078663388
 30
0.0
 10
11.7184937694
 20
12.6063505656
 30
0.0
 10
11.718225326
 20
12.6031036897
 30
0.0
 10
11.7176118052
 20
12.599910876
 30
0.0
 10
11.7172168772
 20
12.5982255253
 30
0.0
  0
SPLINE
  5
411
100
AcDbEntity
  8
0
100
AcDbSpline
 62
9
  6
CONTINUOUS
 70
0
 71
3
 72
10
 73
6
 74
0
 42
0.0000001
 43
0.0000001
 44
0.0000000001
 40
0.0
 40
0.0
 40
0.0
 40
0.0
 40
0.5837187691
 40
0.8165664903
 40
1.0
 40
1.0
 40
1.0
 40
1.0
 10
9.1596796911
 20
12.6259586431
 30
0.0
 10
9.1580753948
 20
12.6266997058
 30
0.0
 10
9.1557883233
 20
12.6276554955
 30
0.0
 10
9.1528970985
 20
12.6285565734
 30
0.0
 10
9.1516633013
 20
12.628831587
 30
0.0
 10
9.1511128489
 20
12.6289050834
 30
0.0
  0
SPLINE
  5
412
100
AcDbEntity
  8
0
100
AcDbSpline
 62
9
  6
CONTINUOUS
 70
0
 71
3
 72
10
 73
6
 74
0
 42
0.0000001
 43
0.0000001
 44
0.0000000001
 40
0.0
 40
0.0
 40
0.0
 40
0.0
 40
0.3549894754
 40
0.6366620176
 40
1.0
 40
1.0
 40
1.0
 40
1.0
 10
9.1511128489
 20
12.6289050834
 30
0.0
 10
9.1508919497
 20
12.6289345779
 30
0.0
 10
9.1504882044
 20
12.6289713304
 30
0.0
 10
9.1498791919
 20
12.6289599299
 30
0.0
 10
9.1494230872
 20
12.6288185184
 30
0.0
 10
9.1493090064
 20
12.6286209951
 30
0.0
  0
SPLINE
  5
413
100
AcDbEntity
  8
0
100
AcDbSpline
 62
9
  6
CONTINUOUS
 70
0
 71
3
 72
9
 73
5
 74
0
 42
0.0000001
 43
0.0000001
 44
0.0000000001
 40
0.0
 40
0.0
 40
0.0
 40
0.0
 40
0.4905292263
 40
1.0
 40
1.0
 40
1.0
 40
1.0
 10
11.7172168451
 20
12.83041109
 30
0.0
 10
11.7174621757
 20
12.8304193589
 30
0.0
 10
11.7180014933
 20
12.8303026722
 30
0.0
 10
11.7182764646
 20
12.8298276885
 30
0.0
 10
11.7183573085
 20
12.8295858972
 30
0.0
  0
LINE
  5
414
100
AcDbEntity
  8
0
100
AcDbLine
 62
9
  6
CONTINUOUS
 10
11.7183573085
 20
12.8295858972
 11
11.7184937426
 21
12.8285772742
  0
LINE
  5
415
100
AcDbEntity
  8
0
100
AcDbLine
 62
9
  6
CONTINUOUS
 10
11.7172166851
 20
10.8787142311
 11
11.6894507075
 21
10.8797999475
  0
SPLINE
  5
416
100
AcDbEntity
  8
0
100
AcDbSpline
 62
9
  6
CONTINUOUS
 70
0
 71
3
 72
9
 73
5
 74
0
 42
0.0000001
 43
0.0000001
 44
0.0000000001
 40
0.0
 40
0.0
 40
0.0
 40
0.0
 40
0.3225511902
 40
1.0
 40
1.0
 40
1.0
 40
1.0
 10
11.7184937764
 20
10.8805477469
 30
0.0
 10
11.7184937743
 20
10.8803556915
 30
0.0
 10
11.71846842
 20
10.8797732954
 30
0.0
 10
11.7182419109
 20
10.8791217143
 30
0.0
 10
11.7179093531
 20
10.8788934309
 30
0.0
  0
LINE
  5
417
100
AcDbEntity
  8
0
100
AcDbLine
 62
9
  6
CONTINUOUS
 10
11.7179093531
 20
10.8788934309
 11
11.7172168766
 21
10.8787139277
  0
SPLINE
  5
418
100
AcDbEntity
  8
0
100
AcDbSpline
 62
9
  6
CONTINUOUS
 70
0
 71
3
 72
21
 73
17
 74
0
 42
0.0000001
 43
0.0000001
 44
0.0000000001
 40
0.0
 40
0.0
 40
0.0
 40
0.0
 40
0.0014089665
 40
0.0056261406
 40
0.012649852
 40
0.0224651451
 40
0.0500738394
 40
0.0875203876
 40
0.1338470309
 40
0.188112225
 40
0.2494002838
 40
0.3168013115
 40
0.466734526
 40
0.632954109
 40
0.8115333463
 40
1.0
 40
1.0
 40
1.0
 40
1.0
 10
12.9375258773
 20
12.1520616967
 30
0.0
 10
12.9375082045
 20
12.1520590552
 30
0.0
 10
12.9374423096
 20
12.1520290406
 30
0.0
 10
12.9372884982
 20
12.1519851334
 30
0.0
 10
12.9370362702
 20
12.1518962264
 30
0.0
 10
12.9365012422
 20
12.1517193931
 30
0.0
 10
12.9356022457
 20
12.1514131893
 30
0.0
 10
12.934266662
 20
12.150953353
 30
0.0
 10
12.9326158071
 20
12.1503705231
 30
0.0
 10
12.9306853559
 20
12.1496716815
 30
0.0
 10
12.9285110358
 20
12.1488615037
 30
0.0
 10
12.9252127713
 20
12.1475933021
 30
0.0
 10
12.9207042032
 20
12.1457656208
 30
0.0
 10
12.9149514163
 20
12.1432588225
 30
0.0
 10
12.9088327049
 20
12.1403753181
 30
0.0
 10
12.9046844963
 20
12.13826089
 30
0.0
 10
12.9025730826
 20
12.1371405769
 30
0.0
  0
SPLINE
  5
419
100
AcDbEntity
  8
0
100
AcDbSpline
 62
9
  6
CONTINUOUS
 70
0
 71
3
 72
9
 73
5
 74
0
 42
0.0000001
 43
0.0000001
 44
0.0000000001
 40
0.0
 40
0.0
 40
0.0
 40
0.0
 40
0.2363268755
 40
1.0
 40
1.0
 40
1.0
 40
1.0
 10
12.9025730826
 20
12.1371405769
 30
0.0
 10
12.8995585106
 20
12.1355410494
 30
0.0
 10
12.8869634982
 20
12.1284766629
 30
0.0
 10
12.8750744933
 20
12.120129219
 30
0.0
 10
12.8666147527
 20
12.1130551023
 30
0.0
  0
SPLINE
  5
41A
100
AcDbEntity
  8
0
100
AcDbSpline
 62
9
  6
CONTINUOUS
 70
0
 71
3
 72
9
 73
5
 74
0
 42
0.0000001
 43
0.0000001
 44
0.0000000001
 40
0.0
 40
0.0
 40
0.0
 40
0.0
 40
0.2449121371
 40
1.0
 40
1.0
 40
1.0
 40
1.0
 10
12.8517414592
 20
12.0992184049
 30
0.0
 10
12.8501220139
 20
12.0975403197
 30
0.0
 10
12.8436395201
 20
12.090564845
 30
0.0
 10
12.8377069994
 20
12.0830746012
 30
0.0
 10
12.8336080238
 20
12.0771674289
 30
0.0
  0
SPLINE
  5
41B
100
AcDbEntity
  8
0
100
AcDbSpline
 62
9
  6
CONTINUOUS
 70
0
 71
3
 72
9
 73
5
 74
0
 42
0.0000001
 43
0.0000001
 44
0.0000000001
 40
0.0
 40
0.0
 40
0.0
 40
0.0
 40
0.5331479701
 40
1.0
 40
1.0
 40
1.0
 40
1.0
 10
11.7172168451
 20
11.1108995617
 30
0.0
 10
11.7176117741
 20
11.1092142055
 30
0.0
 10
11.7182252933
 20
11.1060213974
 30
0.0
 10
11.7184937353
 20
11.1027745273
 30
0.0
 10
11.7184937426
 20
11.1012587654
 30
0.0
  0
SPLINE
  5
41C
100
AcDbEntity
  8
0
100
AcDbSpline
 62
9
  6
CONTINUOUS
 70
0
 71
3
 72
11
 73
7
 74
0
 42
0.0000001
 43
0.0000001
 44
0.0000000001
 40
0.0
 40
0.0
 40
0.0
 40
0.0
 40
0.2496091769
 40
0.4989483307
 40
0.7488586915
 40
1.0
 40
1.0
 40
1.0
 40
1.0
 10
11.7172166851
 20
11.6223771062
 30
0.0
 10
11.7073602739
 20
11.580647956
 30
0.0
 10
11.6936149438
 20
11.495770705
 30
0.0
 10
11.6872459509
 20
11.3670876183
 30
0.0
 10
11.693654021
 20
11.2381449007
 30
0.0
 10
11.7073740704
 20
11.1529024269
 30
0.0
 10
11.7172166851
 20
11.1108996587
 30
0.0
  0
LINE
  5
41D
100
AcDbEntity
  8
0
100
AcDbLine
 62
9
  6
CONTINUOUS
 10
9.1484486691
 20
2.8521188635
 11
9.1503555102
 21
2.8514665071
  0
LINE
  5
41E
100
AcDbEntity
  8
0
100
AcDbLine
 62
9
  6
CONTINUOUS
 10
9.1503555102
 20
2.8514665071
 11
9.1537856195
 21
2.8498817381
  0
SPLINE
  5
41F
100
AcDbEntity
  8
0
100
AcDbSpline
 62
9
  6
CONTINUOUS
 70
0
 71
3
 72
9
 73
5
 74
0
 42
0.0000001
 43
0.0000001
 44
0.0000000001
 40
0.0
 40
0.0
 40
0.0
 40
0.0
 40
0.2598936044
 40
1.0
 40
1.0
 40
1.0
 40
1.0
 10
11.718493777
 20
11.6338515511
 30
0.0
 10
11.7184937735
 20
11.6328501313
 30
0.0
 10
11.7183889436
 20
11.6289983659
 30
0.0
 10
11.7178724152
 20
11.6251523228
 30
0.0
 10
11.7172168772
 20
11.6223769184
 30
0.0
  0
LINE
  5
420
100
AcDbEntity
  8
0
100
AcDbLine
 62
9
  6
CONTINUOUS
 10
9.1496558395
 20
2.8543819581
 11
9.1515185007
 21
2.8536941455
  0
LINE
  5
421
100
AcDbEntity
  8
0
100
AcDbLine
 62
9
  6
CONTINUOUS
 10
9.1515185007
 20
2.8536941455
 11
9.1549058808
 21
2.8520785248
  0
LINE
  5
422
100
AcDbEntity
  8
0
100
AcDbLine
 62
9
  6
CONTINUOUS
 10
11.6893691089
 20
12.8293221842
 11
11.7048122925
 21
12.8299687704
  0
SPLINE
  5
423
100
AcDbEntity
  8
0
100
AcDbSpline
 62
9
  6
CONTINUOUS
 70
0
 71
3
 72
10
 73
6
 74
0
 42
0.0000001
 43
0.0000001
 44
0.0000000001
 40
0.0
 40
0.0
 40
0.0
 40
0.0
 40
0.5837187691
 40
0.8165664903
 40
1.0
 40
1.0
 40
1.0
 40
1.0
 10
8.8569376072
 20
11.6075310954
 30
0.0
 10
8.8554936799
 20
11.6065122655
 30
0.0
 10
8.853522406
 20
11.6050094983
 30
0.0
 10
8.8512964373
 20
11.6029561631
 30
0.0
 10
8.8504413699
 20
11.6020251702
 30
0.0
 10
8.8501024939
 20
11.6015852126
 30
0.0
  0
SPLINE
  5
424
100
AcDbEntity
  8
0
100
AcDbSpline
 62
9
  6
CONTINUOUS
 70
0
 71
3
 72
10
 73
6
 74
0
 42
0.0000001
 43
0.0000001
 44
0.0000000001
 40
0.0
 40
0.0
 40
0.0
 40
0.0
 40
0.3549894754
 40
0.6366620176
 40
1.0
 40
1.0
 40
1.0
 40
1.0
 10
8.8501024939
 20
11.6015852126
 30
0.0
 10
8.8499665014
 20
11.6014086556
 30
0.0
 10
8.8497328001
 20
11.6010773781
 30
0.0
 10
8.849438167
 20
11.6005442576
 30
0.0
 10
8.8493325806
 20
11.6000785536
 30
0.0
 10
8.8494466004
 20
11.5998809951
 30
0.0
  0
SPLINE
  5
425
100
AcDbEntity
  8
0
100
AcDbSpline
 62
9
  6
CONTINUOUS
 70
0
 71
3
 72
15
 73
11
 74
0
 42
0.0000001
 43
0.0000001
 44
0.0000000001
 40
0.0
 40
0.0
 40
0.0
 40
0.0
 40
0.0364427071
 40
0.0625867766
 40
0.09534711
 40
0.1822144255
 40
0.298704705
 40
0.444253841
 40
0.6138548934
 40
1.0
 40
1.0
 40
1.0
 40
1.0
 10
9.543977449
 20
13.0479455402
 30
0.0
 10
9.5438336837
 20
13.0479455273
 30
0.0
 10
9.5436009699
 20
13.047791942
 30
0.0
 10
9.5433759233
 20
13.0474967509
 30
0.0
 10
9.5430899827
 20
13.0469932577
 30
0.0
 10
9.5427648652
 20
13.0461175643
 30
0.0
 10
9.5424154131
 20
13.0447848326
 30
0.0
 10
9.5421011328
 20
13.0431102713
 30
0.0
 10
9.5417097044
 20
13.040371073
 30
0.0
 10
9.5415088557
 20
13.0381862128
 30
0.0
 10
9.5414035513
 20
13.0366665268
 30
0.0
  0
SPLINE
  5
426
100
AcDbEntity
  8
0
100
AcDbSpline
 62
9
  6
CONTINUOUS
 70
0
 71
3
 72
15
 73
11
 74
0
 42
0.0000001
 43
0.0000001
 44
0.0000000001
 40
0.0
 40
0.0
 40
0.0
 40
0.0
 40
0.0360703603
 40
0.061903356
 40
0.0942917299
 40
0.1803600313
 40
0.2962088625
 40
0.4415212283
 40
0.6114046334
 40
1.0
 40
1.0
 40
1.0
 40
1.0
 10
10.2366081016
 20
13.0479455402
 30
0.0
 10
10.2367504038
 20
13.0479455289
 30
0.0
 10
10.2369811299
 20
13.0477952272
 30
0.0
 10
10.2372051609
 20
13.0475041868
 30
0.0
 10
10.2374899531
 20
13.0470068394
 30
0.0
 10
10.2378145284
 20
13.0461384277
 30
0.0
 10
10.238163985
 20
13.0448125002
 30
0.0
 10
10.238479255
 20
13.0431404255
 30
0.0
 10
10.2388737799
 20
13.0403916085
 30
0.0
 10
10.2390760265
 20
13.0381959182
 30
0.0
 10
10.2391820034
 20
13.0366665268
 30
0.0
  0
SPLINE
  5
427
100
AcDbEntity
  8
0
100
AcDbSpline
 62
9
  6
CONTINUOUS
 70
0
 71
3
 72
19
 73
15
 74
0
 42
0.0000001
 43
0.0000001
 44
0.0000000001
 40
0.0
 40
0.0
 40
0.0
 40
0.0
 40
0.1272529594
 40
0.1909090198
 40
0.2543914194
 40
0.3176869616
 40
0.3807899972
 40
0.5062037744
 40
0.63066736
 40
0.6926344733
 40
0.7544031537
 40
0.8160017276
 40
0.8774642359
 40
1.0
 40
1.0
 40
1.0
 40
1.0
 10
9.8902927773
 20
2.7466806572
 30
0.0
 10
9.8530714249
 20
2.7466806572
 30
0.0
 10
9.7970452218
 20
2.7520037642
 30
0.0
 10
9.724625481
 20
2.7694218542
 30
0.0
 10
9.6718711748
 20
2.7875817052
 30
0.0
 10
9.6212329627
 20
2.8106061959
 30
0.0
 10
9.5573425289
 20
2.8474433514
 30
0.0
 10
9.4849397005
 20
2.9044652518
 30
0.0
 10
9.4252942804
 20
2.9743173091
 30
0.0
 10
9.3868326225
 20
3.03601114
 30
0.0
 10
9.3628748322
 20
3.084743513
 30
0.0
 10
9.3439754546
 20
3.1355007576
 30
0.0
 10
9.3258440266
 20
3.2050981077
 30
0.0
 10
9.3202927773
 20
3.2591250105
 30
0.0
 10
9.3202927773
 20
3.2949665884
 30
0.0
  0
LINE
  5
428
100
AcDbEntity
  8
0
100
AcDbLine
 62
9
  6
CONTINUOUS
 10
10.6309296865
 20
2.8543819479
 11
10.6290670662
 21
2.8536941584
  0
LINE
  5
429
100
AcDbEntity
  8
0
100
AcDbLine
 62
9
  6
CONTINUOUS
 10
10.6290670662
 20
2.8536941584
 11
10.6256796718
 21
2.8520785288
  0
LINE
  5
42A
100
AcDbEntity
  8
0
100
AcDbLine
 62
9
  6
CONTINUOUS
 10
10.6321368858
 20
2.8521188634
 11
10.6302300444
 21
2.8514665072
  0
LINE
  5
42B
100
AcDbEntity
  8
0
100
AcDbLine
 62
9
  6
CONTINUOUS
 10
10.6302300444
 20
2.8514665072
 11
10.6267999351
 21
2.8498817382
  0
LINE
  5
42C
100
AcDbEntity
  8
0
100
AcDbLine
 62
9
  6
CONTINUOUS
 10
9.5875506935
 20
12.8729900815
 11
9.590362458
 21
12.8729734033
  0
LINE
  5
42D
100
AcDbEntity
  8
0
100
AcDbLine
 62
9
  6
CONTINUOUS
 10
10.1902230597
 20
12.8729734049
 11
10.1930348611
 21
12.8729900815
  0
SPLINE
  5
42E
100
AcDbEntity
  8
0
100
AcDbSpline
 62
9
  6
CONTINUOUS
 70
0
 71
3
 72
15
 73
11
 74
0
 42
0.0000001
 43
0.0000001
 44
0.0000000001
 40
0.0
 40
0.0
 40
0.0
 40
0.0
 40
0.3790670936
 40
0.5419367676
 40
0.683444162
 40
0.8010842286
 40
0.8927529393
 40
0.9285365791
 40
0.9577740911
 40
1.0
 40
1.0
 40
1.0
 40
1.0
 10
9.5875506933
 20
12.8729900815
 30
0.0
 10
9.5876765806
 20
12.8743715716
 30
0.0
 10
9.5879169675
 20
12.8763427966
 30
0.0
 10
9.5883789932
 20
12.8788015175
 30
0.0
 10
9.5887405143
 20
12.8803039853
 30
0.0
 10
9.5891261476
 20
12.8815297313
 30
0.0
 10
9.5894767344
 20
12.8823579088
 30
0.0
 10
9.5897808884
 20
12.8828482555
 30
0.0
 10
9.5900270889
 20
12.8831480294
 30
0.0
 10
9.5902759271
 20
12.8833025338
 30
0.0
 10
9.5904304548
 20
12.8833025338
 30
0.0
  0
SPLINE
  5
42F
100
AcDbEntity
  8
0
100
AcDbSpline
 62
7
  6
CONTINUOUS
 70
0
 71
3
 72
13
 73
9
 74
0
 42
0.0000001
 43
0.0000001
 44
0.0000000001
 40
0.0
 40
0.0
 40
0.0
 40
0.0
 40
0.2476963291
 40
0.3723471677
 40
0.4973861834
 40
0.6228015231
 40
0.7485678899
 40
1.0
 40
1.0
 40
1.0
 40
1.0
 10
9.4880274567
 20
2.8357355289
 30
0.0
 10
9.5141737947
 20
2.8099533122
 30
0.0
 10
9.5575382675
 20
2.7750375535
 30
0.0
 10
9.6211774835
 20
2.7376417819
 30
0.0
 10
9.6717262282
 20
2.7142432611
 30
0.0
 10
9.7244541497
 20
2.6957837561
 30
0.0
 10
9.7969091328
 20
2.6780692959
 30
0.0
 10
9.8530190277
 20
2.6726559309
 30
0.0
 10
9.8902927773
 20
2.6726559309
 30
0.0
  0
SPLINE
  5
430
100
AcDbEntity
  8
0
100
AcDbSpline
 62
7
  6
CONTINUOUS
 70
0
 71
3
 72
13
 73
9
 74
0
 42
0.0000001
 43
0.0000001
 44
0.0000000001
 40
0.0
 40
0.0
 40
0.0
 40
0.0
 40
0.2514140909
 40
0.377170335
 40
0.5025805636
 40
0.6276196329
 40
0.7522754776
 40
1.0
 40
1.0
 40
1.0
 40
1.0
 10
9.8902927773
 20
2.6726559309
 30
0.0
 10
9.9272907467
 20
2.6726559309
 30
0.0
 10
9.9829825922
 20
2.6779884748
 30
0.0
 10
10.05493194
 20
2.6954435879
 30
0.0
 10
10.1073160609
 20
2.7136347248
 30
0.0
 10
10.1575683303
 20
2.7366979995
 30
0.0
 10
10.2208924563
 20
2.773568552
 30
0.0
 10
10.2641145697
 20
2.8080056446
 30
0.0
 10
10.2902235867
 20
2.8334474863
 30
0.0
  0
SPLINE
  5
431
100
AcDbEntity
  8
0
100
AcDbSpline
 62
9
  6
CONTINUOUS
 70
0
 71
3
 72
19
 73
15
 74
0
 42
0.0000001
 43
0.0000001
 44
0.0000000001
 40
0.0
 40
0.0
 40
0.0
 40
0.0
 40
0.1224954728
 40
0.184012109
 40
0.2456246689
 40
0.3073881105
 40
0.3693544013
 40
0.4938350419
 40
0.6192489707
 40
0.6823567133
 40
0.7456597477
 40
0.8091270653
 40
0.8727218367
 40
1.0
 40
1.0
 40
1.0
 40
1.0
 10
10.4602469838
 20
3.199735531
 30
0.0
 10
10.4597796622
 20
3.1642752217
 30
0.0
 10
10.4536242036
 20
3.1108804318
 30
0.0
 10
10.4349778392
 20
3.0421749996
 30
0.0
 10
10.4157968226
 20
2.9920982202
 30
0.0
 10
10.3916777928
 20
2.9440656288
 30
0.0
 10
10.3531635405
 20
2.8832821075
 30
0.0
 10
10.29375362
 20
2.8144786968
 30
0.0
 10
10.2219036966
 20
2.7582880259
 30
0.0
 10
10.1585906393
 20
2.7219559376
 30
0.0
 10
10.1084477455
 20
2.6992228063
 30
0.0
 10
10.0562550948
 20
2.6812534292
 30
0.0
 10
9.9846150124
 20
2.6639193971
 30
0.0
 10
9.9291914745
 20
2.6585324976
 30
0.0
 10
9.8923436869
 20
2.6584031795
 30
0.0
  0
SPLINE
  5
432
100
AcDbEntity
  8
0
100
AcDbSpline
 62
9
  6
CONTINUOUS
 70
0
 71
3
 72
19
 73
15
 74
0
 42
0.0000001
 43
0.0000001
 44
0.0000000001
 40
0.0
 40
0.0
 40
0.0
 40
0.0
 40
0.127298345
 40
0.1909011104
 40
0.2543735148
 40
0.3176791586
 40
0.3807864963
 40
0.506190128
 40
0.6306541961
 40
0.6926133384
 40
0.7543700911
 40
0.8159777489
 40
0.877492989
 40
1.0
 40
1.0
 40
1.0
 40
1.0
 10
9.8866801408
 20
2.6584104999
 30
0.0
 10
9.8495990518
 20
2.6586365698
 30
0.0
 10
9.7938371821
 20
2.6642424883
 30
0.0
 10
9.7218158704
 20
2.6819815092
 30
0.0
 10
9.6693820734
 20
2.7003152126
 30
0.0
 10
9.6190506454
 20
2.7234628148
 30
0.0
 10
9.555567783
 20
2.7604011344
 30
0.0
 10
9.4836719925
 20
2.8174461165
 30
0.0
 10
9.4244783916
 20
2.8871730725
 30
0.0
 10
9.3863073571
 20
2.9486882965
 30
0.0
 10
9.3625315952
 20
2.9972574445
 30
0.0
 10
9.3437790523
 20
3.0478474416
 30
0.0
 10
9.3258127823
 20
3.1171915571
 30
0.0
 10
9.3202927773
 20
3.1709993474
 30
0.0
 10
9.3202927773
 20
3.2066854186
 30
0.0
  0
SPLINE
  5
433
100
AcDbEntity
  8
0
100
AcDbSpline
 62
9
  6
CONTINUOUS
 70
0
 71
3
 72
15
 73
11
 74
0
 42
0.0000001
 43
0.0000001
 44
0.0000000001
 40
0.0
 40
0.0
 40
0.0
 40
0.0
 40
0.377347174
 40
0.5401252572
 40
0.6818663539
 40
0.7999270734
 40
0.8920690467
 40
0.9280700641
 40
0.9574953432
 40
1.0
 40
1.0
 40
1.0
 40
1.0
 10
10.1930348612
 20
12.8729900814
 30
0.0
 10
10.1929095437
 20
12.8743653183
 30
0.0
 10
10.1926699115
 20
12.8763299402
 30
0.0
 10
10.1922101291
 20
12.8787832222
 30
0.0
 10
10.1918493485
 20
12.880287992
 30
0.0
 10
10.1914639306
 20
12.8815181405
 30
0.0
 10
10.1911131
 20
12.8823506234
 30
0.0
 10
10.1908081819
 20
12.8828443163
 30
0.0
 10
10.1905610762
 20
12.8831465109
 30
0.0
 10
10.1903107328
 20
12.8833025098
 30
0.0
 10
10.1901551833
 20
12.8833025338
 30
0.0
  0
SPLINE
  5
434
100
AcDbEntity
  8
0
100
AcDbSpline
 62
9
  6
CONTINUOUS
 70
0
 71
3
 72
13
 73
9
 74
0
 42
0.0000001
 43
0.0000001
 44
0.0000000001
 40
0.0
 40
0.0
 40
0.0
 40
0.0
 40
0.1031101996
 40
0.1876612235
 40
0.2978459298
 40
0.4346024157
 40
0.5983267309
 40
1.0
 40
1.0
 40
1.0
 40
1.0
 10
8.6836351132
 20
12.151336165
 30
0.0
 10
8.683525935
 20
12.1511470236
 30
0.0
 10
8.6836532447
 20
12.1506888595
 30
0.0
 10
8.6839726586
 20
12.1501698565
 30
0.0
 10
8.6844107142
 20
12.1496097193
 30
0.0
 10
8.6850046475
 20
12.1489770547
 30
0.0
 10
8.6860869853
 20
12.1479543785
 30
0.0
 10
8.6870144242
 20
12.1471953935
 30
0.0
 10
8.6876836228
 20
12.1466700763
 30
0.0
  0
LINE
  5
435
100
AcDbEntity
  8
0
100
AcDbLine
 62
9
  6
CONTINUOUS
 10
8.6876836228
 20
12.1466700763
 11
8.6921160765
 21
12.1434675975
  0
SPLINE
  5
436
100
AcDbEntity
  8
0
100
AcDbSpline
 62
9
  6
CONTINUOUS
 70
0
 71
3
 72
13
 73
9
 74
0
 42
0.0000001
 43
0.0000001
 44
0.0000000001
 40
0.0
 40
0.0
 40
0.0
 40
0.0
 40
0.1023685835
 40
0.1863600731
 40
0.2960559006
 40
0.4325683334
 40
0.5964674772
 40
1.0
 40
1.0
 40
1.0
 40
1.0
 10
9.0299504218
 20
12.751171875
 30
0.0
 10
9.0300588543
 20
12.7513596882
 30
0.0
 10
9.0305150337
 20
12.7514796878
 30
0.0
 10
9.0311210508
 20
12.7514639337
 30
0.0
 10
9.0318226343
 20
12.7513659848
 30
0.0
 10
9.0326667253
 20
12.7511687603
 30
0.0
 10
9.0340976211
 20
12.7507419922
 30
0.0
 10
9.0352229503
 20
12.7503167141
 30
0.0
 10
9.0360163235
 20
12.7499983103
 30
0.0
  0
LINE
  5
437
100
AcDbEntity
  8
0
100
AcDbLine
 62
9
  6
CONTINUOUS
 10
9.0360163235
 20
12.7499983103
 11
9.0410053024
 21
12.747761463
  0
LINE
  5
438
100
AcDbEntity
  8
0
100
AcDbLine
 62
9
  6
CONTINUOUS
 10
8.6921160766
 20
12.1434675976
 11
8.6933798914
 21
12.1456239875
  0
LINE
  5
439
100
AcDbEntity
  8
0
100
AcDbLine
 62
9
  6
CONTINUOUS
 10
9.0397697239
 20
12.7455887773
 11
9.0410053024
 21
12.747761463
  0
SPLINE
  5
43A
100
AcDbEntity
  8
0
100
AcDbSpline
 62
9
  6
CONTINUOUS
 70
0
 71
3
 72
15
 73
11
 74
0
 42
0.0000001
 43
0.0000001
 44
0.0000000001
 40
0.0
 40
0.0
 40
0.0
 40
0.0
 40
0.1283800561
 40
0.2562941467
 40
0.3199956547
 40
0.3834795373
 40
0.5096436906
 40
0.6344803211
 40
0.7577225418
 40
1.0
 40
1.0
 40
1.0
 40
1.0
 10
9.4246103819
 20
2.7341872735
 30
0.0
 10
9.4182848019
 20
2.7453613749
 30
0.0
 10
9.4053308659
 20
2.7674846002
 30
0.0
 10
9.3887351379
 20
2.7948509985
 30
0.0
 10
9.3754794438
 20
2.8166518742
 30
0.0
 10
9.3623757118
 20
2.8383402152
 30
0.0
 10
9.346200457
 20
2.8653165986
 30
0.0
 10
9.3270100662
 20
2.8974539773
 30
0.0
 10
9.3018244953
 20
2.9395375951
 30
0.0
 10
9.2828986913
 20
2.9708171485
 30
0.0
 10
9.2701956864
 20
2.9914527458
 30
0.0
  0
SPLINE
  5
43B
100
AcDbEntity
  8
0
100
AcDbSpline
 62
9
  6
CONTINUOUS
 70
0
 71
3
 72
9
 73
5
 74
0
 42
0.0000001
 43
0.0000001
 44
0.0000000001
 40
0.0
 40
0.0
 40
0.0
 40
0.0
 40
0.4954536932
 40
1.0
 40
1.0
 40
1.0
 40
1.0
 10
9.2701950451
 20
2.9914522169
 30
0.0
 10
9.2553369313
 20
3.0161369348
 30
0.0
 10
9.2323657623
 20
3.0704260247
 30
0.0
 10
9.224133565
 20
3.1287281002
 30
0.0
 10
9.2238389888
 20
3.1580668076
 30
0.0
  0
SPLINE
  5
43C
100
AcDbEntity
  8
0
100
AcDbSpline
 62
9
  6
CONTINUOUS
 70
0
 71
3
 72
19
 73
15
 74
0
 42
0.0000001
 43
0.0000001
 44
0.0000000001
 40
0.0
 40
0.0
 40
0.0
 40
0.0
 40
0.1225042767
 40
0.1840195363
 40
0.2456271551
 40
0.3073837055
 40
0.3693425562
 40
0.4938071506
 40
0.6192120325
 40
0.6823201518
 40
0.7456264413
 40
0.8090994892
 40
0.8727024477
 40
1.0
 40
1.0
 40
1.0
 40
1.0
 10
9.3202927773
 20
3.2010210621
 30
0.0
 10
9.3202927773
 20
3.1653076994
 30
0.0
 10
9.3258218807
 20
3.1114581344
 30
0.0
 10
9.3438150351
 20
3.0420634486
 30
0.0
 10
9.3625963106
 20
2.9914387024
 30
0.0
 10
9.386407786
 20
2.9428396812
 30
0.0
 10
9.4246348733
 20
2.8812920022
 30
0.0
 10
9.483913345
 20
2.8115407732
 30
0.0
 10
9.5559060235
 20
2.7544992643
 30
0.0
 10
9.6194678464
 20
2.717579918
 30
0.0
 10
9.6698594851
 20
2.6944570578
 30
0.0
 10
9.7223519956
 20
2.6761573937
 30
0.0
 10
9.7944472498
 20
2.6584737784
 30
0.0
 10
9.8502597449
 20
2.6529264123
 30
0.0
 10
9.8873700229
 20
2.6527423789
 30
0.0
  0
SPLINE
  5
43D
100
AcDbEntity
  8
0
100
AcDbSpline
 62
9
  6
CONTINUOUS
 70
0
 71
3
 72
19
 73
15
 74
0
 42
0.0000001
 43
0.0000001
 44
0.0000000001
 40
0.0
 40
0.0
 40
0.0
 40
0.0
 40
0.1272975523
 40
0.1909005108
 40
0.2543735587
 40
0.3176798482
 40
0.3807879675
 40
0.5061928494
 40
0.6306574438
 40
0.6926162945
 40
0.7543728449
 40
0.8159804637
 40
0.8774957233
 40
1.0
 40
1.0
 40
1.0
 40
1.0
 10
9.8932155318
 20
2.6527423789
 30
0.0
 10
9.9303258097
 20
2.6529264123
 30
0.0
 10
9.9861383048
 20
2.6584737784
 30
0.0
 10
10.0582335591
 20
2.6761573937
 30
0.0
 10
10.1107260695
 20
2.6944570578
 30
0.0
 10
10.1611177082
 20
2.717579918
 30
0.0
 10
10.2246795311
 20
2.7544992643
 30
0.0
 10
10.2966722096
 20
2.8115407732
 30
0.0
 10
10.3559506813
 20
2.8812920022
 30
0.0
 10
10.3941777686
 20
2.9428396812
 30
0.0
 10
10.4179892441
 20
2.9914387024
 30
0.0
 10
10.4367705195
 20
3.0420634487
 30
0.0
 10
10.4547636739
 20
3.1114581344
 30
0.0
 10
10.4602927773
 20
3.1653076994
 30
0.0
 10
10.4602927773
 20
3.2010210621
 30
0.0
  0
SPLINE
  5
43E
100
AcDbEntity
  8
0
100
AcDbSpline
 62
9
  6
CONTINUOUS
 70
0
 71
3
 72
9
 73
5
 74
0
 42
0.0000001
 43
0.0000001
 44
0.0000000001
 40
0.0
 40
0.0
 40
0.0
 40
0.0
 40
0.5045272399
 40
1.0
 40
1.0
 40
1.0
 40
1.0
 10
10.5567453678
 20
3.1580099084
 30
0.0
 10
10.5564462522
 20
3.1286818537
 30
0.0
 10
10.5482121136
 20
3.0703995893
 30
0.0
 10
10.5252438136
 20
3.0161303522
 30
0.0
 10
10.5103899961
 20
2.9914526404
 30
0.0
  0
SPLINE
  5
43F
100
AcDbEntity
  8
0
100
AcDbSpline
 62
9
  6
CONTINUOUS
 70
0
 71
3
 72
13
 73
9
 74
0
 42
0.0000001
 43
0.0000001
 44
0.0000000001
 40
0.0
 40
0.0
 40
0.0
 40
0.0
 40
0.1250759789
 40
0.2500376329
 40
0.3750200253
 40
0.5001243044
 40
0.7503338393
 40
1.0
 40
1.0
 40
1.0
 40
1.0
 10
10.355975175
 20
2.734187272
 30
0.0
 10
10.3480069759
 20
2.7208764578
 30
0.0
 10
10.3302630918
 20
2.6953086476
 30
0.0
 10
10.2988783041
 20
2.660810003
 30
0.0
 10
10.2632827906
 20
2.6306501663
 30
0.0
 10
10.2110074745
 20
2.5969284636
 30
0.0
 10
10.1380742684
 20
2.5681215426
 30
0.0
 10
10.0756684164
 20
2.5607191605
 30
0.0
 10
10.0447074727
 20
2.5613228259
 30
0.0
  0
SPLINE
  5
440
100
AcDbEntity
  8
0
100
AcDbSpline
 62
9
  6
CONTINUOUS
 70
0
 71
3
 72
15
 73
11
 74
0
 42
0.0000001
 43
0.0000001
 44
0.0000000001
 40
0.0
 40
0.0
 40
0.0
 40
0.0
 40
0.124452754
 40
0.2492993202
 40
0.3745310205
 40
0.5000136427
 40
0.6254758049
 40
0.7506657338
 40
0.8755074839
 40
1.0
 40
1.0
 40
1.0
 40
1.0
 10
10.0447074728
 20
2.5613228288
 30
0.0
 10
10.0319019547
 20
2.5617612687
 30
0.0
 10
10.0062423673
 20
2.5624106192
 30
0.0
 10
9.9676855089
 20
2.5629156652
 30
0.0
 10
9.9290206645
 20
2.5632040167
 30
0.0
 10
9.8902916833
 20
2.5633667044
 30
0.0
 10
9.8515664153
 20
2.5632827113
 30
0.0
 10
9.8129094579
 20
2.562847163
 30
0.0
 10
9.7743565648
 20
2.5621468894
 30
0.0
 10
9.7486922614
 20
2.5615971405
 30
0.0
 10
9.7358780818
 20
2.5613228288
 30
0.0
  0
SPLINE
  5
441
100
AcDbEntity
  8
0
100
AcDbSpline
 62
9
  6
CONTINUOUS
 70
0
 71
3
 72
15
 73
11
 74
0
 42
0.0000001
 43
0.0000001
 44
0.0000000001
 40
0.0
 40
0.0
 40
0.0
 40
0.0
 40
0.1247733595
 40
0.2498196334
 40
0.3750152306
 40
0.5001661687
 40
0.6251678744
 40
0.7500925322
 40
0.8750028216
 40
1.0
 40
1.0
 40
1.0
 40
1.0
 10
9.7358780819
 20
2.5613228258
 30
0.0
 10
9.7203882977
 20
2.5610204969
 30
0.0
 10
9.6892948387
 20
2.5625621193
 30
0.0
 10
9.6433771493
 20
2.5710191327
 30
0.0
 10
9.598885827
 20
2.5853492833
 30
0.0
 10
9.5566170545
 20
2.6052961352
 30
0.0
 10
9.517367917
 20
2.630613128
 30
0.0
 10
9.4817533134
 20
2.6607800729
 30
0.0
 10
9.4503408601
 20
2.6952916382
 30
0.0
 10
9.4325823826
 20
2.7208705954
 30
0.0
 10
9.4246103796
 20
2.734187272
 30
0.0
  0
SPLINE
  5
442
100
AcDbEntity
  8
0
100
AcDbSpline
 62
9
  6
CONTINUOUS
 70
0
 71
3
 72
11
 73
7
 74
0
 42
0.0000001
 43
0.0000001
 44
0.0000000001
 40
0.0
 40
0.0
 40
0.0
 40
0.0
 40
0.1761958306
 40
0.4092874319
 40
0.6888851179
 40
1.0
 40
1.0
 40
1.0
 40
1.0
 10
9.2628990932
 20
2.9804471736
 30
0.0
 10
9.2628968705
 20
2.981237979
 30
0.0
 10
9.2634325961
 20
2.9830527638
 30
0.0
 10
9.2649663763
 20
2.985739166
 30
0.0
 10
9.267264168
 20
2.9886551356
 30
0.0
 10
9.2691502705
 20
2.990527046
 30
0.0
 10
9.2701956881
 20
2.991452743
 30
0.0
  0
SPLINE
  5
443
100
AcDbEntity
  8
0
100
AcDbSpline
 62
9
  6
CONTINUOUS
 70
0
 71
3
 72
9
 73
5
 74
0
 42
0.0000001
 43
0.0000001
 44
0.0000000001
 40
0.0
 40
0.0
 40
0.0
 40
0.0
 40
0.248564802
 40
1.0
 40
1.0
 40
1.0
 40
1.0
 10
9.1917246416
 20
3.0281987731
 30
0.0
 10
9.192704768
 20
3.0223786503
 30
0.0
 10
9.1972008347
 20
2.9990591125
 30
0.0
 10
9.2038584782
 20
2.9761652438
 30
0.0
 10
9.2099305234
 20
2.9593876898
 30
0.0
  0
SPLINE
  5
444
100
AcDbEntity
  8
0
100
AcDbSpline
 62
9
  6
CONTINUOUS
 70
0
 71
3
 72
15
 73
11
 74
0
 42
0.0000001
 43
0.0000001
 44
0.0000000001
 40
0.0
 40
0.0
 40
0.0
 40
0.0
 40
0.1250437187
 40
0.250278336
 40
0.3753140514
 40
0.500262761
 40
0.6250717302
 40
0.749804599
 40
0.8748090614
 40
1.0
 40
1.0
 40
1.0
 40
1.0
 10
9.7383577935
 20
2.5476421734
 30
0.0
 10
9.7221479459
 20
2.5468184029
 30
0.0
 10
9.6895395148
 20
2.547526625
 30
0.0
 10
9.6413115853
 20
2.5553963194
 30
0.0
 10
9.5946447429
 20
2.5698760276
 30
0.0
 10
9.5504598655
 20
2.5905920607
 30
0.0
 10
9.5095458563
 20
2.6171201419
 30
0.0
 10
9.4726677381
 20
2.649043402
 30
0.0
 10
9.4405721058
 20
2.6858250061
 30
0.0
 10
9.4227446912
 20
2.7131186879
 30
0.0
 10
9.4148340752
 20
2.7273130739
 30
0.0
  0
SPLINE
  5
445
100
AcDbEntity
  8
0
100
AcDbSpline
 62
9
  6
CONTINUOUS
 70
0
 71
3
 72
11
 73
7
 74
0
 42
0.0000001
 43
0.0000001
 44
0.0000000001
 40
0.0
 40
0.0
 40
0.0
 40
0.0
 40
0.2420489142
 40
0.4891800569
 40
0.7425990216
 40
1.0
 40
1.0
 40
1.0
 40
1.0
 10
9.2628990914
 20
2.9804471763
 30
0.0
 10
9.2759101767
 20
2.9604869578
 30
0.0
 10
9.3020367013
 20
2.9200363837
 30
0.0
 10
9.3405293144
 20
2.8578839448
 30
0.0
 10
9.3780204226
 20
2.7933689372
 30
0.0
 10
9.4025514856
 20
2.7494746056
 30
0.0
 10
9.4148340752
 20
2.7273130739
 30
0.0
  0
SPLINE
  5
446
100
AcDbEntity
  8
0
100
AcDbSpline
 62
9
  6
CONTINUOUS
 70
0
 71
3
 72
11
 73
7
 74
0
 42
0.0000001
 43
0.0000001
 44
0.0000000001
 40
0.0
 40
0.0
 40
0.0
 40
0.0
 40
0.2370506652
 40
0.483492643
 40
0.7393681009
 40
1.0
 40
1.0
 40
1.0
 40
1.0
 10
9.4007155654
 20
2.6273708551
 30
0.0
 10
9.386301733
 20
2.6484212263
 30
0.0
 10
9.3572829272
 20
2.6916194647
 30
0.0
 10
9.3149436434
 20
2.7590174552
 30
0.0
 10
9.2741546107
 20
2.8303019031
 30
0.0
 10
9.2477929154
 20
2.8792451726
 30
0.0
 10
9.2346598951
 20
2.9040309898
 30
0.0
  0
SPLINE
  5
447
100
AcDbEntity
  8
0
100
AcDbSpline
 62
9
  6
CONTINUOUS
 70
0
 71
3
 72
9
 73
5
 74
0
 42
0.0000001
 43
0.0000001
 44
0.0000000001
 40
0.0
 40
0.0
 40
0.0
 40
0.0
 40
0.4999998365
 40
1.0
 40
1.0
 40
1.0
 40
1.0
 10
9.7383577792
 20
2.5476422067
 30
0.0
 10
9.788954008
 20
2.5504074507
 30
0.0
 10
9.8902927608
 20
2.5547554127
 30
0.0
 10
9.9916315132
 20
2.5504074469
 30
0.0
 10
10.0422277754
 20
2.5476422067
 30
0.0
  0
SPLINE
  5
448
100
AcDbEntity
  8
0
100
AcDbSpline
 62
9
  6
CONTINUOUS
 70
0
 71
3
 72
9
 73
5
 74
0
 42
0.0000001
 43
0.0000001
 44
0.0000000001
 40
0.0
 40
0.0
 40
0.0
 40
0.0
 40
0.5000026607
 40
1.0
 40
1.0
 40
1.0
 40
1.0
 10
10.0563484078
 20
2.4477012219
 30
0.0
 10
10.0011331974
 20
2.4429384648
 30
0.0
 10
9.8902924909
 20
2.4359882638
 30
0.0
 10
9.7794517458
 20
2.4429382406
 30
0.0
 10
9.7242371468
 20
2.4477012219
 30
0.0
  0
SPLINE
  5
449
100
AcDbEntity
  8
0
100
AcDbSpline
 62
9
  6
CONTINUOUS
 70
0
 71
3
 72
11
 73
7
 74
0
 42
0.0000001
 43
0.0000001
 44
0.0000000001
 40
0.0
 40
0.0
 40
0.0
 40
0.0
 40
0.2574006869
 40
0.5108196191
 40
0.7579508443
 40
1.0
 40
1.0
 40
1.0
 40
1.0
 10
10.3657513712
 20
2.7273132064
 30
0.0
 10
10.3780339537
 20
2.7494747298
 30
0.0
 10
10.402565043
 20
2.7933690512
 30
0.0
 10
10.4400562092
 20
2.8578840582
 30
0.0
 10
10.478548838
 20
2.9200365813
 30
0.0
 10
10.5046753672
 20
2.9604872312
 30
0.0
 10
10.5176864641
 20
2.9804474906
 30
0.0
  0
SPLINE
  5
44A
100
AcDbEntity
  8
0
100
AcDbSpline
 62
9
  6
CONTINUOUS
 70
0
 71
3
 72
9
 73
5
 74
0
 42
0.0000001
 43
0.0000001
 44
0.0000000001
 40
0.0
 40
0.0
 40
0.0
 40
0.0
 40
0.2513594971
 40
1.0
 40
1.0
 40
1.0
 40
1.0
 10
10.5459241751
 20
2.9040318395
 30
0.0
 10
10.5410205157
 20
2.8947770786
 30
0.0
 10
10.5214177806
 20
2.8580089031
 30
0.0
 10
10.5013250203
 20
2.8214966968
 30
0.0
 10
10.4857817571
 20
2.7944506744
 30
0.0
  0
SPLINE
  5
44B
100
AcDbEntity
  8
0
100
AcDbSpline
 62
9
  6
CONTINUOUS
 70
0
 71
3
 72
9
 73
5
 74
0
 42
0.0000001
 43
0.0000001
 44
0.0000000001
 40
0.0
 40
0.0
 40
0.0
 40
0.0
 40
0.2555952353
 40
1.0
 40
1.0
 40
1.0
 40
1.0
 10
10.4455763407
 20
2.7273044367
 30
0.0
 10
10.440178354
 20
2.7186617914
 30
0.0
 10
10.4188222413
 20
2.684995672
 30
0.0
 10
10.3966373717
 20
2.6518617376
 30
0.0
 10
10.3798703354
 20
2.6273747548
 30
0.0
  0
SPLINE
  5
44C
100
AcDbEntity
  8
0
100
AcDbSpline
 62
9
  6
CONTINUOUS
 70
0
 71
3
 72
20
 73
16
 74
0
 42
0.0000001
 43
0.0000001
 44
0.0000000001
 40
0.0
 40
0.0
 40
0.0
 40
0.0
 40
0.0612719508
 40
0.1226361652
 40
0.1841304381
 40
0.2457821722
 40
0.3076151498
 40
0.3696514419
 40
0.4319011642
 40
0.4943706328
 40
0.619820185
 40
0.7460063694
 40
0.8094169797
 40
0.8729780456
 40
1.0
 40
1.0
 40
1.0
 40
1.0
 10
10.4556464662
 20
3.2251558319
 30
0.0
 10
10.4534638718
 20
3.2088024976
 30
0.0
 10
10.4475643262
 20
3.1762544258
 30
0.0
 10
10.4341785122
 20
3.1284441703
 30
0.0
 10
10.4163603842
 20
3.0819901053
 30
0.0
 10
10.3942843702
 20
3.0372628583
 30
0.0
 10
10.36809791
 20
2.9946388904
 30
0.0
 10
10.3380255361
 20
2.9544638142
 30
0.0
 10
10.3043253867
 20
2.9170436088
 30
0.0
 10
10.2548413329
 20
2.8712260453
 30
0.0
 10
10.1852548658
 20
2.8223136956
 30
0.0
 10
10.1079152198
 20
2.7863482577
 30
0.0
 10
10.0428066416
 20
2.7658946643
 30
0.0
 10
9.9759543404
 20
2.7511767387
 30
0.0
 10
9.9244952388
 20
2.7466806572
 30
0.0
 10
9.8902927773
 20
2.7466806572
 30
0.0
  0
SPLINE
  5
44D
100
AcDbEntity
  8
0
100
AcDbSpline
 62
9
  6
CONTINUOUS
 70
0
 71
3
 72
12
 73
8
 74
0
 42
0.0000001
 43
0.0000001
 44
0.0000000001
 40
0.0
 40
0.0
 40
0.0
 40
0.0
 40
0.058971745
 40
0.1419768143
 40
0.3702049211
 40
0.6635409119
 40
1.0
 40
1.0
 40
1.0
 40
1.0
 10
9.4148340747
 20
2.7273130748
 30
0.0
 10
9.4149829437
 20
2.727495431
 30
0.0
 10
9.4153912664
 20
2.7278918979
 30
0.0
 10
9.4165228616
 20
2.7288416381
 30
0.0
 10
9.4184784977
 20
2.7302607237
 30
0.0
 10
9.4213260999
 20
2.7321634891
 30
0.0
 10
9.4234607371
 20
2.7334928627
 30
0.0
 10
9.4246103814
 20
2.7341872744
 30
0.0
  0
SPLINE
  5
44E
100
AcDbEntity
  8
0
100
AcDbSpline
 62
9
  6
CONTINUOUS
 70
0
 71
3
 72
12
 73
8
 74
0
 42
0.0000001
 43
0.0000001
 44
0.0000000001
 40
0.0
 40
0.0
 40
0.0
 40
0.0
 40
0.0736979616
 40
0.1668853996
 40
0.4023916124
 40
0.6868784871
 40
1.0
 40
1.0
 40
1.0
 40
1.0
 10
9.7383577937
 20
2.5476421734
 30
0.0
 10
9.7382223284
 20
2.5479566208
 30
0.0
 10
9.7379663139
 20
2.5486900884
 30
0.0
 10
9.7374687548
 20
2.5504924906
 30
0.0
 10
9.7369007003
 20
2.5532869908
 30
0.0
 10
9.73631474
 20
2.557113457
 30
0.0
 10
9.7360090086
 20
2.5598740334
 30
0.0
 10
9.7358780819
 20
2.5613228288
 30
0.0
  0
SPLINE
  5
44F
100
AcDbEntity
  8
0
100
AcDbSpline
 62
9
  6
CONTINUOUS
 70
0
 71
3
 72
13
 73
9
 74
0
 42
0.0000001
 43
0.0000001
 44
0.0000000001
 40
0.0
 40
0.0
 40
0.0
 40
0.0
 40
0.1031101996
 40
0.1876612235
 40
0.2978459298
 40
0.4346024157
 40
0.5983267309
 40
1.0
 40
1.0
 40
1.0
 40
1.0
 10
9.0299504414
 20
10.9579531586
 30
0.0
 10
9.0300596536
 20
10.9577640368
 30
0.0
 10
9.0305200902
 20
10.9576452082
 30
0.0
 10
9.031129267
 20
10.9576623273
 30
0.0
 10
9.0318333878
 20
10.957761626
 30
0.0
 10
9.0326782581
 20
10.9579596549
 30
0.0
 10
9.0341050905
 20
10.9583856489
 30
0.0
 10
9.0352261103
 20
10.9588093421
 30
0.0
 10
9.0360156476
 20
10.9591262264
 30
0.0
  0
LINE
  5
450
100
AcDbEntity
  8
0
100
AcDbLine
 62
9
  6
CONTINUOUS
 10
9.0360156476
 20
10.9591262264
 11
9.0410053025
 21
10.9613636045
  0
SPLINE
  5
451
100
AcDbEntity
  8
0
100
AcDbSpline
 62
9
  6
CONTINUOUS
 70
0
 71
3
 72
15
 73
11
 74
0
 42
0.0000001
 43
0.0000001
 44
0.0000000001
 40
0.0
 40
0.0
 40
0.0
 40
0.0
 40
0.1251708417
 40
0.2501214824
 40
0.3748346906
 40
0.499656972
 40
0.6246078308
 40
0.7496647651
 40
0.8749422125
 40
1.0
 40
1.0
 40
1.0
 40
1.0
 10
10.3657514795
 20
2.7273130739
 30
0.0
 10
10.3578422822
 20
2.713120882
 30
0.0
 10
10.3400238716
 20
2.6858327314
 30
0.0
 10
10.3079343399
 20
2.6490617864
 30
0.0
 10
10.271064558
 20
2.6171413433
 30
0.0
 10
10.2301542221
 20
2.5906086376
 30
0.0
 10
10.1859678147
 20
2.5698845401
 30
0.0
 10
10.139293293
 20
2.5553995352
 30
0.0
 10
10.0910551778
 20
2.5475294614
 30
0.0
 10
10.0584394457
 20
2.5468185428
 30
0.0
 10
10.0422277611
 20
2.5476421734
 30
0.0
  0
SPLINE
  5
452
100
AcDbEntity
  8
0
100
AcDbSpline
 62
9
  6
CONTINUOUS
 70
0
 71
3
 72
13
 73
9
 74
0
 42
0.0000001
 43
0.0000001
 44
0.0000000001
 40
0.0
 40
0.0
 40
0.0
 40
0.0
 40
0.1023740161
 40
0.1863682287
 40
0.2960655389
 40
0.4325778984
 40
0.5964752543
 40
1.0
 40
1.0
 40
1.0
 40
1.0
 10
8.6836350926
 20
11.5577889382
 30
0.0
 10
8.6835266902
 20
11.5579767792
 30
0.0
 10
8.6836509072
 20
11.5584318237
 30
0.0
 10
8.6839675765
 20
11.5589487813
 30
0.0
 10
8.684403206
 20
11.5595073865
 30
0.0
 10
8.6849960503
 20
11.5601397667
 30
0.0
 10
8.6860810674
 20
11.5611655445
 30
0.0
 10
8.6870120075
 20
11.5619274475
 30
0.0
 10
8.6876844194
 20
11.5624553108
 30
0.0
  0
LINE
  5
453
100
AcDbEntity
  8
0
100
AcDbLine
 62
9
  6
CONTINUOUS
 10
8.6876844194
 20
11.5624553108
 11
8.6921160765
 21
11.5656574701
  0
SPLINE
  5
454
100
AcDbEntity
  8
0
100
AcDbSpline
 62
9
  6
CONTINUOUS
 70
0
 71
3
 72
10
 73
6
 74
0
 42
0.0000001
 43
0.0000001
 44
0.0000000001
 40
0.0
 40
0.0
 40
0.0
 40
0.0
 40
0.2444532272
 40
0.4983951497
 40
1.0
 40
1.0
 40
1.0
 40
1.0
 10
12.0188904744
 20
10.8695625338
 30
0.0
 10
12.0204767125
 20
10.8695625338
 30
0.0
 10
12.0237237795
 20
10.8700638927
 30
0.0
 10
12.0297365059
 20
10.8725591527
 30
0.0
 10
12.0336275952
 20
10.8759642899
 30
0.0
 10
12.0353688695
 20
10.8787142311
 30
0.0
  0
SPLINE
  5
455
100
AcDbEntity
  8
0
100
AcDbSpline
 62
9
  6
CONTINUOUS
 70
0
 71
3
 72
9
 73
5
 74
0
 42
0.0000001
 43
0.0000001
 44
0.0000000001
 40
0.0
 40
0.0
 40
0.0
 40
0.0
 40
0.2466701217
 40
1.0
 40
1.0
 40
1.0
 40
1.0
 10
12.0176583919
 20
10.8723460389
 30
0.0
 10
12.0186939003
 20
10.8723460408
 30
0.0
 10
12.0228870853
 20
10.8727261093
 30
0.0
 10
12.026930389
 20
10.8744077883
 30
0.0
 10
12.0295371224
 20
10.8761983101
 30
0.0
  0
SPLINE
  5
456
100
AcDbEntity
  8
0
100
AcDbSpline
 62
9
  6
CONTINUOUS
 70
0
 71
3
 72
9
 73
5
 74
0
 42
0.0000001
 43
0.0000001
 44
0.0000000001
 40
0.0
 40
0.0
 40
0.0
 40
0.0
 40
0.2566517133
 40
1.0
 40
1.0
 40
1.0
 40
1.0
 10
12.0295371224
 20
10.8761983101
 30
0.0
 10
12.0299823998
 20
10.8765041638
 30
0.0
 10
12.0316713054
 20
10.8777597365
 30
0.0
 10
12.0331716356
 20
10.8792827451
 30
0.0
 10
12.034091984
 20
10.8805480299
 30
0.0
  0
SPLINE
  5
457
100
AcDbEntity
  8
0
100
AcDbSpline
 62
9
  6
CONTINUOUS
 70
0
 71
3
 72
12
 73
8
 74
0
 42
0.0000001
 43
0.0000001
 44
0.0000000001
 40
0.0
 40
0.0
 40
0.0
 40
0.0
 40
0.0746361703
 40
0.1687432634
 40
0.4055506068
 40
0.6897686686
 40
1.0
 40
1.0
 40
1.0
 40
1.0
 10
10.0422277596
 20
2.5476421734
 30
0.0
 10
10.0423649498
 20
2.5479606247
 30
0.0
 10
10.0426235419
 20
2.548702375
 30
0.0
 10
10.0431236388
 20
2.5505193115
 30
0.0
 10
10.0436911842
 20
2.5533231837
 30
0.0
 10
10.0442738005
 20
2.5571414131
 30
0.0
 10
10.0445777529
 20
2.5598874026
 30
0.0
 10
10.0447074715
 20
2.5613228288
 30
0.0
  0
SPLINE
  5
458
100
AcDbEntity
  8
0
100
AcDbSpline
 62
9
  6
CONTINUOUS
 70
0
 71
3
 72
11
 73
7
 74
0
 42
0.0000001
 43
0.0000001
 44
0.0000000001
 40
0.0
 40
0.0
 40
0.0
 40
0.0
 40
0.1687477533
 40
0.363794632
 40
0.6345169093
 40
1.0
 40
1.0
 40
1.0
 40
1.0
 10
12.0188909763
 20
10.8695625338
 30
0.0
 10
12.0187035506
 20
10.8695625373
 30
0.0
 10
12.018283808
 20
10.8696977848
 30
0.0
 10
12.017893164
 20
10.8703264129
 30
0.0
 10
12.0176929117
 20
10.8712307831
 30
0.0
 10
12.0176582249
 20
10.8719401021
 30
0.0
 10
12.0176582233
 20
10.872346039
 30
0.0
  0
LINE
  5
459
100
AcDbEntity
  8
0
100
AcDbLine
 62
9
  6
CONTINUOUS
 10
9.0410053024
 20
10.9613636046
 11
9.039769723
 21
10.9635362912
  0
LINE
  5
45A
100
AcDbEntity
  8
0
100
AcDbLine
 62
9
  6
CONTINUOUS
 10
8.69337989
 20
11.5635010803
 11
8.6921160766
 21
11.56565747
  0
SPLINE
  5
45B
100
AcDbEntity
  8
0
100
AcDbSpline
 62
9
  6
CONTINUOUS
 70
0
 71
3
 72
9
 73
5
 74
0
 42
0.0000001
 43
0.0000001
 44
0.0000000001
 40
0.0
 40
0.0
 40
0.0
 40
0.0
 40
0.2516762892
 40
1.0
 40
1.0
 40
1.0
 40
1.0
 10
10.5705075827
 20
2.9589959224
 30
0.0
 10
10.5725471625
 20
2.9646082494
 30
0.0
 10
10.5801690906
 20
2.9870792658
 30
0.0
 10
10.585812537
 20
3.0102293783
 30
0.0
 10
10.5887830847
 20
3.0277343503
 30
0.0
  0
SPLINE
  5
45C
100
AcDbEntity
  8
0
100
AcDbSpline
 62
9
  6
CONTINUOUS
 70
0
 71
3
 72
9
 73
5
 74
0
 42
0.0000001
 43
0.0000001
 44
0.0000000001
 40
0.0
 40
0.0
 40
0.0
 40
0.0
 40
0.2516085232
 40
1.0
 40
1.0
 40
1.0
 40
1.0
 10
10.5887830847
 20
3.0277343503
 30
0.0
 10
10.5896483499
 20
3.0328332224
 30
0.0
 10
10.5926699567
 20
3.0531664748
 30
0.0
 10
10.5940058084
 20
3.0737538956
 30
0.0
 10
10.5939992849
 20
3.0891369456
 30
0.0
  0
SPLINE
  5
45D
100
AcDbEntity
  8
0
100
AcDbSpline
 62
9
  6
CONTINUOUS
 70
0
 71
3
 72
10
 73
6
 74
0
 42
0.0000001
 43
0.0000001
 44
0.0000000001
 40
0.0
 40
0.0
 40
0.0
 40
0.0
 40
0.2475813872
 40
0.4980949561
 40
1.0
 40
1.0
 40
1.0
 40
1.0
 10
10.056346617
 20
2.4477038543
 30
0.0
 10
10.068886528
 20
2.4487396116
 30
0.0
 10
10.0940494125
 20
2.4517828936
 30
0.0
 10
10.1439133736
 20
2.4617625956
 30
0.0
 10
10.1804252153
 20
2.4739235946
 30
0.0
 10
10.2038322008
 20
2.4840609089
 30
0.0
  0
SPLINE
  5
45E
100
AcDbEntity
  8
0
100
AcDbSpline
 62
9
  6
CONTINUOUS
 70
0
 71
3
 72
9
 73
5
 74
0
 42
0.0000001
 43
0.0000001
 44
0.0000000001
 40
0.0
 40
0.0
 40
0.0
 40
0.0
 40
0.2553232949
 40
1.0
 40
1.0
 40
1.0
 40
1.0
 10
10.3365866348
 20
2.574644744
 30
0.0
 10
10.3406506782
 20
2.5787971871
 30
0.0
 10
10.3562067706
 20
2.5954093654
 30
0.0
 10
10.3703337334
 20
2.6133665922
 30
0.0
 10
10.3798703354
 20
2.6273747548
 30
0.0
  0
SPLINE
  5
45F
100
AcDbEntity
  8
0
100
AcDbSpline
 62
9
  6
CONTINUOUS
 70
0
 71
3
 72
10
 73
6
 74
0
 42
0.0000001
 43
0.0000001
 44
0.0000000001
 40
0.0
 40
0.0
 40
0.0
 40
0.0
 40
0.3225185723
 40
0.5882169523
 40
1.0
 40
1.0
 40
1.0
 40
1.0
 10
10.0563466102
 20
2.4477038537
 30
0.0
 10
10.0564758423
 20
2.4475138243
 30
0.0
 10
10.0567349736
 20
2.4471804363
 30
0.0
 10
10.0572592117
 20
2.4467001316
 30
0.0
 10
10.0577598792
 20
2.446520381
 30
0.0
 10
10.0580516165
 20
2.446551701
 30
0.0
  0
SPLINE
  5
460
100
AcDbEntity
  8
0
100
AcDbSpline
 62
9
  6
CONTINUOUS
 70
0
 71
3
 72
12
 73
8
 74
0
 42
0.0000001
 43
0.0000001
 44
0.0000000001
 40
0.0
 40
0.0
 40
0.0
 40
0.0
 40
0.2486807161
 40
0.4996912102
 40
0.625552665
 40
0.7512890333
 40
1.0
 40
1.0
 40
1.0
 40
1.0
 10
9.5056011532
 20
2.5231666325
 30
0.0
 10
9.5216161914
 20
2.5122586746
 30
0.0
 10
9.5553582653
 20
2.4925504371
 30
0.0
 10
9.6005048822
 20
2.473790711
 30
0.0
 10
9.63798727
 20
2.4623566814
 30
0.0
 10
9.675947305
 20
2.4533974295
 30
0.0
 10
9.7049254296
 20
2.449299083
 30
0.0
 10
9.7242389376
 20
2.4477038543
 30
0.0
  0
SPLINE
  5
461
100
AcDbEntity
  8
0
100
AcDbSpline
 62
9
  6
CONTINUOUS
 70
0
 71
3
 72
10
 73
6
 74
0
 42
0.0000001
 43
0.0000001
 44
0.0000000001
 40
0.0
 40
0.0
 40
0.0
 40
0.0
 40
0.3239012362
 40
0.5897107549
 40
1.0
 40
1.0
 40
1.0
 40
1.0
 10
9.7242389381
 20
2.4477038542
 30
0.0
 10
9.7241090859
 20
2.447512913
 30
0.0
 10
9.7238492049
 20
2.4471784781
 30
0.0
 10
9.7233245571
 20
2.4466979972
 30
0.0
 10
9.7228243057
 20
2.446519343
 30
0.0
 10
9.7225335316
 20
2.4465510545
 30
0.0
  0
SPLINE
  5
462
100
AcDbEntity
  8
0
100
AcDbSpline
 62
9
  6
CONTINUOUS
 70
0
 71
3
 72
11
 73
7
 74
0
 42
0.0000001
 43
0.0000001
 44
0.0000000001
 40
0.0
 40
0.0
 40
0.0
 40
0.0
 40
0.2827582959
 40
0.5547194355
 40
0.7987544316
 40
1.0
 40
1.0
 40
1.0
 40
1.0
 10
12.0188906886
 20
11.109166767
 30
0.0
 10
12.0204544095
 20
11.1088969892
 30
0.0
 10
12.0235631489
 20
11.1085892042
 30
0.0
 10
12.0280580534
 20
11.1087260855
 30
0.0
 10
12.0320334246
 20
11.1094123586
 30
0.0
 10
12.0344077651
 20
11.1103065551
 30
0.0
 10
12.0353688695
 20
11.1108996585
 30
0.0
  0
SPLINE
  5
463
100
AcDbEntity
  8
0
100
AcDbSpline
 62
9
  6
CONTINUOUS
 70
0
 71
3
 72
9
 73
5
 74
0
 42
0.0000001
 43
0.0000001
 44
0.0000000001
 40
0.0
 40
0.0
 40
0.0
 40
0.0
 40
0.468797866
 40
1.0
 40
1.0
 40
1.0
 40
1.0
 10
12.0176579238
 20
11.0949155221
 30
0.0
 10
12.0176579251
 20
11.0971523861
 30
0.0
 10
12.0179105804
 20
11.1019242356
 30
0.0
 10
12.018506568
 20
11.1066614554
 30
0.0
 10
12.0188906939
 20
11.1091668043
 30
0.0
  0
SPLINE
  5
464
100
AcDbEntity
  8
0
100
AcDbSpline
 62
9
  6
CONTINUOUS
 70
0
 71
3
 72
11
 73
7
 74
0
 42
0.0000001
 43
0.0000001
 44
0.0000000001
 40
0.0
 40
0.0
 40
0.0
 40
0.0
 40
0.2265434706
 40
0.4763347151
 40
0.7382626985
 40
1.0
 40
1.0
 40
1.0
 40
1.0
 10
12.034091984
 20
11.1012589483
 30
0.0
 10
12.0331597474
 20
11.1002677357
 30
0.0
 10
12.0308720393
 20
11.0984895526
 30
0.0
 10
12.0268669623
 20
11.0965366261
 30
0.0
 10
12.0223811071
 20
11.0952465595
 30
0.0
 10
12.0192305052
 20
11.0949155282
 30
0.0
 10
12.0176583919
 20
11.0949155221
 30
0.0
  0
LINE
  5
465
100
AcDbEntity
  8
0
100
AcDbLine
 62
9
  6
CONTINUOUS
 10
10.6209058636
 20
11.0831664246
 11
10.6222973067
 21
11.0856098301
  0
LINE
  5
466
100
AcDbEntity
  8
0
100
AcDbLine
 62
9
  6
CONTINUOUS
 10
10.9222276055
 20
11.6051043457
 11
10.9236479474
 21
11.6075310954
  0
SPLINE
  5
467
100
AcDbEntity
  8
0
100
AcDbSpline
 62
9
  6
CONTINUOUS
 70
0
 71
3
 72
10
 73
6
 74
0
 42
0.0000001
 43
0.0000001
 44
0.0000000001
 40
0.0
 40
0.0
 40
0.0
 40
0.0
 40
0.5848824378
 40
0.817226024
 40
1.0
 40
1.0
 40
1.0
 40
1.0
 10
10.9236479474
 20
11.6075310954
 30
0.0
 10
10.9250945955
 20
11.6065103457
 30
0.0
 10
10.9270674694
 20
11.6050067562
 30
0.0
 10
10.9292924963
 20
11.6029528424
 30
0.0
 10
10.9301446153
 20
11.6020241534
 30
0.0
 10
10.9304821722
 20
11.6015857764
 30
0.0
  0
SPLINE
  5
468
100
AcDbEntity
  8
0
100
AcDbSpline
 62
9
  6
CONTINUOUS
 70
0
 71
3
 72
10
 73
6
 74
0
 42
0.0000001
 43
0.0000001
 44
0.0000000001
 40
0.0
 40
0.0
 40
0.0
 40
0.0
 40
0.3554719207
 40
0.6372307304
 40
1.0
 40
1.0
 40
1.0
 40
1.0
 10
10.9304821722
 20
11.6015857764
 30
0.0
 10
10.9306183765
 20
11.6014088913
 30
0.0
 10
10.93085235
 20
11.6010771409
 30
0.0
 10
10.9311469084
 20
11.6005437972
 30
0.0
 10
10.9312528394
 20
11.6000783191
 30
0.0
 10
10.9311389535
 20
11.5998809939
 30
0.0
  0
SPLINE
  5
469
100
AcDbEntity
  8
0
100
AcDbSpline
 62
9
  6
CONTINUOUS
 70
0
 71
3
 72
10
 73
6
 74
0
 42
0.0000001
 43
0.0000001
 44
0.0000000001
 40
0.0
 40
0.0
 40
0.0
 40
0.0
 40
0.5837187693
 40
0.8165664902
 40
1.0
 40
1.0
 40
1.0
 40
1.0
 10
10.6209058635
 20
11.0831664246
 30
0.0
 10
10.6225101598
 20
11.0824253618
 30
0.0
 10
10.6247972313
 20
11.0814695721
 30
0.0
 10
10.6276884561
 20
11.0805684943
 30
0.0
 10
10.6289222533
 20
11.0802934807
 30
0.0
 10
10.6294727057
 20
11.0802199842
 30
0.0
  0
SPLINE
  5
46A
100
AcDbEntity
  8
0
100
AcDbSpline
 62
9
  6
CONTINUOUS
 70
0
 71
3
 72
10
 73
6
 74
0
 42
0.0000001
 43
0.0000001
 44
0.0000000001
 40
0.0
 40
0.0
 40
0.0
 40
0.0
 40
0.3549894796
 40
0.6366620226
 40
1.0
 40
1.0
 40
1.0
 40
1.0
 10
10.6294727057
 20
11.0802199842
 30
0.0
 10
10.6296936049
 20
11.0801904897
 30
0.0
 10
10.6300973503
 20
11.0801537372
 30
0.0
 10
10.6307063628
 20
11.0801651377
 30
0.0
 10
10.6311624674
 20
11.0803065492
 30
0.0
 10
10.6312765482
 20
11.0805040726
 30
0.0
  0
SPLINE
  5
46B
100
AcDbEntity
  8
0
100
AcDbSpline
 62
9
  6
CONTINUOUS
 70
0
 71
3
 72
11
 73
7
 74
0
 42
0.0000001
 43
0.0000001
 44
0.0000000001
 40
0.0
 40
0.0
 40
0.0
 40
0.0
 40
0.2653512117
 40
0.532825675
 40
0.7836112918
 40
1.0
 40
1.0
 40
1.0
 40
1.0
 10
12.0188904744
 20
11.6149582635
 30
0.0
 10
12.0204833239
 20
11.6152330755
 30
0.0
 10
12.0236431197
 20
11.6160199399
 30
0.0
 10
12.0281195764
 20
11.6177077989
 30
0.0
 10
12.0320974386
 20
11.6197762264
 30
0.0
 10
12.0344190158
 20
11.621463192
 30
0.0
 10
12.0353688695
 20
11.6223771063
 30
0.0
  0
SPLINE
  5
46C
100
AcDbEntity
  8
0
100
AcDbSpline
 62
9
  6
CONTINUOUS
 70
0
 71
3
 72
12
 73
8
 74
0
 42
0.0000001
 43
0.0000001
 44
0.0000000001
 40
0.0
 40
0.0
 40
0.0
 40
0.0
 40
0.0582015254
 40
0.1403111518
 40
0.36704723
 40
0.6604626583
 40
1.0
 40
1.0
 40
1.0
 40
1.0
 10
10.3657514795
 20
2.7273130739
 30
0.0
 10
10.3656045552
 20
2.727493048
 30
0.0
 10
10.3652012774
 20
2.7278850882
 30
0.0
 10
10.3640801081
 20
2.7288276603
 30
0.0
 10
10.3621329897
 20
2.7302427714
 30
0.0
 10
10.3592806389
 20
2.7321504091
 30
0.0
 10
10.3571353323
 20
2.7334865104
 30
0.0
 10
10.3559751727
 20
2.7341872736
 30
0.0
  0
SPLINE
  5
46D
100
AcDbEntity
  8
0
100
AcDbSpline
 62
9
  6
CONTINUOUS
 70
0
 71
3
 72
10
 73
6
 74
0
 42
0.0000001
 43
0.0000001
 44
0.0000000001
 40
0.0
 40
0.0
 40
0.0
 40
0.0
 40
0.5575464603
 40
0.8031743723
 40
1.0
 40
1.0
 40
1.0
 40
1.0
 10
12.0176583919
 20
11.6319930507
 30
0.0
 10
12.020739498
 20
11.6319930519
 30
0.0
 10
12.025184793
 20
11.632237585
 30
0.0
 10
12.0306573287
 20
11.6330065722
 30
0.0
 10
12.0330535131
 20
11.6335281046
 30
0.0
 10
12.034091984
 20
11.6338516153
 30
0.0
  0
SPLINE
  5
46E
100
AcDbEntity
  8
0
100
AcDbSpline
 62
9
  6
CONTINUOUS
 70
0
 71
3
 72
11
 73
7
 74
0
 42
0.0000001
 43
0.0000001
 44
0.0000000001
 40
0.0
 40
0.0
 40
0.0
 40
0.0
 40
0.2527512358
 40
0.504016525
 40
0.7530410603
 40
1.0
 40
1.0
 40
1.0
 40
1.0
 10
10.5689504567
 20
3.1569227013
 30
0.0
 10
10.5689457183
 20
3.1412390702
 30
0.0
 10
10.566758448
 20
3.1099208614
 30
0.0
 10
10.5569775127
 20
3.0640722541
 30
0.0
 10
10.5408161272
 20
3.0204405528
 30
0.0
 10
10.5259738971
 20
2.9933370894
 30
0.0
 10
10.5176864632
 20
2.9804471763
 30
0.0
  0
SPLINE
  5
46F
100
AcDbEntity
  8
0
100
AcDbSpline
 62
9
  6
CONTINUOUS
 70
0
 71
3
 72
9
 73
5
 74
0
 42
0.0000001
 43
0.0000001
 44
0.0000000001
 40
0.0
 40
0.0
 40
0.0
 40
0.0
 40
0.2384750206
 40
1.0
 40
1.0
 40
1.0
 40
1.0
 10
12.0188909764
 20
11.6149582633
 30
0.0
 10
12.0186851316
 20
11.6163009902
 30
0.0
 10
12.0179404994
 20
11.6219494257
 30
0.0
 10
12.0176582286
 20
11.6276552131
 30
0.0
 10
12.0176582233
 20
11.6319930507
 30
0.0
  0
SPLINE
  5
470
100
AcDbEntity
  8
0
100
AcDbSpline
 62
9
  6
CONTINUOUS
 70
0
 71
3
 72
11
 73
7
 74
0
 42
0.0000001
 43
0.0000001
 44
0.0000000001
 40
0.0
 40
0.0
 40
0.0
 40
0.0
 40
0.1780731959
 40
0.4123894776
 40
0.6917373822
 40
1.0
 40
1.0
 40
1.0
 40
1.0
 10
10.5176864626
 20
2.9804471754
 30
0.0
 10
10.517688709
 20
2.9812464077
 30
0.0
 10
10.5171459789
 20
2.9830748018
 30
0.0
 10
10.5155990466
 20
2.9857682404
 30
0.0
 10
10.5133021014
 20
2.9886738537
 30
0.0
 10
10.5114257023
 20
2.9905355335
 30
0.0
 10
10.5103898677
 20
2.9914527449
 30
0.0
  0
SPLINE
  5
471
100
AcDbEntity
  8
0
100
AcDbSpline
 62
9
  6
CONTINUOUS
 70
0
 71
3
 72
12
 73
8
 74
0
 42
0.0000001
 43
0.0000001
 44
0.0000000001
 40
0.0
 40
0.0
 40
0.0
 40
0.0
 40
0.2808451859
 40
0.4176533021
 40
0.5482781885
 40
0.7869469663
 40
1.0
 40
1.0
 40
1.0
 40
1.0
 10
12.8336080242
 20
11.6319576381
 30
0.0
 10
12.838844108
 20
11.6332881427
 30
0.0
 10
12.8468998582
 20
11.6343923565
 30
0.0
 10
12.8574591581
 20
11.6339025147
 30
0.0
 10
12.8670570959
 20
11.6320722509
 30
0.0
 10
12.8773936991
 20
11.6271601092
 30
0.0
 10
12.8835203495
 20
11.6206118497
 30
0.0
 10
12.8855695483
 20
11.6170625332
 30
0.0
  0
ENDSEC
  0
SECTION
  2
OBJECTS
  0
DICTIONARY
  5
C
100
AcDbDictionary
280
0
281
1
  3
ACAD_GROUP
350
D
  3
ACAD_MLINESTYLE
350
17
  3
ACAD_LAYOUT
350
1A
  3
ACAD_PLOTSETTINGS
350
19
  3
ACAD_PLOTSTYLENAME
350
E
  0
DICTIONARY
  5
D
102
{ACAD_REACTORS
330
C
102
}
100
AcDbDictionary
280
0
281
1
  0
ACDBDICTIONARYWDFLT
  5
E
102
{ACAD_REACTORS
330
C
102
}
100
AcDbDictionary
281
1
  3
Normal
350
F
100
AcDbDictionaryWithDefault
340
F
  0
DICTIONARY
  5
17
102
{ACAD_REACTORS
330
C
102
}
100
AcDbDictionary
280
0
281
1
  3
Standard
350
18
  0
DICTIONARY
  5
19
102
{ACAD_REACTORS
330
C
102
}
100
AcDbDictionary
281
1
  0
DICTIONARY
  5
1A
102
{ACAD_REACTORS
330
C
102
}
100
AcDbDictionary
281
1
  3
Model
350
472
  3
Layout1
350
473
  0
ACDBPLACEHOLDER
  5
F
102
{ACAD_REACTORS
330
E
102
}
  0
MLINESTYLE
  5
18
102
{ACAD_REACTORS
330
17
102
}
100
AcDbMlineStyle
  2
STANDARD
 70
0
  3

 62
256
 51
90.0
 52
90.0
 71
2
 49
0.5
 62
256
  6
BYLAYER
 49
-0.5
 62
256
  6
BYLAYER
  0
LAYOUT
  5
472
102
{ACAD_REACTORS
330
1A
102
}
100
AcDbPlotSettings
  1

  2
none_device
  4
ANSI_C_(22.00_x_17.00_Inches)
  6

 40
0.0
 41
0.0
 42
0.0
 43
0.0
 44
558.8
 45
431.8
 46
0.0
 47
0.0
 48
0.0
 49
0.0
140
0.0
141
0.0
142
1.0
143
1.0
 70
1024
 72
0
 73
0
 74
0
  7

 75
0
147
1.0
148
0.0
149
0.0
100
AcDbLayout
  1
Model
 70
0
 71
0
 10
0.0
 20
0.0
 11
22.0
 21
17.0
 12
0.0
 22
0.0
 32
0.0
 14
0.0
 24
0.0
 34
0.0
 15
0.0
 25
0.0
 35
0.0
146
0.0
 13
0.0
 23
0.0
 33
0.0
 16
1.0
 26
0.0
 36
0.0
 17
0.0
 27
1.0
 37
0.0
 76
0
330
202
345
0
346
0
  0
LAYOUT
  5
473
102
{ACAD_REACTORS
330
1A
102
}
100
AcDbPlotSettings
  1

  2
none_device
  4
ANSI_C_(22.00_x_17.00_Inches)
  6

 40
0.0
 41
0.0
 42
0.0
 43
0.0
 44
558.8
 45
431.8
 46
0.0
 47
0.0
 48
0.0
 49
0.0
140
0.0
141
0.0
142
1.0
143
1.0
 70
0
 72
0
 73
0
 74
0
  7

 75
0
147
1.0
148
0.0
149
0.0
100
AcDbLayout
  1
Layout1
 70
0
 71
1
 10
0.0
 20
0.0
 11
22.0
 21
17.0
 12
0.0
 22
0.0
 32
0.0
 14
0.0
 24
0.0
 34
0.0
 15
0.0
 25
0.0
 35
0.0
146
0.0
 13
0.0
 23
0.0
 33
0.0
 16
1.0
 26
0.0
 36
0.0
 17
0.0
 27
1.0
 37
0.0
 76
0
330
203
345
0
346
0
  0
ENDSEC
  0
EOF
