999
DXF file: 3190-5143_RIGHT.dxf
999
Pro/ENGINEER 2023134 by Parametric Technology Corporation
  0
SECTION
  2
HEADER
  9
$ACADVER
  1
AC1032
  9
$DWGCODEPAGE
  3
ANSI_1252
  9
$EXTMAX
 10
11.0
 20
8.5
 30
0.0
  9
$EXTMIN
 10
0.0
 20
0.0
 30
0.0
  9
$LIMMIN
 10
0.0
 20
0.0
  9
$LIMMAX
 10
11.0
 20
8.5
  9
$VIEWCTR
 10
5.5
 20
4.25
  9
$VIEWSIZE
 40
8.5
  9
$CLAYER
  8
0
  9
$LTSCALE
 40
0.605
  9
$CELTYPE
  6
BYLAYER
  9
$DIMSCALE
 40
1.0
  9
$DIMASZ
 40
0.1
  9
$DIMEXO
 40
0.0625
  9
$DIMDLI
 40
0.418
  9
$DIMEXE
 40
0.125
  9
$DIMCEN
 40
0.099
  9
$DIMLFAC
 40
1.0
  9
$DIMBLK
  1
_FILLED
  9
$DIMALT
 70
1
  9
$DIMALTD
 70
2
  9
$DIMALTTD
 70
2
  9
$DIMALTF
 40
25.4
  9
$DIMTXT
 40
0.08
  9
$DIMTOL
 70
1
  9
$DIMLIM
 70
0
  9
$DIMTFAC
 40
1.0
  9
$DIMTP
 40
0.001
  9
$DIMTM
 40
0.001
  9
$DIMGAP
 40
0.09
  9
$DIMDSEP
 70
46
  9
$AUNITS
 70
0
  9
$PDMODE
 70
3
  9
$PDSIZE
 40
0.3125
  9
$HANDSEED
  5
4EF
  9
$TILEMODE
 70
1
  9
$MEASUREMENT
 70
0
  9
$INSUNITS
 70
1
  0
ENDSEC
  0
SECTION
  2
CLASSES
  0
CLASS
  1
ACDBDICTIONARYWDFLT
  2
AcDbDictionaryWithDefault
  3
AutoCAD 2000
 90
0
 91
1
280
0
281
0
  0
CLASS
  1
ACDBPLACEHOLDER
  2
AcDbPlaceHolder
  3
AutoCAD 2000
 90
0
 91
1
280
0
281
0
  0
CLASS
  1
LAYOUT
  2
AcDbLayout
  3
AutoCAD 2000
 90
0
 91
0
280
0
281
0
  0
ENDSEC
  0
SECTION
  2
TABLES
  0
TABLE
  2
VPORT
  5
8
100
AcDbSymbolTable
 70
2
  0
VPORT
  5
1F4
100
AcDbSymbolTableRecord
100
AcDbViewportTableRecord
  2
*ACTIVE
 70
0
 10
0.0
 20
0.0
 11
1.0
 21
1.0
 12
5.5
 22
4.25
 13
0.0
 23
0.0
 14
1.0
 24
1.0
 15
0.0
 25
0.0
 16
0.0
 26
0.0
 36
1.0
 17
0.0
 27
0.0
 37
0.0
 40
8.5
 41
1.2941176471
 42
50.0
 43
0.0
 44
0.0
 50
0.0
 51
0.0
 71
0
 72
100
 73
1
 74
1
 75
0
 76
0
 77
0
 78
0
  0
ENDTAB
  0
TABLE
  2
LTYPE
  5
5
100
AcDbSymbolTable
 70
6
  0
LTYPE
  5
14
100
AcDbSymbolTableRecord
100
AcDbLinetypeTableRecord
  2
BYBLOCK
 70
0
  3

 72
65
 73
0
 40
0.0
  0
LTYPE
  5
15
100
AcDbSymbolTableRecord
100
AcDbLinetypeTableRecord
  2
BYLAYER
 70
0
  3

 72
65
 73
0
 40
0.0
  0
LTYPE
  5
16
100
AcDbSymbolTableRecord
100
AcDbLinetypeTableRecord
  2
CONTINUOUS
 70
64
  3
Solid line
 72
65
 73
0
 40
0.0
  0
LTYPE
  5
1F5
100
AcDbSymbolTableRecord
100
AcDbLinetypeTableRecord
  2
CENTER
 70
64
  3
____ _ ____ _ ____ _ ____ _ ____ _ ____ _ ____
 72
65
 73
4
 40
0.6
 49
0.375
 74
0
 49
-0.075
 74
0
 49
0.075
 74
0
 49
-0.075
 74
0
  0
LTYPE
  5
1F6
100
AcDbSymbolTableRecord
100
AcDbLinetypeTableRecord
  2
HIDDEN
 70
64
  3
- - - - - - - - - - - - - - - - - - - -
 72
65
 73
2
 40
0.2
 49
0.1
 74
0
 49
-0.1
 74
0
  0
LTYPE
  5
1F7
100
AcDbSymbolTableRecord
100
AcDbLinetypeTableRecord
  2
PHANTOM
 70
64
  3
_____ _ _ _____ _ _ _____ _ _ _____
 72
65
 73
6
 40
0.8
 49
0.45
 74
0
 49
-0.05
 74
0
 49
0.1
 74
0
 49
-0.05
 74
0
 49
0.1
 74
0
 49
-0.05
 74
0
  0
LTYPE
  5
1F8
100
AcDbSymbolTableRecord
100
AcDbLinetypeTableRecord
  2
DOT
 70
64
  3
. . . . . . . . . . . . . . . . . . . .
 72
65
 73
2
 40
0.2
 49
0.1
 74
0
 49
-0.1
 74
0
  0
LTYPE
  5
1F9
100
AcDbSymbolTableRecord
100
AcDbLinetypeTableRecord
  2
DASHED
 70
64
  3
- - - - - - - - - - - - - - - - - - - -
 72
65
 73
2
 40
0.2
 49
0.1
 74
0
 49
-0.1
 74
0
  0
ENDTAB
  0
TABLE
  2
LAYER
  5
2
100
AcDbSymbolTable
 70
36
  0
LAYER
  5
10
100
AcDbSymbolTableRecord
100
AcDbLayerTableRecord
  2
0
 70
0
 62
7
  6
CONTINUOUS
370
-3
390
F
  0
LAYER
  5
1FA
100
AcDbSymbolTableRecord
100
AcDbLayerTableRecord
  2
DEFAULT_1
 70
0
 62
7
  6
CENTER
370
-3
390
F
  0
LAYER
  5
1FB
100
AcDbSymbolTableRecord
100
AcDbLayerTableRecord
  2
DEFAULT_2
 70
0
 62
8
  6
HIDDEN
370
-3
390
F
  0
LAYER
  5
1FC
100
AcDbSymbolTableRecord
100
AcDbLayerTableRecord
  2
DEFAULT_3
 70
0
 62
7
  6
PHANTOM
370
-3
390
F
  0
LAYER
  5
1FD
100
AcDbSymbolTableRecord
100
AcDbLayerTableRecord
  2
DEFAULT_COORDINATE_SYSTEM
 70
0
 62
7
  6
CONTINUOUS
370
-3
390
F
  0
LAYER
  5
1FE
100
AcDbSymbolTableRecord
100
AcDbLayerTableRecord
  2
DEFAULT_DATUM_AXES
 70
0
 62
7
  6
CONTINUOUS
370
-3
390
F
  0
LAYER
  5
1FF
100
AcDbSymbolTableRecord
100
AcDbLayerTableRecord
  2
DEFAULT_DATUM_PLANES
 70
0
 62
7
  6
CONTINUOUS
370
-3
390
F
  0
ENDTAB
  0
TABLE
  2
STYLE
  5
3
100
AcDbSymbolTable
 70
1
  0
STYLE
  5
11
100
AcDbSymbolTableRecord
100
AcDbTextStyleTableRecord
  2
STANDARD
 70
0
 40
0.0
 41
0.8
 50
0.0
 71
0
 42
0.2
  3
txt
  4

  0
STYLE
  5
200
100
AcDbSymbolTableRecord
100
AcDbTextStyleTableRecord
  2
TEXTSTYLE_1
 70
0
 40
0.0
 41
0.8
 50
0.0
 71
0
 42
0.2
  3
gdt
  4

  0
ENDTAB
  0
TABLE
  2
VIEW
  5
6
100
AcDbSymbolTable
 70
0
  0
ENDTAB
  0
TABLE
  2
UCS
  5
7
100
AcDbSymbolTable
 70
0
  0
ENDTAB
  0
TABLE
  2
APPID
  5
9
100
AcDbSymbolTable
 70
1
  0
APPID
  5
201
100
AcDbSymbolTableRecord
100
AcDbRegAppTableRecord
  2
ACAD
 70
0
  0
ENDTAB
  0
TABLE
  2
BLOCK_RECORD
  5
1
100
AcDbSymbolTable
 70
0
  0
BLOCK_RECORD
  5
202
100
AcDbSymbolTableRecord
100
AcDbBlockTableRecord
  2
*Model_Space
  0
BLOCK_RECORD
  5
203
100
AcDbSymbolTableRecord
100
AcDbBlockTableRecord
  2
*Paper_Space
  0
BLOCK_RECORD
  5
204
100
AcDbSymbolTableRecord
100
AcDbBlockTableRecord
  2
_FILLED
  0
ENDTAB
  0
TABLE
  2
DIMSTYLE
  5
A
100
AcDbSymbolTable
 70
1
100
AcDbDimStyleTable
 71
0
  0
DIMSTYLE
105
205
100
AcDbSymbolTableRecord
100
AcDbDimStyleTableRecord
  2
STANDARD
 70
0
  3

  4

 40
1.0
 41
0.1
 42
0.0625
 43
0.38
 44
0.125
 45
0.0
 46
0.0
 47
0.001
 48
0.001
140
0.08
141
0.09
142
0.0
143
25.4
144
1.0
145
0.0
146
1.0
147
0.09
 71
1
 72
0
 73
1
 74
1
 75
0
 76
0
 77
0
 78
4
 79
1
170
1
171
2
172
0
173
0
174
0
175
0
176
0
177
0
178
0
270
2
179
3
271
3
272
3
273
2
274
2
275
0
280
0
281
0
282
0
283
1
284
4
285
0
286
0
287
3
288
0
340
11
278
46
341
204
342
204
343
204
344
204
  0
ENDTAB
  0
ENDSEC
  0
SECTION
  2
BLOCKS
  0
BLOCK
  5
20
100
AcDbEntity
  8
0
100
AcDbBlockBegin
  2
*Model_Space
 70
0
 10
0.0
 20
0.0
 30
0.0
  3
*Model_Space
  1

  0
ENDBLK
  5
21
100
AcDbEntity
  8
0
100
AcDbBlockEnd
  0
BLOCK
  5
1C
100
AcDbEntity
  8
0
100
AcDbBlockBegin
  2
*Paper_Space
 70
0
 10
0.0
 20
0.0
 30
0.0
  3
*Paper_Space
  1

  0
ENDBLK
  5
1D
100
AcDbEntity
  8
0
100
AcDbBlockEnd
  0
BLOCK
  5
206
100
AcDbEntity
  8
0
100
AcDbBlockBegin
  2
_FILLED
 70
64
 10
0.0
 20
0.0
  3
_FILLED
  1

  0
SOLID
  5
207
100
AcDbEntity
  8
0
  6
BYBLOCK
 62
0
100
AcDbTrace
 10
0.0
 20
0.0
 11
-1.0
 21
0.2
 12
-1.0
 22
-0.2
 13
-1.0
 23
-0.2
  0
ENDBLK
  5
208
100
AcDbEntity
  8
0
  6
BYBLOCK
 62
0
100
AcDbBlockEnd
  0
ENDSEC
  0
SECTION
  2
ENTITIES
  0
LINE
  5
209
100
AcDbEntity
  8
0
100
AcDbLine
 62
7
  6
CONTINUOUS
 10
0.0
 20
0.0
 11
0.0
 21
8.5
  0
LINE
  5
20A
100
AcDbEntity
  8
0
100
AcDbLine
 62
7
  6
CONTINUOUS
 10
0.0
 20
0.0
 11
11.0
 21
0.0
  0
LINE
  5
20B
100
AcDbEntity
  8
0
100
AcDbLine
 62
7
  6
CONTINUOUS
 10
0.0
 20
8.5
 11
11.0
 21
8.5
  0
LINE
  5
20C
100
AcDbEntity
  8
0
100
AcDbLine
 62
7
  6
CONTINUOUS
 10
11.0
 20
0.0
 11
11.0
 21
8.5
  0
LINE
  5
20D
100
AcDbEntity
  8
0
100
AcDbLine
 62
7
  6
CONTINUOUS
 10
7.5437721846
 20
0.7227116331
 11
6.7781721846
 21
0.7227116331
  0
LINE
  5
20E
100
AcDbEntity
  8
0
100
AcDbLine
 62
7
  6
CONTINUOUS
 10
6.7480879463
 20
0.7458776514
 11
6.8380613668
 21
0.7458776514
  0
LINE
  5
20F
100
AcDbEntity
  8
0
100
AcDbLine
 62
7
  6
CONTINUOUS
 10
7.071377551
 20
0.7458776514
 11
7.2505668182
 21
0.7458776514
  0
LINE
  5
210
100
AcDbEntity
  8
0
100
AcDbLine
 62
7
  6
CONTINUOUS
 10
7.4838830023
 20
0.7458776514
 11
7.5738564228
 21
0.7458776514
  0
LINE
  5
211
100
AcDbEntity
  8
0
100
AcDbLine
 62
7
  6
CONTINUOUS
 10
6.7443408831
 20
0.752770995
 11
6.8351308427
 21
0.752770995
  0
LINE
  5
212
100
AcDbEntity
  8
0
100
AcDbLine
 62
7
  6
CONTINUOUS
 10
7.0705644496
 20
0.752770995
 11
7.2513799196
 21
0.752770995
  0
LINE
  5
213
100
AcDbEntity
  8
0
100
AcDbLine
 62
7
  6
CONTINUOUS
 10
7.4868135265
 20
0.752770995
 11
7.577603486
 21
0.752770995
  0
LINE
  5
214
100
AcDbEntity
  8
0
100
AcDbLine
 62
7
  6
CONTINUOUS
 10
7.2513799196
 20
0.8506522712
 11
7.0705644496
 21
0.8506522712
  0
LINE
  5
215
100
AcDbEntity
  8
0
100
AcDbLine
 62
7
  6
CONTINUOUS
 10
6.7443408831
 20
0.8506522712
 11
6.8351308427
 21
0.8506522712
  0
LINE
  5
216
100
AcDbEntity
  8
0
100
AcDbLine
 62
7
  6
CONTINUOUS
 10
7.4868135265
 20
0.8506522712
 11
7.577603486
 21
0.8506522712
  0
LINE
  5
217
100
AcDbEntity
  8
0
100
AcDbLine
 62
7
  6
CONTINUOUS
 10
6.7480879463
 20
0.8575456148
 11
6.8380613668
 21
0.8575456148
  0
LINE
  5
218
100
AcDbEntity
  8
0
100
AcDbLine
 62
7
  6
CONTINUOUS
 10
7.071377551
 20
0.8575456148
 11
7.2505668182
 21
0.8575456148
  0
LINE
  5
219
100
AcDbEntity
  8
0
100
AcDbLine
 62
7
  6
CONTINUOUS
 10
7.4838830023
 20
0.8575456148
 11
7.5738564228
 21
0.8575456148
  0
LINE
  5
21A
100
AcDbEntity
  8
0
100
AcDbLine
 62
7
  6
CONTINUOUS
 10
7.5437721846
 20
0.8807116331
 11
6.7781721846
 21
0.8807116331
  0
LINE
  5
21B
100
AcDbEntity
  8
0
100
AcDbLine
 62
7
  6
CONTINUOUS
 10
6.806141885
 20
0.9127116331
 11
7.5158024841
 21
0.9127116331
  0
LWPOLYLINE
  5
21C
100
AcDbEntity
  8
0
100
AcDbPolyline
 62
7
  6
CONTINUOUS
 90
23
 70
0
 10
3.631287846
 20
5.8469588817
 10
3.6312375789
 20
5.8469292563
 10
3.6309800636
 20
5.8467695434
 10
3.6307287815
 20
5.8466001927
 10
3.6304840931
 20
5.8464214472
 10
3.6302463496
 20
5.8462335634
 10
3.6300158919
 20
5.8460368108
 10
3.6297930508
 20
5.8458314716
 10
3.629578146
 20
5.8456178406
 10
3.6293714857
 20
5.8453962242
 10
3.6291733665
 20
5.8451669403
 10
3.6289840727
 20
5.8449303179
 10
3.6288038758
 20
5.8446866966
 10
3.6286330343
 20
5.8444364258
 10
3.6284717934
 20
5.8441798646
 10
3.6283203844
 20
5.8439173811
 10
3.6281790245
 20
5.8436493519
 10
3.6280479165
 20
5.8433761615
 10
3.6279272486
 20
5.843098202
 10
3.6278171939
 20
5.842815872
 10
3.6277179102
 20
5.8425295767
 10
3.62762954
 20
5.8422397268
 10
3.6275522101
 20
5.8419467381
  0
LINE
  5
21D
100
AcDbEntity
  8
0
100
AcDbLine
 62
7
  6
CONTINUOUS
 10
3.6054373628
 20
5.6629856832
 11
3.5227071517
 21
5.2109300364
  0
LWPOLYLINE
  5
21E
100
AcDbEntity
  8
0
100
AcDbPolyline
 62
7
  6
CONTINUOUS
 90
19
 70
0
 10
3.5974658659
 20
5.7185275942
 10
3.5973973011
 20
5.7182201396
 10
3.5973408953
 20
5.7179102232
 10
3.5972967361
 20
5.7175983255
 10
3.5972648921
 20
5.7172849303
 10
3.5972454126
 20
5.7169705234
 10
3.5972383279
 20
5.7166555924
 10
3.5972436491
 20
5.7163406257
 10
3.5972613679
 20
5.7160261117
 10
3.597291457
 20
5.7157125379
 10
3.5973338698
 20
5.7154003909
 10
3.5973885406
 20
5.7150901545
 10
3.5974553847
 20
5.7147823097
 10
3.5975342986
 20
5.7144773341
 10
3.5976251599
 20
5.7141757006
 10
3.5977278279
 20
5.7138778767
 10
3.5978421434
 20
5.7135843244
 10
3.5979679295
 20
5.713295499
 10
3.598112742
 20
5.7129966225
  0
LINE
  5
21F
100
AcDbEntity
  8
0
100
AcDbLine
 62
7
  6
CONTINUOUS
 10
3.6275522101
 20
5.8419467381
 11
3.5974658659
 21
5.7185275942
  0
LINE
  5
220
100
AcDbEntity
  8
0
100
AcDbLine
 62
7
  6
CONTINUOUS
 10
3.700093419
 20
5.8252562549
 11
3.6735120133
 21
5.7162149469
  0
LINE
  5
221
100
AcDbEntity
  8
0
100
AcDbLine
 62
7
  6
CONTINUOUS
 10
3.4788385126
 20
5.1378770028
 11
3.4712252203
 21
5.020146466
  0
LINE
  5
222
100
AcDbEntity
  8
0
100
AcDbLine
 62
7
  6
CONTINUOUS
 10
3.5520295699
 20
5.1163096427
 11
3.5451728942
 21
5.0102792842
  0
LINE
  5
223
100
AcDbEntity
  8
0
100
AcDbLine
 62
7
  6
CONTINUOUS
 10
3.6915955784
 20
6.0871991001
 11
3.6689064553
 21
5.9389250171
  0
LINE
  5
224
100
AcDbEntity
  8
0
100
AcDbLine
 62
7
  6
CONTINUOUS
 10
3.664973674
 20
5.913224176
 11
3.6616767249
 21
5.8916785171
  0
LINE
  5
225
100
AcDbEntity
  8
0
100
AcDbLine
 62
7
  6
CONTINUOUS
 10
3.6705570276
 20
5.9285560436
 11
3.6720696358
 21
5.9384409825
  0
LINE
  5
226
100
AcDbEntity
  8
0
100
AcDbLine
 62
7
  6
CONTINUOUS
 10
3.5870097441
 20
4.9903989457
 11
3.5841512719
 21
4.9717187463
  0
LINE
  5
227
100
AcDbEntity
  8
0
100
AcDbLine
 62
7
  6
CONTINUOUS
 10
3.6042985017
 20
4.987753394
 11
3.6014400295
 21
4.9690731946
  0
LINE
  5
228
100
AcDbEntity
  8
0
100
AcDbLine
 62
7
  6
CONTINUOUS
 10
3.6367907374
 20
4.9827813833
 11
3.6339322652
 21
4.9641011838
  0
LINE
  5
229
100
AcDbEntity
  8
0
100
AcDbLine
 62
7
  6
CONTINUOUS
 10
3.8041458881
 20
5.8093339897
 11
3.7872338103
 21
5.6988130666
  0
LINE
  5
22A
100
AcDbEntity
  8
0
100
AcDbLine
 62
7
  6
CONTINUOUS
 10
3.6947562332
 20
5.0944693941
 11
3.6787456524
 21
4.98983978
  0
LINE
  5
22B
100
AcDbEntity
  8
0
100
AcDbLine
 62
7
  6
CONTINUOUS
 10
3.6772645029
 20
4.9765880269
 11
3.6744060307
 21
4.9579078274
  0
LINE
  5
22C
100
AcDbEntity
  8
0
100
AcDbLine
 62
7
  6
CONTINUOUS
 10
3.6805674083
 20
4.9760826113
 11
3.6777089361
 21
4.9574024119
  0
LINE
  5
22D
100
AcDbEntity
  8
0
100
AcDbLine
 62
7
  6
CONTINUOUS
 10
3.7210411737
 20
4.9698892549
 11
3.7181827015
 21
4.9512090555
  0
LINE
  5
22E
100
AcDbEntity
  8
0
100
AcDbLine
 62
7
  6
CONTINUOUS
 10
3.7303484016
 20
4.9684650489
 11
3.7274899294
 21
4.9497848495
  0
LINE
  5
22F
100
AcDbEntity
  8
0
100
AcDbLine
 62
7
  6
CONTINUOUS
 10
3.770822167
 20
4.9622716925
 11
3.7679636948
 21
4.943591493
  0
LINE
  5
230
100
AcDbEntity
  8
0
100
AcDbLine
 62
7
  6
CONTINUOUS
 10
4.0822031586
 20
5.525964581
 11
4.0832721057
 21
5.5281892052
  0
LINE
  5
231
100
AcDbEntity
  8
0
100
AcDbLine
 62
7
  6
CONTINUOUS
 10
4.0832721057
 20
5.5281892052
 11
4.0842975425
 21
5.5302789611
  0
LINE
  5
232
100
AcDbEntity
  8
0
100
AcDbLine
 62
7
  6
CONTINUOUS
 10
4.0842975425
 20
5.5302789611
 11
4.0852736872
 21
5.532230304
  0
LINE
  5
233
100
AcDbEntity
  8
0
100
AcDbLine
 62
7
  6
CONTINUOUS
 10
4.0852736872
 20
5.532230304
 11
4.0861952208
 21
5.53404058
  0
LINE
  5
234
100
AcDbEntity
  8
0
100
AcDbLine
 62
7
  6
CONTINUOUS
 10
4.0861952208
 20
5.53404058
 11
4.0870571306
 21
5.5357076097
  0
LINE
  5
235
100
AcDbEntity
  8
0
100
AcDbLine
 62
7
  6
CONTINUOUS
 10
4.0870571306
 20
5.5357076097
 11
4.087854499
 21
5.5372284351
  0
LWPOLYLINE
  5
236
100
AcDbEntity
  8
0
100
AcDbPolyline
 62
7
  6
CONTINUOUS
 90
11
 70
0
 10
4.0917837734
 20
5.544446339
 10
4.0919333195
 20
5.5447271271
 10
4.0920715847
 20
5.5450136409
 10
4.0921983502
 20
5.5453054275
 10
4.0923134151
 20
5.5456020251
 10
4.0924165975
 20
5.5459029652
 10
4.0925077342
 20
5.5462077736
 10
4.0925866808
 20
5.5465159687
 10
4.092653312
 20
5.5468270628
 10
4.0927075218
 20
5.5471405639
 10
4.0927388335
 20
5.5473676682
  0
LINE
  5
237
100
AcDbEntity
  8
0
100
AcDbLine
 62
7
  6
CONTINUOUS
 10
4.087854499
 20
5.5372284351
 11
4.0885839223
 21
5.5386019534
  0
LINE
  5
238
100
AcDbEntity
  8
0
100
AcDbLine
 62
7
  6
CONTINUOUS
 10
4.0885839223
 20
5.5386019534
 11
4.0895448481
 21
5.540386488
  0
LINE
  5
239
100
AcDbEntity
  8
0
100
AcDbLine
 62
7
  6
CONTINUOUS
 10
4.0895448481
 20
5.540386488
 11
4.0903398588
 21
5.5418436457
  0
LINE
  5
23A
100
AcDbEntity
  8
0
100
AcDbLine
 62
7
  6
CONTINUOUS
 10
4.0903398588
 20
5.5418436457
 11
4.09113071
 21
5.5432759628
  0
LINE
  5
23B
100
AcDbEntity
  8
0
100
AcDbLine
 62
7
  6
CONTINUOUS
 10
4.091617016
 20
5.5441477482
 11
4.0917837734
 21
5.544446339
  0
LINE
  5
23C
100
AcDbEntity
  8
0
100
AcDbLine
 62
7
  6
CONTINUOUS
 10
4.09113071
 20
5.5432759628
 11
4.091617016
 21
5.5441477482
  0
LINE
  5
23D
100
AcDbEntity
  8
0
100
AcDbLine
 62
7
  6
CONTINUOUS
 10
4.0912833574
 20
5.5448143573
 11
4.0927392731
 21
5.5473671826
  0
LINE
  5
23E
100
AcDbEntity
  8
0
100
AcDbLine
 62
7
  6
CONTINUOUS
 10
4.0921136387
 20
5.5462766667
 11
4.0927359939
 21
5.5473615298
  0
LWPOLYLINE
  5
23F
100
AcDbEntity
  8
0
100
AcDbPolyline
 62
7
  6
CONTINUOUS
 90
19
 70
0
 10
4.1196520778
 20
5.6331898895
 10
4.1198796401
 20
5.6334317846
 10
4.1200860408
 20
5.6336697783
 10
4.1202829094
 20
5.6339157127
 10
4.1204699408
 20
5.6341692064
 10
4.1206468451
 20
5.634429866
 10
4.120813348
 20
5.6346972876
 10
4.1209691915
 20
5.6349710563
 10
4.1211141339
 20
5.6352507476
 10
4.1212479506
 20
5.6355359278
 10
4.1213704342
 20
5.6358261546
 10
4.1214813948
 20
5.6361209779
 10
4.1215806603
 20
5.6364199406
 10
4.121668077
 20
5.6367225791
 10
4.1217435094
 20
5.637028424
 10
4.1218068405
 20
5.637337001
 10
4.1218579721
 20
5.6376478318
 10
4.1218968251
 20
5.6379604342
 10
4.1219233393
 20
5.6382743234
  0
LINE
  5
240
100
AcDbEntity
  8
0
100
AcDbLine
 62
7
  6
CONTINUOUS
 10
3.6286349518
 20
4.9489804474
 11
3.6370506403
 21
4.9577894184
  0
LINE
  5
241
100
AcDbEntity
  8
0
100
AcDbLine
 62
7
  6
CONTINUOUS
 10
3.6611271875
 20
4.9440084367
 11
3.6744060307
 21
4.9579078274
  0
LWPOLYLINE
  5
242
100
AcDbEntity
  8
0
100
AcDbPolyline
 62
7
  6
CONTINUOUS
 90
23
 70
0
 10
3.4819089248
 20
5.1436744764
 10
3.4818195442
 20
5.1436038995
 10
3.4815765542
 20
5.1434011859
 10
3.4813417712
 20
5.1431890211
 10
3.4811155626
 20
5.1429677371
 10
3.4808982823
 20
5.1427376803
 10
3.4806902702
 20
5.1424992104
 10
3.4804918518
 20
5.1422527008
 10
3.4803033376
 20
5.141998537
 10
3.4801250225
 20
5.1417371167
 10
3.4799571855
 20
5.141468849
 10
3.4798000892
 20
5.1411941535
 10
3.4796539795
 20
5.1409134602
 10
3.4795190848
 20
5.1406272082
 10
3.4793956164
 20
5.1403358454
 10
3.4792837673
 20
5.1400398276
 10
3.4791837126
 20
5.139739618
 10
3.4790956088
 20
5.1394356863
 10
3.4790195938
 20
5.1391285081
 10
3.4789557864
 20
5.138818564
 10
3.4789042866
 20
5.1385063389
 10
3.478865175
 20
5.1381923214
 10
3.4788385126
 20
5.1378770028
  0
LINE
  5
243
100
AcDbEntity
  8
0
100
AcDbLine
 62
7
  6
CONTINUOUS
 10
4.0587464177
 20
5.4383556325
 11
4.0605300673
 21
5.4531775273
  0
LINE
  5
244
100
AcDbEntity
  8
0
100
AcDbLine
 62
7
  6
CONTINUOUS
 10
4.0977073184
 20
5.5876577947
 11
4.0927395107
 21
5.5473675847
  0
LINE
  5
245
100
AcDbEntity
  8
0
100
AcDbLine
 62
7
  6
CONTINUOUS
 10
4.0670840634
 20
5.3393012702
 11
4.0414687435
 21
5.131548358
  0
LWPOLYLINE
  5
246
100
AcDbEntity
  8
0
100
AcDbPolyline
 62
7
  6
CONTINUOUS
 90
47
 70
0
 10
4.0605300673
 20
5.4531775273
 10
4.0606855864
 20
5.4544355892
 10
4.0609181297
 20
5.4562129816
 10
4.0611656349
 20
5.4579900609
 10
4.0614278981
 20
5.4597655106
 10
4.0617048348
 20
5.4615389136
 10
4.0619965161
 20
5.46331074
 10
4.0623028074
 20
5.4650800964
 10
4.0626235623
 20
5.4668460773
 10
4.0629588807
 20
5.468609097
 10
4.0633086376
 20
5.470368299
 10
4.0636725963
 20
5.472122761
 10
4.064050682
 20
5.4738728343
 10
4.0644425997
 20
5.4756178123
 10
4.0648480269
 20
5.4773569124
 10
4.0652668721
 20
5.4790903379
 10
4.0656988087
 20
5.4808172798
 10
4.0661435013
 20
5.4825369417
 10
4.0666008653
 20
5.4842494929
 10
4.0670705523
 20
5.4859540832
 10
4.0675521526
 20
5.4876498581
 10
4.0680454536
 20
5.4893369877
 10
4.0685500508
 20
5.4910149855
 10
4.0690653312
 20
5.4926827106
 10
4.0695907569
 20
5.4943393333
 10
4.0701258336
 20
5.4959841984
 10
4.0706699185
 20
5.4976162355
 10
4.0712222215
 20
5.4992340092
 10
4.071782111
 20
5.5008366238
 10
4.0723489387
 20
5.5024232332
 10
4.0729218412
 20
5.50399261
 10
4.0735001479
 20
5.5055441411
 10
4.0740830787
 20
5.5070769478
 10
4.0746695835
 20
5.5085895015
 10
4.0752589675
 20
5.5100812486
 10
4.0758503831
 20
5.5115512715
 10
4.0764425413
 20
5.5129976191
 10
4.0770346471
 20
5.5144196208
 10
4.0776258903
 20
5.5158165887
 10
4.0782149727
 20
5.5171867439
 10
4.0788010884
 20
5.5185295128
 10
4.0793834403
 20
5.5198443489
 10
4.0799607762
 20
5.5211297049
 10
4.0805322692
 20
5.5223850186
 10
4.0810971699
 20
5.5236098987
 10
4.0816543874
 20
5.5248032213
 10
4.0822031586
 20
5.525964581
  0
LINE
  5
247
100
AcDbEntity
  8
0
100
AcDbLine
 62
7
  6
CONTINUOUS
 10
3.7801293949
 20
4.9608474865
 11
3.7772709227
 21
4.942167287
  0
LINE
  5
248
100
AcDbEntity
  8
0
100
AcDbLine
 62
7
  6
CONTINUOUS
 10
3.8206031603
 20
4.9546541301
 11
3.8177446881
 21
4.9359739306
  0
LINE
  5
249
100
AcDbEntity
  8
0
100
AcDbLine
 62
7
  6
CONTINUOUS
 10
3.8239060657
 20
4.9541487145
 11
3.8210475935
 21
4.9354685151
  0
LINE
  5
24A
100
AcDbEntity
  8
0
100
AcDbLine
 62
7
  6
CONTINUOUS
 10
3.9518557435
 20
5.7867312056
 11
3.9349436657
 21
5.6762102825
  0
LINE
  5
24B
100
AcDbEntity
  8
0
100
AcDbLine
 62
7
  6
CONTINUOUS
 10
3.8424660886
 20
5.0718666101
 11
3.8264555078
 21
4.9672369959
  0
LINE
  5
24C
100
AcDbEntity
  8
0
100
AcDbLine
 62
7
  6
CONTINUOUS
 10
3.8643798311
 20
4.9479553581
 11
3.8615213589
 21
4.9292751587
  0
LINE
  5
24D
100
AcDbEntity
  8
0
100
AcDbLine
 62
7
  6
CONTINUOUS
 10
3.8968720669
 20
4.9429833473
 11
3.8940135947
 21
4.9243031479
  0
LINE
  5
24E
100
AcDbEntity
  8
0
100
AcDbLine
 62
7
  6
CONTINUOUS
 10
3.9141608244
 20
4.9403377957
 11
3.9113023522
 21
4.9216575962
  0
LINE
  5
24F
100
AcDbEntity
  8
0
100
AcDbLine
 62
7
  6
CONTINUOUS
 10
4.1164964873
 20
5.8704341177
 11
4.1149838791
 21
5.8605491788
  0
LINE
  5
250
100
AcDbEntity
  8
0
100
AcDbLine
 62
7
  6
CONTINUOUS
 10
4.1359958363
 20
5.9767074228
 11
4.1196596677
 21
5.8699500831
  0
LINE
  5
251
100
AcDbEntity
  8
0
100
AcDbLine
 62
7
  6
CONTINUOUS
 10
4.1157268864
 20
5.844249242
 11
4.1124299373
 21
5.8227035831
  0
LINE
  5
252
100
AcDbEntity
  8
0
100
AcDbLine
 62
7
  6
CONTINUOUS
 10
4.1185010652
 20
5.5196920897
 11
4.0947833686
 21
5.3646962483
  0
LWPOLYLINE
  5
253
100
AcDbEntity
  8
0
100
AcDbPolyline
 62
7
  6
CONTINUOUS
 90
23
 70
0
 10
4.061484131
 20
5.0487196945
 10
4.0615529818
 20
5.0490285574
 10
4.0616095639
 20
5.0493399016
 10
4.0616537888
 20
5.0496532399
 10
4.0616855872
 20
5.049968082
 10
4.0617049094
 20
5.0502839355
 10
4.0617117251
 20
5.0506003059
 10
4.0617060238
 20
5.0509166985
 10
4.0616878143
 20
5.0512326181
 10
4.0616571251
 20
5.0515475703
 10
4.0616140043
 20
5.0518610626
 10
4.0615585192
 20
5.0521726042
 10
4.0614907567
 20
5.0524817078
 10
4.0614108229
 20
5.0527878898
 10
4.0613188428
 20
5.0530906711
 10
4.0612149602
 20
5.0533895779
 10
4.0610993379
 20
5.0536841426
 10
4.0609721565
 20
5.0539739042
 10
4.0608336153
 20
5.0542584094
 10
4.0606839308
 20
5.0545372131
 10
4.0605233374
 20
5.0548098789
 10
4.0603520862
 20
5.0550759804
 10
4.0602879009
 20
5.0551700561
  0
LINE
  5
254
100
AcDbEntity
  8
0
100
AcDbLine
 62
7
  6
CONTINUOUS
 10
3.985192752
 20
5.0500263615
 11
3.960028266
 21
4.9467974917
  0
LINE
  5
255
100
AcDbEntity
  8
0
100
AcDbLine
 62
7
  6
CONTINUOUS
 10
4.061484131
 20
5.0487196945
 11
4.0335428085
 21
4.9340997835
  0
LINE
  5
256
100
AcDbEntity
  8
0
100
AcDbLine
 62
7
  6
CONTINUOUS
 10
4.0258331345
 20
4.9289596695
 11
4.0259195632
 21
4.9292418519
  0
LINE
  5
257
100
AcDbEntity
  8
0
100
AcDbLine
 62
7
  6
CONTINUOUS
 10
4.0257939236
 20
4.9288328975
 11
4.0258331345
 21
4.9289596695
  0
LINE
  5
258
100
AcDbEntity
  8
0
100
AcDbLine
 62
7
  6
CONTINUOUS
 10
4.0255280669
 20
4.9279981607
 11
4.0259688204
 21
4.9293977469
  0
LINE
  5
259
100
AcDbEntity
  8
0
100
AcDbLine
 62
7
  6
CONTINUOUS
 10
4.0256629591
 20
4.9284188909
 11
4.0256917192
 21
4.928508675
  0
LINE
  5
25A
100
AcDbEntity
  8
0
100
AcDbLine
 62
7
  6
CONTINUOUS
 10
4.0255764911
 20
4.9281484226
 11
4.0256144216
 21
4.9282662019
  0
LINE
  5
25B
100
AcDbEntity
  8
0
100
AcDbLine
 62
7
  6
CONTINUOUS
 10
4.0255401665
 20
4.9280356182
 11
4.0255618602
 21
4.92810238
  0
LWPOLYLINE
  5
25C
100
AcDbEntity
  8
0
100
AcDbPolyline
 62
7
  6
CONTINUOUS
 90
3
 70
0
 10
4.0255280669
 20
4.9279981607
 10
4.025529549
 20
4.9280023126
 10
4.0255336432
 20
4.9280147972
  0
LINE
  5
25D
100
AcDbEntity
  8
0
100
AcDbLine
 62
7
  6
CONTINUOUS
 10
3.7049038583
 20
4.9373096647
 11
3.7181827015
 21
4.9512090555
  0
LINE
  5
25E
100
AcDbEntity
  8
0
100
AcDbLine
 62
7
  6
CONTINUOUS
 10
3.7546848516
 20
4.9296921023
 11
3.7679636948
 21
4.943591493
  0
LINE
  5
25F
100
AcDbEntity
  8
0
100
AcDbLine
 62
7
  6
CONTINUOUS
 10
3.804465845
 20
4.9220745399
 11
3.8177446881
 21
4.9359739306
  0
LINE
  5
260
100
AcDbEntity
  8
0
100
AcDbLine
 62
7
  6
CONTINUOUS
 10
3.8482425158
 20
4.9153757679
 11
3.8615213589
 21
4.9292751587
  0
LINE
  5
261
100
AcDbEntity
  8
0
100
AcDbLine
 62
7
  6
CONTINUOUS
 10
3.8807347515
 20
4.9104037572
 11
3.8940135947
 21
4.9243031479
  0
LINE
  5
262
100
AcDbEntity
  8
0
100
AcDbLine
 62
7
  6
CONTINUOUS
 10
3.8980235091
 20
4.9077582055
 11
3.9113023522
 21
4.9216575962
  0
LINE
  5
263
100
AcDbEntity
  8
0
100
AcDbLine
 62
7
  6
CONTINUOUS
 10
7.2361514942
 20
2.4676620506
 11
7.0857514942
 21
2.4676620506
  0
LINE
  5
264
100
AcDbEntity
  8
0
100
AcDbLine
 62
7
  6
CONTINUOUS
 10
7.2361514942
 20
2.4756620506
 11
7.0857514942
 21
2.4756620506
  0
LINE
  5
265
100
AcDbEntity
  8
0
100
AcDbLine
 62
7
  6
CONTINUOUS
 10
7.3109514942
 20
2.5424620506
 11
7.3029514942
 21
2.5424620506
  0
LINE
  5
266
100
AcDbEntity
  8
0
100
AcDbLine
 62
7
  6
CONTINUOUS
 10
7.0109514942
 20
2.5424620506
 11
7.0189514942
 21
2.5424620506
  0
LINE
  5
267
100
AcDbEntity
  8
0
100
AcDbLine
 62
7
  6
CONTINUOUS
 10
7.1624865323
 20
2.6051422337
 11
7.1594164561
 21
2.6051422337
  0
LINE
  5
268
100
AcDbEntity
  8
0
100
AcDbLine
 62
7
  6
CONTINUOUS
 10
7.1554316773
 20
2.6091270125
 11
7.1664713111
 21
2.6091270125
  0
LWPOLYLINE
  5
269
100
AcDbEntity
  8
0
100
AcDbPolyline
 62
7
  6
CONTINUOUS
 90
23
 70
0
 10
4.1301210949
 20
5.765042892
 10
4.1301349191
 20
5.7653455984
 10
4.1301372697
 20
5.7656486112
 10
4.1301281432
 20
5.7659514956
 10
4.1301075527
 20
5.7662538171
 10
4.1300755277
 20
5.7665551419
 10
4.1300321143
 20
5.7668550378
 10
4.1299773746
 20
5.7671530745
 10
4.1299113873
 20
5.7674488243
 10
4.129834247
 20
5.7677418629
 10
4.1297460644
 20
5.76803177
 10
4.1296469659
 20
5.7683181295
 10
4.1295370938
 20
5.7686005307
 10
4.1294166058
 20
5.7688785683
 10
4.1292856746
 20
5.7691518435
 10
4.1291444881
 20
5.7694199642
 10
4.1289932489
 20
5.7696825457
 10
4.128832174
 20
5.7699392112
 10
4.1286614944
 20
5.7701895925
 10
4.1284814551
 20
5.7704333305
 10
4.1282923144
 20
5.7706700753
 10
4.1280943435
 20
5.7708994874
 10
4.1280552358
 20
5.7709427891
  0
LINE
  5
26A
100
AcDbEntity
  8
0
100
AcDbLine
 62
7
  6
CONTINUOUS
 10
4.0559082126
 20
5.7708089404
 11
4.0486654627
 21
5.6588084022
  0
LINE
  5
26B
100
AcDbEntity
  8
0
100
AcDbLine
 62
7
  6
CONTINUOUS
 10
4.1301210949
 20
5.765042892
 11
4.1219233393
 21
5.6382743234
  0
LWPOLYLINE
  5
26C
100
AcDbEntity
  8
0
100
AcDbPolyline
 62
7
  6
CONTINUOUS
 90
11
 70
0
 10
4.0670840634
 20
5.3393012702
 10
4.0671128086
 20
5.3395916391
 10
4.0671309445
 20
5.3398828321
 10
4.0671384501
 20
5.3401744438
 10
4.0671353225
 20
5.3404660277
 10
4.0671215841
 20
5.3407570994
 10
4.0670972654
 20
5.3410473717
 10
4.0670623784
 20
5.3413366906
 10
4.0670169422
 20
5.341624746
 10
4.0669610106
 20
5.3419110778
 10
4.0668946433
 20
5.3421953063
  0
LINE
  5
26D
100
AcDbEntity
  8
0
100
AcDbLine
 62
7
  6
CONTINUOUS
 10
4.132064758
 20
5.5045945399
 11
4.1122411746
 21
5.3750468418
  0
LINE
  5
26E
100
AcDbEntity
  8
0
100
AcDbLine
 62
7
  6
CONTINUOUS
 10
7.1594164561
 20
2.6331574549
 11
7.1554316773
 21
2.6331574549
  0
LINE
  5
26F
100
AcDbEntity
  8
0
100
AcDbLine
 62
7
  6
CONTINUOUS
 10
7.1624865323
 20
2.6331574549
 11
7.1664713111
 21
2.6331574549
  0
LINE
  5
270
100
AcDbEntity
  8
0
100
AcDbLine
 62
7
  6
CONTINUOUS
 10
7.1944865323
 20
2.6371422337
 11
7.1704560899
 21
2.6371422337
  0
LINE
  5
271
100
AcDbEntity
  8
0
100
AcDbLine
 62
7
  6
CONTINUOUS
 10
7.1514468986
 20
2.6371422337
 11
7.1274164561
 21
2.6371422337
  0
LINE
  5
272
100
AcDbEntity
  8
0
100
AcDbLine
 62
7
  6
CONTINUOUS
 10
7.1514468986
 20
2.6411270125
 11
7.1234316773
 21
2.6411270125
  0
LINE
  5
273
100
AcDbEntity
  8
0
100
AcDbLine
 62
7
  6
CONTINUOUS
 10
7.1704560899
 20
2.6411270125
 11
7.1984713111
 21
2.6411270125
  0
LINE
  5
274
100
AcDbEntity
  8
0
100
AcDbLine
 62
7
  6
CONTINUOUS
 10
7.1234316773
 20
2.6441970887
 11
7.1514468986
 21
2.6441970887
  0
LINE
  5
275
100
AcDbEntity
  8
0
100
AcDbLine
 62
7
  6
CONTINUOUS
 10
7.1704560899
 20
2.6441970887
 11
7.1984713111
 21
2.6441970887
  0
LINE
  5
276
100
AcDbEntity
  8
0
100
AcDbLine
 62
7
  6
CONTINUOUS
 10
7.1274164561
 20
2.6481818675
 11
7.1514468986
 21
2.6481818675
  0
LINE
  5
277
100
AcDbEntity
  8
0
100
AcDbLine
 62
7
  6
CONTINUOUS
 10
7.1704560899
 20
2.6481818675
 11
7.1944865323
 21
2.6481818675
  0
LINE
  5
278
100
AcDbEntity
  8
0
100
AcDbLine
 62
7
  6
CONTINUOUS
 10
7.1594164561
 20
2.6521666463
 11
7.1554316773
 21
2.6521666463
  0
LINE
  5
279
100
AcDbEntity
  8
0
100
AcDbLine
 62
7
  6
CONTINUOUS
 10
7.1624865323
 20
2.6521666463
 11
7.1664713111
 21
2.6521666463
  0
LINE
  5
27A
100
AcDbEntity
  8
0
100
AcDbLine
 62
7
  6
CONTINUOUS
 10
7.1554316773
 20
2.6761970887
 11
7.1664713111
 21
2.6761970887
  0
LINE
  5
27B
100
AcDbEntity
  8
0
100
AcDbLine
 62
7
  6
CONTINUOUS
 10
7.1594164561
 20
2.6801818675
 11
7.1624865323
 21
2.6801818675
  0
LINE
  5
27C
100
AcDbEntity
  8
0
100
AcDbLine
 62
7
  6
CONTINUOUS
 10
7.0109514942
 20
2.808926765
 11
7.3109514942
 21
2.808926765
  0
LINE
  5
27D
100
AcDbEntity
  8
0
100
AcDbLine
 62
7
  6
CONTINUOUS
 10
7.0189514942
 20
2.8243536676
 11
7.3029514942
 21
2.8243536676
  0
LINE
  5
27E
100
AcDbEntity
  8
0
100
AcDbLine
 62
7
  6
CONTINUOUS
 10
3.5926659948
 20
4.9544844713
 11
3.5841512719
 21
4.9717187463
  0
LINE
  5
27F
100
AcDbEntity
  8
0
100
AcDbLine
 62
7
  6
CONTINUOUS
 10
3.6099547523
 20
4.9518389196
 11
3.6014400295
 21
4.9690731946
  0
LINE
  5
280
100
AcDbEntity
  8
0
100
AcDbLine
 62
7
  6
CONTINUOUS
 10
3.6424469881
 20
4.9468669089
 11
3.6339322652
 21
4.9641011838
  0
LINE
  5
281
100
AcDbEntity
  8
0
100
AcDbLine
 62
7
  6
CONTINUOUS
 10
3.6862236589
 20
4.9401681369
 11
3.6777089361
 21
4.9574024119
  0
LINE
  5
282
100
AcDbEntity
  8
0
100
AcDbLine
 62
7
  6
CONTINUOUS
 10
4.1196538065
 20
5.6331881943
 11
4.119653579
 21
5.6331914853
  0
LINE
  5
283
100
AcDbEntity
  8
0
100
AcDbLine
 62
7
  6
CONTINUOUS
 10
7.3029514942
 20
2.9420633288
 11
7.0189514942
 21
2.9420633288
  0
LINE
  5
284
100
AcDbEntity
  8
0
100
AcDbLine
 62
7
  6
CONTINUOUS
 10
7.0109514942
 20
2.9574902314
 11
7.3109514942
 21
2.9574902314
  0
LINE
  5
285
100
AcDbEntity
  8
0
100
AcDbLine
 62
7
  6
CONTINUOUS
 10
3.7360046522
 20
4.9325505745
 11
3.7274899294
 21
4.9497848495
  0
LINE
  5
286
100
AcDbEntity
  8
0
100
AcDbLine
 62
7
  6
CONTINUOUS
 10
3.7857856455
 20
4.9249330121
 11
3.7772709227
 21
4.942167287
  0
LINE
  5
287
100
AcDbEntity
  8
0
100
AcDbLine
 62
7
  6
CONTINUOUS
 10
3.8295623163
 20
4.9182342401
 11
3.8210475935
 21
4.9354685151
  0
LINE
  5
288
100
AcDbEntity
  8
0
100
AcDbLine
 62
7
  6
CONTINUOUS
 10
3.8620545521
 20
4.9132622294
 11
3.8566582043
 21
4.9241847389
  0
LINE
  5
289
100
AcDbEntity
  8
0
100
AcDbLine
 62
7
  6
CONTINUOUS
 10
4.0670781012
 20
5.3392592989
 11
4.0664781524
 21
5.3415454508
  0
LINE
  5
28A
100
AcDbEntity
  8
0
100
AcDbLine
 62
7
  6
CONTINUOUS
 10
4.0666849727
 20
5.3407503938
 11
4.0664781524
 21
5.3415454508
  0
LINE
  5
28B
100
AcDbEntity
  8
0
100
AcDbLine
 62
7
  6
CONTINUOUS
 10
4.0670791375
 20
5.3392552998
 11
4.0670787226
 21
5.339256901
  0
LINE
  5
28C
100
AcDbEntity
  8
0
100
AcDbLine
 62
7
  6
CONTINUOUS
 10
4.0668946433
 20
5.3421953063
 11
4.0668741837
 21
5.3422755147
  0
LINE
  5
28D
100
AcDbEntity
  8
0
100
AcDbLine
 62
7
  6
CONTINUOUS
 10
4.0668741837
 20
5.3422755147
 11
4.0664006599
 21
5.3441594454
  0
LINE
  5
28E
100
AcDbEntity
  8
0
100
AcDbLine
 62
7
  6
CONTINUOUS
 10
4.0664006599
 20
5.3441594454
 11
4.0659389815
 21
5.3460380001
  0
LINE
  5
28F
100
AcDbEntity
  8
0
100
AcDbLine
 62
7
  6
CONTINUOUS
 10
4.0659389815
 20
5.3460380001
 11
4.0654985107
 21
5.3478710634
  0
LINE
  5
290
100
AcDbEntity
  8
0
100
AcDbLine
 62
7
  6
CONTINUOUS
 10
4.0654985107
 20
5.3478710634
 11
4.0649840277
 21
5.3500657516
  0
LINE
  5
291
100
AcDbEntity
  8
0
100
AcDbLine
 62
7
  6
CONTINUOUS
 10
4.0649840277
 20
5.3500657516
 11
4.0646041075
 21
5.3517289314
  0
LINE
  5
292
100
AcDbEntity
  8
0
100
AcDbLine
 62
7
  6
CONTINUOUS
 10
4.0646041075
 20
5.3517289314
 11
4.0641977197
 21
5.3535514519
  0
LINE
  5
293
100
AcDbEntity
  8
0
100
AcDbLine
 62
7
  6
CONTINUOUS
 10
4.0641977197
 20
5.3535514519
 11
4.0637677188
 21
5.355532038
  0
LINE
  5
294
100
AcDbEntity
  8
0
100
AcDbLine
 62
7
  6
CONTINUOUS
 10
4.0637677188
 20
5.355532038
 11
4.0633179031
 21
5.3576669341
  0
LINE
  5
295
100
AcDbEntity
  8
0
100
AcDbLine
 62
7
  6
CONTINUOUS
 10
4.0633179031
 20
5.3576669341
 11
4.0628524661
 21
5.3599527167
  0
LINE
  5
296
100
AcDbEntity
  8
0
100
AcDbLine
 62
7
  6
CONTINUOUS
 10
4.0628524661
 20
5.3599527167
 11
4.0623758689
 21
5.3623851627
  0
LWPOLYLINE
  5
297
100
AcDbEntity
  8
0
100
AcDbPolyline
 62
7
  6
CONTINUOUS
 90
45
 70
0
 10
4.0623758689
 20
5.3623851627
 10
4.0618927948
 20
5.3649592042
 10
4.0616502788
 20
5.3662978768
 10
4.0614080347
 20
5.3676695023
 10
4.0611666569
 20
5.3690736358
 10
4.0609267942
 20
5.3705095501
 10
4.060689283
 20
5.3719753592
 10
4.0604547454
 20
5.3734704218
 10
4.0602238217
 20
5.3749939967
 10
4.0599973683
 20
5.3765438425
 10
4.0597760097
 20
5.3781191588
 10
4.0595603637
 20
5.3797191767
 10
4.059351241
 20
5.3813414881
 10
4.0591492345
 20
5.3829850825
 10
4.0589548997
 20
5.3846491976
 10
4.0587689444
 20
5.3863316286
 10
4.0585919177
 20
5.3880313507
 10
4.0584243364
 20
5.3897475633
 10
4.0582668153
 20
5.3914782896
 10
4.0581198465
 20
5.393222599
 10
4.0579838859
 20
5.3949795603
 10
4.0578594161
 20
5.3967470763
 10
4.0577468191
 20
5.3985239462
 10
4.0576464359
 20
5.4003093879
 10
4.0575586338
 20
5.4021018805
 10
4.0574837455
 20
5.4039000402
 10
4.0574220503
 20
5.4057033663
 10
4.0573738086
 20
5.4075116587
 10
4.0573392342
 20
5.409323916
 10
4.0573185011
 20
5.411139212
 10
4.0573117713
 20
5.4129574407
 10
4.057319214
 20
5.4147777018
 10
4.0573409864
 20
5.4165991005
 10
4.0573772537
 20
5.418421577
 10
4.0574281435
 20
5.4202442974
 10
4.0574936932
 20
5.4220663735
 10
4.057573953
 20
5.4238876938
 10
4.057668943
 20
5.4257073782
 10
4.0577786794
 20
5.4275246584
 10
4.0579032312
 20
5.4293396167
 10
4.0580425962
 20
5.4311514461
 10
4.0581966712
 20
5.4329592618
 10
4.0583654056
 20
5.4347630525
 10
4.0585487071
 20
5.4365622306
 10
4.0587464177
 20
5.4383556325
  0
LINE
  5
298
100
AcDbEntity
  8
0
100
AcDbLine
 62
7
  6
CONTINUOUS
 10
7.488083248
 20
3.3695116331
 11
7.3109514942
 21
3.3695116331
  0
LINE
  5
299
100
AcDbEntity
  8
0
100
AcDbLine
 62
7
  6
CONTINUOUS
 10
7.0109514942
 20
3.3695116331
 11
6.8338611211
 21
3.3695116331
  0
LINE
  5
29A
100
AcDbEntity
  8
0
100
AcDbLine
 62
7
  6
CONTINUOUS
 10
6.8165453601
 20
3.3884851633
 11
6.8813184267
 21
3.3884851633
  0
LINE
  5
29B
100
AcDbEntity
  8
0
100
AcDbLine
 62
7
  6
CONTINUOUS
 10
7.4406259424
 20
3.3884851633
 11
7.505399009
 21
3.3884851633
  0
LINE
  5
29C
100
AcDbEntity
  8
0
100
AcDbLine
 62
7
  6
CONTINUOUS
 10
6.8128656757
 20
3.3953612805
 11
6.8783307454
 21
3.3953612805
  0
LINE
  5
29D
100
AcDbEntity
  8
0
100
AcDbLine
 62
7
  6
CONTINUOUS
 10
7.4436136237
 20
3.3953612805
 11
7.5090786934
 21
3.3953612805
  0
LINE
  5
29E
100
AcDbEntity
  8
0
100
AcDbLine
 62
7
  6
CONTINUOUS
 10
6.8186999112
 20
2.7614486943
 11
6.8148770137
 21
2.7627754609
  0
LINE
  5
29F
100
AcDbEntity
  8
0
100
AcDbLine
 62
7
  6
CONTINUOUS
 10
7.5032002464
 20
2.5238604095
 11
7.5070231032
 21
2.5225333547
  0
LINE
  5
2A0
100
AcDbEntity
  8
0
100
AcDbLine
 62
7
  6
CONTINUOUS
 10
7.084462272
 20
2.2856696784
 11
6.8900375839
 21
2.3979228417
  0
LINE
  5
2A1
100
AcDbEntity
  8
0
100
AcDbLine
 62
7
  6
CONTINUOUS
 10
7.5090786934
 20
3.4916619857
 11
7.4436136237
 21
3.4916619857
  0
LINE
  5
2A2
100
AcDbEntity
  8
0
100
AcDbLine
 62
7
  6
CONTINUOUS
 10
6.8783307454
 20
3.4916619857
 11
6.8128656757
 21
3.4916619857
  0
LINE
  5
2A3
100
AcDbEntity
  8
0
100
AcDbLine
 62
7
  6
CONTINUOUS
 10
7.505399009
 20
3.4985381029
 11
7.4406259424
 21
3.4985381029
  0
LINE
  5
2A4
100
AcDbEntity
  8
0
100
AcDbLine
 62
7
  6
CONTINUOUS
 10
6.8813184267
 20
3.4985381029
 11
6.8165453601
 21
3.4985381029
  0
LINE
  5
2A5
100
AcDbEntity
  8
0
100
AcDbLine
 62
7
  6
CONTINUOUS
 10
7.488083248
 20
3.5175116331
 11
7.3109514942
 21
3.5175116331
  0
LINE
  5
2A6
100
AcDbEntity
  8
0
100
AcDbLine
 62
7
  6
CONTINUOUS
 10
7.0109514942
 20
3.5175116331
 11
6.8338611211
 21
3.5175116331
  0
LINE
  5
2A7
100
AcDbEntity
  8
0
100
AcDbLine
 62
7
  6
CONTINUOUS
 10
7.0109514942
 20
3.5559116331
 11
6.8623721846
 21
3.5559116331
  0
LINE
  5
2A8
100
AcDbEntity
  8
0
100
AcDbLine
 62
7
  6
CONTINUOUS
 10
7.3109514942
 20
3.5559116331
 11
7.4595721846
 21
3.5559116331
  0
LINE
  5
2A9
100
AcDbEntity
  8
0
100
AcDbLine
 62
7
  6
CONTINUOUS
 10
7.0109514942
 20
3.6565116331
 11
6.8725721846
 21
3.6565116331
  0
LINE
  5
2AA
100
AcDbEntity
  8
0
100
AcDbLine
 62
7
  6
CONTINUOUS
 10
7.3109514942
 20
3.6565116331
 11
7.4493721846
 21
3.6565116331
  0
LINE
  5
2AB
100
AcDbEntity
  8
0
100
AcDbLine
 62
7
  6
CONTINUOUS
 10
7.4049721846
 20
3.6567116331
 11
7.3109514942
 21
3.6567116331
  0
LINE
  5
2AC
100
AcDbEntity
  8
0
100
AcDbLine
 62
7
  6
CONTINUOUS
 10
7.0109514942
 20
3.6567116331
 11
6.9169721846
 21
3.6567116331
  0
LINE
  5
2AD
100
AcDbEntity
  8
0
100
AcDbLine
 62
7
  6
CONTINUOUS
 10
6.9329721846
 20
3.6627116331
 11
7.0109514942
 21
3.6627116331
  0
LINE
  5
2AE
100
AcDbEntity
  8
0
100
AcDbLine
 62
7
  6
CONTINUOUS
 10
7.3109514942
 20
3.6627116331
 11
7.3889721846
 21
3.6627116331
  0
LINE
  5
2AF
100
AcDbEntity
  8
0
100
AcDbLine
 62
7
  6
CONTINUOUS
 10
7.3109514942
 20
3.8182620506
 11
7.3029514942
 21
3.8182620506
  0
LINE
  5
2B0
100
AcDbEntity
  8
0
100
AcDbLine
 62
7
  6
CONTINUOUS
 10
7.0109514942
 20
3.8182620506
 11
7.0189514942
 21
3.8182620506
  0
LINE
  5
2B1
100
AcDbEntity
  8
0
100
AcDbLine
 62
7
  6
CONTINUOUS
 10
7.0857514942
 20
3.8850620506
 11
7.2361514942
 21
3.8850620506
  0
LINE
  5
2B2
100
AcDbEntity
  8
0
100
AcDbLine
 62
7
  6
CONTINUOUS
 10
7.0857514942
 20
3.8930620506
 11
7.2361514942
 21
3.8930620506
  0
LINE
  5
2B3
100
AcDbEntity
  8
0
100
AcDbLine
 62
7
  6
CONTINUOUS
 10
7.4318625358
 20
2.8873859938
 11
7.3109514942
 21
2.9571942096
  0
LINE
  5
2B4
100
AcDbEntity
  8
0
100
AcDbLine
 62
7
  6
CONTINUOUS
 10
6.8869462499
 20
2.8796548203
 11
6.8838856525
 21
2.8823019296
  0
LINE
  5
2B5
100
AcDbEntity
  8
0
100
AcDbLine
 62
7
  6
CONTINUOUS
 10
7.4349539078
 20
2.4056542835
 11
7.4380144644
 21
2.4030068861
  0
LINE
  5
2B6
100
AcDbEntity
  8
0
100
AcDbLine
 62
7
  6
CONTINUOUS
 10
7.1234316773
 20
2.6441970887
 11
7.1223178491
 21
2.6453109169
  0
LINE
  5
2B7
100
AcDbEntity
  8
0
100
AcDbLine
 62
7
  6
CONTINUOUS
 10
7.1624865323
 20
2.6051422337
 11
7.1636003605
 21
2.6040284055
  0
LINE
  5
2B8
100
AcDbEntity
  8
0
100
AcDbLine
 62
7
  6
CONTINUOUS
 10
7.1274164561
 20
2.6481818675
 11
7.1260451306
 21
2.649553193
  0
LINE
  5
2B9
100
AcDbEntity
  8
0
100
AcDbLine
 62
7
  6
CONTINUOUS
 10
7.1664713111
 20
2.6091270125
 11
7.1678426366
 21
2.607755687
  0
LINE
  5
2BA
100
AcDbEntity
  8
0
100
AcDbLine
 62
7
  6
CONTINUOUS
 10
7.1683823349
 20
2.6312464311
 11
7.1664713111
 21
2.6331574549
  0
LINE
  5
2BB
100
AcDbEntity
  8
0
100
AcDbLine
 62
7
  6
CONTINUOUS
 10
7.1495358747
 20
2.6500928913
 11
7.1514468986
 21
2.6481818675
  0
LINE
  5
2BC
100
AcDbEntity
  8
0
100
AcDbLine
 62
7
  6
CONTINUOUS
 10
7.1723671137
 20
2.6352312099
 11
7.1704560899
 21
2.6371422337
  0
LINE
  5
2BD
100
AcDbEntity
  8
0
100
AcDbLine
 62
7
  6
CONTINUOUS
 10
7.1535206535
 20
2.6540776701
 11
7.1554316773
 21
2.6521666463
  0
LINE
  5
2BE
100
AcDbEntity
  8
0
100
AcDbLine
 62
7
  6
CONTINUOUS
 10
7.1554316773
 20
2.6761970887
 11
7.1540603518
 21
2.6775684142
  0
LINE
  5
2BF
100
AcDbEntity
  8
0
100
AcDbLine
 62
7
  6
CONTINUOUS
 10
7.1944865323
 20
2.6371422337
 11
7.1958578578
 21
2.6357709082
  0
LINE
  5
2C0
100
AcDbEntity
  8
0
100
AcDbLine
 62
7
  6
CONTINUOUS
 10
7.1594164561
 20
2.6801818675
 11
7.1583026279
 21
2.6812956957
  0
LINE
  5
2C1
100
AcDbEntity
  8
0
100
AcDbLine
 62
7
  6
CONTINUOUS
 10
7.1984713111
 20
2.6411270125
 11
7.1995851393
 21
2.6400131843
  0
LINE
  5
2C2
100
AcDbEntity
  8
0
100
AcDbLine
 62
7
  6
CONTINUOUS
 10
3.5926659948
 20
4.9544844713
 11
3.6286349518
 21
4.9489804474
  0
LINE
  5
2C3
100
AcDbEntity
  8
0
100
AcDbLine
 62
7
  6
CONTINUOUS
 10
3.6424469881
 20
4.9468669089
 11
3.6611271875
 21
4.9440084367
  0
LINE
  5
2C4
100
AcDbEntity
  8
0
100
AcDbLine
 62
7
  6
CONTINUOUS
 10
3.6862236589
 20
4.9401681369
 11
3.7049038583
 21
4.9373096647
  0
LINE
  5
2C5
100
AcDbEntity
  8
0
100
AcDbLine
 62
7
  6
CONTINUOUS
 10
3.7360046522
 20
4.9325505745
 11
3.7546848516
 21
4.9296921023
  0
LINE
  5
2C6
100
AcDbEntity
  8
0
100
AcDbLine
 62
7
  6
CONTINUOUS
 10
3.7857856455
 20
4.9249330121
 11
3.804465845
 21
4.9220745399
  0
LINE
  5
2C7
100
AcDbEntity
  8
0
100
AcDbLine
 62
7
  6
CONTINUOUS
 10
3.8295623163
 20
4.9182342401
 11
3.8482425158
 21
4.9153757679
  0
LINE
  5
2C8
100
AcDbEntity
  8
0
100
AcDbLine
 62
7
  6
CONTINUOUS
 10
3.8620545521
 20
4.9132622294
 11
3.8980235091
 21
4.9077582055
  0
LINE
  5
2C9
100
AcDbEntity
  8
0
100
AcDbLine
 62
7
  6
CONTINUOUS
 10
3.5841512719
 20
4.9717187463
 11
3.6744060307
 21
4.9579078274
  0
LINE
  5
2CA
100
AcDbEntity
  8
0
100
AcDbLine
 62
7
  6
CONTINUOUS
 10
3.6777089361
 20
4.9574024119
 11
3.7181827015
 21
4.9512090555
  0
LINE
  5
2CB
100
AcDbEntity
  8
0
100
AcDbLine
 62
7
  6
CONTINUOUS
 10
3.7274899294
 20
4.9497848495
 11
3.7679636948
 21
4.943591493
  0
LINE
  5
2CC
100
AcDbEntity
  8
0
100
AcDbLine
 62
7
  6
CONTINUOUS
 10
3.7772709227
 20
4.942167287
 11
3.8177446881
 21
4.9359739306
  0
LINE
  5
2CD
100
AcDbEntity
  8
0
100
AcDbLine
 62
7
  6
CONTINUOUS
 10
3.8210475935
 20
4.9354685151
 11
3.9113023522
 21
4.9216575962
  0
LINE
  5
2CE
100
AcDbEntity
  8
0
100
AcDbLine
 62
7
  6
CONTINUOUS
 10
3.9493187106
 20
4.9349578697
 11
3.551851854
 21
4.9957788455
  0
LINE
  5
2CF
100
AcDbEntity
  8
0
100
AcDbLine
 62
7
  6
CONTINUOUS
 10
3.5525453185
 20
5.1230044681
 11
3.4822982277
 21
5.1337537835
  0
LINE
  5
2D0
100
AcDbEntity
  8
0
100
AcDbLine
 62
7
  6
CONTINUOUS
 10
3.6993768833
 20
5.1005360814
 11
3.839871065
 21
5.0790374505
  0
LINE
  5
2D1
100
AcDbEntity
  8
0
100
AcDbLine
 62
7
  6
CONTINUOUS
 10
3.9867026298
 20
5.0565690638
 11
4.0569497206
 21
5.0458197484
  0
LINE
  5
2D2
100
AcDbEntity
  8
0
100
AcDbLine
 62
7
  6
CONTINUOUS
 10
3.5227071517
 20
5.2109300364
 11
4.0414687435
 21
5.131548358
  0
LINE
  5
2D3
100
AcDbEntity
  8
0
100
AcDbLine
 62
7
  6
CONTINUOUS
 10
4.0582407161
 20
5.4397480759
 11
4.0589007049
 21
5.4396684697
  0
LINE
  5
2D4
100
AcDbEntity
  8
0
100
AcDbLine
 62
7
  6
CONTINUOUS
 10
4.0598678416
 20
5.4532573953
 11
4.0605300673
 21
5.4531775273
  0
LINE
  5
2D5
100
AcDbEntity
  8
0
100
AcDbLine
 62
7
  6
CONTINUOUS
 10
4.061035225
 20
5.3698604399
 11
4.0947833686
 21
5.3646962483
  0
LINE
  5
2D6
100
AcDbEntity
  8
0
100
AcDbLine
 62
7
  6
CONTINUOUS
 10
4.0818867055
 20
5.5252948741
 11
4.1185010652
 21
5.5196920897
  0
LWPOLYLINE
  5
2D7
100
AcDbEntity
  8
0
100
AcDbPolyline
 62
7
  6
CONTINUOUS
 90
30
 70
0
 10
6.7427721846
 20
0.742215417
 10
6.7427784595
 20
0.7418986204
 10
6.7427972746
 20
0.7415823208
 10
6.7428286002
 20
0.7412670143
 10
6.7428723872
 20
0.7409531957
 10
6.742928567
 20
0.7406413571
 10
6.7429970514
 20
0.7403319879
 10
6.743077733
 20
0.7400255733
 10
6.7431704852
 20
0.7397225939
 10
6.7432751624
 20
0.7394235252
 10
6.7433916006
 20
0.7391288362
 10
6.743519617
 20
0.7388389892
 10
6.7436590107
 20
0.738554439
 10
6.7438095633
 20
0.738275632
 10
6.7439710383
 20
0.7380030054
 10
6.7441431826
 20
0.737736987
 10
6.7443257261
 20
0.7374779941
 10
6.7445183824
 20
0.737226433
 10
6.7447208493
 20
0.7369826983
 10
6.7449328092
 20
0.7367471725
 10
6.7451539296
 20
0.7365202248
 10
6.7453838635
 20
0.7363022115
 10
6.7456222503
 20
0.7360934744
 10
6.7458687161
 20
0.7358943411
 10
6.7461228741
 20
0.7357051239
 10
6.7463843257
 20
0.7355261197
 10
6.7466526606
 20
0.7353576093
 10
6.7469274581
 20
0.7351998569
 10
6.7472082869
 20
0.7350531102
 10
6.74734441
 20
0.7349869755
  0
LINE
  5
2D8
100
AcDbEntity
  8
0
100
AcDbLine
 62
7
  6
CONTINUOUS
 10
6.7427721846
 20
0.742215417
 11
6.7427721846
 21
0.8612078933
  0
LINE
  5
2D9
100
AcDbEntity
  8
0
100
AcDbLine
 62
7
  6
CONTINUOUS
 10
6.7443408831
 20
0.752770995
 11
6.7443408831
 21
0.8506522712
  0
LINE
  5
2DA
100
AcDbEntity
  8
0
100
AcDbLine
 62
7
  6
CONTINUOUS
 10
6.806141885
 20
0.9127116331
 11
6.806141885
 21
0.8807116331
  0
LINE
  5
2DB
100
AcDbEntity
  8
0
100
AcDbLine
 62
7
  6
CONTINUOUS
 10
6.8109721846
 20
3.384656131
 11
6.8109721846
 21
3.5023671801
  0
LINE
  5
2DC
100
AcDbEntity
  8
0
100
AcDbLine
 62
7
  6
CONTINUOUS
 10
6.8128656757
 20
3.3953612805
 11
6.8128656757
 21
3.4916619857
  0
LINE
  5
2DD
100
AcDbEntity
  8
0
100
AcDbLine
 62
7
  6
CONTINUOUS
 10
6.8135497961
 20
2.5304012545
 11
6.8135500598
 21
2.754905716
  0
LINE
  5
2DE
100
AcDbEntity
  8
0
100
AcDbLine
 62
7
  6
CONTINUOUS
 10
6.8351308427
 20
0.8506522712
 11
6.8351308427
 21
0.752770995
  0
LINE
  5
2DF
100
AcDbEntity
  8
0
100
AcDbLine
 62
7
  6
CONTINUOUS
 10
6.8409721846
 20
0.9127116331
 11
6.8409721846
 21
2.464317208
  0
LINE
  5
2E0
100
AcDbEntity
  8
0
100
AcDbLine
 62
7
  6
CONTINUOUS
 10
6.8409721846
 20
2.8209892956
 11
6.8409721846
 21
3.3695116331
  0
LINE
  5
2E1
100
AcDbEntity
  8
0
100
AcDbLine
 62
7
  6
CONTINUOUS
 10
6.8429402501
 20
0.8513075864
 11
6.8429402501
 21
0.7521156798
  0
LINE
  5
2E2
100
AcDbEntity
  8
0
100
AcDbLine
 62
7
  6
CONTINUOUS
 10
6.8623721846
 20
3.5559116331
 11
6.8623721846
 21
3.5175116331
  0
LINE
  5
2E3
100
AcDbEntity
  8
0
100
AcDbLine
 62
7
  6
CONTINUOUS
 10
6.8725721846
 20
3.6565116331
 11
6.8725721846
 21
3.5559116331
  0
LINE
  5
2E4
100
AcDbEntity
  8
0
100
AcDbLine
 62
7
  6
CONTINUOUS
 10
6.8783307454
 20
3.4916619857
 11
6.8783307454
 21
3.3953612805
  0
LINE
  5
2E5
100
AcDbEntity
  8
0
100
AcDbLine
 62
7
  6
CONTINUOUS
 10
6.8867754104
 20
3.4924464284
 11
6.8867754104
 21
3.3945768378
  0
LWPOLYLINE
  5
2E6
100
AcDbEntity
  8
0
100
AcDbPolyline
 62
7
  6
CONTINUOUS
 90
30
 70
0
 10
6.815518219
 20
3.5095831469
 10
6.8153844719
 20
3.5095175907
 10
6.8151049654
 20
3.5093703699
 10
6.8148314891
 20
3.5092122287
 10
6.8145644696
 20
3.5090434138
 10
6.8143043233
 20
3.5088641883
 10
6.8140514557
 20
3.5086748317
 10
6.8138062612
 20
3.5084756394
 10
6.8135691221
 20
3.5082669219
 10
6.8133404083
 20
3.5080490046
 10
6.8131204763
 20
3.5078222275
 10
6.8129096692
 20
3.507586944
 10
6.8127083155
 20
3.5073435212
 10
6.8125167294
 20
3.5070923385
 10
6.8123352095
 20
3.5068337877
 10
6.812164039
 20
3.5065682719
 10
6.8120034847
 20
3.5062962052
 10
6.8118537969
 20
3.5060180117
 10
6.8117152092
 20
3.5057341254
 10
6.8115879376
 20
3.5054449888
 10
6.8114721805
 20
3.5051510529
 10
6.8113681185
 20
3.5048527759
 10
6.8112759139
 20
3.5045506231
 10
6.8111957104
 20
3.5042450655
 10
6.8111276331
 20
3.5039365796
 10
6.8110717881
 20
3.5036256465
 10
6.8110282626
 20
3.503312751
 10
6.8109971243
 20
3.5029983811
 10
6.8109784219
 20
3.5026830269
 10
6.8109721846
 20
3.5023671801
  0
LINE
  5
2E7
100
AcDbEntity
  8
0
100
AcDbLine
 62
7
  6
CONTINUOUS
 10
3.6054373628
 20
5.6629856832
 11
4.0977073184
 21
5.5876577947
  0
LINE
  5
2E8
100
AcDbEntity
  8
0
100
AcDbLine
 62
7
  6
CONTINUOUS
 10
7.2291964175
 20
2.2868601412
 11
7.2299586973
 21
2.282885833
  0
LINE
  5
2E9
100
AcDbEntity
  8
0
100
AcDbLine
 62
7
  6
CONTINUOUS
 10
6.9329721846
 20
3.6627116331
 11
6.9329721846
 21
5.8059469314
  0
LINE
  5
2EA
100
AcDbEntity
  8
0
100
AcDbLine
 62
7
  6
CONTINUOUS
 10
6.9609721846
 20
3.6567116331
 11
6.9609721846
 21
3.6627116331
  0
LINE
  5
2EB
100
AcDbEntity
  8
0
100
AcDbLine
 62
7
  6
CONTINUOUS
 10
7.0109514942
 20
2.5424620506
 11
7.0109514942
 21
3.8182620506
  0
LINE
  5
2EC
100
AcDbEntity
  8
0
100
AcDbLine
 62
7
  6
CONTINUOUS
 10
7.0142915391
 20
2.5122316524
 11
7.0142912203
 21
2.520369995
  0
LINE
  5
2ED
100
AcDbEntity
  8
0
100
AcDbLine
 62
7
  6
CONTINUOUS
 10
7.0189514942
 20
2.5424620506
 11
7.0189514942
 21
3.8182620506
  0
LINE
  5
2EE
100
AcDbEntity
  8
0
100
AcDbLine
 62
7
  6
CONTINUOUS
 10
7.0611774749
 20
0.7521156798
 11
7.0611774749
 21
0.8513075864
  0
LINE
  5
2EF
100
AcDbEntity
  8
0
100
AcDbLine
 62
7
  6
CONTINUOUS
 10
7.0705644496
 20
0.752770995
 11
7.0705644496
 21
0.8506522712
  0
LINE
  5
2F0
100
AcDbEntity
  8
0
100
AcDbLine
 62
7
  6
CONTINUOUS
 10
7.0857514942
 20
3.8930620506
 11
7.0857514942
 21
3.8850620506
  0
LINE
  5
2F1
100
AcDbEntity
  8
0
100
AcDbLine
 62
7
  6
CONTINUOUS
 10
7.0857514942
 20
2.4676620506
 11
7.0857514942
 21
2.4756620506
  0
LINE
  5
2F2
100
AcDbEntity
  8
0
100
AcDbLine
 62
7
  6
CONTINUOUS
 10
7.1234316773
 20
2.6411270125
 11
7.1234316773
 21
2.6441970887
  0
LINE
  5
2F3
100
AcDbEntity
  8
0
100
AcDbLine
 62
7
  6
CONTINUOUS
 10
7.1274164561
 20
2.6371422337
 11
7.1274164561
 21
2.6481818675
  0
LINE
  5
2F4
100
AcDbEntity
  8
0
100
AcDbLine
 62
7
  6
CONTINUOUS
 10
7.1514468986
 20
2.6411270125
 11
7.1514468986
 21
2.6371422337
  0
LINE
  5
2F5
100
AcDbEntity
  8
0
100
AcDbLine
 62
7
  6
CONTINUOUS
 10
7.1514468986
 20
2.6441970887
 11
7.1514468986
 21
2.6481818675
  0
LINE
  5
2F6
100
AcDbEntity
  8
0
100
AcDbLine
 62
7
  6
CONTINUOUS
 10
7.1554316773
 20
2.6091270125
 11
7.1554316773
 21
2.6331574549
  0
LINE
  5
2F7
100
AcDbEntity
  8
0
100
AcDbLine
 62
7
  6
CONTINUOUS
 10
7.1554316773
 20
2.6521666463
 11
7.1554316773
 21
2.6761970887
  0
LINE
  5
2F8
100
AcDbEntity
  8
0
100
AcDbLine
 62
7
  6
CONTINUOUS
 10
7.1594164561
 20
2.6051422337
 11
7.1594164561
 21
2.6331574549
  0
LINE
  5
2F9
100
AcDbEntity
  8
0
100
AcDbLine
 62
7
  6
CONTINUOUS
 10
7.1594164561
 20
2.6521666463
 11
7.1594164561
 21
2.6801818675
  0
LINE
  5
2FA
100
AcDbEntity
  8
0
100
AcDbLine
 62
7
  6
CONTINUOUS
 10
7.1624865323
 20
2.6331574549
 11
7.1624865323
 21
2.6051422337
  0
LINE
  5
2FB
100
AcDbEntity
  8
0
100
AcDbLine
 62
7
  6
CONTINUOUS
 10
7.1624865323
 20
2.6521666463
 11
7.1624865323
 21
2.6801818675
  0
LINE
  5
2FC
100
AcDbEntity
  8
0
100
AcDbLine
 62
7
  6
CONTINUOUS
 10
7.1664713111
 20
2.6761970887
 11
7.1664713111
 21
2.6521666463
  0
LINE
  5
2FD
100
AcDbEntity
  8
0
100
AcDbLine
 62
7
  6
CONTINUOUS
 10
7.1664713111
 20
2.6331574549
 11
7.1664713111
 21
2.6091270125
  0
LINE
  5
2FE
100
AcDbEntity
  8
0
100
AcDbLine
 62
7
  6
CONTINUOUS
 10
7.1704560899
 20
2.6411270125
 11
7.1704560899
 21
2.6371422337
  0
LINE
  5
2FF
100
AcDbEntity
  8
0
100
AcDbLine
 62
7
  6
CONTINUOUS
 10
7.1704560899
 20
2.6441970887
 11
7.1704560899
 21
2.6481818675
  0
LINE
  5
300
100
AcDbEntity
  8
0
100
AcDbLine
 62
7
  6
CONTINUOUS
 10
6.8135500598
 20
2.754905716
 11
6.8135497961
 21
2.7549038511
  0
LINE
  5
301
100
AcDbEntity
  8
0
100
AcDbLine
 62
7
  6
CONTINUOUS
 10
6.8135497961
 20
2.5304012545
 11
6.8135500598
 21
2.5304031195
  0
LINE
  5
302
100
AcDbEntity
  8
0
100
AcDbLine
 62
7
  6
CONTINUOUS
 10
6.8148767527
 20
2.5225315096
 11
6.8148770137
 21
2.5225333547
  0
LINE
  5
303
100
AcDbEntity
  8
0
100
AcDbLine
 62
7
  6
CONTINUOUS
 10
6.8838856525
 20
2.4030068861
 11
6.8838853916
 21
2.403005041
  0
LINE
  5
304
100
AcDbEntity
  8
0
100
AcDbLine
 62
7
  6
CONTINUOUS
 10
6.8900375839
 20
2.3979228417
 11
6.8900373202
 21
2.3979209767
  0
LINE
  5
305
100
AcDbEntity
  8
0
100
AcDbLine
 62
7
  6
CONTINUOUS
 10
6.9329721846
 20
5.8059469314
 11
7.3889721846
 21
5.8059469314
  0
LINE
  5
306
100
AcDbEntity
  8
0
100
AcDbLine
 62
7
  6
CONTINUOUS
 10
3.6616767249
 20
5.8916785171
 11
4.1124299373
 21
5.8227035831
  0
LINE
  5
307
100
AcDbEntity
  8
0
100
AcDbLine
 62
7
  6
CONTINUOUS
 10
3.664973674
 20
5.913224176
 11
4.1157268864
 21
5.844249242
  0
LINE
  5
308
100
AcDbEntity
  8
0
100
AcDbLine
 62
7
  6
CONTINUOUS
 10
4.1149838791
 20
5.8605491788
 11
3.6705570276
 21
5.9285560436
  0
LINE
  5
309
100
AcDbEntity
  8
0
100
AcDbLine
 62
7
  6
CONTINUOUS
 10
4.1196596677
 20
5.8699500831
 11
3.6689064553
 21
5.9389250171
  0
LINE
  5
30A
100
AcDbEntity
  8
0
100
AcDbLine
 62
7
  6
CONTINUOUS
 10
4.1384212526
 20
6.0188251639
 11
3.6915955784
 21
6.0871991001
  0
LINE
  5
30B
100
AcDbEntity
  8
0
100
AcDbLine
 62
7
  6
CONTINUOUS
 10
7.1944865323
 20
2.6371422337
 11
7.1944865323
 21
2.6481818675
  0
LINE
  5
30C
100
AcDbEntity
  8
0
100
AcDbLine
 62
7
  6
CONTINUOUS
 10
7.1984713111
 20
2.6441970887
 11
7.1984713111
 21
2.6411270125
  0
LINE
  5
30D
100
AcDbEntity
  8
0
100
AcDbLine
 62
7
  6
CONTINUOUS
 10
7.2361514942
 20
3.8930620506
 11
7.2361514942
 21
3.8850620506
  0
LINE
  5
30E
100
AcDbEntity
  8
0
100
AcDbLine
 62
7
  6
CONTINUOUS
 10
7.2361514942
 20
2.4676620506
 11
7.2361514942
 21
2.4756620506
  0
LINE
  5
30F
100
AcDbEntity
  8
0
100
AcDbLine
 62
7
  6
CONTINUOUS
 10
7.2513799196
 20
0.8506522712
 11
7.2513799196
 21
0.752770995
  0
LINE
  5
310
100
AcDbEntity
  8
0
100
AcDbLine
 62
7
  6
CONTINUOUS
 10
7.2607668942
 20
0.8513075864
 11
7.2607668942
 21
0.7521156798
  0
LINE
  5
311
100
AcDbEntity
  8
0
100
AcDbLine
 62
7
  6
CONTINUOUS
 10
7.3029514942
 20
3.8182620506
 11
7.3029514942
 21
2.5424620506
  0
LINE
  5
312
100
AcDbEntity
  8
0
100
AcDbLine
 62
7
  6
CONTINUOUS
 10
7.3076104377
 20
2.5203658033
 11
7.3076100986
 21
2.5122316524
  0
LINE
  5
313
100
AcDbEntity
  8
0
100
AcDbLine
 62
7
  6
CONTINUOUS
 10
7.3109514942
 20
3.8182620506
 11
7.3109514942
 21
2.5424620506
  0
LINE
  5
314
100
AcDbEntity
  8
0
100
AcDbLine
 62
7
  6
CONTINUOUS
 10
7.3609721846
 20
3.6567116331
 11
7.3609721846
 21
3.6627116331
  0
LINE
  5
315
100
AcDbEntity
  8
0
100
AcDbLine
 62
7
  6
CONTINUOUS
 10
7.3889721846
 20
3.6627116331
 11
7.3889721846
 21
5.8059469314
  0
LINE
  5
316
100
AcDbEntity
  8
0
100
AcDbLine
 62
7
  6
CONTINUOUS
 10
7.4351689587
 20
3.3945768378
 11
7.4351689587
 21
3.4924464284
  0
LINE
  5
317
100
AcDbEntity
  8
0
100
AcDbLine
 62
7
  6
CONTINUOUS
 10
7.084462272
 20
2.2856696784
 11
7.0844625358
 21
2.2856715434
  0
LINE
  5
318
100
AcDbEntity
  8
0
100
AcDbLine
 62
7
  6
CONTINUOUS
 10
7.0919411586
 20
2.2828839879
 11
7.0919414196
 21
2.282885833
  0
LINE
  5
319
100
AcDbEntity
  8
0
100
AcDbLine
 62
7
  6
CONTINUOUS
 10
7.0927037402
 20
2.2868601412
 11
7.0919414196
 21
2.282885833
  0
LINE
  5
31A
100
AcDbEntity
  8
0
100
AcDbLine
 62
7
  6
CONTINUOUS
 10
7.0109514942
 20
2.9571958367
 11
6.8900375839
 21
2.8873859938
  0
LWPOLYLINE
  5
31B
100
AcDbEntity
  8
0
100
AcDbPolyline
 62
7
  6
CONTINUOUS
 90
30
 70
0
 10
7.5791721846
 20
0.8612078933
 10
7.579165852
 20
0.8615261389
 10
7.5791468645
 20
0.8618438807
 10
7.579115252
 20
0.8621606156
 10
7.5790710646
 20
0.8624758422
 10
7.5790143723
 20
0.8627890615
 10
7.5789452648
 20
0.8630997776
 10
7.5788638514
 20
0.8634074985
 10
7.5787702612
 20
0.8637117373
 10
7.5786646422
 20
0.8640120121
 10
7.5785471617
 20
0.8643078476
 10
7.5784180057
 20
0.8645987755
 10
7.5782773785
 20
0.8648843352
 10
7.578125503
 20
0.8651640746
 10
7.5779626194
 20
0.8654375509
 10
7.5777889857
 20
0.8657043311
 10
7.5776048768
 20
0.8659639928
 10
7.577410584
 20
0.866216125
 10
7.5772064151
 20
0.8664603285
 10
7.5769926932
 20
0.8666962167
 10
7.5767697567
 20
0.8669234162
 10
7.5765379585
 20
0.8671415673
 10
7.5762976657
 20
0.8673503246
 10
7.5760492585
 20
0.8675493576
 10
7.5757931302
 20
0.8677383513
 10
7.5755296865
 20
0.8679170064
 10
7.5752593442
 20
0.8680850402
 10
7.5749825315
 20
0.8682421865
 10
7.5746996864
 20
0.8683881966
 10
7.5745999579
 20
0.8684363368
  0
LWPOLYLINE
  5
31C
100
AcDbEntity
  8
0
100
AcDbPolyline
 62
7
  6
CONTINUOUS
 90
30
 70
0
 10
7.5109721846
 20
3.5023671801
 10
7.5109659472
 20
3.5026830269
 10
7.5109472448
 20
3.5029983811
 10
7.5109161065
 20
3.503312751
 10
7.510872581
 20
3.5036256465
 10
7.510816736
 20
3.5039365796
 10
7.5107486587
 20
3.5042450655
 10
7.5106684552
 20
3.5045506231
 10
7.5105762506
 20
3.5048527759
 10
7.5104721886
 20
3.5051510529
 10
7.5103564315
 20
3.5054449888
 10
7.5102291599
 20
3.5057341254
 10
7.5100905722
 20
3.5060180117
 10
7.5099408844
 20
3.5062962052
 10
7.5097803301
 20
3.5065682719
 10
7.5096091596
 20
3.5068337877
 10
7.5094276397
 20
3.5070923385
 10
7.5092360536
 20
3.5073435212
 10
7.5090347
 20
3.507586944
 10
7.5088238928
 20
3.5078222275
 10
7.5086039608
 20
3.5080490046
 10
7.508375247
 20
3.5082669219
 10
7.5081381079
 20
3.5084756394
 10
7.5078929134
 20
3.5086748317
 10
7.5076400458
 20
3.5088641883
 10
7.5073798995
 20
3.5090434138
 10
7.50711288
 20
3.5092122287
 10
7.5068394037
 20
3.5093703699
 10
7.5065598972
 20
3.5095175907
 10
7.5064261501
 20
3.5095831469
  0
LINE
  5
31D
100
AcDbEntity
  8
0
100
AcDbLine
 62
7
  6
CONTINUOUS
 10
7.4436136237
 20
3.3953612805
 11
7.4436136237
 21
3.4916619857
  0
LINE
  5
31E
100
AcDbEntity
  8
0
100
AcDbLine
 62
7
  6
CONTINUOUS
 10
7.4493721846
 20
3.6565116331
 11
7.4493721846
 21
3.5559116331
  0
LINE
  5
31F
100
AcDbEntity
  8
0
100
AcDbLine
 62
7
  6
CONTINUOUS
 10
7.4595721846
 20
3.5559116331
 11
7.4595721846
 21
3.5175116331
  0
LINE
  5
320
100
AcDbEntity
  8
0
100
AcDbLine
 62
7
  6
CONTINUOUS
 10
7.479004119
 20
0.7521156798
 11
7.479004119
 21
0.8513075864
  0
LINE
  5
321
100
AcDbEntity
  8
0
100
AcDbLine
 62
7
  6
CONTINUOUS
 10
7.4809721846
 20
0.9127116331
 11
7.4809721846
 21
2.4643987141
  0
LINE
  5
322
100
AcDbEntity
  8
0
100
AcDbLine
 62
7
  6
CONTINUOUS
 10
7.4809721846
 20
2.8209077894
 11
7.4809721846
 21
3.3695116331
  0
LINE
  5
323
100
AcDbEntity
  8
0
100
AcDbLine
 62
7
  6
CONTINUOUS
 10
7.4868135265
 20
0.752770995
 11
7.4868135265
 21
0.8506522712
  0
LINE
  5
324
100
AcDbEntity
  8
0
100
AcDbLine
 62
7
  6
CONTINUOUS
 10
7.5083500598
 20
2.5304031194
 11
7.5083500598
 21
2.754905716
  0
LINE
  5
325
100
AcDbEntity
  8
0
100
AcDbLine
 62
7
  6
CONTINUOUS
 10
7.5090786934
 20
3.4916619857
 11
7.5090786934
 21
3.3953612805
  0
LINE
  5
326
100
AcDbEntity
  8
0
100
AcDbLine
 62
7
  6
CONTINUOUS
 10
7.5109721846
 20
3.5023671801
 11
7.5109721846
 21
3.384656131
  0
LINE
  5
327
100
AcDbEntity
  8
0
100
AcDbLine
 62
7
  6
CONTINUOUS
 10
7.5158024841
 20
0.9127116331
 11
7.5158024841
 21
0.8807116331
  0
LINE
  5
328
100
AcDbEntity
  8
0
100
AcDbLine
 62
7
  6
CONTINUOUS
 10
7.577603486
 20
0.8506522712
 11
7.577603486
 21
0.752770995
  0
LINE
  5
329
100
AcDbEntity
  8
0
100
AcDbLine
 62
7
  6
CONTINUOUS
 10
7.5791721846
 20
0.8612078933
 11
7.5791721846
 21
0.742215417
  0
LINE
  5
32A
100
AcDbEntity
  8
0
100
AcDbLine
 62
7
  6
CONTINUOUS
 10
7.2299586973
 20
2.282885833
 11
7.2299584363
 21
2.2828839879
  0
LINE
  5
32B
100
AcDbEntity
  8
0
100
AcDbLine
 62
7
  6
CONTINUOUS
 10
7.2374375839
 20
2.2856715434
 11
7.2374373202
 21
2.2856696784
  0
LINE
  5
32C
100
AcDbEntity
  8
0
100
AcDbLine
 62
7
  6
CONTINUOUS
 10
7.431862272
 20
2.3979209767
 11
7.4318625358
 21
2.3979228416
  0
LINE
  5
32D
100
AcDbEntity
  8
0
100
AcDbLine
 62
7
  6
CONTINUOUS
 10
7.4380142034
 20
2.403005041
 11
7.4380144644
 21
2.4030068861
  0
LINE
  5
32E
100
AcDbEntity
  8
0
100
AcDbLine
 62
7
  6
CONTINUOUS
 10
7.5032002464
 20
2.7614486943
 11
7.5070231032
 21
2.7627754609
  0
LINE
  5
32F
100
AcDbEntity
  8
0
100
AcDbLine
 62
7
  6
CONTINUOUS
 10
6.8186999112
 20
2.5238604095
 11
6.8148770137
 21
2.5225333547
  0
LINE
  5
330
100
AcDbEntity
  8
0
100
AcDbLine
 62
7
  6
CONTINUOUS
 10
7.5070231032
 20
2.5225333547
 11
7.5070228423
 21
2.5225315096
  0
LINE
  5
331
100
AcDbEntity
  8
0
100
AcDbLine
 62
7
  6
CONTINUOUS
 10
7.1234316773
 20
2.6411270125
 11
7.1223178491
 21
2.6400131843
  0
LINE
  5
332
100
AcDbEntity
  8
0
100
AcDbLine
 62
7
  6
CONTINUOUS
 10
7.1624865323
 20
2.6801818675
 11
7.1636003605
 21
2.6812956957
  0
LINE
  5
333
100
AcDbEntity
  8
0
100
AcDbLine
 62
7
  6
CONTINUOUS
 10
7.1274164561
 20
2.6371422337
 11
7.1260451306
 21
2.6357709082
  0
LINE
  5
334
100
AcDbEntity
  8
0
100
AcDbLine
 62
7
  6
CONTINUOUS
 10
7.1664713111
 20
2.6761970887
 11
7.1678426366
 21
2.6775684142
  0
LINE
  5
335
100
AcDbEntity
  8
0
100
AcDbLine
 62
7
  6
CONTINUOUS
 10
7.1683823349
 20
2.6540776701
 11
7.1664713111
 21
2.6521666463
  0
LINE
  5
336
100
AcDbEntity
  8
0
100
AcDbLine
 62
7
  6
CONTINUOUS
 10
7.1495358747
 20
2.6352312099
 11
7.1514468986
 21
2.6371422337
  0
LINE
  5
337
100
AcDbEntity
  8
0
100
AcDbLine
 62
7
  6
CONTINUOUS
 10
7.1723671137
 20
2.6500928913
 11
7.1704560899
 21
2.6481818675
  0
LINE
  5
338
100
AcDbEntity
  8
0
100
AcDbLine
 62
7
  6
CONTINUOUS
 10
7.1535206535
 20
2.6312464311
 11
7.1554316773
 21
2.6331574549
  0
LINE
  5
339
100
AcDbEntity
  8
0
100
AcDbLine
 62
7
  6
CONTINUOUS
 10
7.1554316773
 20
2.6091270125
 11
7.1540603518
 21
2.607755687
  0
LINE
  5
33A
100
AcDbEntity
  8
0
100
AcDbLine
 62
7
  6
CONTINUOUS
 10
7.1944865323
 20
2.6481818675
 11
7.1958578578
 21
2.649553193
  0
LINE
  5
33B
100
AcDbEntity
  8
0
100
AcDbLine
 62
7
  6
CONTINUOUS
 10
7.1594164561
 20
2.6051422337
 11
7.1583026279
 21
2.6040284055
  0
LINE
  5
33C
100
AcDbEntity
  8
0
100
AcDbLine
 62
7
  6
CONTINUOUS
 10
7.1984713111
 20
2.6441970887
 11
7.1995851393
 21
2.6453109169
  0
LINE
  5
33D
100
AcDbEntity
  8
0
100
AcDbLine
 62
7
  6
CONTINUOUS
 10
6.8869462499
 20
2.4056542836
 11
6.8838856525
 21
2.4030068861
  0
LINE
  5
33E
100
AcDbEntity
  8
0
100
AcDbLine
 62
7
  6
CONTINUOUS
 10
7.4349539078
 20
2.8796548202
 11
7.4380144643
 21
2.8823019295
  0
LINE
  5
33F
100
AcDbEntity
  8
0
100
AcDbLine
 62
7
  6
CONTINUOUS
 10
7.4318625358
 20
2.3979228416
 11
7.2374373202
 21
2.2856696784
  0
LWPOLYLINE
  5
340
100
AcDbEntity
  8
0
100
AcDbPolyline
 62
7
  6
CONTINUOUS
 90
30
 70
0
 10
6.7473444112
 20
0.8684363368
 10
6.7472446827
 20
0.8683881966
 10
6.7469618376
 20
0.8682421865
 10
6.7466850249
 20
0.8680850402
 10
6.7464146826
 20
0.8679170064
 10
6.7461512389
 20
0.8677383513
 10
6.7458951106
 20
0.8675493576
 10
6.7456467035
 20
0.8673503246
 10
6.7454064106
 20
0.8671415673
 10
6.7451746124
 20
0.8669234162
 10
6.7449516759
 20
0.8666962167
 10
6.744737954
 20
0.8664603285
 10
6.7445337851
 20
0.866216125
 10
6.7443394923
 20
0.8659639928
 10
6.7441553834
 20
0.8657043311
 10
6.7439817497
 20
0.8654375509
 10
6.7438188661
 20
0.8651640746
 10
6.7436669906
 20
0.8648843352
 10
6.7435263635
 20
0.8645987755
 10
6.7433972074
 20
0.8643078476
 10
6.7432797269
 20
0.8640120121
 10
6.7431741079
 20
0.8637117373
 10
6.7430805177
 20
0.8634074985
 10
6.7429991044
 20
0.8630997776
 10
6.7429299968
 20
0.8627890615
 10
6.7428733045
 20
0.8624758422
 10
6.7428291171
 20
0.8621606156
 10
6.7427975046
 20
0.8618438807
 10
6.7427785171
 20
0.8615261389
 10
6.7427721846
 20
0.8612078933
  0
LWPOLYLINE
  5
341
100
AcDbEntity
  8
0
100
AcDbPolyline
 62
7
  6
CONTINUOUS
 90
30
 70
0
 10
7.5745999591
 20
0.7349869755
 10
7.5747360822
 20
0.7350531102
 10
7.575016911
 20
0.7351998569
 10
7.5752917085
 20
0.7353576093
 10
7.5755600434
 20
0.7355261197
 10
7.575821495
 20
0.7357051239
 10
7.576075653
 20
0.7358943411
 10
7.5763221188
 20
0.7360934744
 10
7.5765605056
 20
0.7363022115
 10
7.5767904395
 20
0.7365202248
 10
7.5770115599
 20
0.7367471725
 10
7.5772235198
 20
0.7369826983
 10
7.5774259867
 20
0.737226433
 10
7.577618643
 20
0.7374779941
 10
7.5778011865
 20
0.737736987
 10
7.5779733308
 20
0.7380030054
 10
7.5781348059
 20
0.738275632
 10
7.5782853584
 20
0.738554439
 10
7.5784247521
 20
0.7388389892
 10
7.5785527685
 20
0.7391288362
 10
7.5786692067
 20
0.7394235252
 10
7.578773884
 20
0.7397225939
 10
7.5788666361
 20
0.7400255733
 10
7.5789473177
 20
0.7403319879
 10
7.5790158021
 20
0.7406413571
 10
7.5790719819
 20
0.7409531957
 10
7.5791157689
 20
0.7412670143
 10
7.5791470945
 20
0.7415823208
 10
7.5791659096
 20
0.7418986204
 10
7.5791721846
 20
0.742215417
  0
ARC
  5
342
100
AcDbEntity
  8
0
100
AcDbCircle
 62
7
  6
CONTINUOUS
 10
-1.3382606425
 20
-12.0514257096
 40
16.6324126316
100
AcDbArc
 50
59.5625878891
 51
59.8030493127
  0
ARC
  5
343
100
AcDbEntity
  8
0
100
AcDbCircle
 62
7
  6
CONTINUOUS
 10
-9.8243531326
 20
2.6291373341
 40
16.6426635743
100
AcDbArc
 50
0.1969161269
 51
0.4372286373
  0
ARC
  5
344
100
AcDbEntity
  8
0
100
AcDbCircle
 62
7
  6
CONTINUOUS
 10
-1.3160664253
 20
-12.0669797321
 40
16.6347857335
100
AcDbArc
 50
60.1969686423
 51
60.4373953234
  0
ARC
  5
345
100
AcDbEntity
  8
0
100
AcDbCircle
 62
7
  6
CONTINUOUS
 10
4.0548214087
 20
2.6426554226
 40
3.449143052
100
AcDbArc
 50
359.2743649724
 51
0.7256120455
  0
ARC
  5
346
100
AcDbEntity
  8
0
100
AcDbCircle
 62
7
  6
CONTINUOUS
 10
5.6097623092
 20
-0.0441660082
 40
3.4454632247
100
AcDbArc
 50
59.2743054253
 51
60.4127978642
  0
ARC
  5
347
100
AcDbEntity
  8
0
100
AcDbCircle
 62
7
  6
CONTINUOUS
 10
6.858747089
 20
0.9699113191
 40
0.26
100
AcDbArc
 50
244.6293823907
 51
251.9465862439
  0
ARC
  5
348
100
AcDbEntity
  8
0
100
AcDbCircle
 62
7
  6
CONTINUOUS
 10
6.858747089
 20
0.6335119471
 40
0.26
100
AcDbArc
 50
108.0534137561
 51
115.3706130379
  0
ARC
  5
349
100
AcDbEntity
  8
0
100
AcDbCircle
 62
7
  6
CONTINUOUS
 10
6.1922419947
 20
2.6426620506
 40
1.013189959
100
AcDbArc
 50
359.8436753756
 51
0.1563246244
  0
ARC
  5
34A
100
AcDbEntity
  8
0
100
AcDbCircle
 62
7
  6
CONTINUOUS
 10
6.1843254061
 20
2.6411963447
 40
0.9885946638
100
AcDbArc
 50
357.9732537103
 51
359.3944757269
  0
ARC
  5
34B
100
AcDbEntity
  8
0
100
AcDbCircle
 62
7
  6
CONTINUOUS
 10
6.1843254152
 20
2.6441277567
 40
0.9885946547
100
AcDbArc
 50
0.6055242666
 51
2.0267462963
  0
ARC
  5
34C
100
AcDbEntity
  8
0
100
AcDbCircle
 62
7
  6
CONTINUOUS
 10
6.2287304928
 20
2.6426620506
 40
0.9708582601
100
AcDbArc
 50
359.8436753794
 51
0.1563246206
  0
ARC
  5
34D
100
AcDbEntity
  8
0
100
AcDbCircle
 62
7
  6
CONTINUOUS
 10
6.2211411497
 20
2.6412576641
 40
0.9472940873
100
AcDbArc
 50
357.9732563655
 51
359.3944730717
  0
ARC
  5
34E
100
AcDbEntity
  8
0
100
AcDbCircle
 62
7
  6
CONTINUOUS
 10
6.2211411497
 20
2.6440664371
 40
0.9472940873
100
AcDbArc
 50
0.6055269283
 51
2.0267436345
  0
ARC
  5
34F
100
AcDbEntity
  8
0
100
AcDbCircle
 62
7
  6
CONTINUOUS
 10
7.1609513901
 20
1.673969861
 40
1.0131726488
100
AcDbArc
 50
89.9999941127
 51
90.156321408
  0
ARC
  5
350
100
AcDbEntity
  8
0
100
AcDbCircle
 62
7
  6
CONTINUOUS
 10
7.1609519343
 20
1.6742161374
 40
1.0129263724
100
AcDbArc
 50
89.8436595878
 51
90.0000248915
  0
ARC
  5
351
100
AcDbEntity
  8
0
100
AcDbCircle
 62
7
  6
CONTINUOUS
 10
7.1624172001
 20
1.6660359624
 40
0.9885946638
100
AcDbArc
 50
87.9732537103
 51
89.3944757268
  0
ARC
  5
352
100
AcDbEntity
  8
0
100
AcDbCircle
 62
7
  6
CONTINUOUS
 10
7.1594857881
 20
1.6660359716
 40
0.9885946546
100
AcDbArc
 50
90.6055242666
 51
92.0267462963
  0
ARC
  5
353
100
AcDbEntity
  8
0
100
AcDbCircle
 62
7
  6
CONTINUOUS
 10
7.1609514942
 20
1.7104410494
 40
0.9708582599
100
AcDbArc
 50
89.8436753794
 51
90.1563246206
  0
ARC
  5
354
100
AcDbEntity
  8
0
100
AcDbCircle
 62
7
  6
CONTINUOUS
 10
7.1623558807
 20
1.7028517061
 40
0.9472940873
100
AcDbArc
 50
87.9732563655
 51
89.3944730716
  0
ARC
  5
355
100
AcDbEntity
  8
0
100
AcDbCircle
 62
7
  6
CONTINUOUS
 10
7.1595471077
 20
1.7028517061
 40
0.9472940873
100
AcDbArc
 50
90.6055269283
 51
92.0267436345
  0
ARC
  5
356
100
AcDbEntity
  8
0
100
AcDbCircle
 62
7
  6
CONTINUOUS
 10
6.902037583
 20
2.4187074452
 40
0.024
100
AcDbArc
 50
220.8582354219
 51
239.9999944151
  0
ARC
  5
357
100
AcDbEntity
  8
0
100
AcDbCircle
 62
7
  6
CONTINUOUS
 10
6.8989183524
 20
2.4160128079
 40
0.0158313065
100
AcDbArc
 50
220.8670744474
 51
240.4423754359
  0
ARC
  5
358
100
AcDbEntity
  8
0
100
AcDbCircle
 62
7
  6
CONTINUOUS
 10
6.837550059
 20
2.5304031133
 40
0.024
100
AcDbArc
 50
180.000008885
 51
199.1417627387
  0
ARC
  5
359
100
AcDbEntity
  8
0
100
AcDbCircle
 62
7
  6
CONTINUOUS
 10
6.8336569635
 20
2.5290493591
 40
0.01583157
100
AcDbArc
 50
179.5578223494
 51
199.1328504936
  0
ARC
  5
35A
100
AcDbEntity
  8
0
100
AcDbCircle
 62
7
  6
CONTINUOUS
 10
7.0964625349
 20
2.3064561469
 40
0.024
100
AcDbArc
 50
240.0000033495
 51
259.1417551982
  0
ARC
  5
35B
100
AcDbEntity
  8
0
100
AcDbCircle
 62
7
  6
CONTINUOUS
 10
7.0956884702
 20
2.3024076445
 40
0.0158314078
100
AcDbArc
 50
239.5576603199
 51
259.1328629911
  0
ARC
  5
35C
100
AcDbEntity
  8
0
100
AcDbCircle
 62
7
  6
CONTINUOUS
 10
7.0857514942
 20
2.5424620506
 40
0.0748
100
AcDbArc
 50
180.0
 51
270.0
  0
ARC
  5
35D
100
AcDbEntity
  8
0
100
AcDbCircle
 62
7
  6
CONTINUOUS
 10
7.0857514942
 20
2.5424620506
 40
0.0668
100
AcDbArc
 50
180.0
 51
270.0
  0
ARC
  5
35E
100
AcDbEntity
  8
0
100
AcDbCircle
 62
7
  6
CONTINUOUS
 10
7.1609589366
 20
2.5128423944
 40
0.1499929317
100
AcDbArc
 50
269.9967796794
 51
306.0101608496
  0
ARC
  5
35F
100
AcDbEntity
  8
0
100
AcDbCircle
 62
7
  6
CONTINUOUS
 10
7.1609401793
 20
2.5128358544
 40
0.1499861807
100
AcDbArc
 50
233.9890518077
 51
270.0039449602
  0
ARC
  5
360
100
AcDbEntity
  8
0
100
AcDbCircle
 62
7
  6
CONTINUOUS
 10
7.1609548816
 20
2.5122323419
 40
0.1466633916
100
AcDbArc
 50
180.00026938
 51
219.8642238028
  0
ARC
  5
361
100
AcDbEntity
  8
0
100
AcDbCircle
 62
7
  6
CONTINUOUS
 10
7.1609469401
 20
2.5122325676
 40
0.1466632069
100
AcDbArc
 50
320.1356149565
 51
359.9996424544
  0
ARC
  5
362
100
AcDbEntity
  8
0
100
AcDbCircle
 62
7
  6
CONTINUOUS
 10
7.1594496239
 20
2.497835981
 40
0.1391032649
100
AcDbArc
 50
310.1506485961
 51
325.0886119487
  0
ARC
  5
363
100
AcDbEntity
  8
0
100
AcDbCircle
 62
7
  6
CONTINUOUS
 10
7.1609507499
 20
2.5145961359
 40
0.136
100
AcDbArc
 50
187.2606975384
 51
352.7383516589
  0
ARC
  5
364
100
AcDbEntity
  8
0
100
AcDbCircle
 62
7
  6
CONTINUOUS
 10
7.1609500584
 20
2.6426544078
 40
0.3663272031
100
AcDbArc
 50
19.1417547539
 51
40.8582452313
  0
ARC
  5
365
100
AcDbEntity
  8
0
100
AcDbCircle
 62
7
  6
CONTINUOUS
 10
7.1609500584
 20
2.6426544078
 40
0.3663272031
100
AcDbArc
 50
199.1417547539
 51
220.8582452313
  0
ARC
  5
366
100
AcDbEntity
  8
0
100
AcDbCircle
 62
7
  6
CONTINUOUS
 10
7.1609500584
 20
2.6426544078
 40
0.3663272031
100
AcDbArc
 50
259.1417547584
 51
280.8582452414
  0
ARC
  5
367
100
AcDbEntity
  8
0
100
AcDbCircle
 62
7
  6
CONTINUOUS
 10
7.1609497975
 20
2.6426525627
 40
0.3663272031
100
AcDbArc
 50
319.1417547647
 51
340.8582452399
  0
ARC
  5
368
100
AcDbEntity
  8
0
100
AcDbCircle
 62
7
  6
CONTINUOUS
 10
7.1609500584
 20
2.6426544078
 40
0.3663272031
100
AcDbArc
 50
139.1417547647
 51
160.8582452399
  0
ARC
  5
369
100
AcDbEntity
  8
0
100
AcDbCircle
 62
7
  6
CONTINUOUS
 10
7.1609500788
 20
2.6426545519
 40
0.3622805895
100
AcDbArc
 50
199.1417547539
 51
220.8582452313
  0
ARC
  5
36A
100
AcDbEntity
  8
0
100
AcDbCircle
 62
7
  6
CONTINUOUS
 10
7.1609500788
 20
2.6426545519
 40
0.3622805895
100
AcDbArc
 50
259.1417547584
 51
280.8582452414
  0
ARC
  5
36B
100
AcDbEntity
  8
0
100
AcDbCircle
 62
7
  6
CONTINUOUS
 10
7.1609500788
 20
2.6426545519
 40
0.3622805895
100
AcDbArc
 50
319.1417547647
 51
340.8582452399
  0
ARC
  5
36C
100
AcDbEntity
  8
0
100
AcDbCircle
 62
7
  6
CONTINUOUS
 10
7.1609500788
 20
2.6426545519
 40
0.3622805895
100
AcDbArc
 50
19.1417547539
 51
40.8582452313
  0
ARC
  5
36D
100
AcDbEntity
  8
0
100
AcDbCircle
 62
7
  6
CONTINUOUS
 10
7.1609500788
 20
2.6426545519
 40
0.3622805895
100
AcDbArc
 50
139.1417547647
 51
160.8582452399
  0
ARC
  5
36E
100
AcDbEntity
  8
0
100
AcDbCircle
 62
7
  6
CONTINUOUS
 10
7.1609501041
 20
2.6426547308
 40
0.3455101977
100
AcDbArc
 50
7.2629630126
 51
52.7370369754
  0
ARC
  5
36F
100
AcDbEntity
  8
0
100
AcDbCircle
 62
7
  6
CONTINUOUS
 10
7.1609501041
 20
2.6426547308
 40
0.3455101977
100
AcDbArc
 50
307.262963022
 51
352.7370369806
  0
ARC
  5
370
100
AcDbEntity
  8
0
100
AcDbCircle
 62
7
  6
CONTINUOUS
 10
7.1609501041
 20
2.6426547308
 40
0.3455101977
100
AcDbArc
 50
127.262963022
 51
172.7370369806
  0
ARC
  5
371
100
AcDbEntity
  8
0
100
AcDbCircle
 62
7
  6
CONTINUOUS
 10
7.1609501041
 20
2.6426547308
 40
0.3455101977
100
AcDbArc
 50
247.2629630127
 51
292.7370369863
  0
ARC
  5
372
100
AcDbEntity
  8
0
100
AcDbCircle
 62
7
  6
CONTINUOUS
 10
7.1609501041
 20
2.6426547308
 40
0.3455101977
100
AcDbArc
 50
187.2629630126
 51
232.7370369754
  0
ARC
  5
373
100
AcDbEntity
  8
0
100
AcDbCircle
 62
7
  6
CONTINUOUS
 10
7.1609502581
 20
2.6426558195
 40
0.3017068535
100
AcDbArc
 50
119.8136573939
 51
60.1858004792
  0
ARC
  5
374
100
AcDbEntity
  8
0
100
AcDbCircle
 62
7
  6
CONTINUOUS
 10
7.1609506606
 20
2.6426586659
 40
0.2661817893
100
AcDbArc
 50
124.300998623
 51
250.6507137165
  0
ARC
  5
375
100
AcDbEntity
  8
0
100
AcDbCircle
 62
7
  6
CONTINUOUS
 10
7.1609506606
 20
2.6426586659
 40
0.2661817893
100
AcDbArc
 50
289.3492862827
 51
55.6985670272
  0
ARC
  5
376
100
AcDbEntity
  8
0
100
AcDbCircle
 62
7
  6
CONTINUOUS
 10
7.1609507241
 20
2.6426591142
 40
0.2510823948
100
AcDbArc
 50
296.6370480951
 51
53.314709002
  0
ARC
  5
377
100
AcDbEntity
  8
0
100
AcDbCircle
 62
7
  6
CONTINUOUS
 10
7.1609507241
 20
2.6426591142
 40
0.2510823948
100
AcDbArc
 50
126.6848500907
 51
243.3629519035
  0
CIRCLE
  5
378
100
AcDbEntity
  8
0
100
AcDbCircle
 62
7
  6
CONTINUOUS
 10
7.1609514942
 20
2.6426620506
 40
0.105
  0
CIRCLE
  5
379
100
AcDbEntity
  8
0
100
AcDbCircle
 62
7
  6
CONTINUOUS
 10
7.1609514942
 20
2.6426620506
 40
0.097
  0
CIRCLE
  5
37A
100
AcDbEntity
  8
0
100
AcDbCircle
 62
7
  6
CONTINUOUS
 10
7.1609514942
 20
2.6426620506
 40
0.0711473472
  0
CIRCLE
  5
37B
100
AcDbEntity
  8
0
100
AcDbCircle
 62
7
  6
CONTINUOUS
 10
7.1609514942
 20
2.6426620506
 40
0.0631473472
  0
CIRCLE
  5
37C
100
AcDbEntity
  8
0
100
AcDbCircle
 62
7
  6
CONTINUOUS
 10
7.1609514942
 20
2.6426620506
 40
0.060175706
  0
ARC
  5
37D
100
AcDbEntity
  8
0
100
AcDbCircle
 62
7
  6
CONTINUOUS
 10
-9.8220033027
 20
2.65615851
 40
16.6403137115
100
AcDbArc
 50
359.5627553461
 51
359.8031029535
  0
ARC
  5
37E
100
AcDbEntity
  8
0
100
AcDbCircle
 62
7
  6
CONTINUOUS
 10
3.4606432361
 20
3.0758289865
 40
1.9263986872
100
AcDbArc
 50
81.2764242313
 51
83.4991597904
  0
ARC
  5
37F
100
AcDbEntity
  8
0
100
AcDbCircle
 62
7
  6
CONTINUOUS
 10
3.4622142514
 20
3.075612883
 40
1.9263746751
100
AcDbArc
 50
79.1008216267
 51
81.3235848964
  0
ARC
  5
380
100
AcDbEntity
  8
0
100
AcDbCircle
 62
7
  6
CONTINUOUS
 10
4.0446130273
 20
5.5577090184
 40
0.63
100
AcDbArc
 50
261.3
 51
268.2640396749
  0
ARC
  5
381
100
AcDbEntity
  8
0
100
AcDbCircle
 62
7
  6
CONTINUOUS
 10
3.6471461707
 20
5.6185299942
 40
0.63
100
AcDbArc
 50
254.3359603251
 51
261.3
  0
ARC
  5
382
100
AcDbEntity
  8
0
100
AcDbCircle
 62
7
  6
CONTINUOUS
 10
3.7972027669
 20
5.4895450587
 40
0.3352
100
AcDbArc
 50
340.0267252325
 51
2.5732747675
  0
ARC
  5
383
100
AcDbEntity
  8
0
100
AcDbCircle
 62
7
  6
CONTINUOUS
 10
3.5289279688
 20
5.3919713249
 40
0.2766279939
100
AcDbArc
 50
274.604051021
 51
274.7904321007
  0
ARC
  5
384
100
AcDbEntity
  8
0
100
AcDbCircle
 62
7
  6
CONTINUOUS
 10
4.0895777776
 20
5.3059351374
 40
0.276379332
100
AcDbArc
 50
247.8094840546
 51
247.9960328238
  0
ARC
  5
385
100
AcDbEntity
  8
0
100
AcDbCircle
 62
7
  6
CONTINUOUS
 10
3.5328489403
 20
5.3864847445
 40
0.2642154487
100
AcDbArc
 50
274.2751747043
 51
274.4591886164
  0
ARC
  5
386
100
AcDbEntity
  8
0
100
AcDbCircle
 62
7
  6
CONTINUOUS
 10
4.0841973633
 20
5.3018729122
 40
0.2639681819
100
AcDbArc
 50
248.1407251979
 51
248.3249114814
  0
ARC
  5
387
100
AcDbEntity
  8
0
100
AcDbCircle
 62
7
  6
CONTINUOUS
 10
3.827693647
 20
5.2714840321
 40
0.1928314711
100
AcDbArc
 50
273.6206705939
 51
273.8850316366
  0
ARC
  5
388
100
AcDbEntity
  8
0
100
AcDbCircle
 62
7
  6
CONTINUOUS
 10
3.768312134
 20
5.2799292588
 40
0.1921821555
100
AcDbArc
 50
248.7145217713
 51
248.9797759982
  0
ARC
  5
389
100
AcDbEntity
  8
0
100
AcDbCircle
 62
7
  6
CONTINUOUS
 10
3.8275453135
 20
5.2605122274
 40
0.1892347708
100
AcDbArc
 50
274.2434649926
 51
274.5223493744
  0
ARC
  5
38A
100
AcDbEntity
  8
0
100
AcDbCircle
 62
7
  6
CONTINUOUS
 10
3.7651673609
 20
5.2694211366
 40
0.1885890747
100
AcDbArc
 50
248.0771731989
 51
248.357012434
  0
ARC
  5
38B
100
AcDbEntity
  8
0
100
AcDbCircle
 62
7
  6
CONTINUOUS
 10
4.1510389848
 20
5.1180382796
 40
0.1104
100
AcDbArc
 50
172.9708731346
 51
214.7124565985
  0
ARC
  5
38C
100
AcDbEntity
  8
0
100
AcDbCircle
 62
7
  6
CONTINUOUS
 10
3.4141107441
 20
5.2308041466
 40
0.1104
100
AcDbArc
 50
307.8875434015
 51
349.6291268654
  0
ARC
  5
38D
100
AcDbEntity
  8
0
100
AcDbCircle
 62
7
  6
CONTINUOUS
 10
4.1759150631
 20
5.5780147315
 40
0.0788
100
AcDbArc
 50
135.5592872234
 51
172.9708731346
  0
ARC
  5
38E
100
AcDbEntity
  8
0
100
AcDbCircle
 62
7
  6
CONTINUOUS
 10
3.5279247095
 20
5.6771711893
 40
0.0788
100
AcDbArc
 50
349.6291268654
 51
27.0407127766
  0
ARC
  5
38F
100
AcDbEntity
  8
0
100
AcDbCircle
 62
7
  6
CONTINUOUS
 10
4.1745073534
 20
5.8132044036
 40
0.0628
100
AcDbArc
 50
171.3
 51
222.295573127
  0
ARC
  5
390
100
AcDbEntity
  8
0
100
AcDbCircle
 62
7
  6
CONTINUOUS
 10
3.5995993088
 20
5.9011776966
 40
0.0628
100
AcDbArc
 50
300.304426873
 51
351.3
  0
ARC
  5
391
100
AcDbEntity
  8
0
100
AcDbCircle
 62
7
  6
CONTINUOUS
 10
4.0972035417
 20
5.3805121505
 40
0.016
100
AcDbArc
 50
261.3
 51
340.0267252326
  0
ARC
  5
392
100
AcDbEntity
  8
0
100
AcDbCircle
 62
7
  6
CONTINUOUS
 10
4.1160808921
 20
5.5038761875
 40
0.016
100
AcDbArc
 50
2.5732747675
 51
81.3
  0
ARC
  5
393
100
AcDbEntity
  8
0
100
AcDbCircle
 62
7
  6
CONTINUOUS
 10
4.0999109842
 20
5.8466694151
 40
0.016
100
AcDbArc
 50
351.3
 51
81.3
  0
ARC
  5
394
100
AcDbEntity
  8
0
100
AcDbCircle
 62
7
  6
CONTINUOUS
 10
3.6807895762
 20
5.9108040029
 40
0.016
100
AcDbArc
 50
81.3
 51
171.3
  0
ARC
  5
395
100
AcDbEntity
  8
0
100
AcDbCircle
 62
7
  6
CONTINUOUS
 10
3.4792085452
 20
5.0196302075
 40
0.008
100
AcDbArc
 50
176.3000000001
 51
254.3359603417
  0
ARC
  5
396
100
AcDbEntity
  8
0
100
AcDbCircle
 62
7
  6
CONTINUOUS
 10
4.0257704156
 20
4.9359944887
 40
0.008
100
AcDbArc
 50
268.2640396583
 51
346.3
  0
ARC
  5
397
100
AcDbEntity
  8
0
100
AcDbCircle
 62
7
  6
CONTINUOUS
 10
3.4792965852
 20
5.0210670995
 40
0.0079953406
100
AcDbArc
 50
176.3170021312
 51
253.6554111922
  0
ARC
  5
398
100
AcDbEntity
  8
0
100
AcDbCircle
 62
7
  6
CONTINUOUS
 10
4.0261160936
 20
4.9373919565
 40
0.0079953406
100
AcDbArc
 50
268.9445887789
 51
346.2829979139
  0
ARC
  5
399
100
AcDbEntity
  8
0
100
AcDbCircle
 62
7
  6
CONTINUOUS
 10
3.4843209991
 20
5.1272131796
 40
0.0061592201
100
AcDbArc
 50
176.2963979346
 51
178.2466199263
  0
ARC
  5
39A
100
AcDbEntity
  8
0
100
AcDbCircle
 62
7
  6
CONTINUOUS
 10
4.0531068574
 20
5.040172007
 40
0.0061145144
100
AcDbArc
 50
344.346249956
 51
346.3107321827
  0
ARC
  5
39B
100
AcDbEntity
  8
0
100
AcDbCircle
 62
7
  6
CONTINUOUS
 10
3.4879307051
 20
5.1342167376
 40
0.0056514714
100
AcDbArc
 50
182.707138799
 51
184.698788493
  0
ARC
  5
39C
100
AcDbEntity
  8
0
100
AcDbCircle
 62
7
  6
CONTINUOUS
 10
4.0517405684
 20
5.0479353832
 40
0.0056223818
100
AcDbArc
 50
337.8960586973
 51
339.8980140114
  0
ARC
  5
39D
100
AcDbEntity
  8
0
100
AcDbCircle
 62
7
  6
CONTINUOUS
 10
7.1609515983
 20
3.6113542415
 40
1.0131726501
100
AcDbArc
 50
269.9999941128
 51
270.1563214079
  0
ARC
  5
39E
100
AcDbEntity
  8
0
100
AcDbCircle
 62
7
  6
CONTINUOUS
 10
7.1609510542
 20
3.6111079633
 40
1.012926372
100
AcDbArc
 50
269.8436595878
 51
270.0000248915
  0
ARC
  5
39F
100
AcDbEntity
  8
0
100
AcDbCircle
 62
7
  6
CONTINUOUS
 10
7.1594857883
 20
3.6192881388
 40
0.9885946638
100
AcDbArc
 50
267.9732537103
 51
269.3944757268
  0
ARC
  5
3A0
100
AcDbEntity
  8
0
100
AcDbCircle
 62
7
  6
CONTINUOUS
 10
7.1624172003
 20
3.6192881296
 40
0.9885946546
100
AcDbArc
 50
270.6055242666
 51
272.0267462963
  0
ARC
  5
3A1
100
AcDbEntity
  8
0
100
AcDbCircle
 62
7
  6
CONTINUOUS
 10
7.1609514942
 20
3.5748830518
 40
0.9708582599
100
AcDbArc
 50
269.8436753794
 51
270.1563246206
  0
ARC
  5
3A2
100
AcDbEntity
  8
0
100
AcDbCircle
 62
7
  6
CONTINUOUS
 10
7.1623558807
 20
3.5824723951
 40
0.9472940873
100
AcDbArc
 50
270.6055269283
 51
272.0267436345
  0
ARC
  5
3A3
100
AcDbEntity
  8
0
100
AcDbCircle
 62
7
  6
CONTINUOUS
 10
7.1595471077
 20
3.5824723951
 40
0.9472940873
100
AcDbArc
 50
267.9732563655
 51
269.3944730717
  0
ARC
  5
3A4
100
AcDbEntity
  8
0
100
AcDbCircle
 62
7
  6
CONTINUOUS
 10
6.9277721846
 20
3.611958972
 40
0.26
100
AcDbArc
 50
244.4215861991
 51
248.8263108915
  0
ARC
  5
3A5
100
AcDbEntity
  8
0
100
AcDbCircle
 62
7
  6
CONTINUOUS
 10
6.9277721846
 20
3.2750642942
 40
0.26
100
AcDbArc
 50
111.1736891085
 51
115.5784090337
  0
ARC
  5
3A6
100
AcDbEntity
  8
0
100
AcDbCircle
 62
7
  6
CONTINUOUS
 10
7.0857514942
 20
3.8182620506
 40
0.0748
100
AcDbArc
 50
90.0
 51
180.0
  0
ARC
  5
3A7
100
AcDbEntity
  8
0
100
AcDbCircle
 62
7
  6
CONTINUOUS
 10
7.0857514942
 20
3.8182620506
 40
0.0668
100
AcDbArc
 50
90.0
 51
180.0
  0
ARC
  5
3A8
100
AcDbEntity
  8
0
100
AcDbCircle
 62
7
  6
CONTINUOUS
 10
6.837550059
 20
2.7549057098
 40
0.024
100
AcDbArc
 50
160.8582305954
 51
179.9999852203
  0
ARC
  5
3A9
100
AcDbEntity
  8
0
100
AcDbCircle
 62
7
  6
CONTINUOUS
 10
6.902037583
 20
2.8666013779
 40
0.024
100
AcDbArc
 50
120.000005538
 51
139.1417623107
  0
ARC
  5
3AA
100
AcDbEntity
  8
0
100
AcDbCircle
 62
7
  6
CONTINUOUS
 10
6.8989185857
 20
2.8692960942
 40
0.0158316149
100
AcDbArc
 50
119.5579623004
 51
139.1329260905
  0
ARC
  5
3AB
100
AcDbEntity
  8
0
100
AcDbCircle
 62
7
  6
CONTINUOUS
 10
6.8336569033
 20
2.7562597551
 40
0.0158315098
100
AcDbArc
 50
160.8671135982
 51
180.4421425263
  0
ARC
  5
3AC
100
AcDbEntity
  8
0
100
AcDbCircle
 62
7
  6
CONTINUOUS
 10
6.9169721846
 20
3.6447116331
 40
0.012
100
AcDbArc
 50
90.0
 51
100.4427585488
  0
ARC
  5
3AD
100
AcDbEntity
  8
0
100
AcDbCircle
 62
7
  6
CONTINUOUS
 10
6.8189721846
 20
3.384656131
 40
0.008
100
AcDbArc
 50
180.0
 51
244.4215982222
  0
ARC
  5
3AE
100
AcDbEntity
  8
0
100
AcDbCircle
 62
7
  6
CONTINUOUS
 10
5.607558506
 20
5.3332079038
 40
3.4497974779
100
AcDbArc
 50
299.2745141184
 51
300.725485866
  0
ARC
  5
3AF
100
AcDbEntity
  8
0
100
AcDbCircle
 62
7
  6
CONTINUOUS
 10
5.5295867314
 20
5.8059469266
 40
1.8593854532
100
AcDbArc
 50
0.0000001453
 51
171.2999998547
  0
ARC
  5
3B0
100
AcDbEntity
  8
0
100
AcDbCircle
 62
7
  6
CONTINUOUS
 10
5.5295867313
 20
5.8059469265
 40
1.4033854533
100
AcDbArc
 50
0.0000002
 51
169.5850168611
  0
ARC
  5
3B1
100
AcDbEntity
  8
0
100
AcDbCircle
 62
7
  6
CONTINUOUS
 10
-1.3223221537
 20
17.3631230303
 40
16.6472958991
100
AcDbArc
 50
299.5629352123
 51
299.8031817912
  0
ARC
  5
3B2
100
AcDbEntity
  8
0
100
AcDbCircle
 62
7
  6
CONTINUOUS
 10
24.1464155159
 20
2.6291478081
 40
16.6428257125
100
AcDbArc
 50
179.562811682
 51
179.8031218504
  0
ARC
  5
3B3
100
AcDbEntity
  8
0
100
AcDbCircle
 62
7
  6
CONTINUOUS
 10
15.6621973346
 20
-12.0549197471
 40
16.6364568319
100
AcDbArc
 50
120.1969600768
 51
120.4373631876
  0
ARC
  5
3B4
100
AcDbEntity
  8
0
100
AcDbCircle
 62
7
  6
CONTINUOUS
 10
15.6363387798
 20
-12.0641124922
 40
16.6314886415
100
AcDbArc
 50
119.5626002976
 51
119.8030744991
  0
ARC
  5
3B5
100
AcDbEntity
  8
0
100
AcDbCircle
 62
7
  6
CONTINUOUS
 10
10.2671672199
 20
2.6426540466
 40
3.4492314652
100
AcDbArc
 50
179.2743836989
 51
180.7255935707
  0
ARC
  5
3B6
100
AcDbEntity
  8
0
100
AcDbCircle
 62
7
  6
CONTINUOUS
 10
8.7121525958
 20
-0.0441919192
 40
3.4454930074
100
AcDbArc
 50
119.587149271
 51
120.7256845138
  0
ARC
  5
3B7
100
AcDbEntity
  8
0
100
AcDbCircle
 62
7
  6
CONTINUOUS
 10
8.1296609938
 20
2.6426620506
 40
1.013189959
100
AcDbArc
 50
179.8436753756
 51
180.1563246244
  0
ARC
  5
3B8
100
AcDbEntity
  8
0
100
AcDbCircle
 62
7
  6
CONTINUOUS
 10
8.1375775824
 20
2.6441277565
 40
0.9885946638
100
AcDbArc
 50
177.9732537103
 51
179.3944757268
  0
ARC
  5
3B9
100
AcDbEntity
  8
0
100
AcDbCircle
 62
7
  6
CONTINUOUS
 10
8.1375775732
 20
2.6411963445
 40
0.9885946547
100
AcDbArc
 50
180.6055242666
 51
182.0267462963
  0
ARC
  5
3BA
100
AcDbEntity
  8
0
100
AcDbCircle
 62
7
  6
CONTINUOUS
 10
8.0931724956
 20
2.6426620506
 40
0.9708582601
100
AcDbArc
 50
179.8436753794
 51
180.1563246206
  0
ARC
  5
3BB
100
AcDbEntity
  8
0
100
AcDbCircle
 62
7
  6
CONTINUOUS
 10
8.1007618387
 20
2.6412576641
 40
0.9472940873
100
AcDbArc
 50
180.6055269284
 51
182.0267436345
  0
ARC
  5
3BC
100
AcDbEntity
  8
0
100
AcDbCircle
 62
7
  6
CONTINUOUS
 10
8.1007618387
 20
2.6440664371
 40
0.9472940873
100
AcDbArc
 50
177.9732563655
 51
179.3944730717
  0
ARC
  5
3BD
100
AcDbEntity
  8
0
100
AcDbCircle
 62
7
  6
CONTINUOUS
 10
7.4631972801
 20
0.9699113191
 40
0.26
100
AcDbArc
 50
288.0534137561
 51
295.3706176093
  0
ARC
  5
3BE
100
AcDbEntity
  8
0
100
AcDbCircle
 62
7
  6
CONTINUOUS
 10
7.4631972801
 20
0.6335119471
 40
0.26
100
AcDbArc
 50
64.6293869621
 51
71.9465862439
  0
ARC
  5
3BF
100
AcDbEntity
  8
0
100
AcDbCircle
 62
7
  6
CONTINUOUS
 10
7.1625233738
 20
2.4979004424
 40
0.1391991576
100
AcDbArc
 50
214.9162912706
 51
229.8439093958
  0
ARC
  5
3C0
100
AcDbEntity
  8
0
100
AcDbCircle
 62
7
  6
CONTINUOUS
 10
7.2361514942
 20
2.5424620506
 40
0.0748
100
AcDbArc
 50
270.0
 51
360.0
  0
ARC
  5
3C1
100
AcDbEntity
  8
0
100
AcDbCircle
 62
7
  6
CONTINUOUS
 10
7.2361514942
 20
2.5424620506
 40
0.0668
100
AcDbArc
 50
270.0
 51
360.0
  0
ARC
  5
3C2
100
AcDbEntity
  8
0
100
AcDbCircle
 62
7
  6
CONTINUOUS
 10
7.225437583
 20
2.3064561469
 40
0.024
100
AcDbArc
 50
280.8582500773
 51
300.0000092022
  0
ARC
  5
3C3
100
AcDbEntity
  8
0
100
AcDbCircle
 62
7
  6
CONTINUOUS
 10
7.4198625349
 20
2.4187074451
 40
0.024
100
AcDbArc
 50
299.9999944707
 51
319.1417472186
  0
ARC
  5
3C4
100
AcDbEntity
  8
0
100
AcDbCircle
 62
7
  6
CONTINUOUS
 10
7.484350059
 20
2.5304031132
 40
0.024
100
AcDbArc
 50
340.8582598844
 51
0.0000147727
  0
ARC
  5
3C5
100
AcDbEntity
  8
0
100
AcDbCircle
 62
7
  6
CONTINUOUS
 10
7.4882431437
 20
2.529049376
 40
0.0158316233
100
AcDbArc
 50
340.8671513835
 51
0.4421147301
  0
ARC
  5
3C6
100
AcDbEntity
  8
0
100
AcDbCircle
 62
7
  6
CONTINUOUS
 10
7.226211679
 20
2.3024076791
 40
0.0158314434
100
AcDbArc
 50
280.8671433448
 51
300.4423115102
  0
ARC
  5
3C7
100
AcDbEntity
  8
0
100
AcDbCircle
 62
7
  6
CONTINUOUS
 10
7.4229818127
 20
2.4160127921
 40
0.0158312905
100
AcDbArc
 50
299.5576382694
 51
319.1329510612
  0
ARC
  5
3C8
100
AcDbEntity
  8
0
100
AcDbCircle
 62
7
  6
CONTINUOUS
 10
15.6472095243
 20
17.3683523433
 40
16.6533182579
100
AcDbArc
 50
240.1968423287
 51
240.4370018843
  0
ARC
  5
3C9
100
AcDbEntity
  8
0
100
AcDbCircle
 62
7
  6
CONTINUOUS
 10
24.1493058522
 20
2.656177033
 40
16.6457160845
100
AcDbArc
 50
180.1968969014
 51
180.4371665029
  0
ARC
  5
3CA
100
AcDbEntity
  8
0
100
AcDbCircle
 62
7
  6
CONTINUOUS
 10
8.7143378713
 20
5.3332012678
 40
3.4497898155
100
AcDbArc
 50
239.2745125174
 51
240.7254874878
  0
ARC
  5
3CB
100
AcDbEntity
  8
0
100
AcDbCircle
 62
7
  6
CONTINUOUS
 10
7.3941721846
 20
3.611958972
 40
0.26
100
AcDbArc
 50
291.1736891085
 51
295.5784138009
  0
ARC
  5
3CC
100
AcDbEntity
  8
0
100
AcDbCircle
 62
7
  6
CONTINUOUS
 10
7.3941721846
 20
3.2750642942
 40
0.26
100
AcDbArc
 50
64.4215909663
 51
68.8263108915
  0
ARC
  5
3CD
100
AcDbEntity
  8
0
100
AcDbCircle
 62
7
  6
CONTINUOUS
 10
7.2361514942
 20
3.8182620506
 40
0.0748
100
AcDbArc
 50
0.0
 51
90.0
  0
ARC
  5
3CE
100
AcDbEntity
  8
0
100
AcDbCircle
 62
7
  6
CONTINUOUS
 10
7.2361514942
 20
3.8182620506
 40
0.0668
100
AcDbArc
 50
0.0
 51
90.0
  0
ARC
  5
3CF
100
AcDbEntity
  8
0
100
AcDbCircle
 62
7
  6
CONTINUOUS
 10
7.4198625349
 20
2.8666013779
 40
0.024
100
AcDbArc
 50
40.8582550408
 51
60.0000055727
  0
ARC
  5
3D0
100
AcDbEntity
  8
0
100
AcDbCircle
 62
7
  6
CONTINUOUS
 10
7.484350059
 20
2.7549057098
 40
0.024
100
AcDbArc
 50
359.9999911081
 51
19.1417467691
  0
ARC
  5
3D1
100
AcDbEntity
  8
0
100
AcDbCircle
 62
7
  6
CONTINUOUS
 10
7.422981536
 20
2.8692960571
 40
0.0158316663
100
AcDbArc
 50
40.8670905227
 51
60.4419818566
  0
ARC
  5
3D2
100
AcDbEntity
  8
0
100
AcDbCircle
 62
7
  6
CONTINUOUS
 10
7.4882432089
 20
2.756259739
 40
0.015831558
100
AcDbArc
 50
359.5579172189
 51
19.1328876995
  0
ARC
  5
3D3
100
AcDbEntity
  8
0
100
AcDbCircle
 62
7
  6
CONTINUOUS
 10
7.4049721846
 20
3.6447116331
 40
0.012
100
AcDbArc
 50
79.5572414512
 51
90.0
  0
ARC
  5
3D4
100
AcDbEntity
  8
0
100
AcDbCircle
 62
7
  6
CONTINUOUS
 10
7.5029721846
 20
3.384656131
 40
0.008
100
AcDbArc
 50
295.5784017778
 51
360.0
  0
SPLINE
  5
3D5
100
AcDbEntity
  8
0
100
AcDbSpline
 62
7
  6
CONTINUOUS
 70
0
 71
3
 72
15
 73
11
 74
0
 42
0.0000001
 43
0.0000001
 44
0.0000000001
 40
0.0
 40
0.0
 40
0.0
 40
0.0
 40
0.1941207731
 40
0.3807877447
 40
0.5529745278
 40
0.7043171345
 40
0.8291489112
 40
0.9225196816
 40
0.9803833162
 40
1.0
 40
1.0
 40
1.0
 40
1.0
 10
4.1384212526
 20
6.0188251639
 30
0.0
 10
4.1388355793
 20
6.0215328007
 30
0.0
 10
4.1397625131
 20
6.0268273652
 30
0.0
 10
4.1414298643
 20
6.0344520444
 30
0.0
 10
4.1432425344
 20
6.0414210263
 30
0.0
 10
4.1450478819
 20
6.0474857521
 30
0.0
 10
4.1466819077
 20
6.0524382514
 30
0.0
 10
4.1479874951
 20
6.0561086634
 30
0.0
 10
4.1488316448
 20
6.0583669166
 30
0.0
 10
4.1492233724
 20
6.0593876232
 30
0.0
 10
4.1493231332
 20
6.0596458236
 30
0.0
  0
SPLINE
  5
3D6
100
AcDbEntity
  8
0
100
AcDbSpline
 62
7
  6
CONTINUOUS
 70
0
 71
3
 72
15
 73
11
 74
0
 42
0.0000001
 43
0.0000001
 44
0.0000000001
 40
0.0
 40
0.0
 40
0.0
 40
0.0
 40
0.019515512
 40
0.0771379627
 40
0.1702674093
 40
0.2949817177
 40
0.4463731576
 40
0.6187357703
 40
0.8056355519
 40
1.0
 40
1.0
 40
1.0
 40
1.0
 10
4.1359958363
 20
5.9767074228
 30
0.0
 10
4.1359858888
 20
5.9769820711
 30
0.0
 10
4.1359487358
 20
5.9780677377
 30
0.0
 10
4.1358851711
 20
5.9804647451
 30
0.0
 10
4.1358363912
 20
5.9843438958
 30
0.0
 10
4.1358753361
 20
5.9895439854
 30
0.0
 10
4.136083607
 20
5.9958569582
 30
0.0
 10
4.1365377234
 20
6.003035197
 30
0.0
 10
4.1372934007
 20
6.0107965238
 30
0.0
 10
4.1380072294
 20
6.0161195097
 30
0.0
 10
4.1384212526
 20
6.0188251639
 30
0.0
  0
SPLINE
  5
3D7
100
AcDbEntity
  8
0
100
AcDbSpline
 62
7
  6
CONTINUOUS
 70
0
 71
3
 72
33
 73
29
 74
0
 42
0.0000001
 43
0.0000001
 44
0.0000000001
 40
0.0
 40
0.0
 40
0.0
 40
0.0
 40
0.0122309462
 40
0.0242943609
 40
0.036535105
 40
0.0492853305
 40
0.0628383388
 40
0.0774370015
 40
0.0932734568
 40
0.1104944963
 40
0.1292088995
 40
0.1494956988
 40
0.1714108269
 40
0.1949917577
 40
0.2202618092
 40
0.2472323559
 40
0.2759054925
 40
0.3062756466
 40
0.3383304015
 40
0.3720519459
 40
0.4074172194
 40
0.4443989494
 40
0.5230812109
 40
0.6078126169
 40
0.6982579746
 40
0.7940446679
 40
0.894767816
 40
1.0
 40
1.0
 40
1.0
 40
1.0
 10
3.4781646629
 20
5.1274016362
 30
0.0
 10
3.4781550657
 20
5.1270855895
 30
0.0
 10
3.4781857622
 20
5.1264548759
 30
0.0
 10
3.4783929541
 20
5.1255287486
 30
0.0
 10
3.4787605456
 20
5.1246392311
 30
0.0
 10
3.4792868087
 20
5.1237884766
 30
0.0
 10
3.4799697163
 20
5.1229769323
 30
0.0
 10
3.4808077149
 20
5.1222044144
 30
0.0
 10
3.4817996402
 20
5.1214703614
 30
0.0
 10
3.482944662
 20
5.1207743912
 30
0.0
 10
3.4842419727
 20
5.1201163768
 30
0.0
 10
3.4856906214
 20
5.1194964043
 30
0.0
 10
3.4872894433
 20
5.1189147166
 30
0.0
 10
3.4890370151
 20
5.1183715826
 30
0.0
 10
3.4909316771
 20
5.1178673614
 30
0.0
 10
3.4929715464
 20
5.1174025082
 30
0.0
 10
3.4951544976
 20
5.1169774692
 30
0.0
 10
3.4974781844
 20
5.1165926884
 30
0.0
 10
3.4999400458
 20
5.1162485478
 30
0.0
 10
3.5025373175
 20
5.1159454478
 30
0.0
 10
3.5052670579
 20
5.1156838387
 30
0.0
 10
3.5091601636
 20
5.1153847693
 30
0.0
 10
3.5143352103
 20
5.1151244765
 30
0.0
 10
3.5208973342
 20
5.1149892426
 30
0.0
 10
3.5279028547
 20
5.1150282638
 30
0.0
 10
3.5353186542
 20
5.1152443215
 30
0.0
 10
3.5431097347
 20
5.1156401194
 30
0.0
 10
3.5484210648
 20
5.1160175875
 30
0.0
 10
3.5511327319
 20
5.1162359526
 30
0.0
  0
SPLINE
  5
3D8
100
AcDbEntity
  8
0
100
AcDbSpline
 62
7
  6
CONTINUOUS
 70
0
 71
3
 72
38
 73
34
 74
0
 42
0.0000001
 43
0.0000001
 44
0.0000000001
 40
0.0
 40
0.0
 40
0.0
 40
0.0
 40
0.1110736307
 40
0.2174190285
 40
0.3185687436
 40
0.4140730311
 40
0.5035079345
 40
0.5864754933
 40
0.6626084066
 40
0.7315722769
 40
0.7930676965
 40
0.8209319734
 40
0.8468347312
 40
0.8707496984
 40
0.8926536677
 40
0.9125261147
 40
0.9303500831
 40
0.9461119963
 40
0.9598025045
 40
0.965869809
 40
0.9714185018
 40
0.9764493765
 40
0.9809642502
 40
0.9849660351
 40
0.988459326
 40
0.9914517534
 40
0.9939560042
 40
0.9959942279
 40
0.9976085196
 40
0.998282757
 40
0.9988891962
 40
0.9994517327
 40
1.0
 40
1.0
 40
1.0
 40
1.0
 10
3.5451728942
 20
5.0102792842
 30
0.0
 10
3.542447204
 20
5.0108056849
 30
0.0
 10
3.5371108126
 20
5.0118307079
 30
0.0
 10
3.5292881507
 20
5.0133136171
 30
0.0
 10
3.5218435671
 20
5.014701546
 30
0.0
 10
3.5148096371
 20
5.01598586
 30
0.0
 10
3.5082175766
 20
5.0171599482
 30
0.0
 10
3.5020964511
 20
5.0182166255
 30
0.0
 10
3.4964734501
 20
5.0191506223
 30
0.0
 10
3.4913735133
 20
5.0199576924
 30
0.0
 10
3.4874593188
 20
5.0205385618
 30
0.0
 10
3.4846058896
 20
5.0209344824
 30
0.0
 10
3.4826809681
 20
5.0211878111
 30
0.0
 10
3.480901887
 20
5.0214072096
 30
0.0
 10
3.4792705302
 20
5.0215925395
 30
0.0
 10
3.4777885966
 20
5.0217437301
 30
0.0
 10
3.4764576166
 20
5.0218609842
 30
0.0
 10
3.4752789297
 20
5.0219444611
 30
0.0
 10
3.4743921285
 20
5.0219877392
 30
0.0
 10
3.473759825
 20
5.0220039227
 30
0.0
 10
3.4733437572
 20
5.0220071558
 30
0.0
 10
3.4729665034
 20
5.022002052
 30
0.0
 10
3.4726281276
 20
5.0219886877
 30
0.0
 10
3.4723286734
 20
5.0219671564
 30
0.0
 10
3.4720681346
 20
5.021937558
 30
0.0
 10
3.471846474
 20
5.0219000129
 30
0.0
 10
3.4716634119
 20
5.0218545954
 30
0.0
 10
3.471518697
 20
5.0218013975
 30
0.0
 10
3.4714239008
 20
5.021747174
 30
0.0
 10
3.4713702332
 20
5.0216981934
 30
0.0
 10
3.4713421491
 20
5.021661286
 30
0.0
 10
3.4713240353
 20
5.0216219611
 30
0.0
 10
3.4713188576
 20
5.02159435
 30
0.0
 10
3.4713179665
 20
5.0215806762
 30
0.0
  0
SPLINE
  5
3D9
100
AcDbEntity
  8
0
100
AcDbSpline
 62
7
  6
CONTINUOUS
 70
0
 71
3
 72
23
 73
19
 74
0
 42
0.0000001
 43
0.0000001
 44
0.0000000001
 40
0.0
 40
0.0
 40
0.0
 40
0.0
 40
0.0583556635
 40
0.1183167027
 40
0.1796917001
 40
0.2422707103
 40
0.3058301717
 40
0.3701349427
 40
0.434941347
 40
0.4999999935
 40
0.5650586408
 40
0.6298650477
 40
0.6941698222
 40
0.7577292854
 40
0.820308298
 40
0.8816832974
 40
0.9416443376
 40
1.0
 40
1.0
 40
1.0
 40
1.0
 10
3.6956115543
 20
5.0941275861
 30
0.0
 10
3.6983009775
 20
5.0930603965
 30
0.0
 10
3.7037919925
 20
5.0909918089
 30
0.0
 10
3.7122272909
 20
5.0881195027
 30
0.0
 10
3.7209455141
 20
5.0854413363
 30
0.0
 10
3.7299086025
 20
5.0829660705
 30
0.0
 10
3.7390770185
 20
5.0807021255
 30
0.0
 10
3.7484098952
 20
5.0786576718
 30
0.0
 10
3.7578653323
 20
5.0768404334
 30
0.0
 10
3.7674007262
 20
5.0752577813
 30
0.0
 10
3.776973061
 20
5.0739165387
 30
0.0
 10
3.7865392488
 20
5.0728230555
 30
0.0
 10
3.7960564324
 20
5.0719830544
 30
0.0
 10
3.8054823164
 20
5.071401663
 30
0.0
 10
3.8147754628
 20
5.0710833359
 30
0.0
 10
3.8238956242
 20
5.071031846
 30
0.0
 10
3.8328038629
 20
5.0712502196
 30
0.0
 10
3.838662203
 20
5.0715821111
 30
0.0
 10
3.8415476923
 20
5.0717962189
 30
0.0
  0
SPLINE
  5
3DA
100
AcDbEntity
  8
0
100
AcDbSpline
 62
7
  6
CONTINUOUS
 70
0
 71
3
 72
33
 73
29
 74
0
 42
0.0000001
 43
0.0000001
 44
0.0000000001
 40
0.0
 40
0.0
 40
0.0
 40
0.0
 40
0.105232126
 40
0.2059552238
 40
0.3017418692
 40
0.3921871833
 40
0.47691855
 40
0.5556007759
 40
0.5925824949
 40
0.6279477524
 40
0.6616692766
 40
0.6937240295
 40
0.7240941864
 40
0.7527672858
 40
0.7797377534
 40
0.8050077378
 40
0.8285887118
 40
0.8505039789
 40
0.8707909149
 40
0.8895054178
 40
0.9067265134
 40
0.9225629609
 40
0.9371612843
 40
0.9507133736
 40
0.9634628102
 40
0.9757036646
 40
0.9877681256
 40
1.0
 40
1.0
 40
1.0
 40
1.0
 10
3.9860265147
 20
5.0496878524
 30
0.0
 10
3.9885487947
 20
5.0486685765
 30
0.0
 10
3.9935041945
 20
5.0467200592
 30
0.0
 10
4.0008204111
 20
5.0440125593
 30
0.0
 10
4.0078322466
 20
5.0415887369
 30
0.0
 10
4.0145055284
 20
5.0394565667
 30
0.0
 10
4.0208078128
 20
5.0376232738
 30
0.0
 10
4.0258238863
 20
5.036324093
 30
0.0
 10
4.029628283
 20
5.0354452977
 30
0.0
 10
4.0323113419
 20
5.034878627
 30
0.0
 10
4.034880399
 20
5.0343911475
 30
0.0
 10
4.0373325219
 20
5.0339833583
 30
0.0
 10
4.0396649449
 20
5.0336556711
 30
0.0
 10
4.0418751045
 20
5.0334084494
 30
0.0
 10
4.043960633
 20
5.0332419885
 30
0.0
 10
4.0459193757
 20
5.0331565212
 30
0.0
 10
4.047749403
 20
5.0331522274
 30
0.0
 10
4.0494490185
 20
5.0332292322
 30
0.0
 10
4.0510167814
 20
5.0333876633
 30
0.0
 10
4.0524515053
 20
5.0336276394
 30
0.0
 10
4.0537522572
 20
5.0339493619
 30
0.0
 10
4.0549182955
 20
5.0343532016
 30
0.0
 10
4.0559489425
 20
5.0348397328
 30
0.0
 10
4.0568432881
 20
5.0354098199
 30
0.0
 10
4.0575998807
 20
5.036064212
 30
0.0
 10
4.0582166449
 20
5.0368031227
 30
0.0
 10
4.0586913241
 20
5.0376249625
 30
0.0
 10
4.0589092409
 20
5.0382176864
 30
0.0
 10
4.0589945836
 20
5.0385221688
 30
0.0
  0
SPLINE
  5
3DB
100
AcDbEntity
  8
0
100
AcDbSpline
 62
7
  6
CONTINUOUS
 70
0
 71
3
 72
38
 73
34
 74
0
 42
0.0000001
 43
0.0000001
 44
0.0000000001
 40
0.0
 40
0.0
 40
0.0
 40
0.0
 40
0.000548269
 40
0.0011108111
 40
0.0017172578
 40
0.0023915032
 40
0.0040058091
 40
0.0060440437
 40
0.0085483023
 40
0.0115407342
 40
0.0150340263
 40
0.0190358098
 40
0.0235506809
 40
0.0285815524
 40
0.0341302423
 40
0.040197545
 40
0.0538880521
 40
0.0696499648
 40
0.0874739306
 40
0.1073463728
 40
0.129250338
 40
0.1531653101
 40
0.1790680852
 40
0.206932377
 40
0.2684277468
 40
0.337391564
 40
0.4135245183
 40
0.4964920821
 40
0.5859269744
 40
0.6814312684
 40
0.7825809935
 40
0.8889263836
 40
1.0
 40
1.0
 40
1.0
 40
1.0
 10
4.0338831937
 20
4.9354960996
 30
0.0
 10
4.0338864323
 20
4.9355094143
 30
0.0
 10
4.0338897483
 20
4.9355373104
 30
0.0
 10
4.0338842231
 20
4.9355802529
 30
0.0
 10
4.0338684611
 20
4.9356238704
 30
0.0
 10
4.0338318971
 20
4.9356866595
 30
0.0
 10
4.0337576545
 20
4.9357667515
 30
0.0
 10
4.0336354706
 20
4.935860793
 30
0.0
 10
4.0334743676
 20
4.9359588772
 30
0.0
 10
4.0332740779
 20
4.9360609911
 30
0.0
 10
4.0330343124
 20
4.9361671473
 30
0.0
 10
4.0327549995
 20
4.9362772415
 30
0.0
 10
4.0324361037
 20
4.9363911805
 30
0.0
 10
4.0320776384
 20
4.9365088621
 30
0.0
 10
4.0316796419
 20
4.9366301944
 30
0.0
 10
4.0310714314
 20
4.9368038303
 30
0.0
 10
4.0302122666
 20
4.9370277166
 30
0.0
 10
4.029062553
 20
4.9373005343
 30
0.0
 10
4.0277574154
 20
4.9375866669
 30
0.0
 10
4.0262980839
 20
4.9378855592
 30
0.0
 10
4.0246859571
 20
4.9381965566
 30
0.0
 10
4.0229226752
 20
4.9385192084
 30
0.0
 10
4.021010077
 20
4.93885308
 30
0.0
 10
4.018168819
 20
4.9393285398
 30
0.0
 10
4.0142600451
 20
4.9399448157
 30
0.0
 10
4.0091521422
 20
4.9406998225
 30
0.0
 10
4.0035071346
 20
4.941490001
 30
0.0
 10
3.9973501207
 20
4.9423121534
 30
0.0
 10
3.9907086118
 20
4.9431630992
 30
0.0
 10
3.983612488
 20
4.9440409761
 30
0.0
 10
3.976093516
 20
4.9449427739
 30
0.0
 10
3.968185367
 20
4.9458670242
 30
0.0
 10
3.9627866446
 20
4.946484712
 30
0.0
 10
3.960028266
 20
4.9467974917
 30
0.0
  0
SPLINE
  5
3DC
100
AcDbEntity
  8
0
100
AcDbSpline
 62
7
  6
CONTINUOUS
 70
0
 71
3
 72
37
 73
33
 74
0
 42
0.0000001
 43
0.0000001
 44
0.0000000001
 40
0.0
 40
0.0
 40
0.0
 40
0.0
 40
0.0043854895
 40
0.0085671287
 40
0.0126236292
 40
0.0166404577
 40
0.0207047587
 40
0.0248997276
 40
0.0339563553
 40
0.0389468816
 40
0.0443002759
 40
0.050048807
 40
0.0562172248
 40
0.0698837666
 40
0.0854119239
 40
0.1028629031
 40
0.1222677729
 40
0.143638437
 40
0.1669740112
 40
0.1922640057
 40
0.2194910868
 40
0.2486326508
 40
0.2796616361
 40
0.3125473603
 40
0.3472558761
 40
0.4219917236
 40
0.5035478922
 40
0.591566465
 40
0.6856572218
 40
0.7853988124
 40
0.8903392039
 40
1.0
 40
1.0
 40
1.0
 40
1.0
 10
3.6262384913
 20
5.8365576469
 30
0.0
 10
3.626211888
 20
5.8364484852
 30
0.0
 10
3.6261714499
 20
5.8362321399
 30
0.0
 10
3.6261522725
 20
5.8359083902
 30
0.0
 10
3.6261766122
 20
5.8355943205
 30
0.0
 10
3.6262446329
 20
5.8352898066
 30
0.0
 10
3.6263561648
 20
5.8349946388
 30
0.0
 10
3.6265676271
 20
5.8346033518
 30
0.0
 10
3.6268656727
 20
5.83423763
 30
0.0
 10
3.6272294307
 20
5.8338985759
 30
0.0
 10
3.627553023
 20
5.8336423361
 30
0.0
 10
3.6279182562
 20
5.8333920833
 30
0.0
 10
3.628480229
 20
5.8330541073
 30
0.0
 10
3.6292918623
 20
5.8326485152
 30
0.0
 10
3.6303981008
 20
5.8321945049
 30
0.0
 10
3.6316667544
 20
5.831754961
 30
0.0
 10
3.633096384
 20
5.8313276768
 30
0.0
 10
3.6346854815
 20
5.8309111118
 30
0.0
 10
3.6364322646
 20
5.8305044563
 30
0.0
 10
3.6383345632
 20
5.8301064646
 30
0.0
 10
3.6403900583
 20
5.8297162575
 30
0.0
 10
3.642596393
 20
5.8293339127
 30
0.0
 10
3.6449509751
 20
5.8289594233
 30
0.0
 10
3.6474510429
 20
5.8285928883
 30
0.0
 10
3.6510646412
 20
5.8281036136
 30
0.0
 10
3.6559236869
 20
5.8275216086
 30
0.0
 10
3.662151088
 20
5.8268879415
 30
0.0
 10
3.6688825778
 20
5.826319193
 30
0.0
 10
3.6760879139
 20
5.8258372898
 30
0.0
 10
3.6837341572
 20
5.8254693644
 30
0.0
 10
3.6917852494
 20
5.8252494356
 30
0.0
 10
3.6972840304
 20
5.8252290247
 30
0.0
 10
3.700093419
 20
5.8252562549
 30
0.0
  0
SPLINE
  5
3DD
100
AcDbEntity
  8
0
100
AcDbSpline
 62
7
  6
CONTINUOUS
 70
0
 71
3
 72
35
 73
31
 74
0
 42
0.0000001
 43
0.0000001
 44
0.0000000001
 40
0.0
 40
0.0
 40
0.0
 40
0.0
 40
0.1054203113
 40
0.2063041877
 40
0.2549107986
 40
0.3022226802
 40
0.3481901259
 40
0.3927652486
 40
0.4775543344
 40
0.5562503328
 40
0.5932186657
 40
0.6285539529
 40
0.6622259494
 40
0.6942083557
 40
0.7244795584
 40
0.7530227656
 40
0.7798280513
 40
0.8048935285
 40
0.8282278082
 40
0.8498529773
 40
0.8698081808
 40
0.8881572084
 40
0.9049955659
 40
0.9204617982
 40
0.9347503729
 40
0.9481234822
 40
0.9609194869
 40
0.9735409905
 40
0.986425233
 40
1.0
 40
1.0
 40
1.0
 40
1.0
 10
3.6735120133
 20
5.7162149469
 30
0.0
 10
3.6709773169
 20
5.7173330629
 30
0.0
 10
3.6659766733
 20
5.7194308836
 30
0.0
 10
3.6597137001
 20
5.7218111227
 30
0.0
 10
3.6548372471
 20
5.723534316
 30
0.0
 10
3.6513035126
 20
5.7247244924
 30
0.0
 10
3.6478535122
 20
5.7258301209
 30
0.0
 10
3.6434454636
 20
5.7271717664
 30
0.0
 10
3.6381811259
 20
5.7286518202
 30
0.0
 10
3.6330692657
 20
5.7299276474
 30
0.0
 10
3.6291962369
 20
5.730792012
 30
0.0
 10
3.6264679709
 20
5.7313517761
 30
0.0
 10
3.6238586034
 20
5.7318369403
 30
0.0
 10
3.6213711654
 20
5.7322471517
 30
0.0
 10
3.6190085083
 20
5.7325821484
 30
0.0
 10
3.6167732272
 20
5.7328415593
 30
0.0
 10
3.6146676288
 20
5.7330246539
 30
0.0
 10
3.6126937156
 20
5.7331304234
 30
0.0
 10
3.6108531771
 20
5.7331574607
 30
0.0
 10
3.6091474005
 20
5.7331041939
 30
0.0
 10
3.6075773878
 20
5.7329688753
 30
0.0
 10
3.6061437674
 20
5.7327490861
 30
0.0
 10
3.6048467686
 20
5.7324419735
 30
0.0
 10
3.6036863404
 20
5.7320439743
 30
0.0
 10
3.6026624458
 20
5.7315507082
 30
0.0
 10
3.6017755207
 20
5.7309570642
 30
0.0
 10
3.6010271037
 20
5.7302578074
 30
0.0
 10
3.6004191868
 20
5.7294489715
 30
0.0
 10
3.5999525759
 20
5.7285287129
 30
0.0
 10
3.5997415758
 20
5.7278629223
 30
0.0
 10
3.5996570857
 20
5.7275163389
 30
0.0
  0
SPLINE
  5
3DE
100
AcDbEntity
  8
0
100
AcDbSpline
 62
7
  6
CONTINUOUS
 70
0
 71
3
 72
41
 73
37
 74
0
 42
0.0000001
 43
0.0000001
 44
0.0000000001
 40
0.0
 40
0.0
 40
0.0
 40
0.0
 40
0.1096606641
 40
0.2146002368
 40
0.2651504352
 40
0.314342961
 40
0.4084330098
 40
0.4964512525
 40
0.578007015
 40
0.6162487218
 40
0.6527434569
 40
0.7203362869
 40
0.7513651473
 40
0.7805066503
 40
0.8077336607
 40
0.8330235143
 40
0.856358996
 40
0.8777295937
 40
0.8876777866
 40
0.8971353115
 40
0.9061042564
 40
0.9145877643
 40
0.9301161603
 40
0.9371782594
 40
0.9437857436
 40
0.949953662
 40
0.9557016748
 40
0.9610549155
 40
0.9660459004
 40
0.9751043469
 40
0.9792998847
 40
0.9833641538
 40
0.9873801139
 40
0.9914349394
 40
0.995614957
 40
1.0
 40
1.0
 40
1.0
 40
1.0
 10
4.0559082126
 20
5.7708089404
 30
0.0
 10
4.0585809227
 20
5.7699428736
 30
0.0
 10
4.0638339907
 20
5.7683174019
 30
0.0
 10
4.0703700777
 20
5.766464095
 30
0.0
 10
4.0754371121
 20
5.7651129818
 30
0.0
 10
4.0802477996
 20
5.7638803165
 30
0.0
 10
4.0860087385
 20
5.7624899949
 30
0.0
 10
4.0926022013
 20
5.7610195725
 30
0.0
 10
4.0978182096
 20
5.7599498029
 30
0.0
 10
4.101751531
 20
5.7591992321
 30
0.0
 10
4.1053396771
 20
5.7585492901
 30
0.0
 10
4.1087549796
 20
5.7579822723
 30
0.0
 10
4.111993564
 20
5.7575061299
 30
0.0
 10
4.1142132728
 20
5.7572111497
 30
0.0
 10
4.1162913907
 20
5.756968767
 30
0.0
 10
4.1182256728
 20
5.7567797921
 30
0.0
 10
4.1200141241
 20
5.756645602
 30
0.0
 10
4.1214130533
 20
5.7565791639
 30
0.0
 10
4.1224575736
 20
5.7565571075
 30
0.0
 10
4.1231845846
 20
5.7565558559
 30
0.0
 10
4.1238739612
 20
5.7565697432
 30
0.0
 10
4.1247181101
 20
5.7566078429
 30
0.0
 10
4.1255119911
 20
5.7566761535
 30
0.0
 10
4.1262525591
 20
5.7567830679
 30
0.0
 10
4.1267521267
 20
5.7568775675
 30
0.0
 10
4.1272136063
 20
5.7569893118
 30
0.0
 10
4.1276369731
 20
5.7571187563
 30
0.0
 10
4.1280223939
 20
5.7572664766
 30
0.0
 10
4.1284709099
 20
5.7574813509
 30
0.0
 10
4.1288646505
 20
5.7577413903
 30
0.0
 10
4.1291834491
 20
5.7580516183
 30
0.0
 10
4.1293781419
 20
5.7582999174
 30
0.0
 10
4.1295341168
 20
5.7585700763
 30
0.0
 10
4.1296512796
 20
5.7588623753
 30
0.0
 10
4.1297297974
 20
5.7591769486
 30
0.0
 10
4.1297558899
 20
5.7593954369
 30
0.0
 10
4.1297631403
 20
5.7595075484
 30
0.0
  0
SPLINE
  5
3DF
100
AcDbEntity
  8
0
100
AcDbSpline
 62
7
  6
CONTINUOUS
 70
0
 71
3
 72
33
 73
29
 74
0
 42
0.0000001
 43
0.0000001
 44
0.0000000001
 40
0.0
 40
0.0
 40
0.0
 40
0.0
 40
0.0135780884
 40
0.0264665309
 40
0.0390871473
 40
0.0518796574
 40
0.0652511411
 40
0.0795417847
 40
0.0950091046
 40
0.1118464066
 40
0.1301946227
 40
0.1501498284
 40
0.1717754396
 40
0.1951097887
 40
0.2201749323
 40
0.2469802261
 40
0.2755236179
 40
0.3057948101
 40
0.3377772457
 40
0.3714493953
 40
0.4067847254
 40
0.4437530635
 40
0.5224493478
 40
0.6072386358
 40
0.6977790715
 40
0.7936951593
 40
0.8945795199
 40
1.0
 40
1.0
 40
1.0
 40
1.0
 10
4.1225203904
 20
5.6475070102
 30
0.0
 10
4.1225434021
 20
5.6478630868
 30
0.0
 10
4.1225411514
 20
5.6485616979
 30
0.0
 10
4.1223712105
 20
5.649579577
 30
0.0
 10
4.1220329728
 20
5.6505331941
 30
0.0
 10
4.1215277838
 20
5.6514240123
 30
0.0
 10
4.120858877
 20
5.6522555135
 30
0.0
 10
4.1200295421
 20
5.6530326433
 30
0.0
 10
4.1190412823
 20
5.6537596296
 30
0.0
 10
4.1178953534
 20
5.6544403052
 30
0.0
 10
4.116593037
 20
5.6550785639
 30
0.0
 10
4.1151353497
 20
5.65567718
 30
0.0
 10
4.1135236086
 20
5.6562382746
 30
0.0
 10
4.1117592106
 20
5.6567628945
 30
0.0
 10
4.1098439424
 20
5.6572519934
 30
0.0
 10
4.1077799538
 20
5.6577069218
 30
0.0
 10
4.105569414
 20
5.6581279728
 30
0.0
 10
4.1032146762
 20
5.658514728
 30
0.0
 10
4.1007183846
 20
5.6588670392
 30
0.0
 10
4.0980833596
 20
5.6591845453
 30
0.0
 10
4.0953125404
 20
5.6594662012
 30
0.0
 10
4.091358234
 20
5.6597991759
 30
0.0
 10
4.0860987946
 20
5.6601110493
 30
0.0
 10
4.0794252332
 20
5.6603080451
 30
0.0
 10
4.0722961492
 20
5.6603124729
 30
0.0
 10
4.0647470609
 20
5.6600958586
 30
0.0
 10
4.056817808
 20
5.6596227273
 30
0.0
 10
4.0514185221
 20
5.6591174483
 30
0.0
 10
4.0486654627
 20
5.6588084022
 30
0.0
  0
SPLINE
  5
3E0
100
AcDbEntity
  8
0
100
AcDbSpline
 62
7
  6
CONTINUOUS
 70
0
 71
3
 72
15
 73
11
 74
0
 42
0.0000001
 43
0.0000001
 44
0.0000000001
 40
0.0
 40
0.0
 40
0.0
 40
0.0
 40
0.1151718984
 40
0.2341593352
 40
0.3565101952
 40
0.4817170245
 40
0.6092390201
 40
0.7385132352
 40
0.8689613514
 40
1.0
 40
1.0
 40
1.0
 40
1.0
 10
3.8041458881
 20
5.8093339897
 30
0.0
 10
3.8068805277
 20
5.8084408812
 30
0.0
 10
3.8124775266
 20
5.8067377163
 30
0.0
 10
3.8210761068
 20
5.8044177607
 30
0.0
 10
3.8299748394
 20
5.8022605026
 30
0.0
 10
3.8391250188
 20
5.8002457007
 30
0.0
 10
3.8484786871
 20
5.7983584227
 30
0.0
 10
3.8579885079
 20
5.7965892277
 30
0.0
 10
3.8676078147
 20
5.7949335133
 30
0.0
 10
3.8740581779
 20
5.7939061832
 30
0.0
 10
3.8772936257
 20
5.7934110897
 30
0.0
  0
SPLINE
  5
3E1
100
AcDbEntity
  8
0
100
AcDbSpline
 62
7
  6
CONTINUOUS
 70
0
 71
3
 72
15
 73
11
 74
0
 42
0.0000001
 43
0.0000001
 44
0.0000000001
 40
0.0
 40
0.0
 40
0.0
 40
0.0
 40
0.1310386238
 40
0.2614867443
 40
0.3907609307
 40
0.5182829388
 40
0.6434897547
 40
0.765840637
 40
0.8848280634
 40
1.0
 40
1.0
 40
1.0
 40
1.0
 10
3.8772936257
 20
5.7934110897
 30
0.0
 10
3.8805290744
 20
5.7929160063
 30
0.0
 10
3.8869914676
 20
5.7919672905
 30
0.0
 10
3.896665735
 20
5.7906707577
 30
0.0
 10
3.906269451
 20
5.78951518
 30
0.0
 10
3.9157594666
 20
5.7885189175
 30
0.0
 10
3.9250934549
 20
5.7877053644
 30
0.0
 10
3.9342300861
 20
5.787102713
 30
0.0
 10
3.9431289661
 20
5.7867453283
 30
0.0
 10
3.9489791633
 20
5.7866967232
 30
0.0
 10
3.9518557435
 20
5.7867312056
 30
0.0
  0
SPLINE
  5
3E2
100
AcDbEntity
  8
0
100
AcDbSpline
 62
7
  6
CONTINUOUS
 70
0
 71
3
 72
15
 73
11
 74
0
 42
0.0000001
 43
0.0000001
 44
0.0000000001
 40
0.0
 40
0.0
 40
0.0
 40
0.0
 40
0.1166669858
 40
0.236476977
 40
0.3591302018
 40
0.4842421385
 40
0.6113735253
 40
0.74004752
 40
0.8697612472
 40
1.0
 40
1.0
 40
1.0
 40
1.0
 10
3.9349436657
 20
5.6762102825
 30
0.0
 10
3.9322567261
 20
5.6773770359
 30
0.0
 10
3.9267446201
 20
5.6795921509
 30
0.0
 10
3.9182315652
 20
5.6825721567
 30
0.0
 10
3.9094080242
 20
5.6852852506
 30
0.0
 10
3.9003227469
 20
5.6877533193
 30
0.0
 10
3.8910229848
 20
5.6899920815
 30
0.0
 10
3.8815551808
 20
5.6920116305
 30
0.0
 10
3.8719649661
 20
5.6938169504
 30
0.0
 10
3.8655239493
 20
5.6948770054
 30
0.0
 10
3.8622914827
 20
5.695371646
 30
0.0
  0
SPLINE
  5
3E3
100
AcDbEntity
  8
0
100
AcDbSpline
 62
7
  6
CONTINUOUS
 70
0
 71
3
 72
15
 73
11
 74
0
 42
0.0000001
 43
0.0000001
 44
0.0000000001
 40
0.0
 40
0.0
 40
0.0
 40
0.0
 40
0.1302387556
 40
0.2599524837
 40
0.3886264808
 40
0.5157578715
 40
0.6408698092
 40
0.7635230349
 40
0.8833330225
 40
1.0
 40
1.0
 40
1.0
 40
1.0
 10
3.8622914827
 20
5.695371646
 30
0.0
 10
3.8590590149
 20
5.6958662795
 30
0.0
 10
3.8525957357
 20
5.6967808478
 30
0.0
 10
3.8429045039
 20
5.6979260217
 30
0.0
 10
3.8332660149
 20
5.6988301378
 30
0.0
 10
3.8237223251
 20
5.6994748201
 30
0.0
 10
3.814314734
 20
5.6998365631
 30
0.0
 10
3.8050836298
 20
5.6998862157
 30
0.0
 10
3.7960689863
 20
5.6995883325
 30
0.0
 10
3.7901467033
 20
5.6991229229
 30
0.0
 10
3.7872338103
 20
5.6988130666
 30
0.0
  0
SPLINE
  5
3E4
100
AcDbEntity
  8
0
100
AcDbSpline
 62
7
  6
CONTINUOUS
 70
0
 71
3
 72
15
 73
11
 74
0
 42
0.0000001
 43
0.0000001
 44
0.0000000001
 40
0.0
 40
0.0
 40
0.0
 40
0.0
 40
0.1255221781
 40
0.2508713243
 40
0.3760478502
 40
0.5010620232
 40
0.6259334169
 40
0.750689819
 40
0.8753656524
 40
1.0
 40
1.0
 40
1.0
 40
1.0
 10
4.1267950232
 20
5.7661771681
 30
0.0
 10
4.1270432281
 20
5.7659793586
 30
0.0
 10
4.1275162288
 20
5.7655540182
 30
0.0
 10
4.1281438293
 20
5.7648368374
 30
0.0
 10
4.1286805926
 20
5.7640507418
 30
0.0
 10
4.1291186956
 20
5.7632070694
 30
0.0
 10
4.1294519003
 20
5.7623178629
 30
0.0
 10
4.1296754179
 20
5.7613957965
 30
0.0
 10
4.1297860576
 20
5.7604542379
 30
0.0
 10
4.1297834771
 20
5.7598220333
 30
0.0
 10
4.1297631403
 20
5.7595075484
 30
0.0
  0
SPLINE
  5
3E5
100
AcDbEntity
  8
0
100
AcDbSpline
 62
7
  6
CONTINUOUS
 70
0
 71
3
 72
14
 73
10
 74
0
 42
0.0000001
 43
0.0000001
 44
0.0000000001
 40
0.0
 40
0.0
 40
0.0
 40
0.0
 40
0.1030362092
 40
0.2140932925
 40
0.3325976284
 40
0.4576890704
 40
0.5882878251
 40
0.7231490542
 40
1.0
 40
1.0
 40
1.0
 40
1.0
 10
3.9499872384
 20
5.7932325611
 30
0.0
 10
3.9501289665
 20
5.7930442879
 30
0.0
 10
3.9503993048
 20
5.7926345816
 30
0.0
 10
3.9507521448
 20
5.791959509
 30
0.0
 10
3.9510633496
 20
5.7912094101
 30
0.0
 10
3.9513285237
 20
5.7903948879
 30
0.0
 10
3.9515440063
 20
5.7895272609
 30
0.0
 10
3.9517627404
 20
5.7883057548
 30
0.0
 10
3.9518408807
 20
5.7873642216
 30
0.0
 10
3.9518557435
 20
5.7867312056
 30
0.0
  0
SPLINE
  5
3E6
100
AcDbEntity
  8
0
100
AcDbSpline
 62
7
  6
CONTINUOUS
 70
0
 71
3
 72
15
 73
11
 74
0
 42
0.0000001
 43
0.0000001
 44
0.0000000001
 40
0.0
 40
0.0
 40
0.0
 40
0.0
 40
0.0963067642
 40
0.2018541793
 40
0.31659526
 40
0.4400269782
 40
0.5712975212
 40
0.7092883522
 40
0.8526788751
 40
1.0
 40
1.0
 40
1.0
 40
1.0
 10
3.7021223651
 20
5.8311612165
 30
0.0
 10
3.7019795388
 20
5.8310153731
 30
0.0
 10
3.7017046241
 20
5.8306853145
 30
0.0
 10
3.7013433096
 20
5.8301182256
 30
0.0
 10
3.7010188215
 20
5.8294645801
 30
0.0
 10
3.7007356118
 20
5.8287335205
 30
0.0
 10
3.7004975033
 20
5.8279351336
 30
0.0
 10
3.70030784
 20
5.8270805898
 30
0.0
 10
3.7001693036
 20
5.8261819502
 30
0.0
 10
3.7001129019
 20
5.8255679079
 30
0.0
 10
3.700093419
 20
5.8252562549
 30
0.0
  0
LINE
  5
3E7
100
AcDbEntity
  8
0
100
AcDbLine
 62
7
  6
CONTINUOUS
 10
4.0664781524
 20
5.3415454508
 11
4.0663471288
 21
5.3420526058
  0
SPLINE
  5
3E8
100
AcDbEntity
  8
0
100
AcDbSpline
 62
7
  6
CONTINUOUS
 70
0
 71
3
 72
18
 73
14
 74
0
 42
0.0000001
 43
0.0000001
 44
0.0000000001
 40
0.0
 40
0.0
 40
0.0
 40
0.0
 40
0.0243221279
 40
0.0555515005
 40
0.0933464646
 40
0.1373452477
 40
0.3674216695
 40
0.5093273722
 40
0.6647002846
 40
0.746288874
 40
0.8297691486
 40
0.9145508119
 40
1.0
 40
1.0
 40
1.0
 40
1.0
 10
4.0663471288
 20
5.3420526058
 30
0.0
 10
4.0661476887
 20
5.3428267026
 30
0.0
 10
4.0656977455
 20
5.344596176
 30
0.0
 10
4.0649647173
 20
5.3475752915
 30
0.0
 10
4.0641110455
 20
5.3511906189
 30
0.0
 10
4.0618728516
 20
5.3611931177
 30
0.0
 10
4.0594260394
 20
5.3746599739
 30
0.0
 10
4.0574374106
 20
5.3918840539
 30
0.0
 10
4.0567107173
 20
5.4043238007
 30
0.0
 10
4.0566108986
 20
5.4148567595
 30
0.0
 10
4.0568218336
 20
5.4230675681
 30
0.0
 10
4.0573430834
 20
5.4313916269
 30
0.0
 10
4.0579048864
 20
5.436959837
 30
0.0
 10
4.0582407161
 20
5.4397480759
 30
0.0
  0
SPLINE
  5
3E9
100
AcDbEntity
  8
0
100
AcDbSpline
 62
7
  6
CONTINUOUS
 70
0
 71
3
 72
15
 73
11
 74
0
 42
0.0000001
 43
0.0000001
 44
0.0000000001
 40
0.0
 40
0.0
 40
0.0
 40
0.0
 40
0.1261509304
 40
0.2519078501
 40
0.3772817951
 40
0.5023024223
 40
0.6270167177
 40
0.7514868098
 40
0.8757869782
 40
1.0
 40
1.0
 40
1.0
 40
1.0
 10
3.6010553217
 20
5.7210102534
 30
0.0
 10
3.6008792948
 20
5.7212397522
 30
0.0
 10
3.6005525256
 20
5.7217176441
 30
0.0
 10
3.6001448462
 20
5.7224824582
 30
0.0
 10
3.5998250317
 20
5.7232853187
 30
0.0
 10
3.5995970475
 20
5.7241164303
 30
0.0
 10
3.5994636432
 20
5.724965772
 30
0.0
 10
3.5994264631
 20
5.725823107
 30
0.0
 10
3.5994859336
 20
5.7266779294
 30
0.0
 10
3.5995896368
 20
5.7272396525
 30
0.0
 10
3.5996570857
 20
5.7275163389
 30
0.0
  0
SPLINE
  5
3EA
100
AcDbEntity
  8
0
100
AcDbSpline
 62
7
  6
CONTINUOUS
 70
0
 71
3
 72
13
 73
9
 74
0
 42
0.0000001
 43
0.0000001
 44
0.0000000001
 40
0.0
 40
0.0
 40
0.0
 40
0.0
 40
0.1127886146
 40
0.23121422
 40
0.3543119057
 40
0.4810091547
 40
0.7404620792
 40
1.0
 40
1.0
 40
1.0
 40
1.0
 10
3.7887046405
 20
5.6922958726
 30
0.0
 10
3.7885908412
 20
5.6925219677
 30
0.0
 10
3.7883747978
 20
5.6929942833
 30
0.0
 10
3.7880916313
 20
5.6937378025
 30
0.0
 10
3.7878439702
 20
5.6945266774
 30
0.0
 10
3.7875629959
 20
5.6956349597
 30
0.0
 10
3.787319814
 20
5.6970661894
 30
0.0
 10
3.7872416576
 20
5.698230667
 30
0.0
 10
3.7872338103
 20
5.6988130666
 30
0.0
  0
SPLINE
  5
3EB
100
AcDbEntity
  8
0
100
AcDbSpline
 62
7
  6
CONTINUOUS
 70
0
 71
3
 72
14
 73
10
 74
0
 42
0.0000001
 43
0.0000001
 44
0.0000000001
 40
0.0
 40
0.0
 40
0.0
 40
0.0
 40
0.1044572256
 40
0.2162753793
 40
0.3349414822
 40
0.4597227221
 40
0.5897141384
 40
0.7238780999
 40
1.0
 40
1.0
 40
1.0
 40
1.0
 10
4.0477972557
 20
5.6526491312
 30
0.0
 10
4.0478968689
 20
5.6528443992
 30
0.0
 10
4.048080996
 20
5.6532602086
 30
0.0
 10
4.0483058751
 20
5.6539269876
 30
0.0
 10
4.0484866573
 20
5.6546510436
 30
0.0
 10
4.0486211788
 20
5.6554237054
 30
0.0
 10
4.0487078725
 20
5.656235881
 30
0.0
 10
4.0487587183
 20
5.6573690238
 30
0.0
 10
4.0487217004
 20
5.6582316825
 30
0.0
 10
4.0486654627
 20
5.6588084022
 30
0.0
  0
SPLINE
  5
3EC
100
AcDbEntity
  8
0
100
AcDbSpline
 62
7
  6
CONTINUOUS
 70
0
 71
3
 72
15
 73
11
 74
0
 42
0.0000001
 43
0.0000001
 44
0.0000000001
 40
0.0
 40
0.0
 40
0.0
 40
0.0
 40
0.1260816666
 40
0.2518107818
 40
0.3771878116
 40
0.5022249826
 40
0.626960717
 40
0.7514525679
 40
0.8757690396
 40
1.0
 40
1.0
 40
1.0
 40
1.0
 10
4.0570204479
 20
5.0460030142
 30
0.0
 10
4.0572519033
 20
5.0457659579
 30
0.0
 10
4.0576853023
 20
5.0452632818
 30
0.0
 10
4.0582354079
 20
5.0444358347
 30
0.0
 10
4.058676557
 20
5.0435483808
 30
0.0
 10
4.059001647
 20
5.0426149428
 30
0.0
 10
4.0592056021
 20
5.0416501439
 30
0.0
 10
4.0592851537
 20
5.0406690813
 30
0.0
 10
4.0592391068
 20
5.0396873547
 30
0.0
 10
4.059124995
 20
5.03904213
 30
0.0
 10
4.0590476796
 20
5.0387249695
 30
0.0
  0
SPLINE
  5
3ED
100
AcDbEntity
  8
0
100
AcDbSpline
 62
7
  6
CONTINUOUS
 70
0
 71
3
 72
15
 73
11
 74
0
 42
0.0000001
 43
0.0000001
 44
0.0000000001
 40
0.0
 40
0.0
 40
0.0
 40
0.0
 40
0.1000232105
 40
0.2087637495
 40
0.3258449249
 40
0.4504855269
 40
0.5816056965
 40
0.7178991729
 40
0.8578890671
 40
1.0
 40
1.0
 40
1.0
 40
1.0
 10
3.9867026298
 20
5.0565690638
 30
0.0
 10
3.986777011
 20
5.0563464963
 30
0.0
 10
3.9868979991
 20
5.0558701656
 30
0.0
 10
3.9869973683
 20
5.0551107867
 30
0.0
 10
3.9870212
 20
5.054287647
 30
0.0
 10
3.9869691548
 20
5.0534134598
 30
0.0
 10
3.9868420965
 20
5.0525015879
 30
0.0
 10
3.9866419683
 20
5.0515661503
 30
0.0
 10
3.9863718987
 20
5.0506217139
 30
0.0
 10
3.9861487719
 20
5.0499980393
 30
0.0
 10
3.9860265147
 20
5.0496878524
 30
0.0
  0
SPLINE
  5
3EE
100
AcDbEntity
  8
0
100
AcDbSpline
 62
7
  6
CONTINUOUS
 70
0
 71
3
 72
14
 73
10
 74
0
 42
0.0000001
 43
0.0000001
 44
0.0000000001
 40
0.0
 40
0.0
 40
0.0
 40
0.0
 40
0.1075888626
 40
0.2227249504
 40
0.3443397427
 40
0.4711431802
 40
0.6016942896
 40
0.7344477296
 40
1.0
 40
1.0
 40
1.0
 40
1.0
 10
3.8407588751
 20
5.0790956851
 30
0.0
 10
3.8408973073
 20
5.0788646157
 30
0.0
 10
3.8411597257
 20
5.0783715533
 30
0.0
 10
3.8414997793
 20
5.0775784655
 30
0.0
 10
3.8417955443
 20
5.076716824
 30
0.0
 10
3.8420423666
 20
5.0758000167
 30
0.0
 10
3.8422364548
 20
5.0748421207
 30
0.0
 10
3.8424207112
 20
5.0735304362
 30
0.0
 10
3.8424723577
 20
5.0725314262
 30
0.0
 10
3.8424660886
 20
5.0718666101
 30
0.0
  0
SPLINE
  5
3EF
100
AcDbEntity
  8
0
100
AcDbSpline
 62
7
  6
CONTINUOUS
 70
0
 71
3
 72
14
 73
10
 74
0
 42
0.0000001
 43
0.0000001
 44
0.0000000001
 40
0.0
 40
0.0
 40
0.0
 40
0.0
 40
0.1072213863
 40
0.2221187909
 40
0.3436157379
 40
0.4704104099
 40
0.6010471726
 40
0.7339637383
 40
1.0
 40
1.0
 40
1.0
 40
1.0
 10
3.6993768833
 20
5.1005360814
 30
0.0
 10
3.6991771798
 20
5.1003564832
 30
0.0
 10
3.6987822512
 20
5.0999632454
 30
0.0
 10
3.6982248738
 20
5.0993062867
 30
0.0
 10
3.697688871
 20
5.0985702221
 30
0.0
 10
3.6971826637
 20
5.0977665161
 30
0.0
 10
3.6967140614
 20
5.096907562
 30
0.0
 10
3.696149355
 20
5.0957066218
 30
0.0
 10
3.695803362
 20
5.0947657912
 30
0.0
 10
3.6956115543
 20
5.0941275861
 30
0.0
  0
SPLINE
  5
3F0
100
AcDbEntity
  8
0
100
AcDbSpline
 62
7
  6
CONTINUOUS
 70
0
 71
3
 72
15
 73
11
 74
0
 42
0.0000001
 43
0.0000001
 44
0.0000000001
 40
0.0
 40
0.0
 40
0.0
 40
0.0
 40
0.0998017308
 40
0.2084123198
 40
0.3254383049
 40
0.4500840221
 40
0.5812573272
 40
0.7176414521
 40
0.8577502924
 40
1.0
 40
1.0
 40
1.0
 40
1.0
 10
3.5533914215
 20
5.1230690847
 30
0.0
 10
3.5532567018
 20
5.1228784856
 30
0.0
 10
3.5530044592
 20
5.1224595109
 30
0.0
 10
3.5526905515
 20
5.1217646903
 30
0.0
 10
3.552429202
 20
5.1209870107
 30
0.0
 10
3.5522244094
 20
5.1201384367
 30
0.0
 10
3.552079233
 20
5.1192319045
 30
0.0
 10
3.5519959376
 20
5.1182813857
 30
0.0
 10
3.551975806
 20
5.117301624
 30
0.0
 10
3.5520046246
 20
5.1166413823
 30
0.0
 10
3.5520295699
 20
5.1163096427
 30
0.0
  0
SPLINE
  5
3F1
100
AcDbEntity
  8
0
100
AcDbSpline
 62
7
  6
CONTINUOUS
 70
0
 71
3
 72
15
 73
11
 74
0
 42
0.0000001
 43
0.0000001
 44
0.0000000001
 40
0.0
 40
0.0
 40
0.0
 40
0.0
 40
0.1260715178
 40
0.2518055338
 40
0.3771967341
 40
0.5022509862
 40
0.6270002283
 40
0.7514957922
 40
0.8758006017
 40
1.0
 40
1.0
 40
1.0
 40
1.0
 10
3.4822982277
 20
5.1337537835
 30
0.0
 10
3.4820052783
 20
5.1335968534
 30
0.0
 10
3.4814389792
 20
5.1332467009
 30
0.0
 10
3.4806630661
 20
5.132620949
 30
0.0
 10
3.4799733009
 20
5.1319048189
 30
0.0
 10
3.4793807537
 20
5.1311096333
 30
0.0
 10
3.4788947292
 20
5.1302479061
 30
0.0
 10
3.4785229387
 20
5.1293331539
 30
0.0
 10
3.4782712524
 20
5.1283800027
 30
0.0
 10
3.4781861538
 20
5.1277283298
 30
0.0
 10
3.4781646629
 20
5.1274016362
 30
0.0
  0
SPLINE
  5
3F2
100
AcDbEntity
  8
0
100
AcDbSpline
 62
7
  6
CONTINUOUS
 70
0
 71
3
 72
19
 73
15
 74
0
 42
0.0000001
 43
0.0000001
 44
0.0000000001
 40
0.0
 40
0.0
 40
0.0
 40
0.0
 40
0.0415574494
 40
0.0849857803
 40
0.1308782497
 40
0.179690368
 40
0.2317184286
 40
0.2871255142
 40
0.3459592652
 40
0.4081702358
 40
0.5420728596
 40
0.6871231013
 40
0.8407765561
 40
1.0
 40
1.0
 40
1.0
 40
1.0
 10
3.5472326672
 20
5.0026546726
 30
0.0
 10
3.5471270167
 20
5.0027016652
 30
0.0
 10
3.5469186832
 20
5.0028160106
 30
0.0
 10
3.5466288994
 20
5.0030385339
 30
0.0
 10
3.5463583171
 20
5.0033130346
 30
0.0
 10
3.546108708
 20
5.0036372307
 30
0.0
 10
3.5458815671
 20
5.0040087811
 30
0.0
 10
3.5456783164
 20
5.0044250414
 30
0.0
 10
3.5455002385
 20
5.0048831215
 30
0.0
 10
3.5452929352
 20
5.0055620892
 30
0.0
 10
3.545109084
 20
5.0064960641
 30
0.0
 10
3.5450076913
 20
5.0076974676
 30
0.0
 10
3.5450231935
 20
5.0089732633
 30
0.0
 10
3.5451103276
 20
5.0098406986
 30
0.0
 10
3.5451728942
 20
5.0102792842
 30
0.0
  0
SPLINE
  5
3F3
100
AcDbEntity
  8
0
100
AcDbSpline
 62
7
  6
CONTINUOUS
 70
0
 71
3
 72
18
 73
14
 74
0
 42
0.0000001
 43
0.0000001
 44
0.0000000001
 40
0.0
 40
0.0
 40
0.0
 40
0.0
 40
0.0419054785
 40
0.0859323588
 40
0.1325752678
 40
0.1821989412
 40
0.2350220291
 40
0.291144347
 40
0.4131141255
 40
0.5472374199
 40
0.6915685858
 40
0.8434996712
 40
1.0
 40
1.0
 40
1.0
 40
1.0
 10
3.6813215297
 20
4.9821361933
 30
0.0
 10
3.6812121508
 20
4.9821838736
 30
0.0
 10
3.6809954206
 20
4.9822998008
 30
0.0
 10
3.6806907007
 20
4.9825244628
 30
0.0
 10
3.6804015911
 20
4.9828015665
 30
0.0
 10
3.680130014
 20
4.9831288801
 30
0.0
 10
3.6798776325
 20
4.9835040756
 30
0.0
 10
3.6795601736
 20
4.9840806685
 30
0.0
 10
3.6792269567
 20
4.9849084792
 30
0.0
 10
3.6789371606
 20
4.9860135983
 30
0.0
 10
3.6787543602
 20
4.9872274882
 30
0.0
 10
3.6786836701
 20
4.9885163932
 30
0.0
 10
3.678712417
 20
4.9893954098
 30
0.0
 10
3.6787456524
 20
4.98983978
 30
0.0
  0
SPLINE
  5
3F4
100
AcDbEntity
  8
0
100
AcDbSpline
 62
7
  6
CONTINUOUS
 70
0
 71
3
 72
18
 73
14
 74
0
 42
0.0000001
 43
0.0000001
 44
0.0000000001
 40
0.0
 40
0.0
 40
0.0
 40
0.0
 40
0.041905491
 40
0.0859323804
 40
0.1325752957
 40
0.1821989727
 40
0.2350220621
 40
0.2911443798
 40
0.4131141542
 40
0.5472374418
 40
0.6915685998
 40
0.8434996777
 40
1.0
 40
1.0
 40
1.0
 40
1.0
 10
3.8216938152
 20
4.9606562152
 30
0.0
 10
3.8218124474
 20
4.9606690049
 30
0.0
 10
3.8220539271
 20
4.9607148161
 30
0.0
 10
3.8224118863
 20
4.9608380739
 30
0.0
 10
3.8227706317
 20
4.9610160419
 30
0.0
 10
3.8231276617
 20
4.9612471651
 30
0.0
 10
3.8234806932
 20
4.9615297194
 30
0.0
 10
3.82395605
 20
4.9619849944
 30
0.0
 10
3.8245215682
 20
4.9626752794
 30
0.0
 10
3.825128579
 20
4.9636431677
 30
0.0
 10
3.825666017
 20
4.9647468457
 30
0.0
 10
3.8261189074
 20
4.9659556316
 30
0.0
 10
3.8263543376
 20
4.9668030212
 30
0.0
 10
3.8264555078
 20
4.9672369959
 30
0.0
  0
SPLINE
  5
3F5
100
AcDbEntity
  8
0
100
AcDbSpline
 62
7
  6
CONTINUOUS
 70
0
 71
3
 72
19
 73
15
 74
0
 42
0.0000001
 43
0.0000001
 44
0.0000000001
 40
0.0
 40
0.0
 40
0.0
 40
0.0
 40
0.0415574831
 40
0.0849858389
 40
0.130878325
 40
0.179690453
 40
0.2317185175
 40
0.2871256025
 40
0.3459593493
 40
0.4081703131
 40
0.5420729183
 40
0.687123139
 40
0.8407765735
 40
1.0
 40
1.0
 40
1.0
 40
1.0
 10
3.9557826777
 20
4.9401377359
 30
0.0
 10
3.9558975464
 20
4.9401509844
 30
0.0
 10
3.9561305408
 20
4.9401977971
 30
0.0
 10
3.956473608
 20
4.9403234806
 30
0.0
 10
3.9568138957
 20
4.9405045051
 30
0.0
 10
3.9571490307
 20
4.9407392228
 30
0.0
 10
3.9574768866
 20
4.9410258467
 30
0.0
 10
3.9577953154
 20
4.9413622788
 30
0.0
 10
3.9581022293
 20
4.9417461448
 30
0.0
 10
3.9585030854
 20
4.942332051
 30
0.0
 10
3.9589578201
 20
4.9431683086
 30
0.0
 10
3.9594138416
 20
4.9442844157
 30
0.0
 10
3.9597805633
 20
4.9455064672
 30
0.0
 10
3.9599568148
 20
4.9463602656
 30
0.0
 10
3.960028266
 20
4.9467974917
 30
0.0
  0
SPLINE
  5
3F6
100
AcDbEntity
  8
0
100
AcDbSpline
 62
7
  6
CONTINUOUS
 70
0
 71
3
 72
15
 73
11
 74
0
 42
0.0000001
 43
0.0000001
 44
0.0000000001
 40
0.0
 40
0.0
 40
0.0
 40
0.0
 40
0.0963067499
 40
0.2018541572
 40
0.3165952352
 40
0.4400269545
 40
0.5712975017
 40
0.7092883386
 40
0.8526788683
 40
1.0
 40
1.0
 40
1.0
 40
1.0
 10
4.0557379347
 20
5.7770504306
 30
0.0
 10
4.0558306122
 20
5.77686855
 30
0.0
 10
4.0559942458
 20
5.7764713841
 30
0.0
 10
4.0561694439
 20
5.7758221972
 30
0.0
 10
4.0562836167
 20
5.7751014272
 30
0.0
 10
4.0563352502
 20
5.7743191295
 30
0.0
 10
4.0563237127
 20
5.7734860723
 30
0.0
 10
4.0562491537
 20
5.7726139151
 30
0.0
 10
4.0561126209
 20
5.7717149689
 30
0.0
 10
4.0559828181
 20
5.7711121585
 30
0.0
 10
4.0559082126
 20
5.7708089404
 30
0.0
  0
SPLINE
  5
3F7
100
AcDbEntity
  8
0
100
AcDbSpline
 62
7
  6
CONTINUOUS
 70
0
 71
3
 72
14
 73
10
 74
0
 42
0.0000001
 43
0.0000001
 44
0.0000000001
 40
0.0
 40
0.0
 40
0.0
 40
0.0
 40
0.1030361722
 40
0.2140932414
 40
0.3325975775
 40
0.4576890278
 40
0.5882877943
 40
0.7231490355
 40
1.0
 40
1.0
 40
1.0
 40
1.0
 10
3.8078730615
 20
5.814979086
 30
0.0
 10
3.8076815176
 20
5.8148418105
 30
0.0
 10
3.8073010314
 20
5.8145316943
 30
0.0
 10
3.8067624632
 20
5.8139930263
 30
0.0
 10
3.8062411889
 20
5.8133703146
 30
0.0
 10
3.8057445737
 20
5.8126723625
 30
0.0
 10
3.8052794956
 20
5.811908876
 30
0.0
 10
3.8047054902
 20
5.8108086761
 30
0.0
 10
3.8043493685
 20
5.8099335944
 30
0.0
 10
3.8041458881
 20
5.8093339897
 30
0.0
  0
SPLINE
  5
3F8
100
AcDbEntity
  8
0
100
AcDbSpline
 62
7
  6
CONTINUOUS
 70
0
 71
3
 72
15
 73
11
 74
0
 42
0.0000001
 43
0.0000001
 44
0.0000000001
 40
0.0
 40
0.0
 40
0.0
 40
0.0
 40
0.1255221746
 40
0.2508713177
 40
0.3760478414
 40
0.5010620131
 40
0.625933407
 40
0.7506898107
 40
0.8753656473
 40
1.0
 40
1.0
 40
1.0
 40
1.0
 10
3.6310652767
 20
5.842034479
 30
0.0
 10
3.6307692764
 20
5.8419199446
 30
0.0
 10
3.6301907259
 20
5.8416555142
 30
0.0
 10
3.6293773779
 20
5.8411588295
 30
0.0
 10
3.6286301021
 20
5.8405692195
 30
0.0
 10
3.627959754
 20
5.839895164
 30
0.0
 10
3.6273758877
 20
5.839146289
 30
0.0
 10
3.6268868627
 20
5.838333257
 30
0.0
 10
3.6264997215
 20
5.8374678695
 30
0.0
 10
3.6263131289
 20
5.8368638227
 30
0.0
 10
3.6262384913
 20
5.8365576469
 30
0.0
  0
SPLINE
  5
3F9
100
AcDbEntity
  8
0
100
AcDbSpline
 62
7
  6
CONTINUOUS
 70
0
 71
3
 72
14
 73
10
 74
0
 42
0.0000001
 43
0.0000001
 44
0.0000000001
 40
0.0
 40
0.0
 40
0.0
 40
0.0
 40
0.1044572492
 40
0.2162754123
 40
0.3349415159
 40
0.4597227512
 40
0.5897141602
 40
0.7238781136
 40
1.0
 40
1.0
 40
1.0
 40
1.0
 10
3.6724986181
 20
5.7100778928
 30
0.0
 10
3.6724619562
 20
5.7102940138
 30
0.0
 10
3.6724105985
 20
5.7107458575
 30
0.0
 10
3.6723954038
 20
5.7114493731
 30
0.0
 10
3.6724394162
 20
5.7121943577
 30
0.0
 10
3.6725421079
 20
5.7129718902
 30
0.0
 10
3.6727022549
 20
5.7137728259
 30
0.0
 10
3.6729925919
 20
5.7148693213
 30
0.0
 10
3.6732858862
 20
5.7156814351
 30
0.0
 10
3.6735120134
 20
5.7162149469
 30
0.0
  0
SPLINE
  5
3FA
100
AcDbEntity
  8
0
100
AcDbSpline
 62
7
  6
CONTINUOUS
 70
0
 71
3
 72
13
 73
9
 74
0
 42
0.0000001
 43
0.0000001
 44
0.0000000001
 40
0.0
 40
0.0
 40
0.0
 40
0.0
 40
0.1127885347
 40
0.2312141121
 40
0.3543118024
 40
0.4810090736
 40
0.7404620541
 40
1.0
 40
1.0
 40
1.0
 40
1.0
 10
3.9315912334
 20
5.6704311514
 30
0.0
 10
3.9317674361
 20
5.6706128702
 30
0.0
 10
3.9321148338
 20
5.6709989677
 30
0.0
 10
3.9326073841
 20
5.6716237858
 30
0.0
 10
3.9330796175
 20
5.6723025015
 30
0.0
 10
3.9336791562
 20
5.6732760463
 30
0.0
 10
3.9343392074
 20
5.6745690615
 30
0.0
 10
3.9347620154
 20
5.6756568804
 30
0.0
 10
3.9349436657
 20
5.6762102825
 30
0.0
  0
SPLINE
  5
3FB
100
AcDbEntity
  8
0
100
AcDbSpline
 62
7
  6
CONTINUOUS
 70
0
 71
3
 72
15
 73
11
 74
0
 42
0.0000001
 43
0.0000001
 44
0.0000000001
 40
0.0
 40
0.0
 40
0.0
 40
0.0
 40
0.1261509708
 40
0.2519079187
 40
0.377281879
 40
0.5023025088
 40
0.6270167948
 40
0.7514868675
 40
0.8757870092
 40
1.0
 40
1.0
 40
1.0
 40
1.0
 10
4.1192405522
 20
5.6417167706
 30
0.0
 10
4.1194771537
 20
5.6418831285
 30
0.0
 10
4.1199318792
 20
5.6422414352
 30
0.0
 10
4.1205496139
 20
5.6428493391
 30
0.0
 10
4.1210948819
 20
5.6435198235
 30
0.0
 10
4.1215609699
 20
5.6442447271
 30
0.0
 10
4.1219422574
 20
5.6450153098
 30
0.0
 10
4.1222341143
 20
5.6458222949
 30
0.0
 10
4.1224329919
 20
5.6466557848
 30
0.0
 10
4.1225020123
 20
5.647222815
 30
0.0
 10
4.1225203904
 20
5.6475070102
 30
0.0
  0
SPLINE
  5
3FC
100
AcDbEntity
  8
0
100
AcDbSpline
 62
7
  6
CONTINUOUS
 70
0
 71
3
 72
15
 73
11
 74
0
 42
0.0000001
 43
0.0000001
 44
0.0000000001
 40
0.0
 40
0.0
 40
0.0
 40
0.0
 40
0.1260715175
 40
0.2518055333
 40
0.3771967334
 40
0.5022509853
 40
0.6270002274
 40
0.7514957913
 40
0.8758006011
 40
1.0
 40
1.0
 40
1.0
 40
1.0
 10
4.0569497206
 20
5.0458197484
 30
0.0
 10
4.0571823362
 20
5.0455823955
 30
0.0
 10
4.0576180118
 20
5.0450789194
 30
0.0
 10
4.058171294
 20
5.044249772
 30
0.0
 10
4.0586153436
 20
5.0433601438
 30
0.0
 10
4.0589429831
 20
5.0424241498
 30
0.0
 10
4.0591490757
 20
5.0414565139
 30
0.0
 10
4.059230305
 20
5.0404724399
 30
0.0
 10
4.0591854431
 20
5.0394876401
 30
0.0
 10
4.0590717709
 20
5.0388403396
 30
0.0
 10
4.0589945836
 20
5.0385221688
 30
0.0
  0
SPLINE
  5
3FD
100
AcDbEntity
  8
0
100
AcDbSpline
 62
7
  6
CONTINUOUS
 70
0
 71
3
 72
15
 73
11
 74
0
 42
0.0000001
 43
0.0000001
 44
0.0000000001
 40
0.0
 40
0.0
 40
0.0
 40
0.0
 40
0.0998018018
 40
0.2084124209
 40
0.3254384089
 40
0.4500841124
 40
0.5812573952
 40
0.717641495
 40
0.8577503117
 40
1.0
 40
1.0
 40
1.0
 40
1.0
 10
3.9859145671
 20
5.0568837429
 30
0.0
 10
3.9859861256
 20
5.0566615787
 30
0.0
 10
3.9861015357
 20
5.0561863452
 30
0.0
 10
3.9861932999
 20
5.0554294479
 30
0.0
 10
3.9862101325
 20
5.0546092004
 30
0.0
 10
3.9861517955
 20
5.0537382155
 30
0.0
 10
3.9860192383
 20
5.0528297523
 30
0.0
 10
3.9858144779
 20
5.0518978204
 30
0.0
 10
3.9855406991
 20
5.0509568723
 30
0.0
 10
3.9853157596
 20
5.0503354611
 30
0.0
 10
3.985192752
 20
5.0500263615
 30
0.0
  0
SPLINE
  5
3FE
100
AcDbEntity
  8
0
100
AcDbSpline
 62
7
  6
CONTINUOUS
 70
0
 71
3
 72
14
 73
10
 74
0
 42
0.0000001
 43
0.0000001
 44
0.0000000001
 40
0.0
 40
0.0
 40
0.0
 40
0.0
 40
0.1072213864
 40
0.222118791
 40
0.3436157379
 40
0.4704104099
 40
0.6010471726
 40
0.7339637383
 40
1.0
 40
1.0
 40
1.0
 40
1.0
 10
3.839871065
 20
5.0790374505
 30
0.0
 10
3.840007923
 20
5.0788063512
 30
0.0
 10
3.8402671856
 20
5.0783130081
 30
0.0
 10
3.8406026001
 20
5.077519433
 30
0.0
 10
3.8408939622
 20
5.0766567638
 30
0.0
 10
3.8411366648
 20
5.0757384585
 30
0.0
 10
3.8413269617
 20
5.0747786786
 30
0.0
 10
3.8415066972
 20
5.0734638228
 30
0.0
 10
3.8415555109
 20
5.0724625783
 30
0.0
 10
3.8415476923
 20
5.0717962189
 30
0.0
  0
SPLINE
  5
3FF
100
AcDbEntity
  8
0
100
AcDbSpline
 62
7
  6
CONTINUOUS
 70
0
 71
3
 72
14
 73
10
 74
0
 42
0.0000001
 43
0.0000001
 44
0.0000000001
 40
0.0
 40
0.0
 40
0.0
 40
0.0
 40
0.1075888206
 40
0.2227248932
 40
0.3443396871
 40
0.4711431353
 40
0.6016942593
 40
0.7344477132
 40
1.0
 40
1.0
 40
1.0
 40
1.0
 10
3.6985471136
 20
5.1008571425
 30
0.0
 10
3.6983459172
 20
5.1006780436
 30
0.0
 10
3.6979480617
 20
5.100286017
 30
0.0
 10
3.6973864038
 20
5.0996309103
 30
0.0
 10
3.6968465072
 20
5.0988971431
 30
0.0
 10
3.6963368166
 20
5.0980960985
 30
0.0
 10
3.6958651596
 20
5.0972400759
 30
0.0
 10
3.6952970871
 20
5.096043514
 30
0.0
 10
3.6949490586
 20
5.0951056631
 30
0.0
 10
3.6947562332
 20
5.0944693941
 30
0.0
  0
SPLINE
  5
400
100
AcDbEntity
  8
0
100
AcDbSpline
 62
7
  6
CONTINUOUS
 70
0
 71
3
 72
15
 73
11
 74
0
 42
0.0000001
 43
0.0000001
 44
0.0000000001
 40
0.0
 40
0.0
 40
0.0
 40
0.0
 40
0.1000232105
 40
0.2087637495
 40
0.3258449249
 40
0.4504855268
 40
0.5816056965
 40
0.7178991729
 40
0.8578890671
 40
1.0
 40
1.0
 40
1.0
 40
1.0
 10
3.5525453185
 20
5.1230044681
 30
0.0
 10
3.5524077842
 20
5.1228143283
 30
0.0
 10
3.5521498901
 20
5.1223959746
 30
0.0
 10
3.5518279828
 20
5.1217010602
 30
0.0
 10
3.5515590893
 20
5.1209227137
 30
0.0
 10
3.5513473353
 20
5.1200729653
 30
0.0
 10
3.5511958925
 20
5.1191648248
 30
0.0
 10
3.5511071289
 20
5.118212346
 30
0.0
 10
3.5510824152
 20
5.1172303649
 30
0.0
 10
3.5511088276
 20
5.1165685054
 30
0.0
 10
3.5511327319
 20
5.1162359526
 30
0.0
  0
SPLINE
  5
401
100
AcDbEntity
  8
0
100
AcDbSpline
 62
7
  6
CONTINUOUS
 70
0
 71
3
 72
15
 73
11
 74
0
 42
0.0000001
 43
0.0000001
 44
0.0000000001
 40
0.0
 40
0.0
 40
0.0
 40
0.0
 40
0.1260816697
 40
0.2518107872
 40
0.3771878184
 40
0.5022249896
 40
0.6269607233
 40
0.7514525727
 40
0.8757690422
 40
1.0
 40
1.0
 40
1.0
 40
1.0
 10
3.4822855408
 20
5.1339498135
 30
0.0
 10
3.4819937872
 20
5.1337928194
 30
0.0
 10
3.4814298997
 20
5.1334427496
 30
0.0
 10
3.4806575263
 20
5.1328176701
 30
0.0
 10
3.4799711791
 20
5.1321027474
 30
0.0
 10
3.4793818291
 20
5.1313092384
 30
0.0
 10
3.4788986927
 20
5.1304495793
 30
0.0
 10
3.4785294036
 20
5.129537199
 30
0.0
 10
3.4782797671
 20
5.128586626
 30
0.0
 10
3.4781957087
 20
5.1279368025
 30
0.0
 10
3.4781746422
 20
5.1276110347
 30
0.0
  0
SPLINE
  5
402
100
AcDbEntity
  8
0
100
AcDbSpline
 62
7
  6
CONTINUOUS
 70
0
 71
3
 72
15
 73
11
 74
0
 42
0.0000001
 43
0.0000001
 44
0.0000000001
 40
0.0
 40
0.0
 40
0.0
 40
0.0
 40
0.102429535
 40
0.1978616976
 40
0.2939857464
 40
0.3985979671
 40
0.5179644099
 40
0.6563726301
 40
0.8165380634
 40
1.0
 40
1.0
 40
1.0
 40
1.0
 10
6.7469240425
 20
0.7452057145
 30
0.0
 10
6.7469222028
 20
0.7452573913
 30
0.0
 10
6.7469292079
 20
0.7453582686
 30
0.0
 10
6.7469810086
 20
0.7454996782
 30
0.0
 10
6.7470741395
 20
0.7456195204
 30
0.0
 10
6.7472059894
 20
0.7457158168
 30
0.0
 10
6.7473746614
 20
0.7457893945
 30
0.0
 10
6.7475798765
 20
0.7458412933
 30
0.0
 10
6.7478217362
 20
0.7458718387
 30
0.0
 10
6.7479953293
 20
0.7458776511
 30
0.0
 10
6.7480879463
 20
0.7458776514
 30
0.0
  0
SPLINE
  5
403
100
AcDbEntity
  8
0
100
AcDbSpline
 62
7
  6
CONTINUOUS
 70
0
 71
3
 72
11
 73
7
 74
0
 42
0.0000001
 43
0.0000001
 44
0.0000000001
 40
0.0
 40
0.0
 40
0.0
 40
0.0
 40
0.2243258205
 40
0.4668501798
 40
0.7260253114
 40
1.0
 40
1.0
 40
1.0
 40
1.0
 10
6.8380613668
 20
0.7458776514
 30
0.0
 10
6.8385083628
 20
0.7458776509
 30
0.0
 10
6.8394387616
 20
0.7458451898
 30
0.0
 10
6.8408800495
 20
0.7457136171
 30
0.0
 10
6.8424112809
 20
0.745499485
 30
0.0
 10
6.8434567188
 20
0.7453088989
 30
0.0
 10
6.8439919842
 20
0.7452015325
 30
0.0
  0
SPLINE
  5
404
100
AcDbEntity
  8
0
100
AcDbSpline
 62
7
  6
CONTINUOUS
 70
0
 71
3
 72
23
 73
19
 74
0
 42
0.0000001
 43
0.0000001
 44
0.0000000001
 40
0.0
 40
0.0
 40
0.0
 40
0.0
 40
0.0628753754
 40
0.1256549389
 40
0.1883522868
 40
0.2509786565
 40
0.3135434429
 40
0.376054717
 40
0.4385197807
 40
0.5009455994
 40
0.5633392332
 40
0.6257081871
 40
0.6880610412
 40
0.7504076951
 40
0.8127597846
 40
0.8751311326
 40
0.9375380673
 40
1.0
 40
1.0
 40
1.0
 40
1.0
 10
6.8439919842
 20
0.7452015325
 30
0.0
 10
6.848545506
 20
0.7442881592
 30
0.0
 10
6.8576742734
 20
0.7426029578
 30
0.0
 10
6.8714242142
 20
0.7404717503
 30
0.0
 10
6.8852082102
 20
0.7387137325
 30
0.0
 10
6.8990162911
 20
0.7373067589
 30
0.0
 10
6.9128403029
 20
0.7362322425
 30
0.0
 10
6.9266733107
 20
0.7354754421
 30
0.0
 10
6.9405093696
 20
0.7350256563
 30
0.0
 10
6.9543432126
 20
0.7348764006
 30
0.0
 10
6.9681699596
 20
0.735025493
 30
0.0
 10
6.981984839
 20
0.7354751422
 30
0.0
 10
6.9957828975
 20
0.7362318108
 30
0.0
 10
7.0095587128
 20
0.7373062035
 30
0.0
 10
7.0233060548
 20
0.7387130765
 30
0.0
 10
7.0370176317
 20
0.7404710359
 30
0.0
 10
7.0506844726
 20
0.7426022105
 30
0.0
 10
7.0597541251
 20
0.7442878966
 30
0.0
 10
7.0642764429
 20
0.7452015325
 30
0.0
  0
SPLINE
  5
405
100
AcDbEntity
  8
0
100
AcDbSpline
 62
7
  6
CONTINUOUS
 70
0
 71
3
 72
9
 73
5
 74
0
 42
0.0000001
 43
0.0000001
 44
0.0000000001
 40
0.0
 40
0.0
 40
0.0
 40
0.0
 40
0.4849090069
 40
1.0
 40
1.0
 40
1.0
 40
1.0
 10
7.0642764429
 20
0.7452015325
 30
0.0
 10
7.0654079893
 20
0.7454301357
 30
0.0
 10
7.0677691091
 20
0.7457707531
 30
0.0
 10
7.0701512902
 20
0.74587765
 30
0.0
 10
7.071377551
 20
0.7458776514
 30
0.0
  0
SPLINE
  5
406
100
AcDbEntity
  8
0
100
AcDbSpline
 62
7
  6
CONTINUOUS
 70
0
 71
3
 72
9
 73
5
 74
0
 42
0.0000001
 43
0.0000001
 44
0.0000000001
 40
0.0
 40
0.0
 40
0.0
 40
0.0
 40
0.5150911562
 40
1.0
 40
1.0
 40
1.0
 40
1.0
 10
7.2505668182
 20
0.7458776514
 30
0.0
 10
7.2517930793
 20
0.7458776505
 30
0.0
 10
7.2541752605
 20
0.7457707533
 30
0.0
 10
7.2565363801
 20
0.7454301349
 30
0.0
 10
7.2576679262
 20
0.7452015325
 30
0.0
  0
SPLINE
  5
407
100
AcDbEntity
  8
0
100
AcDbSpline
 62
7
  6
CONTINUOUS
 70
0
 71
3
 72
21
 73
17
 74
0
 42
0.0000001
 43
0.0000001
 44
0.0000000001
 40
0.0
 40
0.0
 40
0.0
 40
0.0
 40
0.1248589019
 40
0.1872317818
 40
0.249585629
 40
0.311933849
 40
0.3742884028
 40
0.4366590349
 40
0.4990542551
 40
0.5614817141
 40
0.6239484503
 40
0.6864613834
 40
0.7490277661
 40
0.8116557603
 40
0.8743548286
 40
1.0
 40
1.0
 40
1.0
 40
1.0
 10
7.2576679262
 20
0.7452015325
 30
0.0
 10
7.266707623
 20
0.7433752685
 30
0.0
 10
7.2803518034
 20
0.7410576621
 30
0.0
 10
7.2986381332
 20
0.738713039
 30
0.0
 10
7.312385686
 20
0.7373062233
 30
0.0
 10
7.3261614496
 20
0.7362317828
 30
0.0
 10
7.3399595277
 20
0.7354751445
 30
0.0
 10
7.3537744069
 20
0.7350255054
 30
0.0
 10
7.3676011538
 20
0.7348763925
 30
0.0
 10
7.3814349963
 20
0.7350256515
 30
0.0
 10
7.395271055
 20
0.7354754441
 30
0.0
 10
7.4091040773
 20
0.736232252
 30
0.0
 10
7.422928032
 20
0.7373067509
 30
0.0
 10
7.4367363183
 20
0.7387137293
 30
0.0
 10
7.4551257776
 20
0.7410592224
 30
0.0
 10
7.4688532257
 20
0.7433763711
 30
0.0
 10
7.4779523849
 20
0.7452015325
 30
0.0
  0
SPLINE
  5
408
100
AcDbEntity
  8
0
100
AcDbSpline
 62
7
  6
CONTINUOUS
 70
0
 71
3
 72
11
 73
7
 74
0
 42
0.0000001
 43
0.0000001
 44
0.0000000001
 40
0.0
 40
0.0
 40
0.0
 40
0.0
 40
0.2739747489
 40
0.5331499654
 40
0.7756743799
 40
1.0
 40
1.0
 40
1.0
 40
1.0
 10
7.4779523849
 20
0.7452015325
 30
0.0
 10
7.4784876504
 20
0.7453088991
 30
0.0
 10
7.4795330887
 20
0.7454994846
 30
0.0
 10
7.4810643205
 20
0.745713617
 30
0.0
 10
7.4825056082
 20
0.7458451907
 30
0.0
 10
7.4834360067
 20
0.7458776507
 30
0.0
 10
7.4838830023
 20
0.7458776514
 30
0.0
  0
SPLINE
  5
409
100
AcDbEntity
  8
0
100
AcDbSpline
 62
7
  6
CONTINUOUS
 70
0
 71
3
 72
15
 73
11
 74
0
 42
0.0000001
 43
0.0000001
 44
0.0000000001
 40
0.0
 40
0.0
 40
0.0
 40
0.0
 40
0.1834618325
 40
0.3436269825
 40
0.4820353239
 40
0.6014020136
 40
0.7060143465
 40
0.8021383444
 40
0.8975704965
 40
1.0
 40
1.0
 40
1.0
 40
1.0
 10
7.5738564228
 20
0.7458776514
 30
0.0
 10
7.5739490398
 20
0.7458776512
 30
0.0
 10
7.5741226327
 20
0.7458718387
 30
0.0
 10
7.5743644922
 20
0.7458412926
 30
0.0
 10
7.5745697074
 20
0.7457893939
 30
0.0
 10
7.5747383799
 20
0.7457158167
 30
0.0
 10
7.5748702303
 20
0.7456195207
 30
0.0
 10
7.5749633613
 20
0.7454996785
 30
0.0
 10
7.5750151611
 20
0.7453582685
 30
0.0
 10
7.5750221661
 20
0.7452573913
 30
0.0
 10
7.5750203266
 20
0.7452057145
 30
0.0
  0
LINE
  5
40A
100
AcDbEntity
  8
0
100
AcDbLine
 62
7
  6
CONTINUOUS
 10
7.5750203266
 20
0.7452057145
 11
7.5745999557
 21
0.7349869827
  0
SPLINE
  5
40B
100
AcDbEntity
  8
0
100
AcDbSpline
 62
7
  6
CONTINUOUS
 70
0
 71
3
 72
15
 73
11
 74
0
 42
0.0000001
 43
0.0000001
 44
0.0000000001
 40
0.0
 40
0.0
 40
0.0
 40
0.0
 40
0.1244657373
 40
0.2489909026
 40
0.3736418148
 40
0.4984642701
 40
0.6234969818
 40
0.7487636119
 40
0.874265786
 40
1.0
 40
1.0
 40
1.0
 40
1.0
 10
7.5791721846
 20
0.7521197331
 30
0.0
 10
7.5791721846
 20
0.7517687034
 30
0.0
 10
7.579124475
 20
0.7510655472
 30
0.0
 10
7.5789110557
 20
0.7500304705
 30
0.0
 10
7.5785596326
 20
0.7490324973
 30
0.0
 10
7.5780764616
 20
0.7480896839
 30
0.0
 10
7.5774702228
 20
0.7472187798
 30
0.0
 10
7.5767516818
 20
0.7464353085
 30
0.0
 10
7.5759338984
 20
0.7457533035
 30
0.0
 10
7.5753322345
 20
0.7453744146
 30
0.0
 10
7.5750203266
 20
0.7452057145
 30
0.0
  0
SPLINE
  5
40C
100
AcDbEntity
  8
0
100
AcDbSpline
 62
7
  6
CONTINUOUS
 70
0
 71
3
 72
15
 73
11
 74
0
 42
0.0000001
 43
0.0000001
 44
0.0000000001
 40
0.0
 40
0.0
 40
0.0
 40
0.0
 40
0.1267480246
 40
0.2532903928
 40
0.3794451442
 40
0.5050436328
 40
0.629957734
 40
0.7541034059
 40
0.8774421406
 40
1.0
 40
1.0
 40
1.0
 40
1.0
 10
7.577603486
 20
0.752770995
 30
0.0
 10
7.577603486
 20
0.7524251207
 30
0.0
 10
7.5775607712
 20
0.7517331719
 30
0.0
 10
7.577369546
 20
0.7507129734
 30
0.0
 10
7.5770543941
 20
0.7497271081
 30
0.0
 10
7.576620528
 20
0.7487923194
 30
0.0
 10
7.5760752068
 20
0.7479242667
 30
0.0
 10
7.57542746
 20
0.7471375601
 30
0.0
 10
7.574688324
 20
0.7464455705
 30
0.0
 10
7.5741407532
 20
0.7460537376
 30
0.0
 10
7.5738564228
 20
0.7458776514
 30
0.0
  0
SPLINE
  5
40D
100
AcDbEntity
  8
0
100
AcDbSpline
 62
7
  6
CONTINUOUS
 70
0
 71
3
 72
13
 73
9
 74
0
 42
0.0000001
 43
0.0000001
 44
0.0000000001
 40
0.0
 40
0.0
 40
0.0
 40
0.0
 40
0.2669907827
 40
0.526212809
 40
0.6510351991
 40
0.7717676603
 40
0.8880979913
 40
1.0
 40
1.0
 40
1.0
 40
1.0
 10
7.4868135265
 20
0.752770995
 30
0.0
 10
7.4868135265
 20
0.7520831652
 30
0.0
 10
7.4866838351
 20
0.7507240981
 30
0.0
 10
7.4861974498
 20
0.7491057554
 30
0.0
 10
7.4856246111
 20
0.7479356104
 30
0.0
 10
7.4851199828
 20
0.7471489591
 30
0.0
 10
7.4845435742
 20
0.7464560462
 30
0.0
 10
7.4841090101
 20
0.7460566177
 30
0.0
 10
7.4838830023
 20
0.7458776514
 30
0.0
  0
SPLINE
  5
40E
100
AcDbEntity
  8
0
100
AcDbSpline
 62
7
  6
CONTINUOUS
 70
0
 71
3
 72
15
 73
11
 74
0
 42
0.0000001
 43
0.0000001
 44
0.0000000001
 40
0.0
 40
0.0
 40
0.0
 40
0.0
 40
0.1477966469
 40
0.2921624852
 40
0.4312492813
 40
0.5633743351
 40
0.6871207299
 40
0.8014251949
 40
0.9056984296
 40
1.0
 40
1.0
 40
1.0
 40
1.0
 10
7.479004119
 20
0.7521156798
 30
0.0
 10
7.4790557471
 20
0.7517669519
 30
0.0
 10
7.4791352209
 20
0.7510740057
 30
0.0
 10
7.4791826144
 20
0.7500456666
 30
0.0
 10
7.4791565716
 20
0.7490538164
 30
0.0
 10
7.4790575395
 20
0.7481158733
 30
0.0
 10
7.4788872738
 20
0.7472481649
 30
0.0
 10
7.4786485198
 20
0.7464655198
 30
0.0
 10
7.4783452624
 20
0.745781459
 30
0.0
 10
7.4780903195
 20
0.7453792061
 30
0.0
 10
7.4779523849
 20
0.7452015325
 30
0.0
  0
SPLINE
  5
40F
100
AcDbEntity
  8
0
100
AcDbSpline
 62
7
  6
CONTINUOUS
 70
0
 71
3
 72
15
 73
11
 74
0
 42
0.0000001
 43
0.0000001
 44
0.0000000001
 40
0.0
 40
0.0
 40
0.0
 40
0.0
 40
0.1386635863
 40
0.2768072695
 40
0.4125852516
 40
0.5442134761
 40
0.6700513695
 40
0.7886636971
 40
0.8988981819
 40
1.0
 40
1.0
 40
1.0
 40
1.0
 10
7.2607668942
 20
0.7521156798
 30
0.0
 10
7.2607147568
 20
0.7517635108
 30
0.0
 10
7.2605873475
 20
0.7510637286
 30
0.0
 10
7.2603295803
 20
0.7500355372
 30
0.0
 10
7.260009198
 20
0.7490439766
 30
0.0
 10
7.2596318542
 20
0.7481065646
 30
0.0
 10
7.259204225
 20
0.7472397575
 30
0.0
 10
7.2587337271
 20
0.7464586459
 30
0.0
 10
7.258228637
 20
0.7457768956
 30
0.0
 10
7.2578577693
 20
0.7453785538
 30
0.0
 10
7.2576679262
 20
0.7452015325
 30
0.0
  0
SPLINE
  5
410
100
AcDbEntity
  8
0
100
AcDbSpline
 62
7
  6
CONTINUOUS
 70
0
 71
3
 72
14
 73
10
 74
0
 42
0.0000001
 43
0.0000001
 44
0.0000000001
 40
0.0
 40
0.0
 40
0.0
 40
0.0
 40
0.2949330891
 40
0.4364748014
 40
0.5710156418
 40
0.6964389746
 40
0.8108153017
 40
0.912456548
 40
1.0
 40
1.0
 40
1.0
 40
1.0
 10
7.2513799196
 20
0.752770995
 30
0.0
 10
7.2513799196
 20
0.7520861365
 30
0.0
 10
7.2513535693
 20
0.7510722749
 30
0.0
 10
7.2512625893
 20
0.7497493162
 30
0.0
 10
7.2511699619
 20
0.7488214234
 30
0.0
 10
7.2510537193
 20
0.7479597893
 30
0.0
 10
7.2509159264
 20
0.7471787148
 30
0.0
 10
7.2507590832
 20
0.7464911888
 30
0.0
 10
7.2506340394
 20
0.7460694984
 30
0.0
 10
7.2505668182
 20
0.7458776514
 30
0.0
  0
SPLINE
  5
411
100
AcDbEntity
  8
0
100
AcDbSpline
 62
7
  6
CONTINUOUS
 70
0
 71
3
 72
14
 73
10
 74
0
 42
0.0000001
 43
0.0000001
 44
0.0000000001
 40
0.0
 40
0.0
 40
0.0
 40
0.0
 40
0.2949330891
 40
0.4364748014
 40
0.5710156418
 40
0.6964389746
 40
0.8108153017
 40
0.912456548
 40
1.0
 40
1.0
 40
1.0
 40
1.0
 10
7.0705644495
 20
0.752770995
 30
0.0
 10
7.0705644495
 20
0.7520861365
 30
0.0
 10
7.0705907998
 20
0.7510722749
 30
0.0
 10
7.0706817798
 20
0.7497493162
 30
0.0
 10
7.0707744072
 20
0.7488214234
 30
0.0
 10
7.0708906498
 20
0.7479597893
 30
0.0
 10
7.0710284427
 20
0.7471787148
 30
0.0
 10
7.0711852859
 20
0.7464911888
 30
0.0
 10
7.0713103297
 20
0.7460694984
 30
0.0
 10
7.071377551
 20
0.7458776514
 30
0.0
  0
SPLINE
  5
412
100
AcDbEntity
  8
0
100
AcDbSpline
 62
7
  6
CONTINUOUS
 70
0
 71
3
 72
15
 73
11
 74
0
 42
0.0000001
 43
0.0000001
 44
0.0000000001
 40
0.0
 40
0.0
 40
0.0
 40
0.0
 40
0.1386635863
 40
0.2768072695
 40
0.4125852516
 40
0.5442134761
 40
0.6700513695
 40
0.7886636971
 40
0.8988981819
 40
1.0
 40
1.0
 40
1.0
 40
1.0
 10
7.0611774749
 20
0.7521156798
 30
0.0
 10
7.0612296123
 20
0.7517635108
 30
0.0
 10
7.0613570216
 20
0.7510637286
 30
0.0
 10
7.0616147888
 20
0.7500355372
 30
0.0
 10
7.0619351711
 20
0.7490439766
 30
0.0
 10
7.0623125149
 20
0.7481065646
 30
0.0
 10
7.0627401441
 20
0.7472397575
 30
0.0
 10
7.0632106421
 20
0.7464586459
 30
0.0
 10
7.0637157321
 20
0.7457768956
 30
0.0
 10
7.0640865998
 20
0.7453785538
 30
0.0
 10
7.0642764429
 20
0.7452015325
 30
0.0
  0
SPLINE
  5
413
100
AcDbEntity
  8
0
100
AcDbSpline
 62
7
  6
CONTINUOUS
 70
0
 71
3
 72
15
 73
11
 74
0
 42
0.0000001
 43
0.0000001
 44
0.0000000001
 40
0.0
 40
0.0
 40
0.0
 40
0.0
 40
0.1477966471
 40
0.2921624856
 40
0.4312492821
 40
0.563374336
 40
0.6871207309
 40
0.8014251958
 40
0.9056984302
 40
1.0
 40
1.0
 40
1.0
 40
1.0
 10
6.8429402501
 20
0.7521156798
 30
0.0
 10
6.842888622
 20
0.7517669519
 30
0.0
 10
6.8428091482
 20
0.7510740057
 30
0.0
 10
6.8427617547
 20
0.7500456666
 30
0.0
 10
6.8427877976
 20
0.7490538164
 30
0.0
 10
6.8428868296
 20
0.7481158733
 30
0.0
 10
6.8430570953
 20
0.7472481649
 30
0.0
 10
6.8432958493
 20
0.7464655198
 30
0.0
 10
6.8435991067
 20
0.745781459
 30
0.0
 10
6.8438540496
 20
0.7453792061
 30
0.0
 10
6.8439919842
 20
0.7452015325
 30
0.0
  0
SPLINE
  5
414
100
AcDbEntity
  8
0
100
AcDbSpline
 62
7
  6
CONTINUOUS
 70
0
 71
3
 72
13
 73
9
 74
0
 42
0.0000001
 43
0.0000001
 44
0.0000000001
 40
0.0
 40
0.0
 40
0.0
 40
0.0
 40
0.2669907827
 40
0.526212809
 40
0.6510351991
 40
0.7717676603
 40
0.8880979913
 40
1.0
 40
1.0
 40
1.0
 40
1.0
 10
6.8351308427
 20
0.752770995
 30
0.0
 10
6.8351308427
 20
0.7520831652
 30
0.0
 10
6.835260534
 20
0.7507240981
 30
0.0
 10
6.8357469193
 20
0.7491057554
 30
0.0
 10
6.836319758
 20
0.7479356104
 30
0.0
 10
6.8368243863
 20
0.7471489591
 30
0.0
 10
6.8374007949
 20
0.7464560462
 30
0.0
 10
6.837835359
 20
0.7460566177
 30
0.0
 10
6.8380613668
 20
0.7458776514
 30
0.0
  0
SPLINE
  5
415
100
AcDbEntity
  8
0
100
AcDbSpline
 62
7
  6
CONTINUOUS
 70
0
 71
3
 72
15
 73
11
 74
0
 42
0.0000001
 43
0.0000001
 44
0.0000000001
 40
0.0
 40
0.0
 40
0.0
 40
0.0
 40
0.1267480246
 40
0.2532903928
 40
0.3794451442
 40
0.5050436328
 40
0.629957734
 40
0.754103406
 40
0.8774421407
 40
1.0
 40
1.0
 40
1.0
 40
1.0
 10
6.7443408831
 20
0.752770995
 30
0.0
 10
6.7443408831
 20
0.7524251207
 30
0.0
 10
6.744383598
 20
0.7517331719
 30
0.0
 10
6.7445748231
 20
0.7507129734
 30
0.0
 10
6.744889975
 20
0.7497271081
 30
0.0
 10
6.7453238411
 20
0.7487923194
 30
0.0
 10
6.7458691623
 20
0.7479242667
 30
0.0
 10
6.7465169091
 20
0.7471375601
 30
0.0
 10
6.7472560451
 20
0.7464455705
 30
0.0
 10
6.7478036159
 20
0.7460537376
 30
0.0
 10
6.7480879463
 20
0.7458776514
 30
0.0
  0
SPLINE
  5
416
100
AcDbEntity
  8
0
100
AcDbSpline
 62
7
  6
CONTINUOUS
 70
0
 71
3
 72
15
 73
11
 74
0
 42
0.0000001
 43
0.0000001
 44
0.0000000001
 40
0.0
 40
0.0
 40
0.0
 40
0.0
 40
0.1244657374
 40
0.2489909028
 40
0.373641815
 40
0.4984642703
 40
0.623496982
 40
0.7487636121
 40
0.8742657861
 40
1.0
 40
1.0
 40
1.0
 40
1.0
 10
6.7427721846
 20
0.7521197331
 30
0.0
 10
6.7427721846
 20
0.7517687034
 30
0.0
 10
6.7428198941
 20
0.7510655472
 30
0.0
 10
6.7430333134
 20
0.7500304705
 30
0.0
 10
6.7433847365
 20
0.7490324973
 30
0.0
 10
6.7438679075
 20
0.7480896839
 30
0.0
 10
6.7444741464
 20
0.7472187798
 30
0.0
 10
6.7451926873
 20
0.7464353085
 30
0.0
 10
6.7460104708
 20
0.7457533035
 30
0.0
 10
6.7466121346
 20
0.7453744146
 30
0.0
 10
6.7469240425
 20
0.7452057145
 30
0.0
  0
LINE
  5
417
100
AcDbEntity
  8
0
100
AcDbLine
 62
7
  6
CONTINUOUS
 10
3.4819087522
 20
5.14367437
 11
3.4822855408
 21
5.1339498135
  0
SPLINE
  5
418
100
AcDbEntity
  8
0
100
AcDbSpline
 62
7
  6
CONTINUOUS
 70
0
 71
3
 72
23
 73
19
 74
0
 42
0.0000001
 43
0.0000001
 44
0.0000000001
 40
0.0
 40
0.0
 40
0.0
 40
0.0
 40
0.0626619103
 40
0.1252529132
 40
0.1877856889
 40
0.250274919
 40
0.3127323419
 40
0.3751668333
 40
0.4375869419
 40
0.4999999909
 40
0.5624130381
 40
0.6248331449
 40
0.6872676443
 40
0.7497250752
 40
0.8122143118
 40
0.87474709
 40
0.9373380944
 40
1.0
 40
1.0
 40
1.0
 40
1.0
 10
7.2607668942
 20
0.8513075864
 30
0.0
 10
7.2652644856
 20
0.8521950327
 30
0.0
 10
7.274282233
 20
0.853831458
 30
0.0
 10
7.287865773
 20
0.8558985414
 30
0.0
 10
7.3014868817
 20
0.8576018778
 30
0.0
 10
7.315136264
 20
0.858964401
 30
0.0
 10
7.3288067104
 20
0.8600037705
 30
0.0
 10
7.3424918758
 20
0.8607361436
 30
0.0
 10
7.3561864267
 20
0.8611704988
 30
0.0
 10
7.3698855003
 20
0.8613152706
 30
0.0
 10
7.3835845745
 20
0.8611705352
 30
0.0
 10
7.3972791252
 20
0.8607361501
 30
0.0
 10
7.4109642887
 20
0.8600037227
 30
0.0
 10
7.4246347334
 20
0.8589643119
 30
0.0
 10
7.4382841152
 20
0.8576017728
 30
0.0
 10
7.4519052263
 20
0.8558984523
 30
0.0
 10
7.4654887749
 20
0.8538314276
 30
0.0
 10
7.4745065284
 20
0.8521950348
 30
0.0
 10
7.479004119
 20
0.8513075864
 30
0.0
  0
SPLINE
  5
419
100
AcDbEntity
  8
0
100
AcDbSpline
 62
7
  6
CONTINUOUS
 70
0
 71
3
 72
23
 73
19
 74
0
 42
0.0000001
 43
0.0000001
 44
0.0000000001
 40
0.0
 40
0.0
 40
0.0
 40
0.0
 40
0.0626619102
 40
0.1252529131
 40
0.1877856887
 40
0.250274919
 40
0.3127323421
 40
0.3751668335
 40
0.4375869421
 40
0.4999999912
 40
0.5624130383
 40
0.6248331451
 40
0.6872676446
 40
0.7497250754
 40
0.8122143119
 40
0.87474709
 40
0.9373380944
 40
1.0
 40
1.0
 40
1.0
 40
1.0
 10
7.2607668942
 20
0.7521156798
 30
0.0
 10
7.2652644856
 20
0.7512282335
 30
0.0
 10
7.2742822331
 20
0.7495918089
 30
0.0
 10
7.2878657732
 20
0.7475247268
 30
0.0
 10
7.301486882
 20
0.7458213907
 30
0.0
 10
7.3151362643
 20
0.7444588673
 30
0.0
 10
7.3288067107
 20
0.7434194974
 30
0.0
 10
7.3424918761
 20
0.7426871243
 30
0.0
 10
7.3561864269
 20
0.7422527687
 30
0.0
 10
7.3698855005
 20
0.7421079953
 30
0.0
 10
7.3835845748
 20
0.7422527295
 30
0.0
 10
7.3972791254
 20
0.7426871159
 30
0.0
 10
7.4109642888
 20
0.7434195446
 30
0.0
 10
7.4246347336
 20
0.7444589544
 30
0.0
 10
7.4382841154
 20
0.7458214926
 30
0.0
 10
7.4519052265
 20
0.7475248131
 30
0.0
 10
7.4654887749
 20
0.7495918384
 30
0.0
 10
7.4745065284
 20
0.7512282314
 30
0.0
 10
7.479004119
 20
0.7521156798
 30
0.0
  0
SPLINE
  5
41A
100
AcDbEntity
  8
0
100
AcDbSpline
 62
7
  6
CONTINUOUS
 70
0
 71
3
 72
23
 73
19
 74
0
 42
0.0000001
 43
0.0000001
 44
0.0000000001
 40
0.0
 40
0.0
 40
0.0
 40
0.0
 40
0.0626619025
 40
0.1252529078
 40
0.1877856911
 40
0.250274927
 40
0.3127323517
 40
0.3751668429
 40
0.4375869467
 40
0.4999999909
 40
0.5624130329
 40
0.6248331354
 40
0.6872676322
 40
0.7497250559
 40
0.8122142913
 40
0.8747470798
 40
0.9373380949
 40
1.0
 40
1.0
 40
1.0
 40
1.0
 10
6.8429402501
 20
0.8513075864
 30
0.0
 10
6.8474378398
 20
0.8521950373
 30
0.0
 10
6.8564555957
 20
0.8538314152
 30
0.0
 10
6.8700391436
 20
0.8558984384
 30
0.0
 10
6.88366025
 20
0.8576017948
 30
0.0
 10
6.8973096307
 20
0.8589643413
 30
0.0
 10
6.9109800752
 20
0.8600037358
 30
0.0
 10
6.9246652386
 20
0.8607361319
 30
0.0
 10
6.9383597875
 20
0.8611705085
 30
0.0
 10
6.9520588595
 20
0.8613152887
 30
0.0
 10
6.9657579322
 20
0.8611705519
 30
0.0
 10
6.9794524808
 20
0.8607361436
 30
0.0
 10
6.9931376419
 20
0.8600037031
 30
0.0
 10
7.0068080861
 20
0.8589643053
 30
0.0
 10
7.0204574686
 20
0.8576017745
 30
0.0
 10
7.0340785776
 20
0.8558984303
 30
0.0
 10
7.0476621283
 20
0.8538314165
 30
0.0
 10
7.0566798853
 20
0.8521950388
 30
0.0
 10
7.0611774749
 20
0.8513075864
 30
0.0
  0
SPLINE
  5
41B
100
AcDbEntity
  8
0
100
AcDbSpline
 62
7
  6
CONTINUOUS
 70
0
 71
3
 72
23
 73
19
 74
0
 42
0.0000001
 43
0.0000001
 44
0.0000000001
 40
0.0
 40
0.0
 40
0.0
 40
0.0
 40
0.0626619024
 40
0.125252908
 40
0.1877856915
 40
0.250274927
 40
0.3127323516
 40
0.3751668433
 40
0.4375869469
 40
0.4999999909
 40
0.5624130331
 40
0.6248331357
 40
0.6872676323
 40
0.749725056
 40
0.8122142915
 40
0.87474708
 40
0.9373380949
 40
1.0
 40
1.0
 40
1.0
 40
1.0
 10
6.8429402501
 20
0.7521156798
 30
0.0
 10
6.8474378398
 20
0.7512282289
 30
0.0
 10
6.8564555957
 20
0.7495918511
 30
0.0
 10
6.8700391436
 20
0.7475248274
 30
0.0
 10
6.88366025
 20
0.7458214703
 30
0.0
 10
6.8973096309
 20
0.7444589261
 30
0.0
 10
6.9109800755
 20
0.7434195336
 30
0.0
 10
6.9246652386
 20
0.7426871336
 30
0.0
 10
6.9383597875
 20
0.742252753
 30
0.0
 10
6.9520588595
 20
0.7421079745
 30
0.0
 10
6.9657579323
 20
0.7422527144
 30
0.0
 10
6.9794524808
 20
0.7426871228
 30
0.0
 10
6.9931376419
 20
0.7434195626
 30
0.0
 10
7.0068080861
 20
0.744458961
 30
0.0
 10
7.0204574685
 20
0.7458214922
 30
0.0
 10
7.0340785776
 20
0.747524836
 30
0.0
 10
7.0476621284
 20
0.7495918496
 30
0.0
 10
7.0566798853
 20
0.7512282274
 30
0.0
 10
7.0611774749
 20
0.7521156798
 30
0.0
  0
LINE
  5
41C
100
AcDbEntity
  8
0
100
AcDbLine
 62
7
  6
CONTINUOUS
 10
6.8155182196
 20
3.377440206
 11
6.8151349616
 21
3.3876758177
  0
LINE
  5
41D
100
AcDbEntity
  8
0
100
AcDbLine
 62
7
  6
CONTINUOUS
 10
7.5064261358
 20
3.5095830667
 11
7.5068094075
 21
3.4993474485
  0
SPLINE
  5
41E
100
AcDbEntity
  8
0
100
AcDbSpline
 62
7
  6
CONTINUOUS
 70
0
 71
3
 72
9
 73
5
 74
0
 42
0.0000001
 43
0.0000001
 44
0.0000000001
 40
0.0
 40
0.0
 40
0.0
 40
0.0
 40
0.4849088715
 40
1.0
 40
1.0
 40
1.0
 40
1.0
 10
7.0642764429
 20
0.8582217337
 30
0.0
 10
7.0654079889
 20
0.8579931303
 30
0.0
 10
7.0677691085
 20
0.8576525107
 30
0.0
 10
7.0701512898
 20
0.8575456158
 30
0.0
 10
7.071377551
 20
0.8575456148
 30
0.0
  0
SPLINE
  5
41F
100
AcDbEntity
  8
0
100
AcDbSpline
 62
7
  6
CONTINUOUS
 70
0
 71
3
 72
23
 73
19
 74
0
 42
0.0000001
 43
0.0000001
 44
0.0000000001
 40
0.0
 40
0.0
 40
0.0
 40
0.0
 40
0.0628753758
 40
0.1256549393
 40
0.188352286
 40
0.2509786586
 40
0.3135434441
 40
0.3760547159
 40
0.4385197773
 40
0.5009456036
 40
0.5633392334
 40
0.625708185
 40
0.6880610401
 40
0.7504076947
 40
0.8127597843
 40
0.8751311325
 40
0.9375380673
 40
1.0
 40
1.0
 40
1.0
 40
1.0
 10
6.8439919842
 20
0.8582217337
 30
0.0
 10
6.848545506
 20
0.8591351071
 30
0.0
 10
6.8576742735
 20
0.8608203085
 30
0.0
 10
6.8714242142
 20
0.8629515161
 30
0.0
 10
6.8852082104
 20
0.8647095333
 30
0.0
 10
6.8990162912
 20
0.8661165081
 30
0.0
 10
6.912840303
 20
0.8671910239
 30
0.0
 10
6.9266733105
 20
0.8679478241
 30
0.0
 10
6.9405093696
 20
0.8683976085
 30
0.0
 10
6.9543432126
 20
0.8685468674
 30
0.0
 10
6.9681699598
 20
0.868397773
 30
0.0
 10
6.9819848387
 20
0.8679481234
 30
0.0
 10
6.9957828973
 20
0.8671914552
 30
0.0
 10
7.0095587126
 20
0.8661170626
 30
0.0
 10
7.0233060547
 20
0.8647101897
 30
0.0
 10
7.0370176317
 20
0.8629522303
 30
0.0
 10
7.0506844726
 20
0.8608210558
 30
0.0
 10
7.0597541251
 20
0.8591353697
 30
0.0
 10
7.0642764429
 20
0.8582217337
 30
0.0
  0
SPLINE
  5
420
100
AcDbEntity
  8
0
100
AcDbSpline
 62
7
  6
CONTINUOUS
 70
0
 71
3
 72
11
 73
7
 74
0
 42
0.0000001
 43
0.0000001
 44
0.0000000001
 40
0.0
 40
0.0
 40
0.0
 40
0.0
 40
0.2243258746
 40
0.466849889
 40
0.7260252849
 40
1.0
 40
1.0
 40
1.0
 40
1.0
 10
6.8380613668
 20
0.8575456148
 30
0.0
 10
6.8385083629
 20
0.8575456152
 30
0.0
 10
6.839438761
 20
0.8575780772
 30
0.0
 10
6.8408800492
 20
0.8577096468
 30
0.0
 10
6.8424112801
 20
0.8579237824
 30
0.0
 10
6.8434567188
 20
0.8581143671
 30
0.0
 10
6.8439919842
 20
0.8582217337
 30
0.0
  0
SPLINE
  5
421
100
AcDbEntity
  8
0
100
AcDbSpline
 62
7
  6
CONTINUOUS
 70
0
 71
3
 72
15
 73
11
 74
0
 42
0.0000001
 43
0.0000001
 44
0.0000000001
 40
0.0
 40
0.0
 40
0.0
 40
0.0
 40
0.102429414
 40
0.1978615503
 40
0.2939853967
 40
0.3985972219
 40
0.5179640987
 40
0.6563730987
 40
0.8165383698
 40
1.0
 40
1.0
 40
1.0
 40
1.0
 10
6.7469240425
 20
0.8582175517
 30
0.0
 10
6.7469222027
 20
0.858165875
 30
0.0
 10
6.7469292082
 20
0.8580649976
 30
0.0
 10
6.7469810092
 20
0.8579235884
 30
0.0
 10
6.747074138
 20
0.8578037451
 30
0.0
 10
6.7472059873
 20
0.8577074475
 30
0.0
 10
6.7473746606
 20
0.8576338713
 30
0.0
 10
6.7475798766
 20
0.8575819738
 30
0.0
 10
6.7478217364
 20
0.8575514277
 30
0.0
 10
6.7479953294
 20
0.857545615
 30
0.0
 10
6.7480879463
 20
0.8575456148
 30
0.0
  0
SPLINE
  5
422
100
AcDbEntity
  8
0
100
AcDbSpline
 62
7
  6
CONTINUOUS
 70
0
 71
3
 72
16
 73
12
 74
0
 42
0.0000001
 43
0.0000001
 44
0.0000000001
 40
0.0
 40
0.0
 40
0.0
 40
0.0
 40
0.125400304
 40
0.2506004983
 40
0.3756519597
 40
0.5005996691
 40
0.6254786034
 40
0.7503195111
 40
0.8127361323
 40
0.8751534164
 40
1.0
 40
1.0
 40
1.0
 40
1.0
 10
7.4351689587
 20
3.4924464284
 30
0.0
 10
7.4300648051
 20
3.4935440089
 30
0.0
 10
7.4198190282
 20
3.4955301739
 30
0.0
 10
7.4043611048
 20
3.497928195
 30
0.0
 10
7.3888479587
 20
3.4997842448
 30
0.0
 10
7.3732963313
 20
3.5011331022
 30
0.0
 10
7.3577195468
 20
3.5020013695
 30
0.0
 10
7.3447266714
 20
3.502339925
 30
0.0
 10
7.334331645
 20
3.5023834659
 30
0.0
 10
7.3239369159
 20
3.5022762613
 30
0.0
 10
7.3161430662
 20
3.5020248437
 30
0.0
 10
7.3109510591
 20
3.5017800043
 30
0.0
  0
SPLINE
  5
423
100
AcDbEntity
  8
0
100
AcDbSpline
 62
7
  6
CONTINUOUS
 70
0
 71
3
 72
16
 73
12
 74
0
 42
0.0000001
 43
0.0000001
 44
0.0000000001
 40
0.0
 40
0.0
 40
0.0
 40
0.0
 40
0.1248465883
 40
0.1872638749
 40
0.2496804986
 40
0.3745214194
 40
0.4994003542
 40
0.6243480552
 40
0.7493995054
 40
0.8745996913
 40
1.0
 40
1.0
 40
1.0
 40
1.0
 10
7.3109510602
 20
3.3852432456
 30
0.0
 10
7.3161430663
 20
3.3849983951
 30
0.0
 10
7.3239369153
 20
3.3847469672
 30
0.0
 10
7.3343316439
 20
3.3846397893
 30
0.0
 10
7.3447266696
 20
3.3846834015
 30
0.0
 10
7.3577195404
 20
3.3850220756
 30
0.0
 10
7.3732963215
 20
3.3858903482
 30
0.0
 10
7.3888479526
 20
3.3872391242
 30
0.0
 10
7.4043611059
 20
3.3890950907
 30
0.0
 10
7.4198190314
 20
3.3914930859
 30
0.0
 10
7.4300648054
 20
3.3934792581
 30
0.0
 10
7.4351689587
 20
3.3945768378
 30
0.0
  0
SPLINE
  5
424
100
AcDbEntity
  8
0
100
AcDbSpline
 62
7
  6
CONTINUOUS
 70
0
 71
3
 72
23
 73
19
 74
0
 42
0.0000001
 43
0.0000001
 44
0.0000000001
 40
0.0
 40
0.0
 40
0.0
 40
0.0
 40
0.2121203198
 40
0.405638155
 40
0.5766766127
 40
0.7218068333
 40
0.7837390588
 40
0.8381712031
 40
0.8848498646
 40
0.9052174635
 40
0.92357679
 40
0.9542202819
 40
0.966501879
 40
0.9767741974
 40
0.9850792783
 40
0.9915128144
 40
0.9963018992
 40
1.0
 40
1.0
 40
1.0
 40
1.0
 10
6.9517526399
 20
2.9176342167
 30
0.0
 10
6.9515938576
 20
2.9179271266
 30
0.0
 10
6.9512929102
 20
2.9184887254
 30
0.0
 10
6.9508743274
 20
2.9192920246
 30
0.0
 10
6.9505145317
 20
2.9200072172
 30
0.0
 10
6.9502574552
 20
2.920542646
 30
0.0
 10
6.950087683
 20
2.9209166663
 30
0.0
 10
6.9499859742
 20
2.9211517125
 30
0.0
 10
6.9499142405
 20
2.92132855
 30
0.0
 10
6.9498669813
 20
2.9214541089
 30
0.0
 10
6.949830707
 20
2.9215568505
 30
0.0
 10
6.9498016372
 20
2.9216487047
 30
0.0
 10
6.9497816493
 20
2.9217298721
 30
0.0
 10
6.9497728213
 20
2.9217775638
 30
0.0
 10
6.9497688967
 20
2.9218167341
 30
0.0
 10
6.9497699625
 20
2.9218474957
 30
0.0
 10
6.9497758345
 20
2.9218705517
 30
0.0
 10
6.9497849783
 20
2.9218813194
 30
0.0
 10
6.9497900096
 20
2.9218842223
 30
0.0
  0
SPLINE
  5
425
100
AcDbEntity
  8
0
100
AcDbSpline
 62
7
  6
CONTINUOUS
 70
0
 71
3
 72
23
 73
19
 74
0
 42
0.0000001
 43
0.0000001
 44
0.0000000001
 40
0.0
 40
0.0
 40
0.0
 40
0.0
 40
0.2121171004
 40
0.4056327319
 40
0.576670035
 40
0.7218001568
 40
0.7837327213
 40
0.8381654543
 40
0.8848449419
 40
0.9052130367
 40
0.9235729099
 40
0.954217627
 40
0.9664998825
 40
0.9767728689
 40
0.9850785953
 40
0.9915126889
 40
0.9963020976
 40
1.0
 40
1.0
 40
1.0
 40
1.0
 10
6.8182121517
 20
2.5989741554
 30
0.0
 10
6.8178790896
 20
2.5989830996
 30
0.0
 10
6.8172422491
 20
2.5990032681
 30
0.0
 10
6.8163372671
 20
2.5990424091
 30
0.0
 10
6.8155379788
 20
2.599088407
 30
0.0
 10
6.8149457314
 20
2.5991334806
 30
0.0
 10
6.8145369217
 20
2.5991734583
 30
0.0
 10
6.8142825015
 20
2.5992028951
 30
0.0
 10
6.8140934805
 20
2.5992291872
 30
0.0
 10
6.8139611067
 20
2.599251036
 30
0.0
 10
6.8138539858
 20
2.5992709898
 30
0.0
 10
6.8137598958
 20
2.5992917391
 30
0.0
 10
6.8136796016
 20
2.5993150096
 30
0.0
 10
6.81363388
 20
2.599331208
 30
0.0
 10
6.81359799
 20
2.5993473922
 30
0.0
 10
6.8135718774
 20
2.5993636938
 30
0.0
 10
6.8135548415
 20
2.599380304
 30
0.0
 10
6.8135500831
 20
2.5993936052
 30
0.0
 10
6.8135500829
 20
2.5993994137
 30
0.0
  0
SPLINE
  5
426
100
AcDbEntity
  8
0
100
AcDbSpline
 62
7
  6
CONTINUOUS
 70
0
 71
3
 72
20
 73
16
 74
0
 42
0.0000001
 43
0.0000001
 44
0.0000000001
 40
0.0
 40
0.0
 40
0.0
 40
0.0
 40
0.202491282
 40
0.3870314867
 40
0.5505167549
 40
0.623531819
 40
0.6903574267
 40
0.7507761694
 40
0.8046364639
 40
0.8518672732
 40
0.8925148327
 40
0.9268098501
 40
0.9552901718
 40
0.979041852
 40
1.0
 40
1.0
 40
1.0
 40
1.0
 10
6.8178258649
 20
2.7561375871
 30
0.0
 10
6.8175172522
 20
2.7561093439
 30
0.0
 10
6.8169280916
 20
2.7560469639
 30
0.0
 10
6.8160936365
 20
2.7559293079
 30
0.0
 10
6.8154596371
 20
2.7558124373
 30
0.0
 10
6.8150071344
 20
2.7557084672
 30
0.0
 10
6.8147108318
 20
2.7556298489
 30
0.0
 10
6.8144459214
 20
2.7555480157
 30
0.0
 10
6.8142135528
 20
2.7554633598
 30
0.0
 10
6.8140146716
 20
2.7553762798
 30
0.0
 10
6.8138499912
 20
2.7552871228
 30
0.0
 10
6.8137199041
 20
2.7551961264
 30
0.0
 10
6.8136245863
 20
2.7551030036
 30
0.0
 10
6.8135645238
 20
2.7550066626
 30
0.0
 10
6.8135500604
 20
2.7549377914
 30
0.0
 10
6.8135500598
 20
2.754905716
 30
0.0
  0
SPLINE
  5
427
100
AcDbEntity
  8
0
100
AcDbSpline
 62
7
  6
CONTINUOUS
 70
0
 71
3
 72
16
 73
12
 74
0
 42
0.0000001
 43
0.0000001
 44
0.0000000001
 40
0.0
 40
0.0
 40
0.0
 40
0.0
 40
0.1248464609
 40
0.1872637106
 40
0.24968031
 40
0.3745212239
 40
0.4994001843
 40
0.6243479343
 40
0.7493994508
 40
0.8745996972
 40
1.0
 40
1.0
 40
1.0
 40
1.0
 10
7.0109519247
 20
3.5017819337
 30
0.0
 10
7.005761626
 20
3.5020262782
 30
0.0
 10
6.9979703518
 20
3.5022770479
 30
0.0
 10
6.9875790721
 20
3.5023835194
 30
0.0
 10
6.9771874997
 20
3.5023393124
 30
0.0
 10
6.9641989577
 20
3.5020000723
 30
0.0
 10
6.9486273784
 20
3.5011314238
 30
0.0
 10
6.9330809513
 20
3.4997825081
 30
0.0
 10
6.9175729936
 20
3.4979266912
 30
0.0
 10
6.9021202347
 20
3.4955292189
 30
0.0
 10
6.8918778697
 20
3.4935436476
 30
0.0
 10
6.8867754104
 20
3.4924464284
 30
0.0
  0
SPLINE
  5
428
100
AcDbEntity
  8
0
100
AcDbSpline
 62
7
  6
CONTINUOUS
 70
0
 71
3
 72
23
 73
19
 74
0
 42
0.0000001
 43
0.0000001
 44
0.0000000001
 40
0.0
 40
0.0
 40
0.0
 40
0.0
 40
0.2121131306
 40
0.405625821
 40
0.5766612833
 40
0.7217907197
 40
0.7837233886
 40
0.83815653
 40
0.8848367351
 40
0.9052053068
 40
0.923565737
 40
0.9542118145
 40
0.9664948786
 40
0.9767687631
 40
0.9850754788
 40
0.9915106468
 40
0.9963011662
 40
1.0
 40
1.0
 40
1.0
 40
1.0
 10
7.0274096159
 20
2.3239946695
 30
0.0
 10
7.0272353357
 20
2.3237106997
 30
0.0
 10
7.0268994417
 20
2.3231692603
 30
0.0
 10
7.0264130405
 20
2.322405088
 30
0.0
 10
7.0259735456
 20
2.3217358766
 30
0.0
 10
7.0256383723
 20
2.3212455066
 30
0.0
 10
7.025399333
 20
2.3209114512
 30
0.0
 10
7.02524662
 20
2.3207058312
 30
0.0
 10
7.0251293314
 20
2.3205552769
 30
0.0
 10
7.0250442158
 20
2.3204515597
 30
0.0
 10
7.024973368
 20
2.3203687641
 30
0.0
 10
7.0249083464
 20
2.3202976515
 30
0.0
 10
7.0248480391
 20
2.3202397472
 30
0.0
 10
7.0248111446
 20
2.3202082482
 30
0.0
 10
7.0247791781
 20
2.3201852564
 30
0.0
 10
7.0247519988
 20
2.3201707909
 30
0.0
 10
7.0247290909
 20
2.3201643408
 30
0.0
 10
7.0247151888
 20
2.3201668685
 30
0.0
 10
7.0247101562
 20
2.3201697718
 30
0.0
  0
SPLINE
  5
429
100
AcDbEntity
  8
0
100
AcDbSpline
 62
7
  6
CONTINUOUS
 70
0
 71
3
 72
20
 73
16
 74
0
 42
0.0000001
 43
0.0000001
 44
0.0000000001
 40
0.0
 40
0.0
 40
0.0
 40
0.0
 40
0.2024905562
 40
0.3870305706
 40
0.5505161325
 40
0.6235314976
 40
0.6903574898
 40
0.7507766786
 40
0.8046374513
 40
0.8518687292
 40
0.8925166855
 40
0.9268119324
 40
0.9552921664
 40
0.9790432238
 40
1.0
 40
1.0
 40
1.0
 40
1.0
 10
6.8911087901
 20
2.4022417875
 30
0.0
 10
6.8909789398
 20
2.4019603979
 30
0.0
 10
6.8907383751
 20
2.4014189764
 30
0.0
 10
6.8904230277
 20
2.4006374838
 30
0.0
 10
6.8902072283
 20
2.4000299842
 30
0.0
 10
6.8900710064
 20
2.3995861161
 30
0.0
 10
6.8899909319
 20
2.3992901979
 30
0.0
 10
6.8899293374
 20
2.3990198586
 30
0.0
 10
6.889886458
 20
2.3987762898
 30
0.0
 10
6.8898624213
 20
2.39856051
 30
0.0
 10
6.8898572836
 20
2.3983733103
 30
0.0
 10
6.8898710351
 20
2.3982151498
 30
0.0
 10
6.8899040124
 20
2.3980860373
 30
0.0
 10
6.8899574034
 20
2.3979858473
 30
0.0
 10
6.8900098091
 20
2.3979388816
 30
0.0
 10
6.8900375839
 20
2.3979228417
 30
0.0
  0
SPLINE
  5
42A
100
AcDbEntity
  8
0
100
AcDbSpline
 62
7
  6
CONTINUOUS
 70
0
 71
3
 72
23
 73
19
 74
0
 42
0.0000001
 43
0.0000001
 44
0.0000000001
 40
0.0
 40
0.0
 40
0.0
 40
0.0
 40
0.2121123799
 40
0.4056243325
 40
0.5766591085
 40
0.7217879581
 40
0.7837203926
 40
0.8381533537
 40
0.8848334502
 40
0.9052020031
 40
0.9235624438
 40
0.9542086566
 40
0.9664918711
 40
0.9767659856
 40
0.9850730454
 40
0.9915087306
 40
0.9963000368
 40
1.0
 40
1.0
 40
1.0
 40
1.0
 10
7.3701475683
 20
2.3676752449
 30
0.0
 10
7.3703063502
 20
2.3673823277
 30
0.0
 10
7.3706072967
 20
2.3668207127
 30
0.0
 10
7.3710258757
 20
2.3660173854
 30
0.0
 10
7.3713856671
 20
2.3653021597
 30
0.0
 10
7.3716427384
 20
2.3647667
 30
0.0
 10
7.3718125059
 20
2.3643926529
 30
0.0
 10
7.3719142119
 20
2.3641575856
 30
0.0
 10
7.3719859427
 20
2.36398073
 30
0.0
 10
7.3720331995
 20
2.3638551563
 30
0.0
 10
7.3720694721
 20
2.3637523997
 30
0.0
 10
7.3720985398
 20
2.3636605301
 30
0.0
 10
7.3721185251
 20
2.3635793474
 30
0.0
 10
7.3721273514
 20
2.363531644
 30
0.0
 10
7.3721312742
 20
2.363492462
 30
0.0
 10
7.3721302067
 20
2.3634616886
 30
0.0
 10
7.3721243325
 20
2.3634386221
 30
0.0
 10
7.3721151886
 20
2.363427846
 30
0.0
 10
7.3721101562
 20
2.3634249386
 30
0.0
  0
SPLINE
  5
42B
100
AcDbEntity
  8
0
100
AcDbSpline
 62
7
  6
CONTINUOUS
 70
0
 71
3
 72
20
 73
16
 74
0
 42
0.0000001
 43
0.0000001
 44
0.0000000001
 40
0.0
 40
0.0
 40
0.0
 40
0.0
 40
0.2024933572
 40
0.3870356318
 40
0.5505228149
 40
0.6235387156
 40
0.6903650404
 40
0.7507843407
 40
0.8046449817
 40
0.8518758571
 40
0.8925231053
 40
0.9268172958
 40
0.9552960823
 40
0.9790453004
 40
1.0
 40
1.0
 40
1.0
 40
1.0
 10
7.2342330055
 20
2.2887587626
 30
0.0
 10
7.2344117677
 20
2.2885056131
 30
0.0
 10
7.2347603629
 20
2.2880265647
 30
0.0
 10
7.2352794686
 20
2.2873627146
 30
0.0
 10
7.2356976662
 20
2.2868720716
 30
0.0
 10
7.2360139452
 20
2.2865321611
 30
0.0
 10
7.2362301719
 20
2.286314852
 30
0.0
 10
7.2364334862
 20
2.2861263364
 30
0.0
 10
7.2366229739
 20
2.2859674137
 30
0.0
 10
7.2367978166
 20
2.2858387036
 30
0.0
 10
7.2369573573
 20
2.2857406505
 30
0.0
 10
7.2371011938
 20
2.2856734753
 30
0.0
 10
7.2372294866
 20
2.2856374739
 30
0.0
 10
7.237342939
 20
2.285633612
 30
0.0
 10
7.237409809
 20
2.285655511
 30
0.0
 10
7.2374375839
 20
2.2856715434
 30
0.0
  0
SPLINE
  5
42C
100
AcDbEntity
  8
0
100
AcDbSpline
 62
7
  6
CONTINUOUS
 70
0
 71
3
 72
23
 73
19
 74
0
 42
0.0000001
 43
0.0000001
 44
0.0000000001
 40
0.0
 40
0.0
 40
0.0
 40
0.0
 40
0.2121155856
 40
0.4056297297
 40
0.5766656501
 40
0.7217945912
 40
0.7837266843
 40
0.8381590554
 40
0.8848383259
 40
0.9052063833
 40
0.9235662784
 40
0.9542112696
 40
0.9664938286
 40
0.9767672789
 40
0.9850736984
 40
0.9915088333
 40
0.9962998254
 40
1.0
 40
1.0
 40
1.0
 40
1.0
 10
7.5036880566
 20
2.6863353062
 30
0.0
 10
7.5040211177
 20
2.6863263557
 30
0.0
 10
7.5046579559
 20
2.6863061729
 30
0.0
 10
7.5055629342
 20
2.6862670042
 30
0.0
 10
7.506362218
 20
2.6862209738
 30
0.0
 10
7.5069544611
 20
2.6861758683
 30
0.0
 10
7.5073632667
 20
2.6861358623
 30
0.0
 10
7.5076176841
 20
2.6861064047
 30
0.0
 10
7.5078067025
 20
2.686080094
 30
0.0
 10
7.507939074
 20
2.6860582298
 30
0.0
 10
7.5080461932
 20
2.6860382618
 30
0.0
 10
7.5081402814
 20
2.6860174977
 30
0.0
 10
7.5082205731
 20
2.6859942108
 30
0.0
 10
7.5082662933
 20
2.6859780008
 30
0.0
 10
7.508302182
 20
2.6859618048
 30
0.0
 10
7.5083282936
 20
2.6859454913
 30
0.0
 10
7.5083453279
 20
2.6859288677
 30
0.0
 10
7.5083500831
 20
2.6859155593
 30
0.0
 10
7.5083500829
 20
2.6859097472
 30
0.0
  0
SPLINE
  5
42D
100
AcDbEntity
  8
0
100
AcDbSpline
 62
7
  6
CONTINUOUS
 70
0
 71
3
 72
20
 73
16
 74
0
 42
0.0000001
 43
0.0000001
 44
0.0000000001
 40
0.0
 40
0.0
 40
0.0
 40
0.0
 40
0.202496887
 40
0.3870416149
 40
0.5505301272
 40
0.6235462632
 40
0.6903725369
 40
0.7507915027
 40
0.8046515336
 40
0.8518815377
 40
0.8925276802
 40
0.9268205835
 40
0.9552980084
 40
0.9790460076
 40
1.0
 40
1.0
 40
1.0
 40
1.0
 10
7.5040742956
 20
2.5291715373
 30
0.0
 10
7.504382907
 20
2.5291997738
 30
0.0
 10
7.5049720646
 20
2.529262139
 30
0.0
 10
7.5058065154
 20
2.5293797673
 30
0.0
 10
7.5064405113
 20
2.5294966105
 30
0.0
 10
7.5068930112
 20
2.5296005563
 30
0.0
 10
7.507189311
 20
2.5296791561
 30
0.0
 10
7.5074542185
 20
2.5297609701
 30
0.0
 10
7.5076865841
 20
2.529845606
 30
0.0
 10
7.5078854621
 20
2.5299326652
 30
0.0
 10
7.5080501392
 20
2.530021801
 30
0.0
 10
7.508180223
 20
2.5301127754
 30
0.0
 10
7.5082755378
 20
2.5302058756
 30
0.0
 10
7.5083355984
 20
2.5303021941
 30
0.0
 10
7.5083500604
 20
2.5303710515
 30
0.0
 10
7.5083500598
 20
2.5304031194
 30
0.0
  0
SPLINE
  5
42E
100
AcDbEntity
  8
0
100
AcDbSpline
 62
7
  6
CONTINUOUS
 70
0
 71
3
 72
20
 73
16
 74
0
 42
0.0000001
 43
0.0000001
 44
0.0000000001
 40
0.0
 40
0.0
 40
0.0
 40
0.0
 40
0.2024976155
 40
0.3870425361
 40
0.5505307566
 40
0.6235465922
 40
0.6903724819
 40
0.7507910019
 40
0.8046505544
 40
0.8518800894
 40
0.8925258343
 40
0.926818507
 40
0.9552960179
 40
0.9790446379
 40
1.0
 40
1.0
 40
1.0
 40
1.0
 10
7.4307913704
 20
2.8830673368
 30
0.0
 10
7.4309212193
 20
2.8833487188
 30
0.0
 10
7.431161781
 20
2.8838901234
 30
0.0
 10
7.4314771245
 20
2.8846715879
 30
0.0
 10
7.4316929206
 20
2.8852790613
 30
0.0
 10
7.4318291396
 20
2.8857229064
 30
0.0
 10
7.4319092114
 20
2.886018806
 30
0.0
 10
7.4319708033
 20
2.886289126
 30
0.0
 10
7.43201368
 20
2.8865326748
 30
0.0
 10
7.4320377138
 20
2.8867484341
 30
0.0
 10
7.4320428488
 20
2.8869356128
 30
0.0
 10
7.4320290944
 20
2.8870937522
 30
0.0
 10
7.4319961142
 20
2.8872228439
 30
0.0
 10
7.4319427187
 20
2.8873230134
 30
0.0
 10
7.4318903106
 20
2.887369962
 30
0.0
 10
7.4318625358
 20
2.8873859938
 30
0.0
  0
SPLINE
  5
42F
100
AcDbEntity
  8
0
100
AcDbSpline
 62
7
  6
CONTINUOUS
 70
0
 71
3
 72
16
 73
12
 74
0
 42
0.0000001
 43
0.0000001
 44
0.0000000001
 40
0.0
 40
0.0
 40
0.0
 40
0.0
 40
0.1254003002
 40
0.2506005361
 40
0.3756520511
 40
0.5005998044
 40
0.6254787666
 40
0.7503196811
 40
0.8127362834
 40
0.875153535
 40
1.0
 40
1.0
 40
1.0
 40
1.0
 10
6.8867754104
 20
3.3945768378
 30
0.0
 10
6.8918778699
 20
3.39347962
 30
0.0
 10
6.9021202352
 20
3.3914940535
 30
0.0
 10
6.9175729918
 20
3.38909657
 30
0.0
 10
6.9330809499
 20
3.3872407581
 30
0.0
 10
6.948627378
 20
3.3858918519
 30
0.0
 10
6.9641989572
 20
3.3850231973
 30
0.0
 10
6.9771874996
 20
3.3846839614
 30
0.0
 10
6.9875790721
 20
3.3846397451
 30
0.0
 10
6.9979703523
 20
3.3847462068
 30
0.0
 10
7.0057616271
 20
3.3849969715
 30
0.0
 10
7.0109519258
 20
3.3852413207
 30
0.0
  0
LINE
  5
430
100
AcDbEntity
  8
0
100
AcDbLine
 62
7
  6
CONTINUOUS
 10
7.5750203266
 20
0.8582175517
 11
7.5745999369
 21
0.8684362923
  0
SPLINE
  5
431
100
AcDbEntity
  8
0
100
AcDbSpline
 62
7
  6
CONTINUOUS
 70
0
 71
3
 72
15
 73
11
 74
0
 42
0.0000001
 43
0.0000001
 44
0.0000000001
 40
0.0
 40
0.0
 40
0.0
 40
0.0
 40
0.1834618503
 40
0.3436270307
 40
0.482035342
 40
0.6014019995
 40
0.7060143331
 40
0.8021383356
 40
0.8975704874
 40
1.0
 40
1.0
 40
1.0
 40
1.0
 10
7.5738564228
 20
0.8575456148
 30
0.0
 10
7.5739490398
 20
0.857545615
 30
0.0
 10
7.5741226328
 20
0.8575514275
 30
0.0
 10
7.5743644923
 20
0.8575819735
 30
0.0
 10
7.5745697074
 20
0.8576338722
 30
0.0
 10
7.5747383799
 20
0.8577074495
 30
0.0
 10
7.5748702302
 20
0.8578037455
 30
0.0
 10
7.5749633613
 20
0.8579235877
 30
0.0
 10
7.5750151611
 20
0.8580649977
 30
0.0
 10
7.5750221661
 20
0.8581658749
 30
0.0
 10
7.5750203266
 20
0.8582175517
 30
0.0
  0
SPLINE
  5
432
100
AcDbEntity
  8
0
100
AcDbSpline
 62
7
  6
CONTINUOUS
 70
0
 71
3
 72
11
 73
7
 74
0
 42
0.0000001
 43
0.0000001
 44
0.0000000001
 40
0.0
 40
0.0
 40
0.0
 40
0.0
 40
0.2739747669
 40
0.5331501885
 40
0.7756742354
 40
1.0
 40
1.0
 40
1.0
 40
1.0
 10
7.4779523849
 20
0.8582217337
 30
0.0
 10
7.4784876504
 20
0.858114367
 30
0.0
 10
7.4795330893
 20
0.8579237825
 30
0.0
 10
7.4810643204
 20
0.8577096469
 30
0.0
 10
7.4825056084
 20
0.8575780767
 30
0.0
 10
7.4834360064
 20
0.8575456153
 30
0.0
 10
7.4838830023
 20
0.8575456148
 30
0.0
  0
SPLINE
  5
433
100
AcDbEntity
  8
0
100
AcDbSpline
 62
7
  6
CONTINUOUS
 70
0
 71
3
 72
15
 73
11
 74
0
 42
0.0000001
 43
0.0000001
 44
0.0000000001
 40
0.0
 40
0.0
 40
0.0
 40
0.0
 40
0.1245768953
 40
0.2492204844
 40
0.3739572237
 40
0.4988121553
 40
0.6238115683
 40
0.7489847826
 40
0.8743665376
 40
1.0
 40
1.0
 40
1.0
 40
1.0
 10
7.0109515881
 20
3.5090942063
 30
0.0
 10
7.0058105296
 20
3.5093165504
 30
0.0
 10
6.9955184155
 20
3.5096082378
 30
0.0
 10
6.9800694068
 20
3.5095950961
 30
0.0
 10
6.9646156862
 20
3.5091311602
 30
0.0
 10
6.9491678058
 20
3.5082073488
 30
0.0
 10
6.9337375836
 20
3.5068060291
 30
0.0
 10
6.918339025
 20
3.5049016467
 30
0.0
 10
6.9029895451
 20
3.5024614878
 30
0.0
 10
6.8928140429
 20
3.5004536987
 30
0.0
 10
6.8877438161
 20
3.4993474485
 30
0.0
  0
SPLINE
  5
434
100
AcDbEntity
  8
0
100
AcDbSpline
 62
7
  6
CONTINUOUS
 70
0
 71
3
 72
11
 73
7
 74
0
 42
0.0000001
 43
0.0000001
 44
0.0000000001
 40
0.0
 40
0.0
 40
0.0
 40
0.0
 40
0.2770361602
 40
0.5374899627
 40
0.7791010371
 40
1.0
 40
1.0
 40
1.0
 40
1.0
 10
6.8877438161
 20
3.4993474485
 30
0.0
 10
6.8871585113
 20
3.4992197446
 30
0.0
 10
6.8860182398
 20
3.4989927174
 30
0.0
 10
6.8843525021
 20
3.4987360832
 30
0.0
 10
6.8827964252
 20
3.4985777965
 30
0.0
 10
6.8817961076
 20
3.4985381034
 30
0.0
 10
6.8813184267
 20
3.4985381029
 30
0.0
  0
SPLINE
  5
435
100
AcDbEntity
  8
0
100
AcDbSpline
 62
7
  6
CONTINUOUS
 70
0
 71
3
 72
15
 73
11
 74
0
 42
0.0000001
 43
0.0000001
 44
0.0000000001
 40
0.0
 40
0.0
 40
0.0
 40
0.0
 40
0.183545976
 40
0.343895577
 40
0.4825538216
 40
0.6021689181
 40
0.7069522857
 40
0.8030598995
 40
0.8981998154
 40
1.0
 40
1.0
 40
1.0
 40
1.0
 10
6.8165453601
 20
3.4985381029
 30
0.0
 10
6.8164333816
 20
3.4985381032
 30
0.0
 10
6.8162234304
 20
3.4985451367
 30
0.0
 10
6.8159308353
 20
3.4985821072
 30
0.0
 10
6.8156824058
 20
3.4986448205
 30
0.0
 10
6.8154781122
 20
3.4987336844
 30
0.0
 10
6.8153182821
 20
3.4988497629
 30
0.0
 10
6.8152052001
 20
3.4989940348
 30
0.0
 10
6.8151419111
 20
3.4991640519
 30
0.0
 10
6.8151329653
 20
3.4992853739
 30
0.0
 10
6.8151349616
 20
3.4993474485
 30
0.0
  0
LINE
  5
436
100
AcDbEntity
  8
0
100
AcDbLine
 62
7
  6
CONTINUOUS
 10
6.8151349616
 20
3.4993474485
 11
6.8155182333
 21
3.5095830668
  0
SPLINE
  5
437
100
AcDbEntity
  8
0
100
AcDbSpline
 62
7
  6
CONTINUOUS
 70
0
 71
3
 72
15
 73
11
 74
0
 42
0.0000001
 43
0.0000001
 44
0.0000000001
 40
0.0
 40
0.0
 40
0.0
 40
0.0
 40
0.1018001962
 40
0.1969401281
 40
0.2930477614
 40
0.3978310679
 40
0.5174460515
 40
0.656104225
 40
0.8164539215
 40
1.0
 40
1.0
 40
1.0
 40
1.0
 10
6.8151349616
 20
3.3876758177
 30
0.0
 10
6.8151329651
 20
3.3877378923
 30
0.0
 10
6.8151419111
 20
3.3878592143
 30
0.0
 10
6.8152052007
 20
3.3880292313
 30
0.0
 10
6.8153182826
 20
3.3881735031
 30
0.0
 10
6.8154781124
 20
3.3882895818
 30
0.0
 10
6.8156824057
 20
3.3883784459
 30
0.0
 10
6.815930835
 20
3.3884411594
 30
0.0
 10
6.8162234303
 20
3.3884781297
 30
0.0
 10
6.8164333815
 20
3.3884851629
 30
0.0
 10
6.8165453601
 20
3.3884851633
 30
0.0
  0
LINE
  5
438
100
AcDbEntity
  8
0
100
AcDbLine
 62
7
  6
CONTINUOUS
 10
6.7473444134
 20
0.7349869826
 11
6.7469240425
 21
0.7452057145
  0
SPLINE
  5
439
100
AcDbEntity
  8
0
100
AcDbSpline
 62
7
  6
CONTINUOUS
 70
0
 71
3
 72
11
 73
7
 74
0
 42
0.0000001
 43
0.0000001
 44
0.0000000001
 40
0.0
 40
0.0
 40
0.0
 40
0.0
 40
0.2208991641
 40
0.4625097736
 40
0.7229634414
 40
1.0
 40
1.0
 40
1.0
 40
1.0
 10
6.8813184267
 20
3.3884851633
 30
0.0
 10
6.881796108
 20
3.3884851615
 30
0.0
 10
6.8827964248
 20
3.3884454667
 30
0.0
 10
6.8843525012
 20
3.3882871834
 30
0.0
 10
6.8860182386
 20
3.38803055
 30
0.0
 10
6.8871585106
 20
3.3878035227
 30
0.0
 10
6.8877438161
 20
3.3876758177
 30
0.0
  0
SPLINE
  5
43A
100
AcDbEntity
  8
0
100
AcDbSpline
 62
7
  6
CONTINUOUS
 70
0
 71
3
 72
15
 73
11
 74
0
 42
0.0000001
 43
0.0000001
 44
0.0000000001
 40
0.0
 40
0.0
 40
0.0
 40
0.0
 40
0.1256334989
 40
0.2510152181
 40
0.3761885171
 40
0.5011878581
 40
0.626042871
 40
0.7507795791
 40
0.875423126
 40
1.0
 40
1.0
 40
1.0
 40
1.0
 10
6.8877438161
 20
3.3876758177
 30
0.0
 10
6.8928140459
 20
3.3865695678
 30
0.0
 10
6.9029895487
 20
3.3845617678
 30
0.0
 10
6.9183390385
 20
3.3821216238
 30
0.0
 10
6.9337375972
 20
3.3802172184
 30
0.0
 10
6.9491678293
 20
3.3788159211
 30
0.0
 10
6.9646157112
 20
3.3778920884
 30
0.0
 10
6.9800694367
 20
3.3774281613
 30
0.0
 10
6.995518445
 20
3.3774150285
 30
0.0
 10
7.0058105595
 20
3.3777067065
 30
0.0
 10
7.0109516181
 20
3.3779290594
 30
0.0
  0
SPLINE
  5
43B
100
AcDbEntity
  8
0
100
AcDbSpline
 62
7
  6
CONTINUOUS
 70
0
 71
3
 72
21
 73
17
 74
0
 42
0.0000001
 43
0.0000001
 44
0.0000000001
 40
0.0
 40
0.0
 40
0.0
 40
0.0
 40
0.1248589011
 40
0.1872317806
 40
0.2495856287
 40
0.3119338477
 40
0.3742884039
 40
0.4366590333
 40
0.4990542539
 40
0.5614817147
 40
0.6239484515
 40
0.6864613829
 40
0.7490277658
 40
0.811655761
 40
0.8743548283
 40
1.0
 40
1.0
 40
1.0
 40
1.0
 10
7.2576679262
 20
0.8582217337
 30
0.0
 10
7.2667076229
 20
0.8600479977
 30
0.0
 10
7.2803518032
 20
0.8623656041
 30
0.0
 10
7.298638133
 20
0.8647102276
 30
0.0
 10
7.3123856858
 20
0.8661170427
 30
0.0
 10
7.3261614495
 20
0.8671914841
 30
0.0
 10
7.3399595276
 20
0.8679481209
 30
0.0
 10
7.3537744067
 20
0.8683977613
 30
0.0
 10
7.3676011536
 20
0.8685468739
 30
0.0
 10
7.3814349963
 20
0.8683976145
 30
0.0
 10
7.3952710551
 20
0.8679478217
 30
0.0
 10
7.4091040773
 20
0.8671910144
 30
0.0
 10
7.422928032
 20
0.8661165154
 30
0.0
 10
7.4367363183
 20
0.8647095366
 30
0.0
 10
7.4551257777
 20
0.862364044
 30
0.0
 10
7.4688532257
 20
0.8600468952
 30
0.0
 10
7.4779523849
 20
0.8582217337
 30
0.0
  0
SPLINE
  5
43C
100
AcDbEntity
  8
0
100
AcDbSpline
 62
7
  6
CONTINUOUS
 70
0
 71
3
 72
9
 73
5
 74
0
 42
0.0000001
 43
0.0000001
 44
0.0000000001
 40
0.0
 40
0.0
 40
0.0
 40
0.0
 40
0.5150912254
 40
1.0
 40
1.0
 40
1.0
 40
1.0
 10
7.2505668182
 20
0.8575456148
 30
0.0
 10
7.2517930795
 20
0.8575456156
 30
0.0
 10
7.2541752609
 20
0.8576525105
 30
0.0
 10
7.2565363803
 20
0.8579931307
 30
0.0
 10
7.2576679262
 20
0.8582217337
 30
0.0
  0
SPLINE
  5
43D
100
AcDbEntity
  8
0
100
AcDbSpline
 62
7
  6
CONTINUOUS
 70
0
 71
3
 72
20
 73
16
 74
0
 42
0.0000001
 43
0.0000001
 44
0.0000000001
 40
0.0
 40
0.0
 40
0.0
 40
0.0
 40
0.2024973861
 40
0.387042146
 40
0.5505302765
 40
0.6235460941
 40
0.690371984
 40
0.7507905223
 40
0.804650111
 40
0.8518796996
 40
0.8925255143
 40
0.9268182703
 40
0.9552958724
 40
0.9790445784
 40
1.0
 40
1.0
 40
1.0
 40
1.0
 10
6.8911087901
 20
2.8830673369
 30
0.0
 10
6.8909789388
 20
2.8833487179
 30
0.0
 10
6.8907383721
 20
2.883890121
 30
0.0
 10
6.8904230215
 20
2.8846715837
 30
0.0
 10
6.8902072197
 20
2.8852790559
 30
0.0
 10
6.8900709965
 20
2.8857229006
 30
0.0
 10
6.8899909218
 20
2.8860188
 30
0.0
 10
6.8899293273
 20
2.8862891201
 30
0.0
 10
6.8898864482
 20
2.8865326691
 30
0.0
 10
6.8898624122
 20
2.8867484289
 30
0.0
 10
6.8898572754
 20
2.8869356082
 30
0.0
 10
6.8898710282
 20
2.8870937485
 30
0.0
 10
6.8899040072
 20
2.8872228411
 30
0.0
 10
6.8899574016
 20
2.8873230118
 30
0.0
 10
6.8900098092
 20
2.8873699615
 30
0.0
 10
6.8900375839
 20
2.8873859938
 30
0.0
  0
SPLINE
  5
43E
100
AcDbEntity
  8
0
100
AcDbSpline
 62
7
  6
CONTINUOUS
 70
0
 71
3
 72
20
 73
16
 74
0
 42
0.0000001
 43
0.0000001
 44
0.0000000001
 40
0.0
 40
0.0
 40
0.0
 40
0.0
 40
0.2024920732
 40
0.3870327896
 40
0.5505182868
 40
0.6235333611
 40
0.6903589119
 40
0.7507775337
 40
0.8046376484
 40
0.8518682271
 40
0.8925155181
 40
0.9268102512
 40
0.9552903124
 40
0.9790418257
 40
1.0
 40
1.0
 40
1.0
 40
1.0
 10
7.5040742956
 20
2.756137587
 30
0.0
 10
7.5043829072
 20
2.7561093439
 30
0.0
 10
7.5049720655
 20
2.7560469639
 30
0.0
 10
7.5058065166
 20
2.7559293079
 30
0.0
 10
7.5064405123
 20
2.7558124373
 30
0.0
 10
7.5068930118
 20
2.7557084672
 30
0.0
 10
7.5071893117
 20
2.7556298489
 30
0.0
 10
7.5074542194
 20
2.7555480157
 30
0.0
 10
7.5076865853
 20
2.7554633598
 30
0.0
 10
7.5078854635
 20
2.7553762799
 30
0.0
 10
7.508050141
 20
2.7552871228
 30
0.0
 10
7.5081802252
 20
2.7551961264
 30
0.0
 10
7.50827554
 20
2.7551030035
 30
0.0
 10
7.5083355995
 20
2.7550066622
 30
0.0
 10
7.5083500604
 20
2.7549377911
 30
0.0
 10
7.5083500598
 20
2.754905716
 30
0.0
  0
SPLINE
  5
43F
100
AcDbEntity
  8
0
100
AcDbSpline
 62
7
  6
CONTINUOUS
 70
0
 71
3
 72
20
 73
16
 74
0
 42
0.0000001
 43
0.0000001
 44
0.0000000001
 40
0.0
 40
0.0
 40
0.0
 40
0.0
 40
0.2024899392
 40
0.3870293224
 40
0.5505142855
 40
0.6235293832
 40
0.6903551419
 40
0.7507741443
 40
0.8046347944
 40
0.8518660364
 40
0.8925140753
 40
0.9268095694
 40
0.9552902793
 40
0.9790421156
 40
1.0
 40
1.0
 40
1.0
 40
1.0
 10
7.4307913704
 20
2.4022417875
 30
0.0
 10
7.4309212213
 20
2.4019603988
 30
0.0
 10
7.4311617867
 20
2.401418979
 30
0.0
 10
7.4314771335
 20
2.4006374883
 30
0.0
 10
7.4316929309
 20
2.4000299896
 30
0.0
 10
7.4318291502
 20
2.3995861219
 30
0.0
 10
7.4319092223
 20
2.3992902039
 30
0.0
 10
7.431970814
 20
2.3990198645
 30
0.0
 10
7.4320136902
 20
2.3987762954
 30
0.0
 10
7.4320377232
 20
2.398560515
 30
0.0
 10
7.4320428569
 20
2.3983733146
 30
0.0
 10
7.4320291008
 20
2.398215153
 30
0.0
 10
7.4319961185
 20
2.3980860392
 30
0.0
 10
7.4319427217
 20
2.3979858479
 30
0.0
 10
7.4318903124
 20
2.3979388819
 30
0.0
 10
7.4318625358
 20
2.3979228416
 30
0.0
  0
SPLINE
  5
440
100
AcDbEntity
  8
0
100
AcDbSpline
 62
7
  6
CONTINUOUS
 70
0
 71
3
 72
20
 73
16
 74
0
 42
0.0000001
 43
0.0000001
 44
0.0000000001
 40
0.0
 40
0.0
 40
0.0
 40
0.0
 40
0.2024923718
 40
0.3870338988
 40
0.5505205975
 40
0.6235363626
 40
0.690362627
 40
0.7507819451
 40
0.8046426858
 40
0.8518737466
 40
0.8925212695
 40
0.9268158263
 40
0.9552950663
 40
0.9790447994
 40
1.0
 40
1.0
 40
1.0
 40
1.0
 10
7.0876671551
 20
2.2887587626
 30
0.0
 10
7.0874883919
 20
2.288505613
 30
0.0
 10
7.0871397944
 20
2.2880265645
 30
0.0
 10
7.0866206848
 20
2.2873627143
 30
0.0
 10
7.0862024833
 20
2.2868720714
 30
0.0
 10
7.0858862011
 20
2.286532161
 30
0.0
 10
7.0856699717
 20
2.2863148519
 30
0.0
 10
7.0854666546
 20
2.2861263363
 30
0.0
 10
7.0852771641
 20
2.2859674135
 30
0.0
 10
7.0851023185
 20
2.2858387034
 30
0.0
 10
7.0849427748
 20
2.2857406503
 30
0.0
 10
7.0847989352
 20
2.2856734752
 30
0.0
 10
7.0846706393
 20
2.2856374738
 30
0.0
 10
7.0845571839
 20
2.2856336121
 30
0.0
 10
7.0844903118
 20
2.285655511
 30
0.0
 10
7.0844625358
 20
2.2856715434
 30
0.0
  0
SPLINE
  5
441
100
AcDbEntity
  8
0
100
AcDbSpline
 62
7
  6
CONTINUOUS
 70
0
 71
3
 72
20
 73
16
 74
0
 42
0.0000001
 43
0.0000001
 44
0.0000000001
 40
0.0
 40
0.0
 40
0.0
 40
0.0
 40
0.2024960952
 40
0.3870403106
 40
0.5505285929
 40
0.6235447181
 40
0.6903710481
 40
0.7507901342
 40
0.8046503442
 40
0.8518805783
 40
0.8925269891
 40
0.9268201769
 40
0.955297863
 40
0.9790460309
 40
1.0
 40
1.0
 40
1.0
 40
1.0
 10
6.8178258649
 20
2.5291715373
 30
0.0
 10
6.8175172524
 20
2.5291997738
 30
0.0
 10
6.8169280925
 20
2.5292621391
 30
0.0
 10
6.8160936377
 20
2.5293797675
 30
0.0
 10
6.8154596382
 20
2.5294966106
 30
0.0
 10
6.8150071349
 20
2.5296005564
 30
0.0
 10
6.8147108325
 20
2.5296791562
 30
0.0
 10
6.8144459223
 20
2.5297609701
 30
0.0
 10
6.8142135539
 20
2.5298456061
 30
0.0
 10
6.814014673
 20
2.5299326654
 30
0.0
 10
6.813849993
 20
2.5300218011
 30
0.0
 10
6.8137199063
 20
2.5301127755
 30
0.0
 10
6.8136245886
 20
2.5302058756
 30
0.0
 10
6.8135645248
 20
2.5303021938
 30
0.0
 10
6.8135500604
 20
2.5303710514
 30
0.0
 10
6.8135500598
 20
2.5304031195
 30
0.0
  0
SPLINE
  5
442
100
AcDbEntity
  8
0
100
AcDbSpline
 62
7
  6
CONTINUOUS
 70
0
 71
3
 72
23
 73
19
 74
0
 42
0.0000001
 43
0.0000001
 44
0.0000000001
 40
0.0
 40
0.0
 40
0.0
 40
0.0
 40
0.2121145107
 40
0.4056279019
 40
0.5766634045
 40
0.7217922683
 40
0.7837244498
 40
0.8381569922
 40
0.8848365143
 40
0.9052047265
 40
0.9235647945
 40
0.9542101824
 40
0.9664929606
 40
0.9767666396
 40
0.9850732898
 40
0.9915086415
 40
0.9962997983
 40
1.0
 40
1.0
 40
1.0
 40
1.0
 10
6.8182121517
 20
2.6863353062
 30
0.0
 10
6.8178790895
 20
2.6863263552
 30
0.0
 10
6.8172422488
 20
2.6863061716
 30
0.0
 10
6.8163372667
 20
2.6862670021
 30
0.0
 10
6.8155379782
 20
2.6862209713
 30
0.0
 10
6.8149457308
 20
2.6861758657
 30
0.0
 10
6.8145369214
 20
2.6861358599
 30
0.0
 10
6.814282501
 20
2.6861064025
 30
0.0
 10
6.8140934801
 20
2.686080092
 30
0.0
 10
6.8139611065
 20
2.686058228
 30
0.0
 10
6.8138539852
 20
2.6860382602
 30
0.0
 10
6.8137598948
 20
2.6860174963
 30
0.0
 10
6.813679601
 20
2.6859942097
 30
0.0
 10
6.8136338792
 20
2.6859779999
 30
0.0
 10
6.8135979888
 20
2.6859618041
 30
0.0
 10
6.8135718756
 20
2.6859454908
 30
0.0
 10
6.8135548399
 20
2.6859288676
 30
0.0
 10
6.8135500831
 20
2.6859155594
 30
0.0
 10
6.8135500829
 20
2.6859097473
 30
0.0
  0
SPLINE
  5
443
100
AcDbEntity
  8
0
100
AcDbSpline
 62
7
  6
CONTINUOUS
 70
0
 71
3
 72
23
 73
19
 74
0
 42
0.0000001
 43
0.0000001
 44
0.0000000001
 40
0.0
 40
0.0
 40
0.0
 40
0.0
 40
0.2121205741
 40
0.4056385419
 40
0.5766770133
 40
0.7218071368
 40
0.7837392772
 40
0.8381713158
 40
0.8848498559
 40
0.9052173905
 40
0.9235766519
 40
0.954220019
 40
0.9665015633
 40
0.9767738427
 40
0.9850789086
 40
0.9915124728
 40
0.9963016646
 40
1.0
 40
1.0
 40
1.0
 40
1.0
 10
7.3701475683
 20
2.9176342167
 30
0.0
 10
7.3703063495
 20
2.9179271266
 30
0.0
 10
7.3706072946
 20
2.9184887254
 30
0.0
 10
7.3710258732
 20
2.9192920248
 30
0.0
 10
7.3713856642
 20
2.9200072174
 30
0.0
 10
7.3716427362
 20
2.9205426463
 30
0.0
 10
7.3718125045
 20
2.9209166667
 30
0.0
 10
7.3719142104
 20
2.9211517128
 30
0.0
 10
7.3719859416
 20
2.9213285503
 30
0.0
 10
7.3720331987
 20
2.9214541092
 30
0.0
 10
7.372069471
 20
2.9215568507
 30
0.0
 10
7.3720985388
 20
2.9216487049
 30
0.0
 10
7.3721185245
 20
2.9217298723
 30
0.0
 10
7.3721273509
 20
2.9217775639
 30
0.0
 10
7.372131274
 20
2.9218167343
 30
0.0
 10
7.3721302066
 20
2.9218474959
 30
0.0
 10
7.3721243328
 20
2.9218705521
 30
0.0
 10
7.3721151878
 20
2.9218813194
 30
0.0
 10
7.3721101562
 20
2.9218842222
 30
0.0
  0
SPLINE
  5
444
100
AcDbEntity
  8
0
100
AcDbSpline
 62
7
  6
CONTINUOUS
 70
0
 71
3
 72
23
 73
19
 74
0
 42
0.0000001
 43
0.0000001
 44
0.0000000001
 40
0.0
 40
0.0
 40
0.0
 40
0.0
 40
0.212118266
 40
0.4056347318
 40
0.5766725203
 40
0.7218027685
 40
0.7837352605
 40
0.838167831
 40
0.8848470675
 40
0.9052150042
 40
0.9235746979
 40
0.9542189951
 40
0.9665010124
 40
0.9767737449
 40
0.9850792064
 40
0.9915130362
 40
0.9963022139
 40
1.0
 40
1.0
 40
1.0
 40
1.0
 10
7.5036880566
 20
2.5989741553
 30
0.0
 10
7.5040211176
 20
2.5989831001
 30
0.0
 10
7.5046579556
 20
2.5990032694
 30
0.0
 10
7.5055629337
 20
2.5990424112
 30
0.0
 10
7.5063622173
 20
2.5990884095
 30
0.0
 10
7.5069544604
 20
2.5991334831
 30
0.0
 10
7.5073632663
 20
2.5991734607
 30
0.0
 10
7.5076176836
 20
2.5992028973
 30
0.0
 10
7.5078067021
 20
2.5992291891
 30
0.0
 10
7.5079390737
 20
2.5992510377
 30
0.0
 10
7.5080461925
 20
2.5992709913
 30
0.0
 10
7.5081402804
 20
2.5992917403
 30
0.0
 10
7.5082205724
 20
2.5993150106
 30
0.0
 10
7.5082662924
 20
2.5993312088
 30
0.0
 10
7.5083021808
 20
2.5993473928
 30
0.0
 10
7.5083282917
 20
2.5993636942
 30
0.0
 10
7.5083453262
 20
2.5993803043
 30
0.0
 10
7.5083500831
 20
2.5993936054
 30
0.0
 10
7.5083500829
 20
2.5993994136
 30
0.0
  0
SPLINE
  5
445
100
AcDbEntity
  8
0
100
AcDbSpline
 62
7
  6
CONTINUOUS
 70
0
 71
3
 72
23
 73
19
 74
0
 42
0.0000001
 43
0.0000001
 44
0.0000000001
 40
0.0
 40
0.0
 40
0.0
 40
0.0
 40
0.2121140224
 40
0.4056273969
 40
0.5766633164
 40
0.7217929657
 40
0.7837256439
 40
0.8381587266
 40
0.8848388019
 40
0.9052072805
 40
0.9235675977
 40
0.9542133851
 40
0.9664962678
 40
0.9767699428
 40
0.985076416
 40
0.9915113023
 40
0.9963014981
 40
1.0
 40
1.0
 40
1.0
 40
1.0
 10
7.2944905924
 20
2.3239946695
 30
0.0
 10
7.2946648717
 20
2.3237106998
 30
0.0
 10
7.2950007637
 20
2.3231692607
 30
0.0
 10
7.2954871611
 20
2.3224050885
 30
0.0
 10
7.2959266514
 20
2.3217358772
 30
0.0
 10
7.2962618202
 20
2.3212455071
 30
0.0
 10
7.2965008556
 20
2.3209114516
 30
0.0
 10
7.2966535656
 20
2.3207058316
 30
0.0
 10
7.2967708516
 20
2.3205552772
 30
0.0
 10
7.296855965
 20
2.3204515599
 30
0.0
 10
7.2969268107
 20
2.3203687644
 30
0.0
 10
7.2969918301
 20
2.3202976518
 30
0.0
 10
7.2970521351
 20
2.3202397474
 30
0.0
 10
7.2970890279
 20
2.3202082484
 30
0.0
 10
7.2971209927
 20
2.3201852566
 30
0.0
 10
7.2971481703
 20
2.3201707911
 30
0.0
 10
7.2971710765
 20
2.3201643408
 30
0.0
 10
7.2971849775
 20
2.3201668685
 30
0.0
 10
7.2971900096
 20
2.3201697718
 30
0.0
  0
SPLINE
  5
446
100
AcDbEntity
  8
0
100
AcDbSpline
 62
7
  6
CONTINUOUS
 70
0
 71
3
 72
23
 73
19
 74
0
 42
0.0000001
 43
0.0000001
 44
0.0000000001
 40
0.0
 40
0.0
 40
0.0
 40
0.0
 40
0.2121121594
 40
0.4056240098
 40
0.5766587972
 40
0.7217877621
 40
0.7837202876
 40
0.8381533576
 40
0.8848335758
 40
0.9052021916
 40
0.923562695
 40
0.9542090239
 40
0.9664922841
 40
0.9767664282
 40
0.9850734903
 40
0.9915091299
 40
0.9963003045
 40
1.0
 40
1.0
 40
1.0
 40
1.0
 10
6.9517526399
 20
2.3676752449
 30
0.0
 10
6.9515938573
 20
2.3673823276
 30
0.0
 10
6.951292909
 20
2.3668207122
 30
0.0
 10
6.9508743263
 20
2.3660173848
 30
0.0
 10
6.9505145305
 20
2.365302159
 30
0.0
 10
6.9502574546
 20
2.3647666994
 30
0.0
 10
6.9500876831
 20
2.3643926524
 30
0.0
 10
6.9499859742
 20
2.3641575852
 30
0.0
 10
6.9499142407
 20
2.3639807296
 30
0.0
 10
6.9498669816
 20
2.363855156
 30
0.0
 10
6.949830707
 20
2.3637523994
 30
0.0
 10
6.9498016371
 20
2.3636605299
 30
0.0
 10
6.9497816494
 20
2.3635793472
 30
0.0
 10
6.9497728214
 20
2.3635316439
 30
0.0
 10
6.9497688969
 20
2.363492462
 30
0.0
 10
6.9497699628
 20
2.3634616888
 30
0.0
 10
6.949775835
 20
2.3634386226
 30
0.0
 10
6.9497849776
 20
2.363427846
 30
0.0
 10
6.9497900096
 20
2.3634249386
 30
0.0
  0
LINE
  5
447
100
AcDbEntity
  8
0
100
AcDbLine
 62
7
  6
CONTINUOUS
 10
6.7473444322
 20
0.8684362925
 11
6.7469240425
 21
0.8582175517
  0
SPLINE
  5
448
100
AcDbEntity
  8
0
100
AcDbSpline
 62
7
  6
CONTINUOUS
 70
0
 71
3
 72
17
 73
13
 74
0
 42
0.0000001
 43
0.0000001
 44
0.0000000001
 40
0.0
 40
0.0
 40
0.0
 40
0.0
 40
0.0418587101
 40
0.082295041
 40
0.1224876244
 40
0.1636480189
 40
0.2530580789
 40
0.3580262166
 40
0.4830962964
 40
0.6309069289
 40
0.8029613553
 40
1.0
 40
1.0
 40
1.0
 40
1.0
 10
6.7427721846
 20
0.8513035331
 30
0.0
 10
6.7427721846
 20
0.8512775889
 30
0.0
 10
6.7427760138
 20
0.851226464
 30
0.0
 10
6.742794517
 20
0.851152448
 30
0.0
 10
6.7428256978
 20
0.8510832587
 30
0.0
 10
6.7428856363
 20
0.8509954225
 30
0.0
 10
6.7429971291
 20
0.8508976747
 30
0.0
 10
6.7431744902
 20
0.8508068811
 30
0.0
 10
6.7433988185
 20
0.8507368718
 30
0.0
 10
6.7436705719
 20
0.8506872353
 30
0.0
 10
6.7439899091
 20
0.850657881
 30
0.0
 10
6.7442187578
 20
0.8506522713
 30
0.0
 10
6.7443408831
 20
0.8506522712
 30
0.0
  0
SPLINE
  5
449
100
AcDbEntity
  8
0
100
AcDbSpline
 62
7
  6
CONTINUOUS
 70
0
 71
3
 72
15
 73
11
 74
0
 42
0.0000001
 43
0.0000001
 44
0.0000000001
 40
0.0
 40
0.0
 40
0.0
 40
0.0
 40
0.1018001962
 40
0.1969401281
 40
0.2930477614
 40
0.3978310679
 40
0.5174460515
 40
0.656104225
 40
0.8164539215
 40
1.0
 40
1.0
 40
1.0
 40
1.0
 10
7.5068094075
 20
3.4993474485
 30
0.0
 10
7.506811404
 20
3.4992853739
 30
0.0
 10
7.506802458
 20
3.4991640519
 30
0.0
 10
7.5067391684
 20
3.4989940349
 30
0.0
 10
7.5066260865
 20
3.4988497631
 30
0.0
 10
7.5064662567
 20
3.4987336844
 30
0.0
 10
7.5062619634
 20
3.4986448203
 30
0.0
 10
7.5060135341
 20
3.4985821068
 30
0.0
 10
7.5057209388
 20
3.4985451365
 30
0.0
 10
7.5055109876
 20
3.4985381033
 30
0.0
 10
7.505399009
 20
3.4985381029
 30
0.0
  0
SPLINE
  5
44A
100
AcDbEntity
  8
0
100
AcDbSpline
 62
7
  6
CONTINUOUS
 70
0
 71
3
 72
11
 73
7
 74
0
 42
0.0000001
 43
0.0000001
 44
0.0000000001
 40
0.0
 40
0.0
 40
0.0
 40
0.0
 40
0.2208991642
 40
0.4625097736
 40
0.7229634415
 40
1.0
 40
1.0
 40
1.0
 40
1.0
 10
7.4406259424
 20
3.4985381029
 30
0.0
 10
7.4401482611
 20
3.4985381047
 30
0.0
 10
7.4391479443
 20
3.4985777995
 30
0.0
 10
7.4375918679
 20
3.4987360828
 30
0.0
 10
7.4359261306
 20
3.4989927162
 30
0.0
 10
7.4347858585
 20
3.4992197435
 30
0.0
 10
7.434200553
 20
3.4993474485
 30
0.0
  0
SPLINE
  5
44B
100
AcDbEntity
  8
0
100
AcDbSpline
 62
7
  6
CONTINUOUS
 70
0
 71
3
 72
15
 73
11
 74
0
 42
0.0000001
 43
0.0000001
 44
0.0000000001
 40
0.0
 40
0.0
 40
0.0
 40
0.0
 40
0.1256336173
 40
0.2510154637
 40
0.3761885753
 40
0.501188083
 40
0.6260430369
 40
0.7507795141
 40
0.875423336
 40
1.0
 40
1.0
 40
1.0
 40
1.0
 10
7.434200553
 20
3.4993474485
 30
0.0
 10
7.4291286241
 20
3.500454068
 30
0.0
 10
7.4189496963
 20
3.5024624731
 30
0.0
 10
7.4035950323
 20
3.5049031776
 30
0.0
 10
7.3881912631
 20
3.5068077394
 30
0.0
 10
7.3727558297
 20
3.5082089767
 30
0.0
 10
7.3573027465
 20
3.5091324102
 30
0.0
 10
7.341843831
 20
3.509595604
 30
0.0
 10
7.3263896652
 20
3.5096078462
 30
0.0
 10
7.31609413
 20
3.509315261
 30
0.0
 10
7.3109513804
 20
3.5090924176
 30
0.0
  0
SPLINE
  5
44C
100
AcDbEntity
  8
0
100
AcDbSpline
 62
7
  6
CONTINUOUS
 70
0
 71
3
 72
24
 73
20
 74
0
 42
0.0000001
 43
0.0000001
 44
0.0000000001
 40
0.0
 40
0.0
 40
0.0
 40
0.0
 40
0.0564749338
 40
0.115765698
 40
0.1780210078
 40
0.2430398903
 40
0.3789256704
 40
0.4485902291
 40
0.5181369891
 40
0.5866885053
 40
0.6534486594
 40
0.7177760522
 40
0.77925722
 40
0.8377779401
 40
0.8935800845
 40
0.9206801232
 40
0.94736161
 40
0.9737577011
 40
1.0
 40
1.0
 40
1.0
 40
1.0
 10
7.0727576265
 20
2.3915118542
 30
0.0
 10
7.073125225
 20
2.3914611082
 30
0.0
 10
7.0738914139
 20
2.3914366717
 30
0.0
 10
7.0750526223
 20
2.3916194822
 30
0.0
 10
7.0762194194
 20
2.3920134128
 30
0.0
 10
7.0777579551
 20
2.3928140548
 30
0.0
 10
7.0791435395
 20
2.3939693362
 30
0.0
 10
7.0802879183
 20
2.3953728014
 30
0.0
 10
7.0810101621
 20
2.3965361562
 30
0.0
 10
7.0815665444
 20
2.3977661416
 30
0.0
 10
7.0819411479
 20
2.3990278227
 30
0.0
 10
7.0821226424
 20
2.4002849188
 30
0.0
 10
7.0821048546
 20
2.4015015746
 30
0.0
 10
7.0818870781
 20
2.4026423959
 30
0.0
 10
7.0815383142
 20
2.4035112993
 30
0.0
 10
7.0811666086
 20
2.4041294019
 30
0.0
 10
7.0808469193
 20
2.4045495611
 30
0.0
 10
7.0804861381
 20
2.4049271561
 30
0.0
 10
7.0802196152
 20
2.4051490002
 30
0.0
 10
7.0800809778
 20
2.4052515315
 30
0.0
  0
SPLINE
  5
44D
100
AcDbEntity
  8
0
100
AcDbSpline
 62
7
  6
CONTINUOUS
 70
0
 71
3
 72
28
 73
24
 74
0
 42
0.0000001
 43
0.0000001
 44
0.0000000001
 40
0.0
 40
0.0
 40
0.0
 40
0.0
 40
0.0738410584
 40
0.1517610693
 40
0.2325210883
 40
0.3148129215
 40
0.3972988652
 40
0.478636003
 40
0.5575063006
 40
0.632645407
 40
0.7028730871
 40
0.7671264652
 40
0.8244996414
 40
0.8503855069
 40
0.8743128394
 40
0.8962439507
 40
0.9161682124
 40
0.9341143453
 40
0.9501611835
 40
0.9644591777
 40
0.9772582702
 40
0.9889357061
 40
1.0
 40
1.0
 40
1.0
 40
1.0
 10
7.2735203046
 20
2.4182254857
 30
0.0
 10
7.273248606
 20
2.4183863035
 30
0.0
 10
7.2726981394
 20
2.4187303566
 30
0.0
 10
7.2718772642
 20
2.4192916633
 30
0.0
 10
7.2710490873
 20
2.4199050106
 30
0.0
 10
7.2702281127
 20
2.4205597263
 30
0.0
 10
7.2694286848
 20
2.4212443841
 30
0.0
 10
7.2686647633
 20
2.4219470216
 30
0.0
 10
7.2679496586
 20
2.4226553468
 30
0.0
 10
7.2672958006
 20
2.4233569614
 30
0.0
 10
7.2667144554
 20
2.4240396024
 30
0.0
 10
7.2662156362
 20
2.4246913375
 30
0.0
 10
7.265864343
 20
2.4252159425
 30
0.0
 10
7.2656339574
 20
2.4256122929
 30
0.0
 10
7.2654926853
 20
2.4258847435
 30
0.0
 10
7.2653774564
 20
2.4261415214
 30
0.0
 10
7.2652887638
 20
2.4263815943
 30
0.0
 10
7.2652269521
 20
2.4266040238
 30
0.0
 10
7.2651923252
 20
2.4268080389
 30
0.0
 10
7.2651851656
 20
2.4269930105
 30
0.0
 10
7.2652059541
 20
2.4271584365
 30
0.0
 10
7.2652553549
 20
2.4273034035
 30
0.0
 10
7.2653083169
 20
2.427386353
 30
0.0
 10
7.2653386418
 20
2.4274226635
 30
0.0
  0
SPLINE
  5
44E
100
AcDbEntity
  8
0
100
AcDbSpline
 62
7
  6
CONTINUOUS
 70
0
 71
3
 72
28
 73
24
 74
0
 42
0.0000001
 43
0.0000001
 44
0.0000000001
 40
0.0
 40
0.0
 40
0.0
 40
0.0
 40
0.073841069
 40
0.1517611798
 40
0.232521188
 40
0.314812945
 40
0.3972987649
 40
0.4786357421
 40
0.5575058495
 40
0.6326447475
 40
0.7028722166
 40
0.7671254012
 40
0.8244984288
 40
0.8503842459
 40
0.8743115483
 40
0.8962426446
 40
0.9161669043
 40
0.934113059
 40
0.9501599247
 40
0.9644578728
 40
0.9772569684
 40
0.9889348153
 40
1.0
 40
1.0
 40
1.0
 40
1.0
 10
7.0483811549
 20
2.4182254693
 30
0.0
 10
7.0486528514
 20
2.4183862916
 30
0.0
 10
7.0492033172
 20
2.418730348
 30
0.0
 10
7.0500242039
 20
2.4192916412
 30
0.0
 10
7.0508523834
 20
2.4199049879
 30
0.0
 10
7.0516733598
 20
2.4205597021
 30
0.0
 10
7.0524727869
 20
2.421244361
 30
0.0
 10
7.0532367067
 20
2.4219469995
 30
0.0
 10
7.0539518086
 20
2.4226553261
 30
0.0
 10
7.0546056629
 20
2.4233569424
 30
0.0
 10
7.0551870032
 20
2.4240395859
 30
0.0
 10
7.0556858164
 20
2.4246913242
 30
0.0
 10
7.0560371032
 20
2.4252159326
 30
0.0
 10
7.056267483
 20
2.425612286
 30
0.0
 10
7.0564087507
 20
2.425884739
 30
0.0
 10
7.0565239752
 20
2.4261415191
 30
0.0
 10
7.0566126637
 20
2.4263815939
 30
0.0
 10
7.0566744711
 20
2.4266040251
 30
0.0
 10
7.0567090937
 20
2.4268080412
 30
0.0
 10
7.056716251
 20
2.426993013
 30
0.0
 10
7.0566954598
 20
2.4271584407
 30
0.0
 10
7.056646052
 20
2.4273034116
 30
0.0
 10
7.0565930844
 20
2.4273863642
 30
0.0
 10
7.0565627564
 20
2.4274226772
 30
0.0
  0
LINE
  5
44F
100
AcDbEntity
  8
0
100
AcDbLine
 62
7
  6
CONTINUOUS
 10
7.0142915391
 20
2.5122316524
 11
7.0173987824
 21
2.5120930035
  0
LINE
  5
450
100
AcDbEntity
  8
0
100
AcDbLine
 62
7
  6
CONTINUOUS
 10
7.3076100986
 20
2.5122316524
 11
7.3045041975
 21
2.51209298
  0
SPLINE
  5
451
100
AcDbEntity
  8
0
100
AcDbSpline
 62
7
  6
CONTINUOUS
 70
0
 71
3
 72
24
 73
20
 74
0
 42
0.0000001
 43
0.0000001
 44
0.0000000001
 40
0.0
 40
0.0
 40
0.0
 40
0.0
 40
0.0564751753
 40
0.1157676445
 40
0.178023023
 40
0.2430411537
 40
0.378924226
 40
0.4485871275
 40
0.5181322654
 40
0.5866823822
 40
0.6534415241
 40
0.7177684402
 40
0.7792498517
 40
0.8377716394
 40
0.8935753011
 40
0.9206760768
 40
0.9473578772
 40
0.9737550295
 40
1.0
 40
1.0
 40
1.0
 40
1.0
 10
7.249143644
 20
2.3915118112
 30
0.0
 10
7.2487760346
 20
2.3914610658
 30
0.0
 10
7.2480098188
 20
2.3914366068
 30
0.0
 10
7.2468485555
 20
2.3916193415
 30
0.0
 10
7.2456817076
 20
2.3920132425
 30
0.0
 10
7.2441431306
 20
2.3928138475
 30
0.0
 10
7.2427575105
 20
2.3939691062
 30
0.0
 10
7.2416131186
 20
2.3953725676
 30
0.0
 10
7.2408908767
 20
2.3965359272
 30
0.0
 10
7.2403345067
 20
2.3977659256
 30
0.0
 10
7.2399599249
 20
2.3990276271
 30
0.0
 10
7.2397784607
 20
2.4002847509
 30
0.0
 10
7.2397962891
 20
2.4015014417
 30
0.0
 10
7.2400141171
 20
2.4026423009
 30
0.0
 10
7.2403629219
 20
2.4035112352
 30
0.0
 10
7.2407346569
 20
2.40412936
 30
0.0
 10
7.2410543636
 20
2.4045495395
 30
0.0
 10
7.2414151758
 20
2.4049271594
 30
0.0
 10
7.2416817256
 20
2.4051490226
 30
0.0
 10
7.2418203801
 20
2.4052515673
 30
0.0
  0
SPLINE
  5
452
100
AcDbEntity
  8
0
100
AcDbSpline
 62
7
  6
CONTINUOUS
 70
0
 71
3
 72
15
 73
11
 74
0
 42
0.0000001
 43
0.0000001
 44
0.0000000001
 40
0.0
 40
0.0
 40
0.0
 40
0.0
 40
0.1245767902
 40
0.2492205026
 40
0.3739570557
 40
0.4988120724
 40
0.6238113726
 40
0.7489846075
 40
0.8743663629
 40
1.0
 40
1.0
 40
1.0
 40
1.0
 10
7.3109513651
 20
3.3779308604
 30
0.0
 10
7.3160941213
 20
3.377708035
 30
0.0
 10
7.3263896577
 20
3.3774154482
 30
0.0
 10
7.3418438291
 20
3.3774276663
 30
0.0
 10
7.3573027476
 20
3.3778908706
 30
0.0
 10
7.3727558279
 20
3.3788143235
 30
0.0
 10
7.3881912668
 20
3.3802155099
 30
0.0
 10
7.4035950261
 20
3.3821201086
 30
0.0
 10
7.4189496979
 20
3.3845607859
 30
0.0
 10
7.4291286226
 20
3.3865691984
 30
0.0
 10
7.434200553
 20
3.3876758177
 30
0.0
  0
SPLINE
  5
453
100
AcDbEntity
  8
0
100
AcDbSpline
 62
7
  6
CONTINUOUS
 70
0
 71
3
 72
11
 73
7
 74
0
 42
0.0000001
 43
0.0000001
 44
0.0000000001
 40
0.0
 40
0.0
 40
0.0
 40
0.0
 40
0.2770361602
 40
0.5374899627
 40
0.7791010371
 40
1.0
 40
1.0
 40
1.0
 40
1.0
 10
7.434200553
 20
3.3876758177
 30
0.0
 10
7.4347858578
 20
3.3878035216
 30
0.0
 10
7.4359261293
 20
3.3880305488
 30
0.0
 10
7.437591867
 20
3.388287183
 30
0.0
 10
7.439147944
 20
3.3884454697
 30
0.0
 10
7.4401482615
 20
3.3884851628
 30
0.0
 10
7.4406259424
 20
3.3884851633
 30
0.0
  0
SPLINE
  5
454
100
AcDbEntity
  8
0
100
AcDbSpline
 62
7
  6
CONTINUOUS
 70
0
 71
3
 72
15
 73
11
 74
0
 42
0.0000001
 43
0.0000001
 44
0.0000000001
 40
0.0
 40
0.0
 40
0.0
 40
0.0
 40
0.183545976
 40
0.343895577
 40
0.4825538216
 40
0.6021689181
 40
0.7069522857
 40
0.8030598995
 40
0.8981998154
 40
1.0
 40
1.0
 40
1.0
 40
1.0
 10
7.505399009
 20
3.3884851633
 30
0.0
 10
7.5055109876
 20
3.388485163
 30
0.0
 10
7.5057209387
 20
3.3884781295
 30
0.0
 10
7.5060135338
 20
3.388441159
 30
0.0
 10
7.5062619633
 20
3.3883784457
 30
0.0
 10
7.5064662569
 20
3.3882895818
 30
0.0
 10
7.506626087
 20
3.3881735033
 30
0.0
 10
7.506739169
 20
3.3880292314
 30
0.0
 10
7.506802458
 20
3.3878592143
 30
0.0
 10
7.5068114038
 20
3.3877378923
 30
0.0
 10
7.5068094075
 20
3.3876758177
 30
0.0
  0
LINE
  5
455
100
AcDbEntity
  8
0
100
AcDbLine
 62
7
  6
CONTINUOUS
 10
7.5068094075
 20
3.3876758177
 11
7.5064261495
 21
3.377440206
  0
SPLINE
  5
456
100
AcDbEntity
  8
0
100
AcDbSpline
 62
7
  6
CONTINUOUS
 70
0
 71
3
 72
17
 73
13
 74
0
 42
0.0000001
 43
0.0000001
 44
0.0000000001
 40
0.0
 40
0.0
 40
0.0
 40
0.0
 40
0.041858018
 40
0.0822942762
 40
0.1224870676
 40
0.1636476423
 40
0.2530575529
 40
0.3580256101
 40
0.4830959486
 40
0.6309067866
 40
0.8029612942
 40
1.0
 40
1.0
 40
1.0
 40
1.0
 10
6.7427721846
 20
0.7521197331
 30
0.0
 10
6.7427721846
 20
0.7521456769
 30
0.0
 10
6.7427760139
 20
0.7521968013
 30
0.0
 10
6.7427945171
 20
0.7522708169
 30
0.0
 10
6.7428256978
 20
0.7523400064
 30
0.0
 10
6.742885636
 20
0.7524278429
 30
0.0
 10
6.7429971293
 20
0.7525255902
 30
0.0
 10
6.7431744906
 20
0.752616383
 30
0.0
 10
6.7433988184
 20
0.752686394
 30
0.0
 10
6.7436705717
 20
0.7527360321
 30
0.0
 10
6.7439899091
 20
0.7527653857
 30
0.0
 10
6.7442187579
 20
0.7527709949
 30
0.0
 10
6.7443408831
 20
0.752770995
 30
0.0
  0
SPLINE
  5
457
100
AcDbEntity
  8
0
100
AcDbSpline
 62
7
  6
CONTINUOUS
 70
0
 71
3
 72
11
 73
7
 74
0
 42
0.0000001
 43
0.0000001
 44
0.0000000001
 40
0.0
 40
0.0
 40
0.0
 40
0.0
 40
0.2249253058
 40
0.4675878958
 40
0.7265078458
 40
1.0
 40
1.0
 40
1.0
 40
1.0
 10
6.8351308427
 20
0.8506522712
 30
0.0
 10
6.8357188905
 20
0.8506522714
 30
0.0
 10
6.8369414632
 20
0.8506834433
 30
0.0
 10
6.8388370378
 20
0.8508103228
 30
0.0
 10
6.8408531498
 20
0.8510175821
 30
0.0
 10
6.8422329306
 20
0.8512029193
 30
0.0
 10
6.8429402501
 20
0.8513075864
 30
0.0
  0
SPLINE
  5
458
100
AcDbEntity
  8
0
100
AcDbSpline
 62
7
  6
CONTINUOUS
 70
0
 71
3
 72
11
 73
7
 74
0
 42
0.0000001
 43
0.0000001
 44
0.0000000001
 40
0.0
 40
0.0
 40
0.0
 40
0.0
 40
0.2249253086
 40
0.4675879209
 40
0.7265078449
 40
1.0
 40
1.0
 40
1.0
 40
1.0
 10
6.8351308427
 20
0.752770995
 30
0.0
 10
6.8357188905
 20
0.7527709949
 30
0.0
 10
6.8369414634
 20
0.7527398251
 30
0.0
 10
6.8388370372
 20
0.7526129358
 30
0.0
 10
6.8408531505
 20
0.7524056894
 30
0.0
 10
6.8422329301
 20
0.7522203432
 30
0.0
 10
6.8429402501
 20
0.7521156798
 30
0.0
  0
SPLINE
  5
459
100
AcDbEntity
  8
0
100
AcDbSpline
 62
7
  6
CONTINUOUS
 70
0
 71
3
 72
10
 73
6
 74
0
 42
0.0000001
 43
0.0000001
 44
0.0000000001
 40
0.0
 40
0.0
 40
0.0
 40
0.0
 40
0.2381767732
 40
0.4851786669
 40
1.0
 40
1.0
 40
1.0
 40
1.0
 10
7.0611774749
 20
0.8513075864
 30
0.0
 10
7.0619170527
 20
0.8511981434
 30
0.0
 10
7.0634284006
 20
0.8510063749
 30
0.0
 10
7.0665557504
 20
0.8507307201
 30
0.0
 10
7.0689484367
 20
0.8506522716
 30
0.0
 10
7.0705644496
 20
0.8506522712
 30
0.0
  0
SPLINE
  5
45A
100
AcDbEntity
  8
0
100
AcDbSpline
 62
7
  6
CONTINUOUS
 70
0
 71
3
 72
10
 73
6
 74
0
 42
0.0000001
 43
0.0000001
 44
0.0000000001
 40
0.0
 40
0.0
 40
0.0
 40
0.0
 40
0.2381767743
 40
0.4851786769
 40
1.0
 40
1.0
 40
1.0
 40
1.0
 10
7.0611774749
 20
0.7521156798
 30
0.0
 10
7.0619170531
 20
0.7522251199
 30
0.0
 10
7.0634284005
 20
0.752416892
 30
0.0
 10
7.0665557507
 20
0.7526925422
 30
0.0
 10
7.0689484368
 20
0.7527709947
 30
0.0
 10
7.0705644496
 20
0.752770995
 30
0.0
  0
SPLINE
  5
45B
100
AcDbEntity
  8
0
100
AcDbSpline
 62
7
  6
CONTINUOUS
 70
0
 71
3
 72
10
 73
6
 74
0
 42
0.0000001
 43
0.0000001
 44
0.0000000001
 40
0.0
 40
0.0
 40
0.0
 40
0.0
 40
0.5148213559
 40
0.7618232419
 40
1.0
 40
1.0
 40
1.0
 40
1.0
 10
7.2513799196
 20
0.8506522712
 30
0.0
 10
7.2529959325
 20
0.8506522717
 30
0.0
 10
7.2553886189
 20
0.8507307182
 30
0.0
 10
7.2585159687
 20
0.851006375
 30
0.0
 10
7.2600273161
 20
0.8511981458
 30
0.0
 10
7.2607668942
 20
0.8513075864
 30
0.0
  0
SPLINE
  5
45C
100
AcDbEntity
  8
0
100
AcDbSpline
 62
7
  6
CONTINUOUS
 70
0
 71
3
 72
9
 73
5
 74
0
 42
0.0000001
 43
0.0000001
 44
0.0000000001
 40
0.0
 40
0.0
 40
0.0
 40
0.0
 40
0.5148673805
 40
1.0
 40
1.0
 40
1.0
 40
1.0
 10
7.2513799196
 20
0.752770995
 30
0.0
 10
7.2529959325
 20
0.7527709947
 30
0.0
 10
7.2561356798
 20
0.7526679545
 30
0.0
 10
7.259260611
 20
0.7523385671
 30
0.0
 10
7.2607668942
 20
0.7521156798
 30
0.0
  0
SPLINE
  5
45D
100
AcDbEntity
  8
0
100
AcDbSpline
 62
7
  6
CONTINUOUS
 70
0
 71
3
 72
11
 73
7
 74
0
 42
0.0000001
 43
0.0000001
 44
0.0000000001
 40
0.0
 40
0.0
 40
0.0
 40
0.0
 40
0.2734921708
 40
0.5324121216
 40
0.7750747074
 40
1.0
 40
1.0
 40
1.0
 40
1.0
 10
7.479004119
 20
0.8513075864
 30
0.0
 10
7.4797114382
 20
0.851202917
 30
0.0
 10
7.4810912194
 20
0.8510175816
 30
0.0
 10
7.4831073316
 20
0.8508103247
 30
0.0
 10
7.4850029059
 20
0.8506834419
 30
0.0
 10
7.4862254786
 20
0.8506522714
 30
0.0
 10
7.4868135265
 20
0.8506522712
 30
0.0
  0
SPLINE
  5
45E
100
AcDbEntity
  8
0
100
AcDbSpline
 62
7
  6
CONTINUOUS
 70
0
 71
3
 72
11
 73
7
 74
0
 42
0.0000001
 43
0.0000001
 44
0.0000000001
 40
0.0
 40
0.0
 40
0.0
 40
0.0
 40
0.2734921686
 40
0.5324121221
 40
0.7750747126
 40
1.0
 40
1.0
 40
1.0
 40
1.0
 10
7.479004119
 20
0.7521156798
 30
0.0
 10
7.4797114386
 20
0.7522203465
 30
0.0
 10
7.4810912193
 20
0.7524056855
 30
0.0
 10
7.4831073319
 20
0.7526129378
 30
0.0
 10
7.4850029058
 20
0.7527398267
 30
0.0
 10
7.4862254787
 20
0.7527709949
 30
0.0
 10
7.4868135265
 20
0.752770995
 30
0.0
  0
SPLINE
  5
45F
100
AcDbEntity
  8
0
100
AcDbSpline
 62
7
  6
CONTINUOUS
 70
0
 71
3
 72
17
 73
13
 74
0
 42
0.0000001
 43
0.0000001
 44
0.0000000001
 40
0.0
 40
0.0
 40
0.0
 40
0.0
 40
0.1970387695
 40
0.3690933195
 40
0.5169042239
 40
0.641974504
 40
0.7469421559
 40
0.8363519094
 40
0.8775129098
 40
0.9177062428
 40
0.9581426859
 40
1.0
 40
1.0
 40
1.0
 40
1.0
 10
7.577603486
 20
0.8506522712
 30
0.0
 10
7.5777256113
 20
0.8506522712
 30
0.0
 10
7.5779544601
 20
0.8506578807
 30
0.0
 10
7.5782737975
 20
0.850687235
 30
0.0
 10
7.5785455506
 20
0.8507368739
 30
0.0
 10
7.5787698782
 20
0.8508068845
 30
0.0
 10
7.57894724
 20
0.8508976752
 30
0.0
 10
7.5790587337
 20
0.8509954222
 30
0.0
 10
7.5791186713
 20
0.8510832598
 30
0.0
 10
7.5791498518
 20
0.8511524501
 30
0.0
 10
7.5791683549
 20
0.8512264657
 30
0.0
 10
7.5791721844
 20
0.8512775898
 30
0.0
 10
7.5791721846
 20
0.8513035331
 30
0.0
  0
LINE
  5
460
100
AcDbEntity
  8
0
100
AcDbLine
 62
7
  6
CONTINUOUS
 10
3.6312878345
 20
5.8469588587
 11
3.6310652767
 21
5.842034479
  0
SPLINE
  5
461
100
AcDbEntity
  8
0
100
AcDbSpline
 62
7
  6
CONTINUOUS
 70
0
 71
3
 72
17
 73
13
 74
0
 42
0.0000001
 43
0.0000001
 44
0.0000000001
 40
0.0
 40
0.0
 40
0.0
 40
0.0
 40
0.1970387776
 40
0.3690933352
 40
0.5169042397
 40
0.6419745108
 40
0.746942158
 40
0.8363519136
 40
0.8775129161
 40
0.9177062507
 40
0.958142693
 40
1.0
 40
1.0
 40
1.0
 40
1.0
 10
7.577603486
 20
0.752770995
 30
0.0
 10
7.5777256113
 20
0.752770995
 30
0.0
 10
7.5779544601
 20
0.7527653855
 30
0.0
 10
7.5782737975
 20
0.752736031
 30
0.0
 10
7.5785455506
 20
0.7526863922
 30
0.0
 10
7.5787698782
 20
0.7526163817
 30
0.0
 10
7.57894724
 20
0.752525591
 30
0.0
 10
7.5790587337
 20
0.752427844
 30
0.0
 10
7.5791186713
 20
0.7523400064
 30
0.0
 10
7.5791498518
 20
0.752270816
 30
0.0
 10
7.5791683549
 20
0.7521968005
 30
0.0
 10
7.5791721844
 20
0.7521456764
 30
0.0
 10
7.5791721846
 20
0.7521197331
 30
0.0
  0
SPLINE
  5
462
100
AcDbEntity
  8
0
100
AcDbSpline
 62
7
  6
CONTINUOUS
 70
0
 71
3
 72
17
 73
13
 74
0
 42
0.0000001
 43
0.0000001
 44
0.0000000001
 40
0.0
 40
0.0
 40
0.0
 40
0.0
 40
0.0416803924
 40
0.0819837639
 40
0.1220862542
 40
0.1631963847
 40
0.2526087849
 40
0.3576826731
 40
0.4828971541
 40
0.6308436493
 40
0.8029755761
 40
1.0
 40
1.0
 40
1.0
 40
1.0
 10
7.5109721846
 20
3.4924464284
 30
0.0
 10
7.5109721844
 20
3.4924152677
 30
0.0
 10
7.5109675576
 20
3.492353833
 30
0.0
 10
7.5109452163
 20
3.4922648684
 30
0.0
 10
7.5109075651
 20
3.4921816535
 30
0.0
 10
7.5108351411
 20
3.4920759175
 30
0.0
 10
7.5107004838
 20
3.4919581644
 30
0.0
 10
7.5104863148
 20
3.491848713
 30
0.0
 10
7.5102154544
 20
3.4917641943
 30
0.0
 10
7.5098874045
 20
3.4917042556
 30
0.0
 10
7.5095020772
 20
3.4916687668
 30
0.0
 10
7.5092259908
 20
3.4916619859
 30
0.0
 10
7.5090786934
 20
3.4916619857
 30
0.0
  0
SPLINE
  5
463
100
AcDbEntity
  8
0
100
AcDbSpline
 62
7
  6
CONTINUOUS
 70
0
 71
3
 72
17
 73
13
 74
0
 42
0.0000001
 43
0.0000001
 44
0.0000000001
 40
0.0
 40
0.0
 40
0.0
 40
0.0
 40
0.1970244415
 40
0.3691564036
 40
0.5171029303
 40
0.642317409
 40
0.747391087
 40
0.8368030821
 40
0.877913358
 40
0.918016352
 40
0.9583200751
 40
1.0
 40
1.0
 40
1.0
 40
1.0
 10
7.5090786934
 20
3.3953612805
 30
0.0
 10
7.5092259908
 20
3.3953612803
 30
0.0
 10
7.5095020772
 20
3.3953544991
 30
0.0
 10
7.5098874045
 20
3.3953190098
 30
0.0
 10
7.5102154544
 20
3.3952590709
 30
0.0
 10
7.5104863146
 20
3.3951745521
 30
0.0
 10
7.5107004835
 20
3.3950651018
 30
0.0
 10
7.5108351416
 20
3.3949473499
 30
0.0
 10
7.5109075653
 20
3.3948416135
 30
0.0
 10
7.5109452162
 20
3.3947583977
 30
0.0
 10
7.5109675574
 20
3.3946694328
 30
0.0
 10
7.5109721844
 20
3.3946079981
 30
0.0
 10
7.5109721846
 20
3.3945768378
 30
0.0
  0
SPLINE
  5
464
100
AcDbEntity
  8
0
100
AcDbSpline
 62
7
  6
CONTINUOUS
 70
0
 71
3
 72
11
 73
7
 74
0
 42
0.0000001
 43
0.0000001
 44
0.0000000001
 40
0.0
 40
0.0
 40
0.0
 40
0.0
 40
0.2215425604
 40
0.4632901871
 40
0.7234596147
 40
1.0
 40
1.0
 40
1.0
 40
1.0
 10
7.4436136237
 20
3.4916619857
 30
0.0
 10
7.4429867225
 20
3.4916619863
 30
0.0
 10
7.4416756237
 20
3.4917000613
 30
0.0
 10
7.439633597
 20
3.4918525953
 30
0.0
 10
7.4374443683
 20
3.4921009636
 30
0.0
 10
7.4359415061
 20
3.4923218399
 30
0.0
 10
7.4351689587
 20
3.4924464284
 30
0.0
  0
SPLINE
  5
465
100
AcDbEntity
  8
0
100
AcDbSpline
 62
7
  6
CONTINUOUS
 70
0
 71
3
 72
11
 73
7
 74
0
 42
0.0000001
 43
0.0000001
 44
0.0000000001
 40
0.0
 40
0.0
 40
0.0
 40
0.0
 40
0.2765403556
 40
0.5367097358
 40
0.7784574067
 40
1.0
 40
1.0
 40
1.0
 40
1.0
 10
7.4351689587
 20
3.3945768378
 30
0.0
 10
7.4359415077
 20
3.3947014162
 30
0.0
 10
7.4374443662
 20
3.394922316
 30
0.0
 10
7.4396335971
 20
3.3951706673
 30
0.0
 10
7.4416756228
 20
3.3953232171
 30
0.0
 10
7.4429867224
 20
3.3953612802
 30
0.0
 10
7.4436136237
 20
3.3953612805
 30
0.0
  0
SPLINE
  5
466
100
AcDbEntity
  8
0
100
AcDbSpline
 62
7
  6
CONTINUOUS
 70
0
 71
3
 72
11
 73
7
 74
0
 42
0.0000001
 43
0.0000001
 44
0.0000000001
 40
0.0
 40
0.0
 40
0.0
 40
0.0
 40
0.2765403556
 40
0.5367097358
 40
0.7784574067
 40
1.0
 40
1.0
 40
1.0
 40
1.0
 10
6.8867754104
 20
3.4924464284
 30
0.0
 10
6.8860028614
 20
3.49232185
 30
0.0
 10
6.8845000029
 20
3.4921009502
 30
0.0
 10
6.8823107721
 20
3.4918525989
 30
0.0
 10
6.8802687463
 20
3.4917000491
 30
0.0
 10
6.8789576467
 20
3.491661986
 30
0.0
 10
6.8783307454
 20
3.4916619857
 30
0.0
  0
SPLINE
  5
467
100
AcDbEntity
  8
0
100
AcDbSpline
 62
7
  6
CONTINUOUS
 70
0
 71
3
 72
11
 73
7
 74
0
 42
0.0000001
 43
0.0000001
 44
0.0000000001
 40
0.0
 40
0.0
 40
0.0
 40
0.0
 40
0.2215425604
 40
0.4632901871
 40
0.7234596147
 40
1.0
 40
1.0
 40
1.0
 40
1.0
 10
6.8783307454
 20
3.3953612805
 30
0.0
 10
6.8789576466
 20
3.3953612799
 30
0.0
 10
6.8802687454
 20
3.3953232049
 30
0.0
 10
6.8823107721
 20
3.3951706709
 30
0.0
 10
6.8845000008
 20
3.3949223026
 30
0.0
 10
6.886002863
 20
3.3947014263
 30
0.0
 10
6.8867754104
 20
3.3945768378
 30
0.0
  0
SPLINE
  5
468
100
AcDbEntity
  8
0
100
AcDbSpline
 62
7
  6
CONTINUOUS
 70
0
 71
3
 72
33
 73
29
 74
0
 42
0.0000001
 43
0.0000001
 44
0.0000000001
 40
0.0
 40
0.0
 40
0.0
 40
0.0
 40
0.1047864751
 40
0.2050815074
 40
0.3004658626
 40
0.3905428878
 40
0.4749482099
 40
0.5533551002
 40
0.590221186
 40
0.6254868115
 40
0.6591258888
 40
0.6911168056
 40
0.7214431585
 40
0.7500938977
 40
0.7770648061
 40
0.8023597444
 40
0.8259922426
 40
0.8479875642
 40
0.8683851085
 40
0.8872429166
 40
0.9046420375
 40
0.9206927539
 40
0.9355420061
 40
0.949379921
 40
0.9624448945
 40
0.9750218993
 40
0.9874304268
 40
1.0
 40
1.0
 40
1.0
 40
1.0
 10
3.9867026298
 20
5.0565690638
 30
0.0
 10
3.9891170087
 20
5.0555746855
 30
0.0
 10
3.9938612903
 20
5.0536742607
 30
0.0
 10
4.0008685489
 20
5.0510352055
 30
0.0
 10
4.0075871232
 20
5.0486743726
 30
0.0
 10
4.0139844706
 20
5.0465994008
 30
0.0
 10
4.0200296953
 20
5.0448172066
 30
0.0
 10
4.0248440096
 20
5.0435562045
 30
0.0
 10
4.0284974725
 20
5.0427045802
 30
0.0
 10
4.0310756188
 20
5.0421560959
 30
0.0
 10
4.0335454937
 20
5.0416850966
 30
0.0
 10
4.0359043086
 20
5.0412920472
 30
0.0
 10
4.0381494347
 20
5.040977337
 30
0.0
 10
4.0402784284
 20
5.0407413126
 30
0.0
 10
4.0422890324
 20
5.0405842738
 30
0.0
 10
4.0441791959
 20
5.0405064463
 30
0.0
 10
4.0459470859
 20
5.0405079829
 30
0.0
 10
4.0475910895
 20
5.0405890118
 30
0.0
 10
4.0491098264
 20
5.0407496719
 30
0.0
 10
4.0505021531
 20
5.040990086
 30
0.0
 10
4.0517671592
 20
5.0413104541
 30
0.0
 10
4.0529041034
 20
5.0417111275
 30
0.0
 10
4.0539122938
 20
5.0421926216
 30
0.0
 10
4.0547908288
 20
5.0427556767
 30
0.0
 10
4.0555383321
 20
5.0434009098
 30
0.0
 10
4.0561529469
 20
5.0441284269
 30
0.0
 10
4.0566327488
 20
5.0449367352
 30
0.0
 10
4.056859096
 20
5.0455199291
 30
0.0
 10
4.0569497206
 20
5.0458197484
 30
0.0
  0
SPLINE
  5
469
100
AcDbEntity
  8
0
100
AcDbSpline
 62
7
  6
CONTINUOUS
 70
0
 71
3
 72
33
 73
29
 74
0
 42
0.0000001
 43
0.0000001
 44
0.0000000001
 40
0.0
 40
0.0
 40
0.0
 40
0.0
 40
0.0125681727
 40
0.024975644
 40
0.0375526604
 40
0.0506175376
 40
0.0644546694
 40
0.0793036895
 40
0.0953547903
 40
0.1127540285
 40
0.1316118971
 40
0.1520100175
 40
0.1740068713
 40
0.1976403547
 40
0.222934432
 40
0.2499040487
 40
0.2785543352
 40
0.3088814855
 40
0.3408730146
 40
0.3745114162
 40
0.4097767667
 40
0.446643426
 40
0.5250505077
 40
0.6094560519
 40
0.6995333475
 40
0.7949177267
 40
0.8952134542
 40
1.0
 40
1.0
 40
1.0
 40
1.0
 10
3.4822982277
 20
5.1337537835
 30
0.0
 10
3.4822950803
 20
5.1334406193
 30
0.0
 10
3.4823368739
 20
5.1328164914
 30
0.0
 10
3.4825533299
 20
5.1319018454
 30
0.0
 10
3.4829222757
 20
5.1310238875
 30
0.0
 10
3.4834423204
 20
5.1301845047
 30
0.0
 10
3.4841119457
 20
5.1293842467
 30
0.0
 10
3.4849300085
 20
5.1286232976
 30
0.0
 10
3.4858951611
 20
5.1279010381
 30
0.0
 10
3.4870064785
 20
5.1272170289
 30
0.0
 10
3.4882632085
 20
5.1265712406
 30
0.0
 10
3.489664468
 20
5.1259637881
 30
0.0
 10
3.4912091395
 20
5.1253949832
 30
0.0
 10
3.4928957297
 20
5.1248649254
 30
0.0
 10
3.4947226067
 20
5.1243738535
 30
0.0
 10
3.4966880705
 20
5.1239223548
 30
0.0
 10
3.4987901839
 20
5.1235108833
 30
0.0
 10
3.5010267131
 20
5.1231398818
 30
0.0
 10
3.5033951419
 20
5.122809612
 30
0.0
 10
3.5058928154
 20
5.1225203791
 30
0.0
 10
3.5085169846
 20
5.1222727709
 30
0.0
 10
3.5122579391
 20
5.1219929587
 30
0.0
 10
3.5172290452
 20
5.121756539
 30
0.0
 10
3.5235305846
 20
5.1216494184
 30
0.0
 10
3.5302556786
 20
5.1217163773
 30
0.0
 10
3.5373727974
 20
5.1219600022
 30
0.0
 10
3.5448485779
 20
5.1223829075
 30
0.0
 10
3.5499440691
 20
5.1227775961
 30
0.0
 10
3.5525453185
 20
5.1230044681
 30
0.0
  0
SPLINE
  5
46A
100
AcDbEntity
  8
0
100
AcDbSpline
 62
7
  6
CONTINUOUS
 70
0
 71
3
 72
17
 73
13
 74
0
 42
0.0000001
 43
0.0000001
 44
0.0000000001
 40
0.0
 40
0.0
 40
0.0
 40
0.0
 40
0.1970244415
 40
0.3691564036
 40
0.5171029303
 40
0.642317409
 40
0.747391087
 40
0.8368030821
 40
0.877913358
 40
0.918016352
 40
0.9583200751
 40
1.0
 40
1.0
 40
1.0
 40
1.0
 10
6.8128656757
 20
3.4916619857
 30
0.0
 10
6.8127183783
 20
3.4916619859
 30
0.0
 10
6.8124422919
 20
3.4916687671
 30
0.0
 10
6.8120569646
 20
3.4917042564
 30
0.0
 10
6.8117289147
 20
3.4917641953
 30
0.0
 10
6.8114580545
 20
3.4918487141
 30
0.0
 10
6.8112438856
 20
3.4919581644
 30
0.0
 10
6.8111092275
 20
3.4920759163
 30
0.0
 10
6.8110368038
 20
3.4921816527
 30
0.0
 10
6.8109991529
 20
3.4922648685
 30
0.0
 10
6.8109768117
 20
3.4923538334
 30
0.0
 10
6.8109721847
 20
3.4924152681
 30
0.0
 10
6.8109721846
 20
3.4924464284
 30
0.0
  0
SPLINE
  5
46B
100
AcDbEntity
  8
0
100
AcDbSpline
 62
7
  6
CONTINUOUS
 70
0
 71
3
 72
17
 73
13
 74
0
 42
0.0000001
 43
0.0000001
 44
0.0000000001
 40
0.0
 40
0.0
 40
0.0
 40
0.0
 40
0.0416803924
 40
0.0819837639
 40
0.1220862542
 40
0.1631963847
 40
0.2526087849
 40
0.3576826731
 40
0.4828971541
 40
0.6308436493
 40
0.8029755761
 40
1.0
 40
1.0
 40
1.0
 40
1.0
 10
6.8109721846
 20
3.3945768378
 30
0.0
 10
6.8109721847
 20
3.3946079985
 30
0.0
 10
6.8109768115
 20
3.3946694332
 30
0.0
 10
6.8109991528
 20
3.3947583978
 30
0.0
 10
6.811036804
 20
3.3948416127
 30
0.0
 10
6.811109228
 20
3.3949473487
 30
0.0
 10
6.8112438853
 20
3.3950651018
 30
0.0
 10
6.8114580543
 20
3.3951745532
 30
0.0
 10
6.8117289147
 20
3.3952590719
 30
0.0
 10
6.8120569646
 20
3.3953190106
 30
0.0
 10
6.8124422919
 20
3.3953544994
 30
0.0
 10
6.8127183783
 20
3.3953612803
 30
0.0
 10
6.8128656757
 20
3.3953612805
 30
0.0
  0
SPLINE
  5
46C
100
AcDbEntity
  8
0
100
AcDbSpline
 62
7
  6
CONTINUOUS
 70
0
 71
3
 72
15
 73
11
 74
0
 42
0.0000001
 43
0.0000001
 44
0.0000000001
 40
0.0
 40
0.0
 40
0.0
 40
0.0
 40
0.1243611676
 40
0.2487942517
 40
0.3733771391
 40
0.4981653677
 40
0.6232048818
 40
0.7485235525
 40
0.8741238905
 40
1.0
 40
1.0
 40
1.0
 40
1.0
 10
6.8109721846
 20
3.4924464284
 30
0.0
 10
6.8109721846
 20
3.492797013
 30
0.0
 10
6.8110200391
 20
3.4934993207
 30
0.0
 10
6.811234098
 20
3.4945330643
 30
0.0
 10
6.811586558
 20
3.4955296336
 30
0.0
 10
6.8120711212
 20
3.4964709406
 30
0.0
 10
6.8126790515
 20
3.4973402141
 30
0.0
 10
6.8133995162
 20
3.4981219159
 30
0.0
 10
6.8142193793
 20
3.4988020082
 30
0.0
 10
6.8148223832
 20
3.499179469
 30
0.0
 10
6.8151349616
 20
3.4993474485
 30
0.0
  0
SPLINE
  5
46D
100
AcDbEntity
  8
0
100
AcDbSpline
 62
7
  6
CONTINUOUS
 70
0
 71
3
 72
15
 73
11
 74
0
 42
0.0000001
 43
0.0000001
 44
0.0000000001
 40
0.0
 40
0.0
 40
0.0
 40
0.0
 40
0.1270960174
 40
0.2539471331
 40
0.3803342007
 40
0.5060556191
 40
0.6309564269
 40
0.754933636
 40
0.8779392275
 40
1.0
 40
1.0
 40
1.0
 40
1.0
 10
6.8128656757
 20
3.4916619857
 30
0.0
 10
6.8128656757
 20
3.4920064406
 30
0.0
 10
6.8129075758
 20
3.4926954232
 30
0.0
 10
6.8130951734
 20
3.49371147
 30
0.0
 10
6.8134043821
 20
3.4946936237
 30
0.0
 10
6.8138301394
 20
3.4956253537
 30
0.0
 10
6.8143653927
 20
3.4964911831
 30
0.0
 10
6.8150013685
 20
3.4972766608
 30
0.0
 10
6.8157273326
 20
3.497968539
 30
0.0
 10
6.8162657248
 20
3.4983613594
 30
0.0
 10
6.8165453601
 20
3.4985381029
 30
0.0
  0
SPLINE
  5
46E
100
AcDbEntity
  8
0
100
AcDbSpline
 62
7
  6
CONTINUOUS
 70
0
 71
3
 72
13
 73
9
 74
0
 42
0.0000001
 43
0.0000001
 44
0.0000000001
 40
0.0
 40
0.0
 40
0.0
 40
0.0
 40
0.2655463822
 40
0.5239587781
 40
0.6487952478
 40
0.7698899149
 40
0.8869637916
 40
1.0
 40
1.0
 40
1.0
 40
1.0
 10
6.8783307454
 20
3.4916619857
 30
0.0
 10
6.8783307454
 20
3.4923472262
 30
0.0
 10
6.878463203
 20
3.4937028762
 30
0.0
 10
6.8789594324
 20
3.4953155125
 30
0.0
 10
6.8795429513
 20
3.4964815783
 30
0.0
 10
6.8800576438
 20
3.4972670313
 30
0.0
 10
6.8806456705
 20
3.4979596957
 30
0.0
 10
6.8810882557
 20
3.4983589275
 30
0.0
 10
6.8813184267
 20
3.4985381029
 30
0.0
  0
SPLINE
  5
46F
100
AcDbEntity
  8
0
100
AcDbSpline
 62
7
  6
CONTINUOUS
 70
0
 71
3
 72
15
 73
11
 74
0
 42
0.0000001
 43
0.0000001
 44
0.0000000001
 40
0.0
 40
0.0
 40
0.0
 40
0.0
 40
0.1482905739
 40
0.2930016983
 40
0.432279003
 40
0.5644398565
 40
0.6880753518
 40
0.8021405181
 40
0.906078369
 40
1.0
 40
1.0
 40
1.0
 40
1.0
 10
6.8867754104
 20
3.4924464284
 30
0.0
 10
6.8867192697
 20
3.4927945214
 30
0.0
 10
6.8866308732
 20
3.4934861829
 30
0.0
 10
6.8865704025
 20
3.4945130428
 30
0.0
 10
6.8865840615
 20
3.4955033809
 30
0.0
 10
6.8866716203
 20
3.4964397685
 30
0.0
 10
6.8868315215
 20
3.4973058745
 30
0.0
 10
6.8870612047
 20
3.4980868812
 30
0.0
 10
6.8873568518
 20
3.4987692777
 30
0.0
 10
6.8876076677
 20
3.4991704329
 30
0.0
 10
6.8877438161
 20
3.4993474485
 30
0.0
  0
SPLINE
  5
470
100
AcDbEntity
  8
0
100
AcDbSpline
 62
7
  6
CONTINUOUS
 70
0
 71
3
 72
18
 73
14
 74
0
 42
0.0000001
 43
0.0000001
 44
0.0000000001
 40
0.0
 40
0.0
 40
0.0
 40
0.0
 40
0.0484426257
 40
0.0975393563
 40
0.1478864258
 40
0.2000000589
 40
0.2542772305
 40
0.3109935268
 40
0.432101696
 40
0.5634528912
 40
0.7036033909
 40
0.8501313554
 40
1.0
 40
1.0
 40
1.0
 40
1.0
 10
7.0109514942
 20
2.9472056296
 30
0.0
 10
7.0109514942
 20
2.9470371324
 30
0.0
 10
7.0109776333
 20
2.9466973069
 30
0.0
 10
7.0110944632
 20
2.9461945026
 30
0.0
 10
7.0112875866
 20
2.9457020772
 30
0.0
 10
7.0115547134
 20
2.9452250349
 30
0.0
 10
7.0118929806
 20
2.9447678167
 30
0.0
 10
7.0124460809
 20
2.9441776462
 30
0.0
 10
7.0133042734
 20
2.9435170187
 30
0.0
 10
7.0145210951
 20
2.9428846899
 30
0.0
 10
7.0159029426
 20
2.9424160166
 30
0.0
 10
7.0173980273
 20
2.9421279094
 30
0.0
 10
7.0184302083
 20
2.9420633288
 30
0.0
 10
7.0189514942
 20
2.9420633288
 30
0.0
  0
SPLINE
  5
471
100
AcDbEntity
  8
0
100
AcDbSpline
 62
7
  6
CONTINUOUS
 70
0
 71
3
 72
18
 73
14
 74
0
 42
0.0000001
 43
0.0000001
 44
0.0000000001
 40
0.0
 40
0.0
 40
0.0
 40
0.0
 40
0.0484426257
 40
0.0975393563
 40
0.1478864258
 40
0.2000000589
 40
0.2542772305
 40
0.3109935268
 40
0.432101696
 40
0.5634528912
 40
0.7036033909
 40
0.8501313554
 40
1.0
 40
1.0
 40
1.0
 40
1.0
 10
7.0109514942
 20
2.8294959685
 30
0.0
 10
7.0109514942
 20
2.8293274712
 30
0.0
 10
7.0109776333
 20
2.8289876457
 30
0.0
 10
7.0110944632
 20
2.8284848414
 30
0.0
 10
7.0112875866
 20
2.8279924161
 30
0.0
 10
7.0115547134
 20
2.8275153737
 30
0.0
 10
7.0118929806
 20
2.8270581555
 30
0.0
 10
7.0124460809
 20
2.826467985
 30
0.0
 10
7.0133042734
 20
2.8258073575
 30
0.0
 10
7.0145210951
 20
2.8251750287
 30
0.0
 10
7.0159029426
 20
2.8247063554
 30
0.0
 10
7.0173980273
 20
2.8244182483
 30
0.0
 10
7.0184302083
 20
2.8243536676
 30
0.0
 10
7.0189514942
 20
2.8243536676
 30
0.0
  0
SPLINE
  5
472
100
AcDbEntity
  8
0
100
AcDbSpline
 62
7
  6
CONTINUOUS
 70
0
 71
3
 72
18
 73
14
 74
0
 42
0.0000001
 43
0.0000001
 44
0.0000000001
 40
0.0
 40
0.0
 40
0.0
 40
0.0
 40
0.0484426257
 40
0.0975393563
 40
0.1478864258
 40
0.2000000589
 40
0.2542772306
 40
0.3109935268
 40
0.432101696
 40
0.5634528912
 40
0.7036033909
 40
0.8501313554
 40
1.0
 40
1.0
 40
1.0
 40
1.0
 10
7.3109514942
 20
2.8294959685
 30
0.0
 10
7.3109514942
 20
2.8293274712
 30
0.0
 10
7.3109253551
 20
2.8289876457
 30
0.0
 10
7.3108085252
 20
2.8284848414
 30
0.0
 10
7.3106154018
 20
2.8279924161
 30
0.0
 10
7.310348275
 20
2.8275153737
 30
0.0
 10
7.3100100078
 20
2.8270581555
 30
0.0
 10
7.3094569076
 20
2.826467985
 30
0.0
 10
7.308598715
 20
2.8258073575
 30
0.0
 10
7.3073818934
 20
2.8251750287
 30
0.0
 10
7.3060000458
 20
2.8247063554
 30
0.0
 10
7.3045049611
 20
2.8244182483
 30
0.0
 10
7.3034727801
 20
2.8243536676
 30
0.0
 10
7.3029514942
 20
2.8243536676
 30
0.0
  0
SPLINE
  5
473
100
AcDbEntity
  8
0
100
AcDbSpline
 62
7
  6
CONTINUOUS
 70
0
 71
3
 72
18
 73
14
 74
0
 42
0.0000001
 43
0.0000001
 44
0.0000000001
 40
0.0
 40
0.0
 40
0.0
 40
0.0
 40
0.0484426257
 40
0.0975393563
 40
0.1478864258
 40
0.2000000589
 40
0.2542772305
 40
0.3109935268
 40
0.432101696
 40
0.5634528912
 40
0.7036033909
 40
0.8501313554
 40
1.0
 40
1.0
 40
1.0
 40
1.0
 10
7.3109514942
 20
2.9472056296
 30
0.0
 10
7.3109514942
 20
2.9470371324
 30
0.0
 10
7.3109253551
 20
2.9466973069
 30
0.0
 10
7.3108085252
 20
2.9461945026
 30
0.0
 10
7.3106154018
 20
2.9457020772
 30
0.0
 10
7.310348275
 20
2.9452250349
 30
0.0
 10
7.3100100078
 20
2.9447678167
 30
0.0
 10
7.3094569076
 20
2.9441776462
 30
0.0
 10
7.308598715
 20
2.9435170187
 30
0.0
 10
7.3073818934
 20
2.9428846899
 30
0.0
 10
7.3060000458
 20
2.9424160166
 30
0.0
 10
7.3045049611
 20
2.9421279094
 30
0.0
 10
7.3034727801
 20
2.9420633288
 30
0.0
 10
7.3029514942
 20
2.9420633288
 30
0.0
  0
SPLINE
  5
474
100
AcDbEntity
  8
0
100
AcDbSpline
 62
7
  6
CONTINUOUS
 70
0
 71
3
 72
13
 73
9
 74
0
 42
0.0000001
 43
0.0000001
 44
0.0000000001
 40
0.0
 40
0.0
 40
0.0
 40
0.0
 40
0.2655463849
 40
0.5239587836
 40
0.6487952539
 40
0.7698899205
 40
0.8869637953
 40
1.0
 40
1.0
 40
1.0
 40
1.0
 10
7.4436136237
 20
3.4916619857
 30
0.0
 10
7.4436136237
 20
3.4923472262
 30
0.0
 10
7.4434811661
 20
3.4937028762
 30
0.0
 10
7.4429849366
 20
3.4953155125
 30
0.0
 10
7.4424014177
 20
3.4964815783
 30
0.0
 10
7.4418867252
 20
3.4972670313
 30
0.0
 10
7.4412986986
 20
3.4979596957
 30
0.0
 10
7.4408561134
 20
3.4983589275
 30
0.0
 10
7.4406259424
 20
3.4985381029
 30
0.0
  0
SPLINE
  5
475
100
AcDbEntity
  8
0
100
AcDbSpline
 62
7
  6
CONTINUOUS
 70
0
 71
3
 72
15
 73
11
 74
0
 42
0.0000001
 43
0.0000001
 44
0.0000000001
 40
0.0
 40
0.0
 40
0.0
 40
0.0
 40
0.1482906534
 40
0.2930018629
 40
0.4322792444
 40
0.564440152
 40
0.6880756646
 40
0.8021407971
 40
0.9060785484
 40
1.0
 40
1.0
 40
1.0
 40
1.0
 10
7.4351689587
 20
3.4924464284
 30
0.0
 10
7.4352250985
 20
3.4927945216
 30
0.0
 10
7.4353134934
 20
3.4934861834
 30
0.0
 10
7.4353739625
 20
3.4945130437
 30
0.0
 10
7.4353603025
 20
3.4955033819
 30
0.0
 10
7.4352727435
 20
3.4964397695
 30
0.0
 10
7.4351128428
 20
3.4973058754
 30
0.0
 10
7.4348831606
 20
3.4980868818
 30
0.0
 10
7.4345875152
 20
3.4987692779
 30
0.0
 10
7.4343367007
 20
3.499170433
 30
0.0
 10
7.434200553
 20
3.4993474485
 30
0.0
  0
SPLINE
  5
476
100
AcDbEntity
  8
0
100
AcDbSpline
 62
7
  6
CONTINUOUS
 70
0
 71
3
 72
15
 73
11
 74
0
 42
0.0000001
 43
0.0000001
 44
0.0000000001
 40
0.0
 40
0.0
 40
0.0
 40
0.0
 40
0.1270960174
 40
0.2539471332
 40
0.3803342008
 40
0.5060556192
 40
0.630956427
 40
0.7549336361
 40
0.8779392276
 40
1.0
 40
1.0
 40
1.0
 40
1.0
 10
7.5090786934
 20
3.4916619857
 30
0.0
 10
7.5090786934
 20
3.4920064406
 30
0.0
 10
7.5090367934
 20
3.4926954232
 30
0.0
 10
7.5088491957
 20
3.49371147
 30
0.0
 10
7.508539987
 20
3.4946936237
 30
0.0
 10
7.5081142298
 20
3.4956253537
 30
0.0
 10
7.5075789764
 20
3.4964911831
 30
0.0
 10
7.5069430006
 20
3.4972766608
 30
0.0
 10
7.5062170365
 20
3.497968539
 30
0.0
 10
7.5056786443
 20
3.4983613594
 30
0.0
 10
7.505399009
 20
3.4985381029
 30
0.0
  0
SPLINE
  5
477
100
AcDbEntity
  8
0
100
AcDbSpline
 62
7
  6
CONTINUOUS
 70
0
 71
3
 72
15
 73
11
 74
0
 42
0.0000001
 43
0.0000001
 44
0.0000000001
 40
0.0
 40
0.0
 40
0.0
 40
0.0
 40
0.1243611677
 40
0.248794252
 40
0.3733771396
 40
0.4981653682
 40
0.6232048823
 40
0.7485235529
 40
0.8741238907
 40
1.0
 40
1.0
 40
1.0
 40
1.0
 10
7.5109721846
 20
3.4924464284
 30
0.0
 10
7.5109721846
 20
3.492797013
 30
0.0
 10
7.5109243301
 20
3.4934993207
 30
0.0
 10
7.5107102711
 20
3.4945330643
 30
0.0
 10
7.5103578112
 20
3.4955296336
 30
0.0
 10
7.5098732479
 20
3.4964709406
 30
0.0
 10
7.5092653176
 20
3.4973402141
 30
0.0
 10
7.5085448529
 20
3.4981219159
 30
0.0
 10
7.5077249898
 20
3.4988020082
 30
0.0
 10
7.5071219859
 20
3.499179469
 30
0.0
 10
7.5068094075
 20
3.4993474485
 30
0.0
  0
SPLINE
  5
478
100
AcDbEntity
  8
0
100
AcDbSpline
 62
7
  6
CONTINUOUS
 70
0
 71
3
 72
18
 73
14
 74
0
 42
0.0000001
 43
0.0000001
 44
0.0000000001
 40
0.0
 40
0.0
 40
0.0
 40
0.0
 40
0.1293950215
 40
0.1940247592
 40
0.2584307714
 40
0.3861126775
 40
0.5121296223
 40
0.6363014175
 40
0.7587153731
 40
0.8194256755
 40
0.8798289548
 40
0.9399984927
 40
1.0
 40
1.0
 40
1.0
 40
1.0
 10
7.1637158574
 20
2.5981853623
 30
0.0
 10
7.1642753467
 20
2.598186948
 30
0.0
 10
7.1651169149
 20
2.5982713267
 30
0.0
 10
7.1662025118
 20
2.5985411617
 30
0.0
 10
7.1672509109
 20
2.5989104387
 30
0.0
 10
7.1684785045
 20
2.5995502121
 30
0.0
 10
7.1697679326
 20
2.6005691123
 30
0.0
 10
7.1708285619
 20
2.6017943828
 30
0.0
 10
7.1714968832
 20
2.6029530203
 30
0.0
 10
7.1718865445
 20
2.6039327208
 30
0.0
 10
7.1721047827
 20
2.6046869395
 30
0.0
 10
7.1722478279
 20
2.6054557054
 30
0.0
 10
7.1722923184
 20
2.6059744132
 30
0.0
 10
7.1723016314
 20
2.6062336867
 30
0.0
  0
SPLINE
  5
479
100
AcDbEntity
  8
0
100
AcDbSpline
 62
7
  6
CONTINUOUS
 70
0
 71
3
 72
17
 73
13
 74
0
 42
0.0000001
 43
0.0000001
 44
0.0000000001
 40
0.0
 40
0.0
 40
0.0
 40
0.0
 40
0.1200440231
 40
0.1804550615
 40
0.2411739617
 40
0.3636060667
 40
0.4877957787
 40
0.6138312653
 40
0.7415318124
 40
0.8059469296
 40
0.8705862471
 40
1.0
 40
1.0
 40
1.0
 40
1.0
 10
7.1973798581
 20
2.6313119134
 30
0.0
 10
7.1978985046
 20
2.6313305837
 30
0.0
 10
7.1986780506
 20
2.6314369268
 30
0.0
 10
7.1996807437
 20
2.6317269903
 30
0.0
 10
7.2006606199
 20
2.6321166021
 30
0.0
 10
7.2018191026
 20
2.6327850529
 30
0.0
 10
7.2030444458
 20
2.6338456059
 30
0.0
 10
7.204063364
 20
2.6351350285
 30
0.0
 10
7.2047030708
 20
2.6363626477
 30
0.0
 10
7.2050724041
 20
2.6374110264
 30
0.0
 10
7.2053421371
 20
2.6384966466
 30
0.0
 10
7.2054265776
 20
2.6393381995
 30
0.0
 10
7.2054281825
 20
2.6398976874
 30
0.0
  0
SPLINE
  5
47A
100
AcDbEntity
  8
0
100
AcDbSpline
 62
7
  6
CONTINUOUS
 70
0
 71
3
 72
18
 73
14
 74
0
 42
0.0000001
 43
0.0000001
 44
0.0000000001
 40
0.0
 40
0.0
 40
0.0
 40
0.0
 40
0.1293950227
 40
0.1940247593
 40
0.2584307737
 40
0.3861126835
 40
0.5121296226
 40
0.6363014177
 40
0.7587153734
 40
0.8194256759
 40
0.8798289548
 40
0.9399984925
 40
1.0
 40
1.0
 40
1.0
 40
1.0
 10
7.2054281825
 20
2.6454264138
 30
0.0
 10
7.2054265969
 20
2.6459859031
 30
0.0
 10
7.2053422187
 20
2.6468274714
 30
0.0
 10
7.2050723829
 20
2.6479130681
 30
0.0
 10
7.2047031062
 20
2.6489614673
 30
0.0
 10
7.204063333
 20
2.6501890611
 30
0.0
 10
7.2030444322
 20
2.6514784887
 30
0.0
 10
7.2018191621
 20
2.6525391183
 30
0.0
 10
7.2006605245
 20
2.6532074396
 30
0.0
 10
7.1996808241
 20
2.6535971009
 30
0.0
 10
7.1989266053
 20
2.653815339
 30
0.0
 10
7.1981578394
 20
2.6539583843
 30
0.0
 10
7.1976391316
 20
2.6540028748
 30
0.0
 10
7.1973798581
 20
2.6540121878
 30
0.0
  0
SPLINE
  5
47B
100
AcDbEntity
  8
0
100
AcDbSpline
 62
7
  6
CONTINUOUS
 70
0
 71
3
 72
17
 73
13
 74
0
 42
0.0000001
 43
0.0000001
 44
0.0000000001
 40
0.0
 40
0.0
 40
0.0
 40
0.0
 40
0.120044022
 40
0.1804550619
 40
0.2411739644
 40
0.3636060674
 40
0.4877957791
 40
0.6138312652
 40
0.7415318124
 40
0.80594693
 40
0.870586247
 40
1.0
 40
1.0
 40
1.0
 40
1.0
 10
7.1723016314
 20
2.6790904145
 30
0.0
 10
7.1722829612
 20
2.6796090609
 30
0.0
 10
7.1721766186
 20
2.6803886071
 30
0.0
 10
7.1718865545
 20
2.6813913001
 30
0.0
 10
7.1714969424
 20
2.6823711762
 30
0.0
 10
7.1708284919
 20
2.683529659
 30
0.0
 10
7.1697679389
 20
2.6847550022
 30
0.0
 10
7.1684785163
 20
2.6857739203
 30
0.0
 10
7.1672508971
 20
2.6864136272
 30
0.0
 10
7.1662025184
 20
2.6867829604
 30
0.0
 10
7.1651168982
 20
2.6870526938
 30
0.0
 10
7.1642753453
 20
2.687137134
 30
0.0
 10
7.1637158574
 20
2.6871387389
 30
0.0
  0
SPLINE
  5
47C
100
AcDbEntity
  8
0
100
AcDbSpline
 62
7
  6
CONTINUOUS
 70
0
 71
3
 72
15
 73
11
 74
0
 42
0.0000001
 43
0.0000001
 44
0.0000000001
 40
0.0
 40
0.0
 40
0.0
 40
0.0
 40
0.1257342143
 40
0.2512363886
 40
0.3765030189
 40
0.5015357307
 40
0.626358186
 40
0.751009098
 40
0.875534263
 40
1.0
 40
1.0
 40
1.0
 40
1.0
 10
7.5750203266
 20
0.8582175517
 30
0.0
 10
7.5753322345
 20
0.8580488516
 30
0.0
 10
7.5759338984
 20
0.8576699627
 30
0.0
 10
7.5767516818
 20
0.8569879577
 30
0.0
 10
7.5774702228
 20
0.8562044864
 30
0.0
 10
7.5780764616
 20
0.8553335823
 30
0.0
 10
7.5785596326
 20
0.8543907689
 30
0.0
 10
7.5789110557
 20
0.8533927957
 30
0.0
 10
7.579124475
 20
0.852357719
 30
0.0
 10
7.5791721846
 20
0.8516545628
 30
0.0
 10
7.5791721846
 20
0.8513035331
 30
0.0
  0
SPLINE
  5
47D
100
AcDbEntity
  8
0
100
AcDbSpline
 62
7
  6
CONTINUOUS
 70
0
 71
3
 72
15
 73
11
 74
0
 42
0.0000001
 43
0.0000001
 44
0.0000000001
 40
0.0
 40
0.0
 40
0.0
 40
0.0
 40
0.1225578594
 40
0.2458965941
 40
0.370042266
 40
0.4949563672
 40
0.6205548558
 40
0.7467096072
 40
0.8732519754
 40
1.0
 40
1.0
 40
1.0
 40
1.0
 10
7.5738564228
 20
0.8575456148
 30
0.0
 10
7.5741407532
 20
0.8573695286
 30
0.0
 10
7.574688324
 20
0.8569776957
 30
0.0
 10
7.57542746
 20
0.8562857061
 30
0.0
 10
7.5760752068
 20
0.8554989995
 30
0.0
 10
7.576620528
 20
0.8546309468
 30
0.0
 10
7.5770543941
 20
0.8536961581
 30
0.0
 10
7.577369546
 20
0.8527102928
 30
0.0
 10
7.5775607712
 20
0.8516900943
 30
0.0
 10
7.577603486
 20
0.8509981455
 30
0.0
 10
7.577603486
 20
0.8506522712
 30
0.0
  0
SPLINE
  5
47E
100
AcDbEntity
  8
0
100
AcDbSpline
 62
7
  6
CONTINUOUS
 70
0
 71
3
 72
13
 73
9
 74
0
 42
0.0000001
 43
0.0000001
 44
0.0000000001
 40
0.0
 40
0.0
 40
0.0
 40
0.0
 40
0.1119020087
 40
0.2282323397
 40
0.3489648009
 40
0.473787191
 40
0.7330092173
 40
1.0
 40
1.0
 40
1.0
 40
1.0
 10
7.4838830023
 20
0.8575456148
 30
0.0
 10
7.4841090101
 20
0.8573666485
 30
0.0
 10
7.4845435742
 20
0.85696722
 30
0.0
 10
7.4851199828
 20
0.8562743071
 30
0.0
 10
7.4856246111
 20
0.8554876558
 30
0.0
 10
7.4861974498
 20
0.8543175108
 30
0.0
 10
7.4866838351
 20
0.8526991681
 30
0.0
 10
7.4868135265
 20
0.851340101
 30
0.0
 10
7.4868135265
 20
0.8506522712
 30
0.0
  0
LINE
  5
47F
100
AcDbEntity
  8
0
100
AcDbLine
 62
7
  6
CONTINUOUS
 10
4.1196537856
 20
5.6331886624
 11
4.1192405522
 21
5.6417167706
  0
SPLINE
  5
480
100
AcDbEntity
  8
0
100
AcDbSpline
 62
7
  6
CONTINUOUS
 70
0
 71
3
 72
18
 73
14
 74
0
 42
0.0000001
 43
0.0000001
 44
0.0000000001
 40
0.0
 40
0.0
 40
0.0
 40
0.0
 40
0.1293950215
 40
0.1940247592
 40
0.2584307714
 40
0.3861126775
 40
0.5121296223
 40
0.6363014175
 40
0.7587153731
 40
0.8194256755
 40
0.8798289548
 40
0.9399984927
 40
1.0
 40
1.0
 40
1.0
 40
1.0
 10
7.158187131
 20
2.6871387389
 30
0.0
 10
7.1576276417
 20
2.6871371532
 30
0.0
 10
7.1567860735
 20
2.6870527745
 30
0.0
 10
7.1557004766
 20
2.6867829395
 30
0.0
 10
7.1546520776
 20
2.6864136624
 30
0.0
 10
7.1534244839
 20
2.6857738891
 30
0.0
 10
7.1521350559
 20
2.6847549889
 30
0.0
 10
7.1510744265
 20
2.6835297184
 30
0.0
 10
7.1504061052
 20
2.6823710809
 30
0.0
 10
7.1500164439
 20
2.6813913804
 30
0.0
 10
7.1497982057
 20
2.6806371617
 30
0.0
 10
7.1496551605
 20
2.6798683958
 30
0.0
 10
7.14961067
 20
2.679349688
 30
0.0
 10
7.149601357
 20
2.6790904145
 30
0.0
  0
SPLINE
  5
481
100
AcDbEntity
  8
0
100
AcDbSpline
 62
7
  6
CONTINUOUS
 70
0
 71
3
 72
17
 73
13
 74
0
 42
0.0000001
 43
0.0000001
 44
0.0000000001
 40
0.0
 40
0.0
 40
0.0
 40
0.0
 40
0.1200440231
 40
0.1804550615
 40
0.2411739617
 40
0.3636060667
 40
0.4877957787
 40
0.6138312653
 40
0.7415318124
 40
0.8059469296
 40
0.8705862471
 40
1.0
 40
1.0
 40
1.0
 40
1.0
 10
7.1245231303
 20
2.6540121878
 30
0.0
 10
7.1240044839
 20
2.6539935175
 30
0.0
 10
7.1232249378
 20
2.6538871744
 30
0.0
 10
7.1222222447
 20
2.6535971109
 30
0.0
 10
7.1212423685
 20
2.6532074991
 30
0.0
 10
7.1200838858
 20
2.6525390483
 30
0.0
 10
7.1188585426
 20
2.6514784953
 30
0.0
 10
7.1178396245
 20
2.6501890726
 30
0.0
 10
7.1171999176
 20
2.6489614535
 30
0.0
 10
7.1168305843
 20
2.6479130748
 30
0.0
 10
7.1165608513
 20
2.6468274546
 30
0.0
 10
7.1164764108
 20
2.6459859017
 30
0.0
 10
7.1164748059
 20
2.6454264138
 30
0.0
  0
SPLINE
  5
482
100
AcDbEntity
  8
0
100
AcDbSpline
 62
7
  6
CONTINUOUS
 70
0
 71
3
 72
18
 73
14
 74
0
 42
0.0000001
 43
0.0000001
 44
0.0000000001
 40
0.0
 40
0.0
 40
0.0
 40
0.0
 40
0.1293950227
 40
0.1940247593
 40
0.2584307737
 40
0.3861126835
 40
0.5121296226
 40
0.6363014177
 40
0.7587153734
 40
0.8194256759
 40
0.8798289548
 40
0.9399984925
 40
1.0
 40
1.0
 40
1.0
 40
1.0
 10
7.1164748059
 20
2.6398976874
 30
0.0
 10
7.1164763916
 20
2.6393381981
 30
0.0
 10
7.1165607697
 20
2.6384966298
 30
0.0
 10
7.1168306055
 20
2.6374110331
 30
0.0
 10
7.1171998823
 20
2.6363626339
 30
0.0
 10
7.1178396554
 20
2.6351350401
 30
0.0
 10
7.1188585562
 20
2.6338456125
 30
0.0
 10
7.1200838263
 20
2.6327849829
 30
0.0
 10
7.1212424639
 20
2.6321166616
 30
0.0
 10
7.1222221644
 20
2.6317270003
 30
0.0
 10
7.1229763831
 20
2.6315087622
 30
0.0
 10
7.123745149
 20
2.6313657169
 30
0.0
 10
7.1242638568
 20
2.6313212264
 30
0.0
 10
7.1245231303
 20
2.6313119134
 30
0.0
  0
SPLINE
  5
483
100
AcDbEntity
  8
0
100
AcDbSpline
 62
7
  6
CONTINUOUS
 70
0
 71
3
 72
17
 73
13
 74
0
 42
0.0000001
 43
0.0000001
 44
0.0000000001
 40
0.0
 40
0.0
 40
0.0
 40
0.0
 40
0.120044022
 40
0.1804550619
 40
0.2411739644
 40
0.3636060674
 40
0.4877957791
 40
0.6138312652
 40
0.7415318124
 40
0.80594693
 40
0.870586247
 40
1.0
 40
1.0
 40
1.0
 40
1.0
 10
7.149601357
 20
2.6062336867
 30
0.0
 10
7.1496200272
 20
2.6057150403
 30
0.0
 10
7.1497263698
 20
2.6049354941
 30
0.0
 10
7.1500164339
 20
2.6039328011
 30
0.0
 10
7.150406046
 20
2.602952925
 30
0.0
 10
7.1510744965
 20
2.6017944422
 30
0.0
 10
7.1521350495
 20
2.600569099
 30
0.0
 10
7.1534244721
 20
2.5995501808
 30
0.0
 10
7.1546520913
 20
2.598910474
 30
0.0
 10
7.15570047
 20
2.5985411408
 30
0.0
 10
7.1567860902
 20
2.5982714074
 30
0.0
 10
7.1576276431
 20
2.5981869672
 30
0.0
 10
7.158187131
 20
2.5981853623
 30
0.0
  0
SPLINE
  5
484
100
AcDbEntity
  8
0
100
AcDbSpline
 62
7
  6
CONTINUOUS
 70
0
 71
3
 72
15
 73
11
 74
0
 42
0.0000001
 43
0.0000001
 44
0.0000000001
 40
0.0
 40
0.0
 40
0.0
 40
0.0
 40
0.1250020086
 40
0.2500012016
 40
0.3750001937
 40
0.499999216
 40
0.6249983945
 40
0.7499978734
 40
0.8749972669
 40
1.0
 40
1.0
 40
1.0
 40
1.0
 10
7.1514468986
 20
2.6441970887
 30
0.0
 10
7.1519678512
 20
2.6441971341
 30
0.0
 10
7.153012593
 20
2.6442992709
 30
0.0
 10
7.1545179231
 20
2.6447537467
 30
0.0
 10
7.1559059569
 20
2.6454939284
 30
0.0
 10
7.1571224037
 20
2.6464911363
 30
0.0
 10
7.1581197188
 20
2.647707526
 30
0.0
 10
7.1588597357
 20
2.6490956446
 30
0.0
 10
7.1593143732
 20
2.6506009257
 30
0.0
 10
7.1594164331
 20
2.6516456906
 30
0.0
 10
7.1594164561
 20
2.6521666463
 30
0.0
  0
SPLINE
  5
485
100
AcDbEntity
  8
0
100
AcDbSpline
 62
7
  6
CONTINUOUS
 70
0
 71
3
 72
15
 73
11
 74
0
 42
0.0000001
 43
0.0000001
 44
0.0000000001
 40
0.0
 40
0.0
 40
0.0
 40
0.0
 40
0.1250020086
 40
0.2500012016
 40
0.3750001937
 40
0.499999216
 40
0.6249983945
 40
0.7499978734
 40
0.8749972669
 40
1.0
 40
1.0
 40
1.0
 40
1.0
 10
7.1624865323
 20
2.6521666463
 30
0.0
 10
7.1624865777
 20
2.6516456936
 30
0.0
 10
7.1625887145
 20
2.6506009518
 30
0.0
 10
7.1630431903
 20
2.6490956217
 30
0.0
 10
7.163783372
 20
2.6477075879
 30
0.0
 10
7.1647805799
 20
2.6464911411
 30
0.0
 10
7.1659969696
 20
2.645493826
 30
0.0
 10
7.1673850882
 20
2.6447538091
 30
0.0
 10
7.1688903693
 20
2.6442991716
 30
0.0
 10
7.1699351342
 20
2.6441971118
 30
0.0
 10
7.1704560899
 20
2.6441970887
 30
0.0
  0
SPLINE
  5
486
100
AcDbEntity
  8
0
100
AcDbSpline
 62
7
  6
CONTINUOUS
 70
0
 71
3
 72
15
 73
11
 74
0
 42
0.0000001
 43
0.0000001
 44
0.0000000001
 40
0.0
 40
0.0
 40
0.0
 40
0.0
 40
0.1250020086
 40
0.2500012016
 40
0.3750001937
 40
0.499999216
 40
0.6249983945
 40
0.7499978734
 40
0.8749972669
 40
1.0
 40
1.0
 40
1.0
 40
1.0
 10
7.1704560899
 20
2.6411270125
 30
0.0
 10
7.1699351372
 20
2.6411269671
 30
0.0
 10
7.1688903954
 20
2.6410248303
 30
0.0
 10
7.1673850653
 20
2.6405703545
 30
0.0
 10
7.1659970315
 20
2.6398301728
 30
0.0
 10
7.1647805847
 20
2.6388329649
 30
0.0
 10
7.1637832697
 20
2.6376165752
 30
0.0
 10
7.1630432527
 20
2.6362284566
 30
0.0
 10
7.1625886152
 20
2.6347231755
 30
0.0
 10
7.1624865554
 20
2.6336784106
 30
0.0
 10
7.1624865323
 20
2.6331574549
 30
0.0
  0
SPLINE
  5
487
100
AcDbEntity
  8
0
100
AcDbSpline
 62
7
  6
CONTINUOUS
 70
0
 71
3
 72
15
 73
11
 74
0
 42
0.0000001
 43
0.0000001
 44
0.0000000001
 40
0.0
 40
0.0
 40
0.0
 40
0.0
 40
0.1250020086
 40
0.2500012016
 40
0.3750001937
 40
0.499999216
 40
0.6249983945
 40
0.7499978734
 40
0.8749972669
 40
1.0
 40
1.0
 40
1.0
 40
1.0
 10
7.1594164561
 20
2.6331574549
 30
0.0
 10
7.1594164107
 20
2.6336784076
 30
0.0
 10
7.1593142739
 20
2.6347231494
 30
0.0
 10
7.1588597981
 20
2.6362284795
 30
0.0
 10
7.1581196164
 20
2.6376165133
 30
0.0
 10
7.1571224085
 20
2.6388329601
 30
0.0
 10
7.1559060188
 20
2.6398302751
 30
0.0
 10
7.1545179002
 20
2.6405702921
 30
0.0
 10
7.1530126191
 20
2.6410249296
 30
0.0
 10
7.1519678542
 20
2.6411269894
 30
0.0
 10
7.1514468986
 20
2.6411270125
 30
0.0
  0
SPLINE
  5
488
100
AcDbEntity
  8
0
100
AcDbSpline
 62
7
  6
CONTINUOUS
 70
0
 71
3
 72
15
 73
11
 74
0
 42
0.0000001
 43
0.0000001
 44
0.0000000001
 40
0.0
 40
0.0
 40
0.0
 40
0.0
 40
0.124794425
 40
0.2497509154
 40
0.3748406975
 40
0.5
 40
0.6251593025
 40
0.7502490846
 40
0.875205575
 40
1.0
 40
1.0
 40
1.0
 40
1.0
 10
7.1495358747
 20
2.6352312099
 30
0.0
 10
7.1497952093
 20
2.6352292399
 30
0.0
 10
7.1503152392
 20
2.6351743072
 30
0.0
 10
7.15106385
 20
2.6349425182
 30
0.0
 10
7.1517545812
 20
2.6345701575
 30
0.0
 10
7.1523608016
 20
2.634071358
 30
0.0
 10
7.1528596011
 20
2.6334651376
 30
0.0
 10
7.1532319618
 20
2.6327744063
 30
0.0
 10
7.1534637508
 20
2.6320257956
 30
0.0
 10
7.1535186835
 20
2.6315057657
 30
0.0
 10
7.1535206535
 20
2.6312464311
 30
0.0
  0
SPLINE
  5
489
100
AcDbEntity
  8
0
100
AcDbSpline
 62
7
  6
CONTINUOUS
 70
0
 71
3
 72
15
 73
11
 74
0
 42
0.0000001
 43
0.0000001
 44
0.0000000001
 40
0.0
 40
0.0
 40
0.0
 40
0.0
 40
0.1248064994
 40
0.2497649014
 40
0.3748486786
 40
0.4999996778
 40
0.6251508113
 40
0.7502346893
 40
0.8751935007
 40
1.0
 40
1.0
 40
1.0
 40
1.0
 10
7.1554316773
 20
2.6331574549
 30
0.0
 10
7.1554336015
 20
2.633418228
 30
0.0
 10
7.1553867847
 20
2.633941921
 30
0.0
 10
7.1551646031
 20
2.634698085
 30
0.0
 10
7.1547970603
 20
2.6353965225
 30
0.0
 10
7.1542975438
 20
2.6360080977
 30
0.0
 10
7.1536859704
 20
2.6365076171
 30
0.0
 10
7.1529875298
 20
2.6368751581
 30
0.0
 10
7.1522313657
 20
2.6370973381
 30
0.0
 10
7.1517076715
 20
2.6371441652
 30
0.0
 10
7.1514468986
 20
2.6371422337
 30
0.0
  0
SPLINE
  5
48A
100
AcDbEntity
  8
0
100
AcDbSpline
 62
7
  6
CONTINUOUS
 70
0
 71
3
 72
15
 73
11
 74
0
 42
0.0000001
 43
0.0000001
 44
0.0000000001
 40
0.0
 40
0.0
 40
0.0
 40
0.0
 40
0.124794425
 40
0.2497509154
 40
0.3748406975
 40
0.5
 40
0.6251593025
 40
0.7502490846
 40
0.875205575
 40
1.0
 40
1.0
 40
1.0
 40
1.0
 10
7.1274164561
 20
2.6371422337
 30
0.0
 10
7.1271571215
 20
2.6371442037
 30
0.0
 10
7.1266370916
 20
2.6371991364
 30
0.0
 10
7.1258884809
 20
2.6374309254
 30
0.0
 10
7.1251977496
 20
2.6378032861
 30
0.0
 10
7.1245915292
 20
2.6383020856
 30
0.0
 10
7.1240927297
 20
2.638908306
 30
0.0
 10
7.123720369
 20
2.6395990372
 30
0.0
 10
7.12348858
 20
2.640347648
 30
0.0
 10
7.1234336473
 20
2.6408676779
 30
0.0
 10
7.1234316773
 20
2.6411270125
 30
0.0
  0
SPLINE
  5
48B
100
AcDbEntity
  8
0
100
AcDbSpline
 62
7
  6
CONTINUOUS
 70
0
 71
3
 72
15
 73
11
 74
0
 42
0.0000001
 43
0.0000001
 44
0.0000000001
 40
0.0
 40
0.0
 40
0.0
 40
0.0
 40
0.1398582617
 40
0.2763826483
 40
0.407957707
 40
0.5342131423
 40
0.6555276065
 40
0.7728124171
 40
0.8871929994
 40
1.0
 40
1.0
 40
1.0
 40
1.0
 10
7.1223178491
 20
2.6400131843
 30
0.0
 10
7.1223172697
 20
2.6397243791
 30
0.0
 10
7.1223737327
 20
2.6391519627
 30
0.0
 10
7.1226181823
 20
2.6383407089
 30
0.0
 10
7.1229963778
 20
2.6376141863
 30
0.0
 10
7.1234812594
 20
2.6369939658
 30
0.0
 10
7.1240480653
 20
2.6364913223
 30
0.0
 10
7.1246759642
 20
2.6361129546
 30
0.0
 10
7.1253464254
 20
2.6358635801
 30
0.0
 10
7.125812688
 20
2.635786203
 30
0.0
 10
7.1260451306
 20
2.6357709082
 30
0.0
  0
SPLINE
  5
48C
100
AcDbEntity
  8
0
100
AcDbSpline
 62
7
  6
CONTINUOUS
 70
0
 71
3
 72
15
 73
11
 74
0
 42
0.0000001
 43
0.0000001
 44
0.0000000001
 40
0.0
 40
0.0
 40
0.0
 40
0.0
 40
0.124794425
 40
0.2497509154
 40
0.3748406975
 40
0.5
 40
0.6251593025
 40
0.7502490846
 40
0.875205575
 40
1.0
 40
1.0
 40
1.0
 40
1.0
 10
7.1234316773
 20
2.6441970887
 30
0.0
 10
7.1234336473
 20
2.6444564233
 30
0.0
 10
7.12348858
 20
2.6449764532
 30
0.0
 10
7.123720369
 20
2.6457250639
 30
0.0
 10
7.1240927297
 20
2.6464157952
 30
0.0
 10
7.1245915292
 20
2.6470220156
 30
0.0
 10
7.1251977496
 20
2.6475208151
 30
0.0
 10
7.1258884809
 20
2.6478931758
 30
0.0
 10
7.1266370916
 20
2.6481249648
 30
0.0
 10
7.1271571215
 20
2.6481798975
 30
0.0
 10
7.1274164561
 20
2.6481818675
 30
0.0
  0
SPLINE
  5
48D
100
AcDbEntity
  8
0
100
AcDbSpline
 62
7
  6
CONTINUOUS
 70
0
 71
3
 72
15
 73
11
 74
0
 42
0.0000001
 43
0.0000001
 44
0.0000000001
 40
0.0
 40
0.0
 40
0.0
 40
0.0
 40
0.1128024822
 40
0.2271857026
 40
0.3444714967
 40
0.4657864686
 40
0.59203844
 40
0.7236156377
 40
0.8601436712
 40
1.0
 40
1.0
 40
1.0
 40
1.0
 10
7.1260451306
 20
2.649553193
 30
0.0
 10
7.1258126966
 20
2.6495379093
 30
0.0
 10
7.125346441
 20
2.6494605089
 30
0.0
 10
7.1246759761
 20
2.6492111561
 30
0.0
 10
7.1240480693
 20
2.6488327823
 30
0.0
 10
7.1234812636
 20
2.6483301446
 30
0.0
 10
7.1229963924
 20
2.6477099181
 30
0.0
 10
7.1226181854
 20
2.6469833986
 30
0.0
 10
7.1223737131
 20
2.6461721398
 30
0.0
 10
7.1223172751
 20
2.6455997181
 30
0.0
 10
7.1223178491
 20
2.6453109169
 30
0.0
  0
SPLINE
  5
48E
100
AcDbEntity
  8
0
100
AcDbSpline
 62
7
  6
CONTINUOUS
 70
0
 71
3
 72
15
 73
11
 74
0
 42
0.0000001
 43
0.0000001
 44
0.0000000001
 40
0.0
 40
0.0
 40
0.0
 40
0.0
 40
0.124794425
 40
0.2497509154
 40
0.3748406975
 40
0.5
 40
0.6251593025
 40
0.7502490846
 40
0.875205575
 40
1.0
 40
1.0
 40
1.0
 40
1.0
 10
7.1535206535
 20
2.6540776701
 30
0.0
 10
7.1535186835
 20
2.6538183355
 30
0.0
 10
7.1534637508
 20
2.6532983056
 30
0.0
 10
7.1532319618
 20
2.6525496949
 30
0.0
 10
7.1528596011
 20
2.6518589636
 30
0.0
 10
7.1523608016
 20
2.6512527432
 30
0.0
 10
7.1517545812
 20
2.6507539437
 30
0.0
 10
7.15106385
 20
2.650381583
 30
0.0
 10
7.1503152392
 20
2.650149794
 30
0.0
 10
7.1497952093
 20
2.6500948613
 30
0.0
 10
7.1495358747
 20
2.6500928913
 30
0.0
  0
SPLINE
  5
48F
100
AcDbEntity
  8
0
100
AcDbSpline
 62
7
  6
CONTINUOUS
 70
0
 71
3
 72
15
 73
11
 74
0
 42
0.0000001
 43
0.0000001
 44
0.0000000001
 40
0.0
 40
0.0
 40
0.0
 40
0.0
 40
0.1248064994
 40
0.2497649014
 40
0.3748486786
 40
0.4999996778
 40
0.6251508113
 40
0.7502346893
 40
0.8751935007
 40
1.0
 40
1.0
 40
1.0
 40
1.0
 10
7.1514468986
 20
2.6481818675
 30
0.0
 10
7.1517076716
 20
2.6481799433
 30
0.0
 10
7.1522313646
 20
2.6482267601
 30
0.0
 10
7.1529875286
 20
2.6484489417
 30
0.0
 10
7.1536859661
 20
2.6488164845
 30
0.0
 10
7.1542975414
 20
2.649316001
 30
0.0
 10
7.1547970607
 20
2.6499275744
 30
0.0
 10
7.1551646017
 20
2.650626015
 30
0.0
 10
7.1553867817
 20
2.6513821792
 30
0.0
 10
7.1554336088
 20
2.6519058733
 30
0.0
 10
7.1554316773
 20
2.6521666463
 30
0.0
  0
SPLINE
  5
490
100
AcDbEntity
  8
0
100
AcDbSpline
 62
7
  6
CONTINUOUS
 70
0
 71
3
 72
15
 73
11
 74
0
 42
0.0000001
 43
0.0000001
 44
0.0000000001
 40
0.0
 40
0.0
 40
0.0
 40
0.0
 40
0.124794425
 40
0.2497509154
 40
0.3748406975
 40
0.5
 40
0.6251593025
 40
0.7502490846
 40
0.875205575
 40
1.0
 40
1.0
 40
1.0
 40
1.0
 10
7.1554316773
 20
2.6761970887
 30
0.0
 10
7.1554336473
 20
2.6764564233
 30
0.0
 10
7.15548858
 20
2.6769764532
 30
0.0
 10
7.155720369
 20
2.6777250639
 30
0.0
 10
7.1560927297
 20
2.6784157952
 30
0.0
 10
7.1565915292
 20
2.6790220156
 30
0.0
 10
7.1571977496
 20
2.6795208151
 30
0.0
 10
7.1578884809
 20
2.6798931758
 30
0.0
 10
7.1586370916
 20
2.6801249648
 30
0.0
 10
7.1591571215
 20
2.6801798975
 30
0.0
 10
7.1594164561
 20
2.6801818675
 30
0.0
  0
SPLINE
  5
491
100
AcDbEntity
  8
0
100
AcDbSpline
 62
7
  6
CONTINUOUS
 70
0
 71
3
 72
15
 73
11
 74
0
 42
0.0000001
 43
0.0000001
 44
0.0000000001
 40
0.0
 40
0.0
 40
0.0
 40
0.0
 40
0.1398582479
 40
0.2763826633
 40
0.4079577223
 40
0.5342131318
 40
0.6555276145
 40
0.7728124241
 40
0.8871929905
 40
1.0
 40
1.0
 40
1.0
 40
1.0
 10
7.1583026279
 20
2.6812956957
 30
0.0
 10
7.1580138227
 20
2.6812962751
 30
0.0
 10
7.1574414063
 20
2.6812398122
 30
0.0
 10
7.1566301525
 20
2.6809953624
 30
0.0
 10
7.1559036299
 20
2.6806171669
 30
0.0
 10
7.1552834094
 20
2.6801322855
 30
0.0
 10
7.1547807659
 20
2.6795654795
 30
0.0
 10
7.1544023982
 20
2.6789375806
 30
0.0
 10
7.1541530237
 20
2.6782671194
 30
0.0
 10
7.1540756466
 20
2.6778008568
 30
0.0
 10
7.1540603518
 20
2.6775684142
 30
0.0
  0
SPLINE
  5
492
100
AcDbEntity
  8
0
100
AcDbSpline
 62
7
  6
CONTINUOUS
 70
0
 71
3
 72
15
 73
11
 74
0
 42
0.0000001
 43
0.0000001
 44
0.0000000001
 40
0.0
 40
0.0
 40
0.0
 40
0.0
 40
0.124794425
 40
0.2497509154
 40
0.3748406975
 40
0.5
 40
0.6251593025
 40
0.7502490846
 40
0.875205575
 40
1.0
 40
1.0
 40
1.0
 40
1.0
 10
7.1624865323
 20
2.6801818675
 30
0.0
 10
7.1627458669
 20
2.6801798975
 30
0.0
 10
7.1632658968
 20
2.6801249648
 30
0.0
 10
7.1640145076
 20
2.6798931758
 30
0.0
 10
7.1647052388
 20
2.6795208151
 30
0.0
 10
7.1653114592
 20
2.6790220156
 30
0.0
 10
7.1658102587
 20
2.6784157952
 30
0.0
 10
7.1661826194
 20
2.6777250639
 30
0.0
 10
7.1664144084
 20
2.6769764532
 30
0.0
 10
7.1664693411
 20
2.6764564233
 30
0.0
 10
7.1664713111
 20
2.6761970887
 30
0.0
  0
SPLINE
  5
493
100
AcDbEntity
  8
0
100
AcDbSpline
 62
7
  6
CONTINUOUS
 70
0
 71
3
 72
15
 73
11
 74
0
 42
0.0000001
 43
0.0000001
 44
0.0000000001
 40
0.0
 40
0.0
 40
0.0
 40
0.0
 40
0.1128024839
 40
0.227185721
 40
0.3444714945
 40
0.4657864639
 40
0.5920384433
 40
0.7236156427
 40
0.8601436657
 40
1.0
 40
1.0
 40
1.0
 40
1.0
 10
7.1678426366
 20
2.6775684142
 30
0.0
 10
7.1678273529
 20
2.6778008482
 30
0.0
 10
7.1677499525
 20
2.6782671038
 30
0.0
 10
7.1675005998
 20
2.6789375688
 30
0.0
 10
7.1671222259
 20
2.6795654755
 30
0.0
 10
7.1666195883
 20
2.6801322812
 30
0.0
 10
7.1659993617
 20
2.6806171524
 30
0.0
 10
7.1652728422
 20
2.6809953595
 30
0.0
 10
7.1644615835
 20
2.6812398317
 30
0.0
 10
7.1638891618
 20
2.6812962697
 30
0.0
 10
7.1636003605
 20
2.6812956957
 30
0.0
  0
SPLINE
  5
494
100
AcDbEntity
  8
0
100
AcDbSpline
 62
7
  6
CONTINUOUS
 70
0
 71
3
 72
15
 73
11
 74
0
 42
0.0000001
 43
0.0000001
 44
0.0000000001
 40
0.0
 40
0.0
 40
0.0
 40
0.0
 40
0.124794425
 40
0.2497509154
 40
0.3748406975
 40
0.5
 40
0.6251593025
 40
0.7502490846
 40
0.875205575
 40
1.0
 40
1.0
 40
1.0
 40
1.0
 10
7.1723671137
 20
2.6500928913
 30
0.0
 10
7.1721077791
 20
2.6500948613
 30
0.0
 10
7.1715877492
 20
2.650149794
 30
0.0
 10
7.1708391385
 20
2.650381583
 30
0.0
 10
7.1701484072
 20
2.6507539437
 30
0.0
 10
7.1695421868
 20
2.6512527432
 30
0.0
 10
7.1690433873
 20
2.6518589636
 30
0.0
 10
7.1686710266
 20
2.6525496949
 30
0.0
 10
7.1684392376
 20
2.6532983056
 30
0.0
 10
7.1683843049
 20
2.6538183355
 30
0.0
 10
7.1683823349
 20
2.6540776701
 30
0.0
  0
SPLINE
  5
495
100
AcDbEntity
  8
0
100
AcDbSpline
 62
7
  6
CONTINUOUS
 70
0
 71
3
 72
15
 73
11
 74
0
 42
0.0000001
 43
0.0000001
 44
0.0000000001
 40
0.0
 40
0.0
 40
0.0
 40
0.0
 40
0.1248064994
 40
0.2497649014
 40
0.3748486786
 40
0.4999996778
 40
0.6251508113
 40
0.7502346893
 40
0.8751935007
 40
1.0
 40
1.0
 40
1.0
 40
1.0
 10
7.1664713111
 20
2.6521666463
 30
0.0
 10
7.166469387
 20
2.6519058732
 30
0.0
 10
7.1665162037
 20
2.6513821802
 30
0.0
 10
7.1667383853
 20
2.6506260162
 30
0.0
 10
7.1671059281
 20
2.6499275787
 30
0.0
 10
7.1676054446
 20
2.6493160035
 30
0.0
 10
7.1682170181
 20
2.6488164841
 30
0.0
 10
7.1689154587
 20
2.6484489431
 30
0.0
 10
7.1696716228
 20
2.6482267631
 30
0.0
 10
7.1701953169
 20
2.648179936
 30
0.0
 10
7.1704560899
 20
2.6481818675
 30
0.0
  0
SPLINE
  5
496
100
AcDbEntity
  8
0
100
AcDbSpline
 62
7
  6
CONTINUOUS
 70
0
 71
3
 72
15
 73
11
 74
0
 42
0.0000001
 43
0.0000001
 44
0.0000000001
 40
0.0
 40
0.0
 40
0.0
 40
0.0
 40
0.124794425
 40
0.2497509154
 40
0.3748406975
 40
0.5
 40
0.6251593025
 40
0.7502490846
 40
0.875205575
 40
1.0
 40
1.0
 40
1.0
 40
1.0
 10
7.1944865323
 20
2.6481818675
 30
0.0
 10
7.1947458669
 20
2.6481798975
 30
0.0
 10
7.1952658968
 20
2.6481249648
 30
0.0
 10
7.1960145076
 20
2.6478931758
 30
0.0
 10
7.1967052388
 20
2.6475208151
 30
0.0
 10
7.1973114592
 20
2.6470220156
 30
0.0
 10
7.1978102587
 20
2.6464157952
 30
0.0
 10
7.1981826194
 20
2.6457250639
 30
0.0
 10
7.1984144084
 20
2.6449764532
 30
0.0
 10
7.1984693411
 20
2.6444564233
 30
0.0
 10
7.1984713111
 20
2.6441970887
 30
0.0
  0
SPLINE
  5
497
100
AcDbEntity
  8
0
100
AcDbSpline
 62
7
  6
CONTINUOUS
 70
0
 71
3
 72
15
 73
11
 74
0
 42
0.0000001
 43
0.0000001
 44
0.0000000001
 40
0.0
 40
0.0
 40
0.0
 40
0.0
 40
0.1398582617
 40
0.2763826483
 40
0.407957707
 40
0.5342131423
 40
0.6555276065
 40
0.7728124171
 40
0.8871929994
 40
1.0
 40
1.0
 40
1.0
 40
1.0
 10
7.1995851393
 20
2.6453109169
 30
0.0
 10
7.1995857188
 20
2.6455997221
 30
0.0
 10
7.1995292557
 20
2.6461721384
 30
0.0
 10
7.1992848061
 20
2.6469833923
 30
0.0
 10
7.1989066106
 20
2.6477099149
 30
0.0
 10
7.1984217291
 20
2.6483301354
 30
0.0
 10
7.1978549231
 20
2.6488327789
 30
0.0
 10
7.1972270242
 20
2.6492111466
 30
0.0
 10
7.196556563
 20
2.6494605211
 30
0.0
 10
7.1960903004
 20
2.6495378982
 30
0.0
 10
7.1958578578
 20
2.649553193
 30
0.0
  0
SPLINE
  5
498
100
AcDbEntity
  8
0
100
AcDbSpline
 62
7
  6
CONTINUOUS
 70
0
 71
3
 72
15
 73
11
 74
0
 42
0.0000001
 43
0.0000001
 44
0.0000000001
 40
0.0
 40
0.0
 40
0.0
 40
0.0
 40
0.124794425
 40
0.2497509154
 40
0.3748406975
 40
0.5
 40
0.6251593025
 40
0.7502490846
 40
0.875205575
 40
1.0
 40
1.0
 40
1.0
 40
1.0
 10
7.1984713111
 20
2.6411270125
 30
0.0
 10
7.1984693411
 20
2.6408676779
 30
0.0
 10
7.1984144084
 20
2.640347648
 30
0.0
 10
7.1981826194
 20
2.6395990372
 30
0.0
 10
7.1978102587
 20
2.638908306
 30
0.0
 10
7.1973114592
 20
2.6383020856
 30
0.0
 10
7.1967052388
 20
2.6378032861
 30
0.0
 10
7.1960145076
 20
2.6374309254
 30
0.0
 10
7.1952658968
 20
2.6371991364
 30
0.0
 10
7.1947458669
 20
2.6371442037
 30
0.0
 10
7.1944865323
 20
2.6371422337
 30
0.0
  0
SPLINE
  5
499
100
AcDbEntity
  8
0
100
AcDbSpline
 62
7
  6
CONTINUOUS
 70
0
 71
3
 72
15
 73
11
 74
0
 42
0.0000001
 43
0.0000001
 44
0.0000000001
 40
0.0
 40
0.0
 40
0.0
 40
0.0
 40
0.1128024822
 40
0.2271857026
 40
0.3444714967
 40
0.4657864686
 40
0.59203844
 40
0.7236156377
 40
0.8601436712
 40
1.0
 40
1.0
 40
1.0
 40
1.0
 10
7.1958578578
 20
2.6357709082
 30
0.0
 10
7.1960902918
 20
2.6357861919
 30
0.0
 10
7.1965565474
 20
2.6358635923
 30
0.0
 10
7.1972270123
 20
2.6361129451
 30
0.0
 10
7.1978549191
 20
2.6364913189
 30
0.0
 10
7.1984217248
 20
2.6369939566
 30
0.0
 10
7.198906596
 20
2.6376141831
 30
0.0
 10
7.1992848031
 20
2.6383407026
 30
0.0
 10
7.1995292753
 20
2.6391519613
 30
0.0
 10
7.1995857133
 20
2.6397243831
 30
0.0
 10
7.1995851393
 20
2.6400131843
 30
0.0
  0
SPLINE
  5
49A
100
AcDbEntity
  8
0
100
AcDbSpline
 62
7
  6
CONTINUOUS
 70
0
 71
3
 72
15
 73
11
 74
0
 42
0.0000001
 43
0.0000001
 44
0.0000000001
 40
0.0
 40
0.0
 40
0.0
 40
0.0
 40
0.124794425
 40
0.2497509154
 40
0.3748406975
 40
0.5
 40
0.6251593025
 40
0.7502490846
 40
0.875205575
 40
1.0
 40
1.0
 40
1.0
 40
1.0
 10
7.1683823349
 20
2.6312464311
 30
0.0
 10
7.1683843049
 20
2.6315057657
 30
0.0
 10
7.1684392376
 20
2.6320257956
 30
0.0
 10
7.1686710266
 20
2.6327744063
 30
0.0
 10
7.1690433873
 20
2.6334651376
 30
0.0
 10
7.1695421868
 20
2.634071358
 30
0.0
 10
7.1701484072
 20
2.6345701575
 30
0.0
 10
7.1708391385
 20
2.6349425182
 30
0.0
 10
7.1715877492
 20
2.6351743072
 30
0.0
 10
7.1721077791
 20
2.6352292399
 30
0.0
 10
7.1723671137
 20
2.6352312099
 30
0.0
  0
SPLINE
  5
49B
100
AcDbEntity
  8
0
100
AcDbSpline
 62
7
  6
CONTINUOUS
 70
0
 71
3
 72
15
 73
11
 74
0
 42
0.0000001
 43
0.0000001
 44
0.0000000001
 40
0.0
 40
0.0
 40
0.0
 40
0.0
 40
0.1248064994
 40
0.2497649014
 40
0.3748486786
 40
0.4999996778
 40
0.6251508113
 40
0.7502346893
 40
0.8751935007
 40
1.0
 40
1.0
 40
1.0
 40
1.0
 10
7.1704560899
 20
2.6371422337
 30
0.0
 10
7.1701953168
 20
2.6371441579
 30
0.0
 10
7.1696716239
 20
2.6370973411
 30
0.0
 10
7.1689154598
 20
2.6368751595
 30
0.0
 10
7.1682170223
 20
2.6365076167
 30
0.0
 10
7.1676054471
 20
2.6360081002
 30
0.0
 10
7.1671059277
 20
2.6353965267
 30
0.0
 10
7.1667383867
 20
2.6346980861
 30
0.0
 10
7.1665162067
 20
2.633941922
 30
0.0
 10
7.1664693796
 20
2.6334182279
 30
0.0
 10
7.1664713111
 20
2.6331574549
 30
0.0
  0
SPLINE
  5
49C
100
AcDbEntity
  8
0
100
AcDbSpline
 62
7
  6
CONTINUOUS
 70
0
 71
3
 72
15
 73
11
 74
0
 42
0.0000001
 43
0.0000001
 44
0.0000000001
 40
0.0
 40
0.0
 40
0.0
 40
0.0
 40
0.124794425
 40
0.2497509154
 40
0.3748406975
 40
0.5
 40
0.6251593025
 40
0.7502490846
 40
0.875205575
 40
1.0
 40
1.0
 40
1.0
 40
1.0
 10
7.1664713111
 20
2.6091270125
 30
0.0
 10
7.1664693411
 20
2.6088676779
 30
0.0
 10
7.1664144084
 20
2.608347648
 30
0.0
 10
7.1661826194
 20
2.6075990372
 30
0.0
 10
7.1658102587
 20
2.606908306
 30
0.0
 10
7.1653114592
 20
2.6063020856
 30
0.0
 10
7.1647052388
 20
2.6058032861
 30
0.0
 10
7.1640145076
 20
2.6054309254
 30
0.0
 10
7.1632658968
 20
2.6051991364
 30
0.0
 10
7.1627458669
 20
2.6051442037
 30
0.0
 10
7.1624865323
 20
2.6051422337
 30
0.0
  0
SPLINE
  5
49D
100
AcDbEntity
  8
0
100
AcDbSpline
 62
7
  6
CONTINUOUS
 70
0
 71
3
 72
15
 73
11
 74
0
 42
0.0000001
 43
0.0000001
 44
0.0000000001
 40
0.0
 40
0.0
 40
0.0
 40
0.0
 40
0.1398582479
 40
0.2763826633
 40
0.4079577223
 40
0.5342131318
 40
0.6555276145
 40
0.7728124241
 40
0.8871929905
 40
1.0
 40
1.0
 40
1.0
 40
1.0
 10
7.1636003605
 20
2.6040284055
 30
0.0
 10
7.1638891657
 20
2.6040278261
 30
0.0
 10
7.1644615821
 20
2.604084289
 30
0.0
 10
7.1652728359
 20
2.6043287388
 30
0.0
 10
7.1659993585
 20
2.6047069343
 30
0.0
 10
7.1666195791
 20
2.6051918157
 30
0.0
 10
7.1671222225
 20
2.6057586217
 30
0.0
 10
7.1675005902
 20
2.6063865206
 30
0.0
 10
7.1677499647
 20
2.6070569818
 30
0.0
 10
7.1678273418
 20
2.6075232444
 30
0.0
 10
7.1678426366
 20
2.607755687
 30
0.0
  0
SPLINE
  5
49E
100
AcDbEntity
  8
0
100
AcDbSpline
 62
7
  6
CONTINUOUS
 70
0
 71
3
 72
15
 73
11
 74
0
 42
0.0000001
 43
0.0000001
 44
0.0000000001
 40
0.0
 40
0.0
 40
0.0
 40
0.0
 40
0.124794425
 40
0.2497509154
 40
0.3748406975
 40
0.5
 40
0.6251593025
 40
0.7502490846
 40
0.875205575
 40
1.0
 40
1.0
 40
1.0
 40
1.0
 10
7.1594164561
 20
2.6051422337
 30
0.0
 10
7.1591571215
 20
2.6051442037
 30
0.0
 10
7.1586370916
 20
2.6051991364
 30
0.0
 10
7.1578884809
 20
2.6054309254
 30
0.0
 10
7.1571977496
 20
2.6058032861
 30
0.0
 10
7.1565915292
 20
2.6063020856
 30
0.0
 10
7.1560927297
 20
2.606908306
 30
0.0
 10
7.155720369
 20
2.6075990372
 30
0.0
 10
7.15548858
 20
2.608347648
 30
0.0
 10
7.1554336473
 20
2.6088676779
 30
0.0
 10
7.1554316773
 20
2.6091270125
 30
0.0
  0
SPLINE
  5
49F
100
AcDbEntity
  8
0
100
AcDbSpline
 62
7
  6
CONTINUOUS
 70
0
 71
3
 72
15
 73
11
 74
0
 42
0.0000001
 43
0.0000001
 44
0.0000000001
 40
0.0
 40
0.0
 40
0.0
 40
0.0
 40
0.1128024839
 40
0.227185721
 40
0.3444714945
 40
0.4657864639
 40
0.5920384433
 40
0.7236156427
 40
0.8601436657
 40
1.0
 40
1.0
 40
1.0
 40
1.0
 10
7.1540603518
 20
2.607755687
 30
0.0
 10
7.1540756356
 20
2.607523253
 30
0.0
 10
7.1541530359
 20
2.6070569973
 30
0.0
 10
7.1544023886
 20
2.6063865324
 30
0.0
 10
7.1547807625
 20
2.6057586257
 30
0.0
 10
7.1552834002
 20
2.60519182
 30
0.0
 10
7.1559036267
 20
2.6047069488
 30
0.0
 10
7.1566301462
 20
2.6043287417
 30
0.0
 10
7.157441405
 20
2.6040842695
 30
0.0
 10
7.1580138267
 20
2.6040278315
 30
0.0
 10
7.1583026279
 20
2.6040284055
 30
0.0
  0
SPLINE
  5
4A0
100
AcDbEntity
  8
0
100
AcDbSpline
 62
7
  6
CONTINUOUS
 70
0
 71
3
 72
20
 73
16
 74
0
 42
0.0000001
 43
0.0000001
 44
0.0000000001
 40
0.0
 40
0.0
 40
0.0
 40
0.0
 40
0.0327375202
 40
0.0686363788
 40
0.1087086347
 40
0.1535587136
 40
0.2034480071
 40
0.2583920455
 40
0.3182244215
 40
0.3826415463
 40
0.4512335271
 40
0.5235059502
 40
0.6767634461
 40
0.8374210666
 40
1.0
 40
1.0
 40
1.0
 40
1.0
 10
7.1260451306
 20
2.649553193
 30
0.0
 10
7.1259924136
 20
2.6495643504
 30
0.0
 10
7.1258847045
 20
2.6496024116
 30
0.0
 10
7.1257320085
 20
2.649697691
 30
0.0
 10
7.1255835538
 20
2.6498312404
 30
0.0
 10
7.1254403716
 20
2.6500014857
 30
0.0
 10
7.125303489
 20
2.6502068291
 30
0.0
 10
7.1251740994
 20
2.6504453329
 30
0.0
 10
7.1250534119
 20
2.6507147194
 30
0.0
 10
7.1249426131
 20
2.6510123675
 30
0.0
 10
7.1248428025
 20
2.6513353468
 30
0.0
 10
7.1247234158
 20
2.6518046812
 30
0.0
 10
7.12460993
 20
2.6524310124
 30
0.0
 10
7.1245319692
 20
2.653212118
 30
0.0
 10
7.1245192117
 20
2.6537446174
 30
0.0
 10
7.1245231303
 20
2.6540121878
 30
0.0
  0
SPLINE
  5
4A1
100
AcDbEntity
  8
0
100
AcDbSpline
 62
7
  6
CONTINUOUS
 70
0
 71
3
 72
20
 73
16
 74
0
 42
0.0000001
 43
0.0000001
 44
0.0000000001
 40
0.0
 40
0.0
 40
0.0
 40
0.0
 40
0.0073880177
 40
0.0163899917
 40
0.0271911353
 40
0.0398848509
 40
0.0710779489
 40
0.1100141944
 40
0.1564681127
 40
0.2100670402
 40
0.3366878427
 40
0.4851049226
 40
0.6495234294
 40
0.8234502953
 40
1.0
 40
1.0
 40
1.0
 40
1.0
 10
7.1495358747
 20
2.6500928913
 30
0.0
 10
7.1495266758
 20
2.6500992795
 30
0.0
 10
7.1495083506
 20
2.6501164276
 30
0.0
 10
7.1494836118
 20
2.6501495311
 30
0.0
 10
7.1494590072
 20
2.650192315
 30
0.0
 10
7.1494240272
 20
2.6502675509
 30
0.0
 10
7.1493825055
 20
2.6503863025
 30
0.0
 10
7.1493365631
 20
2.6505570264
 30
0.0
 10
7.1492923545
 20
2.6507631108
 30
0.0
 10
7.1492330553
 20
2.6511016246
 30
0.0
 10
7.1491693908
 20
2.6515959518
 30
0.0
 10
7.1491097861
 20
2.6522595516
 30
0.0
 10
7.1490663752
 20
2.6529962627
 30
0.0
 10
7.1490410043
 20
2.6537764544
 30
0.0
 10
7.1490368445
 20
2.65430779
 30
0.0
 10
7.1490381266
 20
2.6545754182
 30
0.0
  0
SPLINE
  5
4A2
100
AcDbEntity
  8
0
100
AcDbSpline
 62
7
  6
CONTINUOUS
 70
0
 71
3
 72
20
 73
16
 74
0
 42
0.0000001
 43
0.0000001
 44
0.0000000001
 40
0.0
 40
0.0
 40
0.0
 40
0.0
 40
0.0073880171
 40
0.01638999
 40
0.0271911332
 40
0.039884849
 40
0.0710779476
 40
0.1100141936
 40
0.1564681124
 40
0.2100670401
 40
0.3366878426
 40
0.4851049228
 40
0.6495234297
 40
0.8234502955
 40
1.0
 40
1.0
 40
1.0
 40
1.0
 10
7.1535206535
 20
2.6540776701
 30
0.0
 10
7.1535142653
 20
2.6540868691
 30
0.0
 10
7.1534971172
 20
2.6541051942
 30
0.0
 10
7.1534640137
 20
2.654129933
 30
0.0
 10
7.1534212298
 20
2.6541545376
 30
0.0
 10
7.1533459939
 20
2.6541895176
 30
0.0
 10
7.1532272423
 20
2.6542310393
 30
0.0
 10
7.1530565184
 20
2.6542769817
 30
0.0
 10
7.152850434
 20
2.6543211903
 30
0.0
 10
7.1525119202
 20
2.6543804895
 30
0.0
 10
7.152017593
 20
2.654444154
 30
0.0
 10
7.1513539932
 20
2.6545037587
 30
0.0
 10
7.1506172821
 20
2.6545471696
 30
0.0
 10
7.1498370904
 20
2.6545725405
 30
0.0
 10
7.1493057548
 20
2.6545767003
 30
0.0
 10
7.1490381266
 20
2.6545754182
 30
0.0
  0
SPLINE
  5
4A3
100
AcDbEntity
  8
0
100
AcDbSpline
 62
7
  6
CONTINUOUS
 70
0
 71
3
 72
20
 73
16
 74
0
 42
0.0000001
 43
0.0000001
 44
0.0000000001
 40
0.0
 40
0.0
 40
0.0
 40
0.0
 40
0.0327375154
 40
0.0686363709
 40
0.108708625
 40
0.1535587026
 40
0.2034479956
 40
0.258392034
 40
0.3182244104
 40
0.3826415361
 40
0.451233518
 40
0.5235059424
 40
0.6767634411
 40
0.8374210644
 40
1.0
 40
1.0
 40
1.0
 40
1.0
 10
7.1540603518
 20
2.6775684142
 30
0.0
 10
7.1540491945
 20
2.6776211312
 30
0.0
 10
7.1540111332
 20
2.6777288403
 30
0.0
 10
7.1539158538
 20
2.6778815363
 30
0.0
 10
7.1537823044
 20
2.6780299909
 30
0.0
 10
7.1536120591
 20
2.6781731731
 30
0.0
 10
7.1534067157
 20
2.6783100558
 30
0.0
 10
7.1531682119
 20
2.6784394453
 30
0.0
 10
7.1528988254
 20
2.6785601328
 30
0.0
 10
7.1526011773
 20
2.6786709316
 30
0.0
 10
7.1522781979
 20
2.6787707422
 30
0.0
 10
7.1518088636
 20
2.6788901289
 30
0.0
 10
7.1511825324
 20
2.6790036148
 30
0.0
 10
7.1504014268
 20
2.6790815756
 30
0.0
 10
7.1498689274
 20
2.6790943331
 30
0.0
 10
7.149601357
 20
2.6790904145
 30
0.0
  0
LINE
  5
4A4
100
AcDbEntity
  8
0
100
AcDbLine
 62
7
  6
CONTINUOUS
 10
7.1583026279
 20
2.6812956957
 11
7.158187131
 21
2.6871387389
  0
LINE
  5
4A5
100
AcDbEntity
  8
0
100
AcDbLine
 62
7
  6
CONTINUOUS
 10
7.1636003605
 20
2.6812956957
 11
7.1637158574
 21
2.6871387389
  0
SPLINE
  5
4A6
100
AcDbEntity
  8
0
100
AcDbSpline
 62
7
  6
CONTINUOUS
 70
0
 71
3
 72
20
 73
16
 74
0
 42
0.0000001
 43
0.0000001
 44
0.0000000001
 40
0.0
 40
0.0
 40
0.0
 40
0.0
 40
0.0327375202
 40
0.0686363787
 40
0.1087086347
 40
0.1535587135
 40
0.2034480071
 40
0.2583920455
 40
0.3182244214
 40
0.3826415463
 40
0.4512335271
 40
0.5235059502
 40
0.6767634461
 40
0.8374210666
 40
1.0
 40
1.0
 40
1.0
 40
1.0
 10
7.1678426366
 20
2.6775684142
 30
0.0
 10
7.167853794
 20
2.6776211312
 30
0.0
 10
7.1678918552
 20
2.6777288403
 30
0.0
 10
7.1679871346
 20
2.6778815363
 30
0.0
 10
7.168120684
 20
2.678029991
 30
0.0
 10
7.1682909293
 20
2.6781731732
 30
0.0
 10
7.1684962727
 20
2.6783100559
 30
0.0
 10
7.1687347765
 20
2.6784394454
 30
0.0
 10
7.169004163
 20
2.6785601329
 30
0.0
 10
7.1693018112
 20
2.6786709317
 30
0.0
 10
7.1696247905
 20
2.6787707423
 30
0.0
 10
7.1700941248
 20
2.678890129
 30
0.0
 10
7.170720456
 20
2.6790036149
 30
0.0
 10
7.1715015616
 20
2.6790815756
 30
0.0
 10
7.172034061
 20
2.6790943331
 30
0.0
 10
7.1723016314
 20
2.6790904145
 30
0.0
  0
SPLINE
  5
4A7
100
AcDbEntity
  8
0
100
AcDbSpline
 62
7
  6
CONTINUOUS
 70
0
 71
3
 72
20
 73
16
 74
0
 42
0.0000001
 43
0.0000001
 44
0.0000000001
 40
0.0
 40
0.0
 40
0.0
 40
0.0
 40
0.0073880177
 40
0.0163899917
 40
0.0271911353
 40
0.0398848509
 40
0.0710779489
 40
0.1100141944
 40
0.1564681127
 40
0.2100670402
 40
0.3366878427
 40
0.4851049226
 40
0.6495234294
 40
0.8234502953
 40
1.0
 40
1.0
 40
1.0
 40
1.0
 10
7.1683823349
 20
2.6540776701
 30
0.0
 10
7.1683887231
 20
2.6540868691
 30
0.0
 10
7.1684058712
 20
2.6541051942
 30
0.0
 10
7.1684389747
 20
2.654129933
 30
0.0
 10
7.1684817586
 20
2.6541545376
 30
0.0
 10
7.1685569945
 20
2.6541895176
 30
0.0
 10
7.1686757461
 20
2.6542310393
 30
0.0
 10
7.16884647
 20
2.6542769817
 30
0.0
 10
7.1690525544
 20
2.6543211903
 30
0.0
 10
7.1693910682
 20
2.6543804895
 30
0.0
 10
7.1698853954
 20
2.654444154
 30
0.0
 10
7.1705489952
 20
2.6545037587
 30
0.0
 10
7.1712857063
 20
2.6545471696
 30
0.0
 10
7.1720658981
 20
2.6545725405
 30
0.0
 10
7.1725972337
 20
2.6545767003
 30
0.0
 10
7.1728648618
 20
2.6545754182
 30
0.0
  0
SPLINE
  5
4A8
100
AcDbEntity
  8
0
100
AcDbSpline
 62
7
  6
CONTINUOUS
 70
0
 71
3
 72
20
 73
16
 74
0
 42
0.0000001
 43
0.0000001
 44
0.0000000001
 40
0.0
 40
0.0
 40
0.0
 40
0.0
 40
0.0073880171
 40
0.01638999
 40
0.0271911332
 40
0.039884849
 40
0.0710779476
 40
0.1100141936
 40
0.1564681124
 40
0.2100670401
 40
0.3366878426
 40
0.4851049228
 40
0.6495234297
 40
0.8234502955
 40
1.0
 40
1.0
 40
1.0
 40
1.0
 10
7.1723671138
 20
2.6500928913
 30
0.0
 10
7.1723763127
 20
2.6500992795
 30
0.0
 10
7.1723946378
 20
2.6501164276
 30
0.0
 10
7.1724193766
 20
2.6501495311
 30
0.0
 10
7.1724439812
 20
2.650192315
 30
0.0
 10
7.1724789612
 20
2.6502675509
 30
0.0
 10
7.1725204829
 20
2.6503863025
 30
0.0
 10
7.1725664253
 20
2.6505570264
 30
0.0
 10
7.1726106339
 20
2.6507631108
 30
0.0
 10
7.1726699331
 20
2.6511016246
 30
0.0
 10
7.1727335976
 20
2.6515959518
 30
0.0
 10
7.1727932023
 20
2.6522595516
 30
0.0
 10
7.1728366132
 20
2.6529962627
 30
0.0
 10
7.1728619841
 20
2.6537764544
 30
0.0
 10
7.1728661439
 20
2.65430779
 30
0.0
 10
7.1728648618
 20
2.6545754182
 30
0.0
  0
SPLINE
  5
4A9
100
AcDbEntity
  8
0
100
AcDbSpline
 62
7
  6
CONTINUOUS
 70
0
 71
3
 72
20
 73
16
 74
0
 42
0.0000001
 43
0.0000001
 44
0.0000000001
 40
0.0
 40
0.0
 40
0.0
 40
0.0
 40
0.0327375154
 40
0.0686363709
 40
0.108708625
 40
0.1535587026
 40
0.2034479956
 40
0.258392034
 40
0.3182244104
 40
0.3826415361
 40
0.451233518
 40
0.5235059424
 40
0.6767634411
 40
0.8374210644
 40
1.0
 40
1.0
 40
1.0
 40
1.0
 10
7.1958578578
 20
2.649553193
 30
0.0
 10
7.1959105748
 20
2.6495643504
 30
0.0
 10
7.1960182839
 20
2.6496024116
 30
0.0
 10
7.1961709799
 20
2.649697691
 30
0.0
 10
7.1963194345
 20
2.6498312404
 30
0.0
 10
7.1964626168
 20
2.6500014857
 30
0.0
 10
7.1965994994
 20
2.6502068291
 30
0.0
 10
7.1967288889
 20
2.6504453329
 30
0.0
 10
7.1968495764
 20
2.6507147194
 30
0.0
 10
7.1969603752
 20
2.6510123676
 30
0.0
 10
7.1970601859
 20
2.6513353469
 30
0.0
 10
7.1971795725
 20
2.6518046812
 30
0.0
 10
7.1972930584
 20
2.6524310124
 30
0.0
 10
7.1973710192
 20
2.653212118
 30
0.0
 10
7.1973837767
 20
2.6537446174
 30
0.0
 10
7.1973798581
 20
2.6540121878
 30
0.0
  0
LINE
  5
4AA
100
AcDbEntity
  8
0
100
AcDbLine
 62
7
  6
CONTINUOUS
 10
7.1995851393
 20
2.6453109169
 11
7.2054281825
 21
2.6454264138
  0
LINE
  5
4AB
100
AcDbEntity
  8
0
100
AcDbLine
 62
7
  6
CONTINUOUS
 10
7.1995851393
 20
2.6400131843
 11
7.2054281825
 21
2.6398976874
  0
SPLINE
  5
4AC
100
AcDbEntity
  8
0
100
AcDbSpline
 62
7
  6
CONTINUOUS
 70
0
 71
3
 72
20
 73
16
 74
0
 42
0.0000001
 43
0.0000001
 44
0.0000000001
 40
0.0
 40
0.0
 40
0.0
 40
0.0
 40
0.0327375202
 40
0.0686363788
 40
0.1087086347
 40
0.1535587136
 40
0.2034480071
 40
0.2583920455
 40
0.3182244215
 40
0.3826415463
 40
0.4512335271
 40
0.5235059502
 40
0.6767634461
 40
0.8374210666
 40
1.0
 40
1.0
 40
1.0
 40
1.0
 10
7.1958578578
 20
2.6357709082
 30
0.0
 10
7.1959105748
 20
2.6357597508
 30
0.0
 10
7.1960182839
 20
2.6357216896
 30
0.0
 10
7.1961709799
 20
2.6356264102
 30
0.0
 10
7.1963194346
 20
2.6354928608
 30
0.0
 10
7.1964626168
 20
2.6353226155
 30
0.0
 10
7.1965994995
 20
2.6351172721
 30
0.0
 10
7.196728889
 20
2.6348787683
 30
0.0
 10
7.1968495765
 20
2.6346093818
 30
0.0
 10
7.1969603753
 20
2.6343117336
 30
0.0
 10
7.197060186
 20
2.6339887543
 30
0.0
 10
7.1971795726
 20
2.63351942
 30
0.0
 10
7.1972930585
 20
2.6328930888
 30
0.0
 10
7.1973710192
 20
2.6321119832
 30
0.0
 10
7.1973837767
 20
2.6315794838
 30
0.0
 10
7.1973798581
 20
2.6313119134
 30
0.0
  0
SPLINE
  5
4AD
100
AcDbEntity
  8
0
100
AcDbSpline
 62
7
  6
CONTINUOUS
 70
0
 71
3
 72
20
 73
16
 74
0
 42
0.0000001
 43
0.0000001
 44
0.0000000001
 40
0.0
 40
0.0
 40
0.0
 40
0.0
 40
0.0073880177
 40
0.0163899917
 40
0.0271911353
 40
0.0398848509
 40
0.0710779489
 40
0.1100141944
 40
0.1564681127
 40
0.2100670402
 40
0.3366878427
 40
0.4851049226
 40
0.6495234294
 40
0.8234502953
 40
1.0
 40
1.0
 40
1.0
 40
1.0
 10
7.1723671137
 20
2.6352312099
 30
0.0
 10
7.1723763127
 20
2.6352248217
 30
0.0
 10
7.1723946378
 20
2.6352076736
 30
0.0
 10
7.1724193766
 20
2.6351745701
 30
0.0
 10
7.1724439812
 20
2.6351317862
 30
0.0
 10
7.1724789612
 20
2.6350565503
 30
0.0
 10
7.1725204829
 20
2.6349377987
 30
0.0
 10
7.1725664253
 20
2.6347670748
 30
0.0
 10
7.1726106339
 20
2.6345609904
 30
0.0
 10
7.1726699331
 20
2.6342224766
 30
0.0
 10
7.1727335976
 20
2.6337281494
 30
0.0
 10
7.1727932023
 20
2.6330645496
 30
0.0
 10
7.1728366132
 20
2.6323278385
 30
0.0
 10
7.1728619841
 20
2.6315476467
 30
0.0
 10
7.1728661439
 20
2.6310163111
 30
0.0
 10
7.1728648618
 20
2.630748683
 30
0.0
  0
SPLINE
  5
4AE
100
AcDbEntity
  8
0
100
AcDbSpline
 62
7
  6
CONTINUOUS
 70
0
 71
3
 72
20
 73
16
 74
0
 42
0.0000001
 43
0.0000001
 44
0.0000000001
 40
0.0
 40
0.0
 40
0.0
 40
0.0
 40
0.0073880171
 40
0.01638999
 40
0.0271911332
 40
0.039884849
 40
0.0710779476
 40
0.1100141936
 40
0.1564681124
 40
0.2100670401
 40
0.3366878426
 40
0.4851049228
 40
0.6495234297
 40
0.8234502955
 40
1.0
 40
1.0
 40
1.0
 40
1.0
 10
7.1683823349
 20
2.631246431
 30
0.0
 10
7.1683887231
 20
2.6312372321
 30
0.0
 10
7.1684058712
 20
2.631218907
 30
0.0
 10
7.1684389747
 20
2.6311941682
 30
0.0
 10
7.1684817586
 20
2.6311695636
 30
0.0
 10
7.1685569945
 20
2.6311345836
 30
0.0
 10
7.1686757461
 20
2.6310930619
 30
0.0
 10
7.1688464701
 20
2.6310471195
 30
0.0
 10
7.1690525544
 20
2.6310029109
 30
0.0
 10
7.1693910682
 20
2.6309436117
 30
0.0
 10
7.1698853954
 20
2.6308799472
 30
0.0
 10
7.1705489952
 20
2.6308203425
 30
0.0
 10
7.1712857063
 20
2.6307769316
 30
0.0
 10
7.1720658981
 20
2.6307515607
 30
0.0
 10
7.1725972337
 20
2.6307474009
 30
0.0
 10
7.1728648618
 20
2.630748683
 30
0.0
  0
SPLINE
  5
4AF
100
AcDbEntity
  8
0
100
AcDbSpline
 62
7
  6
CONTINUOUS
 70
0
 71
3
 72
20
 73
16
 74
0
 42
0.0000001
 43
0.0000001
 44
0.0000000001
 40
0.0
 40
0.0
 40
0.0
 40
0.0
 40
0.0327375154
 40
0.0686363709
 40
0.108708625
 40
0.1535587026
 40
0.2034479956
 40
0.258392034
 40
0.3182244104
 40
0.3826415361
 40
0.451233518
 40
0.5235059424
 40
0.6767634411
 40
0.8374210644
 40
1.0
 40
1.0
 40
1.0
 40
1.0
 10
7.1678426366
 20
2.607755687
 30
0.0
 10
7.167853794
 20
2.60770297
 30
0.0
 10
7.1678918552
 20
2.6075952609
 30
0.0
 10
7.1679871346
 20
2.6074425649
 30
0.0
 10
7.168120684
 20
2.6072941103
 30
0.0
 10
7.1682909293
 20
2.607150928
 30
0.0
 10
7.1684962727
 20
2.6070140454
 30
0.0
 10
7.1687347765
 20
2.6068846559
 30
0.0
 10
7.169004163
 20
2.6067639684
 30
0.0
 10
7.1693018112
 20
2.6066531696
 30
0.0
 10
7.1696247905
 20
2.6065533589
 30
0.0
 10
7.1700941248
 20
2.6064339723
 30
0.0
 10
7.170720456
 20
2.6063204864
 30
0.0
 10
7.1715015616
 20
2.6062425256
 30
0.0
 10
7.172034061
 20
2.6062297681
 30
0.0
 10
7.1723016314
 20
2.6062336867
 30
0.0
  0
LINE
  5
4B0
100
AcDbEntity
  8
0
100
AcDbLine
 62
7
  6
CONTINUOUS
 10
7.1636003605
 20
2.6040284055
 11
7.1637158574
 21
2.5981853623
  0
LINE
  5
4B1
100
AcDbEntity
  8
0
100
AcDbLine
 62
7
  6
CONTINUOUS
 10
7.1583026279
 20
2.6040284055
 11
7.158187131
 21
2.5981853623
  0
SPLINE
  5
4B2
100
AcDbEntity
  8
0
100
AcDbSpline
 62
7
  6
CONTINUOUS
 70
0
 71
3
 72
20
 73
16
 74
0
 42
0.0000001
 43
0.0000001
 44
0.0000000001
 40
0.0
 40
0.0
 40
0.0
 40
0.0
 40
0.0327375202
 40
0.0686363787
 40
0.1087086347
 40
0.1535587135
 40
0.2034480071
 40
0.2583920455
 40
0.3182244214
 40
0.3826415463
 40
0.4512335271
 40
0.5235059502
 40
0.6767634461
 40
0.8374210666
 40
1.0
 40
1.0
 40
1.0
 40
1.0
 10
7.1540603518
 20
2.607755687
 30
0.0
 10
7.1540491945
 20
2.60770297
 30
0.0
 10
7.1540111332
 20
2.6075952609
 30
0.0
 10
7.1539158538
 20
2.6074425649
 30
0.0
 10
7.1537823044
 20
2.6072941102
 30
0.0
 10
7.1536120591
 20
2.607150928
 30
0.0
 10
7.1534067157
 20
2.6070140453
 30
0.0
 10
7.1531682119
 20
2.6068846558
 30
0.0
 10
7.1528988254
 20
2.6067639683
 30
0.0
 10
7.1526011773
 20
2.6066531695
 30
0.0
 10
7.152278198
 20
2.6065533588
 30
0.0
 10
7.1518088636
 20
2.6064339722
 30
0.0
 10
7.1511825324
 20
2.6063204863
 30
0.0
 10
7.1504014268
 20
2.6062425256
 30
0.0
 10
7.1498689274
 20
2.6062297681
 30
0.0
 10
7.149601357
 20
2.6062336867
 30
0.0
  0
SPLINE
  5
4B3
100
AcDbEntity
  8
0
100
AcDbSpline
 62
7
  6
CONTINUOUS
 70
0
 71
3
 72
20
 73
16
 74
0
 42
0.0000001
 43
0.0000001
 44
0.0000000001
 40
0.0
 40
0.0
 40
0.0
 40
0.0
 40
0.0073880177
 40
0.0163899917
 40
0.0271911353
 40
0.0398848509
 40
0.0710779489
 40
0.1100141944
 40
0.1564681127
 40
0.2100670402
 40
0.3366878427
 40
0.4851049226
 40
0.6495234294
 40
0.8234502953
 40
1.0
 40
1.0
 40
1.0
 40
1.0
 10
7.1535206535
 20
2.6312464311
 30
0.0
 10
7.1535142653
 20
2.6312372321
 30
0.0
 10
7.1534971172
 20
2.631218907
 30
0.0
 10
7.1534640137
 20
2.6311941682
 30
0.0
 10
7.1534212298
 20
2.6311695636
 30
0.0
 10
7.1533459939
 20
2.6311345836
 30
0.0
 10
7.1532272423
 20
2.6310930619
 30
0.0
 10
7.1530565184
 20
2.6310471195
 30
0.0
 10
7.152850434
 20
2.6310029109
 30
0.0
 10
7.1525119203
 20
2.6309436117
 30
0.0
 10
7.152017593
 20
2.6308799472
 30
0.0
 10
7.1513539932
 20
2.6308203425
 30
0.0
 10
7.1506172821
 20
2.6307769316
 30
0.0
 10
7.1498370904
 20
2.6307515607
 30
0.0
 10
7.1493057548
 20
2.6307474009
 30
0.0
 10
7.1490381266
 20
2.630748683
 30
0.0
  0
SPLINE
  5
4B4
100
AcDbEntity
  8
0
100
AcDbSpline
 62
7
  6
CONTINUOUS
 70
0
 71
3
 72
20
 73
16
 74
0
 42
0.0000001
 43
0.0000001
 44
0.0000000001
 40
0.0
 40
0.0
 40
0.0
 40
0.0
 40
0.0073880171
 40
0.01638999
 40
0.0271911332
 40
0.039884849
 40
0.0710779476
 40
0.1100141936
 40
0.1564681124
 40
0.2100670401
 40
0.3366878426
 40
0.4851049228
 40
0.6495234297
 40
0.8234502955
 40
1.0
 40
1.0
 40
1.0
 40
1.0
 10
7.1495358747
 20
2.6352312099
 30
0.0
 10
7.1495266757
 20
2.6352248217
 30
0.0
 10
7.1495083506
 20
2.6352076736
 30
0.0
 10
7.1494836118
 20
2.6351745701
 30
0.0
 10
7.1494590072
 20
2.6351317862
 30
0.0
 10
7.1494240272
 20
2.6350565503
 30
0.0
 10
7.1493825055
 20
2.6349377987
 30
0.0
 10
7.1493365631
 20
2.6347670747
 30
0.0
 10
7.1492923545
 20
2.6345609904
 30
0.0
 10
7.1492330553
 20
2.6342224766
 30
0.0
 10
7.1491693908
 20
2.6337281494
 30
0.0
 10
7.1491097861
 20
2.6330645496
 30
0.0
 10
7.1490663752
 20
2.6323278385
 30
0.0
 10
7.1490410043
 20
2.6315476467
 30
0.0
 10
7.1490368445
 20
2.6310163111
 30
0.0
 10
7.1490381266
 20
2.630748683
 30
0.0
  0
SPLINE
  5
4B5
100
AcDbEntity
  8
0
100
AcDbSpline
 62
7
  6
CONTINUOUS
 70
0
 71
3
 72
20
 73
16
 74
0
 42
0.0000001
 43
0.0000001
 44
0.0000000001
 40
0.0
 40
0.0
 40
0.0
 40
0.0
 40
0.0327375154
 40
0.0686363709
 40
0.108708625
 40
0.1535587026
 40
0.2034479956
 40
0.258392034
 40
0.3182244104
 40
0.3826415361
 40
0.451233518
 40
0.5235059424
 40
0.6767634411
 40
0.8374210644
 40
1.0
 40
1.0
 40
1.0
 40
1.0
 10
7.1260451306
 20
2.6357709082
 30
0.0
 10
7.1259924136
 20
2.6357597508
 30
0.0
 10
7.1258847045
 20
2.6357216896
 30
0.0
 10
7.1257320085
 20
2.6356264102
 30
0.0
 10
7.1255835539
 20
2.6354928608
 30
0.0
 10
7.1254403717
 20
2.6353226155
 30
0.0
 10
7.125303489
 20
2.6351172721
 30
0.0
 10
7.1251740995
 20
2.6348787683
 30
0.0
 10
7.125053412
 20
2.6346093818
 30
0.0
 10
7.1249426132
 20
2.6343117336
 30
0.0
 10
7.1248428026
 20
2.6339887543
 30
0.0
 10
7.1247234159
 20
2.63351942
 30
0.0
 10
7.12460993
 20
2.6328930888
 30
0.0
 10
7.1245319692
 20
2.6321119832
 30
0.0
 10
7.1245192118
 20
2.6315794838
 30
0.0
 10
7.1245231303
 20
2.6313119134
 30
0.0
  0
LINE
  5
4B6
100
AcDbEntity
  8
0
100
AcDbLine
 62
7
  6
CONTINUOUS
 10
7.1223178491
 20
2.6400131843
 11
7.1164748059
 21
2.6398976874
  0
LINE
  5
4B7
100
AcDbEntity
  8
0
100
AcDbLine
 62
7
  6
CONTINUOUS
 10
7.1223178491
 20
2.6453109169
 11
7.1164748059
 21
2.6454264138
  0
SPLINE
  5
4B8
100
AcDbEntity
  8
0
100
AcDbSpline
 62
7
  6
CONTINUOUS
 70
0
 71
3
 72
15
 73
11
 74
0
 42
0.0000001
 43
0.0000001
 44
0.0000000001
 40
0.0
 40
0.0
 40
0.0
 40
0.0
 40
0.0943015711
 40
0.1985748061
 40
0.3128792713
 40
0.436625666
 40
0.5687507195
 40
0.7078375154
 40
0.8522033534
 40
1.0
 40
1.0
 40
1.0
 40
1.0
 10
7.4779523849
 20
0.8582217337
 30
0.0
 10
7.4780903195
 20
0.8580440601
 30
0.0
 10
7.4783452624
 20
0.8576418072
 30
0.0
 10
7.4786485198
 20
0.8569577464
 30
0.0
 10
7.4788872738
 20
0.8561751013
 30
0.0
 10
7.4790575395
 20
0.8553073929
 30
0.0
 10
7.4791565716
 20
0.8543694498
 30
0.0
 10
7.4791826145
 20
0.8533775996
 30
0.0
 10
7.4791352209
 20
0.8523492605
 30
0.0
 10
7.4790557471
 20
0.8516563143
 30
0.0
 10
7.479004119
 20
0.8513075864
 30
0.0
  0
SPLINE
  5
4B9
100
AcDbEntity
  8
0
100
AcDbSpline
 62
7
  6
CONTINUOUS
 70
0
 71
3
 72
22
 73
18
 74
0
 42
0.0000001
 43
0.0000001
 44
0.0000000001
 40
0.0
 40
0.0
 40
0.0
 40
0.0
 40
0.1227906756
 40
0.1843134715
 40
0.2459382104
 40
0.3076830794
 40
0.3695741772
 40
0.4005813989
 40
0.4316328278
 40
0.4938830524
 40
0.5250901728
 40
0.5563530678
 40
0.6190494731
 40
0.6819849957
 40
0.7451624283
 40
0.8721868571
 40
1.0
 40
1.0
 40
1.0
 40
1.0
 10
3.5533914215
 20
5.1230690847
 30
0.0
 10
3.5594472959
 20
5.1235413578
 30
0.0
 10
3.5685492672
 20
5.1241223072
 30
0.0
 10
3.5807110976
 20
5.124486099
 30
0.0
 10
3.5898586637
 20
5.1245165211
 30
0.0
 10
3.5990213663
 20
5.124268653
 30
0.0
 10
3.6066590972
 20
5.1238076729
 30
0.0
 10
3.6127677365
 20
5.1232739788
 30
0.0
 10
3.6188831902
 20
5.1226264722
 30
0.0
 10
3.6249895359
 20
5.1218081396
 30
0.0
 10
3.6310796533
 20
5.1208185328
 30
0.0
 10
3.6371720942
 20
5.1197120421
 30
0.0
 10
3.644769294
 20
5.1181154494
 30
0.0
 10
3.6538390024
 20
5.1158771659
 30
0.0
 10
3.6658964239
 20
5.1124900034
 30
0.0
 10
3.6808504513
 20
5.107581209
 30
0.0
 10
3.6926557219
 20
5.1031524059
 30
0.0
 10
3.6985471136
 20
5.1008571425
 30
0.0
  0
LINE
  5
4BA
100
AcDbEntity
  8
0
100
AcDbLine
 62
7
  6
CONTINUOUS
 10
4.0570204479
 20
5.0460030142
 11
4.0602880334
 21
5.0551699029
  0
SPLINE
  5
4BB
100
AcDbEntity
  8
0
100
AcDbSpline
 62
7
  6
CONTINUOUS
 70
0
 71
3
 72
23
 73
19
 74
0
 42
0.0000001
 43
0.0000001
 44
0.0000000001
 40
0.0
 40
0.0
 40
0.0
 40
0.0
 40
0.1278118825
 40
0.1914371003
 40
0.2548449874
 40
0.3180214969
 40
0.3809558169
 40
0.412334753
 40
0.4436557474
 40
0.5061217971
 40
0.5372730706
 40
0.5683730955
 40
0.6304303063
 40
0.6923202451
 40
0.7540640931
 40
0.8156883354
 40
0.8772105552
 40
1.0
 40
1.0
 40
1.0
 40
1.0
 10
3.8407588751
 20
5.0790956851
 30
0.0
 10
3.8470670558
 20
5.079524145
 30
0.0
 10
3.8565252466
 20
5.0800468894
 30
0.0
 10
3.8691295446
 20
5.0803479141
 30
0.0
 10
3.8785401707
 20
5.0803384086
 30
0.0
 10
3.8879126793
 20
5.0800588868
 30
0.0
 10
3.8956902949
 20
5.0795784178
 30
0.0
 10
3.9018816034
 20
5.0790329222
 30
0.0
 10
3.9080390316
 20
5.0783787128
 30
0.0
 10
3.9141665264
 20
5.0775578861
 30
0.0
 10
3.9202565728
 20
5.0765683129
 30
0.0
 10
3.9263072003
 20
5.0754687655
 30
0.0
 10
3.9338143939
 20
5.0738876744
 30
0.0
 10
3.9427313413
 20
5.0716735667
 30
0.0
 10
3.9515489357
 20
5.0691701858
 30
0.0
 10
3.9602687659
 20
5.0664056032
 30
0.0
 10
3.9717652971
 20
5.0624215781
 30
0.0
 10
3.98027704
 20
5.059145363
 30
0.0
 10
3.9859145671
 20
5.0568837429
 30
0.0
  0
LINE
  5
4BC
100
AcDbEntity
  8
0
100
AcDbLine
 62
7
  6
CONTINUOUS
 10
4.0582407161
 20
5.4397480759
 11
4.0598678416
 21
5.4532573953
  0
SPLINE
  5
4BD
100
AcDbEntity
  8
0
100
AcDbSpline
 62
7
  6
CONTINUOUS
 70
0
 71
3
 72
17
 73
13
 74
0
 42
0.0000001
 43
0.0000001
 44
0.0000000001
 40
0.0
 40
0.0
 40
0.0
 40
0.0
 40
0.0856041149
 40
0.1705525547
 40
0.3359127482
 40
0.4914564426
 40
0.6332760405
 40
0.7580298289
 40
0.8626533595
 40
0.9064953671
 40
0.944212554
 40
1.0
 40
1.0
 40
1.0
 40
1.0
 10
4.0598678416
 20
5.4532573953
 30
0.0
 10
4.0602000838
 20
5.4560155712
 30
0.0
 10
4.0609679168
 20
5.4614986942
 30
0.0
 10
4.0628892967
 20
5.4722315209
 30
0.0
 10
4.0659358872
 20
5.4850587937
 30
0.0
 10
4.0704122163
 20
5.4994037159
 30
0.0
 10
4.0752789492
 20
5.5122167444
 30
0.0
 10
4.0801206597
 20
5.5232518459
 30
0.0
 10
4.084008105
 20
5.5312231976
 30
0.0
 10
4.0867874587
 20
5.5365883849
 30
0.0
 10
4.0888891887
 20
5.5405191893
 30
0.0
 10
4.0903580825
 20
5.5431746948
 30
0.0
 10
4.0912478186
 20
5.5447514575
 30
0.0
  0
SPLINE
  5
4BE
100
AcDbEntity
  8
0
100
AcDbSpline
 62
7
  6
CONTINUOUS
 70
0
 71
3
 72
8
 73
4
 74
0
 42
0.0000001
 43
0.0000001
 44
0.0000000001
 40
0.0
 40
0.0
 40
0.0
 40
0.0
 40
1.0
 40
1.0
 40
1.0
 40
1.0
 10
4.0912478186
 20
5.5447514575
 30
0.0
 10
4.0912596633
 20
5.5447724485
 30
0.0
 10
4.0912715104
 20
5.5447934381
 30
0.0
 10
4.0912833599
 20
5.5448144264
 30
0.0
  0
SPLINE
  5
4BF
100
AcDbEntity
  8
0
100
AcDbSpline
 62
7
  6
CONTINUOUS
 70
0
 71
3
 72
11
 73
7
 74
0
 42
0.0000001
 43
0.0000001
 44
0.0000000001
 40
0.0
 40
0.0
 40
0.0
 40
0.0
 40
0.2613280954
 40
0.5180548813
 40
0.7656980643
 40
1.0
 40
1.0
 40
1.0
 40
1.0
 10
3.7517418266
 20
4.9729264087
 30
0.0
 10
3.7456260267
 20
4.9738622481
 30
0.0
 10
3.7334917489
 20
4.9756504592
 30
0.0
 10
3.7155288851
 20
4.9780946583
 30
0.0
 10
3.6981748523
 20
4.9802594515
 30
0.0
 10
3.6868370039
 20
4.9815443475
 30
0.0
 10
3.6813215297
 20
4.9821361933
 30
0.0
  0
LINE
  5
4C0
100
AcDbEntity
  8
0
100
AcDbLine
 62
7
  6
CONTINUOUS
 10
3.4770465245
 20
5.0133946616
 11
3.4770485759
 21
5.0119273168
  0
SPLINE
  5
4C1
100
AcDbEntity
  8
0
100
AcDbSpline
 62
7
  6
CONTINUOUS
 70
0
 71
3
 72
37
 73
33
 74
0
 42
0.0000001
 43
0.0000001
 44
0.0000000001
 40
0.0
 40
0.0
 40
0.0
 40
0.0
 40
0.1112002129
 40
0.2176780435
 40
0.3189554842
 40
0.4145659487
 40
0.5040875525
 40
0.5871093524
 40
0.6632651517
 40
0.7322211682
 40
0.7936607829
 40
0.8214824779
 40
0.8473354492
 40
0.8711916933
 40
0.893026355
 40
0.9128188198
 40
0.9305559277
 40
0.946226405
 40
0.9598209194
 40
0.9713371072
 40
0.9763183954
 40
0.9807856935
 40
0.9847441522
 40
0.9882011209
 40
0.9911673785
 40
0.9936601231
 40
0.9957088443
 40
0.996583298
 40
0.9973703422
 40
0.9987393639
 40
0.9993704691
 40
1.0
 40
1.0
 40
1.0
 40
1.0
 10
3.5472326672
 20
5.0026546726
 30
0.0
 10
3.5446395389
 20
5.0031708581
 30
0.0
 10
3.5395622238
 20
5.0041753867
 30
0.0
 10
3.5321184302
 20
5.005625938
 30
0.0
 10
3.5250336764
 20
5.0069807896
 30
0.0
 10
3.5183395441
 20
5.0082315361
 30
0.0
 10
3.5120662912
 20
5.0093711225
 30
0.0
 10
3.506241878
 20
5.0103928877
 30
0.0
 10
3.500892438
 20
5.0112914747
 30
0.0
 10
3.4960420988
 20
5.0120624983
 30
0.0
 10
3.4923204709
 20
5.0126124466
 30
0.0
 10
3.489608605
 20
5.0129832108
 30
0.0
 10
3.4877801664
 20
5.0132181752
 30
0.0
 10
3.4860909609
 20
5.0134192081
 30
0.0
 10
3.4845429084
 20
5.0135862
 30
0.0
 10
3.4831376299
 20
5.0137191279
 30
0.0
 10
3.481876513
 20
5.0138181568
 30
0.0
 10
3.4807607592
 20
5.0138835394
 30
0.0
 10
3.4797915176
 20
5.0139154537
 30
0.0
 10
3.4790757808
 20
5.0139147123
 30
0.0
 10
3.4785776294
 20
5.013895043
 30
0.0
 10
3.4782595699
 20
5.0138727668
 30
0.0
 10
3.4779785862
 20
5.0138423834
 30
0.0
 10
3.4777346279
 20
5.0138039859
 30
0.0
 10
3.4775275363
 20
5.0137576762
 30
0.0
 10
3.4773571775
 20
5.0137034937
 30
0.0
 10
3.477239736
 20
5.0136491884
 30
0.0
 10
3.4771660145
 20
5.0136003361
 30
0.0
 10
3.4771111325
 20
5.0135535675
 30
0.0
 10
3.4770701157
 20
5.0134993389
 30
0.0
 10
3.4770499012
 20
5.0134396959
 30
0.0
 10
3.4770466158
 20
5.0134096297
 30
0.0
 10
3.4770465245
 20
5.0133946616
 30
0.0
  0
SPLINE
  5
4C2
100
AcDbEntity
  8
0
100
AcDbSpline
 62
7
  6
CONTINUOUS
 70
0
 71
3
 72
15
 73
11
 74
0
 42
0.0000001
 43
0.0000001
 44
0.0000000001
 40
0.0
 40
0.0
 40
0.0
 40
0.0
 40
0.1246513538
 40
0.2493949115
 40
0.3742349967
 40
0.4991750432
 40
0.6242180956
 40
0.7493672732
 40
0.8746262543
 40
1.0
 40
1.0
 40
1.0
 40
1.0
 10
3.6813215297
 20
4.9821361933
 30
0.0
 10
3.6757156845
 20
4.9827377358
 30
0.0
 10
3.6645077019
 20
4.9840154904
 30
0.0
 10
3.6477136309
 20
4.9861337334
 30
0.0
 10
3.6309308872
 20
4.9884378332
 30
0.0
 10
3.6141595158
 20
4.9909174496
 30
0.0
 10
3.5974002934
 20
4.9935688784
 30
0.0
 10
3.5806550556
 20
4.9963954321
 30
0.0
 10
3.5639268806
 20
4.9994069755
 30
0.0
 10
3.5527942481
 20
5.0015475711
 30
0.0
 10
3.5472326672
 20
5.0026546726
 30
0.0
  0
SPLINE
  5
4C3
100
AcDbEntity
  8
0
100
AcDbSpline
 62
7
  6
CONTINUOUS
 70
0
 71
3
 72
23
 73
19
 74
0
 42
0.0000001
 43
0.0000001
 44
0.0000000001
 40
0.0
 40
0.0
 40
0.0
 40
0.0
 40
0.0584481086
 40
0.1184646701
 40
0.1798635084
 40
0.2424399246
 40
0.305975604
 40
0.3702407502
 40
0.4349968949
 40
0.5000000005
 40
0.5650031048
 40
0.6297592589
 40
0.6940243861
 40
0.7575600904
 40
0.8201365019
 40
0.8815353316
 40
0.9415518865
 40
1.0
 40
1.0
 40
1.0
 40
1.0
 10
3.6993768833
 20
5.1005360814
 30
0.0
 10
3.7019656882
 20
5.0994931968
 30
0.0
 10
3.7072507764
 20
5.0974727237
 30
0.0
 10
3.7153706284
 20
5.0946696599
 30
0.0
 10
3.7237612199
 20
5.0920595714
 30
0.0
 10
3.7323862899
 20
5.0896508529
 30
0.0
 10
3.7412081732
 20
5.0874515203
 30
0.0
 10
3.7501879629
 20
5.0854694667
 30
0.0
 10
3.7592857286
 20
5.0837119531
 30
0.0
 10
3.7684609123
 20
5.0821861204
 30
0.0
 10
3.7776725286
 20
5.0808983743
 30
0.0
 10
3.7868795496
 20
5.0798548445
 30
0.0
 10
3.7960411458
 20
5.0790609142
 30
0.0
 10
3.8051170307
 20
5.0785214698
 30
0.0
 10
3.8140677267
 20
5.0782407314
 30
0.0
 10
3.8228548893
 20
5.0782222554
 30
0.0
 10
3.8314414094
 20
5.0784688894
 30
0.0
 10
3.8370888576
 20
5.0788164464
 30
0.0
 10
3.839871065
 20
5.0790374505
 30
0.0
  0
SPLINE
  5
4C4
100
AcDbEntity
  8
0
100
AcDbSpline
 62
7
  6
CONTINUOUS
 70
0
 71
3
 72
21
 73
17
 74
0
 42
0.0000001
 43
0.0000001
 44
0.0000000001
 40
0.0
 40
0.0
 40
0.0
 40
0.0
 40
0.1282257485
 40
0.1920150762
 40
0.2555547045
 40
0.31882818
 40
0.3818254583
 40
0.4445463686
 40
0.5070027843
 40
0.5692136311
 40
0.6312045145
 40
0.6930048531
 40
0.7546433987
 40
0.816145037
 40
0.8775297881
 40
1.0
 40
1.0
 40
1.0
 40
1.0
 10
3.7887046405
 20
5.6922958726
 30
0.0
 10
3.783635142
 20
5.6918576419
 30
0.0
 10
3.7760333232
 20
5.6913034616
 30
0.0
 10
3.7658990885
 20
5.6909034788
 30
0.0
 10
3.758334946
 20
5.6908059694
 30
0.0
 10
3.7508025411
 20
5.690942255
 30
0.0
 10
3.7433115762
 20
5.6913387835
 30
0.0
 10
3.7358730944
 20
5.6920164907
 30
0.0
 10
3.7284987587
 20
5.6929894481
 30
0.0
 10
3.7211993614
 20
5.6942608313
 30
0.0
 10
3.7139835995
 20
5.6958240495
 30
0.0
 10
3.7068569649
 20
5.6976635805
 30
0.0
 10
3.6998210922
 20
5.6997562862
 30
0.0
 10
3.6928737247
 20
5.7020738138
 30
0.0
 10
3.6837288734
 20
5.7054191811
 30
0.0
 10
3.676970303
 20
5.7081742913
 30
0.0
 10
3.6724986181
 20
5.7100778928
 30
0.0
  0
SPLINE
  5
4C5
100
AcDbEntity
  8
0
100
AcDbSpline
 62
7
  6
CONTINUOUS
 70
0
 71
3
 72
15
 73
11
 74
0
 42
0.0000001
 43
0.0000001
 44
0.0000000001
 40
0.0
 40
0.0
 40
0.0
 40
0.0
 40
0.129708744
 40
0.2589489637
 40
0.387260041
 40
0.5141901932
 40
0.6393078487
 40
0.7622106533
 40
0.8825386161
 40
1.0
 40
1.0
 40
1.0
 40
1.0
 10
3.8612251573
 20
5.6884031788
 30
0.0
 10
3.8581145989
 20
5.6888791567
 30
0.0
 10
3.8518945951
 20
5.6897645784
 30
0.0
 10
3.8425666408
 20
5.6908909945
 30
0.0
 10
3.833282851
 20
5.6918026633
 30
0.0
 10
3.8240793791
 20
5.6924829634
 30
0.0
 10
3.8149918189
 20
5.6929103001
 30
0.0
 10
3.8060551708
 20
5.6930576946
 30
0.0
 10
3.7973043146
 20
5.6928920051
 30
0.0
 10
3.7915436937
 20
5.6925412915
 30
0.0
 10
3.7887046405
 20
5.6922958726
 30
0.0
  0
LINE
  5
4C6
100
AcDbEntity
  8
0
100
AcDbLine
 62
7
  6
CONTINUOUS
 10
3.6010553217
 20
5.7210102534
 11
3.5981105856
 21
5.7129955219
  0
SPLINE
  5
4C7
100
AcDbEntity
  8
0
100
AcDbSpline
 62
7
  6
CONTINUOUS
 70
0
 71
3
 72
33
 73
29
 74
0
 42
0.0000001
 43
0.0000001
 44
0.0000000001
 40
0.0
 40
0.0
 40
0.0
 40
0.0
 40
0.1041113822
 40
0.20373923
 40
0.2985079567
 40
0.3880595617
 40
0.4720684356
 40
0.550240243
 40
0.5870538138
 40
0.6223112165
 40
0.6559855075
 40
0.688052804
 40
0.7184934284
 40
0.7472918043
 40
0.7744379118
 40
0.7999281129
 40
0.8237670134
 40
0.8459701733
 40
0.8665667946
 40
0.8856052338
 40
0.9031583678
 40
0.9193325578
 40
0.9342783883
 40
0.9482016222
 40
0.9613740337
 40
0.9741336386
 40
0.986871725
 40
1.0
 40
1.0
 40
1.0
 40
1.0
 10
3.6724986181
 20
5.7100778928
 30
0.0
 10
3.6700861821
 20
5.7111047738
 30
0.0
 10
3.6653289132
 20
5.7130300753
 30
0.0
 10
3.6582715965
 20
5.7156230802
 30
0.0
 10
3.6514883207
 20
5.7178893076
 30
0.0
 10
3.6450205578
 20
5.7198497612
 30
0.0
 10
3.6389044489
 20
5.7215208457
 30
0.0
 10
3.6340341668
 20
5.7227050303
 30
0.0
 10
3.6303376346
 20
5.7235129172
 30
0.0
 10
3.6277269829
 20
5.7240391997
 30
0.0
 10
3.6252251128
 20
5.7244983415
 30
0.0
 10
3.6228346793
 20
5.7248903871
 30
0.0
 10
3.6205581148
 20
5.7252150799
 30
0.0
 10
3.6183976365
 20
5.7254720346
 30
0.0
 10
3.6163552321
 20
5.7256605323
 30
0.0
 10
3.6144326662
 20
5.7257796519
 30
0.0
 10
3.612631459
 20
5.7258282265
 30
0.0
 10
3.6109528748
 20
5.7258047573
 30
0.0
 10
3.6093978827
 20
5.725707545
 30
0.0
 10
3.6079671522
 20
5.7255344487
 30
0.0
 10
3.6066610176
 20
5.7252829761
 30
0.0
 10
3.6054795183
 20
5.7249500425
 30
0.0
 10
3.6044225428
 20
5.7245318573
 30
0.0
 10
3.6034900851
 20
5.7240239011
 30
0.0
 10
3.6026828014
 20
5.7234210549
 30
0.0
 10
3.6020020498
 20
5.7227184059
 30
0.0
 10
3.6014493454
 20
5.7219125838
 30
0.0
 10
3.6011727611
 20
5.7213193089
 30
0.0
 10
3.6010553217
 20
5.7210102534
 30
0.0
  0
SPLINE
  5
4C8
100
AcDbEntity
  8
0
100
AcDbSpline
 62
7
  6
CONTINUOUS
 70
0
 71
3
 72
15
 73
11
 74
0
 42
0.0000001
 43
0.0000001
 44
0.0000000001
 40
0.0
 40
0.0
 40
0.0
 40
0.0
 40
0.1011018173
 40
0.2113363017
 40
0.3299486293
 40
0.4557865228
 40
0.5874147476
 40
0.7231927301
 40
0.8613364135
 40
1.0
 40
1.0
 40
1.0
 40
1.0
 10
7.2576679262
 20
0.8582217337
 30
0.0
 10
7.2578577693
 20
0.8580447124
 30
0.0
 10
7.258228637
 20
0.8576463706
 30
0.0
 10
7.258733727
 20
0.8569646203
 30
0.0
 10
7.259204225
 20
0.8561835087
 30
0.0
 10
7.2596318542
 20
0.8553167016
 30
0.0
 10
7.2600091979
 20
0.8543792896
 30
0.0
 10
7.2603295802
 20
0.853387729
 30
0.0
 10
7.2605873475
 20
0.8523595375
 30
0.0
 10
7.2607147568
 20
0.8516597554
 30
0.0
 10
7.2607668942
 20
0.8513075864
 30
0.0
  0
SPLINE
  5
4C9
100
AcDbEntity
  8
0
100
AcDbSpline
 62
7
  6
CONTINUOUS
 70
0
 71
3
 72
14
 73
10
 74
0
 42
0.0000001
 43
0.0000001
 44
0.0000000001
 40
0.0
 40
0.0
 40
0.0
 40
0.0
 40
0.087543452
 40
0.1891846984
 40
0.3035610255
 40
0.4289843583
 40
0.5635251987
 40
0.7050669109
 40
1.0
 40
1.0
 40
1.0
 40
1.0
 10
7.2505668182
 20
0.8575456148
 30
0.0
 10
7.2506340394
 20
0.8573537678
 30
0.0
 10
7.2507590832
 20
0.8569320774
 30
0.0
 10
7.2509159264
 20
0.8562445514
 30
0.0
 10
7.2510537193
 20
0.8554634769
 30
0.0
 10
7.2511699619
 20
0.8546018428
 30
0.0
 10
7.2512625893
 20
0.85367395
 30
0.0
 10
7.2513535693
 20
0.8523509913
 30
0.0
 10
7.2513799196
 20
0.8513371297
 30
0.0
 10
7.2513799196
 20
0.8506522712
 30
0.0
  0
SPLINE
  5
4CA
100
AcDbEntity
  8
0
100
AcDbSpline
 62
7
  6
CONTINUOUS
 70
0
 71
3
 72
15
 73
11
 74
0
 42
0.0000001
 43
0.0000001
 44
0.0000000001
 40
0.0
 40
0.0
 40
0.0
 40
0.0
 40
0.1162524553
 40
0.2359168629
 40
0.3585769484
 40
0.4837722139
 40
0.6110181705
 40
0.7398136634
 40
0.8696461586
 40
1.0
 40
1.0
 40
1.0
 40
1.0
 10
3.8078730615
 20
5.814979086
 30
0.0
 10
3.8105375705
 20
5.8141423016
 30
0.0
 10
3.815976457
 20
5.8125441235
 30
0.0
 10
3.8243096823
 20
5.8103579002
 30
0.0
 10
3.8329014366
 20
5.8083210447
 30
0.0
 10
3.8417092968
 20
5.8064147154
 30
0.0
 10
3.8506919169
 20
5.8046255179
 30
0.0
 10
3.8598086704
 20
5.8029446888
 30
0.0
 10
3.8690196875
 20
5.8013678706
 30
0.0
 10
3.8751929824
 20
5.8003865228
 30
0.0
 10
3.8782885327
 20
5.7999128365
 30
0.0
  0
SPLINE
  5
4CB
100
AcDbEntity
  8
0
100
AcDbSpline
 62
7
  6
CONTINUOUS
 70
0
 71
3
 72
21
 73
17
 74
0
 42
0.0000001
 43
0.0000001
 44
0.0000000001
 40
0.0
 40
0.0
 40
0.0
 40
0.0
 40
0.1240660378
 40
0.1861907067
 40
0.2483666428
 40
0.3105905652
 40
0.372863507
 40
0.4351901648
 40
0.4975776508
 40
0.5600369652
 40
0.6225799692
 40
0.6852163953
 40
0.7479545036
 40
0.810800728
 40
0.8737581064
 40
1.0
 40
1.0
 40
1.0
 40
1.0
 10
3.7021223651
 20
5.8311612165
 30
0.0
 10
3.7065697502
 20
5.8311778976
 30
0.0
 10
3.7132448293
 20
5.831155569
 30
0.0
 10
3.7221457256
 20
5.8309363387
 30
0.0
 10
3.7288265564
 20
5.830654111
 30
0.0
 10
3.735505555
 20
5.8302334305
 30
0.0
 10
3.7421784261
 20
5.8296565238
 30
0.0
 10
3.7488404161
 20
5.8289096611
 30
0.0
 10
3.7554867657
 20
5.8279843191
 30
0.0
 10
3.7621132929
 20
5.826878232
 30
0.0
 10
3.7687168671
 20
5.8255951346
 30
0.0
 10
3.7752957161
 20
5.8241440992
 30
0.0
 10
3.7818498773
 20
5.8225395588
 30
0.0
 10
3.7883812123
 20
5.8207997743
 30
0.0
 10
3.7970712995
 20
5.8183255386
 30
0.0
 10
3.8035555564
 20
5.816335009
 30
0.0
 10
3.8078730615
 20
5.814979086
 30
0.0
  0
SPLINE
  5
4CC
100
AcDbEntity
  8
0
100
AcDbSpline
 62
7
  6
CONTINUOUS
 70
0
 71
3
 72
34
 73
30
 74
0
 42
0.0000001
 43
0.0000001
 44
0.0000000001
 40
0.0
 40
0.0
 40
0.0
 40
0.0
 40
0.0042314891
 40
0.0083880804
 40
0.0125475979
 40
0.0167865398
 40
0.0257638598
 40
0.030631438
 40
0.0358090493
 40
0.0472233086
 40
0.0602208965
 40
0.0749265251
 40
0.09141472
 40
0.1097279477
 40
0.1298869025
 40
0.1518979626
 40
0.1757575875
 40
0.2014555285
 40
0.2289760979
 40
0.2582984959
 40
0.2893979475
 40
0.3568156022
 40
0.4309823533
 40
0.5116170936
 40
0.5984086428
 40
0.6910192602
 40
0.7890852082
 40
0.8922163248
 40
1.0
 40
1.0
 40
1.0
 40
1.0
 10
3.6310652767
 20
5.842034479
 30
0.0
 10
3.6310632943
 20
5.8419308363
 30
0.0
 10
3.631071805
 20
5.8417248798
 30
0.0
 10
3.6311242288
 20
5.841421143
 30
0.0
 10
3.6312160668
 20
5.8411266656
 30
0.0
 10
3.6313939112
 20
5.8407388413
 30
0.0
 10
3.6316515055
 20
5.8403732696
 30
0.0
 10
3.6319714182
 20
5.8400340042
 30
0.0
 10
3.6323636172
 20
5.8396830055
 30
0.0
 10
3.6329568402
 20
5.8392625926
 30
0.0
 10
3.6337952179
 20
5.8387958678
 30
0.0
 10
3.6347816482
 20
5.8383475756
 30
0.0
 10
3.6359152575
 20
5.8379148775
 30
0.0
 10
3.637195115
 20
5.8374955289
 30
0.0
 10
3.6386198871
 20
5.8370877527
 30
0.0
 10
3.6401880124
 20
5.8366900399
 30
0.0
 10
3.6418977953
 20
5.8363013233
 30
0.0
 10
3.6437473917
 20
5.8359207317
 30
0.0
 10
3.6457348458
 20
5.8355477597
 30
0.0
 10
3.6478580461
 20
5.8351821064
 30
0.0
 10
3.6509511382
 20
5.834690954
 30
0.0
 10
3.6551406156
 20
5.8341017426
 30
0.0
 10
3.6605452009
 20
5.8334467767
 30
0.0
 10
3.6664323849
 20
5.8328362781
 30
0.0
 10
3.672779035
 20
5.8322844541
 30
0.0
 10
3.679560154
 20
5.831810426
 30
0.0
 10
3.6867485797
 20
5.83143838
 30
0.0
 10
3.694314605
 20
5.8311982357
 30
0.0
 10
3.6994819332
 20
5.831151318
 30
0.0
 10
3.7021223651
 20
5.8311612165
 30
0.0
  0
SPLINE
  5
4CD
100
AcDbEntity
  8
0
100
AcDbSpline
 62
7
  6
CONTINUOUS
 70
0
 71
3
 72
38
 73
34
 74
0
 42
0.0000001
 43
0.0000001
 44
0.0000000001
 40
0.0
 40
0.0
 40
0.0
 40
0.0
 40
0.0006295314
 40
0.0012606354
 40
0.0026296241
 40
0.0034166331
 40
0.0042910419
 40
0.0063396601
 40
0.0088323071
 40
0.0117984956
 40
0.0152554458
 40
0.0192139486
 40
0.0236813483
 40
0.0286627865
 40
0.040179358
 40
0.053774157
 40
0.0694446521
 40
0.0871815652
 40
0.1069737789
 40
0.1288083615
 40
0.1526649771
 40
0.1785187713
 40
0.2063410762
 40
0.2361038091
 40
0.267779257
 40
0.3367335517
 40
0.4128906159
 40
0.49591266
 40
0.5854338824
 40
0.6810445354
 40
0.7823223892
 40
0.8888000668
 40
1.0
 40
1.0
 40
1.0
 40
1.0
 10
4.0259688204
 20
4.9293977469
 30
0.0
 10
4.0259732092
 20
4.9294120574
 30
0.0
 10
4.0259790653
 20
4.9294417301
 30
0.0
 10
4.0259776143
 20
4.929504688
 30
0.0
 10
4.0259546967
 20
4.9295687008
 30
0.0
 10
4.0259163174
 20
4.9296297418
 30
0.0
 10
4.0258605852
 20
4.9296984045
 30
0.0
 10
4.0257647653
 20
4.9297853451
 30
0.0
 10
4.0256184126
 20
4.9298879926
 30
0.0
 10
4.0254346509
 20
4.9299941121
 30
0.0
 10
4.0252133393
 20
4.9301037059
 30
0.0
 10
4.0249542957
 20
4.9302167244
 30
0.0
 10
4.0246574443
 20
4.9303330938
 30
0.0
 10
4.0241879537
 20
4.9305008307
 30
0.0
 10
4.0235051691
 20
4.9307155706
 30
0.0
 10
4.0225707184
 20
4.9309749585
 30
0.0
 10
4.0214864662
 20
4.9312462247
 30
0.0
 10
4.0202534541
 20
4.9315288542
 30
0.0
 10
4.0188727422
 20
4.9318222464
 30
0.0
 10
4.0173455892
 20
4.9321258284
 30
0.0
 10
4.0156735363
 20
4.9324391367
 30
0.0
 10
4.0138584564
 20
4.9327616906
 30
0.0
 10
4.0119023848
 20
4.9330930699
 30
0.0
 10
4.0098073959
 20
4.9334328323
 30
0.0
 10
4.0067439844
 20
4.9339100364
 30
0.0
 10
4.0025851895
 20
4.9345217073
 30
0.0
 10
3.997211832
 20
4.9352639315
 30
0.0
 10
3.9913483604
 20
4.9360306581
 30
0.0
 10
3.9850213841
 20
4.9368191869
 30
0.0
 10
3.9782595397
 20
4.9376274884
 30
0.0
 10
3.971093811
 20
4.9384532577
 30
0.0
 10
3.9635568661
 20
4.9392950847
 30
0.0
 10
3.9584115004
 20
4.9398548506
 30
0.0
 10
3.9557826777
 20
4.9401377359
 30
0.0
  0
SPLINE
  5
4CE
100
AcDbEntity
  8
0
100
AcDbSpline
 62
7
  6
CONTINUOUS
 70
0
 71
3
 72
11
 73
7
 74
0
 42
0.0000001
 43
0.0000001
 44
0.0000000001
 40
0.0
 40
0.0
 40
0.0
 40
0.0
 40
0.2343020711
 40
0.4819450927
 40
0.738671995
 40
1.0
 40
1.0
 40
1.0
 40
1.0
 10
3.8216938152
 20
4.9606562152
 30
0.0
 10
3.8162537381
 20
4.961740805
 30
0.0
 10
3.805050469
 20
4.9639051778
 30
0.0
 10
3.7878431896
 20
4.9670290204
 30
0.0
 10
3.7699713887
 20
4.9700682978
 30
0.0
 10
3.7578576227
 20
4.9719905581
 30
0.0
 10
3.7517418266
 20
4.9729264087
 30
0.0
  0
SPLINE
  5
4CF
100
AcDbEntity
  8
0
100
AcDbSpline
 62
7
  6
CONTINUOUS
 70
0
 71
3
 72
15
 73
11
 74
0
 42
0.0000001
 43
0.0000001
 44
0.0000000001
 40
0.0
 40
0.0
 40
0.0
 40
0.0
 40
0.1253737499
 40
0.2506327312
 40
0.3757819107
 40
0.5008249565
 40
0.6257650126
 40
0.7506050902
 40
0.8753486517
 40
1.0
 40
1.0
 40
1.0
 40
1.0
 10
3.9557826777
 20
4.9401377359
 30
0.0
 10
3.9501445242
 20
4.9407444344
 30
0.0
 10
3.9388811917
 20
4.9420309032
 30
0.0
 10
3.9220179179
 20
4.9441595737
 30
0.0
 10
3.905193682
 20
4.9464698711
 30
0.0
 10
3.8884084706
 20
4.9489514626
 30
0.0
 10
3.8716630453
 20
4.951600636
 30
0.0
 10
3.8549592544
 20
4.9544206968
 30
0.0
 10
3.8383002338
 20
4.9574214955
 30
0.0
 10
3.8272230242
 20
4.959553855
 30
0.0
 10
3.8216938152
 20
4.9606562152
 30
0.0
  0
SPLINE
  5
4D0
100
AcDbEntity
  8
0
100
AcDbSpline
 62
7
  6
CONTINUOUS
 70
0
 71
3
 72
23
 73
19
 74
0
 42
0.0000001
 43
0.0000001
 44
0.0000000001
 40
0.0
 40
0.0
 40
0.0
 40
0.0
 40
0.122470898
 40
0.1838537306
 40
0.2453529882
 40
0.3069934209
 40
0.3378735783
 40
0.3687957537
 40
0.4307785575
 40
0.4929839501
 40
0.5554477576
 40
0.6181728654
 40
0.6811675514
 40
0.7444394124
 40
0.807981503
 40
0.8717714004
 40
0.9357862073
 40
1.0
 40
1.0
 40
1.0
 40
1.0
 10
4.0477972557
 20
5.6526491312
 30
0.0
 10
4.0429608882
 20
5.6521698411
 30
0.0
 10
4.0356877545
 20
5.6515613811
 30
0.0
 10
4.0259610152
 20
5.6511042045
 30
0.0
 10
4.0186386127
 20
5.6509711005
 30
0.0
 10
4.0125258878
 20
5.6510595891
 30
0.0
 10
4.0076312763
 20
5.6512643282
 30
0.0
 10
4.0027279489
 20
5.6515638804
 30
0.0
 10
3.9965961323
 20
5.652121558
 30
0.0
 10
3.9892512452
 20
5.6530939723
 30
0.0
 10
3.9819224311
 20
5.6543666166
 30
0.0
 10
3.9746208518
 20
5.6559427042
 30
0.0
 10
3.9673543912
 20
5.6578058018
 30
0.0
 10
3.9601261884
 20
5.6599289995
 30
0.0
 10
3.9529367061
 20
5.6622823288
 30
0.0
 10
3.9457852718
 20
5.6648370523
 30
0.0
 10
3.93866789
 20
5.6675599023
 30
0.0
 10
3.9339482037
 20
5.6694625873
 30
0.0
 10
3.9315912334
 20
5.6704311514
 30
0.0
  0
SPLINE
  5
4D1
100
AcDbEntity
  8
0
100
AcDbSpline
 62
7
  6
CONTINUOUS
 70
0
 71
3
 72
33
 73
29
 74
0
 42
0.0000001
 43
0.0000001
 44
0.0000000001
 40
0.0
 40
0.0
 40
0.0
 40
0.0
 40
0.013127414
 40
0.0258652088
 40
0.038624837
 40
0.0517972105
 40
0.0657199749
 40
0.0806651827
 40
0.0968392078
 40
0.114392905
 40
0.1334322786
 40
0.1540296558
 40
0.1762329708
 40
0.2000716109
 40
0.2255614421
 40
0.2527073085
 40
0.2815056707
 40
0.3119465121
 40
0.3440139858
 40
0.3776881604
 40
0.4129452489
 40
0.449758458
 40
0.5279303861
 40
0.6119414362
 40
0.701493357
 40
0.7962595848
 40
0.895886907
 40
1.0
 40
1.0
 40
1.0
 40
1.0
 10
4.1192405522
 20
5.6417167706
 30
0.0
 10
4.1192208662
 20
5.6420467786
 30
0.0
 10
4.1191342691
 20
5.6426955741
 30
0.0
 10
4.1188477419
 20
5.6436297431
 30
0.0
 10
4.1184082465
 20
5.6445037858
 30
0.0
 10
4.1178183104
 20
5.6453205264
 30
0.0
 10
4.1170805961
 20
5.6460842114
 30
0.0
 10
4.1161971531
 20
5.6467994323
 30
0.0
 10
4.1151692907
 20
5.64747046
 30
0.0
 10
4.1139980473
 20
5.6481009404
 30
0.0
 10
4.1126844525
 20
5.6486938816
 30
0.0
 10
4.111229617
 20
5.6492515928
 30
0.0
 10
4.1096348482
 20
5.6497759545
 30
0.0
 10
4.1079015591
 20
5.6502682627
 30
0.0
 10
4.1060313778
 20
5.6507295443
 30
0.0
 10
4.104026086
 20
5.6511604521
 30
0.0
 10
4.101887633
 20
5.6515613267
 30
0.0
 10
4.0996181365
 20
5.6519322611
 30
0.0
 10
4.097219844
 20
5.6522729801
 30
0.0
 10
4.0946951664
 20
5.6525830194
 30
0.0
 10
4.092046622
 20
5.6528615348
 30
0.0
 10
4.0882776711
 20
5.6531960659
 30
0.0
 10
4.0832760874
 20
5.6535225096
 30
0.0
 10
4.0769400571
 20
5.6537566368
 30
0.0
 10
4.0701820105
 20
5.6538199756
 30
0.0
 10
4.063031509
 20
5.6536862534
 30
0.0
 10
4.0555217515
 20
5.6533223824
 30
0.0
 10
4.0504064123
 20
5.6529076841
 30
0.0
 10
4.0477972557
 20
5.6526491312
 30
0.0
  0
SPLINE
  5
4D2
100
AcDbEntity
  8
0
100
AcDbSpline
 62
7
  6
CONTINUOUS
 70
0
 71
3
 72
14
 73
10
 74
0
 42
0.0000001
 43
0.0000001
 44
0.0000000001
 40
0.0
 40
0.0
 40
0.0
 40
0.0
 40
0.087543452
 40
0.1891846983
 40
0.3035610254
 40
0.4289843582
 40
0.5635251986
 40
0.7050669109
 40
1.0
 40
1.0
 40
1.0
 40
1.0
 10
7.071377551
 20
0.8575456148
 30
0.0
 10
7.0713103297
 20
0.8573537678
 30
0.0
 10
7.0711852859
 20
0.8569320774
 30
0.0
 10
7.0710284427
 20
0.8562445514
 30
0.0
 10
7.0708906498
 20
0.8554634769
 30
0.0
 10
7.0707744072
 20
0.8546018428
 30
0.0
 10
7.0706817798
 20
0.85367395
 30
0.0
 10
7.0705907998
 20
0.8523509913
 30
0.0
 10
7.0705644495
 20
0.8513371297
 30
0.0
 10
7.0705644495
 20
0.8506522712
 30
0.0
  0
SPLINE
  5
4D3
100
AcDbEntity
  8
0
100
AcDbSpline
 62
7
  6
CONTINUOUS
 70
0
 71
3
 72
15
 73
11
 74
0
 42
0.0000001
 43
0.0000001
 44
0.0000000001
 40
0.0
 40
0.0
 40
0.0
 40
0.0
 40
0.1174613905
 40
0.2377893525
 40
0.3606921601
 40
0.4858098134
 40
0.6127399659
 40
0.7410510361
 40
0.8702912589
 40
1.0
 40
1.0
 40
1.0
 40
1.0
 10
3.9315912334
 20
5.6704311514
 30
0.0
 10
3.9289554859
 20
5.6715143362
 30
0.0
 10
3.9235633445
 20
5.6735716569
 30
0.0
 10
3.9152624736
 20
5.6763466311
 30
0.0
 10
3.9066906858
 20
5.6788784008
 30
0.0
 10
3.8978911787
 20
5.681188172
 30
0.0
 10
3.8889054167
 20
5.6832912123
 30
0.0
 10
3.8797738254
 20
5.6851975003
 30
0.0
 10
3.8705358692
 20
5.6869120572
 30
0.0
 10
3.8643357143
 20
5.687927192
 30
0.0
 10
3.8612251573
 20
5.6884031788
 30
0.0
  0
LINE
  5
4D4
100
AcDbEntity
  8
0
100
AcDbLine
 62
7
  6
CONTINUOUS
 10
4.1267950232
 20
5.7661771681
 11
4.12805524
 21
5.7709427637
  0
SPLINE
  5
4D5
100
AcDbEntity
  8
0
100
AcDbSpline
 62
7
  6
CONTINUOUS
 70
0
 71
3
 72
34
 73
30
 74
0
 42
0.0000001
 43
0.0000001
 44
0.0000000001
 40
0.0
 40
0.0
 40
0.0
 40
0.0
 40
0.1077813358
 40
0.2109137625
 40
0.308981041
 40
0.4015906893
 40
0.4883808603
 40
0.5690158987
 40
0.6431830092
 40
0.7106001773
 40
0.7416994999
 40
0.7710216951
 40
0.7985424587
 40
0.8242410155
 40
0.8481010411
 40
0.8701118798
 40
0.8902699242
 40
0.9085821993
 40
0.925069846
 40
0.9397752586
 40
0.9527734211
 40
0.9641892422
 40
0.9693675564
 40
0.9742355505
 40
0.9832129083
 40
0.9874517407
 40
0.9916112789
 40
0.9957681154
 40
1.0
 40
1.0
 40
1.0
 40
1.0
 10
4.0557379347
 20
5.7770504306
 30
0.0
 10
4.0582545446
 20
5.7762514399
 30
0.0
 10
4.0631994788
 20
5.7747511165
 30
0.0
 10
4.0704910767
 20
5.7727175528
 30
0.0
 10
4.077461854
 20
5.7709228343
 30
0.0
 10
4.0840744304
 20
5.7693473945
 30
0.0
 10
4.0902956578
 20
5.7679761299
 30
0.0
 10
4.0960960001
 20
5.7667981504
 30
0.0
 10
4.1014491473
 20
5.7658069207
 30
0.0
 10
4.105623122
 20
5.7651163683
 30
0.0
 10
4.1087215373
 20
5.7646600835
 30
0.0
 10
4.1108569294
 20
5.7643740915
 30
0.0
 10
4.1128649908
 20
5.7641356553
 30
0.0
 10
4.1147437938
 20
5.7639456927
 30
0.0
 10
4.1164916016
 20
5.7638053017
 30
0.0
 10
4.1181068891
 20
5.763715885
 30
0.0
 10
4.1195883599
 20
5.7636789822
 30
0.0
 10
4.1209349974
 20
5.7636964623
 30
0.0
 10
4.1221460865
 20
5.7637703919
 30
0.0
 10
4.1232214315
 20
5.7639032086
 30
0.0
 10
4.1241610632
 20
5.7640978588
 30
0.0
 10
4.1248529713
 20
5.7643215118
 30
0.0
 10
4.1253323047
 20
5.7645390681
 30
0.0
 10
4.125739108
 20
5.7647670676
 30
0.0
 10
4.1260942736
 20
5.7650388627
 30
0.0
 10
4.1263799028
 20
5.7653558086
 30
0.0
 10
4.1265555184
 20
5.7656094108
 30
0.0
 10
4.1266962799
 20
5.7658836385
 30
0.0
 10
4.1267659393
 20
5.7660776596
 30
0.0
 10
4.1267950232
 20
5.7661771681
 30
0.0
  0
SPLINE
  5
4D6
100
AcDbEntity
  8
0
100
AcDbSpline
 62
7
  6
CONTINUOUS
 70
0
 71
3
 72
21
 73
17
 74
0
 42
0.0000001
 43
0.0000001
 44
0.0000000001
 40
0.0
 40
0.0
 40
0.0
 40
0.0
 40
0.1262418967
 40
0.1891990641
 40
0.2520456955
 40
0.3147838198
 40
0.3774197052
 40
0.439963025
 40
0.502422666
 40
0.5648099741
 40
0.6271363
 40
0.6894092793
 40
0.7516333198
 40
0.8138092795
 40
0.8759339644
 40
1.0
 40
1.0
 40
1.0
 40
1.0
 10
3.9499872384
 20
5.7932325611
 30
0.0
 10
3.9545126523
 20
5.7932353351
 30
0.0
 10
3.9612954324
 20
5.7931956688
 30
0.0
 10
3.9703277723
 20
5.7929581156
 30
0.0
 10
3.9770805045
 20
5.7926650151
 30
0.0
 10
3.9838145658
 20
5.7922361647
 30
0.0
 10
3.9905262959
 20
5.7916536301
 30
0.0
 10
3.9972113838
 20
5.7909031624
 30
0.0
 10
4.0038654547
 20
5.789976966
 30
0.0
 10
4.0104843841
 20
5.7888724774
 30
0.0
 10
4.0170648646
 20
5.7875930359
 30
0.0
 10
4.0236048952
 20
5.7861480608
 30
0.0
 10
4.0301040665
 20
5.784552176
 30
0.0
 10
4.0365635881
 20
5.7828236477
 30
0.0
 10
4.0451227412
 20
5.7803711105
 30
0.0
 10
4.0514990486
 20
5.7783962969
 30
0.0
 10
4.0557379347
 20
5.7770504306
 30
0.0
  0
SPLINE
  5
4D7
100
AcDbEntity
  8
0
100
AcDbSpline
 62
7
  6
CONTINUOUS
 70
0
 71
3
 72
15
 73
11
 74
0
 42
0.0000001
 43
0.0000001
 44
0.0000000001
 40
0.0
 40
0.0
 40
0.0
 40
0.0
 40
0.1303537859
 40
0.2601863934
 40
0.3889818596
 40
0.5162277009
 40
0.6414230824
 40
0.7640830202
 40
0.8837477398
 40
1.0
 40
1.0
 40
1.0
 40
1.0
 10
3.8782885327
 20
5.7999128365
 30
0.0
 10
3.8813840832
 20
5.7994391598
 30
0.0
 10
3.8875683636
 20
5.7985295979
 30
0.0
 10
3.8968294075
 20
5.7972796913
 30
0.0
 10
3.9060316202
 20
5.796157345
 30
0.0
 10
3.9151382437
 20
5.7951785306
 30
0.0
 10
3.9241131221
 20
5.7943636725
 30
0.0
 10
3.9329208337
 20
5.7937380916
 30
0.0
 10
3.9415264991
 20
5.7933322289
 30
0.0
 10
3.9471944284
 20
5.7932308541
 30
0.0
 10
3.9499872384
 20
5.7932325611
 30
0.0
  0
SPLINE
  5
4D8
100
AcDbEntity
  8
0
100
AcDbSpline
 62
7
  6
CONTINUOUS
 70
0
 71
3
 72
15
 73
11
 74
0
 42
0.0000001
 43
0.0000001
 44
0.0000000001
 40
0.0
 40
0.0
 40
0.0
 40
0.0
 40
0.1011018176
 40
0.2113363022
 40
0.3299486298
 40
0.4557865232
 40
0.5874147479
 40
0.7231927302
 40
0.8613364136
 40
1.0
 40
1.0
 40
1.0
 40
1.0
 10
7.0642764429
 20
0.8582217337
 30
0.0
 10
7.0640865998
 20
0.8580447124
 30
0.0
 10
7.0637157321
 20
0.8576463706
 30
0.0
 10
7.0632106421
 20
0.8569646203
 30
0.0
 10
7.0627401441
 20
0.8561835087
 30
0.0
 10
7.0623125149
 20
0.8553167016
 30
0.0
 10
7.0619351711
 20
0.8543792896
 30
0.0
 10
7.0616147889
 20
0.853387729
 30
0.0
 10
7.0613570216
 20
0.8523595375
 30
0.0
 10
7.0612296123
 20
0.8516597554
 30
0.0
 10
7.0611774749
 20
0.8513075864
 30
0.0
  0
SPLINE
  5
4D9
100
AcDbEntity
  8
0
100
AcDbSpline
 62
7
  6
CONTINUOUS
 70
0
 71
3
 72
15
 73
11
 74
0
 42
0.0000001
 43
0.0000001
 44
0.0000000001
 40
0.0
 40
0.0
 40
0.0
 40
0.0
 40
0.0943015702
 40
0.1985748047
 40
0.3128792697
 40
0.4366256645
 40
0.5687507184
 40
0.7078375147
 40
0.852203353
 40
1.0
 40
1.0
 40
1.0
 40
1.0
 10
6.8439919842
 20
0.8582217337
 30
0.0
 10
6.8438540496
 20
0.8580440601
 30
0.0
 10
6.8435991067
 20
0.8576418072
 30
0.0
 10
6.8432958493
 20
0.8569577464
 30
0.0
 10
6.8430570953
 20
0.8561751013
 30
0.0
 10
6.8428868296
 20
0.8553073929
 30
0.0
 10
6.8427877975
 20
0.8543694498
 30
0.0
 10
6.8427617547
 20
0.8533775996
 30
0.0
 10
6.8428091482
 20
0.8523492605
 30
0.0
 10
6.842888622
 20
0.8516563143
 30
0.0
 10
6.8429402501
 20
0.8513075864
 30
0.0
  0
SPLINE
  5
4DA
100
AcDbEntity
  8
0
100
AcDbSpline
 62
7
  6
CONTINUOUS
 70
0
 71
3
 72
13
 73
9
 74
0
 42
0.0000001
 43
0.0000001
 44
0.0000000001
 40
0.0
 40
0.0
 40
0.0
 40
0.0
 40
0.1119020086
 40
0.2282323395
 40
0.3489648007
 40
0.4737871908
 40
0.7330092172
 40
1.0
 40
1.0
 40
1.0
 40
1.0
 10
6.8380613668
 20
0.8575456148
 30
0.0
 10
6.837835359
 20
0.8573666485
 30
0.0
 10
6.8374007949
 20
0.85696722
 30
0.0
 10
6.8368243863
 20
0.8562743071
 30
0.0
 10
6.836319758
 20
0.8554876558
 30
0.0
 10
6.8357469193
 20
0.8543175108
 30
0.0
 10
6.835260534
 20
0.8526991681
 30
0.0
 10
6.8351308427
 20
0.851340101
 30
0.0
 10
6.8351308427
 20
0.8506522712
 30
0.0
  0
SPLINE
  5
4DB
100
AcDbEntity
  8
0
100
AcDbSpline
 62
7
  6
CONTINUOUS
 70
0
 71
3
 72
15
 73
11
 74
0
 42
0.0000001
 43
0.0000001
 44
0.0000000001
 40
0.0
 40
0.0
 40
0.0
 40
0.0
 40
0.1225578593
 40
0.245896594
 40
0.370042266
 40
0.4949563672
 40
0.6205548558
 40
0.7467096072
 40
0.8732519754
 40
1.0
 40
1.0
 40
1.0
 40
1.0
 10
6.7480879463
 20
0.8575456148
 30
0.0
 10
6.7478036159
 20
0.8573695286
 30
0.0
 10
6.7472560451
 20
0.8569776957
 30
0.0
 10
6.7465169091
 20
0.8562857061
 30
0.0
 10
6.7458691623
 20
0.8554989995
 30
0.0
 10
6.7453238411
 20
0.8546309468
 30
0.0
 10
6.744889975
 20
0.8536961581
 30
0.0
 10
6.7445748231
 20
0.8527102928
 30
0.0
 10
6.744383598
 20
0.8516900943
 30
0.0
 10
6.7443408831
 20
0.8509981455
 30
0.0
 10
6.7443408831
 20
0.8506522712
 30
0.0
  0
SPLINE
  5
4DC
100
AcDbEntity
  8
0
100
AcDbSpline
 62
7
  6
CONTINUOUS
 70
0
 71
3
 72
15
 73
11
 74
0
 42
0.0000001
 43
0.0000001
 44
0.0000000001
 40
0.0
 40
0.0
 40
0.0
 40
0.0
 40
0.125734214
 40
0.2512363882
 40
0.3765030183
 40
0.50153573
 40
0.6263581854
 40
0.7510090975
 40
0.8755342627
 40
1.0
 40
1.0
 40
1.0
 40
1.0
 10
6.7469240425
 20
0.8582175517
 30
0.0
 10
6.7466121346
 20
0.8580488516
 30
0.0
 10
6.7460104708
 20
0.8576699627
 30
0.0
 10
6.7451926873
 20
0.8569879577
 30
0.0
 10
6.7444741464
 20
0.8562044864
 30
0.0
 10
6.7438679075
 20
0.8553335823
 30
0.0
 10
6.7433847365
 20
0.8543907689
 30
0.0
 10
6.7430333134
 20
0.8533927957
 30
0.0
 10
6.7428198941
 20
0.852357719
 30
0.0
 10
6.7427721846
 20
0.8516545628
 30
0.0
 10
6.7427721846
 20
0.8513035331
 30
0.0
  0
SPLINE
  5
4DD
100
AcDbEntity
  8
0
100
AcDbSpline
 62
7
  6
CONTINUOUS
 70
0
 71
3
 72
25
 73
21
 74
0
 42
0.0000001
 43
0.0000001
 44
0.0000000001
 40
0.0
 40
0.0
 40
0.0
 40
0.0
 40
0.1241906585
 40
0.1862693974
 40
0.2483435892
 40
0.3104295811
 40
0.3725472379
 40
0.4036268619
 40
0.4347242689
 40
0.4969833169
 40
0.5593530558
 40
0.5905884202
 40
0.6218600134
 40
0.6845151827
 40
0.7473269094
 40
0.7787922852
 40
0.8102954243
 40
0.8734091453
 40
0.9366510108
 40
1.0
 40
1.0
 40
1.0
 40
1.0
 10
3.5520295699
 20
5.1163096427
 30
0.0
 10
3.5580557411
 20
5.1168743463
 30
0.0
 10
3.5671080541
 20
5.1175950265
 30
0.0
 10
3.5792006444
 20
5.1181320617
 30
0.0
 10
3.58827742
 20
5.1182804187
 30
0.0
 10
3.5973564239
 20
5.1181351413
 30
0.0
 10
3.6049161011
 20
5.1177429428
 30
0.0
 10
3.6109542804
 20
5.117253334
 30
0.0
 10
3.616988256
 20
5.1166417135
 30
0.0
 10
3.6245144165
 20
5.1156461686
 30
0.0
 10
3.6320004913
 20
5.1143443303
 30
0.0
 10
3.6379625308
 20
5.1131204506
 30
0.0
 10
3.643912548
 20
5.1117748554
 30
0.0
 10
3.6513136421
 20
5.1098764581
 30
0.0
 10
3.658652369
 20
5.1077174225
 30
0.0
 10
3.6644909625
 20
5.105849111
 30
0.0
 10
3.6703153002
 20
5.1038901346
 30
0.0
 10
3.6775567017
 20
5.1012892606
 30
0.0
 10
3.6861857538
 20
5.0979682857
 30
0.0
 10
3.6919031184
 20
5.0956490887
 30
0.0
 10
3.6947562332
 20
5.0944693941
 30
0.0
  0
SPLINE
  5
4DE
100
AcDbEntity
  8
0
100
AcDbSpline
 62
7
  6
CONTINUOUS
 70
0
 71
3
 72
17
 73
13
 74
0
 42
0.0000001
 43
0.0000001
 44
0.0000000001
 40
0.0
 40
0.0
 40
0.0
 40
0.0
 40
0.1248026037
 40
0.2496615341
 40
0.312111326
 40
0.3745735718
 40
0.4995363271
 40
0.624554996
 40
0.6870871302
 40
0.749635137
 40
0.874780789
 40
1.0
 40
1.0
 40
1.0
 40
1.0
 10
3.6787456524
 20
4.98983978
 30
0.0
 10
3.67315489
 20
4.9904421355
 30
0.0
 10
3.6619785752
 20
4.9917198811
 30
0.0
 10
3.6480268151
 20
4.99348379
 30
0.0
 10
3.6368738178
 20
4.9949862934
 30
0.0
 10
3.6257240711
 20
4.9965468363
 30
0.0
 10
3.6117975884
 20
4.99860504
 30
0.0
 10
3.5978897848
 20
5.0008061254
 30
0.0
 10
3.5867736003
 20
5.0026527315
 30
0.0
 10
3.5756614018
 20
5.0045573485
 30
0.0
 10
3.5617849121
 20
5.007051946
 30
0.0
 10
3.5507065538
 20
5.0091795026
 30
0.0
 10
3.5451728942
 20
5.0102792842
 30
0.0
  0
SPLINE
  5
4DF
100
AcDbEntity
  8
0
100
AcDbSpline
 62
7
  6
CONTINUOUS
 70
0
 71
3
 72
25
 73
21
 74
0
 42
0.0000001
 43
0.0000001
 44
0.0000000001
 40
0.0
 40
0.0
 40
0.0
 40
0.0
 40
0.0633489976
 40
0.1265908648
 40
0.1897046191
 40
0.252671537
 40
0.3154833717
 40
0.3781384188
 40
0.4094099694
 40
0.4406453041
 40
0.5030150613
 40
0.5652741982
 40
0.5963715859
 40
0.6274511452
 40
0.6895688055
 40
0.751654771
 40
0.7826932796
 40
0.8137306897
 40
0.8758093832
 40
1.0
 40
1.0
 40
1.0
 40
1.0
 10
3.8424660886
 20
5.0718666101
 30
0.0
 10
3.8455414236
 20
5.0721391219
 30
0.0
 10
3.8516906913
 20
5.0726424764
 30
0.0
 10
3.8609180261
 20
5.0732310007
 30
0.0
 10
3.8701380131
 20
5.0736105227
 30
0.0
 10
3.8793443472
 20
5.073739041
 30
0.0
 10
3.888528116
 20
5.0735778657
 30
0.0
 10
3.8961582526
 20
5.073175961
 30
0.0
 10
3.9022383555
 20
5.0726804579
 30
0.0
 10
3.9082935556
 20
5.0720653759
 30
0.0
 10
3.9158263805
 20
5.0710690625
 30
0.0
 10
3.9233059183
 20
5.0697687513
 30
0.0
 10
3.9292466883
 20
5.0685480064
 30
0.0
 10
3.9351549097
 20
5.0672092497
 30
0.0
 10
3.9424858168
 20
5.0653225124
 30
0.0
 10
3.9497422836
 20
5.0631755411
 30
0.0
 10
3.9555017236
 20
5.0613186878
 30
0.0
 10
3.9612319806
 20
5.0593746829
 30
0.0
 10
3.9711887063
 20
5.0557620286
 30
0.0
 10
3.979611209
 20
5.0523672996
 30
0.0
 10
3.985192752
 20
5.0500263615
 30
0.0
  0
SPLINE
  5
4E0
100
AcDbEntity
  8
0
100
AcDbSpline
 62
7
  6
CONTINUOUS
 70
0
 71
3
 72
17
 73
13
 74
0
 42
0.0000001
 43
0.0000001
 44
0.0000000001
 40
0.0
 40
0.0
 40
0.0
 40
0.0
 40
0.1252192081
 40
0.2503648561
 40
0.3129128623
 40
0.3754449976
 40
0.5004636722
 40
0.6254264327
 40
0.6878886789
 40
0.75033847
 40
0.8751973977
 40
1.0
 40
1.0
 40
1.0
 40
1.0
 10
3.960028266
 20
4.9467974917
 30
0.0
 10
3.9544189454
 20
4.9474028253
 30
0.0
 10
3.9432113035
 20
4.9486855092
 30
0.0
 10
3.929223812
 20
4.9504547044
 30
0.0
 10
3.9180505456
 20
4.9519602399
 30
0.0
 10
3.9068908222
 20
4.9535223193
 30
0.0
 10
3.8929612193
 20
4.9555809493
 30
0.0
 10
3.87905652
 20
4.9577815119
 30
0.0
 10
3.8679503162
 20
4.9596266101
 30
0.0
 10
3.8568583672
 20
4.9615280654
 30
0.0
 10
3.8430175554
 20
4.9640170223
 30
0.0
 10
3.8319705676
 20
4.9661399219
 30
0.0
 10
3.8264555078
 20
4.9672369959
 30
0.0
  0
SPLINE
  5
4E1
100
AcDbEntity
  8
0
100
AcDbSpline
 62
7
  6
CONTINUOUS
 70
0
 71
3
 72
15
 73
11
 74
0
 42
0.0000001
 43
0.0000001
 44
0.0000000001
 40
0.0
 40
0.0
 40
0.0
 40
0.0
 40
0.1270960174
 40
0.2539471331
 40
0.3803342007
 40
0.5060556191
 40
0.6309564268
 40
0.754933636
 40
0.8779392275
 40
1.0
 40
1.0
 40
1.0
 40
1.0
 10
7.5090786934
 20
3.3953612805
 30
0.0
 10
7.5090786934
 20
3.3950168256
 30
0.0
 10
7.5090367934
 20
3.394327843
 30
0.0
 10
7.5088491957
 20
3.3933117962
 30
0.0
 10
7.508539987
 20
3.3923296425
 30
0.0
 10
7.5081142298
 20
3.3913979125
 30
0.0
 10
7.5075789764
 20
3.3905320831
 30
0.0
 10
7.5069430006
 20
3.3897466054
 30
0.0
 10
7.5062170365
 20
3.3890547272
 30
0.0
 10
7.5056786443
 20
3.3886619068
 30
0.0
 10
7.505399009
 20
3.3884851633
 30
0.0
  0
SPLINE
  5
4E2
100
AcDbEntity
  8
0
100
AcDbSpline
 62
7
  6
CONTINUOUS
 70
0
 71
3
 72
15
 73
11
 74
0
 42
0.0000001
 43
0.0000001
 44
0.0000000001
 40
0.0
 40
0.0
 40
0.0
 40
0.0
 40
0.1243611678
 40
0.248794252
 40
0.3733771396
 40
0.4981653682
 40
0.6232048823
 40
0.7485235529
 40
0.8741238907
 40
1.0
 40
1.0
 40
1.0
 40
1.0
 10
7.5109721846
 20
3.3945768378
 30
0.0
 10
7.5109721846
 20
3.3942262532
 30
0.0
 10
7.5109243301
 20
3.3935239455
 30
0.0
 10
7.5107102711
 20
3.3924902019
 30
0.0
 10
7.5103578112
 20
3.3914936326
 30
0.0
 10
7.5098732479
 20
3.3905523256
 30
0.0
 10
7.5092653176
 20
3.3896830521
 30
0.0
 10
7.5085448529
 20
3.3889013503
 30
0.0
 10
7.5077249898
 20
3.388221258
 30
0.0
 10
7.5071219859
 20
3.3878437972
 30
0.0
 10
7.5068094075
 20
3.3876758177
 30
0.0
  0
SPLINE
  5
4E3
100
AcDbEntity
  8
0
100
AcDbSpline
 62
7
  6
CONTINUOUS
 70
0
 71
3
 72
13
 73
9
 74
0
 42
0.0000001
 43
0.0000001
 44
0.0000000001
 40
0.0
 40
0.0
 40
0.0
 40
0.0
 40
0.2655463822
 40
0.5239587781
 40
0.6487952478
 40
0.7698899149
 40
0.8869637916
 40
1.0
 40
1.0
 40
1.0
 40
1.0
 10
7.4436136237
 20
3.3953612805
 30
0.0
 10
7.4436136237
 20
3.39467604
 30
0.0
 10
7.4434811661
 20
3.39332039
 30
0.0
 10
7.4429849367
 20
3.3917077537
 30
0.0
 10
7.4424014178
 20
3.3905416879
 30
0.0
 10
7.4418867253
 20
3.3897562349
 30
0.0
 10
7.4412986986
 20
3.3890635705
 30
0.0
 10
7.4408561134
 20
3.3886643387
 30
0.0
 10
7.4406259424
 20
3.3884851633
 30
0.0
  0
SPLINE
  5
4E4
100
AcDbEntity
  8
0
100
AcDbSpline
 62
7
  6
CONTINUOUS
 70
0
 71
3
 72
15
 73
11
 74
0
 42
0.0000001
 43
0.0000001
 44
0.0000000001
 40
0.0
 40
0.0
 40
0.0
 40
0.0
 40
0.1482905737
 40
0.293001698
 40
0.4322790025
 40
0.564439856
 40
0.6880753512
 40
0.8021405177
 40
0.9060783687
 40
1.0
 40
1.0
 40
1.0
 40
1.0
 10
7.4351689587
 20
3.3945768378
 30
0.0
 10
7.4352250994
 20
3.3942287448
 30
0.0
 10
7.4353134959
 20
3.3935370833
 30
0.0
 10
7.4353739666
 20
3.3925102234
 30
0.0
 10
7.4353603076
 20
3.3915198853
 30
0.0
 10
7.4352727488
 20
3.3905834977
 30
0.0
 10
7.4351128476
 20
3.3897173917
 30
0.0
 10
7.4348831644
 20
3.388936385
 30
0.0
 10
7.4345875173
 20
3.3882539885
 30
0.0
 10
7.4343367014
 20
3.3878528333
 30
0.0
 10
7.434200553
 20
3.3876758177
 30
0.0
  0
SPLINE
  5
4E5
100
AcDbEntity
  8
0
100
AcDbSpline
 62
7
  6
CONTINUOUS
 70
0
 71
3
 72
23
 73
19
 74
0
 42
0.0000001
 43
0.0000001
 44
0.0000000001
 40
0.0
 40
0.0
 40
0.0
 40
0.0
 40
0.1260890267
 40
0.2518784033
 40
0.2832673828
 40
0.3146306981
 40
0.3772758128
 40
0.4085592915
 40
0.4398173648
 40
0.502259653
 40
0.564616916
 40
0.5957697399
 40
0.6269071485
 40
0.6891438766
 40
0.7202487473
 40
0.7513457807
 40
0.875684313
 40
1.0
 40
1.0
 40
1.0
 40
1.0
 10
3.700093419
 20
5.8252562549
 30
0.0
 10
3.7045468361
 20
5.825352248
 30
0.0
 10
3.7134447782
 20
5.8254822863
 30
0.0
 10
3.7234536963
 20
5.8253240293
 30
0.0
 10
3.7301080087
 20
5.8250273961
 30
0.0
 10
3.7345309242
 20
5.8247751668
 30
0.0
 10
3.7389449136
 20
5.8244365518
 30
0.0
 10
3.7433462831
 20
5.8240025767
 30
0.0
 10
3.7477335355
 20
5.8235034738
 30
0.0
 10
3.7531966796
 20
5.8227554244
 30
0.0
 10
3.7586299025
 20
5.8218363566
 30
0.0
 10
3.7629538914
 20
5.8210024276
 30
0.0
 10
3.7672605964
 20
5.8201040498
 30
0.0
 10
3.7715454298
 20
5.8191116592
 30
0.0
 10
3.7758076853
 20
5.8180346049
 30
0.0
 10
3.7821761562
 20
5.8163394266
 30
0.0
 10
3.7916509842
 20
5.8135177882
 30
0.0
 10
3.7999880447
 20
5.8107483006
 30
0.0
 10
3.8041458881
 20
5.8093339897
 30
0.0
  0
SPLINE
  5
4E6
100
AcDbEntity
  8
0
100
AcDbSpline
 62
7
  6
CONTINUOUS
 70
0
 71
3
 72
23
 73
19
 74
0
 42
0.0000001
 43
0.0000001
 44
0.0000000001
 40
0.0
 40
0.0
 40
0.0
 40
0.0
 40
0.1268168455
 40
0.1900167206
 40
0.2530467679
 40
0.3158945135
 40
0.3785571242
 40
0.4410427012
 40
0.4722272287
 40
0.5033761345
 40
0.5344932474
 40
0.5655826884
 40
0.6276931918
 40
0.6897471859
 40
0.7517756858
 40
0.8138032206
 40
0.8758464377
 40
1.0
 40
1.0
 40
1.0
 40
1.0
 10
3.7872338103
 20
5.6988130666
 30
0.0
 10
3.7823264447
 20
5.6982373252
 30
0.0
 10
3.774958958
 20
5.697482556
 30
0.0
 10
3.7651195002
 20
5.6968419276
 30
0.0
 10
3.7577559179
 20
5.6965831943
 30
0.0
 10
3.7504083245
 20
5.6965812292
 30
0.0
 10
3.7430872244
 20
5.6968684159
 30
0.0
 10
3.7370147588
 20
5.6973712902
 30
0.0
 10
3.7321844111
 20
5.6979385993
 30
0.0
 10
3.7285787591
 20
5.6984472168
 30
0.0
 10
3.7249895824
 20
5.6990390699
 30
0.0
 10
3.7202299107
 20
5.6999389733
 30
0.0
 10
3.7143264639
 20
5.7012682496
 30
0.0
 10
3.7073241355
 20
5.7031721477
 30
0.0
 10
3.7004079318
 20
5.7053565955
 30
0.0
 10
3.6935754468
 20
5.7077878128
 30
0.0
 10
3.6845674443
 20
5.7113109264
 30
0.0
 10
3.6779153732
 20
5.7142125785
 30
0.0
 10
3.6735120133
 20
5.7162149469
 30
0.0
  0
SPLINE
  5
4E7
100
AcDbEntity
  8
0
100
AcDbSpline
 62
7
  6
CONTINUOUS
 70
0
 71
3
 72
23
 73
19
 74
0
 42
0.0000001
 43
0.0000001
 44
0.0000000001
 40
0.0
 40
0.0
 40
0.0
 40
0.0
 40
0.1243156865
 40
0.2486541607
 40
0.279751188
 40
0.3108560376
 40
0.3730926879
 40
0.4042300883
 40
0.4353829031
 40
0.4977401423
 40
0.5601824466
 40
0.5914405267
 40
0.6227240143
 40
0.6853691676
 40
0.7167324858
 40
0.7481214717
 40
0.8739109653
 40
1.0
 40
1.0
 40
1.0
 40
1.0
 10
3.9518557435
 20
5.7867312056
 30
0.0
 10
3.9562462619
 20
5.786837444
 30
0.0
 10
3.9650300109
 20
5.7869870446
 30
0.0
 10
3.9749150555
 20
5.7868461377
 30
0.0
 10
3.981499032
 20
5.7865593123
 30
0.0
 10
3.9858883294
 20
5.7863125243
 30
0.0
 10
3.9902738571
 20
5.7859782295
 30
0.0
 10
3.9946521399
 20
5.7855476445
 30
0.0
 10
3.999027648
 20
5.7850504168
 30
0.0
 10
4.0044870922
 20
5.7843027069
 30
0.0
 10
4.009923939
 20
5.7833828025
 30
0.0
 10
4.0142596833
 20
5.7825470863
 30
0.0
 10
4.0185894184
 20
5.7816449774
 30
0.0
 10
4.0229026895
 20
5.7806481472
 30
0.0
 10
4.02719864
 20
5.7795661907
 30
0.0
 10
4.0336371523
 20
5.777859296
 30
0.0
 10
4.0432353876
 20
5.7750172102
 30
0.0
 10
4.051687287
 20
5.7722322927
 30
0.0
 10
4.0559082126
 20
5.7708089404
 30
0.0
  0
SPLINE
  5
4E8
100
AcDbEntity
  8
0
100
AcDbSpline
 62
7
  6
CONTINUOUS
 70
0
 71
3
 72
24
 73
20
 74
0
 42
0.0000001
 43
0.0000001
 44
0.0000000001
 40
0.0
 40
0.0
 40
0.0
 40
0.0
 40
0.1241530213
 40
0.1861957583
 40
0.2482227675
 40
0.3102510516
 40
0.3723047365
 40
0.4033525992
 40
0.4344196195
 40
0.496622452
 40
0.5589499291
 40
0.5901726748
 40
0.621437772
 40
0.6841013022
 40
0.7469489052
 40
0.8099774745
 40
0.8731768281
 40
0.9365262272
 40
1.0
 40
1.0
 40
1.0
 40
1.0
 10
4.0486654627
 20
5.6588084022
 30
0.0
 10
4.0438648225
 20
5.6582144758
 30
0.0
 10
4.0366495582
 20
5.6574339079
 30
0.0
 10
4.0270001855
 20
5.6567666868
 30
0.0
 10
4.0197533063
 20
5.6564908443
 30
0.0
 10
4.0125004977
 20
5.6564743097
 30
0.0
 10
4.006458654
 20
5.6567033369
 30
0.0
 10
4.0016328367
 20
5.6570496812
 30
0.0
 10
3.9968104517
 20
5.6575070057
 30
0.0
 10
3.9907960351
 20
5.6582857418
 30
0.0
 10
3.984817738
 20
5.6593409406
 30
0.0
 10
3.9800601947
 20
5.6603501595
 30
0.0
 10
3.9753140493
 20
5.6614702192
 30
0.0
 10
3.9694169973
 20
5.6630702089
 30
0.0
 10
3.9624061923
 20
5.6652687707
 30
0.0
 10
3.9554564589
 20
5.667716105
 30
0.0
 10
3.948565466
 20
5.6703779153
 30
0.0
 10
3.9417270482
 20
5.6732167132
 30
0.0
 10
3.9372013402
 20
5.6752008605
 30
0.0
 10
3.9349436657
 20
5.6762102825
 30
0.0
  0
SPLINE
  5
4E9
100
AcDbEntity
  8
0
100
AcDbSpline
 62
7
  6
CONTINUOUS
 70
0
 71
3
 72
15
 73
11
 74
0
 42
0.0000001
 43
0.0000001
 44
0.0000000001
 40
0.0
 40
0.0
 40
0.0
 40
0.0
 40
0.1482906535
 40
0.2930018633
 40
0.4322792449
 40
0.5644401528
 40
0.6880756654
 40
0.8021407979
 40
0.9060785489
 40
1.0
 40
1.0
 40
1.0
 40
1.0
 10
6.8867754104
 20
3.3945768378
 30
0.0
 10
6.8867192706
 20
3.3942287446
 30
0.0
 10
6.8866308757
 20
3.3935370828
 30
0.0
 10
6.8865704067
 20
3.3925102225
 30
0.0
 10
6.8865840666
 20
3.3915198843
 30
0.0
 10
6.8866716256
 20
3.3905834967
 30
0.0
 10
6.8868315263
 20
3.3897173908
 30
0.0
 10
6.8870612085
 20
3.3889363844
 30
0.0
 10
6.8873568539
 20
3.3882539883
 30
0.0
 10
6.8876076684
 20
3.3878528332
 30
0.0
 10
6.8877438161
 20
3.3876758177
 30
0.0
  0
SPLINE
  5
4EA
100
AcDbEntity
  8
0
100
AcDbSpline
 62
7
  6
CONTINUOUS
 70
0
 71
3
 72
13
 73
9
 74
0
 42
0.0000001
 43
0.0000001
 44
0.0000000001
 40
0.0
 40
0.0
 40
0.0
 40
0.0
 40
0.2655463849
 40
0.5239587835
 40
0.6487952538
 40
0.7698899203
 40
0.8869637952
 40
1.0
 40
1.0
 40
1.0
 40
1.0
 10
6.8783307454
 20
3.3953612805
 30
0.0
 10
6.8783307454
 20
3.39467604
 30
0.0
 10
6.8784632031
 20
3.39332039
 30
0.0
 10
6.8789594326
 20
3.3917077537
 30
0.0
 10
6.8795429514
 20
3.3905416879
 30
0.0
 10
6.8800576439
 20
3.3897562349
 30
0.0
 10
6.8806456705
 20
3.3890635705
 30
0.0
 10
6.8810882557
 20
3.3886643387
 30
0.0
 10
6.8813184267
 20
3.3884851633
 30
0.0
  0
SPLINE
  5
4EB
100
AcDbEntity
  8
0
100
AcDbSpline
 62
7
  6
CONTINUOUS
 70
0
 71
3
 72
15
 73
11
 74
0
 42
0.0000001
 43
0.0000001
 44
0.0000000001
 40
0.0
 40
0.0
 40
0.0
 40
0.0
 40
0.1270960174
 40
0.2539471332
 40
0.3803342008
 40
0.5060556192
 40
0.630956427
 40
0.7549336361
 40
0.8779392276
 40
1.0
 40
1.0
 40
1.0
 40
1.0
 10
6.8128656757
 20
3.3953612804
 30
0.0
 10
6.8128656757
 20
3.3950168256
 30
0.0
 10
6.8129075758
 20
3.394327843
 30
0.0
 10
6.8130951734
 20
3.3933117962
 30
0.0
 10
6.8134043821
 20
3.3923296425
 30
0.0
 10
6.8138301394
 20
3.3913979125
 30
0.0
 10
6.8143653927
 20
3.3905320831
 30
0.0
 10
6.8150013685
 20
3.3897466054
 30
0.0
 10
6.8157273326
 20
3.3890547272
 30
0.0
 10
6.8162657248
 20
3.3886619068
 30
0.0
 10
6.8165453601
 20
3.3884851633
 30
0.0
  0
SPLINE
  5
4EC
100
AcDbEntity
  8
0
100
AcDbSpline
 62
7
  6
CONTINUOUS
 70
0
 71
3
 72
15
 73
11
 74
0
 42
0.0000001
 43
0.0000001
 44
0.0000000001
 40
0.0
 40
0.0
 40
0.0
 40
0.0
 40
0.1243611677
 40
0.248794252
 40
0.3733771396
 40
0.4981653682
 40
0.6232048823
 40
0.7485235529
 40
0.8741238907
 40
1.0
 40
1.0
 40
1.0
 40
1.0
 10
6.8109721846
 20
3.3945768378
 30
0.0
 10
6.8109721846
 20
3.3942262532
 30
0.0
 10
6.8110200391
 20
3.3935239455
 30
0.0
 10
6.811234098
 20
3.3924902019
 30
0.0
 10
6.811586558
 20
3.3914936326
 30
0.0
 10
6.8120711212
 20
3.3905523256
 30
0.0
 10
6.8126790515
 20
3.3896830521
 30
0.0
 10
6.8133995162
 20
3.3889013503
 30
0.0
 10
6.8142193793
 20
3.388221258
 30
0.0
 10
6.8148223832
 20
3.3878437972
 30
0.0
 10
6.8151349616
 20
3.3876758177
 30
0.0
  0
ENDSEC
  0
SECTION
  2
OBJECTS
  0
DICTIONARY
  5
C
100
AcDbDictionary
280
0
281
1
  3
ACAD_GROUP
350
D
  3
ACAD_MLINESTYLE
350
17
  3
ACAD_LAYOUT
350
1A
  3
ACAD_PLOTSETTINGS
350
19
  3
ACAD_PLOTSTYLENAME
350
E
  0
DICTIONARY
  5
D
102
{ACAD_REACTORS
330
C
102
}
100
AcDbDictionary
280
0
281
1
  0
ACDBDICTIONARYWDFLT
  5
E
102
{ACAD_REACTORS
330
C
102
}
100
AcDbDictionary
281
1
  3
Normal
350
F
100
AcDbDictionaryWithDefault
340
F
  0
DICTIONARY
  5
17
102
{ACAD_REACTORS
330
C
102
}
100
AcDbDictionary
280
0
281
1
  3
Standard
350
18
  0
DICTIONARY
  5
19
102
{ACAD_REACTORS
330
C
102
}
100
AcDbDictionary
281
1
  0
DICTIONARY
  5
1A
102
{ACAD_REACTORS
330
C
102
}
100
AcDbDictionary
281
1
  3
Model
350
4ED
  3
Layout1
350
4EE
  0
ACDBPLACEHOLDER
  5
F
102
{ACAD_REACTORS
330
E
102
}
  0
MLINESTYLE
  5
18
102
{ACAD_REACTORS
330
17
102
}
100
AcDbMlineStyle
  2
STANDARD
 70
0
  3

 62
256
 51
90.0
 52
90.0
 71
2
 49
0.5
 62
256
  6
BYLAYER
 49
-0.5
 62
256
  6
BYLAYER
  0
LAYOUT
  5
4ED
102
{ACAD_REACTORS
330
1A
102
}
100
AcDbPlotSettings
  1

  2
none_device
  4
ANSI_A_(11.00_x_8.50_Inches)
  6

 40
0.0
 41
0.0
 42
0.0
 43
0.0
 44
279.4
 45
215.9
 46
0.0
 47
0.0
 48
0.0
 49
0.0
140
0.0
141
0.0
142
1.0
143
1.0
 70
1024
 72
0
 73
0
 74
0
  7

 75
0
147
1.0
148
0.0
149
0.0
100
AcDbLayout
  1
Model
 70
0
 71
0
 10
0.0
 20
0.0
 11
11.0
 21
8.5
 12
0.0
 22
0.0
 32
0.0
 14
0.0
 24
0.0
 34
0.0
 15
0.0
 25
0.0
 35
0.0
146
0.0
 13
0.0
 23
0.0
 33
0.0
 16
1.0
 26
0.0
 36
0.0
 17
0.0
 27
1.0
 37
0.0
 76
0
330
202
345
0
346
0
  0
LAYOUT
  5
4EE
102
{ACAD_REACTORS
330
1A
102
}
100
AcDbPlotSettings
  1

  2
none_device
  4
ANSI_A_(11.00_x_8.50_Inches)
  6

 40
0.0
 41
0.0
 42
0.0
 43
0.0
 44
279.4
 45
215.9
 46
0.0
 47
0.0
 48
0.0
 49
0.0
140
0.0
141
0.0
142
1.0
143
1.0
 70
0
 72
0
 73
0
 74
0
  7

 75
0
147
1.0
148
0.0
149
0.0
100
AcDbLayout
  1
Layout1
 70
0
 71
1
 10
0.0
 20
0.0
 11
11.0
 21
8.5
 12
0.0
 22
0.0
 32
0.0
 14
0.0
 24
0.0
 34
0.0
 15
0.0
 25
0.0
 35
0.0
146
0.0
 13
0.0
 23
0.0
 33
0.0
 16
1.0
 26
0.0
 36
0.0
 17
0.0
 27
1.0
 37
0.0
 76
0
330
203
345
0
346
0
  0
ENDSEC
  0
EOF
