999
DXF file: 3190-5143_TOP.dxf
999
Pro/ENGINEER 2023134 by Parametric Technology Corporation
  0
SECTION
  2
HEADER
  9
$ACADVER
  1
AC1032
  9
$DWGCODEPAGE
  3
ANSI_1252
  9
$EXTMAX
 10
11.0
 20
8.5
 30
0.0
  9
$EXTMIN
 10
0.0
 20
0.0
 30
0.0
  9
$LIMMIN
 10
0.0
 20
0.0
  9
$LIMMAX
 10
11.0
 20
8.5
  9
$VIEWCTR
 10
5.5
 20
4.25
  9
$VIEWSIZE
 40
8.5
  9
$CLAYER
  8
0
  9
$LTSCALE
 40
0.605
  9
$CELTYPE
  6
BYLAYER
  9
$DIMSCALE
 40
1.0
  9
$DIMASZ
 40
0.1
  9
$DIMEXO
 40
0.0625
  9
$DIMDLI
 40
0.418
  9
$DIMEXE
 40
0.125
  9
$DIMCEN
 40
0.099
  9
$DIMLFAC
 40
1.0
  9
$DIMBLK
  1
_FILLED
  9
$DIMALT
 70
1
  9
$DIMALTD
 70
2
  9
$DIMALTTD
 70
2
  9
$DIMALTF
 40
25.4
  9
$DIMTXT
 40
0.08
  9
$DIMTOL
 70
1
  9
$DIMLIM
 70
0
  9
$DIMTFAC
 40
1.0
  9
$DIMTP
 40
0.001
  9
$DIMTM
 40
0.001
  9
$DIMGAP
 40
0.09
  9
$DIMDSEP
 70
46
  9
$AUNITS
 70
0
  9
$PDMODE
 70
3
  9
$PDSIZE
 40
0.3125
  9
$HANDSEED
  5
4E3
  9
$TILEMODE
 70
1
  9
$MEASUREMENT
 70
0
  9
$INSUNITS
 70
1
  0
ENDSEC
  0
SECTION
  2
CLASSES
  0
CLASS
  1
ACDBDICTIONARYWDFLT
  2
AcDbDictionaryWithDefault
  3
AutoCAD 2000
 90
0
 91
1
280
0
281
0
  0
CLASS
  1
ACDBPLACEHOLDER
  2
AcDbPlaceHolder
  3
AutoCAD 2000
 90
0
 91
1
280
0
281
0
  0
CLASS
  1
LAYOUT
  2
AcDbLayout
  3
AutoCAD 2000
 90
0
 91
0
280
0
281
0
  0
ENDSEC
  0
SECTION
  2
TABLES
  0
TABLE
  2
VPORT
  5
8
100
AcDbSymbolTable
 70
2
  0
VPORT
  5
1F4
100
AcDbSymbolTableRecord
100
AcDbViewportTableRecord
  2
*ACTIVE
 70
0
 10
0.0
 20
0.0
 11
1.0
 21
1.0
 12
5.5
 22
4.25
 13
0.0
 23
0.0
 14
1.0
 24
1.0
 15
0.0
 25
0.0
 16
0.0
 26
0.0
 36
1.0
 17
0.0
 27
0.0
 37
0.0
 40
8.5
 41
1.2941176471
 42
50.0
 43
0.0
 44
0.0
 50
0.0
 51
0.0
 71
0
 72
100
 73
1
 74
1
 75
0
 76
0
 77
0
 78
0
  0
ENDTAB
  0
TABLE
  2
LTYPE
  5
5
100
AcDbSymbolTable
 70
6
  0
LTYPE
  5
14
100
AcDbSymbolTableRecord
100
AcDbLinetypeTableRecord
  2
BYBLOCK
 70
0
  3

 72
65
 73
0
 40
0.0
  0
LTYPE
  5
15
100
AcDbSymbolTableRecord
100
AcDbLinetypeTableRecord
  2
BYLAYER
 70
0
  3

 72
65
 73
0
 40
0.0
  0
LTYPE
  5
16
100
AcDbSymbolTableRecord
100
AcDbLinetypeTableRecord
  2
CONTINUOUS
 70
64
  3
Solid line
 72
65
 73
0
 40
0.0
  0
LTYPE
  5
1F5
100
AcDbSymbolTableRecord
100
AcDbLinetypeTableRecord
  2
CENTER
 70
64
  3
____ _ ____ _ ____ _ ____ _ ____ _ ____ _ ____
 72
65
 73
4
 40
0.6
 49
0.375
 74
0
 49
-0.075
 74
0
 49
0.075
 74
0
 49
-0.075
 74
0
  0
LTYPE
  5
1F6
100
AcDbSymbolTableRecord
100
AcDbLinetypeTableRecord
  2
HIDDEN
 70
64
  3
- - - - - - - - - - - - - - - - - - - -
 72
65
 73
2
 40
0.2
 49
0.1
 74
0
 49
-0.1
 74
0
  0
LTYPE
  5
1F7
100
AcDbSymbolTableRecord
100
AcDbLinetypeTableRecord
  2
PHANTOM
 70
64
  3
_____ _ _ _____ _ _ _____ _ _ _____
 72
65
 73
6
 40
0.8
 49
0.45
 74
0
 49
-0.05
 74
0
 49
0.1
 74
0
 49
-0.05
 74
0
 49
0.1
 74
0
 49
-0.05
 74
0
  0
LTYPE
  5
1F8
100
AcDbSymbolTableRecord
100
AcDbLinetypeTableRecord
  2
DOT
 70
64
  3
. . . . . . . . . . . . . . . . . . . .
 72
65
 73
2
 40
0.2
 49
0.1
 74
0
 49
-0.1
 74
0
  0
LTYPE
  5
1F9
100
AcDbSymbolTableRecord
100
AcDbLinetypeTableRecord
  2
DASHED
 70
64
  3
- - - - - - - - - - - - - - - - - - - -
 72
65
 73
2
 40
0.2
 49
0.1
 74
0
 49
-0.1
 74
0
  0
ENDTAB
  0
TABLE
  2
LAYER
  5
2
100
AcDbSymbolTable
 70
36
  0
LAYER
  5
10
100
AcDbSymbolTableRecord
100
AcDbLayerTableRecord
  2
0
 70
0
 62
7
  6
CONTINUOUS
370
-3
390
F
  0
LAYER
  5
1FA
100
AcDbSymbolTableRecord
100
AcDbLayerTableRecord
  2
DEFAULT_1
 70
0
 62
7
  6
CENTER
370
-3
390
F
  0
LAYER
  5
1FB
100
AcDbSymbolTableRecord
100
AcDbLayerTableRecord
  2
DEFAULT_2
 70
0
 62
8
  6
HIDDEN
370
-3
390
F
  0
LAYER
  5
1FC
100
AcDbSymbolTableRecord
100
AcDbLayerTableRecord
  2
DEFAULT_3
 70
0
 62
7
  6
PHANTOM
370
-3
390
F
  0
LAYER
  5
1FD
100
AcDbSymbolTableRecord
100
AcDbLayerTableRecord
  2
DEFAULT_COORDINATE_SYSTEM
 70
0
 62
7
  6
CONTINUOUS
370
-3
390
F
  0
LAYER
  5
1FE
100
AcDbSymbolTableRecord
100
AcDbLayerTableRecord
  2
DEFAULT_DATUM_AXES
 70
0
 62
7
  6
CONTINUOUS
370
-3
390
F
  0
LAYER
  5
1FF
100
AcDbSymbolTableRecord
100
AcDbLayerTableRecord
  2
DEFAULT_DATUM_PLANES
 70
0
 62
7
  6
CONTINUOUS
370
-3
390
F
  0
ENDTAB
  0
TABLE
  2
STYLE
  5
3
100
AcDbSymbolTable
 70
1
  0
STYLE
  5
11
100
AcDbSymbolTableRecord
100
AcDbTextStyleTableRecord
  2
STANDARD
 70
0
 40
0.0
 41
0.8
 50
0.0
 71
0
 42
0.2
  3
txt
  4

  0
STYLE
  5
200
100
AcDbSymbolTableRecord
100
AcDbTextStyleTableRecord
  2
TEXTSTYLE_1
 70
0
 40
0.0
 41
0.8
 50
0.0
 71
0
 42
0.2
  3
gdt
  4

  0
ENDTAB
  0
TABLE
  2
VIEW
  5
6
100
AcDbSymbolTable
 70
0
  0
ENDTAB
  0
TABLE
  2
UCS
  5
7
100
AcDbSymbolTable
 70
0
  0
ENDTAB
  0
TABLE
  2
APPID
  5
9
100
AcDbSymbolTable
 70
1
  0
APPID
  5
201
100
AcDbSymbolTableRecord
100
AcDbRegAppTableRecord
  2
ACAD
 70
0
  0
ENDTAB
  0
TABLE
  2
BLOCK_RECORD
  5
1
100
AcDbSymbolTable
 70
0
  0
BLOCK_RECORD
  5
202
100
AcDbSymbolTableRecord
100
AcDbBlockTableRecord
  2
*Model_Space
  0
BLOCK_RECORD
  5
203
100
AcDbSymbolTableRecord
100
AcDbBlockTableRecord
  2
*Paper_Space
  0
BLOCK_RECORD
  5
204
100
AcDbSymbolTableRecord
100
AcDbBlockTableRecord
  2
_FILLED
  0
ENDTAB
  0
TABLE
  2
DIMSTYLE
  5
A
100
AcDbSymbolTable
 70
1
100
AcDbDimStyleTable
 71
0
  0
DIMSTYLE
105
205
100
AcDbSymbolTableRecord
100
AcDbDimStyleTableRecord
  2
STANDARD
 70
0
  3

  4

 40
1.0
 41
0.1
 42
0.0625
 43
0.38
 44
0.125
 45
0.0
 46
0.0
 47
0.001
 48
0.001
140
0.08
141
0.09
142
0.0
143
25.4
144
1.0
145
0.0
146
1.0
147
0.09
 71
1
 72
0
 73
1
 74
1
 75
0
 76
0
 77
0
 78
4
 79
1
170
1
171
2
172
0
173
0
174
0
175
0
176
0
177
0
178
0
270
2
179
3
271
3
272
3
273
2
274
2
275
0
280
0
281
0
282
0
283
1
284
4
285
0
286
0
287
3
288
0
340
11
278
46
341
204
342
204
343
204
344
204
  0
ENDTAB
  0
ENDSEC
  0
SECTION
  2
BLOCKS
  0
BLOCK
  5
20
100
AcDbEntity
  8
0
100
AcDbBlockBegin
  2
*Model_Space
 70
0
 10
0.0
 20
0.0
 30
0.0
  3
*Model_Space
  1

  0
ENDBLK
  5
21
100
AcDbEntity
  8
0
100
AcDbBlockEnd
  0
BLOCK
  5
1C
100
AcDbEntity
  8
0
100
AcDbBlockBegin
  2
*Paper_Space
 70
0
 10
0.0
 20
0.0
 30
0.0
  3
*Paper_Space
  1

  0
ENDBLK
  5
1D
100
AcDbEntity
  8
0
100
AcDbBlockEnd
  0
BLOCK
  5
206
100
AcDbEntity
  8
0
100
AcDbBlockBegin
  2
_FILLED
 70
64
 10
0.0
 20
0.0
  3
_FILLED
  1

  0
SOLID
  5
207
100
AcDbEntity
  8
0
  6
BYBLOCK
 62
0
100
AcDbTrace
 10
0.0
 20
0.0
 11
-1.0
 21
0.2
 12
-1.0
 22
-0.2
 13
-1.0
 23
-0.2
  0
ENDBLK
  5
208
100
AcDbEntity
  8
0
  6
BYBLOCK
 62
0
100
AcDbBlockEnd
  0
ENDSEC
  0
SECTION
  2
ENTITIES
  0
LINE
  5
209
100
AcDbEntity
  8
0
100
AcDbLine
 62
7
  6
CONTINUOUS
 10
0.0
 20
0.0
 11
0.0
 21
8.5
  0
LINE
  5
20A
100
AcDbEntity
  8
0
100
AcDbLine
 62
7
  6
CONTINUOUS
 10
0.0
 20
0.0
 11
11.0
 21
0.0
  0
LINE
  5
20B
100
AcDbEntity
  8
0
100
AcDbLine
 62
7
  6
CONTINUOUS
 10
0.0
 20
8.5
 11
11.0
 21
8.5
  0
LINE
  5
20C
100
AcDbEntity
  8
0
100
AcDbLine
 62
7
  6
CONTINUOUS
 10
11.0
 20
0.0
 11
11.0
 21
8.5
  0
LWPOLYLINE
  5
20D
100
AcDbEntity
  8
0
100
AcDbPolyline
 62
7
  6
CONTINUOUS
 90
52
 70
0
 10
5.1737401413
 20
2.1401323628
 10
5.175976791
 20
2.1401544734
 10
5.1787012587
 20
2.140225833
 10
5.1814233307
 20
2.1403458456
 10
5.1841418224
 20
2.1405143538
 10
5.1868558481
 20
2.1407312166
 10
5.1895648194
 20
2.1409963353
 10
5.1922677234
 20
2.1413095903
 10
5.1949635227
 20
2.1416708594
 10
5.1976515928
 20
2.1420800861
 10
5.200331016
 20
2.1425371905
 10
5.2030007055
 20
2.1430420254
 10
5.2056598824
 20
2.1435943651
 10
5.2083077556
 20
2.1441939585
 10
5.2109434386
 20
2.1448405344
 10
5.2135660354
 20
2.1455338156
 10
5.2161747105
 20
2.1462735385
 10
5.2187686337
 20
2.1470594415
 10
5.2213469216
 20
2.1478912456
 10
5.223908696
 20
2.1487686697
 10
5.2264531818
 20
2.1496914615
 10
5.2289796539
 20
2.1506593074
 10
5.2314872403
 20
2.1516717791
 10
5.2339751727
 20
2.1527284877
 10
5.236442877
 20
2.153829138
 10
5.2388895283
 20
2.1549733363
 10
5.2413143057
 20
2.1561606914
 10
5.2437166302
 20
2.1573909392
 10
5.2460956797
 20
2.1586637052
 10
5.2484506205
 20
2.1599786094
 10
5.2507808674
 20
2.1613353596
 10
5.2530856608
 20
2.1627334391
 10
5.25536426
 20
2.1641723233
 10
5.2576161454
 20
2.1656516368
 10
5.2598405591
 20
2.167170863
 10
5.262036747
 20
2.1687294876
 10
5.2642041759
 20
2.1703271635
 10
5.2663420962
 20
2.1719634006
 10
5.2684497208
 20
2.1736376811
 10
5.2705264448
 20
2.1753496344
 10
5.2725715909
 20
2.1770987456
 10
5.2745844926
 20
2.17888441
 10
5.276564586
 20
2.1807061109
 10
5.2785112325
 20
2.1825632695
 10
5.2804237873
 20
2.1844553011
 10
5.2823016676
 20
2.1863816858
 10
5.2841442142
 20
2.188341831
 10
5.2859507868
 20
2.1903351641
 10
5.2877208183
 20
2.1923611998
 10
5.2894535894
 20
2.1944192549
 10
5.2911485615
 20
2.1965086607
 10
5.2920701918
 20
2.1976782399
  0
LINE
  5
20E
100
AcDbEntity
  8
0
100
AcDbLine
 62
7
  6
CONTINUOUS
 10
5.1393632813
 20
2.1400676287
 11
5.1737401409
 21
2.1401323628
  0
LINE
  5
20F
100
AcDbEntity
  8
0
100
AcDbLine
 62
7
  6
CONTINUOUS
 10
5.1044498228
 20
2.1400406977
 11
5.1393632813
 21
2.1400676287
  0
LINE
  5
210
100
AcDbEntity
  8
0
100
AcDbLine
 62
7
  6
CONTINUOUS
 10
5.0695368451
 20
2.1400495541
 11
5.1044498228
 21
2.1400406977
  0
LWPOLYLINE
  5
211
100
AcDbEntity
  8
0
100
AcDbPolyline
 62
7
  6
CONTINUOUS
 90
3
 70
0
 10
5.0176683782
 20
2.1401323628
 10
5.034631785
 20
2.1400953203
 10
5.0695368451
 20
2.1400495541
  0
LWPOLYLINE
  5
212
100
AcDbEntity
  8
0
100
AcDbPolyline
 62
7
  6
CONTINUOUS
 90
31
 70
0
 10
5.0376108764
 20
2.2677870907
 10
5.0420866812
 20
2.267554739
 10
5.046454419
 20
2.2673398682
 10
5.0507220429
 20
2.2671424808
 10
5.0549139048
 20
2.2669618178
 10
5.0590297634
 20
2.2667982248
 10
5.0630689744
 20
2.2666518388
 10
5.0670552897
 20
2.266521839
 10
5.0709876552
 20
2.2664083637
 10
5.0748648966
 20
2.2663114931
 10
5.0787109932
 20
2.2662307688
 10
5.0825251274
 20
2.2661664581
 10
5.0863064183
 20
2.2661187066
 10
5.0900785838
 20
2.2660870347
 10
5.093840113
 20
2.2660712903
 10
5.0975897607
 20
2.2660713206
 10
5.1013516034
 20
2.2660871347
 10
5.1051244419
 20
2.2661189041
 10
5.1089067172
 20
2.2661667984
 10
5.1127220498
 20
2.2662312686
 10
5.116569576
 20
2.2663121488
 10
5.1204484693
 20
2.2664091751
 10
5.1243825642
 20
2.2665228055
 10
5.1283706581
 20
2.2666529611
 10
5.1324117002
 20
2.2667995056
 10
5.1365293331
 20
2.2669632604
 10
5.1407228752
 20
2.2671440982
 10
5.1449920684
 20
2.2673416693
 10
5.1493611174
 20
2.2675567194
 10
5.1538379546
 20
2.267789236
 10
5.1625840265
 20
2.2682736577
  0
LINE
  5
213
100
AcDbEntity
  8
0
100
AcDbLine
 62
7
  6
CONTINUOUS
 10
5.028824489
 20
2.2682736579
 11
5.0376108764
 21
2.2677870907
  0
LWPOLYLINE
  5
214
100
AcDbEntity
  8
0
100
AcDbPolyline
 62
7
  6
CONTINUOUS
 90
58
 70
0
 10
5.1625840348
 20
2.2682736582
 10
5.1646902966
 20
2.2684071523
 10
5.1672858691
 20
2.2686065859
 10
5.1698972879
 20
2.2688464169
 10
5.1725237741
 20
2.2691276246
 10
5.1751633836
 20
2.2694510695
 10
5.1778131543
 20
2.2698173239
 10
5.1804719314
 20
2.2702270705
 10
5.1831385127
 20
2.2706809841
 10
5.1858099382
 20
2.2711793982
 10
5.1884850429
 20
2.2717228689
 10
5.1911625977
 20
2.2723118356
 10
5.1938395381
 20
2.2729462673
 10
5.1965146491
 20
2.2736264883
 10
5.1991867358
 20
2.2743528248
 10
5.2018528091
 20
2.2751250106
 10
5.20451173
 20
2.275943131
 10
5.2071623896
 20
2.2768072649
 10
5.209801933
 20
2.2777168701
 10
5.2124290436
 20
2.2786718431
 10
5.2150428171
 20
2.2796722053
 10
5.2176411008
 20
2.2807173647
 10
5.2202227162
 20
2.2818070117
 10
5.2227867882
 20
2.2829409562
 10
5.225331672
 20
2.2841186504
 10
5.2278563517
 20
2.2853397997
 10
5.2303598171
 20
2.2866040971
 10
5.2328405059
 20
2.2879108244
 10
5.2352975324
 20
2.2892595185
 10
5.2377299419
 20
2.2906496719
 10
5.2401361347
 20
2.2920803768
 10
5.2425152355
 20
2.2935511108
 10
5.2448663409
 20
2.2950613282
 10
5.2471878663
 20
2.2966099956
 10
5.249478997
 20
2.2981963967
 10
5.2517389441
 20
2.2998197509
 10
5.2539662483
 20
2.3014787625
 10
5.25616025
 20
2.3031726832
 10
5.2583201145
 20
2.3049006255
 10
5.260444202
 20
2.3066610061
 10
5.2625319847
 20
2.3084530964
 10
5.2645826515
 20
2.3102758789
 10
5.2665943307
 20
2.3121271372
 10
5.2685665644
 20
2.3140058025
 10
5.2704988889
 20
2.3159107956
 10
5.2723896017
 20
2.3178397443
 10
5.2742383355
 20
2.3197915217
 10
5.276044764
 20
2.3217650385
 10
5.2778074149
 20
2.3237578827
 10
5.279525964
 20
2.3257687602
 10
5.2812002634
 20
2.3277962669
 10
5.2828292636
 20
2.3298377584
 10
5.2844127923
 20
2.3318916004
 10
5.285950746
 20
2.3339562478
 10
5.2874423252
 20
2.3360291751
 10
5.2888872781
 20
2.3381085173
 10
5.2902858334
 20
2.3401930913
 10
5.2913699633
 20
2.3418614704
  0
LWPOLYLINE
  5
215
100
AcDbEntity
  8
0
100
AcDbPolyline
 62
7
  6
CONTINUOUS
 90
52
 70
0
 10
4.899338797
 20
2.1976777095
 10
4.9002609969
 20
2.1965074182
 10
4.9019564176
 20
2.1944174937
 10
4.903689707
 20
2.1923588677
 10
4.9054603353
 20
2.1903322177
 10
4.9072675839
 20
2.1883382391
 10
4.909110876
 20
2.186377433
 10
4.9109895776
 20
2.1844503699
 10
4.9129030323
 20
2.182557644
 10
4.9148506395
 20
2.1806997954
 10
4.9168317572
 20
2.1788774078
 10
4.9188457499
 20
2.1770910586
 10
4.9208920339
 20
2.1753412825
 10
4.9229699452
 20
2.1736286759
 10
4.9250787913
 20
2.171953749
 10
4.9272179382
 20
2.1703169044
 10
4.9293866138
 20
2.168718659
 10
4.9315840732
 20
2.1671595094
 10
4.9338097379
 20
2.1656398427
 10
4.9360628597
 20
2.1641601736
 10
4.9383426906
 20
2.1627210175
 10
4.9406486666
 20
2.1613227802
 10
4.9429800322
 20
2.1599659945
 10
4.9453360303
 20
2.1586511261
 10
4.9477160625
 20
2.1573784315
 10
4.9501192739
 20
2.1561483028
 10
4.9525448483
 20
2.1549611121
 10
4.9549922537
 20
2.1538171041
 10
4.9574606644
 20
2.1527166777
 10
4.9599492496
 20
2.1516602346
 10
4.9624574839
 20
2.1506480566
 10
4.9649846038
 20
2.1496805399
 10
4.9675297248
 20
2.1487581236
 10
4.9700921451
 20
2.1478810946
 10
4.9726710894
 20
2.1470497004
 10
4.9752656705
 20
2.1462642237
 10
4.9778750159
 20
2.1455249395
 10
4.9804982906
 20
2.1448321105
 10
4.9831346546
 20
2.1441860015
 10
4.9857832239
 20
2.143586887
 10
4.988443112
 20
2.1430350393
 10
4.9911135186
 20
2.1425307127
 10
4.9937936655
 20
2.1420741371
 10
4.9964824808
 20
2.1416654629
 10
4.9991790472
 20
2.1413047723
 10
5.0018827297
 20
2.1409921247
 10
5.0045924979
 20
2.1407276421
 10
5.0073073454
 20
2.1405114442
 10
5.010026672
 20
2.1403436306
 10
5.0127495925
 20
2.1402243415
 10
5.0154749353
 20
2.1401537328
 10
5.0176683778
 20
2.1401323628
  0
LINE
  5
216
100
AcDbEntity
  8
0
100
AcDbLine
 62
7
  6
CONTINUOUS
 10
4.8941862298
 20
2.2042846574
 11
4.8993382901
 21
2.1976773796
  0
LINE
  5
217
100
AcDbEntity
  8
0
100
AcDbLine
 62
7
  6
CONTINUOUS
 10
5.0123418042
 20
2.1470056887
 11
5.0176883315
 21
2.1401490129
  0
LINE
  5
218
100
AcDbEntity
  8
0
100
AcDbLine
 62
7
  6
CONTINUOUS
 10
4.8933211548
 20
2.2054048034
 11
4.8941862295
 21
2.2042846577
  0
LINE
  5
219
100
AcDbEntity
  8
0
100
AcDbLine
 62
7
  6
CONTINUOUS
 10
4.7965180893
 20
6.1478351655
 11
4.6706187485
 21
5.9295979407
  0
LINE
  5
21A
100
AcDbEntity
  8
0
100
AcDbLine
 62
7
  6
CONTINUOUS
 10
4.8498666525
 20
6.1040000051
 11
4.735324084
 21
5.9056064569
  0
LWPOLYLINE
  5
21B
100
AcDbEntity
  8
0
100
AcDbPolyline
 62
7
  6
CONTINUOUS
 90
58
 70
0
 10
4.9000385513
 20
2.3418614774
 10
4.9011464193
 20
2.3401569171
 10
4.9025464486
 20
2.3380709934
 10
4.9039928334
 20
2.335990394
 10
4.905485929
 20
2.3339163101
 10
4.9070254647
 20
2.3318508159
 10
4.9086104766
 20
2.3297966676
 10
4.9102409162
 20
2.3277551985
 10
4.9119167009
 20
2.3257277801
 10
4.9136366563
 20
2.3237170393
 10
4.9154006184
 20
2.3217242793
 10
4.917208312
 20
2.3197507791
 10
4.9190582223
 20
2.3177990605
 10
4.92094997
 20
2.3158703327
 10
4.9228831858
 20
2.3139657907
 10
4.9248561956
 20
2.3120878133
 10
4.9268684746
 20
2.3102374368
 10
4.9289194999
 20
2.3084156552
 10
4.9310074227
 20
2.3066245773
 10
4.9331314779
 20
2.3048652729
 10
4.9352911773
 20
2.3031385691
 10
4.9374849405
 20
2.301446041
 10
4.939711903
 20
2.2997885411
 10
4.9419714321
 20
2.2981667354
 10
4.9442621923
 20
2.2965817737
 10
4.9465833965
 20
2.295034384
 10
4.9489342517
 20
2.2935252916
 10
4.951313342
 20
2.2920555308
 10
4.9537198146
 20
2.2906256324
 10
4.9561527527
 20
2.2892361478
 10
4.9586105599
 20
2.2878879852
 10
4.9610923327
 20
2.2865816282
 10
4.9635971369
 20
2.2853175708
 10
4.9661232848
 20
2.2840966555
 10
4.9686697948
 20
2.2829192609
 10
4.9712356161
 20
2.2817856602
 10
4.9738189069
 20
2.2806964336
 10
4.9764187104
 20
2.2796517469
 10
4.9790338384
 20
2.2786518555
 10
4.9816620663
 20
2.2776973666
 10
4.9843025184
 20
2.2767883428
 10
4.9869539034
 20
2.2759249799
 10
4.989613309
 20
2.2751078181
 10
4.9922796167
 20
2.274336672
 10
4.9949516747
 20
2.2736113602
 10
4.9976264687
 20
2.2729321519
 10
5.0003028593
 20
2.2722987543
 10
5.0029797444
 20
2.2717108617
 10
5.0056541531
 20
2.2711685288
 10
5.0083248297
 20
2.2706713616
 10
5.0109905951
 20
2.2702187624
 10
5.0136485485
 20
2.2698102744
 10
5.0162972283
 20
2.2694451611
 10
5.0189352646
 20
2.2691226748
 10
5.0215599366
 20
2.2688422049
 10
5.0241694653
 20
2.2686029804
 10
5.0267630073
 20
2.2684041403
 10
5.0288244812
 20
2.2682736584
  0
LINE
  5
21C
100
AcDbEntity
  8
0
100
AcDbLine
 62
7
  6
CONTINUOUS
 10
4.8955228539
 20
2.3489339233
 11
4.9000385499
 21
2.3418614796
  0
LINE
  5
21D
100
AcDbEntity
  8
0
100
AcDbLine
 62
7
  6
CONTINUOUS
 10
4.8909699928
 20
2.3561202405
 11
4.8955228539
 21
2.3489339233
  0
LINE
  5
21E
100
AcDbEntity
  8
0
100
AcDbLine
 62
7
  6
CONTINUOUS
 10
4.8866309065
 20
2.3630344877
 11
4.8909699928
 21
2.3561202405
  0
LINE
  5
21F
100
AcDbEntity
  8
0
100
AcDbLine
 62
7
  6
CONTINUOUS
 10
4.8824655656
 20
2.3697434425
 11
4.8866309065
 21
2.3630344877
  0
LINE
  5
220
100
AcDbEntity
  8
0
100
AcDbLine
 62
7
  6
CONTINUOUS
 10
4.8784396418
 20
2.3763039592
 11
4.8824655656
 21
2.3697434425
  0
LWPOLYLINE
  5
221
100
AcDbEntity
  8
0
100
AcDbPolyline
 62
7
  6
CONTINUOUS
 90
8
 70
0
 10
4.8834657905
 20
2.2199580994
 10
4.8845505677
 20
2.2181669832
 10
4.8859446971
 20
2.2159432006
 10
4.8873763729
 20
2.2137442716
 10
4.8888450474
 20
2.2115710307
 10
4.8903502166
 20
2.209424246
 10
4.8918914257
 20
2.2073046222
 10
4.8933212779
 20
2.2054046298
  0
LWPOLYLINE
  5
222
100
AcDbEntity
  8
0
100
AcDbPolyline
 62
7
  6
CONTINUOUS
 90
4
 70
0
 10
4.8707074347
 20
2.3891474951
 10
4.8726088538
 20
2.3859571338
 10
4.8745316876
 20
2.3827525412
 10
4.8784396418
 20
2.3763039592
  0
LINE
  5
223
100
AcDbEntity
  8
0
100
AcDbLine
 62
7
  6
CONTINUOUS
 10
4.8669334949
 20
2.3955435441
 11
4.8707074347
 21
2.3891474951
  0
LINE
  5
224
100
AcDbEntity
  8
0
100
AcDbLine
 62
7
  6
CONTINUOUS
 10
4.8772187955
 20
2.2305921891
 11
4.8834657906
 21
2.2199580993
  0
LINE
  5
225
100
AcDbEntity
  8
0
100
AcDbLine
 62
7
  6
CONTINUOUS
 10
4.8688120772
 20
2.2449204306
 11
4.8772187955
 21
2.2305921891
  0
LINE
  5
226
100
AcDbEntity
  8
0
100
AcDbLine
 62
7
  6
CONTINUOUS
 10
4.8486747991
 20
2.2793000176
 11
4.8688120772
 21
2.2449204306
  0
LINE
  5
227
100
AcDbEntity
  8
0
100
AcDbLine
 62
7
  6
CONTINUOUS
 10
4.81539788
 20
2.3363540187
 11
4.8486747991
 21
2.2793000176
  0
LINE
  5
228
100
AcDbEntity
  8
0
100
AcDbLine
 62
7
  6
CONTINUOUS
 10
4.8102591223
 20
2.3451903162
 11
4.81539788
 21
2.3363540187
  0
LINE
  5
229
100
AcDbEntity
  8
0
100
AcDbLine
 62
7
  6
CONTINUOUS
 10
4.8021334098
 20
2.3591728727
 11
4.8102591223
 21
2.3451903162
  0
LINE
  5
22A
100
AcDbEntity
  8
0
100
AcDbLine
 62
7
  6
CONTINUOUS
 10
4.7990595624
 20
2.3644719063
 11
4.8021334098
 21
2.3591728727
  0
LINE
  5
22B
100
AcDbEntity
  8
0
100
AcDbLine
 62
7
  6
CONTINUOUS
 10
5.3344799218
 20
6.1124446701
 11
5.3319559268
 21
6.1094569889
  0
LINE
  5
22C
100
AcDbEntity
  8
0
100
AcDbLine
 62
7
  6
CONTINUOUS
 10
4.8569285973
 20
5.5471617918
 11
4.8594525923
 21
5.5501494731
  0
LINE
  5
22D
100
AcDbEntity
  8
0
100
AcDbLine
 62
7
  6
CONTINUOUS
 10
4.8054795036
 20
5.5068924133
 11
4.8028456165
 21
5.5039618891
  0
LINE
  5
22E
100
AcDbEntity
  8
0
100
AcDbLine
 62
7
  6
CONTINUOUS
 10
5.3859290154
 20
6.1527140487
 11
5.3885629026
 21
6.1556445729
  0
LWPOLYLINE
  5
22F
100
AcDbEntity
  8
0
100
AcDbPolyline
 62
7
  6
CONTINUOUS
 90
4
 70
0
 10
4.8594429903
 20
2.4084954223
 10
4.8613162403
 20
2.4052236952
 10
4.8631896123
 20
2.4019737425
 10
4.8669334949
 20
2.3955435441
  0
LINE
  5
230
100
AcDbEntity
  8
0
100
AcDbLine
 62
7
  6
CONTINUOUS
 10
4.8556630803
 20
2.4151640331
 11
4.8594429903
 21
2.4084954223
  0
LINE
  5
231
100
AcDbEntity
  8
0
100
AcDbLine
 62
7
  6
CONTINUOUS
 10
4.8518288063
 20
2.4220152217
 11
4.8556630803
 21
2.4151640331
  0
LINE
  5
232
100
AcDbEntity
  8
0
100
AcDbLine
 62
7
  6
CONTINUOUS
 10
4.8479076453
 20
2.4291052715
 11
4.8518288063
 21
2.4220152217
  0
LINE
  5
233
100
AcDbEntity
  8
0
100
AcDbLine
 62
7
  6
CONTINUOUS
 10
4.8438672372
 20
2.4364917585
 11
4.8479076453
 21
2.4291052715
  0
LINE
  5
234
100
AcDbEntity
  8
0
100
AcDbLine
 62
7
  6
CONTINUOUS
 10
4.839686174
 20
2.4442116883
 11
4.8438672372
 21
2.4364917585
  0
LINE
  5
235
100
AcDbEntity
  8
0
100
AcDbLine
 62
7
  6
CONTINUOUS
 10
4.8334516439
 20
2.4560648568
 11
4.8333888735
 21
2.4561821817
  0
LWPOLYLINE
  5
236
100
AcDbEntity
  8
0
100
AcDbPolyline
 62
7
  6
CONTINUOUS
 90
3
 70
0
 10
4.8332950422
 20
2.4561328974
 10
4.8353210225
 20
2.4523405041
 10
4.839686174
 20
2.4442116883
  0
LINE
  5
237
100
AcDbEntity
  8
0
100
AcDbLine
 62
7
  6
CONTINUOUS
 10
4.8334516439
 20
2.4560648568
 11
4.8333896486
 21
2.4561826779
  0
LINE
  5
238
100
AcDbEntity
  8
0
100
AcDbLine
 62
7
  6
CONTINUOUS
 10
5.3466617339
 20
2.4729769345
 11
5.3579568752
 21
2.4560648568
  0
LINE
  5
239
100
AcDbEntity
  8
0
100
AcDbLine
 62
7
  6
CONTINUOUS
 10
5.3466617339
 20
2.6206867899
 11
5.3579568752
 21
2.6037747121
  0
LINE
  5
23A
100
AcDbEntity
  8
0
100
AcDbLine
 62
7
  6
CONTINUOUS
 10
5.2299741779
 20
6.2426874692
 11
5.2311927225
 21
6.2464345324
  0
LINE
  5
23B
100
AcDbEntity
  8
0
100
AcDbLine
 62
7
  6
CONTINUOUS
 10
5.2210910949
 20
6.1779097399
 11
5.2197656845
 21
6.1742300555
  0
LINE
  5
23C
100
AcDbEntity
  8
0
100
AcDbLine
 62
7
  6
CONTINUOUS
 10
5.3579741231
 20
2.6037460646
 11
5.3579568752
 21
2.6037747121
  0
LWPOLYLINE
  5
23D
100
AcDbEntity
  8
0
100
AcDbPolyline
 62
7
  6
CONTINUOUS
 90
3
 70
0
 10
5.3537640946
 20
2.6109982756
 10
5.351614446
 20
2.6146998147
 10
5.3236022849
 20
2.6627939847
  0
LINE
  5
23E
100
AcDbEntity
  8
0
100
AcDbLine
 62
7
  6
CONTINUOUS
 10
5.3579741281
 20
2.603746056
 11
5.3537640946
 21
2.6109982756
  0
LINE
  5
23F
100
AcDbEntity
  8
0
100
AcDbLine
 62
7
  6
CONTINUOUS
 10
5.3579568752
 20
2.6037747121
 11
5.3579736239
 21
2.603745854
  0
LINE
  5
240
100
AcDbEntity
  8
0
100
AcDbLine
 62
7
  6
CONTINUOUS
 10
5.3579568752
 20
2.6037747121
 11
5.3589122615
 21
2.6021036487
  0
LINE
  5
241
100
AcDbEntity
  8
0
100
AcDbLine
 62
7
  6
CONTINUOUS
 10
5.3812360853
 20
2.5310728169
 11
5.3770261136
 21
2.5387509187
  0
LINE
  5
242
100
AcDbEntity
  8
0
100
AcDbLine
 62
7
  6
CONTINUOUS
 10
5.3866135107
 20
2.5211888511
 11
5.3812360853
 21
2.5310728169
  0
LINE
  5
243
100
AcDbEntity
  8
0
100
AcDbLine
 62
7
  6
CONTINUOUS
 10
5.3919794779
 20
2.5112585294
 11
5.3866135107
 21
2.5211888511
  0
LINE
  5
244
100
AcDbEntity
  8
0
100
AcDbLine
 62
7
  6
CONTINUOUS
 10
5.3924685868
 20
2.5103440328
 11
5.3919794782
 21
2.5112585287
  0
LINE
  5
245
100
AcDbEntity
  8
0
100
AcDbLine
 62
7
  6
CONTINUOUS
 10
4.8142226974
 20
2.5310012626
 11
4.8142216427
 21
2.5311225291
  0
LINE
  5
246
100
AcDbEntity
  8
0
100
AcDbLine
 62
7
  6
CONTINUOUS
 10
5.3907024451
 20
5.5128230307
 11
5.3907907627
 21
5.5129784119
  0
LINE
  5
247
100
AcDbEntity
  8
0
100
AcDbLine
 62
7
  6
CONTINUOUS
 10
5.3948904298
 20
5.5117712965
 11
5.3956110728
 21
5.5130204781
  0
LINE
  5
248
100
AcDbEntity
  8
0
100
AcDbLine
 62
7
  6
CONTINUOUS
 10
5.4560844351
 20
5.7540000051
 11
5.3415418666
 21
5.5556064569
  0
LINE
  5
249
100
AcDbEntity
  8
0
100
AcDbLine
 62
7
  6
CONTINUOUS
 10
5.3624568825
 20
2.5953644664
 11
5.362519311
 21
2.5952372888
  0
LINE
  5
24A
100
AcDbEntity
  8
0
100
AcDbLine
 62
7
  6
CONTINUOUS
 10
5.156478253
 20
2.2950695377
 11
5.1621258237
 21
2.2684881321
  0
LINE
  5
24B
100
AcDbEntity
  8
0
100
AcDbLine
 62
7
  6
CONTINUOUS
 10
4.8678412736
 20
2.5591271219
 11
4.8678403065
 21
2.5591825211
  0
LINE
  5
24C
100
AcDbEntity
  8
0
100
AcDbLine
 62
7
  6
CONTINUOUS
 10
4.8678413791
 20
2.5591271237
 11
4.8678408907
 21
2.559182531
  0
LWPOLYLINE
  5
24D
100
AcDbEntity
  8
0
100
AcDbPolyline
 62
7
  6
CONTINUOUS
 90
31
 70
0
 10
4.8141811298
 20
2.5310009011
 10
4.8141967587
 20
2.5288271069
 10
4.8142582633
 20
2.5261685722
 10
4.8143663529
 20
2.5235092679
 10
4.8145209767
 20
2.5208500003
 10
4.8147220568
 20
2.5181920264
 10
4.8149694227
 20
2.5155369864
 10
4.8152628953
 20
2.5128856347
 10
4.8156022681
 20
2.5102388895
 10
4.8159871929
 20
2.5075985139
 10
4.8164173928
 20
2.5049653542
 10
4.8168925436
 20
2.5023402491
 10
4.8174121249
 20
2.499724932
 10
4.8179757634
 20
2.49712018
 10
4.8185830265
 20
2.4945268877
 10
4.8192331709
 20
2.4919469275
 10
4.8199257358
 20
2.4893808523
 10
4.8206601255
 20
2.4868296781
 10
4.8214352004
 20
2.4842959219
 10
4.8222502815
 20
2.4817802716
 10
4.8231046527
 20
2.4792835023
 10
4.823996878
 20
2.4768081847
 10
4.8249260944
 20
2.474354986
 10
4.8258914352
 20
2.4719245507
 10
4.8268912096
 20
2.4695193311
 10
4.8279243859
 20
2.4671399387
 10
4.8289899383
 20
2.4647869173
 10
4.8300859787
 20
2.4624624976
 10
4.8312110761
 20
2.4601677107
 10
4.8323642591
 20
2.4579025179
 10
4.833295042
 20
2.4561328977
  0
LINE
  5
24E
100
AcDbEntity
  8
0
100
AcDbLine
 62
7
  6
CONTINUOUS
 10
4.8142216916
 20
2.5310013152
 11
4.8142216427
 21
2.5311225291
  0
LINE
  5
24F
100
AcDbEntity
  8
0
100
AcDbLine
 62
7
  6
CONTINUOUS
 10
4.8677042595
 20
2.5558843775
 11
4.8677042595
 21
2.5591813266
  0
LINE
  5
250
100
AcDbEntity
  8
0
100
AcDbLine
 62
7
  6
CONTINUOUS
 10
4.8678062402
 20
5.8298559365
 11
4.8678062342
 21
2.563114108
  0
LINE
  5
251
100
AcDbEntity
  8
0
100
AcDbLine
 62
7
  6
CONTINUOUS
 10
4.814196293
 20
2.5331405477
 11
4.8141811298
 21
2.5310009013
  0
LINE
  5
252
100
AcDbEntity
  8
0
100
AcDbLine
 62
7
  6
CONTINUOUS
 10
4.8678066935
 20
5.829855944
 11
4.8678062342
 21
5.829803231
  0
LINE
  5
253
100
AcDbEntity
  8
0
100
AcDbLine
 62
7
  6
CONTINUOUS
 10
4.8677378315
 20
2.563051583
 11
4.8677389557
 21
2.5631158537
  0
LINE
  5
254
100
AcDbEntity
  8
0
100
AcDbLine
 62
7
  6
CONTINUOUS
 10
4.8677378245
 20
2.5630515834
 11
4.8677394967
 21
2.5631158447
  0
LINE
  5
255
100
AcDbEntity
  8
0
100
AcDbLine
 62
7
  6
CONTINUOUS
 10
5.2858877404
 20
2.3689244654
 11
5.291535311
 21
2.3423430598
  0
LINE
  5
256
100
AcDbEntity
  8
0
100
AcDbLine
 62
7
  6
CONTINUOUS
 10
5.3236690223
 20
2.5631158446
 11
5.3236706947
 21
2.5630515773
  0
LINE
  5
257
100
AcDbEntity
  8
0
100
AcDbLine
 62
7
  6
CONTINUOUS
 10
5.3236695634
 20
2.5631158537
 11
5.3236706877
 21
2.5630515769
  0
LINE
  5
258
100
AcDbEntity
  8
0
100
AcDbLine
 62
7
  6
CONTINUOUS
 10
5.3236022849
 20
5.829803231
 11
5.3236015883
 21
5.8298831739
  0
LWPOLYLINE
  5
259
100
AcDbEntity
  8
0
100
AcDbPolyline
 62
7
  6
CONTINUOUS
 90
30
 70
0
 10
5.3772273893
 20
2.5310009014
 10
5.3772116022
 20
2.5331840006
 10
5.3771495602
 20
2.5358467108
 10
5.3770405658
 20
2.5385049613
 10
5.3768846809
 20
2.5411579192
 10
5.3766819947
 20
2.5438043058
 10
5.37643269
 20
2.5464424575
 10
5.3761369567
 20
2.549071576
 10
5.3757950122
 20
2.5516906926
 10
5.3754072175
 20
2.5542979994
 10
5.3749738604
 20
2.556892604
 10
5.3744952754
 20
2.559473598
 10
5.3739719968
 20
2.5620391771
 10
5.3734044088
 20
2.5645884921
 10
5.3727929512
 20
2.5671205877
 10
5.3721383741
 20
2.5696335396
 10
5.3714411521
 20
2.5721266739
 10
5.3707018768
 20
2.5745989333
 10
5.3699216599
 20
2.5770478656
 10
5.3691011791
 20
2.579472675
 10
5.3682411412
 20
2.5818725058
 10
5.3673429281
 20
2.5842448891
 10
5.366407385
 20
2.586589055
 10
5.3654353628
 20
2.5889042497
 10
5.3644284855
 20
2.5911881111
 10
5.3633877568
 20
2.5934399185
 10
5.3623141758
 20
2.5956590073
 10
5.361209552
 20
2.5978432244
 10
5.3600752641
 20
2.5999914903
 10
5.3589122615
 20
2.6021036487
  0
LINE
  5
25A
100
AcDbEntity
  8
0
100
AcDbLine
 62
7
  6
CONTINUOUS
 10
5.3236022849
 20
2.563114108
 11
5.3236022711
 21
5.8298831798
  0
LINE
  5
25B
100
AcDbEntity
  8
0
100
AcDbLine
 62
7
  6
CONTINUOUS
 10
5.3237042595
 20
2.5591813266
 11
5.3237042595
 21
2.5558843775
  0
LINE
  5
25C
100
AcDbEntity
  8
0
100
AcDbLine
 62
7
  6
CONTINUOUS
 10
5.3236022849
 20
5.829803231
 11
5.3236022814
 21
5.8298435276
  0
LINE
  5
25D
100
AcDbEntity
  8
0
100
AcDbLine
 62
7
  6
CONTINUOUS
 10
5.3771868763
 20
2.5311225291
 11
5.3771868275
 21
2.5310013152
  0
LINE
  5
25E
100
AcDbEntity
  8
0
100
AcDbLine
 62
7
  6
CONTINUOUS
 10
5.3771868763
 20
2.5311225291
 11
5.3771858216
 21
2.5310012626
  0
LINE
  5
25F
100
AcDbEntity
  8
0
100
AcDbLine
 62
7
  6
CONTINUOUS
 10
5.3235676284
 20
2.559182531
 11
5.32356714
 21
2.5591271237
  0
LINE
  5
260
100
AcDbEntity
  8
0
100
AcDbLine
 62
7
  6
CONTINUOUS
 10
5.3235682126
 20
2.5591825211
 11
5.3235672455
 21
2.5591271219
  0
LINE
  5
261
100
AcDbEntity
  8
0
100
AcDbLine
 62
7
  6
CONTINUOUS
 10
4.9055207787
 20
2.3689244654
 11
4.8998732081
 21
2.3423430598
  0
LINE
  5
262
100
AcDbEntity
  8
0
100
AcDbLine
 62
7
  6
CONTINUOUS
 10
5.034930266
 20
2.2950695377
 11
5.0292826954
 21
2.2684881321
  0
LINE
  5
263
100
AcDbEntity
  8
0
100
AcDbLine
 62
7
  6
CONTINUOUS
 10
5.6575039986
 20
5.8297807849
 11
5.6575119203
 21
5.4947807849
  0
LINE
  5
264
100
AcDbEntity
  8
0
100
AcDbLine
 62
7
  6
CONTINUOUS
 10
5.670696115
 20
6.1037846525
 11
5.6706983639
 21
6.1720309912
  0
LINE
  5
265
100
AcDbEntity
  8
0
100
AcDbLine
 62
7
  6
CONTINUOUS
 10
5.6706946567
 20
5.7615344849
 11
5.6706942568
 21
5.8980271622
  0
LINE
  5
266
100
AcDbEntity
  8
0
100
AcDbLine
 62
7
  6
CONTINUOUS
 10
5.6707003694
 20
5.487530656
 11
5.6706977206
 21
5.5557769946
  0
LINE
  5
267
100
AcDbEntity
  8
0
100
AcDbLine
 62
7
  6
CONTINUOUS
 10
5.6776509585
 20
6.1068452499
 11
5.6776532326
 21
6.1758538887
  0
LINE
  5
268
100
AcDbEntity
  8
0
100
AcDbLine
 62
7
  6
CONTINUOUS
 10
5.6776490796
 20
5.8987894828
 11
5.677649484
 21
5.7607722051
  0
LINE
  5
269
100
AcDbEntity
  8
0
100
AcDbLine
 62
7
  6
CONTINUOUS
 10
5.6776552605
 20
5.4837077992
 11
5.6776525821
 21
5.552716438
  0
LINE
  5
26A
100
AcDbEntity
  8
0
100
AcDbLine
 62
7
  6
CONTINUOUS
 10
5.6575039986
 20
5.8297807849
 11
5.6575099572
 21
6.1647807849
  0
LWPOLYLINE
  5
26B
100
AcDbEntity
  8
0
100
AcDbPolyline
 62
7
  6
CONTINUOUS
 90
58
 70
0
 10
4.7989399321
 20
2.5103440323
 10
4.7979112673
 20
2.5083736359
 10
4.7966754256
 20
2.5059151755
 10
4.7954819408
 20
2.5034371144
 10
4.7943313355
 20
2.500940689
 10
4.7932239379
 20
2.4984267227
 10
4.7921599166
 20
2.495895611
 10
4.7911397122
 20
2.4933483218
 10
4.7901637881
 20
2.4907858786
 10
4.7892324017
 20
2.488208728
 10
4.7883459303
 20
2.4856177227
 10
4.7875046668
 20
2.483013892
 10
4.7867087718
 20
2.4803979266
 10
4.7859584785
 20
2.4777707177
 10
4.7852540289
 20
2.4751331846
 10
4.7845956171
 20
2.4724860507
 10
4.7839834903
 20
2.4698302201
 10
4.7834178916
 20
2.4671665779
 10
4.7828990244
 20
2.4644958129
 10
4.782427068
 20
2.4618189026
 10
4.7820021117
 20
2.4591367865
 10
4.7816242068
 20
2.4564501165
 10
4.7812934655
 20
2.4537598708
 10
4.7810099997
 20
2.4510670216
 10
4.7807738953
 20
2.4483722062
 10
4.7805852823
 20
2.4456763898
 10
4.780444292
 20
2.4429805484
 10
4.7803510074
 20
2.4402853296
 10
4.7803054164
 20
2.4375916571
 10
4.7803074853
 20
2.4349005047
 10
4.7803571866
 20
2.4322125821
 10
4.7804544991
 20
2.4295288339
 10
4.780599402
 20
2.4268502136
 10
4.780791893
 20
2.424177448
 10
4.7810319625
 20
2.4215114912
 10
4.7813195382
 20
2.4188532915
 10
4.7816544877
 20
2.4162035689
 10
4.7820366514
 20
2.4135632828
 10
4.7824658723
 20
2.4109333731
 10
4.7829420407
 20
2.4083145394
 10
4.7834650207
 20
2.4057076973
 10
4.7840346601
 20
2.4031138489
 10
4.7846508275
 20
2.4005338193
 10
4.7853132825
 20
2.3979684952
 10
4.7860217552
 20
2.3954187573
 10
4.7867760089
 20
2.3928853775
 10
4.7875757797
 20
2.3903692364
 10
4.788420802
 20
2.387871221
 10
4.789310846
 20
2.3853921213
 10
4.7902456072
 20
2.3829329386
 10
4.7912247833
 20
2.3804944783
 10
4.7922480682
 20
2.3780772808
 10
4.793314959
 20
2.3756823669
 10
4.7944249931
 20
2.3733106632
 10
4.7955779571
 20
2.3709626083
 10
4.7967734861
 20
2.3686390254
 10
4.7980110304
 20
2.3663411045
 10
4.7990595561
 20
2.3644719173
  0
LINE
  5
26C
100
AcDbEntity
  8
0
100
AcDbLine
 62
7
  6
CONTINUOUS
 10
4.8020387549
 20
2.5160954568
 11
4.7989399323
 21
2.5103440328
  0
LWPOLYLINE
  5
26D
100
AcDbEntity
  8
0
100
AcDbPolyline
 62
7
  6
CONTINUOUS
 90
3
 70
0
 10
4.8101966248
 20
2.5311171081
 10
4.8075377352
 20
2.5262396091
 10
4.8020387549
 20
2.5160954568
  0
LINE
  5
26E
100
AcDbEntity
  8
0
100
AcDbLine
 62
7
  6
CONTINUOUS
 10
4.735324084
 20
5.7540000051
 11
4.8498666525
 21
5.5556064569
  0
LINE
  5
26F
100
AcDbEntity
  8
0
100
AcDbLine
 62
7
  6
CONTINUOUS
 10
4.6706187485
 20
5.7300085213
 11
4.7965180893
 21
5.5117712965
  0
LINE
  5
270
100
AcDbEntity
  8
0
100
AcDbLine
 62
7
  6
CONTINUOUS
 10
4.9703174242
 20
6.1779097399
 11
4.9716428346
 21
6.1742300555
  0
LINE
  5
271
100
AcDbEntity
  8
0
100
AcDbLine
 62
7
  6
CONTINUOUS
 10
4.9614343412
 20
6.2426874692
 11
4.9602157966
 21
6.2464345324
  0
LINE
  5
272
100
AcDbEntity
  8
0
100
AcDbLine
 62
7
  6
CONTINUOUS
 10
5.7667172609
 20
6.1758541497
 11
5.7667149869
 21
6.1068455108
  0
LINE
  5
273
100
AcDbEntity
  8
0
100
AcDbLine
 62
7
  6
CONTINUOUS
 10
5.7667135123
 20
5.760772466
 11
5.7667131079
 21
5.8987897437
  0
LINE
  5
274
100
AcDbEntity
  8
0
100
AcDbLine
 62
7
  6
CONTINUOUS
 10
5.7667166104
 20
5.552716699
 11
5.7667192888
 21
5.4837080601
  0
LINE
  5
275
100
AcDbEntity
  8
0
100
AcDbLine
 62
7
  6
CONTINUOUS
 10
5.7736722069
 20
6.1720312929
 11
5.773669958
 21
6.1037849542
  0
LINE
  5
276
100
AcDbEntity
  8
0
100
AcDbLine
 62
7
  6
CONTINUOUS
 10
5.7736684997
 20
5.7615347866
 11
5.7736680998
 21
5.8980274639
  0
LINE
  5
277
100
AcDbEntity
  8
0
100
AcDbLine
 62
7
  6
CONTINUOUS
 10
5.7736715636
 20
5.5557772963
 11
5.7736742124
 21
5.4875309577
  0
LINE
  5
278
100
AcDbEntity
  8
0
100
AcDbLine
 62
7
  6
CONTINUOUS
 10
5.7823046291
 20
6.0389786148
 11
5.7823090296
 21
6.172519103
  0
LINE
  5
279
100
AcDbEntity
  8
0
100
AcDbLine
 62
7
  6
CONTINUOUS
 10
5.7823039459
 20
5.9633216388
 11
5.7823047284
 21
5.6962406623
  0
LINE
  5
27A
100
AcDbEntity
  8
0
100
AcDbLine
 62
7
  6
CONTINUOUS
 10
5.782305855
 20
5.6205836864
 11
5.782311038
 21
5.4870431981
  0
LINE
  5
27B
100
AcDbEntity
  8
0
100
AcDbLine
 62
7
  6
CONTINUOUS
 10
5.8348573355
 20
5.8297813045
 11
5.8348627019
 21
6.1314881581
  0
LINE
  5
27C
100
AcDbEntity
  8
0
100
AcDbLine
 62
7
  6
CONTINUOUS
 10
5.8348573355
 20
5.8297813045
 11
5.8348644698
 21
5.528074451
  0
LINE
  5
27D
100
AcDbEntity
  8
0
100
AcDbLine
 62
7
  6
CONTINUOUS
 10
6.0454744094
 20
5.964992974
 11
6.0455351965
 21
5.965517511
  0
LINE
  5
27E
100
AcDbEntity
  8
0
100
AcDbLine
 62
7
  6
CONTINUOUS
 10
6.0455351965
 20
5.965517511
 11
6.0455948255
 21
5.9660117965
  0
LINE
  5
27F
100
AcDbEntity
  8
0
100
AcDbLine
 62
7
  6
CONTINUOUS
 10
6.0455948255
 20
5.9660117965
 11
6.0456532209
 21
5.9664764672
  0
LINE
  5
280
100
AcDbEntity
  8
0
100
AcDbLine
 62
7
  6
CONTINUOUS
 10
6.0456532209
 20
5.9664764672
 11
6.0457102888
 21
5.9669120543
  0
LINE
  5
281
100
AcDbEntity
  8
0
100
AcDbLine
 62
7
  6
CONTINUOUS
 10
6.0457102888
 20
5.9669120543
 11
6.0457659303
 21
5.9673191027
  0
LINE
  5
282
100
AcDbEntity
  8
0
100
AcDbLine
 62
7
  6
CONTINUOUS
 10
6.0457659303
 20
5.9673191027
 11
6.0458200506
 21
5.967698239
  0
LINE
  5
283
100
AcDbEntity
  8
0
100
AcDbLine
 62
7
  6
CONTINUOUS
 10
6.0458200506
 20
5.967698239
 11
6.0458725342
 21
5.9680499952
  0
LINE
  5
284
100
AcDbEntity
  8
0
100
AcDbLine
 62
7
  6
CONTINUOUS
 10
6.0458725342
 20
5.9680499952
 11
6.0459232448
 21
5.9683748382
  0
LINE
  5
285
100
AcDbEntity
  8
0
100
AcDbLine
 62
7
  6
CONTINUOUS
 10
6.0459232448
 20
5.9683748382
 11
6.0459720486
 21
5.968673325
  0
LINE
  5
286
100
AcDbEntity
  8
0
100
AcDbLine
 62
7
  6
CONTINUOUS
 10
6.0459720486
 20
5.968673325
 11
6.0460187716
 21
5.9689458494
  0
LWPOLYLINE
  5
287
100
AcDbEntity
  8
0
100
AcDbPolyline
 62
7
  6
CONTINUOUS
 90
20
 70
0
 10
6.0460187716
 20
5.9689458494
 10
6.0460632003
 20
5.9691926893
 10
6.0460844998
 20
5.9693066643
 10
6.0461051222
 20
5.9694142548
 10
6.0461250519
 20
5.9695155939
 10
6.0461442595
 20
5.969610747
 10
6.0461626564
 20
5.9696995036
 10
6.0461802192
 20
5.9697819926
 10
6.0461969142
 20
5.9698582969
 10
6.0462126274
 20
5.969928155
 10
6.0462273249
 20
5.9699916905
 10
6.0462409689
 20
5.9700490157
 10
6.0462534289
 20
5.9700998767
 10
6.0462646606
 20
5.9701444018
 10
6.0462746188
 20
5.9701827242
 10
6.0462831579
 20
5.9702146112
 10
6.0462902261
 20
5.970240214
 10
6.04629576
 20
5.9702596495
 10
6.0462995728
 20
5.9702726296
 10
6.0463004648
 20
5.970275599
  0
LINE
  5
288
100
AcDbEntity
  8
0
100
AcDbLine
 62
7
  6
CONTINUOUS
 10
6.3835818492
 20
5.7863836841
 11
6.3835973439
 21
5.7864304415
  0
LINE
  5
289
100
AcDbEntity
  8
0
100
AcDbLine
 62
7
  6
CONTINUOUS
 10
6.3835973439
 20
5.7864304415
 11
6.3836159176
 21
5.7864854305
  0
LINE
  5
28A
100
AcDbEntity
  8
0
100
AcDbLine
 62
7
  6
CONTINUOUS
 10
6.3836159176
 20
5.7864854305
 11
6.3836376089
 21
5.7865485741
  0
LINE
  5
28B
100
AcDbEntity
  8
0
100
AcDbLine
 62
7
  6
CONTINUOUS
 10
6.3836376089
 20
5.7865485741
 11
6.3836760979
 21
5.7866585675
  0
LINE
  5
28C
100
AcDbEntity
  8
0
100
AcDbLine
 62
7
  6
CONTINUOUS
 10
6.3836760979
 20
5.7866585675
 11
6.3837218699
 21
5.786786985
  0
LINE
  5
28D
100
AcDbEntity
  8
0
100
AcDbLine
 62
7
  6
CONTINUOUS
 10
6.3837218699
 20
5.786786985
 11
6.3837941221
 21
5.7869862322
  0
LINE
  5
28E
100
AcDbEntity
  8
0
100
AcDbLine
 62
7
  6
CONTINUOUS
 10
6.3837941221
 20
5.7869862322
 11
6.3838789308
 21
5.7872162406
  0
LINE
  5
28F
100
AcDbEntity
  8
0
100
AcDbLine
 62
7
  6
CONTINUOUS
 10
6.3838789308
 20
5.7872162406
 11
6.3839768366
 21
5.7874778865
  0
LINE
  5
290
100
AcDbEntity
  8
0
100
AcDbLine
 62
7
  6
CONTINUOUS
 10
6.3839768366
 20
5.7874778865
 11
6.3841185156
 21
5.7878511781
  0
LINE
  5
291
100
AcDbEntity
  8
0
100
AcDbLine
 62
7
  6
CONTINUOUS
 10
6.3841185156
 20
5.7878511781
 11
6.3843176411
 21
5.7883687214
  0
LINE
  5
292
100
AcDbEntity
  8
0
100
AcDbLine
 62
7
  6
CONTINUOUS
 10
6.3843176411
 20
5.7883687214
 11
6.3845901077
 21
5.78906731
  0
LINE
  5
293
100
AcDbEntity
  8
0
100
AcDbLine
 62
7
  6
CONTINUOUS
 10
6.3845901077
 20
5.78906731
 11
6.3850029186
 21
5.7901107216
  0
LINE
  5
294
100
AcDbEntity
  8
0
100
AcDbLine
 62
7
  6
CONTINUOUS
 10
6.3850029186
 20
5.7901107216
 11
6.3855413251
 21
5.7914533551
  0
LINE
  5
295
100
AcDbEntity
  8
0
100
AcDbLine
 62
7
  6
CONTINUOUS
 10
6.3855413251
 20
5.7914533551
 11
6.3861062787
 21
5.7928445146
  0
LINE
  5
296
100
AcDbEntity
  8
0
100
AcDbLine
 62
7
  6
CONTINUOUS
 10
6.3861062787
 20
5.7928445146
 11
6.3863165613
 21
5.7933580268
  0
LINE
  5
297
100
AcDbEntity
  8
0
100
AcDbLine
 62
7
  6
CONTINUOUS
 10
4.8143827365
 20
2.5387514728
 11
4.8101966248
 21
2.5311171081
  0
LWPOLYLINE
  5
298
100
AcDbEntity
  8
0
100
AcDbPolyline
 62
7
  6
CONTINUOUS
 90
30
 70
0
 10
4.8334516439
 20
2.6037747121
 10
4.8324757936
 20
2.6020672212
 10
4.8313132526
 20
2.5999543664
 10
4.8301794311
 20
2.5978054029
 10
4.8290753321
 20
2.5956205709
 10
4.8280023574
 20
2.5934009883
 10
4.826962264
 20
2.5911487453
 10
4.8259560428
 20
2.5888644644
 10
4.824984689
 20
2.5865488652
 10
4.824049819
 20
2.5842043163
 10
4.8231523086
 20
2.5818315889
 10
4.8222929842
 20
2.5794314421
 10
4.8214732235
 20
2.5770063435
 10
4.8206937498
 20
2.5745571563
 10
4.8199552233
 20
2.5720846687
 10
4.8192587494
 20
2.5695913301
 10
4.8186049387
 20
2.5670782101
 10
4.817994254
 20
2.5645459774
 10
4.8174274306
 20
2.561996543
 10
4.8169049245
 20
2.5594308614
 10
4.8164271191
 20
2.5568497783
 10
4.8159945367
 20
2.5542550835
 10
4.8156075083
 20
2.5516476887
 10
4.8152663355
 20
2.5490285066
 10
4.8149713743
 20
2.5463993341
 10
4.8147228369
 20
2.5437611303
 10
4.8145209122
 20
2.541114693
 10
4.8143657921
 20
2.5384616736
 10
4.8142575655
 20
2.5358033498
 10
4.814196293
 20
2.5331405477
  0
LINE
  5
299
100
AcDbEntity
  8
0
100
AcDbLine
 62
7
  6
CONTINUOUS
 10
4.8354295298
 20
2.6071833166
 11
4.833434391
 21
2.603746056
  0
LINE
  5
29A
100
AcDbEntity
  8
0
100
AcDbLine
 62
7
  6
CONTINUOUS
 10
4.8418733543
 20
2.6182790767
 11
4.8354295298
 21
2.6071833166
  0
LINE
  5
29B
100
AcDbEntity
  8
0
100
AcDbLine
 62
7
  6
CONTINUOUS
 10
4.8678062342
 20
2.6627941024
 11
4.8418733543
 21
2.6182790767
  0
LINE
  5
29C
100
AcDbEntity
  8
0
100
AcDbLine
 62
7
  6
CONTINUOUS
 10
4.8334343964
 20
2.6037460653
 11
4.8334516439
 21
2.6037747121
  0
LINE
  5
29D
100
AcDbEntity
  8
0
100
AcDbLine
 62
7
  6
CONTINUOUS
 10
4.8447467852
 20
2.6206867899
 11
4.8334516439
 21
2.6037747121
  0
LINE
  5
29E
100
AcDbEntity
  8
0
100
AcDbLine
 62
7
  6
CONTINUOUS
 10
5.9722529798
 20
5.8297817071
 11
5.9722577143
 21
6.0959634964
  0
LINE
  5
29F
100
AcDbEntity
  8
0
100
AcDbLine
 62
7
  6
CONTINUOUS
 10
5.9722529798
 20
5.8297817071
 11
5.9722592741
 21
5.5635999178
  0
LINE
  5
2A0
100
AcDbEntity
  8
0
100
AcDbLine
 62
7
  6
CONTINUOUS
 10
6.0428457605
 20
5.916221812
 11
6.0430570155
 21
5.9228967664
  0
LINE
  5
2A1
100
AcDbEntity
  8
0
100
AcDbLine
 62
7
  6
CONTINUOUS
 10
6.0430570155
 20
5.9228967664
 11
6.0432678264
 21
5.9288246654
  0
LINE
  5
2A2
100
AcDbEntity
  8
0
100
AcDbLine
 62
7
  6
CONTINUOUS
 10
6.0432678264
 20
5.9288246654
 11
6.0434789956
 21
5.9341543576
  0
LINE
  5
2A3
100
AcDbEntity
  8
0
100
AcDbLine
 62
7
  6
CONTINUOUS
 10
6.0434789956
 20
5.9341543576
 11
6.0436909909
 21
5.938980906
  0
LINE
  5
2A4
100
AcDbEntity
  8
0
100
AcDbLine
 62
7
  6
CONTINUOUS
 10
6.0436909909
 20
5.938980906
 11
6.0439032969
 21
5.9433544964
  0
LINE
  5
2A5
100
AcDbEntity
  8
0
100
AcDbLine
 62
7
  6
CONTINUOUS
 10
6.0439032969
 20
5.9433544964
 11
6.0441155948
 21
5.9473186792
  0
LINE
  5
2A6
100
AcDbEntity
  8
0
100
AcDbLine
 62
7
  6
CONTINUOUS
 10
6.0441155948
 20
5.9473186792
 11
6.0442924932
 21
5.9503377986
  0
LINE
  5
2A7
100
AcDbEntity
  8
0
100
AcDbLine
 62
7
  6
CONTINUOUS
 10
6.0442924932
 20
5.9503377986
 11
6.0444690959
 21
5.9531138166
  0
LINE
  5
2A8
100
AcDbEntity
  8
0
100
AcDbLine
 62
7
  6
CONTINUOUS
 10
6.0444690959
 20
5.9531138166
 11
6.0446096204
 21
5.9551629848
  0
LINE
  5
2A9
100
AcDbEntity
  8
0
100
AcDbLine
 62
7
  6
CONTINUOUS
 10
6.0446096204
 20
5.9551629848
 11
6.0447489871
 21
5.957062446
  0
LINE
  5
2AA
100
AcDbEntity
  8
0
100
AcDbLine
 62
7
  6
CONTINUOUS
 10
6.0447489871
 20
5.957062446
 11
6.0448867514
 21
5.9588153433
  0
LINE
  5
2AB
100
AcDbEntity
  8
0
100
AcDbLine
 62
7
  6
CONTINUOUS
 10
6.0448867514
 20
5.9588153433
 11
6.0449887578
 21
5.9600360252
  0
LINE
  5
2AC
100
AcDbEntity
  8
0
100
AcDbLine
 62
7
  6
CONTINUOUS
 10
6.0449887578
 20
5.9600360252
 11
6.0450894171
 21
5.9611779228
  0
LINE
  5
2AD
100
AcDbEntity
  8
0
100
AcDbLine
 62
7
  6
CONTINUOUS
 10
6.0450894171
 20
5.9611779228
 11
6.0451885238
 21
5.9622427143
  0
LINE
  5
2AE
100
AcDbEntity
  8
0
100
AcDbLine
 62
7
  6
CONTINUOUS
 10
6.0451885238
 20
5.9622427143
 11
6.0452858653
 21
5.9632321674
  0
LINE
  5
2AF
100
AcDbEntity
  8
0
100
AcDbLine
 62
7
  6
CONTINUOUS
 10
6.0452858653
 20
5.9632321674
 11
6.0453812323
 21
5.9641482386
  0
LINE
  5
2B0
100
AcDbEntity
  8
0
100
AcDbLine
 62
7
  6
CONTINUOUS
 10
6.0453812323
 20
5.9641482386
 11
6.0454744094
 21
5.964992974
  0
LINE
  5
2B1
100
AcDbEntity
  8
0
100
AcDbLine
 62
7
  6
CONTINUOUS
 10
6.3835512449
 20
5.7862868445
 11
6.3835521362
 21
5.7862898604
  0
LINE
  5
2B2
100
AcDbEntity
  8
0
100
AcDbLine
 62
7
  6
CONTINUOUS
 10
6.3835539198
 20
5.7862958048
 11
6.3835601494
 21
5.7863160561
  0
LINE
  5
2B3
100
AcDbEntity
  8
0
100
AcDbLine
 62
7
  6
CONTINUOUS
 10
6.3835601494
 20
5.7863160561
 11
6.3835694533
 21
5.7863454599
  0
LINE
  5
2B4
100
AcDbEntity
  8
0
100
AcDbLine
 62
7
  6
CONTINUOUS
 10
6.3835694533
 20
5.7863454599
 11
6.3835818492
 21
5.7863836841
  0
LINE
  5
2B5
100
AcDbEntity
  8
0
100
AcDbLine
 62
7
  6
CONTINUOUS
 10
4.8447467852
 20
2.4729769345
 11
4.8334516439
 21
2.4560648568
  0
LINE
  5
2B6
100
AcDbEntity
  8
0
100
AcDbLine
 62
7
  6
CONTINUOUS
 10
6.0443820655
 20
5.7078005525
 11
6.0442095552
 21
5.7106225769
  0
LINE
  5
2B7
100
AcDbEntity
  8
0
100
AcDbLine
 62
7
  6
CONTINUOUS
 10
6.0442095552
 20
5.7106225769
 11
6.0440359591
 21
5.7136993463
  0
LINE
  5
2B8
100
AcDbEntity
  8
0
100
AcDbLine
 62
7
  6
CONTINUOUS
 10
6.0440359591
 20
5.7136993463
 11
6.0438265131
 21
5.7177549326
  0
LINE
  5
2B9
100
AcDbEntity
  8
0
100
AcDbLine
 62
7
  6
CONTINUOUS
 10
6.0438265131
 20
5.7177549326
 11
6.043616083
 21
5.7222470587
  0
LINE
  5
2BA
100
AcDbEntity
  8
0
100
AcDbLine
 62
7
  6
CONTINUOUS
 10
6.043616083
 20
5.7222470587
 11
6.0434052866
 21
5.7272213862
  0
LINE
  5
2BB
100
AcDbEntity
  8
0
100
AcDbLine
 62
7
  6
CONTINUOUS
 10
6.0434052866
 20
5.7272213862
 11
6.0431947633
 21
5.7327353662
  0
LINE
  5
2BC
100
AcDbEntity
  8
0
100
AcDbLine
 62
7
  6
CONTINUOUS
 10
6.0431947633
 20
5.7327353662
 11
6.0429838956
 21
5.7389030664
  0
LINE
  5
2BD
100
AcDbEntity
  8
0
100
AcDbLine
 62
7
  6
CONTINUOUS
 10
6.0429838956
 20
5.7389030664
 11
6.0427728055
 21
5.745866035
  0
LINE
  5
2BE
100
AcDbEntity
  8
0
100
AcDbLine
 62
7
  6
CONTINUOUS
 10
6.0427728055
 20
5.745866035
 11
6.0425989361
 21
5.7523434425
  0
LINE
  5
2BF
100
AcDbEntity
  8
0
100
AcDbLine
 62
7
  6
CONTINUOUS
 10
6.0425989361
 20
5.7523434425
 11
6.0424298644
 21
5.7594699199
  0
LINE
  5
2C0
100
AcDbEntity
  8
0
100
AcDbLine
 62
7
  6
CONTINUOUS
 10
6.0424298644
 20
5.7594699199
 11
6.0422687522
 21
5.767278976
  0
LINE
  5
2C1
100
AcDbEntity
  8
0
100
AcDbLine
 62
7
  6
CONTINUOUS
 10
6.0422687522
 20
5.767278976
 11
6.0421190991
 21
5.7758029117
  0
LINE
  5
2C2
100
AcDbEntity
  8
0
100
AcDbLine
 62
7
  6
CONTINUOUS
 10
6.0421190991
 20
5.7758029117
 11
6.042010157
 21
5.7831627848
  0
LINE
  5
2C3
100
AcDbEntity
  8
0
100
AcDbLine
 62
7
  6
CONTINUOUS
 10
6.042010157
 20
5.7831627848
 11
6.0419130162
 21
5.7910470391
  0
LINE
  5
2C4
100
AcDbEntity
  8
0
100
AcDbLine
 62
7
  6
CONTINUOUS
 10
6.0419130162
 20
5.7910470391
 11
6.0418301525
 21
5.7995005691
  0
LINE
  5
2C5
100
AcDbEntity
  8
0
100
AcDbLine
 62
7
  6
CONTINUOUS
 10
6.0418301525
 20
5.7995005691
 11
6.0417639916
 21
5.8086836748
  0
LINE
  5
2C6
100
AcDbEntity
  8
0
100
AcDbLine
 62
7
  6
CONTINUOUS
 10
6.0417639916
 20
5.8086836748
 11
6.0417186788
 21
5.8188884509
  0
LINE
  5
2C7
100
AcDbEntity
  8
0
100
AcDbLine
 62
7
  6
CONTINUOUS
 10
6.0417186788
 20
5.8188884509
 11
6.041703272
 21
5.8270780681
  0
LINE
  5
2C8
100
AcDbEntity
  8
0
100
AcDbLine
 62
7
  6
CONTINUOUS
 10
5.9938981177
 20
6.0808641653
 11
5.993899589
 21
5.5786993757
  0
LINE
  5
2C9
100
AcDbEntity
  8
0
100
AcDbLine
 62
7
  6
CONTINUOUS
 10
6.1356387791
 20
5.9717825407
 11
6.1356387791
 21
5.6877825407
  0
LINE
  5
2CA
100
AcDbEntity
  8
0
100
AcDbLine
 62
7
  6
CONTINUOUS
 10
6.041703272
 20
5.8270780681
 11
6.0417065538
 21
5.835378768
  0
LINE
  5
2CB
100
AcDbEntity
  8
0
100
AcDbLine
 62
7
  6
CONTINUOUS
 10
6.0417065538
 20
5.835378768
 11
6.0417280769
 21
5.8434611356
  0
LINE
  5
2CC
100
AcDbEntity
  8
0
100
AcDbLine
 62
7
  6
CONTINUOUS
 10
6.0417280769
 20
5.8434611356
 11
6.0417795553
 21
5.8533958437
  0
LINE
  5
2CD
100
AcDbEntity
  8
0
100
AcDbLine
 62
7
  6
CONTINUOUS
 10
6.0417795553
 20
5.8533958437
 11
6.041850365
 21
5.8623618882
  0
LINE
  5
2CE
100
AcDbEntity
  8
0
100
AcDbLine
 62
7
  6
CONTINUOUS
 10
6.041850365
 20
5.8623618882
 11
6.0419372963
 21
5.870663522
  0
LINE
  5
2CF
100
AcDbEntity
  8
0
100
AcDbLine
 62
7
  6
CONTINUOUS
 10
6.0419372963
 20
5.870663522
 11
6.0420378221
 21
5.8784107268
  0
LINE
  5
2D0
100
AcDbEntity
  8
0
100
AcDbLine
 62
7
  6
CONTINUOUS
 10
6.0420378221
 20
5.8784107268
 11
6.0421790822
 21
5.8873781335
  0
LINE
  5
2D1
100
AcDbEntity
  8
0
100
AcDbLine
 62
7
  6
CONTINUOUS
 10
6.0421790822
 20
5.8873781335
 11
6.0423340401
 21
5.895609945
  0
LINE
  5
2D2
100
AcDbEntity
  8
0
100
AcDbLine
 62
7
  6
CONTINUOUS
 10
6.0423340401
 20
5.895609945
 11
6.0424989684
 21
5.9031389655
  0
LINE
  5
2D3
100
AcDbEntity
  8
0
100
AcDbLine
 62
7
  6
CONTINUOUS
 10
6.0424989684
 20
5.9031389655
 11
6.0426705746
 21
5.9099991312
  0
LINE
  5
2D4
100
AcDbEntity
  8
0
100
AcDbLine
 62
7
  6
CONTINUOUS
 10
6.0426705746
 20
5.9099991312
 11
6.0428457605
 21
5.916221812
  0
LINE
  5
2D5
100
AcDbEntity
  8
0
100
AcDbLine
 62
7
  6
CONTINUOUS
 10
6.045436703
 20
5.6949138847
 11
6.0453434007
 21
5.6957802417
  0
LINE
  5
2D6
100
AcDbEntity
  8
0
100
AcDbLine
 62
7
  6
CONTINUOUS
 10
6.0453434007
 20
5.6957802417
 11
6.0452484619
 21
5.6967131915
  0
LINE
  5
2D7
100
AcDbEntity
  8
0
100
AcDbLine
 62
7
  6
CONTINUOUS
 10
6.0452484619
 20
5.6967131915
 11
6.0451521014
 21
5.6977138862
  0
LINE
  5
2D8
100
AcDbEntity
  8
0
100
AcDbLine
 62
7
  6
CONTINUOUS
 10
6.0451521014
 20
5.6977138862
 11
6.0450545155
 21
5.6987834761
  0
LINE
  5
2D9
100
AcDbEntity
  8
0
100
AcDbLine
 62
7
  6
CONTINUOUS
 10
6.0450545155
 20
5.6987834761
 11
6.0449558879
 21
5.6999230694
  0
LINE
  5
2DA
100
AcDbEntity
  8
0
100
AcDbLine
 62
7
  6
CONTINUOUS
 10
6.0449558879
 20
5.6999230694
 11
6.0448230074
 21
5.7015539409
  0
LINE
  5
2DB
100
AcDbEntity
  8
0
100
AcDbLine
 62
7
  6
CONTINUOUS
 10
6.0448230074
 20
5.7015539409
 11
6.0446887129
 21
5.7033170529
  0
LINE
  5
2DC
100
AcDbEntity
  8
0
100
AcDbLine
 62
7
  6
CONTINUOUS
 10
6.0446887129
 20
5.7033170529
 11
6.044553132
 21
5.7052186657
  0
LINE
  5
2DD
100
AcDbEntity
  8
0
100
AcDbLine
 62
7
  6
CONTINUOUS
 10
6.044553132
 20
5.7052186657
 11
6.0443820655
 21
5.7078005525
  0
LINE
  5
2DE
100
AcDbEntity
  8
0
100
AcDbLine
 62
7
  6
CONTINUOUS
 10
6.1412537125
 20
5.9717825407
 11
6.1412537125
 21
5.6877825407
  0
LINE
  5
2DF
100
AcDbEntity
  8
0
100
AcDbLine
 62
7
  6
CONTINUOUS
 10
6.2400238457
 20
5.6877825407
 11
6.2400238457
 21
5.9717825407
  0
LINE
  5
2E0
100
AcDbEntity
  8
0
100
AcDbLine
 62
7
  6
CONTINUOUS
 10
6.2456387791
 20
5.9717825407
 11
6.2456387791
 21
5.6877825407
  0
LINE
  5
2E1
100
AcDbEntity
  8
0
100
AcDbLine
 62
7
  6
CONTINUOUS
 10
6.2536387791
 20
5.9797825407
 11
6.2536387791
 21
5.6797825407
  0
LWPOLYLINE
  5
2E2
100
AcDbEntity
  8
0
100
AcDbPolyline
 62
7
  6
CONTINUOUS
 90
31
 70
0
 10
5.358113476
 20
2.4561328956
 10
5.3590644037
 20
2.457941387
 10
5.3602170845
 20
2.4602070539
 10
5.3613416923
 20
2.4625023433
 10
5.3624372021
 20
2.4648272138
 10
5.3635021576
 20
2.4671805942
 10
5.3645347177
 20
2.4695603029
 10
5.3655338629
 20
2.4719658512
 10
5.36649857
 20
2.4743966252
 10
5.3674271491
 20
2.476850149
 10
5.3683187082
 20
2.4793257687
 10
5.3691724038
 20
2.4818228222
 10
5.3699867985
 20
2.4843387273
 10
5.3707611603
 20
2.4868727079
 10
5.3714948285
 20
2.4894240774
 10
5.3721866664
 20
2.4919903101
 10
5.3728360591
 20
2.4945703816
 10
5.3734425602
 20
2.4971637434
 10
5.3740054419
 20
2.4997685345
 10
5.3745242551
 20
2.5023838668
 10
5.3749986291
 20
2.5050089679
 10
5.375428057
 20
2.5076421213
 10
5.3758122177
 20
2.5102824834
 10
5.3761508209
 20
2.5129291938
 10
5.3764435245
 20
2.5155805051
 10
5.376690127
 20
2.5182355067
 10
5.3768904499
 20
2.5208934431
 10
5.3770443138
 20
2.5235526963
 10
5.3771516406
 20
2.5262120119
 10
5.3772123806
 20
2.5288705875
 10
5.3772273893
 20
2.5310009011
  0
LINE
  5
2E3
100
AcDbEntity
  8
0
100
AcDbLine
 62
7
  6
CONTINUOUS
 10
5.3580188697
 20
2.4561826759
 11
5.3579568752
 21
2.4560648568
  0
LINE
  5
2E4
100
AcDbEntity
  8
0
100
AcDbLine
 62
7
  6
CONTINUOUS
 10
5.3580196446
 20
2.4561821798
 11
5.3579568752
 21
2.4560648568
  0
LINE
  5
2E5
100
AcDbEntity
  8
0
100
AcDbLine
 62
7
  6
CONTINUOUS
 10
5.3539039745
 20
2.4482665651
 11
5.3581134759
 21
2.4561328955
  0
LINE
  5
2E6
100
AcDbEntity
  8
0
100
AcDbLine
 62
7
  6
CONTINUOUS
 10
5.3496320683
 20
2.440343499
 11
5.3539039745
 21
2.4482665651
  0
LINE
  5
2E7
100
AcDbEntity
  8
0
100
AcDbLine
 62
7
  6
CONTINUOUS
 10
5.3455284544
 20
2.432802271
 11
5.3496320683
 21
2.440343499
  0
LINE
  5
2E8
100
AcDbEntity
  8
0
100
AcDbLine
 62
7
  6
CONTINUOUS
 10
5.3415552054
 20
2.4255764879
 11
5.3455284544
 21
2.432802271
  0
LINE
  5
2E9
100
AcDbEntity
  8
0
100
AcDbLine
 62
7
  6
CONTINUOUS
 10
5.3376785932
 20
2.4186073602
 11
5.3415552054
 21
2.4255764879
  0
LINE
  5
2EA
100
AcDbEntity
  8
0
100
AcDbLine
 62
7
  6
CONTINUOUS
 10
5.3338781697
 20
2.4118589038
 11
5.3376785932
 21
2.4186073602
  0
LINE
  5
2EB
100
AcDbEntity
  8
0
100
AcDbLine
 62
7
  6
CONTINUOUS
 10
5.330121703
 20
2.4052744292
 11
5.3338781697
 21
2.4118589038
  0
LWPOLYLINE
  5
2EC
100
AcDbEntity
  8
0
100
AcDbPolyline
 62
7
  6
CONTINUOUS
 90
5
 70
0
 10
5.3207316859
 20
2.3891980506
 10
5.3226238293
 20
2.3923938377
 10
5.3245057506
 20
2.3955940031
 10
5.3263768522
 20
2.3987975397
 10
5.330121703
 20
2.4052744292
  0
LINE
  5
2ED
100
AcDbEntity
  8
0
100
AcDbLine
 62
7
  6
CONTINUOUS
 10
5.3169064996
 20
2.3828019413
 11
5.3207316859
 21
2.3891980506
  0
LINE
  5
2EE
100
AcDbEntity
  8
0
100
AcDbLine
 62
7
  6
CONTINUOUS
 10
5.3129969927
 20
2.3763500016
 11
5.3169064996
 21
2.3828019413
  0
LINE
  5
2EF
100
AcDbEntity
  8
0
100
AcDbLine
 62
7
  6
CONTINUOUS
 10
4.8569285973
 20
6.1124446701
 11
4.8594525923
 21
6.1094569889
  0
LINE
  5
2F0
100
AcDbEntity
  8
0
100
AcDbLine
 62
7
  6
CONTINUOUS
 10
5.3344799218
 20
5.5471617918
 11
5.3319559268
 21
5.5501494731
  0
LINE
  5
2F1
100
AcDbEntity
  8
0
100
AcDbLine
 62
7
  6
CONTINUOUS
 10
6.0459714454
 20
5.6908989489
 11
6.0459213233
 21
5.6912061098
  0
LINE
  5
2F2
100
AcDbEntity
  8
0
100
AcDbLine
 62
7
  6
CONTINUOUS
 10
6.0459213233
 20
5.6912061098
 11
6.0458693753
 21
5.6915398809
  0
LINE
  5
2F3
100
AcDbEntity
  8
0
100
AcDbLine
 62
7
  6
CONTINUOUS
 10
6.0458693753
 20
5.6915398809
 11
6.0458157951
 21
5.6919003593
  0
LINE
  5
2F4
100
AcDbEntity
  8
0
100
AcDbLine
 62
7
  6
CONTINUOUS
 10
6.0458157951
 20
5.6919003593
 11
6.0457607254
 21
5.6922878574
  0
LINE
  5
2F5
100
AcDbEntity
  8
0
100
AcDbLine
 62
7
  6
CONTINUOUS
 10
6.0457607254
 20
5.6922878574
 11
6.0457043142
 21
5.6927025489
  0
LINE
  5
2F6
100
AcDbEntity
  8
0
100
AcDbLine
 62
7
  6
CONTINUOUS
 10
6.0457043142
 20
5.6927025489
 11
6.0456466814
 21
5.6931447126
  0
LINE
  5
2F7
100
AcDbEntity
  8
0
100
AcDbLine
 62
7
  6
CONTINUOUS
 10
6.0456466814
 20
5.6931447126
 11
6.045587921
 21
5.693614752
  0
LINE
  5
2F8
100
AcDbEntity
  8
0
100
AcDbLine
 62
7
  6
CONTINUOUS
 10
6.045587921
 20
5.693614752
 11
6.0455281324
 21
5.6941129621
  0
LWPOLYLINE
  5
2F9
100
AcDbEntity
  8
0
100
AcDbPolyline
 62
7
  6
CONTINUOUS
 90
3
 70
0
 10
6.0455281324
 20
5.6941129621
 10
6.0454674021
 20
5.6946396785
 10
6.045436703
 20
5.6949138847
  0
LWPOLYLINE
  5
2FA
100
AcDbEntity
  8
0
100
AcDbPolyline
 62
7
  6
CONTINUOUS
 90
37
 70
0
 10
6.3836707039
 20
5.832556114
 10
6.383668233
 20
5.8326429477
 10
6.3836641047
 20
5.8328617004
 10
6.3836630239
 20
5.8330809079
 10
6.3836650496
 20
5.833299721
 10
6.3836701976
 20
5.8335176164
 10
6.3836784503
 20
5.8337341079
 10
6.3836897376
 20
5.8339484021
 10
6.3837039644
 20
5.8341600738
 10
6.3837210067
 20
5.8343685954
 10
6.3837407365
 20
5.8345730966
 10
6.3837630565
 20
5.8347731752
 10
6.3837878549
 20
5.8349684689
 10
6.3838149416
 20
5.8351582258
 10
6.3838441523
 20
5.8353421238
 10
6.3838753011
 20
5.8355198336
 10
6.3839081066
 20
5.8356906605
 10
6.3839423527
 20
5.8358543873
 10
6.383977821
 20
5.8360107605
 10
6.3840141713
 20
5.8361591058
 10
6.3840511531
 20
5.8362992662
 10
6.3840885086
 20
5.836431117
 10
6.3841258392
 20
5.8365541352
 10
6.3841628694
 20
5.8366683217
 10
6.3841992936
 20
5.836773625
 10
6.3842346375
 20
5.8368695925
 10
6.3842685622
 20
5.8369562406
 10
6.3843008214
 20
5.8370338446
 10
6.3843310759
 20
5.8371024654
 10
6.3843590202
 20
5.8371622768
 10
6.3843843821
 20
5.8372135404
 10
6.3844068696
 20
5.8372564885
 10
6.3844261804
 20
5.8372913515
 10
6.3844420581
 20
5.8373184574
 10
6.3844542768
 20
5.8373381852
 10
6.3844626007
 20
5.837350898
 10
6.384463456
 20
5.8373521596
  0
LINE
  5
2FB
100
AcDbEntity
  8
0
100
AcDbLine
 62
7
  6
CONTINUOUS
 10
6.3836700606
 20
5.8260519261
 11
6.3836646357
 21
5.826294476
  0
LINE
  5
2FC
100
AcDbEntity
  8
0
100
AcDbLine
 62
7
  6
CONTINUOUS
 10
6.3836649828
 20
5.8262694618
 11
6.3836630089
 21
5.8265171316
  0
LINE
  5
2FD
100
AcDbEntity
  8
0
100
AcDbLine
 62
7
  6
CONTINUOUS
 10
6.3476387791
 20
5.6797825407
 11
6.3476387791
 21
5.9797825407
  0
LINE
  5
2FE
100
AcDbEntity
  8
0
100
AcDbLine
 62
7
  6
CONTINUOUS
 10
6.3556387791
 20
5.6877825407
 11
6.3556387791
 21
5.9717825407
  0
LINE
  5
2FF
100
AcDbEntity
  8
0
100
AcDbLine
 62
7
  6
CONTINUOUS
 10
6.3667185831
 20
5.8929298879
 11
6.3667185831
 21
5.7666351934
  0
LINE
  5
300
100
AcDbEntity
  8
0
100
AcDbLine
 62
7
  6
CONTINUOUS
 10
6.3729407698
 20
5.8899582467
 11
6.3729407698
 21
5.7696068346
  0
LINE
  5
301
100
AcDbEntity
  8
0
100
AcDbLine
 62
7
  6
CONTINUOUS
 10
6.3836630166
 20
5.8264878298
 11
6.3836645926
 21
5.8267400929
  0
LINE
  5
302
100
AcDbEntity
  8
0
100
AcDbLine
 62
7
  6
CONTINUOUS
 10
6.3836641423
 20
5.826706503
 11
6.3836693228
 21
5.8269624849
  0
LINE
  5
303
100
AcDbEntity
  8
0
100
AcDbLine
 62
7
  6
CONTINUOUS
 10
6.3836682972
 20
5.8269246194
 11
6.383670704
 21
5.8270089693
  0
LWPOLYLINE
  5
304
100
AcDbEntity
  8
0
100
AcDbPolyline
 62
7
  6
CONTINUOUS
 90
58
 70
0
 10
5.3923489568
 20
2.3644719064
 10
5.3933800629
 20
2.3663093108
 10
5.3946206511
 20
2.3686111832
 10
5.3958187205
 20
2.3709381414
 10
5.3969737516
 20
2.3732891347
 10
5.3980854017
 20
2.3756633584
 10
5.3991534468
 20
2.3780602382
 10
5.4001775261
 20
2.3804789236
 10
5.4011572969
 20
2.3829185159
 10
5.4020925447
 20
2.3853783781
 10
5.4029829438
 20
2.3878576173
 10
5.4038281719
 20
2.3903553077
 10
5.4046280391
 20
2.3928707621
 10
5.4053822808
 20
2.3954030518
 10
5.4060906365
 20
2.3979512616
 10
5.406752927
 20
2.4005147293
 10
5.4073689495
 20
2.403092514
 10
5.4079385142
 20
2.4056836786
 10
5.408461484
 20
2.4082875606
 10
5.4089376557
 20
2.4109032075
 10
5.4093668898
 20
2.4135296911
 10
5.409749127
 20
2.4161663932
 10
5.4100842418
 20
2.418812343
 10
5.4103721132
 20
2.4214666015
 10
5.4106126556
 20
2.424128609
 10
5.4108057962
 20
2.4267974029
 10
5.4109515036
 20
2.4294720155
 10
5.4110497573
 20
2.4321518783
 10
5.4111005045
 20
2.434836033
 10
5.4111036945
 20
2.4375235088
 10
5.4110593232
 20
2.4402137269
 10
5.4109674256
 20
2.4429057389
 10
5.4108280389
 20
2.4455985796
 10
5.4106411718
 20
2.4482916487
 10
5.4104068488
 20
2.4509839893
 10
5.4101251541
 20
2.453674649
 10
5.4097961551
 20
2.4563630323
 10
5.4094199452
 20
2.4590481972
 10
5.4089966223
 20
2.4617291801
 10
5.408526265
 20
2.4644053548
 10
5.4080090316
 20
2.4670757924
 10
5.4074450881
 20
2.4697395311
 10
5.4068345369
 20
2.4723958958
 10
5.4061775759
 20
2.4750439474
 10
5.4054744303
 20
2.477682748
 10
5.4047252482
 20
2.4803116238
 10
5.4039302593
 20
2.4829296513
 10
5.40308974
 20
2.4855358965
 10
5.4022038891
 20
2.4881296604
 10
5.4012729992
 20
2.4907099963
 10
5.4002973874
 20
2.4932760107
 10
5.3992772688
 20
2.49582707
 10
5.3982129761
 20
2.4983622641
 10
5.3971048449
 20
2.500880755
 10
5.3959530713
 20
2.5033820066
 10
5.3947580021
 20
2.5058651917
 10
5.3935201709
 20
2.5083291841
 10
5.3924685866
 20
2.510344033
  0
LINE
  5
305
100
AcDbEntity
  8
0
100
AcDbLine
 62
7
  6
CONTINUOUS
 10
5.3864853957
 20
2.3543711777
 11
5.3923489567
 21
2.3644719063
  0
LINE
  5
306
100
AcDbEntity
  8
0
100
AcDbLine
 62
7
  6
CONTINUOUS
 10
5.3759832572
 20
2.3363069511
 11
5.3864853957
 21
2.3543711777
  0
LINE
  5
307
100
AcDbEntity
  8
0
100
AcDbLine
 62
7
  6
CONTINUOUS
 10
5.3426948103
 20
2.2792334876
 11
5.3759832572
 21
2.3363069511
  0
LINE
  5
308
100
AcDbEntity
  8
0
100
AcDbLine
 62
7
  6
CONTINUOUS
 10
5.3304299891
 20
2.2582832042
 11
5.3426948103
 21
2.2792334876
  0
LINE
  5
309
100
AcDbEntity
  8
0
100
AcDbLine
 62
7
  6
CONTINUOUS
 10
5.3198396703
 20
2.2402206038
 11
5.3304299891
 21
2.2582832042
  0
LINE
  5
30A
100
AcDbEntity
  8
0
100
AcDbLine
 62
7
  6
CONTINUOUS
 10
5.3112229549
 20
2.225538086
 11
5.3198396703
 21
2.2402206038
  0
LINE
  5
30B
100
AcDbEntity
  8
0
100
AcDbLine
 62
7
  6
CONTINUOUS
 10
5.3079427285
 20
2.2199580993
 11
5.3112229549
 21
2.225538086
  0
LINE
  5
30C
100
AcDbEntity
  8
0
100
AcDbLine
 62
7
  6
CONTINUOUS
 10
5.3089695366
 20
2.3697862193
 11
5.3129969927
 21
2.3763500016
  0
LINE
  5
30D
100
AcDbEntity
  8
0
100
AcDbLine
 62
7
  6
CONTINUOUS
 10
5.304802743
 20
2.3630747166
 11
5.3089695366
 21
2.3697862193
  0
LINE
  5
30E
100
AcDbEntity
  8
0
100
AcDbLine
 62
7
  6
CONTINUOUS
 10
5.3004619997
 20
2.3561576325
 11
5.304802743
 21
2.3630747166
  0
LINE
  5
30F
100
AcDbEntity
  8
0
100
AcDbLine
 62
7
  6
CONTINUOUS
 10
5.2959078631
 20
2.3489689305
 11
5.3004619997
 21
2.3561576325
  0
LINE
  5
310
100
AcDbEntity
  8
0
100
AcDbLine
 62
7
  6
CONTINUOUS
 10
5.2913699679
 20
2.3418614776
 11
5.2959078631
 21
2.3489689305
  0
LINE
  5
311
100
AcDbEntity
  8
0
100
AcDbLine
 62
7
  6
CONTINUOUS
 10
5.3859290154
 20
5.5068924133
 11
5.3885629026
 21
5.5039618891
  0
LINE
  5
312
100
AcDbEntity
  8
0
100
AcDbLine
 62
7
  6
CONTINUOUS
 10
4.8054795036
 20
6.1527140487
 11
4.8028456165
 21
6.1556445729
  0
LINE
  5
313
100
AcDbEntity
  8
0
100
AcDbLine
 62
7
  6
CONTINUOUS
 10
5.3415418666
 20
6.1040000051
 11
5.4560844351
 21
5.9056064569
  0
LINE
  5
314
100
AcDbEntity
  8
0
100
AcDbLine
 62
7
  6
CONTINUOUS
 10
5.3956110728
 20
6.1465859839
 11
5.3948904298
 21
6.1478351655
  0
LINE
  5
315
100
AcDbEntity
  8
0
100
AcDbLine
 62
7
  6
CONTINUOUS
 10
5.390790731
 20
6.1466281767
 11
5.3907024451
 21
6.1467834313
  0
LWPOLYLINE
  5
316
100
AcDbEntity
  8
0
100
AcDbPolyline
 62
7
  6
CONTINUOUS
 90
3
 70
0
 10
6.0460427134
 20
5.6904879373
 10
6.0459957468
 20
5.6907553642
 10
6.0459714454
 20
5.6908989489
  0
LWPOLYLINE
  5
317
100
AcDbEntity
  8
0
100
AcDbPolyline
 62
7
  6
CONTINUOUS
 90
3
 70
0
 10
6.3837402317
 20
5.8249968469
 10
6.3837205671
 20
5.8252014305
 10
6.3837035952
 20
5.8254099752
  0
LINE
  5
318
100
AcDbEntity
  8
0
100
AcDbLine
 62
7
  6
CONTINUOUS
 10
6.3837035952
 20
5.8254099752
 11
6.3836887561
 21
5.825633998
  0
LINE
  5
319
100
AcDbEntity
  8
0
100
AcDbLine
 62
7
  6
CONTINUOUS
 10
6.3836894446
 20
5.8256215788
 11
6.383677555
 21
5.8258522476
  0
LINE
  5
31A
100
AcDbEntity
  8
0
100
AcDbLine
 62
7
  6
CONTINUOUS
 10
6.3836782364
 20
5.8258357011
 11
6.3836694905
 21
5.8260726786
  0
LWPOLYLINE
  5
31B
100
AcDbEntity
  8
0
100
AcDbPolyline
 62
7
  6
CONTINUOUS
 90
8
 70
0
 10
5.2979153232
 20
2.2051803368
 10
5.2994920843
 20
2.207270859
 10
5.3010334444
 20
2.2093893816
 10
5.3025388753
 20
2.2115352196
 10
5.3040079122
 20
2.213707668
 10
5.3054400577
 20
2.2159059672
 10
5.3068347827
 20
2.2181293094
 10
5.3079427286
 20
2.2199580994
  0
LINE
  5
31C
100
AcDbEntity
  8
0
100
AcDbLine
 62
7
  6
CONTINUOUS
 10
5.1790667149
 20
2.1470056887
 11
5.1737201876
 21
2.1401490129
  0
LINE
  5
31D
100
AcDbEntity
  8
0
100
AcDbLine
 62
7
  6
CONTINUOUS
 10
5.2979153232
 20
2.2051803368
 11
5.2920846369
 21
2.1976958541
  0
LINE
  5
31E
100
AcDbEntity
  8
0
100
AcDbLine
 62
7
  6
CONTINUOUS
 10
5.2920846303
 20
2.1976958456
 11
5.2920706626
 21
2.1976779356
  0
LWPOLYLINE
  5
31F
100
AcDbEntity
  8
0
100
AcDbPolyline
 62
7
  6
CONTINUOUS
 90
20
 70
0
 10
6.0463016411
 20
5.6892873253
 10
6.0463021578
 20
5.6892857195
 10
6.0462996892
 20
5.6892939003
 10
6.0462952791
 20
5.68930899
 10
6.0462889832
 20
5.689331262
 10
6.0462808774
 20
5.6893608995
 10
6.0462712195
 20
5.6893973773
 10
6.0462600904
 20
5.6894407686
 10
6.046247545
 20
5.6894912344
 10
6.046233771
 20
5.6895483684
 10
6.0462188278
 20
5.6896122446
 10
6.0462027554
 20
5.6896830089
 10
6.0461856916
 20
5.6897603527
 10
6.046167679
 20
5.6898443578
 10
6.0461487499
 20
5.6899351464
 10
6.0461290117
 20
5.6900324616
 10
6.0461084966
 20
5.6901363846
 10
6.0460872289
 20
5.6902470308
 10
6.0460652928
 20
5.6903641889
 10
6.0460427134
 20
5.6904879373
  0
LWPOLYLINE
  5
320
100
AcDbEntity
  8
0
100
AcDbPolyline
 62
7
  6
CONTINUOUS
 90
32
 70
0
 10
5.783519916
 20
6.1727956718
 10
5.7834998545
 20
6.1728350134
 10
5.7833615847
 20
6.1730926299
 10
5.7832139936
 20
6.1733450217
 10
5.7830572785
 20
6.1735918519
 10
5.7828916485
 20
6.1738327907
 10
5.782717325
 20
6.1740675162
 10
5.7825345408
 20
6.174295715
 10
5.7823435401
 20
6.1745170823
 10
5.7821445779
 20
6.1747313223
 10
5.78193792
 20
6.174938149
 10
5.7817238425
 20
6.1751372859
 10
5.7815026312
 20
6.1753284673
 10
5.7812745817
 20
6.1755114376
 10
5.7810399986
 20
6.1756859526
 10
5.7807991952
 20
6.1758517791
 10
5.7805524931
 20
6.1760086956
 10
5.7803002219
 20
6.1761564925
 10
5.7800427185
 20
6.1762949724
 10
5.7797803269
 20
6.1764239504
 10
5.7795133975
 20
6.1765432542
 10
5.779242287
 20
6.1766527244
 10
5.7789673573
 20
6.1767522147
 10
5.7786889757
 20
6.1768415924
 10
5.7784075141
 20
6.1769207381
 10
5.7781233484
 20
6.1769895459
 10
5.7778368582
 20
6.177047924
 10
5.7775484261
 20
6.1770957945
 10
5.7772584374
 20
6.1771330934
 10
5.7769672795
 20
6.1771597709
 10
5.7766753411
 20
6.1771757913
 10
5.7763830124
 20
6.1771811332
  0
LINE
  5
321
100
AcDbEntity
  8
0
100
AcDbLine
 62
7
  6
CONTINUOUS
 10
6.3839825611
 20
5.8235342302
 11
6.3839416766
 21
5.8237137981
  0
LINE
  5
322
100
AcDbEntity
  8
0
100
AcDbLine
 62
7
  6
CONTINUOUS
 10
6.3839462353
 20
5.8236928631
 11
6.3839074253
 21
5.8238778202
  0
LINE
  5
323
100
AcDbEntity
  8
0
100
AcDbLine
 62
7
  6
CONTINUOUS
 10
6.3839111618
 20
5.8238592019
 11
6.3838746201
 21
5.824048959
  0
LINE
  5
324
100
AcDbEntity
  8
0
100
AcDbLine
 62
7
  6
CONTINUOUS
 10
6.3838775683
 20
5.8240330032
 11
6.38384348
 21
5.824226987
  0
LWPOLYLINE
  5
325
100
AcDbEntity
  8
0
100
AcDbPolyline
 62
7
  6
CONTINUOUS
 90
5
 70
0
 10
6.3838456712
 20
5.8242140113
 10
6.3838157837
 20
5.8244013792
 10
6.3837881144
 20
5.8245947045
 10
6.3837628335
 20
5.8247936891
 10
6.3837401417
 20
5.8249975628
  0
LINE
  5
326
100
AcDbEntity
  8
0
100
AcDbLine
 62
7
  6
CONTINUOUS
 10
5.9722592741
 20
5.5635999178
 11
5.8348644699
 21
5.528074451
  0
LWPOLYLINE
  5
327
100
AcDbEntity
  8
0
100
AcDbPolyline
 62
7
  6
CONTINUOUS
 90
32
 70
0
 10
5.776385047
 20
5.4823811332
 10
5.7766773758
 20
5.4823864769
 10
5.776969314
 20
5.482402499
 10
5.7772604718
 20
5.4824291781
 10
5.7775504603
 20
5.4824664787
 10
5.7778388921
 20
5.4825143509
 10
5.778125382
 20
5.4825727307
 10
5.7784095472
 20
5.4826415402
 10
5.7786910084
 20
5.4827206875
 10
5.7789693894
 20
5.4828100668
 10
5.7792443185
 20
5.4829095588
 10
5.7795154284
 20
5.4830190305
 10
5.7797823571
 20
5.4831383359
 10
5.780044748
 20
5.4832673154
 10
5.7803022505
 20
5.4834057968
 10
5.7805545209
 20
5.4835535952
 10
5.780801222
 20
5.4837105132
 10
5.7810420245
 20
5.4838763411
 10
5.7812766066
 20
5.4840508574
 10
5.781504655
 20
5.4842338291
 10
5.7817258651
 20
5.4844250117
 10
5.7819399415
 20
5.48462415
 10
5.7821465981
 20
5.4848309778
 10
5.7823455591
 20
5.485045219
 10
5.7825365586
 20
5.4852665874
 10
5.7827193414
 20
5.4854947873
 10
5.7828936635
 20
5.4857295138
 10
5.7830592921
 20
5.4859704536
 10
5.7832160058
 20
5.4862172847
 10
5.7833635953
 20
5.4864696774
 10
5.7835018636
 20
5.4867272947
 10
5.7835219248
 20
5.4867666362
  0
LINE
  5
328
100
AcDbEntity
  8
0
100
AcDbLine
 62
7
  6
CONTINUOUS
 10
5.6575094682
 20
5.5153060308
 11
5.3236022849
 21
5.5123920669
  0
LINE
  5
329
100
AcDbEntity
  8
0
100
AcDbLine
 62
7
  6
CONTINUOUS
 10
5.6680753658
 20
5.4823808159
 11
5.776385047
 21
5.4823811332
  0
LINE
  5
32A
100
AcDbEntity
  8
0
100
AcDbLine
 62
7
  6
CONTINUOUS
 10
5.7667192888
 20
5.4837080601
 11
5.6776552605
 21
5.4837077992
  0
LINE
  5
32B
100
AcDbEntity
  8
0
100
AcDbLine
 62
7
  6
CONTINUOUS
 10
6.3836227687
 20
5.8730596397
 11
6.3836028635
 21
5.8731181897
  0
LINE
  5
32C
100
AcDbEntity
  8
0
100
AcDbLine
 62
7
  6
CONTINUOUS
 10
6.3836028635
 20
5.8731181897
 11
6.3835865939
 21
5.8731669324
  0
LINE
  5
32D
100
AcDbEntity
  8
0
100
AcDbLine
 62
7
  6
CONTINUOUS
 10
6.3835865939
 20
5.8731669324
 11
6.3835735291
 21
5.8732068878
  0
LWPOLYLINE
  5
32E
100
AcDbEntity
  8
0
100
AcDbPolyline
 62
7
  6
CONTINUOUS
 90
3
 70
0
 10
6.3835735291
 20
5.8732068878
 10
6.3835635545
 20
5.8732381107
 10
6.3835597214
 20
5.8732503517
  0
LINE
  5
32F
100
AcDbEntity
  8
0
100
AcDbLine
 62
7
  6
CONTINUOUS
 10
6.3835566133
 20
5.8732604205
 11
6.3835548785
 21
5.8732661156
  0
LINE
  5
330
100
AcDbEntity
  8
0
100
AcDbLine
 62
7
  6
CONTINUOUS
 10
6.3841337879
 20
5.8229858396
 11
6.3840878996
 21
5.8231360412
  0
LINE
  5
331
100
AcDbEntity
  8
0
100
AcDbLine
 62
7
  6
CONTINUOUS
 10
6.3840957462
 20
5.8231094724
 11
6.3840505232
 21
5.823268119
  0
LINE
  5
332
100
AcDbEntity
  8
0
100
AcDbLine
 62
7
  6
CONTINUOUS
 10
6.3840575937
 20
5.8232423891
 11
6.3840135231
 21
5.8234085246
  0
LINE
  5
333
100
AcDbEntity
  8
0
100
AcDbLine
 62
7
  6
CONTINUOUS
 10
6.3840197707
 20
5.8233840212
 11
6.3839771568
 21
5.8235571379
  0
LINE
  5
334
100
AcDbEntity
  8
0
100
AcDbLine
 62
7
  6
CONTINUOUS
 10
5.6776525821
 20
5.552716438
 11
5.7667166104
 21
5.552716699
  0
LINE
  5
335
100
AcDbEntity
  8
0
100
AcDbLine
 62
7
  6
CONTINUOUS
 10
5.6771739594
 20
5.5588683666
 11
5.7671949864
 21
5.5588686304
  0
LINE
  5
336
100
AcDbEntity
  8
0
100
AcDbLine
 62
7
  6
CONTINUOUS
 10
6.3476387791
 20
5.6797825407
 11
6.1436387791
 21
5.6797825407
  0
LINE
  5
337
100
AcDbEntity
  8
0
100
AcDbLine
 62
7
  6
CONTINUOUS
 10
6.0472225262
 20
5.6831226469
 11
6.0469055072
 21
5.683122646
  0
LINE
  5
338
100
AcDbEntity
  8
0
100
AcDbLine
 62
7
  6
CONTINUOUS
 10
6.2456387791
 20
5.6877825407
 11
6.1356387791
 21
5.6877825407
  0
LINE
  5
339
100
AcDbEntity
  8
0
100
AcDbLine
 62
7
  6
CONTINUOUS
 10
6.3863165608
 20
5.8662070557
 11
6.3856895039
 21
5.8677453353
  0
LINE
  5
33A
100
AcDbEntity
  8
0
100
AcDbLine
 62
7
  6
CONTINUOUS
 10
6.3857221967
 20
5.867664383
 11
6.3851147936
 21
5.8691738961
  0
LINE
  5
33B
100
AcDbEntity
  8
0
100
AcDbLine
 62
7
  6
CONTINUOUS
 10
6.3851648013
 20
5.8690486299
 11
6.3847013734
 21
5.8702150283
  0
LINE
  5
33C
100
AcDbEntity
  8
0
100
AcDbLine
 62
7
  6
CONTINUOUS
 10
6.3847085927
 20
5.8701967636
 11
6.3843916858
 21
5.871005533
  0
LINE
  5
33D
100
AcDbEntity
  8
0
100
AcDbLine
 62
7
  6
CONTINUOUS
 10
6.3844458174
 20
5.8708665833
 11
6.3842006939
 21
5.8714994807
  0
LINE
  5
33E
100
AcDbEntity
  8
0
100
AcDbLine
 62
7
  6
CONTINUOUS
 10
6.3842172948
 20
5.8714563245
 11
6.3840236115
 21
5.8719634201
  0
LINE
  5
33F
100
AcDbEntity
  8
0
100
AcDbLine
 62
7
  6
CONTINUOUS
 10
6.3840661
 20
5.8718513983
 11
6.3839406901
 21
5.8721833632
  0
LINE
  5
340
100
AcDbEntity
  8
0
100
AcDbLine
 62
7
  6
CONTINUOUS
 10
6.3839482628
 20
5.8721631912
 11
6.3838341876
 21
5.8724696201
  0
LWPOLYLINE
  5
341
100
AcDbEntity
  8
0
100
AcDbPolyline
 62
7
  6
CONTINUOUS
 90
4
 70
0
 10
6.3842023865
 20
5.8227830954
 10
6.3841987625
 20
5.8227929441
 10
6.3841623103
 20
5.8228984288
 10
6.3841252541
 20
5.8230128111
  0
LINE
  5
342
100
AcDbEntity
  8
0
100
AcDbLine
 62
7
  6
CONTINUOUS
 10
6.3838471066
 20
5.8724347328
 11
6.3837620791
 21
5.8726667803
  0
LINE
  5
343
100
AcDbEntity
  8
0
100
AcDbLine
 62
7
  6
CONTINUOUS
 10
6.3837743994
 20
5.8726327955
 11
6.3837085918
 21
5.8728151355
  0
LINE
  5
344
100
AcDbEntity
  8
0
100
AcDbLine
 62
7
  6
CONTINUOUS
 10
6.3837231103
 20
5.8727746441
 11
6.3836800464
 21
5.8728954321
  0
LINE
  5
345
100
AcDbEntity
  8
0
100
AcDbLine
 62
7
  6
CONTINUOUS
 10
6.3836800464
 20
5.8728954321
 11
6.3836471193
 21
5.8729891939
  0
LINE
  5
346
100
AcDbEntity
  8
0
100
AcDbLine
 62
7
  6
CONTINUOUS
 10
6.3836471193
 20
5.8729891939
 11
6.3836227687
 21
5.8730596397
  0
LINE
  5
347
100
AcDbEntity
  8
0
100
AcDbLine
 62
7
  6
CONTINUOUS
 10
6.3832559983
 20
5.8742630417
 11
6.3832129187
 21
5.874259229
  0
LINE
  5
348
100
AcDbEntity
  8
0
100
AcDbLine
 62
7
  6
CONTINUOUS
 10
6.389133259
 20
5.8372133814
 11
6.3842023724
 21
5.8367819847
  0
LINE
  5
349
100
AcDbEntity
  8
0
100
AcDbLine
 62
7
  6
CONTINUOUS
 10
6.3927222106
 20
5.8416959083
 11
6.3862844571
 21
5.8411326778
  0
LINE
  5
34A
100
AcDbEntity
  8
0
100
AcDbLine
 62
7
  6
CONTINUOUS
 10
6.1356387791
 20
5.7047825407
 11
6.0445834792
 21
5.7047825407
  0
LINE
  5
34B
100
AcDbEntity
  8
0
100
AcDbLine
 62
7
  6
CONTINUOUS
 10
5.7671920913
 20
5.7532935822
 11
5.6771710642
 21
5.7532933185
  0
LINE
  5
34C
100
AcDbEntity
  8
0
100
AcDbLine
 62
7
  6
CONTINUOUS
 10
6.2456387791
 20
5.7545825407
 11
6.3556387791
 21
5.7545825407
  0
LINE
  5
34D
100
AcDbEntity
  8
0
100
AcDbLine
 62
7
  6
CONTINUOUS
 10
5.7667135123
 20
5.760772466
 11
5.677649484
 21
5.7607722051
  0
LINE
  5
34E
100
AcDbEntity
  8
0
100
AcDbLine
 62
7
  6
CONTINUOUS
 10
6.3667185831
 20
5.7666351934
 11
6.3556387791
 21
5.7666351934
  0
LINE
  5
34F
100
AcDbEntity
  8
0
100
AcDbLine
 62
7
  6
CONTINUOUS
 10
5.4598667571
 20
5.7643381613
 11
5.4560173517
 21
5.7650301644
  0
LINE
  5
350
100
AcDbEntity
  8
0
100
AcDbLine
 62
7
  6
CONTINUOUS
 10
4.731541762
 20
5.8952683007
 11
4.7353911673
 21
5.8945762976
  0
LINE
  5
351
100
AcDbEntity
  8
0
100
AcDbLine
 62
7
  6
CONTINUOUS
 10
4.6708812296
 20
5.9193978646
 11
4.6670258178
 21
5.920210966
  0
LINE
  5
352
100
AcDbEntity
  8
0
100
AcDbLine
 62
7
  6
CONTINUOUS
 10
4.6708812296
 20
5.7402085974
 11
4.6670258178
 21
5.739395496
  0
LINE
  5
353
100
AcDbEntity
  8
0
100
AcDbLine
 62
7
  6
CONTINUOUS
 10
5.4598667571
 20
5.8952683007
 11
5.4560173517
 21
5.8945762976
  0
LINE
  5
354
100
AcDbEntity
  8
0
100
AcDbLine
 62
7
  6
CONTINUOUS
 10
4.731541762
 20
5.7643381613
 11
4.7353911673
 21
5.7650301644
  0
LINE
  5
355
100
AcDbEntity
  8
0
100
AcDbLine
 62
7
  6
CONTINUOUS
 10
6.3667185831
 20
5.8929298879
 11
6.3556387791
 21
5.8929298879
  0
LINE
  5
356
100
AcDbEntity
  8
0
100
AcDbLine
 62
7
  6
CONTINUOUS
 10
5.6776490796
 20
5.8987894828
 11
5.7667131079
 21
5.8987897437
  0
LINE
  5
357
100
AcDbEntity
  8
0
100
AcDbLine
 62
7
  6
CONTINUOUS
 10
6.2456387791
 20
5.9049825407
 11
6.3556387791
 21
5.9049825407
  0
LINE
  5
358
100
AcDbEntity
  8
0
100
AcDbLine
 62
7
  6
CONTINUOUS
 10
5.677170616
 20
5.9062683666
 11
5.7671916431
 21
5.9062686304
  0
LINE
  5
359
100
AcDbEntity
  8
0
100
AcDbLine
 62
7
  6
CONTINUOUS
 10
6.1356387791
 20
5.9547825407
 11
6.0445828595
 21
5.9547825407
  0
LINE
  5
35A
100
AcDbEntity
  8
0
100
AcDbLine
 62
7
  6
CONTINUOUS
 10
6.1356387791
 20
5.9717825407
 11
6.2456387791
 21
5.9717825407
  0
LINE
  5
35B
100
AcDbEntity
  8
0
100
AcDbLine
 62
7
  6
CONTINUOUS
 10
6.0469046478
 20
5.9764412056
 11
6.0472216668
 21
5.9764412065
  0
LINE
  5
35C
100
AcDbEntity
  8
0
100
AcDbLine
 62
7
  6
CONTINUOUS
 10
6.1436387791
 20
5.9797825407
 11
6.3476387791
 21
5.9797825407
  0
LINE
  5
35D
100
AcDbEntity
  8
0
100
AcDbLine
 62
7
  6
CONTINUOUS
 10
6.3842024612
 20
5.8227830888
 11
6.389133259
 21
5.8223516999
  0
LINE
  5
35E
100
AcDbEntity
  8
0
100
AcDbLine
 62
7
  6
CONTINUOUS
 10
6.3862844571
 20
5.8184324035
 11
6.3927222106
 21
5.817869173
  0
LINE
  5
35F
100
AcDbEntity
  8
0
100
AcDbLine
 62
7
  6
CONTINUOUS
 10
6.3832129187
 20
5.7853058523
 11
6.3832559983
 21
5.7853020396
  0
LWPOLYLINE
  5
360
100
AcDbEntity
  8
0
100
AcDbPolyline
 62
7
  6
CONTINUOUS
 90
17
 70
0
 10
6.384455435
 20
5.8222223007
 10
6.3844640807
 20
5.8222116219
 10
6.384467221
 20
5.8222075164
 10
6.3844652204
 20
5.8222103474
 10
6.3844586184
 20
5.8222201784
 10
6.3844477694
 20
5.8222372743
 10
6.3844329519
 20
5.8222619949
 10
6.384414508
 20
5.8222945767
 10
6.3843927582
 20
5.8223352651
 10
6.3843679812
 20
5.8223843614
 10
6.3843404187
 20
5.8224422385
 10
6.3843103411
 20
5.8225092173
 10
6.3842780868
 20
5.8225854566
 10
6.3842439916
 20
5.8226710888
 10
6.3842083119
 20
5.8227664298
 10
6.3841714148
 20
5.8228714893
 10
6.3841337879
 20
5.8229858396
  0
LINE
  5
361
100
AcDbEntity
  8
0
100
AcDbLine
 62
7
  6
CONTINUOUS
 10
5.7671933989
 20
6.1006935822
 11
5.6771723719
 21
6.1006933185
  0
LINE
  5
362
100
AcDbEntity
  8
0
100
AcDbLine
 62
7
  6
CONTINUOUS
 10
5.7667149869
 20
6.1068455108
 11
5.6776509585
 21
6.1068452499
  0
LINE
  5
363
100
AcDbEntity
  8
0
100
AcDbLine
 62
7
  6
CONTINUOUS
 10
5.6575076279
 20
6.1443004473
 11
5.285274099
 21
6.1475488801
  0
LINE
  5
364
100
AcDbEntity
  8
0
100
AcDbLine
 62
7
  6
CONTINUOUS
 10
5.6776532326
 20
6.1758538887
 11
5.7667172609
 21
6.1758541497
  0
LINE
  5
365
100
AcDbEntity
  8
0
100
AcDbLine
 62
7
  6
CONTINUOUS
 10
5.6680733301
 20
6.1771808159
 11
5.7763830124
 21
6.1771811332
  0
LINE
  5
366
100
AcDbEntity
  8
0
100
AcDbLine
 62
7
  6
CONTINUOUS
 10
5.210246828
 20
6.179803231
 11
4.981161691
 21
6.179803231
  0
LINE
  5
367
100
AcDbEntity
  8
0
100
AcDbLine
 62
7
  6
CONTINUOUS
 10
5.221296466
 20
6.248003231
 11
4.9701120531
 21
6.248003231
  0
LINE
  5
368
100
AcDbEntity
  8
0
100
AcDbLine
 62
7
  6
CONTINUOUS
 10
5.9722577143
 20
6.0959634963
 11
5.8348627019
 21
6.1314881581
  0
ARC
  5
369
100
AcDbEntity
  8
0
100
AcDbCircle
 62
7
  6
CONTINUOUS
 10
-14.0362627265
 20
-8.6459096073
 40
22.4207750649
100
AcDbArc
 50
30.1160254001
 51
30.2905351321
  0
ARC
  5
36A
100
AcDbEntity
  8
0
100
AcDbCircle
 62
7
  6
CONTINUOUS
 10
3.3223354025
 20
1.5133652846
 40
2.3039347644
100
AcDbArc
 50
28.6730519648
 51
29.700138254
  0
ARC
  5
36B
100
AcDbEntity
  8
0
100
AcDbCircle
 62
7
  6
CONTINUOUS
 10
3.4445002052
 20
1.5104134273
 40
2.1869557059
100
AcDbArc
 50
27.1859671705
 51
27.9033518925
  0
ARC
  5
36C
100
AcDbEntity
  8
0
100
AcDbCircle
 62
7
  6
CONTINUOUS
 10
5.0288722515
 20
2.4246456586
 40
0.153017878
100
AcDbArc
 50
212.5382572383
 51
212.7228424352
  0
ARC
  5
36D
100
AcDbEntity
  8
0
100
AcDbCircle
 62
7
  6
CONTINUOUS
 10
5.0163889706
 20
2.302482778
 40
0.1528297149
100
AcDbArc
 50
211.6791281856
 51
212.0526231496
  0
ARC
  5
36E
100
AcDbEntity
  8
0
100
AcDbCircle
 62
7
  6
CONTINUOUS
 10
5.0104311495
 20
2.2904647323
 40
0.1434717666
100
AcDbArc
 50
270.3543355914
 51
270.7630469135
  0
ARC
  5
36F
100
AcDbEntity
  8
0
100
AcDbCircle
 62
7
  6
CONTINUOUS
 10
5.0122884603
 20
2.2942256234
 40
0.1431155495
100
AcDbArc
 50
269.0614628096
 51
269.4533666819
  0
ARC
  5
370
100
AcDbEntity
  8
0
100
AcDbCircle
 62
7
  6
CONTINUOUS
 10
5.088939879
 20
2.4384646564
 40
0.2962934009
100
AcDbArc
 50
180.0018633271
 51
193.7165446349
  0
ARC
  5
371
100
AcDbEntity
  8
0
100
AcDbCircle
 62
7
  6
CONTINUOUS
 10
5.088939879
 20
2.4384453848
 40
0.2962934009
100
AcDbArc
 50
166.2834553651
 51
179.9981366729
  0
ARC
  5
372
100
AcDbEntity
  8
0
100
AcDbCircle
 62
7
  6
CONTINUOUS
 10
5.0896903798
 20
2.4509186795
 40
0.2563861202
100
AcDbArc
 50
178.8619149835
 51
179.9999297079
  0
ARC
  5
373
100
AcDbEntity
  8
0
100
AcDbCircle
 62
7
  6
CONTINUOUS
 10
5.0946532875
 20
2.56311409
 40
0.2268470533
100
AcDbArc
 50
179.9999954695
 51
180.9930637401
  0
ARC
  5
374
100
AcDbEntity
  8
0
100
AcDbCircle
 62
7
  6
CONTINUOUS
 10
5.0909033259
 20
2.5591799979
 40
0.223199075
100
AcDbArc
 50
178.3310334088
 51
178.9896032723
  0
ARC
  5
375
100
AcDbEntity
  8
0
100
AcDbCircle
 62
7
  6
CONTINUOUS
 10
5.0908331687
 20
2.5591811039
 40
0.2231289091
100
AcDbArc
 50
179.0060757351
 51
179.9999428141
  0
ARC
  5
376
100
AcDbEntity
  8
0
100
AcDbCircle
 62
7
  6
CONTINUOUS
 10
5.038949702
 20
2.4444813479
 40
0.1762585119
100
AcDbArc
 50
266.711854087
 51
266.8560001467
  0
ARC
  5
377
100
AcDbEntity
  8
0
100
AcDbCircle
 62
7
  6
CONTINUOUS
 10
4.9495749597
 20
2.4335222508
 40
0.1664267973
100
AcDbArc
 50
152.8021959759
 51
153.1453117201
  0
ARC
  5
378
100
AcDbEntity
  8
0
100
AcDbCircle
 62
7
  6
CONTINUOUS
 10
4.9536908541
 20
2.5340545238
 40
0.1389920196
100
AcDbArc
 50
152.9655097442
 51
153.8386142308
  0
ARC
  5
379
100
AcDbEntity
  8
0
100
AcDbCircle
 62
7
  6
CONTINUOUS
 10
4.9533067608
 20
2.5342492031
 40
0.138561408
100
AcDbArc
 50
152.8142954927
 51
152.965024546
  0
ARC
  5
37A
100
AcDbEntity
  8
0
100
AcDbCircle
 62
7
  6
CONTINUOUS
 10
4.9531341003
 20
2.5343380689
 40
0.1383672207
100
AcDbArc
 50
152.0666961231
 51
152.8143635589
  0
ARC
  5
37B
100
AcDbEntity
  8
0
100
AcDbCircle
 62
7
  6
CONTINUOUS
 10
4.9225474804
 20
2.4339553712
 40
0.1381053167
100
AcDbArc
 50
208.4288722551
 51
208.821054367
  0
ARC
  5
37C
100
AcDbEntity
  8
0
100
AcDbCircle
 62
7
  6
CONTINUOUS
 10
4.9528681593
 20
2.5344784542
 40
0.1380665009
100
AcDbArc
 50
151.8001639747
 51
152.0664683837
  0
ARC
  5
37D
100
AcDbEntity
  8
0
100
AcDbCircle
 62
7
  6
CONTINUOUS
 10
4.9526448219
 20
2.5345983661
 40
0.1378130084
100
AcDbArc
 50
151.1442139058
 51
151.8002226885
  0
ARC
  5
37E
100
AcDbEntity
  8
0
100
AcDbCircle
 62
7
  6
CONTINUOUS
 10
4.9523186524
 20
2.5347774482
 40
0.1374409109
100
AcDbArc
 50
150.7916907974
 51
151.1439784548
  0
ARC
  5
37F
100
AcDbEntity
  8
0
100
AcDbCircle
 62
7
  6
CONTINUOUS
 10
4.9519039356
 20
2.5350096542
 40
0.1369656114
100
AcDbArc
 50
149.877525295
 51
150.7918184761
  0
ARC
  5
380
100
AcDbEntity
  8
0
100
AcDbCircle
 62
7
  6
CONTINUOUS
 10
5.1626237068
 20
2.4245907228
 40
0.152914616
100
AcDbArc
 50
327.2767533273
 51
327.4614738633
  0
ARC
  5
381
100
AcDbEntity
  8
0
100
AcDbCircle
 62
7
  6
CONTINUOUS
 10
5.1750195483
 20
2.3024827781
 40
0.1528297151
100
AcDbArc
 50
327.9473768506
 51
328.3208718141
  0
ARC
  5
382
100
AcDbEntity
  8
0
100
AcDbCircle
 62
7
  6
CONTINUOUS
 10
5.1809773696
 20
2.2904647334
 40
0.1434717677
100
AcDbArc
 50
269.2369530882
 51
269.645664407
  0
ARC
  5
383
100
AcDbEntity
  8
0
100
AcDbCircle
 62
7
  6
CONTINUOUS
 10
5.1791200587
 20
2.2942256237
 40
0.1431155498
100
AcDbArc
 50
270.5466333184
 51
270.93853719
  0
ARC
  5
384
100
AcDbEntity
  8
0
100
AcDbCircle
 62
7
  6
CONTINUOUS
 10
5.1024686401
 20
2.4384646564
 40
0.2962934009
100
AcDbArc
 50
346.2834553652
 51
359.9981366728
  0
ARC
  5
385
100
AcDbEntity
  8
0
100
AcDbCircle
 62
7
  6
CONTINUOUS
 10
5.1024686401
 20
2.4384453848
 40
0.2962934009
100
AcDbArc
 50
0.0018633272
 51
13.7165446348
  0
ARC
  5
386
100
AcDbEntity
  8
0
100
AcDbCircle
 62
7
  6
CONTINUOUS
 10
5.1017181393
 20
2.4509186795
 40
0.2563861202
100
AcDbArc
 50
0.0000702921
 51
1.1380846872
  0
ARC
  5
387
100
AcDbEntity
  8
0
100
AcDbCircle
 62
7
  6
CONTINUOUS
 10
5.0967552316
 20
2.56311409
 40
0.2268470533
100
AcDbArc
 50
359.0069362599
 51
0.0000045305
  0
ARC
  5
388
100
AcDbEntity
  8
0
100
AcDbCircle
 62
7
  6
CONTINUOUS
 10
5.100505193
 20
2.5591799979
 40
0.2231990752
100
AcDbArc
 50
1.0103967243
 51
1.6689684836
  0
ARC
  5
389
100
AcDbEntity
  8
0
100
AcDbCircle
 62
7
  6
CONTINUOUS
 10
5.1005753502
 20
2.5591811039
 40
0.2231289094
100
AcDbArc
 50
0.0000571857
 51
0.993922696
  0
ARC
  5
38A
100
AcDbEntity
  8
0
100
AcDbCircle
 62
7
  6
CONTINUOUS
 10
5.1524470289
 20
2.4447045448
 40
0.1764820194
100
AcDbArc
 50
273.1438469736
 51
273.2878066634
  0
ARC
  5
38B
100
AcDbEntity
  8
0
100
AcDbCircle
 62
7
  6
CONTINUOUS
 10
5.2418335597
 20
2.4335222509
 40
0.166426797
100
AcDbArc
 50
26.8546882796
 51
27.1978040244
  0
ARC
  5
38C
100
AcDbEntity
  8
0
100
AcDbCircle
 62
7
  6
CONTINUOUS
 10
5.2378042915
 20
2.5340979361
 40
0.1388951266
100
AcDbArc
 50
26.1740359943
 51
27.0092006539
  0
ARC
  5
38D
100
AcDbEntity
  8
0
100
AcDbCircle
 62
7
  6
CONTINUOUS
 10
5.238095126
 20
2.5342458074
 40
0.1385688591
100
AcDbArc
 50
27.0093388268
 51
27.1932998557
  0
ARC
  5
38E
100
AcDbEntity
  8
0
100
AcDbCircle
 62
7
  6
CONTINUOUS
 10
5.2383269003
 20
2.5343654768
 40
0.1383080146
100
AcDbArc
 50
27.1930832557
 51
27.9221303301
  0
ARC
  5
38F
100
AcDbEntity
  8
0
100
AcDbCircle
 62
7
  6
CONTINUOUS
 10
5.2385395752
 20
2.5344780397
 40
0.1380673884
100
AcDbArc
 50
27.9221845214
 51
28.2075710122
  0
ARC
  5
390
100
AcDbEntity
  8
0
100
AcDbCircle
 62
7
  6
CONTINUOUS
 10
5.2688986114
 20
2.4339348647
 40
0.1380625124
100
AcDbArc
 50
331.1788848375
 51
331.5711885403
  0
ARC
  5
391
100
AcDbEntity
  8
0
100
AcDbCircle
 62
7
  6
CONTINUOUS
 10
5.238829167
 20
2.5346339701
 40
0.137738485
100
AcDbArc
 50
28.2073498703
 51
28.8534671394
  0
ARC
  5
392
100
AcDbEntity
  8
0
100
AcDbCircle
 62
7
  6
CONTINUOUS
 10
5.2391319665
 20
2.5348008128
 40
0.1373927625
100
AcDbArc
 50
28.8534638035
 51
29.2165106636
  0
ARC
  5
393
100
AcDbEntity
  8
0
100
AcDbCircle
 62
7
  6
CONTINUOUS
 10
5.2396237044
 20
2.5350775084
 40
0.1368285246
100
AcDbArc
 50
29.2158942629
 51
30.1229308637
  0
ARC
  5
394
100
AcDbEntity
  8
0
100
AcDbCircle
 62
7
  6
CONTINUOUS
 10
4.8242363992
 20
5.5277617718
 40
0.032
100
AcDbArc
 50
209.98030968
 51
228.0515311765
  0
ARC
  5
395
100
AcDbEntity
  8
0
100
AcDbCircle
 62
7
  6
CONTINUOUS
 10
4.8775794654
 20
5.5716064569
 40
0.032
100
AcDbArc
 50
210.0
 51
229.8088556384
  0
ARC
  5
396
100
AcDbEntity
  8
0
100
AcDbCircle
 62
7
  6
CONTINUOUS
 10
4.8748538597
 20
5.5683748912
 40
0.023861415
100
AcDbArc
 50
209.6382514976
 51
229.8007426905
  0
ARC
  5
397
100
AcDbEntity
  8
0
100
AcDbCircle
 62
7
  6
CONTINUOUS
 10
4.8213700106
 20
5.5245686747
 40
0.0237688542
100
AcDbArc
 50
209.6144499911
 51
228.0452687285
  0
ARC
  5
398
100
AcDbEntity
  8
0
100
AcDbCircle
 62
7
  6
CONTINUOUS
 10
4.6983370583
 20
5.7459989966
 40
0.032
100
AcDbArc
 50
191.9090881835
 51
209.98030968
  0
ARC
  5
399
100
AcDbEntity
  8
0
100
AcDbCircle
 62
7
  6
CONTINUOUS
 10
4.7630368969
 20
5.7700000051
 40
0.032
100
AcDbArc
 50
190.1911443616
 51
210.0
  0
ARC
  5
39A
100
AcDbEntity
  8
0
100
AcDbCircle
 62
7
  6
CONTINUOUS
 10
4.7588754493
 20
5.7692553392
 40
0.0238613896
100
AcDbArc
 50
190.1992567982
 51
210.3617705298
  0
ARC
  5
39B
100
AcDbEntity
  8
0
100
AcDbCircle
 62
7
  6
CONTINUOUS
 10
4.6941379447
 20
5.7451160625
 40
0.0237688454
100
AcDbArc
 50
191.9153471847
 51
210.3461728155
  0
ARC
  5
39C
100
AcDbEntity
  8
0
100
AcDbCircle
 62
7
  6
CONTINUOUS
 10
5.0957042595
 20
5.829803231
 40
0.4381081658
100
AcDbArc
 50
301.3454682168
 51
311.9484688235
  0
ARC
  5
39D
100
AcDbEntity
  8
0
100
AcDbCircle
 62
7
  6
CONTINUOUS
 10
5.0957042595
 20
5.829803231
 40
0.4381081658
100
AcDbArc
 50
108.0145209045
 51
131.9484688235
  0
ARC
  5
39E
100
AcDbEntity
  8
0
100
AcDbCircle
 62
7
  6
CONTINUOUS
 10
5.0957042595
 20
5.829803231
 40
0.4381081658
100
AcDbArc
 50
168.0909118165
 51
191.9090881835
  0
ARC
  5
39F
100
AcDbEntity
  8
0
100
AcDbCircle
 62
7
  6
CONTINUOUS
 10
5.0957042595
 20
5.829803231
 40
0.4381081658
100
AcDbArc
 50
228.0515311765
 51
238.6545317832
  0
ARC
  5
3A0
100
AcDbEntity
  8
0
100
AcDbCircle
 62
7
  6
CONTINUOUS
 10
5.0957042595
 20
5.829803231
 40
0.4381081658
100
AcDbArc
 50
48.0515311765
 51
71.9854790955
  0
ARC
  5
3A1
100
AcDbEntity
  8
0
100
AcDbCircle
 62
7
  6
CONTINUOUS
 10
5.0957042595
 20
5.829803231
 40
0.4341679458
100
AcDbArc
 50
301.6623474939
 51
311.9484688235
  0
ARC
  5
3A2
100
AcDbEntity
  8
0
100
AcDbCircle
 62
7
  6
CONTINUOUS
 10
5.0957042595
 20
5.829803231
 40
0.4341679458
100
AcDbArc
 50
228.0515311765
 51
238.3376525061
  0
ARC
  5
3A3
100
AcDbEntity
  8
0
100
AcDbCircle
 62
7
  6
CONTINUOUS
 10
5.0957042595
 20
5.829803231
 40
0.4341679458
100
AcDbArc
 50
108.0145209045
 51
131.9484688235
  0
ARC
  5
3A4
100
AcDbEntity
  8
0
100
AcDbCircle
 62
7
  6
CONTINUOUS
 10
5.0957042595
 20
5.829803231
 40
0.4341679458
100
AcDbArc
 50
48.0515311765
 51
71.9854790955
  0
ARC
  5
3A5
100
AcDbEntity
  8
0
100
AcDbCircle
 62
7
  6
CONTINUOUS
 10
5.0957042595
 20
5.829803231
 40
0.4341679458
100
AcDbArc
 50
168.0909118165
 51
191.9090881835
  0
ARC
  5
3A6
100
AcDbEntity
  8
0
100
AcDbCircle
 62
7
  6
CONTINUOUS
 10
5.0957042595
 20
5.829803231
 40
0.3828
100
AcDbArc
 50
56.050336226
 51
233.46154846
  0
ARC
  5
3A7
100
AcDbEntity
  8
0
100
AcDbCircle
 62
7
  6
CONTINUOUS
 10
5.0957042595
 20
5.829803231
 40
0.37
100
AcDbArc
 50
49.8088556384
 51
70.1911443616
  0
ARC
  5
3A8
100
AcDbEntity
  8
0
100
AcDbCircle
 62
7
  6
CONTINUOUS
 10
5.0957042595
 20
5.829803231
 40
0.37
100
AcDbArc
 50
349.8088556384
 51
10.1911443616
  0
ARC
  5
3A9
100
AcDbEntity
  8
0
100
AcDbCircle
 62
7
  6
CONTINUOUS
 10
5.0957042595
 20
5.829803231
 40
0.37
100
AcDbArc
 50
169.8088556384
 51
190.1911443616
  0
ARC
  5
3AA
100
AcDbEntity
  8
0
100
AcDbCircle
 62
7
  6
CONTINUOUS
 10
5.0957042595
 20
5.829803231
 40
0.37
100
AcDbArc
 50
308.0215148508
 51
310.1911443616
  0
ARC
  5
3AB
100
AcDbEntity
  8
0
100
AcDbCircle
 62
7
  6
CONTINUOUS
 10
5.0957042595
 20
5.829803231
 40
0.37
100
AcDbArc
 50
229.8088556384
 51
231.9784851492
  0
ARC
  5
3AC
100
AcDbEntity
  8
0
100
AcDbCircle
 62
7
  6
CONTINUOUS
 10
5.0957042595
 20
5.829803231
 40
0.37
100
AcDbArc
 50
109.8088556384
 51
130.1911443616
  0
ARC
  5
3AD
100
AcDbEntity
  8
0
100
AcDbCircle
 62
7
  6
CONTINUOUS
 10
5.0957042595
 20
5.829803231
 40
0.3660888889
100
AcDbArc
 50
308.5005130742
 51
310.1911443616
  0
ARC
  5
3AE
100
AcDbEntity
  8
0
100
AcDbCircle
 62
7
  6
CONTINUOUS
 10
5.0957042595
 20
5.829803231
 40
0.3660888889
100
AcDbArc
 50
169.8088556384
 51
190.1911443616
  0
ARC
  5
3AF
100
AcDbEntity
  8
0
100
AcDbCircle
 62
7
  6
CONTINUOUS
 10
5.0957042595
 20
5.829803231
 40
0.3660888889
100
AcDbArc
 50
109.8088556384
 51
130.1911443616
  0
ARC
  5
3B0
100
AcDbEntity
  8
0
100
AcDbCircle
 62
7
  6
CONTINUOUS
 10
5.0957042595
 20
5.829803231
 40
0.3660888889
100
AcDbArc
 50
49.8088556384
 51
70.1911443616
  0
ARC
  5
3B1
100
AcDbEntity
  8
0
100
AcDbCircle
 62
7
  6
CONTINUOUS
 10
5.0957042595
 20
5.829803231
 40
0.3660888889
100
AcDbArc
 50
349.8088556384
 51
10.1911443616
  0
ARC
  5
3B2
100
AcDbEntity
  8
0
100
AcDbCircle
 62
7
  6
CONTINUOUS
 10
5.0957042595
 20
5.829803231
 40
0.3660888889
100
AcDbArc
 50
229.8088556384
 51
231.4994869258
  0
ARC
  5
3B3
100
AcDbEntity
  8
0
100
AcDbCircle
 62
7
  6
CONTINUOUS
 10
5.0957042595
 20
5.829803231
 40
0.3548302996
100
AcDbArc
 50
80.5435172128
 51
99.4564827872
  0
ARC
  5
3B4
100
AcDbEntity
  8
0
100
AcDbCircle
 62
7
  6
CONTINUOUS
 10
5.0957042595
 20
5.829803231
 40
0.3548302996
100
AcDbArc
 50
140.5435061006
 51
159.4564221467
  0
ARC
  5
3B5
100
AcDbEntity
  8
0
100
AcDbCircle
 62
7
  6
CONTINUOUS
 10
5.0957042595
 20
5.829803231
 40
0.3548302996
100
AcDbArc
 50
200.5435778533
 51
219.4564938994
  0
ARC
  5
3B6
100
AcDbEntity
  8
0
100
AcDbCircle
 62
7
  6
CONTINUOUS
 10
5.0957042595
 20
5.829803231
 40
0.3271110635
100
AcDbArc
 50
314.1638275839
 51
225.8361724161
  0
ARC
  5
3B7
100
AcDbEntity
  8
0
100
AcDbCircle
 62
7
  6
CONTINUOUS
 10
5.0957042595
 20
5.829803231
 40
0.2986
100
AcDbArc
 50
319.7511512773
 51
220.2488487227
  0
ARC
  5
3B8
100
AcDbEntity
  8
0
100
AcDbCircle
 62
7
  6
CONTINUOUS
 10
5.0957042595
 20
5.829803231
 40
0.2884
100
AcDbArc
 50
322.2077464192
 51
217.7922535808
  0
ARC
  5
3B9
100
AcDbEntity
  8
0
100
AcDbCircle
 62
7
  6
CONTINUOUS
 10
5.0957042595
 20
5.829803231
 40
0.272
100
AcDbArc
 50
326.9173492488
 51
213.0826507775
  0
ARC
  5
3BA
100
AcDbEntity
  8
0
100
AcDbCircle
 62
7
  6
CONTINUOUS
 10
5.0957042595
 20
5.829803231
 40
0.26
100
AcDbArc
 50
331.2290570685
 51
208.7709429315
  0
ARC
  5
3BB
100
AcDbEntity
  8
0
100
AcDbCircle
 62
7
  6
CONTINUOUS
 10
5.0957042595
 20
5.829803231
 40
0.256
100
AcDbArc
 50
332.9077415573
 51
207.0922584427
  0
ARC
  5
3BC
100
AcDbEntity
  8
0
100
AcDbCircle
 62
7
  6
CONTINUOUS
 10
5.0957042595
 20
5.829803231
 40
0.244
100
AcDbArc
 50
339.076557805
 51
200.9234421949
  0
ARC
  5
3BD
100
AcDbEntity
  8
0
100
AcDbCircle
 62
7
  6
CONTINUOUS
 10
5.0998896218
 20
5.8298037674
 40
0.2320833875
100
AcDbArc
 50
177.0147640759
 51
179.9871188179
  0
ARC
  5
3BE
100
AcDbEntity
  8
0
100
AcDbCircle
 62
7
  6
CONTINUOUS
 10
5.0915192403
 20
5.8298037775
 40
0.2320830444
100
AcDbArc
 50
0.0196011293
 51
2.9852378297
  0
ARC
  5
3BF
100
AcDbEntity
  8
0
100
AcDbCircle
 62
7
  6
CONTINUOUS
 10
5.1485764032
 20
5.821402288
 40
0.308451476
100
AcDbArc
 50
29.1599582799
 51
30.7608714773
  0
ARC
  5
3C0
100
AcDbEntity
  8
0
100
AcDbCircle
 62
7
  6
CONTINUOUS
 10
5.1490427683
 20
5.8379351133
 40
0.3079131145
100
AcDbArc
 50
329.2566718565
 51
330.9008650546
  0
ARC
  5
3C1
100
AcDbEntity
  8
0
100
AcDbCircle
 62
7
  6
CONTINUOUS
 10
5.221296466
 20
6.216003231
 40
0.032
100
AcDbArc
 50
71.9854790955
 51
90.0
  0
ARC
  5
3C2
100
AcDbEntity
  8
0
100
AcDbCircle
 62
7
  6
CONTINUOUS
 10
4.9701120531
 20
6.216003231
 40
0.032
100
AcDbArc
 50
90.0
 51
108.0145209045
  0
ARC
  5
3C3
100
AcDbEntity
  8
0
100
AcDbCircle
 62
7
  6
CONTINUOUS
 10
4.8242363992
 20
6.1318446902
 40
0.032
100
AcDbArc
 50
131.9484688235
 51
150.01969032
  0
ARC
  5
3C4
100
AcDbEntity
  8
0
100
AcDbCircle
 62
7
  6
CONTINUOUS
 10
4.6983370583
 20
5.9136074654
 40
0.032
100
AcDbArc
 50
150.01969032
 51
168.0909118165
  0
ARC
  5
3C5
100
AcDbEntity
  8
0
100
AcDbCircle
 62
7
  6
CONTINUOUS
 10
4.7630368969
 20
5.8896064569
 40
0.032
100
AcDbArc
 50
150.0
 51
169.8088556384
  0
ARC
  5
3C6
100
AcDbEntity
  8
0
100
AcDbCircle
 62
7
  6
CONTINUOUS
 10
4.8775794654
 20
6.0880000051
 40
0.032
100
AcDbArc
 50
130.1911443616
 51
150.0
  0
ARC
  5
3C7
100
AcDbEntity
  8
0
100
AcDbCircle
 62
7
  6
CONTINUOUS
 10
4.981161691
 20
6.147803231
 40
0.032
100
AcDbArc
 50
90.0
 51
109.8088556384
  0
ARC
  5
3C8
100
AcDbEntity
  8
0
100
AcDbCircle
 62
7
  6
CONTINUOUS
 10
5.210246828
 20
6.147803231
 40
0.032
100
AcDbArc
 50
70.1911443616
 51
90.0
  0
ARC
  5
3C9
100
AcDbEntity
  8
0
100
AcDbCircle
 62
7
  6
CONTINUOUS
 10
5.2116826523
 20
6.1517794834
 40
0.0238613895
100
AcDbArc
 50
70.1992570013
 51
90.3617708708
  0
ARC
  5
3CA
100
AcDbEntity
  8
0
100
AcDbCircle
 62
7
  6
CONTINUOUS
 10
4.8748538405
 20
6.0912315947
 40
0.0238613856
100
AcDbArc
 50
130.1992591757
 51
150.3617755842
  0
ARC
  5
3CB
100
AcDbEntity
  8
0
100
AcDbCircle
 62
7
  6
CONTINUOUS
 10
4.7588754436
 20
5.8903511259
 40
0.0238613833
100
AcDbArc
 50
149.6382289414
 51
169.8007480819
  0
ARC
  5
3CC
100
AcDbEntity
  8
0
100
AcDbCircle
 62
7
  6
CONTINUOUS
 10
4.9797258666
 20
6.1517794899
 40
0.0238613833
100
AcDbArc
 50
89.6382286275
 51
109.8007478657
  0
ARC
  5
3CD
100
AcDbEntity
  8
0
100
AcDbCircle
 62
7
  6
CONTINUOUS
 10
4.694137953
 20
5.9144903963
 40
0.0237688542
100
AcDbArc
 50
149.6538306311
 51
168.0846493686
  0
ARC
  5
3CE
100
AcDbEntity
  8
0
100
AcDbCircle
 62
7
  6
CONTINUOUS
 10
4.8213700037
 20
6.1350377929
 40
0.0237688454
100
AcDbArc
 50
131.9547278247
 51
150.3855534558
  0
ARC
  5
3CF
100
AcDbEntity
  8
0
100
AcDbCircle
 62
7
  6
CONTINUOUS
 10
5.2226259627
 20
6.2200830659
 40
0.0237687887
100
AcDbArc
 50
71.9917482845
 51
90.3647162043
  0
ARC
  5
3D0
100
AcDbEntity
  8
0
100
AcDbCircle
 62
7
  6
CONTINUOUS
 10
4.9687825304
 20
6.2200832335
 40
0.0237686213
100
AcDbArc
 50
89.6352185378
 51
108.0083169734
  0
ARC
  5
3D1
100
AcDbEntity
  8
0
100
AcDbCircle
 62
7
  6
CONTINUOUS
 10
5.7497477898
 20
5.5722069022
 40
0.6011946214
100
AcDbArc
 50
86.8952900409
 51
87.672014632
  0
ARC
  5
3D2
100
AcDbEntity
  8
0
100
AcDbCircle
 62
7
  6
CONTINUOUS
 10
5.6311109388
 20
5.8297807076
 40
0.4412
100
AcDbArc
 50
325.3133927072
 51
340.5850514275
  0
ARC
  5
3D3
100
AcDbEntity
  8
0
100
AcDbCircle
 62
7
  6
CONTINUOUS
 10
5.6311109388
 20
5.8297807076
 40
0.4412
100
AcDbArc
 50
19.4152843139
 51
34.6869430341
  0
ARC
  5
3D4
100
AcDbEntity
  8
0
100
AcDbCircle
 62
7
  6
CONTINUOUS
 10
5.3671721199
 20
5.5277617718
 40
0.032
100
AcDbArc
 50
311.9484688235
 51
330.01969032
  0
ARC
  5
3D5
100
AcDbEntity
  8
0
100
AcDbCircle
 62
7
  6
CONTINUOUS
 10
5.3138290537
 20
5.5716064569
 40
0.032
100
AcDbArc
 50
310.1911443616
 51
330.0
  0
ARC
  5
3D6
100
AcDbEntity
  8
0
100
AcDbCircle
 62
7
  6
CONTINUOUS
 10
5.4283716222
 20
5.7700000051
 40
0.032
100
AcDbArc
 50
330.0
 51
349.8088556384
  0
ARC
  5
3D7
100
AcDbEntity
  8
0
100
AcDbCircle
 62
7
  6
CONTINUOUS
 10
5.3165546785
 20
5.5683748671
 40
0.0238613856
100
AcDbArc
 50
310.1992594896
 51
330.361775988
  0
ARC
  5
3D8
100
AcDbEntity
  8
0
100
AcDbCircle
 62
7
  6
CONTINUOUS
 10
5.4325330754
 20
5.769255336
 40
0.0238613833
100
AcDbArc
 50
329.6382292022
 51
349.8007482629
  0
ARC
  5
3D9
100
AcDbEntity
  8
0
100
AcDbCircle
 62
7
  6
CONTINUOUS
 10
5.3700385154
 20
5.5245686691
 40
0.0237688454
100
AcDbArc
 50
311.9547278247
 51
330.3855534553
  0
ARC
  5
3DA
100
AcDbEntity
  8
0
100
AcDbCircle
 62
7
  6
CONTINUOUS
 10
5.6680753424
 20
5.4903808159
 40
0.008
100
AcDbArc
 50
204.0882028076
 51
270.0001678707
  0
ARC
  5
3DB
100
AcDbEntity
  8
0
100
AcDbCircle
 62
7
  6
CONTINUOUS
 10
5.7750495339
 20
5.4903663319
 40
0.0079854753
100
AcDbArc
 50
270.0260274016
 51
335.4094094261
  0
ARC
  5
3DC
100
AcDbEntity
  8
0
100
AcDbCircle
 62
7
  6
CONTINUOUS
 10
5.7497586625
 20
6.0870942755
 40
0.6009334012
100
AcDbArc
 50
272.3281522298
 51
273.105214461
  0
ARC
  5
3DD
100
AcDbEntity
  8
0
100
AcDbCircle
 62
7
  6
CONTINUOUS
 10
5.3671721199
 20
6.1318446902
 40
0.032
100
AcDbArc
 50
29.98030968
 51
48.0515311765
  0
ARC
  5
3DE
100
AcDbEntity
  8
0
100
AcDbCircle
 62
7
  6
CONTINUOUS
 10
5.3138290537
 20
6.0880000051
 40
0.032
100
AcDbArc
 50
30.0
 51
49.8088556384
  0
ARC
  5
3DF
100
AcDbEntity
  8
0
100
AcDbCircle
 62
7
  6
CONTINUOUS
 10
5.4283716222
 20
5.8896064569
 40
0.032
100
AcDbArc
 50
10.1911443616
 51
30.0
  0
ARC
  5
3E0
100
AcDbEntity
  8
0
100
AcDbCircle
 62
7
  6
CONTINUOUS
 10
5.3165546594
 20
6.0912315706
 40
0.023861415
100
AcDbArc
 50
29.6382519541
 51
49.8007430477
  0
ARC
  5
3E1
100
AcDbEntity
  8
0
100
AcDbCircle
 62
7
  6
CONTINUOUS
 10
5.4325330699
 20
5.8903511227
 40
0.0238613896
100
AcDbArc
 50
10.1992569858
 51
30.3617707934
  0
ARC
  5
3E2
100
AcDbEntity
  8
0
100
AcDbCircle
 62
7
  6
CONTINUOUS
 10
5.3700385085
 20
6.1350377873
 40
0.0237688542
100
AcDbArc
 50
29.6144499911
 51
48.0452687286
  0
ARC
  5
3E3
100
AcDbEntity
  8
0
100
AcDbCircle
 62
7
  6
CONTINUOUS
 10
5.6680733535
 20
6.1691808159
 40
0.008
100
AcDbArc
 50
90.0001678707
 51
155.9121329331
  0
ARC
  5
3E4
100
AcDbEntity
  8
0
100
AcDbCircle
 62
7
  6
CONTINUOUS
 10
5.7750475445
 20
6.169195926
 40
0.0079854757
100
AcDbArc
 50
24.5909298764
 51
89.9743053095
  0
ARC
  5
3E5
100
AcDbEntity
  8
0
100
AcDbCircle
 62
7
  6
CONTINUOUS
 10
6.8681511039
 20
1.5138802692
 40
2.3028787212
100
AcDbArc
 50
150.2996256657
 51
151.3271829353
  0
ARC
  5
3E6
100
AcDbEntity
  8
0
100
AcDbCircle
 62
7
  6
CONTINUOUS
 10
6.6263849922
 20
1.5732744335
 40
2.0510270362
100
AcDbArc
 50
152.0728909007
 51
152.8378318926
  0
ARC
  5
3E7
100
AcDbEntity
  8
0
100
AcDbCircle
 62
7
  6
CONTINUOUS
 10
5.8689174183
 20
5.5801723264
 40
0.228
100
AcDbArc
 50
201.9949150407
 51
204.0882330598
  0
ARC
  5
3E8
100
AcDbEntity
  8
0
100
AcDbCircle
 62
7
  6
CONTINUOUS
 10
5.8548910417
 20
5.4506216498
 40
0.08
100
AcDbArc
 50
104.4971678677
 51
153.140003975
  0
ARC
  5
3E9
100
AcDbEntity
  8
0
100
AcDbCircle
 62
7
  6
CONTINUOUS
 10
5.9627876167
 20
5.6002315693
 40
0.0378363606
100
AcDbArc
 50
284.4971678677
 51
325.3133927072
  0
ARC
  5
3EA
100
AcDbEntity
  8
0
100
AcDbCircle
 62
7
  6
CONTINUOUS
 10
6.039354715
 20
5.6857818808
 40
0.0080053677
100
AcDbArc
 50
340.5987775905
 51
32.2322041984
  0
ARC
  5
3EB
100
AcDbEntity
  8
0
100
AcDbCircle
 62
7
  6
CONTINUOUS
 10
6.0396774385
 20
5.6857819046
 40
0.008
100
AcDbArc
 50
340.5850514313
 51
37.6574267317
  0
ARC
  5
3EC
100
AcDbEntity
  8
0
100
AcDbCircle
 62
7
  6
CONTINUOUS
 10
5.8689159557
 20
6.0793904822
 40
0.228
100
AcDbArc
 50
155.9121026816
 51
158.0054207007
  0
ARC
  5
3ED
100
AcDbEntity
  8
0
100
AcDbCircle
 62
7
  6
CONTINUOUS
 10
5.8548888199
 20
6.2089410767
 40
0.08
100
AcDbArc
 50
206.8603317664
 51
255.5031678737
  0
ARC
  5
3EE
100
AcDbEntity
  8
0
100
AcDbCircle
 62
7
  6
CONTINUOUS
 10
5.9627862715
 20
6.0593317894
 40
0.0378363606
100
AcDbArc
 50
34.6869430341
 51
75.5031678737
  0
ARC
  5
3EF
100
AcDbEntity
  8
0
100
AcDbCircle
 62
7
  6
CONTINUOUS
 10
6.0393538714
 20
5.973781929
 40
0.0080053677
100
AcDbArc
 50
327.7676923561
 51
19.4015426109
  0
ARC
  5
3F0
100
AcDbEntity
  8
0
100
AcDbCircle
 62
7
  6
CONTINUOUS
 10
6.0396765947
 20
5.9737819046
 40
0.008
100
AcDbArc
 50
322.3429974047
 51
19.41528431
  0
ARC
  5
3F1
100
AcDbEntity
  8
0
100
AcDbCircle
 62
7
  6
CONTINUOUS
 10
6.2974490865
 20
5.829780898
 40
0.096014881
100
AcDbArc
 50
352.5335628854
 51
352.8734533363
  0
ARC
  5
3F2
100
AcDbEntity
  8
0
100
AcDbCircle
 62
7
  6
CONTINUOUS
 10
6.2975046362
 20
5.829770662
 40
0.0959584443
100
AcDbArc
 50
337.6971123487
 51
352.5353127876
  0
ARC
  5
3F3
100
AcDbEntity
  8
0
100
AcDbCircle
 62
7
  6
CONTINUOUS
 10
6.2975435448
 20
5.8297716786
 40
0.0959510755
100
AcDbArc
 50
337.6971355751
 51
352.8751444382
  0
ARC
  5
3F4
100
AcDbEntity
  8
0
100
AcDbCircle
 62
7
  6
CONTINUOUS
 10
6.3667185831
 20
5.7746351934
 40
0.008
100
AcDbArc
 50
270.0
 51
321.0571544355
  0
ARC
  5
3F5
100
AcDbEntity
  8
0
100
AcDbCircle
 62
7
  6
CONTINUOUS
 10
6.3476387791
 20
5.6877825407
 40
0.008
100
AcDbArc
 50
270.0
 51
360.0
  0
ARC
  5
3F6
100
AcDbEntity
  8
0
100
AcDbCircle
 62
7
  6
CONTINUOUS
 10
6.1436387791
 20
5.6877825407
 40
0.008
100
AcDbArc
 50
180.0
 51
270.0
  0
ARC
  5
3F7
100
AcDbEntity
  8
0
100
AcDbCircle
 62
7
  6
CONTINUOUS
 10
6.2536387791
 20
5.6877825407
 40
0.008
100
AcDbArc
 50
180.0
 51
270.0
  0
ARC
  5
3F8
100
AcDbEntity
  8
0
100
AcDbCircle
 62
7
  6
CONTINUOUS
 10
6.2461527036
 20
5.6844906491
 40
0.0047081085
100
AcDbArc
 50
264.4116946031
 51
269.9938874557
  0
ARC
  5
3F9
100
AcDbEntity
  8
0
100
AcDbCircle
 62
7
  6
CONTINUOUS
 10
6.388717292
 20
5.8183726613
 40
0.0040364432
100
AcDbArc
 50
352.8345115431
 51
0.4691483102
  0
ARC
  5
3FA
100
AcDbEntity
  8
0
100
AcDbCircle
 62
7
  6
CONTINUOUS
 10
6.379669281
 20
5.7871643056
 40
0.0040014018
100
AcDbArc
 50
332.3253311208
 51
349.8426271084
  0
ARC
  5
3FB
100
AcDbEntity
  8
0
100
AcDbCircle
 62
7
  6
CONTINUOUS
 10
6.3797139491
 20
5.7871605034
 40
0.004
100
AcDbArc
 50
332.3153068088
 51
353.1287871998
  0
ARC
  5
3FC
100
AcDbEntity
  8
0
100
AcDbCircle
 62
7
  6
CONTINUOUS
 10
6.388784636
 20
5.8183669211
 40
0.004
100
AcDbArc
 50
352.8734298103
 51
84.9999252659
  0
ARC
  5
3FD
100
AcDbEntity
  8
0
100
AcDbCircle
 62
7
  6
CONTINUOUS
 10
6.3887902446
 20
5.8184316926
 40
0.0039349862
100
AcDbArc
 50
79.9111164271
 51
84.9991552408
  0
ARC
  5
3FE
100
AcDbEntity
  8
0
100
AcDbCircle
 62
7
  6
CONTINUOUS
 10
6.2974489614
 20
5.8297841681
 40
0.096015007
100
AcDbArc
 50
7.1265464063
 51
7.4514683224
  0
ARC
  5
3FF
100
AcDbEntity
  8
0
100
AcDbCircle
 62
7
  6
CONTINUOUS
 10
6.2975045717
 20
5.8297943998
 40
0.0959585115
100
AcDbArc
 50
7.4497168563
 51
22.3028837988
  0
ARC
  5
400
100
AcDbEntity
  8
0
100
AcDbCircle
 62
7
  6
CONTINUOUS
 10
6.2975435447
 20
5.8297934028
 40
0.0959510755
100
AcDbArc
 50
7.1248555127
 51
22.3028643568
  0
ARC
  5
401
100
AcDbEntity
  8
0
100
AcDbCircle
 62
7
  6
CONTINUOUS
 10
6.2984782075
 20
5.8297825407
 40
0.0957381261
100
AcDbArc
 50
321.0571544355
 51
332.3153068088
  0
ARC
  5
402
100
AcDbEntity
  8
0
100
AcDbCircle
 62
7
  6
CONTINUOUS
 10
6.2984782075
 20
5.8297825407
 40
0.0957381261
100
AcDbArc
 50
27.6846931912
 51
38.9428455645
  0
ARC
  5
403
100
AcDbEntity
  8
0
100
AcDbCircle
 62
7
  6
CONTINUOUS
 10
6.2947279506
 20
5.8297825407
 40
0.088985988
100
AcDbArc
 50
358.2138785612
 51
1.7861200958
  0
ARC
  5
404
100
AcDbEntity
  8
0
100
AcDbCircle
 62
7
  6
CONTINUOUS
 10
6.2945816143
 20
5.8297826221
 40
0.0886744059
100
AcDbArc
 50
358.2135016892
 51
1.7864983042
  0
ARC
  5
405
100
AcDbEntity
  8
0
100
AcDbCircle
 62
7
  6
CONTINUOUS
 10
6.3667185831
 20
5.8849298879
 40
0.008
100
AcDbArc
 50
38.9428455645
 51
90.0
  0
ARC
  5
406
100
AcDbEntity
  8
0
100
AcDbCircle
 62
7
  6
CONTINUOUS
 10
6.3476387791
 20
5.9717825407
 40
0.008
100
AcDbArc
 50
0.0
 51
90.0
  0
ARC
  5
407
100
AcDbEntity
  8
0
100
AcDbCircle
 62
7
  6
CONTINUOUS
 10
6.1436387791
 20
5.9717825407
 40
0.008
100
AcDbArc
 50
90.0
 51
180.0
  0
ARC
  5
408
100
AcDbEntity
  8
0
100
AcDbCircle
 62
7
  6
CONTINUOUS
 10
6.2536387791
 20
5.9717825407
 40
0.008
100
AcDbArc
 50
90.0
 51
180.0
  0
ARC
  5
409
100
AcDbEntity
  8
0
100
AcDbCircle
 62
7
  6
CONTINUOUS
 10
6.2461527036
 20
5.9750744322
 40
0.0047081085
100
AcDbArc
 50
90.0061125431
 51
95.588305398
  0
ARC
  5
40A
100
AcDbEntity
  8
0
100
AcDbCircle
 62
7
  6
CONTINUOUS
 10
6.3796692809
 20
5.8724007758
 40
0.0040014019
100
AcDbArc
 50
10.158263776
 51
27.6746663702
  0
ARC
  5
40B
100
AcDbEntity
  8
0
100
AcDbCircle
 62
7
  6
CONTINUOUS
 10
6.3797139491
 20
5.8724045779
 40
0.004
100
AcDbArc
 50
6.8732562548
 51
27.6846931912
  0
ARC
  5
40C
100
AcDbEntity
  8
0
100
AcDbCircle
 62
7
  6
CONTINUOUS
 10
6.388784636
 20
5.8411981602
 40
0.004
100
AcDbArc
 50
275.0
 51
7.1265686149
  0
ARC
  5
40D
100
AcDbEntity
  8
0
100
AcDbCircle
 62
7
  6
CONTINUOUS
 10
23.162774746
 20
-8.0261003086
 40
21.188636288
100
AcDbArc
 50
149.7042576749
 51
149.8889156114
  0
ARC
  5
40E
100
AcDbEntity
  8
0
100
AcDbCircle
 62
7
  6
CONTINUOUS
 10
5.0957042595
 20
34.9141211811
 40
32.7740653427
100
AcDbArc
 50
269.8636120472
 51
270.1363879528
  0
SPLINE
  5
40F
100
AcDbEntity
  8
0
100
AcDbSpline
 62
7
  6
CONTINUOUS
 70
0
 71
3
 72
30
 73
26
 74
0
 42
0.0000001
 43
0.0000001
 44
0.0000000001
 40
0.0
 40
0.0
 40
0.0
 40
0.0
 40
0.0628120515
 40
0.1256435008
 40
0.1884792922
 40
0.2512841595
 40
0.282671561
 40
0.3140377226
 40
0.3453802744
 40
0.3766988245
 40
0.4079955076
 40
0.4392753824
 40
0.4705437282
 40
0.5018032616
 40
0.5330544514
 40
0.564296052
 40
0.6267222666
 40
0.6890756642
 40
0.7513387464
 40
0.7824466505
 40
0.8135375399
 40
0.8446186394
 40
0.8756969681
 40
0.9378415782
 40
1.0
 40
1.0
 40
1.0
 40
1.0
 10
5.0957042595
 20
2.3377375018
 30
0.0
 10
5.0883359707
 20
2.3377375018
 30
0.0
 10
5.0735873768
 20
2.3384692976
 30
0.0
 10
5.0516816314
 20
2.341696097
 30
0.0
 10
5.0301810754
 20
2.3469857183
 30
0.0
 10
5.012760188
 20
2.3530624707
 30
0.0
 10
4.9992286789
 20
2.3588910813
 30
0.0
 10
4.9893068159
 20
2.3637381804
 30
0.0
 10
4.9796368384
 20
2.3690530012
 30
0.0
 10
4.970243575
 20
2.3748276121
 30
0.0
 10
4.9611523316
 20
2.3810541554
 30
0.0
 10
4.9523883953
 20
2.3877237968
 30
0.0
 10
4.9439674402
 20
2.3948145951
 30
0.0
 10
4.9359050444
 20
2.402305416
 30
0.0
 10
4.9282164619
 20
2.4101753321
 30
0.0
 10
4.9184885403
 20
2.4211406113
 30
0.0
 10
4.9073369776
 20
2.4356919953
 30
0.0
 10
4.8956989085
 20
2.4543303292
 30
0.0
 10
4.8875508004
 20
2.4707157029
 30
0.0
 10
4.8820325044
 20
2.4842382897
 30
0.0
 10
4.8784082221
 20
2.4945681311
 30
0.0
 10
4.8753126746
 20
2.5050648531
 30
0.0
 10
4.8718896577
 20
2.519244406
 30
0.0
 10
4.8689292319
 20
2.5372604699
 30
0.0
 10
4.8679694311
 20
2.5518366347
 30
0.0
 10
4.8678412736
 20
2.5591271219
 30
0.0
  0
SPLINE
  5
410
100
AcDbEntity
  8
0
100
AcDbSpline
 62
7
  6
CONTINUOUS
 70
0
 71
3
 72
34
 73
30
 74
0
 42
0.0000001
 43
0.0000001
 44
0.0000000001
 40
0.0
 40
0.0
 40
0.0
 40
0.0
 40
0.031233849
 40
0.0624735075
 40
0.1249609138
 40
0.1874788176
 40
0.2500026551
 40
0.2812668373
 40
0.3125227659
 40
0.3437693535
 40
0.3750075368
 40
0.3906256998
 40
0.4062433352
 40
0.4374779623
 40
0.4687192107
 40
0.4999695127
 40
0.5312289357
 40
0.5624957459
 40
0.6250207875
 40
0.687534173
 40
0.7187882813
 40
0.7500330554
 40
0.7812699002
 40
0.7968877558
 40
0.8125054255
 40
0.8437410395
 40
0.8749839714
 40
0.9374785985
 40
1.0
 40
1.0
 40
1.0
 40
1.0
 10
5.0957042595
 20
6.057803231
 30
0.0
 10
5.0919778111
 20
6.057803231
 30
0.0
 10
5.084522705
 20
6.0576139834
 30
0.0
 10
5.0696515031
 20
6.0564902861
 30
0.0
 10
5.0511857304
 20
6.0537078592
 30
0.0
 10
5.0294571715
 20
6.0482370575
 30
0.0
 10
5.0118650286
 20
6.0419543758
 30
0.0
 10
4.9982115135
 20
6.0359300505
 30
0.0
 10
4.9882038686
 20
6.0309197016
 30
0.0
 10
4.9784568394
 20
6.0254265098
 30
0.0
 10
4.9705719872
 20
6.0204527222
 30
0.0
 10
4.9644213072
 20
6.0162412897
 30
0.0
 10
4.9583794365
 20
6.0118758954
 30
0.0
 10
4.9510365952
 20
6.0061337502
 30
0.0
 10
4.9425791396
 20
5.9988115078
 30
0.0
 10
4.9344909326
 20
5.9910790693
 30
0.0
 10
4.9267879015
 20
5.9829584693
 30
0.0
 10
4.9170539326
 20
5.9716451867
 30
0.0
 10
4.9059272501
 20
5.9566415069
 30
0.0
 10
4.8962977973
 20
5.9406370577
 30
0.0
 10
4.8895590558
 20
5.9273255719
 30
0.0
 10
4.8850021021
 20
5.917107615
 30
0.0
 10
4.8816325965
 20
5.9084158129
 30
0.0
 10
4.8792023454
 20
5.9013689479
 30
0.0
 10
4.8769516543
 20
5.8942628806
 30
0.0
 10
4.8744753772
 20
5.8852758864
 30
0.0
 10
4.8712337579
 20
5.8707170199
 30
0.0
 10
4.8685304045
 20
5.8522398228
 30
0.0
 10
4.8678079339
 20
5.8373152519
 30
0.0
 10
4.8678062402
 20
5.829855948
 30
0.0
  0
SPLINE
  5
411
100
AcDbEntity
  8
0
100
AcDbSpline
 62
7
  6
CONTINUOUS
 70
0
 71
3
 72
37
 73
33
 74
0
 42
0.0000001
 43
0.0000001
 44
0.0000000001
 40
0.0
 40
0.0
 40
0.0
 40
0.0
 40
0.0310702873
 40
0.062142329
 40
0.0932178482
 40
0.1242985456
 40
0.1553860754
 40
0.1864820109
 40
0.2175878496
 40
0.2487050008
 40
0.2798347516
 40
0.3109782658
 40
0.3421365857
 40
0.3733106008
 40
0.4045010418
 40
0.4357084945
 40
0.4669333755
 40
0.4981759214
 40
0.5294362126
 40
0.5607141589
 40
0.5920094857
 40
0.6233217636
 40
0.6546504049
 40
0.6859946514
 40
0.7173536021
 40
0.7487262246
 40
0.8114890935
 40
0.874291151
 40
0.9057123865
 40
0.9371386671
 40
0.9685685614
 40
1.0
 40
1.0
 40
1.0
 40
1.0
 10
5.3205042595
 20
2.5616014998
 30
0.0
 10
5.3205042595
 20
2.5579658807
 30
0.0
 10
5.320323654
 20
2.5506931436
 30
0.0
 10
5.3195115899
 20
2.5398114638
 30
0.0
 10
5.3181603249
 20
2.5289820087
 30
0.0
 10
5.3162731163
 20
2.5182312248
 30
0.0
 10
5.3138545127
 20
2.5075849207
 30
0.0
 10
5.3109103439
 20
2.4970687734
 30
0.0
 10
5.3074477059
 20
2.4867081135
 30
0.0
 10
5.3034749442
 20
2.4765279048
 30
0.0
 10
5.2990016338
 20
2.4665526739
 30
0.0
 10
5.2940385555
 20
2.4568064534
 30
0.0
 10
5.2885976701
 20
2.4473127234
 30
0.0
 10
5.2826920896
 20
2.4380943549
 30
0.0
 10
5.2763360455
 20
2.4291735557
 30
0.0
 10
5.2695448541
 20
2.420571815
 30
0.0
 10
5.2623348799
 20
2.4123098535
 30
0.0
 10
5.254723496
 20
2.4044075729
 30
0.0
 10
5.246729042
 20
2.3968840073
 30
0.0
 10
5.2383707805
 20
2.3897572784
 30
0.0
 10
5.2296688483
 20
2.3830445508
 30
0.0
 10
5.2206442165
 20
2.3767619936
 30
0.0
 10
5.2113186059
 20
2.3709247312
 30
0.0
 10
5.2017145631
 20
2.3655468457
 30
0.0
 10
5.1918549272
 20
2.3606411985
 30
0.0
 10
5.1784005142
 20
2.3547459278
 30
0.0
 10
5.1610585923
 20
2.3486125079
 30
0.0
 10
5.1431975389
 20
2.3441909542
 30
0.0
 10
5.1287017903
 20
2.3417048277
 30
0.0
 10
5.1177466715
 20
2.3403691941
 30
0.0
 10
5.1067389748
 20
2.3395665843
 30
0.0
 10
5.0993821379
 20
2.339388074
 30
0.0
 10
5.0957042595
 20
2.339388074
 30
0.0
  0
SPLINE
  5
412
100
AcDbEntity
  8
0
100
AcDbSpline
 62
7
  6
CONTINUOUS
 70
0
 71
3
 72
37
 73
33
 74
0
 42
0.0000001
 43
0.0000001
 44
0.0000000001
 40
0.0
 40
0.0
 40
0.0
 40
0.0
 40
0.0310702873
 40
0.062142329
 40
0.0932178482
 40
0.1242985456
 40
0.1553860754
 40
0.1864820109
 40
0.2175878496
 40
0.2487050008
 40
0.2798347516
 40
0.3109782658
 40
0.3421365857
 40
0.3733106008
 40
0.4045010418
 40
0.4357084945
 40
0.4669333755
 40
0.4981759214
 40
0.5294362126
 40
0.5607141589
 40
0.5920094857
 40
0.6233217636
 40
0.6546504049
 40
0.6859946514
 40
0.7173536021
 40
0.7487262246
 40
0.8114890935
 40
0.874291151
 40
0.9057123865
 40
0.9371386671
 40
0.9685685614
 40
1.0
 40
1.0
 40
1.0
 40
1.0
 10
4.8709042595
 20
2.5616014998
 30
0.0
 10
4.8709042595
 20
2.5579658807
 30
0.0
 10
4.8710848651
 20
2.5506931436
 30
0.0
 10
4.8718969292
 20
2.5398114638
 30
0.0
 10
4.8732481942
 20
2.5289820087
 30
0.0
 10
4.8751354028
 20
2.5182312248
 30
0.0
 10
4.8775540064
 20
2.5075849207
 30
0.0
 10
4.8804981752
 20
2.4970687734
 30
0.0
 10
4.8839608132
 20
2.4867081135
 30
0.0
 10
4.8879335749
 20
2.4765279048
 30
0.0
 10
4.8924068852
 20
2.4665526739
 30
0.0
 10
4.8973699636
 20
2.4568064534
 30
0.0
 10
4.902810849
 20
2.4473127234
 30
0.0
 10
4.9087164295
 20
2.4380943549
 30
0.0
 10
4.9150724736
 20
2.4291735557
 30
0.0
 10
4.921863665
 20
2.420571815
 30
0.0
 10
4.9290736392
 20
2.4123098535
 30
0.0
 10
4.9366850231
 20
2.4044075729
 30
0.0
 10
4.944679477
 20
2.3968840073
 30
0.0
 10
4.9530377386
 20
2.3897572784
 30
0.0
 10
4.9617396708
 20
2.3830445508
 30
0.0
 10
4.9707643026
 20
2.3767619936
 30
0.0
 10
4.9800899132
 20
2.3709247312
 30
0.0
 10
4.989693956
 20
2.3655468457
 30
0.0
 10
4.9995535918
 20
2.3606411985
 30
0.0
 10
5.0130080049
 20
2.3547459278
 30
0.0
 10
5.0303499267
 20
2.3486125079
 30
0.0
 10
5.0482109801
 20
2.3441909542
 30
0.0
 10
5.0627067288
 20
2.3417048277
 30
0.0
 10
5.0736618476
 20
2.3403691941
 30
0.0
 10
5.0846695443
 20
2.3395665843
 30
0.0
 10
5.0920263812
 20
2.339388074
 30
0.0
 10
5.0957042595
 20
2.339388074
 30
0.0
  0
SPLINE
  5
413
100
AcDbEntity
  8
0
100
AcDbSpline
 62
7
  6
CONTINUOUS
 70
0
 71
3
 72
30
 73
26
 74
0
 42
0.0000001
 43
0.0000001
 44
0.0000000001
 40
0.0
 40
0.0
 40
0.0
 40
0.0
 40
0.0621584218
 40
0.1243030319
 40
0.1553813606
 40
0.1864624601
 40
0.2175533495
 40
0.2486612536
 40
0.3109243358
 40
0.3732777334
 40
0.435703948
 40
0.4669455486
 40
0.4981967384
 40
0.5294562718
 40
0.5607246176
 40
0.5920044924
 40
0.6233011755
 40
0.6546197256
 40
0.6859622774
 40
0.717328439
 40
0.7487158405
 40
0.8115207078
 40
0.8743564992
 40
0.9371879485
 40
1.0
 40
1.0
 40
1.0
 40
1.0
 10
5.3235672455
 20
2.5591271219
 30
0.0
 10
5.323439088
 20
2.5518366347
 30
0.0
 10
5.3224792872
 20
2.5372604699
 30
0.0
 10
5.3195188614
 20
2.519244406
 30
0.0
 10
5.3160958445
 20
2.5050648531
 30
0.0
 10
5.3130002969
 20
2.4945681311
 30
0.0
 10
5.3093760147
 20
2.4842382897
 30
0.0
 10
5.3038577187
 20
2.4707157029
 30
0.0
 10
5.2957096105
 20
2.4543303292
 30
0.0
 10
5.2840715415
 20
2.4356919953
 30
0.0
 10
5.2729199788
 20
2.4211406113
 30
0.0
 10
5.2631920572
 20
2.4101753321
 30
0.0
 10
5.2555034747
 20
2.402305416
 30
0.0
 10
5.2474410789
 20
2.3948145951
 30
0.0
 10
5.2390201238
 20
2.3877237968
 30
0.0
 10
5.2302561875
 20
2.3810541554
 30
0.0
 10
5.2211649441
 20
2.3748276121
 30
0.0
 10
5.2117716807
 20
2.3690530012
 30
0.0
 10
5.2021017032
 20
2.3637381804
 30
0.0
 10
5.1921798402
 20
2.3588910813
 30
0.0
 10
5.178648331
 20
2.3530624707
 30
0.0
 10
5.1612274437
 20
2.3469857183
 30
0.0
 10
5.1397268877
 20
2.341696097
 30
0.0
 10
5.1178211423
 20
2.3384692976
 30
0.0
 10
5.1030725483
 20
2.3377375018
 30
0.0
 10
5.0957042595
 20
2.3377375018
 30
0.0
  0
SPLINE
  5
414
100
AcDbEntity
  8
0
100
AcDbSpline
 62
7
  6
CONTINUOUS
 70
0
 71
3
 72
34
 73
30
 74
0
 42
0.0000001
 43
0.0000001
 44
0.0000000001
 40
0.0
 40
0.0
 40
0.0
 40
0.0
 40
0.0625213885
 40
0.1250159809
 40
0.1562588954
 40
0.1874944992
 40
0.2031121681
 40
0.2187300264
 40
0.2499668839
 40
0.2812116749
 40
0.3124657999
 40
0.3749792102
 40
0.4375042542
 40
0.4687710572
 40
0.5000304703
 40
0.5312807621
 40
0.5625220021
 40
0.5937566255
 40
0.6093742613
 40
0.6249924262
 40
0.6562306166
 40
0.6874772124
 40
0.7187331485
 40
0.7499973361
 40
0.8125211807
 40
0.8750390853
 40
0.9375264919
 40
0.9687661503
 40
1.0
 40
1.0
 40
1.0
 40
1.0
 10
5.3236022711
 20
5.8298831973
 30
0.0
 10
5.3235997021
 20
5.8373419318
 30
0.0
 10
5.32287559
 20
5.8522652755
 30
0.0
 10
5.3201704573
 20
5.870740765
 30
0.0
 10
5.3169275787
 20
5.8852981802
 30
0.0
 10
5.3144505838
 20
5.894284237
 30
0.0
 10
5.3121993579
 20
5.9013895389
 30
0.0
 10
5.3097686074
 20
5.9084356334
 30
0.0
 10
5.3063985479
 20
5.9171264634
 30
0.0
 10
5.3018410372
 20
5.9273432449
 30
0.0
 10
5.2951016918
 20
5.9406531594
 30
0.0
 10
5.2854717358
 20
5.9566556471
 30
0.0
 10
5.2743448571
 20
5.9716574095
 30
0.0
 10
5.2646109016
 20
5.9829692025
 30
0.0
 10
5.2569079632
 20
5.9910887112
 30
0.0
 10
5.2488199269
 20
5.9988200906
 30
0.0
 10
5.2403627165
 20
6.006141311
 30
0.0
 10
5.2330201391
 20
6.0118826391
 30
0.0
 10
5.2269785132
 20
6.0162474034
 30
0.0
 10
5.2208281028
 20
6.0204582276
 30
0.0
 10
5.2129436325
 20
6.0254312938
 30
0.0
 10
5.2031971271
 20
6.0309236852
 30
0.0
 10
5.1931900653
 20
6.0359333007
 30
0.0
 10
5.1795373987
 20
6.0419567404
 30
0.0
 10
5.1619464362
 20
6.0482384919
 30
0.0
 10
5.1402194338
 20
6.0537084772
 30
0.0
 10
5.1217550396
 20
6.056490485
 30
0.0
 10
5.1068849633
 20
6.0576140122
 30
0.0
 10
5.0994304245
 20
6.057803231
 30
0.0
 10
5.0957042595
 20
6.057803231
 30
0.0
  0
SPLINE
  5
415
100
AcDbEntity
  8
0
100
AcDbSpline
 62
7
  6
CONTINUOUS
 70
0
 71
3
 72
19
 73
15
 74
0
 42
0.0000001
 43
0.0000001
 44
0.0000000001
 40
0.0
 40
0.0
 40
0.0
 40
0.0
 40
0.1912123993
 40
0.3668269384
 40
0.5244289788
 40
0.661997715
 40
0.7228010577
 40
0.7781051133
 40
0.8278589952
 40
0.8720922344
 40
0.9109529834
 40
0.9447666701
 40
0.9741246114
 40
1.0
 40
1.0
 40
1.0
 40
1.0
 10
5.1804854393
 20
2.1511165872
 30
0.0
 10
5.1804489094
 20
2.1508344605
 30
0.0
 10
5.1803700755
 20
2.1502942924
 30
0.0
 10
5.1802275907
 20
2.149526938
 30
0.0
 10
5.1800676444
 20
2.148844738
 30
0.0
 10
5.179916539
 20
2.1483366243
 30
0.0
 10
5.179786496
 20
2.1479821956
 30
0.0
 10
5.1796902559
 20
2.1477548435
 30
0.0
 10
5.1795916536
 20
2.1475556405
 30
0.0
 10
5.1794910153
 20
2.1473852689
 30
0.0
 10
5.1793886531
 20
2.1472442466
 30
0.0
 10
5.1792846554
 20
2.1471329484
 30
0.0
 10
5.1791790294
 20
2.1470518024
 30
0.0
 10
5.1791035903
 20
2.1470167436
 30
0.0
 10
5.1790667149
 20
2.1470056887
 30
0.0
  0
SPLINE
  5
416
100
AcDbEntity
  8
0
100
AcDbSpline
 62
7
  6
CONTINUOUS
 70
0
 71
3
 72
19
 73
15
 74
0
 42
0.0000001
 43
0.0000001
 44
0.0000000001
 40
0.0
 40
0.0
 40
0.0
 40
0.0
 40
0.1915191244
 40
0.3674018638
 40
0.5252103611
 40
0.6629001563
 40
0.7237240174
 40
0.7790175886
 40
0.8287263244
 40
0.8728757483
 40
0.9116098264
 40
0.9452502337
 40
0.9743870654
 40
1.0
 40
1.0
 40
1.0
 40
1.0
 10
5.0099442517
 20
2.1511292741
 30
0.0
 10
5.0099783221
 20
2.1508460116
 30
0.0
 10
5.0100523636
 20
2.1503035968
 30
0.0
 10
5.0101877557
 20
2.149532765
 30
0.0
 10
5.0103410743
 20
2.1488472198
 30
0.0
 10
5.0104869385
 20
2.1483363398
 30
0.0
 10
5.0106130995
 20
2.1479797917
 30
0.0
 10
5.0107067008
 20
2.1477510566
 30
0.0
 10
5.0108028398
 20
2.1475505698
 30
0.0
 10
5.0109011956
 20
2.1473790198
 30
0.0
 10
5.0110014595
 20
2.1472369276
 30
0.0
 10
5.0111035495
 20
2.1471246631
 30
0.0
 10
5.0112074712
 20
2.1470426414
 30
0.0
 10
5.0112819724
 20
2.1470069981
 30
0.0
 10
5.0113184195
 20
2.1469957093
 30
0.0
  0
SPLINE
  5
417
100
AcDbEntity
  8
0
100
AcDbSpline
 62
7
  6
CONTINUOUS
 70
0
 71
3
 72
22
 73
18
 74
0
 42
0.0000001
 43
0.0000001
 44
0.0000000001
 40
0.0
 40
0.0
 40
0.0
 40
0.0
 40
0.214594023
 40
0.4079599809
 40
0.5772144533
 40
0.6520044939
 40
0.7198673926
 40
0.7805710574
 40
0.8339154208
 40
0.8797521319
 40
0.9179879351
 40
0.9486259721
 40
0.9718421974
 40
0.9808455694
 40
0.9883031823
 40
0.9945164939
 40
1.0
 40
1.0
 40
1.0
 40
1.0
 10
4.8863305054
 20
2.222222468
 30
0.0
 10
4.8860951124
 20
2.2221004335
 30
0.0
 10
4.8856460446
 20
2.2218714318
 30
0.0
 10
4.8850053172
 20
2.221558135
 30
0.0
 10
4.8845148817
 20
2.2213309135
 30
0.0
 10
4.8841616757
 20
2.2211767145
 30
0.0
 10
4.8839296771
 20
2.2210801914
 30
0.0
 10
4.883720356
 20
2.220998264
 30
0.0
 10
4.8835344977
 20
2.2209312144
 30
0.0
 10
4.8833728196
 20
2.2208792531
 30
0.0
 10
4.8832358414
 20
2.2208424279
 30
0.0
 10
4.8831240677
 20
2.2208208287
 30
0.0
 10
4.8830462286
 20
2.22081456
 30
0.0
 10
4.8829972745
 20
2.2208191063
 30
0.0
 10
4.8829699958
 20
2.2208262047
 30
0.0
 10
4.8829488424
 20
2.2208374929
 30
0.0
 10
4.8829388821
 20
2.22084851
 30
0.0
 10
4.8829354504
 20
2.2208543519
 30
0.0
  0
SPLINE
  5
418
100
AcDbEntity
  8
0
100
AcDbSpline
 62
7
  6
CONTINUOUS
 70
0
 71
3
 72
17
 73
13
 74
0
 42
0.0000001
 43
0.0000001
 44
0.0000000001
 40
0.0
 40
0.0
 40
0.0
 40
0.0
 40
0.1818871126
 40
0.3486924548
 40
0.498741345
 40
0.6309330629
 40
0.7450140127
 40
0.8420000278
 40
0.8850148435
 40
0.9251088295
 40
0.963108771
 40
1.0
 40
1.0
 40
1.0
 40
1.0
 10
4.8010964514
 20
2.3682079297
 30
0.0
 10
4.8008938278
 20
2.368025211
 30
0.0
 10
4.8005146723
 20
2.3676643609
 30
0.0
 10
4.8000069289
 20
2.3671140643
 30
0.0
 10
4.7995897588
 20
2.3665841451
 30
0.0
 10
4.7992690238
 20
2.3660820397
 30
0.0
 10
4.7990491174
 20
2.3656146385
 30
0.0
 10
4.7989490088
 20
2.3652434444
 30
0.0
 10
4.798929974
 20
2.3649731606
 30
0.0
 10
4.7989438425
 20
2.3647912607
 30
0.0
 10
4.7989854825
 20
2.3646230156
 30
0.0
 10
4.7990321108
 20
2.3645199711
 30
0.0
 10
4.799059557
 20
2.3644719179
 30
0.0
  0
SPLINE
  5
419
100
AcDbEntity
  8
0
100
AcDbSpline
 62
7
  6
CONTINUOUS
 70
0
 71
3
 72
21
 73
17
 74
0
 42
0.0000001
 43
0.0000001
 44
0.0000000001
 40
0.0
 40
0.0
 40
0.0
 40
0.0
 40
0.2177921183
 40
0.411958871
 40
0.5804348852
 40
0.721499916
 40
0.7813219391
 40
0.8338298929
 40
0.8789443772
 40
0.9166427903
 40
0.9470017317
 40
0.9702832118
 40
0.9794866206
 40
0.9872753584
 40
0.9939535038
 40
1.0
 40
1.0
 40
1.0
 40
1.0
 10
4.8015493257
 20
2.5095899215
 30
0.0
 10
4.8013813453
 20
2.5096961484
 30
0.0
 10
4.8010649814
 20
2.509899269
 30
0.0
 10
4.8006243445
 20
2.5101932856
 30
0.0
 10
4.8002478379
 20
2.5104570539
 30
0.0
 10
4.7999776897
 20
2.5106587991
 30
0.0
 10
4.7997975277
 20
2.510803799
 30
0.0
 10
4.7996883171
 20
2.5108972082
 30
0.0
 10
4.7995976584
 20
2.5109811056
 30
0.0
 10
4.7995256702
 20
2.511055288
 30
0.0
 10
4.7994724864
 20
2.5111195494
 30
0.0
 10
4.7994413619
 20
2.5111681433
 30
0.0
 10
4.7994274182
 20
2.5112022699
 30
0.0
 10
4.7994226039
 20
2.5112234652
 30
0.0
 10
4.7994227161
 20
2.5112424001
 30
0.0
 10
4.7994264231
 20
2.5112536703
 30
0.0
 10
4.7994290403
 20
2.5112585279
 30
0.0
  0
SPLINE
  5
41A
100
AcDbEntity
  8
0
100
AcDbSpline
 62
7
  6
CONTINUOUS
 70
0
 71
3
 72
15
 73
11
 74
0
 42
0.0000001
 43
0.0000001
 44
0.0000000001
 40
0.0
 40
0.0
 40
0.0
 40
0.0
 40
0.0934484732
 40
0.1970251827
 40
0.3108935973
 40
0.434508196
 40
0.566806115
 40
0.7063396273
 40
0.851375424
 40
1.0
 40
1.0
 40
1.0
 40
1.0
 10
5.6702017384
 20
5.559939532
 30
0.0
 10
5.6703764821
 20
5.5597975834
 30
0.0
 10
5.6707753203
 20
5.5595350006
 30
0.0
 10
5.6714587264
 20
5.5592232666
 30
0.0
 10
5.6722449765
 20
5.5589782659
 30
0.0
 10
5.6731200833
 20
5.5588041725
 30
0.0
 10
5.6740686485
 20
5.5587038622
 30
0.0
 10
5.6750736445
 20
5.5586791562
 30
0.0
 10
5.6761168624
 20
5.5587304939
 30
0.0
 10
5.6768200168
 20
5.5588142151
 30
0.0
 10
5.6771739594
 20
5.5588683666
 30
0.0
  0
SPLINE
  5
41B
100
AcDbEntity
  8
0
100
AcDbSpline
 62
7
  6
CONTINUOUS
 70
0
 71
3
 72
15
 73
11
 74
0
 42
0.0000001
 43
0.0000001
 44
0.0000000001
 40
0.0
 40
0.0
 40
0.0
 40
0.0
 40
0.0936612449
 40
0.1976968842
 40
0.3121621605
 40
0.4363530402
 40
0.5690180771
 40
0.708504751
 40
0.8528702818
 40
1.0
 40
1.0
 40
1.0
 40
1.0
 10
5.782305855
 20
5.6205836864
 30
0.0
 10
5.7821389741
 20
5.6204101106
 30
0.0
 10
5.7817485515
 20
5.6200797377
 30
0.0
 10
5.781060154
 20
5.6196626341
 30
0.0
 10
5.7802526083
 20
5.6193052956
 30
0.0
 10
5.7793417406
 20
5.6190145388
 30
0.0
 10
5.7783452418
 20
5.618795807
 30
0.0
 10
5.7772828182
 20
5.6186534588
 30
0.0
 10
5.7761756762
 20
5.6185903256
 30
0.0
 10
5.7754256304
 20
5.618601882
 30
0.0
 10
5.7750478735
 20
5.618621056
 30
0.0
  0
SPLINE
  5
41C
100
AcDbEntity
  8
0
100
AcDbSpline
 62
7
  6
CONTINUOUS
 70
0
 71
3
 72
15
 73
11
 74
0
 42
0.0000001
 43
0.0000001
 44
0.0000000001
 40
0.0
 40
0.0
 40
0.0
 40
0.0
 40
0.1004493311
 40
0.2102533239
 40
0.3286683493
 40
0.4545242611
 40
0.586346783
 40
0.7224415808
 40
0.8609632617
 40
1.0
 40
1.0
 40
1.0
 40
1.0
 10
5.7741644532
 20
5.7564982015
 30
0.0
 10
5.7739902258
 20
5.7563033713
 30
0.0
 10
5.7735953422
 20
5.7559221343
 30
0.0
 10
5.7729145331
 20
5.7554022032
 30
0.0
 10
5.7721299951
 20
5.7549166741
 30
0.0
 10
5.7712558848
 20
5.7544743504
 30
0.0
 10
5.7703078969
 20
5.7540831513
 30
0.0
 10
5.7693032113
 20
5.7537502123
 30
0.0
 10
5.7682601493
 20
5.7534816015
 30
0.0
 10
5.7675497041
 20
5.7533482953
 30
0.0
 10
5.7671920913
 20
5.7532935822
 30
0.0
  0
SPLINE
  5
41D
100
AcDbEntity
  8
0
100
AcDbSpline
 62
7
  6
CONTINUOUS
 70
0
 71
3
 72
14
 73
10
 74
0
 42
0.0000001
 43
0.0000001
 44
0.0000000001
 40
0.0
 40
0.0
 40
0.0
 40
0.0
 40
0.0858820876
 40
0.1864879738
 40
0.3003919425
 40
0.4258316845
 40
0.5607934706
 40
0.7030677974
 40
1.0
 40
1.0
 40
1.0
 40
1.0
 10
5.7736680998
 20
5.8980274639
 30
0.0
 10
5.7734773644
 20
5.8980906713
 30
0.0
 10
5.7730565653
 20
5.8982079262
 30
0.0
 10
5.7723689528
 20
5.8983545975
 30
0.0
 10
5.7715838625
 20
5.8984836447
 30
0.0
 10
5.7707147502
 20
5.8985926367
 30
0.0
 10
5.7697764848
 20
5.8986795596
 30
0.0
 10
5.7684357203
 20
5.8987650316
 30
0.0
 10
5.7674078313
 20
5.8987897458
 30
0.0
 10
5.7667131079
 20
5.8987897437
 30
0.0
  0
SPLINE
  5
41E
100
AcDbEntity
  8
0
100
AcDbSpline
 62
7
  6
CONTINUOUS
 70
0
 71
3
 72
13
 73
9
 74
0
 42
0.0000001
 43
0.0000001
 44
0.0000000001
 40
0.0
 40
0.0
 40
0.0
 40
0.0
 40
0.1123089263
 40
0.2288656602
 40
0.3496821328
 40
0.4744805792
 40
0.7334233047
 40
1.0
 40
1.0
 40
1.0
 40
1.0
 10
5.7736715636
 20
5.5557772963
 30
0.0
 10
5.7734948893
 20
5.5555422251
 30
0.0
 10
5.7730984364
 20
5.5550896631
 30
0.0
 10
5.7724049898
 20
5.5544880392
 30
0.0
 10
5.7716138366
 20
5.553960779
 30
0.0
 10
5.7704333434
 20
5.5533619411
 30
0.0
 10
5.7687942825
 20
5.5528525982
 30
0.0
 10
5.7674145959
 20
5.552716701
 30
0.0
 10
5.7667166104
 20
5.552716699
 30
0.0
  0
SPLINE
  5
41F
100
AcDbEntity
  8
0
100
AcDbSpline
 62
7
  6
CONTINUOUS
 70
0
 71
3
 72
15
 73
11
 74
0
 42
0.0000001
 43
0.0000001
 44
0.0000000001
 40
0.0
 40
0.0
 40
0.0
 40
0.0
 40
0.1258024283
 40
0.2513541494
 40
0.376648719
 40
0.5016871872
 40
0.6264939408
 40
0.7511105344
 40
0.8755882693
 40
1.0
 40
1.0
 40
1.0
 40
1.0
 10
5.7741702244
 20
5.4866569113
 30
0.0
 10
5.7740044609
 20
5.4863368879
 30
0.0
 10
5.7736297305
 20
5.4857189563
 30
0.0
 10
5.7729489782
 20
5.4848776998
 30
0.0
 10
5.772162172
 20
5.484137559
 30
0.0
 10
5.7712838669
 20
5.4835124259
 30
0.0
 10
5.7703302277
 20
5.4830137883
 30
0.0
 10
5.7693187658
 20
5.4826508886
 30
0.0
 10
5.7682683864
 20
5.4824304083
 30
0.0
 10
5.767554377
 20
5.4823811073
 30
0.0
 10
5.7671979551
 20
5.4823811063
 30
0.0
  0
SPLINE
  5
420
100
AcDbEntity
  8
0
100
AcDbSpline
 62
7
  6
CONTINUOUS
 70
0
 71
3
 72
13
 73
9
 74
0
 42
0.0000001
 43
0.0000001
 44
0.0000000001
 40
0.0
 40
0.0
 40
0.0
 40
0.0
 40
0.2489627852
 40
0.3743690902
 40
0.500000009
 40
0.6256309255
 40
0.7510372314
 40
1.0
 40
1.0
 40
1.0
 40
1.0
 10
4.8541143041
 20
5.5565748625
 30
0.0
 10
4.8446037081
 20
5.5732822314
 30
0.0
 10
4.8302758202
 20
5.598390211
 30
0.0
 10
4.8110601126
 20
5.6318782989
 30
0.0
 10
4.7965400112
 20
5.6570806739
 30
0.0
 10
4.7819741506
 20
5.6822566299
 30
0.0
 10
4.7625804939
 20
5.7156419773
 30
0.0
 10
4.7480002762
 20
5.7406042727
 30
0.0
 10
4.7382865737
 20
5.7571943765
 30
0.0
  0
SPLINE
  5
421
100
AcDbEntity
  8
0
100
AcDbSpline
 62
7
  6
CONTINUOUS
 70
0
 71
3
 72
15
 73
11
 74
0
 42
0.0000001
 43
0.0000001
 44
0.0000000001
 40
0.0
 40
0.0
 40
0.0
 40
0.0
 40
0.1221936526
 40
0.245278293
 40
0.3692885718
 40
0.4941844571
 40
0.6198711778
 40
0.7462017281
 40
0.8729818982
 40
1.0
 40
1.0
 40
1.0
 40
1.0
 10
5.7736722069
 20
6.1720312929
 30
0.0
 10
5.7734981276
 20
6.1723206004
 30
0.0
 10
5.7731086953
 20
6.1728782537
 30
0.0
 10
5.7724162453
 20
6.1736316199
 30
0.0
 10
5.7716251494
 20
6.1742925277
 30
0.0
 10
5.77074926
 20
6.1748493912
 30
0.0
 10
5.76980376
 20
6.1752927286
 30
0.0
 10
5.7688049568
 20
6.1756149129
 30
0.0
 10
5.767770309
 20
6.1758104657
 30
0.0
 10
5.7670682342
 20
6.1758541507
 30
0.0
 10
5.7667172609
 20
6.1758541497
 30
0.0
  0
SPLINE
  5
422
100
AcDbEntity
  8
0
100
AcDbSpline
 62
7
  6
CONTINUOUS
 70
0
 71
3
 72
15
 73
11
 74
0
 42
0.0000001
 43
0.0000001
 44
0.0000000001
 40
0.0
 40
0.0
 40
0.0
 40
0.0
 40
0.0959331531
 40
0.2020973424
 40
0.3181723918
 40
0.4431974728
 40
0.5757530429
 40
0.7140859213
 40
0.8562068527
 40
1.0
 40
1.0
 40
1.0
 40
1.0
 10
5.7823039459
 20
5.9633216388
 30
0.0
 10
5.7821370689
 20
5.9635121493
 30
0.0
 10
5.7817478627
 20
5.96388109
 30
0.0
 10
5.7810606234
 20
5.9643676581
 30
0.0
 10
5.7802538474
 20
5.9648069438
 30
0.0
 10
5.7793434322
 20
5.965190354
 30
0.0
 10
5.778347196
 20
5.9655105026
 30
0.0
 10
5.7772849146
 20
5.9657609867
 30
0.0
 10
5.7761778448
 20
5.9659367995
 30
0.0
 10
5.7754250846
 20
5.9660018125
 30
0.0
 10
5.7750459595
 20
5.966021056
 30
0.0
  0
SPLINE
  5
423
100
AcDbEntity
  8
0
100
AcDbSpline
 62
7
  6
CONTINUOUS
 70
0
 71
3
 72
15
 73
11
 74
0
 42
0.0000001
 43
0.0000001
 44
0.0000000001
 40
0.0
 40
0.0
 40
0.0
 40
0.0
 40
0.0934503503
 40
0.1970287425
 40
0.3108983822
 40
0.4345135759
 40
0.5668113531
 40
0.7063439295
 40
0.8513779764
 40
1.0
 40
1.0
 40
1.0
 40
1.0
 10
5.7741657989
 20
6.0996224169
 30
0.0
 10
5.7739910425
 20
6.0997643653
 30
0.0
 10
5.7735921808
 20
6.1000269475
 30
0.0
 10
5.772908743
 20
6.1003386814
 30
0.0
 10
5.7721224643
 20
6.1005836824
 30
0.0
 10
5.7712473324
 20
6.100757776
 30
0.0
 10
5.7702987462
 20
6.1008580865
 30
0.0
 10
5.7692937337
 20
6.1008827927
 30
0.0
 10
5.7682505042
 20
6.1008314552
 30
0.0
 10
5.7675473437
 20
6.1007477339
 30
0.0
 10
5.7671933989
 20
6.1006935822
 30
0.0
  0
SPLINE
  5
424
100
AcDbEntity
  8
0
100
AcDbSpline
 62
7
  6
CONTINUOUS
 70
0
 71
3
 72
13
 73
9
 74
0
 42
0.0000001
 43
0.0000001
 44
0.0000000001
 40
0.0
 40
0.0
 40
0.0
 40
0.0
 40
0.2489627543
 40
0.3743690558
 40
0.4999999776
 40
0.6256308993
 40
0.7510372066
 40
1.0
 40
1.0
 40
1.0
 40
1.0
 10
5.4531219454
 20
5.7571943765
 30
0.0
 10
5.4434082394
 20
5.740604276
 30
0.0
 10
5.4288280301
 20
5.7156419774
 30
0.0
 10
5.4094343616
 20
5.682256638
 30
0.0
 10
5.3948685211
 20
5.6570806701
 30
0.0
 10
5.3803484439
 20
5.6318782802
 30
0.0
 10
5.3611327165
 20
5.5983902025
 30
0.0
 10
5.3468048078
 20
5.573282234
 30
0.0
 10
5.337294215
 20
5.5565748625
 30
0.0
  0
SPLINE
  5
425
100
AcDbEntity
  8
0
100
AcDbSpline
 62
7
  6
CONTINUOUS
 70
0
 71
3
 72
15
 73
11
 74
0
 42
0.0000001
 43
0.0000001
 44
0.0000000001
 40
0.0
 40
0.0
 40
0.0
 40
0.0
 40
0.0737108394
 40
0.149055884
 40
0.2359725769
 40
0.3412108603
 40
0.4686122889
 40
0.6202493171
 40
0.7972275771
 40
1.0
 40
1.0
 40
1.0
 40
1.0
 10
5.677176928
 20
5.4823808425
 30
0.0
 10
5.6772144318
 20
5.4823808428
 30
0.0
 10
5.6772914143
 20
5.4823945132
 30
0.0
 10
5.6773934435
 20
5.4824630983
 30
0.0
 10
5.6774760699
 20
5.482573457
 30
0.0
 10
5.6775422091
 20
5.4827229298
 30
0.0
 10
5.677593304
 20
5.4829121919
 30
0.0
 10
5.6776296539
 20
5.4831416546
 30
0.0
 10
5.6776511592
 20
5.4834113608
 30
0.0
 10
5.6776552669
 20
5.4836046295
 30
0.0
 10
5.6776552605
 20
5.4837077992
 30
0.0
  0
SPLINE
  5
426
100
AcDbEntity
  8
0
100
AcDbSpline
 62
7
  6
CONTINUOUS
 70
0
 71
3
 72
15
 73
11
 74
0
 42
0.0000001
 43
0.0000001
 44
0.0000000001
 40
0.0
 40
0.0
 40
0.0
 40
0.0
 40
0.202754515
 40
0.3797188148
 40
0.5313464243
 40
0.6587434366
 40
0.7639827642
 40
0.8509079396
 40
0.9262705265
 40
1.0
 40
1.0
 40
1.0
 40
1.0
 10
5.7667192888
 20
5.4837080601
 30
0.0
 10
5.7667192953
 20
5.4836048901
 30
0.0
 10
5.7667234288
 20
5.4834116204
 30
0.0
 10
5.7667449761
 20
5.4831419136
 30
0.0
 10
5.7667813692
 20
5.4829124503
 30
0.0
 10
5.7668325069
 20
5.4827231878
 30
0.0
 10
5.7668986864
 20
5.4825737134
 30
0.0
 10
5.7669813575
 20
5.4824633542
 30
0.0
 10
5.7670834315
 20
5.4823947766
 30
0.0
 10
5.7671604384
 20
5.4823811064
 30
0.0
 10
5.7671979551
 20
5.4823811063
 30
0.0
  0
SPLINE
  5
427
100
AcDbEntity
  8
0
100
AcDbSpline
 62
7
  6
CONTINUOUS
 70
0
 71
3
 72
19
 73
15
 74
0
 42
0.0000001
 43
0.0000001
 44
0.0000000001
 40
0.0
 40
0.0
 40
0.0
 40
0.0
 40
0.2034712876
 40
0.3885884359
 40
0.5523316416
 40
0.6921638698
 40
0.7525154887
 40
0.8062638834
 40
0.8533431403
 40
0.8937978923
 40
0.9278533416
 40
0.956042242
 40
0.9794422059
 40
1.0
 40
1.0
 40
1.0
 40
1.0
 10
4.9689338555
 20
6.243851373
 30
0.0
 10
4.9689615506
 20
6.24415186
 30
0.0
 10
4.9690223514
 20
6.2447250474
 30
0.0
 10
4.9691360284
 20
6.2455364594
 30
0.0
 10
4.9692662504
 20
6.246249647
 30
0.0
 10
4.9693916065
 20
6.2467750808
 30
0.0
 10
4.9695011502
 20
6.2471355154
 30
0.0
 10
4.9695818398
 20
6.2473606505
 30
0.0
 10
4.9696647353
 20
6.2475532753
 30
0.0
 10
4.9697495281
 20
6.2477127252
 30
0.0
 10
4.9698360002
 20
6.2478386485
 30
0.0
 10
4.9699244327
 20
6.2479309209
 30
0.0
 10
4.9700159483
 20
6.2479891467
 30
0.0
 10
4.9700815646
 20
6.248003231
 30
0.0
 10
4.9701120531
 20
6.248003231
 30
0.0
  0
SPLINE
  5
428
100
AcDbEntity
  8
0
100
AcDbSpline
 62
7
  6
CONTINUOUS
 70
0
 71
3
 72
9
 73
5
 74
0
 42
0.0000001
 43
0.0000001
 44
0.0000000001
 40
0.0
 40
0.0
 40
0.0
 40
0.0
 40
0.4846194878
 40
1.0
 40
1.0
 40
1.0
 40
1.0
 10
5.6771710642
 20
5.7532933185
 30
0.0
 10
5.6773342437
 20
5.7544935649
 30
0.0
 10
5.6775744522
 20
5.7569838768
 30
0.0
 10
5.677649493
 20
5.7594840308
 30
0.0
 10
5.677649484
 20
5.7607722051
 30
0.0
  0
SPLINE
  5
429
100
AcDbEntity
  8
0
100
AcDbSpline
 62
7
  6
CONTINUOUS
 70
0
 71
3
 72
9
 73
5
 74
0
 42
0.0000001
 43
0.0000001
 44
0.0000000001
 40
0.0
 40
0.0
 40
0.0
 40
0.0
 40
0.5153801828
 40
1.0
 40
1.0
 40
1.0
 40
1.0
 10
5.7667135123
 20
5.760772466
 30
0.0
 10
5.7667135212
 20
5.7594842912
 30
0.0
 10
5.7667886029
 20
5.7569841346
 30
0.0
 10
5.7670288878
 20
5.7544938276
 30
0.0
 10
5.7671920913
 20
5.7532935822
 30
0.0
  0
SPLINE
  5
42A
100
AcDbEntity
  8
0
100
AcDbSpline
 62
7
  6
CONTINUOUS
 70
0
 71
3
 72
11
 73
7
 74
0
 42
0.0000001
 43
0.0000001
 44
0.0000000001
 40
0.0
 40
0.0
 40
0.0
 40
0.0
 40
0.2229379891
 40
0.4650656836
 40
0.7247143261
 40
1.0
 40
1.0
 40
1.0
 40
1.0
 10
5.6776525821
 20
5.552716438
 30
0.0
 10
5.6776525693
 20
5.5531753
 30
0.0
 10
5.6776295624
 20
5.5541325861
 30
0.0
 10
5.6775368375
 20
5.5556216235
 30
0.0
 10
5.6773854615
 20
5.5572140769
 30
0.0
 10
5.6772503071
 20
5.5583069273
 30
0.0
 10
5.6771739594
 20
5.5588683666
 30
0.0
  0
SPLINE
  5
42B
100
AcDbEntity
  8
0
100
AcDbSpline
 62
7
  6
CONTINUOUS
 70
0
 71
3
 72
11
 73
7
 74
0
 42
0.0000001
 43
0.0000001
 44
0.0000000001
 40
0.0
 40
0.0
 40
0.0
 40
0.0
 40
0.2752853509
 40
0.5349338103
 40
0.7770616042
 40
1.0
 40
1.0
 40
1.0
 40
1.0
 10
5.7671949864
 20
5.5588686304
 30
0.0
 10
5.7671186934
 20
5.5583071858
 30
0.0
 10
5.7669835387
 20
5.5572143399
 30
0.0
 10
5.7668322313
 20
5.5556218841
 30
0.0
 10
5.7667395639
 20
5.5541328466
 30
0.0
 10
5.7667165967
 20
5.5531755607
 30
0.0
 10
5.7667166104
 20
5.552716699
 30
0.0
  0
SPLINE
  5
42C
100
AcDbEntity
  8
0
100
AcDbSpline
 62
7
  6
CONTINUOUS
 70
0
 71
3
 72
11
 73
7
 74
0
 42
0.0000001
 43
0.0000001
 44
0.0000000001
 40
0.0
 40
0.0
 40
0.0
 40
0.0
 40
0.2752855659
 40
0.5349341622
 40
0.777061922
 40
1.0
 40
1.0
 40
1.0
 40
1.0
 10
5.6771723719
 20
6.1006933185
 30
0.0
 10
5.6772486783
 20
6.1012547631
 30
0.0
 10
5.6773838616
 20
6.1023476088
 30
0.0
 10
5.6775352187
 20
6.1039400642
 30
0.0
 10
5.6776279412
 20
6.1054291013
 30
0.0
 10
5.6776509503
 20
6.1063863877
 30
0.0
 10
5.6776509585
 20
6.1068452499
 30
0.0
  0
SPLINE
  5
42D
100
AcDbEntity
  8
0
100
AcDbSpline
 62
7
  6
CONTINUOUS
 70
0
 71
3
 72
11
 73
7
 74
0
 42
0.0000001
 43
0.0000001
 44
0.0000000001
 40
0.0
 40
0.0
 40
0.0
 40
0.0
 40
0.222938307
 40
0.4650660355
 40
0.7247145412
 40
1.0
 40
1.0
 40
1.0
 40
1.0
 10
5.7667149869
 20
6.1068455108
 30
0.0
 10
5.7667149777
 20
6.1063866492
 30
0.0
 10
5.7667379427
 20
6.1054293636
 30
0.0
 10
5.7668306125
 20
6.1039403258
 30
0.0
 10
5.7669819388
 20
6.1023478722
 30
0.0
 10
5.7671170646
 20
6.1012550215
 30
0.0
 10
5.7671933989
 20
6.1006935822
 30
0.0
  0
SPLINE
  5
42E
100
AcDbEntity
  8
0
100
AcDbSpline
 62
7
  6
CONTINUOUS
 70
0
 71
3
 72
9
 73
5
 74
0
 42
0.0000001
 43
0.0000001
 44
0.0000000001
 40
0.0
 40
0.0
 40
0.0
 40
0.0
 40
0.5153805688
 40
1.0
 40
1.0
 40
1.0
 40
1.0
 10
5.6776490796
 20
5.8987894828
 30
0.0
 10
5.6776490809
 20
5.9000776571
 30
0.0
 10
5.677574028
 20
5.9025778114
 30
0.0
 10
5.677333791
 20
5.9050681197
 30
0.0
 10
5.677170616
 20
5.9062683666
 30
0.0
  0
SPLINE
  5
42F
100
AcDbEntity
  8
0
100
AcDbSpline
 62
7
  6
CONTINUOUS
 70
0
 71
3
 72
9
 73
5
 74
0
 42
0.0000001
 43
0.0000001
 44
0.0000000001
 40
0.0
 40
0.0
 40
0.0
 40
0.0
 40
0.4846198738
 40
1.0
 40
1.0
 40
1.0
 40
1.0
 10
5.7671916431
 20
5.9062686304
 30
0.0
 10
5.7670284351
 20
5.9050683854
 30
0.0
 10
5.7667881786
 20
5.9025780749
 30
0.0
 10
5.7667131092
 20
5.9000779184
 30
0.0
 10
5.7667131079
 20
5.8987897437
 30
0.0
  0
SPLINE
  5
430
100
AcDbEntity
  8
0
100
AcDbSpline
 62
7
  6
CONTINUOUS
 70
0
 71
3
 72
15
 73
11
 74
0
 42
0.0000001
 43
0.0000001
 44
0.0000000001
 40
0.0
 40
0.0
 40
0.0
 40
0.0
 40
0.2027725271
 40
0.3797508873
 40
0.531388096
 40
0.6587895488
 40
0.764027211
 40
0.8509436146
 40
0.9262903727
 40
1.0
 40
1.0
 40
1.0
 40
1.0
 10
5.6776532326
 20
6.1758538887
 30
0.0
 10
5.6776532384
 20
6.1759570584
 30
0.0
 10
5.6776491294
 20
6.1761503271
 30
0.0
 10
5.6776276219
 20
6.1764200333
 30
0.0
 10
5.6775912693
 20
6.1766494956
 30
0.0
 10
5.6775401728
 20
6.1768387569
 30
0.0
 10
5.6774740359
 20
6.1769882299
 30
0.0
 10
5.6773914092
 20
6.1770985895
 30
0.0
 10
5.6772893777
 20
6.1771671712
 30
0.0
 10
5.6772123954
 20
6.1771808424
 30
0.0
 10
5.6771748923
 20
6.1771808425
 30
0.0
  0
SPLINE
  5
431
100
AcDbEntity
  8
0
100
AcDbSpline
 62
7
  6
CONTINUOUS
 70
0
 71
3
 72
15
 73
11
 74
0
 42
0.0000001
 43
0.0000001
 44
0.0000000001
 40
0.0
 40
0.0
 40
0.0
 40
0.0
 40
0.0737306855
 40
0.1490915589
 40
0.2360170236
 40
0.3412569726
 40
0.4686539606
 40
0.6202813896
 40
0.7972455891
 40
1.0
 40
1.0
 40
1.0
 40
1.0
 10
5.7671959194
 20
6.1771811063
 30
0.0
 10
5.7671584021
 20
6.1771811061
 30
0.0
 10
5.7670813949
 20
6.1771674367
 30
0.0
 10
5.7669793232
 20
6.1770988556
 30
0.0
 10
5.7668966524
 20
6.1769884973
 30
0.0
 10
5.7668304707
 20
6.1768390231
 30
0.0
 10
5.7667793345
 20
6.1766497598
 30
0.0
 10
5.7667429442
 20
6.1764202962
 30
0.0
 10
5.766721399
 20
6.1761505893
 30
0.0
 10
5.7667172667
 20
6.1759573197
 30
0.0
 10
5.7667172609
 20
6.1758541497
 30
0.0
  0
SPLINE
  5
432
100
AcDbEntity
  8
0
100
AcDbSpline
 62
7
  6
CONTINUOUS
 70
0
 71
3
 72
19
 73
15
 74
0
 42
0.0000001
 43
0.0000001
 44
0.0000000001
 40
0.0
 40
0.0
 40
0.0
 40
0.0
 40
0.2034712861
 40
0.388588433
 40
0.5523316375
 40
0.6921638649
 40
0.7525154834
 40
0.806263878
 40
0.853343135
 40
0.8937978873
 40
0.9278533371
 40
0.9560422385
 40
0.9794422038
 40
1.0
 40
1.0
 40
1.0
 40
1.0
 10
5.2224746635
 20
6.243851373
 30
0.0
 10
5.2224469685
 20
6.24415186
 30
0.0
 10
5.2223861677
 20
6.2447250474
 30
0.0
 10
5.2222724907
 20
6.2455364594
 30
0.0
 10
5.2221422687
 20
6.246249647
 30
0.0
 10
5.2220169126
 20
6.2467750808
 30
0.0
 10
5.2219073689
 20
6.2471355154
 30
0.0
 10
5.2218266793
 20
6.2473606505
 30
0.0
 10
5.2217437838
 20
6.2475532753
 30
0.0
 10
5.221658991
 20
6.2477127252
 30
0.0
 10
5.2215725189
 20
6.2478386485
 30
0.0
 10
5.2214840864
 20
6.2479309209
 30
0.0
 10
5.2213925708
 20
6.2479891467
 30
0.0
 10
5.2213269544
 20
6.248003231
 30
0.0
 10
5.221296466
 20
6.248003231
 30
0.0
  0
SPLINE
  5
433
100
AcDbEntity
  8
0
100
AcDbSpline
 62
7
  6
CONTINUOUS
 70
0
 71
3
 72
13
 73
9
 74
0
 42
0.0000001
 43
0.0000001
 44
0.0000000001
 40
0.0
 40
0.0
 40
0.0
 40
0.0
 40
0.1123081328
 40
0.2288640867
 40
0.34967993
 40
0.4744780122
 40
0.7334211197
 40
1.0
 40
1.0
 40
1.0
 40
1.0
 10
5.6706977206
 20
5.5557769946
 30
0.0
 10
5.6708743879
 20
5.555541925
 30
0.0
 10
5.6712708273
 20
5.5550893658
 30
0.0
 10
5.6719642563
 20
5.5544877465
 30
0.0
 10
5.6727553941
 20
5.5539604913
 30
0.0
 10
5.6739358716
 20
5.5533616597
 30
0.0
 10
5.675574921
 20
5.5528523258
 30
0.0
 10
5.676954599
 20
5.5527164368
 30
0.0
 10
5.6776525821
 20
5.552716438
 30
0.0
  0
SPLINE
  5
434
100
AcDbEntity
  8
0
100
AcDbSpline
 62
7
  6
CONTINUOUS
 70
0
 71
3
 72
15
 73
11
 74
0
 42
0.0000001
 43
0.0000001
 44
0.0000000001
 40
0.0
 40
0.0
 40
0.0
 40
0.0
 40
0.1258020456
 40
0.2513535014
 40
0.37664793
 40
0.5016863794
 40
0.6264932253
 40
0.7511100027
 40
0.8755879866
 40
1.0
 40
1.0
 40
1.0
 40
1.0
 10
5.6702045826
 20
5.4866566067
 30
0.0
 10
5.6703703493
 20
5.4863365841
 30
0.0
 10
5.6707450863
 20
5.4857186545
 30
0.0
 10
5.6714258485
 20
5.4848774019
 30
0.0
 10
5.6722126649
 20
5.4841372658
 30
0.0
 10
5.67309098
 20
5.4835121379
 30
0.0
 10
5.6740446291
 20
5.483013506
 30
0.0
 10
5.6750561005
 20
5.4826506123
 30
0.0
 10
5.6761064887
 20
5.4824301382
 30
0.0
 10
5.6768205035
 20
5.4823808415
 30
0.0
 10
5.677176928
 20
5.4823808425
 30
0.0
  0
SPLINE
  5
435
100
AcDbEntity
  8
0
100
AcDbSpline
 62
7
  6
CONTINUOUS
 70
0
 71
3
 72
19
 73
15
 74
0
 42
0.0000001
 43
0.0000001
 44
0.0000000001
 40
0.0
 40
0.0
 40
0.0
 40
0.0
 40
0.2034103881
 40
0.3884794029
 40
0.552188325
 40
0.6920016577
 40
0.7523503812
 40
0.8061007984
 40
0.8531876305
 40
0.8936563918
 40
0.9277334815
 40
0.9559531042
 40
0.9793937877
 40
1.0
 40
1.0
 40
1.0
 40
1.0
 10
5.3907024451
 20
6.1467834313
 30
0.0
 10
5.3909766803
 20
6.1469095744
 30
0.0
 10
5.3915037947
 20
6.1471432717
 30
0.0
 10
5.3922638232
 20
6.1474501085
 30
0.0
 10
5.3929470504
 20
6.1476934728
 30
0.0
 10
5.3934651549
 20
6.147847208
 30
0.0
 10
5.3938323634
 20
6.1479322021
 30
0.0
 10
5.3940678874
 20
6.1479746352
 30
0.0
 10
5.3942763493
 20
6.1479988998
 30
0.0
 10
5.3944570188
 20
6.1480049312
 30
0.0
 10
5.3946094811
 20
6.1479927416
 30
0.0
 10
5.3947337664
 20
6.1479620233
 30
0.0
 10
5.3948300801
 20
6.1479116053
 30
0.0
 10
5.3948751493
 20
6.147861653
 30
0.0
 10
5.3948904298
 20
6.1478351655
 30
0.0
  0
LINE
  5
436
100
AcDbEntity
  8
0
100
AcDbLine
 62
7
  6
CONTINUOUS
 10
5.3581134759
 20
2.4561328954
 11
5.3579568752
 21
2.4560648568
  0
LINE
  5
437
100
AcDbEntity
  8
0
100
AcDbLine
 62
7
  6
CONTINUOUS
 10
5.2913699679
 20
2.3418614777
 11
5.291535311
 21
2.3423430598
  0
SPLINE
  5
438
100
AcDbEntity
  8
0
100
AcDbSpline
 62
7
  6
CONTINUOUS
 70
0
 71
3
 72
15
 73
11
 74
0
 42
0.0000001
 43
0.0000001
 44
0.0000000001
 40
0.0
 40
0.0
 40
0.0
 40
0.0
 40
0.1221934477
 40
0.2452778305
 40
0.3692878605
 40
0.4941835655
 40
0.6198702282
 40
0.7462008878
 40
0.8729813676
 40
1.0
 40
1.0
 40
1.0
 40
1.0
 10
5.6706983639
 20
6.1720309912
 30
0.0
 10
5.6708724373
 20
6.1723202996
 30
0.0
 10
5.6712618582
 20
6.1728779551
 30
0.0
 10
5.6719542931
 20
6.1736313256
 30
0.0
 10
5.6727453758
 20
6.1742922382
 30
0.0
 10
5.6736212542
 20
6.1748491069
 30
0.0
 10
5.6745667455
 20
6.1752924498
 30
0.0
 10
5.6755655423
 20
6.1756146399
 30
0.0
 10
5.6766001863
 20
6.1758101987
 30
0.0
 10
5.6773022596
 20
6.1758538877
 30
0.0
 10
5.6776532326
 20
6.1758538887
 30
0.0
  0
SPLINE
  5
439
100
AcDbEntity
  8
0
100
AcDbSpline
 62
7
  6
CONTINUOUS
 70
0
 71
3
 72
15
 73
11
 74
0
 42
0.0000001
 43
0.0000001
 44
0.0000000001
 40
0.0
 40
0.0
 40
0.0
 40
0.0
 40
0.0934488445
 40
0.1970257564
 40
0.3108942357
 40
0.4345087937
 40
0.5668065987
 40
0.7063399542
 40
0.8513755804
 40
1.0
 40
1.0
 40
1.0
 40
1.0
 10
5.6702001571
 20
6.0996221123
 30
0.0
 10
5.6703749002
 20
6.0997640633
 30
0.0
 10
5.670773737
 20
6.1000266514
 30
0.0
 10
5.6714571421
 20
6.1003383927
 30
0.0
 10
5.6722433913
 20
6.1005834002
 30
0.0
 10
5.6731184974
 20
6.1007574995
 30
0.0
 10
5.674067062
 20
6.1008578148
 30
0.0
 10
5.6750720575
 20
6.1008825248
 30
0.0
 10
5.6761152751
 20
6.1008311898
 30
0.0
 10
5.6768184294
 20
6.1007474697
 30
0.0
 10
5.6771723719
 20
6.1006933185
 30
0.0
  0
SPLINE
  5
43A
100
AcDbEntity
  8
0
100
AcDbSpline
 62
7
  6
CONTINUOUS
 70
0
 71
3
 72
14
 73
10
 74
0
 42
0.0000001
 43
0.0000001
 44
0.0000000001
 40
0.0
 40
0.0
 40
0.0
 40
0.0
 40
0.0858791665
 40
0.1864828656
 40
0.3003854692
 40
0.4258247197
 40
0.5607869134
 40
0.7030625503
 40
1.0
 40
1.0
 40
1.0
 40
1.0
 10
5.6706942568
 20
5.8980271622
 30
0.0
 10
5.6708849796
 20
5.8980903712
 30
0.0
 10
5.6713057552
 20
5.898207629
 30
0.0
 10
5.6719933348
 20
5.898354304
 30
0.0
 10
5.6727783963
 20
5.8984833557
 30
0.0
 10
5.6736474842
 20
5.8985923527
 30
0.0
 10
5.6745857302
 20
5.8986792809
 30
0.0
 10
5.6759264795
 20
5.8987647609
 30
0.0
 10
5.67695436
 20
5.8987894808
 30
0.0
 10
5.6776490796
 20
5.8987894828
 30
0.0
  0
SPLINE
  5
43B
100
AcDbEntity
  8
0
100
AcDbSpline
 62
7
  6
CONTINUOUS
 70
0
 71
3
 72
15
 73
11
 74
0
 42
0.0000001
 43
0.0000001
 44
0.0000000001
 40
0.0
 40
0.0
 40
0.0
 40
0.0
 40
0.1004478441
 40
0.210250526
 40
0.328664593
 40
0.4545200266
 40
0.5863426397
 40
0.7224381563
 40
0.8609612153
 40
1.0
 40
1.0
 40
1.0
 40
1.0
 10
5.6701988115
 20
5.7564978969
 30
0.0
 10
5.6703730287
 20
5.7563030675
 30
0.0
 10
5.6707678937
 20
5.7559218323
 30
0.0
 10
5.6714486791
 20
5.7554019049
 30
0.0
 10
5.6722331969
 20
5.7549163804
 30
0.0
 10
5.6731072911
 20
5.7544740619
 30
0.0
 10
5.6740552672
 20
5.7540828685
 30
0.0
 10
5.6750599458
 20
5.7537499355
 30
0.0
 10
5.6761030055
 20
5.7534813309
 30
0.0
 10
5.6768134507
 20
5.7533480293
 30
0.0
 10
5.6771710642
 20
5.7532933185
 30
0.0
  0
SPLINE
  5
43C
100
AcDbEntity
  8
0
100
AcDbSpline
 62
7
  6
CONTINUOUS
 70
0
 71
3
 72
15
 73
11
 74
0
 42
0.0000001
 43
0.0000001
 44
0.0000000001
 40
0.0
 40
0.0
 40
0.0
 40
0.0
 40
0.0934507205
 40
0.1970293146
 40
0.310899019
 40
0.4345141722
 40
0.5668118358
 40
0.7063442557
 40
0.8513781324
 40
1.0
 40
1.0
 40
1.0
 40
1.0
 10
5.7741673801
 20
5.5599398366
 30
0.0
 10
5.7739926244
 20
5.5597978856
 30
0.0
 10
5.773593764
 20
5.5595352982
 30
0.0
 10
5.7729103273
 20
5.5592235569
 30
0.0
 10
5.7721240495
 20
5.5589785493
 30
0.0
 10
5.7712489183
 20
5.5588044498
 30
0.0
 10
5.7703003327
 20
5.5587041342
 30
0.0
 10
5.7692953207
 20
5.558679424
 30
0.0
 10
5.7682520915
 20
5.5587307588
 30
0.0
 10
5.7675489311
 20
5.558814479
 30
0.0
 10
5.7671949864
 20
5.5588686304
 30
0.0
  0
SPLINE
  5
43D
100
AcDbEntity
  8
0
100
AcDbSpline
 62
7
  6
CONTINUOUS
 70
0
 71
3
 72
14
 73
10
 74
0
 42
0.0000001
 43
0.0000001
 44
0.0000000001
 40
0.0
 40
0.0
 40
0.0
 40
0.0
 40
0.0858820877
 40
0.186487974
 40
0.3003919428
 40
0.4258316847
 40
0.5607934708
 40
0.7030677976
 40
1.0
 40
1.0
 40
1.0
 40
1.0
 10
5.7736684997
 20
5.7615347866
 30
0.0
 10
5.7734777647
 20
5.7614715781
 30
0.0
 10
5.7730569663
 20
5.7613543207
 30
0.0
 10
5.7723693547
 20
5.7612076454
 30
0.0
 10
5.7715842651
 20
5.7610785936
 30
0.0
 10
5.7707151535
 20
5.7609695965
 30
0.0
 10
5.7697768885
 20
5.7608826682
 30
0.0
 10
5.7684361245
 20
5.7607971883
 30
0.0
 10
5.7674082357
 20
5.7607724681
 30
0.0
 10
5.7667135123
 20
5.760772466
 30
0.0
  0
SPLINE
  5
43E
100
AcDbEntity
  8
0
100
AcDbSpline
 62
7
  6
CONTINUOUS
 70
0
 71
3
 72
15
 73
11
 74
0
 42
0.0000001
 43
0.0000001
 44
0.0000000001
 40
0.0
 40
0.0
 40
0.0
 40
0.0
 40
0.1004493315
 40
0.2102533244
 40
0.3286683495
 40
0.4545242612
 40
0.586346783
 40
0.7224415808
 40
0.8609632617
 40
1.0
 40
1.0
 40
1.0
 40
1.0
 10
5.7741640238
 20
5.9030640519
 30
0.0
 10
5.7739897953
 20
5.9032588811
 30
0.0
 10
5.7735949094
 20
5.9036401158
 30
0.0
 10
5.7729140972
 20
5.9041600429
 30
0.0
 10
5.7721295564
 20
5.9046455674
 30
0.0
 10
5.7712554435
 20
5.905087886
 30
0.0
 10
5.7703074534
 20
5.9054790795
 30
0.0
 10
5.7693027658
 20
5.9058120127
 30
0.0
 10
5.7682597022
 20
5.9060806174
 30
0.0
 10
5.7675492562
 20
5.9062139194
 30
0.0
 10
5.7671916431
 20
5.9062686304
 30
0.0
  0
SPLINE
  5
43F
100
AcDbEntity
  8
0
100
AcDbSpline
 62
7
  6
CONTINUOUS
 70
0
 71
3
 72
13
 73
9
 74
0
 42
0.0000001
 43
0.0000001
 44
0.0000000001
 40
0.0
 40
0.0
 40
0.0
 40
0.0
 40
0.1123088366
 40
0.228865521
 40
0.3496819785
 40
0.4744804367
 40
0.7334232332
 40
1.0
 40
1.0
 40
1.0
 40
1.0
 10
5.773669958
 20
6.1037849542
 30
0.0
 10
5.7734932822
 20
6.104020024
 30
0.0
 10
5.7730968266
 20
6.104472583
 30
0.0
 10
5.7724033766
 20
6.105074202
 30
0.0
 10
5.7716122203
 20
6.105601457
 30
0.0
 10
5.7704317235
 20
6.1062002877
 30
0.0
 10
5.7687926597
 20
6.1067096215
 30
0.0
 10
5.7674129724
 20
6.106845512
 30
0.0
 10
5.7667149869
 20
6.1068455108
 30
0.0
  0
SPLINE
  5
440
100
AcDbEntity
  8
0
100
AcDbSpline
 62
7
  6
CONTINUOUS
 70
0
 71
3
 72
15
 73
11
 74
0
 42
0.0000001
 43
0.0000001
 44
0.0000000001
 40
0.0
 40
0.0
 40
0.0
 40
0.0
 40
0.1258024282
 40
0.2513541493
 40
0.376648719
 40
0.5016871873
 40
0.626493941
 40
0.7511105347
 40
0.8755882696
 40
1.0
 40
1.0
 40
1.0
 40
1.0
 10
5.7741682137
 20
6.1729053421
 30
0.0
 10
5.7740024484
 20
6.1732253646
 30
0.0
 10
5.7736277143
 20
6.1738432939
 30
0.0
 10
5.7729469572
 20
6.1746845465
 30
0.0
 10
5.7721601466
 20
6.1754246827
 30
0.0
 10
5.7712818379
 20
6.1760498107
 30
0.0
 10
5.7703281957
 20
6.1765484426
 30
0.0
 10
5.7693167317
 20
6.1769113364
 30
0.0
 10
5.768266351
 20
6.1771318106
 30
0.0
 10
5.7675523413
 20
6.1771811073
 30
0.0
 10
5.7671959194
 20
6.1771811063
 30
0.0
  0
SPLINE
  5
441
100
AcDbEntity
  8
0
100
AcDbSpline
 62
7
  6
CONTINUOUS
 70
0
 71
3
 72
13
 73
9
 74
0
 42
0.0000001
 43
0.0000001
 44
0.0000000001
 40
0.0
 40
0.0
 40
0.0
 40
0.0
 40
0.2489627543
 40
0.3743690558
 40
0.4999999776
 40
0.6256308993
 40
0.7510372066
 40
1.0
 40
1.0
 40
1.0
 40
1.0
 10
4.7382865737
 20
5.9024120855
 30
0.0
 10
4.7480002797
 20
5.919002186
 30
0.0
 10
4.762580489
 20
5.9439644846
 30
0.0
 10
4.7819741575
 20
5.977349824
 30
0.0
 10
4.796539998
 20
6.0025257919
 30
0.0
 10
4.8110600752
 20
6.0277281818
 30
0.0
 10
4.8302758025
 20
6.0612162595
 30
0.0
 10
4.8446037113
 20
6.086324228
 30
0.0
 10
4.8541143041
 20
6.1030315995
 30
0.0
  0
SPLINE
  5
442
100
AcDbEntity
  8
0
100
AcDbSpline
 62
7
  6
CONTINUOUS
 70
0
 71
3
 72
15
 73
11
 74
0
 42
0.0000001
 43
0.0000001
 44
0.0000000001
 40
0.0
 40
0.0
 40
0.0
 40
0.0
 40
0.1221936528
 40
0.2452782933
 40
0.3692885722
 40
0.4941844574
 40
0.6198711781
 40
0.7462017283
 40
0.8729818982
 40
1.0
 40
1.0
 40
1.0
 40
1.0
 10
5.7736742124
 20
5.4875309577
 30
0.0
 10
5.7735001348
 20
5.4872416491
 30
0.0
 10
5.7731107058
 20
5.4866839936
 30
0.0
 10
5.7724182602
 20
5.4859306233
 30
0.0
 10
5.7716271682
 20
5.4852697108
 30
0.0
 10
5.770751282
 20
5.4847128422
 30
0.0
 10
5.7698057846
 20
5.4842694992
 30
0.0
 10
5.7688069833
 20
5.4839473091
 30
0.0
 10
5.7677723366
 20
5.4837517503
 30
0.0
 10
5.7670702621
 20
5.4837080611
 30
0.0
 10
5.7667192888
 20
5.4837080601
 30
0.0
  0
SPLINE
  5
443
100
AcDbEntity
  8
0
100
AcDbSpline
 62
7
  6
CONTINUOUS
 70
0
 71
3
 72
13
 73
9
 74
0
 42
0.0000001
 43
0.0000001
 44
0.0000000001
 40
0.0
 40
0.0
 40
0.0
 40
0.0
 40
0.2489627682
 40
0.3743690685
 40
0.4999999866
 40
0.6256309041
 40
0.7510372107
 40
1.0
 40
1.0
 40
1.0
 40
1.0
 10
4.9798765291
 20
6.1756404539
 30
0.0
 10
4.9991008317
 20
6.1755231892
 30
0.0
 10
5.0280089222
 20
6.1753775383
 30
0.0
 10
5.066618309
 20
6.1752747688
 30
0.0
 10
5.0957042564
 20
6.1752483718
 30
0.0
 10
5.1247902042
 20
6.1752748061
 30
0.0
 10
5.1633995932
 20
6.1753775186
 30
0.0
 10
5.1923076858
 20
6.1755231832
 30
0.0
 10
5.21153199
 20
6.1756404539
 30
0.0
  0
SPLINE
  5
444
100
AcDbEntity
  8
0
100
AcDbSpline
 62
7
  6
CONTINUOUS
 70
0
 71
3
 72
15
 73
11
 74
0
 42
0.0000001
 43
0.0000001
 44
0.0000000001
 40
0.0
 40
0.0
 40
0.0
 40
0.0
 40
0.0959331692
 40
0.2020973652
 40
0.318172415
 40
0.4431974927
 40
0.5757530576
 40
0.7140859304
 40
0.8562068567
 40
1.0
 40
1.0
 40
1.0
 40
1.0
 10
5.7823047284
 20
5.6962406623
 30
0.0
 10
5.7821378526
 20
5.6960501508
 30
0.0
 10
5.7817486485
 20
5.6956812077
 30
0.0
 10
5.7810614121
 20
5.6951946354
 30
0.0
 10
5.7802546387
 20
5.6947553449
 30
0.0
 10
5.7793442257
 20
5.6943719294
 30
0.0
 10
5.7783479914
 20
5.6940517749
 30
0.0
 10
5.7772857114
 20
5.6938012847
 30
0.0
 10
5.7761786426
 20
5.6936254656
 30
0.0
 10
5.7754258828
 20
5.6935604483
 30
0.0
 10
5.7750467579
 20
5.6935412026
 30
0.0
  0
SPLINE
  5
445
100
AcDbEntity
  8
0
100
AcDbSpline
 62
7
  6
CONTINUOUS
 70
0
 71
3
 72
15
 73
11
 74
0
 42
0.0000001
 43
0.0000001
 44
0.0000000001
 40
0.0
 40
0.0
 40
0.0
 40
0.0
 40
0.0936612105
 40
0.1976968353
 40
0.3121621103
 40
0.4363529966
 40
0.5690180443
 40
0.7085047301
 40
0.8528702723
 40
1.0
 40
1.0
 40
1.0
 40
1.0
 10
5.7823046291
 20
6.0389786148
 30
0.0
 10
5.7821377472
 20
6.0391521894
 30
0.0
 10
5.7817473226
 20
6.0394825598
 30
0.0
 10
5.7810589228
 20
6.039899659
 30
0.0
 10
5.780251375
 20
6.0402569927
 30
0.0
 10
5.7793405056
 20
6.0405477441
 30
0.0
 10
5.7783440056
 20
6.0407664702
 30
0.0
 10
5.777281581
 20
6.0409088124
 30
0.0
 10
5.7761744387
 20
6.0409719393
 30
0.0
 10
5.775424393
 20
6.0409603787
 30
0.0
 10
5.7750466361
 20
6.0409412026
 30
0.0
  0
LINE
  5
446
100
AcDbEntity
  8
0
100
AcDbLine
 62
7
  6
CONTINUOUS
 10
5.6607721102
 20
5.4871157267
 11
5.6702045826
 21
5.4866566067
  0
SPLINE
  5
447
100
AcDbEntity
  8
0
100
AcDbSpline
 62
7
  6
CONTINUOUS
 70
0
 71
3
 72
13
 73
9
 74
0
 42
0.0000001
 43
0.0000001
 44
0.0000000001
 40
0.0
 40
0.0
 40
0.0
 40
0.0
 40
0.2489627852
 40
0.3743690902
 40
0.500000009
 40
0.6256309255
 40
0.7510372314
 40
1.0
 40
1.0
 40
1.0
 40
1.0
 10
5.337294215
 20
6.1030315995
 30
0.0
 10
5.346804811
 20
6.0863242306
 30
0.0
 10
5.3611326989
 20
6.061216251
 30
0.0
 10
5.3803484065
 20
6.0277281631
 30
0.0
 10
5.3948685079
 20
6.0025257881
 30
0.0
 10
5.4094343685
 20
5.9773498321
 30
0.0
 10
5.4288280252
 20
5.9439644847
 30
0.0
 10
5.4434082429
 20
5.9190021893
 30
0.0
 10
5.4531219454
 20
5.9024120855
 30
0.0
  0
LINE
  5
448
100
AcDbEntity
  8
0
100
AcDbLine
 62
7
  6
CONTINUOUS
 10
5.1625840263
 20
2.2682736604
 11
5.1621258237
 21
2.2684881321
  0
LINE
  5
449
100
AcDbEntity
  8
0
100
AcDbLine
 62
7
  6
CONTINUOUS
 10
5.0288244891
 20
2.2682736606
 11
5.0292826954
 21
2.2684881321
  0
SPLINE
  5
44A
100
AcDbEntity
  8
0
100
AcDbSpline
 62
7
  6
CONTINUOUS
 70
0
 71
3
 72
33
 73
29
 74
0
 42
0.0000001
 43
0.0000001
 44
0.0000000001
 40
0.0
 40
0.0
 40
0.0
 40
0.0
 40
0.0628141774
 40
0.1256479333
 40
0.1884854045
 40
0.2512902239
 40
0.2826769398
 40
0.3140418534
 40
0.3453827334
 40
0.3766994598
 40
0.3923506765
 40
0.4079970773
 40
0.4392761192
 40
0.4705441093
 40
0.5018034105
 40
0.5330541544
 40
0.5642947996
 40
0.6267163366
 40
0.6890615463
 40
0.7202091718
 40
0.751333664
 40
0.7824374735
 40
0.7979844095
 40
0.8135284279
 40
0.8446092908
 40
0.8756889683
 40
0.9378379734
 40
1.0
 40
1.0
 40
1.0
 40
1.0
 10
5.0957042595
 20
2.3604266248
 30
0.0
 10
5.0882521241
 20
2.3604266248
 30
0.0
 10
5.0733354611
 20
2.3611751864
 30
0.0
 10
5.0511851347
 20
2.3644751161
 30
0.0
 10
5.0294539591
 20
2.3698835475
 30
0.0
 10
5.0118578937
 20
2.3760957365
 30
0.0
 10
4.998200259
 20
2.3820533341
 30
0.0
 10
4.9881916295
 20
2.387007235
 30
0.0
 10
4.9784436845
 20
2.3924385445
 30
0.0
 10
4.9705571165
 20
2.3973569515
 30
0.0
 10
4.9644051064
 20
2.4015216066
 30
0.0
 10
4.9583636052
 20
2.405837343
 30
0.0
 10
4.9510212283
 20
2.4115140616
 30
0.0
 10
4.9425632042
 20
2.4187538827
 30
0.0
 10
4.9344745515
 20
2.4263992723
 30
0.0
 10
4.9267712051
 20
2.434428445
 30
0.0
 10
4.9170396727
 20
2.4456112686
 30
0.0
 10
4.9059152732
 20
2.460441831
 30
0.0
 10
4.8962832497
 20
2.4762699893
 30
0.0
 10
4.8895438263
 20
2.4894345708
 30
0.0
 10
4.8849877666
 20
2.4995373248
 30
0.0
 10
4.8816188615
 20
2.5081319307
 30
0.0
 10
4.8791893199
 20
2.515099874
 30
0.0
 10
4.8769398146
 20
2.5221251153
 30
0.0
 10
4.8744649857
 20
2.5310100256
 30
0.0
 10
4.8712259601
 20
2.5454030124
 30
0.0
 10
4.868525706
 20
2.5636710443
 30
0.0
 10
4.8678062342
 20
2.5784284653
 30
0.0
 10
4.8678062342
 20
2.585803231
 30
0.0
  0
LINE
  5
44B
100
AcDbEntity
  8
0
100
AcDbLine
 62
7
  6
CONTINUOUS
 10
4.90003855
 20
2.3418614796
 11
4.8998732081
 21
2.3423430598
  0
LINE
  5
44C
100
AcDbEntity
  8
0
100
AcDbLine
 62
7
  6
CONTINUOUS
 10
4.8332950421
 20
2.4561328973
 11
4.8334516439
 21
2.4560648568
  0
SPLINE
  5
44D
100
AcDbEntity
  8
0
100
AcDbSpline
 62
7
  6
CONTINUOUS
 70
0
 71
3
 72
19
 73
15
 74
0
 42
0.0000001
 43
0.0000001
 44
0.0000000001
 40
0.0
 40
0.0
 40
0.0
 40
0.0
 40
0.2034103891
 40
0.3884794049
 40
0.5521883278
 40
0.6920016612
 40
0.7523503849
 40
0.8061008021
 40
0.8531876342
 40
0.8936563954
 40
0.9277334846
 40
0.9559531066
 40
0.9793937891
 40
1.0
 40
1.0
 40
1.0
 40
1.0
 10
5.3907024451
 20
5.5128230307
 30
0.0
 10
5.3909766803
 20
5.5126968876
 30
0.0
 10
5.3915037947
 20
5.5124631903
 30
0.0
 10
5.3922638232
 20
5.5121563536
 30
0.0
 10
5.3929470504
 20
5.5119129892
 30
0.0
 10
5.3934651549
 20
5.511759254
 30
0.0
 10
5.3938323634
 20
5.5116742599
 30
0.0
 10
5.3940678874
 20
5.5116318268
 30
0.0
 10
5.3942763493
 20
5.5116075622
 30
0.0
 10
5.3944570189
 20
5.5116015308
 30
0.0
 10
5.3946094811
 20
5.5116137204
 30
0.0
 10
5.3947337664
 20
5.5116444387
 30
0.0
 10
5.3948300801
 20
5.5116948567
 30
0.0
 10
5.3948751493
 20
5.511744809
 30
0.0
 10
5.3948904298
 20
5.5117712965
 30
0.0
  0
SPLINE
  5
44E
100
AcDbEntity
  8
0
100
AcDbSpline
 62
7
  6
CONTINUOUS
 70
0
 71
3
 72
19
 73
15
 74
0
 42
0.0000001
 43
0.0000001
 44
0.0000000001
 40
0.0
 40
0.0
 40
0.0
 40
0.0
 40
0.2034103881
 40
0.3884794029
 40
0.552188325
 40
0.6920016577
 40
0.7523503812
 40
0.8061007984
 40
0.8531876305
 40
0.8936563918
 40
0.9277334815
 40
0.9559531042
 40
0.9793937877
 40
1.0
 40
1.0
 40
1.0
 40
1.0
 10
4.800706074
 20
5.5128230307
 30
0.0
 10
4.8004318387
 20
5.5126968876
 30
0.0
 10
4.7999047244
 20
5.5124631903
 30
0.0
 10
4.7991446959
 20
5.5121563535
 30
0.0
 10
4.7984614687
 20
5.5119129892
 30
0.0
 10
4.7979433642
 20
5.5117592539
 30
0.0
 10
4.7975761557
 20
5.5116742599
 30
0.0
 10
4.7973406317
 20
5.5116318268
 30
0.0
 10
4.7971321698
 20
5.5116075622
 30
0.0
 10
4.7969515002
 20
5.5116015308
 30
0.0
 10
4.796799038
 20
5.5116137204
 30
0.0
 10
4.7966747526
 20
5.5116444387
 30
0.0
 10
4.796578439
 20
5.5116948567
 30
0.0
 10
4.7965333698
 20
5.511744809
 30
0.0
 10
4.7965180893
 20
5.5117712965
 30
0.0
  0
SPLINE
  5
44F
100
AcDbEntity
  8
0
100
AcDbSpline
 62
7
  6
CONTINUOUS
 70
0
 71
3
 72
19
 73
15
 74
0
 42
0.0000001
 43
0.0000001
 44
0.0000000001
 40
0.0
 40
0.0
 40
0.0
 40
0.0
 40
0.2034103876
 40
0.3884794019
 40
0.5521883236
 40
0.6920016561
 40
0.7523503795
 40
0.8061007966
 40
0.8531876287
 40
0.8936563902
 40
0.92773348
 40
0.955953103
 40
0.979393787
 40
1.0
 40
1.0
 40
1.0
 40
1.0
 10
4.6736257
 20
5.7331074894
 30
0.0
 10
4.6733792194
 20
5.7329332356
 30
0.0
 10
4.6729130411
 20
5.7325939101
 30
0.0
 10
4.6722669516
 20
5.7320895685
 30
0.0
 10
4.6717142554
 20
5.7316199383
 30
0.0
 10
4.6713218091
 20
5.7312483839
 30
0.0
 10
4.6710644085
 20
5.730973046
 30
0.0
 10
4.6709097728
 20
5.730790399
 30
0.0
 10
4.6707844124
 20
5.730622084
 30
0.0
 10
4.6706887488
 20
5.7304687011
 30
0.0
 10
4.6706229793
 20
5.7303306153
 30
0.0
 10
4.6705873549
 20
5.7302076463
 30
0.0
 10
4.6705827867
 20
5.7300990303
 30
0.0
 10
4.670603468
 20
5.7300350089
 30
0.0
 10
4.6706187485
 20
5.7300085213
 30
0.0
  0
LINE
  5
450
100
AcDbEntity
  8
0
100
AcDbLine
 62
7
  6
CONTINUOUS
 10
5.7835199752
 20
6.1727957035
 11
5.7823090296
 21
6.172519103
  0
SPLINE
  5
451
100
AcDbEntity
  8
0
100
AcDbSpline
 62
7
  6
CONTINUOUS
 70
0
 71
3
 72
19
 73
15
 74
0
 42
0.0000001
 43
0.0000001
 44
0.0000000001
 40
0.0
 40
0.0
 40
0.0
 40
0.0
 40
0.2034103881
 40
0.3884794029
 40
0.552188325
 40
0.6920016577
 40
0.7523503812
 40
0.8061007984
 40
0.8531876305
 40
0.8936563918
 40
0.9277334815
 40
0.9559531042
 40
0.9793937877
 40
1.0
 40
1.0
 40
1.0
 40
1.0
 10
4.6736257
 20
5.9264989726
 30
0.0
 10
4.6733792194
 20
5.9266732264
 30
0.0
 10
4.6729130411
 20
5.9270125519
 30
0.0
 10
4.6722669517
 20
5.9275168935
 30
0.0
 10
4.6717142554
 20
5.9279865237
 30
0.0
 10
4.6713218091
 20
5.9283580781
 30
0.0
 10
4.6710644085
 20
5.928633416
 30
0.0
 10
4.6709097728
 20
5.928816063
 30
0.0
 10
4.6707844124
 20
5.928984378
 30
0.0
 10
4.6706887488
 20
5.9291377609
 30
0.0
 10
4.6706229793
 20
5.9292758467
 30
0.0
 10
4.6705873549
 20
5.9293988157
 30
0.0
 10
4.6705827867
 20
5.9295074317
 30
0.0
 10
4.670603468
 20
5.9295714531
 30
0.0
 10
4.6706187485
 20
5.9295979407
 30
0.0
  0
SPLINE
  5
452
100
AcDbEntity
  8
0
100
AcDbSpline
 62
7
  6
CONTINUOUS
 70
0
 71
3
 72
19
 73
15
 74
0
 42
0.0000001
 43
0.0000001
 44
0.0000000001
 40
0.0
 40
0.0
 40
0.0
 40
0.0
 40
0.2034103891
 40
0.3884794049
 40
0.5521883278
 40
0.6920016611
 40
0.7523503849
 40
0.8061008021
 40
0.8531876342
 40
0.8936563954
 40
0.9277334846
 40
0.9559531066
 40
0.9793937891
 40
1.0
 40
1.0
 40
1.0
 40
1.0
 10
4.800706074
 20
6.1467834313
 30
0.0
 10
4.8004318387
 20
6.1469095744
 30
0.0
 10
4.7999047244
 20
6.1471432717
 30
0.0
 10
4.7991446959
 20
6.1474501084
 30
0.0
 10
4.7984614687
 20
6.1476934728
 30
0.0
 10
4.7979433642
 20
6.147847208
 30
0.0
 10
4.7975761557
 20
6.1479322021
 30
0.0
 10
4.7973406317
 20
6.1479746352
 30
0.0
 10
4.7971321698
 20
6.1479988997
 30
0.0
 10
4.7969515002
 20
6.1480049312
 30
0.0
 10
4.796799038
 20
6.1479927415
 30
0.0
 10
4.7966747526
 20
6.1479620233
 30
0.0
 10
4.796578439
 20
6.1479116053
 30
0.0
 10
4.7965333698
 20
6.147861653
 30
0.0
 10
4.7965180893
 20
6.1478351655
 30
0.0
  0
SPLINE
  5
453
100
AcDbEntity
  8
0
100
AcDbSpline
 62
7
  6
CONTINUOUS
 70
0
 71
3
 72
19
 73
15
 74
0
 42
0.0000001
 43
0.0000001
 44
0.0000000001
 40
0.0
 40
0.0
 40
0.0
 40
0.0
 40
0.0220933197
 40
0.0467925926
 40
0.075965422
 40
0.1107113712
 40
0.1516065838
 40
0.1989144433
 40
0.2527091323
 40
0.312947073
 40
0.4521348829
 40
0.6147636371
 40
0.7983712063
 40
1.0
 40
1.0
 40
1.0
 40
1.0
 10
5.3415418666
 20
5.5556064569
 30
0.0
 10
5.3415252776
 20
5.5555777238
 30
0.0
 10
5.3414779834
 20
5.5555233792
 30
0.0
 10
5.3413778155
 20
5.555465814
 30
0.0
 10
5.3412492625
 20
5.5554282369
 30
0.0
 10
5.341092488
 20
5.5554095052
 30
0.0
 10
5.3409075479
 20
5.5554092585
 30
0.0
 10
5.3406948875
 20
5.5554274817
 30
0.0
 10
5.3404552442
 20
5.5554641132
 30
0.0
 10
5.3400827459
 20
5.5555412532
 30
0.0
 10
5.339558165
 20
5.555686195
 30
0.0
 10
5.3388677044
 20
5.5559208061
 30
0.0
 10
5.3381011565
 20
5.5562202828
 30
0.0
 10
5.3375702119
 20
5.5564503315
 30
0.0
 10
5.337294215
 20
5.5565748625
 30
0.0
  0
SPLINE
  5
454
100
AcDbEntity
  8
0
100
AcDbSpline
 62
7
  6
CONTINUOUS
 70
0
 71
3
 72
19
 73
15
 74
0
 42
0.0000001
 43
0.0000001
 44
0.0000000001
 40
0.0
 40
0.0
 40
0.0
 40
0.0
 40
0.0220930106
 40
0.0467920546
 40
0.0759647342
 40
0.1107105968
 40
0.1516057703
 40
0.1989136266
 40
0.2527083398
 40
0.312946326
 40
0.4521342743
 40
0.6147632096
 40
0.7983709857
 40
1.0
 40
1.0
 40
1.0
 40
1.0
 10
5.4560844351
 20
5.7540000051
 30
0.0
 10
5.4561010239
 20
5.7540287378
 30
0.0
 10
5.4561244401
 20
5.7540968674
 30
0.0
 10
5.4561242084
 20
5.7542123967
 30
0.0
 10
5.4560924741
 20
5.7543425145
 30
0.0
 10
5.4560303085
 20
5.7544876503
 30
0.0
 10
5.4559380518
 20
5.7546479358
 30
0.0
 10
5.4558159396
 20
5.7548229932
 30
0.0
 10
5.4556643941
 20
5.7550122144
 30
0.0
 10
5.4554113398
 20
5.7552962374
 30
0.0
 10
5.4550235263
 20
5.7556780673
 30
0.0
 10
5.4544751174
 20
5.7561587192
 30
0.0
 10
5.45383249
 20
5.7566728324
 30
0.0
 10
5.4533677904
 20
5.757017621
 30
0.0
 10
5.4531219454
 20
5.7571943765
 30
0.0
  0
SPLINE
  5
455
100
AcDbEntity
  8
0
100
AcDbSpline
 62
7
  6
CONTINUOUS
 70
0
 71
3
 72
19
 73
15
 74
0
 42
0.0000001
 43
0.0000001
 44
0.0000000001
 40
0.0
 40
0.0
 40
0.0
 40
0.0
 40
0.0220930102
 40
0.0467920538
 40
0.0759647332
 40
0.1107105957
 40
0.151605769
 40
0.1989136253
 40
0.2527083384
 40
0.3129463247
 40
0.4521342732
 40
0.6147632088
 40
0.7983709853
 40
1.0
 40
1.0
 40
1.0
 40
1.0
 10
5.3415418666
 20
6.1040000051
 30
0.0
 10
5.3415252778
 20
6.1040287378
 30
0.0
 10
5.341477984
 20
6.1040830816
 30
0.0
 10
5.3413778167
 20
6.1041406456
 30
0.0
 10
5.3412492643
 20
6.1041782218
 30
0.0
 10
5.3410924902
 20
6.1041969527
 30
0.0
 10
5.3409075505
 20
6.1041971988
 30
0.0
 10
5.3406948903
 20
6.1041789753
 30
0.0
 10
5.3404552471
 20
6.1041423436
 30
0.0
 10
5.3400827489
 20
6.1040652036
 30
0.0
 10
5.3395581677
 20
6.1039202622
 30
0.0
 10
5.3388677065
 20
6.1036856522
 30
0.0
 10
5.3381011578
 20
6.1033861771
 30
0.0
 10
5.3375702123
 20
6.1031561297
 30
0.0
 10
5.337294215
 20
6.1030315995
 30
0.0
  0
SPLINE
  5
456
100
AcDbEntity
  8
0
100
AcDbSpline
 62
7
  6
CONTINUOUS
 70
0
 71
3
 72
19
 73
15
 74
0
 42
0.0000001
 43
0.0000001
 44
0.0000000001
 40
0.0
 40
0.0
 40
0.0
 40
0.0
 40
0.0220930095
 40
0.0467920526
 40
0.0759647315
 40
0.1107105936
 40
0.1516057668
 40
0.198913623
 40
0.2527083361
 40
0.3129463224
 40
0.4521342712
 40
0.6147632073
 40
0.7983709845
 40
1.0
 40
1.0
 40
1.0
 40
1.0
 10
5.4560844351
 20
5.9056064569
 30
0.0
 10
5.4561010239
 20
5.9055777242
 30
0.0
 10
5.4561244401
 20
5.9055095946
 30
0.0
 10
5.4561242084
 20
5.9053940653
 30
0.0
 10
5.4560924741
 20
5.9052639475
 30
0.0
 10
5.4560303085
 20
5.9051188117
 30
0.0
 10
5.4559380518
 20
5.9049585262
 30
0.0
 10
5.4558159396
 20
5.9047834688
 30
0.0
 10
5.4556643941
 20
5.9045942476
 30
0.0
 10
5.4554113397
 20
5.9043102246
 30
0.0
 10
5.4550235263
 20
5.9039283947
 30
0.0
 10
5.4544751174
 20
5.9034477428
 30
0.0
 10
5.45383249
 20
5.9029336296
 30
0.0
 10
5.4533677904
 20
5.902588841
 30
0.0
 10
5.4531219454
 20
5.9024120855
 30
0.0
  0
SPLINE
  5
457
100
AcDbEntity
  8
0
100
AcDbSpline
 62
7
  6
CONTINUOUS
 70
0
 71
3
 72
19
 73
15
 74
0
 42
0.0000001
 43
0.0000001
 44
0.0000000001
 40
0.0
 40
0.0
 40
0.0
 40
0.0
 40
0.0220930104
 40
0.0467920542
 40
0.0759647337
 40
0.1107105963
 40
0.1516057697
 40
0.198913626
 40
0.2527083391
 40
0.3129463253
 40
0.4521342738
 40
0.6147632092
 40
0.7983709855
 40
1.0
 40
1.0
 40
1.0
 40
1.0
 10
4.981161691
 20
6.179803231
 30
0.0
 10
4.9811285135
 20
6.179803231
 30
0.0
 10
4.9810578034
 20
6.1797894452
 30
0.0
 10
4.9809578679
 20
6.1797314799
 30
0.0
 10
4.9808610497
 20
6.1796389382
 30
0.0
 10
4.9807664412
 20
6.1795125334
 30
0.0
 10
4.9806737583
 20
6.179352494
 30
0.0
 10
4.9805832102
 20
6.1791592131
 30
0.0
 10
4.9804951126
 20
6.1789333602
 30
0.0
 10
4.9803756687
 20
6.1785721972
 30
0.0
 10
4.980238901
 20
6.1780454259
 30
0.0
 10
4.9800968486
 20
6.1773301639
 30
0.0
 10
4.9799729273
 20
6.1765165757
 30
0.0
 10
4.9799066814
 20
6.1759417397
 30
0.0
 10
4.9798765291
 20
6.1756404539
 30
0.0
  0
SPLINE
  5
458
100
AcDbEntity
  8
0
100
AcDbSpline
 62
7
  6
CONTINUOUS
 70
0
 71
3
 72
19
 73
15
 74
0
 42
0.0000001
 43
0.0000001
 44
0.0000000001
 40
0.0
 40
0.0
 40
0.0
 40
0.0
 40
0.0220930095
 40
0.0467920526
 40
0.0759647315
 40
0.1107105937
 40
0.1516057669
 40
0.198913623
 40
0.2527083361
 40
0.3129463224
 40
0.4521342713
 40
0.6147632074
 40
0.7983709845
 40
1.0
 40
1.0
 40
1.0
 40
1.0
 10
5.210246828
 20
6.179803231
 30
0.0
 10
5.2102800056
 20
6.179803231
 30
0.0
 10
5.2103507157
 20
6.1797894452
 30
0.0
 10
5.2104506512
 20
6.1797314799
 30
0.0
 10
5.2105474693
 20
6.1796389382
 30
0.0
 10
5.2106420778
 20
6.1795125334
 30
0.0
 10
5.2107347608
 20
6.179352494
 30
0.0
 10
5.2108253088
 20
6.1791592131
 30
0.0
 10
5.2109134065
 20
6.1789333602
 30
0.0
 10
5.2110328504
 20
6.1785721972
 30
0.0
 10
5.2111696181
 20
6.1780454259
 30
0.0
 10
5.2113116704
 20
6.1773301639
 30
0.0
 10
5.2114355918
 20
6.1765165757
 30
0.0
 10
5.2115018376
 20
6.1759417397
 30
0.0
 10
5.21153199
 20
6.1756404539
 30
0.0
  0
SPLINE
  5
459
100
AcDbEntity
  8
0
100
AcDbSpline
 62
7
  6
CONTINUOUS
 70
0
 71
3
 72
19
 73
15
 74
0
 42
0.0000001
 43
0.0000001
 44
0.0000000001
 40
0.0
 40
0.0
 40
0.0
 40
0.0
 40
0.0220930106
 40
0.0467920546
 40
0.0759647342
 40
0.1107105968
 40
0.1516057703
 40
0.1989136266
 40
0.2527083398
 40
0.312946326
 40
0.4521342743
 40
0.6147632096
 40
0.7983709857
 40
1.0
 40
1.0
 40
1.0
 40
1.0
 10
4.735324084
 20
5.9056064569
 30
0.0
 10
4.7353074952
 20
5.9055777242
 30
0.0
 10
4.735284079
 20
5.9055095946
 30
0.0
 10
4.7352843107
 20
5.9053940653
 30
0.0
 10
4.735316045
 20
5.9052639475
 30
0.0
 10
4.7353782105
 20
5.9051188117
 30
0.0
 10
4.7354704673
 20
5.9049585262
 30
0.0
 10
4.7355925794
 20
5.9047834688
 30
0.0
 10
4.735744125
 20
5.9045942475
 30
0.0
 10
4.7359971793
 20
5.9043102246
 30
0.0
 10
4.7363849928
 20
5.9039283947
 30
0.0
 10
4.7369334017
 20
5.9034477428
 30
0.0
 10
4.737576029
 20
5.9029336296
 30
0.0
 10
4.7380407287
 20
5.902588841
 30
0.0
 10
4.7382865737
 20
5.9024120855
 30
0.0
  0
SPLINE
  5
45A
100
AcDbEntity
  8
0
100
AcDbSpline
 62
7
  6
CONTINUOUS
 70
0
 71
3
 72
19
 73
15
 74
0
 42
0.0000001
 43
0.0000001
 44
0.0000000001
 40
0.0
 40
0.0
 40
0.0
 40
0.0
 40
0.0220933197
 40
0.0467925926
 40
0.075965422
 40
0.1107113712
 40
0.1516065838
 40
0.1989144433
 40
0.2527091323
 40
0.312947073
 40
0.4521348829
 40
0.6147636371
 40
0.7983712063
 40
1.0
 40
1.0
 40
1.0
 40
1.0
 10
4.8498666525
 20
6.1040000051
 30
0.0
 10
4.8498832415
 20
6.1040287382
 30
0.0
 10
4.8499305357
 20
6.1040830828
 30
0.0
 10
4.8500307035
 20
6.104140648
 30
0.0
 10
4.8501592566
 20
6.1041782251
 30
0.0
 10
4.8503160311
 20
6.1041969568
 30
0.0
 10
4.8505009712
 20
6.1041972035
 30
0.0
 10
4.8507136316
 20
6.1041789803
 30
0.0
 10
4.8509532749
 20
6.1041423488
 30
0.0
 10
4.8513257731
 20
6.1040652088
 30
0.0
 10
4.8518503541
 20
6.103920267
 30
0.0
 10
4.8525408147
 20
6.1036856559
 30
0.0
 10
4.8533073625
 20
6.1033861792
 30
0.0
 10
4.8538383072
 20
6.1031561305
 30
0.0
 10
4.8541143041
 20
6.1030315995
 30
0.0
  0
SPLINE
  5
45B
100
AcDbEntity
  8
0
100
AcDbSpline
 62
7
  6
CONTINUOUS
 70
0
 71
3
 72
19
 73
15
 74
0
 42
0.0000001
 43
0.0000001
 44
0.0000000001
 40
0.0
 40
0.0
 40
0.0
 40
0.0
 40
0.0220930102
 40
0.0467920538
 40
0.0759647332
 40
0.1107105957
 40
0.151605769
 40
0.1989136253
 40
0.2527083384
 40
0.3129463247
 40
0.4521342732
 40
0.6147632088
 40
0.7983709853
 40
1.0
 40
1.0
 40
1.0
 40
1.0
 10
4.8498666525
 20
5.5556064569
 30
0.0
 10
4.8498832413
 20
5.5555777242
 30
0.0
 10
4.8499305351
 20
5.5555233804
 30
0.0
 10
4.8500307023
 20
5.5554658164
 30
0.0
 10
4.8501592548
 20
5.5554282402
 30
0.0
 10
4.8503160288
 20
5.5554095093
 30
0.0
 10
4.8505009686
 20
5.5554092632
 30
0.0
 10
4.8507136287
 20
5.5554274867
 30
0.0
 10
4.8509532719
 20
5.5554641184
 30
0.0
 10
4.8513257702
 20
5.5555412584
 30
0.0
 10
4.8518503514
 20
5.5556861998
 30
0.0
 10
4.8525408126
 20
5.5559208098
 30
0.0
 10
4.8533073613
 20
5.5562202849
 30
0.0
 10
4.8538383068
 20
5.5564503323
 30
0.0
 10
4.8541143041
 20
5.5565748625
 30
0.0
  0
SPLINE
  5
45C
100
AcDbEntity
  8
0
100
AcDbSpline
 62
7
  6
CONTINUOUS
 70
0
 71
3
 72
19
 73
15
 74
0
 42
0.0000001
 43
0.0000001
 44
0.0000000001
 40
0.0
 40
0.0
 40
0.0
 40
0.0
 40
0.0220930095
 40
0.0467920526
 40
0.0759647315
 40
0.1107105936
 40
0.1516057668
 40
0.198913623
 40
0.2527083361
 40
0.3129463224
 40
0.4521342712
 40
0.6147632073
 40
0.7983709845
 40
1.0
 40
1.0
 40
1.0
 40
1.0
 10
4.735324084
 20
5.7540000051
 30
0.0
 10
4.7353074952
 20
5.7540287378
 30
0.0
 10
4.735284079
 20
5.7540968674
 30
0.0
 10
4.7352843107
 20
5.7542123967
 30
0.0
 10
4.735316045
 20
5.7543425145
 30
0.0
 10
4.7353782106
 20
5.7544876503
 30
0.0
 10
4.7354704673
 20
5.7546479358
 30
0.0
 10
4.7355925794
 20
5.7548229931
 30
0.0
 10
4.735744125
 20
5.7550122144
 30
0.0
 10
4.7359971793
 20
5.7552962373
 30
0.0
 10
4.7363849928
 20
5.7556780673
 30
0.0
 10
4.7369334017
 20
5.7561587192
 30
0.0
 10
4.737576029
 20
5.7566728324
 30
0.0
 10
4.7380407287
 20
5.757017621
 30
0.0
 10
4.7382865737
 20
5.7571943765
 30
0.0
  0
SPLINE
  5
45D
100
AcDbEntity
  8
0
100
AcDbSpline
 62
7
  6
CONTINUOUS
 70
0
 71
3
 72
23
 73
19
 74
0
 42
0.0000001
 43
0.0000001
 44
0.0000000001
 40
0.0
 40
0.0
 40
0.0
 40
0.0
 40
0.0628752031
 40
0.1257661202
 40
0.1886565881
 40
0.2515308453
 40
0.3143738877
 40
0.3771713944
 40
0.4399097481
 40
0.502576087
 40
0.5651582222
 40
0.6276447229
 40
0.6900248235
 40
0.7522884778
 40
0.8144262567
 40
0.8764294875
 40
0.9382898119
 40
1.0
 40
1.0
 40
1.0
 40
1.0
 10
4.8941862338
 20
2.2042846608
 30
0.0
 10
4.8959265807
 20
2.2020527533
 30
0.0
 10
4.899533405
 20
2.1976847565
 30
0.0
 10
4.9053025673
 20
2.1914473722
 30
0.0
 10
4.9114143642
 20
2.1855449433
 30
0.0
 10
4.9178487439
 20
2.1799992981
 30
0.0
 10
4.9245843908
 20
2.1748305251
 30
0.0
 10
4.9315985138
 20
2.1700572967
 30
0.0
 10
4.9388670588
 20
2.1656966389
 30
0.0
 10
4.9463648116
 20
2.1617638561
 30
0.0
 10
4.9540655552
 20
2.1582724429
 30
0.0
 10
4.9619422099
 20
2.1552340034
 30
0.0
 10
4.9699669943
 20
2.1526581959
 30
0.0
 10
4.9781115914
 20
2.150552687
 30
0.0
 10
4.986347277
 20
2.1489231149
 30
0.0
 10
4.9946452294
 20
2.1477730935
 30
0.0
 10
5.0029761329
 20
2.1471041778
 30
0.0
 10
5.0085406811
 20
2.1469785337
 30
0.0
 10
5.0113184195
 20
2.1469957093
 30
0.0
  0
SPLINE
  5
45E
100
AcDbEntity
  8
0
100
AcDbSpline
 62
7
  6
CONTINUOUS
 70
0
 71
3
 72
33
 73
29
 74
0
 42
0.0000001
 43
0.0000001
 44
0.0000000001
 40
0.0
 40
0.0
 40
0.0
 40
0.0
 40
0.0621620266
 40
0.1243110317
 40
0.1553907092
 40
0.1864715721
 40
0.2020155905
 40
0.2175625265
 40
0.248666336
 40
0.2797908282
 40
0.3109384537
 40
0.3732836634
 40
0.4357052004
 40
0.4669458456
 40
0.4981965895
 40
0.5294558907
 40
0.5607238808
 40
0.5920029227
 40
0.6076493235
 40
0.6233005402
 40
0.6546172666
 40
0.6859581466
 40
0.7173230602
 40
0.7487097761
 40
0.8115145955
 40
0.8743520667
 40
0.9371858226
 40
1.0
 40
1.0
 40
1.0
 40
1.0
 10
5.3236022849
 20
2.585803231
 30
0.0
 10
5.3236022849
 20
2.5784284653
 30
0.0
 10
5.3228828131
 20
2.5636710443
 30
0.0
 10
5.320182559
 20
2.5454030124
 30
0.0
 10
5.3169435334
 20
2.5310100256
 30
0.0
 10
5.3144687045
 20
2.5221251153
 30
0.0
 10
5.3122191992
 20
2.515099874
 30
0.0
 10
5.3097896575
 20
2.5081319307
 30
0.0
 10
5.3064207525
 20
2.4995373248
 30
0.0
 10
5.3018646928
 20
2.4894345708
 30
0.0
 10
5.2951252693
 20
2.4762699893
 30
0.0
 10
5.2854932459
 20
2.460441831
 30
0.0
 10
5.2743688464
 20
2.4456112686
 30
0.0
 10
5.264637314
 20
2.434428445
 30
0.0
 10
5.2569339676
 20
2.4263992723
 30
0.0
 10
5.2488453149
 20
2.4187538827
 30
0.0
 10
5.2403872908
 20
2.4115140616
 30
0.0
 10
5.2330449139
 20
2.405837343
 30
0.0
 10
5.2270034127
 20
2.4015216066
 30
0.0
 10
5.2208514026
 20
2.3973569515
 30
0.0
 10
5.2129648346
 20
2.3924385445
 30
0.0
 10
5.2032168896
 20
2.387007235
 30
0.0
 10
5.1932082601
 20
2.3820533341
 30
0.0
 10
5.1795506253
 20
2.3760957365
 30
0.0
 10
5.16195456
 20
2.3698835475
 30
0.0
 10
5.1402233844
 20
2.3644751161
 30
0.0
 10
5.118073058
 20
2.3611751864
 30
0.0
 10
5.103156395
 20
2.3604266248
 30
0.0
 10
5.0957042595
 20
2.3604266248
 30
0.0
  0
SPLINE
  5
45F
100
AcDbEntity
  8
0
100
AcDbSpline
 62
7
  6
CONTINUOUS
 70
0
 71
3
 72
17
 73
13
 74
0
 42
0.0000001
 43
0.0000001
 44
0.0000000001
 40
0.0
 40
0.0
 40
0.0
 40
0.0
 40
0.0539377937
 40
0.1084450173
 40
0.1638156406
 40
0.2202895013
 40
0.3371037962
 40
0.4599159302
 40
0.5886897435
 40
0.7226218706
 40
0.8603191324
 40
1.0
 40
1.0
 40
1.0
 40
1.0
 10
6.2456942291
 20
5.9797601644
 30
0.0
 10
6.2455032069
 20
5.9797414811
 30
0.0
 10
6.2451210509
 20
5.9796803694
 30
0.0
 10
6.2445593636
 20
5.9795197062
 30
0.0
 10
6.2440118215
 20
5.9792912177
 30
0.0
 10
6.2432995755
 20
5.9788948292
 30
0.0
 10
6.2424681699
 20
5.9782342014
 30
0.0
 10
6.2416150915
 20
5.9772292973
 30
0.0
 10
6.2409210139
 20
5.9760384273
 30
0.0
 10
6.2404086112
 20
5.9747027425
 30
0.0
 10
6.240094294
 20
5.9732681061
 30
0.0
 10
6.2400238457
 20
5.9722795849
 30
0.0
 10
6.2400238457
 20
5.9717825407
 30
0.0
  0
SPLINE
  5
460
100
AcDbEntity
  8
0
100
AcDbSpline
 62
7
  6
CONTINUOUS
 70
0
 71
3
 72
19
 73
15
 74
0
 42
0.0000001
 43
0.0000001
 44
0.0000000001
 40
0.0
 40
0.0
 40
0.0
 40
0.0
 40
0.0540541502
 40
0.1084735977
 40
0.1635934003
 40
0.2197198848
 40
0.2771000033
 40
0.3359207356
 40
0.4581436553
 40
0.5867412861
 40
0.6532849993
 40
0.721074539
 40
0.8594395286
 40
1.0
 40
1.0
 40
1.0
 40
1.0
 10
6.147382068
 20
5.9797825407
 30
0.0
 10
6.1471814334
 20
5.9797825407
 30
0.0
 10
6.1467783378
 20
5.9797566096
 30
0.0
 10
6.146180756
 20
5.9796404968
 30
0.0
 10
6.1455949855
 20
5.979448322
 30
0.0
 10
6.145026897
 20
5.9791821437
 30
0.0
 10
6.1444819033
 20
5.9788446237
 30
0.0
 10
6.143784451
 20
5.9782973965
 30
0.0
 10
6.1429988555
 20
5.9774470414
 30
0.0
 10
6.1423729071
 20
5.9764414453
 30
0.0
 10
6.1419660493
 20
5.9755533462
 30
0.0
 10
6.1416215587
 20
5.974600476
 30
0.0
 10
6.1413312304
 20
5.9733411533
 30
0.0
 10
6.1412537125
 20
5.9723042636
 30
0.0
 10
6.1412537125
 20
5.9717825407
 30
0.0
  0
SPLINE
  5
461
100
AcDbEntity
  8
0
100
AcDbSpline
 62
7
  6
CONTINUOUS
 70
0
 71
3
 72
19
 73
15
 74
0
 42
0.0000001
 43
0.0000001
 44
0.0000000001
 40
0.0
 40
0.0
 40
0.0
 40
0.0
 40
0.0540541502
 40
0.1084735977
 40
0.1635934003
 40
0.2197198848
 40
0.2771000033
 40
0.3359207356
 40
0.4581436553
 40
0.5867412861
 40
0.6532849993
 40
0.721074539
 40
0.8594395286
 40
1.0
 40
1.0
 40
1.0
 40
1.0
 10
6.147382068
 20
5.6797825407
 30
0.0
 10
6.1471814334
 20
5.6797825407
 30
0.0
 10
6.1467783378
 20
5.6798084717
 30
0.0
 10
6.146180756
 20
5.6799245845
 30
0.0
 10
6.1455949855
 20
5.6801167593
 30
0.0
 10
6.145026897
 20
5.6803829376
 30
0.0
 10
6.1444819033
 20
5.6807204576
 30
0.0
 10
6.143784451
 20
5.6812676848
 30
0.0
 10
6.1429988555
 20
5.6821180399
 30
0.0
 10
6.1423729071
 20
5.683123636
 30
0.0
 10
6.1419660493
 20
5.6840117351
 30
0.0
 10
6.1416215587
 20
5.6849646053
 30
0.0
 10
6.1413312304
 20
5.686223928
 30
0.0
 10
6.1412537125
 20
5.6872608177
 30
0.0
 10
6.1412537125
 20
5.6877825407
 30
0.0
  0
SPLINE
  5
462
100
AcDbEntity
  8
0
100
AcDbSpline
 62
7
  6
CONTINUOUS
 70
0
 71
3
 72
17
 73
13
 74
0
 42
0.0000001
 43
0.0000001
 44
0.0000000001
 40
0.0
 40
0.0
 40
0.0
 40
0.0
 40
0.0539377937
 40
0.1084450173
 40
0.1638156406
 40
0.2202895013
 40
0.3371037962
 40
0.4599159302
 40
0.5886897435
 40
0.7226218706
 40
0.8603191324
 40
1.0
 40
1.0
 40
1.0
 40
1.0
 10
6.2456942291
 20
5.6798049169
 30
0.0
 10
6.2455032069
 20
5.6798236002
 30
0.0
 10
6.2451210509
 20
5.6798847119
 30
0.0
 10
6.2445593636
 20
5.6800453751
 30
0.0
 10
6.2440118215
 20
5.6802738636
 30
0.0
 10
6.2432995755
 20
5.6806702521
 30
0.0
 10
6.2424681699
 20
5.6813308799
 30
0.0
 10
6.2416150915
 20
5.682335784
 30
0.0
 10
6.2409210139
 20
5.683526654
 30
0.0
 10
6.2404086112
 20
5.6848623388
 30
0.0
 10
6.240094294
 20
5.6862969752
 30
0.0
 10
6.2400238457
 20
5.6872854964
 30
0.0
 10
6.2400238457
 20
5.6877825407
 30
0.0
  0
SPLINE
  5
463
100
AcDbEntity
  8
0
100
AcDbSpline
 62
7
  6
CONTINUOUS
 70
0
 71
3
 72
15
 73
11
 74
0
 42
0.0000001
 43
0.0000001
 44
0.0000000001
 40
0.0
 40
0.0
 40
0.0
 40
0.0
 40
0.1242283329
 40
0.2486610588
 40
0.3733066713
 40
0.4981749649
 40
0.6232741024
 40
0.7486100045
 40
0.8741859212
 40
1.0
 40
1.0
 40
1.0
 40
1.0
 10
5.7823046291
 20
6.0389786148
 30
0.0
 10
5.7824969454
 20
6.035849539
 30
0.0
 10
5.7828425758
 20
6.0295837251
 30
0.0
 10
5.7832260036
 20
6.0201705539
 30
0.0
 10
5.7834615344
 20
6.0107362965
 30
0.0
 10
5.7835408524
 20
6.0012825897
 30
0.0
 10
5.7834610692
 20
5.9918114688
 30
0.0
 10
5.783225094
 20
5.9823251191
 30
0.0
 10
5.7828412582
 20
5.9728256169
 30
0.0
 10
5.7824959855
 20
5.9664908232
 30
0.0
 10
5.7823039459
 20
5.9633216388
 30
0.0
  0
SPLINE
  5
464
100
AcDbEntity
  8
0
100
AcDbSpline
 62
7
  6
CONTINUOUS
 70
0
 71
3
 72
75
 73
71
 74
0
 42
0.0000001
 43
0.0000001
 44
0.0000000001
 40
0.0
 40
0.0
 40
0.0
 40
0.0
 40
0.0002416998
 40
0.0005057433
 40
0.0008094973
 40
0.0011644864
 40
0.0015779205
 40
0.0020543178
 40
0.0025965893
 40
0.0032066738
 40
0.0046349957
 40
0.0063462973
 40
0.0083441649
 40
0.010630438
 40
0.0132052949
 40
0.0160681792
 40
0.0192181272
 40
0.0226539113
 40
0.0303768463
 40
0.0392222308
 40
0.0491692204
 40
0.0601954042
 40
0.0722768337
 40
0.0853849319
 40
0.0994877286
 40
0.1145527303
 40
0.1305446968
 40
0.1474242154
 40
0.1836845955
 40
0.2229877696
 40
0.2649573699
 40
0.3091894593
 40
0.3552598807
 40
0.4027244459
 40
0.4511265131
 40
0.4999995625
 40
0.5488726581
 40
0.5972745971
 40
0.6447393819
 40
0.6908095451
 40
0.7350418242
 40
0.7770114527
 40
0.81631422
 40
0.8525752586
 40
0.8694544434
 40
0.8854459984
 40
0.9005115577
 40
0.9146144263
 40
0.9277221716
 40
0.9398037171
 40
0.9508305165
 40
0.9607775609
 40
0.9696221221
 40
0.9773449861
 40
0.9807807884
 40
0.9839306677
 40
0.9867934324
 40
0.9893682384
 40
0.9916547695
 40
0.9936533285
 40
0.995365395
 40
0.9967941225
 40
0.9974042315
 40
0.9979464259
 40
0.9984226639
 40
0.9988358851
 40
0.9991906644
 40
0.9994942738
 40
0.999758273
 40
1.0
 40
1.0
 40
1.0
 40
1.0
 10
6.0469055072
 20
5.683122646
 30
0.0
 10
6.0468818009
 20
5.6831226639
 30
0.0
 10
6.046831936
 20
5.6831309514
 30
0.0
 10
6.0467599945
 20
5.683166478
 30
0.0
 10
6.0466893079
 20
5.6832238769
 30
0.0
 10
6.0466192827
 20
5.6833027683
 30
0.0
 10
6.0465494916
 20
5.6834032026
 30
0.0
 10
6.0464797737
 20
5.6835252986
 30
0.0
 10
6.046410061
 20
5.6836691402
 30
0.0
 10
6.0463118972
 20
5.683902546
 30
0.0
 10
6.0461917123
 20
5.6842504999
 30
0.0
 10
6.0460538131
 20
5.6847353083
 30
0.0
 10
6.0459160484
 20
5.6853071205
 30
0.0
 10
6.0457786181
 20
5.685965752
 30
0.0
 10
6.0456416379
 20
5.686710907
 30
0.0
 10
6.0455052088
 20
5.6875421193
 30
0.0
 10
6.0453694336
 20
5.6884588856
 30
0.0
 10
6.0451820465
 20
5.6898497669
 30
0.0
 10
6.0449533387
 20
5.6917985637
 30
0.0
 10
6.0446924486
 20
5.6943861838
 30
0.0
 10
6.0444360176
 20
5.697299634
 30
0.0
 10
6.044184834
 20
5.7005319793
 30
0.0
 10
6.0439399593
 20
5.704075656
 30
0.0
 10
6.0437019348
 20
5.7079221758
 30
0.0
 10
6.0434711312
 20
5.7120622524
 30
0.0
 10
6.0432483877
 20
5.716486004
 30
0.0
 10
6.0430344402
 20
5.7211828315
 30
0.0
 10
6.0427543533
 20
5.7279576168
 30
0.0
 10
6.0424329871
 20
5.7370189576
 30
0.0
 10
6.0420976359
 20
5.7485419679
 30
0.0
 10
6.0418079911
 20
5.7608483201
 30
0.0
 10
6.0415663912
 20
5.7738195627
 30
0.0
 10
6.0413761777
 20
5.7873306663
 30
0.0
 10
6.0412386225
 20
5.8012514224
 30
0.0
 10
6.0411555491
 20
5.8154474998
 30
0.0
 10
6.0411278695
 20
5.8297819424
 30
0.0
 10
6.0411553902
 20
5.8441163733
 30
0.0
 10
6.0412385913
 20
5.8583124631
 30
0.0
 10
6.0413757907
 20
5.8722332065
 30
0.0
 10
6.0415661701
 20
5.8857443227
 30
0.0
 10
6.0418075477
 20
5.898715565
 30
0.0
 10
6.0420970974
 20
5.9110219017
 30
0.0
 10
6.0424325812
 20
5.9225449349
 30
0.0
 10
6.0427536436
 20
5.9316062784
 30
0.0
 10
6.04303378
 20
5.9383810536
 30
0.0
 10
6.0432478279
 20
5.9430778577
 30
0.0
 10
6.0434703853
 20
5.9475016399
 30
0.0
 10
6.0437011601
 20
5.9516417458
 30
0.0
 10
6.0439392451
 20
5.9554882455
 30
0.0
 10
6.0441840912
 20
5.9590319612
 30
0.0
 10
6.0444351394
 20
5.962264394
 30
0.0
 10
6.0446915036
 20
5.9651778362
 30
0.0
 10
6.0449525732
 20
5.9677653552
 30
0.0
 10
6.0451812408
 20
5.9697140695
 30
0.0
 10
6.0453686096
 20
5.9711049414
 30
0.0
 10
6.0455043886
 20
5.9720216903
 30
0.0
 10
6.0456408305
 20
5.9728528767
 30
0.0
 10
6.0457778253
 20
5.9735980377
 30
0.0
 10
6.0459152385
 20
5.9742567619
 30
0.0
 10
6.046052904
 20
5.9748287697
 30
0.0
 10
6.0461906763
 20
5.9753138035
 30
0.0
 10
6.046310801
 20
5.9756619045
 30
0.0
 10
6.0464089646
 20
5.9758953487
 30
0.0
 10
6.0464786862
 20
5.9760391636
 30
0.0
 10
6.0465484279
 20
5.9761611964
 30
0.0
 10
6.0466182616
 20
5.9762615335
 30
0.0
 10
6.0466883427
 20
5.9763403032
 30
0.0
 10
6.0467590866
 20
5.9763975717
 30
0.0
 10
6.0468310705
 20
5.9764329742
 30
0.0
 10
6.0468809388
 20
5.9764412035
 30
0.0
 10
6.0469046478
 20
5.9764412056
 30
0.0
  0
SPLINE
  5
465
100
AcDbEntity
  8
0
100
AcDbSpline
 62
7
  6
CONTINUOUS
 70
0
 71
3
 72
13
 73
9
 74
0
 42
0.0000001
 43
0.0000001
 44
0.0000000001
 40
0.0
 40
0.0
 40
0.0
 40
0.0
 40
0.2491265767
 40
0.3744702521
 40
0.4999999937
 40
0.625529735
 40
0.7508734158
 40
1.0
 40
1.0
 40
1.0
 40
1.0
 10
4.6736257
 20
5.7331074894
 30
0.0
 10
4.6842921522
 20
5.7148803157
 30
0.0
 10
4.7002937642
 20
5.6874639988
 30
0.0
 10
4.7215711179
 20
5.6508058604
 30
0.0
 10
4.7375406044
 20
5.6231814334
 30
0.0
 10
4.7534603014
 20
5.5955282827
 30
0.0
 10
4.7745432813
 20
5.5587580103
 30
0.0
 10
4.7902667229
 20
5.5311812179
 30
0.0
 10
4.800706074
 20
5.5128230307
 30
0.0
  0
LINE
  5
466
100
AcDbEntity
  8
0
100
AcDbLine
 62
7
  6
CONTINUOUS
 10
5.782311038
 20
5.4870431981
 11
5.7835219848
 21
5.4867666047
  0
SPLINE
  5
467
100
AcDbEntity
  8
0
100
AcDbSpline
 62
7
  6
CONTINUOUS
 70
0
 71
3
 72
15
 73
11
 74
0
 42
0.0000001
 43
0.0000001
 44
0.0000000001
 40
0.0
 40
0.0
 40
0.0
 40
0.0
 40
0.1258140689
 40
0.2513899705
 40
0.3767258636
 40
0.5018250108
 40
0.6266933273
 40
0.7513389558
 40
0.8757716797
 40
1.0
 40
1.0
 40
1.0
 40
1.0
 10
5.7823047284
 20
5.6962406623
 30
0.0
 10
5.782496786
 20
5.6930714793
 30
0.0
 10
5.7828420966
 20
5.6867366883
 30
0.0
 10
5.7832259906
 20
5.6772371893
 30
0.0
 10
5.7834620219
 20
5.6677508413
 30
0.0
 10
5.7835418597
 20
5.6582797202
 30
0.0
 10
5.7834625949
 20
5.6488260117
 30
0.0
 10
5.7832271181
 20
5.6393917521
 30
0.0
 10
5.7828437461
 20
5.6299785785
 30
0.0
 10
5.7824981529
 20
5.6237127629
 30
0.0
 10
5.782305855
 20
5.6205836864
 30
0.0
  0
LINE
  5
468
100
AcDbEntity
  8
0
100
AcDbLine
 62
7
  6
CONTINUOUS
 10
6.3832129187
 20
5.874259229
 11
6.3836872952
 21
5.8727572373
  0
LINE
  5
469
100
AcDbEntity
  8
0
100
AcDbLine
 62
7
  6
CONTINUOUS
 10
6.3836872952
 20
5.8727572373
 11
6.3860318603
 21
5.8668281276
  0
LINE
  5
46A
100
AcDbEntity
  8
0
100
AcDbLine
 62
7
  6
CONTINUOUS
 10
6.3860318603
 20
5.8668281276
 11
6.3862844571
 21
5.8662109046
  0
SPLINE
  5
46B
100
AcDbEntity
  8
0
100
AcDbSpline
 62
7
  6
CONTINUOUS
 70
0
 71
3
 72
16
 73
12
 74
0
 42
0.0000001
 43
0.0000001
 44
0.0000000001
 40
0.0
 40
0.0
 40
0.0
 40
0.0
 40
0.0420544587
 40
0.0851357539
 40
0.1766106554
 40
0.2786386934
 40
0.3937757429
 40
0.523351418
 40
0.6678093043
 40
0.8269262045
 40
1.0
 40
1.0
 40
1.0
 40
1.0
 10
6.3862844571
 20
5.8411326778
 30
0.0
 10
6.3862214931
 20
5.8411271529
 30
0.0
 10
6.3860946634
 20
5.8411067298
 30
0.0
 10
6.3858401961
 20
5.8410288044
 30
0.0
 10
6.385523876
 20
5.8408583939
 30
0.0
 10
6.385169341
 20
5.8405552726
 30
0.0
 10
6.3848335996
 20
5.8401542121
 30
0.0
 10
6.3845194719
 20
5.8396592515
 30
0.0
 10
6.3842301813
 20
5.8390749442
 30
0.0
 10
6.3839692237
 20
5.8384069864
 30
0.0
 10
6.3838226425
 20
5.8379292288
 30
0.0
 10
6.383754141
 20
5.8376782883
 30
0.0
  0
SPLINE
  5
46C
100
AcDbEntity
  8
0
100
AcDbSpline
 62
7
  6
CONTINUOUS
 70
0
 71
3
 72
11
 73
7
 74
0
 42
0.0000001
 43
0.0000001
 44
0.0000000001
 40
0.0
 40
0.0
 40
0.0
 40
0.0
 40
0.2286710665
 40
0.4750802183
 40
0.7341864639
 40
1.0
 40
1.0
 40
1.0
 40
1.0
 10
6.383754141
 20
5.8376782883
 30
0.0
 10
6.3836502247
 20
5.8372976136
 30
0.0
 10
6.3834717053
 20
5.8364962731
 30
0.0
 10
6.3832935449
 20
5.8352408293
 30
0.0
 10
6.3832007802
 20
5.8339119962
 30
0.0
 10
6.383198643
 20
5.8330053794
 30
0.0
 10
6.3832129187
 20
5.8325469038
 30
0.0
  0
SPLINE
  5
46D
100
AcDbEntity
  8
0
100
AcDbSpline
 62
7
  6
CONTINUOUS
 70
0
 71
3
 72
11
 73
7
 74
0
 42
0.0000001
 43
0.0000001
 44
0.0000000001
 40
0.0
 40
0.0
 40
0.0
 40
0.0
 40
0.2658089552
 40
0.524909776
 40
0.7713188601
 40
1.0
 40
1.0
 40
1.0
 40
1.0
 10
6.3832129187
 20
5.8270181775
 30
0.0
 10
6.38319864
 20
5.8265597807
 30
0.0
 10
6.3832007329
 20
5.8256533204
 30
0.0
 10
6.3832935143
 20
5.8243247117
 30
0.0
 10
6.3834716033
 20
5.8230694492
 30
0.0
 10
6.3836500522
 20
5.822268206
 30
0.0
 10
6.3837539235
 20
5.8218875642
 30
0.0
  0
SPLINE
  5
46E
100
AcDbEntity
  8
0
100
AcDbSpline
 62
7
  6
CONTINUOUS
 70
0
 71
3
 72
16
 73
12
 74
0
 42
0.0000001
 43
0.0000001
 44
0.0000000001
 40
0.0
 40
0.0
 40
0.0
 40
0.0
 40
0.1730742524
 40
0.3321958576
 40
0.4766557262
 40
0.606221969
 40
0.7213604944
 40
0.8233951007
 40
0.9148719631
 40
0.9579488567
 40
1.0
 40
1.0
 40
1.0
 40
1.0
 10
6.3837539235
 20
5.8218875642
 30
0.0
 10
6.383822416
 20
5.8216365697
 30
0.0
 10
6.3839690164
 20
5.8211587107
 30
0.0
 10
6.3842299631
 20
5.8204905949
 30
0.0
 10
6.3845192412
 20
5.8199061437
 30
0.0
 10
6.3848334724
 20
5.8194111306
 30
0.0
 10
6.3851692286
 20
5.8190099569
 30
0.0
 10
6.3855237737
 20
5.8187067129
 30
0.0
 10
6.3858400823
 20
5.8185360891
 30
0.0
 10
6.3860946351
 20
5.8184582738
 30
0.0
 10
6.3862214851
 20
5.8184379172
 30
0.0
 10
6.3862844571
 20
5.8184324035
 30
0.0
  0
LINE
  5
46F
100
AcDbEntity
  8
0
100
AcDbLine
 62
7
  6
CONTINUOUS
 10
6.3862844571
 20
5.7933541767
 11
6.3861580983
 21
5.7930457821
  0
LINE
  5
470
100
AcDbEntity
  8
0
100
AcDbLine
 62
7
  6
CONTINUOUS
 10
6.3861580983
 20
5.7930457821
 11
6.3860325078
 21
5.7927385087
  0
LINE
  5
471
100
AcDbEntity
  8
0
100
AcDbLine
 62
7
  6
CONTINUOUS
 10
6.3860325078
 20
5.7927385087
 11
6.3836874181
 21
5.7868081769
  0
LINE
  5
472
100
AcDbEntity
  8
0
100
AcDbLine
 62
7
  6
CONTINUOUS
 10
6.3836874181
 20
5.7868081769
 11
6.3832129187
 21
5.7853058523
  0
SPLINE
  5
473
100
AcDbEntity
  8
0
100
AcDbSpline
 62
7
  6
CONTINUOUS
 70
0
 71
3
 72
13
 73
9
 74
0
 42
0.0000001
 43
0.0000001
 44
0.0000000001
 40
0.0
 40
0.0
 40
0.0
 40
0.0
 40
0.2491313139
 40
0.3744730312
 40
0.4999999981
 40
0.6255269647
 40
0.750868681
 40
1.0
 40
1.0
 40
1.0
 40
1.0
 10
5.2224746635
 20
6.243851373
 30
0.0
 10
5.2014199365
 20
6.243721031
 30
0.0
 10
5.1697720008
 20
6.2435614564
 30
0.0
 10
5.1275150371
 20
6.2434500028
 30
0.0
 10
5.0957042601
 20
6.2434214627
 30
0.0
 10
5.0638934831
 20
6.2434500186
 30
0.0
 10
5.0216365192
 20
6.2435614837
 30
0.0
 10
4.9899885831
 20
6.2437210311
 30
0.0
 10
4.9689338555
 20
6.243851373
 30
0.0
  0
SPLINE
  5
474
100
AcDbEntity
  8
0
100
AcDbSpline
 62
7
  6
CONTINUOUS
 70
0
 71
3
 72
23
 73
19
 74
0
 42
0.0000001
 43
0.0000001
 44
0.0000000001
 40
0.0
 40
0.0
 40
0.0
 40
0.0
 40
0.0635168788
 40
0.1271086746
 40
0.1907237351
 40
0.2543103304
 40
0.3178191291
 40
0.3812028235
 40
0.444417236
 40
0.507420372
 40
0.5701739755
 40
0.6326428976
 40
0.6947960872
 40
0.7566060826
 40
0.8180490512
 40
0.8791052785
 40
0.9397588863
 40
1.0
 40
1.0
 40
1.0
 40
1.0
 10
4.8010964514
 20
2.5087021114
 30
0.0
 10
4.7996532259
 20
2.5059577979
 30
0.0
 10
4.7969263282
 20
2.5003793796
 30
0.0
 10
4.7933360949
 20
2.4917833588
 30
0.0
 10
4.7902628212
 20
2.4829851711
 30
0.0
 10
4.7877244334
 20
2.474022264
 30
0.0
 10
4.7857342801
 20
2.4649333571
 30
0.0
 10
4.7843048924
 20
2.4557578898
 30
0.0
 10
4.7834427241
 20
2.4465365819
 30
0.0
 10
4.7831542079
 20
2.4373102339
 30
0.0
 10
4.7834404316
 20
2.4281201628
 30
0.0
 10
4.7843001119
 20
2.4190075145
 30
0.0
 10
4.7857280843
 20
2.4100130651
 30
0.0
 10
4.7877161292
 20
2.4011768619
 30
0.0
 10
4.7902533654
 20
2.3925381952
 30
0.0
 10
4.7933255151
 20
2.3841348861
 30
0.0
 10
4.7969153304
 20
2.3760038597
 30
0.0
 10
4.799649482
 20
2.3707680749
 30
0.0
 10
4.8010964514
 20
2.3682079297
 30
0.0
  0
SPLINE
  5
475
100
AcDbEntity
  8
0
100
AcDbSpline
 62
7
  6
CONTINUOUS
 70
0
 71
3
 72
10
 73
6
 74
0
 42
0.0000001
 43
0.0000001
 44
0.0000000001
 40
0.0
 40
0.0
 40
0.0
 40
0.0
 40
0.3191372076
 40
0.6101036799
 40
1.0
 40
1.0
 40
1.0
 40
1.0
 10
6.3863165587
 20
5.8662070549
 30
0.0
 10
6.3863152131
 20
5.8662103209
 30
0.0
 10
6.3863068559
 20
5.8662120573
 30
0.0
 10
6.3862964418
 20
5.8662120888
 30
0.0
 10
6.3862887425
 20
5.866211414
 30
0.0
 10
6.3862844571
 20
5.8662109046
 30
0.0
  0
SPLINE
  5
476
100
AcDbEntity
  8
0
100
AcDbSpline
 62
7
  6
CONTINUOUS
 70
0
 71
3
 72
23
 73
19
 74
0
 42
0.0000001
 43
0.0000001
 44
0.0000000001
 40
0.0
 40
0.0
 40
0.0
 40
0.0
 40
0.0627397655
 40
0.1255464493
 40
0.1883966481
 40
0.251266095
 40
0.314132324
 40
0.3769735208
 40
0.4397690837
 40
0.5024993821
 40
0.5651459873
 40
0.6276913932
 40
0.6901193957
 40
0.7524146775
 40
0.8145630626
 40
0.8765515061
 40
0.9383672493
 40
1.0
 40
1.0
 40
1.0
 40
1.0
 10
4.8868564592
 20
2.2213763649
 30
0.0
 10
4.8884551884
 20
2.2187215987
 30
0.0
 10
4.8918215846
 20
2.2135078857
 30
0.0
 10
4.8973538405
 20
2.2060179039
 30
0.0
 10
4.9033527391
 20
2.1988872159
 30
0.0
 10
4.9097943739
 20
2.1921498066
 30
0.0
 10
4.9166521052
 20
2.1858369358
 30
0.0
 10
4.9238976963
 20
2.1799790433
 30
0.0
 10
4.93149921
 20
2.1746025957
 30
0.0
 10
4.9394238692
 20
2.1697332209
 30
0.0
 10
4.9476359608
 20
2.1653923368
 30
0.0
 10
4.9560988511
 20
2.1615996527
 30
0.0
 10
4.9647740145
 20
2.1583708724
 30
0.0
 10
4.9736222105
 20
2.1557193716
 30
0.0
 10
4.9826031045
 20
2.1536546193
 30
0.0
 10
4.9916761729
 20
2.1521832856
 30
0.0
 10
5.0008000349
 20
2.1513085588
 30
0.0
 10
5.0068999521
 20
2.1511228045
 30
0.0
 10
5.0099442517
 20
2.1511292741
 30
0.0
  0
SPLINE
  5
477
100
AcDbEntity
  8
0
100
AcDbSpline
 62
7
  6
CONTINUOUS
 70
0
 71
3
 72
23
 73
19
 74
0
 42
0.0000001
 43
0.0000001
 44
0.0000000001
 40
0.0
 40
0.0
 40
0.0
 40
0.0
 40
0.0616330844
 40
0.1234486795
 40
0.1854368253
 40
0.2475852476
 40
0.3098805593
 40
0.3723086612
 40
0.4348539857
 40
0.4975005449
 40
0.5602308828
 40
0.6230264235
 40
0.6858676457
 40
0.748733858
 40
0.8116033385
 40
0.8744535249
 40
0.9372602402
 40
1.0
 40
1.0
 40
1.0
 40
1.0
 10
5.1814642673
 20
2.1511292741
 30
0.0
 10
5.1845085823
 20
2.1511228689
 30
0.0
 10
5.1906084819
 20
2.1513093019
 30
0.0
 10
5.1997323517
 20
2.1521835669
 30
0.0
 10
5.2088054858
 20
2.1536544487
 30
0.0
 10
5.2177863274
 20
2.1557193683
 30
0.0
 10
5.2266345374
 20
2.1583708554
 30
0.0
 10
5.2353095438
 20
2.1616000351
 30
0.0
 10
5.2437726016
 20
2.1653923143
 30
0.0
 10
5.2519846692
 20
2.169733251
 30
0.0
 10
5.2599092937
 20
2.1746026558
 30
0.0
 10
5.2675109215
 20
2.1799789496
 30
0.0
 10
5.2747563407
 20
2.185837044
 30
0.0
 10
5.2816142401
 20
2.1921497263
 30
0.0
 10
5.2880557422
 20
2.1988872649
 30
0.0
 10
5.29405467
 20
2.2060179181
 30
0.0
 10
5.2995869879
 20
2.2135078544
 30
0.0
 10
5.3029533341
 20
2.2187215985
 30
0.0
 10
5.3045520599
 20
2.2213763649
 30
0.0
  0
SPLINE
  5
478
100
AcDbEntity
  8
0
100
AcDbSpline
 62
7
  6
CONTINUOUS
 70
0
 71
3
 72
15
 73
11
 74
0
 42
0.0000001
 43
0.0000001
 44
0.0000000001
 40
0.0
 40
0.0
 40
0.0
 40
0.0
 40
0.101001062
 40
0.1952772715
 40
0.2906937655
 40
0.3951318319
 40
0.5148285718
 40
0.6539862975
 40
0.8152297565
 40
1.0
 40
1.0
 40
1.0
 40
1.0
 10
5.7741682137
 20
6.1729053421
 30
0.0
 10
5.7741301379
 20
6.1729069157
 30
0.0
 10
5.7740556687
 20
6.1729020096
 30
0.0
 10
5.7739512066
 20
6.1728634266
 30
0.0
 10
5.7738627479
 20
6.1727936166
 30
0.0
 10
5.7737917203
 20
6.1726946608
 30
0.0
 10
5.7737374233
 20
6.1725679428
 30
0.0
 10
5.7736990915
 20
6.1724136265
 30
0.0
 10
5.7736765152
 20
6.1722316476
 30
0.0
 10
5.7736722111
 20
6.1721010078
 30
0.0
 10
5.7736722069
 20
6.1720312929
 30
0.0
  0
SPLINE
  5
479
100
AcDbEntity
  8
0
100
AcDbSpline
 62
7
  6
CONTINUOUS
 70
0
 71
3
 72
15
 73
11
 74
0
 42
0.0000001
 43
0.0000001
 44
0.0000000001
 40
0.0
 40
0.0
 40
0.0
 40
0.0
 40
0.1245095006
 40
0.249091995
 40
0.37381961
 40
0.4987297623
 40
0.623834666
 40
0.7491159679
 40
0.8745243184
 40
1.0
 40
1.0
 40
1.0
 40
1.0
 10
6.389133259
 20
5.8372133814
 30
0.0
 10
6.389397896
 20
5.8372365341
 30
0.0
 10
6.3899241665
 20
5.8373369384
 30
0.0
 10
6.3906662476
 20
5.8376431547
 30
0.0
 10
6.3913327063
 20
5.8380927478
 30
0.0
 10
6.3918962745
 20
5.838667489
 30
0.0
 10
6.3923343522
 20
5.839344161
 30
0.0
 10
6.3926293197
 20
5.8400955475
 30
0.0
 10
6.3927693834
 20
5.8408909849
 30
0.0
 10
6.3927556262
 20
5.8414302926
 30
0.0
 10
6.3927222106
 20
5.8416959083
 30
0.0
  0
SPLINE
  5
47A
100
AcDbEntity
  8
0
100
AcDbSpline
 62
7
  6
CONTINUOUS
 70
0
 71
3
 72
11
 73
7
 74
0
 42
0.0000001
 43
0.0000001
 44
0.0000000001
 40
0.0
 40
0.0
 40
0.0
 40
0.0
 40
0.2221766206
 40
0.4641360602
 40
0.7241168628
 40
1.0
 40
1.0
 40
1.0
 40
1.0
 10
5.773669958
 20
6.1037849542
 30
0.0
 10
5.7736699533
 20
6.1034740139
 30
0.0
 10
5.7736940434
 20
6.1028243448
 30
0.0
 10
5.7737907418
 20
6.1018151142
 30
0.0
 10
5.7739478591
 20
6.1007375545
 30
0.0
 10
5.7740872851
 20
6.1000004533
 30
0.0
 10
5.7741657989
 20
6.0996224169
 30
0.0
  0
SPLINE
  5
47B
100
AcDbEntity
  8
0
100
AcDbSpline
 62
7
  6
CONTINUOUS
 70
0
 71
3
 72
12
 73
8
 74
0
 42
0.0000001
 43
0.0000001
 44
0.0000000001
 40
0.0
 40
0.0
 40
0.0
 40
0.0
 40
0.0262190348
 40
0.0767693248
 40
0.2646858177
 40
0.5721711898
 40
1.0
 40
1.0
 40
1.0
 40
1.0
 10
6.3927537328
 20
5.8416944062
 30
0.0
 10
6.3927536964
 20
5.8416946826
 30
0.0
 10
6.3927529106
 20
5.8416952378
 30
0.0
 10
6.3927502558
 20
5.8416958291
 30
0.0
 10
6.392744352
 20
5.841696281
 30
0.0
 10
6.3927345935
 20
5.8416963035
 30
0.0
 10
6.3927267567
 20
5.8416960814
 30
0.0
 10
6.3927222106
 20
5.8416959083
 30
0.0
  0
SPLINE
  5
47C
100
AcDbEntity
  8
0
100
AcDbSpline
 62
7
  6
CONTINUOUS
 70
0
 71
3
 72
11
 73
7
 74
0
 42
0.0000001
 43
0.0000001
 44
0.0000000001
 40
0.0
 40
0.0
 40
0.0
 40
0.0
 40
0.250670416
 40
0.5008424045
 40
0.7505983193
 40
1.0
 40
1.0
 40
1.0
 40
1.0
 10
5.7741657989
 20
6.0996224169
 30
0.0
 10
5.7752062032
 20
6.0946130364
 30
0.0
 10
5.7770852094
 20
6.0845617931
 30
0.0
 10
5.779348862
 20
6.0694069732
 30
0.0
 10
5.7811005187
 20
6.0542109033
 30
0.0
 10
5.7819527631
 20
6.044056825
 30
0.0
 10
5.7823046291
 20
6.0389786148
 30
0.0
  0
LINE
  5
47D
100
AcDbEntity
  8
0
100
AcDbLine
 62
7
  6
CONTINUOUS
 10
6.3836707007
 20
5.8325561119
 11
6.3832129187
 21
5.8325469038
  0
SPLINE
  5
47E
100
AcDbEntity
  8
0
100
AcDbSpline
 62
7
  6
CONTINUOUS
 70
0
 71
3
 72
23
 73
19
 74
0
 42
0.0000001
 43
0.0000001
 44
0.0000000001
 40
0.0
 40
0.0
 40
0.0
 40
0.0
 40
0.0620658259
 40
0.1242114936
 40
0.1864360948
 40
0.2487373743
 40
0.3111117072
 40
0.3735538494
 40
0.4360576996
 40
0.4986161807
 40
0.561221106
 40
0.6238638204
 40
0.6865352783
 40
0.7492261005
 40
0.811926924
 40
0.8746286538
 40
0.9373223234
 40
1.0
 40
1.0
 40
1.0
 40
1.0
 10
5.2920706599
 20
2.1976779434
 30
0.0
 10
5.2903378617
 20
2.1954564178
 30
0.0
 10
5.2867416924
 20
2.1911089304
 30
0.0
 10
5.2809801208
 20
2.1849039488
 30
0.0
 10
5.2748654168
 20
2.1790308087
 30
0.0
 10
5.2684176003
 20
2.1735096005
 30
0.0
 10
5.2616577135
 20
2.1683588773
 30
0.0
 10
5.2546080621
 20
2.1635960467
 30
0.0
 10
5.2472920488
 20
2.1592371228
 30
0.0
 10
5.2397340847
 20
2.1552966735
 30
0.0
 10
5.2319594501
 20
2.1517877855
 30
0.0
 10
5.223994197
 20
2.1487219639
 30
0.0
 10
5.2158650121
 20
2.1461090756
 30
0.0
 10
5.2075990593
 20
2.1439573874
 30
0.0
 10
5.1992239128
 20
2.1422734715
 30
0.0
 10
5.1907672696
 20
2.1410622522
 30
0.0
 10
5.1822573672
 20
2.140326978
 30
0.0
 10
5.1765653589
 20
2.1401552888
 30
0.0
 10
5.1737201876
 20
2.1401490129
 30
0.0
  0
SPLINE
  5
47F
100
AcDbEntity
  8
0
100
AcDbSpline
 62
7
  6
CONTINUOUS
 70
0
 71
3
 72
11
 73
7
 74
0
 42
0.0000001
 43
0.0000001
 44
0.0000000001
 40
0.0
 40
0.0
 40
0.0
 40
0.0
 40
0.2498462101
 40
0.4997220769
 40
0.7497306301
 40
1.0
 40
1.0
 40
1.0
 40
1.0
 10
5.7823039459
 20
5.9633216388
 30
0.0
 10
5.7819522339
 20
5.9582662081
 30
0.0
 10
5.7811005144
 20
5.9481643494
 30
0.0
 10
5.7793487912
 20
5.9330560934
 30
0.0
 10
5.7770849089
 20
5.9180070044
 30
0.0
 10
5.7752049358
 20
5.9080324166
 30
0.0
 10
5.7741640238
 20
5.9030640519
 30
0.0
  0
SPLINE
  5
480
100
AcDbEntity
  8
0
100
AcDbSpline
 62
7
  6
CONTINUOUS
 70
0
 71
3
 72
9
 73
5
 74
0
 42
0.0000001
 43
0.0000001
 44
0.0000000001
 40
0.0
 40
0.0
 40
0.0
 40
0.0
 40
0.4843745209
 40
1.0
 40
1.0
 40
1.0
 40
1.0
 10
5.7741640238
 20
5.9030640519
 30
0.0
 10
5.7739962458
 20
5.9022632298
 30
0.0
 10
5.7737464945
 20
5.9005888076
 30
0.0
 10
5.7736681019
 20
5.898898462
 30
0.0
 10
5.7736680998
 20
5.8980274639
 30
0.0
  0
SPLINE
  5
481
100
AcDbEntity
  8
0
100
AcDbSpline
 62
7
  6
CONTINUOUS
 70
0
 71
3
 72
9
 73
5
 74
0
 42
0.0000001
 43
0.0000001
 44
0.0000000001
 40
0.0
 40
0.0
 40
0.0
 40
0.0
 40
0.515625674
 40
1.0
 40
1.0
 40
1.0
 40
1.0
 10
5.7736684997
 20
5.7615347866
 30
0.0
 10
5.7736685065
 20
5.7606637882
 30
0.0
 10
5.7737469093
 20
5.758973443
 30
0.0
 10
5.7739966711
 20
5.7572990224
 30
0.0
 10
5.7741644532
 20
5.7564982015
 30
0.0
  0
LINE
  5
482
100
AcDbEntity
  8
0
100
AcDbLine
 62
7
  6
CONTINUOUS
 10
6.3836707006
 20
5.8270089674
 11
6.3832129187
 21
5.8270181774
  0
SPLINE
  5
483
100
AcDbEntity
  8
0
100
AcDbSpline
 62
7
  6
CONTINUOUS
 70
0
 71
3
 72
11
 73
7
 74
0
 42
0.0000001
 43
0.0000001
 44
0.0000000001
 40
0.0
 40
0.0
 40
0.0
 40
0.0
 40
0.2502692508
 40
0.5002779715
 40
0.7501535132
 40
1.0
 40
1.0
 40
1.0
 40
1.0
 10
5.7741644532
 20
5.7564982015
 30
0.0
 10
5.7752053933
 20
5.7515298451
 30
0.0
 10
5.7770854444
 20
5.7415552705
 30
0.0
 10
5.7793493765
 20
5.7265061949
 30
0.0
 10
5.781101246
 20
5.7113979531
 30
0.0
 10
5.7819529853
 20
5.7012960965
 30
0.0
 10
5.7823047284
 20
5.6962406623
 30
0.0
  0
SPLINE
  5
484
100
AcDbEntity
  8
0
100
AcDbSpline
 62
7
  6
CONTINUOUS
 70
0
 71
3
 72
15
 73
11
 74
0
 42
0.0000001
 43
0.0000001
 44
0.0000000001
 40
0.0
 40
0.0
 40
0.0
 40
0.0
 40
0.1847701791
 40
0.3460133627
 40
0.4851711597
 40
0.6048681236
 40
0.7093063393
 40
0.8047227865
 40
0.8989989689
 40
1.0
 40
1.0
 40
1.0
 40
1.0
 10
5.7736742124
 20
5.4875309577
 30
0.0
 10
5.773674217
 20
5.4874612427
 30
0.0
 10
5.7736785219
 20
5.4873306031
 30
0.0
 10
5.7737010997
 20
5.4871486244
 30
0.0
 10
5.7737394324
 20
5.4869943083
 30
0.0
 10
5.7737937298
 20
5.4868675904
 30
0.0
 10
5.7738647577
 20
5.4867686346
 30
0.0
 10
5.7739532168
 20
5.4866988249
 30
0.0
 10
5.7740576794
 20
5.4866602433
 30
0.0
 10
5.7741321485
 20
5.4866553377
 30
0.0
 10
5.7741702244
 20
5.4866569113
 30
0.0
  0
SPLINE
  5
485
100
AcDbEntity
  8
0
100
AcDbSpline
 62
7
  6
CONTINUOUS
 70
0
 71
3
 72
11
 73
7
 74
0
 42
0.0000001
 43
0.0000001
 44
0.0000000001
 40
0.0
 40
0.0
 40
0.0
 40
0.0
 40
0.2494019955
 40
0.4991575116
 40
0.7493297204
 40
1.0
 40
1.0
 40
1.0
 40
1.0
 10
5.782305855
 20
5.6205836864
 30
0.0
 10
5.7819540206
 20
5.6155054676
 30
0.0
 10
5.7811018004
 20
5.6053513894
 30
0.0
 10
5.7793502845
 20
5.5901553007
 30
0.0
 10
5.7770866824
 20
5.5750004795
 30
0.0
 10
5.7752077559
 20
5.5649492201
 30
0.0
 10
5.7741673801
 20
5.5599398366
 30
0.0
  0
SPLINE
  5
486
100
AcDbEntity
  8
0
100
AcDbSpline
 62
7
  6
CONTINUOUS
 70
0
 71
3
 72
11
 73
7
 74
0
 42
0.0000001
 43
0.0000001
 44
0.0000000001
 40
0.0
 40
0.0
 40
0.0
 40
0.0
 40
0.2758785806
 40
0.5358633978
 40
0.7778229561
 40
1.0
 40
1.0
 40
1.0
 40
1.0
 10
5.7741673801
 20
5.5599398366
 30
0.0
 10
5.7740888703
 20
5.5595618059
 30
0.0
 10
5.7739494694
 20
5.5588247012
 30
0.0
 10
5.7737923299
 20
5.5577471454
 30
0.0
 10
5.7736956492
 20
5.5567379068
 30
0.0
 10
5.7736715547
 20
5.5560882372
 30
0.0
 10
5.7736715636
 20
5.5557772963
 30
0.0
  0
SPLINE
  5
487
100
AcDbEntity
  8
0
100
AcDbSpline
 62
7
  6
CONTINUOUS
 70
0
 71
3
 72
10
 73
6
 74
0
 42
0.0000001
 43
0.0000001
 44
0.0000000001
 40
0.0
 40
0.0
 40
0.0
 40
0.0
 40
0.1887736774
 40
0.5322722128
 40
1.0
 40
1.0
 40
1.0
 40
1.0
 10
5.1737401409
 20
2.1401323703
 30
0.0
 10
5.1737384441
 20
2.1401323663
 30
0.0
 10
5.1737336281
 20
2.140133463
 30
0.0
 10
5.1737264911
 20
2.1401393738
 30
0.0
 10
5.1737223478
 20
2.1401454061
 30
0.0
 10
5.1737201876
 20
2.1401490129
 30
0.0
  0
SPLINE
  5
488
100
AcDbEntity
  8
0
100
AcDbSpline
 62
7
  6
CONTINUOUS
 70
0
 71
3
 72
10
 73
6
 74
0
 42
0.0000001
 43
0.0000001
 44
0.0000000001
 40
0.0
 40
0.0
 40
0.0
 40
0.0
 40
0.188773682
 40
0.5322722309
 40
1.0
 40
1.0
 40
1.0
 40
1.0
 10
5.0176683782
 20
2.1401323703
 30
0.0
 10
5.017670075
 20
2.1401323663
 30
0.0
 10
5.0176748909
 20
2.140133463
 30
0.0
 10
5.017682028
 20
2.1401393738
 30
0.0
 10
5.0176861713
 20
2.1401454061
 30
0.0
 10
5.0176883315
 20
2.1401490129
 30
0.0
  0
SPLINE
  5
489
100
AcDbEntity
  8
0
100
AcDbSpline
 62
7
  6
CONTINUOUS
 70
0
 71
3
 72
23
 73
19
 74
0
 42
0.0000001
 43
0.0000001
 44
0.0000000001
 40
0.0
 40
0.0
 40
0.0
 40
0.0
 40
0.0626732222
 40
0.1252698556
 40
0.1878041382
 40
0.2502921305
 40
0.3127466121
 40
0.3751770251
 40
0.4375924786
 40
0.500000581
 40
0.5624086601
 40
0.6248240655
 40
0.6872543946
 40
0.7497087472
 40
0.812196563
 40
0.8747306473
 40
0.9373270443
 40
1.0
 40
1.0
 40
1.0
 40
1.0
 10
5.6771739594
 20
5.5588683666
 30
0.0
 10
5.6763571936
 20
5.5628720459
 30
0.0
 10
5.6748534157
 20
5.5709012959
 30
0.0
 10
5.672959194
 20
5.5829998622
 30
0.0
 10
5.6714025923
 20
5.5951342054
 30
0.0
 10
5.6701605317
 20
5.6072952376
 30
0.0
 10
5.6692152026
 20
5.6194760003
 30
0.0
 10
5.6685501446
 20
5.6316704393
 30
0.0
 10
5.6681562456
 20
5.6438735535
 30
0.0
 10
5.6680247857
 20
5.6560808282
 30
0.0
 10
5.6681557981
 20
5.6682881051
 30
0.0
 10
5.6685493503
 20
5.6804912208
 30
0.0
 10
5.6692140584
 20
5.6926856612
 30
0.0
 10
5.6701589406
 20
5.7048664327
 30
0.0
 10
5.6714005816
 20
5.7170274756
 30
0.0
 10
5.6729568743
 20
5.729161819
 30
0.0
 10
5.6748508351
 20
5.7412603801
 30
0.0
 10
5.6763544185
 20
5.7492896325
 30
0.0
 10
5.6771710642
 20
5.7532933185
 30
0.0
  0
SPLINE
  5
48A
100
AcDbEntity
  8
0
100
AcDbSpline
 62
7
  6
CONTINUOUS
 70
0
 71
3
 72
12
 73
8
 74
0
 42
0.0000001
 43
0.0000001
 44
0.0000000001
 40
0.0
 40
0.0
 40
0.0
 40
0.0
 40
0.250449616
 40
0.5005355519
 40
0.6254777011
 40
0.7503658325
 40
1.0
 40
1.0
 40
1.0
 40
1.0
 10
5.7671920913
 20
5.7532935822
 30
0.0
 10
5.7681984729
 20
5.7483604275
 30
0.0
 10
5.770014318
 20
5.7384605315
 30
0.0
 10
5.7718352371
 20
5.7260166489
 30
0.0
 10
5.7730432721
 20
5.7160393685
 30
0.0
 10
5.7740924947
 20
5.7060533491
 30
0.0
 10
5.7747078081
 20
5.6985481111
 30
0.0
 10
5.7750467579
 20
5.6935412026
 30
0.0
  0
SPLINE
  5
48B
100
AcDbEntity
  8
0
100
AcDbSpline
 62
7
  6
CONTINUOUS
 70
0
 71
3
 72
11
 73
7
 74
0
 42
0.0000001
 43
0.0000001
 44
0.0000000001
 40
0.0
 40
0.0
 40
0.0
 40
0.0
 40
0.2500388336
 40
0.5000001976
 40
0.7499614626
 40
1.0
 40
1.0
 40
1.0
 40
1.0
 10
5.7750467579
 20
5.6935412026
 30
0.0
 10
5.7754688297
 20
5.6873063033
 30
0.0
 10
5.7761420532
 20
5.6748256789
 30
0.0
 10
5.7764963803
 20
5.6560811385
 30
0.0
 10
5.7761426058
 20
5.6373365953
 30
0.0
 10
5.7754697636
 20
5.6248559602
 30
0.0
 10
5.7750478735
 20
5.618621056
 30
0.0
  0
SPLINE
  5
48C
100
AcDbEntity
  8
0
100
AcDbSpline
 62
7
  6
CONTINUOUS
 70
0
 71
3
 72
12
 73
8
 74
0
 42
0.0000001
 43
0.0000001
 44
0.0000000001
 40
0.0
 40
0.0
 40
0.0
 40
0.0
 40
0.2496344233
 40
0.3745226257
 40
0.499464823
 40
0.7495506913
 40
1.0
 40
1.0
 40
1.0
 40
1.0
 10
5.7750478735
 20
5.618621056
 30
0.0
 10
5.7747090762
 20
5.6136141473
 30
0.0
 10
5.774094
 20
5.6061089064
 30
0.0
 10
5.7730450867
 20
5.5961228776
 30
0.0
 10
5.7718373487
 20
5.5861455911
 30
0.0
 10
5.7700167843
 20
5.5737017018
 30
0.0
 10
5.7682012244
 20
5.5638017924
 30
0.0
 10
5.7671949864
 20
5.5588686304
 30
0.0
  0
SPLINE
  5
48D
100
AcDbEntity
  8
0
100
AcDbSpline
 62
7
  6
CONTINUOUS
 70
0
 71
3
 72
23
 73
19
 74
0
 42
0.0000001
 43
0.0000001
 44
0.0000000001
 40
0.0
 40
0.0
 40
0.0
 40
0.0
 40
0.0626729544
 40
0.1252693482
 40
0.1878034307
 40
0.2502912596
 40
0.31274562
 40
0.3751759465
 40
0.4375913528
 40
0.499999438
 40
0.5624075373
 40
0.6248229901
 40
0.6872534071
 40
0.7497078916
 40
0.8121958796
 40
0.8747301531
 40
0.9373267773
 40
1.0
 40
1.0
 40
1.0
 40
1.0
 10
5.677170616
 20
5.9062683666
 30
0.0
 10
5.6763539483
 20
5.9102720478
 30
0.0
 10
5.6748503323
 20
5.9183012936
 30
0.0
 10
5.6729563479
 20
5.93039985
 30
0.0
 10
5.6714000268
 20
5.9425341892
 30
0.0
 10
5.6701582824
 20
5.9546952215
 30
0.0
 10
5.6692132833
 20
5.9668759848
 30
0.0
 10
5.6685485332
 20
5.9790704231
 30
0.0
 10
5.6681549346
 20
5.9912735364
 30
0.0
 10
5.6680237885
 20
6.003480811
 30
0.0
 10
5.6681551142
 20
6.015688087
 30
0.0
 10
5.6685489618
 20
6.0278912027
 30
0.0
 10
5.6692139909
 20
6.0400856428
 30
0.0
 10
5.670159259
 20
6.0522664095
 30
0.0
 10
5.6714012383
 20
6.0644274485
 30
0.0
 10
5.6729577454
 20
6.0765618016
 30
0.0
 10
5.6748518933
 20
6.0886603779
 30
0.0
 10
5.6763556307
 20
6.0966896344
 30
0.0
 10
5.6771723719
 20
6.1006933185
 30
0.0
  0
SPLINE
  5
48E
100
AcDbEntity
  8
0
100
AcDbSpline
 62
7
  6
CONTINUOUS
 70
0
 71
3
 72
12
 73
8
 74
0
 42
0.0000001
 43
0.0000001
 44
0.0000000001
 40
0.0
 40
0.0
 40
0.0
 40
0.0
 40
0.2504493224
 40
0.5005351726
 40
0.6254773484
 40
0.7503655521
 40
1.0
 40
1.0
 40
1.0
 40
1.0
 10
5.7671933989
 20
6.1006935822
 30
0.0
 10
5.768199664
 20
6.0957604256
 30
0.0
 10
5.7700152689
 20
6.0858605247
 30
0.0
 10
5.7718358917
 20
6.0734166452
 30
0.0
 10
5.77304369
 20
6.0634393671
 30
0.0
 10
5.7740926731
 20
6.053453346
 30
0.0
 10
5.7747078054
 20
6.0459481093
 30
0.0
 10
5.7750466361
 20
6.0409412026
 30
0.0
  0
SPLINE
  5
48F
100
AcDbEntity
  8
0
100
AcDbSpline
 62
7
  6
CONTINUOUS
 70
0
 71
3
 72
11
 73
7
 74
0
 42
0.0000001
 43
0.0000001
 44
0.0000000001
 40
0.0
 40
0.0
 40
0.0
 40
0.0
 40
0.2500385185
 40
0.499999774
 40
0.749961156
 40
1.0
 40
1.0
 40
1.0
 40
1.0
 10
5.7750466361
 20
6.0409412026
 30
0.0
 10
5.775468562
 20
6.0347063013
 30
0.0
 10
5.7761415145
 20
6.0222256724
 30
0.0
 10
5.7764953396
 20
6.0034811301
 30
0.0
 10
5.7761411386
 20
5.9847365878
 30
0.0
 10
5.7754679982
 20
5.9722559578
 30
0.0
 10
5.7750459595
 20
5.966021056
 30
0.0
  0
SPLINE
  5
490
100
AcDbEntity
  8
0
100
AcDbSpline
 62
7
  6
CONTINUOUS
 70
0
 71
3
 72
12
 73
8
 74
0
 42
0.0000001
 43
0.0000001
 44
0.0000000001
 40
0.0
 40
0.0
 40
0.0
 40
0.0
 40
0.2496341525
 40
0.3745222878
 40
0.4994644618
 40
0.7495504114
 40
1.0
 40
1.0
 40
1.0
 40
1.0
 10
5.7750459595
 20
5.966021056
 30
0.0
 10
5.7747070411
 20
5.9610141456
 30
0.0
 10
5.7740917819
 20
5.9535089033
 30
0.0
 10
5.7730426237
 20
5.9435228766
 30
0.0
 10
5.7718346414
 20
5.9335455888
 30
0.0
 10
5.7700137799
 20
5.9211016975
 30
0.0
 10
5.7681979963
 20
5.9112017904
 30
0.0
 10
5.7671916431
 20
5.9062686304
 30
0.0
  0
SPLINE
  5
491
100
AcDbEntity
  8
0
100
AcDbSpline
 62
7
  6
CONTINUOUS
 70
0
 71
3
 72
13
 73
9
 74
0
 42
0.0000001
 43
0.0000001
 44
0.0000000001
 40
0.0
 40
0.0
 40
0.0
 40
0.0
 40
0.2491265818
 40
0.3744702573
 40
0.4999999956
 40
0.6255297334
 40
0.7508734093
 40
1.0
 40
1.0
 40
1.0
 40
1.0
 10
4.800706074
 20
6.1467834313
 30
0.0
 10
4.7902667265
 20
6.1284252423
 30
0.0
 10
4.7745432606
 20
6.1008484646
 30
0.0
 10
4.7534603149
 20
6.0640781735
 30
0.0
 10
4.7375405934
 20
6.0364250381
 30
0.0
 10
4.7215711189
 20
6.0088006048
 30
0.0
 10
4.7002937666
 20
5.9721424646
 30
0.0
 10
4.6842921619
 20
5.944726142
 30
0.0
 10
4.6736257
 20
5.9264989726
 30
0.0
  0
SPLINE
  5
492
100
AcDbEntity
  8
0
100
AcDbSpline
 62
7
  6
CONTINUOUS
 70
0
 71
3
 72
15
 73
11
 74
0
 42
0.0000001
 43
0.0000001
 44
0.0000000001
 40
0.0
 40
0.0
 40
0.0
 40
0.0
 40
0.1205641312
 40
0.2424473758
 40
0.3657855175
 40
0.4905770501
 40
0.6166874036
 40
0.7438677832
 40
0.8717697785
 40
1.0
 40
1.0
 40
1.0
 40
1.0
 10
6.3843255237
 20
5.8224771171
 30
0.0
 10
6.3844934419
 20
5.8223851288
 30
0.0
 10
6.38481664
 20
5.822172312
 30
0.0
 10
6.3852469693
 20
5.8217787657
 30
0.0
 10
6.385615797
 20
5.8213183533
 30
0.0
 10
6.3859144708
 20
5.8208019907
 30
0.0
 10
6.3861362175
 20
5.8202417233
 30
0.0
 10
6.3862759592
 20
5.819650548
 30
0.0
 10
6.386330575
 20
5.8190423197
 30
0.0
 10
6.3863093546
 20
5.8186345137
 30
0.0
 10
6.3862844571
 20
5.8184324035
 30
0.0
  0
SPLINE
  5
493
100
AcDbEntity
  8
0
100
AcDbSpline
 62
7
  6
CONTINUOUS
 70
0
 71
3
 72
12
 73
8
 74
0
 42
0.0000001
 43
0.0000001
 44
0.0000000001
 40
0.0
 40
0.0
 40
0.0
 40
0.0
 40
0.0262279788
 40
0.0767891802
 40
0.2647165553
 40
0.5721954344
 40
1.0
 40
1.0
 40
1.0
 40
1.0
 10
6.3927537328
 20
5.8178706747
 30
0.0
 10
6.3927536961
 20
5.8178703982
 30
0.0
 10
6.39275291
 20
5.8178698434
 30
0.0
 10
6.3927502549
 20
5.8178692519
 30
0.0
 10
6.392744351
 20
5.8178688004
 30
0.0
 10
6.3927345928
 20
5.8178687778
 30
0.0
 10
6.3927267564
 20
5.8178689999
 30
0.0
 10
6.3927222106
 20
5.817869173
 30
0.0
  0
SPLINE
  5
494
100
AcDbEntity
  8
0
100
AcDbSpline
 62
7
  6
CONTINUOUS
 70
0
 71
3
 72
21
 73
17
 74
0
 42
0.0000001
 43
0.0000001
 44
0.0000000001
 40
0.0
 40
0.0
 40
0.0
 40
0.0
 40
0.1247943977
 40
0.1871337164
 40
0.2494560331
 40
0.3117765435
 40
0.3741086924
 40
0.4364632544
 40
0.4988494247
 40
0.561275277
 40
0.6237480439
 40
0.6862746869
 40
0.748862468
 40
0.8115196359
 40
0.874255809
 40
1.0
 40
1.0
 40
1.0
 40
1.0
 10
5.670198382
 20
5.9030637473
 30
0.0
 10
5.6685113758
 20
5.9111166984
 30
0.0
 10
5.6663766003
 20
5.9232786977
 30
0.0
 10
5.6642245918
 20
5.9395851466
 30
0.0
 10
5.6629364242
 20
5.9518470506
 30
0.0
 10
5.6619546594
 20
5.9641364111
 30
0.0
 10
5.6612644766
 20
5.9764476817
 30
0.0
 10
5.6608548619
 20
5.988775721
 30
0.0
 10
5.6607191884
 20
6.0011159653
 30
0.0
 10
5.6608552491
 20
6.0134639972
 30
0.0
 10
5.6612652588
 20
6.0258152636
 30
0.0
 10
5.6619558449
 20
6.0381647984
 30
0.0
 10
5.6629378985
 20
6.0505068112
 30
0.0
 10
5.6642264616
 20
6.0628348743
 30
0.0
 10
5.6663796729
 20
6.0792529697
 30
0.0
 10
5.6685141613
 20
6.0915049822
 30
0.0
 10
5.6702001571
 20
6.0996221123
 30
0.0
  0
SPLINE
  5
495
100
AcDbEntity
  8
0
100
AcDbSpline
 62
7
  6
CONTINUOUS
 70
0
 71
3
 72
9
 73
5
 74
0
 42
0.0000001
 43
0.0000001
 44
0.0000000001
 40
0.0
 40
0.0
 40
0.0
 40
0.0
 40
0.5156262695
 40
1.0
 40
1.0
 40
1.0
 40
1.0
 10
5.6706942568
 20
5.8980271622
 30
0.0
 10
5.670694257
 20
5.8988981601
 30
0.0
 10
5.6706158739
 20
5.9005885029
 30
0.0
 10
5.670366145
 20
5.9022629248
 30
0.0
 10
5.670198382
 20
5.9030637473
 30
0.0
  0
SPLINE
  5
496
100
AcDbEntity
  8
0
100
AcDbSpline
 62
7
  6
CONTINUOUS
 70
0
 71
3
 72
15
 73
11
 74
0
 42
0.0000001
 43
0.0000001
 44
0.0000000001
 40
0.0
 40
0.0
 40
0.0
 40
0.0
 40
0.1245481528
 40
0.2491744224
 40
0.373930864
 40
0.4988455247
 40
0.6239282782
 40
0.7491697627
 40
0.8745426994
 40
1.0
 40
1.0
 40
1.0
 40
1.0
 10
6.3894799983
 20
5.8223057657
 30
0.0
 10
6.389705493
 20
5.822265644
 30
0.0
 10
6.3901505714
 20
5.8221456349
 30
0.0
 10
6.3907763013
 20
5.8218525605
 30
0.0
 10
6.3913425176
 20
5.8214550304
 30
0.0
 10
6.3918320087
 20
5.8209650251
 30
0.0
 10
6.3922301894
 20
5.8203972438
 30
0.0
 10
6.3925251443
 20
5.8197686404
 30
0.0
 10
6.3927080616
 20
5.8190983113
 30
0.0
 10
6.3927516963
 20
5.8186364123
 30
0.0
 10
6.3927535999
 20
5.818405712
 30
0.0
  0
SPLINE
  5
497
100
AcDbEntity
  8
0
100
AcDbSpline
 62
7
  6
CONTINUOUS
 70
0
 71
3
 72
15
 73
11
 74
0
 42
0.0000001
 43
0.0000001
 44
0.0000000001
 40
0.0
 40
0.0
 40
0.0
 40
0.0
 40
0.1205640196
 40
0.2424471512
 40
0.3657852093
 40
0.4905767072
 40
0.6166870824
 40
0.7438675365
 40
0.871769645
 40
1.0
 40
1.0
 40
1.0
 40
1.0
 10
6.3843254185
 20
5.8370879066
 30
0.0
 10
6.3844933439
 20
5.8371798914
 30
0.0
 10
6.3848165566
 20
5.8373927032
 30
0.0
 10
6.3852469069
 20
5.8377862478
 30
0.0
 10
6.3856157538
 20
5.8382466634
 30
0.0
 10
6.3859144442
 20
5.8387630337
 30
0.0
 10
6.386136204
 20
5.8393233124
 30
0.0
 10
6.3862759548
 20
5.8399145017
 30
0.0
 10
6.3863305754
 20
5.8405227456
 30
0.0
 10
6.3863093552
 20
5.8409305623
 30
0.0
 10
6.3862844571
 20
5.8411326778
 30
0.0
  0
SPLINE
  5
498
100
AcDbEntity
  8
0
100
AcDbSpline
 62
7
  6
CONTINUOUS
 70
0
 71
3
 72
10
 73
6
 74
0
 42
0.0000001
 43
0.0000001
 44
0.0000000001
 40
0.0
 40
0.0
 40
0.0
 40
0.0
 40
0.3191218359
 40
0.6100907412
 40
1.0
 40
1.0
 40
1.0
 40
1.0
 10
6.3863165591
 20
5.7933580274
 30
0.0
 10
6.3863152143
 20
5.7933547611
 30
0.0
 10
6.3863068566
 20
5.7933530238
 30
0.0
 10
6.3862964424
 20
5.7933529925
 30
0.0
 10
6.3862887428
 20
5.7933536672
 30
0.0
 10
6.3862844571
 20
5.7933541767
 30
0.0
  0
SPLINE
  5
499
100
AcDbEntity
  8
0
100
AcDbSpline
 62
7
  6
CONTINUOUS
 70
0
 71
3
 72
23
 73
19
 74
0
 42
0.0000001
 43
0.0000001
 44
0.0000000001
 40
0.0
 40
0.0
 40
0.0
 40
0.0
 40
0.120873858
 40
0.1818204806
 40
0.2431601897
 40
0.3049104912
 40
0.367065639
 40
0.3982880703
 40
0.4296007491
 40
0.4609966274
 40
0.4924682965
 40
0.5556063731
 40
0.6189466083
 40
0.682419089
 40
0.7459603646
 40
0.8095190725
 40
0.873057991
 40
1.0
 40
1.0
 40
1.0
 40
1.0
 10
4.8015493257
 20
2.36737816
 30
0.0
 10
4.8048148103
 20
2.3614434562
 30
0.0
 10
4.8097493289
 20
2.3525287275
 30
0.0
 10
4.8164013207
 20
2.340635921
 30
0.0
 10
4.8214643427
 20
2.3316507688
 30
0.0
 10
4.8265895689
 20
2.3226229895
 30
0.0
 10
4.8309085945
 20
2.3150783763
 30
0.0
 10
4.8343954085
 20
2.3090228469
 30
0.0
 10
4.8370296775
 20
2.3044655125
 30
0.0
 10
4.8396791091
 20
2.2999008191
 30
0.0
 10
4.843235223
 20
2.2938002473
 30
0.0
 10
4.8477135567
 20
2.2861651673
 30
0.0
 10
4.853130385
 20
2.2770015788
 30
0.0
 10
4.8585891445
 20
2.267836595
 30
0.0
 10
4.8640852544
 20
2.2586796818
 30
0.0
 10
4.8696106744
 20
2.2495360767
 30
0.0
 10
4.8770095556
 20
2.2373733426
 30
0.0
 10
4.8825945898
 20
2.2282763638
 30
0.0
 10
4.8863305054
 20
2.222222468
 30
0.0
  0
SPLINE
  5
49A
100
AcDbEntity
  8
0
100
AcDbSpline
 62
7
  6
CONTINUOUS
 70
0
 71
3
 72
23
 73
19
 74
0
 42
0.0000001
 43
0.0000001
 44
0.0000000001
 40
0.0
 40
0.0
 40
0.0
 40
0.0
 40
0.1269420114
 40
0.1904809311
 40
0.254039639
 40
0.3175809245
 40
0.3810534728
 40
0.4127443004
 40
0.4443934446
 40
0.4759921797
 40
0.5075318125
 40
0.5703994465
 40
0.6329340534
 40
0.6950894148
 40
0.7568398494
 40
0.8181795188
 40
0.8791261353
 40
1.0
 40
1.0
 40
1.0
 40
1.0
 10
5.3050780137
 20
2.222222468
 30
0.0
 10
5.3088139316
 20
2.2282763624
 30
0.0
 10
5.3143989591
 20
2.2373733458
 30
0.0
 10
5.3217978328
 20
2.2495360845
 30
0.0
 10
5.3273233186
 20
2.2586796507
 30
0.0
 10
5.3328193288
 20
2.2678366287
 30
0.0
 10
5.3373702405
 20
2.275477937
 30
0.0
 10
5.3409917906
 20
2.2815925044
 30
0.0
 10
5.3436956517
 20
2.2861745919
 30
0.0
 10
5.3463871265
 20
2.2907541413
 30
0.0
 10
5.349953694
 20
2.2968486319
 30
0.0
 10
5.3543754789
 20
2.3044513157
 30
0.0
 10
5.3596285283
 20
2.3135552487
 30
0.0
 10
5.3648189511
 20
2.3226229657
 30
0.0
 10
5.3699441312
 20
2.3316507908
 30
0.0
 10
5.3750072139
 20
2.3406359143
 30
0.0
 10
5.3816591913
 20
2.3525287265
 30
0.0
 10
5.3865937061
 20
2.3614434572
 30
0.0
 10
5.3898591934
 20
2.36737816
 30
0.0
  0
SPLINE
  5
49B
100
AcDbEntity
  8
0
100
AcDbSpline
 62
7
  6
CONTINUOUS
 70
0
 71
3
 72
15
 73
11
 74
0
 42
0.0000001
 43
0.0000001
 44
0.0000000001
 40
0.0
 40
0.0
 40
0.0
 40
0.0
 40
0.1247321703
 40
0.2495474919
 40
0.3744451099
 40
0.4994208147
 40
0.6244701881
 40
0.7495877904
 40
0.8747663569
 40
1.0
 40
1.0
 40
1.0
 40
1.0
 10
5.3045520599
 20
2.2213763649
 30
0.0
 10
5.3002195475
 20
2.2173034947
 30
0.0
 10
5.2913083399
 20
2.2094094806
 30
0.0
 10
5.2772631581
 20
2.1983759734
 30
0.0
 10
5.2625820619
 20
2.1881824537
 30
0.0
 10
5.2473169748
 20
2.1788651508
 30
0.0
 10
5.2315212528
 20
2.1704565377
 30
0.0
 10
5.2152500414
 20
2.1629860311
 30
0.0
 10
5.1985610326
 20
2.1564799341
 30
0.0
 10
5.1871957317
 20
2.1528008413
 30
0.0
 10
5.1814642673
 20
2.1511292741
 30
0.0
  0
SPLINE
  5
49C
100
AcDbEntity
  8
0
100
AcDbSpline
 62
7
  6
CONTINUOUS
 70
0
 71
3
 72
18
 73
14
 74
0
 42
0.0000001
 43
0.0000001
 44
0.0000000001
 40
0.0
 40
0.0
 40
0.0
 40
0.0
 40
0.1238933628
 40
0.2485821278
 40
0.3740480228
 40
0.4369909449
 40
0.4999999682
 40
0.6259519348
 40
0.6887699617
 40
0.7514178514
 40
0.8138668005
 40
0.8761066329
 40
1.0
 40
1.0
 40
1.0
 40
1.0
 10
5.0109230798
 20
2.1511165872
 30
0.0
 10
5.0179254056
 20
2.1510497805
 30
0.0
 10
5.0319752126
 20
2.1509359709
 30
0.0
 10
5.0531166904
 20
2.1508206099
 30
0.0
 10
5.0708133791
 20
2.1507651476
 30
0.0
 10
5.08502389
 20
2.1507436172
 30
0.0
 10
5.0992618888
 20
2.1507360229
 30
0.0
 10
5.1134928321
 20
2.1507509396
 30
0.0
 10
5.127703316
 20
2.1507871134
 30
0.0
 10
5.1383244824
 20
2.1508270105
 30
0.0
 10
5.1489129184
 20
2.1508784624
 30
0.0
 10
5.1629629043
 20
2.1509646001
 30
0.0
 10
5.1734831132
 20
2.1510497807
 30
0.0
 10
5.1804854393
 20
2.1511165872
 30
0.0
  0
SPLINE
  5
49D
100
AcDbEntity
  8
0
100
AcDbSpline
 62
7
  6
CONTINUOUS
 70
0
 71
3
 72
15
 73
11
 74
0
 42
0.0000001
 43
0.0000001
 44
0.0000000001
 40
0.0
 40
0.0
 40
0.0
 40
0.0
 40
0.1252336431
 40
0.2504122096
 40
0.3755298119
 40
0.5005791853
 40
0.6255548901
 40
0.7504525081
 40
0.8752678297
 40
1.0
 40
1.0
 40
1.0
 40
1.0
 10
5.0099442517
 20
2.1511292741
 30
0.0
 10
5.0042127874
 20
2.1528008413
 30
0.0
 10
4.9928474865
 20
2.1564799341
 30
0.0
 10
4.9761584777
 20
2.1629860311
 30
0.0
 10
4.9598872663
 20
2.1704565377
 30
0.0
 10
4.9440915442
 20
2.1788651508
 30
0.0
 10
4.9288264572
 20
2.1881824537
 30
0.0
 10
4.914145361
 20
2.1983759734
 30
0.0
 10
4.9001001792
 20
2.2094094806
 30
0.0
 10
4.8911889716
 20
2.2173034947
 30
0.0
 10
4.8868564592
 20
2.2213763649
 30
0.0
  0
SPLINE
  5
49E
100
AcDbEntity
  8
0
100
AcDbSpline
 62
7
  6
CONTINUOUS
 70
0
 71
3
 72
71
 73
67
 74
0
 42
0.0000001
 43
0.0000001
 44
0.0000000001
 40
0.0
 40
0.0
 40
0.0
 40
0.0
 40
0.015534561
 40
0.0310700145
 40
0.0466071926
 40
0.0621469681
 40
0.0776901542
 40
0.0932375453
 40
0.1087898891
 40
0.1243478868
 40
0.139912184
 40
0.1554833649
 40
0.1710619467
 40
0.1866483747
 40
0.2022430177
 40
0.2178461654
 40
0.2334580247
 40
0.2490787187
 40
0.264708285
 40
0.280346676
 40
0.295993759
 40
0.3116493181
 40
0.3273130561
 40
0.3429845976
 40
0.3586634926
 40
0.3743492211
 40
0.3900411977
 40
0.4057387779
 40
0.4214412638
 40
0.437147911
 40
0.4528579354
 40
0.4685705213
 40
0.4842848283
 40
0.5
 40
0.5157151717
 40
0.5314294787
 40
0.5471420646
 40
0.562852089
 40
0.5785587362
 40
0.5942612221
 40
0.6099588023
 40
0.6256507789
 40
0.6413365074
 40
0.6570154024
 40
0.6726869439
 40
0.6883506819
 40
0.704006241
 40
0.719653324
 40
0.735291715
 40
0.7509212813
 40
0.7665419753
 40
0.7821538346
 40
0.7977569823
 40
0.8133516253
 40
0.8289380533
 40
0.8445166351
 40
0.860087816
 40
0.8756521132
 40
0.8912101109
 40
0.9067624547
 40
0.9223098458
 40
0.9378530319
 40
0.9533928074
 40
0.9689299855
 40
0.984465439
 40
1.0
 40
1.0
 40
1.0
 40
1.0
 10
5.3581042595
 20
2.450918994
 30
0.0
 10
5.3581042595
 20
2.4466752838
 30
0.0
 10
5.3578934455
 20
2.4381861094
 30
0.0
 10
5.356945558
 20
2.4254843625
 30
0.0
 10
5.35536828
 20
2.412843573
 30
0.0
 10
5.3531654191
 20
2.4002946159
 30
0.0
 10
5.3503422807
 20
2.3878676127
 30
0.0
 10
5.3469056716
 20
2.3755925366
 30
0.0
 10
5.3428638736
 20
2.3634989545
 30
0.0
 10
5.3382266287
 20
2.3516160061
 30
0.0
 10
5.3330051129
 20
2.3399723201
 30
0.0
 10
5.3272119104
 20
2.3285959489
 30
0.0
 10
5.3208609828
 20
2.3175142999
 30
0.0
 10
5.3139676352
 20
2.3067540698
 30
0.0
 10
5.3065484794
 20
2.2963411801
 30
0.0
 10
5.2986213939
 20
2.2863007148
 30
0.0
 10
5.2902054804
 20
2.2766568602
 30
0.0
 10
5.2813210177
 20
2.2674328462
 30
0.0
 10
5.2719894133
 20
2.2586508907
 30
0.0
 10
5.262233151
 20
2.2503321462
 30
0.0
 10
5.2520757371
 20
2.242496649
 30
0.0
 10
5.2415416436
 20
2.2351632707
 30
0.0
 10
5.2306562494
 20
2.2283496731
 30
0.0
 10
5.2194457787
 20
2.2220722656
 30
0.0
 10
5.2079372384
 20
2.2163461661
 30
0.0
 10
5.1961583526
 20
2.2111851641
 30
0.0
 10
5.1841374959
 20
2.2066016883
 30
0.0
 10
5.1719036252
 20
2.2026067762
 30
0.0
 10
5.1594862101
 20
2.1992100478
 30
0.0
 10
5.1469151617
 20
2.1964196825
 30
0.0
 10
5.1342207607
 20
2.1942423995
 30
0.0
 10
5.1214335847
 20
2.1926834417
 30
0.0
 10
5.1085844343
 20
2.1917465629
 30
0.0
 10
5.0957042595
 20
2.1914340191
 30
0.0
 10
5.0828240847
 20
2.1917465629
 30
0.0
 10
5.0699749344
 20
2.1926834417
 30
0.0
 10
5.0571877584
 20
2.1942423995
 30
0.0
 10
5.0444933574
 20
2.1964196825
 30
0.0
 10
5.031922309
 20
2.1992100478
 30
0.0
 10
5.0195048939
 20
2.2026067762
 30
0.0
 10
5.0072710232
 20
2.2066016883
 30
0.0
 10
4.9952501665
 20
2.2111851641
 30
0.0
 10
4.9834712806
 20
2.2163461661
 30
0.0
 10
4.9719627403
 20
2.2220722656
 30
0.0
 10
4.9607522697
 20
2.2283496731
 30
0.0
 10
4.9498668755
 20
2.2351632707
 30
0.0
 10
4.939332782
 20
2.242496649
 30
0.0
 10
4.9291753681
 20
2.2503321462
 30
0.0
 10
4.9194191058
 20
2.2586508907
 30
0.0
 10
4.9100875013
 20
2.2674328462
 30
0.0
 10
4.9012030387
 20
2.2766568602
 30
0.0
 10
4.8927871252
 20
2.2863007148
 30
0.0
 10
4.8848600396
 20
2.2963411801
 30
0.0
 10
4.8774408839
 20
2.3067540698
 30
0.0
 10
4.8705475363
 20
2.3175142999
 30
0.0
 10
4.8641966087
 20
2.3285959489
 30
0.0
 10
4.8584034062
 20
2.3399723201
 30
0.0
 10
4.8531818904
 20
2.3516160061
 30
0.0
 10
4.8485446455
 20
2.3634989545
 30
0.0
 10
4.8445028475
 20
2.3755925366
 30
0.0
 10
4.8410662384
 20
2.3878676127
 30
0.0
 10
4.8382430999
 20
2.4002946159
 30
0.0
 10
4.8360402391
 20
2.412843573
 30
0.0
 10
4.8344629611
 20
2.4254843625
 30
0.0
 10
4.8335150736
 20
2.4381861094
 30
0.0
 10
4.8333042595
 20
2.4466752838
 30
0.0
 10
4.8333042595
 20
2.450918994
 30
0.0
  0
SPLINE
  5
49F
100
AcDbEntity
  8
0
100
AcDbSpline
 62
7
  6
CONTINUOUS
 70
0
 71
3
 72
69
 73
65
 74
0
 42
0.0000001
 43
0.0000001
 44
0.0000000001
 40
0.0
 40
0.0
 40
0.0
 40
0.0
 40
0.0155348311
 40
0.0310705993
 40
0.0466080508
 40
0.0621481194
 40
0.077691591
 40
0.0932392702
 40
0.1087919014
 40
0.1243501868
 40
0.1399147718
 40
0.1554862406
 40
0.1710651104
 40
0.1866518265
 40
0.2022467579
 40
0.2178501941
 40
0.2334623422
 40
0.2490833251
 40
0.2647131806
 40
0.280351861
 40
0.2959992336
 40
0.3116550826
 40
0.3273191106
 40
0.3429909423
 40
0.3586701276
 40
0.3743561465
 40
0.3900484137
 40
0.4057462845
 40
0.421449061
 40
0.4371559988
 40
0.452866314
 40
0.4685791905
 40
0.5
 40
0.5314208095
 40
0.547133686
 40
0.5628440012
 40
0.578550939
 40
0.5942537155
 40
0.6099515863
 40
0.6256438535
 40
0.6413298724
 40
0.6570090577
 40
0.6726808894
 40
0.6883449174
 40
0.7040007664
 40
0.719648139
 40
0.7352868194
 40
0.7509166749
 40
0.7665376578
 40
0.7821498059
 40
0.7977532421
 40
0.8133481735
 40
0.8289348896
 40
0.8445137594
 40
0.8600852282
 40
0.8756498132
 40
0.8912080986
 40
0.9067607298
 40
0.922308409
 40
0.9378518806
 40
0.9533919492
 40
0.9689294007
 40
0.9844651689
 40
1.0
 40
1.0
 40
1.0
 40
1.0
 10
4.8677042595
 20
2.5591813266
 30
0.0
 10
4.8677042595
 20
2.5554939605
 30
0.0
 10
4.8678874379
 20
2.548117694
 30
0.0
 10
4.8687110564
 20
2.5370811158
 30
0.0
 10
4.8700815613
 20
2.526097499
 30
0.0
 10
4.8719956304
 20
2.5151936818
 30
0.0
 10
4.8744486641
 20
2.5043958278
 30
0.0
 10
4.877434742
 20
2.4937299847
 30
0.0
 10
4.8809466707
 20
2.4832218419
 30
0.0
 10
4.8849759842
 20
2.4728967193
 30
0.0
 10
4.8895129721
 20
2.4627794924
 30
0.0
 10
4.8945466998
 20
2.4528945359
 30
0.0
 10
4.9000650361
 20
2.4432656641
 30
0.0
 10
4.9060546823
 20
2.4339160739
 30
0.0
 10
4.9125012044
 20
2.4248682885
 30
0.0
 10
4.9193890678
 20
2.4161441035
 30
0.0
 10
4.9267016751
 20
2.4077645343
 30
0.0
 10
4.9344214057
 20
2.3997497655
 30
0.0
 10
4.942529659
 20
2.3921191024
 30
0.0
 10
4.9510068987
 20
2.3848909245
 30
0.0
 10
4.9598327001
 20
2.3780826412
 30
0.0
 10
4.9689857994
 20
2.3717106504
 30
0.0
 10
4.9784441449
 20
2.3657902984
 30
0.0
 10
4.9881849503
 20
2.3603358436
 30
0.0
 10
4.9981847493
 20
2.3553604218
 30
0.0
 10
5.0084194519
 20
2.3508760149
 30
0.0
 10
5.0188644049
 20
2.346893422
 30
0.0
 10
5.0294944415
 20
2.3434222335
 30
0.0
 10
5.040283978
 20
2.3404708084
 30
0.0
 10
5.0512069402
 20
2.3380462538
 30
0.0
 10
5.0622373325
 20
2.3361544069
 30
0.0
 10
5.0770492624
 20
2.3343484852
 30
0.0
 10
5.0957042595
 20
2.3334422365
 30
0.0
 10
5.1143592567
 20
2.3343484852
 30
0.0
 10
5.1291711866
 20
2.3361544069
 30
0.0
 10
5.1402015788
 20
2.3380462538
 30
0.0
 10
5.1511245411
 20
2.3404708084
 30
0.0
 10
5.1619140776
 20
2.3434222335
 30
0.0
 10
5.1725441141
 20
2.346893422
 30
0.0
 10
5.1829890671
 20
2.3508760149
 30
0.0
 10
5.1932237698
 20
2.3553604218
 30
0.0
 10
5.2032235688
 20
2.3603358436
 30
0.0
 10
5.2129643742
 20
2.3657902984
 30
0.0
 10
5.2224227197
 20
2.3717106504
 30
0.0
 10
5.231575819
 20
2.3780826412
 30
0.0
 10
5.2404016204
 20
2.3848909245
 30
0.0
 10
5.24887886
 20
2.3921191024
 30
0.0
 10
5.2569871133
 20
2.3997497655
 30
0.0
 10
5.264706844
 20
2.4077645343
 30
0.0
 10
5.2720194513
 20
2.4161441035
 30
0.0
 10
5.2789073147
 20
2.4248682885
 30
0.0
 10
5.2853538368
 20
2.4339160739
 30
0.0
 10
5.291343483
 20
2.4432656641
 30
0.0
 10
5.2968618193
 20
2.4528945359
 30
0.0
 10
5.3018955469
 20
2.4627794924
 30
0.0
 10
5.3064325348
 20
2.4728967193
 30
0.0
 10
5.3104618484
 20
2.4832218419
 30
0.0
 10
5.3139737771
 20
2.4937299847
 30
0.0
 10
5.3169598549
 20
2.5043958278
 30
0.0
 10
5.3194128886
 20
2.5151936818
 30
0.0
 10
5.3213269578
 20
2.526097499
 30
0.0
 10
5.3226974626
 20
2.5370811158
 30
0.0
 10
5.3235210812
 20
2.548117694
 30
0.0
 10
5.3237042595
 20
2.5554939605
 30
0.0
 10
5.3237042595
 20
2.5591813266
 30
0.0
  0
SPLINE
  5
4A0
100
AcDbEntity
  8
0
100
AcDbSpline
 62
7
  6
CONTINUOUS
 70
0
 71
3
 72
69
 73
65
 74
0
 42
0.0000001
 43
0.0000001
 44
0.0000000001
 40
0.0
 40
0.0
 40
0.0
 40
0.0
 40
0.0155348311
 40
0.0310705993
 40
0.0466080508
 40
0.0621481194
 40
0.077691591
 40
0.0932392702
 40
0.1087919014
 40
0.1243501868
 40
0.1399147718
 40
0.1554862406
 40
0.1710651104
 40
0.1866518265
 40
0.2022467579
 40
0.2178501941
 40
0.2334623422
 40
0.2490833251
 40
0.2647131806
 40
0.280351861
 40
0.2959992336
 40
0.3116550826
 40
0.3273191106
 40
0.3429909423
 40
0.3586701276
 40
0.3743561465
 40
0.3900484137
 40
0.4057462845
 40
0.421449061
 40
0.4371559988
 40
0.452866314
 40
0.4685791905
 40
0.5
 40
0.5314208095
 40
0.547133686
 40
0.5628440012
 40
0.578550939
 40
0.5942537155
 40
0.6099515863
 40
0.6256438535
 40
0.6413298724
 40
0.6570090577
 40
0.6726808894
 40
0.6883449174
 40
0.7040007664
 40
0.719648139
 40
0.7352868194
 40
0.7509166749
 40
0.7665376578
 40
0.7821498059
 40
0.7977532421
 40
0.8133481735
 40
0.8289348896
 40
0.8445137594
 40
0.8600852282
 40
0.8756498132
 40
0.8912080986
 40
0.9067607298
 40
0.922308409
 40
0.9378518806
 40
0.9533919492
 40
0.9689294007
 40
0.9844651689
 40
1.0
 40
1.0
 40
1.0
 40
1.0
 10
5.3237042595
 20
2.5558843775
 30
0.0
 10
5.3237042595
 20
2.5521970114
 30
0.0
 10
5.3235210812
 20
2.5448207449
 30
0.0
 10
5.3226974626
 20
2.5337841667
 30
0.0
 10
5.3213269578
 20
2.5228005499
 30
0.0
 10
5.3194128886
 20
2.5118967327
 30
0.0
 10
5.3169598549
 20
2.5010988787
 30
0.0
 10
5.3139737771
 20
2.4904330356
 30
0.0
 10
5.3104618484
 20
2.4799248928
 30
0.0
 10
5.3064325348
 20
2.4695997702
 30
0.0
 10
5.3018955469
 20
2.4594825433
 30
0.0
 10
5.2968618193
 20
2.4495975868
 30
0.0
 10
5.291343483
 20
2.439968715
 30
0.0
 10
5.2853538368
 20
2.4306191248
 30
0.0
 10
5.2789073147
 20
2.4215713394
 30
0.0
 10
5.2720194513
 20
2.4128471544
 30
0.0
 10
5.264706844
 20
2.4044675852
 30
0.0
 10
5.2569871133
 20
2.3964528164
 30
0.0
 10
5.24887886
 20
2.3888221533
 30
0.0
 10
5.2404016204
 20
2.3815939754
 30
0.0
 10
5.231575819
 20
2.3747856921
 30
0.0
 10
5.2224227197
 20
2.3684137013
 30
0.0
 10
5.2129643742
 20
2.3624933493
 30
0.0
 10
5.2032235688
 20
2.3570388945
 30
0.0
 10
5.1932237698
 20
2.3520634727
 30
0.0
 10
5.1829890671
 20
2.3475790658
 30
0.0
 10
5.1725441141
 20
2.3435964728
 30
0.0
 10
5.1619140776
 20
2.3401252844
 30
0.0
 10
5.1511245411
 20
2.3371738592
 30
0.0
 10
5.1402015788
 20
2.3347493047
 30
0.0
 10
5.1291711866
 20
2.3328574578
 30
0.0
 10
5.1143592567
 20
2.3310515361
 30
0.0
 10
5.0957042595
 20
2.3301452874
 30
0.0
 10
5.0770492624
 20
2.3310515361
 30
0.0
 10
5.0622373325
 20
2.3328574578
 30
0.0
 10
5.0512069402
 20
2.3347493047
 30
0.0
 10
5.040283978
 20
2.3371738592
 30
0.0
 10
5.0294944415
 20
2.3401252844
 30
0.0
 10
5.0188644049
 20
2.3435964728
 30
0.0
 10
5.0084194519
 20
2.3475790658
 30
0.0
 10
4.9981847493
 20
2.3520634727
 30
0.0
 10
4.9881849503
 20
2.3570388945
 30
0.0
 10
4.9784441449
 20
2.3624933493
 30
0.0
 10
4.9689857994
 20
2.3684137013
 30
0.0
 10
4.9598327001
 20
2.3747856921
 30
0.0
 10
4.9510068987
 20
2.3815939754
 30
0.0
 10
4.942529659
 20
2.3888221533
 30
0.0
 10
4.9344214057
 20
2.3964528164
 30
0.0
 10
4.9267016751
 20
2.4044675852
 30
0.0
 10
4.9193890678
 20
2.4128471544
 30
0.0
 10
4.9125012044
 20
2.4215713394
 30
0.0
 10
4.9060546823
 20
2.4306191248
 30
0.0
 10
4.9000650361
 20
2.439968715
 30
0.0
 10
4.8945466998
 20
2.4495975868
 30
0.0
 10
4.8895129721
 20
2.4594825433
 30
0.0
 10
4.8849759842
 20
2.4695997702
 30
0.0
 10
4.8809466707
 20
2.4799248928
 30
0.0
 10
4.877434742
 20
2.4904330356
 30
0.0
 10
4.8744486641
 20
2.5010988787
 30
0.0
 10
4.8719956304
 20
2.5118967327
 30
0.0
 10
4.8700815613
 20
2.5228005499
 30
0.0
 10
4.8687110564
 20
2.5337841667
 30
0.0
 10
4.8678874379
 20
2.5448207449
 30
0.0
 10
4.8677042595
 20
2.5521970114
 30
0.0
 10
4.8677042595
 20
2.5558843775
 30
0.0
  0
LINE
  5
4A1
100
AcDbEntity
  8
0
100
AcDbLine
 62
7
  6
CONTINUOUS
 10
5.670202572
 20
6.1729050375
 11
5.6607701023
 21
6.1724458622
  0
SPLINE
  5
4A2
100
AcDbEntity
  8
0
100
AcDbSpline
 62
7
  6
CONTINUOUS
 70
0
 71
3
 72
15
 73
11
 74
0
 42
0.0000001
 43
0.0000001
 44
0.0000000001
 40
0.0
 40
0.0
 40
0.0
 40
0.0
 40
0.1847880292
 40
0.3460444485
 40
0.485210288
 40
0.6049094833
 40
0.7093437094
 40
0.8047504286
 40
0.8990131696
 40
1.0
 40
1.0
 40
1.0
 40
1.0
 10
5.6706983639
 20
6.1720309912
 30
0.0
 10
5.6706983677
 20
6.1721007058
 30
0.0
 10
5.6706940794
 20
6.1722313444
 30
0.0
 10
5.6706715288
 20
6.1724133224
 30
0.0
 10
5.670633224
 20
6.1725676378
 30
0.0
 10
5.6705789552
 20
6.1726943552
 30
0.0
 10
5.6705079566
 20
6.1727933115
 30
0.0
 10
5.6704195259
 20
6.172863123
 30
0.0
 10
5.6703150901
 20
6.1729017057
 30
0.0
 10
5.6702406386
 20
6.1729066111
 30
0.0
 10
5.670202572
 20
6.1729050375
 30
0.0
  0
SPLINE
  5
4A3
100
AcDbEntity
  8
0
100
AcDbSpline
 62
7
  6
CONTINUOUS
 70
0
 71
3
 72
23
 73
19
 74
0
 42
0.0000001
 43
0.0000001
 44
0.0000000001
 40
0.0
 40
0.0
 40
0.0
 40
0.0
 40
0.0602406012
 40
0.1208945405
 40
0.1819510518
 40
0.243393975
 40
0.305203824
 40
0.3673570443
 40
0.4298260542
 40
0.4925796243
 40
0.5555827413
 40
0.6187970355
 40
0.682180861
 40
0.7456896678
 40
0.8092762663
 40
0.8728913954
 40
0.9364832265
 40
1.0
 40
1.0
 40
1.0
 40
1.0
 10
5.3903120677
 20
2.3682079297
 30
0.0
 10
5.3917590711
 20
2.3707680293
 30
0.0
 10
5.3944936924
 20
2.3760035703
 30
0.0
 10
5.3980830571
 20
2.3841348252
 30
0.0
 10
5.4011550952
 20
2.3925381993
 30
0.0
 10
5.4036923284
 20
2.401176875
 30
0.0
 10
5.4056805983
 20
2.4100130267
 30
0.0
 10
5.4071084838
 20
2.4190075009
 30
0.0
 10
5.4079680784
 20
2.4281201641
 30
0.0
 10
5.4082543329
 20
2.4373102444
 30
0.0
 10
5.4079658074
 20
2.4465365814
 30
0.0
 10
5.407104055
 20
2.4557579441
 30
0.0
 10
5.4056741314
 20
2.4649333379
 30
0.0
 10
5.4036841865
 20
2.4740222977
 30
0.0
 10
5.4011455735
 20
2.482985156
 30
0.0
 10
5.3980726073
 20
2.4917834471
 30
0.0
 10
5.3944827503
 20
2.5003796533
 30
0.0
 10
5.3917553492
 20
2.5059578307
 30
0.0
 10
5.3903120677
 20
2.5087021114
 30
0.0
  0
SPLINE
  5
4A4
100
AcDbEntity
  8
0
100
AcDbSpline
 62
7
  6
CONTINUOUS
 70
0
 71
3
 72
11
 73
7
 74
0
 42
0.0000001
 43
0.0000001
 44
0.0000000001
 40
0.0
 40
0.0
 40
0.0
 40
0.0
 40
0.2758788836
 40
0.5358639054
 40
0.7778234233
 40
1.0
 40
1.0
 40
1.0
 40
1.0
 10
5.6702001571
 20
6.0996221123
 30
0.0
 10
5.6702786758
 20
6.100000143
 30
0.0
 10
5.6704180957
 20
6.1007372475
 30
0.0
 10
5.6705752684
 20
6.1018148029
 30
0.0
 10
5.6706719862
 20
6.1028240411
 30
0.0
 10
5.670696109
 20
6.1034737112
 30
0.0
 10
5.670696115
 20
6.1037846525
 30
0.0
  0
SPLINE
  5
4A5
100
AcDbEntity
  8
0
100
AcDbSpline
 62
7
  6
CONTINUOUS
 70
0
 71
3
 72
16
 73
12
 74
0
 42
0.0000001
 43
0.0000001
 44
0.0000000001
 40
0.0
 40
0.0
 40
0.0
 40
0.0
 40
0.1224012218
 40
0.2455511633
 40
0.3696589727
 40
0.4947299352
 40
0.5575712267
 40
0.6205698664
 40
0.746886404
 40
0.8734160288
 40
1.0
 40
1.0
 40
1.0
 40
1.0
 10
4.8476654232
 20
2.4767041079
 30
0.0
 10
4.8501517149
 20
2.4723698523
 30
0.0
 10
4.855158747
 20
2.4636858613
 30
0.0
 10
4.8627356459
 20
2.4506354691
 30
0.0
 10
4.870390116
 20
2.4375041258
 30
0.0
 10
4.8768119537
 20
2.4265039689
 30
0.0
 10
4.8819789631
 20
2.4176598816
 30
0.0
 10
4.8871735599
 20
2.4087730227
 30
0.0
 10
4.8936861234
 20
2.397645041
 30
0.0
 10
4.9015318516
 20
2.3842897244
 30
0.0
 10
4.9067915286
 20
2.3753957723
 30
0.0
 10
4.9094313014
 20
2.3709534116
 30
0.0
  0
SPLINE
  5
4A6
100
AcDbEntity
  8
0
100
AcDbSpline
 62
7
  6
CONTINUOUS
 70
0
 71
3
 72
15
 73
11
 74
0
 42
0.0000001
 43
0.0000001
 44
0.0000000001
 40
0.0
 40
0.0
 40
0.0
 40
0.0
 40
0.1260717207
 40
0.2519077403
 40
0.3774923033
 40
0.502795909
 40
0.6277753436
 40
0.7523676515
 40
0.8764831154
 40
1.0
 40
1.0
 40
1.0
 40
1.0
 10
4.8291163341
 20
2.5471195792
 30
0.0
 10
4.8291163601
 20
2.544025275
 30
0.0
 10
4.8293140417
 20
2.5378406163
 30
0.0
 10
4.8302033227
 20
2.528612122
 30
0.0
 10
4.8316819069
 20
2.5194782008
 30
0.0
 10
4.8337429389
 20
2.5104794727
 30
0.0
 10
4.8363767801
 20
2.5016567928
 30
0.0
 10
4.8395708837
 20
2.4930520685
 30
0.0
 10
4.8433082917
 20
2.4847087388
 30
0.0
 10
4.8461569654
 20
2.479333774
 30
0.0
 10
4.8476654232
 20
2.4767041079
 30
0.0
  0
SPLINE
  5
4A7
100
AcDbEntity
  8
0
100
AcDbSpline
 62
7
  6
CONTINUOUS
 70
0
 71
3
 72
15
 73
11
 74
0
 42
0.0000001
 43
0.0000001
 44
0.0000000001
 40
0.0
 40
0.0
 40
0.0
 40
0.0
 40
0.1235169239
 40
0.2476322804
 40
0.3722246222
 40
0.4972040221
 40
0.6225076685
 40
0.7480922451
 40
0.8739281881
 40
1.0
 40
1.0
 40
1.0
 40
1.0
 10
5.3437430959
 20
2.4767041079
 30
0.0
 10
5.3452515433
 20
2.4793337812
 30
0.0
 10
5.3481001633
 20
2.4847087698
 30
0.0
 10
5.3518376924
 20
2.493052046
 30
0.0
 10
5.3550316962
 20
2.501656806
 30
0.0
 10
5.3576656257
 20
2.5104794589
 30
0.0
 10
5.3597265965
 20
2.5194782067
 30
0.0
 10
5.3612051293
 20
2.5286121292
 30
0.0
 10
5.3620946482
 20
2.5378406047
 30
0.0
 10
5.3622921829
 20
2.5440252726
 30
0.0
 10
5.3622921849
 20
2.5471195792
 30
0.0
  0
SPLINE
  5
4A8
100
AcDbEntity
  8
0
100
AcDbSpline
 62
7
  6
CONTINUOUS
 70
0
 71
3
 72
14
 73
10
 74
0
 42
0.0000001
 43
0.0000001
 44
0.0000000001
 40
0.0
 40
0.0
 40
0.0
 40
0.0
 40
0.2531134669
 40
0.3794300618
 40
0.4424287765
 40
0.5052701309
 40
0.630341034
 40
0.7544490369
 40
1.0
 40
1.0
 40
1.0
 40
1.0
 10
5.2819772177
 20
2.3709534116
 30
0.0
 10
5.2872556243
 20
2.3798362165
 30
0.0
 10
5.2951122351
 20
2.3931852476
 30
0.0
 10
5.3042350411
 20
2.4087729738
 30
0.0
 10
5.3094295251
 20
2.4176599035
 30
0.0
 10
5.314596461
 20
2.4265040298
 30
0.0
 10
5.3210185821
 20
2.4375040273
 30
0.0
 10
5.3311889717
 20
2.4549524558
 30
0.0
 10
5.3387553167
 20
2.4680090929
 30
0.0
 10
5.3437430959
 20
2.4767041079
 30
0.0
  0
SPLINE
  5
4A9
100
AcDbEntity
  8
0
100
AcDbSpline
 62
7
  6
CONTINUOUS
 70
0
 71
3
 72
23
 73
19
 74
0
 42
0.0000001
 43
0.0000001
 44
0.0000000001
 40
0.0
 40
0.0
 40
0.0
 40
0.0
 40
0.0621906295
 40
0.1244837581
 40
0.1868479308
 40
0.2492607725
 40
0.3117076394
 40
0.3741789414
 40
0.4366689547
 40
0.4991749776
 40
0.5616966535
 40
0.6242357109
 40
0.686795385
 40
0.7493798043
 40
0.8119928905
 40
0.874636909
 40
0.9373090684
 40
1.0
 40
1.0
 40
1.0
 40
1.0
 10
5.1574701378
 20
2.2998963231
 30
0.0
 10
5.1605781399
 20
2.2998882626
 30
0.0
 10
5.1668017411
 20
2.3000797436
 30
0.0
 10
5.1761022681
 20
2.3009825148
 30
0.0
 10
5.1853348302
 20
2.3024955639
 30
0.0
 10
5.194456189
 20
2.3046099764
 30
0.0
 10
5.203426073
 20
2.3073138149
 30
0.0
 10
5.2122059421
 20
2.3105932611
 30
0.0
 10
5.2207587423
 20
2.3144332524
 30
0.0
 10
5.2290487524
 20
2.3188171479
 30
0.0
 10
5.2370417737
 20
2.3237263469
 30
0.0
 10
5.2447047769
 20
2.329140909
 30
0.0
 10
5.2520059108
 20
2.3350393503
 30
0.0
 10
5.258914689
 20
2.3413983513
 30
0.0
 10
5.2654018307
 20
2.3481927701
 30
0.0
 10
5.2714396152
 20
2.3553953355
 30
0.0
 10
5.2770016094
 20
2.3629756853
 30
0.0
 10
5.2803767303
 20
2.3682600445
 30
0.0
 10
5.2819772177
 20
2.3709534116
 30
0.0
  0
SPLINE
  5
4AA
100
AcDbEntity
  8
0
100
AcDbSpline
 62
7
  6
CONTINUOUS
 70
0
 71
3
 72
15
 73
11
 74
0
 42
0.0000001
 43
0.0000001
 44
0.0000000001
 40
0.0
 40
0.0
 40
0.0
 40
0.0
 40
0.1244912502
 40
0.2493317953
 40
0.3745446842
 40
0.4999999977
 40
0.6254553099
 40
0.7506682007
 40
0.8755087486
 40
1.0
 40
1.0
 40
1.0
 40
1.0
 10
5.0339383813
 20
2.2998963231
 30
0.0
 10
5.0390646087
 20
2.299909778
 30
0.0
 10
5.0493313982
 20
2.2999538085
 30
0.0
 10
5.0647540082
 20
2.3000362108
 30
0.0
 10
5.0802164084
 20
2.300102207
 30
0.0
 10
5.0957042592
 20
2.3001272309
 30
0.0
 10
5.1111921101
 20
2.3001021872
 30
0.0
 10
5.1266545104
 20
2.3000362034
 30
0.0
 10
5.1420771207
 20
2.299953806
 30
0.0
 10
5.1523439103
 20
2.299909778
 30
0.0
 10
5.1574701378
 20
2.2998963231
 30
0.0
  0
SPLINE
  5
4AB
100
AcDbEntity
  8
0
100
AcDbSpline
 62
7
  6
CONTINUOUS
 70
0
 71
3
 72
23
 73
19
 74
0
 42
0.0000001
 43
0.0000001
 44
0.0000000001
 40
0.0
 40
0.0
 40
0.0
 40
0.0
 40
0.0626908943
 40
0.125363043
 40
0.1880070289
 40
0.2506200946
 40
0.3132044847
 40
0.3757641591
 40
0.4383032115
 40
0.5008248879
 40
0.5633309037
 40
0.6258209398
 40
0.6882922501
 40
0.7507391055
 40
0.8131519433
 40
0.8755162241
 40
0.9378094367
 40
1.0
 40
1.0
 40
1.0
 40
1.0
 10
4.9094313014
 20
2.3709534116
 30
0.0
 10
4.9110318508
 20
2.3682600834
 30
0.0
 10
4.9144072666
 20
2.3629759219
 30
0.0
 10
4.9199689458
 20
2.3553953612
 30
0.0
 10
4.926006561
 20
2.3481926443
 30
0.0
 10
4.9324937999
 20
2.3413983168
 30
0.0
 10
4.9394026867
 20
2.3350394429
 30
0.0
 10
4.9467037545
 20
2.3291409274
 30
0.0
 10
4.9543667222
 20
2.3237263098
 30
0.0
 10
4.9623597712
 20
2.3188171531
 30
0.0
 10
4.9706497987
 20
2.3144332933
 30
0.0
 10
4.979202551
 20
2.3105931973
 30
0.0
 10
4.987982404
 20
2.3073136894
 30
0.0
 10
4.9969523546
 20
2.3046100599
 30
0.0
 10
5.0060737389
 20
2.302495766
 30
0.0
 10
5.0153062502
 20
2.3009824109
 30
0.0
 10
5.0246067617
 20
2.3000792513
 30
0.0
 10
5.0308303826
 20
2.2998881744
 30
0.0
 10
5.0339383813
 20
2.2998963231
 30
0.0
  0
SPLINE
  5
4AC
100
AcDbEntity
  8
0
100
AcDbSpline
 62
7
  6
CONTINUOUS
 70
0
 71
3
 72
15
 73
11
 74
0
 42
0.0000001
 43
0.0000001
 44
0.0000000001
 40
0.0
 40
0.0
 40
0.0
 40
0.0
 40
0.1242781155
 40
0.2487741328
 40
0.3734895727
 40
0.4984221866
 40
0.6235659579
 40
0.7489045513
 40
0.8744026884
 40
1.0
 40
1.0
 40
1.0
 40
1.0
 10
5.3622921849
 20
2.5471195792
 30
0.0
 10
5.362292159
 20
2.5502194325
 30
0.0
 10
5.362093409
 20
2.5564263745
 30
0.0
 10
5.3612029816
 20
2.5657056192
 30
0.0
 10
5.3597231071
 20
2.574926169
 30
0.0
 10
5.3576605796
 20
2.5840505128
 30
0.0
 10
5.3550249739
 20
2.5930422439
 30
0.0
 10
5.3518288181
 20
2.6018653289
 30
0.0
 10
5.3480889816
 20
2.6104838956
 30
0.0
 10
5.345247082
 20
2.6160701586
 30
0.0
 10
5.3437430959
 20
2.6188182848
 30
0.0
  0
SPLINE
  5
4AD
100
AcDbEntity
  8
0
100
AcDbSpline
 62
7
  6
CONTINUOUS
 70
0
 71
3
 72
15
 73
11
 74
0
 42
0.0000001
 43
0.0000001
 44
0.0000000001
 40
0.0
 40
0.0
 40
0.0
 40
0.0
 40
0.1255972929
 40
0.2510954214
 40
0.37643399
 40
0.5015777835
 40
0.6265103763
 40
0.7512258217
 40
0.8757219552
 40
1.0
 40
1.0
 40
1.0
 40
1.0
 10
4.8476654232
 20
2.6188182848
 30
0.0
 10
4.846161447
 20
2.6160701535
 30
0.0
 10
4.8433195982
 20
2.6104838677
 30
0.0
 10
4.8395796473
 20
2.6018653505
 30
0.0
 10
4.8363835856
 20
2.5930422304
 30
0.0
 10
4.8337478959
 20
2.5840505259
 30
0.0
 10
4.8316854268
 20
2.574926164
 30
0.0
 10
4.8302056038
 20
2.5657056094
 30
0.0
 10
4.8293149406
 20
2.5564263827
 30
0.0
 10
4.8291163362
 20
2.5502194309
 30
0.0
 10
4.8291163341
 20
2.5471195792
 30
0.0
  0
SPLINE
  5
4AE
100
AcDbEntity
  8
0
100
AcDbSpline
 62
7
  6
CONTINUOUS
 70
0
 71
3
 72
15
 73
11
 74
0
 42
0.0000001
 43
0.0000001
 44
0.0000000001
 40
0.0
 40
0.0
 40
0.0
 40
0.0
 40
0.1237470472
 40
0.248383077
 40
0.3739090385
 40
0.5000000531
 40
0.6260910111
 40
0.7516169577
 40
0.8762529941
 40
1.0
 40
1.0
 40
1.0
 40
1.0
 10
5.0123418042
 20
2.1470056887
 30
0.0
 10
5.019218652
 20
2.1471012136
 30
0.0
 10
5.0330219142
 20
2.1472816358
 30
0.0
 10
5.0538016397
 20
2.1474971246
 30
0.0
 10
5.0747123082
 20
2.1476370925
 30
0.0
 10
5.0957042652
 20
2.1476858279
 30
0.0
 10
5.1166962215
 20
2.147637094
 30
0.0
 10
5.1376068863
 20
2.1474971129
 30
0.0
 10
5.1583866091
 20
2.14728164
 30
0.0
 10
5.1721898694
 20
2.1471012132
 30
0.0
 10
5.1790667149
 20
2.1470056887
 30
0.0
  0
LINE
  5
4AF
100
AcDbEntity
  8
0
100
AcDbLine
 62
7
  6
CONTINUOUS
 10
4.8678066643
 20
2.660057221
 11
4.8447467852
 21
2.6206867899
  0
SPLINE
  5
4B0
100
AcDbEntity
  8
0
100
AcDbSpline
 62
7
  6
CONTINUOUS
 70
0
 71
3
 72
15
 73
11
 74
0
 42
0.0000001
 43
0.0000001
 44
0.0000000001
 40
0.0
 40
0.0
 40
0.0
 40
0.0
 40
0.1220234039
 40
0.2449071393
 40
0.3689147392
 40
0.4940524489
 40
0.6200683846
 40
0.7465875313
 40
0.8732892054
 40
1.0
 40
1.0
 40
1.0
 40
1.0
 10
4.8447467852
 20
2.4729769345
 30
0.0
 10
4.8473271254
 20
2.4688090515
 30
0.0
 10
4.8524968766
 20
2.4604382357
 30
0.0
 10
4.8602252594
 20
2.4477925573
 30
0.0
 10
4.8679303219
 20
2.4349863401
 30
0.0
 10
4.8755898867
 20
2.4220064836
 30
0.0
 10
4.8831825934
 20
2.4088707428
 30
0.0
 10
4.8906973237
 20
2.3956180257
 30
0.0
 10
4.8981384264
 20
2.3822919279
 30
0.0
 10
4.9030629146
 20
2.3733820311
 30
0.0
 10
4.9055207787
 20
2.3689244654
 30
0.0
  0
SPLINE
  5
4B1
100
AcDbEntity
  8
0
100
AcDbSpline
 62
7
  6
CONTINUOUS
 70
0
 71
3
 72
19
 73
15
 74
0
 42
0.0000001
 43
0.0000001
 44
0.0000000001
 40
0.0
 40
0.0
 40
0.0
 40
0.0
 40
0.1198484321
 40
0.2414931574
 40
0.3030986834
 40
0.3652342713
 40
0.4909292112
 40
0.5543171916
 40
0.6179360832
 40
0.6816848486
 40
0.7454717673
 40
0.8092299245
 40
0.8729160807
 40
1.0
 40
1.0
 40
1.0
 40
1.0
 10
4.8998732081
 20
2.3423430598
 30
0.0
 10
4.8970344383
 20
2.3467748444
 30
0.0
 10
4.8913364935
 20
2.355719071
 30
0.0
 10
4.8842761713
 20
2.3670027166
 30
0.0
 10
4.8786343279
 20
2.3761836702
 30
0.0
 10
4.8729548937
 20
2.3855500538
 30
0.0
 10
4.867328647
 20
2.3950399775
 30
0.0
 10
4.8617631288
 20
2.4046406313
 30
0.0
 10
4.8576093066
 20
2.411915113
 30
0.0
 10
4.8534928377
 20
2.4192308887
 30
0.0
 10
4.8494140574
 20
2.4265747287
 30
0.0
 10
4.8453732367
 20
2.4339363789
 30
0.0
 10
4.8400375075
 20
2.4437579567
 30
0.0
 10
4.8360784064
 20
2.4511409424
 30
0.0
 10
4.8334516439
 20
2.4560648568
 30
0.0
  0
SPLINE
  5
4B2
100
AcDbEntity
  8
0
100
AcDbSpline
 62
7
  6
CONTINUOUS
 70
0
 71
3
 72
15
 73
11
 74
0
 42
0.0000001
 43
0.0000001
 44
0.0000000001
 40
0.0
 40
0.0
 40
0.0
 40
0.0
 40
0.1243863056
 40
0.2491853504
 40
0.3744408398
 40
0.5000000718
 40
0.6255593137
 40
0.7508147628
 40
0.8756137256
 40
1.0
 40
1.0
 40
1.0
 40
1.0
 10
5.034930266
 20
2.2950695377
 30
0.0
 10
5.0399680315
 20
2.2952526161
 30
0.0
 10
5.0500608583
 20
2.2956041889
 30
0.0
 10
5.0652301607
 20
2.2960339981
 30
0.0
 10
5.0804506003
 20
2.2963171963
 30
0.0
 10
5.0957042687
 20
2.2964163241
 30
0.0
 10
5.1109579356
 20
2.2963172076
 30
0.0
 10
5.1261783703
 20
2.2960339909
 30
0.0
 10
5.1413476666
 20
2.2956041897
 30
0.0
 10
5.1514404888
 20
2.2952526157
 30
0.0
 10
5.156478253
 20
2.2950695377
 30
0.0
  0
SPLINE
  5
4B3
100
AcDbEntity
  8
0
100
AcDbSpline
 62
7
  6
CONTINUOUS
 70
0
 71
3
 72
21
 73
17
 74
0
 42
0.0000001
 43
0.0000001
 44
0.0000000001
 40
0.0
 40
0.0
 40
0.0
 40
0.0
 40
0.1235127237
 40
0.1856518617
 40
0.2480718299
 40
0.310763154
 40
0.3736910266
 40
0.4367980631
 40
0.5000000613
 40
0.5632020749
 40
0.6263092002
 40
0.6892371714
 40
0.7519283848
 40
0.8143481733
 40
0.8764872183
 40
1.0
 40
1.0
 40
1.0
 40
1.0
 10
5.1621258237
 20
2.2684881321
 30
0.0
 10
5.1566617828
 20
2.2681747142
 30
0.0
 10
5.1484471216
 20
2.2677309224
 30
0.0
 10
5.1374661527
 20
2.2672281707
 30
0.0
 10
5.1291751188
 20
2.2669032026
 30
0.0
 10
5.1208469399
 20
2.2666391437
 30
0.0
 10
5.11248641
 20
2.2664429448
 30
0.0
 10
5.1041017829
 20
2.26632347
 30
0.0
 10
5.0957042502
 20
2.2662835264
 30
0.0
 10
5.0873067142
 20
2.2663235236
 30
0.0
 10
5.078922077
 20
2.266442905
 30
0.0
 10
5.0705615425
 20
2.2666390652
 30
0.0
 10
5.0622333732
 20
2.2669031623
 30
0.0
 10
5.053942358
 20
2.267228174
 30
0.0
 10
5.0429613996
 20
2.2677309431
 30
0.0
 10
5.034746738
 20
2.2681746995
 30
0.0
 10
5.0292826954
 20
2.2684881321
 30
0.0
  0
SPLINE
  5
4B4
100
AcDbEntity
  8
0
100
AcDbSpline
 62
7
  6
CONTINUOUS
 70
0
 71
3
 72
15
 73
11
 74
0
 42
0.0000001
 43
0.0000001
 44
0.0000000001
 40
0.0
 40
0.0
 40
0.0
 40
0.0
 40
0.1267107692
 40
0.2534123401
 40
0.3799314393
 40
0.5059473219
 40
0.6310851628
 40
0.7550929993
 40
0.87797667
 40
1.0
 40
1.0
 40
1.0
 40
1.0
 10
5.2858877404
 20
2.3689244654
 30
0.0
 10
5.2883456037
 20
2.3733820304
 30
0.0
 10
5.2932700855
 20
2.3822919247
 30
0.0
 10
5.300711194
 20
2.3956180112
 30
0.0
 10
5.3082259213
 20
2.4088707206
 30
0.0
 10
5.315818643
 20
2.4220064541
 30
0.0
 10
5.3234781947
 20
2.4349863328
 30
0.0
 10
5.3311832431
 20
2.4477925729
 30
0.0
 10
5.3389116442
 20
2.4604382448
 30
0.0
 10
5.3440813968
 20
2.4688090531
 30
0.0
 10
5.3466617339
 20
2.4729769345
 30
0.0
  0
SPLINE
  5
4B5
100
AcDbEntity
  8
0
100
AcDbSpline
 62
7
  6
CONTINUOUS
 70
0
 71
3
 72
16
 73
12
 74
0
 42
0.0000001
 43
0.0000001
 44
0.0000000001
 40
0.0
 40
0.0
 40
0.0
 40
0.0
 40
0.1270847388
 40
0.2545288195
 40
0.3820638326
 40
0.509075091
 40
0.5721324705
 40
0.6347636051
 40
0.7585067135
 40
0.8801496217
 40
1.0
 40
1.0
 40
1.0
 40
1.0
 10
5.3579568752
 20
2.4560648568
 30
0.0
 10
5.3553301207
 20
2.4511409052
 30
0.0
 10
5.3500476243
 20
2.4412905356
 30
0.0
 10
5.3420117663
 20
2.4265619961
 30
0.0
 10
5.3338301268
 20
2.4119174681
 30
0.0
 10
5.3268771799
 20
2.3998264267
 30
0.0
 10
5.3212484754
 20
2.390262783
 30
0.0
 10
5.3156298997
 20
2.380859989
 30
0.0
 10
5.3085800771
 20
2.369315787
 30
0.0
 10
5.3000718598
 20
2.3557192714
 30
0.0
 10
5.2943741275
 20
2.3467749083
 30
0.0
 10
5.291535311
 20
2.3423430598
 30
0.0
  0
LINE
  5
4B6
100
AcDbEntity
  8
0
100
AcDbLine
 62
7
  6
CONTINUOUS
 10
5.3466617339
 20
2.6206867899
 11
5.3236018612
 21
2.66005721
  0
SPLINE
  5
4B7
100
AcDbEntity
  8
0
100
AcDbSpline
 62
7
  6
CONTINUOUS
 70
0
 71
3
 72
9
 73
5
 74
0
 42
0.0000001
 43
0.0000001
 44
0.0000000001
 40
0.0
 40
0.0
 40
0.0
 40
0.0
 40
0.4843739254
 40
1.0
 40
1.0
 40
1.0
 40
1.0
 10
5.6701988115
 20
5.7564978969
 30
0.0
 10
5.6703665703
 20
5.7572987206
 30
0.0
 10
5.6706162888
 20
5.7589731442
 30
0.0
 10
5.6706946616
 20
5.7606634873
 30
0.0
 10
5.6706946567
 20
5.7615344849
 30
0.0
  0
SPLINE
  5
4B8
100
AcDbEntity
  8
0
100
AcDbSpline
 62
7
  6
CONTINUOUS
 70
0
 71
3
 72
22
 73
18
 74
0
 42
0.0000001
 43
0.0000001
 44
0.0000000001
 40
0.0
 40
0.0
 40
0.0
 40
0.0
 40
0.0629308793
 40
0.1257567272
 40
0.1884919406
 40
0.2511482302
 40
0.3137351706
 40
0.3762608978
 40
0.4387327275
 40
0.5011577088
 40
0.56354307
 40
0.6258966421
 40
0.6882279364
 40
0.7505476128
 40
0.8128690218
 40
0.8752074168
 40
1.0
 40
1.0
 40
1.0
 40
1.0
 10
5.6702017384
 20
5.559939532
 30
0.0
 10
5.6693579155
 20
5.5640019447
 30
0.0
 10
5.6678031055
 20
5.5721478279
 30
0.0
 10
5.6658417101
 20
5.5844212809
 30
0.0
 10
5.6642278246
 20
5.596726893
 30
0.0
 10
5.6629392007
 20
5.6090547481
 30
0.0
 10
5.6619570564
 20
5.6213968112
 30
0.0
 10
5.6612664056
 20
5.6337463275
 30
0.0
 10
5.6608563328
 20
5.6460975929
 30
0.0
 10
5.6607201999
 20
5.6584456268
 30
0.0
 10
5.6608557686
 20
5.6707858734
 30
0.0
 10
5.6612653505
 20
5.6831139155
 30
0.0
 10
5.6619554443
 20
5.6954251906
 30
0.0
 10
5.6629371225
 20
5.7077145634
 30
0.0
 10
5.6642252248
 20
5.7199764752
 30
0.0
 10
5.6663771477
 20
5.7362829302
 30
0.0
 10
5.6685118513
 20
5.7484449381
 30
0.0
 10
5.6701988115
 20
5.7564978969
 30
0.0
  0
SPLINE
  5
4B9
100
AcDbEntity
  8
0
100
AcDbSpline
 62
7
  6
CONTINUOUS
 70
0
 71
3
 72
11
 73
7
 74
0
 42
0.0000001
 43
0.0000001
 44
0.0000000001
 40
0.0
 40
0.0
 40
0.0
 40
0.0
 40
0.2221761535
 40
0.4641355526
 40
0.7241165598
 40
1.0
 40
1.0
 40
1.0
 40
1.0
 10
5.6706977206
 20
5.5557769946
 30
0.0
 10
5.6706977104
 20
5.5560879354
 30
0.0
 10
5.6706735919
 20
5.556737605
 30
0.0
 10
5.6705768565
 20
5.5577468351
 30
0.0
 10
5.6704197059
 20
5.5588243945
 30
0.0
 10
5.670280261
 20
5.5595614955
 30
0.0
 10
5.6702017384
 20
5.559939532
 30
0.0
  0
SPLINE
  5
4BA
100
AcDbEntity
  8
0
100
AcDbSpline
 62
7
  6
CONTINUOUS
 70
0
 71
3
 72
15
 73
11
 74
0
 42
0.0000001
 43
0.0000001
 44
0.0000000001
 40
0.0
 40
0.0
 40
0.0
 40
0.0
 40
0.1009868612
 40
0.1952496293
 40
0.2906563954
 40
0.3950904722
 40
0.5147894433
 40
0.6539552116
 40
0.8152119064
 40
1.0
 40
1.0
 40
1.0
 40
1.0
 10
5.6702045826
 20
5.4866566067
 30
0.0
 10
5.6702426493
 20
5.4866550331
 30
0.0
 10
5.6703171008
 20
5.4866599391
 30
0.0
 10
5.6704215361
 20
5.4866985232
 30
0.0
 10
5.6705099663
 20
5.486768335
 30
0.0
 10
5.6705809647
 20
5.4868672913
 30
0.0
 10
5.670635233
 20
5.4869940087
 30
0.0
 10
5.670673537
 20
5.4871483243
 30
0.0
 10
5.6706960861
 20
5.4873303026
 30
0.0
 10
5.6707003735
 20
5.4874609413
 30
0.0
 10
5.6707003694
 20
5.487530656
 30
0.0
  0
SPLINE
  5
4BB
100
AcDbEntity
  8
0
100
AcDbSpline
 62
7
  6
CONTINUOUS
 70
0
 71
3
 72
23
 73
19
 74
0
 42
0.0000001
 43
0.0000001
 44
0.0000000001
 40
0.0
 40
0.0
 40
0.0
 40
0.0
 40
0.0626776756
 40
0.1253713437
 40
0.1880730713
 40
0.2507738912
 40
0.3134647104
 40
0.3761361672
 40
0.4387788754
 40
0.5013837858
 40
0.5639422812
 40
0.6264461649
 40
0.6888882966
 40
0.7512626166
 40
0.8135639063
 40
0.8757885177
 40
0.9379341813
 40
1.0
 40
1.0
 40
1.0
 40
1.0
 10
5.0176883315
 20
2.1401490129
 30
0.0
 10
5.014843175
 20
2.1401552893
 30
0.0
 10
5.0091511963
 20
2.1403269763
 30
0.0
 10
5.0006413379
 20
2.1410622438
 30
0.0
 10
4.9921847379
 20
2.1422734499
 30
0.0
 10
4.9838096333
 20
2.1439573476
 30
0.0
 10
4.9755437208
 20
2.1461090138
 30
0.0
 10
4.9674145745
 20
2.1487218759
 30
0.0
 10
4.9594493577
 20
2.1517876657
 30
0.0
 10
4.9516747549
 20
2.1552965163
 30
0.0
 10
4.9441168194
 20
2.1592369282
 30
0.0
 10
4.9368008316
 20
2.163595812
 30
0.0
 10
4.9297512009
 20
2.1683585951
 30
0.0
 10
4.9229913316
 20
2.1735092679
 30
0.0
 10
4.9165435279
 20
2.1790304239
 30
0.0
 10
4.9104288316
 20
2.1849035095
 30
0.0
 10
4.904667263
 20
2.191108434
 30
0.0
 10
4.9010710925
 20
2.1954558818
 30
0.0
 10
4.8993382928
 20
2.1976773873
 30
0.0
  0
SPLINE
  5
4BC
100
AcDbEntity
  8
0
100
AcDbSpline
 62
7
  6
CONTINUOUS
 70
0
 71
3
 72
23
 73
19
 74
0
 42
0.0000001
 43
0.0000001
 44
0.0000000001
 40
0.0
 40
0.0
 40
0.0
 40
0.0
 40
0.0617103711
 40
0.1235706731
 40
0.1855736862
 40
0.2477114195
 40
0.3099750885
 40
0.3723552447
 40
0.434841768
 40
0.4974238617
 40
0.5600901879
 40
0.6228285553
 40
0.6856260589
 40
0.7484691147
 40
0.8113433826
 40
0.874233859
 40
0.937124787
 40
1.0
 40
1.0
 40
1.0
 40
1.0
 10
5.1800900996
 20
2.1469957093
 30
0.0
 10
5.1828678464
 20
2.1469785637
 30
0.0
 10
5.1884324014
 20
2.1471041752
 30
0.0
 10
5.1967633018
 20
2.1477731103
 30
0.0
 10
5.2050612435
 20
2.14892311
 30
0.0
 10
5.213296918
 20
2.1505526826
 30
0.0
 10
5.2214415162
 20
2.1526581913
 30
0.0
 10
5.2294663034
 20
2.1552340036
 30
0.0
 10
5.2373429591
 20
2.1582724448
 30
0.0
 10
5.245043703
 20
2.1617638538
 30
0.0
 10
5.2525414546
 20
2.1656966351
 30
0.0
 10
5.259809999
 20
2.1700572935
 30
0.0
 10
5.2668241239
 20
2.1748305211
 30
0.0
 10
5.2735597711
 20
2.1799992951
 30
0.0
 10
5.2799941523
 20
2.1855449408
 30
0.0
 10
5.2861059503
 20
2.1914473705
 30
0.0
 10
5.2918751133
 20
2.1976847558
 30
0.0
 10
5.2954819384
 20
2.2020527532
 30
0.0
 10
5.2972222856
 20
2.204284661
 30
0.0
  0
SPLINE
  5
4BD
100
AcDbEntity
  8
0
100
AcDbSpline
 62
7
  6
CONTINUOUS
 70
0
 71
3
 72
15
 73
11
 74
0
 42
0.0000001
 43
0.0000001
 44
0.0000000001
 40
0.0
 40
0.0
 40
0.0
 40
0.0
 40
0.1221934475
 40
0.2452778302
 40
0.3692878602
 40
0.4941835652
 40
0.619870228
 40
0.7462008876
 40
0.8729813675
 40
1.0
 40
1.0
 40
1.0
 40
1.0
 10
5.6707003694
 20
5.487530656
 30
0.0
 10
5.6708744445
 20
5.4872413485
 30
0.0
 10
5.6712638687
 20
5.4866836953
 30
0.0
 10
5.671956308
 20
5.4859303289
 30
0.0
 10
5.6727473946
 20
5.4852694209
 30
0.0
 10
5.6736232762
 20
5.4847125574
 30
0.0
 10
5.6745687701
 20
5.48426922
 30
0.0
 10
5.6755675688
 20
5.4839470357
 30
0.0
 10
5.6766022139
 20
5.483751483
 30
0.0
 10
5.6773042875
 20
5.4837077981
 30
0.0
 10
5.6776552605
 20
5.4837077992
 30
0.0
  0
SPLINE
  5
4BE
100
AcDbEntity
  8
0
100
AcDbSpline
 62
7
  6
CONTINUOUS
 70
0
 71
3
 72
13
 73
9
 74
0
 42
0.0000001
 43
0.0000001
 44
0.0000000001
 40
0.0
 40
0.0
 40
0.0
 40
0.0
 40
0.1123082225
 40
0.2288642259
 40
0.3496800843
 40
0.4744781548
 40
0.7334211912
 40
1.0
 40
1.0
 40
1.0
 40
1.0
 10
5.670696115
 20
6.1037846525
 30
0.0
 10
5.6708727808
 20
6.1040197236
 30
0.0
 10
5.6712692176
 20
6.1044722858
 30
0.0
 10
5.671962643
 20
6.10507391
 30
0.0
 10
5.6727537778
 20
6.1056011703
 30
0.0
 10
5.6739342517
 20
6.1062000091
 30
0.0
 10
5.6755732983
 20
6.106709352
 30
0.0
 10
5.6769529755
 20
6.1068452478
 30
0.0
 10
5.6776509585
 20
6.1068452499
 30
0.0
  0
SPLINE
  5
4BF
100
AcDbEntity
  8
0
100
AcDbSpline
 62
7
  6
CONTINUOUS
 70
0
 71
3
 72
15
 73
11
 74
0
 42
0.0000001
 43
0.0000001
 44
0.0000000001
 40
0.0
 40
0.0
 40
0.0
 40
0.0
 40
0.1004478446
 40
0.2102505268
 40
0.328664594
 40
0.4545200276
 40
0.5863426405
 40
0.7224381568
 40
0.8609612155
 40
1.0
 40
1.0
 40
1.0
 40
1.0
 10
5.670198382
 20
5.9030637473
 30
0.0
 10
5.6703725981
 20
5.9032585777
 30
0.0
 10
5.6707674609
 20
5.9036398153
 30
0.0
 10
5.6714482432
 20
5.9041597466
 30
0.0
 10
5.6722327582
 20
5.9046452758
 30
0.0
 10
5.6731068498
 20
5.9050875994
 30
0.0
 10
5.6740548237
 20
5.9054787983
 30
0.0
 10
5.6750595003
 20
5.9058117373
 30
0.0
 10
5.6761025584
 20
5.9060803479
 30
0.0
 10
5.6768130028
 20
5.9062136537
 30
0.0
 10
5.677170616
 20
5.9062683666
 30
0.0
  0
SPLINE
  5
4C0
100
AcDbEntity
  8
0
100
AcDbSpline
 62
7
  6
CONTINUOUS
 70
0
 71
3
 72
14
 73
10
 74
0
 42
0.0000001
 43
0.0000001
 44
0.0000000001
 40
0.0
 40
0.0
 40
0.0
 40
0.0
 40
0.0858791663
 40
0.1864828654
 40
0.300385469
 40
0.4258247195
 40
0.5607869132
 40
0.7030625502
 40
1.0
 40
1.0
 40
1.0
 40
1.0
 10
5.6706946567
 20
5.7615344849
 30
0.0
 10
5.6708853799
 20
5.761471277
 30
0.0
 10
5.6713061562
 20
5.7613540217
 30
0.0
 10
5.6719937366
 20
5.7612073507
 30
0.0
 10
5.6727787989
 20
5.7610783037
 30
0.0
 10
5.6736478874
 20
5.7609693118
 30
0.0
 10
5.6745861339
 20
5.760882389
 30
0.0
 10
5.6759268837
 20
5.7607969169
 30
0.0
 10
5.6769547644
 20
5.7607722031
 30
0.0
 10
5.677649484
 20
5.7607722051
 30
0.0
  0
SPLINE
  5
4C1
100
AcDbEntity
  8
0
100
AcDbSpline
 62
7
  6
CONTINUOUS
 70
0
 71
3
 72
15
 73
11
 74
0
 42
0.0000001
 43
0.0000001
 44
0.0000000001
 40
0.0
 40
0.0
 40
0.0
 40
0.0
 40
0.1258020456
 40
0.2513535014
 40
0.3766479299
 40
0.5016863792
 40
0.6264932249
 40
0.7511100023
 40
0.8755879863
 40
1.0
 40
1.0
 40
1.0
 40
1.0
 10
5.670202572
 20
6.1729050375
 30
0.0
 10
5.6703683368
 20
6.1732250611
 30
0.0
 10
5.6707430701
 20
6.1738429929
 30
0.0
 10
5.6714238275
 20
6.1746842495
 30
0.0
 10
5.6722106395
 20
6.1754243902
 30
0.0
 10
5.673088951
 20
6.1760495232
 30
0.0
 10
5.6740425972
 20
6.1765481607
 30
0.0
 10
5.6750540664
 20
6.1769110603
 30
0.0
 10
5.6761044533
 20
6.1771315406
 30
0.0
 10
5.6768184678
 20
6.1771808415
 30
0.0
 10
5.6771748923
 20
6.1771808425
 30
0.0
  0
SPLINE
  5
4C2
100
AcDbEntity
  8
0
100
AcDbSpline
 62
7
  6
CONTINUOUS
 70
0
 71
3
 72
15
 73
11
 74
0
 42
0.0000001
 43
0.0000001
 44
0.0000000001
 40
0.0
 40
0.0
 40
0.0
 40
0.0
 40
0.1255817962
 40
0.251086696
 40
0.3764406781
 40
0.5015994141
 40
0.6265411302
 40
0.7512568788
 40
0.8757428941
 40
1.0
 40
1.0
 40
1.0
 40
1.0
 10
4.8447467852
 20
2.6206867899
 30
0.0
 10
4.8430907851
 20
2.6178615041
 30
0.0
 10
4.8399582707
 20
2.6121057548
 30
0.0
 10
4.835829037
 20
2.6031926128
 30
0.0
 10
4.8322947315
 20
2.5940385114
 30
0.0
 10
4.8293766451
 20
2.5846851186
 30
0.0
 10
4.8270909629
 20
2.5751744612
 30
0.0
 10
4.8254498376
 20
2.5655492676
 30
0.0
 10
4.8244616219
 20
2.5558536569
 30
0.0
 10
4.824241189
 20
2.5493649675
 30
0.0
 10
4.8242411878
 20
2.5461246721
 30
0.0
  0
SPLINE
  5
4C3
100
AcDbEntity
  8
0
100
AcDbSpline
 62
7
  6
CONTINUOUS
 70
0
 71
3
 72
15
 73
11
 74
0
 42
0.0000001
 43
0.0000001
 44
0.0000000001
 40
0.0
 40
0.0
 40
0.0
 40
0.0
 40
0.126131116
 40
0.2520140001
 40
0.3776325684
 40
0.5029554483
 40
0.6279361016
 40
0.7525073316
 40
0.8765723001
 40
1.0
 40
1.0
 40
1.0
 40
1.0
 10
4.8242411878
 20
2.5461246721
 30
0.0
 10
4.8242412031
 20
2.542890465
 30
0.0
 10
4.8244603544
 20
2.5364262424
 30
0.0
 10
4.8254472603
 20
2.5267863575
 30
0.0
 10
4.8270868902
 20
2.5172563349
 30
0.0
 10
4.8293708499
 20
2.5078837629
 30
0.0
 10
4.8322869522
 20
2.4987163527
 30
0.0
 10
4.8358189632
 20
2.489802665
 30
0.0
 10
4.839945551
 20
2.4811927854
 30
0.0
 10
4.8430857795
 20
2.4756709224
 30
0.0
 10
4.8447467852
 20
2.4729769345
 30
0.0
  0
SPLINE
  5
4C4
100
AcDbEntity
  8
0
100
AcDbSpline
 62
7
  6
CONTINUOUS
 70
0
 71
3
 72
15
 73
11
 74
0
 42
0.0000001
 43
0.0000001
 44
0.0000000001
 40
0.0
 40
0.0
 40
0.0
 40
0.0
 40
0.1250985834
 40
0.2504533277
 40
0.3758697456
 40
0.5012052556
 40
0.626356574
 40
0.7512460881
 40
0.8758109593
 40
1.0
 40
1.0
 40
1.0
 40
1.0
 10
4.8333888735
 20
2.4561821817
 30
0.0
 10
4.831855538
 20
2.4590508372
 30
0.0
 10
4.8289486925
 20
2.4648829597
 30
0.0
 10
4.8251054137
 20
2.4738746128
 30
0.0
 10
4.8218033658
 20
2.4830859313
 30
0.0
 10
4.8190683278
 20
2.4924758234
 30
0.0
 10
4.8169199119
 20
2.5020031452
 30
0.0
 10
4.815372763
 20
2.5116263105
 30
0.0
 10
4.8144369523
 20
2.5213025783
 30
0.0
 10
4.8142242879
 20
2.5277722279
 30
0.0
 10
4.8142216916
 20
2.5310013152
 30
0.0
  0
SPLINE
  5
4C5
100
AcDbEntity
  8
0
100
AcDbSpline
 62
7
  6
CONTINUOUS
 70
0
 71
3
 72
15
 73
11
 74
0
 42
0.0000001
 43
0.0000001
 44
0.0000000001
 40
0.0
 40
0.0
 40
0.0
 40
0.0
 40
0.1269432247
 40
0.2534593918
 40
0.3795014586
 40
0.5050112559
 40
0.629918127
 40
0.7541328007
 40
0.8775423098
 40
1.0
 40
1.0
 40
1.0
 40
1.0
 10
4.8142216427
 20
2.5311225291
 30
0.0
 10
4.8142216464
 20
2.5339340802
 30
0.0
 10
4.8143784269
 20
2.5395490149
 30
0.0
 10
4.8150853612
 20
2.5479287273
 30
0.0
 10
4.8162602164
 20
2.556223971
 30
0.0
 10
4.817897202
 20
2.5644041276
 30
0.0
 10
4.8199879525
 20
2.5724384346
 30
0.0
 10
4.8225214285
 20
2.5802955389
 30
0.0
 10
4.8254833037
 20
2.5879429374
 30
0.0
 10
4.8277419515
 20
2.5929018993
 30
0.0
 10
4.8289377723
 20
2.5953362511
 30
0.0
  0
SPLINE
  5
4C6
100
AcDbEntity
  8
0
100
AcDbSpline
 62
7
  6
CONTINUOUS
 70
0
 71
3
 72
24
 73
20
 74
0
 42
0.0000001
 43
0.0000001
 44
0.0000000001
 40
0.0
 40
0.0
 40
0.0
 40
0.0
 40
0.062693141
 40
0.125370785
 40
0.1880208374
 40
0.2506389674
 40
0.2819411504
 40
0.3132363212
 40
0.3757985466
 40
0.438339273
 40
0.5008619573
 40
0.5633686686
 40
0.6258590461
 40
0.6883302427
 40
0.7507760717
 40
0.8131862818
 40
0.8755449947
 40
0.9378277771
 40
1.0
 40
1.0
 40
1.0
 40
1.0
 10
4.9055207787
 20
2.3689244654
 30
0.0
 10
4.9071069768
 20
2.366059357
 30
0.0
 10
4.9104746384
 20
2.3604356505
 30
0.0
 10
4.9160880006
 20
2.3523673245
 30
0.0
 10
4.9222369362
 20
2.3447040191
 30
0.0
 10
4.9277844929
 20
2.3386849344
 30
0.0
 10
4.9324589682
 20
2.3341082122
 30
0.0
 10
4.9372849456
 20
2.3296958648
 30
0.0
 10
4.9435943949
 20
2.3244950638
 30
0.0
 10
4.9515712226
 20
2.3187876231
 30
0.0
 10
4.9599166805
 20
2.3136392835
 30
0.0
 10
4.9685916552
 20
2.3090737331
 30
0.0
 10
4.9775558406
 20
2.3051125757
 30
0.0
 10
4.9867670837
 20
2.3017751344
 30
0.0
 10
4.9961816276
 20
2.2990786721
 30
0.0
 10
5.0057537355
 20
2.2970379262
 30
0.0
 10
5.0154358007
 20
2.2956650727
 30
0.0
 10
5.0251770205
 20
2.294969041
 30
0.0
 10
5.0316844449
 20
2.2949598563
 30
0.0
 10
5.034930266
 20
2.2950695377
 30
0.0
  0
SPLINE
  5
4C7
100
AcDbEntity
  8
0
100
AcDbSpline
 62
7
  6
CONTINUOUS
 70
0
 71
3
 72
23
 73
19
 74
0
 42
0.0000001
 43
0.0000001
 44
0.0000000001
 40
0.0
 40
0.0
 40
0.0
 40
0.0
 40
0.0622206976
 40
0.1249296154
 40
0.1879749535
 40
0.2512374301
 40
0.3146213212
 40
0.3780470038
 40
0.4414461414
 40
0.5047572022
 40
0.5679214756
 40
0.6308801799
 40
0.693570484
 40
0.7559222075
 40
0.8178532108
 40
0.8792643809
 40
0.9400317653
 40
1.0
 40
1.0
 40
1.0
 40
1.0
 10
5.0288399586
 20
2.2685130095
 30
0.0
 10
5.0256556789
 20
2.2686959532
 30
0.0
 10
5.0192707083
 20
2.2692368694
 30
0.0
 10
5.009724019
 20
2.2705797823
 30
0.0
 10
5.0002153797
 20
2.2724694319
 30
0.0
 10
4.9907968861
 20
2.2749088012
 30
0.0
 10
4.9815168374
 20
2.2778958011
 30
0.0
 10
4.9724210113
 20
2.2814236758
 30
0.0
 10
4.9635524449
 20
2.2854804324
 30
0.0
 10
4.9549524278
 20
2.290050822
 30
0.0
 10
4.9466598479
 20
2.2951147469
 30
0.0
 10
4.9387119724
 20
2.3006486981
 30
0.0
 10
4.9311439439
 20
2.3066247524
 30
0.0
 10
4.9239890568
 20
2.313010868
 30
0.0
 10
4.9172785069
 20
2.3197702198
 30
0.0
 10
4.9110412628
 20
2.3268608633
 30
0.0
 10
4.9053040712
 20
2.3342342471
 30
0.0
 10
4.9018007895
 20
2.339341704
 30
0.0
 10
4.9001390247
 20
2.3419279018
 30
0.0
  0
SPLINE
  5
4C8
100
AcDbEntity
  8
0
100
AcDbSpline
 62
7
  6
CONTINUOUS
 70
0
 71
3
 72
23
 73
19
 74
0
 42
0.0000001
 43
0.0000001
 44
0.0000000001
 40
0.0
 40
0.0
 40
0.0
 40
0.0
 40
0.0621724611
 40
0.124455985
 40
0.1868151343
 40
0.2492259421
 40
0.3116724223
 40
0.3741441454
 40
0.4366351297
 40
0.4991423929
 40
0.5616657025
 40
0.6242069843
 40
0.6867698188
 40
0.7493586012
 40
0.8119773971
 40
0.8746279704
 40
0.9373062577
 40
1.0
 40
1.0
 40
1.0
 40
1.0
 10
5.156478253
 20
2.2950695377
 30
0.0
 10
5.1597240585
 20
2.2949598976
 30
0.0
 10
5.1662314758
 20
2.2949688505
 30
0.0
 10
5.175972669
 20
2.295665114
 30
0.0
 10
5.1856547535
 20
2.2970378175
 30
0.0
 10
5.1952268551
 20
2.2990786165
 30
0.0
 10
5.2046413862
 20
2.3017751241
 30
0.0
 10
5.2138526499
 20
2.3051125256
 30
0.0
 10
5.2228168162
 20
2.3090737153
 30
0.0
 10
5.2314918213
 20
2.3136392437
 30
0.0
 10
5.2398372193
 20
2.3187875937
 30
0.0
 10
5.2478142024
 20
2.324495129
 30
0.0
 10
5.2553855693
 20
2.3307361144
 30
0.0
 10
5.2625158734
 20
2.3374825348
 30
0.0
 10
5.2691713911
 20
2.3447039681
 30
0.0
 10
5.2753205738
 20
2.3523673133
 30
0.0
 10
5.2809337636
 20
2.3604357023
 30
0.0
 10
5.2843015692
 20
2.3660593402
 30
0.0
 10
5.2858877404
 20
2.3689244654
 30
0.0
  0
SPLINE
  5
4C9
100
AcDbEntity
  8
0
100
AcDbSpline
 62
7
  6
CONTINUOUS
 70
0
 71
3
 72
23
 73
19
 74
0
 42
0.0000001
 43
0.0000001
 44
0.0000000001
 40
0.0
 40
0.0
 40
0.0
 40
0.0
 40
0.059966741
 40
0.1207349351
 40
0.1821460291
 40
0.2440769158
 40
0.3064290098
 40
0.3691190839
 40
0.4320779838
 40
0.4952422257
 40
0.5585532965
 40
0.6219524645
 40
0.6853781632
 40
0.7487620189
 40
0.8120245102
 40
0.8750699415
 40
0.9377784807
 40
1.0
 40
1.0
 40
1.0
 40
1.0
 10
5.2912694766
 20
2.3419278793
 30
0.0
 10
5.2896077351
 20
2.339341758
 30
0.0
 10
5.2861043334
 20
2.3342344301
 30
0.0
 10
5.2803673319
 20
2.3268609533
 30
0.0
 10
5.2741300281
 20
2.3197703136
 30
0.0
 10
5.2674194477
 20
2.3130109878
 30
0.0
 10
5.2602646589
 20
2.3066247577
 30
0.0
 10
5.2526965316
 20
2.3006488018
 30
0.0
 10
5.2447487342
 20
2.2951147505
 30
0.0
 10
5.236456129
 20
2.2900508447
 30
0.0
 10
5.2278561047
 20
2.2854804768
 30
0.0
 10
5.2189875785
 20
2.2814236238
 30
0.0
 10
5.2098917201
 20
2.2778958316
 30
0.0
 10
5.2006117009
 20
2.2749087546
 30
0.0
 10
5.1911932084
 20
2.2724693495
 30
0.0
 10
5.1816845665
 20
2.2705798182
 30
0.0
 10
5.172137887
 20
2.2692366222
 30
0.0
 10
5.1657528714
 20
2.2686959342
 30
0.0
 10
5.1625685488
 20
2.268513007
 30
0.0
  0
SPLINE
  5
4CA
100
AcDbEntity
  8
0
100
AcDbSpline
 62
7
  6
CONTINUOUS
 70
0
 71
3
 72
15
 73
11
 74
0
 42
0.0000001
 43
0.0000001
 44
0.0000000001
 40
0.0
 40
0.0
 40
0.0
 40
0.0
 40
0.1234275293
 40
0.2474926608
 40
0.3720637961
 40
0.4970445863
 40
0.622367427
 40
0.7479860489
 40
0.8738689858
 40
1.0
 40
1.0
 40
1.0
 40
1.0
 10
5.3466617339
 20
2.4729769345
 30
0.0
 10
5.3483227338
 20
2.4756709208
 30
0.0
 10
5.3514629798
 20
2.4811927736
 30
0.0
 10
5.355589545
 20
2.4898026614
 30
0.0
 10
5.3591215735
 20
2.4987163473
 30
0.0
 10
5.3620376603
 20
2.5078837629
 30
0.0
 10
5.3643216266
 20
2.5172563365
 30
0.0
 10
5.3659612595
 20
2.5267863612
 30
0.0
 10
5.3669481445
 20
2.536426247
 30
0.0
 10
5.3671673301
 20
2.5428904676
 30
0.0
 10
5.3671673313
 20
2.5461246721
 30
0.0
  0
SPLINE
  5
4CB
100
AcDbEntity
  8
0
100
AcDbSpline
 62
7
  6
CONTINUOUS
 70
0
 71
3
 72
15
 73
11
 74
0
 42
0.0000001
 43
0.0000001
 44
0.0000000001
 40
0.0
 40
0.0
 40
0.0
 40
0.0
 40
0.1242569621
 40
0.2487430358
 40
0.3734587745
 40
0.4984004838
 40
0.6235592763
 40
0.7489132489
 40
0.8744181736
 40
1.0
 40
1.0
 40
1.0
 40
1.0
 10
5.3671673313
 20
2.5461246721
 30
0.0
 10
5.3671673159
 20
2.5493649638
 30
0.0
 10
5.3669469161
 20
2.5558536516
 30
0.0
 10
5.3659586809
 20
2.565549259
 30
0.0
 10
5.36431756
 20
2.5751744539
 30
0.0
 10
5.3620318787
 20
2.584685113
 30
0.0
 10
5.3591137872
 20
2.5940385052
 30
0.0
 10
5.3555794853
 20
2.6031926102
 30
0.0
 10
5.3514502466
 20
2.6121057512
 30
0.0
 10
5.3483177365
 20
2.6178615047
 30
0.0
 10
5.3466617339
 20
2.6206867899
 30
0.0
  0
SPLINE
  5
4CC
100
AcDbEntity
  8
0
100
AcDbSpline
 62
7
  6
CONTINUOUS
 70
0
 71
3
 72
15
 73
11
 74
0
 42
0.0000001
 43
0.0000001
 44
0.0000000001
 40
0.0
 40
0.0
 40
0.0
 40
0.0
 40
0.1224657863
 40
0.2458797848
 40
0.3700962336
 40
0.4950028268
 40
0.620510778
 40
0.7465497051
 40
0.8730617268
 40
1.0
 40
1.0
 40
1.0
 40
1.0
 10
5.362519311
 20
2.5952372888
 30
0.0
 10
5.3637113033
 20
2.5928058691
 30
0.0
 10
5.365962654
 20
2.5878532232
 30
0.0
 10
5.3689148574
 20
2.5802163408
 30
0.0
 10
5.3714399544
 20
2.5723707985
 30
0.0
 10
5.3735237231
 20
2.5643489258
 30
0.0
 10
5.3751552037
 20
2.5561819118
 30
0.0
 10
5.3763260869
 20
2.5479003581
 30
0.0
 10
5.3770306229
 20
2.5395347254
 30
0.0
 10
5.3771868725
 20
2.5339293081
 30
0.0
 10
5.3771868763
 20
2.5311225291
 30
0.0
  0
SPLINE
  5
4CD
100
AcDbEntity
  8
0
100
AcDbSpline
 62
7
  6
CONTINUOUS
 70
0
 71
3
 72
15
 73
11
 74
0
 42
0.0000001
 43
0.0000001
 44
0.0000000001
 40
0.0
 40
0.0
 40
0.0
 40
0.0
 40
0.1241890509
 40
0.2487539107
 40
0.3736434295
 40
0.4987947528
 40
0.6241302619
 40
0.7495466791
 40
0.8749014231
 40
1.0
 40
1.0
 40
1.0
 40
1.0
 10
5.3771868275
 20
2.5310013152
 30
0.0
 10
5.3771842315
 20
2.5277722276
 30
0.0
 10
5.3769715678
 20
2.5213025778
 30
0.0
 10
5.3760357553
 20
2.5116263097
 30
0.0
 10
5.3744886072
 20
2.5020031441
 30
0.0
 10
5.3723401923
 20
2.4924758215
 30
0.0
 10
5.3696051535
 20
2.4830859292
 30
0.0
 10
5.3663031057
 20
2.4738746104
 30
0.0
 10
5.362459826
 20
2.4648829576
 30
0.0
 10
5.3595529799
 20
2.4590508353
 30
0.0
 10
5.3580196446
 20
2.4561821798
 30
0.0
  0
LINE
  5
4CE
100
AcDbEntity
  8
0
100
AcDbLine
 62
7
  6
CONTINUOUS
 10
5.3437430959
 20
2.6188182848
 11
5.3466617339
 21
2.6206867899
  0
LINE
  5
4CF
100
AcDbEntity
  8
0
100
AcDbLine
 62
7
  6
CONTINUOUS
 10
5.2819772177
 20
2.3709534116
 11
5.2858877404
 21
2.3689244654
  0
SPLINE
  5
4D0
100
AcDbEntity
  8
0
100
AcDbSpline
 62
7
  6
CONTINUOUS
 70
0
 71
3
 72
17
 73
13
 74
0
 42
0.0000001
 43
0.0000001
 44
0.0000000001
 40
0.0
 40
0.0
 40
0.0
 40
0.0
 40
0.1757572844
 40
0.3408886898
 40
0.4931304827
 40
0.6304302514
 40
0.7509949375
 40
0.8533534458
 40
0.8973650361
 40
0.9364836525
 40
0.9706822061
 40
1.0
 40
1.0
 40
1.0
 40
1.0
 10
5.0339383813
 20
2.2998963231
 30
0.0
 10
5.0339655498
 20
2.2996073755
 30
0.0
 10
5.034023741
 20
2.2990474444
 30
0.0
 10
5.0341259667
 20
2.298239521
 30
0.0
 10
5.0342393042
 20
2.2974972441
 30
0.0
 10
5.0343620087
 20
2.2968311153
 30
0.0
 10
5.0344922395
 20
2.2962505662
 30
0.0
 10
5.0346103718
 20
2.2958255621
 30
0.0
 10
5.0347093951
 20
2.2955356321
 30
0.0
 10
5.0347805784
 20
2.2953553379
 30
0.0
 10
5.0348521852
 20
2.295201613
 30
0.0
 10
5.0349039428
 20
2.2951101673
 30
0.0
 10
5.034930266
 20
2.2950695377
 30
0.0
  0
SPLINE
  5
4D1
100
AcDbEntity
  8
0
100
AcDbSpline
 62
7
  6
CONTINUOUS
 70
0
 71
3
 72
17
 73
13
 74
0
 42
0.0000001
 43
0.0000001
 44
0.0000000001
 40
0.0
 40
0.0
 40
0.0
 40
0.0
 40
0.1752007896
 40
0.3389041389
 40
0.4891588371
 40
0.6243214336
 40
0.743155559
 40
0.7962332283
 40
0.8450419275
 40
0.8896336847
 40
0.9301565461
 40
1.0
 40
1.0
 40
1.0
 40
1.0
 10
4.8476654232
 20
2.4767041079
 30
0.0
 10
4.8474469597
 20
2.4765252545
 30
0.0
 10
4.8470309957
 20
2.476171053
 30
0.0
 10
4.8464540453
 20
2.4756334933
 30
0.0
 10
4.8459505326
 20
2.4751130167
 30
0.0
 10
4.8455274741
 20
2.4746170109
 30
0.0
 10
4.845236332
 20
2.4742158844
 30
0.0
 10
4.8450514216
 20
2.4739118015
 30
0.0
 10
4.8449414935
 20
2.47370274
 30
0.0
 10
4.8448553171
 20
2.4735045055
 30
0.0
 10
4.8447765377
 20
2.4732675692
 30
0.0
 10
4.8447463551
 20
2.4730894873
 30
0.0
 10
4.8447467852
 20
2.4729769345
 30
0.0
  0
SPLINE
  5
4D2
100
AcDbEntity
  8
0
100
AcDbSpline
 62
7
  6
CONTINUOUS
 70
0
 71
3
 72
21
 73
17
 74
0
 42
0.0000001
 43
0.0000001
 44
0.0000000001
 40
0.0
 40
0.0
 40
0.0
 40
0.0
 40
0.2177921831
 40
0.4119589921
 40
0.5804350519
 40
0.7215001144
 40
0.781322147
 40
0.833830105
 40
0.8789445873
 40
0.9166429907
 40
0.947001912
 40
0.970283357
 40
0.9794867401
 40
0.9872754453
 40
0.9939535504
 40
1.0
 40
1.0
 40
1.0
 40
1.0
 10
5.3898591934
 20
2.5095899215
 30
0.0
 10
5.3900271737
 20
2.5096961487
 30
0.0
 10
5.3903435372
 20
2.5098992699
 30
0.0
 10
5.3907841738
 20
2.510193287
 30
0.0
 10
5.3911606803
 20
2.5104570556
 30
0.0
 10
5.3914308283
 20
2.510658801
 30
0.0
 10
5.3916109904
 20
2.5108038008
 30
0.0
 10
5.391720201
 20
2.51089721
 30
0.0
 10
5.3918108597
 20
2.5109811073
 30
0.0
 10
5.391882848
 20
2.5110552895
 30
0.0
 10
5.3919360319
 20
2.5111195509
 30
0.0
 10
5.3919671564
 20
2.5111681446
 30
0.0
 10
5.3919811003
 20
2.511202271
 30
0.0
 10
5.3919859146
 20
2.5112234662
 30
0.0
 10
5.3919858025
 20
2.511242401
 30
0.0
 10
5.3919820956
 20
2.5112536711
 30
0.0
 10
5.3919794783
 20
2.5112585287
 30
0.0
  0
SPLINE
  5
4D3
100
AcDbEntity
  8
0
100
AcDbSpline
 62
7
  6
CONTINUOUS
 70
0
 71
3
 72
17
 73
13
 74
0
 42
0.0000001
 43
0.0000001
 44
0.0000000001
 40
0.0
 40
0.0
 40
0.0
 40
0.0
 40
0.1818874358
 40
0.348692991
 40
0.498741969
 40
0.6309336453
 40
0.745014438
 40
0.8420002268
 40
0.8850149335
 40
0.9251088361
 40
0.963108741
 40
1.0
 40
1.0
 40
1.0
 40
1.0
 10
5.3903120677
 20
2.3682079297
 30
0.0
 10
5.3905146922
 20
2.3680252101
 30
0.0
 10
5.3908938493
 20
2.3676643585
 30
0.0
 10
5.3914015945
 20
2.3671140594
 30
0.0
 10
5.3918187655
 20
2.366584138
 30
0.0
 10
5.3921395004
 20
2.3660820308
 30
0.0
 10
5.3923594057
 20
2.3656146281
 30
0.0
 10
5.3924595125
 20
2.3652434331
 30
0.0
 10
5.3924785451
 20
2.364973149
 30
0.0
 10
5.3924646747
 20
2.3647912492
 30
0.0
 10
5.3924230327
 20
2.3646230042
 30
0.0
 10
5.3923764028
 20
2.36451996
 30
0.0
 10
5.3923489558
 20
2.364471907
 30
0.0
  0
SPLINE
  5
4D4
100
AcDbEntity
  8
0
100
AcDbSpline
 62
7
  6
CONTINUOUS
 70
0
 71
3
 72
22
 73
18
 74
0
 42
0.0000001
 43
0.0000001
 44
0.0000000001
 40
0.0
 40
0.0
 40
0.0
 40
0.0
 40
0.2145940874
 40
0.4079601013
 40
0.5772146187
 40
0.6520046766
 40
0.7198675886
 40
0.7805712623
 40
0.8339156292
 40
0.8797523378
 40
0.9179881309
 40
0.9486261477
 40
0.9718423388
 40
0.9808456862
 40
0.9883032677
 40
0.99451654
 40
1.0
 40
1.0
 40
1.0
 40
1.0
 10
5.3050780137
 20
2.222222468
 30
0.0
 10
5.3053134069
 20
2.2221004339
 30
0.0
 10
5.305762475
 20
2.2218714328
 30
0.0
 10
5.3064032028
 20
2.2215581366
 30
0.0
 10
5.3068936385
 20
2.2213309153
 30
0.0
 10
5.3072468444
 20
2.2211767163
 30
0.0
 10
5.307478843
 20
2.2210801932
 30
0.0
 10
5.307688164
 20
2.2209982657
 30
0.0
 10
5.3078740223
 20
2.2209312159
 30
0.0
 10
5.3080357003
 20
2.2208792545
 30
0.0
 10
5.3081726784
 20
2.2208424291
 30
0.0
 10
5.3082844519
 20
2.2208208297
 30
0.0
 10
5.3083622909
 20
2.2208145608
 30
0.0
 10
5.3084112449
 20
2.2208191069
 30
0.0
 10
5.3084385235
 20
2.2208262051
 30
0.0
 10
5.3084596768
 20
2.2208374931
 30
0.0
 10
5.308469637
 20
2.2208485101
 30
0.0
 10
5.3084730687
 20
2.2208543519
 30
0.0
  0
SPLINE
  5
4D5
100
AcDbEntity
  8
0
100
AcDbSpline
 62
7
  6
CONTINUOUS
 70
0
 71
3
 72
19
 73
15
 74
0
 42
0.0000001
 43
0.0000001
 44
0.0000000001
 40
0.0
 40
0.0
 40
0.0
 40
0.0
 40
0.191519123
 40
0.3674018609
 40
0.5252103569
 40
0.662900151
 40
0.7237240116
 40
0.7790175825
 40
0.8287263182
 40
0.8728757423
 40
0.911609821
 40
0.9452502293
 40
0.9743870627
 40
1.0
 40
1.0
 40
1.0
 40
1.0
 10
5.1814642673
 20
2.1511292741
 30
0.0
 10
5.181430197
 20
2.1508460116
 30
0.0
 10
5.1813561554
 20
2.1503035968
 30
0.0
 10
5.1812207634
 20
2.149532765
 30
0.0
 10
5.1810674448
 20
2.1488472198
 30
0.0
 10
5.1809215806
 20
2.1483363398
 30
0.0
 10
5.1807954196
 20
2.1479797917
 30
0.0
 10
5.1807018183
 20
2.1477510566
 30
0.0
 10
5.1806056793
 20
2.1475505698
 30
0.0
 10
5.1805073235
 20
2.1473790198
 30
0.0
 10
5.1804070596
 20
2.1472369276
 30
0.0
 10
5.1803049696
 20
2.1471246631
 30
0.0
 10
5.1802010479
 20
2.1470426414
 30
0.0
 10
5.1801265467
 20
2.1470069981
 30
0.0
 10
5.1800900996
 20
2.1469957093
 30
0.0
  0
SPLINE
  5
4D6
100
AcDbEntity
  8
0
100
AcDbSpline
 62
7
  6
CONTINUOUS
 70
0
 71
3
 72
19
 73
15
 74
0
 42
0.0000001
 43
0.0000001
 44
0.0000000001
 40
0.0
 40
0.0
 40
0.0
 40
0.0
 40
0.1912124109
 40
0.3668269601
 40
0.5244290082
 40
0.6619977489
 40
0.7228010925
 40
0.7781051478
 40
0.8278590281
 40
0.8720922643
 40
0.9109530087
 40
0.9447666889
 40
0.9741246218
 40
1.0
 40
1.0
 40
1.0
 40
1.0
 10
5.0109230798
 20
2.1511165872
 30
0.0
 10
5.0109596097
 20
2.1508344605
 30
0.0
 10
5.0110384438
 20
2.1502942924
 30
0.0
 10
5.0111809287
 20
2.149526938
 30
0.0
 10
5.011340875
 20
2.148844738
 30
0.0
 10
5.0114919804
 20
2.1483366243
 30
0.0
 10
5.0116220234
 20
2.1479821956
 30
0.0
 10
5.0117182635
 20
2.1477548435
 30
0.0
 10
5.0118168658
 20
2.1475556405
 30
0.0
 10
5.011917504
 20
2.1473852689
 30
0.0
 10
5.0120198661
 20
2.1472442466
 30
0.0
 10
5.0121238638
 20
2.1471329484
 30
0.0
 10
5.0122294897
 20
2.1470518025
 30
0.0
 10
5.0123049288
 20
2.1470167436
 30
0.0
 10
5.0123418042
 20
2.1470056887
 30
0.0
  0
SPLINE
  5
4D7
100
AcDbEntity
  8
0
100
AcDbSpline
 62
7
  6
CONTINUOUS
 70
0
 71
3
 72
23
 73
19
 74
0
 42
0.0000001
 43
0.0000001
 44
0.0000000001
 40
0.0
 40
0.0
 40
0.0
 40
0.0
 40
0.2148347546
 40
0.4084407293
 40
0.5779089825
 40
0.652787791
 40
0.7207229137
 40
0.7814785456
 40
0.8348502898
 40
0.8806844304
 40
0.9188803494
 40
0.9494297385
 40
0.9618816101
 40
0.9725076007
 40
0.9813951102
 40
0.988704172
 40
0.9947317016
 40
1.0
 40
1.0
 40
1.0
 40
1.0
 10
4.8868564592
 20
2.2213763649
 30
0.0
 10
4.8866211505
 20
2.2212516157
 30
0.0
 10
4.8861722487
 20
2.2210173169
 30
0.0
 10
4.8855318355
 20
2.2206960729
 30
0.0
 10
4.8850416984
 20
2.2204623947
 30
0.0
 10
4.8846887594
 20
2.2203032699
 30
0.0
 10
4.8844569869
 20
2.2202033844
 30
0.0
 10
4.8842479208
 20
2.2201182801
 30
0.0
 10
4.8840623596
 20
2.2200482674
 30
0.0
 10
4.8839010016
 20
2.2199935296
 30
0.0
 10
4.8837644469
 20
2.2199542494
 30
0.0
 10
4.883665891
 20
2.2199329673
 30
0.0
 10
4.8835998539
 20
2.2199248737
 30
0.0
 10
4.8835602089
 20
2.2199231644
 30
0.0
 10
4.883526937
 20
2.2199253594
 30
0.0
 10
4.8834999192
 20
2.21993154
 30
0.0
 10
4.8834789898
 20
2.2199419581
 30
0.0
 10
4.8834691374
 20
2.2199524909
 30
0.0
 10
4.8834657912
 20
2.2199580997
 30
0.0
  0
SPLINE
  5
4D8
100
AcDbEntity
  8
0
100
AcDbSpline
 62
7
  6
CONTINUOUS
 70
0
 71
3
 72
17
 73
13
 74
0
 42
0.0000001
 43
0.0000001
 44
0.0000000001
 40
0.0
 40
0.0
 40
0.0
 40
0.0
 40
0.1814701218
 40
0.3479402647
 40
0.4977568598
 40
0.629840912
 40
0.7439606666
 40
0.8411503065
 40
0.8843300126
 40
0.9246270225
 40
0.962859788
 40
1.0
 40
1.0
 40
1.0
 40
1.0
 10
4.8015493257
 20
2.36737816
 30
0.0
 10
4.8013486031
 20
2.3671936766
 30
0.0
 10
4.8009732132
 20
2.3668294
 30
0.0
 10
4.8004713626
 20
2.3662741953
 30
0.0
 10
4.8000599445
 20
2.3657397893
 30
0.0
 10
4.7997447384
 20
2.3652336627
 30
0.0
 10
4.7995300678
 20
2.3647627398
 30
0.0
 10
4.7994342898
 20
2.3643891787
 30
0.0
 10
4.7994184013
 20
2.3641174294
 30
0.0
 10
4.7994343981
 20
2.36393453
 30
0.0
 10
4.7994780195
 20
2.3637654666
 30
0.0
 10
4.7995258559
 20
2.3636620037
 30
0.0
 10
4.7995538764
 20
2.3636137539
 30
0.0
  0
SPLINE
  5
4D9
100
AcDbEntity
  8
0
100
AcDbSpline
 62
7
  6
CONTINUOUS
 70
0
 71
3
 72
20
 73
16
 74
0
 42
0.0000001
 43
0.0000001
 44
0.0000000001
 40
0.0
 40
0.0
 40
0.0
 40
0.0
 40
0.2184695467
 40
0.4132420423
 40
0.5822228134
 40
0.6564832893
 40
0.7236663039
 40
0.7836133823
 40
0.8361983565
 40
0.8813340142
 40
0.9189869603
 40
0.9492166063
 40
0.9616164057
 40
0.9722774263
 40
1.0
 40
1.0
 40
1.0
 40
1.0
 10
4.8010964514
 20
2.5087021114
 30
0.0
 10
4.8009264408
 20
2.5088071753
 30
0.0
 10
4.8006061403
 20
2.5090079967
 30
0.0
 10
4.8001596587
 20
2.5092984448
 30
0.0
 10
4.7998284567
 20
2.5095240563
 30
0.0
 10
4.7995974875
 20
2.5096892884
 30
0.0
 10
4.7994495988
 20
2.509799174
 30
0.0
 10
4.7993198287
 20
2.5099001327
 30
0.0
 10
4.799208511
 20
2.5099918978
 30
0.0
 10
4.7991159098
 20
2.5100741479
 30
0.0
 10
4.799042187
 20
2.5101468156
 30
0.0
 10
4.7989937988
 20
2.5102019762
 30
0.0
 10
4.7989652696
 20
2.5102419821
 30
0.0
 10
4.7989419591
 20
2.510280772
 30
0.0
 10
4.798928042
 20
2.5103216318
 30
0.0
 10
4.7989399319
 20
2.5103440324
 30
0.0
  0
SPLINE
  5
4DA
100
AcDbEntity
  8
0
100
AcDbSpline
 62
7
  6
CONTINUOUS
 70
0
 71
3
 72
17
 73
13
 74
0
 42
0.0000001
 43
0.0000001
 44
0.0000000001
 40
0.0
 40
0.0
 40
0.0
 40
0.0
 40
0.1752007555
 40
0.3389040768
 40
0.4891587558
 40
0.6243213437
 40
0.743155473
 40
0.7962331492
 40
0.8450418587
 40
0.8896336294
 40
0.930156507
 40
1.0
 40
1.0
 40
1.0
 40
1.0
 10
5.3437430959
 20
2.4767041079
 30
0.0
 10
5.3439615595
 20
2.4765252547
 30
0.0
 10
5.3443775238
 20
2.4761710535
 30
0.0
 10
5.3449544743
 20
2.4756334942
 30
0.0
 10
5.3454579871
 20
2.4751130176
 30
0.0
 10
5.3458810456
 20
2.4746170118
 30
0.0
 10
5.3461721876
 20
2.4742158851
 30
0.0
 10
5.3463570978
 20
2.4739118021
 30
0.0
 10
5.3464670259
 20
2.4737027405
 30
0.0
 10
5.3465532022
 20
2.4735045059
 30
0.0
 10
5.3466319815
 20
2.4732675694
 30
0.0
 10
5.346662164
 20
2.4730894873
 30
0.0
 10
5.3466617339
 20
2.4729769345
 30
0.0
  0
SPLINE
  5
4DB
100
AcDbEntity
  8
0
100
AcDbSpline
 62
7
  6
CONTINUOUS
 70
0
 71
3
 72
17
 73
13
 74
0
 42
0.0000001
 43
0.0000001
 44
0.0000000001
 40
0.0
 40
0.0
 40
0.0
 40
0.0
 40
0.1757572933
 40
0.3408887071
 40
0.4931305075
 40
0.6304302818
 40
0.7509949705
 40
0.853353477
 40
0.8973650638
 40
0.9364836743
 40
0.9706822191
 40
1.0
 40
1.0
 40
1.0
 40
1.0
 10
5.1574701377
 20
2.2998963231
 30
0.0
 10
5.1574429692
 20
2.2996073755
 30
0.0
 10
5.1573847779
 20
2.2990474444
 30
0.0
 10
5.1572825519
 20
2.2982395211
 30
0.0
 10
5.1571692144
 20
2.2974972441
 30
0.0
 10
5.1570465098
 20
2.2968311153
 30
0.0
 10
5.156916279
 20
2.2962505662
 30
0.0
 10
5.1567981468
 20
2.2958255622
 30
0.0
 10
5.1566991236
 20
2.2955356321
 30
0.0
 10
5.1566279404
 20
2.2953553379
 30
0.0
 10
5.1565563337
 20
2.295201613
 30
0.0
 10
5.1565045762
 20
2.2951101673
 30
0.0
 10
5.156478253
 20
2.2950695377
 30
0.0
  0
LINE
  5
4DC
100
AcDbEntity
  8
0
100
AcDbLine
 62
7
  6
CONTINUOUS
 10
4.9094313014
 20
2.3709534116
 11
4.9055207787
 21
2.3689244654
  0
LINE
  5
4DD
100
AcDbEntity
  8
0
100
AcDbLine
 62
7
  6
CONTINUOUS
 10
4.8476654232
 20
2.6188182848
 11
4.8447467852
 21
2.6206867899
  0
SPLINE
  5
4DE
100
AcDbEntity
  8
0
100
AcDbSpline
 62
7
  6
CONTINUOUS
 70
0
 71
3
 72
20
 73
16
 74
0
 42
0.0000001
 43
0.0000001
 44
0.0000000001
 40
0.0
 40
0.0
 40
0.0
 40
0.0
 40
0.2184697352
 40
0.4132423693
 40
0.5822232231
 40
0.6564837178
 40
0.7236667357
 40
0.7836138016
 40
0.8361987474
 40
0.8813343609
 40
0.9189872477
 40
0.9492168208
 40
0.9616165799
 40
0.9722775588
 40
1.0
 40
1.0
 40
1.0
 40
1.0
 10
5.3903120677
 20
2.5087021114
 30
0.0
 10
5.3904820785
 20
2.5088071754
 30
0.0
 10
5.3908023793
 20
2.509007997
 30
0.0
 10
5.3912488612
 20
2.5092984454
 30
0.0
 10
5.3915800635
 20
2.5095240571
 30
0.0
 10
5.3918110328
 20
2.5096892893
 30
0.0
 10
5.3919589214
 20
2.5097991749
 30
0.0
 10
5.3920886916
 20
2.5099001337
 30
0.0
 10
5.3922000092
 20
2.5099918988
 30
0.0
 10
5.3922926102
 20
2.5100741488
 30
0.0
 10
5.3923663329
 20
2.5101468165
 30
0.0
 10
5.3924147209
 20
2.510201977
 30
0.0
 10
5.39244325
 20
2.5102419829
 30
0.0
 10
5.3924665603
 20
2.5102807727
 30
0.0
 10
5.392480477
 20
2.5103216326
 30
0.0
 10
5.3924685869
 20
2.5103440329
 30
0.0
  0
SPLINE
  5
4DF
100
AcDbEntity
  8
0
100
AcDbSpline
 62
7
  6
CONTINUOUS
 70
0
 71
3
 72
17
 73
13
 74
0
 42
0.0000001
 43
0.0000001
 44
0.0000000001
 40
0.0
 40
0.0
 40
0.0
 40
0.0
 40
0.1814700244
 40
0.3479400858
 40
0.4977566218
 40
0.629840644
 40
0.7439604043
 40
0.8411500917
 40
0.8843298382
 40
0.9246268989
 40
0.9628597232
 40
1.0
 40
1.0
 40
1.0
 40
1.0
 10
5.3898591934
 20
2.36737816
 30
0.0
 10
5.3900599162
 20
2.367193677
 30
0.0
 10
5.3904353064
 20
2.3668294009
 30
0.0
 10
5.3909371573
 20
2.3662741967
 30
0.0
 10
5.3913485756
 20
2.365739791
 30
0.0
 10
5.3916637817
 20
2.3652336644
 30
0.0
 10
5.3918784522
 20
2.3647627413
 30
0.0
 10
5.39197423
 20
2.3643891798
 30
0.0
 10
5.3919901183
 20
2.3641174303
 30
0.0
 10
5.3919741213
 20
2.3639345306
 30
0.0
 10
5.3919304998
 20
2.3637654669
 30
0.0
 10
5.3918826633
 20
2.3636620039
 30
0.0
 10
5.3918546427
 20
2.363613754
 30
0.0
  0
SPLINE
  5
4E0
100
AcDbEntity
  8
0
100
AcDbSpline
 62
7
  6
CONTINUOUS
 70
0
 71
3
 72
23
 73
19
 74
0
 42
0.0000001
 43
0.0000001
 44
0.0000000001
 40
0.0
 40
0.0
 40
0.0
 40
0.0
 40
0.214834755
 40
0.4084407301
 40
0.5779089837
 40
0.6527877923
 40
0.7207229151
 40
0.7814785471
 40
0.8348502914
 40
0.880684432
 40
0.918880351
 40
0.9494297399
 40
0.9618816114
 40
0.9725076019
 40
0.9813951112
 40
0.9887041728
 40
0.994731702
 40
1.0
 40
1.0
 40
1.0
 40
1.0
 10
5.3045520599
 20
2.2213763649
 30
0.0
 10
5.3047873685
 20
2.2212516157
 30
0.0
 10
5.3052362704
 20
2.2210173169
 30
0.0
 10
5.3058766836
 20
2.2206960729
 30
0.0
 10
5.3063668207
 20
2.2204623947
 30
0.0
 10
5.3067197597
 20
2.2203032699
 30
0.0
 10
5.3069515322
 20
2.2202033844
 30
0.0
 10
5.3071605982
 20
2.2201182801
 30
0.0
 10
5.3073461594
 20
2.2200482674
 30
0.0
 10
5.3075075175
 20
2.2199935296
 30
0.0
 10
5.3076440721
 20
2.2199542494
 30
0.0
 10
5.307742628
 20
2.2199329673
 30
0.0
 10
5.3078086651
 20
2.2199248737
 30
0.0
 10
5.3078483102
 20
2.2199231644
 30
0.0
 10
5.3078815821
 20
2.2199253594
 30
0.0
 10
5.3079085999
 20
2.21993154
 30
0.0
 10
5.3079295293
 20
2.2199419581
 30
0.0
 10
5.3079393817
 20
2.2199524909
 30
0.0
 10
5.3079427279
 20
2.2199580997
 30
0.0
  0
ENDSEC
  0
SECTION
  2
OBJECTS
  0
DICTIONARY
  5
C
100
AcDbDictionary
280
0
281
1
  3
ACAD_GROUP
350
D
  3
ACAD_MLINESTYLE
350
17
  3
ACAD_LAYOUT
350
1A
  3
ACAD_PLOTSETTINGS
350
19
  3
ACAD_PLOTSTYLENAME
350
E
  0
DICTIONARY
  5
D
102
{ACAD_REACTORS
330
C
102
}
100
AcDbDictionary
280
0
281
1
  0
ACDBDICTIONARYWDFLT
  5
E
102
{ACAD_REACTORS
330
C
102
}
100
AcDbDictionary
281
1
  3
Normal
350
F
100
AcDbDictionaryWithDefault
340
F
  0
DICTIONARY
  5
17
102
{ACAD_REACTORS
330
C
102
}
100
AcDbDictionary
280
0
281
1
  3
Standard
350
18
  0
DICTIONARY
  5
19
102
{ACAD_REACTORS
330
C
102
}
100
AcDbDictionary
281
1
  0
DICTIONARY
  5
1A
102
{ACAD_REACTORS
330
C
102
}
100
AcDbDictionary
281
1
  3
Model
350
4E1
  3
Layout1
350
4E2
  0
ACDBPLACEHOLDER
  5
F
102
{ACAD_REACTORS
330
E
102
}
  0
MLINESTYLE
  5
18
102
{ACAD_REACTORS
330
17
102
}
100
AcDbMlineStyle
  2
STANDARD
 70
0
  3

 62
256
 51
90.0
 52
90.0
 71
2
 49
0.5
 62
256
  6
BYLAYER
 49
-0.5
 62
256
  6
BYLAYER
  0
LAYOUT
  5
4E1
102
{ACAD_REACTORS
330
1A
102
}
100
AcDbPlotSettings
  1

  2
none_device
  4
ANSI_A_(11.00_x_8.50_Inches)
  6

 40
0.0
 41
0.0
 42
0.0
 43
0.0
 44
279.4
 45
215.9
 46
0.0
 47
0.0
 48
0.0
 49
0.0
140
0.0
141
0.0
142
1.0
143
1.0
 70
1024
 72
0
 73
0
 74
0
  7

 75
0
147
1.0
148
0.0
149
0.0
100
AcDbLayout
  1
Model
 70
0
 71
0
 10
0.0
 20
0.0
 11
11.0
 21
8.5
 12
0.0
 22
0.0
 32
0.0
 14
0.0
 24
0.0
 34
0.0
 15
0.0
 25
0.0
 35
0.0
146
0.0
 13
0.0
 23
0.0
 33
0.0
 16
1.0
 26
0.0
 36
0.0
 17
0.0
 27
1.0
 37
0.0
 76
0
330
202
345
0
346
0
  0
LAYOUT
  5
4E2
102
{ACAD_REACTORS
330
1A
102
}
100
AcDbPlotSettings
  1

  2
none_device
  4
ANSI_A_(11.00_x_8.50_Inches)
  6

 40
0.0
 41
0.0
 42
0.0
 43
0.0
 44
279.4
 45
215.9
 46
0.0
 47
0.0
 48
0.0
 49
0.0
140
0.0
141
0.0
142
1.0
143
1.0
 70
0
 72
0
 73
0
 74
0
  7

 75
0
147
1.0
148
0.0
149
0.0
100
AcDbLayout
  1
Layout1
 70
0
 71
1
 10
0.0
 20
0.0
 11
11.0
 21
8.5
 12
0.0
 22
0.0
 32
0.0
 14
0.0
 24
0.0
 34
0.0
 15
0.0
 25
0.0
 35
0.0
146
0.0
 13
0.0
 23
0.0
 33
0.0
 16
1.0
 26
0.0
 36
0.0
 17
0.0
 27
1.0
 37
0.0
 76
0
330
203
345
0
346
0
  0
ENDSEC
  0
EOF
