999
DXF file: 3190-5223_top.dxf
999
Pro/ENGINEER 2018400 by Parametric Technology Corporation
  0
SECTION
  2
HEADER
  9
$ACADVER
  1
AC1027
  9
$DWGCODEPAGE
  3
ANSI_1252
  9
$EXTMAX
 10
11.0
 20
8.5
 30
0.0
  9
$EXTMIN
 10
0.0
 20
0.0
 30
0.0
  9
$LIMMIN
 10
0.0
 20
0.0
  9
$LIMMAX
 10
11.0
 20
8.5
  9
$VIEWCTR
 10
5.5
 20
4.25
  9
$VIEWSIZE
 40
8.5
  9
$CLAYER
  8
0
  9
$LTSCALE
 40
0.605
  9
$CELTYPE
  6
BYLAYER
  9
$DIMSCALE
 40
1.0
  9
$DIMASZ
 40
0.1
  9
$DIMEXO
 40
0.0625
  9
$DIMDLI
 40
0.418
  9
$DIMEXE
 40
0.125
  9
$DIMCEN
 40
0.099
  9
$DIMLFAC
 40
1.0
  9
$DIMBLK
  1
_FILLED
  9
$DIMALT
 70
1
  9
$DIMALTD
 70
1
  9
$DIMALTTD
 70
2
  9
$DIMALTF
 40
25.4
  9
$DIMTXT
 40
0.08
  9
$DIMTOL
 70
1
  9
$DIMLIM
 70
0
  9
$DIMTFAC
 40
1.0
  9
$DIMTP
 40
0.01
  9
$DIMTM
 40
0.01
  9
$DIMGAP
 40
0.09
  9
$DIMDSEP
 70
46
  9
$AUNITS
 70
0
  9
$PDMODE
 70
3
  9
$PDSIZE
 40
0.3125
  9
$HANDSEED
  5
474
  9
$TILEMODE
 70
1
  9
$MEASUREMENT
 70
0
  9
$INSUNITS
 70
1
  0
ENDSEC
  0
SECTION
  2
CLASSES
  0
CLASS
  1
ACDBDICTIONARYWDFLT
  2
AcDbDictionaryWithDefault
  3
AutoCAD 2000
 90
0
 91
1
280
0
281
0
  0
CLASS
  1
ACDBPLACEHOLDER
  2
AcDbPlaceHolder
  3
AutoCAD 2000
 90
0
 91
1
280
0
281
0
  0
CLASS
  1
LAYOUT
  2
AcDbLayout
  3
AutoCAD 2000
 90
0
 91
0
280
0
281
0
  0
ENDSEC
  0
SECTION
  2
TABLES
  0
TABLE
  2
VPORT
  5
8
100
AcDbSymbolTable
 70
2
  0
VPORT
  5
1F4
100
AcDbSymbolTableRecord
100
AcDbViewportTableRecord
  2
*ACTIVE
 70
0
 10
0.0
 20
0.0
 11
1.0
 21
1.0
 12
5.5
 22
4.25
 13
0.0
 23
0.0
 14
1.0
 24
1.0
 15
0.0
 25
0.0
 16
0.0
 26
0.0
 36
1.0
 17
0.0
 27
0.0
 37
0.0
 40
8.5
 41
1.2941176471
 42
50.0
 43
0.0
 44
0.0
 50
0.0
 51
0.0
 71
0
 72
100
 73
1
 74
1
 75
0
 76
0
 77
0
 78
0
  0
ENDTAB
  0
TABLE
  2
LTYPE
  5
5
100
AcDbSymbolTable
 70
6
  0
LTYPE
  5
14
100
AcDbSymbolTableRecord
100
AcDbLinetypeTableRecord
  2
BYBLOCK
 70
0
  3

 72
65
 73
0
 40
0.0
  0
LTYPE
  5
15
100
AcDbSymbolTableRecord
100
AcDbLinetypeTableRecord
  2
BYLAYER
 70
0
  3

 72
65
 73
0
 40
0.0
  0
LTYPE
  5
16
100
AcDbSymbolTableRecord
100
AcDbLinetypeTableRecord
  2
CONTINUOUS
 70
64
  3
Solid line
 72
65
 73
0
 40
0.0
  0
LTYPE
  5
1F5
100
AcDbSymbolTableRecord
100
AcDbLinetypeTableRecord
  2
CENTER
 70
64
  3
____ _ ____ _ ____ _ ____ _ ____ _ ____ _ ____
 72
65
 73
4
 40
0.6
 49
0.375
 74
0
 49
-0.075
 74
0
 49
0.075
 74
0
 49
-0.075
 74
0
  0
LTYPE
  5
1F6
100
AcDbSymbolTableRecord
100
AcDbLinetypeTableRecord
  2
HIDDEN
 70
64
  3
- - - - - - - - - - - - - - - - - - - -
 72
65
 73
2
 40
0.2
 49
0.1
 74
0
 49
-0.1
 74
0
  0
LTYPE
  5
1F7
100
AcDbSymbolTableRecord
100
AcDbLinetypeTableRecord
  2
PHANTOM
 70
64
  3
_____ _ _ _____ _ _ _____ _ _ _____
 72
65
 73
6
 40
0.8
 49
0.45
 74
0
 49
-0.05
 74
0
 49
0.1
 74
0
 49
-0.05
 74
0
 49
0.1
 74
0
 49
-0.05
 74
0
  0
LTYPE
  5
1F8
100
AcDbSymbolTableRecord
100
AcDbLinetypeTableRecord
  2
DOT
 70
64
  3
. . . . . . . . . . . . . . . . . . . .
 72
65
 73
2
 40
0.2
 49
0.1
 74
0
 49
-0.1
 74
0
  0
LTYPE
  5
1F9
100
AcDbSymbolTableRecord
100
AcDbLinetypeTableRecord
  2
DASHED
 70
64
  3
- - - - - - - - - - - - - - - - - - - -
 72
65
 73
2
 40
0.2
 49
0.1
 74
0
 49
-0.1
 74
0
  0
ENDTAB
  0
TABLE
  2
LAYER
  5
2
100
AcDbSymbolTable
 70
36
  0
LAYER
  5
10
100
AcDbSymbolTableRecord
100
AcDbLayerTableRecord
  2
0
 70
0
 62
7
  6
CONTINUOUS
370
-3
390
F
  0
LAYER
  5
1FA
100
AcDbSymbolTableRecord
100
AcDbLayerTableRecord
  2
DEFAULT_1
 70
0
 62
7
  6
CENTER
370
-3
390
F
  0
LAYER
  5
1FB
100
AcDbSymbolTableRecord
100
AcDbLayerTableRecord
  2
DEFAULT_2
 70
0
 62
8
  6
HIDDEN
370
-3
390
F
  0
LAYER
  5
1FC
100
AcDbSymbolTableRecord
100
AcDbLayerTableRecord
  2
DEFAULT_3
 70
0
 62
7
  6
PHANTOM
370
-3
390
F
  0
LAYER
  5
1FD
100
AcDbSymbolTableRecord
100
AcDbLayerTableRecord
  2
DEFAULT_COORDINATE_SYSTEM
 70
0
 62
7
  6
CONTINUOUS
370
-3
390
F
  0
LAYER
  5
1FE
100
AcDbSymbolTableRecord
100
AcDbLayerTableRecord
  2
DEFAULT_DATUM_AXES
 70
0
 62
7
  6
CONTINUOUS
370
-3
390
F
  0
LAYER
  5
1FF
100
AcDbSymbolTableRecord
100
AcDbLayerTableRecord
  2
DEFAULT_DATUM_PLANES
 70
0
 62
7
  6
CONTINUOUS
370
-3
390
F
  0
ENDTAB
  0
TABLE
  2
STYLE
  5
3
100
AcDbSymbolTable
 70
1
  0
STYLE
  5
11
100
AcDbSymbolTableRecord
100
AcDbTextStyleTableRecord
  2
STANDARD
 70
0
 40
0.0
 41
0.8
 50
0.0
 71
0
 42
0.2
  3
txt
  4

  0
STYLE
  5
200
100
AcDbSymbolTableRecord
100
AcDbTextStyleTableRecord
  2
TEXTSTYLE_1
 70
0
 40
0.0
 41
0.8
 50
0.0
 71
0
 42
0.2
  3
gdt
  4

  0
ENDTAB
  0
TABLE
  2
VIEW
  5
6
100
AcDbSymbolTable
 70
0
  0
ENDTAB
  0
TABLE
  2
UCS
  5
7
100
AcDbSymbolTable
 70
0
  0
ENDTAB
  0
TABLE
  2
APPID
  5
9
100
AcDbSymbolTable
 70
1
  0
APPID
  5
201
100
AcDbSymbolTableRecord
100
AcDbRegAppTableRecord
  2
ACAD
 70
0
  0
ENDTAB
  0
TABLE
  2
BLOCK_RECORD
  5
1
100
AcDbSymbolTable
 70
0
  0
BLOCK_RECORD
  5
202
100
AcDbSymbolTableRecord
100
AcDbBlockTableRecord
  2
*Model_Space
  0
BLOCK_RECORD
  5
203
100
AcDbSymbolTableRecord
100
AcDbBlockTableRecord
  2
*Paper_Space
  0
BLOCK_RECORD
  5
204
100
AcDbSymbolTableRecord
100
AcDbBlockTableRecord
  2
_FILLED
  0
ENDTAB
  0
TABLE
  2
DIMSTYLE
  5
A
100
AcDbSymbolTable
 70
1
100
AcDbDimStyleTable
 71
0
  0
DIMSTYLE
105
205
100
AcDbSymbolTableRecord
100
AcDbDimStyleTableRecord
  2
STANDARD
 70
0
  3

  4

 40
1.0
 41
0.1
 42
0.0625
 43
0.38
 44
0.125
 45
0.0
 46
0.0
 47
0.01
 48
0.01
140
0.08
141
0.09
142
0.0
143
25.4
144
1.0
145
0.0
146
1.0
147
0.09
 71
1.0
 72
0.0
 73
1
 74
1
 75
0
 76
0
 77
0
 78
4
 79
1
170
1
171
1
172
0
173
0
174
0
175
0
176
0
177
0
178
0
270
2
179
2
271
2
272
2
273
2
274
2
275
0
280
0
281
0
282
0
283
1
284
4
285
0
286
0
287
3
288
0
340
11
278
46
341
204
342
204
343
204
344
204
  0
ENDTAB
  0
ENDSEC
  0
SECTION
  2
BLOCKS
  0
BLOCK
  5
20
100
AcDbEntity
  8
0
100
AcDbBlockBegin
  2
*Model_Space
 70
0
 10
0.0
 20
0.0
 30
0.0
  3
*Model_Space
  1

  0
ENDBLK
  5
21
100
AcDbEntity
  8
0
100
AcDbBlockEnd
  0
BLOCK
  5
1C
100
AcDbEntity
  8
0
100
AcDbBlockBegin
  2
*Paper_Space
 70
0
 10
0.0
 20
0.0
 30
0.0
  3
*Paper_Space
  1

  0
ENDBLK
  5
1D
100
AcDbEntity
  8
0
100
AcDbBlockEnd
  0
BLOCK
  5
206
100
AcDbEntity
  8
0
100
AcDbBlockBegin
  2
_FILLED
 70
64
 10
0.0
 20
0.0
  3
_FILLED
  1

  0
SOLID
  5
207
100
AcDbEntity
  8
0
  6
BYBLOCK
 62
0
100
AcDbTrace
 10
0.0
 20
0.0
 11
-1.0
 21
0.2
 12
-1.0
 22
-0.2
 13
-1.0
 23
-0.2
  0
ENDBLK
  5
208
100
AcDbEntity
  8
0
  6
BYBLOCK
 62
0
100
AcDbBlockEnd
  0
ENDSEC
  0
SECTION
  2
ENTITIES
  0
MTEXT
  5
209
100
AcDbEntity
  8
0
100
AcDbMText
 62
2
  6
CONTINUOUS
  7
STANDARD
 71
3
 72
1
 10
4.1511403727
 20
1.7023572136
 30
0.0
 11
1.0
 21
0.0
 31
0.0
 73
2
 44
0.9
  1
SCALE  .500
 40
0.08
 41
0.704
  0
LINE
  5
20A
100
AcDbEntity
  8
0
100
AcDbLine
 62
7
  6
CONTINUOUS
 10
0.0
 20
0.0
 11
0.0
 21
8.5
  0
LINE
  5
20B
100
AcDbEntity
  8
0
100
AcDbLine
 62
7
  6
CONTINUOUS
 10
0.0
 20
0.0
 11
11.0
 21
0.0
  0
LINE
  5
20C
100
AcDbEntity
  8
0
100
AcDbLine
 62
7
  6
CONTINUOUS
 10
0.0
 20
8.5
 11
11.0
 21
8.5
  0
LINE
  5
20D
100
AcDbEntity
  8
0
100
AcDbLine
 62
7
  6
CONTINUOUS
 10
11.0
 20
0.0
 11
11.0
 21
8.5
  0
LWPOLYLINE
  5
20E
100
AcDbEntity
  8
0
100
AcDbPolyline
 62
7
  6
CONTINUOUS
 90
41
 70
0
 10
3.9130528448
 20
2.1162408793
 10
3.9163775924
 20
2.1162783699
 10
3.9204544326
 20
2.116403672
 10
3.924527855
 20
2.116616162
 10
3.928595532
 20
2.1169156185
 10
3.9326553558
 20
2.1173018345
 10
3.9367054369
 20
2.1177746406
 10
3.940743741
 20
2.1183338741
 10
3.9447678952
 20
2.1189793296
 10
3.9487755326
 20
2.1197107619
 10
3.9527648153
 20
2.1205277565
 10
3.9567338143
 20
2.1214297321
 10
3.9606802005
 20
2.122415992
 10
3.9646021495
 20
2.1234859363
 10
3.9684978933
 20
2.1246389811
 10
3.9723652128
 20
2.1258743962
 10
3.976202202
 20
2.127191522
 10
3.9800072297
 20
2.1285897632
 10
3.9837785147
 20
2.1300682647
 10
3.9875139356
 20
2.1316259229
 10
3.9912121462
 20
2.1332619486
 10
3.99487251
 20
2.1349759348
 10
3.9984932179
 20
2.136766996
 10
4.0020725686
 20
2.1386342995
 10
4.0056100163
 20
2.1405776706
 10
4.0091040152
 20
2.1425964329
 10
4.0125526806
 20
2.1446894237
 10
4.0159548998
 20
2.1468558407
 10
4.0193091246
 20
2.1490946457
 10
4.0226136458
 20
2.151404697
 10
4.0258670734
 20
2.1537850822
 10
4.0290677626
 20
2.1562347239
 10
4.0322140616
 20
2.1587525408
 10
4.0353045653
 20
2.1613376271
 10
4.038337886
 20
2.1639888397
 10
4.0413125947
 20
2.1667048707
 10
4.0442273541
 20
2.1694844908
 10
4.0470807301
 20
2.1723263792
 10
4.04987141
 20
2.175229333
 10
4.0525982148
 20
2.1781923109
 10
4.0546843531
 20
2.1805494357
  0
LINE
  5
20F
100
AcDbEntity
  8
0
100
AcDbLine
 62
7
  6
CONTINUOUS
 10
3.8701696291
 20
2.1161600765
 11
3.9130528442
 21
2.1162408793
  0
LINE
  5
210
100
AcDbEntity
  8
0
100
AcDbLine
 62
7
  6
CONTINUOUS
 10
3.8264632446
 20
2.1161263039
 11
3.8701696291
 21
2.1161600765
  0
LINE
  5
211
100
AcDbEntity
  8
0
100
AcDbLine
 62
7
  6
CONTINUOUS
 10
3.7827571298
 20
2.1161374004
 11
3.8264632446
 21
2.1161263039
  0
LWPOLYLINE
  5
212
100
AcDbEntity
  8
0
100
AcDbPolyline
 62
7
  6
CONTINUOUS
 90
3
 70
0
 10
3.7179631408
 20
2.1162408793
 10
3.739060625
 20
2.1161947773
 10
3.7827571298
 20
2.1161374004
  0
LINE
  5
213
100
AcDbEntity
  8
0
100
AcDbLine
 62
7
  6
CONTINUOUS
 10
3.8812896324
 20
2.256351012
 11
3.8999502667
 21
2.2581834182
  0
LINE
  5
214
100
AcDbEntity
  8
0
100
AcDbLine
 62
7
  6
CONTINUOUS
 10
3.8999502667
 20
2.2581834182
 11
3.9045056356
 21
2.2586143631
  0
LINE
  5
215
100
AcDbEntity
  8
0
100
AcDbLine
 62
7
  6
CONTINUOUS
 10
3.8744851209
 20
2.2557283598
 11
3.8812896324
 21
2.256351012
  0
LINE
  5
216
100
AcDbEntity
  8
0
100
AcDbLine
 62
7
  6
CONTINUOUS
 10
3.9045056356
 20
2.2586143631
 11
3.9072966523
 21
2.2588623319
  0
LINE
  5
217
100
AcDbEntity
  8
0
100
AcDbLine
 62
7
  6
CONTINUOUS
 10
3.8696199714
 20
2.2553118005
 11
3.8744851209
 21
2.2557283598
  0
LWPOLYLINE
  5
218
100
AcDbEntity
  8
0
100
AcDbPolyline
 62
7
  6
CONTINUOUS
 90
27
 70
0
 10
3.9072966523
 20
2.2588623319
 10
3.9098934892
 20
2.2590762148
 10
3.911119458
 20
2.2591698118
 10
3.9122978401
 20
2.2592543214
 10
3.9134282953
 20
2.2593295821
 10
3.9145113257
 20
2.2593955318
 10
3.9155475998
 20
2.2594521581
 10
3.9165370147
 20
2.2594994711
 10
3.9174803096
 20
2.2595375699
 10
3.9183780071
 20
2.259566576
 10
3.9192296172
 20
2.2595866268
 10
3.9200359104
 20
2.2595979468
 10
3.9207973752
 20
2.2596007913
 10
3.9215130141
 20
2.2595954777
 10
3.9221834997
 20
2.2595823979
 10
3.9228094322
 20
2.2595619904
 10
3.9233896478
 20
2.2595348387
 10
3.9239253084
 20
2.2595015544
 10
3.9244166804
 20
2.2594628842
 10
3.9248613598
 20
2.2594199467
 10
3.9252605705
 20
2.2593737116
 10
3.9256149462
 20
2.2593252823
 10
3.92592151
 20
2.2592764805
 10
3.9261812917
 20
2.2592288155
 10
3.9263958515
 20
2.2591837998
 10
3.9265633665
 20
2.2591438777
 10
3.9266172391
 20
2.2591298587
  0
LINE
  5
219
100
AcDbEntity
  8
0
100
AcDbLine
 62
7
  6
CONTINUOUS
 10
3.8645125463
 20
2.254904793
 11
3.8696199714
 21
2.2553118005
  0
LINE
  5
21A
100
AcDbEntity
  8
0
100
AcDbLine
 62
7
  6
CONTINUOUS
 10
3.8592106508
 20
2.2545184621
 11
3.8645125463
 21
2.254904793
  0
LWPOLYLINE
  5
21B
100
AcDbEntity
  8
0
100
AcDbPolyline
 62
7
  6
CONTINUOUS
 90
52
 70
0
 10
3.8991076425
 20
2.2740558515
 10
3.9019890744
 20
2.2742401033
 10
3.9056240043
 20
2.2745268029
 10
3.9092830791
 20
2.2748770302
 10
3.9129649162
 20
2.2752924956
 10
3.916666164
 20
2.2757746486
 10
3.9203817349
 20
2.276324376
 10
3.9241096157
 20
2.2769428446
 10
3.9278476354
 20
2.2776311977
 10
3.9315905056
 20
2.2783898584
 10
3.9353361903
 20
2.2792195745
 10
3.9390825623
 20
2.2801210328
 10
3.942824265
 20
2.2810940428
 10
3.9465591655
 20
2.2821390724
 10
3.9502852591
 20
2.283256448
 10
3.9539974428
 20
2.2844453621
 10
3.9576935372
 20
2.2857057666
 10
3.9613717983
 20
2.2870377471
 10
3.965027864
 20
2.2884403381
 10
3.9686595036
 20
2.2899130475
 10
3.9722653031
 20
2.2914556159
 10
3.9758422626
 20
2.2930670748
 10
3.9793885625
 20
2.2947469069
 10
3.9829024545
 20
2.2964946149
 10
3.9863811571
 20
2.2983090188
 10
3.9898231079
 20
2.3001893199
 10
3.9932266331
 20
2.3021346337
 10
3.9965889353
 20
2.3041433713
 10
3.9999084843
 20
2.3062146123
 10
4.0031836998
 20
2.3083473932
 10
4.0064118378
 20
2.3105398241
 10
4.0095915214
 20
2.3127905726
 10
4.0127213646
 20
2.315098244
 10
4.0157987948
 20
2.3174604998
 10
4.0188227858
 20
2.3198760942
 10
4.0217918013
 20
2.3223433696
 10
4.0247026894
 20
2.3248591948
 10
4.0275545536
 20
2.3274220858
 10
4.0303463002
 20
2.330030086
 10
4.0330747695
 20
2.3326791198
 10
4.0357392377
 20
2.3353672505
 10
4.0383390217
 20
2.3380925728
 10
4.0408713505
 20
2.3408508513
 10
4.0433356183
 20
2.3436399677
 10
4.0457314921
 20
2.3464579671
 10
4.0480569043
 20
2.3493001985
 10
4.0503114646
 20
2.3521637188
 10
4.052494995
 20
2.3550458537
 10
4.054606035
 20
2.3579421505
 10
4.0566441147
 20
2.3608493181
 10
4.0586096251
 20
2.3637652741
 10
4.0600901055
 20
2.3660406479
  0
LINE
  5
21C
100
AcDbEntity
  8
0
100
AcDbLine
 62
7
  6
CONTINUOUS
 10
3.8537668174
 20
2.2541622316
 11
3.8592106508
 21
2.2545184621
  0
LWPOLYLINE
  5
21D
100
AcDbEntity
  8
0
100
AcDbPolyline
 62
7
  6
CONTINUOUS
 90
23
 70
0
 10
3.7889682129
 20
2.2535454032
 10
3.7917699563
 20
2.2534295954
 10
3.7945807997
 20
2.2533259044
 10
3.7974001161
 20
2.2532346582
 10
3.8002260917
 20
2.2531562457
 10
3.8030569731
 20
2.2530910491
 10
3.805892229
 20
2.2530391965
 10
3.8087298572
 20
2.2530006552
 10
3.811568122
 20
2.2529753981
 10
3.814406876
 20
2.2529634138
 10
3.8172435793
 20
2.2529647326
 10
3.8200771115
 20
2.2529793983
 10
3.8229094627
 20
2.2530075224
 10
3.8257385642
 20
2.2530491746
 10
3.8285628958
 20
2.2531041205
 10
3.8313852037
 20
2.253172148
 10
3.8342036643
 20
2.2532529988
 10
3.8370164277
 20
2.2533464248
 10
3.8398260483
 20
2.2534523653
 10
3.8426324842
 20
2.2535707359
 10
3.8454317577
 20
2.2537013045
 10
3.8482204785
 20
2.2538437132
 10
3.8537668174
 20
2.2541622316
  0
LINE
  5
21E
100
AcDbEntity
  8
0
100
AcDbLine
 62
7
  6
CONTINUOUS
 10
3.7833979066
 20
2.2538120327
 11
3.7889682129
 21
2.2535454032
  0
LWPOLYLINE
  5
21F
100
AcDbEntity
  8
0
100
AcDbPolyline
 62
7
  6
CONTINUOUS
 90
28
 70
0
 10
3.7439000248
 20
2.2733942566
 10
3.7500323301
 20
2.2730796368
 10
3.7560033156
 20
2.2727916081
 10
3.761826263
 20
2.2725301192
 10
3.767541898
 20
2.2722939053
 10
3.773149497
 20
2.27208346
 10
3.7786471571
 20
2.2718988859
 10
3.7840745855
 20
2.2717389443
 10
3.7894302325
 20
2.2716039235
 10
3.7947123255
 20
2.2714940186
 10
3.7999609658
 20
2.2714087413
 10
3.8051744709
 20
2.2713484034
 10
3.8103506652
 20
2.2713125572
 10
3.8155293156
 20
2.2713006428
 10
3.8207082192
 20
2.2713126849
 10
3.8258850753
 20
2.2713487092
 10
3.8310995015
 20
2.271409326
 10
3.8363494402
 20
2.2714949377
 10
3.8416332831
 20
2.2716051399
 10
3.8469908778
 20
2.2717404293
 10
3.8524203702
 20
2.27190062
 10
3.8579202013
 20
2.2720854356
 10
3.8635299296
 20
2.2722961246
 10
3.869247624
 20
2.2725326005
 10
3.8750724872
 20
2.2727943699
 10
3.8810450481
 20
2.2730826771
 10
3.88717857
 20
2.2733975564
 10
3.8991076294
 20
2.2740558507
  0
LINE
  5
220
100
AcDbEntity
  8
0
100
AcDbLine
 62
7
  6
CONTINUOUS
 10
3.7319083504
 20
2.274055851
 11
3.7439000248
 21
2.2733942566
  0
LINE
  5
221
100
AcDbEntity
  8
0
100
AcDbLine
 62
7
  6
CONTINUOUS
 10
3.7778892764
 20
2.2541227777
 11
3.7833979066
 21
2.2538120327
  0
LINE
  5
222
100
AcDbEntity
  8
0
100
AcDbLine
 62
7
  6
CONTINUOUS
 10
3.7724613951
 20
2.254473222
 11
3.7778892764
 21
2.2541227777
  0
LINE
  5
223
100
AcDbEntity
  8
0
100
AcDbLine
 62
7
  6
CONTINUOUS
 10
3.7671388377
 20
2.2548567674
 11
3.7724613951
 21
2.254473222
  0
LINE
  5
224
100
AcDbEntity
  8
0
100
AcDbLine
 62
7
  6
CONTINUOUS
 10
3.7619447676
 20
2.2552665483
 11
3.7671388377
 21
2.2548567674
  0
LINE
  5
225
100
AcDbEntity
  8
0
100
AcDbLine
 62
7
  6
CONTINUOUS
 10
3.7203895817
 20
2.2591327515
 11
3.7230971808
 21
2.2589152684
  0
LINE
  5
226
100
AcDbEntity
  8
0
100
AcDbLine
 62
7
  6
CONTINUOUS
 10
3.7568984496
 20
2.2556957822
 11
3.7619447676
 21
2.2552665483
  0
LINE
  5
227
100
AcDbEntity
  8
0
100
AcDbLine
 62
7
  6
CONTINUOUS
 10
3.7230971808
 20
2.2589152684
 11
3.726066236
 21
2.2586548902
  0
LINE
  5
228
100
AcDbEntity
  8
0
100
AcDbLine
 62
7
  6
CONTINUOUS
 10
3.7520199416
 20
2.256136446
 11
3.7568984496
 21
2.2556957822
  0
LINE
  5
229
100
AcDbEntity
  8
0
100
AcDbLine
 62
7
  6
CONTINUOUS
 10
3.726066236
 20
2.2586548902
 11
3.7310366331
 21
2.2581862673
  0
LINE
  5
22A
100
AcDbEntity
  8
0
100
AcDbLine
 62
7
  6
CONTINUOUS
 10
3.7450776787
 20
2.2567978911
 11
3.7520199416
 21
2.256136446
  0
LINE
  5
22B
100
AcDbEntity
  8
0
100
AcDbLine
 62
7
  6
CONTINUOUS
 10
3.7310366331
 20
2.2581862673
 11
3.7450776787
 21
2.2567978911
  0
LWPOLYLINE
  5
22C
100
AcDbEntity
  8
0
100
AcDbPolyline
 62
7
  6
CONTINUOUS
 90
41
 70
0
 10
3.5766891789
 20
2.1801396363
 10
3.5784234277
 20
2.1781859867
 10
3.5811512562
 20
2.1752221646
 10
3.5839430512
 20
2.1723183712
 10
3.5867976274
 20
2.1694756582
 10
3.5897136889
 20
2.1666952141
 10
3.5926897987
 20
2.1639783653
 10
3.5957245784
 20
2.1613263772
 10
3.5988165985
 20
2.1587405523
 10
3.6019644578
 20
2.1562220148
 10
3.6051667206
 20
2.1537717024
 10
3.608421753
 20
2.1513907024
 10
3.6117279278
 20
2.1490800981
 10
3.6150838302
 20
2.1468408357
 10
3.6184877646
 20
2.1446740617
 10
3.6219382013
 20
2.1425808154
 10
3.6254340045
 20
2.140561918
 10
3.6289732316
 20
2.1386184723
 10
3.6325543273
 20
2.1367511322
 10
3.6361767508
 20
2.1349600797
 10
3.6398387816
 20
2.1332461667
 10
3.6435386078
 20
2.1316102904
 10
3.6472756244
 20
2.1300528569
 10
3.6510484683
 20
2.1285746764
 10
3.6548550165
 20
2.1271768653
 10
3.6586935437
 20
2.1258602324
 10
3.6625624147
 20
2.1246253618
 10
3.6664597137
 20
2.1234729158
 10
3.6703832718
 20
2.122403611
 10
3.6743313376
 20
2.1214180311
 10
3.6783020582
 20
2.1205167875
 10
3.6822930879
 20
2.119700584
 10
3.6863025022
 20
2.1189700047
 10
3.690328449
 20
2.1183254689
 10
3.6943685246
 20
2.1177672297
 10
3.6984203719
 20
2.1172954914
 10
3.7024819571
 20
2.1169104176
 10
3.7065513324
 20
2.116612182
 10
3.7106263755
 20
2.1164009879
 10
3.7147047889
 20
2.1162770505
 10
3.7179631402
 20
2.1162408793
  0
LINE
  5
22D
100
AcDbEntity
  8
0
100
AcDbLine
 62
7
  6
CONTINUOUS
 10
3.5702509738
 20
2.1883822888
 11
3.5703510658
 21
2.188267656
  0
LINE
  5
22E
100
AcDbEntity
  8
0
100
AcDbLine
 62
7
  6
CONTINUOUS
 10
3.5702520858
 20
2.18838325
 11
3.5703510658
 21
2.188267656
  0
LINE
  5
22F
100
AcDbEntity
  8
0
100
AcDbLine
 62
7
  6
CONTINUOUS
 10
3.3853368153
 20
6.6159618555
 11
3.2121791697
 21
6.3160440154
  0
LINE
  5
230
100
AcDbEntity
  8
0
100
AcDbLine
 62
7
  6
CONTINUOUS
 10
3.5632134034
 20
2.196942252
 11
3.5700499067
 21
2.1881729504
  0
LINE
  5
231
100
AcDbEntity
  8
0
100
AcDbLine
 62
7
  6
CONTINUOUS
 10
3.711304924
 20
2.1248325358
 11
3.7179880825
 21
2.116261692
  0
LINE
  5
232
100
AcDbEntity
  8
0
100
AcDbLine
 62
7
  6
CONTINUOUS
 10
3.4450160861
 20
6.5546863783
 11
3.2950849249
 21
6.2949979894
  0
LWPOLYLINE
  5
233
100
AcDbEntity
  8
0
100
AcDbPolyline
 62
7
  6
CONTINUOUS
 90
52
 70
0
 10
3.570925877
 20
2.3660406517
 10
3.5724429362
 20
2.3637096904
 10
3.5744107588
 20
2.3607918756
 10
3.5764510608
 20
2.3578830937
 10
3.5785644499
 20
2.3549854463
 10
3.5807504301
 20
2.3521025049
 10
3.5830072704
 20
2.349238935
 10
3.5853348607
 20
2.346397051
 10
3.5877329873
 20
2.3435792948
 10
3.5901994173
 20
2.3407902951
 10
3.5927336905
 20
2.3380322014
 10
3.5953352575
 20
2.3353071734
 10
3.5980013523
 20
2.3326195562
 10
3.6007312248
 20
2.3299714383
 10
3.6035240934
 20
2.3273647589
 10
3.6063768063
 20
2.324803358
 10
3.6092881922
 20
2.3222890715
 10
3.6122573629
 20
2.3198234748
 10
3.6152813232
 20
2.3174097934
 10
3.6183585441
 20
2.3150497323
 10
3.6214880308
 20
2.3127444079
 10
3.6246673874
 20
2.3104959265
 10
3.6278952172
 20
2.3083055954
 10
3.6311701704
 20
2.3061746779
 10
3.6344897955
 20
2.3041050475
 10
3.6378526115
 20
2.3020976691
 10
3.6412570155
 20
2.3001535133
 10
3.6447002132
 20
2.2982741697
 10
3.6481806188
 20
2.2964604813
 10
3.6516965909
 20
2.2947133089
 10
3.6552451504
 20
2.2930340897
 10
3.658824524
 20
2.2914233618
 10
3.6624328304
 20
2.2898815799
 10
3.6660667627
 20
2.2884097464
 10
3.6697247713
 20
2.2870080724
 10
3.6734046357
 20
2.2856770223
 10
3.6771019683
 20
2.2844177353
 10
3.6808150925
 20
2.2832302485
 10
3.684541802
 20
2.2821145139
 10
3.6882768365
 20
2.2810711904
 10
3.6920182083
 20
2.2800998517
 10
3.6957639404
 20
2.2792000616
 10
3.6995087442
 20
2.2783720758
 10
3.7032504813
 20
2.2776152822
 10
3.7069873811
 20
2.2769289405
 10
3.7107142994
 20
2.2763125035
 10
3.7144285609
 20
2.2757647184
 10
3.71812781
 20
2.2752842865
 10
3.7218072425
 20
2.2748701746
 10
3.7254637144
 20
2.2745210439
 10
3.7290957331
 20
2.2742353901
 10
3.7319083414
 20
2.2740558515
  0
LINE
  5
234
100
AcDbEntity
  8
0
100
AcDbLine
 62
7
  6
CONTINUOUS
 10
3.5647675355
 20
2.3756889839
 11
3.5709258744
 21
2.3660406557
  0
LINE
  5
235
100
AcDbEntity
  8
0
100
AcDbLine
 62
7
  6
CONTINUOUS
 10
3.5585395214
 20
2.3855316691
 11
3.5647675355
 21
2.3756889839
  0
LINE
  5
236
100
AcDbEntity
  8
0
100
AcDbLine
 62
7
  6
CONTINUOUS
 10
3.5526267505
 20
2.3949770687
 11
3.5585395214
 21
2.3855316691
  0
LINE
  5
237
100
AcDbEntity
  8
0
100
AcDbLine
 62
7
  6
CONTINUOUS
 10
3.5469633968
 20
2.404134471
 11
3.5526267505
 21
2.3949770687
  0
LWPOLYLINE
  5
238
100
AcDbEntity
  8
0
100
AcDbPolyline
 62
7
  6
CONTINUOUS
 90
7
 70
0
 10
3.5502028418
 20
2.2160348977
 10
3.5518517478
 20
2.2133207534
 10
3.5539882818
 20
2.2099480123
 10
3.5561937984
 20
2.2066221939
 10
3.5584671956
 20
2.2033449687
 10
3.5608074209
 20
2.2001178347
 10
3.5632134034
 20
2.196942252
  0
LWPOLYLINE
  5
239
100
AcDbEntity
  8
0
100
AcDbPolyline
 62
7
  6
CONTINUOUS
 90
4
 70
0
 10
3.5361783034
 20
2.4219309382
 10
3.5388233937
 20
2.4175183997
 10
3.5414926008
 20
2.4130983507
 10
3.5469633968
 20
2.404134471
  0
LINE
  5
23A
100
AcDbEntity
  8
0
100
AcDbLine
 62
7
  6
CONTINUOUS
 10
3.5309644107
 20
2.4307258699
 11
3.5361783034
 21
2.4219309382
  0
LINE
  5
23B
100
AcDbEntity
  8
0
100
AcDbLine
 62
7
  6
CONTINUOUS
 10
3.5453283425
 20
2.2243288932
 11
3.550202842
 21
2.2160348973
  0
LINE
  5
23C
100
AcDbEntity
  8
0
100
AcDbLine
 62
7
  6
CONTINUOUS
 10
3.5323090558
 20
2.2465161779
 11
3.5453283425
 21
2.2243288932
  0
LINE
  5
23D
100
AcDbEntity
  8
0
100
AcDbLine
 62
7
  6
CONTINUOUS
 10
3.4875206599
 20
2.3230713055
 11
3.5323090558
 21
2.2465161779
  0
LINE
  5
23E
100
AcDbEntity
  8
0
100
AcDbLine
 62
7
  6
CONTINUOUS
 10
3.5257953991
 20
2.4395741686
 11
3.5309644107
 21
2.4307258699
  0
LINE
  5
23F
100
AcDbEntity
  8
0
100
AcDbLine
 62
7
  6
CONTINUOUS
 10
3.4534485661
 20
2.3816008784
 11
3.4875206599
 21
2.3230713055
  0
LINE
  5
240
100
AcDbEntity
  8
0
100
AcDbLine
 62
7
  6
CONTINUOUS
 10
3.4447086306
 20
2.3966539146
 11
3.4534485661
 21
2.3816008784
  0
LINE
  5
241
100
AcDbEntity
  8
0
100
AcDbLine
 62
7
  6
CONTINUOUS
 10
3.5206384598
 20
2.4485328932
 11
3.5257953991
 21
2.4395741686
  0
LINE
  5
242
100
AcDbEntity
  8
0
100
AcDbLine
 62
7
  6
CONTINUOUS
 10
3.5154409558
 20
2.4576967345
 11
3.5206384598
 21
2.4485328932
  0
LINE
  5
243
100
AcDbEntity
  8
0
100
AcDbLine
 62
7
  6
CONTINUOUS
 10
3.510148788
 20
2.4671592359
 11
3.5154409558
 21
2.4576967345
  0
LWPOLYLINE
  5
244
100
AcDbEntity
  8
0
100
AcDbPolyline
 62
7
  6
CONTINUOUS
 90
3
 70
0
 10
3.5019472844
 20
2.4820609543
 10
3.5047271748
 20
2.4769797891
 10
3.510148788
 20
2.4671592359
  0
LINE
  5
245
100
AcDbEntity
  8
0
100
AcDbLine
 62
7
  6
CONTINUOUS
 10
4.1783619693
 20
6.5641962632
 11
4.1750506731
 21
6.5605775669
  0
LINE
  5
246
100
AcDbEntity
  8
0
100
AcDbLine
 62
7
  6
CONTINUOUS
 10
3.4526540157
 20
5.7711181044
 11
3.4559653119
 21
5.7747368008
  0
LINE
  5
247
100
AcDbEntity
  8
0
100
AcDbLine
 62
7
  6
CONTINUOUS
 10
3.3965124011
 20
5.713942684
 11
3.3928402561
 21
5.7099662569
  0
LINE
  5
248
100
AcDbEntity
  8
0
100
AcDbLine
 62
7
  6
CONTINUOUS
 10
4.2345035838
 20
6.6213716836
 11
4.2381757289
 21
6.6253481108
  0
LINE
  5
249
100
AcDbEntity
  8
0
100
AcDbLine
 62
7
  6
CONTINUOUS
 10
3.4962325162
 20
2.4925936757
 11
3.5019472844
 21
2.4820609543
  0
LINE
  5
24A
100
AcDbEntity
  8
0
100
AcDbLine
 62
7
  6
CONTINUOUS
 10
3.4876922936
 20
2.5087947912
 11
3.4876138971
 21
2.5089413221
  0
LWPOLYLINE
  5
24B
100
AcDbEntity
  8
0
100
AcDbPolyline
 62
7
  6
CONTINUOUS
 90
3
 70
0
 10
3.4874965518
 20
2.5088798225
 10
3.4902448998
 20
2.5037359225
 10
3.4962325162
 20
2.4925936757
  0
LINE
  5
24C
100
AcDbEntity
  8
0
100
AcDbLine
 62
7
  6
CONTINUOUS
 10
3.4876922936
 20
2.5087947912
 11
3.4876149785
 21
2.5089420151
  0
LWPOLYLINE
  5
24D
100
AcDbEntity
  8
0
100
AcDbPolyline
 62
7
  6
CONTINUOUS
 90
5
 70
0
 10
5.3502591273
 20
6.3185517873
 10
5.3498240979
 20
6.3183817793
 10
5.3492270038
 20
6.3181609063
 10
5.3486337978
 20
6.3179554881
 10
5.3480543443
 20
6.3177681064
  0
LWPOLYLINE
  5
24E
100
AcDbEntity
  8
0
100
AcDbPolyline
 62
7
  6
CONTINUOUS
 90
14
 70
0
 10
5.3480543443
 20
6.3177681064
 10
5.3474800804
 20
6.3175951388
 10
5.3468843312
 20
6.3174288304
 10
5.3462563224
 20
6.3172677407
 10
5.3456069679
 20
6.3171162767
 10
5.3449424866
 20
6.3169769325
 10
5.3442646612
 20
6.3168508674
 10
5.3435721135
 20
6.31673862
 10
5.3428664518
 20
6.3166412643
 10
5.3421484061
 20
6.3165596593
 10
5.3414178755
 20
6.3164945606
 10
5.3406752883
 20
6.3164467967
 10
5.3399210712
 20
6.3164171923
 10
5.339122491
 20
6.3164065533
  0
LINE
  5
24F
100
AcDbEntity
  8
0
100
AcDbLine
 62
7
  6
CONTINUOUS
 10
4.1292048354
 20
2.5299347826
 11
4.1433236914
 21
2.5087947912
  0
LINE
  5
250
100
AcDbEntity
  8
0
100
AcDbLine
 62
7
  6
CONTINUOUS
 10
3.9989384797
 20
6.7573752599
 11
4.0005460941
 21
6.7625436444
  0
LINE
  5
251
100
AcDbEntity
  8
0
100
AcDbLine
 62
7
  6
CONTINUOUS
 10
3.9774939204
 20
6.6801674853
 11
3.9760156856
 21
6.6754904705
  0
LINE
  5
252
100
AcDbEntity
  8
0
100
AcDbLine
 62
7
  6
CONTINUOUS
 10
4.1292048354
 20
2.7145721018
 11
4.1433236914
 21
2.6934321104
  0
LINE
  5
253
100
AcDbEntity
  8
0
100
AcDbLine
 62
7
  6
CONTINUOUS
 10
4.1433452474
 20
2.6933963077
 11
4.1433236914
 21
2.6934321104
  0
LINE
  5
254
100
AcDbEntity
  8
0
100
AcDbLine
 62
7
  6
CONTINUOUS
 10
4.1346525699
 20
2.7083677746
 11
4.1003805241
 21
2.7672061823
  0
LINE
  5
255
100
AcDbEntity
  8
0
100
AcDbLine
 62
7
  6
CONTINUOUS
 10
4.1433452565
 20
2.693396292
 11
4.1346525699
 21
2.7083677746
  0
LINE
  5
256
100
AcDbEntity
  8
0
100
AcDbLine
 62
7
  6
CONTINUOUS
 10
4.1735786867
 20
2.6027986362
 11
4.1669979441
 21
2.6148076889
  0
LINE
  5
257
100
AcDbEntity
  8
0
100
AcDbLine
 62
7
  6
CONTINUOUS
 10
4.1819122503
 20
2.5874485378
 11
4.1735786867
 21
2.6027986362
  0
LINE
  5
258
100
AcDbEntity
  8
0
100
AcDbLine
 62
7
  6
CONTINUOUS
 10
4.1864569521
 20
2.579017615
 11
4.1819122503
 21
2.5874485378
  0
LINE
  5
259
100
AcDbEntity
  8
0
100
AcDbLine
 62
7
  6
CONTINUOUS
 10
3.4636562032
 20
2.6024652701
 11
3.4636547387
 21
2.6026168016
  0
LWPOLYLINE
  5
25A
100
AcDbEntity
  8
0
100
AcDbPolyline
 62
7
  6
CONTINUOUS
 90
28
 70
0
 10
3.4636040976
 20
2.6024647665
 10
3.4636272389
 20
2.5995072409
 10
3.4637213329
 20
2.5958034499
 10
3.4638877296
 20
2.592098855
 10
3.4641263386
 20
2.588394826
 10
3.4644370065
 20
2.5846935422
 10
3.4648193623
 20
2.5809978037
 10
3.4652730658
 20
2.5773089144
 10
3.4657977384
 20
2.5736284368
 10
3.4663927039
 20
2.5699594361
 10
3.4670573743
 20
2.5663034082
 10
3.4677911407
 20
2.5626618067
 10
3.4685930223
 20
2.5590376367
 10
3.4694623088
 20
2.5554319947
 10
3.4703980841
 20
2.5518465854
 10
3.4713987733
 20
2.5482852378
 10
3.4724633942
 20
2.5447490021
 10
3.4735907433
 20
2.5412394518
 10
3.4747785494
 20
2.5377610782
 10
3.47602542
 20
2.534315065
 10
3.4773299136
 20
2.5309025855
 10
3.4786892518
 20
2.5275279486
 10
3.4801016897
 20
2.5241922478
 10
3.4815655007
 20
2.520896467
 10
3.4830774755
 20
2.517644533
 10
3.4846351562
 20
2.5144382457
 10
3.4862369162
 20
2.5112775002
 10
3.4874965516
 20
2.5088798229
  0
LINE
  5
25B
100
AcDbEntity
  8
0
100
AcDbLine
 62
7
  6
CONTINUOUS
 10
3.4636547997
 20
2.6024653433
 11
3.4636547387
 21
2.6026168016
  0
LINE
  5
25C
100
AcDbEntity
  8
0
100
AcDbLine
 62
7
  6
CONTINUOUS
 10
3.5305079925
 20
2.6335690863
 11
3.5305079925
 21
2.6351361075
  0
LINE
  5
25D
100
AcDbEntity
  8
0
100
AcDbLine
 62
7
  6
CONTINUOUS
 10
3.5306354695
 20
6.1677280867
 11
3.5306354608
 21
2.63929578
  0
LINE
  5
25E
100
AcDbEntity
  8
0
100
AcDbLine
 62
7
  6
CONTINUOUS
 10
4.33593106
 20
6.0403163783
 11
4.1859998988
 21
5.7806279894
  0
LINE
  5
25F
100
AcDbEntity
  8
0
100
AcDbLine
 62
7
  6
CONTINUOUS
 10
4.1495198009
 20
2.6817447409
 11
4.1495512507
 21
2.6816810389
  0
LINE
  5
260
100
AcDbEntity
  8
0
100
AcDbLine
 62
7
  6
CONTINUOUS
 10
4.1495204054
 20
2.6817450471
 11
4.1497097049
 21
2.6813512391
  0
LINE
  5
261
100
AcDbEntity
  8
0
100
AcDbLine
 62
7
  6
CONTINUOUS
 10
3.8914754844
 20
2.3075505366
 11
3.8985349123
 21
2.2743239458
  0
LINE
  5
262
100
AcDbEntity
  8
0
100
AcDbLine
 62
7
  6
CONTINUOUS
 10
3.7170079925
 20
2.2593650892
 11
3.7170079925
 21
2.2052945244
  0
LINE
  5
263
100
AcDbEntity
  8
0
100
AcDbLine
 62
7
  6
CONTINUOUS
 10
4.0532373436
 20
2.3998691962
 11
4.0602967715
 21
2.3666426054
  0
LINE
  5
264
100
AcDbEntity
  8
0
100
AcDbLine
 62
7
  6
CONTINUOUS
 10
3.9140079925
 20
2.259364882
 11
3.9140079925
 21
2.2052945244
  0
LINE
  5
265
100
AcDbEntity
  8
0
100
AcDbLine
 62
7
  6
CONTINUOUS
 10
3.5777786414
 20
2.3998691962
 11
3.5707192135
 21
2.3666426054
  0
LWPOLYLINE
  5
266
100
AcDbEntity
  8
0
100
AcDbPolyline
 62
7
  6
CONTINUOUS
 90
28
 70
0
 10
4.1674118874
 20
2.6024647668
 10
4.1673885065
 20
2.6054350917
 10
4.1672935861
 20
2.6091437428
 10
4.1671257962
 20
2.612845075
 10
4.1668852464
 20
2.6165376747
 10
4.1665721097
 20
2.620219323
 10
4.1661867787
 20
2.6238871598
 10
4.1657296112
 20
2.6275398058
 10
4.1652010042
 20
2.6311756135
 10
4.1646016584
 20
2.6347914291
 10
4.1639321806
 20
2.638385645
 10
4.1631931947
 20
2.6419566926
 10
4.1623857046
 20
2.6455014599
 10
4.1615104472
 20
2.6490186687
 10
4.1605683398
 20
2.6525065189
 10
4.1595609402
 20
2.6559612118
 10
4.1584892473
 20
2.6593814907
 10
4.1573544487
 20
2.6627656643
 10
4.1561587352
 20
2.6661094234
 10
4.1549034805
 20
2.6694114041
 10
4.1535901006
 20
2.6726702468
 10
4.1522212609
 20
2.675881824
 10
4.1507986615
 20
2.679044852
 10
4.1493239864
 20
2.6821581382
 10
4.1478003127
 20
2.6852178975
 10
4.1462300086
 20
2.6882222428
 10
4.144614664
 20
2.6911709428
 10
4.1433452474
 20
2.6933963077
  0
LINE
  5
267
100
AcDbEntity
  8
0
100
AcDbLine
 62
7
  6
CONTINUOUS
 10
4.1003805241
 20
2.63929578
 11
4.1003804927
 21
6.1677922044
  0
LINE
  5
268
100
AcDbEntity
  8
0
100
AcDbLine
 62
7
  6
CONTINUOUS
 10
4.1005079925
 20
2.6335690863
 11
4.1005079925
 21
2.6351361075
  0
LINE
  5
269
100
AcDbEntity
  8
0
100
AcDbLine
 62
7
  6
CONTINUOUS
 10
4.1673612463
 20
2.6026168016
 11
4.1673611853
 21
2.6024653436
  0
LINE
  5
26A
100
AcDbEntity
  8
0
100
AcDbLine
 62
7
  6
CONTINUOUS
 10
4.1673612463
 20
2.6026168016
 11
4.1673597817
 21
2.6024652704
  0
LINE
  5
26B
100
AcDbEntity
  8
0
100
AcDbLine
 62
7
  6
CONTINUOUS
 10
3.7395405006
 20
2.3075505366
 11
3.7324810726
 21
2.2743239458
  0
LINE
  5
26C
100
AcDbEntity
  8
0
100
AcDbLine
 62
7
  6
CONTINUOUS
 10
5.2402559064
 20
6.211345995
 11
5.2871656157
 21
6.2789596314
  0
LWPOLYLINE
  5
26D
100
AcDbEntity
  8
0
100
AcDbPolyline
 62
7
  6
CONTINUOUS
 90
3
 70
0
 10
5.2644526437
 20
6.2462219453
 10
5.2664455773
 20
6.2490946777
 10
5.2683995089
 20
6.2519113637
  0
LWPOLYLINE
  5
26E
100
AcDbEntity
  8
0
100
AcDbPolyline
 62
7
  6
CONTINUOUS
 90
3
 70
0
 10
5.2582490523
 20
6.2372802628
 10
5.2603531174
 20
6.2403132466
 10
5.2624209117
 20
6.2432941466
  0
LWPOLYLINE
  5
26F
100
AcDbEntity
  8
0
100
AcDbPolyline
 62
7
  6
CONTINUOUS
 90
3
 70
0
 10
5.2517303291
 20
6.2278843817
 10
5.2539360974
 20
6.2310640362
 10
5.2561089249
 20
6.2341963905
  0
LINE
  5
270
100
AcDbEntity
  8
0
100
AcDbLine
 62
7
  6
CONTINUOUS
 10
5.2721888513
 20
6.2573727423
 11
5.2740218482
 21
6.2600150373
  0
LINE
  5
271
100
AcDbEntity
  8
0
100
AcDbLine
 62
7
  6
CONTINUOUS
 10
5.2775638094
 20
6.265119995
 11
5.2792714311
 21
6.2675815615
  0
LINE
  5
272
100
AcDbEntity
  8
0
100
AcDbLine
 62
7
  6
CONTINUOUS
 10
5.2426074792
 20
6.2147328273
 11
5.2449304356
 21
6.2180815739
  0
LINE
  5
273
100
AcDbEntity
  8
0
100
AcDbLine
 62
7
  6
CONTINUOUS
 10
5.2825591068
 20
6.2723201072
 11
5.2841378085
 21
6.2745959396
  0
LINE
  5
274
100
AcDbEntity
  8
0
100
AcDbLine
 62
7
  6
CONTINUOUS
 10
5.2472247757
 20
6.2213906115
 11
5.2494918606
 21
6.2246588998
  0
LINE
  5
275
100
AcDbEntity
  8
0
100
AcDbLine
 62
7
  6
CONTINUOUS
 10
3.2121791697
 20
6.0192703522
 11
3.3853368153
 21
5.7193525122
  0
LINE
  5
276
100
AcDbEntity
  8
0
100
AcDbLine
 62
7
  6
CONTINUOUS
 10
3.4813602744
 20
2.6814638243
 11
3.4814833068
 21
2.6817195925
  0
LWPOLYLINE
  5
277
100
AcDbEntity
  8
0
100
AcDbPolyline
 62
7
  6
CONTINUOUS
 90
52
 70
0
 10
3.444559033
 20
2.5790176153
 10
3.4431511733
 20
2.5763172775
 10
3.4414256869
 20
2.5728657774
 10
3.4397674402
 20
2.5693846852
 10
3.4381773049
 20
2.5658759181
 10
3.4366557942
 20
2.5623408268
 10
3.4352032252
 20
2.5587802677
 10
3.4338201804
 20
2.5551957494
 10
3.4325072283
 20
2.5515889404
 10
3.4312647238
 20
2.5479609027
 10
3.4300932103
 20
2.5443132586
 10
3.4289931347
 20
2.5406476384
 10
3.4279647675
 20
2.5369650821
 10
3.4270085579
 20
2.533267173
 10
3.4261248969
 20
2.5295555906
 10
3.425313999
 20
2.5258315034
 10
3.4245762046
 20
2.522096549
 10
3.4239118502
 20
2.5183523817
 10
3.4233211049
 20
2.5146002089
 10
3.4228041705
 20
2.5108417515
 10
3.4223612375
 20
2.5070786593
 10
3.4219924519
 20
2.5033120444
 10
3.421697987
 20
2.4995436106
 10
3.4214778875
 20
2.4957750339
 10
3.4213321663
 20
2.4920073792
 10
3.4212608931
 20
2.4882423772
 10
3.4212641284
 20
2.4844816869
 10
3.4213418499
 20
2.4807262551
 10
3.4214939772
 20
2.4769777873
 10
3.4217204311
 20
2.473237928
 10
3.4220212054
 20
2.4695075333
 10
3.4223962115
 20
2.4657882081
 10
3.4228452531
 20
2.4620816808
 10
3.4233682236
 20
2.4583890075
 10
3.4239649724
 20
2.4547117681
 10
3.4246352445
 20
2.4510517136
 10
3.4253787991
 20
2.44741017
 10
3.4261953389
 20
2.4437888109
 10
3.4270845406
 20
2.4401892689
 10
3.428046094
 20
2.4366128044
 10
3.4290795801
 20
2.4330610952
 10
3.43018458
 20
2.4295357263
 10
3.4313607574
 20
2.426037809
 10
3.4326076256
 20
2.4225689324
 10
3.4339246458
 20
2.4191307119
 10
3.4353113947
 20
2.4157243082
 10
3.436767257
 20
2.412351376
 10
3.4382916466
 20
2.4090133554
 10
3.4398842297
 20
2.4057111189
 10
3.4415444482
 20
2.4024460233
 10
3.4432713632
 20
2.3992199858
 10
3.4447086308
 20
2.3966539142
  0
LINE
  5
278
100
AcDbEntity
  8
0
100
AcDbLine
 62
7
  6
CONTINUOUS
 10
5.3131463778
 20
6.2864071838
 11
5.2662366685
 21
6.2051571838
  0
LINE
  5
279
100
AcDbEntity
  8
0
100
AcDbLine
 62
7
  6
CONTINUOUS
 10
5.3261201684
 20
6.2814071838
 11
5.2770536907
 21
6.1964215516
  0
LINE
  5
27A
100
AcDbEntity
  8
0
100
AcDbLine
 62
7
  6
CONTINUOUS
 10
3.2950849249
 20
6.0403163783
 11
3.4450160861
 21
5.7806279894
  0
LINE
  5
27B
100
AcDbEntity
  8
0
100
AcDbLine
 62
7
  6
CONTINUOUS
 10
3.6535220646
 20
6.6801674853
 11
3.6550002994
 21
6.6754904705
  0
LINE
  5
27C
100
AcDbEntity
  8
0
100
AcDbLine
 62
7
  6
CONTINUOUS
 10
3.6320775053
 20
6.7573752599
 11
3.6304698909
 21
6.7625436444
  0
LINE
  5
27D
100
AcDbEntity
  8
0
100
AcDbLine
 62
7
  6
CONTINUOUS
 10
3.4491361664
 20
2.5875085308
 11
3.4445590328
 21
2.5790176149
  0
LINE
  5
27E
100
AcDbEntity
  8
0
100
AcDbLine
 62
7
  6
CONTINUOUS
 10
3.4574724946
 20
2.6028631702
 11
3.4491361664
 21
2.5875085308
  0
LINE
  5
27F
100
AcDbEntity
  8
0
100
AcDbLine
 62
7
  6
CONTINUOUS
 10
3.4640179634
 20
2.6148074603
 11
3.4574724946
 21
2.6028631702
  0
LWPOLYLINE
  5
280
100
AcDbEntity
  8
0
100
AcDbPolyline
 62
7
  6
CONTINUOUS
 90
28
 70
0
 10
3.4876707381
 20
2.6933963085
 10
3.4863698673
 20
2.691114798
 10
3.4847553384
 20
2.688164947
 10
3.4831858679
 20
2.6851594628
 10
3.481663152
 20
2.682098733
 10
3.4801895429
 20
2.6789846525
 10
3.4787680558
 20
2.675820907
 10
3.4774003548
 20
2.6726086251
 10
3.4760881183
 20
2.6693490986
 10
3.4748340551
 20
2.6660465018
 10
3.4736395612
 20
2.6627021942
 10
3.4725060017
 20
2.6593175237
 10
3.4714355807
 20
2.6558968011
 10
3.4704294568
 20
2.6524417111
 10
3.4694886444
 20
2.6489535217
 10
3.4686147032
 20
2.6454360279
 10
3.4678085255
 20
2.6418910216
 10
3.46707086
 20
2.638319774
 10
3.4664027145
 20
2.6347253766
 10
3.4658046962
 20
2.631109394
 10
3.4652774091
 20
2.6274734421
 10
3.4648215678
 20
2.6238206802
 10
3.4644375606
 20
2.620152741
 10
3.4641257388
 20
2.6164710119
 10
3.4638865037
 20
2.6127783338
 10
3.4637200331
 20
2.6090769099
 10
3.4636264338
 20
2.6053681437
 10
3.4636040976
 20
2.6024647668
  0
LINE
  5
281
100
AcDbEntity
  8
0
100
AcDbLine
 62
7
  6
CONTINUOUS
 10
5.5238958166
 20
6.0539071838
 11
5.5729622942
 21
6.138892816
  0
LINE
  5
282
100
AcDbEntity
  8
0
100
AcDbLine
 62
7
  6
CONTINUOUS
 10
5.5368696071
 20
6.0489071838
 11
5.5837793165
 21
6.1301571838
  0
LINE
  5
283
100
AcDbEntity
  8
0
100
AcDbLine
 62
7
  6
CONTINUOUS
 10
3.4903734565
 20
2.6980525563
 11
3.4876707285
 21
2.6933962919
  0
LINE
  5
284
100
AcDbEntity
  8
0
100
AcDbLine
 62
7
  6
CONTINUOUS
 10
3.5306354608
 20
2.7672063468
 11
3.4903734565
 21
2.6980525563
  0
LINE
  5
285
100
AcDbEntity
  8
0
100
AcDbLine
 62
7
  6
CONTINUOUS
 10
3.4876707381
 20
2.6933963085
 11
3.4876922936
 21
2.6934321104
  0
LINE
  5
286
100
AcDbEntity
  8
0
100
AcDbLine
 62
7
  6
CONTINUOUS
 10
4.6855079925
 20
5.6989071838
 11
4.6855079925
 21
6.6364071838
  0
LINE
  5
287
100
AcDbEntity
  8
0
100
AcDbLine
 62
7
  6
CONTINUOUS
 10
4.7096083891
 20
5.6806499319
 11
4.7096083891
 21
5.7910053911
  0
LINE
  5
288
100
AcDbEntity
  8
0
100
AcDbLine
 62
7
  6
CONTINUOUS
 10
4.7096083891
 20
6.0573017246
 11
4.7096083891
 21
6.278012643
  0
LINE
  5
289
100
AcDbEntity
  8
0
100
AcDbLine
 62
7
  6
CONTINUOUS
 10
4.7096083891
 20
6.5443089766
 11
4.7096083891
 21
6.6546644358
  0
LINE
  5
28A
100
AcDbEntity
  8
0
100
AcDbLine
 62
7
  6
CONTINUOUS
 10
4.7178251852
 20
6.2789419254
 11
4.7178251852
 21
6.0563724423
  0
LINE
  5
28B
100
AcDbEntity
  8
0
100
AcDbLine
 62
7
  6
CONTINUOUS
 10
4.7178251852
 20
5.6765489364
 11
4.7178251852
 21
5.787833678
  0
LINE
  5
28C
100
AcDbEntity
  8
0
100
AcDbLine
 62
7
  6
CONTINUOUS
 10
4.7178251852
 20
6.5474806897
 11
4.7178251852
 21
6.6587654313
  0
LINE
  5
28D
100
AcDbEntity
  8
0
100
AcDbLine
 62
7
  6
CONTINUOUS
 10
3.5018111495
 20
2.7145721018
 11
3.4876922936
 21
2.6934321104
  0
LINE
  5
28E
100
AcDbEntity
  8
0
100
AcDbLine
 62
7
  6
CONTINUOUS
 10
3.5018111495
 20
2.5299347826
 11
3.4876922936
 21
2.5087947912
  0
LINE
  5
28F
100
AcDbEntity
  8
0
100
AcDbLine
 62
7
  6
CONTINUOUS
 10
4.8591907998
 20
6.6587654313
 11
4.8591907998
 21
6.5474806897
  0
LINE
  5
290
100
AcDbEntity
  8
0
100
AcDbLine
 62
7
  6
CONTINUOUS
 10
4.8591907998
 20
5.787833678
 11
4.8591907998
 21
5.6765489364
  0
LINE
  5
291
100
AcDbEntity
  8
0
100
AcDbLine
 62
7
  6
CONTINUOUS
 10
4.8591907998
 20
6.0563724423
 11
4.8591907998
 21
6.2789419254
  0
LINE
  5
292
100
AcDbEntity
  8
0
100
AcDbLine
 62
7
  6
CONTINUOUS
 10
4.8674075958
 20
6.6546644358
 11
4.8674075958
 21
6.5443089766
  0
LINE
  5
293
100
AcDbEntity
  8
0
100
AcDbLine
 62
7
  6
CONTINUOUS
 10
4.8674075958
 20
6.278012643
 11
4.8674075958
 21
6.0573017246
  0
LINE
  5
294
100
AcDbEntity
  8
0
100
AcDbLine
 62
7
  6
CONTINUOUS
 10
4.8674075958
 20
5.7910053911
 11
4.8674075958
 21
5.6806499319
  0
LINE
  5
295
100
AcDbEntity
  8
0
100
AcDbLine
 62
7
  6
CONTINUOUS
 10
4.8915079925
 20
5.6989071838
 11
4.8915079925
 21
6.6364071838
  0
LINE
  5
296
100
AcDbEntity
  8
0
100
AcDbLine
 62
7
  6
CONTINUOUS
 10
4.9571000973
 20
5.7534476194
 11
4.9571000973
 21
6.5818667482
  0
LINE
  5
297
100
AcDbEntity
  8
0
100
AcDbLine
 62
7
  6
CONTINUOUS
 10
5.0530240602
 20
5.7782490435
 11
5.0530240602
 21
6.5570653241
  0
LINE
  5
298
100
AcDbEntity
  8
0
100
AcDbLine
 62
7
  6
CONTINUOUS
 10
5.0887963295
 20
5.8136865822
 11
5.0887963295
 21
6.5216277855
  0
LINE
  5
299
100
AcDbEntity
  8
0
100
AcDbLine
 62
7
  6
CONTINUOUS
 10
5.1230670856
 20
6.2958149102
 11
5.1231730107
 21
6.3145284715
  0
LINE
  5
29A
100
AcDbEntity
  8
0
100
AcDbLine
 62
7
  6
CONTINUOUS
 10
5.1231730107
 20
6.3145284715
 11
5.1232819898
 21
6.3282327038
  0
LINE
  5
29B
100
AcDbEntity
  8
0
100
AcDbLine
 62
7
  6
CONTINUOUS
 10
5.1232819898
 20
6.3282327038
 11
5.1233819415
 21
6.3370176815
  0
LINE
  5
29C
100
AcDbEntity
  8
0
100
AcDbLine
 62
7
  6
CONTINUOUS
 10
5.1233819415
 20
6.3370176815
 11
5.1234411513
 21
6.3407524144
  0
LINE
  5
29D
100
AcDbEntity
  8
0
100
AcDbLine
 62
7
  6
CONTINUOUS
 10
5.1234411513
 20
6.3407524144
 11
5.1234790495
 21
6.3426084409
  0
LINE
  5
29E
100
AcDbEntity
  8
0
100
AcDbLine
 62
7
  6
CONTINUOUS
 10
5.1234790495
 20
6.3426084409
 11
5.1235043072
 21
6.3436187404
  0
LINE
  5
29F
100
AcDbEntity
  8
0
100
AcDbLine
 62
7
  6
CONTINUOUS
 10
5.1235043072
 20
6.3436187404
 11
5.1235230493
 21
6.3442507184
  0
LINE
  5
2A0
100
AcDbEntity
  8
0
100
AcDbLine
 62
7
  6
CONTINUOUS
 10
5.1235230493
 20
6.3442507184
 11
5.1235358042
 21
6.3446222216
  0
LINE
  5
2A1
100
AcDbEntity
  8
0
100
AcDbLine
 62
7
  6
CONTINUOUS
 10
5.1235358042
 20
6.3446222216
 11
5.1235461077
 21
6.3448862126
  0
LINE
  5
2A2
100
AcDbEntity
  8
0
100
AcDbLine
 62
7
  6
CONTINUOUS
 10
5.1235461077
 20
6.3448862126
 11
5.1235527876
 21
6.3450390577
  0
LINE
  5
2A3
100
AcDbEntity
  8
0
100
AcDbLine
 62
7
  6
CONTINUOUS
 10
5.1235527876
 20
6.3450390577
 11
5.1235586872
 21
6.3451609845
  0
LINE
  5
2A4
100
AcDbEntity
  8
0
100
AcDbLine
 62
7
  6
CONTINUOUS
 10
5.1235586872
 20
6.3451609845
 11
5.1235617325
 21
6.345218567
  0
LWPOLYLINE
  5
2A5
100
AcDbEntity
  8
0
100
AcDbPolyline
 62
7
  6
CONTINUOUS
 90
3
 70
0
 10
5.1235626458
 20
6.3452350403
 10
5.1235650241
 20
6.3452759679
 10
5.1235656806
 20
6.3452866974
  0
LINE
  5
2A6
100
AcDbEntity
  8
0
100
AcDbLine
 62
7
  6
CONTINUOUS
 10
5.1235667415
 20
6.3453033921
 11
5.1235671379
 21
6.3453093769
  0
LINE
  5
2A7
100
AcDbEntity
  8
0
100
AcDbLine
 62
7
  6
CONTINUOUS
 10
4.1434010055
 20
2.5089420127
 11
4.1433236914
 21
2.5087947912
  0
LWPOLYLINE
  5
2A8
100
AcDbEntity
  8
0
100
AcDbPolyline
 62
7
  6
CONTINUOUS
 90
28
 70
0
 10
4.1435194321
 20
2.5088798203
 10
4.1448100478
 20
2.5113374237
 10
4.1464109472
 20
2.5144989853
 10
4.147967774
 20
2.5177061165
 10
4.1494787955
 20
2.5209587745
 10
4.1509415667
 20
2.5242551416
 10
4.1523529293
 20
2.5275913802
 10
4.1537111759
 20
2.5309665838
 10
4.1550145809
 20
2.5343796365
 10
4.1562603135
 20
2.5378261732
 10
4.1574469529
 20
2.5413050119
 10
4.1585731134
 20
2.5448149859
 10
4.1596365052
 20
2.5483515908
 10
4.1606359535
 20
2.5519132421
 10
4.1615704608
 20
2.55549889
 10
4.1624384516
 20
2.5591047062
 10
4.1632390347
 20
2.5627289777
 10
4.1639714887
 20
2.5663706274
 10
4.1646348334
 20
2.5700266847
 10
4.1652284773
 20
2.5736956924
 10
4.1657518344
 20
2.5773761447
 10
4.1662042172
 20
2.5810649905
 10
4.1665852556
 20
2.5847606783
 10
4.1668946157
 20
2.5884618917
 10
4.1671319179
 20
2.5921658644
 10
4.1672970038
 20
2.5958704376
 10
4.1673897845
 20
2.5995742461
 10
4.1674118874
 20
2.6024647665
  0
LINE
  5
2A9
100
AcDbEntity
  8
0
100
AcDbLine
 62
7
  6
CONTINUOUS
 10
4.1434020866
 20
2.5089413199
 11
4.1433236914
 21
2.5087947912
  0
LINE
  5
2AA
100
AcDbEntity
  8
0
100
AcDbLine
 62
7
  6
CONTINUOUS
 10
4.1377769056
 20
2.4981521492
 11
4.1435194319
 21
2.50887982
  0
LINE
  5
2AB
100
AcDbEntity
  8
0
100
AcDbLine
 62
7
  6
CONTINUOUS
 10
4.1319269276
 20
2.487315357
 11
4.1377769056
 21
2.4981521492
  0
LINE
  5
2AC
100
AcDbEntity
  8
0
100
AcDbLine
 62
7
  6
CONTINUOUS
 10
4.1263236507
 20
2.4770430677
 11
4.1319269276
 21
2.487315357
  0
LINE
  5
2AD
100
AcDbEntity
  8
0
100
AcDbLine
 62
7
  6
CONTINUOUS
 10
4.1209042886
 20
2.4672251964
 11
4.1263236507
 21
2.4770430677
  0
LINE
  5
2AE
100
AcDbEntity
  8
0
100
AcDbLine
 62
7
  6
CONTINUOUS
 10
5.1235674469
 20
5.9900001203
 11
5.123567227
 21
5.9900032897
  0
LINE
  5
2AF
100
AcDbEntity
  8
0
100
AcDbLine
 62
7
  6
CONTINUOUS
 10
5.1235664347
 20
5.9900152326
 11
5.1235645175
 21
5.9900462207
  0
LINE
  5
2B0
100
AcDbEntity
  8
0
100
AcDbLine
 62
7
  6
CONTINUOUS
 10
5.1235645175
 20
5.9900462207
 11
5.1235608779
 21
5.9901107036
  0
LINE
  5
2B1
100
AcDbEntity
  8
0
100
AcDbLine
 62
7
  6
CONTINUOUS
 10
5.1235608779
 20
5.9901107036
 11
5.1235562803
 21
5.9902005056
  0
LINE
  5
2B2
100
AcDbEntity
  8
0
100
AcDbLine
 62
7
  6
CONTINUOUS
 10
5.1235562803
 20
5.9902005056
 11
5.1235495104
 21
5.9903471848
  0
LINE
  5
2B3
100
AcDbEntity
  8
0
100
AcDbLine
 62
7
  6
CONTINUOUS
 10
5.1235495104
 20
5.9903471848
 11
5.1235402454
 21
5.990572968
  0
LINE
  5
2B4
100
AcDbEntity
  8
0
100
AcDbLine
 62
7
  6
CONTINUOUS
 10
5.1235402454
 20
5.990572968
 11
5.1235282853
 21
5.990904146
  0
LINE
  5
2B5
100
AcDbEntity
  8
0
100
AcDbLine
 62
7
  6
CONTINUOUS
 10
5.1235282853
 20
5.990904146
 11
5.1235116383
 21
5.9914358874
  0
LINE
  5
2B6
100
AcDbEntity
  8
0
100
AcDbLine
 62
7
  6
CONTINUOUS
 10
5.1235116383
 20
5.9914358874
 11
5.123488035
 21
5.9923260422
  0
LINE
  5
2B7
100
AcDbEntity
  8
0
100
AcDbLine
 62
7
  6
CONTINUOUS
 10
5.123488035
 20
5.9923260422
 11
5.1234552203
 21
5.9938250651
  0
LINE
  5
2B8
100
AcDbEntity
  8
0
100
AcDbLine
 62
7
  6
CONTINUOUS
 10
5.1234552203
 20
5.9938250651
 11
5.1234041309
 21
5.9967750668
  0
LINE
  5
2B9
100
AcDbEntity
  8
0
100
AcDbLine
 62
7
  6
CONTINUOUS
 10
5.1234041309
 20
5.9967750668
 11
5.1233172099
 21
6.0036053238
  0
LINE
  5
2BA
100
AcDbEntity
  8
0
100
AcDbLine
 62
7
  6
CONTINUOUS
 10
5.1233172099
 20
6.0036053238
 11
5.1232034046
 21
6.0164718146
  0
LINE
  5
2BB
100
AcDbEntity
  8
0
100
AcDbLine
 62
7
  6
CONTINUOUS
 10
5.1232034046
 20
6.0164718146
 11
5.1230890931
 21
6.0350678654
  0
LINE
  5
2BC
100
AcDbEntity
  8
0
100
AcDbLine
 62
7
  6
CONTINUOUS
 10
5.1230890931
 20
6.0350678654
 11
5.1229879919
 21
6.0585347984
  0
LINE
  5
2BD
100
AcDbEntity
  8
0
100
AcDbLine
 62
7
  6
CONTINUOUS
 10
5.1229879919
 20
6.0585347984
 11
5.122893561
 21
6.0917572228
  0
LINE
  5
2BE
100
AcDbEntity
  8
0
100
AcDbLine
 62
7
  6
CONTINUOUS
 10
5.122893561
 20
6.0917572228
 11
5.1228247105
 21
6.1401468222
  0
LINE
  5
2BF
100
AcDbEntity
  8
0
100
AcDbLine
 62
7
  6
CONTINUOUS
 10
5.1228247105
 20
6.1401468222
 11
5.122817593
 21
6.1824711481
  0
LINE
  5
2C0
100
AcDbEntity
  8
0
100
AcDbLine
 62
7
  6
CONTINUOUS
 10
5.122817593
 20
6.1824711481
 11
5.1228517253
 21
6.2202962548
  0
LINE
  5
2C1
100
AcDbEntity
  8
0
100
AcDbLine
 62
7
  6
CONTINUOUS
 10
5.1228517253
 20
6.2202962548
 11
5.1229245393
 21
6.256341683
  0
LINE
  5
2C2
100
AcDbEntity
  8
0
100
AcDbLine
 62
7
  6
CONTINUOUS
 10
5.1229245393
 20
6.256341683
 11
5.1230670856
 21
6.2958149102
  0
LWPOLYLINE
  5
2C3
100
AcDbEntity
  8
0
100
AcDbPolyline
 62
7
  6
CONTINUOUS
 90
52
 70
0
 10
4.1863073643
 20
2.3966539319
 10
4.1877098919
 20
2.399157035
 10
4.1894349529
 20
2.4023768567
 10
4.1910942234
 20
2.4056369367
 10
4.1926867724
 20
2.4089352771
 10
4.1942119261
 20
2.4122703977
 10
4.1956692159
 20
2.4156413635
 10
4.1970578619
 20
2.4190466412
 10
4.198376959
 20
2.4224843965
 10
4.1996258653
 20
2.4259533005
 10
4.200804117
 20
2.4294518292
 10
4.2019112621
 20
2.4329783059
 10
4.2029469055
 20
2.4365312305
 10
4.2039106115
 20
2.4401089744
 10
4.2048019735
 20
2.4437100132
 10
4.2056206231
 20
2.4473330186
 10
4.2063661148
 20
2.4509763596
 10
4.2070381326
 20
2.4546384925
 10
4.2076365811
 20
2.4583181645
 10
4.2081612783
 20
2.4620136246
 10
4.2086120527
 20
2.465723197
 10
4.2089887794
 20
2.4694457515
 10
4.2092912487
 20
2.473179623
 10
4.2095192448
 20
2.4769230822
 10
4.2096725934
 20
2.4806749198
 10
4.2097512737
 20
2.4844334488
 10
4.2097553641
 20
2.4881970197
 10
4.2096849271
 20
2.4919644978
 10
4.2095400102
 20
2.4957341847
 10
4.2093206578
 20
2.4995044555
 10
4.2090268576
 20
2.5032742866
 10
4.2086586438
 20
2.507042006
 10
4.2082162317
 20
2.5108059571
 10
4.2076998137
 20
2.5145651339
 10
4.2071096382
 20
2.5183178775
 10
4.2064459574
 20
2.5220624978
 10
4.2057088944
 20
2.5257979271
 10
4.2048986445
 20
2.5295225595
 10
4.2040155008
 20
2.5332346516
 10
4.2030597945
 20
2.5369329902
 10
4.2020319248
 20
2.5406161124
 10
4.200932344
 20
2.5442823558
 10
4.1997614619
 20
2.5479302082
 10
4.1985197389
 20
2.5515579955
 10
4.1972075768
 20
2.555164225
 10
4.1958254301
 20
2.5587475901
 10
4.194374182
 20
2.5623061824
 10
4.1928545998
 20
2.5658384312
 10
4.191267129
 20
2.5693434245
 10
4.1896124283
 20
2.5728196511
 10
4.187891424
 20
2.5762650243
 10
4.1864569522
 20
2.5790176148
  0
LINE
  5
2C4
100
AcDbEntity
  8
0
100
AcDbLine
 62
7
  6
CONTINUOUS
 10
4.1156130822
 20
2.4577642331
 11
4.1209042886
 21
2.4672251964
  0
LINE
  5
2C5
100
AcDbEntity
  8
0
100
AcDbLine
 62
7
  6
CONTINUOUS
 10
4.1104166972
 20
2.4486013862
 11
4.1156130822
 21
2.4577642331
  0
LINE
  5
2C6
100
AcDbEntity
  8
0
100
AcDbLine
 62
7
  6
CONTINUOUS
 10
4.1052611536
 20
2.4396423753
 11
4.1104166972
 21
2.4486013862
  0
LINE
  5
2C7
100
AcDbEntity
  8
0
100
AcDbLine
 62
7
  6
CONTINUOUS
 10
4.1694396705
 20
2.3676192396
 11
4.1863073544
 21
2.3966539146
  0
LINE
  5
2C8
100
AcDbEntity
  8
0
100
AcDbLine
 62
7
  6
CONTINUOUS
 10
4.1255452267
 20
2.2923385538
 11
4.1694396705
 21
2.3676192396
  0
LINE
  5
2C9
100
AcDbEntity
  8
0
100
AcDbLine
 62
7
  6
CONTINUOUS
 10
4.1000930414
 20
2.4307940406
 11
4.1052611536
 21
2.4396423753
  0
LINE
  5
2CA
100
AcDbEntity
  8
0
100
AcDbLine
 62
7
  6
CONTINUOUS
 10
4.0901188215
 20
2.2318782373
 11
4.1255452267
 21
2.2923385538
  0
LINE
  5
2CB
100
AcDbEntity
  8
0
100
AcDbLine
 62
7
  6
CONTINUOUS
 10
4.0808131429
 20
2.2160348974
 11
4.0901188215
 21
2.2318782373
  0
LINE
  5
2CC
100
AcDbEntity
  8
0
100
AcDbLine
 62
7
  6
CONTINUOUS
 10
4.0948786999
 20
2.421999148
 11
4.1000930414
 21
2.4307940406
  0
LINE
  5
2CD
100
AcDbEntity
  8
0
100
AcDbLine
 62
7
  6
CONTINUOUS
 10
4.0895631733
 20
2.4131641594
 11
4.0948786999
 21
2.421999148
  0
LINE
  5
2CE
100
AcDbEntity
  8
0
100
AcDbLine
 62
7
  6
CONTINUOUS
 10
4.0840907062
 20
2.4041961727
 11
4.0895631733
 21
2.4131641594
  0
LINE
  5
2CF
100
AcDbEntity
  8
0
100
AcDbLine
 62
7
  6
CONTINUOUS
 10
4.0784260252
 20
2.3950360317
 11
4.0840907062
 21
2.4041961727
  0
LINE
  5
2D0
100
AcDbEntity
  8
0
100
AcDbLine
 62
7
  6
CONTINUOUS
 10
4.0725116951
 20
2.3855878314
 11
4.0784260252
 21
2.3950360317
  0
LINE
  5
2D1
100
AcDbEntity
  8
0
100
AcDbLine
 62
7
  6
CONTINUOUS
 10
4.0662822454
 20
2.3757423038
 11
4.0725116951
 21
2.3855878314
  0
LINE
  5
2D2
100
AcDbEntity
  8
0
100
AcDbLine
 62
7
  6
CONTINUOUS
 10
4.0600901085
 20
2.3660406525
 11
4.0662822454
 21
2.3757423038
  0
LINE
  5
2D3
100
AcDbEntity
  8
0
100
AcDbLine
 62
7
  6
CONTINUOUS
 10
4.2345035838
 20
5.713942684
 11
4.2381757289
 21
5.7099662569
  0
LINE
  5
2D4
100
AcDbEntity
  8
0
100
AcDbLine
 62
7
  6
CONTINUOUS
 10
3.3965124011
 20
6.6213716836
 11
3.3928402561
 21
6.6253481108
  0
LINE
  5
2D5
100
AcDbEntity
  8
0
100
AcDbLine
 62
7
  6
CONTINUOUS
 10
3.4526540157
 20
6.5641962632
 11
3.4559653119
 21
6.5605775669
  0
LINE
  5
2D6
100
AcDbEntity
  8
0
100
AcDbLine
 62
7
  6
CONTINUOUS
 10
4.1783619693
 20
5.7711181044
 11
4.1750506731
 21
5.7747368008
  0
LWPOLYLINE
  5
2D7
100
AcDbEntity
  8
0
100
AcDbPolyline
 62
7
  6
CONTINUOUS
 90
26
 70
0
 10
4.6950475901
 20
5.6802758692
 10
4.6952806661
 20
5.6798806941
 10
4.6955113387
 20
5.6795262792
 10
4.6957567888
 20
5.6791819334
 10
4.6960165776
 20
5.6788482725
 10
4.6962902406
 20
5.6785258932
 10
4.6965772883
 20
5.678215372
 10
4.6968772074
 20
5.6779172641
 10
4.6971894617
 20
5.6776321026
 10
4.6975134927
 20
5.6773603974
 10
4.6978487211
 20
5.6771026345
 10
4.6981945474
 20
5.6768592747
 10
4.6985503532
 20
5.6766307531
 10
4.6989155021
 20
5.6764174786
 10
4.6992893414
 20
5.6762198323
 10
4.6996712024
 20
5.6760381678
 10
4.7000604023
 20
5.6758728099
 10
4.7004562452
 20
5.6757240543
 10
4.7008580232
 20
5.6755921671
 10
4.7012650179
 20
5.6754773839
 10
4.7016765014
 20
5.6753799102
 10
4.702091738
 20
5.6752999201
 10
4.7025099851
 20
5.6752375568
 10
4.7029304948
 20
5.6751929318
 10
4.7033525152
 20
5.6751661248
 10
4.7037752916
 20
5.6751571838
  0
LINE
  5
2D8
100
AcDbEntity
  8
0
100
AcDbLine
 62
7
  6
CONTINUOUS
 10
4.1859998988
 20
6.5546863783
 11
4.33593106
 21
6.2949979894
  0
LINE
  5
2D9
100
AcDbEntity
  8
0
100
AcDbLine
 62
7
  6
CONTINUOUS
 10
3.9130279025
 20
2.116261692
 11
3.919711061
 21
2.1248325358
  0
LWPOLYLINE
  5
2DA
100
AcDbEntity
  8
0
100
AcDbPolyline
 62
7
  6
CONTINUOUS
 90
7
 70
0
 10
4.0677707722
 20
2.19690122
 10
4.0701758342
 20
2.2000736978
 10
4.072515371
 20
2.2032978899
 10
4.0747882964
 20
2.2065723519
 10
4.0769934982
 20
2.209895388
 10
4.0791298015
 20
2.2132651927
 10
4.0808131431
 20
2.2160348977
  0
LINE
  5
2DB
100
AcDbEntity
  8
0
100
AcDbLine
 62
7
  6
CONTINUOUS
 10
4.0609834644
 20
2.1881952437
 11
4.0677707722
 21
2.19690122
  0
LINE
  5
2DC
100
AcDbEntity
  8
0
100
AcDbLine
 62
7
  6
CONTINUOUS
 10
4.0609834511
 20
2.1881952266
 11
4.0609667142
 21
2.1881737656
  0
LINE
  5
2DD
100
AcDbEntity
  8
0
100
AcDbLine
 62
7
  6
CONTINUOUS
 10
4.0606540415
 20
2.1882552092
 11
4.0607637993
 21
2.1883833686
  0
LINE
  5
2DE
100
AcDbEntity
  8
0
100
AcDbLine
 62
7
  6
CONTINUOUS
 10
4.0606540415
 20
2.1882552092
 11
4.0607650273
 21
2.1883823072
  0
LINE
  5
2DF
100
AcDbEntity
  8
0
100
AcDbLine
 62
7
  6
CONTINUOUS
 10
5.0530240602
 20
5.7782490435
 11
4.9571000973
 21
5.7534476194
  0
LWPOLYLINE
  5
2E0
100
AcDbEntity
  8
0
100
AcDbPolyline
 62
7
  6
CONTINUOUS
 90
26
 70
0
 10
4.8732409643
 20
5.6751571838
 10
4.8736637418
 20
5.6751661248
 10
4.8740857633
 20
5.6751929319
 10
4.874506274
 20
5.6752375571
 10
4.8749245222
 20
5.6752999205
 10
4.8753397598
 20
5.6753799108
 10
4.8757512443
 20
5.6754773847
 10
4.8761582399
 20
5.6755921682
 10
4.8765600188
 20
5.6757240557
 10
4.8769558625
 20
5.6758728117
 10
4.8773450633
 20
5.6760381699
 10
4.877726925
 20
5.6762198348
 10
4.878100765
 20
5.6764174815
 10
4.8784659146
 20
5.6766307565
 10
4.878821721
 20
5.6768592784
 10
4.8791675478
 20
5.6771026387
 10
4.8795027767
 20
5.6773604021
 10
4.8798268082
 20
5.6776321077
 10
4.8801390629
 20
5.6779172697
 10
4.8804389823
 20
5.678215378
 10
4.8807260303
 20
5.6785258997
 10
4.8809996934
 20
5.6788482794
 10
4.8812594824
 20
5.6791819407
 10
4.8815049327
 20
5.6795262868
 10
4.8817356053
 20
5.6798807022
 10
4.8819686817
 20
5.6802758784
  0
LINE
  5
2E1
100
AcDbEntity
  8
0
100
AcDbLine
 62
7
  6
CONTINUOUS
 10
4.8732368426
 20
5.6751571838
 11
4.7037790815
 21
5.6751571838
  0
LINE
  5
2E2
100
AcDbEntity
  8
0
100
AcDbLine
 62
7
  6
CONTINUOUS
 10
4.8591907998
 20
5.6765489364
 11
4.7178251852
 21
5.6765489364
  0
LINE
  5
2E3
100
AcDbEntity
  8
0
100
AcDbLine
 62
7
  6
CONTINUOUS
 10
4.6855079925
 20
5.7176571838
 11
4.1094475405
 21
5.7176571838
  0
LINE
  5
2E4
100
AcDbEntity
  8
0
100
AcDbLine
 62
7
  6
CONTINUOUS
 10
4.7178251852
 20
5.787833678
 11
4.8591907998
 21
5.787833678
  0
LINE
  5
2E5
100
AcDbEntity
  8
0
100
AcDbLine
 62
7
  6
CONTINUOUS
 10
4.717209144
 20
5.7949593191
 11
4.859806841
 21
5.7949593191
  0
LINE
  5
2E6
100
AcDbEntity
  8
0
100
AcDbLine
 62
7
  6
CONTINUOUS
 10
5.1235743158
 20
5.9875881522
 11
5.1235595775
 21
5.9875875195
  0
LINE
  5
2E7
100
AcDbEntity
  8
0
100
AcDbLine
 62
7
  6
CONTINUOUS
 10
5.3780982831
 20
6.0114071838
 11
5.4719177019
 21
6.0114071838
  0
LINE
  5
2E8
100
AcDbEntity
  8
0
100
AcDbLine
 62
7
  6
CONTINUOUS
 10
5.3391218594
 20
6.0189071838
 11
5.1231858707
 21
6.0189071838
  0
LINE
  5
2E9
100
AcDbEntity
  8
0
100
AcDbLine
 62
7
  6
CONTINUOUS
 10
5.3759415149
 20
6.025142816
 11
5.4740744701
 21
6.025142816
  0
LWPOLYLINE
  5
2EA
100
AcDbEntity
  8
0
100
AcDbPolyline
 62
7
  6
CONTINUOUS
 90
16
 70
0
 10
5.3391219073
 20
6.0189078932
 10
5.3399263304
 20
6.0188970971
 10
5.3406833951
 20
6.0188671942
 10
5.3414287769
 20
6.0188189939
 10
5.3421620456
 20
6.0187533271
 10
5.3428827731
 20
6.0186710285
 10
5.3435910259
 20
6.0185728641
 10
5.3442861019
 20
6.0184596961
 10
5.3449664857
 20
6.0183325871
 10
5.3456334709
 20
6.0181920919
 10
5.3462853537
 20
6.0180393568
 10
5.3469162501
 20
6.0178767925
 10
5.3475158889
 20
6.0177086121
 10
5.3480943967
 20
6.017533504
 10
5.3486768264
 20
6.0173441944
 10
5.3492712161
 20
6.0171373093
  0
LINE
  5
2EB
100
AcDbEntity
  8
0
100
AcDbLine
 62
7
  6
CONTINUOUS
 10
4.3403478973
 20
6.0516859617
 11
4.3355583662
 21
6.0527442802
  0
LINE
  5
2EC
100
AcDbEntity
  8
0
100
AcDbLine
 62
7
  6
CONTINUOUS
 10
3.2906680877
 20
6.2836284059
 11
3.2954576188
 21
6.2825700875
  0
LINE
  5
2ED
100
AcDbEntity
  8
0
100
AcDbLine
 62
7
  6
CONTINUOUS
 10
3.2130819139
 20
6.3036607601
 11
3.2078021545
 21
6.3048527174
  0
LWPOLYLINE
  5
2EE
100
AcDbEntity
  8
0
100
AcDbPolyline
 62
7
  6
CONTINUOUS
 90
26
 70
0
 10
4.8819686817
 20
6.6550384893
 10
4.8817356053
 20
6.6554336655
 10
4.8815049327
 20
6.6557880808
 10
4.8812594824
 20
6.656132427
 10
4.8809996934
 20
6.6564660883
 10
4.8807260303
 20
6.656788468
 10
4.8804389823
 20
6.6570989896
 10
4.8801390629
 20
6.657397098
 10
4.8798268082
 20
6.6576822599
 10
4.8795027767
 20
6.6579539655
 10
4.8791675478
 20
6.658211729
 10
4.878821721
 20
6.6584550892
 10
4.8784659146
 20
6.6586836112
 10
4.878100765
 20
6.6588968862
 10
4.877726925
 20
6.6590945329
 10
4.8773450633
 20
6.6592761977
 10
4.8769558625
 20
6.659441556
 10
4.8765600188
 20
6.6595903119
 10
4.8761582399
 20
6.6597221995
 10
4.8757512443
 20
6.6598369829
 10
4.8753397598
 20
6.6599344569
 10
4.8749245222
 20
6.6600144471
 10
4.874506274
 20
6.6600768106
 10
4.8740857633
 20
6.6601214358
 10
4.8736637418
 20
6.6601482428
 10
4.8732409643
 20
6.6601571838
  0
LINE
  5
2EF
100
AcDbEntity
  8
0
100
AcDbLine
 62
7
  6
CONTINUOUS
 10
4.859806841
 20
6.0478550486
 11
4.717209144
 21
6.0478550486
  0
LINE
  5
2F0
100
AcDbEntity
  8
0
100
AcDbLine
 62
7
  6
CONTINUOUS
 10
4.8591907998
 20
6.0563724423
 11
4.7178251852
 21
6.0563724423
  0
LINE
  5
2F1
100
AcDbEntity
  8
0
100
AcDbLine
 62
7
  6
CONTINUOUS
 10
5.2841363316
 20
6.0607205799
 11
5.2825570391
 21
6.062997287
  0
LINE
  5
2F2
100
AcDbEntity
  8
0
100
AcDbLine
 62
7
  6
CONTINUOUS
 10
5.2871656157
 20
6.0563547363
 11
5.2402559064
 21
6.1239683726
  0
LINE
  5
2F3
100
AcDbEntity
  8
0
100
AcDbLine
 62
7
  6
CONTINUOUS
 10
5.275810249
 20
6.0727219748
 11
5.2740177551
 21
6.0753052052
  0
LINE
  5
2F4
100
AcDbEntity
  8
0
100
AcDbLine
 62
7
  6
CONTINUOUS
 10
5.2662366685
 20
6.1301571838
 11
5.3131463778
 21
6.0489071838
  0
LINE
  5
2F5
100
AcDbEntity
  8
0
100
AcDbLine
 62
7
  6
CONTINUOUS
 10
5.2770536907
 20
6.138892816
 11
5.3261201684
 21
6.0539071838
  0
LWPOLYLINE
  5
2F6
100
AcDbEntity
  8
0
100
AcDbPolyline
 62
7
  6
CONTINUOUS
 90
28
 70
0
 10
3.7042130338
 20
2.2590737321
 10
3.7042146405
 20
2.2590743206
 10
3.7042467349
 20
2.2590852232
 10
3.7043213143
 20
2.259108013
 10
3.704439566
 20
2.2591402407
 10
3.7046045035
 20
2.259180082
 10
3.7048173681
 20
2.259225335
 10
3.7050762908
 20
2.2592734307
 10
3.7053825789
 20
2.2593227271
 10
3.7057377312
 20
2.2593717057
 10
3.7061394435
 20
2.2594185227
 10
3.7065884201
 20
2.2594620029
 10
3.7070858559
 20
2.2595011395
 10
3.7076298832
 20
2.2595348228
 10
3.7082212401
 20
2.2595622897
 10
3.7088608553
 20
2.2595828484
 10
3.7095471408
 20
2.2595958298
 10
3.710280511
 20
2.259600739
 10
3.7110620998
 20
2.2595971361
 10
3.7118914867
 20
2.2595846422
 10
3.7127686378
 20
2.2595629572
 10
3.7136951672
 20
2.2595317867
 10
3.7146734392
 20
2.2594908268
 10
3.7157042896
 20
2.2594398869
 10
3.7167888252
 20
2.2593788113
 10
3.7179303198
 20
2.2593073418
 10
3.7191302533
 20
2.2592253407
 10
3.7203895817
 20
2.2591327515
  0
LINE
  5
2F7
100
AcDbEntity
  8
0
100
AcDbLine
 62
7
  6
CONTINUOUS
 10
3.2130819139
 20
6.0316536076
 11
3.2078021545
 21
6.0304616502
  0
LINE
  5
2F8
100
AcDbEntity
  8
0
100
AcDbLine
 62
7
  6
CONTINUOUS
 10
4.3403478973
 20
6.2836284059
 11
4.3355583662
 21
6.2825700875
  0
LINE
  5
2F9
100
AcDbEntity
  8
0
100
AcDbLine
 62
7
  6
CONTINUOUS
 10
3.2906680877
 20
6.0516859617
 11
3.2954576188
 21
6.0527442802
  0
LINE
  5
2FA
100
AcDbEntity
  8
0
100
AcDbLine
 62
7
  6
CONTINUOUS
 10
4.7178251852
 20
6.2789419254
 11
4.8591907998
 21
6.2789419254
  0
LINE
  5
2FB
100
AcDbEntity
  8
0
100
AcDbLine
 62
7
  6
CONTINUOUS
 10
4.717209144
 20
6.2874593191
 11
4.859806841
 21
6.2874593191
  0
LINE
  5
2FC
100
AcDbEntity
  8
0
100
AcDbLine
 62
7
  6
CONTINUOUS
 10
5.4740744701
 20
6.3101715516
 11
5.3759415149
 21
6.3101715516
  0
LINE
  5
2FD
100
AcDbEntity
  8
0
100
AcDbLine
 62
7
  6
CONTINUOUS
 10
5.3391224389
 20
6.3164071838
 11
5.1231858981
 21
6.3164071838
  0
LINE
  5
2FE
100
AcDbEntity
  8
0
100
AcDbLine
 62
7
  6
CONTINUOUS
 10
5.4719177019
 20
6.3239071838
 11
5.3780982831
 21
6.3239071838
  0
LINE
  5
2FF
100
AcDbEntity
  8
0
100
AcDbLine
 62
7
  6
CONTINUOUS
 10
5.1235595775
 20
6.3477268482
 11
5.1235743158
 21
6.3477262155
  0
LWPOLYLINE
  5
300
100
AcDbEntity
  8
0
100
AcDbPolyline
 62
7
  6
CONTINUOUS
 90
3
 70
0
 10
5.3492712161
 20
6.0171373093
 10
5.3498682963
 20
6.0169153336
 10
5.3502573867
 20
6.016762904
  0
LINE
  5
301
100
AcDbEntity
  8
0
100
AcDbLine
 62
7
  6
CONTINUOUS
 10
5.5729622942
 20
6.1964215516
 11
5.5238958166
 21
6.2814071838
  0
LINE
  5
302
100
AcDbEntity
  8
0
100
AcDbLine
 62
7
  6
CONTINUOUS
 10
5.5837793165
 20
6.2051571838
 11
5.5368696071
 21
6.2864071838
  0
LINE
  5
303
100
AcDbEntity
  8
0
100
AcDbLine
 62
7
  6
CONTINUOUS
 10
4.859806841
 20
6.5403550486
 11
4.717209144
 21
6.5403550486
  0
LINE
  5
304
100
AcDbEntity
  8
0
100
AcDbLine
 62
7
  6
CONTINUOUS
 10
4.8591907998
 20
6.5474806897
 11
4.7178251852
 21
6.5474806897
  0
LWPOLYLINE
  5
305
100
AcDbEntity
  8
0
100
AcDbPolyline
 62
7
  6
CONTINUOUS
 90
26
 70
0
 10
4.7037752916
 20
6.6601571838
 10
4.7033525152
 20
6.6601482428
 10
4.7029304948
 20
6.6601214359
 10
4.7025099851
 20
6.6600768108
 10
4.702091738
 20
6.6600144475
 10
4.7016765014
 20
6.6599344575
 10
4.7012650179
 20
6.6598369837
 10
4.7008580232
 20
6.6597222006
 10
4.7004562452
 20
6.6595903133
 10
4.7000604023
 20
6.6594415577
 10
4.6996712024
 20
6.6592761998
 10
4.6992893414
 20
6.6590945353
 10
4.6989155021
 20
6.6588968891
 10
4.6985503532
 20
6.6586836145
 10
4.6981945474
 20
6.658455093
 10
4.6978487211
 20
6.6582117332
 10
4.6975134927
 20
6.6579539702
 10
4.6971894617
 20
6.6576822651
 10
4.6968772074
 20
6.6573971036
 10
4.6965772883
 20
6.6570989957
 10
4.6962902406
 20
6.6567884745
 10
4.6960165776
 20
6.6564660952
 10
4.6957567888
 20
6.6561324343
 10
4.6955113387
 20
6.6557880885
 10
4.6952806661
 20
6.6554336735
 10
4.6950475901
 20
6.6550384984
  0
LINE
  5
306
100
AcDbEntity
  8
0
100
AcDbLine
 62
7
  6
CONTINUOUS
 10
4.6855079925
 20
6.6176571838
 11
4.1094475405
 21
6.6176571838
  0
LINE
  5
307
100
AcDbEntity
  8
0
100
AcDbLine
 62
7
  6
CONTINUOUS
 10
4.7178251852
 20
6.6587654313
 11
4.8591907998
 21
6.6587654313
  0
LINE
  5
308
100
AcDbEntity
  8
0
100
AcDbLine
 62
7
  6
CONTINUOUS
 10
4.7037790815
 20
6.6601571838
 11
4.8732368426
 21
6.6601571838
  0
LINE
  5
309
100
AcDbEntity
  8
0
100
AcDbLine
 62
7
  6
CONTINUOUS
 10
3.9654391537
 20
6.6820271838
 11
3.6655768313
 21
6.6820271838
  0
LINE
  5
30A
100
AcDbEntity
  8
0
100
AcDbLine
 62
7
  6
CONTINUOUS
 10
5.0530240602
 20
6.5570653241
 11
4.9571000973
 21
6.5818667482
  0
LINE
  5
30B
100
AcDbEntity
  8
0
100
AcDbLine
 62
7
  6
CONTINUOUS
 10
3.9886656382
 20
6.764348687
 11
3.6423503468
 21
6.764348687
  0
ARC
  5
30C
100
AcDbEntity
  8
0
100
AcDbCircle
 62
7
  6
CONTINUOUS
 10
-20.1016132821
 20
-11.3699354072
 40
28.0284726628
100
AcDbArc
 50
30.1160391379
 51
30.2905323635
  0
ARC
  5
30D
100
AcDbEntity
  8
0
100
AcDbCircle
 62
7
  6
CONTINUOUS
 10
-17.2603883068
 20
-6.0005180437
 40
23.8276139859
100
AcDbArc
 50
29.6360131407
 51
30.3639902984
  0
ARC
  5
30E
100
AcDbEntity
  8
0
100
AcDbCircle
 62
7
  6
CONTINUOUS
 10
1.5968496304
 20
1.3293408272
 40
2.8821448584
100
AcDbArc
 50
28.6733043929
 51
29.6995878121
  0
ARC
  5
30F
100
AcDbEntity
  8
0
100
AcDbCircle
 62
7
  6
CONTINUOUS
 10
1.7537044952
 20
1.330226162
 40
2.7312179857
100
AcDbArc
 50
27.1859094288
 51
27.9067360511
  0
ARC
  5
310
100
AcDbEntity
  8
0
100
AcDbCircle
 62
7
  6
CONTINUOUS
 10
-18.3564265879
 20
18.9683939057
 40
25.0113797527
100
AcDbArc
 50
329.6008486578
 51
330.4000864281
  0
ARC
  5
311
100
AcDbEntity
  8
0
100
AcDbCircle
 62
7
  6
CONTINUOUS
 10
-17.2611557502
 20
18.3362733746
 40
23.8284978911
100
AcDbArc
 50
329.6360276374
 51
330.3639777547
  0
ARC
  5
312
100
AcDbEntity
  8
0
100
AcDbCircle
 62
7
  6
CONTINUOUS
 10
3.7163641196
 20
2.3191790851
 40
0.1910372139
100
AcDbArc
 50
211.6791151573
 51
212.0486520652
  0
ARC
  5
313
100
AcDbEntity
  8
0
100
AcDbCircle
 62
7
  6
CONTINUOUS
 10
3.7130002612
 20
2.3129162362
 40
0.1894361716
100
AcDbArc
 50
218.1792821402
 51
221.1013235212
  0
ARC
  5
314
100
AcDbEntity
  8
0
100
AcDbCircle
 62
7
  6
CONTINUOUS
 10
3.7155277057
 20
2.3016496907
 40
0.1845013779
100
AcDbArc
 50
217.9552203454
 51
221.1900999985
  0
ARC
  5
315
100
AcDbEntity
  8
0
100
AcDbCircle
 62
7
  6
CONTINUOUS
 10
3.7089167359
 20
2.3041562111
 40
0.1793395773
100
AcDbArc
 50
270.3586249466
 51
270.7630058214
  0
ARC
  5
316
100
AcDbEntity
  8
0
100
AcDbCircle
 62
7
  6
CONTINUOUS
 10
3.7112383985
 20
2.3088572286
 40
0.1788939718
100
AcDbArc
 50
269.0655841326
 51
269.4533359241
  0
ARC
  5
317
100
AcDbEntity
  8
0
100
AcDbCircle
 62
7
  6
CONTINUOUS
 10
3.6976453409
 20
2.2648262744
 40
0.0098911223
100
AcDbArc
 50
317.0503002922
 51
319.5514918725
  0
ARC
  5
318
100
AcDbEntity
  8
0
100
AcDbCircle
 62
7
  6
CONTINUOUS
 10
3.6976816461
 20
2.2647957074
 40
0.0098436636
100
AcDbArc
 50
319.5497900317
 51
326.6969159411
  0
ARC
  5
319
100
AcDbEntity
  8
0
100
AcDbCircle
 62
7
  6
CONTINUOUS
 10
3.8070526499
 20
2.4891325604
 40
0.3703635665
100
AcDbArc
 50
166.281527925
 51
179.9981358917
  0
ARC
  5
31A
100
AcDbEntity
  8
0
100
AcDbCircle
 62
7
  6
CONTINUOUS
 10
3.8070526499
 20
2.4891566598
 40
0.3703635665
100
AcDbArc
 50
180.0018641083
 51
193.718472075
  0
ARC
  5
31B
100
AcDbEntity
  8
0
100
AcDbCircle
 62
7
  6
CONTINUOUS
 10
3.8079257418
 20
2.504707406
 40
0.3204177493
100
AcDbArc
 50
179.2708277564
 51
179.9999635671
  0
ARC
  5
31C
100
AcDbEntity
  8
0
100
AcDbCircle
 62
7
  6
CONTINUOUS
 10
3.8155079925
 20
2.4558523774
 40
0.285
100
AcDbArc
 50
254.9762581375
 51
285.0237418625
  0
ARC
  5
31D
100
AcDbEntity
  8
0
100
AcDbCircle
 62
7
  6
CONTINUOUS
 10
3.8095054056
 20
2.6351341125
 40
0.2789974255
100
AcDbArc
 50
178.3629361697
 51
179.1451067829
  0
ARC
  5
31E
100
AcDbEntity
  8
0
100
AcDbCircle
 62
7
  6
CONTINUOUS
 10
3.809382634
 20
2.635135859
 40
0.2788746415
100
AcDbArc
 50
179.1450892328
 51
179.9999489527
  0
ARC
  5
31F
100
AcDbEntity
  8
0
100
AcDbCircle
 62
7
  6
CONTINUOUS
 10
3.7445597565
 20
2.4942352339
 40
0.2202427507
100
AcDbArc
 50
266.7120793372
 51
266.856173504
  0
ARC
  5
320
100
AcDbEntity
  8
0
100
AcDbCircle
 62
7
  6
CONTINUOUS
 10
3.6328467358
 20
2.4829777162
 40
0.208033856
100
AcDbArc
 50
152.802093215
 51
153.141572292
  0
ARC
  5
321
100
AcDbEntity
  8
0
100
AcDbCircle
 62
7
  6
CONTINUOUS
 10
3.731925774
 20
2.4694933906
 40
0.1912219631
100
AcDbArc
 50
212.5381280567
 51
212.7226527969
  0
ARC
  5
322
100
AcDbEntity
  8
0
100
AcDbCircle
 62
7
  6
CONTINUOUS
 10
3.6382758293
 20
2.6061409671
 40
0.1740575299
100
AcDbArc
 50
153.3702650561
 51
154.2645604915
  0
ARC
  5
323
100
AcDbEntity
  8
0
100
AcDbCircle
 62
7
  6
CONTINUOUS
 10
3.6377488519
 20
2.606403538
 40
0.173468763
100
AcDbArc
 50
153.1307107804
 51
153.3697743767
  0
ARC
  5
324
100
AcDbEntity
  8
0
100
AcDbCircle
 62
7
  6
CONTINUOUS
 10
3.637504564
 20
2.6065274894
 40
0.1731948279
100
AcDbArc
 50
152.3548493461
 51
153.1307644052
  0
ARC
  5
325
100
AcDbEntity
  8
0
100
AcDbCircle
 62
7
  6
CONTINUOUS
 10
3.6371510929
 20
2.6067119008
 40
0.1727961438
100
AcDbArc
 50
152.0022113469
 51
152.3546338575
  0
ARC
  5
326
100
AcDbEntity
  8
0
100
AcDbCircle
 62
7
  6
CONTINUOUS
 10
3.5990608801
 20
2.4835190408
 40
0.17263013
100
AcDbArc
 50
208.4330456848
 51
208.8210746379
  0
ARC
  5
327
100
AcDbEntity
  8
0
100
AcDbCircle
 62
7
  6
CONTINUOUS
 10
3.6368391224
 20
2.6068779266
 40
0.1724427459
100
AcDbArc
 50
151.3152713084
 51
152.0022593201
  0
ARC
  5
328
100
AcDbEntity
  8
0
100
AcDbCircle
 62
7
  6
CONTINUOUS
 10
3.6363916436
 20
2.6071219267
 40
0.1719330667
100
AcDbArc
 50
150.8803091577
 51
151.3150279527
  0
ARC
  5
329
100
AcDbEntity
  8
0
100
AcDbCircle
 62
7
  6
CONTINUOUS
 10
3.6357852549
 20
2.6074601816
 40
0.1712387156
100
AcDbArc
 50
149.863687591
 51
150.8804466326
  0
ARC
  5
32A
100
AcDbEntity
  8
0
100
AcDbCircle
 62
7
  6
CONTINUOUS
 10
3.9146518652
 20
2.3191790852
 40
0.1910372141
100
AcDbArc
 50
327.951347935
 51
328.3208848426
  0
ARC
  5
32B
100
AcDbEntity
  8
0
100
AcDbCircle
 62
7
  6
CONTINUOUS
 10
3.9180946849
 20
2.3128512707
 40
0.1893339628
100
AcDbArc
 50
318.8977899705
 51
322.0556976323
  0
ARC
  5
32C
100
AcDbEntity
  8
0
100
AcDbCircle
 62
7
  6
CONTINUOUS
 10
3.9155318792
 20
2.3016137913
 40
0.1844449199
100
AcDbArc
 50
318.9782174375
 51
322.0455637701
  0
ARC
  5
32D
100
AcDbEntity
  8
0
100
AcDbCircle
 62
7
  6
CONTINUOUS
 10
3.9220992491
 20
2.304156212
 40
0.1793395782
100
AcDbArc
 50
269.2369941797
 51
269.6413750524
  0
ARC
  5
32E
100
AcDbEntity
  8
0
100
AcDbCircle
 62
7
  6
CONTINUOUS
 10
3.9197775865
 20
2.308857229
 40
0.1788939722
100
AcDbArc
 50
270.5466640764
 51
270.9344158669
  0
ARC
  5
32F
100
AcDbEntity
  8
0
100
AcDbCircle
 62
7
  6
CONTINUOUS
 10
3.9333583172
 20
2.26481563
 40
0.0098748361
100
AcDbArc
 50
220.0441846519
 51
220.4479120471
  0
ARC
  5
330
100
AcDbEntity
  8
0
100
AcDbCircle
 62
7
  6
CONTINUOUS
 10
3.93333251
 20
2.2647943664
 40
0.009841399
100
AcDbArc
 50
213.3036700142
 51
220.0460792475
  0
ARC
  5
331
100
AcDbEntity
  8
0
100
AcDbCircle
 62
7
  6
CONTINUOUS
 10
3.8239633351
 20
2.4891325604
 40
0.3703635665
100
AcDbArc
 50
0.0018641084
 51
13.7184720749
  0
ARC
  5
332
100
AcDbEntity
  8
0
100
AcDbCircle
 62
7
  6
CONTINUOUS
 10
3.8239633351
 20
2.4891566598
 40
0.3703635665
100
AcDbArc
 50
346.2815279251
 51
359.9981358916
  0
ARC
  5
333
100
AcDbEntity
  8
0
100
AcDbCircle
 62
7
  6
CONTINUOUS
 10
3.8230902432
 20
2.504707406
 40
0.3204177492
100
AcDbArc
 50
0.0000364329
 51
0.7291719863
  0
ARC
  5
334
100
AcDbEntity
  8
0
100
AcDbCircle
 62
7
  6
CONTINUOUS
 10
3.8215105788
 20
2.6351341125
 40
0.2789974261
100
AcDbArc
 50
0.8548932144
 51
1.6370651901
  0
ARC
  5
335
100
AcDbEntity
  8
0
100
AcDbCircle
 62
7
  6
CONTINUOUS
 10
3.8216333502
 20
2.635135859
 40
0.2788746423
100
AcDbArc
 50
0.0000510473
 51
0.8549107647
  0
ARC
  5
336
100
AcDbEntity
  8
0
100
AcDbCircle
 62
7
  6
CONTINUOUS
 10
3.8864406731
 20
2.4945292928
 40
0.2205372201
100
AcDbArc
 50
273.1436719191
 51
273.2875702604
  0
ARC
  5
337
100
AcDbEntity
  8
0
100
AcDbCircle
 62
7
  6
CONTINUOUS
 10
3.9981692492
 20
2.4829777163
 40
0.2080338559
100
AcDbArc
 50
26.8584277081
 51
27.1979067851
  0
ARC
  5
338
100
AcDbEntity
  8
0
100
AcDbCircle
 62
7
  6
CONTINUOUS
 10
3.8992102775
 20
2.4694178551
 40
0.1910801154
100
AcDbArc
 50
327.2769304971
 51
327.4616020478
  0
ARC
  5
339
100
AcDbEntity
  8
0
100
AcDbCircle
 62
7
  6
CONTINUOUS
 10
3.9928519431
 20
2.6061959676
 40
0.1739329483
100
AcDbArc
 50
25.7444172401
 51
26.6089481071
  0
ARC
  5
33A
100
AcDbEntity
  8
0
100
AcDbCircle
 62
7
  6
CONTINUOUS
 10
3.9932613684
 20
2.6064006289
 40
0.17347522
100
AcDbArc
 50
26.6090791258
 51
26.8789276705
  0
ARC
  5
33B
100
AcDbEntity
  8
0
100
AcDbCircle
 62
7
  6
CONTINUOUS
 10
3.99357786
 20
2.6065617434
 40
0.17312008
100
AcDbArc
 50
26.8787223295
 51
27.6383461746
  0
ARC
  5
33C
100
AcDbEntity
  8
0
100
AcDbCircle
 62
7
  6
CONTINUOUS
 10
3.9938851885
 20
2.6067226188
 40
0.1727731914
100
AcDbArc
 50
27.6383620667
 51
28.007571277
  0
ARC
  5
33D
100
AcDbEntity
  8
0
100
AcDbCircle
 62
7
  6
CONTINUOUS
 10
4.0320015734
 20
2.4834936769
 40
0.1725771902
100
AcDbArc
 50
331.1788658459
 51
331.5670138315
  0
ARC
  5
33E
100
AcDbEntity
  8
0
100
AcDbCircle
 62
7
  6
CONTINUOUS
 10
3.9942642507
 20
2.6069250847
 40
0.1723434473
100
AcDbArc
 50
28.0073216026
 51
28.6866504123
  0
ARC
  5
33F
100
AcDbEntity
  8
0
100
AcDbCircle
 62
7
  6
CONTINUOUS
 10
3.9946911526
 20
2.6071588133
 40
0.1718567499
100
AcDbArc
 50
28.686610652
 51
29.129952624
  0
ARC
  5
340
100
AcDbEntity
  8
0
100
AcDbCircle
 62
7
  6
CONTINUOUS
 10
3.9954001355
 20
2.6075565405
 40
0.1710438303
100
AcDbArc
 50
29.1291839928
 51
30.1368875917
  0
ARC
  5
341
100
AcDbEntity
  8
0
100
AcDbCircle
 62
7
  6
CONTINUOUS
 10
3.4796571023
 20
5.8006279894
 40
0.04
100
AcDbArc
 50
210.0
 51
227.5398571097
  0
ARC
  5
342
100
AcDbEntity
  8
0
100
AcDbCircle
 62
7
  6
CONTINUOUS
 10
3.4199778315
 20
5.7393525122
 40
0.04
100
AcDbArc
 50
210.0
 51
227.278188937
  0
ARC
  5
343
100
AcDbEntity
  8
0
100
AcDbCircle
 62
7
  6
CONTINUOUS
 10
3.4760333061
 20
5.7966634177
 40
0.0297237434
100
AcDbArc
 50
209.6498648071
 51
227.534177197
  0
ARC
  5
344
100
AcDbEntity
  8
0
100
AcDbCircle
 62
7
  6
CONTINUOUS
 10
3.4165934632
 20
5.735683042
 40
0.0295954764
100
AcDbArc
 50
209.6153151972
 51
227.2720609227
  0
ARC
  5
345
100
AcDbEntity
  8
0
100
AcDbCircle
 62
7
  6
CONTINUOUS
 10
3.3297259411
 20
6.0603163783
 40
0.04
100
AcDbArc
 50
192.4601428903
 51
210.0
  0
ARC
  5
346
100
AcDbEntity
  8
0
100
AcDbCircle
 62
7
  6
CONTINUOUS
 10
3.2468201858
 20
6.0392703522
 40
0.04
100
AcDbArc
 50
192.721811063
 51
210.0
  0
ARC
  5
347
100
AcDbEntity
  8
0
100
AcDbCircle
 62
7
  6
CONTINUOUS
 10
3.3244806325
 20
6.0591603682
 40
0.0297237533
100
AcDbArc
 50
192.4658258124
 51
210.3501321835
  0
ARC
  5
348
100
AcDbEntity
  8
0
100
AcDbCircle
 62
7
  6
CONTINUOUS
 10
3.2419501449
 20
6.0381741375
 40
0.0295954739
100
AcDbArc
 50
192.7279383244
 51
210.3846855558
  0
ARC
  5
349
100
AcDbEntity
  8
0
100
AcDbCircle
 62
7
  6
CONTINUOUS
 10
3.7709968814
 20
6.1676571838
 40
1.3645111111
100
AcDbArc
 50
344.9648228554
 51
352.4167602238
  0
ARC
  5
34A
100
AcDbEntity
  8
0
100
AcDbCircle
 62
7
  6
CONTINUOUS
 10
3.7709968814
 20
6.1676571838
 40
1.3645111111
100
AcDbArc
 50
7.5832397762
 51
15.0351771446
  0
ARC
  5
34B
100
AcDbEntity
  8
0
100
AcDbCircle
 62
7
  6
CONTINUOUS
 10
3.8155079925
 20
6.1676571838
 40
0.623
100
AcDbArc
 50
297.2110544416
 51
312.721811063
  0
ARC
  5
34C
100
AcDbEntity
  8
0
100
AcDbCircle
 62
7
  6
CONTINUOUS
 10
3.8155079925
 20
6.1676571838
 40
0.623
100
AcDbArc
 50
107.278188937
 51
132.721811063
  0
ARC
  5
34D
100
AcDbEntity
  8
0
100
AcDbCircle
 62
7
  6
CONTINUOUS
 10
3.8155079925
 20
6.1676571838
 40
0.623
100
AcDbArc
 50
227.278188937
 51
242.7889455584
  0
ARC
  5
34E
100
AcDbEntity
  8
0
100
AcDbCircle
 62
7
  6
CONTINUOUS
 10
3.8155079925
 20
6.1676571838
 40
0.623
100
AcDbArc
 50
47.278188937
 51
72.721811063
  0
ARC
  5
34F
100
AcDbEntity
  8
0
100
AcDbCircle
 62
7
  6
CONTINUOUS
 10
3.8155079925
 20
6.1676571838
 40
0.623
100
AcDbArc
 50
167.278188937
 51
192.721811063
  0
ARC
  5
350
100
AcDbEntity
  8
0
100
AcDbCircle
 62
7
  6
CONTINUOUS
 10
3.8155079925
 20
6.1676571838
 40
0.6175873646
100
AcDbArc
 50
297.4689312094
 51
312.721811063
  0
ARC
  5
351
100
AcDbEntity
  8
0
100
AcDbCircle
 62
7
  6
CONTINUOUS
 10
3.8155079925
 20
6.1676571838
 40
0.6175873646
100
AcDbArc
 50
227.278188937
 51
242.5310687906
  0
ARC
  5
352
100
AcDbEntity
  8
0
100
AcDbCircle
 62
7
  6
CONTINUOUS
 10
3.8155079925
 20
6.1676571838
 40
0.6175873646
100
AcDbArc
 50
107.278188937
 51
132.721811063
  0
ARC
  5
353
100
AcDbEntity
  8
0
100
AcDbCircle
 62
7
  6
CONTINUOUS
 10
3.8155079925
 20
6.1676571838
 40
0.6175873646
100
AcDbArc
 50
47.278188937
 51
72.721811063
  0
ARC
  5
354
100
AcDbEntity
  8
0
100
AcDbCircle
 62
7
  6
CONTINUOUS
 10
3.8155079925
 20
6.1676571838
 40
0.6175873646
100
AcDbArc
 50
167.278188937
 51
192.721811063
  0
ARC
  5
355
100
AcDbEntity
  8
0
100
AcDbCircle
 62
7
  6
CONTINUOUS
 10
3.8155079925
 20
6.1676571838
 40
0.55325
100
AcDbArc
 50
300.9914533248
 51
305.5715612887
  0
ARC
  5
356
100
AcDbEntity
  8
0
100
AcDbCircle
 62
7
  6
CONTINUOUS
 10
3.8155079925
 20
6.1676571838
 40
0.55325
100
AcDbArc
 50
54.4284387113
 51
239.0085466752
  0
ARC
  5
357
100
AcDbEntity
  8
0
100
AcDbCircle
 62
7
  6
CONTINUOUS
 10
3.8155079925
 20
6.1676571838
 40
0.5375
100
AcDbArc
 50
47.5398571097
 51
72.4601428903
  0
ARC
  5
358
100
AcDbEntity
  8
0
100
AcDbCircle
 62
7
  6
CONTINUOUS
 10
3.8155079925
 20
6.1676571838
 40
0.5375
100
AcDbArc
 50
347.5398571097
 51
12.4601428903
  0
ARC
  5
359
100
AcDbEntity
  8
0
100
AcDbCircle
 62
7
  6
CONTINUOUS
 10
3.8155079925
 20
6.1676571838
 40
0.5375
100
AcDbArc
 50
167.5398571097
 51
192.4601428903
  0
ARC
  5
35A
100
AcDbEntity
  8
0
100
AcDbCircle
 62
7
  6
CONTINUOUS
 10
3.8155079925
 20
6.1676571838
 40
0.5375
100
AcDbArc
 50
302.0061630858
 51
312.4601428903
  0
ARC
  5
35B
100
AcDbEntity
  8
0
100
AcDbCircle
 62
7
  6
CONTINUOUS
 10
3.8155079925
 20
6.1676571838
 40
0.5375
100
AcDbArc
 50
227.5398571097
 51
237.9938369142
  0
ARC
  5
35C
100
AcDbEntity
  8
0
100
AcDbCircle
 62
7
  6
CONTINUOUS
 10
3.8155079925
 20
6.1676571838
 40
0.5375
100
AcDbArc
 50
107.5398571097
 51
132.4601428903
  0
ARC
  5
35D
100
AcDbEntity
  8
0
100
AcDbCircle
 62
7
  6
CONTINUOUS
 10
3.8155079925
 20
6.1676571838
 40
0.5325949367
100
AcDbArc
 50
107.5398571097
 51
132.4601428903
  0
ARC
  5
35E
100
AcDbEntity
  8
0
100
AcDbCircle
 62
7
  6
CONTINUOUS
 10
3.8155079925
 20
6.1676571838
 40
0.5325949367
100
AcDbArc
 50
47.5398571097
 51
72.4601428903
  0
ARC
  5
35F
100
AcDbEntity
  8
0
100
AcDbCircle
 62
7
  6
CONTINUOUS
 10
3.8155079925
 20
6.1676571838
 40
0.5325949367
100
AcDbArc
 50
227.5398571097
 51
237.6643209085
  0
ARC
  5
360
100
AcDbEntity
  8
0
100
AcDbCircle
 62
7
  6
CONTINUOUS
 10
3.8155079925
 20
6.1676571838
 40
0.5325949367
100
AcDbArc
 50
167.5398571097
 51
192.4601428903
  0
ARC
  5
361
100
AcDbEntity
  8
0
100
AcDbCircle
 62
7
  6
CONTINUOUS
 10
3.8155079925
 20
6.1676571838
 40
0.5325949367
100
AcDbArc
 50
347.5398571097
 51
12.4601428903
  0
ARC
  5
362
100
AcDbEntity
  8
0
100
AcDbCircle
 62
7
  6
CONTINUOUS
 10
3.8155079925
 20
6.1676571838
 40
0.5325949367
100
AcDbArc
 50
302.3356790915
 51
312.4601428903
  0
ARC
  5
363
100
AcDbEntity
  8
0
100
AcDbCircle
 62
7
  6
CONTINUOUS
 10
3.8155079925
 20
6.1676571838
 40
0.51825
100
AcDbArc
 50
82.9967126573
 51
97.0032873427
  0
ARC
  5
364
100
AcDbEntity
  8
0
100
AcDbCircle
 62
7
  6
CONTINUOUS
 10
3.8155079925
 20
6.1676571838
 40
0.51825
100
AcDbArc
 50
142.9965969584
 51
157.0033645228
  0
ARC
  5
365
100
AcDbEntity
  8
0
100
AcDbCircle
 62
7
  6
CONTINUOUS
 10
3.8155079925
 20
6.1676571838
 40
0.51825
100
AcDbArc
 50
202.9966354772
 51
217.0034030416
  0
ARC
  5
366
100
AcDbEntity
  8
0
100
AcDbCircle
 62
7
  6
CONTINUOUS
 10
3.8155079925
 20
6.1676571838
 40
0.4711557708
100
AcDbArc
 50
307.2029492357
 51
232.7970507643
  0
ARC
  5
367
100
AcDbEntity
  8
0
100
AcDbCircle
 62
7
  6
CONTINUOUS
 10
3.8155079925
 20
6.1676571838
 40
0.43575
100
AcDbArc
 50
310.8270089343
 51
229.1729910657
  0
ARC
  5
368
100
AcDbEntity
  8
0
100
AcDbCircle
 62
7
  6
CONTINUOUS
 10
3.8155079925
 20
6.1676571838
 40
0.3605
100
AcDbArc
 50
322.208096402
 51
217.791903598
  0
ARC
  5
369
100
AcDbEntity
  8
0
100
AcDbCircle
 62
7
  6
CONTINUOUS
 10
3.8154758739
 20
6.1747112612
 40
0.2779459245
100
AcDbArc
 50
86.7160342866
 51
89.9933790782
  0
ARC
  5
36A
100
AcDbEntity
  8
0
100
AcDbCircle
 62
7
  6
CONTINUOUS
 10
3.8155401111
 20
6.1747112612
 40
0.2779459245
100
AcDbArc
 50
90.0066209218
 51
93.2839657134
  0
ARC
  5
36B
100
AcDbEntity
  8
0
100
AcDbCircle
 62
7
  6
CONTINUOUS
 10
3.4796571023
 20
6.5346863783
 40
0.04
100
AcDbArc
 50
132.4601428903
 51
150.0
  0
ARC
  5
36C
100
AcDbEntity
  8
0
100
AcDbCircle
 62
7
  6
CONTINUOUS
 10
3.3297259411
 20
6.2749979894
 40
0.04
100
AcDbArc
 50
150.0
 51
167.5398571097
  0
ARC
  5
36D
100
AcDbEntity
  8
0
100
AcDbCircle
 62
7
  6
CONTINUOUS
 10
3.6655768313
 20
6.6420271838
 40
0.04
100
AcDbArc
 50
90.0
 51
107.5398571097
  0
ARC
  5
36E
100
AcDbEntity
  8
0
100
AcDbCircle
 62
7
  6
CONTINUOUS
 10
3.6423503468
 20
6.724348687
 40
0.04
100
AcDbArc
 50
90.0
 51
107.278188937
  0
ARC
  5
36F
100
AcDbEntity
  8
0
100
AcDbCircle
 62
7
  6
CONTINUOUS
 10
3.4199778315
 20
6.5959618555
 40
0.04
100
AcDbArc
 50
132.721811063
 51
150.0
  0
ARC
  5
370
100
AcDbEntity
  8
0
100
AcDbCircle
 62
7
  6
CONTINUOUS
 10
3.2468201858
 20
6.2960440154
 40
0.04
100
AcDbArc
 50
150.0
 51
167.278188937
  0
ARC
  5
371
100
AcDbEntity
  8
0
100
AcDbCircle
 62
7
  6
CONTINUOUS
 10
3.4760333139
 20
6.5386509437
 40
0.0297237533
100
AcDbArc
 50
132.4658258124
 51
150.3501321835
  0
ARC
  5
372
100
AcDbEntity
  8
0
100
AcDbCircle
 62
7
  6
CONTINUOUS
 10
3.3244806231
 20
6.2761540031
 40
0.0297237434
100
AcDbArc
 50
149.649864807
 51
167.534177197
  0
ARC
  5
373
100
AcDbEntity
  8
0
100
AcDbCircle
 62
7
  6
CONTINUOUS
 10
3.6639553096
 20
6.6471477693
 40
0.0297237434
100
AcDbArc
 50
89.6498648071
 51
107.534177197
  0
ARC
  5
374
100
AcDbEntity
  8
0
100
AcDbCircle
 62
7
  6
CONTINUOUS
 10
3.6408646766
 20
6.7291143709
 40
0.0295954765
100
AcDbArc
 50
89.6153152334
 51
107.2720608864
  0
ARC
  5
375
100
AcDbEntity
  8
0
100
AcDbCircle
 62
7
  6
CONTINUOUS
 10
3.2419501473
 20
6.2971402292
 40
0.0295954764
100
AcDbArc
 50
149.6153151972
 51
167.2720609226
  0
ARC
  5
376
100
AcDbEntity
  8
0
100
AcDbCircle
 62
7
  6
CONTINUOUS
 10
3.4165934613
 20
6.5996313272
 40
0.0295954739
100
AcDbArc
 50
132.7279383244
 51
150.3846855558
  0
ARC
  5
377
100
AcDbEntity
  8
0
100
AcDbCircle
 62
7
  6
CONTINUOUS
 10
4.6332289077
 20
5.8193933421
 40
0.285
100
AcDbArc
 50
330.7821872371
 51
334.9911371272
  0
ARC
  5
378
100
AcDbEntity
  8
0
100
AcDbCircle
 62
7
  6
CONTINUOUS
 10
4.1513588827
 20
5.8006279894
 40
0.04
100
AcDbArc
 50
312.4601428903
 51
330.0
  0
ARC
  5
379
100
AcDbEntity
  8
0
100
AcDbCircle
 62
7
  6
CONTINUOUS
 10
4.3012900439
 20
6.0603163783
 40
0.04
100
AcDbArc
 50
330.0
 51
347.5398571097
  0
ARC
  5
37A
100
AcDbEntity
  8
0
100
AcDbCircle
 62
7
  6
CONTINUOUS
 10
4.2110381535
 20
5.7393525122
 40
0.04
100
AcDbArc
 50
312.721811063
 51
327.1535851017
  0
ARC
  5
37B
100
AcDbEntity
  8
0
100
AcDbCircle
 62
7
  6
CONTINUOUS
 10
4.1549826711
 20
5.7966634239
 40
0.0297237533
100
AcDbArc
 50
312.4658258124
 51
330.3501321835
  0
ARC
  5
37C
100
AcDbEntity
  8
0
100
AcDbCircle
 62
7
  6
CONTINUOUS
 10
4.3065353618
 20
6.0591603645
 40
0.0297237434
100
AcDbArc
 50
329.6498648071
 51
347.534177197
  0
ARC
  5
37D
100
AcDbEntity
  8
0
100
AcDbCircle
 62
7
  6
CONTINUOUS
 10
4.2144470656
 20
5.7356603538
 40
0.0295621566
100
AcDbArc
 50
312.7228316801
 51
322.4800848735
  0
ARC
  5
37E
100
AcDbEntity
  8
0
100
AcDbCircle
 62
7
  6
CONTINUOUS
 10
4.6332289077
 20
6.5159210256
 40
0.285
100
AcDbArc
 50
25.0088628728
 51
29.2178127629
  0
ARC
  5
37F
100
AcDbEntity
  8
0
100
AcDbCircle
 62
7
  6
CONTINUOUS
 10
3.9654391537
 20
6.6420271838
 40
0.04
100
AcDbArc
 50
72.4601428903
 51
90.0
  0
ARC
  5
380
100
AcDbEntity
  8
0
100
AcDbCircle
 62
7
  6
CONTINUOUS
 10
4.3012900439
 20
6.2749979894
 40
0.04
100
AcDbArc
 50
12.4601428903
 51
30.0
  0
ARC
  5
381
100
AcDbEntity
  8
0
100
AcDbCircle
 62
7
  6
CONTINUOUS
 10
4.1513588827
 20
6.5346863783
 40
0.04
100
AcDbArc
 50
30.0
 51
47.5398571097
  0
ARC
  5
382
100
AcDbEntity
  8
0
100
AcDbCircle
 62
7
  6
CONTINUOUS
 10
4.2110381535
 20
6.5959618555
 40
0.04
100
AcDbArc
 50
32.8464173456
 51
47.278188937
  0
ARC
  5
383
100
AcDbEntity
  8
0
100
AcDbCircle
 62
7
  6
CONTINUOUS
 10
3.9886656382
 20
6.724348687
 40
0.04
100
AcDbArc
 50
72.721811063
 51
90.0
  0
ARC
  5
384
100
AcDbEntity
  8
0
100
AcDbCircle
 62
7
  6
CONTINUOUS
 10
3.9670606739
 20
6.6471477593
 40
0.0297237534
100
AcDbArc
 50
72.4658258353
 51
90.3501321606
  0
ARC
  5
385
100
AcDbEntity
  8
0
100
AcDbCircle
 62
7
  6
CONTINUOUS
 10
4.3065353525
 20
6.2761539995
 40
0.0297237533
100
AcDbArc
 50
12.4658258124
 51
30.3501321836
  0
ARC
  5
386
100
AcDbEntity
  8
0
100
AcDbCircle
 62
7
  6
CONTINUOUS
 10
4.1549826789
 20
6.53865095
 40
0.0297237434
100
AcDbArc
 50
29.6498648071
 51
47.534177197
  0
ARC
  5
387
100
AcDbEntity
  8
0
100
AcDbCircle
 62
7
  6
CONTINUOUS
 10
3.9901513088
 20
6.7291143735
 40
0.0295954739
100
AcDbArc
 50
72.7279383244
 51
90.3846855558
  0
ARC
  5
388
100
AcDbEntity
  8
0
100
AcDbCircle
 62
7
  6
CONTINUOUS
 10
4.2144471529
 20
6.5996540946
 40
0.0295620381
100
AcDbArc
 50
37.5198867022
 51
47.2771864419
  0
ARC
  5
389
100
AcDbEntity
  8
0
100
AcDbCircle
 62
7
  6
CONTINUOUS
 10
6.0323596023
 20
1.3303443542
 40
2.8800781614
100
AcDbArc
 50
150.2999490347
 51
151.3269653265
  0
ARC
  5
38A
100
AcDbEntity
  8
0
100
AcDbCircle
 62
7
  6
CONTINUOUS
 10
5.7278526513
 20
1.4081864504
 40
2.5626518385
100
AcDbArc
 50
152.0696447238
 51
152.8378635417
  0
ARC
  5
38B
100
AcDbEntity
  8
0
100
AcDbCircle
 62
7
  6
CONTINUOUS
 10
4.9437870773
 20
5.8193933421
 40
0.285
100
AcDbArc
 50
205.0088628728
 51
209.2178424969
  0
ARC
  5
38C
100
AcDbEntity
  8
0
100
AcDbCircle
 62
7
  6
CONTINUOUS
 10
4.9821322328
 20
5.6566313388
 40
0.1
100
AcDbArc
 50
104.4965291015
 51
154.9911371272
  0
ARC
  5
38D
100
AcDbEntity
  8
0
100
AcDbCircle
 62
7
  6
CONTINUOUS
 10
5.0405079925
 20
5.8266571838
 40
0.05
100
AcDbArc
 50
284.4965291015
 51
344.9648228554
  0
ARC
  5
38E
100
AcDbEntity
  8
0
100
AcDbCircle
 62
7
  6
CONTINUOUS
 10
5.1136470686
 20
5.98890718
 40
0.0099999668
100
AcDbArc
 50
352.4167568444
 51
8.5873035794
  0
ARC
  5
38F
100
AcDbEntity
  8
0
100
AcDbCircle
 62
7
  6
CONTINUOUS
 10
4.9437870773
 20
6.5159210256
 40
0.285
100
AcDbArc
 50
150.7821575031
 51
154.9911371272
  0
ARC
  5
390
100
AcDbEntity
  8
0
100
AcDbCircle
 62
7
  6
CONTINUOUS
 10
4.9821322328
 20
6.6786830288
 40
0.1
100
AcDbArc
 50
205.0088628728
 51
255.5034708985
  0
ARC
  5
391
100
AcDbEntity
  8
0
100
AcDbCircle
 62
7
  6
CONTINUOUS
 10
5.0405079925
 20
6.5086571838
 40
0.05
100
AcDbArc
 50
15.0351771446
 51
75.5034708985
  0
ARC
  5
392
100
AcDbEntity
  8
0
100
AcDbCircle
 62
7
  6
CONTINUOUS
 10
5.1136470676
 20
6.3464071876
 40
0.0099999678
100
AcDbArc
 50
351.4154106292
 51
7.5832425374
  0
ARC
  5
393
100
AcDbEntity
  8
0
100
AcDbCircle
 62
7
  6
CONTINUOUS
 10
5.3780982831
 20
6.0864071838
 40
0.075
100
AcDbArc
 50
210.0
 51
270.0
  0
ARC
  5
394
100
AcDbEntity
  8
0
100
AcDbCircle
 62
7
  6
CONTINUOUS
 10
5.4719177019
 20
6.0864071838
 40
0.075
100
AcDbArc
 50
270.0
 51
330.0
  0
ARC
  5
395
100
AcDbEntity
  8
0
100
AcDbCircle
 62
7
  6
CONTINUOUS
 10
5.4740747768
 20
6.0826709197
 40
0.0575278662
100
AcDbArc
 50
269.9996945466
 51
330.0003923118
  0
ARC
  5
396
100
AcDbEntity
  8
0
100
AcDbCircle
 62
7
  6
CONTINUOUS
 10
5.3759411205
 20
6.0826709693
 40
0.0575278654
100
AcDbArc
 50
209.999694115
 51
270.0003927412
  0
ARC
  5
397
100
AcDbEntity
  8
0
100
AcDbCircle
 62
7
  6
CONTINUOUS
 10
5.5231450198
 20
6.167655899
 40
0.0575244746
100
AcDbArc
 50
329.9990803162
 51
29.9999968115
  0
ARC
  5
398
100
AcDbEntity
  8
0
100
AcDbCircle
 62
7
  6
CONTINUOUS
 10
5.5188274112
 20
6.1676571838
 40
0.075
100
AcDbArc
 50
330.0
 51
30.0
  0
ARC
  5
399
100
AcDbEntity
  8
0
100
AcDbCircle
 62
7
  6
CONTINUOUS
 10
5.4719177019
 20
6.2489071838
 40
0.075
100
AcDbArc
 50
30.0
 51
90.0
  0
ARC
  5
39A
100
AcDbEntity
  8
0
100
AcDbCircle
 62
7
  6
CONTINUOUS
 10
5.3780982831
 20
6.2489071838
 40
0.075
100
AcDbArc
 50
90.0
 51
150.0
  0
ARC
  5
39B
100
AcDbEntity
  8
0
100
AcDbCircle
 62
7
  6
CONTINUOUS
 10
5.3311885737
 20
6.1676571838
 40
0.075
100
AcDbArc
 50
150.0
 51
210.0
  0
ARC
  5
39C
100
AcDbEntity
  8
0
100
AcDbCircle
 62
7
  6
CONTINUOUS
 10
5.3759412082
 20
6.2526434479
 40
0.0575278661
100
AcDbArc
 50
89.9996945675
 51
150.0003922912
  0
ARC
  5
39D
100
AcDbEntity
  8
0
100
AcDbCircle
 62
7
  6
CONTINUOUS
 10
5.4740748644
 20
6.2526433983
 40
0.0575278652
100
AcDbArc
 50
29.9996941292
 51
90.0003927272
  0
ARC
  5
39E
100
AcDbEntity
  8
0
100
AcDbCircle
 62
7
  6
CONTINUOUS
 10
5.3268709658
 20
6.1676584713
 40
0.0575244746
100
AcDbArc
 50
149.9990829388
 51
209.9999968806
  0
ARC
  5
39F
100
AcDbEntity
  8
0
100
AcDbCircle
 62
7
  6
CONTINUOUS
 10
26.4047443234
 20
-10.5970574593
 40
26.4920432339
100
AcDbArc
 50
149.7042741591
 51
149.8888871755
  0
ARC
  5
3A0
100
AcDbEntity
  8
0
100
AcDbCircle
 62
7
  6
CONTINUOUS
 10
24.892171721
 20
-6.0009590314
 40
23.828497891
100
AcDbArc
 50
149.6360275694
 51
150.3639776866
  0
ARC
  5
3A1
100
AcDbEntity
  8
0
100
AcDbCircle
 62
7
  6
CONTINUOUS
 10
3.8155079925
 20
43.0856585382
 40
40.9695133114
100
AcDbArc
 50
269.8636184777
 51
270.1363815223
  0
ARC
  5
3A2
100
AcDbEntity
  8
0
100
AcDbCircle
 62
7
  6
CONTINUOUS
 10
3.8155060616
 20
31.7707107394
 40
25.0126070634
100
AcDbArc
 50
269.6004051346
 51
270.3996037114
  0
ARC
  5
3A3
100
AcDbEntity
  8
0
100
AcDbCircle
 62
7
  6
CONTINUOUS
 10
24.8914042916
 20
18.3358324116
 40
23.8276139858
100
AcDbArc
 50
209.6360131412
 51
210.3639902989
  0
ARC
  5
3A4
100
AcDbEntity
  8
0
100
AcDbCircle
 62
7
  6
CONTINUOUS
 10
3.8155112057
 20
30.5039469933
 40
23.8275545996
100
AcDbArc
 50
269.6360027875
 51
270.3639817601
  0
SPLINE
  5
3A5
100
AcDbEntity
  8
0
100
AcDbSpline
 62
7
  6
CONTINUOUS
 70
0
 71
3
 72
33
 73
29
 74
0
 42
0.0000001
 43
0.0000001
 44
0.0000000001
 40
0.0
 40
0.0
 40
0.0
 40
0.0
 40
0.0628141774
 40
0.1256479333
 40
0.1884854045
 40
0.2512902239
 40
0.2826769398
 40
0.3140418534
 40
0.3453827334
 40
0.3766994598
 40
0.3923506765
 40
0.4079970773
 40
0.4392761192
 40
0.4705441093
 40
0.5018034105
 40
0.5330541544
 40
0.5642947996
 40
0.6267163366
 40
0.6890615463
 40
0.7202091718
 40
0.751333664
 40
0.7824374735
 40
0.7979844095
 40
0.8135284279
 40
0.8446092908
 40
0.8756889683
 40
0.9378379734
 40
1.0
 40
1.0
 40
1.0
 40
1.0
 10
3.8155079925
 20
2.3575750223
 30
0.0
 10
3.8061928232
 20
2.3575750223
 30
0.0
 10
3.7875469944
 20
2.3585107243
 30
0.0
 10
3.7598590865
 20
2.3626356364
 30
0.0
 10
3.732695117
 20
2.3693961757
 30
0.0
 10
3.7107000352
 20
2.377161412
 30
0.0
 10
3.6936279918
 20
2.3846084089
 30
0.0
 10
3.6811172049
 20
2.390800785
 30
0.0
 10
3.6689322737
 20
2.3975899219
 30
0.0
 10
3.6590740637
 20
2.4037379307
 30
0.0
 10
3.651384051
 20
2.4089437496
 30
0.0
 10
3.6438321745
 20
2.41433842
 30
0.0
 10
3.6346542034
 20
2.4214343183
 30
0.0
 10
3.6240816733
 20
2.4304840947
 30
0.0
 10
3.6139708575
 20
2.4400408317
 30
0.0
 10
3.6043416744
 20
2.4500772975
 30
0.0
 10
3.5921772589
 20
2.4640558271
 30
0.0
 10
3.5782717595
 20
2.4825940301
 30
0.0
 10
3.5662317303
 20
2.5023792279
 30
0.0
 10
3.5578074509
 20
2.5188349548
 30
0.0
 10
3.5521123763
 20
2.5314633973
 30
0.0
 10
3.547901245
 20
2.5422066547
 30
0.0
 10
3.5448643179
 20
2.5509165838
 30
0.0
 10
3.5420524363
 20
2.5596981355
 30
0.0
 10
3.5389589002
 20
2.5708042733
 30
0.0
 10
3.5349101182
 20
2.5887955067
 30
0.0
 10
3.5315348005
 20
2.6116305466
 30
0.0
 10
3.5306354608
 20
2.6300773229
 30
0.0
 10
3.5306354608
 20
2.63929578
 30
0.0
  0
SPLINE
  5
3A6
100
AcDbEntity
  8
0
100
AcDbSpline
 62
7
  6
CONTINUOUS
 70
0
 71
3
 72
34
 73
30
 74
0
 42
0.0000001
 43
0.0000001
 44
0.0000000001
 40
0.0
 40
0.0
 40
0.0
 40
0.0
 40
0.0312338491
 40
0.0624735076
 40
0.1249609139
 40
0.1874788179
 40
0.2500026564
 40
0.2812668394
 40
0.3125227691
 40
0.3437693579
 40
0.3750075423
 40
0.3906257055
 40
0.406243341
 40
0.4374779676
 40
0.4687192147
 40
0.4999695152
 40
0.5312289367
 40
0.5624957459
 40
0.6250207879
 40
0.687534177
 40
0.7187882878
 40
0.7500330644
 40
0.781269911
 40
0.796887767
 40
0.8125054366
 40
0.8437410491
 40
0.8749839784
 40
0.9374786004
 40
1.0
 40
1.0
 40
1.0
 40
1.0
 10
3.8155079925
 20
6.4526571838
 30
0.0
 10
3.8108499842
 20
6.4526571838
 30
0.0
 10
3.8015312061
 20
6.4524206296
 30
0.0
 10
3.782942411
 20
6.4510160394
 30
0.0
 10
3.7598604491
 20
6.447538083
 30
0.0
 10
3.7327000372
 20
6.4406997312
 30
0.0
 10
3.710710076
 20
6.4328465505
 30
0.0
 10
3.6936433384
 20
6.4253163069
 30
0.0
 10
3.6811338898
 20
6.4190535059
 30
0.0
 10
3.6689501997
 20
6.4121871637
 30
0.0
 10
3.6590942048
 20
6.405970062
 30
0.0
 10
3.6514059045
 20
6.4007058834
 30
0.0
 10
3.6438536111
 20
6.3952492566
 30
0.0
 10
3.6346751082
 20
6.3880717257
 30
0.0
 10
3.6241033338
 20
6.378919111
 30
0.0
 10
3.6139931065
 20
6.3692537579
 30
0.0
 10
3.6043643347
 20
6.3591032089
 30
0.0
 10
3.592196876
 20
6.3449618801
 30
0.0
 10
3.5782884867
 20
6.3262076336
 30
0.0
 10
3.566251578
 20
6.3062024335
 30
0.0
 10
3.5578280399
 20
6.2895633657
 30
0.0
 10
3.5521317452
 20
6.2767911361
 30
0.0
 10
3.5479197611
 20
6.2659265625
 30
0.0
 10
3.5448818552
 20
6.2571181232
 30
0.0
 10
3.5420683929
 20
6.24823568
 30
0.0
 10
3.5389729142
 20
6.23700211
 30
0.0
 10
3.5349206581
 20
6.2188037942
 30
0.0
 10
3.5315411385
 20
6.1957076124
 30
0.0
 10
3.5306377479
 20
6.1770521248
 30
0.0
 10
3.5306354695
 20
6.1677280998
 30
0.0
  0
SPLINE
  5
3A7
100
AcDbEntity
  8
0
100
AcDbSpline
 62
7
  6
CONTINUOUS
 70
0
 71
3
 72
24
 73
20
 74
0
 42
0.0000001
 43
0.0000001
 44
0.0000000001
 40
0.0
 40
0.0
 40
0.0
 40
0.0
 40
0.1064527509
 40
0.2095124919
 40
0.2610811096
 40
0.3136282697
 40
0.3680083357
 40
0.4251130786
 40
0.4857180188
 40
0.5502842788
 40
0.6188179352
 40
0.6544676501
 40
0.6909218642
 40
0.765826588
 40
0.8427755486
 40
0.8818089617
 40
0.9210793224
 40
0.9604809921
 40
1.0
 40
1.0
 40
1.0
 40
1.0
 10
3.8893854865
 20
2.1805941062
 30
0.0
 10
3.8906806079
 20
2.1809417081
 30
0.0
 10
3.8932146838
 20
2.1816835383
 30
0.0
 10
3.8963120473
 20
2.182798157
 30
0.0
 10
3.8987094535
 20
2.1838312871
 30
0.0
 10
3.900503593
 20
2.1847092688
 30
0.0
 10
3.9023058786
 20
2.1857224958
 30
0.0
 10
3.9041215105
 20
2.1869103249
 30
0.0
 10
3.9059399695
 20
2.1883167542
 30
0.0
 10
3.9077283509
 20
2.1899822614
 30
0.0
 10
3.9091282291
 20
2.1915881765
 30
0.0
 10
3.9101747579
 20
2.1930187341
 30
0.0
 10
3.9111770502
 20
2.1945770527
 30
0.0
 10
3.9122697764
 20
2.1966901773
 30
0.0
 10
3.9130869252
 20
2.1989599216
 30
0.0
 10
3.9135590546
 20
2.2008590826
 30
0.0
 10
3.9138168705
 20
2.2023204733
 30
0.0
 10
3.91397317
 20
2.2038022119
 30
0.0
 10
3.9140079925
 20
2.2047967138
 30
0.0
 10
3.9140079925
 20
2.2052945244
 30
0.0
  0
SPLINE
  5
3A8
100
AcDbEntity
  8
0
100
AcDbSpline
 62
7
  6
CONTINUOUS
 70
0
 71
3
 72
24
 73
20
 74
0
 42
0.0000001
 43
0.0000001
 44
0.0000000001
 40
0.0
 40
0.0
 40
0.0
 40
0.0
 40
0.0395182299
 40
0.0789194967
 40
0.1181901433
 40
0.1572234626
 40
0.2341728257
 40
0.3090782808
 40
0.3455328679
 40
0.3811828741
 40
0.4497170041
 40
0.5142832493
 40
0.5748879201
 40
0.6319925224
 40
0.6863726731
 40
0.7389193799
 40
0.790488158
 40
0.8935473784
 40
1.0
 40
1.0
 40
1.0
 40
1.0
 10
3.7170079925
 20
2.2052945244
 30
0.0
 10
3.7170079925
 20
2.2047967236
 30
0.0
 10
3.7170428093
 20
2.2038022362
 30
0.0
 10
3.7171991164
 20
2.20232051
 30
0.0
 10
3.7174569156
 20
2.2008591191
 30
0.0
 10
3.7179290554
 20
2.1989599528
 30
0.0
 10
3.7187461995
 20
2.1966901932
 30
0.0
 10
3.7198389388
 20
2.1945770538
 30
0.0
 10
3.7208412358
 20
2.1930187173
 30
0.0
 10
3.7218877806
 20
2.1915881535
 30
0.0
 10
3.7232876648
 20
2.1899822315
 30
0.0
 10
3.7250760526
 20
2.1883167276
 30
0.0
 10
3.7268945065
 20
2.1869103009
 30
0.0
 10
3.7287101306
 20
2.1857224671
 30
0.0
 10
3.7305124174
 20
2.1847092544
 30
0.0
 10
3.7323065638
 20
2.183831294
 30
0.0
 10
3.7347039449
 20
2.182798132
 30
0.0
 10
3.7378013129
 20
2.1816835402
 30
0.0
 10
3.7403353787
 20
2.1809417077
 30
0.0
 10
3.7416304985
 20
2.1805941062
 30
0.0
  0
SPLINE
  5
3A9
100
AcDbEntity
  8
0
100
AcDbSpline
 62
7
  6
CONTINUOUS
 70
0
 71
3
 72
33
 73
29
 74
0
 42
0.0000001
 43
0.0000001
 44
0.0000000001
 40
0.0
 40
0.0
 40
0.0
 40
0.0
 40
0.0621620266
 40
0.1243110317
 40
0.1553907092
 40
0.1864715721
 40
0.2020155905
 40
0.2175625265
 40
0.248666336
 40
0.2797908282
 40
0.3109384537
 40
0.3732836634
 40
0.4357052004
 40
0.4669458456
 40
0.4981965895
 40
0.5294558907
 40
0.5607238808
 40
0.5920029227
 40
0.6076493235
 40
0.6233005402
 40
0.6546172666
 40
0.6859581466
 40
0.7173230602
 40
0.7487097761
 40
0.8115145955
 40
0.8743520667
 40
0.9371858226
 40
1.0
 40
1.0
 40
1.0
 40
1.0
 10
4.1003805241
 20
2.63929578
 30
0.0
 10
4.1003805241
 20
2.6300773229
 30
0.0
 10
4.0994811845
 20
2.6116305466
 30
0.0
 10
4.0961058668
 20
2.5887955067
 30
0.0
 10
4.0920570848
 20
2.5708042733
 30
0.0
 10
4.0889635487
 20
2.5596981355
 30
0.0
 10
4.0861516671
 20
2.5509165838
 30
0.0
 10
4.08311474
 20
2.5422066547
 30
0.0
 10
4.0789036087
 20
2.5314633973
 30
0.0
 10
4.0732085341
 20
2.5188349548
 30
0.0
 10
4.0647842547
 20
2.5023792279
 30
0.0
 10
4.0527442254
 20
2.4825940301
 30
0.0
 10
4.0388387261
 20
2.4640558271
 30
0.0
 10
4.0266743105
 20
2.4500772975
 30
0.0
 10
4.0170451275
 20
2.4400408317
 30
0.0
 10
4.0069343117
 20
2.4304840947
 30
0.0
 10
3.9963617816
 20
2.4214343183
 30
0.0
 10
3.9871838105
 20
2.41433842
 30
0.0
 10
3.979631934
 20
2.4089437496
 30
0.0
 10
3.9719419213
 20
2.4037379307
 30
0.0
 10
3.9620837113
 20
2.3975899219
 30
0.0
 10
3.9498987801
 20
2.390800785
 30
0.0
 10
3.9373879931
 20
2.3846084089
 30
0.0
 10
3.9203159497
 20
2.377161412
 30
0.0
 10
3.898320868
 20
2.3693961757
 30
0.0
 10
3.8711568985
 20
2.3626356364
 30
0.0
 10
3.8434689906
 20
2.3585107243
 30
0.0
 10
3.8248231618
 20
2.3575750223
 30
0.0
 10
3.8155079925
 20
2.3575750223
 30
0.0
  0
SPLINE
  5
3AA
100
AcDbEntity
  8
0
100
AcDbSpline
 62
7
  6
CONTINUOUS
 70
0
 71
3
 72
34
 73
30
 74
0
 42
0.0000001
 43
0.0000001
 44
0.0000000001
 40
0.0
 40
0.0
 40
0.0
 40
0.0
 40
0.0625213751
 40
0.1250159316
 40
0.1562588283
 40
0.1874944216
 40
0.2031120897
 40
0.2187299507
 40
0.2499668213
 40
0.2812116299
 40
0.3124657721
 40
0.3749792078
 40
0.4375042542
 40
0.4687710498
 40
0.5000304528
 40
0.531280734
 40
0.5625219655
 40
0.593756585
 40
0.6093742212
 40
0.6249923882
 40
0.6562305858
 40
0.6874771901
 40
0.7187331338
 40
0.7499973272
 40
0.8125211789
 40
0.8750390842
 40
0.9375264912
 40
0.9687661496
 40
1.0
 40
1.0
 40
1.0
 40
1.0
 10
4.1003804927
 20
6.1677922292
 30
0.0
 10
4.1003761545
 20
6.1771149142
 30
0.0
 10
4.0994689012
 20
6.1957675133
 30
0.0
 10
4.0960851945
 20
6.218859676
 30
0.0
 10
4.092029975
 20
6.2370545762
 30
0.0
 10
4.0889328072
 20
6.2482859401
 30
0.0
 10
4.0861180864
 20
6.2571665818
 30
0.0
 10
4.0830790054
 20
6.2659732078
 30
0.0
 10
4.0788657181
 20
6.2768354934
 30
0.0
 10
4.0731681128
 20
6.2896049568
 30
0.0
 10
4.0647431538
 20
6.3062403267
 30
0.0
 10
4.0527050609
 20
6.3262409108
 30
0.0
 10
4.0387962104
 20
6.3449906447
 30
0.0
 10
4.0266287835
 20
6.359128468
 30
0.0
 10
4.0170002299
 20
6.3692764488
 30
0.0
 10
4.0068904046
 20
6.3789393093
 30
0.0
 10
3.9963192074
 20
6.3880895188
 30
0.0
 10
3.9871413254
 20
6.395265127
 30
0.0
 10
3.9795896083
 20
6.4007202712
 30
0.0
 10
3.9719019426
 20
6.4059830183
 30
0.0
 10
3.9620468466
 20
6.4121984221
 30
0.0
 10
3.9498643892
 20
6.4190628806
 30
0.0
 10
3.937356313
 20
6.4253239558
 30
0.0
 10
3.9202915723
 20
6.4328521151
 30
0.0
 10
3.8983043893
 20
6.4407031068
 30
0.0
 10
3.8711476404
 20
6.4475395372
 30
0.0
 10
3.8480689226
 20
6.4510165074
 30
0.0
 10
3.8294827767
 20
6.4524206974
 30
0.0
 10
3.8201653338
 20
6.4526571838
 30
0.0
 10
3.8155079925
 20
6.4526571838
 30
0.0
  0
LINE
  5
3AB
100
AcDbEntity
  8
0
100
AcDbLine
 62
7
  6
CONTINUOUS
 10
5.1235595775
 20
5.9875875195
 11
5.1234140566
 21
5.9903220372
  0
SPLINE
  5
3AC
100
AcDbEntity
  8
0
100
AcDbSpline
 62
7
  6
CONTINUOUS
 70
0
 71
3
 72
22
 73
18
 74
0
 42
0.0000001
 43
0.0000001
 44
0.0000000001
 40
0.0
 40
0.0
 40
0.0
 40
0.0
 40
0.0086427135
 40
0.019173965
 40
0.045811725
 40
0.0797136681
 40
0.1206136633
 40
0.1682108896
 40
0.2221356333
 40
0.2819834406
 40
0.3472928549
 40
0.4175724647
 40
0.4922827076
 40
0.6527005393
 40
0.823671119
 40
0.9114985887
 40
1.0
 40
1.0
 40
1.0
 40
1.0
 10
5.1234140566
 20
5.9903220372
 30
0.0
 10
5.1234005403
 20
5.9908327522
 30
0.0
 10
5.123374649
 20
5.9919658872
 30
0.0
 10
5.1233240699
 20
5.9946734713
 30
0.0
 10
5.1232645965
 20
5.9988742609
 30
0.0
 10
5.1231989178
 20
6.0048702744
 30
0.0
 10
5.1231351253
 20
6.0121053379
 30
0.0
 10
5.1230745364
 20
6.0205240626
 30
0.0
 10
5.1230170817
 20
6.0300628875
 30
0.0
 10
5.1229638836
 20
6.0406487656
 30
0.0
 10
5.122914764
 20
6.0522014522
 30
0.0
 10
5.1228707359
 20
6.0646327232
 30
0.0
 10
5.1228173056
 20
6.0826861041
 30
0.0
 10
5.1227662853
 20
6.1066916239
 30
0.0
 10
5.1227356441
 20
6.131472572
 30
0.0
 10
5.1227234273
 20
6.152002362
 30
0.0
 10
5.1227211077
 20
6.1624256304
 30
0.0
 10
5.1227210983
 20
6.1676571838
 30
0.0
  0
LINE
  5
3AD
100
AcDbEntity
  8
0
100
AcDbLine
 62
7
  6
CONTINUOUS
 10
4.8819684611
 20
6.6550383663
 11
4.8680460386
 21
6.6555813352
  0
LINE
  5
3AE
100
AcDbEntity
  8
0
100
AcDbLine
 62
7
  6
CONTINUOUS
 10
4.6950475961
 20
5.6802758721
 11
4.7089699464
 21
5.6797330325
  0
SPLINE
  5
3AF
100
AcDbEntity
  8
0
100
AcDbSpline
 62
7
  6
CONTINUOUS
 70
0
 71
3
 72
25
 73
21
 74
0
 42
0.0000001
 43
0.0000001
 44
0.0000000001
 40
0.0
 40
0.0
 40
0.0
 40
0.0
 40
0.2043762518
 40
0.3931443638
 40
0.4802569989
 40
0.5618203086
 40
0.6373575255
 40
0.7064337939
 40
0.7686634526
 40
0.8237148163
 40
0.8713230349
 40
0.9113108998
 40
0.9284280837
 40
0.9436369618
 40
0.9569663626
 40
0.9684769319
 40
0.9782761423
 40
0.9865501673
 40
0.9936204428
 40
1.0
 40
1.0
 40
1.0
 40
1.0
 10
5.5729622942
 20
6.138892816
 30
0.0
 10
5.5737772837
 20
6.1383806882
 30
0.0
 10
5.5753357432
 20
6.1373806678
 30
0.0
 10
5.5772123005
 20
6.1361175102
 30
0.0
 10
5.5785892671
 20
6.1351489569
 30
0.0
 10
5.5795198746
 20
6.1344729764
 30
0.0
 10
5.5803706978
 20
6.1338319536
 30
0.0
 10
5.5811365905
 20
6.1332298285
 30
0.0
 10
5.581812948
 20
6.1326703275
 30
0.0
 10
5.5823958254
 20
6.1321569235
 30
0.0
 10
5.5828817901
 20
6.1316927732
 30
0.0
 10
5.5832197316
 20
6.1313329931
 30
0.0
 10
5.583436726
 20
6.1310703487
 30
0.0
 10
5.5835650353
 20
6.1308976586
 30
0.0
 10
5.5836674491
 20
6.1307390622
 30
0.0
 10
5.583743911
 20
6.1305946502
 30
0.0
 10
5.5837944282
 20
6.1304643423
 30
0.0
 10
5.5838187639
 20
6.1303476967
 30
0.0
 10
5.5838161092
 20
6.1302442116
 30
0.0
 10
5.5837943391
 20
6.1301832038
 30
0.0
 10
5.5837793164
 20
6.1301571836
 30
0.0
  0
SPLINE
  5
3B0
100
AcDbEntity
  8
0
100
AcDbSpline
 62
7
  6
CONTINUOUS
 70
0
 71
3
 72
25
 73
21
 74
0
 42
0.0000001
 43
0.0000001
 44
0.0000000001
 40
0.0
 40
0.0
 40
0.0
 40
0.0
 40
0.2043763611
 40
0.3931445768
 40
0.4802572596
 40
0.5618206132
 40
0.6373578689
 40
0.7064341699
 40
0.7686638537
 40
0.8237152331
 40
0.8713234552
 40
0.911311308
 40
0.9284284779
 40
0.9436373356
 40
0.9569667079
 40
0.9684772385
 40
0.9782763975
 40
0.9865503551
 40
0.9936205447
 40
1.0
 40
1.0
 40
1.0
 40
1.0
 10
5.5238958166
 20
6.0539071838
 30
0.0
 10
5.524746828
 20
6.0534574479
 30
0.0
 10
5.5263921026
 20
6.0526077956
 30
0.0
 10
5.5284243096
 20
6.051614231
 30
0.0
 10
5.5299515855
 20
6.0509060213
 30
0.0
 10
5.5310023061
 20
6.0504380827
 30
0.0
 10
5.53198286
 20
6.0500217602
 30
0.0
 10
5.5328872621
 20
6.0496595403
 30
0.0
 10
5.5337099828
 20
6.0493535479
 30
0.0
 10
5.5344460421
 20
6.0491054628
 30
0.0
 10
5.5350909899
 20
6.0489166793
 30
0.0
 10
5.5355715388
 20
6.0488039023
 30
0.0
 10
5.5359074921
 20
6.0487473009
 30
0.0
 10
5.5361212003
 20
6.0487225259
 30
0.0
 10
5.5363097551
 20
6.0487131303
 30
0.0
 10
5.5364730499
 20
6.0487191174
 30
0.0
 10
5.5366111578
 20
6.0487405211
 30
0.0
 10
5.536724343
 20
6.0487777673
 30
0.0
 10
5.5368126358
 20
6.0488318076
 30
0.0
 10
5.5368545847
 20
6.0488811641
 30
0.0
 10
5.5368696071
 20
6.0489071838
 30
0.0
  0
SPLINE
  5
3B1
100
AcDbEntity
  8
0
100
AcDbSpline
 62
7
  6
CONTINUOUS
 70
0
 71
3
 72
25
 73
21
 74
0
 42
0.0000001
 43
0.0000001
 44
0.0000000001
 40
0.0
 40
0.0
 40
0.0
 40
0.0
 40
0.2043762641
 40
0.3931443878
 40
0.4802570283
 40
0.561820343
 40
0.6373575642
 40
0.7064338363
 40
0.7686634978
 40
0.8237148633
 40
0.8713230823
 40
0.9113109458
 40
0.928428128
 40
0.9436370038
 40
0.9569664013
 40
0.968476966
 40
0.9782761705
 40
0.9865501879
 40
0.9936204539
 40
1.0
 40
1.0
 40
1.0
 40
1.0
 10
5.4740744701
 20
6.025142816
 30
0.0
 10
5.4740384489
 20
6.0241809506
 30
0.0
 10
5.4739516352
 20
6.0223312748
 30
0.0
 10
5.4737959869
 20
6.0200745497
 30
0.0
 10
5.4736456782
 20
6.018397785
 30
0.0
 10
5.4735255656
 20
6.0172538651
 30
0.0
 10
5.473395835
 20
6.0161965191
 30
0.0
 10
5.4732573258
 20
6.0152321741
 30
0.0
 10
5.4731109625
 20
6.0143666807
 30
0.0
 10
5.4729577803
 20
6.0136051922
 30
0.0
 10
5.4727987969
 20
6.0129522592
 30
0.0
 10
5.472656189
 20
6.0124797032
 30
0.0
 10
5.4725372296
 20
6.0121604584
 30
0.0
 10
5.4724518304
 20
6.0119629942
 30
0.0
 10
5.4723656889
 20
6.0117950031
 30
0.0
 10
5.4722788555
 20
6.0116565791
 30
0.0
 10
5.4721912643
 20
6.011547676
 30
0.0
 10
5.4721024143
 20
6.0114682779
 30
0.0
 10
5.4720114664
 20
6.0114188343
 30
0.0
 10
5.4719477471
 20
6.0114071838
 30
0.0
 10
5.4719177017
 20
6.0114071838
 30
0.0
  0
SPLINE
  5
3B2
100
AcDbEntity
  8
0
100
AcDbSpline
 62
7
  6
CONTINUOUS
 70
0
 71
3
 72
25
 73
21
 74
0
 42
0.0000001
 43
0.0000001
 44
0.0000000001
 40
0.0
 40
0.0
 40
0.0
 40
0.0
 40
0.2043763611
 40
0.3931445768
 40
0.4802572596
 40
0.5618206132
 40
0.6373578689
 40
0.7064341699
 40
0.7686638537
 40
0.8237152331
 40
0.8713234552
 40
0.911311308
 40
0.9284284779
 40
0.9436373356
 40
0.9569667079
 40
0.9684772385
 40
0.9782763975
 40
0.9865503551
 40
0.9936205447
 40
1.0
 40
1.0
 40
1.0
 40
1.0
 10
5.3759415149
 20
6.025142816
 30
0.0
 10
5.3759775378
 20
6.0241809506
 30
0.0
 10
5.3760643547
 20
6.0223312748
 30
0.0
 10
5.376220006
 20
6.0200745497
 30
0.0
 10
5.3763703164
 20
6.018397785
 30
0.0
 10
5.3764904299
 20
6.0172538651
 30
0.0
 10
5.376620161
 20
6.0161965192
 30
0.0
 10
5.3767586704
 20
6.0152321741
 30
0.0
 10
5.3769050335
 20
6.0143666808
 30
0.0
 10
5.3770582152
 20
6.0136051922
 30
0.0
 10
5.3772171978
 20
6.0129522593
 30
0.0
 10
5.3773598045
 20
6.0124797033
 30
0.0
 10
5.3774787629
 20
6.0121604584
 30
0.0
 10
5.3775641613
 20
6.0119629942
 30
0.0
 10
5.3776503018
 20
6.0117950032
 30
0.0
 10
5.3777371342
 20
6.0116565792
 30
0.0
 10
5.3778247243
 20
6.0115476761
 30
0.0
 10
5.3779135731
 20
6.011468278
 30
0.0
 10
5.3780045197
 20
6.0114188344
 30
0.0
 10
5.3780682382
 20
6.0114071838
 30
0.0
 10
5.3780982831
 20
6.0114071838
 30
0.0
  0
SPLINE
  5
3B3
100
AcDbEntity
  8
0
100
AcDbSpline
 62
7
  6
CONTINUOUS
 70
0
 71
3
 72
25
 73
21
 74
0
 42
0.0000001
 43
0.0000001
 44
0.0000000001
 40
0.0
 40
0.0
 40
0.0
 40
0.0
 40
0.2043762639
 40
0.3931443874
 40
0.4802570278
 40
0.5618203424
 40
0.6373575636
 40
0.7064338356
 40
0.768663497
 40
0.8237148625
 40
0.8713230815
 40
0.911310945
 40
0.9284281273
 40
0.9436370031
 40
0.9569664006
 40
0.9684769654
 40
0.97827617
 40
0.9865501875
 40
0.9936204537
 40
1.0
 40
1.0
 40
1.0
 40
1.0
 10
5.3261201684
 20
6.0539071838
 30
0.0
 10
5.3252691579
 20
6.0534574464
 30
0.0
 10
5.3236238848
 20
6.0526077914
 30
0.0
 10
5.3215916794
 20
6.0516142242
 30
0.0
 10
5.3200644043
 20
6.050906013
 30
0.0
 10
5.3190136842
 20
6.0504380736
 30
0.0
 10
5.3180331305
 20
6.0500217506
 30
0.0
 10
5.3171287285
 20
6.0496595306
 30
0.0
 10
5.3163060077
 20
6.0493535382
 30
0.0
 10
5.3155699481
 20
6.0491054536
 30
0.0
 10
5.3149249999
 20
6.0489166709
 30
0.0
 10
5.3144444504
 20
6.0488038949
 30
0.0
 10
5.3141084966
 20
6.0487472943
 30
0.0
 10
5.313894788
 20
6.0487225201
 30
0.0
 10
5.3137062327
 20
6.0487131253
 30
0.0
 10
5.3135429373
 20
6.0487191132
 30
0.0
 10
5.3134048288
 20
6.0487405179
 30
0.0
 10
5.313291643
 20
6.0487777652
 30
0.0
 10
5.3132033497
 20
6.0488318066
 30
0.0
 10
5.3131614004
 20
6.0488811639
 30
0.0
 10
5.3131463777
 20
6.048907184
 30
0.0
  0
SPLINE
  5
3B4
100
AcDbEntity
  8
0
100
AcDbSpline
 62
7
  6
CONTINUOUS
 70
0
 71
3
 72
25
 73
21
 74
0
 42
0.0000001
 43
0.0000001
 44
0.0000000001
 40
0.0
 40
0.0
 40
0.0
 40
0.0
 40
0.2043763611
 40
0.3931445768
 40
0.4802572596
 40
0.5618206132
 40
0.6373578689
 40
0.7064341699
 40
0.7686638537
 40
0.8237152331
 40
0.8713234552
 40
0.911311308
 40
0.9284284779
 40
0.9436373356
 40
0.9569667079
 40
0.9684772385
 40
0.9782763975
 40
0.9865503551
 40
0.9936205447
 40
1.0
 40
1.0
 40
1.0
 40
1.0
 10
5.2770536907
 20
6.138892816
 30
0.0
 10
5.2762387023
 20
6.1383806865
 30
0.0
 10
5.2746802445
 20
6.137380663
 30
0.0
 10
5.2728036889
 20
6.1361175025
 30
0.0
 10
5.2714267233
 20
6.1351489475
 30
0.0
 10
5.2704961163
 20
6.1344729662
 30
0.0
 10
5.2696452935
 20
6.1338319428
 30
0.0
 10
5.2688794009
 20
6.1332298176
 30
0.0
 10
5.2682030432
 20
6.1326703168
 30
0.0
 10
5.2676201656
 20
6.1321569133
 30
0.0
 10
5.2671342004
 20
6.1316927639
 30
0.0
 10
5.2667962582
 20
6.1313329847
 30
0.0
 10
5.2665792633
 20
6.1310703414
 30
0.0
 10
5.2664509535
 20
6.1308976521
 30
0.0
 10
5.2663485392
 20
6.1307390567
 30
0.0
 10
5.2662720768
 20
6.1305946457
 30
0.0
 10
5.2662215589
 20
6.1304643389
 30
0.0
 10
5.2661972225
 20
6.1303476945
 30
0.0
 10
5.2661998764
 20
6.1302442106
 30
0.0
 10
5.266221646
 20
6.1301832035
 30
0.0
 10
5.2662366685
 20
6.1301571838
 30
0.0
  0
SPLINE
  5
3B5
100
AcDbEntity
  8
0
100
AcDbSpline
 62
7
  6
CONTINUOUS
 70
0
 71
3
 72
25
 73
21
 74
0
 42
0.0000001
 43
0.0000001
 44
0.0000000001
 40
0.0
 40
0.0
 40
0.0
 40
0.0
 40
0.2043762518
 40
0.3931443638
 40
0.4802569989
 40
0.5618203086
 40
0.6373575255
 40
0.7064337939
 40
0.7686634526
 40
0.8237148163
 40
0.8713230349
 40
0.9113108998
 40
0.9284280837
 40
0.9436369618
 40
0.9569663626
 40
0.9684769319
 40
0.9782761423
 40
0.9865501673
 40
0.9936204428
 40
1.0
 40
1.0
 40
1.0
 40
1.0
 10
5.2770536907
 20
6.1964215516
 30
0.0
 10
5.2762387013
 20
6.1969336794
 30
0.0
 10
5.2746802418
 20
6.1979336999
 30
0.0
 10
5.2728036845
 20
6.1991968575
 30
0.0
 10
5.2714267179
 20
6.2001654107
 30
0.0
 10
5.2704961104
 20
6.2008413912
 30
0.0
 10
5.2696452872
 20
6.2014824141
 30
0.0
 10
5.2688793945
 20
6.2020845391
 30
0.0
 10
5.268203037
 20
6.2026440401
 30
0.0
 10
5.2676201596
 20
6.2031574442
 30
0.0
 10
5.2671341949
 20
6.2036215944
 30
0.0
 10
5.2667962533
 20
6.2039813746
 30
0.0
 10
5.266579259
 20
6.204244019
 30
0.0
 10
5.2664509496
 20
6.2044167091
 30
0.0
 10
5.2663485359
 20
6.2045753054
 30
0.0
 10
5.266272074
 20
6.2047197175
 30
0.0
 10
5.2662215568
 20
6.2048500254
 30
0.0
 10
5.2661972211
 20
6.2049666709
 30
0.0
 10
5.2661998757
 20
6.205070156
 30
0.0
 10
5.2662216459
 20
6.2051311639
 30
0.0
 10
5.2662366686
 20
6.205157184
 30
0.0
  0
SPLINE
  5
3B6
100
AcDbEntity
  8
0
100
AcDbSpline
 62
7
  6
CONTINUOUS
 70
0
 71
3
 72
25
 73
21
 74
0
 42
0.0000001
 43
0.0000001
 44
0.0000000001
 40
0.0
 40
0.0
 40
0.0
 40
0.0
 40
0.2043763611
 40
0.3931445768
 40
0.4802572596
 40
0.5618206132
 40
0.6373578689
 40
0.7064341699
 40
0.7686638537
 40
0.8237152331
 40
0.8713234552
 40
0.911311308
 40
0.9284284779
 40
0.9436373356
 40
0.9569667079
 40
0.9684772385
 40
0.9782763975
 40
0.9865503551
 40
0.9936205447
 40
1.0
 40
1.0
 40
1.0
 40
1.0
 10
5.3261201684
 20
6.2814071838
 30
0.0
 10
5.325269157
 20
6.2818569198
 30
0.0
 10
5.3236238823
 20
6.2827065721
 30
0.0
 10
5.3215916754
 20
6.2837001366
 30
0.0
 10
5.3200643994
 20
6.2844083463
 30
0.0
 10
5.3190136789
 20
6.284876285
 30
0.0
 10
5.318033125
 20
6.2852926075
 30
0.0
 10
5.3171287229
 20
6.2856548273
 30
0.0
 10
5.3163060022
 20
6.2859608198
 30
0.0
 10
5.3155699429
 20
6.2862089049
 30
0.0
 10
5.3149249951
 20
6.2863976884
 30
0.0
 10
5.3144444462
 20
6.2865104653
 30
0.0
 10
5.3141084929
 20
6.2865670668
 30
0.0
 10
5.3138947847
 20
6.2865918417
 30
0.0
 10
5.3137062299
 20
6.2866012373
 30
0.0
 10
5.3135429351
 20
6.2865952503
 30
0.0
 10
5.3134048271
 20
6.2865738466
 30
0.0
 10
5.313291642
 20
6.2865366004
 30
0.0
 10
5.3132033492
 20
6.2864825601
 30
0.0
 10
5.3131614003
 20
6.2864332035
 30
0.0
 10
5.3131463778
 20
6.2864071838
 30
0.0
  0
SPLINE
  5
3B7
100
AcDbEntity
  8
0
100
AcDbSpline
 62
7
  6
CONTINUOUS
 70
0
 71
3
 72
25
 73
21
 74
0
 42
0.0000001
 43
0.0000001
 44
0.0000000001
 40
0.0
 40
0.0
 40
0.0
 40
0.0
 40
0.2043762641
 40
0.3931443878
 40
0.4802570283
 40
0.561820343
 40
0.6373575642
 40
0.7064338363
 40
0.7686634978
 40
0.8237148633
 40
0.8713230823
 40
0.9113109458
 40
0.928428128
 40
0.9436370038
 40
0.9569664013
 40
0.968476966
 40
0.9782761705
 40
0.9865501879
 40
0.9936204539
 40
1.0
 40
1.0
 40
1.0
 40
1.0
 10
5.3759415149
 20
6.3101715516
 30
0.0
 10
5.3759775361
 20
6.3111334171
 30
0.0
 10
5.3760643498
 20
6.3129830929
 30
0.0
 10
5.3762199981
 20
6.315239818
 30
0.0
 10
5.3763703068
 20
6.3169165826
 30
0.0
 10
5.3764904194
 20
6.3180605026
 30
0.0
 10
5.3766201499
 20
6.3191178485
 30
0.0
 10
5.3767586592
 20
6.3200821936
 30
0.0
 10
5.3769050225
 20
6.3209476869
 30
0.0
 10
5.3770582047
 20
6.3217091755
 30
0.0
 10
5.3772171881
 20
6.3223621085
 30
0.0
 10
5.377359796
 20
6.3228346645
 30
0.0
 10
5.3774787554
 20
6.3231539093
 30
0.0
 10
5.3775641546
 20
6.3233513735
 30
0.0
 10
5.3776502961
 20
6.3235193646
 30
0.0
 10
5.3777371295
 20
6.3236577885
 30
0.0
 10
5.3778247207
 20
6.3237666917
 30
0.0
 10
5.3779135707
 20
6.3238460898
 30
0.0
 10
5.3780045186
 20
6.3238955334
 30
0.0
 10
5.3780682379
 20
6.3239071838
 30
0.0
 10
5.3780982833
 20
6.3239071838
 30
0.0
  0
SPLINE
  5
3B8
100
AcDbEntity
  8
0
100
AcDbSpline
 62
7
  6
CONTINUOUS
 70
0
 71
3
 72
25
 73
21
 74
0
 42
0.0000001
 43
0.0000001
 44
0.0000000001
 40
0.0
 40
0.0
 40
0.0
 40
0.0
 40
0.2043763611
 40
0.3931445768
 40
0.4802572596
 40
0.5618206132
 40
0.6373578689
 40
0.7064341699
 40
0.7686638537
 40
0.8237152331
 40
0.8713234552
 40
0.911311308
 40
0.9284284779
 40
0.9436373356
 40
0.9569667079
 40
0.9684772385
 40
0.9782763975
 40
0.9865503551
 40
0.9936205447
 40
1.0
 40
1.0
 40
1.0
 40
1.0
 10
5.4740744701
 20
6.3101715516
 30
0.0
 10
5.4740384471
 20
6.3111334171
 30
0.0
 10
5.4739516303
 20
6.3129830929
 30
0.0
 10
5.473795979
 20
6.315239818
 30
0.0
 10
5.4736456686
 20
6.3169165826
 30
0.0
 10
5.4735255551
 20
6.3180605026
 30
0.0
 10
5.473395824
 20
6.3191178485
 30
0.0
 10
5.4732573146
 20
6.3200821936
 30
0.0
 10
5.4731109514
 20
6.3209476869
 30
0.0
 10
5.4729577698
 20
6.3217091754
 30
0.0
 10
5.4727987872
 20
6.3223621084
 30
0.0
 10
5.4726561804
 20
6.3228346644
 30
0.0
 10
5.4725372221
 20
6.3231539092
 30
0.0
 10
5.4724518237
 20
6.3233513734
 30
0.0
 10
5.4723656832
 20
6.3235193645
 30
0.0
 10
5.4722788508
 20
6.3236577884
 30
0.0
 10
5.4721912607
 20
6.3237666915
 30
0.0
 10
5.4721024119
 20
6.3238460897
 30
0.0
 10
5.4720114653
 20
6.3238955333
 30
0.0
 10
5.4719477468
 20
6.3239071838
 30
0.0
 10
5.4719177019
 20
6.3239071838
 30
0.0
  0
SPLINE
  5
3B9
100
AcDbEntity
  8
0
100
AcDbSpline
 62
7
  6
CONTINUOUS
 70
0
 71
3
 72
25
 73
21
 74
0
 42
0.0000001
 43
0.0000001
 44
0.0000000001
 40
0.0
 40
0.0
 40
0.0
 40
0.0
 40
0.2043762639
 40
0.3931443874
 40
0.4802570278
 40
0.5618203424
 40
0.6373575636
 40
0.7064338356
 40
0.768663497
 40
0.8237148625
 40
0.8713230815
 40
0.911310945
 40
0.9284281273
 40
0.9436370031
 40
0.9569664006
 40
0.9684769654
 40
0.97827617
 40
0.9865501875
 40
0.9936204537
 40
1.0
 40
1.0
 40
1.0
 40
1.0
 10
5.5238958166
 20
6.2814071838
 30
0.0
 10
5.5247468271
 20
6.2818569213
 30
0.0
 10
5.5263921002
 20
6.2827065763
 30
0.0
 10
5.5284243056
 20
6.2837001435
 30
0.0
 10
5.5299515807
 20
6.2844083547
 30
0.0
 10
5.5310023008
 20
6.2848762941
 30
0.0
 10
5.5319828545
 20
6.2852926171
 30
0.0
 10
5.5328872565
 20
6.2856548371
 30
0.0
 10
5.5337099773
 20
6.2859608294
 30
0.0
 10
5.5344460369
 20
6.286208914
 30
0.0
 10
5.5350909851
 20
6.2863976968
 30
0.0
 10
5.5355715346
 20
6.2865104728
 30
0.0
 10
5.5359074883
 20
6.2865670733
 30
0.0
 10
5.536121197
 20
6.2865918476
 30
0.0
 10
5.5363097523
 20
6.2866012424
 30
0.0
 10
5.5364730477
 20
6.2865952544
 30
0.0
 10
5.5366111561
 20
6.2865738498
 30
0.0
 10
5.5367243419
 20
6.2865366025
 30
0.0
 10
5.5368126353
 20
6.2864825611
 30
0.0
 10
5.5368545845
 20
6.2864332038
 30
0.0
 10
5.5368696072
 20
6.2864071837
 30
0.0
  0
SPLINE
  5
3BA
100
AcDbEntity
  8
0
100
AcDbSpline
 62
7
  6
CONTINUOUS
 70
0
 71
3
 72
25
 73
21
 74
0
 42
0.0000001
 43
0.0000001
 44
0.0000000001
 40
0.0
 40
0.0
 40
0.0
 40
0.0
 40
0.2043763611
 40
0.3931445768
 40
0.4802572596
 40
0.5618206132
 40
0.6373578689
 40
0.7064341699
 40
0.7686638537
 40
0.8237152331
 40
0.8713234552
 40
0.911311308
 40
0.9284284779
 40
0.9436373356
 40
0.9569667079
 40
0.9684772385
 40
0.9782763975
 40
0.9865503551
 40
0.9936205447
 40
1.0
 40
1.0
 40
1.0
 40
1.0
 10
5.5729622942
 20
6.1964215516
 30
0.0
 10
5.5737772827
 20
6.1969336812
 30
0.0
 10
5.5753357405
 20
6.1979337047
 30
0.0
 10
5.5772122961
 20
6.1991968652
 30
0.0
 10
5.5785892616
 20
6.2001654201
 30
0.0
 10
5.5795198687
 20
6.2008414015
 30
0.0
 10
5.5803706915
 20
6.2014824249
 30
0.0
 10
5.5811365841
 20
6.2020845501
 30
0.0
 10
5.5818129418
 20
6.2026440509
 30
0.0
 10
5.5823958194
 20
6.2031574544
 30
0.0
 10
5.5828817846
 20
6.2036216038
 30
0.0
 10
5.5832197267
 20
6.2039813829
 30
0.0
 10
5.5834367217
 20
6.2042440263
 30
0.0
 10
5.5835650315
 20
6.2044167155
 30
0.0
 10
5.5836674458
 20
6.204575311
 30
0.0
 10
5.5837439082
 20
6.204719722
 30
0.0
 10
5.583794426
 20
6.2048500288
 30
0.0
 10
5.5838187625
 20
6.2049666731
 30
0.0
 10
5.5838161086
 20
6.205070157
 30
0.0
 10
5.583794339
 20
6.2051311641
 30
0.0
 10
5.5837793165
 20
6.2051571838
 30
0.0
  0
SPLINE
  5
3BB
100
AcDbEntity
  8
0
100
AcDbSpline
 62
7
  6
CONTINUOUS
 70
0
 71
3
 72
23
 73
19
 74
0
 42
0.0000001
 43
0.0000001
 44
0.0000000001
 40
0.0
 40
0.0
 40
0.0
 40
0.0
 40
0.0627177133
 40
0.1253404303
 40
0.1878848793
 40
0.2503705954
 40
0.3128133431
 40
0.3752250834
 40
0.4376173034
 40
0.4999999314
 40
0.5623825681
 40
0.6247747868
 40
0.6871865418
 40
0.7496293308
 40
0.8121151076
 40
0.8746595615
 40
0.9372822855
 40
1.0
 40
1.0
 40
1.0
 40
1.0
 10
4.717209144
 20
5.7949593191
 30
0.0
 10
4.7160147668
 20
5.8001514023
 30
0.0
 10
4.7138112013
 20
5.8105707192
 30
0.0
 10
4.7110246985
 20
5.8262884368
 30
0.0
 10
4.7087265212
 20
5.8420648972
 30
0.0
 10
4.7068871114
 20
5.857885696
 30
0.0
 10
4.7054831366
 20
5.8737395485
 30
0.0
 10
4.7044931182
 20
5.8896165192
 30
0.0
 10
4.7039055798
 20
5.9055082676
 30
0.0
 10
4.703709806
 20
5.9214071504
 30
0.0
 10
4.7039055904
 20
5.9373060324
 30
0.0
 10
4.7044930654
 20
5.9531977848
 30
0.0
 10
4.7054831331
 20
5.9690747595
 30
0.0
 10
4.7068874477
 20
5.9849285929
 30
0.0
 10
4.7087270321
 20
6.0007493768
 30
0.0
 10
4.7110249788
 20
6.0165258746
 30
0.0
 10
4.713811252
 20
6.0322436355
 30
0.0
 10
4.7160147673
 20
6.0426629651
 30
0.0
 10
4.717209144
 20
6.0478550486
 30
0.0
  0
SPLINE
  5
3BC
100
AcDbEntity
  8
0
100
AcDbSpline
 62
7
  6
CONTINUOUS
 70
0
 71
3
 72
23
 73
19
 74
0
 42
0.0000001
 43
0.0000001
 44
0.0000000001
 40
0.0
 40
0.0
 40
0.0
 40
0.0
 40
0.0627177115
 40
0.1253404277
 40
0.1878848773
 40
0.2503706523
 40
0.3128134407
 40
0.3752251927
 40
0.4376174081
 40
0.5000000383
 40
0.5623826642
 40
0.6247748798
 40
0.6871866195
 40
0.7496293927
 40
0.8121151435
 40
0.8746595915
 40
0.9372822985
 40
1.0
 40
1.0
 40
1.0
 40
1.0
 10
4.859806841
 20
6.0478550486
 30
0.0
 10
4.8610012175
 20
6.0426629651
 30
0.0
 10
4.8632047307
 20
6.0322436354
 30
0.0
 10
4.8659910066
 20
6.0165258757
 30
0.0
 10
4.8682889644
 20
6.0007493799
 30
0.0
 10
4.8701285699
 20
5.9849285984
 30
0.0
 10
4.8715329075
 20
5.9690747666
 30
0.0
 10
4.8725229931
 20
5.9531977928
 30
0.0
 10
4.8731104828
 20
5.9373060412
 30
0.0
 10
4.8733062776
 20
5.9214071596
 30
0.0
 10
4.8731105453
 20
5.9055082772
 30
0.0
 10
4.8725231112
 20
5.8896165249
 30
0.0
 10
4.8715331005
 20
5.8737395493
 30
0.0
 10
4.870128888
 20
5.8578857107
 30
0.0
 10
4.8682892716
 20
5.8420649316
 30
0.0
 10
4.8659910962
 20
5.82628847
 30
0.0
 10
4.8632047139
 20
5.8105707329
 30
0.0
 10
4.8610012186
 20
5.8001514015
 30
0.0
 10
4.859806841
 20
5.7949593191
 30
0.0
  0
SPLINE
  5
3BD
100
AcDbEntity
  8
0
100
AcDbSpline
 62
7
  6
CONTINUOUS
 70
0
 71
3
 72
23
 73
19
 74
0
 42
0.0000001
 43
0.0000001
 44
0.0000000001
 40
0.0
 40
0.0
 40
0.0
 40
0.0
 40
0.0627177136
 40
0.1253404313
 40
0.187884881
 40
0.2503706582
 40
0.312813447
 40
0.375225202
 40
0.4376174197
 40
0.5000000521
 40
0.5623826795
 40
0.6247748988
 40
0.6871866406
 40
0.7496294074
 40
0.8121151476
 40
0.8746595848
 40
0.9372822869
 40
1.0
 40
1.0
 40
1.0
 40
1.0
 10
4.717209144
 20
6.2874593191
 30
0.0
 10
4.7160147674
 20
6.2926514026
 30
0.0
 10
4.7138112503
 20
6.3030707316
 30
0.0
 10
4.711024995
 20
6.3187884952
 30
0.0
 10
4.7087270796
 20
6.3345649969
 30
0.0
 10
4.7068874759
 20
6.350385778
 30
0.0
 10
4.7054831067
 20
6.3662396069
 30
0.0
 10
4.7044929885
 20
6.3821165788
 30
0.0
 10
4.7039054779
 20
6.3980083299
 30
0.0
 10
4.703709688
 20
6.4139072119
 30
0.0
 10
4.7039054547
 20
6.4298060944
 30
0.0
 10
4.7044929548
 20
6.4456978446
 30
0.0
 10
4.7054830081
 20
6.4615748166
 30
0.0
 10
4.7068871869
 20
6.4774286559
 30
0.0
 10
4.7087267162
 20
6.4932494417
 30
0.0
 10
4.7110247826
 20
6.5090259172
 30
0.0
 10
4.7138112102
 20
6.5247436473
 30
0.0
 10
4.7160147733
 20
6.5351629638
 30
0.0
 10
4.717209144
 20
6.5403550486
 30
0.0
  0
SPLINE
  5
3BE
100
AcDbEntity
  8
0
100
AcDbSpline
 62
7
  6
CONTINUOUS
 70
0
 71
3
 72
23
 73
19
 74
0
 42
0.0000001
 43
0.0000001
 44
0.0000000001
 40
0.0
 40
0.0
 40
0.0
 40
0.0
 40
0.0627177153
 40
0.1253404185
 40
0.187884856
 40
0.2503705925
 40
0.3128133548
 40
0.3752250951
 40
0.4376173152
 40
0.4999999429
 40
0.5623825758
 40
0.6247747939
 40
0.687186549
 40
0.7496293381
 40
0.8121151165
 40
0.8746595672
 40
0.937282286
 40
1.0
 40
1.0
 40
1.0
 40
1.0
 10
4.859806841
 20
6.5403550486
 30
0.0
 10
4.8610012116
 20
6.5351629636
 30
0.0
 10
4.8632047875
 20
6.5247436498
 30
0.0
 10
4.8659912343
 20
6.5090259226
 30
0.0
 10
4.8682892991
 20
6.4932494469
 30
0.0
 10
4.8701288077
 20
6.4774286593
 30
0.0
 10
4.8715329599
 20
6.4615748186
 30
0.0
 10
4.8725229986
 20
6.4456978463
 30
0.0
 10
4.8731104943
 20
6.4298060962
 30
0.0
 10
4.8733062653
 20
6.4139072137
 30
0.0
 10
4.8731104862
 20
6.3980083316
 30
0.0
 10
4.8725229912
 20
6.3821165798
 30
0.0
 10
4.8715328835
 20
6.3662396072
 30
0.0
 10
4.8701285118
 20
6.3503857784
 30
0.0
 10
4.8682889037
 20
6.3345649976
 30
0.0
 10
4.8659909886
 20
6.3187884958
 30
0.0
 10
4.8632047345
 20
6.3030707317
 30
0.0
 10
4.8610012177
 20
6.2926514026
 30
0.0
 10
4.859806841
 20
6.2874593191
 30
0.0
  0
SPLINE
  5
3BF
100
AcDbEntity
  8
0
100
AcDbSpline
 62
7
  6
CONTINUOUS
 70
0
 71
3
 72
18
 73
14
 74
0
 42
0.0000001
 43
0.0000001
 44
0.0000000001
 40
0.0
 40
0.0
 40
0.0
 40
0.0
 40
0.053740614
 40
0.1077947441
 40
0.1624466963
 40
0.2179764777
 40
0.2746236873
 40
0.3325922721
 40
0.4529926421
 40
0.5800838888
 40
0.7139906194
 40
0.8542648709
 40
1.0
 40
1.0
 40
1.0
 40
1.0
 10
5.3131463778
 20
6.2864071838
 30
0.0
 10
5.3128869939
 20
6.2859579177
 30
0.0
 10
5.3123182416
 20
6.2850837838
 30
0.0
 10
5.311327243
 20
6.2838649481
 30
0.0
 10
5.3102027183
 20
6.282743378
 30
0.0
 10
5.3089513953
 20
6.2817254633
 30
0.0
 10
5.3075801932
 20
6.2808166855
 30
0.0
 10
5.3055781041
 20
6.2797437992
 30
0.0
 10
5.3028006286
 20
6.2787081402
 30
0.0
 10
5.2991770927
 20
6.2779843346
 30
0.0
 10
5.2952970895
 20
6.2777739155
 30
0.0
 10
5.2912451621
 20
6.2780793167
 30
0.0
 10
5.2885290925
 20
6.2786131654
 30
0.0
 10
5.2871656157
 20
6.2789596314
 30
0.0
  0
SPLINE
  5
3C0
100
AcDbEntity
  8
0
100
AcDbSpline
 62
7
  6
CONTINUOUS
 70
0
 71
3
 72
27
 73
23
 74
0
 42
0.0000001
 43
0.0000001
 44
0.0000000001
 40
0.0
 40
0.0
 40
0.0
 40
0.0
 40
0.0123577585
 40
0.0250567674
 40
0.0384027984
 40
0.0526579593
 40
0.0680331971
 40
0.0846887315
 40
0.1027407044
 40
0.1222715631
 40
0.1433348346
 40
0.1659637333
 40
0.2159514396
 40
0.2722139158
 40
0.3345565461
 40
0.4026697704
 40
0.4761551869
 40
0.5545432185
 40
0.637305398
 40
0.7238660735
 40
0.8136059311
 40
1.0
 40
1.0
 40
1.0
 40
1.0
 10
5.2662366685
 20
6.2051571838
 30
0.0
 10
5.266179292
 20
6.2050578049
 30
0.0
 10
5.2660449945
 20
6.2048661267
 30
0.0
 10
5.2657928594
 20
6.204611807
 30
0.0
 10
5.2654900512
 20
6.2043895722
 30
0.0
 10
5.2651378139
 20
6.2041996622
 30
0.0
 10
5.2647370343
 20
6.2040419893
 30
0.0
 10
5.2642885074
 20
6.2039165255
 30
0.0
 10
5.2637930213
 20
6.2038232627
 30
0.0
 10
5.2632514377
 20
6.2037623122
 30
0.0
 10
5.2626647146
 20
6.2037336508
 30
0.0
 10
5.2617944723
 20
6.2037388801
 30
0.0
 10
5.2605998567
 20
6.2038335083
 30
0.0
 10
5.2590513566
 20
6.204070487
 30
0.0
 10
5.257354996
 20
6.2044331487
 30
0.0
 10
5.2555239178
 20
6.2049188319
 30
0.0
 10
5.2535723029
 20
6.2055239699
 30
0.0
 10
5.2515154557
 20
6.2062439531
 30
0.0
 10
5.249369549
 20
6.2070732303
 30
0.0
 10
5.2471514841
 20
6.2080053415
 30
0.0
 10
5.2440824589
 20
6.2093931547
 30
0.0
 10
5.2417867782
 20
6.2105383896
 30
0.0
 10
5.2402559064
 20
6.211345995
 30
0.0
  0
SPLINE
  5
3C1
100
AcDbEntity
  8
0
100
AcDbSpline
 62
7
  6
CONTINUOUS
 70
0
 71
3
 72
27
 73
23
 74
0
 42
0.0000001
 43
0.0000001
 44
0.0000000001
 40
0.0
 40
0.0
 40
0.0
 40
0.0
 40
0.0123576306
 40
0.0250565183
 40
0.0384024374
 40
0.052657498
 40
0.0680326486
 40
0.0846881092
 40
0.102740021
 40
0.1222708306
 40
0.1433340642
 40
0.1659629353
 40
0.2159506147
 40
0.2722130966
 40
0.3345557606
 40
0.4026690426
 40
0.4761545358
 40
0.5545426593
 40
0.637304942
 40
0.7238657285
 40
0.8136057014
 40
1.0
 40
1.0
 40
1.0
 40
1.0
 10
5.2662366685
 20
6.1301571838
 30
0.0
 10
5.2661792927
 20
6.1302565616
 30
0.0
 10
5.2660449964
 20
6.1304482376
 30
0.0
 10
5.2657928632
 20
6.130702554
 30
0.0
 10
5.2654900568
 20
6.1309247855
 30
0.0
 10
5.2651378213
 20
6.1311146922
 30
0.0
 10
5.2647370436
 20
6.131272362
 30
0.0
 10
5.2642885184
 20
6.1313978227
 30
0.0
 10
5.263793034
 20
6.1314910826
 30
0.0
 10
5.263251452
 20
6.1315520304
 30
0.0
 10
5.2626647304
 20
6.1315806892
 30
0.0
 10
5.2617944898
 20
6.1315754566
 30
0.0
 10
5.2605998762
 20
6.1314808249
 30
0.0
 10
5.259051378
 20
6.131243843
 30
0.0
 10
5.2573550185
 20
6.1308811794
 30
0.0
 10
5.2555239408
 20
6.1303954956
 30
0.0
 10
5.2535723255
 20
6.1297903583
 30
0.0
 10
5.251515477
 20
6.1290703775
 30
0.0
 10
5.2493695682
 20
6.1282411041
 30
0.0
 10
5.2471515002
 20
6.1273089984
 30
0.0
 10
5.2440824694
 20
6.125921195
 30
0.0
 10
5.2417867829
 20
6.1247759701
 30
0.0
 10
5.2402559064
 20
6.1239683726
 30
0.0
  0
SPLINE
  5
3C2
100
AcDbEntity
  8
0
100
AcDbSpline
 62
7
  6
CONTINUOUS
 70
0
 71
3
 72
18
 73
14
 74
0
 42
0.0000001
 43
0.0000001
 44
0.0000000001
 40
0.0
 40
0.0
 40
0.0
 40
0.0
 40
0.0537403807
 40
0.1077943299
 40
0.1624461516
 40
0.2179758479
 40
0.2746230129
 40
0.3325915882
 40
0.4529920223
 40
0.5800834063
 40
0.713990305
 40
0.854264724
 40
1.0
 40
1.0
 40
1.0
 40
1.0
 10
5.3131463778
 20
6.0489071838
 30
0.0
 10
5.3128869951
 20
6.0493564478
 30
0.0
 10
5.312318245
 20
6.0502305779
 30
0.0
 10
5.3113272493
 20
6.0514494083
 30
0.0
 10
5.3102027269
 20
6.0525709744
 30
0.0
 10
5.3089514057
 20
6.053588886
 30
0.0
 10
5.3075802046
 20
6.0544976618
 30
0.0
 10
5.3055781159
 20
6.0555705469
 30
0.0
 10
5.30280064
 20
6.0566062063
 30
0.0
 10
5.2991771029
 20
6.0573300151
 30
0.0
 10
5.2952970971
 20
6.0575404393
 30
0.0
 10
5.2912451663
 20
6.0572350446
 30
0.0
 10
5.2885290938
 20
6.0567012001
 30
0.0
 10
5.2871656157
 20
6.0563547363
 30
0.0
  0
SPLINE
  5
3C3
100
AcDbEntity
  8
0
100
AcDbSpline
 62
7
  6
CONTINUOUS
 70
0
 71
3
 72
22
 73
18
 74
0
 42
0.0000001
 43
0.0000001
 44
0.0000000001
 40
0.0
 40
0.0
 40
0.0
 40
0.0
 40
0.0625024937
 40
0.1249255524
 40
0.1872940331
 40
0.2496297405
 40
0.3119506492
 40
0.3742721956
 40
0.4366075764
 40
0.4989683263
 40
0.56136459
 40
0.623806062
 40
0.6863027592
 40
0.7488642778
 40
0.8115022137
 40
0.8742297859
 40
1.0
 40
1.0
 40
1.0
 40
1.0
 10
4.7089699464
 20
6.2837498976
 30
0.0
 10
4.70773529
 20
6.2889770701
 30
0.0
 10
4.7054558452
 20
6.2994701259
 30
0.0
 10
4.7025705167
 20
6.3153067762
 30
0.0
 10
4.700188177
 20
6.3312122422
 30
0.0
 10
4.6982799035
 20
6.3471723467
 30
0.0
 10
4.6968214579
 20
6.3631755791
 30
0.0
 10
4.6957936523
 20
6.3792120419
 30
0.0
 10
4.6951826288
 20
6.3952731134
 30
0.0
 10
4.6949800106
 20
6.4113508952
 30
0.0
 10
4.6951828907
 20
6.427437789
 30
0.0
 10
4.6957940433
 20
6.4435260805
 30
0.0
 10
4.6968221346
 20
6.4596074689
 30
0.0
 10
4.6982806786
 20
6.4756725377
 30
0.0
 10
4.7001890773
 20
6.4917109742
 30
0.0
 10
4.7033682068
 20
6.5130580779
 30
0.0
 10
4.7065041391
 20
6.5289658985
 30
0.0
 10
4.7089699464
 20
6.5394886214
 30
0.0
  0
SPLINE
  5
3C4
100
AcDbEntity
  8
0
100
AcDbSpline
 62
7
  6
CONTINUOUS
 70
0
 71
3
 72
9
 73
5
 74
0
 42
0.0000001
 43
0.0000001
 44
0.0000000001
 40
0.0
 40
0.0
 40
0.0
 40
0.0
 40
0.5147235317
 40
1.0
 40
1.0
 40
1.0
 40
1.0
 10
4.7096083891
 20
6.278012643
 30
0.0
 10
4.7096083858
 20
6.2790047415
 30
0.0
 10
4.7095071028
 20
6.280933879
 30
0.0
 10
4.7091849531
 20
6.2828396038
 30
0.0
 10
4.7089699464
 20
6.2837498976
 30
0.0
  0
LINE
  5
3C5
100
AcDbEntity
  8
0
100
AcDbLine
 62
7
  6
CONTINUOUS
 10
4.7089699464
 20
6.6555813352
 11
4.6950475961
 21
6.6550384956
  0
SPLINE
  5
3C6
100
AcDbEntity
  8
0
100
AcDbSpline
 62
7
  6
CONTINUOUS
 70
0
 71
3
 72
15
 73
11
 74
0
 42
0.0000001
 43
0.0000001
 44
0.0000000001
 40
0.0
 40
0.0
 40
0.0
 40
0.0
 40
0.1726925473
 40
0.3238285362
 40
0.4556195031
 40
0.5716787981
 40
0.6772617272
 40
0.7791604457
 40
0.8846513455
 40
1.0
 40
1.0
 40
1.0
 40
1.0
 10
4.7096083891
 20
6.6546644358
 30
0.0
 10
4.7096083883
 20
6.6547377748
 30
0.0
 10
4.7096028423
 20
6.6548754358
 30
0.0
 10
4.7095736282
 20
6.6550672154
 30
0.0
 10
4.7095238163
 20
6.6552299807
 30
0.0
 10
4.7094529288
 20
6.6553636005
 30
0.0
 10
4.7093602266
 20
6.6554671652
 30
0.0
 10
4.7092462335
 20
6.6555389055
 30
0.0
 10
4.7091133373
 20
6.6555780219
 30
0.0
 10
4.7090189048
 20
6.6555829853
 30
0.0
 10
4.7089699464
 20
6.6555813352
 30
0.0
  0
SPLINE
  5
3C7
100
AcDbEntity
  8
0
100
AcDbSpline
 62
7
  6
CONTINUOUS
 70
0
 71
3
 72
11
 73
7
 74
0
 42
0.0000001
 43
0.0000001
 44
0.0000000001
 40
0.0
 40
0.0
 40
0.0
 40
0.0
 40
0.2732795856
 40
0.5321829669
 40
0.7749047224
 40
1.0
 40
1.0
 40
1.0
 40
1.0
 10
4.7089699464
 20
6.5394886214
 30
0.0
 10
4.7090712046
 20
6.53992074
 30
0.0
 10
4.7092511109
 20
6.5407664519
 30
0.0
 10
4.7094533877
 20
6.5420091548
 30
0.0
 10
4.7095777842
 20
6.5431834791
 30
0.0
 10
4.7096083873
 20
6.5439434071
 30
0.0
 10
4.7096083891
 20
6.5443089766
 30
0.0
  0
SPLINE
  5
3C8
100
AcDbEntity
  8
0
100
AcDbSpline
 62
7
  6
CONTINUOUS
 70
0
 71
3
 72
21
 73
17
 74
0
 42
0.0000001
 43
0.0000001
 44
0.0000000001
 40
0.0
 40
0.0
 40
0.0
 40
0.0
 40
0.0621167728
 40
0.1243079864
 40
0.186571868
 40
0.2489054858
 40
0.3113045394
 40
0.3737638138
 40
0.4987939875
 40
0.6239838951
 40
0.6866410497
 40
0.7493137877
 40
0.8119940971
 40
0.8746732098
 40
0.9373450352
 40
1.0
 40
1.0
 40
1.0
 40
1.0
 10
4.0546882132
 20
2.1805541234
 30
0.0
 10
4.052509169
 20
2.1780492949
 30
0.0
 10
4.0480122946
 20
2.17315326
 30
0.0
 10
4.0408779995
 20
2.1661796856
 30
0.0
 10
4.0333701551
 20
2.1595919116
 30
0.0
 10
4.0255108287
 20
2.1534099729
 30
0.0
 10
4.0173225824
 20
2.1476521566
 30
0.0
 10
4.0059973079
 20
2.1405625499
 30
0.0
 10
3.9911369186
 20
2.1328428657
 30
0.0
 10
3.9755298095
 20
2.1267446977
 30
0.0
 10
3.9627052621
 20
2.1228774681
 30
0.0
 10
3.9529394827
 20
2.1204889345
 30
0.0
 10
3.9430601295
 20
2.1186203842
 30
0.0
 10
3.9330957714
 20
2.1172763654
 30
0.0
 10
3.9230760316
 20
2.1164602303
 30
0.0
 10
3.9163766595
 20
2.1162690791
 30
0.0
 10
3.9130279025
 20
2.116261692
 30
0.0
  0
SPLINE
  5
3C9
100
AcDbEntity
  8
0
100
AcDbSpline
 62
7
  6
CONTINUOUS
 70
0
 71
3
 72
10
 73
6
 74
0
 42
0.0000001
 43
0.0000001
 44
0.0000000001
 40
0.0
 40
0.0
 40
0.0
 40
0.0
 40
0.1887999163
 40
0.5322796939
 40
1.0
 40
1.0
 40
1.0
 40
1.0
 10
3.9130528442
 20
2.1162408987
 30
0.0
 10
3.9130507232
 20
2.1162408928
 30
0.0
 10
3.9130447034
 20
2.1162422603
 30
0.0
 10
3.9130357808
 20
2.1162496453
 30
0.0
 10
3.9130306024
 20
2.1162571842
 30
0.0
 10
3.9130279025
 20
2.116261692
 30
0.0
  0
SPLINE
  5
3CA
100
AcDbEntity
  8
0
100
AcDbSpline
 62
7
  6
CONTINUOUS
 70
0
 71
3
 72
10
 73
6
 74
0
 42
0.0000001
 43
0.0000001
 44
0.0000000001
 40
0.0
 40
0.0
 40
0.0
 40
0.0
 40
0.1887999171
 40
0.532279707
 40
1.0
 40
1.0
 40
1.0
 40
1.0
 10
3.7179631408
 20
2.1162408987
 30
0.0
 10
3.7179652618
 20
2.1162408928
 30
0.0
 10
3.7179712816
 20
2.1162422603
 30
0.0
 10
3.7179802042
 20
2.1162496453
 30
0.0
 10
3.7179853826
 20
2.1162571842
 30
0.0
 10
3.7179880825
 20
2.116261692
 30
0.0
  0
SPLINE
  5
3CB
100
AcDbEntity
  8
0
100
AcDbSpline
 62
7
  6
CONTINUOUS
 70
0
 71
3
 72
9
 73
5
 74
0
 42
0.0000001
 43
0.0000001
 44
0.0000000001
 40
0.0
 40
0.0
 40
0.0
 40
0.0
 40
0.4852767816
 40
1.0
 40
1.0
 40
1.0
 40
1.0
 10
4.8680460386
 20
6.2837498976
 30
0.0
 10
4.8678310315
 20
6.2828396032
 30
0.0
 10
4.8675088823
 20
6.2809338783
 30
0.0
 10
4.8674075994
 20
6.2790047409
 30
0.0
 10
4.8674075958
 20
6.278012643
 30
0.0
  0
SPLINE
  5
3CC
100
AcDbEntity
  8
0
100
AcDbSpline
 62
7
  6
CONTINUOUS
 70
0
 71
3
 72
22
 73
18
 74
0
 42
0.0000001
 43
0.0000001
 44
0.0000000001
 40
0.0
 40
0.0
 40
0.0
 40
0.0
 40
0.1257702124
 40
0.1884978093
 40
0.2511357273
 40
0.313697258
 40
0.3761939517
 40
0.4386353753
 40
0.5010317016
 40
0.5633924218
 40
0.6257277882
 40
0.6880493433
 40
0.7503702578
 40
0.8127059678
 40
0.8750744483
 40
0.9374975067
 40
1.0
 40
1.0
 40
1.0
 40
1.0
 10
4.8680460386
 20
6.5394886214
 30
0.0
 10
4.8705118456
 20
6.5289658986
 30
0.0
 10
4.8736477732
 20
6.5130580753
 30
0.0
 10
4.8768269181
 20
6.4917109734
 30
0.0
 10
4.8787353064
 20
6.4756725339
 30
0.0
 10
4.8801938553
 20
6.4596074665
 30
0.0
 10
4.8812219527
 20
6.4435260815
 30
0.0
 10
4.8818330729
 20
6.4274377882
 30
0.0
 10
4.8820359936
 20
6.4113508963
 30
0.0
 10
4.8818333527
 20
6.3952731128
 30
0.0
 10
4.8812223272
 20
6.3792120446
 30
0.0
 10
4.8801945258
 20
6.3631755815
 30
0.0
 10
4.8787360813
 20
6.3471723475
 30
0.0
 10
4.8768278088
 20
6.3312122421
 30
0.0
 10
4.8744454687
 20
6.315306776
 30
0.0
 10
4.87156014
 20
6.2994701257
 30
0.0
 10
4.869280695
 20
6.28897707
 30
0.0
 10
4.8680460386
 20
6.2837498976
 30
0.0
  0
SPLINE
  5
3CD
100
AcDbEntity
  8
0
100
AcDbSpline
 62
7
  6
CONTINUOUS
 70
0
 71
3
 72
11
 73
7
 74
0
 42
0.0000001
 43
0.0000001
 44
0.0000000001
 40
0.0
 40
0.0
 40
0.0
 40
0.0
 40
0.2250950149
 40
0.4678173489
 40
0.7267208766
 40
1.0
 40
1.0
 40
1.0
 40
1.0
 10
4.8674075958
 20
6.5443089766
 30
0.0
 10
4.8674075976
 20
6.5439434075
 30
0.0
 10
4.8674381971
 20
6.5431834788
 30
0.0
 10
4.8675625979
 20
6.542009154
 30
0.0
 10
4.867764876
 20
6.540766451
 30
0.0
 10
4.8679447807
 20
6.5399207393
 30
0.0
 10
4.8680460386
 20
6.5394886214
 30
0.0
  0
SPLINE
  5
3CE
100
AcDbEntity
  8
0
100
AcDbSpline
 62
7
  6
CONTINUOUS
 70
0
 71
3
 72
15
 73
11
 74
0
 42
0.0000001
 43
0.0000001
 44
0.0000000001
 40
0.0
 40
0.0
 40
0.0
 40
0.0
 40
0.1153490893
 40
0.2208403591
 40
0.3227391346
 40
0.428322457
 40
0.5443826985
 40
0.6761740951
 40
0.8273087171
 40
1.0
 40
1.0
 40
1.0
 40
1.0
 10
4.8680460386
 20
6.6555813352
 30
0.0
 10
4.86799708
 20
6.6555829854
 30
0.0
 10
4.8679026472
 20
6.6555780226
 30
0.0
 10
4.8677697501
 20
6.6555389077
 30
0.0
 10
4.8676557567
 20
6.6554671667
 30
0.0
 10
4.8675630558
 20
6.6553635998
 30
0.0
 10
4.8674921706
 20
6.655229978
 30
0.0
 10
4.8674423597
 20
6.6550672125
 30
0.0
 10
4.8674131434
 20
6.6548754342
 30
0.0
 10
4.8674075967
 20
6.6547377743
 30
0.0
 10
4.8674075958
 20
6.6546644358
 30
0.0
  0
SPLINE
  5
3CF
100
AcDbEntity
  8
0
100
AcDbSpline
 62
7
  6
CONTINUOUS
 70
0
 71
3
 72
14
 73
10
 74
0
 42
0.0000001
 43
0.0000001
 44
0.0000000001
 40
0.0
 40
0.0
 40
0.0
 40
0.0
 40
0.2493798088
 40
0.3746262876
 40
0.4999999612
 40
0.6253736355
 40
0.7506201109
 40
0.8755757055
 40
1.0
 40
1.0
 40
1.0
 40
1.0
 10
3.2164196421
 20
6.0232046519
 30
0.0
 10
3.2310846702
 20
5.9981833696
 30
0.0
 10
3.253068394
 20
5.9605682615
 30
0.0
 10
3.2822815416
 20
5.9102904295
 30
0.0
 10
3.3041806282
 20
5.8724421942
 30
0.0
 10
3.3260086715
 20
5.8345529437
 30
0.0
 10
3.3477432935
 20
5.7966660726
 30
0.0
 10
3.3693592912
 20
5.7588385154
 30
0.0
 10
3.3837112505
 20
5.7336363327
 30
0.0
 10
3.390864255
 20
5.7210577192
 30
0.0
  0
SPLINE
  5
3D0
100
AcDbEntity
  8
0
100
AcDbSpline
 62
7
  6
CONTINUOUS
 70
0
 71
3
 72
33
 73
29
 74
0
 42
0.0000001
 43
0.0000001
 44
0.0000000001
 40
0.0
 40
0.0
 40
0.0
 40
0.0
 40
0.0628141774
 40
0.1256479333
 40
0.1884854045
 40
0.2512902239
 40
0.2826769398
 40
0.3140418534
 40
0.3453827334
 40
0.3766994598
 40
0.3923506765
 40
0.4079970773
 40
0.4392761192
 40
0.4705441093
 40
0.5018034105
 40
0.5330541544
 40
0.5642947996
 40
0.6267163366
 40
0.6890615463
 40
0.7202091718
 40
0.751333664
 40
0.7824374735
 40
0.7979844095
 40
0.8135284279
 40
0.8446092908
 40
0.8756889683
 40
0.9378379734
 40
1.0
 40
1.0
 40
1.0
 40
1.0
 10
3.8155079925
 20
2.3859364261
 30
0.0
 10
3.8061928232
 20
2.3859364261
 30
0.0
 10
3.7875469944
 20
2.3868721281
 30
0.0
 10
3.7598590865
 20
2.3909970402
 30
0.0
 10
3.732695117
 20
2.3977575795
 30
0.0
 10
3.7107000352
 20
2.4055228158
 30
0.0
 10
3.6936279918
 20
2.4129698127
 30
0.0
 10
3.6811172049
 20
2.4191621888
 30
0.0
 10
3.6689322737
 20
2.4259513257
 30
0.0
 10
3.6590740637
 20
2.4320993345
 30
0.0
 10
3.651384051
 20
2.4373051534
 30
0.0
 10
3.6438321745
 20
2.4426998238
 30
0.0
 10
3.6346542034
 20
2.4497957221
 30
0.0
 10
3.6240816733
 20
2.4588454985
 30
0.0
 10
3.6139708575
 20
2.4684022355
 30
0.0
 10
3.6043416744
 20
2.4784387013
 30
0.0
 10
3.5921772589
 20
2.4924172309
 30
0.0
 10
3.5782717595
 20
2.5109554339
 30
0.0
 10
3.5662317303
 20
2.5307406317
 30
0.0
 10
3.5578074509
 20
2.5471963586
 30
0.0
 10
3.5521123763
 20
2.5598248011
 30
0.0
 10
3.547901245
 20
2.5705680585
 30
0.0
 10
3.5448643179
 20
2.5792779876
 30
0.0
 10
3.5420524363
 20
2.5880595392
 30
0.0
 10
3.5389589002
 20
2.5991656771
 30
0.0
 10
3.5349101182
 20
2.6171569105
 30
0.0
 10
3.5315348005
 20
2.6399919504
 30
0.0
 10
3.5306354608
 20
2.6584387267
 30
0.0
 10
3.5306354608
 20
2.6676571838
 30
0.0
  0
SPLINE
  5
3D1
100
AcDbEntity
  8
0
100
AcDbSpline
 62
7
  6
CONTINUOUS
 70
0
 71
3
 72
33
 73
29
 74
0
 42
0.0000001
 43
0.0000001
 44
0.0000000001
 40
0.0
 40
0.0
 40
0.0
 40
0.0
 40
0.0621620266
 40
0.1243110317
 40
0.1553907092
 40
0.1864715721
 40
0.2020155905
 40
0.2175625265
 40
0.248666336
 40
0.2797908282
 40
0.3109384537
 40
0.3732836634
 40
0.4357052004
 40
0.4669458456
 40
0.4981965895
 40
0.5294558907
 40
0.5607238808
 40
0.5920029227
 40
0.6076493235
 40
0.6233005402
 40
0.6546172666
 40
0.6859581466
 40
0.7173230602
 40
0.7487097761
 40
0.8115145955
 40
0.8743520667
 40
0.9371858226
 40
1.0
 40
1.0
 40
1.0
 40
1.0
 10
4.1003805241
 20
2.6676571838
 30
0.0
 10
4.1003805241
 20
2.6584387267
 30
0.0
 10
4.0994811845
 20
2.6399919504
 30
0.0
 10
4.0961058668
 20
2.6171569105
 30
0.0
 10
4.0920570848
 20
2.5991656771
 30
0.0
 10
4.0889635487
 20
2.5880595392
 30
0.0
 10
4.0861516671
 20
2.5792779876
 30
0.0
 10
4.08311474
 20
2.5705680585
 30
0.0
 10
4.0789036087
 20
2.5598248011
 30
0.0
 10
4.0732085341
 20
2.5471963586
 30
0.0
 10
4.0647842547
 20
2.5307406317
 30
0.0
 10
4.0527442254
 20
2.5109554339
 30
0.0
 10
4.0388387261
 20
2.4924172309
 30
0.0
 10
4.0266743105
 20
2.4784387013
 30
0.0
 10
4.0170451275
 20
2.4684022355
 30
0.0
 10
4.0069343117
 20
2.4588454985
 30
0.0
 10
3.9963617816
 20
2.4497957221
 30
0.0
 10
3.9871838105
 20
2.4426998238
 30
0.0
 10
3.979631934
 20
2.4373051534
 30
0.0
 10
3.9719419213
 20
2.4320993345
 30
0.0
 10
3.9620837113
 20
2.4259513257
 30
0.0
 10
3.9498987801
 20
2.4191621888
 30
0.0
 10
3.9373879931
 20
2.4129698127
 30
0.0
 10
3.9203159497
 20
2.4055228158
 30
0.0
 10
3.898320868
 20
2.3977575795
 30
0.0
 10
3.8711568985
 20
2.3909970402
 30
0.0
 10
3.8434689906
 20
2.3868721281
 30
0.0
 10
3.8248231618
 20
2.3859364261
 30
0.0
 10
3.8155079925
 20
2.3859364261
 30
0.0
  0
SPLINE
  5
3D2
100
AcDbEntity
  8
0
100
AcDbSpline
 62
7
  6
CONTINUOUS
 70
0
 71
3
 72
9
 73
5
 74
0
 42
0.0000001
 43
0.0000001
 44
0.0000000001
 40
0.0
 40
0.0
 40
0.0
 40
0.0
 40
0.4852767816
 40
1.0
 40
1.0
 40
1.0
 40
1.0
 10
4.7089699464
 20
6.05156447
 30
0.0
 10
4.7091849535
 20
6.0524747644
 30
0.0
 10
4.7095071027
 20
6.0543804894
 30
0.0
 10
4.7096083856
 20
6.0563096267
 30
0.0
 10
4.7096083891
 20
6.0573017246
 30
0.0
  0
SPLINE
  5
3D3
100
AcDbEntity
  8
0
100
AcDbSpline
 62
7
  6
CONTINUOUS
 70
0
 71
3
 72
22
 73
18
 74
0
 42
0.0000001
 43
0.0000001
 44
0.0000000001
 40
0.0
 40
0.0
 40
0.0
 40
0.0
 40
0.1257701992
 40
0.1884979141
 40
0.2511358582
 40
0.3136973447
 40
0.3761939731
 40
0.4386353801
 40
0.5010318368
 40
0.5633923741
 40
0.6257277527
 40
0.6880494028
 40
0.7503703157
 40
0.812705987
 40
0.8750744502
 40
0.9374975049
 40
1.0
 40
1.0
 40
1.0
 40
1.0
 10
4.7089699464
 20
5.7958257463
 30
0.0
 10
4.7065041309
 20
5.8063484661
 30
0.0
 10
4.7033682367
 20
5.8222563048
 30
0.0
 10
4.7001890283
 20
5.8436034086
 30
0.0
 10
4.6982806357
 20
5.8596418571
 30
0.0
 10
4.6968221042
 20
5.875706919
 30
0.0
 10
4.6957940226
 20
5.8917882948
 30
0.0
 10
4.6951829287
 20
5.9078765926
 30
0.0
 10
4.6949799185
 20
5.9239634784
 30
0.0
 10
4.6951826672
 20
5.9400412579
 30
0.0
 10
4.6957936714
 20
5.9561023194
 30
0.0
 10
4.6968214319
 20
5.9721387949
 30
0.0
 10
4.6982798836
 20
5.9881420336
 30
0.0
 10
4.7001881723
 20
6.0041021323
 30
0.0
 10
4.7025705168
 20
6.0200075927
 30
0.0
 10
4.7054558466
 20
6.0358442413
 30
0.0
 10
4.70773529
 20
6.0463372974
 30
0.0
 10
4.7089699464
 20
6.05156447
 30
0.0
  0
SPLINE
  5
3D4
100
AcDbEntity
  8
0
100
AcDbSpline
 62
7
  6
CONTINUOUS
 70
0
 71
3
 72
11
 73
7
 74
0
 42
0.0000001
 43
0.0000001
 44
0.0000000001
 40
0.0
 40
0.0
 40
0.0
 40
0.0
 40
0.2250950149
 40
0.4678173489
 40
0.7267208766
 40
1.0
 40
1.0
 40
1.0
 40
1.0
 10
4.7096083891
 20
5.7910053911
 30
0.0
 10
4.7096083874
 20
5.7913709601
 30
0.0
 10
4.7095777878
 20
5.7921308889
 30
0.0
 10
4.7094533871
 20
5.7933052136
 30
0.0
 10
4.709251109
 20
5.7945479166
 30
0.0
 10
4.7090712043
 20
5.7953936284
 30
0.0
 10
4.7089699464
 20
5.7958257463
 30
0.0
  0
SPLINE
  5
3D5
100
AcDbEntity
  8
0
100
AcDbSpline
 62
7
  6
CONTINUOUS
 70
0
 71
3
 72
15
 73
11
 74
0
 42
0.0000001
 43
0.0000001
 44
0.0000000001
 40
0.0
 40
0.0
 40
0.0
 40
0.0
 40
0.1153490893
 40
0.2208403591
 40
0.3227391346
 40
0.428322457
 40
0.5443826985
 40
0.6761740951
 40
0.8273087171
 40
1.0
 40
1.0
 40
1.0
 40
1.0
 10
4.7089699464
 20
5.6797330325
 30
0.0
 10
4.709018905
 20
5.6797313822
 30
0.0
 10
4.7091133378
 20
5.679736345
 30
0.0
 10
4.7092462349
 20
5.6797754599
 30
0.0
 10
4.7093602283
 20
5.679847201
 30
0.0
 10
4.7094529291
 20
5.6799507679
 30
0.0
 10
4.7095238144
 20
5.6800843896
 30
0.0
 10
4.7095736253
 20
5.6802471551
 30
0.0
 10
4.7096028416
 20
5.6804389335
 30
0.0
 10
4.7096083883
 20
5.6805765934
 30
0.0
 10
4.7096083891
 20
5.6806499319
 30
0.0
  0
LINE
  5
3D6
100
AcDbEntity
  8
0
100
AcDbLine
 62
7
  6
CONTINUOUS
 10
4.8680460386
 20
5.6797330325
 11
4.8819684613
 21
5.6802760014
  0
SPLINE
  5
3D7
100
AcDbEntity
  8
0
100
AcDbSpline
 62
7
  6
CONTINUOUS
 70
0
 71
3
 72
15
 73
11
 74
0
 42
0.0000001
 43
0.0000001
 44
0.0000000001
 40
0.0
 40
0.0
 40
0.0
 40
0.0
 40
0.1726925473
 40
0.3238285362
 40
0.4556195031
 40
0.5716787981
 40
0.6772617272
 40
0.7791604457
 40
0.8846513455
 40
1.0
 40
1.0
 40
1.0
 40
1.0
 10
4.8674075958
 20
5.6806499319
 30
0.0
 10
4.8674075966
 20
5.6805765928
 30
0.0
 10
4.8674131426
 20
5.6804389319
 30
0.0
 10
4.8674423568
 20
5.6802471523
 30
0.0
 10
4.8674921686
 20
5.6800843869
 30
0.0
 10
4.8675630562
 20
5.6799507672
 30
0.0
 10
4.8676557584
 20
5.6798472025
 30
0.0
 10
4.8677697515
 20
5.6797754622
 30
0.0
 10
4.8679026477
 20
5.6797363458
 30
0.0
 10
4.8679970802
 20
5.6797313823
 30
0.0
 10
4.8680460386
 20
5.6797330325
 30
0.0
  0
SPLINE
  5
3D8
100
AcDbEntity
  8
0
100
AcDbSpline
 62
7
  6
CONTINUOUS
 70
0
 71
3
 72
11
 73
7
 74
0
 42
0.0000001
 43
0.0000001
 44
0.0000000001
 40
0.0
 40
0.0
 40
0.0
 40
0.0
 40
0.2732795856
 40
0.5321829669
 40
0.7749047224
 40
1.0
 40
1.0
 40
1.0
 40
1.0
 10
4.8680460386
 20
5.7958257463
 30
0.0
 10
4.8679447804
 20
5.7953936277
 30
0.0
 10
4.8677648741
 20
5.7945479158
 30
0.0
 10
4.8675625973
 20
5.7933052129
 30
0.0
 10
4.8674382008
 20
5.7921308886
 30
0.0
 10
4.8674075977
 20
5.7913709606
 30
0.0
 10
4.8674075958
 20
5.7910053911
 30
0.0
  0
SPLINE
  5
3D9
100
AcDbEntity
  8
0
100
AcDbSpline
 62
7
  6
CONTINUOUS
 70
0
 71
3
 72
22
 73
18
 74
0
 42
0.0000001
 43
0.0000001
 44
0.0000000001
 40
0.0
 40
0.0
 40
0.0
 40
0.0
 40
0.0625024945
 40
0.12492554
 40
0.1872939929
 40
0.2496296667
 40
0.3119506353
 40
0.3742722407
 40
0.4366075222
 40
0.4989682061
 40
0.5613645818
 40
0.6238059881
 40
0.6863026742
 40
0.7488642623
 40
0.8115021772
 40
0.8742297627
 40
1.0
 40
1.0
 40
1.0
 40
1.0
 10
4.8680460386
 20
6.05156447
 30
0.0
 10
4.8692806948
 20
6.0463372974
 30
0.0
 10
4.8715601375
 20
6.0358442421
 30
0.0
 10
4.874445472
 20
6.0200075962
 30
0.0
 10
4.8768278185
 20
6.0041021377
 30
0.0
 10
4.8787361133
 20
5.9881420354
 30
0.0
 10
4.8801945318
 20
5.9721387925
 30
0.0
 10
4.8812223055
 20
5.9561023262
 30
0.0
 10
4.8818333727
 20
5.9400412658
 30
0.0
 10
4.8820360249
 20
5.9239634879
 30
0.0
 10
4.8818330764
 20
5.9078765965
 30
0.0
 10
4.8812219682
 20
5.8917883007
 30
0.0
 10
4.8801938776
 20
5.8757069119
 30
0.0
 10
4.8787353004
 20
5.859641843
 30
0.0
 10
4.8768269217
 20
5.8436033986
 30
0.0
 10
4.8736477749
 20
5.8222562957
 30
0.0
 10
4.8705118564
 20
5.8063484689
 30
0.0
 10
4.8680460386
 20
5.7958257463
 30
0.0
  0
SPLINE
  5
3DA
100
AcDbEntity
  8
0
100
AcDbSpline
 62
7
  6
CONTINUOUS
 70
0
 71
3
 72
9
 73
5
 74
0
 42
0.0000001
 43
0.0000001
 44
0.0000000001
 40
0.0
 40
0.0
 40
0.0
 40
0.0
 40
0.5147235317
 40
1.0
 40
1.0
 40
1.0
 40
1.0
 10
4.8674075958
 20
6.0573017246
 30
0.0
 10
4.8674075992
 20
6.0563096261
 30
0.0
 10
4.8675088822
 20
6.0543804887
 30
0.0
 10
4.8678310319
 20
6.0524747639
 30
0.0
 10
4.8680460386
 20
6.05156447
 30
0.0
  0
SPLINE
  5
3DB
100
AcDbEntity
  8
0
100
AcDbSpline
 62
7
  6
CONTINUOUS
 70
0
 71
3
 72
15
 73
11
 74
0
 42
0.0000001
 43
0.0000001
 44
0.0000000001
 40
0.0
 40
0.0
 40
0.0
 40
0.0
 40
0.1228904083
 40
0.2464943768
 40
0.370786262
 40
0.4957355831
 40
0.6212569645
 40
0.7472329405
 40
0.8735397999
 40
1.0
 40
1.0
 40
1.0
 40
1.0
 10
4.7096083891
 20
5.6806499319
 30
0.0
 10
4.7098378911
 20
5.6803344151
 30
0.0
 10
4.710337644
 20
5.6797292148
 30
0.0
 10
4.7111933191
 20
5.6789168357
 30
0.0
 10
4.7121452309
 20
5.678208474
 30
0.0
 10
4.713179319
 20
5.6776144658
 30
0.0
 10
4.7142806645
 20
5.6771433868
 30
0.0
 10
4.7154333358
 20
5.6768019333
 30
0.0
 10
4.7166204384
 20
5.6765951235
 30
0.0
 10
4.7174236954
 20
5.6765489364
 30
0.0
 10
4.7178251852
 20
5.6765489364
 30
0.0
  0
SPLINE
  5
3DC
100
AcDbEntity
  8
0
100
AcDbSpline
 62
7
  6
CONTINUOUS
 70
0
 71
3
 72
12
 73
8
 74
0
 42
0.0000001
 43
0.0000001
 44
0.0000000001
 40
0.0
 40
0.0
 40
0.0
 40
0.0
 40
0.2298537545
 40
0.3511420877
 40
0.4761327367
 40
0.7346478763
 40
1.0
 40
1.0
 40
1.0
 40
1.0
 10
4.7096083891
 20
6.5443089766
 30
0.0
 10
4.7100825818
 20
6.544813168
 30
0.0
 10
4.7109124257
 20
6.545489412
 30
0.0
 10
4.7121574607
 20
6.5462032776
 30
0.0
 10
4.713549734
 20
6.5468199655
 30
0.0
 10
4.7154452339
 20
6.5473415438
 30
0.0
 10
4.7170261435
 20
6.5474806897
 30
0.0
 10
4.7178251852
 20
6.5474806897
 30
0.0
  0
SPLINE
  5
3DD
100
AcDbEntity
  8
0
100
AcDbSpline
 62
7
  6
CONTINUOUS
 70
0
 71
3
 72
14
 73
10
 74
0
 42
0.0000001
 43
0.0000001
 44
0.0000000001
 40
0.0
 40
0.0
 40
0.0
 40
0.0
 40
0.1047205118
 40
0.2174790668
 40
0.3374248916
 40
0.4634425248
 40
0.5942187813
 40
0.7282984567
 40
1.0
 40
1.0
 40
1.0
 40
1.0
 10
4.7089699464
 20
6.2837498976
 30
0.0
 10
4.7092002039
 20
6.2839714429
 30
0.0
 10
4.7097052947
 20
6.2844040165
 30
0.0
 10
4.7105481532
 20
6.2849974255
 30
0.0
 10
4.7114931863
 20
6.2855519511
 30
0.0
 10
4.7125258808
 20
6.2860590365
 30
0.0
 10
4.7136306
 20
6.2865110053
 30
0.0
 10
4.7151831696
 20
6.2870328221
 30
0.0
 10
4.7163921748
 20
6.2873183685
 30
0.0
 10
4.717209144
 20
6.2874593191
 30
0.0
  0
SPLINE
  5
3DE
100
AcDbEntity
  8
0
100
AcDbSpline
 62
7
  6
CONTINUOUS
 70
0
 71
3
 72
14
 73
10
 74
0
 42
0.0000001
 43
0.0000001
 44
0.0000000001
 40
0.0
 40
0.0
 40
0.0
 40
0.0
 40
0.0931393929
 40
0.1983928489
 40
0.31448028
 40
0.43992152
 40
0.573048185
 40
0.7120506816
 40
1.0
 40
1.0
 40
1.0
 40
1.0
 10
4.7096083891
 20
6.0573017246
 30
0.0
 10
4.7098542539
 20
6.0572251313
 30
0.0
 10
4.7103842476
 20
6.0570820168
 30
0.0
 10
4.711235036
 20
6.0569011979
 30
0.0
 10
4.7121810276
 20
6.0567432795
 30
0.0
 10
4.7132085789
 20
6.0566106627
 30
0.0
 10
4.7143029446
 20
6.0565053775
 30
0.0
 10
4.7158482143
 20
6.0564024132
 30
0.0
 10
4.7170290406
 20
6.0563724423
 30
0.0
 10
4.7178251852
 20
6.0563724423
 30
0.0
  0
SPLINE
  5
3DF
100
AcDbEntity
  8
0
100
AcDbSpline
 62
7
  6
CONTINUOUS
 70
0
 71
3
 72
15
 73
11
 74
0
 42
0.0000001
 43
0.0000001
 44
0.0000000001
 40
0.0
 40
0.0
 40
0.0
 40
0.0
 40
0.1259218371
 40
0.2515449644
 40
0.3768648764
 40
0.5018958609
 40
0.6266702378
 40
0.751236446
 40
0.875656072
 40
1.0
 40
1.0
 40
1.0
 40
1.0
 10
4.7089699464
 20
6.6555813352
 30
0.0
 10
4.7091906482
 20
6.6559298828
 30
0.0
 10
4.7096751068
 20
6.6565996478
 30
0.0
 10
4.7105192437
 20
6.6575048646
 30
0.0
 10
4.7114674253
 20
6.6582962227
 30
0.0
 10
4.7125048202
 20
6.6589611967
 30
0.0
 10
4.7136153436
 20
6.6594894828
 30
0.0
 10
4.7147818049
 20
6.6598728289
 30
0.0
 10
4.7159858166
 20
6.6601052576
 30
0.0
 10
4.7168017669
 20
6.6601571838
 30
0.0
 10
4.717209144
 20
6.6601571838
 30
0.0
  0
SPLINE
  5
3E0
100
AcDbEntity
  8
0
100
AcDbSpline
 62
7
  6
CONTINUOUS
 70
0
 71
3
 72
23
 73
19
 74
0
 42
0.0000001
 43
0.0000001
 44
0.0000000001
 40
0.0
 40
0.0
 40
0.0
 40
0.0
 40
0.0629159307
 40
0.1258323574
 40
0.1887354476
 40
0.2516118592
 40
0.3144488676
 40
0.3772343211
 40
0.4399566712
 40
0.5026049575
 40
0.5651688048
 40
0.6276384276
 40
0.6900046361
 40
0.7522587065
 40
0.8143927808
 40
0.8763985557
 40
0.938270631
 40
1.0
 40
1.0
 40
1.0
 40
1.0
 10
3.5703510658
 20
2.188267656
 30
0.0
 10
3.5725346364
 20
2.1857689021
 30
0.0
 10
3.5770343683
 20
2.1808854456
 30
0.0
 10
3.5841605085
 20
2.173928492
 30
0.0
 10
3.5916443176
 20
2.1673605038
 30
0.0
 10
3.599463771
 20
2.161202772
 30
0.0
 10
3.6075957625
 20
2.1554748023
 30
0.0
 10
3.6160158366
 20
2.1501946517
 30
0.0
 10
3.6246984041
 20
2.1453787144
 30
0.0
 10
3.6336168434
 20
2.1410416711
 30
0.0
 10
3.6427436397
 20
2.1371964086
 30
0.0
 10
3.6520505214
 20
2.1338539512
 30
0.0
 10
3.6615086014
 20
2.1310234266
 30
0.0
 10
3.6710885472
 20
2.1287120046
 30
0.0
 10
3.6807606469
 20
2.1269249432
 30
0.0
 10
3.6904952288
 20
2.1256654332
 30
0.0
 10
3.7002620104
 20
2.124934852
 30
0.0
 10
3.7067834994
 20
2.1247997702
 30
0.0
 10
3.7100392484
 20
2.1248201468
 30
0.0
  0
LINE
  5
3E1
100
AcDbEntity
  8
0
100
AcDbLine
 62
7
  6
CONTINUOUS
 10
3.5709258738
 20
2.3660406553
 11
3.5707192135
 21
2.3666426054
  0
LINE
  5
3E2
100
AcDbEntity
  8
0
100
AcDbLine
 62
7
  6
CONTINUOUS
 10
3.4874965506
 20
2.5088798218
 11
3.4876922936
 21
2.5087947912
  0
SPLINE
  5
3E3
100
AcDbEntity
  8
0
100
AcDbSpline
 62
7
  6
CONTINUOUS
 70
0
 71
3
 72
15
 73
11
 74
0
 42
0.0000001
 43
0.0000001
 44
0.0000000001
 40
0.0
 40
0.0
 40
0.0
 40
0.0
 40
0.0968087007
 40
0.2029589619
 40
0.3182963719
 40
0.44219375
 40
0.5736650981
 40
0.7114530779
 40
0.8540987094
 40
1.0
 40
1.0
 40
1.0
 40
1.0
 10
4.7089699464
 20
5.7958257463
 30
0.0
 10
4.7092017725
 20
5.795682685
 30
0.0
 10
4.7097126059
 20
5.7954221576
 30
0.0
 10
4.7105577057
 20
5.795119953
 30
0.0
 10
4.7115042372
 20
5.7948922391
 30
0.0
 10
4.7125378455
 20
5.7947423781
 30
0.0
 10
4.7136430425
 20
5.7946725168
 30
0.0
 10
4.7148030149
 20
5.7946837396
 30
0.0
 10
4.7159999692
 20
5.7947758813
 30
0.0
 10
4.7168045622
 20
5.7948895172
 30
0.0
 10
4.717209144
 20
5.7949593191
 30
0.0
  0
SPLINE
  5
3E4
100
AcDbEntity
  8
0
100
AcDbSpline
 62
7
  6
CONTINUOUS
 70
0
 71
3
 72
14
 73
10
 74
0
 42
0.0000001
 43
0.0000001
 44
0.0000000001
 40
0.0
 40
0.0
 40
0.0
 40
0.0
 40
0.1047205109
 40
0.2174790656
 40
0.3374248904
 40
0.4634425238
 40
0.5942187806
 40
0.7282984563
 40
1.0
 40
1.0
 40
1.0
 40
1.0
 10
4.8680460386
 20
6.05156447
 30
0.0
 10
4.8678157811
 20
6.0513429247
 30
0.0
 10
4.8673106903
 20
6.0509103512
 30
0.0
 10
4.8664678317
 20
6.0503169422
 30
0.0
 10
4.8655227986
 20
6.0497624166
 30
0.0
 10
4.8644901042
 20
6.0492553312
 30
0.0
 10
4.863385385
 20
6.0488033624
 30
0.0
 10
4.8618328154
 20
6.0482815455
 30
0.0
 10
4.8606238102
 20
6.0479959991
 30
0.0
 10
4.859806841
 20
6.0478550486
 30
0.0
  0
SPLINE
  5
3E5
100
AcDbEntity
  8
0
100
AcDbSpline
 62
7
  6
CONTINUOUS
 70
0
 71
3
 72
22
 73
18
 74
0
 42
0.0000001
 43
0.0000001
 44
0.0000000001
 40
0.0
 40
0.0
 40
0.0
 40
0.0
 40
0.2053144331
 40
0.3926931218
 40
0.5586776885
 40
0.6326996289
 40
0.7003054935
 40
0.7612310821
 40
0.8152618314
 40
0.862261487
 40
0.9021899018
 40
0.9351666047
 40
0.9615957744
 40
0.9726513244
 40
0.9825175599
 40
0.9914992177
 40
1.0
 40
1.0
 40
1.0
 40
1.0
 10
3.6410633796
 20
6.7587091803
 30
0.0
 10
3.6410914176
 20
6.7591138078
 30
0.0
 10
3.641154109
 20
6.7598871422
 30
0.0
 10
3.6412744069
 20
6.7609843827
 30
0.0
 10
3.6413953427
 20
6.7618202404
 30
0.0
 10
3.6415037552
 20
6.7624182402
 30
0.0
 10
3.6415859661
 20
6.7628099095
 30
0.0
 10
3.6416717411
 20
6.7631602933
 30
0.0
 10
3.6417606522
 20
6.7634677592
 30
0.0
 10
3.6418521905
 20
6.7637309111
 30
0.0
 10
3.6419459223
 20
6.7639487956
 30
0.0
 10
3.6420413768
 20
6.7641206324
 30
0.0
 10
3.6421270474
 20
6.7642317142
 30
0.0
 10
3.6421976239
 20
6.7642935717
 30
0.0
 10
3.6422479641
 20
6.7643250893
 30
0.0
 10
3.6422988873
 20
6.7643443147
 30
0.0
 10
3.6423335536
 20
6.764348687
 30
0.0
 10
3.6423503468
 20
6.764348687
 30
0.0
  0
SPLINE
  5
3E6
100
AcDbEntity
  8
0
100
AcDbSpline
 62
7
  6
CONTINUOUS
 70
0
 71
3
 72
22
 73
18
 74
0
 42
0.0000001
 43
0.0000001
 44
0.0000000001
 40
0.0
 40
0.0
 40
0.0
 40
0.0
 40
0.2053144312
 40
0.3926931182
 40
0.5586776833
 40
0.6326996231
 40
0.7003054871
 40
0.7612310754
 40
0.8152618245
 40
0.8622614801
 40
0.9021898952
 40
0.9351665988
 40
0.9615957697
 40
0.9726513205
 40
0.9825175571
 40
0.9914992162
 40
1.0
 40
1.0
 40
1.0
 40
1.0
 10
3.9899526054
 20
6.7587091803
 30
0.0
 10
3.9899245674
 20
6.7591138078
 30
0.0
 10
3.989861876
 20
6.7598871422
 30
0.0
 10
3.9897415782
 20
6.7609843827
 30
0.0
 10
3.9896206423
 20
6.7618202404
 30
0.0
 10
3.9895122299
 20
6.7624182402
 30
0.0
 10
3.9894300189
 20
6.7628099095
 30
0.0
 10
3.989344244
 20
6.7631602933
 30
0.0
 10
3.9892553328
 20
6.7634677592
 30
0.0
 10
3.9891637946
 20
6.7637309111
 30
0.0
 10
3.9890700627
 20
6.7639487956
 30
0.0
 10
3.9889746083
 20
6.7641206324
 30
0.0
 10
3.9888889377
 20
6.7642317142
 30
0.0
 10
3.9888183612
 20
6.7642935717
 30
0.0
 10
3.9887680209
 20
6.7643250893
 30
0.0
 10
3.9887170977
 20
6.7643443147
 30
0.0
 10
3.9886824314
 20
6.764348687
 30
0.0
 10
3.9886656382
 20
6.764348687
 30
0.0
  0
SPLINE
  5
3E7
100
AcDbEntity
  8
0
100
AcDbSpline
 62
7
  6
CONTINUOUS
 70
0
 71
3
 72
22
 73
18
 74
0
 42
0.0000001
 43
0.0000001
 44
0.0000000001
 40
0.0
 40
0.0
 40
0.0
 40
0.0
 40
0.2053144331
 40
0.3926931219
 40
0.5586776886
 40
0.632699629
 40
0.7003054935
 40
0.7612310822
 40
0.8152618315
 40
0.8622614871
 40
0.9021899019
 40
0.9351666048
 40
0.9615957745
 40
0.9726513244
 40
0.9825175599
 40
0.9914992177
 40
1.0
 40
1.0
 40
1.0
 40
1.0
 10
3.390864255
 20
5.7210577192
 30
0.0
 10
3.3904998183
 20
5.7208796872
 30
0.0
 10
3.3897987454
 20
5.7205473123
 30
0.0
 10
3.3887883583
 20
5.7201028731
 30
0.0
 10
3.3880040164
 20
5.7197896778
 30
0.0
 10
3.3874319272
 20
5.7195845658
 30
0.0
 10
3.3870516261
 20
5.7194599279
 30
0.0
 10
3.3867052974
 20
5.7193590193
 30
0.0
 10
3.3863945685
 20
5.7192822856
 30
0.0
 10
3.3861209032
 20
5.7192299842
 30
0.0
 10
3.3858853437
 20
5.719202216
 30
0.0
 10
3.3856888014
 20
5.7191989636
 30
0.0
 10
3.3855497665
 20
5.7192176156
 30
0.0
 10
3.3854609081
 20
5.7192478079
 30
0.0
 10
3.385408443
 20
5.719275645
 30
0.0
 10
3.3853663316
 20
5.7193101331
 30
0.0
 10
3.385345212
 20
5.7193379688
 30
0.0
 10
3.3853368153
 20
5.7193525122
 30
0.0
  0
SPLINE
  5
3E8
100
AcDbEntity
  8
0
100
AcDbSpline
 62
7
  6
CONTINUOUS
 70
0
 71
3
 72
22
 73
18
 74
0
 42
0.0000001
 43
0.0000001
 44
0.0000000001
 40
0.0
 40
0.0
 40
0.0
 40
0.0
 40
0.2053144332
 40
0.3926931221
 40
0.5586776888
 40
0.6326996293
 40
0.7003054939
 40
0.7612310825
 40
0.8152618319
 40
0.8622614875
 40
0.9021899023
 40
0.9351666052
 40
0.9615957748
 40
0.9726513246
 40
0.9825175601
 40
0.9914992178
 40
1.0
 40
1.0
 40
1.0
 40
1.0
 10
3.2164196421
 20
6.0232046519
 30
0.0
 10
3.2160832435
 20
6.0229780565
 30
0.0
 10
3.2154448619
 20
6.022537097
 30
0.0
 10
3.2145547727
 20
6.0218842957
 30
0.0
 10
3.2138913667
 20
6.0213616334
 30
0.0
 10
3.2134276899
 20
6.0209687455
 30
0.0
 10
3.2131295997
 20
6.0207017141
 30
0.0
 10
3.212869046
 20
6.0204522389
 30
0.0
 10
3.2126472282
 20
6.0202215066
 30
0.0
 10
3.2124651012
 20
6.0200106563
 30
0.0
 10
3.2123232735
 20
6.0198205398
 30
0.0
 10
3.2122221857
 20
6.0196519555
 30
0.0
 10
3.2121688214
 20
6.0195222216
 30
0.0
 10
3.2121505394
 20
6.0194301719
 30
0.0
 10
3.2121484145
 20
6.0193708172
 30
0.0
 10
3.2121572264
 20
6.0193171037
 30
0.0
 10
3.212170773
 20
6.0192848956
 30
0.0
 10
3.2121791697
 20
6.0192703522
 30
0.0
  0
SPLINE
  5
3E9
100
AcDbEntity
  8
0
100
AcDbSpline
 62
7
  6
CONTINUOUS
 70
0
 71
3
 72
14
 73
10
 74
0
 42
0.0000001
 43
0.0000001
 44
0.0000000001
 40
0.0
 40
0.0
 40
0.0
 40
0.0
 40
0.0931393929
 40
0.1983928489
 40
0.31448028
 40
0.43992152
 40
0.573048185
 40
0.7120506816
 40
1.0
 40
1.0
 40
1.0
 40
1.0
 10
4.8674075958
 20
6.278012643
 30
0.0
 10
4.867161731
 20
6.2780892363
 30
0.0
 10
4.8666317374
 20
6.2782323509
 30
0.0
 10
4.865780949
 20
6.2784131698
 30
0.0
 10
4.8648349574
 20
6.2785710882
 30
0.0
 10
4.8638074061
 20
6.278703705
 30
0.0
 10
4.8627130404
 20
6.2788089902
 30
0.0
 10
4.8611677707
 20
6.2789119545
 30
0.0
 10
4.8599869444
 20
6.2789419254
 30
0.0
 10
4.8591907998
 20
6.2789419254
 30
0.0
  0
SPLINE
  5
3EA
100
AcDbEntity
  8
0
100
AcDbSpline
 62
7
  6
CONTINUOUS
 70
0
 71
3
 72
22
 73
18
 74
0
 42
0.0000001
 43
0.0000001
 44
0.0000000001
 40
0.0
 40
0.0
 40
0.0
 40
0.0
 40
0.2053144331
 40
0.3926931219
 40
0.5586776886
 40
0.632699629
 40
0.7003054935
 40
0.7612310822
 40
0.8152618315
 40
0.8622614871
 40
0.9021899019
 40
0.9351666048
 40
0.9615957745
 40
0.9726513244
 40
0.9825175599
 40
0.9914992177
 40
1.0
 40
1.0
 40
1.0
 40
1.0
 10
3.2164196421
 20
6.3121097157
 30
0.0
 10
3.2160832435
 20
6.3123363111
 30
0.0
 10
3.2154448619
 20
6.3127772707
 30
0.0
 10
3.2145547727
 20
6.3134300719
 30
0.0
 10
3.2138913667
 20
6.3139527343
 30
0.0
 10
3.2134276899
 20
6.3143456221
 30
0.0
 10
3.2131295997
 20
6.3146126536
 30
0.0
 10
3.212869046
 20
6.3148621288
 30
0.0
 10
3.2126472282
 20
6.315092861
 30
0.0
 10
3.2124651012
 20
6.3153037114
 30
0.0
 10
3.2123232735
 20
6.3154938278
 30
0.0
 10
3.2122221857
 20
6.3156624122
 30
0.0
 10
3.2121688214
 20
6.315792146
 30
0.0
 10
3.2121505394
 20
6.3158841958
 30
0.0
 10
3.2121484145
 20
6.3159435505
 30
0.0
 10
3.2121572264
 20
6.315997264
 30
0.0
 10
3.212170773
 20
6.316029472
 30
0.0
 10
3.2121791697
 20
6.3160440154
 30
0.0
  0
SPLINE
  5
3EB
100
AcDbEntity
  8
0
100
AcDbSpline
 62
7
  6
CONTINUOUS
 70
0
 71
3
 72
22
 73
18
 74
0
 42
0.0000001
 43
0.0000001
 44
0.0000000001
 40
0.0
 40
0.0
 40
0.0
 40
0.0
 40
0.2053144343
 40
0.3926931242
 40
0.5586776919
 40
0.6326996327
 40
0.7003054976
 40
0.7612310865
 40
0.8152618359
 40
0.8622614915
 40
0.9021899062
 40
0.9351666087
 40
0.9615957775
 40
0.9726513269
 40
0.9825175617
 40
0.9914992186
 40
1.0
 40
1.0
 40
1.0
 40
1.0
 10
3.390864255
 20
6.6142566484
 30
0.0
 10
3.3904998183
 20
6.6144346805
 30
0.0
 10
3.3897987454
 20
6.6147670554
 30
0.0
 10
3.3887883583
 20
6.6152114946
 30
0.0
 10
3.3880040164
 20
6.6155246899
 30
0.0
 10
3.3874319272
 20
6.6157298018
 30
0.0
 10
3.3870516261
 20
6.6158544397
 30
0.0
 10
3.3867052973
 20
6.6159553483
 30
0.0
 10
3.3863945684
 20
6.616032082
 30
0.0
 10
3.3861209032
 20
6.6160843835
 30
0.0
 10
3.3858853437
 20
6.6161121516
 30
0.0
 10
3.3856888014
 20
6.616115404
 30
0.0
 10
3.3855497665
 20
6.616096752
 30
0.0
 10
3.3854609081
 20
6.6160665597
 30
0.0
 10
3.385408443
 20
6.6160387226
 30
0.0
 10
3.3853663316
 20
6.6160042346
 30
0.0
 10
3.385345212
 20
6.6159763988
 30
0.0
 10
3.3853368153
 20
6.6159618555
 30
0.0
  0
SPLINE
  5
3EC
100
AcDbEntity
  8
0
100
AcDbSpline
 62
7
  6
CONTINUOUS
 70
0
 71
3
 72
12
 73
8
 74
0
 42
0.0000001
 43
0.0000001
 44
0.0000000001
 40
0.0
 40
0.0
 40
0.0
 40
0.0
 40
0.2298537545
 40
0.3511420877
 40
0.4761327367
 40
0.7346478763
 40
1.0
 40
1.0
 40
1.0
 40
1.0
 10
4.8674075959
 20
5.7910053911
 30
0.0
 10
4.8669334031
 20
5.7905011996
 30
0.0
 10
4.8661035592
 20
5.7898249557
 30
0.0
 10
4.8648585243
 20
5.78911109
 30
0.0
 10
4.8634662509
 20
5.7884944022
 30
0.0
 10
4.8615707511
 20
5.7879728239
 30
0.0
 10
4.8599898415
 20
5.787833678
 30
0.0
 10
4.8591907998
 20
5.787833678
 30
0.0
  0
SPLINE
  5
3ED
100
AcDbEntity
  8
0
100
AcDbSpline
 62
7
  6
CONTINUOUS
 70
0
 71
3
 72
15
 73
11
 74
0
 42
0.0000001
 43
0.0000001
 44
0.0000000001
 40
0.0
 40
0.0
 40
0.0
 40
0.0
 40
0.1259218375
 40
0.251544965
 40
0.3768648773
 40
0.5018958618
 40
0.6266702386
 40
0.7512364466
 40
0.8756560723
 40
1.0
 40
1.0
 40
1.0
 40
1.0
 10
4.8680460386
 20
5.6797330325
 30
0.0
 10
4.8678253368
 20
5.6793844849
 30
0.0
 10
4.8673408782
 20
5.6787147199
 30
0.0
 10
4.8664967412
 20
5.677809503
 30
0.0
 10
4.8655485596
 20
5.677018145
 30
0.0
 10
4.8645111647
 20
5.6763531709
 30
0.0
 10
4.8634006414
 20
5.6758248848
 30
0.0
 10
4.8622341801
 20
5.6754415387
 30
0.0
 10
4.8610301684
 20
5.6752091101
 30
0.0
 10
4.8602142181
 20
5.6751571838
 30
0.0
 10
4.859806841
 20
5.6751571838
 30
0.0
  0
LINE
  5
3EE
100
AcDbEntity
  8
0
100
AcDbLine
 62
7
  6
CONTINUOUS
 10
4.1435194331
 20
2.5088798194
 11
4.1433236914
 21
2.5087947912
  0
LINE
  5
3EF
100
AcDbEntity
  8
0
100
AcDbLine
 62
7
  6
CONTINUOUS
 10
4.0600901091
 20
2.3660406521
 11
4.0602967715
 21
2.3666426054
  0
SPLINE
  5
3F0
100
AcDbEntity
  8
0
100
AcDbSpline
 62
7
  6
CONTINUOUS
 70
0
 71
3
 72
15
 73
11
 74
0
 42
0.0000001
 43
0.0000001
 44
0.0000000001
 40
0.0
 40
0.0
 40
0.0
 40
0.0
 40
0.1228904083
 40
0.2464943768
 40
0.370786262
 40
0.4957355831
 40
0.6212569645
 40
0.7472329405
 40
0.8735397999
 40
1.0
 40
1.0
 40
1.0
 40
1.0
 10
4.8674075958
 20
6.6546644358
 30
0.0
 10
4.8671780939
 20
6.6549799525
 30
0.0
 10
4.866678341
 20
6.6555851529
 30
0.0
 10
4.8658226659
 20
6.6563975319
 30
0.0
 10
4.8648707541
 20
6.6571058937
 30
0.0
 10
4.863836666
 20
6.6576999019
 30
0.0
 10
4.8627353205
 20
6.6581709809
 30
0.0
 10
4.8615826492
 20
6.6585124344
 30
0.0
 10
4.8603955465
 20
6.6587192442
 30
0.0
 10
4.8595922896
 20
6.6587654313
 30
0.0
 10
4.8591907998
 20
6.6587654313
 30
0.0
  0
SPLINE
  5
3F1
100
AcDbEntity
  8
0
100
AcDbSpline
 62
7
  6
CONTINUOUS
 70
0
 71
3
 72
15
 73
11
 74
0
 42
0.0000001
 43
0.0000001
 44
0.0000000001
 40
0.0
 40
0.0
 40
0.0
 40
0.0
 40
0.0968087015
 40
0.202958963
 40
0.318296373
 40
0.4421937511
 40
0.5736650989
 40
0.7114530784
 40
0.8540987096
 40
1.0
 40
1.0
 40
1.0
 40
1.0
 10
4.8680460386
 20
6.5394886214
 30
0.0
 10
4.8678142125
 20
6.5396316827
 30
0.0
 10
4.8673033791
 20
6.53989221
 30
0.0
 10
4.8664582793
 20
6.5401944147
 30
0.0
 10
4.8655117478
 20
6.5404221286
 30
0.0
 10
4.8644781395
 20
6.5405719896
 30
0.0
 10
4.8633729425
 20
6.5406418509
 30
0.0
 10
4.8622129701
 20
6.5406306281
 30
0.0
 10
4.8610160158
 20
6.5405384864
 30
0.0
 10
4.8602114228
 20
6.5404248505
 30
0.0
 10
4.859806841
 20
6.5403550486
 30
0.0
  0
LINE
  5
3F2
100
AcDbEntity
  8
0
100
AcDbLine
 62
7
  6
CONTINUOUS
 10
3.8991076294
 20
2.2740558502
 11
3.8985349123
 21
2.2743239458
  0
LINE
  5
3F3
100
AcDbEntity
  8
0
100
AcDbLine
 62
7
  6
CONTINUOUS
 10
3.7319083503
 20
2.2740558505
 11
3.7324810727
 21
2.2743239458
  0
SPLINE
  5
3F4
100
AcDbEntity
  8
0
100
AcDbSpline
 62
7
  6
CONTINUOUS
 70
0
 71
3
 72
15
 73
11
 74
0
 42
0.0000001
 43
0.0000001
 44
0.0000000001
 40
0.0
 40
0.0
 40
0.0
 40
0.0
 40
0.0861176931
 40
0.1700739142
 40
0.260862062
 40
0.3658420579
 40
0.4898901984
 40
0.6359311825
 40
0.8056726214
 40
1.0
 40
1.0
 40
1.0
 40
1.0
 10
4.717209144
 20
5.6751571838
 30
0.0
 10
4.7172571886
 20
5.6751571844
 30
0.0
 10
4.7173530935
 20
5.6751705195
 30
0.0
 10
4.717484169
 20
5.6752400574
 30
0.0
 10
4.7175924728
 20
5.6753555376
 30
0.0
 10
4.7176788272
 20
5.6755131611
 30
0.0
 10
4.7177451383
 20
5.6757124555
 30
0.0
 10
4.717792124
 20
5.6759537873
 30
0.0
 10
4.7178198809
 20
5.6762373253
 30
0.0
 10
4.7178251851
 20
5.676440522
 30
0.0
 10
4.7178251852
 20
5.6765489364
 30
0.0
  0
SPLINE
  5
3F5
100
AcDbEntity
  8
0
100
AcDbSpline
 62
7
  6
CONTINUOUS
 70
0
 71
3
 72
15
 73
11
 74
0
 42
0.0000001
 43
0.0000001
 44
0.0000000001
 40
0.0
 40
0.0
 40
0.0
 40
0.0
 40
0.1943266142
 40
0.3640672218
 40
0.5101079146
 40
0.6341560968
 40
0.7391349895
 40
0.8299232566
 40
0.9138842483
 40
1.0
 40
1.0
 40
1.0
 40
1.0
 10
4.8591907998
 20
5.6765489364
 30
0.0
 10
4.8591908002
 20
5.6764405221
 30
0.0
 10
4.8591961009
 20
5.6762373256
 30
0.0
 10
4.8592238498
 20
5.6759537868
 30
0.0
 10
4.8592708382
 20
5.6757124548
 30
0.0
 10
4.8593371534
 20
5.6755131622
 30
0.0
 10
4.859423504
 20
5.6753555368
 30
0.0
 10
4.8595318106
 20
5.6752400543
 30
0.0
 10
4.8596628915
 20
5.6751705222
 30
0.0
 10
4.8597587973
 20
5.6751571844
 30
0.0
 10
4.859806841
 20
5.6751571838
 30
0.0
  0
SPLINE
  5
3F6
100
AcDbEntity
  8
0
100
AcDbSpline
 62
7
  6
CONTINUOUS
 70
0
 71
3
 72
21
 73
17
 74
0
 42
0.0000001
 43
0.0000001
 44
0.0000000001
 40
0.0
 40
0.0
 40
0.0
 40
0.0
 40
0.1269415657
 40
0.2540388827
 40
0.3175802191
 40
0.3810526788
 40
0.4443929028
 40
0.5075312088
 40
0.5703993231
 40
0.6329337398
 40
0.6640610121
 40
0.6950892845
 40
0.7568399145
 40
0.8181796573
 40
0.8791262457
 40
1.0
 40
1.0
 40
1.0
 40
1.0
 10
4.0772250296
 20
2.2188536977
 30
0.0
 10
4.0818949052
 20
2.2264210346
 30
0.0
 10
4.0912056362
 20
2.2415864802
 30
0.0
 10
4.1027413895
 20
2.2606085615
 30
0.0
 10
4.1119012146
 20
2.2758714628
 30
0.0
 10
4.1187251143
 20
2.2873274149
 30
0.0
 10
4.1254961071
 20
2.2987819298
 30
0.0
 10
4.1322072917
 20
2.3102225419
 30
0.0
 10
4.13884637
 20
2.3216398968
 30
0.0
 10
4.1443267764
 20
2.3311370056
 30
0.0
 10
4.1486726944
 20
2.3387136283
 30
0.0
 10
4.1529774791
 20
2.3462505327
 30
0.0
 10
4.1583075685
 20
2.3556390684
 30
0.0
 10
4.1646365628
 20
2.3668704013
 30
0.0
 10
4.1729513762
 20
2.3817364853
 30
0.0
 10
4.1791195862
 20
2.3928798393
 30
0.0
 10
4.1832014408
 20
2.4002982041
 30
0.0
  0
SPLINE
  5
3F7
100
AcDbEntity
  8
0
100
AcDbSpline
 62
7
  6
CONTINUOUS
 70
0
 71
3
 72
15
 73
11
 74
0
 42
0.0000001
 43
0.0000001
 44
0.0000000001
 40
0.0
 40
0.0
 40
0.0
 40
0.0
 40
0.1252336299
 40
0.2504122287
 40
0.3755299057
 40
0.5005792633
 40
0.6255549426
 40
0.7504526049
 40
0.8752679093
 40
1.0
 40
1.0
 40
1.0
 40
1.0
 10
3.9226949733
 20
2.1299870467
 30
0.0
 10
3.9298603158
 20
2.1320765446
 30
0.0
 10
3.9440689505
 20
2.1366756062
 30
0.0
 10
3.9649331356
 20
2.1448088731
 30
0.0
 10
3.9852749533
 20
2.1541479895
 30
0.0
 10
4.0050222503
 20
2.1646600709
 30
0.0
 10
4.0241060836
 20
2.1763083055
 30
0.0
 10
4.0424597172
 20
2.1890521133
 30
0.0
 10
4.0600182225
 20
2.2028461776
 30
0.0
 10
4.0711584093
 20
2.2127153186
 30
0.0
 10
4.0765745905
 20
2.2178072539
 30
0.0
  0
SPLINE
  5
3F8
100
AcDbEntity
  8
0
100
AcDbSpline
 62
7
  6
CONTINUOUS
 70
0
 71
3
 72
17
 73
13
 74
0
 42
0.0000001
 43
0.0000001
 44
0.0000000001
 40
0.0
 40
0.0
 40
0.0
 40
0.0
 40
0.248581627
 40
0.3112295228
 40
0.3740476577
 40
0.4369906877
 40
0.4999998958
 40
0.6259520741
 40
0.7514181616
 40
0.8138671977
 40
0.876106907
 40
1.0
 40
1.0
 40
1.0
 40
1.0
 10
3.7095315813
 20
2.1299713994
 30
0.0
 10
3.7270935402
 20
2.1298038373
 30
0.0
 10
3.7490821458
 20
2.1296577802
 30
0.0
 10
3.775509131
 20
2.1295600763
 30
0.0
 10
3.7888205431
 20
2.1295253951
 30
0.0
 10
3.8021575106
 20
2.1295047932
 30
0.0
 10
3.8199550306
 20
2.1294962568
 30
0.0
 10
3.8421699273
 20
2.1295179278
 30
0.0
 10
3.8643451509
 20
2.1295877424
 30
0.0
 10
3.8820188544
 20
2.1296736704
 30
0.0
 10
3.8995812998
 20
2.1297814767
 30
0.0
 10
3.9127315226
 20
2.1298878866
 30
0.0
 10
3.9214844037
 20
2.1299713994
 30
0.0
  0
SPLINE
  5
3F9
100
AcDbEntity
  8
0
100
AcDbSpline
 62
7
  6
CONTINUOUS
 70
0
 71
3
 72
15
 73
11
 74
0
 42
0.0000001
 43
0.0000001
 44
0.0000000001
 40
0.0
 40
0.0
 40
0.0
 40
0.0
 40
0.1247320907
 40
0.2495473951
 40
0.3744450574
 40
0.4994207367
 40
0.6244700943
 40
0.7495877713
 40
0.8747663701
 40
1.0
 40
1.0
 40
1.0
 40
1.0
 10
3.5544413945
 20
2.2178072539
 30
0.0
 10
3.5598575757
 20
2.2127153186
 30
0.0
 10
3.5709977624
 20
2.2028461776
 30
0.0
 10
3.5885562678
 20
2.1890521133
 30
0.0
 10
3.6069099014
 20
2.1763083055
 30
0.0
 10
3.6259937347
 20
2.1646600709
 30
0.0
 10
3.6457410317
 20
2.1541479895
 30
0.0
 10
3.6660828494
 20
2.1448088731
 30
0.0
 10
3.6869470344
 20
2.1366756062
 30
0.0
 10
3.7011556692
 20
2.1320765446
 30
0.0
 10
3.7083210116
 20
2.1299870467
 30
0.0
  0
SPLINE
  5
3FA
100
AcDbEntity
  8
0
100
AcDbSpline
 62
7
  6
CONTINUOUS
 70
0
 71
3
 72
22
 73
18
 74
0
 42
0.0000001
 43
0.0000001
 44
0.0000000001
 40
0.0
 40
0.0
 40
0.0
 40
0.0
 40
0.1208737175
 40
0.181820313
 40
0.2431601872
 40
0.3049104925
 40
0.3670660433
 40
0.4296008058
 40
0.4924687325
 40
0.5556068624
 40
0.6189472019
 40
0.6506712651
 40
0.6824197455
 40
0.7459610095
 40
0.8095197572
 40
0.8730584562
 40
1.0
 40
1.0
 40
1.0
 40
1.0
 10
3.4478145442
 20
2.4002982041
 30
0.0
 10
3.451896395
 20
2.3928798389
 30
0.0
 10
3.4580646078
 20
2.3817364864
 30
0.0
 10
3.4663794884
 20
2.36687043
 30
0.0
 10
3.4727081871
 20
2.3556389426
 30
0.0
 10
3.4791151856
 20
2.3443544467
 30
0.0
 10
3.485602939
 20
2.3330196356
 30
0.0
 10
3.4921692156
 20
2.3216396574
 30
0.0
 10
3.4988086452
 20
2.3102225042
 30
0.0
 10
3.5055203383
 20
2.2987822104
 30
0.0
 10
3.5111591857
 20
2.2892419432
 30
0.0
 10
3.5156983706
 20
2.2816059765
 30
0.0
 10
3.520258187
 20
2.2739659165
 30
0.0
 10
3.5259845218
 20
2.2644250917
 30
0.0
 10
3.5328911773
 20
2.2529955386
 30
0.0
 10
3.5421398942
 20
2.237792257
 30
0.0
 10
3.5491210828
 20
2.226421036
 30
0.0
 10
3.5537909554
 20
2.2188536977
 30
0.0
  0
SPLINE
  5
3FB
100
AcDbEntity
  8
0
100
AcDbSpline
 62
7
  6
CONTINUOUS
 70
0
 71
3
 72
31
 73
27
 74
0
 42
0.0000001
 43
0.0000001
 44
0.0000000001
 40
0.0
 40
0.0
 40
0.0
 40
0.0
 40
0.0311108728
 40
0.0622244247
 40
0.0933390714
 40
0.1244574659
 40
0.1866963699
 40
0.2489619119
 40
0.2801134409
 40
0.3112744951
 40
0.342445907
 40
0.3736284443
 40
0.4360170895
 40
0.4984576374
 40
0.5609534165
 40
0.6235063451
 40
0.6548106465
 40
0.6861292867
 40
0.7174620986
 40
0.7488088228
 40
0.8115302007
 40
0.8743019962
 40
0.9057114053
 40
0.9371314257
 40
0.9685612473
 40
1.0
 40
1.0
 40
1.0
 40
1.0
 10
3.4875079925
 20
2.5047076097
 30
0.0
 10
3.4875079925
 20
2.5004019225
 30
0.0
 10
3.4876816169
 20
2.4917891595
 30
0.0
 10
3.4884623097
 20
2.4788915259
 30
0.0
 10
3.4897622445
 20
2.4660343811
 30
0.0
 10
3.4921845692
 20
2.4489749383
 30
0.0
 10
3.4964995358
 20
2.427848335
 30
0.0
 10
3.5025014698
 20
2.4071330305
 30
0.0
 10
3.5082902201
 20
2.3908883498
 30
0.0
 10
3.5131205762
 20
2.3788819856
 30
0.0
 10
3.5184309963
 20
2.3670753791
 30
0.0
 10
3.5261404055
 20
2.3516239295
 30
0.0
 10
3.5369371733
 20
2.3328963627
 30
0.0
 10
3.5516570034
 20
2.3115219648
 30
0.0
 10
3.5680509995
 20
2.2913736949
 30
0.0
 10
3.583020276
 20
2.2757133297
 30
0.0
 10
3.5957197931
 20
2.2639244746
 30
0.0
 10
3.6055968826
 20
2.2554615272
 30
0.0
 10
3.615807154
 20
2.2473942582
 30
0.0
 10
3.6298443247
 20
2.2371817445
 30
0.0
 10
3.6481459655
 20
2.2254655441
 30
0.0
 10
3.667325437
 20
2.2152312355
 30
0.0
 10
3.6831231922
 20
2.2079697212
 30
0.0
 10
3.695185637
 20
2.2029926579
 30
0.0
 10
3.7074386861
 20
2.1984946667
 30
0.0
 10
3.7157211606
 20
2.1958201845
 30
0.0
 10
3.7198872815
 20
2.1945651125
 30
0.0
  0
SPLINE
  5
3FC
100
AcDbEntity
  8
0
100
AcDbSpline
 62
7
  6
CONTINUOUS
 70
0
 71
3
 72
31
 73
27
 74
0
 42
0.0000001
 43
0.0000001
 44
0.0000000001
 40
0.0
 40
0.0
 40
0.0
 40
0.0
 40
0.0314387526
 40
0.0628685742
 40
0.0942885945
 40
0.1256980035
 40
0.1884697988
 40
0.2511911765
 40
0.2825379006
 40
0.3138707124
 40
0.3451893526
 40
0.3764936539
 40
0.4390465823
 40
0.5015423614
 40
0.5639829093
 40
0.6263715545
 40
0.6575540919
 40
0.6887255038
 40
0.7198865581
 40
0.7510380871
 40
0.8133036293
 40
0.8755425336
 40
0.9066609282
 40
0.937775575
 40
0.9688891271
 40
1.0
 40
1.0
 40
1.0
 40
1.0
 10
3.9111289863
 20
2.1945651977
 30
0.0
 10
3.9152951031
 20
2.1958202725
 30
0.0
 10
3.9235775693
 20
2.1984947601
 30
0.0
 10
3.9358306059
 20
2.2029927586
 30
0.0
 10
3.947893038
 20
2.2079698282
 30
0.0
 10
3.9636907761
 20
2.2152313499
 30
0.0
 10
3.9828702261
 20
2.2254656657
 30
0.0
 10
4.0011718456
 20
2.2371818706
 30
0.0
 10
4.0152089996
 20
2.2473943861
 30
0.0
 10
4.0254192585
 20
2.2554616559
 30
0.0
 10
4.0352963359
 20
2.2639246032
 30
0.0
 10
4.0479958371
 20
2.2757134573
 30
0.0
 10
4.0629650946
 20
2.2913738192
 30
0.0
 10
4.0793590693
 20
2.3115220826
 30
0.0
 10
4.0940788798
 20
2.3328964716
 30
0.0
 10
4.104875633
 20
2.351624029
 30
0.0
 10
4.1125850318
 20
2.3670754701
 30
0.0
 10
4.1178954445
 20
2.3788820699
 30
0.0
 10
4.122725794
 20
2.3908884269
 30
0.0
 10
4.1285145362
 20
2.4071330974
 30
0.0
 10
4.1345164618
 20
2.4278483884
 30
0.0
 10
4.1388314224
 20
2.4489749774
 30
0.0
 10
4.1412537436
 20
2.4660344084
 30
0.0
 10
4.1425536766
 20
2.4788915441
 30
0.0
 10
4.1433343684
 20
2.4917891687
 30
0.0
 10
4.1435079925
 20
2.5004019255
 30
0.0
 10
4.1435079925
 20
2.5047076097
 30
0.0
  0
LINE
  5
3FD
100
AcDbEntity
  8
0
100
AcDbLine
 62
7
  6
CONTINUOUS
 10
3.6937026546
 20
2.252882796
 11
3.6936971247
 21
2.2556348167
  0
SPLINE
  5
3FE
100
AcDbEntity
  8
0
100
AcDbSpline
 62
7
  6
CONTINUOUS
 70
0
 71
3
 72
25
 73
21
 74
0
 42
0.0000001
 43
0.0000001
 44
0.0000000001
 40
0.0
 40
0.0
 40
0.0
 40
0.0
 40
0.0281661528
 40
0.0435308184
 40
0.0598739529
 40
0.0772729264
 40
0.0957894756
 40
0.1363468361
 40
0.1818204265
 40
0.2323382089
 40
0.2594978909
 40
0.2879168504
 40
0.3484997419
 40
0.4140203582
 40
0.4843759857
 40
0.5594341962
 40
0.6390489618
 40
0.7230664014
 40
0.8113352773
 40
1.0
 40
1.0
 40
1.0
 40
1.0
 10
3.9373133304
 20
2.252882796
 30
0.0
 10
3.937312654
 20
2.2525800873
 30
0.0
 10
3.9372559189
 20
2.2521114817
 30
0.0
 10
3.9370955022
 20
2.2514880486
 30
0.0
 10
3.9369237321
 20
2.2509883869
 30
0.0
 10
3.9367042982
 20
2.2504709819
 30
0.0
 10
3.9363371038
 20
2.2497351976
 30
0.0
 10
3.9357520244
 20
2.2487735982
 30
0.0
 10
3.934884337
 20
2.247588463
 30
0.0
 10
3.9340298481
 20
2.2465764824
 30
0.0
 10
3.9332583941
 20
2.245736702
 30
0.0
 10
3.9323897967
 20
2.2448398021
 30
0.0
 10
3.9311907911
 20
2.2436898653
 30
0.0
 10
3.9296071192
 20
2.2422926757
 30
0.0
 10
3.9278529644
 20
2.2408559494
 30
0.0
 10
3.9259323636
 20
2.2393855527
 30
0.0
 10
3.9238494917
 20
2.2378875376
 30
0.0
 10
3.9216085513
 20
2.236367922
 30
0.0
 10
3.9183423082
 20
2.234274461
 30
0.0
 10
3.9157768064
 20
2.2327627569
 30
0.0
 10
3.9140081133
 20
2.2317712844
 30
0.0
  0
SPLINE
  5
3FF
100
AcDbEntity
  8
0
100
AcDbSpline
 62
7
  6
CONTINUOUS
 70
0
 71
3
 72
24
 73
20
 74
0
 42
0.0000001
 43
0.0000001
 44
0.0000000001
 40
0.0
 40
0.0
 40
0.0
 40
0.0
 40
0.1886652078
 40
0.2769369558
 40
0.3609569456
 40
0.4405712422
 40
0.5156243874
 40
0.5859739691
 40
0.6514953042
 40
0.7120809439
 40
0.767648998
 40
0.8181653935
 40
0.8636538826
 40
0.9042251346
 40
0.922743927
 40
0.9401419312
 40
0.9564811361
 40
0.9718402778
 40
1.0
 40
1.0
 40
1.0
 40
1.0
 10
3.7170054288
 20
2.231772682
 30
0.0
 10
3.7152369008
 20
2.2327641144
 30
0.0
 10
3.712671609
 20
2.2342757556
 30
0.0
 10
3.709405591
 20
2.2363690862
 30
0.0
 10
3.7071647956
 20
2.2378886094
 30
0.0
 10
3.705082148
 20
2.2393865152
 30
0.0
 10
3.7031618652
 20
2.2408567963
 30
0.0
 10
3.7014080449
 20
2.2422934443
 30
0.0
 10
3.6998245157
 20
2.2436905222
 30
0.0
 10
3.6984149797
 20
2.2450423392
 30
0.0
 10
3.6971829491
 20
2.2463434925
 30
0.0
 10
3.6961314844
 20
2.2475889456
 30
0.0
 10
3.6952634158
 20
2.2487740208
 30
0.0
 10
3.6946778991
 20
2.2497356391
 30
0.0
 10
3.6943105988
 20
2.2504714797
 30
0.0
 10
3.6940912361
 20
2.2509888359
 30
0.0
 10
3.6939196769
 20
2.2514884076
 30
0.0
 10
3.6937596692
 20
2.2521117226
 30
0.0
 10
3.6937032835
 20
2.2525801815
 30
0.0
 10
3.6937026546
 20
2.252882796
 30
0.0
  0
LINE
  5
400
100
AcDbEntity
  8
0
100
AcDbLine
 62
7
  6
CONTINUOUS
 10
3.9373188603
 20
2.2556348167
 11
3.9373133304
 21
2.252882796
  0
SPLINE
  5
401
100
AcDbEntity
  8
0
100
AcDbSpline
 62
7
  6
CONTINUOUS
 70
0
 71
3
 72
75
 73
71
 74
0
 42
0.0000001
 43
0.0000001
 44
0.0000000001
 40
0.0
 40
0.0
 40
0.0
 40
0.0
 40
0.0021312095
 40
0.0041827132
 40
0.0062058936
 40
0.0082542853
 40
0.010379784
 40
0.0126287466
 40
0.0150400594
 40
0.0176447285
 40
0.0204665648
 40
0.0235226432
 40
0.0268250031
 40
0.0303822455
 40
0.034200628
 40
0.0382843377
 40
0.042635345
 40
0.0472536911
 40
0.0521383683
 40
0.0572876115
 40
0.0626990424
 40
0.0683697883
 40
0.0804758935
 40
0.0935764435
 40
0.1076345692
 40
0.1226115867
 40
0.1384686031
 40
0.155164574
 40
0.1726575917
 40
0.1909055
 40
0.2294956841
 40
0.270584155
 40
0.3138073269
 40
0.3587790588
 40
0.4050926679
 40
0.4523157696
 40
0.4999993405
 40
0.5476828281
 40
0.594906091
 40
0.6412194647
 40
0.6861914441
 40
0.7294143291
 40
0.7705030785
 40
0.8090931072
 40
0.8273410968
 40
0.8448343494
 40
0.861530028
 40
0.8773867146
 40
0.8923642559
 40
0.9064222612
 40
0.9195222283
 40
0.9316289657
 40
0.94271204
 40
0.9527450757
 40
0.9573623232
 40
0.9617124493
 40
0.9657962452
 40
0.9696154971
 40
0.9731734244
 40
0.976475533
 40
0.9795308867
 40
0.9823524208
 40
0.9849576654
 40
0.9873698723
 40
0.9896194635
 40
0.9917451665
 40
0.9937935332
 40
0.9958167405
 40
0.9978685056
 40
1.0
 40
1.0
 40
1.0
 40
1.0
 10
3.6936971247
 20
2.2556348167
 30
0.0
 10
3.6936968092
 20
2.2558112991
 30
0.0
 10
3.6937203011
 20
2.2561583922
 30
0.0
 10
3.6938354215
 20
2.2566614686
 30
0.0
 10
3.694029426
 20
2.2571324978
 30
0.0
 10
3.6943016475
 20
2.2575701621
 30
0.0
 10
3.6946509971
 20
2.257973849
 30
0.0
 10
3.6950764019
 20
2.2583435085
 30
0.0
 10
3.6955769061
 20
2.2586796655
 30
0.0
 10
3.6961518633
 20
2.2589829948
 30
0.0
 10
3.6968007534
 20
2.2592540265
 30
0.0
 10
3.6975228292
 20
2.2594936686
 30
0.0
 10
3.6983173662
 20
2.2597026608
 30
0.0
 10
3.6991836461
 20
2.2598816823
 30
0.0
 10
3.7001209687
 20
2.2600314308
 30
0.0
 10
3.7011285968
 20
2.2601525413
 30
0.0
 10
3.7022056406
 20
2.2602458326
 30
0.0
 10
3.7033510812
 20
2.2603122933
 30
0.0
 10
3.7045638435
 20
2.2603528458
 30
0.0
 10
3.7058428396
 20
2.2603685015
 30
0.0
 10
3.7071869837
 20
2.2603603163
 30
0.0
 10
3.7091067759
 20
2.2603180061
 30
0.0
 10
3.7116616055
 20
2.2602079235
 30
0.0
 10
3.7149066492
 20
2.2600012903
 30
0.0
 10
3.7183851411
 20
2.2597268381
 30
0.0
 10
3.7220877303
 20
2.259394093
 30
0.0
 10
3.7260051053
 20
2.2590124441
 30
0.0
 10
3.7301279188
 20
2.2585914459
 30
0.0
 10
3.7344466745
 20
2.2581405111
 30
0.0
 10
3.740568467
 20
2.2574994977
 30
0.0
 10
3.7486354403
 20
2.2566728832
 30
0.0
 10
3.7587682879
 20
2.2557202758
 30
0.0
 10
3.7694389253
 20
2.2548491595
 30
0.0
 10
3.7805535419
 20
2.2541128035
 30
0.0
 10
3.7920102677
 20
2.2535539648
 30
0.0
 10
3.8037000856
 20
2.2532055285
 30
0.0
 10
3.8155079892
 20
2.2530869224
 30
0.0
 10
3.8273159066
 20
2.2532055268
 30
0.0
 10
3.8390057099
 20
2.2535539942
 30
0.0
 10
3.8504624543
 20
2.2541127556
 30
0.0
 10
3.8615770422
 20
2.2548491989
 30
0.0
 10
3.8722477062
 20
2.2557202311
 30
0.0
 10
3.8823805336
 20
2.2566729111
 30
0.0
 10
3.8904475274
 20
2.2574994895
 30
0.0
 10
3.8965693327
 20
2.258140509
 30
0.0
 10
3.9008880862
 20
2.2585914828
 30
0.0
 10
3.9050108711
 20
2.2590124482
 30
0.0
 10
3.9089282436
 20
2.2593940329
 30
0.0
 10
3.9126308317
 20
2.2597268686
 30
0.0
 10
3.9161093069
 20
2.2600013069
 30
0.0
 10
3.9193543622
 20
2.2602078526
 30
0.0
 10
3.9223569767
 20
2.260337238
 30
0.0
 10
3.9251081713
 20
2.2603806407
 30
0.0
 10
3.9272394148
 20
2.2603371365
 30
0.0
 10
3.9288103378
 20
2.2602458337
 30
0.0
 10
3.9298872121
 20
2.2601523929
 30
0.0
 10
3.9308948442
 20
2.2600312862
 30
0.0
 10
3.9318323257
 20
2.2598816821
 30
0.0
 10
3.9326987474
 20
2.2597028027
 30
0.0
 10
3.9334932509
 20
2.2594937614
 30
0.0
 10
3.9342151664
 20
2.2592539661
 30
0.0
 10
3.9348639631
 20
2.2589828232
 30
0.0
 10
3.9354390834
 20
2.2586796182
 30
0.0
 10
3.9359399457
 20
2.2583436908
 30
0.0
 10
3.9363657013
 20
2.2579742087
 30
0.0
 10
3.9367152284
 20
2.257570574
 30
0.0
 10
3.9369874282
 20
2.2571328592
 30
0.0
 10
3.9371811468
 20
2.2566616754
 30
0.0
 10
3.937295864
 20
2.2561584602
 30
0.0
 10
3.9373191988
 20
2.2558113227
 30
0.0
 10
3.9373188603
 20
2.2556348167
 30
0.0
  0
SPLINE
  5
402
100
AcDbEntity
  8
0
100
AcDbSpline
 62
7
  6
CONTINUOUS
 70
0
 71
3
 72
69
 73
65
 74
0
 42
0.0000001
 43
0.0000001
 44
0.0000000001
 40
0.0
 40
0.0
 40
0.0
 40
0.0
 40
0.0155347018
 40
0.0310706712
 40
0.0466080245
 40
0.0621481249
 40
0.0776915892
 40
0.0932392693
 40
0.1087919015
 40
0.1243501865
 40
0.1399147714
 40
0.15548624
 40
0.17106511
 40
0.1866518267
 40
0.2022467585
 40
0.2178501947
 40
0.2334623425
 40
0.2490833252
 40
0.2647131808
 40
0.2803518616
 40
0.2959992343
 40
0.3116550829
 40
0.3273191104
 40
0.3429909417
 40
0.3586701271
 40
0.3743561463
 40
0.3900484135
 40
0.4057462839
 40
0.4214490601
 40
0.4371559979
 40
0.4528663134
 40
0.4685791905
 40
0.5
 40
0.5314208095
 40
0.5471336866
 40
0.5628440021
 40
0.5785509399
 40
0.5942537161
 40
0.6099515865
 40
0.6256438537
 40
0.6413298729
 40
0.6570090583
 40
0.6726808896
 40
0.6883449171
 40
0.7040007657
 40
0.7196481384
 40
0.7352868192
 40
0.7509166748
 40
0.7665376575
 40
0.7821498053
 40
0.7977532415
 40
0.8133481733
 40
0.82893489
 40
0.84451376
 40
0.8600852286
 40
0.8756498135
 40
0.8912080985
 40
0.9067607307
 40
0.9223084108
 40
0.9378518751
 40
0.9533919755
 40
0.9689293288
 40
0.9844652982
 40
1.0
 40
1.0
 40
1.0
 40
1.0
 10
3.5305079925
 20
2.6351361075
 30
0.0
 10
3.5305079925
 20
2.6305269383
 30
0.0
 10
3.530736981
 20
2.6213065846
 30
0.0
 10
3.5317664772
 20
2.6075108675
 30
0.0
 10
3.5334796412
 20
2.5937813103
 30
0.0
 10
3.5358722054
 20
2.5801515576
 30
0.0
 10
3.5389384991
 20
2.5666542326
 30
0.0
 10
3.5426710908
 20
2.553321929
 30
0.0
 10
3.5470610061
 20
2.5401867515
 30
0.0
 10
3.5520976523
 20
2.5272803499
 30
0.0
 10
3.5577688874
 20
2.5146338167
 30
0.0
 10
3.5640610438
 20
2.5022776197
 30
0.0
 10
3.5709589592
 20
2.490241527
 30
0.0
 10
3.5784460162
 20
2.4785545383
 30
0.0
 10
3.5865041738
 20
2.4672448098
 30
0.0
 10
3.5951140067
 20
2.4563395816
 30
0.0
 10
3.6042547662
 20
2.4458651209
 30
0.0
 10
3.613904427
 20
2.4358466579
 30
0.0
 10
3.6240397403
 20
2.4263083254
 30
0.0
 10
3.6346362908
 20
2.4172731037
 30
0.0
 10
3.6456685464
 20
2.4087627548
 30
0.0
 10
3.6571099225
 20
2.4007977699
 30
0.0
 10
3.6689328538
 20
2.3933973299
 30
0.0
 10
3.6811088579
 20
2.3865792576
 30
0.0
 10
3.6936086041
 20
2.3803599752
 30
0.0
 10
3.7064019831
 20
2.3747544679
 30
0.0
 10
3.719458176
 20
2.3697762314
 30
0.0
 10
3.732745722
 20
2.3654372481
 30
0.0
 10
3.7462326417
 20
2.3617479646
 30
0.0
 10
3.7598863431
 20
2.358717266
 30
0.0
 10
3.7736743328
 20
2.3563524521
 30
0.0
 10
3.792189246
 20
2.3540950543
 30
0.0
 10
3.8155079925
 20
2.3529622522
 30
0.0
 10
3.838826739
 20
2.3540950543
 30
0.0
 10
3.8573416522
 20
2.3563524521
 30
0.0
 10
3.8711296419
 20
2.358717266
 30
0.0
 10
3.8847833433
 20
2.3617479646
 30
0.0
 10
3.898270263
 20
2.3654372481
 30
0.0
 10
3.911557809
 20
2.3697762314
 30
0.0
 10
3.9246140019
 20
2.3747544679
 30
0.0
 10
3.9374073809
 20
2.3803599752
 30
0.0
 10
3.9499071271
 20
2.3865792576
 30
0.0
 10
3.9620831312
 20
2.3933973299
 30
0.0
 10
3.9739060625
 20
2.4007977699
 30
0.0
 10
3.9853474386
 20
2.4087627548
 30
0.0
 10
3.9963796942
 20
2.4172731037
 30
0.0
 10
4.0069762447
 20
2.4263083254
 30
0.0
 10
4.017111558
 20
2.4358466579
 30
0.0
 10
4.0267612188
 20
2.4458651209
 30
0.0
 10
4.0359019783
 20
2.4563395816
 30
0.0
 10
4.0445118112
 20
2.4672448098
 30
0.0
 10
4.0525699687
 20
2.4785545383
 30
0.0
 10
4.0600570258
 20
2.490241527
 30
0.0
 10
4.0669549412
 20
2.5022776197
 30
0.0
 10
4.0732470975
 20
2.5146338167
 30
0.0
 10
4.0789183327
 20
2.5272803499
 30
0.0
 10
4.0839549788
 20
2.5401867515
 30
0.0
 10
4.0883448942
 20
2.553321929
 30
0.0
 10
4.0920774859
 20
2.5666542326
 30
0.0
 10
4.0951437796
 20
2.5801515576
 30
0.0
 10
4.0975363438
 20
2.5937813103
 30
0.0
 10
4.0992495078
 20
2.6075108675
 30
0.0
 10
4.100279004
 20
2.6213065846
 30
0.0
 10
4.1005079925
 20
2.6305269383
 30
0.0
 10
4.1005079925
 20
2.6351361075
 30
0.0
  0
SPLINE
  5
403
100
AcDbEntity
  8
0
100
AcDbSpline
 62
7
  6
CONTINUOUS
 70
0
 71
3
 72
69
 73
65
 74
0
 42
0.0000001
 43
0.0000001
 44
0.0000000001
 40
0.0
 40
0.0
 40
0.0
 40
0.0
 40
0.0155347018
 40
0.0310706712
 40
0.0466080245
 40
0.0621481249
 40
0.0776915892
 40
0.0932392693
 40
0.1087919015
 40
0.1243501865
 40
0.1399147714
 40
0.15548624
 40
0.17106511
 40
0.1866518267
 40
0.2022467585
 40
0.2178501947
 40
0.2334623425
 40
0.2490833252
 40
0.2647131808
 40
0.2803518616
 40
0.2959992343
 40
0.3116550829
 40
0.3273191104
 40
0.3429909417
 40
0.3586701271
 40
0.3743561463
 40
0.3900484135
 40
0.4057462839
 40
0.4214490601
 40
0.4371559979
 40
0.4528663134
 40
0.4685791905
 40
0.5
 40
0.5314208095
 40
0.5471336866
 40
0.5628440021
 40
0.5785509399
 40
0.5942537161
 40
0.6099515865
 40
0.6256438537
 40
0.6413298729
 40
0.6570090583
 40
0.6726808896
 40
0.6883449171
 40
0.7040007657
 40
0.7196481384
 40
0.7352868192
 40
0.7509166748
 40
0.7665376575
 40
0.7821498053
 40
0.7977532415
 40
0.8133481733
 40
0.82893489
 40
0.84451376
 40
0.8600852286
 40
0.8756498135
 40
0.8912080985
 40
0.9067607307
 40
0.9223084108
 40
0.9378518751
 40
0.9533919755
 40
0.9689293288
 40
0.9844652982
 40
1.0
 40
1.0
 40
1.0
 40
1.0
 10
3.5305079925
 20
2.6335690863
 30
0.0
 10
3.5305079925
 20
2.6289599171
 30
0.0
 10
3.530736981
 20
2.6197395635
 30
0.0
 10
3.5317664772
 20
2.6059438463
 30
0.0
 10
3.5334796412
 20
2.5922142892
 30
0.0
 10
3.5358722054
 20
2.5785845365
 30
0.0
 10
3.5389384991
 20
2.5650872115
 30
0.0
 10
3.5426710908
 20
2.5517549079
 30
0.0
 10
3.5470610061
 20
2.5386197304
 30
0.0
 10
3.5520976523
 20
2.5257133287
 30
0.0
 10
3.5577688874
 20
2.5130667956
 30
0.0
 10
3.5640610438
 20
2.5007105985
 30
0.0
 10
3.5709589592
 20
2.4886745059
 30
0.0
 10
3.5784460162
 20
2.4769875172
 30
0.0
 10
3.5865041738
 20
2.4656777886
 30
0.0
 10
3.5951140067
 20
2.4547725605
 30
0.0
 10
3.6042547662
 20
2.4442980998
 30
0.0
 10
3.613904427
 20
2.4342796367
 30
0.0
 10
3.6240397403
 20
2.4247413042
 30
0.0
 10
3.6346362908
 20
2.4157060826
 30
0.0
 10
3.6456685464
 20
2.4071957336
 30
0.0
 10
3.6571099225
 20
2.3992307487
 30
0.0
 10
3.6689328538
 20
2.3918303087
 30
0.0
 10
3.6811088579
 20
2.3850122364
 30
0.0
 10
3.6936086041
 20
2.3787929541
 30
0.0
 10
3.7064019831
 20
2.3731874468
 30
0.0
 10
3.719458176
 20
2.3682092103
 30
0.0
 10
3.732745722
 20
2.363870227
 30
0.0
 10
3.7462326417
 20
2.3601809435
 30
0.0
 10
3.7598863431
 20
2.3571502449
 30
0.0
 10
3.7736743328
 20
2.354785431
 30
0.0
 10
3.792189246
 20
2.3525280332
 30
0.0
 10
3.8155079925
 20
2.3513952311
 30
0.0
 10
3.838826739
 20
2.3525280332
 30
0.0
 10
3.8573416522
 20
2.354785431
 30
0.0
 10
3.8711296419
 20
2.3571502449
 30
0.0
 10
3.8847833433
 20
2.3601809435
 30
0.0
 10
3.898270263
 20
2.363870227
 30
0.0
 10
3.911557809
 20
2.3682092103
 30
0.0
 10
3.9246140019
 20
2.3731874468
 30
0.0
 10
3.9374073809
 20
2.3787929541
 30
0.0
 10
3.9499071271
 20
2.3850122364
 30
0.0
 10
3.9620831312
 20
2.3918303087
 30
0.0
 10
3.9739060625
 20
2.3992307487
 30
0.0
 10
3.9853474386
 20
2.4071957336
 30
0.0
 10
3.9963796942
 20
2.4157060826
 30
0.0
 10
4.0069762447
 20
2.4247413042
 30
0.0
 10
4.017111558
 20
2.4342796367
 30
0.0
 10
4.0267612188
 20
2.4442980998
 30
0.0
 10
4.0359019783
 20
2.4547725605
 30
0.0
 10
4.0445118112
 20
2.4656777886
 30
0.0
 10
4.0525699687
 20
2.4769875172
 30
0.0
 10
4.0600570258
 20
2.4886745059
 30
0.0
 10
4.0669549412
 20
2.5007105985
 30
0.0
 10
4.0732470975
 20
2.5130667956
 30
0.0
 10
4.0789183327
 20
2.5257133287
 30
0.0
 10
4.0839549788
 20
2.5386197304
 30
0.0
 10
4.0883448942
 20
2.5517549079
 30
0.0
 10
4.0920774859
 20
2.5650872115
 30
0.0
 10
4.0951437796
 20
2.5785845365
 30
0.0
 10
4.0975363438
 20
2.5922142892
 30
0.0
 10
4.0992495078
 20
2.6059438463
 30
0.0
 10
4.100279004
 20
2.6197395635
 30
0.0
 10
4.1005079925
 20
2.6289599171
 30
0.0
 10
4.1005079925
 20
2.6335690863
 30
0.0
  0
SPLINE
  5
404
100
AcDbEntity
  8
0
100
AcDbSpline
 62
7
  6
CONTINUOUS
 70
0
 71
3
 72
9
 73
5
 74
0
 42
0.0000001
 43
0.0000001
 44
0.0000000001
 40
0.0
 40
0.0
 40
0.0
 40
0.0
 40
0.4853896052
 40
1.0
 40
1.0
 40
1.0
 40
1.0
 10
4.717209144
 20
6.0478550486
 30
0.0
 10
4.7174186894
 20
6.0492217509
 30
0.0
 10
4.7177284181
 20
6.0520569206
 30
0.0
 10
4.7178251846
 20
6.0549065314
 30
0.0
 10
4.7178251852
 20
6.0563724423
 30
0.0
  0
SPLINE
  5
405
100
AcDbEntity
  8
0
100
AcDbSpline
 62
7
  6
CONTINUOUS
 70
0
 71
3
 72
9
 73
5
 74
0
 42
0.0000001
 43
0.0000001
 44
0.0000000001
 40
0.0
 40
0.0
 40
0.0
 40
0.0
 40
0.5146104584
 40
1.0
 40
1.0
 40
1.0
 40
1.0
 10
4.8591907998
 20
6.0563724423
 30
0.0
 10
4.8591908016
 20
6.0549065311
 30
0.0
 10
4.8592875423
 20
6.0520569176
 30
0.0
 10
4.8595973202
 20
6.0492217546
 30
0.0
 10
4.859806841
 20
6.0478550486
 30
0.0
  0
SPLINE
  5
406
100
AcDbEntity
  8
0
100
AcDbSpline
 62
7
  6
CONTINUOUS
 70
0
 71
3
 72
11
 73
7
 74
0
 42
0.0000001
 43
0.0000001
 44
0.0000000001
 40
0.0
 40
0.0
 40
0.0
 40
0.0
 40
0.2258979851
 40
0.4688208735
 40
0.7273830921
 40
1.0
 40
1.0
 40
1.0
 40
1.0
 10
4.7178251852
 20
5.787833678
 30
0.0
 10
4.7178251842
 20
5.7883727075
 30
0.0
 10
4.7177960654
 20
5.7894914953
 30
0.0
 10
4.7176769705
 20
5.7912234763
 30
0.0
 10
4.717482254
 20
5.7930606876
 30
0.0
 10
4.7173077178
 20
5.7943163225
 30
0.0
 10
4.717209144
 20
5.7949593191
 30
0.0
  0
SPLINE
  5
407
100
AcDbEntity
  8
0
100
AcDbSpline
 62
7
  6
CONTINUOUS
 70
0
 71
3
 72
11
 73
7
 74
0
 42
0.0000001
 43
0.0000001
 44
0.0000000001
 40
0.0
 40
0.0
 40
0.0
 40
0.0
 40
0.2726169187
 40
0.5311791891
 40
0.7741020264
 40
1.0
 40
1.0
 40
1.0
 40
1.0
 10
4.859806841
 20
5.7949593191
 30
0.0
 10
4.8597082556
 20
5.7943163244
 30
0.0
 10
4.8595337473
 20
5.7930606854
 30
0.0
 10
4.8593390143
 20
5.7912234762
 30
0.0
 10
4.8592199365
 20
5.7894914944
 30
0.0
 10
4.8591908001
 20
5.7883727074
 30
0.0
 10
4.8591907998
 20
5.787833678
 30
0.0
  0
SPLINE
  5
408
100
AcDbEntity
  8
0
100
AcDbSpline
 62
7
  6
CONTINUOUS
 70
0
 71
3
 72
11
 73
7
 74
0
 42
0.0000001
 43
0.0000001
 44
0.0000000001
 40
0.0
 40
0.0
 40
0.0
 40
0.0
 40
0.2726169187
 40
0.5311791891
 40
0.7741020264
 40
1.0
 40
1.0
 40
1.0
 40
1.0
 10
4.717209144
 20
6.5403550486
 30
0.0
 10
4.7173077294
 20
6.5409980433
 30
0.0
 10
4.7174822377
 20
6.5422536822
 30
0.0
 10
4.7176769707
 20
6.5440908914
 30
0.0
 10
4.7177960485
 20
6.5458228733
 30
0.0
 10
4.7178251849
 20
6.5469416602
 30
0.0
 10
4.7178251852
 20
6.5474806897
 30
0.0
  0
SPLINE
  5
409
100
AcDbEntity
  8
0
100
AcDbSpline
 62
7
  6
CONTINUOUS
 70
0
 71
3
 72
11
 73
7
 74
0
 42
0.0000001
 43
0.0000001
 44
0.0000000001
 40
0.0
 40
0.0
 40
0.0
 40
0.0
 40
0.2258979851
 40
0.4688208735
 40
0.7273830921
 40
1.0
 40
1.0
 40
1.0
 40
1.0
 10
4.8591907998
 20
6.5474806897
 30
0.0
 10
4.8591908007
 20
6.5469416602
 30
0.0
 10
4.8592199196
 20
6.5458228723
 30
0.0
 10
4.8593390144
 20
6.5440908914
 30
0.0
 10
4.8595337309
 20
6.5422536801
 30
0.0
 10
4.8597082672
 20
6.5409980451
 30
0.0
 10
4.859806841
 20
6.5403550486
 30
0.0
  0
SPLINE
  5
40A
100
AcDbEntity
  8
0
100
AcDbSpline
 62
7
  6
CONTINUOUS
 70
0
 71
3
 72
23
 73
19
 74
0
 42
0.0000001
 43
0.0000001
 44
0.0000000001
 40
0.0
 40
0.0
 40
0.0
 40
0.0
 40
0.0635164846
 40
0.127108727
 40
0.1907238414
 40
0.2543106123
 40
0.317819581
 40
0.3812035654
 40
0.444418012
 40
0.5074212961
 40
0.5701749447
 40
0.6326440273
 40
0.6947972256
 40
0.7566070241
 40
0.8180498389
 40
0.8791060213
 40
0.9397600183
 40
1.0
 40
1.0
 40
1.0
 40
1.0
 10
3.4472544136
 20
2.5769648173
 30
0.0
 10
3.4454498347
 20
2.5735341192
 30
0.0
 10
3.4420396555
 20
2.5665606224
 30
0.0
 10
3.4375511051
 20
2.5558140881
 30
0.0
 10
3.4337088279
 20
2.5448148179
 30
0.0
 10
3.4305346733
 20
2.533609767
 30
0.0
 10
3.4280465247
 20
2.5222470115
 30
0.0
 10
3.4262586355
 20
2.5107761545
 30
0.0
 10
3.4251811727
 20
2.4992478073
 30
0.0
 10
3.4248203044
 20
2.487713236
 30
0.0
 10
3.4251783086
 20
2.4762239969
 30
0.0
 10
3.4262530511
 20
2.4648315603
 30
0.0
 10
3.4280384797
 20
2.4535869291
 30
0.0
 10
3.4305244688
 20
2.442540259
 30
0.0
 10
3.4336969157
 20
2.4317405526
 30
0.0
 10
3.4375380347
 20
2.4212350693
 30
0.0
 10
3.4420259764
 20
2.4110698893
 30
0.0
 10
3.4454451815
 20
2.4045248096
 30
0.0
 10
3.4472544136
 20
2.4013244028
 30
0.0
  0
SPLINE
  5
40B
100
AcDbEntity
  8
0
100
AcDbSpline
 62
7
  6
CONTINUOUS
 70
0
 71
3
 72
9
 73
5
 74
0
 42
0.0000001
 43
0.0000001
 44
0.0000000001
 40
0.0
 40
0.0
 40
0.0
 40
0.0
 40
0.5146104584
 40
1.0
 40
1.0
 40
1.0
 40
1.0
 10
4.7178251852
 20
6.2789419254
 30
0.0
 10
4.7178251834
 20
6.2804078365
 30
0.0
 10
4.7177284427
 20
6.28325745
 30
0.0
 10
4.7174186648
 20
6.2860926131
 30
0.0
 10
4.717209144
 20
6.2874593191
 30
0.0
  0
SPLINE
  5
40C
100
AcDbEntity
  8
0
100
AcDbSpline
 62
7
  6
CONTINUOUS
 70
0
 71
3
 72
9
 73
5
 74
0
 42
0.0000001
 43
0.0000001
 44
0.0000000001
 40
0.0
 40
0.0
 40
0.0
 40
0.0
 40
0.4853896052
 40
1.0
 40
1.0
 40
1.0
 40
1.0
 10
4.859806841
 20
6.2874593191
 30
0.0
 10
4.8595972955
 20
6.2860926167
 30
0.0
 10
4.8592875669
 20
6.283257447
 30
0.0
 10
4.8591908004
 20
6.2804078363
 30
0.0
 10
4.8591907998
 20
6.2789419254
 30
0.0
  0
SPLINE
  5
40D
100
AcDbEntity
  8
0
100
AcDbSpline
 62
7
  6
CONTINUOUS
 70
0
 71
3
 72
15
 73
11
 74
0
 42
0.0000001
 43
0.0000001
 44
0.0000000001
 40
0.0
 40
0.0
 40
0.0
 40
0.0
 40
0.1943266142
 40
0.3640672218
 40
0.5101079146
 40
0.6341560968
 40
0.7391349895
 40
0.8299232566
 40
0.9138842483
 40
1.0
 40
1.0
 40
1.0
 40
1.0
 10
4.7178251852
 20
6.6587654313
 30
0.0
 10
4.7178251848
 20
6.6588738456
 30
0.0
 10
4.7178198841
 20
6.6590770421
 30
0.0
 10
4.7177921352
 20
6.6593605809
 30
0.0
 10
4.7177451468
 20
6.6596019129
 30
0.0
 10
4.7176788316
 20
6.6598012055
 30
0.0
 10
4.717592481
 20
6.6599588308
 30
0.0
 10
4.7174841744
 20
6.6600743134
 30
0.0
 10
4.7173530935
 20
6.6601438454
 30
0.0
 10
4.7172571877
 20
6.6601571832
 30
0.0
 10
4.717209144
 20
6.6601571838
 30
0.0
  0
SPLINE
  5
40E
100
AcDbEntity
  8
0
100
AcDbSpline
 62
7
  6
CONTINUOUS
 70
0
 71
3
 72
15
 73
11
 74
0
 42
0.0000001
 43
0.0000001
 44
0.0000000001
 40
0.0
 40
0.0
 40
0.0
 40
0.0
 40
0.0861176931
 40
0.1700739142
 40
0.260862062
 40
0.3658420579
 40
0.4898901984
 40
0.6359311825
 40
0.8056726214
 40
1.0
 40
1.0
 40
1.0
 40
1.0
 10
4.859806841
 20
6.6601571838
 30
0.0
 10
4.8597587963
 20
6.6601571832
 30
0.0
 10
4.8596628915
 20
6.6601438481
 30
0.0
 10
4.859531816
 20
6.6600743103
 30
0.0
 10
4.8594235122
 20
6.6599588301
 30
0.0
 10
4.8593371578
 20
6.6598012065
 30
0.0
 10
4.8592708467
 20
6.6596019122
 30
0.0
 10
4.859223861
 20
6.6593605804
 30
0.0
 10
4.8591961041
 20
6.6590770424
 30
0.0
 10
4.8591907999
 20
6.6588738457
 30
0.0
 10
4.8591907998
 20
6.6587654313
 30
0.0
  0
SPLINE
  5
40F
100
AcDbEntity
  8
0
100
AcDbSpline
 62
7
  6
CONTINUOUS
 70
0
 71
3
 72
12
 73
8
 74
0
 42
0.0000001
 43
0.0000001
 44
0.0000000001
 40
0.0
 40
0.0
 40
0.0
 40
0.0
 40
0.2298537538
 40
0.351142087
 40
0.476132736
 40
0.7346478759
 40
1.0
 40
1.0
 40
1.0
 40
1.0
 10
4.7096083891
 20
5.7910053911
 30
0.0
 10
4.7100825818
 20
5.7905011996
 30
0.0
 10
4.7109124257
 20
5.7898249557
 30
0.0
 10
4.7121574607
 20
5.7891110901
 30
0.0
 10
4.713549734
 20
5.7884944022
 30
0.0
 10
4.7154452339
 20
5.7879728239
 30
0.0
 10
4.7170261435
 20
5.787833678
 30
0.0
 10
4.7178251852
 20
5.787833678
 30
0.0
  0
SPLINE
  5
410
100
AcDbEntity
  8
0
100
AcDbSpline
 62
7
  6
CONTINUOUS
 70
0
 71
3
 72
15
 73
11
 74
0
 42
0.0000001
 43
0.0000001
 44
0.0000000001
 40
0.0
 40
0.0
 40
0.0
 40
0.0
 40
0.1242775038
 40
0.2487741682
 40
0.3734893438
 40
0.4984219715
 40
0.6235657202
 40
0.7489042578
 40
0.8744028878
 40
1.0
 40
1.0
 40
1.0
 40
1.0
 10
4.1487428992
 20
2.6226130884
 30
0.0
 10
4.1487428668
 20
2.6264878861
 30
0.0
 10
4.1484944149
 20
2.6342465636
 30
0.0
 10
4.1473814222
 20
2.6458456167
 30
0.0
 10
4.1455315484
 20
2.6573713123
 30
0.0
 10
4.1429534021
 20
2.668776736
 30
0.0
 10
4.139658883
 20
2.6800163943
 30
0.0
 10
4.1356637115
 20
2.6910452728
 30
0.0
 10
4.1309888992
 20
2.701818483
 30
0.0
 10
4.1274365176
 20
2.7088013181
 30
0.0
 10
4.125556538
 20
2.7122364704
 30
0.0
  0
SPLINE
  5
411
100
AcDbEntity
  8
0
100
AcDbSpline
 62
7
  6
CONTINUOUS
 70
0
 71
3
 72
15
 73
11
 74
0
 42
0.0000001
 43
0.0000001
 44
0.0000000001
 40
0.0
 40
0.0
 40
0.0
 40
0.0
 40
0.1255970749
 40
0.251095685
 40
0.3764342085
 40
0.5015779697
 40
0.6265105791
 40
0.7512257633
 40
0.8757225467
 40
1.0
 40
1.0
 40
1.0
 40
1.0
 10
3.505459447
 20
2.7122364704
 30
0.0
 10
3.5035794801
 20
2.7088013122
 30
0.0
 10
3.5000271614
 20
2.7018184497
 30
0.0
 10
3.4953522191
 20
2.691045297
 30
0.0
 10
3.4913571442
 20
2.6800163825
 30
0.0
 10
3.4880625328
 20
2.6687767537
 30
0.0
 10
3.485484451
 20
2.6573713092
 30
0.0
 10
3.4836346605
 20
2.6458456048
 30
0.0
 10
3.4825213473
 20
2.6342465759
 30
0.0
 10
3.4822730883
 20
2.6264878847
 30
0.0
 10
3.4822730857
 20
2.6226130884
 30
0.0
  0
SPLINE
  5
412
100
AcDbEntity
  8
0
100
AcDbSpline
 62
7
  6
CONTINUOUS
 70
0
 71
3
 72
23
 73
19
 74
0
 42
0.0000001
 43
0.0000001
 44
0.0000000001
 40
0.0
 40
0.0
 40
0.0
 40
0.0
 40
0.0627394312
 40
0.1255465014
 40
0.1883965903
 40
0.2512661414
 40
0.3141324176
 40
0.3769737108
 40
0.4397693488
 40
0.5024997412
 40
0.5651463691
 40
0.6276918408
 40
0.6901198409
 40
0.7524151199
 40
0.8145634826
 40
0.8765517215
 40
0.9383676908
 40
1.0
 40
1.0
 40
1.0
 40
1.0
 10
3.5544413945
 20
2.2178072539
 30
0.0
 10
3.5564398247
 20
2.2144881889
 30
0.0
 10
3.5606478665
 20
2.2079697561
 30
0.0
 10
3.5675637961
 20
2.1986056694
 30
0.0
 10
3.5750630186
 20
2.1896906299
 30
0.0
 10
3.5831157203
 20
2.1812671866
 30
0.0
 10
3.5916890723
 20
2.1733749256
 30
0.0
 10
3.600746958
 20
2.1660510094
 30
0.0
 10
3.6102503199
 20
2.1593296276
 30
0.0
 10
3.6201573882
 20
2.1532417564
 30
0.0
 10
3.6304241149
 20
2.1478151331
 30
0.0
 10
3.6410042467
 20
2.1430736275
 30
0.0
 10
3.6518498902
 20
2.1390374539
 30
0.0
 10
3.6629117811
 20
2.1357228592
 30
0.0
 10
3.6741396071
 20
2.133142085
 30
0.0
 10
3.685482647
 20
2.1313032249
 30
0.0
 10
3.6968891391
 20
2.1302103541
 30
0.0
 10
3.7045151242
 20
2.1299786724
 30
0.0
 10
3.7083210116
 20
2.1299870467
 30
0.0
  0
SPLINE
  5
413
100
AcDbEntity
  8
0
100
AcDbSpline
 62
7
  6
CONTINUOUS
 70
0
 71
3
 72
22
 73
18
 74
0
 42
0.0000001
 43
0.0000001
 44
0.0000000001
 40
0.0
 40
0.0
 40
0.0
 40
0.0
 40
0.1233911536
 40
0.1853832316
 40
0.247535665
 40
0.3098350475
 40
0.3722672135
 40
0.4348166617
 40
0.4974674277
 40
0.5602018833
 40
0.6230016345
 40
0.6858470296
 40
0.7487174202
 40
0.8115910851
 40
0.8744452848
 40
0.9372564621
 40
1.0
 40
1.0
 40
1.0
 40
1.0
 10
3.9226949733
 20
2.1299870467
 30
0.0
 10
3.9303140604
 20
2.1299704421
 30
0.0
 10
3.941780909
 20
2.1306950323
 30
0.0
 10
3.9568758481
 20
2.1331418745
 30
0.0
 10
3.9681043729
 20
2.1357229005
 30
0.0
 10
3.9791660855
 20
2.1390374314
 30
0.0
 10
3.9900115644
 20
2.1430741416
 30
0.0
 10
4.0005919936
 20
2.1478149403
 30
0.0
 10
4.0108584599
 20
2.1532420544
 30
0.0
 10
4.020765727
 20
2.1593295728
 30
0.0
 10
4.0302689601
 20
2.1660511352
 30
0.0
 10
4.0393269398
 20
2.1733749206
 30
0.0
 10
4.0479001918
 20
2.1812672843
 30
0.0
 10
4.055952998
 20
2.1896906163
 30
0.0
 10
4.063452176
 20
2.1986056914
 30
0.0
 10
4.0703680801
 20
2.2079697871
 30
0.0
 10
4.0745761462
 20
2.2144881993
 30
0.0
 10
4.0765745905
 20
2.2178072539
 30
0.0
  0
SPLINE
  5
414
100
AcDbEntity
  8
0
100
AcDbSpline
 62
7
  6
CONTINUOUS
 70
0
 71
3
 72
23
 73
19
 74
0
 42
0.0000001
 43
0.0000001
 44
0.0000000001
 40
0.0
 40
0.0
 40
0.0
 40
0.0
 40
0.060240615
 40
0.1208942453
 40
0.1819500659
 40
0.2433929396
 40
0.3052027101
 40
0.3673561977
 40
0.4298250526
 40
0.492578695
 40
0.5555819473
 40
0.6187964441
 40
0.6821804531
 40
0.7456893862
 40
0.8092761535
 40
0.8728912574
 40
0.9364834392
 40
1.0
 40
1.0
 40
1.0
 40
1.0
 10
4.1837615714
 20
2.4013244028
 30
0.0
 10
4.185570745
 20
2.404524884
 30
0.0
 10
4.1889892463
 20
2.4110703364
 30
0.0
 10
4.1934777548
 20
2.4212352189
 30
0.0
 10
4.1973192174
 20
2.43174055
 30
0.0
 10
4.2004913882
 20
2.4425403008
 30
0.0
 10
4.2029776571
 20
2.45358693
 30
0.0
 10
4.2047623632
 20
2.464831664
 30
0.0
 10
4.2058377513
 20
2.4762240246
 30
0.0
 10
4.2061955595
 20
2.487713257
 30
0.0
 10
4.2058348558
 20
2.4992478203
 30
0.0
 10
4.2047572433
 20
2.5107761551
 30
0.0
 10
4.202969273
 20
2.5222469852
 30
0.0
 10
4.2004813634
 20
2.5336097848
 30
0.0
 10
4.1973071731
 20
2.5448148142
 30
0.0
 10
4.1934648742
 20
2.5558140765
 30
0.0
 10
4.188975724
 20
2.5665603363
 30
0.0
 10
4.185566098
 20
2.5735340897
 30
0.0
 10
4.1837615714
 20
2.5769648173
 30
0.0
  0
SPLINE
  5
415
100
AcDbEntity
  8
0
100
AcDbSpline
 62
7
  6
CONTINUOUS
 70
0
 71
3
 72
15
 73
11
 74
0
 42
0.0000001
 43
0.0000001
 44
0.0000000001
 40
0.0
 40
0.0
 40
0.0
 40
0.0
 40
0.125921838
 40
0.2515449661
 40
0.3768648788
 40
0.5018958636
 40
0.6266702405
 40
0.7512364482
 40
0.8756560734
 40
1.0
 40
1.0
 40
1.0
 40
1.0
 10
4.7089699464
 20
5.6797330325
 30
0.0
 10
4.7091906482
 20
5.6793844849
 30
0.0
 10
4.7096751068
 20
5.6787147199
 30
0.0
 10
4.7105192438
 20
5.677809503
 30
0.0
 10
4.7114674254
 20
5.677018145
 30
0.0
 10
4.7125048203
 20
5.6763531709
 30
0.0
 10
4.7136153436
 20
5.6758248848
 30
0.0
 10
4.7147818049
 20
5.6754415387
 30
0.0
 10
4.7159858166
 20
5.6752091101
 30
0.0
 10
4.7168017669
 20
5.6751571838
 30
0.0
 10
4.717209144
 20
5.6751571838
 30
0.0
  0
SPLINE
  5
416
100
AcDbEntity
  8
0
100
AcDbSpline
 62
7
  6
CONTINUOUS
 70
0
 71
3
 72
15
 73
11
 74
0
 42
0.0000001
 43
0.0000001
 44
0.0000000001
 40
0.0
 40
0.0
 40
0.0
 40
0.0
 40
0.1265835049
 40
0.2531130471
 40
0.3794297808
 40
0.5052701909
 40
0.6303412156
 40
0.7544493215
 40
0.8775992544
 40
1.0
 40
1.0
 40
1.0
 40
1.0
 10
4.0483491902
 20
2.4024053789
 30
0.0
 10
4.051648894
 20
2.4079583094
 30
0.0
 10
4.0582234847
 20
2.4190757203
 30
0.0
 10
4.0680305893
 20
2.4357698778
 30
0.0
 10
4.0777911415
 20
2.4524473651
 30
0.0
 10
4.0875023218
 20
2.4690675026
 30
0.0
 10
4.0971507798
 20
2.485593756
 30
0.0
 10
4.106718804
 20
2.5020079929
 30
0.0
 10
4.116189877
 20
2.5183210012
 30
0.0
 10
4.1224486891
 20
2.5291759489
 30
0.0
 10
4.125556538
 20
2.5345937494
 30
0.0
  0
SPLINE
  5
417
100
AcDbEntity
  8
0
100
AcDbSpline
 62
7
  6
CONTINUOUS
 70
0
 71
3
 72
23
 73
19
 74
0
 42
0.0000001
 43
0.0000001
 44
0.0000000001
 40
0.0
 40
0.0
 40
0.0
 40
0.0
 40
0.0621905024
 40
0.1244838627
 40
0.1868480025
 40
0.249260828
 40
0.3117076773
 40
0.3741789556
 40
0.4366689552
 40
0.4991749431
 40
0.5616966011
 40
0.6242356308
 40
0.6867952879
 40
0.7493796961
 40
0.8119927874
 40
0.8746367534
 40
0.9373091898
 40
1.0
 40
1.0
 40
1.0
 40
1.0
 10
3.8927153403
 20
2.3135840184
 30
0.0
 10
3.896600335
 20
2.3135739426
 30
0.0
 10
3.9043798421
 20
2.3138133061
 30
0.0
 10
3.9160055096
 20
2.3149417312
 30
0.0
 10
3.9275462196
 20
2.3168330747
 30
0.0
 10
3.9389479119
 20
2.3194760947
 30
0.0
 10
3.950160267
 20
2.3228558808
 30
0.0
 10
3.9611351005
 20
2.3269551885
 30
0.0
 10
3.9718260911
 20
2.3317551869
 30
0.0
 10
3.9821886095
 20
2.3372350371
 30
0.0
 10
3.9921798733
 20
2.3433715478
 30
0.0
 10
4.0017586315
 20
2.3501397371
 30
0.0
 10
4.010885045
 20
2.3575127891
 30
0.0
 10
4.0195210105
 20
2.3654615457
 30
0.0
 10
4.0276299467
 20
2.3739545553
 30
0.0
 10
4.0351771925
 20
2.3829577689
 30
0.0
 10
4.042129678
 20
2.3924332197
 30
0.0
 10
4.0463485849
 20
2.3990386765
 30
0.0
 10
4.0483491902
 20
2.4024053789
 30
0.0
  0
SPLINE
  5
418
100
AcDbEntity
  8
0
100
AcDbSpline
 62
7
  6
CONTINUOUS
 70
0
 71
3
 72
15
 73
11
 74
0
 42
0.0000001
 43
0.0000001
 44
0.0000000001
 40
0.0
 40
0.0
 40
0.0
 40
0.0
 40
0.1244907886
 40
0.2493312685
 40
0.374544433
 40
0.5000000019
 40
0.6254555723
 40
0.7506687305
 40
0.8755092096
 40
1.0
 40
1.0
 40
1.0
 40
1.0
 10
3.7383006447
 20
2.3135840184
 30
0.0
 10
3.7447084052
 20
2.3136008368
 30
0.0
 10
3.7575418649
 20
2.3136558758
 30
0.0
 10
3.7768201145
 20
2.3137588829
 30
0.0
 10
3.7961481389
 20
2.3138413115
 30
0.0
 10
3.8155079929
 20
2.313872665
 30
0.0
 10
3.8348678467
 20
2.3138413502
 30
0.0
 10
3.8541958706
 20
2.3137588726
 30
0.0
 10
3.8734741199
 20
2.3136558698
 30
0.0
 10
3.8863075797
 20
2.3136008369
 30
0.0
 10
3.8927153403
 20
2.3135840184
 30
0.0
  0
SPLINE
  5
419
100
AcDbEntity
  8
0
100
AcDbSpline
 62
7
  6
CONTINUOUS
 70
0
 71
3
 72
23
 73
19
 74
0
 42
0.0000001
 43
0.0000001
 44
0.0000000001
 40
0.0
 40
0.0
 40
0.0
 40
0.0
 40
0.0626907603
 40
0.1253631483
 40
0.1880070953
 40
0.2506201474
 40
0.3132045251
 40
0.3757641762
 40
0.4383032032
 40
0.5008248545
 40
0.563330843
 40
0.6258208617
 40
0.6882921544
 40
0.7507389949
 40
0.8131518339
 40
0.8755160629
 40
0.9378095526
 40
1.0
 40
1.0
 40
1.0
 40
1.0
 10
3.5826667948
 20
2.4024053789
 30
0.0
 10
3.5846674771
 20
2.3990387257
 30
0.0
 10
3.5888867653
 20
2.3924335287
 30
0.0
 10
3.5958388215
 20
2.3829577906
 30
0.0
 10
3.6033858841
 20
2.3739544143
 30
0.0
 10
3.6114949255
 20
2.3654615047
 30
0.0
 10
3.620131032
 20
2.3575129147
 30
0.0
 10
3.6292573547
 20
2.35013976
 30
0.0
 10
3.6388360798
 20
2.343371519
 30
0.0
 10
3.6488273617
 20
2.337235034
 30
0.0
 10
3.6591899133
 20
2.3317552497
 30
0.0
 10
3.6698808396
 20
2.3269551092
 30
0.0
 10
3.6808556578
 20
2.3228557368
 30
0.0
 10
3.6920680896
 20
2.3194761856
 30
0.0
 10
3.7034698174
 20
2.3168333231
 30
0.0
 10
3.7150104706
 20
2.3149416276
 30
0.0
 10
3.7266361174
 20
2.3138126802
 30
0.0
 10
3.7344156535
 20
2.3135738325
 30
0.0
 10
3.7383006447
 20
2.3135840184
 30
0.0
  0
SPLINE
  5
41A
100
AcDbEntity
  8
0
100
AcDbSpline
 62
7
  6
CONTINUOUS
 70
0
 71
3
 72
13
 73
9
 74
0
 42
0.0000001
 43
0.0000001
 44
0.0000000001
 40
0.0
 40
0.0
 40
0.0
 40
0.0
 40
0.2455504865
 40
0.3696588043
 40
0.4947297595
 40
0.620570282
 40
0.7468870835
 40
1.0
 40
1.0
 40
1.0
 40
1.0
 10
3.505459447
 20
2.5345937494
 30
0.0
 10
3.5116941662
 20
2.5237250059
 30
0.0
 10
3.5211521015
 20
2.507404222
 30
0.0
 10
3.5338649553
 20
2.4855936142
 30
0.0
 10
3.5435138529
 20
2.4690676097
 30
0.0
 10
3.5532247895
 20
2.4524473316
 30
0.0
 10
3.5662480775
 20
2.430195152
 30
0.0
 10
3.5760688008
 20
2.4135088608
 30
0.0
 10
3.5826667948
 20
2.4024053789
 30
0.0
  0
SPLINE
  5
41B
100
AcDbEntity
  8
0
100
AcDbSpline
 62
7
  6
CONTINUOUS
 70
0
 71
3
 72
15
 73
11
 74
0
 42
0.0000001
 43
0.0000001
 44
0.0000000001
 40
0.0
 40
0.0
 40
0.0
 40
0.0
 40
0.1260710849
 40
0.2519077673
 40
0.3774920587
 40
0.5027956945
 40
0.6277750915
 40
0.7523673441
 40
0.8764832984
 40
1.0
 40
1.0
 40
1.0
 40
1.0
 10
3.4822730857
 20
2.6226130884
 30
0.0
 10
3.4822731182
 20
2.6187452276
 30
0.0
 10
3.4825202348
 20
2.6110144044
 30
0.0
 10
3.4836317942
 20
2.5994787896
 30
0.0
 10
3.4854800555
 20
2.5880613795
 30
0.0
 10
3.4880563316
 20
2.5768129751
 30
0.0
 10
3.4913486461
 20
2.5657846311
 30
0.0
 10
3.4953412518
 20
2.5550287039
 30
0.0
 10
3.5000130289
 20
2.5445995399
 30
0.0
 10
3.5035738775
 20
2.5378808271
 30
0.0
 10
3.505459447
 20
2.5345937494
 30
0.0
  0
SPLINE
  5
41C
100
AcDbEntity
  8
0
100
AcDbSpline
 62
7
  6
CONTINUOUS
 70
0
 71
3
 72
15
 73
11
 74
0
 42
0.0000001
 43
0.0000001
 44
0.0000000001
 40
0.0
 40
0.0
 40
0.0
 40
0.0
 40
0.1235167248
 40
0.2476325675
 40
0.3722248498
 40
0.4972042078
 40
0.6225078868
 40
0.7480922046
 40
0.8739287981
 40
1.0
 40
1.0
 40
1.0
 40
1.0
 10
4.125556538
 20
2.5345937494
 30
0.0
 10
4.1274420942
 20
2.5378808357
 30
0.0
 10
4.1310028765
 20
2.5445995775
 30
0.0
 10
4.1356747913
 20
2.5550286793
 30
0.0
 10
4.1396672942
 20
2.5657846426
 30
0.0
 10
4.1429597057
 20
2.5768129567
 30
0.0
 10
4.1455359141
 20
2.588061384
 30
0.0
 10
4.147384092
 20
2.5994787987
 30
0.0
 10
4.1484959749
 20
2.6110143881
 30
0.0
 10
4.1487428966
 20
2.6187452238
 30
0.0
 10
4.1487428992
 20
2.6226130884
 30
0.0
  0
SPLINE
  5
41D
100
AcDbEntity
  8
0
100
AcDbSpline
 62
7
  6
CONTINUOUS
 70
0
 71
3
 72
21
 73
17
 74
0
 42
0.0000001
 43
0.0000001
 44
0.0000000001
 40
0.0
 40
0.0
 40
0.0
 40
0.0
 40
0.0099759431
 40
0.0203417529
 40
0.0434788201
 40
0.0714654513
 40
0.1053693892
 40
0.1457197094
 40
0.1927298894
 40
0.2464461133
 40
0.3067919613
 40
0.3736221395
 40
0.4467232223
 40
0.6106586482
 40
0.7960921565
 40
1.0
 40
1.0
 40
1.0
 40
1.0
 10
4.1859998988
 20
5.7806279894
 30
0.0
 10
4.1859907275
 20
5.7806121041
 30
0.0
 10
4.1859686199
 20
5.780581563
 30
0.0
 10
4.1859096361
 20
5.780526945
 30
0.0
 10
4.1858073744
 20
5.7804743522
 30
0.0
 10
4.1856543477
 20
5.7804383896
 30
0.0
 10
4.1854662551
 20
5.7804250881
 30
0.0
 10
4.1852431651
 20
5.7804344514
 30
0.0
 10
4.1849855202
 20
5.7804663284
 30
0.0
 10
4.1846942558
 20
5.7805207536
 30
0.0
 10
4.1843705259
 20
5.7805975214
 30
0.0
 10
4.1840157149
 20
5.7806963792
 30
0.0
 10
4.1834825396
 20
5.7808636416
 30
0.0
 10
4.1827514332
 20
5.7811271029
 30
0.0
 10
4.1818089073
 20
5.781510437
 30
0.0
 10
4.1811549021
 20
5.7818019058
 30
0.0
 10
4.1808145356
 20
5.7819591292
 30
0.0
  0
SPLINE
  5
41E
100
AcDbEntity
  8
0
100
AcDbSpline
 62
7
  6
CONTINUOUS
 70
0
 71
3
 72
15
 73
11
 74
0
 42
0.0000001
 43
0.0000001
 44
0.0000000001
 40
0.0
 40
0.0
 40
0.0
 40
0.0
 40
0.1228904085
 40
0.2464943772
 40
0.3707862623
 40
0.4957355835
 40
0.6212569648
 40
0.7472329407
 40
0.8735397999
 40
1.0
 40
1.0
 40
1.0
 40
1.0
 10
4.7096083891
 20
6.6546644358
 30
0.0
 10
4.7098378911
 20
6.6549799525
 30
0.0
 10
4.710337644
 20
6.6555851529
 30
0.0
 10
4.7111933191
 20
6.6563975319
 30
0.0
 10
4.7121452309
 20
6.6571058937
 30
0.0
 10
4.713179319
 20
6.6576999019
 30
0.0
 10
4.7142806645
 20
6.6581709809
 30
0.0
 10
4.7154333358
 20
6.6585124344
 30
0.0
 10
4.7166204384
 20
6.6587192442
 30
0.0
 10
4.7174236954
 20
6.6587654313
 30
0.0
 10
4.7178251852
 20
6.6587654313
 30
0.0
  0
SPLINE
  5
41F
100
AcDbEntity
  8
0
100
AcDbSpline
 62
7
  6
CONTINUOUS
 70
0
 71
3
 72
15
 73
11
 74
0
 42
0.0000001
 43
0.0000001
 44
0.0000000001
 40
0.0
 40
0.0
 40
0.0
 40
0.0
 40
0.0968087042
 40
0.2029589674
 40
0.3182963781
 40
0.442193756
 40
0.573665103
 40
0.7114530813
 40
0.854098711
 40
1.0
 40
1.0
 40
1.0
 40
1.0
 10
4.7089699464
 20
6.5394886214
 30
0.0
 10
4.7092017725
 20
6.5396316827
 30
0.0
 10
4.7097126059
 20
6.5398922101
 30
0.0
 10
4.7105577057
 20
6.5401944148
 30
0.0
 10
4.7115042372
 20
6.5404221287
 30
0.0
 10
4.7125378455
 20
6.5405719897
 30
0.0
 10
4.7136430425
 20
6.540641851
 30
0.0
 10
4.7148030149
 20
6.5406306282
 30
0.0
 10
4.7159999692
 20
6.5405384865
 30
0.0
 10
4.7168045622
 20
6.5404248505
 30
0.0
 10
4.717209144
 20
6.5403550486
 30
0.0
  0
SPLINE
  5
420
100
AcDbEntity
  8
0
100
AcDbSpline
 62
7
  6
CONTINUOUS
 70
0
 71
3
 72
14
 73
10
 74
0
 42
0.0000001
 43
0.0000001
 44
0.0000000001
 40
0.0
 40
0.0
 40
0.0
 40
0.0
 40
0.0931393932
 40
0.1983928493
 40
0.3144802804
 40
0.4399215203
 40
0.5730481853
 40
0.7120506818
 40
1.0
 40
1.0
 40
1.0
 40
1.0
 10
4.7096083891
 20
6.278012643
 30
0.0
 10
4.7098542539
 20
6.2780892364
 30
0.0
 10
4.7103842476
 20
6.2782323509
 30
0.0
 10
4.711235036
 20
6.2784131698
 30
0.0
 10
4.7121810276
 20
6.2785710882
 30
0.0
 10
4.7132085789
 20
6.278703705
 30
0.0
 10
4.7143029446
 20
6.2788089902
 30
0.0
 10
4.7158482143
 20
6.2789119545
 30
0.0
 10
4.7170290406
 20
6.2789419254
 30
0.0
 10
4.7178251852
 20
6.2789419254
 30
0.0
  0
SPLINE
  5
421
100
AcDbEntity
  8
0
100
AcDbSpline
 62
7
  6
CONTINUOUS
 70
0
 71
3
 72
15
 73
11
 74
0
 42
0.0000001
 43
0.0000001
 44
0.0000000001
 40
0.0
 40
0.0
 40
0.0
 40
0.0
 40
0.1237459597
 40
0.2483818982
 40
0.3739081474
 40
0.5000000451
 40
0.6260918977
 40
0.7516183394
 40
0.8762540983
 40
1.0
 40
1.0
 40
1.0
 40
1.0
 10
3.711304924
 20
2.1248325358
 30
0.0
 10
3.7199009082
 20
2.1249519343
 30
0.0
 10
3.7371549041
 20
2.1251774499
 30
0.0
 10
3.7631294988
 20
2.1254467886
 30
0.0
 10
3.789267909
 20
2.1256218023
 30
0.0
 10
3.8155079987
 20
2.1256825934
 30
0.0
 10
3.8417481016
 20
2.1256217605
 30
0.0
 10
3.8678865099
 20
2.1254468035
 30
0.0
 10
3.8938611014
 20
2.1251774446
 30
0.0
 10
3.9111150808
 20
2.1249519338
 30
0.0
 10
3.919711061
 20
2.1248325358
 30
0.0
  0
SPLINE
  5
422
100
AcDbEntity
  8
0
100
AcDbSpline
 62
7
  6
CONTINUOUS
 70
0
 71
3
 72
19
 73
15
 74
0
 42
0.0000001
 43
0.0000001
 44
0.0000000001
 40
0.0
 40
0.0
 40
0.0
 40
0.0
 40
0.1267091528
 40
0.2534106415
 40
0.3167093737
 40
0.3799299928
 40
0.4430255404
 40
0.5059469299
 40
0.5686474044
 40
0.6310857637
 40
0.6932389078
 40
0.7550939549
 40
0.877978243
 40
1.0
 40
1.0
 40
1.0
 40
1.0
 10
4.0532373436
 20
2.3998691962
 30
0.0
 10
4.0563096367
 20
2.4054410871
 30
0.0
 10
4.0624651384
 20
2.4165784245
 30
0.0
 10
4.0702189484
 20
2.4304640588
 30
0.0
 10
4.0764726082
 20
2.4415356407
 30
0.0
 10
4.0811866147
 20
2.4498084907
 30
0.0
 10
4.0859248363
 20
2.4580456477
 30
0.0
 10
4.0906861433
 20
2.4662392898
 30
0.0
 10
4.0954670118
 20
2.4743832897
 30
0.0
 10
4.100264506
 20
2.4824726846
 30
0.0
 10
4.1050740373
 20
2.4905054831
 30
0.0
 10
4.1114844931
 20
2.5011174402
 30
0.0
 10
4.1195172235
 20
2.5142615509
 30
0.0
 10
4.1259794523
 20
2.5247249925
 30
0.0
 10
4.1292048354
 20
2.5299347826
 30
0.0
  0
SPLINE
  5
423
100
AcDbEntity
  8
0
100
AcDbSpline
 62
7
  6
CONTINUOUS
 70
0
 71
3
 72
17
 73
13
 74
0
 42
0.0000001
 43
0.0000001
 44
0.0000000001
 40
0.0
 40
0.0
 40
0.0
 40
0.0
 40
0.1270819111
 40
0.2545253593
 40
0.3820613384
 40
0.4456830092
 40
0.5090747609
 40
0.5721328247
 40
0.6347648293
 40
0.7585092236
 40
0.8801519625
 40
1.0
 40
1.0
 40
1.0
 40
1.0
 10
4.1433236914
 20
2.5087947912
 30
0.0
 10
4.1400403075
 20
2.5026399945
 30
0.0
 10
4.1334371992
 20
2.4903272345
 30
0.0
 10
4.1233926227
 20
2.4719165962
 30
0.0
 10
4.1148622936
 20
2.4566488208
 30
0.0
 10
4.1079345001
 20
2.4445142582
 30
0.0
 10
4.1027026269
 20
2.4354872744
 30
0.0
 10
4.0974380974
 20
2.4265422732
 30
0.0
 10
4.0904148067
 20
2.4147886426
 30
0.0
 10
4.0816025003
 20
2.4003582735
 30
0.0
 10
4.0709672874
 20
2.3833626674
 30
0.0
 10
4.0638452102
 20
2.3721823175
 30
0.0
 10
4.0602967715
 20
2.3666426054
 30
0.0
  0
LINE
  5
424
100
AcDbEntity
  8
0
100
AcDbLine
 62
7
  6
CONTINUOUS
 10
4.1292048354
 20
2.7145721018
 11
4.1003799589
 21
2.7637852024
  0
SPLINE
  5
425
100
AcDbEntity
  8
0
100
AcDbSpline
 62
7
  6
CONTINUOUS
 70
0
 71
3
 72
37
 73
33
 74
0
 42
0.0000001
 43
0.0000001
 44
0.0000000001
 40
0.0
 40
0.0
 40
0.0
 40
0.0
 40
0.0949885341
 40
0.1890816129
 40
0.2813976922
 40
0.3710692682
 40
0.4572580549
 40
0.5391623371
 40
0.6160263035
 40
0.6871495959
 40
0.720358387
 40
0.7518999853
 40
0.7817076043
 40
0.809719991
 40
0.8358825551
 40
0.8601482612
 40
0.8824783259
 40
0.9028446023
 40
0.9212318195
 40
0.9376413836
 40
0.9451126905
 40
0.9521016265
 40
0.958617101
 40
0.9646712413
 40
0.9702802125
 40
0.9754658582
 40
0.9802568887
 40
0.9846905586
 40
0.9888150062
 40
0.9926907101
 40
0.996390886
 40
1.0
 40
1.0
 40
1.0
 40
1.0
 10
3.8155079925
 20
2.2201937152
 30
0.0
 10
3.818726337
 20
2.2201937152
 30
0.0
 10
3.8251327901
 20
2.2201463337
 30
0.0
 10
3.8346649069
 20
2.2199334742
 30
0.0
 10
3.8440126558
 20
2.21958106
 30
0.0
 10
3.8530861267
 20
2.2190925678
 30
0.0
 10
3.8617980053
 20
2.2184728473
 30
0.0
 10
3.87006457
 20
2.2177281077
 30
0.0
 10
3.8778063503
 20
2.216865749
 30
0.0
 10
3.883890384
 20
2.2160387287
 30
0.0
 10
3.8884373931
 20
2.2153181448
 30
0.0
 10
3.8915934009
 20
2.2147661842
 30
0.0
 10
3.8945662752
 20
2.2141916972
 30
0.0
 10
3.897348904
 20
2.2135960759
 30
0.0
 10
3.8999346517
 20
2.2129808076
 30
0.0
 10
3.9023173932
 20
2.2123474439
 30
0.0
 10
3.904491519
 20
2.2116975593
 30
0.0
 10
3.9064520491
 20
2.2110328022
 30
0.0
 10
3.9081944691
 20
2.2103548218
 30
0.0
 10
3.9094997632
 20
2.2097630903
 30
0.0
 10
3.9104279322
 20
2.2092804767
 30
0.0
 10
3.9110450247
 20
2.2089275136
 30
0.0
 10
3.9116048042
 20
2.2085723644
 30
0.0
 10
3.9121069848
 20
2.2082151873
 30
0.0
 10
3.9125513031
 20
2.2078561084
 30
0.0
 10
3.9129375442
 20
2.2074952399
 30
0.0
 10
3.9132655052
 20
2.2071326418
 30
0.0
 10
3.9135349117
 20
2.2067682837
 30
0.0
 10
3.9137454174
 20
2.2064021501
 30
0.0
 10
3.9138965411
 20
2.2060342367
 30
0.0
 10
3.9139876129
 20
2.2056649033
 30
0.0
 10
3.9140079836
 20
2.2054168062
 30
0.0
 10
3.9140079836
 20
2.2052945244
 30
0.0
  0
LINE
  5
426
100
AcDbEntity
  8
0
100
AcDbLine
 62
7
  6
CONTINUOUS
 10
3.5306360073
 20
2.7637851662
 11
3.5018111495
 21
2.7145721018
  0
SPLINE
  5
427
100
AcDbEntity
  8
0
100
AcDbSpline
 62
7
  6
CONTINUOUS
 70
0
 71
3
 72
19
 73
15
 74
0
 42
0.0000001
 43
0.0000001
 44
0.0000000001
 40
0.0
 40
0.0
 40
0.0
 40
0.0
 40
0.1220217357
 40
0.2449059844
 40
0.3067610961
 40
0.3689142435
 40
0.4313525584
 40
0.4940530454
 40
0.5569743974
 40
0.6200699452
 40
0.6832905412
 40
0.7465892837
 40
0.8732908441
 40
1.0
 40
1.0
 40
1.0
 40
1.0
 10
3.5018111495
 20
2.5299347826
 30
0.0
 10
3.505036534
 20
2.5247249946
 30
0.0
 10
3.511498758
 20
2.5142615537
 30
0.0
 10
3.5195314826
 20
2.5011174393
 30
0.0
 10
3.5259419204
 20
2.4905054696
 30
0.0
 10
3.5307514514
 20
2.4824726697
 30
0.0
 10
3.5355489441
 20
2.4743832755
 30
0.0
 10
3.540329815
 20
2.4662392813
 30
0.0
 10
3.545091132
 20
2.4580456464
 30
0.0
 10
3.5498293593
 20
2.4498084962
 30
0.0
 10
3.5545433735
 20
2.4415356514
 30
0.0
 10
3.5607970309
 20
2.4304640648
 30
0.0
 10
3.5685508454
 20
2.4165784282
 30
0.0
 10
3.5747063479
 20
2.4054410871
 30
0.0
 10
3.5777786414
 20
2.3998691962
 30
0.0
  0
SPLINE
  5
428
100
AcDbEntity
  8
0
100
AcDbSpline
 62
7
  6
CONTINUOUS
 70
0
 71
3
 72
17
 73
13
 74
0
 42
0.0000001
 43
0.0000001
 44
0.0000000001
 40
0.0
 40
0.0
 40
0.0
 40
0.0
 40
0.1198460877
 40
0.2414910721
 40
0.3030964841
 40
0.3652340521
 40
0.4909295906
 40
0.5543190346
 40
0.6179395164
 40
0.7454751312
 40
0.8729187413
 40
1.0
 40
1.0
 40
1.0
 40
1.0
 10
3.5707192135
 20
2.3666426054
 30
0.0
 10
3.5671708386
 20
2.3721822294
 30
0.0
 10
3.5600484009
 20
2.3833623543
 30
0.0
 10
3.5512233827
 20
2.3974669816
 30
0.0
 10
3.5441705989
 20
2.4089429971
 30
0.0
 10
3.537071929
 20
2.4206514917
 30
0.0
 10
3.5300383016
 20
2.4325136447
 30
0.0
 10
3.5230816995
 20
2.4445148504
 30
0.0
 10
3.516153308
 20
2.4566488338
 30
0.0
 10
3.5076239795
 20
2.4719170729
 30
0.0
 10
3.497578304
 20
2.4903270499
 30
0.0
 10
3.4909756872
 20
2.5026400421
 30
0.0
 10
3.4876922936
 20
2.5087947912
 30
0.0
  0
SPLINE
  5
429
100
AcDbEntity
  8
0
100
AcDbSpline
 62
7
  6
CONTINUOUS
 70
0
 71
3
 72
19
 73
15
 74
0
 42
0.0000001
 43
0.0000001
 44
0.0000000001
 40
0.0
 40
0.0
 40
0.0
 40
0.0
 40
0.1243845326
 40
0.2491835933
 40
0.3117581531
 40
0.3744394018
 40
0.4371983257
 40
0.4999999278
 40
0.5628015271
 40
0.6255604892
 40
0.6882417644
 40
0.7508163416
 40
0.8756154635
 40
1.0
 40
1.0
 40
1.0
 40
1.0
 10
3.7395405006
 20
2.3075505366
 30
0.0
 10
3.7458376314
 20
2.3077793818
 30
0.0
 10
3.7584535925
 20
2.3082189527
 30
0.0
 10
3.7742410513
 20
2.3086659386
 30
0.0
 10
3.7869060064
 20
2.3089329093
 30
0.0
 10
3.7964296866
 20
2.3090809004
 30
0.0
 10
3.8059655887
 20
2.3091722857
 30
0.0
 10
3.8155079814
 20
2.3092027646
 30
0.0
 10
3.8250503759
 20
2.3091722725
 30
0.0
 10
3.8345862811
 20
2.3090808918
 30
0.0
 10
3.8441099657
 20
2.3089329151
 30
0.0
 10
3.8567749261
 20
2.3086659417
 30
0.0
 10
3.872562389
 20
2.3082189543
 30
0.0
 10
3.8851783534
 20
2.3077793813
 30
0.0
 10
3.8914754844
 20
2.3075505366
 30
0.0
  0
SPLINE
  5
42A
100
AcDbEntity
  8
0
100
AcDbSpline
 62
7
  6
CONTINUOUS
 70
0
 71
3
 72
19
 73
15
 74
0
 42
0.0000001
 43
0.0000001
 44
0.0000000001
 40
0.0
 40
0.0
 40
0.0
 40
0.0
 40
0.1235103872
 40
0.248069096
 40
0.3107608291
 40
0.3736896493
 40
0.4367975921
 40
0.5000000866
 40
0.563202673
 40
0.6263107749
 40
0.6892396568
 40
0.7519312466
 40
0.8764895185
 40
1.0
 40
1.0
 40
1.0
 40
1.0
 10
3.8985349123
 20
2.2743239458
 30
0.0
 10
3.8917050017
 20
2.2739322053
 30
0.0
 10
3.877984515
 20
2.273190625
 30
0.0
 10
3.8607870294
 20
2.2724521639
 30
0.0
 10
3.8469366546
 20
2.2720124703
 30
0.0
 10
3.8364858643
 20
2.2717680647
 30
0.0
 10
3.8260049787
 20
2.2716183615
 30
0.0
 10
3.8155079721
 20
2.2715680641
 30
0.0
 10
3.8050109583
 20
2.2716184981
 30
0.0
 10
3.7945300525
 20
2.2717679763
 30
0.0
 10
3.7840792558
 20
2.2720123191
 30
0.0
 10
3.7702289131
 20
2.2724521296
 30
0.0
 10
3.75303146
 20
2.2731906972
 30
0.0
 10
3.7393109872
 20
2.2739321823
 30
0.0
 10
3.7324810726
 20
2.2743239458
 30
0.0
  0
SPLINE
  5
42B
100
AcDbEntity
  8
0
100
AcDbSpline
 62
7
  6
CONTINUOUS
 70
0
 71
3
 72
37
 73
33
 74
0
 42
0.0000001
 43
0.0000001
 44
0.0000000001
 40
0.0
 40
0.0
 40
0.0
 40
0.0
 40
0.0949885341
 40
0.1890816129
 40
0.2813976922
 40
0.3710692682
 40
0.4572580549
 40
0.5391623371
 40
0.6160263035
 40
0.6871495959
 40
0.720358387
 40
0.7518999853
 40
0.7817076043
 40
0.809719991
 40
0.8358825551
 40
0.8601482612
 40
0.8824783259
 40
0.9028446023
 40
0.9212318195
 40
0.9376413836
 40
0.9451126905
 40
0.9521016265
 40
0.958617101
 40
0.9646712413
 40
0.9702802125
 40
0.9754658582
 40
0.9802568887
 40
0.9846905586
 40
0.9888150062
 40
0.9926907101
 40
0.996390886
 40
1.0
 40
1.0
 40
1.0
 40
1.0
 10
3.8155079925
 20
2.2201937152
 30
0.0
 10
3.812289648
 20
2.2201937152
 30
0.0
 10
3.8058831949
 20
2.2201463337
 30
0.0
 10
3.796351078
 20
2.2199334742
 30
0.0
 10
3.7870033291
 20
2.21958106
 30
0.0
 10
3.7779298583
 20
2.2190925678
 30
0.0
 10
3.7692179797
 20
2.2184728473
 30
0.0
 10
3.760951415
 20
2.2177281077
 30
0.0
 10
3.7532096347
 20
2.216865749
 30
0.0
 10
3.747125601
 20
2.2160387287
 30
0.0
 10
3.7425785919
 20
2.2153181448
 30
0.0
 10
3.739422584
 20
2.2147661842
 30
0.0
 10
3.7364497098
 20
2.2141916972
 30
0.0
 10
3.7336670809
 20
2.2135960759
 30
0.0
 10
3.7310813332
 20
2.2129808076
 30
0.0
 10
3.7286985918
 20
2.2123474439
 30
0.0
 10
3.726524466
 20
2.2116975593
 30
0.0
 10
3.7245639359
 20
2.2110328022
 30
0.0
 10
3.7228215159
 20
2.2103548218
 30
0.0
 10
3.7215162218
 20
2.2097630903
 30
0.0
 10
3.7205880528
 20
2.2092804767
 30
0.0
 10
3.7199709602
 20
2.2089275136
 30
0.0
 10
3.7194111808
 20
2.2085723644
 30
0.0
 10
3.7189090002
 20
2.2082151873
 30
0.0
 10
3.7184646819
 20
2.2078561084
 30
0.0
 10
3.7180784408
 20
2.2074952399
 30
0.0
 10
3.7177504797
 20
2.2071326418
 30
0.0
 10
3.7174810732
 20
2.2067682837
 30
0.0
 10
3.7172705676
 20
2.2064021501
 30
0.0
 10
3.7171194439
 20
2.2060342367
 30
0.0
 10
3.7170283721
 20
2.2056649033
 30
0.0
 10
3.7170080013
 20
2.2054168062
 30
0.0
 10
3.7170080013
 20
2.2052945244
 30
0.0
  0
SPLINE
  5
42C
100
AcDbEntity
  8
0
100
AcDbSpline
 62
7
  6
CONTINUOUS
 70
0
 71
3
 72
14
 73
10
 74
0
 42
0.0000001
 43
0.0000001
 44
0.0000000001
 40
0.0
 40
0.0
 40
0.0
 40
0.0
 40
0.10472051
 40
0.217479064
 40
0.3374248886
 40
0.4634425221
 40
0.5942187792
 40
0.7282984554
 40
1.0
 40
1.0
 40
1.0
 40
1.0
 10
4.7089699464
 20
6.05156447
 30
0.0
 10
4.7092002039
 20
6.0513429247
 30
0.0
 10
4.7097052947
 20
6.0509103512
 30
0.0
 10
4.7105481533
 20
6.0503169423
 30
0.0
 10
4.7114931864
 20
6.0497624167
 30
0.0
 10
4.7125258808
 20
6.0492553313
 30
0.0
 10
4.7136306
 20
6.0488033625
 30
0.0
 10
4.7151831696
 20
6.0482815456
 30
0.0
 10
4.7163921748
 20
6.0479959992
 30
0.0
 10
4.717209144
 20
6.0478550486
 30
0.0
  0
SPLINE
  5
42D
100
AcDbEntity
  8
0
100
AcDbSpline
 62
7
  6
CONTINUOUS
 70
0
 71
3
 72
49
 73
45
 74
0
 42
0.0000001
 43
0.0000001
 44
0.0000000001
 40
0.0
 40
0.0
 40
0.0
 40
0.0
 40
0.1093940693
 40
0.2169768108
 40
0.3209722635
 40
0.4196682406
 40
0.4665210823
 40
0.5114537009
 40
0.5542852881
 40
0.5948454226
 40
0.6329753241
 40
0.6685292705
 40
0.7013761943
 40
0.7314017942
 40
0.7585114882
 40
0.7709505732
 40
0.7826368443
 40
0.7935662994
 40
0.8037381006
 40
0.8131544946
 40
0.8218219788
 40
0.8297527464
 40
0.8369658762
 40
0.8434908172
 40
0.8493703243
 40
0.8546662838
 40
0.8594660744
 40
0.8638888427
 40
0.8680879384
 40
0.8722423922
 40
0.8765370571
 40
0.8811393665
 40
0.8861851426
 40
0.8917761911
 40
0.8979858742
 40
0.9048652185
 40
0.9124495606
 40
0.920762556
 40
0.9298193375
 40
0.9396291069
 40
0.9501958318
 40
0.9615202099
 40
0.9735996043
 40
1.0
 40
1.0
 40
1.0
 40
1.0
 10
3.8155079925
 20
2.1997192296
 30
0.0
 10
3.8191796272
 20
2.1997192296
 30
0.0
 10
3.8264623086
 20
2.1996479763
 30
0.0
 10
3.8372311983
 20
2.1993283678
 30
0.0
 10
3.8476325193
 20
2.1988019275
 30
0.0
 10
3.8559865099
 20
2.1981887274
 30
0.0
 10
3.8623522922
 20
2.1975953996
 30
0.0
 10
3.866844843
 20
2.1971130804
 30
0.0
 10
3.8711198823
 20
2.1965878553
 30
0.0
 10
3.8751593333
 20
2.1960219857
 30
0.0
 10
3.8789461371
 20
2.1954179522
 30
0.0
 10
3.8824643295
 20
2.1947784071
 30
0.0
 10
3.8856991675
 20
2.1941062042
 30
0.0
 10
3.8886370744
 20
2.193404299
 30
0.0
 10
3.8908881805
 20
2.1927807621
 30
0.0
 10
3.8925287747
 20
2.1922649415
 30
0.0
 10
3.8936419908
 20
2.191883657
 30
0.0
 10
3.8946725395
 20
2.1914971823
 30
0.0
 10
3.8956193789
 20
2.191105934
 30
0.0
 10
3.8964815745
 20
2.19071032
 30
0.0
 10
3.8972582988
 20
2.1903107274
 30
0.0
 10
3.8979488626
 20
2.1899075575
 30
0.0
 10
3.8985526741
 20
2.1895010917
 30
0.0
 10
3.8990692978
 20
2.1890915883
 30
0.0
 10
3.8994983416
 20
2.1886790699
 30
0.0
 10
3.899839368
 20
2.1882633455
 30
0.0
 10
3.9000916205
 20
2.1878439969
 30
0.0
 10
3.9002535359
 20
2.1874207057
 30
0.0
 10
3.9003230092
 20
2.1869942546
 30
0.0
 10
3.9002984542
 20
2.1865670618
 30
0.0
 10
3.900180511
 20
2.1861420614
 30
0.0
 10
3.8999712558
 20
2.1857208196
 30
0.0
 10
3.8996725784
 20
2.1853034279
 30
0.0
 10
3.8992856029
 20
2.1848894081
 30
0.0
 10
3.898810844
 20
2.1844784773
 30
0.0
 10
3.898248716
 20
2.1840705338
 30
0.0
 10
3.8975996085
 20
2.1836657524
 30
0.0
 10
3.8968640432
 20
2.1832644061
 30
0.0
 10
3.8960426625
 20
2.1828668336
 30
0.0
 10
3.8951362241
 20
2.1824734512
 30
0.0
 10
3.8941456186
 20
2.1820846363
 30
0.0
 10
3.8930718292
 20
2.1817008132
 30
0.0
 10
3.8914830429
 20
2.1811807291
 30
0.0
 10
3.8902412779
 20
2.1808237978
 30
0.0
 10
3.8893854792
 20
2.1805941068
 30
0.0
  0
SPLINE
  5
42E
100
AcDbEntity
  8
0
100
AcDbSpline
 62
7
  6
CONTINUOUS
 70
0
 71
3
 72
15
 73
11
 74
0
 42
0.0000001
 43
0.0000001
 44
0.0000000001
 40
0.0
 40
0.0
 40
0.0
 40
0.0
 40
0.0968087042
 40
0.2029589674
 40
0.3182963781
 40
0.442193756
 40
0.573665103
 40
0.7114530813
 40
0.854098711
 40
1.0
 40
1.0
 40
1.0
 40
1.0
 10
4.8680460386
 20
5.7958257463
 30
0.0
 10
4.8678142125
 20
5.795682685
 30
0.0
 10
4.8673033791
 20
5.7954221576
 30
0.0
 10
4.8664582793
 20
5.7951199529
 30
0.0
 10
4.8655117477
 20
5.794892239
 30
0.0
 10
4.8644781395
 20
5.794742378
 30
0.0
 10
4.8633729425
 20
5.7946725167
 30
0.0
 10
4.86221297
 20
5.7946837395
 30
0.0
 10
4.8610160158
 20
5.7947758812
 30
0.0
 10
4.8602114228
 20
5.7948895171
 30
0.0
 10
4.859806841
 20
5.7949593191
 30
0.0
  0
SPLINE
  5
42F
100
AcDbEntity
  8
0
100
AcDbSpline
 62
7
  6
CONTINUOUS
 70
0
 71
3
 72
14
 73
10
 74
0
 42
0.0000001
 43
0.0000001
 44
0.0000000001
 40
0.0
 40
0.0
 40
0.0
 40
0.0
 40
0.0931393932
 40
0.1983928493
 40
0.3144802804
 40
0.4399215203
 40
0.5730481853
 40
0.7120506818
 40
1.0
 40
1.0
 40
1.0
 40
1.0
 10
4.8674075958
 20
6.0573017246
 30
0.0
 10
4.867161731
 20
6.0572251313
 30
0.0
 10
4.8666317374
 20
6.0570820168
 30
0.0
 10
4.865780949
 20
6.0569011979
 30
0.0
 10
4.8648349574
 20
6.0567432794
 30
0.0
 10
4.8638074061
 20
6.0566106626
 30
0.0
 10
4.8627130404
 20
6.0565053775
 30
0.0
 10
4.8611677707
 20
6.0564024132
 30
0.0
 10
4.8599869444
 20
6.0563724423
 30
0.0
 10
4.8591907998
 20
6.0563724423
 30
0.0
  0
SPLINE
  5
430
100
AcDbEntity
  8
0
100
AcDbSpline
 62
7
  6
CONTINUOUS
 70
0
 71
3
 72
14
 73
10
 74
0
 42
0.0000001
 43
0.0000001
 44
0.0000000001
 40
0.0
 40
0.0
 40
0.0
 40
0.0
 40
0.10472051
 40
0.217479064
 40
0.3374248886
 40
0.4634425221
 40
0.5942187792
 40
0.7282984554
 40
1.0
 40
1.0
 40
1.0
 40
1.0
 10
4.8680460386
 20
6.2837498976
 30
0.0
 10
4.8678157811
 20
6.2839714429
 30
0.0
 10
4.8673106903
 20
6.2844040165
 30
0.0
 10
4.8664678317
 20
6.2849974254
 30
0.0
 10
4.8655227986
 20
6.285551951
 30
0.0
 10
4.8644901041
 20
6.2860590364
 30
0.0
 10
4.863385385
 20
6.2865110052
 30
0.0
 10
4.8618328153
 20
6.287032822
 30
0.0
 10
4.8606238102
 20
6.2873183685
 30
0.0
 10
4.859806841
 20
6.2874593191
 30
0.0
  0
SPLINE
  5
431
100
AcDbEntity
  8
0
100
AcDbSpline
 62
7
  6
CONTINUOUS
 70
0
 71
3
 72
15
 73
11
 74
0
 42
0.0000001
 43
0.0000001
 44
0.0000000001
 40
0.0
 40
0.0
 40
0.0
 40
0.0
 40
0.087282585
 40
0.1851390366
 40
0.2938861651
 40
0.4136187571
 40
0.5442640472
 40
0.6856807399
 40
0.8376788682
 40
1.0
 40
1.0
 40
1.0
 40
1.0
 10
3.9228949408
 20
2.2595612538
 30
0.0
 10
3.9227332133
 20
2.2592085221
 30
0.0
 10
3.9223453013
 20
2.258480644
 30
0.0
 10
3.9216302267
 20
2.2573856998
 30
0.0
 10
3.9207514979
 20
2.2562299385
 30
0.0
 10
3.9197113567
 20
2.2550176425
 30
0.0
 10
3.9185118746
 20
2.2537537461
 30
0.0
 10
3.9171558044
 20
2.2524432882
 30
0.0
 10
3.9156463331
 20
2.2510911459
 30
0.0
 10
3.9145742156
 20
2.2501944358
 30
0.0
 10
3.9140137644
 20
2.2497398281
 30
0.0
  0
SPLINE
  5
432
100
AcDbEntity
  8
0
100
AcDbSpline
 62
7
  6
CONTINUOUS
 70
0
 71
3
 72
15
 73
11
 74
0
 42
0.0000001
 43
0.0000001
 44
0.0000000001
 40
0.0
 40
0.0
 40
0.0
 40
0.0
 40
0.1623023583
 40
0.3142909974
 40
0.4557091402
 40
0.5863475762
 40
0.7060651221
 40
0.8148154021
 40
0.912695064
 40
1.0
 40
1.0
 40
1.0
 40
1.0
 10
3.7170016555
 20
2.2497403728
 30
0.0
 10
3.7164413045
 20
2.2501948684
 30
0.0
 10
3.7153693289
 20
2.2510913558
 30
0.0
 10
3.7138600883
 20
2.2524433078
 30
0.0
 10
3.7125043425
 20
2.253753762
 30
0.0
 10
3.711305027
 20
2.2550174665
 30
0.0
 10
3.7102648404
 20
2.2562294241
 30
0.0
 10
3.7093861555
 20
2.2573851256
 30
0.0
 10
3.7086711714
 20
2.2584802493
 30
0.0
 10
3.7082832453
 20
2.2592082597
 30
0.0
 10
3.708121476
 20
2.2595610431
 30
0.0
  0
SPLINE
  5
433
100
AcDbEntity
  8
0
100
AcDbSpline
 62
7
  6
CONTINUOUS
 70
0
 71
3
 72
49
 73
45
 74
0
 42
0.0000001
 43
0.0000001
 44
0.0000000001
 40
0.0
 40
0.0
 40
0.0
 40
0.0
 40
0.1093940693
 40
0.2169768108
 40
0.3209722635
 40
0.4196682406
 40
0.4665210823
 40
0.5114537009
 40
0.5542852881
 40
0.5948454226
 40
0.6329753241
 40
0.6685292705
 40
0.7013761943
 40
0.7314017942
 40
0.7585114882
 40
0.7709505732
 40
0.7826368443
 40
0.7935662994
 40
0.8037381006
 40
0.8131544946
 40
0.8218219788
 40
0.8297527464
 40
0.8369658762
 40
0.8434908172
 40
0.8493703243
 40
0.8546662838
 40
0.8594660744
 40
0.8638888427
 40
0.8680879384
 40
0.8722423922
 40
0.8765370571
 40
0.8811393665
 40
0.8861851426
 40
0.8917761911
 40
0.8979858742
 40
0.9048652185
 40
0.9124495606
 40
0.920762556
 40
0.9298193375
 40
0.9396291069
 40
0.9501958318
 40
0.9615202099
 40
0.9735996043
 40
1.0
 40
1.0
 40
1.0
 40
1.0
 10
3.8155079925
 20
2.1997192296
 30
0.0
 10
3.8118363578
 20
2.1997192296
 30
0.0
 10
3.8045536763
 20
2.1996479763
 30
0.0
 10
3.7937847867
 20
2.1993283678
 30
0.0
 10
3.7833834657
 20
2.1988019275
 30
0.0
 10
3.7750294751
 20
2.1981887274
 30
0.0
 10
3.7686636928
 20
2.1975953996
 30
0.0
 10
3.7641711419
 20
2.1971130804
 30
0.0
 10
3.7598961027
 20
2.1965878553
 30
0.0
 10
3.7558566517
 20
2.1960219857
 30
0.0
 10
3.7520698478
 20
2.1954179522
 30
0.0
 10
3.7485516555
 20
2.1947784071
 30
0.0
 10
3.7453168175
 20
2.1941062042
 30
0.0
 10
3.7423789105
 20
2.193404299
 30
0.0
 10
3.7401278044
 20
2.1927807621
 30
0.0
 10
3.7384872103
 20
2.1922649415
 30
0.0
 10
3.7373739942
 20
2.191883657
 30
0.0
 10
3.7363434455
 20
2.1914971823
 30
0.0
 10
3.7353966061
 20
2.191105934
 30
0.0
 10
3.7345344105
 20
2.19071032
 30
0.0
 10
3.7337576862
 20
2.1903107274
 30
0.0
 10
3.7330671224
 20
2.1899075575
 30
0.0
 10
3.7324633109
 20
2.1895010917
 30
0.0
 10
3.7319466872
 20
2.1890915883
 30
0.0
 10
3.7315176434
 20
2.1886790699
 30
0.0
 10
3.7311766169
 20
2.1882633455
 30
0.0
 10
3.7309243644
 20
2.1878439969
 30
0.0
 10
3.730762449
 20
2.1874207057
 30
0.0
 10
3.7306929758
 20
2.1869942546
 30
0.0
 10
3.7307175308
 20
2.1865670618
 30
0.0
 10
3.730835474
 20
2.1861420614
 30
0.0
 10
3.7310447292
 20
2.1857208196
 30
0.0
 10
3.7313434066
 20
2.1853034279
 30
0.0
 10
3.7317303821
 20
2.1848894081
 30
0.0
 10
3.732205141
 20
2.1844784773
 30
0.0
 10
3.7327672689
 20
2.1840705338
 30
0.0
 10
3.7334163765
 20
2.1836657524
 30
0.0
 10
3.7341519418
 20
2.1832644061
 30
0.0
 10
3.7349733224
 20
2.1828668336
 30
0.0
 10
3.7358797609
 20
2.1824734512
 30
0.0
 10
3.7368703664
 20
2.1820846363
 30
0.0
 10
3.7379441558
 20
2.1817008132
 30
0.0
 10
3.739532942
 20
2.1811807291
 30
0.0
 10
3.7407747071
 20
2.1808237978
 30
0.0
 10
3.7416305058
 20
2.1805941068
 30
0.0
  0
SPLINE
  5
434
100
AcDbEntity
  8
0
100
AcDbSpline
 62
7
  6
CONTINUOUS
 70
0
 71
3
 72
12
 73
8
 74
0
 42
0.0000001
 43
0.0000001
 44
0.0000000001
 40
0.0
 40
0.0
 40
0.0
 40
0.0
 40
0.2298537538
 40
0.351142087
 40
0.476132736
 40
0.7346478759
 40
1.0
 40
1.0
 40
1.0
 40
1.0
 10
4.8674075959
 20
6.5443089766
 30
0.0
 10
4.8669334031
 20
6.544813168
 30
0.0
 10
4.8661035592
 20
6.545489412
 30
0.0
 10
4.8648585243
 20
6.5462032776
 30
0.0
 10
4.8634662509
 20
6.5468199654
 30
0.0
 10
4.8615707511
 20
6.5473415438
 30
0.0
 10
4.8599898415
 20
6.5474806897
 30
0.0
 10
4.8591907998
 20
6.5474806897
 30
0.0
  0
SPLINE
  5
435
100
AcDbEntity
  8
0
100
AcDbSpline
 62
7
  6
CONTINUOUS
 70
0
 71
3
 72
15
 73
11
 74
0
 42
0.0000001
 43
0.0000001
 44
0.0000000001
 40
0.0
 40
0.0
 40
0.0
 40
0.0
 40
0.125921838
 40
0.2515449661
 40
0.3768648788
 40
0.5018958636
 40
0.6266702405
 40
0.7512364482
 40
0.8756560734
 40
1.0
 40
1.0
 40
1.0
 40
1.0
 10
4.8680460386
 20
6.6555813352
 30
0.0
 10
4.8678253368
 20
6.6559298828
 30
0.0
 10
4.8673408782
 20
6.6565996478
 30
0.0
 10
4.8664967412
 20
6.6575048646
 30
0.0
 10
4.8655485596
 20
6.6582962227
 30
0.0
 10
4.8645111647
 20
6.6589611967
 30
0.0
 10
4.8634006414
 20
6.6594894828
 30
0.0
 10
4.8622341801
 20
6.6598728289
 30
0.0
 10
4.8610301684
 20
6.6601052576
 30
0.0
 10
4.8602142181
 20
6.6601571838
 30
0.0
 10
4.859806841
 20
6.6601571838
 30
0.0
  0
SPLINE
  5
436
100
AcDbEntity
  8
0
100
AcDbSpline
 62
7
  6
CONTINUOUS
 70
0
 71
3
 72
23
 73
19
 74
0
 42
0.0000001
 43
0.0000001
 44
0.0000000001
 40
0.0
 40
0.0
 40
0.0
 40
0.0
 40
0.0627264863
 40
0.1255217357
 40
0.18834846
 40
0.2511940758
 40
0.3140306106
 40
0.3768355815
 40
0.439586609
 40
0.5022639
 40
0.5648510394
 40
0.6273356059
 40
0.6897097604
 40
0.7519705885
 40
0.8141204036
 40
0.8761663061
 40
0.9381212449
 40
1.0
 40
1.0
 40
1.0
 40
1.0
 10
3.9373133304
 20
2.252882796
 30
0.0
 10
3.9369843334
 20
2.2527497081
 30
0.0
 10
3.9363113856
 20
2.2525179593
 30
0.0
 10
3.9352711372
 20
2.2522782338
 30
0.0
 10
3.934210703
 20
2.2521487999
 30
0.0
 10
3.9331423463
 20
2.2521310888
 30
0.0
 10
3.9320781216
 20
2.2522253489
 30
0.0
 10
3.9310301559
 20
2.2524304934
 30
0.0
 10
3.9300103559
 20
2.2527442029
 30
0.0
 10
3.9290303173
 20
2.2531629099
 30
0.0
 10
3.9281011841
 20
2.2536818608
 30
0.0
 10
3.9272335272
 20
2.2542951667
 30
0.0
 10
3.9264372257
 20
2.2549958656
 30
0.0
 10
3.9257213515
 20
2.2557760023
 30
0.0
 10
3.9250940633
 20
2.2566266923
 30
0.0
 10
3.9245624871
 20
2.257538299
 30
0.0
 10
3.9241327457
 20
2.2585002984
 30
0.0
 10
3.9239171849
 20
2.259168646
 30
0.0
 10
3.92382792
 20
2.259507175
 30
0.0
  0
SPLINE
  5
437
100
AcDbEntity
  8
0
100
AcDbSpline
 62
7
  6
CONTINUOUS
 70
0
 71
3
 72
15
 73
11
 74
0
 42
0.0000001
 43
0.0000001
 44
0.0000000001
 40
0.0
 40
0.0
 40
0.0
 40
0.0
 40
0.1251516428
 40
0.2504458653
 40
0.375794059
 40
0.5010862905
 40
0.6262249702
 40
0.7511258504
 40
0.8757280659
 40
1.0
 40
1.0
 40
1.0
 40
1.0
 10
3.9373188603
 20
2.2556348167
 30
0.0
 10
3.9368319174
 20
2.2554375011
 30
0.0
 10
3.9358248511
 20
2.2551182987
 30
0.0
 10
3.9342592388
 20
2.2548797064
 30
0.0
 10
3.9326745996
 20
2.2548860536
 30
0.0
 10
3.9311107574
 20
2.2551374364
 30
0.0
 10
3.9296065202
 20
2.255627533
 30
0.0
 10
3.928199265
 20
2.2563443423
 30
0.0
 10
3.9269243644
 20
2.2572696814
 30
0.0
 10
3.9261820674
 20
2.2580122478
 30
0.0
 10
3.9258436057
 20
2.258409266
 30
0.0
  0
SPLINE
  5
438
100
AcDbEntity
  8
0
100
AcDbSpline
 62
7
  6
CONTINUOUS
 70
0
 71
3
 72
15
 73
11
 74
0
 42
0.0000001
 43
0.0000001
 44
0.0000000001
 40
0.0
 40
0.0
 40
0.0
 40
0.0
 40
0.12511785
 40
0.2503767547
 40
0.3756946544
 40
0.500968665
 40
0.6261070414
 40
0.7510283937
 40
0.875671377
 40
1.0
 40
1.0
 40
1.0
 40
1.0
 10
3.6936971247
 20
2.2556348167
 30
0.0
 10
3.694167296
 20
2.2554442972
 30
0.0
 10
3.6951385243
 20
2.2551335779
 30
0.0
 10
3.6966479262
 20
2.2548911042
 30
0.0
 10
3.6981775824
 20
2.2548767579
 30
0.0
 10
3.6996916451
 20
2.2550910993
 30
0.0
 10
3.7011550788
 20
2.2555290823
 30
0.0
 10
3.7025339906
 20
2.2561807087
 30
0.0
 10
3.703796045
 20
2.2570305768
 30
0.0
 10
3.7045416959
 20
2.2577179156
 30
0.0
 10
3.7048851691
 20
2.2580868985
 30
0.0
  0
SPLINE
  5
439
100
AcDbEntity
  8
0
100
AcDbSpline
 62
7
  6
CONTINUOUS
 70
0
 71
3
 72
23
 73
19
 74
0
 42
0.0000001
 43
0.0000001
 44
0.0000000001
 40
0.0
 40
0.0
 40
0.0
 40
0.0
 40
0.0627264781
 40
0.1255217211
 40
0.1883484402
 40
0.2511940525
 40
0.3140305854
 40
0.3768355559
 40
0.4395865847
 40
0.5022638782
 40
0.5648510212
 40
0.6273355921
 40
0.6897097514
 40
0.751970584
 40
0.8141204028
 40
0.8761663077
 40
0.9381212465
 40
1.0
 40
1.0
 40
1.0
 40
1.0
 10
3.6937026546
 20
2.252882796
 30
0.0
 10
3.6940316488
 20
2.2527497093
 30
0.0
 10
3.6947045906
 20
2.2525179624
 30
0.0
 10
3.6957448298
 20
2.2522782378
 30
0.0
 10
3.6968052545
 20
2.2521488027
 30
0.0
 10
3.6978736019
 20
2.2521310885
 30
0.0
 10
3.6989378179
 20
2.2522253437
 30
0.0
 10
3.6999857756
 20
2.2524304812
 30
0.0
 10
3.7010055686
 20
2.2527441822
 30
0.0
 10
3.7019856017
 20
2.2531628789
 30
0.0
 10
3.7029147311
 20
2.2536818182
 30
0.0
 10
3.7037823859
 20
2.2542951113
 30
0.0
 10
3.7045786874
 20
2.2549957966
 30
0.0
 10
3.7052945637
 20
2.2557759191
 30
0.0
 10
3.7059218565
 20
2.2566265945
 30
0.0
 10
3.7064534396
 20
2.2575381867
 30
0.0
 10
3.7068831903
 20
2.2585001721
 30
0.0
 10
3.707098759
 20
2.2591685109
 30
0.0
 10
3.7071880282
 20
2.2595070356
 30
0.0
  0
SPLINE
  5
43A
100
AcDbEntity
  8
0
100
AcDbSpline
 62
7
  6
CONTINUOUS
 70
0
 71
3
 72
23
 73
19
 74
0
 42
0.0000001
 43
0.0000001
 44
0.0000000001
 40
0.0
 40
0.0
 40
0.0
 40
0.0
 40
0.0617295885
 40
0.1236016724
 40
0.1856072769
 40
0.2477412564
 40
0.3099953364
 40
0.3723615656
 40
0.4348312173
 40
0.4973950071
 40
0.5600432436
 40
0.6227655771
 40
0.6855510091
 40
0.7483880077
 40
0.8112644278
 40
0.8741675357
 40
0.9370840051
 40
1.0
 40
1.0
 40
1.0
 40
1.0
 10
3.9209767366
 20
2.1248201468
 30
0.0
 10
3.9242321573
 20
2.1247998074
 30
0.0
 10
3.9307529759
 20
2.1249348309
 30
0.0
 10
3.9405187467
 20
2.1256652554
 30
0.0
 10
3.9502523155
 20
2.1269244893
 30
0.0
 10
3.9599234276
 20
2.1287111639
 30
0.0
 10
3.9695024261
 20
2.1310221053
 30
0.0
 10
3.9789596072
 20
2.1338520445
 30
0.0
 10
3.9882656356
 20
2.1371938179
 30
0.0
 10
3.9973916368
 20
2.1410382901
 30
0.0
 10
4.0063093448
 20
2.1453744519
 30
0.0
 10
4.0149912551
 20
2.1501894245
 30
0.0
 10
4.0234107559
 20
2.1554685289
 30
0.0
 10
4.031542262
 20
2.16119538
 30
0.0
 10
4.0393613246
 20
2.1673519277
 30
0.0
 10
4.0468448438
 20
2.1739186737
 30
0.0
 10
4.053970798
 20
2.180874337
 30
0.0
 10
4.0584704783
 20
2.1857569046
 30
0.0
 10
4.0606540415
 20
2.1882552092
 30
0.0
  0
SPLINE
  5
43B
100
AcDbEntity
  8
0
100
AcDbSpline
 62
7
  6
CONTINUOUS
 70
0
 71
3
 72
21
 73
17
 74
0
 42
0.0000001
 43
0.0000001
 44
0.0000000001
 40
0.0
 40
0.0
 40
0.0
 40
0.0
 40
0.0626534255
 40
0.1253237167
 40
0.1880012852
 40
0.2506801413
 40
0.3133515589
 40
0.3760075903
 40
0.5011963511
 40
0.6262267902
 40
0.6886866464
 40
0.7510866615
 40
0.8134216755
 40
0.8756873716
 40
0.9378807555
 40
1.0
 40
1.0
 40
1.0
 40
1.0
 10
3.7179880825
 20
2.116261692
 30
0.0
 10
3.7146507522
 20
2.1162690542
 30
0.0
 10
3.7079742473
 20
2.1164589529
 30
0.0
 10
3.6979885077
 20
2.1172696029
 30
0.0
 10
3.6880575751
 20
2.1186045579
 30
0.0
 10
3.678210773
 20
2.1204605089
 30
0.0
 10
3.6684763786
 20
2.1228329754
 30
0.0
 10
3.6556916642
 20
2.1266743123
 30
0.0
 10
3.6401300386
 20
2.1327319449
 30
0.0
 10
3.6253076276
 20
2.1404010844
 30
0.0
 10
3.6140071456
 20
2.1474450546
 30
0.0
 10
3.6058344881
 20
2.1531662593
 30
0.0
 10
3.597987553
 20
2.1593094235
 30
0.0
 10
3.5904887191
 20
2.1658564993
 30
0.0
 10
3.5833598861
 20
2.1727877075
 30
0.0
 10
3.5788642112
 20
2.1776545292
 30
0.0
 10
3.5766851216
 20
2.1801445662
 30
0.0
  0
SPLINE
  5
43C
100
AcDbEntity
  8
0
100
AcDbSpline
 62
7
  6
CONTINUOUS
 70
0
 71
3
 72
15
 73
11
 74
0
 42
0.0000001
 43
0.0000001
 44
0.0000000001
 40
0.0
 40
0.0
 40
0.0
 40
0.0
 40
0.123427583
 40
0.2474926604
 40
0.3720639485
 40
0.4970446115
 40
0.6223674334
 40
0.7479861278
 40
0.8738690952
 40
1.0
 40
1.0
 40
1.0
 40
1.0
 10
4.1292048354
 20
2.5299347826
 30
0.0
 10
4.1312810862
 20
2.5333022669
 30
0.0
 10
4.1352063966
 20
2.5402045811
 30
0.0
 10
4.1403646031
 20
2.5509669465
 30
0.0
 10
4.1447796275
 20
2.5621090573
 30
0.0
 10
4.1484247375
 20
2.573568326
 30
0.0
 10
4.151279703
 20
2.5852840387
 30
0.0
 10
4.1533292445
 20
2.5971965723
 30
0.0
 10
4.1545628503
 20
2.6092464292
 30
0.0
 10
4.1548368307
 20
2.6173267025
 30
0.0
 10
4.1548368322
 20
2.6213694546
 30
0.0
  0
SPLINE
  5
43D
100
AcDbEntity
  8
0
100
AcDbSpline
 62
7
  6
CONTINUOUS
 70
0
 71
3
 72
15
 73
11
 74
0
 42
0.0000001
 43
0.0000001
 44
0.0000000001
 40
0.0
 40
0.0
 40
0.0
 40
0.0
 40
0.1242568414
 40
0.2487429883
 40
0.373458665
 40
0.4984004396
 40
0.6235591265
 40
0.7489132162
 40
0.8744181188
 40
1.0
 40
1.0
 40
1.0
 40
1.0
 10
4.1548368322
 20
2.6213694546
 30
0.0
 10
4.154836813
 20
2.6254198152
 30
0.0
 10
4.1545613172
 20
2.6335306736
 30
0.0
 10
4.1533260144
 20
2.645650178
 30
0.0
 10
4.1512746278
 20
2.6576816769
 30
0.0
 10
4.1484175001
 20
2.6695699909
 30
0.0
 10
4.144769904
 20
2.6812617388
 30
0.0
 10
4.1403520262
 20
2.6927043698
 30
0.0
 10
4.1351904804
 20
2.7038458025
 30
0.0
 10
4.1312748395
 20
2.7110404938
 30
0.0
 10
4.1292048354
 20
2.7145721018
 30
0.0
  0
SPLINE
  5
43E
100
AcDbEntity
  8
0
100
AcDbSpline
 62
7
  6
CONTINUOUS
 70
0
 71
3
 72
15
 73
11
 74
0
 42
0.0000001
 43
0.0000001
 44
0.0000000001
 40
0.0
 40
0.0
 40
0.0
 40
0.0
 40
0.1225563194
 40
0.2460209356
 40
0.3702575511
 40
0.4951611155
 40
0.6206482606
 40
0.7466516972
 40
0.8731181489
 40
1.0
 40
1.0
 40
1.0
 40
1.0
 10
4.1497097049
 20
2.6813512391
 30
0.0
 10
4.1511457788
 20
2.6783541049
 30
0.0
 10
4.1538572597
 20
2.6722538582
 30
0.0
 10
4.1574114487
 20
2.6628580889
 30
0.0
 10
4.160450005
 20
2.6532160314
 30
0.0
 10
4.1629565955
 20
2.6433657049
 30
0.0
 10
4.1649185748
 20
2.6333438082
 30
0.0
 10
4.1663264039
 20
2.6231863366
 30
0.0
 10
4.1671733906
 20
2.6129292036
 30
0.0
 10
4.1673612415
 20
2.6060575193
 30
0.0
 10
4.1673612463
 20
2.6026168016
 30
0.0
  0
SPLINE
  5
43F
100
AcDbEntity
  8
0
100
AcDbSpline
 62
7
  6
CONTINUOUS
 70
0
 71
3
 72
15
 73
11
 74
0
 42
0.0000001
 43
0.0000001
 44
0.0000000001
 40
0.0
 40
0.0
 40
0.0
 40
0.0
 40
0.1241889833
 40
0.2487537903
 40
0.3736432928
 40
0.4987945381
 40
0.6241299652
 40
0.74954648
 40
0.8749011731
 40
1.0
 40
1.0
 40
1.0
 40
1.0
 10
4.1673611853
 20
2.6024653436
 30
0.0
 10
4.1673579411
 20
2.5984289804
 30
0.0
 10
4.1670921169
 20
2.5903419099
 30
0.0
 10
4.1659223462
 20
2.5782465618
 30
0.0
 10
4.1639884034
 20
2.5662175926
 30
0.0
 10
4.1613028636
 20
2.5543084319
 30
0.0
 10
4.1578840575
 20
2.5425710524
 30
0.0
 10
4.1537564819
 20
2.5310568918
 30
0.0
 10
4.1489523598
 20
2.519817305
 30
0.0
 10
4.1453187713
 20
2.5125271469
 30
0.0
 10
4.1434020866
 20
2.5089413199
 30
0.0
  0
SPLINE
  5
440
100
AcDbEntity
  8
0
100
AcDbSpline
 62
7
  6
CONTINUOUS
 70
0
 71
3
 72
23
 73
19
 74
0
 42
0.0000001
 43
0.0000001
 44
0.0000000001
 40
0.0
 40
0.0
 40
0.0
 40
0.0
 40
0.0621724453
 40
0.1244560209
 40
0.1868152296
 40
0.249225945
 40
0.311672476
 40
0.3741441447
 40
0.4366351486
 40
0.4991423466
 40
0.5616656676
 40
0.6242069084
 40
0.6867697397
 40
0.749358525
 40
0.8119772735
 40
0.8746279067
 40
0.9373062673
 40
1.0
 40
1.0
 40
1.0
 40
1.0
 10
3.8914754844
 20
2.3075505366
 30
0.0
 10
3.8955327401
 20
2.3074134865
 30
0.0
 10
3.9036670131
 20
2.3074246864
 30
0.0
 10
3.9158435147
 20
2.3082949783
 30
0.0
 10
3.9279461118
 20
2.3100109215
 30
0.0
 10
3.9399112511
 20
2.3125618657
 30
0.0
 10
3.9516793959
 20
2.3159325445
 30
0.0
 10
3.9631934919
 20
2.3201042536
 30
0.0
 10
3.9743986725
 20
2.3250557865
 30
0.0
 10
3.9852424461
 20
2.3307626577
 30
0.0
 10
3.9956741726
 20
2.3371981183
 30
0.0
 10
4.0056454167
 20
2.344332511
 30
0.0
 10
4.0151096136
 20
2.352133754
 30
0.0
 10
4.024022487
 20
2.3605667803
 30
0.0
 10
4.0323419068
 20
2.3695935527
 30
0.0
 10
4.0400283748
 20
2.37917275
 30
0.0
 10
4.0470448713
 20
2.3892582389
 30
0.0
 10
4.0512546298
 20
2.3962877903
 30
0.0
 10
4.0532373436
 20
2.3998691962
 30
0.0
  0
SPLINE
  5
441
100
AcDbEntity
  8
0
100
AcDbSpline
 62
7
  6
CONTINUOUS
 70
0
 71
3
 72
23
 73
19
 74
0
 42
0.0000001
 43
0.0000001
 44
0.0000000001
 40
0.0
 40
0.0
 40
0.0
 40
0.0
 40
0.0599670432
 40
0.1207352196
 40
0.1821465263
 40
0.2440772691
 40
0.3064293779
 40
0.3691194242
 40
0.4320781915
 40
0.4952423974
 40
0.5585533582
 40
0.6219524498
 40
0.6853780752
 40
0.748761847
 40
0.8120242813
 40
0.8750697452
 40
0.9377782683
 40
1.0
 40
1.0
 40
1.0
 40
1.0
 10
4.0599646777
 20
2.366123938
 30
0.0
 10
4.0578874913
 20
2.3628912494
 30
0.0
 10
4.0535082508
 20
2.3565070177
 30
0.0
 10
4.0463369437
 20
2.3472901102
 30
0.0
 10
4.0385403414
 20
2.3384267131
 30
0.0
 10
4.0301520547
 20
2.3299775337
 30
0.0
 10
4.0212085538
 20
2.321994702
 30
0.0
 10
4.0117483902
 20
2.3145246898
 30
0.0
 10
4.0018135818
 20
2.3076071453
 30
0.0
 10
3.9914478315
 20
2.3012771843
 30
0.0
 10
3.9806977346
 20
2.2955642663
 30
0.0
 10
3.9696120667
 20
2.2904931339
 30
0.0
 10
3.9582421755
 20
2.2860834619
 30
0.0
 10
3.9466421275
 20
2.2823495653
 30
0.0
 10
3.9348689553
 20
2.2793003353
 30
0.0
 10
3.9229830943
 20
2.2769384633
 30
0.0
 10
3.9110496769
 20
2.2752594635
 30
0.0
 10
3.9030683545
 20
2.2745836593
 30
0.0
 10
3.8990879193
 20
2.2743550149
 30
0.0
  0
SPLINE
  5
442
100
AcDbEntity
  8
0
100
AcDbSpline
 62
7
  6
CONTINUOUS
 70
0
 71
3
 72
25
 73
21
 74
0
 42
0.0000001
 43
0.0000001
 44
0.0000000001
 40
0.0
 40
0.0
 40
0.0
 40
0.0
 40
0.062692549
 40
0.0940389378
 40
0.1253788388
 40
0.1880283191
 40
0.250645876
 40
0.2819477593
 40
0.3132426307
 40
0.3758042941
 40
0.4383443865
 40
0.5008665324
 40
0.5633726011
 40
0.6258624105
 40
0.6883330168
 40
0.7507782806
 40
0.8131878676
 40
0.8755460596
 40
0.9378283522
 40
1.0
 40
1.0
 40
1.0
 40
1.0
 10
3.5777786414
 20
2.3998691962
 30
0.0
 10
3.5797613884
 20
2.3962878117
 30
0.0
 10
3.5829193252
 20
2.3910143907
 30
0.0
 10
3.5874801438
 20
2.3842142983
 30
0.0
 10
3.5922689885
 20
2.3775758918
 30
0.0
 10
3.5986739519
 20
2.3695935344
 30
0.0
 10
3.6056082702
 20
2.3620697798
 30
0.0
 10
3.6114513822
 20
2.3563488672
 30
0.0
 10
3.6174838733
 20
2.3508334644
 30
0.0
 10
3.6253706428
 20
2.3443324138
 30
0.0
 10
3.6353417242
 20
2.3371981828
 30
0.0
 10
3.6457734946
 20
2.3307626867
 30
0.0
 10
3.6566172482
 20
2.3250558186
 30
0.0
 10
3.667822452
 20
2.3201043273
 30
0.0
 10
3.679336512
 20
2.3159325408
 30
0.0
 10
3.6911046862
 20
2.312561961
 30
0.0
 10
3.7030698225
 20
2.3100110355
 30
0.0
 10
3.7151724067
 20
2.3082949552
 30
0.0
 10
3.7273489396
 20
2.3074249126
 30
0.0
 10
3.7354832246
 20
2.3074134348
 30
0.0
 10
3.7395405006
 20
2.3075505366
 30
0.0
  0
SPLINE
  5
443
100
AcDbEntity
  8
0
100
AcDbSpline
 62
7
  6
CONTINUOUS
 70
0
 71
3
 72
23
 73
19
 74
0
 42
0.0000001
 43
0.0000001
 44
0.0000000001
 40
0.0
 40
0.0
 40
0.0
 40
0.0
 40
0.0622208782
 40
0.1249297916
 40
0.1879751706
 40
0.2512375182
 40
0.3146213947
 40
0.3780469664
 40
0.4414460447
 40
0.5047569853
 40
0.56792121
 40
0.6308798005
 40
0.6935701082
 40
0.7559217615
 40
0.8178527295
 40
0.879264059
 40
0.940031428
 40
1.0
 40
1.0
 40
1.0
 40
1.0
 10
3.7319280526
 20
2.2743550181
 30
0.0
 10
3.7279476731
 20
2.2745836836
 30
0.0
 10
3.7199664085
 20
2.2752597791
 30
0.0
 10
3.7080329815
 20
2.2769384278
 30
0.0
 10
3.6961471164
 20
2.2793004026
 30
0.0
 10
3.6843739667
 20
2.2823496764
 30
0.0
 10
3.6727738517
 20
2.286083373
 30
0.0
 10
3.6614040207
 20
2.2904932122
 30
0.0
 10
3.6503182976
 20
2.2955642051
 30
0.0
 10
3.6395682129
 20
2.301277156
 30
0.0
 10
3.6292024835
 20
2.3076071223
 30
0.0
 10
3.6192675866
 20
2.3145245603
 30
0.0
 10
3.6098075501
 20
2.3219946944
 30
0.0
 10
3.6008639047
 20
2.329977365
 30
0.0
 10
3.592475683
 20
2.3384266007
 30
0.0
 10
3.5846791338
 20
2.3472899876
 30
0.0
 10
3.5775075926
 20
2.3565067811
 30
0.0
 10
3.5731285026
 20
2.3628911772
 30
0.0
 10
3.5710512865
 20
2.3661239636
 30
0.0
  0
SPLINE
  5
444
100
AcDbEntity
  8
0
100
AcDbSpline
 62
7
  6
CONTINUOUS
 70
0
 71
3
 72
15
 73
11
 74
0
 42
0.0000001
 43
0.0000001
 44
0.0000000001
 40
0.0
 40
0.0
 40
0.0
 40
0.0
 40
0.1255818544
 40
0.2510867096
 40
0.3764407848
 40
0.5015995051
 40
0.6265411843
 40
0.7512569631
 40
0.8757430023
 40
1.0
 40
1.0
 40
1.0
 40
1.0
 10
3.5018111495
 20
2.7145721018
 30
0.0
 10
3.4997411485
 20
2.711040493
 30
0.0
 10
3.4958255022
 20
2.7038458077
 30
0.0
 10
3.4906639626
 20
2.6927043751
 30
0.0
 10
3.486246086
 20
2.6812617452
 30
0.0
 10
3.482598483
 20
2.6695700016
 30
0.0
 10
3.4797413698
 20
2.6576816834
 30
0.0
 10
3.4776899628
 20
2.6456501907
 30
0.0
 10
3.4764546939
 20
2.6335306793
 30
0.0
 10
3.4761791543
 20
2.6254198203
 30
0.0
 10
3.4761791528
 20
2.6213694546
 30
0.0
  0
SPLINE
  5
445
100
AcDbEntity
  8
0
100
AcDbSpline
 62
7
  6
CONTINUOUS
 70
0
 71
3
 72
15
 73
11
 74
0
 42
0.0000001
 43
0.0000001
 44
0.0000000001
 40
0.0
 40
0.0
 40
0.0
 40
0.0
 40
0.1261310204
 40
0.2520138402
 40
0.3776326366
 40
0.5029552959
 40
0.6279360467
 40
0.7525073165
 40
0.8765722069
 40
1.0
 40
1.0
 40
1.0
 40
1.0
 10
3.4761791528
 20
2.6213694546
 30
0.0
 10
3.476179172
 20
2.6173266988
 30
0.0
 10
3.4764531054
 20
2.6092464252
 30
0.0
 10
3.4776867532
 20
2.5971965693
 30
0.0
 10
3.4797362624
 20
2.5852840374
 30
0.0
 10
3.4825912562
 20
2.5735683299
 30
0.0
 10
3.4862363499
 20
2.56210906
 30
0.0
 10
3.4906513715
 20
2.5509669506
 30
0.0
 10
3.4958096054
 20
2.5402045993
 30
0.0
 10
3.4997348909
 20
2.53330227
 30
0.0
 10
3.5018111495
 20
2.5299347826
 30
0.0
  0
SPLINE
  5
446
100
AcDbEntity
  8
0
100
AcDbSpline
 62
7
  6
CONTINUOUS
 70
0
 71
3
 72
15
 73
11
 74
0
 42
0.0000001
 43
0.0000001
 44
0.0000000001
 40
0.0
 40
0.0
 40
0.0
 40
0.0
 40
0.1250988308
 40
0.250453527
 40
0.3758700404
 40
0.501205466
 40
0.6263567118
 40
0.7512462216
 40
0.8758110288
 40
1.0
 40
1.0
 40
1.0
 40
1.0
 10
3.4876138971
 20
2.5089413221
 30
0.0
 10
3.4856972124
 20
2.5125271492
 30
0.0
 10
3.4820636256
 20
2.5198173081
 30
0.0
 10
3.4772595025
 20
2.5310568941
 30
0.0
 10
3.4731319259
 20
2.5425710541
 30
0.0
 10
3.4697131202
 20
2.5543084332
 30
0.0
 10
3.4670275806
 20
2.5662175939
 30
0.0
 10
3.4650936396
 20
2.5782465633
 30
0.0
 10
3.4639238689
 20
2.5903419108
 30
0.0
 10
3.4636580443
 20
2.5984289806
 30
0.0
 10
3.4636547997
 20
2.6024653433
 30
0.0
  0
SPLINE
  5
447
100
AcDbEntity
  8
0
100
AcDbSpline
 62
7
  6
CONTINUOUS
 70
0
 71
3
 72
15
 73
11
 74
0
 42
0.0000001
 43
0.0000001
 44
0.0000000001
 40
0.0
 40
0.0
 40
0.0
 40
0.0
 40
0.1268862486
 40
0.2533563406
 40
0.379362562
 40
0.5048513548
 40
0.6297551491
 40
0.7539901705
 40
0.8774507992
 40
1.0
 40
1.0
 40
1.0
 40
1.0
 10
3.4636547387
 20
2.6026168016
 30
0.0
 10
3.4636547432
 20
2.6060629176
 30
0.0
 10
3.4638431833
 20
2.6129453677
 30
0.0
 10
3.4646928293
 20
2.6232184361
 30
0.0
 10
3.4661050662
 20
2.6333914184
 30
0.0
 10
3.468073158
 20
2.6434282294
 30
0.0
 10
3.4705875032
 20
2.6532926985
 30
0.0
 10
3.4736353735
 20
2.6629479476
 30
0.0
 10
3.4772003247
 20
2.6723557705
 30
0.0
 10
3.4799199331
 20
2.6784632962
 30
0.0
 10
3.4813602744
 20
2.6814638243
 30
0.0
  0
SPLINE
  5
448
100
AcDbEntity
  8
0
100
AcDbSpline
 62
7
  6
CONTINUOUS
 70
0
 71
3
 72
17
 73
13
 74
0
 42
0.0000001
 43
0.0000001
 44
0.0000000001
 40
0.0
 40
0.0
 40
0.0
 40
0.0
 40
0.1757509256
 40
0.3408919249
 40
0.4931283033
 40
0.6304295815
 40
0.7509942126
 40
0.8533517569
 40
0.8973642094
 40
0.9364852927
 40
0.970684653
 40
1.0
 40
1.0
 40
1.0
 40
1.0
 10
3.7383006447
 20
2.3135840184
 30
0.0
 10
3.738334604
 20
2.3132228469
 30
0.0
 10
3.738407346
 20
2.3125229268
 30
0.0
 10
3.7385351229
 20
2.3115130265
 30
0.0
 10
3.7386768025
 20
2.3105851698
 30
0.0
 10
3.7388301771
 20
2.309752516
 30
0.0
 10
3.7389929706
 20
2.3090268298
 30
0.0
 10
3.7391406311
 20
2.308495574
 30
0.0
 10
3.7392644095
 20
2.3081331559
 30
0.0
 10
3.7393533959
 20
2.3079077818
 30
0.0
 10
3.739442908
 20
2.3077156257
 30
0.0
 10
3.7395075994
 20
2.3076013193
 30
0.0
 10
3.7395405006
 20
2.3075505366
 30
0.0
  0
SPLINE
  5
449
100
AcDbEntity
  8
0
100
AcDbSpline
 62
7
  6
CONTINUOUS
 70
0
 71
3
 72
17
 73
13
 74
0
 42
0.0000001
 43
0.0000001
 44
0.0000000001
 40
0.0
 40
0.0
 40
0.0
 40
0.0
 40
0.1751944482
 40
0.3389073843
 40
0.48915671
 40
0.6243208209
 40
0.7431549332
 40
0.7962335593
 40
0.845040235
 40
0.8896328247
 40
0.9301585405
 40
1.0
 40
1.0
 40
1.0
 40
1.0
 10
3.505459447
 20
2.5345937494
 30
0.0
 10
3.5051863776
 20
2.5343701908
 30
0.0
 10
3.5046664209
 20
2.5339274314
 30
0.0
 10
3.5039452295
 20
2.5332554917
 30
0.0
 10
3.5033158401
 20
2.5326048792
 30
0.0
 10
3.5027870131
 20
2.5319848851
 30
0.0
 10
3.5024230948
 20
2.5314834651
 30
0.0
 10
3.5021919446
 20
2.5311033715
 30
0.0
 10
3.5020545383
 20
2.5308420433
 30
0.0
 10
3.5019468109
 20
2.5305942493
 30
0.0
 10
3.5018483495
 20
2.5302980714
 30
0.0
 10
3.501810612
 20
2.5300754695
 30
0.0
 10
3.5018111495
 20
2.5299347826
 30
0.0
  0
LINE
  5
44A
100
AcDbEntity
  8
0
100
AcDbLine
 62
7
  6
CONTINUOUS
 10
4.125556538
 20
2.7122364704
 11
4.1292048354
 21
2.7145721018
  0
LINE
  5
44B
100
AcDbEntity
  8
0
100
AcDbLine
 62
7
  6
CONTINUOUS
 10
4.0483491902
 20
2.4024053789
 11
4.0532373436
 21
2.3998691962
  0
SPLINE
  5
44C
100
AcDbEntity
  8
0
100
AcDbSpline
 62
7
  6
CONTINUOUS
 70
0
 71
3
 72
21
 73
17
 74
0
 42
0.0000001
 43
0.0000001
 44
0.0000000001
 40
0.0
 40
0.0
 40
0.0
 40
0.0
 40
0.009975943
 40
0.0203417528
 40
0.0434788201
 40
0.0714654515
 40
0.1053693894
 40
0.1457197098
 40
0.1927298899
 40
0.2464461139
 40
0.3067919619
 40
0.3736221402
 40
0.446723223
 40
0.6106586487
 40
0.7960921568
 40
1.0
 40
1.0
 40
1.0
 40
1.0
 10
4.33593106
 20
6.0403163783
 30
0.0
 10
4.3359402314
 20
6.0403322635
 30
0.0
 10
4.3359556271
 20
6.0403666798
 30
0.0
 10
4.3359734357
 20
6.0404450703
 30
0.0
 10
4.3359678515
 20
6.0405599279
 30
0.0
 10
4.3359224827
 20
6.0407104342
 30
0.0
 10
4.3358399559
 20
6.040879978
 30
0.0
 10
4.335720302
 20
6.0410684979
 30
0.0
 10
4.3355638732
 20
6.0412756864
 30
0.0
 10
4.3353711075
 20
6.0415007162
 30
0.0
 10
4.3351427596
 20
6.0417426906
 30
0.0
 10
4.3348797408
 20
6.0420005371
 30
0.0
 10
4.3344682997
 20
6.0423786492
 30
0.0
 10
4.3338745822
 20
6.0428800753
 30
0.0
 10
4.3330713423
 20
6.0435046596
 30
0.0
 10
4.3324919203
 20
6.0439253103
 30
0.0
 10
4.3321855775
 20
6.0441414646
 30
0.0
  0
SPLINE
  5
44D
100
AcDbEntity
  8
0
100
AcDbSpline
 62
7
  6
CONTINUOUS
 70
0
 71
3
 72
19
 73
15
 74
0
 42
0.0000001
 43
0.0000001
 44
0.0000000001
 40
0.0
 40
0.0
 40
0.0
 40
0.0
 40
0.1912111422
 40
0.3668304598
 40
0.5244324861
 40
0.6620024647
 40
0.7228043753
 40
0.7781100496
 40
0.8278628123
 40
0.872096307
 40
0.9109553659
 40
0.9447699007
 40
0.9741275747
 40
1.0
 40
1.0
 40
1.0
 40
1.0
 10
3.7095315813
 20
2.1299713994
 30
0.0
 10
3.70957724
 20
2.1296187299
 30
0.0
 10
3.7096757781
 20
2.1289434879
 30
0.0
 10
3.7098538716
 20
2.1279842502
 30
0.0
 10
3.7100538015
 20
2.1271314562
 30
0.0
 10
3.7102426674
 20
2.1264962843
 30
0.0
 10
3.7104052278
 20
2.1260532304
 30
0.0
 10
3.7105255131
 20
2.1257690235
 30
0.0
 10
3.7106487752
 20
2.125520012
 30
0.0
 10
3.7107745563
 20
2.1253070326
 30
0.0
 10
3.710902512
 20
2.1251307488
 30
0.0
 10
3.7110325051
 20
2.1249916149
 30
0.0
 10
3.7111645413
 20
2.1248901858
 30
0.0
 10
3.7112588336
 20
2.1248463541
 30
0.0
 10
3.711304924
 20
2.1248325358
 30
0.0
  0
SPLINE
  5
44E
100
AcDbEntity
  8
0
100
AcDbSpline
 62
7
  6
CONTINUOUS
 70
0
 71
3
 72
23
 73
19
 74
0
 42
0.0000001
 43
0.0000001
 44
0.0000000001
 40
0.0
 40
0.0
 40
0.0
 40
0.0
 40
0.2148295987
 40
0.4084382084
 40
0.5779034877
 40
0.6527809505
 40
0.7207172003
 40
0.7814704086
 40
0.8348441549
 40
0.8806767253
 40
0.9188746554
 40
0.9494233763
 40
0.9618764562
 40
0.9725036284
 40
0.9813916429
 40
0.9887017394
 40
0.9947306035
 40
1.0
 40
1.0
 40
1.0
 40
1.0
 10
3.5544413945
 20
2.2178072539
 30
0.0
 10
3.5541472497
 20
2.2176513454
 30
0.0
 10
3.5535860951
 20
2.2173585215
 30
0.0
 10
3.5527855424
 20
2.2169570417
 30
0.0
 10
3.5521728399
 20
2.216665002
 30
0.0
 10
3.5517316446
 20
2.2164661466
 30
0.0
 10
3.5514419182
 20
2.2163413183
 30
0.0
 10
3.5511805683
 20
2.2162349719
 30
0.0
 10
3.550948609
 20
2.2161474794
 30
0.0
 10
3.5507468949
 20
2.2160790891
 30
0.0
 10
3.5505761954
 20
2.216030006
 30
0.0
 10
3.5504529904
 20
2.216003426
 30
0.0
 10
3.5503704392
 20
2.215993322
 30
0.0
 10
3.5503208774
 20
2.2159911938
 30
0.0
 10
3.5502792837
 20
2.2159939517
 30
0.0
 10
3.5502455092
 20
2.2160016877
 30
0.0
 10
3.5502193446
 20
2.2160147164
 30
0.0
 10
3.5502070267
 20
2.2160278854
 30
0.0
 10
3.5502028431
 20
2.216034898
 30
0.0
  0
SPLINE
  5
44F
100
AcDbEntity
  8
0
100
AcDbSpline
 62
7
  6
CONTINUOUS
 70
0
 71
3
 72
15
 73
11
 74
0
 42
0.0000001
 43
0.0000001
 44
0.0000000001
 40
0.0
 40
0.0
 40
0.0
 40
0.0
 40
0.1670701938
 40
0.3234712097
 40
0.4680957328
 40
0.6001564239
 40
0.7191372397
 40
0.824958409
 40
0.9181298014
 40
1.0
 40
1.0
 40
1.0
 40
1.0
 10
3.4478145442
 20
2.4002982041
 30
0.0
 10
3.4476120327
 20
2.4001120836
 30
0.0
 10
3.4472277836
 20
2.3997430353
 30
0.0
 10
3.4466996172
 20
2.399181363
 30
0.0
 10
3.4462422145
 20
2.3986338003
 30
0.0
 10
3.4458598934
 20
2.3981056383
 30
0.0
 10
3.4455561717
 20
2.397601762
 30
0.0
 10
3.4453338246
 20
2.3971264555
 30
0.0
 10
3.4451950148
 20
2.3966837575
 30
0.0
 10
3.4451576458
 20
2.3963956586
 30
0.0
 10
3.4451563338
 20
2.3962608815
 30
0.0
  0
LINE
  5
450
100
AcDbEntity
  8
0
100
AcDbLine
 62
7
  6
CONTINUOUS
 10
3.4451563338
 20
2.3962608815
 11
3.445320016
 21
2.3955926151
  0
SPLINE
  5
451
100
AcDbEntity
  8
0
100
AcDbSpline
 62
7
  6
CONTINUOUS
 70
0
 71
3
 72
20
 73
16
 74
0
 42
0.0000001
 43
0.0000001
 44
0.0000000001
 40
0.0
 40
0.0
 40
0.0
 40
0.0
 40
0.2184583316
 40
0.4132385349
 40
0.5822109943
 40
0.6564733848
 40
0.7236551022
 40
0.7836024252
 40
0.8361870926
 40
0.8813216783
 40
0.9189771115
 40
0.9492054351
 40
0.9616070884
 40
0.972270291
 40
1.0
 40
1.0
 40
1.0
 40
1.0
 10
3.4472544136
 20
2.5769648173
 30
0.0
 10
3.4470419204
 20
2.5770961634
 30
0.0
 10
3.4466415674
 20
2.5773472337
 30
0.0
 10
3.4460835049
 20
2.5777103508
 30
0.0
 10
3.4456695295
 20
2.5779924227
 30
0.0
 10
3.4453808446
 20
2.5781989953
 30
0.0
 10
3.4451959996
 20
2.5783363819
 30
0.0
 10
3.4450338034
 20
2.5784626047
 30
0.0
 10
3.444894672
 20
2.578577333
 30
0.0
 10
3.4447789385
 20
2.5786801715
 30
0.0
 10
3.444686796
 20
2.5787710209
 30
0.0
 10
3.4446263289
 20
2.5788399947
 30
0.0
 10
3.4445906758
 20
2.5788900124
 30
0.0
 10
3.4445615374
 20
2.5789385173
 30
0.0
 10
3.4445441641
 20
2.5789896078
 30
0.0
 10
3.4445590317
 20
2.5790176156
 30
0.0
  0
SPLINE
  5
452
100
AcDbEntity
  8
0
100
AcDbSpline
 62
7
  6
CONTINUOUS
 70
0
 71
3
 72
21
 73
17
 74
0
 42
0.0000001
 43
0.0000001
 44
0.0000000001
 40
0.0
 40
0.0
 40
0.0
 40
0.0
 40
0.2177857819
 40
0.411964577
 40
0.5804359367
 40
0.7215041121
 40
0.7813270658
 40
0.8338351187
 40
0.8789482861
 40
0.9166484321
 40
0.9470044496
 40
0.9702871775
 40
0.9794897923
 40
0.9872769713
 40
0.9939542564
 40
1.0
 40
1.0
 40
1.0
 40
1.0
 10
4.1832014408
 20
2.5780628008
 30
0.0
 10
4.1834114226
 20
2.5781955853
 30
0.0
 10
4.1838069059
 20
2.5784494994
 30
0.0
 10
4.1843577387
 20
2.5788170303
 30
0.0
 10
4.1848284113
 20
2.5791467581
 30
0.0
 10
4.1851661207
 20
2.5793989432
 30
0.0
 10
4.1853913442
 20
2.5795801987
 30
0.0
 10
4.1855278699
 20
2.5796969598
 30
0.0
 10
4.1856412005
 20
2.5798018362
 30
0.0
 10
4.185731199
 20
2.5798945573
 30
0.0
 10
4.1857976786
 20
2.5799748911
 30
0.0
 10
4.1858365957
 20
2.5800356266
 30
0.0
 10
4.1858540316
 20
2.5800782841
 30
0.0
 10
4.1858600473
 20
2.5801047763
 30
0.0
 10
4.1858599096
 20
2.5801284422
 30
0.0
 10
4.1858552779
 20
2.5801425297
 30
0.0
 10
4.1858520068
 20
2.5801486014
 30
0.0
  0
SPLINE
  5
453
100
AcDbEntity
  8
0
100
AcDbSpline
 62
7
  6
CONTINUOUS
 70
0
 71
3
 72
17
 73
13
 74
0
 42
0.0000001
 43
0.0000001
 44
0.0000000001
 40
0.0
 40
0.0
 40
0.0
 40
0.0
 40
0.1818815868
 40
0.3486885719
 40
0.4987347356
 40
0.6309265081
 40
0.7450077481
 40
0.8419948192
 40
0.8850091823
 40
0.9251059751
 40
0.963109275
 40
1.0
 40
1.0
 40
1.0
 40
1.0
 10
4.1837615714
 20
2.4013244028
 30
0.0
 10
4.1840148367
 20
2.4010959799
 30
0.0
 10
4.1844887595
 20
2.4006448605
 30
0.0
 10
4.1851234053
 20
2.3999569152
 30
0.0
 10
4.1856448294
 20
2.3992944378
 30
0.0
 10
4.1860457098
 20
2.3986667445
 30
0.0
 10
4.1863205472
 20
2.3980824358
 30
0.0
 10
4.1864456507
 20
2.3976184079
 30
0.0
 10
4.1864694054
 20
2.3972805286
 30
0.0
 10
4.1864520552
 20
2.3970531327
 30
0.0
 10
4.186399967
 20
2.3968428145
 30
0.0
 10
4.186341675
 20
2.3967139995
 30
0.0
 10
4.1863073628
 20
2.3966539328
 30
0.0
  0
SPLINE
  5
454
100
AcDbEntity
  8
0
100
AcDbSpline
 62
7
  6
CONTINUOUS
 70
0
 71
3
 72
22
 73
18
 74
0
 42
0.0000001
 43
0.0000001
 44
0.0000000001
 40
0.0
 40
0.0
 40
0.0
 40
0.0
 40
0.2145915063
 40
0.4079627187
 40
0.5772165385
 40
0.65200622
 40
0.7198710203
 40
0.7805728486
 40
0.8339195028
 40
0.8797546397
 40
0.9179920249
 40
0.9486284522
 40
0.9718453691
 40
0.9808480371
 40
0.9883050951
 40
0.994517732
 40
1.0
 40
1.0
 40
1.0
 40
1.0
 10
4.0772250296
 20
2.2188536977
 30
0.0
 10
4.0775192787
 20
2.2187011472
 30
0.0
 10
4.0780806385
 20
2.2184148754
 30
0.0
 10
4.0788815798
 20
2.2180232254
 30
0.0
 10
4.079494651
 20
2.2177391717
 30
0.0
 10
4.0799361763
 20
2.2175464085
 30
0.0
 10
4.080226182
 20
2.2174257387
 30
0.0
 10
4.0804878471
 20
2.2173233217
 30
0.0
 10
4.0807201737
 20
2.2172394931
 30
0.0
 10
4.0809222831
 20
2.2171745376
 30
0.0
 10
4.0810935069
 20
2.2171284887
 30
0.0
 10
4.08123323
 20
2.2171014864
 30
0.0
 10
4.0813305301
 20
2.2170936371
 30
0.0
 10
4.0813917245
 20
2.2170993218
 30
0.0
 10
4.0814258214
 20
2.2171081928
 30
0.0
 10
4.081452263
 20
2.2171222976
 30
0.0
 10
4.0814647143
 20
2.2171360654
 30
0.0
 10
4.0814690036
 20
2.2171433661
 30
0.0
  0
SPLINE
  5
455
100
AcDbEntity
  8
0
100
AcDbSpline
 62
7
  6
CONTINUOUS
 70
0
 71
3
 72
18
 73
14
 74
0
 42
0.0000001
 43
0.0000001
 44
0.0000000001
 40
0.0
 40
0.0
 40
0.0
 40
0.0
 40
0.1915786998
 40
0.3675222662
 40
0.5253813778
 40
0.6631172289
 40
0.7239597887
 40
0.7792736168
 40
0.8289983425
 40
0.8731637111
 40
0.9119104094
 40
0.9455647694
 40
1.0
 40
1.0
 40
1.0
 40
1.0
 10
3.9226949733
 20
2.1299870467
 30
0.0
 10
3.9226523564
 20
2.1296329724
 30
0.0
 10
3.9225597455
 20
2.1289549514
 30
0.0
 10
3.9223904244
 20
2.1279914125
 30
0.0
 10
3.9221986907
 20
2.1271344802
 30
0.0
 10
3.922016309
 20
2.1264958881
 30
0.0
 10
3.9218585461
 20
2.1260502101
 30
0.0
 10
3.9217415335
 20
2.1257642989
 30
0.0
 10
3.9216212886
 20
2.1255136798
 30
0.0
 10
3.9214984221
 20
2.1252993037
 30
0.0
 10
3.9213727794
 20
2.1251215099
 30
0.0
 10
3.9212144327
 20
2.1249469444
 30
0.0
 10
3.9210735352
 20
2.1248501198
 30
0.0
 10
3.9209767366
 20
2.1248201468
 30
0.0
  0
SPLINE
  5
456
100
AcDbEntity
  8
0
100
AcDbSpline
 62
7
  6
CONTINUOUS
 70
0
 71
3
 72
15
 73
11
 74
0
 42
0.0000001
 43
0.0000001
 44
0.0000000001
 40
0.0
 40
0.0
 40
0.0
 40
0.0
 40
0.1228904085
 40
0.2464943772
 40
0.3707862623
 40
0.4957355835
 40
0.6212569648
 40
0.7472329407
 40
0.8735397999
 40
1.0
 40
1.0
 40
1.0
 40
1.0
 10
4.8674075958
 20
5.6806499319
 30
0.0
 10
4.8671780939
 20
5.6803344151
 30
0.0
 10
4.866678341
 20
5.6797292148
 30
0.0
 10
4.8658226659
 20
5.6789168357
 30
0.0
 10
4.8648707541
 20
5.678208474
 30
0.0
 10
4.863836666
 20
5.6776144658
 30
0.0
 10
4.8627353205
 20
5.6771433868
 30
0.0
 10
4.8615826492
 20
5.6768019333
 30
0.0
 10
4.8603955465
 20
5.6765951235
 30
0.0
 10
4.8595922896
 20
5.6765489364
 30
0.0
 10
4.8591907998
 20
5.6765489364
 30
0.0
  0
SPLINE
  5
457
100
AcDbEntity
  8
0
100
AcDbSpline
 62
7
  6
CONTINUOUS
 70
0
 71
3
 72
21
 73
17
 74
0
 42
0.0000001
 43
0.0000001
 44
0.0000000001
 40
0.0
 40
0.0
 40
0.0
 40
0.0
 40
0.0099759431
 40
0.0203417529
 40
0.0434788201
 40
0.0714654513
 40
0.1053693892
 40
0.1457197094
 40
0.1927298894
 40
0.2464461133
 40
0.3067919613
 40
0.3736221395
 40
0.4467232223
 40
0.6106586482
 40
0.7960921565
 40
1.0
 40
1.0
 40
1.0
 40
1.0
 10
4.33593106
 20
6.2949979894
 30
0.0
 10
4.3359402314
 20
6.2949821041
 30
0.0
 10
4.3359556271
 20
6.2949476878
 30
0.0
 10
4.3359734357
 20
6.2948692974
 30
0.0
 10
4.3359678515
 20
6.2947544398
 30
0.0
 10
4.3359224827
 20
6.2946039335
 30
0.0
 10
4.3358399559
 20
6.2944343897
 30
0.0
 10
4.335720302
 20
6.2942458698
 30
0.0
 10
4.3355638732
 20
6.2940386812
 30
0.0
 10
4.3353711075
 20
6.2938136514
 30
0.0
 10
4.3351427596
 20
6.2935716771
 30
0.0
 10
4.3348797408
 20
6.2933138306
 30
0.0
 10
4.3344682997
 20
6.2929357184
 30
0.0
 10
4.3338745822
 20
6.2924342924
 30
0.0
 10
4.3330713423
 20
6.2918097081
 30
0.0
 10
4.3324919203
 20
6.2913890574
 30
0.0
 10
4.3321855775
 20
6.291172903
 30
0.0
  0
SPLINE
  5
458
100
AcDbEntity
  8
0
100
AcDbSpline
 62
7
  6
CONTINUOUS
 70
0
 71
3
 72
21
 73
17
 74
0
 42
0.0000001
 43
0.0000001
 44
0.0000000001
 40
0.0
 40
0.0
 40
0.0
 40
0.0
 40
0.0099759426
 40
0.0203417521
 40
0.0434788188
 40
0.0714654497
 40
0.1053693874
 40
0.1457197076
 40
0.1927298877
 40
0.2464461117
 40
0.3067919597
 40
0.3736221381
 40
0.4467232211
 40
0.6106586474
 40
0.7960921561
 40
1.0
 40
1.0
 40
1.0
 40
1.0
 10
4.1859998988
 20
6.5546863783
 30
0.0
 10
4.1859907275
 20
6.5547022635
 30
0.0
 10
4.1859686199
 20
6.5547328047
 30
0.0
 10
4.1859096361
 20
6.5547874227
 30
0.0
 10
4.1858073744
 20
6.5548400154
 30
0.0
 10
4.1856543477
 20
6.554875978
 30
0.0
 10
4.1854662551
 20
6.5548892796
 30
0.0
 10
4.1852431651
 20
6.5548799162
 30
0.0
 10
4.1849855202
 20
6.5548480392
 30
0.0
 10
4.1846942558
 20
6.5547936141
 30
0.0
 10
4.1843705259
 20
6.5547168462
 30
0.0
 10
4.1840157149
 20
6.5546179885
 30
0.0
 10
4.1834825396
 20
6.5544507261
 30
0.0
 10
4.1827514332
 20
6.5541872647
 30
0.0
 10
4.1818089073
 20
6.5538039307
 30
0.0
 10
4.1811549021
 20
6.5535124619
 30
0.0
 10
4.1808145356
 20
6.5533552384
 30
0.0
  0
SPLINE
  5
459
100
AcDbEntity
  8
0
100
AcDbSpline
 62
7
  6
CONTINUOUS
 70
0
 71
3
 72
21
 73
17
 74
0
 42
0.0000001
 43
0.0000001
 44
0.0000000001
 40
0.0
 40
0.0
 40
0.0
 40
0.0
 40
0.0099759431
 40
0.0203417529
 40
0.0434788202
 40
0.0714654514
 40
0.1053693893
 40
0.1457197095
 40
0.1927298895
 40
0.2464461134
 40
0.3067919613
 40
0.3736221396
 40
0.4467232224
 40
0.6106586482
 40
0.7960921565
 40
1.0
 40
1.0
 40
1.0
 40
1.0
 10
3.9654391537
 20
6.6820271838
 30
0.0
 10
3.9654574964
 20
6.6820271838
 30
0.0
 10
3.9654949996
 20
6.6820233087
 30
0.0
 10
3.9655717921
 20
6.6819995362
 30
0.0
 10
3.9656684696
 20
6.6819372714
 30
0.0
 10
3.9657761275
 20
6.6818227277
 30
0.0
 10
3.9658816933
 20
6.6816664855
 30
0.0
 10
3.9659851294
 20
6.6814686022
 30
0.0
 10
3.9660863455
 20
6.6812295366
 30
0.0
 10
3.9661848442
 20
6.6809500817
 30
0.0
 10
3.9662802262
 20
6.6806313395
 30
0.0
 10
3.9663720184
 20
6.6802746352
 30
0.0
 10
3.9664937525
 20
6.6797292607
 30
0.0
 10
3.9666311416
 20
6.6789643733
 30
0.0
 10
3.9667704275
 20
6.677956455
 30
0.0
 10
3.9668450106
 20
6.6772443354
 30
0.0
 10
3.9668790344
 20
6.6768709577
 30
0.0
  0
SPLINE
  5
45A
100
AcDbEntity
  8
0
100
AcDbSpline
 62
7
  6
CONTINUOUS
 70
0
 71
3
 72
21
 73
17
 74
0
 42
0.0000001
 43
0.0000001
 44
0.0000000001
 40
0.0
 40
0.0
 40
0.0
 40
0.0
 40
0.0099759436
 40
0.020341754
 40
0.0434788223
 40
0.0714654543
 40
0.1053693928
 40
0.1457197134
 40
0.1927298937
 40
0.2464461176
 40
0.3067919655
 40
0.3736221436
 40
0.4467232261
 40
0.610658651
 40
0.796092158
 40
1.0
 40
1.0
 40
1.0
 40
1.0
 10
3.6655768313
 20
6.6820271838
 30
0.0
 10
3.6655584886
 20
6.6820271838
 30
0.0
 10
3.6655209853
 20
6.6820233087
 30
0.0
 10
3.6654441929
 20
6.6819995362
 30
0.0
 10
3.6653475154
 20
6.6819372714
 30
0.0
 10
3.6652398575
 20
6.6818227277
 30
0.0
 10
3.6651342917
 20
6.6816664855
 30
0.0
 10
3.6650308556
 20
6.6814686022
 30
0.0
 10
3.6649296394
 20
6.6812295366
 30
0.0
 10
3.6648311407
 20
6.6809500817
 30
0.0
 10
3.6647357587
 20
6.6806313395
 30
0.0
 10
3.6646439665
 20
6.6802746352
 30
0.0
 10
3.6645222324
 20
6.6797292607
 30
0.0
 10
3.6643848434
 20
6.6789643733
 30
0.0
 10
3.6642455575
 20
6.677956455
 30
0.0
 10
3.6641709743
 20
6.6772443354
 30
0.0
 10
3.6641369506
 20
6.6768709577
 30
0.0
  0
LINE
  5
45B
100
AcDbEntity
  8
0
100
AcDbLine
 62
7
  6
CONTINUOUS
 10
3.5826667948
 20
2.4024053789
 11
3.5777786414
 21
2.3998691962
  0
LINE
  5
45C
100
AcDbEntity
  8
0
100
AcDbLine
 62
7
  6
CONTINUOUS
 10
3.505459447
 20
2.7122364704
 11
3.5018111495
 21
2.7145721018
  0
SPLINE
  5
45D
100
AcDbEntity
  8
0
100
AcDbSpline
 62
7
  6
CONTINUOUS
 70
0
 71
3
 72
17
 73
13
 74
0
 42
0.0000001
 43
0.0000001
 44
0.0000000001
 40
0.0
 40
0.0
 40
0.0
 40
0.0
 40
0.1751944135
 40
0.338907321
 40
0.489156627
 40
0.624320729
 40
0.7431548451
 40
0.7962334782
 40
0.8450401643
 40
0.8896327678
 40
0.9301585
 40
1.0
 40
1.0
 40
1.0
 40
1.0
 10
4.125556538
 20
2.5345937494
 30
0.0
 10
4.1258296075
 20
2.534370191
 30
0.0
 10
4.1263495645
 20
2.5339274321
 30
0.0
 10
4.1270707561
 20
2.5332554927
 30
0.0
 10
4.1277001456
 20
2.5326048804
 30
0.0
 10
4.1282289726
 20
2.5319848862
 30
0.0
 10
4.1285928908
 20
2.531483466
 30
0.0
 10
4.1288240408
 20
2.5311033723
 30
0.0
 10
4.1289614471
 20
2.5308420439
 30
0.0
 10
4.1290691744
 20
2.5305942498
 30
0.0
 10
4.1291676356
 20
2.5302980716
 30
0.0
 10
4.1292053731
 20
2.5300754696
 30
0.0
 10
4.1292048354
 20
2.5299347826
 30
0.0
  0
SPLINE
  5
45E
100
AcDbEntity
  8
0
100
AcDbSpline
 62
7
  6
CONTINUOUS
 70
0
 71
3
 72
17
 73
13
 74
0
 42
0.0000001
 43
0.0000001
 44
0.0000000001
 40
0.0
 40
0.0
 40
0.0
 40
0.0
 40
0.1757509342
 40
0.3408919417
 40
0.4931283273
 40
0.630429611
 40
0.7509942446
 40
0.853351787
 40
0.8973642361
 40
0.9364853138
 40
0.9706846655
 40
1.0
 40
1.0
 40
1.0
 40
1.0
 10
3.8927153402
 20
2.3135840184
 30
0.0
 10
3.8926813808
 20
2.3132228469
 30
0.0
 10
3.8926086387
 20
2.3125229268
 30
0.0
 10
3.8924808616
 20
2.3115130265
 30
0.0
 10
3.8923391818
 20
2.3105851698
 30
0.0
 10
3.8921858072
 20
2.309752516
 30
0.0
 10
3.8920230137
 20
2.3090268299
 30
0.0
 10
3.8918753533
 20
2.308495574
 30
0.0
 10
3.891751575
 20
2.3081331559
 30
0.0
 10
3.8916625887
 20
2.3079077818
 30
0.0
 10
3.8915730768
 20
2.3077156258
 30
0.0
 10
3.8915083855
 20
2.3076013193
 30
0.0
 10
3.8914754844
 20
2.3075505366
 30
0.0
  0
SPLINE
  5
45F
100
AcDbEntity
  8
0
100
AcDbSpline
 62
7
  6
CONTINUOUS
 70
0
 71
3
 72
21
 73
17
 74
0
 42
0.0000001
 43
0.0000001
 44
0.0000000001
 40
0.0
 40
0.0
 40
0.0
 40
0.0
 40
0.0099759431
 40
0.0203417529
 40
0.0434788201
 40
0.0714654513
 40
0.1053693892
 40
0.1457197094
 40
0.1927298894
 40
0.2464461133
 40
0.3067919613
 40
0.3736221395
 40
0.4467232223
 40
0.6106586482
 40
0.7960921565
 40
1.0
 40
1.0
 40
1.0
 40
1.0
 10
3.4450160861
 20
6.5546863783
 30
0.0
 10
3.4450252575
 20
6.5547022635
 30
0.0
 10
3.4450473651
 20
6.5547328047
 30
0.0
 10
3.4451063489
 20
6.5547874227
 30
0.0
 10
3.4452086105
 20
6.5548400154
 30
0.0
 10
3.4453616372
 20
6.554875978
 30
0.0
 10
3.4455497299
 20
6.5548892796
 30
0.0
 10
3.4457728199
 20
6.5548799162
 30
0.0
 10
3.4460304648
 20
6.5548480392
 30
0.0
 10
3.4463217292
 20
6.5547936141
 30
0.0
 10
3.4466454591
 20
6.5547168462
 30
0.0
 10
3.4470002701
 20
6.5546179885
 30
0.0
 10
3.4475334454
 20
6.5544507261
 30
0.0
 10
3.4482645518
 20
6.5541872647
 30
0.0
 10
3.4492070776
 20
6.5538039307
 30
0.0
 10
3.4498610829
 20
6.5535124619
 30
0.0
 10
3.4502014494
 20
6.5533552384
 30
0.0
  0
SPLINE
  5
460
100
AcDbEntity
  8
0
100
AcDbSpline
 62
7
  6
CONTINUOUS
 70
0
 71
3
 72
21
 73
17
 74
0
 42
0.0000001
 43
0.0000001
 44
0.0000000001
 40
0.0
 40
0.0
 40
0.0
 40
0.0
 40
0.009975943
 40
0.0203417528
 40
0.0434788201
 40
0.0714654515
 40
0.1053693894
 40
0.1457197098
 40
0.1927298899
 40
0.2464461139
 40
0.3067919619
 40
0.3736221402
 40
0.446723223
 40
0.6106586487
 40
0.7960921568
 40
1.0
 40
1.0
 40
1.0
 40
1.0
 10
3.2950849249
 20
6.2949979894
 30
0.0
 10
3.2950757536
 20
6.2949821041
 30
0.0
 10
3.2950603579
 20
6.2949476878
 30
0.0
 10
3.2950425493
 20
6.2948692974
 30
0.0
 10
3.2950481334
 20
6.2947544398
 30
0.0
 10
3.2950935023
 20
6.2946039335
 30
0.0
 10
3.2951760291
 20
6.2944343897
 30
0.0
 10
3.295295683
 20
6.2942458698
 30
0.0
 10
3.2954521118
 20
6.2940386812
 30
0.0
 10
3.2956448775
 20
6.2938136514
 30
0.0
 10
3.2958732254
 20
6.293571677
 30
0.0
 10
3.2961362442
 20
6.2933138306
 30
0.0
 10
3.2965476853
 20
6.2929357184
 30
0.0
 10
3.2971414028
 20
6.2924342924
 30
0.0
 10
3.2979446427
 20
6.2918097081
 30
0.0
 10
3.2985240647
 20
6.2913890574
 30
0.0
 10
3.2988304075
 20
6.291172903
 30
0.0
  0
SPLINE
  5
461
100
AcDbEntity
  8
0
100
AcDbSpline
 62
7
  6
CONTINUOUS
 70
0
 71
3
 72
18
 73
14
 74
0
 42
0.0000001
 43
0.0000001
 44
0.0000000001
 40
0.0
 40
0.0
 40
0.0
 40
0.0
 40
0.1915787009
 40
0.3675222684
 40
0.5253813811
 40
0.663117233
 40
0.7239597931
 40
0.7792736215
 40
0.8289983472
 40
0.8731637157
 40
0.9119104135
 40
0.9455647727
 40
1.0
 40
1.0
 40
1.0
 40
1.0
 10
3.7083210116
 20
2.1299870467
 30
0.0
 10
3.7083636286
 20
2.1296329724
 30
0.0
 10
3.7084562395
 20
2.1289549514
 30
0.0
 10
3.7086255606
 20
2.1279914125
 30
0.0
 10
3.7088172943
 20
2.1271344802
 30
0.0
 10
3.708999676
 20
2.1264958881
 30
0.0
 10
3.7091574389
 20
2.1260502101
 30
0.0
 10
3.7092744515
 20
2.1257642989
 30
0.0
 10
3.7093946964
 20
2.1255136798
 30
0.0
 10
3.7095175629
 20
2.1252993037
 30
0.0
 10
3.7096432056
 20
2.1251215099
 30
0.0
 10
3.7098015523
 20
2.1249469444
 30
0.0
 10
3.7099424498
 20
2.1248501198
 30
0.0
 10
3.7100392484
 20
2.1248201468
 30
0.0
  0
SPLINE
  5
462
100
AcDbEntity
  8
0
100
AcDbSpline
 62
7
  6
CONTINUOUS
 70
0
 71
3
 72
22
 73
18
 74
0
 42
0.0000001
 43
0.0000001
 44
0.0000000001
 40
0.0
 40
0.0
 40
0.0
 40
0.0
 40
0.2145914431
 40
0.4079626004
 40
0.577216376
 40
0.6520060405
 40
0.7198708277
 40
0.7805726474
 40
0.833919298
 40
0.8797544375
 40
0.9179918327
 40
0.9486282798
 40
0.9718452302
 40
0.9808479224
 40
0.9883050112
 40
0.9945176866
 40
1.0
 40
1.0
 40
1.0
 40
1.0
 10
3.5537909554
 20
2.2188536977
 30
0.0
 10
3.5534967066
 20
2.2187011468
 30
0.0
 10
3.5529353472
 20
2.2184148742
 30
0.0
 10
3.5521344063
 20
2.2180232235
 30
0.0
 10
3.5515213352
 20
2.2177391695
 30
0.0
 10
3.55107981
 20
2.2175464063
 30
0.0
 10
3.5507898043
 20
2.2174257364
 30
0.0
 10
3.5505281391
 20
2.2173233196
 30
0.0
 10
3.5502958124
 20
2.2172394912
 30
0.0
 10
3.5500937028
 20
2.2171745358
 30
0.0
 10
3.5499224789
 20
2.2171284873
 30
0.0
 10
3.5497827556
 20
2.2171014852
 30
0.0
 10
3.5496854554
 20
2.2170936362
 30
0.0
 10
3.5496242609
 20
2.2170993212
 30
0.0
 10
3.5495901638
 20
2.2171081924
 30
0.0
 10
3.5495637221
 20
2.2171222973
 30
0.0
 10
3.5495512708
 20
2.2171360652
 30
0.0
 10
3.5495469814
 20
2.217143366
 30
0.0
  0
SPLINE
  5
463
100
AcDbEntity
  8
0
100
AcDbSpline
 62
7
  6
CONTINUOUS
 70
0
 71
3
 72
17
 73
13
 74
0
 42
0.0000001
 43
0.0000001
 44
0.0000000001
 40
0.0
 40
0.0
 40
0.0
 40
0.0
 40
0.1818820027
 40
0.3486892628
 40
0.4987355414
 40
0.6309272627
 40
0.7450083031
 40
0.841995084
 40
0.8850093067
 40
0.925105991
 40
0.9631092409
 40
1.0
 40
1.0
 40
1.0
 40
1.0
 10
3.4472544136
 20
2.4013244028
 30
0.0
 10
3.4470011468
 20
2.4010959786
 30
0.0
 10
3.4465272215
 20
2.4006448566
 30
0.0
 10
3.4458925728
 20
2.3999569074
 30
0.0
 10
3.4453711474
 20
2.3992944265
 30
0.0
 10
3.444970267
 20
2.3986667302
 30
0.0
 10
3.4446954314
 20
2.3980824192
 30
0.0
 10
3.4445703308
 20
2.3976183898
 30
0.0
 10
3.4445465795
 20
2.3972805101
 30
0.0
 10
3.4445639326
 20
2.3970531141
 30
0.0
 10
3.4446160242
 20
2.3968427962
 30
0.0
 10
3.4446743187
 20
2.3967139818
 30
0.0
 10
3.4447086321
 20
2.3966539154
 30
0.0
  0
SPLINE
  5
464
100
AcDbEntity
  8
0
100
AcDbSpline
 62
7
  6
CONTINUOUS
 70
0
 71
3
 72
21
 73
17
 74
0
 42
0.0000001
 43
0.0000001
 44
0.0000000001
 40
0.0
 40
0.0
 40
0.0
 40
0.0
 40
0.2177857182
 40
0.4119644578
 40
0.5804357729
 40
0.721503917
 40
0.7813268614
 40
0.8338349102
 40
0.8789480796
 40
0.9166482352
 40
0.9470042724
 40
0.9702870349
 40
0.9794896749
 40
0.987276886
 40
0.9939542108
 40
1.0
 40
1.0
 40
1.0
 40
1.0
 10
3.4478145442
 20
2.5780628008
 30
0.0
 10
3.4476045622
 20
2.5781955849
 30
0.0
 10
3.4472090785
 20
2.5784494984
 30
0.0
 10
3.4466582453
 20
2.5788170286
 30
0.0
 10
3.4461875725
 20
2.5791467559
 30
0.0
 10
3.4458498631
 20
2.5793989409
 30
0.0
 10
3.4456246395
 20
2.5795801964
 30
0.0
 10
3.4454881138
 20
2.5796969576
 30
0.0
 10
3.4453747834
 20
2.5798018341
 30
0.0
 10
3.4452847849
 20
2.5798945554
 30
0.0
 10
3.4452183054
 20
2.5799748894
 30
0.0
 10
3.4451793884
 20
2.5800356251
 30
0.0
 10
3.4451619526
 20
2.5800782827
 30
0.0
 10
3.445155937
 20
2.5801047751
 30
0.0
 10
3.4451560748
 20
2.5801284411
 30
0.0
 10
3.4451607065
 20
2.5801425287
 30
0.0
 10
3.4451639776
 20
2.5801486005
 30
0.0
  0
SPLINE
  5
465
100
AcDbEntity
  8
0
100
AcDbSpline
 62
7
  6
CONTINUOUS
 70
0
 71
3
 72
20
 73
16
 74
0
 42
0.0000001
 43
0.0000001
 44
0.0000000001
 40
0.0
 40
0.0
 40
0.0
 40
0.0
 40
0.218458281
 40
0.4132384472
 40
0.5822108846
 40
0.6564732701
 40
0.7236549869
 40
0.7836023134
 40
0.8361869885
 40
0.8813215863
 40
0.9189770356
 40
0.9492053788
 40
0.9616070429
 40
0.9722702566
 40
1.0
 40
1.0
 40
1.0
 40
1.0
 10
4.1837615714
 20
2.5769648173
 30
0.0
 10
4.1839740645
 20
2.5770961634
 30
0.0
 10
4.1843744174
 20
2.5773472336
 30
0.0
 10
4.1849324798
 20
2.5777103506
 30
0.0
 10
4.1853464551
 20
2.5779924225
 30
0.0
 10
4.18563514
 20
2.578198995
 30
0.0
 10
4.1858199849
 20
2.5783363816
 30
0.0
 10
4.1859821812
 20
2.5784626044
 30
0.0
 10
4.1861213127
 20
2.5785773327
 30
0.0
 10
4.1862370461
 20
2.5786801711
 30
0.0
 10
4.1863291887
 20
2.5787710206
 30
0.0
 10
4.1863896558
 20
2.5788399944
 30
0.0
 10
4.186425309
 20
2.5788900121
 30
0.0
 10
4.1864544475
 20
2.5789385171
 30
0.0
 10
4.1864718209
 20
2.5789896075
 30
0.0
 10
4.1864569534
 20
2.5790176154
 30
0.0
  0
SPLINE
  5
466
100
AcDbEntity
  8
0
100
AcDbSpline
 62
7
  6
CONTINUOUS
 70
0
 71
3
 72
15
 73
11
 74
0
 42
0.0000001
 43
0.0000001
 44
0.0000000001
 40
0.0
 40
0.0
 40
0.0
 40
0.0
 40
0.1670701396
 40
0.3234711092
 40
0.4680955982
 40
0.6001562704
 40
0.7191370867
 40
0.8249582794
 40
0.9181297219
 40
1.0
 40
1.0
 40
1.0
 40
1.0
 10
4.1832014408
 20
2.4002982041
 30
0.0
 10
4.1834039525
 20
2.4001120839
 30
0.0
 10
4.1837882019
 20
2.3997430363
 30
0.0
 10
4.1843163687
 20
2.3991813646
 30
0.0
 10
4.1847737717
 20
2.3986338022
 30
0.0
 10
4.1851560928
 20
2.3981056404
 30
0.0
 10
4.1854598145
 20
2.3976017641
 30
0.0
 10
4.1856821616
 20
2.3971264573
 30
0.0
 10
4.1858209711
 20
2.396683759
 30
0.0
 10
4.1858583399
 20
2.3963956598
 30
0.0
 10
4.1858596518
 20
2.3962608827
 30
0.0
  0
LINE
  5
467
100
AcDbEntity
  8
0
100
AcDbLine
 62
7
  6
CONTINUOUS
 10
4.1858596518
 20
2.3962608827
 11
4.1856959691
 21
2.3955926152
  0
SPLINE
  5
468
100
AcDbEntity
  8
0
100
AcDbSpline
 62
7
  6
CONTINUOUS
 70
0
 71
3
 72
23
 73
19
 74
0
 42
0.0000001
 43
0.0000001
 44
0.0000000001
 40
0.0
 40
0.0
 40
0.0
 40
0.0
 40
0.214829599
 40
0.4084382089
 40
0.5779034884
 40
0.6527809513
 40
0.720717201
 40
0.7814704093
 40
0.8348441556
 40
0.8806767259
 40
0.9188746559
 40
0.9494233767
 40
0.9618764565
 40
0.9725036286
 40
0.981391643
 40
0.9887017395
 40
0.9947306035
 40
1.0
 40
1.0
 40
1.0
 40
1.0
 10
4.0765745905
 20
2.2178072539
 30
0.0
 10
4.0768687353
 20
2.2176513454
 30
0.0
 10
4.0774298898
 20
2.2173585215
 30
0.0
 10
4.0782304426
 20
2.2169570417
 30
0.0
 10
4.078843145
 20
2.216665002
 30
0.0
 10
4.0792843404
 20
2.2164661466
 30
0.0
 10
4.0795740668
 20
2.2163413183
 30
0.0
 10
4.0798354167
 20
2.2162349719
 30
0.0
 10
4.080067376
 20
2.2161474794
 30
0.0
 10
4.0802690901
 20
2.2160790891
 30
0.0
 10
4.0804397896
 20
2.216030006
 30
0.0
 10
4.0805629946
 20
2.216003426
 30
0.0
 10
4.0806455458
 20
2.215993322
 30
0.0
 10
4.0806951076
 20
2.2159911938
 30
0.0
 10
4.0807367012
 20
2.2159939517
 30
0.0
 10
4.0807704758
 20
2.2160016877
 30
0.0
 10
4.0807966404
 20
2.2160147164
 30
0.0
 10
4.0808089583
 20
2.2160278854
 30
0.0
 10
4.0808131419
 20
2.216034898
 30
0.0
  0
SPLINE
  5
469
100
AcDbEntity
  8
0
100
AcDbSpline
 62
7
  6
CONTINUOUS
 70
0
 71
3
 72
19
 73
15
 74
0
 42
0.0000001
 43
0.0000001
 44
0.0000000001
 40
0.0
 40
0.0
 40
0.0
 40
0.0
 40
0.1912111308
 40
0.3668304385
 40
0.5244324572
 40
0.6620024313
 40
0.7228043411
 40
0.7781100158
 40
0.8278627799
 40
0.8720962776
 40
0.9109553411
 40
0.9447698823
 40
0.9741275645
 40
1.0
 40
1.0
 40
1.0
 40
1.0
 10
3.9214844037
 20
2.1299713994
 30
0.0
 10
3.921438745
 20
2.1296187299
 30
0.0
 10
3.9213402071
 20
2.1289434879
 30
0.0
 10
3.9211621137
 20
2.1279842502
 30
0.0
 10
3.9209621839
 20
2.1271314562
 30
0.0
 10
3.9207733179
 20
2.1264962843
 30
0.0
 10
3.9206107575
 20
2.1260532304
 30
0.0
 10
3.9204904722
 20
2.1257690235
 30
0.0
 10
3.9203672101
 20
2.125520012
 30
0.0
 10
3.9202414289
 20
2.1253070326
 30
0.0
 10
3.9201134732
 20
2.1251307488
 30
0.0
 10
3.9199834801
 20
2.1249916149
 30
0.0
 10
3.9198514438
 20
2.1248901858
 30
0.0
 10
3.9197571514
 20
2.1248463541
 30
0.0
 10
3.919711061
 20
2.1248325358
 30
0.0
  0
SPLINE
  5
46A
100
AcDbEntity
  8
0
100
AcDbSpline
 62
7
  6
CONTINUOUS
 70
0
 71
3
 72
49
 73
45
 74
0
 42
0.0000001
 43
0.0000001
 44
0.0000000001
 40
0.0
 40
0.0
 40
0.0
 40
0.0
 40
0.0000067012
 40
0.00003133
 40
0.000074035
 40
0.0001348733
 40
0.0003111459
 40
0.0005605269
 40
0.0008833449
 40
0.001279461
 40
0.001748449
 40
0.0022898779
 40
0.0035883317
 40
0.0051713687
 40
0.0070355292
 40
0.0091760451
 40
0.0115850571
 40
0.0142542637
 40
0.0203400852
 40
0.0273694788
 40
0.0352847814
 40
0.0440295542
 40
0.0535493186
 40
0.0637920432
 40
0.0747059867
 40
0.086241416
 40
0.09835141
 40
0.1241100975
 40
0.1516477312
 40
0.1806745956
 40
0.2109767888
 40
0.2424073927
 40
0.2748305741
 40
0.308122939
 40
0.3421720089
 40
0.3769070362
 40
0.4482134642
 40
0.5216876835
 40
0.5970775975
 40
0.6742446794
 40
0.7531160096
 40
0.8336735081
 40
0.9159497717
 40
1.0
 40
1.0
 40
1.0
 40
1.0
 10
5.3391220542
 20
6.0189071957
 30
0.0
 10
5.3391221964
 20
6.0189072269
 30
0.0
 10
5.3391208868
 20
6.0189077221
 30
0.0
 10
5.3391201324
 20
6.0189080752
 30
0.0
 10
5.3391170785
 20
6.0189091835
 30
0.0
 10
5.3391116411
 20
6.0189111571
 30
0.0
 10
5.3391014617
 20
6.0189147216
 30
0.0
 10
5.3390862026
 20
6.0189199991
 30
0.0
 10
5.3390662646
 20
6.0189268135
 30
0.0
 10
5.3390418523
 20
6.0189351032
 30
0.0
 10
5.3390129121
 20
6.0189448878
 30
0.0
 10
5.3389654026
 20
6.0189609057
 30
0.0
 10
5.3388949451
 20
6.0189845949
 30
0.0
 10
5.3387972519
 20
6.0190174055
 30
0.0
 10
5.3386822232
 20
6.0190560376
 30
0.0
 10
5.3385502064
 20
6.0191004253
 30
0.0
 10
5.3384016702
 20
6.0191505376
 30
0.0
 10
5.3381720661
 20
6.0192283708
 30
0.0
 10
5.3378477521
 20
6.0193393433
 30
0.0
 10
5.3374163282
 20
6.0194891689
 30
0.0
 10
5.3369311604
 20
6.0196602303
 30
0.0
 10
5.3363959422
 20
6.0198519573
 30
0.0
 10
5.3358142426
 20
6.020063776
 30
0.0
 10
5.3351895264
 20
6.0202951062
 30
0.0
 10
5.3345251694
 20
6.0205454057
 30
0.0
 10
5.3338244551
 20
6.0208141829
 30
0.0
 10
5.3328251987
 20
6.0212047231
 30
0.0
 10
5.3315075986
 20
6.0217352849
 30
0.0
 10
5.3298593014
 20
6.0224276302
 30
0.0
 10
5.3281324583
 20
6.0231871355
 30
0.0
 10
5.3263424613
 20
6.0240122933
 30
0.0
 10
5.3245008676
 20
6.0249009544
 30
0.0
 10
5.3226178635
 20
6.0258524359
 30
0.0
 10
5.3207032809
 20
6.0268666512
 30
0.0
 10
5.3187659069
 20
6.0279441596
 30
0.0
 10
5.316138536
 20
6.0294781071
 30
0.0
 10
5.3128359638
 20
6.0315519175
 30
0.0
 10
5.3089038835
 20
6.0342749289
 30
0.0
 10
5.3050049675
 20
6.0372600604
 30
0.0
 10
5.3011710516
 20
6.0405128849
 30
0.0
 10
5.2974322158
 20
6.0440406078
 30
0.0
 10
5.2938183696
 20
6.0478512425
 30
0.0
 10
5.2903610652
 20
6.0519528761
 30
0.0
 10
5.2882060692
 20
6.0548550958
 30
0.0
 10
5.2871656157
 20
6.0563547363
 30
0.0
  0
SPLINE
  5
46B
100
AcDbEntity
  8
0
100
AcDbSpline
 62
7
  6
CONTINUOUS
 70
0
 71
3
 72
21
 73
17
 74
0
 42
0.0000001
 43
0.0000001
 44
0.0000000001
 40
0.0
 40
0.0
 40
0.0
 40
0.0
 40
0.0099759431
 40
0.0203417529
 40
0.0434788201
 40
0.0714654513
 40
0.1053693892
 40
0.1457197094
 40
0.1927298894
 40
0.2464461133
 40
0.3067919613
 40
0.3736221395
 40
0.4467232223
 40
0.6106586482
 40
0.7960921565
 40
1.0
 40
1.0
 40
1.0
 40
1.0
 10
3.2950849249
 20
6.0403163783
 30
0.0
 10
3.2950757536
 20
6.0403322635
 30
0.0
 10
3.2950603579
 20
6.0403666798
 30
0.0
 10
3.2950425493
 20
6.0404450703
 30
0.0
 10
3.2950481334
 20
6.0405599279
 30
0.0
 10
3.2950935023
 20
6.0407104342
 30
0.0
 10
3.2951760291
 20
6.040879978
 30
0.0
 10
3.295295683
 20
6.0410684979
 30
0.0
 10
3.2954521118
 20
6.0412756864
 30
0.0
 10
3.2956448775
 20
6.0415007162
 30
0.0
 10
3.2958732254
 20
6.0417426906
 30
0.0
 10
3.2961362442
 20
6.0420005371
 30
0.0
 10
3.2965476853
 20
6.0423786492
 30
0.0
 10
3.2971414028
 20
6.0428800753
 30
0.0
 10
3.2979446427
 20
6.0435046596
 30
0.0
 10
3.2985240647
 20
6.0439253103
 30
0.0
 10
3.2988304075
 20
6.0441414646
 30
0.0
  0
SPLINE
  5
46C
100
AcDbEntity
  8
0
100
AcDbSpline
 62
7
  6
CONTINUOUS
 70
0
 71
3
 72
44
 73
40
 74
0
 42
0.0000001
 43
0.0000001
 44
0.0000000001
 40
0.0
 40
0.0
 40
0.0
 40
0.0
 40
0.0840660019
 40
0.1663571779
 40
0.2469330302
 40
0.3258226101
 40
0.4030029578
 40
0.4784027938
 40
0.5518901515
 40
0.6232143104
 40
0.6920031105
 40
0.725290275
 40
0.7577101237
 40
0.78914822
 40
0.8194626232
 40
0.8484894602
 40
0.8760081926
 40
0.9017364318
 40
0.9253649366
 40
0.9362879022
 40
0.9465505377
 40
0.9560944182
 40
0.9648604005
 40
0.972783704
 40
0.9797957858
 40
0.9858320265
 40
0.9884691704
 40
0.9908452391
 40
0.9929549131
 40
0.9947934641
 40
0.9963582883
 40
0.9976472593
 40
0.9986582519
 40
0.9990588432
 40
0.9993891367
 40
0.9996487829
 40
0.999837392
 40
0.9999545792
 40
1.0
 40
1.0
 40
1.0
 40
1.0
 10
5.2871656157
 20
6.2789596314
 30
0.0
 10
5.2882063665
 20
6.280459492
 30
0.0
 10
5.2903616088
 20
6.2833623671
 30
0.0
 10
5.2938195363
 20
6.2874649135
 30
0.0
 10
5.2974344614
 20
6.2912761111
 30
0.0
 10
5.3011745327
 20
6.2948041291
 30
0.0
 10
5.3050092126
 20
6.2980574677
 30
0.0
 10
5.3089086803
 20
6.3010431958
 30
0.0
 10
5.3128417752
 20
6.3037664311
 30
0.0
 10
5.3167717415
 20
6.3062332038
 30
0.0
 10
5.3200443651
 20
6.3080982113
 30
0.0
 10
5.3226252271
 20
6.3094659221
 30
0.0
 10
5.3245081221
 20
6.3104176104
 30
0.0
 10
5.3263502366
 20
6.3113060356
 30
0.0
 10
5.3281409581
 20
6.312130662
 30
0.0
 10
5.3298677571
 20
6.3128899124
 30
0.0
 10
5.3315148753
 20
6.3135823117
 30
0.0
 10
5.3330632203
 20
6.3142066545
 30
0.0
 10
5.3342838361
 20
6.3146797131
 30
0.0
 10
5.3351947549
 20
6.3150222426
 30
0.0
 10
5.3358208285
 20
6.3152532335
 30
0.0
 10
5.3364041649
 20
6.3154647037
 30
0.0
 10
5.3369407468
 20
6.3156560626
 30
0.0
 10
5.337426319
 20
6.3158267584
 30
0.0
 10
5.3378565115
 20
6.315976234
 30
0.0
 10
5.3381785357
 20
6.3160872601
 30
0.0
 10
5.3384055117
 20
6.3161650937
 30
0.0
 10
5.3385518793
 20
6.3162151208
 30
0.0
 10
5.3386818775
 20
6.3162594194
 30
0.0
 10
5.3387952315
 20
6.3162979434
 30
0.0
 10
5.3388917439
 20
6.3163306372
 30
0.0
 10
5.3389712722
 20
6.3163574507
 30
0.0
 10
5.339026878
 20
6.316376094
 30
0.0
 10
5.3390627776
 20
6.3163880018
 30
0.0
 10
5.3390832048
 20
6.3163947668
 30
0.0
 10
5.3390992875
 20
6.3163999167
 30
0.0
 10
5.3391109629
 20
6.31640387
 30
0.0
 10
5.3391182779
 20
6.3164057598
 30
0.0
 10
5.3391216325
 20
6.3164071729
 30
0.0
 10
5.3391226189
 20
6.3164071736
 30
0.0
  0
SPLINE
  5
46D
100
AcDbEntity
  8
0
100
AcDbSpline
 62
7
  6
CONTINUOUS
 70
0
 71
3
 72
15
 73
11
 74
0
 42
0.0000001
 43
0.0000001
 44
0.0000000001
 40
0.0
 40
0.0
 40
0.0
 40
0.0
 40
0.1265337321
 40
0.2528725229
 40
0.3788453252
 40
0.5043122651
 40
0.6291823917
 40
0.7534110589
 40
0.8770043983
 40
1.0
 40
1.0
 40
1.0
 40
1.0
 10
5.2261885737
 20
6.1676571838
 30
0.0
 10
5.2261885875
 20
6.1696228406
 30
0.0
 10
5.2263482172
 20
6.1735529795
 30
0.0
 10
5.2270617954
 20
6.1794008804
 30
0.0
 10
5.2282370087
 20
6.185157033
 30
0.0
 10
5.2298536228
 20
6.1907809966
 30
0.0
 10
5.231886773
 20
6.1962388928
 30
0.0
 10
5.2343082017
 20
6.2015036223
 30
0.0
 10
5.2370884018
 20
6.2065541011
 30
0.0
 10
5.2391668048
 20
6.2097760885
 30
0.0
 10
5.2402559064
 20
6.211345995
 30
0.0
  0
SPLINE
  5
46E
100
AcDbEntity
  8
0
100
AcDbSpline
 62
7
  6
CONTINUOUS
 70
0
 71
3
 72
21
 73
17
 74
0
 42
0.0000001
 43
0.0000001
 44
0.0000000001
 40
0.0
 40
0.0
 40
0.0
 40
0.0
 40
0.0099759426
 40
0.0203417521
 40
0.0434788188
 40
0.0714654497
 40
0.1053693874
 40
0.1457197076
 40
0.1927298877
 40
0.2464461117
 40
0.3067919597
 40
0.3736221381
 40
0.4467232211
 40
0.6106586474
 40
0.7960921561
 40
1.0
 40
1.0
 40
1.0
 40
1.0
 10
3.4450160861
 20
5.7806279894
 30
0.0
 10
3.4450252575
 20
5.7806121041
 30
0.0
 10
3.4450473651
 20
5.780581563
 30
0.0
 10
3.4451063489
 20
5.780526945
 30
0.0
 10
3.4452086105
 20
5.7804743522
 30
0.0
 10
3.4453616372
 20
5.7804383896
 30
0.0
 10
3.4455497299
 20
5.7804250881
 30
0.0
 10
3.4457728199
 20
5.7804344514
 30
0.0
 10
3.4460304648
 20
5.7804663285
 30
0.0
 10
3.4463217292
 20
5.7805207536
 30
0.0
 10
3.4466454591
 20
5.7805975214
 30
0.0
 10
3.4470002701
 20
5.7806963792
 30
0.0
 10
3.4475334454
 20
5.7808636416
 30
0.0
 10
3.4482645518
 20
5.7811271029
 30
0.0
 10
3.4492070776
 20
5.781510437
 30
0.0
 10
3.4498610829
 20
5.7818019058
 30
0.0
 10
3.4502014494
 20
5.7819591292
 30
0.0
  0
SPLINE
  5
46F
100
AcDbEntity
  8
0
100
AcDbSpline
 62
7
  6
CONTINUOUS
 70
0
 71
3
 72
14
 73
10
 74
0
 42
0.0000001
 43
0.0000001
 44
0.0000000001
 40
0.0
 40
0.0
 40
0.0
 40
0.0
 40
0.2464752911
 40
0.3707228003
 40
0.4956122903
 40
0.6210991249
 40
0.7470908932
 40
0.8734484851
 40
1.0
 40
1.0
 40
1.0
 40
1.0
 10
5.2402559064
 20
6.1239683726
 30
0.0
 10
5.2380738406
 20
6.12711394
 30
0.0
 10
5.2351054046
 20
6.1320767317
 30
0.0
 10
5.2318869957
 20
6.1390751175
 30
0.0
 10
5.2298536018
 20
6.1445333189
 30
0.0
 10
5.228236121
 20
6.1501569856
 30
0.0
 10
5.2270637891
 20
6.1559137872
 30
0.0
 10
5.2263503437
 20
6.1617615086
 30
0.0
 10
5.2261886427
 20
6.1656915539
 30
0.0
 10
5.2261885737
 20
6.1676571838
 30
0.0
  0
SPLINE
  5
470
100
AcDbEntity
  8
0
100
AcDbSpline
 62
7
  6
CONTINUOUS
 70
0
 71
3
 72
20
 73
16
 74
0
 42
0.0000001
 43
0.0000001
 44
0.0000000001
 40
0.0
 40
0.0
 40
0.0
 40
0.0
 40
0.1763127142
 40
0.3472689926
 40
0.5076760115
 40
0.6526598654
 40
0.7179705334
 40
0.7778176054
 40
0.8317467147
 40
0.8793471844
 40
0.9202569105
 40
0.9541647402
 40
0.9808132509
 40
0.9913497044
 40
1.0
 40
1.0
 40
1.0
 40
1.0
 10
5.1227210983
 20
6.1676571838
 30
0.0
 10
5.1227211161
 20
6.1780791851
 30
0.0
 10
5.1227293384
 20
6.1986065651
 30
0.0
 10
5.1227662008
 20
6.2286157265
 30
0.0
 10
5.1228262405
 20
6.2567729702
 30
0.0
 10
5.1228961003
 20
6.2786853626
 30
0.0
 10
5.1229637002
 20
6.2946535307
 30
0.0
 10
5.1230170754
 20
6.3052393804
 30
0.0
 10
5.1230743556
 20
6.3147783277
 30
0.0
 10
5.1231351099
 20
6.3231978246
 30
0.0
 10
5.1231986635
 20
6.330433789
 30
0.0
 10
5.1232645218
 20
6.3364311802
 30
0.0
 10
5.1233239141
 20
6.3406331364
 30
0.0
 10
5.1233745408
 20
6.3433420302
 30
0.0
 10
5.1234004208
 20
6.3444758873
 30
0.0
 10
5.1234139056
 20
6.3449870361
 30
0.0
  0
LINE
  5
471
100
AcDbEntity
  8
0
100
AcDbLine
 62
7
  6
CONTINUOUS
 10
5.1234139056
 20
6.3449870361
 11
5.1235595775
 21
6.3477268482
  0
ENDSEC
  0
SECTION
  2
OBJECTS
  0
DICTIONARY
  5
C
100
AcDbDictionary
280
0
281
1
  3
ACAD_GROUP
350
D
  3
ACAD_MLINESTYLE
350
17
  3
ACAD_LAYOUT
350
1A
  3
ACAD_PLOTSETTINGS
350
19
  3
ACAD_PLOTSTYLENAME
350
E
  0
DICTIONARY
  5
D
102
{ACAD_REACTORS
330
C
102
}
100
AcDbDictionary
280
0
281
1
  0
ACDBDICTIONARYWDFLT
  5
E
102
{ACAD_REACTORS
330
C
102
}
100
AcDbDictionary
281
1
  3
Normal
350
F
100
AcDbDictionaryWithDefault
340
F
  0
DICTIONARY
  5
17
102
{ACAD_REACTORS
330
C
102
}
100
AcDbDictionary
280
0
281
1
  3
Standard
350
18
  0
DICTIONARY
  5
19
102
{ACAD_REACTORS
330
C
102
}
100
AcDbDictionary
281
1
  0
DICTIONARY
  5
1A
102
{ACAD_REACTORS
330
C
102
}
100
AcDbDictionary
281
1
  3
Model
350
472
  3
Layout1
350
473
  0
ACDBPLACEHOLDER
  5
F
102
{ACAD_REACTORS
330
E
102
}
  0
MLINESTYLE
  5
18
102
{ACAD_REACTORS
330
17
102
}
100
AcDbMlineStyle
  2
STANDARD
 70
0
  3

 62
256
 51
90.0
 52
90.0
 71
2
 49
0.5
 62
256
  6
BYLAYER
 49
-0.5
 62
256
  6
BYLAYER
  0
LAYOUT
  5
472
102
{ACAD_REACTORS
330
1A
102
}
100
AcDbPlotSettings
  1

  2
none_device
  4
ANSI_A_(11.00_x_8.50_Inches)
  6

 40
0.0
 41
0.0
 42
0.0
 43
0.0
 44
279.4
 45
215.9
 46
0.0
 47
0.0
 48
0.0
 49
0.0
140
0.0
141
0.0
142
1.0
143
1.0
 70
1024
 72
0
 73
0
 74
0
  7

 75
0
147
1.0
148
0.0
149
0.0
100
AcDbLayout
  1
Model
 70
0
 71
0
 10
0.0
 20
0.0
 11
11.0
 21
8.5
 12
0.0
 22
0.0
 32
0.0
 14
0.0
 24
0.0
 34
0.0
 15
0.0
 25
0.0
 35
0.0
146
0.0
 13
0.0
 23
0.0
 33
0.0
 16
1.0
 26
0.0
 36
0.0
 17
0.0
 27
1.0
 37
0.0
 76
0
330
202
345
0
346
0
  0
LAYOUT
  5
473
102
{ACAD_REACTORS
330
1A
102
}
100
AcDbPlotSettings
  1

  2
none_device
  4
ANSI_A_(11.00_x_8.50_Inches)
  6

 40
0.0
 41
0.0
 42
0.0
 43
0.0
 44
279.4
 45
215.9
 46
0.0
 47
0.0
 48
0.0
 49
0.0
140
0.0
141
0.0
142
1.0
143
1.0
 70
0
 72
0
 73
0
 74
0
  7

 75
0
147
1.0
148
0.0
149
0.0
100
AcDbLayout
  1
Layout1
 70
0
 71
1
 10
0.0
 20
0.0
 11
11.0
 21
8.5
 12
0.0
 22
0.0
 32
0.0
 14
0.0
 24
0.0
 34
0.0
 15
0.0
 25
0.0
 35
0.0
146
0.0
 13
0.0
 23
0.0
 33
0.0
 16
1.0
 26
0.0
 36
0.0
 17
0.0
 27
1.0
 37
0.0
 76
0
330
203
345
0
346
0
  0
ENDSEC
  0
EOF
