999
DXF file: E:\BT Custom\CADOUTPUT\_FRONT.dxf
999
Pro/ENGINEER 2018400 by Parametric Technology Corporation
  0
SECTION
  2
HEADER
  9
$ACADVER
  1
AC1018
  9
$DWGCODEPAGE
  3
ANSI_1252
  9
$EXTMAX
 10
22.0
 20
17.0
 30
0.0
  9
$EXTMIN
 10
0.0
 20
0.0
 30
0.0
  9
$LIMMIN
 10
0.0
 20
0.0
  9
$LIMMAX
 10
22.0
 20
17.0
  9
$VIEWCTR
 10
11.0
 20
8.5
  9
$VIEWSIZE
 40
17.0
  9
$CLAYER
  8
0
  9
$LTSCALE
 40
1.21
  9
$CELTYPE
  6
BYLAYER
  9
$DIMSCALE
 40
1.0
  9
$DIMASZ
 40
0.1
  9
$DIMEXO
 40
0.0625
  9
$DIMDLI
 40
0.836
  9
$DIMEXE
 40
0.125
  9
$DIMCEN
 40
0.198
  9
$DIMLFAC
 40
1.0
  9
$DIMBLK
  1
_FILLED
  9
$DIMALT
 70
1
  9
$DIMALTD
 70
2
  9
$DIMALTTD
 70
2
  9
$DIMALTF
 40
25.4
  9
$DIMTXT
 40
0.08
  9
$DIMTOL
 70
1
  9
$DIMLIM
 70
0
  9
$DIMTFAC
 40
1.0
  9
$DIMTP
 40
0.001
  9
$DIMTM
 40
0.001
  9
$DIMGAP
 40
0.09
  9
$DIMDSEP
 70
46
  9
$AUNITS
 70
0
  9
$PDMODE
 70
3
  9
$PDSIZE
 40
0.06
  9
$HANDSEED
  5
3B2
  9
$TILEMODE
 70
1
  9
$MEASUREMENT
 70
0
  9
$INSUNITS
 70
1
  0
ENDSEC
  0
SECTION
  2
CLASSES
  0
CLASS
  1
ACDBDICTIONARYWDFLT
  2
AcDbDictionaryWithDefault
  3
AutoCAD 2000
 90
0
 91
1
280
0
281
0
  0
CLASS
  1
ACDBPLACEHOLDER
  2
AcDbPlaceHolder
  3
AutoCAD 2000
 90
0
 91
1
280
0
281
0
  0
CLASS
  1
LAYOUT
  2
AcDbLayout
  3
AutoCAD 2000
 90
0
 91
0
280
0
281
0
  0
ENDSEC
  0
SECTION
  2
TABLES
  0
TABLE
  2
VPORT
  5
8
100
AcDbSymbolTable
 70
2
  0
VPORT
  5
1F4
100
AcDbSymbolTableRecord
100
AcDbViewportTableRecord
  2
*ACTIVE
 70
0
 10
0.0
 20
0.0
 11
1.0
 21
1.0
 12
11.0
 22
8.5
 13
0.0
 23
0.0
 14
1.0
 24
1.0
 15
0.0
 25
0.0
 16
0.0
 26
0.0
 36
1.0
 17
0.0
 27
0.0
 37
0.0
 40
17.0
 41
1.2941176471
 42
50.0
 43
0.0
 44
0.0
 50
0.0
 51
0.0
 71
0
 72
100
 73
1
 74
1
 75
0
 76
0
 77
0
 78
0
  0
ENDTAB
  0
TABLE
  2
LTYPE
  5
5
100
AcDbSymbolTable
 70
6
  0
LTYPE
  5
14
100
AcDbSymbolTableRecord
100
AcDbLinetypeTableRecord
  2
BYBLOCK
 70
0
  3

 72
65
 73
0
 40
0.0
  0
LTYPE
  5
15
100
AcDbSymbolTableRecord
100
AcDbLinetypeTableRecord
  2
BYLAYER
 70
0
  3

 72
65
 73
0
 40
0.0
  0
LTYPE
  5
16
100
AcDbSymbolTableRecord
100
AcDbLinetypeTableRecord
  2
CONTINUOUS
 70
64
  3
Solid line
 72
65
 73
0
 40
0.0
  0
LTYPE
  5
1F5
100
AcDbSymbolTableRecord
100
AcDbLinetypeTableRecord
  2
CENTER
 70
64
  3
____ _ ____ _ ____ _ ____ _ ____ _ ____ _ ____
 72
65
 73
4
 40
0.6
 49
0.375
 74
0
 49
-0.075
 74
0
 49
0.075
 74
0
 49
-0.075
 74
0
  0
LTYPE
  5
1F6
100
AcDbSymbolTableRecord
100
AcDbLinetypeTableRecord
  2
HIDDEN
 70
64
  3
- - - - - - - - - - - - - - - - - - - -
 72
65
 73
2
 40
0.2
 49
0.1
 74
0
 49
-0.1
 74
0
  0
LTYPE
  5
1F7
100
AcDbSymbolTableRecord
100
AcDbLinetypeTableRecord
  2
PHANTOM
 70
64
  3
_____ _ _ _____ _ _ _____ _ _ _____
 72
65
 73
6
 40
0.8
 49
0.45
 74
0
 49
-0.05
 74
0
 49
0.1
 74
0
 49
-0.05
 74
0
 49
0.1
 74
0
 49
-0.05
 74
0
  0
LTYPE
  5
1F8
100
AcDbSymbolTableRecord
100
AcDbLinetypeTableRecord
  2
DOT
 70
64
  3
. . . . . . . . . . . . . . . . . . . .
 72
65
 73
2
 40
0.2
 49
0.1
 74
0
 49
-0.1
 74
0
  0
LTYPE
  5
1F9
100
AcDbSymbolTableRecord
100
AcDbLinetypeTableRecord
  2
DASHED
 70
64
  3
- - - - - - - - - - - - - - - - - - - -
 72
65
 73
2
 40
0.2
 49
0.1
 74
0
 49
-0.1
 74
0
  0
ENDTAB
  0
TABLE
  2
LAYER
  5
2
100
AcDbSymbolTable
 70
36
  0
LAYER
  5
10
100
AcDbSymbolTableRecord
100
AcDbLayerTableRecord
  2
0
 70
0
 62
7
  6
CONTINUOUS
370
-3
390
F
  0
LAYER
  5
1FA
100
AcDbSymbolTableRecord
100
AcDbLayerTableRecord
  2
DEFAULT_1
 70
0
 62
7
  6
CENTER
370
-3
390
F
  0
LAYER
  5
1FB
100
AcDbSymbolTableRecord
100
AcDbLayerTableRecord
  2
DEFAULT_2
 70
0
 62
8
  6
HIDDEN
370
-3
390
F
  0
LAYER
  5
1FC
100
AcDbSymbolTableRecord
100
AcDbLayerTableRecord
  2
DEFAULT_3
 70
0
 62
7
  6
PHANTOM
370
-3
390
F
  0
LAYER
  5
1FD
100
AcDbSymbolTableRecord
100
AcDbLayerTableRecord
  2
ALL_FEATURES
 70
0
 62
7
  6
CONTINUOUS
370
-3
390
F
  0
LAYER
  5
1FE
100
AcDbSymbolTableRecord
100
AcDbLayerTableRecord
  2
AXES_FEATURES
 70
0
 62
7
  6
CONTINUOUS
370
-3
390
F
  0
LAYER
  5
1FF
100
AcDbSymbolTableRecord
100
AcDbLayerTableRecord
  2
DIMENSIONS
 70
0
 62
7
  6
CONTINUOUS
370
-3
390
F
  0
ENDTAB
  0
TABLE
  2
STYLE
  5
3
100
AcDbSymbolTable
 70
1
  0
STYLE
  5
11
100
AcDbSymbolTableRecord
100
AcDbTextStyleTableRecord
  2
STANDARD
 70
0
 40
0.0
 41
0.8
 50
0.0
 71
0
 42
0.2
  3
txt
  4

  0
STYLE
  5
200
100
AcDbSymbolTableRecord
100
AcDbTextStyleTableRecord
  2
TEXTSTYLE_1
 70
0
 40
0.0
 41
0.8
 50
0.0
 71
0
 42
0.2
  3
gdt
  4

  0
ENDTAB
  0
TABLE
  2
VIEW
  5
6
100
AcDbSymbolTable
 70
0
  0
ENDTAB
  0
TABLE
  2
UCS
  5
7
100
AcDbSymbolTable
 70
0
  0
ENDTAB
  0
TABLE
  2
APPID
  5
9
100
AcDbSymbolTable
 70
1
  0
APPID
  5
201
100
AcDbSymbolTableRecord
100
AcDbRegAppTableRecord
  2
ACAD
 70
0
  0
ENDTAB
  0
TABLE
  2
BLOCK_RECORD
  5
1
100
AcDbSymbolTable
 70
0
  0
BLOCK_RECORD
  5
202
100
AcDbSymbolTableRecord
100
AcDbBlockTableRecord
  2
*Model_Space
  0
BLOCK_RECORD
  5
203
100
AcDbSymbolTableRecord
100
AcDbBlockTableRecord
  2
*Paper_Space
  0
BLOCK_RECORD
  5
204
100
AcDbSymbolTableRecord
100
AcDbBlockTableRecord
  2
_FILLED
  0
ENDTAB
  0
TABLE
  2
DIMSTYLE
  5
A
100
AcDbSymbolTable
 70
1
100
AcDbDimStyleTable
 71
0
  0
DIMSTYLE
105
205
100
AcDbSymbolTableRecord
100
AcDbDimStyleTableRecord
  2
STANDARD
 70
0
  3

  4

 40
1.0
 41
0.1
 42
0.0625
 43
0.38
 44
0.125
 45
0.0
 46
0.0
 47
0.001
 48
0.001
140
0.08
141
0.09
142
0.0
143
25.4
144
1.0
145
0.0
146
1.0
147
0.09
 71
1.0
 72
0.0
 73
1
 74
1
 75
0
 76
0
 77
0
 78
4
 79
1
170
1
171
2
172
0
173
0
174
0
175
0
176
0
177
0
178
0
270
2
179
3
271
3
272
3
273
2
274
2
275
0
280
0
281
0
282
0
283
1
284
4
285
0
286
0
287
3
288
0
340
11
278
46
341
204
342
204
343
204
344
204
  0
ENDTAB
  0
ENDSEC
  0
SECTION
  2
BLOCKS
  0
BLOCK
  5
20
100
AcDbEntity
  8
0
100
AcDbBlockBegin
  2
*Model_Space
 70
0
 10
0.0
 20
0.0
 30
0.0
  3
*Model_Space
  1

  0
ENDBLK
  5
21
100
AcDbEntity
  8
0
100
AcDbBlockEnd
  0
BLOCK
  5
1C
100
AcDbEntity
  8
0
100
AcDbBlockBegin
  2
*Paper_Space
 70
0
 10
0.0
 20
0.0
 30
0.0
  3
*Paper_Space
  1

  0
ENDBLK
  5
1D
100
AcDbEntity
  8
0
100
AcDbBlockEnd
  0
BLOCK
  5
206
100
AcDbEntity
  8
0
100
AcDbBlockBegin
  2
_FILLED
 70
64
 10
0.0
 20
0.0
  3
_FILLED
  1

  0
SOLID
  5
207
100
AcDbEntity
  8
0
  6
BYBLOCK
 62
0
100
AcDbTrace
 10
0.0
 20
0.0
 11
-1.0
 21
0.2
 12
-1.0
 22
-0.2
 13
-1.0
 23
-0.2
  0
ENDBLK
  5
208
100
AcDbEntity
  8
0
  6
BYBLOCK
 62
0
100
AcDbBlockEnd
  0
ENDSEC
  0
SECTION
  2
ENTITIES
  0
LINE
  5
209
100
AcDbEntity
  8
0
100
AcDbLine
 62
7
  6
CONTINUOUS
 10
10.9381264098
 20
4.7874485197
 11
10.9372582757
 21
4.7874485197
  0
LINE
  5
20A
100
AcDbEntity
  8
0
100
AcDbLine
 62
7
  6
CONTINUOUS
 10
10.7826923427
 20
13.5532326492
 11
10.5026923427
 21
13.3915745738
  0
LINE
  5
20B
100
AcDbEntity
  8
0
100
AcDbLine
 62
7
  6
CONTINUOUS
 10
10.6891070968
 20
5.9635213014
 11
10.5283919251
 21
5.9631982054
  0
LINE
  5
20C
100
AcDbEntity
  8
0
100
AcDbLine
 62
7
  6
CONTINUOUS
 10
10.5307525438
 20
5.9514486233
 11
10.7036923427
 21
5.9514486233
  0
LINE
  5
20D
100
AcDbEntity
  8
0
100
AcDbLine
 62
7
  6
CONTINUOUS
 10
11.1716923427
 20
5.9514486233
 11
11.3446321417
 21
5.9514486233
  0
LINE
  5
20E
100
AcDbEntity
  8
0
100
AcDbLine
 62
9
  6
CONTINUOUS
 10
10.6666710357
 20
5.9714486233
 11
10.7036923427
 21
5.9714486233
  0
LINE
  5
20F
100
AcDbEntity
  8
0
100
AcDbLine
 62
9
  6
CONTINUOUS
 10
11.1716923427
 20
5.9714486233
 11
11.2087136497
 21
5.9714486233
  0
LINE
  5
210
100
AcDbEntity
  8
0
100
AcDbLine
 62
7
  6
CONTINUOUS
 10
11.3470174029
 20
5.9632029472
 11
11.1862774543
 21
5.9635205152
  0
LINE
  5
211
100
AcDbEntity
  8
0
100
AcDbLine
 62
7
  6
CONTINUOUS
 10
11.3726923427
 20
12.5313226727
 11
11.1417534821
 21
12.3979900594
  0
LINE
  5
212
100
AcDbEntity
  8
0
100
AcDbLine
 62
7
  6
CONTINUOUS
 10
10.7336312034
 20
6.8179900594
 11
10.5026923428
 21
6.9513226727
  0
LINE
  5
213
100
AcDbEntity
  8
0
100
AcDbLine
 62
7
  6
CONTINUOUS
 10
9.585438639
 20
6.8877660991
 11
9.5047809563
 21
7.0268083593
  0
LINE
  5
214
100
AcDbEntity
  8
0
100
AcDbLine
 62
7
  6
CONTINUOUS
 10
9.9027459148
 20
6.3140284195
 11
9.4958061158
 21
7.018868827
  0
LINE
  5
215
100
AcDbEntity
  8
0
100
AcDbLine
 62
9
  6
CONTINUOUS
 10
9.8521071769
 20
6.4417372864
 11
9.5810858699
 21
6.9111599601
  0
LINE
  5
216
100
AcDbEntity
  8
0
100
AcDbLine
 62
7
  6
CONTINUOUS
 10
9.9141111491
 20
6.3178320805
 11
9.8340231369
 21
6.4572035471
  0
LINE
  5
217
100
AcDbEntity
  8
0
100
AcDbLine
 62
9
  6
CONTINUOUS
 10
12.3881747895
 20
7.7223308193
 11
12.3771060829
 21
7.7197295296
  0
LINE
  5
218
100
AcDbEntity
  8
0
100
AcDbLine
 62
9
  6
CONTINUOUS
 10
9.487209896
 20
7.0405664272
 11
9.4982786026
 21
7.0431677169
  0
LINE
  5
219
100
AcDbEntity
  8
0
100
AcDbLine
 62
9
  6
CONTINUOUS
 10
9.4982786026
 20
7.7197295296
 11
9.487209896
 21
7.7223308193
  0
LINE
  5
21A
100
AcDbEntity
  8
0
100
AcDbLine
 62
9
  6
CONTINUOUS
 10
12.3771060829
 20
7.0431677169
 11
12.3881747895
 21
7.0405664272
  0
LINE
  5
21B
100
AcDbEntity
  8
0
100
AcDbLine
 62
9
  6
CONTINUOUS
 10
11.9581462076
 20
6.2957350746
 11
11.9503590713
 21
6.304020211
  0
LINE
  5
21C
100
AcDbEntity
  8
0
100
AcDbLine
 62
9
  6
CONTINUOUS
 10
9.9172384779
 20
8.4671621719
 11
9.9250256142
 21
8.4588770356
  0
LINE
  5
21D
100
AcDbEntity
  8
0
100
AcDbLine
 62
7
  6
CONTINUOUS
 10
10.7057593965
 20
12.3146900094
 11
10.7811388803
 21
12.5399755391
  0
LINE
  5
21E
100
AcDbEntity
  8
0
100
AcDbLine
 62
7
  6
CONTINUOUS
 10
10.3376923427
 20
8.1314486233
 11
11.5376923427
 21
8.1314486233
  0
LINE
  5
21F
100
AcDbEntity
  8
0
100
AcDbLine
 62
7
  6
CONTINUOUS
 10
11.3726923427
 20
7.8115745738
 11
11.0926923428
 21
7.9732326492
  0
LINE
  5
220
100
AcDbEntity
  8
0
100
AcDbLine
 62
7
  6
CONTINUOUS
 10
10.3376923427
 20
13.7278904845
 11
10.3376923427
 21
12.0714486233
  0
LINE
  5
221
100
AcDbEntity
  8
0
100
AcDbLine
 62
7
  6
CONTINUOUS
 10
10.3376923427
 20
8.8914486233
 11
10.3376923427
 21
7.6754036868
  0
LINE
  5
222
100
AcDbEntity
  8
0
100
AcDbLine
 62
7
  6
CONTINUOUS
 10
10.3376923427
 20
9.2114486233
 11
10.3376923427
 21
11.7514486233
  0
LINE
  5
223
100
AcDbEntity
  8
0
100
AcDbLine
 62
7
  6
CONTINUOUS
 10
10.3476923427
 20
13.1231066986
 11
10.3476923427
 21
12.7997905479
  0
LINE
  5
224
100
AcDbEntity
  8
0
100
AcDbLine
 62
7
  6
CONTINUOUS
 10
10.3476923427
 20
7.5431066986
 11
10.3476923427
 21
7.2197905479
  0
LINE
  5
225
100
AcDbEntity
  8
0
100
AcDbLine
 62
7
  6
CONTINUOUS
 10
10.3776923427
 20
8.8914486233
 11
10.3776923427
 21
9.1914486233
  0
LINE
  5
226
100
AcDbEntity
  8
0
100
AcDbLine
 62
7
  6
CONTINUOUS
 10
10.3776923427
 20
11.7514486233
 11
10.3776923427
 21
12.0514486233
  0
LINE
  5
227
100
AcDbEntity
  8
0
100
AcDbLine
 62
7
  6
CONTINUOUS
 10
10.3876923427
 20
12.1114486233
 11
10.3876923427
 21
12.6481236266
  0
LINE
  5
228
100
AcDbEntity
  8
0
100
AcDbLine
 62
7
  6
CONTINUOUS
 10
10.4676923427
 20
12.0714486233
 11
10.4676923427
 21
12.0514486233
  0
LINE
  5
229
100
AcDbEntity
  8
0
100
AcDbLine
 62
7
  6
CONTINUOUS
 10
10.4676923427
 20
9.2114486233
 11
10.4676923427
 21
9.1914486233
  0
LINE
  5
22A
100
AcDbEntity
  8
0
100
AcDbLine
 62
7
  6
CONTINUOUS
 10
10.4751923427
 20
12.1114486233
 11
10.4751923427
 21
11.9264486233
  0
LINE
  5
22B
100
AcDbEntity
  8
0
100
AcDbLine
 62
7
  6
CONTINUOUS
 10
10.5714423427
 20
11.7564486233
 11
10.5714423427
 21
11.7484486233
  0
LWPOLYLINE
  5
22C
100
AcDbEntity
  8
0
100
AcDbPolyline
 62
7
  6
CONTINUOUS
 90
4
 70
0
 10
10.3376949182
 20
7.6754036867
 10
10.3375831918
 20
7.6717444821
 10
10.3359589924
 20
7.6610782231
 10
10.3325061017
 20
7.6510009175
  0
LINE
  5
22D
100
AcDbEntity
  8
0
100
AcDbLine
 62
7
  6
CONTINUOUS
 10
9.8340238844
 20
8.3056934221
 11
9.9141161103
 21
8.4450583494
  0
LINE
  5
22E
100
AcDbEntity
  8
0
100
AcDbLine
 62
7
  6
CONTINUOUS
 10
9.4958061158
 20
7.7440284195
 11
9.9027459148
 21
8.448868827
  0
LINE
  5
22F
100
AcDbEntity
  8
0
100
AcDbLine
 62
9
  6
CONTINUOUS
 10
9.5810858699
 20
7.8517372864
 11
9.8521071769
 21
8.3211599601
  0
LINE
  5
230
100
AcDbEntity
  8
0
100
AcDbLine
 62
7
  6
CONTINUOUS
 10
9.5048020592
 20
7.7361087315
 11
9.5854380243
 21
7.8751316562
  0
LINE
  5
231
100
AcDbEntity
  8
0
100
AcDbLine
 62
7
  6
CONTINUOUS
 10
11.5376923427
 20
8.8914486233
 11
11.4976923427
 21
8.8914486233
  0
LINE
  5
232
100
AcDbEntity
  8
0
100
AcDbLine
 62
7
  6
CONTINUOUS
 10
10.3776923427
 20
8.8914486233
 11
10.3376923427
 21
8.8914486233
  0
LINE
  5
233
100
AcDbEntity
  8
0
100
AcDbLine
 62
7
  6
CONTINUOUS
 10
11.1696252889
 20
6.7346900094
 11
11.0942458051
 21
6.9599755391
  0
LINE
  5
234
100
AcDbEntity
  8
0
100
AcDbLine
 62
9
  6
CONTINUOUS
 10
11.3644393543
 20
5.9657393046
 11
11.3677209247
 21
5.9548528786
  0
LINE
  5
235
100
AcDbEntity
  8
0
100
AcDbLine
 62
9
  6
CONTINUOUS
 10
10.7347927596
 20
4.8102576075
 11
10.7347922602
 21
4.8129267545
  0
LINE
  5
236
100
AcDbEntity
  8
0
100
AcDbLine
 62
9
  6
CONTINUOUS
 10
10.7347927596
 20
10.3902576075
 11
10.7347922602
 21
10.3929267545
  0
LINE
  5
237
100
AcDbEntity
  8
0
100
AcDbLine
 62
7
  6
CONTINUOUS
 10
10.7036923427
 20
4.8492550146
 11
10.7036923427
 21
6.7219978231
  0
LINE
  5
238
100
AcDbEntity
  8
0
100
AcDbLine
 62
7
  6
CONTINUOUS
 10
10.7036923427
 20
10.4292550146
 11
10.7036923427
 21
12.3019978231
  0
LINE
  5
239
100
AcDbEntity
  8
0
100
AcDbLine
 62
9
  6
CONTINUOUS
 10
10.7636923427
 20
12.2695379296
 11
10.7636923427
 21
10.4318069382
  0
LINE
  5
23A
100
AcDbEntity
  8
0
100
AcDbLine
 62
9
  6
CONTINUOUS
 10
10.7636923427
 20
6.6895379296
 11
10.7636923427
 21
4.8518069382
  0
LINE
  5
23B
100
AcDbEntity
  8
0
100
AcDbLine
 62
9
  6
CONTINUOUS
 10
10.8776923427
 20
4.8518069382
 11
10.8776923427
 21
6.6895379296
  0
LINE
  5
23C
100
AcDbEntity
  8
0
100
AcDbLine
 62
9
  6
CONTINUOUS
 10
10.8776923427
 20
10.4318069382
 11
10.8776923427
 21
12.2695379296
  0
LINE
  5
23D
100
AcDbEntity
  8
0
100
AcDbLine
 62
9
  6
CONTINUOUS
 10
10.9376923654
 20
6.9324976771
 11
10.9376923664
 21
6.9224103439
  0
LINE
  5
23E
100
AcDbEntity
  8
0
100
AcDbLine
 62
9
  6
CONTINUOUS
 10
10.9376923654
 20
12.5124976771
 11
10.9376923664
 21
12.5024103439
  0
LINE
  5
23F
100
AcDbEntity
  8
0
100
AcDbLine
 62
9
  6
CONTINUOUS
 10
10.9376923997
 20
8.1039486233
 11
10.9376923639
 21
8.0439482459
  0
LINE
  5
240
100
AcDbEntity
  8
0
100
AcDbLine
 62
7
  6
CONTINUOUS
 10
11.4976923427
 20
9.1914486233
 11
10.3776923427
 21
9.1914486233
  0
LINE
  5
241
100
AcDbEntity
  8
0
100
AcDbLine
 62
7
  6
CONTINUOUS
 10
10.3376929928
 20
9.2114486233
 11
11.5376916926
 21
9.2114486233
  0
LINE
  5
242
100
AcDbEntity
  8
0
100
AcDbLine
 62
9
  6
CONTINUOUS
 10
10.9976923428
 20
12.2695379297
 11
10.9976923428
 21
10.4318069363
  0
LINE
  5
243
100
AcDbEntity
  8
0
100
AcDbLine
 62
9
  6
CONTINUOUS
 10
10.9976923428
 20
6.6895379297
 11
10.9976923428
 21
4.8518069363
  0
LINE
  5
244
100
AcDbEntity
  8
0
100
AcDbLine
 62
9
  6
CONTINUOUS
 10
11.1116923427
 20
4.8518069442
 11
11.1116923427
 21
6.6895379296
  0
LINE
  5
245
100
AcDbEntity
  8
0
100
AcDbLine
 62
9
  6
CONTINUOUS
 10
11.1116923427
 20
10.4318069442
 11
11.1116923427
 21
12.2695379296
  0
LINE
  5
246
100
AcDbEntity
  8
0
100
AcDbLine
 62
7
  6
CONTINUOUS
 10
11.1716923427
 20
4.8492550148
 11
11.1716923427
 21
6.7219978231
  0
LINE
  5
247
100
AcDbEntity
  8
0
100
AcDbLine
 62
7
  6
CONTINUOUS
 10
11.1716923427
 20
10.4292550148
 11
11.1716923427
 21
12.3019978231
  0
LINE
  5
248
100
AcDbEntity
  8
0
100
AcDbLine
 62
9
  6
CONTINUOUS
 10
11.140592141
 20
10.3929266899
 11
11.1405919198
 21
10.3902576061
  0
LINE
  5
249
100
AcDbEntity
  8
0
100
AcDbLine
 62
9
  6
CONTINUOUS
 10
11.140592141
 20
4.8129266899
 11
11.1405919198
 21
4.8102576061
  0
LINE
  5
24A
100
AcDbEntity
  8
0
100
AcDbLine
 62
7
  6
CONTINUOUS
 10
10.3576923427
 20
9.3114486233
 11
11.5176912578
 21
9.3114486233
  0
LINE
  5
24B
100
AcDbEntity
  8
0
100
AcDbLine
 62
9
  6
CONTINUOUS
 10
10.3376923427
 20
9.3314486233
 11
11.5376923427
 21
9.3314486233
  0
LWPOLYLINE
  5
24C
100
AcDbEntity
  8
0
100
AcDbPolyline
 62
7
  6
CONTINUOUS
 90
4
 70
0
 10
11.5428785747
 20
7.6510009479
 10
11.5394249979
 20
7.6610810448
 10
11.5378013086
 20
7.6717474368
 10
11.537689762
 20
7.6754036969
  0
LINE
  5
24D
100
AcDbEntity
  8
0
100
AcDbLine
 62
7
  6
CONTINUOUS
 10
11.3039423427
 20
11.7564486233
 11
11.3039423427
 21
11.7484486233
  0
LINE
  5
24E
100
AcDbEntity
  8
0
100
AcDbLine
 62
7
  6
CONTINUOUS
 10
11.4001923427
 20
12.1114486233
 11
11.4001923427
 21
11.9264486233
  0
LINE
  5
24F
100
AcDbEntity
  8
0
100
AcDbLine
 62
7
  6
CONTINUOUS
 10
11.4076923427
 20
12.0714486233
 11
11.4076923427
 21
12.0514486233
  0
LINE
  5
250
100
AcDbEntity
  8
0
100
AcDbLine
 62
7
  6
CONTINUOUS
 10
11.4076923427
 20
9.2114486233
 11
11.4076923427
 21
9.1914486233
  0
LINE
  5
251
100
AcDbEntity
  8
0
100
AcDbLine
 62
7
  6
CONTINUOUS
 10
11.4876923427
 20
12.1114486233
 11
11.4876923427
 21
12.6481256098
  0
LINE
  5
252
100
AcDbEntity
  8
0
100
AcDbLine
 62
7
  6
CONTINUOUS
 10
11.4976923427
 20
12.0514486233
 11
11.4976923427
 21
11.7514486233
  0
LINE
  5
253
100
AcDbEntity
  8
0
100
AcDbLine
 62
7
  6
CONTINUOUS
 10
11.4976923427
 20
9.1914486233
 11
11.4976923427
 21
8.8914486233
  0
LINE
  5
254
100
AcDbEntity
  8
0
100
AcDbLine
 62
7
  6
CONTINUOUS
 10
11.5276923427
 20
13.1231066986
 11
11.5276923427
 21
12.7997905479
  0
LINE
  5
255
100
AcDbEntity
  8
0
100
AcDbLine
 62
7
  6
CONTINUOUS
 10
11.5276923427
 20
7.5431066986
 11
11.5276923427
 21
7.2197905479
  0
LINE
  5
256
100
AcDbEntity
  8
0
100
AcDbLine
 62
7
  6
CONTINUOUS
 10
11.5376923427
 20
13.7278904845
 11
11.5376923427
 21
12.0714486233
  0
LINE
  5
257
100
AcDbEntity
  8
0
100
AcDbLine
 62
7
  6
CONTINUOUS
 10
11.5376923427
 20
8.8914486233
 11
11.5376923427
 21
7.6754036969
  0
LINE
  5
258
100
AcDbEntity
  8
0
100
AcDbLine
 62
7
  6
CONTINUOUS
 10
11.5376923427
 20
9.2114486233
 11
11.5376923427
 21
11.7514486233
  0
LINE
  5
259
100
AcDbEntity
  8
0
100
AcDbLine
 62
9
  6
CONTINUOUS
 10
10.5076637608
 20
5.9548528786
 11
10.5109453312
 21
5.9657393046
  0
LINE
  5
25A
100
AcDbEntity
  8
0
100
AcDbLine
 62
7
  6
CONTINUOUS
 10
10.7057593965
 20
6.7346900094
 11
10.7811388803
 21
6.9599755391
  0
LINE
  5
25B
100
AcDbEntity
  8
0
100
AcDbLine
 62
7
  6
CONTINUOUS
 10
12.2786751112
 20
7.8945935964
 11
12.3706027568
 21
7.736092866
  0
LINE
  5
25C
100
AcDbEntity
  8
0
100
AcDbLine
 62
7
  6
CONTINUOUS
 10
12.3795785696
 20
7.7440284195
 11
11.9726387707
 21
8.448868827
  0
LINE
  5
25D
100
AcDbEntity
  8
0
100
AcDbLine
 62
7
  6
CONTINUOUS
 10
11.9612746847
 20
8.4450614272
 11
12.0525795113
 21
8.2861979397
  0
LINE
  5
25E
100
AcDbEntity
  8
0
100
AcDbLine
 62
9
  6
CONTINUOUS
 10
9.9250256142
 20
6.3040202109
 11
9.9172384779
 21
6.2957350746
  0
LINE
  5
25F
100
AcDbEntity
  8
0
100
AcDbLine
 62
9
  6
CONTINUOUS
 10
11.9503590713
 20
8.4588770356
 11
11.9581462076
 21
8.4671621719
  0
LINE
  5
260
100
AcDbEntity
  8
0
100
AcDbLine
 62
7
  6
CONTINUOUS
 10
10.7826923427
 20
7.9732326492
 11
10.5026923427
 21
7.8115745738
  0
LINE
  5
261
100
AcDbEntity
  8
0
100
AcDbLine
 62
7
  6
CONTINUOUS
 10
10.9381264098
 20
10.3674485197
 11
10.9372582757
 21
10.3674485197
  0
LINE
  5
262
100
AcDbEntity
  8
0
100
AcDbLine
 62
7
  6
CONTINUOUS
 10
11.1696252889
 20
12.3146900094
 11
11.0942458051
 21
12.5399755391
  0
LINE
  5
263
100
AcDbEntity
  8
0
100
AcDbLine
 62
7
  6
CONTINUOUS
 10
11.5376916806
 20
10.9914486233
 11
11.1716923427
 21
10.9914486233
  0
LINE
  5
264
100
AcDbEntity
  8
0
100
AcDbLine
 62
7
  6
CONTINUOUS
 10
10.7036923427
 20
10.9914486233
 11
10.3376930049
 21
10.9914486233
  0
LINE
  5
265
100
AcDbEntity
  8
0
100
AcDbLine
 62
7
  6
CONTINUOUS
 10
11.3726923427
 20
6.9513226727
 11
11.1417534821
 21
6.8179900594
  0
LINE
  5
266
100
AcDbEntity
  8
0
100
AcDbLine
 62
7
  6
CONTINUOUS
 10
12.041360801
 20
6.457203824
 11
11.9612687263
 21
6.3178365837
  0
LINE
  5
267
100
AcDbEntity
  8
0
100
AcDbLine
 62
9
  6
CONTINUOUS
 10
12.2942988156
 20
6.9111599601
 11
12.0232775086
 21
6.4417372864
  0
LINE
  5
268
100
AcDbEntity
  8
0
100
AcDbLine
 62
7
  6
CONTINUOUS
 10
11.9726387707
 20
6.3140284195
 11
12.3795785696
 21
7.018868827
  0
LINE
  5
269
100
AcDbEntity
  8
0
100
AcDbLine
 62
7
  6
CONTINUOUS
 10
12.370580154
 20
7.0267770425
 11
12.2899466632
 21
6.8877656015
  0
LINE
  5
26A
100
AcDbEntity
  8
0
100
AcDbLine
 62
7
  6
CONTINUOUS
 10
10.5714423427
 20
11.7484486233
 11
10.7036923427
 21
11.7484486233
  0
LINE
  5
26B
100
AcDbEntity
  8
0
100
AcDbLine
 62
7
  6
CONTINUOUS
 10
11.1716923427
 20
11.7484486233
 11
11.3039423427
 21
11.7484486233
  0
LINE
  5
26C
100
AcDbEntity
  8
0
100
AcDbLine
 62
7
  6
CONTINUOUS
 10
11.5376923427
 20
11.7514486233
 11
11.4976923427
 21
11.7514486233
  0
LINE
  5
26D
100
AcDbEntity
  8
0
100
AcDbLine
 62
7
  6
CONTINUOUS
 10
10.3776923427
 20
11.7514486233
 11
10.3376923427
 21
11.7514486233
  0
LINE
  5
26E
100
AcDbEntity
  8
0
100
AcDbLine
 62
7
  6
CONTINUOUS
 10
10.5195239579
 20
11.7564486233
 11
10.7036923427
 21
11.7564486233
  0
LINE
  5
26F
100
AcDbEntity
  8
0
100
AcDbLine
 62
7
  6
CONTINUOUS
 10
11.1716923427
 20
11.7564486233
 11
11.3558557738
 21
11.7564486233
  0
LINE
  5
270
100
AcDbEntity
  8
0
100
AcDbLine
 62
9
  6
CONTINUOUS
 10
11.3649804299
 20
11.7623460595
 11
11.1716923427
 21
11.7623460592
  0
LINE
  5
271
100
AcDbEntity
  8
0
100
AcDbLine
 62
9
  6
CONTINUOUS
 10
10.7036923427
 20
11.7623460592
 11
10.5104042555
 21
11.7623460595
  0
LINE
  5
272
100
AcDbEntity
  8
0
100
AcDbLine
 62
9
  6
CONTINUOUS
 10
10.4751923427
 20
11.9264486233
 11
10.7036923427
 21
11.9264486233
  0
LINE
  5
273
100
AcDbEntity
  8
0
100
AcDbLine
 62
9
  6
CONTINUOUS
 10
11.1716923427
 20
11.9264486233
 11
11.4001923427
 21
11.9264486233
  0
LINE
  5
274
100
AcDbEntity
  8
0
100
AcDbLine
 62
7
  6
CONTINUOUS
 10
11.4976923427
 20
12.0514486233
 11
11.4001923427
 21
12.0514486233
  0
LINE
  5
275
100
AcDbEntity
  8
0
100
AcDbLine
 62
7
  6
CONTINUOUS
 10
10.4751923427
 20
12.0514486233
 11
10.3776923427
 21
12.0514486233
  0
LINE
  5
276
100
AcDbEntity
  8
0
100
AcDbLine
 62
7
  6
CONTINUOUS
 10
10.3376929928
 20
12.0714486233
 11
10.4751923427
 21
12.0714486233
  0
LINE
  5
277
100
AcDbEntity
  8
0
100
AcDbLine
 62
7
  6
CONTINUOUS
 10
11.4001923427
 20
12.0714486233
 11
11.5376916926
 21
12.0714486233
  0
LINE
  5
278
100
AcDbEntity
  8
0
100
AcDbLine
 62
7
  6
CONTINUOUS
 10
10.387701324
 20
12.1114486233
 11
10.7036923427
 21
12.1114486233
  0
LINE
  5
279
100
AcDbEntity
  8
0
100
AcDbLine
 62
7
  6
CONTINUOUS
 10
11.1716923427
 20
12.1114486233
 11
11.4876833615
 21
12.1114486233
  0
LINE
  5
27A
100
AcDbEntity
  8
0
100
AcDbLine
 62
7
  6
CONTINUOUS
 10
10.7336312034
 20
12.3979900594
 11
10.5026923428
 21
12.5313226727
  0
LINE
  5
27B
100
AcDbEntity
  8
0
100
AcDbLine
 62
7
  6
CONTINUOUS
 10
11.3726923427
 20
13.3915745738
 11
11.0926923428
 21
13.5532326492
  0
LINE
  5
27C
100
AcDbEntity
  8
0
100
AcDbLine
 62
9
  6
CONTINUOUS
 10
11.5376923427
 20
13.7278904845
 11
10.3376923427
 21
13.7278904845
  0
LINE
  5
27D
100
AcDbEntity
  8
0
100
AcDbLine
 62
7
  6
CONTINUOUS
 10
11.5176923427
 20
13.7478904845
 11
10.3576934086
 21
13.7478904845
  0
ARC
  5
27E
100
AcDbEntity
  8
0
100
AcDbCircle
 62
9
  6
CONTINUOUS
 10
5.7661991296
 20
6.4125176901
 40
4.9500566098
100
AcDbArc
 50
3.3552728395
 51
3.4834002369
  0
ARC
  5
27F
100
AcDbEntity
  8
0
100
AcDbCircle
 62
7
  6
CONTINUOUS
 10
10.9372582757
 20
5.6974485198
 40
0.91
100
AcDbArc
 50
257.144699898
 51
270.0
  0
ARC
  5
280
100
AcDbEntity
  8
0
100
AcDbCircle
 62
7
  6
CONTINUOUS
 10
10.9381264098
 20
5.6974485198
 40
0.91
100
AcDbArc
 50
270.0
 51
282.8552997123
  0
ARC
  5
281
100
AcDbEntity
  8
0
100
AcDbCircle
 62
9
  6
CONTINUOUS
 10
10.8362408766
 20
5.4774008439
 40
0.6671429751
100
AcDbArc
 50
264.873421688
 51
275.1268229244
  0
ARC
  5
282
100
AcDbEntity
  8
0
100
AcDbCircle
 62
9
  6
CONTINUOUS
 10
10.8206923427
 20
5.4871015031
 40
0.6378465208
100
AcDbArc
 50
264.8730270387
 51
275.1269729563
  0
ARC
  5
283
100
AcDbEntity
  8
0
100
AcDbCircle
 62
7
  6
CONTINUOUS
 10
10.5307525438
 20
6.0314486233
 40
0.08
100
AcDbArc
 50
253.2252557369
 51
270.0
  0
ARC
  5
284
100
AcDbEntity
  8
0
100
AcDbCircle
 62
7
  6
CONTINUOUS
 10
9.9720279471
 20
6.3540284195
 40
0.08
100
AcDbArc
 50
210.0
 51
226.7747442666
  0
ARC
  5
285
100
AcDbEntity
  8
0
100
AcDbCircle
 62
9
  6
CONTINUOUS
 10
10.5282460047
 20
6.0232345706
 40
0.0600419564
100
AcDbArc
 50
253.2706557525
 51
270.1395699369
  0
ARC
  5
286
100
AcDbEntity
  8
0
100
AcDbCircle
 62
9
  6
CONTINUOUS
 10
9.9661674728
 20
6.3477506158
 40
0.0600415114
100
AcDbArc
 50
209.8874418805
 51
226.749691908
  0
ARC
  5
287
100
AcDbEntity
  8
0
100
AcDbCircle
 62
7
  6
CONTINUOUS
 10
10.7436923425
 20
4.8492550212
 40
0.04
100
AcDbArc
 50
180.0000200341
 51
257.1442016139
  0
ARC
  5
288
100
AcDbEntity
  8
0
100
AcDbCircle
 62
7
  6
CONTINUOUS
 10
9.5650881481
 20
7.058868827
 40
0.08
100
AcDbArc
 50
193.2252557334
 51
210.0
  0
ARC
  5
289
100
AcDbEntity
  8
0
100
AcDbCircle
 62
9
  6
CONTINUOUS
 10
9.5567213027
 20
7.0569324503
 40
0.0600419312
100
AcDbArc
 50
193.2503179507
 51
210.112543622
  0
ARC
  5
28A
100
AcDbEntity
  8
0
100
AcDbCircle
 62
7
  6
CONTINUOUS
 10
9.5650881481
 20
7.7040284195
 40
0.08
100
AcDbArc
 50
150.0
 51
166.7747442651
  0
ARC
  5
28B
100
AcDbEntity
  8
0
100
AcDbCircle
 62
7
  6
CONTINUOUS
 10
9.9720279471
 20
8.408868827
 40
0.08
100
AcDbArc
 50
133.225255736
 51
150.0
  0
ARC
  5
28C
100
AcDbEntity
  8
0
100
AcDbCircle
 62
9
  6
CONTINUOUS
 10
9.9661674968
 20
8.415146603
 40
0.0600418319
100
AcDbArc
 50
133.2488983485
 51
150.1162856068
  0
ARC
  5
28D
100
AcDbEntity
  8
0
100
AcDbCircle
 62
9
  6
CONTINUOUS
 10
9.5567211737
 20
7.7059647596
 40
0.0600415397
100
AcDbArc
 50
149.8604185485
 51
166.7293538212
  0
ARC
  5
28E
100
AcDbEntity
  8
0
100
AcDbCircle
 62
7
  6
CONTINUOUS
 10
10.7438841308
 20
6.7219665884
 40
0.0401918002
100
AcDbArc
 50
161.5445273868
 51
179.9554731357
  0
ARC
  5
28F
100
AcDbEntity
  8
0
100
AcDbCircle
 62
7
  6
CONTINUOUS
 10
10.6576923427
 20
7.2197905479
 40
0.31
100
AcDbArc
 50
179.999999997
 51
240.0
  0
ARC
  5
290
100
AcDbEntity
  8
0
100
AcDbCircle
 62
7
  6
CONTINUOUS
 10
10.6576923427
 20
7.5431066986
 40
0.31
100
AcDbArc
 50
119.9999999978
 51
180.0
  0
ARC
  5
291
100
AcDbEntity
  8
0
100
AcDbCircle
 62
9
  6
CONTINUOUS
 10
10.6658106877
 20
7.2245620096
 40
0.3099771281
100
AcDbArc
 50
225.1800050624
 51
238.5287931332
  0
ARC
  5
292
100
AcDbEntity
  8
0
100
AcDbCircle
 62
9
  6
CONTINUOUS
 10
10.6658429769
 20
7.2244284175
 40
0.3099361871
100
AcDbArc
 50
181.4700902121
 51
194.5670531446
  0
ARC
  5
293
100
AcDbEntity
  8
0
100
AcDbCircle
 62
9
  6
CONTINUOUS
 10
10.6627972769
 20
7.2236970495
 40
0.3068044514
100
AcDbArc
 50
194.5779173916
 51
194.8341071288
  0
ARC
  5
294
100
AcDbEntity
  8
0
100
AcDbCircle
 62
9
  6
CONTINUOUS
 10
10.6658851235
 20
7.5384615534
 40
0.3099786413
100
AcDbArc
 50
165.1800397523
 51
178.5287686568
  0
ARC
  5
295
100
AcDbEntity
  8
0
100
AcDbCircle
 62
9
  6
CONTINUOUS
 10
10.6658107765
 20
7.538335126
 40
0.3099772612
100
AcDbArc
 50
121.4712103523
 51
134.8199922054
  0
ARC
  5
296
100
AcDbEntity
  8
0
100
AcDbCircle
 62
7
  6
CONTINUOUS
 10
10.9376923427
 20
7.3814486233
 40
1.49
100
AcDbArc
 50
226.7747442642
 51
253.225255736
  0
ARC
  5
297
100
AcDbEntity
  8
0
100
AcDbCircle
 62
7
  6
CONTINUOUS
 10
10.9376923427
 20
7.3814486233
 40
1.49
100
AcDbArc
 50
166.7747442642
 51
193.2252557358
  0
ARC
  5
298
100
AcDbEntity
  8
0
100
AcDbCircle
 62
7
  6
CONTINUOUS
 10
10.9376923427
 20
7.3814486233
 40
1.49
100
AcDbArc
 50
286.7747442641
 51
313.2252557359
  0
ARC
  5
299
100
AcDbEntity
  8
0
100
AcDbCircle
 62
7
  6
CONTINUOUS
 10
10.9376923427
 20
7.3814486233
 40
1.49
100
AcDbArc
 50
346.7747442641
 51
13.2252557359
  0
ARC
  5
29A
100
AcDbEntity
  8
0
100
AcDbCircle
 62
7
  6
CONTINUOUS
 10
10.9376923427
 20
7.3814486233
 40
1.49
100
AcDbArc
 50
46.7747442641
 51
66.2443799295
  0
ARC
  5
29B
100
AcDbEntity
  8
0
100
AcDbCircle
 62
7
  6
CONTINUOUS
 10
10.9376923427
 20
7.3814486233
 40
1.49
100
AcDbArc
 50
113.7556200705
 51
133.2252557359
  0
ARC
  5
29C
100
AcDbEntity
  8
0
100
AcDbCircle
 62
9
  6
CONTINUOUS
 10
10.9376923427
 20
7.3814486233
 40
1.4786329553
100
AcDbArc
 50
346.7735411776
 51
13.2252621508
  0
ARC
  5
29D
100
AcDbEntity
  8
0
100
AcDbCircle
 62
9
  6
CONTINUOUS
 10
10.9376923427
 20
7.3814486233
 40
1.4786329051
100
AcDbArc
 50
46.7747378542
 51
66.0502441973
  0
ARC
  5
29E
100
AcDbEntity
  8
0
100
AcDbCircle
 62
9
  6
CONTINUOUS
 10
10.9376923427
 20
7.3814486233
 40
1.4786301178
100
AcDbArc
 50
166.7740332239
 51
193.2251440142
  0
ARC
  5
29F
100
AcDbEntity
  8
0
100
AcDbCircle
 62
9
  6
CONTINUOUS
 10
10.9376923427
 20
7.3814486233
 40
1.4786301062
100
AcDbArc
 50
226.7748559864
 51
253.2259667831
  0
ARC
  5
2A0
100
AcDbEntity
  8
0
100
AcDbCircle
 62
9
  6
CONTINUOUS
 10
10.9376923427
 20
7.3814486233
 40
1.4786242444
100
AcDbArc
 50
113.9545014396
 51
133.2250868547
  0
ARC
  5
2A1
100
AcDbEntity
  8
0
100
AcDbCircle
 62
9
  6
CONTINUOUS
 10
10.9376923427
 20
7.3814486233
 40
1.4786242418
100
AcDbArc
 50
286.7749131534
 51
313.2250454421
  0
ARC
  5
2A2
100
AcDbEntity
  8
0
100
AcDbCircle
 62
7
  6
CONTINUOUS
 10
10.9376923427
 20
7.3814486233
 40
1.4358113102
100
AcDbArc
 50
340.8803332695
 51
20.9394564117
  0
ARC
  5
2A3
100
AcDbEntity
  8
0
100
AcDbCircle
 62
7
  6
CONTINUOUS
 10
10.9376923427
 20
7.3814486233
 40
1.4358113102
100
AcDbArc
 50
39.0605018207
 51
65.2870927035
  0
ARC
  5
2A4
100
AcDbEntity
  8
0
100
AcDbCircle
 62
7
  6
CONTINUOUS
 10
10.9376923427
 20
7.3814486233
 40
1.4358091885
100
AcDbArc
 50
220.8803332694
 51
259.1196667306
  0
ARC
  5
2A5
100
AcDbEntity
  8
0
100
AcDbCircle
 62
7
  6
CONTINUOUS
 10
10.9376923427
 20
7.3814486233
 40
1.4358091885
100
AcDbArc
 50
160.8803332695
 51
199.1196667306
  0
ARC
  5
2A6
100
AcDbEntity
  8
0
100
AcDbCircle
 62
7
  6
CONTINUOUS
 10
10.9376923427
 20
7.3814486233
 40
1.4358058254
100
AcDbArc
 50
280.8803332694
 51
319.1196667305
  0
ARC
  5
2A7
100
AcDbEntity
  8
0
100
AcDbCircle
 62
7
  6
CONTINUOUS
 10
10.9376923427
 20
7.3814486233
 40
1.4358058253
100
AcDbArc
 50
114.7368925411
 51
139.1196667305
  0
ARC
  5
2A8
100
AcDbEntity
  8
0
100
AcDbCircle
 62
7
  6
CONTINUOUS
 10
10.9376923427
 20
7.3814486233
 40
1.375
100
AcDbArc
 50
115.9130379797
 51
260.1841107924
  0
ARC
  5
2A9
100
AcDbEntity
  8
0
100
AcDbCircle
 62
7
  6
CONTINUOUS
 10
10.9376923427
 20
7.3814486233
 40
1.375
100
AcDbArc
 50
279.8153658696
 51
64.0876061588
  0
ARC
  5
2AA
100
AcDbEntity
  8
0
100
AcDbCircle
 62
7
  6
CONTINUOUS
 10
10.9376923427
 20
7.3814486233
 40
0.86
100
AcDbArc
 50
134.291771459
 51
254.1775182303
  0
ARC
  5
2AB
100
AcDbEntity
  8
0
100
AcDbCircle
 62
7
  6
CONTINUOUS
 10
10.9376923427
 20
7.3814486233
 40
0.86
100
AcDbArc
 50
285.8269987816
 51
45.7103947214
  0
ARC
  5
2AC
100
AcDbEntity
  8
0
100
AcDbCircle
 62
7
  6
CONTINUOUS
 10
10.9376923427
 20
7.3814486233
 40
0.85
100
AcDbArc
 50
135.020142119
 51
253.9772517538
  0
ARC
  5
2AD
100
AcDbEntity
  8
0
100
AcDbCircle
 62
7
  6
CONTINUOUS
 10
10.9376923427
 20
7.3814486233
 40
0.85
100
AcDbArc
 50
286.0225956848
 51
44.9828600945
  0
ARC
  5
2AE
100
AcDbEntity
  8
0
100
AcDbCircle
 62
7
  6
CONTINUOUS
 10
10.9376923427
 20
7.3814486233
 40
0.6625
100
AcDbArc
 50
289.7748439284
 51
250.2257127451
  0
ARC
  5
2AF
100
AcDbEntity
  8
0
100
AcDbCircle
 62
9
  6
CONTINUOUS
 10
10.9376923427
 20
7.3814486233
 40
0.6184014245
100
AcDbArc
 50
322.4647091898
 51
337.5352908102
  0
ARC
  5
2B0
100
AcDbEntity
  8
0
100
AcDbCircle
 62
9
  6
CONTINUOUS
 10
10.9376923427
 20
7.3814486233
 40
0.6184014245
100
AcDbArc
 50
202.4647091898
 51
217.5352908102
  0
ARC
  5
2B1
100
AcDbEntity
  8
0
100
AcDbCircle
 62
9
  6
CONTINUOUS
 10
10.9376923427
 20
7.3814486233
 40
0.6184014245
100
AcDbArc
 50
142.4647091898
 51
157.5352908102
  0
ARC
  5
2B2
100
AcDbEntity
  8
0
100
AcDbCircle
 62
9
  6
CONTINUOUS
 10
10.9376923427
 20
7.3814486233
 40
0.6184014245
100
AcDbArc
 50
82.4647091898
 51
97.5352908101
  0
ARC
  5
2B3
100
AcDbEntity
  8
0
100
AcDbCircle
 62
9
  6
CONTINUOUS
 10
10.9376923427
 20
7.3814486233
 40
0.6184014245
100
AcDbArc
 50
22.4647091898
 51
37.5352908104
  0
ARC
  5
2B4
100
AcDbEntity
  8
0
100
AcDbCircle
 62
9
  6
CONTINUOUS
 10
10.9376923427
 20
7.3814486233
 40
0.5324725648
100
AcDbArc
 50
290.0907569766
 51
249.9092430234
  0
ARC
  5
2B5
100
AcDbEntity
  8
0
100
AcDbCircle
 62
9
  6
CONTINUOUS
 10
10.9376923427
 20
7.3814486233
 40
0.5073188532
100
AcDbArc
 50
290.1647928351
 51
249.8352071649
  0
ARC
  5
2B6
100
AcDbEntity
  8
0
100
AcDbCircle
 62
9
  6
CONTINUOUS
 10
10.9376923427
 20
7.3814486233
 40
0.4864589222
100
AcDbArc
 50
290.2372350562
 51
249.7658902285
  0
ARC
  5
2B7
100
AcDbEntity
  8
0
100
AcDbCircle
 62
9
  6
CONTINUOUS
 10
10.9376923427
 20
7.3814486233
 40
0.4523382295
100
AcDbArc
 50
290.3690698489
 51
249.6643814906
  0
CIRCLE
  5
2B8
100
AcDbEntity
  8
0
100
AcDbCircle
 62
7
  6
CONTINUOUS
 10
10.9376923427
 20
7.3814486233
 40
0.45
  0
CIRCLE
  5
2B9
100
AcDbEntity
  8
0
100
AcDbCircle
 62
9
  6
CONTINUOUS
 10
10.9376923427
 20
7.3814486233
 40
0.4
  0
ARC
  5
2BA
100
AcDbEntity
  8
0
100
AcDbCircle
 62
7
  6
CONTINUOUS
 10
10.9376923427
 20
7.704764774
 40
0.31
100
AcDbArc
 50
59.9999999973
 51
120.0
  0
ARC
  5
2BB
100
AcDbEntity
  8
0
100
AcDbCircle
 62
9
  6
CONTINUOUS
 10
10.9376192564
 20
7.6953482178
 40
0.3099772612
100
AcDbArc
 50
61.4712103507
 51
74.819992205
  0
ARC
  5
2BC
100
AcDbEntity
  8
0
100
AcDbCircle
 62
9
  6
CONTINUOUS
 10
10.9377653773
 20
7.6953483502
 40
0.3099771282
100
AcDbArc
 50
105.1800050628
 51
118.5287931326
  0
ARC
  5
2BD
100
AcDbEntity
  8
0
100
AcDbCircle
 62
9
  6
CONTINUOUS
 10
10.9375772457
 20
7.7178909132
 40
0.2882938241
100
AcDbArc
 50
73.6387033739
 51
89.9771254994
  0
ARC
  5
2BE
100
AcDbEntity
  8
0
100
AcDbCircle
 62
9
  6
CONTINUOUS
 10
10.937796231
 20
7.7179686869
 40
0.2882161996
100
AcDbArc
 50
90.0206524181
 51
106.3635159173
  0
ARC
  5
2BF
100
AcDbEntity
  8
0
100
AcDbCircle
 62
9
  6
CONTINUOUS
 10
5.7661991325
 20
11.9925176903
 40
4.9500566068
100
AcDbArc
 50
3.3552728394
 51
3.4834002369
  0
ARC
  5
2C0
100
AcDbEntity
  8
0
100
AcDbCircle
 62
7
  6
CONTINUOUS
 10
10.9372582757
 20
11.2774485198
 40
0.91
100
AcDbArc
 50
257.144699898
 51
270.0
  0
ARC
  5
2C1
100
AcDbEntity
  8
0
100
AcDbCircle
 62
7
  6
CONTINUOUS
 10
10.9381264098
 20
11.2774485198
 40
0.91
100
AcDbArc
 50
270.0
 51
282.8552997123
  0
ARC
  5
2C2
100
AcDbEntity
  8
0
100
AcDbCircle
 62
9
  6
CONTINUOUS
 10
10.8362408766
 20
11.0574008439
 40
0.6671429751
100
AcDbArc
 50
264.873421688
 51
275.1268229244
  0
ARC
  5
2C3
100
AcDbEntity
  8
0
100
AcDbCircle
 62
9
  6
CONTINUOUS
 10
10.8206923427
 20
11.0671015031
 40
0.6378465208
100
AcDbArc
 50
264.8730270387
 51
275.1269729563
  0
ARC
  5
2C4
100
AcDbEntity
  8
0
100
AcDbCircle
 62
7
  6
CONTINUOUS
 10
10.7436923425
 20
10.4292550212
 40
0.04
100
AcDbArc
 50
180.0000200341
 51
257.1442016139
  0
ARC
  5
2C5
100
AcDbEntity
  8
0
100
AcDbCircle
 62
7
  6
CONTINUOUS
 10
10.3576923427
 20
9.3314486233
 40
0.02
100
AcDbArc
 50
180.0
 51
270.0
  0
ARC
  5
2C6
100
AcDbEntity
  8
0
100
AcDbCircle
 62
7
  6
CONTINUOUS
 10
10.5195239579
 20
11.7664486233
 40
0.01
100
AcDbArc
 50
204.2209411427
 51
270.0
  0
ARC
  5
2C7
100
AcDbEntity
  8
0
100
AcDbCircle
 62
7
  6
CONTINUOUS
 10
10.3576923427
 20
13.7278904845
 40
0.02
100
AcDbArc
 50
90.0
 51
180.0
  0
ARC
  5
2C8
100
AcDbEntity
  8
0
100
AcDbCircle
 62
7
  6
CONTINUOUS
 10
10.6576923427
 20
12.7997905479
 40
0.31
100
AcDbArc
 50
179.999999997
 51
240.0
  0
ARC
  5
2C9
100
AcDbEntity
  8
0
100
AcDbCircle
 62
7
  6
CONTINUOUS
 10
10.6576923427
 20
13.1231066986
 40
0.31
100
AcDbArc
 50
119.9999999978
 51
180.0
  0
ARC
  5
2CA
100
AcDbEntity
  8
0
100
AcDbCircle
 62
9
  6
CONTINUOUS
 10
10.6658106877
 20
12.8045620096
 40
0.3099771281
100
AcDbArc
 50
225.1800050624
 51
238.5287931332
  0
ARC
  5
2CB
100
AcDbEntity
  8
0
100
AcDbCircle
 62
9
  6
CONTINUOUS
 10
10.6658429769
 20
12.8044284175
 40
0.3099361871
100
AcDbArc
 50
181.4700902121
 51
194.5670531446
  0
ARC
  5
2CC
100
AcDbEntity
  8
0
100
AcDbCircle
 62
9
  6
CONTINUOUS
 10
10.6627972772
 20
12.8036970496
 40
0.3068044517
100
AcDbArc
 50
194.5779173916
 51
194.8341071287
  0
ARC
  5
2CD
100
AcDbEntity
  8
0
100
AcDbCircle
 62
9
  6
CONTINUOUS
 10
10.6658851235
 20
13.1184615534
 40
0.3099786413
100
AcDbArc
 50
165.1800397523
 51
178.5287686568
  0
ARC
  5
2CE
100
AcDbEntity
  8
0
100
AcDbCircle
 62
9
  6
CONTINUOUS
 10
10.6658107765
 20
13.118335126
 40
0.3099772612
100
AcDbArc
 50
121.4712103523
 51
134.8199922054
  0
ARC
  5
2CF
100
AcDbEntity
  8
0
100
AcDbCircle
 62
7
  6
CONTINUOUS
 10
11.0001923427
 20
11.9264486233
 40
0.4
100
AcDbArc
 50
335.7790569402
 51
360.0
  0
ARC
  5
2D0
100
AcDbEntity
  8
0
100
AcDbCircle
 62
7
  6
CONTINUOUS
 10
10.8751923427
 20
11.9264486233
 40
0.4
100
AcDbArc
 50
180.0
 51
204.2209430598
  0
ARC
  5
2D1
100
AcDbEntity
  8
0
100
AcDbCircle
 62
7
  6
CONTINUOUS
 10
10.7438841308
 20
12.3019665884
 40
0.0401918002
100
AcDbArc
 50
161.5445273868
 51
179.9554731357
  0
ARC
  5
2D2
100
AcDbEntity
  8
0
100
AcDbCircle
 62
9
  6
CONTINUOUS
 10
10.9376923427
 20
12.9614486233
 40
0.6184014245
100
AcDbArc
 50
322.4647091898
 51
337.5352908102
  0
ARC
  5
2D3
100
AcDbEntity
  8
0
100
AcDbCircle
 62
9
  6
CONTINUOUS
 10
10.9376923427
 20
12.9614486233
 40
0.6184014245
100
AcDbArc
 50
202.4647091898
 51
217.5352908102
  0
ARC
  5
2D4
100
AcDbEntity
  8
0
100
AcDbCircle
 62
9
  6
CONTINUOUS
 10
10.9376923427
 20
12.9614486233
 40
0.6184014245
100
AcDbArc
 50
142.4647091898
 51
157.5352908102
  0
ARC
  5
2D5
100
AcDbEntity
  8
0
100
AcDbCircle
 62
9
  6
CONTINUOUS
 10
10.9376923427
 20
12.9614486233
 40
0.6184014245
100
AcDbArc
 50
82.4647091898
 51
97.5352908101
  0
ARC
  5
2D6
100
AcDbEntity
  8
0
100
AcDbCircle
 62
9
  6
CONTINUOUS
 10
10.9376923427
 20
12.9614486233
 40
0.6184014245
100
AcDbArc
 50
22.4647091898
 51
37.5352908104
  0
ARC
  5
2D7
100
AcDbEntity
  8
0
100
AcDbCircle
 62
9
  6
CONTINUOUS
 10
10.9376923427
 20
12.9614486233
 40
0.5324725648
100
AcDbArc
 50
290.0907569766
 51
249.9092430234
  0
ARC
  5
2D8
100
AcDbEntity
  8
0
100
AcDbCircle
 62
9
  6
CONTINUOUS
 10
10.9376923427
 20
12.9614486233
 40
0.5073188532
100
AcDbArc
 50
290.1647928351
 51
249.8352071649
  0
ARC
  5
2D9
100
AcDbEntity
  8
0
100
AcDbCircle
 62
9
  6
CONTINUOUS
 10
10.9376923427
 20
12.9614486233
 40
0.4864589222
100
AcDbArc
 50
290.2372350562
 51
249.7658902285
  0
ARC
  5
2DA
100
AcDbEntity
  8
0
100
AcDbCircle
 62
9
  6
CONTINUOUS
 10
10.9376923427
 20
12.9614486233
 40
0.4523382295
100
AcDbArc
 50
290.3690698489
 51
249.6643814906
  0
CIRCLE
  5
2DB
100
AcDbEntity
  8
0
100
AcDbCircle
 62
7
  6
CONTINUOUS
 10
10.9376923427
 20
12.9614486233
 40
0.45
  0
CIRCLE
  5
2DC
100
AcDbEntity
  8
0
100
AcDbCircle
 62
9
  6
CONTINUOUS
 10
10.9376923427
 20
12.9614486233
 40
0.4
  0
ARC
  5
2DD
100
AcDbEntity
  8
0
100
AcDbCircle
 62
7
  6
CONTINUOUS
 10
10.9376923427
 20
13.284764774
 40
0.31
100
AcDbArc
 50
59.9999999973
 51
120.0
  0
ARC
  5
2DE
100
AcDbEntity
  8
0
100
AcDbCircle
 62
9
  6
CONTINUOUS
 10
10.9376192564
 20
13.2753482178
 40
0.3099772612
100
AcDbArc
 50
61.4712103507
 51
74.819992205
  0
ARC
  5
2DF
100
AcDbEntity
  8
0
100
AcDbCircle
 62
9
  6
CONTINUOUS
 10
10.9377653773
 20
13.2753483502
 40
0.3099771282
100
AcDbArc
 50
105.1800050628
 51
118.5287931326
  0
ARC
  5
2E0
100
AcDbEntity
  8
0
100
AcDbCircle
 62
9
  6
CONTINUOUS
 10
10.9375772457
 20
13.2978909132
 40
0.2882938241
100
AcDbArc
 50
73.6387033739
 51
89.9771254994
  0
ARC
  5
2E1
100
AcDbEntity
  8
0
100
AcDbCircle
 62
9
  6
CONTINUOUS
 10
10.937796231
 20
13.2979686869
 40
0.2882161996
100
AcDbArc
 50
90.0206524181
 51
106.3635159173
  0
ARC
  5
2E2
100
AcDbEntity
  8
0
100
AcDbCircle
 62
9
  6
CONTINUOUS
 10
11.0391409773
 20
5.4774108612
 40
0.6671530005
100
AcDbArc
 50
264.8734493306
 51
275.1267918507
  0
ARC
  5
2E3
100
AcDbEntity
  8
0
100
AcDbCircle
 62
9
  6
CONTINUOUS
 10
11.0546922987
 20
5.4870996705
 40
0.6378446936
100
AcDbArc
 50
264.8730162892
 51
275.1269916633
  0
ARC
  5
2E4
100
AcDbEntity
  8
0
100
AcDbCircle
 62
7
  6
CONTINUOUS
 10
11.3446321417
 20
6.0314486233
 40
0.08
100
AcDbArc
 50
270.0
 51
286.7747442635
  0
ARC
  5
2E5
100
AcDbEntity
  8
0
100
AcDbCircle
 62
7
  6
CONTINUOUS
 10
11.9033567384
 20
6.3540284195
 40
0.08
100
AcDbArc
 50
313.225255736
 51
330.0
  0
ARC
  5
2E6
100
AcDbEntity
  8
0
100
AcDbCircle
 62
9
  6
CONTINUOUS
 10
11.9092171853
 20
6.3477506517
 40
0.0600418396
100
AcDbArc
 50
313.2478754682
 51
330.1143643263
  0
ARC
  5
2E7
100
AcDbEntity
  8
0
100
AcDbCircle
 62
9
  6
CONTINUOUS
 10
11.3471386594
 20
6.0232343018
 40
0.0600414087
100
AcDbArc
 50
269.883699558
 51
286.7511119825
  0
ARC
  5
2E8
100
AcDbEntity
  8
0
100
AcDbCircle
 62
7
  6
CONTINUOUS
 10
11.1316923425
 20
4.8492550216
 40
0.04
100
AcDbArc
 50
282.855798915
 51
359.9999793357
  0
ARC
  5
2E9
100
AcDbEntity
  8
0
100
AcDbCircle
 62
7
  6
CONTINUOUS
 10
11.1315005547
 20
6.7219665884
 40
0.0401918002
100
AcDbArc
 50
0.0445268643
 51
18.4554726132
  0
ARC
  5
2EA
100
AcDbEntity
  8
0
100
AcDbCircle
 62
9
  6
CONTINUOUS
 10
11.209499562
 20
7.2244356931
 40
0.3099786413
100
AcDbArc
 50
345.1800397523
 51
358.5287686568
  0
ARC
  5
2EB
100
AcDbEntity
  8
0
100
AcDbCircle
 62
9
  6
CONTINUOUS
 10
11.209573909
 20
7.2245621206
 40
0.3099772612
100
AcDbArc
 50
301.4712103524
 51
314.8199922054
  0
ARC
  5
2EC
100
AcDbEntity
  8
0
100
AcDbCircle
 62
9
  6
CONTINUOUS
 10
11.2095739978
 20
7.538335237
 40
0.3099771281
100
AcDbArc
 50
45.1800050624
 51
58.5287931332
  0
ARC
  5
2ED
100
AcDbEntity
  8
0
100
AcDbCircle
 62
9
  6
CONTINUOUS
 10
11.2095417086
 20
7.5384688291
 40
0.3099361871
100
AcDbArc
 50
1.4700902122
 51
14.5670531437
  0
ARC
  5
2EE
100
AcDbEntity
  8
0
100
AcDbCircle
 62
9
  6
CONTINUOUS
 10
11.2125874076
 20
7.5392001968
 40
0.3068044524
100
AcDbArc
 50
14.5779173907
 51
14.834107128
  0
ARC
  5
2EF
100
AcDbEntity
  8
0
100
AcDbCircle
 62
7
  6
CONTINUOUS
 10
11.2176923427
 20
7.2197905479
 40
0.31
100
AcDbArc
 50
299.9999999978
 51
360.0
  0
ARC
  5
2F0
100
AcDbEntity
  8
0
100
AcDbCircle
 62
7
  6
CONTINUOUS
 10
11.2176923427
 20
7.5431066986
 40
0.31
100
AcDbArc
 50
0.0
 51
60.0
  0
ARC
  5
2F1
100
AcDbEntity
  8
0
100
AcDbCircle
 62
7
  6
CONTINUOUS
 10
12.3102965373
 20
7.058868827
 40
0.08
100
AcDbArc
 50
330.0
 51
346.7747442648
  0
ARC
  5
2F2
100
AcDbEntity
  8
0
100
AcDbCircle
 62
9
  6
CONTINUOUS
 10
12.3186634222
 20
7.0569325606
 40
0.0600416499
100
AcDbArc
 50
329.8499561021
 51
346.7171853058
  0
ARC
  5
2F3
100
AcDbEntity
  8
0
100
AcDbCircle
 62
7
  6
CONTINUOUS
 10
12.3102965373
 20
7.7040284195
 40
0.08
100
AcDbArc
 50
13.2252557359
 51
30.0
  0
ARC
  5
2F4
100
AcDbEntity
  8
0
100
AcDbCircle
 62
7
  6
CONTINUOUS
 10
11.9033567384
 20
8.408868827
 40
0.08
100
AcDbArc
 50
30.0
 51
46.7747442643
  0
ARC
  5
2F5
100
AcDbEntity
  8
0
100
AcDbCircle
 62
9
  6
CONTINUOUS
 10
12.318663379
 20
7.7059647838
 40
0.0600419392
100
AcDbArc
 50
13.2532378004
 51
30.1162353442
  0
ARC
  5
2F6
100
AcDbEntity
  8
0
100
AcDbCircle
 62
9
  6
CONTINUOUS
 10
11.9092171999
 20
8.4151466334
 40
0.0600415197
100
AcDbArc
 50
29.8837444612
 51
46.7467721099
  0
ARC
  5
2F7
100
AcDbEntity
  8
0
100
AcDbCircle
 62
9
  6
CONTINUOUS
 10
16.2517414915
 20
6.4040167021
 40
5.0928657191
100
AcDbArc
 50
176.4854531388
 51
176.6431180287
  0
ARC
  5
2F8
100
AcDbEntity
  8
0
100
AcDbCircle
 62
9
  6
CONTINUOUS
 10
11.0391409773
 20
11.0574108612
 40
0.6671530005
100
AcDbArc
 50
264.8734493306
 51
275.1267918507
  0
ARC
  5
2F9
100
AcDbEntity
  8
0
100
AcDbCircle
 62
9
  6
CONTINUOUS
 10
11.0546922987
 20
11.0670996705
 40
0.6378446936
100
AcDbArc
 50
264.8730162892
 51
275.1269916633
  0
ARC
  5
2FA
100
AcDbEntity
  8
0
100
AcDbCircle
 62
7
  6
CONTINUOUS
 10
11.1316923425
 20
10.4292550216
 40
0.04
100
AcDbArc
 50
282.855798915
 51
359.9999793357
  0
ARC
  5
2FB
100
AcDbEntity
  8
0
100
AcDbCircle
 62
7
  6
CONTINUOUS
 10
11.5176923427
 20
9.3314486233
 40
0.02
100
AcDbArc
 50
270.0
 51
360.0
  0
ARC
  5
2FC
100
AcDbEntity
  8
0
100
AcDbCircle
 62
7
  6
CONTINUOUS
 10
11.1315005547
 20
12.3019665884
 40
0.0401918002
100
AcDbArc
 50
0.0445268643
 51
18.4554726132
  0
ARC
  5
2FD
100
AcDbEntity
  8
0
100
AcDbCircle
 62
9
  6
CONTINUOUS
 10
11.209499562
 20
12.8044356931
 40
0.3099786413
100
AcDbArc
 50
345.1800397523
 51
358.5287686568
  0
ARC
  5
2FE
100
AcDbEntity
  8
0
100
AcDbCircle
 62
9
  6
CONTINUOUS
 10
11.209573909
 20
12.8045621206
 40
0.3099772612
100
AcDbArc
 50
301.4712103524
 51
314.8199922054
  0
ARC
  5
2FF
100
AcDbEntity
  8
0
100
AcDbCircle
 62
9
  6
CONTINUOUS
 10
11.2095739978
 20
13.118335237
 40
0.3099771281
100
AcDbArc
 50
45.1800050624
 51
58.5287931332
  0
ARC
  5
300
100
AcDbEntity
  8
0
100
AcDbCircle
 62
9
  6
CONTINUOUS
 10
11.2095417086
 20
13.1184688291
 40
0.3099361871
100
AcDbArc
 50
1.4700902122
 51
14.5670531437
  0
ARC
  5
301
100
AcDbEntity
  8
0
100
AcDbCircle
 62
9
  6
CONTINUOUS
 10
11.2125874085
 20
13.119200197
 40
0.3068044515
100
AcDbArc
 50
14.5779173903
 51
14.8341071283
  0
ARC
  5
302
100
AcDbEntity
  8
0
100
AcDbCircle
 62
7
  6
CONTINUOUS
 10
11.2176923427
 20
12.7997905479
 40
0.31
100
AcDbArc
 50
299.9999999978
 51
360.0
  0
ARC
  5
303
100
AcDbEntity
  8
0
100
AcDbCircle
 62
7
  6
CONTINUOUS
 10
11.2176923427
 20
13.1231066986
 40
0.31
100
AcDbArc
 50
0.0
 51
60.0
  0
ARC
  5
304
100
AcDbEntity
  8
0
100
AcDbCircle
 62
7
  6
CONTINUOUS
 10
11.3558607276
 20
11.7664486233
 40
0.01
100
AcDbArc
 50
270.0
 51
335.7790588573
  0
ARC
  5
305
100
AcDbEntity
  8
0
100
AcDbCircle
 62
7
  6
CONTINUOUS
 10
11.5176923427
 20
13.7278904845
 40
0.02
100
AcDbArc
 50
0.0
 51
90.0
  0
ARC
  5
306
100
AcDbEntity
  8
0
100
AcDbCircle
 62
9
  6
CONTINUOUS
 10
16.251741493
 20
11.984016702
 40
5.0928657206
100
AcDbArc
 50
176.4854531388
 51
176.6431180287
  0
SPLINE
  5
307
100
AcDbEntity
  8
0
100
AcDbSpline
 62
9
  6
CONTINUOUS
 70
0
 71
3
 72
35
 73
31
 74
0
 42
0.0000001
 43
0.0000001
 44
0.0000000001
 40
0.0
 40
0.0
 40
0.0
 40
0.0
 40
0.0001860684
 40
0.0007381558
 40
0.0016472907
 40
0.002904507
 40
0.006427342
 40
0.0112350404
 40
0.0172490868
 40
0.0243631862
 40
0.0324643648
 40
0.0414400329
 40
0.0616205783
 40
0.0842836112
 40
0.1089063004
 40
0.1351214911
 40
0.1626367299
 40
0.1912871718
 40
0.2514766289
 40
0.314846854
 40
0.3810555574
 40
0.4499567972
 40
0.5214839683
 40
0.5956427991
 40
0.6723664597
 40
0.7515907939
 40
0.8329564971
 40
0.8743431103
 40
0.9160656347
 40
1.0
 40
1.0
 40
1.0
 40
1.0
 10
11.5376897623
 20
7.6754096125
 30
0.0
 10
11.5376726353
 20
7.6754550208
 30
0.0
 10
11.5375989998
 20
7.6756329505
 30
0.0
 10
11.5374405777
 20
7.6760323058
 30
0.0
 10
11.5371734643
 20
7.6766891179
 30
0.0
 10
11.536614515
 20
7.6780636783
 30
0.0
 10
11.5356626712
 20
7.6803761705
 30
0.0
 10
11.534223975
 20
7.6838298997
 30
0.0
 10
11.5324035827
 20
7.6881392928
 30
0.0
 10
11.5302157033
 20
7.6932258556
 30
0.0
 10
11.5276778539
 20
7.6990025993
 30
0.0
 10
11.5236905051
 20
7.7078645869
 30
0.0
 10
11.5179543457
 20
7.7201037886
 30
0.0
 10
11.5101381545
 20
7.7358711381
 30
0.0
 10
11.5011951732
 20
7.7528305994
 30
0.0
 10
11.4911825083
 20
7.770648998
 30
0.0
 10
11.4801151336
 20
7.7890702019
 30
0.0
 10
11.4637119613
 20
7.814607714
 30
0.0
 10
11.440683484
 20
7.8469837704
 30
0.0
 10
11.4092747845
 20
7.88529016
 30
0.0
 10
11.3735911813
 20
7.9228624584
 30
0.0
 10
11.3335221401
 20
7.9589928411
 30
0.0
 10
11.2889552168
 20
7.9929619797
 30
0.0
 10
11.2398585446
 20
8.0240053288
 30
0.0
 10
11.1862986411
 20
8.0512901379
 30
0.0
 10
11.1285670088
 20
8.0738890823
 30
0.0
 10
11.077710575
 20
8.0880296738
 30
0.0
 10
11.0355690127
 20
8.0961574077
 30
0.0
 10
10.992393753
 20
8.1021045793
 30
0.0
 10
10.9595843534
 20
8.1039455417
 30
0.0
 10
10.9376923426
 20
8.1039481526
 30
0.0
  0
SPLINE
  5
308
100
AcDbEntity
  8
0
100
AcDbSpline
 62
9
  6
CONTINUOUS
 70
0
 71
3
 72
46
 73
42
 74
0
 42
0.0000001
 43
0.0000001
 44
0.0000000001
 40
0.0
 40
0.0
 40
0.0
 40
0.0
 40
0.0839312214
 40
0.125652484
 40
0.1670379406
 40
0.2484014173
 40
0.3276235916
 40
0.404345182
 40
0.4785020041
 40
0.5500271881
 40
0.6189264725
 40
0.6523796325
 40
0.6851449509
 40
0.717201896
 40
0.7485232277
 40
0.7790630378
 40
0.8087188855
 40
0.8373684574
 40
0.8648828724
 40
0.8910972886
 40
0.9157192328
 40
0.9273257222
 40
0.9383819251
 40
0.9488175995
 40
0.9585620403
 40
0.9675373721
 40
0.9756382279
 40
0.9827520221
 40
0.9859034849
 40
0.9887657912
 40
0.9913256457
 40
0.9935732372
 40
0.9954996219
 40
0.9970958498
 40
0.9983529653
 40
0.9988515558
 40
0.9992620073
 40
0.9995831989
 40
0.9998140093
 40
0.999953317
 40
1.0
 40
1.0
 40
1.0
 40
1.0
 10
10.9376923428
 20
8.1039482266
 30
0.0
 10
10.9158004876
 20
8.1039457258
 30
0.0
 10
10.8829912336
 20
8.1021047586
 30
0.0
 10
10.8398161142
 20
8.0961575205
 30
0.0
 10
10.7976744765
 20
8.0880296969
 30
0.0
 10
10.746817898
 20
8.0738890958
 30
0.0
 10
10.6890860303
 20
8.0512901372
 30
0.0
 10
10.6355260249
 20
8.0240053225
 30
0.0
 10
10.5864289495
 20
7.9929615696
 30
0.0
 10
10.5418628973
 20
7.9589932836
 30
0.0
 10
10.5081424291
 20
7.9285869956
 30
0.0
 10
10.4833925168
 20
7.9034875067
 30
0.0
 10
10.466088543
 20
7.8845678425
 30
0.0
 10
10.4498459989
 20
7.8654546986
 30
0.0
 10
10.4346497505
 20
7.8462346635
 30
0.0
 10
10.4204944306
 20
7.8270086623
 30
0.0
 10
10.4073680954
 20
7.807906428
 30
0.0
 10
10.3952691111
 20
7.7890694046
 30
0.0
 10
10.384201787
 20
7.7706483716
 30
0.0
 10
10.3741891677
 20
7.7528299335
 30
0.0
 10
10.3665913141
 20
7.7384214659
 30
0.0
 10
10.3610489643
 20
7.7274033586
 30
0.0
 10
10.3572604831
 20
7.7196457284
 30
0.0
 10
10.3537663444
 20
7.7122854583
 30
0.0
 10
10.3505770134
 20
7.7053817792
 30
0.0
 10
10.3477065946
 20
7.6990020251
 30
0.0
 10
10.3451687606
 20
7.6932253454
 30
0.0
 10
10.3432759235
 20
7.6888246663
 30
0.0
 10
10.3419390085
 20
7.6856723665
 30
0.0
 10
10.3410718353
 20
7.6836110879
 30
0.0
 10
10.340300585
 20
7.6817651939
 30
0.0
 10
10.3396273229
 20
7.6801430552
 30
0.0
 10
10.3390535087
 20
7.6787514128
 30
0.0
 10
10.3385810735
 20
7.6775984598
 30
0.0
 10
10.3382508287
 20
7.6767871601
 30
0.0
 10
10.3380394705
 20
7.6762659296
 30
0.0
 10
10.3379175424
 20
7.6759632788
 30
0.0
 10
10.3378282812
 20
7.6757437644
 30
0.0
 10
10.3377507633
 20
7.6755460067
 30
0.0
 10
10.337728574
 20
7.6754988232
 30
0.0
 10
10.3376916167
 20
7.6753978689
 30
0.0
 10
10.3376949179
 20
7.6754095893
 30
0.0
  0
SPLINE
  5
309
100
AcDbEntity
  8
0
100
AcDbSpline
 62
9
  6
CONTINUOUS
 70
0
 71
3
 72
11
 73
7
 74
0
 42
0.0000001
 43
0.0000001
 44
0.0000000001
 40
0.0
 40
0.0
 40
0.0
 40
0.0
 40
0.2606566733
 40
0.5137449975
 40
0.7598989705
 40
1.0
 40
1.0
 40
1.0
 40
1.0
 10
11.1535751192
 20
12.3636063367
 30
0.0
 10
11.1712183708
 20
12.3725055371
 30
0.0
 10
11.2049951936
 20
12.3920994008
 30
0.0
 10
11.2514410093
 20
12.426350779
 30
0.0
 10
11.2930209442
 20
12.4640672436
 30
0.0
 10
11.3179003926
 20
12.4913496926
 30
0.0
 10
11.3295525271
 20
12.5053335754
 30
0.0
  0
SPLINE
  5
30A
100
AcDbEntity
  8
0
100
AcDbSpline
 62
9
  6
CONTINUOUS
 70
0
 71
3
 72
11
 73
7
 74
0
 42
0.0000001
 43
0.0000001
 44
0.0000000001
 40
0.0
 40
0.0
 40
0.0
 40
0.0
 40
0.2606527995
 40
0.5137392988
 40
0.7598943271
 40
1.0
 40
1.0
 40
1.0
 40
1.0
 10
10.7218008622
 20
12.3636107356
 30
0.0
 10
10.7041645233
 20
12.3725066253
 30
0.0
 10
10.6704004589
 20
12.392092391
 30
0.0
 10
10.6239700238
 20
12.4263277349
 30
0.0
 10
10.582403467
 20
12.4640282461
 30
0.0
 10
10.5575308046
 20
12.4912987191
 30
0.0
 10
10.5458810688
 20
12.5052762226
 30
0.0
  0
SPLINE
  5
30B
100
AcDbEntity
  8
0
100
AcDbSpline
 62
7
  6
CONTINUOUS
 70
0
 71
3
 72
15
 73
11
 74
0
 42
0.0000001
 43
0.0000001
 44
0.0000000001
 40
0.0
 40
0.0
 40
0.0
 40
0.0
 40
0.1251100956
 40
0.2503341035
 40
0.3753793365
 40
0.5003834568
 40
0.6253320859
 40
0.7502317913
 40
0.8752178983
 40
1.0
 40
1.0
 40
1.0
 40
1.0
 10
10.734792848
 20
4.8129267369
 30
0.0
 10
10.7326092394
 20
4.8134235847
 30
0.0
 10
10.72831563
 20
4.8147896523
 30
0.0
 10
10.7223139675
 20
4.817877032
 30
0.0
 10
10.7169149817
 20
4.8219277496
 30
0.0
 10
10.7122757256
 20
4.8268223442
 30
0.0
 10
10.7085202053
 20
4.8324206729
 30
0.0
 10
10.705758622
 20
4.8385710824
 30
0.0
 10
10.7040740246
 20
4.8450937478
 30
0.0
 10
10.7036929199
 20
4.8495733392
 30
0.0
 10
10.7036929201
 20
4.8518068887
 30
0.0
  0
SPLINE
  5
30C
100
AcDbEntity
  8
0
100
AcDbSpline
 62
7
  6
CONTINUOUS
 70
0
 71
3
 72
15
 73
11
 74
0
 42
0.0000001
 43
0.0000001
 44
0.0000000001
 40
0.0
 40
0.0
 40
0.0
 40
0.0
 40
0.1251100834
 40
0.2503340435
 40
0.3753792842
 40
0.5003834165
 40
0.625332045
 40
0.7502317586
 40
0.8752178799
 40
1.0
 40
1.0
 40
1.0
 40
1.0
 10
11.1405922635
 20
4.8129267177
 30
0.0
 10
11.1427758803
 20
4.8134235637
 30
0.0
 10
11.1470695074
 20
4.8147896236
 30
0.0
 10
11.1530711981
 20
4.817876999
 30
0.0
 10
11.1584702093
 20
4.8219277215
 30
0.0
 10
11.1631094894
 20
4.8268223266
 30
0.0
 10
11.1668650297
 20
4.8324206709
 30
0.0
 10
11.1696266283
 20
4.8385711
 30
0.0
 10
11.1713112353
 20
4.8450937882
 30
0.0
 10
11.1716923427
 20
4.849573396
 30
0.0
 10
11.1716923427
 20
4.8518069536
 30
0.0
  0
SPLINE
  5
30D
100
AcDbEntity
  8
0
100
AcDbSpline
 62
9
  6
CONTINUOUS
 70
0
 71
3
 72
11
 73
7
 74
0
 42
0.0000001
 43
0.0000001
 44
0.0000000001
 40
0.0
 40
0.0
 40
0.0
 40
0.0
 40
0.2486547137
 40
0.4998786665
 40
0.7512170548
 40
1.0
 40
1.0
 40
1.0
 40
1.0
 10
11.0856644697
 20
7.9676871654
 30
0.0
 10
11.1094371396
 20
7.9547519384
 30
0.0
 10
11.1570945895
 20
7.9285011268
 30
0.0
 10
11.2282098695
 20
7.8881483995
 30
0.0
 10
11.298753447
 20
7.8467766156
 30
0.0
 10
11.3453499652
 20
7.8186344618
 30
0.0
 10
11.3684565449
 20
7.8045170412
 30
0.0
  0
LINE
  5
30E
100
AcDbEntity
  8
0
100
AcDbLine
 62
9
  6
CONTINUOUS
 10
11.3684565449
 20
7.8045170412
 11
11.3714037494
 21
7.8027155154
  0
SPLINE
  5
30F
100
AcDbEntity
  8
0
100
AcDbSpline
 62
9
  6
CONTINUOUS
 70
0
 71
3
 72
11
 73
7
 74
0
 42
0.0000001
 43
0.0000001
 44
0.0000000001
 40
0.0
 40
0.0
 40
0.0
 40
0.0
 40
0.2487354157
 40
0.5000003239
 40
0.7512653276
 40
1.0
 40
1.0
 40
1.0
 40
1.0
 10
11.5193758764
 20
7.5464202733
 30
0.0
 10
11.5200674015
 20
7.5190698414
 30
0.0
 10
11.5211778776
 20
7.464083054
 30
0.0
 10
11.5217670181
 20
7.3814485058
 30
0.0
 10
11.5211780554
 20
7.298814036
 30
0.0
 10
11.5200673899
 20
7.2438273236
 30
0.0
 10
11.5193758764
 20
7.2164769732
 30
0.0
  0
SPLINE
  5
310
100
AcDbEntity
  8
0
100
AcDbSpline
 62
9
  6
CONTINUOUS
 70
0
 71
3
 72
25
 73
21
 74
0
 42
0.0000001
 43
0.0000001
 44
0.0000000001
 40
0.0
 40
0.0
 40
0.0
 40
0.0
 40
0.0049706565
 40
0.0105252148
 40
0.0173119586
 40
0.0256916948
 40
0.0358517282
 40
0.047892175
 40
0.06186903
 40
0.0778146105
 40
0.1156505611
 40
0.1613513508
 40
0.2147719447
 40
0.2757372799
 40
0.3440402722
 40
0.4193974815
 40
0.5015021514
 40
0.5900436967
 40
0.7848980837
 40
1.0
 40
1.0
 40
1.0
 40
1.0
 10
10.7347922602
 20
4.8129267545
 30
0.0
 10
10.7347915321
 20
4.8129969437
 30
0.0
 10
10.7348243433
 20
4.8131476372
 30
0.0
 10
10.7349719969
 20
4.8133484933
 30
0.0
 10
10.7352049094
 20
4.8135292558
 30
0.0
 10
10.7355228257
 20
4.8136957061
 30
0.0
 10
10.7359270963
 20
4.8138494429
 30
0.0
 10
10.7364185
 20
4.813990683
 30
0.0
 10
10.7369972473
 20
4.8141192438
 30
0.0
 10
10.7379403136
 20
4.8142826239
 30
0.0
 10
10.7393369024
 20
4.8144433948
 30
0.0
 10
10.7412667811
 20
4.8145756363
 30
0.0
 10
10.7435264225
 20
4.8146542947
 30
0.0
 10
10.7461063421
 20
4.8146787043
 30
0.0
 10
10.7489959506
 20
4.8146480494
 30
0.0
 10
10.7521830469
 20
4.8145625304
 30
0.0
 10
10.7556542377
 20
4.8144223522
 30
0.0
 10
10.7608087615
 20
4.8141540907
 30
0.0
 10
10.767832659
 20
4.8136791348
 30
0.0
 10
10.7736020594
 20
4.8131984253
 30
0.0
 10
10.7766274288
 20
4.8129266262
 30
0.0
  0
SPLINE
  5
311
100
AcDbEntity
  8
0
100
AcDbSpline
 62
9
  6
CONTINUOUS
 70
0
 71
3
 72
17
 73
13
 74
0
 42
0.0000001
 43
0.0000001
 44
0.0000000001
 40
0.0
 40
0.0
 40
0.0
 40
0.0
 40
0.0255604439
 40
0.0534292592
 40
0.0851057324
 40
0.1216003438
 40
0.211282794
 40
0.3254810288
 40
0.4647441781
 40
0.6262591418
 40
0.8060719178
 40
1.0
 40
1.0
 40
1.0
 40
1.0
 10
11.3726923406
 20
6.9513226715
 30
0.0
 10
11.3727610813
 20
6.951362359
 30
0.0
 10
11.3728923656
 20
6.9514683066
 30
0.0
 10
11.3730468419
 20
6.9516857717
 30
0.0
 10
11.373164677
 20
6.9519616544
 30
0.0
 10
11.3732814832
 20
6.9524393781
 30
0.0
 10
11.3733168318
 20
6.9531906577
 30
0.0
 10
11.3732107797
 20
6.9542527471
 30
0.0
 10
11.372952641
 20
6.9555170515
 30
0.0
 10
11.3725565734
 20
6.9569566585
 30
0.0
 10
11.3720349752
 20
6.9585354878
 30
0.0
 10
11.3716258546
 20
6.9596219373
 30
0.0
 10
11.3714037564
 20
6.9601817073
 30
0.0
  0
SPLINE
  5
312
100
AcDbEntity
  8
0
100
AcDbSpline
 62
9
  6
CONTINUOUS
 70
0
 71
3
 72
17
 73
13
 74
0
 42
0.0000001
 43
0.0000001
 44
0.0000000001
 40
0.0
 40
0.0
 40
0.0
 40
0.0
 40
0.0295001288
 40
0.0532688781
 40
0.0841895661
 40
0.1225791335
 40
0.168589291
 40
0.2222980104
 40
0.2837462355
 40
0.4290774767
 40
0.600378572
 40
1.0
 40
1.0
 40
1.0
 40
1.0
 10
11.4332613112
 20
6.997012587
 30
0.0
 10
11.4333277533
 20
6.9970768791
 30
0.0
 10
11.4333356267
 20
6.9972746326
 30
0.0
 10
11.4332714753
 20
6.9975222971
 30
0.0
 10
11.4331666671
 20
6.9977981565
 30
0.0
 10
11.4330095575
 20
6.9981227936
 30
0.0
 10
11.4327996425
 20
6.9985019203
 30
0.0
 10
11.4325361359
 20
6.9989328528
 30
0.0
 10
11.4320872197
 20
6.9996149346
 30
0.0
 10
11.4313953628
 20
7.0005774032
 30
0.0
 10
11.4300270953
 20
7.0023572235
 30
0.0
 10
11.4288847428
 20
7.0037353255
 30
0.0
 10
11.428071222
 20
7.0046875849
 30
0.0
  0
SPLINE
  5
313
100
AcDbEntity
  8
0
100
AcDbSpline
 62
9
  6
CONTINUOUS
 70
0
 71
3
 72
13
 73
9
 74
0
 42
0.0000001
 43
0.0000001
 44
0.0000000001
 40
0.0
 40
0.0
 40
0.0
 40
0.0
 40
0.124785038
 40
0.2497740592
 40
0.3748980467
 40
0.5000930423
 40
0.7503129956
 40
1.0
 40
1.0
 40
1.0
 40
1.0
 10
11.5091673331
 20
7.1451484332
 30
0.0
 10
11.507557862
 20
7.138505189
 30
0.0
 10
11.5038566218
 20
7.1253189085
 30
0.0
 10
11.496908013
 20
7.1059768859
 30
0.0
 10
11.488592919
 20
7.0871550632
 30
0.0
 10
11.4757411779
 20
7.0629122663
 30
0.0
 10
11.4564616761
 20
7.0344670168
 30
0.0
 10
11.4379733258
 20
7.0141222935
 30
0.0
 10
11.4280718055
 20
7.0046868591
 30
0.0
  0
SPLINE
  5
314
100
AcDbEntity
  8
0
100
AcDbSpline
 62
9
  6
CONTINUOUS
 70
0
 71
3
 72
17
 73
13
 74
0
 42
0.0000001
 43
0.0000001
 44
0.0000000001
 40
0.0
 40
0.0
 40
0.0
 40
0.0
 40
0.0295001326
 40
0.0532688833
 40
0.0841895722
 40
0.1225791403
 40
0.1685892982
 40
0.2222980179
 40
0.283746243
 40
0.4290774836
 40
0.6003785775
 40
1.0
 40
1.0
 40
1.0
 40
1.0
 10
11.518408205
 20
7.1444913436
 30
0.0
 10
11.5183857475
 20
7.1444016569
 30
0.0
 10
11.5182184247
 20
7.1442959616
 30
0.0
 10
11.5179718653
 20
7.1442276861
 30
0.0
 10
11.5176805598
 20
7.1441805228
 30
0.0
 10
11.5173208611
 20
7.1441542652
 30
0.0
 10
11.5168875701
 20
7.1441464935
 30
0.0
 10
11.5163826184
 20
7.1441592306
 30
0.0
 10
11.5155674601
 20
7.1442069626
 30
0.0
 10
11.5143880093
 20
7.1443248938
 30
0.0
 10
11.5121625059
 20
7.1446199379
 30
0.0
 10
11.5103978582
 20
7.144920193
 30
0.0
 10
11.509166417
 20
7.145148593
 30
0.0
  0
SPLINE
  5
315
100
AcDbEntity
  8
0
100
AcDbSpline
 62
9
  6
CONTINUOUS
 70
0
 71
3
 72
17
 73
13
 74
0
 42
0.0000001
 43
0.0000001
 44
0.0000000001
 40
0.0
 40
0.0
 40
0.0
 40
0.0
 40
0.0254163291
 40
0.0531267154
 40
0.0846177148
 40
0.1209029462
 40
0.210145702
 40
0.3239899289
 40
0.463118169
 40
0.6247941623
 40
0.8051272506
 40
1.0
 40
1.0
 40
1.0
 40
1.0
 10
11.5276923427
 20
7.2197905485
 30
0.0
 10
11.5276923427
 20
7.2197116199
 30
0.0
 10
11.5276665575
 20
7.2195458974
 30
0.0
 10
11.5275566823
 20
7.219304522
 30
0.0
 10
11.527378357
 20
7.2190654288
 30
0.0
 10
11.5270257604
 20
7.2187263073
 30
0.0
 10
11.5263961672
 20
7.2183205342
 30
0.0
 10
11.5254264705
 20
7.217881346
 30
0.0
 10
11.5242037508
 20
7.2174720679
 30
0.0
 10
11.5227575259
 20
7.2170940055
 30
0.0
 10
11.5211245584
 20
7.2167547204
 30
0.0
 10
11.5199746123
 20
7.2165649437
 30
0.0
 10
11.5193758764
 20
7.2164769738
 30
0.0
  0
SPLINE
  5
316
100
AcDbEntity
  8
0
100
AcDbSpline
 62
9
  6
CONTINUOUS
 70
0
 71
3
 72
13
 73
9
 74
0
 42
0.0000001
 43
0.0000001
 44
0.0000000001
 40
0.0
 40
0.0
 40
0.0
 40
0.0
 40
0.1172465153
 40
0.2412176955
 40
0.5000049468
 40
0.7587902105
 40
0.8827564128
 40
1.0
 40
1.0
 40
1.0
 40
1.0
 10
10.8958571611
 20
4.8129268807
 30
0.0
 10
10.8991177232
 20
4.8132202431
 30
0.0
 10
10.9058345291
 20
4.8137298178
 30
0.0
 10
10.9197774559
 20
4.8144592683
 30
0.0
 10
10.9376924234
 20
4.8148116928
 30
0.0
 10
10.9556072599
 20
4.8144593661
 30
0.0
 10
10.9695498983
 20
4.8137296625
 30
0.0
 10
10.9762664736
 20
4.8132199843
 30
0.0
 10
10.9795269543
 20
4.8129266294
 30
0.0
  0
SPLINE
  5
317
100
AcDbEntity
  8
0
100
AcDbSpline
 62
9
  6
CONTINUOUS
 70
0
 71
3
 72
17
 73
13
 74
0
 42
0.0000001
 43
0.0000001
 44
0.0000000001
 40
0.0
 40
0.0
 40
0.0
 40
0.0
 40
0.0255604252
 40
0.0534292258
 40
0.0851056902
 40
0.1216002985
 40
0.2112827573
 40
0.3254810144
 40
0.4647441916
 40
0.626259176
 40
0.8060719521
 40
1.0
 40
1.0
 40
1.0
 40
1.0
 10
11.5276923427
 20
7.5431066962
 30
0.0
 10
11.5276923427
 20
7.5431860712
 30
0.0
 10
11.5276662315
 20
7.5433527408
 30
0.0
 10
11.5275551389
 20
7.5435952541
 30
0.0
 10
11.5273751346
 20
7.543835244
 30
0.0
 10
11.5270198159
 20
7.5441752634
 30
0.0
 10
11.5263868613
 20
7.5445815164
 30
0.0
 10
11.5254140365
 20
7.5450207178
 30
0.0
 10
11.5241900444
 20
7.5454293156
 30
0.0
 10
11.522745271
 20
7.5458061147
 30
0.0
 10
11.5211171622
 20
7.5461438121
 30
0.0
 10
11.5199717067
 20
7.546332728
 30
0.0
 10
11.5193758814
 20
7.5464202702
 30
0.0
  0
SPLINE
  5
318
100
AcDbEntity
  8
0
100
AcDbSpline
 62
9
  6
CONTINUOUS
 70
0
 71
3
 72
25
 73
21
 74
0
 42
0.0000001
 43
0.0000001
 44
0.0000000001
 40
0.0
 40
0.0
 40
0.0
 40
0.0
 40
0.2150978197
 40
0.4099462642
 40
0.4984882162
 40
0.5805945074
 40
0.655954215
 40
0.7242602711
 40
0.7852282127
 40
0.8386502897
 40
0.8843516469
 40
0.9221873948
 40
0.9381324068
 40
0.9521082599
 40
0.964147492
 40
0.9743063472
 40
0.9826852375
 40
0.9894718269
 40
0.995027298
 40
1.0
 40
1.0
 40
1.0
 40
1.0
 10
11.0987577974
 20
4.8129268803
 30
0.0
 10
11.1017830419
 20
4.8131988112
 30
0.0
 10
11.1075522039
 20
4.8136794554
 30
0.0
 10
11.1145758646
 20
4.8141540064
 30
0.0
 10
11.1197302446
 20
4.8144221648
 30
0.0
 10
11.1232014364
 20
4.8145623447
 30
0.0
 10
11.1263885755
 20
4.8146479041
 30
0.0
 10
11.1292782468
 20
4.814678608
 30
0.0
 10
11.1318582213
 20
4.8146542143
 30
0.0
 10
11.1341178876
 20
4.8145755509
 30
0.0
 10
11.1360477573
 20
4.8144433079
 30
0.0
 10
11.1374443195
 20
4.8142825604
 30
0.0
 10
11.1383873506
 20
4.8141192256
 30
0.0
 10
11.1389660544
 20
4.8139906994
 30
0.0
 10
11.1394574078
 20
4.8138494908
 30
0.0
 10
11.1398616297
 20
4.8136957752
 30
0.0
 10
11.1401795065
 20
4.8135293284
 30
0.0
 10
11.1404123958
 20
4.8133485429
 30
0.0
 10
11.1405600349
 20
4.8131476327
 30
0.0
 10
11.1405928533
 20
4.8129969068
 30
0.0
 10
11.140592141
 20
4.8129266899
 30
0.0
  0
LINE
  5
319
100
AcDbEntity
  8
0
100
AcDbLine
 62
9
  6
CONTINUOUS
 10
10.5039809361
 20
7.8027155154
 11
10.5069310021
 21
7.8045187763
  0
SPLINE
  5
31A
100
AcDbEntity
  8
0
100
AcDbSpline
 62
9
  6
CONTINUOUS
 70
0
 71
3
 72
11
 73
7
 74
0
 42
0.0000001
 43
0.0000001
 44
0.0000000001
 40
0.0
 40
0.0
 40
0.0
 40
0.0
 40
0.2487764867
 40
0.5000700222
 40
0.7513396768
 40
1.0
 40
1.0
 40
1.0
 40
1.0
 10
10.5069310021
 20
7.8045187763
 30
0.0
 10
10.5300368638
 20
7.8186354906
 30
0.0
 10
10.5766307411
 20
7.8467701212
 30
0.0
 10
10.6471703292
 20
7.8881457344
 30
0.0
 10
10.7182829621
 20
7.9285029624
 30
0.0
 10
10.7659472742
 20
7.9547517413
 30
0.0
 10
10.7897202158
 20
7.9676871654
 30
0.0
  0
SPLINE
  5
31B
100
AcDbEntity
  8
0
100
AcDbSpline
 62
9
  6
CONTINUOUS
 70
0
 71
3
 72
12
 73
8
 74
0
 42
0.0000001
 43
0.0000001
 44
0.0000000001
 40
0.0
 40
0.0
 40
0.0
 40
0.0
 40
0.250139182
 40
0.3757784567
 40
0.5014677184
 40
0.7518899313
 40
1.0
 40
1.0
 40
1.0
 40
1.0
 10
10.7359580654
 20
6.8247503474
 30
0.0
 10
10.7166260595
 20
6.8354818026
 30
0.0
 10
10.6876632606
 20
6.8517469832
 30
0.0
 10
10.6491952166
 20
6.8737719287
 30
0.0
 10
10.6108343722
 20
6.8960330143
 30
0.0
 10
10.5633421763
 20
6.9241254559
 30
0.0
 10
10.5256430755
 20
6.9469459468
 30
0.0
 10
10.5069281406
 20
6.9583802053
 30
0.0
  0
LINE
  5
31C
100
AcDbEntity
  8
0
100
AcDbLine
 62
9
  6
CONTINUOUS
 10
10.5069281406
 20
6.9583802053
 11
10.503980936
 21
6.9601817312
  0
SPLINE
  5
31D
100
AcDbEntity
  8
0
100
AcDbSpline
 62
9
  6
CONTINUOUS
 70
0
 71
3
 72
11
 73
7
 74
0
 42
0.0000001
 43
0.0000001
 44
0.0000000001
 40
0.0
 40
0.0
 40
0.0
 40
0.0
 40
0.2487354157
 40
0.5000003239
 40
0.7512653276
 40
1.0
 40
1.0
 40
1.0
 40
1.0
 10
10.3560088091
 20
7.2164769732
 30
0.0
 10
10.3553172839
 20
7.2438274051
 30
0.0
 10
10.3542068078
 20
7.2988141926
 30
0.0
 10
10.3536176673
 20
7.3814487408
 30
0.0
 10
10.3542066301
 20
7.4640832105
 30
0.0
 10
10.3553172956
 20
7.5190699229
 30
0.0
 10
10.3560088091
 20
7.5464202733
 30
0.0
  0
SPLINE
  5
31E
100
AcDbEntity
  8
0
100
AcDbSpline
 62
9
  6
CONTINUOUS
 70
0
 71
3
 72
17
 73
13
 74
0
 42
0.0000001
 43
0.0000001
 44
0.0000000001
 40
0.0
 40
0.0
 40
0.0
 40
0.0
 40
0.0254163286
 40
0.0531267145
 40
0.0846177135
 40
0.1209029446
 40
0.2101456999
 40
0.3239899265
 40
0.4631181666
 40
0.6247941602
 40
0.8051272493
 40
1.0
 40
1.0
 40
1.0
 40
1.0
 10
10.7826923322
 20
7.9732326431
 30
0.0
 10
10.7827606865
 20
7.9732721075
 30
0.0
 10
10.7829170989
 20
7.973332638
 30
0.0
 10
10.7831810738
 20
7.973358171
 30
0.0
 10
10.7834772971
 20
7.9733232833
 30
0.0
 10
10.7839472832
 20
7.9731874865
 30
0.0
 10
10.7846134896
 20
7.9728451293
 30
0.0
 10
10.7854786861
 20
7.9722249415
 30
0.0
 10
10.7864444912
 20
7.9713706742
 30
0.0
 10
10.7874950152
 20
7.970307238
 30
0.0
 10
10.7886053285
 20
7.9690626892
 30
0.0
 10
10.7893446529
 20
7.9681616951
 30
0.0
 10
10.789720205
 20
7.9676871595
 30
0.0
  0
SPLINE
  5
31F
100
AcDbEntity
  8
0
100
AcDbSpline
 62
7
  6
CONTINUOUS
 70
0
 71
3
 72
15
 73
11
 74
0
 42
0.0000001
 43
0.0000001
 44
0.0000000001
 40
0.0
 40
0.0
 40
0.0
 40
0.0
 40
0.0856774504
 40
0.1823026353
 40
0.2917159052
 40
0.4141965101
 40
0.5485662895
 40
0.6928205833
 40
0.844450865
 40
1.0
 40
1.0
 40
1.0
 40
1.0
 10
10.7766272708
 20
4.8129266815
 30
0.0
 10
10.775517249
 20
4.8134477606
 30
0.0
 10
10.7733320783
 20
4.8149472349
 30
0.0
 10
10.77055686
 20
4.8181060984
 30
0.0
 10
10.7681702876
 20
4.8221839455
 30
0.0
 10
10.7662241472
 20
4.8270679843
 30
0.0
 10
10.7647598025
 20
4.8326312242
 30
0.0
 10
10.7638197245
 20
4.8387270546
 30
0.0
 10
10.7634312403
 20
4.8451845265
 30
0.0
 10
10.7635429374
 20
4.8495857094
 30
0.0
 10
10.7636923431
 20
4.8518069593
 30
0.0
  0
SPLINE
  5
320
100
AcDbEntity
  8
0
100
AcDbSpline
 62
9
  6
CONTINUOUS
 70
0
 71
3
 72
17
 73
13
 74
0
 42
0.0000001
 43
0.0000001
 44
0.0000000001
 40
0.0
 40
0.0
 40
0.0
 40
0.0
 40
0.0255604439
 40
0.0534292592
 40
0.0851057324
 40
0.1216003438
 40
0.211282794
 40
0.3254810288
 40
0.4647441781
 40
0.6262591418
 40
0.8060719178
 40
1.0
 40
1.0
 40
1.0
 40
1.0
 10
10.5026923449
 20
7.8115745751
 30
0.0
 10
10.5026236042
 20
7.8115348876
 30
0.0
 10
10.5024923199
 20
7.81142894
 30
0.0
 10
10.5023378436
 20
7.8112114748
 30
0.0
 10
10.5022200085
 20
7.8109355921
 30
0.0
 10
10.5021032023
 20
7.8104578684
 30
0.0
 10
10.5020678537
 20
7.8097065888
 30
0.0
 10
10.5021739057
 20
7.8086444994
 30
0.0
 10
10.5024320445
 20
7.807380195
 30
0.0
 10
10.5028281121
 20
7.805940588
 30
0.0
 10
10.5033497103
 20
7.8043617588
 30
0.0
 10
10.5037588309
 20
7.8032753092
 30
0.0
 10
10.5039809291
 20
7.8027155393
 30
0.0
  0
SPLINE
  5
321
100
AcDbEntity
  8
0
100
AcDbSpline
 62
9
  6
CONTINUOUS
 70
0
 71
3
 72
17
 73
13
 74
0
 42
0.0000001
 43
0.0000001
 44
0.0000000001
 40
0.0
 40
0.0
 40
0.0
 40
0.0
 40
0.0295001288
 40
0.0532688782
 40
0.0841895662
 40
0.1225791336
 40
0.168589291
 40
0.2222980105
 40
0.2837462356
 40
0.4290774768
 40
0.6003785721
 40
1.0
 40
1.0
 40
1.0
 40
1.0
 10
10.4421233745
 20
7.7658846597
 30
0.0
 10
10.4420569323
 20
7.7658203676
 30
0.0
 10
10.4420490589
 20
7.7656226141
 30
0.0
 10
10.4421132103
 20
7.7653749497
 30
0.0
 10
10.4422180185
 20
7.7650990902
 30
0.0
 10
10.4423751281
 20
7.7647744532
 30
0.0
 10
10.4425850431
 20
7.7643953264
 30
0.0
 10
10.4428485497
 20
7.7639643939
 30
0.0
 10
10.443297466
 20
7.7632823122
 30
0.0
 10
10.4439893229
 20
7.7623198435
 30
0.0
 10
10.4453575904
 20
7.7605400232
 30
0.0
 10
10.4464999428
 20
7.7591619212
 30
0.0
 10
10.4473134637
 20
7.7582096618
 30
0.0
  0
SPLINE
  5
322
100
AcDbEntity
  8
0
100
AcDbSpline
 62
9
  6
CONTINUOUS
 70
0
 71
3
 72
13
 73
9
 74
0
 42
0.0000001
 43
0.0000001
 44
0.0000000001
 40
0.0
 40
0.0
 40
0.0
 40
0.0
 40
0.1247850007
 40
0.2497739744
 40
0.3748979222
 40
0.500092905
 40
0.7503129331
 40
1.0
 40
1.0
 40
1.0
 40
1.0
 10
10.3662173475
 20
7.6177488142
 30
0.0
 10
10.3678268181
 20
7.6243920566
 30
0.0
 10
10.3715280564
 20
7.637578333
 30
0.0
 10
10.3784766616
 20
7.6569203501
 30
0.0
 10
10.3867917526
 20
7.6757421686
 30
0.0
 10
10.3996434944
 20
7.6999849672
 30
0.0
 10
10.4189230005
 20
7.7284302227
 30
0.0
 10
10.4374113539
 20
7.7487749542
 30
0.0
 10
10.4473128768
 20
7.7582103913
 30
0.0
  0
SPLINE
  5
323
100
AcDbEntity
  8
0
100
AcDbSpline
 62
9
  6
CONTINUOUS
 70
0
 71
3
 72
17
 73
13
 74
0
 42
0.0000001
 43
0.0000001
 44
0.0000000001
 40
0.0
 40
0.0
 40
0.0
 40
0.0
 40
0.0295001326
 40
0.0532688833
 40
0.0841895722
 40
0.1225791403
 40
0.1685892982
 40
0.2222980179
 40
0.283746243
 40
0.4290774836
 40
0.6003785775
 40
1.0
 40
1.0
 40
1.0
 40
1.0
 10
10.3569764804
 20
7.6184059029
 30
0.0
 10
10.356998938
 20
7.6184955896
 30
0.0
 10
10.3571662608
 20
7.618601285
 30
0.0
 10
10.3574128202
 20
7.6186695605
 30
0.0
 10
10.3577041257
 20
7.6187167237
 30
0.0
 10
10.3580638244
 20
7.6187429813
 30
0.0
 10
10.3584971153
 20
7.618750753
 30
0.0
 10
10.3590020671
 20
7.6187380159
 30
0.0
 10
10.3598172254
 20
7.618690284
 30
0.0
 10
10.3609966762
 20
7.6185723528
 30
0.0
 10
10.3632221796
 20
7.6182773087
 30
0.0
 10
10.3649868272
 20
7.6179770536
 30
0.0
 10
10.3662182685
 20
7.6177486536
 30
0.0
  0
SPLINE
  5
324
100
AcDbEntity
  8
0
100
AcDbSpline
 62
9
  6
CONTINUOUS
 70
0
 71
3
 72
17
 73
13
 74
0
 42
0.0000001
 43
0.0000001
 44
0.0000000001
 40
0.0
 40
0.0
 40
0.0
 40
0.0
 40
0.0254163291
 40
0.0531267154
 40
0.0846177148
 40
0.1209029462
 40
0.210145702
 40
0.3239899289
 40
0.463118169
 40
0.6247941623
 40
0.8051272506
 40
1.0
 40
1.0
 40
1.0
 40
1.0
 10
10.3476923427
 20
7.543106698
 30
0.0
 10
10.3476923427
 20
7.5431856267
 30
0.0
 10
10.3477181279
 20
7.5433513491
 30
0.0
 10
10.3478280032
 20
7.5435927246
 30
0.0
 10
10.3480063285
 20
7.5438318177
 30
0.0
 10
10.348358925
 20
7.5441709392
 30
0.0
 10
10.3489885183
 20
7.5445767123
 30
0.0
 10
10.349958215
 20
7.5450159006
 30
0.0
 10
10.3511809347
 20
7.5454251786
 30
0.0
 10
10.3526271595
 20
7.545803241
 30
0.0
 10
10.354260127
 20
7.5461425262
 30
0.0
 10
10.3554100731
 20
7.5463323028
 30
0.0
 10
10.3560088091
 20
7.5464202727
 30
0.0
  0
SPLINE
  5
325
100
AcDbEntity
  8
0
100
AcDbSpline
 62
9
  6
CONTINUOUS
 70
0
 71
3
 72
17
 73
13
 74
0
 42
0.0000001
 43
0.0000001
 44
0.0000000001
 40
0.0
 40
0.0
 40
0.0
 40
0.0
 40
0.0255604252
 40
0.0534292258
 40
0.0851056902
 40
0.1216002985
 40
0.2112827573
 40
0.3254810144
 40
0.4647441916
 40
0.626259176
 40
0.8060719521
 40
1.0
 40
1.0
 40
1.0
 40
1.0
 10
10.3476923427
 20
7.2197905504
 30
0.0
 10
10.3476923427
 20
7.2197111753
 30
0.0
 10
10.347718454
 20
7.2195445057
 30
0.0
 10
10.3478295465
 20
7.2193019925
 30
0.0
 10
10.3480095509
 20
7.2190620026
 30
0.0
 10
10.3483648696
 20
7.2187219832
 30
0.0
 10
10.3489978242
 20
7.2183157301
 30
0.0
 10
10.349970649
 20
7.2178765287
 30
0.0
 10
10.3511946411
 20
7.2174679309
 30
0.0
 10
10.3526394144
 20
7.2170911319
 30
0.0
 10
10.3542675233
 20
7.2167534345
 30
0.0
 10
10.3554129788
 20
7.2165645186
 30
0.0
 10
10.3560088041
 20
7.2164769763
 30
0.0
  0
SPLINE
  5
326
100
AcDbEntity
  8
0
100
AcDbSpline
 62
9
  6
CONTINUOUS
 70
0
 71
3
 72
17
 73
13
 74
0
 42
0.0000001
 43
0.0000001
 44
0.0000000001
 40
0.0
 40
0.0
 40
0.0
 40
0.0
 40
0.0295001288
 40
0.0532688782
 40
0.0841895662
 40
0.1225791336
 40
0.1685892911
 40
0.2222980105
 40
0.2837462356
 40
0.4290774768
 40
0.6003785721
 40
1.0
 40
1.0
 40
1.0
 40
1.0
 10
10.3569764849
 20
7.1444913257
 30
0.0
 10
10.3569989425
 20
7.1444016391
 30
0.0
 10
10.3571662653
 20
7.1442959438
 30
0.0
 10
10.3574128247
 20
7.1442276683
 30
0.0
 10
10.3577041301
 20
7.1441805051
 30
0.0
 10
10.3580638288
 20
7.1441542475
 30
0.0
 10
10.3584971197
 20
7.1441464758
 30
0.0
 10
10.3590020715
 20
7.144159213
 30
0.0
 10
10.3598172297
 20
7.144206945
 30
0.0
 10
10.3609966805
 20
7.1443248763
 30
0.0
 10
10.3632221838
 20
7.1446199206
 30
0.0
 10
10.3649868314
 20
7.1449201758
 30
0.0
 10
10.3662182726
 20
7.1451485759
 30
0.0
  0
SPLINE
  5
327
100
AcDbEntity
  8
0
100
AcDbSpline
 62
9
  6
CONTINUOUS
 70
0
 71
3
 72
13
 73
9
 74
0
 42
0.0000001
 43
0.0000001
 44
0.0000000001
 40
0.0
 40
0.0
 40
0.0
 40
0.0
 40
0.1247849966
 40
0.2497739652
 40
0.3748979088
 40
0.5000928905
 40
0.7503129265
 40
1.0
 40
1.0
 40
1.0
 40
1.0
 10
10.4473128767
 20
7.0046868551
 30
0.0
 10
10.4423643955
 20
7.0094023185
 30
0.0
 10
10.4327953646
 20
7.0192008228
 30
0.0
 10
10.4195189894
 20
7.0348894993
 30
0.0
 10
10.4073763622
 20
7.0515014881
 30
0.0
 10
10.3928073535
 20
7.0747528224
 30
0.0
 10
10.3778127924
 20
7.1056719929
 30
0.0
 10
10.3694379142
 20
7.131855743
 30
0.0
 10
10.3662173473
 20
7.1451484323
 30
0.0
  0
SPLINE
  5
328
100
AcDbEntity
  8
0
100
AcDbSpline
 62
9
  6
CONTINUOUS
 70
0
 71
3
 72
17
 73
13
 74
0
 42
0.0000001
 43
0.0000001
 44
0.0000000001
 40
0.0
 40
0.0
 40
0.0
 40
0.0
 40
0.0295001553
 40
0.0532689018
 40
0.0841895793
 40
0.1225791307
 40
0.1685892682
 40
0.2222979652
 40
0.2837461668
 40
0.4290773646
 40
0.6003784411
 40
1.0
 40
1.0
 40
1.0
 40
1.0
 10
10.4421233901
 20
6.9970125718
 30
0.0
 10
10.4420569481
 20
6.9970768637
 30
0.0
 10
10.4420490743
 20
6.9972746165
 30
0.0
 10
10.4421132252
 20
6.9975222802
 30
0.0
 10
10.4422180328
 20
6.9977981387
 30
0.0
 10
10.4423751415
 20
6.9981227746
 30
0.0
 10
10.4425850554
 20
6.9985019001
 30
0.0
 10
10.4428485607
 20
6.998932831
 30
0.0
 10
10.4432974749
 20
6.9996149104
 30
0.0
 10
10.4439893287
 20
7.0005773758
 30
0.0
 10
10.4453575908
 20
7.0023571906
 30
0.0
 10
10.446499939
 20
7.0037352885
 30
0.0
 10
10.4473134569
 20
7.0046875451
 30
0.0
  0
SPLINE
  5
329
100
AcDbEntity
  8
0
100
AcDbSpline
 62
9
  6
CONTINUOUS
 70
0
 71
3
 72
17
 73
13
 74
0
 42
0.0000001
 43
0.0000001
 44
0.0000000001
 40
0.0
 40
0.0
 40
0.0
 40
0.0
 40
0.0254163286
 40
0.0531267145
 40
0.0846177135
 40
0.1209029446
 40
0.2101456999
 40
0.3239899265
 40
0.4631181666
 40
0.6247941602
 40
0.8051272493
 40
1.0
 40
1.0
 40
1.0
 40
1.0
 10
10.5026923532
 20
6.9513226667
 30
0.0
 10
10.502623999
 20
6.951362131
 30
0.0
 10
10.5024933718
 20
6.9514673229
 30
0.0
 10
10.5023392721
 20
6.9516831653
 30
0.0
 10
10.5022213741
 20
6.9519571461
 30
0.0
 10
10.5021039845
 20
6.9524320644
 30
0.0
 10
10.5020673713
 20
6.9531801947
 30
0.0
 10
10.5021718715
 20
6.9542395707
 30
0.0
 10
10.5024287861
 20
6.9555031161
 30
0.0
 10
10.5028244869
 20
6.9569446147
 30
0.0
 10
10.5033471411
 20
6.9585284485
 30
0.0
 10
10.5037577627
 20
6.9596192194
 30
0.0
 10
10.5039809466
 20
6.9601817248
 30
0.0
  0
SPLINE
  5
32A
100
AcDbEntity
  8
0
100
AcDbSpline
 62
9
  6
CONTINUOUS
 70
0
 71
3
 72
21
 73
17
 74
0
 42
0.0000001
 43
0.0000001
 44
0.0000000001
 40
0.0
 40
0.0
 40
0.0
 40
0.0
 40
0.0658610789
 40
0.1309304678
 40
0.2578507133
 40
0.3198124835
 40
0.3806750719
 40
0.4406334774
 40
0.500022718
 40
0.5594010104
 40
0.6193349852
 40
0.6801699046
 40
0.7421117847
 40
0.8690423646
 40
0.9341280324
 40
1.0
 40
1.0
 40
1.0
 40
1.0
 10
10.7636923427
 20
6.6895379296
 30
0.0
 10
10.7656773491
 20
6.6917389786
 30
0.0
 10
10.7697221653
 20
6.6960287581
 30
0.0
 10
10.7781447258
 20
6.704013264
 30
0.0
 10
10.7872514128
 20
6.7110253803
 30
0.0
 10
10.7970961952
 20
6.7164896168
 30
0.0
 10
10.8047391126
 20
6.7195975181
 30
0.0
 10
10.8126441919
 20
6.7215421939
 30
0.0
 10
10.8206950871
 20
6.7222246553
 30
0.0
 10
10.8287448325
 20
6.7215416355
 30
0.0
 10
10.8366469723
 20
6.7195971281
 30
0.0
 10
10.8442871429
 20
6.7164912054
 30
0.0
 10
10.8541308955
 20
6.7110284668
 30
0.0
 10
10.8632372692
 20
6.70401536
 30
0.0
 10
10.8716610443
 20
6.6960297253
 30
0.0
 10
10.8757068805
 20
6.6917392273
 30
0.0
 10
10.8776923427
 20
6.6895379296
 30
0.0
  0
SPLINE
  5
32B
100
AcDbEntity
  8
0
100
AcDbSpline
 62
9
  6
CONTINUOUS
 70
0
 71
3
 72
9
 73
5
 74
0
 42
0.0000001
 43
0.0000001
 44
0.0000000001
 40
0.0
 40
0.0
 40
0.0
 40
0.0
 40
0.507518584
 40
1.0
 40
1.0
 40
1.0
 40
1.0
 10
10.8902857813
 20
6.7022301033
 30
0.0
 10
10.8879835247
 20
6.700264231
 30
0.0
 10
10.8836104541
 20
6.6961970103
 30
0.0
 10
10.8795706545
 20
6.6917966719
 30
0.0
 10
10.8776923541
 20
6.689537917
 30
0.0
  0
SPLINE
  5
32C
100
AcDbEntity
  8
0
100
AcDbSpline
 62
9
  6
CONTINUOUS
 70
0
 71
3
 72
14
 73
10
 74
0
 42
0.0000001
 43
0.0000001
 44
0.0000000001
 40
0.0
 40
0.0
 40
0.0
 40
0.0
 40
0.2200964611
 40
0.3394233565
 40
0.464235333
 40
0.5937140674
 40
0.7269588859
 40
0.862859543
 40
1.0
 40
1.0
 40
1.0
 40
1.0
 10
10.840703168
 20
6.9423513466
 30
0.0
 10
10.8474208711
 20
6.9394601731
 30
0.0
 10
10.8579902893
 20
6.9354675997
 30
0.0
 10
10.8727663754
 20
6.9310229387
 30
0.0
 10
10.884824478
 20
6.9280448773
 30
0.0
 10
10.8974730895
 20
6.9255991303
 30
0.0
 10
10.9106005167
 20
6.923783946
 30
0.0
 10
10.924060832
 20
6.9226677724
 30
0.0
 10
10.9331353923
 20
6.9224103432
 30
0.0
 10
10.9376923426
 20
6.9224101952
 30
0.0
  0
SPLINE
  5
32D
100
AcDbEntity
  8
0
100
AcDbSpline
 62
9
  6
CONTINUOUS
 70
0
 71
3
 72
14
 73
10
 74
0
 42
0.0000001
 43
0.0000001
 44
0.0000000001
 40
0.0
 40
0.0
 40
0.0
 40
0.0
 40
0.1371933062
 40
0.2731594884
 40
0.4064200377
 40
0.5358601469
 40
0.6606220042
 40
0.7799184139
 40
1.0
 40
1.0
 40
1.0
 40
1.0
 10
10.9376923426
 20
6.9224102191
 30
0.0
 10
10.942251215
 20
6.9224103028
 30
0.0
 10
10.9513300388
 20
6.9226680373
 30
0.0
 10
10.9647952784
 20
6.9237846704
 30
0.0
 10
10.9779245805
 20
6.925600238
 30
0.0
 10
10.990571111
 20
6.9280465027
 30
0.0
 10
11.0026255086
 20
6.931024899
 30
0.0
 10
11.0173988938
 20
6.9354694199
 30
0.0
 10
11.0279672894
 20
6.9394615805
 30
0.0
 10
11.0346847448
 20
6.9423527529
 30
0.0
  0
SPLINE
  5
32E
100
AcDbEntity
  8
0
100
AcDbSpline
 62
9
  6
CONTINUOUS
 70
0
 71
3
 72
24
 73
20
 74
0
 42
0.0000001
 43
0.0000001
 44
0.0000000001
 40
0.0
 40
0.0
 40
0.0
 40
0.0
 40
0.0622022895
 40
0.120255711
 40
0.1739285368
 40
0.2233556047
 40
0.2691944948
 40
0.3130749606
 40
0.335097086
 40
0.3576102632
 40
0.4054400264
 40
0.4588503904
 40
0.5190852762
 40
0.5862077752
 40
0.6596804746
 40
0.7387021256
 40
0.8223045388
 40
0.9096620253
 40
1.0
 40
1.0
 40
1.0
 40
1.0
 10
11.1676142319
 20
6.7022301158
 30
0.0
 10
11.1675324694
 20
6.7008369339
 30
0.0
 10
11.1672868475
 20
6.6981470934
 30
0.0
 10
11.1665958771
 20
6.6943001927
 30
0.0
 10
11.1655541537
 20
6.6908274197
 30
0.0
 10
11.1641195609
 20
6.6877909571
 30
0.0
 10
11.1622333279
 20
6.6852699439
 30
0.0
 10
11.160245575
 20
6.6836873972
 30
0.0
 10
11.1584630421
 20
6.6828035042
 30
0.0
 10
11.1564875687
 20
6.6821547999
 30
0.0
 10
11.1536939136
 20
6.6818633869
 30
0.0
 10
11.1500734155
 20
6.6822847868
 30
0.0
 10
11.146177307
 20
6.6834690341
 30
0.0
 10
11.1420605931
 20
6.6853221617
 30
0.0
 10
11.1377854962
 20
6.6877853438
 30
0.0
 10
11.1334138357
 20
6.6907839297
 30
0.0
 10
11.1289899167
 20
6.6942361798
 30
0.0
 10
11.1245568472
 20
6.698075601
 30
0.0
 10
11.1216565793
 20
6.7008128352
 30
0.0
 10
11.1202076569
 20
6.7022301158
 30
0.0
  0
SPLINE
  5
32F
100
AcDbEntity
  8
0
100
AcDbSpline
 62
9
  6
CONTINUOUS
 70
0
 71
3
 72
27
 73
23
 74
0
 42
0.0000001
 43
0.0000001
 44
0.0000000001
 40
0.0
 40
0.0
 40
0.0
 40
0.0
 40
0.0632534354
 40
0.1263137735
 40
0.188853048
 40
0.2507686438
 40
0.2815110425
 40
0.3121281027
 40
0.3730770688
 40
0.4337770163
 40
0.4641161633
 40
0.494495343
 40
0.5554704617
 40
0.5861500797
 40
0.6169778355
 40
0.6791248435
 40
0.7104679032
 40
0.7419633132
 40
0.8054783383
 40
0.8697906256
 40
0.9347225921
 40
1.0
 40
1.0
 40
1.0
 40
1.0
 10
11.1202076569
 20
6.7022301158
 30
0.0
 10
11.1178554132
 20
6.7044559796
 30
0.0
 10
11.1130867569
 20
6.7088271231
 30
0.0
 10
11.1056395378
 20
6.7150022604
 30
0.0
 10
11.0978354206
 20
6.7206106
 30
0.0
 10
11.0909823353
 20
6.724658264
 30
0.0
 10
11.0853205242
 20
6.7274528896
 30
0.0
 10
11.0795647582
 20
6.7299256845
 30
0.0
 10
11.072153575
 20
6.7324018331
 30
0.0
 10
11.0645063728
 20
6.7339593531
 30
0.0
 10
11.0583174438
 20
6.7345880096
 30
0.0
 10
11.0520865497
 20
6.7347940751
 30
0.0
 10
11.0458313354
 20
6.7343735581
 30
0.0
 10
11.0396417041
 20
6.7333467931
 30
0.0
 10
11.0334713512
 20
6.7319140157
 30
0.0
 10
11.0274113888
 20
6.7299149087
 30
0.0
 10
11.0215136903
 20
6.7274269373
 30
0.0
 10
11.0156879874
 20
6.7246083697
 30
0.0
 10
11.0086043675
 20
6.7205425277
 30
0.0
 10
11.0004145653
 20
6.7150266688
 30
0.0
 10
10.9924597583
 20
6.7090250571
 30
0.0
 10
10.9874722921
 20
6.7045830943
 30
0.0
 10
10.9850989178
 20
6.7022301159
 30
0.0
  0
SPLINE
  5
330
100
AcDbEntity
  8
0
100
AcDbSpline
 62
9
  6
CONTINUOUS
 70
0
 71
3
 72
17
 73
13
 74
0
 42
0.0000001
 43
0.0000001
 44
0.0000000001
 40
0.0
 40
0.0
 40
0.0
 40
0.0
 40
0.0295001287
 40
0.0532688781
 40
0.084189566
 40
0.1225791334
 40
0.1685892909
 40
0.2222980103
 40
0.2837462354
 40
0.4290774766
 40
0.600378572
 40
1.0
 40
1.0
 40
1.0
 40
1.0
 10
11.0228392318
 20
8.0028419574
 30
0.0
 10
11.0227503322
 20
8.002867352
 30
0.0
 10
11.0225751359
 20
8.0027752938
 30
0.0
 10
11.0223927279
 20
8.0025959049
 30
0.0
 10
11.0222062307
 20
8.0023672085
 30
0.0
 10
11.0220036416
 20
8.0020688291
 30
0.0
 10
11.0217802657
 20
8.001697474
 30
0.0
 10
11.0215388205
 20
8.0012538044
 30
0.0
 10
11.0211725785
 20
8.0005239906
 30
0.0
 10
11.0206849847
 20
7.9994435907
 30
0.0
 10
11.0198277488
 20
7.9973687261
 30
0.0
 10
11.0192054537
 20
7.9956903688
 30
0.0
 10
11.0187875333
 20
7.9945097094
 30
0.0
  0
SPLINE
  5
331
100
AcDbEntity
  8
0
100
AcDbSpline
 62
9
  6
CONTINUOUS
 70
0
 71
3
 72
21
 73
17
 74
0
 42
0.0000001
 43
0.0000001
 44
0.0000000001
 40
0.0
 40
0.0
 40
0.0
 40
0.0
 40
0.1213378021
 40
0.182946217
 40
0.245222143
 40
0.3081597124
 40
0.3717088615
 40
0.4357218776
 40
0.4999994114
 40
0.5642769302
 40
0.6282899629
 40
0.691839999
 40
0.7547777388
 40
0.8170538742
 40
0.8786621444
 40
1.0
 40
1.0
 40
1.0
 40
1.0
 10
10.9850989178
 20
6.7022301159
 30
0.0
 10
10.9819658273
 20
6.6993318574
 30
0.0
 10
10.9769388848
 20
6.6952659156
 30
0.0
 10
10.9696271305
 20
6.6906751349
 30
0.0
 10
10.963772196
 20
6.6876704304
 30
0.0
 10
10.9575923868
 20
6.6852128668
 30
0.0
 10
10.9511349512
 20
6.6833790408
 30
0.0
 10
10.9444700788
 20
6.6822357199
 30
0.0
 10
10.937692436
 20
6.6818650086
 30
0.0
 10
10.9309146808
 20
6.6822351479
 30
0.0
 10
10.9242500338
 20
6.683379939
 30
0.0
 10
10.9177924262
 20
6.6852130554
 30
0.0
 10
10.9116122795
 20
6.6876699951
 30
0.0
 10
10.9057574869
 20
6.690675029
 30
0.0
 10
10.8984459016
 20
6.6952660521
 30
0.0
 10
10.89341883
 20
6.6993318241
 30
0.0
 10
10.8902857677
 20
6.7022301158
 30
0.0
  0
SPLINE
  5
332
100
AcDbEntity
  8
0
100
AcDbSpline
 62
9
  6
CONTINUOUS
 70
0
 71
3
 72
17
 73
13
 74
0
 42
0.0000001
 43
0.0000001
 44
0.0000000001
 40
0.0
 40
0.0
 40
0.0
 40
0.0
 40
0.0295001552
 40
0.0532689017
 40
0.0841895792
 40
0.1225791305
 40
0.168589268
 40
0.2222979651
 40
0.2837461666
 40
0.4290773645
 40
0.600378441
 40
1.0
 40
1.0
 40
1.0
 40
1.0
 10
10.8525454327
 20
8.0028419515
 30
0.0
 10
10.8526343321
 20
8.0028673459
 30
0.0
 10
10.8528095279
 20
8.0027752884
 30
0.0
 10
10.8529919356
 20
8.0025959002
 30
0.0
 10
10.8531784323
 20
8.002367205
 30
0.0
 10
10.8533810208
 20
8.0020688269
 30
0.0
 10
10.8536043961
 20
8.0016974734
 30
0.0
 10
10.8538458406
 20
8.0012538056
 30
0.0
 10
10.8542120816
 20
8.0005239949
 30
0.0
 10
10.8546996742
 20
7.9994435992
 30
0.0
 10
10.855556908
 20
7.997368742
 30
0.0
 10
10.8561792017
 20
7.9956903906
 30
0.0
 10
10.8565971211
 20
7.994509735
 30
0.0
  0
SPLINE
  5
333
100
AcDbEntity
  8
0
100
AcDbSpline
 62
9
  6
CONTINUOUS
 70
0
 71
3
 72
17
 73
13
 74
0
 42
0.0000001
 43
0.0000001
 44
0.0000000001
 40
0.0
 40
0.0
 40
0.0
 40
0.0
 40
0.025560444
 40
0.0534292594
 40
0.0851057328
 40
0.1216003442
 40
0.2112827944
 40
0.3254810293
 40
0.4647441785
 40
0.626259142
 40
0.806071918
 40
1.0
 40
1.0
 40
1.0
 40
1.0
 10
11.0926923455
 20
7.9732326476
 30
0.0
 10
11.0926236047
 20
7.9732723351
 30
0.0
 10
11.0924662092
 20
7.9733330568
 30
0.0
 10
11.0922006408
 20
7.9733581046
 30
0.0
 10
11.0919028018
 20
7.9733222115
 30
0.0
 10
11.0914306778
 20
7.9731845068
 30
0.0
 10
11.0907623763
 20
7.9728394798
 30
0.0
 10
11.0898956059
 20
7.9722165913
 30
0.0
 10
11.0889297556
 20
7.9713608844
 30
0.0
 10
11.0878810532
 20
7.9702980763
 30
0.0
 10
11.086774546
 20
7.9690569444
 30
0.0
 10
11.0860382134
 20
7.9681594108
 30
0.0
 10
11.0856644875
 20
7.9676871831
 30
0.0
  0
SPLINE
  5
334
100
AcDbEntity
  8
0
100
AcDbSpline
 62
9
  6
CONTINUOUS
 70
0
 71
3
 72
17
 73
13
 74
0
 42
0.0000001
 43
0.0000001
 44
0.0000000001
 40
0.0
 40
0.0
 40
0.0
 40
0.0
 40
0.0254163286
 40
0.0531267145
 40
0.0846177135
 40
0.1209029446
 40
0.2101456999
 40
0.3239899265
 40
0.4631181666
 40
0.6247941602
 40
0.8051272493
 40
1.0
 40
1.0
 40
1.0
 40
1.0
 10
11.3726923322
 20
7.8115745799
 30
0.0
 10
11.3727606865
 20
7.8115351156
 30
0.0
 10
11.3728913137
 20
7.8114299237
 30
0.0
 10
11.3730454133
 20
7.8112140812
 30
0.0
 10
11.3731633114
 20
7.8109401004
 30
0.0
 10
11.3732807009
 20
7.8104651821
 30
0.0
 10
11.3733173141
 20
7.8097170519
 30
0.0
 10
11.373212814
 20
7.8086576758
 30
0.0
 10
11.3729558993
 20
7.8073941305
 30
0.0
 10
11.3725601985
 20
7.8059526319
 30
0.0
 10
11.3720375444
 20
7.804368798
 30
0.0
 10
11.3716269227
 20
7.8032780271
 30
0.0
 10
11.3714037389
 20
7.8027155217
 30
0.0
  0
SPLINE
  5
335
100
AcDbEntity
  8
0
100
AcDbSpline
 62
9
  6
CONTINUOUS
 70
0
 71
3
 72
24
 73
20
 74
0
 42
0.0000001
 43
0.0000001
 44
0.0000000001
 40
0.0
 40
0.0
 40
0.0
 40
0.0
 40
0.0654119621
 40
0.1303051681
 40
0.1945822863
 40
0.2581776451
 40
0.3210405876
 40
0.3522005515
 40
0.383180954
 40
0.4446356907
 40
0.5055678233
 40
0.566254275
 40
0.6269267584
 40
0.6573550198
 40
0.6878802147
 40
0.7492504349
 40
0.8734823541
 40
0.9364877328
 40
1.0
 40
1.0
 40
1.0
 40
1.0
 10
10.8902857677
 20
6.7022301158
 30
0.0
 10
10.887828198
 20
6.7045044129
 30
0.0
 10
10.8828183985
 20
6.7089140787
 30
0.0
 10
10.874969136
 20
6.7150561729
 30
0.0
 10
10.8667995258
 20
6.7206067456
 30
0.0
 10
10.8582981638
 20
6.7254320681
 30
0.0
 10
10.8509323864
 20
6.7287606723
 30
0.0
 10
10.8449073931
 20
6.7309252369
 30
0.0
 10
10.8388362262
 20
6.7327167835
 30
0.0
 10
10.8311155593
 20
6.7342525748
 30
0.0
 10
10.821738666
 20
6.7349076851
 30
0.0
 10
10.8124017029
 20
6.7342539831
 30
0.0
 10
10.8047622528
 20
6.7327202131
 30
0.0
 10
10.798796302
 20
6.7309279324
 30
0.0
 10
10.7929149301
 20
6.7287687069
 30
0.0
 10
10.7828654873
 20
6.7240935574
 30
0.0
 10
10.7721712821
 20
6.7170639156
 30
0.0
 10
10.7622499514
 20
6.7089145837
 30
0.0
 10
10.7575009831
 20
6.7045037749
 30
0.0
 10
10.7551770286
 20
6.7022301158
 30
0.0
  0
SPLINE
  5
336
100
AcDbEntity
  8
0
100
AcDbSpline
 62
9
  6
CONTINUOUS
 70
0
 71
3
 72
17
 73
13
 74
0
 42
0.0000001
 43
0.0000001
 44
0.0000000001
 40
0.0
 40
0.0
 40
0.0
 40
0.0
 40
0.0295001553
 40
0.0532689018
 40
0.0841895793
 40
0.1225791307
 40
0.1685892682
 40
0.2222979652
 40
0.2837461668
 40
0.4290773646
 40
0.6003784411
 40
1.0
 40
1.0
 40
1.0
 40
1.0
 10
11.4332612954
 20
7.7658846748
 30
0.0
 10
11.4333277374
 20
7.7658203828
 30
0.0
 10
11.4333356111
 20
7.7656226301
 30
0.0
 10
11.4332714602
 20
7.7653749663
 30
0.0
 10
11.4331666527
 20
7.7650991078
 30
0.0
 10
11.433009544
 20
7.7647744719
 30
0.0
 10
11.43279963
 20
7.7643953465
 30
0.0
 10
11.4325361248
 20
7.7639644156
 30
0.0
 10
11.4320872106
 20
7.7632823362
 30
0.0
 10
11.4313953568
 20
7.7623198708
 30
0.0
 10
11.4300270947
 20
7.760540056
 30
0.0
 10
11.4288847465
 20
7.7591619581
 30
0.0
 10
11.4280712285
 20
7.7582097015
 30
0.0
  0
SPLINE
  5
337
100
AcDbEntity
  8
0
100
AcDbSpline
 62
9
  6
CONTINUOUS
 70
0
 71
3
 72
23
 73
19
 74
0
 42
0.0000001
 43
0.0000001
 44
0.0000000001
 40
0.0
 40
0.0
 40
0.0
 40
0.0
 40
0.0911726109
 40
0.1790918925
 40
0.2628777913
 40
0.3417505087
 40
0.4149934599
 40
0.4817625764
 40
0.5415566217
 40
0.5946187585
 40
0.6421030505
 40
0.6863020914
 40
0.730000568
 40
0.775721497
 40
0.8250483263
 40
0.878824545
 40
0.9372334916
 40
1.0
 40
1.0
 40
1.0
 40
1.0
 10
10.7551770312
 20
6.7022301091
 30
0.0
 10
10.7537148281
 20
6.7007998686
 30
0.0
 10
10.7507910897
 20
6.6980422827
 30
0.0
 10
10.746329394
 20
6.6941825015
 30
0.0
 10
10.7418928496
 20
6.6907253383
 30
0.0
 10
10.7375196076
 20
6.6877372889
 30
0.0
 10
10.7332561849
 20
6.6852886471
 30
0.0
 10
10.7291591604
 20
6.683446121
 30
0.0
 10
10.7252845127
 20
6.6822869775
 30
0.0
 10
10.721689927
 20
6.6818529423
 30
0.0
 10
10.7184275561
 20
6.6822060905
 30
0.0
 10
10.7155676482
 20
6.6833468492
 30
0.0
 10
10.7131894065
 20
6.6852341792
 30
0.0
 10
10.7112976356
 20
6.6877392419
 30
0.0
 10
10.7098511295
 20
6.6907671747
 30
0.0
 10
10.7088005483
 20
6.6942457351
 30
0.0
 10
10.7081014432
 20
6.6981142361
 30
0.0
 10
10.7078529339
 20
6.7008244059
 30
0.0
 10
10.7077704494
 20
6.702230109
 30
0.0
  0
SPLINE
  5
338
100
AcDbEntity
  8
0
100
AcDbSpline
 62
9
  6
CONTINUOUS
 70
0
 71
3
 72
11
 73
7
 74
0
 42
0.0000001
 43
0.0000001
 44
0.0000000001
 40
0.0
 40
0.0
 40
0.0
 40
0.0
 40
0.2240175255
 40
0.4680021652
 40
0.7280257552
 40
1.0
 40
1.0
 40
1.0
 40
1.0
 10
10.7551770289
 20
6.7022301161
 30
0.0
 10
10.7556819158
 20
6.7012039586
 30
0.0
 10
10.7568278386
 20
6.6991045841
 30
0.0
 10
10.758816101
 20
6.6959621513
 30
0.0
 10
10.7611174276
 20
6.692735442
 30
0.0
 10
10.762804585
 20
6.6906055058
 30
0.0
 10
10.7636923431
 20
6.6895379299
 30
0.0
  0
LINE
  5
339
100
AcDbEntity
  8
0
100
AcDbLine
 62
9
  6
CONTINUOUS
 10
10.7057593965
 20
6.7346900094
 11
10.7071102303
 21
6.7132799461
  0
LINE
  5
33A
100
AcDbEntity
  8
0
100
AcDbLine
 62
9
  6
CONTINUOUS
 10
11.1684540951
 20
6.7162193253
 11
11.1696252886
 21
6.73469001
  0
SPLINE
  5
33B
100
AcDbEntity
  8
0
100
AcDbSpline
 62
9
  6
CONTINUOUS
 70
0
 71
3
 72
11
 73
7
 74
0
 42
0.0000001
 43
0.0000001
 44
0.0000000001
 40
0.0
 40
0.0
 40
0.0
 40
0.0
 40
0.2582524093
 40
0.5105754369
 40
0.7575218611
 40
1.0
 40
1.0
 40
1.0
 40
1.0
 10
10.7077704548
 20
6.7022300949
 30
0.0
 10
10.7071167503
 20
6.7012674838
 30
0.0
 10
10.7059538551
 20
6.6992722509
 30
0.0
 10
10.7046666216
 20
6.6960987137
 30
0.0
 10
10.703875667
 20
6.6928391569
 30
0.0
 10
10.7036923427
 20
6.6906304289
 30
0.0
 10
10.7036923427
 20
6.6895379087
 30
0.0
  0
SPLINE
  5
33C
100
AcDbEntity
  8
0
100
AcDbSpline
 62
9
  6
CONTINUOUS
 70
0
 71
3
 72
11
 73
7
 74
0
 42
0.0000001
 43
0.0000001
 44
0.0000000001
 40
0.0
 40
0.0
 40
0.0
 40
0.0
 40
0.2582524496
 40
0.5105754888
 40
0.7575218997
 40
1.0
 40
1.0
 40
1.0
 40
1.0
 10
11.1676142322
 20
6.7022301207
 30
0.0
 10
11.1682679366
 20
6.7012675094
 30
0.0
 10
11.1694308317
 20
6.6992722763
 30
0.0
 10
11.1707180647
 20
6.6960987388
 30
0.0
 10
11.1715090188
 20
6.6928391822
 30
0.0
 10
11.1716923428
 20
6.6906304545
 30
0.0
 10
11.1716923427
 20
6.6895379345
 30
0.0
  0
SPLINE
  5
33D
100
AcDbEntity
  8
0
100
AcDbSpline
 62
9
  6
CONTINUOUS
 70
0
 71
3
 72
16
 73
12
 74
0
 42
0.0000001
 43
0.0000001
 44
0.0000000001
 40
0.0
 40
0.0
 40
0.0
 40
0.0
 40
0.3536310783
 40
0.5084032208
 40
0.6460967751
 40
0.7652447919
 40
0.8645929186
 40
0.9064860067
 40
0.9430606528
 40
0.9742497346
 40
1.0
 40
1.0
 40
1.0
 40
1.0
 10
10.7636923427
 20
4.8518068755
 30
0.0
 10
10.7569340666
 20
4.8522112616
 30
0.0
 10
10.7472138075
 20
4.8527310342
 30
0.0
 10
10.73485309
 20
4.8532072795
 30
0.0
 10
10.7269751624
 20
4.853417166
 30
0.0
 10
10.7201559878
 20
4.8534942681
 30
0.0
 10
10.7151702975
 20
4.8534486355
 30
0.0
 10
10.7117677701
 20
4.8533326944
 30
0.0
 10
10.7096712853
 20
4.853217802
 30
0.0
 10
10.7078867562
 20
4.853070892
 30
0.0
 10
10.7068039704
 20
4.8529400815
 30
0.0
 10
10.7063167211
 20
4.8528650279
 30
0.0
  0
SPLINE
  5
33E
100
AcDbEntity
  8
0
100
AcDbSpline
 62
9
  6
CONTINUOUS
 70
0
 71
3
 72
15
 73
11
 74
0
 42
0.0000001
 43
0.0000001
 44
0.0000000001
 40
0.0
 40
0.0
 40
0.0
 40
0.0
 40
0.2107312611
 40
0.3950120115
 40
0.5531344113
 40
0.6856162906
 40
0.7934105611
 40
0.878387989
 40
0.9444953286
 40
1.0
 40
1.0
 40
1.0
 40
1.0
 10
10.7063167211
 20
4.8528650279
 30
0.0
 10
10.7061116158
 20
4.8528334345
 30
0.0
 10
10.7057279438
 20
4.8527687379
 30
0.0
 10
10.7051945559
 20
4.8526574096
 30
0.0
 10
10.7047419631
 20
4.8525385516
 30
0.0
 10
10.7043700378
 20
4.8524123744
 30
0.0
 10
10.7040778937
 20
4.8522789179
 30
0.0
 10
10.7038643129
 20
4.8521372251
 30
0.0
 10
10.7037260038
 20
4.8519825552
 30
0.0
 10
10.7036920676
 20
4.8518615478
 30
0.0
 10
10.7036923427
 20
4.8518068886
 30
0.0
  0
SPLINE
  5
33F
100
AcDbEntity
  8
0
100
AcDbSpline
 62
9
  6
CONTINUOUS
 70
0
 71
3
 72
15
 73
11
 74
0
 42
0.0000001
 43
0.0000001
 44
0.0000000001
 40
0.0
 40
0.0
 40
0.0
 40
0.0
 40
0.0555469042
 40
0.1216739931
 40
0.2066544675
 40
0.3144418771
 40
0.446911416
 40
0.6050188049
 40
0.7892837997
 40
1.0
 40
1.0
 40
1.0
 40
1.0
 10
11.1716923427
 20
4.8518068875
 30
0.0
 10
11.171692604
 20
4.8518615908
 30
0.0
 10
11.1716586662
 20
4.8519826613
 30
0.0
 10
11.171520341
 20
4.8521374203
 30
0.0
 10
11.171306743
 20
4.8522791409
 30
0.0
 10
11.1710145956
 20
4.8524125871
 30
0.0
 10
11.1706426748
 20
4.8525387275
 30
0.0
 10
11.1701900914
 20
4.8526575347
 30
0.0
 10
11.169656714
 20
4.8527688086
 30
0.0
 10
11.1692730505
 20
4.8528334751
 30
0.0
 10
11.169067949
 20
4.8528650559
 30
0.0
  0
SPLINE
  5
340
100
AcDbEntity
  8
0
100
AcDbSpline
 62
9
  6
CONTINUOUS
 70
0
 71
3
 72
16
 73
12
 74
0
 42
0.0000001
 43
0.0000001
 44
0.0000000001
 40
0.0
 40
0.0
 40
0.0
 40
0.0
 40
0.0257499722
 40
0.0569390855
 40
0.0935139093
 40
0.1354071871
 40
0.2347554606
 40
0.3539033981
 40
0.491596825
 40
0.6463690427
 40
1.0
 40
1.0
 40
1.0
 40
1.0
 10
11.169067949
 20
4.8528650559
 30
0.0
 10
11.1685807011
 20
4.8529400805
 30
0.0
 10
11.1674979181
 20
4.8530708624
 30
0.0
 10
11.1657133917
 20
4.8532177772
 30
0.0
 10
11.1636169016
 20
4.8533326999
 30
0.0
 10
11.160214367
 20
4.8534486904
 30
0.0
 10
11.1552286727
 20
4.8534943408
 30
0.0
 10
11.1484095014
 20
4.8534171989
 30
0.0
 10
11.1405315811
 20
4.8532072106
 30
0.0
 10
11.1281708707
 20
4.8527310215
 30
0.0
 10
11.1184505891
 20
4.8522116552
 30
0.0
 10
11.1116923427
 20
4.8518068425
 30
0.0
  0
SPLINE
  5
341
100
AcDbEntity
  8
0
100
AcDbSpline
 62
9
  6
CONTINUOUS
 70
0
 71
3
 72
27
 73
23
 74
0
 42
0.0000001
 43
0.0000001
 44
0.0000000001
 40
0.0
 40
0.0
 40
0.0
 40
0.0
 40
0.0951732893
 40
0.1869313433
 40
0.2745169739
 40
0.3571620644
 40
0.4340399225
 40
0.4701165212
 40
0.5045256577
 40
0.5680754689
 40
0.624656596
 40
0.6505145595
 40
0.6748956469
 40
0.6980085936
 40
0.7201154142
 40
0.7622938961
 40
0.7830536952
 40
0.8039911473
 40
0.8473618301
 40
0.8940072033
 40
0.9447697747
 40
1.0
 40
1.0
 40
1.0
 40
1.0
 10
11.1116923427
 20
6.6895379296
 30
0.0
 10
11.1136933657
 20
6.6880559401
 30
0.0
 10
11.1176776383
 20
6.6852170564
 30
0.0
 10
11.1236944899
 20
6.6812909751
 30
0.0
 10
11.1296061515
 20
6.6778158133
 30
0.0
 10
11.1353545663
 20
6.6748486276
 30
0.0
 10
11.1400578286
 20
6.6728176291
 30
0.0
 10
11.1436877558
 20
6.6715144725
 30
0.0
 10
11.1470379397
 20
6.6704758431
 30
0.0
 10
11.1509888884
 20
6.6695692523
 30
0.0
 10
11.1548113594
 20
6.6692483818
 30
0.0
 10
11.1576070973
 20
6.6693568883
 30
0.0
 10
11.1595126397
 20
6.6696119995
 30
0.0
 10
11.1612835272
 20
6.6700555412
 30
0.0
 10
11.1634217416
 20
6.6708776501
 30
0.0
 10
11.1653390218
 20
6.6720628007
 30
0.0
 10
11.1669458888
 20
6.6735648266
 30
0.0
 10
11.1683687348
 20
6.6752835911
 30
0.0
 10
11.1697953296
 20
6.6778415225
 30
0.0
 10
11.1709321164
 20
6.6813631587
 30
0.0
 10
11.1715719629
 20
6.6853168622
 30
0.0
 10
11.1716923007
 20
6.6880929188
 30
0.0
 10
11.1716923427
 20
6.6895379296
 30
0.0
  0
SPLINE
  5
342
100
AcDbEntity
  8
0
100
AcDbSpline
 62
7
  6
CONTINUOUS
 70
0
 71
3
 72
15
 73
11
 74
0
 42
0.0000001
 43
0.0000001
 44
0.0000000001
 40
0.0
 40
0.0
 40
0.0
 40
0.0
 40
0.0856769768
 40
0.1823024906
 40
0.2917157695
 40
0.4141964891
 40
0.548566449
 40
0.6928208489
 40
0.8444510984
 40
1.0
 40
1.0
 40
1.0
 40
1.0
 10
11.0987572071
 20
4.8129260218
 30
0.0
 10
11.0998672327
 20
4.8134471132
 30
0.0
 10
11.1020524219
 20
4.8149466108
 30
0.0
 10
11.1048276821
 20
4.818105507
 30
0.0
 10
11.1072142588
 20
4.8221834298
 30
0.0
 10
11.1091603998
 20
4.8270675432
 30
0.0
 10
11.1106247365
 20
4.8326308664
 30
0.0
 10
11.1115647896
 20
4.8387267827
 30
0.0
 10
11.1119532427
 20
4.8451843355
 30
0.0
 10
11.1118415136
 20
4.8495855697
 30
0.0
 10
11.1116920855
 20
4.8518068428
 30
0.0
  0
SPLINE
  5
343
100
AcDbEntity
  8
0
100
AcDbSpline
 62
7
  6
CONTINUOUS
 70
0
 71
3
 72
15
 73
11
 74
0
 42
0.0000001
 43
0.0000001
 44
0.0000000001
 40
0.0
 40
0.0
 40
0.0
 40
0.0
 40
0.0876537822
 40
0.1871300324
 40
0.2991858341
 40
0.4233714337
 40
0.5580511064
 40
0.7009462879
 40
0.8494147935
 40
1.0
 40
1.0
 40
1.0
 40
1.0
 10
10.9795271119
 20
4.8129266796
 30
0.0
 10
10.9807193123
 20
4.8134530925
 30
0.0
 10
10.9831016401
 20
4.814955649
 30
0.0
 10
10.9862850918
 20
4.8180960564
 30
0.0
 10
10.9892149898
 20
4.8221609684
 30
0.0
 10
10.9918185418
 20
4.8270375817
 30
0.0
 10
10.9940335223
 20
4.8325966554
 30
0.0
 10
10.9957966157
 20
4.8386903577
 30
0.0
 10
10.9970569208
 20
4.8451471255
 30
0.0
 10
10.997542092
 20
4.8495730847
 30
0.0
 10
10.9976923454
 20
4.8518069559
 30
0.0
  0
SPLINE
  5
344
100
AcDbEntity
  8
0
100
AcDbSpline
 62
9
  6
CONTINUOUS
 70
0
 71
3
 72
21
 73
17
 74
0
 42
0.0000001
 43
0.0000001
 44
0.0000000001
 40
0.0
 40
0.0
 40
0.0
 40
0.0
 40
0.0658625092
 40
0.1309330568
 40
0.2578575633
 40
0.3198231239
 40
0.3806874664
 40
0.4406433607
 40
0.5000291456
 40
0.5594058698
 40
0.6193390012
 40
0.6801727415
 40
0.7421134287
 40
0.8690425152
 40
0.9341278958
 40
1.0
 40
1.0
 40
1.0
 40
1.0
 10
10.9976923428
 20
6.6895379297
 30
0.0
 10
10.9996773864
 20
6.6917390356
 30
0.0
 10
11.0037222665
 20
6.6960289228
 30
0.0
 10
11.0121450335
 20
6.704013677
 30
0.0
 10
11.0212521067
 20
6.7110260021
 30
0.0
 10
11.0310973165
 20
6.7164903961
 30
0.0
 10
11.0387403852
 20
6.7195983254
 30
0.0
 10
11.0466453739
 20
6.7215426724
 30
0.0
 10
11.0546959711
 20
6.7222246387
 30
0.0
 10
11.0627454283
 20
6.72154148
 30
0.0
 10
11.0706474222
 20
6.7195970234
 30
0.0
 10
11.0782874343
 20
6.7164910616
 30
0.0
 10
11.0881309632
 20
6.7110282639
 30
0.0
 10
11.097237247
 20
6.7040152612
 30
0.0
 10
11.1056610232
 20
6.6960297168
 30
0.0
 10
11.1097068736
 20
6.6917392333
 30
0.0
 10
11.1116923427
 20
6.6895379296
 30
0.0
  0
SPLINE
  5
345
100
AcDbEntity
  8
0
100
AcDbSpline
 62
9
  6
CONTINUOUS
 70
0
 71
3
 72
13
 73
9
 74
0
 42
0.0000001
 43
0.0000001
 44
0.0000000001
 40
0.0
 40
0.0
 40
0.0
 40
0.0
 40
0.1172952133
 40
0.2412156817
 40
0.5000000015
 40
0.7587843205
 40
0.8827047878
 40
1.0
 40
1.0
 40
1.0
 40
1.0
 10
10.9976923428
 20
4.8518068688
 30
0.0
 10
10.9930065553
 20
4.8520876313
 30
0.0
 10
10.983364789
 20
4.8525752315
 30
0.0
 10
10.9633661584
 20
4.8532721805
 30
0.0
 10
10.9376923429
 20
4.8536089919
 30
0.0
 10
10.9120185274
 20
4.8532721881
 30
0.0
 10
10.8920198966
 20
4.852575248
 30
0.0
 10
10.8823781301
 20
4.8520876517
 30
0.0
 10
10.8776923427
 20
4.8518068892
 30
0.0
  0
SPLINE
  5
346
100
AcDbEntity
  8
0
100
AcDbSpline
 62
9
  6
CONTINUOUS
 70
0
 71
3
 72
24
 73
20
 74
0
 42
0.0000001
 43
0.0000001
 44
0.0000000001
 40
0.0
 40
0.0
 40
0.0
 40
0.0
 40
0.1196355417
 40
0.2431855217
 40
0.2747010181
 40
0.3064348829
 40
0.3383685382
 40
0.3704797194
 40
0.4027328722
 40
0.4350940207
 40
0.500006398
 40
0.564918304
 40
0.5972796554
 40
0.6295328702
 40
0.661643498
 40
0.6935767957
 40
0.7568131626
 40
0.8803631138
 40
1.0
 40
1.0
 40
1.0
 40
1.0
 10
10.8776923427
 20
6.6895379296
 30
0.0
 10
10.8818187853
 20
6.6864819084
 30
0.0
 10
10.8906589572
 20
6.6808576419
 30
0.0
 10
10.9014841247
 20
6.6760533412
 30
0.0
 10
10.909104156
 20
6.6735554919
 30
0.0
 10
10.9130371041
 20
6.6724453279
 30
0.0
 10
10.917036835
 20
6.6714910532
 30
0.0
 10
10.9210937615
 20
6.6706947493
 30
0.0
 10
10.9251988003
 20
6.6700662601
 30
0.0
 10
10.9307280236
 20
6.6694711
 30
0.0
 10
10.9376923013
 20
6.6691947648
 30
0.0
 10
10.9446565116
 20
6.669471948
 30
0.0
 10
10.9501857742
 20
6.6700665045
 30
0.0
 10
10.9542909787
 20
6.6706937818
 30
0.0
 10
10.9583480226
 20
6.6714894612
 30
0.0
 10
10.9636630735
 20
6.6727581002
 30
0.0
 10
10.9726521032
 20
6.6754995871
 30
0.0
 10
10.9847249847
 20
6.6808572625
 30
0.0
 10
10.9935659169
 20
6.6864817889
 30
0.0
 10
10.9976923428
 20
6.6895379297
 30
0.0
  0
SPLINE
  5
347
100
AcDbEntity
  8
0
100
AcDbSpline
 62
7
  6
CONTINUOUS
 70
0
 71
3
 72
15
 73
11
 74
0
 42
0.0000001
 43
0.0000001
 44
0.0000000001
 40
0.0
 40
0.0
 40
0.0
 40
0.0
 40
0.0876541391
 40
0.1871303021
 40
0.2991864064
 40
0.4233722352
 40
0.5580520066
 40
0.700947125
 40
0.849415334
 40
1.0
 40
1.0
 40
1.0
 40
1.0
 10
10.8958577043
 20
4.812926083
 30
0.0
 10
10.8946654881
 20
4.8134525047
 30
0.0
 10
10.8922831474
 20
4.8149551075
 30
0.0
 10
10.8890997085
 20
4.8180955997
 30
0.0
 10
10.8861698023
 20
4.8221605732
 30
0.0
 10
10.8835662571
 20
4.8270372635
 30
0.0
 10
10.8813512956
 20
4.832596412
 30
0.0
 10
10.8795882268
 20
4.8386901825
 30
0.0
 10
10.8783279593
 20
4.8451470101
 30
0.0
 10
10.8778428143
 20
4.8495730034
 30
0.0
 10
10.8776925709
 20
4.8518068893
 30
0.0
  0
SPLINE
  5
348
100
AcDbEntity
  8
0
100
AcDbSpline
 62
9
  6
CONTINUOUS
 70
0
 71
3
 72
9
 73
5
 74
0
 42
0.0000001
 43
0.0000001
 44
0.0000000001
 40
0.0
 40
0.0
 40
0.0
 40
0.0
 40
0.5075186471
 40
1.0
 40
1.0
 40
1.0
 40
1.0
 10
10.9850989228
 20
6.7022301205
 30
0.0
 10
10.9874011795
 20
6.700264248
 30
0.0
 10
10.9917742498
 20
6.6961970272
 30
0.0
 10
10.995814049
 20
6.6917966889
 30
0.0
 10
10.997692349
 20
6.6895379342
 30
0.0
  0
SPLINE
  5
349
100
AcDbEntity
  8
0
100
AcDbSpline
 62
9
  6
CONTINUOUS
 70
0
 71
3
 72
11
 73
7
 74
0
 42
0.0000001
 43
0.0000001
 44
0.0000000001
 40
0.0
 40
0.0
 40
0.0
 40
0.0
 40
0.2240175168
 40
0.4680021538
 40
0.7280257468
 40
1.0
 40
1.0
 40
1.0
 40
1.0
 10
11.12020767
 20
6.702230103
 30
0.0
 10
11.119702783
 20
6.7012039455
 30
0.0
 10
11.1185568601
 20
6.699104571
 30
0.0
 10
11.1165685973
 20
6.6959621382
 30
0.0
 10
11.1142672703
 20
6.6927354289
 30
0.0
 10
11.1125801126
 20
6.6906054927
 30
0.0
 10
11.1116923543
 20
6.6895379167
 30
0.0
  0
SPLINE
  5
34A
100
AcDbEntity
  8
0
100
AcDbSpline
 62
9
  6
CONTINUOUS
 70
0
 71
3
 72
25
 73
21
 74
0
 42
0.0000001
 43
0.0000001
 44
0.0000000001
 40
0.0
 40
0.0
 40
0.0
 40
0.0
 40
0.0951717925
 40
0.1869327328
 40
0.2745184483
 40
0.3571614854
 40
0.4340651058
 40
0.5045272179
 40
0.5680807905
 40
0.6246722287
 40
0.6748678302
 40
0.7200098542
 40
0.7413608216
 40
0.7622727525
 40
0.7830602401
 40
0.8040176683
 40
0.8473883829
 40
0.8940263042
 40
0.9447918199
 40
1.0
 40
1.0
 40
1.0
 40
1.0
 10
10.7636923427
 20
6.6895379296
 30
0.0
 10
10.7616902362
 20
6.6880575755
 30
0.0
 10
10.7577056024
 20
6.685219451
 30
0.0
 10
10.7516893284
 20
6.6812927317
 30
0.0
 10
10.7457774982
 20
6.6778180834
 30
0.0
 10
10.7400269192
 20
6.6748538807
 30
0.0
 10
10.7345010706
 20
6.6724575222
 30
0.0
 10
10.729267806
 20
6.6706829634
 30
0.0
 10
10.724394065
 20
6.669575577
 30
0.0
 10
10.719938977
 20
6.6691704373
 30
0.0
 10
10.7159532925
 20
6.6694907897
 30
0.0
 10
10.7130041388
 20
6.6703951638
 30
0.0
 10
10.7109827272
 20
6.6714768402
 30
0.0
 10
10.7096384056
 20
6.6724411179
 30
0.0
 10
10.7084391868
 20
6.6735655375
 30
0.0
 10
10.7070172863
 20
6.6752861453
 30
0.0
 10
10.7055895193
 20
6.6778436975
 30
0.0
 10
10.7044526381
 20
6.6813651647
 30
0.0
 10
10.7038128672
 20
6.6853180467
 30
0.0
 10
10.7036923479
 20
6.6880935319
 30
0.0
 10
10.7036923427
 20
6.6895379296
 30
0.0
  0
SPLINE
  5
34B
100
AcDbEntity
  8
0
100
AcDbSpline
 62
9
  6
CONTINUOUS
 70
0
 71
3
 72
17
 73
13
 74
0
 42
0.0000001
 43
0.0000001
 44
0.0000000001
 40
0.0
 40
0.0
 40
0.0
 40
0.0
 40
0.0295001287
 40
0.0532688781
 40
0.084189566
 40
0.1225791334
 40
0.1685892909
 40
0.2222980104
 40
0.2837462355
 40
0.4290774766
 40
0.600378572
 40
1.0
 40
1.0
 40
1.0
 40
1.0
 10
11.5184082004
 20
7.6184059213
 30
0.0
 10
11.5183857429
 20
7.618495608
 30
0.0
 10
11.5182184201
 20
7.6186013033
 30
0.0
 10
11.5179718607
 20
7.6186695788
 30
0.0
 10
11.5176805553
 20
7.6187167419
 30
0.0
 10
11.5173208566
 20
7.6187429995
 30
0.0
 10
11.5168875656
 20
7.6187507712
 30
0.0
 10
11.5163826139
 20
7.618738034
 30
0.0
 10
11.5155674556
 20
7.618690302
 30
0.0
 10
11.5143880049
 20
7.6185723707
 30
0.0
 10
11.5121625015
 20
7.6182773264
 30
0.0
 10
11.5103978539
 20
7.6179770712
 30
0.0
 10
11.5091664127
 20
7.6177486711
 30
0.0
  0
SPLINE
  5
34C
100
AcDbEntity
  8
0
100
AcDbSpline
 62
9
  6
CONTINUOUS
 70
0
 71
3
 72
13
 73
9
 74
0
 42
0.0000001
 43
0.0000001
 44
0.0000000001
 40
0.0
 40
0.0
 40
0.0
 40
0.0
 40
0.1247850601
 40
0.2497741094
 40
0.3748981203
 40
0.5000931233
 40
0.7503130325
 40
1.0
 40
1.0
 40
1.0
 40
1.0
 10
11.4280718037
 20
7.7582103854
 30
0.0
 10
11.4330202872
 20
7.7534949197
 30
0.0
 10
11.4425893225
 20
7.7436964093
 30
0.0
 10
11.4558657028
 20
7.7280077227
 30
0.0
 10
11.4680083337
 20
7.711395726
 30
0.0
 10
11.4825773404
 20
7.688144394
 30
0.0
 10
11.4975718964
 20
7.6572252349
 30
0.0
 10
11.5059467653
 20
7.6310414962
 30
0.0
 10
11.5091673304
 20
7.6177488129
 30
0.0
  0
LINE
  5
34D
100
AcDbEntity
  8
0
100
AcDbLine
 62
9
  6
CONTINUOUS
 10
11.3714037494
 20
6.9601817312
 11
11.3684536834
 21
6.9583784703
  0
SPLINE
  5
34E
100
AcDbEntity
  8
0
100
AcDbSpline
 62
9
  6
CONTINUOUS
 70
0
 71
3
 72
12
 73
8
 74
0
 42
0.0000001
 43
0.0000001
 44
0.0000000001
 40
0.0
 40
0.0
 40
0.0
 40
0.0
 40
0.2481062593
 40
0.4984854782
 40
0.624161084
 40
0.7498221906
 40
1.0
 40
1.0
 40
1.0
 40
1.0
 10
11.3684536834
 20
6.9583784703
 30
0.0
 10
11.3497381821
 20
6.9469440824
 30
0.0
 10
11.3120385092
 20
6.9241291036
 30
0.0
 10
11.2645515009
 20
6.8960340364
 30
0.0
 10
11.2261917688
 20
6.8737735759
 30
0.0
 10
11.1877192703
 20
6.8517444896
 30
0.0
 10
11.1587517227
 20
6.8354740795
 30
0.0
 10
11.139415492
 20
6.824741356
 30
0.0
  0
SPLINE
  5
34F
100
AcDbEntity
  8
0
100
AcDbSpline
 62
7
  6
CONTINUOUS
 70
0
 71
3
 72
22
 73
18
 74
0
 42
0.0000001
 43
0.0000001
 44
0.0000000001
 40
0.0
 40
0.0
 40
0.0
 40
0.0
 40
0.1257428304
 40
0.2514802021
 40
0.3772030891
 40
0.5028939685
 40
0.6285142651
 40
0.6912770936
 40
0.7539763319
 40
0.8165584947
 40
0.8477783477
 40
0.8789116187
 40
0.9099013146
 40
0.9406232333
 40
0.9558301118
 40
0.9708705221
 40
1.0
 40
1.0
 40
1.0
 40
1.0
 10
9.8521071769
 20
8.3211599601
 30
0.0
 10
9.851438328
 20
8.3203872844
 30
0.0
 10
9.8500926634
 20
8.3188488554
 30
0.0
 10
9.8480450279
 20
8.3165671924
 30
0.0
 10
9.8459609649
 20
8.3143192025
 30
0.0
 10
9.8438294713
 20
8.3121173561
 30
0.0
 10
9.8419986886
 20
8.3103375752
 30
0.0
 10
9.8404846077
 20
8.308969053
 30
0.0
 10
9.8393174339
 20
8.307981983
 30
0.0
 10
9.8383083989
 20
8.3072061564
 30
0.0
 10
9.8374699232
 20
8.3066329735
 30
0.0
 10
9.8368224444
 20
8.3062366998
 30
0.0
 10
9.8361517436
 20
8.305889422
 30
0.0
 10
9.8355667099
 20
8.3056622875
 30
0.0
 10
9.8350822631
 20
8.3055512938
 30
0.0
 10
9.8346022381
 20
8.3055041683
 30
0.0
 10
9.8342306893
 20
8.3055784376
 30
0.0
 10
9.8340237647
 20
8.3056934603
 30
0.0
  0
SPLINE
  5
350
100
AcDbEntity
  8
0
100
AcDbSpline
 62
7
  6
CONTINUOUS
 70
0
 71
3
 72
22
 73
18
 74
0
 42
0.0000001
 43
0.0000001
 44
0.0000000001
 40
0.0
 40
0.0
 40
0.0
 40
0.0
 40
0.0291302038
 40
0.044172203
 40
0.0593805939
 40
0.0901010971
 40
0.121091056
 40
0.1522240598
 40
0.183443846
 40
0.2460258048
 40
0.3087248648
 40
0.3714875108
 40
0.4971074513
 40
0.6227979768
 40
0.7485205077
 40
0.8742575245
 40
1.0
 40
1.0
 40
1.0
 40
1.0
 10
9.5854387261
 20
7.875131208
 30
0.0
 10
9.5856417863
 20
7.8750094842
 30
0.0
 10
9.5858917844
 20
7.8747247476
 30
0.0
 10
9.5860909998
 20
7.874285453
 30
0.0
 10
9.5862370425
 20
7.8738103812
 30
0.0
 10
9.5863328472
 20
7.8731901646
 30
0.0
 10
9.5863674251
 20
7.872435695
 30
0.0
 10
9.5863479721
 20
7.8716768311
 30
0.0
 10
9.5862708101
 20
7.8706641092
 30
0.0
 10
9.5861034354
 20
7.8694023584
 30
0.0
 10
9.5858321912
 20
7.8678980357
 30
0.0
 10
9.5854040559
 20
7.8659025605
 30
0.0
 10
9.5847781137
 20
7.8634271884
 30
0.0
 10
9.5839370102
 20
7.8604803641
 30
0.0
 10
9.5830322329
 20
7.8575515434
 30
0.0
 10
9.5820800788
 20
7.8546374337
 30
0.0
 10
9.5814206007
 20
7.8527028555
 30
0.0
 10
9.5810858699
 20
7.8517372864
 30
0.0
  0
SPLINE
  5
351
100
AcDbEntity
  8
0
100
AcDbSpline
 62
7
  6
CONTINUOUS
 70
0
 71
3
 72
22
 73
18
 74
0
 42
0.0000001
 43
0.0000001
 44
0.0000000001
 40
0.0
 40
0.0
 40
0.0
 40
0.0
 40
0.1257425425
 40
0.2514796271
 40
0.3772022258
 40
0.5028928187
 40
0.6285128252
 40
0.6912755019
 40
0.753974589
 40
0.8165565635
 40
0.8477763558
 40
0.8789093426
 40
0.9098993189
 40
0.9406196483
 40
0.9558281057
 40
0.9708700935
 40
1.0
 40
1.0
 40
1.0
 40
1.0
 10
9.5810858699
 20
6.9111599601
 30
0.0
 10
9.5814206007
 20
6.9101943839
 30
0.0
 10
9.5820800863
 20
6.9082597942
 30
0.0
 10
9.5830322445
 20
6.9053456647
 30
0.0
 10
9.5839370274
 20
6.9024168247
 30
0.0
 10
9.5847781345
 20
6.8994699805
 30
0.0
 10
9.5854040783
 20
6.8969945915
 30
0.0
 10
9.5858322124
 20
6.8949991025
 30
0.0
 10
9.5861034541
 20
6.8934947693
 30
0.0
 10
9.5862708237
 20
6.8922330097
 30
0.0
 10
9.5863479792
 20
6.8912202811
 30
0.0
 10
9.5863674225
 20
6.8904614123
 30
0.0
 10
9.5863328369
 20
6.8897069399
 30
0.0
 10
9.5862370067
 20
6.8890867222
 30
0.0
 10
9.586090946
 20
6.8886116568
 30
0.0
 10
9.5858917318
 20
6.8881723521
 30
0.0
 10
9.5856416245
 20
6.8878877074
 30
0.0
 10
9.5854385466
 20
6.887766015
 30
0.0
  0
SPLINE
  5
352
100
AcDbEntity
  8
0
100
AcDbSpline
 62
9
  6
CONTINUOUS
 70
0
 71
3
 72
19
 73
15
 74
0
 42
0.0000001
 43
0.0000001
 44
0.0000000001
 40
0.0
 40
0.0
 40
0.0
 40
0.0
 40
0.1989504908
 40
0.3871111599
 40
0.5577485399
 40
0.7042170545
 40
0.766508927
 40
0.8211704824
 40
0.86824931
 40
0.9078400515
 40
0.9401290607
 40
0.9654991566
 40
0.9847989337
 40
1.0
 40
1.0
 40
1.0
 40
1.0
 10
9.5047869356
 20
7.7360919366
 30
0.0
 10
9.5041095938
 20
7.7365384178
 30
0.0
 10
9.5028015025
 20
7.7374222345
 30
0.0
 10
9.5009489658
 20
7.738742084
 30
0.0
 10
9.4993073861
 20
7.7399875866
 30
0.0
 10
9.4981120593
 20
7.7409710417
 30
0.0
 10
9.4973180724
 20
7.74169485
 30
0.0
 10
9.4968423792
 20
7.7421653805
 30
0.0
 10
9.4964534916
 20
7.7425911409
 30
0.0
 10
9.4961507936
 20
7.7429707462
 30
0.0
 10
9.4959327458
 20
7.7433030395
 30
0.0
 10
9.4957986629
 20
7.7435882499
 30
0.0
 10
9.4957447415
 20
7.7438299172
 30
0.0
 10
9.4957751227
 20
7.7439747391
 30
0.0
 10
9.4958061158
 20
7.7440284195
 30
0.0
  0
SPLINE
  5
353
100
AcDbEntity
  8
0
100
AcDbSpline
 62
7
  6
CONTINUOUS
 70
0
 71
3
 72
19
 73
15
 74
0
 42
0.0000001
 43
0.0000001
 44
0.0000000001
 40
0.0
 40
0.0
 40
0.0
 40
0.0
 40
0.0062941697
 40
0.0201510647
 40
0.0422917573
 40
0.0727428887
 40
0.111425909
 40
0.1582233111
 40
0.2129010542
 40
0.2751502962
 40
0.4211070786
 40
0.5934476317
 40
0.7880840668
 40
1.0
 40
1.0
 40
1.0
 40
1.0
 10
9.5753319049
 20
7.8817711268
 30
0.0
 10
9.5753190948
 20
7.8817491413
 30
0.0
 10
9.575369048
 20
7.8816602266
 30
0.0
 10
9.5754798971
 20
7.8815492132
 30
0.0
 10
9.5756867096
 20
7.8813659848
 30
0.0
 10
9.5759757222
 20
7.8811415333
 30
0.0
 10
9.576354198
 20
7.8808630136
 30
0.0
 10
9.5768177199
 20
7.8805378124
 30
0.0
 10
9.5773651781
 20
7.8801655356
 30
0.0
 10
9.5782508552
 20
7.8795782252
 30
0.0
 10
9.5795448532
 20
7.8787459749
 30
0.0
 10
9.5813027443
 20
7.8776460621
 30
0.0
 10
9.5832977084
 20
7.8764224879
 30
0.0
 10
9.5847043703
 20
7.8755724199
 30
0.0
 10
9.5854387261
 20
7.875131208
 30
0.0
  0
SPLINE
  5
354
100
AcDbEntity
  8
0
100
AcDbSpline
 62
9
  6
CONTINUOUS
 70
0
 71
3
 72
19
 73
15
 74
0
 42
0.0000001
 43
0.0000001
 44
0.0000000001
 40
0.0
 40
0.0
 40
0.0
 40
0.0
 40
0.1989657581
 40
0.3871355719
 40
0.5577759793
 40
0.7042414709
 40
0.7665302272
 40
0.821188421
 40
0.868263663
 40
0.9078506471
 40
0.9401358445
 40
0.9655023441
 40
0.9847993905
 40
1.0
 40
1.0
 40
1.0
 40
1.0
 10
11.9612771384
 20
6.3178368074
 30
0.0
 10
11.9620024144
 20
6.3174735018
 30
0.0
 10
11.9634217319
 20
6.3167826721
 30
0.0
 10
11.9654907963
 20
6.3158384103
 30
0.0
 10
11.9673899568
 20
6.3150396795
 30
0.0
 10
11.9688390795
 20
6.3144963684
 30
0.0
 10
11.9698627153
 20
6.3141707754
 30
0.0
 10
11.9705079145
 20
6.3139941544
 30
0.0
 10
11.9710709485
 20
6.3138703161
 30
0.0
 10
11.9715509256
 20
6.3137980344
 30
0.0
 10
11.9719476149
 20
6.3137753984
 30
0.0
 10
11.9722615574
 20
6.3138019294
 30
0.0
 10
11.9724977262
 20
6.3138761105
 30
0.0
 10
11.9726078822
 20
6.3139748603
 30
0.0
 10
11.9726388431
 20
6.3140285451
 30
0.0
  0
SPLINE
  5
355
100
AcDbEntity
  8
0
100
AcDbSpline
 62
9
  6
CONTINUOUS
 70
0
 71
3
 72
19
 73
15
 74
0
 42
0.0000001
 43
0.0000001
 44
0.0000000001
 40
0.0
 40
0.0
 40
0.0
 40
0.0
 40
0.1989637478
 40
0.3871328442
 40
0.5577735347
 40
0.7042400093
 40
0.7665293325
 40
0.8211879969
 40
0.8682636086
 40
0.9078508552
 40
0.940136199
 40
0.9655027163
 40
0.9847996383
 40
1.0
 40
1.0
 40
1.0
 40
1.0
 10
9.5047855886
 20
7.0268044222
 30
0.0
 10
9.5041082901
 20
7.0263579542
 30
0.0
 10
9.5028002963
 20
7.0254741743
 30
0.0
 10
9.5009479206
 20
7.0241543943
 30
0.0
 10
9.4993065306
 20
7.0229089859
 30
0.0
 10
9.4981113775
 20
7.0219256201
 30
0.0
 10
9.497317537
 20
7.021201888
 30
0.0
 10
9.4968419478
 20
7.0207314169
 30
0.0
 10
9.4964531576
 20
7.0203057142
 30
0.0
 10
9.4961505506
 20
7.019926165
 30
0.0
 10
9.4959325869
 20
7.019593925
 30
0.0
 10
9.4957985817
 20
7.0193087653
 30
0.0
 10
9.4957447338
 20
7.0190671371
 30
0.0
 10
9.4957751756
 20
7.0189223582
 30
0.0
 10
9.4958061885
 20
7.0188687012
 30
0.0
  0
SPLINE
  5
356
100
AcDbEntity
  8
0
100
AcDbSpline
 62
7
  6
CONTINUOUS
 70
0
 71
3
 72
20
 73
16
 74
0
 42
0.0000001
 43
0.0000001
 44
0.0000000001
 40
0.0
 40
0.0
 40
0.0
 40
0.0
 40
0.2118742864
 40
0.4064736646
 40
0.5787856989
 40
0.7247196554
 40
0.7869568513
 40
0.8416207745
 40
0.8884017989
 40
0.9270672322
 40
0.9575039383
 40
0.9796376675
 40
0.993498045
 40
0.9974937609
 40
1.0
 40
1.0
 40
1.0
 40
1.0
 10
12.0413609218
 20
6.4572037855
 30
0.0
 10
12.0421098313
 20
6.4567877884
 30
0.0
 10
12.0435490464
 20
6.4559941235
 30
0.0
 10
12.0456064681
 20
6.4548788031
 30
0.0
 10
12.0474383476
 20
6.4539070473
 30
0.0
 10
12.0488060591
 20
6.4532025146
 30
0.0
 10
12.0497575362
 20
6.4527290501
 30
0.0
 10
12.0503534163
 20
6.4524410348
 30
0.0
 10
12.0508672333
 20
6.4522022457
 30
0.0
 10
12.0512961943
 20
6.4520138972
 30
0.0
 10
12.0516387607
 20
6.4518759423
 30
0.0
 10
12.0518922401
 20
6.4517886947
 30
0.0
 10
12.0520510459
 20
6.4517502135
 30
0.0
 10
12.0521333253
 20
6.4517492214
 30
0.0
 10
12.0521594744
 20
6.4517623777
 30
0.0
 10
12.0521645668
 20
6.451771139
 30
0.0
  0
SPLINE
  5
357
100
AcDbEntity
  8
0
100
AcDbSpline
 62
9
  6
CONTINUOUS
 70
0
 71
3
 72
19
 73
15
 74
0
 42
0.0000001
 43
0.0000001
 44
0.0000000001
 40
0.0
 40
0.0
 40
0.0
 40
0.0
 40
0.1989693513
 40
0.38714308
 40
0.5577867349
 40
0.7042538285
 40
0.7665425185
 40
0.8212000531
 40
0.8682740559
 40
0.9078592496
 40
0.9401421721
 40
0.9655060768
 40
0.9848006466
 40
1.0
 40
1.0
 40
1.0
 40
1.0
 10
12.3705990968
 20
7.7360928244
 30
0.0
 10
12.3712764202
 20
7.7365393087
 30
0.0
 10
12.3725844594
 20
7.7374231201
 30
0.0
 10
12.374436893
 20
7.7387429452
 30
0.0
 10
12.3760783199
 20
7.7399883894
 30
0.0
 10
12.3772734868
 20
7.7409717785
 30
0.0
 10
12.3780673223
 20
7.7416955229
 30
0.0
 10
12.3785428984
 20
7.7421659959
 30
0.0
 10
12.3789316693
 20
7.7425916966
 30
0.0
 10
12.379234251
 20
7.7429712397
 30
0.0
 10
12.3794521838
 20
7.74330347
 30
0.0
 10
12.3795861528
 20
7.7435886165
 30
0.0
 10
12.3796399589
 20
7.7438302346
 30
0.0
 10
12.3796094732
 20
7.7439749942
 30
0.0
 10
12.3795784437
 20
7.7440286374
 30
0.0
  0
SPLINE
  5
358
100
AcDbEntity
  8
0
100
AcDbSpline
 62
7
  6
CONTINUOUS
 70
0
 71
3
 72
20
 73
16
 74
0
 42
0.0000001
 43
0.0000001
 44
0.0000000001
 40
0.0
 40
0.0
 40
0.0
 40
0.0
 40
0.2118738234
 40
0.406472631
 40
0.5787822594
 40
0.7247128827
 40
0.7869496138
 40
0.84161477
 40
0.8883993745
 40
0.9270702086
 40
0.9575118278
 40
0.97964755
 40
0.9935047489
 40
0.9974967642
 40
1.0
 40
1.0
 40
1.0
 40
1.0
 10
9.5854385466
 20
6.887766015
 30
0.0
 10
9.5847038225
 20
6.8873254436
 30
0.0
 10
9.5832968754
 20
6.8864758816
 30
0.0
 10
9.5813022754
 20
6.8852517574
 30
0.0
 10
9.5795447887
 20
6.8841511819
 30
0.0
 10
9.5782508062
 20
6.883318983
 30
0.0
 10
9.5773650394
 20
6.8827317159
 30
0.0
 10
9.5768176523
 20
6.8823596665
 30
0.0
 10
9.5763539081
 20
6.8820340609
 30
0.0
 10
9.5759762601
 20
6.8817567164
 30
0.0
 10
9.5756854607
 20
6.8815289981
 30
0.0
 10
9.5754831379
 20
6.881353099
 30
0.0
 10
9.5753704346
 20
6.8812348215
 30
0.0
 10
9.5753284584
 20
6.8811640837
 30
0.0
 10
9.5753268456
 20
6.8811348699
 30
0.0
 10
9.575331912
 20
6.8811261076
 30
0.0
  0
SPLINE
  5
359
100
AcDbEntity
  8
0
100
AcDbSpline
 62
7
  6
CONTINUOUS
 70
0
 71
3
 72
19
 73
15
 74
0
 42
0.0000001
 43
0.0000001
 44
0.0000000001
 40
0.0
 40
0.0
 40
0.0
 40
0.0
 40
0.0062947711
 40
0.0201522049
 40
0.0422931045
 40
0.072744132
 40
0.1114267929
 40
0.1582236603
 40
0.2129008859
 40
0.2751497887
 40
0.4211066697
 40
0.5934480527
 40
0.7880847086
 40
1.0
 40
1.0
 40
1.0
 40
1.0
 10
9.8232201257
 20
6.4517711267
 30
0.0
 10
9.8232327633
 20
6.4517490387
 30
0.0
 10
9.8233347428
 20
6.4517478352
 30
0.0
 10
9.8234863222
 20
6.4517883063
 30
0.0
 10
9.823748415
 20
6.4518757838
 30
0.0
 10
9.8240873032
 20
6.4520138485
 30
0.0
 10
9.824517732
 20
6.4522023819
 30
0.0
 10
9.8250310908
 20
6.4524412663
 30
0.0
 10
9.8256271761
 20
6.4527293221
 30
0.0
 10
9.826578594
 20
6.4532027744
 30
0.0
 10
9.8279463604
 20
6.4539072547
 30
0.0
 10
9.8297781832
 20
6.4548790768
 30
0.0
 10
9.8318355939
 20
6.455994472
 30
0.0
 10
9.8332748875
 20
6.4567880445
 30
0.0
 10
9.8340238752
 20
6.4572039304
 30
0.0
  0
SPLINE
  5
35A
100
AcDbEntity
  8
0
100
AcDbSpline
 62
9
  6
CONTINUOUS
 70
0
 71
3
 72
19
 73
15
 74
0
 42
0.0000001
 43
0.0000001
 44
0.0000000001
 40
0.0
 40
0.0
 40
0.0
 40
0.0
 40
0.1989220531
 40
0.3870592098
 40
0.5576815391
 40
0.7041469032
 40
0.7664419862
 40
0.821109271
 40
0.8681962598
 40
0.9077974158
 40
0.9400987098
 40
0.9654820649
 40
0.9847937884
 40
1.0
 40
1.0
 40
1.0
 40
1.0
 10
9.9141095204
 20
6.3178377961
 30
0.0
 10
9.9133843206
 20
6.3174745091
 30
0.0
 10
9.9119651208
 20
6.316783697
 30
0.0
 10
9.9098961744
 20
6.3158394175
 30
0.0
 10
9.9079969992
 20
6.3150405907
 30
0.0
 10
9.9065477759
 20
6.3144971365
 30
0.0
 10
9.9055239874
 20
6.3141713748
 30
0.0
 10
9.9048786245
 20
6.3139946153
 30
0.0
 10
9.9043154036
 20
6.3138706292
 30
0.0
 10
9.9038352155
 20
6.3137981919
 30
0.0
 10
9.9034382966
 20
6.3137753926
 30
0.0
 10
9.9031241059
 20
6.313801753
 30
0.0
 10
9.9028877048
 20
6.3138757312
 30
0.0
 10
9.9027772795
 20
6.3139743093
 30
0.0
 10
9.9027461852
 20
6.3140279522
 30
0.0
  0
SPLINE
  5
35B
100
AcDbEntity
  8
0
100
AcDbSpline
 62
7
  6
CONTINUOUS
 70
0
 71
3
 72
20
 73
16
 74
0
 42
0.0000001
 43
0.0000001
 44
0.0000000001
 40
0.0
 40
0.0
 40
0.0
 40
0.0
 40
0.210055038
 40
0.4030933446
 40
0.57417398
 40
0.7193143798
 40
0.7813365469
 40
0.8359148887
 40
0.8827536906
 40
0.9216545315
 40
0.9525567956
 40
0.9754946694
 40
0.9840641852
 40
0.9908223256
 40
1.0
 40
1.0
 40
1.0
 40
1.0
 10
12.0525822738
 20
8.2861998213
 30
0.0
 10
12.0533352654
 20
8.2866122592
 30
0.0
 10
12.054785215
 20
8.2873947081
 30
0.0
 10
12.0568666801
 20
8.2884788761
 30
0.0
 10
12.058730349
 20
8.2894061318
 30
0.0
 10
12.0601309945
 20
8.2900611059
 30
0.0
 10
12.0611115581
 20
8.2904889918
 30
0.0
 10
12.0617292754
 20
8.2907434604
 30
0.0
 10
12.0622652842
 20
8.2909476865
 30
0.0
 10
12.0627167364
 20
8.2911013808
 30
0.0
 10
12.0630820454
 20
8.2912035652
 30
0.0
 10
12.0633328071
 20
8.2912523893
 30
0.0
 10
12.0634902098
 20
8.2912593536
 30
0.0
 10
12.0635883804
 20
8.2912513995
 30
0.0
 10
12.0636564712
 20
8.2912208988
 30
0.0
 10
12.0636751012
 20
8.2911883407
 30
0.0
  0
SPLINE
  5
35C
100
AcDbEntity
  8
0
100
AcDbSpline
 62
7
  6
CONTINUOUS
 70
0
 71
3
 72
27
 73
23
 74
0
 42
0.0000001
 43
0.0000001
 44
0.0000000001
 40
0.0
 40
0.0
 40
0.0
 40
0.0
 40
0.0312490479
 40
0.0625070292
 40
0.0937581204
 40
0.1250064558
 40
0.1875055303
 40
0.2500045444
 40
0.3125032838
 40
0.3750022218
 40
0.4375010465
 40
0.4999998862
 40
0.5624987511
 40
0.6249976056
 40
0.6874965971
 40
0.7499953422
 40
0.812494435
 40
0.8749935013
 40
0.906241847
 40
0.937492966
 40
0.9687509494
 40
1.0
 40
1.0
 40
1.0
 40
1.0
 10
12.2786793693
 20
7.8945801747
 30
0.0
 10
12.2769852783
 20
7.8989827701
 30
0.0
 10
12.2733682815
 20
7.9077018146
 30
0.0
 10
12.2675057849
 20
7.920585236
 30
0.0
 10
12.2614088918
 20
7.9333588331
 30
0.0
 10
12.2530263016
 20
7.9502647132
 30
0.0
 10
12.2422063068
 20
7.9712247221
 30
0.0
 10
12.2288651565
 20
7.9961880538
 30
0.0
 10
12.2152685763
 20
8.0210129637
 30
0.0
 10
12.201477194
 20
8.0457299584
 30
0.0
 10
12.1875280637
 20
8.0703582208
 30
0.0
 10
12.1734419106
 20
8.0949083254
 30
0.0
 10
12.1592241993
 20
8.1193824822
 30
0.0
 10
12.1448697648
 20
8.1437767575
 30
0.0
 10
12.130360148
 20
8.168079099
 30
0.0
 10
12.1156594202
 20
8.1922665533
 30
0.0
 10
12.1007111778
 20
8.2163020471
 30
0.0
 10
12.0879692056
 20
8.23615241
 30
0.0
 10
12.0775198024
 20
8.2518650393
 30
0.0
 10
12.0695060565
 20
8.2635319574
 30
0.0
 10
12.061279671
 20
8.2750505616
 30
0.0
 10
12.0555370908
 20
8.2825423627
 30
0.0
 10
12.0525714148
 20
8.2862108175
 30
0.0
  0
SPLINE
  5
35D
100
AcDbEntity
  8
0
100
AcDbSpline
 62
7
  6
CONTINUOUS
 70
0
 71
3
 72
22
 73
18
 74
0
 42
0.0000001
 43
0.0000001
 44
0.0000000001
 40
0.0
 40
0.0
 40
0.0
 40
0.0
 40
0.0291302848
 40
0.0441722272
 40
0.0593805882
 40
0.0901011046
 40
0.1210910693
 40
0.1522240757
 40
0.1834438598
 40
0.246025815
 40
0.3087248737
 40
0.3714875192
 40
0.4971074591
 40
0.6227979832
 40
0.7485205124
 40
0.8742575273
 40
1.0
 40
1.0
 40
1.0
 40
1.0
 10
9.8340238752
 20
6.4572039304
 30
0.0
 10
9.8342308218
 20
6.4573189241
 30
0.0
 10
9.8346024106
 20
6.4573930587
 30
0.0
 10
9.8350824584
 20
6.4573459376
 30
0.0
 10
9.8355669032
 20
6.457234878
 30
0.0
 10
9.8361519291
 20
6.4570077398
 30
0.0
 10
9.8368226078
 20
6.4566604499
 30
0.0
 10
9.8374700768
 20
6.4562641712
 30
0.0
 10
9.8383085386
 20
6.4556909861
 30
0.0
 10
9.8393175593
 20
6.45491516
 30
0.0
 10
9.8404847188
 20
6.4539280944
 30
0.0
 10
9.8419987832
 20
6.4525595809
 30
0.0
 10
9.8438295471
 20
6.4507798131
 30
0.0
 10
9.84596102
 20
6.4485779843
 30
0.0
 10
9.8480450639
 20
6.4463300137
 30
0.0
 10
9.850092681
 20
6.4440483705
 30
0.0
 10
9.8514383333
 20
6.4425099547
 30
0.0
 10
9.8521071769
 20
6.4417372864
 30
0.0
  0
SPLINE
  5
35E
100
AcDbEntity
  8
0
100
AcDbSpline
 62
7
  6
CONTINUOUS
 70
0
 71
3
 72
22
 73
18
 74
0
 42
0.0000001
 43
0.0000001
 44
0.0000000001
 40
0.0
 40
0.0
 40
0.0
 40
0.0
 40
0.1257428295
 40
0.2514801996
 40
0.3772030851
 40
0.5028939629
 40
0.6285142579
 40
0.6912770856
 40
0.7539763229
 40
0.8165584845
 40
0.8477783364
 40
0.8789116067
 40
0.9099013007
 40
0.9406232178
 40
0.9558300957
 40
0.9708705024
 40
1.0
 40
1.0
 40
1.0
 40
1.0
 10
10.6666710357
 20
5.9714486233
 30
0.0
 10
10.6676746172
 20
5.9712557224
 30
0.0
 10
10.6696797672
 20
5.9708595536
 30
0.0
 10
10.6726795632
 20
5.9702270827
 30
0.0
 10
10.6756684107
 20
5.9695462255
 30
0.0
 10
10.6786410122
 20
5.9688012213
 30
0.0
 10
10.6810977388
 20
5.9681056074
 30
0.0
 10
10.683039954
 20
5.9674786358
 30
0.0
 10
10.6844783685
 20
5.9669613686
 30
0.0
 10
10.6856547714
 20
5.966475432
 30
0.0
 10
10.6865704
 20
5.966035882
 30
0.0
 10
10.6872373224
 20
5.9656732858
 30
0.0
 10
10.687873424
 20
5.9652660805
 30
0.0
 10
10.688362645
 20
5.9648729938
 30
0.0
 10
10.6887009917
 20
5.9645089473
 30
0.0
 10
10.6889818137
 20
5.9641167949
 30
0.0
 10
10.6891032744
 20
5.9637578912
 30
0.0
 10
10.6891071239
 20
5.9635211777
 30
0.0
  0
SPLINE
  5
35F
100
AcDbEntity
  8
0
100
AcDbSpline
 62
7
  6
CONTINUOUS
 70
0
 71
3
 72
19
 73
15
 74
0
 42
0.0000001
 43
0.0000001
 44
0.0000000001
 40
0.0
 40
0.0
 40
0.0
 40
0.0
 40
0.0062953893
 40
0.0201533765
 40
0.0422941704
 40
0.0727446349
 40
0.1114265741
 40
0.1582228714
 40
0.2128998103
 40
0.2751486841
 40
0.4211060308
 40
0.5934479841
 40
0.7880848065
 40
1.0
 40
1.0
 40
1.0
 40
1.0
 10
12.3000527809
 20
6.8811261203
 30
0.0
 10
12.3000655816
 20
6.881148117
 30
0.0
 10
12.3000156164
 20
6.8812370193
 30
0.0
 10
12.2999047895
 20
6.8813480777
 30
0.0
 10
12.2996979888
 20
6.8815313188
 30
0.0
 10
12.2994089904
 20
6.8817557807
 30
0.0
 10
12.299030508
 20
6.8820342725
 30
0.0
 10
12.2985669463
 20
6.8823593973
 30
0.0
 10
12.2980194298
 20
6.8827315726
 30
0.0
 10
12.2971336836
 20
6.8833187753
 30
0.0
 10
12.2958397032
 20
6.8841510618
 30
0.0
 10
12.294082267
 20
6.885251719
 30
0.0
 10
12.292087684
 20
6.8864759305
 30
0.0
 10
12.2906807142
 20
6.8873254956
 30
0.0
 10
12.2899459649
 20
6.8877660474
 30
0.0
  0
SPLINE
  5
360
100
AcDbEntity
  8
0
100
AcDbSpline
 62
9
  6
CONTINUOUS
 70
0
 71
3
 72
19
 73
15
 74
0
 42
0.0000001
 43
0.0000001
 44
0.0000000001
 40
0.0
 40
0.0
 40
0.0
 40
0.0
 40
0.1989219927
 40
0.3870591045
 40
0.5576814091
 40
0.7041467731
 40
0.7664418648
 40
0.8211091623
 40
0.8681961672
 40
0.9077973428
 40
0.940098659
 40
0.9654820372
 40
0.9847937808
 40
1.0
 40
1.0
 40
1.0
 40
1.0
 10
12.3705977473
 20
7.0268053116
 30
0.0
 10
12.3712749629
 20
7.0263589137
 30
0.0
 10
12.3725828236
 20
7.0254752568
 30
0.0
 10
12.3744350668
 20
7.0241556366
 30
0.0
 10
12.3760764588
 20
7.022910316
 30
0.0
 10
12.3772717159
 20
7.0219269789
 30
0.0
 10
12.3780657283
 20
7.0212032328
 30
0.0
 10
12.3785414883
 20
7.0207327118
 30
0.0
 10
12.3789304742
 20
7.0203069411
 30
0.0
 10
12.3792333011
 20
7.0199273046
 30
0.0
 10
12.3794515057
 20
7.0195949621
 30
0.0
 10
12.3795857726
 20
7.0193096846
 30
0.0
 10
12.3796399065
 20
7.0190679661
 30
0.0
 10
12.3796097485
 20
7.0189230457
 30
0.0
 10
12.3795788396
 20
7.0188692956
 30
0.0
  0
SPLINE
  5
361
100
AcDbEntity
  8
0
100
AcDbSpline
 62
7
  6
CONTINUOUS
 70
0
 71
3
 72
20
 73
16
 74
0
 42
0.0000001
 43
0.0000001
 44
0.0000000001
 40
0.0
 40
0.0
 40
0.0
 40
0.0
 40
0.2118738139
 40
0.406472605
 40
0.5787822044
 40
0.7247128004
 40
0.786949527
 40
0.8416146888
 40
0.8883993112
 40
0.9270701723
 40
0.9575118172
 40
0.9796475531
 40
0.9935047469
 40
0.9974967561
 40
1.0
 40
1.0
 40
1.0
 40
1.0
 10
10.6891071239
 20
5.9635211777
 30
0.0
 10
10.6891213109
 20
5.9626646024
 30
0.0
 10
10.6891535816
 20
5.9610213698
 30
0.0
 10
10.6892164002
 20
5.9586819336
 30
0.0
 10
10.689290779
 20
5.956609618
 30
0.0
 10
10.6893644929
 20
5.9550728971
 30
0.0
 10
10.6894301985
 20
5.9540121672
 30
0.0
 10
10.68947871
 20
5.9533520913
 30
0.0
 10
10.6895288212
 20
5.9527876742
 30
0.0
 10
10.6895801851
 20
5.952321949
 30
0.0
 10
10.6896319956
 20
5.95195625
 30
0.0
 10
10.6896831676
 20
5.9516930836
 30
0.0
 10
10.6897292476
 20
5.951536341
 30
0.0
 10
10.6897695206
 20
5.9514646198
 30
0.0
 10
10.6897940144
 20
5.9514486166
 30
0.0
 10
10.689804136
 20
5.9514486233
 30
0.0
  0
SPLINE
  5
362
100
AcDbEntity
  8
0
100
AcDbSpline
 62
7
  6
CONTINUOUS
 70
0
 71
3
 72
22
 73
18
 74
0
 42
0.0000001
 43
0.0000001
 44
0.0000000001
 40
0.0
 40
0.0
 40
0.0
 40
0.0
 40
0.0291302305
 40
0.044172196
 40
0.059380569
 40
0.0901010769
 40
0.1210910409
 40
0.1522240452
 40
0.1834438327
 40
0.2460257927
 40
0.3087248538
 40
0.3714875008
 40
0.4971074432
 40
0.6227979708
 40
0.7485205038
 40
0.8742575224
 40
1.0
 40
1.0
 40
1.0
 40
1.0
 10
12.2899459649
 20
6.8877660474
 30
0.0
 10
12.2897429045
 20
6.8878877712
 30
0.0
 10
12.2894928995
 20
6.8881725014
 30
0.0
 10
12.2892936873
 20
6.8886117979
 30
0.0
 10
12.2891476453
 20
6.8890868691
 30
0.0
 10
12.2890518395
 20
6.8897070855
 30
0.0
 10
12.2890172624
 20
6.8904615551
 30
0.0
 10
12.2890367151
 20
6.8912204189
 30
0.0
 10
12.2891138772
 20
6.8922331406
 30
0.0
 10
12.2892812518
 20
6.8934948911
 30
0.0
 10
12.289552496
 20
6.8949992136
 30
0.0
 10
12.2899806312
 20
6.8969946884
 30
0.0
 10
12.2906065733
 20
6.8994700601
 30
0.0
 10
12.2914476766
 20
6.9024168838
 30
0.0
 10
12.2923524534
 20
6.905345704
 30
0.0
 10
12.2933046082
 20
6.9082598129
 30
0.0
 10
12.2939640844
 20
6.9101943914
 30
0.0
 10
12.2942988156
 20
6.9111599601
 30
0.0
  0
SPLINE
  5
363
100
AcDbEntity
  8
0
100
AcDbSpline
 62
7
  6
CONTINUOUS
 70
0
 71
3
 72
20
 73
16
 74
0
 42
0.0000001
 43
0.0000001
 44
0.0000000001
 40
0.0
 40
0.0
 40
0.0
 40
0.0
 40
0.2100077469
 40
0.4030095438
 40
0.5740669812
 40
0.719201109
 40
0.7812265384
 40
0.8358123557
 40
0.8826629184
 40
0.9215801555
 40
0.9525029131
 40
0.9754641034
 40
0.9840453621
 40
0.9908141262
 40
1.0
 40
1.0
 40
1.0
 40
1.0
 10
12.2786744037
 20
7.8945938945
 30
0.0
 10
12.2794077623
 20
7.8950400806
 30
0.0
 10
12.2808097973
 20
7.8959050751
 30
0.0
 10
12.2827888057
 20
7.8971661597
 30
0.0
 10
12.2845233581
 20
7.898316815
 30
0.0
 10
12.2857909205
 20
7.8992023411
 30
0.0
 10
12.2866519259
 20
7.8998375554
 30
0.0
 10
12.2871813546
 20
7.9002452728
 30
0.0
 10
12.2876264617
 20
7.9006073747
 30
0.0
 10
12.2879855599
 20
7.9009215506
 30
0.0
 10
12.2882570229
 20
7.9011869071
 30
0.0
 10
12.2884249626
 20
7.901379737
 30
0.0
 10
12.2885099779
 20
7.9015126301
 30
0.0
 10
12.2885523708
 20
7.9016016662
 30
0.0
 10
12.2885603415
 20
7.9016759048
 30
0.0
 10
12.2885415961
 20
7.901708439
 30
0.0
  0
SPLINE
  5
364
100
AcDbEntity
  8
0
100
AcDbSpline
 62
9
  6
CONTINUOUS
 70
0
 71
3
 72
19
 73
15
 74
0
 42
0.0000001
 43
0.0000001
 44
0.0000000001
 40
0.0
 40
0.0
 40
0.0
 40
0.0
 40
0.1989637379
 40
0.3871328261
 40
0.5577735113
 40
0.704239985
 40
0.7665293094
 40
0.8211879757
 40
0.8682635902
 40
0.9078508405
 40
0.9401361885
 40
0.9655027104
 40
0.9847996365
 40
1.0
 40
1.0
 40
1.0
 40
1.0
 10
10.5283698531
 20
5.9631928724
 30
0.0
 10
10.5284178565
 20
5.9623830808
 30
0.0
 10
10.5285292354
 20
5.9608084351
 30
0.0
 10
10.5287460105
 20
5.9585443407
 30
0.0
 10
10.5290038708
 20
5.9565001512
 30
0.0
 10
10.529257914
 20
5.9549734354
 30
0.0
 10
10.5294877642
 20
5.9539240833
 30
0.0
 10
10.5296574094
 20
5.9532769754
 30
0.0
 10
10.5298316837
 20
5.9527274218
 30
0.0
 10
10.5300090794
 20
5.9522755818
 30
0.0
 10
10.5301878258
 20
5.9519206997
 30
0.0
 10
10.5303677788
 20
5.9516620679
 30
0.0
 10
10.530550111
 20
5.9514946201
 30
0.0
 10
10.5306907141
 20
5.9514485938
 30
0.0
 10
10.5307526889
 20
5.9514486233
 30
0.0
  0
SPLINE
  5
365
100
AcDbEntity
  8
0
100
AcDbSpline
 62
7
  6
CONTINUOUS
 70
0
 71
3
 72
19
 73
15
 74
0
 42
0.0000001
 43
0.0000001
 44
0.0000000001
 40
0.0
 40
0.0
 40
0.0
 40
0.0
 40
0.0062947084
 40
0.0201520853
 40
0.0422929944
 40
0.0727440782
 40
0.1114268125
 40
0.1582237397
 40
0.212900997
 40
0.2751499047
 40
0.4211067379
 40
0.5934480571
 40
0.788084694
 40
1.0
 40
1.0
 40
1.0
 40
1.0
 10
11.1855805635
 20
5.9514486233
 30
0.0
 10
11.1856060108
 20
5.9514485225
 30
0.0
 10
11.1856580451
 20
5.9515362369
 30
0.0
 10
11.1856987832
 20
5.951687744
 30
0.0
 10
11.1857540715
 20
5.951958462
 30
0.0
 10
11.1858039468
 20
5.9523209808
 30
0.0
 10
11.1858558868
 20
5.9527880105
 30
0.0
 10
11.1859056882
 20
5.9533520349
 30
0.0
 10
11.1859542704
 20
5.954012288
 30
0.0
 10
11.1860199611
 20
5.9550729659
 30
0.0
 10
11.1860937457
 20
5.9566097262
 30
0.0
 10
11.1861680104
 20
5.9586820427
 30
0.0
 10
11.1862307345
 20
5.9610215103
 30
0.0
 10
11.1862631438
 20
5.9626647609
 30
0.0
 10
11.1862774913
 20
5.9635213458
 30
0.0
  0
SPLINE
  5
366
100
AcDbEntity
  8
0
100
AcDbSpline
 62
9
  6
CONTINUOUS
 70
0
 71
3
 72
19
 73
15
 74
0
 42
0.0000001
 43
0.0000001
 44
0.0000000001
 40
0.0
 40
0.0
 40
0.0
 40
0.0
 40
0.198922029
 40
0.3870591675
 40
0.5576814866
 40
0.7041468506
 40
0.7664419371
 40
0.821109227
 40
0.8681962223
 40
0.9077973861
 40
0.9400986891
 40
0.9654820536
 40
0.9847937853
 40
1.0
 40
1.0
 40
1.0
 40
1.0
 10
11.3470149278
 20
5.9631944838
 30
0.0
 10
11.3469669436
 20
5.9623847989
 30
0.0
 10
11.3468556045
 20
5.9608103298
 30
0.0
 10
11.3466389015
 20
5.95854643
 30
0.0
 10
11.3463811182
 20
5.9565022826
 30
0.0
 10
11.3461271517
 20
5.9549754913
 30
0.0
 10
11.3458973754
 20
5.9539259834
 30
0.0
 10
11.3457277722
 20
5.9532787029
 30
0.0
 10
11.3455535368
 20
5.9527289461
 30
0.0
 10
11.3453761754
 20
5.9522768723
 30
0.0
 10
11.3451974607
 20
5.9519217306
 30
0.0
 10
11.3450175366
 20
5.9516628135
 30
0.0
 10
11.3448352691
 20
5.9514950731
 30
0.0
 10
11.3446946853
 20
5.9514487308
 30
0.0
 10
11.344632682
 20
5.9514486237
 30
0.0
  0
SPLINE
  5
367
100
AcDbEntity
  8
0
100
AcDbSpline
 62
7
  6
CONTINUOUS
 70
0
 71
3
 72
20
 73
16
 74
0
 42
0.0000001
 43
0.0000001
 44
0.0000000001
 40
0.0
 40
0.0
 40
0.0
 40
0.0
 40
0.2118738144
 40
0.4064726035
 40
0.5787821992
 40
0.724712795
 40
0.7869495232
 40
0.8416146875
 40
0.8883993126
 40
0.9270701756
 40
0.9575118211
 40
0.9796475562
 40
0.9935047477
 40
0.9974967558
 40
1.0
 40
1.0
 40
1.0
 40
1.0
 10
9.8340237647
 20
8.3056934603
 30
0.0
 10
9.8332748538
 20
8.3061094592
 30
0.0
 10
9.8318356361
 20
8.3069031264
 30
0.0
 10
9.8297782166
 20
8.3080184443
 30
0.0
 10
9.8279463506
 20
8.308990191
 30
0.0
 10
9.8265786542
 20
8.3096947135
 30
0.0
 10
9.8256271821
 20
8.3101681754
 30
0.0
 10
9.8250312837
 20
8.3104562009
 30
0.0
 10
9.8245174283
 20
8.3106950115
 30
0.0
 10
9.8240884163
 20
8.3108833917
 30
0.0
 10
9.8237458065
 20
8.311021372
 30
0.0
 10
9.8234923117
 20
8.311108639
 30
0.0
 10
9.8233335287
 20
8.311147104
 30
0.0
 10
9.8232512798
 20
8.3111480872
 30
0.0
 10
9.8232251737
 20
8.3111348765
 30
0.0
 10
9.8232201187
 20
8.3111261076
 30
0.0
  0
SPLINE
  5
368
100
AcDbEntity
  8
0
100
AcDbSpline
 62
7
  6
CONTINUOUS
 70
0
 71
3
 72
22
 73
18
 74
0
 42
0.0000001
 43
0.0000001
 44
0.0000000001
 40
0.0
 40
0.0
 40
0.0
 40
0.0
 40
0.0291301927
 40
0.0441721867
 40
0.0593805639
 40
0.0901010751
 40
0.1210910324
 40
0.1522240384
 40
0.183443825
 40
0.2460257856
 40
0.3087248472
 40
0.3714874947
 40
0.4971074385
 40
0.6227979674
 40
0.7485205016
 40
0.8742575217
 40
1.0
 40
1.0
 40
1.0
 40
1.0
 10
11.1862774913
 20
5.9635213458
 30
0.0
 10
11.186281377
 20
5.963758063
 30
0.0
 10
11.1864029721
 20
5.9641169342
 30
0.0
 10
11.1866838022
 20
5.9645091079
 30
0.0
 10
11.1870222046
 20
5.964873121
 30
0.0
 10
11.1875114258
 20
5.9652661983
 30
0.0
 10
11.1881475263
 20
5.9656733789
 30
0.0
 10
11.1888144482
 20
5.966035964
 30
0.0
 10
11.1897300719
 20
5.9664755009
 30
0.0
 10
11.1909064674
 20
5.9669614256
 30
0.0
 10
11.1923448711
 20
5.9674786826
 30
0.0
 10
11.1942870707
 20
5.9681056442
 30
0.0
 10
11.1967437768
 20
5.9688012484
 30
0.0
 10
11.199716353
 20
5.9695462437
 30
0.0
 10
11.2027051746
 20
5.9702270937
 30
0.0
 10
11.2057049444
 20
5.9708595596
 30
0.0
 10
11.2077100774
 20
5.9712557226
 30
0.0
 10
11.2087136497
 20
5.9714486233
 30
0.0
  0
SPLINE
  5
369
100
AcDbEntity
  8
0
100
AcDbSpline
 62
7
  6
CONTINUOUS
 70
0
 71
3
 72
22
 73
18
 74
0
 42
0.0000001
 43
0.0000001
 44
0.0000000001
 40
0.0
 40
0.0
 40
0.0
 40
0.0
 40
0.1257428311
 40
0.2514802035
 40
0.3772030913
 40
0.5028939714
 40
0.6285142687
 40
0.6912770974
 40
0.7539763359
 40
0.8165584987
 40
0.8477783514
 40
0.8789116225
 40
0.9099013174
 40
0.9406232337
 40
0.9558301078
 40
0.9708705161
 40
1.0
 40
1.0
 40
1.0
 40
1.0
 10
12.0232775086
 20
6.4417372864
 30
0.0
 10
12.0239463576
 20
6.4425099619
 30
0.0
 10
12.0252920229
 20
6.4440483901
 30
0.0
 10
12.0273396579
 20
6.4463300533
 30
0.0
 10
12.0294237209
 20
6.4485780428
 30
0.0
 10
12.0315552143
 20
6.4507798891
 30
0.0
 10
12.0333859969
 20
6.4525596697
 30
0.0
 10
12.0349000778
 20
6.4539281917
 30
0.0
 10
12.0360672516
 20
6.4549152616
 30
0.0
 10
12.0370762866
 20
6.455691088
 30
0.0
 10
12.0379147624
 20
6.4562642707
 30
0.0
 10
12.0385622411
 20
6.4566605443
 30
0.0
 10
12.0392329421
 20
6.4570078217
 30
0.0
 10
12.0398179756
 20
6.4572349562
 30
0.0
 10
12.0403024225
 20
6.4573459495
 30
0.0
 10
12.0407824473
 20
6.4573930722
 30
0.0
 10
12.0411539973
 20
6.4573188085
 30
0.0
 10
12.0413609218
 20
6.4572037855
 30
0.0
  0
SPLINE
  5
36A
100
AcDbEntity
  8
0
100
AcDbSpline
 62
9
  6
CONTINUOUS
 70
0
 71
3
 72
19
 73
15
 74
0
 42
0.0000001
 43
0.0000001
 44
0.0000000001
 40
0.0
 40
0.0
 40
0.0
 40
0.0
 40
0.19894574
 40
0.3871046886
 40
0.5577427017
 40
0.7042135077
 40
0.7665067116
 40
0.8211693776
 40
0.8682490844
 40
0.9078404586
 40
0.9401298326
 40
0.9654999942
 40
0.9847995029
 40
1.0
 40
1.0
 40
1.0
 40
1.0
 10
11.9612739236
 20
8.4450588286
 30
0.0
 10
11.9619993188
 20
8.4454222253
 30
0.0
 10
11.9634189008
 20
8.4461132417
 30
0.0
 10
11.9654883937
 20
8.4470577836
 30
0.0
 10
11.9673880298
 20
8.4478567999
 30
0.0
 10
11.9688375621
 20
8.4484003466
 30
0.0
 10
11.9698615201
 20
8.4487261183
 30
0.0
 10
11.9705069406
 20
8.4489028525
 30
0.0
 10
11.9710701752
 20
8.4490267881
 30
0.0
 10
11.9715503322
 20
8.4490991511
 30
0.0
 10
11.9719471792
 20
8.4491218539
 30
0.0
 10
11.9722612571
 20
8.4490953752
 30
0.0
 10
11.9724975344
 20
8.4490212406
 30
0.0
 10
11.9726077761
 20
8.4489225122
 30
0.0
 10
11.9726387705
 20
8.4488688272
 30
0.0
  0
SPLINE
  5
36B
100
AcDbEntity
  8
0
100
AcDbSpline
 62
9
  6
CONTINUOUS
 70
0
 71
3
 72
19
 73
15
 74
0
 42
0.0000001
 43
0.0000001
 44
0.0000000001
 40
0.0
 40
0.0
 40
0.0
 40
0.0
 40
0.1989637467
 40
0.3871328421
 40
0.5577735319
 40
0.7042400064
 40
0.7665293298
 40
0.8211879944
 40
0.8682636064
 40
0.9078508534
 40
0.9401361978
 40
0.9655027156
 40
0.9847996381
 40
1.0
 40
1.0
 40
1.0
 40
1.0
 10
9.9141080782
 20
8.445060173
 30
0.0
 10
9.9133827764
 20
8.4454234967
 30
0.0
 10
9.9119634036
 20
8.4461143626
 30
0.0
 10
9.9098942528
 20
8.4470586771
 30
0.0
 10
9.9079950025
 20
8.4478574583
 30
0.0
 10
9.9065458062
 20
8.4484008084
 30
0.0
 10
9.9055221155
 20
8.4487264283
 30
0.0
 10
9.904876881
 20
8.4489030652
 30
0.0
 10
9.9043138165
 20
8.4490269159
 30
0.0
 10
9.9038338138
 20
8.4490992068
 30
0.0
 10
9.9034371037
 20
8.4491218488
 30
0.0
 10
9.9031231455
 20
8.4490953209
 30
0.0
 10
9.9028869655
 20
8.4490211405
 30
0.0
 10
9.902776804
 20
8.4489223877
 30
0.0
 10
9.9027458422
 20
8.4488687012
 30
0.0
  0
SPLINE
  5
36C
100
AcDbEntity
  8
0
100
AcDbSpline
 62
7
  6
CONTINUOUS
 70
0
 71
3
 72
15
 73
11
 74
0
 42
0.0000001
 43
0.0000001
 44
0.0000000001
 40
0.0
 40
0.0
 40
0.0
 40
0.0
 40
0.1251100956
 40
0.2503341035
 40
0.3753793365
 40
0.5003834568
 40
0.6253320859
 40
0.7502317913
 40
0.8752178983
 40
1.0
 40
1.0
 40
1.0
 40
1.0
 10
10.734792848
 20
10.3929267369
 30
0.0
 10
10.7326092394
 20
10.3934235847
 30
0.0
 10
10.72831563
 20
10.3947896523
 30
0.0
 10
10.7223139675
 20
10.397877032
 30
0.0
 10
10.7169149817
 20
10.4019277496
 30
0.0
 10
10.7122757256
 20
10.4068223442
 30
0.0
 10
10.7085202053
 20
10.4124206729
 30
0.0
 10
10.705758622
 20
10.4185710824
 30
0.0
 10
10.7040740246
 20
10.4250937478
 30
0.0
 10
10.7036929199
 20
10.4295733392
 30
0.0
 10
10.7036929201
 20
10.4318068887
 30
0.0
  0
SPLINE
  5
36D
100
AcDbEntity
  8
0
100
AcDbSpline
 62
7
  6
CONTINUOUS
 70
0
 71
3
 72
15
 73
11
 74
0
 42
0.0000001
 43
0.0000001
 44
0.0000000001
 40
0.0
 40
0.0
 40
0.0
 40
0.0
 40
0.1251100834
 40
0.2503340435
 40
0.3753792842
 40
0.5003834165
 40
0.625332045
 40
0.7502317586
 40
0.8752178799
 40
1.0
 40
1.0
 40
1.0
 40
1.0
 10
11.1405922635
 20
10.3929267177
 30
0.0
 10
11.1427758803
 20
10.3934235637
 30
0.0
 10
11.1470695074
 20
10.3947896236
 30
0.0
 10
11.1530711981
 20
10.397876999
 30
0.0
 10
11.1584702093
 20
10.4019277215
 30
0.0
 10
11.1631094894
 20
10.4068223266
 30
0.0
 10
11.1668650297
 20
10.4124206709
 30
0.0
 10
11.1696266283
 20
10.4185711
 30
0.0
 10
11.1713112353
 20
10.4250937882
 30
0.0
 10
11.1716923427
 20
10.429573396
 30
0.0
 10
11.1716923427
 20
10.4318069536
 30
0.0
  0
SPLINE
  5
36E
100
AcDbEntity
  8
0
100
AcDbSpline
 62
9
  6
CONTINUOUS
 70
0
 71
3
 72
11
 73
7
 74
0
 42
0.0000001
 43
0.0000001
 44
0.0000000001
 40
0.0
 40
0.0
 40
0.0
 40
0.0
 40
0.2486547137
 40
0.4998786665
 40
0.7512170548
 40
1.0
 40
1.0
 40
1.0
 40
1.0
 10
11.0856644697
 20
13.5476871654
 30
0.0
 10
11.1094371396
 20
13.5347519384
 30
0.0
 10
11.1570945895
 20
13.5085011268
 30
0.0
 10
11.2282098695
 20
13.4681483995
 30
0.0
 10
11.298753447
 20
13.4267766156
 30
0.0
 10
11.3453499652
 20
13.3986344618
 30
0.0
 10
11.3684565449
 20
13.3845170412
 30
0.0
  0
LINE
  5
36F
100
AcDbEntity
  8
0
100
AcDbLine
 62
9
  6
CONTINUOUS
 10
11.3684565449
 20
13.3845170412
 11
11.3714037494
 21
13.3827155154
  0
SPLINE
  5
370
100
AcDbEntity
  8
0
100
AcDbSpline
 62
9
  6
CONTINUOUS
 70
0
 71
3
 72
11
 73
7
 74
0
 42
0.0000001
 43
0.0000001
 44
0.0000000001
 40
0.0
 40
0.0
 40
0.0
 40
0.0
 40
0.2487354157
 40
0.5000003239
 40
0.7512653276
 40
1.0
 40
1.0
 40
1.0
 40
1.0
 10
11.5193758764
 20
13.1264202733
 30
0.0
 10
11.5200674015
 20
13.0990698414
 30
0.0
 10
11.5211778776
 20
13.044083054
 30
0.0
 10
11.5217670181
 20
12.9614485058
 30
0.0
 10
11.5211780554
 20
12.878814036
 30
0.0
 10
11.5200673899
 20
12.8238273236
 30
0.0
 10
11.5193758764
 20
12.7964769732
 30
0.0
  0
SPLINE
  5
371
100
AcDbEntity
  8
0
100
AcDbSpline
 62
9
  6
CONTINUOUS
 70
0
 71
3
 72
25
 73
21
 74
0
 42
0.0000001
 43
0.0000001
 44
0.0000000001
 40
0.0
 40
0.0
 40
0.0
 40
0.0
 40
0.0049706565
 40
0.0105252148
 40
0.0173119586
 40
0.0256916948
 40
0.0358517282
 40
0.047892175
 40
0.06186903
 40
0.0778146105
 40
0.1156505611
 40
0.1613513508
 40
0.2147719447
 40
0.2757372799
 40
0.3440402722
 40
0.4193974815
 40
0.5015021514
 40
0.5900436967
 40
0.7848980837
 40
1.0
 40
1.0
 40
1.0
 40
1.0
 10
10.7347922602
 20
10.3929267545
 30
0.0
 10
10.7347915321
 20
10.3929969437
 30
0.0
 10
10.7348243433
 20
10.3931476372
 30
0.0
 10
10.7349719969
 20
10.3933484933
 30
0.0
 10
10.7352049094
 20
10.3935292558
 30
0.0
 10
10.7355228257
 20
10.3936957061
 30
0.0
 10
10.7359270963
 20
10.3938494429
 30
0.0
 10
10.7364185
 20
10.393990683
 30
0.0
 10
10.7369972473
 20
10.3941192438
 30
0.0
 10
10.7379403136
 20
10.3942826239
 30
0.0
 10
10.7393369024
 20
10.3944433948
 30
0.0
 10
10.7412667811
 20
10.3945756363
 30
0.0
 10
10.7435264225
 20
10.3946542947
 30
0.0
 10
10.7461063421
 20
10.3946787043
 30
0.0
 10
10.7489959506
 20
10.3946480494
 30
0.0
 10
10.7521830469
 20
10.3945625304
 30
0.0
 10
10.7556542377
 20
10.3944223522
 30
0.0
 10
10.7608087615
 20
10.3941540907
 30
0.0
 10
10.767832659
 20
10.3936791348
 30
0.0
 10
10.7736020594
 20
10.3931984253
 30
0.0
 10
10.7766274288
 20
10.3929266262
 30
0.0
  0
SPLINE
  5
372
100
AcDbEntity
  8
0
100
AcDbSpline
 62
9
  6
CONTINUOUS
 70
0
 71
3
 72
17
 73
13
 74
0
 42
0.0000001
 43
0.0000001
 44
0.0000000001
 40
0.0
 40
0.0
 40
0.0
 40
0.0
 40
0.0255604439
 40
0.0534292592
 40
0.0851057324
 40
0.1216003438
 40
0.211282794
 40
0.3254810288
 40
0.4647441781
 40
0.6262591418
 40
0.8060719178
 40
1.0
 40
1.0
 40
1.0
 40
1.0
 10
11.3726923406
 20
12.5313226715
 30
0.0
 10
11.3727610813
 20
12.531362359
 30
0.0
 10
11.3728923656
 20
12.5314683066
 30
0.0
 10
11.3730468419
 20
12.5316857717
 30
0.0
 10
11.373164677
 20
12.5319616544
 30
0.0
 10
11.3732814832
 20
12.5324393781
 30
0.0
 10
11.3733168318
 20
12.5331906577
 30
0.0
 10
11.3732107797
 20
12.5342527471
 30
0.0
 10
11.372952641
 20
12.5355170515
 30
0.0
 10
11.3725565734
 20
12.5369566585
 30
0.0
 10
11.3720349752
 20
12.5385354878
 30
0.0
 10
11.3716258546
 20
12.5396219373
 30
0.0
 10
11.3714037564
 20
12.5401817073
 30
0.0
  0
SPLINE
  5
373
100
AcDbEntity
  8
0
100
AcDbSpline
 62
9
  6
CONTINUOUS
 70
0
 71
3
 72
17
 73
13
 74
0
 42
0.0000001
 43
0.0000001
 44
0.0000000001
 40
0.0
 40
0.0
 40
0.0
 40
0.0
 40
0.0295001288
 40
0.0532688781
 40
0.0841895661
 40
0.1225791335
 40
0.168589291
 40
0.2222980104
 40
0.2837462355
 40
0.4290774767
 40
0.600378572
 40
1.0
 40
1.0
 40
1.0
 40
1.0
 10
11.4332613112
 20
12.577012587
 30
0.0
 10
11.4333277533
 20
12.5770768791
 30
0.0
 10
11.4333356267
 20
12.5772746326
 30
0.0
 10
11.4332714753
 20
12.5775222971
 30
0.0
 10
11.4331666671
 20
12.5777981565
 30
0.0
 10
11.4330095575
 20
12.5781227936
 30
0.0
 10
11.4327996425
 20
12.5785019203
 30
0.0
 10
11.4325361359
 20
12.5789328528
 30
0.0
 10
11.4320872197
 20
12.5796149346
 30
0.0
 10
11.4313953628
 20
12.5805774032
 30
0.0
 10
11.4300270953
 20
12.5823572235
 30
0.0
 10
11.4288847428
 20
12.5837353255
 30
0.0
 10
11.428071222
 20
12.5846875849
 30
0.0
  0
SPLINE
  5
374
100
AcDbEntity
  8
0
100
AcDbSpline
 62
9
  6
CONTINUOUS
 70
0
 71
3
 72
13
 73
9
 74
0
 42
0.0000001
 43
0.0000001
 44
0.0000000001
 40
0.0
 40
0.0
 40
0.0
 40
0.0
 40
0.124785038
 40
0.2497740592
 40
0.3748980467
 40
0.5000930423
 40
0.7503129956
 40
1.0
 40
1.0
 40
1.0
 40
1.0
 10
11.5091673331
 20
12.7251484332
 30
0.0
 10
11.507557862
 20
12.718505189
 30
0.0
 10
11.5038566218
 20
12.7053189085
 30
0.0
 10
11.496908013
 20
12.6859768859
 30
0.0
 10
11.488592919
 20
12.6671550632
 30
0.0
 10
11.4757411779
 20
12.6429122663
 30
0.0
 10
11.4564616761
 20
12.6144670168
 30
0.0
 10
11.4379733258
 20
12.5941222935
 30
0.0
 10
11.4280718055
 20
12.5846868591
 30
0.0
  0
SPLINE
  5
375
100
AcDbEntity
  8
0
100
AcDbSpline
 62
9
  6
CONTINUOUS
 70
0
 71
3
 72
17
 73
13
 74
0
 42
0.0000001
 43
0.0000001
 44
0.0000000001
 40
0.0
 40
0.0
 40
0.0
 40
0.0
 40
0.0295001326
 40
0.0532688833
 40
0.0841895722
 40
0.1225791403
 40
0.1685892982
 40
0.2222980179
 40
0.283746243
 40
0.4290774836
 40
0.6003785775
 40
1.0
 40
1.0
 40
1.0
 40
1.0
 10
11.518408205
 20
12.7244913436
 30
0.0
 10
11.5183857475
 20
12.7244016569
 30
0.0
 10
11.5182184247
 20
12.7242959616
 30
0.0
 10
11.5179718653
 20
12.7242276861
 30
0.0
 10
11.5176805598
 20
12.7241805228
 30
0.0
 10
11.5173208611
 20
12.7241542652
 30
0.0
 10
11.5168875701
 20
12.7241464935
 30
0.0
 10
11.5163826184
 20
12.7241592306
 30
0.0
 10
11.5155674601
 20
12.7242069626
 30
0.0
 10
11.5143880093
 20
12.7243248938
 30
0.0
 10
11.5121625059
 20
12.7246199379
 30
0.0
 10
11.5103978582
 20
12.724920193
 30
0.0
 10
11.509166417
 20
12.725148593
 30
0.0
  0
SPLINE
  5
376
100
AcDbEntity
  8
0
100
AcDbSpline
 62
9
  6
CONTINUOUS
 70
0
 71
3
 72
17
 73
13
 74
0
 42
0.0000001
 43
0.0000001
 44
0.0000000001
 40
0.0
 40
0.0
 40
0.0
 40
0.0
 40
0.0254163291
 40
0.0531267154
 40
0.0846177148
 40
0.1209029462
 40
0.210145702
 40
0.3239899289
 40
0.463118169
 40
0.6247941623
 40
0.8051272506
 40
1.0
 40
1.0
 40
1.0
 40
1.0
 10
11.5276923427
 20
12.7997905485
 30
0.0
 10
11.5276923427
 20
12.7997116199
 30
0.0
 10
11.5276665575
 20
12.7995458974
 30
0.0
 10
11.5275566823
 20
12.799304522
 30
0.0
 10
11.527378357
 20
12.7990654288
 30
0.0
 10
11.5270257604
 20
12.7987263073
 30
0.0
 10
11.5263961672
 20
12.7983205342
 30
0.0
 10
11.5254264705
 20
12.797881346
 30
0.0
 10
11.5242037508
 20
12.7974720679
 30
0.0
 10
11.5227575259
 20
12.7970940055
 30
0.0
 10
11.5211245584
 20
12.7967547204
 30
0.0
 10
11.5199746123
 20
12.7965649437
 30
0.0
 10
11.5193758764
 20
12.7964769738
 30
0.0
  0
SPLINE
  5
377
100
AcDbEntity
  8
0
100
AcDbSpline
 62
9
  6
CONTINUOUS
 70
0
 71
3
 72
13
 73
9
 74
0
 42
0.0000001
 43
0.0000001
 44
0.0000000001
 40
0.0
 40
0.0
 40
0.0
 40
0.0
 40
0.1172465153
 40
0.2412176955
 40
0.5000049468
 40
0.7587902105
 40
0.8827564128
 40
1.0
 40
1.0
 40
1.0
 40
1.0
 10
10.8958571611
 20
10.3929268807
 30
0.0
 10
10.8991177232
 20
10.3932202431
 30
0.0
 10
10.9058345291
 20
10.3937298178
 30
0.0
 10
10.9197774559
 20
10.3944592683
 30
0.0
 10
10.9376924234
 20
10.3948116928
 30
0.0
 10
10.9556072599
 20
10.3944593661
 30
0.0
 10
10.9695498983
 20
10.3937296625
 30
0.0
 10
10.9762664736
 20
10.3932199843
 30
0.0
 10
10.9795269543
 20
10.3929266294
 30
0.0
  0
SPLINE
  5
378
100
AcDbEntity
  8
0
100
AcDbSpline
 62
9
  6
CONTINUOUS
 70
0
 71
3
 72
17
 73
13
 74
0
 42
0.0000001
 43
0.0000001
 44
0.0000000001
 40
0.0
 40
0.0
 40
0.0
 40
0.0
 40
0.0255604252
 40
0.0534292258
 40
0.0851056902
 40
0.1216002985
 40
0.2112827573
 40
0.3254810144
 40
0.4647441916
 40
0.626259176
 40
0.8060719521
 40
1.0
 40
1.0
 40
1.0
 40
1.0
 10
11.5276923427
 20
13.1231066962
 30
0.0
 10
11.5276923427
 20
13.1231860712
 30
0.0
 10
11.5276662315
 20
13.1233527408
 30
0.0
 10
11.5275551389
 20
13.1235952541
 30
0.0
 10
11.5273751346
 20
13.123835244
 30
0.0
 10
11.5270198159
 20
13.1241752634
 30
0.0
 10
11.5263868613
 20
13.1245815164
 30
0.0
 10
11.5254140365
 20
13.1250207178
 30
0.0
 10
11.5241900444
 20
13.1254293156
 30
0.0
 10
11.522745271
 20
13.1258061147
 30
0.0
 10
11.5211171622
 20
13.1261438121
 30
0.0
 10
11.5199717067
 20
13.126332728
 30
0.0
 10
11.5193758814
 20
13.1264202702
 30
0.0
  0
SPLINE
  5
379
100
AcDbEntity
  8
0
100
AcDbSpline
 62
9
  6
CONTINUOUS
 70
0
 71
3
 72
25
 73
21
 74
0
 42
0.0000001
 43
0.0000001
 44
0.0000000001
 40
0.0
 40
0.0
 40
0.0
 40
0.0
 40
0.2150978197
 40
0.4099462642
 40
0.4984882162
 40
0.5805945074
 40
0.655954215
 40
0.7242602711
 40
0.7852282127
 40
0.8386502897
 40
0.8843516469
 40
0.9221873948
 40
0.9381324068
 40
0.9521082599
 40
0.964147492
 40
0.9743063472
 40
0.9826852375
 40
0.9894718269
 40
0.995027298
 40
1.0
 40
1.0
 40
1.0
 40
1.0
 10
11.0987577974
 20
10.3929268803
 30
0.0
 10
11.1017830419
 20
10.3931988112
 30
0.0
 10
11.1075522039
 20
10.3936794554
 30
0.0
 10
11.1145758646
 20
10.3941540064
 30
0.0
 10
11.1197302446
 20
10.3944221648
 30
0.0
 10
11.1232014364
 20
10.3945623447
 30
0.0
 10
11.1263885755
 20
10.3946479041
 30
0.0
 10
11.1292782468
 20
10.394678608
 30
0.0
 10
11.1318582213
 20
10.3946542143
 30
0.0
 10
11.1341178876
 20
10.3945755509
 30
0.0
 10
11.1360477573
 20
10.3944433079
 30
0.0
 10
11.1374443195
 20
10.3942825604
 30
0.0
 10
11.1383873506
 20
10.3941192256
 30
0.0
 10
11.1389660544
 20
10.3939906994
 30
0.0
 10
11.1394574078
 20
10.3938494908
 30
0.0
 10
11.1398616297
 20
10.3936957752
 30
0.0
 10
11.1401795065
 20
10.3935293284
 30
0.0
 10
11.1404123958
 20
10.3933485429
 30
0.0
 10
11.1405600349
 20
10.3931476327
 30
0.0
 10
11.1405928533
 20
10.3929969068
 30
0.0
 10
11.140592141
 20
10.3929266899
 30
0.0
  0
LINE
  5
37A
100
AcDbEntity
  8
0
100
AcDbLine
 62
9
  6
CONTINUOUS
 10
10.5039809361
 20
13.3827155154
 11
10.5069310021
 21
13.3845187763
  0
SPLINE
  5
37B
100
AcDbEntity
  8
0
100
AcDbSpline
 62
9
  6
CONTINUOUS
 70
0
 71
3
 72
11
 73
7
 74
0
 42
0.0000001
 43
0.0000001
 44
0.0000000001
 40
0.0
 40
0.0
 40
0.0
 40
0.0
 40
0.2487764867
 40
0.5000700222
 40
0.7513396768
 40
1.0
 40
1.0
 40
1.0
 40
1.0
 10
10.5069310021
 20
13.3845187763
 30
0.0
 10
10.5300368638
 20
13.3986354906
 30
0.0
 10
10.5766307411
 20
13.4267701212
 30
0.0
 10
10.6471703292
 20
13.4681457344
 30
0.0
 10
10.7182829621
 20
13.5085029624
 30
0.0
 10
10.7659472742
 20
13.5347517413
 30
0.0
 10
10.7897202158
 20
13.5476871654
 30
0.0
  0
SPLINE
  5
37C
100
AcDbEntity
  8
0
100
AcDbSpline
 62
9
  6
CONTINUOUS
 70
0
 71
3
 72
12
 73
8
 74
0
 42
0.0000001
 43
0.0000001
 44
0.0000000001
 40
0.0
 40
0.0
 40
0.0
 40
0.0
 40
0.250139182
 40
0.3757784567
 40
0.5014677184
 40
0.7518899313
 40
1.0
 40
1.0
 40
1.0
 40
1.0
 10
10.7359580654
 20
12.4047503474
 30
0.0
 10
10.7166260595
 20
12.4154818026
 30
0.0
 10
10.6876632606
 20
12.4317469832
 30
0.0
 10
10.6491952166
 20
12.4537719287
 30
0.0
 10
10.6108343722
 20
12.4760330143
 30
0.0
 10
10.5633421763
 20
12.5041254559
 30
0.0
 10
10.5256430755
 20
12.5269459468
 30
0.0
 10
10.5069281406
 20
12.5383802053
 30
0.0
  0
LINE
  5
37D
100
AcDbEntity
  8
0
100
AcDbLine
 62
9
  6
CONTINUOUS
 10
10.5069281406
 20
12.5383802053
 11
10.503980936
 21
12.5401817312
  0
SPLINE
  5
37E
100
AcDbEntity
  8
0
100
AcDbSpline
 62
9
  6
CONTINUOUS
 70
0
 71
3
 72
11
 73
7
 74
0
 42
0.0000001
 43
0.0000001
 44
0.0000000001
 40
0.0
 40
0.0
 40
0.0
 40
0.0
 40
0.2487354157
 40
0.5000003239
 40
0.7512653276
 40
1.0
 40
1.0
 40
1.0
 40
1.0
 10
10.3560088091
 20
12.7964769732
 30
0.0
 10
10.3553172839
 20
12.8238274051
 30
0.0
 10
10.3542068078
 20
12.8788141926
 30
0.0
 10
10.3536176673
 20
12.9614487408
 30
0.0
 10
10.3542066301
 20
13.0440832105
 30
0.0
 10
10.3553172956
 20
13.0990699229
 30
0.0
 10
10.3560088091
 20
13.1264202733
 30
0.0
  0
SPLINE
  5
37F
100
AcDbEntity
  8
0
100
AcDbSpline
 62
9
  6
CONTINUOUS
 70
0
 71
3
 72
17
 73
13
 74
0
 42
0.0000001
 43
0.0000001
 44
0.0000000001
 40
0.0
 40
0.0
 40
0.0
 40
0.0
 40
0.0254163286
 40
0.0531267145
 40
0.0846177135
 40
0.1209029446
 40
0.2101456999
 40
0.3239899265
 40
0.4631181666
 40
0.6247941602
 40
0.8051272493
 40
1.0
 40
1.0
 40
1.0
 40
1.0
 10
10.7826923322
 20
13.5532326431
 30
0.0
 10
10.7827606865
 20
13.5532721075
 30
0.0
 10
10.7829170989
 20
13.553332638
 30
0.0
 10
10.7831810738
 20
13.553358171
 30
0.0
 10
10.7834772971
 20
13.5533232833
 30
0.0
 10
10.7839472832
 20
13.5531874865
 30
0.0
 10
10.7846134896
 20
13.5528451293
 30
0.0
 10
10.7854786861
 20
13.5522249415
 30
0.0
 10
10.7864444912
 20
13.5513706742
 30
0.0
 10
10.7874950152
 20
13.550307238
 30
0.0
 10
10.7886053285
 20
13.5490626892
 30
0.0
 10
10.7893446529
 20
13.5481616951
 30
0.0
 10
10.789720205
 20
13.5476871595
 30
0.0
  0
SPLINE
  5
380
100
AcDbEntity
  8
0
100
AcDbSpline
 62
7
  6
CONTINUOUS
 70
0
 71
3
 72
15
 73
11
 74
0
 42
0.0000001
 43
0.0000001
 44
0.0000000001
 40
0.0
 40
0.0
 40
0.0
 40
0.0
 40
0.0856774504
 40
0.1823026353
 40
0.2917159052
 40
0.4141965101
 40
0.5485662895
 40
0.6928205833
 40
0.844450865
 40
1.0
 40
1.0
 40
1.0
 40
1.0
 10
10.7766272708
 20
10.3929266815
 30
0.0
 10
10.775517249
 20
10.3934477606
 30
0.0
 10
10.7733320783
 20
10.3949472349
 30
0.0
 10
10.77055686
 20
10.3981060984
 30
0.0
 10
10.7681702876
 20
10.4021839455
 30
0.0
 10
10.7662241472
 20
10.4070679843
 30
0.0
 10
10.7647598025
 20
10.4126312242
 30
0.0
 10
10.7638197245
 20
10.4187270546
 30
0.0
 10
10.7634312403
 20
10.4251845265
 30
0.0
 10
10.7635429374
 20
10.4295857094
 30
0.0
 10
10.7636923431
 20
10.4318069593
 30
0.0
  0
SPLINE
  5
381
100
AcDbEntity
  8
0
100
AcDbSpline
 62
9
  6
CONTINUOUS
 70
0
 71
3
 72
17
 73
13
 74
0
 42
0.0000001
 43
0.0000001
 44
0.0000000001
 40
0.0
 40
0.0
 40
0.0
 40
0.0
 40
0.0255604439
 40
0.0534292592
 40
0.0851057324
 40
0.1216003438
 40
0.211282794
 40
0.3254810288
 40
0.4647441781
 40
0.6262591418
 40
0.8060719178
 40
1.0
 40
1.0
 40
1.0
 40
1.0
 10
10.5026923449
 20
13.3915745751
 30
0.0
 10
10.5026236042
 20
13.3915348876
 30
0.0
 10
10.5024923199
 20
13.39142894
 30
0.0
 10
10.5023378436
 20
13.3912114748
 30
0.0
 10
10.5022200085
 20
13.3909355921
 30
0.0
 10
10.5021032023
 20
13.3904578684
 30
0.0
 10
10.5020678537
 20
13.3897065888
 30
0.0
 10
10.5021739057
 20
13.3886444994
 30
0.0
 10
10.5024320445
 20
13.387380195
 30
0.0
 10
10.5028281121
 20
13.385940588
 30
0.0
 10
10.5033497103
 20
13.3843617588
 30
0.0
 10
10.5037588309
 20
13.3832753092
 30
0.0
 10
10.5039809291
 20
13.3827155393
 30
0.0
  0
SPLINE
  5
382
100
AcDbEntity
  8
0
100
AcDbSpline
 62
9
  6
CONTINUOUS
 70
0
 71
3
 72
17
 73
13
 74
0
 42
0.0000001
 43
0.0000001
 44
0.0000000001
 40
0.0
 40
0.0
 40
0.0
 40
0.0
 40
0.0295001288
 40
0.0532688782
 40
0.0841895662
 40
0.1225791336
 40
0.168589291
 40
0.2222980105
 40
0.2837462356
 40
0.4290774768
 40
0.6003785721
 40
1.0
 40
1.0
 40
1.0
 40
1.0
 10
10.4421233745
 20
13.3458846597
 30
0.0
 10
10.4420569323
 20
13.3458203676
 30
0.0
 10
10.4420490589
 20
13.3456226141
 30
0.0
 10
10.4421132103
 20
13.3453749497
 30
0.0
 10
10.4422180185
 20
13.3450990902
 30
0.0
 10
10.4423751281
 20
13.3447744532
 30
0.0
 10
10.4425850431
 20
13.3443953264
 30
0.0
 10
10.4428485497
 20
13.3439643939
 30
0.0
 10
10.443297466
 20
13.3432823122
 30
0.0
 10
10.4439893229
 20
13.3423198435
 30
0.0
 10
10.4453575904
 20
13.3405400232
 30
0.0
 10
10.4464999428
 20
13.3391619212
 30
0.0
 10
10.4473134637
 20
13.3382096618
 30
0.0
  0
SPLINE
  5
383
100
AcDbEntity
  8
0
100
AcDbSpline
 62
9
  6
CONTINUOUS
 70
0
 71
3
 72
13
 73
9
 74
0
 42
0.0000001
 43
0.0000001
 44
0.0000000001
 40
0.0
 40
0.0
 40
0.0
 40
0.0
 40
0.1247850007
 40
0.2497739744
 40
0.3748979222
 40
0.500092905
 40
0.7503129331
 40
1.0
 40
1.0
 40
1.0
 40
1.0
 10
10.3662173475
 20
13.1977488142
 30
0.0
 10
10.3678268181
 20
13.2043920566
 30
0.0
 10
10.3715280564
 20
13.217578333
 30
0.0
 10
10.3784766616
 20
13.2369203501
 30
0.0
 10
10.3867917526
 20
13.2557421686
 30
0.0
 10
10.3996434944
 20
13.2799849672
 30
0.0
 10
10.4189230005
 20
13.3084302227
 30
0.0
 10
10.4374113539
 20
13.3287749542
 30
0.0
 10
10.4473128768
 20
13.3382103913
 30
0.0
  0
SPLINE
  5
384
100
AcDbEntity
  8
0
100
AcDbSpline
 62
9
  6
CONTINUOUS
 70
0
 71
3
 72
17
 73
13
 74
0
 42
0.0000001
 43
0.0000001
 44
0.0000000001
 40
0.0
 40
0.0
 40
0.0
 40
0.0
 40
0.0295001326
 40
0.0532688833
 40
0.0841895722
 40
0.1225791403
 40
0.1685892982
 40
0.2222980179
 40
0.283746243
 40
0.4290774836
 40
0.6003785775
 40
1.0
 40
1.0
 40
1.0
 40
1.0
 10
10.3569764804
 20
13.1984059029
 30
0.0
 10
10.356998938
 20
13.1984955896
 30
0.0
 10
10.3571662608
 20
13.198601285
 30
0.0
 10
10.3574128202
 20
13.1986695605
 30
0.0
 10
10.3577041257
 20
13.1987167237
 30
0.0
 10
10.3580638244
 20
13.1987429813
 30
0.0
 10
10.3584971153
 20
13.198750753
 30
0.0
 10
10.3590020671
 20
13.1987380159
 30
0.0
 10
10.3598172254
 20
13.198690284
 30
0.0
 10
10.3609966762
 20
13.1985723528
 30
0.0
 10
10.3632221796
 20
13.1982773087
 30
0.0
 10
10.3649868272
 20
13.1979770536
 30
0.0
 10
10.3662182685
 20
13.1977486536
 30
0.0
  0
SPLINE
  5
385
100
AcDbEntity
  8
0
100
AcDbSpline
 62
9
  6
CONTINUOUS
 70
0
 71
3
 72
17
 73
13
 74
0
 42
0.0000001
 43
0.0000001
 44
0.0000000001
 40
0.0
 40
0.0
 40
0.0
 40
0.0
 40
0.0254163291
 40
0.0531267154
 40
0.0846177148
 40
0.1209029462
 40
0.210145702
 40
0.3239899289
 40
0.463118169
 40
0.6247941623
 40
0.8051272506
 40
1.0
 40
1.0
 40
1.0
 40
1.0
 10
10.3476923427
 20
13.123106698
 30
0.0
 10
10.3476923427
 20
13.1231856267
 30
0.0
 10
10.3477181279
 20
13.1233513491
 30
0.0
 10
10.3478280032
 20
13.1235927246
 30
0.0
 10
10.3480063285
 20
13.1238318177
 30
0.0
 10
10.348358925
 20
13.1241709392
 30
0.0
 10
10.3489885183
 20
13.1245767123
 30
0.0
 10
10.349958215
 20
13.1250159006
 30
0.0
 10
10.3511809347
 20
13.1254251786
 30
0.0
 10
10.3526271595
 20
13.125803241
 30
0.0
 10
10.354260127
 20
13.1261425262
 30
0.0
 10
10.3554100731
 20
13.1263323028
 30
0.0
 10
10.3560088091
 20
13.1264202727
 30
0.0
  0
SPLINE
  5
386
100
AcDbEntity
  8
0
100
AcDbSpline
 62
9
  6
CONTINUOUS
 70
0
 71
3
 72
17
 73
13
 74
0
 42
0.0000001
 43
0.0000001
 44
0.0000000001
 40
0.0
 40
0.0
 40
0.0
 40
0.0
 40
0.0255604252
 40
0.0534292258
 40
0.0851056902
 40
0.1216002985
 40
0.2112827573
 40
0.3254810144
 40
0.4647441916
 40
0.626259176
 40
0.8060719521
 40
1.0
 40
1.0
 40
1.0
 40
1.0
 10
10.3476923427
 20
12.7997905504
 30
0.0
 10
10.3476923427
 20
12.7997111753
 30
0.0
 10
10.347718454
 20
12.7995445057
 30
0.0
 10
10.3478295465
 20
12.7993019925
 30
0.0
 10
10.3480095509
 20
12.7990620026
 30
0.0
 10
10.3483648696
 20
12.7987219832
 30
0.0
 10
10.3489978242
 20
12.7983157301
 30
0.0
 10
10.349970649
 20
12.7978765287
 30
0.0
 10
10.3511946411
 20
12.7974679309
 30
0.0
 10
10.3526394144
 20
12.7970911319
 30
0.0
 10
10.3542675233
 20
12.7967534345
 30
0.0
 10
10.3554129788
 20
12.7965645186
 30
0.0
 10
10.3560088041
 20
12.7964769763
 30
0.0
  0
SPLINE
  5
387
100
AcDbEntity
  8
0
100
AcDbSpline
 62
9
  6
CONTINUOUS
 70
0
 71
3
 72
17
 73
13
 74
0
 42
0.0000001
 43
0.0000001
 44
0.0000000001
 40
0.0
 40
0.0
 40
0.0
 40
0.0
 40
0.0295001288
 40
0.0532688782
 40
0.0841895662
 40
0.1225791336
 40
0.1685892911
 40
0.2222980105
 40
0.2837462356
 40
0.4290774768
 40
0.6003785721
 40
1.0
 40
1.0
 40
1.0
 40
1.0
 10
10.3569764849
 20
12.7244913257
 30
0.0
 10
10.3569989425
 20
12.7244016391
 30
0.0
 10
10.3571662653
 20
12.7242959438
 30
0.0
 10
10.3574128247
 20
12.7242276683
 30
0.0
 10
10.3577041301
 20
12.7241805051
 30
0.0
 10
10.3580638288
 20
12.7241542475
 30
0.0
 10
10.3584971197
 20
12.7241464758
 30
0.0
 10
10.3590020715
 20
12.724159213
 30
0.0
 10
10.3598172297
 20
12.724206945
 30
0.0
 10
10.3609966805
 20
12.7243248763
 30
0.0
 10
10.3632221838
 20
12.7246199206
 30
0.0
 10
10.3649868314
 20
12.7249201758
 30
0.0
 10
10.3662182726
 20
12.7251485759
 30
0.0
  0
SPLINE
  5
388
100
AcDbEntity
  8
0
100
AcDbSpline
 62
9
  6
CONTINUOUS
 70
0
 71
3
 72
13
 73
9
 74
0
 42
0.0000001
 43
0.0000001
 44
0.0000000001
 40
0.0
 40
0.0
 40
0.0
 40
0.0
 40
0.1247849966
 40
0.2497739652
 40
0.3748979088
 40
0.5000928905
 40
0.7503129265
 40
1.0
 40
1.0
 40
1.0
 40
1.0
 10
10.4473128767
 20
12.5846868551
 30
0.0
 10
10.4423643955
 20
12.5894023185
 30
0.0
 10
10.4327953646
 20
12.5992008228
 30
0.0
 10
10.4195189894
 20
12.6148894993
 30
0.0
 10
10.4073763622
 20
12.6315014881
 30
0.0
 10
10.3928073535
 20
12.6547528224
 30
0.0
 10
10.3778127924
 20
12.6856719929
 30
0.0
 10
10.3694379142
 20
12.711855743
 30
0.0
 10
10.3662173473
 20
12.7251484323
 30
0.0
  0
SPLINE
  5
389
100
AcDbEntity
  8
0
100
AcDbSpline
 62
9
  6
CONTINUOUS
 70
0
 71
3
 72
17
 73
13
 74
0
 42
0.0000001
 43
0.0000001
 44
0.0000000001
 40
0.0
 40
0.0
 40
0.0
 40
0.0
 40
0.0295001553
 40
0.0532689018
 40
0.0841895793
 40
0.1225791307
 40
0.1685892682
 40
0.2222979652
 40
0.2837461668
 40
0.4290773646
 40
0.6003784411
 40
1.0
 40
1.0
 40
1.0
 40
1.0
 10
10.4421233901
 20
12.5770125718
 30
0.0
 10
10.4420569481
 20
12.5770768637
 30
0.0
 10
10.4420490743
 20
12.5772746165
 30
0.0
 10
10.4421132252
 20
12.5775222802
 30
0.0
 10
10.4422180328
 20
12.5777981387
 30
0.0
 10
10.4423751415
 20
12.5781227746
 30
0.0
 10
10.4425850554
 20
12.5785019001
 30
0.0
 10
10.4428485607
 20
12.578932831
 30
0.0
 10
10.4432974749
 20
12.5796149104
 30
0.0
 10
10.4439893287
 20
12.5805773758
 30
0.0
 10
10.4453575908
 20
12.5823571906
 30
0.0
 10
10.446499939
 20
12.5837352885
 30
0.0
 10
10.4473134569
 20
12.5846875451
 30
0.0
  0
SPLINE
  5
38A
100
AcDbEntity
  8
0
100
AcDbSpline
 62
9
  6
CONTINUOUS
 70
0
 71
3
 72
17
 73
13
 74
0
 42
0.0000001
 43
0.0000001
 44
0.0000000001
 40
0.0
 40
0.0
 40
0.0
 40
0.0
 40
0.0254163286
 40
0.0531267145
 40
0.0846177135
 40
0.1209029446
 40
0.2101456999
 40
0.3239899265
 40
0.4631181666
 40
0.6247941602
 40
0.8051272493
 40
1.0
 40
1.0
 40
1.0
 40
1.0
 10
10.5026923532
 20
12.5313226667
 30
0.0
 10
10.502623999
 20
12.531362131
 30
0.0
 10
10.5024933718
 20
12.5314673229
 30
0.0
 10
10.5023392721
 20
12.5316831653
 30
0.0
 10
10.5022213741
 20
12.5319571461
 30
0.0
 10
10.5021039845
 20
12.5324320644
 30
0.0
 10
10.5020673713
 20
12.5331801947
 30
0.0
 10
10.5021718715
 20
12.5342395707
 30
0.0
 10
10.5024287861
 20
12.5355031161
 30
0.0
 10
10.5028244869
 20
12.5369446147
 30
0.0
 10
10.5033471411
 20
12.5385284485
 30
0.0
 10
10.5037577627
 20
12.5396192194
 30
0.0
 10
10.5039809466
 20
12.5401817248
 30
0.0
  0
SPLINE
  5
38B
100
AcDbEntity
  8
0
100
AcDbSpline
 62
9
  6
CONTINUOUS
 70
0
 71
3
 72
21
 73
17
 74
0
 42
0.0000001
 43
0.0000001
 44
0.0000000001
 40
0.0
 40
0.0
 40
0.0
 40
0.0
 40
0.0658610789
 40
0.1309304678
 40
0.2578507133
 40
0.3198124835
 40
0.3806750719
 40
0.4406334774
 40
0.500022718
 40
0.5594010104
 40
0.6193349852
 40
0.6801699046
 40
0.7421117847
 40
0.8690423646
 40
0.9341280324
 40
1.0
 40
1.0
 40
1.0
 40
1.0
 10
10.7636923427
 20
12.2695379296
 30
0.0
 10
10.7656773491
 20
12.2717389786
 30
0.0
 10
10.7697221653
 20
12.2760287581
 30
0.0
 10
10.7781447258
 20
12.284013264
 30
0.0
 10
10.7872514128
 20
12.2910253803
 30
0.0
 10
10.7970961952
 20
12.2964896168
 30
0.0
 10
10.8047391126
 20
12.2995975181
 30
0.0
 10
10.8126441919
 20
12.3015421939
 30
0.0
 10
10.8206950871
 20
12.3022246553
 30
0.0
 10
10.8287448325
 20
12.3015416355
 30
0.0
 10
10.8366469723
 20
12.2995971281
 30
0.0
 10
10.8442871429
 20
12.2964912054
 30
0.0
 10
10.8541308955
 20
12.2910284668
 30
0.0
 10
10.8632372692
 20
12.28401536
 30
0.0
 10
10.8716610443
 20
12.2760297253
 30
0.0
 10
10.8757068805
 20
12.2717392273
 30
0.0
 10
10.8776923427
 20
12.2695379296
 30
0.0
  0
SPLINE
  5
38C
100
AcDbEntity
  8
0
100
AcDbSpline
 62
9
  6
CONTINUOUS
 70
0
 71
3
 72
9
 73
5
 74
0
 42
0.0000001
 43
0.0000001
 44
0.0000000001
 40
0.0
 40
0.0
 40
0.0
 40
0.0
 40
0.507518584
 40
1.0
 40
1.0
 40
1.0
 40
1.0
 10
10.8902857813
 20
12.2822301033
 30
0.0
 10
10.8879835247
 20
12.280264231
 30
0.0
 10
10.8836104541
 20
12.2761970103
 30
0.0
 10
10.8795706545
 20
12.2717966719
 30
0.0
 10
10.8776923541
 20
12.269537917
 30
0.0
  0
SPLINE
  5
38D
100
AcDbEntity
  8
0
100
AcDbSpline
 62
9
  6
CONTINUOUS
 70
0
 71
3
 72
14
 73
10
 74
0
 42
0.0000001
 43
0.0000001
 44
0.0000000001
 40
0.0
 40
0.0
 40
0.0
 40
0.0
 40
0.2200964611
 40
0.3394233565
 40
0.464235333
 40
0.5937140674
 40
0.7269588859
 40
0.862859543
 40
1.0
 40
1.0
 40
1.0
 40
1.0
 10
10.840703168
 20
12.5223513466
 30
0.0
 10
10.8474208711
 20
12.5194601731
 30
0.0
 10
10.8579902893
 20
12.5154675997
 30
0.0
 10
10.8727663754
 20
12.5110229387
 30
0.0
 10
10.884824478
 20
12.5080448773
 30
0.0
 10
10.8974730895
 20
12.5055991303
 30
0.0
 10
10.9106005167
 20
12.503783946
 30
0.0
 10
10.924060832
 20
12.5026677724
 30
0.0
 10
10.9331353923
 20
12.5024103432
 30
0.0
 10
10.9376923426
 20
12.5024101952
 30
0.0
  0
SPLINE
  5
38E
100
AcDbEntity
  8
0
100
AcDbSpline
 62
9
  6
CONTINUOUS
 70
0
 71
3
 72
14
 73
10
 74
0
 42
0.0000001
 43
0.0000001
 44
0.0000000001
 40
0.0
 40
0.0
 40
0.0
 40
0.0
 40
0.1371933062
 40
0.2731594884
 40
0.4064200377
 40
0.5358601469
 40
0.6606220042
 40
0.7799184139
 40
1.0
 40
1.0
 40
1.0
 40
1.0
 10
10.9376923426
 20
12.5024102191
 30
0.0
 10
10.942251215
 20
12.5024103028
 30
0.0
 10
10.9513300388
 20
12.5026680373
 30
0.0
 10
10.9647952784
 20
12.5037846704
 30
0.0
 10
10.9779245805
 20
12.505600238
 30
0.0
 10
10.990571111
 20
12.5080465027
 30
0.0
 10
11.0026255086
 20
12.511024899
 30
0.0
 10
11.0173988938
 20
12.5154694199
 30
0.0
 10
11.0279672894
 20
12.5194615805
 30
0.0
 10
11.0346847448
 20
12.5223527529
 30
0.0
  0
SPLINE
  5
38F
100
AcDbEntity
  8
0
100
AcDbSpline
 62
9
  6
CONTINUOUS
 70
0
 71
3
 72
24
 73
20
 74
0
 42
0.0000001
 43
0.0000001
 44
0.0000000001
 40
0.0
 40
0.0
 40
0.0
 40
0.0
 40
0.0622022895
 40
0.120255711
 40
0.1739285368
 40
0.2233556047
 40
0.2691944948
 40
0.3130749606
 40
0.335097086
 40
0.3576102632
 40
0.4054400264
 40
0.4588503904
 40
0.5190852762
 40
0.5862077752
 40
0.6596804746
 40
0.7387021256
 40
0.8223045388
 40
0.9096620253
 40
1.0
 40
1.0
 40
1.0
 40
1.0
 10
11.1676142319
 20
12.2822301158
 30
0.0
 10
11.1675324694
 20
12.2808369339
 30
0.0
 10
11.1672868475
 20
12.2781470934
 30
0.0
 10
11.1665958771
 20
12.2743001927
 30
0.0
 10
11.1655541537
 20
12.2708274197
 30
0.0
 10
11.1641195609
 20
12.2677909571
 30
0.0
 10
11.1622333279
 20
12.2652699439
 30
0.0
 10
11.160245575
 20
12.2636873972
 30
0.0
 10
11.1584630421
 20
12.2628035042
 30
0.0
 10
11.1564875687
 20
12.2621547999
 30
0.0
 10
11.1536939136
 20
12.2618633869
 30
0.0
 10
11.1500734155
 20
12.2622847868
 30
0.0
 10
11.146177307
 20
12.2634690341
 30
0.0
 10
11.1420605931
 20
12.2653221617
 30
0.0
 10
11.1377854962
 20
12.2677853438
 30
0.0
 10
11.1334138357
 20
12.2707839297
 30
0.0
 10
11.1289899167
 20
12.2742361798
 30
0.0
 10
11.1245568472
 20
12.278075601
 30
0.0
 10
11.1216565793
 20
12.2808128352
 30
0.0
 10
11.1202076569
 20
12.2822301158
 30
0.0
  0
SPLINE
  5
390
100
AcDbEntity
  8
0
100
AcDbSpline
 62
9
  6
CONTINUOUS
 70
0
 71
3
 72
27
 73
23
 74
0
 42
0.0000001
 43
0.0000001
 44
0.0000000001
 40
0.0
 40
0.0
 40
0.0
 40
0.0
 40
0.0632534354
 40
0.1263137735
 40
0.188853048
 40
0.2507686438
 40
0.2815110425
 40
0.3121281027
 40
0.3730770688
 40
0.4337770163
 40
0.4641161633
 40
0.494495343
 40
0.5554704617
 40
0.5861500797
 40
0.6169778355
 40
0.6791248435
 40
0.7104679032
 40
0.7419633132
 40
0.8054783383
 40
0.8697906256
 40
0.9347225921
 40
1.0
 40
1.0
 40
1.0
 40
1.0
 10
11.1202076569
 20
12.2822301158
 30
0.0
 10
11.1178554132
 20
12.2844559796
 30
0.0
 10
11.1130867569
 20
12.2888271231
 30
0.0
 10
11.1056395378
 20
12.2950022604
 30
0.0
 10
11.0978354206
 20
12.3006106
 30
0.0
 10
11.0909823353
 20
12.304658264
 30
0.0
 10
11.0853205242
 20
12.3074528896
 30
0.0
 10
11.0795647582
 20
12.3099256845
 30
0.0
 10
11.072153575
 20
12.3124018331
 30
0.0
 10
11.0645063728
 20
12.3139593531
 30
0.0
 10
11.0583174438
 20
12.3145880096
 30
0.0
 10
11.0520865497
 20
12.3147940751
 30
0.0
 10
11.0458313354
 20
12.3143735581
 30
0.0
 10
11.0396417041
 20
12.3133467931
 30
0.0
 10
11.0334713512
 20
12.3119140157
 30
0.0
 10
11.0274113888
 20
12.3099149087
 30
0.0
 10
11.0215136903
 20
12.3074269373
 30
0.0
 10
11.0156879874
 20
12.3046083697
 30
0.0
 10
11.0086043675
 20
12.3005425277
 30
0.0
 10
11.0004145653
 20
12.2950266688
 30
0.0
 10
10.9924597583
 20
12.2890250571
 30
0.0
 10
10.9874722921
 20
12.2845830943
 30
0.0
 10
10.9850989178
 20
12.2822301159
 30
0.0
  0
SPLINE
  5
391
100
AcDbEntity
  8
0
100
AcDbSpline
 62
9
  6
CONTINUOUS
 70
0
 71
3
 72
17
 73
13
 74
0
 42
0.0000001
 43
0.0000001
 44
0.0000000001
 40
0.0
 40
0.0
 40
0.0
 40
0.0
 40
0.0295001287
 40
0.0532688781
 40
0.084189566
 40
0.1225791334
 40
0.1685892909
 40
0.2222980103
 40
0.2837462354
 40
0.4290774766
 40
0.600378572
 40
1.0
 40
1.0
 40
1.0
 40
1.0
 10
11.0228392318
 20
13.5828419574
 30
0.0
 10
11.0227503322
 20
13.582867352
 30
0.0
 10
11.0225751359
 20
13.5827752938
 30
0.0
 10
11.0223927279
 20
13.5825959049
 30
0.0
 10
11.0222062307
 20
13.5823672085
 30
0.0
 10
11.0220036416
 20
13.5820688291
 30
0.0
 10
11.0217802657
 20
13.581697474
 30
0.0
 10
11.0215388205
 20
13.5812538044
 30
0.0
 10
11.0211725785
 20
13.5805239906
 30
0.0
 10
11.0206849847
 20
13.5794435907
 30
0.0
 10
11.0198277488
 20
13.5773687261
 30
0.0
 10
11.0192054537
 20
13.5756903688
 30
0.0
 10
11.0187875333
 20
13.5745097094
 30
0.0
  0
SPLINE
  5
392
100
AcDbEntity
  8
0
100
AcDbSpline
 62
9
  6
CONTINUOUS
 70
0
 71
3
 72
21
 73
17
 74
0
 42
0.0000001
 43
0.0000001
 44
0.0000000001
 40
0.0
 40
0.0
 40
0.0
 40
0.0
 40
0.1213378021
 40
0.182946217
 40
0.245222143
 40
0.3081597124
 40
0.3717088615
 40
0.4357218776
 40
0.4999994114
 40
0.5642769302
 40
0.6282899629
 40
0.691839999
 40
0.7547777388
 40
0.8170538742
 40
0.8786621444
 40
1.0
 40
1.0
 40
1.0
 40
1.0
 10
10.9850989178
 20
12.2822301159
 30
0.0
 10
10.9819658273
 20
12.2793318574
 30
0.0
 10
10.9769388848
 20
12.2752659156
 30
0.0
 10
10.9696271305
 20
12.2706751349
 30
0.0
 10
10.963772196
 20
12.2676704304
 30
0.0
 10
10.9575923868
 20
12.2652128668
 30
0.0
 10
10.9511349512
 20
12.2633790408
 30
0.0
 10
10.9444700788
 20
12.2622357199
 30
0.0
 10
10.937692436
 20
12.2618650086
 30
0.0
 10
10.9309146808
 20
12.2622351479
 30
0.0
 10
10.9242500338
 20
12.263379939
 30
0.0
 10
10.9177924262
 20
12.2652130554
 30
0.0
 10
10.9116122795
 20
12.2676699951
 30
0.0
 10
10.9057574869
 20
12.270675029
 30
0.0
 10
10.8984459016
 20
12.2752660521
 30
0.0
 10
10.89341883
 20
12.2793318241
 30
0.0
 10
10.8902857677
 20
12.2822301158
 30
0.0
  0
SPLINE
  5
393
100
AcDbEntity
  8
0
100
AcDbSpline
 62
9
  6
CONTINUOUS
 70
0
 71
3
 72
17
 73
13
 74
0
 42
0.0000001
 43
0.0000001
 44
0.0000000001
 40
0.0
 40
0.0
 40
0.0
 40
0.0
 40
0.0295001552
 40
0.0532689017
 40
0.0841895792
 40
0.1225791305
 40
0.168589268
 40
0.2222979651
 40
0.2837461666
 40
0.4290773645
 40
0.600378441
 40
1.0
 40
1.0
 40
1.0
 40
1.0
 10
10.8525454327
 20
13.5828419515
 30
0.0
 10
10.8526343321
 20
13.5828673459
 30
0.0
 10
10.8528095279
 20
13.5827752884
 30
0.0
 10
10.8529919356
 20
13.5825959002
 30
0.0
 10
10.8531784323
 20
13.582367205
 30
0.0
 10
10.8533810208
 20
13.5820688269
 30
0.0
 10
10.8536043961
 20
13.5816974734
 30
0.0
 10
10.8538458406
 20
13.5812538056
 30
0.0
 10
10.8542120816
 20
13.5805239949
 30
0.0
 10
10.8546996742
 20
13.5794435992
 30
0.0
 10
10.855556908
 20
13.577368742
 30
0.0
 10
10.8561792017
 20
13.5756903906
 30
0.0
 10
10.8565971211
 20
13.574509735
 30
0.0
  0
SPLINE
  5
394
100
AcDbEntity
  8
0
100
AcDbSpline
 62
9
  6
CONTINUOUS
 70
0
 71
3
 72
17
 73
13
 74
0
 42
0.0000001
 43
0.0000001
 44
0.0000000001
 40
0.0
 40
0.0
 40
0.0
 40
0.0
 40
0.025560444
 40
0.0534292594
 40
0.0851057328
 40
0.1216003442
 40
0.2112827944
 40
0.3254810293
 40
0.4647441785
 40
0.626259142
 40
0.806071918
 40
1.0
 40
1.0
 40
1.0
 40
1.0
 10
11.0926923455
 20
13.5532326476
 30
0.0
 10
11.0926236047
 20
13.5532723351
 30
0.0
 10
11.0924662092
 20
13.5533330568
 30
0.0
 10
11.0922006408
 20
13.5533581046
 30
0.0
 10
11.0919028018
 20
13.5533222115
 30
0.0
 10
11.0914306778
 20
13.5531845068
 30
0.0
 10
11.0907623763
 20
13.5528394798
 30
0.0
 10
11.0898956059
 20
13.5522165913
 30
0.0
 10
11.0889297556
 20
13.5513608844
 30
0.0
 10
11.0878810532
 20
13.5502980763
 30
0.0
 10
11.086774546
 20
13.5490569444
 30
0.0
 10
11.0860382134
 20
13.5481594108
 30
0.0
 10
11.0856644875
 20
13.5476871831
 30
0.0
  0
SPLINE
  5
395
100
AcDbEntity
  8
0
100
AcDbSpline
 62
9
  6
CONTINUOUS
 70
0
 71
3
 72
17
 73
13
 74
0
 42
0.0000001
 43
0.0000001
 44
0.0000000001
 40
0.0
 40
0.0
 40
0.0
 40
0.0
 40
0.0254163286
 40
0.0531267145
 40
0.0846177135
 40
0.1209029446
 40
0.2101456999
 40
0.3239899265
 40
0.4631181666
 40
0.6247941602
 40
0.8051272493
 40
1.0
 40
1.0
 40
1.0
 40
1.0
 10
11.3726923322
 20
13.3915745799
 30
0.0
 10
11.3727606865
 20
13.3915351156
 30
0.0
 10
11.3728913137
 20
13.3914299237
 30
0.0
 10
11.3730454133
 20
13.3912140812
 30
0.0
 10
11.3731633114
 20
13.3909401004
 30
0.0
 10
11.3732807009
 20
13.3904651821
 30
0.0
 10
11.3733173141
 20
13.3897170519
 30
0.0
 10
11.373212814
 20
13.3886576758
 30
0.0
 10
11.3729558993
 20
13.3873941305
 30
0.0
 10
11.3725601985
 20
13.3859526319
 30
0.0
 10
11.3720375444
 20
13.384368798
 30
0.0
 10
11.3716269227
 20
13.3832780271
 30
0.0
 10
11.3714037389
 20
13.3827155217
 30
0.0
  0
SPLINE
  5
396
100
AcDbEntity
  8
0
100
AcDbSpline
 62
9
  6
CONTINUOUS
 70
0
 71
3
 72
24
 73
20
 74
0
 42
0.0000001
 43
0.0000001
 44
0.0000000001
 40
0.0
 40
0.0
 40
0.0
 40
0.0
 40
0.0654119621
 40
0.1303051681
 40
0.1945822863
 40
0.2581776451
 40
0.3210405876
 40
0.3522005515
 40
0.383180954
 40
0.4446356907
 40
0.5055678233
 40
0.566254275
 40
0.6269267584
 40
0.6573550198
 40
0.6878802147
 40
0.7492504349
 40
0.8734823541
 40
0.9364877328
 40
1.0
 40
1.0
 40
1.0
 40
1.0
 10
10.8902857677
 20
12.2822301158
 30
0.0
 10
10.887828198
 20
12.2845044129
 30
0.0
 10
10.8828183985
 20
12.2889140787
 30
0.0
 10
10.874969136
 20
12.2950561729
 30
0.0
 10
10.8667995258
 20
12.3006067456
 30
0.0
 10
10.8582981638
 20
12.3054320681
 30
0.0
 10
10.8509323864
 20
12.3087606723
 30
0.0
 10
10.8449073931
 20
12.3109252369
 30
0.0
 10
10.8388362262
 20
12.3127167835
 30
0.0
 10
10.8311155593
 20
12.3142525748
 30
0.0
 10
10.821738666
 20
12.3149076851
 30
0.0
 10
10.8124017029
 20
12.3142539831
 30
0.0
 10
10.8047622528
 20
12.3127202131
 30
0.0
 10
10.798796302
 20
12.3109279324
 30
0.0
 10
10.7929149301
 20
12.3087687069
 30
0.0
 10
10.7828654873
 20
12.3040935574
 30
0.0
 10
10.7721712821
 20
12.2970639156
 30
0.0
 10
10.7622499514
 20
12.2889145837
 30
0.0
 10
10.7575009831
 20
12.2845037749
 30
0.0
 10
10.7551770286
 20
12.2822301158
 30
0.0
  0
SPLINE
  5
397
100
AcDbEntity
  8
0
100
AcDbSpline
 62
9
  6
CONTINUOUS
 70
0
 71
3
 72
17
 73
13
 74
0
 42
0.0000001
 43
0.0000001
 44
0.0000000001
 40
0.0
 40
0.0
 40
0.0
 40
0.0
 40
0.0295001553
 40
0.0532689018
 40
0.0841895793
 40
0.1225791307
 40
0.1685892682
 40
0.2222979652
 40
0.2837461668
 40
0.4290773646
 40
0.6003784411
 40
1.0
 40
1.0
 40
1.0
 40
1.0
 10
11.4332612954
 20
13.3458846748
 30
0.0
 10
11.4333277374
 20
13.3458203828
 30
0.0
 10
11.4333356111
 20
13.3456226301
 30
0.0
 10
11.4332714602
 20
13.3453749663
 30
0.0
 10
11.4331666527
 20
13.3450991078
 30
0.0
 10
11.433009544
 20
13.3447744719
 30
0.0
 10
11.43279963
 20
13.3443953465
 30
0.0
 10
11.4325361248
 20
13.3439644156
 30
0.0
 10
11.4320872106
 20
13.3432823362
 30
0.0
 10
11.4313953568
 20
13.3423198708
 30
0.0
 10
11.4300270947
 20
13.340540056
 30
0.0
 10
11.4288847465
 20
13.3391619581
 30
0.0
 10
11.4280712285
 20
13.3382097015
 30
0.0
  0
SPLINE
  5
398
100
AcDbEntity
  8
0
100
AcDbSpline
 62
9
  6
CONTINUOUS
 70
0
 71
3
 72
23
 73
19
 74
0
 42
0.0000001
 43
0.0000001
 44
0.0000000001
 40
0.0
 40
0.0
 40
0.0
 40
0.0
 40
0.0911726109
 40
0.1790918925
 40
0.2628777913
 40
0.3417505087
 40
0.4149934599
 40
0.4817625764
 40
0.5415566217
 40
0.5946187585
 40
0.6421030505
 40
0.6863020914
 40
0.730000568
 40
0.775721497
 40
0.8250483263
 40
0.878824545
 40
0.9372334916
 40
1.0
 40
1.0
 40
1.0
 40
1.0
 10
10.7551770312
 20
12.2822301091
 30
0.0
 10
10.7537148281
 20
12.2807998686
 30
0.0
 10
10.7507910897
 20
12.2780422827
 30
0.0
 10
10.746329394
 20
12.2741825015
 30
0.0
 10
10.7418928496
 20
12.2707253383
 30
0.0
 10
10.7375196076
 20
12.2677372889
 30
0.0
 10
10.7332561849
 20
12.2652886471
 30
0.0
 10
10.7291591604
 20
12.263446121
 30
0.0
 10
10.7252845127
 20
12.2622869775
 30
0.0
 10
10.721689927
 20
12.2618529423
 30
0.0
 10
10.7184275561
 20
12.2622060905
 30
0.0
 10
10.7155676482
 20
12.2633468492
 30
0.0
 10
10.7131894065
 20
12.2652341792
 30
0.0
 10
10.7112976356
 20
12.2677392419
 30
0.0
 10
10.7098511295
 20
12.2707671747
 30
0.0
 10
10.7088005483
 20
12.2742457351
 30
0.0
 10
10.7081014432
 20
12.2781142361
 30
0.0
 10
10.7078529339
 20
12.2808244059
 30
0.0
 10
10.7077704494
 20
12.282230109
 30
0.0
  0
SPLINE
  5
399
100
AcDbEntity
  8
0
100
AcDbSpline
 62
9
  6
CONTINUOUS
 70
0
 71
3
 72
11
 73
7
 74
0
 42
0.0000001
 43
0.0000001
 44
0.0000000001
 40
0.0
 40
0.0
 40
0.0
 40
0.0
 40
0.2240175255
 40
0.4680021652
 40
0.7280257552
 40
1.0
 40
1.0
 40
1.0
 40
1.0
 10
10.7551770289
 20
12.2822301161
 30
0.0
 10
10.7556819158
 20
12.2812039586
 30
0.0
 10
10.7568278386
 20
12.2791045841
 30
0.0
 10
10.758816101
 20
12.2759621513
 30
0.0
 10
10.7611174276
 20
12.272735442
 30
0.0
 10
10.762804585
 20
12.2706055058
 30
0.0
 10
10.7636923431
 20
12.2695379299
 30
0.0
  0
LINE
  5
39A
100
AcDbEntity
  8
0
100
AcDbLine
 62
9
  6
CONTINUOUS
 10
10.7057593965
 20
12.3146900094
 11
10.7071102303
 21
12.2932799461
  0
LINE
  5
39B
100
AcDbEntity
  8
0
100
AcDbLine
 62
9
  6
CONTINUOUS
 10
11.1684540951
 20
12.2962193253
 11
11.1696252886
 21
12.31469001
  0
SPLINE
  5
39C
100
AcDbEntity
  8
0
100
AcDbSpline
 62
9
  6
CONTINUOUS
 70
0
 71
3
 72
11
 73
7
 74
0
 42
0.0000001
 43
0.0000001
 44
0.0000000001
 40
0.0
 40
0.0
 40
0.0
 40
0.0
 40
0.2582524093
 40
0.5105754369
 40
0.7575218611
 40
1.0
 40
1.0
 40
1.0
 40
1.0
 10
10.7077704548
 20
12.2822300949
 30
0.0
 10
10.7071167503
 20
12.2812674838
 30
0.0
 10
10.7059538551
 20
12.2792722509
 30
0.0
 10
10.7046666216
 20
12.2760987137
 30
0.0
 10
10.703875667
 20
12.2728391569
 30
0.0
 10
10.7036923427
 20
12.2706304289
 30
0.0
 10
10.7036923427
 20
12.2695379087
 30
0.0
  0
SPLINE
  5
39D
100
AcDbEntity
  8
0
100
AcDbSpline
 62
9
  6
CONTINUOUS
 70
0
 71
3
 72
11
 73
7
 74
0
 42
0.0000001
 43
0.0000001
 44
0.0000000001
 40
0.0
 40
0.0
 40
0.0
 40
0.0
 40
0.2582524496
 40
0.5105754888
 40
0.7575218997
 40
1.0
 40
1.0
 40
1.0
 40
1.0
 10
11.1676142322
 20
12.2822301207
 30
0.0
 10
11.1682679366
 20
12.2812675094
 30
0.0
 10
11.1694308317
 20
12.2792722763
 30
0.0
 10
11.1707180647
 20
12.2760987388
 30
0.0
 10
11.1715090188
 20
12.2728391822
 30
0.0
 10
11.1716923428
 20
12.2706304545
 30
0.0
 10
11.1716923427
 20
12.2695379345
 30
0.0
  0
SPLINE
  5
39E
100
AcDbEntity
  8
0
100
AcDbSpline
 62
9
  6
CONTINUOUS
 70
0
 71
3
 72
16
 73
12
 74
0
 42
0.0000001
 43
0.0000001
 44
0.0000000001
 40
0.0
 40
0.0
 40
0.0
 40
0.0
 40
0.3536310783
 40
0.5084032208
 40
0.6460967751
 40
0.7652447919
 40
0.8645929186
 40
0.9064860067
 40
0.9430606528
 40
0.9742497346
 40
1.0
 40
1.0
 40
1.0
 40
1.0
 10
10.7636923427
 20
10.4318068755
 30
0.0
 10
10.7569340666
 20
10.4322112616
 30
0.0
 10
10.7472138075
 20
10.4327310342
 30
0.0
 10
10.73485309
 20
10.4332072795
 30
0.0
 10
10.7269751624
 20
10.433417166
 30
0.0
 10
10.7201559878
 20
10.4334942681
 30
0.0
 10
10.7151702975
 20
10.4334486355
 30
0.0
 10
10.7117677701
 20
10.4333326944
 30
0.0
 10
10.7096712853
 20
10.433217802
 30
0.0
 10
10.7078867562
 20
10.433070892
 30
0.0
 10
10.7068039704
 20
10.4329400815
 30
0.0
 10
10.7063167211
 20
10.4328650279
 30
0.0
  0
SPLINE
  5
39F
100
AcDbEntity
  8
0
100
AcDbSpline
 62
9
  6
CONTINUOUS
 70
0
 71
3
 72
15
 73
11
 74
0
 42
0.0000001
 43
0.0000001
 44
0.0000000001
 40
0.0
 40
0.0
 40
0.0
 40
0.0
 40
0.2107312611
 40
0.3950120115
 40
0.5531344113
 40
0.6856162906
 40
0.7934105611
 40
0.878387989
 40
0.9444953286
 40
1.0
 40
1.0
 40
1.0
 40
1.0
 10
10.7063167211
 20
10.4328650279
 30
0.0
 10
10.7061116158
 20
10.4328334345
 30
0.0
 10
10.7057279438
 20
10.4327687379
 30
0.0
 10
10.7051945559
 20
10.4326574096
 30
0.0
 10
10.7047419631
 20
10.4325385516
 30
0.0
 10
10.7043700378
 20
10.4324123744
 30
0.0
 10
10.7040778937
 20
10.4322789179
 30
0.0
 10
10.7038643129
 20
10.4321372251
 30
0.0
 10
10.7037260038
 20
10.4319825552
 30
0.0
 10
10.7036920676
 20
10.4318615478
 30
0.0
 10
10.7036923427
 20
10.4318068886
 30
0.0
  0
SPLINE
  5
3A0
100
AcDbEntity
  8
0
100
AcDbSpline
 62
9
  6
CONTINUOUS
 70
0
 71
3
 72
15
 73
11
 74
0
 42
0.0000001
 43
0.0000001
 44
0.0000000001
 40
0.0
 40
0.0
 40
0.0
 40
0.0
 40
0.0555469042
 40
0.1216739931
 40
0.2066544675
 40
0.3144418771
 40
0.446911416
 40
0.6050188049
 40
0.7892837997
 40
1.0
 40
1.0
 40
1.0
 40
1.0
 10
11.1716923427
 20
10.4318068875
 30
0.0
 10
11.171692604
 20
10.4318615908
 30
0.0
 10
11.1716586662
 20
10.4319826613
 30
0.0
 10
11.171520341
 20
10.4321374203
 30
0.0
 10
11.171306743
 20
10.4322791409
 30
0.0
 10
11.1710145956
 20
10.4324125871
 30
0.0
 10
11.1706426748
 20
10.4325387275
 30
0.0
 10
11.1701900914
 20
10.4326575347
 30
0.0
 10
11.169656714
 20
10.4327688086
 30
0.0
 10
11.1692730505
 20
10.4328334751
 30
0.0
 10
11.169067949
 20
10.4328650559
 30
0.0
  0
SPLINE
  5
3A1
100
AcDbEntity
  8
0
100
AcDbSpline
 62
9
  6
CONTINUOUS
 70
0
 71
3
 72
16
 73
12
 74
0
 42
0.0000001
 43
0.0000001
 44
0.0000000001
 40
0.0
 40
0.0
 40
0.0
 40
0.0
 40
0.0257499722
 40
0.0569390855
 40
0.0935139093
 40
0.1354071871
 40
0.2347554606
 40
0.3539033981
 40
0.491596825
 40
0.6463690427
 40
1.0
 40
1.0
 40
1.0
 40
1.0
 10
11.169067949
 20
10.4328650559
 30
0.0
 10
11.1685807011
 20
10.4329400805
 30
0.0
 10
11.1674979181
 20
10.4330708624
 30
0.0
 10
11.1657133917
 20
10.4332177772
 30
0.0
 10
11.1636169016
 20
10.4333326999
 30
0.0
 10
11.160214367
 20
10.4334486904
 30
0.0
 10
11.1552286727
 20
10.4334943408
 30
0.0
 10
11.1484095014
 20
10.4334171989
 30
0.0
 10
11.1405315811
 20
10.4332072106
 30
0.0
 10
11.1281708707
 20
10.4327310215
 30
0.0
 10
11.1184505891
 20
10.4322116552
 30
0.0
 10
11.1116923427
 20
10.4318068425
 30
0.0
  0
SPLINE
  5
3A2
100
AcDbEntity
  8
0
100
AcDbSpline
 62
9
  6
CONTINUOUS
 70
0
 71
3
 72
27
 73
23
 74
0
 42
0.0000001
 43
0.0000001
 44
0.0000000001
 40
0.0
 40
0.0
 40
0.0
 40
0.0
 40
0.0951732893
 40
0.1869313433
 40
0.2745169739
 40
0.3571620644
 40
0.4340399225
 40
0.4701165212
 40
0.5045256577
 40
0.5680754689
 40
0.624656596
 40
0.6505145595
 40
0.6748956469
 40
0.6980085936
 40
0.7201154142
 40
0.7622938961
 40
0.7830536952
 40
0.8039911473
 40
0.8473618301
 40
0.8940072033
 40
0.9447697747
 40
1.0
 40
1.0
 40
1.0
 40
1.0
 10
11.1116923427
 20
12.2695379296
 30
0.0
 10
11.1136933657
 20
12.2680559401
 30
0.0
 10
11.1176776383
 20
12.2652170564
 30
0.0
 10
11.1236944899
 20
12.2612909751
 30
0.0
 10
11.1296061515
 20
12.2578158133
 30
0.0
 10
11.1353545663
 20
12.2548486276
 30
0.0
 10
11.1400578286
 20
12.2528176291
 30
0.0
 10
11.1436877558
 20
12.2515144725
 30
0.0
 10
11.1470379397
 20
12.2504758431
 30
0.0
 10
11.1509888884
 20
12.2495692523
 30
0.0
 10
11.1548113594
 20
12.2492483818
 30
0.0
 10
11.1576070973
 20
12.2493568883
 30
0.0
 10
11.1595126397
 20
12.2496119995
 30
0.0
 10
11.1612835272
 20
12.2500555412
 30
0.0
 10
11.1634217416
 20
12.2508776501
 30
0.0
 10
11.1653390218
 20
12.2520628007
 30
0.0
 10
11.1669458888
 20
12.2535648266
 30
0.0
 10
11.1683687348
 20
12.2552835911
 30
0.0
 10
11.1697953296
 20
12.2578415225
 30
0.0
 10
11.1709321164
 20
12.2613631587
 30
0.0
 10
11.1715719629
 20
12.2653168622
 30
0.0
 10
11.1716923007
 20
12.2680929188
 30
0.0
 10
11.1716923427
 20
12.2695379296
 30
0.0
  0
SPLINE
  5
3A3
100
AcDbEntity
  8
0
100
AcDbSpline
 62
7
  6
CONTINUOUS
 70
0
 71
3
 72
15
 73
11
 74
0
 42
0.0000001
 43
0.0000001
 44
0.0000000001
 40
0.0
 40
0.0
 40
0.0
 40
0.0
 40
0.0856769768
 40
0.1823024906
 40
0.2917157695
 40
0.4141964891
 40
0.548566449
 40
0.6928208489
 40
0.8444510984
 40
1.0
 40
1.0
 40
1.0
 40
1.0
 10
11.0987572071
 20
10.3929260218
 30
0.0
 10
11.0998672327
 20
10.3934471132
 30
0.0
 10
11.1020524219
 20
10.3949466108
 30
0.0
 10
11.1048276821
 20
10.398105507
 30
0.0
 10
11.1072142588
 20
10.4021834298
 30
0.0
 10
11.1091603998
 20
10.4070675432
 30
0.0
 10
11.1106247365
 20
10.4126308664
 30
0.0
 10
11.1115647896
 20
10.4187267827
 30
0.0
 10
11.1119532427
 20
10.4251843355
 30
0.0
 10
11.1118415136
 20
10.4295855697
 30
0.0
 10
11.1116920855
 20
10.4318068428
 30
0.0
  0
SPLINE
  5
3A4
100
AcDbEntity
  8
0
100
AcDbSpline
 62
7
  6
CONTINUOUS
 70
0
 71
3
 72
15
 73
11
 74
0
 42
0.0000001
 43
0.0000001
 44
0.0000000001
 40
0.0
 40
0.0
 40
0.0
 40
0.0
 40
0.0876537822
 40
0.1871300324
 40
0.2991858341
 40
0.4233714337
 40
0.5580511064
 40
0.7009462879
 40
0.8494147935
 40
1.0
 40
1.0
 40
1.0
 40
1.0
 10
10.9795271119
 20
10.3929266796
 30
0.0
 10
10.9807193123
 20
10.3934530925
 30
0.0
 10
10.9831016401
 20
10.394955649
 30
0.0
 10
10.9862850918
 20
10.3980960564
 30
0.0
 10
10.9892149898
 20
10.4021609684
 30
0.0
 10
10.9918185418
 20
10.4070375817
 30
0.0
 10
10.9940335223
 20
10.4125966554
 30
0.0
 10
10.9957966157
 20
10.4186903577
 30
0.0
 10
10.9970569208
 20
10.4251471255
 30
0.0
 10
10.997542092
 20
10.4295730847
 30
0.0
 10
10.9976923454
 20
10.4318069559
 30
0.0
  0
SPLINE
  5
3A5
100
AcDbEntity
  8
0
100
AcDbSpline
 62
9
  6
CONTINUOUS
 70
0
 71
3
 72
21
 73
17
 74
0
 42
0.0000001
 43
0.0000001
 44
0.0000000001
 40
0.0
 40
0.0
 40
0.0
 40
0.0
 40
0.0658625092
 40
0.1309330568
 40
0.2578575633
 40
0.3198231239
 40
0.3806874664
 40
0.4406433607
 40
0.5000291456
 40
0.5594058698
 40
0.6193390012
 40
0.6801727415
 40
0.7421134287
 40
0.8690425152
 40
0.9341278958
 40
1.0
 40
1.0
 40
1.0
 40
1.0
 10
10.9976923428
 20
12.2695379297
 30
0.0
 10
10.9996773864
 20
12.2717390356
 30
0.0
 10
11.0037222665
 20
12.2760289228
 30
0.0
 10
11.0121450335
 20
12.284013677
 30
0.0
 10
11.0212521067
 20
12.2910260021
 30
0.0
 10
11.0310973165
 20
12.2964903961
 30
0.0
 10
11.0387403852
 20
12.2995983254
 30
0.0
 10
11.0466453739
 20
12.3015426724
 30
0.0
 10
11.0546959711
 20
12.3022246387
 30
0.0
 10
11.0627454283
 20
12.30154148
 30
0.0
 10
11.0706474222
 20
12.2995970234
 30
0.0
 10
11.0782874343
 20
12.2964910616
 30
0.0
 10
11.0881309632
 20
12.2910282639
 30
0.0
 10
11.097237247
 20
12.2840152612
 30
0.0
 10
11.1056610232
 20
12.2760297168
 30
0.0
 10
11.1097068736
 20
12.2717392333
 30
0.0
 10
11.1116923427
 20
12.2695379296
 30
0.0
  0
SPLINE
  5
3A6
100
AcDbEntity
  8
0
100
AcDbSpline
 62
9
  6
CONTINUOUS
 70
0
 71
3
 72
13
 73
9
 74
0
 42
0.0000001
 43
0.0000001
 44
0.0000000001
 40
0.0
 40
0.0
 40
0.0
 40
0.0
 40
0.1172952133
 40
0.2412156817
 40
0.5000000015
 40
0.7587843205
 40
0.8827047878
 40
1.0
 40
1.0
 40
1.0
 40
1.0
 10
10.9976923428
 20
10.4318068688
 30
0.0
 10
10.9930065553
 20
10.4320876313
 30
0.0
 10
10.983364789
 20
10.4325752315
 30
0.0
 10
10.9633661584
 20
10.4332721805
 30
0.0
 10
10.9376923429
 20
10.4336089919
 30
0.0
 10
10.9120185274
 20
10.4332721881
 30
0.0
 10
10.8920198966
 20
10.432575248
 30
0.0
 10
10.8823781301
 20
10.4320876517
 30
0.0
 10
10.8776923427
 20
10.4318068892
 30
0.0
  0
SPLINE
  5
3A7
100
AcDbEntity
  8
0
100
AcDbSpline
 62
9
  6
CONTINUOUS
 70
0
 71
3
 72
24
 73
20
 74
0
 42
0.0000001
 43
0.0000001
 44
0.0000000001
 40
0.0
 40
0.0
 40
0.0
 40
0.0
 40
0.1196355417
 40
0.2431855217
 40
0.2747010181
 40
0.3064348829
 40
0.3383685382
 40
0.3704797194
 40
0.4027328722
 40
0.4350940207
 40
0.500006398
 40
0.564918304
 40
0.5972796554
 40
0.6295328702
 40
0.661643498
 40
0.6935767957
 40
0.7568131626
 40
0.8803631138
 40
1.0
 40
1.0
 40
1.0
 40
1.0
 10
10.8776923427
 20
12.2695379296
 30
0.0
 10
10.8818187853
 20
12.2664819084
 30
0.0
 10
10.8906589572
 20
12.2608576419
 30
0.0
 10
10.9014841247
 20
12.2560533412
 30
0.0
 10
10.909104156
 20
12.2535554919
 30
0.0
 10
10.9130371041
 20
12.2524453279
 30
0.0
 10
10.917036835
 20
12.2514910532
 30
0.0
 10
10.9210937615
 20
12.2506947493
 30
0.0
 10
10.9251988003
 20
12.2500662601
 30
0.0
 10
10.9307280236
 20
12.2494711
 30
0.0
 10
10.9376923013
 20
12.2491947648
 30
0.0
 10
10.9446565116
 20
12.249471948
 30
0.0
 10
10.9501857742
 20
12.2500665045
 30
0.0
 10
10.9542909787
 20
12.2506937818
 30
0.0
 10
10.9583480226
 20
12.2514894612
 30
0.0
 10
10.9636630735
 20
12.2527581002
 30
0.0
 10
10.9726521032
 20
12.2554995871
 30
0.0
 10
10.9847249847
 20
12.2608572625
 30
0.0
 10
10.9935659169
 20
12.2664817889
 30
0.0
 10
10.9976923428
 20
12.2695379297
 30
0.0
  0
SPLINE
  5
3A8
100
AcDbEntity
  8
0
100
AcDbSpline
 62
7
  6
CONTINUOUS
 70
0
 71
3
 72
15
 73
11
 74
0
 42
0.0000001
 43
0.0000001
 44
0.0000000001
 40
0.0
 40
0.0
 40
0.0
 40
0.0
 40
0.0876541391
 40
0.1871303021
 40
0.2991864064
 40
0.4233722352
 40
0.5580520066
 40
0.700947125
 40
0.849415334
 40
1.0
 40
1.0
 40
1.0
 40
1.0
 10
10.8958577043
 20
10.392926083
 30
0.0
 10
10.8946654881
 20
10.3934525047
 30
0.0
 10
10.8922831474
 20
10.3949551075
 30
0.0
 10
10.8890997085
 20
10.3980955997
 30
0.0
 10
10.8861698023
 20
10.4021605732
 30
0.0
 10
10.8835662571
 20
10.4070372635
 30
0.0
 10
10.8813512956
 20
10.412596412
 30
0.0
 10
10.8795882268
 20
10.4186901825
 30
0.0
 10
10.8783279593
 20
10.4251470101
 30
0.0
 10
10.8778428143
 20
10.4295730034
 30
0.0
 10
10.8776925709
 20
10.4318068893
 30
0.0
  0
SPLINE
  5
3A9
100
AcDbEntity
  8
0
100
AcDbSpline
 62
9
  6
CONTINUOUS
 70
0
 71
3
 72
9
 73
5
 74
0
 42
0.0000001
 43
0.0000001
 44
0.0000000001
 40
0.0
 40
0.0
 40
0.0
 40
0.0
 40
0.5075186471
 40
1.0
 40
1.0
 40
1.0
 40
1.0
 10
10.9850989228
 20
12.2822301205
 30
0.0
 10
10.9874011795
 20
12.280264248
 30
0.0
 10
10.9917742498
 20
12.2761970272
 30
0.0
 10
10.995814049
 20
12.2717966889
 30
0.0
 10
10.997692349
 20
12.2695379342
 30
0.0
  0
SPLINE
  5
3AA
100
AcDbEntity
  8
0
100
AcDbSpline
 62
9
  6
CONTINUOUS
 70
0
 71
3
 72
11
 73
7
 74
0
 42
0.0000001
 43
0.0000001
 44
0.0000000001
 40
0.0
 40
0.0
 40
0.0
 40
0.0
 40
0.2240175168
 40
0.4680021538
 40
0.7280257468
 40
1.0
 40
1.0
 40
1.0
 40
1.0
 10
11.12020767
 20
12.282230103
 30
0.0
 10
11.119702783
 20
12.2812039455
 30
0.0
 10
11.1185568601
 20
12.279104571
 30
0.0
 10
11.1165685973
 20
12.2759621382
 30
0.0
 10
11.1142672703
 20
12.2727354289
 30
0.0
 10
11.1125801126
 20
12.2706054927
 30
0.0
 10
11.1116923543
 20
12.2695379167
 30
0.0
  0
SPLINE
  5
3AB
100
AcDbEntity
  8
0
100
AcDbSpline
 62
9
  6
CONTINUOUS
 70
0
 71
3
 72
25
 73
21
 74
0
 42
0.0000001
 43
0.0000001
 44
0.0000000001
 40
0.0
 40
0.0
 40
0.0
 40
0.0
 40
0.0951717925
 40
0.1869327328
 40
0.2745184483
 40
0.3571614854
 40
0.4340651058
 40
0.5045272179
 40
0.5680807905
 40
0.6246722287
 40
0.6748678302
 40
0.7200098542
 40
0.7413608216
 40
0.7622727525
 40
0.7830602401
 40
0.8040176683
 40
0.8473883829
 40
0.8940263042
 40
0.9447918199
 40
1.0
 40
1.0
 40
1.0
 40
1.0
 10
10.7636923427
 20
12.2695379296
 30
0.0
 10
10.7616902362
 20
12.2680575755
 30
0.0
 10
10.7577056024
 20
12.265219451
 30
0.0
 10
10.7516893284
 20
12.2612927317
 30
0.0
 10
10.7457774982
 20
12.2578180834
 30
0.0
 10
10.7400269192
 20
12.2548538807
 30
0.0
 10
10.7345010706
 20
12.2524575222
 30
0.0
 10
10.729267806
 20
12.2506829634
 30
0.0
 10
10.724394065
 20
12.249575577
 30
0.0
 10
10.719938977
 20
12.2491704373
 30
0.0
 10
10.7159532925
 20
12.2494907897
 30
0.0
 10
10.7130041388
 20
12.2503951638
 30
0.0
 10
10.7109827272
 20
12.2514768402
 30
0.0
 10
10.7096384056
 20
12.2524411179
 30
0.0
 10
10.7084391868
 20
12.2535655375
 30
0.0
 10
10.7070172863
 20
12.2552861453
 30
0.0
 10
10.7055895193
 20
12.2578436975
 30
0.0
 10
10.7044526381
 20
12.2613651647
 30
0.0
 10
10.7038128672
 20
12.2653180467
 30
0.0
 10
10.7036923479
 20
12.2680935319
 30
0.0
 10
10.7036923427
 20
12.2695379296
 30
0.0
  0
SPLINE
  5
3AC
100
AcDbEntity
  8
0
100
AcDbSpline
 62
9
  6
CONTINUOUS
 70
0
 71
3
 72
17
 73
13
 74
0
 42
0.0000001
 43
0.0000001
 44
0.0000000001
 40
0.0
 40
0.0
 40
0.0
 40
0.0
 40
0.0295001287
 40
0.0532688781
 40
0.084189566
 40
0.1225791334
 40
0.1685892909
 40
0.2222980104
 40
0.2837462355
 40
0.4290774766
 40
0.600378572
 40
1.0
 40
1.0
 40
1.0
 40
1.0
 10
11.5184082004
 20
13.1984059213
 30
0.0
 10
11.5183857429
 20
13.198495608
 30
0.0
 10
11.5182184201
 20
13.1986013033
 30
0.0
 10
11.5179718607
 20
13.1986695788
 30
0.0
 10
11.5176805553
 20
13.1987167419
 30
0.0
 10
11.5173208566
 20
13.1987429995
 30
0.0
 10
11.5168875656
 20
13.1987507712
 30
0.0
 10
11.5163826139
 20
13.198738034
 30
0.0
 10
11.5155674556
 20
13.198690302
 30
0.0
 10
11.5143880049
 20
13.1985723707
 30
0.0
 10
11.5121625015
 20
13.1982773264
 30
0.0
 10
11.5103978539
 20
13.1979770712
 30
0.0
 10
11.5091664127
 20
13.1977486711
 30
0.0
  0
SPLINE
  5
3AD
100
AcDbEntity
  8
0
100
AcDbSpline
 62
9
  6
CONTINUOUS
 70
0
 71
3
 72
13
 73
9
 74
0
 42
0.0000001
 43
0.0000001
 44
0.0000000001
 40
0.0
 40
0.0
 40
0.0
 40
0.0
 40
0.1247850601
 40
0.2497741094
 40
0.3748981203
 40
0.5000931233
 40
0.7503130325
 40
1.0
 40
1.0
 40
1.0
 40
1.0
 10
11.4280718037
 20
13.3382103854
 30
0.0
 10
11.4330202872
 20
13.3334949197
 30
0.0
 10
11.4425893225
 20
13.3236964093
 30
0.0
 10
11.4558657028
 20
13.3080077227
 30
0.0
 10
11.4680083337
 20
13.291395726
 30
0.0
 10
11.4825773404
 20
13.268144394
 30
0.0
 10
11.4975718964
 20
13.2372252349
 30
0.0
 10
11.5059467653
 20
13.2110414962
 30
0.0
 10
11.5091673304
 20
13.1977488129
 30
0.0
  0
LINE
  5
3AE
100
AcDbEntity
  8
0
100
AcDbLine
 62
9
  6
CONTINUOUS
 10
11.3714037494
 20
12.5401817312
 11
11.3684536834
 21
12.5383784703
  0
SPLINE
  5
3AF
100
AcDbEntity
  8
0
100
AcDbSpline
 62
9
  6
CONTINUOUS
 70
0
 71
3
 72
12
 73
8
 74
0
 42
0.0000001
 43
0.0000001
 44
0.0000000001
 40
0.0
 40
0.0
 40
0.0
 40
0.0
 40
0.2481062593
 40
0.4984854782
 40
0.624161084
 40
0.7498221906
 40
1.0
 40
1.0
 40
1.0
 40
1.0
 10
11.3684536834
 20
12.5383784703
 30
0.0
 10
11.3497381821
 20
12.5269440824
 30
0.0
 10
11.3120385092
 20
12.5041291036
 30
0.0
 10
11.2645515009
 20
12.4760340364
 30
0.0
 10
11.2261917688
 20
12.4537735759
 30
0.0
 10
11.1877192703
 20
12.4317444896
 30
0.0
 10
11.1587517227
 20
12.4154740795
 30
0.0
 10
11.139415492
 20
12.404741356
 30
0.0
  0
ENDSEC
  0
SECTION
  2
OBJECTS
  0
DICTIONARY
  5
C
100
AcDbDictionary
280
0
281
1
  3
ACAD_GROUP
350
D
  3
ACAD_MLINESTYLE
350
17
  3
ACAD_LAYOUT
350
1A
  3
ACAD_PLOTSETTINGS
350
19
  3
ACAD_PLOTSTYLENAME
350
E
  0
DICTIONARY
  5
D
102
{ACAD_REACTORS
330
C
102
}
100
AcDbDictionary
280
0
281
1
  0
ACDBDICTIONARYWDFLT
  5
E
102
{ACAD_REACTORS
330
C
102
}
100
AcDbDictionary
281
1
  3
Normal
350
F
100
AcDbDictionaryWithDefault
340
F
  0
DICTIONARY
  5
17
102
{ACAD_REACTORS
330
C
102
}
100
AcDbDictionary
280
0
281
1
  3
Standard
350
18
  0
DICTIONARY
  5
19
102
{ACAD_REACTORS
330
C
102
}
100
AcDbDictionary
281
1
  0
DICTIONARY
  5
1A
102
{ACAD_REACTORS
330
C
102
}
100
AcDbDictionary
281
1
  3
Model
350
3B0
  3
Layout1
350
3B1
  0
ACDBPLACEHOLDER
  5
F
102
{ACAD_REACTORS
330
E
102
}
  0
MLINESTYLE
  5
18
102
{ACAD_REACTORS
330
17
102
}
100
AcDbMlineStyle
  2
STANDARD
 70
0
  3

 62
256
 51
90.0
 52
90.0
 71
2
 49
0.5
 62
256
  6
BYLAYER
 49
-0.5
 62
256
  6
BYLAYER
  0
LAYOUT
  5
3B0
102
{ACAD_REACTORS
330
1A
102
}
100
AcDbPlotSettings
  1

  2
none_device
  4
ANSI_C_(22.00_x_17.00_Inches)
  6

 40
0.0
 41
0.0
 42
0.0
 43
0.0
 44
558.8
 45
431.8
 46
0.0
 47
0.0
 48
0.0
 49
0.0
140
0.0
141
0.0
142
1.0
143
1.0
 70
1024
 72
0
 73
0
 74
0
  7

 75
0
147
1.0
148
0.0
149
0.0
100
AcDbLayout
  1
Model
 70
0
 71
0
 10
0.0
 20
0.0
 11
22.0
 21
17.0
 12
0.0
 22
0.0
 32
0.0
 14
0.0
 24
0.0
 34
0.0
 15
0.0
 25
0.0
 35
0.0
146
0.0
 13
0.0
 23
0.0
 33
0.0
 16
1.0
 26
0.0
 36
0.0
 17
0.0
 27
1.0
 37
0.0
 76
0
330
202
345
0
346
0
  0
LAYOUT
  5
3B1
102
{ACAD_REACTORS
330
1A
102
}
100
AcDbPlotSettings
  1

  2
none_device
  4
ANSI_C_(22.00_x_17.00_Inches)
  6

 40
0.0
 41
0.0
 42
0.0
 43
0.0
 44
558.8
 45
431.8
 46
0.0
 47
0.0
 48
0.0
 49
0.0
140
0.0
141
0.0
142
1.0
143
1.0
 70
0
 72
0
 73
0
 74
0
  7

 75
0
147
1.0
148
0.0
149
0.0
100
AcDbLayout
  1
Layout1
 70
0
 71
1
 10
0.0
 20
0.0
 11
22.0
 21
17.0
 12
0.0
 22
0.0
 32
0.0
 14
0.0
 24
0.0
 34
0.0
 15
0.0
 25
0.0
 35
0.0
146
0.0
 13
0.0
 23
0.0
 33
0.0
 16
1.0
 26
0.0
 36
0.0
 17
0.0
 27
1.0
 37
0.0
 76
0
330
203
345
0
346
0
  0
ENDSEC
  0
EOF
