999
DXF file: E:\BT Custom\CADOUTPUT\_RIGHT.dxf
999
Pro/ENGINEER 2018400 by Parametric Technology Corporation
  0
SECTION
  2
HEADER
  9
$ACADVER
  1
AC1018
  9
$DWGCODEPAGE
  3
ANSI_1252
  9
$EXTMAX
 10
22.0
 20
17.0
 30
0.0
  9
$EXTMIN
 10
0.0
 20
0.0
 30
0.0
  9
$LIMMIN
 10
0.0
 20
0.0
  9
$LIMMAX
 10
22.0
 20
17.0
  9
$VIEWCTR
 10
11.0
 20
8.5
  9
$VIEWSIZE
 40
17.0
  9
$CLAYER
  8
0
  9
$LTSCALE
 40
1.21
  9
$CELTYPE
  6
BYLAYER
  9
$DIMSCALE
 40
1.0
  9
$DIMASZ
 40
0.1
  9
$DIMEXO
 40
0.0625
  9
$DIMDLI
 40
0.836
  9
$DIMEXE
 40
0.125
  9
$DIMCEN
 40
0.198
  9
$DIMLFAC
 40
1.0
  9
$DIMBLK
  1
_FILLED
  9
$DIMALT
 70
1
  9
$DIMALTD
 70
2
  9
$DIMALTTD
 70
2
  9
$DIMALTF
 40
25.4
  9
$DIMTXT
 40
0.08
  9
$DIMTOL
 70
1
  9
$DIMLIM
 70
0
  9
$DIMTFAC
 40
1.0
  9
$DIMTP
 40
0.001
  9
$DIMTM
 40
0.001
  9
$DIMGAP
 40
0.09
  9
$DIMDSEP
 70
46
  9
$AUNITS
 70
0
  9
$PDMODE
 70
3
  9
$PDSIZE
 40
0.06
  9
$HANDSEED
  5
472
  9
$TILEMODE
 70
1
  9
$MEASUREMENT
 70
0
  9
$INSUNITS
 70
1
  0
ENDSEC
  0
SECTION
  2
CLASSES
  0
CLASS
  1
ACDBDICTIONARYWDFLT
  2
AcDbDictionaryWithDefault
  3
AutoCAD 2000
 90
0
 91
1
280
0
281
0
  0
CLASS
  1
ACDBPLACEHOLDER
  2
AcDbPlaceHolder
  3
AutoCAD 2000
 90
0
 91
1
280
0
281
0
  0
CLASS
  1
LAYOUT
  2
AcDbLayout
  3
AutoCAD 2000
 90
0
 91
0
280
0
281
0
  0
ENDSEC
  0
SECTION
  2
TABLES
  0
TABLE
  2
VPORT
  5
8
100
AcDbSymbolTable
 70
2
  0
VPORT
  5
1F4
100
AcDbSymbolTableRecord
100
AcDbViewportTableRecord
  2
*ACTIVE
 70
0
 10
0.0
 20
0.0
 11
1.0
 21
1.0
 12
11.0
 22
8.5
 13
0.0
 23
0.0
 14
1.0
 24
1.0
 15
0.0
 25
0.0
 16
0.0
 26
0.0
 36
1.0
 17
0.0
 27
0.0
 37
0.0
 40
17.0
 41
1.2941176471
 42
50.0
 43
0.0
 44
0.0
 50
0.0
 51
0.0
 71
0
 72
100
 73
1
 74
1
 75
0
 76
0
 77
0
 78
0
  0
ENDTAB
  0
TABLE
  2
LTYPE
  5
5
100
AcDbSymbolTable
 70
6
  0
LTYPE
  5
14
100
AcDbSymbolTableRecord
100
AcDbLinetypeTableRecord
  2
BYBLOCK
 70
0
  3

 72
65
 73
0
 40
0.0
  0
LTYPE
  5
15
100
AcDbSymbolTableRecord
100
AcDbLinetypeTableRecord
  2
BYLAYER
 70
0
  3

 72
65
 73
0
 40
0.0
  0
LTYPE
  5
16
100
AcDbSymbolTableRecord
100
AcDbLinetypeTableRecord
  2
CONTINUOUS
 70
64
  3
Solid line
 72
65
 73
0
 40
0.0
  0
LTYPE
  5
1F5
100
AcDbSymbolTableRecord
100
AcDbLinetypeTableRecord
  2
CENTER
 70
64
  3
____ _ ____ _ ____ _ ____ _ ____ _ ____ _ ____
 72
65
 73
4
 40
0.6
 49
0.375
 74
0
 49
-0.075
 74
0
 49
0.075
 74
0
 49
-0.075
 74
0
  0
LTYPE
  5
1F6
100
AcDbSymbolTableRecord
100
AcDbLinetypeTableRecord
  2
HIDDEN
 70
64
  3
- - - - - - - - - - - - - - - - - - - -
 72
65
 73
2
 40
0.2
 49
0.1
 74
0
 49
-0.1
 74
0
  0
LTYPE
  5
1F7
100
AcDbSymbolTableRecord
100
AcDbLinetypeTableRecord
  2
PHANTOM
 70
64
  3
_____ _ _ _____ _ _ _____ _ _ _____
 72
65
 73
6
 40
0.8
 49
0.45
 74
0
 49
-0.05
 74
0
 49
0.1
 74
0
 49
-0.05
 74
0
 49
0.1
 74
0
 49
-0.05
 74
0
  0
LTYPE
  5
1F8
100
AcDbSymbolTableRecord
100
AcDbLinetypeTableRecord
  2
DOT
 70
64
  3
. . . . . . . . . . . . . . . . . . . .
 72
65
 73
2
 40
0.2
 49
0.1
 74
0
 49
-0.1
 74
0
  0
LTYPE
  5
1F9
100
AcDbSymbolTableRecord
100
AcDbLinetypeTableRecord
  2
DASHED
 70
64
  3
- - - - - - - - - - - - - - - - - - - -
 72
65
 73
2
 40
0.2
 49
0.1
 74
0
 49
-0.1
 74
0
  0
ENDTAB
  0
TABLE
  2
LAYER
  5
2
100
AcDbSymbolTable
 70
36
  0
LAYER
  5
10
100
AcDbSymbolTableRecord
100
AcDbLayerTableRecord
  2
0
 70
0
 62
7
  6
CONTINUOUS
370
-3
390
F
  0
LAYER
  5
1FA
100
AcDbSymbolTableRecord
100
AcDbLayerTableRecord
  2
DEFAULT_1
 70
0
 62
7
  6
CENTER
370
-3
390
F
  0
LAYER
  5
1FB
100
AcDbSymbolTableRecord
100
AcDbLayerTableRecord
  2
DEFAULT_2
 70
0
 62
8
  6
HIDDEN
370
-3
390
F
  0
LAYER
  5
1FC
100
AcDbSymbolTableRecord
100
AcDbLayerTableRecord
  2
DEFAULT_3
 70
0
 62
7
  6
PHANTOM
370
-3
390
F
  0
LAYER
  5
1FD
100
AcDbSymbolTableRecord
100
AcDbLayerTableRecord
  2
ALL_FEATURES
 70
0
 62
7
  6
CONTINUOUS
370
-3
390
F
  0
LAYER
  5
1FE
100
AcDbSymbolTableRecord
100
AcDbLayerTableRecord
  2
AXES_FEATURES
 70
0
 62
7
  6
CONTINUOUS
370
-3
390
F
  0
LAYER
  5
1FF
100
AcDbSymbolTableRecord
100
AcDbLayerTableRecord
  2
DIMENSIONS
 70
0
 62
7
  6
CONTINUOUS
370
-3
390
F
  0
ENDTAB
  0
TABLE
  2
STYLE
  5
3
100
AcDbSymbolTable
 70
1
  0
STYLE
  5
11
100
AcDbSymbolTableRecord
100
AcDbTextStyleTableRecord
  2
STANDARD
 70
0
 40
0.0
 41
0.8
 50
0.0
 71
0
 42
0.2
  3
txt
  4

  0
STYLE
  5
200
100
AcDbSymbolTableRecord
100
AcDbTextStyleTableRecord
  2
TEXTSTYLE_1
 70
0
 40
0.0
 41
0.8
 50
0.0
 71
0
 42
0.2
  3
gdt
  4

  0
ENDTAB
  0
TABLE
  2
VIEW
  5
6
100
AcDbSymbolTable
 70
0
  0
ENDTAB
  0
TABLE
  2
UCS
  5
7
100
AcDbSymbolTable
 70
0
  0
ENDTAB
  0
TABLE
  2
APPID
  5
9
100
AcDbSymbolTable
 70
1
  0
APPID
  5
201
100
AcDbSymbolTableRecord
100
AcDbRegAppTableRecord
  2
ACAD
 70
0
  0
ENDTAB
  0
TABLE
  2
BLOCK_RECORD
  5
1
100
AcDbSymbolTable
 70
0
  0
BLOCK_RECORD
  5
202
100
AcDbSymbolTableRecord
100
AcDbBlockTableRecord
  2
*Model_Space
  0
BLOCK_RECORD
  5
203
100
AcDbSymbolTableRecord
100
AcDbBlockTableRecord
  2
*Paper_Space
  0
BLOCK_RECORD
  5
204
100
AcDbSymbolTableRecord
100
AcDbBlockTableRecord
  2
_FILLED
  0
ENDTAB
  0
TABLE
  2
DIMSTYLE
  5
A
100
AcDbSymbolTable
 70
1
100
AcDbDimStyleTable
 71
0
  0
DIMSTYLE
105
205
100
AcDbSymbolTableRecord
100
AcDbDimStyleTableRecord
  2
STANDARD
 70
0
  3

  4

 40
1.0
 41
0.1
 42
0.0625
 43
0.38
 44
0.125
 45
0.0
 46
0.0
 47
0.001
 48
0.001
140
0.08
141
0.09
142
0.0
143
25.4
144
1.0
145
0.0
146
1.0
147
0.09
 71
1.0
 72
0.0
 73
1
 74
1
 75
0
 76
0
 77
0
 78
4
 79
1
170
1
171
2
172
0
173
0
174
0
175
0
176
0
177
0
178
0
270
2
179
3
271
3
272
3
273
2
274
2
275
0
280
0
281
0
282
0
283
1
284
4
285
0
286
0
287
3
288
0
340
11
278
46
341
204
342
204
343
204
344
204
  0
ENDTAB
  0
ENDSEC
  0
SECTION
  2
BLOCKS
  0
BLOCK
  5
20
100
AcDbEntity
  8
0
100
AcDbBlockBegin
  2
*Model_Space
 70
0
 10
0.0
 20
0.0
 30
0.0
  3
*Model_Space
  1

  0
ENDBLK
  5
21
100
AcDbEntity
  8
0
100
AcDbBlockEnd
  0
BLOCK
  5
1C
100
AcDbEntity
  8
0
100
AcDbBlockBegin
  2
*Paper_Space
 70
0
 10
0.0
 20
0.0
 30
0.0
  3
*Paper_Space
  1

  0
ENDBLK
  5
1D
100
AcDbEntity
  8
0
100
AcDbBlockEnd
  0
BLOCK
  5
206
100
AcDbEntity
  8
0
100
AcDbBlockBegin
  2
_FILLED
 70
64
 10
0.0
 20
0.0
  3
_FILLED
  1

  0
SOLID
  5
207
100
AcDbEntity
  8
0
  6
BYBLOCK
 62
0
100
AcDbTrace
 10
0.0
 20
0.0
 11
-1.0
 21
0.2
 12
-1.0
 22
-0.2
 13
-1.0
 23
-0.2
  0
ENDBLK
  5
208
100
AcDbEntity
  8
0
  6
BYBLOCK
 62
0
100
AcDbBlockEnd
  0
ENDSEC
  0
SECTION
  2
ENTITIES
  0
LINE
  5
209
100
AcDbEntity
  8
0
100
AcDbLine
 62
7
  6
CONTINUOUS
 10
-3.0120191039
 20
13.1036709252
 11
-3.0120191039
 21
12.303674304
  0
LINE
  5
20A
100
AcDbEntity
  8
0
100
AcDbLine
 62
7
  6
CONTINUOUS
 10
-2.9120191039
 20
13.1036709252
 11
-2.9120191039
 21
12.3036709252
  0
LINE
  5
20B
100
AcDbEntity
  8
0
100
AcDbLine
 62
7
  6
CONTINUOUS
 10
-2.6986549652
 20
10.1756961459
 11
-2.6986549652
 21
11.9915278394
  0
LINE
  5
20C
100
AcDbEntity
  8
0
100
AcDbLine
 62
9
  6
CONTINUOUS
 10
-2.6825780136
 20
12.0117602316
 11
-2.6825780137
 21
10.1740292382
  0
LWPOLYLINE
  5
20D
100
AcDbEntity
  8
0
100
AcDbPolyline
 62
7
  6
CONTINUOUS
 90
3
 70
0
 10
-2.6965850442
 20
12.0042107409
 10
-2.6977368463
 20
12.0000254449
 10
-2.6986505085
 20
11.9915278383
  0
LINE
  5
20E
100
AcDbEntity
  8
0
100
AcDbLine
 62
7
  6
CONTINUOUS
 10
-2.6161417048
 20
12.2446326458
 11
-2.6965856778
 21
12.0042109533
  0
LWPOLYLINE
  5
20F
100
AcDbEntity
  8
0
100
AcDbPolyline
 62
7
  6
CONTINUOUS
 90
3
 70
0
 10
-2.1953876992
 20
11.9915278383
 10
-2.1963013614
 20
12.0000254448
 10
-2.1974531635
 20
12.0042107409
  0
LINE
  5
210
100
AcDbEntity
  8
0
100
AcDbLine
 62
7
  6
CONTINUOUS
 10
-2.3781814609
 20
10.1351490374
 11
-2.3812011693
 21
10.1740291902
  0
LINE
  5
211
100
AcDbEntity
  8
0
100
AcDbLine
 62
9
  6
CONTINUOUS
 10
-2.616760083
 20
10.1740292461
 11
-2.616760083
 21
12.0117602315
  0
LINE
  5
212
100
AcDbEntity
  8
0
100
AcDbLine
 62
9
  6
CONTINUOUS
 10
-2.5128370345
 20
12.0117602316
 11
-2.5128370345
 21
10.1740292555
  0
LINE
  5
213
100
AcDbEntity
  8
0
100
AcDbLine
 62
9
  6
CONTINUOUS
 10
-2.447019105
 20
12.3690213315
 11
-2.4470191047
 21
12.2971436425
  0
LINE
  5
214
100
AcDbEntity
  8
0
100
AcDbLine
 62
9
  6
CONTINUOUS
 10
-2.4470190865
 20
12.0569123109
 11
-2.4470190894
 21
12.044220125
  0
LINE
  5
215
100
AcDbEntity
  8
0
100
AcDbLine
 62
9
  6
CONTINUOUS
 10
-2.3812011732
 20
10.1740292574
 11
-2.3812011732
 21
12.0117602315
  0
LINE
  5
216
100
AcDbEntity
  8
0
100
AcDbLine
 62
9
  6
CONTINUOUS
 10
-2.2772781247
 20
12.0117602315
 11
-2.2772781247
 21
10.1740292401
  0
LINE
  5
217
100
AcDbEntity
  8
0
100
AcDbLine
 62
9
  6
CONTINUOUS
 10
-2.2114601941
 20
10.1740292401
 11
-2.211460194
 21
12.0117602315
  0
LINE
  5
218
100
AcDbEntity
  8
0
100
AcDbLine
 62
7
  6
CONTINUOUS
 10
-2.1953832425
 20
10.1756961458
 11
-2.1953832425
 21
11.9915278394
  0
LINE
  5
219
100
AcDbEntity
  8
0
100
AcDbLine
 62
9
  6
CONTINUOUS
 10
-1.9643883202
 20
12.3236709252
 11
-1.9643883202
 21
13.0836709252
  0
LINE
  5
21A
100
AcDbEntity
  8
0
100
AcDbLine
 62
9
  6
CONTINUOUS
 10
-1.9049691048
 20
12.2719990009
 11
-1.9049691048
 21
13.1353428495
  0
LINE
  5
21B
100
AcDbEntity
  8
0
100
AcDbLine
 62
9
  6
CONTINUOUS
 10
-1.9020017922
 20
13.1560091547
 11
-1.9020017922
 21
12.2513326956
  0
LINE
  5
21C
100
AcDbEntity
  8
0
100
AcDbLine
 62
9
  6
CONTINUOUS
 10
-1.8646435416
 20
13.1901298474
 11
-1.8646435416
 21
12.217212003
  0
LINE
  5
21D
100
AcDbEntity
  8
0
100
AcDbLine
 62
9
  6
CONTINUOUS
 10
-1.6870191039
 20
12.196352072
 11
-1.6870191039
 21
13.2109897783
  0
LINE
  5
21E
100
AcDbEntity
  8
0
100
AcDbLine
 62
7
  6
CONTINUOUS
 10
-2.5158567472
 20
10.1351490196
 11
-2.5128370345
 21
10.1740292555
  0
LINE
  5
21F
100
AcDbEntity
  8
0
100
AcDbLine
 62
7
  6
CONTINUOUS
 10
-1.5070191039
 20
13.3220723497
 11
-1.5027334823
 21
13.3284065506
  0
LINE
  5
220
100
AcDbEntity
  8
0
100
AcDbLine
 62
9
  6
CONTINUOUS
 10
-1.6070191039
 20
12.1711983604
 11
-1.6070191039
 21
13.23614349
  0
LINE
  5
221
100
AcDbEntity
  8
0
100
AcDbLine
 62
9
  6
CONTINUOUS
 10
-1.5070191039
 20
12.0852695006
 11
-1.5070191039
 21
12.0906098441
  0
LINE
  5
222
100
AcDbEntity
  8
0
100
AcDbLine
 62
9
  6
CONTINUOUS
 10
-1.5070191039
 20
12.3269098745
 11
-1.5070191039
 21
12.4673708948
  0
LINE
  5
223
100
AcDbEntity
  8
0
100
AcDbLine
 62
9
  6
CONTINUOUS
 10
-1.5070191039
 20
12.9399709555
 11
-1.5070191039
 21
13.0804319759
  0
LINE
  5
224
100
AcDbEntity
  8
0
100
AcDbLine
 62
9
  6
CONTINUOUS
 10
-1.5070191039
 20
13.3167320062
 11
-1.5070191039
 21
13.3220723497
  0
LINE
  5
225
100
AcDbEntity
  8
0
100
AcDbLine
 62
7
  6
CONTINUOUS
 10
-1.2370191039
 20
12.1336709252
 11
-1.2370191039
 21
13.2736709252
  0
LINE
  5
226
100
AcDbEntity
  8
0
100
AcDbLine
 62
7
  6
CONTINUOUS
 10
-1.2286691042
 20
12.7036709252
 11
-1.2286691042
 21
13.0880403439
  0
LINE
  5
227
100
AcDbEntity
  8
0
100
AcDbLine
 62
7
  6
CONTINUOUS
 10
-1.228604369
 20
12.7036709971
 11
-1.2286691042
 21
13.0915209248
  0
LINE
  5
228
100
AcDbEntity
  8
0
100
AcDbLine
 62
7
  6
CONTINUOUS
 10
-1.2180191039
 20
13.2536619439
 11
-1.2180191039
 21
12.1536799064
  0
LINE
  5
229
100
AcDbEntity
  8
0
100
AcDbLine
 62
7
  6
CONTINUOUS
 10
-1.0180191039
 20
12.0536709252
 11
-1.0180191039
 21
11.8536709252
  0
LINE
  5
22A
100
AcDbEntity
  8
0
100
AcDbLine
 62
7
  6
CONTINUOUS
 10
-0.9305191039
 20
11.8536709252
 11
-0.9305191039
 21
11.6686709252
  0
LINE
  5
22B
100
AcDbEntity
  8
0
100
AcDbLine
 62
7
  6
CONTINUOUS
 10
-0.8342691039
 20
11.4986709252
 11
-0.8342691039
 21
11.4906709252
  0
LINE
  5
22C
100
AcDbEntity
  8
0
100
AcDbLine
 62
7
  6
CONTINUOUS
 10
-1.2221257857
 20
12.3094267094
 11
-1.2184822085
 21
12.315735022
  0
LINE
  5
22D
100
AcDbEntity
  8
0
100
AcDbLine
 62
9
  6
CONTINUOUS
 10
-2.3690140116
 20
12.0244523968
 11
-2.3812011514
 21
12.0117602106
  0
LINE
  5
22E
100
AcDbEntity
  8
0
100
AcDbLine
 62
7
  6
CONTINUOUS
 10
-0.1017691039
 20
11.4986709252
 11
-0.1017691039
 21
11.4906709252
  0
LINE
  5
22F
100
AcDbEntity
  8
0
100
AcDbLine
 62
7
  6
CONTINUOUS
 10
-0.0055191039
 20
11.8536709252
 11
-0.0055191039
 21
11.6686709252
  0
LINE
  5
230
100
AcDbEntity
  8
0
100
AcDbLine
 62
7
  6
CONTINUOUS
 10
0.0819808961
 20
12.0536709252
 11
0.0819808961
 21
11.8536709252
  0
LINE
  5
231
100
AcDbEntity
  8
0
100
AcDbLine
 62
7
  6
CONTINUOUS
 10
-1.2370191039
 20
13.0831709252
 11
-1.2286706263
 21
13.0915194027
  0
LINE
  5
232
100
AcDbEntity
  8
0
100
AcDbLine
 62
7
  6
CONTINUOUS
 10
-1.2283117441
 20
13.091878285
 11
-1.2180191039
 21
13.1021709252
  0
LINE
  5
233
100
AcDbEntity
  8
0
100
AcDbLine
 62
7
  6
CONTINUOUS
 10
-2.277896503
 20
12.2446326458
 11
-2.1974525299
 21
12.0042109533
  0
LINE
  5
234
100
AcDbEntity
  8
0
100
AcDbLine
 62
7
  6
CONTINUOUS
 10
0.8819808961
 20
12.1536799064
 11
0.8819808961
 21
13.2536619439
  0
LWPOLYLINE
  5
235
100
AcDbEntity
  8
0
100
AcDbPolyline
 62
7
  6
CONTINUOUS
 90
3
 70
0
 10
-1.4942278477
 20
13.335354701
 10
-1.5000599278
 20
13.3315147162
 10
-1.5027335093
 20
13.3284065694
  0
LINE
  5
236
100
AcDbEntity
  8
0
100
AcDbLine
 62
7
  6
CONTINUOUS
 10
-1.5070191039
 20
12.0852695006
 11
-1.5027334824
 21
12.0789352999
  0
LINE
  5
237
100
AcDbEntity
  8
0
100
AcDbLine
 62
9
  6
CONTINUOUS
 10
-2.5250241648
 20
12.0244524226
 11
-2.5128370269
 21
12.0117602364
  0
LWPOLYLINE
  5
238
100
AcDbEntity
  8
0
100
AcDbPolyline
 62
7
  6
CONTINUOUS
 90
5
 70
0
 10
-1.5027335094
 20
12.0789352811
 10
-1.500059926
 20
12.0758271326
 10
-1.4942278448
 20
12.0719871482
 10
-1.4874325957
 20
12.0703862186
 10
-1.486314269
 20
12.0703549277
  0
LINE
  5
239
100
AcDbEntity
  8
0
100
AcDbLine
 62
9
  6
CONTINUOUS
 10
19.0111168176
 20
4.5551491826
 11
19.0223251113
 21
4.5568918536
  0
LINE
  5
23A
100
AcDbEntity
  8
0
100
AcDbLine
 62
7
  6
CONTINUOUS
 10
-1.2370191039
 20
12.3241709252
 11
-1.2222351401
 21
12.3093869615
  0
LINE
  5
23B
100
AcDbEntity
  8
0
100
AcDbLine
 62
9
  6
CONTINUOUS
 10
19.7470933155
 20
6.9620128504
 11
19.7312025866
 21
6.9586992758
  0
LINE
  5
23C
100
AcDbEntity
  8
0
100
AcDbLine
 62
7
  6
CONTINUOUS
 10
18.8013937185
 20
4.5296708217
 11
18.8005680738
 21
4.5296708217
  0
LINE
  5
23D
100
AcDbEntity
  8
0
100
AcDbLine
 62
9
  6
CONTINUOUS
 10
19.9772093525
 20
7.285329043
 11
19.9944180177
 21
7.2881095612
  0
LINE
  5
23E
100
AcDbEntity
  8
0
100
AcDbLine
 62
7
  6
CONTINUOUS
 10
24.4303510728
 20
5.7057629258
 11
24.4126054172
 21
5.7054249674
  0
LINE
  5
23F
100
AcDbEntity
  8
0
100
AcDbLine
 62
7
  6
CONTINUOUS
 10
24.0309808961
 20
5.6936709252
 11
24.4119808961
 21
5.6936709252
  0
LINE
  5
240
100
AcDbEntity
  8
0
100
AcDbLine
 62
9
  6
CONTINUOUS
 10
24.0485899575
 20
5.6970751805
 11
24.3933717946
 21
5.6970751805
  0
LINE
  5
241
100
AcDbEntity
  8
0
100
AcDbLine
 62
7
  6
CONTINUOUS
 10
23.8619808961
 20
5.7486709252
 11
24.0109808961
 21
5.7486709252
  0
LINE
  5
242
100
AcDbEntity
  8
0
100
AcDbLine
 62
9
  6
CONTINUOUS
 10
24.3933718352
 20
6.0379573765
 11
24.0485899977
 21
6.0379573765
  0
LINE
  5
243
100
AcDbEntity
  8
0
100
AcDbLine
 62
9
  6
CONTINUOUS
 10
24.0474216271
 20
6.0562507214
 11
24.3945412825
 21
6.0562507214
  0
LINE
  5
244
100
AcDbEntity
  8
0
100
AcDbLine
 62
7
  6
CONTINUOUS
 10
24.0293561945
 20
5.7054252491
 11
24.0126193839
 21
5.7057428171
  0
LINE
  5
245
100
AcDbEntity
  8
0
100
AcDbLine
 62
9
  6
CONTINUOUS
 10
18.5796366865
 20
4.5568918522
 11
18.5908459212
 21
4.5551489313
  0
LINE
  5
246
100
AcDbEntity
  8
0
100
AcDbLine
 62
7
  6
CONTINUOUS
 10
20.0219808961
 20
6.4611709252
 11
23.8619808961
 21
6.4611709252
  0
LINE
  5
247
100
AcDbEntity
  8
0
100
AcDbLine
 62
7
  6
CONTINUOUS
 10
19.761685731
 20
6.4903547744
 11
19.9634791222
 21
6.4903547744
  0
LINE
  5
248
100
AcDbEntity
  8
0
100
AcDbLine
 62
9
  6
CONTINUOUS
 10
19.7470933156
 20
6.5318868993
 11
19.9772090902
 21
6.5318868993
  0
LINE
  5
249
100
AcDbEntity
  8
0
100
AcDbLine
 62
7
  6
CONTINUOUS
 10
20.0109808961
 20
6.6511709252
 11
20.0124105599
 21
6.6511709252
  0
LINE
  5
24A
100
AcDbEntity
  8
0
100
AcDbLine
 62
9
  6
CONTINUOUS
 10
19.9772090902
 20
6.6935449746
 11
19.7470933156
 21
6.6935449746
  0
LINE
  5
24B
100
AcDbEntity
  8
0
100
AcDbLine
 62
7
  6
CONTINUOUS
 10
18.3359808961
 20
6.7436709252
 11
18.5749588759
 21
6.7436709252
  0
LINE
  5
24C
100
AcDbEntity
  8
0
100
AcDbLine
 62
7
  6
CONTINUOUS
 10
19.0270029164
 20
6.7436709252
 11
19.2836116798
 21
6.7436709252
  0
LINE
  5
24D
100
AcDbEntity
  8
0
100
AcDbLine
 62
9
  6
CONTINUOUS
 10
24.394544975
 20
6.7610911289
 11
24.0474163453
 21
6.7610911289
  0
LINE
  5
24E
100
AcDbEntity
  8
0
100
AcDbLine
 62
9
  6
CONTINUOUS
 10
24.0485899573
 20
6.7827887291
 11
24.3933717944
 21
6.7827887291
  0
LINE
  5
24F
100
AcDbEntity
  8
0
100
AcDbLine
 62
9
  6
CONTINUOUS
 10
19.7470933156
 20
6.9620128498
 11
19.9772090902
 21
6.9620128498
  0
LINE
  5
250
100
AcDbEntity
  8
0
100
AcDbLine
 62
7
  6
CONTINUOUS
 10
9.2919808961
 20
13.1736709252
 11
9.2919808961
 21
12.2336709252
  0
LINE
  5
251
100
AcDbEntity
  8
0
100
AcDbLine
 62
7
  6
CONTINUOUS
 10
9.7519808961
 20
13.4701127864
 11
9.7519808961
 21
13.2336709252
  0
LINE
  5
252
100
AcDbEntity
  8
0
100
AcDbLine
 62
7
  6
CONTINUOUS
 10
9.7519808961
 20
12.1736709252
 11
9.7519808961
 21
11.8136709252
  0
LINE
  5
253
100
AcDbEntity
  8
0
100
AcDbLine
 62
7
  6
CONTINUOUS
 10
9.7519808961
 20
9.0736709252
 11
9.7519808961
 21
11.7936709252
  0
LWPOLYLINE
  5
254
100
AcDbEntity
  8
0
100
AcDbPolyline
 62
7
  6
CONTINUOUS
 90
3
 70
0
 10
19.7616857311
 20
7.7569869228
 10
19.7605674019
 20
7.7569556318
 10
19.7537721523
 20
7.755354701
  0
LINE
  5
255
100
AcDbEntity
  8
0
100
AcDbLine
 62
9
  6
CONTINUOUS
 10
19.9772090902
 20
7.2853290005
 11
19.7470933156
 21
7.2853290005
  0
LINE
  5
256
100
AcDbEntity
  8
0
100
AcDbLine
 62
9
  6
CONTINUOUS
 10
24.3933718352
 20
7.4645531212
 11
24.0485899977
 21
7.4645531212
  0
LINE
  5
257
100
AcDbEntity
  8
0
100
AcDbLine
 62
9
  6
CONTINUOUS
 10
24.0474224487
 20
7.4862507214
 11
24.3945464768
 21
7.4862507214
  0
LINE
  5
258
100
AcDbEntity
  8
0
100
AcDbLine
 62
7
  6
CONTINUOUS
 10
19.2836116798
 20
7.5036709252
 11
18.3359808961
 21
7.5036709252
  0
LINE
  5
259
100
AcDbEntity
  8
0
100
AcDbLine
 62
9
  6
CONTINUOUS
 10
19.7470933156
 20
7.5537968757
 11
19.9772090902
 21
7.5537968757
  0
LINE
  5
25A
100
AcDbEntity
  8
0
100
AcDbLine
 62
7
  6
CONTINUOUS
 10
20.0150708243
 20
7.5748609246
 11
20.0109808961
 21
7.5748609246
  0
LINE
  5
25B
100
AcDbEntity
  8
0
100
AcDbLine
 62
9
  6
CONTINUOUS
 10
19.9772090902
 20
7.7154549511
 11
19.7470933156
 21
7.7154549511
  0
LINE
  5
25C
100
AcDbEntity
  8
0
100
AcDbLine
 62
7
  6
CONTINUOUS
 10
19.761685731
 20
7.7569870759
 11
19.9634791222
 21
7.7569870759
  0
LINE
  5
25D
100
AcDbEntity
  8
0
100
AcDbLine
 62
7
  6
CONTINUOUS
 10
20.0219808961
 20
7.7861709252
 11
20.2619815265
 21
7.7861709252
  0
LINE
  5
25E
100
AcDbEntity
  8
0
100
AcDbLine
 62
7
  6
CONTINUOUS
 10
21.5819802841
 20
7.7861709252
 11
23.8619808961
 21
7.7861709252
  0
LINE
  5
25F
100
AcDbEntity
  8
0
100
AcDbLine
 62
7
  6
CONTINUOUS
 10
21.5219808961
 20
7.8736709252
 11
20.3219808961
 21
7.8736709252
  0
LINE
  5
260
100
AcDbEntity
  8
0
100
AcDbLine
 62
9
  6
CONTINUOUS
 10
-2.6683633135
 20
10.1368918522
 11
-2.6571540788
 21
10.1351489313
  0
LINE
  5
261
100
AcDbEntity
  8
0
100
AcDbLine
 62
7
  6
CONTINUOUS
 10
9.8819808961
 20
11.7936709252
 11
9.8819808961
 21
11.8136709252
  0
LINE
  5
262
100
AcDbEntity
  8
0
100
AcDbLine
 62
7
  6
CONTINUOUS
 10
10.1365743039
 20
11.7936709252
 11
10.1365743039
 21
11.4936709252
  0
LINE
  5
263
100
AcDbEntity
  8
0
100
AcDbLine
 62
7
  6
CONTINUOUS
 10
10.5673874884
 20
11.4936709252
 11
10.5673874884
 21
11.7936709252
  0
LINE
  5
264
100
AcDbEntity
  8
0
100
AcDbLine
 62
7
  6
CONTINUOUS
 10
10.8219808961
 20
11.7936709252
 11
10.8219808961
 21
11.8136709252
  0
LINE
  5
265
100
AcDbEntity
  8
0
100
AcDbLine
 62
7
  6
CONTINUOUS
 10
24.0126190524
 20
8.5415982485
 11
24.0293558324
 21
8.5419261656
  0
LINE
  5
266
100
AcDbEntity
  8
0
100
AcDbLine
 62
9
  6
CONTINUOUS
 10
24.3945399067
 20
8.1910911289
 11
24.0474123466
 21
8.1910911289
  0
LINE
  5
267
100
AcDbEntity
  8
0
100
AcDbLine
 62
9
  6
CONTINUOUS
 10
24.0485899573
 20
8.2093844738
 11
24.3933717944
 21
8.2093844738
  0
LINE
  5
268
100
AcDbEntity
  8
0
100
AcDbLine
 62
7
  6
CONTINUOUS
 10
23.8619808961
 20
8.4986709252
 11
24.0109808961
 21
8.4986709252
  0
LINE
  5
269
100
AcDbEntity
  8
0
100
AcDbLine
 62
9
  6
CONTINUOUS
 10
24.3933718348
 20
8.5502666699
 11
24.0485899979
 21
8.5502666699
  0
LINE
  5
26A
100
AcDbEntity
  8
0
100
AcDbLine
 62
7
  6
CONTINUOUS
 10
24.0309808961
 20
8.5536709252
 11
24.4119808961
 21
8.5536709252
  0
LINE
  5
26B
100
AcDbEntity
  8
0
100
AcDbLine
 62
7
  6
CONTINUOUS
 10
21.1373874884
 20
8.6336709252
 11
20.7065743039
 21
8.6336709252
  0
LINE
  5
26C
100
AcDbEntity
  8
0
100
AcDbLine
 62
7
  6
CONTINUOUS
 10
21.5219754315
 20
8.9336709252
 11
20.3219863608
 21
8.9336709252
  0
LINE
  5
26D
100
AcDbEntity
  8
0
100
AcDbLine
 62
7
  6
CONTINUOUS
 10
20.3219808961
 20
8.9536709252
 11
21.5219808961
 21
8.9536709252
  0
LINE
  5
26E
100
AcDbEntity
  8
0
100
AcDbLine
 62
7
  6
CONTINUOUS
 10
9.7719809159
 20
9.0536709252
 11
10.9319808764
 21
9.0536709252
  0
LINE
  5
26F
100
AcDbEntity
  8
0
100
AcDbLine
 62
9
  6
CONTINUOUS
 10
9.7519808961
 20
9.0736709252
 11
10.9519808961
 21
9.0736709252
  0
LINE
  5
270
100
AcDbEntity
  8
0
100
AcDbLine
 62
7
  6
CONTINUOUS
 10
24.412606744
 20
8.5419244717
 11
24.4303518835
 21
8.5415770356
  0
LINE
  5
271
100
AcDbEntity
  8
0
100
AcDbLine
 62
9
  6
CONTINUOUS
 10
19.9772090898
 20
6.9620128473
 11
19.9944180173
 21
6.9592322868
  0
LINE
  5
272
100
AcDbEntity
  8
0
100
AcDbLine
 62
7
  6
CONTINUOUS
 10
10.9519808961
 20
13.4701127864
 11
10.9519808961
 21
11.8136709252
  0
LINE
  5
273
100
AcDbEntity
  8
0
100
AcDbLine
 62
7
  6
CONTINUOUS
 10
10.9519808961
 20
9.0736709252
 11
10.9519808961
 21
9.3136709252
  0
LINE
  5
274
100
AcDbEntity
  8
0
100
AcDbLine
 62
7
  6
CONTINUOUS
 10
10.9519808961
 20
10.3736709252
 11
10.9519808961
 21
11.7936709252
  0
LINE
  5
275
100
AcDbEntity
  8
0
100
AcDbLine
 62
7
  6
CONTINUOUS
 10
11.4119808961
 20
9.3736709252
 11
11.4119808961
 21
10.3136709252
  0
LINE
  5
276
100
AcDbEntity
  8
0
100
AcDbLine
 62
7
  6
CONTINUOUS
 10
20.2619808961
 20
9.3736709252
 11
19.8619808961
 21
9.3736709252
  0
LINE
  5
277
100
AcDbEntity
  8
0
100
AcDbLine
 62
7
  6
CONTINUOUS
 10
11.0119808961
 20
9.3736709252
 11
11.4119808961
 21
9.3736709252
  0
LINE
  5
278
100
AcDbEntity
  8
0
100
AcDbLine
 62
7
  6
CONTINUOUS
 10
19.8619808961
 20
9.4686709252
 11
11.4119808961
 21
9.4686709252
  0
LINE
  5
279
100
AcDbEntity
  8
0
100
AcDbLine
 62
9
  6
CONTINUOUS
 10
19.7470933151
 20
7.2853289981
 11
19.7312025898
 21
7.2886425721
  0
LINE
  5
27A
100
AcDbEntity
  8
0
100
AcDbLine
 62
7
  6
CONTINUOUS
 10
-2.4474319262
 20
10.1096708217
 11
-2.4466062815
 21
10.1096708217
  0
LINE
  5
27B
100
AcDbEntity
  8
0
100
AcDbLine
 62
7
  6
CONTINUOUS
 10
19.8619808961
 20
10.2186709252
 11
11.4119808961
 21
10.2186709252
  0
LINE
  5
27C
100
AcDbEntity
  8
0
100
AcDbLine
 62
7
  6
CONTINUOUS
 10
20.2619808961
 20
10.3136709252
 11
19.8619808961
 21
10.3136709252
  0
LINE
  5
27D
100
AcDbEntity
  8
0
100
AcDbLine
 62
7
  6
CONTINUOUS
 10
11.0119808961
 20
10.3136709252
 11
11.4119808961
 21
10.3136709252
  0
LINE
  5
27E
100
AcDbEntity
  8
0
100
AcDbLine
 62
9
  6
CONTINUOUS
 10
21.5219808961
 20
10.6101127864
 11
20.3219808961
 21
10.6101127864
  0
LINE
  5
27F
100
AcDbEntity
  8
0
100
AcDbLine
 62
7
  6
CONTINUOUS
 10
21.5019808764
 20
10.6301127864
 11
20.3419809159
 21
10.6301127864
  0
LINE
  5
280
100
AcDbEntity
  8
0
100
AcDbLine
 62
7
  6
CONTINUOUS
 10
10.9519808961
 20
10.7336709252
 11
9.7519808961
 21
10.7336709252
  0
LINE
  5
281
100
AcDbEntity
  8
0
100
AcDbLine
 62
9
  6
CONTINUOUS
 10
-1.2707909102
 20
12.5420128473
 11
-1.2535819827
 21
12.5392322868
  0
LINE
  5
282
100
AcDbEntity
  8
0
100
AcDbLine
 62
9
  6
CONTINUOUS
 10
-1.5009066849
 20
12.8653289981
 11
-1.5167974102
 21
12.8686425721
  0
LINE
  5
283
100
AcDbEntity
  8
0
100
AcDbLine
 62
7
  6
CONTINUOUS
 10
-0.8342689015
 20
11.4906709252
 11
-0.1017693062
 21
11.4906709252
  0
LINE
  5
284
100
AcDbEntity
  8
0
100
AcDbLine
 62
7
  6
CONTINUOUS
 10
10.5673874884
 20
11.4936709252
 11
10.1365743039
 21
11.4936709252
  0
LINE
  5
285
100
AcDbEntity
  8
0
100
AcDbLine
 62
7
  6
CONTINUOUS
 10
-0.0498509369
 20
11.4986709252
 11
-0.8861872708
 21
11.4986709252
  0
LINE
  5
286
100
AcDbEntity
  8
0
100
AcDbLine
 62
9
  6
CONTINUOUS
 10
-0.0407310168
 20
11.5045683611
 11
-0.8953071909
 21
11.5045683611
  0
LINE
  5
287
100
AcDbEntity
  8
0
100
AcDbLine
 62
9
  6
CONTINUOUS
 10
-0.9305191039
 20
11.6686709252
 11
-0.0055191039
 21
11.6686709252
  0
LINE
  5
288
100
AcDbEntity
  8
0
100
AcDbLine
 62
7
  6
CONTINUOUS
 10
10.9519754315
 20
11.7936709252
 11
9.7519863608
 21
11.7936709252
  0
LINE
  5
289
100
AcDbEntity
  8
0
100
AcDbLine
 62
7
  6
CONTINUOUS
 10
9.7519808961
 20
11.8136709252
 11
10.9519808961
 21
11.8136709252
  0
LINE
  5
28A
100
AcDbEntity
  8
0
100
AcDbLine
 62
7
  6
CONTINUOUS
 10
-1.0180191039
 20
11.8536709252
 11
0.0819808961
 21
11.8536709252
  0
LINE
  5
28B
100
AcDbEntity
  8
0
100
AcDbLine
 62
9
  6
CONTINUOUS
 10
-2.2368831824
 20
10.1351491826
 11
-2.2256748887
 21
10.1368918536
  0
LINE
  5
28C
100
AcDbEntity
  8
0
100
AcDbLine
 62
7
  6
CONTINUOUS
 10
-1.486314269
 20
12.0703547744
 11
-1.2845208778
 21
12.0703547744
  0
LINE
  5
28D
100
AcDbEntity
  8
0
100
AcDbLine
 62
9
  6
CONTINUOUS
 10
-1.5009066844
 20
12.1118868993
 11
-1.2707909098
 21
12.1118868993
  0
LINE
  5
28E
100
AcDbEntity
  8
0
100
AcDbLine
 62
7
  6
CONTINUOUS
 10
0.8819808961
 20
12.1536709252
 11
0.1819806926
 21
12.1536709252
  0
LINE
  5
28F
100
AcDbEntity
  8
0
100
AcDbLine
 62
7
  6
CONTINUOUS
 10
-1.1180189003
 20
12.1536709252
 11
-1.2180191039
 21
12.1536709252
  0
LINE
  5
290
100
AcDbEntity
  8
0
100
AcDbLine
 62
7
  6
CONTINUOUS
 10
9.6919808961
 20
12.2336709252
 11
9.2919808961
 21
12.2336709252
  0
LINE
  5
291
100
AcDbEntity
  8
0
100
AcDbLine
 62
9
  6
CONTINUOUS
 10
-1.2707909098
 20
12.2735449746
 11
-1.5009066844
 21
12.2735449746
  0
LINE
  5
292
100
AcDbEntity
  8
0
100
AcDbLine
 62
7
  6
CONTINUOUS
 10
-1.2186309384
 20
12.3158209259
 11
-1.2180191039
 21
12.3158209259
  0
LINE
  5
293
100
AcDbEntity
  8
0
100
AcDbLine
 62
7
  6
CONTINUOUS
 10
-2.9120191039
 20
12.3236709252
 11
-2.6730411241
 21
12.3236709252
  0
LINE
  5
294
100
AcDbEntity
  8
0
100
AcDbLine
 62
7
  6
CONTINUOUS
 10
-2.2209970836
 20
12.3236709252
 11
-1.9643883202
 21
12.3236709252
  0
LINE
  5
295
100
AcDbEntity
  8
0
100
AcDbLine
 62
7
  6
CONTINUOUS
 10
9.2919808961
 20
12.3286709252
 11
0.8819808961
 21
12.3286709252
  0
LINE
  5
296
100
AcDbEntity
  8
0
100
AcDbLine
 62
9
  6
CONTINUOUS
 10
-1.5009066844
 20
12.5420128498
 11
-1.2707909098
 21
12.5420128498
  0
LINE
  5
297
100
AcDbEntity
  8
0
100
AcDbLine
 62
9
  6
CONTINUOUS
 10
-1.2707909098
 20
12.8653290005
 11
-1.5009066844
 21
12.8653290005
  0
LWPOLYLINE
  5
298
100
AcDbEntity
  8
0
100
AcDbPolyline
 62
7
  6
CONTINUOUS
 90
3
 70
0
 10
-1.4863142689
 20
13.3369869228
 10
-1.4874325981
 20
13.3369556318
 10
-1.4942278477
 20
13.335354701
  0
LINE
  5
299
100
AcDbEntity
  8
0
100
AcDbLine
 62
7
  6
CONTINUOUS
 10
9.2919808961
 20
13.0786709252
 11
0.8819808961
 21
13.0786709252
  0
LINE
  5
29A
100
AcDbEntity
  8
0
100
AcDbLine
 62
7
  6
CONTINUOUS
 10
-1.9643883202
 20
13.0836709252
 11
-2.9120191039
 21
13.0836709252
  0
LINE
  5
29B
100
AcDbEntity
  8
0
100
AcDbLine
 62
9
  6
CONTINUOUS
 10
-1.5009066844
 20
13.1337968757
 11
-1.2707909098
 21
13.1337968757
  0
LINE
  5
29C
100
AcDbEntity
  8
0
100
AcDbLine
 62
7
  6
CONTINUOUS
 10
9.6919808961
 20
13.1736709252
 11
9.2919808961
 21
13.1736709252
  0
LINE
  5
29D
100
AcDbEntity
  8
0
100
AcDbLine
 62
7
  6
CONTINUOUS
 10
0.8819808961
 20
13.2536709252
 11
-1.2180191039
 21
13.2536709252
  0
LINE
  5
29E
100
AcDbEntity
  8
0
100
AcDbLine
 62
9
  6
CONTINUOUS
 10
-1.2707909098
 20
13.2954549511
 11
-1.5009066844
 21
13.2954549511
  0
LINE
  5
29F
100
AcDbEntity
  8
0
100
AcDbLine
 62
7
  6
CONTINUOUS
 10
-1.486314269
 20
13.3369870759
 11
-1.2845208778
 21
13.3369870759
  0
LINE
  5
2A0
100
AcDbEntity
  8
0
100
AcDbLine
 62
9
  6
CONTINUOUS
 10
10.9519808961
 20
13.4701127864
 11
9.7519808961
 21
13.4701127864
  0
LINE
  5
2A1
100
AcDbEntity
  8
0
100
AcDbLine
 62
7
  6
CONTINUOUS
 10
10.9319808764
 20
13.4901127864
 11
9.7719809159
 21
13.4901127864
  0
LINE
  5
2A2
100
AcDbEntity
  8
0
100
AcDbLine
 62
9
  6
CONTINUOUS
 10
18.7229758352
 20
6.4444524226
 11
18.7351629731
 21
6.4317602364
  0
LINE
  5
2A3
100
AcDbEntity
  8
0
100
AcDbLine
 62
9
  6
CONTINUOUS
 10
-1.2707906475
 20
12.865329043
 11
-1.2535819823
 21
12.8681095612
  0
LWPOLYLINE
  5
2A4
100
AcDbEntity
  8
0
100
AcDbPolyline
 62
7
  6
CONTINUOUS
 90
5
 70
0
 10
19.7452664906
 20
6.4989352811
 10
19.747940074
 20
6.4958271326
 10
19.7537721552
 20
6.4919871482
 10
19.7605674043
 20
6.4903862186
 10
19.761685731
 20
6.4903549277
  0
LWPOLYLINE
  5
2A5
100
AcDbEntity
  8
0
100
AcDbPolyline
 62
7
  6
CONTINUOUS
 90
3
 70
0
 10
19.7537721523
 20
7.755354701
 10
19.7479400722
 20
7.7515147162
 10
19.7452664907
 20
7.7484065694
  0
LINE
  5
2A6
100
AcDbEntity
  8
0
100
AcDbLine
 62
9
  6
CONTINUOUS
 10
-1.5009066845
 20
12.5420128504
 11
-1.5167974134
 21
12.5386992758
  0
LINE
  5
2A7
100
AcDbEntity
  8
0
100
AcDbLine
 62
7
  6
CONTINUOUS
 10
19.7409808961
 20
6.5052695006
 11
19.7452665176
 21
6.4989352999
  0
LINE
  5
2A8
100
AcDbEntity
  8
0
100
AcDbLine
 62
7
  6
CONTINUOUS
 10
18.8698185391
 20
4.5551490374
 11
18.8667988307
 21
4.5940291902
  0
LINE
  5
2A9
100
AcDbEntity
  8
0
100
AcDbLine
 62
7
  6
CONTINUOUS
 10
18.2359808961
 20
7.5236709252
 11
18.2359808961
 21
6.723674304
  0
LINE
  5
2AA
100
AcDbEntity
  8
0
100
AcDbLine
 62
7
  6
CONTINUOUS
 10
18.3359808961
 20
7.5236709252
 11
18.3359808961
 21
6.7236709252
  0
LINE
  5
2AB
100
AcDbEntity
  8
0
100
AcDbLine
 62
9
  6
CONTINUOUS
 10
18.8789859884
 20
6.4444523968
 11
18.8667988486
 21
6.4317602106
  0
LINE
  5
2AC
100
AcDbEntity
  8
0
100
AcDbLine
 62
7
  6
CONTINUOUS
 10
18.970103497
 20
6.6646326458
 11
19.0505474701
 21
6.4242109533
  0
LWPOLYLINE
  5
2AD
100
AcDbEntity
  8
0
100
AcDbPolyline
 62
7
  6
CONTINUOUS
 90
3
 70
0
 10
19.0526123008
 20
6.4115278383
 10
19.0516986386
 20
6.4200254448
 10
19.0505468365
 20
6.4242107409
  0
LINE
  5
2AE
100
AcDbEntity
  8
0
100
AcDbLine
 62
7
  6
CONTINUOUS
 10
18.5493450348
 20
4.5956961459
 11
18.5493450348
 21
6.4115278394
  0
LINE
  5
2AF
100
AcDbEntity
  8
0
100
AcDbLine
 62
9
  6
CONTINUOUS
 10
18.5654219864
 20
6.4317602316
 11
18.5654219863
 21
4.5940292382
  0
LINE
  5
2B0
100
AcDbEntity
  8
0
100
AcDbLine
 62
9
  6
CONTINUOUS
 10
18.631239917
 20
4.5940292461
 11
18.631239917
 21
6.4317602315
  0
LINE
  5
2B1
100
AcDbEntity
  8
0
100
AcDbLine
 62
9
  6
CONTINUOUS
 10
18.7351629655
 20
6.4317602316
 11
18.7351629655
 21
4.5940292555
  0
LINE
  5
2B2
100
AcDbEntity
  8
0
100
AcDbLine
 62
9
  6
CONTINUOUS
 10
18.800980895
 20
6.7890213315
 11
18.8009808953
 21
6.7171436425
  0
LINE
  5
2B3
100
AcDbEntity
  8
0
100
AcDbLine
 62
9
  6
CONTINUOUS
 10
18.8009809135
 20
6.4769123109
 11
18.8009809106
 21
6.464220125
  0
LINE
  5
2B4
100
AcDbEntity
  8
0
100
AcDbLine
 62
9
  6
CONTINUOUS
 10
18.8667988268
 20
4.5940292574
 11
18.8667988268
 21
6.4317602315
  0
LINE
  5
2B5
100
AcDbEntity
  8
0
100
AcDbLine
 62
9
  6
CONTINUOUS
 10
18.9707218753
 20
6.4317602315
 11
18.9707218753
 21
4.5940292401
  0
LINE
  5
2B6
100
AcDbEntity
  8
0
100
AcDbLine
 62
9
  6
CONTINUOUS
 10
19.0365398059
 20
4.5940292401
 11
19.036539806
 21
6.4317602315
  0
LINE
  5
2B7
100
AcDbEntity
  8
0
100
AcDbLine
 62
7
  6
CONTINUOUS
 10
19.0526167575
 20
4.5956961458
 11
19.0526167575
 21
6.4115278394
  0
LINE
  5
2B8
100
AcDbEntity
  8
0
100
AcDbLine
 62
9
  6
CONTINUOUS
 10
19.2836116798
 20
6.7436709252
 11
19.2836116798
 21
7.5036709252
  0
LINE
  5
2B9
100
AcDbEntity
  8
0
100
AcDbLine
 62
9
  6
CONTINUOUS
 10
19.3430308952
 20
6.6919990009
 11
19.3430308952
 21
7.5553428495
  0
LINE
  5
2BA
100
AcDbEntity
  8
0
100
AcDbLine
 62
9
  6
CONTINUOUS
 10
19.3459982078
 20
7.5760091547
 11
19.3459982078
 21
6.6713326956
  0
LINE
  5
2BB
100
AcDbEntity
  8
0
100
AcDbLine
 62
9
  6
CONTINUOUS
 10
19.3833564584
 20
7.6101298474
 11
19.3833564584
 21
6.637212003
  0
LINE
  5
2BC
100
AcDbEntity
  8
0
100
AcDbLine
 62
7
  6
CONTINUOUS
 10
18.7321432528
 20
4.5551490196
 11
18.7351629655
 21
4.5940292555
  0
LWPOLYLINE
  5
2BD
100
AcDbEntity
  8
0
100
AcDbPolyline
 62
7
  6
CONTINUOUS
 90
3
 70
0
 10
18.5514149558
 20
6.4242107409
 10
18.5502631537
 20
6.4200254449
 10
18.5493494915
 20
6.4115278383
  0
LINE
  5
2BE
100
AcDbEntity
  8
0
100
AcDbLine
 62
7
  6
CONTINUOUS
 10
18.6318582952
 20
6.6646326458
 11
18.5514143222
 21
6.4242109533
  0
LINE
  5
2BF
100
AcDbEntity
  8
0
100
AcDbLine
 62
7
  6
CONTINUOUS
 10
20.0219808961
 20
7.5872564539
 11
20.014740356
 21
7.5747192986
  0
LINE
  5
2C0
100
AcDbEntity
  8
0
100
AcDbLine
 62
7
  6
CONTINUOUS
 10
19.7409808961
 20
7.7420723497
 11
19.7452665177
 21
7.7484065506
  0
LINE
  5
2C1
100
AcDbEntity
  8
0
100
AcDbLine
 62
9
  6
CONTINUOUS
 10
19.5609808961
 20
6.616352072
 11
19.5609808961
 21
7.6309897783
  0
LINE
  5
2C2
100
AcDbEntity
  8
0
100
AcDbLine
 62
9
  6
CONTINUOUS
 10
19.6409808961
 20
6.5911983604
 11
19.6409808961
 21
7.65614349
  0
LINE
  5
2C3
100
AcDbEntity
  8
0
100
AcDbLine
 62
9
  6
CONTINUOUS
 10
19.7409808961
 20
6.5052695006
 11
19.7409808961
 21
6.5106098441
  0
LINE
  5
2C4
100
AcDbEntity
  8
0
100
AcDbLine
 62
9
  6
CONTINUOUS
 10
19.7409808961
 20
6.7469098745
 11
19.7409808961
 21
6.8873708948
  0
LINE
  5
2C5
100
AcDbEntity
  8
0
100
AcDbLine
 62
9
  6
CONTINUOUS
 10
19.7409808961
 20
7.3599709555
 11
19.7409808961
 21
7.5004319759
  0
LINE
  5
2C6
100
AcDbEntity
  8
0
100
AcDbLine
 62
9
  6
CONTINUOUS
 10
19.7409808961
 20
7.7367320062
 11
19.7409808961
 21
7.7420723497
  0
LINE
  5
2C7
100
AcDbEntity
  8
0
100
AcDbLine
 62
7
  6
CONTINUOUS
 10
19.8619808961
 20
10.3136709252
 11
19.8619808961
 21
9.3736709252
  0
LINE
  5
2C8
100
AcDbEntity
  8
0
100
AcDbLine
 62
7
  6
CONTINUOUS
 10
20.0109808961
 20
6.5536709252
 11
20.0109808961
 21
7.6936709252
  0
LINE
  5
2C9
100
AcDbEntity
  8
0
100
AcDbLine
 62
7
  6
CONTINUOUS
 10
20.0219808961
 20
7.7861709252
 11
20.0219808961
 21
6.4611709252
  0
LINE
  5
2CA
100
AcDbEntity
  8
0
100
AcDbLine
 62
7
  6
CONTINUOUS
 10
20.3219808961
 20
10.6101127864
 11
20.3219808961
 21
10.3736709252
  0
LINE
  5
2CB
100
AcDbEntity
  8
0
100
AcDbLine
 62
7
  6
CONTINUOUS
 10
20.3219808961
 20
9.3136709252
 11
20.3219808961
 21
8.9536709252
  0
LINE
  5
2CC
100
AcDbEntity
  8
0
100
AcDbLine
 62
7
  6
CONTINUOUS
 10
20.3219808961
 20
7.8461709252
 11
20.3219808961
 21
8.9336709252
  0
LINE
  5
2CD
100
AcDbEntity
  8
0
100
AcDbLine
 62
7
  6
CONTINUOUS
 10
20.4519808961
 20
8.9336709252
 11
20.4519808961
 21
8.9536709252
  0
LINE
  5
2CE
100
AcDbEntity
  8
0
100
AcDbLine
 62
7
  6
CONTINUOUS
 10
20.0125700198
 20
6.651305045
 11
20.0219808961
 21
6.6675997302
  0
LINE
  5
2CF
100
AcDbEntity
  8
0
100
AcDbLine
 62
7
  6
CONTINUOUS
 10
20.7065743039
 20
8.9336709252
 11
20.7065743039
 21
8.6336709252
  0
LINE
  5
2D0
100
AcDbEntity
  8
0
100
AcDbLine
 62
7
  6
CONTINUOUS
 10
21.1373874884
 20
8.6336709252
 11
21.1373874884
 21
8.9336709252
  0
LINE
  5
2D1
100
AcDbEntity
  8
0
100
AcDbLine
 62
7
  6
CONTINUOUS
 10
21.3919808961
 20
8.9336709252
 11
21.3919808961
 21
8.9536709252
  0
LINE
  5
2D2
100
AcDbEntity
  8
0
100
AcDbLine
 62
7
  6
CONTINUOUS
 10
21.5219808961
 20
10.6101127864
 11
21.5219808961
 21
8.9536709252
  0
LINE
  5
2D3
100
AcDbEntity
  8
0
100
AcDbLine
 62
7
  6
CONTINUOUS
 10
21.5219808961
 20
7.8461709252
 11
21.5219808961
 21
8.9336709252
  0
LINE
  5
2D4
100
AcDbEntity
  8
0
100
AcDbLine
 62
7
  6
CONTINUOUS
 10
23.8619808961
 20
8.4986590123
 11
23.8619808961
 21
5.748682838
  0
LINE
  5
2D5
100
AcDbEntity
  8
0
100
AcDbLine
 62
7
  6
CONTINUOUS
 10
24.0109808961
 20
5.7136709252
 11
24.0109808961
 21
8.5336709252
  0
LINE
  5
2D6
100
AcDbEntity
  8
0
100
AcDbLine
 62
9
  6
CONTINUOUS
 10
24.0305423929
 20
8.5393792441
 11
24.0305478511
 21
8.2010999595
  0
LINE
  5
2D7
100
AcDbEntity
  8
0
100
AcDbLine
 62
9
  6
CONTINUOUS
 10
24.0305453713
 20
6.0462418384
 11
24.0305444201
 21
5.7079687659
  0
LINE
  5
2D8
100
AcDbEntity
  8
0
100
AcDbLine
 62
9
  6
CONTINUOUS
 10
24.0305479899
 20
7.46195229
 11
24.0305422537
 21
6.785362241
  0
LINE
  5
2D9
100
AcDbEntity
  8
0
100
AcDbLine
 62
9
  6
CONTINUOUS
 10
24.0309808961
 20
6.6233199273
 11
24.0309808961
 21
6.1940487267
  0
LINE
  5
2DA
100
AcDbEntity
  8
0
100
AcDbLine
 62
9
  6
CONTINUOUS
 10
24.048589755
 20
8.5502666699
 11
24.048589755
 21
8.2093844738
  0
LINE
  5
2DB
100
AcDbEntity
  8
0
100
AcDbLine
 62
9
  6
CONTINUOUS
 10
24.048589755
 20
7.4645531212
 11
24.048589755
 21
6.7827887291
  0
LINE
  5
2DC
100
AcDbEntity
  8
0
100
AcDbLine
 62
9
  6
CONTINUOUS
 10
24.048589755
 20
6.0379573765
 11
24.048589755
 21
5.6970751805
  0
LINE
  5
2DD
100
AcDbEntity
  8
0
100
AcDbLine
 62
9
  6
CONTINUOUS
 10
24.3933720373
 20
5.6970751805
 11
24.3933720373
 21
6.0379573765
  0
LINE
  5
2DE
100
AcDbEntity
  8
0
100
AcDbLine
 62
9
  6
CONTINUOUS
 10
24.3933720373
 20
6.7827887291
 11
24.3933720373
 21
7.4645531212
  0
LINE
  5
2DF
100
AcDbEntity
  8
0
100
AcDbLine
 62
9
  6
CONTINUOUS
 10
24.3933720373
 20
8.2093844738
 11
24.3933720373
 21
8.5502666699
  0
LINE
  5
2E0
100
AcDbEntity
  8
0
100
AcDbLine
 62
9
  6
CONTINUOUS
 10
24.4114195829
 20
6.7853634534
 11
24.4114135644
 21
7.461951728
  0
LINE
  5
2E1
100
AcDbEntity
  8
0
100
AcDbLine
 62
9
  6
CONTINUOUS
 10
24.4114171301
 20
5.7079683587
 11
24.4114163587
 21
6.046241678
  0
LINE
  5
2E2
100
AcDbEntity
  8
0
100
AcDbLine
 62
9
  6
CONTINUOUS
 10
24.4114134254
 20
8.2011012205
 11
24.4114197219
 21
8.5393782455
  0
LINE
  5
2E3
100
AcDbEntity
  8
0
100
AcDbLine
 62
9
  6
CONTINUOUS
 10
24.4119808961
 20
6.2057081928
 11
24.4119808961
 21
6.6115797852
  0
LINE
  5
2E4
100
AcDbEntity
  8
0
100
AcDbLine
 62
9
  6
CONTINUOUS
 10
24.4119808961
 20
7.6357459192
 11
24.4119808961
 21
8.0415614139
  0
LINE
  5
2E5
100
AcDbEntity
  8
0
100
AcDbLine
 62
7
  6
CONTINUOUS
 10
24.4319808961
 20
5.7136709252
 11
24.4319808961
 21
8.5336709252
  0
ARC
  5
2E6
100
AcDbEntity
  8
0
100
AcDbCircle
 62
7
  6
CONTINUOUS
 10
9.7719808961
 20
9.0736709252
 40
0.02
100
AcDbArc
 50
180.0
 51
270.0000566486
  0
ARC
  5
2E7
100
AcDbEntity
  8
0
100
AcDbCircle
 62
7
  6
CONTINUOUS
 10
10.9319808961
 20
9.0736709252
 40
0.02
100
AcDbArc
 50
269.9999433514
 51
360.0
  0
ARC
  5
2E8
100
AcDbEntity
  8
0
100
AcDbCircle
 62
7
  6
CONTINUOUS
 10
-1.9453079925
 20
10.7636709252
 40
1.4557775993
100
AcDbArc
 50
79.7802889337
 51
86.8236213758
  0
ARC
  5
2E9
100
AcDbEntity
  8
0
100
AcDbCircle
 62
7
  6
CONTINUOUS
 10
-2.4465850368
 20
11.0196708217
 40
0.91
100
AcDbArc
 50
270.0000000001
 51
284.0494064434
  0
ARC
  5
2EA
100
AcDbEntity
  8
0
100
AcDbCircle
 62
7
  6
CONTINUOUS
 10
-2.4474531709
 20
11.0196708217
 40
0.91
100
AcDbArc
 50
255.9505931911
 51
269.9999999999
  0
ARC
  5
2EB
100
AcDbEntity
  8
0
100
AcDbCircle
 62
9
  6
CONTINUOUS
 10
-2.4470207967
 20
11.0214745273
 40
0.8889945408
100
AcDbArc
 50
265.5590714124
 51
270.0001091009
  0
ARC
  5
2EC
100
AcDbEntity
  8
0
100
AcDbCircle
 62
9
  6
CONTINUOUS
 10
-2.4470168409
 20
11.0214622444
 40
0.8889822456
100
AcDbArc
 50
269.9998541494
 51
274.4409532031
  0
ARC
  5
2ED
100
AcDbEntity
  8
0
100
AcDbCircle
 62
9
  6
CONTINUOUS
 10
-2.4470207966
 20
11.0214745276
 40
0.8499972151
100
AcDbArc
 50
265.5590783111
 51
270.000090299
  0
ARC
  5
2EE
100
AcDbEntity
  8
0
100
AcDbCircle
 62
9
  6
CONTINUOUS
 10
-2.4470168412
 20
11.0214622449
 40
0.8499849225
100
AcDbArc
 50
269.9998236696
 51
274.4409475052
  0
ARC
  5
2EF
100
AcDbEntity
  8
0
100
AcDbCircle
 62
9
  6
CONTINUOUS
 10
-0.9215801276
 20
12.2981029498
 40
0.6211092432
100
AcDbArc
 50
200.1488665592
 51
200.5292232286
  0
ARC
  5
2F0
100
AcDbEntity
  8
0
100
AcDbCircle
 62
9
  6
CONTINUOUS
 10
-2.0255936239
 20
11.90743659
 40
0.5631130556
100
AcDbArc
 50
18.0887662317
 51
21.2889484321
  0
ARC
  5
2F1
100
AcDbEntity
  8
0
100
AcDbCircle
 62
9
  6
CONTINUOUS
 10
-1.987892665
 20
11.9305003327
 40
0.5068284894
100
AcDbArc
 50
18.4154605821
 51
21.6433271057
  0
ARC
  5
2F2
100
AcDbEntity
  8
0
100
AcDbCircle
 62
7
  6
CONTINUOUS
 10
-0.5305191039
 20
11.6686709252
 40
0.4
100
AcDbArc
 50
180.0
 51
204.220943109
  0
ARC
  5
2F3
100
AcDbEntity
  8
0
100
AcDbCircle
 62
7
  6
CONTINUOUS
 10
-0.4055191039
 20
11.6686709252
 40
0.4
100
AcDbArc
 50
335.779056891
 51
360.0
  0
ARC
  5
2F4
100
AcDbEntity
  8
0
100
AcDbCircle
 62
7
  6
CONTINUOUS
 10
-1.7460946347
 20
11.8686709252
 40
0.3329637403
100
AcDbArc
 50
65.3111845702
 51
79.7802889337
  0
ARC
  5
2F5
100
AcDbEntity
  8
0
100
AcDbCircle
 62
7
  6
CONTINUOUS
 10
-1.4945069676
 20
12.2436709252
 40
0.28
100
AcDbArc
 50
323.8658738338
 51
336.8676036007
  0
ARC
  5
2F6
100
AcDbEntity
  8
0
100
AcDbCircle
 62
7
  6
CONTINUOUS
 10
-1.7070191039
 20
11.9536709252
 40
0.2394121657
100
AcDbArc
 50
33.3446316102
 51
65.3111845702
  0
ARC
  5
2F7
100
AcDbEntity
  8
0
100
AcDbCircle
 62
9
  6
CONTINUOUS
 10
-2.2713033853
 20
10.3557600186
 40
0.2232790247
100
AcDbArc
 50
261.1325427595
 51
278.8679215483
  0
ARC
  5
2F8
100
AcDbEntity
  8
0
100
AcDbCircle
 62
9
  6
CONTINUOUS
 10
-2.622736196
 20
10.3557467283
 40
0.2232657516
100
AcDbArc
 50
261.1321508851
 51
278.8680923232
  0
ARC
  5
2F9
100
AcDbEntity
  8
0
100
AcDbCircle
 62
9
  6
CONTINUOUS
 10
-2.2443691594
 20
10.3849443256
 40
0.2134661589
100
AcDbArc
 50
261.1316765447
 51
278.8683234465
  0
ARC
  5
2FA
100
AcDbEntity
  8
0
100
AcDbCircle
 62
9
  6
CONTINUOUS
 10
-2.6496690737
 20
10.3849437137
 40
0.2134655523
100
AcDbArc
 50
261.1316580283
 51
278.8683557458
  0
ARC
  5
2FB
100
AcDbEntity
  8
0
100
AcDbCircle
 62
7
  6
CONTINUOUS
 10
-1.9643883202
 20
12.2636709252
 40
0.06
100
AcDbArc
 50
7.9784863797
 51
90.0
  0
ARC
  5
2FC
100
AcDbEntity
  8
0
100
AcDbCircle
 62
7
  6
CONTINUOUS
 10
-2.9620191039
 20
12.3036709252
 40
0.05
100
AcDbArc
 50
180.0
 51
360.0
  0
ARC
  5
2FD
100
AcDbEntity
  8
0
100
AcDbCircle
 62
7
  6
CONTINUOUS
 10
-1.8624271468
 20
12.2571505507
 40
0.04
100
AcDbArc
 50
188.3631286857
 51
266.8236213758
  0
ARC
  5
2FE
100
AcDbEntity
  8
0
100
AcDbCircle
 62
7
  6
CONTINUOUS
 10
-2.2353846971
 20
10.1756961458
 40
0.0399999726
100
AcDbArc
 50
284.0494478545
 51
360.0
  0
ARC
  5
2FF
100
AcDbEntity
  8
0
100
AcDbCircle
 62
7
  6
CONTINUOUS
 10
-2.6586535101
 20
10.1756961459
 40
0.0399999727
100
AcDbArc
 50
180.0
 51
255.9505521791
  0
ARC
  5
300
100
AcDbEntity
  8
0
100
AcDbCircle
 62
7
  6
CONTINUOUS
 10
-0.8861874887
 20
11.5086709252
 40
0.01
100
AcDbArc
 50
204.220943109
 51
270.0
  0
ARC
  5
301
100
AcDbEntity
  8
0
100
AcDbCircle
 62
7
  6
CONTINUOUS
 10
-0.049850719
 20
11.5086709252
 40
0.01
100
AcDbArc
 50
270.0
 51
335.779056891
  0
ARC
  5
302
100
AcDbEntity
  8
0
100
AcDbCircle
 62
7
  6
CONTINUOUS
 10
1.1749268917
 20
12.7036709252
 40
3.11
100
AcDbArc
 50
171.6368713143
 51
172.0215136203
  0
ARC
  5
303
100
AcDbEntity
  8
0
100
AcDbCircle
 62
7
  6
CONTINUOUS
 10
1.1749268917
 20
12.7036709252
 40
3.11
100
AcDbArc
 50
187.9784863797
 51
188.3631286857
  0
ARC
  5
304
100
AcDbEntity
  8
0
100
AcDbCircle
 62
9
  6
CONTINUOUS
 10
-3.9125285389
 20
12.9718676176
 40
1.5603153974
100
AcDbArc
 50
321.2935813982
 51
321.7138711217
  0
ARC
  5
305
100
AcDbEntity
  8
0
100
AcDbCircle
 62
7
  6
CONTINUOUS
 10
-1.9453079925
 20
14.6436709252
 40
1.4557775993
100
AcDbArc
 50
273.1763786242
 51
280.2197110663
  0
ARC
  5
306
100
AcDbEntity
  8
0
100
AcDbCircle
 62
9
  6
CONTINUOUS
 10
-3.7696030839
 20
12.859698018
 40
1.3786304773
100
AcDbArc
 50
321.6926687635
 51
322.0438608659
  0
ARC
  5
307
100
AcDbEntity
  8
0
100
AcDbCircle
 62
9
  6
CONTINUOUS
 10
-1.1940971531
 20
12.8050261864
 40
1.2900769094
100
AcDbArc
 50
217.9445228721
 51
218.3165149266
  0
ARC
  5
308
100
AcDbEntity
  8
0
100
AcDbCircle
 62
9
  6
CONTINUOUS
 10
-0.597510507
 20
12.4168201856
 40
0.9662394807
100
AcDbArc
 50
199.7312538625
 51
200.138350193
  0
ARC
  5
309
100
AcDbEntity
  8
0
100
AcDbCircle
 62
9
  6
CONTINUOUS
 10
-0.602109965
 20
12.9922353485
 40
0.9613315665
100
AcDbArc
 50
159.9568384544
 51
160.2723476624
  0
ARC
  5
30A
100
AcDbEntity
  8
0
100
AcDbCircle
 62
9
  6
CONTINUOUS
 10
-2.0383922287
 20
13.5044850164
 40
0.5767012038
100
AcDbArc
 50
338.7487621376
 51
341.8735232003
  0
ARC
  5
30B
100
AcDbEntity
  8
0
100
AcDbCircle
 62
9
  6
CONTINUOUS
 10
-1.9811776514
 20
13.4743829636
 40
0.499679333
100
AcDbArc
 50
338.3347180387
 51
341.6087724226
  0
ARC
  5
30C
100
AcDbEntity
  8
0
100
AcDbCircle
 62
7
  6
CONTINUOUS
 10
-1.7460946347
 20
13.5386709252
 40
0.3329637403
100
AcDbArc
 50
280.2197110663
 51
294.6888154298
  0
ARC
  5
30D
100
AcDbEntity
  8
0
100
AcDbCircle
 62
7
  6
CONTINUOUS
 10
-1.4945069676
 20
13.1636709252
 40
0.28
100
AcDbArc
 50
23.1323963993
 51
36.1341261662
  0
ARC
  5
30E
100
AcDbEntity
  8
0
100
AcDbCircle
 62
7
  6
CONTINUOUS
 10
-1.7070191039
 20
13.4536709252
 40
0.2394121657
100
AcDbArc
 50
294.6888154298
 51
326.6553683898
  0
ARC
  5
30F
100
AcDbEntity
  8
0
100
AcDbCircle
 62
7
  6
CONTINUOUS
 10
-1.9643883202
 20
13.1436709252
 40
0.06
100
AcDbArc
 50
270.0
 51
352.0215136203
  0
ARC
  5
310
100
AcDbEntity
  8
0
100
AcDbCircle
 62
7
  6
CONTINUOUS
 10
-2.9620191039
 20
13.1036709252
 40
0.05
100
AcDbArc
 50
0.0
 51
180.0
  0
ARC
  5
311
100
AcDbEntity
  8
0
100
AcDbCircle
 62
7
  6
CONTINUOUS
 10
-1.8624271468
 20
13.1501912997
 40
0.04
100
AcDbArc
 50
93.1763786242
 51
171.6368713143
  0
ARC
  5
312
100
AcDbEntity
  8
0
100
AcDbCircle
 62
7
  6
CONTINUOUS
 10
-1.2272281573
 20
13.0907898651
 40
0.0015355421
100
AcDbArc
 50
132.2459446372
 51
134.971982314
  0
ARC
  5
313
100
AcDbEntity
  8
0
100
AcDbCircle
 62
7
  6
CONTINUOUS
 10
10.9319808961
 20
13.4701127864
 40
0.02
100
AcDbArc
 50
0.0
 51
90.0000565776
  0
ARC
  5
314
100
AcDbEntity
  8
0
100
AcDbCircle
 62
7
  6
CONTINUOUS
 10
9.7719808961
 20
13.4701127864
 40
0.02
100
AcDbArc
 50
89.9999434224
 51
180.0
  0
ARC
  5
315
100
AcDbEntity
  8
0
100
AcDbCircle
 62
7
  6
CONTINUOUS
 10
19.3026920075
 20
5.1836709252
 40
1.4557775993
100
AcDbArc
 50
79.7802889337
 51
86.8236213758
  0
ARC
  5
316
100
AcDbEntity
  8
0
100
AcDbCircle
 62
7
  6
CONTINUOUS
 10
18.8014149632
 20
5.4396708217
 40
0.91
100
AcDbArc
 50
270.0000000001
 51
284.0494064434
  0
ARC
  5
317
100
AcDbEntity
  8
0
100
AcDbCircle
 62
7
  6
CONTINUOUS
 10
18.8005468291
 20
5.4396708217
 40
0.91
100
AcDbArc
 50
255.9505931911
 51
269.9999999999
  0
ARC
  5
318
100
AcDbEntity
  8
0
100
AcDbCircle
 62
9
  6
CONTINUOUS
 10
18.8009792033
 20
5.4414745273
 40
0.8889945408
100
AcDbArc
 50
265.5590714124
 51
270.0001091009
  0
ARC
  5
319
100
AcDbEntity
  8
0
100
AcDbCircle
 62
9
  6
CONTINUOUS
 10
18.8009831591
 20
5.4414622444
 40
0.8889822456
100
AcDbArc
 50
269.9998541494
 51
274.4409532031
  0
ARC
  5
31A
100
AcDbEntity
  8
0
100
AcDbCircle
 62
9
  6
CONTINUOUS
 10
18.8009792034
 20
5.4414745276
 40
0.8499972151
100
AcDbArc
 50
265.5590783111
 51
270.000090299
  0
ARC
  5
31B
100
AcDbEntity
  8
0
100
AcDbCircle
 62
9
  6
CONTINUOUS
 10
18.8009831588
 20
5.4414622449
 40
0.8499849225
100
AcDbArc
 50
269.9998236696
 51
274.4409475052
  0
ARC
  5
31C
100
AcDbEntity
  8
0
100
AcDbCircle
 62
9
  6
CONTINUOUS
 10
20.3264198723
 20
6.7181029498
 40
0.6211092432
100
AcDbArc
 50
200.1488665593
 51
200.5292232287
  0
ARC
  5
31D
100
AcDbEntity
  8
0
100
AcDbCircle
 62
9
  6
CONTINUOUS
 10
19.2224063761
 20
6.32743659
 40
0.5631130557
100
AcDbArc
 50
18.0887662317
 51
21.2889484321
  0
ARC
  5
31E
100
AcDbEntity
  8
0
100
AcDbCircle
 62
9
  6
CONTINUOUS
 10
19.260107335
 20
6.3505003327
 40
0.5068284894
100
AcDbArc
 50
18.4154605822
 51
21.6433271057
  0
ARC
  5
31F
100
AcDbEntity
  8
0
100
AcDbCircle
 62
7
  6
CONTINUOUS
 10
19.5019053653
 20
6.2886709252
 40
0.3329637403
100
AcDbArc
 50
65.3111845702
 51
79.7802889337
  0
ARC
  5
320
100
AcDbEntity
  8
0
100
AcDbCircle
 62
7
  6
CONTINUOUS
 10
19.7534930324
 20
6.6636709252
 40
0.28
100
AcDbArc
 50
323.8658738338
 51
336.8676036007
  0
ARC
  5
321
100
AcDbEntity
  8
0
100
AcDbCircle
 62
7
  6
CONTINUOUS
 10
19.5409808961
 20
6.3736709252
 40
0.2394121657
100
AcDbArc
 50
33.3446316102
 51
65.3111845702
  0
ARC
  5
322
100
AcDbEntity
  8
0
100
AcDbCircle
 62
9
  6
CONTINUOUS
 10
18.9766966147
 20
4.7757600186
 40
0.2232790247
100
AcDbArc
 50
261.1325427595
 51
278.8679215483
  0
ARC
  5
323
100
AcDbEntity
  8
0
100
AcDbCircle
 62
9
  6
CONTINUOUS
 10
18.625263804
 20
4.7757467283
 40
0.2232657516
100
AcDbArc
 50
261.1321508851
 51
278.8680923232
  0
ARC
  5
324
100
AcDbEntity
  8
0
100
AcDbCircle
 62
9
  6
CONTINUOUS
 10
19.7690547631
 20
6.62630802
 40
0.2187442158
100
AcDbArc
 50
14.6833041569
 51
17.9012310059
  0
ARC
  5
325
100
AcDbEntity
  8
0
100
AcDbCircle
 62
9
  6
CONTINUOUS
 10
19.0036308406
 20
4.8049443256
 40
0.2134661589
100
AcDbArc
 50
261.1316765447
 51
278.8683234465
  0
ARC
  5
326
100
AcDbEntity
  8
0
100
AcDbCircle
 62
9
  6
CONTINUOUS
 10
18.5983309263
 20
4.8049437137
 40
0.2134655523
100
AcDbArc
 50
261.1316580283
 51
278.8683557458
  0
ARC
  5
327
100
AcDbEntity
  8
0
100
AcDbCircle
 62
7
  6
CONTINUOUS
 10
19.2836116798
 20
6.6836709252
 40
0.06
100
AcDbArc
 50
7.9784863797
 51
90.0
  0
ARC
  5
328
100
AcDbEntity
  8
0
100
AcDbCircle
 62
7
  6
CONTINUOUS
 10
18.2859808961
 20
6.7236709252
 40
0.05
100
AcDbArc
 50
180.0
 51
360.0
  0
ARC
  5
329
100
AcDbEntity
  8
0
100
AcDbCircle
 62
7
  6
CONTINUOUS
 10
19.3855728532
 20
6.6771505507
 40
0.04
100
AcDbArc
 50
188.3631286857
 51
266.8236213758
  0
ARC
  5
32A
100
AcDbEntity
  8
0
100
AcDbCircle
 62
7
  6
CONTINUOUS
 10
19.0126153029
 20
4.5956961458
 40
0.0399999726
100
AcDbArc
 50
284.0494478545
 51
360.0
  0
ARC
  5
32B
100
AcDbEntity
  8
0
100
AcDbCircle
 62
7
  6
CONTINUOUS
 10
18.5893464899
 20
4.5956961459
 40
0.0399999727
100
AcDbArc
 50
180.0
 51
255.9505521791
  0
ARC
  5
32C
100
AcDbEntity
  8
0
100
AcDbCircle
 62
9
  6
CONTINUOUS
 10
17.3354714611
 20
7.3918676176
 40
1.5603153974
100
AcDbArc
 50
321.2935813982
 51
321.7138711217
  0
ARC
  5
32D
100
AcDbEntity
  8
0
100
AcDbCircle
 62
7
  6
CONTINUOUS
 10
19.3026920075
 20
9.0636709252
 40
1.4557775993
100
AcDbArc
 50
273.1763786242
 51
280.2197110663
  0
ARC
  5
32E
100
AcDbEntity
  8
0
100
AcDbCircle
 62
9
  6
CONTINUOUS
 10
17.4783969159
 20
7.2796980182
 40
1.3786304777
100
AcDbArc
 50
321.6926687635
 51
322.0438608658
  0
ARC
  5
32F
100
AcDbEntity
  8
0
100
AcDbCircle
 62
9
  6
CONTINUOUS
 10
20.0539028468
 20
7.2250261864
 40
1.2900769093
100
AcDbArc
 50
217.944522872
 51
218.3165149266
  0
ARC
  5
330
100
AcDbEntity
  8
0
100
AcDbCircle
 62
9
  6
CONTINUOUS
 10
20.6504894934
 20
6.8368201857
 40
0.9662394811
100
AcDbArc
 50
199.7312538626
 51
200.1383501929
  0
ARC
  5
331
100
AcDbEntity
  8
0
100
AcDbCircle
 62
9
  6
CONTINUOUS
 10
20.6458900346
 20
7.4122353486
 40
0.9613315661
100
AcDbArc
 50
159.9568384543
 51
160.2723476625
  0
ARC
  5
332
100
AcDbEntity
  8
0
100
AcDbCircle
 62
9
  6
CONTINUOUS
 10
19.2096077713
 20
7.9244850164
 40
0.5767012038
100
AcDbArc
 50
338.7487621376
 51
341.8735232003
  0
ARC
  5
333
100
AcDbEntity
  8
0
100
AcDbCircle
 62
9
  6
CONTINUOUS
 10
19.2668223486
 20
7.8943829636
 40
0.499679333
100
AcDbArc
 50
338.3347180362
 51
341.6087724201
  0
ARC
  5
334
100
AcDbEntity
  8
0
100
AcDbCircle
 62
7
  6
CONTINUOUS
 10
19.5019053653
 20
7.9586709252
 40
0.3329637403
100
AcDbArc
 50
280.2197110663
 51
294.6888154298
  0
ARC
  5
335
100
AcDbEntity
  8
0
100
AcDbCircle
 62
7
  6
CONTINUOUS
 10
19.7534930324
 20
7.5836709252
 40
0.28
100
AcDbArc
 50
23.1323963993
 51
36.1341261662
  0
ARC
  5
336
100
AcDbEntity
  8
0
100
AcDbCircle
 62
7
  6
CONTINUOUS
 10
19.5409808961
 20
7.8736709252
 40
0.2394121657
100
AcDbArc
 50
294.6888154298
 51
326.6553683898
  0
ARC
  5
337
100
AcDbEntity
  8
0
100
AcDbCircle
 62
9
  6
CONTINUOUS
 10
19.7671684661
 20
7.6215853998
 40
0.2207087397
100
AcDbArc
 50
342.1130307389
 51
345.3033280637
  0
ARC
  5
338
100
AcDbEntity
  8
0
100
AcDbCircle
 62
7
  6
CONTINUOUS
 10
19.2836116798
 20
7.5636709252
 40
0.06
100
AcDbArc
 50
270.0
 51
352.0215136203
  0
ARC
  5
339
100
AcDbEntity
  8
0
100
AcDbCircle
 62
7
  6
CONTINUOUS
 10
18.2859808961
 20
7.5236709252
 40
0.05
100
AcDbArc
 50
0.0
 51
180.0
  0
ARC
  5
33A
100
AcDbEntity
  8
0
100
AcDbCircle
 62
7
  6
CONTINUOUS
 10
19.3855728532
 20
7.5701912997
 40
0.04
100
AcDbArc
 50
93.1763786242
 51
171.6368713143
  0
ARC
  5
33B
100
AcDbEntity
  8
0
100
AcDbCircle
 62
7
  6
CONTINUOUS
 10
22.0897738729
 20
6.4060649557
 40
2.3486769104
100
AcDbArc
 50
354.8451033555
 51
355.2404690057
  0
ARC
  5
33C
100
AcDbEntity
  8
0
100
AcDbCircle
 62
7
  6
CONTINUOUS
 10
26.3298519234
 20
6.4041615659
 40
2.3262598249
100
AcDbArc
 50
185.0491666084
 51
185.4242337296
  0
ARC
  5
33D
100
AcDbEntity
  8
0
100
AcDbCircle
 62
7
  6
CONTINUOUS
 10
22.2037685768
 20
6.4333050941
 40
2.2342501493
100
AcDbArc
 50
4.7481816344
 51
5.3657888701
  0
ARC
  5
33E
100
AcDbEntity
  8
0
100
AcDbCircle
 62
7
  6
CONTINUOUS
 10
26.2272646088
 20
6.4345336187
 40
2.2232534387
100
AcDbArc
 50
174.3605586927
 51
174.9564088158
  0
ARC
  5
33F
100
AcDbEntity
  8
0
100
AcDbCircle
 62
9
  6
CONTINUOUS
 10
22.2198882608
 20
6.3857487784
 40
2.1994737403
100
AcDbArc
 50
351.3842185336
 51
355.3047312273
  0
ARC
  5
340
100
AcDbEntity
  8
0
100
AcDbCircle
 62
9
  6
CONTINUOUS
 10
22.2257158058
 20
6.4323912466
 40
2.1935960379
100
AcDbArc
 50
4.6855479356
 51
8.6179569773
  0
ARC
  5
341
100
AcDbEntity
  8
0
100
AcDbCircle
 62
9
  6
CONTINUOUS
 10
26.212841153
 20
6.4329003114
 40
2.1901538326
100
AcDbArc
 50
171.3818648644
 51
175.0122075775
  0
ARC
  5
342
100
AcDbEntity
  8
0
100
AcDbCircle
 62
7
  6
CONTINUOUS
 10
22.2503337006
 20
6.3904081812
 40
2.1873600496
100
AcDbArc
 50
351.3135833396
 51
354.8756816293
  0
ARC
  5
343
100
AcDbEntity
  8
0
100
AcDbCircle
 62
7
  6
CONTINUOUS
 10
26.1805795023
 20
6.3889588541
 40
2.1762189729
100
AcDbArc
 50
185.3972735956
 51
188.6926303255
  0
ARC
  5
344
100
AcDbEntity
  8
0
100
AcDbCircle
 62
9
  6
CONTINUOUS
 10
26.1968407731
 20
6.3825784918
 40
2.1740497876
100
AcDbArc
 50
184.974837506
 51
188.6327989771
  0
ARC
  5
345
100
AcDbEntity
  8
0
100
AcDbCircle
 62
7
  6
CONTINUOUS
 10
24.4119808961
 20
5.7136709252
 40
0.02
100
AcDbArc
 50
270.0
 51
360.0
  0
ARC
  5
346
100
AcDbEntity
  8
0
100
AcDbCircle
 62
7
  6
CONTINUOUS
 10
24.0309808961
 20
5.7136709252
 40
0.02
100
AcDbArc
 50
180.0
 51
270.0
  0
ARC
  5
347
100
AcDbEntity
  8
0
100
AcDbCircle
 62
7
  6
CONTINUOUS
 10
22.4229268917
 20
7.1236709252
 40
3.11
100
AcDbArc
 50
171.6368713143
 51
172.0215136203
  0
ARC
  5
348
100
AcDbEntity
  8
0
100
AcDbCircle
 62
7
  6
CONTINUOUS
 10
22.4229268917
 20
7.1236709252
 40
3.11
100
AcDbArc
 50
187.9784863797
 51
188.3631286857
  0
ARC
  5
349
100
AcDbEntity
  8
0
100
AcDbCircle
 62
9
  6
CONTINUOUS
 10
26.5132176944
 20
7.8386819397
 40
2.491526135
100
AcDbArc
 50
175.5173838982
 51
184.4831245634
  0
ARC
  5
34A
100
AcDbEntity
  8
0
100
AcDbCircle
 62
7
  6
CONTINUOUS
 10
22.1661362564
 20
7.848093997
 40
2.2720122454
100
AcDbArc
 50
4.7479888228
 51
5.1566420281
  0
ARC
  5
34B
100
AcDbEntity
  8
0
100
AcDbCircle
 62
7
  6
CONTINUOUS
 10
22.1888625445
 20
7.8155061381
 40
2.2492270976
100
AcDbArc
 50
354.6324742123
 51
355.2459373843
  0
ARC
  5
34C
100
AcDbEntity
  8
0
100
AcDbCircle
 62
9
  6
CONTINUOUS
 10
26.2463018186
 20
7.8588111576
 40
2.2238536124
100
AcDbArc
 50
171.4068983725
 51
175.4969374762
  0
ARC
  5
34D
100
AcDbEntity
  8
0
100
AcDbCircle
 62
9
  6
CONTINUOUS
 10
22.2174405863
 20
7.8159132418
 40
2.2019235762
100
AcDbArc
 50
351.3895489193
 51
355.3066579527
  0
ARC
  5
34E
100
AcDbEntity
  8
0
100
AcDbCircle
 62
9
  6
CONTINUOUS
 10
26.2175069578
 20
7.8153390397
 40
2.1948951907
100
AcDbArc
 50
184.4790232991
 51
188.6230719113
  0
ARC
  5
34F
100
AcDbEntity
  8
0
100
AcDbCircle
 62
9
  6
CONTINUOUS
 10
22.2347025974
 20
7.8633879588
 40
2.1845563784
100
AcDbArc
 50
4.6782675083
 51
8.6274495112
  0
ARC
  5
350
100
AcDbEntity
  8
0
100
AcDbCircle
 62
7
  6
CONTINUOUS
 10
24.0309808961
 20
8.5336709252
 40
0.02
100
AcDbArc
 50
90.0
 51
180.0
  0
ARC
  5
351
100
AcDbEntity
  8
0
100
AcDbCircle
 62
7
  6
CONTINUOUS
 10
24.4119808961
 20
8.5336709252
 40
0.02
100
AcDbArc
 50
0.0
 51
90.0
  0
ARC
  5
352
100
AcDbEntity
  8
0
100
AcDbCircle
 62
7
  6
CONTINUOUS
 10
21.5019808961
 20
10.6101127864
 40
0.02
100
AcDbArc
 50
0.0
 51
90.0000565776
  0
ARC
  5
353
100
AcDbEntity
  8
0
100
AcDbCircle
 62
7
  6
CONTINUOUS
 10
20.3419808961
 20
10.6101127864
 40
0.02
100
AcDbArc
 50
89.9999434224
 51
180.0
  0
SPLINE
  5
354
100
AcDbEntity
  8
0
100
AcDbSpline
 62
7
  6
CONTINUOUS
 70
0
 71
3
 72
20
 73
16
 74
0
 42
0.0000001
 43
0.0000001
 44
0.0000000001
 40
0.0
 40
0.0
 40
0.0
 40
0.0
 40
0.1985844521
 40
0.3775662216
 40
0.5361259645
 40
0.6734954147
 40
0.734024841
 40
0.7890202729
 40
0.8384123514
 40
0.8821374631
 40
0.920159216
 40
0.9524650809
 40
0.9790615544
 40
0.9902326535
 40
1.0
 40
1.0
 40
1.0
 40
1.0
 10
-1.2180174089
 20
13.0126542757
 30
0.0
 10
-1.218341511
 20
13.0178198649
 30
0.0
 10
-1.2189845676
 20
13.027639493
 30
0.0
 10
-1.2200003467
 20
13.0415758501
 30
0.0
 10
-1.2210163356
 20
13.0539119795
 30
0.0
 10
-1.2218928587
 20
13.0631613995
 30
0.0
 10
-1.2226052828
 20
13.0697141257
 30
0.0
 10
-1.2231170201
 20
13.0739819231
 30
0.0
 10
-1.2236290068
 20
13.0778082676
 30
0.0
 10
-1.2241416228
 20
13.081187716
 30
0.0
 10
-1.2246542381
 20
13.0841161529
 30
0.0
 10
-1.2251661659
 20
13.0865902887
 30
0.0
 10
-1.225612683
 20
13.0883623613
 30
0.0
 10
-1.2259788647
 20
13.089546195
 30
0.0
 10
-1.226163171
 20
13.09006017
 30
0.0
 10
-1.2262566178
 20
13.0902969669
 30
0.0
  0
SPLINE
  5
355
100
AcDbEntity
  8
0
100
AcDbSpline
 62
7
  6
CONTINUOUS
 70
0
 71
3
 72
8
 73
4
 74
0
 42
0.0000001
 43
0.0000001
 44
0.0000000001
 40
0.0
 40
0.0
 40
0.0
 40
0.0
 40
1.0
 40
1.0
 40
1.0
 40
1.0
 10
-1.2282606191
 20
13.0919266782
 30
0.0
 10
-1.2282786466
 20
13.0919102656
 30
0.0
 10
-1.228296247
 20
13.0918934082
 30
0.0
 10
-1.2283134559
 20
13.0918762276
 30
0.0
  0
SPLINE
  5
356
100
AcDbEntity
  8
0
100
AcDbSpline
 62
7
  6
CONTINUOUS
 70
0
 71
3
 72
46
 73
42
 74
0
 42
0.0000001
 43
0.0000001
 44
0.0000000001
 40
0.0
 40
0.0
 40
0.0
 40
0.0
 40
0.1977361525
 40
0.2941645539
 40
0.3876823923
 40
0.4773313018
 40
0.5622357518
 40
0.6415931818
 40
0.7146036198
 40
0.7484791408
 40
0.7804831587
 40
0.8105493454
 40
0.8386126635
 40
0.8646081092
 40
0.8884707268
 40
0.9101356302
 40
0.92953804
 40
0.9383706789
 40
0.9466158934
 40
0.9542709874
 40
0.9613334935
 40
0.9678009827
 40
0.9736710798
 40
0.9789414893
 40
0.9836100359
 40
0.9876747387
 40
0.9911339475
 40
0.9939866288
 40
0.9951855856
 40
0.9962332131
 40
0.9971300715
 40
0.9978772619
 40
0.998476962
 40
0.9989337965
 40
0.9991119742
 40
0.9992599427
 40
0.9994861221
 40
0.9995887002
 40
0.9997019476
 40
0.9998368193
 40
1.0
 40
1.0
 40
1.0
 40
1.0
 10
-1.2185185662
 20
12.7036622459
 30
0.0
 10
-1.2189387
 20
12.7292562775
 30
0.0
 10
-1.2195636226
 20
12.7673315477
 30
0.0
 10
-1.2204121308
 20
12.8175109098
 30
0.0
 10
-1.2210428668
 20
12.8536997642
 30
0.0
 10
-1.2216734642
 20
12.88839658
 30
0.0
 10
-1.2223037512
 20
12.9212599823
 30
0.0
 10
-1.2229332681
 20
12.951969084
 30
0.0
 10
-1.2234693875
 20
12.9760728525
 30
0.0
 10
-1.2239020399
 20
12.9940473341
 30
0.0
 10
-1.224218373
 20
13.0064637436
 30
0.0
 10
-1.2245345567
 20
13.018127493
 30
0.0
 10
-1.2248505687
 20
13.0290131173
 30
0.0
 10
-1.2251663566
 20
13.0390953169
 30
0.0
 10
-1.2254818369
 20
13.0483487971
 30
0.0
 10
-1.2257969405
 20
13.0567482619
 30
0.0
 10
-1.2260668017
 20
13.0632023368
 30
0.0
 10
-1.2262846235
 20
13.0679197863
 30
0.0
 10
-1.2264428049
 20
13.0711176301
 30
0.0
 10
-1.2266009105
 20
13.0740860291
 30
0.0
 10
-1.2267589304
 20
13.0768239505
 30
0.0
 10
-1.2269168367
 20
13.0793303897
 30
0.0
 10
-1.2270745952
 20
13.0816043448
 30
0.0
 10
-1.2272321486
 20
13.0836448223
 30
0.0
 10
-1.2273894308
 20
13.0854508319
 30
0.0
 10
-1.2275462679
 20
13.0870214301
 30
0.0
 10
-1.2277025759
 20
13.0883556487
 30
0.0
 10
-1.2278386055
 20
13.0893185676
 30
0.0
 10
-1.2279500909
 20
13.0899692465
 30
0.0
 10
-1.2280286108
 20
13.0903685845
 30
0.0
 10
-1.2281068972
 20
13.0907081895
 30
0.0
 10
-1.2281847446
 20
13.090988201
 30
0.0
 10
-1.2282622707
 20
13.0912086238
 30
0.0
 10
-1.2283305245
 20
13.0913538233
 30
0.0
 10
-1.22838803
 20
13.091437866
 30
0.0
 10
-1.2284359731
 20
13.0914904663
 30
0.0
 10
-1.2284937719
 20
13.0915236977
 30
0.0
 10
-1.2285523125
 20
13.0915175415
 30
0.0
 10
-1.2285933775
 20
13.0914965382
 30
0.0
 10
-1.2286332333
 20
13.0914606569
 30
0.0
 10
-1.2286570465
 20
13.0914301046
 30
0.0
 10
-1.2286691027
 20
13.0914127588
 30
0.0
  0
SPLINE
  5
357
100
AcDbEntity
  8
0
100
AcDbSpline
 62
7
  6
CONTINUOUS
 70
0
 71
3
 72
14
 73
10
 74
0
 42
0.0000001
 43
0.0000001
 44
0.0000000001
 40
0.0
 40
0.0
 40
0.0
 40
0.0
 40
0.0950148155
 40
0.1766711811
 40
0.2849863785
 40
0.4210228683
 40
0.5853333721
 40
0.7782509417
 40
1.0
 40
1.0
 40
1.0
 40
1.0
 10
-1.2185223391
 20
12.3158471993
 30
0.0
 10
-1.2185898465
 20
12.3158468745
 30
0.0
 10
-1.2186896786
 20
12.3159636573
 30
0.0
 10
-1.2187732873
 20
12.3161384768
 30
0.0
 10
-1.2188538808
 20
12.316359335
 30
0.0
 10
-1.2189321002
 20
12.3166378974
 30
0.0
 10
-1.2190117981
 20
12.3169796893
 30
0.0
 10
-1.2190913774
 20
12.3173831971
 30
0.0
 10
-1.2191411683
 20
12.317673645
 30
0.0
 10
-1.2191663579
 20
12.3178291714
 30
0.0
  0
SPLINE
  5
358
100
AcDbEntity
  8
0
100
AcDbSpline
 62
7
  6
CONTINUOUS
 70
0
 71
3
 72
28
 73
24
 74
0
 42
0.0000001
 43
0.0000001
 44
0.0000000001
 40
0.0
 40
0.0
 40
0.0
 40
0.0
 40
0.0026315124
 40
0.0057894308
 40
0.0136751162
 40
0.0236350528
 40
0.0356437565
 40
0.0496723176
 40
0.0656884823
 40
0.1035518961
 40
0.1489527509
 40
0.2015753379
 40
0.2609463842
 40
0.3264914023
 40
0.4739683715
 40
0.5547059438
 40
0.639196403
 40
0.6826171562
 40
0.7266987014
 40
0.816497742
 40
0.8620426563
 40
0.9078862135
 40
1.0
 40
1.0
 40
1.0
 40
1.0
 10
-1.2191663579
 20
12.3178291714
 30
0.0
 10
-1.2192204912
 20
12.3181634024
 30
0.0
 10
-1.2193255712
 20
12.3189009881
 30
0.0
 10
-1.2195334686
 20
12.3206482698
 30
0.0
 10
-1.2197836987
 20
12.3233394695
 30
0.0
 10
-1.2200700171
 20
12.3271700967
 30
0.0
 10
-1.2203577637
 20
12.3317928728
 30
0.0
 10
-1.2206468672
 20
12.337196036
 30
0.0
 10
-1.2210564862
 20
12.3459239541
 30
0.0
 10
-1.2215562138
 20
12.3586883628
 30
0.0
 10
-1.2221316918
 20
12.3761629794
 30
0.0
 10
-1.2227082027
 20
12.396406159
 30
0.0
 10
-1.223286363
 20
12.4192420703
 30
0.0
 10
-1.224093366
 20
12.4542805518
 30
0.0
 10
-1.2248534266
 20
12.4920698695
 30
0.0
 10
-1.225609749
 20
12.532297286
 30
0.0
 10
-1.226096332
 20
12.5591389063
 30
0.0
 10
-1.2264772583
 20
12.5812652659
 30
0.0
 10
-1.2268551455
 20
12.6040748067
 30
0.0
 10
-1.2272335582
 20
12.6271576891
 30
0.0
 10
-1.2276507465
 20
12.6504666515
 30
0.0
 10
-1.2280909781
 20
12.6740730609
 30
0.0
 10
-1.2284137599
 20
12.6918205837
 30
0.0
 10
-1.228604369
 20
12.7036709721
 30
0.0
  0
SPLINE
  5
359
100
AcDbEntity
  8
0
100
AcDbSpline
 62
7
  6
CONTINUOUS
 70
0
 71
3
 72
37
 73
33
 74
0
 42
0.0000001
 43
0.0000001
 44
0.0000000001
 40
0.0
 40
0.0
 40
0.0
 40
0.0
 40
0.1093201469
 40
0.2143840237
 40
0.3146952929
 40
0.4097601505
 40
0.4990848313
 40
0.5821880031
 40
0.6586804285
 40
0.7282144314
 40
0.7904426996
 40
0.8187087322
 40
0.8450183104
 40
0.8693359238
 40
0.8916398236
 40
0.9119097436
 40
0.9301255194
 40
0.9462671425
 40
0.9603148575
 40
0.9722493461
 40
0.982052118
 40
0.9861488613
 40
0.9897067003
 40
0.992724734
 40
0.9952049343
 40
0.9962446618
 40
0.9971518017
 40
0.9979275738
 40
0.9985738973
 40
0.9990940697
 40
0.9994944443
 40
1.0
 40
1.0
 40
1.0
 40
1.0
 10
20.0219782042
 20
7.3156779356
 30
0.0
 10
20.0218331576
 20
7.3251299411
 30
0.0
 10
20.0215440583
 20
7.3436658769
 30
0.0
 10
20.0211025835
 20
7.3708745905
 30
0.0
 10
20.0206613026
 20
7.3968504568
 30
0.0
 10
20.0202202597
 20
7.4214651235
 30
0.0
 10
20.0197795417
 20
7.4445915277
 30
0.0
 10
20.0193389537
 20
7.4661116304
 30
0.0
 10
20.0188987595
 20
7.4859200197
 30
0.0
 10
20.0184591936
 20
7.5039228448
 30
0.0
 10
20.0180826383
 20
7.5177556971
 30
0.0
 10
20.0177784268
 20
7.5278513722
 30
0.0
 10
20.0175577346
 20
7.5346698535
 30
0.0
 10
20.0173371172
 20
7.5409724904
 30
0.0
 10
20.0171166616
 20
7.5467525269
 30
0.0
 10
20.0168964224
 20
7.5520045166
 30
0.0
 10
20.0166764873
 20
7.5567231427
 30
0.0
 10
20.0164569554
 20
7.5609030909
 30
0.0
 10
20.0162381016
 20
7.5645390906
 30
0.0
 10
20.0160200532
 20
7.5676258472
 30
0.0
 10
20.0158302369
 20
7.5698518438
 30
0.0
 10
20.0156743849
 20
7.5713533893
 30
0.0
 10
20.0155649168
 20
7.5722698089
 30
0.0
 10
20.0154557996
 20
7.5730453276
 30
0.0
 10
20.0153607721
 20
7.5736027812
 30
0.0
 10
20.0152828408
 20
7.5739776456
 30
0.0
 10
20.0152280546
 20
7.5742066125
 30
0.0
 10
20.0151732413
 20
7.5744006476
 30
0.0
 10
20.0151192006
 20
7.5745593405
 30
0.0
 10
20.015063897
 20
7.5746845988
 30
0.0
 10
20.0150037694
 20
7.5747884189
 30
0.0
 10
20.0149352734
 20
7.574850233
 30
0.0
 10
20.0148915571
 20
7.574850233
 30
0.0
  0
LINE
  5
35A
100
AcDbEntity
  8
0
100
AcDbLine
 62
7
  6
CONTINUOUS
 10
20.0109805188
 20
6.6637861298
 11
20.011796639
 21
6.6535958829
  0
SPLINE
  5
35B
100
AcDbEntity
  8
0
100
AcDbSpline
 62
7
  6
CONTINUOUS
 70
0
 71
3
 72
16
 73
12
 74
0
 42
0.0000001
 43
0.0000001
 44
0.0000000001
 40
0.0
 40
0.0
 40
0.0
 40
0.0
 40
0.2243552771
 40
0.4194511973
 40
0.5853945301
 40
0.7223665336
 40
0.8307019543
 40
0.9111047917
 40
0.9413620773
 40
0.9655604073
 40
1.0
 40
1.0
 40
1.0
 40
1.0
 10
20.011796639
 20
6.6535958829
 30
0.0
 10
20.0118214815
 20
6.6534063631
 30
0.0
 10
20.0118705509
 20
6.6530523731
 30
0.0
 10
20.0119490829
 20
6.6525598144
 30
0.0
 10
20.0120273831
 20
6.6521427591
 30
0.0
 10
20.0121050628
 20
6.6518009535
 30
0.0
 10
20.0121824805
 20
6.651534312
 30
0.0
 10
20.0122502783
 20
6.6513599473
 30
0.0
 10
20.0123085869
 20
6.6512601277
 30
0.0
 10
20.0123547471
 20
6.6512010999
 30
0.0
 10
20.0124024012
 20
6.6511715117
 30
0.0
 10
20.0124317422
 20
6.6511714605
 30
0.0
  0
SPLINE
  5
35C
100
AcDbEntity
  8
0
100
AcDbSpline
 62
7
  6
CONTINUOUS
 70
0
 71
3
 72
10
 73
6
 74
0
 42
0.0000001
 43
0.0000001
 44
0.0000000001
 40
0.0
 40
0.0
 40
0.0
 40
0.0
 40
0.5253753296
 40
0.772091432
 40
1.0
 40
1.0
 40
1.0
 40
1.0
 10
20.0148918157
 20
7.123725376
 30
0.0
 10
20.0142506422
 20
7.1698954087
 30
0.0
 10
20.0133097379
 20
7.2377469057
 30
0.0
 10
20.0119971705
 20
7.3256256799
 30
0.0
 10
20.0113241178
 20
7.367334352
 30
0.0
 10
20.0109813328
 20
7.387361976
 30
0.0
  0
SPLINE
  5
35D
100
AcDbEntity
  8
0
100
AcDbSpline
 62
9
  6
CONTINUOUS
 70
0
 71
3
 72
13
 73
9
 74
0
 42
0.0000001
 43
0.0000001
 44
0.0000000001
 40
0.0
 40
0.0
 40
0.0
 40
0.0
 40
0.1214279084
 40
0.2465925263
 40
0.5010089595
 40
0.7548413818
 40
0.8793636678
 40
1.0
 40
1.0
 40
1.0
 40
1.0
 10
24.029359737
 20
5.7054167857
 30
0.0
 10
24.0297364115
 20
5.7045782282
 30
0.0
 10
24.0306306232
 20
5.7029303966
 30
0.0
 10
24.0328831599
 20
5.6998693601
 30
0.0
 10
24.0365047691
 20
5.6966117818
 30
0.0
 10
24.040946291
 20
5.6946216495
 30
0.0
 10
24.0446444539
 20
5.6938133301
 30
0.0
 10
24.0465031351
 20
5.6936711338
 30
0.0
 10
24.0474164151
 20
5.6936709256
 30
0.0
  0
SPLINE
  5
35E
100
AcDbEntity
  8
0
100
AcDbSpline
 62
9
  6
CONTINUOUS
 70
0
 71
3
 72
13
 73
9
 74
0
 42
0.0000001
 43
0.0000001
 44
0.0000000001
 40
0.0
 40
0.0
 40
0.0
 40
0.0
 40
0.0893962751
 40
0.1753372265
 40
0.3701861853
 40
0.4935069848
 40
0.6384510265
 40
1.0
 40
1.0
 40
1.0
 40
1.0
 10
24.4126009558
 20
5.7054150295
 30
0.0
 10
24.4125085225
 20
5.7054133565
 30
0.0
 10
24.4123249486
 20
5.7054343771
 30
0.0
 10
24.4119744289
 20
5.7056066745
 30
0.0
 10
24.4117258779
 20
5.7059713146
 30
0.0
 10
24.4115692505
 20
5.7064226046
 30
0.0
 10
24.4114381678
 20
5.7070630599
 30
0.0
 10
24.4114143124
 20
5.707588917
 30
0.0
 10
24.411414358
 20
5.7079628098
 30
0.0
  0
SPLINE
  5
35F
100
AcDbEntity
  8
0
100
AcDbSpline
 62
9
  6
CONTINUOUS
 70
0
 71
3
 72
9
 73
5
 74
0
 42
0.0000001
 43
0.0000001
 44
0.0000000001
 40
0.0
 40
0.0
 40
0.0
 40
0.0
 40
0.4701013895
 40
1.0
 40
1.0
 40
1.0
 40
1.0
 10
24.411414494
 20
6.046238837
 30
0.0
 10
24.4114143591
 20
6.0484134119
 30
0.0
 10
24.411656265
 20
6.0530395309
 30
0.0
 10
24.4122291834
 20
6.0576327856
 30
0.0
 10
24.4126008134
 20
6.0600556322
 30
0.0
  0
SPLINE
  5
360
100
AcDbEntity
  8
0
100
AcDbSpline
 62
7
  6
CONTINUOUS
 70
0
 71
3
 72
28
 73
24
 74
0
 42
0.0000001
 43
0.0000001
 44
0.0000000001
 40
0.0
 40
0.0
 40
0.0
 40
0.0
 40
0.1422772141
 40
0.2829392244
 40
0.421508506
 40
0.4897882667
 40
0.5572254954
 40
0.6236332017
 40
0.6887472912
 40
0.752175469
 40
0.7830769637
 40
0.8132957634
 40
0.8426790461
 40
0.8710168604
 40
0.8980036451
 40
0.923173364
 40
0.9348636506
 40
0.9458054037
 40
0.9558319238
 40
0.9648080172
 40
0.9726851723
 40
0.9799819897
 40
1.0
 40
1.0
 40
1.0
 40
1.0
 10
24.0109808961
 20
6.1839595884
 30
0.0
 10
24.0109808961
 20
6.1847285355
 30
0.0
 10
24.0109863537
 20
6.1862577095
 30
0.0
 10
24.0110143777
 20
6.1885356404
 30
0.0
 10
24.0110581524
 20
6.1904133369
 30
0.0
 10
24.0111092696
 20
6.1918948699
 30
0.0
 10
24.0111566795
 20
6.1929862548
 30
0.0
 10
24.0112150432
 20
6.1940599854
 30
0.0
 10
24.0112867344
 20
6.1951112015
 30
0.0
 10
24.0113609281
 20
6.195969805
 30
0.0
 10
24.0114319049
 20
6.1966392048
 30
0.0
 10
24.0114912168
 20
6.1971247552
 30
0.0
 10
24.0115583287
 20
6.1975953078
 30
0.0
 10
24.0116348452
 20
6.1980467602
 30
0.0
 10
24.0117230967
 20
6.1984728467
 30
0.0
 10
24.0118107988
 20
6.1988069305
 30
0.0
 10
24.0118934722
 20
6.1990518129
 30
0.0
 10
24.0119600936
 20
6.1992154243
 30
0.0
 10
24.0120346155
 20
6.1993594648
 30
0.0
 10
24.0121187795
 20
6.1994786277
 30
0.0
 10
24.0122175567
 20
6.1995670068
 30
0.0
 10
24.0124105599
 20
6.1996232732
 30
0.0
 10
24.0125472397
 20
6.1995069644
 30
0.0
 10
24.0126190987
 20
6.1994260874
 30
0.0
  0
SPLINE
  5
361
100
AcDbEntity
  8
0
100
AcDbSpline
 62
9
  6
CONTINUOUS
 70
0
 71
3
 72
9
 73
5
 74
0
 42
0.0000001
 43
0.0000001
 44
0.0000000001
 40
0.0
 40
0.0
 40
0.0
 40
0.0
 40
0.5298970576
 40
1.0
 40
1.0
 40
1.0
 40
1.0
 10
24.0293610498
 20
6.0600558829
 30
0.0
 10
24.0297326972
 20
6.0576329752
 30
0.0
 10
24.030305644
 20
6.0530395906
 30
0.0
 10
24.0305475661
 20
6.0484133395
 30
0.0
 10
24.0305474344
 20
6.0462386953
 30
0.0
  0
SPLINE
  5
362
100
AcDbEntity
  8
0
100
AcDbSpline
 62
9
  6
CONTINUOUS
 70
0
 71
3
 72
13
 73
9
 74
0
 42
0.0000001
 43
0.0000001
 44
0.0000000001
 40
0.0
 40
0.0
 40
0.0
 40
0.0
 40
0.3615471806
 40
0.5064900921
 40
0.6298097785
 40
0.8246578582
 40
0.9106003492
 40
1.0
 40
1.0
 40
1.0
 40
1.0
 10
24.0305472977
 20
5.7079630062
 30
0.0
 10
24.030547341
 20
5.7075891203
 30
0.0
 10
24.0305234821
 20
5.7070632732
 30
0.0
 10
24.0303923924
 20
5.7064228324
 30
0.0
 10
24.0302357587
 20
5.7059715547
 30
0.0
 10
24.0299871949
 20
5.7056069285
 30
0.0
 10
24.0296366657
 20
5.7054346522
 30
0.0
 10
24.0294530881
 20
5.7054136414
 30
0.0
 10
24.0293606527
 20
5.7054153188
 30
0.0
  0
SPLINE
  5
363
100
AcDbEntity
  8
0
100
AcDbSpline
 62
7
  6
CONTINUOUS
 70
0
 71
3
 72
28
 73
24
 74
0
 42
0.0000001
 43
0.0000001
 44
0.0000000001
 40
0.0
 40
0.0
 40
0.0
 40
0.0
 40
0.0115457667
 40
0.0195888657
 40
0.0268470216
 40
0.0350114758
 40
0.0443866287
 40
0.0548289897
 40
0.0781821681
 40
0.1039326165
 40
0.1313681636
 40
0.1600496282
 40
0.1896914891
 40
0.2200976024
 40
0.2511289707
 40
0.3146794546
 40
0.379771955
 40
0.4460473432
 40
0.5132642465
 40
0.5812518342
 40
0.7190656252
 40
0.8587938681
 40
1.0
 40
1.0
 40
1.0
 40
1.0
 10
24.4303519098
 20
6.2111858871
 30
0.0
 10
24.4303956422
 20
6.2112353401
 30
0.0
 10
24.4304781427
 20
6.2113148296
 30
0.0
 10
24.4306364364
 20
6.2113577553
 30
0.0
 10
24.4307646418
 20
6.2112971825
 30
0.0
 10
24.430861018
 20
6.211191615
 30
0.0
 10
24.4309441786
 20
6.2110541413
 30
0.0
 10
24.4310457007
 20
6.2108287968
 30
0.0
 10
24.4311491583
 20
6.210503535
 30
0.0
 10
24.431250554
 20
6.2100776998
 30
0.0
 10
24.431337202
 20
6.2096175345
 30
0.0
 10
24.4314123913
 20
6.2091329358
 30
0.0
 10
24.4314782934
 20
6.2086298611
 30
0.0
 10
24.4315365796
 20
6.208112341
 30
0.0
 10
24.431606282
 20
6.2074010767
 30
0.0
 10
24.4316792277
 20
6.2064909456
 30
0.0
 10
24.4317498071
 20
6.2053786511
 30
0.0
 10
24.4318073102
 20
6.2042446215
 30
0.0
 10
24.4318540573
 20
6.2030935395
 30
0.0
 10
24.4319044789
 20
6.201533285
 30
0.0
 10
24.4319477337
 20
6.1995580463
 30
0.0
 10
24.4319754788
 20
6.1971638733
 30
0.0
 10
24.4319808961
 20
6.1955575472
 30
0.0
 10
24.4319808961
 20
6.1947501633
 30
0.0
  0
SPLINE
  5
364
100
AcDbEntity
  8
0
100
AcDbSpline
 62
9
  6
CONTINUOUS
 70
0
 71
3
 72
13
 73
9
 74
0
 42
0.0000001
 43
0.0000001
 44
0.0000000001
 40
0.0
 40
0.0
 40
0.0
 40
0.0
 40
0.1214305558
 40
0.2465964288
 40
0.50101259
 40
0.7548437429
 40
0.8793649201
 40
1.0
 40
1.0
 40
1.0
 40
1.0
 10
24.4126013311
 20
5.7054151739
 30
0.0
 10
24.4122245863
 20
5.7045766843
 30
0.0
 10
24.4113302676
 20
5.7029290028
 30
0.0
 10
24.4090776177
 20
5.6998682895
 30
0.0
 10
24.4054559976
 20
5.6966111559
 30
0.0
 10
24.4010146568
 20
5.694621387
 30
0.0
 10
24.3973167087
 20
5.693813246
 30
0.0
 10
24.3954581496
 20
5.6936711111
 30
0.0
 10
24.3945449319
 20
5.6936709255
 30
0.0
  0
SPLINE
  5
365
100
AcDbEntity
  8
0
100
AcDbSpline
 62
9
  6
CONTINUOUS
 70
0
 71
3
 72
13
 73
9
 74
0
 42
0.0000001
 43
0.0000001
 44
0.0000000001
 40
0.0
 40
0.0
 40
0.0
 40
0.0
 40
0.1230803937
 40
0.2496514514
 40
0.5056869973
 40
0.7584784532
 40
0.8814424436
 40
1.0
 40
1.0
 40
1.0
 40
1.0
 10
24.3933720373
 20
5.6970751805
 30
0.0
 10
24.394279898
 20
5.6970751815
 30
0.0
 10
24.3961238145
 20
5.69720625
 30
0.0
 10
24.3997851369
 20
5.6979529622
 30
0.0
 10
24.4041743451
 20
5.6997782492
 30
0.0
 10
24.4078176612
 20
5.7027947687
 30
0.0
 10
24.4101050041
 20
5.7056439882
 30
0.0
 10
24.4110236117
 20
5.7071792925
 30
0.0
 10
24.4114144238
 20
5.7079616065
 30
0.0
  0
SPLINE
  5
366
100
AcDbEntity
  8
0
100
AcDbSpline
 62
9
  6
CONTINUOUS
 70
0
 71
3
 72
14
 73
10
 74
0
 42
0.0000001
 43
0.0000001
 44
0.0000000001
 40
0.0
 40
0.0
 40
0.0
 40
0.0
 40
0.3830977428
 40
0.5358443982
 40
0.6638057678
 40
0.76897399
 40
0.8550525153
 40
0.9286958916
 40
1.0
 40
1.0
 40
1.0
 40
1.0
 10
24.3933717946
 20
5.6970751805
 30
0.0
 10
24.3933717949
 20
5.6965794821
 30
0.0
 10
24.3933954871
 20
5.695884328
 30
0.0
 10
24.3935228041
 20
5.6950339548
 30
0.0
 10
24.3936468217
 20
5.6945490521
 30
0.0
 10
24.393807339
 20
5.6941662634
 30
0.0
 10
24.3940085705
 20
5.6938835136
 30
0.0
 10
24.3942586861
 20
5.6937065731
 30
0.0
 10
24.3944492411
 20
5.6936709256
 30
0.0
 10
24.394541503
 20
5.6936709252
 30
0.0
  0
SPLINE
  5
367
100
AcDbEntity
  8
0
100
AcDbSpline
 62
9
  6
CONTINUOUS
 70
0
 71
3
 72
14
 73
10
 74
0
 42
0.0000001
 43
0.0000001
 44
0.0000000001
 40
0.0
 40
0.0
 40
0.0
 40
0.0
 40
0.0712946985
 40
0.1449212244
 40
0.2309909107
 40
0.3361604272
 40
0.4641288065
 40
0.6168848926
 40
1.0
 40
1.0
 40
1.0
 40
1.0
 10
24.0474202517
 20
5.6936709252
 30
0.0
 10
24.0475124976
 20
5.6936709258
 30
0.0
 10
24.0477030154
 20
5.693706565
 30
0.0
 10
24.0479530476
 20
5.6938835302
 30
0.0
 10
24.0481541863
 20
5.6941662843
 30
0.0
 10
24.0483146739
 20
5.6945490618
 30
0.0
 10
24.0484387182
 20
5.6950339582
 30
0.0
 10
24.048566168
 20
5.695884318
 30
0.0
 10
24.0485899573
 20
5.6965794801
 30
0.0
 10
24.0485899575
 20
5.6970751805
 30
0.0
  0
SPLINE
  5
368
100
AcDbEntity
  8
0
100
AcDbSpline
 62
9
  6
CONTINUOUS
 70
0
 71
3
 72
13
 73
9
 74
0
 42
0.0000001
 43
0.0000001
 44
0.0000000001
 40
0.0
 40
0.0
 40
0.0
 40
0.0
 40
0.1185574174
 40
0.2415214019
 40
0.4943130888
 40
0.7503486135
 40
0.8769196313
 40
1.0
 40
1.0
 40
1.0
 40
1.0
 10
24.0305473684
 20
5.7079616065
 30
0.0
 10
24.0309381778
 20
5.7071792922
 30
0.0
 10
24.0318567834
 20
5.7056439875
 30
0.0
 10
24.0341441299
 20
5.7027947695
 30
0.0
 10
24.0377874474
 20
5.6997782502
 30
0.0
 10
24.0421766556
 20
5.6979529583
 30
0.0
 10
24.0458379783
 20
5.6972062488
 30
0.0
 10
24.0476818944
 20
5.6970751813
 30
0.0
 10
24.048589755
 20
5.6970751805
 30
0.0
  0
SPLINE
  5
369
100
AcDbEntity
  8
0
100
AcDbSpline
 62
7
  6
CONTINUOUS
 70
0
 71
3
 72
14
 73
10
 74
0
 42
0.0000001
 43
0.0000001
 44
0.0000000001
 40
0.0
 40
0.0
 40
0.0
 40
0.0
 40
0.1469355585
 40
0.2918523309
 40
0.5645538775
 40
0.688815161
 40
0.8032653831
 40
0.9071009036
 40
1.0
 40
1.0
 40
1.0
 40
1.0
 10
24.4119808961
 20
6.2057081594
 30
0.0
 10
24.4129444192
 20
6.2056784556
 30
0.0
 10
24.4148614132
 20
6.2056897188
 30
0.0
 10
24.4185552363
 20
6.2059800446
 30
0.0
 10
24.4220668319
 20
6.2066566578
 30
0.0
 10
24.4252400883
 20
6.2077621321
 30
0.0
 10
24.4272717848
 20
6.2087362028
 30
0.0
 10
24.428986488
 20
6.2098554578
 30
0.0
 10
24.4299479262
 20
6.2107295407
 30
0.0
 10
24.4303519098
 20
6.2111858871
 30
0.0
  0
SPLINE
  5
36A
100
AcDbEntity
  8
0
100
AcDbSpline
 62
9
  6
CONTINUOUS
 70
0
 71
3
 72
15
 73
11
 74
0
 42
0.0000001
 43
0.0000001
 44
0.0000000001
 40
0.0
 40
0.0
 40
0.0
 40
0.0
 40
0.0889474241
 40
0.1909313249
 40
0.3053495454
 40
0.4312229703
 40
0.5671154394
 40
0.7098640923
 40
0.855536042
 40
1.0
 40
1.0
 40
1.0
 40
1.0
 10
24.4126013312
 20
6.0600593754
 30
0.0
 10
24.4122032977
 20
6.0596619142
 30
0.0
 10
24.4112491347
 20
6.0589077297
 30
0.0
 10
24.4095557957
 20
6.0579677026
 30
0.0
 10
24.4075363436
 20
6.0571730058
 30
0.0
 10
24.4052320453
 20
6.0565622383
 30
0.0
 10
24.4026997789
 20
6.0561723126
 30
0.0
 10
24.4000199665
 20
6.0559896802
 30
0.0
 10
24.3972802485
 20
6.0560065643
 30
0.0
 10
24.3954489613
 20
6.056147013
 30
0.0
 10
24.3945412826
 20
6.0562507214
 30
0.0
  0
SPLINE
  5
36B
100
AcDbEntity
  8
0
100
AcDbSpline
 62
7
  6
CONTINUOUS
 70
0
 71
3
 72
28
 73
24
 74
0
 42
0.0000001
 43
0.0000001
 44
0.0000000001
 40
0.0
 40
0.0
 40
0.0
 40
0.0
 40
0.1412076157
 40
0.2809373047
 40
0.4187524991
 40
0.4867407635
 40
0.5539583204
 40
0.6202343306
 40
0.6853274085
 40
0.7488784034
 40
0.7799099892
 40
0.8103162879
 40
0.8399582819
 40
0.86863982
 40
0.8960753177
 40
0.9218256075
 40
0.9451782386
 40
0.9556201258
 40
0.9649952779
 40
0.9731591237
 40
0.9804164422
 40
0.9884590326
 40
1.0
 40
1.0
 40
1.0
 40
1.0
 10
24.4319808961
 20
8.0525916871
 30
0.0
 10
24.4319808961
 20
8.0517842964
 30
0.0
 10
24.4319754787
 20
8.0501779568
 30
0.0
 10
24.4319477332
 20
8.047783764
 30
0.0
 10
24.4319044775
 20
8.0458085093
 30
0.0
 10
24.4318540548
 20
8.0442482424
 30
0.0
 10
24.4318073068
 20
8.0430971517
 30
0.0
 10
24.4317498023
 20
8.0419631139
 30
0.0
 10
24.4316792212
 20
8.040850812
 30
0.0
 10
24.4316062735
 20
8.0399406754
 30
0.0
 10
24.4315365689
 20
8.0392294076
 30
0.0
 10
24.4314782809
 20
8.0387118857
 30
0.0
 10
24.4314123765
 20
8.0382088101
 30
0.0
 10
24.4313371845
 20
8.0377242119
 30
0.0
 10
24.4312505328
 20
8.0372640492
 30
0.0
 10
24.4311491322
 20
8.0368382202
 30
0.0
 10
24.4310456712
 20
8.0365129681
 30
0.0
 10
24.4309441359
 20
8.0362876336
 30
0.0
 10
24.4308609765
 20
8.0361501747
 30
0.0
 10
24.4307645955
 20
8.0360445971
 30
0.0
 10
24.4306363555
 20
8.0359841667
 30
0.0
 10
24.4304781124
 20
8.0360269646
 30
0.0
 10
24.4303955526
 20
8.0361063765
 30
0.0
 10
24.430351844
 20
8.0361558136
 30
0.0
  0
SPLINE
  5
36C
100
AcDbEntity
  8
0
100
AcDbSpline
 62
7
  6
CONTINUOUS
 70
0
 71
3
 72
10
 73
6
 74
0
 42
0.0000001
 43
0.0000001
 44
0.0000000001
 40
0.0
 40
0.0
 40
0.0
 40
0.0
 40
0.2497994058
 40
0.6247462782
 40
1.0
 40
1.0
 40
1.0
 40
1.0
 10
24.4289529837
 20
8.0523000252
 30
0.0
 10
24.4279352171
 20
8.0635778497
 30
0.0
 10
24.4251788097
 20
8.0917648923
 30
0.0
 10
24.4199198057
 20
8.1367937784
 30
0.0
 10
24.4151752726
 20
8.1704724028
 30
0.0
 10
24.4125994355
 20
8.1872868729
 30
0.0
  0
SPLINE
  5
36D
100
AcDbEntity
  8
0
100
AcDbSpline
 62
9
  6
CONTINUOUS
 70
0
 71
3
 72
9
 73
5
 74
0
 42
0.0000001
 43
0.0000001
 44
0.0000000001
 40
0.0
 40
0.0
 40
0.0
 40
0.0
 40
0.5298869508
 40
1.0
 40
1.0
 40
1.0
 40
1.0
 10
24.4126008138
 20
8.187285503
 30
0.0
 10
24.4122292418
 20
8.1897078599
 30
0.0
 10
24.4116563672
 20
8.1943002834
 30
0.0
 10
24.4114143471
 20
8.1989255607
 30
0.0
 10
24.4114143578
 20
8.2010998
 30
0.0
  0
SPLINE
  5
36E
100
AcDbEntity
  8
0
100
AcDbSpline
 62
9
  6
CONTINUOUS
 70
0
 71
3
 72
13
 73
9
 74
0
 42
0.0000001
 43
0.0000001
 44
0.0000000001
 40
0.0
 40
0.0
 40
0.0
 40
0.0
 40
0.3614122578
 40
0.5062538327
 40
0.6294710688
 40
0.8242381417
 40
0.9103144969
 40
1.0
 40
1.0
 40
1.0
 40
1.0
 10
24.411414498
 20
8.5393887046
 30
0.0
 10
24.411414799
 20
8.5397618256
 30
0.0
 10
24.4114391599
 20
8.5402865508
 30
0.0
 10
24.4115711238
 20
8.5409253505
 30
0.0
 10
24.4117284825
 20
8.5413752334
 30
0.0
 10
24.4119782514
 20
8.541738289
 30
0.0
 10
24.4123295042
 20
8.5419084453
 30
0.0
 10
24.4125132952
 20
8.5419285278
 30
0.0
 10
24.4126058627
 20
8.5419264354
 30
0.0
  0
SPLINE
  5
36F
100
AcDbEntity
  8
0
100
AcDbSpline
 62
7
  6
CONTINUOUS
 70
0
 71
3
 72
10
 73
6
 74
0
 42
0.0000001
 43
0.0000001
 44
0.0000000001
 40
0.0
 40
0.0
 40
0.0
 40
0.0
 40
0.2498748317
 40
0.4998210907
 40
1.0
 40
1.0
 40
1.0
 40
1.0
 10
24.4282281948
 20
6.6422384267
 30
0.0
 10
24.4272333274
 20
6.6528310813
 30
0.0
 10
24.4250926088
 20
6.67400565
 30
0.0
 10
24.4202094368
 20
6.7163040168
 30
0.0
 10
24.4158369885
 20
6.7479488333
 30
0.0
 10
24.412607062
 20
6.7689992985
 30
0.0
  0
SPLINE
  5
370
100
AcDbEntity
  8
0
100
AcDbSpline
 62
9
  6
CONTINUOUS
 70
0
 71
3
 72
9
 73
5
 74
0
 42
0.0000001
 43
0.0000001
 44
0.0000000001
 40
0.0
 40
0.0
 40
0.0
 40
0.0
 40
0.4859179793
 40
1.0
 40
1.0
 40
1.0
 40
1.0
 10
24.4126057336
 20
6.7689976575
 30
0.0
 10
24.4122004909
 20
6.7716259238
 30
0.0
 10
24.4116045633
 20
6.7770728937
 30
0.0
 10
24.4114150338
 20
6.7825474894
 30
0.0
 10
24.4114143613
 20
6.7853609492
 30
0.0
  0
SPLINE
  5
371
100
AcDbEntity
  8
0
100
AcDbSpline
 62
9
  6
CONTINUOUS
 70
0
 71
3
 72
9
 73
5
 74
0
 42
0.0000001
 43
0.0000001
 44
0.0000000001
 40
0.0
 40
0.0
 40
0.0
 40
0.0
 40
0.5140536751
 40
1.0
 40
1.0
 40
1.0
 40
1.0
 10
24.4114144939
 20
7.4619512834
 30
0.0
 10
24.4114144834
 20
7.4647640984
 30
0.0
 10
24.4116025702
 20
7.4702377845
 30
0.0
 10
24.412196697
 20
7.4756839788
 30
0.0
 10
24.4126009427
 20
7.4783120871
 30
0.0
  0
SPLINE
  5
372
100
AcDbEntity
  8
0
100
AcDbSpline
 62
7
  6
CONTINUOUS
 70
0
 71
3
 72
10
 73
6
 74
0
 42
0.0000001
 43
0.0000001
 44
0.0000000001
 40
0.0
 40
0.0
 40
0.0
 40
0.0
 40
0.5001880541
 40
0.7501292377
 40
1.0
 40
1.0
 40
1.0
 40
1.0
 10
24.4125999376
 20
7.478313327
 30
0.0
 10
24.4158317535
 20
7.4993690675
 30
0.0
 10
24.4202034161
 20
7.5310219106
 30
0.0
 10
24.4250901696
 20
7.573330138
 30
0.0
 10
24.4272316395
 20
7.5945093779
 30
0.0
 10
24.4282271042
 20
7.6051043672
 30
0.0
  0
SPLINE
  5
373
100
AcDbEntity
  8
0
100
AcDbSpline
 62
7
  6
CONTINUOUS
 70
0
 71
3
 72
23
 73
19
 74
0
 42
0.0000001
 43
0.0000001
 44
0.0000000001
 40
0.0
 40
0.0
 40
0.0
 40
0.0
 40
0.0115311624
 40
0.0253683153
 40
0.0562965299
 40
0.0886158121
 40
0.1212040065
 40
0.1537605251
 40
0.1862016099
 40
0.2506754733
 40
0.314642839
 40
0.3781793611
 40
0.4413543463
 40
0.5042235915
 40
0.6292113461
 40
0.7533993187
 40
0.8769564103
 40
1.0
 40
1.0
 40
1.0
 40
1.0
 10
24.4303519065
 20
7.6290921928
 30
0.0
 10
24.4304124087
 20
7.6290200221
 30
0.0
 10
24.4305197221
 20
7.6288403797
 30
0.0
 10
24.4306974177
 20
7.6284159919
 30
0.0
 10
24.4308640366
 20
7.6278067418
 30
0.0
 10
24.4310192785
 20
7.6270396982
 30
0.0
 10
24.4311439149
 20
7.6262532482
 30
0.0
 10
24.4312474684
 20
7.62546298
 30
0.0
 10
24.4313642752
 20
7.6244119862
 30
0.0
 10
24.4314808152
 20
7.6231030875
 30
0.0
 10
24.4315904491
 20
7.6215389694
 30
0.0
 10
24.4316780951
 20
7.6199841072
 30
0.0
 10
24.4317490906
 20
7.6184373901
 30
0.0
 10
24.4318259241
 20
7.6163886099
 30
0.0
 10
24.4318952136
 20
7.613840984
 30
0.0
 10
24.4319473937
 20
7.6107972515
 30
0.0
 10
24.431975355
 20
7.6077690889
 30
0.0
 10
24.4319808961
 20
7.605755072
 30
0.0
 10
24.4319808961
 20
7.6047501633
 30
0.0
  0
SPLINE
  5
374
100
AcDbEntity
  8
0
100
AcDbSpline
 62
7
  6
CONTINUOUS
 70
0
 71
3
 72
23
 73
19
 74
0
 42
0.0000001
 43
0.0000001
 44
0.0000000001
 40
0.0
 40
0.0
 40
0.0
 40
0.0
 40
0.1230441309
 40
0.2466017619
 40
0.370790287
 40
0.4957786097
 40
0.5586481474
 40
0.6218234334
 40
0.6853602675
 40
0.749327963
 40
0.8138021943
 40
0.8462434492
 40
0.8788002287
 40
0.9113884252
 40
0.9437086118
 40
0.9746339673
 40
0.9884701861
 40
1.0
 40
1.0
 40
1.0
 40
1.0
 10
24.4319808961
 20
6.6425916871
 30
0.0
 10
24.4319808961
 20
6.6415867707
 30
0.0
 10
24.4319753549
 20
6.6395727383
 30
0.0
 10
24.4319473931
 20
6.6365445525
 30
0.0
 10
24.4318952122
 20
6.6335007964
 30
0.0
 10
24.4318259214
 20
6.6309531507
 30
0.0
 10
24.4317490863
 20
6.6289043544
 30
0.0
 10
24.4316780893
 20
6.6273576249
 30
0.0
 10
24.431590441
 20
6.62580275
 30
0.0
 10
24.4314808038
 20
6.6242386187
 30
0.0
 10
24.4313642604
 20
6.6229297088
 30
0.0
 10
24.4312474487
 20
6.6218787055
 30
0.0
 10
24.4311438909
 20
6.6210884316
 30
0.0
 10
24.4310192448
 20
6.6203019711
 30
0.0
 10
24.4308640019
 20
6.6195349404
 30
0.0
 10
24.4306973612
 20
6.6189257201
 30
0.0
 10
24.4305196763
 20
6.6185013702
 30
0.0
 10
24.4304123463
 20
6.6183217581
 30
0.0
 10
24.4303518429
 20
6.6182496023
 30
0.0
  0
SPLINE
  5
375
100
AcDbEntity
  8
0
100
AcDbSpline
 62
7
  6
CONTINUOUS
 70
0
 71
3
 72
14
 73
10
 74
0
 42
0.0000001
 43
0.0000001
 44
0.0000000001
 40
0.0
 40
0.0
 40
0.0
 40
0.0
 40
0.094277356
 40
0.1994073416
 40
0.3148510851
 40
0.4396407127
 40
0.7116037398
 40
0.8551309688
 40
1.0
 40
1.0
 40
1.0
 40
1.0
 10
24.4303518429
 20
6.6182496023
 30
0.0
 10
24.4299479105
 20
6.6177677595
 30
0.0
 10
24.428988303
 20
6.6168355427
 30
0.0
 10
24.4272752413
 20
6.6156115218
 30
0.0
 10
24.4252448339
 20
6.6145126287
 30
0.0
 10
24.4220803515
 20
6.6132137171
 30
0.0
 10
24.4185698948
 20
6.6123159664
 30
0.0
 10
24.4148678596
 20
6.6117938323
 30
0.0
 10
24.4129466035
 20
6.6116633118
 30
0.0
 10
24.4119808961
 20
6.6116336575
 30
0.0
  0
SPLINE
  5
376
100
AcDbEntity
  8
0
100
AcDbSpline
 62
7
  6
CONTINUOUS
 70
0
 71
3
 72
14
 73
10
 74
0
 42
0.0000001
 43
0.0000001
 44
0.0000000001
 40
0.0
 40
0.0
 40
0.0
 40
0.0
 40
0.1447654603
 40
0.2882126734
 40
0.5601128881
 40
0.6849233858
 40
0.8004197592
 40
0.9056278371
 40
1.0
 40
1.0
 40
1.0
 40
1.0
 10
24.0309808961
 20
6.6233484222
 30
0.0
 10
24.0300160908
 20
6.623379956
 30
0.0
 10
24.0280966186
 20
6.6235139682
 30
0.0
 10
24.0243976881
 20
6.6240421005
 30
0.0
 10
24.0208900503
 20
6.624944949
 30
0.0
 10
24.0177276055
 20
6.6262475144
 30
0.0
 10
24.0156975883
 20
6.6273484131
 30
0.0
 10
24.0139840647
 20
6.62857374
 30
0.0
 10
24.0130236174
 20
6.6295063628
 30
0.0
 10
24.0126190259
 20
6.6299883493
 30
0.0
  0
SPLINE
  5
377
100
AcDbEntity
  8
0
100
AcDbSpline
 62
9
  6
CONTINUOUS
 70
0
 71
3
 72
15
 73
11
 74
0
 42
0.0000001
 43
0.0000001
 44
0.0000000001
 40
0.0
 40
0.0
 40
0.0
 40
0.0
 40
0.093854035
 40
0.2006180927
 40
0.3187869524
 40
0.446649364
 40
0.5822088619
 40
0.7221973069
 40
0.8627827122
 40
1.0
 40
1.0
 40
1.0
 40
1.0
 10
24.0293597361
 20
6.7690276135
 30
0.0
 10
24.0297577034
 20
6.7685391633
 30
0.0
 10
24.0307050894
 20
6.7675732254
 30
0.0
 10
24.032391672
 20
6.766249173
 30
0.0
 10
24.0344052618
 20
6.764994271
 30
0.0
 10
24.0367047513
 20
6.7638565102
 30
0.0
 10
24.0392364484
 20
6.7628856095
 30
0.0
 10
24.0419163982
 20
6.7620886116
 30
0.0
 10
24.0446558181
 20
6.7614776984
 30
0.0
 10
24.0465012276
 20
6.7611962672
 30
0.0
 10
24.0474164109
 20
6.7610915975
 30
0.0
  0
SPLINE
  5
378
100
AcDbEntity
  8
0
100
AcDbSpline
 62
7
  6
CONTINUOUS
 70
0
 71
3
 72
10
 73
6
 74
0
 42
0.0000001
 43
0.0000001
 44
0.0000000001
 40
0.0
 40
0.0
 40
0.0
 40
0.0
 40
0.500174122
 40
0.7501227101
 40
1.0
 40
1.0
 40
1.0
 40
1.0
 10
24.029354842
 20
6.7689993444
 30
0.0
 10
24.0263978254
 20
6.7497321161
 30
0.0
 10
24.0223592463
 20
6.7207736577
 30
0.0
 10
24.0177696069
 20
6.6820720829
 30
0.0
 10
24.0157286563
 20
6.6626993306
 30
0.0
 10
24.014771739
 20
6.6530082251
 30
0.0
  0
SPLINE
  5
379
100
AcDbEntity
  8
0
100
AcDbSpline
 62
7
  6
CONTINUOUS
 70
0
 71
3
 72
23
 73
19
 74
0
 42
0.0000001
 43
0.0000001
 44
0.0000000001
 40
0.0
 40
0.0
 40
0.0
 40
0.0
 40
0.0113947218
 40
0.0249606395
 40
0.0554417395
 40
0.0875368345
 40
0.1200314006
 40
0.1525595631
 40
0.1850080573
 40
0.2495487999
 40
0.3136137983
 40
0.377258071
 40
0.4405426595
 40
0.5035196269
 40
0.6287111389
 40
0.7530843161
 40
0.876807759
 40
1.0
 40
1.0
 40
1.0
 40
1.0
 10
24.0126190259
 20
6.6299883493
 30
0.0
 10
24.0125614887
 20
6.6300568804
 30
0.0
 10
24.0124577002
 20
6.6302251666
 30
0.0
 10
24.0122821971
 20
6.6306240419
 30
0.0
 10
24.0121151179
 20
6.6312002596
 30
0.0
 10
24.0119583033
 20
6.6319301321
 30
0.0
 10
24.0118317532
 20
6.6326824968
 30
0.0
 10
24.0117263781
 20
6.6334406836
 30
0.0
 10
24.0116073969
 20
6.6344508563
 30
0.0
 10
24.0114886729
 20
6.6357101702
 30
0.0
 10
24.0113771067
 20
6.6372158309
 30
0.0
 10
24.0112879623
 20
6.6387130847
 30
0.0
 10
24.0112158188
 20
6.6402026819
 30
0.0
 10
24.0111378132
 20
6.6421758071
 30
0.0
 10
24.0110675667
 20
6.6446292458
 30
0.0
 10
24.0110147454
 20
6.6475602184
 30
0.0
 10
24.0109864872
 20
6.6504758192
 30
0.0
 10
24.0109808961
 20
6.6524148403
 30
0.0
 10
24.0109808961
 20
6.653382262
 30
0.0
  0
SPLINE
  5
37A
100
AcDbEntity
  8
0
100
AcDbSpline
 62
7
  6
CONTINUOUS
 70
0
 71
3
 72
10
 73
6
 74
0
 42
0.0000001
 43
0.0000001
 44
0.0000000001
 40
0.0
 40
0.0
 40
0.0
 40
0.0
 40
0.2498941092
 40
0.6248108671
 40
1.0
 40
1.0
 40
1.0
 40
1.0
 10
24.0109808961
 20
7.6368158983
 30
0.0
 10
24.012037738
 20
7.6235641166
 30
0.0
 10
24.0149733959
 20
7.5904535152
 30
0.0
 10
24.0208349243
 20
7.5375730601
 30
0.0
 10
24.0263333261
 20
7.4980433132
 30
0.0
 10
24.029362156
 20
7.4783151679
 30
0.0
  0
SPLINE
  5
37B
100
AcDbEntity
  8
0
100
AcDbSpline
 62
9
  6
CONTINUOUS
 70
0
 71
3
 72
9
 73
5
 74
0
 42
0.0000001
 43
0.0000001
 44
0.0000000001
 40
0.0
 40
0.0
 40
0.0
 40
0.0
 40
0.4859432522
 40
1.0
 40
1.0
 40
1.0
 40
1.0
 10
24.0293607886
 20
7.4783134809
 30
0.0
 10
24.0297650858
 20
7.4756852882
 30
0.0
 10
24.0303592952
 20
7.4702388781
 30
0.0
 10
24.0305474287
 20
7.4647649705
 30
0.0
 10
24.0305474345
 20
7.4619520243
 30
0.0
  0
SPLINE
  5
37C
100
AcDbEntity
  8
0
100
AcDbSpline
 62
9
  6
CONTINUOUS
 70
0
 71
3
 72
9
 73
5
 74
0
 42
0.0000001
 43
0.0000001
 44
0.0000000001
 40
0.0
 40
0.0
 40
0.0
 40
0.0
 40
0.5140794044
 40
1.0
 40
1.0
 40
1.0
 40
1.0
 10
24.0305472947
 20
6.7853598233
 30
0.0
 10
24.0305465954
 20
6.7825466247
 30
0.0
 10
24.0303570437
 20
6.7770725115
 30
0.0
 10
24.0297611573
 20
6.771626022
 30
0.0
 10
24.0293559536
 20
6.7689979715
 30
0.0
  0
SPLINE
  5
37D
100
AcDbEntity
  8
0
100
AcDbSpline
 62
7
  6
CONTINUOUS
 70
0
 71
3
 72
14
 73
10
 74
0
 42
0.0000001
 43
0.0000001
 44
0.0000000001
 40
0.0
 40
0.0
 40
0.0
 40
0.0
 40
0.094483412
 40
0.1999784055
 40
0.3158162197
 40
0.440905688
 40
0.7128176204
 40
0.8558914323
 40
1.0
 40
1.0
 40
1.0
 40
1.0
 10
24.0109867273
 20
7.6368161964
 30
0.0
 10
24.011390268
 20
7.6373049886
 30
0.0
 10
24.0123477619
 20
7.6382553457
 30
0.0
 10
24.014055308
 20
7.6395183449
 30
0.0
 10
24.0160794436
 20
7.6406704107
 30
0.0
 10
24.0192319702
 20
7.6420591714
 30
0.0
 10
24.0227347223
 20
7.6430605153
 30
0.0
 10
24.0264341962
 20
7.6436879407
 30
0.0
 10
24.0283541055
 20
7.6438733635
 30
0.0
 10
24.0293191624
 20
7.6439307409
 30
0.0
  0
SPLINE
  5
37E
100
AcDbEntity
  8
0
100
AcDbSpline
 62
9
  6
CONTINUOUS
 70
0
 71
3
 72
10
 73
6
 74
0
 42
0.0000001
 43
0.0000001
 44
0.0000000001
 40
0.0
 40
0.0
 40
0.0
 40
0.0
 40
0.2273802796
 40
0.4707354144
 40
1.0
 40
1.0
 40
1.0
 40
1.0
 10
24.3933717944
 20
8.2093844738
 30
0.0
 10
24.3933717948
 20
8.2079945014
 30
0.0
 10
24.3934270417
 20
8.2051167416
 30
0.0
 10
24.3937349415
 20
8.199010856
 30
0.0
 10
24.3941742504
 20
8.1943056046
 30
0.0
 10
24.3945415031
 20
8.1910911289
 30
0.0
  0
SPLINE
  5
37F
100
AcDbEntity
  8
0
100
AcDbSpline
 62
9
  6
CONTINUOUS
 70
0
 71
3
 72
10
 73
6
 74
0
 42
0.0000001
 43
0.0000001
 44
0.0000000001
 40
0.0
 40
0.0
 40
0.0
 40
0.0
 40
0.5292643115
 40
0.7726196158
 40
1.0
 40
1.0
 40
1.0
 40
1.0
 10
24.0474202516
 20
8.1910911289
 30
0.0
 10
24.0477874946
 20
8.1943056014
 30
0.0
 10
24.0482264612
 20
8.1990108784
 30
0.0
 10
24.0485345419
 20
8.205116744
 30
0.0
 10
24.048589957
 20
8.2079945019
 30
0.0
 10
24.0485899573
 20
8.2093844738
 30
0.0
  0
SPLINE
  5
380
100
AcDbEntity
  8
0
100
AcDbSpline
 62
9
  6
CONTINUOUS
 70
0
 71
3
 72
14
 73
10
 74
0
 42
0.0000001
 43
0.0000001
 44
0.0000000001
 40
0.0
 40
0.0
 40
0.0
 40
0.0
 40
0.3830977423
 40
0.5358443974
 40
0.6638057667
 40
0.7689739889
 40
0.8550525145
 40
0.9286958914
 40
1.0
 40
1.0
 40
1.0
 40
1.0
 10
24.0485899979
 20
8.5502666699
 30
0.0
 10
24.0485899976
 20
8.5507623683
 30
0.0
 10
24.0485663054
 20
8.5514575224
 30
0.0
 10
24.0484389884
 20
8.5523078955
 30
0.0
 10
24.0483149708
 20
8.5527927983
 30
0.0
 10
24.0481544535
 20
8.553175587
 30
0.0
 10
24.047953222
 20
8.5534583368
 30
0.0
 10
24.0477031065
 20
8.5536352772
 30
0.0
 10
24.0475125514
 20
8.5536709247
 30
0.0
 10
24.0474202895
 20
8.5536709252
 30
0.0
  0
SPLINE
  5
381
100
AcDbEntity
  8
0
100
AcDbSpline
 62
9
  6
CONTINUOUS
 70
0
 71
3
 72
14
 73
10
 74
0
 42
0.0000001
 43
0.0000001
 44
0.0000000001
 40
0.0
 40
0.0
 40
0.0
 40
0.0
 40
0.0712946985
 40
0.1449212244
 40
0.2309909107
 40
0.3361604272
 40
0.4641288065
 40
0.6168848926
 40
1.0
 40
1.0
 40
1.0
 40
1.0
 10
24.3945415406
 20
8.5536709252
 30
0.0
 10
24.3944492947
 20
8.5536709246
 30
0.0
 10
24.3942587769
 20
8.5536352854
 30
0.0
 10
24.3940087446
 20
8.5534583202
 30
0.0
 10
24.393807606
 20
8.5531755661
 30
0.0
 10
24.3936471183
 20
8.5527927886
 30
0.0
 10
24.393523074
 20
8.5523078921
 30
0.0
 10
24.3933956243
 20
8.5514575323
 30
0.0
 10
24.393371835
 20
8.5507623703
 30
0.0
 10
24.3933718348
 20
8.5502666699
 30
0.0
  0
SPLINE
  5
382
100
AcDbEntity
  8
0
100
AcDbSpline
 62
9
  6
CONTINUOUS
 70
0
 71
3
 72
13
 73
9
 74
0
 42
0.0000001
 43
0.0000001
 44
0.0000000001
 40
0.0
 40
0.0
 40
0.0
 40
0.0
 40
0.1230803937
 40
0.2496514514
 40
0.5056869973
 40
0.7584784531
 40
0.8814424436
 40
1.0
 40
1.0
 40
1.0
 40
1.0
 10
24.048589755
 20
8.5502666699
 30
0.0
 10
24.0476818943
 20
8.5502666688
 30
0.0
 10
24.0458379778
 20
8.5501356004
 30
0.0
 10
24.0421766554
 20
8.5493888881
 30
0.0
 10
24.0377874472
 20
8.5475636011
 30
0.0
 10
24.0341441311
 20
8.5445470817
 30
0.0
 10
24.0318567882
 20
8.5416978621
 30
0.0
 10
24.0309381806
 20
8.5401625579
 30
0.0
 10
24.0305473684
 20
8.5393802438
 30
0.0
  0
SPLINE
  5
383
100
AcDbEntity
  8
0
100
AcDbSpline
 62
9
  6
CONTINUOUS
 70
0
 71
3
 72
13
 73
9
 74
0
 42
0.0000001
 43
0.0000001
 44
0.0000000001
 40
0.0
 40
0.0
 40
0.0
 40
0.0
 40
0.1214326056
 40
0.2466010234
 40
0.5010208852
 40
0.7548528032
 40
0.879371179
 40
1.0
 40
1.0
 40
1.0
 40
1.0
 10
24.029360461
 20
8.541926676
 30
0.0
 10
24.0297372903
 20
8.5427653536
 30
0.0
 10
24.0306318406
 20
8.5444133952
 30
0.0
 10
24.032885132
 20
8.5474746978
 30
0.0
 10
24.0365078895
 20
8.5507322145
 30
0.0
 10
24.0409505143
 20
8.5527216836
 30
0.0
 10
24.0446493279
 20
8.5535292585
 30
0.0
 10
24.0465082427
 20
8.553670982
 30
0.0
 10
24.0474216024
 20
8.5536709251
 30
0.0
  0
SPLINE
  5
384
100
AcDbEntity
  8
0
100
AcDbSpline
 62
9
  6
CONTINUOUS
 70
0
 71
3
 72
14
 73
10
 74
0
 42
0.0000001
 43
0.0000001
 44
0.0000000001
 40
0.0
 40
0.0
 40
0.0
 40
0.0
 40
0.1056667982
 40
0.219521365
 40
0.4668683632
 40
0.5986313389
 40
0.7332252291
 40
0.8679820911
 40
1.0
 40
1.0
 40
1.0
 40
1.0
 10
24.0305473684
 20
8.2010993375
 30
0.0
 10
24.0309457178
 20
8.2017062063
 30
0.0
 10
24.0318861042
 20
8.2028951455
 30
0.0
 10
24.0342251777
 20
8.2051005502
 30
0.0
 10
24.0371463401
 20
8.2069044788
 30
0.0
 10
24.0404476089
 20
8.2081676704
 30
0.0
 10
24.0431197646
 20
8.2088637489
 30
0.0
 10
24.0458488784
 20
8.2092856157
 30
0.0
 10
24.0476827951
 20
8.2093844732
 30
0.0
 10
24.048589755
 20
8.2093844738
 30
0.0
  0
SPLINE
  5
385
100
AcDbEntity
  8
0
100
AcDbSpline
 62
9
  6
CONTINUOUS
 70
0
 71
3
 72
15
 73
11
 74
0
 42
0.0000001
 43
0.0000001
 44
0.0000000001
 40
0.0
 40
0.0
 40
0.0
 40
0.0
 40
0.0889370989
 40
0.1909135892
 40
0.3053277085
 40
0.4312001652
 40
0.5670949959
 40
0.7098491156
 40
0.8555283592
 40
1.0
 40
1.0
 40
1.0
 40
1.0
 10
24.029359115
 20
8.1872811305
 30
0.0
 10
24.0297570354
 20
8.187678692
 30
0.0
 10
24.030711057
 20
8.1884330826
 30
0.0
 10
24.0324043159
 20
8.1893733744
 30
0.0
 10
24.0344238191
 20
8.190168325
 30
0.0
 10
24.0367282866
 20
8.1907793239
 30
0.0
 10
24.0392608316
 20
8.1911694211
 30
0.0
 10
24.0419410029
 20
8.1913521554
 30
0.0
 10
24.0446811249
 20
8.1913353132
 30
0.0
 10
24.0465126908
 20
8.1911948533
 30
0.0
 10
24.0474205084
 20
8.1910911291
 30
0.0
  0
SPLINE
  5
386
100
AcDbEntity
  8
0
100
AcDbSpline
 62
7
  6
CONTINUOUS
 70
0
 71
3
 72
11
 73
7
 74
0
 42
0.0000001
 43
0.0000001
 44
0.0000000001
 40
0.0
 40
0.0
 40
0.0
 40
0.0
 40
0.2502230862
 40
0.5003108687
 40
0.7502423649
 40
1.0
 40
1.0
 40
1.0
 40
1.0
 10
24.0293602566
 20
8.1872837291
 30
0.0
 10
24.0273412677
 20
8.1740958264
 30
0.0
 10
24.0235525118
 20
8.1476884879
 30
0.0
 10
24.0186101972
 20
8.1079908897
 30
0.0
 10
24.0143879876
 20
8.0682353638
 30
0.0
 10
24.0120379464
 20
8.0416948656
 30
0.0
 10
24.0109797083
 20
8.0284202416
 30
0.0
  0
SPLINE
  5
387
100
AcDbEntity
  8
0
100
AcDbSpline
 62
9
  6
CONTINUOUS
 70
0
 71
3
 72
13
 73
9
 74
0
 42
0.0000001
 43
0.0000001
 44
0.0000000001
 40
0.0
 40
0.0
 40
0.0
 40
0.0
 40
0.089688368
 40
0.1757678814
 40
0.3705385385
 40
0.4937553556
 40
0.6385951013
 40
1.0
 40
1.0
 40
1.0
 40
1.0
 10
24.0293560829
 20
8.5419267241
 30
0.0
 10
24.0294486427
 20
8.5419288146
 30
0.0
 10
24.0296324182
 20
8.5419087315
 30
0.0
 10
24.0299836412
 20
8.5417385967
 30
0.0
 10
24.0302334029
 20
8.5413755919
 30
0.0
 10
24.0303907653
 20
8.5409257663
 30
0.0
 10
24.0305227397
 20
8.5402870558
 30
0.0
 10
24.0305471169
 20
8.5397624011
 30
0.0
 10
24.0305474305
 20
8.5393893306
 30
0.0
  0
SPLINE
  5
388
100
AcDbEntity
  8
0
100
AcDbSpline
 62
9
  6
CONTINUOUS
 70
0
 71
3
 72
9
 73
5
 74
0
 42
0.0000001
 43
0.0000001
 44
0.0000000001
 40
0.0
 40
0.0
 40
0.0
 40
0.0
 40
0.4701109659
 40
1.0
 40
1.0
 40
1.0
 40
1.0
 10
24.0305472984
 20
8.2010991175
 30
0.0
 10
24.0305472928
 20
8.1989247771
 30
0.0
 10
24.030305221
 20
8.1942992663
 30
0.0
 10
24.0297322738
 20
8.1897066145
 30
0.0
 10
24.0293606584
 20
8.1872841284
 30
0.0
  0
SPLINE
  5
389
100
AcDbEntity
  8
0
100
AcDbSpline
 62
9
  6
CONTINUOUS
 70
0
 71
3
 72
14
 73
10
 74
0
 42
0.0000001
 43
0.0000001
 44
0.0000000001
 40
0.0
 40
0.0
 40
0.0
 40
0.0
 40
0.1056667981
 40
0.2195213649
 40
0.4668683633
 40
0.598631339
 40
0.7332252292
 40
0.8679820912
 40
1.0
 40
1.0
 40
1.0
 40
1.0
 10
24.4114144238
 20
6.0462425129
 30
0.0
 10
24.4110160745
 20
6.0456356441
 30
0.0
 10
24.4100756881
 20
6.0444467049
 30
0.0
 10
24.4077366146
 20
6.0422413001
 30
0.0
 10
24.4048154522
 20
6.0404373715
 30
0.0
 10
24.4015141834
 20
6.0391741799
 30
0.0
 10
24.3988420277
 20
6.0384781015
 30
0.0
 10
24.3961129139
 20
6.0380562347
 30
0.0
 10
24.3942789972
 20
6.0379573772
 30
0.0
 10
24.3933720373
 20
6.0379573765
 30
0.0
  0
SPLINE
  5
38A
100
AcDbEntity
  8
0
100
AcDbSpline
 62
9
  6
CONTINUOUS
 70
0
 71
3
 72
10
 73
6
 74
0
 42
0.0000001
 43
0.0000001
 44
0.0000000001
 40
0.0
 40
0.0
 40
0.0
 40
0.0
 40
0.5292643115
 40
0.7726196157
 40
1.0
 40
1.0
 40
1.0
 40
1.0
 10
24.3945415405
 20
6.0562507214
 30
0.0
 10
24.3941742975
 20
6.053036249
 30
0.0
 10
24.3937353311
 20
6.0483309719
 30
0.0
 10
24.3934272504
 20
6.0422251063
 30
0.0
 10
24.3933718355
 20
6.0393473485
 30
0.0
 10
24.3933718352
 20
6.0379573765
 30
0.0
  0
SPLINE
  5
38B
100
AcDbEntity
  8
0
100
AcDbSpline
 62
9
  6
CONTINUOUS
 70
0
 71
3
 72
10
 73
6
 74
0
 42
0.0000001
 43
0.0000001
 44
0.0000000001
 40
0.0
 40
0.0
 40
0.0
 40
0.0
 40
0.2273802797
 40
0.4707354144
 40
1.0
 40
1.0
 40
1.0
 40
1.0
 10
24.0485899977
 20
6.0379573765
 30
0.0
 10
24.0485899973
 20
6.039347349
 30
0.0
 10
24.0485347505
 20
6.0422251087
 30
0.0
 10
24.0482268508
 20
6.0483309944
 30
0.0
 10
24.0477875421
 20
6.0530362458
 30
0.0
 10
24.0474202894
 20
6.0562507214
 30
0.0
  0
SPLINE
  5
38C
100
AcDbEntity
  8
0
100
AcDbSpline
 62
9
  6
CONTINUOUS
 70
0
 71
3
 72
15
 73
11
 74
0
 42
0.0000001
 43
0.0000001
 44
0.0000000001
 40
0.0
 40
0.0
 40
0.0
 40
0.0
 40
0.0889493647
 40
0.1909349412
 40
0.3053545134
 40
0.431229076
 40
0.5671221168
 40
0.7098700783
 40
0.8555398524
 40
1.0
 40
1.0
 40
1.0
 40
1.0
 10
24.0293607274
 20
6.0600591093
 30
0.0
 10
24.029758808
 20
6.0596616473
 30
0.0
 10
24.0307130606
 20
6.0589074658
 30
0.0
 10
24.0324065282
 20
6.0579674525
 30
0.0
 10
24.03442611
 20
6.0571727858
 30
0.0
 10
24.0367305378
 20
6.056562073
 30
0.0
 10
24.0392629204
 20
6.0561722148
 30
0.0
 10
24.0419428261
 20
6.0559896502
 30
0.0
 10
24.0446826068
 20
6.0560066076
 30
0.0
 10
24.0465139229
 20
6.0561471098
 30
0.0
 10
24.0474216094
 20
6.056250847
 30
0.0
  0
SPLINE
  5
38D
100
AcDbEntity
  8
0
100
AcDbSpline
 62
9
  6
CONTINUOUS
 70
0
 71
3
 72
14
 73
10
 74
0
 42
0.0000001
 43
0.0000001
 44
0.0000000001
 40
0.0
 40
0.0
 40
0.0
 40
0.0
 40
0.1320179333
 40
0.2667748311
 40
0.4013687539
 40
0.5331317273
 40
0.7804784849
 40
0.894333039
 40
1.0
 40
1.0
 40
1.0
 40
1.0
 10
24.048589755
 20
6.0379573765
 30
0.0
 10
24.047682795
 20
6.0379573773
 30
0.0
 10
24.045848878
 20
6.0380562356
 30
0.0
 10
24.0431197639
 20
6.0384781037
 30
0.0
 10
24.0404476082
 20
6.0391741828
 30
0.0
 10
24.0371463397
 20
6.0404373705
 30
0.0
 10
24.0342251791
 20
6.0422412993
 30
0.0
 10
24.0318861085
 20
6.0444467059
 30
0.0
 10
24.0309457205
 20
6.0456356446
 30
0.0
 10
24.0305473684
 20
6.0462425129
 30
0.0
  0
SPLINE
  5
38E
100
AcDbEntity
  8
0
100
AcDbSpline
 62
7
  6
CONTINUOUS
 70
0
 71
3
 72
14
 73
10
 74
0
 42
0.0000001
 43
0.0000001
 44
0.0000000001
 40
0.0
 40
0.0
 40
0.0
 40
0.0
 40
0.0929208661
 40
0.1967467542
 40
0.3111826081
 40
0.4354336765
 40
0.7081221317
 40
0.8530434557
 40
1.0
 40
1.0
 40
1.0
 40
1.0
 10
24.0126190987
 20
6.1994260874
 30
0.0
 10
24.0130236559
 20
6.1989710076
 30
0.0
 10
24.0139860161
 20
6.1981000297
 30
0.0
 10
24.0157014763
 20
6.1969863259
 30
0.0
 10
24.0177328963
 20
6.1960183281
 30
0.0
 10
24.0209045565
 20
6.1949209952
 30
0.0
 10
24.0244132965
 20
6.1942523318
 30
0.0
 10
24.0281034748
 20
6.1939697706
 30
0.0
 10
24.0300184104
 20
6.1939620911
 30
0.0
 10
24.0309808961
 20
6.1939934409
 30
0.0
  0
SPLINE
  5
38F
100
AcDbEntity
  8
0
100
AcDbSpline
 62
9
  6
CONTINUOUS
 70
0
 71
3
 72
15
 73
11
 74
0
 42
0.0000001
 43
0.0000001
 44
0.0000000001
 40
0.0
 40
0.0
 40
0.0
 40
0.0
 40
0.093860121
 40
0.2006308731
 40
0.3188063029
 40
0.4466746504
 40
0.5822376085
 40
0.7222241096
 40
0.862800441
 40
1.0
 40
1.0
 40
1.0
 40
1.0
 10
24.029360461
 20
7.4783151263
 30
0.0
 10
24.0297586089
 20
7.4788036795
 30
0.0
 10
24.0307063958
 20
7.4797698051
 30
0.0
 10
24.0323936399
 20
7.4810940699
 30
0.0
 10
24.0344079758
 20
7.482349111
 30
0.0
 10
24.0367082715
 20
7.4834868928
 30
0.0
 10
24.03924076
 20
7.484457709
 30
0.0
 10
24.0419214125
 20
7.4852545496
 30
0.0
 10
24.0446613907
 20
7.4858652088
 30
0.0
 10
24.0465071134
 20
7.4861464096
 30
0.0
 10
24.0474224183
 20
7.4862509393
 30
0.0
  0
SPLINE
  5
390
100
AcDbEntity
  8
0
100
AcDbSpline
 62
9
  6
CONTINUOUS
 70
0
 71
3
 72
14
 73
10
 74
0
 42
0.0000001
 43
0.0000001
 44
0.0000000001
 40
0.0
 40
0.0
 40
0.0
 40
0.0
 40
0.2980420282
 40
0.4448762406
 40
0.584023406
 40
0.7113302425
 40
0.8243746039
 40
0.9211987838
 40
1.0
 40
1.0
 40
1.0
 40
1.0
 10
24.048589755
 20
7.4645531212
 30
0.0
 10
24.0467681824
 20
7.4645531207
 30
0.0
 10
24.0440481201
 20
7.4644642369
 30
0.0
 10
24.0404899569
 20
7.4641751663
 30
0.0
 10
24.0379809754
 20
7.4638758959
 30
0.0
 10
24.0356925966
 20
7.4634921018
 30
0.0
 10
24.0336800362
 20
7.4630429876
 30
0.0
 10
24.0319854654
 20
7.4625481646
 30
0.0
 10
24.0309818421
 20
7.4621596479
 30
0.0
 10
24.0305473684
 20
7.4619518315
 30
0.0
  0
SPLINE
  5
391
100
AcDbEntity
  8
0
100
AcDbSpline
 62
9
  6
CONTINUOUS
 70
0
 71
3
 72
15
 73
11
 74
0
 42
0.0000001
 43
0.0000001
 44
0.0000000001
 40
0.0
 40
0.0
 40
0.0
 40
0.0
 40
0.0938602092
 40
0.2006283058
 40
0.3187992077
 40
0.4466620484
 40
0.582220384
 40
0.7222060023
 40
0.8627873842
 40
1.0
 40
1.0
 40
1.0
 40
1.0
 10
24.4126013311
 20
6.7690267238
 30
0.0
 10
24.4122032929
 20
6.7685383053
 30
0.0
 10
24.4112558057
 20
6.7675724387
 30
0.0
 10
24.4095691309
 20
6.766248489
 30
0.0
 10
24.4075555102
 20
6.7649937067
 30
0.0
 10
24.4052560418
 20
6.7638560797
 30
0.0
 10
24.402724421
 20
6.7628853045
 30
0.0
 10
24.4000445954
 20
6.7620884102
 30
0.0
 10
24.3973053329
 20
6.7614775826
 30
0.0
 10
24.3954600396
 20
6.7611961954
 30
0.0
 10
24.394544917
 20
6.7610915445
 30
0.0
  0
SPLINE
  5
392
100
AcDbEntity
  8
0
100
AcDbSpline
 62
9
  6
CONTINUOUS
 70
0
 71
3
 72
14
 73
10
 74
0
 42
0.0000001
 43
0.0000001
 44
0.0000000001
 40
0.0
 40
0.0
 40
0.0
 40
0.0
 40
0.2980420282
 40
0.4448762406
 40
0.5840234058
 40
0.7113302424
 40
0.824374604
 40
0.921198784
 40
1.0
 40
1.0
 40
1.0
 40
1.0
 10
24.3933720373
 20
6.7827887291
 30
0.0
 10
24.3951936099
 20
6.7827887296
 30
0.0
 10
24.3979136722
 20
6.7828776134
 30
0.0
 10
24.4014718354
 20
6.783166684
 30
0.0
 10
24.4039808169
 20
6.7834659544
 30
0.0
 10
24.4062691957
 20
6.7838497485
 30
0.0
 10
24.4082817561
 20
6.7842988627
 30
0.0
 10
24.4099763269
 20
6.7847936857
 30
0.0
 10
24.4109799502
 20
6.7851822024
 30
0.0
 10
24.4114144238
 20
6.7853900188
 30
0.0
  0
SPLINE
  5
393
100
AcDbEntity
  8
0
100
AcDbSpline
 62
9
  6
CONTINUOUS
 70
0
 71
3
 72
9
 73
5
 74
0
 42
0.0000001
 43
0.0000001
 44
0.0000000001
 40
0.0
 40
0.0
 40
0.0
 40
0.0
 40
0.5143715762
 40
1.0
 40
1.0
 40
1.0
 40
1.0
 10
24.3933717944
 20
6.7827887291
 30
0.0
 10
24.3933717951
 20
6.779061629
 30
0.0
 10
24.3935545417
 20
6.7718142568
 30
0.0
 10
24.3941420767
 20
6.764587215
 30
0.0
 10
24.3945415031
 20
6.7610911289
 30
0.0
  0
SPLINE
  5
394
100
AcDbEntity
  8
0
100
AcDbSpline
 62
9
  6
CONTINUOUS
 70
0
 71
3
 72
9
 73
5
 74
0
 42
0.0000001
 43
0.0000001
 44
0.0000000001
 40
0.0
 40
0.0
 40
0.0
 40
0.0
 40
0.4856283082
 40
1.0
 40
1.0
 40
1.0
 40
1.0
 10
24.0474202516
 20
6.7610911289
 30
0.0
 10
24.0478196675
 20
6.7645872131
 30
0.0
 10
24.0484067144
 20
6.7718142834
 30
0.0
 10
24.0485899568
 20
6.7790616306
 30
0.0
 10
24.0485899573
 20
6.7827887291
 30
0.0
  0
SPLINE
  5
395
100
AcDbEntity
  8
0
100
AcDbSpline
 62
9
  6
CONTINUOUS
 70
0
 71
3
 72
14
 73
10
 74
0
 42
0.0000001
 43
0.0000001
 44
0.0000000001
 40
0.0
 40
0.0
 40
0.0
 40
0.0
 40
0.0788009776
 40
0.1756252167
 40
0.2886697537
 40
0.4159766839
 40
0.5551238278
 40
0.7019580142
 40
1.0
 40
1.0
 40
1.0
 40
1.0
 10
24.0305473684
 20
6.7853900188
 30
0.0
 10
24.0309818402
 20
6.7851822017
 30
0.0
 10
24.0319854625
 20
6.7847936851
 30
0.0
 10
24.0336800335
 20
6.7842988629
 30
0.0
 10
24.035692596
 20
6.7838497492
 30
0.0
 10
24.0379809763
 20
6.7834659543
 30
0.0
 10
24.040489958
 20
6.7831666831
 30
0.0
 10
24.0440481207
 20
6.7828776128
 30
0.0
 10
24.0467681826
 20
6.7827887295
 30
0.0
 10
24.048589755
 20
6.7827887291
 30
0.0
  0
SPLINE
  5
396
100
AcDbEntity
  8
0
100
AcDbSpline
 62
9
  6
CONTINUOUS
 70
0
 71
3
 72
13
 73
9
 74
0
 42
0.0000001
 43
0.0000001
 44
0.0000000001
 40
0.0
 40
0.0
 40
0.0
 40
0.0
 40
0.1214319874
 40
0.2465998069
 40
0.5010190676
 40
0.7548507888
 40
0.8793697641
 40
1.0
 40
1.0
 40
1.0
 40
1.0
 10
24.4126013313
 20
8.5419266762
 30
0.0
 10
24.4122245246
 20
8.5427653107
 30
0.0
 10
24.4113300299
 20
8.5444132697
 30
0.0
 10
24.4090768822
 20
8.5474744349
 30
0.0
 10
24.4054543852
 20
8.5507318631
 30
0.0
 10
24.4010120565
 20
8.552721407
 30
0.0
 10
24.3973134418
 20
8.5535291091
 30
0.0
 10
24.3954546095
 20
8.5536709264
 30
0.0
 10
24.3945412826
 20
8.5536709252
 30
0.0
  0
SPLINE
  5
397
100
AcDbEntity
  8
0
100
AcDbSpline
 62
9
  6
CONTINUOUS
 70
0
 71
3
 72
13
 73
9
 74
0
 42
0.0000001
 43
0.0000001
 44
0.0000000001
 40
0.0
 40
0.0
 40
0.0
 40
0.0
 40
0.1185574174
 40
0.2415214019
 40
0.4943130889
 40
0.7503486135
 40
0.8769196313
 40
1.0
 40
1.0
 40
1.0
 40
1.0
 10
24.4114144238
 20
8.5393802438
 30
0.0
 10
24.4110236145
 20
8.5401625582
 30
0.0
 10
24.4101050089
 20
8.5416978629
 30
0.0
 10
24.4078176624
 20
8.5445470808
 30
0.0
 10
24.4041743449
 20
8.5475636001
 30
0.0
 10
24.3997851367
 20
8.549388892
 30
0.0
 10
24.396123814
 20
8.5501356015
 30
0.0
 10
24.3942798979
 20
8.550266669
 30
0.0
 10
24.3933720373
 20
8.5502666699
 30
0.0
  0
SPLINE
  5
398
100
AcDbEntity
  8
0
100
AcDbSpline
 62
9
  6
CONTINUOUS
 70
0
 71
3
 72
14
 73
10
 74
0
 42
0.0000001
 43
0.0000001
 44
0.0000000001
 40
0.0
 40
0.0
 40
0.0
 40
0.0
 40
0.1320179334
 40
0.2667748311
 40
0.4013687539
 40
0.5331317272
 40
0.780478485
 40
0.8943330391
 40
1.0
 40
1.0
 40
1.0
 40
1.0
 10
24.3933720373
 20
8.2093844738
 30
0.0
 10
24.3942789973
 20
8.209384473
 30
0.0
 10
24.3961129143
 20
8.2092856147
 30
0.0
 10
24.3988420284
 20
8.2088637467
 30
0.0
 10
24.4015141841
 20
8.2081676675
 30
0.0
 10
24.4048154526
 20
8.2069044799
 30
0.0
 10
24.4077366132
 20
8.2051005511
 30
0.0
 10
24.4100756838
 20
8.2028951445
 30
0.0
 10
24.4110160718
 20
8.2017062058
 30
0.0
 10
24.4114144238
 20
8.2010993375
 30
0.0
  0
SPLINE
  5
399
100
AcDbEntity
  8
0
100
AcDbSpline
 62
9
  6
CONTINUOUS
 70
0
 71
3
 72
15
 73
11
 74
0
 42
0.0000001
 43
0.0000001
 44
0.0000000001
 40
0.0
 40
0.0
 40
0.0
 40
0.0
 40
0.08894725
 40
0.1909314177
 40
0.3053503423
 40
0.431224957
 40
0.5671187015
 40
0.7098678275
 40
0.8555388681
 40
1.0
 40
1.0
 40
1.0
 40
1.0
 10
24.4126013313
 20
8.1872824749
 30
0.0
 10
24.4122032681
 20
8.1876799619
 30
0.0
 10
24.4112490294
 20
8.1884341931
 30
0.0
 10
24.4095555514
 20
8.1893742673
 30
0.0
 10
24.4075359263
 20
8.1901689886
 30
0.0
 10
24.405231427
 20
8.1907797454
 30
0.0
 10
24.4026989496
 20
8.1911696303
 30
0.0
 10
24.4000189347
 20
8.1913522038
 30
0.0
 10
24.3972790411
 20
8.1913352394
 30
0.0
 10
24.3954476505
 20
8.191194722
 30
0.0
 10
24.3945399283
 20
8.1910909743
 30
0.0
  0
SPLINE
  5
39A
100
AcDbEntity
  8
0
100
AcDbSpline
 62
7
  6
CONTINUOUS
 70
0
 71
3
 72
14
 73
10
 74
0
 42
0.0000001
 43
0.0000001
 44
0.0000000001
 40
0.0
 40
0.0
 40
0.0
 40
0.0
 40
0.0929160908
 40
0.1967410213
 40
0.3111822136
 40
0.4354433271
 40
0.7081471481
 40
0.8530640589
 40
1.0
 40
1.0
 40
1.0
 40
1.0
 10
24.430351844
 20
8.0361558136
 30
0.0
 10
24.4299479902
 20
8.0366124182
 30
0.0
 10
24.4289866155
 20
8.0374866932
 30
0.0
 10
24.4272716663
 20
8.0386055355
 30
0.0
 10
24.4252399182
 20
8.0395791223
 30
0.0
 10
24.4220667637
 20
8.0406846265
 30
0.0
 10
24.4185552131
 20
8.0413614708
 30
0.0
 10
24.4148613954
 20
8.041651788
 30
0.0
 10
24.4129444198
 20
8.0416632092
 30
0.0
 10
24.4119808961
 20
8.0416336575
 30
0.0
  0
SPLINE
  5
39B
100
AcDbEntity
  8
0
100
AcDbSpline
 62
7
  6
CONTINUOUS
 70
0
 71
3
 72
13
 73
9
 74
0
 42
0.0000001
 43
0.0000001
 44
0.0000000001
 40
0.0
 40
0.0
 40
0.0
 40
0.0
 40
0.0927048167
 40
0.1960900484
 40
0.3100418279
 40
0.4339379007
 40
0.7068272724
 40
1.0
 40
1.0
 40
1.0
 40
1.0
 10
24.0109760255
 20
8.0284221232
 30
0.0
 10
24.0113782693
 20
8.0288722816
 30
0.0
 10
24.012336981
 20
8.0297296804
 30
0.0
 10
24.0140496176
 20
8.0308113616
 30
0.0
 10
24.0160783764
 20
8.0317329363
 30
0.0
 10
24.0192509083
 20
8.032750551
 30
0.0
 10
24.0237087651
 20
8.0334796066
 30
0.0
 10
24.0274086762
 20
8.0335242678
 30
0.0
 10
24.0293144235
 20
8.0334106426
 30
0.0
  0
SPLINE
  5
39C
100
AcDbEntity
  8
0
100
AcDbSpline
 62
9
  6
CONTINUOUS
 70
0
 71
3
 72
15
 73
11
 74
0
 42
0.0000001
 43
0.0000001
 44
0.0000000001
 40
0.0
 40
0.0
 40
0.0
 40
0.0
 40
0.0938525031
 40
0.2006175767
 40
0.3187893348
 40
0.446655797
 40
0.5822190948
 40
0.7222089143
 40
0.8627914799
 40
1.0
 40
1.0
 40
1.0
 40
1.0
 10
24.4126022344
 20
7.478314018
 30
0.0
 10
24.4122042005
 20
7.4788025783
 30
0.0
 10
24.4112566114
 20
7.4797687305
 30
0.0
 10
24.409569619
 20
7.4810930481
 30
0.0
 10
24.4075554941
 20
7.4823481764
 30
0.0
 10
24.4052553709
 20
7.4834860873
 30
0.0
 10
24.4027229955
 20
7.4844570494
 30
0.0
 10
24.4000423867
 20
7.4852540321
 30
0.0
 10
24.3973023841
 20
7.4858648387
 30
0.0
 10
24.3954566196
 20
7.4861461392
 30
0.0
 10
24.3945412828
 20
7.4862507214
 30
0.0
  0
SPLINE
  5
39D
100
AcDbEntity
  8
0
100
AcDbSpline
 62
7
  6
CONTINUOUS
 70
0
 71
3
 72
14
 73
10
 74
0
 42
0.0000001
 43
0.0000001
 44
0.0000000001
 40
0.0
 40
0.0
 40
0.0
 40
0.0
 40
0.1448689228
 40
0.2883959893
 40
0.5603590245
 40
0.6851479163
 40
0.8005878624
 40
0.9057143928
 40
1.0
 40
1.0
 40
1.0
 40
1.0
 10
24.4119808961
 20
7.6357081792
 30
0.0
 10
24.4129466092
 20
7.6356785023
 30
0.0
 10
24.4148678757
 20
7.635547986
 30
0.0
 10
24.4185699519
 20
7.6350259517
 30
0.0
 10
24.4220804286
 20
7.6341281595
 30
0.0
 10
24.4252448868
 20
7.6328292151
 30
0.0
 10
24.4272753212
 20
7.6317304578
 30
0.0
 10
24.428988471
 20
7.6305065126
 30
0.0
 10
24.4299480344
 20
7.6295741641
 30
0.0
 10
24.4303519065
 20
7.6290921928
 30
0.0
  0
SPLINE
  5
39E
100
AcDbEntity
  8
0
100
AcDbSpline
 62
9
  6
CONTINUOUS
 70
0
 71
3
 72
14
 73
10
 74
0
 42
0.0000001
 43
0.0000001
 44
0.0000000001
 40
0.0
 40
0.0
 40
0.0
 40
0.0
 40
0.0788009774
 40
0.1756252165
 40
0.2886697536
 40
0.4159766839
 40
0.5551238279
 40
0.7019580143
 40
1.0
 40
1.0
 40
1.0
 40
1.0
 10
24.4114144238
 20
7.4619518315
 30
0.0
 10
24.4109799521
 20
7.4621596486
 30
0.0
 10
24.4099763298
 20
7.4625481653
 30
0.0
 10
24.4082817588
 20
7.4630429874
 30
0.0
 10
24.4062691963
 20
7.4634921011
 30
0.0
 10
24.403980816
 20
7.4638758961
 30
0.0
 10
24.4014718343
 20
7.4641751673
 30
0.0
 10
24.3979136716
 20
7.4644642375
 30
0.0
 10
24.3951936097
 20
7.4645531208
 30
0.0
 10
24.3933720373
 20
7.4645531212
 30
0.0
  0
SPLINE
  5
39F
100
AcDbEntity
  8
0
100
AcDbSpline
 62
9
  6
CONTINUOUS
 70
0
 71
3
 72
9
 73
5
 74
0
 42
0.0000001
 43
0.0000001
 44
0.0000000001
 40
0.0
 40
0.0
 40
0.0
 40
0.0
 40
0.5143715763
 40
1.0
 40
1.0
 40
1.0
 40
1.0
 10
24.0485899977
 20
7.4645531212
 30
0.0
 10
24.048589997
 20
7.4682802214
 30
0.0
 10
24.0484072506
 20
7.4755275935
 30
0.0
 10
24.0478197158
 20
7.4827546353
 30
0.0
 10
24.0474202894
 20
7.4862507214
 30
0.0
  0
SPLINE
  5
3A0
100
AcDbEntity
  8
0
100
AcDbSpline
 62
9
  6
CONTINUOUS
 70
0
 71
3
 72
9
 73
5
 74
0
 42
0.0000001
 43
0.0000001
 44
0.0000000001
 40
0.0
 40
0.0
 40
0.0
 40
0.0
 40
0.4856283081
 40
1.0
 40
1.0
 40
1.0
 40
1.0
 10
24.3945415405
 20
7.4862507214
 30
0.0
 10
24.3941421246
 20
7.4827546373
 30
0.0
 10
24.3935550779
 20
7.4755275669
 30
0.0
 10
24.3933718357
 20
7.4682802198
 30
0.0
 10
24.3933718352
 20
7.4645531212
 30
0.0
  0
SPLINE
  5
3A1
100
AcDbEntity
  8
0
100
AcDbSpline
 62
7
  6
CONTINUOUS
 70
0
 71
3
 72
17
 73
13
 74
0
 42
0.0000001
 43
0.0000001
 44
0.0000000001
 40
0.0
 40
0.0
 40
0.0
 40
0.0
 40
0.1166045786
 40
0.2399487007
 40
0.3038376149
 40
0.368769934
 40
0.4999998997
 40
0.6312298825
 40
0.6961622215
 40
0.7600511619
 40
0.8833953495
 40
1.0
 40
1.0
 40
1.0
 40
1.0
 10
11.0119808961
 20
9.3736711017
 30
0.0
 10
11.0083227127
 20
9.3736711125
 30
0.0
 10
11.0007803273
 20
9.3729707774
 30
0.0
 10
10.991553985
 20
9.370333623
 30
0.0
 10
10.9843516141
 20
9.3670304006
 30
0.0
 10
10.9773002409
 20
9.362905869
 30
0.0
 10
10.9692407453
 20
9.3564111078
 30
0.0
 10
10.9627459918
 20
9.3483516053
 30
0.0
 10
10.9586214656
 20
9.3413002266
 30
0.0
 10
10.9553182479
 20
9.3340978498
 30
0.0
 10
10.9526810986
 20
9.3248715008
 30
0.0
 10
10.9519807668
 20
9.3173291109
 30
0.0
 10
10.9519807789
 20
9.3136709251
 30
0.0
  0
SPLINE
  5
3A2
100
AcDbEntity
  8
0
100
AcDbSpline
 62
7
  6
CONTINUOUS
 70
0
 71
3
 72
17
 73
13
 74
0
 42
0.0000001
 43
0.0000001
 44
0.0000000001
 40
0.0
 40
0.0
 40
0.0
 40
0.0
 40
0.1166045616
 40
0.2399486744
 40
0.3038375873
 40
0.3687699071
 40
0.4999998781
 40
0.6312298698
 40
0.6961622138
 40
0.7600511586
 40
0.883395351
 40
1.0
 40
1.0
 40
1.0
 40
1.0
 10
11.0119808961
 20
10.3136707245
 30
0.0
 10
11.0083227116
 20
10.3136707122
 30
0.0
 10
11.0007803234
 20
10.3143710448
 30
0.0
 10
10.9915539773
 20
10.3170081979
 30
0.0
 10
10.9843516031
 20
10.3203114205
 30
0.0
 10
10.9773002264
 20
10.3244359535
 30
0.0
 10
10.969240727
 20
10.330930718
 30
0.0
 10
10.9627459715
 20
10.3389902256
 30
0.0
 10
10.9586214449
 20
10.3460416088
 30
0.0
 10
10.9553182275
 20
10.3532439901
 30
0.0
 10
10.9526810803
 20
10.3624703443
 30
0.0
 10
10.9519807513
 20
10.3700127379
 30
0.0
 10
10.9519807651
 20
10.3736709252
 30
0.0
  0
SPLINE
  5
3A3
100
AcDbEntity
  8
0
100
AcDbSpline
 62
9
  6
CONTINUOUS
 70
0
 71
3
 72
71
 73
67
 74
0
 42
0.0000001
 43
0.0000001
 44
0.0000000001
 40
0.0
 40
0.0
 40
0.0
 40
0.0
 40
0.000051821
 40
0.0001160683
 40
0.0002057677
 40
0.0004612055
 40
0.0008174999
 40
0.0012740164
 40
0.0018301206
 40
0.0024851781
 40
0.0032385546
 40
0.0050377272
 40
0.0072225646
 40
0.0097879936
 40
0.0127289418
 40
0.0160393544
 40
0.0197092458
 40
0.0280836089
 40
0.0377643734
 40
0.0486639707
 40
0.0606954612
 40
0.0737741596
 40
0.0878161405
 40
0.1027377577
 40
0.1349114161
 40
0.1697584418
 40
0.2067973206
 40
0.2456414032
 40
0.2859493252
 40
0.327411432
 40
0.3697883202
 40
0.4128346911
 40
0.4563122847
 40
0.5000004426
 40
0.5436886176
 40
0.58716632
 40
0.6302128526
 40
0.6725896457
 40
0.7140517732
 40
0.754359781
 40
0.7932038174
 40
0.8302425799
 40
0.8650895255
 40
0.8972631248
 40
0.9121847064
 40
0.926226644
 40
0.9393052898
 40
0.9513367173
 40
0.9622362404
 40
0.971916921
 40
0.9802911922
 40
0.9839610353
 40
0.9872713983
 40
0.9902122961
 40
0.9927776748
 40
0.9949624631
 40
0.9967615889
 40
0.9975149431
 40
0.9981699793
 40
0.9987260633
 40
0.9991825609
 40
0.9995388377
 40
0.9997942594
 40
0.9998839513
 40
0.9999481916
 40
1.0
 40
1.0
 40
1.0
 40
1.0
 10
11.0119808864
 20
9.3736711017
 30
0.0
 10
11.011967176
 20
9.3736843416
 30
0.0
 10
11.0119398286
 20
9.3737172592
 30
0.0
 10
11.0118882283
 20
9.3737725853
 30
0.0
 10
11.0117873964
 20
9.3738844348
 30
0.0
 10
11.0116137202
 20
9.3740751845
 30
0.0
 10
11.0113499246
 20
9.3743663659
 30
0.0
 10
11.0110117871
 20
9.3747394011
 30
0.0
 10
11.010600111
 20
9.3751940911
 30
0.0
 10
11.0101153258
 20
9.3757298736
 30
0.0
 10
11.009324137
 20
9.3766049882
 30
0.0
 10
11.0081563831
 20
9.377898161
 30
0.0
 10
11.0065433262
 20
9.3796872032
 30
0.0
 10
11.0046506846
 20
9.381789594
 30
0.0
 10
11.0024829425
 20
9.3842013508
 30
0.0
 10
11.0000458248
 20
9.3869171761
 30
0.0
 10
10.9962785961
 20
9.3911244457
 30
0.0
 10
10.9909606465
 20
9.3970881713
 30
0.0
 10
10.9838989496
 20
9.4050596126
 30
0.0
 10
10.9759789731
 20
9.4140675905
 30
0.0
 10
10.9672754787
 20
9.4240506569
 30
0.0
 10
10.9578677671
 20
9.4349528741
 30
0.0
 10
10.9478343675
 20
9.4467189074
 30
0.0
 10
10.9333568423
 20
9.4639244573
 30
0.0
 10
10.9142132472
 20
9.4872037074
 30
0.0
 10
10.8904835124
 20
9.5172357661
 30
0.0
 10
10.8660111433
 20
9.5497959144
 30
0.0
 10
10.8414514829
 20
9.5847792497
 30
0.0
 10
10.8174420681
 20
9.6221018436
 30
0.0
 10
10.7949112897
 20
9.6618509987
 30
0.0
 10
10.774830421
 20
9.7040356933
 30
0.0
 10
10.7586073279
 20
9.7486820362
 30
0.0
 10
10.7478406721
 20
9.7954990654
 30
0.0
 10
10.7440331633
 20
9.8436714248
 30
0.0
 10
10.7478408118
 20
9.8918438053
 30
0.0
 10
10.7586075399
 20
9.9386609378
 30
0.0
 10
10.7748310179
 20
9.9833072052
 30
0.0
 10
10.7949117598
 20
10.0254919877
 30
0.0
 10
10.8174426996
 20
10.0652410663
 30
0.0
 10
10.8414523029
 20
10.1025635616
 30
0.0
 10
10.8660119731
 20
10.1375468537
 30
0.0
 10
10.8904842599
 20
10.1701069521
 30
0.0
 10
10.9142139287
 20
10.2001389435
 30
0.0
 10
10.9333574831
 20
10.2234181437
 30
0.0
 10
10.9478349749
 20
10.2406236554
 30
0.0
 10
10.9578683427
 20
10.2523896523
 30
0.0
 10
10.9672760165
 20
10.263291825
 30
0.0
 10
10.9759794666
 20
10.2732748374
 30
0.0
 10
10.9838993929
 20
10.2822827511
 30
0.0
 10
10.9909610333
 20
10.2902541196
 30
0.0
 10
10.9962789319
 20
10.2962177802
 30
0.0
 10
11.0000461166
 20
10.3004249956
 30
0.0
 10
11.0024831992
 20
10.303140779
 30
0.0
 10
11.0046509052
 20
10.305552494
 30
0.0
 10
11.0065435104
 20
10.3076548435
 30
0.0
 10
11.0081565312
 20
10.3094438458
 30
0.0
 10
11.0093242556
 20
10.3107369865
 30
0.0
 10
11.0101154217
 20
10.3116120769
 30
0.0
 10
11.0106001909
 20
10.3121478422
 30
0.0
 10
11.0110118516
 20
10.3126025162
 30
0.0
 10
11.0113499751
 20
10.3129755359
 30
0.0
 10
11.0116137562
 20
10.3132667044
 30
0.0
 10
11.0117874241
 20
10.3134574409
 30
0.0
 10
11.0118882452
 20
10.3135692855
 30
0.0
 10
11.0119398437
 20
10.3136245991
 30
0.0
 10
11.0119671762
 20
10.3136575218
 30
0.0
 10
11.0119808894
 20
10.313670752
 30
0.0
  0
SPLINE
  5
3A4
100
AcDbEntity
  8
0
100
AcDbSpline
 62
9
  6
CONTINUOUS
 70
0
 71
3
 72
101
 73
97
 74
0
 42
0.0000001
 43
0.0000001
 44
0.0000000001
 40
0.0
 40
0.0
 40
0.0
 40
0.0
 40
0.000003308
 40
0.0000130269
 40
0.0000291529
 40
0.0000516821
 40
0.0001159344
 40
0.0002057524
 40
0.0003211046
 40
0.0004619596
 40
0.0006282861
 40
0.0008200525
 40
0.0012797789
 40
0.0018407926
 40
0.0025025575
 40
0.0032645143
 40
0.0041261042
 40
0.0050867634
 40
0.0073020218
 40
0.0099024173
 40
0.0128796561
 40
0.0162244884
 40
0.0199271268
 40
0.0239773387
 40
0.0283638166
 40
0.0330750941
 40
0.038099677
 40
0.0490426806
 40
0.0611003372
 40
0.0741808392
 40
0.0881978731
 40
0.1030700105
 40
0.1187208635
 40
0.1350814333
 40
0.1520880911
 40
0.1696833648
 40
0.2064353715
 40
0.2255043503
 40
0.2449826752
 40
0.2850316385
 40
0.3055453564
 40
0.3263481996
 40
0.3474152899
 40
0.3687228076
 40
0.4119431548
 40
0.4338104768
 40
0.455801895
 40
0.4778790708
 40
0.5000001931
 40
0.5221213171
 40
0.5441985008
 40
0.5661898969
 40
0.588057183
 40
0.6312775587
 40
0.6525851133
 40
0.6736522745
 40
0.6944550592
 40
0.7149687049
 40
0.755017478
 40
0.7744957451
 40
0.7935647269
 40
0.8303166811
 40
0.8479119657
 40
0.8649186555
 40
0.8812791892
 40
0.8969299948
 40
0.9118021217
 40
0.9258191506
 40
0.9388996451
 40
0.9509573135
 40
0.9619003347
 40
0.9669249227
 40
0.9716361994
 40
0.9760226711
 40
0.9800728755
 40
0.9837755075
 40
0.9871203346
 40
0.990097572
 40
0.9926979697
 40
0.9949132404
 40
0.9958739113
 40
0.9967355135
 40
0.9974974814
 40
0.9981592543
 40
0.9987202713
 40
0.9991799943
 40
0.9993717565
 40
0.9995380776
 40
0.9996789265
 40
0.999794272
 40
0.9998840832
 40
0.9999483289
 40
0.999970855
 40
0.9999869781
 40
0.9999966944
 40
1.0
 40
1.0
 40
1.0
 40
1.0
 10
10.9519808961
 20
9.3136709252
 30
0.0
 10
10.951980581
 20
9.3136721925
 30
0.0
 10
10.9519765501
 20
9.3136759033
 30
0.0
 10
10.9519707853
 20
9.3136856706
 30
0.0
 10
10.9519590186
 20
9.3137008781
 30
0.0
 10
10.9519354754
 20
9.3137338956
 30
0.0
 10
10.9518942138
 20
9.3137901593
 30
0.0
 10
10.9518317327
 20
9.3138761987
 30
0.0
 10
10.9517512575
 20
9.3139865894
 30
0.0
 10
10.9516530368
 20
9.3141214028
 30
0.0
 10
10.9515370023
 20
9.314280567
 30
0.0
 10
10.9513467887
 20
9.3145414311
 30
0.0
 10
10.9510646923
 20
9.3149281309
 30
0.0
 10
10.9506731765
 20
9.3154646722
 30
0.0
 10
10.9502114033
 20
9.3160976453
 30
0.0
 10
10.9496798697
 20
9.3168266039
 30
0.0
 10
10.9490790863
 20
9.3176510988
 30
0.0
 10
10.9481409423
 20
9.318939641
 30
0.0
 10
10.9467999776
 20
9.3207839866
 30
0.0
 10
10.9449929094
 20
9.3232736995
 30
0.0
 10
10.9429262149
 20
9.3261259673
 30
0.0
 10
10.9406073958
 20
9.3293328984
 30
0.0
 10
10.9380445951
 20
9.3328861157
 30
0.0
 10
10.9352463692
 20
9.3367765338
 30
0.0
 10
10.9322216615
 20
9.3409945239
 30
0.0
 10
10.9289796417
 20
9.3455300014
 30
0.0
 10
10.9242435386
 20
9.3521790519
 30
0.0
 10
10.9178509993
 20
9.3612088244
 30
0.0
 10
10.9096720038
 20
9.372870238
 30
0.0
 10
10.9008586112
 20
9.385568759
 30
0.0
 10
10.8914898268
 20
9.3992339692
 30
0.0
 10
10.8816420103
 20
9.4138006127
 30
0.0
 10
10.8713881896
 20
9.42920898
 30
0.0
 10
10.8608018351
 20
9.4454074822
 30
0.0
 10
10.8499540065
 20
9.4623511958
 30
0.0
 10
10.8350168626
 20
9.4862332395
 30
0.0
 10
10.8200916479
 20
9.5110819826
 30
0.0
 10
10.8053631229
 20
9.5369038925
 30
0.0
 10
10.7904531757
 20
9.5641150174
 30
0.0
 10
10.7760852814
 20
9.592271065
 30
0.0
 10
10.7625587631
 20
9.6214082682
 30
0.0
 10
10.7528201213
 20
9.6440319431
 30
0.0
 10
10.7437002646
 20
9.6672511953
 30
0.0
 10
10.732497036
 20
9.6991349652
 30
0.0
 10
10.7231649492
 20
9.7319979255
 30
0.0
 10
10.716266835
 20
9.7656885159
 30
0.0
 10
10.7124319416
 20
9.7914480936
 30
0.0
 10
10.7100762004
 20
9.8174863707
 30
0.0
 10
10.7092809946
 20
9.8436711531
 30
0.0
 10
10.7100761267
 20
9.8698559463
 30
0.0
 10
10.7124320676
 20
9.8958942005
 30
0.0
 10
10.7162669154
 20
9.9216537614
 30
0.0
 10
10.7231650184
 20
9.955344345
 30
0.0
 10
10.7324972114
 20
9.9882072893
 30
0.0
 10
10.7437004949
 20
10.0200910934
 30
0.0
 10
10.7528202081
 20
10.0433104235
 30
0.0
 10
10.7625589286
 20
10.0659340409
 30
0.0
 10
10.7760854562
 20
10.0950710983
 30
0.0
 10
10.7904532934
 20
10.1232270345
 30
0.0
 10
10.8053632808
 20
10.1504380258
 30
0.0
 10
10.820091579
 20
10.1762600162
 30
0.0
 10
10.8350169231
 20
10.2011086674
 30
0.0
 10
10.849954099
 20
10.2249906851
 30
0.0
 10
10.8608018419
 20
10.2419344568
 30
0.0
 10
10.8713882087
 20
10.2581329272
 30
0.0
 10
10.8816420461
 20
10.2735412386
 30
0.0
 10
10.8914898183
 20
10.2881078819
 30
0.0
 10
10.9008585931
 20
10.3017730879
 30
0.0
 10
10.9096720082
 20
10.3144715929
 30
0.0
 10
10.9178510033
 20
10.3261330173
 30
0.0
 10
10.9242435384
 20
10.3351628095
 30
0.0
 10
10.9289796408
 20
10.3418118711
 30
0.0
 10
10.9322216617
 20
10.3463473469
 30
0.0
 10
10.9352463723
 20
10.3505653278
 30
0.0
 10
10.9380446011
 20
10.3544557341
 30
0.0
 10
10.9406074029
 20
10.3580089413
 30
0.0
 10
10.9429262221
 20
10.361215866
 30
0.0
 10
10.9449929178
 20
10.3640681308
 30
0.0
 10
10.9467999868
 20
10.3665578495
 30
0.0
 10
10.94814095
 20
10.368402209
 30
0.0
 10
10.9490790905
 20
10.3696907715
 30
0.0
 10
10.9496798722
 20
10.3705152846
 30
0.0
 10
10.950211404
 20
10.37124426
 30
0.0
 10
10.9506731756
 20
10.3718772452
 30
0.0
 10
10.9510646904
 20
10.3724137912
 30
0.0
 10
10.9513467885
 20
10.3728004875
 30
0.0
 10
10.9515370039
 20
10.3730613439
 30
0.0
 10
10.951653039
 20
10.3732205001
 30
0.0
 10
10.9517512599
 20
10.3733553044
 30
0.0
 10
10.9518317354
 20
10.3734656854
 30
0.0
 10
10.9518942157
 20
10.3735517154
 30
0.0
 10
10.9519354781
 20
10.3736079708
 30
0.0
 10
10.9519590196
 20
10.373640983
 30
0.0
 10
10.9519707882
 20
10.3736561858
 30
0.0
 10
10.951976548
 20
10.3736659512
 30
0.0
 10
10.9519805827
 20
10.3736696584
 30
0.0
 10
10.9519808961
 20
10.3736709252
 30
0.0
  0
SPLINE
  5
3A5
100
AcDbEntity
  8
0
100
AcDbSpline
 62
7
  6
CONTINUOUS
 70
0
 71
3
 72
17
 73
13
 74
0
 42
0.0000001
 43
0.0000001
 44
0.0000000001
 40
0.0
 40
0.0
 40
0.0
 40
0.0
 40
0.1166045788
 40
0.2399487009
 40
0.3038376152
 40
0.3687699342
 40
0.4999998999
 40
0.6312298826
 40
0.6961622216
 40
0.7600511619
 40
0.8833953495
 40
1.0
 40
1.0
 40
1.0
 40
1.0
 10
9.6919808961
 20
13.1736707489
 30
0.0
 10
9.6956390796
 20
13.1736707381
 30
0.0
 10
9.703181465
 20
13.1743710732
 30
0.0
 10
9.7124078072
 20
13.1770082276
 30
0.0
 10
9.7196101781
 20
13.18031145
 30
0.0
 10
9.7266615513
 20
13.1844359816
 30
0.0
 10
9.7347210468
 20
13.1909307428
 30
0.0
 10
9.7412158003
 20
13.1989902452
 30
0.0
 10
9.7453403264
 20
13.2060416239
 30
0.0
 10
9.7486435442
 20
13.2132440007
 30
0.0
 10
9.7512806935
 20
13.2224703496
 30
0.0
 10
9.7519810254
 20
13.2300127395
 30
0.0
 10
9.7519810133
 20
13.2336709252
 30
0.0
  0
SPLINE
  5
3A6
100
AcDbEntity
  8
0
100
AcDbSpline
 62
7
  6
CONTINUOUS
 70
0
 71
3
 72
17
 73
13
 74
0
 42
0.0000001
 43
0.0000001
 44
0.0000000001
 40
0.0
 40
0.0
 40
0.0
 40
0.0
 40
0.1166045618
 40
0.2399486747
 40
0.3038375876
 40
0.3687699074
 40
0.4999998783
 40
0.6312298699
 40
0.6961622139
 40
0.7600511586
 40
0.883395351
 40
1.0
 40
1.0
 40
1.0
 40
1.0
 10
9.6919808961
 20
12.2336711255
 30
0.0
 10
9.6956390807
 20
12.2336711379
 30
0.0
 10
9.7031814688
 20
12.2329708052
 30
0.0
 10
9.7124078149
 20
12.2303336522
 30
0.0
 10
9.7196101891
 20
12.2270304295
 30
0.0
 10
9.7266615658
 20
12.2229058965
 30
0.0
 10
9.7347210651
 20
12.2164111321
 30
0.0
 10
9.7412158206
 20
12.2083516245
 30
0.0
 10
9.7453403472
 20
12.2013002414
 30
0.0
 10
9.7486435646
 20
12.1940978601
 30
0.0
 10
9.7512807118
 20
12.184871506
 30
0.0
 10
9.7519810409
 20
12.1773291124
 30
0.0
 10
9.7519810271
 20
12.1736709251
 30
0.0
  0
SPLINE
  5
3A7
100
AcDbEntity
  8
0
100
AcDbSpline
 62
9
  6
CONTINUOUS
 70
0
 71
3
 72
71
 73
67
 74
0
 42
0.0000001
 43
0.0000001
 44
0.0000000001
 40
0.0
 40
0.0
 40
0.0
 40
0.0
 40
0.0000518208
 40
0.0001160679
 40
0.0002057672
 40
0.0004612048
 40
0.000817499
 40
0.0012740154
 40
0.0018301195
 40
0.0024851769
 40
0.0032385532
 40
0.0050377257
 40
0.0072225629
 40
0.0097879917
 40
0.0127289396
 40
0.0160393517
 40
0.0197092426
 40
0.0280836043
 40
0.0377643674
 40
0.0486639632
 40
0.0606954521
 40
0.073774149
 40
0.0878161284
 40
0.1027377439
 40
0.1349113987
 40
0.1697584218
 40
0.2067973006
 40
0.2456413853
 40
0.2859493112
 40
0.3274114226
 40
0.3697883148
 40
0.4128346886
 40
0.4563122836
 40
0.5000004427
 40
0.5436886189
 40
0.5871663227
 40
0.6302128581
 40
0.6725896553
 40
0.7140517872
 40
0.754359799
 40
0.7932038376
 40
0.8302426
 40
0.8650895429
 40
0.8972631387
 40
0.9121847186
 40
0.9262266546
 40
0.939305299
 40
0.9513367249
 40
0.9622362465
 40
0.9719169256
 40
0.9802911955
 40
0.9839610381
 40
0.9872714006
 40
0.9902122981
 40
0.9927776766
 40
0.9949624647
 40
0.9967615902
 40
0.9975149443
 40
0.9981699804
 40
0.9987260643
 40
0.9991825617
 40
0.9995388383
 40
0.9997942599
 40
0.9998839517
 40
0.9999481919
 40
1.0
 40
1.0
 40
1.0
 40
1.0
 10
9.6919809312
 20
13.1736707489
 30
0.0
 10
9.6919946412
 20
13.1736575089
 30
0.0
 10
9.6920219889
 20
13.1736245917
 30
0.0
 10
9.6920735889
 20
13.1735692655
 30
0.0
 10
9.6921744208
 20
13.1734574162
 30
0.0
 10
9.6923480968
 20
13.1732666665
 30
0.0
 10
9.6926118922
 20
13.1729754853
 30
0.0
 10
9.6929500296
 20
13.1726024502
 30
0.0
 10
9.6933617056
 20
13.1721477604
 30
0.0
 10
9.6938464908
 20
13.171611978
 30
0.0
 10
9.6946376795
 20
13.1707368635
 30
0.0
 10
9.6958054333
 20
13.1694436909
 30
0.0
 10
9.6974184901
 20
13.1676546489
 30
0.0
 10
9.6993111317
 20
13.1655522583
 30
0.0
 10
9.7014788736
 20
13.1631405018
 30
0.0
 10
9.703915991
 20
13.160424677
 30
0.0
 10
9.7076832193
 20
13.1562174081
 30
0.0
 10
9.7130011683
 20
13.1502536835
 30
0.0
 10
9.7200628642
 20
13.1422822435
 30
0.0
 10
9.7279828399
 20
13.133274267
 30
0.0
 10
9.7366863334
 20
13.1232912021
 30
0.0
 10
9.7460940442
 20
13.1123889863
 30
0.0
 10
9.7561274429
 20
13.1006229545
 30
0.0
 10
9.7706049668
 20
13.0834174067
 30
0.0
 10
9.7897485603
 20
13.0601381589
 30
0.0
 10
9.813478294
 20
13.0301061022
 30
0.0
 10
9.8379506639
 20
12.9975459545
 30
0.0
 10
9.8625103265
 20
12.962562618
 30
0.0
 10
9.8865197439
 20
12.925240021
 30
0.0
 10
9.9090505252
 20
12.8854908621
 30
0.0
 10
9.9291313968
 20
12.843306164
 30
0.0
 10
9.945354489
 20
12.7986598174
 30
0.0
 10
9.9561211462
 20
12.7518427865
 30
0.0
 10
9.9599286549
 20
12.7036704255
 30
0.0
 10
9.9561210064
 20
12.6554980434
 30
0.0
 10
9.9453542769
 20
12.6086809091
 30
0.0
 10
9.9291307999
 20
12.564034638
 30
0.0
 10
9.909050055
 20
12.5218498521
 30
0.0
 10
9.8865191124
 20
12.4821007698
 30
0.0
 10
9.8625095063
 20
12.4447782714
 30
0.0
 10
9.837949834
 20
12.409794978
 30
0.0
 10
9.8134775465
 20
12.3772348802
 30
0.0
 10
9.7897478788
 20
12.3472028908
 30
0.0
 10
9.7706043259
 20
12.3239236929
 30
0.0
 10
9.7561268355
 20
12.3067181833
 30
0.0
 10
9.7460934685
 20
12.294952188
 30
0.0
 10
9.7366857956
 20
12.2840500167
 30
0.0
 10
9.7279823464
 20
12.2740670057
 30
0.0
 10
9.7200624209
 20
12.2650590934
 30
0.0
 10
9.7130007814
 20
12.2570877262
 30
0.0
 10
9.7076828835
 20
12.2511240666
 30
0.0
 10
9.7039156992
 20
12.2469168519
 30
0.0
 10
9.7014786168
 20
12.244201069
 30
0.0
 10
9.699310911
 20
12.2417893543
 30
0.0
 10
9.697418306
 20
12.2396870051
 30
0.0
 10
9.6958052852
 20
12.237898003
 30
0.0
 10
9.6946375609
 20
12.2366048624
 30
0.0
 10
9.6938463949
 20
12.2357297722
 30
0.0
 10
9.6933616257
 20
12.235194007
 30
0.0
 10
9.6929499651
 20
12.2347393331
 30
0.0
 10
9.6926118417
 20
12.2343663136
 30
0.0
 10
9.6923480608
 20
12.2340751453
 30
0.0
 10
9.692174393
 20
12.2338844087
 30
0.0
 10
9.692073572
 20
12.2337725644
 30
0.0
 10
9.6920219737
 20
12.2337172507
 30
0.0
 10
9.691994641
 20
12.2336843285
 30
0.0
 10
9.6919809281
 20
12.2336710981
 30
0.0
  0
SPLINE
  5
3A8
100
AcDbEntity
  8
0
100
AcDbSpline
 62
9
  6
CONTINUOUS
 70
0
 71
3
 72
101
 73
97
 74
0
 42
0.0000001
 43
0.0000001
 44
0.0000000001
 40
0.0
 40
0.0
 40
0.0
 40
0.0
 40
0.000003308
 40
0.0000130268
 40
0.0000291528
 40
0.000051682
 40
0.0001159343
 40
0.0002057523
 40
0.0003211046
 40
0.0004619597
 40
0.0006282863
 40
0.0008200528
 40
0.0012797794
 40
0.0018407938
 40
0.0025025595
 40
0.0032645172
 40
0.0041261073
 40
0.0050867661
 40
0.0073020251
 40
0.009902422
 40
0.0128796622
 40
0.0162244965
 40
0.0199271354
 40
0.0239773478
 40
0.0283638274
 40
0.0330751072
 40
0.0380996923
 40
0.0490426987
 40
0.0611003597
 40
0.0741808664
 40
0.0881979071
 40
0.1030700506
 40
0.1187209059
 40
0.1350814742
 40
0.152088135
 40
0.1696834139
 40
0.2064354148
 40
0.2255043948
 40
0.2449827132
 40
0.285031633
 40
0.3055453297
 40
0.3263481488
 40
0.3474152357
 40
0.3687227503
 40
0.4119431006
 40
0.4338104214
 40
0.4558018455
 40
0.4778790291
 40
0.5000001558
 40
0.522121287
 40
0.544198473
 40
0.5661898698
 40
0.5880571602
 40
0.6312775436
 40
0.6525850946
 40
0.6736522407
 40
0.6944550156
 40
0.7149686591
 40
0.7550174091
 40
0.7744956788
 40
0.7935646704
 40
0.8303166188
 40
0.8479119131
 40
0.8649186128
 40
0.8812791505
 40
0.8969299597
 40
0.9118020913
 40
0.9258191244
 40
0.9388996222
 40
0.9509572948
 40
0.9619003192
 40
0.9669249096
 40
0.9716361887
 40
0.9760226621
 40
0.9800728671
 40
0.9837754997
 40
0.9871203289
 40
0.9900975676
 40
0.9926979667
 40
0.9949132379
 40
0.9958739085
 40
0.996735511
 40
0.9974974796
 40
0.9981592533
 40
0.9987202709
 40
0.9991799941
 40
0.9993717564
 40
0.9995380776
 40
0.9996789265
 40
0.9997942721
 40
0.9998840833
 40
0.999948329
 40
0.9999708551
 40
0.9999869782
 40
0.9999966944
 40
1.0
 40
1.0
 40
1.0
 40
1.0
 10
9.7519808961
 20
13.2336709252
 30
0.0
 10
9.7519812113
 20
13.2336696579
 30
0.0
 10
9.7519852422
 20
13.2336659471
 30
0.0
 10
9.751991007
 20
13.2336561799
 30
0.0
 10
9.7520027737
 20
13.2336409724
 30
0.0
 10
9.752026317
 20
13.2336079549
 30
0.0
 10
9.7520675787
 20
13.2335516913
 30
0.0
 10
9.7521300598
 20
13.2334656519
 30
0.0
 10
9.7522105352
 20
13.2333552612
 30
0.0
 10
9.752308756
 20
13.2332204478
 30
0.0
 10
9.7524247906
 20
13.2330612835
 30
0.0
 10
9.7526150043
 20
13.2328004193
 30
0.0
 10
9.7528971006
 20
13.2324137189
 30
0.0
 10
9.7532886165
 20
13.2318771768
 30
0.0
 10
9.75375039
 20
13.2312442028
 30
0.0
 10
9.754281924
 20
13.2305152435
 30
0.0
 10
9.7548827076
 20
13.2296907485
 30
0.0
 10
9.7558208521
 20
13.2284022064
 30
0.0
 10
9.7571618178
 20
13.2265578607
 30
0.0
 10
9.7589688866
 20
13.2240681467
 30
0.0
 10
9.7610355813
 20
13.2212158766
 30
0.0
 10
9.7633544011
 20
13.2180089442
 30
0.0
 10
9.765917203
 20
13.2144557263
 30
0.0
 10
9.7687154302
 20
13.2105653078
 30
0.0
 10
9.7717401391
 20
13.2063473164
 30
0.0
 10
9.774982159
 20
13.2018118361
 30
0.0
 10
9.7797182635
 20
13.195162783
 30
0.0
 10
9.7861108064
 20
13.1861330084
 30
0.0
 10
9.7942898034
 20
13.1744715901
 30
0.0
 10
9.8031032002
 20
13.1617730645
 30
0.0
 10
9.8124719892
 20
13.1481078489
 30
0.0
 10
9.8223198041
 20
13.1335411972
 30
0.0
 10
9.8325736306
 20
13.1181328305
 30
0.0
 10
9.8431599914
 20
13.1019343305
 30
0.0
 10
9.8540078095
 20
13.0849906071
 30
0.0
 10
9.8689449457
 20
13.0611085577
 30
0.0
 10
9.8838701932
 20
13.0362598338
 30
0.0
 10
9.8985986855
 20
13.01043791
 30
0.0
 10
9.9135086073
 20
12.9832267936
 30
0.0
 10
9.9278765239
 20
12.9550707892
 30
0.0
 10
9.9414030254
 20
12.9259336165
 30
0.0
 10
9.9511416489
 20
12.9033099545
 30
0.0
 10
9.9602614899
 20
12.8800907097
 30
0.0
 10
9.971464755
 20
12.8482069534
 30
0.0
 10
9.9807968027
 20
12.8153439838
 30
0.0
 10
9.9876949743
 20
12.7816534014
 30
0.0
 10
9.9915298153
 20
12.755893811
 30
0.0
 10
9.9938856086
 20
12.7298555324
 30
0.0
 10
9.9946808032
 20
12.7036707403
 30
0.0
 10
9.9938856455
 20
12.6774859437
 30
0.0
 10
9.9915297484
 20
12.6514476813
 30
0.0
 10
9.9876948706
 20
12.6256881215
 30
0.0
 10
9.9807967877
 20
12.5919975292
 30
0.0
 10
9.9714645794
 20
12.5591345857
 30
0.0
 10
9.9602613204
 20
12.5272507776
 30
0.0
 10
9.9511415871
 20
12.504031467
 30
0.0
 10
9.9414028609
 20
12.4814078646
 30
0.0
 10
9.9278764005
 20
12.4522707908
 30
0.0
 10
9.9135085097
 20
12.4241148907
 30
0.0
 10
9.8985985309
 20
12.3969039005
 30
0.0
 10
9.8838702775
 20
12.3710818812
 30
0.0
 10
9.8689448897
 20
12.3462332496
 30
0.0
 10
9.8540077207
 20
12.3223512214
 30
0.0
 10
9.8431599859
 20
12.3054074333
 30
0.0
 10
9.8325736105
 20
12.2892089603
 30
0.0
 10
9.8223197656
 20
12.2738006481
 30
0.0
 10
9.8124719955
 20
12.2592339975
 30
0.0
 10
9.8031032172
 20
12.2455687881
 30
0.0
 10
9.794289799
 20
12.2328702796
 30
0.0
 10
9.7861108026
 20
12.2212088511
 30
0.0
 10
9.7797182639
 20
12.2121790566
 30
0.0
 10
9.7749821601
 20
12.2055299922
 30
0.0
 10
9.7717401389
 20
12.2009945134
 30
0.0
 10
9.768715427
 20
12.1967765311
 30
0.0
 10
9.7659171968
 20
12.1928861244
 30
0.0
 10
9.7633543938
 20
12.1893329165
 30
0.0
 10
9.7610355738
 20
12.1861259905
 30
0.0
 10
9.758968878
 20
12.1832737234
 30
0.0
 10
9.7571618082
 20
12.1807840037
 30
0.0
 10
9.7558208442
 20
12.178939644
 30
0.0
 10
9.7548827032
 20
12.1776510816
 30
0.0
 10
9.7542819213
 20
12.1768265683
 30
0.0
 10
9.7537503892
 20
12.1760975923
 30
0.0
 10
9.7532886173
 20
12.1754646063
 30
0.0
 10
9.7528971024
 20
12.1749280596
 30
0.0
 10
9.7526150043
 20
12.1745413628
 30
0.0
 10
9.7524247888
 20
12.1742805062
 30
0.0
 10
9.7523087538
 20
12.17412135
 30
0.0
 10
9.7522105327
 20
12.1739865456
 30
0.0
 10
9.7521300571
 20
12.1738761647
 30
0.0
 10
9.7520675767
 20
12.1737901347
 30
0.0
 10
9.7520263142
 20
12.1737338794
 30
0.0
 10
9.7520027727
 20
12.1737008672
 30
0.0
 10
9.7519910042
 20
12.1736856644
 30
0.0
 10
9.7519852443
 20
12.173675899
 30
0.0
 10
9.7519812097
 20
12.1736721919
 30
0.0
 10
9.7519808961
 20
12.1736709252
 30
0.0
  0
SPLINE
  5
3A9
100
AcDbEntity
  8
0
100
AcDbSpline
 62
7
  6
CONTINUOUS
 70
0
 71
3
 72
17
 73
13
 74
0
 42
0.0000001
 43
0.0000001
 44
0.0000000001
 40
0.0
 40
0.0
 40
0.0
 40
0.0
 40
0.1166045788
 40
0.2399487009
 40
0.3038376152
 40
0.3687699342
 40
0.4999998999
 40
0.6312298826
 40
0.6961622216
 40
0.7600511619
 40
0.8833953495
 40
1.0
 40
1.0
 40
1.0
 40
1.0
 10
20.2619808961
 20
10.3136707489
 30
0.0
 10
20.2656390796
 20
10.3136707381
 30
0.0
 10
20.273181465
 20
10.3143710732
 30
0.0
 10
20.2824078072
 20
10.3170082276
 30
0.0
 10
20.2896101781
 20
10.32031145
 30
0.0
 10
20.2966615513
 20
10.3244359816
 30
0.0
 10
20.3047210468
 20
10.3309307428
 30
0.0
 10
20.3112158003
 20
10.3389902452
 30
0.0
 10
20.3153403264
 20
10.3460416239
 30
0.0
 10
20.3186435442
 20
10.3532440007
 30
0.0
 10
20.3212806935
 20
10.3624703496
 30
0.0
 10
20.3219810254
 20
10.3700127395
 30
0.0
 10
20.3219810133
 20
10.3736709252
 30
0.0
  0
SPLINE
  5
3AA
100
AcDbEntity
  8
0
100
AcDbSpline
 62
7
  6
CONTINUOUS
 70
0
 71
3
 72
17
 73
13
 74
0
 42
0.0000001
 43
0.0000001
 44
0.0000000001
 40
0.0
 40
0.0
 40
0.0
 40
0.0
 40
0.1166045618
 40
0.2399486747
 40
0.3038375876
 40
0.3687699074
 40
0.4999998783
 40
0.6312298699
 40
0.6961622139
 40
0.7600511586
 40
0.883395351
 40
1.0
 40
1.0
 40
1.0
 40
1.0
 10
20.2619808961
 20
9.3736711255
 30
0.0
 10
20.2656390807
 20
9.3736711379
 30
0.0
 10
20.2731814688
 20
9.3729708052
 30
0.0
 10
20.2824078149
 20
9.3703336522
 30
0.0
 10
20.2896101891
 20
9.3670304295
 30
0.0
 10
20.2966615658
 20
9.3629058965
 30
0.0
 10
20.3047210651
 20
9.3564111321
 30
0.0
 10
20.3112158206
 20
9.3483516245
 30
0.0
 10
20.3153403472
 20
9.3413002414
 30
0.0
 10
20.3186435646
 20
9.3340978601
 30
0.0
 10
20.3212807118
 20
9.324871506
 30
0.0
 10
20.3219810409
 20
9.3173291124
 30
0.0
 10
20.3219810271
 20
9.3136709251
 30
0.0
  0
SPLINE
  5
3AB
100
AcDbEntity
  8
0
100
AcDbSpline
 62
9
  6
CONTINUOUS
 70
0
 71
3
 72
71
 73
67
 74
0
 42
0.0000001
 43
0.0000001
 44
0.0000000001
 40
0.0
 40
0.0
 40
0.0
 40
0.0
 40
0.0000518208
 40
0.0001160679
 40
0.0002057672
 40
0.0004612048
 40
0.000817499
 40
0.0012740154
 40
0.0018301195
 40
0.0024851769
 40
0.0032385532
 40
0.0050377257
 40
0.0072225629
 40
0.0097879917
 40
0.0127289396
 40
0.0160393517
 40
0.0197092426
 40
0.0280836043
 40
0.0377643674
 40
0.0486639632
 40
0.0606954521
 40
0.073774149
 40
0.0878161284
 40
0.1027377439
 40
0.1349113987
 40
0.1697584218
 40
0.2067973006
 40
0.2456413853
 40
0.2859493112
 40
0.3274114226
 40
0.3697883148
 40
0.4128346886
 40
0.4563122836
 40
0.5000004427
 40
0.5436886189
 40
0.5871663227
 40
0.6302128581
 40
0.6725896553
 40
0.7140517872
 40
0.754359799
 40
0.7932038376
 40
0.8302426
 40
0.8650895429
 40
0.8972631387
 40
0.9121847186
 40
0.9262266546
 40
0.939305299
 40
0.9513367249
 40
0.9622362465
 40
0.9719169256
 40
0.9802911955
 40
0.9839610381
 40
0.9872714006
 40
0.9902122981
 40
0.9927776766
 40
0.9949624647
 40
0.9967615902
 40
0.9975149443
 40
0.9981699804
 40
0.9987260643
 40
0.9991825617
 40
0.9995388383
 40
0.9997942599
 40
0.9998839517
 40
0.9999481919
 40
1.0
 40
1.0
 40
1.0
 40
1.0
 10
20.2619809312
 20
10.3136707489
 30
0.0
 10
20.2619946412
 20
10.3136575089
 30
0.0
 10
20.2620219889
 20
10.3136245917
 30
0.0
 10
20.2620735889
 20
10.3135692655
 30
0.0
 10
20.2621744208
 20
10.3134574162
 30
0.0
 10
20.2623480968
 20
10.3132666665
 30
0.0
 10
20.2626118922
 20
10.3129754853
 30
0.0
 10
20.2629500296
 20
10.3126024502
 30
0.0
 10
20.2633617056
 20
10.3121477604
 30
0.0
 10
20.2638464908
 20
10.311611978
 30
0.0
 10
20.2646376795
 20
10.3107368635
 30
0.0
 10
20.2658054333
 20
10.3094436909
 30
0.0
 10
20.2674184901
 20
10.3076546489
 30
0.0
 10
20.2693111317
 20
10.3055522583
 30
0.0
 10
20.2714788736
 20
10.3031405018
 30
0.0
 10
20.273915991
 20
10.300424677
 30
0.0
 10
20.2776832193
 20
10.2962174081
 30
0.0
 10
20.2830011683
 20
10.2902536835
 30
0.0
 10
20.2900628642
 20
10.2822822435
 30
0.0
 10
20.2979828399
 20
10.273274267
 30
0.0
 10
20.3066863334
 20
10.2632912021
 30
0.0
 10
20.3160940442
 20
10.2523889863
 30
0.0
 10
20.3261274429
 20
10.2406229545
 30
0.0
 10
20.3406049668
 20
10.2234174067
 30
0.0
 10
20.3597485603
 20
10.2001381589
 30
0.0
 10
20.383478294
 20
10.1701061022
 30
0.0
 10
20.4079506639
 20
10.1375459545
 30
0.0
 10
20.4325103265
 20
10.102562618
 30
0.0
 10
20.4565197439
 20
10.065240021
 30
0.0
 10
20.4790505252
 20
10.0254908621
 30
0.0
 10
20.4991313968
 20
9.983306164
 30
0.0
 10
20.515354489
 20
9.9386598174
 30
0.0
 10
20.5261211462
 20
9.8918427865
 30
0.0
 10
20.5299286549
 20
9.8436704255
 30
0.0
 10
20.5261210064
 20
9.7954980434
 30
0.0
 10
20.5153542769
 20
9.7486809091
 30
0.0
 10
20.4991307999
 20
9.704034638
 30
0.0
 10
20.479050055
 20
9.6618498521
 30
0.0
 10
20.4565191124
 20
9.6221007698
 30
0.0
 10
20.4325095063
 20
9.5847782714
 30
0.0
 10
20.407949834
 20
9.549794978
 30
0.0
 10
20.3834775465
 20
9.5172348802
 30
0.0
 10
20.3597478788
 20
9.4872028908
 30
0.0
 10
20.3406043259
 20
9.4639236929
 30
0.0
 10
20.3261268355
 20
9.4467181833
 30
0.0
 10
20.3160934685
 20
9.434952188
 30
0.0
 10
20.3066857956
 20
9.4240500167
 30
0.0
 10
20.2979823464
 20
9.4140670057
 30
0.0
 10
20.2900624209
 20
9.4050590934
 30
0.0
 10
20.2830007814
 20
9.3970877262
 30
0.0
 10
20.2776828835
 20
9.3911240666
 30
0.0
 10
20.2739156992
 20
9.3869168519
 30
0.0
 10
20.2714786168
 20
9.384201069
 30
0.0
 10
20.269310911
 20
9.3817893543
 30
0.0
 10
20.267418306
 20
9.3796870051
 30
0.0
 10
20.2658052852
 20
9.377898003
 30
0.0
 10
20.2646375609
 20
9.3766048624
 30
0.0
 10
20.2638463949
 20
9.3757297722
 30
0.0
 10
20.2633616257
 20
9.375194007
 30
0.0
 10
20.2629499651
 20
9.3747393331
 30
0.0
 10
20.2626118417
 20
9.3743663136
 30
0.0
 10
20.2623480608
 20
9.3740751453
 30
0.0
 10
20.262174393
 20
9.3738844087
 30
0.0
 10
20.262073572
 20
9.3737725644
 30
0.0
 10
20.2620219737
 20
9.3737172507
 30
0.0
 10
20.261994641
 20
9.3736843285
 30
0.0
 10
20.2619809281
 20
9.3736710981
 30
0.0
  0
SPLINE
  5
3AC
100
AcDbEntity
  8
0
100
AcDbSpline
 62
9
  6
CONTINUOUS
 70
0
 71
3
 72
101
 73
97
 74
0
 42
0.0000001
 43
0.0000001
 44
0.0000000001
 40
0.0
 40
0.0
 40
0.0
 40
0.0
 40
0.000003308
 40
0.0000130268
 40
0.0000291528
 40
0.000051682
 40
0.0001159343
 40
0.0002057523
 40
0.0003211046
 40
0.0004619597
 40
0.0006282863
 40
0.0008200528
 40
0.0012797794
 40
0.0018407938
 40
0.0025025595
 40
0.0032645172
 40
0.0041261073
 40
0.0050867661
 40
0.0073020251
 40
0.009902422
 40
0.0128796622
 40
0.0162244965
 40
0.0199271354
 40
0.0239773478
 40
0.0283638274
 40
0.0330751072
 40
0.0380996923
 40
0.0490426987
 40
0.0611003597
 40
0.0741808664
 40
0.0881979071
 40
0.1030700506
 40
0.1187209059
 40
0.1350814742
 40
0.152088135
 40
0.1696834139
 40
0.2064354148
 40
0.2255043948
 40
0.2449827132
 40
0.285031633
 40
0.3055453297
 40
0.3263481488
 40
0.3474152357
 40
0.3687227503
 40
0.4119431006
 40
0.4338104214
 40
0.4558018455
 40
0.4778790291
 40
0.5000001558
 40
0.522121287
 40
0.544198473
 40
0.5661898698
 40
0.5880571602
 40
0.6312775436
 40
0.6525850946
 40
0.6736522407
 40
0.6944550156
 40
0.7149686591
 40
0.7550174091
 40
0.7744956788
 40
0.7935646704
 40
0.8303166188
 40
0.8479119131
 40
0.8649186128
 40
0.8812791505
 40
0.8969299597
 40
0.9118020913
 40
0.9258191244
 40
0.9388996222
 40
0.9509572948
 40
0.9619003192
 40
0.9669249096
 40
0.9716361887
 40
0.9760226621
 40
0.9800728671
 40
0.9837754997
 40
0.9871203289
 40
0.9900975676
 40
0.9926979667
 40
0.9949132379
 40
0.9958739085
 40
0.996735511
 40
0.9974974796
 40
0.9981592533
 40
0.9987202709
 40
0.9991799941
 40
0.9993717564
 40
0.9995380776
 40
0.9996789265
 40
0.9997942721
 40
0.9998840833
 40
0.999948329
 40
0.9999708551
 40
0.9999869782
 40
0.9999966944
 40
1.0
 40
1.0
 40
1.0
 40
1.0
 10
20.3219808961
 20
10.3736709252
 30
0.0
 10
20.3219812113
 20
10.3736696579
 30
0.0
 10
20.3219852422
 20
10.3736659471
 30
0.0
 10
20.321991007
 20
10.3736561799
 30
0.0
 10
20.3220027737
 20
10.3736409724
 30
0.0
 10
20.322026317
 20
10.3736079549
 30
0.0
 10
20.3220675787
 20
10.3735516913
 30
0.0
 10
20.3221300598
 20
10.3734656519
 30
0.0
 10
20.3222105352
 20
10.3733552612
 30
0.0
 10
20.322308756
 20
10.3732204478
 30
0.0
 10
20.3224247906
 20
10.3730612835
 30
0.0
 10
20.3226150043
 20
10.3728004193
 30
0.0
 10
20.3228971006
 20
10.3724137189
 30
0.0
 10
20.3232886165
 20
10.3718771768
 30
0.0
 10
20.32375039
 20
10.3712442028
 30
0.0
 10
20.324281924
 20
10.3705152435
 30
0.0
 10
20.3248827076
 20
10.3696907485
 30
0.0
 10
20.3258208521
 20
10.3684022064
 30
0.0
 10
20.3271618178
 20
10.3665578607
 30
0.0
 10
20.3289688866
 20
10.3640681467
 30
0.0
 10
20.3310355813
 20
10.3612158766
 30
0.0
 10
20.3333544011
 20
10.3580089442
 30
0.0
 10
20.335917203
 20
10.3544557263
 30
0.0
 10
20.3387154302
 20
10.3505653078
 30
0.0
 10
20.3417401391
 20
10.3463473164
 30
0.0
 10
20.344982159
 20
10.3418118361
 30
0.0
 10
20.3497182635
 20
10.335162783
 30
0.0
 10
20.3561108064
 20
10.3261330084
 30
0.0
 10
20.3642898034
 20
10.3144715901
 30
0.0
 10
20.3731032002
 20
10.3017730645
 30
0.0
 10
20.3824719892
 20
10.2881078489
 30
0.0
 10
20.3923198041
 20
10.2735411972
 30
0.0
 10
20.4025736306
 20
10.2581328305
 30
0.0
 10
20.4131599914
 20
10.2419343305
 30
0.0
 10
20.4240078095
 20
10.2249906071
 30
0.0
 10
20.4389449457
 20
10.2011085577
 30
0.0
 10
20.4538701932
 20
10.1762598338
 30
0.0
 10
20.4685986855
 20
10.15043791
 30
0.0
 10
20.4835086073
 20
10.1232267936
 30
0.0
 10
20.4978765239
 20
10.0950707892
 30
0.0
 10
20.5114030254
 20
10.0659336165
 30
0.0
 10
20.5211416489
 20
10.0433099545
 30
0.0
 10
20.5302614899
 20
10.0200907097
 30
0.0
 10
20.541464755
 20
9.9882069534
 30
0.0
 10
20.5507968027
 20
9.9553439838
 30
0.0
 10
20.5576949743
 20
9.9216534014
 30
0.0
 10
20.5615298153
 20
9.895893811
 30
0.0
 10
20.5638856086
 20
9.8698555324
 30
0.0
 10
20.5646808032
 20
9.8436707403
 30
0.0
 10
20.5638856455
 20
9.8174859437
 30
0.0
 10
20.5615297484
 20
9.7914476813
 30
0.0
 10
20.5576948706
 20
9.7656881215
 30
0.0
 10
20.5507967877
 20
9.7319975292
 30
0.0
 10
20.5414645794
 20
9.6991345857
 30
0.0
 10
20.5302613204
 20
9.6672507776
 30
0.0
 10
20.5211415871
 20
9.644031467
 30
0.0
 10
20.5114028609
 20
9.6214078646
 30
0.0
 10
20.4978764005
 20
9.5922707908
 30
0.0
 10
20.4835085097
 20
9.5641148907
 30
0.0
 10
20.4685985309
 20
9.5369039005
 30
0.0
 10
20.4538702775
 20
9.5110818812
 30
0.0
 10
20.4389448897
 20
9.4862332496
 30
0.0
 10
20.4240077207
 20
9.4623512214
 30
0.0
 10
20.4131599859
 20
9.4454074333
 30
0.0
 10
20.4025736105
 20
9.4292089603
 30
0.0
 10
20.3923197656
 20
9.4138006481
 30
0.0
 10
20.3824719955
 20
9.3992339975
 30
0.0
 10
20.3731032172
 20
9.3855687881
 30
0.0
 10
20.364289799
 20
9.3728702796
 30
0.0
 10
20.3561108026
 20
9.3612088511
 30
0.0
 10
20.3497182639
 20
9.3521790566
 30
0.0
 10
20.3449821601
 20
9.3455299922
 30
0.0
 10
20.3417401389
 20
9.3409945134
 30
0.0
 10
20.338715427
 20
9.3367765311
 30
0.0
 10
20.3359171968
 20
9.3328861244
 30
0.0
 10
20.3333543938
 20
9.3293329165
 30
0.0
 10
20.3310355738
 20
9.3261259905
 30
0.0
 10
20.328968878
 20
9.3232737234
 30
0.0
 10
20.3271618082
 20
9.3207840037
 30
0.0
 10
20.3258208442
 20
9.318939644
 30
0.0
 10
20.3248827032
 20
9.3176510816
 30
0.0
 10
20.3242819213
 20
9.3168265683
 30
0.0
 10
20.3237503892
 20
9.3160975923
 30
0.0
 10
20.3232886173
 20
9.3154646063
 30
0.0
 10
20.3228971024
 20
9.3149280596
 30
0.0
 10
20.3226150043
 20
9.3145413628
 30
0.0
 10
20.3224247888
 20
9.3142805062
 30
0.0
 10
20.3223087538
 20
9.31412135
 30
0.0
 10
20.3222105327
 20
9.3139865456
 30
0.0
 10
20.3221300571
 20
9.3138761647
 30
0.0
 10
20.3220675767
 20
9.3137901347
 30
0.0
 10
20.3220263142
 20
9.3137338794
 30
0.0
 10
20.3220027727
 20
9.3137008672
 30
0.0
 10
20.3219910042
 20
9.3136856644
 30
0.0
 10
20.3219852443
 20
9.313675899
 30
0.0
 10
20.3219812097
 20
9.3136721919
 30
0.0
 10
20.3219808961
 20
9.3136709252
 30
0.0
  0
SPLINE
  5
3AD
100
AcDbEntity
  8
0
100
AcDbSpline
 62
7
  6
CONTINUOUS
 70
0
 71
3
 72
21
 73
17
 74
0
 42
0.0000001
 43
0.0000001
 44
0.0000000001
 40
0.0
 40
0.0
 40
0.0
 40
0.0
 40
0.057368249
 40
0.1166633082
 40
0.1776238709
 40
0.2400883552
 40
0.3039430246
 40
0.3688405296
 40
0.5000001073
 40
0.6311596668
 40
0.6960571503
 40
0.7599117917
 40
0.8223762426
 40
0.8833367687
 40
0.9426317894
 40
1.0
 40
1.0
 40
1.0
 40
1.0
 10
0.0819807914
 20
12.0536709248
 30
0.0
 10
0.0819807852
 20
12.056672178
 30
0.0
 10
0.0822619336
 20
12.0627788428
 30
0.0
 10
0.0835306787
 20
12.0719968536
 30
0.0
 10
0.0857139024
 20
12.0813183187
 30
0.0
 10
0.0888712968
 20
12.0906104932
 30
0.0
 10
0.0930487351
 20
12.0997201627
 30
0.0
 10
0.09992279
 20
12.1114716959
 30
0.0
 10
0.1107473418
 20
12.1249045251
 30
0.0
 10
0.1241801627
 20
12.1357290856
 30
0.0
 10
0.1359316888
 20
12.1426031457
 30
0.0
 10
0.1450413522
 20
12.1467805869
 30
0.0
 10
0.1543335205
 20
12.1499379836
 30
0.0
 10
0.1636549794
 20
12.1521212089
 30
0.0
 10
0.1728729842
 20
12.1533899549
 30
0.0
 10
0.1789796449
 20
12.1536711035
 30
0.0
 10
0.1819808961
 20
12.1536710974
 30
0.0
  0
SPLINE
  5
3AE
100
AcDbEntity
  8
0
100
AcDbSpline
 62
7
  6
CONTINUOUS
 70
0
 71
3
 72
21
 73
17
 74
0
 42
0.0000001
 43
0.0000001
 44
0.0000000001
 40
0.0
 40
0.0
 40
0.0
 40
0.0
 40
0.057368249
 40
0.1166633082
 40
0.1776238709
 40
0.2400883552
 40
0.3039430246
 40
0.3688405296
 40
0.5000001074
 40
0.6311596668
 40
0.6960571504
 40
0.7599117917
 40
0.8223762426
 40
0.8833367687
 40
0.9426317894
 40
1.0
 40
1.0
 40
1.0
 40
1.0
 10
-1.018018999
 20
12.0536709248
 30
0.0
 10
-1.0180189929
 20
12.056672178
 30
0.0
 10
-1.0183001413
 20
12.0627788428
 30
0.0
 10
-1.0195688864
 20
12.0719968536
 30
0.0
 10
-1.02175211
 20
12.0813183187
 30
0.0
 10
-1.0249095045
 20
12.0906104932
 30
0.0
 10
-1.0290869428
 20
12.0997201627
 30
0.0
 10
-1.0359609976
 20
12.1114716959
 30
0.0
 10
-1.0467855494
 20
12.1249045252
 30
0.0
 10
-1.0602183704
 20
12.1357290856
 30
0.0
 10
-1.0719698965
 20
12.1426031457
 30
0.0
 10
-1.0810795599
 20
12.146780587
 30
0.0
 10
-1.0903717282
 20
12.1499379837
 30
0.0
 10
-1.0996931871
 20
12.1521212089
 30
0.0
 10
-1.1089111919
 20
12.1533899549
 30
0.0
 10
-1.1150178526
 20
12.1536711035
 30
0.0
 10
-1.1180191039
 20
12.1536710974
 30
0.0
  0
LINE
  5
3AF
100
AcDbEntity
  8
0
100
AcDbLine
 62
9
  6
CONTINUOUS
 10
-0.4680189775
 20
12.7036707758
 11
-1.1180187051
 21
12.1536710964
  0
SPLINE
  5
3B0
100
AcDbEntity
  8
0
100
AcDbSpline
 62
7
  6
CONTINUOUS
 70
0
 71
3
 72
17
 73
13
 74
0
 42
0.0000001
 43
0.0000001
 44
0.0000000001
 40
0.0
 40
0.0
 40
0.0
 40
0.0
 40
0.194489251
 40
0.3705275282
 40
0.5272594349
 40
0.663934023
 40
0.7799756068
 40
0.8748583236
 40
0.9142504616
 40
0.9482411436
 40
0.9768195951
 40
1.0
 40
1.0
 40
1.0
 40
1.0
 10
-1.2180191039
 20
13.012671873
 30
0.0
 10
-1.2183272117
 20
13.0176802587
 30
0.0
 10
-1.2189463558
 20
13.02721996
 30
0.0
 10
-1.2199349141
 20
13.0407875349
 30
0.0
 10
-1.2209251443
 20
13.0528589151
 30
0.0
 10
-1.2219079163
 20
13.0633772959
 30
0.0
 10
-1.222886385
 20
13.072292239
 30
0.0
 10
-1.2237420861
 20
13.0786947927
 30
0.0
 10
-1.2244489479
 20
13.082978468
 30
0.0
 10
-1.2249449896
 20
13.0855623726
 30
0.0
 10
-1.2254395341
 20
13.08771918
 30
0.0
 10
-1.2258046879
 20
13.0890050007
 30
0.0
 10
-1.2259945379
 20
13.0895721255
 30
0.0
  0
SPLINE
  5
3B1
100
AcDbEntity
  8
0
100
AcDbSpline
 62
7
  6
CONTINUOUS
 70
0
 71
3
 72
15
 73
11
 74
0
 42
0.0000001
 43
0.0000001
 44
0.0000000001
 40
0.0
 40
0.0
 40
0.0
 40
0.0
 40
0.2145874203
 40
0.396082945
 40
0.5456435726
 40
0.6653918954
 40
0.7595359669
 40
0.8366551561
 40
0.9114957327
 40
1.0
 40
1.0
 40
1.0
 40
1.0
 10
-1.2259945379
 20
13.0895721255
 30
0.0
 10
-1.2260819197
 20
13.0898331547
 30
0.0
 10
-1.2262538914
 20
13.0903115734
 30
0.0
 10
-1.2265332141
 20
13.0909540463
 30
0.0
 10
-1.2268121193
 20
13.0914620122
 30
0.0
 10
-1.2270923224
 20
13.0918372614
 30
0.0
 10
-1.2273788076
 20
13.0920840655
 30
0.0
 10
-1.2276882158
 20
13.0921912627
 30
0.0
 10
-1.2280032032
 20
13.0921289896
 30
0.0
 10
-1.22817644
 20
13.092002857
 30
0.0
 10
-1.2282605244
 20
13.0919265743
 30
0.0
  0
SPLINE
  5
3B2
100
AcDbEntity
  8
0
100
AcDbSpline
 62
7
  6
CONTINUOUS
 70
0
 71
3
 72
42
 73
38
 74
0
 42
0.0000001
 43
0.0000001
 44
0.0000000001
 40
0.0
 40
0.0
 40
0.0
 40
0.0
 40
0.1977621651
 40
0.2941882125
 40
0.3876720087
 40
0.4773060895
 40
0.5622387003
 40
0.6416196636
 40
0.7146018073
 40
0.7484562484
 40
0.7804553593
 40
0.8105286341
 40
0.838605592
 40
0.8646157862
 40
0.888488819
 40
0.910154364
 40
0.929542689
 40
0.9466037665
 40
0.9542539896
 40
0.9613136687
 40
0.9677801044
 40
0.9736506516
 40
0.9789227437
 40
0.9835939349
 40
0.9876619726
 40
0.9911249342
 40
0.9939815119
 40
0.9951823836
 40
0.9962318565
 40
0.997130454
 40
0.9978792383
 40
0.9984803432
 40
0.9989383387
 40
0.9992643913
 40
0.9994909178
 40
0.9997033041
 40
1.0
 40
1.0
 40
1.0
 40
1.0
 10
-1.2185186278
 20
12.703663473
 30
0.0
 10
-1.218938785
 20
12.7292605967
 30
0.0
 10
-1.2195636176
 20
12.7673385219
 30
0.0
 10
-1.2204120513
 20
12.8175160011
 30
0.0
 10
-1.2210429795
 20
12.8536978307
 30
0.0
 10
-1.2216736834
 20
12.8883915897
 30
0.0
 10
-1.2223037922
 20
12.9212594149
 30
0.0
 10
-1.2229330642
 20
12.9519712212
 30
0.0
 10
-1.2234693372
 20
12.9760713813
 30
0.0
 10
-1.223902153
 20
12.9940386367
 30
0.0
 10
-1.2242184613
 20
13.0064524657
 30
0.0
 10
-1.2245346231
 20
13.018118139
 30
0.0
 10
-1.2248506076
 20
13.0290082412
 30
0.0
 10
-1.2251663567
 20
13.0390953594
 30
0.0
 10
-1.2254818063
 20
13.0483520825
 30
0.0
 10
-1.2257968091
 20
13.0567510718
 30
0.0
 10
-1.2261114209
 20
13.0642675732
 30
0.0
 10
-1.2263820813
 20
13.0699699549
 30
0.0
 10
-1.2266009377
 20
13.0740769336
 30
0.0
 10
-1.226758963
 20
13.0768136904
 30
0.0
 10
-1.226916867
 20
13.0793196576
 30
0.0
 10
-1.2270746252
 20
13.0815937281
 30
0.0
 10
-1.2272321779
 20
13.0836348037
 30
0.0
 10
-1.2273894594
 20
13.0854417894
 30
0.0
 10
-1.2275462971
 20
13.0870136361
 30
0.0
 10
-1.2277026027
 20
13.0883492724
 30
0.0
 10
-1.227838631
 20
13.0893134292
 30
0.0
 10
-1.2279500975
 20
13.0899651113
 30
0.0
 10
-1.2280286396
 20
13.090365162
 30
0.0
 10
-1.2281068602
 20
13.0907054748
 30
0.0
 10
-1.2281848953
 20
13.0909860507
 30
0.0
 10
-1.2282619154
 20
13.0912072242
 30
0.0
 10
-1.2283395575
 20
13.0913697397
 30
0.0
 10
-1.2284148952
 20
13.0914770125
 30
0.0
 10
-1.2285072607
 20
13.0915318504
 30
0.0
 10
-1.2286057387
 20
13.0914975601
 30
0.0
 10
-1.2286471837
 20
13.0914442948
 30
0.0
 10
-1.2286691041
 20
13.0914127568
 30
0.0
  0
SPLINE
  5
3B3
100
AcDbEntity
  8
0
100
AcDbSpline
 62
7
  6
CONTINUOUS
 70
0
 71
3
 72
38
 73
34
 74
0
 42
0.0000001
 43
0.0000001
 44
0.0000000001
 40
0.0
 40
0.0
 40
0.0
 40
0.0
 40
0.0972291106
 40
0.1936788176
 40
0.2882939838
 40
0.3801917784
 40
0.4685041297
 40
0.5523596998
 40
0.6309532263
 40
0.7035349595
 40
0.7694162882
 40
0.7996409032
 40
0.8279611655
 40
0.854310874
 40
0.8786246902
 40
0.9008469075
 40
0.9209279493
 40
0.9388183839
 40
0.9544734254
 40
0.9678614351
 40
0.9736962051
 40
0.9789533339
 40
0.9836292617
 40
0.9877210828
 40
0.9912275951
 40
0.9941480578
 40
0.99648212
 40
0.997429409
 40
0.9982304732
 40
0.9988858392
 40
0.9993966211
 40
0.9997654351
 40
1.0
 40
1.0
 40
1.0
 40
1.0
 10
-1.2286173745
 20
12.7036709252
 30
0.0
 10
-1.2284843814
 20
12.6908894834
 30
0.0
 10
-1.2281965121
 20
12.6654293027
 30
0.0
 10
-1.2277648833
 20
12.6275314611
 30
0.0
 10
-1.2273809931
 20
12.5903340177
 30
0.0
 10
-1.2269942414
 20
12.5542064337
 30
0.0
 10
-1.2265903903
 20
12.5194936282
 30
0.0
 10
-1.2261932957
 20
12.4865299017
 30
0.0
 10
-1.2258030924
 20
12.4556342545
 30
0.0
 10
-1.2254104149
 20
12.427101809
 30
0.0
 10
-1.2250743551
 20
12.4049279781
 30
0.0
 10
-1.2248040613
 20
12.3885726347
 30
0.0
 10
-1.2246075019
 20
12.3774137762
 30
0.0
 10
-1.2244110344
 20
12.3670321021
 30
0.0
 10
-1.2242142926
 20
12.3574522616
 30
0.0
 10
-1.2240174062
 20
12.3486967171
 30
0.0
 10
-1.2238207382
 20
12.3407858453
 30
0.0
 10
-1.2236246401
 20
12.3337385992
 30
0.0
 10
-1.2234293425
 20
12.3275716078
 30
0.0
 10
-1.2232607416
 20
12.3229894936
 30
0.0
 10
-1.2231237712
 20
12.3197741725
 30
0.0
 10
-1.2230259775
 20
12.3177035694
 30
0.0
 10
-1.222928396
 20
12.3158623722
 30
0.0
 10
-1.2228310383
 20
12.3142516718
 30
0.0
 10
-1.2227340917
 20
12.3128721919
 30
0.0
 10
-1.2226376065
 20
12.3117244542
 30
0.0
 10
-1.2225533249
 20
12.3109133719
 30
0.0
 10
-1.2224836337
 20
12.310381218
 30
0.0
 10
-1.2224352727
 20
12.3100688369
 30
0.0
 10
-1.2223872542
 20
12.3098148192
 30
0.0
 10
-1.2223398188
 20
12.3096181071
 30
0.0
 10
-1.2222933203
 20
12.3094799227
 30
0.0
 10
-1.2222558018
 20
12.30940763
 30
0.0
 10
-1.2222340003
 20
12.3093858216
 30
0.0
  0
SPLINE
  5
3B4
100
AcDbEntity
  8
0
100
AcDbSpline
 62
7
  6
CONTINUOUS
 70
0
 71
3
 72
36
 73
32
 74
0
 42
0.0000001
 43
0.0000001
 44
0.0000000001
 40
0.0
 40
0.0
 40
0.0
 40
0.0
 40
0.0005025867
 40
0.0009288791
 40
0.0014920386
 40
0.002197498
 40
0.0030479694
 40
0.0040449838
 40
0.0051894857
 40
0.0079229259
 40
0.0112494181
 40
0.0196755554
 40
0.0304517358
 40
0.0435576362
 40
0.0589662657
 40
0.0766370284
 40
0.0965270153
 40
0.118592854
 40
0.1427826129
 40
0.1690340906
 40
0.1972844169
 40
0.2274697653
 40
0.2933434217
 40
0.3660171257
 40
0.4447947006
 40
0.5289199319
 40
0.6175769019
 40
0.7099048735
 40
0.8050393877
 40
0.9020886095
 40
1.0
 40
1.0
 40
1.0
 40
1.0
 10
-1.2185203689
 20
12.3158232697
 30
0.0
 10
-1.2185853955
 20
12.315823484
 30
0.0
 10
-1.218681868
 20
12.3159331063
 30
0.0
 10
-1.218763473
 20
12.3160994411
 30
0.0
 10
-1.2188414398
 20
12.316307738
 30
0.0
 10
-1.2189172249
 20
12.3165703096
 30
0.0
 10
-1.218994365
 20
12.316891944
 30
0.0
 10
-1.2190714304
 20
12.3172712478
 30
0.0
 10
-1.2191811776
 20
12.3178924732
 30
0.0
 10
-1.2193150118
 20
12.3188151178
 30
0.0
 10
-1.2195379863
 20
12.3206761972
 30
0.0
 10
-1.2198054219
 20
12.3235792102
 30
0.0
 10
-1.2201113588
 20
12.3277482606
 30
0.0
 10
-1.2204188838
 20
12.3328226797
 30
0.0
 10
-1.2207277527
 20
12.3387903974
 30
0.0
 10
-1.2210373882
 20
12.3456368551
 30
0.0
 10
-1.2213476053
 20
12.3533453949
 30
0.0
 10
-1.2216581605
 20
12.3618979891
 30
0.0
 10
-1.2219689958
 20
12.3712741418
 30
0.0
 10
-1.2222801628
 20
12.3814508629
 30
0.0
 10
-1.2225916596
 20
12.3924036456
 30
0.0
 10
-1.2230199525
 20
12.4084816488
 30
0.0
 10
-1.2235502146
 20
12.4303066342
 30
0.0
 10
-1.2241680268
 20
12.4584183398
 30
0.0
 10
-1.2247858667
 20
12.4888920339
 30
0.0
 10
-1.225413835
 20
12.5214339118
 30
0.0
 10
-1.2260423413
 20
12.5557293115
 30
0.0
 10
-1.226640597
 20
12.5914498818
 30
0.0
 10
-1.2272480694
 20
12.6282562839
 30
0.0
 10
-1.2279408836
 20
12.6657837055
 30
0.0
 10
-1.2283964801
 20
12.6910044874
 30
0.0
 10
-1.228604369
 20
12.7036709971
 30
0.0
  0
LINE
  5
3B5
100
AcDbEntity
  8
0
100
AcDbLine
 62
9
  6
CONTINUOUS
 10
0.1819801927
 20
12.1536712183
 11
-0.4680193337
 21
12.7036706535
  0
LINE
  5
3B6
100
AcDbEntity
  8
0
100
AcDbLine
 62
9
  6
CONTINUOUS
 10
0.0819808961
 20
12.0536709252
 11
-0.4680191039
 21
12.7036709252
  0
LINE
  5
3B7
100
AcDbEntity
  8
0
100
AcDbLine
 62
9
  6
CONTINUOUS
 10
-1.0180191039
 20
12.0536709252
 11
-0.4680191039
 21
12.7036709252
  0
SPLINE
  5
3B8
100
AcDbEntity
  8
0
100
AcDbSpline
 62
7
  6
CONTINUOUS
 70
0
 71
3
 72
11
 73
7
 74
0
 42
0.0000001
 43
0.0000001
 44
0.0000000001
 40
0.0
 40
0.0
 40
0.0
 40
0.0
 40
0.2494597595
 40
0.5035837672
 40
0.7557699559
 40
1.0
 40
1.0
 40
1.0
 40
1.0
 10
-1.2845208778
 20
12.0703547744
 30
0.0
 10
-1.28296128
 20
12.0703547744
 30
0.0
 10
-1.2798040249
 20
12.0707431931
 30
0.0
 10
-1.2753224369
 20
12.0723737335
 30
0.0
 10
-1.2714045569
 20
12.0750342845
 30
0.0
 10
-1.2692684815
 20
12.0773280389
 30
0.0
 10
-1.2683681017
 20
12.0785612244
 30
0.0
  0
SPLINE
  5
3B9
100
AcDbEntity
  8
0
100
AcDbSpline
 62
7
  6
CONTINUOUS
 70
0
 71
3
 72
11
 73
7
 74
0
 42
0.0000001
 43
0.0000001
 44
0.0000000001
 40
0.0
 40
0.0
 40
0.0
 40
0.0
 40
0.2494597595
 40
0.5035837672
 40
0.7557699559
 40
1.0
 40
1.0
 40
1.0
 40
1.0
 10
-1.2845208778
 20
13.3369870759
 30
0.0
 10
-1.28296128
 20
13.3369870759
 30
0.0
 10
-1.2798040249
 20
13.3365986573
 30
0.0
 10
-1.2753224369
 20
13.3349681169
 30
0.0
 10
-1.2714045569
 20
13.3323075658
 30
0.0
 10
-1.2692684815
 20
13.3300138114
 30
0.0
 10
-1.2683681017
 20
13.328780626
 30
0.0
  0
SPLINE
  5
3BA
100
AcDbEntity
  8
0
100
AcDbSpline
 62
7
  6
CONTINUOUS
 70
0
 71
3
 72
23
 73
19
 74
0
 42
0.0000001
 43
0.0000001
 44
0.0000000001
 40
0.0
 40
0.0
 40
0.0
 40
0.0
 40
0.0550699053
 40
0.1128208323
 40
0.1729116732
 40
0.2351790387
 40
0.2995341443
 40
0.3654783957
 40
0.432481235
 40
0.49999997
 40
0.5675187062
 40
0.6345215489
 40
0.700465806
 40
0.7648209191
 40
0.8270882936
 40
0.8871791448
 40
0.944930083
 40
1.0
 40
1.0
 40
1.0
 40
1.0
 10
-2.6730411244
 20
12.3236709252
 30
0.0
 10
-2.6709567886
 20
12.3236709252
 30
0.0
 10
-2.6666835774
 20
12.3234392018
 30
0.0
 10
-2.6602108066
 20
12.3223949691
 30
0.0
 10
-2.6536258037
 20
12.3205768461
 30
0.0
 10
-2.6470604614
 20
12.3179168172
 30
0.0
 10
-2.6406731435
 20
12.3143688145
 30
0.0
 10
-2.6346190406
 20
12.3099637201
 30
0.0
 10
-2.6290853968
 20
12.3047429114
 30
0.0
 10
-2.6242121089
 20
12.2988227906
 30
0.0
 10
-2.6201442344
 20
12.2923228548
 30
0.0
 10
-2.6169490679
 20
12.2854185826
 30
0.0
 10
-2.6146926068
 20
12.2782795763
 30
0.0
 10
-2.6133546768
 20
12.2710965331
 30
0.0
 10
-2.6129153216
 20
12.2640264232
 30
0.0
 10
-2.6132806043
 20
12.2572048091
 30
0.0
 10
-2.614344174
 20
12.2507351862
 30
0.0
 10
-2.6154803351
 20
12.2466092712
 30
0.0
 10
-2.6161417048
 20
12.2446326458
 30
0.0
  0
SPLINE
  5
3BB
100
AcDbEntity
  8
0
100
AcDbSpline
 62
7
  6
CONTINUOUS
 70
0
 71
3
 72
23
 73
19
 74
0
 42
0.0000001
 43
0.0000001
 44
0.0000000001
 40
0.0
 40
0.0
 40
0.0
 40
0.0
 40
0.0550699069
 40
0.1128208355
 40
0.1729116779
 40
0.2351790447
 40
0.2995341513
 40
0.3654784036
 40
0.4324812434
 40
0.4999999786
 40
0.5675187146
 40
0.6345215569
 40
0.7004658132
 40
0.7648209252
 40
0.8270882984
 40
0.8871791482
 40
0.9449300847
 40
1.0
 40
1.0
 40
1.0
 40
1.0
 10
-2.2209970829
 20
12.3236709252
 30
0.0
 10
-2.2230814189
 20
12.3236709252
 30
0.0
 10
-2.2273546302
 20
12.3234392018
 30
0.0
 10
-2.2338274012
 20
12.322394969
 30
0.0
 10
-2.2404124042
 20
12.320576846
 30
0.0
 10
-2.2469777467
 20
12.317916817
 30
0.0
 10
-2.2533650647
 20
12.3143688142
 30
0.0
 10
-2.2594191677
 20
12.3099637197
 30
0.0
 10
-2.2649528114
 20
12.3047429108
 30
0.0
 10
-2.2698260993
 20
12.2988227899
 30
0.0
 10
-2.2738939737
 20
12.2923228541
 30
0.0
 10
-2.2770891401
 20
12.2854185819
 30
0.0
 10
-2.2793456011
 20
12.2782795756
 30
0.0
 10
-2.280683531
 20
12.2710965325
 30
0.0
 10
-2.2811228862
 20
12.2640264227
 30
0.0
 10
-2.2807576033
 20
12.2572048088
 30
0.0
 10
-2.2796940337
 20
12.2507351861
 30
0.0
 10
-2.2785578726
 20
12.2466092712
 30
0.0
 10
-2.277896503
 20
12.2446326458
 30
0.0
  0
SPLINE
  5
3BC
100
AcDbEntity
  8
0
100
AcDbSpline
 62
9
  6
CONTINUOUS
 70
0
 71
3
 72
15
 73
11
 74
0
 42
0.0000001
 43
0.0000001
 44
0.0000000001
 40
0.0
 40
0.0
 40
0.0
 40
0.0
 40
0.1243757357
 40
0.2473912399
 40
0.3700938803
 40
0.4932023472
 40
0.6172400395
 40
0.7426661254
 40
0.8700070193
 40
1.0
 40
1.0
 40
1.0
 40
1.0
 10
-1.2535819823
 20
13.1235767276
 30
0.0
 10
-1.2512936957
 20
13.1301158583
 30
0.0
 10
-1.2474262213
 20
13.1433707787
 30
0.0
 10
-1.2435161345
 20
13.1636359404
 30
0.0
 10
-1.2412810094
 20
13.1840791861
 30
0.0
 10
-1.2405582808
 20
13.2046851058
 30
0.0
 10
-1.2412917783
 20
13.2254420733
 30
0.0
 10
-1.2435357347
 20
13.2463300593
 30
0.0
 10
-1.2474503442
 20
13.2673103784
 30
0.0
 10
-1.2513016178
 20
13.2811429765
 30
0.0
 10
-1.2535819823
 20
13.2880153636
 30
0.0
  0
SPLINE
  5
3BD
100
AcDbEntity
  8
0
100
AcDbSpline
 62
9
  6
CONTINUOUS
 70
0
 71
3
 72
26
 73
22
 74
0
 42
0.0000001
 43
0.0000001
 44
0.0000000001
 40
0.0
 40
0.0
 40
0.0
 40
0.0
 40
0.226795182
 40
0.426869812
 40
0.5989175755
 40
0.6740184113
 40
0.741614704
 40
0.8015542116
 40
0.853746608
 40
0.8981169433
 40
0.9345900578
 40
0.9498416172
 40
0.9630905929
 40
0.9743275325
 40
0.9835429715
 40
0.9907274328
 40
0.9958714275
 40
0.9976752812
 40
0.9989654543
 40
0.9997407573
 40
1.0
 40
1.0
 40
1.0
 40
1.0
 10
-1.2535826387
 20
13.2880163283
 30
0.0
 10
-1.2546152126
 20
13.2911281658
 30
0.0
 10
-1.2565942238
 20
13.2969735028
 30
0.0
 10
-1.2594669046
 20
13.3051415267
 30
0.0
 10
-1.2616758182
 20
13.3112179069
 30
0.0
 10
-1.2632597304
 20
13.3154834667
 30
0.0
 10
-1.264289845
 20
13.3182258123
 30
0.0
 10
-1.2652107359
 20
13.3206553997
 30
0.0
 10
-1.266018782
 20
13.3227686709
 30
0.0
 10
-1.2667108545
 20
13.32456308
 30
0.0
 10
-1.2672144462
 20
13.3258577958
 30
0.0
 10
-1.267556905
 20
13.326732438
 30
0.0
 10
-1.267767115
 20
13.3272670644
 30
0.0
 10
-1.267946003
 20
13.3277202393
 30
0.0
 10
-1.268093289
 20
13.3280916384
 30
0.0
 10
-1.2682083137
 20
13.3283810597
 30
0.0
 10
-1.2682844165
 20
13.3285706847
 30
0.0
 10
-1.2683283219
 20
13.328681359
 30
0.0
 10
-1.2683498333
 20
13.328733052
 30
0.0
 10
-1.2683611989
 20
13.328764611
 30
0.0
 10
-1.2683680097
 20
13.3287780892
 30
0.0
 10
-1.2683689064
 20
13.3287817281
 30
0.0
  0
SPLINE
  5
3BE
100
AcDbEntity
  8
0
100
AcDbSpline
 62
9
  6
CONTINUOUS
 70
0
 71
3
 72
23
 73
19
 74
0
 42
0.0000001
 43
0.0000001
 44
0.0000000001
 40
0.0
 40
0.0
 40
0.0
 40
0.0
 40
0.0010329286
 40
0.0041247608
 40
0.0092660355
 40
0.0164473037
 40
0.0256591283
 40
0.0368920841
 40
0.0653837445
 40
0.1018471371
 40
0.1462073113
 40
0.1983895214
 40
0.2583192313
 40
0.3259066857
 40
0.4010008441
 40
0.5730471776
 40
0.7731453615
 40
1.0
 40
1.0
 40
1.0
 40
1.0
 10
-1.268368319
 20
12.0785609267
 30
0.0
 10
-1.2683640567
 20
12.078575238
 30
0.0
 10
-1.2683385755
 20
12.0786294304
 30
0.0
 10
-1.2682918134
 20
12.0787548431
 30
0.0
 10
-1.2682073655
 20
12.0789611569
 30
0.0
 10
-1.2680930252
 20
12.0792506746
 30
0.0
 10
-1.2679455526
 20
12.0796218405
 30
0.0
 10
-1.2676859142
 20
12.0802799184
 30
0.0
 10
-1.2672836809
 20
12.0813052633
 30
0.0
 10
-1.2667108523
 20
12.0827781091
 30
0.0
 10
-1.2660189304
 20
12.0845721047
 30
0.0
 10
-1.2652110482
 20
12.0866849646
 30
0.0
 10
-1.2642903011
 20
12.0891141525
 30
0.0
 10
-1.2632603047
 20
12.0918561421
 30
0.0
 10
-1.2616764573
 20
12.09612145
 30
0.0
 10
-1.259467446
 20
12.1021980116
 30
0.0
 10
-1.2565943744
 20
12.1103671206
 30
0.0
 10
-1.2546149956
 20
12.1162135806
 30
0.0
 10
-1.2535821596
 20
12.1193262262
 30
0.0
  0
SPLINE
  5
3BF
100
AcDbEntity
  8
0
100
AcDbSpline
 62
9
  6
CONTINUOUS
 70
0
 71
3
 72
15
 73
11
 74
0
 42
0.0000001
 43
0.0000001
 44
0.0000000001
 40
0.0
 40
0.0
 40
0.0
 40
0.0
 40
0.1299929606
 40
0.2573337307
 40
0.3827596379
 40
0.5067980234
 40
0.6299071556
 40
0.7526098076
 40
0.8756249557
 40
1.0
 40
1.0
 40
1.0
 40
1.0
 10
-1.2535819823
 20
12.1193264868
 30
0.0
 10
-1.2513016014
 20
12.1261988683
 30
0.0
 10
-1.2474503706
 20
12.1400314732
 30
0.0
 10
-1.2435357528
 20
12.1610117745
 30
0.0
 10
-1.2412918289
 20
12.1818997886
 30
0.0
 10
-1.2405582517
 20
12.2026568192
 30
0.0
 10
-1.2412808974
 20
12.223262824
 30
0.0
 10
-1.243516047
 20
12.2437060862
 30
0.0
 10
-1.2474261046
 20
12.2639712063
 30
0.0
 10
-1.2512937505
 20
12.2772260126
 30
0.0
 10
-1.2535819823
 20
12.2837651227
 30
0.0
  0
SPLINE
  5
3C0
100
AcDbEntity
  8
0
100
AcDbSpline
 62
9
  6
CONTINUOUS
 70
0
 71
3
 72
20
 73
16
 74
0
 42
0.0000001
 43
0.0000001
 44
0.0000000001
 40
0.0
 40
0.0
 40
0.0
 40
0.0
 40
0.0403680024
 40
0.0845293557
 40
0.1323762134
 40
0.1837993581
 40
0.2386739451
 40
0.2968023669
 40
0.3579630697
 40
0.4219310757
 40
0.4884691511
 40
0.5572891538
 40
0.7005106206
 40
0.8490058034
 40
1.0
 40
1.0
 40
1.0
 40
1.0
 10
-1.2535819774
 20
12.2837651308
 30
0.0
 10
-1.254728007
 20
12.2870400901
 30
0.0
 10
-1.256917225
 20
12.2939724856
 30
0.0
 10
-1.2597784353
 20
12.3049891643
 30
0.0
 10
-1.2623124658
 20
12.3170584758
 30
0.0
 10
-1.2644637948
 20
12.3301356713
 30
0.0
 10
-1.2661774716
 20
12.3441678117
 30
0.0
 10
-1.2674309065
 20
12.3590881368
 30
0.0
 10
-1.2681991259
 20
12.3748236447
 30
0.0
 10
-1.2684571341
 20
12.3912985743
 30
0.0
 10
-1.2681812028
 20
12.4084313871
 30
0.0
 10
-1.2671189887
 20
12.4323546622
 30
0.0
 10
-1.264552623
 20
12.4632498645
 30
0.0
 10
-1.2597899777
 20
12.5010104003
 30
0.0
 10
-1.2557609258
 20
12.5264383384
 30
0.0
 10
-1.2535819774
 20
12.5392322883
 30
0.0
  0
SPLINE
  5
3C1
100
AcDbEntity
  8
0
100
AcDbSpline
 62
9
  6
CONTINUOUS
 70
0
 71
3
 72
15
 73
11
 74
0
 42
0.0000001
 43
0.0000001
 44
0.0000000001
 40
0.0
 40
0.0
 40
0.0
 40
0.0
 40
0.1249927996
 40
0.2499912995
 40
0.3749944937
 40
0.4999999993
 40
0.6250055042
 40
0.7500086955
 40
0.8750071945
 40
1.0
 40
1.0
 40
1.0
 40
1.0
 10
-1.2535819823
 20
12.5392322892
 30
0.0
 10
-1.2512719282
 20
12.5527955656
 30
0.0
 10
-1.2474026036
 20
12.5800545019
 30
0.0
 10
-1.2435135906
 20
12.6211601449
 30
0.0
 10
-1.2412843351
 20
12.6623890394
 30
0.0
 10
-1.2405588761
 20
12.7036709247
 30
0.0
 10
-1.2412843113
 20
12.7449528105
 30
0.0
 10
-1.2435135937
 20
12.7861817036
 30
0.0
 10
-1.2474026238
 20
12.8272873443
 30
0.0
 10
-1.2512719247
 20
12.8545462847
 30
0.0
 10
-1.2535819823
 20
12.8681095611
 30
0.0
  0
SPLINE
  5
3C2
100
AcDbEntity
  8
0
100
AcDbSpline
 62
9
  6
CONTINUOUS
 70
0
 71
3
 72
19
 73
15
 74
0
 42
0.0000001
 43
0.0000001
 44
0.0000000001
 40
0.0
 40
0.0
 40
0.0
 40
0.0
 40
0.1503238416
 40
0.2981130097
 40
0.4408172792
 40
0.509479535
 40
0.575945293
 40
0.7011767076
 40
0.7594633286
 40
0.8145748919
 40
0.8663293767
 40
0.914569186
 40
0.9591668822
 40
1.0
 40
1.0
 40
1.0
 40
1.0
 10
-1.2707909098
 20
12.8653290005
 30
0.0
 10
-1.2728160221
 20
12.8787268565
 30
0.0
 10
-1.2765636091
 20
12.9053389715
 30
0.0
 10
-1.2809765947
 20
12.9448345818
 30
0.0
 10
-1.2833723991
 20
12.9771303392
 30
0.0
 10
-1.2843514998
 20
13.0021572657
 30
0.0
 10
-1.2846770087
 20
13.0256250967
 30
0.0
 10
-1.2840893742
 20
13.0481663414
 30
0.0
 10
-1.2824976488
 20
13.0696204582
 30
0.0
 10
-1.2808996233
 20
13.0844242201
 30
0.0
 10
-1.2789034746
 20
13.0982652319
 30
0.0
 10
-1.2765513885
 20
13.1110881631
 30
0.0
 10
-1.2738913461
 20
13.1228433036
 30
0.0
 10
-1.2718559046
 20
13.1302736642
 30
0.0
 10
-1.2707909098
 20
13.1337968757
 30
0.0
  0
SPLINE
  5
3C3
100
AcDbEntity
  8
0
100
AcDbSpline
 62
9
  6
CONTINUOUS
 70
0
 71
3
 72
12
 73
8
 74
0
 42
0.0000001
 43
0.0000001
 44
0.0000000001
 40
0.0
 40
0.0
 40
0.0
 40
0.0
 40
0.2500899493
 40
0.5082644574
 40
0.761717687
 40
0.8835638807
 40
1.0
 40
1.0
 40
1.0
 40
1.0
 10
-1.2707909102
 20
13.1337968745
 30
0.0
 10
-1.2690700034
 20
13.1336578453
 30
0.0
 10
-1.2655990025
 20
13.1329526655
 30
0.0
 10
-1.2607420471
 20
13.1308271268
 30
0.0
 10
-1.2572415618
 20
13.1281261412
 30
0.0
 10
-1.2549544273
 20
13.1256100565
 30
0.0
 10
-1.2540003516
 20
13.1242630952
 30
0.0
 10
-1.2535819827
 20
13.1235767265
 30
0.0
  0
SPLINE
  5
3C4
100
AcDbEntity
  8
0
100
AcDbSpline
 62
9
  6
CONTINUOUS
 70
0
 71
3
 72
19
 73
15
 74
0
 42
0.0000001
 43
0.0000001
 44
0.0000000001
 40
0.0
 40
0.0
 40
0.0
 40
0.0
 40
0.0408331671
 40
0.085431148
 40
0.133670869
 40
0.1854253144
 40
0.2405369268
 40
0.2988235676
 40
0.4240549986
 40
0.4905207437
 40
0.5591829876
 40
0.7018872108
 40
0.8496762976
 40
1.0
 40
1.0
 40
1.0
 40
1.0
 10
-1.2707909098
 20
12.2735449746
 30
0.0
 10
-1.2718559838
 20
12.2770681671
 30
0.0
 10
-1.2738916241
 20
12.284498506
 30
0.0
 10
-1.2765517601
 20
12.2962536533
 30
0.0
 10
-1.27890367
 20
12.3090766357
 30
0.0
 10
-1.2808995229
 20
12.3229176814
 30
0.0
 10
-1.2824977042
 20
12.3377214252
 30
0.0
 10
-1.2840898197
 20
12.3591755273
 30
0.0
 10
-1.284677033
 20
12.3817167977
 30
0.0
 10
-1.2843513206
 20
12.4051846247
 30
0.0
 10
-1.283372008
 20
12.4302115346
 30
0.0
 10
-1.2809769184
 20
12.4625073393
 30
0.0
 10
-1.2765629898
 20
12.5020028297
 30
0.0
 10
-1.2728159064
 20
12.5286149878
 30
0.0
 10
-1.2707909098
 20
12.5420128498
 30
0.0
  0
SPLINE
  5
3C5
100
AcDbEntity
  8
0
100
AcDbSpline
 62
9
  6
CONTINUOUS
 70
0
 71
3
 72
13
 73
9
 74
0
 42
0.0000001
 43
0.0000001
 44
0.0000000001
 40
0.0
 40
0.0
 40
0.0
 40
0.0
 40
0.1221214836
 40
0.2484512422
 40
0.5058118416
 40
0.75993552
 40
0.8825562435
 40
1.0
 40
1.0
 40
1.0
 40
1.0
 10
-1.2707909098
 20
12.2735449747
 30
0.0
 10
-1.2699502484
 20
12.2736128903
 30
0.0
 10
-1.2682466658
 20
12.2738534581
 30
0.0
 10
-1.2648570694
 20
12.2747166711
 30
0.0
 10
-1.260779559
 20
12.2764924051
 30
0.0
 10
-1.2572707732
 20
12.2791898257
 30
0.0
 10
-1.2549667606
 20
12.2817156195
 30
0.0
 10
-1.254004135
 20
12.2830725465
 30
0.0
 10
-1.2535819823
 20
12.2837651228
 30
0.0
  0
SPLINE
  5
3C6
100
AcDbEntity
  8
0
100
AcDbSpline
 62
9
  6
CONTINUOUS
 70
0
 71
3
 72
23
 73
19
 74
0
 42
0.0000001
 43
0.0000001
 44
0.0000000001
 40
0.0
 40
0.0
 40
0.0
 40
0.0
 40
0.0010182725
 40
0.0040709363
 40
0.0091552243
 40
0.0162683706
 40
0.0254076103
 40
0.0365697416
 40
0.0649347188
 40
0.1012994977
 40
0.1455960394
 40
0.1977339647
 40
0.2576121893
 40
0.3251225172
 40
0.4001365625
 40
0.5721442427
 40
0.7725226368
 40
1.0
 40
1.0
 40
1.0
 40
1.0
 10
-1.2845208778
 20
12.0703547744
 30
0.0
 10
-1.2845147942
 20
12.07036832
 30
0.0
 10
-1.2844972017
 20
12.0704251934
 30
0.0
 10
-1.2844495167
 20
12.0705498121
 30
0.0
 10
-1.2843756546
 20
12.0707596402
 30
0.0
 10
-1.2842698619
 20
12.0710522179
 30
0.0
 10
-1.2841351257
 20
12.0714286123
 30
0.0
 10
-1.2838956757
 20
12.0720966691
 30
0.0
 10
-1.2835236283
 20
12.0731389567
 30
0.0
 10
-1.2829917948
 20
12.0746372441
 30
0.0
 10
-1.2823478253
 20
12.0764635875
 30
0.0
 10
-1.2815954344
 20
12.0786152701
 30
0.0
 10
-1.2807387502
 20
12.0810890872
 30
0.0
 10
-1.2797821432
 20
12.0838813145
 30
0.0
 10
-1.2783120372
 20
12.0882260152
 30
0.0
 10
-1.2762607159
 20
12.0944194638
 30
0.0
 10
-1.2735905077
 20
12.102749627
 30
0.0
 10
-1.2717508083
 20
12.1087116245
 30
0.0
 10
-1.2707909098
 20
12.1118868993
 30
0.0
  0
SPLINE
  5
3C7
100
AcDbEntity
  8
0
100
AcDbSpline
 62
9
  6
CONTINUOUS
 70
0
 71
3
 72
11
 73
7
 74
0
 42
0.0000001
 43
0.0000001
 44
0.0000000001
 40
0.0
 40
0.0
 40
0.0
 40
0.0
 40
0.2607692067
 40
0.3921405633
 40
0.521752323
 40
1.0
 40
1.0
 40
1.0
 40
1.0
 10
-1.2707909103
 20
12.1118868978
 30
0.0
 10
-1.2691016366
 20
12.1117504242
 30
0.0
 10
-1.2665257374
 20
12.1118464016
 30
0.0
 10
-1.2632013025
 20
12.1125563102
 30
0.0
 10
-1.2586665384
 20
12.1141366475
 30
0.0
 10
-1.2553229355
 20
12.1167516061
 30
0.0
 10
-1.2535819828
 20
12.1193264853
 30
0.0
  0
SPLINE
  5
3C8
100
AcDbEntity
  8
0
100
AcDbSpline
 62
9
  6
CONTINUOUS
 70
0
 71
3
 72
22
 73
18
 74
0
 42
0.0000001
 43
0.0000001
 44
0.0000000001
 40
0.0
 40
0.0
 40
0.0
 40
0.0
 40
0.2274234618
 40
0.4278476816
 40
0.599877565
 40
0.7423966841
 40
0.802266807
 40
0.8543966707
 40
0.8986924646
 40
0.9350601345
 40
0.9634160593
 40
0.974575052
 40
0.9837153913
 40
0.9908325688
 40
0.9959220728
 40
0.998979389
 40
1.0
 40
1.0
 40
1.0
 40
1.0
 10
-1.2707909098
 20
13.2954549511
 30
0.0
 10
-1.2717505804
 20
13.298629472
 30
0.0
 10
-1.2735902899
 20
13.3045913422
 30
0.0
 10
-1.2762611947
 20
13.3129214942
 30
0.0
 10
-1.2786216617
 20
13.3200505817
 30
0.0
 10
-1.2803811613
 20
13.3252193403
 30
0.0
 10
-1.2815955762
 20
13.3287265725
 30
0.0
 10
-1.282347665
 20
13.3308780986
 30
0.0
 10
-1.2829915743
 20
13.3327043708
 30
0.0
 10
-1.2835235434
 20
13.3342025032
 30
0.0
 10
-1.2838953696
 20
13.335244723
 30
0.0
 10
-1.284134395
 20
13.3359127625
 30
0.0
 10
-1.2842695755
 20
13.3362890226
 30
0.0
 10
-1.2843744126
 20
13.3365821178
 30
0.0
 10
-1.2844509301
 20
13.3367911754
 30
0.0
 10
-1.2844944356
 20
13.3369175403
 30
0.0
 10
-1.2845166149
 20
13.3369728164
 30
0.0
 10
-1.2845208778
 20
13.3369870759
 30
0.0
  0
SPLINE
  5
3C9
100
AcDbEntity
  8
0
100
AcDbSpline
 62
9
  6
CONTINUOUS
 70
0
 71
3
 72
11
 73
7
 74
0
 42
0.0000001
 43
0.0000001
 44
0.0000000001
 40
0.0
 40
0.0
 40
0.0
 40
0.0
 40
0.2588283074
 40
0.3897018705
 40
0.5191722652
 40
1.0
 40
1.0
 40
1.0
 40
1.0
 10
-1.2707909098
 20
13.2954549511
 30
0.0
 10
-1.269114328
 20
13.2955903994
 30
0.0
 10
-1.2665550391
 20
13.295497998
 30
0.0
 10
-1.2632457426
 20
13.2947986824
 30
0.0
 10
-1.258696111
 20
13.2932244071
 30
0.0
 10
-1.2553322033
 20
13.2906039507
 30
0.0
 10
-1.2535819823
 20
13.2880153636
 30
0.0
  0
SPLINE
  5
3CA
100
AcDbEntity
  8
0
100
AcDbSpline
 62
9
  6
CONTINUOUS
 70
0
 71
3
 72
15
 73
11
 74
0
 42
0.0000001
 43
0.0000001
 44
0.0000000001
 40
0.0
 40
0.0
 40
0.0
 40
0.0
 40
0.1285807938
 40
0.254608697
 40
0.3781183825
 40
0.4999904612
 40
0.6218634097
 40
0.7453775154
 40
0.8714137938
 40
1.0
 40
1.0
 40
1.0
 40
1.0
 10
-1.5009079656
 20
13.1337967421
 30
0.0
 10
-1.5036675077
 20
13.1404136995
 30
0.0
 10
-1.5088630657
 20
13.1536333509
 30
0.0
 10
-1.5151564228
 20
13.1737841205
 30
0.0
 10
-1.519230002
 20
13.1941349962
 30
0.0
 10
-1.5207101081
 20
13.2146242489
 30
0.0
 10
-1.5192296514
 20
13.2351137199
 30
0.0
 10
-1.5151558645
 20
13.2554653086
 30
0.0
 10
-1.5088628882
 20
13.2756172443
 30
0.0
 10
-1.5036675292
 20
13.2888378093
 30
0.0
 10
-1.5009079656
 20
13.2954550846
 30
0.0
  0
SPLINE
  5
3CB
100
AcDbEntity
  8
0
100
AcDbSpline
 62
9
  6
CONTINUOUS
 70
0
 71
3
 72
15
 73
11
 74
0
 42
0.0000001
 43
0.0000001
 44
0.0000000001
 40
0.0
 40
0.0
 40
0.0
 40
0.0
 40
0.1268193615
 40
0.2519625838
 40
0.3761872464
 40
0.5000121862
 40
0.6238365546
 40
0.7480564841
 40
0.8731888077
 40
1.0
 40
1.0
 40
1.0
 40
1.0
 10
-1.2707909098
 20
13.2954549511
 30
0.0
 10
-1.2686590538
 20
13.2888578463
 30
0.0
 10
-1.2650607568
 20
13.2755368959
 30
0.0
 10
-1.2614466708
 20
13.2552708039
 30
0.0
 10
-1.259362493
 20
13.2349579253
 30
0.0
 10
-1.2587024827
 20
13.2146239541
 30
0.0
 10
-1.2593629757
 20
13.1942902608
 30
0.0
 10
-1.2614472807
 20
13.1739782953
 30
0.0
 10
-1.2650610794
 20
13.1537134762
 30
0.0
 10
-1.2686591734
 20
13.1403935498
 30
0.0
 10
-1.2707909098
 20
13.1337968757
 30
0.0
  0
SPLINE
  5
3CC
100
AcDbEntity
  8
0
100
AcDbSpline
 62
9
  6
CONTINUOUS
 70
0
 71
3
 72
15
 73
11
 74
0
 42
0.0000001
 43
0.0000001
 44
0.0000000001
 40
0.0
 40
0.0
 40
0.0
 40
0.0
 40
0.105463346
 40
0.2175945148
 40
0.3358805628
 40
0.4597864042
 40
0.5887616338
 40
0.722237964
 40
0.8595844078
 40
1.0
 40
1.0
 40
1.0
 40
1.0
 10
-1.4903115151
 20
13.0881069744
 30
0.0
 10
-1.4896448173
 20
13.0829552781
 30
0.0
 10
-1.4884733247
 20
13.0722990289
 30
0.0
 10
-1.4872282381
 20
13.0557991052
 30
0.0
 10
-1.4864762151
 20
13.0383600942
 30
0.0
 10
-1.4862282208
 20
13.0200772639
 30
0.0
 10
-1.4864959469
 20
13.001046672
 30
0.0
 10
-1.4872695
 20
12.9813676522
 30
0.0
 10
-1.4885354245
 20
12.9611498915
 30
0.0
 10
-1.4896726541
 20
12.9475148853
 30
0.0
 10
-1.4903115151
 20
12.9406282049
 30
0.0
  0
SPLINE
  5
3CD
100
AcDbEntity
  8
0
100
AcDbSpline
 62
9
  6
CONTINUOUS
 70
0
 71
3
 72
13
 73
9
 74
0
 42
0.0000001
 43
0.0000001
 44
0.0000000001
 40
0.0
 40
0.0
 40
0.0
 40
0.0
 40
0.2884703357
 40
0.5667380184
 40
0.6937179688
 40
0.8094438483
 40
0.912112132
 40
1.0
 40
1.0
 40
1.0
 40
1.0
 10
-1.4903115134
 20
12.9406282232
 30
0.0
 10
-1.4919194031
 20
12.9407782698
 30
0.0
 10
-1.4950877437
 20
12.9409762795
 30
0.0
 10
-1.498974764
 20
12.940989826
 30
0.0
 10
-1.5018869621
 20
12.9408168981
 30
0.0
 10
-1.5038105038
 20
12.9406135648
 30
0.0
 10
-1.5055044092
 20
12.9403430621
 30
0.0
 10
-1.5065457294
 20
12.9401050787
 30
0.0
 10
-1.507019102
 20
12.939970973
 30
0.0
  0
LINE
  5
3CE
100
AcDbEntity
  8
0
100
AcDbLine
 62
9
  6
CONTINUOUS
 10
-2.2062885199
 20
12.0051717815
 11
-2.1953832426
 21
11.991527835
  0
SPLINE
  5
3CF
100
AcDbEntity
  8
0
100
AcDbSpline
 62
7
  6
CONTINUOUS
 70
0
 71
3
 72
14
 73
10
 74
0
 42
0.0000001
 43
0.0000001
 44
0.0000000001
 40
0.0
 40
0.0
 40
0.0
 40
0.0
 40
0.1165352771
 40
0.2348399642
 40
0.355463047
 40
0.4790357595
 40
0.6056798676
 40
0.7352056192
 40
1.0
 40
1.0
 40
1.0
 40
1.0
 10
-2.2368839933
 20
10.1351483862
 30
0.0
 10
-2.2350049215
 20
10.1356471819
 30
0.0
 10
-2.2313081182
 20
10.1370289963
 30
0.0
 10
-2.2262181243
 20
10.1401359739
 30
0.0
 10
-2.2216988332
 20
10.1442050621
 30
0.0
 10
-2.2178799733
 20
10.1491102094
 30
0.0
 10
-2.2148583184
 20
10.154712365
 30
0.0
 10
-2.2119902875
 20
10.1629441776
 30
0.0
 10
-2.2112890947
 20
10.1696149815
 30
0.0
 10
-2.2114605821
 20
10.1740291917
 30
0.0
  0
SPLINE
  5
3D0
100
AcDbEntity
  8
0
100
AcDbSpline
 62
7
  6
CONTINUOUS
 70
0
 71
3
 72
14
 73
10
 74
0
 42
0.0000001
 43
0.0000001
 44
0.0000000001
 40
0.0
 40
0.0
 40
0.0
 40
0.0
 40
0.1163186345
 40
0.2354688163
 40
0.3574802632
 40
0.4824306566
 40
0.6099280056
 40
0.7393521126
 40
1.0
 40
1.0
 40
1.0
 40
1.0
 10
-2.3057215083
 20
10.1351489834
 30
0.0
 10
-2.3037920915
 20
10.1356507806
 30
0.0
 10
-2.2999750126
 20
10.1370416992
 30
0.0
 10
-2.2946576454
 20
10.1401446816
 30
0.0
 10
-2.2898342951
 20
10.1442048868
 30
0.0
 10
-2.2856419941
 20
10.1490990407
 30
0.0
 10
-2.2821881139
 20
10.1546905252
 30
0.0
 10
-2.2786966843
 20
10.1628696833
 30
0.0
 10
-2.277451472
 20
10.1695653434
 30
0.0
 10
-2.2772781245
 20
10.1740292612
 30
0.0
  0
SPLINE
  5
3D1
100
AcDbEntity
  8
0
100
AcDbSpline
 62
9
  6
CONTINUOUS
 70
0
 71
3
 72
27
 73
23
 74
0
 42
0.0000001
 43
0.0000001
 44
0.0000000001
 40
0.0
 40
0.0
 40
0.0
 40
0.0
 40
0.0762775317
 40
0.1495412265
 40
0.2190563636
 40
0.2842861708
 40
0.3448689006
 40
0.3733070876
 40
0.4005073455
 40
0.4515930543
 40
0.4759978649
 40
0.5000173901
 40
0.5240346486
 40
0.5484334639
 40
0.5994993126
 40
0.6266862835
 40
0.65511042
 40
0.7156714447
 40
0.7809000195
 40
0.8504293025
 40
0.9237113498
 40
1.0
 40
1.0
 40
1.0
 40
1.0
 10
-2.2772781247
 20
12.0117602315
 30
0.0
 10
-2.276145296
 20
12.0139358998
 30
0.0
 10
-2.2738474616
 20
12.0181621743
 30
0.0
 10
-2.2701867047
 20
12.0241845764
 30
0.0
 10
-2.2663549388
 20
12.0296748699
 30
0.0
 10
-2.2623398474
 20
12.0345161448
 30
0.0
 10
-2.2587669202
 20
12.0379793507
 30
0.0
 10
-2.2557980994
 20
12.0402574999
 30
0.0
 10
-2.2528973782
 20
12.0420968291
 30
0.0
 10
-2.2498350764
 20
12.0434272245
 30
0.0
 10
-2.2466989101
 20
12.0441053747
 30
0.0
 10
-2.2443673634
 20
12.0442770831
 30
0.0
 10
-2.2420360365
 20
12.0441050325
 30
0.0
 10
-2.2389008583
 20
12.0434265967
 30
0.0
 10
-2.2358398907
 20
12.0420964493
 30
0.0
 10
-2.2329403084
 20
12.0402581772
 30
0.0
 10
-2.2299724674
 20
12.0379813467
 30
0.0
 10
-2.2264000914
 20
12.0345192551
 30
0.0
 10
-2.2223853611
 20
12.0296780293
 30
0.0
 10
-2.2185532148
 20
12.0241867826
 30
0.0
 10
-2.2148917358
 20
12.018163182
 30
0.0
 10
-2.2125932919
 20
12.0139361629
 30
0.0
 10
-2.211460194
 20
12.0117602315
 30
0.0
  0
SPLINE
  5
3D2
100
AcDbEntity
  8
0
100
AcDbSpline
 62
9
  6
CONTINUOUS
 70
0
 71
3
 72
14
 73
10
 74
0
 42
0.0000001
 43
0.0000001
 44
0.0000000001
 40
0.0
 40
0.0
 40
0.0
 40
0.0
 40
0.084053045
 40
0.1837201091
 40
0.2972491059
 40
0.422802245
 40
0.5582242244
 40
0.7012057078
 40
1.0
 40
1.0
 40
1.0
 40
1.0
 10
-2.2772781247
 20
10.1740291769
 30
0.0
 10
-2.2801764
 20
10.1743297313
 30
0.0
 10
-2.2865274455
 20
10.1748307726
 30
0.0
 10
-2.2968206765
 20
10.1753321563
 30
0.0
 10
-2.3085609121
 20
10.1756340328
 30
0.0
 10
-2.3215438316
 20
10.1757301908
 30
0.0
 10
-2.3355476312
 20
10.1756182196
 30
0.0
 10
-2.3555527257
 20
10.1751848922
 30
0.0
 10
-2.3708569315
 20
10.174565327
 30
0.0
 10
-2.3812011732
 20
10.17402919
 30
0.0
  0
SPLINE
  5
3D3
100
AcDbEntity
  8
0
100
AcDbSpline
 62
9
  6
CONTINUOUS
 70
0
 71
3
 72
20
 73
16
 74
0
 42
0.0000001
 43
0.0000001
 44
0.0000000001
 40
0.0
 40
0.0
 40
0.0
 40
0.0
 40
0.0501843223
 40
0.1008698438
 40
0.1524619556
 40
0.2054286717
 40
0.2602183935
 40
0.3172213688
 40
0.3767142238
 40
0.4388123364
 40
0.5034534262
 40
0.570414072
 40
0.7097777813
 40
0.8538973806
 40
1.0
 40
1.0
 40
1.0
 40
1.0
 10
-2.2772781247
 20
12.0117602315
 30
0.0
 10
-2.2784544475
 20
12.0102537476
 30
0.0
 10
-2.2809770454
 20
12.0073449577
 30
0.0
 10
-2.2852495669
 20
12.0033949466
 30
0.0
 10
-2.2900382404
 20
11.9999029734
 30
0.0
 10
-2.2953476207
 20
11.9969326691
 30
0.0
 10
-2.3011674607
 20
11.9945459099
 30
0.0
 10
-2.3074684142
 20
11.9927995142
 30
0.0
 10
-2.314201343
 20
11.9917386282
 30
0.0
 10
-2.3212984484
 20
11.9913916724
 30
0.0
 10
-2.328677696
 20
11.9917672744
 30
0.0
 10
-2.3389053698
 20
11.9932320685
 30
0.0
 10
-2.3518309727
 20
11.9967863799
 30
0.0
 10
-2.3669018939
 20
12.0032536774
 30
0.0
 10
-2.3765153087
 20
12.0087591228
 30
0.0
 10
-2.3812011732
 20
12.0117602315
 30
0.0
  0
SPLINE
  5
3D4
100
AcDbEntity
  8
0
100
AcDbSpline
 62
9
  6
CONTINUOUS
 70
0
 71
3
 72
10
 73
6
 74
0
 42
0.0000001
 43
0.0000001
 44
0.0000000001
 40
0.0
 40
0.0
 40
0.0
 40
0.0
 40
0.5208138301
 40
0.7670099965
 40
1.0
 40
1.0
 40
1.0
 40
1.0
 10
-2.2869034402
 20
12.024452418
 30
0.0
 10
-2.2848751162
 20
12.0225536245
 30
0.0
 10
-2.2820992111
 20
12.0195116257
 30
0.0
 10
-2.2790598365
 20
12.0151210914
 30
0.0
 10
-2.2778160774
 20
12.0128807244
 30
0.0
 10
-2.2772781245
 20
12.0117602318
 30
0.0
  0
SPLINE
  5
3D5
100
AcDbEntity
  8
0
100
AcDbSpline
 62
9
  6
CONTINUOUS
 70
0
 71
3
 72
12
 73
8
 74
0
 42
0.0000001
 43
0.0000001
 44
0.0000000001
 40
0.0
 40
0.0
 40
0.0
 40
0.0
 40
0.2498269253
 40
0.3749250614
 40
0.5000237
 40
0.7499920027
 40
1.0
 40
1.0
 40
1.0
 40
1.0
 10
-2.4470191036
 20
12.0569123113
 30
0.0
 10
-2.4398460591
 20
12.05691291
 30
0.0
 10
-2.4290362751
 20
12.0556298459
 30
0.0
 10
-2.4152236914
 20
12.0516595263
 30
0.0
 10
-2.4018542915
 20
12.0463574853
 30
0.0
 10
-2.3861014656
 20
12.0376007882
 30
0.0
 10
-2.3745548902
 20
12.0290159826
 30
0.0
 10
-2.3690140369
 20
12.0244524177
 30
0.0
  0
SPLINE
  5
3D6
100
AcDbEntity
  8
0
100
AcDbSpline
 62
9
  6
CONTINUOUS
 70
0
 71
3
 72
11
 73
7
 74
0
 42
0.0000001
 43
0.0000001
 44
0.0000000001
 40
0.0
 40
0.0
 40
0.0
 40
0.0
 40
0.2499678824
 40
0.5000002315
 40
0.7499768998
 40
1.0
 40
1.0
 40
1.0
 40
1.0
 10
-2.5250241707
 20
12.0244524177
 30
0.0
 10
-2.5194855259
 20
12.029013526
 30
0.0
 10
-2.5079403347
 20
12.0375973746
 30
0.0
 10
-2.4890568552
 20
12.0481018472
 30
0.0
 10
-2.4685962991
 20
12.0552065673
 30
0.0
 10
-2.4541956655
 20
12.0569131456
 30
0.0
 10
-2.4470191036
 20
12.0569123112
 30
0.0
  0
SPLINE
  5
3D7
100
AcDbEntity
  8
0
100
AcDbSpline
 62
9
  6
CONTINUOUS
 70
0
 71
3
 72
14
 73
10
 74
0
 42
0.0000001
 43
0.0000001
 44
0.0000000001
 40
0.0
 40
0.0
 40
0.0
 40
0.0
 40
0.2987942884
 40
0.4417757555
 40
0.5771976972
 40
0.7027508762
 40
0.8162799252
 40
0.9159466126
 40
1.0
 40
1.0
 40
1.0
 40
1.0
 10
-2.5128370345
 20
10.1740291894
 30
0.0
 10
-2.5231812497
 20
10.1745658506
 30
0.0
 10
-2.5384854907
 20
10.1751847277
 30
0.0
 10
-2.5584905759
 20
10.1756182551
 30
0.0
 10
-2.5724943769
 20
10.1757302691
 30
0.0
 10
-2.5854772997
 20
10.1756340677
 30
0.0
 10
-2.597217522
 20
10.175332032
 30
0.0
 10
-2.6075107611
 20
10.1748309355
 30
0.0
 10
-2.6138618276
 20
10.1743300083
 30
0.0
 10
-2.616760083
 20
10.1740291444
 30
0.0
  0
SPLINE
  5
3D8
100
AcDbEntity
  8
0
100
AcDbSpline
 62
9
  6
CONTINUOUS
 70
0
 71
3
 72
26
 73
22
 74
0
 42
0.0000001
 43
0.0000001
 44
0.0000000001
 40
0.0
 40
0.0
 40
0.0
 40
0.0
 40
0.0501819757
 40
0.1008528914
 40
0.1524340486
 40
0.2053892483
 40
0.2325282127
 40
0.2601751532
 40
0.2883818215
 40
0.3171915348
 40
0.3466224143
 40
0.376689933
 40
0.4387721098
 40
0.5033969996
 40
0.5703357933
 40
0.6045852336
 40
0.6392772041
 40
0.7097783253
 40
0.7814595795
 40
0.8539342928
 40
1.0
 40
1.0
 40
1.0
 40
1.0
 10
-2.616760083
 20
12.0117602315
 30
0.0
 10
-2.6155847088
 20
12.0102525186
 30
0.0
 10
-2.6130624398
 20
12.0073428893
 30
0.0
 10
-2.6087890904
 20
12.0033931039
 30
0.0
 10
-2.6040012833
 20
11.9999006177
 30
0.0
 10
-2.599612925
 20
11.9974430362
 30
0.0
 10
-2.5958622564
 20
11.9957707121
 30
0.0
 10
-2.5928997944
 20
11.994660493
 30
0.0
 10
-2.5898169322
 20
11.9937066391
 30
0.0
 10
-2.5866194128
 20
11.9929111078
 30
0.0
 10
-2.5833123718
 20
11.9922836209
 30
0.0
 10
-2.5787170975
 20
11.9916846729
 30
0.0
 10
-2.5727394025
 20
11.991417507
 30
0.0
 10
-2.5653604102
 20
11.9917630606
 30
0.0
 10
-2.5590984904
 20
11.9926649231
 30
0.0
 10
-2.5540296549
 20
11.9937196032
 30
0.0
 10
-2.5488730524
 20
11.9950009085
 30
0.0
 10
-2.5424305114
 20
11.9969971343
 30
0.0
 10
-2.5348025916
 20
11.9999616585
 30
0.0
 10
-2.5247653061
 20
12.0046098723
 30
0.0
 10
-2.5175208993
 20
12.0087560466
 30
0.0
 10
-2.5128370345
 20
12.0117602316
 30
0.0
  0
SPLINE
  5
3D9
100
AcDbEntity
  8
0
100
AcDbSpline
 62
7
  6
CONTINUOUS
 70
0
 71
3
 72
14
 73
10
 74
0
 42
0.0000001
 43
0.0000001
 44
0.0000000001
 40
0.0
 40
0.0
 40
0.0
 40
0.0
 40
0.1163187799
 40
0.2354688177
 40
0.3574803146
 40
0.4824307532
 40
0.6099281437
 40
0.7393522678
 40
1.0
 40
1.0
 40
1.0
 40
1.0
 10
-2.588316235
 20
10.1351483237
 30
0.0
 10
-2.5902456756
 20
10.135650121
 30
0.0
 10
-2.5940627946
 20
10.1370410588
 30
0.0
 10
-2.5993802029
 20
10.1401440992
 30
0.0
 10
-2.6042035877
 20
10.1442043639
 30
0.0
 10
-2.6083959055
 20
10.1490985958
 30
0.0
 10
-2.6118497805
 20
10.1546901663
 30
0.0
 10
-2.6153411767
 20
10.1628694381
 30
0.0
 10
-2.6165863253
 20
10.1695651813
 30
0.0
 10
-2.6167596245
 20
10.1740291447
 30
0.0
  0
SPLINE
  5
3DA
100
AcDbEntity
  8
0
100
AcDbSpline
 62
7
  6
CONTINUOUS
 70
0
 71
3
 72
14
 73
10
 74
0
 42
0.0000001
 43
0.0000001
 44
0.0000000001
 40
0.0
 40
0.0
 40
0.0
 40
0.0
 40
0.1165354978
 40
0.2348399554
 40
0.3554630666
 40
0.4790357601
 40
0.6056798001
 40
0.7352055158
 40
1.0
 40
1.0
 40
1.0
 40
1.0
 10
-2.6571543422
 20
10.1351489815
 30
0.0
 10
-2.6590334089
 20
10.1356477583
 30
0.0
 10
-2.6627301994
 20
10.137029529
 30
0.0
 10
-2.6678201817
 20
10.1401364452
 30
0.0
 10
-2.672339482
 20
10.1442054531
 30
0.0
 10
-2.6761583682
 20
10.1491105239
 30
0.0
 10
-2.6791800623
 20
10.154712605
 30
0.0
 10
-2.6820481711
 20
10.1629443263
 30
0.0
 10
-2.6827494383
 20
10.1696150742
 30
0.0
 10
-2.6825780179
 20
10.1740292578
 30
0.0
  0
SPLINE
  5
3DB
100
AcDbEntity
  8
0
100
AcDbSpline
 62
9
  6
CONTINUOUS
 70
0
 71
3
 72
27
 73
23
 74
0
 42
0.0000001
 43
0.0000001
 44
0.0000000001
 40
0.0
 40
0.0
 40
0.0
 40
0.0
 40
0.0762792745
 40
0.1495443094
 40
0.2190610439
 40
0.2842934052
 40
0.3448795881
 40
0.3733189045
 40
0.4005192772
 40
0.451602049
 40
0.4760050165
 40
0.5000231438
 40
0.5240396309
 40
0.5484380277
 40
0.5995032011
 40
0.6266897649
 40
0.6551134876
 40
0.7156737105
 40
0.7809014333
 40
0.8504298857
 40
0.9237113596
 40
1.0
 40
1.0
 40
1.0
 40
1.0
 10
-2.6825780136
 20
12.0117602316
 30
0.0
 10
-2.6814451633
 20
12.0139359568
 30
0.0
 10
-2.6791472943
 20
12.0181623352
 30
0.0
 10
-2.6754864688
 20
12.0241848869
 30
0.0
 10
-2.6716545884
 20
12.0296753319
 30
0.0
 10
-2.6676393008
 20
12.0345167774
 30
0.0
 10
-2.6640661796
 20
12.0379801271
 30
0.0
 10
-2.661097214
 20
12.0402583477
 30
0.0
 10
-2.6581965011
 20
12.0420976024
 30
0.0
 10
-2.6551342448
 20
12.043427774
 30
0.0
 10
-2.6519982068
 20
12.0441056081
 30
0.0
 10
-2.6496667731
 20
12.0442771113
 30
0.0
 10
-2.6473355379
 20
12.0441049488
 30
0.0
 10
-2.6442004314
 20
12.0434264561
 30
0.0
 10
-2.6411395021
 20
12.0420963332
 30
0.0
 10
-2.6382399757
 20
12.0402580479
 30
0.0
 10
-2.6352722081
 20
12.0379811965
 30
0.0
 10
-2.6316999309
 20
12.0345190882
 30
0.0
 10
-2.6276852582
 20
12.0296779072
 30
0.0
 10
-2.6238531269
 20
12.0241867243
 30
0.0
 10
-2.6201916345
 20
12.0181631702
 30
0.0
 10
-2.6178931834
 20
12.0139361662
 30
0.0
 10
-2.616760083
 20
12.0117602315
 30
0.0
  0
LINE
  5
3DC
100
AcDbEntity
  8
0
100
AcDbLine
 62
9
  6
CONTINUOUS
 10
-2.6825780137
 20
10.1740291707
 11
-2.6986539338
 21
10.1756954216
  0
SPLINE
  5
3DD
100
AcDbEntity
  8
0
100
AcDbSpline
 62
9
  6
CONTINUOUS
 70
0
 71
3
 72
10
 73
6
 74
0
 42
0.0000001
 43
0.0000001
 44
0.0000000001
 40
0.0
 40
0.0
 40
0.0
 40
0.0
 40
0.2305659272
 40
0.6005544969
 40
1.0
 40
1.0
 40
1.0
 40
1.0
 10
-2.6851398316
 20
12.0244524224
 30
0.0
 10
-2.685247883
 20
12.0234520339
 30
0.0
 10
-2.6852958179
 20
12.0208182743
 30
0.0
 10
-2.6845371568
 20
12.0164881931
 30
0.0
 10
-2.683332484
 20
12.0133317162
 30
0.0
 10
-2.6825780101
 20
12.0117602361
 30
0.0
  0
SPLINE
  5
3DE
100
AcDbEntity
  8
0
100
AcDbSpline
 62
9
  6
CONTINUOUS
 70
0
 71
3
 72
10
 73
6
 74
0
 42
0.0000001
 43
0.0000001
 44
0.0000000001
 40
0.0
 40
0.0
 40
0.0
 40
0.0
 40
0.5208138314
 40
0.7670099979
 40
1.0
 40
1.0
 40
1.0
 40
1.0
 10
-2.6071347589
 20
12.0244524049
 30
0.0
 10
-2.6091630832
 20
12.0225536115
 30
0.0
 10
-2.6119389887
 20
12.0195116126
 30
0.0
 10
-2.614978364
 20
12.0151210784
 30
0.0
 10
-2.6162221233
 20
12.0128807113
 30
0.0
 10
-2.6167600763
 20
12.0117602186
 30
0.0
  0
SPLINE
  5
3DF
100
AcDbEntity
  8
0
100
AcDbSpline
 62
9
  6
CONTINUOUS
 70
0
 71
3
 72
10
 73
6
 74
0
 42
0.0000001
 43
0.0000001
 44
0.0000000001
 40
0.0
 40
0.0
 40
0.0
 40
0.0
 40
0.2305658846
 40
0.6005544386
 40
1.0
 40
1.0
 40
1.0
 40
1.0
 10
-2.2088983665
 20
12.0244524052
 30
0.0
 10
-2.2087903151
 20
12.0234520169
 30
0.0
 10
-2.20874238
 20
12.0208182576
 30
0.0
 10
-2.2095010407
 20
12.0164881763
 30
0.0
 10
-2.2107057135
 20
12.0133316992
 30
0.0
 10
-2.2114601875
 20
12.0117602189
 30
0.0
  0
SPLINE
  5
3E0
100
AcDbEntity
  8
0
100
AcDbSpline
 62
9
  6
CONTINUOUS
 70
0
 71
3
 72
14
 73
10
 74
0
 42
0.0000001
 43
0.0000001
 44
0.0000000001
 40
0.0
 40
0.0
 40
0.0
 40
0.0
 40
0.1049932848
 40
0.2167507569
 40
0.3347942484
 40
0.4586365
 40
0.5877567426
 40
0.7215015903
 40
1.0
 40
1.0
 40
1.0
 40
1.0
 10
-1.5070185083
 20
13.0804326873
 30
0.0
 10
-1.5063033487
 20
13.0755569761
 30
0.0
 10
-1.5050516047
 20
13.0654576048
 30
0.0
 10
-1.5037234944
 20
13.0497968584
 30
0.0
 10
-1.502910146
 20
13.0332151368
 30
0.0
 10
-1.5026383605
 20
13.0158009425
 30
0.0
 10
-1.5029332521
 20
12.9976502626
 30
0.0
 10
-1.5040628968
 20
12.9722640172
 30
0.0
 10
-1.5056649421
 20
12.9529722234
 30
0.0
 10
-1.5070185083
 20
12.9399711148
 30
0.0
  0
SPLINE
  5
3E1
100
AcDbEntity
  8
0
100
AcDbSpline
 62
9
  6
CONTINUOUS
 70
0
 71
3
 72
19
 73
15
 74
0
 42
0.0000001
 43
0.0000001
 44
0.0000000001
 40
0.0
 40
0.0
 40
0.0
 40
0.0
 40
0.1321836866
 40
0.2613462139
 40
0.3247383267
 40
0.3873739739
 40
0.4493348558
 40
0.5107477179
 40
0.5717890229
 40
0.6326410713
 40
0.6934560744
 40
0.7543551295
 40
0.8767152444
 40
1.0
 40
1.0
 40
1.0
 40
1.0
 10
-1.5167974133
 20
12.2824040331
 30
0.0
 10
-1.5193548549
 20
12.2753764362
 30
0.0
 10
-1.5241584724
 20
12.2613866241
 30
0.0
 10
-1.5290247202
 20
12.2436482729
 30
0.0
 10
-1.5318705398
 20
12.2294881727
 30
0.0
 10
-1.5334349819
 20
12.2189630782
 30
0.0
 10
-1.5344026125
 20
12.2084779395
 30
0.0
 10
-1.5347263648
 20
12.1980424579
 30
0.0
 10
-1.5343874601
 20
12.1876704292
 30
0.0
 10
-1.5334261085
 20
12.177372267
 30
0.0
 10
-1.5318732827
 20
12.1671551373
 30
0.0
 10
-1.5290526292
 20
12.1536310785
 30
0.0
 10
-1.5242118645
 20
12.1369507654
 30
0.0
 10
-1.5193725518
 20
12.1239146201
 30
0.0
 10
-1.5167974133
 20
12.117432383
 30
0.0
  0
SPLINE
  5
3E2
100
AcDbEntity
  8
0
100
AcDbSpline
 62
9
  6
CONTINUOUS
 70
0
 71
3
 72
32
 73
28
 74
0
 42
0.0000001
 43
0.0000001
 44
0.0000000001
 40
0.0
 40
0.0
 40
0.0
 40
0.0
 40
0.0004093678
 40
0.00091858
 40
0.0016292554
 40
0.0036503305
 40
0.0064632648
 40
0.0100587337
 40
0.014427416
 40
0.0195599949
 40
0.0254471571
 40
0.0394323813
 40
0.0562306888
 40
0.0756744122
 40
0.0975963181
 40
0.1218285979
 40
0.1481998263
 40
0.2066733579
 40
0.2716895825
 40
0.3420673882
 40
0.4167349459
 40
0.49484726
 40
0.5756598057
 40
0.6584963112
 40
0.7427781029
 40
0.8280520972
 40
1.0
 40
1.0
 40
1.0
 40
1.0
 10
-2.6161417465
 20
12.244632521
 30
0.0
 10
-2.6161196579
 20
12.2446429574
 30
0.0
 10
-2.6160730993
 20
12.244672199
 30
0.0
 10
-2.6159876441
 20
12.2447184986
 30
0.0
 10
-2.6158192375
 20
12.244813674
 30
0.0
 10
-2.6155300787
 20
12.2449744984
 30
0.0
 10
-2.6150907242
 20
12.2452195185
 30
0.0
 10
-2.6145284142
 20
12.2455316764
 30
0.0
 10
-2.6138446825
 20
12.2459103284
 30
0.0
 10
-2.6130407223
 20
12.2463541713
 30
0.0
 10
-2.6117334529
 20
12.2470737529
 30
0.0
 10
-2.6098140425
 20
12.2481249517
 30
0.0
 10
-2.6071790514
 20
12.2495537516
 30
0.0
 10
-2.6041192952
 20
12.2511927558
 30
0.0
 10
-2.6006577505
 20
12.2530210991
 30
0.0
 10
-2.5968176325
 20
12.2550177161
 30
0.0
 10
-2.5910195854
 20
12.2579767703
 30
0.0
 10
-2.5830000163
 20
12.2619364865
 30
0.0
 10
-2.5725210059
 20
12.2668422698
 30
0.0
 10
-2.5610366441
 20
12.2718719441
 30
0.0
 10
-2.5486830693
 20
12.2768523534
 30
0.0
 10
-2.5355782384
 20
12.2816148803
 30
0.0
 10
-2.5218274848
 20
12.2859970494
 30
0.0
 10
-2.5075325845
 20
12.2898372106
 30
0.0
 10
-2.4927921088
 20
12.2929739174
 30
0.0
 10
-2.4726493329
 20
12.2961121401
 30
0.0
 10
-2.4572804974
 20
12.2971434797
 30
0.0
 10
-2.4470191037
 20
12.2971435177
 30
0.0
  0
SPLINE
  5
3E3
100
AcDbEntity
  8
0
100
AcDbSpline
 62
9
  6
CONTINUOUS
 70
0
 71
3
 72
19
 73
15
 74
0
 42
0.0000001
 43
0.0000001
 44
0.0000000001
 40
0.0
 40
0.0
 40
0.0
 40
0.0
 40
0.1232911164
 40
0.2456602313
 40
0.3673141149
 40
0.4281481889
 40
0.4891808759
 40
0.5506028222
 40
0.6125732922
 40
0.6752122648
 40
0.7386040105
 40
0.802799225
 40
0.8678028852
 40
1.0
 40
1.0
 40
1.0
 40
1.0
 10
-1.5167974133
 20
13.2899094673
 30
0.0
 10
-1.5193725667
 20
13.2834270107
 30
0.0
 10
-1.5242106593
 20
13.2703885407
 30
0.0
 10
-1.5300090313
 20
13.2504068909
 30
0.0
 10
-1.5331213501
 20
13.2334029398
 30
0.0
 10
-1.534406493
 20
13.2196784327
 30
0.0
 10
-1.5347262629
 20
13.2093064579
 30
0.0
 10
-1.5343834052
 20
13.198871643
 30
0.0
 10
-1.5334188222
 20
13.1883855077
 30
0.0
 10
-1.5318633869
 20
13.1778586266
 30
0.0
 10
-1.5297491711
 20
13.1673018729
 30
0.0
 10
-1.5271132181
 20
13.1567261733
 30
0.0
 10
-1.5229813286
 20
13.1425237231
 30
0.0
 10
-1.5193551363
 20
13.1319659485
 30
0.0
 10
-1.5167974133
 20
13.1249378173
 30
0.0
  0
SPLINE
  5
3E4
100
AcDbEntity
  8
0
100
AcDbSpline
 62
9
  6
CONTINUOUS
 70
0
 71
3
 72
11
 73
7
 74
0
 42
0.0000001
 43
0.0000001
 44
0.0000000001
 40
0.0
 40
0.0
 40
0.0
 40
0.0
 40
0.2253273693
 40
0.4670279421
 40
0.7252916734
 40
1.0
 40
1.0
 40
1.0
 40
1.0
 10
-1.5167973904
 20
13.1249378469
 30
0.0
 10
-1.51562469
 20
13.1217154869
 30
0.0
 10
-1.5134765142
 20
13.1149321973
 30
0.0
 10
-1.5108507773
 20
13.1042051496
 30
0.0
 10
-1.5086738701
 20
13.0926137572
 30
0.0
 10
-1.5075332181
 20
13.0845808785
 30
0.0
 10
-1.5070190823
 20
13.0804320008
 30
0.0
  0
SPLINE
  5
3E5
100
AcDbEntity
  8
0
100
AcDbSpline
 62
9
  6
CONTINUOUS
 70
0
 71
3
 72
9
 73
5
 74
0
 42
0.0000001
 43
0.0000001
 44
0.0000000001
 40
0.0
 40
0.0
 40
0.0
 40
0.0
 40
0.4962493719
 40
1.0
 40
1.0
 40
1.0
 40
1.0
 10
-1.5070191005
 20
12.9399709566
 30
0.0
 10
-1.5080914532
 20
12.9281065645
 30
0.0
 10
-1.5107426477
 20
12.9042396478
 30
0.0
 10
-1.5145409292
 20
12.880523011
 30
0.0
 10
-1.5167974098
 20
12.8686425747
 30
0.0
  0
SPLINE
  5
3E6
100
AcDbEntity
  8
0
100
AcDbSpline
 62
9
  6
CONTINUOUS
 70
0
 71
3
 72
15
 73
11
 74
0
 42
0.0000001
 43
0.0000001
 44
0.0000000001
 40
0.0
 40
0.0
 40
0.0
 40
0.0
 40
0.1249841174
 40
0.2499817241
 40
0.3749885643
 40
0.500000338
 40
0.6250122051
 40
0.7500190604
 40
0.8750162567
 40
1.0
 40
1.0
 40
1.0
 40
1.0
 10
-1.5167974133
 20
12.8686425752
 30
0.0
 10
-1.5193809909
 20
12.8550398392
 30
0.0
 10
-1.5242374342
 20
12.8277711345
 30
0.0
 10
-1.5300171795
 20
12.7866206157
 30
0.0
 10
-1.5337555058
 20
12.7452233737
 30
0.0
 10
-1.5350518266
 20
12.7036708064
 30
0.0
 10
-1.5337553896
 20
12.6621182429
 30
0.0
 10
-1.5300170718
 20
12.6207210352
 30
0.0
 10
-1.5242373768
 20
12.5795705962
 30
0.0
 10
-1.5193810029
 20
12.5523019667
 30
0.0
 10
-1.5167974133
 20
12.5386992751
 30
0.0
  0
SPLINE
  5
3E7
100
AcDbEntity
  8
0
100
AcDbSpline
 62
9
  6
CONTINUOUS
 70
0
 71
3
 72
9
 73
5
 74
0
 42
0.0000001
 43
0.0000001
 44
0.0000000001
 40
0.0
 40
0.0
 40
0.0
 40
0.0
 40
0.503752003
 40
1.0
 40
1.0
 40
1.0
 40
1.0
 10
-1.5167973135
 20
12.5386992905
 30
0.0
 10
-1.5145408448
 20
12.5268188126
 30
0.0
 10
-1.5107428913
 20
12.5031021169
 30
0.0
 10
-1.5080913481
 20
12.4792352314
 30
0.0
 10
-1.5070190101
 20
12.4673708657
 30
0.0
  0
SPLINE
  5
3E8
100
AcDbEntity
  8
0
100
AcDbSpline
 62
9
  6
CONTINUOUS
 70
0
 71
3
 72
11
 73
7
 74
0
 42
0.0000001
 43
0.0000001
 44
0.0000000001
 40
0.0
 40
0.0
 40
0.0
 40
0.0
 40
0.2747084678
 40
0.5329722686
 40
0.7746728047
 40
1.0
 40
1.0
 40
1.0
 40
1.0
 10
-1.5070190877
 20
12.3269098558
 30
0.0
 10
-1.5075332244
 20
12.3227609761
 30
0.0
 10
-1.5086738775
 20
12.3147280945
 30
0.0
 10
-1.5108507848
 20
12.3031366997
 30
0.0
 10
-1.5134765205
 20
12.2924096542
 30
0.0
 10
-1.5156246958
 20
12.2856263679
 30
0.0
 10
-1.5167973961
 20
12.2824040109
 30
0.0
  0
SPLINE
  5
3E9
100
AcDbEntity
  8
0
100
AcDbSpline
 62
9
  6
CONTINUOUS
 70
0
 71
3
 72
11
 73
7
 74
0
 42
0.0000001
 43
0.0000001
 44
0.0000000001
 40
0.0
 40
0.0
 40
0.0
 40
0.0
 40
0.2609024627
 40
0.3915557821
 40
0.5204644332
 40
1.0
 40
1.0
 40
1.0
 40
1.0
 10
-1.5009066869
 20
12.1118869053
 30
0.0
 10
-1.5024091613
 20
12.1117302555
 30
0.0
 10
-1.5046973965
 20
12.1117327687
 30
0.0
 10
-1.5076790098
 20
12.1122108944
 30
0.0
 10
-1.5117997451
 20
12.1133587144
 30
0.0
 10
-1.514952657
 20
12.1153573443
 30
0.0
 10
-1.5167974157
 20
12.117432389
 30
0.0
  0
SPLINE
  5
3EA
100
AcDbEntity
  8
0
100
AcDbSpline
 62
9
  6
CONTINUOUS
 70
0
 71
3
 72
11
 73
7
 74
0
 42
0.0000001
 43
0.0000001
 44
0.0000000001
 40
0.0
 40
0.0
 40
0.0
 40
0.0
 40
0.27657768
 40
0.5354258065
 40
0.776428819
 40
1.0
 40
1.0
 40
1.0
 40
1.0
 10
-1.4903115151
 20
12.3192348759
 30
0.0
 10
-1.4908677159
 20
12.3149370721
 30
0.0
 10
-1.4921026522
 20
12.306636017
 30
0.0
 10
-1.4944617284
 20
12.294695502
 30
0.0
 10
-1.4973035049
 20
12.2837150617
 30
0.0
 10
-1.4996334701
 20
12.2768085011
 30
0.0
 10
-1.5009066844
 20
12.2735449746
 30
0.0
  0
SPLINE
  5
3EB
100
AcDbEntity
  8
0
100
AcDbSpline
 62
9
  6
CONTINUOUS
 70
0
 71
3
 72
11
 73
7
 74
0
 42
0.0000001
 43
0.0000001
 44
0.0000000001
 40
0.0
 40
0.0
 40
0.0
 40
0.0
 40
0.2491317086
 40
0.5057421012
 40
0.7592168464
 40
1.0
 40
1.0
 40
1.0
 40
1.0
 10
-1.5009066849
 20
12.2735449734
 30
0.0
 10
-1.5024486697
 20
12.2737057426
 30
0.0
 10
-1.5055493748
 20
12.274371387
 30
0.0
 10
-1.5099239827
 20
12.2762380768
 30
0.0
 10
-1.5137669953
 20
12.2789519834
 30
0.0
 10
-1.5158983703
 20
12.2812052912
 30
0.0
 10
-1.5167973967
 20
12.2824040092
 30
0.0
  0
SPLINE
  5
3EC
100
AcDbEntity
  8
0
100
AcDbSpline
 62
9
  6
CONTINUOUS
 70
0
 71
3
 72
15
 73
11
 74
0
 42
0.0000001
 43
0.0000001
 44
0.0000000001
 40
0.0
 40
0.0
 40
0.0
 40
0.0
 40
0.140407956
 40
0.2777494724
 40
0.4112455894
 40
0.540239666
 40
0.6641300949
 40
0.7823943126
 40
0.8945285804
 40
1.0
 40
1.0
 40
1.0
 40
1.0
 10
-1.4903115151
 20
12.4667136455
 30
0.0
 10
-1.4896726696
 20
12.4598273413
 30
0.0
 10
-1.4885352853
 20
12.4461929689
 30
0.0
 10
-1.4872696169
 20
12.4259748275
 30
0.0
 10
-1.4864968292
 20
12.4062941213
 30
0.0
 10
-1.4862282524
 20
12.3872624102
 30
0.0
 10
-1.4864753099
 20
12.3689804601
 30
0.0
 10
-1.4872280999
 20
12.3515431567
 30
0.0
 10
-1.4884735006
 20
12.3350437949
 30
0.0
 10
-1.4896447894
 20
12.3243869697
 30
0.0
 10
-1.4903115151
 20
12.3192348759
 30
0.0
  0
SPLINE
  5
3ED
100
AcDbEntity
  8
0
100
AcDbSpline
 62
9
  6
CONTINUOUS
 70
0
 71
3
 72
13
 73
9
 74
0
 42
0.0000001
 43
0.0000001
 44
0.0000000001
 40
0.0
 40
0.0
 40
0.0
 40
0.0
 40
0.2597993768
 40
0.3919216109
 40
0.5226123832
 40
0.7727759386
 40
0.8899466498
 40
1.0
 40
1.0
 40
1.0
 40
1.0
 10
-1.4903115134
 20
12.3192348889
 30
0.0
 10
-1.4919394452
 20
12.3193437909
 30
0.0
 10
-1.4943861754
 20
12.3197351409
 30
0.0
 10
-1.4975377056
 20
12.3206625385
 30
0.0
 10
-1.5005347776
 20
12.3218546996
 30
0.0
 10
-1.5032575523
 20
12.3234476243
 30
0.0
 10
-1.5055766362
 20
12.3253542776
 30
0.0
 10
-1.506572512
 20
12.3263823996
 30
0.0
 10
-1.507019102
 20
12.3269098868
 30
0.0
  0
SPLINE
  5
3EE
100
AcDbEntity
  8
0
100
AcDbSpline
 62
9
  6
CONTINUOUS
 70
0
 71
3
 72
14
 73
10
 74
0
 42
0.0000001
 43
0.0000001
 44
0.0000000001
 40
0.0
 40
0.0
 40
0.0
 40
0.0
 40
0.2784238209
 40
0.4121261135
 40
0.541228001
 40
0.6650899006
 40
0.7831767209
 40
0.8949798684
 40
1.0
 40
1.0
 40
1.0
 40
1.0
 10
-1.5070185066
 20
12.4673707351
 30
0.0
 10
-1.5056652715
 20
12.4543731132
 30
0.0
 10
-1.5040630401
 20
12.4350868626
 30
0.0
 10
-1.5029332631
 20
12.4097069869
 30
0.0
 10
-1.5026383567
 20
12.3915582451
 30
0.0
 10
-1.5029101427
 20
12.3741419594
 30
0.0
 10
-1.5037234117
 20
12.3575551325
 30
0.0
 10
-1.5050513915
 20
12.3418889218
 30
0.0
 10
-1.5063031885
 20
12.331786122
 30
0.0
 10
-1.5070185066
 20
12.326909161
 30
0.0
  0
SPLINE
  5
3EF
100
AcDbEntity
  8
0
100
AcDbSpline
 62
9
  6
CONTINUOUS
 70
0
 71
3
 72
9
 73
5
 74
0
 42
0.0000001
 43
0.0000001
 44
0.0000000001
 40
0.0
 40
0.0
 40
0.0
 40
0.0
 40
0.5037274903
 40
1.0
 40
1.0
 40
1.0
 40
1.0
 10
-1.5009066844
 20
12.5420128498
 30
0.0
 10
-1.4984614077
 20
12.5294772116
 30
0.0
 10
-1.4943546095
 20
12.504442305
 30
0.0
 10
-1.4914738449
 20
12.4792427333
 30
0.0
 10
-1.4903115151
 20
12.4667136455
 30
0.0
  0
SPLINE
  5
3F0
100
AcDbEntity
  8
0
100
AcDbSpline
 62
9
  6
CONTINUOUS
 70
0
 71
3
 72
13
 73
9
 74
0
 42
0.0000001
 43
0.0000001
 44
0.0000000001
 40
0.0
 40
0.0
 40
0.0
 40
0.0
 40
0.2884703391
 40
0.5667380238
 40
0.6937179742
 40
0.8094438528
 40
0.9121121347
 40
1.0
 40
1.0
 40
1.0
 40
1.0
 10
-1.4903115151
 20
12.4667136455
 30
0.0
 10
-1.4919194049
 20
12.4665635989
 30
0.0
 10
-1.4950877455
 20
12.4663655891
 30
0.0
 10
-1.4989747659
 20
12.4663520424
 30
0.0
 10
-1.5018869639
 20
12.4665249702
 30
0.0
 10
-1.5038105057
 20
12.4667283033
 30
0.0
 10
-1.505504411
 20
12.466998806
 30
0.0
 10
-1.5065457312
 20
12.4672367893
 30
0.0
 10
-1.5070191039
 20
12.4673708949
 30
0.0
  0
LINE
  5
3F1
100
AcDbEntity
  8
0
100
AcDbLine
 62
9
  6
CONTINUOUS
 10
-1.4863142415
 20
13.3369870433
 11
-1.4903115151
 21
13.3250642541
  0
SPLINE
  5
3F2
100
AcDbEntity
  8
0
100
AcDbSpline
 62
9
  6
CONTINUOUS
 70
0
 71
3
 72
9
 73
5
 74
0
 42
0.0000001
 43
0.0000001
 44
0.0000000001
 40
0.0
 40
0.0
 40
0.0
 40
0.0
 40
0.4962696111
 40
1.0
 40
1.0
 40
1.0
 40
1.0
 10
-1.4903115151
 20
12.9406282049
 30
0.0
 10
-1.4914738569
 20
12.9280991936
 30
0.0
 10
-1.4943549949
 20
12.9028996751
 30
0.0
 10
-1.4984613611
 20
12.8778647029
 30
0.0
 10
-1.5009066844
 20
12.8653290005
 30
0.0
  0
LINE
  5
3F3
100
AcDbEntity
  8
0
100
AcDbLine
 62
9
  6
CONTINUOUS
 10
-1.5027331985
 20
13.3284070162
 11
-1.5052182032
 21
13.3217105235
  0
SPLINE
  5
3F4
100
AcDbEntity
  8
0
100
AcDbSpline
 62
9
  6
CONTINUOUS
 70
0
 71
3
 72
11
 73
7
 74
0
 42
0.0000001
 43
0.0000001
 44
0.0000000001
 40
0.0
 40
0.0
 40
0.0
 40
0.0
 40
0.2503650392
 40
0.4999962278
 40
0.7496305082
 40
1.0
 40
1.0
 40
1.0
 40
1.0
 10
-1.5009066844
 20
12.5420128498
 30
0.0
 10
-1.5064614606
 20
12.5686517693
 30
0.0
 10
-1.516312622
 20
12.6221560197
 30
0.0
 10
-1.5221672692
 20
12.7036700247
 30
0.0
 10
-1.5163132424
 20
12.785184611
 30
0.0
 10
-1.5064615034
 20
12.8386895956
 30
0.0
 10
-1.5009066844
 20
12.8653290005
 30
0.0
  0
SPLINE
  5
3F5
100
AcDbEntity
  8
0
100
AcDbSpline
 62
9
  6
CONTINUOUS
 70
0
 71
3
 72
11
 73
7
 74
0
 42
0.0000001
 43
0.0000001
 44
0.0000000001
 40
0.0
 40
0.0
 40
0.0
 40
0.0
 40
0.2498097638
 40
0.4999980163
 40
0.7501868749
 40
1.0
 40
1.0
 40
1.0
 40
1.0
 10
-1.2707909098
 20
12.8653290005
 30
0.0
 10
-1.2664817201
 20
12.8386591598
 30
0.0
 10
-1.2606737518
 20
12.7848114543
 30
0.0
 10
-1.2580462162
 20
12.7036715045
 30
0.0
 10
-1.2606737353
 20
12.6225311936
 30
0.0
 10
-1.2664816662
 20
12.56868305
 30
0.0
 10
-1.2707909098
 20
12.5420128498
 30
0.0
  0
SPLINE
  5
3F6
100
AcDbEntity
  8
0
100
AcDbSpline
 62
9
  6
CONTINUOUS
 70
0
 71
3
 72
15
 73
11
 74
0
 42
0.0000001
 43
0.0000001
 44
0.0000000001
 40
0.0
 40
0.0
 40
0.0
 40
0.0
 40
0.1285806659
 40
0.2546084326
 40
0.3781180316
 40
0.4999900714
 40
0.6218631327
 40
0.7453774426
 40
0.871413814
 40
1.0
 40
1.0
 40
1.0
 40
1.0
 10
-1.5009079387
 20
12.1118867685
 30
0.0
 10
-1.5036674784
 20
12.1185037192
 30
0.0
 10
-1.5088630191
 20
12.1317233623
 30
0.0
 10
-1.5151563606
 20
12.1518741148
 30
0.0
 10
-1.5192299965
 20
12.1722249624
 30
0.0
 10
-1.5207101513
 20
12.1927142145
 30
0.0
 10
-1.5192296494
 20
12.2132037011
 30
0.0
 10
-1.5151558115
 20
12.2335553011
 30
0.0
 10
-1.5088628467
 20
12.2537072554
 30
0.0
 10
-1.5036675007
 20
12.2669278305
 30
0.0
 10
-1.5009079387
 20
12.2735451054
 30
0.0
  0
SPLINE
  5
3F7
100
AcDbEntity
  8
0
100
AcDbSpline
 62
9
  6
CONTINUOUS
 70
0
 71
3
 72
15
 73
11
 74
0
 42
0.0000001
 43
0.0000001
 44
0.0000000001
 40
0.0
 40
0.0
 40
0.0
 40
0.0
 40
0.1268193859
 40
0.2519633495
 40
0.3761876578
 40
0.5000118532
 40
0.6238360332
 40
0.7480562817
 40
0.8731890905
 40
1.0
 40
1.0
 40
1.0
 40
1.0
 10
-1.2707909098
 20
12.2735449746
 30
0.0
 10
-1.2686590632
 20
12.2669478628
 30
0.0
 10
-1.2650607212
 20
12.2536268805
 30
0.0
 10
-1.2614464824
 20
12.2333607841
 30
0.0
 10
-1.2593622984
 20
12.2130479151
 30
0.0
 10
-1.2587023542
 20
12.1927140055
 30
0.0
 10
-1.2593628453
 20
12.1723803399
 30
0.0
 10
-1.261447159
 20
12.1520683326
 30
0.0
 10
-1.2650610502
 20
12.1318034927
 30
0.0
 10
-1.2686591771
 20
12.1184835608
 30
0.0
 10
-1.2707909098
 20
12.1118868993
 30
0.0
  0
LINE
  5
3F8
100
AcDbEntity
  8
0
100
AcDbLine
 62
9
  6
CONTINUOUS
 10
-1.4903115151
 20
12.0822775962
 11
-1.4863142412
 21
12.0703548067
  0
LINE
  5
3F9
100
AcDbEntity
  8
0
100
AcDbLine
 62
9
  6
CONTINUOUS
 10
-1.5032448638
 20
12.0802892068
 11
-1.502733089
 21
12.0789346768
  0
SPLINE
  5
3FA
100
AcDbEntity
  8
0
100
AcDbSpline
 62
9
  6
CONTINUOUS
 70
0
 71
3
 72
11
 73
7
 74
0
 42
0.0000001
 43
0.0000001
 44
0.0000000001
 40
0.0
 40
0.0
 40
0.0
 40
0.0
 40
0.2501878677
 40
0.5050739395
 40
0.7571419562
 40
1.0
 40
1.0
 40
1.0
 40
1.0
 10
-1.4903115134
 20
13.3250642593
 30
0.0
 10
-1.4919298793
 20
13.3251070214
 30
0.0
 10
-1.4952172438
 20
13.3247868358
 30
0.0
 10
-1.4999007358
 20
13.3231842425
 30
0.0
 10
-1.5039640559
 20
13.3204387325
 30
0.0
 10
-1.5061329006
 20
13.3180298021
 30
0.0
 10
-1.507019102
 20
13.3167320113
 30
0.0
  0
SPLINE
  5
3FB
100
AcDbEntity
  8
0
100
AcDbSpline
 62
9
  6
CONTINUOUS
 70
0
 71
3
 72
11
 73
7
 74
0
 42
0.0000001
 43
0.0000001
 44
0.0000000001
 40
0.0
 40
0.0
 40
0.0
 40
0.0
 40
0.2620285275
 40
0.3929624293
 40
0.5219484208
 40
1.0
 40
1.0
 40
1.0
 40
1.0
 10
-1.500906685
 20
13.2954549495
 30
0.0
 10
-1.5024156919
 20
13.2956122805
 30
0.0
 10
-1.5047124376
 20
13.2956084637
 30
0.0
 10
-1.5077021026
 20
13.2951256451
 30
0.0
 10
-1.5118154165
 20
13.2939746664
 30
0.0
 10
-1.5149582853
 20
13.2919781705
 30
0.0
 10
-1.5167973968
 20
13.289909485
 30
0.0
  0
SPLINE
  5
3FC
100
AcDbEntity
  8
0
100
AcDbSpline
 62
9
  6
CONTINUOUS
 70
0
 71
3
 72
11
 73
7
 74
0
 42
0.0000001
 43
0.0000001
 44
0.0000000001
 40
0.0
 40
0.0
 40
0.0
 40
0.0
 40
0.2480271199
 40
0.5042311205
 40
0.7581332966
 40
1.0
 40
1.0
 40
1.0
 40
1.0
 10
-1.5009066869
 20
13.1337968818
 30
0.0
 10
-1.5024418365
 20
13.1336368252
 30
0.0
 10
-1.5055334552
 20
13.1329750543
 30
0.0
 10
-1.5099035696
 20
13.1311151514
 30
0.0
 10
-1.5137548392
 20
13.1284009408
 30
0.0
 10
-1.5158943443
 20
13.1261419384
 30
0.0
 10
-1.5167974157
 20
13.1249378236
 30
0.0
  0
SPLINE
  5
3FD
100
AcDbEntity
  8
0
100
AcDbSpline
 62
9
  6
CONTINUOUS
 70
0
 71
3
 72
11
 73
7
 74
0
 42
0.0000001
 43
0.0000001
 44
0.0000000001
 40
0.0
 40
0.0
 40
0.0
 40
0.0
 40
0.2235710418
 40
0.4645736677
 40
0.7234220269
 40
1.0
 40
1.0
 40
1.0
 40
1.0
 10
-1.5009066844
 20
13.1337968757
 30
0.0
 10
-1.4996334717
 20
13.1305333509
 30
0.0
 10
-1.497303505
 20
13.1236267995
 30
0.0
 10
-1.4944617204
 20
13.1126463656
 30
0.0
 10
-1.4921026448
 20
13.1007058477
 30
0.0
 10
-1.4908677161
 20
13.092404783
 30
0.0
 10
-1.4903115151
 20
13.0881069744
 30
0.0
  0
SPLINE
  5
3FE
100
AcDbEntity
  8
0
100
AcDbSpline
 62
9
  6
CONTINUOUS
 70
0
 71
3
 72
13
 73
9
 74
0
 42
0.0000001
 43
0.0000001
 44
0.0000000001
 40
0.0
 40
0.0
 40
0.0
 40
0.0
 40
0.2597992809
 40
0.391921473
 40
0.5226122211
 40
0.7727758057
 40
0.8899465698
 40
1.0
 40
1.0
 40
1.0
 40
1.0
 10
-1.4903115154
 20
13.0881069767
 30
0.0
 10
-1.4919394438
 20
13.0879980748
 30
0.0
 10
-1.4943861689
 20
13.0876067261
 30
0.0
 10
-1.4975376931
 20
13.0866793318
 30
0.0
 10
-1.5005347605
 20
13.0854871748
 30
0.0
 10
-1.5032575322
 20
13.0838942555
 30
0.0
 10
-1.5055766156
 20
13.0819876081
 30
0.0
 10
-1.506572492
 20
13.0809594891
 30
0.0
 10
-1.5070190827
 20
13.0804320034
 30
0.0
  0
LINE
  5
3FF
100
AcDbEntity
  8
0
100
AcDbLine
 62
9
  6
CONTINUOUS
 10
-2.1974525306
 20
12.0042109551
 11
-2.2088983735
 21
12.0244524177
  0
LINE
  5
400
100
AcDbEntity
  8
0
100
AcDbLine
 62
9
  6
CONTINUOUS
 10
-2.1953842739
 20
10.1756954222
 11
-2.211460194
 21
10.1740291915
  0
LINE
  5
401
100
AcDbEntity
  8
0
100
AcDbLine
 62
9
  6
CONTINUOUS
 10
-2.6986549653
 20
11.9915278351
 11
-2.6949202549
 21
11.9961554642
  0
SPLINE
  5
402
100
AcDbEntity
  8
0
100
AcDbSpline
 62
9
  6
CONTINUOUS
 70
0
 71
3
 72
15
 73
11
 74
0
 42
0.0000001
 43
0.0000001
 44
0.0000000001
 40
0.0
 40
0.0
 40
0.0
 40
0.0
 40
0.1504920461
 40
0.2986935708
 40
0.4416768196
 40
0.5770259894
 40
0.7025060398
 40
0.8160780468
 40
0.9158161692
 40
1.0
 40
1.0
 40
1.0
 40
1.0
 10
-2.3781814733
 20
10.1351491844
 30
0.0
 10
-2.3745515506
 20
10.1354317444
 30
0.0
 10
-2.3673418483
 20
10.1359290046
 30
0.0
 10
-2.3566696752
 20
10.136476233
 30
0.0
 10
-2.3463551641
 20
10.1368106401
 30
0.0
 10
-2.3365855322
 20
10.1369284801
 30
0.0
 10
-2.3275271959
 20
10.1368272563
 30
0.0
 10
-2.3193354003
 20
10.1365117349
 30
0.0
 10
-2.3121558589
 20
10.135986306
 30
0.0
 10
-2.307734176
 20
10.1354626527
 30
0.0
 10
-2.3057217967
 20
10.1351489269
 30
0.0
  0
SPLINE
  5
403
100
AcDbEntity
  8
0
100
AcDbSpline
 62
9
  6
CONTINUOUS
 70
0
 71
3
 72
13
 73
9
 74
0
 42
0.0000001
 43
0.0000001
 44
0.0000000001
 40
0.0
 40
0.0
 40
0.0
 40
0.0
 40
0.2539643435
 40
0.5049166962
 40
0.6295325785
 40
0.753481377
 40
0.8769746739
 40
1.0
 40
1.0
 40
1.0
 40
1.0
 10
-2.5128373235
 20
12.0117605325
 30
0.0
 10
-2.5082464318
 20
12.0161687062
 30
0.0
 10
-2.4987208646
 20
12.024537225
 30
0.0
 10
-2.4855172495
 20
12.0333096092
 30
0.0
 10
-2.4742140815
 20
12.0387354713
 30
0.0
 10
-2.4653950994
 20
12.0418334322
 30
0.0
 10
-2.4562879702
 20
12.0437670509
 30
0.0
 10
-2.450102247
 20
12.0442205387
 30
0.0
 10
-2.4470191039
 20
12.0442205423
 30
0.0
  0
SPLINE
  5
404
100
AcDbEntity
  8
0
100
AcDbSpline
 62
9
  6
CONTINUOUS
 70
0
 71
3
 72
13
 73
9
 74
0
 42
0.0000001
 43
0.0000001
 44
0.0000000001
 40
0.0
 40
0.0
 40
0.0
 40
0.0
 40
0.1229909366
 40
0.2464405322
 40
0.370369224
 40
0.4949888666
 40
0.7459934782
 40
1.0
 40
1.0
 40
1.0
 40
1.0
 10
-2.4470191039
 20
12.044220125
 30
0.0
 10
-2.443936839
 20
12.0442201094
 30
0.0
 10
-2.4377530948
 20
12.0437670199
 30
0.0
 10
-2.4286483948
 20
12.0418341162
 30
0.0
 10
-2.419830646
 20
12.0387374232
 30
0.0
 10
-2.4085261387
 20
12.0333123817
 30
0.0
 10
-2.3953203241
 20
12.0245388853
 30
0.0
 10
-2.3857928003
 20
12.0161691165
 30
0.0
 10
-2.3812011732
 20
12.0117602315
 30
0.0
  0
SPLINE
  5
405
100
AcDbEntity
  8
0
100
AcDbSpline
 62
9
  6
CONTINUOUS
 70
0
 71
3
 72
15
 73
11
 74
0
 42
0.0000001
 43
0.0000001
 44
0.0000000001
 40
0.0
 40
0.0
 40
0.0
 40
0.0
 40
0.0841905381
 40
0.1839389812
 40
0.2975132303
 40
0.4229898849
 40
0.5583354101
 40
0.7013144702
 40
0.8495112094
 40
1.0
 40
1.0
 40
1.0
 40
1.0
 10
-2.5883173932
 20
10.1351491822
 30
0.0
 10
-2.5863048521
 20
10.1354630948
 30
0.0
 10
-2.5818826592
 20
10.1359865628
 30
0.0
 10
-2.5747025311
 20
10.13651152
 30
0.0
 10
-2.566510411
 20
10.1368270516
 30
0.0
 10
-2.5574520743
 20
10.1369284037
 30
0.0
 10
-2.5476825867
 20
10.1368105748
 30
0.0
 10
-2.5373682476
 20
10.1364761753
 30
0.0
 10
-2.5266962276
 20
10.1359290331
 30
0.0
 10
-2.519486631
 20
10.1354316801
 30
0.0
 10
-2.51585675
 20
10.1351489918
 30
0.0
  0
SPLINE
  5
406
100
AcDbEntity
  8
0
100
AcDbSpline
 62
9
  6
CONTINUOUS
 70
0
 71
3
 72
20
 73
16
 74
0
 42
0.0000001
 43
0.0000001
 44
0.0000000001
 40
0.0
 40
0.0
 40
0.0
 40
0.0
 40
0.1431668755
 40
0.2141450458
 40
0.2843481394
 40
0.3534071817
 40
0.4209411057
 40
0.4865505359
 40
0.5499329233
 40
0.6110093866
 40
0.6698680203
 40
0.7268803873
 40
0.7825057892
 40
0.8913844692
 40
1.0
 40
1.0
 40
1.0
 40
1.0
 10
-2.5250241707
 20
12.0244524177
 30
0.0
 10
-2.5285034234
 20
12.0215873593
 30
0.0
 10
-2.5339316694
 20
12.0175562247
 30
0.0
 10
-2.5416033716
 20
12.0129326711
 30
0.0
 10
-2.5475095069
 20
12.0099302727
 30
0.0
 10
-2.5535462144
 20
12.0074700877
 30
0.0
 10
-2.5596504142
 20
12.0056288982
 30
0.0
 10
-2.56574253
 20
12.0044731275
 30
0.0
 10
-2.5717290254
 20
12.0040872999
 30
0.0
 10
-2.5775067304
 20
12.0044443461
 30
0.0
 10
-2.5829792784
 20
12.0055829047
 30
0.0
 10
-2.5880755658
 20
12.0074186979
 30
0.0
 10
-2.5942620146
 20
12.0106807288
 30
0.0
 10
-2.6009958541
 20
12.0161757271
 30
0.0
 10
-2.6052552292
 20
12.0215959613
 30
0.0
 10
-2.6071347673
 20
12.0244524177
 30
0.0
  0
SPLINE
  5
407
100
AcDbEntity
  8
0
100
AcDbSpline
 62
9
  6
CONTINUOUS
 70
0
 71
3
 72
26
 73
22
 74
0
 42
0.0000001
 43
0.0000001
 44
0.0000000001
 40
0.0
 40
0.0
 40
0.0
 40
0.0
 40
0.07597844
 40
0.1493943428
 40
0.2194495348
 40
0.2856514262
 40
0.3476774791
 40
0.4055071237
 40
0.4596004156
 40
0.4856257413
 40
0.5112404497
 40
0.536698442
 40
0.5622490982
 40
0.5881305634
 40
0.6145651414
 40
0.6697255024
 40
0.7286519879
 40
0.7914465002
 40
0.8575590311
 40
0.9266081753
 40
1.0
 40
1.0
 40
1.0
 40
1.0
 10
-2.6071347673
 20
12.0244524177
 30
0.0
 10
-2.6086660027
 20
12.0266485281
 30
0.0
 10
-2.611701864
 20
12.0309496831
 30
0.0
 10
-2.6163799192
 20
12.0371100714
 30
0.0
 10
-2.6212105026
 20
12.0427106579
 30
0.0
 10
-2.6262639
 20
12.0475537937
 30
0.0
 10
-2.6314938508
 20
12.0515358594
 30
0.0
 10
-2.6368593995
 20
12.0545465663
 30
0.0
 10
-2.6414798571
 20
12.0561645192
 30
0.0
 10
-2.6451569991
 20
12.056807874
 30
0.0
 10
-2.6478753957
 20
12.0569649315
 30
0.0
 10
-2.650576757
 20
12.0568072879
 30
0.0
 10
-2.6532511974
 20
12.056338373
 30
0.0
 10
-2.6558887266
 20
12.0555617032
 30
0.0
 10
-2.659390927
 20
12.0541042951
 30
0.0
 10
-2.6636564433
 20
12.0515335274
 30
0.0
 10
-2.6684415258
 20
12.0475109843
 30
0.0
 10
-2.672965033
 20
12.0426628647
 30
0.0
 10
-2.677259855
 20
12.0371585222
 30
0.0
 10
-2.6813823069
 20
12.0310687082
 30
0.0
 10
-2.6839075831
 20
12.0267260536
 30
0.0
 10
-2.6851398342
 20
12.0244524178
 30
0.0
  0
LINE
  5
408
100
AcDbEntity
  8
0
100
AcDbLine
 62
9
  6
CONTINUOUS
 10
-2.6851398342
 20
12.0244524178
 11
-2.6965856771
 21
12.0042109552
  0
SPLINE
  5
409
100
AcDbEntity
  8
0
100
AcDbSpline
 62
9
  6
CONTINUOUS
 70
0
 71
3
 72
28
 73
24
 74
0
 42
0.0000001
 43
0.0000001
 44
0.0000000001
 40
0.0
 40
0.0
 40
0.0
 40
0.0
 40
0.1719348806
 40
0.2571990693
 40
0.3414728663
 40
0.5050743638
 40
0.5831895518
 40
0.6578619957
 40
0.7282462792
 40
0.7932718118
 40
0.8517583921
 40
0.9023763651
 40
0.9243054999
 40
0.9437558093
 40
0.9605596409
 40
0.9745489073
 40
0.9855709577
 40
0.9899402732
 40
0.9935361285
 40
0.9963492791
 40
0.9983704765
 40
0.9995904687
 40
1.0
 40
1.0
 40
1.0
 40
1.0
 10
-2.4470191037
 20
12.2971434838
 30
0.0
 10
-2.4367589371
 20
12.2971434496
 30
0.0
 10
-2.4213922644
 20
12.2961125691
 30
0.0
 10
-2.4012517793
 20
12.2929751158
 30
0.0
 10
-2.3817975815
 20
12.2888353405
 30
0.0
 10
-2.3631122388
 20
12.283304814
 30
0.0
 10
-2.3453649517
 20
12.2768560538
 30
0.0
 10
-2.3330106163
 20
12.2718757266
 30
0.0
 10
-2.3215256086
 20
12.2668460783
 30
0.0
 10
-2.3110454073
 20
12.2619398894
 30
0.0
 10
-2.3017274506
 20
12.257339384
 30
0.0
 10
-2.2947759628
 20
12.25375822
 30
0.0
 10
-2.2899215606
 20
12.2511941844
 30
0.0
 10
-2.2868609112
 20
12.2495547233
 30
0.0
 10
-2.2842251887
 20
12.248125526
 30
0.0
 10
-2.2820366049
 20
12.2469269091
 30
0.0
 10
-2.2805011116
 20
12.2460805854
 30
0.0
 10
-2.2795098292
 20
12.2455317907
 30
0.0
 10
-2.2789476307
 20
12.2452193253
 30
0.0
 10
-2.2785078724
 20
12.244975022
 30
0.0
 10
-2.278193033
 20
12.244797754
 30
0.0
 10
-2.2780019147
 20
12.2446932418
 30
0.0
 10
-2.2779182001
 20
12.2446436304
 30
0.0
 10
-2.2778964498
 20
12.244632487
 30
0.0
  0
SPLINE
  5
40A
100
AcDbEntity
  8
0
100
AcDbSpline
 62
9
  6
CONTINUOUS
 70
0
 71
3
 72
23
 73
19
 74
0
 42
0.0000001
 43
0.0000001
 44
0.0000000001
 40
0.0
 40
0.0
 40
0.0
 40
0.0
 40
0.072777924
 40
0.142590882
 40
0.2090220709
 40
0.2716834566
 40
0.3304763105
 40
0.3855664664
 40
0.43776737
 40
0.4886987484
 40
0.5402496615
 40
0.5943406901
 40
0.6521503796
 40
0.7141859892
 40
0.7803764849
 40
0.8503836086
 40
0.9237508605
 40
1.0
 40
1.0
 40
1.0
 40
1.0
 10
-2.2088983735
 20
12.0244524177
 30
0.0
 10
-2.2101447923
 20
12.0266930043
 30
0.0
 10
-2.2126867434
 20
12.0310287763
 30
0.0
 10
-2.216772258
 20
12.03716104
 30
0.0
 10
-2.2210726215
 20
12.0427036223
 30
0.0
 10
-2.2256116929
 20
12.0475382276
 30
0.0
 10
-2.2303949258
 20
12.0515427339
 30
0.0
 10
-2.2354343325
 20
12.0545765206
 30
0.0
 10
-2.2407209011
 20
12.0564683835
 30
0.0
 10
-2.2461818014
 20
12.0571351017
 30
0.0
 10
-2.2517043593
 20
12.0564473692
 30
0.0
 10
-2.2571818166
 20
12.0545591238
 30
0.0
 10
-2.262543325
 20
12.0515365039
 30
0.0
 10
-2.2677561725
 20
12.0475376356
 30
0.0
 10
-2.2728149413
 20
12.0427076915
 30
0.0
 10
-2.2777064615
 20
12.0371685529
 30
0.0
 10
-2.2824348646
 20
12.0310387368
 30
0.0
 10
-2.2854272256
 20
12.0266966591
 30
0.0
 10
-2.2869034404
 20
12.0244524177
 30
0.0
  0
SPLINE
  5
40B
100
AcDbEntity
  8
0
100
AcDbSpline
 62
9
  6
CONTINUOUS
 70
0
 71
3
 72
20
 73
16
 74
0
 42
0.0000001
 43
0.0000001
 44
0.0000000001
 40
0.0
 40
0.0
 40
0.0
 40
0.0
 40
0.109469305
 40
0.1639527029
 40
0.2186862092
 40
0.2742216617
 40
0.3310073231
 40
0.3895444358
 40
0.4501685782
 40
0.5130996751
 40
0.5782983506
 40
0.6455298445
 40
0.7144402995
 40
0.8556831929
 40
1.0
 40
1.0
 40
1.0
 40
1.0
 10
-2.2869034341
 20
12.024452411
 30
0.0
 10
-2.2887979715
 20
12.0215731923
 30
0.0
 10
-2.2920200428
 20
12.0174837752
 30
0.0
 10
-2.2971229128
 20
12.0128421361
 30
0.0
 10
-2.301369205
 20
12.0098373927
 30
0.0
 10
-2.3060406014
 20
12.0073857178
 30
0.0
 10
-2.3111204526
 20
12.0055612042
 30
0.0
 10
-2.3165658296
 20
12.0044482154
 30
0.0
 10
-2.3223042805
 20
12.0040758634
 30
0.0
 10
-2.3282493683
 20
12.0044747529
 30
0.0
 10
-2.3343084536
 20
12.0056060728
 30
0.0
 10
-2.3403893659
 20
12.0074351491
 30
0.0
 10
-2.3484914081
 20
12.0107232436
 30
0.0
 10
-2.3582688536
 20
12.0161957391
 30
0.0
 10
-2.3655064386
 20
12.0215640401
 30
0.0
 10
-2.3690140422
 20
12.0244524109
 30
0.0
  0
SPLINE
  5
40C
100
AcDbEntity
  8
0
100
AcDbSpline
 62
9
  6
CONTINUOUS
 70
0
 71
3
 72
36
 73
32
 74
0
 42
0.0000001
 43
0.0000001
 44
0.0000000001
 40
0.0
 40
0.0
 40
0.0
 40
0.0
 40
0.0001035518
 40
0.0004123945
 40
0.000925964
 40
0.001643696
 40
0.0025650263
 40
0.0036893907
 40
0.0065440651
 40
0.0101971117
 40
0.014636066
 40
0.0198481513
 40
0.0258168454
 40
0.0325231719
 40
0.0399481024
 40
0.0568700158
 40
0.0764034814
 40
0.0983652962
 40
0.1225712219
 40
0.1488419424
 40
0.1770032188
 40
0.2068930763
 40
0.2712601197
 40
0.340865874
 40
0.4148021493
 40
0.4923035126
 40
0.5727158669
 40
0.6554676571
 40
0.7400451148
 40
0.8259656514
 40
1.0
 40
1.0
 40
1.0
 40
1.0
 10
-2.6730411241
 20
12.3236709252
 30
0.0
 10
-2.6730333134
 20
12.3236726614
 30
0.0
 10
-2.6730042897
 20
12.3236865582
 30
0.0
 10
-2.6729366136
 20
12.3237093366
 30
0.0
 10
-2.6728257266
 20
12.3237528602
 30
0.0
 10
-2.6726699467
 20
12.3238110277
 30
0.0
 10
-2.6724702692
 20
12.3238867283
 30
0.0
 10
-2.6721159957
 20
12.3240203578
 30
0.0
 10
-2.6715642502
 20
12.3242285816
 30
0.0
 10
-2.6707725935
 20
12.3245264373
 30
0.0
 10
-2.6698100786
 20
12.3248874589
 30
0.0
 10
-2.6686795196
 20
12.3253099438
 30
0.0
 10
-2.6673841523
 20
12.3257918936
 30
0.0
 10
-2.6659276253
 20
12.3263310209
 30
0.0
 10
-2.6636758627
 20
12.3271598226
 30
0.0
 10
-2.6604902745
 20
12.3283209338
 30
0.0
 10
-2.6562420034
 20
12.3298464111
 30
0.0
 10
-2.651454633
 20
12.3315357596
 30
0.0
 10
-2.6461646981
 20
12.3333650221
 30
0.0
 10
-2.6404082212
 20
12.33531045
 30
0.0
 10
-2.6342196742
 20
12.337348616
 30
0.0
 10
-2.6252104928
 20
12.3402315808
 30
0.0
 10
-2.613097401
 20
12.3439205914
 30
0.0
 10
-2.5976328369
 20
12.3482762326
 30
0.0
 10
-2.5810852373
 20
12.3525139589
 30
0.0
 10
-2.5636164525
 20
12.356496998
 30
0.0
 10
-2.5453702693
 20
12.3601017854
 30
0.0
 10
-2.5264795183
 20
12.36321798
 30
0.0
 10
-2.5070712255
 20
12.3657495734
 30
0.0
 10
-2.4805636577
 20
12.368251778
 30
0.0
 10
-2.4604665563
 20
12.3690213045
 30
0.0
 10
-2.4470191039
 20
12.3690213315
 30
0.0
  0
SPLINE
  5
40D
100
AcDbEntity
  8
0
100
AcDbSpline
 62
9
  6
CONTINUOUS
 70
0
 71
3
 72
36
 73
32
 74
0
 42
0.0000001
 43
0.0000001
 44
0.0000000001
 40
0.0
 40
0.0
 40
0.0
 40
0.0
 40
0.0001035998
 40
0.0004124444
 40
0.0009259856
 40
0.0016436751
 40
0.0025649648
 40
0.0036893064
 40
0.0065439876
 40
0.0101970524
 40
0.0146360177
 40
0.0198480595
 40
0.0258165997
 40
0.0325227554
 40
0.0399475948
 40
0.0568695637
 40
0.0764034094
 40
0.0983656703
 40
0.1225715486
 40
0.1488418377
 40
0.1770028834
 40
0.2068928368
 40
0.2712600149
 40
0.3408658531
 40
0.4148022073
 40
0.4923035997
 40
0.5727160198
 40
0.6554678337
 40
0.7400452989
 40
0.825965808
 40
1.0
 40
1.0
 40
1.0
 40
1.0
 10
-2.2209970836
 20
12.3236709252
 30
0.0
 10
-2.2210049125
 20
12.3236725955
 30
0.0
 10
-2.2210339068
 20
12.3236866497
 30
0.0
 10
-2.2211016164
 20
12.3237092781
 30
0.0
 10
-2.2212124798
 20
12.3237528864
 30
0.0
 10
-2.221368259
 20
12.323811015
 30
0.0
 10
-2.2215679251
 20
12.3238867292
 30
0.0
 10
-2.221922195
 20
12.3240203525
 30
0.0
 10
-2.2224739409
 20
12.3242285779
 30
0.0
 10
-2.2232656034
 20
12.3245264251
 30
0.0
 10
-2.2242281185
 20
12.3248874433
 30
0.0
 10
-2.2253586614
 20
12.3253099301
 30
0.0
 10
-2.226653998
 20
12.3257918808
 30
0.0
 10
-2.2281104903
 20
12.3263310091
 30
0.0
 10
-2.2303622322
 20
12.3271598208
 30
0.0
 10
-2.2335478462
 20
12.3283209392
 30
0.0
 10
-2.2377961959
 20
12.3298463993
 30
0.0
 10
-2.2425836444
 20
12.3315357068
 30
0.0
 10
-2.2478735733
 20
12.3333649783
 30
0.0
 10
-2.2536299791
 20
12.3353104454
 30
0.0
 10
-2.2598184787
 20
12.3373486156
 30
0.0
 10
-2.2688276671
 20
12.3402315584
 30
0.0
 10
-2.2809407809
 20
12.3439205792
 30
0.0
 10
-2.2964053659
 20
12.3482762304
 30
0.0
 10
-2.3129529788
 20
12.3525139641
 30
0.0
 10
-2.3304217758
 20
12.3564970102
 30
0.0
 10
-2.3486679717
 20
12.3601017798
 30
0.0
 10
-2.3675587331
 20
12.3632179594
 30
0.0
 10
-2.3869670305
 20
12.3657495079
 30
0.0
 10
-2.4134745699
 20
12.3682518694
 30
0.0
 10
-2.4335716637
 20
12.3690213042
 30
0.0
 10
-2.4470191039
 20
12.3690213315
 30
0.0
  0
SPLINE
  5
40E
100
AcDbEntity
  8
0
100
AcDbSpline
 62
9
  6
CONTINUOUS
 70
0
 71
3
 72
11
 73
7
 74
0
 42
0.0000001
 43
0.0000001
 44
0.0000000001
 40
0.0
 40
0.0
 40
0.0
 40
0.0
 40
0.2501878287
 40
0.5050738704
 40
0.7571418959
 40
1.0
 40
1.0
 40
1.0
 40
1.0
 10
-1.4903115154
 20
12.082277597
 30
0.0
 10
-1.491929878
 20
12.082234835
 30
0.0
 10
-1.4952172356
 20
12.082555019
 30
0.0
 10
-1.4999007191
 20
12.0841576055
 30
0.0
 10
-1.503964035
 20
12.0869031046
 30
0.0
 10
-1.50613288
 20
12.0893120266
 30
0.0
 10
-1.5070190826
 20
12.0906098134
 30
0.0
  0
SPLINE
  5
40F
100
AcDbEntity
  8
0
100
AcDbSpline
 62
9
  6
CONTINUOUS
 70
0
 71
3
 72
20
 73
16
 74
0
 42
0.0000001
 43
0.0000001
 44
0.0000000001
 40
0.0
 40
0.0
 40
0.0
 40
0.0
 40
0.1508878143
 40
0.299238963
 40
0.4424016262
 40
0.5112213616
 40
0.5777702371
 40
0.6417552488
 40
0.7029397305
 40
0.761100725
 40
0.8160188217
 40
0.8674963902
 40
0.91539941
 40
0.959607086
 40
1.0
 40
1.0
 40
1.0
 40
1.0
 10
-1.2535819774
 20
12.8681095621
 30
0.0
 10
-1.2557594857
 20
12.8808944785
 30
0.0
 10
-1.2597861145
 20
12.906300997
 30
0.0
 10
-1.2645463599
 20
12.9440350273
 30
0.0
 10
-1.2671134246
 20
12.9749126038
 30
0.0
 10
-1.2681784871
 20
12.9988315863
 30
0.0
 10
-1.268457077
 20
13.0159667158
 30
0.0
 10
-1.2682017522
 20
13.0324461172
 30
0.0
 10
-1.2674357942
 20
13.0481880473
 30
0.0
 10
-1.2661837977
 20
13.0631171091
 30
0.0
 10
-1.2644703422
 20
13.0771605842
 30
0.0
 10
-1.2623178476
 20
13.0902510152
 30
0.0
 10
-1.259781985
 20
13.1023337222
 30
0.0
 10
-1.2569190606
 20
13.1133612657
 30
0.0
 10
-1.2547286178
 20
13.1202997064
 30
0.0
 10
-1.2535819774
 20
13.1235767195
 30
0.0
  0
SPLINE
  5
410
100
AcDbEntity
  8
0
100
AcDbSpline
 62
7
  6
CONTINUOUS
 70
0
 71
3
 72
11
 73
7
 74
0
 42
0.0000001
 43
0.0000001
 44
0.0000000001
 40
0.0
 40
0.0
 40
0.0
 40
0.0
 40
0.2494597595
 40
0.5035837672
 40
0.7557699559
 40
1.0
 40
1.0
 40
1.0
 40
1.0
 10
19.9634791222
 20
6.4903547744
 30
0.0
 10
19.96503872
 20
6.4903547744
 30
0.0
 10
19.9681959751
 20
6.4907431931
 30
0.0
 10
19.9726775631
 20
6.4923737335
 30
0.0
 10
19.9765954431
 20
6.4950342845
 30
0.0
 10
19.9787315185
 20
6.4973280389
 30
0.0
 10
19.9796318983
 20
6.4985612244
 30
0.0
  0
SPLINE
  5
411
100
AcDbEntity
  8
0
100
AcDbSpline
 62
7
  6
CONTINUOUS
 70
0
 71
3
 72
11
 73
7
 74
0
 42
0.0000001
 43
0.0000001
 44
0.0000000001
 40
0.0
 40
0.0
 40
0.0
 40
0.0
 40
0.2494597595
 40
0.5035837672
 40
0.7557699559
 40
1.0
 40
1.0
 40
1.0
 40
1.0
 10
19.9634791222
 20
7.7569870759
 30
0.0
 10
19.96503872
 20
7.7569870759
 30
0.0
 10
19.9681959751
 20
7.7565986573
 30
0.0
 10
19.9726775631
 20
7.7549681169
 30
0.0
 10
19.9765954431
 20
7.7523075658
 30
0.0
 10
19.9787315185
 20
7.7500138114
 30
0.0
 10
19.9796318983
 20
7.748780626
 30
0.0
  0
SPLINE
  5
412
100
AcDbEntity
  8
0
100
AcDbSpline
 62
7
  6
CONTINUOUS
 70
0
 71
3
 72
23
 73
19
 74
0
 42
0.0000001
 43
0.0000001
 44
0.0000000001
 40
0.0
 40
0.0
 40
0.0
 40
0.0
 40
0.0550699053
 40
0.1128208323
 40
0.1729116732
 40
0.2351790387
 40
0.2995341443
 40
0.3654783957
 40
0.432481235
 40
0.49999997
 40
0.5675187062
 40
0.6345215489
 40
0.700465806
 40
0.7648209191
 40
0.8270882936
 40
0.8871791448
 40
0.944930083
 40
1.0
 40
1.0
 40
1.0
 40
1.0
 10
18.5749588756
 20
6.7436709252
 30
0.0
 10
18.5770432114
 20
6.7436709252
 30
0.0
 10
18.5813164226
 20
6.7434392018
 30
0.0
 10
18.5877891934
 20
6.7423949691
 30
0.0
 10
18.5943741963
 20
6.7405768461
 30
0.0
 10
18.6009395386
 20
6.7379168172
 30
0.0
 10
18.6073268565
 20
6.7343688145
 30
0.0
 10
18.6133809594
 20
6.7299637201
 30
0.0
 10
18.6189146032
 20
6.7247429114
 30
0.0
 10
18.6237878911
 20
6.7188227906
 30
0.0
 10
18.6278557656
 20
6.7123228548
 30
0.0
 10
18.6310509321
 20
6.7054185826
 30
0.0
 10
18.6333073932
 20
6.6982795763
 30
0.0
 10
18.6346453232
 20
6.6910965331
 30
0.0
 10
18.6350846784
 20
6.6840264232
 30
0.0
 10
18.6347193957
 20
6.6772048091
 30
0.0
 10
18.633655826
 20
6.6707351862
 30
0.0
 10
18.6325196649
 20
6.6666092712
 30
0.0
 10
18.6318582952
 20
6.6646326458
 30
0.0
  0
SPLINE
  5
413
100
AcDbEntity
  8
0
100
AcDbSpline
 62
7
  6
CONTINUOUS
 70
0
 71
3
 72
23
 73
19
 74
0
 42
0.0000001
 43
0.0000001
 44
0.0000000001
 40
0.0
 40
0.0
 40
0.0
 40
0.0
 40
0.0550699069
 40
0.1128208355
 40
0.1729116779
 40
0.2351790447
 40
0.2995341513
 40
0.3654784036
 40
0.4324812434
 40
0.4999999786
 40
0.5675187146
 40
0.6345215569
 40
0.7004658132
 40
0.7648209252
 40
0.8270882984
 40
0.8871791482
 40
0.9449300847
 40
1.0
 40
1.0
 40
1.0
 40
1.0
 10
19.0270029171
 20
6.7436709252
 30
0.0
 10
19.0249185811
 20
6.7436709252
 30
0.0
 10
19.0206453698
 20
6.7434392018
 30
0.0
 10
19.0141725988
 20
6.742394969
 30
0.0
 10
19.0075875958
 20
6.740576846
 30
0.0
 10
19.0010222533
 20
6.737916817
 30
0.0
 10
18.9946349353
 20
6.7343688142
 30
0.0
 10
18.9885808323
 20
6.7299637197
 30
0.0
 10
18.9830471886
 20
6.7247429108
 30
0.0
 10
18.9781739007
 20
6.7188227899
 30
0.0
 10
18.9741060263
 20
6.7123228541
 30
0.0
 10
18.9709108599
 20
6.7054185819
 30
0.0
 10
18.9686543989
 20
6.6982795756
 30
0.0
 10
18.967316469
 20
6.6910965325
 30
0.0
 10
18.9668771138
 20
6.6840264227
 30
0.0
 10
18.9672423967
 20
6.6772048088
 30
0.0
 10
18.9683059663
 20
6.6707351861
 30
0.0
 10
18.9694421274
 20
6.6666092712
 30
0.0
 10
18.970103497
 20
6.6646326458
 30
0.0
  0
SPLINE
  5
414
100
AcDbEntity
  8
0
100
AcDbSpline
 62
9
  6
CONTINUOUS
 70
0
 71
3
 72
15
 73
11
 74
0
 42
0.0000001
 43
0.0000001
 44
0.0000000001
 40
0.0
 40
0.0
 40
0.0
 40
0.0
 40
0.1243757357
 40
0.2473912399
 40
0.3700938803
 40
0.4932023472
 40
0.6172400395
 40
0.7426661254
 40
0.8700070193
 40
1.0
 40
1.0
 40
1.0
 40
1.0
 10
19.9944180177
 20
7.5435767276
 30
0.0
 10
19.9967063043
 20
7.5501158583
 30
0.0
 10
20.0005737787
 20
7.5633707787
 30
0.0
 10
20.0044838655
 20
7.5836359404
 30
0.0
 10
20.0067189906
 20
7.6040791861
 30
0.0
 10
20.0074417192
 20
7.6246851058
 30
0.0
 10
20.0067082217
 20
7.6454420733
 30
0.0
 10
20.0044642653
 20
7.6663300593
 30
0.0
 10
20.0005496558
 20
7.6873103784
 30
0.0
 10
19.9966983822
 20
7.7011429765
 30
0.0
 10
19.9944180177
 20
7.7080153636
 30
0.0
  0
SPLINE
  5
415
100
AcDbEntity
  8
0
100
AcDbSpline
 62
9
  6
CONTINUOUS
 70
0
 71
3
 72
26
 73
22
 74
0
 42
0.0000001
 43
0.0000001
 44
0.0000000001
 40
0.0
 40
0.0
 40
0.0
 40
0.0
 40
0.226795182
 40
0.426869812
 40
0.5989175755
 40
0.6740184113
 40
0.741614704
 40
0.8015542116
 40
0.853746608
 40
0.8981169433
 40
0.9345900578
 40
0.9498416172
 40
0.9630905929
 40
0.9743275325
 40
0.9835429715
 40
0.9907274328
 40
0.9958714275
 40
0.9976752812
 40
0.9989654543
 40
0.9997407573
 40
1.0
 40
1.0
 40
1.0
 40
1.0
 10
19.9944173613
 20
7.7080163283
 30
0.0
 10
19.9933847874
 20
7.7111281658
 30
0.0
 10
19.9914057762
 20
7.7169735028
 30
0.0
 10
19.9885330954
 20
7.7251415267
 30
0.0
 10
19.9863241818
 20
7.7312179069
 30
0.0
 10
19.9847402696
 20
7.7354834667
 30
0.0
 10
19.983710155
 20
7.7382258123
 30
0.0
 10
19.9827892641
 20
7.7406553997
 30
0.0
 10
19.981981218
 20
7.7427686709
 30
0.0
 10
19.9812891455
 20
7.74456308
 30
0.0
 10
19.9807855538
 20
7.7458577958
 30
0.0
 10
19.980443095
 20
7.746732438
 30
0.0
 10
19.980232885
 20
7.7472670644
 30
0.0
 10
19.980053997
 20
7.7477202393
 30
0.0
 10
19.979906711
 20
7.7480916384
 30
0.0
 10
19.9797916863
 20
7.7483810597
 30
0.0
 10
19.9797155835
 20
7.7485706847
 30
0.0
 10
19.9796716781
 20
7.748681359
 30
0.0
 10
19.9796501667
 20
7.748733052
 30
0.0
 10
19.9796388011
 20
7.748764611
 30
0.0
 10
19.9796319903
 20
7.7487780892
 30
0.0
 10
19.9796310936
 20
7.7487817281
 30
0.0
  0
SPLINE
  5
416
100
AcDbEntity
  8
0
100
AcDbSpline
 62
9
  6
CONTINUOUS
 70
0
 71
3
 72
23
 73
19
 74
0
 42
0.0000001
 43
0.0000001
 44
0.0000000001
 40
0.0
 40
0.0
 40
0.0
 40
0.0
 40
0.0010329286
 40
0.0041247608
 40
0.0092660355
 40
0.0164473037
 40
0.0256591283
 40
0.0368920841
 40
0.0653837445
 40
0.1018471371
 40
0.1462073113
 40
0.1983895214
 40
0.2583192313
 40
0.3259066857
 40
0.4010008441
 40
0.5730471776
 40
0.7731453615
 40
1.0
 40
1.0
 40
1.0
 40
1.0
 10
19.979631681
 20
6.4985609267
 30
0.0
 10
19.9796359433
 20
6.498575238
 30
0.0
 10
19.9796614245
 20
6.4986294304
 30
0.0
 10
19.9797081866
 20
6.4987548431
 30
0.0
 10
19.9797926345
 20
6.4989611569
 30
0.0
 10
19.9799069748
 20
6.4992506746
 30
0.0
 10
19.9800544474
 20
6.4996218405
 30
0.0
 10
19.9803140858
 20
6.5002799184
 30
0.0
 10
19.9807163191
 20
6.5013052633
 30
0.0
 10
19.9812891477
 20
6.5027781091
 30
0.0
 10
19.9819810696
 20
6.5045721047
 30
0.0
 10
19.9827889518
 20
6.5066849646
 30
0.0
 10
19.9837096989
 20
6.5091141525
 30
0.0
 10
19.9847396953
 20
6.5118561421
 30
0.0
 10
19.9863235427
 20
6.51612145
 30
0.0
 10
19.988532554
 20
6.5221980116
 30
0.0
 10
19.9914056256
 20
6.5303671206
 30
0.0
 10
19.9933850044
 20
6.5362135806
 30
0.0
 10
19.9944178404
 20
6.5393262262
 30
0.0
  0
SPLINE
  5
417
100
AcDbEntity
  8
0
100
AcDbSpline
 62
9
  6
CONTINUOUS
 70
0
 71
3
 72
15
 73
11
 74
0
 42
0.0000001
 43
0.0000001
 44
0.0000000001
 40
0.0
 40
0.0
 40
0.0
 40
0.0
 40
0.1299929606
 40
0.2573337307
 40
0.3827596379
 40
0.5067980234
 40
0.6299071556
 40
0.7526098076
 40
0.8756249557
 40
1.0
 40
1.0
 40
1.0
 40
1.0
 10
19.9944180177
 20
6.5393264868
 30
0.0
 10
19.9966983986
 20
6.5461988683
 30
0.0
 10
20.0005496294
 20
6.5600314732
 30
0.0
 10
20.0044642472
 20
6.5810117745
 30
0.0
 10
20.0067081711
 20
6.6018997886
 30
0.0
 10
20.0074417483
 20
6.6226568192
 30
0.0
 10
20.0067191026
 20
6.643262824
 30
0.0
 10
20.004483953
 20
6.6637060862
 30
0.0
 10
20.0005738954
 20
6.6839712063
 30
0.0
 10
19.9967062495
 20
6.6972260126
 30
0.0
 10
19.9944180177
 20
6.7037651227
 30
0.0
  0
SPLINE
  5
418
100
AcDbEntity
  8
0
100
AcDbSpline
 62
9
  6
CONTINUOUS
 70
0
 71
3
 72
20
 73
16
 74
0
 42
0.0000001
 43
0.0000001
 44
0.0000000001
 40
0.0
 40
0.0
 40
0.0
 40
0.0
 40
0.0403680024
 40
0.0845293557
 40
0.1323762134
 40
0.1837993581
 40
0.2386739451
 40
0.2968023669
 40
0.3579630697
 40
0.4219310757
 40
0.4884691511
 40
0.5572891538
 40
0.7005106206
 40
0.8490058034
 40
1.0
 40
1.0
 40
1.0
 40
1.0
 10
19.9944180226
 20
6.7037651308
 30
0.0
 10
19.993271993
 20
6.7070400901
 30
0.0
 10
19.991082775
 20
6.7139724856
 30
0.0
 10
19.9882215647
 20
6.7249891643
 30
0.0
 10
19.9856875342
 20
6.7370584758
 30
0.0
 10
19.9835362052
 20
6.7501356713
 30
0.0
 10
19.9818225284
 20
6.7641678117
 30
0.0
 10
19.9805690935
 20
6.7790881368
 30
0.0
 10
19.9798008741
 20
6.7948236447
 30
0.0
 10
19.9795428659
 20
6.8112985743
 30
0.0
 10
19.9798187972
 20
6.8284313871
 30
0.0
 10
19.9808810113
 20
6.8523546622
 30
0.0
 10
19.983447377
 20
6.8832498645
 30
0.0
 10
19.9882100223
 20
6.9210104003
 30
0.0
 10
19.9922390742
 20
6.9464383384
 30
0.0
 10
19.9944180226
 20
6.9592322883
 30
0.0
  0
SPLINE
  5
419
100
AcDbEntity
  8
0
100
AcDbSpline
 62
9
  6
CONTINUOUS
 70
0
 71
3
 72
15
 73
11
 74
0
 42
0.0000001
 43
0.0000001
 44
0.0000000001
 40
0.0
 40
0.0
 40
0.0
 40
0.0
 40
0.1249927996
 40
0.2499912995
 40
0.3749944937
 40
0.4999999993
 40
0.6250055042
 40
0.7500086955
 40
0.8750071945
 40
1.0
 40
1.0
 40
1.0
 40
1.0
 10
19.9944180177
 20
6.9592322892
 30
0.0
 10
19.9967280718
 20
6.9727955656
 30
0.0
 10
20.0005973964
 20
7.0000545019
 30
0.0
 10
20.0044864094
 20
7.0411601449
 30
0.0
 10
20.0067156649
 20
7.0823890394
 30
0.0
 10
20.0074411239
 20
7.1236709247
 30
0.0
 10
20.0067156887
 20
7.1649528105
 30
0.0
 10
20.0044864063
 20
7.2061817036
 30
0.0
 10
20.0005973762
 20
7.2472873443
 30
0.0
 10
19.9967280753
 20
7.2745462847
 30
0.0
 10
19.9944180177
 20
7.2881095611
 30
0.0
  0
SPLINE
  5
41A
100
AcDbEntity
  8
0
100
AcDbSpline
 62
9
  6
CONTINUOUS
 70
0
 71
3
 72
19
 73
15
 74
0
 42
0.0000001
 43
0.0000001
 44
0.0000000001
 40
0.0
 40
0.0
 40
0.0
 40
0.0
 40
0.1503238416
 40
0.2981130097
 40
0.4408172792
 40
0.509479535
 40
0.575945293
 40
0.7011767076
 40
0.7594633286
 40
0.8145748919
 40
0.8663293767
 40
0.914569186
 40
0.9591668822
 40
1.0
 40
1.0
 40
1.0
 40
1.0
 10
19.9772090902
 20
7.2853290005
 30
0.0
 10
19.9751839779
 20
7.2987268565
 30
0.0
 10
19.9714363909
 20
7.3253389715
 30
0.0
 10
19.9670234053
 20
7.3648345818
 30
0.0
 10
19.9646276009
 20
7.3971303392
 30
0.0
 10
19.9636485002
 20
7.4221572657
 30
0.0
 10
19.9633229913
 20
7.4456250967
 30
0.0
 10
19.9639106258
 20
7.4681663414
 30
0.0
 10
19.9655023512
 20
7.4896204582
 30
0.0
 10
19.9671003767
 20
7.5044242201
 30
0.0
 10
19.9690965254
 20
7.5182652319
 30
0.0
 10
19.9714486115
 20
7.5310881631
 30
0.0
 10
19.9741086539
 20
7.5428433036
 30
0.0
 10
19.9761440954
 20
7.5502736642
 30
0.0
 10
19.9772090902
 20
7.5537968757
 30
0.0
  0
SPLINE
  5
41B
100
AcDbEntity
  8
0
100
AcDbSpline
 62
9
  6
CONTINUOUS
 70
0
 71
3
 72
12
 73
8
 74
0
 42
0.0000001
 43
0.0000001
 44
0.0000000001
 40
0.0
 40
0.0
 40
0.0
 40
0.0
 40
0.2500899493
 40
0.5082644574
 40
0.761717687
 40
0.8835638807
 40
1.0
 40
1.0
 40
1.0
 40
1.0
 10
19.9772090898
 20
7.5537968745
 30
0.0
 10
19.9789299966
 20
7.5536578453
 30
0.0
 10
19.9824009975
 20
7.5529526655
 30
0.0
 10
19.9872579529
 20
7.5508271268
 30
0.0
 10
19.9907584382
 20
7.5481261412
 30
0.0
 10
19.9930455727
 20
7.5456100565
 30
0.0
 10
19.9939996484
 20
7.5442630952
 30
0.0
 10
19.9944180173
 20
7.5435767265
 30
0.0
  0
SPLINE
  5
41C
100
AcDbEntity
  8
0
100
AcDbSpline
 62
9
  6
CONTINUOUS
 70
0
 71
3
 72
19
 73
15
 74
0
 42
0.0000001
 43
0.0000001
 44
0.0000000001
 40
0.0
 40
0.0
 40
0.0
 40
0.0
 40
0.0408331671
 40
0.085431148
 40
0.133670869
 40
0.1854253144
 40
0.2405369268
 40
0.2988235676
 40
0.4240549986
 40
0.4905207437
 40
0.5591829876
 40
0.7018872108
 40
0.8496762976
 40
1.0
 40
1.0
 40
1.0
 40
1.0
 10
19.9772090902
 20
6.6935449746
 30
0.0
 10
19.9761440162
 20
6.6970681671
 30
0.0
 10
19.9741083759
 20
6.704498506
 30
0.0
 10
19.9714482399
 20
6.7162536533
 30
0.0
 10
19.96909633
 20
6.7290766357
 30
0.0
 10
19.9671004771
 20
6.7429176814
 30
0.0
 10
19.9655022958
 20
6.7577214252
 30
0.0
 10
19.9639101803
 20
6.7791755273
 30
0.0
 10
19.963322967
 20
6.8017167977
 30
0.0
 10
19.9636486794
 20
6.8251846247
 30
0.0
 10
19.964627992
 20
6.8502115346
 30
0.0
 10
19.9670230816
 20
6.8825073393
 30
0.0
 10
19.9714370102
 20
6.9220028297
 30
0.0
 10
19.9751840936
 20
6.9486149878
 30
0.0
 10
19.9772090902
 20
6.9620128498
 30
0.0
  0
SPLINE
  5
41D
100
AcDbEntity
  8
0
100
AcDbSpline
 62
9
  6
CONTINUOUS
 70
0
 71
3
 72
13
 73
9
 74
0
 42
0.0000001
 43
0.0000001
 44
0.0000000001
 40
0.0
 40
0.0
 40
0.0
 40
0.0
 40
0.1221214836
 40
0.2484512422
 40
0.5058118416
 40
0.75993552
 40
0.8825562435
 40
1.0
 40
1.0
 40
1.0
 40
1.0
 10
19.9772090902
 20
6.6935449747
 30
0.0
 10
19.9780497516
 20
6.6936128903
 30
0.0
 10
19.9797533342
 20
6.6938534581
 30
0.0
 10
19.9831429306
 20
6.6947166711
 30
0.0
 10
19.987220441
 20
6.6964924051
 30
0.0
 10
19.9907292268
 20
6.6991898257
 30
0.0
 10
19.9930332394
 20
6.7017156195
 30
0.0
 10
19.993995865
 20
6.7030725465
 30
0.0
 10
19.9944180177
 20
6.7037651228
 30
0.0
  0
SPLINE
  5
41E
100
AcDbEntity
  8
0
100
AcDbSpline
 62
9
  6
CONTINUOUS
 70
0
 71
3
 72
23
 73
19
 74
0
 42
0.0000001
 43
0.0000001
 44
0.0000000001
 40
0.0
 40
0.0
 40
0.0
 40
0.0
 40
0.0010182725
 40
0.0040709363
 40
0.0091552243
 40
0.0162683706
 40
0.0254076103
 40
0.0365697416
 40
0.0649347188
 40
0.1012994977
 40
0.1455960394
 40
0.1977339647
 40
0.2576121893
 40
0.3251225172
 40
0.4001365625
 40
0.5721442427
 40
0.7725226368
 40
1.0
 40
1.0
 40
1.0
 40
1.0
 10
19.9634791222
 20
6.4903547744
 30
0.0
 10
19.9634852058
 20
6.49036832
 30
0.0
 10
19.9635027983
 20
6.4904251934
 30
0.0
 10
19.9635504833
 20
6.4905498121
 30
0.0
 10
19.9636243454
 20
6.4907596402
 30
0.0
 10
19.9637301381
 20
6.4910522179
 30
0.0
 10
19.9638648743
 20
6.4914286123
 30
0.0
 10
19.9641043243
 20
6.4920966691
 30
0.0
 10
19.9644763717
 20
6.4931389567
 30
0.0
 10
19.9650082052
 20
6.4946372441
 30
0.0
 10
19.9656521747
 20
6.4964635875
 30
0.0
 10
19.9664045656
 20
6.4986152701
 30
0.0
 10
19.9672612498
 20
6.5010890872
 30
0.0
 10
19.9682178568
 20
6.5038813145
 30
0.0
 10
19.9696879628
 20
6.5082260152
 30
0.0
 10
19.9717392841
 20
6.5144194638
 30
0.0
 10
19.9744094923
 20
6.522749627
 30
0.0
 10
19.9762491917
 20
6.5287116245
 30
0.0
 10
19.9772090902
 20
6.5318868993
 30
0.0
  0
SPLINE
  5
41F
100
AcDbEntity
  8
0
100
AcDbSpline
 62
9
  6
CONTINUOUS
 70
0
 71
3
 72
11
 73
7
 74
0
 42
0.0000001
 43
0.0000001
 44
0.0000000001
 40
0.0
 40
0.0
 40
0.0
 40
0.0
 40
0.2607692067
 40
0.3921405633
 40
0.521752323
 40
1.0
 40
1.0
 40
1.0
 40
1.0
 10
19.9772090897
 20
6.5318868978
 30
0.0
 10
19.9788983634
 20
6.5317504242
 30
0.0
 10
19.9814742626
 20
6.5318464016
 30
0.0
 10
19.9847986975
 20
6.5325563102
 30
0.0
 10
19.9893334616
 20
6.5341366475
 30
0.0
 10
19.9926770645
 20
6.5367516061
 30
0.0
 10
19.9944180172
 20
6.5393264853
 30
0.0
  0
SPLINE
  5
420
100
AcDbEntity
  8
0
100
AcDbSpline
 62
9
  6
CONTINUOUS
 70
0
 71
3
 72
22
 73
18
 74
0
 42
0.0000001
 43
0.0000001
 44
0.0000000001
 40
0.0
 40
0.0
 40
0.0
 40
0.0
 40
0.2274234618
 40
0.4278476816
 40
0.599877565
 40
0.7423966841
 40
0.802266807
 40
0.8543966707
 40
0.8986924646
 40
0.9350601345
 40
0.9634160593
 40
0.974575052
 40
0.9837153913
 40
0.9908325688
 40
0.9959220728
 40
0.998979389
 40
1.0
 40
1.0
 40
1.0
 40
1.0
 10
19.9772090902
 20
7.7154549511
 30
0.0
 10
19.9762494196
 20
7.718629472
 30
0.0
 10
19.9744097101
 20
7.7245913422
 30
0.0
 10
19.9717388053
 20
7.7329214942
 30
0.0
 10
19.9693783383
 20
7.7400505817
 30
0.0
 10
19.9676188387
 20
7.7452193403
 30
0.0
 10
19.9664044238
 20
7.7487265725
 30
0.0
 10
19.965652335
 20
7.7508780986
 30
0.0
 10
19.9650084257
 20
7.7527043708
 30
0.0
 10
19.9644764566
 20
7.7542025032
 30
0.0
 10
19.9641046304
 20
7.755244723
 30
0.0
 10
19.963865605
 20
7.7559127625
 30
0.0
 10
19.9637304245
 20
7.7562890226
 30
0.0
 10
19.9636255874
 20
7.7565821178
 30
0.0
 10
19.9635490699
 20
7.7567911754
 30
0.0
 10
19.9635055644
 20
7.7569175403
 30
0.0
 10
19.9634833851
 20
7.7569728164
 30
0.0
 10
19.9634791222
 20
7.7569870759
 30
0.0
  0
SPLINE
  5
421
100
AcDbEntity
  8
0
100
AcDbSpline
 62
9
  6
CONTINUOUS
 70
0
 71
3
 72
11
 73
7
 74
0
 42
0.0000001
 43
0.0000001
 44
0.0000000001
 40
0.0
 40
0.0
 40
0.0
 40
0.0
 40
0.2588283074
 40
0.3897018705
 40
0.5191722652
 40
1.0
 40
1.0
 40
1.0
 40
1.0
 10
19.9772090902
 20
7.7154549511
 30
0.0
 10
19.978885672
 20
7.7155903994
 30
0.0
 10
19.9814449609
 20
7.715497998
 30
0.0
 10
19.9847542574
 20
7.7147986824
 30
0.0
 10
19.989303889
 20
7.7132244071
 30
0.0
 10
19.9926677967
 20
7.7106039507
 30
0.0
 10
19.9944180177
 20
7.7080153636
 30
0.0
  0
SPLINE
  5
422
100
AcDbEntity
  8
0
100
AcDbSpline
 62
9
  6
CONTINUOUS
 70
0
 71
3
 72
15
 73
11
 74
0
 42
0.0000001
 43
0.0000001
 44
0.0000000001
 40
0.0
 40
0.0
 40
0.0
 40
0.0
 40
0.1285807938
 40
0.254608697
 40
0.3781183825
 40
0.4999904612
 40
0.6218634097
 40
0.7453775154
 40
0.8714137938
 40
1.0
 40
1.0
 40
1.0
 40
1.0
 10
19.7470920344
 20
7.5537967421
 30
0.0
 10
19.7443324923
 20
7.5604136995
 30
0.0
 10
19.7391369343
 20
7.5736333509
 30
0.0
 10
19.7328435772
 20
7.5937841205
 30
0.0
 10
19.728769998
 20
7.6141349962
 30
0.0
 10
19.7272898919
 20
7.6346242489
 30
0.0
 10
19.7287703486
 20
7.6551137199
 30
0.0
 10
19.7328441355
 20
7.6754653086
 30
0.0
 10
19.7391371118
 20
7.6956172443
 30
0.0
 10
19.7443324708
 20
7.7088378093
 30
0.0
 10
19.7470920344
 20
7.7154550846
 30
0.0
  0
SPLINE
  5
423
100
AcDbEntity
  8
0
100
AcDbSpline
 62
9
  6
CONTINUOUS
 70
0
 71
3
 72
18
 73
14
 74
0
 42
0.0000001
 43
0.0000001
 44
0.0000000001
 40
0.0
 40
0.0
 40
0.0
 40
0.0
 40
0.1270713498
 40
0.2525248707
 40
0.3770441694
 40
0.501097516
 40
0.5630745258
 40
0.6250650749
 40
0.687109594
 40
0.7492546566
 40
0.8115531196
 40
0.8740640256
 40
1.0
 40
1.0
 40
1.0
 40
1.0
 10
19.9772090902
 20
7.7154549511
 30
0.0
 10
19.979185348
 20
7.7093393504
 30
0.0
 10
19.9825656759
 20
7.6970026863
 30
0.0
 10
19.9860877242
 20
7.6782435287
 30
0.0
 10
19.9882693783
 20
7.6594381086
 30
0.0
 10
19.9890557868
 20
7.6437395514
 30
0.0
 10
19.9891061369
 20
7.6311938088
 30
0.0
 10
19.9888595426
 20
7.6217874007
 30
0.0
 10
19.9883159584
 20
7.6123849129
 30
0.0
 10
19.9874659101
 20
7.6029894843
 30
0.0
 10
19.9862991178
 20
7.5936039548
 30
0.0
 10
19.9843025303
 20
7.5810785039
 30
0.0
 10
19.9822729515
 20
7.5717521563
 30
0.0
 10
19.9806561656
 20
7.5655912042
 30
0.0
  0
SPLINE
  5
424
100
AcDbEntity
  8
0
100
AcDbSpline
 62
9
  6
CONTINUOUS
 70
0
 71
3
 72
15
 73
11
 74
0
 42
0.0000001
 43
0.0000001
 44
0.0000000001
 40
0.0
 40
0.0
 40
0.0
 40
0.0
 40
0.105463346
 40
0.2175945148
 40
0.3358805628
 40
0.4597864042
 40
0.5887616338
 40
0.722237964
 40
0.8595844078
 40
1.0
 40
1.0
 40
1.0
 40
1.0
 10
19.7576884849
 20
7.5081069744
 30
0.0
 10
19.7583551827
 20
7.5029552781
 30
0.0
 10
19.7595266753
 20
7.4922990289
 30
0.0
 10
19.7607717619
 20
7.4757991052
 30
0.0
 10
19.7615237849
 20
7.4583600942
 30
0.0
 10
19.7617717792
 20
7.4400772639
 30
0.0
 10
19.7615040531
 20
7.421046672
 30
0.0
 10
19.7607305
 20
7.4013676522
 30
0.0
 10
19.7594645755
 20
7.3811498915
 30
0.0
 10
19.7583273459
 20
7.3675148853
 30
0.0
 10
19.7576884849
 20
7.3606282049
 30
0.0
  0
SPLINE
  5
425
100
AcDbEntity
  8
0
100
AcDbSpline
 62
9
  6
CONTINUOUS
 70
0
 71
3
 72
13
 73
9
 74
0
 42
0.0000001
 43
0.0000001
 44
0.0000000001
 40
0.0
 40
0.0
 40
0.0
 40
0.0
 40
0.2884703357
 40
0.5667380184
 40
0.6937179688
 40
0.8094438483
 40
0.912112132
 40
1.0
 40
1.0
 40
1.0
 40
1.0
 10
19.7576884866
 20
7.3606282232
 30
0.0
 10
19.7560805969
 20
7.3607782698
 30
0.0
 10
19.7529122563
 20
7.3609762795
 30
0.0
 10
19.749025236
 20
7.360989826
 30
0.0
 10
19.7461130379
 20
7.3608168981
 30
0.0
 10
19.7441894962
 20
7.3606135648
 30
0.0
 10
19.7424955908
 20
7.3603430621
 30
0.0
 10
19.7414542706
 20
7.3601050787
 30
0.0
 10
19.740980898
 20
7.359970973
 30
0.0
  0
LINE
  5
426
100
AcDbEntity
  8
0
100
AcDbLine
 62
9
  6
CONTINUOUS
 10
19.0417114801
 20
6.4251717815
 11
19.0526167574
 21
6.411527835
  0
SPLINE
  5
427
100
AcDbEntity
  8
0
100
AcDbSpline
 62
7
  6
CONTINUOUS
 70
0
 71
3
 72
14
 73
10
 74
0
 42
0.0000001
 43
0.0000001
 44
0.0000000001
 40
0.0
 40
0.0
 40
0.0
 40
0.0
 40
0.1165352771
 40
0.2348399642
 40
0.355463047
 40
0.4790357595
 40
0.6056798676
 40
0.7352056192
 40
1.0
 40
1.0
 40
1.0
 40
1.0
 10
19.0111160067
 20
4.5551483862
 30
0.0
 10
19.0129950785
 20
4.5556471819
 30
0.0
 10
19.0166918818
 20
4.5570289963
 30
0.0
 10
19.0217818757
 20
4.5601359739
 30
0.0
 10
19.0263011668
 20
4.5642050621
 30
0.0
 10
19.0301200267
 20
4.5691102094
 30
0.0
 10
19.0331416816
 20
4.574712365
 30
0.0
 10
19.0360097125
 20
4.5829441776
 30
0.0
 10
19.0367109053
 20
4.5896149815
 30
0.0
 10
19.0365394179
 20
4.5940291917
 30
0.0
  0
SPLINE
  5
428
100
AcDbEntity
  8
0
100
AcDbSpline
 62
7
  6
CONTINUOUS
 70
0
 71
3
 72
14
 73
10
 74
0
 42
0.0000001
 43
0.0000001
 44
0.0000000001
 40
0.0
 40
0.0
 40
0.0
 40
0.0
 40
0.1163186345
 40
0.2354688163
 40
0.3574802632
 40
0.4824306566
 40
0.6099280056
 40
0.7393521126
 40
1.0
 40
1.0
 40
1.0
 40
1.0
 10
18.9422784917
 20
4.5551489834
 30
0.0
 10
18.9442079085
 20
4.5556507806
 30
0.0
 10
18.9480249874
 20
4.5570416992
 30
0.0
 10
18.9533423546
 20
4.5601446816
 30
0.0
 10
18.9581657049
 20
4.5642048868
 30
0.0
 10
18.9623580059
 20
4.5690990407
 30
0.0
 10
18.9658118861
 20
4.5746905252
 30
0.0
 10
18.9693033157
 20
4.5828696833
 30
0.0
 10
18.970548528
 20
4.5895653434
 30
0.0
 10
18.9707218755
 20
4.5940292612
 30
0.0
  0
SPLINE
  5
429
100
AcDbEntity
  8
0
100
AcDbSpline
 62
9
  6
CONTINUOUS
 70
0
 71
3
 72
27
 73
23
 74
0
 42
0.0000001
 43
0.0000001
 44
0.0000000001
 40
0.0
 40
0.0
 40
0.0
 40
0.0
 40
0.0762775317
 40
0.1495412265
 40
0.2190563636
 40
0.2842861708
 40
0.3448689006
 40
0.3733070876
 40
0.4005073455
 40
0.4515930543
 40
0.4759978649
 40
0.5000173901
 40
0.5240346486
 40
0.5484334639
 40
0.5994993126
 40
0.6266862835
 40
0.65511042
 40
0.7156714447
 40
0.7809000195
 40
0.8504293025
 40
0.9237113498
 40
1.0
 40
1.0
 40
1.0
 40
1.0
 10
18.9707218753
 20
6.4317602315
 30
0.0
 10
18.971854704
 20
6.4339358998
 30
0.0
 10
18.9741525384
 20
6.4381621743
 30
0.0
 10
18.9778132953
 20
6.4441845764
 30
0.0
 10
18.9816450612
 20
6.4496748699
 30
0.0
 10
18.9856601526
 20
6.4545161448
 30
0.0
 10
18.9892330798
 20
6.4579793507
 30
0.0
 10
18.9922019006
 20
6.4602574999
 30
0.0
 10
18.9951026218
 20
6.4620968291
 30
0.0
 10
18.9981649236
 20
6.4634272245
 30
0.0
 10
19.0013010899
 20
6.4641053747
 30
0.0
 10
19.0036326366
 20
6.4642770831
 30
0.0
 10
19.0059639635
 20
6.4641050325
 30
0.0
 10
19.0090991417
 20
6.4634265967
 30
0.0
 10
19.0121601093
 20
6.4620964493
 30
0.0
 10
19.0150596916
 20
6.4602581772
 30
0.0
 10
19.0180275326
 20
6.4579813467
 30
0.0
 10
19.0215999086
 20
6.4545192551
 30
0.0
 10
19.0256146389
 20
6.4496780293
 30
0.0
 10
19.0294467852
 20
6.4441867826
 30
0.0
 10
19.0331082642
 20
6.438163182
 30
0.0
 10
19.0354067081
 20
6.4339361629
 30
0.0
 10
19.036539806
 20
6.4317602315
 30
0.0
  0
SPLINE
  5
42A
100
AcDbEntity
  8
0
100
AcDbSpline
 62
9
  6
CONTINUOUS
 70
0
 71
3
 72
14
 73
10
 74
0
 42
0.0000001
 43
0.0000001
 44
0.0000000001
 40
0.0
 40
0.0
 40
0.0
 40
0.0
 40
0.084053045
 40
0.1837201091
 40
0.2972491059
 40
0.422802245
 40
0.5582242244
 40
0.7012057078
 40
1.0
 40
1.0
 40
1.0
 40
1.0
 10
18.9707218753
 20
4.5940291769
 30
0.0
 10
18.9678236
 20
4.5943297313
 30
0.0
 10
18.9614725545
 20
4.5948307726
 30
0.0
 10
18.9511793235
 20
4.5953321563
 30
0.0
 10
18.9394390879
 20
4.5956340328
 30
0.0
 10
18.9264561684
 20
4.5957301908
 30
0.0
 10
18.9124523688
 20
4.5956182196
 30
0.0
 10
18.8924472743
 20
4.5951848922
 30
0.0
 10
18.8771430685
 20
4.594565327
 30
0.0
 10
18.8667988268
 20
4.59402919
 30
0.0
  0
SPLINE
  5
42B
100
AcDbEntity
  8
0
100
AcDbSpline
 62
9
  6
CONTINUOUS
 70
0
 71
3
 72
20
 73
16
 74
0
 42
0.0000001
 43
0.0000001
 44
0.0000000001
 40
0.0
 40
0.0
 40
0.0
 40
0.0
 40
0.0501843223
 40
0.1008698438
 40
0.1524619556
 40
0.2054286717
 40
0.2602183935
 40
0.3172213688
 40
0.3767142238
 40
0.4388123364
 40
0.5034534262
 40
0.570414072
 40
0.7097777813
 40
0.8538973806
 40
1.0
 40
1.0
 40
1.0
 40
1.0
 10
18.9707218753
 20
6.4317602315
 30
0.0
 10
18.9695455525
 20
6.4302537476
 30
0.0
 10
18.9670229546
 20
6.4273449577
 30
0.0
 10
18.9627504331
 20
6.4233949466
 30
0.0
 10
18.9579617596
 20
6.4199029734
 30
0.0
 10
18.9526523793
 20
6.4169326691
 30
0.0
 10
18.9468325393
 20
6.4145459099
 30
0.0
 10
18.9405315858
 20
6.4127995142
 30
0.0
 10
18.933798657
 20
6.4117386282
 30
0.0
 10
18.9267015516
 20
6.4113916724
 30
0.0
 10
18.919322304
 20
6.4117672744
 30
0.0
 10
18.9090946302
 20
6.4132320685
 30
0.0
 10
18.8961690273
 20
6.4167863799
 30
0.0
 10
18.8810981061
 20
6.4232536774
 30
0.0
 10
18.8714846913
 20
6.4287591228
 30
0.0
 10
18.8667988268
 20
6.4317602315
 30
0.0
  0
SPLINE
  5
42C
100
AcDbEntity
  8
0
100
AcDbSpline
 62
9
  6
CONTINUOUS
 70
0
 71
3
 72
10
 73
6
 74
0
 42
0.0000001
 43
0.0000001
 44
0.0000000001
 40
0.0
 40
0.0
 40
0.0
 40
0.0
 40
0.5208138301
 40
0.7670099965
 40
1.0
 40
1.0
 40
1.0
 40
1.0
 10
18.9610965598
 20
6.444452418
 30
0.0
 10
18.9631248838
 20
6.4425536245
 30
0.0
 10
18.9659007889
 20
6.4395116257
 30
0.0
 10
18.9689401635
 20
6.4351210914
 30
0.0
 10
18.9701839226
 20
6.4328807244
 30
0.0
 10
18.9707218755
 20
6.4317602318
 30
0.0
  0
SPLINE
  5
42D
100
AcDbEntity
  8
0
100
AcDbSpline
 62
9
  6
CONTINUOUS
 70
0
 71
3
 72
12
 73
8
 74
0
 42
0.0000001
 43
0.0000001
 44
0.0000000001
 40
0.0
 40
0.0
 40
0.0
 40
0.0
 40
0.2498269253
 40
0.3749250614
 40
0.5000237
 40
0.7499920027
 40
1.0
 40
1.0
 40
1.0
 40
1.0
 10
18.8009808964
 20
6.4769123113
 30
0.0
 10
18.8081539409
 20
6.47691291
 30
0.0
 10
18.8189637249
 20
6.4756298459
 30
0.0
 10
18.8327763086
 20
6.4716595263
 30
0.0
 10
18.8461457085
 20
6.4663574853
 30
0.0
 10
18.8618985344
 20
6.4576007882
 30
0.0
 10
18.8734451098
 20
6.4490159826
 30
0.0
 10
18.8789859631
 20
6.4444524177
 30
0.0
  0
SPLINE
  5
42E
100
AcDbEntity
  8
0
100
AcDbSpline
 62
9
  6
CONTINUOUS
 70
0
 71
3
 72
11
 73
7
 74
0
 42
0.0000001
 43
0.0000001
 44
0.0000000001
 40
0.0
 40
0.0
 40
0.0
 40
0.0
 40
0.2499678824
 40
0.5000002315
 40
0.7499768998
 40
1.0
 40
1.0
 40
1.0
 40
1.0
 10
18.7229758293
 20
6.4444524177
 30
0.0
 10
18.7285144741
 20
6.449013526
 30
0.0
 10
18.7400596653
 20
6.4575973746
 30
0.0
 10
18.7589431448
 20
6.4681018472
 30
0.0
 10
18.7794037009
 20
6.4752065673
 30
0.0
 10
18.7938043345
 20
6.4769131456
 30
0.0
 10
18.8009808964
 20
6.4769123112
 30
0.0
  0
SPLINE
  5
42F
100
AcDbEntity
  8
0
100
AcDbSpline
 62
9
  6
CONTINUOUS
 70
0
 71
3
 72
14
 73
10
 74
0
 42
0.0000001
 43
0.0000001
 44
0.0000000001
 40
0.0
 40
0.0
 40
0.0
 40
0.0
 40
0.2987942884
 40
0.4417757555
 40
0.5771976972
 40
0.7027508762
 40
0.8162799252
 40
0.9159466126
 40
1.0
 40
1.0
 40
1.0
 40
1.0
 10
18.7351629655
 20
4.5940291894
 30
0.0
 10
18.7248187503
 20
4.5945658506
 30
0.0
 10
18.7095145093
 20
4.5951847277
 30
0.0
 10
18.6895094241
 20
4.5956182551
 30
0.0
 10
18.6755056231
 20
4.5957302691
 30
0.0
 10
18.6625227003
 20
4.5956340677
 30
0.0
 10
18.650782478
 20
4.595332032
 30
0.0
 10
18.6404892389
 20
4.5948309355
 30
0.0
 10
18.6341381724
 20
4.5943300083
 30
0.0
 10
18.631239917
 20
4.5940291444
 30
0.0
  0
SPLINE
  5
430
100
AcDbEntity
  8
0
100
AcDbSpline
 62
9
  6
CONTINUOUS
 70
0
 71
3
 72
26
 73
22
 74
0
 42
0.0000001
 43
0.0000001
 44
0.0000000001
 40
0.0
 40
0.0
 40
0.0
 40
0.0
 40
0.0501819757
 40
0.1008528914
 40
0.1524340486
 40
0.2053892483
 40
0.2325282127
 40
0.2601751532
 40
0.2883818215
 40
0.3171915348
 40
0.3466224143
 40
0.376689933
 40
0.4387721098
 40
0.5033969996
 40
0.5703357933
 40
0.6045852336
 40
0.6392772041
 40
0.7097783253
 40
0.7814595795
 40
0.8539342928
 40
1.0
 40
1.0
 40
1.0
 40
1.0
 10
18.631239917
 20
6.4317602315
 30
0.0
 10
18.6324152912
 20
6.4302525186
 30
0.0
 10
18.6349375602
 20
6.4273428893
 30
0.0
 10
18.6392109096
 20
6.4233931039
 30
0.0
 10
18.6439987167
 20
6.4199006177
 30
0.0
 10
18.648387075
 20
6.4174430362
 30
0.0
 10
18.6521377436
 20
6.4157707121
 30
0.0
 10
18.6551002056
 20
6.414660493
 30
0.0
 10
18.6581830678
 20
6.4137066391
 30
0.0
 10
18.6613805872
 20
6.4129111078
 30
0.0
 10
18.6646876282
 20
6.4122836209
 30
0.0
 10
18.6692829025
 20
6.4116846729
 30
0.0
 10
18.6752605975
 20
6.411417507
 30
0.0
 10
18.6826395898
 20
6.4117630606
 30
0.0
 10
18.6889015096
 20
6.4126649231
 30
0.0
 10
18.6939703451
 20
6.4137196032
 30
0.0
 10
18.6991269476
 20
6.4150009085
 30
0.0
 10
18.7055694886
 20
6.4169971343
 30
0.0
 10
18.7131974084
 20
6.4199616585
 30
0.0
 10
18.7232346939
 20
6.4246098723
 30
0.0
 10
18.7304791007
 20
6.4287560466
 30
0.0
 10
18.7351629655
 20
6.4317602316
 30
0.0
  0
SPLINE
  5
431
100
AcDbEntity
  8
0
100
AcDbSpline
 62
7
  6
CONTINUOUS
 70
0
 71
3
 72
14
 73
10
 74
0
 42
0.0000001
 43
0.0000001
 44
0.0000000001
 40
0.0
 40
0.0
 40
0.0
 40
0.0
 40
0.1163187799
 40
0.2354688177
 40
0.3574803146
 40
0.4824307532
 40
0.6099281437
 40
0.7393522678
 40
1.0
 40
1.0
 40
1.0
 40
1.0
 10
18.659683765
 20
4.5551483237
 30
0.0
 10
18.6577543244
 20
4.555650121
 30
0.0
 10
18.6539372054
 20
4.5570410588
 30
0.0
 10
18.6486197971
 20
4.5601440992
 30
0.0
 10
18.6437964123
 20
4.5642043639
 30
0.0
 10
18.6396040945
 20
4.5690985958
 30
0.0
 10
18.6361502195
 20
4.5746901663
 30
0.0
 10
18.6326588233
 20
4.5828694381
 30
0.0
 10
18.6314136747
 20
4.5895651813
 30
0.0
 10
18.6312403755
 20
4.5940291447
 30
0.0
  0
SPLINE
  5
432
100
AcDbEntity
  8
0
100
AcDbSpline
 62
7
  6
CONTINUOUS
 70
0
 71
3
 72
14
 73
10
 74
0
 42
0.0000001
 43
0.0000001
 44
0.0000000001
 40
0.0
 40
0.0
 40
0.0
 40
0.0
 40
0.1165354978
 40
0.2348399554
 40
0.3554630666
 40
0.4790357601
 40
0.6056798001
 40
0.7352055158
 40
1.0
 40
1.0
 40
1.0
 40
1.0
 10
18.5908456578
 20
4.5551489815
 30
0.0
 10
18.5889665911
 20
4.5556477583
 30
0.0
 10
18.5852698006
 20
4.557029529
 30
0.0
 10
18.5801798183
 20
4.5601364452
 30
0.0
 10
18.575660518
 20
4.5642054531
 30
0.0
 10
18.5718416318
 20
4.5691105239
 30
0.0
 10
18.5688199377
 20
4.574712605
 30
0.0
 10
18.5659518289
 20
4.5829443263
 30
0.0
 10
18.5652505617
 20
4.5896150742
 30
0.0
 10
18.5654219821
 20
4.5940292578
 30
0.0
  0
SPLINE
  5
433
100
AcDbEntity
  8
0
100
AcDbSpline
 62
9
  6
CONTINUOUS
 70
0
 71
3
 72
27
 73
23
 74
0
 42
0.0000001
 43
0.0000001
 44
0.0000000001
 40
0.0
 40
0.0
 40
0.0
 40
0.0
 40
0.0762792745
 40
0.1495443094
 40
0.2190610439
 40
0.2842934052
 40
0.3448795881
 40
0.3733189045
 40
0.4005192772
 40
0.451602049
 40
0.4760050165
 40
0.5000231438
 40
0.5240396309
 40
0.5484380277
 40
0.5995032011
 40
0.6266897649
 40
0.6551134876
 40
0.7156737105
 40
0.7809014333
 40
0.8504298857
 40
0.9237113596
 40
1.0
 40
1.0
 40
1.0
 40
1.0
 10
18.5654219864
 20
6.4317602316
 30
0.0
 10
18.5665548367
 20
6.4339359568
 30
0.0
 10
18.5688527057
 20
6.4381623352
 30
0.0
 10
18.5725135312
 20
6.4441848869
 30
0.0
 10
18.5763454116
 20
6.4496753319
 30
0.0
 10
18.5803606992
 20
6.4545167774
 30
0.0
 10
18.5839338204
 20
6.4579801271
 30
0.0
 10
18.586902786
 20
6.4602583477
 30
0.0
 10
18.5898034989
 20
6.4620976024
 30
0.0
 10
18.5928657552
 20
6.463427774
 30
0.0
 10
18.5960017932
 20
6.4641056081
 30
0.0
 10
18.5983332269
 20
6.4642771113
 30
0.0
 10
18.6006644621
 20
6.4641049488
 30
0.0
 10
18.6037995686
 20
6.4634264561
 30
0.0
 10
18.6068604979
 20
6.4620963332
 30
0.0
 10
18.6097600243
 20
6.4602580479
 30
0.0
 10
18.6127277919
 20
6.4579811965
 30
0.0
 10
18.6163000691
 20
6.4545190882
 30
0.0
 10
18.6203147418
 20
6.4496779072
 30
0.0
 10
18.6241468731
 20
6.4441867243
 30
0.0
 10
18.6278083655
 20
6.4381631702
 30
0.0
 10
18.6301068166
 20
6.4339361662
 30
0.0
 10
18.631239917
 20
6.4317602315
 30
0.0
  0
LINE
  5
434
100
AcDbEntity
  8
0
100
AcDbLine
 62
9
  6
CONTINUOUS
 10
18.5654219863
 20
4.5940291707
 11
18.5493460662
 21
4.5956954216
  0
SPLINE
  5
435
100
AcDbEntity
  8
0
100
AcDbSpline
 62
9
  6
CONTINUOUS
 70
0
 71
3
 72
10
 73
6
 74
0
 42
0.0000001
 43
0.0000001
 44
0.0000000001
 40
0.0
 40
0.0
 40
0.0
 40
0.0
 40
0.2305659272
 40
0.6005544969
 40
1.0
 40
1.0
 40
1.0
 40
1.0
 10
18.5628601684
 20
6.4444524224
 30
0.0
 10
18.562752117
 20
6.4434520339
 30
0.0
 10
18.5627041821
 20
6.4408182743
 30
0.0
 10
18.5634628432
 20
6.4364881931
 30
0.0
 10
18.564667516
 20
6.4333317162
 30
0.0
 10
18.5654219899
 20
6.4317602361
 30
0.0
  0
SPLINE
  5
436
100
AcDbEntity
  8
0
100
AcDbSpline
 62
9
  6
CONTINUOUS
 70
0
 71
3
 72
10
 73
6
 74
0
 42
0.0000001
 43
0.0000001
 44
0.0000000001
 40
0.0
 40
0.0
 40
0.0
 40
0.0
 40
0.5208138314
 40
0.7670099979
 40
1.0
 40
1.0
 40
1.0
 40
1.0
 10
18.6408652411
 20
6.4444524049
 30
0.0
 10
18.6388369168
 20
6.4425536115
 30
0.0
 10
18.6360610113
 20
6.4395116126
 30
0.0
 10
18.633021636
 20
6.4351210784
 30
0.0
 10
18.6317778767
 20
6.4328807113
 30
0.0
 10
18.6312399237
 20
6.4317602186
 30
0.0
  0
SPLINE
  5
437
100
AcDbEntity
  8
0
100
AcDbSpline
 62
9
  6
CONTINUOUS
 70
0
 71
3
 72
10
 73
6
 74
0
 42
0.0000001
 43
0.0000001
 44
0.0000000001
 40
0.0
 40
0.0
 40
0.0
 40
0.0
 40
0.2305658846
 40
0.6005544386
 40
1.0
 40
1.0
 40
1.0
 40
1.0
 10
19.0391016335
 20
6.4444524052
 30
0.0
 10
19.0392096849
 20
6.4434520169
 30
0.0
 10
19.03925762
 20
6.4408182576
 30
0.0
 10
19.0384989593
 20
6.4364881763
 30
0.0
 10
19.0372942865
 20
6.4333316992
 30
0.0
 10
19.0365398125
 20
6.4317602189
 30
0.0
  0
SPLINE
  5
438
100
AcDbEntity
  8
0
100
AcDbSpline
 62
9
  6
CONTINUOUS
 70
0
 71
3
 72
14
 73
10
 74
0
 42
0.0000001
 43
0.0000001
 44
0.0000000001
 40
0.0
 40
0.0
 40
0.0
 40
0.0
 40
0.1049932848
 40
0.2167507569
 40
0.3347942484
 40
0.4586365
 40
0.5877567426
 40
0.7215015903
 40
1.0
 40
1.0
 40
1.0
 40
1.0
 10
19.7409814917
 20
7.5004326873
 30
0.0
 10
19.7416966513
 20
7.4955569761
 30
0.0
 10
19.7429483953
 20
7.4854576048
 30
0.0
 10
19.7442765056
 20
7.4697968584
 30
0.0
 10
19.745089854
 20
7.4532151368
 30
0.0
 10
19.7453616395
 20
7.4358009425
 30
0.0
 10
19.7450667479
 20
7.4176502626
 30
0.0
 10
19.7439371032
 20
7.3922640172
 30
0.0
 10
19.7423350579
 20
7.3729722234
 30
0.0
 10
19.7409814917
 20
7.3599711148
 30
0.0
  0
SPLINE
  5
439
100
AcDbEntity
  8
0
100
AcDbSpline
 62
9
  6
CONTINUOUS
 70
0
 71
3
 72
19
 73
15
 74
0
 42
0.0000001
 43
0.0000001
 44
0.0000000001
 40
0.0
 40
0.0
 40
0.0
 40
0.0
 40
0.1321836866
 40
0.2613462139
 40
0.3247383267
 40
0.3873739739
 40
0.4493348558
 40
0.5107477179
 40
0.5717890229
 40
0.6326410713
 40
0.6934560744
 40
0.7543551295
 40
0.8767152444
 40
1.0
 40
1.0
 40
1.0
 40
1.0
 10
19.7312025867
 20
6.7024040331
 30
0.0
 10
19.7286451451
 20
6.6953764362
 30
0.0
 10
19.7238415276
 20
6.6813866241
 30
0.0
 10
19.7189752798
 20
6.6636482729
 30
0.0
 10
19.7161294602
 20
6.6494881727
 30
0.0
 10
19.7145650181
 20
6.6389630782
 30
0.0
 10
19.7135973875
 20
6.6284779395
 30
0.0
 10
19.7132736352
 20
6.6180424579
 30
0.0
 10
19.7136125399
 20
6.6076704292
 30
0.0
 10
19.7145738915
 20
6.597372267
 30
0.0
 10
19.7161267173
 20
6.5871551373
 30
0.0
 10
19.7189473708
 20
6.5736310785
 30
0.0
 10
19.7237881355
 20
6.5569507654
 30
0.0
 10
19.7286274482
 20
6.5439146201
 30
0.0
 10
19.7312025867
 20
6.537432383
 30
0.0
  0
SPLINE
  5
43A
100
AcDbEntity
  8
0
100
AcDbSpline
 62
9
  6
CONTINUOUS
 70
0
 71
3
 72
32
 73
28
 74
0
 42
0.0000001
 43
0.0000001
 44
0.0000000001
 40
0.0
 40
0.0
 40
0.0
 40
0.0
 40
0.0004093678
 40
0.00091858
 40
0.0016292554
 40
0.0036503305
 40
0.0064632648
 40
0.0100587337
 40
0.014427416
 40
0.0195599949
 40
0.0254471571
 40
0.0394323813
 40
0.0562306888
 40
0.0756744122
 40
0.0975963181
 40
0.1218285979
 40
0.1481998263
 40
0.2066733579
 40
0.2716895825
 40
0.3420673882
 40
0.4167349459
 40
0.49484726
 40
0.5756598057
 40
0.6584963112
 40
0.7427781029
 40
0.8280520972
 40
1.0
 40
1.0
 40
1.0
 40
1.0
 10
18.6318582535
 20
6.664632521
 30
0.0
 10
18.6318803421
 20
6.6646429574
 30
0.0
 10
18.6319269007
 20
6.664672199
 30
0.0
 10
18.6320123559
 20
6.6647184986
 30
0.0
 10
18.6321807625
 20
6.664813674
 30
0.0
 10
18.6324699213
 20
6.6649744984
 30
0.0
 10
18.6329092758
 20
6.6652195185
 30
0.0
 10
18.6334715858
 20
6.6655316764
 30
0.0
 10
18.6341553175
 20
6.6659103284
 30
0.0
 10
18.6349592777
 20
6.6663541713
 30
0.0
 10
18.6362665471
 20
6.6670737529
 30
0.0
 10
18.6381859575
 20
6.6681249517
 30
0.0
 10
18.6408209486
 20
6.6695537516
 30
0.0
 10
18.6438807048
 20
6.6711927558
 30
0.0
 10
18.6473422495
 20
6.6730210991
 30
0.0
 10
18.6511823675
 20
6.6750177161
 30
0.0
 10
18.6569804146
 20
6.6779767703
 30
0.0
 10
18.6649999837
 20
6.6819364865
 30
0.0
 10
18.6754789941
 20
6.6868422698
 30
0.0
 10
18.6869633559
 20
6.6918719441
 30
0.0
 10
18.6993169307
 20
6.6968523534
 30
0.0
 10
18.7124217616
 20
6.7016148803
 30
0.0
 10
18.7261725152
 20
6.7059970494
 30
0.0
 10
18.7404674155
 20
6.7098372106
 30
0.0
 10
18.7552078912
 20
6.7129739174
 30
0.0
 10
18.7753506671
 20
6.7161121401
 30
0.0
 10
18.7907195026
 20
6.7171434797
 30
0.0
 10
18.8009808963
 20
6.7171435177
 30
0.0
  0
SPLINE
  5
43B
100
AcDbEntity
  8
0
100
AcDbSpline
 62
9
  6
CONTINUOUS
 70
0
 71
3
 72
19
 73
15
 74
0
 42
0.0000001
 43
0.0000001
 44
0.0000000001
 40
0.0
 40
0.0
 40
0.0
 40
0.0
 40
0.1232911164
 40
0.2456602313
 40
0.3673141149
 40
0.4281481889
 40
0.4891808759
 40
0.5506028222
 40
0.6125732922
 40
0.6752122648
 40
0.7386040105
 40
0.802799225
 40
0.8678028852
 40
1.0
 40
1.0
 40
1.0
 40
1.0
 10
19.7312025867
 20
7.7099094673
 30
0.0
 10
19.7286274333
 20
7.7034270107
 30
0.0
 10
19.7237893407
 20
7.6903885407
 30
0.0
 10
19.7179909687
 20
7.6704068909
 30
0.0
 10
19.7148786499
 20
7.6534029398
 30
0.0
 10
19.713593507
 20
7.6396784327
 30
0.0
 10
19.7132737371
 20
7.6293064579
 30
0.0
 10
19.7136165948
 20
7.618871643
 30
0.0
 10
19.7145811778
 20
7.6083855077
 30
0.0
 10
19.7161366131
 20
7.5978586266
 30
0.0
 10
19.7182508289
 20
7.5873018729
 30
0.0
 10
19.7208867819
 20
7.5767261733
 30
0.0
 10
19.7250186714
 20
7.5625237231
 30
0.0
 10
19.7286448637
 20
7.5519659485
 30
0.0
 10
19.7312025867
 20
7.5449378173
 30
0.0
  0
SPLINE
  5
43C
100
AcDbEntity
  8
0
100
AcDbSpline
 62
9
  6
CONTINUOUS
 70
0
 71
3
 72
11
 73
7
 74
0
 42
0.0000001
 43
0.0000001
 44
0.0000000001
 40
0.0
 40
0.0
 40
0.0
 40
0.0
 40
0.2253273693
 40
0.4670279421
 40
0.7252916734
 40
1.0
 40
1.0
 40
1.0
 40
1.0
 10
19.7312026096
 20
7.5449378469
 30
0.0
 10
19.73237531
 20
7.5417154869
 30
0.0
 10
19.7345234858
 20
7.5349321973
 30
0.0
 10
19.7371492227
 20
7.5242051496
 30
0.0
 10
19.7393261299
 20
7.5126137572
 30
0.0
 10
19.7404667819
 20
7.5045808785
 30
0.0
 10
19.7409809177
 20
7.5004320008
 30
0.0
  0
SPLINE
  5
43D
100
AcDbEntity
  8
0
100
AcDbSpline
 62
9
  6
CONTINUOUS
 70
0
 71
3
 72
9
 73
5
 74
0
 42
0.0000001
 43
0.0000001
 44
0.0000000001
 40
0.0
 40
0.0
 40
0.0
 40
0.0
 40
0.4962493719
 40
1.0
 40
1.0
 40
1.0
 40
1.0
 10
19.7409808995
 20
7.3599709566
 30
0.0
 10
19.7399085468
 20
7.3481065645
 30
0.0
 10
19.7372573523
 20
7.3242396478
 30
0.0
 10
19.7334590708
 20
7.300523011
 30
0.0
 10
19.7312025902
 20
7.2886425747
 30
0.0
  0
SPLINE
  5
43E
100
AcDbEntity
  8
0
100
AcDbSpline
 62
9
  6
CONTINUOUS
 70
0
 71
3
 72
15
 73
11
 74
0
 42
0.0000001
 43
0.0000001
 44
0.0000000001
 40
0.0
 40
0.0
 40
0.0
 40
0.0
 40
0.1249841174
 40
0.2499817241
 40
0.3749885643
 40
0.500000338
 40
0.6250122051
 40
0.7500190604
 40
0.8750162567
 40
1.0
 40
1.0
 40
1.0
 40
1.0
 10
19.7312025867
 20
7.2886425752
 30
0.0
 10
19.7286190091
 20
7.2750398392
 30
0.0
 10
19.7237625658
 20
7.2477711345
 30
0.0
 10
19.7179828205
 20
7.2066206157
 30
0.0
 10
19.7142444942
 20
7.1652233737
 30
0.0
 10
19.7129481734
 20
7.1236708064
 30
0.0
 10
19.7142446104
 20
7.0821182429
 30
0.0
 10
19.7179829282
 20
7.0407210352
 30
0.0
 10
19.7237626232
 20
6.9995705962
 30
0.0
 10
19.7286189971
 20
6.9723019667
 30
0.0
 10
19.7312025867
 20
6.9586992751
 30
0.0
  0
SPLINE
  5
43F
100
AcDbEntity
  8
0
100
AcDbSpline
 62
9
  6
CONTINUOUS
 70
0
 71
3
 72
9
 73
5
 74
0
 42
0.0000001
 43
0.0000001
 44
0.0000000001
 40
0.0
 40
0.0
 40
0.0
 40
0.0
 40
0.503752003
 40
1.0
 40
1.0
 40
1.0
 40
1.0
 10
19.7312026865
 20
6.9586992905
 30
0.0
 10
19.7334591552
 20
6.9468188126
 30
0.0
 10
19.7372571087
 20
6.9231021169
 30
0.0
 10
19.7399086519
 20
6.8992352314
 30
0.0
 10
19.7409809899
 20
6.8873708657
 30
0.0
  0
SPLINE
  5
440
100
AcDbEntity
  8
0
100
AcDbSpline
 62
9
  6
CONTINUOUS
 70
0
 71
3
 72
11
 73
7
 74
0
 42
0.0000001
 43
0.0000001
 44
0.0000000001
 40
0.0
 40
0.0
 40
0.0
 40
0.0
 40
0.2747084678
 40
0.5329722686
 40
0.7746728047
 40
1.0
 40
1.0
 40
1.0
 40
1.0
 10
19.7409809123
 20
6.7469098558
 30
0.0
 10
19.7404667756
 20
6.7427609761
 30
0.0
 10
19.7393261225
 20
6.7347280945
 30
0.0
 10
19.7371492152
 20
6.7231366997
 30
0.0
 10
19.7345234795
 20
6.7124096542
 30
0.0
 10
19.7323753042
 20
6.7056263679
 30
0.0
 10
19.7312026039
 20
6.7024040109
 30
0.0
  0
SPLINE
  5
441
100
AcDbEntity
  8
0
100
AcDbSpline
 62
9
  6
CONTINUOUS
 70
0
 71
3
 72
11
 73
7
 74
0
 42
0.0000001
 43
0.0000001
 44
0.0000000001
 40
0.0
 40
0.0
 40
0.0
 40
0.0
 40
0.2609024627
 40
0.3915557821
 40
0.5204644332
 40
1.0
 40
1.0
 40
1.0
 40
1.0
 10
19.7470933131
 20
6.5318869053
 30
0.0
 10
19.7455908387
 20
6.5317302555
 30
0.0
 10
19.7433026035
 20
6.5317327687
 30
0.0
 10
19.7403209902
 20
6.5322108944
 30
0.0
 10
19.7362002549
 20
6.5333587144
 30
0.0
 10
19.733047343
 20
6.5353573443
 30
0.0
 10
19.7312025843
 20
6.537432389
 30
0.0
  0
SPLINE
  5
442
100
AcDbEntity
  8
0
100
AcDbSpline
 62
9
  6
CONTINUOUS
 70
0
 71
3
 72
11
 73
7
 74
0
 42
0.0000001
 43
0.0000001
 44
0.0000000001
 40
0.0
 40
0.0
 40
0.0
 40
0.0
 40
0.27657768
 40
0.5354258065
 40
0.776428819
 40
1.0
 40
1.0
 40
1.0
 40
1.0
 10
19.7576884849
 20
6.7392348759
 30
0.0
 10
19.7571322841
 20
6.7349370721
 30
0.0
 10
19.7558973478
 20
6.726636017
 30
0.0
 10
19.7535382716
 20
6.714695502
 30
0.0
 10
19.7506964951
 20
6.7037150617
 30
0.0
 10
19.7483665299
 20
6.6968085011
 30
0.0
 10
19.7470933156
 20
6.6935449746
 30
0.0
  0
SPLINE
  5
443
100
AcDbEntity
  8
0
100
AcDbSpline
 62
9
  6
CONTINUOUS
 70
0
 71
3
 72
11
 73
7
 74
0
 42
0.0000001
 43
0.0000001
 44
0.0000000001
 40
0.0
 40
0.0
 40
0.0
 40
0.0
 40
0.2491317086
 40
0.5057421012
 40
0.7592168464
 40
1.0
 40
1.0
 40
1.0
 40
1.0
 10
19.7470933151
 20
6.6935449734
 30
0.0
 10
19.7455513303
 20
6.6937057426
 30
0.0
 10
19.7424506252
 20
6.694371387
 30
0.0
 10
19.7380760173
 20
6.6962380768
 30
0.0
 10
19.7342330047
 20
6.6989519834
 30
0.0
 10
19.7321016297
 20
6.7012052912
 30
0.0
 10
19.7312026033
 20
6.7024040092
 30
0.0
  0
SPLINE
  5
444
100
AcDbEntity
  8
0
100
AcDbSpline
 62
9
  6
CONTINUOUS
 70
0
 71
3
 72
15
 73
11
 74
0
 42
0.0000001
 43
0.0000001
 44
0.0000000001
 40
0.0
 40
0.0
 40
0.0
 40
0.0
 40
0.140407956
 40
0.2777494724
 40
0.4112455894
 40
0.540239666
 40
0.6641300949
 40
0.7823943126
 40
0.8945285804
 40
1.0
 40
1.0
 40
1.0
 40
1.0
 10
19.7576884849
 20
6.8867136455
 30
0.0
 10
19.7583273304
 20
6.8798273413
 30
0.0
 10
19.7594647147
 20
6.8661929689
 30
0.0
 10
19.7607303831
 20
6.8459748275
 30
0.0
 10
19.7615031708
 20
6.8262941213
 30
0.0
 10
19.7617717476
 20
6.8072624102
 30
0.0
 10
19.7615246901
 20
6.7889804601
 30
0.0
 10
19.7607719001
 20
6.7715431567
 30
0.0
 10
19.7595264994
 20
6.7550437949
 30
0.0
 10
19.7583552106
 20
6.7443869697
 30
0.0
 10
19.7576884849
 20
6.7392348759
 30
0.0
  0
SPLINE
  5
445
100
AcDbEntity
  8
0
100
AcDbSpline
 62
9
  6
CONTINUOUS
 70
0
 71
3
 72
13
 73
9
 74
0
 42
0.0000001
 43
0.0000001
 44
0.0000000001
 40
0.0
 40
0.0
 40
0.0
 40
0.0
 40
0.2597993768
 40
0.3919216109
 40
0.5226123832
 40
0.7727759386
 40
0.8899466498
 40
1.0
 40
1.0
 40
1.0
 40
1.0
 10
19.7576884866
 20
6.7392348889
 30
0.0
 10
19.7560605548
 20
6.7393437909
 30
0.0
 10
19.7536138246
 20
6.7397351409
 30
0.0
 10
19.7504622944
 20
6.7406625385
 30
0.0
 10
19.7474652224
 20
6.7418546996
 30
0.0
 10
19.7447424477
 20
6.7434476243
 30
0.0
 10
19.7424233638
 20
6.7453542776
 30
0.0
 10
19.741427488
 20
6.7463823996
 30
0.0
 10
19.740980898
 20
6.7469098868
 30
0.0
  0
SPLINE
  5
446
100
AcDbEntity
  8
0
100
AcDbSpline
 62
9
  6
CONTINUOUS
 70
0
 71
3
 72
14
 73
10
 74
0
 42
0.0000001
 43
0.0000001
 44
0.0000000001
 40
0.0
 40
0.0
 40
0.0
 40
0.0
 40
0.2784238209
 40
0.4121261135
 40
0.541228001
 40
0.6650899006
 40
0.7831767209
 40
0.8949798684
 40
1.0
 40
1.0
 40
1.0
 40
1.0
 10
19.7409814934
 20
6.8873707351
 30
0.0
 10
19.7423347285
 20
6.8743731132
 30
0.0
 10
19.7439369599
 20
6.8550868626
 30
0.0
 10
19.7450667369
 20
6.8297069869
 30
0.0
 10
19.7453616433
 20
6.8115582451
 30
0.0
 10
19.7450898573
 20
6.7941419594
 30
0.0
 10
19.7442765883
 20
6.7775551325
 30
0.0
 10
19.7429486085
 20
6.7618889218
 30
0.0
 10
19.7416968115
 20
6.751786122
 30
0.0
 10
19.7409814934
 20
6.746909161
 30
0.0
  0
SPLINE
  5
447
100
AcDbEntity
  8
0
100
AcDbSpline
 62
9
  6
CONTINUOUS
 70
0
 71
3
 72
9
 73
5
 74
0
 42
0.0000001
 43
0.0000001
 44
0.0000000001
 40
0.0
 40
0.0
 40
0.0
 40
0.0
 40
0.5037274903
 40
1.0
 40
1.0
 40
1.0
 40
1.0
 10
19.7470933156
 20
6.9620128498
 30
0.0
 10
19.7495385923
 20
6.9494772116
 30
0.0
 10
19.7536453905
 20
6.924442305
 30
0.0
 10
19.7565261551
 20
6.8992427333
 30
0.0
 10
19.7576884849
 20
6.8867136455
 30
0.0
  0
SPLINE
  5
448
100
AcDbEntity
  8
0
100
AcDbSpline
 62
9
  6
CONTINUOUS
 70
0
 71
3
 72
13
 73
9
 74
0
 42
0.0000001
 43
0.0000001
 44
0.0000000001
 40
0.0
 40
0.0
 40
0.0
 40
0.0
 40
0.2884703391
 40
0.5667380238
 40
0.6937179742
 40
0.8094438528
 40
0.9121121347
 40
1.0
 40
1.0
 40
1.0
 40
1.0
 10
19.7576884849
 20
6.8867136455
 30
0.0
 10
19.7560805951
 20
6.8865635989
 30
0.0
 10
19.7529122545
 20
6.8863655891
 30
0.0
 10
19.7490252341
 20
6.8863520424
 30
0.0
 10
19.7461130361
 20
6.8865249702
 30
0.0
 10
19.7441894943
 20
6.8867283033
 30
0.0
 10
19.742495589
 20
6.886998806
 30
0.0
 10
19.7414542688
 20
6.8872367893
 30
0.0
 10
19.7409808961
 20
6.8873708949
 30
0.0
  0
LINE
  5
449
100
AcDbEntity
  8
0
100
AcDbLine
 62
9
  6
CONTINUOUS
 10
19.7616857585
 20
7.7569870433
 11
19.7576884849
 21
7.7450642541
  0
SPLINE
  5
44A
100
AcDbEntity
  8
0
100
AcDbSpline
 62
9
  6
CONTINUOUS
 70
0
 71
3
 72
9
 73
5
 74
0
 42
0.0000001
 43
0.0000001
 44
0.0000000001
 40
0.0
 40
0.0
 40
0.0
 40
0.0
 40
0.4962696111
 40
1.0
 40
1.0
 40
1.0
 40
1.0
 10
19.7576884849
 20
7.3606282049
 30
0.0
 10
19.7565261431
 20
7.3480991936
 30
0.0
 10
19.7536450051
 20
7.3228996751
 30
0.0
 10
19.7495386389
 20
7.2978647029
 30
0.0
 10
19.7470933156
 20
7.2853290005
 30
0.0
  0
LINE
  5
44B
100
AcDbEntity
  8
0
100
AcDbLine
 62
9
  6
CONTINUOUS
 10
19.7452668015
 20
7.7484070162
 11
19.7427817968
 21
7.7417105235
  0
SPLINE
  5
44C
100
AcDbEntity
  8
0
100
AcDbSpline
 62
9
  6
CONTINUOUS
 70
0
 71
3
 72
11
 73
7
 74
0
 42
0.0000001
 43
0.0000001
 44
0.0000000001
 40
0.0
 40
0.0
 40
0.0
 40
0.0
 40
0.2503650392
 40
0.4999962278
 40
0.7496305082
 40
1.0
 40
1.0
 40
1.0
 40
1.0
 10
19.7470933156
 20
6.9620128498
 30
0.0
 10
19.7415385394
 20
6.9886517693
 30
0.0
 10
19.731687378
 20
7.0421560197
 30
0.0
 10
19.7258327308
 20
7.1236700247
 30
0.0
 10
19.7316867576
 20
7.205184611
 30
0.0
 10
19.7415384966
 20
7.2586895956
 30
0.0
 10
19.7470933156
 20
7.2853290005
 30
0.0
  0
SPLINE
  5
44D
100
AcDbEntity
  8
0
100
AcDbSpline
 62
9
  6
CONTINUOUS
 70
0
 71
3
 72
11
 73
7
 74
0
 42
0.0000001
 43
0.0000001
 44
0.0000000001
 40
0.0
 40
0.0
 40
0.0
 40
0.0
 40
0.2498097638
 40
0.4999980163
 40
0.7501868749
 40
1.0
 40
1.0
 40
1.0
 40
1.0
 10
19.9772090902
 20
7.2853290005
 30
0.0
 10
19.9815182799
 20
7.2586591598
 30
0.0
 10
19.9873262482
 20
7.2048114543
 30
0.0
 10
19.9899537838
 20
7.1236715045
 30
0.0
 10
19.9873262647
 20
7.0425311936
 30
0.0
 10
19.9815183338
 20
6.98868305
 30
0.0
 10
19.9772090902
 20
6.9620128498
 30
0.0
  0
SPLINE
  5
44E
100
AcDbEntity
  8
0
100
AcDbSpline
 62
9
  6
CONTINUOUS
 70
0
 71
3
 72
15
 73
11
 74
0
 42
0.0000001
 43
0.0000001
 44
0.0000000001
 40
0.0
 40
0.0
 40
0.0
 40
0.0
 40
0.1285806659
 40
0.2546084326
 40
0.3781180316
 40
0.4999900714
 40
0.6218631327
 40
0.7453774426
 40
0.871413814
 40
1.0
 40
1.0
 40
1.0
 40
1.0
 10
19.7470920613
 20
6.5318867685
 30
0.0
 10
19.7443325216
 20
6.5385037192
 30
0.0
 10
19.7391369809
 20
6.5517233623
 30
0.0
 10
19.7328436394
 20
6.5718741148
 30
0.0
 10
19.7287700035
 20
6.5922249624
 30
0.0
 10
19.7272898487
 20
6.6127142145
 30
0.0
 10
19.7287703506
 20
6.6332037011
 30
0.0
 10
19.7328441885
 20
6.6535553011
 30
0.0
 10
19.7391371533
 20
6.6737072554
 30
0.0
 10
19.7443324993
 20
6.6869278305
 30
0.0
 10
19.7470920613
 20
6.6935451054
 30
0.0
  0
SPLINE
  5
44F
100
AcDbEntity
  8
0
100
AcDbSpline
 62
9
  6
CONTINUOUS
 70
0
 71
3
 72
18
 73
14
 74
0
 42
0.0000001
 43
0.0000001
 44
0.0000000001
 40
0.0
 40
0.0
 40
0.0
 40
0.0
 40
0.1259487032
 40
0.1884653172
 40
0.250767381
 40
0.312914195
 40
0.3749592645
 40
0.4369497912
 40
0.4989267639
 40
0.6229792982
 40
0.747493388
 40
0.8729364936
 40
1.0
 40
1.0
 40
1.0
 40
1.0
 10
19.9806551551
 20
6.6817544452
 30
0.0
 10
19.9822722742
 20
6.6755927418
 30
0.0
 10
19.9843023269
 20
6.666265285
 30
0.0
 10
19.986299382
 20
6.6537384408
 30
0.0
 10
19.9874663441
 20
6.6443521167
 30
0.0
 10
19.9883164117
 20
6.63495614
 30
0.0
 10
19.9888599054
 20
6.6255532827
 30
0.0
 10
19.9891063425
 20
6.6161465979
 30
0.0
 10
19.9890557567
 20
6.6036005706
 30
0.0
 10
19.9882691144
 20
6.5879019215
 30
0.0
 10
19.9860874318
 20
6.5690968457
 30
0.0
 10
19.9825655395
 20
6.5503383558
 30
0.0
 10
19.9791852947
 20
6.5380022778
 30
0.0
 10
19.9772090902
 20
6.5318868993
 30
0.0
  0
LINE
  5
450
100
AcDbEntity
  8
0
100
AcDbLine
 62
9
  6
CONTINUOUS
 10
19.7576884849
 20
6.5022775962
 11
19.7616857588
 21
6.4903548067
  0
LINE
  5
451
100
AcDbEntity
  8
0
100
AcDbLine
 62
9
  6
CONTINUOUS
 10
19.7447551362
 20
6.5002892068
 11
19.745266911
 21
6.4989346768
  0
SPLINE
  5
452
100
AcDbEntity
  8
0
100
AcDbSpline
 62
9
  6
CONTINUOUS
 70
0
 71
3
 72
11
 73
7
 74
0
 42
0.0000001
 43
0.0000001
 44
0.0000000001
 40
0.0
 40
0.0
 40
0.0
 40
0.0
 40
0.2501878677
 40
0.5050739395
 40
0.7571419562
 40
1.0
 40
1.0
 40
1.0
 40
1.0
 10
19.7576884866
 20
7.7450642593
 30
0.0
 10
19.7560701207
 20
7.7451070214
 30
0.0
 10
19.7527827562
 20
7.7447868358
 30
0.0
 10
19.7480992642
 20
7.7431842425
 30
0.0
 10
19.7440359441
 20
7.7404387325
 30
0.0
 10
19.7418670994
 20
7.7380298021
 30
0.0
 10
19.740980898
 20
7.7367320113
 30
0.0
  0
SPLINE
  5
453
100
AcDbEntity
  8
0
100
AcDbSpline
 62
9
  6
CONTINUOUS
 70
0
 71
3
 72
11
 73
7
 74
0
 42
0.0000001
 43
0.0000001
 44
0.0000000001
 40
0.0
 40
0.0
 40
0.0
 40
0.0
 40
0.2620285275
 40
0.3929624293
 40
0.5219484208
 40
1.0
 40
1.0
 40
1.0
 40
1.0
 10
19.747093315
 20
7.7154549495
 30
0.0
 10
19.7455843081
 20
7.7156122805
 30
0.0
 10
19.7432875624
 20
7.7156084637
 30
0.0
 10
19.7402978974
 20
7.7151256451
 30
0.0
 10
19.7361845835
 20
7.7139746664
 30
0.0
 10
19.7330417147
 20
7.7119781705
 30
0.0
 10
19.7312026032
 20
7.709909485
 30
0.0
  0
SPLINE
  5
454
100
AcDbEntity
  8
0
100
AcDbSpline
 62
9
  6
CONTINUOUS
 70
0
 71
3
 72
11
 73
7
 74
0
 42
0.0000001
 43
0.0000001
 44
0.0000000001
 40
0.0
 40
0.0
 40
0.0
 40
0.0
 40
0.2480271199
 40
0.5042311205
 40
0.7581332966
 40
1.0
 40
1.0
 40
1.0
 40
1.0
 10
19.7470933131
 20
7.5537968818
 30
0.0
 10
19.7455581635
 20
7.5536368252
 30
0.0
 10
19.7424665448
 20
7.5529750543
 30
0.0
 10
19.7380964304
 20
7.5511151514
 30
0.0
 10
19.7342451608
 20
7.5484009408
 30
0.0
 10
19.7321056557
 20
7.5461419384
 30
0.0
 10
19.7312025843
 20
7.5449378236
 30
0.0
  0
SPLINE
  5
455
100
AcDbEntity
  8
0
100
AcDbSpline
 62
9
  6
CONTINUOUS
 70
0
 71
3
 72
11
 73
7
 74
0
 42
0.0000001
 43
0.0000001
 44
0.0000000001
 40
0.0
 40
0.0
 40
0.0
 40
0.0
 40
0.2235710418
 40
0.4645736677
 40
0.7234220269
 40
1.0
 40
1.0
 40
1.0
 40
1.0
 10
19.7470933156
 20
7.5537968757
 30
0.0
 10
19.7483665283
 20
7.5505333509
 30
0.0
 10
19.750696495
 20
7.5436267995
 30
0.0
 10
19.7535382796
 20
7.5326463656
 30
0.0
 10
19.7558973552
 20
7.5207058477
 30
0.0
 10
19.7571322839
 20
7.512404783
 30
0.0
 10
19.7576884849
 20
7.5081069744
 30
0.0
  0
SPLINE
  5
456
100
AcDbEntity
  8
0
100
AcDbSpline
 62
9
  6
CONTINUOUS
 70
0
 71
3
 72
13
 73
9
 74
0
 42
0.0000001
 43
0.0000001
 44
0.0000000001
 40
0.0
 40
0.0
 40
0.0
 40
0.0
 40
0.2597992809
 40
0.391921473
 40
0.5226122211
 40
0.7727758057
 40
0.8899465698
 40
1.0
 40
1.0
 40
1.0
 40
1.0
 10
19.7576884846
 20
7.5081069767
 30
0.0
 10
19.7560605562
 20
7.5079980748
 30
0.0
 10
19.7536138311
 20
7.5076067261
 30
0.0
 10
19.7504623069
 20
7.5066793318
 30
0.0
 10
19.7474652395
 20
7.5054871748
 30
0.0
 10
19.7447424678
 20
7.5038942555
 30
0.0
 10
19.7424233844
 20
7.5019876081
 30
0.0
 10
19.741427508
 20
7.5009594891
 30
0.0
 10
19.7409809173
 20
7.5004320034
 30
0.0
  0
LINE
  5
457
100
AcDbEntity
  8
0
100
AcDbLine
 62
9
  6
CONTINUOUS
 10
19.0505474694
 20
6.4242109551
 11
19.0391016265
 21
6.4444524177
  0
LINE
  5
458
100
AcDbEntity
  8
0
100
AcDbLine
 62
9
  6
CONTINUOUS
 10
19.0526157261
 20
4.5956954222
 11
19.036539806
 21
4.5940291915
  0
LINE
  5
459
100
AcDbEntity
  8
0
100
AcDbLine
 62
9
  6
CONTINUOUS
 10
18.5493450347
 20
6.4115278351
 11
18.5530797451
 21
6.4161554642
  0
SPLINE
  5
45A
100
AcDbEntity
  8
0
100
AcDbSpline
 62
9
  6
CONTINUOUS
 70
0
 71
3
 72
15
 73
11
 74
0
 42
0.0000001
 43
0.0000001
 44
0.0000000001
 40
0.0
 40
0.0
 40
0.0
 40
0.0
 40
0.1504920461
 40
0.2986935708
 40
0.4416768196
 40
0.5770259894
 40
0.7025060398
 40
0.8160780468
 40
0.9158161692
 40
1.0
 40
1.0
 40
1.0
 40
1.0
 10
18.8698185267
 20
4.5551491844
 30
0.0
 10
18.8734484494
 20
4.5554317444
 30
0.0
 10
18.8806581517
 20
4.5559290046
 30
0.0
 10
18.8913303248
 20
4.556476233
 30
0.0
 10
18.9016448359
 20
4.5568106401
 30
0.0
 10
18.9114144678
 20
4.5569284801
 30
0.0
 10
18.9204728041
 20
4.5568272563
 30
0.0
 10
18.9286645997
 20
4.5565117349
 30
0.0
 10
18.9358441411
 20
4.555986306
 30
0.0
 10
18.940265824
 20
4.5554626527
 30
0.0
 10
18.9422782033
 20
4.5551489269
 30
0.0
  0
SPLINE
  5
45B
100
AcDbEntity
  8
0
100
AcDbSpline
 62
9
  6
CONTINUOUS
 70
0
 71
3
 72
13
 73
9
 74
0
 42
0.0000001
 43
0.0000001
 44
0.0000000001
 40
0.0
 40
0.0
 40
0.0
 40
0.0
 40
0.2539643435
 40
0.5049166962
 40
0.6295325785
 40
0.753481377
 40
0.8769746739
 40
1.0
 40
1.0
 40
1.0
 40
1.0
 10
18.7351626765
 20
6.4317605325
 30
0.0
 10
18.7397535682
 20
6.4361687062
 30
0.0
 10
18.7492791354
 20
6.444537225
 30
0.0
 10
18.7624827505
 20
6.4533096092
 30
0.0
 10
18.7737859185
 20
6.4587354713
 30
0.0
 10
18.7826049006
 20
6.4618334322
 30
0.0
 10
18.7917120298
 20
6.4637670509
 30
0.0
 10
18.797897753
 20
6.4642205387
 30
0.0
 10
18.8009808961
 20
6.4642205423
 30
0.0
  0
SPLINE
  5
45C
100
AcDbEntity
  8
0
100
AcDbSpline
 62
9
  6
CONTINUOUS
 70
0
 71
3
 72
13
 73
9
 74
0
 42
0.0000001
 43
0.0000001
 44
0.0000000001
 40
0.0
 40
0.0
 40
0.0
 40
0.0
 40
0.1229909366
 40
0.2464405322
 40
0.370369224
 40
0.4949888666
 40
0.7459934782
 40
1.0
 40
1.0
 40
1.0
 40
1.0
 10
18.8009808961
 20
6.464220125
 30
0.0
 10
18.804063161
 20
6.4642201094
 30
0.0
 10
18.8102469052
 20
6.4637670199
 30
0.0
 10
18.8193516052
 20
6.4618341162
 30
0.0
 10
18.828169354
 20
6.4587374232
 30
0.0
 10
18.8394738613
 20
6.4533123817
 30
0.0
 10
18.8526796759
 20
6.4445388853
 30
0.0
 10
18.8622071997
 20
6.4361691165
 30
0.0
 10
18.8667988268
 20
6.4317602315
 30
0.0
  0
SPLINE
  5
45D
100
AcDbEntity
  8
0
100
AcDbSpline
 62
9
  6
CONTINUOUS
 70
0
 71
3
 72
15
 73
11
 74
0
 42
0.0000001
 43
0.0000001
 44
0.0000000001
 40
0.0
 40
0.0
 40
0.0
 40
0.0
 40
0.0841905381
 40
0.1839389812
 40
0.2975132303
 40
0.4229898849
 40
0.5583354101
 40
0.7013144702
 40
0.8495112094
 40
1.0
 40
1.0
 40
1.0
 40
1.0
 10
18.6596826068
 20
4.5551491822
 30
0.0
 10
18.6616951479
 20
4.5554630948
 30
0.0
 10
18.6661173408
 20
4.5559865628
 30
0.0
 10
18.6732974689
 20
4.55651152
 30
0.0
 10
18.681489589
 20
4.5568270516
 30
0.0
 10
18.6905479257
 20
4.5569284037
 30
0.0
 10
18.7003174133
 20
4.5568105748
 30
0.0
 10
18.7106317524
 20
4.5564761753
 30
0.0
 10
18.7213037724
 20
4.5559290331
 30
0.0
 10
18.728513369
 20
4.5554316801
 30
0.0
 10
18.73214325
 20
4.5551489918
 30
0.0
  0
SPLINE
  5
45E
100
AcDbEntity
  8
0
100
AcDbSpline
 62
9
  6
CONTINUOUS
 70
0
 71
3
 72
20
 73
16
 74
0
 42
0.0000001
 43
0.0000001
 44
0.0000000001
 40
0.0
 40
0.0
 40
0.0
 40
0.0
 40
0.1431668755
 40
0.2141450458
 40
0.2843481394
 40
0.3534071817
 40
0.4209411057
 40
0.4865505359
 40
0.5499329233
 40
0.6110093866
 40
0.6698680203
 40
0.7268803873
 40
0.7825057892
 40
0.8913844692
 40
1.0
 40
1.0
 40
1.0
 40
1.0
 10
18.7229758293
 20
6.4444524177
 30
0.0
 10
18.7194965766
 20
6.4415873593
 30
0.0
 10
18.7140683306
 20
6.4375562247
 30
0.0
 10
18.7063966284
 20
6.4329326711
 30
0.0
 10
18.7004904931
 20
6.4299302727
 30
0.0
 10
18.6944537856
 20
6.4274700877
 30
0.0
 10
18.6883495858
 20
6.4256288982
 30
0.0
 10
18.68225747
 20
6.4244731275
 30
0.0
 10
18.6762709746
 20
6.4240872999
 30
0.0
 10
18.6704932696
 20
6.4244443461
 30
0.0
 10
18.6650207216
 20
6.4255829047
 30
0.0
 10
18.6599244342
 20
6.4274186979
 30
0.0
 10
18.6537379854
 20
6.4306807288
 30
0.0
 10
18.6470041459
 20
6.4361757271
 30
0.0
 10
18.6427447708
 20
6.4415959613
 30
0.0
 10
18.6408652327
 20
6.4444524177
 30
0.0
  0
SPLINE
  5
45F
100
AcDbEntity
  8
0
100
AcDbSpline
 62
9
  6
CONTINUOUS
 70
0
 71
3
 72
26
 73
22
 74
0
 42
0.0000001
 43
0.0000001
 44
0.0000000001
 40
0.0
 40
0.0
 40
0.0
 40
0.0
 40
0.07597844
 40
0.1493943428
 40
0.2194495348
 40
0.2856514262
 40
0.3476774791
 40
0.4055071237
 40
0.4596004156
 40
0.4856257413
 40
0.5112404497
 40
0.536698442
 40
0.5622490982
 40
0.5881305634
 40
0.6145651414
 40
0.6697255024
 40
0.7286519879
 40
0.7914465002
 40
0.8575590311
 40
0.9266081753
 40
1.0
 40
1.0
 40
1.0
 40
1.0
 10
18.6408652327
 20
6.4444524177
 30
0.0
 10
18.6393339973
 20
6.4466485281
 30
0.0
 10
18.636298136
 20
6.4509496831
 30
0.0
 10
18.6316200808
 20
6.4571100714
 30
0.0
 10
18.6267894974
 20
6.4627106579
 30
0.0
 10
18.6217361
 20
6.4675537937
 30
0.0
 10
18.6165061492
 20
6.4715358594
 30
0.0
 10
18.6111406005
 20
6.4745465663
 30
0.0
 10
18.6065201429
 20
6.4761645192
 30
0.0
 10
18.6028430009
 20
6.476807874
 30
0.0
 10
18.6001246043
 20
6.4769649315
 30
0.0
 10
18.597423243
 20
6.4768072879
 30
0.0
 10
18.5947488026
 20
6.476338373
 30
0.0
 10
18.5921112734
 20
6.4755617032
 30
0.0
 10
18.588609073
 20
6.4741042951
 30
0.0
 10
18.5843435567
 20
6.4715335274
 30
0.0
 10
18.5795584742
 20
6.4675109843
 30
0.0
 10
18.575034967
 20
6.4626628647
 30
0.0
 10
18.570740145
 20
6.4571585222
 30
0.0
 10
18.5666176931
 20
6.4510687082
 30
0.0
 10
18.5640924169
 20
6.4467260536
 30
0.0
 10
18.5628601658
 20
6.4444524178
 30
0.0
  0
LINE
  5
460
100
AcDbEntity
  8
0
100
AcDbLine
 62
9
  6
CONTINUOUS
 10
18.5628601658
 20
6.4444524178
 11
18.5514143229
 21
6.4242109552
  0
SPLINE
  5
461
100
AcDbEntity
  8
0
100
AcDbSpline
 62
9
  6
CONTINUOUS
 70
0
 71
3
 72
28
 73
24
 74
0
 42
0.0000001
 43
0.0000001
 44
0.0000000001
 40
0.0
 40
0.0
 40
0.0
 40
0.0
 40
0.1719348806
 40
0.2571990693
 40
0.3414728663
 40
0.5050743638
 40
0.5831895518
 40
0.6578619957
 40
0.7282462792
 40
0.7932718118
 40
0.8517583921
 40
0.9023763651
 40
0.9243054999
 40
0.9437558093
 40
0.9605596409
 40
0.9745489073
 40
0.9855709577
 40
0.9899402732
 40
0.9935361285
 40
0.9963492791
 40
0.9983704765
 40
0.9995904687
 40
1.0
 40
1.0
 40
1.0
 40
1.0
 10
18.8009808963
 20
6.7171434838
 30
0.0
 10
18.8112410629
 20
6.7171434496
 30
0.0
 10
18.8266077356
 20
6.7161125691
 30
0.0
 10
18.8467482207
 20
6.7129751158
 30
0.0
 10
18.8662024185
 20
6.7088353405
 30
0.0
 10
18.8848877612
 20
6.703304814
 30
0.0
 10
18.9026350483
 20
6.6968560538
 30
0.0
 10
18.9149893837
 20
6.6918757266
 30
0.0
 10
18.9264743914
 20
6.6868460783
 30
0.0
 10
18.9369545927
 20
6.6819398894
 30
0.0
 10
18.9462725494
 20
6.677339384
 30
0.0
 10
18.9532240372
 20
6.67375822
 30
0.0
 10
18.9580784394
 20
6.6711941844
 30
0.0
 10
18.9611390888
 20
6.6695547233
 30
0.0
 10
18.9637748113
 20
6.668125526
 30
0.0
 10
18.9659633951
 20
6.6669269091
 30
0.0
 10
18.9674988884
 20
6.6660805854
 30
0.0
 10
18.9684901708
 20
6.6655317907
 30
0.0
 10
18.9690523693
 20
6.6652193253
 30
0.0
 10
18.9694921276
 20
6.664975022
 30
0.0
 10
18.969806967
 20
6.664797754
 30
0.0
 10
18.9699980853
 20
6.6646932418
 30
0.0
 10
18.9700817999
 20
6.6646436304
 30
0.0
 10
18.9701035502
 20
6.664632487
 30
0.0
  0
SPLINE
  5
462
100
AcDbEntity
  8
0
100
AcDbSpline
 62
9
  6
CONTINUOUS
 70
0
 71
3
 72
23
 73
19
 74
0
 42
0.0000001
 43
0.0000001
 44
0.0000000001
 40
0.0
 40
0.0
 40
0.0
 40
0.0
 40
0.072777924
 40
0.142590882
 40
0.2090220709
 40
0.2716834566
 40
0.3304763105
 40
0.3855664664
 40
0.43776737
 40
0.4886987484
 40
0.5402496615
 40
0.5943406901
 40
0.6521503796
 40
0.7141859892
 40
0.7803764849
 40
0.8503836086
 40
0.9237508605
 40
1.0
 40
1.0
 40
1.0
 40
1.0
 10
19.0391016265
 20
6.4444524177
 30
0.0
 10
19.0378552077
 20
6.4466930043
 30
0.0
 10
19.0353132566
 20
6.4510287763
 30
0.0
 10
19.031227742
 20
6.45716104
 30
0.0
 10
19.0269273785
 20
6.4627036223
 30
0.0
 10
19.0223883071
 20
6.4675382276
 30
0.0
 10
19.0176050742
 20
6.4715427339
 30
0.0
 10
19.0125656675
 20
6.4745765206
 30
0.0
 10
19.0072790989
 20
6.4764683835
 30
0.0
 10
19.0018181986
 20
6.4771351017
 30
0.0
 10
18.9962956407
 20
6.4764473692
 30
0.0
 10
18.9908181834
 20
6.4745591238
 30
0.0
 10
18.985456675
 20
6.4715365039
 30
0.0
 10
18.9802438275
 20
6.4675376356
 30
0.0
 10
18.9751850587
 20
6.4627076915
 30
0.0
 10
18.9702935385
 20
6.4571685529
 30
0.0
 10
18.9655651354
 20
6.4510387368
 30
0.0
 10
18.9625727744
 20
6.4466966591
 30
0.0
 10
18.9610965596
 20
6.4444524177
 30
0.0
  0
SPLINE
  5
463
100
AcDbEntity
  8
0
100
AcDbSpline
 62
9
  6
CONTINUOUS
 70
0
 71
3
 72
20
 73
16
 74
0
 42
0.0000001
 43
0.0000001
 44
0.0000000001
 40
0.0
 40
0.0
 40
0.0
 40
0.0
 40
0.109469305
 40
0.1639527029
 40
0.2186862092
 40
0.2742216617
 40
0.3310073231
 40
0.3895444358
 40
0.4501685782
 40
0.5130996751
 40
0.5782983506
 40
0.6455298445
 40
0.7144402995
 40
0.8556831929
 40
1.0
 40
1.0
 40
1.0
 40
1.0
 10
18.9610965659
 20
6.444452411
 30
0.0
 10
18.9592020285
 20
6.4415731923
 30
0.0
 10
18.9559799572
 20
6.4374837752
 30
0.0
 10
18.9508770872
 20
6.4328421361
 30
0.0
 10
18.946630795
 20
6.4298373927
 30
0.0
 10
18.9419593986
 20
6.4273857178
 30
0.0
 10
18.9368795474
 20
6.4255612042
 30
0.0
 10
18.9314341704
 20
6.4244482154
 30
0.0
 10
18.9256957195
 20
6.4240758634
 30
0.0
 10
18.9197506317
 20
6.4244747529
 30
0.0
 10
18.9136915464
 20
6.4256060728
 30
0.0
 10
18.9076106341
 20
6.4274351491
 30
0.0
 10
18.8995085919
 20
6.4307232436
 30
0.0
 10
18.8897311464
 20
6.4361957391
 30
0.0
 10
18.8824935614
 20
6.4415640401
 30
0.0
 10
18.8789859578
 20
6.4444524109
 30
0.0
  0
SPLINE
  5
464
100
AcDbEntity
  8
0
100
AcDbSpline
 62
9
  6
CONTINUOUS
 70
0
 71
3
 72
36
 73
32
 74
0
 42
0.0000001
 43
0.0000001
 44
0.0000000001
 40
0.0
 40
0.0
 40
0.0
 40
0.0
 40
0.0001035518
 40
0.0004123945
 40
0.000925964
 40
0.001643696
 40
0.0025650263
 40
0.0036893907
 40
0.0065440651
 40
0.0101971117
 40
0.014636066
 40
0.0198481513
 40
0.0258168454
 40
0.0325231719
 40
0.0399481024
 40
0.0568700158
 40
0.0764034814
 40
0.0983652962
 40
0.1225712219
 40
0.1488419424
 40
0.1770032188
 40
0.2068930763
 40
0.2712601197
 40
0.340865874
 40
0.4148021493
 40
0.4923035126
 40
0.5727158669
 40
0.6554676571
 40
0.7400451148
 40
0.8259656514
 40
1.0
 40
1.0
 40
1.0
 40
1.0
 10
18.5749588759
 20
6.7436709252
 30
0.0
 10
18.5749666866
 20
6.7436726614
 30
0.0
 10
18.5749957103
 20
6.7436865582
 30
0.0
 10
18.5750633864
 20
6.7437093366
 30
0.0
 10
18.5751742734
 20
6.7437528602
 30
0.0
 10
18.5753300533
 20
6.7438110277
 30
0.0
 10
18.5755297308
 20
6.7438867283
 30
0.0
 10
18.5758840043
 20
6.7440203578
 30
0.0
 10
18.5764357498
 20
6.7442285816
 30
0.0
 10
18.5772274065
 20
6.7445264373
 30
0.0
 10
18.5781899214
 20
6.7448874589
 30
0.0
 10
18.5793204804
 20
6.7453099438
 30
0.0
 10
18.5806158477
 20
6.7457918936
 30
0.0
 10
18.5820723747
 20
6.7463310209
 30
0.0
 10
18.5843241373
 20
6.7471598226
 30
0.0
 10
18.5875097255
 20
6.7483209338
 30
0.0
 10
18.5917579966
 20
6.7498464111
 30
0.0
 10
18.596545367
 20
6.7515357596
 30
0.0
 10
18.6018353019
 20
6.7533650221
 30
0.0
 10
18.6075917788
 20
6.75531045
 30
0.0
 10
18.6137803258
 20
6.757348616
 30
0.0
 10
18.6227895072
 20
6.7602315808
 30
0.0
 10
18.634902599
 20
6.7639205914
 30
0.0
 10
18.6503671631
 20
6.7682762326
 30
0.0
 10
18.6669147627
 20
6.7725139589
 30
0.0
 10
18.6843835475
 20
6.776496998
 30
0.0
 10
18.7026297307
 20
6.7801017854
 30
0.0
 10
18.7215204817
 20
6.78321798
 30
0.0
 10
18.7409287745
 20
6.7857495734
 30
0.0
 10
18.7674363423
 20
6.788251778
 30
0.0
 10
18.7875334437
 20
6.7890213045
 30
0.0
 10
18.8009808961
 20
6.7890213315
 30
0.0
  0
SPLINE
  5
465
100
AcDbEntity
  8
0
100
AcDbSpline
 62
9
  6
CONTINUOUS
 70
0
 71
3
 72
36
 73
32
 74
0
 42
0.0000001
 43
0.0000001
 44
0.0000000001
 40
0.0
 40
0.0
 40
0.0
 40
0.0
 40
0.0001035998
 40
0.0004124444
 40
0.0009259856
 40
0.0016436751
 40
0.0025649648
 40
0.0036893064
 40
0.0065439876
 40
0.0101970524
 40
0.0146360177
 40
0.0198480595
 40
0.0258165997
 40
0.0325227554
 40
0.0399475948
 40
0.0568695637
 40
0.0764034094
 40
0.0983656703
 40
0.1225715486
 40
0.1488418377
 40
0.1770028834
 40
0.2068928368
 40
0.2712600149
 40
0.3408658531
 40
0.4148022073
 40
0.4923035997
 40
0.5727160198
 40
0.6554678337
 40
0.7400452989
 40
0.825965808
 40
1.0
 40
1.0
 40
1.0
 40
1.0
 10
19.0270029164
 20
6.7436709252
 30
0.0
 10
19.0269950875
 20
6.7436725955
 30
0.0
 10
19.0269660932
 20
6.7436866497
 30
0.0
 10
19.0268983836
 20
6.7437092781
 30
0.0
 10
19.0267875202
 20
6.7437528864
 30
0.0
 10
19.026631741
 20
6.743811015
 30
0.0
 10
19.0264320749
 20
6.7438867292
 30
0.0
 10
19.026077805
 20
6.7440203525
 30
0.0
 10
19.0255260591
 20
6.7442285779
 30
0.0
 10
19.0247343966
 20
6.7445264251
 30
0.0
 10
19.0237718815
 20
6.7448874433
 30
0.0
 10
19.0226413386
 20
6.7453099301
 30
0.0
 10
19.021346002
 20
6.7457918808
 30
0.0
 10
19.0198895097
 20
6.7463310091
 30
0.0
 10
19.0176377678
 20
6.7471598208
 30
0.0
 10
19.0144521538
 20
6.7483209392
 30
0.0
 10
19.0102038041
 20
6.7498463993
 30
0.0
 10
19.0054163556
 20
6.7515357068
 30
0.0
 10
19.0001264267
 20
6.7533649783
 30
0.0
 10
18.9943700209
 20
6.7553104454
 30
0.0
 10
18.9881815213
 20
6.7573486156
 30
0.0
 10
18.9791723329
 20
6.7602315584
 30
0.0
 10
18.9670592191
 20
6.7639205792
 30
0.0
 10
18.9515946341
 20
6.7682762304
 30
0.0
 10
18.9350470212
 20
6.7725139641
 30
0.0
 10
18.9175782242
 20
6.7764970102
 30
0.0
 10
18.8993320283
 20
6.7801017798
 30
0.0
 10
18.8804412669
 20
6.7832179594
 30
0.0
 10
18.8610329695
 20
6.7857495079
 30
0.0
 10
18.8345254301
 20
6.7882518694
 30
0.0
 10
18.8144283363
 20
6.7890213042
 30
0.0
 10
18.8009808961
 20
6.7890213315
 30
0.0
  0
SPLINE
  5
466
100
AcDbEntity
  8
0
100
AcDbSpline
 62
9
  6
CONTINUOUS
 70
0
 71
3
 72
11
 73
7
 74
0
 42
0.0000001
 43
0.0000001
 44
0.0000000001
 40
0.0
 40
0.0
 40
0.0
 40
0.0
 40
0.2501878287
 40
0.5050738704
 40
0.7571418959
 40
1.0
 40
1.0
 40
1.0
 40
1.0
 10
19.7576884846
 20
6.502277597
 30
0.0
 10
19.756070122
 20
6.502234835
 30
0.0
 10
19.7527827644
 20
6.502555019
 30
0.0
 10
19.7480992809
 20
6.5041576055
 30
0.0
 10
19.744035965
 20
6.5069031046
 30
0.0
 10
19.74186712
 20
6.5093120266
 30
0.0
 10
19.7409809174
 20
6.5106098134
 30
0.0
  0
SPLINE
  5
467
100
AcDbEntity
  8
0
100
AcDbSpline
 62
9
  6
CONTINUOUS
 70
0
 71
3
 72
20
 73
16
 74
0
 42
0.0000001
 43
0.0000001
 44
0.0000000001
 40
0.0
 40
0.0
 40
0.0
 40
0.0
 40
0.1508878143
 40
0.299238963
 40
0.4424016262
 40
0.5112213616
 40
0.5777702371
 40
0.6417552488
 40
0.7029397305
 40
0.761100725
 40
0.8160188217
 40
0.8674963902
 40
0.91539941
 40
0.959607086
 40
1.0
 40
1.0
 40
1.0
 40
1.0
 10
19.9944180226
 20
7.2881095621
 30
0.0
 10
19.9922405143
 20
7.3008944785
 30
0.0
 10
19.9882138855
 20
7.326300997
 30
0.0
 10
19.9834536401
 20
7.3640350273
 30
0.0
 10
19.9808865754
 20
7.3949126038
 30
0.0
 10
19.9798215129
 20
7.4188315863
 30
0.0
 10
19.979542923
 20
7.4359667158
 30
0.0
 10
19.9797982478
 20
7.4524461172
 30
0.0
 10
19.9805642058
 20
7.4681880473
 30
0.0
 10
19.9818162023
 20
7.4831171091
 30
0.0
 10
19.9835296578
 20
7.4971605842
 30
0.0
 10
19.9856821524
 20
7.5102510152
 30
0.0
 10
19.988218015
 20
7.5223337222
 30
0.0
 10
19.9910809394
 20
7.5333612657
 30
0.0
 10
19.9932713822
 20
7.5402997064
 30
0.0
 10
19.9944180226
 20
7.5435767195
 30
0.0
  0
SPLINE
  5
468
100
AcDbEntity
  8
0
100
AcDbSpline
 62
7
  6
CONTINUOUS
 70
0
 71
3
 72
17
 73
13
 74
0
 42
0.0000001
 43
0.0000001
 44
0.0000000001
 40
0.0
 40
0.0
 40
0.0
 40
0.0
 40
0.1166044674
 40
0.2399485119
 40
0.303837405
 40
0.3687697149
 40
0.4999996926
 40
0.6312297236
 40
0.6961620959
 40
0.7600510705
 40
0.8833953165
 40
1.0
 40
1.0
 40
1.0
 40
1.0
 10
21.5219803356
 20
7.8461709252
 30
0.0
 10
21.5219802995
 20
7.8425127416
 30
0.0
 10
21.5226805852
 20
7.8349703498
 30
0.0
 10
21.5253176864
 20
7.825743989
 30
0.0
 10
21.5286208725
 20
7.8185415966
 30
0.0
 10
21.532745373
 20
7.8114901966
 30
0.0
 10
21.5392401056
 20
7.8034306624
 30
0.0
 10
21.5472995933
 20
7.7969358691
 30
0.0
 10
21.554350967
 20
7.7928113113
 30
0.0
 10
21.5615533429
 20
7.7895080634
 30
0.0
 10
21.570779696
 20
7.7868708796
 30
0.0
 10
21.5783220939
 20
7.7861705223
 30
0.0
 10
21.5819802842
 20
7.7861705226
 30
0.0
  0
SPLINE
  5
469
100
AcDbEntity
  8
0
100
AcDbSpline
 62
7
  6
CONTINUOUS
 70
0
 71
3
 72
17
 73
13
 74
0
 42
0.0000001
 43
0.0000001
 44
0.0000000001
 40
0.0
 40
0.0
 40
0.0
 40
0.0
 40
0.1166044641
 40
0.2399484972
 40
0.3038373817
 40
0.3687696819
 40
0.499999642
 40
0.6312296624
 40
0.6961620331
 40
0.7600510101
 40
0.8833952766
 40
1.0
 40
1.0
 40
1.0
 40
1.0
 10
20.3219814173
 20
7.8461709252
 30
0.0
 10
20.3219814509
 20
7.8425127451
 30
0.0
 10
20.3212811617
 20
7.8349703613
 30
0.0
 10
20.3186440604
 20
7.8257440107
 30
0.0
 10
20.3153408773
 20
7.818541626
 30
0.0
 10
20.3112163817
 20
7.8114902331
 30
0.0
 10
20.304721658
 20
7.8034307058
 30
0.0
 10
20.2966621821
 20
7.796935915
 30
0.0
 10
20.2896108181
 20
7.7928113563
 30
0.0
 10
20.2824084508
 20
7.7895081056
 30
0.0
 10
20.2731821067
 20
7.7868709156
 30
0.0
 10
20.2656397146
 20
7.7861705513
 30
0.0
 10
20.2619815264
 20
7.7861705478
 30
0.0
  0
SPLINE
  5
46A
100
AcDbEntity
  8
0
100
AcDbSpline
 62
9
  6
CONTINUOUS
 70
0
 71
3
 72
97
 73
93
 74
0
 42
0.0000001
 43
0.0000001
 44
0.0000000001
 40
0.0
 40
0.0
 40
0.0
 40
0.0
 40
0.000003459
 40
0.0000135267
 40
0.0000302123
 40
0.0000535249
 40
0.0001200665
 40
0.0002132232
 40
0.0003330666
 40
0.0004796686
 40
0.0006531015
 40
0.0008534375
 40
0.0013351092
 40
0.0019249868
 40
0.002622141
 40
0.0034253019
 40
0.0043331978
 40
0.0053445571
 40
0.007672646
 40
0.0103998131
 40
0.01351641
 40
0.0170121637
 40
0.0208756326
 40
0.0250952054
 40
0.0296583457
 40
0.0397615924
 40
0.0510783671
 40
0.0635032395
 40
0.0769349507
 40
0.0912773918
 40
0.106442421
 40
0.1223488041
 40
0.1389223561
 40
0.173813261
 40
0.2106632566
 40
0.2491076088
 40
0.2888521258
 40
0.3296569333
 40
0.3504002146
 40
0.371342204
 40
0.3924626218
 40
0.4137431671
 40
0.4351644921
 40
0.4567019687
 40
0.4783238281
 40
0.4999907428
 40
0.5108306725
 40
0.5216648911
 40
0.5324873282
 40
0.5432923053
 40
0.5648292968
 40
0.5862511281
 40
0.6075334334
 40
0.6286541237
 40
0.6495954821
 40
0.6703387468
 40
0.7111473695
 40
0.7508935355
 40
0.7893329926
 40
0.8261781074
 40
0.8610703299
 40
0.8776469623
 40
0.8935572772
 40
0.9087261693
 40
0.9230713809
 40
0.9365037715
 40
0.9489274664
 40
0.9602416229
 40
0.9703407431
 40
0.9749018923
 40
0.9791201586
 40
0.9829831821
 40
0.9864792266
 40
0.9895967076
 40
0.9923252005
 40
0.99465492
 40
0.9956671483
 40
0.9965758531
 40
0.9973796697
 40
0.9980772342
 40
0.9986671841
 40
0.9991485331
 40
0.9993485979
 40
0.9995217187
 40
0.9996679919
 40
0.9997875137
 40
0.99988038
 40
0.9999466863
 40
0.9999699092
 40
0.9999865278
 40
0.999996554
 40
1.0
 40
1.0
 40
1.0
 40
1.0
 10
21.5819802841
 20
7.7861709252
 30
0.0
 10
21.5819785517
 20
7.7861704352
 30
0.0
 10
21.5819739587
 20
7.7861643674
 30
0.0
 10
21.581961277
 20
7.7861555773
 30
0.0
 10
21.581941919
 20
7.7861377968
 30
0.0
 10
21.581899604
 20
7.7861021546
 30
0.0
 10
21.581827512
 20
7.786039751
 30
0.0
 10
21.5817169157
 20
7.7859452841
 30
0.0
 10
21.581574638
 20
7.7858236521
 30
0.0
 10
21.5814003318
 20
7.7856752236
 30
0.0
 10
21.5811938891
 20
7.7854999024
 30
0.0
 10
21.5808540701
 20
7.7852122245
 30
0.0
 10
21.5803477742
 20
7.7847857342
 30
0.0
 10
21.5796419014
 20
7.7841948085
 30
0.0
 10
21.5788065978
 20
7.7834978226
 30
0.0
 10
21.5778435451
 20
7.7826955832
 30
0.0
 10
21.5767545956
 20
7.7817889682
 30
0.0
 10
21.5750558248
 20
7.7803743549
 30
0.0
 10
21.5726306716
 20
7.7783523122
 30
0.0
 10
21.569364899
 20
7.7756274326
 30
0.0
 10
21.5656327049
 20
7.7725129347
 30
0.0
 10
21.5614458109
 20
7.7690202497
 30
0.0
 10
21.55681615
 20
7.7651621517
 30
0.0
 10
21.5517566035
 20
7.7609521212
 30
0.0
 10
21.5441952626
 20
7.7546712508
 30
0.0
 10
21.5337807812
 20
7.7460441045
 30
0.0
 10
21.5201928518
 20
7.7348336534
 30
0.0
 10
21.5052394157
 20
7.7225561908
 30
0.0
 10
21.4890330341
 20
7.7093231799
 30
0.0
 10
21.4716786244
 20
7.6952413523
 30
0.0
 10
21.4532711393
 20
7.6804133806
 30
0.0
 10
21.4338962778
 20
7.6649354814
 30
0.0
 10
21.4064005602
 20
7.6431744045
 30
0.0
 10
21.3701272768
 20
7.6149396356
 30
0.0
 10
21.3243726152
 20
7.580360928
 30
0.0
 10
21.2759065429
 20
7.5451937016
 30
0.0
 10
21.2248061204
 20
7.5101857984
 30
0.0
 10
21.1802140742
 20
7.4820200862
 30
0.0
 10
21.1429695259
 20
7.460647913
 30
0.0
 10
21.1140588592
 20
7.4453746905
 30
0.0
 10
21.0842650647
 20
7.431230624
 30
0.0
 10
21.0535350343
 20
7.4185679989
 30
0.0
 10
21.0218322363
 20
7.4078552545
 30
0.0
 10
20.9891949752
 20
7.3996428052
 30
0.0
 10
20.955806051
 20
7.3944395552
 30
0.0
 10
20.9276188431
 20
7.3929191004
 30
0.0
 10
20.9050590884
 20
7.3934926827
 30
0.0
 10
20.8881896728
 20
7.394822994
 30
0.0
 10
20.8714295083
 20
7.3970143179
 30
0.0
 10
20.8493163215
 20
7.4010230583
 30
0.0
 10
20.822149745
 20
7.4078851447
 30
0.0
 10
20.7904401114
 20
7.4185750635
 30
0.0
 10
20.7597017209
 20
7.43122296
 30
0.0
 10
20.7299090446
 20
7.4453713802
 30
0.0
 10
20.701003529
 20
7.4606540586
 30
0.0
 10
20.6637627936
 20
7.4820356277
 30
0.0
 10
20.6191475741
 20
7.5101691292
 30
0.0
 10
20.5680417527
 20
7.545171104
 30
0.0
 10
20.5196022854
 20
7.5803679109
 30
0.0
 10
20.4738653661
 20
7.6149624797
 30
0.0
 10
20.4375872392
 20
7.6431904684
 30
0.0
 10
20.4100790837
 20
7.6649428094
 30
0.0
 10
20.390692666
 20
7.6804153061
 30
0.0
 10
20.3722747454
 20
7.6952390904
 30
0.0
 10
20.354913408
 20
7.7093184273
 30
0.0
 10
20.3387055506
 20
7.7225515091
 30
0.0
 10
20.3237552852
 20
7.7348302802
 30
0.0
 10
20.3101734791
 20
7.7460416768
 30
0.0
 10
20.2997665512
 20
7.7546708136
 30
0.0
 10
20.2922111252
 20
7.7609527552
 30
0.0
 10
20.2871544025
 20
7.7651631326
 30
0.0
 10
20.2825256999
 20
7.7690211922
 30
0.0
 10
20.2783381852
 20
7.7725137256
 30
0.0
 10
20.2746041492
 20
7.7756280476
 30
0.0
 10
20.2713356368
 20
7.7783527631
 30
0.0
 10
20.2689077175
 20
7.7803745965
 30
0.0
 10
20.2672065624
 20
7.7817890367
 30
0.0
 10
20.2661159738
 20
7.7826955808
 30
0.0
 10
20.2651515925
 20
7.7834977494
 30
0.0
 10
20.2643154587
 20
7.7841946648
 30
0.0
 10
20.2636094144
 20
7.784785516
 30
0.0
 10
20.2631035513
 20
7.7852120997
 30
0.0
 10
20.2627644199
 20
7.7854998595
 30
0.0
 10
20.2625586053
 20
7.7856751868
 30
0.0
 10
20.2623849625
 20
7.7858236208
 30
0.0
 10
20.2622433348
 20
7.7859452594
 30
0.0
 10
20.2621333242
 20
7.786039731
 30
0.0
 10
20.2620616648
 20
7.7861021471
 30
0.0
 10
20.2620196223
 20
7.7861377916
 30
0.0
 10
20.262000405
 20
7.7861555794
 30
0.0
 10
20.2619878021
 20
7.7861643605
 30
0.0
 10
20.2619832534
 20
7.7861704405
 30
0.0
 10
20.2619815265
 20
7.7861709252
 30
0.0
  0
SPLINE
  5
46B
100
AcDbEntity
  8
0
100
AcDbSpline
 62
7
  6
CONTINUOUS
 70
0
 71
3
 72
13
 73
9
 74
0
 42
0.0000001
 43
0.0000001
 44
0.0000000001
 40
0.0
 40
0.0
 40
0.0
 40
0.0
 40
0.385585426
 40
0.6804600973
 40
0.7939015485
 40
0.8847637096
 40
0.9532619006
 40
1.0
 40
1.0
 40
1.0
 40
1.0
 10
20.0114809127
 20
6.6566659192
 30
0.0
 10
20.0115419547
 20
6.6559706355
 30
0.0
 10
20.0116594901
 20
6.654744538
 30
0.0
 10
20.0118344
 20
6.6533175945
 30
0.0
 10
20.011981477
 20
6.6524260754
 30
0.0
 10
20.0120808744
 20
6.6519418777
 30
0.0
 10
20.0121791217
 20
6.65158233
 30
0.0
 10
20.0122557627
 20
6.6513862971
 30
0.0
 10
20.0122994865
 20
6.6513138699
 30
0.0
  0
LINE
  5
46C
100
AcDbEntity
  8
0
100
AcDbLine
 62
7
  6
CONTINUOUS
 10
20.0122994865
 20
6.6513138699
 11
20.0124316055
 21
6.6511998568
  0
SPLINE
  5
46D
100
AcDbEntity
  8
0
100
AcDbSpline
 62
7
  6
CONTINUOUS
 70
0
 71
3
 72
31
 73
27
 74
0
 42
0.0000001
 43
0.0000001
 44
0.0000000001
 40
0.0
 40
0.0
 40
0.0
 40
0.0
 40
0.214475178
 40
0.3148192508
 40
0.4098328898
 40
0.4990720034
 40
0.5821485763
 40
0.6586752051
 40
0.7282645932
 40
0.7905296124
 40
0.8450854575
 40
0.8693748783
 40
0.8916456384
 40
0.9118807235
 40
0.9300632202
 40
0.94617637
 40
0.9602036638
 40
0.9721290229
 40
0.9819371788
 40
0.9896145894
 40
0.9951521511
 40
0.9971198626
 40
0.9985593569
 40
0.9990864104
 40
0.9994917186
 40
1.0
 40
1.0
 40
1.0
 40
1.0
 10
20.0219808887
 20
7.3154809634
 30
0.0
 10
20.0216961553
 20
7.3340395642
 30
0.0
 10
20.0212653867
 20
7.3612807775
 30
0.0
 10
20.0206634303
 20
7.3967428078
 30
0.0
 10
20.0202220235
 20
7.4213680025
 30
0.0
 10
20.0197807832
 20
7.4444986086
 30
0.0
 10
20.019339919
 20
7.4660290376
 30
0.0
 10
20.0188995485
 20
7.485858597
 30
0.0
 10
20.0184598881
 20
7.5038866508
 30
0.0
 10
20.0180211852
 20
7.520012741
 30
0.0
 10
20.0176434808
 20
7.5322186983
 30
0.0
 10
20.0173371276
 20
7.5409639751
 30
0.0
 10
20.0171165235
 20
7.5467402701
 30
0.0
 10
20.0168961432
 20
7.5519876574
 30
0.0
 10
20.0166760633
 20
7.5567016612
 30
0.0
 10
20.0164563682
 20
7.5608778035
 30
0.0
 10
20.0162373731
 20
7.5645116634
 30
0.0
 10
20.0160190584
 20
7.5675987534
 30
0.0
 10
20.01580308
 20
7.5701350196
 30
0.0
 10
20.0155880109
 20
7.5721158828
 30
0.0
 10
20.0154013584
 20
7.5734172436
 30
0.0
 10
20.0152384011
 20
7.5741747499
 30
0.0
 10
20.0151448952
 20
7.5745018802
 30
0.0
 10
20.0150625678
 20
7.5746921415
 30
0.0
 10
20.0150026002
 20
7.5747974065
 30
0.0
 10
20.014934078
 20
7.5748609067
 30
0.0
 10
20.0148900911
 20
7.5748609246
 30
0.0
  0
SPLINE
  5
46E
100
AcDbEntity
  8
0
100
AcDbSpline
 62
7
  6
CONTINUOUS
 70
0
 71
3
 72
17
 73
13
 74
0
 42
0.0000001
 43
0.0000001
 44
0.0000000001
 40
0.0
 40
0.0
 40
0.0
 40
0.0
 40
0.034981557
 40
0.0768428604
 40
0.1250350037
 40
0.1790087429
 40
0.3018150696
 40
0.4392292677
 40
0.5847372426
 40
0.7313488729
 40
0.8719814343
 40
1.0
 40
1.0
 40
1.0
 40
1.0
 10
20.0219808961
 20
6.715369016
 30
0.0
 10
20.0217252399
 20
6.7232025914
 30
0.0
 10
20.0212333731
 20
6.7404126157
 30
0.0
 10
20.0205582101
 20
6.7684190692
 30
0.0
 10
20.0198797831
 20
6.8006817978
 30
0.0
 10
20.0189314111
 20
6.8510787496
 30
0.0
 10
20.0177813553
 20
6.9214658145
 30
0.0
 10
20.0164419582
 20
7.0123609097
 30
0.0
 10
20.0151003969
 20
7.1085901856
 30
0.0
 10
20.0137584689
 20
7.2055406083
 30
0.0
 10
20.0124177881
 20
7.2985720938
 30
0.0
 10
20.0114710016
 20
7.358756966
 30
0.0
 10
20.0109802081
 20
7.3874357954
 30
0.0
  0
SPLINE
  5
46F
100
AcDbEntity
  8
0
100
AcDbSpline
 62
9
  6
CONTINUOUS
 70
0
 71
3
 72
63
 73
59
 74
0
 42
0.0000001
 43
0.0000001
 44
0.0000000001
 40
0.0
 40
0.0
 40
0.0
 40
0.0
 40
0.0000550109
 40
0.0002177629
 40
0.0004874676
 40
0.0008633367
 40
0.0019304153
 40
0.0034126925
 40
0.0053038626
 40
0.0075976198
 40
0.0102876587
 40
0.013367674
 40
0.0206636107
 40
0.0293909831
 40
0.0394465606
 40
0.0507271373
 40
0.0631314725
 40
0.0765661158
 40
0.106160573
 40
0.1388136754
 40
0.17396572
 40
0.2111216789
 40
0.2499015903
 40
0.2899669373
 40
0.3310171944
 40
0.3728005425
 40
0.4150506192
 40
0.43629121
 40
0.457547339
 40
0.4999996328
 40
0.5424520728
 40
0.5637083069
 40
0.5849489827
 40
0.6271991366
 40
0.6689825112
 40
0.7100328266
 40
0.7500982527
 40
0.7888782322
 40
0.8260342312
 40
0.8611862801
 40
0.8938393655
 40
0.9234338045
 40
0.9368684449
 40
0.9492727847
 40
0.9605533749
 40
0.9706089696
 40
0.9793363559
 40
0.9866322968
 40
0.9897123089
 40
0.9924023425
 40
0.9946960943
 40
0.996587261
 40
0.9980695388
 40
0.9991366239
 40
0.9995124992
 40
0.9997822124
 40
0.9999449753
 40
1.0
 40
1.0
 40
1.0
 40
1.0
 10
21.5219803356
 20
7.8461704861
 30
0.0
 10
21.5219615034
 20
7.8461503549
 30
0.0
 10
21.5218832167
 20
7.8460742673
 30
0.0
 10
21.5217123739
 20
7.8458997038
 30
0.0
 10
21.5214260588
 20
7.8456131514
 30
0.0
 10
21.5208213412
 20
7.8450041721
 30
0.0
 10
21.5197870426
 20
7.8439654233
 30
0.0
 10
21.5182170486
 20
7.8423885291
 30
0.0
 10
21.5162123243
 20
7.8403770363
 30
0.0
 10
21.5137795307
 20
7.8379377006
 30
0.0
 10
21.5109249046
 20
7.8350776866
 30
0.0
 10
21.5062976967
 20
7.8304453214
 30
0.0
 10
21.4995279535
 20
7.8236769645
 30
0.0
 10
21.4902738923
 20
7.8144495162
 30
0.0
 10
21.4795883095
 20
7.8038298427
 30
0.0
 10
21.4675730142
 20
7.7919342946
 30
0.0
 10
21.4543262347
 20
7.7788759263
 30
0.0
 10
21.4344923643
 20
7.7594272107
 30
0.0
 10
21.4072879316
 20
7.7330026133
 30
0.0
 10
21.3720136928
 20
7.6992681155
 30
0.0
 10
21.3336055288
 20
7.6633320258
 30
0.0
 10
21.2924279123
 20
7.6258679928
 30
0.0
 10
21.2486637177
 20
7.5876026838
 30
0.0
 10
21.2024359424
 20
7.5492108037
 30
0.0
 10
21.1534565222
 20
7.5118358739
 30
0.0
 10
21.1015172114
 20
7.476672467
 30
0.0
 10
21.0552051038
 20
7.4511268895
 30
0.0
 10
21.015967444
 20
7.434745994
 30
0.0
 10
20.9753019836
 20
7.42200405
 30
0.0
 10
20.9219814089
 20
7.4147185794
 30
0.0
 10
20.8686607608
 20
7.4220039008
 30
0.0
 10
20.827995094
 20
7.4347457495
 30
0.0
 10
20.7887572621
 20
7.4511265853
 30
0.0
 10
20.7424450464
 20
7.4766721702
 30
0.0
 10
20.6905056468
 20
7.51183559
 30
0.0
 10
20.6415261548
 20
7.5492105622
 30
0.0
 10
20.5952983011
 20
7.5876025092
 30
0.0
 10
20.5515340397
 20
7.6258678844
 30
0.0
 10
20.5103563816
 20
7.6633319553
 30
0.0
 10
20.4719481963
 20
7.6992680423
 30
0.0
 10
20.4366739562
 20
7.7330025164
 30
0.0
 10
20.4094695346
 20
7.7594270977
 30
0.0
 10
20.3896356708
 20
7.7788758084
 30
0.0
 10
20.3763888873
 20
7.7919341834
 30
0.0
 10
20.3643735808
 20
7.8038297454
 30
0.0
 10
20.3536879833
 20
7.8144494358
 30
0.0
 10
20.3444339101
 20
7.8236768972
 30
0.0
 10
20.3376641613
 20
7.830445259
 30
0.0
 10
20.333036954
 20
7.8350776216
 30
0.0
 10
20.3301823318
 20
7.8379376297
 30
0.0
 10
20.3277495425
 20
7.8403769596
 30
0.0
 10
20.3257448197
 20
7.8423884482
 30
0.0
 10
20.3241748251
 20
7.8439653445
 30
0.0
 10
20.3231405187
 20
7.845004095
 30
0.0
 10
20.3225357977
 20
7.8456130858
 30
0.0
 10
20.3222494671
 20
7.8458996413
 30
0.0
 10
20.3220786249
 20
7.8460742281
 30
0.0
 10
20.3220003173
 20
7.846150313
 30
0.0
 10
20.321981486
 20
7.8461704545
 30
0.0
  0
ENDSEC
  0
SECTION
  2
OBJECTS
  0
DICTIONARY
  5
C
100
AcDbDictionary
280
0
281
1
  3
ACAD_GROUP
350
D
  3
ACAD_MLINESTYLE
350
17
  3
ACAD_LAYOUT
350
1A
  3
ACAD_PLOTSETTINGS
350
19
  3
ACAD_PLOTSTYLENAME
350
E
  0
DICTIONARY
  5
D
102
{ACAD_REACTORS
330
C
102
}
100
AcDbDictionary
280
0
281
1
  0
ACDBDICTIONARYWDFLT
  5
E
102
{ACAD_REACTORS
330
C
102
}
100
AcDbDictionary
281
1
  3
Normal
350
F
100
AcDbDictionaryWithDefault
340
F
  0
DICTIONARY
  5
17
102
{ACAD_REACTORS
330
C
102
}
100
AcDbDictionary
280
0
281
1
  3
Standard
350
18
  0
DICTIONARY
  5
19
102
{ACAD_REACTORS
330
C
102
}
100
AcDbDictionary
281
1
  0
DICTIONARY
  5
1A
102
{ACAD_REACTORS
330
C
102
}
100
AcDbDictionary
281
1
  3
Model
350
470
  3
Layout1
350
471
  0
ACDBPLACEHOLDER
  5
F
102
{ACAD_REACTORS
330
E
102
}
  0
MLINESTYLE
  5
18
102
{ACAD_REACTORS
330
17
102
}
100
AcDbMlineStyle
  2
STANDARD
 70
0
  3

 62
256
 51
90.0
 52
90.0
 71
2
 49
0.5
 62
256
  6
BYLAYER
 49
-0.5
 62
256
  6
BYLAYER
  0
LAYOUT
  5
470
102
{ACAD_REACTORS
330
1A
102
}
100
AcDbPlotSettings
  1

  2
none_device
  4
ANSI_C_(22.00_x_17.00_Inches)
  6

 40
0.0
 41
0.0
 42
0.0
 43
0.0
 44
558.8
 45
431.8
 46
0.0
 47
0.0
 48
0.0
 49
0.0
140
0.0
141
0.0
142
1.0
143
1.0
 70
1024
 72
0
 73
0
 74
0
  7

 75
0
147
1.0
148
0.0
149
0.0
100
AcDbLayout
  1
Model
 70
0
 71
0
 10
0.0
 20
0.0
 11
22.0
 21
17.0
 12
0.0
 22
0.0
 32
0.0
 14
0.0
 24
0.0
 34
0.0
 15
0.0
 25
0.0
 35
0.0
146
0.0
 13
0.0
 23
0.0
 33
0.0
 16
1.0
 26
0.0
 36
0.0
 17
0.0
 27
1.0
 37
0.0
 76
0
330
202
345
0
346
0
  0
LAYOUT
  5
471
102
{ACAD_REACTORS
330
1A
102
}
100
AcDbPlotSettings
  1

  2
none_device
  4
ANSI_C_(22.00_x_17.00_Inches)
  6

 40
0.0
 41
0.0
 42
0.0
 43
0.0
 44
558.8
 45
431.8
 46
0.0
 47
0.0
 48
0.0
 49
0.0
140
0.0
141
0.0
142
1.0
143
1.0
 70
0
 72
0
 73
0
 74
0
  7

 75
0
147
1.0
148
0.0
149
0.0
100
AcDbLayout
  1
Layout1
 70
0
 71
1
 10
0.0
 20
0.0
 11
22.0
 21
17.0
 12
0.0
 22
0.0
 32
0.0
 14
0.0
 24
0.0
 34
0.0
 15
0.0
 25
0.0
 35
0.0
146
0.0
 13
0.0
 23
0.0
 33
0.0
 16
1.0
 26
0.0
 36
0.0
 17
0.0
 27
1.0
 37
0.0
 76
0
330
203
345
0
346
0
  0
ENDSEC
  0
EOF
