999
DXF file: E:\BT Custom\CADOUTPUT\_FRONT.dxf
999
Pro/ENGINEER 2018400 by Parametric Technology Corporation
  0
SECTION
  2
HEADER
  9
$ACADVER
  1
AC1018
  9
$DWGCODEPAGE
  3
ANSI_1252
  9
$EXTMAX
 10
22.0
 20
17.0
 30
0.0
  9
$EXTMIN
 10
0.0
 20
0.0
 30
0.0
  9
$LIMMIN
 10
0.0
 20
0.0
  9
$LIMMAX
 10
22.0
 20
17.0
  9
$VIEWCTR
 10
11.0
 20
8.5
  9
$VIEWSIZE
 40
17.0
  9
$CLAYER
  8
0
  9
$LTSCALE
 40
1.21
  9
$CELTYPE
  6
BYLAYER
  9
$DIMSCALE
 40
1.0
  9
$DIMASZ
 40
0.1
  9
$DIMEXO
 40
0.0625
  9
$DIMDLI
 40
0.836
  9
$DIMEXE
 40
0.125
  9
$DIMCEN
 40
0.198
  9
$DIMLFAC
 40
1.0
  9
$DIMBLK
  1
_FILLED
  9
$DIMALT
 70
1
  9
$DIMALTD
 70
2
  9
$DIMALTTD
 70
2
  9
$DIMALTF
 40
25.4
  9
$DIMTXT
 40
0.08
  9
$DIMTOL
 70
1
  9
$DIMLIM
 70
0
  9
$DIMTFAC
 40
1.0
  9
$DIMTP
 40
0.001
  9
$DIMTM
 40
0.001
  9
$DIMGAP
 40
0.09
  9
$DIMDSEP
 70
46
  9
$AUNITS
 70
0
  9
$PDMODE
 70
3
  9
$PDSIZE
 40
0.06
  9
$HANDSEED
  5
446
  9
$TILEMODE
 70
1
  9
$MEASUREMENT
 70
0
  9
$INSUNITS
 70
1
  0
ENDSEC
  0
SECTION
  2
CLASSES
  0
CLASS
  1
ACDBDICTIONARYWDFLT
  2
AcDbDictionaryWithDefault
  3
AutoCAD 2000
 90
0
 91
1
280
0
281
0
  0
CLASS
  1
ACDBPLACEHOLDER
  2
AcDbPlaceHolder
  3
AutoCAD 2000
 90
0
 91
1
280
0
281
0
  0
CLASS
  1
LAYOUT
  2
AcDbLayout
  3
AutoCAD 2000
 90
0
 91
0
280
0
281
0
  0
ENDSEC
  0
SECTION
  2
TABLES
  0
TABLE
  2
VPORT
  5
8
100
AcDbSymbolTable
 70
2
  0
VPORT
  5
1F4
100
AcDbSymbolTableRecord
100
AcDbViewportTableRecord
  2
*ACTIVE
 70
0
 10
0.0
 20
0.0
 11
1.0
 21
1.0
 12
11.0
 22
8.5
 13
0.0
 23
0.0
 14
1.0
 24
1.0
 15
0.0
 25
0.0
 16
0.0
 26
0.0
 36
1.0
 17
0.0
 27
0.0
 37
0.0
 40
17.0
 41
1.2941176471
 42
50.0
 43
0.0
 44
0.0
 50
0.0
 51
0.0
 71
0
 72
100
 73
1
 74
1
 75
0
 76
0
 77
0
 78
0
  0
ENDTAB
  0
TABLE
  2
LTYPE
  5
5
100
AcDbSymbolTable
 70
6
  0
LTYPE
  5
14
100
AcDbSymbolTableRecord
100
AcDbLinetypeTableRecord
  2
BYBLOCK
 70
0
  3

 72
65
 73
0
 40
0.0
  0
LTYPE
  5
15
100
AcDbSymbolTableRecord
100
AcDbLinetypeTableRecord
  2
BYLAYER
 70
0
  3

 72
65
 73
0
 40
0.0
  0
LTYPE
  5
16
100
AcDbSymbolTableRecord
100
AcDbLinetypeTableRecord
  2
CONTINUOUS
 70
64
  3
Solid line
 72
65
 73
0
 40
0.0
  0
LTYPE
  5
1F5
100
AcDbSymbolTableRecord
100
AcDbLinetypeTableRecord
  2
CENTER
 70
64
  3
____ _ ____ _ ____ _ ____ _ ____ _ ____ _ ____
 72
65
 73
4
 40
0.6
 49
0.375
 74
0
 49
-0.075
 74
0
 49
0.075
 74
0
 49
-0.075
 74
0
  0
LTYPE
  5
1F6
100
AcDbSymbolTableRecord
100
AcDbLinetypeTableRecord
  2
HIDDEN
 70
64
  3
- - - - - - - - - - - - - - - - - - - -
 72
65
 73
2
 40
0.2
 49
0.1
 74
0
 49
-0.1
 74
0
  0
LTYPE
  5
1F7
100
AcDbSymbolTableRecord
100
AcDbLinetypeTableRecord
  2
PHANTOM
 70
64
  3
_____ _ _ _____ _ _ _____ _ _ _____
 72
65
 73
6
 40
0.8
 49
0.45
 74
0
 49
-0.05
 74
0
 49
0.1
 74
0
 49
-0.05
 74
0
 49
0.1
 74
0
 49
-0.05
 74
0
  0
LTYPE
  5
1F8
100
AcDbSymbolTableRecord
100
AcDbLinetypeTableRecord
  2
DOT
 70
64
  3
. . . . . . . . . . . . . . . . . . . .
 72
65
 73
2
 40
0.2
 49
0.1
 74
0
 49
-0.1
 74
0
  0
LTYPE
  5
1F9
100
AcDbSymbolTableRecord
100
AcDbLinetypeTableRecord
  2
DASHED
 70
64
  3
- - - - - - - - - - - - - - - - - - - -
 72
65
 73
2
 40
0.2
 49
0.1
 74
0
 49
-0.1
 74
0
  0
ENDTAB
  0
TABLE
  2
LAYER
  5
2
100
AcDbSymbolTable
 70
36
  0
LAYER
  5
10
100
AcDbSymbolTableRecord
100
AcDbLayerTableRecord
  2
0
 70
0
 62
7
  6
CONTINUOUS
370
-3
390
F
  0
LAYER
  5
1FA
100
AcDbSymbolTableRecord
100
AcDbLayerTableRecord
  2
DEFAULT_1
 70
0
 62
7
  6
CENTER
370
-3
390
F
  0
LAYER
  5
1FB
100
AcDbSymbolTableRecord
100
AcDbLayerTableRecord
  2
DEFAULT_2
 70
0
 62
8
  6
HIDDEN
370
-3
390
F
  0
LAYER
  5
1FC
100
AcDbSymbolTableRecord
100
AcDbLayerTableRecord
  2
DEFAULT_3
 70
0
 62
7
  6
PHANTOM
370
-3
390
F
  0
LAYER
  5
1FD
100
AcDbSymbolTableRecord
100
AcDbLayerTableRecord
  2
ALL_FEATURES
 70
0
 62
7
  6
CONTINUOUS
370
-3
390
F
  0
LAYER
  5
1FE
100
AcDbSymbolTableRecord
100
AcDbLayerTableRecord
  2
AXES_FEATURES
 70
0
 62
7
  6
CONTINUOUS
370
-3
390
F
  0
LAYER
  5
1FF
100
AcDbSymbolTableRecord
100
AcDbLayerTableRecord
  2
DEFAULT_COORDINATE_SYSTEM
 70
0
 62
7
  6
CONTINUOUS
370
-3
390
F
  0
LAYER
  5
200
100
AcDbSymbolTableRecord
100
AcDbLayerTableRecord
  2
DEFAULT_DATUM_AXES
 70
0
 62
7
  6
CONTINUOUS
370
-3
390
F
  0
LAYER
  5
201
100
AcDbSymbolTableRecord
100
AcDbLayerTableRecord
  2
DEFAULT_DATUM_PLANES
 70
0
 62
7
  6
CONTINUOUS
370
-3
390
F
  0
LAYER
  5
202
100
AcDbSymbolTableRecord
100
AcDbLayerTableRecord
  2
DIMENSIONS
 70
0
 62
7
  6
CONTINUOUS
370
-3
390
F
  0
ENDTAB
  0
TABLE
  2
STYLE
  5
3
100
AcDbSymbolTable
 70
1
  0
STYLE
  5
11
100
AcDbSymbolTableRecord
100
AcDbTextStyleTableRecord
  2
STANDARD
 70
0
 40
0.0
 41
0.8
 50
0.0
 71
0
 42
0.2
  3
txt
  4

  0
STYLE
  5
203
100
AcDbSymbolTableRecord
100
AcDbTextStyleTableRecord
  2
TEXTSTYLE_1
 70
0
 40
0.0
 41
0.8
 50
0.0
 71
0
 42
0.2
  3
gdt
  4

  0
ENDTAB
  0
TABLE
  2
VIEW
  5
6
100
AcDbSymbolTable
 70
0
  0
ENDTAB
  0
TABLE
  2
UCS
  5
7
100
AcDbSymbolTable
 70
0
  0
ENDTAB
  0
TABLE
  2
APPID
  5
9
100
AcDbSymbolTable
 70
1
  0
APPID
  5
204
100
AcDbSymbolTableRecord
100
AcDbRegAppTableRecord
  2
ACAD
 70
0
  0
ENDTAB
  0
TABLE
  2
BLOCK_RECORD
  5
1
100
AcDbSymbolTable
 70
0
  0
BLOCK_RECORD
  5
205
100
AcDbSymbolTableRecord
100
AcDbBlockTableRecord
  2
*Model_Space
  0
BLOCK_RECORD
  5
206
100
AcDbSymbolTableRecord
100
AcDbBlockTableRecord
  2
*Paper_Space
  0
BLOCK_RECORD
  5
207
100
AcDbSymbolTableRecord
100
AcDbBlockTableRecord
  2
_FILLED
  0
ENDTAB
  0
TABLE
  2
DIMSTYLE
  5
A
100
AcDbSymbolTable
 70
1
100
AcDbDimStyleTable
 71
0
  0
DIMSTYLE
105
208
100
AcDbSymbolTableRecord
100
AcDbDimStyleTableRecord
  2
STANDARD
 70
0
  3

  4

 40
1.0
 41
0.1
 42
0.0625
 43
0.38
 44
0.125
 45
0.0
 46
0.0
 47
0.001
 48
0.001
140
0.08
141
0.09
142
0.0
143
25.4
144
1.0
145
0.0
146
1.0
147
0.09
 71
1.0
 72
0.0
 73
1
 74
1
 75
0
 76
0
 77
0
 78
4
 79
1
170
1
171
2
172
0
173
0
174
0
175
0
176
0
177
0
178
0
270
2
179
3
271
3
272
3
273
2
274
2
275
0
280
0
281
0
282
0
283
1
284
4
285
0
286
0
287
3
288
0
340
11
278
46
341
207
342
207
343
207
344
207
  0
ENDTAB
  0
ENDSEC
  0
SECTION
  2
BLOCKS
  0
BLOCK
  5
20
100
AcDbEntity
  8
0
100
AcDbBlockBegin
  2
*Model_Space
 70
0
 10
0.0
 20
0.0
 30
0.0
  3
*Model_Space
  1

  0
ENDBLK
  5
21
100
AcDbEntity
  8
0
100
AcDbBlockEnd
  0
BLOCK
  5
1C
100
AcDbEntity
  8
0
100
AcDbBlockBegin
  2
*Paper_Space
 70
0
 10
0.0
 20
0.0
 30
0.0
  3
*Paper_Space
  1

  0
ENDBLK
  5
1D
100
AcDbEntity
  8
0
100
AcDbBlockEnd
  0
BLOCK
  5
209
100
AcDbEntity
  8
0
100
AcDbBlockBegin
  2
_FILLED
 70
64
 10
0.0
 20
0.0
  3
_FILLED
  1

  0
SOLID
  5
20A
100
AcDbEntity
  8
0
  6
BYBLOCK
 62
0
100
AcDbTrace
 10
0.0
 20
0.0
 11
-1.0
 21
0.2
 12
-1.0
 22
-0.2
 13
-1.0
 23
-0.2
  0
ENDBLK
  5
20B
100
AcDbEntity
  8
0
  6
BYBLOCK
 62
0
100
AcDbBlockEnd
  0
ENDSEC
  0
SECTION
  2
ENTITIES
  0
LINE
  5
20C
100
AcDbEntity
  8
0
100
AcDbLine
 62
7
  6
CONTINUOUS
 10
11.8238308704
 20
4.6306635611
 11
10.0465538151
 21
4.6306635611
  0
LINE
  5
20D
100
AcDbEntity
  8
0
100
AcDbLine
 62
9
  6
CONTINUOUS
 10
11.8460113019
 20
4.6349138664
 11
10.0243733836
 21
4.6349138664
  0
LINE
  5
20E
100
AcDbEntity
  8
0
100
AcDbLine
 62
9
  6
CONTINUOUS
 10
9.9588234197
 20
4.6630303075
 11
9.9812228844
 21
4.6630303075
  0
LINE
  5
20F
100
AcDbEntity
  8
0
100
AcDbLine
 62
9
  6
CONTINUOUS
 10
10.2781273262
 20
4.6630303075
 11
10.6382879009
 21
4.6630303075
  0
LINE
  5
210
100
AcDbEntity
  8
0
100
AcDbLine
 62
9
  6
CONTINUOUS
 10
11.2320967845
 20
4.6630303075
 11
11.5922573593
 21
4.6630303075
  0
LINE
  5
211
100
AcDbEntity
  8
0
100
AcDbLine
 62
9
  6
CONTINUOUS
 10
11.8891618011
 20
4.6630303075
 11
11.9115612658
 21
4.6630303075
  0
LINE
  5
212
100
AcDbEntity
  8
0
100
AcDbLine
 62
9
  6
CONTINUOUS
 10
9.9471923427
 20
4.6811951396
 11
9.969858643
 21
4.6811951396
  0
LINE
  5
213
100
AcDbEntity
  8
0
100
AcDbLine
 62
9
  6
CONTINUOUS
 10
10.2702999839
 20
4.6811951396
 11
10.6347510018
 21
4.6811951396
  0
LINE
  5
214
100
AcDbEntity
  8
0
100
AcDbLine
 62
9
  6
CONTINUOUS
 10
11.2356336837
 20
4.6811951396
 11
11.6000847015
 21
4.6811951396
  0
LINE
  5
215
100
AcDbEntity
  8
0
100
AcDbLine
 62
9
  6
CONTINUOUS
 10
11.9005260425
 20
4.6811951396
 11
11.9231923427
 21
4.6811951396
  0
LINE
  5
216
100
AcDbEntity
  8
0
100
AcDbLine
 62
9
  6
CONTINUOUS
 10
11.9231923427
 20
4.8701319825
 11
11.9005260425
 21
4.8701319825
  0
LINE
  5
217
100
AcDbEntity
  8
0
100
AcDbLine
 62
9
  6
CONTINUOUS
 10
11.6000847015
 20
4.8701319825
 11
11.2356336837
 21
4.8701319825
  0
LINE
  5
218
100
AcDbEntity
  8
0
100
AcDbLine
 62
9
  6
CONTINUOUS
 10
10.6347510018
 20
4.8701319825
 11
10.2702999839
 21
4.8701319825
  0
LINE
  5
219
100
AcDbEntity
  8
0
100
AcDbLine
 62
9
  6
CONTINUOUS
 10
9.969858643
 20
4.8701319825
 11
9.9471923427
 21
4.8701319825
  0
LINE
  5
21A
100
AcDbEntity
  8
0
100
AcDbLine
 62
9
  6
CONTINUOUS
 10
11.9115612658
 20
4.8882968147
 11
11.8891618011
 21
4.8882968147
  0
LINE
  5
21B
100
AcDbEntity
  8
0
100
AcDbLine
 62
9
  6
CONTINUOUS
 10
11.5922573593
 20
4.8882968147
 11
11.2320967845
 21
4.8882968147
  0
LINE
  5
21C
100
AcDbEntity
  8
0
100
AcDbLine
 62
9
  6
CONTINUOUS
 10
10.6382879009
 20
4.8882968147
 11
10.2781273262
 21
4.8882968147
  0
LINE
  5
21D
100
AcDbEntity
  8
0
100
AcDbLine
 62
9
  6
CONTINUOUS
 10
9.9812228844
 20
4.8882968147
 11
9.9588234197
 21
4.8882968147
  0
LINE
  5
21E
100
AcDbEntity
  8
0
100
AcDbLine
 62
9
  6
CONTINUOUS
 10
10.0243733836
 20
4.9164132557
 11
11.8460113019
 21
4.9164132557
  0
LINE
  5
21F
100
AcDbEntity
  8
0
100
AcDbLine
 62
7
  6
CONTINUOUS
 10
10.0465538151
 20
4.9206635611
 11
11.8238308704
 21
4.9206635611
  0
LINE
  5
220
100
AcDbEntity
  8
0
100
AcDbLine
 62
7
  6
CONTINUOUS
 10
11.8101923427
 20
5.0556635611
 11
10.0601923427
 21
5.0556635611
  0
LWPOLYLINE
  5
221
100
AcDbEntity
  8
0
100
AcDbPolyline
 62
7
  6
CONTINUOUS
 90
8
 70
0
 10
12.259487509
 20
5.8333475604
 10
12.2600623671
 20
5.8333558237
 10
12.2635664281
 20
5.8337679175
 10
12.2669435475
 20
5.8347893419
 10
12.2700886275
 20
5.8363883085
 10
12.2729037918
 20
5.8385150552
 10
12.2753014314
 20
5.8411033952
 10
12.2759067449
 20
5.8419279121
  0
LINE
  5
222
100
AcDbEntity
  8
0
100
AcDbLine
 62
7
  6
CONTINUOUS
 10
12.259487509
 20
5.8333474103
 11
12.0576941167
 21
5.8333474103
  0
LINE
  5
223
100
AcDbEntity
  8
0
100
AcDbLine
 62
7
  6
CONTINUOUS
 10
9.6158971765
 20
5.8333474103
 11
9.8176905688
 21
5.8333474103
  0
LINE
  5
224
100
AcDbEntity
  8
0
100
AcDbLine
 62
9
  6
CONTINUOUS
 10
12.2740799233
 20
5.8748795352
 11
12.0439641487
 21
5.8748795352
  0
LINE
  5
225
100
AcDbEntity
  8
0
100
AcDbLine
 62
9
  6
CONTINUOUS
 10
9.6013047622
 20
5.8748795352
 11
9.8314205368
 21
5.8748795352
  0
LINE
  5
226
100
AcDbEntity
  8
0
100
AcDbLine
 62
7
  6
CONTINUOUS
 10
10.1394072268
 20
5.9816635611
 11
9.8651923427
 21
5.9816635611
  0
LINE
  5
227
100
AcDbEntity
  8
0
100
AcDbLine
 62
7
  6
CONTINUOUS
 10
11.7309774586
 20
5.9816635611
 11
12.0101923427
 21
5.9816635611
  0
LINE
  5
228
100
AcDbEntity
  8
0
100
AcDbLine
 62
9
  6
CONTINUOUS
 10
12.2740799233
 20
6.0365376105
 11
12.0439641487
 21
6.0365376105
  0
LINE
  5
229
100
AcDbEntity
  8
0
100
AcDbLine
 62
9
  6
CONTINUOUS
 10
9.6013047622
 20
6.0365376105
 11
9.8314205368
 21
6.0365376105
  0
LINE
  5
22A
100
AcDbEntity
  8
0
100
AcDbLine
 62
7
  6
CONTINUOUS
 10
13.4001923427
 20
6.0866635611
 11
12.6301923427
 21
6.0866635611
  0
LINE
  5
22B
100
AcDbEntity
  8
0
100
AcDbLine
 62
7
  6
CONTINUOUS
 10
8.4751923427
 20
6.0866635611
 11
9.2451923427
 21
6.0866635611
  0
LINE
  5
22C
100
AcDbEntity
  8
0
100
AcDbLine
 62
9
  6
CONTINUOUS
 10
12.2899706522
 20
6.6316352111
 11
12.2740799233
 21
6.6283216364
  0
LINE
  5
22D
100
AcDbEntity
  8
0
100
AcDbLine
 62
9
  6
CONTINUOUS
 10
12.0267552212
 20
6.3022249251
 11
12.0439641487
 21
6.3050054857
  0
LINE
  5
22E
100
AcDbEntity
  8
0
100
AcDbLine
 62
9
  6
CONTINUOUS
 10
12.2740799233
 20
6.3050054857
 11
12.0439641487
 21
6.3050054857
  0
LINE
  5
22F
100
AcDbEntity
  8
0
100
AcDbLine
 62
9
  6
CONTINUOUS
 10
9.6013047622
 20
6.3050054857
 11
9.8314205368
 21
6.3050054857
  0
LINE
  5
230
100
AcDbEntity
  8
0
100
AcDbLine
 62
9
  6
CONTINUOUS
 10
9.8486294643
 20
6.3022249251
 11
9.8314205368
 21
6.3050054857
  0
LINE
  5
231
100
AcDbEntity
  8
0
100
AcDbLine
 62
9
  6
CONTINUOUS
 10
9.5854140333
 20
6.6316352111
 11
9.6013047622
 21
6.6283216364
  0
LINE
  5
232
100
AcDbEntity
  8
0
100
AcDbLine
 62
9
  6
CONTINUOUS
 10
8.8810102733
 20
7.1585742546
 11
8.8931974096
 21
7.1458820685
  0
LWPOLYLINE
  5
233
100
AcDbEntity
  8
0
100
AcDbPolyline
 62
7
  6
CONTINUOUS
 90
8
 70
0
 10
9.5994779406
 20
5.8419279121
 10
9.6000832541
 20
5.8411033952
 10
9.6024808937
 20
5.8385150552
 10
9.605296058
 20
5.8363883085
 10
9.608441138
 20
5.8347893419
 10
9.6118182574
 20
5.8337679175
 10
9.6153223183
 20
5.8333558237
 10
9.6158971765
 20
5.8333475604
  0
LINE
  5
234
100
AcDbEntity
  8
0
100
AcDbLine
 62
7
  6
CONTINUOUS
 10
9.5951923427
 20
5.8482621365
 11
9.5994779676
 21
5.8419279309
  0
LINE
  5
235
100
AcDbEntity
  8
0
100
AcDbLine
 62
7
  6
CONTINUOUS
 10
8.6460697418
 20
6.9257018405
 11
8.5656244154
 21
7.1661275778
  0
LWPOLYLINE
  5
236
100
AcDbEntity
  8
0
100
AcDbPolyline
 62
7
  6
CONTINUOUS
 90
4
 70
0
 10
8.5635596639
 20
7.1788099308
 10
8.5637304192
 20
7.175119227
 10
8.5646720473
 20
7.1694458592
 10
8.5656250378
 20
7.1661277859
  0
LINE
  5
237
100
AcDbEntity
  8
0
100
AcDbLine
 62
7
  6
CONTINUOUS
 10
8.3751923427
 20
6.1092038941
 11
8.3751923427
 21
6.824123228
  0
LINE
  5
238
100
AcDbEntity
  8
0
100
AcDbLine
 62
7
  6
CONTINUOUS
 10
8.4751923427
 20
6.8466635611
 11
8.4751923427
 21
6.0866635611
  0
LINE
  5
239
100
AcDbEntity
  8
0
100
AcDbLine
 62
9
  6
CONTINUOUS
 10
9.5854140333
 20
6.301691911
 11
9.6013047622
 21
6.3050054857
  0
LINE
  5
23A
100
AcDbEntity
  8
0
100
AcDbLine
 62
9
  6
CONTINUOUS
 10
9.8486294643
 20
6.631102197
 11
9.8314205368
 21
6.6283216364
  0
LINE
  5
23B
100
AcDbEntity
  8
0
100
AcDbLine
 62
9
  6
CONTINUOUS
 10
12.2740799233
 20
6.6283216364
 11
12.0439641487
 21
6.6283216364
  0
LINE
  5
23C
100
AcDbEntity
  8
0
100
AcDbLine
 62
9
  6
CONTINUOUS
 10
9.6013047622
 20
6.6283216364
 11
9.8314205368
 21
6.6283216364
  0
LINE
  5
23D
100
AcDbEntity
  8
0
100
AcDbLine
 62
9
  6
CONTINUOUS
 10
12.0267552212
 20
6.631102197
 11
12.0439641487
 21
6.6283216364
  0
LINE
  5
23E
100
AcDbEntity
  8
0
100
AcDbLine
 62
9
  6
CONTINUOUS
 10
12.2899706522
 20
6.301691911
 11
12.2740799233
 21
6.3050054857
  0
LINE
  5
23F
100
AcDbEntity
  8
0
100
AcDbLine
 62
9
  6
CONTINUOUS
 10
8.7493744122
 20
8.9963052307
 11
8.7463547121
 21
9.0351853027
  0
LINE
  5
240
100
AcDbEntity
  8
0
100
AcDbLine
 62
7
  6
CONTINUOUS
 10
8.5635564814
 20
8.9946389342
 11
8.5635564814
 21
7.1788099291
  0
LINE
  5
241
100
AcDbEntity
  8
0
100
AcDbLine
 62
9
  6
CONTINUOUS
 10
8.5796334329
 20
8.9963052307
 11
8.5796334329
 21
7.1585742547
  0
LINE
  5
242
100
AcDbEntity
  8
0
100
AcDbLine
 62
9
  6
CONTINUOUS
 10
8.6454513636
 20
8.9963052307
 11
8.6454513636
 21
7.1585742547
  0
LINE
  5
243
100
AcDbEntity
  8
0
100
AcDbLine
 62
9
  6
CONTINUOUS
 10
8.749374412
 20
8.9963052307
 11
8.749374412
 21
7.1585742547
  0
LWPOLYLINE
  5
244
100
AcDbEntity
  8
0
100
AcDbPolyline
 62
7
  6
CONTINUOUS
 90
8
 70
0
 10
9.6158971764
 20
7.0999795615
 10
9.615322319
 20
7.0999712983
 10
9.6118182586
 20
7.0995592047
 10
9.6084411394
 20
7.0985377806
 10
9.6052960592
 20
7.0969388143
 10
9.6024808946
 20
7.0948120677
 10
9.6000832545
 20
7.0922237274
 10
9.5994779405
 20
7.0913992098
  0
LINE
  5
245
100
AcDbEntity
  8
0
100
AcDbLine
 62
7
  6
CONTINUOUS
 10
9.2451923427
 20
6.8466635611
 11
9.0412143455
 21
6.8466635611
  0
LINE
  5
246
100
AcDbEntity
  8
0
100
AcDbLine
 62
7
  6
CONTINUOUS
 10
8.589170334
 20
6.8466635611
 11
8.4751923427
 21
6.8466635611
  0
LINE
  5
247
100
AcDbEntity
  8
0
100
AcDbLine
 62
7
  6
CONTINUOUS
 10
12.6301923427
 20
6.8466635611
 11
12.8341703399
 21
6.8466635611
  0
LINE
  5
248
100
AcDbEntity
  8
0
100
AcDbLine
 62
7
  6
CONTINUOUS
 10
13.2862143515
 20
6.8466635611
 11
13.4001923427
 21
6.8466635611
  0
LINE
  5
249
100
AcDbEntity
  8
0
100
AcDbLine
 62
9
  6
CONTINUOUS
 10
12.2740799233
 20
6.8967895116
 11
12.0439641487
 21
6.8967895116
  0
LINE
  5
24A
100
AcDbEntity
  8
0
100
AcDbLine
 62
9
  6
CONTINUOUS
 10
9.6013047622
 20
6.8967895116
 11
9.8314205368
 21
6.8967895116
  0
LINE
  5
24B
100
AcDbEntity
  8
0
100
AcDbLine
 62
7
  6
CONTINUOUS
 10
10.1394072269
 20
6.9516635611
 11
9.8651923427
 21
6.9516635611
  0
LINE
  5
24C
100
AcDbEntity
  8
0
100
AcDbLine
 62
7
  6
CONTINUOUS
 10
11.7309774587
 20
6.9516635611
 11
12.0101923427
 21
6.9516635611
  0
LINE
  5
24D
100
AcDbEntity
  8
0
100
AcDbLine
 62
9
  6
CONTINUOUS
 10
12.2740799233
 20
7.058447587
 11
12.0439641487
 21
7.058447587
  0
LINE
  5
24E
100
AcDbEntity
  8
0
100
AcDbLine
 62
9
  6
CONTINUOUS
 10
9.6013047622
 20
7.058447587
 11
9.8314205368
 21
7.058447587
  0
LINE
  5
24F
100
AcDbEntity
  8
0
100
AcDbLine
 62
7
  6
CONTINUOUS
 10
12.2594875091
 20
7.0999797118
 11
12.0576941167
 21
7.0999797118
  0
LINE
  5
250
100
AcDbEntity
  8
0
100
AcDbLine
 62
7
  6
CONTINUOUS
 10
9.6158971764
 20
7.0999797118
 11
9.8176905688
 21
7.0999797118
  0
LINE
  5
251
100
AcDbEntity
  8
0
100
AcDbLine
 62
9
  6
CONTINUOUS
 10
8.8810102734
 20
8.9963052307
 11
8.8810102734
 21
7.1585742547
  0
LINE
  5
252
100
AcDbEntity
  8
0
100
AcDbLine
 62
9
  6
CONTINUOUS
 10
8.9849333219
 20
8.9963052307
 11
8.9849333219
 21
7.1585742547
  0
LINE
  5
253
100
AcDbEntity
  8
0
100
AcDbLine
 62
9
  6
CONTINUOUS
 10
9.0507512526
 20
8.9963052307
 11
9.0507512526
 21
7.1585742547
  0
LINE
  5
254
100
AcDbEntity
  8
0
100
AcDbLine
 62
7
  6
CONTINUOUS
 10
9.0668282041
 20
8.9946389342
 11
9.0668282041
 21
7.1788099291
  0
LINE
  5
255
100
AcDbEntity
  8
0
100
AcDbLine
 62
9
  6
CONTINUOUS
 10
8.8810102734
 20
8.9963052307
 11
8.8840299733
 21
9.0351853027
  0
LINE
  5
256
100
AcDbEntity
  8
0
100
AcDbLine
 62
7
  6
CONTINUOUS
 10
11.7601923427
 20
7.4056635611
 11
10.1101923427
 21
7.4056635611
  0
LINE
  5
257
100
AcDbEntity
  8
0
100
AcDbLine
 62
9
  6
CONTINUOUS
 10
10.0365724911
 20
7.4376002844
 11
10.0562814806
 21
7.4376002844
  0
LINE
  5
258
100
AcDbEntity
  8
0
100
AcDbLine
 62
9
  6
CONTINUOUS
 10
10.333641259
 20
7.4376002844
 11
10.6578325644
 21
7.4376002844
  0
LINE
  5
259
100
AcDbEntity
  8
0
100
AcDbLine
 62
9
  6
CONTINUOUS
 10
11.2125521211
 20
7.4376002844
 11
11.5367434265
 21
7.4376002844
  0
LINE
  5
25A
100
AcDbEntity
  8
0
100
AcDbLine
 62
9
  6
CONTINUOUS
 10
11.8141032048
 20
7.4376002844
 11
11.8338121943
 21
7.4376002844
  0
LINE
  5
25B
100
AcDbEntity
  8
0
100
AcDbLine
 62
9
  6
CONTINUOUS
 10
10.0256923427
 20
7.455399956
 11
10.0456399612
 21
7.455399956
  0
LINE
  5
25C
100
AcDbEntity
  8
0
100
AcDbLine
 62
9
  6
CONTINUOUS
 10
10.3263579066
 20
7.455399956
 11
10.6544743974
 21
7.455399956
  0
LINE
  5
25D
100
AcDbEntity
  8
0
100
AcDbLine
 62
9
  6
CONTINUOUS
 10
11.2159102881
 20
7.455399956
 11
11.5440267789
 21
7.455399956
  0
LINE
  5
25E
100
AcDbEntity
  8
0
100
AcDbLine
 62
9
  6
CONTINUOUS
 10
11.8247447243
 20
7.455399956
 11
11.8446923427
 21
7.455399956
  0
LINE
  5
25F
100
AcDbEntity
  8
0
100
AcDbLine
 62
9
  6
CONTINUOUS
 10
9.2451923427
 20
6.8466635611
 11
9.2451923427
 21
6.0866635611
  0
LINE
  5
260
100
AcDbEntity
  8
0
100
AcDbLine
 62
7
  6
CONTINUOUS
 10
9.3051923427
 20
6.0105429095
 11
9.3051923427
 21
6.9227842126
  0
LINE
  5
261
100
AcDbEntity
  8
0
100
AcDbLine
 62
9
  6
CONTINUOUS
 10
9.3401571319
 20
5.9708610919
 11
9.3401571319
 21
6.9624660302
  0
LINE
  5
262
100
AcDbEntity
  8
0
100
AcDbLine
 62
9
  6
CONTINUOUS
 10
9.4151923427
 20
5.9593447079
 11
9.4151923427
 21
6.9739824142
  0
LINE
  5
263
100
AcDbEntity
  8
0
100
AcDbLine
 62
9
  6
CONTINUOUS
 10
9.4951923427
 20
5.9341909963
 11
9.4951923427
 21
6.9991361259
  0
LINE
  5
264
100
AcDbEntity
  8
0
100
AcDbLine
 62
9
  6
CONTINUOUS
 10
11.8446923427
 20
7.6559271662
 11
11.8247447243
 21
7.6559271662
  0
LINE
  5
265
100
AcDbEntity
  8
0
100
AcDbLine
 62
9
  6
CONTINUOUS
 10
11.5440267789
 20
7.6559271662
 11
11.2159102881
 21
7.6559271662
  0
LINE
  5
266
100
AcDbEntity
  8
0
100
AcDbLine
 62
9
  6
CONTINUOUS
 10
10.6544743974
 20
7.6559271662
 11
10.3263579066
 21
7.6559271662
  0
LINE
  5
267
100
AcDbEntity
  8
0
100
AcDbLine
 62
9
  6
CONTINUOUS
 10
10.0456399612
 20
7.6559271662
 11
10.0256923427
 21
7.6559271662
  0
LINE
  5
268
100
AcDbEntity
  8
0
100
AcDbLine
 62
9
  6
CONTINUOUS
 10
11.8338121943
 20
7.6737268377
 11
11.8141032048
 21
7.6737268377
  0
LINE
  5
269
100
AcDbEntity
  8
0
100
AcDbLine
 62
9
  6
CONTINUOUS
 10
11.5367434265
 20
7.6737268377
 11
11.2125521211
 21
7.6737268377
  0
LINE
  5
26A
100
AcDbEntity
  8
0
100
AcDbLine
 62
9
  6
CONTINUOUS
 10
10.6578325644
 20
7.6737268377
 11
10.333641259
 21
7.6737268377
  0
LINE
  5
26B
100
AcDbEntity
  8
0
100
AcDbLine
 62
9
  6
CONTINUOUS
 10
10.0562814806
 20
7.6737268377
 11
10.0365724911
 21
7.6737268377
  0
LINE
  5
26C
100
AcDbEntity
  8
0
100
AcDbLine
 62
7
  6
CONTINUOUS
 10
11.7601923427
 20
7.7056635611
 11
10.1101923427
 21
7.7056635611
  0
LINE
  5
26D
100
AcDbEntity
  8
0
100
AcDbLine
 62
7
  6
CONTINUOUS
 10
11.7101923427
 20
7.7756635611
 11
10.1601923427
 21
7.7756635611
  0
LINE
  5
26E
100
AcDbEntity
  8
0
100
AcDbLine
 62
9
  6
CONTINUOUS
 10
9.5951923427
 20
5.8482621365
 11
9.5951923427
 21
5.85360248
  0
LINE
  5
26F
100
AcDbEntity
  8
0
100
AcDbLine
 62
9
  6
CONTINUOUS
 10
9.5951923427
 20
6.0899025104
 11
9.5951923427
 21
6.2303635307
  0
LINE
  5
270
100
AcDbEntity
  8
0
100
AcDbLine
 62
9
  6
CONTINUOUS
 10
9.5951923427
 20
6.7029635914
 11
9.5951923427
 21
6.8434246118
  0
LINE
  5
271
100
AcDbEntity
  8
0
100
AcDbLine
 62
9
  6
CONTINUOUS
 10
9.5951923427
 20
7.0797246421
 11
9.5951923427
 21
7.0850649856
  0
LINE
  5
272
100
AcDbEntity
  8
0
100
AcDbLine
 62
7
  6
CONTINUOUS
 10
9.8651923427
 20
5.8966635611
 11
9.8651923427
 21
7.0366635611
  0
LWPOLYLINE
  5
273
100
AcDbEntity
  8
0
100
AcDbPolyline
 62
7
  6
CONTINUOUS
 90
4
 70
0
 10
9.0647596477
 20
7.1661277859
 10
9.0657126382
 20
7.1694458592
 10
9.0666542663
 20
7.175119227
 10
9.0668250216
 20
7.1788099308
  0
LINE
  5
274
100
AcDbEntity
  8
0
100
AcDbLine
 62
7
  6
CONTINUOUS
 10
8.9843149436
 20
6.9257018405
 11
9.06476027
 21
7.1661275778
  0
LINE
  5
275
100
AcDbEntity
  8
0
100
AcDbLine
 62
7
  6
CONTINUOUS
 10
11.3351923427
 20
7.9366635611
 11
10.5351923427
 21
7.9366635611
  0
LINE
  5
276
100
AcDbEntity
  8
0
100
AcDbLine
 62
7
  6
CONTINUOUS
 10
9.9471923427
 20
4.6811951396
 11
9.9471923427
 21
4.8701319825
  0
LINE
  5
277
100
AcDbEntity
  8
0
100
AcDbLine
 62
9
  6
CONTINUOUS
 10
9.969858643
 20
4.8701319825
 11
9.969858643
 21
4.6811951396
  0
LINE
  5
278
100
AcDbEntity
  8
0
100
AcDbLine
 62
9
  6
CONTINUOUS
 10
9.9787412827
 20
4.871358046
 11
9.9787412827
 21
4.6799690761
  0
LINE
  5
279
100
AcDbEntity
  8
0
100
AcDbLine
 62
7
  6
CONTINUOUS
 10
10.0256923427
 20
7.455399956
 11
10.0256923427
 21
7.6559271662
  0
LINE
  5
27A
100
AcDbEntity
  8
0
100
AcDbLine
 62
9
  6
CONTINUOUS
 10
10.0456399612
 20
7.6559271662
 11
10.0456399612
 21
7.455399956
  0
LINE
  5
27B
100
AcDbEntity
  8
0
100
AcDbLine
 62
9
  6
CONTINUOUS
 10
10.054603328
 20
7.6573202806
 11
10.054603328
 21
7.4540068415
  0
LINE
  5
27C
100
AcDbEntity
  8
0
100
AcDbLine
 62
7
  6
CONTINUOUS
 10
10.0601923427
 20
4.9206635611
 11
10.0601923427
 21
5.0556635611
  0
LINE
  5
27D
100
AcDbEntity
  8
0
100
AcDbLine
 62
7
  6
CONTINUOUS
 10
10.1301923427
 20
5.0556635611
 11
10.1301923427
 21
5.9666635611
  0
LINE
  5
27E
100
AcDbEntity
  8
0
100
AcDbLine
 62
7
  6
CONTINUOUS
 10
10.1301923427
 20
6.9666635611
 11
10.1301923427
 21
7.4056635611
  0
LINE
  5
27F
100
AcDbEntity
  8
0
100
AcDbLine
 62
7
  6
CONTINUOUS
 10
10.1601923427
 20
7.7056635611
 11
10.1601923427
 21
7.7756635611
  0
LINE
  5
280
100
AcDbEntity
  8
0
100
AcDbLine
 62
9
  6
CONTINUOUS
 10
10.2548553896
 20
4.6799690761
 11
10.2548553896
 21
4.871358046
  0
LINE
  5
281
100
AcDbEntity
  8
0
100
AcDbLine
 62
9
  6
CONTINUOUS
 10
10.2702999839
 20
4.6811951396
 11
10.2702999839
 21
4.8701319825
  0
LINE
  5
282
100
AcDbEntity
  8
0
100
AcDbLine
 62
9
  6
CONTINUOUS
 10
10.6590782359
 20
4.871358046
 11
10.6566960006
 21
4.8895413988
  0
LINE
  5
283
100
AcDbEntity
  8
0
100
AcDbLine
 62
9
  6
CONTINUOUS
 10
10.3106292056
 20
7.4540068415
 11
10.3106292056
 21
7.6573202806
  0
LINE
  5
284
100
AcDbEntity
  8
0
100
AcDbLine
 62
9
  6
CONTINUOUS
 10
10.3263579066
 20
7.455399956
 11
10.3263579066
 21
7.6559271662
  0
LINE
  5
285
100
AcDbEntity
  8
0
100
AcDbLine
 62
7
  6
CONTINUOUS
 10
10.5351923427
 20
7.7756635611
 11
10.5351923427
 21
7.9366635611
  0
LINE
  5
286
100
AcDbEntity
  8
0
100
AcDbLine
 62
9
  6
CONTINUOUS
 10
10.6791664651
 20
7.6573202806
 11
10.6765594763
 21
7.6751659601
  0
LINE
  5
287
100
AcDbEntity
  8
0
100
AcDbLine
 62
9
  6
CONTINUOUS
 10
11.2113064496
 20
4.6799690761
 11
11.2136886849
 21
4.6617857234
  0
LINE
  5
288
100
AcDbEntity
  8
0
100
AcDbLine
 62
9
  6
CONTINUOUS
 10
10.6347510018
 20
4.8701319825
 11
10.6347510018
 21
4.6811951396
  0
LINE
  5
289
100
AcDbEntity
  8
0
100
AcDbLine
 62
9
  6
CONTINUOUS
 10
10.6544743974
 20
7.6559271662
 11
10.6544743974
 21
7.455399956
  0
LINE
  5
28A
100
AcDbEntity
  8
0
100
AcDbLine
 62
9
  6
CONTINUOUS
 10
10.6590782359
 20
4.871358046
 11
10.6590782359
 21
4.6799690761
  0
LINE
  5
28B
100
AcDbEntity
  8
0
100
AcDbLine
 62
9
  6
CONTINUOUS
 10
10.6791664651
 20
7.6573202806
 11
10.6791664651
 21
7.4540068415
  0
LINE
  5
28C
100
AcDbEntity
  8
0
100
AcDbLine
 62
7
  6
CONTINUOUS
 10
10.6851923427
 20
7.9366635611
 11
10.6851923427
 21
13.6556635611
  0
LINE
  5
28D
100
AcDbEntity
  8
0
100
AcDbLine
 62
9
  6
CONTINUOUS
 10
10.6791664651
 20
7.4540068415
 11
10.6765594763
 21
7.4361611621
  0
LINE
  5
28E
100
AcDbEntity
  8
0
100
AcDbLine
 62
9
  6
CONTINUOUS
 10
8.749374412
 20
7.1585742547
 11
8.7371872757
 21
7.1458820686
  0
LINE
  5
28F
100
AcDbEntity
  8
0
100
AcDbLine
 62
7
  6
CONTINUOUS
 10
13.0606264098
 20
9.0606636646
 11
13.0597582757
 21
9.0606636646
  0
LINE
  5
290
100
AcDbEntity
  8
0
100
AcDbLine
 62
7
  6
CONTINUOUS
 10
8.8156264098
 20
9.0606636646
 11
8.8147582757
 21
9.0606636646
  0
LWPOLYLINE
  5
291
100
AcDbEntity
  8
0
100
AcDbPolyline
 62
7
  6
CONTINUOUS
 90
8
 70
0
 10
12.275906745
 20
7.0913992098
 10
12.275301431
 20
7.0922237274
 10
12.2729037909
 20
7.0948120677
 10
12.2700886262
 20
7.0969388143
 10
12.2669435461
 20
7.0985377806
 10
12.2635664269
 20
7.0995592047
 10
12.2600623664
 20
7.0999712983
 10
12.2594875091
 20
7.0999795615
  0
LINE
  5
292
100
AcDbEntity
  8
0
100
AcDbLine
 62
7
  6
CONTINUOUS
 10
12.2801923427
 20
7.0850649856
 11
12.275906718
 21
7.0913991911
  0
LINE
  5
293
100
AcDbEntity
  8
0
100
AcDbLine
 62
9
  6
CONTINUOUS
 10
11.1912182203
 20
7.4540068415
 11
11.1938252091
 21
7.4361611621
  0
LINE
  5
294
100
AcDbEntity
  8
0
100
AcDbLine
 62
7
  6
CONTINUOUS
 10
11.1851923427
 20
7.9366635611
 11
11.1851923427
 21
13.6556635611
  0
LINE
  5
295
100
AcDbEntity
  8
0
100
AcDbLine
 62
9
  6
CONTINUOUS
 10
11.1912182203
 20
7.4540068415
 11
11.1912182203
 21
7.6573202806
  0
LINE
  5
296
100
AcDbEntity
  8
0
100
AcDbLine
 62
9
  6
CONTINUOUS
 10
11.2113064496
 20
4.6799690761
 11
11.2113064496
 21
4.871358046
  0
LINE
  5
297
100
AcDbEntity
  8
0
100
AcDbLine
 62
9
  6
CONTINUOUS
 10
11.2159102881
 20
7.455399956
 11
11.2159102881
 21
7.6559271662
  0
LINE
  5
298
100
AcDbEntity
  8
0
100
AcDbLine
 62
9
  6
CONTINUOUS
 10
11.2356336837
 20
4.6811951396
 11
11.2356336837
 21
4.8701319825
  0
LINE
  5
299
100
AcDbEntity
  8
0
100
AcDbLine
 62
7
  6
CONTINUOUS
 10
11.3351923427
 20
7.7756635611
 11
11.3351923427
 21
7.9366635611
  0
LINE
  5
29A
100
AcDbEntity
  8
0
100
AcDbLine
 62
9
  6
CONTINUOUS
 10
10.6590782359
 20
4.6799690761
 11
10.6566960006
 21
4.6617857234
  0
LINE
  5
29B
100
AcDbEntity
  8
0
100
AcDbLine
 62
7
  6
CONTINUOUS
 10
9.5951923427
 20
7.0850649856
 11
9.5994779675
 21
7.0913991911
  0
LINE
  5
29C
100
AcDbEntity
  8
0
100
AcDbLine
 62
9
  6
CONTINUOUS
 10
13.1260102733
 20
7.1585742546
 11
13.1381974096
 21
7.1458820685
  0
LINE
  5
29D
100
AcDbEntity
  8
0
100
AcDbLine
 62
9
  6
CONTINUOUS
 10
11.5440267789
 20
7.6559271662
 11
11.5440267789
 21
7.455399956
  0
LINE
  5
29E
100
AcDbEntity
  8
0
100
AcDbLine
 62
9
  6
CONTINUOUS
 10
11.5597554798
 20
7.6573202806
 11
11.5597554798
 21
7.4540068415
  0
LINE
  5
29F
100
AcDbEntity
  8
0
100
AcDbLine
 62
9
  6
CONTINUOUS
 10
11.6000847015
 20
4.8701319825
 11
11.6000847015
 21
4.6811951396
  0
LINE
  5
2A0
100
AcDbEntity
  8
0
100
AcDbLine
 62
9
  6
CONTINUOUS
 10
11.6155292959
 20
4.871358046
 11
11.6155292959
 21
4.6799690761
  0
LINE
  5
2A1
100
AcDbEntity
  8
0
100
AcDbLine
 62
9
  6
CONTINUOUS
 10
11.1912182203
 20
7.6573202806
 11
11.1938252091
 21
7.6751659601
  0
LINE
  5
2A2
100
AcDbEntity
  8
0
100
AcDbLine
 62
7
  6
CONTINUOUS
 10
11.7101923427
 20
7.7056635611
 11
11.7101923427
 21
7.7756635611
  0
LINE
  5
2A3
100
AcDbEntity
  8
0
100
AcDbLine
 62
7
  6
CONTINUOUS
 10
11.7401923427
 20
5.0556635611
 11
11.7401923427
 21
5.9666635611
  0
LINE
  5
2A4
100
AcDbEntity
  8
0
100
AcDbLine
 62
7
  6
CONTINUOUS
 10
11.7401923427
 20
6.9666635611
 11
11.7401923427
 21
7.4056635611
  0
LINE
  5
2A5
100
AcDbEntity
  8
0
100
AcDbLine
 62
7
  6
CONTINUOUS
 10
11.8101923427
 20
4.9206635611
 11
11.8101923427
 21
5.0556635611
  0
LINE
  5
2A6
100
AcDbEntity
  8
0
100
AcDbLine
 62
9
  6
CONTINUOUS
 10
11.8157813574
 20
7.4540068415
 11
11.8157813574
 21
7.6573202806
  0
LINE
  5
2A7
100
AcDbEntity
  8
0
100
AcDbLine
 62
9
  6
CONTINUOUS
 10
11.8247447243
 20
7.455399956
 11
11.8247447243
 21
7.6559271662
  0
LINE
  5
2A8
100
AcDbEntity
  8
0
100
AcDbLine
 62
7
  6
CONTINUOUS
 10
11.8446923427
 20
7.455399956
 11
11.8446923427
 21
7.6559271662
  0
LINE
  5
2A9
100
AcDbEntity
  8
0
100
AcDbLine
 62
9
  6
CONTINUOUS
 10
11.8916434027
 20
4.6799690761
 11
11.8916434027
 21
4.871358046
  0
LINE
  5
2AA
100
AcDbEntity
  8
0
100
AcDbLine
 62
9
  6
CONTINUOUS
 10
11.9005260425
 20
4.6811951396
 11
11.9005260425
 21
4.8701319825
  0
LINE
  5
2AB
100
AcDbEntity
  8
0
100
AcDbLine
 62
7
  6
CONTINUOUS
 10
11.9231923427
 20
4.6811951396
 11
11.9231923427
 21
4.8701319825
  0
LINE
  5
2AC
100
AcDbEntity
  8
0
100
AcDbLine
 62
7
  6
CONTINUOUS
 10
12.0101923427
 20
5.8966635611
 11
12.0101923427
 21
7.0366635611
  0
LINE
  5
2AD
100
AcDbEntity
  8
0
100
AcDbLine
 62
9
  6
CONTINUOUS
 10
11.2113064496
 20
4.871358046
 11
11.2136886849
 21
4.8895413988
  0
LINE
  5
2AE
100
AcDbEntity
  8
0
100
AcDbLine
 62
9
  6
CONTINUOUS
 10
12.2801923427
 20
5.8482621365
 11
12.2801923427
 21
5.85360248
  0
LINE
  5
2AF
100
AcDbEntity
  8
0
100
AcDbLine
 62
9
  6
CONTINUOUS
 10
12.2801923427
 20
6.0899025104
 11
12.2801923427
 21
6.2303635307
  0
LINE
  5
2B0
100
AcDbEntity
  8
0
100
AcDbLine
 62
9
  6
CONTINUOUS
 10
12.2801923427
 20
6.7029635914
 11
12.2801923427
 21
6.8434246118
  0
LINE
  5
2B1
100
AcDbEntity
  8
0
100
AcDbLine
 62
9
  6
CONTINUOUS
 10
12.2801923427
 20
7.0797246421
 11
12.2801923427
 21
7.0850649856
  0
LINE
  5
2B2
100
AcDbEntity
  8
0
100
AcDbLine
 62
9
  6
CONTINUOUS
 10
12.3801923427
 20
5.9341909963
 11
12.3801923427
 21
6.9991361259
  0
LINE
  5
2B3
100
AcDbEntity
  8
0
100
AcDbLine
 62
7
  6
CONTINUOUS
 10
12.8910697418
 20
6.9257018405
 11
12.8106244154
 21
7.1661275778
  0
LWPOLYLINE
  5
2B4
100
AcDbEntity
  8
0
100
AcDbPolyline
 62
7
  6
CONTINUOUS
 90
4
 70
0
 10
12.8085596639
 20
7.1788099308
 10
12.8087304188
 20
7.1751192308
 10
12.809672046
 20
7.1694458647
 10
12.8106250378
 20
7.1661277859
  0
LINE
  5
2B5
100
AcDbEntity
  8
0
100
AcDbLine
 62
9
  6
CONTINUOUS
 10
12.4601923427
 20
5.9593447079
 11
12.4601923427
 21
6.9739824142
  0
LINE
  5
2B6
100
AcDbEntity
  8
0
100
AcDbLine
 62
9
  6
CONTINUOUS
 10
12.5352275536
 20
6.9624660302
 11
12.5352275536
 21
5.9708610919
  0
LINE
  5
2B7
100
AcDbEntity
  8
0
100
AcDbLine
 62
7
  6
CONTINUOUS
 10
12.5701923427
 20
6.9227842126
 11
12.5701923427
 21
6.0105429095
  0
LINE
  5
2B8
100
AcDbEntity
  8
0
100
AcDbLine
 62
9
  6
CONTINUOUS
 10
12.6301923427
 20
6.0866635611
 11
12.6301923427
 21
6.8466635611
  0
LINE
  5
2B9
100
AcDbEntity
  8
0
100
AcDbLine
 62
9
  6
CONTINUOUS
 10
12.9943744122
 20
8.9963052307
 11
12.9913547121
 21
9.0351853027
  0
LINE
  5
2BA
100
AcDbEntity
  8
0
100
AcDbLine
 62
7
  6
CONTINUOUS
 10
12.8085564814
 20
8.9946389342
 11
12.8085564814
 21
7.1788099291
  0
LINE
  5
2BB
100
AcDbEntity
  8
0
100
AcDbLine
 62
9
  6
CONTINUOUS
 10
12.8246334329
 20
8.9963052307
 11
12.8246334329
 21
7.1585742547
  0
LINE
  5
2BC
100
AcDbEntity
  8
0
100
AcDbLine
 62
9
  6
CONTINUOUS
 10
12.8904513636
 20
8.9963052307
 11
12.8904513636
 21
7.1585742547
  0
LINE
  5
2BD
100
AcDbEntity
  8
0
100
AcDbLine
 62
9
  6
CONTINUOUS
 10
12.994374412
 20
8.9963052307
 11
12.994374412
 21
7.1585742547
  0
LINE
  5
2BE
100
AcDbEntity
  8
0
100
AcDbLine
 62
7
  6
CONTINUOUS
 10
11.1851907643
 20
11.1556635611
 11
10.6851939212
 21
11.1556635611
  0
LINE
  5
2BF
100
AcDbEntity
  8
0
100
AcDbLine
 62
9
  6
CONTINUOUS
 10
13.1260102734
 20
8.9963052307
 11
13.1260102734
 21
7.1585742547
  0
LINE
  5
2C0
100
AcDbEntity
  8
0
100
AcDbLine
 62
9
  6
CONTINUOUS
 10
13.2299333219
 20
8.9963052307
 11
13.2299333219
 21
7.1585742547
  0
LINE
  5
2C1
100
AcDbEntity
  8
0
100
AcDbLine
 62
9
  6
CONTINUOUS
 10
13.2957512526
 20
8.9963052307
 11
13.2957512526
 21
7.1585742547
  0
LINE
  5
2C2
100
AcDbEntity
  8
0
100
AcDbLine
 62
7
  6
CONTINUOUS
 10
13.3118282041
 20
8.9946389342
 11
13.3118282041
 21
7.1788099291
  0
LINE
  5
2C3
100
AcDbEntity
  8
0
100
AcDbLine
 62
7
  6
CONTINUOUS
 10
13.4001923427
 20
6.0866635611
 11
13.4001923427
 21
6.8466635611
  0
LINE
  5
2C4
100
AcDbEntity
  8
0
100
AcDbLine
 62
9
  6
CONTINUOUS
 10
13.1260102734
 20
8.9963052307
 11
13.1290299733
 21
9.0351853027
  0
LINE
  5
2C5
100
AcDbEntity
  8
0
100
AcDbLine
 62
9
  6
CONTINUOUS
 10
11.1851923427
 20
11.6556635611
 11
10.6851923427
 21
11.6556635611
  0
LINE
  5
2C6
100
AcDbEntity
  8
0
100
AcDbLine
 62
7
  6
CONTINUOUS
 10
13.5001923427
 20
6.1092038941
 11
13.5001923427
 21
6.824123228
  0
LWPOLYLINE
  5
2C7
100
AcDbEntity
  8
0
100
AcDbPolyline
 62
7
  6
CONTINUOUS
 90
4
 70
0
 10
13.3097596477
 20
7.1661277859
 10
13.3107126395
 20
7.1694458647
 10
13.3116542667
 20
7.1751192308
 10
13.3118250216
 20
7.1788099308
  0
LINE
  5
2C8
100
AcDbEntity
  8
0
100
AcDbLine
 62
7
  6
CONTINUOUS
 10
13.2293149436
 20
6.9257018405
 11
13.30976027
 21
7.1661275778
  0
LINE
  5
2C9
100
AcDbEntity
  8
0
100
AcDbLine
 62
7
  6
CONTINUOUS
 10
12.2801923427
 20
5.8482621365
 11
12.2759067179
 21
5.8419279309
  0
LINE
  5
2CA
100
AcDbEntity
  8
0
100
AcDbLine
 62
9
  6
CONTINUOUS
 10
12.994374412
 20
7.1585742547
 11
12.9821872757
 21
7.1458820686
  0
ARC
  5
2CB
100
AcDbEntity
  8
0
100
AcDbCircle
 62
7
  6
CONTINUOUS
 10
9.1569034541
 20
4.5266635611
 40
1.4557775993
100
AcDbArc
 50
79.7802889337
 51
82.7684068827
  0
ARC
  5
2CC
100
AcDbEntity
  8
0
100
AcDbCircle
 62
9
  6
CONTINUOUS
 10
9.0637979861
 20
5.6658418724
 40
0.5767237456
100
AcDbArc
 50
18.1265378817
 51
21.2511767787
  0
ARC
  5
2CD
100
AcDbEntity
  8
0
100
AcDbCircle
 62
9
  6
CONTINUOUS
 10
9.1028984572
 20
5.6893275771
 40
0.5189792996
100
AcDbArc
 50
18.4534808324
 51
21.6057493813
  0
ARC
  5
2CE
100
AcDbEntity
  8
0
100
AcDbCircle
 62
7
  6
CONTINUOUS
 10
9.3561168119
 20
5.6316635611
 40
0.3329637403
100
AcDbArc
 50
65.3111845702
 51
79.7802889337
  0
ARC
  5
2CF
100
AcDbEntity
  8
0
100
AcDbCircle
 62
7
  6
CONTINUOUS
 10
9.3951923427
 20
5.7166635611
 40
0.2394121657
100
AcDbArc
 50
33.3446316102
 51
65.3111845702
  0
ARC
  5
2D0
100
AcDbEntity
  8
0
100
AcDbCircle
 62
7
  6
CONTINUOUS
 10
9.2451923427
 20
6.0266635611
 40
0.06
100
AcDbArc
 50
0.0
 51
90.0
  0
ARC
  5
2D1
100
AcDbEntity
  8
0
100
AcDbCircle
 62
7
  6
CONTINUOUS
 10
9.3451923427
 20
6.0105429095
 40
0.04
100
AcDbArc
 50
180.0
 51
262.7684068827
  0
ARC
  5
2D2
100
AcDbEntity
  8
0
100
AcDbCircle
 62
7
  6
CONTINUOUS
 10
9.1569034541
 20
8.4066635611
 40
1.4557775993
100
AcDbArc
 50
277.2315931173
 51
280.2197110663
  0
ARC
  5
2D3
100
AcDbEntity
  8
0
100
AcDbCircle
 62
7
  6
CONTINUOUS
 10
8.8156264098
 20
8.1506636646
 40
0.91
100
AcDbArc
 50
75.9505072594
 51
90.0
  0
ARC
  5
2D4
100
AcDbEntity
  8
0
100
AcDbCircle
 62
7
  6
CONTINUOUS
 10
8.8147582757
 20
8.1506636646
 40
0.91
100
AcDbArc
 50
90.0
 51
104.0494927406
  0
ARC
  5
2D5
100
AcDbEntity
  8
0
100
AcDbCircle
 62
9
  6
CONTINUOUS
 10
8.8151946996
 20
8.1489575047
 40
0.8888970721
100
AcDbArc
 50
85.5586272785
 51
94.4412576181
  0
ARC
  5
2D6
100
AcDbEntity
  8
0
100
AcDbCircle
 62
9
  6
CONTINUOUS
 10
8.8151948944
 20
8.14888211
 40
0.8499750641
100
AcDbArc
 50
85.5590204103
 51
94.4408452102
  0
ARC
  5
2D7
100
AcDbEntity
  8
0
100
AcDbCircle
 62
9
  6
CONTINUOUS
 10
9.0766253451
 20
7.2628952045
 40
0.5631050693
100
AcDbArc
 50
338.7110288702
 51
341.9112564695
  0
ARC
  5
2D8
100
AcDbEntity
  8
0
100
AcDbCircle
 62
9
  6
CONTINUOUS
 10
9.1141048323
 20
7.2399141971
 40
0.5070560977
100
AcDbArc
 50
338.3571788279
 51
341.5835909584
  0
ARC
  5
2D9
100
AcDbEntity
  8
0
100
AcDbCircle
 62
7
  6
CONTINUOUS
 10
9.3561168119
 20
7.3016635611
 40
0.3329637403
100
AcDbArc
 50
280.2197110663
 51
294.6888154298
  0
ARC
  5
2DA
100
AcDbEntity
  8
0
100
AcDbCircle
 62
7
  6
CONTINUOUS
 10
9.3951923427
 20
7.2166635611
 40
0.2394121657
100
AcDbArc
 50
294.6888154298
 51
326.6553683898
  0
ARC
  5
2DB
100
AcDbEntity
  8
0
100
AcDbCircle
 62
7
  6
CONTINUOUS
 10
9.2451923427
 20
6.9066635611
 40
0.06
100
AcDbArc
 50
270.0
 51
360.0
  0
ARC
  5
2DC
100
AcDbEntity
  8
0
100
AcDbCircle
 62
7
  6
CONTINUOUS
 10
9.0412143629
 20
6.9066635611
 40
0.06
100
AcDbArc
 50
161.4999999985
 51
269.9999833731
  0
ARC
  5
2DD
100
AcDbEntity
  8
0
100
AcDbCircle
 62
7
  6
CONTINUOUS
 10
8.5891703225
 20
6.9066635611
 40
0.06
100
AcDbArc
 50
270.0000133101
 51
18.5000000007
  0
ARC
  5
2DE
100
AcDbEntity
  8
0
100
AcDbCircle
 62
7
  6
CONTINUOUS
 10
8.4277326758
 20
6.824123228
 40
0.0525403331
100
AcDbArc
 50
25.4047544257
 51
180.0
  0
ARC
  5
2DF
100
AcDbEntity
  8
0
100
AcDbCircle
 62
7
  6
CONTINUOUS
 10
8.4277326758
 20
6.1092038941
 40
0.0525403331
100
AcDbArc
 50
180.0
 51
334.5952455743
  0
ARC
  5
2E0
100
AcDbEntity
  8
0
100
AcDbCircle
 62
7
  6
CONTINUOUS
 10
9.3451923427
 20
6.9227842126
 40
0.04
100
AcDbArc
 50
97.2315931173
 51
180.0
  0
ARC
  5
2E1
100
AcDbEntity
  8
0
100
AcDbCircle
 62
7
  6
CONTINUOUS
 10
10.5212150504
 20
3.6676200951
 40
1.344
100
AcDbArc
 50
111.6955047478
 51
114.7365254906
  0
ARC
  5
2E2
100
AcDbEntity
  8
0
100
AcDbCircle
 62
7
  6
CONTINUOUS
 10
10.5212150504
 20
5.8837070271
 40
1.344
100
AcDbArc
 50
245.2634745094
 51
248.3044952522
  0
ARC
  5
2E3
100
AcDbEntity
  8
0
100
AcDbCircle
 62
7
  6
CONTINUOUS
 10
9.6077044789
 20
6.0066635611
 40
0.28
100
AcDbArc
 50
323.8658738338
 51
336.8676036007
  0
ARC
  5
2E4
100
AcDbEntity
  8
0
100
AcDbCircle
 62
7
  6
CONTINUOUS
 10
10.0465538151
 20
4.8606635611
 40
0.06
100
AcDbArc
 50
90.0
 51
111.6955047478
  0
ARC
  5
2E5
100
AcDbEntity
  8
0
100
AcDbCircle
 62
7
  6
CONTINUOUS
 10
10.0465538151
 20
4.6906635611
 40
0.06
100
AcDbArc
 50
248.3044952522
 51
270.0
  0
ARC
  5
2E6
100
AcDbEntity
  8
0
100
AcDbCircle
 62
7
  6
CONTINUOUS
 10
9.9671923427
 20
4.6811951396
 40
0.02
100
AcDbArc
 50
180.0
 51
245.2634745094
  0
ARC
  5
2E7
100
AcDbEntity
  8
0
100
AcDbCircle
 62
7
  6
CONTINUOUS
 10
9.9671923427
 20
4.8701319825
 40
0.02
100
AcDbArc
 50
114.7365254906
 51
180.0
  0
ARC
  5
2E8
100
AcDbEntity
  8
0
100
AcDbCircle
 62
7
  6
CONTINUOUS
 10
9.8176905688
 20
5.8533474103
 40
0.02
100
AcDbArc
 50
270.0000000002
 51
323.8658738338
  0
ARC
  5
2E9
100
AcDbEntity
  8
0
100
AcDbCircle
 62
9
  6
CONTINUOUS
 10
10.3951183479
 20
6.7927444941
 40
0.8498465856
100
AcDbArc
 50
159.9160593907
 51
160.2641268446
  0
ARC
  5
2EA
100
AcDbEntity
  8
0
100
AcDbCircle
 62
9
  6
CONTINUOUS
 10
10.3882091003
 20
6.1380992215
 40
0.8425045838
100
AcDbArc
 50
199.7355751103
 51
200.0868631873
  0
ARC
  5
2EB
100
AcDbEntity
  8
0
100
AcDbCircle
 62
7
  6
CONTINUOUS
 10
10.3218404352
 20
7.1169550902
 40
0.6255977771
100
AcDbArc
 50
109.7741487539
 51
117.1288167388
  0
ARC
  5
2EC
100
AcDbEntity
  8
0
100
AcDbCircle
 62
7
  6
CONTINUOUS
 10
10.3218404352
 20
7.9943720319
 40
0.6255977771
100
AcDbArc
 50
242.8711832612
 51
250.2258512461
  0
ARC
  5
2ED
100
AcDbEntity
  8
0
100
AcDbCircle
 62
7
  6
CONTINUOUS
 10
9.6077044789
 20
6.9266635611
 40
0.28
100
AcDbArc
 50
23.1323963993
 51
36.1341261662
  0
ARC
  5
2EE
100
AcDbEntity
  8
0
100
AcDbCircle
 62
7
  6
CONTINUOUS
 10
10.0456923427
 20
7.455399956
 40
0.02
100
AcDbArc
 50
180.0
 51
242.8711832612
  0
ARC
  5
2EF
100
AcDbEntity
  8
0
100
AcDbCircle
 62
7
  6
CONTINUOUS
 10
10.0456923427
 20
7.6559271662
 40
0.02
100
AcDbArc
 50
117.1288167388
 51
180.0
  0
ARC
  5
2F0
100
AcDbEntity
  8
0
100
AcDbCircle
 62
7
  6
CONTINUOUS
 10
9.8176905688
 20
7.0799797118
 40
0.02
100
AcDbArc
 50
36.1341261662
 51
89.9999999998
  0
ARC
  5
2F1
100
AcDbEntity
  8
0
100
AcDbCircle
 62
7
  6
CONTINUOUS
 10
10.9351923427
 20
13.6556635611
 40
0.25
100
AcDbArc
 50
0.0
 51
180.0
  0
ARC
  5
2F2
100
AcDbEntity
  8
0
100
AcDbCircle
 62
9
  6
CONTINUOUS
 10
8.6394753678
 20
8.8146132127
 40
0.2232404685
100
AcDbArc
 50
81.1309314793
 51
98.8691368423
  0
ARC
  5
2F3
100
AcDbEntity
  8
0
100
AcDbCircle
 62
9
  6
CONTINUOUS
 10
8.9909093179
 20
8.8146132136
 40
0.2232404676
100
AcDbArc
 50
81.1308631563
 51
98.8690685896
  0
ARC
  5
2F4
100
AcDbEntity
  8
0
100
AcDbCircle
 62
9
  6
CONTINUOUS
 10
8.6125423983
 20
8.7853906385
 40
0.2134656822
100
AcDbArc
 50
81.1316561312
 51
98.8683438688
  0
ARC
  5
2F5
100
AcDbEntity
  8
0
100
AcDbCircle
 62
9
  6
CONTINUOUS
 10
9.0178422872
 20
8.785390649
 40
0.2134656719
100
AcDbArc
 50
81.1316556958
 51
98.8683443042
  0
ARC
  5
2F6
100
AcDbEntity
  8
0
100
AcDbCircle
 62
7
  6
CONTINUOUS
 10
8.6035571264
 20
8.994638768
 40
0.0399999974
100
AcDbArc
 50
104.0494927396
 51
179.9997619674
  0
ARC
  5
2F7
100
AcDbEntity
  8
0
100
AcDbCircle
 62
7
  6
CONTINUOUS
 10
9.0268275591
 20
8.994638768
 40
0.0399999974
100
AcDbArc
 50
0.0002380326
 51
75.9505072604
  0
ARC
  5
2F8
100
AcDbEntity
  8
0
100
AcDbCircle
 62
7
  6
CONTINUOUS
 10
11.3491696351
 20
3.6676200951
 40
1.344
100
AcDbArc
 50
65.2634745094
 51
68.3044952522
  0
ARC
  5
2F9
100
AcDbEntity
  8
0
100
AcDbCircle
 62
7
  6
CONTINUOUS
 10
11.3491696351
 20
5.8837070271
 40
1.344
100
AcDbArc
 50
291.6955047478
 51
294.7365254906
  0
ARC
  5
2FA
100
AcDbEntity
  8
0
100
AcDbCircle
 62
7
  6
CONTINUOUS
 10
12.2676802065
 20
6.0066635611
 40
0.28
100
AcDbArc
 50
203.1323963993
 51
216.1341261662
  0
ARC
  5
2FB
100
AcDbEntity
  8
0
100
AcDbCircle
 62
7
  6
CONTINUOUS
 10
11.8238308704
 20
4.8606635611
 40
0.06
100
AcDbArc
 50
68.3044952522
 51
90.0
  0
ARC
  5
2FC
100
AcDbEntity
  8
0
100
AcDbCircle
 62
7
  6
CONTINUOUS
 10
11.8238308704
 20
4.6906635611
 40
0.06
100
AcDbArc
 50
270.0
 51
291.6955047478
  0
ARC
  5
2FD
100
AcDbEntity
  8
0
100
AcDbCircle
 62
7
  6
CONTINUOUS
 10
11.9031923427
 20
4.6811951396
 40
0.02
100
AcDbArc
 50
294.7365254906
 51
360.0
  0
ARC
  5
2FE
100
AcDbEntity
  8
0
100
AcDbCircle
 62
7
  6
CONTINUOUS
 10
11.9031923427
 20
4.8701319825
 40
0.02
100
AcDbArc
 50
0.0
 51
65.2634745094
  0
ARC
  5
2FF
100
AcDbEntity
  8
0
100
AcDbCircle
 62
7
  6
CONTINUOUS
 10
12.0576941167
 20
5.8533474103
 40
0.02
100
AcDbArc
 50
216.1341261662
 51
269.9999999998
  0
ARC
  5
300
100
AcDbEntity
  8
0
100
AcDbCircle
 62
9
  6
CONTINUOUS
 10
11.4802830781
 20
6.1405766437
 40
0.8498288076
100
AcDbArc
 50
339.9160504353
 51
340.2641254841
  0
ARC
  5
301
100
AcDbEntity
  8
0
100
AcDbCircle
 62
9
  6
CONTINUOUS
 10
11.4871747412
 20
6.7952275969
 40
0.8425054807
100
AcDbArc
 50
19.7355751695
 51
20.0868630856
  0
ARC
  5
302
100
AcDbEntity
  8
0
100
AcDbCircle
 62
7
  6
CONTINUOUS
 10
11.5485442503
 20
7.1169550902
 40
0.6255977771
100
AcDbArc
 50
62.8711832612
 51
70.2258512461
  0
ARC
  5
303
100
AcDbEntity
  8
0
100
AcDbCircle
 62
7
  6
CONTINUOUS
 10
11.5485442503
 20
7.9943720319
 40
0.6255977771
100
AcDbArc
 50
289.7741487539
 51
297.1288167388
  0
ARC
  5
304
100
AcDbEntity
  8
0
100
AcDbCircle
 62
7
  6
CONTINUOUS
 10
12.2676802065
 20
6.9266635611
 40
0.28
100
AcDbArc
 50
143.8658738338
 51
156.8676036007
  0
ARC
  5
305
100
AcDbEntity
  8
0
100
AcDbCircle
 62
7
  6
CONTINUOUS
 10
11.8246923427
 20
7.455399956
 40
0.02
100
AcDbArc
 50
297.1288167388
 51
360.0
  0
ARC
  5
306
100
AcDbEntity
  8
0
100
AcDbCircle
 62
7
  6
CONTINUOUS
 10
11.8246923427
 20
7.6559271662
 40
0.02
100
AcDbArc
 50
0.0
 51
62.8711832612
  0
ARC
  5
307
100
AcDbEntity
  8
0
100
AcDbCircle
 62
7
  6
CONTINUOUS
 10
12.0576941167
 20
7.0799797118
 40
0.02
100
AcDbArc
 50
90.0000000002
 51
143.8658738338
  0
ARC
  5
308
100
AcDbEntity
  8
0
100
AcDbCircle
 62
7
  6
CONTINUOUS
 10
12.7184812314
 20
4.5266635611
 40
1.4557775993
100
AcDbArc
 50
97.2315931173
 51
100.2197110663
  0
ARC
  5
309
100
AcDbEntity
  8
0
100
AcDbCircle
 62
9
  6
CONTINUOUS
 10
12.7987593404
 20
5.6704319177
 40
0.5631050693
100
AcDbArc
 50
158.7110288702
 51
161.9112564695
  0
ARC
  5
30A
100
AcDbEntity
  8
0
100
AcDbCircle
 62
9
  6
CONTINUOUS
 10
12.7612798532
 20
5.693412925
 40
0.5070560977
100
AcDbArc
 50
158.3571788279
 51
161.5835909584
  0
ARC
  5
30B
100
AcDbEntity
  8
0
100
AcDbCircle
 62
7
  6
CONTINUOUS
 10
12.5192678736
 20
5.6316635611
 40
0.3329637403
100
AcDbArc
 50
100.2197110663
 51
114.6888154298
  0
ARC
  5
30C
100
AcDbEntity
  8
0
100
AcDbCircle
 62
7
  6
CONTINUOUS
 10
12.4801923427
 20
5.7166635611
 40
0.2394121657
100
AcDbArc
 50
114.6888154298
 51
146.6553683898
  0
ARC
  5
30D
100
AcDbEntity
  8
0
100
AcDbCircle
 62
7
  6
CONTINUOUS
 10
12.6301923427
 20
6.0266635611
 40
0.06
100
AcDbArc
 50
90.0
 51
180.0
  0
ARC
  5
30E
100
AcDbEntity
  8
0
100
AcDbCircle
 62
7
  6
CONTINUOUS
 10
12.5301923427
 20
6.0105429095
 40
0.04
100
AcDbArc
 50
277.2315931173
 51
360.0
  0
ARC
  5
30F
100
AcDbEntity
  8
0
100
AcDbCircle
 62
7
  6
CONTINUOUS
 10
12.7184812314
 20
8.4066635611
 40
1.4557775993
100
AcDbArc
 50
259.7802889337
 51
262.7684068827
  0
ARC
  5
310
100
AcDbEntity
  8
0
100
AcDbCircle
 62
7
  6
CONTINUOUS
 10
13.0597582757
 20
8.1506636646
 40
0.91
100
AcDbArc
 50
90.0
 51
104.0494927406
  0
ARC
  5
311
100
AcDbEntity
  8
0
100
AcDbCircle
 62
7
  6
CONTINUOUS
 10
13.0606264098
 20
8.1506636646
 40
0.91
100
AcDbArc
 50
75.9505072594
 51
90.0
  0
ARC
  5
312
100
AcDbEntity
  8
0
100
AcDbCircle
 62
9
  6
CONTINUOUS
 10
13.0601946996
 20
8.1489575047
 40
0.8888970721
100
AcDbArc
 50
85.5586272785
 51
94.4412576181
  0
ARC
  5
313
100
AcDbEntity
  8
0
100
AcDbCircle
 62
9
  6
CONTINUOUS
 10
13.0601948944
 20
8.14888211
 40
0.8499750641
100
AcDbArc
 50
85.5590204103
 51
94.4408452102
  0
ARC
  5
314
100
AcDbEntity
  8
0
100
AcDbCircle
 62
9
  6
CONTINUOUS
 10
12.8115866994
 20
7.2674852497
 40
0.5767237456
100
AcDbArc
 50
198.1265378817
 51
201.2511767787
  0
ARC
  5
315
100
AcDbEntity
  8
0
100
AcDbCircle
 62
9
  6
CONTINUOUS
 10
12.7724862283
 20
7.243999545
 40
0.5189792996
100
AcDbArc
 50
198.4534808324
 51
201.6057493813
  0
ARC
  5
316
100
AcDbEntity
  8
0
100
AcDbCircle
 62
7
  6
CONTINUOUS
 10
12.5192678736
 20
7.3016635611
 40
0.3329637403
100
AcDbArc
 50
245.3111845702
 51
259.7802889337
  0
ARC
  5
317
100
AcDbEntity
  8
0
100
AcDbCircle
 62
7
  6
CONTINUOUS
 10
12.4801923427
 20
7.2166635611
 40
0.2394121657
100
AcDbArc
 50
213.3446316102
 51
245.3111845702
  0
ARC
  5
318
100
AcDbEntity
  8
0
100
AcDbCircle
 62
7
  6
CONTINUOUS
 10
12.6301923427
 20
6.9066635611
 40
0.06
100
AcDbArc
 50
180.0
 51
270.0
  0
ARC
  5
319
100
AcDbEntity
  8
0
100
AcDbCircle
 62
7
  6
CONTINUOUS
 10
12.8341703225
 20
6.9066635611
 40
0.06
100
AcDbArc
 50
270.0000166269
 51
18.5000000015
  0
ARC
  5
31A
100
AcDbEntity
  8
0
100
AcDbCircle
 62
7
  6
CONTINUOUS
 10
13.2862143629
 20
6.9066635611
 40
0.06
100
AcDbArc
 50
161.4999999993
 51
269.9999866899
  0
ARC
  5
31B
100
AcDbEntity
  8
0
100
AcDbCircle
 62
7
  6
CONTINUOUS
 10
13.4476520097
 20
6.824123228
 40
0.0525403331
100
AcDbArc
 50
0.0
 51
154.5952455743
  0
ARC
  5
31C
100
AcDbEntity
  8
0
100
AcDbCircle
 62
7
  6
CONTINUOUS
 10
13.4476520097
 20
6.1092038941
 40
0.0525403331
100
AcDbArc
 50
205.4047544257
 51
360.0
  0
ARC
  5
31D
100
AcDbEntity
  8
0
100
AcDbCircle
 62
7
  6
CONTINUOUS
 10
12.5301923427
 20
6.9227842126
 40
0.04
100
AcDbArc
 50
0.0
 51
82.7684068827
  0
ARC
  5
31E
100
AcDbEntity
  8
0
100
AcDbCircle
 62
9
  6
CONTINUOUS
 10
12.8844753678
 20
8.8146132127
 40
0.2232404685
100
AcDbArc
 50
81.1309314793
 51
98.8691368423
  0
ARC
  5
31F
100
AcDbEntity
  8
0
100
AcDbCircle
 62
9
  6
CONTINUOUS
 10
13.2359093179
 20
8.8146132136
 40
0.2232404676
100
AcDbArc
 50
81.1308631552
 51
98.8690685884
  0
ARC
  5
320
100
AcDbEntity
  8
0
100
AcDbCircle
 62
9
  6
CONTINUOUS
 10
12.8575423983
 20
8.7853906385
 40
0.2134656822
100
AcDbArc
 50
81.1316561312
 51
98.8683438688
  0
ARC
  5
321
100
AcDbEntity
  8
0
100
AcDbCircle
 62
9
  6
CONTINUOUS
 10
13.2628422872
 20
8.785390649
 40
0.2134656719
100
AcDbArc
 50
81.1316556958
 51
98.8683443042
  0
ARC
  5
322
100
AcDbEntity
  8
0
100
AcDbCircle
 62
7
  6
CONTINUOUS
 10
13.2718275591
 20
8.994638768
 40
0.0399999974
100
AcDbArc
 50
0.0002380326
 51
75.9505072604
  0
ARC
  5
323
100
AcDbEntity
  8
0
100
AcDbCircle
 62
7
  6
CONTINUOUS
 10
12.8485571264
 20
8.994638768
 40
0.0399999974
100
AcDbArc
 50
104.0494927396
 51
179.9997619674
  0
SPLINE
  5
324
100
AcDbEntity
  8
0
100
AcDbSpline
 62
7
  6
CONTINUOUS
 70
0
 71
3
 72
33
 73
29
 74
0
 42
0.0000001
 43
0.0000001
 44
0.0000000001
 40
0.0
 40
0.0
 40
0.0
 40
0.0
 40
0.0110991912
 40
0.0431415104
 40
0.0930454039
 40
0.1235674787
 40
0.15723322
 40
0.1936648054
 40
0.2325263009
 40
0.2735167641
 40
0.316355737
 40
0.3607611127
 40
0.4064226003
 40
0.4529772335
 40
0.4999999964
 40
0.5470227608
 40
0.5935773951
 40
0.6392388821
 40
0.6836442581
 40
0.7264832328
 40
0.7674736966
 40
0.8063351932
 40
0.8427667796
 40
0.876432521
 40
0.9069545959
 40
0.9568584894
 40
0.9889008087
 40
1.0
 40
1.0
 40
1.0
 40
1.0
 10
11.7401923427
 20
5.9666635611
 30
0.0
 10
11.7380981205
 20
5.9700352836
 30
0.0
 10
11.7299944838
 20
5.9831634986
 30
0.0
 10
11.7128344443
 20
6.0116727067
 30
0.0
 10
11.6929024751
 20
6.0466144502
 30
0.0
 10
11.6736454555
 20
6.0825873495
 30
0.0
 10
11.6574170141
 20
6.1147069292
 30
0.0
 10
11.6408494617
 20
6.149980973
 30
0.0
 10
11.6244800911
 20
6.1882183433
 30
0.0
 10
11.6088893646
 20
6.229246038
 30
0.0
 10
11.5947099077
 20
6.2728792194
 30
0.0
 10
11.582621582
 20
6.318875415
 30
0.0
 10
11.5733174357
 20
6.3668784689
 30
0.0
 10
11.5674283064
 20
6.4163705604
 30
0.0
 10
11.565409338
 20
6.4666635577
 30
0.0
 10
11.567428306
 20
6.5169565554
 30
0.0
 10
11.5733174349
 20
6.5664486478
 30
0.0
 10
11.5826215809
 20
6.6144517019
 30
0.0
 10
11.5947099062
 20
6.6604478982
 30
0.0
 10
11.6088893633
 20
6.7040810806
 30
0.0
 10
11.6244800902
 20
6.7451087764
 30
0.0
 10
11.640849461
 20
6.7833461478
 30
0.0
 10
11.6574170137
 20
6.8186201923
 30
0.0
 10
11.6736454554
 20
6.8507397724
 30
0.0
 10
11.692902475
 20
6.8867126717
 30
0.0
 10
11.7128344442
 20
6.9216544153
 30
0.0
 10
11.7299944837
 20
6.9501636235
 30
0.0
 10
11.7380981204
 20
6.9632918385
 30
0.0
 10
11.7401923427
 20
6.9666635611
 30
0.0
  0
SPLINE
  5
325
100
AcDbEntity
  8
0
100
AcDbSpline
 62
7
  6
CONTINUOUS
 70
0
 71
3
 72
33
 73
29
 74
0
 42
0.0000001
 43
0.0000001
 44
0.0000000001
 40
0.0
 40
0.0
 40
0.0
 40
0.0
 40
0.0110991914
 40
0.0431415105
 40
0.0930454038
 40
0.1235674785
 40
0.1572332199
 40
0.1936648064
 40
0.2325263032
 40
0.273516767
 40
0.3163557421
 40
0.3607611181
 40
0.4064226045
 40
0.452977239
 40
0.5000000046
 40
0.5470227679
 40
0.5935774016
 40
0.6392388889
 40
0.6836442643
 40
0.7264832369
 40
0.7674737008
 40
0.8063351962
 40
0.8427667808
 40
0.8764325216
 40
0.9069545963
 40
0.9568584896
 40
0.9889008088
 40
1.0
 40
1.0
 40
1.0
 40
1.0
 10
10.1301923427
 20
6.9666635611
 30
0.0
 10
10.132286565
 20
6.9632918385
 30
0.0
 10
10.1403902018
 20
6.9501636235
 30
0.0
 10
10.1575502412
 20
6.9216544154
 30
0.0
 10
10.1774822103
 20
6.886712672
 30
0.0
 10
10.1967392299
 20
6.8507397728
 30
0.0
 10
10.2129676715
 20
6.8186201928
 30
0.0
 10
10.2295352243
 20
6.7833461481
 30
0.0
 10
10.2459045951
 20
6.7451087767
 30
0.0
 10
10.2614953222
 20
6.7040810807
 30
0.0
 10
10.2756747793
 20
6.6604478981
 30
0.0
 10
10.2877631045
 20
6.614451702
 30
0.0
 10
10.2970672506
 20
6.5664486479
 30
0.0
 10
10.3029563796
 20
6.5169565553
 30
0.0
 10
10.3049753475
 20
6.466663557
 30
0.0
 10
10.302956379
 20
6.4163705589
 30
0.0
 10
10.2970672495
 20
6.3668784671
 30
0.0
 10
10.287763103
 20
6.3188754134
 30
0.0
 10
10.2756747774
 20
6.2728792181
 30
0.0
 10
10.2614953204
 20
6.2292460367
 30
0.0
 10
10.2459045938
 20
6.1882183419
 30
0.0
 10
10.2295352232
 20
6.1499809716
 30
0.0
 10
10.2129676709
 20
6.1147069283
 30
0.0
 10
10.1967392298
 20
6.0825873491
 30
0.0
 10
10.1774822102
 20
6.04661445
 30
0.0
 10
10.1575502412
 20
6.0116727066
 30
0.0
 10
10.1403902017
 20
5.9831634986
 30
0.0
 10
10.132286565
 20
5.9700352836
 30
0.0
 10
10.1301923427
 20
5.9666635611
 30
0.0
  0
SPLINE
  5
326
100
AcDbEntity
  8
0
100
AcDbSpline
 62
9
  6
CONTINUOUS
 70
0
 71
3
 72
44
 73
40
 74
0
 42
0.0000001
 43
0.0000001
 44
0.0000000001
 40
0.0
 40
0.0
 40
0.0
 40
0.0
 40
0.0000241515
 40
0.0000961258
 40
0.0002158353
 40
0.0003831919
 40
0.000598108
 40
0.0008604958
 40
0.0015273353
 40
0.0023830089
 40
0.0034268154
 40
0.0046580542
 40
0.0060759702
 40
0.0076795816
 40
0.0094678481
 40
0.0135941852
 40
0.0184466584
 40
0.0240159652
 40
0.0302877217
 40
0.0372459109
 40
0.0448745287
 40
0.0531570604
 40
0.071613258
 40
0.0924723408
 40
0.1155869778
 40
0.1408073955
 40
0.167987812
 40
0.196985867
 40
0.2276670744
 40
0.2599044359
 40
0.3285763239
 40
0.4021446835
 40
0.4798693125
 40
0.5611034042
 40
0.6452633393
 40
0.7317985007
 40
0.8201557379
 40
0.9097612508
 40
1.0
 40
1.0
 40
1.0
 40
1.0
 10
13.2293149436
 20
6.9257018405
 30
0.0
 10
13.2293139893
 20
6.9257007602
 30
0.0
 10
13.2293082801
 20
6.9256988119
 30
0.0
 10
13.2292977583
 20
6.9256916229
 30
0.0
 10
13.2292787047
 20
6.9256815707
 30
0.0
 10
13.2292527796
 20
6.9256666451
 30
0.0
 10
13.2292191858
 20
6.925647851
 30
0.0
 10
13.229159697
 20
6.9256143409
 30
0.0
 10
13.2290667798
 20
6.9255622256
 30
0.0
 10
13.2289331511
 20
6.9254873751
 30
0.0
 10
13.2287700322
 20
6.9253962368
 30
0.0
 10
13.2285775213
 20
6.9252889091
 30
0.0
 10
13.2283557094
 20
6.9251655246
 30
0.0
 10
13.2281047378
 20
6.9250261713
 30
0.0
 10
13.2277122998
 20
6.9248086051
 30
0.0
 10
13.2271500021
 20
6.9244975172
 30
0.0
 10
13.2263898654
 20
6.9240778711
 30
0.0
 10
13.2255172589
 20
6.9235970138
 30
0.0
 10
13.2245338822
 20
6.923056773
 30
0.0
 10
13.2234417783
 20
6.9224591873
 30
0.0
 10
13.2222431042
 20
6.9218063582
 30
0.0
 10
13.2204396135
 20
6.9208292823
 30
0.0
 10
13.2179367624
 20
6.9194854311
 30
0.0
 10
13.2146444724
 20
6.9177406528
 30
0.0
 10
13.2109833697
 20
6.9158298117
 30
0.0
 10
13.2069730437
 20
6.9137729056
 30
0.0
 10
13.2026325649
 20
6.9115905874
 30
0.0
 10
13.1979802015
 20
6.9093034636
 30
0.0
 10
13.1930331438
 20
6.9069322188
 30
0.0
 10
13.185914065
 20
6.9036152532
 30
0.0
 10
13.1763945414
 20
6.8993910155
 30
0.0
 10
13.164245521
 20
6.8944104018
 30
0.0
 10
13.1512317705
 20
6.8895806696
 30
0.0
 10
13.1374362236
 20
6.8850693465
 30
0.0
 10
13.1229421575
 20
6.8810469488
 30
0.0
 10
13.107843504
 20
6.8776835365
 30
0.0
 10
13.0922539438
 20
6.8751393747
 30
0.0
 10
13.0763152052
 20
6.873551049
 30
0.0
 10
13.0655780928
 20
6.8731908556
 30
0.0
 10
13.0601923427
 20
6.8731908437
 30
0.0
  0
SPLINE
  5
327
100
AcDbEntity
  8
0
100
AcDbSpline
 62
9
  6
CONTINUOUS
 70
0
 71
3
 72
15
 73
11
 74
0
 42
0.0000001
 43
0.0000001
 44
0.0000000001
 40
0.0
 40
0.0
 40
0.0
 40
0.0
 40
0.1258872633
 40
0.2517847131
 40
0.3773818683
 40
0.5026793591
 40
0.6276067795
 40
0.7521216867
 40
0.8763094256
 40
1.0
 40
1.0
 40
1.0
 40
1.0
 10
11.9005260425
 20
4.6811951396
 30
0.0
 10
11.9005260425
 20
4.6802472444
 30
0.0
 10
11.9003933969
 20
4.6783487889
 30
0.0
 10
11.8998034728
 20
4.6755601764
 30
0.0
 10
11.8988318986
 20
4.6728845458
 30
0.0
 10
11.8974990831
 20
4.6703777208
 30
0.0
 10
11.8958329896
 20
4.6680888427
 30
0.0
 10
11.8938652683
 20
4.6660646104
 30
0.0
 10
11.8916368433
 20
4.6643476807
 30
0.0
 10
11.8900041995
 20
4.6634275312
 30
0.0
 10
11.8891618011
 20
4.6630303075
 30
0.0
  0
SPLINE
  5
328
100
AcDbEntity
  8
0
100
AcDbSpline
 62
9
  6
CONTINUOUS
 70
0
 71
3
 72
14
 73
10
 74
0
 42
0.0000001
 43
0.0000001
 44
0.0000000001
 40
0.0
 40
0.0
 40
0.0
 40
0.0
 40
0.2639115517
 40
0.3929971033
 40
0.5194876909
 40
0.6432362852
 40
0.7643120776
 40
0.8831187216
 40
1.0
 40
1.0
 40
1.0
 40
1.0
 10
11.8916434027
 20
4.6799690761
 30
0.0
 10
11.8917672378
 20
4.6780786354
 30
0.0
 10
11.8915993994
 20
4.6752208062
 30
0.0
 10
11.8906431588
 20
4.6716077412
 30
0.0
 10
11.8895877415
 20
4.6690872257
 30
0.0
 10
11.8882120305
 20
4.6667931869
 30
0.0
 10
11.886541834
 20
4.6647733948
 30
0.0
 10
11.8846126344
 20
4.6630732922
 30
0.0
 10
11.8831713597
 20
4.6621699072
 30
0.0
 10
11.8824254506
 20
4.6617857234
 30
0.0
  0
SPLINE
  5
329
100
AcDbEntity
  8
0
100
AcDbSpline
 62
9
  6
CONTINUOUS
 70
0
 71
3
 72
14
 73
10
 74
0
 42
0.0000001
 43
0.0000001
 44
0.0000000001
 40
0.0
 40
0.0
 40
0.0
 40
0.0
 40
0.1386092277
 40
0.2758320288
 40
0.409988572
 40
0.5398748783
 40
0.6644254149
 40
0.7828716272
 40
1.0
 40
1.0
 40
1.0
 40
1.0
 10
11.6000847015
 20
4.6811951396
 30
0.0
 10
11.6000847015
 20
4.6802484513
 30
0.0
 10
11.5999944023
 20
4.678363298
 30
0.0
 10
11.599592161
 20
4.6755878905
 30
0.0
 10
11.5989293747
 20
4.6729235381
 30
0.0
 10
11.5980199174
 20
4.670424975
 30
0.0
 10
11.5968807477
 20
4.66813915
 30
0.0
 10
11.5951402581
 20
4.6655187093
 30
0.0
 10
11.5934810343
 20
4.6638680487
 30
0.0
 10
11.5922573593
 20
4.6630303075
 30
0.0
  0
SPLINE
  5
32A
100
AcDbEntity
  8
0
100
AcDbSpline
 62
9
  6
CONTINUOUS
 70
0
 71
3
 72
16
 73
12
 74
0
 42
0.0000001
 43
0.0000001
 44
0.0000000001
 40
0.0
 40
0.0
 40
0.0
 40
0.0
 40
0.1517224353
 40
0.3008137938
 40
0.444309649
 40
0.5797505272
 40
0.7048147999
 40
0.8174620686
 40
0.9161875479
 40
0.9600031763
 40
1.0
 40
1.0
 40
1.0
 40
1.0
 10
11.2356336837
 20
4.6811951396
 30
0.0
 10
11.2356336837
 20
4.6802493191
 30
0.0
 10
11.2355932275
 20
4.6783738244
 30
0.0
 10
11.2354128598
 20
4.6756090483
 30
0.0
 10
11.2351159839
 20
4.672956273
 30
0.0
 10
11.2347090095
 20
4.6704696764
 30
0.0
 10
11.2342010032
 20
4.6681979869
 30
0.0
 10
11.2336019364
 20
4.6661861721
 30
0.0
 10
11.2330159462
 20
4.6647037168
 30
0.0
 10
11.2325024041
 20
4.6636875032
 30
0.0
 10
11.2322341337
 20
4.6632384024
 30
0.0
 10
11.2320967845
 20
4.6630303075
 30
0.0
  0
SPLINE
  5
32B
100
AcDbEntity
  8
0
100
AcDbSpline
 62
9
  6
CONTINUOUS
 70
0
 71
3
 72
16
 73
12
 74
0
 42
0.0000001
 43
0.0000001
 44
0.0000000001
 40
0.0
 40
0.0
 40
0.0
 40
0.0
 40
0.1517224354
 40
0.3008137939
 40
0.444309649
 40
0.5797505272
 40
0.7048148
 40
0.8174620686
 40
0.9161875479
 40
0.9600031763
 40
1.0
 40
1.0
 40
1.0
 40
1.0
 10
10.6347510018
 20
4.6811951396
 30
0.0
 10
10.6347510018
 20
4.6802493191
 30
0.0
 10
10.634791458
 20
4.6783738244
 30
0.0
 10
10.6349718257
 20
4.6756090483
 30
0.0
 10
10.6352687016
 20
4.672956273
 30
0.0
 10
10.635675676
 20
4.6704696764
 30
0.0
 10
10.6361836823
 20
4.6681979869
 30
0.0
 10
10.6367827491
 20
4.6661861721
 30
0.0
 10
10.6373687393
 20
4.6647037168
 30
0.0
 10
10.6378822814
 20
4.6636875032
 30
0.0
 10
10.6381505518
 20
4.6632384024
 30
0.0
 10
10.6382879009
 20
4.6630303075
 30
0.0
  0
SPLINE
  5
32C
100
AcDbEntity
  8
0
100
AcDbSpline
 62
9
  6
CONTINUOUS
 70
0
 71
3
 72
14
 73
10
 74
0
 42
0.0000001
 43
0.0000001
 44
0.0000000001
 40
0.0
 40
0.0
 40
0.0
 40
0.0
 40
0.1386092277
 40
0.2758320288
 40
0.4099885721
 40
0.5398748783
 40
0.664425415
 40
0.7828716273
 40
1.0
 40
1.0
 40
1.0
 40
1.0
 10
10.2702999839
 20
4.6811951396
 30
0.0
 10
10.2702999839
 20
4.6802484513
 30
0.0
 10
10.2703902832
 20
4.678363298
 30
0.0
 10
10.2707925245
 20
4.6755878905
 30
0.0
 10
10.2714553108
 20
4.6729235381
 30
0.0
 10
10.2723647681
 20
4.670424975
 30
0.0
 10
10.2735039378
 20
4.66813915
 30
0.0
 10
10.2752444274
 20
4.6655187093
 30
0.0
 10
10.2769036512
 20
4.6638680487
 30
0.0
 10
10.2781273262
 20
4.6630303075
 30
0.0
  0
SPLINE
  5
32D
100
AcDbEntity
  8
0
100
AcDbSpline
 62
9
  6
CONTINUOUS
 70
0
 71
3
 72
13
 73
9
 74
0
 42
0.0000001
 43
0.0000001
 44
0.0000000001
 40
0.0
 40
0.0
 40
0.0
 40
0.0
 40
0.2563925615
 40
0.5114227959
 40
0.6370552224
 40
0.7605472627
 40
0.8816440212
 40
1.0
 40
1.0
 40
1.0
 40
1.0
 10
10.2548553896
 20
4.6799690761
 30
0.0
 10
10.2549812697
 20
4.6780474166
 30
0.0
 10
10.25571913
 20
4.6742309932
 30
0.0
 10
10.2577761287
 20
4.6698521905
 30
0.0
 10
10.2600173202
 20
4.666788364
 30
0.0
 10
10.2619473056
 20
4.6647741166
 30
0.0
 10
10.2640925979
 20
4.6630784729
 30
0.0
 10
10.2656549243
 20
4.6621720355
 30
0.0
 10
10.2664555771
 20
4.6617857234
 30
0.0
  0
SPLINE
  5
32E
100
AcDbEntity
  8
0
100
AcDbSpline
 62
9
  6
CONTINUOUS
 70
0
 71
3
 72
11
 73
7
 74
0
 42
0.0000001
 43
0.0000001
 44
0.0000000001
 40
0.0
 40
0.0
 40
0.0
 40
0.0
 40
0.2499989518
 40
0.4999999999
 40
0.7500010479
 40
1.0
 40
1.0
 40
1.0
 40
1.0
 10
10.6590782359
 20
4.6799690761
 30
0.0
 10
10.7048245009
 20
4.6739757721
 30
0.0
 10
10.7967606681
 20
4.6651751955
 30
0.0
 10
10.9351923427
 20
4.6608644435
 30
0.0
 10
11.0736240175
 20
4.6651751929
 30
0.0
 10
11.1655601845
 20
4.6739757718
 30
0.0
 10
11.2113064496
 20
4.6799690761
 30
0.0
  0
LINE
  5
32F
100
AcDbEntity
  8
0
100
AcDbLine
 62
9
  6
CONTINUOUS
 10
12.25948742
 20
7.0999796766
 11
12.263484754
 21
7.08805689
  0
LINE
  5
330
100
AcDbEntity
  8
0
100
AcDbLine
 62
9
  6
CONTINUOUS
 10
12.2759066845
 20
7.0913992811
 11
12.278111622
 21
7.0854591449
  0
LINE
  5
331
100
AcDbEntity
  8
0
100
AcDbLine
 62
9
  6
CONTINUOUS
 10
12.278111622
 20
7.0854591449
 11
12.2784331601
 21
7.0845813591
  0
SPLINE
  5
332
100
AcDbEntity
  8
0
100
AcDbSpline
 62
9
  6
CONTINUOUS
 70
0
 71
3
 72
26
 73
22
 74
0
 42
0.0000001
 43
0.0000001
 44
0.0000000001
 40
0.0
 40
0.0
 40
0.0
 40
0.0
 40
0.0002550325
 40
0.0010191262
 40
0.0022919015
 40
0.0040729789
 40
0.0091585231
 40
0.0162727267
 40
0.0254125603
 40
0.0365745975
 40
0.0497523311
 40
0.0649378257
 40
0.1013003545
 40
0.1455957984
 40
0.1977337317
 40
0.2576122842
 40
0.3251226599
 40
0.4001365594
 40
0.5721441174
 40
0.7725226147
 40
1.0
 40
1.0
 40
1.0
 40
1.0
 10
12.0576941167
 20
5.8333474103
 30
0.0
 10
12.057693035
 20
5.8333509686
 30
0.0
 10
12.0576875254
 20
5.8333647924
 30
0.0
 10
12.0576765887
 20
5.8333963648
 30
0.0
 10
12.0576574177
 20
5.8334486431
 30
0.0
 10
12.0576172569
 20
5.8335603311
 30
0.0
 10
12.057548011
 20
5.8337520901
 30
0.0
 10
12.0574427325
 20
5.8340449239
 30
0.0
 10
12.0573076382
 20
5.8344212037
 30
0.0
 10
12.0571430045
 20
5.8348808248
 30
0.0
 10
12.0569490531
 20
5.8354235907
 30
0.0
 10
12.0566322149
 20
5.8363126883
 30
0.0
 10
12.056164979
 20
5.8376299163
 30
0.0
 10
12.0555211224
 20
5.8394562472
 30
0.0
 10
12.0547687058
 20
5.8416079093
 30
0.0
 10
12.0539119599
 20
5.8440817112
 30
0.0
 10
12.0529553495
 20
5.8468739412
 30
0.0
 10
12.051485272
 20
5.8512186484
 30
0.0
 10
12.0494339626
 20
5.8574120987
 30
0.0
 10
12.0467637439
 20
5.8657422591
 30
0.0
 10
12.0449240473
 20
5.8717042599
 30
0.0
 10
12.0439641487
 20
5.8748795352
 30
0.0
  0
SPLINE
  5
333
100
AcDbEntity
  8
0
100
AcDbSpline
 62
9
  6
CONTINUOUS
 70
0
 71
3
 72
13
 73
9
 74
0
 42
0.0000001
 43
0.0000001
 44
0.0000000001
 40
0.0
 40
0.0
 40
0.0
 40
0.0
 40
0.0792681111
 40
0.171763057
 40
0.2775025621
 40
0.3964134718
 40
0.6731259797
 40
1.0
 40
1.0
 40
1.0
 40
1.0
 10
11.8891618011
 20
4.8882968147
 30
0.0
 10
11.8889804305
 20
4.888296815
 30
0.0
 10
11.8885874155
 20
4.8883132614
 30
0.0
 10
11.8879552511
 20
4.8883746184
 30
0.0
 10
11.8872363601
 20
4.8884746974
 30
0.0
 10
11.8861057746
 20
4.8886698247
 30
0.0
 10
11.8844887299
 20
4.8890161088
 30
0.0
 10
11.8831488036
 20
4.8893513257
 30
0.0
 10
11.8824254506
 20
4.8895413988
 30
0.0
  0
SPLINE
  5
334
100
AcDbEntity
  8
0
100
AcDbSpline
 62
9
  6
CONTINUOUS
 70
0
 71
3
 72
15
 73
11
 74
0
 42
0.0000001
 43
0.0000001
 44
0.0000000001
 40
0.0
 40
0.0
 40
0.0
 40
0.0
 40
0.1266959083
 40
0.2521264762
 40
0.3766975122
 40
0.5007912727
 40
0.6247777725
 40
0.7490341043
 40
0.8739627105
 40
1.0
 40
1.0
 40
1.0
 40
1.0
 10
11.8824254506
 20
4.8895413988
 30
0.0
 10
11.8709264236
 20
4.8925629682
 30
0.0
 10
11.8478374623
 20
4.8978218041
 30
0.0
 10
11.8129091623
 20
4.9034148822
 30
0.0
 10
11.7779371008
 20
4.9067397747
 30
0.0
 10
11.742961099
 20
4.907843325
 30
0.0
 10
11.7080145252
 20
4.9067416517
 30
0.0
 10
11.6731292306
 20
4.9034182436
 30
0.0
 10
11.638340754
 20
4.8978259559
 30
0.0
 10
11.6153638307
 20
4.8925644396
 30
0.0
 10
11.6039291084
 20
4.8895413988
 30
0.0
  0
SPLINE
  5
335
100
AcDbEntity
  8
0
100
AcDbSpline
 62
9
  6
CONTINUOUS
 70
0
 71
3
 72
11
 73
7
 74
0
 42
0.0000001
 43
0.0000001
 44
0.0000000001
 40
0.0
 40
0.0
 40
0.0
 40
0.0
 40
0.2153190323
 40
0.4540964497
 40
0.7159652049
 40
1.0
 40
1.0
 40
1.0
 40
1.0
 10
11.6039291084
 20
4.8895413988
 30
0.0
 10
11.6031126019
 20
4.8893255372
 30
0.0
 10
11.6013683196
 20
4.8889531234
 30
0.0
 10
11.5985841201
 20
4.8885718122
 30
0.0
 10
11.5955131299
 20
4.8883435166
 30
0.0
 10
11.5933714457
 20
4.8882968158
 30
0.0
 10
11.5922573593
 20
4.8882968147
 30
0.0
  0
LINE
  5
336
100
AcDbEntity
  8
0
100
AcDbLine
 62
9
  6
CONTINUOUS
 10
8.5656244155
 20
7.1661275778
 11
8.5770716124
 21
7.1458820685
  0
LINE
  5
337
100
AcDbEntity
  8
0
100
AcDbLine
 62
9
  6
CONTINUOUS
 10
8.5635564815
 20
7.1788099304
 11
8.5796334329
 21
7.1585742547
  0
SPLINE
  5
338
100
AcDbEntity
  8
0
100
AcDbSpline
 62
9
  6
CONTINUOUS
 70
0
 71
3
 72
9
 73
5
 74
0
 42
0.0000001
 43
0.0000001
 44
0.0000000001
 40
0.0
 40
0.0
 40
0.0
 40
0.0
 40
0.4939744786
 40
1.0
 40
1.0
 40
1.0
 40
1.0
 10
11.2320967845
 20
4.8882968147
 30
0.0
 10
11.2290572076
 20
4.8882968161
 30
0.0
 10
11.2229025066
 20
4.8885176284
 30
0.0
 10
11.2167757249
 20
4.8891345785
 30
0.0
 10
11.2136886849
 20
4.8895413988
 30
0.0
  0
SPLINE
  5
339
100
AcDbEntity
  8
0
100
AcDbSpline
 62
9
  6
CONTINUOUS
 70
0
 71
3
 72
15
 73
11
 74
0
 42
0.0000001
 43
0.0000001
 44
0.0000000001
 40
0.0
 40
0.0
 40
0.0
 40
0.0
 40
0.1249995723
 40
0.2500000694
 40
0.374999827
 40
0.4999999998
 40
0.6250001724
 40
0.7499999298
 40
0.8750004271
 40
1.0
 40
1.0
 40
1.0
 40
1.0
 10
11.2136886849
 20
4.8895413988
 30
0.0
 10
11.1906166504
 20
4.8925819254
 30
0.0
 10
11.1443621342
 20
4.8978545973
 30
0.0
 10
11.0747583389
 20
4.9034294032
 30
0.0
 10
11.0050100335
 20
4.9067432627
 30
0.0
 10
10.9351923429
 20
4.9078426038
 30
0.0
 10
10.8653746523
 20
4.9067432634
 30
0.0
 10
10.795626347
 20
4.9034294023
 30
0.0
 10
10.7260225515
 20
4.897854598
 30
0.0
 10
10.6797680352
 20
4.8925819255
 30
0.0
 10
10.6566960006
 20
4.8895413988
 30
0.0
  0
SPLINE
  5
33A
100
AcDbEntity
  8
0
100
AcDbSpline
 62
9
  6
CONTINUOUS
 70
0
 71
3
 72
13
 73
9
 74
0
 42
0.0000001
 43
0.0000001
 44
0.0000000001
 40
0.0
 40
0.0
 40
0.0
 40
0.0
 40
0.2563925618
 40
0.5114227966
 40
0.6370552233
 40
0.7605472636
 40
0.8816440219
 40
1.0
 40
1.0
 40
1.0
 40
1.0
 10
10.2548553896
 20
4.871358046
 30
0.0
 10
10.2549812697
 20
4.8732797055
 30
0.0
 10
10.25571913
 20
4.877096129
 30
0.0
 10
10.2577761287
 20
4.8814749316
 30
0.0
 10
10.2600173203
 20
4.8845387581
 30
0.0
 10
10.2619473056
 20
4.8865530055
 30
0.0
 10
10.2640925979
 20
4.8882486492
 30
0.0
 10
10.2656549243
 20
4.8891550867
 30
0.0
 10
10.2664555771
 20
4.8895413988
 30
0.0
  0
SPLINE
  5
33B
100
AcDbEntity
  8
0
100
AcDbSpline
 62
9
  6
CONTINUOUS
 70
0
 71
3
 72
14
 73
10
 74
0
 42
0.0000001
 43
0.0000001
 44
0.0000000001
 40
0.0
 40
0.0
 40
0.0
 40
0.0
 40
0.1049561294
 40
0.2167053943
 40
0.3347937126
 40
0.4587048887
 40
0.587848954
 40
0.7215790226
 40
1.0
 40
1.0
 40
1.0
 40
1.0
 10
12.2801923427
 20
6.8434246118
 30
0.0
 10
12.2794774714
 20
6.8385506019
 30
0.0
 10
12.278220867
 20
6.8284540161
 30
0.0
 10
12.2768876839
 20
6.8127935454
 30
0.0
 10
12.2760789684
 20
6.7962064692
 30
0.0
 10
12.2758147419
 20
6.7787857352
 30
0.0
 10
12.2761017436
 20
6.7606313027
 30
0.0
 10
12.2772256195
 20
6.7352477292
 30
0.0
 10
12.2788391277
 20
6.7159611324
 30
0.0
 10
12.2801923427
 20
6.7029635914
 30
0.0
  0
SPLINE
  5
33C
100
AcDbEntity
  8
0
100
AcDbSpline
 62
9
  6
CONTINUOUS
 70
0
 71
3
 72
15
 73
11
 74
0
 42
0.0000001
 43
0.0000001
 44
0.0000000001
 40
0.0
 40
0.0
 40
0.0
 40
0.0
 40
0.140802983
 40
0.2784340287
 40
0.4121618633
 40
0.5413035546
 40
0.665212282
 40
0.7832990399
 40
0.8950474707
 40
1.0
 40
1.0
 40
1.0
 40
1.0
 10
12.2801923427
 20
6.2303635307
 30
0.0
 10
12.2795080063
 20
6.2237902901
 30
0.0
 10
12.2782889506
 20
6.2107773779
 30
0.0
 10
12.2769332212
 20
6.191477716
 30
0.0
 10
12.2761017641
 20
6.1726957766
 30
0.0
 10
12.275814734
 20
6.1545414442
 30
0.0
 10
12.2760789806
 20
6.137120648
 30
0.0
 10
12.2768876643
 20
6.1205334957
 30
0.0
 10
12.2782204068
 20
6.1048729597
 30
0.0
 10
12.27947745
 20
6.094776441
 30
0.0
 10
12.2801923427
 20
6.0899025104
 30
0.0
  0
SPLINE
  5
33D
100
AcDbEntity
  8
0
100
AcDbSpline
 62
9
  6
CONTINUOUS
 70
0
 71
3
 72
14
 73
10
 74
0
 42
0.0000001
 43
0.0000001
 44
0.0000000001
 40
0.0
 40
0.0
 40
0.0
 40
0.0
 40
0.1049561342
 40
0.2167053947
 40
0.33479371
 40
0.4587048882
 40
0.5878489545
 40
0.7215790224
 40
1.0
 40
1.0
 40
1.0
 40
1.0
 10
9.5951923427
 20
6.0899025104
 30
0.0
 10
9.595907214
 20
6.0947765204
 30
0.0
 10
9.5971638171
 20
6.1048731064
 30
0.0
 10
9.5984970017
 20
6.1205335769
 30
0.0
 10
9.5993057176
 20
6.1371206528
 30
0.0
 10
9.5995699435
 20
6.1545413868
 30
0.0
 10
9.5992829416
 20
6.1726958194
 30
0.0
 10
9.598159066
 20
6.198079393
 30
0.0
 10
9.5965455578
 20
6.2173659898
 30
0.0
 10
9.5951923427
 20
6.2303635307
 30
0.0
  0
SPLINE
  5
33E
100
AcDbEntity
  8
0
100
AcDbSpline
 62
9
  6
CONTINUOUS
 70
0
 71
3
 72
15
 73
11
 74
0
 42
0.0000001
 43
0.0000001
 44
0.0000000001
 40
0.0
 40
0.0
 40
0.0
 40
0.0
 40
0.1408029786
 40
0.2784340279
 40
0.4121618656
 40
0.5413035539
 40
0.6652122795
 40
0.7832990386
 40
0.8950474703
 40
1.0
 40
1.0
 40
1.0
 40
1.0
 10
9.5951923427
 20
6.7029635914
 30
0.0
 10
9.5958766791
 20
6.7095368318
 30
0.0
 10
9.5970957328
 20
6.7225497442
 30
0.0
 10
9.5984514643
 20
6.741849406
 30
0.0
 10
9.5992829224
 20
6.7606313456
 30
0.0
 10
9.5995699514
 20
6.7787856779
 30
0.0
 10
9.5993057044
 20
6.7962064739
 30
0.0
 10
9.5984970211
 20
6.8127936263
 30
0.0
 10
9.5971642786
 20
6.8284541624
 30
0.0
 10
9.5959072355
 20
6.8385506811
 30
0.0
 10
9.5951923427
 20
6.8434246118
 30
0.0
  0
LINE
  5
33F
100
AcDbEntity
  8
0
100
AcDbLine
 62
9
  6
CONTINUOUS
 10
9.5969504748
 20
7.0845788058
 11
9.599478001
 21
7.0913992811
  0
SPLINE
  5
340
100
AcDbEntity
  8
0
100
AcDbSpline
 62
9
  6
CONTINUOUS
 70
0
 71
3
 72
14
 73
10
 74
0
 42
0.0000001
 43
0.0000001
 44
0.0000000001
 40
0.0
 40
0.0
 40
0.0
 40
0.0
 40
0.2639115509
 40
0.3929971022
 40
0.5194876895
 40
0.6432362836
 40
0.7643120761
 40
0.8831187206
 40
1.0
 40
1.0
 40
1.0
 40
1.0
 10
11.8916434027
 20
4.871358046
 30
0.0
 10
11.8917672378
 20
4.8732484867
 30
0.0
 10
11.8915993994
 20
4.876106316
 30
0.0
 10
11.8906431589
 20
4.8797193809
 30
0.0
 10
11.8895877415
 20
4.8822398964
 30
0.0
 10
11.8882120306
 20
4.8845339352
 30
0.0
 10
11.8865418341
 20
4.8865537273
 30
0.0
 10
11.8846126344
 20
4.88825383
 30
0.0
 10
11.8831713597
 20
4.889157215
 30
0.0
 10
11.8824254506
 20
4.8895413988
 30
0.0
  0
SPLINE
  5
341
100
AcDbEntity
  8
0
100
AcDbSpline
 62
9
  6
CONTINUOUS
 70
0
 71
3
 72
9
 73
5
 74
0
 42
0.0000001
 43
0.0000001
 44
0.0000000001
 40
0.0
 40
0.0
 40
0.0
 40
0.0
 40
0.5060257174
 40
1.0
 40
1.0
 40
1.0
 40
1.0
 10
10.6566960006
 20
4.8895413988
 30
0.0
 10
10.6536089595
 20
4.8891345775
 30
0.0
 10
10.6474821777
 20
4.8885176283
 30
0.0
 10
10.6413274766
 20
4.888296817
 30
0.0
 10
10.6382879009
 20
4.8882968147
 30
0.0
  0
SPLINE
  5
342
100
AcDbEntity
  8
0
100
AcDbSpline
 62
9
  6
CONTINUOUS
 70
0
 71
3
 72
11
 73
7
 74
0
 42
0.0000001
 43
0.0000001
 44
0.0000000001
 40
0.0
 40
0.0
 40
0.0
 40
0.0
 40
0.2840348962
 40
0.5459037438
 40
0.7846810235
 40
1.0
 40
1.0
 40
1.0
 40
1.0
 10
10.2781273262
 20
4.8882968147
 30
0.0
 10
10.2770132394
 20
4.8882968153
 30
0.0
 10
10.2748715544
 20
4.8883435166
 30
0.0
 10
10.2718005641
 20
4.8885718124
 30
0.0
 10
10.2690163649
 20
4.8889531235
 30
0.0
 10
10.2672720836
 20
4.8893255379
 30
0.0
 10
10.2664555771
 20
4.8895413988
 30
0.0
  0
SPLINE
  5
343
100
AcDbEntity
  8
0
100
AcDbSpline
 62
9
  6
CONTINUOUS
 70
0
 71
3
 72
14
 73
10
 74
0
 42
0.0000001
 43
0.0000001
 44
0.0000000001
 40
0.0
 40
0.0
 40
0.0
 40
0.0
 40
0.2639115511
 40
0.3929971024
 40
0.5194876898
 40
0.6432362839
 40
0.7643120764
 40
0.8831187208
 40
1.0
 40
1.0
 40
1.0
 40
1.0
 10
9.9787412827
 20
4.6799690761
 30
0.0
 10
9.9786174476
 20
4.6780786354
 30
0.0
 10
9.9787852861
 20
4.6752208062
 30
0.0
 10
9.9797415266
 20
4.6716077412
 30
0.0
 10
9.980796944
 20
4.6690872257
 30
0.0
 10
9.9821726549
 20
4.6667931869
 30
0.0
 10
9.9838428514
 20
4.6647733948
 30
0.0
 10
9.9857720511
 20
4.6630732922
 30
0.0
 10
9.9872133258
 20
4.6621699072
 30
0.0
 10
9.9879592349
 20
4.6617857234
 30
0.0
  0
LINE
  5
344
100
AcDbEntity
  8
0
100
AcDbLine
 62
9
  6
CONTINUOUS
 10
9.0668281371
 20
8.9946388438
 11
9.0507512526
 21
8.9963052307
  0
SPLINE
  5
345
100
AcDbEntity
  8
0
100
AcDbSpline
 62
9
  6
CONTINUOUS
 70
0
 71
3
 72
15
 73
11
 74
0
 42
0.0000001
 43
0.0000001
 44
0.0000000001
 40
0.0
 40
0.0
 40
0.0
 40
0.0
 40
0.1260372905
 40
0.2509658917
 40
0.37522223
 40
0.4992087274
 40
0.6233024843
 40
0.7478735258
 40
0.8733040891
 40
1.0
 40
1.0
 40
1.0
 40
1.0
 10
10.2664555771
 20
4.8895413988
 30
0.0
 10
10.2550208546
 20
4.8925644396
 30
0.0
 10
10.2320439316
 20
4.8978259549
 30
0.0
 10
10.197255455
 20
4.9034182449
 30
0.0
 10
10.1623701603
 20
4.9067416506
 30
0.0
 10
10.1274235866
 20
4.907843325
 30
0.0
 10
10.0924475847
 20
4.9067397754
 30
0.0
 10
10.0574755236
 20
4.9034148816
 30
0.0
 10
10.0225472231
 20
4.8978218046
 30
0.0
 10
9.9994582621
 20
4.8925629683
 30
0.0
 10
9.9879592349
 20
4.8895413988
 30
0.0
  0
SPLINE
  5
346
100
AcDbEntity
  8
0
100
AcDbSpline
 62
9
  6
CONTINUOUS
 70
0
 71
3
 72
13
 73
9
 74
0
 42
0.0000001
 43
0.0000001
 44
0.0000000001
 40
0.0
 40
0.0
 40
0.0
 40
0.0
 40
0.3268741597
 40
0.6035867287
 40
0.7224975926
 40
0.8282369842
 40
0.9207318228
 40
1.0
 40
1.0
 40
1.0
 40
1.0
 10
9.9879592349
 20
4.8895413988
 30
0.0
 10
9.9872358816
 20
4.8893513254
 30
0.0
 10
9.9858959549
 20
4.8890161085
 30
0.0
 10
9.9842789097
 20
4.8886698244
 30
0.0
 10
9.9831483245
 20
4.8884746973
 30
0.0
 10
9.9824294341
 20
4.8883746184
 30
0.0
 10
9.9817972701
 20
4.8883132617
 30
0.0
 10
9.9814042551
 20
4.8882968153
 30
0.0
 10
9.9812228844
 20
4.8882968147
 30
0.0
  0
SPLINE
  5
347
100
AcDbEntity
  8
0
100
AcDbSpline
 62
9
  6
CONTINUOUS
 70
0
 71
3
 72
13
 73
9
 74
0
 42
0.0000001
 43
0.0000001
 44
0.0000000001
 40
0.0
 40
0.0
 40
0.0
 40
0.0
 40
0.2563925617
 40
0.5114227965
 40
0.6370552231
 40
0.7605472635
 40
0.8816440218
 40
1.0
 40
1.0
 40
1.0
 40
1.0
 10
11.6155292959
 20
4.6799690761
 30
0.0
 10
11.6154034158
 20
4.6780474166
 30
0.0
 10
11.6146655554
 20
4.6742309932
 30
0.0
 10
11.6126085568
 20
4.6698521905
 30
0.0
 10
11.6103673652
 20
4.666788364
 30
0.0
 10
11.6084373799
 20
4.6647741166
 30
0.0
 10
11.6062920876
 20
4.6630784729
 30
0.0
 10
11.6047297611
 20
4.6621720355
 30
0.0
 10
11.6039291084
 20
4.6617857234
 30
0.0
  0
SPLINE
  5
348
100
AcDbEntity
  8
0
100
AcDbSpline
 62
9
  6
CONTINUOUS
 70
0
 71
3
 72
13
 73
9
 74
0
 42
0.0000001
 43
0.0000001
 44
0.0000000001
 40
0.0
 40
0.0
 40
0.0
 40
0.0
 40
0.0775869241
 40
0.1688710868
 40
0.2739082017
 40
0.3926301693
 40
0.6704117584
 40
1.0
 40
1.0
 40
1.0
 40
1.0
 10
11.8141032048
 20
7.6737268377
 30
0.0
 10
11.8139216824
 20
7.6737268382
 30
0.0
 10
11.8135265881
 20
7.6737461929
 30
0.0
 10
11.8128895028
 20
7.6738176334
 30
0.0
 10
11.8121614385
 20
7.6739339613
 30
0.0
 10
11.8110099984
 20
7.6741608974
 30
0.0
 10
11.8093585955
 20
7.6745622459
 30
0.0
 10
11.8079906883
 20
7.674947762
 30
0.0
 10
11.8072510988
 20
7.6751659601
 30
0.0
  0
SPLINE
  5
349
100
AcDbEntity
  8
0
100
AcDbSpline
 62
9
  6
CONTINUOUS
 70
0
 71
3
 72
19
 73
15
 74
0
 42
0.0000001
 43
0.0000001
 44
0.0000000001
 40
0.0
 40
0.0
 40
0.0
 40
0.0
 40
0.127862262
 40
0.253913231
 40
0.3164550395
 40
0.3787481682
 40
0.4408457994
 40
0.5027980866
 40
0.5646545898
 40
0.6264662562
 40
0.6882885225
 40
0.7501826276
 40
0.8744550832
 40
1.0
 40
1.0
 40
1.0
 40
1.0
 10
11.8072510988
 20
7.6751659601
 30
0.0
 10
11.7965401828
 20
7.6783259675
 30
0.0
 10
11.7750016883
 20
7.6837221209
 30
0.0
 10
11.747733266
 20
7.6883811481
 30
0.0
 10
11.7259659682
 20
7.6909269882
 30
0.0
 10
11.7096917281
 20
7.6922714959
 30
0.0
 10
11.6934334977
 20
7.693071075
 30
0.0
 10
11.6771959398
 20
7.6933374355
 30
0.0
 10
11.6609833332
 20
7.6930718956
 30
0.0
 10
11.6447995829
 20
7.6922730956
 30
0.0
 10
11.628648297
 20
7.6909292879
 30
0.0
 10
11.6071352175
 20
7.6883874716
 30
0.0
 10
11.5802849185
 20
7.6837364828
 30
0.0
 10
11.5591164762
 20
7.678330893
 30
0.0
 10
11.5486182324
 20
7.6751659601
 30
0.0
  0
SPLINE
  5
34A
100
AcDbEntity
  8
0
100
AcDbSpline
 62
9
  6
CONTINUOUS
 70
0
 71
3
 72
11
 73
7
 74
0
 42
0.0000001
 43
0.0000001
 44
0.0000000001
 40
0.0
 40
0.0
 40
0.0
 40
0.0
 40
0.2148882561
 40
0.4533810903
 40
0.7153534426
 40
1.0
 40
1.0
 40
1.0
 40
1.0
 10
11.5486182324
 20
7.6751659601
 30
0.0
 10
11.5477952665
 20
7.6749178601
 30
0.0
 10
11.5460301663
 20
7.67448797
 30
0.0
 10
11.5432005121
 20
7.6740461831
 30
0.0
 10
11.5400690825
 20
7.6737810393
 30
0.0
 10
11.5378820089
 20
7.673726839
 30
0.0
 10
11.5367434265
 20
7.6737268377
 30
0.0
  0
SPLINE
  5
34B
100
AcDbEntity
  8
0
100
AcDbSpline
 62
9
  6
CONTINUOUS
 70
0
 71
3
 72
9
 73
5
 74
0
 42
0.0000001
 43
0.0000001
 44
0.0000000001
 40
0.0
 40
0.0
 40
0.0
 40
0.0
 40
0.4937891984
 40
1.0
 40
1.0
 40
1.0
 40
1.0
 10
11.2125521211
 20
7.6737268377
 30
0.0
 10
11.209458553
 20
7.6737268395
 30
0.0
 10
11.2031917778
 20
7.6739844655
 30
0.0
 10
11.1969619209
 20
7.6746982562
 30
0.0
 10
11.1938252091
 20
7.6751659601
 30
0.0
  0
SPLINE
  5
34C
100
AcDbEntity
  8
0
100
AcDbSpline
 62
9
  6
CONTINUOUS
 70
0
 71
3
 72
21
 73
17
 74
0
 42
0.0000001
 43
0.0000001
 44
0.0000000001
 40
0.0
 40
0.0
 40
0.0
 40
0.0
 40
0.1249947488
 40
0.1874954755
 40
0.2499960977
 40
0.3124970525
 40
0.3749980414
 40
0.4374990088
 40
0.4999999997
 40
0.5625009905
 40
0.6250019579
 40
0.6875029468
 40
0.7500039016
 40
0.8125045236
 40
0.8750052503
 40
1.0
 40
1.0
 40
1.0
 40
1.0
 10
11.1938252091
 20
7.6751659601
 30
0.0
 10
11.1724384617
 20
7.6783548831
 30
0.0
 10
11.1402453726
 20
7.6824158152
 30
0.0
 10
11.0971937432
 20
7.6865429075
 30
0.0
 10
11.0648504368
 20
7.6890278071
 30
0.0
 10
11.0324680737
 20
7.6909301534
 30
0.0
 10
11.0000576592
 20
7.6922731269
 30
0.0
 10
10.9676293571
 20
7.6930716504
 30
0.0
 10
10.9351923429
 20
7.6933373888
 30
0.0
 10
10.9027553286
 20
7.6930716512
 30
0.0
 10
10.8703270265
 20
7.6922731289
 30
0.0
 10
10.837916612
 20
7.6909301562
 30
0.0
 10
10.8055342489
 20
7.6890278091
 30
0.0
 10
10.7731909427
 20
7.686542908
 30
0.0
 10
10.7301393134
 20
7.6824158132
 30
0.0
 10
10.6979462239
 20
7.6783548834
 30
0.0
 10
10.6765594763
 20
7.6751659601
 30
0.0
  0
SPLINE
  5
34D
100
AcDbEntity
  8
0
100
AcDbSpline
 62
9
  6
CONTINUOUS
 70
0
 71
3
 72
9
 73
5
 74
0
 42
0.0000001
 43
0.0000001
 44
0.0000000001
 40
0.0
 40
0.0
 40
0.0
 40
0.0
 40
0.5062110606
 40
1.0
 40
1.0
 40
1.0
 40
1.0
 10
10.6765594763
 20
7.6751659601
 30
0.0
 10
10.6734227632
 20
7.6746982548
 30
0.0
 10
10.667192906
 20
7.6739844653
 30
0.0
 10
10.6609261309
 20
7.6737268405
 30
0.0
 10
10.6578325644
 20
7.6737268377
 30
0.0
  0
SPLINE
  5
34E
100
AcDbEntity
  8
0
100
AcDbSpline
 62
9
  6
CONTINUOUS
 70
0
 71
3
 72
11
 73
7
 74
0
 42
0.0000001
 43
0.0000001
 44
0.0000000001
 40
0.0
 40
0.0
 40
0.0
 40
0.0
 40
0.2846466969
 40
0.5466191599
 40
0.7851118075
 40
1.0
 40
1.0
 40
1.0
 40
1.0
 10
10.333641259
 20
7.6737268377
 30
0.0
 10
10.3325026761
 20
7.6737268386
 30
0.0
 10
10.3303156014
 20
7.6737810393
 30
0.0
 10
10.3271841717
 20
7.6740461833
 30
0.0
 10
10.324354518
 20
7.6744879704
 30
0.0
 10
10.322589419
 20
7.674917861
 30
0.0
 10
10.3217664531
 20
7.6751659601
 30
0.0
  0
SPLINE
  5
34F
100
AcDbEntity
  8
0
100
AcDbSpline
 62
9
  6
CONTINUOUS
 70
0
 71
3
 72
19
 73
15
 74
0
 42
0.0000001
 43
0.0000001
 44
0.0000000001
 40
0.0
 40
0.0
 40
0.0
 40
0.0
 40
0.1255449093
 40
0.2498173847
 40
0.3117114978
 40
0.3735337626
 40
0.4353454214
 40
0.4972019179
 40
0.5591541975
 40
0.6212518182
 40
0.6835449405
 40
0.7460867519
 40
0.8721377443
 40
1.0
 40
1.0
 40
1.0
 40
1.0
 10
10.3217664531
 20
7.6751659601
 30
0.0
 10
10.3112682098
 20
7.6783308925
 30
0.0
 10
10.2900997674
 20
7.6837364864
 30
0.0
 10
10.2632494656
 20
7.68838747
 30
0.0
 10
10.2417363836
 20
7.6909292845
 30
0.0
 10
10.2255850979
 20
7.6922730928
 30
0.0
 10
10.209401349
 20
7.693071894
 30
0.0
 10
10.1931887443
 20
7.6933374348
 30
0.0
 10
10.1769511886
 20
7.6930710752
 30
0.0
 10
10.1606929604
 20
7.6922714974
 30
0.0
 10
10.1444187213
 20
7.6909269908
 30
0.0
 10
10.1226514219
 20
7.68838115
 30
0.0
 10
10.0953829984
 20
7.6837221195
 30
0.0
 10
10.073844502
 20
7.6783259675
 30
0.0
 10
10.0631335867
 20
7.6751659601
 30
0.0
  0
SPLINE
  5
350
100
AcDbEntity
  8
0
100
AcDbSpline
 62
9
  6
CONTINUOUS
 70
0
 71
3
 72
13
 73
9
 74
0
 42
0.0000001
 43
0.0000001
 44
0.0000000001
 40
0.0
 40
0.0
 40
0.0
 40
0.0
 40
0.3295884548
 40
0.6073701075
 40
0.7260919859
 40
0.8311289613
 40
0.9224130042
 40
1.0
 40
1.0
 40
1.0
 40
1.0
 10
10.0631335867
 20
7.6751659601
 30
0.0
 10
10.0623939968
 20
7.6749477617
 30
0.0
 10
10.0610260889
 20
7.6745622455
 30
0.0
 10
10.0593746856
 20
7.674160897
 30
0.0
 10
10.0582232458
 20
7.6739339612
 30
0.0
 10
10.0574951823
 20
7.6738176334
 30
0.0
 10
10.0568580974
 20
7.6737461932
 30
0.0
 10
10.0564630033
 20
7.6737268385
 30
0.0
 10
10.0562814806
 20
7.6737268377
 30
0.0
  0
SPLINE
  5
351
100
AcDbEntity
  8
0
100
AcDbSpline
 62
9
  6
CONTINUOUS
 70
0
 71
3
 72
13
 73
9
 74
0
 42
0.0000001
 43
0.0000001
 44
0.0000000001
 40
0.0
 40
0.0
 40
0.0
 40
0.0
 40
0.0775869241
 40
0.1688710868
 40
0.2739082017
 40
0.3926301693
 40
0.6704117584
 40
1.0
 40
1.0
 40
1.0
 40
1.0
 10
10.0562814806
 20
7.4376002844
 30
0.0
 10
10.0564630031
 20
7.437600284
 30
0.0
 10
10.0568580974
 20
7.4375809292
 30
0.0
 10
10.0574951827
 20
7.4375094887
 30
0.0
 10
10.058223247
 20
7.4373931608
 30
0.0
 10
10.0593746871
 20
7.4371662247
 30
0.0
 10
10.06102609
 20
7.4367648762
 30
0.0
 10
10.0623939972
 20
7.4363793601
 30
0.0
 10
10.0631335867
 20
7.4361611621
 30
0.0
  0
SPLINE
  5
352
100
AcDbEntity
  8
0
100
AcDbSpline
 62
9
  6
CONTINUOUS
 70
0
 71
3
 72
19
 73
15
 74
0
 42
0.0000001
 43
0.0000001
 44
0.0000000001
 40
0.0
 40
0.0
 40
0.0
 40
0.0
 40
0.1278622605
 40
0.2539132353
 40
0.3164550458
 40
0.378748173
 40
0.4408458008
 40
0.5027980858
 40
0.5646545873
 40
0.6264662514
 40
0.6882885168
 40
0.7501826235
 40
0.8744550846
 40
1.0
 40
1.0
 40
1.0
 40
1.0
 10
10.0631335867
 20
7.4361611621
 30
0.0
 10
10.0738445025
 20
7.4330011548
 30
0.0
 10
10.0953829974
 20
7.4276050014
 30
0.0
 10
10.1226514202
 20
7.4229459736
 30
0.0
 10
10.1444187185
 20
7.4204001331
 30
0.0
 10
10.1606929584
 20
7.4190556257
 30
0.0
 10
10.1769511882
 20
7.418256047
 30
0.0
 10
10.1931887454
 20
7.4179896868
 30
0.0
 10
10.2094013515
 20
7.4182552269
 30
0.0
 10
10.2255851014
 20
7.4190540273
 30
0.0
 10
10.2417363871
 20
7.4203978352
 30
0.0
 10
10.2632494672
 20
7.4229396511
 30
0.0
 10
10.2900997669
 20
7.4275906386
 30
0.0
 10
10.3112682094
 20
7.4329962291
 30
0.0
 10
10.3217664531
 20
7.4361611621
 30
0.0
  0
SPLINE
  5
353
100
AcDbEntity
  8
0
100
AcDbSpline
 62
9
  6
CONTINUOUS
 70
0
 71
3
 72
11
 73
7
 74
0
 42
0.0000001
 43
0.0000001
 44
0.0000000001
 40
0.0
 40
0.0
 40
0.0
 40
0.0
 40
0.2148882561
 40
0.4533810903
 40
0.7153534426
 40
1.0
 40
1.0
 40
1.0
 40
1.0
 10
10.3217664531
 20
7.4361611621
 30
0.0
 10
10.322589419
 20
7.436409262
 30
0.0
 10
10.3243545192
 20
7.4368391522
 30
0.0
 10
10.3271841734
 20
7.4372809391
 30
0.0
 10
10.330315603
 20
7.4375460828
 30
0.0
 10
10.3325026766
 20
7.4376002831
 30
0.0
 10
10.333641259
 20
7.4376002844
 30
0.0
  0
SPLINE
  5
354
100
AcDbEntity
  8
0
100
AcDbSpline
 62
9
  6
CONTINUOUS
 70
0
 71
3
 72
9
 73
5
 74
0
 42
0.0000001
 43
0.0000001
 44
0.0000000001
 40
0.0
 40
0.0
 40
0.0
 40
0.0
 40
0.4937891984
 40
1.0
 40
1.0
 40
1.0
 40
1.0
 10
10.6578325644
 20
7.4376002844
 30
0.0
 10
10.6609261325
 20
7.4376002826
 30
0.0
 10
10.6671929077
 20
7.4373426566
 30
0.0
 10
10.6734227646
 20
7.436628866
 30
0.0
 10
10.6765594763
 20
7.4361611621
 30
0.0
  0
SPLINE
  5
355
100
AcDbEntity
  8
0
100
AcDbSpline
 62
9
  6
CONTINUOUS
 70
0
 71
3
 72
21
 73
17
 74
0
 42
0.0000001
 43
0.0000001
 44
0.0000000001
 40
0.0
 40
0.0
 40
0.0
 40
0.0
 40
0.124994749
 40
0.1874954757
 40
0.2499960979
 40
0.3124970528
 40
0.3749980416
 40
0.4374990091
 40
0.5
 40
0.5625009908
 40
0.6250019582
 40
0.687502947
 40
0.7500039018
 40
0.8125045238
 40
0.8750052504
 40
1.0
 40
1.0
 40
1.0
 40
1.0
 10
10.6765594763
 20
7.4361611621
 30
0.0
 10
10.6979462238
 20
7.4329722391
 30
0.0
 10
10.730139313
 20
7.4289113073
 30
0.0
 10
10.7731909424
 20
7.4247842146
 30
0.0
 10
10.8055342487
 20
7.4222993146
 30
0.0
 10
10.8379166119
 20
7.4203969678
 30
0.0
 10
10.8703270263
 20
7.4190539945
 30
0.0
 10
10.9027553285
 20
7.4182554714
 30
0.0
 10
10.9351923427
 20
7.4179897332
 30
0.0
 10
10.967629357
 20
7.418255471
 30
0.0
 10
11.0000576591
 20
7.4190539937
 30
0.0
 10
11.0324680735
 20
7.4203969667
 30
0.0
 10
11.0648504366
 20
7.4222993136
 30
0.0
 10
11.0971937428
 20
7.4247842144
 30
0.0
 10
11.1402453722
 20
7.4289113086
 30
0.0
 10
11.1724384616
 20
7.4329722387
 30
0.0
 10
11.1938252091
 20
7.4361611621
 30
0.0
  0
SPLINE
  5
356
100
AcDbEntity
  8
0
100
AcDbSpline
 62
9
  6
CONTINUOUS
 70
0
 71
3
 72
9
 73
5
 74
0
 42
0.0000001
 43
0.0000001
 44
0.0000000001
 40
0.0
 40
0.0
 40
0.0
 40
0.0
 40
0.5062110606
 40
1.0
 40
1.0
 40
1.0
 40
1.0
 10
11.1938252091
 20
7.4361611621
 30
0.0
 10
11.1969619223
 20
7.4366288673
 30
0.0
 10
11.2031917795
 20
7.4373426569
 30
0.0
 10
11.2094585546
 20
7.4376002816
 30
0.0
 10
11.2125521211
 20
7.4376002844
 30
0.0
  0
SPLINE
  5
357
100
AcDbEntity
  8
0
100
AcDbSpline
 62
9
  6
CONTINUOUS
 70
0
 71
3
 72
11
 73
7
 74
0
 42
0.0000001
 43
0.0000001
 44
0.0000000001
 40
0.0
 40
0.0
 40
0.0
 40
0.0
 40
0.2846466969
 40
0.5466191599
 40
0.7851118075
 40
1.0
 40
1.0
 40
1.0
 40
1.0
 10
11.5367434265
 20
7.4376002844
 30
0.0
 10
11.5378820094
 20
7.4376002836
 30
0.0
 10
11.5400690841
 20
7.4375460828
 30
0.0
 10
11.5432005138
 20
7.4372809388
 30
0.0
 10
11.5460301675
 20
7.4368391517
 30
0.0
 10
11.5477952665
 20
7.4364092611
 30
0.0
 10
11.5486182324
 20
7.4361611621
 30
0.0
  0
SPLINE
  5
358
100
AcDbEntity
  8
0
100
AcDbSpline
 62
9
  6
CONTINUOUS
 70
0
 71
3
 72
19
 73
15
 74
0
 42
0.0000001
 43
0.0000001
 44
0.0000000001
 40
0.0
 40
0.0
 40
0.0
 40
0.0
 40
0.1255449111
 40
0.2498173818
 40
0.311711491
 40
0.3735337551
 40
0.4353454156
 40
0.4972019137
 40
0.5591541955
 40
0.6212518201
 40
0.6835449453
 40
0.7460867568
 40
0.8721377432
 40
1.0
 40
1.0
 40
1.0
 40
1.0
 10
11.5486182324
 20
7.4361611621
 30
0.0
 10
11.5591164758
 20
7.4329962297
 30
0.0
 10
11.5802849181
 20
7.4275906364
 30
0.0
 10
11.6071352192
 20
7.4229396521
 30
0.0
 10
11.6286483002
 20
7.4203978365
 30
0.0
 10
11.6447995857
 20
7.4190540283
 30
0.0
 10
11.6609833349
 20
7.4182552273
 30
0.0
 10
11.67719594
 20
7.4179896867
 30
0.0
 10
11.6934334964
 20
7.4182560466
 30
0.0
 10
11.7096917254
 20
7.4190556249
 30
0.0
 10
11.725965965
 20
7.420400132
 30
0.0
 10
11.7477332642
 20
7.4229459727
 30
0.0
 10
11.7750016874
 20
7.4276050024
 30
0.0
 10
11.7965401834
 20
7.4330011546
 30
0.0
 10
11.8072510988
 20
7.4361611621
 30
0.0
  0
SPLINE
  5
359
100
AcDbEntity
  8
0
100
AcDbSpline
 62
9
  6
CONTINUOUS
 70
0
 71
3
 72
13
 73
9
 74
0
 42
0.0000001
 43
0.0000001
 44
0.0000000001
 40
0.0
 40
0.0
 40
0.0
 40
0.0
 40
0.3295884548
 40
0.6073701075
 40
0.7260919859
 40
0.8311289613
 40
0.9224130042
 40
1.0
 40
1.0
 40
1.0
 40
1.0
 10
11.8072510988
 20
7.4361611621
 30
0.0
 10
11.8079906887
 20
7.4363793605
 30
0.0
 10
11.8093585966
 20
7.4367648767
 30
0.0
 10
11.8110099999
 20
7.4371662251
 30
0.0
 10
11.8121614397
 20
7.4373931609
 30
0.0
 10
11.8128895031
 20
7.4375094887
 30
0.0
 10
11.8135265881
 20
7.4375809289
 30
0.0
 10
11.8139216822
 20
7.4376002837
 30
0.0
 10
11.8141032048
 20
7.4376002844
 30
0.0
  0
SPLINE
  5
35A
100
AcDbEntity
  8
0
100
AcDbSpline
 62
9
  6
CONTINUOUS
 70
0
 71
3
 72
13
 73
9
 74
0
 42
0.0000001
 43
0.0000001
 44
0.0000000001
 40
0.0
 40
0.0
 40
0.0
 40
0.0
 40
0.0792681111
 40
0.171763057
 40
0.2775025621
 40
0.3964134718
 40
0.6731259797
 40
1.0
 40
1.0
 40
1.0
 40
1.0
 10
9.9812228844
 20
4.6630303075
 30
0.0
 10
9.9814042549
 20
4.6630303071
 30
0.0
 10
9.98179727
 20
4.6630138607
 30
0.0
 10
9.9824294344
 20
4.6629525037
 30
0.0
 10
9.9831483254
 20
4.6628524247
 30
0.0
 10
9.9842789108
 20
4.6626572975
 30
0.0
 10
9.9858959556
 20
4.6623110134
 30
0.0
 10
9.9872358818
 20
4.6619757965
 30
0.0
 10
9.9879592349
 20
4.6617857234
 30
0.0
  0
SPLINE
  5
35B
100
AcDbEntity
  8
0
100
AcDbSpline
 62
9
  6
CONTINUOUS
 70
0
 71
3
 72
15
 73
11
 74
0
 42
0.0000001
 43
0.0000001
 44
0.0000000001
 40
0.0
 40
0.0
 40
0.0
 40
0.0
 40
0.1266959089
 40
0.2521264744
 40
0.3766975148
 40
0.5007912725
 40
0.6247777703
 40
0.7490341068
 40
0.8739627102
 40
1.0
 40
1.0
 40
1.0
 40
1.0
 10
9.9879592349
 20
4.6617857234
 30
0.0
 10
9.9994582619
 20
4.6587641539
 30
0.0
 10
10.022547223
 20
4.6535053178
 30
0.0
 10
10.0574755233
 20
4.6479122404
 30
0.0
 10
10.0924475847
 20
4.6445873469
 30
0.0
 10
10.1274235865
 20
4.6434837972
 30
0.0
 10
10.1623701603
 20
4.6445854713
 30
0.0
 10
10.1972554549
 20
4.6479088776
 30
0.0
 10
10.2320439316
 20
4.6535011667
 30
0.0
 10
10.2550208547
 20
4.6587626825
 30
0.0
 10
10.2664555771
 20
4.6617857234
 30
0.0
  0
SPLINE
  5
35C
100
AcDbEntity
  8
0
100
AcDbSpline
 62
9
  6
CONTINUOUS
 70
0
 71
3
 72
11
 73
7
 74
0
 42
0.0000001
 43
0.0000001
 44
0.0000000001
 40
0.0
 40
0.0
 40
0.0
 40
0.0
 40
0.2153190323
 40
0.4540964497
 40
0.7159652049
 40
1.0
 40
1.0
 40
1.0
 40
1.0
 10
10.2664555771
 20
4.6617857234
 30
0.0
 10
10.2672720836
 20
4.662001585
 30
0.0
 10
10.2690163658
 20
4.6623739988
 30
0.0
 10
10.2718005654
 20
4.6627553099
 30
0.0
 10
10.2748715556
 20
4.6629836056
 30
0.0
 10
10.2770132398
 20
4.6630303064
 30
0.0
 10
10.2781273262
 20
4.6630303075
 30
0.0
  0
LINE
  5
35D
100
AcDbEntity
  8
0
100
AcDbLine
 62
9
  6
CONTINUOUS
 10
9.0365379713
 20
9.033442279
 11
9.0253282677
 21
9.0351853027
  0
SPLINE
  5
35E
100
AcDbEntity
  8
0
100
AcDbSpline
 62
9
  6
CONTINUOUS
 70
0
 71
3
 72
9
 73
5
 74
0
 42
0.0000001
 43
0.0000001
 44
0.0000000001
 40
0.0
 40
0.0
 40
0.0
 40
0.0
 40
0.4939744786
 40
1.0
 40
1.0
 40
1.0
 40
1.0
 10
10.6382879009
 20
4.6630303075
 30
0.0
 10
10.6413274778
 20
4.663030306
 30
0.0
 10
10.6474821789
 20
4.6628094937
 30
0.0
 10
10.6536089605
 20
4.6621925436
 30
0.0
 10
10.6566960006
 20
4.6617857234
 30
0.0
  0
SPLINE
  5
35F
100
AcDbEntity
  8
0
100
AcDbSpline
 62
9
  6
CONTINUOUS
 70
0
 71
3
 72
15
 73
11
 74
0
 42
0.0000001
 43
0.0000001
 44
0.0000000001
 40
0.0
 40
0.0
 40
0.0
 40
0.0
 40
0.1249995724
 40
0.2500000696
 40
0.3749998273
 40
0.5000000001
 40
0.6250001728
 40
0.74999993
 40
0.8750004272
 40
1.0
 40
1.0
 40
1.0
 40
1.0
 10
10.6566960006
 20
4.6617857234
 30
0.0
 10
10.6797680351
 20
4.6587451967
 30
0.0
 10
10.7260225513
 20
4.6534725245
 30
0.0
 10
10.7956263467
 20
4.6478977196
 30
0.0
 10
10.8653746521
 20
4.6445838588
 30
0.0
 10
10.9351923428
 20
4.6434845183
 30
0.0
 10
11.0050100333
 20
4.6445838594
 30
0.0
 10
11.0747583387
 20
4.6478977192
 30
0.0
 10
11.144362134
 20
4.6534725244
 30
0.0
 10
11.1906166503
 20
4.6587451966
 30
0.0
 10
11.2136886849
 20
4.6617857234
 30
0.0
  0
SPLINE
  5
360
100
AcDbEntity
  8
0
100
AcDbSpline
 62
9
  6
CONTINUOUS
 70
0
 71
3
 72
9
 73
5
 74
0
 42
0.0000001
 43
0.0000001
 44
0.0000000001
 40
0.0
 40
0.0
 40
0.0
 40
0.0
 40
0.4939731433
 40
1.0
 40
1.0
 40
1.0
 40
1.0
 10
11.2356336837
 20
4.8701319825
 30
0.0
 10
11.2316217438
 20
4.870131983
 30
0.0
 10
11.2234989424
 20
4.8703486878
 30
0.0
 10
11.2153965933
 20
4.8709561904
 30
0.0
 10
11.2113064496
 20
4.871358046
 30
0.0
  0
SPLINE
  5
361
100
AcDbEntity
  8
0
100
AcDbSpline
 62
9
  6
CONTINUOUS
 70
0
 71
3
 72
9
 73
5
 74
0
 42
0.0000001
 43
0.0000001
 44
0.0000000001
 40
0.0
 40
0.0
 40
0.0
 40
0.0
 40
0.5060269065
 40
1.0
 40
1.0
 40
1.0
 40
1.0
 10
11.2113064496
 20
4.6799690761
 30
0.0
 10
11.2153965927
 20
4.6803709422
 30
0.0
 10
11.2234989433
 20
4.6809784291
 30
0.0
 10
11.2316217442
 20
4.6811951389
 30
0.0
 10
11.2356336837
 20
4.6811951396
 30
0.0
  0
SPLINE
  5
362
100
AcDbEntity
  8
0
100
AcDbSpline
 62
9
  6
CONTINUOUS
 70
0
 71
3
 72
11
 73
7
 74
0
 42
0.0000001
 43
0.0000001
 44
0.0000000001
 40
0.0
 40
0.0
 40
0.0
 40
0.0
 40
0.2145539168
 40
0.4533547491
 40
0.7155764626
 40
1.0
 40
1.0
 40
1.0
 40
1.0
 10
11.6155292959
 20
4.871358046
 30
0.0
 10
11.6144405358
 20
4.8711440998
 30
0.0
 10
11.612123035
 20
4.8707767912
 30
0.0
 10
11.6084399918
 20
4.8704020495
 30
0.0
 10
11.6043829663
 20
4.8701778639
 30
0.0
 10
11.6015556192
 20
4.8701319829
 30
0.0
 10
11.6000847015
 20
4.8701319825
 30
0.0
  0
SPLINE
  5
363
100
AcDbEntity
  8
0
100
AcDbSpline
 62
9
  6
CONTINUOUS
 70
0
 71
3
 72
11
 73
7
 74
0
 42
0.0000001
 43
0.0000001
 44
0.0000000001
 40
0.0
 40
0.0
 40
0.0
 40
0.0
 40
0.2844235656
 40
0.5466453075
 40
0.785446117
 40
1.0
 40
1.0
 40
1.0
 40
1.0
 10
11.6000847015
 20
4.6811951396
 30
0.0
 10
11.6015556193
 20
4.6811951394
 30
0.0
 10
11.6043829667
 20
4.6811492586
 30
0.0
 10
11.6084399923
 20
4.6809250736
 30
0.0
 10
11.6121230352
 20
4.6805503279
 30
0.0
 10
11.614440535
 20
4.6801830169
 30
0.0
 10
11.6155292959
 20
4.6799690761
 30
0.0
  0
SPLINE
  5
364
100
AcDbEntity
  8
0
100
AcDbSpline
 62
9
  6
CONTINUOUS
 70
0
 71
3
 72
12
 73
8
 74
0
 42
0.0000001
 43
0.0000001
 44
0.0000000001
 40
0.0
 40
0.0
 40
0.0
 40
0.0
 40
0.0799342152
 40
0.1729780345
 40
0.398092698
 40
0.6743632132
 40
1.0
 40
1.0
 40
1.0
 40
1.0
 10
11.9005260425
 20
4.8701319825
 30
0.0
 10
11.9002868497
 20
4.8701319827
 30
0.0
 10
11.8997692246
 20
4.8701480525
 30
0.0
 10
11.8985808958
 20
4.8702341928
 30
0.0
 10
11.8968142228
 20
4.8704486793
 30
0.0
 10
11.8943701544
 20
4.8708388434
 30
0.0
 10
11.8925995442
 20
4.8711701645
 30
0.0
 10
11.8916434027
 20
4.871358046
 30
0.0
  0
SPLINE
  5
365
100
AcDbEntity
  8
0
100
AcDbSpline
 62
9
  6
CONTINUOUS
 70
0
 71
3
 72
12
 73
8
 74
0
 42
0.0000001
 43
0.0000001
 44
0.0000000001
 40
0.0
 40
0.0
 40
0.0
 40
0.0
 40
0.3256368687
 40
0.6019073545
 40
0.8270219755
 40
0.9200657671
 40
1.0
 40
1.0
 40
1.0
 40
1.0
 10
11.8916434027
 20
4.6799690761
 30
0.0
 10
11.8925995435
 20
4.6801569623
 30
0.0
 10
11.8943701541
 20
4.6804882827
 30
0.0
 10
11.8968142233
 20
4.6808784422
 30
0.0
 10
11.898580896
 20
4.6810929289
 30
0.0
 10
11.8997692246
 20
4.6811790694
 30
0.0
 10
11.9002868496
 20
4.6811951394
 30
0.0
 10
11.9005260425
 20
4.6811951396
 30
0.0
  0
SPLINE
  5
366
100
AcDbEntity
  8
0
100
AcDbSpline
 62
9
  6
CONTINUOUS
 70
0
 71
3
 72
9
 73
5
 74
0
 42
0.0000001
 43
0.0000001
 44
0.0000000001
 40
0.0
 40
0.0
 40
0.0
 40
0.0
 40
0.5060257174
 40
1.0
 40
1.0
 40
1.0
 40
1.0
 10
11.2136886849
 20
4.6617857234
 30
0.0
 10
11.216775726
 20
4.6621925446
 30
0.0
 10
11.2229025078
 20
4.6628094939
 30
0.0
 10
11.2290572088
 20
4.6630303052
 30
0.0
 10
11.2320967845
 20
4.6630303075
 30
0.0
  0
SPLINE
  5
367
100
AcDbEntity
  8
0
100
AcDbSpline
 62
9
  6
CONTINUOUS
 70
0
 71
3
 72
23
 73
19
 74
0
 42
0.0000001
 43
0.0000001
 44
0.0000000001
 40
0.0
 40
0.0
 40
0.0
 40
0.0
 40
0.063552507
 40
0.1266471136
 40
0.1893752987
 40
0.2518145793
 40
0.3140365452
 40
0.3761053682
 40
0.4380767731
 40
0.5000000031
 40
0.5619232336
 40
0.6238946393
 40
0.6859634623
 40
0.7481854271
 40
0.8106247062
 40
0.8733528893
 40
0.9364474939
 40
1.0
 40
1.0
 40
1.0
 40
1.0
 10
10.3106292056
 20
7.6573202806
 30
0.0
 10
10.3053574656
 20
7.6588605268
 30
0.0
 10
10.2947868368
 20
7.6617115183
 30
0.0
 10
10.2788240442
 20
7.6653380048
 30
0.0
 10
10.2628294773
 20
7.6683363464
 30
0.0
 10
10.2468121866
 20
7.6707448464
 30
0.0
 10
10.2307772909
 20
7.6725856158
 30
0.0
 10
10.2147299844
 20
7.673880831
 30
0.0
 10
10.1986751367
 20
7.6746552431
 30
0.0
 10
10.1826162674
 20
7.6749138865
 30
0.0
 10
10.1665573981
 20
7.6746552315
 30
0.0
 10
10.1505025507
 20
7.6738808129
 30
0.0
 10
10.1344552444
 20
7.6725855966
 30
0.0
 10
10.1184203488
 20
7.6707448295
 30
0.0
 10
10.1024030576
 20
7.6683363347
 30
0.0
 10
10.0864084901
 20
7.6653379994
 30
0.0
 10
10.0704456968
 20
7.6617115173
 30
0.0
 10
10.059875068
 20
7.6588605269
 30
0.0
 10
10.054603328
 20
7.6573202806
 30
0.0
  0
SPLINE
  5
368
100
AcDbEntity
  8
0
100
AcDbSpline
 62
9
  6
CONTINUOUS
 70
0
 71
3
 72
23
 73
19
 74
0
 42
0.0000001
 43
0.0000001
 44
0.0000000001
 40
0.0
 40
0.0
 40
0.0
 40
0.0
 40
0.0635525067
 40
0.1266471125
 40
0.1893752965
 40
0.2518145759
 40
0.3140365408
 40
0.376105364
 40
0.4380767699
 40
0.5000000007
 40
0.5619232308
 40
0.6238946355
 40
0.6859634579
 40
0.7481854228
 40
0.8106247024
 40
0.8733528867
 40
0.9364474928
 40
1.0
 40
1.0
 40
1.0
 40
1.0
 10
10.054603328
 20
7.4540068415
 30
0.0
 10
10.0598750681
 20
7.4524665954
 30
0.0
 10
10.0704456969
 20
7.4496156044
 30
0.0
 10
10.0864084898
 20
7.44598912
 30
0.0
 10
10.102403057
 20
7.4429907823
 30
0.0
 10
10.1184203482
 20
7.4405822872
 30
0.0
 10
10.134455244
 20
7.4387415214
 30
0.0
 10
10.1505025506
 20
7.4374463077
 30
0.0
 10
10.1665573982
 20
7.4366718924
 30
0.0
 10
10.1826162674
 20
7.4364132402
 30
0.0
 10
10.1986751367
 20
7.436671886
 30
0.0
 10
10.2147299842
 20
7.4374462997
 30
0.0
 10
10.2307772905
 20
7.4387415147
 30
0.0
 10
10.2468121861
 20
7.4405822825
 30
0.0
 10
10.2628294769
 20
7.4429907799
 30
0.0
 10
10.278824044
 20
7.4459891188
 30
0.0
 10
10.2947868369
 20
7.4496156037
 30
0.0
 10
10.3053574657
 20
7.4524665951
 30
0.0
 10
10.3106292056
 20
7.4540068415
 30
0.0
  0
SPLINE
  5
369
100
AcDbEntity
  8
0
100
AcDbSpline
 62
9
  6
CONTINUOUS
 70
0
 71
3
 72
13
 73
9
 74
0
 42
0.0000001
 43
0.0000001
 44
0.0000000001
 40
0.0
 40
0.0
 40
0.0
 40
0.0
 40
0.123035926
 40
0.2465838129
 40
0.370678773
 40
0.4954370969
 40
0.7464922294
 40
1.0
 40
1.0
 40
1.0
 40
1.0
 10
12.2801923427
 20
7.0797246421
 30
0.0
 10
12.2797428125
 20
7.0803829531
 30
0.0
 10
12.2787550743
 20
7.0816453205
 30
0.0
 10
12.2770406405
 20
7.0833359812
 30
0.0
 10
12.2751157363
 20
7.0848019511
 30
0.0
 10
12.2723066391
 20
7.086428904
 30
0.0
 10
12.2684183338
 20
7.0877939753
 30
0.0
 10
12.2651266617
 20
7.088100274
 30
0.0
 10
12.263484754
 20
7.08805689
 30
0.0
  0
SPLINE
  5
36A
100
AcDbEntity
  8
0
100
AcDbSpline
 62
9
  6
CONTINUOUS
 70
0
 71
3
 72
12
 73
8
 74
0
 42
0.0000001
 43
0.0000001
 44
0.0000000001
 40
0.0
 40
0.0
 40
0.0
 40
0.0
 40
0.2449437648
 40
0.3699247002
 40
0.4959367587
 40
0.7488135234
 40
1.0
 40
1.0
 40
1.0
 40
1.0
 10
12.2899706522
 20
6.8879304532
 30
0.0
 10
12.2890556511
 20
6.8891504751
 30
0.0
 10
12.2874611086
 20
6.890844214
 30
0.0
 10
12.2850202966
 20
6.8927410858
 30
0.0
 10
12.2823560332
 20
6.8944069702
 30
0.0
 10
12.2787307612
 20
6.8959749439
 30
0.0
 10
12.2756353773
 20
6.8966273385
 30
0.0
 10
12.2740799233
 20
6.8967895116
 30
0.0
  0
SPLINE
  5
36B
100
AcDbEntity
  8
0
100
AcDbSpline
 62
9
  6
CONTINUOUS
 70
0
 71
3
 72
14
 73
10
 74
0
 42
0.0000001
 43
0.0000001
 44
0.0000000001
 40
0.0
 40
0.0
 40
0.0
 40
0.0
 40
0.0901337646
 40
0.1932503971
 40
0.3081076037
 40
0.433252905
 40
0.5669668728
 40
0.7073458806
 40
1.0
 40
1.0
 40
1.0
 40
1.0
 10
12.2801923427
 20
6.7029635914
 30
0.0
 10
12.2797068364
 20
6.7031011344
 30
0.0
 10
12.2786510569
 20
6.7033440193
 30
0.0
 10
12.2769466161
 20
6.7036148325
 30
0.0
 10
12.2750350504
 20
6.7038126523
 30
0.0
 10
12.2729457554
 20
6.7039341888
 30
0.0
 10
12.2707105041
 20
6.7039771875
 30
0.0
 10
12.2675375311
 20
6.7039278995
 30
0.0
 10
12.2651160882
 20
6.7037730751
 30
0.0
 10
12.263484754
 20
6.7036208408
 30
0.0
  0
SPLINE
  5
36C
100
AcDbEntity
  8
0
100
AcDbSpline
 62
9
  6
CONTINUOUS
 70
0
 71
3
 72
12
 73
8
 74
0
 42
0.0000001
 43
0.0000001
 44
0.0000000001
 40
0.0
 40
0.0
 40
0.0
 40
0.0
 40
0.2301665475
 40
0.3519798346
 40
0.4775087227
 40
0.7363756458
 40
1.0
 40
1.0
 40
1.0
 40
1.0
 10
12.2801923427
 20
6.0899025104
 30
0.0
 10
12.279258509
 20
6.0887995176
 30
0.0
 10
12.2776031653
 20
6.0872957349
 30
0.0
 10
12.2750911842
 20
6.0856538479
 30
0.0
 10
12.2722642522
 20
6.0841892616
 30
0.0
 10
12.2683969174
 20
6.0828493555
 30
0.0
 10
12.265136356
 20
6.0823379966
 30
0.0
 10
12.263484754
 20
6.0822275118
 30
0.0
  0
SPLINE
  5
36D
100
AcDbEntity
  8
0
100
AcDbSpline
 62
9
  6
CONTINUOUS
 70
0
 71
3
 72
13
 73
9
 74
0
 42
0.0000001
 43
0.0000001
 44
0.0000000001
 40
0.0
 40
0.0
 40
0.0
 40
0.0
 40
0.1174379494
 40
0.2368135118
 40
0.3583248681
 40
0.4822250076
 40
0.7368330004
 40
1.0
 40
1.0
 40
1.0
 40
1.0
 10
12.2899706522
 20
5.8804250189
 30
0.0
 10
12.2895168153
 20
5.8799145286
 30
0.0
 10
12.288529973
 20
5.8789466496
 30
0.0
 10
12.2868590694
 20
5.8776918015
 30
0.0
 10
12.2850091886
 20
5.8766410098
 30
0.0
 10
12.2823180517
 20
5.8755220634
 30
0.0
 10
12.2786395252
 20
5.8747136079
 30
0.0
 10
12.2756023376
 20
5.8747208069
 30
0.0
 10
12.2740799233
 20
5.8748795352
 30
0.0
  0
SPLINE
  5
36E
100
AcDbEntity
  8
0
100
AcDbSpline
 62
9
  6
CONTINUOUS
 70
0
 71
3
 72
42
 73
38
 74
0
 42
0.0000001
 43
0.0000001
 44
0.0000000001
 40
0.0
 40
0.0
 40
0.0
 40
0.0
 40
0.0872485765
 40
0.1740602316
 40
0.2599792597
 40
0.3445543249
 40
0.427303934
 40
0.5077139649
 40
0.5852127168
 40
0.6591466965
 40
0.7287505062
 40
0.7616514551
 40
0.7931163826
 40
0.8230051693
 40
0.8511656887
 40
0.8774340117
 40
0.9016383991
 40
0.9236003712
 40
0.9431334572
 40
0.9600521729
 40
0.9674768507
 40
0.9741835618
 40
0.9801527341
 40
0.9853651332
 40
0.9898026867
 40
0.9934533041
 40
0.9949803283
 40
0.9963067978
 40
0.99743149
 40
0.9983535189
 40
0.9990721343
 40
0.9993549275
 40
0.9995865862
 40
0.9997670165
 40
0.9998961247
 40
0.9999738171
 40
1.0
 40
1.0
 40
1.0
 40
1.0
 10
13.0601923434
 20
6.8013131547
 30
0.0
 10
13.0534505216
 20
6.8013131684
 30
0.0
 10
13.0399992298
 20
6.8015704338
 30
0.0
 10
13.0199384602
 20
6.8027162455
 30
0.0
 10
13.0001396037
 20
6.8045848827
 30
0.0
 10
12.9807316109
 20
6.8071166378
 30
0.0
 10
12.9618406649
 20
6.8102328112
 30
0.0
 10
12.9435944554
 20
6.813837535
 30
0.0
 10
12.9261256445
 20
6.817820603
 30
0.0
 10
12.9095780773
 20
6.8220583679
 30
0.0
 10
12.8964538082
 20
6.8257548889
 30
0.0
 10
12.8865359016
 20
6.8287217936
 30
0.0
 10
12.8795790544
 20
6.8308779176
 30
0.0
 10
12.8729911429
 20
6.8329860055
 30
0.0
 10
12.8668027118
 20
6.8350241313
 30
0.0
 10
12.8610464282
 20
6.8369696101
 30
0.0
 10
12.8557566657
 20
6.838799022
 30
0.0
 10
12.850969189
 20
6.8404881467
 30
0.0
 10
12.8467210128
 20
6.842013535
 30
0.0
 10
12.8435356673
 20
6.8431747647
 30
0.0
 10
12.8412840958
 20
6.8440036213
 30
0.0
 10
12.8398274465
 20
6.8445426967
 30
0.0
 10
12.838531899
 20
6.8450245491
 30
0.0
 10
12.8374013322
 20
6.8454469901
 30
0.0
 10
12.8364390814
 20
6.8458080333
 30
0.0
 10
12.835743759
 20
6.8460698461
 30
0.0
 10
12.8352735265
 20
6.8462472441
 30
0.0
 10
12.8349859388
 20
6.846355817
 30
0.0
 10
12.8347420865
 20
6.8464478782
 30
0.0
 10
12.8345421675
 20
6.8465233227
 30
0.0
 10
12.8344031169
 20
6.8465758138
 30
0.0
 10
12.8343139595
 20
6.8466094134
 30
0.0
 10
12.8342637382
 20
6.8466284263
 30
0.0
 10
12.83422456
 20
6.8466430138
 30
0.0
 10
12.8341966704
 20
6.8466539448
 30
0.0
 10
12.8341796296
 20
6.8466596243
 30
0.0
 10
12.8341723175
 20
6.8466631423
 30
0.0
 10
12.8341703382
 20
6.8466635611
 30
0.0
  0
SPLINE
  5
36F
100
AcDbEntity
  8
0
100
AcDbSpline
 62
9
  6
CONTINUOUS
 70
0
 71
3
 72
23
 73
19
 74
0
 42
0.0000001
 43
0.0000001
 44
0.0000000001
 40
0.0
 40
0.0
 40
0.0
 40
0.0
 40
0.063552507
 40
0.1266471133
 40
0.1893752977
 40
0.2518145774
 40
0.3140365425
 40
0.3761053655
 40
0.4380767711
 40
0.5000000016
 40
0.561923232
 40
0.6238946371
 40
0.6859634597
 40
0.7481854243
 40
0.8106247035
 40
0.8733528874
 40
0.936447493
 40
1.0
 40
1.0
 40
1.0
 40
1.0
 10
11.8157813574
 20
7.6573202806
 30
0.0
 10
11.8105096174
 20
7.6588605267
 30
0.0
 10
11.7999389886
 20
7.661711518
 30
0.0
 10
11.7839761958
 20
7.6653380033
 30
0.0
 10
11.7679816287
 20
7.6683363423
 30
0.0
 10
11.7519643377
 20
7.6707448387
 30
0.0
 10
11.7359294419
 20
7.6725856052
 30
0.0
 10
11.7198821354
 20
7.6738808187
 30
0.0
 10
11.7038272877
 20
7.6746552323
 30
0.0
 10
11.6877684185
 20
7.6749138809
 30
0.0
 10
11.6717095492
 20
7.6746552317
 30
0.0
 10
11.6556547017
 20
7.6738808165
 30
0.0
 10
11.6396073954
 20
7.6725856018
 30
0.0
 10
11.6235724998
 20
7.6707448352
 30
0.0
 10
11.6075552088
 20
7.6683363395
 30
0.0
 10
11.5915606416
 20
7.665338002
 30
0.0
 10
11.5755978486
 20
7.6617115181
 30
0.0
 10
11.5650272198
 20
7.658860527
 30
0.0
 10
11.5597554798
 20
7.6573202806
 30
0.0
  0
SPLINE
  5
370
100
AcDbEntity
  8
0
100
AcDbSpline
 62
9
  6
CONTINUOUS
 70
0
 71
3
 72
23
 73
19
 74
0
 42
0.0000001
 43
0.0000001
 44
0.0000000001
 40
0.0
 40
0.0
 40
0.0
 40
0.0
 40
0.0635525071
 40
0.1266471135
 40
0.1893752982
 40
0.2518145783
 40
0.3140365436
 40
0.3761053666
 40
0.4380767719
 40
0.5000000022
 40
0.5619232327
 40
0.6238946381
 40
0.6859634608
 40
0.7481854254
 40
0.8106247045
 40
0.873352888
 40
0.9364474933
 40
1.0
 40
1.0
 40
1.0
 40
1.0
 10
11.5597554798
 20
7.4540068415
 30
0.0
 10
11.5650272199
 20
7.4524665954
 30
0.0
 10
11.5755978486
 20
7.449615604
 30
0.0
 10
11.5915606413
 20
7.4459891182
 30
0.0
 10
11.6075552083
 20
7.4429907782
 30
0.0
 10
11.6235724993
 20
7.4405822805
 30
0.0
 10
11.639607395
 20
7.4387415131
 30
0.0
 10
11.6556547015
 20
7.4374462992
 30
0.0
 10
11.6717095492
 20
7.4366718864
 30
0.0
 10
11.6877684185
 20
7.4364132401
 30
0.0
 10
11.7038272877
 20
7.4366718917
 30
0.0
 10
11.7198821352
 20
7.4374463081
 30
0.0
 10
11.7359294415
 20
7.4387415231
 30
0.0
 10
11.7519643371
 20
7.4405822896
 30
0.0
 10
11.7679816282
 20
7.4429907846
 30
0.0
 10
11.7839761956
 20
7.4459891211
 30
0.0
 10
11.7999389887
 20
7.4496156044
 30
0.0
 10
11.8105096175
 20
7.4524665952
 30
0.0
 10
11.8157813574
 20
7.4540068415
 30
0.0
  0
SPLINE
  5
371
100
AcDbEntity
  8
0
100
AcDbSpline
 62
9
  6
CONTINUOUS
 70
0
 71
3
 72
23
 73
19
 74
0
 42
0.0000001
 43
0.0000001
 44
0.0000000001
 40
0.0
 40
0.0
 40
0.0
 40
0.0
 40
0.0624947894
 40
0.124996747
 40
0.187501058
 40
0.2500017848
 40
0.3125009705
 40
0.3750005492
 40
0.4375003431
 40
0.5000000001
 40
0.562499657
 40
0.6249994505
 40
0.6874990287
 40
0.7499982139
 40
0.8124989408
 40
0.8750032525
 40
0.9375052105
 40
1.0
 40
1.0
 40
1.0
 40
1.0
 10
11.1912182203
 20
7.6573202806
 30
0.0
 10
11.1806297994
 20
7.6588670919
 30
0.0
 10
11.1594167423
 20
7.6617258655
 30
0.0
 10
11.1275143107
 20
7.6653475849
 30
0.0
 10
11.0955460281
 20
7.6683423938
 30
0.0
 10
11.0635287624
 20
7.6707484449
 30
0.0
 10
11.0314748435
 20
7.6725874783
 30
0.0
 10
10.9993946178
 20
7.6738815837
 30
0.0
 10
10.9672976337
 20
7.6746553924
 30
0.0
 10
10.9351923431
 20
7.6749138375
 30
0.0
 10
10.9030870526
 20
7.6746553866
 30
0.0
 10
10.8709900688
 20
7.6738815741
 30
0.0
 10
10.8389098434
 20
7.6725874677
 30
0.0
 10
10.8068559246
 20
7.6707484352
 30
0.0
 10
10.7748386586
 20
7.6683423869
 30
0.0
 10
10.7428703754
 20
7.6653475818
 30
0.0
 10
10.7109679433
 20
7.6617258651
 30
0.0
 10
10.6897548861
 20
7.6588670921
 30
0.0
 10
10.6791664651
 20
7.6573202806
 30
0.0
  0
SPLINE
  5
372
100
AcDbEntity
  8
0
100
AcDbSpline
 62
9
  6
CONTINUOUS
 70
0
 71
3
 72
23
 73
19
 74
0
 42
0.0000001
 43
0.0000001
 44
0.0000000001
 40
0.0
 40
0.0
 40
0.0
 40
0.0
 40
0.0624947895
 40
0.1249967472
 40
0.1875010586
 40
0.2500017855
 40
0.3125009712
 40
0.37500055
 40
0.4375003441
 40
0.5000000011
 40
0.562499658
 40
0.6249994514
 40
0.6874990294
 40
0.7499982145
 40
0.8124989412
 40
0.8750032526
 40
0.9375052105
 40
1.0
 40
1.0
 40
1.0
 40
1.0
 10
10.6791664651
 20
7.4540068415
 30
0.0
 10
10.6897548861
 20
7.4524600302
 30
0.0
 10
10.7109679432
 20
7.4496012568
 30
0.0
 10
10.742870375
 20
7.4459795382
 30
0.0
 10
10.7748386579
 20
7.4429847306
 30
0.0
 10
10.8068559238
 20
7.4405786813
 30
0.0
 10
10.8389098428
 20
7.4387396491
 30
0.0
 10
10.8709900685
 20
7.4374455442
 30
0.0
 10
10.9030870527
 20
7.4366717344
 30
0.0
 10
10.9351923432
 20
7.4364132861
 30
0.0
 10
10.9672976337
 20
7.4366717337
 30
0.0
 10
10.9993946175
 20
7.4374455445
 30
0.0
 10
11.0314748428
 20
7.4387396506
 30
0.0
 10
11.0635287616
 20
7.4405786833
 30
0.0
 10
11.0955460274
 20
7.4429847326
 30
0.0
 10
11.1275143103
 20
7.445979539
 30
0.0
 10
11.1594167423
 20
7.4496012566
 30
0.0
 10
11.1806297994
 20
7.45246003
 30
0.0
 10
11.1912182203
 20
7.4540068415
 30
0.0
  0
SPLINE
  5
373
100
AcDbEntity
  8
0
100
AcDbSpline
 62
9
  6
CONTINUOUS
 70
0
 71
3
 72
14
 73
10
 74
0
 42
0.0000001
 43
0.0000001
 44
0.0000000001
 40
0.0
 40
0.0
 40
0.0
 40
0.0
 40
0.263829225
 40
0.3928363225
 40
0.5192889762
 40
0.6430419866
 40
0.7641646014
 40
0.8830114024
 40
1.0
 40
1.0
 40
1.0
 40
1.0
 10
11.8157813574
 20
7.6573202806
 30
0.0
 10
11.8159147784
 20
7.6591468995
 30
0.0
 10
11.8157839522
 20
7.6619087739
 30
0.0
 10
11.8149192243
 20
7.6654161588
 30
0.0
 10
11.8139513838
 20
7.6678736497
 30
0.0
 10
11.8126774112
 20
7.6701244611
 30
0.0
 10
11.8111217487
 20
7.6721253298
 30
0.0
 10
11.8093146506
 20
7.6738346145
 30
0.0
 10
11.8079565032
 20
7.6747635236
 30
0.0
 10
11.8072510988
 20
7.6751659601
 30
0.0
  0
SPLINE
  5
374
100
AcDbEntity
  8
0
100
AcDbSpline
 62
9
  6
CONTINUOUS
 70
0
 71
3
 72
11
 73
7
 74
0
 42
0.0000001
 43
0.0000001
 44
0.0000000001
 40
0.0
 40
0.0
 40
0.0
 40
0.0
 40
0.2840348962
 40
0.5459037438
 40
0.7846810235
 40
1.0
 40
1.0
 40
1.0
 40
1.0
 10
11.5922573593
 20
4.6630303075
 30
0.0
 10
11.5933714461
 20
4.6630303068
 30
0.0
 10
11.5955131311
 20
4.6629836055
 30
0.0
 10
11.5985841214
 20
4.6627553098
 30
0.0
 10
11.6013683206
 20
4.6623739986
 30
0.0
 10
11.6031126019
 20
4.6620015843
 30
0.0
 10
11.6039291084
 20
4.6617857234
 30
0.0
  0
SPLINE
  5
375
100
AcDbEntity
  8
0
100
AcDbSpline
 62
9
  6
CONTINUOUS
 70
0
 71
3
 72
41
 73
37
 74
0
 42
0.0000001
 43
0.0000001
 44
0.0000000001
 40
0.0
 40
0.0
 40
0.0
 40
0.0
 40
0.0000261441
 40
0.0001038049
 40
0.0002328882
 40
0.0004132997
 40
0.0006449453
 40
0.0009277307
 40
0.0016463446
 40
0.0025683877
 40
0.003693106
 40
0.0050196084
 40
0.0065466629
 40
0.0101972947
 40
0.014634737
 40
0.019846878
 40
0.025815813
 40
0.0325225146
 40
0.0399475358
 40
0.0568670177
 40
0.0763994498
 40
0.0983607649
 40
0.1225659075
 40
0.148834903
 40
0.176995246
 40
0.2068837445
 40
0.2712488466
 40
0.3408527519
 40
0.4147867889
 40
0.492285555
 40
0.5726956139
 40
0.655445342
 40
0.7400204963
 40
0.8259395979
 40
0.9127513943
 40
1.0
 40
1.0
 40
1.0
 40
1.0
 10
13.286214349
 20
6.8466635611
 30
0.0
 10
13.2862123763
 20
6.8466631255
 30
0.0
 10
13.2862050619
 20
6.8466596474
 30
0.0
 10
13.2861880361
 20
6.8466539317
 30
0.0
 10
13.2861601483
 20
6.8466430225
 30
0.0
 10
13.2861209765
 20
6.846628426
 30
0.0
 10
13.2860707578
 20
6.8466094166
 30
0.0
 10
13.2859816029
 20
6.8465758148
 30
0.0
 10
13.2858425521
 20
6.846523324
 30
0.0
 10
13.2856426304
 20
6.8464478783
 30
0.0
 10
13.2853987725
 20
6.8463558169
 30
0.0
 10
13.2851111775
 20
6.8462472442
 30
0.0
 10
13.2846409384
 20
6.8460698481
 30
0.0
 10
13.2839456206
 20
6.8458080394
 30
0.0
 10
13.2829834001
 20
6.8454469957
 30
0.0
 10
13.2818528886
 20
6.8450245437
 30
0.0
 10
13.2805573875
 20
6.8445426815
 30
0.0
 10
13.2791007329
 20
6.8440036025
 30
0.0
 10
13.276849063
 20
6.8431747728
 30
0.0
 10
13.2736636537
 20
6.8420136238
 30
0.0
 10
13.2694155646
 20
6.8404881294
 30
0.0
 10
13.2646281624
 20
6.8387989341
 30
0.0
 10
13.2593383016
 20
6.8369696366
 30
0.0
 10
13.2535819068
 20
6.8350242049
 30
0.0
 10
13.2473934759
 20
6.8329860305
 30
0.0
 10
13.2383843179
 20
6.8301030994
 30
0.0
 10
13.22627124
 20
6.8264140573
 30
0.0
 10
13.2108066457
 20
6.8220583955
 30
0.0
 10
13.1942590455
 20
6.8178206184
 30
0.0
 10
13.1767902528
 20
6.8138375498
 30
0.0
 10
13.1585440477
 20
6.8102328
 30
0.0
 10
13.1396530905
 20
6.8071166836
 30
0.0
 10
13.1202450965
 20
6.8045848983
 30
0.0
 10
13.1004462282
 20
6.802716287
 30
0.0
 10
13.0803854528
 20
6.8015705824
 30
0.0
 10
13.0669341619
 20
6.8013131682
 30
0.0
 10
13.0601923434
 20
6.8013131547
 30
0.0
  0
SPLINE
  5
376
100
AcDbEntity
  8
0
100
AcDbSpline
 62
9
  6
CONTINUOUS
 70
0
 71
3
 72
14
 73
10
 74
0
 42
0.0000001
 43
0.0000001
 44
0.0000000001
 40
0.0
 40
0.0
 40
0.0
 40
0.0
 40
0.2552495293
 40
0.3831675649
 40
0.5102760832
 40
0.6359548655
 40
0.7596795453
 40
0.8811281434
 40
1.0
 40
1.0
 40
1.0
 40
1.0
 10
10.3106292056
 20
7.6573202806
 30
0.0
 10
10.3107650115
 20
7.6591795495
 30
0.0
 10
10.3113148137
 20
7.6619601982
 30
0.0
 10
10.3126822083
 20
7.6654335106
 30
0.0
 10
10.314008597
 20
7.6678857892
 30
0.0
 10
10.3156088967
 20
7.67013061
 30
0.0
 10
10.3174521996
 20
7.6721255801
 30
0.0
 10
10.3195025683
 20
7.6738300623
 30
0.0
 10
10.3209982762
 20
7.6747614263
 30
0.0
 10
10.3217664531
 20
7.6751659601
 30
0.0
  0
SPLINE
  5
377
100
AcDbEntity
  8
0
100
AcDbSpline
 62
9
  6
CONTINUOUS
 70
0
 71
3
 72
14
 73
10
 74
0
 42
0.0000001
 43
0.0000001
 44
0.0000000001
 40
0.0
 40
0.0
 40
0.0
 40
0.0
 40
0.2552495292
 40
0.3831675648
 40
0.510276083
 40
0.6359548652
 40
0.759679545
 40
0.8811281432
 40
1.0
 40
1.0
 40
1.0
 40
1.0
 10
11.5597554798
 20
7.4540068415
 30
0.0
 10
11.559619674
 20
7.4521475726
 30
0.0
 10
11.5590698718
 20
7.449366924
 30
0.0
 10
11.5577024772
 20
7.4458936115
 30
0.0
 10
11.5563760885
 20
7.4434413329
 30
0.0
 10
11.5547757888
 20
7.4411965121
 30
0.0
 10
11.5529324859
 20
7.439201542
 30
0.0
 10
11.5508821171
 20
7.4374970599
 30
0.0
 10
11.5493864093
 20
7.4365656958
 30
0.0
 10
11.5486182324
 20
7.4361611621
 30
0.0
  0
SPLINE
  5
378
100
AcDbEntity
  8
0
100
AcDbSpline
 62
9
  6
CONTINUOUS
 70
0
 71
3
 72
14
 73
10
 74
0
 42
0.0000001
 43
0.0000001
 44
0.0000000001
 40
0.0
 40
0.0
 40
0.0
 40
0.0
 40
0.2638292253
 40
0.392836323
 40
0.5192889768
 40
0.6430419873
 40
0.764164602
 40
0.8830114028
 40
1.0
 40
1.0
 40
1.0
 40
1.0
 10
10.054603328
 20
7.4540068415
 30
0.0
 10
10.0544699071
 20
7.4521802226
 30
0.0
 10
10.0546007333
 20
7.4494183483
 30
0.0
 10
10.0554654612
 20
7.4459109634
 30
0.0
 10
10.0564333017
 20
7.4434534724
 30
0.0
 10
10.0577072743
 20
7.441202661
 30
0.0
 10
10.0592629368
 20
7.4392017924
 30
0.0
 10
10.0610700349
 20
7.4374925076
 30
0.0
 10
10.0624281823
 20
7.4365635986
 30
0.0
 10
10.0631335867
 20
7.4361611621
 30
0.0
  0
SPLINE
  5
379
100
AcDbEntity
  8
0
100
AcDbSpline
 62
9
  6
CONTINUOUS
 70
0
 71
3
 72
11
 73
7
 74
0
 42
0.0000001
 43
0.0000001
 44
0.0000000001
 40
0.0
 40
0.0
 40
0.0
 40
0.0
 40
0.2334837255
 40
0.4786925288
 40
0.7346658843
 40
1.0
 40
1.0
 40
1.0
 40
1.0
 10
13.2299333219
 20
7.1585742547
 30
0.0
 10
13.2293939138
 20
7.1574507406
 30
0.0
 10
13.2281561699
 20
7.1552089184
 30
0.0
 10
13.2259251188
 20
7.1519771477
 30
0.0
 10
13.223300369
 20
7.148831811
 30
0.0
 10
13.2213419506
 20
7.146849992
 30
0.0
 10
13.2203080062
 20
7.1458820685
 30
0.0
  0
SPLINE
  5
37A
100
AcDbEntity
  8
0
100
AcDbSpline
 62
9
  6
CONTINUOUS
 70
0
 71
3
 72
17
 73
13
 74
0
 42
0.0000001
 43
0.0000001
 44
0.0000000001
 40
0.0
 40
0.0
 40
0.0
 40
0.0
 40
0.1334238971
 40
0.2651978983
 40
0.3946031625
 40
0.5211350994
 40
0.6445980066
 40
0.7651382173
 40
0.8245134284
 40
0.8833749698
 40
0.9418445322
 40
1.0
 40
1.0
 40
1.0
 40
1.0
 10
13.2957512526
 20
8.9963052307
 30
0.0
 10
13.2958377118
 20
8.9985316392
 30
0.0
 10
13.2956879006
 20
9.0029765478
 30
0.0
 10
13.2944906296
 20
9.0094806299
 30
0.0
 10
13.2923539691
 20
9.01562052
 30
0.0
 10
13.289334122
 20
9.021222475
 30
0.0
 10
13.285513916
 20
9.0261276511
 30
0.0
 10
13.2817258435
 20
9.0295371047
 30
0.0
 10
13.2784173296
 20
9.0317713842
 30
0.0
 10
13.2758238667
 20
9.0331887903
 30
0.0
 10
13.2731261018
 20
9.0343441104
 30
0.0
 10
13.271266913
 20
9.034936126
 30
0.0
 10
13.2703282677
 20
9.0351853027
 30
0.0
  0
SPLINE
  5
37B
100
AcDbEntity
  8
0
100
AcDbSpline
 62
9
  6
CONTINUOUS
 70
0
 71
3
 72
17
 73
13
 74
0
 42
0.0000001
 43
0.0000001
 44
0.0000000001
 40
0.0
 40
0.0
 40
0.0
 40
0.0
 40
0.130623446
 40
0.1959626372
 40
0.2611319407
 40
0.3904509793
 40
0.5178500789
 40
0.5806743031
 40
0.6428040123
 40
0.764746639
 40
0.8837136426
 40
1.0
 40
1.0
 40
1.0
 40
1.0
 10
13.2299333219
 20
8.9963052307
 30
0.0
 10
13.2298463724
 20
8.9985442578
 30
0.0
 10
13.2294696775
 20
9.0019003349
 30
0.0
 10
13.2284886471
 20
9.0062739308
 30
0.0
 10
13.2271983212
 20
9.0105438906
 30
0.0
 10
13.2250242736
 20
9.0156426321
 30
0.0
 10
13.2221324169
 20
9.0203260685
 30
0.0
 10
13.2194406156
 20
9.0237214604
 30
0.0
 10
13.216551758
 20
9.0268235846
 30
0.0
 10
13.2125546051
 20
9.0301881355
 30
0.0
 10
13.2072389476
 20
9.0332940514
 30
0.0
 10
13.2034211788
 20
9.034683166
 30
0.0
 10
13.2014906371
 20
9.0351853027
 30
0.0
  0
SPLINE
  5
37C
100
AcDbEntity
  8
0
100
AcDbSpline
 62
9
  6
CONTINUOUS
 70
0
 71
3
 72
11
 73
7
 74
0
 42
0.0000001
 43
0.0000001
 44
0.0000000001
 40
0.0
 40
0.0
 40
0.0
 40
0.0
 40
0.2705122572
 40
0.5265096061
 40
0.7690063666
 40
1.0
 40
1.0
 40
1.0
 40
1.0
 10
12.8246334329
 20
7.1585742547
 30
0.0
 10
12.8241220048
 20
7.1575090189
 30
0.0
 10
12.8232374265
 20
7.1553794835
 30
0.0
 10
12.8223381226
 20
7.1521331631
 30
0.0
 10
12.8219177631
 20
7.1489637019
 30
0.0
 10
12.8219632566
 20
7.1468852548
 30
0.0
 10
12.8220716124
 20
7.1458820685
 30
0.0
  0
SPLINE
  5
37D
100
AcDbEntity
  8
0
100
AcDbSpline
 62
9
  6
CONTINUOUS
 70
0
 71
3
 72
9
 73
5
 74
0
 42
0.0000001
 43
0.0000001
 44
0.0000000001
 40
0.0
 40
0.0
 40
0.0
 40
0.0
 40
0.4937822966
 40
1.0
 40
1.0
 40
1.0
 40
1.0
 10
11.2159102881
 20
7.6559271662
 30
0.0
 10
11.2118381562
 20
7.6559271668
 30
0.0
 10
11.2035900415
 20
7.6561750225
 30
0.0
 10
11.1953680761
 20
7.6568656525
 30
0.0
 10
11.1912182203
 20
7.6573202806
 30
0.0
  0
SPLINE
  5
37E
100
AcDbEntity
  8
0
100
AcDbSpline
 62
9
  6
CONTINUOUS
 70
0
 71
3
 72
9
 73
5
 74
0
 42
0.0000001
 43
0.0000001
 44
0.0000000001
 40
0.0
 40
0.0
 40
0.0
 40
0.0
 40
0.5062177542
 40
1.0
 40
1.0
 40
1.0
 40
1.0
 10
11.1912182203
 20
7.4540068415
 30
0.0
 10
11.1953680751
 20
7.4544614827
 30
0.0
 10
11.2035900426
 20
7.4551520933
 30
0.0
 10
11.2118381567
 20
7.4553999553
 30
0.0
 10
11.2159102881
 20
7.455399956
 30
0.0
  0
SPLINE
  5
37F
100
AcDbEntity
  8
0
100
AcDbSpline
 62
9
  6
CONTINUOUS
 70
0
 71
3
 72
11
 73
7
 74
0
 42
0.0000001
 43
0.0000001
 44
0.0000000001
 40
0.0
 40
0.0
 40
0.0
 40
0.0
 40
0.2144635986
 40
0.4531803693
 40
0.7154180462
 40
1.0
 40
1.0
 40
1.0
 40
1.0
 10
11.5597554798
 20
7.6573202806
 30
0.0
 10
11.558650926
 20
7.65707826
 30
0.0
 10
11.5562957994
 20
7.6566615125
 30
0.0
 10
11.5525461562
 20
7.656235087
 30
0.0
 10
11.5484107602
 20
7.6559794982
 30
0.0
 10
11.5455272352
 20
7.6559271665
 30
0.0
 10
11.5440267789
 20
7.6559271662
 30
0.0
  0
SPLINE
  5
380
100
AcDbEntity
  8
0
100
AcDbSpline
 62
9
  6
CONTINUOUS
 70
0
 71
3
 72
11
 73
7
 74
0
 42
0.0000001
 43
0.0000001
 44
0.0000000001
 40
0.0
 40
0.0
 40
0.0
 40
0.0
 40
0.2845819836
 40
0.5468196932
 40
0.7855364475
 40
1.0
 40
1.0
 40
1.0
 40
1.0
 10
11.5440267789
 20
7.455399956
 30
0.0
 10
11.5455272353
 20
7.4553999557
 30
0.0
 10
11.5484107607
 20
7.455347625
 30
0.0
 10
11.5525461568
 20
7.4550920363
 30
0.0
 10
11.5562957994
 20
7.4546656048
 30
0.0
 10
11.5586509248
 20
7.4542488553
 30
0.0
 10
11.5597554798
 20
7.4540068415
 30
0.0
  0
SPLINE
  5
381
100
AcDbEntity
  8
0
100
AcDbSpline
 62
9
  6
CONTINUOUS
 70
0
 71
3
 72
13
 73
9
 74
0
 42
0.0000001
 43
0.0000001
 44
0.0000000001
 40
0.0
 40
0.0
 40
0.0
 40
0.0
 40
0.0787505971
 40
0.170934194
 40
0.2765153284
 40
0.3953918758
 40
0.6723763133
 40
1.0
 40
1.0
 40
1.0
 40
1.0
 10
11.8247447243
 20
7.6559271662
 30
0.0
 10
11.8245062729
 20
7.6559271663
 30
0.0
 10
11.8239886896
 20
7.6559456837
 30
0.0
 10
11.823154071
 20
7.6560144513
 30
0.0
 10
11.8222017188
 20
7.656126588
 30
0.0
 10
11.8206990794
 20
7.6563452828
 30
0.0
 10
11.818542489
 20
7.6567331906
 30
0.0
 10
11.8167503914
 20
7.6571079597
 30
0.0
 10
11.8157813574
 20
7.6573202806
 30
0.0
  0
SPLINE
  5
382
100
AcDbEntity
  8
0
100
AcDbSpline
 62
9
  6
CONTINUOUS
 70
0
 71
3
 72
13
 73
9
 74
0
 42
0.0000001
 43
0.0000001
 44
0.0000000001
 40
0.0
 40
0.0
 40
0.0
 40
0.0
 40
0.3276238009
 40
0.6046081835
 40
0.7234847086
 40
0.8290658134
 40
0.9212493849
 40
1.0
 40
1.0
 40
1.0
 40
1.0
 10
11.8157813574
 20
7.4540068415
 30
0.0
 10
11.8167503905
 20
7.4542191683
 30
0.0
 10
11.8185424884
 20
7.4545939374
 30
0.0
 10
11.8206990799
 20
7.4549818397
 30
0.0
 10
11.8222017191
 20
7.4552005332
 30
0.0
 10
11.8231540711
 20
7.4553126698
 30
0.0
 10
11.8239886896
 20
7.455381438
 30
0.0
 10
11.8245062729
 20
7.4553999558
 30
0.0
 10
11.8247447243
 20
7.455399956
 30
0.0
  0
SPLINE
  5
383
100
AcDbEntity
  8
0
100
AcDbSpline
 62
9
  6
CONTINUOUS
 70
0
 71
3
 72
11
 73
7
 74
0
 42
0.0000001
 43
0.0000001
 44
0.0000000001
 40
0.0
 40
0.0
 40
0.0
 40
0.0
 40
0.2334842149
 40
0.4786931264
 40
0.7346662882
 40
1.0
 40
1.0
 40
1.0
 40
1.0
 10
12.8904513635
 20
7.1585742546
 30
0.0
 10
12.8909907677
 20
7.1574507354
 30
0.0
 10
12.8922285056
 20
7.1552089051
 30
0.0
 10
12.8944595541
 20
7.1519771283
 30
0.0
 10
12.8970843066
 20
7.1488317953
 30
0.0
 10
12.8990427312
 20
7.1468499854
 30
0.0
 10
12.9000766792
 20
7.1458820685
 30
0.0
  0
SPLINE
  5
384
100
AcDbEntity
  8
0
100
AcDbSpline
 62
9
  6
CONTINUOUS
 70
0
 71
3
 72
11
 73
7
 74
0
 42
0.0000001
 43
0.0000001
 44
0.0000000001
 40
0.0
 40
0.0
 40
0.0
 40
0.0
 40
0.2705131246
 40
0.5265108968
 40
0.7690074357
 40
1.0
 40
1.0
 40
1.0
 40
1.0
 10
13.2957512525
 20
7.1585742546
 30
0.0
 10
13.2962626772
 20
7.1575090135
 30
0.0
 10
13.2971472502
 20
7.1553794708
 30
0.0
 10
13.2980465511
 20
7.1521331463
 30
0.0
 10
13.2984669131
 20
7.1489636907
 30
0.0
 10
13.2984214255
 20
7.14688525
 30
0.0
 10
13.298313073
 20
7.1458820685
 30
0.0
  0
SPLINE
  5
385
100
AcDbEntity
  8
0
100
AcDbSpline
 62
9
  6
CONTINUOUS
 70
0
 71
3
 72
17
 73
13
 74
0
 42
0.0000001
 43
0.0000001
 44
0.0000000001
 40
0.0
 40
0.0
 40
0.0
 40
0.0
 40
0.1306234448
 40
0.1959626351
 40
0.2611319375
 40
0.3904509739
 40
0.5178500717
 40
0.5806742954
 40
0.6428040043
 40
0.7647466318
 40
0.883713638
 40
1.0
 40
1.0
 40
1.0
 40
1.0
 10
12.8904513636
 20
8.9963052307
 30
0.0
 10
12.8905383129
 20
8.9985442578
 30
0.0
 10
12.8909150077
 20
9.0019003349
 30
0.0
 10
12.8918960378
 20
9.0062739309
 30
0.0
 10
12.8931863636
 20
9.0105438907
 30
0.0
 10
12.895360411
 20
9.0156426323
 30
0.0
 10
12.8982522677
 20
9.0203260687
 30
0.0
 10
12.9009440691
 20
9.0237214605
 30
0.0
 10
12.9038329268
 20
9.0268235848
 30
0.0
 10
12.9078300798
 20
9.0301881357
 30
0.0
 10
12.9131457376
 20
9.0332940515
 30
0.0
 10
12.9169635065
 20
9.034683166
 30
0.0
 10
12.9188940483
 20
9.0351853027
 30
0.0
  0
SPLINE
  5
386
100
AcDbEntity
  8
0
100
AcDbSpline
 62
9
  6
CONTINUOUS
 70
0
 71
3
 72
17
 73
13
 74
0
 42
0.0000001
 43
0.0000001
 44
0.0000000001
 40
0.0
 40
0.0
 40
0.0
 40
0.0
 40
0.1334238847
 40
0.2651978717
 40
0.3946031231
 40
0.5211350515
 40
0.6445979573
 40
0.7651381753
 40
0.8245133936
 40
0.8833749445
 40
0.9418445186
 40
1.0
 40
1.0
 40
1.0
 40
1.0
 10
12.824633433
 20
8.9963052307
 30
0.0
 10
12.8245469731
 20
8.998531639
 30
0.0
 10
12.8246967832
 20
9.0029765475
 30
0.0
 10
12.825894053
 20
9.0094806295
 30
0.0
 10
12.8280307128
 20
9.0156205195
 30
0.0
 10
12.8310505597
 20
9.0212224746
 30
0.0
 10
12.8348707661
 20
9.0261276507
 30
0.0
 10
12.8386588392
 20
9.0295371043
 30
0.0
 10
12.8419673537
 20
9.0317713839
 30
0.0
 10
12.8445608173
 20
9.0331887901
 30
0.0
 10
12.8472585829
 20
9.0343441103
 30
0.0
 10
12.8491177722
 20
9.034936126
 30
0.0
 10
12.8500564177
 20
9.0351853027
 30
0.0
  0
LINE
  5
387
100
AcDbEntity
  8
0
100
AcDbLine
 62
9
  6
CONTINUOUS
 10
12.8246334329
 20
8.9963052307
 11
12.8085565484
 21
8.9946388438
  0
SPLINE
  5
388
100
AcDbEntity
  8
0
100
AcDbSpline
 62
9
  6
CONTINUOUS
 70
0
 71
3
 72
30
 73
26
 74
0
 42
0.0000001
 43
0.0000001
 44
0.0000000001
 40
0.0
 40
0.0
 40
0.0
 40
0.0
 40
0.0501768848
 40
0.1008466937
 40
0.1524235882
 40
0.2053747054
 40
0.2325147011
 40
0.2601633488
 40
0.2883689667
 40
0.3171746343
 40
0.3466026039
 40
0.3766690232
 40
0.407390135
 40
0.438766449
 40
0.5033865284
 40
0.5365892677
 40
0.5703385176
 40
0.6045856117
 40
0.6392754292
 40
0.6743580361
 40
0.7097836989
 40
0.7455051113
 40
0.7814715952
 40
0.8539427536
 40
1.0
 40
1.0
 40
1.0
 40
1.0
 10
12.8904513636
 20
7.1585742547
 30
0.0
 10
12.8916271377
 20
7.1600815559
 30
0.0
 10
12.8941493886
 20
7.1629911205
 30
0.0
 10
12.8984224066
 20
7.1669412236
 30
0.0
 10
12.9032106737
 20
7.1704332059
 30
0.0
 10
12.9075996502
 20
7.1728895656
 30
0.0
 10
12.9113498062
 20
7.1745634073
 30
0.0
 10
12.9143117043
 20
7.1756758472
 30
0.0
 10
12.9173942807
 20
7.1766309916
 30
0.0
 10
12.9205921483
 20
7.1774249113
 30
0.0
 10
12.9238995185
 20
7.17804983
 30
0.0
 10
12.9273095282
 20
7.1784945088
 30
0.0
 10
12.9308129331
 20
7.1787544728
 30
0.0
 10
12.9356407359
 20
7.1788671768
 30
0.0
 10
12.9405662282
 20
7.1786330461
 30
0.0
 10
12.9455450603
 20
7.1780399345
 30
0.0
 10
12.949350154
 20
7.1774105047
 30
0.0
 10
12.9531813477
 20
7.1766138826
 30
0.0
 10
12.9570284543
 20
7.1756587288
 30
0.0
 10
12.9608800865
 20
7.1745472677
 30
0.0
 10
12.9647252212
 20
7.1732817084
 30
0.0
 10
12.9685549105
 20
7.1718699225
 30
0.0
 10
12.9736432277
 20
7.1698001839
 30
0.0
 10
12.9824465298
 20
7.1657250492
 30
0.0
 10
12.9896897407
 20
7.1615772058
 30
0.0
 10
12.994374412
 20
7.1585742547
 30
0.0
  0
SPLINE
  5
389
100
AcDbEntity
  8
0
100
AcDbSpline
 62
9
  6
CONTINUOUS
 70
0
 71
3
 72
17
 73
13
 74
0
 42
0.0000001
 43
0.0000001
 44
0.0000000001
 40
0.0
 40
0.0
 40
0.0
 40
0.0
 40
0.1506788162
 40
0.2987791061
 40
0.4417723211
 40
0.5772013712
 40
0.702751133
 40
0.8162891555
 40
0.8679480361
 40
0.9159131803
 40
0.959993891
 40
1.0
 40
1.0
 40
1.0
 40
1.0
 10
12.994374412
 20
8.9963052307
 30
0.0
 10
12.9891578315
 20
8.9960354694
 30
0.0
 10
12.9788107662
 20
8.9955599836
 30
0.0
 10
12.9635045361
 20
8.9950362586
 30
0.0
 10
12.9487214104
 20
8.994716429
 30
0.0
 10
12.9347169493
 20
8.9946038533
 30
0.0
 10
12.9217334659
 20
8.9947005557
 30
0.0
 10
12.9116567101
 20
8.9949593971
 30
0.0
 10
12.9042739165
 20
8.9952816394
 30
0.0
 10
12.899300064
 20
8.9955657824
 30
0.0
 10
12.8947340993
 20
8.9958976376
 30
0.0
 10
12.8918308919
 20
8.9961625869
 30
0.0
 10
12.8904513636
 20
8.9963052307
 30
0.0
  0
SPLINE
  5
38A
100
AcDbEntity
  8
0
100
AcDbSpline
 62
9
  6
CONTINUOUS
 70
0
 71
3
 72
30
 73
26
 74
0
 42
0.0000001
 43
0.0000001
 44
0.0000000001
 40
0.0
 40
0.0
 40
0.0
 40
0.0
 40
0.0731487478
 40
0.1461041099
 40
0.2185720198
 40
0.290246251
 40
0.325671032
 40
0.3607528859
 40
0.395441097
 40
0.4296860285
 40
0.4634336874
 40
0.4966353398
 40
0.5612524324
 40
0.5926275306
 40
0.6233473474
 40
0.6534124561
 40
0.6828399119
 40
0.7116452013
 40
0.7398487437
 40
0.767494013
 40
0.7946316573
 40
0.8475826318
 40
0.8991574623
 40
0.9498246053
 40
1.0
 40
1.0
 40
1.0
 40
1.0
 10
13.1260102734
 20
7.1585742547
 30
0.0
 10
13.1283565759
 20
7.1600782453
 30
0.0
 10
13.133119655
 20
7.1629647598
 30
0.0
 10
13.1404660181
 20
7.1668952032
 30
0.0
 10
13.1479765025
 20
7.1703720259
 30
0.0
 10
13.1543586018
 20
7.1728520727
 30
0.0
 10
13.1595048956
 20
7.1745465726
 30
0.0
 10
13.1633561509
 20
7.1756595954
 30
0.0
 10
13.1672029519
 20
7.1766160115
 30
0.0
 10
13.1710342664
 20
7.1774120135
 30
0.0
 10
13.1748396332
 20
7.1780396977
 30
0.0
 10
13.1798186031
 20
7.1786314133
 30
0.0
 10
13.184743978
 20
7.1788667794
 30
0.0
 10
13.1895718211
 20
7.1787553528
 30
0.0
 10
13.1930752821
 20
7.1784958329
 30
0.0
 10
13.1964852192
 20
7.1780501544
 30
0.0
 10
13.1997923183
 20
7.177423482
 30
0.0
 10
13.2029900138
 20
7.176628895
 30
0.0
 10
13.2060728489
 20
7.1756749572
 30
0.0
 10
13.2090351595
 20
7.1745640454
 30
0.0
 10
13.2127855422
 20
7.172890726
 30
0.0
 10
13.2171738528
 20
7.1704330647
 30
0.0
 10
13.2219623034
 20
7.1669413277
 30
0.0
 10
13.2262354349
 20
7.1629912793
 30
0.0
 10
13.228757553
 20
7.1600815926
 30
0.0
 10
13.2299333219
 20
7.1585742547
 30
0.0
  0
SPLINE
  5
38B
100
AcDbEntity
  8
0
100
AcDbSpline
 62
9
  6
CONTINUOUS
 70
0
 71
3
 72
13
 73
9
 74
0
 42
0.0000001
 43
0.0000001
 44
0.0000000001
 40
0.0
 40
0.0
 40
0.0
 40
0.0
 40
0.3276238009
 40
0.6046081835
 40
0.7234847086
 40
0.8290658134
 40
0.9212493849
 40
1.0
 40
1.0
 40
1.0
 40
1.0
 10
10.054603328
 20
7.6573202806
 30
0.0
 10
10.053634295
 20
7.6571079539
 30
0.0
 10
10.0518421971
 20
7.6567331848
 30
0.0
 10
10.0496856056
 20
7.6563452825
 30
0.0
 10
10.0481829663
 20
7.656126589
 30
0.0
 10
10.0472306144
 20
7.6560144523
 30
0.0
 10
10.0463959959
 20
7.6559456841
 30
0.0
 10
10.0458784126
 20
7.6559271663
 30
0.0
 10
10.0456399612
 20
7.6559271662
 30
0.0
  0
SPLINE
  5
38C
100
AcDbEntity
  8
0
100
AcDbSpline
 62
9
  6
CONTINUOUS
 70
0
 71
3
 72
13
 73
9
 74
0
 42
0.0000001
 43
0.0000001
 44
0.0000000001
 40
0.0
 40
0.0
 40
0.0
 40
0.0
 40
0.0787505971
 40
0.170934194
 40
0.2765153284
 40
0.3953918758
 40
0.6723763133
 40
1.0
 40
1.0
 40
1.0
 40
1.0
 10
10.0456399612
 20
7.455399956
 30
0.0
 10
10.0458784125
 20
7.4553999558
 30
0.0
 10
10.0463959959
 20
7.4553814384
 30
0.0
 10
10.0472306145
 20
7.4553126708
 30
0.0
 10
10.0481829667
 20
7.4552005342
 30
0.0
 10
10.0496856061
 20
7.4549818394
 30
0.0
 10
10.0518421965
 20
7.4545939316
 30
0.0
 10
10.0536342941
 20
7.4542191624
 30
0.0
 10
10.054603328
 20
7.4540068415
 30
0.0
  0
SPLINE
  5
38D
100
AcDbEntity
  8
0
100
AcDbSpline
 62
9
  6
CONTINUOUS
 70
0
 71
3
 72
11
 73
7
 74
0
 42
0.0000001
 43
0.0000001
 44
0.0000000001
 40
0.0
 40
0.0
 40
0.0
 40
0.0
 40
0.2845819836
 40
0.5468196932
 40
0.7855364475
 40
1.0
 40
1.0
 40
1.0
 40
1.0
 10
10.3263579066
 20
7.6559271662
 30
0.0
 10
10.3248574502
 20
7.6559271664
 30
0.0
 10
10.3219739248
 20
7.6559794971
 30
0.0
 10
10.3178385286
 20
7.6562350859
 30
0.0
 10
10.3140888861
 20
7.6566615173
 30
0.0
 10
10.3117337607
 20
7.6570782668
 30
0.0
 10
10.3106292056
 20
7.6573202806
 30
0.0
  0
SPLINE
  5
38E
100
AcDbEntity
  8
0
100
AcDbSpline
 62
9
  6
CONTINUOUS
 70
0
 71
3
 72
11
 73
7
 74
0
 42
0.0000001
 43
0.0000001
 44
0.0000000001
 40
0.0
 40
0.0
 40
0.0
 40
0.0
 40
0.2144635986
 40
0.4531803693
 40
0.7154180462
 40
1.0
 40
1.0
 40
1.0
 40
1.0
 10
10.3106292056
 20
7.4540068415
 30
0.0
 10
10.3117337595
 20
7.4542488621
 30
0.0
 10
10.3140888861
 20
7.4546656096
 30
0.0
 10
10.3178385293
 20
7.4550920352
 30
0.0
 10
10.3219739252
 20
7.4553476239
 30
0.0
 10
10.3248574503
 20
7.4553999556
 30
0.0
 10
10.3263579066
 20
7.455399956
 30
0.0
  0
SPLINE
  5
38F
100
AcDbEntity
  8
0
100
AcDbSpline
 62
9
  6
CONTINUOUS
 70
0
 71
3
 72
9
 73
5
 74
0
 42
0.0000001
 43
0.0000001
 44
0.0000000001
 40
0.0
 40
0.0
 40
0.0
 40
0.0
 40
0.5062177542
 40
1.0
 40
1.0
 40
1.0
 40
1.0
 10
10.6791664651
 20
7.6573202806
 30
0.0
 10
10.6750166104
 20
7.6568656395
 30
0.0
 10
10.6667946428
 20
7.6561750288
 30
0.0
 10
10.6585465288
 20
7.6559271669
 30
0.0
 10
10.6544743974
 20
7.6559271662
 30
0.0
  0
SPLINE
  5
390
100
AcDbEntity
  8
0
100
AcDbSpline
 62
9
  6
CONTINUOUS
 70
0
 71
3
 72
9
 73
5
 74
0
 42
0.0000001
 43
0.0000001
 44
0.0000000001
 40
0.0
 40
0.0
 40
0.0
 40
0.0
 40
0.4937822966
 40
1.0
 40
1.0
 40
1.0
 40
1.0
 10
10.6544743974
 20
7.455399956
 30
0.0
 10
10.6585465292
 20
7.4553999554
 30
0.0
 10
10.666794644
 20
7.4551520996
 30
0.0
 10
10.6750166094
 20
7.4544614696
 30
0.0
 10
10.6791664651
 20
7.4540068415
 30
0.0
  0
SPLINE
  5
391
100
AcDbEntity
  8
0
100
AcDbSpline
 62
9
  6
CONTINUOUS
 70
0
 71
3
 72
15
 73
11
 74
0
 42
0.0000001
 43
0.0000001
 44
0.0000000001
 40
0.0
 40
0.0
 40
0.0
 40
0.0
 40
0.1258312977
 40
0.2516097174
 40
0.3771518465
 40
0.5024345427
 40
0.6273828972
 40
0.751947127
 40
0.8761752584
 40
1.0
 40
1.0
 40
1.0
 40
1.0
 10
11.8247447243
 20
7.6559271662
 30
0.0
 10
11.8247447243
 20
7.6568406382
 30
0.0
 10
11.8246218195
 20
7.6586695502
 30
0.0
 10
11.8240730476
 20
7.661359946
 30
0.0
 10
11.8231692018
 20
7.6639490578
 30
0.0
 10
11.8219279715
 20
7.666387586
 30
0.0
 10
11.8203719638
 20
7.6686297893
 30
0.0
 10
11.8185305199
 20
7.670634064
 30
0.0
 10
11.8164384195
 20
7.6723616114
 30
0.0
 10
11.8148994704
 20
7.673309714
 30
0.0
 10
11.8141032048
 20
7.6737268377
 30
0.0
  0
SPLINE
  5
392
100
AcDbEntity
  8
0
100
AcDbSpline
 62
9
  6
CONTINUOUS
 70
0
 71
3
 72
17
 73
13
 74
0
 42
0.0000001
 43
0.0000001
 44
0.0000000001
 40
0.0
 40
0.0
 40
0.0
 40
0.0
 40
0.0400063666
 40
0.0840873365
 40
0.1320524478
 40
0.1837112753
 40
0.2972493845
 40
0.4227990415
 40
0.5582279734
 40
0.7012211093
 40
0.8493213281
 40
1.0
 40
1.0
 40
1.0
 40
1.0
 10
13.2299333219
 20
8.9963052307
 30
0.0
 10
13.2285537989
 20
8.9961624468
 30
0.0
 10
13.2256506063
 20
8.9958971291
 30
0.0
 10
13.2210846292
 20
8.995565144
 30
0.0
 10
13.2161107356
 20
8.9952815792
 30
0.0
 10
13.2087279235
 20
8.9949598145
 30
0.0
 10
13.1986511861
 20
8.9947004414
 30
0.0
 10
13.1856677003
 20
8.9946037501
 30
0.0
 10
13.1716632491
 20
8.9947164281
 30
0.0
 10
13.1568801333
 20
8.9950363454
 30
0.0
 10
13.1415739009
 20
8.9955597858
 30
0.0
 10
13.1312268481
 20
8.9960354375
 30
0.0
 10
13.1260102734
 20
8.9963052307
 30
0.0
  0
LINE
  5
393
100
AcDbEntity
  8
0
100
AcDbLine
 62
9
  6
CONTINUOUS
 10
13.2957512526
 20
7.1585742547
 11
13.3118282041
 21
7.1788099301
  0
LINE
  5
394
100
AcDbEntity
  8
0
100
AcDbLine
 62
9
  6
CONTINUOUS
 10
12.8500564177
 20
9.0351853027
 11
12.8388467142
 21
9.033442279
  0
SPLINE
  5
395
100
AcDbEntity
  8
0
100
AcDbSpline
 62
9
  6
CONTINUOUS
 70
0
 71
3
 72
17
 73
13
 74
0
 42
0.0000001
 43
0.0000001
 44
0.0000000001
 40
0.0
 40
0.0
 40
0.0
 40
0.0
 40
0.1506239437
 40
0.2986862381
 40
0.4416364337
 40
0.5770170014
 40
0.7025264642
 40
0.8160368592
 40
0.8676907586
 40
0.9156865403
 40
0.959853132
 40
1.0
 40
1.0
 40
1.0
 40
1.0
 10
12.9913547121
 20
9.0351853027
 30
0.0
 10
12.9877214647
 20
9.0349031322
 30
0.0
 10
12.9805117379
 20
9.0344062218
 30
0.0
 10
12.9698402939
 20
9.0338585966
 30
0.0
 10
12.959528954
 20
9.0335233379
 30
0.0
 10
12.9497583857
 20
9.0334057318
 30
0.0
 10
12.9406998637
 20
9.0335067511
 30
0.0
 10
12.9336712504
 20
9.0337780371
 30
0.0
 10
12.928524833
 20
9.0341153764
 30
0.0
 10
12.9250577694
 20
9.034412394
 30
0.0
 10
12.9218752405
 20
9.0347593093
 30
0.0
 10
12.9198538508
 20
9.0350362224
 30
0.0
 10
12.9188940483
 20
9.0351853027
 30
0.0
  0
SPLINE
  5
396
100
AcDbEntity
  8
0
100
AcDbSpline
 62
9
  6
CONTINUOUS
 70
0
 71
3
 72
17
 73
13
 74
0
 42
0.0000001
 43
0.0000001
 44
0.0000000001
 40
0.0
 40
0.0
 40
0.0
 40
0.0
 40
0.0401386023
 40
0.0842970848
 40
0.1322996116
 40
0.1839651796
 40
0.2974768582
 40
0.4229798379
 40
0.5583638172
 40
0.7013139732
 40
0.8493755309
 40
1.0
 40
1.0
 40
1.0
 40
1.0
 10
13.2014906371
 20
9.0351853027
 30
0.0
 10
13.2005310344
 20
9.0350362374
 30
0.0
 10
13.1985100775
 20
9.0347591007
 30
0.0
 10
13.1953278083
 20
9.0344119005
 30
0.0
 10
13.1918604661
 20
9.0341151666
 30
0.0
 10
13.1867135395
 20
9.0337783202
 30
0.0
 10
13.1796847828
 20
9.0335068698
 30
0.0
 10
13.1706262998
 20
9.0334055041
 30
0.0
 10
13.1608558062
 20
9.0335234255
 30
0.0
 10
13.1505444004
 20
9.033858617
 30
0.0
 10
13.1398729497
 20
9.0344060918
 30
0.0
 10
13.132663234
 20
9.0349031236
 30
0.0
 10
13.1290299733
 20
9.0351853027
 30
0.0
  0
SPLINE
  5
397
100
AcDbEntity
  8
0
100
AcDbSpline
 62
9
  6
CONTINUOUS
 70
0
 71
3
 72
15
 73
11
 74
0
 42
0.0000001
 43
0.0000001
 44
0.0000000001
 40
0.0
 40
0.0
 40
0.0
 40
0.0
 40
0.1258312977
 40
0.2516097174
 40
0.3771518465
 40
0.5024345426
 40
0.6273828972
 40
0.751947127
 40
0.8761752583
 40
1.0
 40
1.0
 40
1.0
 40
1.0
 10
10.0456399612
 20
7.6559271662
 30
0.0
 10
10.0456399612
 20
7.6568406382
 30
0.0
 10
10.0457628659
 20
7.6586695502
 30
0.0
 10
10.0463116378
 20
7.661359946
 30
0.0
 10
10.0472154837
 20
7.6639490578
 30
0.0
 10
10.0484567139
 20
7.666387586
 30
0.0
 10
10.0500127216
 20
7.6686297893
 30
0.0
 10
10.0518541655
 20
7.670634064
 30
0.0
 10
10.0539462659
 20
7.6723616114
 30
0.0
 10
10.0554852151
 20
7.673309714
 30
0.0
 10
10.0562814806
 20
7.6737268377
 30
0.0
  0
SPLINE
  5
398
100
AcDbEntity
  8
0
100
AcDbSpline
 62
9
  6
CONTINUOUS
 70
0
 71
3
 72
14
 73
10
 74
0
 42
0.0000001
 43
0.0000001
 44
0.0000000001
 40
0.0
 40
0.0
 40
0.0
 40
0.0
 40
0.2638292269
 40
0.3928363254
 40
0.5192889799
 40
0.6430419907
 40
0.7641646051
 40
0.8830114049
 40
1.0
 40
1.0
 40
1.0
 40
1.0
 10
10.054603328
 20
7.6573202806
 30
0.0
 10
10.0544699071
 20
7.6591468995
 30
0.0
 10
10.0546007334
 20
7.6619087739
 30
0.0
 10
10.0554654613
 20
7.6654161588
 30
0.0
 10
10.0564333018
 20
7.6678736497
 30
0.0
 10
10.0577072744
 20
7.6701244611
 30
0.0
 10
10.0592629369
 20
7.6721253298
 30
0.0
 10
10.061070035
 20
7.6738346145
 30
0.0
 10
10.0624281823
 20
7.6747635236
 30
0.0
 10
10.0631335867
 20
7.6751659601
 30
0.0
  0
SPLINE
  5
399
100
AcDbEntity
  8
0
100
AcDbSpline
 62
9
  6
CONTINUOUS
 70
0
 71
3
 72
13
 73
9
 74
0
 42
0.0000001
 43
0.0000001
 44
0.0000000001
 40
0.0
 40
0.0
 40
0.0
 40
0.0
 40
0.2741973465
 40
0.4079361178
 40
0.5376859287
 40
0.6623983468
 40
0.7813049371
 40
1.0
 40
1.0
 40
1.0
 40
1.0
 10
10.3263579066
 20
7.6559271662
 30
0.0
 10
10.3263579066
 20
7.6577409237
 30
0.0
 10
10.3266025733
 20
7.6604489703
 30
0.0
 10
10.3274261278
 20
7.66391322
 30
0.0
 10
10.3282681607
 20
7.6663439849
 30
0.0
 10
10.3293255756
 20
7.6685827429
 30
0.0
 10
10.3309464726
 20
7.6711792567
 30
0.0
 10
10.3324924997
 20
7.6728475959
 30
0.0
 10
10.333641259
 20
7.6737268377
 30
0.0
  0
SPLINE
  5
39A
100
AcDbEntity
  8
0
100
AcDbSpline
 62
9
  6
CONTINUOUS
 70
0
 71
3
 72
15
 73
11
 74
0
 42
0.0000001
 43
0.0000001
 44
0.0000000001
 40
0.0
 40
0.0
 40
0.0
 40
0.0
 40
0.1495731653
 40
0.2966654633
 40
0.4386924208
 40
0.5733720295
 40
0.6985254114
 40
0.812260157
 40
0.9131026391
 40
1.0
 40
1.0
 40
1.0
 40
1.0
 10
10.6544743974
 20
7.6559271662
 30
0.0
 10
10.6544743974
 20
7.6568387873
 30
0.0
 10
10.654512459
 20
7.6586471466
 30
0.0
 10
10.654682809
 20
7.661316278
 30
0.0
 10
10.6549632639
 20
7.6638849349
 30
0.0
 10
10.6553480919
 20
7.6663048971
 30
0.0
 10
10.6558300589
 20
7.668531465
 30
0.0
 10
10.6563996789
 20
7.670524163
 30
0.0
 10
10.6570461124
 20
7.6722463373
 30
0.0
 10
10.6575592721
 20
7.6732731722
 30
0.0
 10
10.6578325644
 20
7.6737268377
 30
0.0
  0
SPLINE
  5
39B
100
AcDbEntity
  8
0
100
AcDbSpline
 62
9
  6
CONTINUOUS
 70
0
 71
3
 72
15
 73
11
 74
0
 42
0.0000001
 43
0.0000001
 44
0.0000000001
 40
0.0
 40
0.0
 40
0.0
 40
0.0
 40
0.1495731654
 40
0.2966654635
 40
0.438692421
 40
0.5733720298
 40
0.6985254117
 40
0.8122601573
 40
0.9131026393
 40
1.0
 40
1.0
 40
1.0
 40
1.0
 10
11.2159102881
 20
7.6559271662
 30
0.0
 10
11.2159102881
 20
7.6568387873
 30
0.0
 10
11.2158722265
 20
7.6586471466
 30
0.0
 10
11.2157018765
 20
7.661316278
 30
0.0
 10
11.2154214216
 20
7.6638849349
 30
0.0
 10
11.2150365935
 20
7.6663048971
 30
0.0
 10
11.2145546265
 20
7.668531465
 30
0.0
 10
11.2139850066
 20
7.670524163
 30
0.0
 10
11.2133385731
 20
7.6722463373
 30
0.0
 10
11.2128254134
 20
7.6732731722
 30
0.0
 10
11.2125521211
 20
7.6737268377
 30
0.0
  0
SPLINE
  5
39C
100
AcDbEntity
  8
0
100
AcDbSpline
 62
9
  6
CONTINUOUS
 70
0
 71
3
 72
13
 73
9
 74
0
 42
0.0000001
 43
0.0000001
 44
0.0000000001
 40
0.0
 40
0.0
 40
0.0
 40
0.0
 40
0.2741973467
 40
0.4079361182
 40
0.5376859291
 40
0.6623983472
 40
0.7813049375
 40
1.0
 40
1.0
 40
1.0
 40
1.0
 10
11.5440267789
 20
7.6559271662
 30
0.0
 10
11.5440267789
 20
7.6577409237
 30
0.0
 10
11.5437821121
 20
7.6604489703
 30
0.0
 10
11.5429585577
 20
7.66391322
 30
0.0
 10
11.5421165248
 20
7.6663439849
 30
0.0
 10
11.5410591098
 20
7.6685827429
 30
0.0
 10
11.5394382128
 20
7.6711792567
 30
0.0
 10
11.5378921858
 20
7.6728475959
 30
0.0
 10
11.5367434265
 20
7.6737268377
 30
0.0
  0
SPLINE
  5
39D
100
AcDbEntity
  8
0
100
AcDbSpline
 62
9
  6
CONTINUOUS
 70
0
 71
3
 72
14
 73
10
 74
0
 42
0.0000001
 43
0.0000001
 44
0.0000000001
 40
0.0
 40
0.0
 40
0.0
 40
0.0
 40
0.2552495288
 40
0.3831675639
 40
0.5102760817
 40
0.6359548635
 40
0.7596795433
 40
0.8811281419
 40
1.0
 40
1.0
 40
1.0
 40
1.0
 10
11.5597554798
 20
7.6573202806
 30
0.0
 10
11.559619674
 20
7.6591795496
 30
0.0
 10
11.5590698719
 20
7.6619601982
 30
0.0
 10
11.5577024773
 20
7.6654335106
 30
0.0
 10
11.5563760885
 20
7.6678857892
 30
0.0
 10
11.5547757889
 20
7.67013061
 30
0.0
 10
11.552932486
 20
7.6721255801
 30
0.0
 10
11.5508821172
 20
7.6738300623
 30
0.0
 10
11.5493864093
 20
7.6747614263
 30
0.0
 10
11.5486182324
 20
7.6751659601
 30
0.0
  0
SPLINE
  5
39E
100
AcDbEntity
  8
0
100
AcDbSpline
 62
9
  6
CONTINUOUS
 70
0
 71
3
 72
13
 73
9
 74
0
 42
0.0000001
 43
0.0000001
 44
0.0000000001
 40
0.0
 40
0.0
 40
0.0
 40
0.0
 40
0.2741973465
 40
0.4079361178
 40
0.5376859287
 40
0.6623983468
 40
0.7813049371
 40
1.0
 40
1.0
 40
1.0
 40
1.0
 10
11.5440267789
 20
7.455399956
 30
0.0
 10
11.5440267789
 20
7.4535861985
 30
0.0
 10
11.5437821121
 20
7.4508781519
 30
0.0
 10
11.5429585577
 20
7.4474139021
 30
0.0
 10
11.5421165248
 20
7.4449831372
 30
0.0
 10
11.5410591099
 20
7.4427443793
 30
0.0
 10
11.5394382129
 20
7.4401478654
 30
0.0
 10
11.5378921858
 20
7.4384795262
 30
0.0
 10
11.5367434265
 20
7.4376002844
 30
0.0
  0
SPLINE
  5
39F
100
AcDbEntity
  8
0
100
AcDbSpline
 62
9
  6
CONTINUOUS
 70
0
 71
3
 72
15
 73
11
 74
0
 42
0.0000001
 43
0.0000001
 44
0.0000000001
 40
0.0
 40
0.0
 40
0.0
 40
0.0
 40
0.1495731653
 40
0.2966654633
 40
0.4386924208
 40
0.5733720295
 40
0.6985254114
 40
0.812260157
 40
0.9131026391
 40
1.0
 40
1.0
 40
1.0
 40
1.0
 10
11.2159102881
 20
7.455399956
 30
0.0
 10
11.2159102881
 20
7.4544883349
 30
0.0
 10
11.2158722265
 20
7.4526799755
 30
0.0
 10
11.2157018765
 20
7.4500108441
 30
0.0
 10
11.2154214216
 20
7.4474421872
 30
0.0
 10
11.2150365936
 20
7.445022225
 30
0.0
 10
11.2145546265
 20
7.4427956571
 30
0.0
 10
11.2139850066
 20
7.4408029591
 30
0.0
 10
11.2133385731
 20
7.4390807848
 30
0.0
 10
11.2128254134
 20
7.4380539499
 30
0.0
 10
11.2125521211
 20
7.4376002844
 30
0.0
  0
SPLINE
  5
3A0
100
AcDbEntity
  8
0
100
AcDbSpline
 62
9
  6
CONTINUOUS
 70
0
 71
3
 72
15
 73
11
 74
0
 42
0.0000001
 43
0.0000001
 44
0.0000000001
 40
0.0
 40
0.0
 40
0.0
 40
0.0
 40
0.1495731654
 40
0.2966654635
 40
0.438692421
 40
0.5733720298
 40
0.6985254117
 40
0.8122601573
 40
0.9131026393
 40
1.0
 40
1.0
 40
1.0
 40
1.0
 10
10.6544743974
 20
7.455399956
 30
0.0
 10
10.6544743974
 20
7.4544883349
 30
0.0
 10
10.654512459
 20
7.4526799755
 30
0.0
 10
10.654682809
 20
7.4500108441
 30
0.0
 10
10.6549632639
 20
7.4474421872
 30
0.0
 10
10.6553480919
 20
7.445022225
 30
0.0
 10
10.6558300589
 20
7.4427956571
 30
0.0
 10
10.6563996789
 20
7.4408029591
 30
0.0
 10
10.6570461124
 20
7.4390807848
 30
0.0
 10
10.6575592721
 20
7.43805395
 30
0.0
 10
10.6578325644
 20
7.4376002844
 30
0.0
  0
SPLINE
  5
3A1
100
AcDbEntity
  8
0
100
AcDbSpline
 62
9
  6
CONTINUOUS
 70
0
 71
3
 72
13
 73
9
 74
0
 42
0.0000001
 43
0.0000001
 44
0.0000000001
 40
0.0
 40
0.0
 40
0.0
 40
0.0
 40
0.2741973467
 40
0.4079361182
 40
0.5376859291
 40
0.6623983472
 40
0.7813049375
 40
1.0
 40
1.0
 40
1.0
 40
1.0
 10
10.3263579066
 20
7.455399956
 30
0.0
 10
10.3263579066
 20
7.4535861985
 30
0.0
 10
10.3266025734
 20
7.4508781519
 30
0.0
 10
10.3274261278
 20
7.4474139021
 30
0.0
 10
10.3282681607
 20
7.4449831372
 30
0.0
 10
10.3293255756
 20
7.4427443793
 30
0.0
 10
10.3309464726
 20
7.4401478654
 30
0.0
 10
10.3324924997
 20
7.4384795262
 30
0.0
 10
10.333641259
 20
7.4376002844
 30
0.0
  0
SPLINE
  5
3A2
100
AcDbEntity
  8
0
100
AcDbSpline
 62
9
  6
CONTINUOUS
 70
0
 71
3
 72
14
 73
10
 74
0
 42
0.0000001
 43
0.0000001
 44
0.0000000001
 40
0.0
 40
0.0
 40
0.0
 40
0.0
 40
0.2552495288
 40
0.3831675639
 40
0.5102760817
 40
0.6359548635
 40
0.7596795433
 40
0.8811281419
 40
1.0
 40
1.0
 40
1.0
 40
1.0
 10
10.3106292056
 20
7.4540068415
 30
0.0
 10
10.3107650114
 20
7.4521475726
 30
0.0
 10
10.3113148136
 20
7.449366924
 30
0.0
 10
10.3126822082
 20
7.4458936115
 30
0.0
 10
10.3140085969
 20
7.4434413329
 30
0.0
 10
10.3156088966
 20
7.4411965121
 30
0.0
 10
10.3174521995
 20
7.439201542
 30
0.0
 10
10.3195025683
 20
7.4374970598
 30
0.0
 10
10.3209982761
 20
7.4365656958
 30
0.0
 10
10.3217664531
 20
7.4361611621
 30
0.0
  0
SPLINE
  5
3A3
100
AcDbEntity
  8
0
100
AcDbSpline
 62
9
  6
CONTINUOUS
 70
0
 71
3
 72
15
 73
11
 74
0
 42
0.0000001
 43
0.0000001
 44
0.0000000001
 40
0.0
 40
0.0
 40
0.0
 40
0.0
 40
0.1258312977
 40
0.2516097174
 40
0.3771518465
 40
0.5024345427
 40
0.6273828972
 40
0.751947127
 40
0.8761752584
 40
1.0
 40
1.0
 40
1.0
 40
1.0
 10
10.0456399612
 20
7.455399956
 30
0.0
 10
10.0456399612
 20
7.4544864839
 30
0.0
 10
10.0457628659
 20
7.4526575719
 30
0.0
 10
10.0463116378
 20
7.4499671761
 30
0.0
 10
10.0472154837
 20
7.4473780644
 30
0.0
 10
10.0484567139
 20
7.4449395361
 30
0.0
 10
10.0500127216
 20
7.4426973328
 30
0.0
 10
10.0518541655
 20
7.4406930581
 30
0.0
 10
10.0539462659
 20
7.4389655108
 30
0.0
 10
10.0554852151
 20
7.4380174082
 30
0.0
 10
10.0562814806
 20
7.4376002844
 30
0.0
  0
SPLINE
  5
3A4
100
AcDbEntity
  8
0
100
AcDbSpline
 62
9
  6
CONTINUOUS
 70
0
 71
3
 72
15
 73
11
 74
0
 42
0.0000001
 43
0.0000001
 44
0.0000000001
 40
0.0
 40
0.0
 40
0.0
 40
0.0
 40
0.1249825072
 40
0.249985265
 40
0.4998187341
 40
0.6248422852
 40
0.7498769091
 40
0.8124140203
 40
0.8749597104
 40
1.0
 40
1.0
 40
1.0
 40
1.0
 10
12.9821872759
 20
7.1458820685
 30
0.0
 10
12.9849587499
 20
7.1435994243
 30
0.0
 10
12.9906186966
 20
7.139171228
 30
0.0
 10
13.0024196445
 20
7.1309849548
 30
0.0
 10
13.015029049
 20
7.1239733834
 30
0.0
 10
13.028396499
 20
7.1186778443
 30
0.0
 10
13.0370432914
 20
7.1161884335
 30
0.0
 10
13.0440908723
 20
7.114770308
 30
0.0
 10
13.0512052431
 20
7.1137450904
 30
0.0
 10
13.0566002047
 20
7.1134218775
 30
0.0
 10
13.0601923427
 20
7.113422175
 30
0.0
  0
SPLINE
  5
3A5
100
AcDbEntity
  8
0
100
AcDbSpline
 62
9
  6
CONTINUOUS
 70
0
 71
3
 72
23
 73
19
 74
0
 42
0.0000001
 43
0.0000001
 44
0.0000000001
 40
0.0
 40
0.0
 40
0.0
 40
0.0
 40
0.0544499748
 40
0.1087037969
 40
0.1630088638
 40
0.2177415311
 40
0.2454188113
 40
0.2733807303
 40
0.3303695673
 40
0.3892098184
 40
0.4502566896
 40
0.5136221253
 40
0.579209504
 40
0.6467173851
 40
0.7157538709
 40
0.7859308138
 40
0.85688374
 40
1.0
 40
1.0
 40
1.0
 40
1.0
 10
12.9000766793
 20
7.1458820685
 30
0.0
 10
12.9010192653
 20
7.1473145445
 30
0.0
 10
12.9030237109
 20
7.1500964616
 30
0.0
 10
12.9064203045
 20
7.1539575737
 30
0.0
 10
12.9102261721
 20
7.1574324873
 30
0.0
 10
12.9137440815
 20
7.1599367147
 30
0.0
 10
12.9167629769
 20
7.1616643583
 30
0.0
 10
12.9199571014
 20
7.163212165
 30
0.0
 10
12.924232096
 20
7.1647540109
 30
0.0
 10
12.9297047626
 20
7.1658877682
 30
0.0
 10
12.9354820572
 20
7.1662542697
 30
0.0
 10
12.9414683394
 20
7.1658600392
 30
0.0
 10
12.9475606137
 20
7.1647062082
 30
0.0
 10
12.9536650037
 20
7.1628646964
 30
0.0
 10
12.9597012085
 20
7.1604034428
 30
0.0
 10
12.9656075907
 20
7.1574013867
 30
0.0
 10
12.97327902
 20
7.1527773507
 30
0.0
 10
12.9787080127
 20
7.148747171
 30
0.0
 10
12.9821872759
 20
7.1458820685
 30
0.0
  0
SPLINE
  5
3A6
100
AcDbEntity
  8
0
100
AcDbSpline
 62
9
  6
CONTINUOUS
 70
0
 71
3
 72
32
 73
28
 74
0
 42
0.0000001
 43
0.0000001
 44
0.0000000001
 40
0.0
 40
0.0
 40
0.0
 40
0.0
 40
0.0727489031
 40
0.1425302092
 40
0.2089207993
 40
0.2715580264
 40
0.3014375552
 40
0.3303568887
 40
0.3583420293
 40
0.3854698706
 40
0.4118727397
 40
0.4377302058
 40
0.4632589233
 40
0.4887021603
 40
0.5143065017
 40
0.540321388
 40
0.5669775217
 40
0.5944474255
 40
0.622850082
 40
0.6522730879
 40
0.6827625831
 40
0.7143133416
 40
0.7804678604
 40
0.8504415718
 40
0.8867267454
 40
0.923786042
 40
1.0
 40
1.0
 40
1.0
 40
1.0
 10
12.8220716124
 20
7.1458820685
 30
0.0
 10
12.8233181263
 20
7.1436413104
 30
0.0
 10
12.8258601992
 20
7.1393053868
 30
0.0
 10
12.8299453701
 20
7.1331727141
 30
0.0
 10
12.8342463461
 20
7.1276315005
 30
0.0
 10
12.8380875872
 20
7.1235386043
 30
0.0
 10
12.8412925265
 20
7.1206974891
 30
0.0
 10
12.8437175554
 20
7.1188286541
 30
0.0
 10
12.8462005448
 20
7.1172076872
 30
0.0
 10
12.8487393977
 20
7.115853846
 30
0.0
 10
12.8513290164
 20
7.11478121
 30
0.0
 10
12.8539640985
 20
7.114004288
 30
0.0
 10
12.8566365699
 20
7.1135320841
 30
0.0
 10
12.8593370953
 20
7.1133734993
 30
0.0
 10
12.8620548686
 20
7.1135319904
 30
0.0
 10
12.8647777918
 20
7.1140106075
 30
0.0
 10
12.8674970565
 20
7.1147923365
 30
0.0
 10
12.8702070121
 20
7.115860553
 30
0.0
 10
12.8728988065
 20
7.1172076656
 30
0.0
 10
12.8755608136
 20
7.1188271179
 30
0.0
 10
12.8781894833
 20
7.1206974173
 30
0.0
 10
12.8817050961
 20
7.1235394268
 30
0.0
 10
12.8859897488
 20
7.1276252636
 30
0.0
 10
12.8900150299
 20
7.1321854186
 30
0.0
 10
12.8931673852
 20
7.1361333111
 30
0.0
 10
12.896333337
 20
7.1403488733
 30
0.0
 10
12.8986004484
 20
7.1436377932
 30
0.0
 10
12.9000766793
 20
7.1458820685
 30
0.0
  0
SPLINE
  5
3A7
100
AcDbEntity
  8
0
100
AcDbSpline
 62
9
  6
CONTINUOUS
 70
0
 71
3
 72
44
 73
40
 74
0
 42
0.0000001
 43
0.0000001
 44
0.0000000001
 40
0.0
 40
0.0
 40
0.0
 40
0.0
 40
0.0902388259
 40
0.179844407
 40
0.2682016398
 40
0.3547368309
 40
0.4388967765
 40
0.5201308088
 40
0.5978554196
 40
0.671423806
 40
0.7400956404
 40
0.772333057
 40
0.8030142782
 40
0.8320120298
 40
0.859192054
 40
0.8844127096
 40
0.9075281413
 40
0.9283871561
 40
0.9468421454
 40
0.9551242313
 40
0.9627528267
 40
0.9697113408
 40
0.9759835565
 40
0.9815532415
 40
0.9864058394
 40
0.9905321076
 40
0.9923203059
 40
0.9939238474
 40
0.9953417074
 40
0.9965729155
 40
0.9976167161
 40
0.9984724067
 40
0.9991392841
 40
0.9994016981
 40
0.999616645
 40
0.9997840367
 40
0.9999037851
 40
0.9999758022
 40
1.0
 40
1.0
 40
1.0
 40
1.0
 10
13.0601923427
 20
6.8731908437
 30
0.0
 10
13.0548065876
 20
6.8731908553
 30
0.0
 10
13.0440694573
 20
6.8735508453
 30
0.0
 10
13.0281307199
 20
6.8751393346
 30
0.0
 10
13.012541153
 20
6.8776834807
 30
0.0
 10
12.9974425101
 20
6.8810469664
 30
0.0
 10
12.9829484526
 20
6.8850693889
 30
0.0
 10
12.9691528913
 20
6.8895806591
 30
0.0
 10
12.9561391396
 20
6.8944103867
 30
0.0
 10
12.943990138
 20
6.8993910409
 30
0.0
 10
12.9344705953
 20
6.9036152427
 30
0.0
 10
12.9273515284
 20
6.9069322383
 30
0.0
 10
12.922404492
 20
6.909303496
 30
0.0
 10
12.9177521349
 20
6.9115905406
 30
0.0
 10
12.9134116213
 20
6.9137727301
 30
0.0
 10
12.9094012768
 20
6.9158296862
 30
0.0
 10
12.9057402348
 20
6.9177407691
 30
0.0
 10
12.902447989
 20
6.9194855687
 30
0.0
 10
12.8999451046
 20
6.9208291409
 30
0.0
 10
12.8981416357
 20
6.9218060475
 30
0.0
 10
12.8969429657
 20
6.9224588666
 30
0.0
 10
12.8958508532
 20
6.9230565317
 30
0.0
 10
12.8948674597
 20
6.9235968862
 30
0.0
 10
12.8939948409
 20
6.9240778402
 30
0.0
 10
12.8932346924
 20
6.9244975187
 30
0.0
 10
12.8926723899
 20
6.9248085966
 30
0.0
 10
12.8922799548
 20
6.9250261427
 30
0.0
 10
12.8920289878
 20
6.9251654803
 30
0.0
 10
12.8918071796
 20
6.9252888525
 30
0.0
 10
12.891614672
 20
6.9253961748
 30
0.0
 10
12.8914515549
 20
6.9254873139
 30
0.0
 10
12.8913179269
 20
6.9255621712
 30
0.0
 10
12.8912250076
 20
6.925614294
 30
0.0
 10
12.891165519
 20
6.9256478142
 30
0.0
 10
12.8911319188
 20
6.925666612
 30
0.0
 10
12.8911060008
 20
6.925681553
 30
0.0
 10
12.8910869203
 20
6.9256915941
 30
0.0
 10
12.8910764346
 20
6.9256988231
 30
0.0
 10
12.8910706793
 20
6.9257007418
 30
0.0
 10
12.8910697418
 20
6.9257018405
 30
0.0
  0
LINE
  5
3A8
100
AcDbEntity
  8
0
100
AcDbLine
 62
9
  6
CONTINUOUS
 10
13.298313073
 20
7.1458820685
 11
13.3097602701
 21
7.1661275779
  0
SPLINE
  5
3A9
100
AcDbEntity
  8
0
100
AcDbSpline
 62
9
  6
CONTINUOUS
 70
0
 71
3
 72
31
 73
27
 74
0
 42
0.0000001
 43
0.0000001
 44
0.0000000001
 40
0.0
 40
0.0
 40
0.0
 40
0.0
 40
0.0762167362
 40
0.14955334
 40
0.2195253901
 40
0.2856801951
 40
0.3172277739
 40
0.3477146061
 40
0.3771400323
 40
0.4055461626
 40
0.4330148745
 40
0.459672037
 40
0.4856931682
 40
0.5112983315
 40
0.5367396676
 40
0.5622784412
 40
0.5881463289
 40
0.6145359904
 40
0.6416400183
 40
0.6696207107
 40
0.6985527016
 40
0.7284408618
 40
0.7910729406
 40
0.8574744226
 40
0.9272587425
 40
1.0
 40
1.0
 40
1.0
 40
1.0
 10
13.2203080062
 20
7.1458820685
 30
0.0
 10
13.2217841193
 20
7.1436376214
 30
0.0
 10
13.2247766284
 20
7.1392953995
 30
0.0
 10
13.2295040102
 20
7.1331644169
 30
0.0
 10
13.2343950832
 20
7.127625625
 30
0.0
 10
13.2386792321
 20
7.123539389
 30
0.0
 10
13.2421959359
 20
7.1206990316
 30
0.0
 10
13.2448257875
 20
7.1188306629
 30
0.0
 10
13.2474873586
 20
7.1172105771
 30
0.0
 10
13.2501765709
 20
7.1158581873
 30
0.0
 10
13.2528852773
 20
7.1147860341
 30
0.0
 10
13.2556058676
 20
7.1140075071
 30
0.0
 10
13.2583296693
 20
7.1135331449
 30
0.0
 10
13.2610473856
 20
7.113373585
 30
0.0
 10
13.2637484167
 20
7.1135310766
 30
0.0
 10
13.2664210097
 20
7.1140068792
 30
0.0
 10
13.2690554545
 20
7.1147862011
 30
0.0
 10
13.2716452601
 20
7.1158555121
 30
0.0
 10
13.2741846695
 20
7.1172053243
 30
0.0
 10
13.2766672597
 20
7.1188260368
 30
0.0
 10
13.2790917143
 20
7.12069655
 30
0.0
 10
13.282296436
 20
7.1235386517
 30
0.0
 10
13.2861389309
 20
7.1276310062
 30
0.0
 10
13.2904389572
 20
7.1331733556
 30
0.0
 10
13.2945243516
 20
7.1393060123
 30
0.0
 10
13.2970667194
 20
7.1436415505
 30
0.0
 10
13.298313073
 20
7.1458820685
 30
0.0
  0
SPLINE
  5
3AA
100
AcDbEntity
  8
0
100
AcDbSpline
 62
9
  6
CONTINUOUS
 70
0
 71
3
 72
24
 73
20
 74
0
 42
0.0000001
 43
0.0000001
 44
0.0000000001
 40
0.0
 40
0.0
 40
0.0
 40
0.0
 40
0.1431110917
 40
0.2140614412
 40
0.2842354305
 40
0.3532701754
 40
0.4207756451
 40
0.4863599197
 40
0.5497231534
 40
0.6107680306
 40
0.6404616394
 40
0.6696421903
 40
0.7266293769
 40
0.7545901986
 40
0.7822663677
 40
0.8369972263
 40
0.8913002824
 40
0.945552023
 40
1.0
 40
1.0
 40
1.0
 40
1.0
 10
13.1381974096
 20
7.1458820685
 30
0.0
 10
13.1416766926
 20
7.1487471521
 30
0.0
 10
13.1471056665
 20
7.1527773532
 30
0.0
 10
13.1547770812
 20
7.1574014209
 30
0.0
 10
13.1606836195
 20
7.1604031909
 30
0.0
 10
13.1667196706
 20
7.1628648109
 30
0.0
 10
13.1728239347
 20
7.1647068089
 30
0.0
 10
13.1789164771
 20
7.1658597102
 30
0.0
 10
13.1849022861
 20
7.1662543769
 30
0.0
 10
13.1897619727
 20
7.1659459198
 30
0.0
 10
13.1934871815
 20
7.1653064902
 30
0.0
 10
13.1970330642
 20
7.1644354796
 30
0.0
 10
13.2004276417
 20
7.1632119042
 30
0.0
 10
13.2036217743
 20
7.1616645004
 30
0.0
 10
13.2066407519
 20
7.1599368948
 30
0.0
 10
13.2101585002
 20
7.1574324668
 30
0.0
 10
13.213964372
 20
7.1539575595
 30
0.0
 10
13.2173609887
 20
7.1500964703
 30
0.0
 10
13.2193654346
 20
7.1473145543
 30
0.0
 10
13.2203080062
 20
7.1458820685
 30
0.0
  0
SPLINE
  5
3AB
100
AcDbEntity
  8
0
100
AcDbSpline
 62
9
  6
CONTINUOUS
 70
0
 71
3
 72
15
 73
11
 74
0
 42
0.0000001
 43
0.0000001
 44
0.0000000001
 40
0.0
 40
0.0
 40
0.0
 40
0.0
 40
0.1258312976
 40
0.2516097174
 40
0.3771518465
 40
0.5024345426
 40
0.6273828972
 40
0.751947127
 40
0.8761752583
 40
1.0
 40
1.0
 40
1.0
 40
1.0
 10
11.8247447243
 20
7.455399956
 30
0.0
 10
11.8247447243
 20
7.4544864839
 30
0.0
 10
11.8246218195
 20
7.4526575719
 30
0.0
 10
11.8240730476
 20
7.4499671761
 30
0.0
 10
11.8231692018
 20
7.4473780644
 30
0.0
 10
11.8219279715
 20
7.4449395361
 30
0.0
 10
11.8203719638
 20
7.4426973328
 30
0.0
 10
11.81853052
 20
7.4406930581
 30
0.0
 10
11.8164384195
 20
7.4389655108
 30
0.0
 10
11.8148994704
 20
7.4380174082
 30
0.0
 10
11.8141032048
 20
7.4376002844
 30
0.0
  0
SPLINE
  5
3AC
100
AcDbEntity
  8
0
100
AcDbSpline
 62
9
  6
CONTINUOUS
 70
0
 71
3
 72
14
 73
10
 74
0
 42
0.0000001
 43
0.0000001
 44
0.0000000001
 40
0.0
 40
0.0
 40
0.0
 40
0.0
 40
0.2638292269
 40
0.3928363254
 40
0.5192889799
 40
0.6430419907
 40
0.7641646051
 40
0.8830114049
 40
1.0
 40
1.0
 40
1.0
 40
1.0
 10
11.8157813574
 20
7.4540068415
 30
0.0
 10
11.8159147784
 20
7.4521802226
 30
0.0
 10
11.8157839521
 20
7.4494183482
 30
0.0
 10
11.8149192242
 20
7.4459109633
 30
0.0
 10
11.8139513837
 20
7.4434534724
 30
0.0
 10
11.812677411
 20
7.441202661
 30
0.0
 10
11.8111217486
 20
7.4392017923
 30
0.0
 10
11.8093146505
 20
7.4374925076
 30
0.0
 10
11.8079565032
 20
7.4365635986
 30
0.0
 10
11.8072510988
 20
7.4361611621
 30
0.0
  0
SPLINE
  5
3AD
100
AcDbEntity
  8
0
100
AcDbSpline
 62
9
  6
CONTINUOUS
 70
0
 71
3
 72
15
 73
11
 74
0
 42
0.0000001
 43
0.0000001
 44
0.0000000001
 40
0.0
 40
0.0
 40
0.0
 40
0.0
 40
0.1250402854
 40
0.1875859907
 40
0.2501226468
 40
0.3751573697
 40
0.500180955
 40
0.7500144506
 40
0.8750171074
 40
1.0
 40
1.0
 40
1.0
 40
1.0
 10
13.0601923427
 20
7.113422175
 30
0.0
 10
13.0637844744
 20
7.1134217623
 30
0.0
 10
13.0691793003
 20
7.1137471004
 30
0.0
 10
13.0762937297
 20
7.1147713386
 30
0.0
 10
13.0833415683
 20
7.1161881274
 30
0.0
 10
13.0919885505
 20
7.1186770433
 30
0.0
 10
13.1053553939
 20
7.1239740513
 30
0.0
 10
13.1179650104
 20
7.1309849759
 30
0.0
 10
13.1297660442
 20
7.1391711689
 30
0.0
 10
13.135425775
 20
7.1435996116
 30
0.0
 10
13.1381974096
 20
7.1458820685
 30
0.0
  0
SPLINE
  5
3AE
100
AcDbEntity
  8
0
100
AcDbSpline
 62
9
  6
CONTINUOUS
 70
0
 71
3
 72
15
 73
11
 74
0
 42
0.0000001
 43
0.0000001
 44
0.0000000001
 40
0.0
 40
0.0
 40
0.0
 40
0.0
 40
0.1260372902
 40
0.2509658942
 40
0.3752222278
 40
0.499208727
 40
0.6233024869
 40
0.7478735241
 40
0.8733040897
 40
1.0
 40
1.0
 40
1.0
 40
1.0
 10
11.6039291084
 20
4.6617857234
 30
0.0
 10
11.6153638308
 20
4.6587626826
 30
0.0
 10
11.6383407541
 20
4.6535011668
 30
0.0
 10
11.6731292306
 20
4.6479088781
 30
0.0
 10
11.7080145251
 20
4.6445854707
 30
0.0
 10
11.7429610989
 20
4.6434837971
 30
0.0
 10
11.7779371007
 20
4.6445873473
 30
0.0
 10
11.8129091621
 20
4.6479122401
 30
0.0
 10
11.8478374622
 20
4.6535053177
 30
0.0
 10
11.8709264234
 20
4.6587641538
 30
0.0
 10
11.8824254506
 20
4.6617857234
 30
0.0
  0
SPLINE
  5
3AF
100
AcDbEntity
  8
0
100
AcDbSpline
 62
9
  6
CONTINUOUS
 70
0
 71
3
 72
32
 73
28
 74
0
 42
0.0000001
 43
0.0000001
 44
0.0000000001
 40
0.0
 40
0.0
 40
0.0
 40
0.0
 40
0.0749314862
 40
0.1472492674
 40
0.2163831604
 40
0.2495736858
 40
0.2817356393
 40
0.3127932193
 40
0.3426940418
 40
0.3713995959
 40
0.3989260715
 40
0.4253511571
 40
0.4508331856
 40
0.4756185891
 40
0.5000312695
 40
0.5244441041
 40
0.5492305083
 40
0.5747133049
 40
0.6011346508
 40
0.6573072166
 40
0.687212276
 40
0.7182693041
 40
0.7504257519
 40
0.783612922
 40
0.8527532341
 40
0.9250721701
 40
1.0
 40
1.0
 40
1.0
 40
1.0
 10
13.2299333219
 20
7.1585742547
 30
0.0
 10
13.2310464833
 20
7.1564366108
 30
0.0
 10
13.2333113734
 20
7.1522752134
 30
0.0
 10
13.236925666
 20
7.1463241032
 30
0.0
 10
13.2401309581
 20
7.1417046001
 30
0.0
 10
13.2428115925
 20
7.1383080392
 30
0.0
 10
13.2448464538
 20
7.135966312
 30
0.0
 10
13.2469340671
 20
7.1338161121
 30
0.0
 10
13.2490741237
 20
7.1318793816
 30
0.0
 10
13.2512657609
 20
7.1301796061
 30
0.0
 10
13.2535072933
 20
7.1287424444
 30
0.0
 10
13.2557936308
 20
7.1275903912
 30
0.0
 10
13.2581188767
 20
7.1267476969
 30
0.0
 10
13.2604726688
 20
7.1262317219
 30
0.0
 10
13.2628423553
 20
7.1260590596
 30
0.0
 10
13.2652120803
 20
7.1262321413
 30
0.0
 10
13.2675656825
 20
7.1267491863
 30
0.0
 10
13.269890807
 20
7.1275920807
 30
0.0
 10
13.2730020135
 20
7.1291575277
 30
0.0
 10
13.2759567822
 20
7.1312869319
 30
0.0
 10
13.2787499142
 20
7.1338167304
 30
0.0
 10
13.2808380554
 20
7.1359669282
 30
0.0
 10
13.2828732932
 20
7.1383077628
 30
0.0
 10
13.2855543364
 20
7.1417039836
 30
0.0
 10
13.2887583453
 20
7.1463245405
 30
0.0
 10
13.2923728153
 20
7.1522756347
 30
0.0
 10
13.2946382549
 20
7.1564366581
 30
0.0
 10
13.2957512526
 20
7.1585742547
 30
0.0
  0
SPLINE
  5
3B0
100
AcDbEntity
  8
0
100
AcDbSpline
 62
9
  6
CONTINUOUS
 70
0
 71
3
 72
13
 73
9
 74
0
 42
0.0000001
 43
0.0000001
 44
0.0000000001
 40
0.0
 40
0.0
 40
0.0
 40
0.0
 40
0.3268741597
 40
0.6035867287
 40
0.7224975926
 40
0.8282369842
 40
0.9207318228
 40
1.0
 40
1.0
 40
1.0
 40
1.0
 10
11.8824254506
 20
4.6617857234
 30
0.0
 10
11.8831488039
 20
4.6619757967
 30
0.0
 10
11.8844887306
 20
4.6623110136
 30
0.0
 10
11.8861057757
 20
4.6626572977
 30
0.0
 10
11.887236361
 20
4.6628524249
 30
0.0
 10
11.8879552514
 20
4.6629525037
 30
0.0
 10
11.8885874154
 20
4.6630138605
 30
0.0
 10
11.8889804304
 20
4.6630303069
 30
0.0
 10
11.8891618011
 20
4.6630303075
 30
0.0
  0
SPLINE
  5
3B1
100
AcDbEntity
  8
0
100
AcDbSpline
 62
9
  6
CONTINUOUS
 70
0
 71
3
 72
44
 73
40
 74
0
 42
0.0000001
 43
0.0000001
 44
0.0000000001
 40
0.0
 40
0.0
 40
0.0
 40
0.0
 40
0.0000242116
 40
0.0000962727
 40
0.0002160909
 40
0.0003835733
 40
0.0005986274
 40
0.0008611605
 40
0.0015282937
 40
0.0023842327
 40
0.0034282381
 40
0.004659571
 40
0.0060774493
 40
0.0076809146
 40
0.0094689643
 40
0.0135948046
 40
0.0184469453
 40
0.0240162915
 40
0.0302883075
 40
0.0372467416
 40
0.0448753571
 40
0.0531575368
 40
0.0716127709
 40
0.0924718616
 40
0.11558724
 40
0.1408079295
 40
0.1679880705
 40
0.1969858915
 40
0.2276671031
 40
0.259904514
 40
0.3285763936
 40
0.4021447901
 40
0.4798694104
 40
0.5611034697
 40
0.6452633866
 40
0.7317985574
 40
0.8201558007
 40
0.9097612916
 40
1.0
 40
1.0
 40
1.0
 40
1.0
 10
8.9843149436
 20
6.9257018405
 30
0.0
 10
8.9843139945
 20
6.9257007509
 30
0.0
 10
8.9843082649
 20
6.925698804
 30
0.0
 10
8.9842977499
 20
6.9256915879
 30
0.0
 10
8.9842786792
 20
6.925681518
 30
0.0
 10
8.9842527478
 20
6.9256665622
 30
0.0
 10
8.9842191422
 20
6.9256477377
 30
0.0
 10
8.9841596412
 20
6.9256141799
 30
0.0
 10
8.9840667084
 20
6.925562006
 30
0.0
 10
8.9839330628
 20
6.9254870932
 30
0.0
 10
8.9837699319
 20
6.9253959082
 30
0.0
 10
8.983577416
 20
6.9252885584
 30
0.0
 10
8.9833556049
 20
6.9251651832
 30
0.0
 10
8.9831046419
 20
6.9250258639
 30
0.0
 10
8.9827122232
 20
6.9248083685
 30
0.0
 10
8.9821499423
 20
6.9244973796
 30
0.0
 10
8.9813898186
 20
6.9240778075
 30
0.0
 10
8.9805172243
 20
6.9235969323
 30
0.0
 10
8.9795338465
 20
6.9230566263
 30
0.0
 10
8.9784417407
 20
6.9224589818
 30
0.0
 10
8.9772430709
 20
6.9218061586
 30
0.0
 10
8.9754395958
 20
6.9208292194
 30
0.0
 10
8.9729367131
 20
6.9194855926
 30
0.0
 10
8.9696444559
 20
6.9177407816
 30
0.0
 10
8.9659833996
 20
6.9158297203
 30
0.0
 10
8.9619730546
 20
6.9137727543
 30
0.0
 10
8.9576325444
 20
6.9115905307
 30
0.0
 10
8.9529801832
 20
6.9093034723
 30
0.0
 10
8.9480331397
 20
6.906932224
 30
0.0
 10
8.9409140669
 20
6.9036152401
 30
0.0
 10
8.9313945299
 20
6.8993910231
 30
0.0
 10
8.9192455237
 20
6.8944103749
 30
0.0
 10
8.9062317695
 20
6.8895806539
 30
0.0
 10
8.8924362173
 20
6.8850693617
 30
0.0
 10
8.8779421466
 20
6.8810469942
 30
0.0
 10
8.8628434958
 20
6.8776835821
 30
0.0
 10
8.8472539344
 20
6.8751394127
 30
0.0
 10
8.8313151905
 20
6.8735512364
 30
0.0
 10
8.8205780899
 20
6.8731908572
 30
0.0
 10
8.8151923427
 20
6.8731908437
 30
0.0
  0
SPLINE
  5
3B2
100
AcDbEntity
  8
0
100
AcDbSpline
 62
9
  6
CONTINUOUS
 70
0
 71
3
 72
16
 73
12
 74
0
 42
0.0000001
 43
0.0000001
 44
0.0000000001
 40
0.0
 40
0.0
 40
0.0
 40
0.0
 40
0.1250006253
 40
0.2500149399
 40
0.3750175348
 40
0.5000229213
 40
0.6250208875
 40
0.7500086019
 40
0.812523603
 40
0.8750425151
 40
1.0
 40
1.0
 40
1.0
 40
1.0
 10
12.994374412
 20
7.1585742547
 30
0.0
 10
12.9966348055
 20
7.1564038236
 30
0.0
 10
13.0012564906
 20
7.1521655907
 30
0.0
 10
13.0085258526
 20
7.146195178
 30
0.0
 10
13.0161698588
 20
7.140708117
 30
0.0
 10
13.0242203441
 20
7.1358306742
 30
0.0
 10
13.0326934909
 20
7.1317230911
 30
0.0
 10
13.0400952051
 20
7.1290940376
 30
0.0
 10
13.0461800306
 20
7.127571455
 30
0.0
 10
13.052351513
 20
7.1264624714
 30
0.0
 10
13.0570597125
 20
7.1261143791
 30
0.0
 10
13.0601923427
 20
7.1261143612
 30
0.0
  0
SPLINE
  5
3B3
100
AcDbEntity
  8
0
100
AcDbSpline
 62
9
  6
CONTINUOUS
 70
0
 71
3
 72
17
 73
13
 74
0
 42
0.0000001
 43
0.0000001
 44
0.0000000001
 40
0.0
 40
0.0
 40
0.0
 40
0.0
 40
0.1249503003
 40
0.1874653308
 40
0.2499762896
 40
0.3124946114
 40
0.3750122654
 40
0.5000032566
 40
0.6250020644
 40
0.7499980087
 40
0.8750058334
 40
1.0
 40
1.0
 40
1.0
 40
1.0
 10
13.0601923427
 20
7.1261143612
 30
0.0
 10
13.0633249618
 20
7.1261143668
 30
0.0
 10
13.0680330826
 20
7.1264636554
 30
0.0
 10
13.0742045035
 20
7.1275717805
 30
0.0
 10
13.0787695649
 20
7.128713648
 30
0.0
 10
13.0832511925
 20
7.1301459725
 30
0.0
 10
13.0891011095
 20
7.1324064789
 30
0.0
 10
13.0961648387
 20
7.1358308391
 30
0.0
 10
13.1042145
 20
7.1407082223
 30
0.0
 10
13.1118587689
 20
7.1461952576
 30
0.0
 10
13.1191281894
 20
7.1521655483
 30
0.0
 10
13.1237498744
 20
7.1564038193
 30
0.0
 10
13.1260102734
 20
7.1585742547
 30
0.0
  0
SPLINE
  5
3B4
100
AcDbEntity
  8
0
100
AcDbSpline
 62
9
  6
CONTINUOUS
 70
0
 71
3
 72
32
 73
28
 74
0
 42
0.0000001
 43
0.0000001
 44
0.0000000001
 40
0.0
 40
0.0
 40
0.0
 40
0.0
 40
0.0749316275
 40
0.147249377
 40
0.2163832445
 40
0.2495740554
 40
0.2817362246
 40
0.3127935676
 40
0.342693745
 40
0.3713991802
 40
0.3989265025
 40
0.4253520289
 40
0.450833369
 40
0.4756185651
 40
0.5000316198
 40
0.524444231
 40
0.5492311929
 40
0.574715112
 40
0.6011354381
 40
0.6573053568
 40
0.6872114883
 40
0.718269637
 40
0.7504266017
 40
0.783613847
 40
0.8527534224
 40
0.9250720359
 40
1.0
 40
1.0
 40
1.0
 40
1.0
 10
12.8246334329
 20
7.1585742547
 30
0.0
 10
12.8257465948
 20
7.1564366079
 30
0.0
 10
12.8280114726
 20
7.1522752038
 30
0.0
 10
12.8316257639
 20
7.1463240936
 30
0.0
 10
12.8348310823
 20
7.1417046064
 30
0.0
 10
12.8375116871
 20
7.1383080072
 30
0.0
 10
12.8395465239
 20
7.1359662498
 30
0.0
 10
12.841634138
 20
7.1338160806
 30
0.0
 10
12.8437742552
 20
7.1318794656
 30
0.0
 10
12.8459659379
 20
7.1301797557
 30
0.0
 10
12.8482073935
 20
7.1287424234
 30
0.0
 10
12.850493658
 20
7.1275901636
 30
0.0
 10
12.8528189985
 20
7.1267477196
 30
0.0
 10
12.855172826
 20
7.1262320928
 30
0.0
 10
12.8575424519
 20
7.1260590327
 30
0.0
 10
12.8599122593
 20
7.1262317662
 30
0.0
 10
12.8622658025
 20
7.1267494209
 30
0.0
 10
12.8645907602
 20
7.1275927267
 30
0.0
 10
12.8677021796
 20
7.1291575064
 30
0.0
 10
12.8706571663
 20
7.1312865677
 30
0.0
 10
12.8734500653
 20
7.1338166001
 30
0.0
 10
12.8755381508
 20
7.1359669668
 30
0.0
 10
12.8775733559
 20
7.1383078988
 30
0.0
 10
12.8802543752
 20
7.1417041264
 30
0.0
 10
12.8834584758
 20
7.1463245747
 30
0.0
 10
12.8870729504
 20
7.1522756299
 30
0.0
 10
12.8893383594
 20
7.1564366585
 30
0.0
 10
12.8904513636
 20
7.1585742547
 30
0.0
  0
LINE
  5
3B5
100
AcDbEntity
  8
0
100
AcDbLine
 62
9
  6
CONTINUOUS
 10
13.3118281371
 20
8.9946388438
 11
13.2957512526
 21
8.9963052307
  0
SPLINE
  5
3B6
100
AcDbEntity
  8
0
100
AcDbSpline
 62
9
  6
CONTINUOUS
 70
0
 71
3
 72
27
 73
23
 74
0
 42
0.0000001
 43
0.0000001
 44
0.0000000001
 40
0.0
 40
0.0
 40
0.0
 40
0.0
 40
0.2265209506
 40
0.426487568
 40
0.5984878352
 40
0.6736058654
 40
0.7412681962
 40
0.801328527
 40
0.8536624498
 40
0.8981540233
 40
0.9346985975
 40
0.9499657615
 40
0.9632168316
 40
0.9744422948
 40
0.9836343806
 40
0.9907893579
 40
0.9936019424
 40
0.9959040635
 40
0.9976953255
 40
0.9989753328
 40
0.9997436896
 40
1.0
 40
1.0
 40
1.0
 40
1.0
 10
9.8486294643
 20
5.8823191227
 30
0.0
 10
9.8475981532
 20
5.879211063
 30
0.0
 10
9.8456204591
 20
5.8733711499
 30
0.0
 10
9.8427498252
 20
5.8652090504
 30
0.0
 10
9.8405426208
 20
5.8591342181
 30
0.0
 10
9.8389591899
 20
5.8548679555
 30
0.0
 10
9.8379277038
 20
5.85212299
 30
0.0
 10
9.837003431
 20
5.8496896227
 30
0.0
 10
9.8361912819
 20
5.8475719982
 30
0.0
 10
9.835495832
 20
5.8457737264
 30
0.0
 10
9.8349907874
 20
5.8444763545
 30
0.0
 10
9.8346482048
 20
5.8436003823
 30
0.0
 10
9.8344384731
 20
5.8430654757
 30
0.0
 10
9.8342604916
 20
5.842612454
 30
0.0
 10
9.8341145605
 20
5.8422415265
 30
0.0
 10
9.8340130642
 20
5.8419838104
 30
0.0
 10
9.8339479647
 20
5.8418188135
 30
0.0
 10
9.833911381
 20
5.8417259188
 30
0.0
 10
9.8338826915
 20
5.841653738
 30
0.0
 10
9.833862656
 20
5.8416019538
 30
0.0
 10
9.8338497703
 20
5.8415712515
 30
0.0
 10
9.8338449791
 20
5.8415571858
 30
0.0
 10
9.8338433449
 20
5.8415538603
 30
0.0
  0
SPLINE
  5
3B7
100
AcDbEntity
  8
0
100
AcDbSpline
 62
9
  6
CONTINUOUS
 70
0
 71
3
 72
16
 73
12
 74
0
 42
0.0000001
 43
0.0000001
 44
0.0000000001
 40
0.0
 40
0.0
 40
0.0
 40
0.0
 40
0.0624555841
 40
0.1244089815
 40
0.2474193713
 40
0.3701172336
 40
0.493221578
 40
0.6172551719
 40
0.7426762407
 40
0.8700120746
 40
1.0
 40
1.0
 40
1.0
 40
1.0
 10
9.8486294643
 20
6.0467577586
 30
0.0
 10
9.8497785564
 20
6.0434739831
 30
0.0
 10
9.8518952025
 20
6.0368711134
 30
0.0
 10
9.8554435413
 20
6.0235489538
 30
0.0
 10
9.8586958258
 20
6.0066976903
 30
0.0
 10
9.8609304345
 20
5.9862557241
 30
0.0
 10
9.8616532264
 20
5.9656493763
 30
0.0
 10
9.8609196092
 20
5.9448924409
 30
0.0
 10
9.8586756964
 20
5.9240044015
 30
0.0
 10
9.8547610747
 20
5.9030241086
 30
0.0
 10
9.850909845
 20
5.8891915035
 30
0.0
 10
9.8486294643
 20
5.8823191227
 30
0.0
  0
SPLINE
  5
3B8
100
AcDbEntity
  8
0
100
AcDbSpline
 62
9
  6
CONTINUOUS
 70
0
 71
3
 72
21
 73
17
 74
0
 42
0.0000001
 43
0.0000001
 44
0.0000000001
 40
0.0
 40
0.0
 40
0.0
 40
0.0
 40
0.1507329454
 40
0.2990999797
 40
0.3715516998
 40
0.4423922514
 40
0.5112889715
 40
0.5779225815
 40
0.6419958453
 40
0.7032380687
 40
0.7614089608
 40
0.816300637
 40
0.8677370257
 40
0.9155718667
 40
0.9596928396
 40
1.0
 40
1.0
 40
1.0
 40
1.0
 10
9.8486294643
 20
6.3022249251
 30
0.0
 10
9.8464542911
 20
6.2894529088
 30
0.0
 10
9.8424263026
 20
6.2640586603
 30
0.0
 10
9.8384328963
 20
6.2323651216
 30
0.0
 10
9.8360892332
 20
6.2074040405
 30
0.0
 10
9.8348105768
 20
6.1892087998
 30
0.0
 10
9.8340266848
 20
6.1714857904
 30
0.0
 10
9.8337566672
 20
6.1543289082
 30
0.0
 10
9.8340064874
 20
6.1378294098
 30
0.0
 10
9.8347698285
 20
6.1220735993
 30
0.0
 10
9.8360283194
 20
6.1071411576
 30
0.0
 10
9.8377526874
 20
6.0931038508
 30
0.0
 10
9.8399042237
 20
6.0800249973
 30
0.0
 10
9.8424362643
 20
6.0679584829
 30
0.0
 10
9.8452966505
 20
6.0569514076
 30
0.0
 10
9.847485145
 20
6.0500278323
 30
0.0
 10
9.8486294643
 20
6.0467577586
 30
0.0
  0
SPLINE
  5
3B9
100
AcDbEntity
  8
0
100
AcDbSpline
 62
9
  6
CONTINUOUS
 70
0
 71
3
 72
15
 73
11
 74
0
 42
0.0000001
 43
0.0000001
 44
0.0000000001
 40
0.0
 40
0.0
 40
0.0
 40
0.0
 40
0.1249929358
 40
0.2499914319
 40
0.374994557
 40
0.5000000063
 40
0.6250054548
 40
0.7500085796
 40
0.8750070732
 40
1.0
 40
1.0
 40
1.0
 40
1.0
 10
9.8486294643
 20
6.631102197
 30
0.0
 10
9.8509395243
 20
6.6175389065
 30
0.0
 10
9.8548088207
 20
6.5902799513
 30
0.0
 10
9.8586978539
 20
6.5491743043
 30
0.0
 10
9.8609271349
 20
6.507945425
 30
0.0
 10
9.8616525706
 20
6.4666635589
 30
0.0
 10
9.8609271113
 20
6.4253816938
 30
0.0
 10
9.8586978557
 20
6.384152814
 30
0.0
 10
9.8548088399
 20
6.3430471658
 30
0.0
 10
9.8509395207
 20
6.3157882153
 30
0.0
 10
9.8486294643
 20
6.3022249251
 30
0.0
  0
SPLINE
  5
3BA
100
AcDbEntity
  8
0
100
AcDbSpline
 62
9
  6
CONTINUOUS
 70
0
 71
3
 72
20
 73
16
 74
0
 42
0.0000001
 43
0.0000001
 44
0.0000000001
 40
0.0
 40
0.0
 40
0.0
 40
0.0
 40
0.0403098038
 40
0.0844305662
 40
0.1322635666
 40
0.1837008867
 40
0.2385940167
 40
0.2967651135
 40
0.3580071905
 40
0.422081336
 40
0.4887158133
 40
0.5576127677
 40
0.7008968105
 40
0.8492652516
 40
1.0
 40
1.0
 40
1.0
 40
1.0
 10
9.8486294643
 20
6.8865693635
 30
0.0
 10
9.8474851922
 20
6.8832990696
 30
0.0
 10
9.8452975235
 20
6.8763750916
 30
0.0
 10
9.8424367643
 20
6.8653682126
 30
0.0
 10
9.8399038555
 20
6.8533020917
 30
0.0
 10
9.8377526885
 20
6.8402232524
 30
0.0
 10
9.8360287005
 20
6.8261858261
 30
0.0
 10
9.8347699948
 20
6.8112534305
 30
0.0
 10
9.8340063145
 20
6.795497708
 30
0.0
 10
9.8337566848
 20
6.7789982436
 30
0.0
 10
9.8340268077
 20
6.7618413231
 30
0.0
 10
9.8350856471
 20
6.7378972918
 30
0.0
 10
9.8376726509
 20
6.7070025168
 30
0.0
 10
9.8424253726
 20
6.669268833
 30
0.0
 10
9.8464541545
 20
6.6438742146
 30
0.0
 10
9.8486294643
 20
6.631102197
 30
0.0
  0
SPLINE
  5
3BB
100
AcDbEntity
  8
0
100
AcDbSpline
 62
9
  6
CONTINUOUS
 70
0
 71
3
 72
16
 73
12
 74
0
 42
0.0000001
 43
0.0000001
 44
0.0000000001
 40
0.0
 40
0.0
 40
0.0
 40
0.0
 40
0.1299880395
 40
0.2573240019
 40
0.3827452002
 40
0.50677808
 40
0.6298817893
 40
0.7525796879
 40
0.8755904127
 40
0.9375442572
 40
1.0
 40
1.0
 40
1.0
 40
1.0
 10
9.8486294643
 20
7.0510079995
 30
0.0
 10
9.8509098302
 20
7.044135608
 30
0.0
 10
9.8547610989
 20
7.0303030028
 30
0.0
 10
9.8586757127
 20
7.0093226894
 30
0.0
 10
9.8609196595
 20
6.9884346815
 30
0.0
 10
9.861653197
 20
6.9676778113
 30
0.0
 10
9.8609303222
 20
6.947071545
 30
0.0
 10
9.8586957393
 20
6.9266295929
 30
0.0
 10
9.8554434312
 20
6.9097782932
 30
0.0
 10
9.8518952137
 20
6.8964560501
 30
0.0
 10
9.8497785804
 20
6.8898531395
 30
0.0
 10
9.8486294643
 20
6.8865693635
 30
0.0
  0
SPLINE
  5
3BC
100
AcDbEntity
  8
0
100
AcDbSpline
 62
9
  6
CONTINUOUS
 70
0
 71
3
 72
26
 73
22
 74
0
 42
0.0000001
 43
0.0000001
 44
0.0000000001
 40
0.0
 40
0.0
 40
0.0
 40
0.0
 40
0.0002573575
 40
0.0010274748
 40
0.0023097754
 40
0.0041036827
 40
0.0092240119
 40
0.016383853
 40
0.0255785981
 40
0.0368032924
 40
0.0500506404
 40
0.0653123903
 40
0.1018461152
 40
0.1463337833
 40
0.1986697179
 40
0.2587330134
 40
0.3263958412
 40
0.4015128471
 40
0.5735120592
 40
0.7734790526
 40
1.0
 40
1.0
 40
1.0
 40
1.0
 10
9.8338433449
 20
7.0917732619
 30
0.0
 10
9.8338449029
 20
7.0917698833
 30
0.0
 10
9.8338499228
 20
7.0917558805
 30
0.0
 10
9.833862651
 20
7.091725021
 30
0.0
 10
9.8338828599
 20
7.0916732103
 30
0.0
 10
9.8339265694
 20
7.0915630784
 30
0.0
 10
9.8340011664
 20
7.0913737813
 30
0.0
 10
9.8341150568
 20
7.0910849765
 30
0.0
 10
9.8342610253
 20
7.0907139576
 30
0.0
 10
9.8344389978
 20
7.0902609612
 30
0.0
 10
9.834648631
 20
7.0897261696
 30
0.0
 10
9.8349910236
 20
7.0888504334
 30
0.0
 10
9.8354958463
 20
7.0875532879
 30
0.0
 10
9.8361912034
 20
7.0857551779
 30
0.0
 10
9.8370033909
 20
7.0836375515
 30
0.0
 10
9.837927732
 20
7.0812041254
 30
0.0
 10
9.8389592309
 20
7.078459127
 30
0.0
 10
9.8405426317
 20
7.0741928775
 30
0.0
 10
9.8427498211
 20
7.0681180659
 30
0.0
 10
9.8456204596
 20
7.0599559783
 30
0.0
 10
9.8475981525
 20
7.054116059
 30
0.0
 10
9.8486294643
 20
7.0510079995
 30
0.0
  0
SPLINE
  5
3BD
100
AcDbEntity
  8
0
100
AcDbSpline
 62
9
  6
CONTINUOUS
 70
0
 71
3
 72
15
 73
11
 74
0
 42
0.0000001
 43
0.0000001
 44
0.0000000001
 40
0.0
 40
0.0
 40
0.0
 40
0.0
 40
0.1263438042
 40
0.2515284568
 40
0.3759512252
 40
0.4999999993
 40
0.6240487733
 40
0.7484715418
 40
0.8736561951
 40
1.0
 40
1.0
 40
1.0
 40
1.0
 10
10.2548553896
 20
4.871358046
 30
0.0
 10
10.2434858407
 20
4.8743371379
 30
0.0
 10
10.2206479739
 20
4.8795218609
 30
0.0
 10
10.1860874058
 20
4.8850279543
 30
0.0
 10
10.1514584736
 20
4.8883049374
 30
0.0
 10
10.1167983363
 20
4.8893856268
 30
0.0
 10
10.0821381988
 20
4.8883049388
 30
0.0
 10
10.0475092665
 20
4.8850279561
 30
0.0
 10
10.0129486984
 20
4.8795218618
 30
0.0
 10
9.9901108317
 20
4.874337138
 30
0.0
 10
9.9787412827
 20
4.871358046
 30
0.0
  0
SPLINE
  5
3BE
100
AcDbEntity
  8
0
100
AcDbSpline
 62
9
  6
CONTINUOUS
 70
0
 71
3
 72
12
 73
8
 74
0
 42
0.0000001
 43
0.0000001
 44
0.0000000001
 40
0.0
 40
0.0
 40
0.0
 40
0.0
 40
0.3256368687
 40
0.6019073545
 40
0.8270219755
 40
0.9200657671
 40
1.0
 40
1.0
 40
1.0
 40
1.0
 10
9.9787412827
 20
4.871358046
 30
0.0
 10
9.9777851419
 20
4.8711701598
 30
0.0
 10
9.9760145314
 20
4.8708388395
 30
0.0
 10
9.9735704622
 20
4.87044868
 30
0.0
 10
9.9718037895
 20
4.8702341933
 30
0.0
 10
9.9706154609
 20
4.8701480527
 30
0.0
 10
9.9700978359
 20
4.8701319827
 30
0.0
 10
9.969858643
 20
4.8701319825
 30
0.0
  0
SPLINE
  5
3BF
100
AcDbEntity
  8
0
100
AcDbSpline
 62
9
  6
CONTINUOUS
 70
0
 71
3
 72
14
 73
10
 74
0
 42
0.0000001
 43
0.0000001
 44
0.0000000001
 40
0.0
 40
0.0
 40
0.0
 40
0.0
 40
0.1171561602
 40
0.2362150713
 40
0.3575170823
 40
0.4813517246
 40
0.607763087
 40
0.7366142908
 40
1.0
 40
1.0
 40
1.0
 40
1.0
 10
12.0267552212
 20
5.8823191227
 30
0.0
 10
12.0271843589
 20
5.8816844255
 30
0.0
 10
12.0281489835
 20
5.8804691045
 30
0.0
 10
12.0298617422
 20
5.8788661823
 30
0.0
 10
12.0318207794
 20
5.8774978405
 30
0.0
 10
12.0339901247
 20
5.8763876419
 30
0.0
 10
12.0363328299
 20
5.8755545131
 30
0.0
 10
12.0396518812
 20
5.8748260585
 30
0.0
 10
12.0422472948
 20
5.8747408334
 30
0.0
 10
12.0439641487
 20
5.8748795352
 30
0.0
  0
SPLINE
  5
3C0
100
AcDbEntity
  8
0
100
AcDbSpline
 62
9
  6
CONTINUOUS
 70
0
 71
3
 72
12
 73
8
 74
0
 42
0.0000001
 43
0.0000001
 44
0.0000000001
 40
0.0
 40
0.0
 40
0.0
 40
0.0
 40
0.2449438403
 40
0.369924767
 40
0.4959368044
 40
0.7488135279
 40
1.0
 40
1.0
 40
1.0
 40
1.0
 10
12.2899706522
 20
6.045396669
 30
0.0
 10
12.2890556524
 20
6.0441766451
 30
0.0
 10
12.2874611111
 20
6.0424829038
 30
0.0
 10
12.285020299
 20
6.0405860308
 30
0.0
 10
12.2823560354
 20
6.0389201466
 30
0.0
 10
12.2787307622
 20
6.0373521749
 30
0.0
 10
12.2756353776
 20
6.0366997824
 30
0.0
 10
12.2740799233
 20
6.0365376105
 30
0.0
  0
SPLINE
  5
3C1
100
AcDbEntity
  8
0
100
AcDbSpline
 62
9
  6
CONTINUOUS
 70
0
 71
3
 72
11
 73
7
 74
0
 42
0.0000001
 43
0.0000001
 44
0.0000000001
 40
0.0
 40
0.0
 40
0.0
 40
0.0
 40
0.2417362086
 40
0.4915143536
 40
0.7457924552
 40
1.0
 40
1.0
 40
1.0
 40
1.0
 10
12.0267552212
 20
6.0467577586
 30
0.0
 10
12.0276236401
 20
6.0453330463
 30
0.0
 10
12.0297840703
 20
6.0426624215
 30
0.0
 10
12.0339213917
 20
6.039524665
 30
0.0
 10
12.0387377647
 20
6.0373690137
 30
0.0
 10
12.0422152474
 20
6.0366789019
 30
0.0
 10
12.0439641487
 20
6.0365376105
 30
0.0
  0
SPLINE
  5
3C2
100
AcDbEntity
  8
0
100
AcDbSpline
 62
9
  6
CONTINUOUS
 70
0
 71
3
 72
11
 73
7
 74
0
 42
0.0000001
 43
0.0000001
 44
0.0000000001
 40
0.0
 40
0.0
 40
0.0
 40
0.0
 40
0.2417362232
 40
0.4915143666
 40
0.7457924579
 40
1.0
 40
1.0
 40
1.0
 40
1.0
 10
12.0267552212
 20
6.8865693635
 30
0.0
 10
12.02762364
 20
6.8879940761
 30
0.0
 10
12.0297840698
 20
6.8906647014
 30
0.0
 10
12.0339213912
 20
6.8938024584
 30
0.0
 10
12.0387377644
 20
6.8959581096
 30
0.0
 10
12.0422152473
 20
6.8966482208
 30
0.0
 10
12.0439641487
 20
6.8967895116
 30
0.0
  0
SPLINE
  5
3C3
100
AcDbEntity
  8
0
100
AcDbSpline
 62
9
  6
CONTINUOUS
 70
0
 71
3
 72
14
 73
10
 74
0
 42
0.0000001
 43
0.0000001
 44
0.0000000001
 40
0.0
 40
0.0
 40
0.0
 40
0.0
 40
0.1171561834
 40
0.2362151112
 40
0.3575171317
 40
0.4813517757
 40
0.6077631325
 40
0.7366143247
 40
1.0
 40
1.0
 40
1.0
 40
1.0
 10
12.0267552212
 20
7.0510079995
 30
0.0
 10
12.0271843589
 20
7.0516426968
 30
0.0
 10
12.0281489837
 20
7.0528580182
 30
0.0
 10
12.0298617425
 20
7.0544609408
 30
0.0
 10
12.0318207798
 20
7.055829283
 30
0.0
 10
12.0339901252
 20
7.0569394818
 30
0.0
 10
12.0363328303
 20
7.0577726106
 30
0.0
 10
12.0396518815
 20
7.0585010649
 30
0.0
 10
12.042247295
 20
7.0585862893
 30
0.0
 10
12.0439641487
 20
7.058447587
 30
0.0
  0
SPLINE
  5
3C4
100
AcDbEntity
  8
0
100
AcDbSpline
 62
9
  6
CONTINUOUS
 70
0
 71
3
 72
13
 73
9
 74
0
 42
0.0000001
 43
0.0000001
 44
0.0000000001
 40
0.0
 40
0.0
 40
0.0
 40
0.0
 40
0.1174378016
 40
0.2368132879
 40
0.358324629
 40
0.4822247933
 40
0.7368328945
 40
1.0
 40
1.0
 40
1.0
 40
1.0
 10
12.2899706522
 20
7.0529021032
 30
0.0
 10
12.2895168156
 20
7.0534125926
 30
0.0
 10
12.2885299737
 20
7.0543804699
 30
0.0
 10
12.286859071
 20
7.0556353162
 30
0.0
 10
12.2850091905
 20
7.0566861071
 30
0.0
 10
12.2823180534
 20
7.0578050539
 30
0.0
 10
12.2786395266
 20
7.0586135112
 30
0.0
 10
12.2756023381
 20
7.0586063142
 30
0.0
 10
12.2740799233
 20
7.058447587
 30
0.0
  0
SPLINE
  5
3C5
100
AcDbEntity
  8
0
100
AcDbSpline
 62
9
  6
CONTINUOUS
 70
0
 71
3
 72
12
 73
8
 74
0
 42
0.0000001
 43
0.0000001
 44
0.0000000001
 40
0.0
 40
0.0
 40
0.0
 40
0.0
 40
0.2301663133
 40
0.3519795698
 40
0.4775084759
 40
0.7363755295
 40
1.0
 40
1.0
 40
1.0
 40
1.0
 10
12.2801923427
 20
6.8434246118
 30
0.0
 10
12.2792585078
 20
6.8445276008
 30
0.0
 10
12.2776031628
 20
6.8460313782
 30
0.0
 10
12.2750911818
 20
6.8476732602
 30
0.0
 10
12.2722642492
 20
6.8491378441
 30
0.0
 10
12.2683969155
 20
6.8504777519
 30
0.0
 10
12.2651363556
 20
6.8509891193
 30
0.0
 10
12.263484754
 20
6.8510996103
 30
0.0
  0
SPLINE
  5
3C6
100
AcDbEntity
  8
0
100
AcDbSpline
 62
9
  6
CONTINUOUS
 70
0
 71
3
 72
14
 73
10
 74
0
 42
0.0000001
 43
0.0000001
 44
0.0000000001
 40
0.0
 40
0.0
 40
0.0
 40
0.0
 40
0.0901338837
 40
0.1932505817
 40
0.3081078116
 40
0.4332531021
 40
0.5669670341
 40
0.7073459906
 40
1.0
 40
1.0
 40
1.0
 40
1.0
 10
12.2801923427
 20
6.2303635307
 30
0.0
 10
12.2797068364
 20
6.2302259849
 30
0.0
 10
12.2786510566
 20
6.229983095
 30
0.0
 10
12.2769466151
 20
6.2297122759
 30
0.0
 10
12.2750350489
 20
6.2295144518
 30
0.0
 10
12.2729457536
 20
6.2293929131
 30
0.0
 10
12.2707105022
 20
6.2293499147
 30
0.0
 10
12.2675375295
 20
6.2293992068
 30
0.0
 10
12.2651160872
 20
6.2295540392
 30
0.0
 10
12.263484754
 20
6.2297062813
 30
0.0
  0
SPLINE
  5
3C7
100
AcDbEntity
  8
0
100
AcDbSpline
 62
9
  6
CONTINUOUS
 70
0
 71
3
 72
13
 73
9
 74
0
 42
0.0000001
 43
0.0000001
 44
0.0000000001
 40
0.0
 40
0.0
 40
0.0
 40
0.0
 40
0.1230360274
 40
0.2465839881
 40
0.3706789914
 40
0.4954373254
 40
0.7464923842
 40
1.0
 40
1.0
 40
1.0
 40
1.0
 10
12.2801923427
 20
5.85360248
 30
0.0
 10
12.2797428123
 20
5.8529441683
 30
0.0
 10
12.2787550736
 20
5.8516817994
 30
0.0
 10
12.2770406393
 20
5.8499911369
 30
0.0
 10
12.2751157346
 20
5.8485251656
 30
0.0
 10
12.2723066374
 20
5.8468982119
 30
0.0
 10
12.2684183326
 20
5.8455331411
 30
0.0
 10
12.2651266609
 20
5.8452268457
 30
0.0
 10
12.263484754
 20
5.8452702321
 30
0.0
  0
SPLINE
  5
3C8
100
AcDbEntity
  8
0
100
AcDbSpline
 62
9
  6
CONTINUOUS
 70
0
 71
3
 72
20
 73
16
 74
0
 42
0.0000001
 43
0.0000001
 44
0.0000000001
 40
0.0
 40
0.0
 40
0.0
 40
0.0
 40
0.1232956111
 40
0.2456667163
 40
0.3065638767
 40
0.3673660351
 40
0.4282053194
 40
0.4892423401
 40
0.5506510466
 40
0.6125978081
 40
0.7385704656
 40
0.8027720306
 40
0.8677802099
 40
0.9335484614
 40
1.0
 40
1.0
 40
1.0
 40
1.0
 10
9.5854140333
 20
5.8804250189
 30
0.0
 10
9.5828386437
 20
5.8869078881
 30
0.0
 10
9.5780003173
 20
5.8999461966
 30
0.0
 10
9.5731664709
 20
5.9166291286
 30
0.0
 10
9.5703265587
 20
5.930148801
 30
0.0
 10
9.568760927
 20
5.9403627577
 30
0.0
 10
9.5678060536
 20
5.9506603253
 30
0.0
 10
9.5674836829
 20
5.9610316726
 30
0.0
 10
9.567810523
 20
5.9714656779
 30
0.0
 10
9.5690954731
 20
5.9855203585
 30
0.0
 10
9.5716085238
 20
5.9995920136
 30
0.0
 10
9.575102427
 20
6.0136023994
 30
0.0
 10
9.5781812637
 20
6.0241981149
 30
0.0
 10
9.5816353247
 20
6.0348100286
 30
0.0
 10
9.5841283411
 20
6.0418637138
 30
0.0
 10
9.5854140333
 20
6.045396669
 30
0.0
  0
SPLINE
  5
3C9
100
AcDbEntity
  8
0
100
AcDbSpline
 62
9
  6
CONTINUOUS
 70
0
 71
3
 72
12
 73
8
 74
0
 42
0.0000001
 43
0.0000001
 44
0.0000000001
 40
0.0
 40
0.0
 40
0.0
 40
0.0
 40
0.0799342152
 40
0.1729780345
 40
0.398092698
 40
0.6743632132
 40
1.0
 40
1.0
 40
1.0
 40
1.0
 10
9.969858643
 20
4.6811951396
 30
0.0
 10
9.9700978358
 20
4.6811951395
 30
0.0
 10
9.9706154608
 20
4.6811790696
 30
0.0
 10
9.9718037896
 20
4.6810929294
 30
0.0
 10
9.9735704627
 20
4.6808784429
 30
0.0
 10
9.9760145311
 20
4.6804882787
 30
0.0
 10
9.9777851413
 20
4.6801569576
 30
0.0
 10
9.9787412827
 20
4.6799690761
 30
0.0
  0
SPLINE
  5
3CA
100
AcDbEntity
  8
0
100
AcDbSpline
 62
9
  6
CONTINUOUS
 70
0
 71
3
 72
11
 73
7
 74
0
 42
0.0000001
 43
0.0000001
 44
0.0000000001
 40
0.0
 40
0.0
 40
0.0
 40
0.0
 40
0.2844235656
 40
0.5466453075
 40
0.785446117
 40
1.0
 40
1.0
 40
1.0
 40
1.0
 10
10.2702999839
 20
4.8701319825
 30
0.0
 10
10.2688290662
 20
4.8701319828
 30
0.0
 10
10.2660017188
 20
4.8701778635
 30
0.0
 10
10.2619446932
 20
4.8704020485
 30
0.0
 10
10.2582616503
 20
4.8707767943
 30
0.0
 10
10.2559441505
 20
4.8711441053
 30
0.0
 10
10.2548553896
 20
4.871358046
 30
0.0
  0
SPLINE
  5
3CB
100
AcDbEntity
  8
0
100
AcDbSpline
 62
9
  6
CONTINUOUS
 70
0
 71
3
 72
20
 73
16
 74
0
 42
0.0000001
 43
0.0000001
 44
0.0000000001
 40
0.0
 40
0.0
 40
0.0
 40
0.0
 40
0.0664519823
 40
0.1322207656
 40
0.1972284795
 40
0.2614286636
 40
0.3873987028
 40
0.4493467975
 40
0.5107583879
 40
0.571798175
 40
0.6326387308
 40
0.6934397764
 40
0.7543346689
 40
0.8767030556
 40
1.0
 40
1.0
 40
1.0
 40
1.0
 10
9.5854140333
 20
6.8879304532
 30
0.0
 10
9.5841282938
 20
6.891463418
 30
0.0
 10
9.5816353541
 20
6.8985171916
 30
0.0
 10
9.5781815195
 20
6.9091292076
 30
0.0
 10
9.5751025939
 20
6.9197248167
 30
0.0
 10
9.5716082388
 20
6.93373482
 30
0.0
 10
9.5690944503
 20
6.9478062212
 30
0.0
 10
9.5678099541
 20
6.9618610512
 30
0.0
 10
9.56748372
 20
6.9722954723
 30
0.0
 10
9.56780663
 20
6.9826671909
 30
0.0
 10
9.5687617276
 20
6.9929648963
 30
0.0
 10
9.5703271449
 20
7.003178759
 30
0.0
 10
9.5731665107
 20
7.0166981939
 30
0.0
 10
9.5780001042
 20
7.0333810089
 30
0.0
 10
9.5828386782
 20
7.0464191389
 30
0.0
 10
9.5854140333
 20
7.0529021032
 30
0.0
  0
SPLINE
  5
3CC
100
AcDbEntity
  8
0
100
AcDbSpline
 62
9
  6
CONTINUOUS
 70
0
 71
3
 72
11
 73
7
 74
0
 42
0.0000001
 43
0.0000001
 44
0.0000000001
 40
0.0
 40
0.0
 40
0.0
 40
0.0
 40
0.2745052092
 40
0.532707466
 40
0.7744448653
 40
1.0
 40
1.0
 40
1.0
 40
1.0
 10
9.5951923427
 20
6.8434246118
 30
0.0
 10
9.5946785938
 20
6.8475703926
 30
0.0
 10
9.5935367386
 20
6.8555989903
 30
0.0
 10
9.5913597449
 20
6.8671867
 30
0.0
 10
9.5887354857
 20
6.8779171472
 30
0.0
 10
9.5865878979
 20
6.8847048544
 30
0.0
 10
9.5854140333
 20
6.8879304532
 30
0.0
  0
SPLINE
  5
3CD
100
AcDbEntity
  8
0
100
AcDbSpline
 62
9
  6
CONTINUOUS
 70
0
 71
3
 72
11
 73
7
 74
0
 42
0.0000001
 43
0.0000001
 44
0.0000000001
 40
0.0
 40
0.0
 40
0.0
 40
0.0
 40
0.2526658662
 40
0.504140587
 40
0.7535461313
 40
1.0
 40
1.0
 40
1.0
 40
1.0
 10
9.5854140333
 20
6.6316352111
 30
0.0
 10
9.5865458927
 20
6.6375945033
 30
0.0
 10
9.588628945
 20
6.6495188757
 30
0.0
 10
9.5912706715
 20
6.6674173713
 30
0.0
 10
9.5934646253
 20
6.6852257575
 30
0.0
 10
9.5946597391
 20
6.6970709173
 30
0.0
 10
9.5951923427
 20
6.7029635914
 30
0.0
  0
SPLINE
  5
3CE
100
AcDbEntity
  8
0
100
AcDbSpline
 62
9
  6
CONTINUOUS
 70
0
 71
3
 72
15
 73
11
 74
0
 42
0.0000001
 43
0.0000001
 44
0.0000000001
 40
0.0
 40
0.0
 40
0.0
 40
0.0
 40
0.1249844084
 40
0.2499822696
 40
0.3749889126
 40
0.5000000103
 40
0.6250111078
 40
0.7500177472
 40
0.8750156129
 40
1.0
 40
1.0
 40
1.0
 40
1.0
 10
9.5854140333
 20
6.301691911
 30
0.0
 10
9.5828304299
 20
6.315294675
 30
0.0
 10
9.5779739823
 20
6.3425634418
 30
0.0
 10
9.5721943792
 20
6.3837140194
 30
0.0
 10
9.5684560552
 20
6.4251111888
 30
0.0
 10
9.5671595874
 20
6.4666635686
 30
0.0
 10
9.5684559484
 20
6.5082159527
 30
0.0
 10
9.5721942757
 20
6.5496131244
 30
0.0
 10
9.5779739874
 20
6.5907636848
 30
0.0
 10
9.5828304501
 20
6.6180324457
 30
0.0
 10
9.5854140333
 20
6.6316352111
 30
0.0
  0
SPLINE
  5
3CF
100
AcDbEntity
  8
0
100
AcDbSpline
 62
9
  6
CONTINUOUS
 70
0
 71
3
 72
11
 73
7
 74
0
 42
0.0000001
 43
0.0000001
 44
0.0000000001
 40
0.0
 40
0.0
 40
0.0
 40
0.0
 40
0.2464538345
 40
0.49585945
 40
0.7473341777
 40
1.0
 40
1.0
 40
1.0
 40
1.0
 10
9.5951923427
 20
6.2303635307
 30
0.0
 10
9.5946597468
 20
6.2362562047
 30
0.0
 10
9.5934646393
 20
6.2481013661
 30
0.0
 10
9.5912706697
 20
6.2659097515
 30
0.0
 10
9.5886289221
 20
6.2838082447
 30
0.0
 10
9.5865458763
 20
6.2957326168
 30
0.0
 10
9.5854140333
 20
6.301691911
 30
0.0
  0
SPLINE
  5
3D0
100
AcDbEntity
  8
0
100
AcDbSpline
 62
9
  6
CONTINUOUS
 70
0
 71
3
 72
11
 73
7
 74
0
 42
0.0000001
 43
0.0000001
 44
0.0000000001
 40
0.0
 40
0.0
 40
0.0
 40
0.0
 40
0.2255551308
 40
0.4672925336
 40
0.7254947956
 40
1.0
 40
1.0
 40
1.0
 40
1.0
 10
9.5854140333
 20
6.045396669
 30
0.0
 10
9.5865878981
 20
6.0486222676
 30
0.0
 10
9.5887354861
 20
6.0554099748
 30
0.0
 10
9.5913597449
 20
6.0661404222
 30
0.0
 10
9.5935367383
 20
6.0777281319
 30
0.0
 10
9.5946785936
 20
6.0857567296
 30
0.0
 10
9.5951923427
 20
6.0899025104
 30
0.0
  0
SPLINE
  5
3D1
100
AcDbEntity
  8
0
100
AcDbSpline
 62
9
  6
CONTINUOUS
 70
0
 71
3
 72
11
 73
7
 74
0
 42
0.0000001
 43
0.0000001
 44
0.0000000001
 40
0.0
 40
0.0
 40
0.0
 40
0.0
 40
0.2145539168
 40
0.4533547491
 40
0.7155764626
 40
1.0
 40
1.0
 40
1.0
 40
1.0
 10
10.2548553896
 20
4.6799690761
 30
0.0
 10
10.2559441496
 20
4.6801830224
 30
0.0
 10
10.2582616504
 20
4.680550331
 30
0.0
 10
10.2619446937
 20
4.6809250726
 30
0.0
 10
10.2660017192
 20
4.6811492583
 30
0.0
 10
10.2688290663
 20
4.6811951393
 30
0.0
 10
10.2702999839
 20
4.6811951396
 30
0.0
  0
SPLINE
  5
3D2
100
AcDbEntity
  8
0
100
AcDbSpline
 62
9
  6
CONTINUOUS
 70
0
 71
3
 72
9
 73
5
 74
0
 42
0.0000001
 43
0.0000001
 44
0.0000000001
 40
0.0
 40
0.0
 40
0.0
 40
0.0
 40
0.5060269065
 40
1.0
 40
1.0
 40
1.0
 40
1.0
 10
10.6590782359
 20
4.871358046
 30
0.0
 10
10.6549880928
 20
4.8709561799
 30
0.0
 10
10.6468857422
 20
4.870348693
 30
0.0
 10
10.6387629413
 20
4.8701319833
 30
0.0
 10
10.6347510018
 20
4.8701319825
 30
0.0
  0
SPLINE
  5
3D3
100
AcDbEntity
  8
0
100
AcDbSpline
 62
9
  6
CONTINUOUS
 70
0
 71
3
 72
9
 73
5
 74
0
 42
0.0000001
 43
0.0000001
 44
0.0000000001
 40
0.0
 40
0.0
 40
0.0
 40
0.0
 40
0.4939731433
 40
1.0
 40
1.0
 40
1.0
 40
1.0
 10
10.6347510018
 20
4.6811951396
 30
0.0
 10
10.6387629417
 20
4.6811951391
 30
0.0
 10
10.6468857431
 20
4.6809784343
 30
0.0
 10
10.6549880921
 20
4.6803709317
 30
0.0
 10
10.6590782359
 20
4.6799690761
 30
0.0
  0
SPLINE
  5
3D4
100
AcDbEntity
  8
0
100
AcDbSpline
 62
9
  6
CONTINUOUS
 70
0
 71
3
 72
14
 73
10
 74
0
 42
0.0000001
 43
0.0000001
 44
0.0000000001
 40
0.0
 40
0.0
 40
0.0
 40
0.0
 40
0.1386092277
 40
0.2758320288
 40
0.409988572
 40
0.5398748783
 40
0.6644254149
 40
0.7828716272
 40
1.0
 40
1.0
 40
1.0
 40
1.0
 10
10.2702999839
 20
4.8701319825
 30
0.0
 10
10.2702999839
 20
4.8710786709
 30
0.0
 10
10.2703902832
 20
4.8729638242
 30
0.0
 10
10.2707925245
 20
4.8757392316
 30
0.0
 10
10.2714553108
 20
4.878403584
 30
0.0
 10
10.2723647681
 20
4.8809021471
 30
0.0
 10
10.2735039378
 20
4.8831879721
 30
0.0
 10
10.2752444274
 20
4.8858084128
 30
0.0
 10
10.2769036512
 20
4.8874590734
 30
0.0
 10
10.2781273262
 20
4.8882968147
 30
0.0
  0
SPLINE
  5
3D5
100
AcDbEntity
  8
0
100
AcDbSpline
 62
9
  6
CONTINUOUS
 70
0
 71
3
 72
23
 73
19
 74
0
 42
0.0000001
 43
0.0000001
 44
0.0000000001
 40
0.0
 40
0.0
 40
0.0
 40
0.0
 40
0.1249877094
 40
0.1874854003
 40
0.2499889237
 40
0.3124905137
 40
0.3437412356
 40
0.3749931696
 40
0.4374973209
 40
0.5000002238
 40
0.5625030832
 40
0.6250072167
 40
0.6562591779
 40
0.6875098748
 40
0.7500113042
 40
0.8125147444
 40
0.875012415
 40
1.0
 40
1.0
 40
1.0
 40
1.0
 10
9.6013047622
 20
6.3050054857
 30
0.0
 10
9.5985304832
 20
6.3183100352
 30
0.0
 10
9.594604591
 20
6.3383196503
 30
0.0
 10
9.5901593327
 20
6.3651386063
 30
0.0
 10
9.5873000958
 20
6.3853276526
 30
0.0
 10
9.5853684851
 20
6.4022107273
 30
0.0
 10
9.5841274136
 20
6.4157469708
 30
0.0
 10
9.5831010209
 20
6.4293014521
 30
0.0
 10
9.5822315394
 20
6.446273577
 30
0.0
 10
9.5818748336
 20
6.4666636271
 30
0.0
 10
9.5822313632
 20
6.4870536815
 30
0.0
 10
9.5831009371
 20
6.5040257981
 30
0.0
 10
9.5841272728
 20
6.5175802817
 30
0.0
 10
9.5853683855
 20
6.5311165049
 30
0.0
 10
9.587300209
 20
6.5479995268
 30
0.0
 10
9.5901596345
 20
6.5681885154
 30
0.0
 10
9.5946047957
 20
6.5950074603
 30
0.0
 10
9.598530514
 20
6.6150170943
 30
0.0
 10
9.6013047622
 20
6.6283216364
 30
0.0
  0
SPLINE
  5
3D6
100
AcDbEntity
  8
0
100
AcDbSpline
 62
9
  6
CONTINUOUS
 70
0
 71
3
 72
23
 73
19
 74
0
 42
0.0000001
 43
0.0000001
 44
0.0000000001
 40
0.0
 40
0.0
 40
0.0
 40
0.0
 40
0.0624935408
 40
0.124997076
 40
0.1875036262
 40
0.250004096
 40
0.3125023121
 40
0.3750013497
 40
0.4375007662
 40
0.5000000061
 40
0.5624992467
 40
0.6249986636
 40
0.6874976996
 40
0.7499959104
 40
0.8124963731
 40
0.8750029198
 40
0.9375064565
 40
1.0
 40
1.0
 40
1.0
 40
1.0
 10
9.8314205368
 20
6.6283216364
 30
0.0
 10
9.8324988166
 20
6.6216480962
 30
0.0
 10
9.8344779493
 20
6.6082706795
 30
0.0
 10
9.836954001
 20
6.5881378668
 30
0.0
 10
9.8389788117
 20
6.5679541045
 30
0.0
 10
9.840591614
 20
6.5477340799
 30
0.0
 10
9.8418138731
 20
6.5274876211
 30
0.0
 10
9.8426680124
 20
6.5072225753
 30
0.0
 10
9.8431785292
 20
6.4869459373
 30
0.0
 10
9.8433490762
 20
6.4666635586
 30
0.0
 10
9.8431784963
 20
6.4463811802
 30
0.0
 10
9.8426679629
 20
6.4261045428
 30
0.0
 10
9.8418138499
 20
6.4058394968
 30
0.0
 10
9.8405916329
 20
6.385593037
 30
0.0
 10
9.8389788617
 20
6.3653730114
 30
0.0
 10
9.8369540404
 20
6.3451892509
 30
0.0
 10
9.8344779597
 20
6.3250564417
 30
0.0
 10
9.8324988156
 20
6.3116790264
 30
0.0
 10
9.8314205368
 20
6.3050054857
 30
0.0
  0
SPLINE
  5
3D7
100
AcDbEntity
  8
0
100
AcDbSpline
 62
9
  6
CONTINUOUS
 70
0
 71
3
 72
25
 73
21
 74
0
 42
0.0000001
 43
0.0000001
 44
0.0000000001
 40
0.0
 40
0.0
 40
0.0
 40
0.0
 40
0.0643875578
 40
0.1282680745
 40
0.1915643498
 40
0.2542466725
 40
0.3163277654
 40
0.3471662439
 40
0.377887497
 40
0.4390493854
 40
0.5000004261
 40
0.5609514692
 40
0.6221135275
 40
0.6528348299
 40
0.6836732412
 40
0.745754045
 40
0.8084361896
 40
0.8717323596
 40
0.935612686
 40
1.0
 40
1.0
 40
1.0
 40
1.0
 10
9.6013047622
 20
6.8967895116
 30
0.0
 10
9.5999224053
 20
6.9001041908
 30
0.0
 10
9.5972375666
 20
6.9067366795
 30
0.0
 10
9.5935099296
 20
6.9167522348
 30
0.0
 10
9.5901748419
 20
6.9268062673
 30
0.0
 10
9.587312608
 20
6.9369016571
 30
0.0
 10
9.5853733535
 20
6.9453662351
 30
0.0
 10
9.5841289074
 20
6.9521504035
 30
0.0
 10
9.5831034391
 20
6.958919219
 30
0.0
 10
9.5822324927
 20
6.9674059432
 30
0.0
 10
9.5818746829
 20
6.9776185813
 30
0.0
 10
9.5822326989
 20
6.9878312286
 30
0.0
 10
9.5831039698
 20
6.9963179249
 30
0.0
 10
9.5841292809
 20
7.0030867704
 30
0.0
 10
9.5853735908
 20
7.0098709478
 30
0.0
 10
9.5873128182
 20
7.018335503
 30
0.0
 10
9.5901749853
 20
7.0284308772
 30
0.0
 10
9.5935100081
 20
7.0384849046
 30
0.0
 10
9.5972376647
 20
7.0485004208
 30
0.0
 10
9.599922458
 20
7.0551329006
 30
0.0
 10
9.6013047622
 20
7.058447587
 30
0.0
  0
SPLINE
  5
3D8
100
AcDbEntity
  8
0
100
AcDbSpline
 62
9
  6
CONTINUOUS
 70
0
 71
3
 72
23
 73
19
 74
0
 42
0.0000001
 43
0.0000001
 44
0.0000000001
 40
0.0
 40
0.0
 40
0.0
 40
0.0
 40
0.0637807894
 40
0.1269816772
 40
0.1897343362
 40
0.2521438104
 40
0.3143027664
 40
0.3762904101
 40
0.4381714347
 40
0.4999999477
 40
0.5618284807
 40
0.6237095479
 40
0.6856972505
 40
0.7478562978
 40
0.8102658524
 40
0.8730184886
 40
0.936219267
 40
1.0
 40
1.0
 40
1.0
 40
1.0
 10
9.8314205368
 20
7.058447587
 30
0.0
 10
9.8324929068
 20
7.0551290992
 30
0.0
 10
9.8344655084
 20
7.0484686787
 30
0.0
 10
9.8369461279
 20
7.038391788
 30
0.0
 10
9.838974121
 20
7.0282909147
 30
0.0
 10
9.8405889759
 20
7.0181739472
 30
0.0
 10
9.8418126261
 20
7.0080445769
 30
0.0
 10
9.8426675901
 20
6.9979067575
 30
0.0
 10
9.8431785057
 20
6.9877640394
 30
0.0
 10
9.843349172
 20
6.9776185722
 30
0.0
 10
9.8431784324
 20
6.967473105
 30
0.0
 10
9.8426675427
 20
6.9573303791
 30
0.0
 10
9.8418125283
 20
6.9471925523
 30
0.0
 10
9.8405887793
 20
6.9370631812
 30
0.0
 10
9.8389738833
 20
6.9269462136
 30
0.0
 10
9.8369459839
 20
6.9168453257
 30
0.0
 10
9.8344654821
 20
6.9067684164
 30
0.0
 10
9.8324929149
 20
6.9001079936
 30
0.0
 10
9.8314205368
 20
6.8967895116
 30
0.0
  0
LINE
  5
3D9
100
AcDbEntity
  8
0
100
AcDbLine
 62
9
  6
CONTINUOUS
 10
12.263484754
 20
5.8452702321
 11
12.25948742
 21
5.8333474455
  0
SPLINE
  5
3DA
100
AcDbEntity
  8
0
100
AcDbSpline
 62
9
  6
CONTINUOUS
 70
0
 71
3
 72
11
 73
7
 74
0
 42
0.0000001
 43
0.0000001
 44
0.0000000001
 40
0.0
 40
0.0
 40
0.0
 40
0.0
 40
0.2523221914
 40
0.503739907
 40
0.7532904429
 40
1.0
 40
1.0
 40
1.0
 40
1.0
 10
12.2740799233
 20
6.3050054857
 30
0.0
 10
12.2728549471
 20
6.2987257675
 30
0.0
 10
12.2705994066
 20
6.2861511295
 30
0.0
 10
12.2677376372
 20
6.2672636956
 30
0.0
 10
12.2653589627
 20
6.2484530758
 30
0.0
 10
12.2640626324
 20
6.2359352949
 30
0.0
 10
12.263484754
 20
6.2297062814
 30
0.0
  0
SPLINE
  5
3DB
100
AcDbEntity
  8
0
100
AcDbSpline
 62
9
  6
CONTINUOUS
 70
0
 71
3
 72
20
 73
16
 74
0
 42
0.0000001
 43
0.0000001
 44
0.0000000001
 40
0.0
 40
0.0
 40
0.0
 40
0.0
 40
0.0408334336
 40
0.0854295272
 40
0.1336690084
 40
0.1854226905
 40
0.24053337
 40
0.2988195136
 40
0.3600736283
 40
0.4240622384
 40
0.4905271922
 40
0.5591884291
 40
0.7018904378
 40
0.849678399
 40
1.0
 40
1.0
 40
1.0
 40
1.0
 10
12.0439641487
 20
6.0365376105
 30
0.0
 10
12.0450291662
 20
6.040060897
 30
0.0
 10
12.0470644781
 20
6.04749128
 30
0.0
 10
12.0497247131
 20
6.0592463917
 30
0.0
 10
12.052076896
 20
6.0720692335
 30
0.0
 10
12.0540727934
 20
6.0859103163
 30
0.0
 10
12.0556705014
 20
6.1007140192
 30
0.0
 10
12.0568361396
 20
6.1164166358
 30
0.0
 10
12.0575430835
 20
6.1329474077
 30
0.0
 10
12.0577742559
 20
6.1502287375
 30
0.0
 10
12.0575246639
 20
6.1681773559
 30
0.0
 10
12.0565455429
 20
6.1932039271
 30
0.0
 10
12.0541499809
 20
6.225499904
 30
0.0
 10
12.0497368294
 20
6.2649954659
 30
0.0
 10
12.0459892583
 20
6.2916076479
 30
0.0
 10
12.0439641487
 20
6.3050054857
 30
0.0
  0
SPLINE
  5
3DC
100
AcDbEntity
  8
0
100
AcDbSpline
 62
9
  6
CONTINUOUS
 70
0
 71
3
 72
11
 73
7
 74
0
 42
0.0000001
 43
0.0000001
 44
0.0000000001
 40
0.0
 40
0.0
 40
0.0
 40
0.0
 40
0.2765777541
 40
0.5354262613
 40
0.7764291602
 40
1.0
 40
1.0
 40
1.0
 40
1.0
 10
12.263484754
 20
6.0822275118
 30
0.0
 10
12.2640409549
 20
6.0779297068
 30
0.0
 10
12.2652759018
 20
6.069628646
 30
0.0
 10
12.2676349695
 20
6.0576881243
 30
0.0
 10
12.2704767365
 20
6.046707682
 30
0.0
 10
12.272806711
 20
6.039801132
 30
0.0
 10
12.2740799233
 20
6.0365376105
 30
0.0
  0
SPLINE
  5
3DD
100
AcDbEntity
  8
0
100
AcDbSpline
 62
9
  6
CONTINUOUS
 70
0
 71
3
 72
15
 73
11
 74
0
 42
0.0000001
 43
0.0000001
 44
0.0000000001
 40
0.0
 40
0.0
 40
0.0
 40
0.0
 40
0.1404480254
 40
0.2777517129
 40
0.4112255399
 40
0.5402265036
 40
0.6641408456
 40
0.7824034028
 40
0.8945090863
 40
1.0
 40
1.0
 40
1.0
 40
1.0
 10
12.263484754
 20
6.2297062814
 30
0.0
 10
12.262845745
 20
6.2228180096
 30
0.0
 10
12.2617079454
 20
6.2091835494
 30
0.0
 10
12.2604438195
 20
6.1889663149
 30
0.0
 10
12.2596689633
 20
6.1692883094
 30
0.0
 10
12.2594017217
 20
6.1502561516
 30
0.0
 10
12.2596482881
 20
6.131972753
 30
0.0
 10
12.2604023333
 20
6.1145358321
 30
0.0
 10
12.2616455594
 20
6.0980368322
 30
0.0
 10
12.2628178818
 20
6.0873805553
 30
0.0
 10
12.263484754
 20
6.0822275118
 30
0.0
  0
SPLINE
  5
3DE
100
AcDbEntity
  8
0
100
AcDbSpline
 62
9
  6
CONTINUOUS
 70
0
 71
3
 72
11
 73
7
 74
0
 42
0.0000001
 43
0.0000001
 44
0.0000000001
 40
0.0
 40
0.0
 40
0.0
 40
0.0
 40
0.2235708413
 40
0.4645737393
 40
0.7234222469
 40
1.0
 40
1.0
 40
1.0
 40
1.0
 10
12.2740799233
 20
6.8967895116
 30
0.0
 10
12.2728067107
 20
6.8935259902
 30
0.0
 10
12.2704767363
 20
6.8866194402
 30
0.0
 10
12.2676349696
 20
6.8756389978
 30
0.0
 10
12.265275902
 20
6.863698476
 30
0.0
 10
12.264040955
 20
6.8553974153
 30
0.0
 10
12.263484754
 20
6.8510996103
 30
0.0
  0
SPLINE
  5
3DF
100
AcDbEntity
  8
0
100
AcDbSpline
 62
9
  6
CONTINUOUS
 70
0
 71
3
 72
21
 73
17
 74
0
 42
0.0000001
 43
0.0000001
 44
0.0000000001
 40
0.0
 40
0.0
 40
0.0
 40
0.0
 40
0.1503202208
 40
0.2981068714
 40
0.37025594
 40
0.4408155115
 40
0.5094761923
 40
0.5759406269
 40
0.6399287542
 40
0.7011824031
 40
0.7594680812
 40
0.8145784197
 40
0.8663317797
 40
0.9145707754
 40
0.9591667287
 40
1.0
 40
1.0
 40
1.0
 40
1.0
 10
12.0439641487
 20
6.6283216364
 30
0.0
 10
12.0459891417
 20
6.6417194743
 30
0.0
 10
12.0497361703
 20
6.6683313113
 30
0.0
 10
12.0534441225
 20
6.7015068085
 30
0.0
 10
12.0556159814
 20
6.72760371
 30
0.0
 10
12.0567996834
 20
6.7466214867
 30
0.0
 10
12.0575248253
 20
6.7651497088
 30
0.0
 10
12.0577742719
 20
6.7830982958
 30
0.0
 10
12.0575428866
 20
6.8003796329
 30
0.0
 10
12.0568363361
 20
6.8169104181
 30
0.0
 10
12.0556709655
 20
6.8326130713
 30
0.0
 10
12.0540728896
 20
6.847416754
 30
0.0
 10
12.0520768508
 20
6.8612578166
 30
0.0
 10
12.0497250351
 20
6.8740807397
 30
0.0
 10
12.0470649156
 20
6.885835913
 30
0.0
 10
12.0450292482
 20
6.8932662349
 30
0.0
 10
12.0439641487
 20
6.8967895116
 30
0.0
  0
SPLINE
  5
3E0
100
AcDbEntity
  8
0
100
AcDbSpline
 62
9
  6
CONTINUOUS
 70
0
 71
3
 72
11
 73
7
 74
0
 42
0.0000001
 43
0.0000001
 44
0.0000000001
 40
0.0
 40
0.0
 40
0.0
 40
0.0
 40
0.2467095625
 40
0.496260144
 40
0.7476778353
 40
1.0
 40
1.0
 40
1.0
 40
1.0
 10
12.263484754
 20
6.7036208408
 30
0.0
 10
12.264062623
 20
6.6973918262
 30
0.0
 10
12.2653589499
 20
6.6848740435
 30
0.0
 10
12.2677376283
 20
6.6660634234
 30
0.0
 10
12.2705994152
 20
6.6471759921
 30
0.0
 10
12.2728549629
 20
6.634601357
 30
0.0
 10
12.2740799233
 20
6.6283216364
 30
0.0
  0
SPLINE
  5
3E1
100
AcDbEntity
  8
0
100
AcDbSpline
 62
9
  6
CONTINUOUS
 70
0
 71
3
 72
14
 73
10
 74
0
 42
0.0000001
 43
0.0000001
 44
0.0000000001
 40
0.0
 40
0.0
 40
0.0
 40
0.0
 40
0.1054923698
 40
0.2175996466
 40
0.3358639968
 40
0.4597802044
 40
0.5887831216
 40
0.722258994
 40
1.0
 40
1.0
 40
1.0
 40
1.0
 10
12.263484754
 20
6.8510996103
 30
0.0
 10
12.2628179056
 20
6.8459465709
 30
0.0
 10
12.2616459466
 20
6.8352902667
 30
0.0
 10
12.2604024871
 20
6.818791305
 30
0.0
 10
12.2596482954
 20
6.8013543866
 30
0.0
 10
12.2594017294
 20
6.7830710129
 30
0.0
 10
12.2596689222
 20
6.7640387595
 30
0.0
 10
12.2607159583
 20
6.737448818
 30
0.0
 10
12.2622210726
 20
6.7172424351
 30
0.0
 10
12.263484754
 20
6.7036208408
 30
0.0
  0
SPLINE
  5
3E2
100
AcDbEntity
  8
0
100
AcDbSpline
 62
9
  6
CONTINUOUS
 70
0
 71
3
 72
27
 73
23
 74
0
 42
0.0000001
 43
0.0000001
 44
0.0000000001
 40
0.0
 40
0.0
 40
0.0
 40
0.0
 40
0.227477361
 40
0.4278557763
 40
0.5998634594
 40
0.674877482
 40
0.7423877784
 40
0.8022659797
 40
0.8544038942
 40
0.8987004218
 40
0.9350652165
 40
0.9502517812
 40
0.9634302177
 40
0.9745923464
 40
0.9837315878
 40
0.9908447446
 40
0.9936406756
 40
0.9959290466
 40
0.9977095111
 40
0.9989817226
 40
0.9997453344
 40
1.0
 40
1.0
 40
1.0
 40
1.0
 10
12.0439641487
 20
7.058447587
 30
0.0
 10
12.0449240471
 20
7.0616228618
 30
0.0
 10
12.0467637465
 20
7.0675848595
 30
0.0
 10
12.0494339548
 20
7.0759150231
 30
0.0
 10
12.0514852765
 20
7.0821084716
 30
0.0
 10
12.0529553824
 20
7.0864531715
 30
0.0
 10
12.0539119885
 20
7.0892453979
 30
0.0
 10
12.0547686733
 20
7.0917192138
 30
0.0
 10
12.055521061
 20
7.093870897
 30
0.0
 10
12.0561650392
 20
7.0956972366
 30
0.0
 10
12.0566325658
 20
7.0970144298
 30
0.0
 10
12.05694961
 20
7.0979035166
 30
0.0
 10
12.0571436529
 20
7.0984462784
 30
0.0
 10
12.0573082986
 20
7.0989058986
 30
0.0
 10
12.0574432817
 20
7.0992821933
 30
0.0
 10
12.0575371588
 20
7.0995436225
 30
0.0
 10
12.0575973685
 20
7.0997109904
 30
0.0
 10
12.0576312013
 20
7.099805208
 30
0.0
 10
12.0576577344
 20
7.0998784289
 30
0.0
 10
12.0576762587
 20
7.0999309221
 30
0.0
 10
12.0576881798
 20
7.0999621046
 30
0.0
 10
12.0576926035
 20
7.0999763204
 30
0.0
 10
12.0576941167
 20
7.0999797118
 30
0.0
  0
SPLINE
  5
3E3
100
AcDbEntity
  8
0
100
AcDbSpline
 62
9
  6
CONTINUOUS
 70
0
 71
3
 72
23
 73
19
 74
0
 42
0.0000001
 43
0.0000001
 44
0.0000000001
 40
0.0
 40
0.0
 40
0.0
 40
0.0
 40
0.0637807808
 40
0.1269816481
 40
0.1897342745
 40
0.2521437245
 40
0.3143026859
 40
0.3762903565
 40
0.4381714083
 40
0.4999999431
 40
0.5618284986
 40
0.6237095942
 40
0.6856973239
 40
0.7478563774
 40
0.8102659099
 40
0.8730185158
 40
0.936219275
 40
1.0
 40
1.0
 40
1.0
 40
1.0
 10
12.0439641487
 20
5.8748795352
 30
0.0
 10
12.0428917788
 20
5.8781980226
 30
0.0
 10
12.0409191808
 20
5.8848584426
 30
0.0
 10
12.0384385692
 20
5.8949353316
 30
0.0
 10
12.0364105621
 20
5.9050361977
 30
0.0
 10
12.0347957051
 20
5.9151531624
 30
0.0
 10
12.0335720679
 20
5.9252825347
 30
0.0
 10
12.0327171012
 20
5.9354203568
 30
0.0
 10
12.0322061599
 20
5.945563078
 30
0.0
 10
12.0320354912
 20
5.9557085492
 30
0.0
 10
12.0322062364
 20
5.9658540205
 30
0.0
 10
12.0327171497
 20
5.9759967496
 30
0.0
 10
12.0335721646
 20
5.9861345795
 30
0.0
 10
12.0347959007
 20
5.9962639528
 30
0.0
 10
12.0364107987
 20
6.0063809179
 30
0.0
 10
12.038438712
 20
6.0164817989
 30
0.0
 10
12.0409192068
 20
6.0265587066
 30
0.0
 10
12.0428917707
 20
6.0332191289
 30
0.0
 10
12.0439641487
 20
6.0365376105
 30
0.0
  0
SPLINE
  5
3E4
100
AcDbEntity
  8
0
100
AcDbSpline
 62
9
  6
CONTINUOUS
 70
0
 71
3
 72
25
 73
21
 74
0
 42
0.0000001
 43
0.0000001
 44
0.0000000001
 40
0.0
 40
0.0
 40
0.0
 40
0.0
 40
0.0643875537
 40
0.128268068
 40
0.1915643423
 40
0.2542466657
 40
0.3163277619
 40
0.3471662432
 40
0.3778874998
 40
0.4390493948
 40
0.5000004369
 40
0.5609514771
 40
0.6221135401
 40
0.6528348453
 40
0.6836732566
 40
0.7457540564
 40
0.8084361991
 40
0.8717323691
 40
0.9356126927
 40
1.0
 40
1.0
 40
1.0
 40
1.0
 10
9.6013047622
 20
5.8748795352
 30
0.0
 10
9.599922405
 20
5.8781942145
 30
0.0
 10
9.5972375657
 20
5.8848267033
 30
0.0
 10
9.5935099267
 20
5.8948422588
 30
0.0
 10
9.5901748352
 20
5.9048962912
 30
0.0
 10
9.5873125955
 20
5.9149916806
 30
0.0
 10
9.585373334
 20
5.9234562584
 30
0.0
 10
9.5841288807
 20
5.9302404269
 30
0.0
 10
9.5831034041
 20
5.9370092426
 30
0.0
 10
9.5822324483
 20
5.9454959675
 30
0.0
 10
9.5818746269
 20
5.9557086068
 30
0.0
 10
9.5822326492
 20
5.9659212557
 30
0.0
 10
9.5831039363
 20
5.9744079516
 30
0.0
 10
9.5841292511
 20
5.9811767977
 30
0.0
 10
9.5853735649
 20
5.9879609751
 30
0.0
 10
9.5873128008
 20
5.9964255291
 30
0.0
 10
9.5901749766
 20
6.0065209018
 30
0.0
 10
9.5935100045
 20
6.0165749284
 30
0.0
 10
9.5972376649
 20
6.0265904439
 30
0.0
 10
9.5999224585
 20
6.0332229238
 30
0.0
 10
9.6013047622
 20
6.0365376105
 30
0.0
  0
SPLINE
  5
3E5
100
AcDbEntity
  8
0
100
AcDbSpline
 62
9
  6
CONTINUOUS
 70
0
 71
3
 72
23
 73
19
 74
0
 42
0.0000001
 43
0.0000001
 44
0.0000000001
 40
0.0
 40
0.0
 40
0.0
 40
0.0
 40
0.0637807274
 40
0.1269815715
 40
0.1897343002
 40
0.2521439408
 40
0.3143030255
 40
0.3762906968
 40
0.4381716724
 40
0.5000001137
 40
0.5618285793
 40
0.6237095981
 40
0.685697274
 40
0.7478563113
 40
0.810265867
 40
0.8730185023
 40
0.9362192722
 40
1.0
 40
1.0
 40
1.0
 40
1.0
 10
9.8314205368
 20
6.0365376105
 30
0.0
 10
9.8324929005
 20
6.0332191241
 30
0.0
 10
9.8344654699
 20
6.0265586995
 30
0.0
 10
9.8369460386
 20
6.0164817983
 30
0.0
 10
9.8389740322
 20
6.0063809156
 30
0.0
 10
9.8405890271
 20
5.9962639514
 30
0.0
 10
9.8418128485
 20
5.9861345832
 30
0.0
 10
9.8426678742
 20
5.9759967606
 30
0.0
 10
9.8431786626
 20
5.9658540399
 30
0.0
 10
9.8433492348
 20
5.9557085817
 30
0.0
 10
9.843178405
 20
5.9455631261
 30
0.0
 10
9.8426674668
 20
5.9354204106
 30
0.0
 10
9.8418124372
 20
5.9252825898
 30
0.0
 10
9.8405886955
 20
5.9151532198
 30
0.0
 10
9.8389738312
 20
5.9050362476
 30
0.0
 10
9.836945968
 20
5.8949353524
 30
0.0
 10
9.8344654797
 20
5.8848584399
 30
0.0
 10
9.832492915
 20
5.8781980169
 30
0.0
 10
9.8314205368
 20
5.8748795352
 30
0.0
  0
SPLINE
  5
3E6
100
AcDbEntity
  8
0
100
AcDbSpline
 62
9
  6
CONTINUOUS
 70
0
 71
3
 72
14
 73
10
 74
0
 42
0.0000001
 43
0.0000001
 44
0.0000000001
 40
0.0
 40
0.0
 40
0.0
 40
0.0
 40
0.1054893651
 40
0.2176013489
 40
0.3358634465
 40
0.4597800429
 40
0.5887837065
 40
0.7222570494
 40
1.0
 40
1.0
 40
1.0
 40
1.0
 10
9.6118999315
 20
6.0822275118
 30
0.0
 10
9.6125667608
 20
6.0873804041
 30
0.0
 10
9.6137388609
 20
6.0980367771
 30
0.0
 10
9.6149821178
 20
6.1145357285
 30
0.0
 10
9.6157362626
 20
6.1319727849
 30
0.0
 10
9.6159828816
 20
6.1502561021
 30
0.0
 10
9.6157156593
 20
6.1692882854
 30
0.0
 10
9.6146686443
 20
6.1958782326
 30
0.0
 10
9.6131636217
 20
6.2160845927
 30
0.0
 10
9.6118999315
 20
6.2297062814
 30
0.0
  0
SPLINE
  5
3E7
100
AcDbEntity
  8
0
100
AcDbSpline
 62
9
  6
CONTINUOUS
 70
0
 71
3
 72
11
 73
7
 74
0
 42
0.0000001
 43
0.0000001
 44
0.0000000001
 40
0.0
 40
0.0
 40
0.0
 40
0.0
 40
0.2467095625
 40
0.496260144
 40
0.7476778353
 40
1.0
 40
1.0
 40
1.0
 40
1.0
 10
9.6118999315
 20
6.2297062814
 30
0.0
 10
9.6113220625
 20
6.2359352959
 30
0.0
 10
9.6100257356
 20
6.2484530786
 30
0.0
 10
9.6076470572
 20
6.2672636988
 30
0.0
 10
9.6047852702
 20
6.2861511301
 30
0.0
 10
9.6025297226
 20
6.2987257651
 30
0.0
 10
9.6013047622
 20
6.3050054857
 30
0.0
  0
SPLINE
  5
3E8
100
AcDbEntity
  8
0
100
AcDbSpline
 62
9
  6
CONTINUOUS
 70
0
 71
3
 72
21
 73
17
 74
0
 42
0.0000001
 43
0.0000001
 44
0.0000000001
 40
0.0
 40
0.0
 40
0.0
 40
0.0
 40
0.1503202208
 40
0.2981068714
 40
0.37025594
 40
0.4408155115
 40
0.5094761923
 40
0.5759406269
 40
0.6399287542
 40
0.7011824031
 40
0.7594680812
 40
0.8145784197
 40
0.8663317797
 40
0.9145707754
 40
0.9591667287
 40
1.0
 40
1.0
 40
1.0
 40
1.0
 10
9.8314205368
 20
6.3050054857
 30
0.0
 10
9.8293955438
 20
6.2916076478
 30
0.0
 10
9.8256485152
 20
6.2649958109
 30
0.0
 10
9.821940563
 20
6.2318203136
 30
0.0
 10
9.8197687041
 20
6.2057234121
 30
0.0
 10
9.8185850021
 20
6.1867056354
 30
0.0
 10
9.8178598601
 20
6.1681774133
 30
0.0
 10
9.8176104136
 20
6.1502288264
 30
0.0
 10
9.8178417989
 20
6.1329474892
 30
0.0
 10
9.8185483494
 20
6.1164167041
 30
0.0
 10
9.8197137199
 20
6.1007140508
 30
0.0
 10
9.8213117959
 20
6.0859103681
 30
0.0
 10
9.8233078347
 20
6.0720693056
 30
0.0
 10
9.8256596503
 20
6.0592463824
 30
0.0
 10
9.8283197699
 20
6.0474912091
 30
0.0
 10
9.8303554373
 20
6.0400608873
 30
0.0
 10
9.8314205368
 20
6.0365376105
 30
0.0
  0
SPLINE
  5
3E9
100
AcDbEntity
  8
0
100
AcDbSpline
 62
9
  6
CONTINUOUS
 70
0
 71
3
 72
11
 73
7
 74
0
 42
0.0000001
 43
0.0000001
 44
0.0000000001
 40
0.0
 40
0.0
 40
0.0
 40
0.0
 40
0.2235708413
 40
0.4645737393
 40
0.7234222469
 40
1.0
 40
1.0
 40
1.0
 40
1.0
 10
9.6013047622
 20
6.0365376105
 30
0.0
 10
9.6025779747
 20
6.0398011319
 30
0.0
 10
9.6049079492
 20
6.046707682
 30
0.0
 10
9.6077497159
 20
6.0576881243
 30
0.0
 10
9.6101087834
 20
6.0696286461
 30
0.0
 10
9.6113437304
 20
6.0779297068
 30
0.0
 10
9.6118999315
 20
6.0822275118
 30
0.0
  0
SPLINE
  5
3EA
100
AcDbEntity
  8
0
100
AcDbSpline
 62
9
  6
CONTINUOUS
 70
0
 71
3
 72
15
 73
11
 74
0
 42
0.0000001
 43
0.0000001
 44
0.0000000001
 40
0.0
 40
0.0
 40
0.0
 40
0.0
 40
0.1404434863
 40
0.277753593
 40
0.4112248713
 40
0.5402265966
 40
0.6641413343
 40
0.7824016459
 40
0.8945121462
 40
1.0
 40
1.0
 40
1.0
 40
1.0
 10
9.6118999315
 20
6.7036208408
 30
0.0
 10
9.6125389197
 20
6.7105088893
 30
0.0
 10
9.61367687
 20
6.7241434293
 30
0.0
 10
9.6149407893
 20
6.7443606438
 30
0.0
 10
9.6157155942
 20
6.7640388757
 30
0.0
 10
9.6159828901
 20
6.783070963
 30
0.0
 10
9.6157362886
 20
6.8013543059
 30
0.0
 10
9.6149822724
 20
6.8187913729
 30
0.0
 10
9.6137390255
 20
6.8352903448
 30
0.0
 10
9.6125667843
 20
6.8459467168
 30
0.0
 10
9.6118999315
 20
6.8510996103
 30
0.0
  0
SPLINE
  5
3EB
100
AcDbEntity
  8
0
100
AcDbSpline
 62
9
  6
CONTINUOUS
 70
0
 71
3
 72
11
 73
7
 74
0
 42
0.0000001
 43
0.0000001
 44
0.0000000001
 40
0.0
 40
0.0
 40
0.0
 40
0.0
 40
0.2765777541
 40
0.5354262613
 40
0.7764291602
 40
1.0
 40
1.0
 40
1.0
 40
1.0
 10
9.6118999315
 20
6.8510996103
 30
0.0
 10
9.6113437306
 20
6.8553974153
 30
0.0
 10
9.6101087836
 20
6.8636984761
 30
0.0
 10
9.6077497159
 20
6.8756389978
 30
0.0
 10
9.6049079489
 20
6.8866194401
 30
0.0
 10
9.6025779745
 20
6.8935259901
 30
0.0
 10
9.6013047622
 20
6.8967895116
 30
0.0
  0
SPLINE
  5
3EC
100
AcDbEntity
  8
0
100
AcDbSpline
 62
9
  6
CONTINUOUS
 70
0
 71
3
 72
20
 73
16
 74
0
 42
0.0000001
 43
0.0000001
 44
0.0000000001
 40
0.0
 40
0.0
 40
0.0
 40
0.0
 40
0.0408334336
 40
0.0854295272
 40
0.1336690084
 40
0.1854226905
 40
0.24053337
 40
0.2988195136
 40
0.3600736283
 40
0.4240622384
 40
0.4905271922
 40
0.5591884291
 40
0.7018904378
 40
0.849678399
 40
1.0
 40
1.0
 40
1.0
 40
1.0
 10
9.8314205368
 20
6.8967895116
 30
0.0
 10
9.8303555193
 20
6.8932662252
 30
0.0
 10
9.8283202074
 20
6.8858358421
 30
0.0
 10
9.8256599723
 20
6.8740807304
 30
0.0
 10
9.8233077895
 20
6.8612578887
 30
0.0
 10
9.8213118921
 20
6.8474168058
 30
0.0
 10
9.8197141841
 20
6.8326131029
 30
0.0
 10
9.8185485459
 20
6.8169104863
 30
0.0
 10
9.8178416019
 20
6.8003797144
 30
0.0
 10
9.8176104296
 20
6.7830983846
 30
0.0
 10
9.8178600216
 20
6.7651497663
 30
0.0
 10
9.8188391425
 20
6.740123195
 30
0.0
 10
9.8212347046
 20
6.7078272182
 30
0.0
 10
9.8256478561
 20
6.6683316563
 30
0.0
 10
9.8293954272
 20
6.6417194742
 30
0.0
 10
9.8314205368
 20
6.6283216364
 30
0.0
  0
SPLINE
  5
3ED
100
AcDbEntity
  8
0
100
AcDbSpline
 62
9
  6
CONTINUOUS
 70
0
 71
3
 72
11
 73
7
 74
0
 42
0.0000001
 43
0.0000001
 44
0.0000000001
 40
0.0
 40
0.0
 40
0.0
 40
0.0
 40
0.2523221914
 40
0.503739907
 40
0.7532904429
 40
1.0
 40
1.0
 40
1.0
 40
1.0
 10
9.6013047622
 20
6.6283216364
 30
0.0
 10
9.6025297384
 20
6.6346013546
 30
0.0
 10
9.6047852789
 20
6.6471759927
 30
0.0
 10
9.6076470483
 20
6.6660634265
 30
0.0
 10
9.6100257227
 20
6.6848740464
 30
0.0
 10
9.6113220531
 20
6.6973918272
 30
0.0
 10
9.6118999315
 20
6.7036208408
 30
0.0
  0
LINE
  5
3EE
100
AcDbEntity
  8
0
100
AcDbLine
 62
9
  6
CONTINUOUS
 10
9.6118999315
 20
7.08805689
 11
9.6158971764
 21
7.0999797118
  0
SPLINE
  5
3EF
100
AcDbEntity
  8
0
100
AcDbSpline
 62
9
  6
CONTINUOUS
 70
0
 71
3
 72
25
 73
21
 74
0
 42
0.0000001
 43
0.0000001
 44
0.0000000001
 40
0.0
 40
0.0
 40
0.0
 40
0.0
 40
0.0643875824
 40
0.1282681384
 40
0.1915644268
 40
0.2542467456
 40
0.3163278522
 40
0.3471663336
 40
0.3778875781
 40
0.4390494368
 40
0.5000004569
 40
0.5609514733
 40
0.6221135042
 40
0.6528347982
 40
0.6836732067
 40
0.7457540082
 40
0.8084361425
 40
0.8717323174
 40
0.9356126689
 40
1.0
 40
1.0
 40
1.0
 40
1.0
 10
12.2740799233
 20
6.0365376105
 30
0.0
 10
12.2754622807
 20
6.03322293
 30
0.0
 10
12.2781471202
 20
6.0265904377
 30
0.0
 10
12.2818747572
 20
6.0165748778
 30
0.0
 10
12.2852098561
 20
6.0065208461
 30
0.0
 10
12.2880720836
 20
5.9964254527
 30
0.0
 10
12.2900113232
 20
5.9879608707
 30
0.0
 10
12.2912557789
 20
5.9811767038
 30
0.0
 10
12.2922812701
 20
5.9744078935
 30
0.0
 10
12.2931522007
 20
5.9659211702
 30
0.0
 10
12.2935100011
 20
5.9557085367
 30
0.0
 10
12.2931519974
 20
5.9454958932
 30
0.0
 10
12.2922807233
 20
5.9370092001
 30
0.0
 10
12.2912554011
 20
5.9302403584
 30
0.0
 10
12.2900110869
 20
5.9234561826
 30
0.0
 10
12.2880718685
 20
5.9149916263
 30
0.0
 10
12.2852097046
 20
5.9048962513
 30
0.0
 10
12.2818746755
 20
5.8948422248
 30
0.0
 10
12.2781470209
 20
5.884826705
 30
0.0
 10
12.2754622279
 20
5.8781942225
 30
0.0
 10
12.2740799233
 20
5.8748795352
 30
0.0
  0
SPLINE
  5
3F0
100
AcDbEntity
  8
0
100
AcDbSpline
 62
9
  6
CONTINUOUS
 70
0
 71
3
 72
23
 73
19
 74
0
 42
0.0000001
 43
0.0000001
 44
0.0000000001
 40
0.0
 40
0.0
 40
0.0
 40
0.0
 40
0.0624935374
 40
0.1249970562
 40
0.1875035664
 40
0.2500040115
 40
0.3125022381
 40
0.3750013023
 40
0.4375007439
 40
0.5000000071
 40
0.5624992708
 40
0.6249987126
 40
0.6874977749
 40
0.7499959958
 40
0.8124964334
 40
0.8750029397
 40
0.9375064599
 40
1.0
 40
1.0
 40
1.0
 40
1.0
 10
12.0439641487
 20
6.3050054857
 30
0.0
 10
12.0428858689
 20
6.3116790256
 30
0.0
 10
12.0409067395
 20
6.3250564407
 30
0.0
 10
12.0384306949
 20
6.3451892476
 30
0.0
 10
12.0364058695
 20
6.3653729996
 30
0.0
 10
12.034793066
 20
6.3855930185
 30
0.0
 10
12.0335708208
 20
6.4058394795
 30
0.0
 10
12.0327166801
 20
6.4261045317
 30
0.0
 10
12.0322061382
 20
6.4463811773
 30
0.0
 10
12.032035587
 20
6.4666635638
 30
0.0
 10
12.0322061709
 20
6.48694595
 30
0.0
 10
12.0327167302
 20
6.5072225949
 30
0.0
 10
12.0335708451
 20
6.5274876472
 30
0.0
 10
12.0347930481
 20
6.5477341091
 30
0.0
 10
12.0364058202
 20
6.5679541288
 30
0.0
 10
12.038430656
 20
6.5881378789
 30
0.0
 10
12.0409067293
 20
6.6082706824
 30
0.0
 10
12.0428858699
 20
6.6216480961
 30
0.0
 10
12.0439641487
 20
6.6283216364
 30
0.0
  0
SPLINE
  5
3F1
100
AcDbEntity
  8
0
100
AcDbSpline
 62
9
  6
CONTINUOUS
 70
0
 71
3
 72
23
 73
19
 74
0
 42
0.0000001
 43
0.0000001
 44
0.0000000001
 40
0.0
 40
0.0
 40
0.0
 40
0.0
 40
0.1249877592
 40
0.187485451
 40
0.2499889653
 40
0.3124905587
 40
0.3437412759
 40
0.3749931976
 40
0.4374973211
 40
0.5000001995
 40
0.562503039
 40
0.6250071448
 40
0.6562590889
 40
0.6875097826
 40
0.7500112342
 40
0.8125146786
 40
0.8750123539
 40
1.0
 40
1.0
 40
1.0
 40
1.0
 10
12.2740799233
 20
6.6283216364
 30
0.0
 10
12.2768542034
 20
6.6150170816
 30
0.0
 10
12.2807800916
 20
6.5950074601
 30
0.0
 10
12.2852253614
 20
6.5681885014
 30
0.0
 10
12.2880845963
 20
6.5479994552
 30
0.0
 10
12.2900161964
 20
6.5311163805
 30
0.0
 10
12.29125727
 20
6.5175801386
 30
0.0
 10
12.2922836725
 20
6.504025663
 30
0.0
 10
12.2931531542
 20
6.4870535449
 30
0.0
 10
12.2935098477
 20
6.4666635024
 30
0.0
 10
12.2931533276
 20
6.4462734559
 30
0.0
 10
12.2922837698
 20
6.4293013451
 30
0.0
 10
12.2912574126
 20
6.4157468684
 30
0.0
 10
12.2900162902
 20
6.4022106459
 30
0.0
 10
12.2880844811
 20
6.3853276199
 30
0.0
 10
12.2852250626
 20
6.3651386266
 30
0.0
 10
12.2807798867
 20
6.3383196764
 30
0.0
 10
12.2768541729
 20
6.3183100344
 30
0.0
 10
12.2740799233
 20
6.3050054857
 30
0.0
  0
SPLINE
  5
3F2
100
AcDbEntity
  8
0
100
AcDbSpline
 62
9
  6
CONTINUOUS
 70
0
 71
3
 72
23
 73
19
 74
0
 42
0.0000001
 43
0.0000001
 44
0.0000000001
 40
0.0
 40
0.0
 40
0.0
 40
0.0
 40
0.0637807187
 40
0.1269815422
 40
0.1897342384
 40
0.2521438549
 40
0.3143029449
 40
0.376290643
 40
0.438171646
 40
0.5000001092
 40
0.5618285973
 40
0.6237096442
 40
0.6856973471
 40
0.7478563906
 40
0.8102659242
 40
0.8730185293
 40
0.9362192802
 40
1.0
 40
1.0
 40
1.0
 40
1.0
 10
12.0439641487
 20
6.8967895116
 30
0.0
 10
12.0428917851
 20
6.9001079976
 30
0.0
 10
12.0409192194
 20
6.9067684218
 30
0.0
 10
12.0384386588
 20
6.9168453213
 30
0.0
 10
12.036410651
 20
6.9269461968
 30
0.0
 10
12.0347956539
 20
6.9370631582
 30
0.0
 10
12.0335718456
 20
6.9471925285
 30
0.0
 10
12.0327168178
 20
6.9573303539
 30
0.0
 10
12.0322060035
 20
6.9674730775
 30
0.0
 10
12.0320354281
 20
6.9776185399
 30
0.0
 10
12.0322062628
 20
6.9877639996
 30
0.0
 10
12.0327172246
 20
6.9979067181
 30
0.0
 10
12.0335722548
 20
7.0080445421
 30
0.0
 10
12.0347959839
 20
7.0181739143
 30
0.0
 10
12.0364108506
 20
7.0282908839
 30
0.0
 10
12.0384387279
 20
7.0383917722
 30
0.0
 10
12.0409192091
 20
7.048468683
 30
0.0
 10
12.0428917706
 20
7.0551291056
 30
0.0
 10
12.0439641487
 20
7.058447587
 30
0.0
  0
SPLINE
  5
3F3
100
AcDbEntity
  8
0
100
AcDbSpline
 62
9
  6
CONTINUOUS
 70
0
 71
3
 72
25
 73
21
 74
0
 42
0.0000001
 43
0.0000001
 44
0.0000000001
 40
0.0
 40
0.0
 40
0.0
 40
0.0
 40
0.0643875783
 40
0.1282681315
 40
0.1915644189
 40
0.2542467381
 40
0.3163278474
 40
0.3471663314
 40
0.3778875795
 40
0.4390494448
 40
0.5000004662
 40
0.5609514801
 40
0.6221135157
 40
0.6528348125
 40
0.6836732211
 40
0.745754019
 40
0.8084361515
 40
0.8717323265
 40
0.9356126755
 40
1.0
 40
1.0
 40
1.0
 40
1.0
 10
12.2740799233
 20
7.058447587
 30
0.0
 10
12.275462281
 20
7.0551329064
 30
0.0
 10
12.2781471211
 20
7.0485004139
 30
0.0
 10
12.2818747601
 20
7.0384848539
 30
0.0
 10
12.2852098626
 20
7.0284308223
 30
0.0
 10
12.288072096
 20
7.0183354292
 30
0.0
 10
12.2900113427
 20
7.0098708476
 30
0.0
 10
12.2912558053
 20
7.0030866806
 30
0.0
 10
12.2922813045
 20
6.9963178701
 30
0.0
 10
12.293152245
 20
6.9878311462
 30
0.0
 10
12.2935100569
 20
6.9776185114
 30
0.0
 10
12.2931520467
 20
6.9674058662
 30
0.0
 10
12.2922807569
 20
6.9589191736
 30
0.0
 10
12.2912554308
 20
6.9521503313
 30
0.0
 10
12.2900111126
 20
6.9453661555
 30
0.0
 10
12.2880718857
 20
6.9369016004
 30
0.0
 10
12.2852097134
 20
6.9268062268
 30
0.0
 10
12.2818746791
 20
6.916752201
 30
0.0
 10
12.2781470207
 20
6.9067366819
 30
0.0
 10
12.2754622273
 20
6.9001041992
 30
0.0
 10
12.2740799233
 20
6.8967895116
 30
0.0
  0
SPLINE
  5
3F4
100
AcDbEntity
  8
0
100
AcDbSpline
 62
9
  6
CONTINUOUS
 70
0
 71
3
 72
16
 73
12
 74
0
 42
0.0000001
 43
0.0000001
 44
0.0000000001
 40
0.0
 40
0.0
 40
0.0
 40
0.0
 40
0.1517224353
 40
0.3008137938
 40
0.4443096489
 40
0.5797505272
 40
0.7048147999
 40
0.8174620686
 40
0.9161875479
 40
0.9600031763
 40
1.0
 40
1.0
 40
1.0
 40
1.0
 10
10.6347510018
 20
4.8701319825
 30
0.0
 10
10.6347510018
 20
4.871077803
 30
0.0
 10
10.634791458
 20
4.8729532978
 30
0.0
 10
10.6349718257
 20
4.8757180739
 30
0.0
 10
10.6352687016
 20
4.8783708491
 30
0.0
 10
10.635675676
 20
4.8808574457
 30
0.0
 10
10.6361836822
 20
4.8831291352
 30
0.0
 10
10.6367827491
 20
4.8851409501
 30
0.0
 10
10.6373687393
 20
4.8866234053
 30
0.0
 10
10.6378822814
 20
4.8876396189
 30
0.0
 10
10.6381505518
 20
4.8880887198
 30
0.0
 10
10.6382879009
 20
4.8882968147
 30
0.0
  0
SPLINE
  5
3F5
100
AcDbEntity
  8
0
100
AcDbSpline
 62
9
  6
CONTINUOUS
 70
0
 71
3
 72
27
 73
23
 74
0
 42
0.0000001
 43
0.0000001
 44
0.0000000001
 40
0.0
 40
0.0
 40
0.0
 40
0.0
 40
0.227477361
 40
0.4278557763
 40
0.5998634594
 40
0.674877482
 40
0.7423877784
 40
0.8022659797
 40
0.8544038942
 40
0.8987004218
 40
0.9350652165
 40
0.9502517812
 40
0.9634302177
 40
0.9745923464
 40
0.9837315878
 40
0.9908447446
 40
0.9936406756
 40
0.9959290466
 40
0.9977095111
 40
0.9989817226
 40
0.9997453344
 40
1.0
 40
1.0
 40
1.0
 40
1.0
 10
9.8314205368
 20
5.8748795352
 30
0.0
 10
9.8304606384
 20
5.8717042604
 30
0.0
 10
9.828620939
 20
5.8657422626
 30
0.0
 10
9.8259507307
 20
5.8574120991
 30
0.0
 10
9.823899409
 20
5.8512186506
 30
0.0
 10
9.8224293031
 20
5.8468739506
 30
0.0
 10
9.8214726969
 20
5.8440817242
 30
0.0
 10
9.8206160122
 20
5.8416079083
 30
0.0
 10
9.8198636245
 20
5.8394562252
 30
0.0
 10
9.8192196463
 20
5.8376298855
 30
0.0
 10
9.8187521197
 20
5.8363126923
 30
0.0
 10
9.8184350755
 20
5.8354236056
 30
0.0
 10
9.8182410326
 20
5.8348808438
 30
0.0
 10
9.8180763868
 20
5.8344212235
 30
0.0
 10
9.8179414038
 20
5.8340449288
 30
0.0
 10
9.8178475267
 20
5.8337834997
 30
0.0
 10
9.817787317
 20
5.8336161317
 30
0.0
 10
9.8177534842
 20
5.8335219142
 30
0.0
 10
9.8177269511
 20
5.8334486933
 30
0.0
 10
9.8177084268
 20
5.8333962
 30
0.0
 10
9.8176965057
 20
5.8333650175
 30
0.0
 10
9.8176920819
 20
5.8333508017
 30
0.0
 10
9.8176905688
 20
5.8333474103
 30
0.0
  0
SPLINE
  5
3F6
100
AcDbEntity
  8
0
100
AcDbSpline
 62
9
  6
CONTINUOUS
 70
0
 71
3
 72
16
 73
12
 74
0
 42
0.0000001
 43
0.0000001
 44
0.0000000001
 40
0.0
 40
0.0
 40
0.0
 40
0.0
 40
0.1517224354
 40
0.3008137939
 40
0.444309649
 40
0.5797505272
 40
0.7048148
 40
0.8174620686
 40
0.9161875479
 40
0.9600031763
 40
1.0
 40
1.0
 40
1.0
 40
1.0
 10
11.2356336837
 20
4.8701319825
 30
0.0
 10
11.2356336837
 20
4.871077803
 30
0.0
 10
11.2355932275
 20
4.8729532978
 30
0.0
 10
11.2354128598
 20
4.8757180739
 30
0.0
 10
11.2351159839
 20
4.8783708491
 30
0.0
 10
11.2347090095
 20
4.8808574457
 30
0.0
 10
11.2342010032
 20
4.8831291352
 30
0.0
 10
11.2336019364
 20
4.8851409501
 30
0.0
 10
11.2330159462
 20
4.8866234053
 30
0.0
 10
11.2325024041
 20
4.8876396189
 30
0.0
 10
11.2322341337
 20
4.8880887198
 30
0.0
 10
11.2320967845
 20
4.8882968147
 30
0.0
  0
SPLINE
  5
3F7
100
AcDbEntity
  8
0
100
AcDbSpline
 62
9
  6
CONTINUOUS
 70
0
 71
3
 72
14
 73
10
 74
0
 42
0.0000001
 43
0.0000001
 44
0.0000000001
 40
0.0
 40
0.0
 40
0.0
 40
0.0
 40
0.0901338806
 40
0.193250577
 40
0.3081078063
 40
0.4332530971
 40
0.5669670299
 40
0.7073459878
 40
1.0
 40
1.0
 40
1.0
 40
1.0
 10
9.5951923427
 20
6.7029635914
 30
0.0
 10
9.5956778491
 20
6.7031011372
 30
0.0
 10
9.5967336289
 20
6.703344027
 30
0.0
 10
9.5984380704
 20
6.7036148459
 30
0.0
 10
9.6003496366
 20
6.7038126699
 30
0.0
 10
9.6024389318
 20
6.7039342086
 30
0.0
 10
9.6046741832
 20
6.7039772069
 30
0.0
 10
9.6078471559
 20
6.7039279149
 30
0.0
 10
9.6102685982
 20
6.7037730827
 30
0.0
 10
9.6118999315
 20
6.7036208408
 30
0.0
  0
SPLINE
  5
3F8
100
AcDbEntity
  8
0
100
AcDbSpline
 62
9
  6
CONTINUOUS
 70
0
 71
3
 72
12
 73
8
 74
0
 42
0.0000001
 43
0.0000001
 44
0.0000000001
 40
0.0
 40
0.0
 40
0.0
 40
0.0
 40
0.2301663161
 40
0.3519795729
 40
0.4775084789
 40
0.7363755309
 40
1.0
 40
1.0
 40
1.0
 40
1.0
 10
9.5951923427
 20
6.0899025104
 30
0.0
 10
9.5961261777
 20
6.0887995213
 30
0.0
 10
9.5977815226
 20
6.0872957438
 30
0.0
 10
9.6002935036
 20
6.0856538618
 30
0.0
 10
9.6031204362
 20
6.0841892778
 30
0.0
 10
9.60698777
 20
6.0828493701
 30
0.0
 10
9.6102483298
 20
6.0823380028
 30
0.0
 10
9.6118999315
 20
6.0822275118
 30
0.0
  0
SPLINE
  5
3F9
100
AcDbEntity
  8
0
100
AcDbSpline
 62
9
  6
CONTINUOUS
 70
0
 71
3
 72
13
 73
9
 74
0
 42
0.0000001
 43
0.0000001
 44
0.0000000001
 40
0.0
 40
0.0
 40
0.0
 40
0.0
 40
0.1174378016
 40
0.2368132879
 40
0.358324629
 40
0.4822247933
 40
0.7368328945
 40
1.0
 40
1.0
 40
1.0
 40
1.0
 10
9.5854140333
 20
5.8804250189
 30
0.0
 10
9.5858678698
 20
5.8799145295
 30
0.0
 10
9.5868547117
 20
5.8789466522
 30
0.0
 10
9.5885256145
 20
5.877691806
 30
0.0
 10
9.590375495
 20
5.876641015
 30
0.0
 10
9.593066632
 20
5.8755220683
 30
0.0
 10
9.5967451589
 20
5.8747136109
 30
0.0
 10
9.5997823473
 20
5.874720808
 30
0.0
 10
9.6013047622
 20
5.8748795352
 30
0.0
  0
SPLINE
  5
3FA
100
AcDbEntity
  8
0
100
AcDbSpline
 62
9
  6
CONTINUOUS
 70
0
 71
3
 72
14
 73
10
 74
0
 42
0.0000001
 43
0.0000001
 44
0.0000000001
 40
0.0
 40
0.0
 40
0.0
 40
0.0
 40
0.1386092277
 40
0.2758320288
 40
0.4099885721
 40
0.5398748783
 40
0.664425415
 40
0.7828716273
 40
1.0
 40
1.0
 40
1.0
 40
1.0
 10
11.6000847015
 20
4.8701319825
 30
0.0
 10
11.6000847015
 20
4.8710786709
 30
0.0
 10
11.5999944023
 20
4.8729638242
 30
0.0
 10
11.599592161
 20
4.8757392316
 30
0.0
 10
11.5989293747
 20
4.878403584
 30
0.0
 10
11.5980199174
 20
4.8809021472
 30
0.0
 10
11.5968807477
 20
4.8831879721
 30
0.0
 10
11.5951402581
 20
4.8858084128
 30
0.0
 10
11.5934810343
 20
4.8874590734
 30
0.0
 10
11.5922573593
 20
4.8882968147
 30
0.0
  0
SPLINE
  5
3FB
100
AcDbEntity
  8
0
100
AcDbSpline
 62
9
  6
CONTINUOUS
 70
0
 71
3
 72
13
 73
9
 74
0
 42
0.0000001
 43
0.0000001
 44
0.0000000001
 40
0.0
 40
0.0
 40
0.0
 40
0.0
 40
0.2563925615
 40
0.5114227959
 40
0.6370552224
 40
0.7605472627
 40
0.8816440212
 40
1.0
 40
1.0
 40
1.0
 40
1.0
 10
11.6155292959
 20
4.871358046
 30
0.0
 10
11.6154034158
 20
4.8732797055
 30
0.0
 10
11.6146655555
 20
4.877096129
 30
0.0
 10
11.6126085568
 20
4.8814749316
 30
0.0
 10
11.6103673652
 20
4.8845387582
 30
0.0
 10
11.6084373799
 20
4.8865530056
 30
0.0
 10
11.6062920876
 20
4.8882486492
 30
0.0
 10
11.6047297612
 20
4.8891550867
 30
0.0
 10
11.6039291084
 20
4.8895413988
 30
0.0
  0
SPLINE
  5
3FC
100
AcDbEntity
  8
0
100
AcDbSpline
 62
9
  6
CONTINUOUS
 70
0
 71
3
 72
15
 73
11
 74
0
 42
0.0000001
 43
0.0000001
 44
0.0000000001
 40
0.0
 40
0.0
 40
0.0
 40
0.0
 40
0.1258872633
 40
0.2517847131
 40
0.3773818683
 40
0.5026793591
 40
0.6276067795
 40
0.7521216867
 40
0.8763094256
 40
1.0
 40
1.0
 40
1.0
 40
1.0
 10
11.9005260425
 20
4.8701319825
 30
0.0
 10
11.9005260425
 20
4.8710798777
 30
0.0
 10
11.9003933969
 20
4.8729783333
 30
0.0
 10
11.8998034728
 20
4.8757669457
 30
0.0
 10
11.8988318986
 20
4.8784425763
 30
0.0
 10
11.8974990831
 20
4.8809494014
 30
0.0
 10
11.8958329896
 20
4.8832382794
 30
0.0
 10
11.8938652683
 20
4.8852625118
 30
0.0
 10
11.8916368433
 20
4.8869794415
 30
0.0
 10
11.8900041995
 20
4.8878995909
 30
0.0
 10
11.8891618011
 20
4.8882968147
 30
0.0
  0
SPLINE
  5
3FD
100
AcDbEntity
  8
0
100
AcDbSpline
 62
9
  6
CONTINUOUS
 70
0
 71
3
 72
13
 73
9
 74
0
 42
0.0000001
 43
0.0000001
 44
0.0000000001
 40
0.0
 40
0.0
 40
0.0
 40
0.0
 40
0.1230360253
 40
0.2465839844
 40
0.3706789869
 40
0.4954373207
 40
0.7464923809
 40
1.0
 40
1.0
 40
1.0
 40
1.0
 10
9.5951923427
 20
7.0797246421
 30
0.0
 10
9.5956418732
 20
7.0803829539
 30
0.0
 10
9.5966296118
 20
7.0816453226
 30
0.0
 10
9.5983440462
 20
7.0833359852
 30
0.0
 10
9.6002689509
 20
7.0848019564
 30
0.0
 10
9.603078048
 20
7.0864289101
 30
0.0
 10
9.6069663529
 20
7.0877939809
 30
0.0
 10
9.6102580246
 20
7.0881002763
 30
0.0
 10
9.6118999315
 20
7.08805689
 30
0.0
  0
SPLINE
  5
3FE
100
AcDbEntity
  8
0
100
AcDbSpline
 62
9
  6
CONTINUOUS
 70
0
 71
3
 72
11
 73
7
 74
0
 42
0.0000001
 43
0.0000001
 44
0.0000000001
 40
0.0
 40
0.0
 40
0.0
 40
0.0
 40
0.2255551308
 40
0.4672925336
 40
0.7254947956
 40
1.0
 40
1.0
 40
1.0
 40
1.0
 10
12.2899706522
 20
6.8879304532
 30
0.0
 10
12.2887967873
 20
6.8847048545
 30
0.0
 10
12.2866491994
 20
6.8779171474
 30
0.0
 10
12.2840249405
 20
6.8671867
 30
0.0
 10
12.2818479471
 20
6.8555989902
 30
0.0
 10
12.2807060918
 20
6.8475703926
 30
0.0
 10
12.2801923427
 20
6.8434246118
 30
0.0
  0
SPLINE
  5
3FF
100
AcDbEntity
  8
0
100
AcDbSpline
 62
9
  6
CONTINUOUS
 70
0
 71
3
 72
11
 73
7
 74
0
 42
0.0000001
 43
0.0000001
 44
0.0000000001
 40
0.0
 40
0.0
 40
0.0
 40
0.0
 40
0.2464538345
 40
0.49585945
 40
0.7473341777
 40
1.0
 40
1.0
 40
1.0
 40
1.0
 10
12.2801923427
 20
6.7029635914
 30
0.0
 10
12.2807249387
 20
6.6970709174
 30
0.0
 10
12.2819200461
 20
6.685225756
 30
0.0
 10
12.2841140157
 20
6.6674173707
 30
0.0
 10
12.2867557634
 20
6.6495188774
 30
0.0
 10
12.2888388091
 20
6.6375945053
 30
0.0
 10
12.2899706522
 20
6.6316352111
 30
0.0
  0
SPLINE
  5
400
100
AcDbEntity
  8
0
100
AcDbSpline
 62
9
  6
CONTINUOUS
 70
0
 71
3
 72
15
 73
11
 74
0
 42
0.0000001
 43
0.0000001
 44
0.0000000001
 40
0.0
 40
0.0
 40
0.0
 40
0.0
 40
0.1249844084
 40
0.2499822696
 40
0.3749889126
 40
0.5000000103
 40
0.6250111078
 40
0.7500177472
 40
0.8750156129
 40
1.0
 40
1.0
 40
1.0
 40
1.0
 10
12.2899706522
 20
6.6316352111
 30
0.0
 10
12.2925542556
 20
6.6180324472
 30
0.0
 10
12.2974107032
 20
6.5907636804
 30
0.0
 10
12.3031903063
 20
6.5496131028
 30
0.0
 10
12.3069286303
 20
6.5082159333
 30
0.0
 10
12.3082250981
 20
6.4666635535
 30
0.0
 10
12.3069287371
 20
6.4251111695
 30
0.0
 10
12.3031904098
 20
6.3837139977
 30
0.0
 10
12.2974106981
 20
6.3425634374
 30
0.0
 10
12.2925542354
 20
6.3152946764
 30
0.0
 10
12.2899706522
 20
6.301691911
 30
0.0
  0
SPLINE
  5
401
100
AcDbEntity
  8
0
100
AcDbSpline
 62
9
  6
CONTINUOUS
 70
0
 71
3
 72
14
 73
10
 74
0
 42
0.0000001
 43
0.0000001
 44
0.0000000001
 40
0.0
 40
0.0
 40
0.0
 40
0.0
 40
0.1171561834
 40
0.2362151112
 40
0.3575171317
 40
0.4813517757
 40
0.6077631325
 40
0.7366143247
 40
1.0
 40
1.0
 40
1.0
 40
1.0
 10
9.8486294643
 20
5.8823191227
 30
0.0
 10
9.8482003265
 20
5.8816844253
 30
0.0
 10
9.8472357018
 20
5.880469104
 30
0.0
 10
9.845522943
 20
5.8788661813
 30
0.0
 10
9.8435639057
 20
5.8774978392
 30
0.0
 10
9.8413945603
 20
5.8763876404
 30
0.0
 10
9.8390518552
 20
5.8755545116
 30
0.0
 10
9.835732804
 20
5.8748260573
 30
0.0
 10
9.8331373905
 20
5.8747408328
 30
0.0
 10
9.8314205368
 20
5.8748795352
 30
0.0
  0
SPLINE
  5
402
100
AcDbEntity
  8
0
100
AcDbSpline
 62
9
  6
CONTINUOUS
 70
0
 71
3
 72
11
 73
7
 74
0
 42
0.0000001
 43
0.0000001
 44
0.0000000001
 40
0.0
 40
0.0
 40
0.0
 40
0.0
 40
0.2417362232
 40
0.4915143666
 40
0.7457924579
 40
1.0
 40
1.0
 40
1.0
 40
1.0
 10
9.8486294643
 20
6.0467577586
 30
0.0
 10
9.8477610455
 20
6.045333046
 30
0.0
 10
9.8456006156
 20
6.0426624207
 30
0.0
 10
9.8414632943
 20
6.0395246637
 30
0.0
 10
9.8366469211
 20
6.0373690125
 30
0.0
 10
9.8331694381
 20
6.0366789013
 30
0.0
 10
9.8314205368
 20
6.0365376105
 30
0.0
  0
SPLINE
  5
403
100
AcDbEntity
  8
0
100
AcDbSpline
 62
9
  6
CONTINUOUS
 70
0
 71
3
 72
11
 73
7
 74
0
 42
0.0000001
 43
0.0000001
 44
0.0000000001
 40
0.0
 40
0.0
 40
0.0
 40
0.0
 40
0.2417362086
 40
0.4915143536
 40
0.7457924552
 40
1.0
 40
1.0
 40
1.0
 40
1.0
 10
9.8486294643
 20
6.8865693635
 30
0.0
 10
9.8477610454
 20
6.8879940759
 30
0.0
 10
9.8456006152
 20
6.8906647007
 30
0.0
 10
9.8414632938
 20
6.8938024571
 30
0.0
 10
9.8366469207
 20
6.8959581084
 30
0.0
 10
9.833169438
 20
6.8966482203
 30
0.0
 10
9.8314205368
 20
6.8967895116
 30
0.0
  0
SPLINE
  5
404
100
AcDbEntity
  8
0
100
AcDbSpline
 62
9
  6
CONTINUOUS
 70
0
 71
3
 72
12
 73
8
 74
0
 42
0.0000001
 43
0.0000001
 44
0.0000000001
 40
0.0
 40
0.0
 40
0.0
 40
0.0
 40
0.2449438403
 40
0.369924767
 40
0.4959368044
 40
0.7488135279
 40
1.0
 40
1.0
 40
1.0
 40
1.0
 10
9.5854140333
 20
6.8879304532
 30
0.0
 10
9.5863290331
 20
6.889150477
 30
0.0
 10
9.5879235744
 20
6.8908442184
 30
0.0
 10
9.5903643864
 20
6.8927410913
 30
0.0
 10
9.59302865
 20
6.8944069756
 30
0.0
 10
9.5966539232
 20
6.8959749473
 30
0.0
 10
9.5997493078
 20
6.8966273397
 30
0.0
 10
9.6013047622
 20
6.8967895116
 30
0.0
  0
SPLINE
  5
405
100
AcDbEntity
  8
0
100
AcDbSpline
 62
9
  6
CONTINUOUS
 70
0
 71
3
 72
11
 73
7
 74
0
 42
0.0000001
 43
0.0000001
 44
0.0000000001
 40
0.0
 40
0.0
 40
0.0
 40
0.0
 40
0.2526658662
 40
0.504140587
 40
0.7535461313
 40
1.0
 40
1.0
 40
1.0
 40
1.0
 10
12.2899706522
 20
6.301691911
 30
0.0
 10
12.2888387927
 20
6.2957326188
 30
0.0
 10
12.2867557405
 20
6.2838082465
 30
0.0
 10
12.2841140139
 20
6.2659097508
 30
0.0
 10
12.2819200602
 20
6.2481013647
 30
0.0
 10
12.2807249464
 20
6.2362562049
 30
0.0
 10
12.2801923427
 20
6.2303635307
 30
0.0
  0
SPLINE
  5
406
100
AcDbEntity
  8
0
100
AcDbSpline
 62
9
  6
CONTINUOUS
 70
0
 71
3
 72
14
 73
10
 74
0
 42
0.0000001
 43
0.0000001
 44
0.0000000001
 40
0.0
 40
0.0
 40
0.0
 40
0.0
 40
0.1171561602
 40
0.2362150713
 40
0.3575170823
 40
0.4813517246
 40
0.607763087
 40
0.7366142908
 40
1.0
 40
1.0
 40
1.0
 40
1.0
 10
9.8486294643
 20
7.0510079995
 30
0.0
 10
9.8482003266
 20
7.0516426966
 30
0.0
 10
9.8472357019
 20
7.0528580177
 30
0.0
 10
9.8455229432
 20
7.0544609398
 30
0.0
 10
9.843563906
 20
7.0558292816
 30
0.0
 10
9.8413945608
 20
7.0569394802
 30
0.0
 10
9.8390518556
 20
7.0577726091
 30
0.0
 10
9.8357328043
 20
7.0585010637
 30
0.0
 10
9.8331373907
 20
7.0585862887
 30
0.0
 10
9.8314205368
 20
7.058447587
 30
0.0
  0
LINE
  5
407
100
AcDbEntity
  8
0
100
AcDbLine
 62
9
  6
CONTINUOUS
 10
9.6158971765
 20
5.8333474103
 11
9.6118999315
 21
5.8452702321
  0
LINE
  5
408
100
AcDbEntity
  8
0
100
AcDbLine
 62
9
  6
CONTINUOUS
 10
9.599478001
 20
5.841927841
 11
9.597273056
 21
5.8478679977
  0
LINE
  5
409
100
AcDbEntity
  8
0
100
AcDbLine
 62
9
  6
CONTINUOUS
 10
9.597273056
 20
5.8478679977
 11
9.5969515244
 21
5.848745766
  0
SPLINE
  5
40A
100
AcDbEntity
  8
0
100
AcDbSpline
 62
9
  6
CONTINUOUS
 70
0
 71
3
 72
17
 73
13
 74
0
 42
0.0000001
 43
0.0000001
 44
0.0000000001
 40
0.0
 40
0.0
 40
0.0
 40
0.0
 40
0.1249504291
 40
0.1874655678
 40
0.249976601
 40
0.3124949538
 40
0.3750127379
 40
0.5000038245
 40
0.6250025491
 40
0.7499983806
 40
0.875005988
 40
1.0
 40
1.0
 40
1.0
 40
1.0
 10
8.8151923427
 20
7.1261143612
 30
0.0
 10
8.818324965
 20
7.1261143668
 30
0.0
 10
8.8230330925
 20
7.1264636538
 30
0.0
 10
8.8292045185
 20
7.1275717928
 30
0.0
 10
8.833769589
 20
7.1287136458
 30
0.0
 10
8.83825122
 20
7.1301459801
 30
0.0
 10
8.8441011403
 20
7.1324064952
 30
0.0
 10
8.8511648714
 20
7.1358308592
 30
0.0
 10
8.85921453
 20
7.1407082418
 30
0.0
 10
8.8668587916
 20
7.1461952697
 30
0.0
 10
8.8741281949
 20
7.1521655622
 30
0.0
 10
8.8787498772
 20
7.156403822
 30
0.0
 10
8.8810102734
 20
7.1585742547
 30
0.0
  0
SPLINE
  5
40B
100
AcDbEntity
  8
0
100
AcDbSpline
 62
9
  6
CONTINUOUS
 70
0
 71
3
 72
16
 73
12
 74
0
 42
0.0000001
 43
0.0000001
 44
0.0000000001
 40
0.0
 40
0.0
 40
0.0
 40
0.0
 40
0.1250004729
 40
0.2500145681
 40
0.3750170479
 40
0.5000223359
 40
0.6250203927
 40
0.7500082655
 40
0.812523352
 40
0.8750423763
 40
1.0
 40
1.0
 40
1.0
 40
1.0
 10
8.749374412
 20
7.1585742547
 30
0.0
 10
8.7516348027
 20
7.1564038263
 30
0.0
 10
8.7562564841
 20
7.1521656033
 30
0.0
 10
8.7635258276
 20
7.1461951875
 30
0.0
 10
8.7711698273
 20
7.1407081354
 30
0.0
 10
8.7792203126
 20
7.1358306992
 30
0.0
 10
8.7876934569
 20
7.1317231043
 30
0.0
 10
8.795095176
 20
7.1290940351
 30
0.0
 10
8.801180015
 20
7.1275714706
 30
0.0
 10
8.8073515021
 20
7.1264624677
 30
0.0
 10
8.812059709
 20
7.1261143791
 30
0.0
 10
8.8151923427
 20
7.1261143612
 30
0.0
  0
SPLINE
  5
40C
100
AcDbEntity
  8
0
100
AcDbSpline
 62
9
  6
CONTINUOUS
 70
0
 71
3
 72
32
 73
28
 74
0
 42
0.0000001
 43
0.0000001
 44
0.0000000001
 40
0.0
 40
0.0
 40
0.0
 40
0.0
 40
0.0749314014
 40
0.1472490916
 40
0.2163828225
 40
0.2495734253
 40
0.2817353829
 40
0.3127930164
 40
0.3426938643
 40
0.3713994182
 40
0.3989259533
 40
0.425351109
 40
0.4508332096
 40
0.4756186632
 40
0.5000313767
 40
0.5244442814
 40
0.549230705
 40
0.5747135472
 40
0.601135022
 40
0.6573076396
 40
0.6872126711
 40
0.7182698157
 40
0.7504262137
 40
0.7836134027
 40
0.8527534607
 40
0.9250723168
 40
1.0
 40
1.0
 40
1.0
 40
1.0
 10
8.9849333219
 20
7.1585742547
 30
0.0
 10
8.986046482
 20
7.1564366132
 30
0.0
 10
8.9883113701
 20
7.1522752215
 30
0.0
 10
8.9919256477
 20
7.1463241141
 30
0.0
 10
8.9951309532
 20
7.1417046277
 30
0.0
 10
8.9978115761
 20
7.1383080612
 30
0.0
 10
8.9998464365
 20
7.1359663273
 30
0.0
 10
9.0019340491
 20
7.133816123
 30
0.0
 10
9.0040741074
 20
7.1318793905
 30
0.0
 10
9.0062657511
 20
7.1301796187
 30
0.0
 10
9.0085072878
 20
7.1287424568
 30
0.0
 10
9.0107936263
 20
7.1275903914
 30
0.0
 10
9.0131188765
 20
7.126747691
 30
0.0
 10
9.0154726735
 20
7.1262317102
 30
0.0
 10
9.0178423674
 20
7.1260590736
 30
0.0
 10
9.0202120941
 20
7.1262321605
 30
0.0
 10
9.0225657057
 20
7.1267491802
 30
0.0
 10
9.0248908411
 20
7.12759207
 30
0.0
 10
9.0280020263
 20
7.1291575746
 30
0.0
 10
9.0309568169
 20
7.1312869489
 30
0.0
 10
9.0337499517
 20
7.1338167538
 30
0.0
 10
9.035838081
 20
7.1359669645
 30
0.0
 10
9.0378733196
 20
7.1383078018
 30
0.0
 10
9.0405543553
 20
7.1417040167
 30
0.0
 10
9.0437583739
 20
7.1463245549
 30
0.0
 10
9.0473728121
 20
7.1522756506
 30
0.0
 10
9.0496382571
 20
7.1564366623
 30
0.0
 10
9.0507512526
 20
7.1585742547
 30
0.0
  0
SPLINE
  5
40D
100
AcDbEntity
  8
0
100
AcDbSpline
 62
9
  6
CONTINUOUS
 70
0
 71
3
 72
11
 73
7
 74
0
 42
0.0000001
 43
0.0000001
 44
0.0000000001
 40
0.0
 40
0.0
 40
0.0
 40
0.0
 40
0.2745052092
 40
0.532707466
 40
0.7744448653
 40
1.0
 40
1.0
 40
1.0
 40
1.0
 10
12.2801923427
 20
6.0899025104
 30
0.0
 10
12.2807060917
 20
6.0857567295
 30
0.0
 10
12.2818479468
 20
6.0777281318
 30
0.0
 10
12.2840249406
 20
6.0661404222
 30
0.0
 10
12.2866491998
 20
6.0554099749
 30
0.0
 10
12.2887967876
 20
6.0486222678
 30
0.0
 10
12.2899706522
 20
6.045396669
 30
0.0
  0
SPLINE
  5
40E
100
AcDbEntity
  8
0
100
AcDbSpline
 62
9
  6
CONTINUOUS
 70
0
 71
3
 72
20
 73
16
 74
0
 42
0.0000001
 43
0.0000001
 44
0.0000000001
 40
0.0
 40
0.0
 40
0.0
 40
0.0
 40
0.0664519823
 40
0.1322207656
 40
0.1972284795
 40
0.2614286636
 40
0.3873987028
 40
0.4493467975
 40
0.5107583879
 40
0.571798175
 40
0.6326387308
 40
0.6934397764
 40
0.7543346689
 40
0.8767030556
 40
1.0
 40
1.0
 40
1.0
 40
1.0
 10
12.2899706522
 20
6.045396669
 30
0.0
 10
12.2912563916
 20
6.0418637041
 30
0.0
 10
12.2937493313
 20
6.0348099306
 30
0.0
 10
12.2972031659
 20
6.0241979146
 30
0.0
 10
12.3002820916
 20
6.0136023054
 30
0.0
 10
12.3037764467
 20
5.9995923022
 30
0.0
 10
12.3062902352
 20
5.9855209009
 30
0.0
 10
12.3075747314
 20
5.971466071
 30
0.0
 10
12.3079009655
 20
5.9610316498
 30
0.0
 10
12.3075780555
 20
5.9506599312
 30
0.0
 10
12.3066229579
 20
5.9403622259
 30
0.0
 10
12.3050575405
 20
5.9301483631
 30
0.0
 10
12.3022181748
 20
5.9166289282
 30
0.0
 10
12.2973845813
 20
5.8999461132
 30
0.0
 10
12.2925460072
 20
5.8869079833
 30
0.0
 10
12.2899706522
 20
5.8804250189
 30
0.0
  0
SPLINE
  5
40F
100
AcDbEntity
  8
0
100
AcDbSpline
 62
9
  6
CONTINUOUS
 70
0
 71
3
 72
20
 73
16
 74
0
 42
0.0000001
 43
0.0000001
 44
0.0000000001
 40
0.0
 40
0.0
 40
0.0
 40
0.0
 40
0.1232956111
 40
0.2456667163
 40
0.3065638767
 40
0.3673660351
 40
0.4282053194
 40
0.4892423401
 40
0.5506510466
 40
0.6125978081
 40
0.7385704656
 40
0.8027720306
 40
0.8677802099
 40
0.9335484614
 40
1.0
 40
1.0
 40
1.0
 40
1.0
 10
12.2899706522
 20
7.0529021032
 30
0.0
 10
12.2925460418
 20
7.0464192341
 30
0.0
 10
12.2973843682
 20
7.0333809256
 30
0.0
 10
12.3022182146
 20
7.0166979935
 30
0.0
 10
12.3050581268
 20
7.0031783211
 30
0.0
 10
12.3066237584
 20
6.9929643645
 30
0.0
 10
12.3075786319
 20
6.9826667968
 30
0.0
 10
12.3079010026
 20
6.9722954496
 30
0.0
 10
12.3075741625
 20
6.9618614442
 30
0.0
 10
12.3062892123
 20
6.9478067637
 30
0.0
 10
12.3037761616
 20
6.9337351086
 30
0.0
 10
12.3002822584
 20
6.9197247227
 30
0.0
 10
12.2972034218
 20
6.9091290073
 30
0.0
 10
12.2937493608
 20
6.8985170935
 30
0.0
 10
12.2912563444
 20
6.8914634083
 30
0.0
 10
12.2899706522
 20
6.8879304532
 30
0.0
  0
SPLINE
  5
410
100
AcDbEntity
  8
0
100
AcDbSpline
 62
9
  6
CONTINUOUS
 70
0
 71
3
 72
15
 73
11
 74
0
 42
0.0000001
 43
0.0000001
 44
0.0000000001
 40
0.0
 40
0.0
 40
0.0
 40
0.0
 40
0.1263438044
 40
0.2515284571
 40
0.3759512256
 40
0.4999999996
 40
0.6240487736
 40
0.7484715419
 40
0.873656195
 40
1.0
 40
1.0
 40
1.0
 40
1.0
 10
9.9787412827
 20
4.6799690761
 30
0.0
 10
9.9901108316
 20
4.6769899843
 30
0.0
 10
10.0129486984
 20
4.671805261
 30
0.0
 10
10.0475092665
 20
4.6662991674
 30
0.0
 10
10.0821381988
 20
4.6630221846
 30
0.0
 10
10.1167983362
 20
4.6619414956
 30
0.0
 10
10.1514584736
 20
4.6630221834
 30
0.0
 10
10.1860874059
 20
4.6662991657
 30
0.0
 10
10.220647974
 20
4.6718052601
 30
0.0
 10
10.2434858407
 20
4.6769899841
 30
0.0
 10
10.2548553896
 20
4.6799690761
 30
0.0
  0
LINE
  5
411
100
AcDbEntity
  8
0
100
AcDbLine
 62
9
  6
CONTINUOUS
 10
12.8106244155
 20
7.1661275778
 11
12.8220716124
 21
7.1458820685
  0
LINE
  5
412
100
AcDbEntity
  8
0
100
AcDbLine
 62
9
  6
CONTINUOUS
 10
12.2784342086
 20
5.8487483122
 11
12.2759066845
 21
5.841927841
  0
SPLINE
  5
413
100
AcDbEntity
  8
0
100
AcDbSpline
 62
9
  6
CONTINUOUS
 70
0
 71
3
 72
26
 73
22
 74
0
 42
0.0000001
 43
0.0000001
 44
0.0000000001
 40
0.0
 40
0.0
 40
0.0
 40
0.0
 40
0.0002573575
 40
0.0010274748
 40
0.0023097754
 40
0.0041036827
 40
0.0092240119
 40
0.016383853
 40
0.0255785981
 40
0.0368032924
 40
0.0500506404
 40
0.0653123903
 40
0.1018461152
 40
0.1463337833
 40
0.1986697179
 40
0.2587330134
 40
0.3263958412
 40
0.4015128471
 40
0.5735120592
 40
0.7734790526
 40
1.0
 40
1.0
 40
1.0
 40
1.0
 10
12.0415413406
 20
5.8415538603
 30
0.0
 10
12.0415397826
 20
5.8415572388
 30
0.0
 10
12.0415347627
 20
5.8415712416
 30
0.0
 10
12.0415220345
 20
5.8416021011
 30
0.0
 10
12.0415018256
 20
5.8416539119
 30
0.0
 10
12.0414581161
 20
5.8417640437
 30
0.0
 10
12.0413835191
 20
5.8419533408
 30
0.0
 10
12.0412696287
 20
5.8422421457
 30
0.0
 10
12.0411236602
 20
5.8426131645
 30
0.0
 10
12.0409456877
 20
5.843066161
 30
0.0
 10
12.0407360545
 20
5.8436009525
 30
0.0
 10
12.0403936618
 20
5.8444766887
 30
0.0
 10
12.0398888391
 20
5.8457738342
 30
0.0
 10
12.039193482
 20
5.8475719443
 30
0.0
 10
12.0383812945
 20
5.8496895706
 30
0.0
 10
12.0374569534
 20
5.8521229968
 30
0.0
 10
12.0364254546
 20
5.8548679952
 30
0.0
 10
12.0348420538
 20
5.8591342447
 30
0.0
 10
12.0326348644
 20
5.8652090562
 30
0.0
 10
12.0297642259
 20
5.8733711439
 30
0.0
 10
12.027786533
 20
5.8792110632
 30
0.0
 10
12.0267552212
 20
5.8823191227
 30
0.0
  0
SPLINE
  5
414
100
AcDbEntity
  8
0
100
AcDbSpline
 62
9
  6
CONTINUOUS
 70
0
 71
3
 72
19
 73
15
 74
0
 42
0.0000001
 43
0.0000001
 44
0.0000000001
 40
0.0
 40
0.0
 40
0.0
 40
0.0
 40
0.1299820605
 40
0.2573117763
 40
0.3202339695
 40
0.3827486736
 40
0.4449169438
 40
0.5067955409
 40
0.5684412959
 40
0.6299143131
 40
0.69128388
 40
0.7526304713
 40
0.8756352204
 40
1.0
 40
1.0
 40
1.0
 40
1.0
 10
12.0267552212
 20
5.8823191227
 30
0.0
 10
12.0244748558
 20
5.8891915126
 30
0.0
 10
12.0206236749
 20
5.9030236973
 30
0.0
 10
12.0173476142
 20
5.9205796016
 30
0.0
 10
12.0155763306
 20
5.9345512615
 30
0.0
 10
12.0146469423
 20
5.9449631265
 30
0.0
 10
12.0140963833
 20
5.9553433797
 30
0.0
 10
12.0139128073
 20
5.9656881801
 30
0.0
 10
12.0140950215
 20
5.975994295
 30
0.0
 10
12.0146443119
 20
5.9862590282
 30
0.0
 10
12.0155725333
 20
5.9964800824
 30
0.0
 10
12.0173370368
 20
6.0100570447
 30
0.0
 10
12.0205995956
 20
6.026964167
 30
0.0
 10
12.024466943
 20
6.0402186519
 30
0.0
 10
12.0267552212
 20
6.0467577586
 30
0.0
  0
SPLINE
  5
415
100
AcDbEntity
  8
0
100
AcDbSpline
 62
9
  6
CONTINUOUS
 70
0
 71
3
 72
20
 73
16
 74
0
 42
0.0000001
 43
0.0000001
 44
0.0000000001
 40
0.0
 40
0.0
 40
0.0
 40
0.0
 40
0.0403098038
 40
0.0844305662
 40
0.1322635666
 40
0.1837008867
 40
0.2385940167
 40
0.2967651135
 40
0.3580071905
 40
0.422081336
 40
0.4887158133
 40
0.5576127677
 40
0.7008968105
 40
0.8492652516
 40
1.0
 40
1.0
 40
1.0
 40
1.0
 10
12.0267552212
 20
6.0467577586
 30
0.0
 10
12.0278994933
 20
6.0500280525
 30
0.0
 10
12.030087162
 20
6.0569520306
 30
0.0
 10
12.0329479212
 20
6.0679589095
 30
0.0
 10
12.03548083
 20
6.0800250305
 30
0.0
 10
12.037631997
 20
6.0931038697
 30
0.0
 10
12.039355985
 20
6.1071412961
 30
0.0
 10
12.0406146907
 20
6.1220736916
 30
0.0
 10
12.041378371
 20
6.1378294141
 30
0.0
 10
12.0416280007
 20
6.1543288785
 30
0.0
 10
12.0413578778
 20
6.171485799
 30
0.0
 10
12.0402990384
 20
6.1954298303
 30
0.0
 10
12.0377120346
 20
6.2263246053
 30
0.0
 10
12.0329593128
 20
6.2640582891
 30
0.0
 10
12.0289305309
 20
6.2894529075
 30
0.0
 10
12.0267552212
 20
6.3022249251
 30
0.0
  0
SPLINE
  5
416
100
AcDbEntity
  8
0
100
AcDbSpline
 62
9
  6
CONTINUOUS
 70
0
 71
3
 72
21
 73
17
 74
0
 42
0.0000001
 43
0.0000001
 44
0.0000000001
 40
0.0
 40
0.0
 40
0.0
 40
0.0
 40
0.1249878775
 40
0.1874879741
 40
0.2499888253
 40
0.312490898
 40
0.3749935888
 40
0.4374966765
 40
0.5000000059
 40
0.562503335
 40
0.6250064228
 40
0.6875091125
 40
0.7500111853
 40
0.8125120369
 40
0.8750121321
 40
1.0
 40
1.0
 40
1.0
 40
1.0
 10
12.0267552212
 20
6.3022249251
 30
0.0
 10
12.0244451709
 20
6.3157881589
 30
0.0
 10
12.0215427182
 20
6.3362334592
 30
0.0
 10
12.0186318826
 20
6.3635987543
 30
0.0
 10
12.0168939347
 20
6.3841673585
 30
0.0
 10
12.0155728179
 20
6.4047667369
 30
0.0
 10
12.0146449813
 20
6.4253877773
 30
0.0
 10
12.0140955814
 20
6.4460224003
 30
0.0
 10
12.0139128419
 20
6.4666635645
 30
0.0
 10
12.0140955704
 20
6.4873047288
 30
0.0
 10
12.0146449632
 20
6.5079393518
 30
0.0
 10
12.0155727966
 20
6.5285603923
 30
0.0
 10
12.0168939085
 20
6.5491597709
 30
0.0
 10
12.018631855
 20
6.5697283751
 30
0.0
 10
12.02154269
 20
6.5970936694
 30
0.0
 10
12.0244451744
 20
6.6175389637
 30
0.0
 10
12.0267552212
 20
6.631102197
 30
0.0
  0
SPLINE
  5
417
100
AcDbEntity
  8
0
100
AcDbSpline
 62
9
  6
CONTINUOUS
 70
0
 71
3
 72
32
 73
28
 74
0
 42
0.0000001
 43
0.0000001
 44
0.0000000001
 40
0.0
 40
0.0
 40
0.0
 40
0.0
 40
0.0749315515
 40
0.1472492425
 40
0.2163830073
 40
0.2495738836
 40
0.2817360725
 40
0.3127934685
 40
0.3426937017
 40
0.3713991603
 40
0.3989265008
 40
0.4253520757
 40
0.4508334938
 40
0.4756187384
 40
0.5000318052
 40
0.5244444895
 40
0.5492314483
 40
0.5747154046
 40
0.6011358726
 40
0.6573058142
 40
0.6872119152
 40
0.7182701938
 40
0.7504270915
 40
0.7836143438
 40
0.8527536631
 40
0.9250721963
 40
1.0
 40
1.0
 40
1.0
 40
1.0
 10
8.5796334329
 20
7.1585742547
 30
0.0
 10
8.5807465937
 20
7.15643661
 30
0.0
 10
8.5830114703
 20
7.1522752105
 30
0.0
 10
8.5866257495
 20
7.1463241016
 30
0.0
 10
8.5898310781
 20
7.1417046254
 30
0.0
 10
8.5925116767
 20
7.1383080223
 30
0.0
 10
8.5945465143
 20
7.1359662596
 30
0.0
 10
8.5966341295
 20
7.1338160858
 30
0.0
 10
8.5987742485
 20
7.1318794663
 30
0.0
 10
8.6009659348
 20
7.1301797557
 30
0.0
 10
8.6032073977
 20
7.1287424295
 30
0.0
 10
8.6054936669
 20
7.1275901697
 30
0.0
 10
8.6078190073
 20
7.1267477111
 30
0.0
 10
8.6101728383
 20
7.1262320714
 30
0.0
 10
8.6125424723
 20
7.1260590481
 30
0.0
 10
8.6149122785
 20
7.1262317953
 30
0.0
 10
8.6172658328
 20
7.1267494123
 30
0.0
 10
8.6195908004
 20
7.1275927166
 30
0.0
 10
8.6227021928
 20
7.1291575622
 30
0.0
 10
8.6256572066
 20
7.1312865846
 30
0.0
 10
8.6284501052
 20
7.1338166265
 30
0.0
 10
8.6305381771
 20
7.1359670072
 30
0.0
 10
8.6325733846
 20
7.1383079399
 30
0.0
 10
8.6352543969
 20
7.1417041599
 30
0.0
 10
8.6384585049
 20
7.1463245904
 30
0.0
 10
8.6420729463
 20
7.1522756474
 30
0.0
 10
8.6443383618
 20
7.1564366631
 30
0.0
 10
8.6454513636
 20
7.1585742547
 30
0.0
  0
SPLINE
  5
418
100
AcDbEntity
  8
0
100
AcDbSpline
 62
9
  6
CONTINUOUS
 70
0
 71
3
 72
44
 73
40
 74
0
 42
0.0000001
 43
0.0000001
 44
0.0000000001
 40
0.0
 40
0.0
 40
0.0
 40
0.0
 40
0.0902387876
 40
0.1798443519
 40
0.2682016001
 40
0.3547367692
 40
0.4388967001
 40
0.5201307641
 40
0.5978554014
 40
0.6714237793
 40
0.7400955977
 40
0.772333071
 40
0.8030143161
 40
0.8320119422
 40
0.8591917453
 40
0.8844123853
 40
0.907527991
 40
0.9283868673
 40
0.9468411966
 40
0.9551228328
 40
0.9627509679
 40
0.9697092149
 40
0.9759816187
 40
0.9815522101
 40
0.9864065039
 40
0.9905346254
 40
0.9923235621
 40
0.9939275843
 40
0.995345568
 40
0.9965764848
 40
0.9976196786
 40
0.9984745839
 40
0.9991406349
 40
0.9994026631
 40
0.9996172654
 40
0.999784371
 40
0.9999039092
 40
0.9999758091
 40
1.0
 40
1.0
 40
1.0
 40
1.0
 10
8.8151923427
 20
6.8731908437
 30
0.0
 10
8.8098065901
 20
6.8731908579
 30
0.0
 10
8.7990694667
 20
6.873550926
 30
0.0
 10
8.783130728
 20
6.8751393566
 30
0.0
 10
8.7675411656
 20
6.8776835221
 30
0.0
 10
8.7524425128
 20
6.88104695
 30
0.0
 10
8.7379484501
 20
6.8850693558
 30
0.0
 10
8.7241528989
 20
6.8895806642
 30
0.0
 10
8.7111391503
 20
6.8944104061
 30
0.0
 10
8.6989901475
 20
6.8993910559
 30
0.0
 10
8.6894705963
 20
6.9036152427
 30
0.0
 10
8.6823515354
 20
6.9069322599
 30
0.0
 10
8.6774045088
 20
6.9093035312
 30
0.0
 10
8.6727521547
 20
6.9115905374
 30
0.0
 10
8.6684116293
 20
6.913772655
 30
0.0
 10
8.6644012821
 20
6.9158295978
 30
0.0
 10
8.6607402697
 20
6.9177407397
 30
0.0
 10
8.6574480528
 20
6.9194855133
 30
0.0
 10
8.6549451769
 20
6.9208289432
 30
0.0
 10
8.6531417353
 20
6.9218057032
 30
0.0
 10
8.651943086
 20
6.9224584135
 30
0.0
 10
8.6508509762
 20
6.9230560164
 30
0.0
 10
8.6498675503
 20
6.9235964146
 30
0.0
 10
8.6489948526
 20
6.9240775705
 30
0.0
 10
8.6482346146
 20
6.924497637
 30
0.0
 10
8.6476722275
 20
6.9248090903
 30
0.0
 10
8.6472797189
 20
6.925026882
 30
0.0
 10
8.6470287237
 20
6.9251663339
 30
0.0
 10
8.6468069138
 20
6.9252897415
 30
0.0
 10
8.6466144258
 20
6.9253970037
 30
0.0
 10
8.6464513494
 20
6.9254880101
 30
0.0
 10
8.6463177768
 20
6.9255626941
 30
0.0
 10
8.6462249008
 20
6.9256146526
 30
0.0
 10
8.6461654523
 20
6.9256480506
 30
0.0
 10
8.6461318687
 20
6.9256667623
 30
0.0
 10
8.6461059927
 20
6.9256816547
 30
0.0
 10
8.6460868771
 20
6.9256916064
 30
0.0
 10
8.646076485
 20
6.9256988772
 30
0.0
 10
8.6460706408
 20
6.9257007106
 30
0.0
 10
8.6460697418
 20
6.9257018405
 30
0.0
  0
SPLINE
  5
419
100
AcDbEntity
  8
0
100
AcDbSpline
 62
9
  6
CONTINUOUS
 70
0
 71
3
 72
21
 73
17
 74
0
 42
0.0000001
 43
0.0000001
 44
0.0000000001
 40
0.0
 40
0.0
 40
0.0
 40
0.0
 40
0.1507329454
 40
0.2990999797
 40
0.3715516998
 40
0.4423922514
 40
0.5112889715
 40
0.5779225815
 40
0.6419958453
 40
0.7032380687
 40
0.7614089608
 40
0.816300637
 40
0.8677370257
 40
0.9155718667
 40
0.9596928396
 40
1.0
 40
1.0
 40
1.0
 40
1.0
 10
12.0267552212
 20
6.631102197
 30
0.0
 10
12.0289303944
 20
6.6438742134
 30
0.0
 10
12.0329583829
 20
6.6692684618
 30
0.0
 10
12.0369517892
 20
6.7009620005
 30
0.0
 10
12.0392954523
 20
6.7259230817
 30
0.0
 10
12.0405741087
 20
6.7441183223
 30
0.0
 10
12.0413580006
 20
6.7618413318
 30
0.0
 10
12.0416280183
 20
6.778998214
 30
0.0
 10
12.041378198
 20
6.7954977123
 30
0.0
 10
12.040614857
 20
6.8112535229
 30
0.0
 10
12.0393563661
 20
6.8261859645
 30
0.0
 10
12.0376319981
 20
6.8402232714
 30
0.0
 10
12.0354804617
 20
6.8533021248
 30
0.0
 10
12.0329484211
 20
6.8653686393
 30
0.0
 10
12.030088035
 20
6.8763757145
 30
0.0
 10
12.0278995405
 20
6.8832992898
 30
0.0
 10
12.0267552212
 20
6.8865693635
 30
0.0
  0
SPLINE
  5
41A
100
AcDbEntity
  8
0
100
AcDbSpline
 62
9
  6
CONTINUOUS
 70
0
 71
3
 72
19
 73
15
 74
0
 42
0.0000001
 43
0.0000001
 44
0.0000000001
 40
0.0
 40
0.0
 40
0.0
 40
0.0
 40
0.1243637843
 40
0.2473687313
 40
0.3087155372
 40
0.370085457
 40
0.4315587392
 40
0.4932043546
 40
0.5550828279
 40
0.6172514152
 40
0.6797665353
 40
0.742688923
 40
0.8700186038
 40
1.0
 40
1.0
 40
1.0
 40
1.0
 10
12.0267552212
 20
6.8865693635
 30
0.0
 10
12.0244670035
 20
6.8931084334
 30
0.0
 10
12.0205993622
 20
6.9063627843
 30
0.0
 10
12.0173369562
 20
6.9232699183
 30
0.0
 10
12.0155724714
 20
6.9368469251
 30
0.0
 10
12.0146442892
 20
6.9470680314
 30
0.0
 10
12.0140950358
 20
6.9573327937
 30
0.0
 10
12.0139127965
 20
6.9676389088
 30
0.0
 10
12.0140963514
 20
6.9779837144
 30
0.0
 10
12.0146469521
 20
6.9883640008
 30
0.0
 10
12.0155763729
 20
6.9987759155
 30
0.0
 10
12.0173476809
 20
7.0127476066
 30
0.0
 10
12.0206237547
 20
7.0303034782
 30
0.0
 10
12.0244748507
 20
7.0441356494
 30
0.0
 10
12.0267552212
 20
7.0510079995
 30
0.0
  0
SPLINE
  5
41B
100
AcDbEntity
  8
0
100
AcDbSpline
 62
9
  6
CONTINUOUS
 70
0
 71
3
 72
27
 73
23
 74
0
 42
0.0000001
 43
0.0000001
 44
0.0000000001
 40
0.0
 40
0.0
 40
0.0
 40
0.0
 40
0.2265209506
 40
0.426487568
 40
0.5984878352
 40
0.6736058654
 40
0.7412681962
 40
0.801328527
 40
0.8536624498
 40
0.8981540233
 40
0.9346985975
 40
0.9499657615
 40
0.9632168316
 40
0.9744422948
 40
0.9836343806
 40
0.9907893579
 40
0.9936019424
 40
0.9959040635
 40
0.9976953255
 40
0.9989753328
 40
0.9997436896
 40
1.0
 40
1.0
 40
1.0
 40
1.0
 10
12.0267552212
 20
7.0510079995
 30
0.0
 10
12.0277865322
 20
7.0541160592
 30
0.0
 10
12.0297642264
 20
7.0599559722
 30
0.0
 10
12.0326348603
 20
7.0681180717
 30
0.0
 10
12.0348420647
 20
7.074192904
 30
0.0
 10
12.0364254956
 20
7.0784591667
 30
0.0
 10
12.0374569817
 20
7.0812041321
 30
0.0
 10
12.0383812545
 20
7.0836374995
 30
0.0
 10
12.0391934036
 20
7.0857551239
 30
0.0
 10
12.0398888535
 20
7.0875533957
 30
0.0
 10
12.0403938981
 20
7.0888507677
 30
0.0
 10
12.0407364807
 20
7.0897267398
 30
0.0
 10
12.0409462123
 20
7.0902616465
 30
0.0
 10
12.0411241939
 20
7.0907146682
 30
0.0
 10
12.041270125
 20
7.0910855957
 30
0.0
 10
12.0413716213
 20
7.0913433117
 30
0.0
 10
12.0414367208
 20
7.0915083087
 30
0.0
 10
12.0414733044
 20
7.0916012034
 30
0.0
 10
12.0415019939
 20
7.0916733842
 30
0.0
 10
12.0415220295
 20
7.0917251683
 30
0.0
 10
12.0415349151
 20
7.0917558706
 30
0.0
 10
12.0415397064
 20
7.0917699364
 30
0.0
 10
12.0415413406
 20
7.0917732619
 30
0.0
  0
SPLINE
  5
41C
100
AcDbEntity
  8
0
100
AcDbSpline
 62
9
  6
CONTINUOUS
 70
0
 71
3
 72
26
 73
22
 74
0
 42
0.0000001
 43
0.0000001
 44
0.0000000001
 40
0.0
 40
0.0
 40
0.0
 40
0.0
 40
0.0002550325
 40
0.0010191262
 40
0.0022919015
 40
0.0040729789
 40
0.0091585231
 40
0.0162727267
 40
0.0254125603
 40
0.0365745975
 40
0.0497523311
 40
0.0649378257
 40
0.1013003545
 40
0.1455957984
 40
0.1977337317
 40
0.2576122842
 40
0.3251226599
 40
0.4001365594
 40
0.5721441174
 40
0.7725226147
 40
1.0
 40
1.0
 40
1.0
 40
1.0
 10
9.8176905688
 20
7.0999797118
 30
0.0
 10
9.8176916504
 20
7.0999761536
 30
0.0
 10
9.8176971601
 20
7.0999623297
 30
0.0
 10
9.8177080968
 20
7.0999307573
 30
0.0
 10
9.8177272678
 20
7.0998784791
 30
0.0
 10
9.8177674286
 20
7.0997667911
 30
0.0
 10
9.8178366745
 20
7.0995750321
 30
0.0
 10
9.817941953
 20
7.0992821982
 30
0.0
 10
9.8180770473
 20
7.0989059184
 30
0.0
 10
9.8182416809
 20
7.0984462973
 30
0.0
 10
9.8184356323
 20
7.0979035315
 30
0.0
 10
9.8187524706
 20
7.0970144338
 30
0.0
 10
9.8192197065
 20
7.0956972058
 30
0.0
 10
9.8198635631
 20
7.0938708749
 30
0.0
 10
9.8206159797
 20
7.0917192128
 30
0.0
 10
9.8214727256
 20
7.089245411
 30
0.0
 10
9.822429336
 20
7.086453181
 30
0.0
 10
9.8238994135
 20
7.0821084738
 30
0.0
 10
9.8259507228
 20
7.0759150234
 30
0.0
 10
9.8286209416
 20
7.067584863
 30
0.0
 10
9.8304606382
 20
7.0616228623
 30
0.0
 10
9.8314205368
 20
7.058447587
 30
0.0
  0
LINE
  5
41D
100
AcDbEntity
  8
0
100
AcDbLine
 62
9
  6
CONTINUOUS
 10
12.8085564815
 20
7.1788099304
 11
12.8246334329
 21
7.1585742547
  0
SPLINE
  5
41E
100
AcDbEntity
  8
0
100
AcDbSpline
 62
9
  6
CONTINUOUS
 70
0
 71
3
 72
32
 73
28
 74
0
 42
0.0000001
 43
0.0000001
 44
0.0000000001
 40
0.0
 40
0.0
 40
0.0
 40
0.0
 40
0.0727488958
 40
0.1425301745
 40
0.20892068
 40
0.2715579754
 40
0.3014375347
 40
0.3303568473
 40
0.3583419745
 40
0.3854698442
 40
0.4118727326
 40
0.4377301846
 40
0.4632588937
 40
0.4887021443
 40
0.5143064937
 40
0.540321383
 40
0.5669775211
 40
0.5944474292
 40
0.6228500885
 40
0.6522730951
 40
0.6827625942
 40
0.7143133629
 40
0.7804678964
 40
0.8504416071
 40
0.8867267856
 40
0.9237860738
 40
1.0
 40
1.0
 40
1.0
 40
1.0
 10
8.5770716124
 20
7.1458820685
 30
0.0
 10
8.5783181262
 20
7.1436413106
 30
0.0
 10
8.5808601983
 20
7.1393053881
 30
0.0
 10
8.5849453628
 20
7.1331727158
 30
0.0
 10
8.5892463462
 20
7.12763151
 30
0.0
 10
8.5930875824
 20
7.123538609
 30
0.0
 10
8.5962925215
 20
7.1206974892
 30
0.0
 10
8.5987175517
 20
7.1188286559
 30
0.0
 10
8.6012005432
 20
7.1172076929
 30
0.0
 10
8.6037393945
 20
7.1158538466
 30
0.0
 10
8.6063290128
 20
7.1147812059
 30
0.0
 10
8.6089640963
 20
7.1140042881
 30
0.0
 10
8.611636568
 20
7.1135320889
 30
0.0
 10
8.6143370934
 20
7.1133735003
 30
0.0
 10
8.6170548679
 20
7.1135319873
 30
0.0
 10
8.6197777916
 20
7.1140106063
 30
0.0
 10
8.6224970562
 20
7.1147923366
 30
0.0
 10
8.6252070119
 20
7.1158605541
 30
0.0
 10
8.6278988066
 20
7.1172076666
 30
0.0
 10
8.6305608148
 20
7.1188271177
 30
0.0
 10
8.6331894846
 20
7.1206974179
 30
0.0
 10
8.6367050966
 20
7.1235394299
 30
0.0
 10
8.640989753
 20
7.1276252639
 30
0.0
 10
8.645015035
 20
7.1321854193
 30
0.0
 10
8.6481673859
 20
7.1361333152
 30
0.0
 10
8.6513333365
 20
7.1403488768
 30
0.0
 10
8.653600449
 20
7.1436377942
 30
0.0
 10
8.6550766793
 20
7.1458820685
 30
0.0
  0
SPLINE
  5
41F
100
AcDbEntity
  8
0
100
AcDbSpline
 62
9
  6
CONTINUOUS
 70
0
 71
3
 72
23
 73
19
 74
0
 42
0.0000001
 43
0.0000001
 44
0.0000000001
 40
0.0
 40
0.0
 40
0.0
 40
0.0
 40
0.0544499286
 40
0.1087036944
 40
0.1630087385
 40
0.2177414376
 40
0.2454187289
 40
0.2733806664
 40
0.3303695266
 40
0.3892097946
 40
0.4502566924
 40
0.5136221584
 40
0.5792095547
 40
0.6467174744
 40
0.7157539958
 40
0.785930983
 40
0.8568838777
 40
1.0
 40
1.0
 40
1.0
 40
1.0
 10
8.6550766793
 20
7.1458820685
 30
0.0
 10
8.6560192645
 20
7.1473145433
 30
0.0
 10
8.6580237081
 20
7.1500964578
 30
0.0
 10
8.6614202987
 20
7.1539575674
 30
0.0
 10
8.6652261649
 20
7.15743248
 30
0.0
 10
8.6687440722
 20
7.1599367115
 30
0.0
 10
8.6717629703
 20
7.1616643544
 30
0.0
 10
8.6749570969
 20
7.1632121605
 30
0.0
 10
8.6792320916
 20
7.1647540113
 30
0.0
 10
8.6847047608
 20
7.1658877674
 30
0.0
 10
8.6904820577
 20
7.1662542704
 30
0.0
 10
8.6964683419
 20
7.1658600373
 30
0.0
 10
8.7025606197
 20
7.1647062095
 30
0.0
 10
8.7086650103
 20
7.1628646899
 30
0.0
 10
8.7147012207
 20
7.1604034404
 30
0.0
 10
8.7206076023
 20
7.1574013793
 30
0.0
 10
8.7282790277
 20
7.1527773449
 30
0.0
 10
8.733708016
 20
7.1487471683
 30
0.0
 10
8.7371872759
 20
7.1458820685
 30
0.0
  0
SPLINE
  5
420
100
AcDbEntity
  8
0
100
AcDbSpline
 62
9
  6
CONTINUOUS
 70
0
 71
3
 72
15
 73
11
 74
0
 42
0.0000001
 43
0.0000001
 44
0.0000000001
 40
0.0
 40
0.0
 40
0.0
 40
0.0
 40
0.1249824651
 40
0.2499851916
 40
0.4998186841
 40
0.6248422458
 40
0.7498768798
 40
0.8124139992
 40
0.8749596998
 40
1.0
 40
1.0
 40
1.0
 40
1.0
 10
8.7371872759
 20
7.1458820685
 30
0.0
 10
8.739958749
 20
7.143599425
 30
0.0
 10
8.7456186946
 20
7.1391712309
 30
0.0
 10
8.7574196381
 20
7.1309849538
 30
0.0
 10
8.7700290456
 20
7.1239733874
 30
0.0
 10
8.7833964955
 20
7.1186778451
 30
0.0
 10
8.7920432886
 20
7.1161884331
 30
0.0
 10
8.7990908708
 20
7.1147703102
 30
0.0
 10
8.806205242
 20
7.1137450895
 30
0.0
 10
8.8116002044
 20
7.1134218775
 30
0.0
 10
8.8151923427
 20
7.113422175
 30
0.0
  0
LINE
  5
421
100
AcDbEntity
  8
0
100
AcDbLine
 62
9
  6
CONTINUOUS
 10
13.2815379713
 20
9.033442279
 11
13.2703282677
 21
9.0351853027
  0
SPLINE
  5
422
100
AcDbEntity
  8
0
100
AcDbSpline
 62
9
  6
CONTINUOUS
 70
0
 71
3
 72
15
 73
11
 74
0
 42
0.0000001
 43
0.0000001
 44
0.0000000001
 40
0.0
 40
0.0
 40
0.0
 40
0.0
 40
0.1250403023
 40
0.1875860241
 40
0.2501226909
 40
0.3751574306
 40
0.5001810336
 40
0.7500145592
 40
0.8750171703
 40
1.0
 40
1.0
 40
1.0
 40
1.0
 10
8.8151923427
 20
7.113422175
 30
0.0
 10
8.8187844749
 20
7.1134217623
 30
0.0
 10
8.824179302
 20
7.1137470996
 30
0.0
 10
8.831293732
 20
7.1147713415
 30
0.0
 10
8.8383415728
 20
7.1161881257
 30
0.0
 10
8.8469885551
 20
7.1186770465
 30
0.0
 10
8.8603554004
 20
7.123974054
 30
0.0
 10
8.872965018
 20
7.1309849776
 30
0.0
 10
8.8847660474
 20
7.139171173
 30
0.0
 10
8.8904257764
 20
7.1435996128
 30
0.0
 10
8.8931974096
 20
7.1458820685
 30
0.0
  0
SPLINE
  5
423
100
AcDbEntity
  8
0
100
AcDbSpline
 62
9
  6
CONTINUOUS
 70
0
 71
3
 72
24
 73
20
 74
0
 42
0.0000001
 43
0.0000001
 44
0.0000000001
 40
0.0
 40
0.0
 40
0.0
 40
0.0
 40
0.1431109581
 40
0.2140612785
 40
0.2842353135
 40
0.3532700938
 40
0.4207755993
 40
0.4863598937
 40
0.5497231566
 40
0.6107680591
 40
0.6404616791
 40
0.6696422366
 40
0.7266294467
 40
0.7545902877
 40
0.7822664676
 40
0.8369973565
 40
0.8913003882
 40
0.9455520702
 40
1.0
 40
1.0
 40
1.0
 40
1.0
 10
8.8931974096
 20
7.1458820685
 30
0.0
 10
8.8966766894
 20
7.1487471495
 30
0.0
 10
8.902105659
 20
7.1527773477
 30
0.0
 10
8.9097770702
 20
7.1574014136
 30
0.0
 10
8.915683608
 20
7.1604031885
 30
0.0
 10
8.9217196643
 20
7.1628648056
 30
0.0
 10
8.9278239296
 20
7.1647068093
 30
0.0
 10
8.9339164749
 20
7.1658597093
 30
0.0
 10
8.9399022863
 20
7.1662543778
 30
0.0
 10
8.9447619747
 20
7.1659459178
 30
0.0
 10
8.9484871853
 20
7.1653064907
 30
0.0
 10
8.9520330692
 20
7.1644354792
 30
0.0
 10
8.9554276465
 20
7.163211899
 30
0.0
 10
8.9586217812
 20
7.1616644958
 30
0.0
 10
8.9616407619
 20
7.1599368916
 30
0.0
 10
8.9651585079
 20
7.1574324592
 30
0.0
 10
8.968964378
 20
7.1539575529
 30
0.0
 10
8.9723609916
 20
7.1500964664
 30
0.0
 10
8.9743654354
 20
7.147314553
 30
0.0
 10
8.9753080062
 20
7.1458820685
 30
0.0
  0
SPLINE
  5
424
100
AcDbEntity
  8
0
100
AcDbSpline
 62
9
  6
CONTINUOUS
 70
0
 71
3
 72
31
 73
27
 74
0
 42
0.0000001
 43
0.0000001
 44
0.0000000001
 40
0.0
 40
0.0
 40
0.0
 40
0.0
 40
0.0762167078
 40
0.1495532814
 40
0.2195252975
 40
0.2856801395
 40
0.3172277327
 40
0.3477145632
 40
0.3771399931
 40
0.4055461333
 40
0.4330148459
 40
0.4596720139
 40
0.4856931581
 40
0.5112983239
 40
0.5367396525
 40
0.5622784302
 40
0.5881463302
 40
0.6145360012
 40
0.6416400303
 40
0.6696207169
 40
0.6985527121
 40
0.7284408915
 40
0.7910729708
 40
0.8574744449
 40
0.9272587788
 40
1.0
 40
1.0
 40
1.0
 40
1.0
 10
8.9753080062
 20
7.1458820685
 30
0.0
 10
8.9767841188
 20
7.1436376222
 30
0.0
 10
8.9797766238
 20
7.1392954003
 30
0.0
 10
8.9845039981
 20
7.1331644153
 30
0.0
 10
8.9893950864
 20
7.1276256384
 30
0.0
 10
8.9936792277
 20
7.1235393945
 30
0.0
 10
8.9971959286
 20
7.1206990304
 30
0.0
 10
8.9998257831
 20
7.1188306644
 30
0.0
 10
9.0024873579
 20
7.1172105841
 30
0.0
 10
9.0051765676
 20
7.1158581886
 30
0.0
 10
9.0078852725
 20
7.1147860294
 30
0.0
 10
9.0106058649
 20
7.1140075064
 30
0.0
 10
9.0133296682
 20
7.1135331499
 30
0.0
 10
9.0160473843
 20
7.1133735869
 30
0.0
 10
9.0187484159
 20
7.113531074
 30
0.0
 10
9.021421009
 20
7.1140068777
 30
0.0
 10
9.0240554544
 20
7.114786201
 30
0.0
 10
9.0266452603
 20
7.1158555134
 30
0.0
 10
9.0291846699
 20
7.1172053255
 30
0.0
 10
9.0316672609
 20
7.1188260368
 30
0.0
 10
9.0340917158
 20
7.1206965507
 30
0.0
 10
9.0372964368
 20
7.1235386544
 30
0.0
 10
9.0411389333
 20
7.1276310078
 30
0.0
 10
9.0454389608
 20
7.1331733568
 30
0.0
 10
9.0495243508
 20
7.1393060153
 30
0.0
 10
9.05206672
 20
7.1436415516
 30
0.0
 10
9.053313073
 20
7.1458820685
 30
0.0
  0
LINE
  5
425
100
AcDbEntity
  8
0
100
AcDbLine
 62
9
  6
CONTINUOUS
 10
9.053313073
 20
7.1458820685
 11
9.0647602701
 21
7.1661275779
  0
SPLINE
  5
426
100
AcDbEntity
  8
0
100
AcDbSpline
 62
9
  6
CONTINUOUS
 70
0
 71
3
 72
17
 73
13
 74
0
 42
0.0000001
 43
0.0000001
 44
0.0000000001
 40
0.0
 40
0.0
 40
0.0
 40
0.0
 40
0.1506239437
 40
0.2986862381
 40
0.4416364337
 40
0.5770170014
 40
0.7025264642
 40
0.8160368592
 40
0.8676907586
 40
0.9156865403
 40
0.959853132
 40
1.0
 40
1.0
 40
1.0
 40
1.0
 10
8.7463547121
 20
9.0351853027
 30
0.0
 10
8.7427214647
 20
9.0349031322
 30
0.0
 10
8.7355117379
 20
9.0344062218
 30
0.0
 10
8.7248402939
 20
9.0338585966
 30
0.0
 10
8.714528954
 20
9.0335233379
 30
0.0
 10
8.7047583857
 20
9.0334057318
 30
0.0
 10
8.6956998637
 20
9.0335067511
 30
0.0
 10
8.6886712504
 20
9.0337780371
 30
0.0
 10
8.683524833
 20
9.0341153764
 30
0.0
 10
8.6800577694
 20
9.034412394
 30
0.0
 10
8.6768752405
 20
9.0347593093
 30
0.0
 10
8.6748538508
 20
9.0350362224
 30
0.0
 10
8.6738940483
 20
9.0351853027
 30
0.0
  0
LINE
  5
427
100
AcDbEntity
  8
0
100
AcDbLine
 62
9
  6
CONTINUOUS
 10
8.6050564177
 20
9.0351853027
 11
8.5938467142
 21
9.033442279
  0
SPLINE
  5
428
100
AcDbEntity
  8
0
100
AcDbSpline
 62
9
  6
CONTINUOUS
 70
0
 71
3
 72
15
 73
11
 74
0
 42
0.0000001
 43
0.0000001
 44
0.0000000001
 40
0.0
 40
0.0
 40
0.0
 40
0.0
 40
0.1258872633
 40
0.2517847131
 40
0.3773818683
 40
0.5026793591
 40
0.6276067795
 40
0.7521216867
 40
0.8763094256
 40
1.0
 40
1.0
 40
1.0
 40
1.0
 10
9.969858643
 20
4.8701319825
 30
0.0
 10
9.969858643
 20
4.8710798777
 30
0.0
 10
9.9699912886
 20
4.8729783333
 30
0.0
 10
9.9705812127
 20
4.8757669457
 30
0.0
 10
9.9715527869
 20
4.8784425763
 30
0.0
 10
9.9728856024
 20
4.8809494014
 30
0.0
 10
9.9745516959
 20
4.8832382794
 30
0.0
 10
9.9765194172
 20
4.8852625118
 30
0.0
 10
9.9787478422
 20
4.8869794415
 30
0.0
 10
9.980380486
 20
4.8878995909
 30
0.0
 10
9.9812228844
 20
4.8882968147
 30
0.0
  0
SPLINE
  5
429
100
AcDbEntity
  8
0
100
AcDbSpline
 62
9
  6
CONTINUOUS
 70
0
 71
3
 72
14
 73
10
 74
0
 42
0.0000001
 43
0.0000001
 44
0.0000000001
 40
0.0
 40
0.0
 40
0.0
 40
0.0
 40
0.2639115517
 40
0.3929971033
 40
0.5194876909
 40
0.6432362852
 40
0.7643120776
 40
0.8831187216
 40
1.0
 40
1.0
 40
1.0
 40
1.0
 10
9.9787412827
 20
4.871358046
 30
0.0
 10
9.9786174476
 20
4.8732484867
 30
0.0
 10
9.9787852861
 20
4.876106316
 30
0.0
 10
9.9797415267
 20
4.8797193809
 30
0.0
 10
9.980796944
 20
4.8822398964
 30
0.0
 10
9.9821726549
 20
4.8845339353
 30
0.0
 10
9.9838428514
 20
4.8865537273
 30
0.0
 10
9.9857720511
 20
4.88825383
 30
0.0
 10
9.9872133258
 20
4.889157215
 30
0.0
 10
9.9879592349
 20
4.8895413988
 30
0.0
  0
SPLINE
  5
42A
100
AcDbEntity
  8
0
100
AcDbSpline
 62
9
  6
CONTINUOUS
 70
0
 71
3
 72
15
 73
11
 74
0
 42
0.0000001
 43
0.0000001
 44
0.0000000001
 40
0.0
 40
0.0
 40
0.0
 40
0.0
 40
0.1258872633
 40
0.2517847131
 40
0.3773818683
 40
0.5026793591
 40
0.6276067795
 40
0.7521216867
 40
0.8763094256
 40
1.0
 40
1.0
 40
1.0
 40
1.0
 10
9.969858643
 20
4.6811951396
 30
0.0
 10
9.969858643
 20
4.6802472444
 30
0.0
 10
9.9699912886
 20
4.6783487889
 30
0.0
 10
9.9705812127
 20
4.6755601764
 30
0.0
 10
9.9715527869
 20
4.6728845458
 30
0.0
 10
9.9728856024
 20
4.6703777208
 30
0.0
 10
9.9745516959
 20
4.6680888427
 30
0.0
 10
9.9765194172
 20
4.6660646104
 30
0.0
 10
9.9787478422
 20
4.6643476807
 30
0.0
 10
9.980380486
 20
4.6634275312
 30
0.0
 10
9.9812228844
 20
4.6630303075
 30
0.0
  0
SPLINE
  5
42B
100
AcDbEntity
  8
0
100
AcDbSpline
 62
9
  6
CONTINUOUS
 70
0
 71
3
 72
15
 73
11
 74
0
 42
0.0000001
 43
0.0000001
 44
0.0000000001
 40
0.0
 40
0.0
 40
0.0
 40
0.0
 40
0.1263438045
 40
0.2515284571
 40
0.3759512254
 40
0.4999999995
 40
0.6240487735
 40
0.7484715417
 40
0.8736561949
 40
1.0
 40
1.0
 40
1.0
 40
1.0
 10
11.8916434027
 20
4.871358046
 30
0.0
 10
11.8802738538
 20
4.8743371379
 30
0.0
 10
11.8574359871
 20
4.8795218612
 30
0.0
 10
11.822875419
 20
4.8850279548
 30
0.0
 10
11.7882464867
 20
4.8883049368
 30
0.0
 10
11.7535863494
 20
4.8893856252
 30
0.0
 10
11.718926212
 20
4.8883049381
 30
0.0
 10
11.6842972796
 20
4.8850279566
 30
0.0
 10
11.6497367115
 20
4.8795218621
 30
0.0
 10
11.6268988448
 20
4.874337138
 30
0.0
 10
11.6155292959
 20
4.871358046
 30
0.0
  0
SPLINE
  5
42C
100
AcDbEntity
  8
0
100
AcDbSpline
 62
9
  6
CONTINUOUS
 70
0
 71
3
 72
17
 73
13
 74
0
 42
0.0000001
 43
0.0000001
 44
0.0000000001
 40
0.0
 40
0.0
 40
0.0
 40
0.0
 40
0.0401386023
 40
0.0842970848
 40
0.1322996116
 40
0.1839651796
 40
0.2974768582
 40
0.4229798379
 40
0.5583638172
 40
0.7013139732
 40
0.8493755309
 40
1.0
 40
1.0
 40
1.0
 40
1.0
 10
8.9564906371
 20
9.0351853027
 30
0.0
 10
8.9555310344
 20
9.0350362374
 30
0.0
 10
8.9535100775
 20
9.0347591007
 30
0.0
 10
8.9503278083
 20
9.0344119005
 30
0.0
 10
8.9468604661
 20
9.0341151666
 30
0.0
 10
8.9417135395
 20
9.0337783202
 30
0.0
 10
8.9346847828
 20
9.0335068698
 30
0.0
 10
8.9256262998
 20
9.0334055041
 30
0.0
 10
8.9158558062
 20
9.0335234255
 30
0.0
 10
8.9055444004
 20
9.033858617
 30
0.0
 10
8.8948729497
 20
9.0344060918
 30
0.0
 10
8.887663234
 20
9.0349031236
 30
0.0
 10
8.8840299733
 20
9.0351853027
 30
0.0
  0
LINE
  5
42D
100
AcDbEntity
  8
0
100
AcDbLine
 62
9
  6
CONTINUOUS
 10
8.5796334329
 20
8.9963052307
 11
8.5635565484
 21
8.9946388438
  0
SPLINE
  5
42E
100
AcDbEntity
  8
0
100
AcDbSpline
 62
9
  6
CONTINUOUS
 70
0
 71
3
 72
17
 73
13
 74
0
 42
0.0000001
 43
0.0000001
 44
0.0000000001
 40
0.0
 40
0.0
 40
0.0
 40
0.0
 40
0.1506788162
 40
0.2987791061
 40
0.4417723211
 40
0.5772013712
 40
0.702751133
 40
0.8162891555
 40
0.8679480361
 40
0.9159131803
 40
0.959993891
 40
1.0
 40
1.0
 40
1.0
 40
1.0
 10
8.749374412
 20
8.9963052307
 30
0.0
 10
8.7441578315
 20
8.9960354694
 30
0.0
 10
8.7338107662
 20
8.9955599836
 30
0.0
 10
8.7185045361
 20
8.9950362586
 30
0.0
 10
8.7037214104
 20
8.994716429
 30
0.0
 10
8.6897169493
 20
8.9946038533
 30
0.0
 10
8.6767334659
 20
8.9947005557
 30
0.0
 10
8.6666567101
 20
8.9949593971
 30
0.0
 10
8.6592739165
 20
8.9952816394
 30
0.0
 10
8.654300064
 20
8.9955657824
 30
0.0
 10
8.6497340993
 20
8.9958976376
 30
0.0
 10
8.6468308919
 20
8.9961625869
 30
0.0
 10
8.6454513636
 20
8.9963052307
 30
0.0
  0
SPLINE
  5
42F
100
AcDbEntity
  8
0
100
AcDbSpline
 62
9
  6
CONTINUOUS
 70
0
 71
3
 72
30
 73
26
 74
0
 42
0.0000001
 43
0.0000001
 44
0.0000000001
 40
0.0
 40
0.0
 40
0.0
 40
0.0
 40
0.0501768848
 40
0.1008466937
 40
0.1524235882
 40
0.2053747054
 40
0.2325147011
 40
0.2601633488
 40
0.2883689667
 40
0.3171746343
 40
0.3466026039
 40
0.3766690232
 40
0.407390135
 40
0.438766449
 40
0.5033865284
 40
0.5365892677
 40
0.5703385176
 40
0.6045856117
 40
0.6392754292
 40
0.6743580361
 40
0.7097836989
 40
0.7455051113
 40
0.7814715952
 40
0.8539427536
 40
1.0
 40
1.0
 40
1.0
 40
1.0
 10
8.6454513636
 20
7.1585742547
 30
0.0
 10
8.6466271377
 20
7.1600815559
 30
0.0
 10
8.6491493886
 20
7.1629911205
 30
0.0
 10
8.6534224066
 20
7.1669412236
 30
0.0
 10
8.6582106737
 20
7.1704332059
 30
0.0
 10
8.6625996502
 20
7.1728895656
 30
0.0
 10
8.6663498062
 20
7.1745634073
 30
0.0
 10
8.6693117043
 20
7.1756758472
 30
0.0
 10
8.6723942807
 20
7.1766309916
 30
0.0
 10
8.6755921483
 20
7.1774249113
 30
0.0
 10
8.6788995185
 20
7.17804983
 30
0.0
 10
8.6823095282
 20
7.1784945088
 30
0.0
 10
8.6858129331
 20
7.1787544728
 30
0.0
 10
8.6906407359
 20
7.1788671768
 30
0.0
 10
8.6955662282
 20
7.1786330461
 30
0.0
 10
8.7005450603
 20
7.1780399345
 30
0.0
 10
8.704350154
 20
7.1774105047
 30
0.0
 10
8.7081813477
 20
7.1766138826
 30
0.0
 10
8.7120284543
 20
7.1756587288
 30
0.0
 10
8.7158800865
 20
7.1745472677
 30
0.0
 10
8.7197252212
 20
7.1732817084
 30
0.0
 10
8.7235549105
 20
7.1718699225
 30
0.0
 10
8.7286432277
 20
7.1698001839
 30
0.0
 10
8.7374465298
 20
7.1657250492
 30
0.0
 10
8.7446897407
 20
7.1615772058
 30
0.0
 10
8.749374412
 20
7.1585742547
 30
0.0
  0
SPLINE
  5
430
100
AcDbEntity
  8
0
100
AcDbSpline
 62
9
  6
CONTINUOUS
 70
0
 71
3
 72
15
 73
11
 74
0
 42
0.0000001
 43
0.0000001
 44
0.0000000001
 40
0.0
 40
0.0
 40
0.0
 40
0.0
 40
0.1263438044
 40
0.2515284571
 40
0.3759512253
 40
0.4999999994
 40
0.6240487734
 40
0.7484715417
 40
0.8736561949
 40
1.0
 40
1.0
 40
1.0
 40
1.0
 10
11.6155292959
 20
4.6799690761
 30
0.0
 10
11.6268988448
 20
4.6769899843
 30
0.0
 10
11.6497367115
 20
4.6718052609
 30
0.0
 10
11.6842972796
 20
4.6662991674
 30
0.0
 10
11.7189262119
 20
4.6630221854
 30
0.0
 10
11.7535863492
 20
4.6619414969
 30
0.0
 10
11.7882464867
 20
4.6630221841
 30
0.0
 10
11.822875419
 20
4.6662991656
 30
0.0
 10
11.8574359871
 20
4.67180526
 30
0.0
 10
11.8802738538
 20
4.6769899841
 30
0.0
 10
11.8916434027
 20
4.6799690761
 30
0.0
  0
SPLINE
  5
431
100
AcDbEntity
  8
0
100
AcDbSpline
 62
9
  6
CONTINUOUS
 70
0
 71
3
 72
13
 73
9
 74
0
 42
0.0000001
 43
0.0000001
 44
0.0000000001
 40
0.0
 40
0.0
 40
0.0
 40
0.0
 40
0.1174379494
 40
0.2368135118
 40
0.3583248681
 40
0.4822250076
 40
0.7368330004
 40
1.0
 40
1.0
 40
1.0
 40
1.0
 10
9.5854140333
 20
7.0529021032
 30
0.0
 10
9.5858678702
 20
7.0534125936
 30
0.0
 10
9.5868547125
 20
7.0543804726
 30
0.0
 10
9.588525616
 20
7.0556353206
 30
0.0
 10
9.5903754969
 20
7.0566861123
 30
0.0
 10
9.5930666338
 20
7.0578050588
 30
0.0
 10
9.5967451602
 20
7.0586135142
 30
0.0
 10
9.5997823478
 20
7.0586063152
 30
0.0
 10
9.6013047622
 20
7.058447587
 30
0.0
  0
SPLINE
  5
432
100
AcDbEntity
  8
0
100
AcDbSpline
 62
9
  6
CONTINUOUS
 70
0
 71
3
 72
13
 73
9
 74
0
 42
0.0000001
 43
0.0000001
 44
0.0000000001
 40
0.0
 40
0.0
 40
0.0
 40
0.0
 40
0.123035926
 40
0.2465838129
 40
0.370678773
 40
0.4954370969
 40
0.7464922294
 40
1.0
 40
1.0
 40
1.0
 40
1.0
 10
9.5951923427
 20
5.85360248
 30
0.0
 10
9.595641873
 20
5.852944169
 30
0.0
 10
9.5966296112
 20
5.8516818016
 30
0.0
 10
9.5983440449
 20
5.8499911409
 30
0.0
 10
9.6002689492
 20
5.8485251711
 30
0.0
 10
9.6030780464
 20
5.8468982182
 30
0.0
 10
9.6069663517
 20
5.8455331468
 30
0.0
 10
9.6102580238
 20
5.8452268482
 30
0.0
 10
9.6118999315
 20
5.8452702321
 30
0.0
  0
LINE
  5
433
100
AcDbEntity
  8
0
100
AcDbLine
 62
9
  6
CONTINUOUS
 10
9.0507512526
 20
7.1585742547
 11
9.0668282041
 21
7.1788099301
  0
SPLINE
  5
434
100
AcDbEntity
  8
0
100
AcDbSpline
 62
9
  6
CONTINUOUS
 70
0
 71
3
 72
17
 73
13
 74
0
 42
0.0000001
 43
0.0000001
 44
0.0000000001
 40
0.0
 40
0.0
 40
0.0
 40
0.0
 40
0.0400063666
 40
0.0840873365
 40
0.1320524478
 40
0.1837112753
 40
0.2972493845
 40
0.4227990415
 40
0.5582279734
 40
0.7012211093
 40
0.8493213281
 40
1.0
 40
1.0
 40
1.0
 40
1.0
 10
8.9849333219
 20
8.9963052307
 30
0.0
 10
8.9835537989
 20
8.9961624468
 30
0.0
 10
8.9806506063
 20
8.9958971291
 30
0.0
 10
8.9760846292
 20
8.995565144
 30
0.0
 10
8.9711107356
 20
8.9952815792
 30
0.0
 10
8.9637279235
 20
8.9949598145
 30
0.0
 10
8.9536511861
 20
8.9947004414
 30
0.0
 10
8.9406677003
 20
8.9946037501
 30
0.0
 10
8.9266632491
 20
8.9947164281
 30
0.0
 10
8.9118801333
 20
8.9950363454
 30
0.0
 10
8.8965739009
 20
8.9955597858
 30
0.0
 10
8.8862268481
 20
8.9960354375
 30
0.0
 10
8.8810102734
 20
8.9963052307
 30
0.0
  0
SPLINE
  5
435
100
AcDbEntity
  8
0
100
AcDbSpline
 62
9
  6
CONTINUOUS
 70
0
 71
3
 72
30
 73
26
 74
0
 42
0.0000001
 43
0.0000001
 44
0.0000000001
 40
0.0
 40
0.0
 40
0.0
 40
0.0
 40
0.0731487478
 40
0.1461041099
 40
0.2185720198
 40
0.290246251
 40
0.325671032
 40
0.3607528859
 40
0.395441097
 40
0.4296860285
 40
0.4634336874
 40
0.4966353398
 40
0.5612524324
 40
0.5926275306
 40
0.6233473474
 40
0.6534124561
 40
0.6828399119
 40
0.7116452013
 40
0.7398487437
 40
0.767494013
 40
0.7946316573
 40
0.8475826318
 40
0.8991574623
 40
0.9498246053
 40
1.0
 40
1.0
 40
1.0
 40
1.0
 10
8.8810102734
 20
7.1585742547
 30
0.0
 10
8.8833565759
 20
7.1600782453
 30
0.0
 10
8.888119655
 20
7.1629647598
 30
0.0
 10
8.8954660181
 20
7.1668952032
 30
0.0
 10
8.9029765025
 20
7.1703720259
 30
0.0
 10
8.9093586018
 20
7.1728520727
 30
0.0
 10
8.9145048956
 20
7.1745465726
 30
0.0
 10
8.9183561509
 20
7.1756595954
 30
0.0
 10
8.9222029519
 20
7.1766160115
 30
0.0
 10
8.9260342664
 20
7.1774120135
 30
0.0
 10
8.9298396332
 20
7.1780396977
 30
0.0
 10
8.9348186031
 20
7.1786314133
 30
0.0
 10
8.939743978
 20
7.1788667794
 30
0.0
 10
8.9445718211
 20
7.1787553528
 30
0.0
 10
8.9480752821
 20
7.1784958329
 30
0.0
 10
8.9514852192
 20
7.1780501544
 30
0.0
 10
8.9547923183
 20
7.177423482
 30
0.0
 10
8.9579900138
 20
7.176628895
 30
0.0
 10
8.9610728489
 20
7.1756749572
 30
0.0
 10
8.9640351595
 20
7.1745640454
 30
0.0
 10
8.9677855422
 20
7.172890726
 30
0.0
 10
8.9721738528
 20
7.1704330647
 30
0.0
 10
8.9769623034
 20
7.1669413277
 30
0.0
 10
8.9812354349
 20
7.1629912793
 30
0.0
 10
8.983757553
 20
7.1600815926
 30
0.0
 10
8.9849333219
 20
7.1585742547
 30
0.0
  0
SPLINE
  5
436
100
AcDbEntity
  8
0
100
AcDbSpline
 62
9
  6
CONTINUOUS
 70
0
 71
3
 72
12
 73
8
 74
0
 42
0.0000001
 43
0.0000001
 44
0.0000000001
 40
0.0
 40
0.0
 40
0.0
 40
0.0
 40
0.2449437648
 40
0.3699247002
 40
0.4959367587
 40
0.7488135234
 40
1.0
 40
1.0
 40
1.0
 40
1.0
 10
9.5854140333
 20
6.045396669
 30
0.0
 10
9.5863290344
 20
6.044176647
 30
0.0
 10
9.5879235769
 20
6.0424829081
 30
0.0
 10
9.5903643889
 20
6.0405860364
 30
0.0
 10
9.5930286523
 20
6.038920152
 30
0.0
 10
9.5966539243
 20
6.0373521783
 30
0.0
 10
9.5997493082
 20
6.0366997836
 30
0.0
 10
9.6013047622
 20
6.0365376105
 30
0.0
  0
SPLINE
  5
437
100
AcDbEntity
  8
0
100
AcDbSpline
 62
9
  6
CONTINUOUS
 70
0
 71
3
 72
14
 73
10
 74
0
 42
0.0000001
 43
0.0000001
 44
0.0000000001
 40
0.0
 40
0.0
 40
0.0
 40
0.0
 40
0.0901337646
 40
0.1932503971
 40
0.3081076037
 40
0.433252905
 40
0.5669668728
 40
0.7073458806
 40
1.0
 40
1.0
 40
1.0
 40
1.0
 10
9.5951923427
 20
6.2303635307
 30
0.0
 10
9.5956778491
 20
6.2302259877
 30
0.0
 10
9.5967336286
 20
6.2299831028
 30
0.0
 10
9.5984380694
 20
6.2297122897
 30
0.0
 10
9.6003496351
 20
6.2295144699
 30
0.0
 10
9.6024389301
 20
6.2293929333
 30
0.0
 10
9.6046741814
 20
6.2293499347
 30
0.0
 10
9.6078471544
 20
6.2293992227
 30
0.0
 10
9.6102685973
 20
6.229554047
 30
0.0
 10
9.6118999315
 20
6.2297062814
 30
0.0
  0
SPLINE
  5
438
100
AcDbEntity
  8
0
100
AcDbSpline
 62
9
  6
CONTINUOUS
 70
0
 71
3
 72
17
 73
13
 74
0
 42
0.0000001
 43
0.0000001
 44
0.0000000001
 40
0.0
 40
0.0
 40
0.0
 40
0.0
 40
0.1334238847
 40
0.2651978717
 40
0.3946031231
 40
0.5211350515
 40
0.6445979573
 40
0.7651381753
 40
0.8245133936
 40
0.8833749445
 40
0.9418445186
 40
1.0
 40
1.0
 40
1.0
 40
1.0
 10
8.579633433
 20
8.9963052307
 30
0.0
 10
8.5795469731
 20
8.998531639
 30
0.0
 10
8.5796967832
 20
9.0029765475
 30
0.0
 10
8.580894053
 20
9.0094806295
 30
0.0
 10
8.5830307128
 20
9.0156205195
 30
0.0
 10
8.5860505597
 20
9.0212224746
 30
0.0
 10
8.5898707661
 20
9.0261276507
 30
0.0
 10
8.5936588392
 20
9.0295371043
 30
0.0
 10
8.5969673537
 20
9.0317713839
 30
0.0
 10
8.5995608173
 20
9.0331887901
 30
0.0
 10
8.6022585829
 20
9.0343441103
 30
0.0
 10
8.6041177722
 20
9.034936126
 30
0.0
 10
8.6050564177
 20
9.0351853027
 30
0.0
  0
SPLINE
  5
439
100
AcDbEntity
  8
0
100
AcDbSpline
 62
9
  6
CONTINUOUS
 70
0
 71
3
 72
17
 73
13
 74
0
 42
0.0000001
 43
0.0000001
 44
0.0000000001
 40
0.0
 40
0.0
 40
0.0
 40
0.0
 40
0.1306234448
 40
0.1959626351
 40
0.2611319375
 40
0.3904509739
 40
0.5178500717
 40
0.5806742954
 40
0.6428040043
 40
0.7647466318
 40
0.883713638
 40
1.0
 40
1.0
 40
1.0
 40
1.0
 10
8.6454513636
 20
8.9963052307
 30
0.0
 10
8.6455383129
 20
8.9985442578
 30
0.0
 10
8.6459150077
 20
9.0019003349
 30
0.0
 10
8.6468960378
 20
9.0062739309
 30
0.0
 10
8.6481863636
 20
9.0105438907
 30
0.0
 10
8.650360411
 20
9.0156426323
 30
0.0
 10
8.6532522677
 20
9.0203260687
 30
0.0
 10
8.6559440691
 20
9.0237214605
 30
0.0
 10
8.6588329268
 20
9.0268235848
 30
0.0
 10
8.6628300798
 20
9.0301881357
 30
0.0
 10
8.6681457376
 20
9.0332940515
 30
0.0
 10
8.6719635065
 20
9.034683166
 30
0.0
 10
8.6738940483
 20
9.0351853027
 30
0.0
  0
SPLINE
  5
43A
100
AcDbEntity
  8
0
100
AcDbSpline
 62
9
  6
CONTINUOUS
 70
0
 71
3
 72
11
 73
7
 74
0
 42
0.0000001
 43
0.0000001
 44
0.0000000001
 40
0.0
 40
0.0
 40
0.0
 40
0.0
 40
0.2705122572
 40
0.5265096061
 40
0.7690063666
 40
1.0
 40
1.0
 40
1.0
 40
1.0
 10
8.5796334329
 20
7.1585742547
 30
0.0
 10
8.5791220048
 20
7.1575090189
 30
0.0
 10
8.5782374265
 20
7.1553794835
 30
0.0
 10
8.5773381226
 20
7.1521331631
 30
0.0
 10
8.5769177631
 20
7.1489637019
 30
0.0
 10
8.5769632566
 20
7.1468852548
 30
0.0
 10
8.5770716124
 20
7.1458820685
 30
0.0
  0
SPLINE
  5
43B
100
AcDbEntity
  8
0
100
AcDbSpline
 62
9
  6
CONTINUOUS
 70
0
 71
3
 72
12
 73
8
 74
0
 42
0.0000001
 43
0.0000001
 44
0.0000000001
 40
0.0
 40
0.0
 40
0.0
 40
0.0
 40
0.2301665475
 40
0.3519798346
 40
0.4775087227
 40
0.7363756458
 40
1.0
 40
1.0
 40
1.0
 40
1.0
 10
9.5951923427
 20
6.8434246118
 30
0.0
 10
9.5961261764
 20
6.8445276045
 30
0.0
 10
9.5977815202
 20
6.8460313872
 30
0.0
 10
9.6002935013
 20
6.8476732743
 30
0.0
 10
9.6031204333
 20
6.8491378605
 30
0.0
 10
9.6069877681
 20
6.8504777667
 30
0.0
 10
9.6102483295
 20
6.8509891255
 30
0.0
 10
9.6118999315
 20
6.8510996103
 30
0.0
  0
SPLINE
  5
43C
100
AcDbEntity
  8
0
100
AcDbSpline
 62
9
  6
CONTINUOUS
 70
0
 71
3
 72
41
 73
37
 74
0
 42
0.0000001
 43
0.0000001
 44
0.0000000001
 40
0.0
 40
0.0
 40
0.0
 40
0.0
 40
0.0000262157
 40
0.0001039592
 40
0.0002331334
 40
0.000413641
 40
0.0006453848
 40
0.0009282676
 40
0.0016470611
 40
0.0025692438
 40
0.0036940373
 40
0.0050205384
 40
0.0065475323
 40
0.0101979512
 40
0.0146352018
 40
0.0198472871
 40
0.0258162132
 40
0.0325228185
 40
0.0399475749
 40
0.056866616
 40
0.0763996228
 40
0.0983614555
 40
0.1225660524
 40
0.1488345422
 40
0.1769949909
 40
0.2068836859
 40
0.271248795
 40
0.3408526633
 40
0.4147866929
 40
0.492285497
 40
0.5726955536
 40
0.6554453188
 40
0.7400204661
 40
0.8259395617
 40
0.912751439
 40
1.0
 40
1.0
 40
1.0
 40
1.0
 10
9.0412143455
 20
6.8466635611
 30
0.0
 10
9.0412123672
 20
6.8466631256
 30
0.0
 10
9.04120504
 20
6.846659646
 30
0.0
 10
9.0411879955
 20
6.8466539276
 30
0.0
 10
9.0411600854
 20
6.8466430177
 30
0.0
 10
9.0411208905
 20
6.8466284205
 30
0.0
 10
9.0410706475
 20
6.8466094113
 30
0.0
 10
9.040981461
 20
6.8465758115
 30
0.0
 10
9.0408423745
 20
6.8465233238
 30
0.0
 10
9.0406424193
 20
6.8464478809
 30
0.0
 10
9.0403985429
 20
6.8463558213
 30
0.0
 10
9.0401109471
 20
6.8462472482
 30
0.0
 10
9.0396407308
 20
6.8460698518
 30
0.0
 10
9.0389454539
 20
6.8458080366
 30
0.0
 10
9.0379832734
 20
6.8454469878
 30
0.0
 10
9.0368527808
 20
6.8450245416
 30
0.0
 10
9.0355572911
 20
6.8445426846
 30
0.0
 10
9.0341006665
 20
6.8440036072
 30
0.0
 10
9.0318490702
 20
6.8431747572
 30
0.0
 10
9.0286636904
 20
6.8420135567
 30
0.0
 10
9.0244155193
 20
6.8404881416
 30
0.0
 10
9.0196280545
 20
6.8387989979
 30
0.0
 10
9.0143382666
 20
6.836969617
 30
0.0
 10
9.0085819609
 20
6.83502415
 30
0.0
 10
9.0023935356
 20
6.8329860088
 30
0.0
 10
8.9933843451
 20
6.8301031026
 30
0.0
 10
8.9812712582
 20
6.8264140482
 30
0.0
 10
8.9658066682
 20
6.8220583831
 30
0.0
 10
8.9492590692
 20
6.8178206048
 30
0.0
 10
8.9317902697
 20
6.8138375604
 30
0.0
 10
8.9135440627
 20
6.8102327926
 30
0.0
 10
8.8946530954
 20
6.8071167286
 30
0.0
 10
8.8752451074
 20
6.8045848949
 30
0.0
 10
8.8554462301
 20
6.8027163038
 30
0.0
 10
8.8353854483
 20
6.8015707277
 30
0.0
 10
8.8219341584
 20
6.8013131695
 30
0.0
 10
8.8151923436
 20
6.8013131547
 30
0.0
  0
SPLINE
  5
43D
100
AcDbEntity
  8
0
100
AcDbSpline
 62
9
  6
CONTINUOUS
 70
0
 71
3
 72
11
 73
7
 74
0
 42
0.0000001
 43
0.0000001
 44
0.0000000001
 40
0.0
 40
0.0
 40
0.0
 40
0.0
 40
0.2705131246
 40
0.5265108968
 40
0.7690074357
 40
1.0
 40
1.0
 40
1.0
 40
1.0
 10
9.0507512525
 20
7.1585742546
 30
0.0
 10
9.0512626772
 20
7.1575090135
 30
0.0
 10
9.0521472502
 20
7.1553794708
 30
0.0
 10
9.0530465511
 20
7.1521331463
 30
0.0
 10
9.0534669131
 20
7.1489636907
 30
0.0
 10
9.0534214255
 20
7.14688525
 30
0.0
 10
9.053313073
 20
7.1458820685
 30
0.0
  0
SPLINE
  5
43E
100
AcDbEntity
  8
0
100
AcDbSpline
 62
9
  6
CONTINUOUS
 70
0
 71
3
 72
11
 73
7
 74
0
 42
0.0000001
 43
0.0000001
 44
0.0000000001
 40
0.0
 40
0.0
 40
0.0
 40
0.0
 40
0.2334842149
 40
0.4786931264
 40
0.7346662882
 40
1.0
 40
1.0
 40
1.0
 40
1.0
 10
8.6454513635
 20
7.1585742546
 30
0.0
 10
8.6459907677
 20
7.1574507354
 30
0.0
 10
8.6472285056
 20
7.1552089051
 30
0.0
 10
8.6494595541
 20
7.1519771283
 30
0.0
 10
8.6520843066
 20
7.1488317953
 30
0.0
 10
8.6540427312
 20
7.1468499854
 30
0.0
 10
8.6550766792
 20
7.1458820685
 30
0.0
  0
SPLINE
  5
43F
100
AcDbEntity
  8
0
100
AcDbSpline
 62
9
  6
CONTINUOUS
 70
0
 71
3
 72
17
 73
13
 74
0
 42
0.0000001
 43
0.0000001
 44
0.0000000001
 40
0.0
 40
0.0
 40
0.0
 40
0.0
 40
0.130623446
 40
0.1959626372
 40
0.2611319407
 40
0.3904509793
 40
0.5178500789
 40
0.5806743031
 40
0.6428040123
 40
0.764746639
 40
0.8837136426
 40
1.0
 40
1.0
 40
1.0
 40
1.0
 10
8.9849333219
 20
8.9963052307
 30
0.0
 10
8.9848463724
 20
8.9985442578
 30
0.0
 10
8.9844696775
 20
9.0019003349
 30
0.0
 10
8.9834886471
 20
9.0062739308
 30
0.0
 10
8.9821983212
 20
9.0105438906
 30
0.0
 10
8.9800242736
 20
9.0156426321
 30
0.0
 10
8.9771324169
 20
9.0203260685
 30
0.0
 10
8.9744406156
 20
9.0237214604
 30
0.0
 10
8.971551758
 20
9.0268235846
 30
0.0
 10
8.9675546051
 20
9.0301881355
 30
0.0
 10
8.9622389476
 20
9.0332940514
 30
0.0
 10
8.9584211788
 20
9.034683166
 30
0.0
 10
8.9564906371
 20
9.0351853027
 30
0.0
  0
SPLINE
  5
440
100
AcDbEntity
  8
0
100
AcDbSpline
 62
9
  6
CONTINUOUS
 70
0
 71
3
 72
17
 73
13
 74
0
 42
0.0000001
 43
0.0000001
 44
0.0000000001
 40
0.0
 40
0.0
 40
0.0
 40
0.0
 40
0.1334238971
 40
0.2651978983
 40
0.3946031625
 40
0.5211350994
 40
0.6445980066
 40
0.7651382173
 40
0.8245134284
 40
0.8833749698
 40
0.9418445322
 40
1.0
 40
1.0
 40
1.0
 40
1.0
 10
9.0507512526
 20
8.9963052307
 30
0.0
 10
9.0508377118
 20
8.9985316392
 30
0.0
 10
9.0506879006
 20
9.0029765478
 30
0.0
 10
9.0494906296
 20
9.0094806299
 30
0.0
 10
9.0473539691
 20
9.01562052
 30
0.0
 10
9.044334122
 20
9.021222475
 30
0.0
 10
9.040513916
 20
9.0261276511
 30
0.0
 10
9.0367258435
 20
9.0295371047
 30
0.0
 10
9.0334173296
 20
9.0317713842
 30
0.0
 10
9.0308238667
 20
9.0331887903
 30
0.0
 10
9.0281261018
 20
9.0343441104
 30
0.0
 10
9.026266913
 20
9.034936126
 30
0.0
 10
9.0253282677
 20
9.0351853027
 30
0.0
  0
SPLINE
  5
441
100
AcDbEntity
  8
0
100
AcDbSpline
 62
9
  6
CONTINUOUS
 70
0
 71
3
 72
43
 73
39
 74
0
 42
0.0000001
 43
0.0000001
 44
0.0000000001
 40
0.0
 40
0.0
 40
0.0
 40
0.0
 40
0.087248543
 40
0.1740601899
 40
0.2599791872
 40
0.3445542435
 40
0.42730387
 40
0.5077138603
 40
0.5852125623
 40
0.6591465161
 40
0.7287502571
 40
0.7616511327
 40
0.7931160517
 40
0.8230051043
 40
0.8511658936
 40
0.8774339053
 40
0.9016378506
 40
0.9236002079
 40
0.9431334397
 40
0.9519301334
 40
0.9600512028
 40
0.9674755043
 40
0.9741822243
 40
0.9801518241
 40
0.9853650525
 40
0.9898037614
 40
0.9934554231
 40
0.99498275
 40
0.9963092808
 40
0.9974337408
 40
0.9983553117
 40
0.9990733582
 40
0.9993558612
 40
0.999587245
 40
0.9997674302
 40
0.9998963373
 40
0.999973887
 40
1.0
 40
1.0
 40
1.0
 40
1.0
 10
8.8151923436
 20
6.8013131547
 30
0.0
 10
8.8084505244
 20
6.801313171
 30
0.0
 10
8.7949992372
 20
6.8015704936
 30
0.0
 10
8.7749384719
 20
6.8027162651
 30
0.0
 10
8.7551396181
 20
6.8045849001
 30
0.0
 10
8.7357316287
 20
6.8071166627
 30
0.0
 10
8.7168406796
 20
6.810232802
 30
0.0
 10
8.6985944787
 20
6.8138375421
 30
0.0
 10
8.6811256786
 20
6.8178206153
 30
0.0
 10
8.6645781218
 20
6.8220583759
 30
0.0
 10
8.6514538674
 20
6.8257549014
 30
0.0
 10
8.641535976
 20
6.828721816
 30
0.0
 10
8.6345791163
 20
6.8308779478
 30
0.0
 10
8.6279911555
 20
6.8329860146
 30
0.0
 10
8.6218026905
 20
6.8350240931
 30
0.0
 10
8.6160464533
 20
6.8369695933
 30
0.0
 10
8.6107567461
 20
6.838799078
 30
0.0
 10
8.6059692436
 20
6.8404881477
 30
0.0
 10
8.6023116915
 20
6.8418014155
 30
0.0
 10
8.5996644049
 20
6.842763307
 30
0.0
 10
8.5978979812
 20
6.8434096126
 30
0.0
 10
8.596284404
 20
6.8440036518
 30
0.0
 10
8.5948277507
 20
6.8445427295
 30
0.0
 10
8.5935320979
 20
6.8450245794
 30
0.0
 10
8.5924013305
 20
6.845447016
 30
0.0
 10
8.5914388217
 20
6.8458080379
 30
0.0
 10
8.590743286
 20
6.8460698329
 30
0.0
 10
8.5902729376
 20
6.846247232
 30
0.0
 10
8.5899853379
 20
6.8463558017
 30
0.0
 10
8.589741539
 20
6.8464478673
 30
0.0
 10
8.5895417259
 20
6.8465233154
 30
0.0
 10
8.5894027879
 20
6.8465758195
 30
0.0
 10
8.5893137244
 20
6.8466094156
 30
0.0
 10
8.5892635735
 20
6.8466284462
 30
0.0
 10
8.5892244463
 20
6.8466429893
 30
0.0
 10
8.5891966241
 20
6.8466540193
 30
0.0
 10
8.5891795831
 20
6.8466595208
 30
0.0
 10
8.5891723227
 20
6.8466632197
 30
0.0
 10
8.589170334
 20
6.8466635611
 30
0.0
  0
SPLINE
  5
442
100
AcDbEntity
  8
0
100
AcDbSpline
 62
9
  6
CONTINUOUS
 70
0
 71
3
 72
11
 73
7
 74
0
 42
0.0000001
 43
0.0000001
 44
0.0000000001
 40
0.0
 40
0.0
 40
0.0
 40
0.0
 40
0.2499989517
 40
0.4999999997
 40
0.7500010479
 40
1.0
 40
1.0
 40
1.0
 40
1.0
 10
11.2113064496
 20
4.871358046
 30
0.0
 10
11.1655601846
 20
4.87735135
 30
0.0
 10
11.0736240174
 20
4.8861519265
 30
0.0
 10
10.9351923429
 20
4.8904626787
 30
0.0
 10
10.7967606681
 20
4.8861519291
 30
0.0
 10
10.7048245009
 20
4.8773513503
 30
0.0
 10
10.6590782359
 20
4.871358046
 30
0.0
  0
SPLINE
  5
443
100
AcDbEntity
  8
0
100
AcDbSpline
 62
9
  6
CONTINUOUS
 70
0
 71
3
 72
11
 73
7
 74
0
 42
0.0000001
 43
0.0000001
 44
0.0000000001
 40
0.0
 40
0.0
 40
0.0
 40
0.0
 40
0.2334837255
 40
0.4786925288
 40
0.7346658843
 40
1.0
 40
1.0
 40
1.0
 40
1.0
 10
8.9849333219
 20
7.1585742547
 30
0.0
 10
8.9843939138
 20
7.1574507406
 30
0.0
 10
8.9831561699
 20
7.1552089184
 30
0.0
 10
8.9809251188
 20
7.1519771477
 30
0.0
 10
8.978300369
 20
7.148831811
 30
0.0
 10
8.9763419506
 20
7.146849992
 30
0.0
 10
8.9753080062
 20
7.1458820685
 30
0.0
  0
ENDSEC
  0
SECTION
  2
OBJECTS
  0
DICTIONARY
  5
C
100
AcDbDictionary
280
0
281
1
  3
ACAD_GROUP
350
D
  3
ACAD_MLINESTYLE
350
17
  3
ACAD_LAYOUT
350
1A
  3
ACAD_PLOTSETTINGS
350
19
  3
ACAD_PLOTSTYLENAME
350
E
  0
DICTIONARY
  5
D
102
{ACAD_REACTORS
330
C
102
}
100
AcDbDictionary
280
0
281
1
  0
ACDBDICTIONARYWDFLT
  5
E
102
{ACAD_REACTORS
330
C
102
}
100
AcDbDictionary
281
1
  3
Normal
350
F
100
AcDbDictionaryWithDefault
340
F
  0
DICTIONARY
  5
17
102
{ACAD_REACTORS
330
C
102
}
100
AcDbDictionary
280
0
281
1
  3
Standard
350
18
  0
DICTIONARY
  5
19
102
{ACAD_REACTORS
330
C
102
}
100
AcDbDictionary
281
1
  0
DICTIONARY
  5
1A
102
{ACAD_REACTORS
330
C
102
}
100
AcDbDictionary
281
1
  3
Model
350
444
  3
Layout1
350
445
  0
ACDBPLACEHOLDER
  5
F
102
{ACAD_REACTORS
330
E
102
}
  0
MLINESTYLE
  5
18
102
{ACAD_REACTORS
330
17
102
}
100
AcDbMlineStyle
  2
STANDARD
 70
0
  3

 62
256
 51
90.0
 52
90.0
 71
2
 49
0.5
 62
256
  6
BYLAYER
 49
-0.5
 62
256
  6
BYLAYER
  0
LAYOUT
  5
444
102
{ACAD_REACTORS
330
1A
102
}
100
AcDbPlotSettings
  1

  2
none_device
  4
ANSI_C_(22.00_x_17.00_Inches)
  6

 40
0.0
 41
0.0
 42
0.0
 43
0.0
 44
558.8
 45
431.8
 46
0.0
 47
0.0
 48
0.0
 49
0.0
140
0.0
141
0.0
142
1.0
143
1.0
 70
1024
 72
0
 73
0
 74
0
  7

 75
0
147
1.0
148
0.0
149
0.0
100
AcDbLayout
  1
Model
 70
0
 71
0
 10
0.0
 20
0.0
 11
22.0
 21
17.0
 12
0.0
 22
0.0
 32
0.0
 14
0.0
 24
0.0
 34
0.0
 15
0.0
 25
0.0
 35
0.0
146
0.0
 13
0.0
 23
0.0
 33
0.0
 16
1.0
 26
0.0
 36
0.0
 17
0.0
 27
1.0
 37
0.0
 76
0
330
205
345
0
346
0
  0
LAYOUT
  5
445
102
{ACAD_REACTORS
330
1A
102
}
100
AcDbPlotSettings
  1

  2
none_device
  4
ANSI_C_(22.00_x_17.00_Inches)
  6

 40
0.0
 41
0.0
 42
0.0
 43
0.0
 44
558.8
 45
431.8
 46
0.0
 47
0.0
 48
0.0
 49
0.0
140
0.0
141
0.0
142
1.0
143
1.0
 70
0
 72
0
 73
0
 74
0
  7

 75
0
147
1.0
148
0.0
149
0.0
100
AcDbLayout
  1
Layout1
 70
0
 71
1
 10
0.0
 20
0.0
 11
22.0
 21
17.0
 12
0.0
 22
0.0
 32
0.0
 14
0.0
 24
0.0
 34
0.0
 15
0.0
 25
0.0
 35
0.0
146
0.0
 13
0.0
 23
0.0
 33
0.0
 16
1.0
 26
0.0
 36
0.0
 17
0.0
 27
1.0
 37
0.0
 76
0
330
206
345
0
346
0
  0
ENDSEC
  0
EOF
