999
DXF file: E:\BT Custom\CADOUTPUT\_FRONT.dxf
999
Pro/ENGINEER 2018400 by Parametric Technology Corporation
  0
SECTION
  2
HEADER
  9
$ACADVER
  1
AC1018
  9
$DWGCODEPAGE
  3
ANSI_1252
  9
$EXTMAX
 10
22.0
 20
17.0
 30
0.0
  9
$EXTMIN
 10
0.0
 20
0.0
 30
0.0
  9
$LIMMIN
 10
0.0
 20
0.0
  9
$LIMMAX
 10
22.0
 20
17.0
  9
$VIEWCTR
 10
11.0
 20
8.5
  9
$VIEWSIZE
 40
17.0
  9
$CLAYER
  8
0
  9
$LTSCALE
 40
1.21
  9
$CELTYPE
  6
BYLAYER
  9
$DIMSCALE
 40
1.0
  9
$DIMASZ
 40
0.1
  9
$DIMEXO
 40
0.0625
  9
$DIMDLI
 40
0.836
  9
$DIMEXE
 40
0.125
  9
$DIMCEN
 40
0.198
  9
$DIMLFAC
 40
1.0
  9
$DIMBLK
  1
_FILLED
  9
$DIMALT
 70
1
  9
$DIMALTD
 70
2
  9
$DIMALTTD
 70
2
  9
$DIMALTF
 40
25.4
  9
$DIMTXT
 40
0.08
  9
$DIMTOL
 70
1
  9
$DIMLIM
 70
0
  9
$DIMTFAC
 40
1.0
  9
$DIMTP
 40
0.001
  9
$DIMTM
 40
0.001
  9
$DIMGAP
 40
0.09
  9
$DIMDSEP
 70
46
  9
$AUNITS
 70
0
  9
$PDMODE
 70
3
  9
$PDSIZE
 40
0.06
  9
$HANDSEED
  5
393
  9
$TILEMODE
 70
1
  9
$MEASUREMENT
 70
0
  9
$INSUNITS
 70
1
  0
ENDSEC
  0
SECTION
  2
CLASSES
  0
CLASS
  1
ACDBDICTIONARYWDFLT
  2
AcDbDictionaryWithDefault
  3
AutoCAD 2000
 90
0
 91
1
280
0
281
0
  0
CLASS
  1
ACDBPLACEHOLDER
  2
AcDbPlaceHolder
  3
AutoCAD 2000
 90
0
 91
1
280
0
281
0
  0
CLASS
  1
LAYOUT
  2
AcDbLayout
  3
AutoCAD 2000
 90
0
 91
0
280
0
281
0
  0
ENDSEC
  0
SECTION
  2
TABLES
  0
TABLE
  2
VPORT
  5
8
100
AcDbSymbolTable
 70
2
  0
VPORT
  5
1F4
100
AcDbSymbolTableRecord
100
AcDbViewportTableRecord
  2
*ACTIVE
 70
0
 10
0.0
 20
0.0
 11
1.0
 21
1.0
 12
11.0
 22
8.5
 13
0.0
 23
0.0
 14
1.0
 24
1.0
 15
0.0
 25
0.0
 16
0.0
 26
0.0
 36
1.0
 17
0.0
 27
0.0
 37
0.0
 40
17.0
 41
1.2941176471
 42
50.0
 43
0.0
 44
0.0
 50
0.0
 51
0.0
 71
0
 72
100
 73
1
 74
1
 75
0
 76
0
 77
0
 78
0
  0
ENDTAB
  0
TABLE
  2
LTYPE
  5
5
100
AcDbSymbolTable
 70
6
  0
LTYPE
  5
14
100
AcDbSymbolTableRecord
100
AcDbLinetypeTableRecord
  2
BYBLOCK
 70
0
  3

 72
65
 73
0
 40
0.0
  0
LTYPE
  5
15
100
AcDbSymbolTableRecord
100
AcDbLinetypeTableRecord
  2
BYLAYER
 70
0
  3

 72
65
 73
0
 40
0.0
  0
LTYPE
  5
16
100
AcDbSymbolTableRecord
100
AcDbLinetypeTableRecord
  2
CONTINUOUS
 70
64
  3
Solid line
 72
65
 73
0
 40
0.0
  0
LTYPE
  5
1F5
100
AcDbSymbolTableRecord
100
AcDbLinetypeTableRecord
  2
CENTER
 70
64
  3
____ _ ____ _ ____ _ ____ _ ____ _ ____ _ ____
 72
65
 73
4
 40
0.6
 49
0.375
 74
0
 49
-0.075
 74
0
 49
0.075
 74
0
 49
-0.075
 74
0
  0
LTYPE
  5
1F6
100
AcDbSymbolTableRecord
100
AcDbLinetypeTableRecord
  2
HIDDEN
 70
64
  3
- - - - - - - - - - - - - - - - - - - -
 72
65
 73
2
 40
0.2
 49
0.1
 74
0
 49
-0.1
 74
0
  0
LTYPE
  5
1F7
100
AcDbSymbolTableRecord
100
AcDbLinetypeTableRecord
  2
PHANTOM
 70
64
  3
_____ _ _ _____ _ _ _____ _ _ _____
 72
65
 73
6
 40
0.8
 49
0.45
 74
0
 49
-0.05
 74
0
 49
0.1
 74
0
 49
-0.05
 74
0
 49
0.1
 74
0
 49
-0.05
 74
0
  0
LTYPE
  5
1F8
100
AcDbSymbolTableRecord
100
AcDbLinetypeTableRecord
  2
DOT
 70
64
  3
. . . . . . . . . . . . . . . . . . . .
 72
65
 73
2
 40
0.2
 49
0.1
 74
0
 49
-0.1
 74
0
  0
LTYPE
  5
1F9
100
AcDbSymbolTableRecord
100
AcDbLinetypeTableRecord
  2
DASHED
 70
64
  3
- - - - - - - - - - - - - - - - - - - -
 72
65
 73
2
 40
0.2
 49
0.1
 74
0
 49
-0.1
 74
0
  0
ENDTAB
  0
TABLE
  2
LAYER
  5
2
100
AcDbSymbolTable
 70
36
  0
LAYER
  5
10
100
AcDbSymbolTableRecord
100
AcDbLayerTableRecord
  2
0
 70
0
 62
7
  6
CONTINUOUS
370
-3
390
F
  0
LAYER
  5
1FA
100
AcDbSymbolTableRecord
100
AcDbLayerTableRecord
  2
DEFAULT_1
 70
0
 62
7
  6
CENTER
370
-3
390
F
  0
LAYER
  5
1FB
100
AcDbSymbolTableRecord
100
AcDbLayerTableRecord
  2
DEFAULT_2
 70
0
 62
8
  6
HIDDEN
370
-3
390
F
  0
LAYER
  5
1FC
100
AcDbSymbolTableRecord
100
AcDbLayerTableRecord
  2
DEFAULT_3
 70
0
 62
7
  6
PHANTOM
370
-3
390
F
  0
LAYER
  5
1FD
100
AcDbSymbolTableRecord
100
AcDbLayerTableRecord
  2
ALL_FEATURES
 70
0
 62
7
  6
CONTINUOUS
370
-3
390
F
  0
LAYER
  5
1FE
100
AcDbSymbolTableRecord
100
AcDbLayerTableRecord
  2
AXES_FEATURES
 70
0
 62
7
  6
CONTINUOUS
370
-3
390
F
  0
LAYER
  5
1FF
100
AcDbSymbolTableRecord
100
AcDbLayerTableRecord
  2
DEFAULT_COORDINATE_SYSTEM
 70
0
 62
7
  6
CONTINUOUS
370
-3
390
F
  0
LAYER
  5
200
100
AcDbSymbolTableRecord
100
AcDbLayerTableRecord
  2
DEFAULT_DATUM_AXES
 70
0
 62
7
  6
CONTINUOUS
370
-3
390
F
  0
LAYER
  5
201
100
AcDbSymbolTableRecord
100
AcDbLayerTableRecord
  2
DEFAULT_DATUM_PLANES
 70
0
 62
7
  6
CONTINUOUS
370
-3
390
F
  0
LAYER
  5
202
100
AcDbSymbolTableRecord
100
AcDbLayerTableRecord
  2
DIMENSIONS
 70
0
 62
7
  6
CONTINUOUS
370
-3
390
F
  0
ENDTAB
  0
TABLE
  2
STYLE
  5
3
100
AcDbSymbolTable
 70
1
  0
STYLE
  5
11
100
AcDbSymbolTableRecord
100
AcDbTextStyleTableRecord
  2
STANDARD
 70
0
 40
0.0
 41
0.8
 50
0.0
 71
0
 42
0.2
  3
txt
  4

  0
STYLE
  5
203
100
AcDbSymbolTableRecord
100
AcDbTextStyleTableRecord
  2
TEXTSTYLE_1
 70
0
 40
0.0
 41
0.8
 50
0.0
 71
0
 42
0.2
  3
gdt
  4

  0
ENDTAB
  0
TABLE
  2
VIEW
  5
6
100
AcDbSymbolTable
 70
0
  0
ENDTAB
  0
TABLE
  2
UCS
  5
7
100
AcDbSymbolTable
 70
0
  0
ENDTAB
  0
TABLE
  2
APPID
  5
9
100
AcDbSymbolTable
 70
1
  0
APPID
  5
204
100
AcDbSymbolTableRecord
100
AcDbRegAppTableRecord
  2
ACAD
 70
0
  0
ENDTAB
  0
TABLE
  2
BLOCK_RECORD
  5
1
100
AcDbSymbolTable
 70
0
  0
BLOCK_RECORD
  5
205
100
AcDbSymbolTableRecord
100
AcDbBlockTableRecord
  2
*Model_Space
  0
BLOCK_RECORD
  5
206
100
AcDbSymbolTableRecord
100
AcDbBlockTableRecord
  2
*Paper_Space
  0
BLOCK_RECORD
  5
207
100
AcDbSymbolTableRecord
100
AcDbBlockTableRecord
  2
_FILLED
  0
ENDTAB
  0
TABLE
  2
DIMSTYLE
  5
A
100
AcDbSymbolTable
 70
1
100
AcDbDimStyleTable
 71
0
  0
DIMSTYLE
105
208
100
AcDbSymbolTableRecord
100
AcDbDimStyleTableRecord
  2
STANDARD
 70
0
  3

  4

 40
1.0
 41
0.1
 42
0.0625
 43
0.38
 44
0.125
 45
0.0
 46
0.0
 47
0.001
 48
0.001
140
0.08
141
0.09
142
0.0
143
25.4
144
1.0
145
0.0
146
1.0
147
0.09
 71
1.0
 72
0.0
 73
1
 74
1
 75
0
 76
0
 77
0
 78
4
 79
1
170
1
171
2
172
0
173
0
174
0
175
0
176
0
177
0
178
0
270
2
179
3
271
3
272
3
273
2
274
2
275
0
280
0
281
0
282
0
283
1
284
4
285
0
286
0
287
3
288
0
340
11
278
46
341
207
342
207
343
207
344
207
  0
ENDTAB
  0
ENDSEC
  0
SECTION
  2
BLOCKS
  0
BLOCK
  5
20
100
AcDbEntity
  8
0
100
AcDbBlockBegin
  2
*Model_Space
 70
0
 10
0.0
 20
0.0
 30
0.0
  3
*Model_Space
  1

  0
ENDBLK
  5
21
100
AcDbEntity
  8
0
100
AcDbBlockEnd
  0
BLOCK
  5
1C
100
AcDbEntity
  8
0
100
AcDbBlockBegin
  2
*Paper_Space
 70
0
 10
0.0
 20
0.0
 30
0.0
  3
*Paper_Space
  1

  0
ENDBLK
  5
1D
100
AcDbEntity
  8
0
100
AcDbBlockEnd
  0
BLOCK
  5
209
100
AcDbEntity
  8
0
100
AcDbBlockBegin
  2
_FILLED
 70
64
 10
0.0
 20
0.0
  3
_FILLED
  1

  0
SOLID
  5
20A
100
AcDbEntity
  8
0
  6
BYBLOCK
 62
0
100
AcDbTrace
 10
0.0
 20
0.0
 11
-1.0
 21
0.2
 12
-1.0
 22
-0.2
 13
-1.0
 23
-0.2
  0
ENDBLK
  5
20B
100
AcDbEntity
  8
0
  6
BYBLOCK
 62
0
100
AcDbBlockEnd
  0
ENDSEC
  0
SECTION
  2
ENTITIES
  0
LINE
  5
20C
100
AcDbEntity
  8
0
100
AcDbLine
 62
7
  6
CONTINUOUS
 10
12.6127858705
 20
4.6306635611
 11
10.8355088153
 21
4.6306635611
  0
LINE
  5
20D
100
AcDbEntity
  8
0
100
AcDbLine
 62
9
  6
CONTINUOUS
 10
12.6349663021
 20
4.6349138664
 11
10.8133283837
 21
4.6349138664
  0
LINE
  5
20E
100
AcDbEntity
  8
0
100
AcDbLine
 62
9
  6
CONTINUOUS
 10
10.7477784198
 20
4.6630303075
 11
10.7701778846
 21
4.6630303075
  0
LINE
  5
20F
100
AcDbEntity
  8
0
100
AcDbLine
 62
9
  6
CONTINUOUS
 10
11.0670823264
 20
4.6630303075
 11
11.4272429011
 21
4.6630303075
  0
LINE
  5
210
100
AcDbEntity
  8
0
100
AcDbLine
 62
9
  6
CONTINUOUS
 10
12.0210517847
 20
4.6630303075
 11
12.3812123594
 21
4.6630303075
  0
LINE
  5
211
100
AcDbEntity
  8
0
100
AcDbLine
 62
9
  6
CONTINUOUS
 10
12.6781168012
 20
4.6630303075
 11
12.700516266
 21
4.6630303075
  0
LINE
  5
212
100
AcDbEntity
  8
0
100
AcDbLine
 62
9
  6
CONTINUOUS
 10
10.7361473429
 20
4.6811951396
 11
10.7588136432
 21
4.6811951396
  0
LINE
  5
213
100
AcDbEntity
  8
0
100
AcDbLine
 62
9
  6
CONTINUOUS
 10
11.0592549841
 20
4.6811951396
 11
11.423706002
 21
4.6811951396
  0
LINE
  5
214
100
AcDbEntity
  8
0
100
AcDbLine
 62
9
  6
CONTINUOUS
 10
12.0245886838
 20
4.6811951396
 11
12.3890397017
 21
4.6811951396
  0
LINE
  5
215
100
AcDbEntity
  8
0
100
AcDbLine
 62
9
  6
CONTINUOUS
 10
12.6894810426
 20
4.6811951396
 11
12.7121473429
 21
4.6811951396
  0
LINE
  5
216
100
AcDbEntity
  8
0
100
AcDbLine
 62
9
  6
CONTINUOUS
 10
12.7121473429
 20
4.8701319825
 11
12.6894810426
 21
4.8701319825
  0
LINE
  5
217
100
AcDbEntity
  8
0
100
AcDbLine
 62
9
  6
CONTINUOUS
 10
12.3890397017
 20
4.8701319825
 11
12.0245886838
 21
4.8701319825
  0
LINE
  5
218
100
AcDbEntity
  8
0
100
AcDbLine
 62
9
  6
CONTINUOUS
 10
11.423706002
 20
4.8701319825
 11
11.0592549841
 21
4.8701319825
  0
LINE
  5
219
100
AcDbEntity
  8
0
100
AcDbLine
 62
9
  6
CONTINUOUS
 10
10.7588136432
 20
4.8701319825
 11
10.7361473429
 21
4.8701319825
  0
LINE
  5
21A
100
AcDbEntity
  8
0
100
AcDbLine
 62
9
  6
CONTINUOUS
 10
12.700516266
 20
4.8882968147
 11
12.6781168012
 21
4.8882968147
  0
LINE
  5
21B
100
AcDbEntity
  8
0
100
AcDbLine
 62
9
  6
CONTINUOUS
 10
12.3812123594
 20
4.8882968147
 11
12.0210517847
 21
4.8882968147
  0
LINE
  5
21C
100
AcDbEntity
  8
0
100
AcDbLine
 62
9
  6
CONTINUOUS
 10
11.4272429011
 20
4.8882968147
 11
11.0670823264
 21
4.8882968147
  0
LINE
  5
21D
100
AcDbEntity
  8
0
100
AcDbLine
 62
9
  6
CONTINUOUS
 10
10.7701778846
 20
4.8882968147
 11
10.7477784198
 21
4.8882968147
  0
LINE
  5
21E
100
AcDbEntity
  8
0
100
AcDbLine
 62
9
  6
CONTINUOUS
 10
10.8133283837
 20
4.9164132557
 11
12.6349663021
 21
4.9164132557
  0
LINE
  5
21F
100
AcDbEntity
  8
0
100
AcDbLine
 62
7
  6
CONTINUOUS
 10
10.8355088153
 20
4.9206635611
 11
12.6127858705
 21
4.9206635611
  0
LINE
  5
220
100
AcDbEntity
  8
0
100
AcDbLine
 62
7
  6
CONTINUOUS
 10
12.5991473429
 20
5.0556635611
 11
10.8491473429
 21
5.0556635611
  0
LINE
  5
221
100
AcDbEntity
  8
0
100
AcDbLine
 62
7
  6
CONTINUOUS
 10
10.4048521767
 20
5.8333474103
 11
10.6066455689
 21
5.8333474103
  0
LINE
  5
222
100
AcDbEntity
  8
0
100
AcDbLine
 62
9
  6
CONTINUOUS
 10
10.3902597623
 20
5.8748795352
 11
10.6203755369
 21
5.8748795352
  0
LINE
  5
223
100
AcDbEntity
  8
0
100
AcDbLine
 62
7
  6
CONTINUOUS
 10
10.928362227
 20
5.9816635611
 11
10.6541473429
 21
5.9816635611
  0
LINE
  5
224
100
AcDbEntity
  8
0
100
AcDbLine
 62
9
  6
CONTINUOUS
 10
10.3902597623
 20
6.0365376105
 11
10.6203755369
 21
6.0365376105
  0
LINE
  5
225
100
AcDbEntity
  8
0
100
AcDbLine
 62
7
  6
CONTINUOUS
 10
9.2641473429
 20
6.0866635611
 11
10.0341473429
 21
6.0866635611
  0
LINE
  5
226
100
AcDbEntity
  8
0
100
AcDbLine
 62
9
  6
CONTINUOUS
 10
10.3902597623
 20
6.3050054857
 11
10.6203755369
 21
6.3050054857
  0
LINE
  5
227
100
AcDbEntity
  8
0
100
AcDbLine
 62
9
  6
CONTINUOUS
 10
10.6375844645
 20
6.3022249251
 11
10.6203755369
 21
6.3050054857
  0
LINE
  5
228
100
AcDbEntity
  8
0
100
AcDbLine
 62
9
  6
CONTINUOUS
 10
10.3743690335
 20
6.301691911
 11
10.3902597623
 21
6.3050054857
  0
LINE
  5
229
100
AcDbEntity
  8
0
100
AcDbLine
 62
9
  6
CONTINUOUS
 10
10.3902597623
 20
6.6283216364
 11
10.6203755369
 21
6.6283216364
  0
LINE
  5
22A
100
AcDbEntity
  8
0
100
AcDbLine
 62
9
  6
CONTINUOUS
 10
10.3743690335
 20
6.6316352111
 11
10.3902597623
 21
6.6283216364
  0
LINE
  5
22B
100
AcDbEntity
  8
0
100
AcDbLine
 62
9
  6
CONTINUOUS
 10
10.6375844645
 20
6.631102197
 11
10.6203755369
 21
6.6283216364
  0
LINE
  5
22C
100
AcDbEntity
  8
0
100
AcDbLine
 62
7
  6
CONTINUOUS
 10
10.0341473429
 20
6.8466635611
 11
9.8301693457
 21
6.8466635611
  0
LINE
  5
22D
100
AcDbEntity
  8
0
100
AcDbLine
 62
7
  6
CONTINUOUS
 10
9.3781253341
 20
6.8466635611
 11
9.2641473429
 21
6.8466635611
  0
LINE
  5
22E
100
AcDbEntity
  8
0
100
AcDbLine
 62
9
  6
CONTINUOUS
 10
10.3902597623
 20
6.8967895116
 11
10.6203755369
 21
6.8967895116
  0
LINE
  5
22F
100
AcDbEntity
  8
0
100
AcDbLine
 62
7
  6
CONTINUOUS
 10
10.928362227
 20
6.9516635611
 11
10.6541473429
 21
6.9516635611
  0
LINE
  5
230
100
AcDbEntity
  8
0
100
AcDbLine
 62
9
  6
CONTINUOUS
 10
9.6699652734
 20
7.1585742546
 11
9.6821524097
 21
7.1458820685
  0
LWPOLYLINE
  5
231
100
AcDbEntity
  8
0
100
AcDbPolyline
 62
7
  6
CONTINUOUS
 90
8
 70
0
 10
10.3884329407
 20
5.8419279121
 10
10.3890382543
 20
5.8411033952
 10
10.3914358938
 20
5.8385150552
 10
10.3942510582
 20
5.8363883085
 10
10.3973961382
 20
5.8347893419
 10
10.4007732576
 20
5.8337679175
 10
10.4042773185
 20
5.8333558237
 10
10.4048521767
 20
5.8333475604
  0
LINE
  5
232
100
AcDbEntity
  8
0
100
AcDbLine
 62
7
  6
CONTINUOUS
 10
10.3841473429
 20
5.8482621365
 11
10.3884329678
 21
5.8419279309
  0
LWPOLYLINE
  5
233
100
AcDbEntity
  8
0
100
AcDbPolyline
 62
7
  6
CONTINUOUS
 90
8
 70
0
 10
10.4048521766
 20
7.0999795615
 10
10.4042773192
 20
7.0999712983
 10
10.4007732587
 20
7.0995592047
 10
10.3973961395
 20
7.0985377806
 10
10.3942510594
 20
7.0969388143
 10
10.3914358947
 20
7.0948120677
 10
10.3890382547
 20
7.0922237274
 10
10.3884329406
 20
7.0913992098
  0
LINE
  5
234
100
AcDbEntity
  8
0
100
AcDbLine
 62
9
  6
CONTINUOUS
 10
10.3902597623
 20
7.058447587
 11
10.6203755369
 21
7.058447587
  0
LINE
  5
235
100
AcDbEntity
  8
0
100
AcDbLine
 62
7
  6
CONTINUOUS
 10
10.4048521766
 20
7.0999797118
 11
10.6066455689
 21
7.0999797118
  0
LINE
  5
236
100
AcDbEntity
  8
0
100
AcDbLine
 62
7
  6
CONTINUOUS
 10
9.435024742
 20
6.9257018405
 11
9.3545794156
 21
7.1661275778
  0
LWPOLYLINE
  5
237
100
AcDbEntity
  8
0
100
AcDbPolyline
 62
7
  6
CONTINUOUS
 90
4
 70
0
 10
9.352514664
 20
7.1788099308
 10
9.3526854193
 20
7.175119227
 10
9.3536270475
 20
7.1694458592
 10
9.354580038
 20
7.1661277859
  0
LINE
  5
238
100
AcDbEntity
  8
0
100
AcDbLine
 62
7
  6
CONTINUOUS
 10
9.1641473429
 20
6.1092038941
 11
9.1641473429
 21
6.824123228
  0
LINE
  5
239
100
AcDbEntity
  8
0
100
AcDbLine
 62
7
  6
CONTINUOUS
 10
9.2641473429
 20
6.8466635611
 11
9.2641473429
 21
6.0866635611
  0
LINE
  5
23A
100
AcDbEntity
  8
0
100
AcDbLine
 62
7
  6
CONTINUOUS
 10
12.5491473427
 20
7.4056635611
 11
10.899147343
 21
7.4056635611
  0
LINE
  5
23B
100
AcDbEntity
  8
0
100
AcDbLine
 62
9
  6
CONTINUOUS
 10
10.8694022399
 20
7.4376002844
 11
11.0565741774
 21
7.4376002844
  0
LINE
  5
23C
100
AcDbEntity
  8
0
100
AcDbLine
 62
9
  6
CONTINUOUS
 10
11.5369754054
 20
7.4376002844
 11
11.9113192804
 21
7.4376002844
  0
LINE
  5
23D
100
AcDbEntity
  8
0
100
AcDbLine
 62
9
  6
CONTINUOUS
 10
12.3917205084
 20
7.4376002844
 11
12.5788924459
 21
7.4376002844
  0
LINE
  5
23E
100
AcDbEntity
  8
0
100
AcDbLine
 62
9
  6
CONTINUOUS
 10
10.8590533103
 20
7.455399956
 11
11.0484914546
 21
7.455399956
  0
LINE
  5
23F
100
AcDbEntity
  8
0
100
AcDbLine
 62
9
  6
CONTINUOUS
 10
11.5347091986
 20
7.455399956
 11
11.9135854872
 21
7.455399956
  0
LINE
  5
240
100
AcDbEntity
  8
0
100
AcDbLine
 62
9
  6
CONTINUOUS
 10
12.3998032312
 20
7.455399956
 11
12.5892413754
 21
7.455399956
  0
LINE
  5
241
100
AcDbEntity
  8
0
100
AcDbLine
 62
9
  6
CONTINUOUS
 10
12.5892413754
 20
7.6559271662
 11
12.3998032312
 21
7.6559271662
  0
LINE
  5
242
100
AcDbEntity
  8
0
100
AcDbLine
 62
9
  6
CONTINUOUS
 10
11.9135854872
 20
7.6559271662
 11
11.5347091986
 21
7.6559271662
  0
LINE
  5
243
100
AcDbEntity
  8
0
100
AcDbLine
 62
9
  6
CONTINUOUS
 10
11.0484914546
 20
7.6559271662
 11
10.8590533103
 21
7.6559271662
  0
LINE
  5
244
100
AcDbEntity
  8
0
100
AcDbLine
 62
7
  6
CONTINUOUS
 10
10.8673650134
 20
7.4180785231
 11
10.8991473429
 21
7.4056635611
  0
LINE
  5
245
100
AcDbEntity
  8
0
100
AcDbLine
 62
9
  6
CONTINUOUS
 10
9.5383294123
 20
8.9963052307
 11
9.5353097123
 21
9.0351853027
  0
LINE
  5
246
100
AcDbEntity
  8
0
100
AcDbLine
 62
7
  6
CONTINUOUS
 10
9.3525114815
 20
8.9946389342
 11
9.3525114815
 21
7.1788099291
  0
LINE
  5
247
100
AcDbEntity
  8
0
100
AcDbLine
 62
9
  6
CONTINUOUS
 10
9.3685884331
 20
8.9963052307
 11
9.3685884331
 21
7.1585742547
  0
LINE
  5
248
100
AcDbEntity
  8
0
100
AcDbLine
 62
9
  6
CONTINUOUS
 10
9.4344063638
 20
8.9963052307
 11
9.4344063638
 21
7.1585742547
  0
LINE
  5
249
100
AcDbEntity
  8
0
100
AcDbLine
 62
9
  6
CONTINUOUS
 10
9.5383294122
 20
8.9963052307
 11
9.5383294122
 21
7.1585742547
  0
LINE
  5
24A
100
AcDbEntity
  8
0
100
AcDbLine
 62
9
  6
CONTINUOUS
 10
12.5788924459
 20
7.6737268377
 11
12.3917205084
 21
7.6737268377
  0
LINE
  5
24B
100
AcDbEntity
  8
0
100
AcDbLine
 62
9
  6
CONTINUOUS
 10
11.9113192804
 20
7.6737268377
 11
11.5369754054
 21
7.6737268377
  0
LINE
  5
24C
100
AcDbEntity
  8
0
100
AcDbLine
 62
9
  6
CONTINUOUS
 10
11.0565741774
 20
7.6737268377
 11
10.8694022399
 21
7.6737268377
  0
LINE
  5
24D
100
AcDbEntity
  8
0
100
AcDbLine
 62
7
  6
CONTINUOUS
 10
12.5491473427
 20
7.7056635611
 11
10.899147343
 21
7.7056635611
  0
LINE
  5
24E
100
AcDbEntity
  8
0
100
AcDbLine
 62
7
  6
CONTINUOUS
 10
10.9491474781
 20
7.7756635611
 11
12.4991472077
 21
7.7756635611
  0
LINE
  5
24F
100
AcDbEntity
  8
0
100
AcDbLine
 62
7
  6
CONTINUOUS
 10
11.3241473098
 20
7.9366635611
 11
12.124147376
 21
7.9366635611
  0
LINE
  5
250
100
AcDbEntity
  8
0
100
AcDbLine
 62
9
  6
CONTINUOUS
 10
9.6699652736
 20
8.9963052307
 11
9.6699652736
 21
7.1585742547
  0
LINE
  5
251
100
AcDbEntity
  8
0
100
AcDbLine
 62
9
  6
CONTINUOUS
 10
9.773888322
 20
8.9963052307
 11
9.773888322
 21
7.1585742547
  0
LINE
  5
252
100
AcDbEntity
  8
0
100
AcDbLine
 62
9
  6
CONTINUOUS
 10
9.8397062527
 20
8.9963052307
 11
9.8397062527
 21
7.1585742547
  0
LINE
  5
253
100
AcDbEntity
  8
0
100
AcDbLine
 62
7
  6
CONTINUOUS
 10
9.8557832043
 20
8.9946389342
 11
9.8557832043
 21
7.1788099291
  0
LINE
  5
254
100
AcDbEntity
  8
0
100
AcDbLine
 62
9
  6
CONTINUOUS
 10
9.6699652736
 20
8.9963052307
 11
9.6729849735
 21
9.0351853027
  0
LINE
  5
255
100
AcDbEntity
  8
0
100
AcDbLine
 62
9
  6
CONTINUOUS
 10
10.0341473429
 20
6.8466635611
 11
10.0341473429
 21
6.0866635611
  0
LINE
  5
256
100
AcDbEntity
  8
0
100
AcDbLine
 62
7
  6
CONTINUOUS
 10
10.0941473429
 20
6.0105429095
 11
10.0941473429
 21
6.9227842126
  0
LINE
  5
257
100
AcDbEntity
  8
0
100
AcDbLine
 62
9
  6
CONTINUOUS
 10
10.1291121321
 20
5.9708610919
 11
10.1291121321
 21
6.9624660302
  0
LINE
  5
258
100
AcDbEntity
  8
0
100
AcDbLine
 62
9
  6
CONTINUOUS
 10
10.2041473429
 20
5.9593447079
 11
10.2041473429
 21
6.9739824142
  0
LINE
  5
259
100
AcDbEntity
  8
0
100
AcDbLine
 62
9
  6
CONTINUOUS
 10
10.2841473429
 20
5.9341909963
 11
10.2841473429
 21
6.9991361259
  0
LINE
  5
25A
100
AcDbEntity
  8
0
100
AcDbLine
 62
7
  6
CONTINUOUS
 10
12.5491473429
 20
7.7056635611
 11
12.580929673
 21
7.6932485988
  0
LINE
  5
25B
100
AcDbEntity
  8
0
100
AcDbLine
 62
9
  6
CONTINUOUS
 10
10.3841473429
 20
5.8482621365
 11
10.3841473429
 21
5.85360248
  0
LINE
  5
25C
100
AcDbEntity
  8
0
100
AcDbLine
 62
9
  6
CONTINUOUS
 10
10.3841473429
 20
6.0899025104
 11
10.3841473429
 21
6.2303635307
  0
LINE
  5
25D
100
AcDbEntity
  8
0
100
AcDbLine
 62
9
  6
CONTINUOUS
 10
10.3841473429
 20
6.7029635914
 11
10.3841473429
 21
6.8434246118
  0
LINE
  5
25E
100
AcDbEntity
  8
0
100
AcDbLine
 62
9
  6
CONTINUOUS
 10
10.3841473429
 20
7.0797246421
 11
10.3841473429
 21
7.0850649856
  0
LWPOLYLINE
  5
25F
100
AcDbEntity
  8
0
100
AcDbPolyline
 62
7
  6
CONTINUOUS
 90
4
 70
0
 10
9.8537146478
 20
7.1661277859
 10
9.8546676383
 20
7.1694458592
 10
9.8556092665
 20
7.175119227
 10
9.8557800218
 20
7.1788099308
  0
LINE
  5
260
100
AcDbEntity
  8
0
100
AcDbLine
 62
7
  6
CONTINUOUS
 10
9.7732699438
 20
6.9257018405
 11
9.8537152702
 21
7.1661275778
  0
LINE
  5
261
100
AcDbEntity
  8
0
100
AcDbLine
 62
7
  6
CONTINUOUS
 10
10.6541473429
 20
5.8966635611
 11
10.6541473429
 21
7.0366635611
  0
LINE
  5
262
100
AcDbEntity
  8
0
100
AcDbLine
 62
7
  6
CONTINUOUS
 10
10.7361473429
 20
4.6811951396
 11
10.7361473429
 21
4.8701319825
  0
LINE
  5
263
100
AcDbEntity
  8
0
100
AcDbLine
 62
9
  6
CONTINUOUS
 10
10.7588136432
 20
4.8701319825
 11
10.7588136432
 21
4.6811951396
  0
LINE
  5
264
100
AcDbEntity
  8
0
100
AcDbLine
 62
9
  6
CONTINUOUS
 10
10.7676962829
 20
4.871358046
 11
10.7676962829
 21
4.6799690761
  0
LINE
  5
265
100
AcDbEntity
  8
0
100
AcDbLine
 62
7
  6
CONTINUOUS
 10
10.8491473429
 20
4.9206635611
 11
10.8491473429
 21
5.0556635611
  0
LINE
  5
266
100
AcDbEntity
  8
0
100
AcDbLine
 62
7
  6
CONTINUOUS
 10
10.8551473429
 20
7.4365433852
 11
10.8551473429
 21
7.6747837336
  0
LINE
  5
267
100
AcDbEntity
  8
0
100
AcDbLine
 62
9
  6
CONTINUOUS
 10
10.8590533103
 20
7.455399956
 11
10.8590533103
 21
7.6559271662
  0
LINE
  5
268
100
AcDbEntity
  8
0
100
AcDbLine
 62
7
  6
CONTINUOUS
 10
10.9191473429
 20
5.0556635611
 11
10.9191473429
 21
5.9666635611
  0
LINE
  5
269
100
AcDbEntity
  8
0
100
AcDbLine
 62
7
  6
CONTINUOUS
 10
10.9191473429
 20
6.9666635611
 11
10.9191473429
 21
7.4056635611
  0
LINE
  5
26A
100
AcDbEntity
  8
0
100
AcDbLine
 62
7
  6
CONTINUOUS
 10
10.9491473429
 20
7.7756635611
 11
10.9491473429
 21
7.7056635611
  0
LINE
  5
26B
100
AcDbEntity
  8
0
100
AcDbLine
 62
7
  6
CONTINUOUS
 10
9.60458141
 20
9.0606636646
 11
9.6037132758
 21
9.0606636646
  0
LINE
  5
26C
100
AcDbEntity
  8
0
100
AcDbLine
 62
9
  6
CONTINUOUS
 10
11.4480332361
 20
4.871358046
 11
11.4456510007
 21
4.8895413988
  0
LINE
  5
26D
100
AcDbEntity
  8
0
100
AcDbLine
 62
9
  6
CONTINUOUS
 10
11.0438103897
 20
4.6799690761
 11
11.0438103897
 21
4.871358046
  0
LINE
  5
26E
100
AcDbEntity
  8
0
100
AcDbLine
 62
9
  6
CONTINUOUS
 10
11.0484914546
 20
7.6559271662
 11
11.0484914546
 21
7.455399956
  0
LINE
  5
26F
100
AcDbEntity
  8
0
100
AcDbLine
 62
9
  6
CONTINUOUS
 10
11.0592549841
 20
4.6811951396
 11
11.0592549841
 21
4.8701319825
  0
LINE
  5
270
100
AcDbEntity
  8
0
100
AcDbLine
 62
9
  6
CONTINUOUS
 10
11.0679224289
 20
7.6573202806
 11
11.0679224289
 21
7.4540068415
  0
LINE
  5
271
100
AcDbEntity
  8
0
100
AcDbLine
 62
7
  6
CONTINUOUS
 10
11.3241473429
 20
7.9366635611
 11
11.3241473429
 21
7.7756635611
  0
LINE
  5
272
100
AcDbEntity
  8
0
100
AcDbLine
 62
9
  6
CONTINUOUS
 10
11.423706002
 20
4.8701319825
 11
11.423706002
 21
4.6811951396
  0
LINE
  5
273
100
AcDbEntity
  8
0
100
AcDbLine
 62
9
  6
CONTINUOUS
 10
11.4480332361
 20
4.871358046
 11
11.4480332361
 21
4.6799690761
  0
LINE
  5
274
100
AcDbEntity
  8
0
100
AcDbLine
 62
7
  6
CONTINUOUS
 10
11.4741473429
 20
7.9366635611
 11
11.4741473429
 21
13.6556635611
  0
LINE
  5
275
100
AcDbEntity
  8
0
100
AcDbLine
 62
9
  6
CONTINUOUS
 10
11.5113722569
 20
7.4540068415
 11
11.5113722569
 21
7.6573202806
  0
LINE
  5
276
100
AcDbEntity
  8
0
100
AcDbLine
 62
9
  6
CONTINUOUS
 10
11.5347091986
 20
7.455399956
 11
11.5347091986
 21
7.6559271662
  0
LINE
  5
277
100
AcDbEntity
  8
0
100
AcDbLine
 62
9
  6
CONTINUOUS
 10
9.5383294122
 20
7.1585742547
 11
9.5261422759
 21
7.1458820686
  0
LINE
  5
278
100
AcDbEntity
  8
0
100
AcDbLine
 62
9
  6
CONTINUOUS
 10
12.0002614497
 20
4.6799690761
 11
12.0026436851
 21
4.6617857234
  0
LINE
  5
279
100
AcDbEntity
  8
0
100
AcDbLine
 62
9
  6
CONTINUOUS
 10
11.9135854872
 20
7.6559271662
 11
11.9135854872
 21
7.455399956
  0
LINE
  5
27A
100
AcDbEntity
  8
0
100
AcDbLine
 62
9
  6
CONTINUOUS
 10
11.9369224289
 20
7.6573202806
 11
11.9369224289
 21
7.4540068415
  0
LINE
  5
27B
100
AcDbEntity
  8
0
100
AcDbLine
 62
7
  6
CONTINUOUS
 10
11.9741473429
 20
7.9366635611
 11
11.9741473429
 21
13.6556635611
  0
LINE
  5
27C
100
AcDbEntity
  8
0
100
AcDbLine
 62
7
  6
CONTINUOUS
 10
10.3841473429
 20
7.0850649856
 11
10.3884329676
 21
7.0913991911
  0
LINE
  5
27D
100
AcDbEntity
  8
0
100
AcDbLine
 62
9
  6
CONTINUOUS
 10
12.0002614497
 20
4.6799690761
 11
12.0002614497
 21
4.871358046
  0
LINE
  5
27E
100
AcDbEntity
  8
0
100
AcDbLine
 62
9
  6
CONTINUOUS
 10
12.0245886838
 20
4.6811951396
 11
12.0245886838
 21
4.8701319825
  0
LINE
  5
27F
100
AcDbEntity
  8
0
100
AcDbLine
 62
7
  6
CONTINUOUS
 10
12.1241473429
 20
7.9366635611
 11
12.1241473429
 21
7.7756635611
  0
LINE
  5
280
100
AcDbEntity
  8
0
100
AcDbLine
 62
9
  6
CONTINUOUS
 10
11.4480332361
 20
4.6799690761
 11
11.4456510007
 21
4.6617857234
  0
LINE
  5
281
100
AcDbEntity
  8
0
100
AcDbLine
 62
9
  6
CONTINUOUS
 10
12.3803722569
 20
7.4540068415
 11
12.3803722569
 21
7.6573202806
  0
LINE
  5
282
100
AcDbEntity
  8
0
100
AcDbLine
 62
9
  6
CONTINUOUS
 10
12.3890397017
 20
4.8701319825
 11
12.3890397017
 21
4.6811951396
  0
LINE
  5
283
100
AcDbEntity
  8
0
100
AcDbLine
 62
9
  6
CONTINUOUS
 10
12.3998032312
 20
7.455399956
 11
12.3998032312
 21
7.6559271662
  0
LINE
  5
284
100
AcDbEntity
  8
0
100
AcDbLine
 62
9
  6
CONTINUOUS
 10
12.4044842961
 20
4.871358046
 11
12.4044842961
 21
4.6799690761
  0
LINE
  5
285
100
AcDbEntity
  8
0
100
AcDbLine
 62
7
  6
CONTINUOUS
 10
12.4991473429
 20
7.7756635611
 11
12.4991473429
 21
7.7056635611
  0
LINE
  5
286
100
AcDbEntity
  8
0
100
AcDbLine
 62
7
  6
CONTINUOUS
 10
12.5291473429
 20
5.0556635611
 11
12.5291473429
 21
7.4056635611
  0
LINE
  5
287
100
AcDbEntity
  8
0
100
AcDbLine
 62
9
  6
CONTINUOUS
 10
12.5892413754
 20
7.6559271662
 11
12.5892413754
 21
7.455399956
  0
LINE
  5
288
100
AcDbEntity
  8
0
100
AcDbLine
 62
7
  6
CONTINUOUS
 10
12.5931473429
 20
7.6747837336
 11
12.5931473429
 21
7.4365433852
  0
LINE
  5
289
100
AcDbEntity
  8
0
100
AcDbLine
 62
7
  6
CONTINUOUS
 10
12.5991473429
 20
4.9206635611
 11
12.5991473429
 21
5.0556635611
  0
LINE
  5
28A
100
AcDbEntity
  8
0
100
AcDbLine
 62
9
  6
CONTINUOUS
 10
12.0002614497
 20
4.871358046
 11
12.0026436851
 21
4.8895413988
  0
LINE
  5
28B
100
AcDbEntity
  8
0
100
AcDbLine
 62
7
  6
CONTINUOUS
 10
10.8991473429
 20
7.7056635611
 11
10.8673650128
 21
7.6932485988
  0
LINE
  5
28C
100
AcDbEntity
  8
0
100
AcDbLine
 62
9
  6
CONTINUOUS
 10
12.6805984029
 20
4.6799690761
 11
12.6805984029
 21
4.871358046
  0
LINE
  5
28D
100
AcDbEntity
  8
0
100
AcDbLine
 62
9
  6
CONTINUOUS
 10
12.6894810426
 20
4.6811951396
 11
12.6894810426
 21
4.8701319825
  0
LINE
  5
28E
100
AcDbEntity
  8
0
100
AcDbLine
 62
7
  6
CONTINUOUS
 10
12.7121473429
 20
4.6811951396
 11
12.7121473429
 21
4.8701319825
  0
LINE
  5
28F
100
AcDbEntity
  8
0
100
AcDbLine
 62
7
  6
CONTINUOUS
 10
11.9741457644
 20
11.1556635611
 11
11.4741489214
 21
11.1556635611
  0
LINE
  5
290
100
AcDbEntity
  8
0
100
AcDbLine
 62
7
  6
CONTINUOUS
 10
12.5809296724
 20
7.4180785231
 11
12.5491473429
 21
7.4056635611
  0
LINE
  5
291
100
AcDbEntity
  8
0
100
AcDbLine
 62
9
  6
CONTINUOUS
 10
11.9741473429
 20
11.6556635611
 11
11.4741473429
 21
11.6556635611
  0
ARC
  5
292
100
AcDbEntity
  8
0
100
AcDbCircle
 62
7
  6
CONTINUOUS
 10
9.9458584542
 20
4.5266635611
 40
1.4557775993
100
AcDbArc
 50
79.7802889337
 51
82.7684068827
  0
ARC
  5
293
100
AcDbEntity
  8
0
100
AcDbCircle
 62
7
  6
CONTINUOUS
 10
9.9458584542
 20
8.4066635611
 40
1.4557775993
100
AcDbArc
 50
277.2315931173
 51
280.2197110663
  0
ARC
  5
294
100
AcDbEntity
  8
0
100
AcDbCircle
 62
7
  6
CONTINUOUS
 10
9.60458141
 20
8.1506636646
 40
0.91
100
AcDbArc
 50
75.9505072594
 51
90.0
  0
ARC
  5
295
100
AcDbEntity
  8
0
100
AcDbCircle
 62
7
  6
CONTINUOUS
 10
9.6037132758
 20
8.1506636646
 40
0.91
100
AcDbArc
 50
90.0
 51
104.0494927406
  0
ARC
  5
296
100
AcDbEntity
  8
0
100
AcDbCircle
 62
9
  6
CONTINUOUS
 10
9.6041496997
 20
8.1489575047
 40
0.8888970721
100
AcDbArc
 50
85.5586272785
 51
94.4412576181
  0
ARC
  5
297
100
AcDbEntity
  8
0
100
AcDbCircle
 62
9
  6
CONTINUOUS
 10
9.6041498946
 20
8.14888211
 40
0.8499750641
100
AcDbArc
 50
85.5590204103
 51
94.4408452102
  0
ARC
  5
298
100
AcDbEntity
  8
0
100
AcDbCircle
 62
9
  6
CONTINUOUS
 10
9.8527529863
 20
5.6658418724
 40
0.5767237456
100
AcDbArc
 50
18.1265378817
 51
21.2511767787
  0
ARC
  5
299
100
AcDbEntity
  8
0
100
AcDbCircle
 62
9
  6
CONTINUOUS
 10
9.8655803453
 20
7.2628952045
 40
0.5631050692
100
AcDbArc
 50
338.7110288702
 51
341.9112564695
  0
ARC
  5
29A
100
AcDbEntity
  8
0
100
AcDbCircle
 62
9
  6
CONTINUOUS
 10
9.8918534574
 20
5.6893275771
 40
0.5189792996
100
AcDbArc
 50
18.4534808324
 51
21.6057493813
  0
ARC
  5
29B
100
AcDbEntity
  8
0
100
AcDbCircle
 62
9
  6
CONTINUOUS
 10
9.9030598325
 20
7.2399141971
 40
0.5070560977
100
AcDbArc
 50
338.3571788279
 51
341.5835909584
  0
ARC
  5
29C
100
AcDbEntity
  8
0
100
AcDbCircle
 62
7
  6
CONTINUOUS
 10
10.1450718121
 20
5.6316635611
 40
0.3329637403
100
AcDbArc
 50
65.3111845702
 51
79.7802889337
  0
ARC
  5
29D
100
AcDbEntity
  8
0
100
AcDbCircle
 62
7
  6
CONTINUOUS
 10
10.1450718121
 20
7.3016635611
 40
0.3329637403
100
AcDbArc
 50
280.2197110663
 51
294.6888154298
  0
ARC
  5
29E
100
AcDbEntity
  8
0
100
AcDbCircle
 62
7
  6
CONTINUOUS
 10
10.3966594791
 20
6.0066635611
 40
0.28
100
AcDbArc
 50
323.8658738338
 51
336.8676036007
  0
ARC
  5
29F
100
AcDbEntity
  8
0
100
AcDbCircle
 62
7
  6
CONTINUOUS
 10
10.3966594791
 20
6.9266635611
 40
0.28
100
AcDbArc
 50
23.1323963993
 51
36.1341261662
  0
ARC
  5
2A0
100
AcDbEntity
  8
0
100
AcDbCircle
 62
7
  6
CONTINUOUS
 10
10.1841473429
 20
5.7166635611
 40
0.2394121657
100
AcDbArc
 50
33.3446316102
 51
65.3111845702
  0
ARC
  5
2A1
100
AcDbEntity
  8
0
100
AcDbCircle
 62
7
  6
CONTINUOUS
 10
10.1841473429
 20
7.2166635611
 40
0.2394121657
100
AcDbArc
 50
294.6888154298
 51
326.6553683898
  0
ARC
  5
2A2
100
AcDbEntity
  8
0
100
AcDbCircle
 62
7
  6
CONTINUOUS
 10
10.8355088153
 20
4.8606635611
 40
0.06
100
AcDbArc
 50
90.0
 51
111.6955047478
  0
ARC
  5
2A3
100
AcDbEntity
  8
0
100
AcDbCircle
 62
7
  6
CONTINUOUS
 10
10.8355088153
 20
4.6906635611
 40
0.06
100
AcDbArc
 50
248.3044952522
 51
270.0
  0
ARC
  5
2A4
100
AcDbEntity
  8
0
100
AcDbCircle
 62
7
  6
CONTINUOUS
 10
10.0341473429
 20
6.0266635611
 40
0.06
100
AcDbArc
 50
0.0
 51
90.0
  0
ARC
  5
2A5
100
AcDbEntity
  8
0
100
AcDbCircle
 62
7
  6
CONTINUOUS
 10
10.0341473429
 20
6.9066635611
 40
0.06
100
AcDbArc
 50
270.0
 51
360.0
  0
ARC
  5
2A6
100
AcDbEntity
  8
0
100
AcDbCircle
 62
7
  6
CONTINUOUS
 10
9.8301693631
 20
6.9066635611
 40
0.06
100
AcDbArc
 50
161.4999999985
 51
269.9999833731
  0
ARC
  5
2A7
100
AcDbEntity
  8
0
100
AcDbCircle
 62
7
  6
CONTINUOUS
 10
9.3781253227
 20
6.9066635611
 40
0.06
100
AcDbArc
 50
270.0000133101
 51
18.5000000007
  0
ARC
  5
2A8
100
AcDbEntity
  8
0
100
AcDbCircle
 62
7
  6
CONTINUOUS
 10
9.216687676
 20
6.824123228
 40
0.0525403331
100
AcDbArc
 50
25.4047544257
 51
180.0
  0
ARC
  5
2A9
100
AcDbEntity
  8
0
100
AcDbCircle
 62
7
  6
CONTINUOUS
 10
9.216687676
 20
6.1092038941
 40
0.0525403331
100
AcDbArc
 50
180.0
 51
334.5952455743
  0
ARC
  5
2AA
100
AcDbEntity
  8
0
100
AcDbCircle
 62
7
  6
CONTINUOUS
 10
10.1341473429
 20
6.0105429095
 40
0.04
100
AcDbArc
 50
180.0
 51
262.7684068827
  0
ARC
  5
2AB
100
AcDbEntity
  8
0
100
AcDbCircle
 62
7
  6
CONTINUOUS
 10
10.1341473429
 20
6.9227842126
 40
0.04
100
AcDbArc
 50
97.2315931173
 51
180.0
  0
ARC
  5
2AC
100
AcDbEntity
  8
0
100
AcDbCircle
 62
7
  6
CONTINUOUS
 10
10.8751473429
 20
7.4365022926
 40
0.02
100
AcDbArc
 50
180.0
 51
247.1004630718
  0
ARC
  5
2AD
100
AcDbEntity
  8
0
100
AcDbCircle
 62
7
  6
CONTINUOUS
 10
10.8751473429
 20
7.6748248279
 40
0.02
100
AcDbArc
 50
112.8995371289
 51
180.0
  0
ARC
  5
2AE
100
AcDbEntity
  8
0
100
AcDbCircle
 62
7
  6
CONTINUOUS
 10
10.7561473429
 20
4.6811951396
 40
0.02
100
AcDbArc
 50
180.0
 51
245.2634745094
  0
ARC
  5
2AF
100
AcDbEntity
  8
0
100
AcDbCircle
 62
7
  6
CONTINUOUS
 10
10.7561473429
 20
4.8701319825
 40
0.02
100
AcDbArc
 50
114.7365254906
 51
180.0
  0
ARC
  5
2B0
100
AcDbEntity
  8
0
100
AcDbCircle
 62
7
  6
CONTINUOUS
 10
10.6066455689
 20
5.8533474103
 40
0.02
100
AcDbArc
 50
270.0000000002
 51
323.8658738338
  0
ARC
  5
2B1
100
AcDbEntity
  8
0
100
AcDbCircle
 62
7
  6
CONTINUOUS
 10
10.6066455689
 20
7.0799797118
 40
0.02
100
AcDbArc
 50
36.1341261662
 51
89.9999999998
  0
ARC
  5
2B2
100
AcDbEntity
  8
0
100
AcDbCircle
 62
9
  6
CONTINUOUS
 10
9.4284303679
 20
8.8146132127
 40
0.2232404685
100
AcDbArc
 50
81.1309314793
 51
98.8691368423
  0
ARC
  5
2B3
100
AcDbEntity
  8
0
100
AcDbCircle
 62
9
  6
CONTINUOUS
 10
9.779864318
 20
8.8146132136
 40
0.2232404676
100
AcDbArc
 50
81.1308631518
 51
98.869068585
  0
ARC
  5
2B4
100
AcDbEntity
  8
0
100
AcDbCircle
 62
9
  6
CONTINUOUS
 10
9.4014973984
 20
8.7853906385
 40
0.2134656822
100
AcDbArc
 50
81.1316561312
 51
98.8683438688
  0
ARC
  5
2B5
100
AcDbEntity
  8
0
100
AcDbCircle
 62
9
  6
CONTINUOUS
 10
9.8067972874
 20
8.785390649
 40
0.2134656719
100
AcDbArc
 50
81.1316556958
 51
98.8683443042
  0
ARC
  5
2B6
100
AcDbEntity
  8
0
100
AcDbCircle
 62
7
  6
CONTINUOUS
 10
9.3925121265
 20
8.994638768
 40
0.0399999974
100
AcDbArc
 50
104.0494927396
 51
179.9997619674
  0
ARC
  5
2B7
100
AcDbEntity
  8
0
100
AcDbCircle
 62
7
  6
CONTINUOUS
 10
9.8157825593
 20
8.994638768
 40
0.0399999974
100
AcDbArc
 50
0.0002380326
 51
75.9505072604
  0
ARC
  5
2B8
100
AcDbEntity
  8
0
100
AcDbCircle
 62
7
  6
CONTINUOUS
 10
11.3101700505
 20
3.6676200951
 40
1.344
100
AcDbArc
 50
111.6955047478
 51
114.7365254906
  0
ARC
  5
2B9
100
AcDbEntity
  8
0
100
AcDbCircle
 62
7
  6
CONTINUOUS
 10
12.1381246353
 20
3.6676200951
 40
1.344
100
AcDbArc
 50
65.2634745094
 51
68.3044952522
  0
ARC
  5
2BA
100
AcDbEntity
  8
0
100
AcDbCircle
 62
7
  6
CONTINUOUS
 10
12.1381246353
 20
5.8837070271
 40
1.344
100
AcDbArc
 50
291.6955047478
 51
294.7365254906
  0
ARC
  5
2BB
100
AcDbEntity
  8
0
100
AcDbCircle
 62
7
  6
CONTINUOUS
 10
11.3101700505
 20
5.8837070271
 40
1.344
100
AcDbArc
 50
245.2634745094
 51
248.3044952522
  0
ARC
  5
2BC
100
AcDbEntity
  8
0
100
AcDbCircle
 62
9
  6
CONTINUOUS
 10
11.1840733478
 20
6.7927444942
 40
0.8498465853
100
AcDbArc
 50
159.9160593906
 51
160.2641268446
  0
ARC
  5
2BD
100
AcDbEntity
  8
0
100
AcDbCircle
 62
9
  6
CONTINUOUS
 10
11.1771641008
 20
6.1380992217
 40
0.8425045841
100
AcDbArc
 50
199.7355751104
 51
200.0868631873
  0
ARC
  5
2BE
100
AcDbEntity
  8
0
100
AcDbCircle
 62
7
  6
CONTINUOUS
 10
12.6127858705
 20
4.8606635611
 40
0.06
100
AcDbArc
 50
68.3044952522
 51
90.0
  0
ARC
  5
2BF
100
AcDbEntity
  8
0
100
AcDbCircle
 62
7
  6
CONTINUOUS
 10
12.6127858705
 20
4.6906635611
 40
0.06
100
AcDbArc
 50
270.0
 51
291.6955047478
  0
ARC
  5
2C0
100
AcDbEntity
  8
0
100
AcDbCircle
 62
7
  6
CONTINUOUS
 10
12.5731473429
 20
7.4365022926
 40
0.02
100
AcDbArc
 50
292.8995369282
 51
360.0
  0
ARC
  5
2C1
100
AcDbEntity
  8
0
100
AcDbCircle
 62
7
  6
CONTINUOUS
 10
12.5731473429
 20
7.6748248279
 40
0.02
100
AcDbArc
 50
0.0
 51
67.1004628711
  0
ARC
  5
2C2
100
AcDbEntity
  8
0
100
AcDbCircle
 62
7
  6
CONTINUOUS
 10
12.6921473429
 20
4.6811951396
 40
0.02
100
AcDbArc
 50
294.7365254906
 51
360.0
  0
ARC
  5
2C3
100
AcDbEntity
  8
0
100
AcDbCircle
 62
7
  6
CONTINUOUS
 10
12.6921473429
 20
4.8701319825
 40
0.02
100
AcDbArc
 50
0.0
 51
65.2634745094
  0
ARC
  5
2C4
100
AcDbEntity
  8
0
100
AcDbCircle
 62
7
  6
CONTINUOUS
 10
11.7241473429
 20
13.6556635611
 40
0.25
100
AcDbArc
 50
0.0
 51
180.0
  0
SPLINE
  5
2C5
100
AcDbEntity
  8
0
100
AcDbSpline
 62
7
  6
CONTINUOUS
 70
0
 71
3
 72
33
 73
29
 74
0
 42
0.0000001
 43
0.0000001
 44
0.0000000001
 40
0.0
 40
0.0
 40
0.0
 40
0.0
 40
0.0110991914
 40
0.0431415105
 40
0.0930454038
 40
0.1235674785
 40
0.1572332199
 40
0.1936648064
 40
0.2325263032
 40
0.273516767
 40
0.3163557421
 40
0.3607611181
 40
0.4064226045
 40
0.452977239
 40
0.5000000046
 40
0.5470227679
 40
0.5935774016
 40
0.6392388889
 40
0.6836442643
 40
0.7264832369
 40
0.7674737008
 40
0.8063351962
 40
0.8427667808
 40
0.8764325216
 40
0.9069545963
 40
0.9568584896
 40
0.9889008088
 40
1.0
 40
1.0
 40
1.0
 40
1.0
 10
10.9191473429
 20
6.9666635611
 30
0.0
 10
10.9212415652
 20
6.9632918385
 30
0.0
 10
10.9293452019
 20
6.9501636235
 30
0.0
 10
10.9465052414
 20
6.9216544154
 30
0.0
 10
10.9664372105
 20
6.886712672
 30
0.0
 10
10.98569423
 20
6.8507397728
 30
0.0
 10
11.0019226717
 20
6.8186201928
 30
0.0
 10
11.0184902245
 20
6.7833461481
 30
0.0
 10
11.0348595953
 20
6.7451087767
 30
0.0
 10
11.0504503224
 20
6.7040810807
 30
0.0
 10
11.0646297794
 20
6.6604478981
 30
0.0
 10
11.0767181047
 20
6.614451702
 30
0.0
 10
11.0860222507
 20
6.5664486479
 30
0.0
 10
11.0919113797
 20
6.5169565553
 30
0.0
 10
11.0939303477
 20
6.466663557
 30
0.0
 10
11.0919113792
 20
6.4163705589
 30
0.0
 10
11.0860222497
 20
6.3668784671
 30
0.0
 10
11.0767181032
 20
6.3188754134
 30
0.0
 10
11.0646297776
 20
6.2728792181
 30
0.0
 10
11.0504503206
 20
6.2292460367
 30
0.0
 10
11.034859594
 20
6.1882183419
 30
0.0
 10
11.0184902234
 20
6.1499809716
 30
0.0
 10
11.0019226711
 20
6.1147069283
 30
0.0
 10
10.9856942299
 20
6.0825873491
 30
0.0
 10
10.9664372104
 20
6.04661445
 30
0.0
 10
10.9465052413
 20
6.0116727066
 30
0.0
 10
10.9293452019
 20
5.9831634986
 30
0.0
 10
10.9212415652
 20
5.9700352836
 30
0.0
 10
10.9191473429
 20
5.9666635611
 30
0.0
  0
SPLINE
  5
2C6
100
AcDbEntity
  8
0
100
AcDbSpline
 62
9
  6
CONTINUOUS
 70
0
 71
3
 72
15
 73
11
 74
0
 42
0.0000001
 43
0.0000001
 44
0.0000000001
 40
0.0
 40
0.0
 40
0.0
 40
0.0
 40
0.1263438044
 40
0.2515284571
 40
0.3759512256
 40
0.4999999996
 40
0.6240487736
 40
0.7484715419
 40
0.873656195
 40
1.0
 40
1.0
 40
1.0
 40
1.0
 10
10.7676962829
 20
4.6799690761
 30
0.0
 10
10.7790658318
 20
4.6769899843
 30
0.0
 10
10.8019036986
 20
4.671805261
 30
0.0
 10
10.8364642667
 20
4.6662991674
 30
0.0
 10
10.8710931989
 20
4.6630221846
 30
0.0
 10
10.9057533363
 20
4.6619414956
 30
0.0
 10
10.9404134737
 20
4.6630221834
 30
0.0
 10
10.975042406
 20
4.6662991657
 30
0.0
 10
11.0096029741
 20
4.6718052601
 30
0.0
 10
11.0324408408
 20
4.6769899841
 30
0.0
 10
11.0438103897
 20
4.6799690761
 30
0.0
  0
SPLINE
  5
2C7
100
AcDbEntity
  8
0
100
AcDbSpline
 62
9
  6
CONTINUOUS
 70
0
 71
3
 72
15
 73
11
 74
0
 42
0.0000001
 43
0.0000001
 44
0.0000000001
 40
0.0
 40
0.0
 40
0.0
 40
0.0
 40
0.1263438042
 40
0.2515284568
 40
0.3759512252
 40
0.4999999993
 40
0.6240487733
 40
0.7484715418
 40
0.8736561951
 40
1.0
 40
1.0
 40
1.0
 40
1.0
 10
11.0438103897
 20
4.871358046
 30
0.0
 10
11.0324408409
 20
4.8743371379
 30
0.0
 10
11.0096029741
 20
4.8795218609
 30
0.0
 10
10.975042406
 20
4.8850279543
 30
0.0
 10
10.9404134738
 20
4.8883049374
 30
0.0
 10
10.9057533364
 20
4.8893856268
 30
0.0
 10
10.871093199
 20
4.8883049388
 30
0.0
 10
10.8364642667
 20
4.8850279561
 30
0.0
 10
10.8019036985
 20
4.8795218618
 30
0.0
 10
10.7790658318
 20
4.874337138
 30
0.0
 10
10.7676962829
 20
4.871358046
 30
0.0
  0
LINE
  5
2C8
100
AcDbEntity
  8
0
100
AcDbLine
 62
9
  6
CONTINUOUS
 10
9.8557831372
 20
8.9946388438
 11
9.8397062527
 21
8.9963052307
  0
LINE
  5
2C9
100
AcDbEntity
  8
0
100
AcDbLine
 62
9
  6
CONTINUOUS
 10
9.3545794156
 20
7.1661275778
 11
9.3660266126
 21
7.1458820685
  0
LINE
  5
2CA
100
AcDbEntity
  8
0
100
AcDbLine
 62
9
  6
CONTINUOUS
 10
9.3525114817
 20
7.1788099304
 11
9.3685884331
 21
7.1585742547
  0
SPLINE
  5
2CB
100
AcDbEntity
  8
0
100
AcDbSpline
 62
9
  6
CONTINUOUS
 70
0
 71
3
 72
12
 73
8
 74
0
 42
0.0000001
 43
0.0000001
 44
0.0000000001
 40
0.0
 40
0.0
 40
0.0
 40
0.0
 40
0.3256368687
 40
0.6019073545
 40
0.8270219755
 40
0.9200657671
 40
1.0
 40
1.0
 40
1.0
 40
1.0
 10
10.7676962829
 20
4.871358046
 30
0.0
 10
10.7667401421
 20
4.8711701598
 30
0.0
 10
10.7649695315
 20
4.8708388395
 30
0.0
 10
10.7625254623
 20
4.87044868
 30
0.0
 10
10.7607587896
 20
4.8702341933
 30
0.0
 10
10.759570461
 20
4.8701480527
 30
0.0
 10
10.759052836
 20
4.8701319827
 30
0.0
 10
10.7588136432
 20
4.8701319825
 30
0.0
  0
SPLINE
  5
2CC
100
AcDbEntity
  8
0
100
AcDbSpline
 62
9
  6
CONTINUOUS
 70
0
 71
3
 72
12
 73
8
 74
0
 42
0.0000001
 43
0.0000001
 44
0.0000000001
 40
0.0
 40
0.0
 40
0.0
 40
0.0
 40
0.0799342152
 40
0.1729780345
 40
0.398092698
 40
0.6743632132
 40
1.0
 40
1.0
 40
1.0
 40
1.0
 10
10.7588136432
 20
4.6811951396
 30
0.0
 10
10.759052836
 20
4.6811951395
 30
0.0
 10
10.759570461
 20
4.6811790696
 30
0.0
 10
10.7607587898
 20
4.6810929294
 30
0.0
 10
10.7625254628
 20
4.6808784429
 30
0.0
 10
10.7649695313
 20
4.6804882787
 30
0.0
 10
10.7667401414
 20
4.6801569576
 30
0.0
 10
10.7676962829
 20
4.6799690761
 30
0.0
  0
SPLINE
  5
2CD
100
AcDbEntity
  8
0
100
AcDbSpline
 62
9
  6
CONTINUOUS
 70
0
 71
3
 72
11
 73
7
 74
0
 42
0.0000001
 43
0.0000001
 44
0.0000000001
 40
0.0
 40
0.0
 40
0.0
 40
0.0
 40
0.2844235656
 40
0.5466453075
 40
0.785446117
 40
1.0
 40
1.0
 40
1.0
 40
1.0
 10
11.0592549841
 20
4.8701319825
 30
0.0
 10
11.0577840663
 20
4.8701319828
 30
0.0
 10
11.054956719
 20
4.8701778635
 30
0.0
 10
11.0508996933
 20
4.8704020485
 30
0.0
 10
11.0472166504
 20
4.8707767943
 30
0.0
 10
11.0448991507
 20
4.8711441053
 30
0.0
 10
11.0438103897
 20
4.871358046
 30
0.0
  0
SPLINE
  5
2CE
100
AcDbEntity
  8
0
100
AcDbSpline
 62
9
  6
CONTINUOUS
 70
0
 71
3
 72
11
 73
7
 74
0
 42
0.0000001
 43
0.0000001
 44
0.0000000001
 40
0.0
 40
0.0
 40
0.0
 40
0.0
 40
0.2145539168
 40
0.4533547491
 40
0.7155764626
 40
1.0
 40
1.0
 40
1.0
 40
1.0
 10
11.0438103897
 20
4.6799690761
 30
0.0
 10
11.0448991498
 20
4.6801830224
 30
0.0
 10
11.0472166506
 20
4.680550331
 30
0.0
 10
11.0508996939
 20
4.6809250726
 30
0.0
 10
11.0549567194
 20
4.6811492583
 30
0.0
 10
11.0577840665
 20
4.6811951393
 30
0.0
 10
11.0592549841
 20
4.6811951396
 30
0.0
  0
SPLINE
  5
2CF
100
AcDbEntity
  8
0
100
AcDbSpline
 62
9
  6
CONTINUOUS
 70
0
 71
3
 72
9
 73
5
 74
0
 42
0.0000001
 43
0.0000001
 44
0.0000000001
 40
0.0
 40
0.0
 40
0.0
 40
0.0
 40
0.5060269065
 40
1.0
 40
1.0
 40
1.0
 40
1.0
 10
11.4480332361
 20
4.871358046
 30
0.0
 10
11.4439430929
 20
4.8709561799
 30
0.0
 10
11.4358407423
 20
4.870348693
 30
0.0
 10
11.4277179414
 20
4.8701319833
 30
0.0
 10
11.423706002
 20
4.8701319825
 30
0.0
  0
SPLINE
  5
2D0
100
AcDbEntity
  8
0
100
AcDbSpline
 62
9
  6
CONTINUOUS
 70
0
 71
3
 72
9
 73
5
 74
0
 42
0.0000001
 43
0.0000001
 44
0.0000000001
 40
0.0
 40
0.0
 40
0.0
 40
0.0
 40
0.4939731433
 40
1.0
 40
1.0
 40
1.0
 40
1.0
 10
11.423706002
 20
4.6811951396
 30
0.0
 10
11.4277179418
 20
4.6811951391
 30
0.0
 10
11.4358407432
 20
4.6809784343
 30
0.0
 10
11.4439430923
 20
4.6803709317
 30
0.0
 10
11.4480332361
 20
4.6799690761
 30
0.0
  0
SPLINE
  5
2D1
100
AcDbEntity
  8
0
100
AcDbSpline
 62
9
  6
CONTINUOUS
 70
0
 71
3
 72
14
 73
10
 74
0
 42
0.0000001
 43
0.0000001
 44
0.0000000001
 40
0.0
 40
0.0
 40
0.0
 40
0.0
 40
0.1386092277
 40
0.2758320288
 40
0.409988572
 40
0.5398748783
 40
0.6644254149
 40
0.7828716272
 40
1.0
 40
1.0
 40
1.0
 40
1.0
 10
11.0592549841
 20
4.8701319825
 30
0.0
 10
11.0592549841
 20
4.8710786709
 30
0.0
 10
11.0593452833
 20
4.8729638242
 30
0.0
 10
11.0597475247
 20
4.8757392316
 30
0.0
 10
11.060410311
 20
4.878403584
 30
0.0
 10
11.0613197682
 20
4.8809021471
 30
0.0
 10
11.062458938
 20
4.8831879721
 30
0.0
 10
11.0641994276
 20
4.8858084128
 30
0.0
 10
11.0658586513
 20
4.8874590734
 30
0.0
 10
11.0670823264
 20
4.8882968147
 30
0.0
  0
SPLINE
  5
2D2
100
AcDbEntity
  8
0
100
AcDbSpline
 62
9
  6
CONTINUOUS
 70
0
 71
3
 72
16
 73
12
 74
0
 42
0.0000001
 43
0.0000001
 44
0.0000000001
 40
0.0
 40
0.0
 40
0.0
 40
0.0
 40
0.1517224353
 40
0.3008137938
 40
0.4443096489
 40
0.5797505272
 40
0.7048147999
 40
0.8174620686
 40
0.9161875479
 40
0.9600031763
 40
1.0
 40
1.0
 40
1.0
 40
1.0
 10
11.423706002
 20
4.8701319825
 30
0.0
 10
11.423706002
 20
4.871077803
 30
0.0
 10
11.4237464582
 20
4.8729532978
 30
0.0
 10
11.4239268259
 20
4.8757180739
 30
0.0
 10
11.4242237017
 20
4.8783708491
 30
0.0
 10
11.4246306761
 20
4.8808574457
 30
0.0
 10
11.4251386824
 20
4.8831291352
 30
0.0
 10
11.4257377493
 20
4.8851409501
 30
0.0
 10
11.4263237394
 20
4.8866234053
 30
0.0
 10
11.4268372815
 20
4.8876396189
 30
0.0
 10
11.427105552
 20
4.8880887198
 30
0.0
 10
11.4272429011
 20
4.8882968147
 30
0.0
  0
SPLINE
  5
2D3
100
AcDbEntity
  8
0
100
AcDbSpline
 62
9
  6
CONTINUOUS
 70
0
 71
3
 72
16
 73
12
 74
0
 42
0.0000001
 43
0.0000001
 44
0.0000000001
 40
0.0
 40
0.0
 40
0.0
 40
0.0
 40
0.1517224354
 40
0.3008137939
 40
0.444309649
 40
0.5797505272
 40
0.7048148
 40
0.8174620686
 40
0.9161875479
 40
0.9600031763
 40
1.0
 40
1.0
 40
1.0
 40
1.0
 10
12.0245886838
 20
4.8701319825
 30
0.0
 10
12.0245886838
 20
4.871077803
 30
0.0
 10
12.0245482276
 20
4.8729532978
 30
0.0
 10
12.0243678599
 20
4.8757180739
 30
0.0
 10
12.0240709841
 20
4.8783708491
 30
0.0
 10
12.0236640097
 20
4.8808574457
 30
0.0
 10
12.0231560034
 20
4.8831291352
 30
0.0
 10
12.0225569365
 20
4.8851409501
 30
0.0
 10
12.0219709464
 20
4.8866234053
 30
0.0
 10
12.0214574043
 20
4.8876396189
 30
0.0
 10
12.0211891338
 20
4.8880887198
 30
0.0
 10
12.0210517847
 20
4.8882968147
 30
0.0
  0
SPLINE
  5
2D4
100
AcDbEntity
  8
0
100
AcDbSpline
 62
9
  6
CONTINUOUS
 70
0
 71
3
 72
14
 73
10
 74
0
 42
0.0000001
 43
0.0000001
 44
0.0000000001
 40
0.0
 40
0.0
 40
0.0
 40
0.0
 40
0.1386092277
 40
0.2758320288
 40
0.4099885721
 40
0.5398748783
 40
0.664425415
 40
0.7828716273
 40
1.0
 40
1.0
 40
1.0
 40
1.0
 10
12.3890397017
 20
4.8701319825
 30
0.0
 10
12.3890397017
 20
4.8710786709
 30
0.0
 10
12.3889494025
 20
4.8729638242
 30
0.0
 10
12.3885471611
 20
4.8757392316
 30
0.0
 10
12.3878843748
 20
4.878403584
 30
0.0
 10
12.3869749176
 20
4.8809021472
 30
0.0
 10
12.3858357478
 20
4.8831879721
 30
0.0
 10
12.3840952582
 20
4.8858084128
 30
0.0
 10
12.3824360345
 20
4.8874590734
 30
0.0
 10
12.3812123594
 20
4.8882968147
 30
0.0
  0
SPLINE
  5
2D5
100
AcDbEntity
  8
0
100
AcDbSpline
 62
9
  6
CONTINUOUS
 70
0
 71
3
 72
13
 73
9
 74
0
 42
0.0000001
 43
0.0000001
 44
0.0000000001
 40
0.0
 40
0.0
 40
0.0
 40
0.0
 40
0.2563925615
 40
0.5114227959
 40
0.6370552224
 40
0.7605472627
 40
0.8816440212
 40
1.0
 40
1.0
 40
1.0
 40
1.0
 10
12.4044842961
 20
4.871358046
 30
0.0
 10
12.4043584159
 20
4.8732797055
 30
0.0
 10
12.4036205556
 20
4.877096129
 30
0.0
 10
12.401563557
 20
4.8814749316
 30
0.0
 10
12.3993223654
 20
4.8845387582
 30
0.0
 10
12.3973923801
 20
4.8865530056
 30
0.0
 10
12.3952470878
 20
4.8882486492
 30
0.0
 10
12.3936847613
 20
4.8891550867
 30
0.0
 10
12.3928841086
 20
4.8895413988
 30
0.0
  0
SPLINE
  5
2D6
100
AcDbEntity
  8
0
100
AcDbSpline
 62
9
  6
CONTINUOUS
 70
0
 71
3
 72
15
 73
11
 74
0
 42
0.0000001
 43
0.0000001
 44
0.0000000001
 40
0.0
 40
0.0
 40
0.0
 40
0.0
 40
0.1258872633
 40
0.2517847131
 40
0.3773818683
 40
0.5026793591
 40
0.6276067795
 40
0.7521216867
 40
0.8763094256
 40
1.0
 40
1.0
 40
1.0
 40
1.0
 10
12.6894810426
 20
4.8701319825
 30
0.0
 10
12.6894810426
 20
4.8710798777
 30
0.0
 10
12.6893483971
 20
4.8729783333
 30
0.0
 10
12.688758473
 20
4.8757669457
 30
0.0
 10
12.6877868987
 20
4.8784425763
 30
0.0
 10
12.6864540832
 20
4.8809494014
 30
0.0
 10
12.6847879898
 20
4.8832382794
 30
0.0
 10
12.6828202684
 20
4.8852625118
 30
0.0
 10
12.6805918435
 20
4.8869794415
 30
0.0
 10
12.6789591996
 20
4.8878995909
 30
0.0
 10
12.6781168012
 20
4.8882968147
 30
0.0
  0
LINE
  5
2D7
100
AcDbEntity
  8
0
100
AcDbLine
 62
9
  6
CONTINUOUS
 10
9.8254929715
 20
9.033442279
 11
9.8142832679
 21
9.0351853027
  0
SPLINE
  5
2D8
100
AcDbEntity
  8
0
100
AcDbSpline
 62
9
  6
CONTINUOUS
 70
0
 71
3
 72
44
 73
40
 74
0
 42
0.0000001
 43
0.0000001
 44
0.0000000001
 40
0.0
 40
0.0
 40
0.0
 40
0.0
 40
0.0000242116
 40
0.0000962727
 40
0.0002160909
 40
0.0003835733
 40
0.0005986274
 40
0.0008611605
 40
0.0015282937
 40
0.0023842327
 40
0.0034282381
 40
0.004659571
 40
0.0060774493
 40
0.0076809146
 40
0.0094689643
 40
0.0135948046
 40
0.0184469453
 40
0.0240162915
 40
0.0302883075
 40
0.0372467416
 40
0.0448753571
 40
0.0531575368
 40
0.0716127709
 40
0.0924718616
 40
0.11558724
 40
0.1408079295
 40
0.1679880705
 40
0.1969858915
 40
0.2276671031
 40
0.259904514
 40
0.3285763936
 40
0.4021447901
 40
0.4798694104
 40
0.5611034697
 40
0.6452633866
 40
0.7317985574
 40
0.8201558007
 40
0.9097612916
 40
1.0
 40
1.0
 40
1.0
 40
1.0
 10
9.7732699438
 20
6.9257018405
 30
0.0
 10
9.7732689947
 20
6.9257007509
 30
0.0
 10
9.7732632651
 20
6.925698804
 30
0.0
 10
9.7732527501
 20
6.9256915879
 30
0.0
 10
9.7732336793
 20
6.925681518
 30
0.0
 10
9.773207748
 20
6.9256665622
 30
0.0
 10
9.7731741424
 20
6.9256477377
 30
0.0
 10
9.7731146413
 20
6.9256141799
 30
0.0
 10
9.7730217086
 20
6.925562006
 30
0.0
 10
9.772888063
 20
6.9254870932
 30
0.0
 10
9.7727249321
 20
6.9253959082
 30
0.0
 10
9.7725324161
 20
6.9252885584
 30
0.0
 10
9.772310605
 20
6.9251651832
 30
0.0
 10
9.772059642
 20
6.9250258639
 30
0.0
 10
9.7716672234
 20
6.9248083685
 30
0.0
 10
9.7711049424
 20
6.9244973796
 30
0.0
 10
9.7703448188
 20
6.9240778075
 30
0.0
 10
9.7694722245
 20
6.9235969323
 30
0.0
 10
9.7684888467
 20
6.9230566263
 30
0.0
 10
9.7673967409
 20
6.9224589818
 30
0.0
 10
9.7661980711
 20
6.9218061586
 30
0.0
 10
9.764394596
 20
6.9208292194
 30
0.0
 10
9.7618917133
 20
6.9194855926
 30
0.0
 10
9.7585994561
 20
6.9177407816
 30
0.0
 10
9.7549383998
 20
6.9158297203
 30
0.0
 10
9.7509280548
 20
6.9137727543
 30
0.0
 10
9.7465875446
 20
6.9115905307
 30
0.0
 10
9.7419351833
 20
6.9093034723
 30
0.0
 10
9.7369881399
 20
6.906932224
 30
0.0
 10
9.7298690671
 20
6.9036152401
 30
0.0
 10
9.72034953
 20
6.8993910231
 30
0.0
 10
9.7082005238
 20
6.8944103749
 30
0.0
 10
9.6951867697
 20
6.8895806539
 30
0.0
 10
9.6813912175
 20
6.8850693617
 30
0.0
 10
9.6668971467
 20
6.8810469942
 30
0.0
 10
9.6517984959
 20
6.8776835821
 30
0.0
 10
9.6362089345
 20
6.8751394127
 30
0.0
 10
9.6202701907
 20
6.8735512364
 30
0.0
 10
9.6095330901
 20
6.8731908572
 30
0.0
 10
9.6041473429
 20
6.8731908437
 30
0.0
  0
SPLINE
  5
2D9
100
AcDbEntity
  8
0
100
AcDbSpline
 62
9
  6
CONTINUOUS
 70
0
 71
3
 72
15
 73
11
 74
0
 42
0.0000001
 43
0.0000001
 44
0.0000000001
 40
0.0
 40
0.0
 40
0.0
 40
0.0
 40
0.1263438045
 40
0.2515284571
 40
0.3759512254
 40
0.4999999995
 40
0.6240487735
 40
0.7484715417
 40
0.8736561949
 40
1.0
 40
1.0
 40
1.0
 40
1.0
 10
12.6805984029
 20
4.871358046
 30
0.0
 10
12.669228854
 20
4.8743371379
 30
0.0
 10
12.6463909873
 20
4.8795218612
 30
0.0
 10
12.6118304191
 20
4.8850279548
 30
0.0
 10
12.5772014869
 20
4.8883049368
 30
0.0
 10
12.5425413495
 20
4.8893856252
 30
0.0
 10
12.5078812121
 20
4.8883049381
 30
0.0
 10
12.4732522797
 20
4.8850279566
 30
0.0
 10
12.4386917116
 20
4.8795218621
 30
0.0
 10
12.415853845
 20
4.874337138
 30
0.0
 10
12.4044842961
 20
4.871358046
 30
0.0
  0
SPLINE
  5
2DA
100
AcDbEntity
  8
0
100
AcDbSpline
 62
9
  6
CONTINUOUS
 70
0
 71
3
 72
15
 73
11
 74
0
 42
0.0000001
 43
0.0000001
 44
0.0000000001
 40
0.0
 40
0.0
 40
0.0
 40
0.0
 40
0.1258872633
 40
0.2517847131
 40
0.3773818683
 40
0.5026793591
 40
0.6276067795
 40
0.7521216867
 40
0.8763094256
 40
1.0
 40
1.0
 40
1.0
 40
1.0
 10
10.7588136432
 20
4.8701319825
 30
0.0
 10
10.7588136432
 20
4.8710798777
 30
0.0
 10
10.7589462887
 20
4.8729783333
 30
0.0
 10
10.7595362128
 20
4.8757669457
 30
0.0
 10
10.7605077871
 20
4.8784425763
 30
0.0
 10
10.7618406026
 20
4.8809494014
 30
0.0
 10
10.763506696
 20
4.8832382794
 30
0.0
 10
10.7654744174
 20
4.8852625118
 30
0.0
 10
10.7677028423
 20
4.8869794415
 30
0.0
 10
10.7693354862
 20
4.8878995909
 30
0.0
 10
10.7701778846
 20
4.8882968147
 30
0.0
  0
SPLINE
  5
2DB
100
AcDbEntity
  8
0
100
AcDbSpline
 62
9
  6
CONTINUOUS
 70
0
 71
3
 72
14
 73
10
 74
0
 42
0.0000001
 43
0.0000001
 44
0.0000000001
 40
0.0
 40
0.0
 40
0.0
 40
0.0
 40
0.2639115517
 40
0.3929971033
 40
0.5194876909
 40
0.6432362852
 40
0.7643120776
 40
0.8831187216
 40
1.0
 40
1.0
 40
1.0
 40
1.0
 10
10.7676962829
 20
4.871358046
 30
0.0
 10
10.7675724478
 20
4.8732484867
 30
0.0
 10
10.7677402862
 20
4.876106316
 30
0.0
 10
10.7686965268
 20
4.8797193809
 30
0.0
 10
10.7697519441
 20
4.8822398964
 30
0.0
 10
10.7711276551
 20
4.8845339353
 30
0.0
 10
10.7727978516
 20
4.8865537273
 30
0.0
 10
10.7747270513
 20
4.88825383
 30
0.0
 10
10.776168326
 20
4.889157215
 30
0.0
 10
10.7769142351
 20
4.8895413988
 30
0.0
  0
SPLINE
  5
2DC
100
AcDbEntity
  8
0
100
AcDbSpline
 62
9
  6
CONTINUOUS
 70
0
 71
3
 72
15
 73
11
 74
0
 42
0.0000001
 43
0.0000001
 44
0.0000000001
 40
0.0
 40
0.0
 40
0.0
 40
0.0
 40
0.1258872633
 40
0.2517847131
 40
0.3773818683
 40
0.5026793591
 40
0.6276067795
 40
0.7521216867
 40
0.8763094256
 40
1.0
 40
1.0
 40
1.0
 40
1.0
 10
10.7588136432
 20
4.6811951396
 30
0.0
 10
10.7588136432
 20
4.6802472444
 30
0.0
 10
10.7589462887
 20
4.6783487889
 30
0.0
 10
10.7595362128
 20
4.6755601764
 30
0.0
 10
10.7605077871
 20
4.6728845458
 30
0.0
 10
10.7618406026
 20
4.6703777208
 30
0.0
 10
10.763506696
 20
4.6680888427
 30
0.0
 10
10.7654744174
 20
4.6660646104
 30
0.0
 10
10.7677028423
 20
4.6643476807
 30
0.0
 10
10.7693354862
 20
4.6634275312
 30
0.0
 10
10.7701778846
 20
4.6630303075
 30
0.0
  0
SPLINE
  5
2DD
100
AcDbEntity
  8
0
100
AcDbSpline
 62
9
  6
CONTINUOUS
 70
0
 71
3
 72
15
 73
11
 74
0
 42
0.0000001
 43
0.0000001
 44
0.0000000001
 40
0.0
 40
0.0
 40
0.0
 40
0.0
 40
0.1263438044
 40
0.2515284571
 40
0.3759512253
 40
0.4999999994
 40
0.6240487734
 40
0.7484715417
 40
0.8736561949
 40
1.0
 40
1.0
 40
1.0
 40
1.0
 10
12.4044842961
 20
4.6799690761
 30
0.0
 10
12.4158538449
 20
4.6769899843
 30
0.0
 10
12.4386917117
 20
4.6718052609
 30
0.0
 10
12.4732522798
 20
4.6662991674
 30
0.0
 10
12.5078812121
 20
4.6630221854
 30
0.0
 10
12.5425413494
 20
4.6619414969
 30
0.0
 10
12.5772014868
 20
4.6630221841
 30
0.0
 10
12.6118304192
 20
4.6662991656
 30
0.0
 10
12.6463909873
 20
4.67180526
 30
0.0
 10
12.669228854
 20
4.6769899841
 30
0.0
 10
12.6805984029
 20
4.6799690761
 30
0.0
  0
SPLINE
  5
2DE
100
AcDbEntity
  8
0
100
AcDbSpline
 62
9
  6
CONTINUOUS
 70
0
 71
3
 72
11
 73
7
 74
0
 42
0.0000001
 43
0.0000001
 44
0.0000000001
 40
0.0
 40
0.0
 40
0.0
 40
0.0
 40
0.2499989517
 40
0.4999999997
 40
0.7500010479
 40
1.0
 40
1.0
 40
1.0
 40
1.0
 10
12.0002614497
 20
4.871358046
 30
0.0
 10
11.9545151847
 20
4.87735135
 30
0.0
 10
11.8625790175
 20
4.8861519265
 30
0.0
 10
11.724147343
 20
4.8904626787
 30
0.0
 10
11.5857156682
 20
4.8861519291
 30
0.0
 10
11.4937795011
 20
4.8773513503
 30
0.0
 10
11.4480332361
 20
4.871358046
 30
0.0
  0
LINE
  5
2DF
100
AcDbEntity
  8
0
100
AcDbLine
 62
9
  6
CONTINUOUS
 10
10.4048521766
 20
5.8333474103
 11
10.4008549316
 21
5.8452702321
  0
SPLINE
  5
2E0
100
AcDbEntity
  8
0
100
AcDbSpline
 62
9
  6
CONTINUOUS
 70
0
 71
3
 72
14
 73
10
 74
0
 42
0.0000001
 43
0.0000001
 44
0.0000000001
 40
0.0
 40
0.0
 40
0.0
 40
0.0
 40
0.1049561342
 40
0.2167053947
 40
0.33479371
 40
0.4587048882
 40
0.5878489545
 40
0.7215790224
 40
1.0
 40
1.0
 40
1.0
 40
1.0
 10
10.3841473429
 20
6.0899025104
 30
0.0
 10
10.3848622142
 20
6.0947765204
 30
0.0
 10
10.3861188172
 20
6.1048731064
 30
0.0
 10
10.3874520018
 20
6.1205335769
 30
0.0
 10
10.3882607178
 20
6.1371206528
 30
0.0
 10
10.3885249437
 20
6.1545413868
 30
0.0
 10
10.3882379418
 20
6.1726958194
 30
0.0
 10
10.3871140662
 20
6.198079393
 30
0.0
 10
10.385500558
 20
6.2173659898
 30
0.0
 10
10.3841473429
 20
6.2303635307
 30
0.0
  0
SPLINE
  5
2E1
100
AcDbEntity
  8
0
100
AcDbSpline
 62
9
  6
CONTINUOUS
 70
0
 71
3
 72
15
 73
11
 74
0
 42
0.0000001
 43
0.0000001
 44
0.0000000001
 40
0.0
 40
0.0
 40
0.0
 40
0.0
 40
0.1408029786
 40
0.2784340279
 40
0.4121618656
 40
0.5413035539
 40
0.6652122795
 40
0.7832990386
 40
0.8950474703
 40
1.0
 40
1.0
 40
1.0
 40
1.0
 10
10.3841473429
 20
6.7029635914
 30
0.0
 10
10.3848316793
 20
6.7095368318
 30
0.0
 10
10.3860507329
 20
6.7225497442
 30
0.0
 10
10.3874064644
 20
6.741849406
 30
0.0
 10
10.3882379226
 20
6.7606313456
 30
0.0
 10
10.3885249515
 20
6.7787856779
 30
0.0
 10
10.3882607046
 20
6.7962064739
 30
0.0
 10
10.3874520213
 20
6.8127936263
 30
0.0
 10
10.3861192788
 20
6.8284541624
 30
0.0
 10
10.3848622357
 20
6.8385506811
 30
0.0
 10
10.3841473429
 20
6.8434246118
 30
0.0
  0
LINE
  5
2E2
100
AcDbEntity
  8
0
100
AcDbLine
 62
9
  6
CONTINUOUS
 10
10.385905475
 20
7.0845788058
 11
10.3884330012
 21
7.0913992811
  0
SPLINE
  5
2E3
100
AcDbEntity
  8
0
100
AcDbSpline
 62
9
  6
CONTINUOUS
 70
0
 71
3
 72
15
 73
11
 74
0
 42
0.0000001
 43
0.0000001
 44
0.0000000001
 40
0.0
 40
0.0
 40
0.0
 40
0.0
 40
0.1258872633
 40
0.2517847131
 40
0.3773818683
 40
0.5026793591
 40
0.6276067795
 40
0.7521216867
 40
0.8763094256
 40
1.0
 40
1.0
 40
1.0
 40
1.0
 10
12.6894810426
 20
4.6811951396
 30
0.0
 10
12.6894810426
 20
4.6802472444
 30
0.0
 10
12.6893483971
 20
4.6783487889
 30
0.0
 10
12.688758473
 20
4.6755601764
 30
0.0
 10
12.6877868987
 20
4.6728845458
 30
0.0
 10
12.6864540832
 20
4.6703777208
 30
0.0
 10
12.6847879898
 20
4.6680888427
 30
0.0
 10
12.6828202684
 20
4.6660646104
 30
0.0
 10
12.6805918435
 20
4.6643476807
 30
0.0
 10
12.6789591996
 20
4.6634275312
 30
0.0
 10
12.6781168012
 20
4.6630303075
 30
0.0
  0
SPLINE
  5
2E4
100
AcDbEntity
  8
0
100
AcDbSpline
 62
9
  6
CONTINUOUS
 70
0
 71
3
 72
14
 73
10
 74
0
 42
0.0000001
 43
0.0000001
 44
0.0000000001
 40
0.0
 40
0.0
 40
0.0
 40
0.0
 40
0.2639115517
 40
0.3929971033
 40
0.5194876909
 40
0.6432362852
 40
0.7643120776
 40
0.8831187216
 40
1.0
 40
1.0
 40
1.0
 40
1.0
 10
12.6805984029
 20
4.6799690761
 30
0.0
 10
12.680722238
 20
4.6780786354
 30
0.0
 10
12.6805543996
 20
4.6752208062
 30
0.0
 10
12.679598159
 20
4.6716077412
 30
0.0
 10
12.6785427416
 20
4.6690872257
 30
0.0
 10
12.6771670307
 20
4.6667931869
 30
0.0
 10
12.6754968342
 20
4.6647733948
 30
0.0
 10
12.6735676345
 20
4.6630732922
 30
0.0
 10
12.6721263598
 20
4.6621699072
 30
0.0
 10
12.6713804507
 20
4.6617857234
 30
0.0
  0
SPLINE
  5
2E5
100
AcDbEntity
  8
0
100
AcDbSpline
 62
9
  6
CONTINUOUS
 70
0
 71
3
 72
14
 73
10
 74
0
 42
0.0000001
 43
0.0000001
 44
0.0000000001
 40
0.0
 40
0.0
 40
0.0
 40
0.0
 40
0.1386092277
 40
0.2758320288
 40
0.409988572
 40
0.5398748783
 40
0.6644254149
 40
0.7828716272
 40
1.0
 40
1.0
 40
1.0
 40
1.0
 10
12.3890397017
 20
4.6811951396
 30
0.0
 10
12.3890397017
 20
4.6802484513
 30
0.0
 10
12.3889494025
 20
4.678363298
 30
0.0
 10
12.3885471611
 20
4.6755878905
 30
0.0
 10
12.3878843748
 20
4.6729235381
 30
0.0
 10
12.3869749176
 20
4.670424975
 30
0.0
 10
12.3858357478
 20
4.66813915
 30
0.0
 10
12.3840952582
 20
4.6655187093
 30
0.0
 10
12.3824360345
 20
4.6638680487
 30
0.0
 10
12.3812123594
 20
4.6630303075
 30
0.0
  0
SPLINE
  5
2E6
100
AcDbEntity
  8
0
100
AcDbSpline
 62
9
  6
CONTINUOUS
 70
0
 71
3
 72
16
 73
12
 74
0
 42
0.0000001
 43
0.0000001
 44
0.0000000001
 40
0.0
 40
0.0
 40
0.0
 40
0.0
 40
0.1517224353
 40
0.3008137938
 40
0.444309649
 40
0.5797505272
 40
0.7048147999
 40
0.8174620686
 40
0.9161875479
 40
0.9600031763
 40
1.0
 40
1.0
 40
1.0
 40
1.0
 10
12.0245886838
 20
4.6811951396
 30
0.0
 10
12.0245886838
 20
4.6802493191
 30
0.0
 10
12.0245482276
 20
4.6783738244
 30
0.0
 10
12.0243678599
 20
4.6756090483
 30
0.0
 10
12.0240709841
 20
4.672956273
 30
0.0
 10
12.0236640097
 20
4.6704696764
 30
0.0
 10
12.0231560034
 20
4.6681979869
 30
0.0
 10
12.0225569365
 20
4.6661861721
 30
0.0
 10
12.0219709464
 20
4.6647037168
 30
0.0
 10
12.0214574043
 20
4.6636875032
 30
0.0
 10
12.0211891338
 20
4.6632384024
 30
0.0
 10
12.0210517847
 20
4.6630303075
 30
0.0
  0
SPLINE
  5
2E7
100
AcDbEntity
  8
0
100
AcDbSpline
 62
9
  6
CONTINUOUS
 70
0
 71
3
 72
16
 73
12
 74
0
 42
0.0000001
 43
0.0000001
 44
0.0000000001
 40
0.0
 40
0.0
 40
0.0
 40
0.0
 40
0.1517224354
 40
0.3008137939
 40
0.444309649
 40
0.5797505272
 40
0.7048148
 40
0.8174620686
 40
0.9161875479
 40
0.9600031763
 40
1.0
 40
1.0
 40
1.0
 40
1.0
 10
11.423706002
 20
4.6811951396
 30
0.0
 10
11.423706002
 20
4.6802493191
 30
0.0
 10
11.4237464582
 20
4.6783738244
 30
0.0
 10
11.4239268259
 20
4.6756090483
 30
0.0
 10
11.4242237017
 20
4.672956273
 30
0.0
 10
11.4246306761
 20
4.6704696764
 30
0.0
 10
11.4251386824
 20
4.6681979869
 30
0.0
 10
11.4257377493
 20
4.6661861721
 30
0.0
 10
11.4263237394
 20
4.6647037168
 30
0.0
 10
11.4268372815
 20
4.6636875032
 30
0.0
 10
11.427105552
 20
4.6632384024
 30
0.0
 10
11.4272429011
 20
4.6630303075
 30
0.0
  0
SPLINE
  5
2E8
100
AcDbEntity
  8
0
100
AcDbSpline
 62
9
  6
CONTINUOUS
 70
0
 71
3
 72
14
 73
10
 74
0
 42
0.0000001
 43
0.0000001
 44
0.0000000001
 40
0.0
 40
0.0
 40
0.0
 40
0.0
 40
0.1386092277
 40
0.2758320288
 40
0.4099885721
 40
0.5398748783
 40
0.664425415
 40
0.7828716273
 40
1.0
 40
1.0
 40
1.0
 40
1.0
 10
11.0592549841
 20
4.6811951396
 30
0.0
 10
11.0592549841
 20
4.6802484513
 30
0.0
 10
11.0593452833
 20
4.678363298
 30
0.0
 10
11.0597475247
 20
4.6755878905
 30
0.0
 10
11.060410311
 20
4.6729235381
 30
0.0
 10
11.0613197682
 20
4.670424975
 30
0.0
 10
11.062458938
 20
4.66813915
 30
0.0
 10
11.0641994276
 20
4.6655187093
 30
0.0
 10
11.0658586513
 20
4.6638680487
 30
0.0
 10
11.0670823264
 20
4.6630303075
 30
0.0
  0
SPLINE
  5
2E9
100
AcDbEntity
  8
0
100
AcDbSpline
 62
9
  6
CONTINUOUS
 70
0
 71
3
 72
13
 73
9
 74
0
 42
0.0000001
 43
0.0000001
 44
0.0000000001
 40
0.0
 40
0.0
 40
0.0
 40
0.0
 40
0.2563925615
 40
0.5114227959
 40
0.6370552224
 40
0.7605472627
 40
0.8816440212
 40
1.0
 40
1.0
 40
1.0
 40
1.0
 10
11.0438103897
 20
4.6799690761
 30
0.0
 10
11.0439362699
 20
4.6780474166
 30
0.0
 10
11.0446741302
 20
4.6742309932
 30
0.0
 10
11.0467311288
 20
4.6698521905
 30
0.0
 10
11.0489723204
 20
4.666788364
 30
0.0
 10
11.0509023057
 20
4.6647741166
 30
0.0
 10
11.053047598
 20
4.6630784729
 30
0.0
 10
11.0546099245
 20
4.6621720355
 30
0.0
 10
11.0554105772
 20
4.6617857234
 30
0.0
  0
LINE
  5
2EA
100
AcDbEntity
  8
0
100
AcDbLine
 62
9
  6
CONTINUOUS
 10
10.3884330012
 20
5.841927841
 11
10.3862280561
 21
5.8478679977
  0
LINE
  5
2EB
100
AcDbEntity
  8
0
100
AcDbLine
 62
9
  6
CONTINUOUS
 10
10.3862280561
 20
5.8478679977
 11
10.3859065245
 21
5.848745766
  0
SPLINE
  5
2EC
100
AcDbEntity
  8
0
100
AcDbSpline
 62
9
  6
CONTINUOUS
 70
0
 71
3
 72
11
 73
7
 74
0
 42
0.0000001
 43
0.0000001
 44
0.0000000001
 40
0.0
 40
0.0
 40
0.0
 40
0.0
 40
0.2499989518
 40
0.4999999999
 40
0.7500010479
 40
1.0
 40
1.0
 40
1.0
 40
1.0
 10
11.4480332361
 20
4.6799690761
 30
0.0
 10
11.4937795011
 20
4.6739757721
 30
0.0
 10
11.5857156683
 20
4.6651751955
 30
0.0
 10
11.7241473428
 20
4.6608644435
 30
0.0
 10
11.8625790176
 20
4.6651751929
 30
0.0
 10
11.9545151847
 20
4.6739757718
 30
0.0
 10
12.0002614497
 20
4.6799690761
 30
0.0
  0
SPLINE
  5
2ED
100
AcDbEntity
  8
0
100
AcDbSpline
 62
9
  6
CONTINUOUS
 70
0
 71
3
 72
26
 73
22
 74
0
 42
0.0000001
 43
0.0000001
 44
0.0000000001
 40
0.0
 40
0.0
 40
0.0
 40
0.0
 40
0.0002550325
 40
0.0010191262
 40
0.0022919015
 40
0.0040729789
 40
0.0091585231
 40
0.0162727267
 40
0.0254125603
 40
0.0365745975
 40
0.0497523311
 40
0.0649378257
 40
0.1013003545
 40
0.1455957984
 40
0.1977337317
 40
0.2576122842
 40
0.3251226599
 40
0.4001365594
 40
0.5721441174
 40
0.7725226147
 40
1.0
 40
1.0
 40
1.0
 40
1.0
 10
10.6066455689
 20
7.0999797118
 30
0.0
 10
10.6066466506
 20
7.0999761536
 30
0.0
 10
10.6066521603
 20
7.0999623297
 30
0.0
 10
10.606663097
 20
7.0999307573
 30
0.0
 10
10.606682268
 20
7.0998784791
 30
0.0
 10
10.6067224288
 20
7.0997667911
 30
0.0
 10
10.6067916746
 20
7.0995750321
 30
0.0
 10
10.6068969532
 20
7.0992821982
 30
0.0
 10
10.6070320474
 20
7.0989059184
 30
0.0
 10
10.6071966811
 20
7.0984462973
 30
0.0
 10
10.6073906325
 20
7.0979035315
 30
0.0
 10
10.6077074708
 20
7.0970144338
 30
0.0
 10
10.6081747066
 20
7.0956972058
 30
0.0
 10
10.6088185633
 20
7.0938708749
 30
0.0
 10
10.6095709798
 20
7.0917192128
 30
0.0
 10
10.6104277257
 20
7.089245411
 30
0.0
 10
10.6113843362
 20
7.086453181
 30
0.0
 10
10.6128544137
 20
7.0821084738
 30
0.0
 10
10.614905723
 20
7.0759150234
 30
0.0
 10
10.6175759418
 20
7.067584863
 30
0.0
 10
10.6194156383
 20
7.0616228623
 30
0.0
 10
10.6203755369
 20
7.058447587
 30
0.0
  0
SPLINE
  5
2EE
100
AcDbEntity
  8
0
100
AcDbSpline
 62
9
  6
CONTINUOUS
 70
0
 71
3
 72
13
 73
9
 74
0
 42
0.0000001
 43
0.0000001
 44
0.0000000001
 40
0.0
 40
0.0
 40
0.0
 40
0.0
 40
0.0792681111
 40
0.171763057
 40
0.2775025621
 40
0.3964134718
 40
0.6731259797
 40
1.0
 40
1.0
 40
1.0
 40
1.0
 10
12.6781168012
 20
4.8882968147
 30
0.0
 10
12.6779354307
 20
4.888296815
 30
0.0
 10
12.6775424156
 20
4.8883132614
 30
0.0
 10
12.6769102513
 20
4.8883746184
 30
0.0
 10
12.6761913603
 20
4.8884746974
 30
0.0
 10
12.6750607748
 20
4.8886698247
 30
0.0
 10
12.67344373
 20
4.8890161088
 30
0.0
 10
12.6721038038
 20
4.8893513257
 30
0.0
 10
12.6713804507
 20
4.8895413988
 30
0.0
  0
SPLINE
  5
2EF
100
AcDbEntity
  8
0
100
AcDbSpline
 62
9
  6
CONTINUOUS
 70
0
 71
3
 72
15
 73
11
 74
0
 42
0.0000001
 43
0.0000001
 44
0.0000000001
 40
0.0
 40
0.0
 40
0.0
 40
0.0
 40
0.1266959083
 40
0.2521264762
 40
0.3766975122
 40
0.5007912727
 40
0.6247777725
 40
0.7490341043
 40
0.8739627105
 40
1.0
 40
1.0
 40
1.0
 40
1.0
 10
12.6713804507
 20
4.8895413988
 30
0.0
 10
12.6598814238
 20
4.8925629682
 30
0.0
 10
12.6367924625
 20
4.8978218041
 30
0.0
 10
12.6018641625
 20
4.9034148822
 30
0.0
 10
12.566892101
 20
4.9067397747
 30
0.0
 10
12.5319160992
 20
4.907843325
 30
0.0
 10
12.4969695253
 20
4.9067416517
 30
0.0
 10
12.4620842308
 20
4.9034182436
 30
0.0
 10
12.4272957542
 20
4.8978259559
 30
0.0
 10
12.4043188309
 20
4.8925644396
 30
0.0
 10
12.3928841086
 20
4.8895413988
 30
0.0
  0
SPLINE
  5
2F0
100
AcDbEntity
  8
0
100
AcDbSpline
 62
9
  6
CONTINUOUS
 70
0
 71
3
 72
11
 73
7
 74
0
 42
0.0000001
 43
0.0000001
 44
0.0000000001
 40
0.0
 40
0.0
 40
0.0
 40
0.0
 40
0.2153190323
 40
0.4540964497
 40
0.7159652049
 40
1.0
 40
1.0
 40
1.0
 40
1.0
 10
12.3928841086
 20
4.8895413988
 30
0.0
 10
12.392067602
 20
4.8893255372
 30
0.0
 10
12.3903233198
 20
4.8889531234
 30
0.0
 10
12.3875391202
 20
4.8885718122
 30
0.0
 10
12.3844681301
 20
4.8883435166
 30
0.0
 10
12.3823264458
 20
4.8882968158
 30
0.0
 10
12.3812123594
 20
4.8882968147
 30
0.0
  0
SPLINE
  5
2F1
100
AcDbEntity
  8
0
100
AcDbSpline
 62
9
  6
CONTINUOUS
 70
0
 71
3
 72
9
 73
5
 74
0
 42
0.0000001
 43
0.0000001
 44
0.0000000001
 40
0.0
 40
0.0
 40
0.0
 40
0.0
 40
0.4939744786
 40
1.0
 40
1.0
 40
1.0
 40
1.0
 10
12.0210517847
 20
4.8882968147
 30
0.0
 10
12.0180122078
 20
4.8882968161
 30
0.0
 10
12.0118575067
 20
4.8885176284
 30
0.0
 10
12.0057307251
 20
4.8891345785
 30
0.0
 10
12.0026436851
 20
4.8895413988
 30
0.0
  0
SPLINE
  5
2F2
100
AcDbEntity
  8
0
100
AcDbSpline
 62
9
  6
CONTINUOUS
 70
0
 71
3
 72
15
 73
11
 74
0
 42
0.0000001
 43
0.0000001
 44
0.0000000001
 40
0.0
 40
0.0
 40
0.0
 40
0.0
 40
0.1249995723
 40
0.2500000694
 40
0.374999827
 40
0.4999999998
 40
0.6250001724
 40
0.7499999298
 40
0.8750004271
 40
1.0
 40
1.0
 40
1.0
 40
1.0
 10
12.0026436851
 20
4.8895413988
 30
0.0
 10
11.9795716506
 20
4.8925819254
 30
0.0
 10
11.9333171343
 20
4.8978545973
 30
0.0
 10
11.8637133391
 20
4.9034294032
 30
0.0
 10
11.7939650337
 20
4.9067432627
 30
0.0
 10
11.7241473431
 20
4.9078426038
 30
0.0
 10
11.6543296525
 20
4.9067432634
 30
0.0
 10
11.5845813471
 20
4.9034294023
 30
0.0
 10
11.5149775517
 20
4.897854598
 30
0.0
 10
11.4687230353
 20
4.8925819255
 30
0.0
 10
11.4456510007
 20
4.8895413988
 30
0.0
  0
SPLINE
  5
2F3
100
AcDbEntity
  8
0
100
AcDbSpline
 62
9
  6
CONTINUOUS
 70
0
 71
3
 72
9
 73
5
 74
0
 42
0.0000001
 43
0.0000001
 44
0.0000000001
 40
0.0
 40
0.0
 40
0.0
 40
0.0
 40
0.5060257174
 40
1.0
 40
1.0
 40
1.0
 40
1.0
 10
11.4456510007
 20
4.8895413988
 30
0.0
 10
11.4425639596
 20
4.8891345775
 30
0.0
 10
11.4364371778
 20
4.8885176283
 30
0.0
 10
11.4302824768
 20
4.888296817
 30
0.0
 10
11.4272429011
 20
4.8882968147
 30
0.0
  0
SPLINE
  5
2F4
100
AcDbEntity
  8
0
100
AcDbSpline
 62
9
  6
CONTINUOUS
 70
0
 71
3
 72
13
 73
9
 74
0
 42
0.0000001
 43
0.0000001
 44
0.0000000001
 40
0.0
 40
0.0
 40
0.0
 40
0.0
 40
0.2563925618
 40
0.5114227966
 40
0.6370552233
 40
0.7605472636
 40
0.8816440219
 40
1.0
 40
1.0
 40
1.0
 40
1.0
 10
11.0438103897
 20
4.871358046
 30
0.0
 10
11.0439362699
 20
4.8732797055
 30
0.0
 10
11.0446741302
 20
4.877096129
 30
0.0
 10
11.0467311289
 20
4.8814749316
 30
0.0
 10
11.0489723205
 20
4.8845387581
 30
0.0
 10
11.0509023058
 20
4.8865530055
 30
0.0
 10
11.053047598
 20
4.8882486492
 30
0.0
 10
11.0546099245
 20
4.8891550867
 30
0.0
 10
11.0554105772
 20
4.8895413988
 30
0.0
  0
SPLINE
  5
2F5
100
AcDbEntity
  8
0
100
AcDbSpline
 62
9
  6
CONTINUOUS
 70
0
 71
3
 72
16
 73
12
 74
0
 42
0.0000001
 43
0.0000001
 44
0.0000000001
 40
0.0
 40
0.0
 40
0.0
 40
0.0
 40
0.0923132783
 40
0.1800043243
 40
0.2719238239
 40
0.3760445599
 40
0.4346047283
 40
0.4981466178
 40
0.6415770437
 40
0.8084956013
 40
1.0
 40
1.0
 40
1.0
 40
1.0
 10
12.5817923029
 20
7.6751659601
 30
0.0
 10
12.5817969454
 20
7.6750549829
 30
0.0
 10
12.5817789712
 20
7.6748354095
 30
0.0
 10
12.581646335
 20
7.6745296807
 30
0.0
 10
12.5814117911
 20
7.6742742265
 30
0.0
 10
12.581149093
 20
7.6741111195
 30
0.0
 10
12.5808994936
 20
7.6740020366
 30
0.0
 10
12.5805964386
 20
7.6738996625
 30
0.0
 10
12.5801554092
 20
7.6738043683
 30
0.0
 10
12.5795543809
 20
7.6737392506
 30
0.0
 10
12.5791228701
 20
7.6737268383
 30
0.0
 10
12.5788924459
 20
7.6737268377
 30
0.0
  0
SPLINE
  5
2F6
100
AcDbEntity
  8
0
100
AcDbSpline
 62
9
  6
CONTINUOUS
 70
0
 71
3
 72
11
 73
7
 74
0
 42
0.0000001
 43
0.0000001
 44
0.0000000001
 40
0.0
 40
0.0
 40
0.0
 40
0.0
 40
0.2246123088
 40
0.4672312124
 40
0.7263041549
 40
1.0
 40
1.0
 40
1.0
 40
1.0
 10
12.3917205084
 20
7.6737268377
 30
0.0
 10
12.3906083653
 20
7.6737268386
 30
0.0
 10
12.3882946595
 20
7.6737956871
 30
0.0
 10
12.3847082291
 20
7.6740750059
 30
0.0
 10
12.3808951648
 20
7.6745305699
 30
0.0
 10
12.3782881177
 20
7.6749368198
 30
0.0
 10
12.3769524555
 20
7.6751659601
 30
0.0
  0
SPLINE
  5
2F7
100
AcDbEntity
  8
0
100
AcDbSpline
 62
9
  6
CONTINUOUS
 70
0
 71
3
 72
19
 73
15
 74
0
 42
0.0000001
 43
0.0000001
 44
0.0000000001
 40
0.0
 40
0.0
 40
0.0
 40
0.0
 40
0.1255875143
 40
0.2509047198
 40
0.3134835141
 40
0.3760142712
 40
0.4385022185
 40
0.5009525433
 40
0.5633706611
 40
0.6257623844
 40
0.6881344677
 40
0.7504944946
 40
0.8752078558
 40
1.0
 40
1.0
 40
1.0
 40
1.0
 10
12.3769524555
 20
7.6751659601
 30
0.0
 10
12.3583882936
 20
7.6783507625
 30
0.0
 10
12.321131558
 20
7.6837616145
 30
0.0
 10
12.2743297232
 20
7.6883914032
 30
0.0
 10
12.2368549666
 20
7.6909295727
 30
0.0
 10
12.2087496524
 20
7.6922727564
 30
0.0
 10
12.1806430791
 20
7.6930714979
 30
0.0
 10
12.1525433183
 20
7.6933373926
 30
0.0
 10
12.1244579842
 20
7.6930717723
 30
0.0
 10
12.0963944729
 20
7.6922732949
 30
0.0
 10
12.0683602523
 20
7.6909303575
 30
0.0
 10
12.0310328946
 20
7.6883935974
 30
0.0
 10
11.9844744372
 20
7.6837668977
 30
0.0
 10
11.9474299561
 20
7.6783528121
 30
0.0
 10
11.9289871904
 20
7.6751659601
 30
0.0
  0
SPLINE
  5
2F8
100
AcDbEntity
  8
0
100
AcDbSpline
 62
9
  6
CONTINUOUS
 70
0
 71
3
 72
9
 73
5
 74
0
 42
0.0000001
 43
0.0000001
 44
0.0000000001
 40
0.0
 40
0.0
 40
0.0
 40
0.0
 40
0.48480504
 40
1.0
 40
1.0
 40
1.0
 40
1.0
 10
11.9289871904
 20
7.6751659601
 30
0.0
 10
11.9261618469
 20
7.6746777521
 30
0.0
 10
11.920283107
 20
7.673953557
 30
0.0
 10
11.9143662245
 20
7.6737268404
 30
0.0
 10
11.9113192804
 20
7.6737268377
 30
0.0
  0
SPLINE
  5
2F9
100
AcDbEntity
  8
0
100
AcDbSpline
 62
9
  6
CONTINUOUS
 70
0
 71
3
 72
9
 73
5
 74
0
 42
0.0000001
 43
0.0000001
 44
0.0000000001
 40
0.0
 40
0.0
 40
0.0
 40
0.0
 40
0.5151952152
 40
1.0
 40
1.0
 40
1.0
 40
1.0
 10
11.5369754054
 20
7.6737268377
 30
0.0
 10
11.5339284597
 20
7.6737268394
 30
0.0
 10
11.5280115772
 20
7.673953557
 30
0.0
 10
11.5221328376
 20
7.6746777537
 30
0.0
 10
11.5193074954
 20
7.6751659601
 30
0.0
  0
SPLINE
  5
2FA
100
AcDbEntity
  8
0
100
AcDbSpline
 62
9
  6
CONTINUOUS
 70
0
 71
3
 72
19
 73
15
 74
0
 42
0.0000001
 43
0.0000001
 44
0.0000000001
 40
0.0
 40
0.0
 40
0.0
 40
0.0
 40
0.1247921404
 40
0.2495055102
 40
0.3118655401
 40
0.3742376223
 40
0.4366293423
 40
0.4990474573
 40
0.5614977791
 40
0.6239857222
 40
0.6865164772
 40
0.7490952732
 40
0.8744124874
 40
1.0
 40
1.0
 40
1.0
 40
1.0
 10
11.5193074954
 20
7.6751659601
 30
0.0
 10
11.5008647302
 20
7.6783528118
 30
0.0
 10
11.4638202489
 20
7.6837669012
 30
0.0
 10
11.4172617897
 20
7.6883935953
 30
0.0
 10
11.3799344303
 20
7.6909303536
 30
0.0
 10
11.35190021
 20
7.6922732917
 30
0.0
 10
11.3238366998
 20
7.6930717707
 30
0.0
 10
11.2957513671
 20
7.6933373919
 30
0.0
 10
11.2676516078
 20
7.6930714984
 30
0.0
 10
11.2395450358
 20
7.6922727586
 30
0.0
 10
11.2114397223
 20
7.690929576
 30
0.0
 10
11.1739649645
 20
7.6883914056
 30
0.0
 10
11.1271631289
 20
7.6837616119
 30
0.0
 10
11.0899063919
 20
7.6783507627
 30
0.0
 10
11.0713422303
 20
7.6751659601
 30
0.0
  0
SPLINE
  5
2FB
100
AcDbEntity
  8
0
100
AcDbSpline
 62
9
  6
CONTINUOUS
 70
0
 71
3
 72
11
 73
7
 74
0
 42
0.0000001
 43
0.0000001
 44
0.0000000001
 40
0.0
 40
0.0
 40
0.0
 40
0.0
 40
0.273695984
 40
0.5327690505
 40
0.7753877817
 40
1.0
 40
1.0
 40
1.0
 40
1.0
 10
11.0713422303
 20
7.6751659601
 30
0.0
 10
11.0700065675
 20
7.6749368193
 30
0.0
 10
11.0673995191
 20
7.6745305694
 30
0.0
 10
11.0635864542
 20
7.6740750057
 30
0.0
 10
11.0600000245
 20
7.673795687
 30
0.0
 10
11.0576863201
 20
7.6737268391
 30
0.0
 10
11.0565741774
 20
7.6737268377
 30
0.0
  0
SPLINE
  5
2FC
100
AcDbEntity
  8
0
100
AcDbSpline
 62
9
  6
CONTINUOUS
 70
0
 71
3
 72
16
 73
12
 74
0
 42
0.0000001
 43
0.0000001
 44
0.0000000001
 40
0.0
 40
0.0
 40
0.0
 40
0.0
 40
0.1915046409
 40
0.3584232288
 40
0.5018537154
 40
0.565395608
 40
0.6239557534
 40
0.7280764077
 40
0.8199958093
 40
0.9076868126
 40
1.0
 40
1.0
 40
1.0
 40
1.0
 10
10.8694022399
 20
7.6737268377
 30
0.0
 10
10.8691718155
 20
7.6737268381
 30
0.0
 10
10.8687403043
 20
7.6737392502
 30
0.0
 10
10.8681392757
 20
7.6738043683
 30
0.0
 10
10.8676982463
 20
7.6738996626
 30
0.0
 10
10.8673951915
 20
7.6740020369
 30
0.0
 10
10.8671455923
 20
7.6741111199
 30
0.0
 10
10.8668828945
 20
7.674274227
 30
0.0
 10
10.8666483512
 20
7.6745296812
 30
0.0
 10
10.8665157157
 20
7.67483541
 30
0.0
 10
10.866497741
 20
7.675054983
 30
0.0
 10
10.8665023828
 20
7.6751659601
 30
0.0
  0
LINE
  5
2FD
100
AcDbEntity
  8
0
100
AcDbLine
 62
9
  6
CONTINUOUS
 10
10.8665023828
 20
7.6751659601
 11
10.8673650551
 21
7.6932488095
  0
SPLINE
  5
2FE
100
AcDbEntity
  8
0
100
AcDbSpline
 62
9
  6
CONTINUOUS
 70
0
 71
3
 72
14
 73
10
 74
0
 42
0.0000001
 43
0.0000001
 44
0.0000000001
 40
0.0
 40
0.0
 40
0.0
 40
0.0
 40
0.2639115509
 40
0.3929971022
 40
0.5194876895
 40
0.6432362836
 40
0.7643120761
 40
0.8831187206
 40
1.0
 40
1.0
 40
1.0
 40
1.0
 10
12.6805984029
 20
4.871358046
 30
0.0
 10
12.680722238
 20
4.8732484867
 30
0.0
 10
12.6805543996
 20
4.876106316
 30
0.0
 10
12.679598159
 20
4.8797193809
 30
0.0
 10
12.6785427417
 20
4.8822398964
 30
0.0
 10
12.6771670308
 20
4.8845339352
 30
0.0
 10
12.6754968342
 20
4.8865537273
 30
0.0
 10
12.6735676346
 20
4.88825383
 30
0.0
 10
12.6721263598
 20
4.889157215
 30
0.0
 10
12.6713804507
 20
4.8895413988
 30
0.0
  0
SPLINE
  5
2FF
100
AcDbEntity
  8
0
100
AcDbSpline
 62
9
  6
CONTINUOUS
 70
0
 71
3
 72
11
 73
7
 74
0
 42
0.0000001
 43
0.0000001
 44
0.0000000001
 40
0.0
 40
0.0
 40
0.0
 40
0.0
 40
0.2840348962
 40
0.5459037438
 40
0.7846810235
 40
1.0
 40
1.0
 40
1.0
 40
1.0
 10
11.0670823264
 20
4.8882968147
 30
0.0
 10
11.0659682396
 20
4.8882968153
 30
0.0
 10
11.0638265546
 20
4.8883435166
 30
0.0
 10
11.0607555642
 20
4.8885718124
 30
0.0
 10
11.057971365
 20
4.8889531235
 30
0.0
 10
11.0562270837
 20
4.8893255379
 30
0.0
 10
11.0554105772
 20
4.8895413988
 30
0.0
  0
LINE
  5
300
100
AcDbEntity
  8
0
100
AcDbLine
 62
9
  6
CONTINUOUS
 10
10.8673650547
 20
7.4180783127
 11
10.8665023828
 21
7.4361611621
  0
SPLINE
  5
301
100
AcDbEntity
  8
0
100
AcDbSpline
 62
9
  6
CONTINUOUS
 70
0
 71
3
 72
14
 73
10
 74
0
 42
0.0000001
 43
0.0000001
 44
0.0000000001
 40
0.0
 40
0.0
 40
0.0
 40
0.0
 40
0.2639115511
 40
0.3929971024
 40
0.5194876898
 40
0.6432362839
 40
0.7643120764
 40
0.8831187208
 40
1.0
 40
1.0
 40
1.0
 40
1.0
 10
10.7676962829
 20
4.6799690761
 30
0.0
 10
10.7675724478
 20
4.6780786354
 30
0.0
 10
10.7677402862
 20
4.6752208062
 30
0.0
 10
10.7686965268
 20
4.6716077412
 30
0.0
 10
10.7697519441
 20
4.6690872257
 30
0.0
 10
10.7711276551
 20
4.6667931869
 30
0.0
 10
10.7727978516
 20
4.6647733948
 30
0.0
 10
10.7747270512
 20
4.6630732922
 30
0.0
 10
10.776168326
 20
4.6621699072
 30
0.0
 10
10.7769142351
 20
4.6617857234
 30
0.0
  0
SPLINE
  5
302
100
AcDbEntity
  8
0
100
AcDbSpline
 62
9
  6
CONTINUOUS
 70
0
 71
3
 72
15
 73
11
 74
0
 42
0.0000001
 43
0.0000001
 44
0.0000000001
 40
0.0
 40
0.0
 40
0.0
 40
0.0
 40
0.1260372905
 40
0.2509658917
 40
0.37522223
 40
0.4992087274
 40
0.6233024843
 40
0.7478735258
 40
0.8733040891
 40
1.0
 40
1.0
 40
1.0
 40
1.0
 10
11.0554105772
 20
4.8895413988
 30
0.0
 10
11.0439758548
 20
4.8925644396
 30
0.0
 10
11.0209989317
 20
4.8978259549
 30
0.0
 10
10.9862104552
 20
4.9034182449
 30
0.0
 10
10.9513251605
 20
4.9067416506
 30
0.0
 10
10.9163785867
 20
4.907843325
 30
0.0
 10
10.8814025849
 20
4.9067397754
 30
0.0
 10
10.8464305237
 20
4.9034148816
 30
0.0
 10
10.8115022233
 20
4.8978218046
 30
0.0
 10
10.7884132623
 20
4.8925629683
 30
0.0
 10
10.7769142351
 20
4.8895413988
 30
0.0
  0
SPLINE
  5
303
100
AcDbEntity
  8
0
100
AcDbSpline
 62
9
  6
CONTINUOUS
 70
0
 71
3
 72
13
 73
9
 74
0
 42
0.0000001
 43
0.0000001
 44
0.0000000001
 40
0.0
 40
0.0
 40
0.0
 40
0.0
 40
0.3268741597
 40
0.6035867287
 40
0.7224975926
 40
0.8282369842
 40
0.9207318228
 40
1.0
 40
1.0
 40
1.0
 40
1.0
 10
10.7769142351
 20
4.8895413988
 30
0.0
 10
10.7761908817
 20
4.8893513254
 30
0.0
 10
10.774850955
 20
4.8890161085
 30
0.0
 10
10.7732339099
 20
4.8886698244
 30
0.0
 10
10.7721033246
 20
4.8884746973
 30
0.0
 10
10.7713844343
 20
4.8883746184
 30
0.0
 10
10.7707522702
 20
4.8883132617
 30
0.0
 10
10.7703592552
 20
4.8882968153
 30
0.0
 10
10.7701778846
 20
4.8882968147
 30
0.0
  0
SPLINE
  5
304
100
AcDbEntity
  8
0
100
AcDbSpline
 62
9
  6
CONTINUOUS
 70
0
 71
3
 72
13
 73
9
 74
0
 42
0.0000001
 43
0.0000001
 44
0.0000000001
 40
0.0
 40
0.0
 40
0.0
 40
0.0
 40
0.1174379494
 40
0.2368135118
 40
0.3583248681
 40
0.4822250076
 40
0.7368330004
 40
1.0
 40
1.0
 40
1.0
 40
1.0
 10
10.3743690335
 20
7.0529021032
 30
0.0
 10
10.3748228703
 20
7.0534125936
 30
0.0
 10
10.3758097127
 20
7.0543804726
 30
0.0
 10
10.3774806162
 20
7.0556353206
 30
0.0
 10
10.3793304971
 20
7.0566861123
 30
0.0
 10
10.3820216339
 20
7.0578050588
 30
0.0
 10
10.3857001604
 20
7.0586135142
 30
0.0
 10
10.388737348
 20
7.0586063152
 30
0.0
 10
10.3902597623
 20
7.058447587
 30
0.0
  0
SPLINE
  5
305
100
AcDbEntity
  8
0
100
AcDbSpline
 62
9
  6
CONTINUOUS
 70
0
 71
3
 72
11
 73
7
 74
0
 42
0.0000001
 43
0.0000001
 44
0.0000000001
 40
0.0
 40
0.0
 40
0.0
 40
0.0
 40
0.2246123088
 40
0.4672312124
 40
0.7263041549
 40
1.0
 40
1.0
 40
1.0
 40
1.0
 10
11.0565741774
 20
7.4376002844
 30
0.0
 10
11.0576863205
 20
7.4376002835
 30
0.0
 10
11.0600000263
 20
7.437531435
 30
0.0
 10
11.0635864567
 20
7.4372521162
 30
0.0
 10
11.067399521
 20
7.4367965522
 30
0.0
 10
11.0700065681
 20
7.4363903023
 30
0.0
 10
11.0713422303
 20
7.4361611621
 30
0.0
  0
SPLINE
  5
306
100
AcDbEntity
  8
0
100
AcDbSpline
 62
9
  6
CONTINUOUS
 70
0
 71
3
 72
19
 73
15
 74
0
 42
0.0000001
 43
0.0000001
 44
0.0000000001
 40
0.0
 40
0.0
 40
0.0
 40
0.0
 40
0.1255875136
 40
0.2509047224
 40
0.313483518
 40
0.3760142746
 40
0.4385022201
 40
0.5009525438
 40
0.5633706605
 40
0.6257623822
 40
0.6881344646
 40
0.7504944922
 40
0.8752078568
 40
1.0
 40
1.0
 40
1.0
 40
1.0
 10
11.0713422303
 20
7.4361611621
 30
0.0
 10
11.0899063921
 20
7.4329763597
 30
0.0
 10
11.1271631281
 20
7.4275655084
 30
0.0
 10
11.1739649635
 20
7.4229357183
 30
0.0
 10
11.2114397206
 20
7.4203975479
 30
0.0
 10
11.2395450346
 20
7.4190543646
 30
0.0
 10
11.2676516075
 20
7.4182556238
 30
0.0
 10
11.2957513677
 20
7.4179897296
 30
0.0
 10
11.3238367011
 20
7.4182553502
 30
0.0
 10
11.3519002119
 20
7.4190538284
 30
0.0
 10
11.3799344322
 20
7.4203967662
 30
0.0
 10
11.4172617904
 20
7.4229335258
 30
0.0
 10
11.4638202485
 20
7.4275602234
 30
0.0
 10
11.5008647299
 20
7.4329743099
 30
0.0
 10
11.5193074954
 20
7.4361611621
 30
0.0
  0
SPLINE
  5
307
100
AcDbEntity
  8
0
100
AcDbSpline
 62
9
  6
CONTINUOUS
 70
0
 71
3
 72
9
 73
5
 74
0
 42
0.0000001
 43
0.0000001
 44
0.0000000001
 40
0.0
 40
0.0
 40
0.0
 40
0.0
 40
0.4848050391
 40
1.0
 40
1.0
 40
1.0
 40
1.0
 10
11.5193074954
 20
7.4361611621
 30
0.0
 10
11.5221328389
 20
7.43664937
 30
0.0
 10
11.5280115788
 20
7.4373735651
 30
0.0
 10
11.5339284613
 20
7.4376002817
 30
0.0
 10
11.5369754054
 20
7.4376002844
 30
0.0
  0
SPLINE
  5
308
100
AcDbEntity
  8
0
100
AcDbSpline
 62
9
  6
CONTINUOUS
 70
0
 71
3
 72
9
 73
5
 74
0
 42
0.0000001
 43
0.0000001
 44
0.0000000001
 40
0.0
 40
0.0
 40
0.0
 40
0.0
 40
0.5151952152
 40
1.0
 40
1.0
 40
1.0
 40
1.0
 10
11.9113192804
 20
7.4376002844
 30
0.0
 10
11.914366226
 20
7.4376002827
 30
0.0
 10
11.9202831086
 20
7.4373735652
 30
0.0
 10
11.9261618482
 20
7.4366493684
 30
0.0
 10
11.9289871904
 20
7.4361611621
 30
0.0
  0
SPLINE
  5
309
100
AcDbEntity
  8
0
100
AcDbSpline
 62
9
  6
CONTINUOUS
 70
0
 71
3
 72
19
 73
15
 74
0
 42
0.0000001
 43
0.0000001
 44
0.0000000001
 40
0.0
 40
0.0
 40
0.0
 40
0.0
 40
0.1247921418
 40
0.2495055085
 40
0.3118655362
 40
0.3742376184
 40
0.4366293397
 40
0.4990474558
 40
0.5614977789
 40
0.6239857242
 40
0.6865164806
 40
0.7490952763
 40
0.8744124869
 40
1.0
 40
1.0
 40
1.0
 40
1.0
 10
11.9289871904
 20
7.4361611621
 30
0.0
 10
11.9474299558
 20
7.4329743104
 30
0.0
 10
11.984474437
 20
7.4275602221
 30
0.0
 10
12.0310328954
 20
7.4229335264
 30
0.0
 10
12.0683602539
 20
7.4203967666
 30
0.0
 10
12.0963944741
 20
7.4190538286
 30
0.0
 10
12.1244579847
 20
7.4182553503
 30
0.0
 10
12.152543318
 20
7.4179897294
 30
0.0
 10
12.1806430779
 20
7.4182556234
 30
0.0
 10
12.2087496507
 20
7.4190543641
 30
0.0
 10
12.2368549647
 20
7.4203975474
 30
0.0
 10
12.274329722
 20
7.4229357177
 30
0.0
 10
12.3211315574
 20
7.4275655095
 30
0.0
 10
12.3583882938
 20
7.4329763594
 30
0.0
 10
12.3769524555
 20
7.4361611621
 30
0.0
  0
SPLINE
  5
30A
100
AcDbEntity
  8
0
100
AcDbSpline
 62
9
  6
CONTINUOUS
 70
0
 71
3
 72
11
 73
7
 74
0
 42
0.0000001
 43
0.0000001
 44
0.0000000001
 40
0.0
 40
0.0
 40
0.0
 40
0.0
 40
0.2736959848
 40
0.5327690517
 40
0.7753877821
 40
1.0
 40
1.0
 40
1.0
 40
1.0
 10
12.3769524555
 20
7.4361611621
 30
0.0
 10
12.3782881183
 20
7.4363903029
 30
0.0
 10
12.3808951667
 20
7.4367965527
 30
0.0
 10
12.3847082316
 20
7.4372521165
 30
0.0
 10
12.3882946613
 20
7.4375314351
 30
0.0
 10
12.3906083657
 20
7.437600283
 30
0.0
 10
12.3917205084
 20
7.4376002844
 30
0.0
  0
SPLINE
  5
30B
100
AcDbEntity
  8
0
100
AcDbSpline
 62
9
  6
CONTINUOUS
 70
0
 71
3
 72
16
 73
12
 74
0
 42
0.0000001
 43
0.0000001
 44
0.0000000001
 40
0.0
 40
0.0
 40
0.0
 40
0.0
 40
0.1915046409
 40
0.3584232288
 40
0.5018537154
 40
0.565395608
 40
0.6239557534
 40
0.7280764077
 40
0.8199958093
 40
0.9076868126
 40
1.0
 40
1.0
 40
1.0
 40
1.0
 10
12.5788924459
 20
7.4376002844
 30
0.0
 10
12.5791228703
 20
7.437600284
 30
0.0
 10
12.5795543815
 20
7.437587872
 30
0.0
 10
12.5801554101
 20
7.4375227538
 30
0.0
 10
12.5805964395
 20
7.4374274595
 30
0.0
 10
12.5808994943
 20
7.4373250852
 30
0.0
 10
12.5811490935
 20
7.4372160022
 30
0.0
 10
12.5814117913
 20
7.4370528951
 30
0.0
 10
12.5816463346
 20
7.4367974409
 30
0.0
 10
12.5817789701
 20
7.4364917121
 30
0.0
 10
12.5817969448
 20
7.4362721392
 30
0.0
 10
12.5817923029
 20
7.4361611621
 30
0.0
  0
LINE
  5
30C
100
AcDbEntity
  8
0
100
AcDbLine
 62
9
  6
CONTINUOUS
 10
12.5817923029
 20
7.4361611621
 11
12.5809296311
 21
7.4180783127
  0
SPLINE
  5
30D
100
AcDbEntity
  8
0
100
AcDbSpline
 62
9
  6
CONTINUOUS
 70
0
 71
3
 72
13
 73
9
 74
0
 42
0.0000001
 43
0.0000001
 44
0.0000000001
 40
0.0
 40
0.0
 40
0.0
 40
0.0
 40
0.123035926
 40
0.2465838129
 40
0.370678773
 40
0.4954370969
 40
0.7464922294
 40
1.0
 40
1.0
 40
1.0
 40
1.0
 10
10.3841473429
 20
5.85360248
 30
0.0
 10
10.3845968731
 20
5.852944169
 30
0.0
 10
10.3855846114
 20
5.8516818016
 30
0.0
 10
10.3872990451
 20
5.8499911409
 30
0.0
 10
10.3892239494
 20
5.8485251711
 30
0.0
 10
10.3920330465
 20
5.8468982182
 30
0.0
 10
10.3959213518
 20
5.8455331468
 30
0.0
 10
10.3992130239
 20
5.8452268482
 30
0.0
 10
10.4008549316
 20
5.8452702321
 30
0.0
  0
SPLINE
  5
30E
100
AcDbEntity
  8
0
100
AcDbSpline
 62
9
  6
CONTINUOUS
 70
0
 71
3
 72
12
 73
8
 74
0
 42
0.0000001
 43
0.0000001
 44
0.0000000001
 40
0.0
 40
0.0
 40
0.0
 40
0.0
 40
0.2449437648
 40
0.3699247002
 40
0.4959367587
 40
0.7488135234
 40
1.0
 40
1.0
 40
1.0
 40
1.0
 10
10.3743690335
 20
6.045396669
 30
0.0
 10
10.3752840346
 20
6.044176647
 30
0.0
 10
10.376878577
 20
6.0424829081
 30
0.0
 10
10.379319389
 20
6.0405860364
 30
0.0
 10
10.3819836524
 20
6.038920152
 30
0.0
 10
10.3856089244
 20
6.0373521783
 30
0.0
 10
10.3887043083
 20
6.0366997836
 30
0.0
 10
10.3902597623
 20
6.0365376105
 30
0.0
  0
SPLINE
  5
30F
100
AcDbEntity
  8
0
100
AcDbSpline
 62
9
  6
CONTINUOUS
 70
0
 71
3
 72
14
 73
10
 74
0
 42
0.0000001
 43
0.0000001
 44
0.0000000001
 40
0.0
 40
0.0
 40
0.0
 40
0.0
 40
0.0901337646
 40
0.1932503971
 40
0.3081076037
 40
0.433252905
 40
0.5669668728
 40
0.7073458806
 40
1.0
 40
1.0
 40
1.0
 40
1.0
 10
10.3841473429
 20
6.2303635307
 30
0.0
 10
10.3846328492
 20
6.2302259877
 30
0.0
 10
10.3856886288
 20
6.2299831028
 30
0.0
 10
10.3873930696
 20
6.2297122897
 30
0.0
 10
10.3893046353
 20
6.2295144699
 30
0.0
 10
10.3913939302
 20
6.2293929333
 30
0.0
 10
10.3936291815
 20
6.2293499347
 30
0.0
 10
10.3968021546
 20
6.2293992227
 30
0.0
 10
10.3992235975
 20
6.229554047
 30
0.0
 10
10.4008549316
 20
6.2297062814
 30
0.0
  0
SPLINE
  5
310
100
AcDbEntity
  8
0
100
AcDbSpline
 62
9
  6
CONTINUOUS
 70
0
 71
3
 72
12
 73
8
 74
0
 42
0.0000001
 43
0.0000001
 44
0.0000000001
 40
0.0
 40
0.0
 40
0.0
 40
0.0
 40
0.2301665475
 40
0.3519798346
 40
0.4775087227
 40
0.7363756458
 40
1.0
 40
1.0
 40
1.0
 40
1.0
 10
10.3841473429
 20
6.8434246118
 30
0.0
 10
10.3850811766
 20
6.8445276045
 30
0.0
 10
10.3867365204
 20
6.8460313872
 30
0.0
 10
10.3892485014
 20
6.8476732743
 30
0.0
 10
10.3920754335
 20
6.8491378605
 30
0.0
 10
10.3959427682
 20
6.8504777667
 30
0.0
 10
10.3992033297
 20
6.8509891255
 30
0.0
 10
10.4008549316
 20
6.8510996103
 30
0.0
  0
SPLINE
  5
311
100
AcDbEntity
  8
0
100
AcDbSpline
 62
9
  6
CONTINUOUS
 70
0
 71
3
 72
41
 73
37
 74
0
 42
0.0000001
 43
0.0000001
 44
0.0000000001
 40
0.0
 40
0.0
 40
0.0
 40
0.0
 40
0.0000262157
 40
0.0001039592
 40
0.0002331334
 40
0.000413641
 40
0.0006453848
 40
0.0009282676
 40
0.0016470611
 40
0.0025692438
 40
0.0036940373
 40
0.0050205384
 40
0.0065475323
 40
0.0101979512
 40
0.0146352018
 40
0.0198472871
 40
0.0258162132
 40
0.0325228185
 40
0.0399475749
 40
0.056866616
 40
0.0763996228
 40
0.0983614555
 40
0.1225660524
 40
0.1488345422
 40
0.1769949909
 40
0.2068836859
 40
0.271248795
 40
0.3408526633
 40
0.4147866929
 40
0.492285497
 40
0.5726955536
 40
0.6554453188
 40
0.7400204661
 40
0.8259395617
 40
0.912751439
 40
1.0
 40
1.0
 40
1.0
 40
1.0
 10
9.8301693457
 20
6.8466635611
 30
0.0
 10
9.8301673673
 20
6.8466631256
 30
0.0
 10
9.8301600401
 20
6.846659646
 30
0.0
 10
9.8301429956
 20
6.8466539276
 30
0.0
 10
9.8301150855
 20
6.8466430177
 30
0.0
 10
9.8300758906
 20
6.8466284205
 30
0.0
 10
9.8300256477
 20
6.8466094113
 30
0.0
 10
9.8299364611
 20
6.8465758115
 30
0.0
 10
9.8297973747
 20
6.8465233238
 30
0.0
 10
9.8295974194
 20
6.8464478809
 30
0.0
 10
9.8293535431
 20
6.8463558213
 30
0.0
 10
9.8290659473
 20
6.8462472482
 30
0.0
 10
9.8285957309
 20
6.8460698518
 30
0.0
 10
9.827900454
 20
6.8458080366
 30
0.0
 10
9.8269382735
 20
6.8454469878
 30
0.0
 10
9.825807781
 20
6.8450245416
 30
0.0
 10
9.8245122913
 20
6.8445426846
 30
0.0
 10
9.8230556666
 20
6.8440036072
 30
0.0
 10
9.8208040703
 20
6.8431747572
 30
0.0
 10
9.8176186906
 20
6.8420135567
 30
0.0
 10
9.8133705195
 20
6.8404881416
 30
0.0
 10
9.8085830547
 20
6.8387989979
 30
0.0
 10
9.8032932668
 20
6.836969617
 30
0.0
 10
9.797536961
 20
6.83502415
 30
0.0
 10
9.7913485358
 20
6.8329860088
 30
0.0
 10
9.7823393453
 20
6.8301031026
 30
0.0
 10
9.7702262583
 20
6.8264140482
 30
0.0
 10
9.7547616684
 20
6.8220583831
 30
0.0
 10
9.7382140694
 20
6.8178206048
 30
0.0
 10
9.7207452698
 20
6.8138375604
 30
0.0
 10
9.7024990628
 20
6.8102327926
 30
0.0
 10
9.6836080956
 20
6.8071167286
 30
0.0
 10
9.6642001075
 20
6.8045848949
 30
0.0
 10
9.6444012302
 20
6.8027163038
 30
0.0
 10
9.6243404485
 20
6.8015707277
 30
0.0
 10
9.6108891586
 20
6.8013131695
 30
0.0
 10
9.6041473437
 20
6.8013131547
 30
0.0
  0
SPLINE
  5
312
100
AcDbEntity
  8
0
100
AcDbSpline
 62
9
  6
CONTINUOUS
 70
0
 71
3
 72
43
 73
39
 74
0
 42
0.0000001
 43
0.0000001
 44
0.0000000001
 40
0.0
 40
0.0
 40
0.0
 40
0.0
 40
0.087248543
 40
0.1740601899
 40
0.2599791872
 40
0.3445542435
 40
0.42730387
 40
0.5077138603
 40
0.5852125623
 40
0.6591465161
 40
0.7287502571
 40
0.7616511327
 40
0.7931160517
 40
0.8230051043
 40
0.8511658936
 40
0.8774339053
 40
0.9016378506
 40
0.9236002079
 40
0.9431334397
 40
0.9519301334
 40
0.9600512028
 40
0.9674755043
 40
0.9741822243
 40
0.9801518241
 40
0.9853650525
 40
0.9898037614
 40
0.9934554231
 40
0.99498275
 40
0.9963092808
 40
0.9974337408
 40
0.9983553117
 40
0.9990733582
 40
0.9993558612
 40
0.999587245
 40
0.9997674302
 40
0.9998963373
 40
0.999973887
 40
1.0
 40
1.0
 40
1.0
 40
1.0
 10
9.6041473437
 20
6.8013131547
 30
0.0
 10
9.5974055246
 20
6.801313171
 30
0.0
 10
9.5839542373
 20
6.8015704936
 30
0.0
 10
9.563893472
 20
6.8027162651
 30
0.0
 10
9.5440946183
 20
6.8045849001
 30
0.0
 10
9.5246866289
 20
6.8071166627
 30
0.0
 10
9.5057956797
 20
6.810232802
 30
0.0
 10
9.4875494789
 20
6.8138375421
 30
0.0
 10
9.4700806788
 20
6.8178206153
 30
0.0
 10
9.453533122
 20
6.8220583759
 30
0.0
 10
9.4404088675
 20
6.8257549014
 30
0.0
 10
9.4304909762
 20
6.828721816
 30
0.0
 10
9.4235341165
 20
6.8308779478
 30
0.0
 10
9.4169461557
 20
6.8329860146
 30
0.0
 10
9.4107576906
 20
6.8350240931
 30
0.0
 10
9.4050014535
 20
6.8369695933
 30
0.0
 10
9.3997117463
 20
6.838799078
 30
0.0
 10
9.3949242438
 20
6.8404881477
 30
0.0
 10
9.3912666916
 20
6.8418014155
 30
0.0
 10
9.3886194051
 20
6.842763307
 30
0.0
 10
9.3868529814
 20
6.8434096126
 30
0.0
 10
9.3852394041
 20
6.8440036518
 30
0.0
 10
9.3837827509
 20
6.8445427295
 30
0.0
 10
9.3824870981
 20
6.8450245794
 30
0.0
 10
9.3813563307
 20
6.845447016
 30
0.0
 10
9.3803938219
 20
6.8458080379
 30
0.0
 10
9.3796982862
 20
6.8460698329
 30
0.0
 10
9.3792279378
 20
6.846247232
 30
0.0
 10
9.3789403381
 20
6.8463558017
 30
0.0
 10
9.3786965392
 20
6.8464478673
 30
0.0
 10
9.378496726
 20
6.8465233154
 30
0.0
 10
9.3783577881
 20
6.8465758195
 30
0.0
 10
9.3782687246
 20
6.8466094156
 30
0.0
 10
9.3782185737
 20
6.8466284462
 30
0.0
 10
9.3781794464
 20
6.8466429893
 30
0.0
 10
9.3781516242
 20
6.8466540193
 30
0.0
 10
9.3781345833
 20
6.8466595208
 30
0.0
 10
9.3781273228
 20
6.8466632197
 30
0.0
 10
9.3781253341
 20
6.8466635611
 30
0.0
  0
SPLINE
  5
313
100
AcDbEntity
  8
0
100
AcDbSpline
 62
9
  6
CONTINUOUS
 70
0
 71
3
 72
13
 73
9
 74
0
 42
0.0000001
 43
0.0000001
 44
0.0000000001
 40
0.0
 40
0.0
 40
0.0
 40
0.0
 40
0.2563925617
 40
0.5114227965
 40
0.6370552231
 40
0.7605472635
 40
0.8816440218
 40
1.0
 40
1.0
 40
1.0
 40
1.0
 10
12.4044842961
 20
4.6799690761
 30
0.0
 10
12.4043584159
 20
4.6780474166
 30
0.0
 10
12.4036205556
 20
4.6742309932
 30
0.0
 10
12.4015635569
 20
4.6698521905
 30
0.0
 10
12.3993223654
 20
4.666788364
 30
0.0
 10
12.39739238
 20
4.6647741166
 30
0.0
 10
12.3952470878
 20
4.6630784729
 30
0.0
 10
12.3936847613
 20
4.6621720355
 30
0.0
 10
12.3928841086
 20
4.6617857234
 30
0.0
  0
SPLINE
  5
314
100
AcDbEntity
  8
0
100
AcDbSpline
 62
9
  6
CONTINUOUS
 70
0
 71
3
 72
16
 73
12
 74
0
 42
0.0000001
 43
0.0000001
 44
0.0000000001
 40
0.0
 40
0.0
 40
0.0
 40
0.0
 40
0.0923132783
 40
0.1800043243
 40
0.2719238239
 40
0.3760445599
 40
0.4346047283
 40
0.4981466178
 40
0.6415770437
 40
0.8084956013
 40
1.0
 40
1.0
 40
1.0
 40
1.0
 10
10.8665023828
 20
7.4361611621
 30
0.0
 10
10.8664977404
 20
7.4362721393
 30
0.0
 10
10.8665157146
 20
7.4364917126
 30
0.0
 10
10.8666483508
 20
7.4367974415
 30
0.0
 10
10.8668828947
 20
7.4370528957
 30
0.0
 10
10.8671455928
 20
7.4372160027
 30
0.0
 10
10.8673951922
 20
7.4373250855
 30
0.0
 10
10.8676982472
 20
7.4374274596
 30
0.0
 10
10.8681392766
 20
7.4375227538
 30
0.0
 10
10.8687403049
 20
7.4375878716
 30
0.0
 10
10.8691718157
 20
7.4376002838
 30
0.0
 10
10.8694022399
 20
7.4376002844
 30
0.0
  0
SPLINE
  5
315
100
AcDbEntity
  8
0
100
AcDbSpline
 62
9
  6
CONTINUOUS
 70
0
 71
3
 72
23
 73
19
 74
0
 42
0.0000001
 43
0.0000001
 44
0.0000000001
 40
0.0
 40
0.0
 40
0.0
 40
0.0
 40
0.0626149388
 40
0.1251838917
 40
0.1877132962
 40
0.2502068459
 40
0.3126745353
 40
0.3751253583
 40
0.4375654404
 40
0.5000000004
 40
0.5624345604
 40
0.6248746422
 40
0.6873254643
 40
0.7497931528
 40
0.8122867025
 40
0.8748161077
 40
0.9373850611
 40
1.0
 40
1.0
 40
1.0
 40
1.0
 10
11.5113722569
 20
7.6573202806
 30
0.0
 10
11.5022069706
 20
7.6588663236
 30
0.0
 10
11.4838430454
 20
7.6617242102
 30
0.0
 10
11.4562123077
 20
7.6653464927
 30
0.0
 10
11.4285248343
 20
7.6683417119
 30
0.0
 10
11.400795334
 20
7.6707480452
 30
0.0
 10
11.3730342611
 20
7.6725872776
 30
0.0
 10
11.3452505697
 20
7.6738815077
 30
0.0
 10
11.3174525381
 20
7.6746553797
 30
0.0
 10
11.2896473435
 20
7.6749138441
 30
0.0
 10
11.2618421491
 20
7.6746553686
 30
0.0
 10
11.2340441179
 20
7.6738814895
 30
0.0
 10
11.2062604269
 20
7.672587258
 30
0.0
 10
11.1784993542
 20
7.670748028
 30
0.0
 10
11.1507698534
 20
7.6683417002
 30
0.0
 10
11.1230823792
 20
7.6653464873
 30
0.0
 10
11.0954516406
 20
7.6617242092
 30
0.0
 10
11.0770877152
 20
7.6588663237
 30
0.0
 10
11.0679224289
 20
7.6573202806
 30
0.0
  0
SPLINE
  5
316
100
AcDbEntity
  8
0
100
AcDbSpline
 62
9
  6
CONTINUOUS
 70
0
 71
3
 72
23
 73
19
 74
0
 42
0.0000001
 43
0.0000001
 44
0.0000000001
 40
0.0
 40
0.0
 40
0.0
 40
0.0
 40
0.0626149389
 40
0.1251838922
 40
0.1877132973
 40
0.2502068471
 40
0.3126745362
 40
0.3751253591
 40
0.4375654415
 40
0.5000000018
 40
0.5624345617
 40
0.6248746432
 40
0.6873254652
 40
0.7497931538
 40
0.8122867031
 40
0.8748161078
 40
0.937385061
 40
1.0
 40
1.0
 40
1.0
 40
1.0
 10
11.0679224289
 20
7.4540068415
 30
0.0
 10
11.0770877153
 20
7.4524607986
 30
0.0
 10
11.0954516405
 20
7.4496029125
 30
0.0
 10
11.1230823787
 20
7.4459806321
 30
0.0
 10
11.1507698527
 20
7.4429854168
 30
0.0
 10
11.1784993535
 20
7.4405790885
 30
0.0
 10
11.2062604265
 20
7.4387398598
 30
0.0
 10
11.2340441179
 20
7.4374456311
 30
0.0
 10
11.2618421494
 20
7.4366717555
 30
0.0
 10
11.2896473439
 20
7.4364132826
 30
0.0
 10
11.3174525384
 20
7.4366717492
 30
0.0
 10
11.3452505697
 20
7.4374456231
 30
0.0
 10
11.3730342606
 20
7.438739853
 30
0.0
 10
11.4007953333
 20
7.4405790838
 30
0.0
 10
11.4285248337
 20
7.4429854144
 30
0.0
 10
11.4562123073
 20
7.4459806309
 30
0.0
 10
11.4838430454
 20
7.4496029118
 30
0.0
 10
11.5022069706
 20
7.4524607983
 30
0.0
 10
11.5113722569
 20
7.4540068415
 30
0.0
  0
SPLINE
  5
317
100
AcDbEntity
  8
0
100
AcDbSpline
 62
9
  6
CONTINUOUS
 70
0
 71
3
 72
13
 73
9
 74
0
 42
0.0000001
 43
0.0000001
 44
0.0000000001
 40
0.0
 40
0.0
 40
0.0
 40
0.0
 40
0.0792681111
 40
0.171763057
 40
0.2775025621
 40
0.3964134718
 40
0.6731259797
 40
1.0
 40
1.0
 40
1.0
 40
1.0
 10
10.7701778846
 20
4.6630303075
 30
0.0
 10
10.7703592551
 20
4.6630303071
 30
0.0
 10
10.7707522702
 20
4.6630138607
 30
0.0
 10
10.7713844345
 20
4.6629525037
 30
0.0
 10
10.7721033255
 20
4.6628524247
 30
0.0
 10
10.773233911
 20
4.6626572975
 30
0.0
 10
10.7748509558
 20
4.6623110134
 30
0.0
 10
10.776190882
 20
4.6619757965
 30
0.0
 10
10.7769142351
 20
4.6617857234
 30
0.0
  0
SPLINE
  5
318
100
AcDbEntity
  8
0
100
AcDbSpline
 62
9
  6
CONTINUOUS
 70
0
 71
3
 72
11
 73
7
 74
0
 42
0.0000001
 43
0.0000001
 44
0.0000000001
 40
0.0
 40
0.0
 40
0.0
 40
0.0
 40
0.2334837255
 40
0.4786925288
 40
0.7346658843
 40
1.0
 40
1.0
 40
1.0
 40
1.0
 10
9.773888322
 20
7.1585742547
 30
0.0
 10
9.773348914
 20
7.1574507406
 30
0.0
 10
9.7721111701
 20
7.1552089184
 30
0.0
 10
9.7698801189
 20
7.1519771477
 30
0.0
 10
9.7672553691
 20
7.148831811
 30
0.0
 10
9.7652969507
 20
7.146849992
 30
0.0
 10
9.7642630063
 20
7.1458820685
 30
0.0
  0
SPLINE
  5
319
100
AcDbEntity
  8
0
100
AcDbSpline
 62
9
  6
CONTINUOUS
 70
0
 71
3
 72
17
 73
13
 74
0
 42
0.0000001
 43
0.0000001
 44
0.0000000001
 40
0.0
 40
0.0
 40
0.0
 40
0.0
 40
0.1334238971
 40
0.2651978983
 40
0.3946031625
 40
0.5211350994
 40
0.6445980066
 40
0.7651382173
 40
0.8245134284
 40
0.8833749698
 40
0.9418445322
 40
1.0
 40
1.0
 40
1.0
 40
1.0
 10
9.8397062527
 20
8.9963052307
 30
0.0
 10
9.839792712
 20
8.9985316392
 30
0.0
 10
9.8396429008
 20
9.0029765478
 30
0.0
 10
9.8384456298
 20
9.0094806299
 30
0.0
 10
9.8363089693
 20
9.01562052
 30
0.0
 10
9.8332891222
 20
9.021222475
 30
0.0
 10
9.8294689161
 20
9.0261276511
 30
0.0
 10
9.8256808436
 20
9.0295371047
 30
0.0
 10
9.8223723298
 20
9.0317713842
 30
0.0
 10
9.8197788669
 20
9.0331887903
 30
0.0
 10
9.8170811019
 20
9.0343441104
 30
0.0
 10
9.8152219132
 20
9.034936126
 30
0.0
 10
9.8142832679
 20
9.0351853027
 30
0.0
  0
SPLINE
  5
31A
100
AcDbEntity
  8
0
100
AcDbSpline
 62
9
  6
CONTINUOUS
 70
0
 71
3
 72
17
 73
13
 74
0
 42
0.0000001
 43
0.0000001
 44
0.0000000001
 40
0.0
 40
0.0
 40
0.0
 40
0.0
 40
0.130623446
 40
0.1959626372
 40
0.2611319407
 40
0.3904509793
 40
0.5178500789
 40
0.5806743031
 40
0.6428040123
 40
0.764746639
 40
0.8837136426
 40
1.0
 40
1.0
 40
1.0
 40
1.0
 10
9.773888322
 20
8.9963052307
 30
0.0
 10
9.7738013726
 20
8.9985442578
 30
0.0
 10
9.7734246777
 20
9.0019003349
 30
0.0
 10
9.7724436473
 20
9.0062739308
 30
0.0
 10
9.7711533213
 20
9.0105438906
 30
0.0
 10
9.7689792738
 20
9.0156426321
 30
0.0
 10
9.7660874171
 20
9.0203260685
 30
0.0
 10
9.7633956157
 20
9.0237214604
 30
0.0
 10
9.7605067581
 20
9.0268235846
 30
0.0
 10
9.7565096053
 20
9.0301881355
 30
0.0
 10
9.7511939478
 20
9.0332940514
 30
0.0
 10
9.747376179
 20
9.034683166
 30
0.0
 10
9.7454456373
 20
9.0351853027
 30
0.0
  0
SPLINE
  5
31B
100
AcDbEntity
  8
0
100
AcDbSpline
 62
9
  6
CONTINUOUS
 70
0
 71
3
 72
11
 73
7
 74
0
 42
0.0000001
 43
0.0000001
 44
0.0000000001
 40
0.0
 40
0.0
 40
0.0
 40
0.0
 40
0.2334842149
 40
0.4786931264
 40
0.7346662882
 40
1.0
 40
1.0
 40
1.0
 40
1.0
 10
9.4344063637
 20
7.1585742546
 30
0.0
 10
9.4349457678
 20
7.1574507354
 30
0.0
 10
9.4361835057
 20
7.1552089051
 30
0.0
 10
9.4384145543
 20
7.1519771283
 30
0.0
 10
9.4410393067
 20
7.1488317953
 30
0.0
 10
9.4429977313
 20
7.1468499854
 30
0.0
 10
9.4440316794
 20
7.1458820685
 30
0.0
  0
SPLINE
  5
31C
100
AcDbEntity
  8
0
100
AcDbSpline
 62
9
  6
CONTINUOUS
 70
0
 71
3
 72
11
 73
7
 74
0
 42
0.0000001
 43
0.0000001
 44
0.0000000001
 40
0.0
 40
0.0
 40
0.0
 40
0.0
 40
0.2705131246
 40
0.5265108968
 40
0.7690074357
 40
1.0
 40
1.0
 40
1.0
 40
1.0
 10
9.8397062526
 20
7.1585742546
 30
0.0
 10
9.8402176774
 20
7.1575090135
 30
0.0
 10
9.8411022504
 20
7.1553794708
 30
0.0
 10
9.8420015513
 20
7.1521331463
 30
0.0
 10
9.8424219132
 20
7.1489636907
 30
0.0
 10
9.8423764257
 20
7.14688525
 30
0.0
 10
9.8422680732
 20
7.1458820685
 30
0.0
  0
SPLINE
  5
31D
100
AcDbEntity
  8
0
100
AcDbSpline
 62
9
  6
CONTINUOUS
 70
0
 71
3
 72
15
 73
11
 74
0
 42
0.0000001
 43
0.0000001
 44
0.0000000001
 40
0.0
 40
0.0
 40
0.0
 40
0.0
 40
0.1266959089
 40
0.2521264744
 40
0.3766975148
 40
0.5007912725
 40
0.6247777703
 40
0.7490341068
 40
0.8739627102
 40
1.0
 40
1.0
 40
1.0
 40
1.0
 10
10.7769142351
 20
4.6617857234
 30
0.0
 10
10.7884132621
 20
4.6587641539
 30
0.0
 10
10.8115022232
 20
4.6535053178
 30
0.0
 10
10.8464305235
 20
4.6479122404
 30
0.0
 10
10.8814025848
 20
4.6445873469
 30
0.0
 10
10.9163785867
 20
4.6434837972
 30
0.0
 10
10.9513251604
 20
4.6445854713
 30
0.0
 10
10.9862104551
 20
4.6479088776
 30
0.0
 10
11.0209989317
 20
4.6535011667
 30
0.0
 10
11.0439758549
 20
4.6587626825
 30
0.0
 10
11.0554105772
 20
4.6617857234
 30
0.0
  0
SPLINE
  5
31E
100
AcDbEntity
  8
0
100
AcDbSpline
 62
9
  6
CONTINUOUS
 70
0
 71
3
 72
11
 73
7
 74
0
 42
0.0000001
 43
0.0000001
 44
0.0000000001
 40
0.0
 40
0.0
 40
0.0
 40
0.0
 40
0.2153190323
 40
0.4540964497
 40
0.7159652049
 40
1.0
 40
1.0
 40
1.0
 40
1.0
 10
11.0554105772
 20
4.6617857234
 30
0.0
 10
11.0562270837
 20
4.662001585
 30
0.0
 10
11.057971366
 20
4.6623739988
 30
0.0
 10
11.0607555656
 20
4.6627553099
 30
0.0
 10
11.0638265557
 20
4.6629836056
 30
0.0
 10
11.06596824
 20
4.6630303064
 30
0.0
 10
11.0670823264
 20
4.6630303075
 30
0.0
  0
SPLINE
  5
31F
100
AcDbEntity
  8
0
100
AcDbSpline
 62
9
  6
CONTINUOUS
 70
0
 71
3
 72
9
 73
5
 74
0
 42
0.0000001
 43
0.0000001
 44
0.0000000001
 40
0.0
 40
0.0
 40
0.0
 40
0.0
 40
0.4939744786
 40
1.0
 40
1.0
 40
1.0
 40
1.0
 10
11.4272429011
 20
4.6630303075
 30
0.0
 10
11.430282478
 20
4.663030306
 30
0.0
 10
11.4364371791
 20
4.6628094937
 30
0.0
 10
11.4425639607
 20
4.6621925436
 30
0.0
 10
11.4456510007
 20
4.6617857234
 30
0.0
  0
SPLINE
  5
320
100
AcDbEntity
  8
0
100
AcDbSpline
 62
9
  6
CONTINUOUS
 70
0
 71
3
 72
23
 73
19
 74
0
 42
0.0000001
 43
0.0000001
 44
0.0000000001
 40
0.0
 40
0.0
 40
0.0
 40
0.0
 40
0.0626149389
 40
0.125183892
 40
0.1877132967
 40
0.2502068464
 40
0.3126745356
 40
0.3751253585
 40
0.4375654408
 40
0.5000000009
 40
0.5624345609
 40
0.6248746426
 40
0.6873254646
 40
0.7497931531
 40
0.8122867026
 40
0.8748161077
 40
0.937385061
 40
1.0
 40
1.0
 40
1.0
 40
1.0
 10
12.3803722569
 20
7.6573202806
 30
0.0
 10
12.3712069706
 20
7.6588663236
 30
0.0
 10
12.3528430454
 20
7.6617242101
 30
0.0
 10
12.3252123075
 20
7.6653464919
 30
0.0
 10
12.2975248339
 20
7.6683417096
 30
0.0
 10
12.2697953334
 20
7.6707480406
 30
0.0
 10
12.2420342605
 20
7.6725872711
 30
0.0
 10
12.2142505691
 20
7.6738815001
 30
0.0
 10
12.1864525375
 20
7.6746553728
 30
0.0
 10
12.158647343
 20
7.6749138398
 30
0.0
 10
12.1308421486
 20
7.6746553673
 30
0.0
 10
12.1030441174
 20
7.6738814904
 30
0.0
 10
12.0752604264
 20
7.6725872602
 30
0.0
 10
12.0474993536
 20
7.6707480308
 30
0.0
 10
12.019769853
 20
7.6683417027
 30
0.0
 10
11.9920823789
 20
7.6653464888
 30
0.0
 10
11.9644516405
 20
7.6617242097
 30
0.0
 10
11.9460877152
 20
7.6588663238
 30
0.0
 10
11.9369224289
 20
7.6573202806
 30
0.0
  0
SPLINE
  5
321
100
AcDbEntity
  8
0
100
AcDbSpline
 62
9
  6
CONTINUOUS
 70
0
 71
3
 72
23
 73
19
 74
0
 42
0.0000001
 43
0.0000001
 44
0.0000000001
 40
0.0
 40
0.0
 40
0.0
 40
0.0
 40
0.0626149389
 40
0.1251838921
 40
0.1877132971
 40
0.2502068468
 40
0.312674536
 40
0.3751253588
 40
0.4375654412
 40
0.5000000014
 40
0.5624345613
 40
0.6248746429
 40
0.6873254649
 40
0.7497931534
 40
0.8122867028
 40
0.8748161077
 40
0.937385061
 40
1.0
 40
1.0
 40
1.0
 40
1.0
 10
11.9369224289
 20
7.4540068415
 30
0.0
 10
11.9460877152
 20
7.4524607986
 30
0.0
 10
11.9644516405
 20
7.4496029123
 30
0.0
 10
11.9920823785
 20
7.4459806312
 30
0.0
 10
12.0197698523
 20
7.4429854149
 30
0.0
 10
12.047499353
 20
7.4405790856
 30
0.0
 10
12.075260426
 20
7.4387398564
 30
0.0
 10
12.1030441173
 20
7.4374456278
 30
0.0
 10
12.1308421489
 20
7.4366717538
 30
0.0
 10
12.1586473434
 20
7.4364132838
 30
0.0
 10
12.1864525378
 20
7.4366717531
 30
0.0
 10
12.2142505691
 20
7.4374456282
 30
0.0
 10
12.2420342601
 20
7.438739858
 30
0.0
 10
12.2697953327
 20
7.4405790877
 30
0.0
 10
12.2975248333
 20
7.4429854168
 30
0.0
 10
12.3252123071
 20
7.445980632
 30
0.0
 10
12.3528430453
 20
7.4496029121
 30
0.0
 10
12.3712069706
 20
7.4524607983
 30
0.0
 10
12.3803722569
 20
7.4540068415
 30
0.0
  0
SPLINE
  5
322
100
AcDbEntity
  8
0
100
AcDbSpline
 62
9
  6
CONTINUOUS
 70
0
 71
3
 72
11
 73
7
 74
0
 42
0.0000001
 43
0.0000001
 44
0.0000000001
 40
0.0
 40
0.0
 40
0.0
 40
0.0
 40
0.2705122572
 40
0.5265096061
 40
0.7690063666
 40
1.0
 40
1.0
 40
1.0
 40
1.0
 10
9.3685884331
 20
7.1585742547
 30
0.0
 10
9.3680770049
 20
7.1575090189
 30
0.0
 10
9.3671924266
 20
7.1553794835
 30
0.0
 10
9.3662931227
 20
7.1521331631
 30
0.0
 10
9.3658727633
 20
7.1489637019
 30
0.0
 10
9.3659182568
 20
7.1468852548
 30
0.0
 10
9.3660266126
 20
7.1458820685
 30
0.0
  0
SPLINE
  5
323
100
AcDbEntity
  8
0
100
AcDbSpline
 62
9
  6
CONTINUOUS
 70
0
 71
3
 72
17
 73
13
 74
0
 42
0.0000001
 43
0.0000001
 44
0.0000000001
 40
0.0
 40
0.0
 40
0.0
 40
0.0
 40
0.1306234448
 40
0.1959626351
 40
0.2611319375
 40
0.3904509739
 40
0.5178500717
 40
0.5806742954
 40
0.6428040043
 40
0.7647466318
 40
0.883713638
 40
1.0
 40
1.0
 40
1.0
 40
1.0
 10
9.4344063638
 20
8.9963052307
 30
0.0
 10
9.4344933131
 20
8.9985442578
 30
0.0
 10
9.4348700078
 20
9.0019003349
 30
0.0
 10
9.435851038
 20
9.0062739309
 30
0.0
 10
9.4371413638
 20
9.0105438907
 30
0.0
 10
9.4393154112
 20
9.0156426323
 30
0.0
 10
9.4422072679
 20
9.0203260687
 30
0.0
 10
9.4448990693
 20
9.0237214605
 30
0.0
 10
9.4477879269
 20
9.0268235848
 30
0.0
 10
9.45178508
 20
9.0301881357
 30
0.0
 10
9.4571007377
 20
9.0332940515
 30
0.0
 10
9.4609185067
 20
9.034683166
 30
0.0
 10
9.4628490485
 20
9.0351853027
 30
0.0
  0
SPLINE
  5
324
100
AcDbEntity
  8
0
100
AcDbSpline
 62
9
  6
CONTINUOUS
 70
0
 71
3
 72
15
 73
11
 74
0
 42
0.0000001
 43
0.0000001
 44
0.0000000001
 40
0.0
 40
0.0
 40
0.0
 40
0.0
 40
0.1245543347
 40
0.2492102951
 40
0.3739226113
 40
0.4987893443
 40
0.6238234447
 40
0.7490243957
 40
0.8744522108
 40
1.0
 40
1.0
 40
1.0
 40
1.0
 10
10.8551473429
 20
7.6573202806
 30
0.0
 10
10.8551473429
 20
7.6582460905
 30
0.0
 10
10.855279354
 20
7.6601011295
 30
0.0
 10
10.8558684015
 20
7.6628264529
 30
0.0
 10
10.8568378801
 20
7.6654437815
 30
0.0
 10
10.8581677244
 20
7.6679007231
 30
0.0
 10
10.8598323152
 20
7.6701488969
 30
0.0
 10
10.861798541
 20
7.6721446333
 30
0.0
 10
10.8640272968
 20
7.6738475118
 30
0.0
 10
10.8656592231
 20
7.6747660438
 30
0.0
 10
10.8665023828
 20
7.6751659601
 30
0.0
  0
SPLINE
  5
325
100
AcDbEntity
  8
0
100
AcDbSpline
 62
9
  6
CONTINUOUS
 70
0
 71
3
 72
15
 73
11
 74
0
 42
0.0000001
 43
0.0000001
 44
0.0000000001
 40
0.0
 40
0.0
 40
0.0
 40
0.0
 40
0.1409194085
 40
0.2810422313
 40
0.41819777
 40
0.5504920028
 40
0.6761243077
 40
0.7935755488
 40
0.9017620122
 40
1.0
 40
1.0
 40
1.0
 40
1.0
 10
11.5113722569
 20
7.6573202806
 30
0.0
 10
11.5114896778
 20
7.6582484101
 30
0.0
 10
11.5117886032
 20
7.6600918654
 30
0.0
 10
11.5124217808
 20
7.6627972187
 30
0.0
 10
11.5132288979
 20
7.6653962605
 30
0.0
 10
11.5141936659
 20
7.6678381113
 30
0.0
 10
11.515297747
 20
7.6700756476
 30
0.0
 10
11.5165198498
 20
7.6720663835
 30
0.0
 10
11.5178367765
 20
7.6737715169
 30
0.0
 10
11.5188098323
 20
7.6747444559
 30
0.0
 10
11.5193074954
 20
7.6751659601
 30
0.0
  0
SPLINE
  5
326
100
AcDbEntity
  8
0
100
AcDbSpline
 62
9
  6
CONTINUOUS
 70
0
 71
3
 72
15
 73
11
 74
0
 42
0.0000001
 43
0.0000001
 44
0.0000000001
 40
0.0
 40
0.0
 40
0.0
 40
0.0
 40
0.1491064919
 40
0.2947593523
 40
0.4347814409
 40
0.5673904353
 40
0.691018474
 40
0.8045405696
 40
0.9074687456
 40
1.0
 40
1.0
 40
1.0
 40
1.0
 10
12.3803722569
 20
7.6573202806
 30
0.0
 10
12.3804886437
 20
7.6582402362
 30
0.0
 10
12.3806558362
 20
7.6600674905
 30
0.0
 10
12.3807089718
 20
7.6627732034
 30
0.0
 10
12.3805613201
 20
7.6653730742
 30
0.0
 10
12.3802162309
 20
7.6678163779
 30
0.0
 10
12.3796799306
 20
7.6700564886
 30
0.0
 10
12.3789622972
 20
7.6720515745
 30
0.0
 10
12.3780758157
 20
7.6737633396
 30
0.0
 10
12.3773438132
 20
7.6747440825
 30
0.0
 10
12.3769524555
 20
7.6751659601
 30
0.0
  0
SPLINE
  5
327
100
AcDbEntity
  8
0
100
AcDbSpline
 62
9
  6
CONTINUOUS
 70
0
 71
3
 72
15
 73
11
 74
0
 42
0.0000001
 43
0.0000001
 44
0.0000000001
 40
0.0
 40
0.0
 40
0.0
 40
0.0
 40
0.1245543347
 40
0.2492102953
 40
0.3739226115
 40
0.4987893445
 40
0.6238234449
 40
0.7490243958
 40
0.8744522109
 40
1.0
 40
1.0
 40
1.0
 40
1.0
 10
12.5931473429
 20
7.4540068415
 30
0.0
 10
12.5931473429
 20
7.4530810316
 30
0.0
 10
12.5930153318
 20
7.4512259926
 30
0.0
 10
12.5924262842
 20
7.4485006693
 30
0.0
 10
12.5914568057
 20
7.4458833407
 30
0.0
 10
12.5901269614
 20
7.443426399
 30
0.0
 10
12.5884623706
 20
7.4411782252
 30
0.0
 10
12.5864961448
 20
7.4391824888
 30
0.0
 10
12.584267389
 20
7.4374796104
 30
0.0
 10
12.5826354627
 20
7.4365610783
 30
0.0
 10
12.5817923029
 20
7.4361611621
 30
0.0
  0
SPLINE
  5
328
100
AcDbEntity
  8
0
100
AcDbSpline
 62
9
  6
CONTINUOUS
 70
0
 71
3
 72
15
 73
11
 74
0
 42
0.0000001
 43
0.0000001
 44
0.0000000001
 40
0.0
 40
0.0
 40
0.0
 40
0.0
 40
0.1409194084
 40
0.2810422311
 40
0.4181977697
 40
0.5504920023
 40
0.6761243071
 40
0.7935755482
 40
0.9017620118
 40
1.0
 40
1.0
 40
1.0
 40
1.0
 10
11.9369224289
 20
7.4540068415
 30
0.0
 10
11.936805008
 20
7.4530787121
 30
0.0
 10
11.9365060826
 20
7.4512352567
 30
0.0
 10
11.935872905
 20
7.4485299035
 30
0.0
 10
11.9350657879
 20
7.4459308616
 30
0.0
 10
11.9341010199
 20
7.4434890109
 30
0.0
 10
11.9329969389
 20
7.4412514745
 30
0.0
 10
11.931774836
 20
7.4392607386
 30
0.0
 10
11.9304579093
 20
7.4375556052
 30
0.0
 10
11.9294848535
 20
7.4365826663
 30
0.0
 10
11.9289871904
 20
7.4361611621
 30
0.0
  0
SPLINE
  5
329
100
AcDbEntity
  8
0
100
AcDbSpline
 62
9
  6
CONTINUOUS
 70
0
 71
3
 72
15
 73
11
 74
0
 42
0.0000001
 43
0.0000001
 44
0.0000000001
 40
0.0
 40
0.0
 40
0.0
 40
0.0
 40
0.1491064921
 40
0.2947593526
 40
0.4347814414
 40
0.567390436
 40
0.6910184748
 40
0.8045405704
 40
0.9074687462
 40
1.0
 40
1.0
 40
1.0
 40
1.0
 10
11.0679224289
 20
7.4540068415
 30
0.0
 10
11.0678060421
 20
7.4530868859
 30
0.0
 10
11.0676388497
 20
7.4512596317
 30
0.0
 10
11.0675857141
 20
7.4485539187
 30
0.0
 10
11.0677333657
 20
7.4459540479
 30
0.0
 10
11.0680784549
 20
7.4435107443
 30
0.0
 10
11.0686147553
 20
7.4412706336
 30
0.0
 10
11.0693323887
 20
7.4392755476
 30
0.0
 10
11.0702188701
 20
7.4375637825
 30
0.0
 10
11.0709508726
 20
7.4365830397
 30
0.0
 10
11.0713422303
 20
7.4361611621
 30
0.0
  0
SPLINE
  5
32A
100
AcDbEntity
  8
0
100
AcDbSpline
 62
9
  6
CONTINUOUS
 70
0
 71
3
 72
17
 73
13
 74
0
 42
0.0000001
 43
0.0000001
 44
0.0000000001
 40
0.0
 40
0.0
 40
0.0
 40
0.0
 40
0.1334238847
 40
0.2651978717
 40
0.3946031231
 40
0.5211350515
 40
0.6445979573
 40
0.7651381753
 40
0.8245133936
 40
0.8833749445
 40
0.9418445186
 40
1.0
 40
1.0
 40
1.0
 40
1.0
 10
9.3685884331
 20
8.9963052307
 30
0.0
 10
9.3685019732
 20
8.998531639
 30
0.0
 10
9.3686517833
 20
9.0029765475
 30
0.0
 10
9.3698490531
 20
9.0094806295
 30
0.0
 10
9.3719857129
 20
9.0156205195
 30
0.0
 10
9.3750055598
 20
9.0212224746
 30
0.0
 10
9.3788257662
 20
9.0261276507
 30
0.0
 10
9.3826138394
 20
9.0295371043
 30
0.0
 10
9.3859223539
 20
9.0317713839
 30
0.0
 10
9.3885158174
 20
9.0331887901
 30
0.0
 10
9.3912135831
 20
9.0343441103
 30
0.0
 10
9.3930727724
 20
9.034936126
 30
0.0
 10
9.3940114179
 20
9.0351853027
 30
0.0
  0
SPLINE
  5
32B
100
AcDbEntity
  8
0
100
AcDbSpline
 62
9
  6
CONTINUOUS
 70
0
 71
3
 72
30
 73
26
 74
0
 42
0.0000001
 43
0.0000001
 44
0.0000000001
 40
0.0
 40
0.0
 40
0.0
 40
0.0
 40
0.0731487478
 40
0.1461041099
 40
0.2185720198
 40
0.290246251
 40
0.325671032
 40
0.3607528859
 40
0.395441097
 40
0.4296860285
 40
0.4634336874
 40
0.4966353398
 40
0.5612524324
 40
0.5926275306
 40
0.6233473474
 40
0.6534124561
 40
0.6828399119
 40
0.7116452013
 40
0.7398487437
 40
0.767494013
 40
0.7946316573
 40
0.8475826318
 40
0.8991574623
 40
0.9498246053
 40
1.0
 40
1.0
 40
1.0
 40
1.0
 10
9.6699652736
 20
7.1585742547
 30
0.0
 10
9.672311576
 20
7.1600782453
 30
0.0
 10
9.6770746551
 20
7.1629647598
 30
0.0
 10
9.6844210182
 20
7.1668952032
 30
0.0
 10
9.6919315026
 20
7.1703720259
 30
0.0
 10
9.698313602
 20
7.1728520727
 30
0.0
 10
9.7034598957
 20
7.1745465726
 30
0.0
 10
9.7073111511
 20
7.1756595954
 30
0.0
 10
9.7111579521
 20
7.1766160115
 30
0.0
 10
9.7149892666
 20
7.1774120135
 30
0.0
 10
9.7187946334
 20
7.1780396977
 30
0.0
 10
9.7237736033
 20
7.1786314133
 30
0.0
 10
9.7286989782
 20
7.1788667794
 30
0.0
 10
9.7335268212
 20
7.1787553528
 30
0.0
 10
9.7370302823
 20
7.1784958329
 30
0.0
 10
9.7404402193
 20
7.1780501544
 30
0.0
 10
9.7437473184
 20
7.177423482
 30
0.0
 10
9.746945014
 20
7.176628895
 30
0.0
 10
9.7500278491
 20
7.1756749572
 30
0.0
 10
9.7529901596
 20
7.1745640454
 30
0.0
 10
9.7567405424
 20
7.172890726
 30
0.0
 10
9.761128853
 20
7.1704330647
 30
0.0
 10
9.7659173035
 20
7.1669413277
 30
0.0
 10
9.770190435
 20
7.1629912793
 30
0.0
 10
9.7727125531
 20
7.1600815926
 30
0.0
 10
9.773888322
 20
7.1585742547
 30
0.0
  0
SPLINE
  5
32C
100
AcDbEntity
  8
0
100
AcDbSpline
 62
9
  6
CONTINUOUS
 70
0
 71
3
 72
17
 73
13
 74
0
 42
0.0000001
 43
0.0000001
 44
0.0000000001
 40
0.0
 40
0.0
 40
0.0
 40
0.0
 40
0.0400063666
 40
0.0840873365
 40
0.1320524478
 40
0.1837112753
 40
0.2972493845
 40
0.4227990415
 40
0.5582279734
 40
0.7012211093
 40
0.8493213281
 40
1.0
 40
1.0
 40
1.0
 40
1.0
 10
9.773888322
 20
8.9963052307
 30
0.0
 10
9.7725087991
 20
8.9961624468
 30
0.0
 10
9.7696056065
 20
8.9958971291
 30
0.0
 10
9.7650396293
 20
8.995565144
 30
0.0
 10
9.7600657358
 20
8.9952815792
 30
0.0
 10
9.7526829237
 20
8.9949598145
 30
0.0
 10
9.7426061863
 20
8.9947004414
 30
0.0
 10
9.7296227004
 20
8.9946037501
 30
0.0
 10
9.7156182493
 20
8.9947164281
 30
0.0
 10
9.7008351334
 20
8.9950363454
 30
0.0
 10
9.6855289011
 20
8.9955597858
 30
0.0
 10
9.6751818483
 20
8.9960354375
 30
0.0
 10
9.6699652736
 20
8.9963052307
 30
0.0
  0
LINE
  5
32D
100
AcDbEntity
  8
0
100
AcDbLine
 62
9
  6
CONTINUOUS
 10
9.8397062527
 20
7.1585742547
 11
9.8557832043
 21
7.1788099301
  0
SPLINE
  5
32E
100
AcDbEntity
  8
0
100
AcDbSpline
 62
9
  6
CONTINUOUS
 70
0
 71
3
 72
30
 73
26
 74
0
 42
0.0000001
 43
0.0000001
 44
0.0000000001
 40
0.0
 40
0.0
 40
0.0
 40
0.0
 40
0.0501768848
 40
0.1008466937
 40
0.1524235882
 40
0.2053747054
 40
0.2325147011
 40
0.2601633488
 40
0.2883689667
 40
0.3171746343
 40
0.3466026039
 40
0.3766690232
 40
0.407390135
 40
0.438766449
 40
0.5033865284
 40
0.5365892677
 40
0.5703385176
 40
0.6045856117
 40
0.6392754292
 40
0.6743580361
 40
0.7097836989
 40
0.7455051113
 40
0.7814715952
 40
0.8539427536
 40
1.0
 40
1.0
 40
1.0
 40
1.0
 10
9.4344063638
 20
7.1585742547
 30
0.0
 10
9.4355821379
 20
7.1600815559
 30
0.0
 10
9.4381043887
 20
7.1629911205
 30
0.0
 10
9.4423774067
 20
7.1669412236
 30
0.0
 10
9.4471656738
 20
7.1704332059
 30
0.0
 10
9.4515546504
 20
7.1728895656
 30
0.0
 10
9.4553048064
 20
7.1745634073
 30
0.0
 10
9.4582667045
 20
7.1756758472
 30
0.0
 10
9.4613492808
 20
7.1766309916
 30
0.0
 10
9.4645471484
 20
7.1774249113
 30
0.0
 10
9.4678545187
 20
7.17804983
 30
0.0
 10
9.4712645284
 20
7.1784945088
 30
0.0
 10
9.4747679333
 20
7.1787544728
 30
0.0
 10
9.4795957361
 20
7.1788671768
 30
0.0
 10
9.4845212284
 20
7.1786330461
 30
0.0
 10
9.4895000605
 20
7.1780399345
 30
0.0
 10
9.4933051541
 20
7.1774105047
 30
0.0
 10
9.4971363479
 20
7.1766138826
 30
0.0
 10
9.5009834545
 20
7.1756587288
 30
0.0
 10
9.5048350867
 20
7.1745472677
 30
0.0
 10
9.5086802214
 20
7.1732817084
 30
0.0
 10
9.5125099107
 20
7.1718699225
 30
0.0
 10
9.5175982278
 20
7.1698001839
 30
0.0
 10
9.52640153
 20
7.1657250492
 30
0.0
 10
9.5336447408
 20
7.1615772058
 30
0.0
 10
9.5383294122
 20
7.1585742547
 30
0.0
  0
SPLINE
  5
32F
100
AcDbEntity
  8
0
100
AcDbSpline
 62
9
  6
CONTINUOUS
 70
0
 71
3
 72
11
 73
7
 74
0
 42
0.0000001
 43
0.0000001
 44
0.0000000001
 40
0.0
 40
0.0
 40
0.0
 40
0.0
 40
0.2251512314
 40
0.4678906644
 40
0.726734788
 40
1.0
 40
1.0
 40
1.0
 40
1.0
 10
12.3998032312
 20
7.6559271662
 30
0.0
 10
12.3983403108
 20
7.6559271665
 30
0.0
 10
12.3953000014
 20
7.6559933008
 30
0.0
 10
12.390584954
 20
7.6562626118
 30
0.0
 10
12.3855690015
 20
7.6567031368
 30
0.0
 10
12.3821337597
 20
7.6570974494
 30
0.0
 10
12.3803722569
 20
7.6573202806
 30
0.0
  0
SPLINE
  5
330
100
AcDbEntity
  8
0
100
AcDbSpline
 62
9
  6
CONTINUOUS
 70
0
 71
3
 72
11
 73
7
 74
0
 42
0.0000001
 43
0.0000001
 44
0.0000000001
 40
0.0
 40
0.0
 40
0.0
 40
0.0
 40
0.2732652445
 40
0.5321093898
 40
0.7748487877
 40
1.0
 40
1.0
 40
1.0
 40
1.0
 10
12.3803722569
 20
7.4540068415
 30
0.0
 10
12.3821337591
 20
7.4542296791
 30
0.0
 10
12.3855690015
 20
7.4546239909
 30
0.0
 10
12.3905849547
 20
7.4550645094
 30
0.0
 10
12.3953000019
 20
7.4553338201
 30
0.0
 10
12.398340311
 20
7.4553999556
 30
0.0
 10
12.3998032312
 20
7.455399956
 30
0.0
  0
SPLINE
  5
331
100
AcDbEntity
  8
0
100
AcDbSpline
 62
9
  6
CONTINUOUS
 70
0
 71
3
 72
15
 73
11
 74
0
 42
0.0000001
 43
0.0000001
 44
0.0000000001
 40
0.0
 40
0.0
 40
0.0
 40
0.0
 40
0.0731351314
 40
0.1480709542
 40
0.2347790111
 40
0.3399878445
 40
0.467498871
 40
0.6194007349
 40
0.7967454978
 40
1.0
 40
1.0
 40
1.0
 40
1.0
 10
12.5931473429
 20
7.6573202806
 30
0.0
 10
12.5931473425
 20
7.6572109651
 30
0.0
 10
12.5931069232
 20
7.6569862595
 30
0.0
 10
12.5929048024
 20
7.656689091
 30
0.0
 10
12.592580205
 20
7.6564485971
 30
0.0
 10
12.5921404951
 20
7.6562562109
 30
0.0
 10
12.5915836214
 20
7.6561074851
 30
0.0
 10
12.5909082414
 20
7.6560017894
 30
0.0
 10
12.5901142189
 20
7.6559391583
 30
0.0
 10
12.5895451813
 20
7.6559271663
 30
0.0
 10
12.5892413754
 20
7.6559271662
 30
0.0
  0
SPLINE
  5
332
100
AcDbEntity
  8
0
100
AcDbSpline
 62
9
  6
CONTINUOUS
 70
0
 71
3
 72
15
 73
11
 74
0
 42
0.0000001
 43
0.0000001
 44
0.0000000001
 40
0.0
 40
0.0
 40
0.0
 40
0.0
 40
0.2032546461
 40
0.3805994706
 40
0.5325014079
 40
0.6600125545
 40
0.765221597
 40
0.8519300121
 40
0.9268659842
 40
1.0
 40
1.0
 40
1.0
 40
1.0
 10
12.5892413754
 20
7.455399956
 30
0.0
 10
12.5895451814
 20
7.4553999558
 30
0.0
 10
12.5901142191
 20
7.4553879641
 30
0.0
 10
12.5909082416
 20
7.4553253336
 30
0.0
 10
12.5915836217
 20
7.4552196381
 30
0.0
 10
12.5921404955
 20
7.4550709114
 30
0.0
 10
12.5925802057
 20
7.4548785233
 30
0.0
 10
12.5929048021
 20
7.4546380265
 30
0.0
 10
12.5931069214
 20
7.4543408589
 30
0.0
 10
12.5931473423
 20
7.4541161554
 30
0.0
 10
12.5931473429
 20
7.4540068415
 30
0.0
  0
SPLINE
  5
333
100
AcDbEntity
  8
0
100
AcDbSpline
 62
9
  6
CONTINUOUS
 70
0
 71
3
 72
17
 73
13
 74
0
 42
0.0000001
 43
0.0000001
 44
0.0000000001
 40
0.0
 40
0.0
 40
0.0
 40
0.0
 40
0.1506788162
 40
0.2987791061
 40
0.4417723211
 40
0.5772013712
 40
0.702751133
 40
0.8162891555
 40
0.8679480361
 40
0.9159131803
 40
0.959993891
 40
1.0
 40
1.0
 40
1.0
 40
1.0
 10
9.5383294122
 20
8.9963052307
 30
0.0
 10
9.5331128317
 20
8.9960354694
 30
0.0
 10
9.5227657664
 20
8.9955599836
 30
0.0
 10
9.5074595363
 20
8.9950362586
 30
0.0
 10
9.4926764106
 20
8.994716429
 30
0.0
 10
9.4786719494
 20
8.9946038533
 30
0.0
 10
9.4656884661
 20
8.9947005557
 30
0.0
 10
9.4556117102
 20
8.9949593971
 30
0.0
 10
9.4482289166
 20
8.9952816394
 30
0.0
 10
9.4432550642
 20
8.9955657824
 30
0.0
 10
9.4386890994
 20
8.9958976376
 30
0.0
 10
9.435785892
 20
8.9961625869
 30
0.0
 10
9.4344063638
 20
8.9963052307
 30
0.0
  0
LINE
  5
334
100
AcDbEntity
  8
0
100
AcDbLine
 62
9
  6
CONTINUOUS
 10
9.3685884331
 20
8.9963052307
 11
9.3525115486
 21
8.9946388438
  0
SPLINE
  5
335
100
AcDbEntity
  8
0
100
AcDbSpline
 62
9
  6
CONTINUOUS
 70
0
 71
3
 72
17
 73
13
 74
0
 42
0.0000001
 43
0.0000001
 44
0.0000000001
 40
0.0
 40
0.0
 40
0.0
 40
0.0
 40
0.0401386023
 40
0.0842970848
 40
0.1322996116
 40
0.1839651796
 40
0.2974768582
 40
0.4229798379
 40
0.5583638172
 40
0.7013139732
 40
0.8493755309
 40
1.0
 40
1.0
 40
1.0
 40
1.0
 10
9.7454456373
 20
9.0351853027
 30
0.0
 10
9.7444860346
 20
9.0350362374
 30
0.0
 10
9.7424650777
 20
9.0347591007
 30
0.0
 10
9.7392828085
 20
9.0344119005
 30
0.0
 10
9.7358154663
 20
9.0341151666
 30
0.0
 10
9.7306685397
 20
9.0337783202
 30
0.0
 10
9.723639783
 20
9.0335068698
 30
0.0
 10
9.7145812999
 20
9.0334055041
 30
0.0
 10
9.7048108064
 20
9.0335234255
 30
0.0
 10
9.6944994006
 20
9.033858617
 30
0.0
 10
9.6838279499
 20
9.0344060918
 30
0.0
 10
9.6766182342
 20
9.0349031236
 30
0.0
 10
9.6729849735
 20
9.0351853027
 30
0.0
  0
LINE
  5
336
100
AcDbEntity
  8
0
100
AcDbLine
 62
9
  6
CONTINUOUS
 10
9.3940114179
 20
9.0351853027
 11
9.3828017143
 21
9.033442279
  0
SPLINE
  5
337
100
AcDbEntity
  8
0
100
AcDbSpline
 62
9
  6
CONTINUOUS
 70
0
 71
3
 72
17
 73
13
 74
0
 42
0.0000001
 43
0.0000001
 44
0.0000000001
 40
0.0
 40
0.0
 40
0.0
 40
0.0
 40
0.1506239437
 40
0.2986862381
 40
0.4416364337
 40
0.5770170014
 40
0.7025264642
 40
0.8160368592
 40
0.8676907586
 40
0.9156865403
 40
0.959853132
 40
1.0
 40
1.0
 40
1.0
 40
1.0
 10
9.5353097123
 20
9.0351853027
 30
0.0
 10
9.5316764648
 20
9.0349031322
 30
0.0
 10
9.5244667381
 20
9.0344062218
 30
0.0
 10
9.5137952941
 20
9.0338585966
 30
0.0
 10
9.5034839542
 20
9.0335233379
 30
0.0
 10
9.4937133858
 20
9.0334057318
 30
0.0
 10
9.4846548639
 20
9.0335067511
 30
0.0
 10
9.4776262506
 20
9.0337780371
 30
0.0
 10
9.4724798332
 20
9.0341153764
 30
0.0
 10
9.4690127696
 20
9.034412394
 30
0.0
 10
9.4658302407
 20
9.0347593093
 30
0.0
 10
9.463808851
 20
9.0350362224
 30
0.0
 10
9.4628490485
 20
9.0351853027
 30
0.0
  0
SPLINE
  5
338
100
AcDbEntity
  8
0
100
AcDbSpline
 62
9
  6
CONTINUOUS
 70
0
 71
3
 72
15
 73
11
 74
0
 42
0.0000001
 43
0.0000001
 44
0.0000000001
 40
0.0
 40
0.0
 40
0.0
 40
0.0
 40
0.2032546461
 40
0.3805994706
 40
0.5325014079
 40
0.6600125545
 40
0.765221597
 40
0.8519300121
 40
0.9268659842
 40
1.0
 40
1.0
 40
1.0
 40
1.0
 10
10.8590533103
 20
7.6559271662
 30
0.0
 10
10.8587495044
 20
7.6559271663
 30
0.0
 10
10.8581804667
 20
7.655939158
 30
0.0
 10
10.8573864442
 20
7.6560017885
 30
0.0
 10
10.8567110641
 20
7.6561074841
 30
0.0
 10
10.8561541903
 20
7.6562562108
 30
0.0
 10
10.8557144801
 20
7.6564485988
 30
0.0
 10
10.8553898837
 20
7.6566890956
 30
0.0
 10
10.8551877644
 20
7.6569862632
 30
0.0
 10
10.8551473435
 20
7.6572109668
 30
0.0
 10
10.8551473429
 20
7.6573202806
 30
0.0
  0
SPLINE
  5
339
100
AcDbEntity
  8
0
100
AcDbSpline
 62
9
  6
CONTINUOUS
 70
0
 71
3
 72
15
 73
11
 74
0
 42
0.0000001
 43
0.0000001
 44
0.0000000001
 40
0.0
 40
0.0
 40
0.0
 40
0.0
 40
0.0731351314
 40
0.1480709542
 40
0.2347790111
 40
0.3399878445
 40
0.467498871
 40
0.6194007349
 40
0.7967454978
 40
1.0
 40
1.0
 40
1.0
 40
1.0
 10
10.8551473429
 20
7.4540068415
 30
0.0
 10
10.8551473433
 20
7.4541161571
 30
0.0
 10
10.8551877626
 20
7.4543408626
 30
0.0
 10
10.8553898834
 20
7.4546380311
 30
0.0
 10
10.8557144808
 20
7.454878525
 30
0.0
 10
10.8561541907
 20
7.4550709113
 30
0.0
 10
10.8567110644
 20
7.455219637
 30
0.0
 10
10.8573864444
 20
7.4553253327
 30
0.0
 10
10.8581804669
 20
7.4553879638
 30
0.0
 10
10.8587495045
 20
7.4553999558
 30
0.0
 10
10.8590533103
 20
7.455399956
 30
0.0
  0
SPLINE
  5
33A
100
AcDbEntity
  8
0
100
AcDbSpline
 62
9
  6
CONTINUOUS
 70
0
 71
3
 72
11
 73
7
 74
0
 42
0.0000001
 43
0.0000001
 44
0.0000000001
 40
0.0
 40
0.0
 40
0.0
 40
0.0
 40
0.2732652443
 40
0.5321093896
 40
0.7748487877
 40
1.0
 40
1.0
 40
1.0
 40
1.0
 10
11.0679224289
 20
7.6573202806
 30
0.0
 10
11.0661609267
 20
7.657097443
 30
0.0
 10
11.0627256843
 20
7.6567031313
 30
0.0
 10
11.0577097311
 20
7.6562626127
 30
0.0
 10
11.0529946839
 20
7.6559933021
 30
0.0
 10
11.0499543748
 20
7.6559271665
 30
0.0
 10
11.0484914546
 20
7.6559271662
 30
0.0
  0
SPLINE
  5
33B
100
AcDbEntity
  8
0
100
AcDbSpline
 62
9
  6
CONTINUOUS
 70
0
 71
3
 72
11
 73
7
 74
0
 42
0.0000001
 43
0.0000001
 44
0.0000000001
 40
0.0
 40
0.0
 40
0.0
 40
0.0
 40
0.2251512314
 40
0.4678906644
 40
0.726734788
 40
1.0
 40
1.0
 40
1.0
 40
1.0
 10
11.0484914546
 20
7.455399956
 30
0.0
 10
11.049954375
 20
7.4553999557
 30
0.0
 10
11.0529946844
 20
7.4553338213
 30
0.0
 10
11.0577097318
 20
7.4550645103
 30
0.0
 10
11.0627256843
 20
7.4546239854
 30
0.0
 10
11.0661609261
 20
7.4542296728
 30
0.0
 10
11.0679224289
 20
7.4540068415
 30
0.0
  0
SPLINE
  5
33C
100
AcDbEntity
  8
0
100
AcDbSpline
 62
9
  6
CONTINUOUS
 70
0
 71
3
 72
9
 73
5
 74
0
 42
0.0000001
 43
0.0000001
 44
0.0000000001
 40
0.0
 40
0.0
 40
0.0
 40
0.0
 40
0.5149092185
 40
1.0
 40
1.0
 40
1.0
 40
1.0
 10
11.5347091986
 20
7.6559271662
 30
0.0
 10
11.530694639
 20
7.6559271667
 30
0.0
 10
11.522896105
 20
7.6561457973
 30
0.0
 10
11.5151244303
 20
7.6568456286
 30
0.0
 10
11.5113722569
 20
7.6573202806
 30
0.0
  0
SPLINE
  5
33D
100
AcDbEntity
  8
0
100
AcDbSpline
 62
9
  6
CONTINUOUS
 70
0
 71
3
 72
9
 73
5
 74
0
 42
0.0000001
 43
0.0000001
 44
0.0000000001
 40
0.0
 40
0.0
 40
0.0
 40
0.0
 40
0.4850908326
 40
1.0
 40
1.0
 40
1.0
 40
1.0
 10
11.5113722569
 20
7.4540068415
 30
0.0
 10
11.515124429
 20
7.4544815072
 30
0.0
 10
11.5228961063
 20
7.4551813177
 30
0.0
 10
11.5306946394
 20
7.4553999553
 30
0.0
 10
11.5347091986
 20
7.455399956
 30
0.0
  0
SPLINE
  5
33E
100
AcDbEntity
  8
0
100
AcDbSpline
 62
9
  6
CONTINUOUS
 70
0
 71
3
 72
9
 73
5
 74
0
 42
0.0000001
 43
0.0000001
 44
0.0000000001
 40
0.0
 40
0.0
 40
0.0
 40
0.0
 40
0.4850908328
 40
1.0
 40
1.0
 40
1.0
 40
1.0
 10
11.9369224289
 20
7.6573202806
 30
0.0
 10
11.9331702568
 20
7.6568456149
 30
0.0
 10
11.9253985795
 20
7.6561458044
 30
0.0
 10
11.9176000464
 20
7.6559271668
 30
0.0
 10
11.9135854872
 20
7.6559271662
 30
0.0
  0
SPLINE
  5
33F
100
AcDbEntity
  8
0
100
AcDbSpline
 62
9
  6
CONTINUOUS
 70
0
 71
3
 72
9
 73
5
 74
0
 42
0.0000001
 43
0.0000001
 44
0.0000000001
 40
0.0
 40
0.0
 40
0.0
 40
0.0
 40
0.5149092185
 40
1.0
 40
1.0
 40
1.0
 40
1.0
 10
11.9135854872
 20
7.455399956
 30
0.0
 10
11.9176000468
 20
7.4553999554
 30
0.0
 10
11.9253985808
 20
7.4551813249
 30
0.0
 10
11.9331702555
 20
7.4544814936
 30
0.0
 10
11.9369224289
 20
7.4540068415
 30
0.0
  0
LINE
  5
340
100
AcDbEntity
  8
0
100
AcDbLine
 62
9
  6
CONTINUOUS
 10
9.8422680732
 20
7.1458820685
 11
9.8537152702
 21
7.1661275779
  0
SPLINE
  5
341
100
AcDbEntity
  8
0
100
AcDbSpline
 62
9
  6
CONTINUOUS
 70
0
 71
3
 72
31
 73
27
 74
0
 42
0.0000001
 43
0.0000001
 44
0.0000000001
 40
0.0
 40
0.0
 40
0.0
 40
0.0
 40
0.0762167097
 40
0.1495532852
 40
0.2195253035
 40
0.285680143
 40
0.3172277353
 40
0.347714566
 40
0.3771399957
 40
0.4055461352
 40
0.4330148478
 40
0.4596720154
 40
0.4856931588
 40
0.5112983244
 40
0.5367396535
 40
0.562278431
 40
0.5881463301
 40
0.6145360005
 40
0.6416400296
 40
0.6696207165
 40
0.6985527114
 40
0.7284408895
 40
0.7910729689
 40
0.8574744435
 40
0.9272587765
 40
1.0
 40
1.0
 40
1.0
 40
1.0
 10
9.7642630064
 20
7.1458820685
 30
0.0
 10
9.765739119
 20
7.1436376222
 30
0.0
 10
9.7687316243
 20
7.1392954002
 30
0.0
 10
9.7734589991
 20
7.1331644154
 30
0.0
 10
9.7783500863
 20
7.1276256375
 30
0.0
 10
9.7826342282
 20
7.1235393941
 30
0.0
 10
9.7861509292
 20
7.1206990304
 30
0.0
 10
9.7887807836
 20
7.1188306643
 30
0.0
 10
9.7914423581
 20
7.1172105836
 30
0.0
 10
9.794131568
 20
7.1158581885
 30
0.0
 10
9.796840273
 20
7.1147860297
 30
0.0
 10
9.7995608652
 20
7.1140075064
 30
0.0
 10
9.8022846684
 20
7.1135331496
 30
0.0
 10
9.8050023846
 20
7.1133735868
 30
0.0
 10
9.8077034161
 20
7.1135310741
 30
0.0
 10
9.8103760093
 20
7.1140068778
 30
0.0
 10
9.8130104545
 20
7.114786201
 30
0.0
 10
9.8156002604
 20
7.1158555133
 30
0.0
 10
9.81813967
 20
7.1172053254
 30
0.0
 10
9.820622261
 20
7.1188260368
 30
0.0
 10
9.8230467159
 20
7.1206965506
 30
0.0
 10
9.8262514369
 20
7.1235386543
 30
0.0
 10
9.8300939333
 20
7.1276310077
 30
0.0
 10
9.8343939608
 20
7.1331733567
 30
0.0
 10
9.838479351
 20
7.1393060151
 30
0.0
 10
9.8410217201
 20
7.1436415515
 30
0.0
 10
9.8422680732
 20
7.1458820685
 30
0.0
  0
SPLINE
  5
342
100
AcDbEntity
  8
0
100
AcDbSpline
 62
9
  6
CONTINUOUS
 70
0
 71
3
 72
24
 73
20
 74
0
 42
0.0000001
 43
0.0000001
 44
0.0000000001
 40
0.0
 40
0.0
 40
0.0
 40
0.0
 40
0.1431109667
 40
0.214061289
 40
0.2842353211
 40
0.3532700991
 40
0.4207756022
 40
0.4863598954
 40
0.5497231564
 40
0.6107680572
 40
0.6404616765
 40
0.6696422336
 40
0.7266294422
 40
0.7545902819
 40
0.7822664612
 40
0.8369973481
 40
0.8913003814
 40
0.9455520672
 40
1.0
 40
1.0
 40
1.0
 40
1.0
 10
9.6821524097
 20
7.1458820685
 30
0.0
 10
9.6856316898
 20
7.1487471496
 30
0.0
 10
9.6910606596
 20
7.1527773481
 30
0.0
 10
9.698732071
 20
7.1574014141
 30
0.0
 10
9.7046386089
 20
7.1604031887
 30
0.0
 10
9.7106746649
 20
7.1628648059
 30
0.0
 10
9.7167789301
 20
7.1647068092
 30
0.0
 10
9.7228714752
 20
7.1658597094
 30
0.0
 10
9.7288572864
 20
7.1662543777
 30
0.0
 10
9.7337169747
 20
7.1659459179
 30
0.0
 10
9.7374421852
 20
7.1653064907
 30
0.0
 10
9.7409880691
 20
7.1644354793
 30
0.0
 10
9.7443826464
 20
7.1632118993
 30
0.0
 10
9.7475767809
 20
7.1616644961
 30
0.0
 10
9.7505957614
 20
7.1599368918
 30
0.0
 10
9.7541135076
 20
7.1574324597
 30
0.0
 10
9.7579193778
 20
7.1539575533
 30
0.0
 10
9.7613159916
 20
7.1500964666
 30
0.0
 10
9.7633204355
 20
7.1473145531
 30
0.0
 10
9.7642630064
 20
7.1458820685
 30
0.0
  0
SPLINE
  5
343
100
AcDbEntity
  8
0
100
AcDbSpline
 62
9
  6
CONTINUOUS
 70
0
 71
3
 72
15
 73
11
 74
0
 42
0.0000001
 43
0.0000001
 44
0.0000000001
 40
0.0
 40
0.0
 40
0.0
 40
0.0
 40
0.1250403012
 40
0.1875860219
 40
0.250122688
 40
0.3751574267
 40
0.5001810285
 40
0.7500145522
 40
0.8750171662
 40
1.0
 40
1.0
 40
1.0
 40
1.0
 10
9.6041473429
 20
7.113422175
 30
0.0
 10
9.607739475
 20
7.1134217623
 30
0.0
 10
9.613134302
 20
7.1137470997
 30
0.0
 10
9.620248732
 20
7.1147713413
 30
0.0
 10
9.6272965727
 20
7.1161881258
 30
0.0
 10
9.635943555
 20
7.1186770463
 30
0.0
 10
9.6493104002
 20
7.1239740538
 30
0.0
 10
9.6619200176
 20
7.1309849775
 30
0.0
 10
9.6737210474
 20
7.1391711727
 30
0.0
 10
9.6793807765
 20
7.1435996127
 30
0.0
 10
9.6821524097
 20
7.1458820685
 30
0.0
  0
SPLINE
  5
344
100
AcDbEntity
  8
0
100
AcDbSpline
 62
9
  6
CONTINUOUS
 70
0
 71
3
 72
15
 73
11
 74
0
 42
0.0000001
 43
0.0000001
 44
0.0000000001
 40
0.0
 40
0.0
 40
0.0
 40
0.0
 40
0.1249824678
 40
0.2499851963
 40
0.4998186873
 40
0.6248422484
 40
0.7498768817
 40
0.8124140006
 40
0.8749597005
 40
1.0
 40
1.0
 40
1.0
 40
1.0
 10
9.5261422761
 20
7.1458820685
 30
0.0
 10
9.5289137492
 20
7.143599425
 30
0.0
 10
9.5345736949
 20
7.1391712307
 30
0.0
 10
9.5463746387
 20
7.1309849538
 30
0.0
 10
9.558984046
 20
7.1239733871
 30
0.0
 10
9.5723514959
 20
7.118677845
 30
0.0
 10
9.5809982889
 20
7.1161884331
 30
0.0
 10
9.5880458711
 20
7.1147703101
 30
0.0
 10
9.5951602422
 20
7.1137450896
 30
0.0
 10
9.6005552046
 20
7.1134218775
 30
0.0
 10
9.6041473429
 20
7.113422175
 30
0.0
  0
SPLINE
  5
345
100
AcDbEntity
  8
0
100
AcDbSpline
 62
9
  6
CONTINUOUS
 70
0
 71
3
 72
23
 73
19
 74
0
 42
0.0000001
 43
0.0000001
 44
0.0000000001
 40
0.0
 40
0.0
 40
0.0
 40
0.0
 40
0.0544499316
 40
0.108703701
 40
0.1630087466
 40
0.2177414436
 40
0.2454187342
 40
0.2733806705
 40
0.3303695293
 40
0.3892097961
 40
0.4502566922
 40
0.5136221562
 40
0.5792095514
 40
0.6467174687
 40
0.7157539878
 40
0.785930972
 40
0.8568838688
 40
1.0
 40
1.0
 40
1.0
 40
1.0
 10
9.4440316794
 20
7.1458820685
 30
0.0
 10
9.4449742647
 20
7.1473145433
 30
0.0
 10
9.4469787085
 20
7.1500964581
 30
0.0
 10
9.4503752992
 20
7.1539575678
 30
0.0
 10
9.4541811655
 20
7.1574324805
 30
0.0
 10
9.4576990729
 20
7.1599367117
 30
0.0
 10
9.4607179709
 20
7.1616643546
 30
0.0
 10
9.4639120974
 20
7.1632121608
 30
0.0
 10
9.4681870921
 20
7.1647540113
 30
0.0
 10
9.4736597611
 20
7.1658877674
 30
0.0
 10
9.4794370578
 20
7.1662542704
 30
0.0
 10
9.4854233419
 20
7.1658600374
 30
0.0
 10
9.4915156195
 20
7.1647062094
 30
0.0
 10
9.49762001
 20
7.1628646903
 30
0.0
 10
9.50365622
 20
7.1604034405
 30
0.0
 10
9.5095626017
 20
7.1574013797
 30
0.0
 10
9.5172340274
 20
7.1527773453
 30
0.0
 10
9.522663016
 20
7.1487471684
 30
0.0
 10
9.5261422761
 20
7.1458820685
 30
0.0
  0
SPLINE
  5
346
100
AcDbEntity
  8
0
100
AcDbSpline
 62
9
  6
CONTINUOUS
 70
0
 71
3
 72
32
 73
28
 74
0
 42
0.0000001
 43
0.0000001
 44
0.0000000001
 40
0.0
 40
0.0
 40
0.0
 40
0.0
 40
0.0727488963
 40
0.1425301768
 40
0.2089206877
 40
0.2715579787
 40
0.301437536
 40
0.33035685
 40
0.358341978
 40
0.3854698459
 40
0.4118727331
 40
0.437730186
 40
0.4632588956
 40
0.4887021454
 40
0.5143064942
 40
0.5403213833
 40
0.5669775211
 40
0.5944474289
 40
0.6228500881
 40
0.6522730946
 40
0.6827625935
 40
0.7143133615
 40
0.7804678941
 40
0.8504416048
 40
0.886726783
 40
0.9237860718
 40
1.0
 40
1.0
 40
1.0
 40
1.0
 10
9.3660266126
 20
7.1458820685
 30
0.0
 10
9.3672731264
 20
7.1436413106
 30
0.0
 10
9.3698151985
 20
7.139305388
 30
0.0
 10
9.3739003634
 20
7.1331727157
 30
0.0
 10
9.3782013464
 20
7.1276315094
 30
0.0
 10
9.3820425829
 20
7.1235386087
 30
0.0
 10
9.385247522
 20
7.1206974892
 30
0.0
 10
9.3876725521
 20
7.1188286558
 30
0.0
 10
9.3901555435
 20
7.1172076925
 30
0.0
 10
9.3926943949
 20
7.1158538465
 30
0.0
 10
9.3952840132
 20
7.1147812062
 30
0.0
 10
9.3979190966
 20
7.1140042881
 30
0.0
 10
9.4005915682
 20
7.1135320886
 30
0.0
 10
9.4032920937
 20
7.1133735002
 30
0.0
 10
9.4060098682
 20
7.1135319875
 30
0.0
 10
9.4087327917
 20
7.1140106064
 30
0.0
 10
9.4114520564
 20
7.1147923366
 30
0.0
 10
9.414162012
 20
7.1158605541
 30
0.0
 10
9.4168538068
 20
7.1172076665
 30
0.0
 10
9.4195158149
 20
7.1188271177
 30
0.0
 10
9.4221444847
 20
7.1206974179
 30
0.0
 10
9.4256600967
 20
7.1235394297
 30
0.0
 10
9.4299447529
 20
7.1276252638
 30
0.0
 10
9.4339700348
 20
7.1321854193
 30
0.0
 10
9.437122386
 20
7.1361333149
 30
0.0
 10
9.4402883367
 20
7.1403488766
 30
0.0
 10
9.4425554492
 20
7.1436377941
 30
0.0
 10
9.4440316794
 20
7.1458820685
 30
0.0
  0
SPLINE
  5
347
100
AcDbEntity
  8
0
100
AcDbSpline
 62
9
  6
CONTINUOUS
 70
0
 71
3
 72
44
 73
40
 74
0
 42
0.0000001
 43
0.0000001
 44
0.0000000001
 40
0.0
 40
0.0
 40
0.0
 40
0.0
 40
0.0902387876
 40
0.1798443519
 40
0.2682016001
 40
0.3547367692
 40
0.4388967001
 40
0.5201307641
 40
0.5978554014
 40
0.6714237793
 40
0.7400955977
 40
0.772333071
 40
0.8030143161
 40
0.8320119422
 40
0.8591917453
 40
0.8844123853
 40
0.907527991
 40
0.9283868673
 40
0.9468411966
 40
0.9551228328
 40
0.9627509679
 40
0.9697092149
 40
0.9759816187
 40
0.9815522101
 40
0.9864065039
 40
0.9905346254
 40
0.9923235621
 40
0.9939275843
 40
0.995345568
 40
0.9965764848
 40
0.9976196786
 40
0.9984745839
 40
0.9991406349
 40
0.9994026631
 40
0.9996172654
 40
0.999784371
 40
0.9999039092
 40
0.9999758091
 40
1.0
 40
1.0
 40
1.0
 40
1.0
 10
9.6041473429
 20
6.8731908437
 30
0.0
 10
9.5987615902
 20
6.8731908579
 30
0.0
 10
9.5880244669
 20
6.873550926
 30
0.0
 10
9.5720857282
 20
6.8751393566
 30
0.0
 10
9.5564961657
 20
6.8776835221
 30
0.0
 10
9.541397513
 20
6.88104695
 30
0.0
 10
9.5269034502
 20
6.8850693558
 30
0.0
 10
9.5131078991
 20
6.8895806642
 30
0.0
 10
9.5000941504
 20
6.8944104061
 30
0.0
 10
9.4879451477
 20
6.8993910559
 30
0.0
 10
9.4784255965
 20
6.9036152427
 30
0.0
 10
9.4713065356
 20
6.9069322599
 30
0.0
 10
9.466359509
 20
6.9093035312
 30
0.0
 10
9.4617071549
 20
6.9115905374
 30
0.0
 10
9.4573666295
 20
6.913772655
 30
0.0
 10
9.4533562823
 20
6.9158295978
 30
0.0
 10
9.4496952698
 20
6.9177407397
 30
0.0
 10
9.446403053
 20
6.9194855133
 30
0.0
 10
9.443900177
 20
6.9208289432
 30
0.0
 10
9.4420967354
 20
6.9218057032
 30
0.0
 10
9.4408980861
 20
6.9224584135
 30
0.0
 10
9.4398059764
 20
6.9230560164
 30
0.0
 10
9.4388225505
 20
6.9235964146
 30
0.0
 10
9.4379498527
 20
6.9240775705
 30
0.0
 10
9.4371896147
 20
6.924497637
 30
0.0
 10
9.4366272276
 20
6.9248090903
 30
0.0
 10
9.4362347191
 20
6.925026882
 30
0.0
 10
9.4359837239
 20
6.9251663339
 30
0.0
 10
9.435761914
 20
6.9252897415
 30
0.0
 10
9.435569426
 20
6.9253970037
 30
0.0
 10
9.4354063496
 20
6.9254880101
 30
0.0
 10
9.435272777
 20
6.9255626941
 30
0.0
 10
9.4351799009
 20
6.9256146526
 30
0.0
 10
9.4351204525
 20
6.9256480506
 30
0.0
 10
9.4350868688
 20
6.9256667623
 30
0.0
 10
9.4350609929
 20
6.9256816547
 30
0.0
 10
9.4350418772
 20
6.9256916064
 30
0.0
 10
9.4350314851
 20
6.9256988772
 30
0.0
 10
9.4350256409
 20
6.9257007106
 30
0.0
 10
9.435024742
 20
6.9257018405
 30
0.0
  0
SPLINE
  5
348
100
AcDbEntity
  8
0
100
AcDbSpline
 62
9
  6
CONTINUOUS
 70
0
 71
3
 72
15
 73
11
 74
0
 42
0.0000001
 43
0.0000001
 44
0.0000000001
 40
0.0
 40
0.0
 40
0.0
 40
0.0
 40
0.1268774645
 40
0.2535794742
 40
0.3798071093
 40
0.5054393049
 40
0.6303257481
 40
0.7543711163
 40
0.8776103131
 40
1.0
 40
1.0
 40
1.0
 40
1.0
 10
10.8590533103
 20
7.6559271662
 30
0.0
 10
10.8590533103
 20
7.6568405268
 30
0.0
 10
10.8591727007
 20
7.6586682117
 30
0.0
 10
10.8597058875
 20
7.6613574562
 30
0.0
 10
10.8605841447
 20
7.6639456809
 30
0.0
 10
10.8617903878
 20
7.6663837088
 30
0.0
 10
10.8633027905
 20
7.6686258493
 30
0.0
 10
10.8650929783
 20
7.6706304752
 30
0.0
 10
10.867127268
 20
7.6723587107
 30
0.0
 10
10.8686265616
 20
7.6733090104
 30
0.0
 10
10.8694022399
 20
7.6737268377
 30
0.0
  0
SPLINE
  5
349
100
AcDbEntity
  8
0
100
AcDbSpline
 62
9
  6
CONTINUOUS
 70
0
 71
3
 72
13
 73
9
 74
0
 42
0.0000001
 43
0.0000001
 44
0.0000000001
 40
0.0
 40
0.0
 40
0.0
 40
0.0
 40
0.268772232
 40
0.5288028518
 40
0.6535050312
 40
0.7737068613
 40
0.889201632
 40
1.0
 40
1.0
 40
1.0
 40
1.0
 10
11.0484914546
 20
7.6559271662
 30
0.0
 10
11.0484914546
 20
7.6577427006
 30
0.0
 10
11.0488516865
 20
7.6613247556
 30
0.0
 10
11.0502030356
 20
7.665566808
 30
0.0
 10
11.0517910239
 20
7.6685936512
 30
0.0
 10
11.0531835812
 20
7.6705990162
 30
0.0
 10
11.0547682141
 20
7.6723311654
 30
0.0
 10
11.0559580666
 20
7.6733019132
 30
0.0
 10
11.0565741774
 20
7.6737268377
 30
0.0
  0
SPLINE
  5
34A
100
AcDbEntity
  8
0
100
AcDbSpline
 62
9
  6
CONTINUOUS
 70
0
 71
3
 72
15
 73
11
 74
0
 42
0.0000001
 43
0.0000001
 44
0.0000000001
 40
0.0
 40
0.0
 40
0.0
 40
0.0
 40
0.149106493
 40
0.2947593545
 40
0.4347814444
 40
0.5673904399
 40
0.6910184793
 40
0.8045405746
 40
0.9074687491
 40
1.0
 40
1.0
 40
1.0
 40
1.0
 10
11.0679224289
 20
7.6573202806
 30
0.0
 10
11.0678060421
 20
7.6582402362
 30
0.0
 10
11.0676388497
 20
7.6600674905
 30
0.0
 10
11.0675857142
 20
7.6627732034
 30
0.0
 10
11.0677333658
 20
7.6653730742
 30
0.0
 10
11.0680784551
 20
7.6678163779
 30
0.0
 10
11.0686147554
 20
7.6700564886
 30
0.0
 10
11.0693323888
 20
7.6720515745
 30
0.0
 10
11.0702188702
 20
7.6737633396
 30
0.0
 10
11.0709508727
 20
7.6747440825
 30
0.0
 10
11.0713422303
 20
7.6751659601
 30
0.0
  0
SPLINE
  5
34B
100
AcDbEntity
  8
0
100
AcDbSpline
 62
9
  6
CONTINUOUS
 70
0
 71
3
 72
14
 73
10
 74
0
 42
0.0000001
 43
0.0000001
 44
0.0000000001
 40
0.0
 40
0.0
 40
0.0
 40
0.0
 40
0.3007329118
 40
0.4443401964
 40
0.5800255989
 40
0.7053938373
 40
0.8183069916
 40
0.9169901423
 40
1.0
 40
1.0
 40
1.0
 40
1.0
 10
11.5347091986
 20
7.6559271662
 30
0.0
 10
11.5347091986
 20
7.6577339759
 30
0.0
 10
11.5347829347
 20
7.6604045963
 30
0.0
 10
11.5350386852
 20
7.6638804314
 30
0.0
 10
11.5352980002
 20
7.6662983235
 30
0.0
 10
11.5356225353
 20
7.6685221643
 30
0.0
 10
11.5360056124
 20
7.6705110512
 30
0.0
 10
11.5364396127
 20
7.6722280006
 30
0.0
 10
11.5367875871
 20
7.6732648302
 30
0.0
 10
11.5369754054
 20
7.6737268377
 30
0.0
  0
SPLINE
  5
34C
100
AcDbEntity
  8
0
100
AcDbSpline
 62
9
  6
CONTINUOUS
 70
0
 71
3
 72
14
 73
10
 74
0
 42
0.0000001
 43
0.0000001
 44
0.0000000001
 40
0.0
 40
0.0
 40
0.0
 40
0.0
 40
0.3007329119
 40
0.4443401966
 40
0.5800255992
 40
0.7053938376
 40
0.8183069919
 40
0.9169901425
 40
1.0
 40
1.0
 40
1.0
 40
1.0
 10
11.9135854872
 20
7.6559271662
 30
0.0
 10
11.9135854872
 20
7.6577339759
 30
0.0
 10
11.9135117511
 20
7.6604045963
 30
0.0
 10
11.9132560006
 20
7.6638804314
 30
0.0
 10
11.9129966856
 20
7.6662983235
 30
0.0
 10
11.9126721504
 20
7.6685221643
 30
0.0
 10
11.9122890734
 20
7.6705110512
 30
0.0
 10
11.9118550731
 20
7.6722280006
 30
0.0
 10
11.9115070987
 20
7.6732648302
 30
0.0
 10
11.9113192803
 20
7.6737268377
 30
0.0
  0
SPLINE
  5
34D
100
AcDbEntity
  8
0
100
AcDbSpline
 62
9
  6
CONTINUOUS
 70
0
 71
3
 72
15
 73
11
 74
0
 42
0.0000001
 43
0.0000001
 44
0.0000000001
 40
0.0
 40
0.0
 40
0.0
 40
0.0
 40
0.1409194079
 40
0.28104223
 40
0.4181977678
 40
0.5504919997
 40
0.6761243041
 40
0.7935755452
 40
0.9017620096
 40
1.0
 40
1.0
 40
1.0
 40
1.0
 10
11.9369224289
 20
7.6573202806
 30
0.0
 10
11.936805008
 20
7.6582484101
 30
0.0
 10
11.9365060826
 20
7.6600918654
 30
0.0
 10
11.9358729051
 20
7.6627972187
 30
0.0
 10
11.935065788
 20
7.6653962606
 30
0.0
 10
11.9341010201
 20
7.6678381113
 30
0.0
 10
11.932996939
 20
7.6700756476
 30
0.0
 10
11.9317748361
 20
7.6720663836
 30
0.0
 10
11.9304579094
 20
7.673771517
 30
0.0
 10
11.9294848536
 20
7.6747444559
 30
0.0
 10
11.9289871904
 20
7.6751659601
 30
0.0
  0
SPLINE
  5
34E
100
AcDbEntity
  8
0
100
AcDbSpline
 62
9
  6
CONTINUOUS
 70
0
 71
3
 72
13
 73
9
 74
0
 42
0.0000001
 43
0.0000001
 44
0.0000000001
 40
0.0
 40
0.0
 40
0.0
 40
0.0
 40
0.2687722321
 40
0.5288028519
 40
0.6535050314
 40
0.7737068615
 40
0.8892016321
 40
1.0
 40
1.0
 40
1.0
 40
1.0
 10
12.3998032312
 20
7.6559271662
 30
0.0
 10
12.3998032312
 20
7.6577427006
 30
0.0
 10
12.3994429993
 20
7.6613247556
 30
0.0
 10
12.3980916502
 20
7.665566808
 30
0.0
 10
12.3965036619
 20
7.6685936512
 30
0.0
 10
12.3951111046
 20
7.6705990162
 30
0.0
 10
12.3935264717
 20
7.6723311654
 30
0.0
 10
12.3923366192
 20
7.6733019132
 30
0.0
 10
12.3917205084
 20
7.6737268377
 30
0.0
  0
SPLINE
  5
34F
100
AcDbEntity
  8
0
100
AcDbSpline
 62
9
  6
CONTINUOUS
 70
0
 71
3
 72
15
 73
11
 74
0
 42
0.0000001
 43
0.0000001
 44
0.0000000001
 40
0.0
 40
0.0
 40
0.0
 40
0.0
 40
0.1268774645
 40
0.2535794743
 40
0.3798071094
 40
0.505439305
 40
0.6303257483
 40
0.7543711165
 40
0.8776103132
 40
1.0
 40
1.0
 40
1.0
 40
1.0
 10
12.5892413755
 20
7.6559271662
 30
0.0
 10
12.5892413755
 20
7.6568405268
 30
0.0
 10
12.5891219851
 20
7.6586682117
 30
0.0
 10
12.5885887983
 20
7.6613574562
 30
0.0
 10
12.5877105411
 20
7.6639456809
 30
0.0
 10
12.586504298
 20
7.6663837088
 30
0.0
 10
12.5849918953
 20
7.6686258493
 30
0.0
 10
12.5832017075
 20
7.6706304752
 30
0.0
 10
12.5811674178
 20
7.6723587107
 30
0.0
 10
12.5796681242
 20
7.6733090104
 30
0.0
 10
12.5788924459
 20
7.6737268377
 30
0.0
  0
SPLINE
  5
350
100
AcDbEntity
  8
0
100
AcDbSpline
 62
9
  6
CONTINUOUS
 70
0
 71
3
 72
15
 73
11
 74
0
 42
0.0000001
 43
0.0000001
 44
0.0000000001
 40
0.0
 40
0.0
 40
0.0
 40
0.0
 40
0.1245543351
 40
0.2492102959
 40
0.3739226124
 40
0.4987893454
 40
0.6238234458
 40
0.7490243965
 40
0.8744522113
 40
1.0
 40
1.0
 40
1.0
 40
1.0
 10
12.5931473429
 20
7.6573202806
 30
0.0
 10
12.5931473429
 20
7.6582460905
 30
0.0
 10
12.5930153318
 20
7.6601011295
 30
0.0
 10
12.5924262843
 20
7.6628264529
 30
0.0
 10
12.5914568057
 20
7.6654437815
 30
0.0
 10
12.5901269614
 20
7.6679007231
 30
0.0
 10
12.5884623706
 20
7.670148897
 30
0.0
 10
12.5864961448
 20
7.6721446334
 30
0.0
 10
12.584267389
 20
7.6738475118
 30
0.0
 10
12.5826354627
 20
7.6747660438
 30
0.0
 10
12.5817923029
 20
7.6751659601
 30
0.0
  0
SPLINE
  5
351
100
AcDbEntity
  8
0
100
AcDbSpline
 62
9
  6
CONTINUOUS
 70
0
 71
3
 72
15
 73
11
 74
0
 42
0.0000001
 43
0.0000001
 44
0.0000000001
 40
0.0
 40
0.0
 40
0.0
 40
0.0
 40
0.1268774645
 40
0.2535794742
 40
0.3798071093
 40
0.5054393048
 40
0.6303257481
 40
0.7543711163
 40
0.8776103131
 40
1.0
 40
1.0
 40
1.0
 40
1.0
 10
12.5892413755
 20
7.455399956
 30
0.0
 10
12.5892413755
 20
7.4544865953
 30
0.0
 10
12.5891219851
 20
7.4526589105
 30
0.0
 10
12.5885887983
 20
7.4499696659
 30
0.0
 10
12.5877105411
 20
7.4473814413
 30
0.0
 10
12.586504298
 20
7.4449434133
 30
0.0
 10
12.5849918953
 20
7.4427012728
 30
0.0
 10
12.5832017075
 20
7.4406966469
 30
0.0
 10
12.5811674178
 20
7.4389684115
 30
0.0
 10
12.5796681242
 20
7.4380181118
 30
0.0
 10
12.5788924459
 20
7.4376002844
 30
0.0
  0
SPLINE
  5
352
100
AcDbEntity
  8
0
100
AcDbSpline
 62
9
  6
CONTINUOUS
 70
0
 71
3
 72
13
 73
9
 74
0
 42
0.0000001
 43
0.0000001
 44
0.0000000001
 40
0.0
 40
0.0
 40
0.0
 40
0.0
 40
0.2687722319
 40
0.5288028516
 40
0.653505031
 40
0.7737068611
 40
0.8892016319
 40
1.0
 40
1.0
 40
1.0
 40
1.0
 10
12.3998032312
 20
7.455399956
 30
0.0
 10
12.3998032312
 20
7.4535844215
 30
0.0
 10
12.3994429993
 20
7.4500023666
 30
0.0
 10
12.3980916502
 20
7.4457603142
 30
0.0
 10
12.3965036619
 20
7.4427334709
 30
0.0
 10
12.3951111046
 20
7.4407281059
 30
0.0
 10
12.3935264717
 20
7.4389959567
 30
0.0
 10
12.3923366192
 20
7.4380252089
 30
0.0
 10
12.3917205084
 20
7.4376002844
 30
0.0
  0
SPLINE
  5
353
100
AcDbEntity
  8
0
100
AcDbSpline
 62
9
  6
CONTINUOUS
 70
0
 71
3
 72
15
 73
11
 74
0
 42
0.0000001
 43
0.0000001
 44
0.0000000001
 40
0.0
 40
0.0
 40
0.0
 40
0.0
 40
0.149106493
 40
0.2947593545
 40
0.4347814444
 40
0.5673904399
 40
0.6910184792
 40
0.8045405746
 40
0.9074687491
 40
1.0
 40
1.0
 40
1.0
 40
1.0
 10
12.3803722569
 20
7.4540068415
 30
0.0
 10
12.3804886437
 20
7.4530868859
 30
0.0
 10
12.3806558361
 20
7.4512596317
 30
0.0
 10
12.3807089716
 20
7.4485539187
 30
0.0
 10
12.38056132
 20
7.4459540479
 30
0.0
 10
12.3802162307
 20
7.4435107442
 30
0.0
 10
12.3796799304
 20
7.4412706335
 30
0.0
 10
12.378962297
 20
7.4392755476
 30
0.0
 10
12.3780758156
 20
7.4375637825
 30
0.0
 10
12.3773438131
 20
7.4365830397
 30
0.0
 10
12.3769524555
 20
7.4361611621
 30
0.0
  0
SPLINE
  5
354
100
AcDbEntity
  8
0
100
AcDbSpline
 62
9
  6
CONTINUOUS
 70
0
 71
3
 72
14
 73
10
 74
0
 42
0.0000001
 43
0.0000001
 44
0.0000000001
 40
0.0
 40
0.0
 40
0.0
 40
0.0
 40
0.3007329118
 40
0.4443401965
 40
0.580025599
 40
0.7053938374
 40
0.8183069917
 40
0.9169901423
 40
1.0
 40
1.0
 40
1.0
 40
1.0
 10
11.9135854872
 20
7.455399956
 30
0.0
 10
11.9135854872
 20
7.4535931463
 30
0.0
 10
11.9135117511
 20
7.4509225259
 30
0.0
 10
11.9132560006
 20
7.4474466907
 30
0.0
 10
11.9129966856
 20
7.4450287986
 30
0.0
 10
11.9126721505
 20
7.4428049578
 30
0.0
 10
11.9122890734
 20
7.4408160709
 30
0.0
 10
11.9118550731
 20
7.4390991216
 30
0.0
 10
11.9115070987
 20
7.4380622919
 30
0.0
 10
11.9113192803
 20
7.4376002844
 30
0.0
  0
SPLINE
  5
355
100
AcDbEntity
  8
0
100
AcDbSpline
 62
9
  6
CONTINUOUS
 70
0
 71
3
 72
14
 73
10
 74
0
 42
0.0000001
 43
0.0000001
 44
0.0000000001
 40
0.0
 40
0.0
 40
0.0
 40
0.0
 40
0.3007329119
 40
0.4443401966
 40
0.5800255992
 40
0.7053938376
 40
0.8183069919
 40
0.9169901425
 40
1.0
 40
1.0
 40
1.0
 40
1.0
 10
11.5347091986
 20
7.455399956
 30
0.0
 10
11.5347091986
 20
7.4535931463
 30
0.0
 10
11.5347829347
 20
7.4509225259
 30
0.0
 10
11.5350386852
 20
7.4474466907
 30
0.0
 10
11.5352980002
 20
7.4450287986
 30
0.0
 10
11.5356225354
 20
7.4428049578
 30
0.0
 10
11.5360056124
 20
7.4408160709
 30
0.0
 10
11.5364396127
 20
7.4390991216
 30
0.0
 10
11.5367875871
 20
7.4380622919
 30
0.0
 10
11.5369754054
 20
7.4376002844
 30
0.0
  0
SPLINE
  5
356
100
AcDbEntity
  8
0
100
AcDbSpline
 62
9
  6
CONTINUOUS
 70
0
 71
3
 72
15
 73
11
 74
0
 42
0.0000001
 43
0.0000001
 44
0.0000000001
 40
0.0
 40
0.0
 40
0.0
 40
0.0
 40
0.1409194079
 40
0.28104223
 40
0.4181977678
 40
0.5504919997
 40
0.6761243041
 40
0.7935755452
 40
0.9017620096
 40
1.0
 40
1.0
 40
1.0
 40
1.0
 10
11.5113722569
 20
7.4540068415
 30
0.0
 10
11.5114896778
 20
7.4530787121
 30
0.0
 10
11.5117886032
 20
7.4512352567
 30
0.0
 10
11.5124217807
 20
7.4485299035
 30
0.0
 10
11.5132288978
 20
7.4459308616
 30
0.0
 10
11.5141936657
 20
7.4434890108
 30
0.0
 10
11.5152977468
 20
7.4412514745
 30
0.0
 10
11.5165198497
 20
7.4392607386
 30
0.0
 10
11.5178367764
 20
7.4375556052
 30
0.0
 10
11.5188098322
 20
7.4365826663
 30
0.0
 10
11.5193074954
 20
7.4361611621
 30
0.0
  0
SPLINE
  5
357
100
AcDbEntity
  8
0
100
AcDbSpline
 62
9
  6
CONTINUOUS
 70
0
 71
3
 72
13
 73
9
 74
0
 42
0.0000001
 43
0.0000001
 44
0.0000000001
 40
0.0
 40
0.0
 40
0.0
 40
0.0
 40
0.2687722321
 40
0.5288028519
 40
0.6535050314
 40
0.7737068615
 40
0.8892016321
 40
1.0
 40
1.0
 40
1.0
 40
1.0
 10
11.0484914546
 20
7.455399956
 30
0.0
 10
11.0484914547
 20
7.4535844215
 30
0.0
 10
11.0488516865
 20
7.4500023666
 30
0.0
 10
11.0502030356
 20
7.4457603142
 30
0.0
 10
11.0517910239
 20
7.4427334709
 30
0.0
 10
11.0531835812
 20
7.4407281059
 30
0.0
 10
11.0547682141
 20
7.4389959567
 30
0.0
 10
11.0559580666
 20
7.4380252089
 30
0.0
 10
11.0565741774
 20
7.4376002844
 30
0.0
  0
SPLINE
  5
358
100
AcDbEntity
  8
0
100
AcDbSpline
 62
9
  6
CONTINUOUS
 70
0
 71
3
 72
15
 73
11
 74
0
 42
0.0000001
 43
0.0000001
 44
0.0000000001
 40
0.0
 40
0.0
 40
0.0
 40
0.0
 40
0.1268774645
 40
0.2535794743
 40
0.3798071094
 40
0.505439305
 40
0.6303257483
 40
0.7543711165
 40
0.8776103132
 40
1.0
 40
1.0
 40
1.0
 40
1.0
 10
10.8590533103
 20
7.455399956
 30
0.0
 10
10.8590533103
 20
7.4544865953
 30
0.0
 10
10.8591727007
 20
7.4526589105
 30
0.0
 10
10.8597058875
 20
7.4499696659
 30
0.0
 10
10.8605841447
 20
7.4473814413
 30
0.0
 10
10.8617903878
 20
7.4449434133
 30
0.0
 10
10.8633027905
 20
7.4427012728
 30
0.0
 10
10.8650929783
 20
7.4406966469
 30
0.0
 10
10.867127268
 20
7.4389684115
 30
0.0
 10
10.8686265616
 20
7.4380181118
 30
0.0
 10
10.8694022399
 20
7.4376002844
 30
0.0
  0
SPLINE
  5
359
100
AcDbEntity
  8
0
100
AcDbSpline
 62
9
  6
CONTINUOUS
 70
0
 71
3
 72
15
 73
11
 74
0
 42
0.0000001
 43
0.0000001
 44
0.0000000001
 40
0.0
 40
0.0
 40
0.0
 40
0.0
 40
0.1245543351
 40
0.2492102959
 40
0.3739226124
 40
0.4987893454
 40
0.6238234458
 40
0.7490243965
 40
0.8744522113
 40
1.0
 40
1.0
 40
1.0
 40
1.0
 10
10.8551473429
 20
7.4540068415
 30
0.0
 10
10.8551473429
 20
7.4530810316
 30
0.0
 10
10.855279354
 20
7.4512259926
 30
0.0
 10
10.8558684015
 20
7.4485006692
 30
0.0
 10
10.8568378801
 20
7.4458833407
 30
0.0
 10
10.8581677244
 20
7.443426399
 30
0.0
 10
10.8598323152
 20
7.4411782252
 30
0.0
 10
10.861798541
 20
7.4391824888
 30
0.0
 10
10.8640272968
 20
7.4374796104
 30
0.0
 10
10.8656592231
 20
7.4365610783
 30
0.0
 10
10.8665023828
 20
7.4361611621
 30
0.0
  0
SPLINE
  5
35A
100
AcDbEntity
  8
0
100
AcDbSpline
 62
9
  6
CONTINUOUS
 70
0
 71
3
 72
32
 73
28
 74
0
 42
0.0000001
 43
0.0000001
 44
0.0000000001
 40
0.0
 40
0.0
 40
0.0
 40
0.0
 40
0.0749315564
 40
0.1472492512
 40
0.2163830226
 40
0.2495738947
 40
0.2817360824
 40
0.3127934749
 40
0.3426937046
 40
0.3713991616
 40
0.3989265009
 40
0.4253520727
 40
0.4508334858
 40
0.4756187272
 40
0.5000317932
 40
0.5244444728
 40
0.5492314318
 40
0.5747153857
 40
0.6011358446
 40
0.6573057846
 40
0.6872118877
 40
0.7182701578
 40
0.7504270599
 40
0.7836143117
 40
0.8527536475
 40
0.925072186
 40
1.0
 40
1.0
 40
1.0
 40
1.0
 10
9.3685884331
 20
7.1585742547
 30
0.0
 10
9.3697015939
 20
7.1564366099
 30
0.0
 10
9.3719664706
 20
7.1522752101
 30
0.0
 10
9.3755807506
 20
7.146324101
 30
0.0
 10
9.3787860786
 20
7.1417046242
 30
0.0
 10
9.3814666775
 20
7.1383080213
 30
0.0
 10
9.3835015151
 20
7.135966259
 30
0.0
 10
9.3855891302
 20
7.1338160854
 30
0.0
 10
9.3877292491
 20
7.1318794663
 30
0.0
 10
9.3899209352
 20
7.1301797557
 30
0.0
 10
9.3921623976
 20
7.1287424291
 30
0.0
 10
9.3944486665
 20
7.1275901693
 30
0.0
 10
9.3967740069
 20
7.1267477117
 30
0.0
 10
9.3991278377
 20
7.1262320728
 30
0.0
 10
9.4014974712
 20
7.1260590471
 30
0.0
 10
9.4038672775
 20
7.1262317934
 30
0.0
 10
9.406220831
 20
7.1267494128
 30
0.0
 10
9.408545798
 20
7.1275927172
 30
0.0
 10
9.4116571921
 20
7.1291575586
 30
0.0
 10
9.4146122042
 20
7.1312865835
 30
0.0
 10
9.4174051028
 20
7.1338166248
 30
0.0
 10
9.4194931756
 20
7.1359670046
 30
0.0
 10
9.4215283829
 20
7.1383079373
 30
0.0
 10
9.4242093957
 20
7.1417041577
 30
0.0
 10
9.4274135032
 20
7.1463245894
 30
0.0
 10
9.4310279467
 20
7.1522756462
 30
0.0
 10
9.4332933618
 20
7.1564366628
 30
0.0
 10
9.4344063638
 20
7.1585742547
 30
0.0
  0
SPLINE
  5
35B
100
AcDbEntity
  8
0
100
AcDbSpline
 62
9
  6
CONTINUOUS
 70
0
 71
3
 72
32
 73
28
 74
0
 42
0.0000001
 43
0.0000001
 44
0.0000000001
 40
0.0
 40
0.0
 40
0.0
 40
0.0
 40
0.0749314078
 40
0.1472491078
 40
0.2163828558
 40
0.249573452
 40
0.2817354112
 40
0.3127930414
 40
0.3426938912
 40
0.3713994477
 40
0.3989259743
 40
0.4253511229
 40
0.4508332195
 40
0.4756186701
 40
0.5000313792
 40
0.5244442798
 40
0.5492307004
 40
0.5747135377
 40
0.6011350047
 40
0.6573076188
 40
0.6872126502
 40
0.7182697877
 40
0.750426188
 40
0.7836133757
 40
0.8527534477
 40
0.9250723083
 40
1.0
 40
1.0
 40
1.0
 40
1.0
 10
9.773888322
 20
7.1585742547
 30
0.0
 10
9.7750014823
 20
7.156436613
 30
0.0
 10
9.7772663706
 20
7.1522752208
 30
0.0
 10
9.7808806495
 20
7.1463241131
 30
0.0
 10
9.7840859538
 20
7.141704625
 30
0.0
 10
9.786766578
 20
7.138308059
 30
0.0
 10
9.7888014387
 20
7.1359663257
 30
0.0
 10
9.7908890515
 20
7.1338161216
 30
0.0
 10
9.7930291097
 20
7.1318793889
 30
0.0
 10
9.7952207527
 20
7.1301796164
 30
0.0
 10
9.7974622895
 20
7.1287424553
 30
0.0
 10
9.7997486283
 20
7.127590392
 30
0.0
 10
9.8020738778
 20
7.1267476912
 30
0.0
 10
9.8044276743
 20
7.1262317098
 30
0.0
 10
9.8067973678
 20
7.1260590725
 30
0.0
 10
9.8091670941
 20
7.1262321605
 30
0.0
 10
9.8115207051
 20
7.1267491807
 30
0.0
 10
9.8138458399
 20
7.1275920704
 30
0.0
 10
9.816957026
 20
7.1291575723
 30
0.0
 10
9.8199118153
 20
7.1312869482
 30
0.0
 10
9.8227049499
 20
7.1338167526
 30
0.0
 10
9.8247930798
 20
7.1359669625
 30
0.0
 10
9.8268283183
 20
7.1383077996
 30
0.0
 10
9.8295093544
 20
7.1417040149
 30
0.0
 10
9.8327133724
 20
7.146324554
 30
0.0
 10
9.8363278124
 20
7.1522756497
 30
0.0
 10
9.8385932571
 20
7.1564366621
 30
0.0
 10
9.8397062527
 20
7.1585742547
 30
0.0
  0
SPLINE
  5
35C
100
AcDbEntity
  8
0
100
AcDbSpline
 62
9
  6
CONTINUOUS
 70
0
 71
3
 72
16
 73
12
 74
0
 42
0.0000001
 43
0.0000001
 44
0.0000000001
 40
0.0
 40
0.0
 40
0.0
 40
0.0
 40
0.1250004828
 40
0.2500145922
 40
0.3750170793
 40
0.5000223738
 40
0.6250204247
 40
0.7500082873
 40
0.8125233682
 40
0.8750423853
 40
1.0
 40
1.0
 40
1.0
 40
1.0
 10
9.5383294122
 20
7.1585742547
 30
0.0
 10
9.5405898031
 20
7.1564038261
 30
0.0
 10
9.5452114847
 20
7.1521656025
 30
0.0
 10
9.5524808294
 20
7.1461951869
 30
0.0
 10
9.5601248295
 20
7.1407081342
 30
0.0
 10
9.5681753148
 20
7.1358306976
 30
0.0
 10
9.5766484592
 20
7.1317231034
 30
0.0
 10
9.5840501781
 20
7.1290940353
 30
0.0
 10
9.5901350161
 20
7.1275714696
 30
0.0
 10
9.596306503
 20
7.1264624679
 30
0.0
 10
9.6010147094
 20
7.1261143791
 30
0.0
 10
9.6041473429
 20
7.1261143612
 30
0.0
  0
SPLINE
  5
35D
100
AcDbEntity
  8
0
100
AcDbSpline
 62
9
  6
CONTINUOUS
 70
0
 71
3
 72
17
 73
13
 74
0
 42
0.0000001
 43
0.0000001
 44
0.0000000001
 40
0.0
 40
0.0
 40
0.0
 40
0.0
 40
0.1249504207
 40
0.1874655525
 40
0.2499765809
 40
0.3124949317
 40
0.3750127074
 40
0.5000037878
 40
0.6250025178
 40
0.7499983565
 40
0.875005978
 40
1.0
 40
1.0
 40
1.0
 40
1.0
 10
9.6041473429
 20
7.1261143612
 30
0.0
 10
9.607279965
 20
7.1261143668
 30
0.0
 10
9.6119880921
 20
7.1264636539
 30
0.0
 10
9.6181595177
 20
7.127571792
 30
0.0
 10
9.6227245876
 20
7.1287136459
 30
0.0
 10
9.6272062184
 20
7.1301459796
 30
0.0
 10
9.6330561385
 20
7.1324064941
 30
0.0
 10
9.6401198695
 20
7.1358308579
 30
0.0
 10
9.6481695282
 20
7.1407082406
 30
0.0
 10
9.6558137903
 20
7.146195269
 30
0.0
 10
9.6630831947
 20
7.1521655613
 30
0.0
 10
9.6677048772
 20
7.1564038218
 30
0.0
 10
9.6699652736
 20
7.1585742547
 30
0.0
  0
LINE
  5
35E
100
AcDbEntity
  8
0
100
AcDbLine
 62
9
  6
CONTINUOUS
 10
12.5809296307
 20
7.6932488095
 11
12.5817923029
 21
7.6751659601
  0
SPLINE
  5
35F
100
AcDbEntity
  8
0
100
AcDbSpline
 62
9
  6
CONTINUOUS
 70
0
 71
3
 72
15
 73
11
 74
0
 42
0.0000001
 43
0.0000001
 44
0.0000000001
 40
0.0
 40
0.0
 40
0.0
 40
0.0
 40
0.1249995724
 40
0.2500000696
 40
0.3749998273
 40
0.5000000001
 40
0.6250001728
 40
0.74999993
 40
0.8750004272
 40
1.0
 40
1.0
 40
1.0
 40
1.0
 10
11.4456510007
 20
4.6617857234
 30
0.0
 10
11.4687230352
 20
4.6587451967
 30
0.0
 10
11.5149775515
 20
4.6534725245
 30
0.0
 10
11.5845813469
 20
4.6478977196
 30
0.0
 10
11.6543296523
 20
4.6445838588
 30
0.0
 10
11.7241473429
 20
4.6434845183
 30
0.0
 10
11.7939650335
 20
4.6445838594
 30
0.0
 10
11.8637133389
 20
4.6478977192
 30
0.0
 10
11.9333171342
 20
4.6534725244
 30
0.0
 10
11.9795716505
 20
4.6587451966
 30
0.0
 10
12.0026436851
 20
4.6617857234
 30
0.0
  0
SPLINE
  5
360
100
AcDbEntity
  8
0
100
AcDbSpline
 62
9
  6
CONTINUOUS
 70
0
 71
3
 72
9
 73
5
 74
0
 42
0.0000001
 43
0.0000001
 44
0.0000000001
 40
0.0
 40
0.0
 40
0.0
 40
0.0
 40
0.5060257174
 40
1.0
 40
1.0
 40
1.0
 40
1.0
 10
12.0026436851
 20
4.6617857234
 30
0.0
 10
12.0057307262
 20
4.6621925446
 30
0.0
 10
12.011857508
 20
4.6628094939
 30
0.0
 10
12.018012209
 20
4.6630303052
 30
0.0
 10
12.0210517847
 20
4.6630303075
 30
0.0
  0
SPLINE
  5
361
100
AcDbEntity
  8
0
100
AcDbSpline
 62
9
  6
CONTINUOUS
 70
0
 71
3
 72
9
 73
5
 74
0
 42
0.0000001
 43
0.0000001
 44
0.0000000001
 40
0.0
 40
0.0
 40
0.0
 40
0.0
 40
0.4939731433
 40
1.0
 40
1.0
 40
1.0
 40
1.0
 10
12.0245886838
 20
4.8701319825
 30
0.0
 10
12.020576744
 20
4.870131983
 30
0.0
 10
12.0124539426
 20
4.8703486878
 30
0.0
 10
12.0043515935
 20
4.8709561904
 30
0.0
 10
12.0002614497
 20
4.871358046
 30
0.0
  0
SPLINE
  5
362
100
AcDbEntity
  8
0
100
AcDbSpline
 62
9
  6
CONTINUOUS
 70
0
 71
3
 72
14
 73
10
 74
0
 42
0.0000001
 43
0.0000001
 44
0.0000000001
 40
0.0
 40
0.0
 40
0.0
 40
0.0
 40
0.1171561602
 40
0.2362150713
 40
0.3575170823
 40
0.4813517246
 40
0.607763087
 40
0.7366142908
 40
1.0
 40
1.0
 40
1.0
 40
1.0
 10
10.6375844645
 20
7.0510079995
 30
0.0
 10
10.6371553268
 20
7.0516426966
 30
0.0
 10
10.6361907021
 20
7.0528580177
 30
0.0
 10
10.6344779434
 20
7.0544609398
 30
0.0
 10
10.6325189062
 20
7.0558292816
 30
0.0
 10
10.6303495609
 20
7.0569394802
 30
0.0
 10
10.6280068558
 20
7.0577726091
 30
0.0
 10
10.6246878045
 20
7.0585010637
 30
0.0
 10
10.6220923909
 20
7.0585862887
 30
0.0
 10
10.6203755369
 20
7.058447587
 30
0.0
  0
SPLINE
  5
363
100
AcDbEntity
  8
0
100
AcDbSpline
 62
9
  6
CONTINUOUS
 70
0
 71
3
 72
12
 73
8
 74
0
 42
0.0000001
 43
0.0000001
 44
0.0000000001
 40
0.0
 40
0.0
 40
0.0
 40
0.0
 40
0.2449438403
 40
0.369924767
 40
0.4959368044
 40
0.7488135279
 40
1.0
 40
1.0
 40
1.0
 40
1.0
 10
10.3743690335
 20
6.8879304532
 30
0.0
 10
10.3752840332
 20
6.889150477
 30
0.0
 10
10.3768785745
 20
6.8908442184
 30
0.0
 10
10.3793193866
 20
6.8927410913
 30
0.0
 10
10.3819836502
 20
6.8944069756
 30
0.0
 10
10.3856089234
 20
6.8959749473
 30
0.0
 10
10.388704308
 20
6.8966273397
 30
0.0
 10
10.3902597623
 20
6.8967895116
 30
0.0
  0
SPLINE
  5
364
100
AcDbEntity
  8
0
100
AcDbSpline
 62
9
  6
CONTINUOUS
 70
0
 71
3
 72
11
 73
7
 74
0
 42
0.0000001
 43
0.0000001
 44
0.0000000001
 40
0.0
 40
0.0
 40
0.0
 40
0.0
 40
0.2417362086
 40
0.4915143536
 40
0.7457924552
 40
1.0
 40
1.0
 40
1.0
 40
1.0
 10
10.6375844645
 20
6.8865693635
 30
0.0
 10
10.6367160455
 20
6.8879940759
 30
0.0
 10
10.6345556154
 20
6.8906647007
 30
0.0
 10
10.6304182939
 20
6.8938024571
 30
0.0
 10
10.6256019209
 20
6.8959581084
 30
0.0
 10
10.6221244382
 20
6.8966482203
 30
0.0
 10
10.6203755369
 20
6.8967895116
 30
0.0
  0
SPLINE
  5
365
100
AcDbEntity
  8
0
100
AcDbSpline
 62
9
  6
CONTINUOUS
 70
0
 71
3
 72
11
 73
7
 74
0
 42
0.0000001
 43
0.0000001
 44
0.0000000001
 40
0.0
 40
0.0
 40
0.0
 40
0.0
 40
0.2417362232
 40
0.4915143666
 40
0.7457924579
 40
1.0
 40
1.0
 40
1.0
 40
1.0
 10
10.6375844645
 20
6.0467577586
 30
0.0
 10
10.6367160457
 20
6.045333046
 30
0.0
 10
10.6345556158
 20
6.0426624207
 30
0.0
 10
10.6304182945
 20
6.0395246637
 30
0.0
 10
10.6256019212
 20
6.0373690125
 30
0.0
 10
10.6221244383
 20
6.0366789013
 30
0.0
 10
10.6203755369
 20
6.0365376105
 30
0.0
  0
SPLINE
  5
366
100
AcDbEntity
  8
0
100
AcDbSpline
 62
9
  6
CONTINUOUS
 70
0
 71
3
 72
9
 73
5
 74
0
 42
0.0000001
 43
0.0000001
 44
0.0000000001
 40
0.0
 40
0.0
 40
0.0
 40
0.0
 40
0.5060269065
 40
1.0
 40
1.0
 40
1.0
 40
1.0
 10
12.0002614497
 20
4.6799690761
 30
0.0
 10
12.0043515929
 20
4.6803709422
 30
0.0
 10
12.0124539435
 20
4.6809784291
 30
0.0
 10
12.0205767444
 20
4.6811951389
 30
0.0
 10
12.0245886838
 20
4.6811951396
 30
0.0
  0
SPLINE
  5
367
100
AcDbEntity
  8
0
100
AcDbSpline
 62
9
  6
CONTINUOUS
 70
0
 71
3
 72
11
 73
7
 74
0
 42
0.0000001
 43
0.0000001
 44
0.0000000001
 40
0.0
 40
0.0
 40
0.0
 40
0.0
 40
0.2145539168
 40
0.4533547491
 40
0.7155764626
 40
1.0
 40
1.0
 40
1.0
 40
1.0
 10
12.4044842961
 20
4.871358046
 30
0.0
 10
12.403395536
 20
4.8711440998
 30
0.0
 10
12.4010780352
 20
4.8707767912
 30
0.0
 10
12.3973949919
 20
4.8704020495
 30
0.0
 10
12.3933379664
 20
4.8701778639
 30
0.0
 10
12.3905106193
 20
4.8701319829
 30
0.0
 10
12.3890397017
 20
4.8701319825
 30
0.0
  0
SPLINE
  5
368
100
AcDbEntity
  8
0
100
AcDbSpline
 62
9
  6
CONTINUOUS
 70
0
 71
3
 72
27
 73
23
 74
0
 42
0.0000001
 43
0.0000001
 44
0.0000000001
 40
0.0
 40
0.0
 40
0.0
 40
0.0
 40
0.2265209506
 40
0.426487568
 40
0.5984878352
 40
0.6736058654
 40
0.7412681962
 40
0.801328527
 40
0.8536624498
 40
0.8981540233
 40
0.9346985975
 40
0.9499657615
 40
0.9632168316
 40
0.9744422948
 40
0.9836343806
 40
0.9907893579
 40
0.9936019424
 40
0.9959040635
 40
0.9976953255
 40
0.9989753328
 40
0.9997436896
 40
1.0
 40
1.0
 40
1.0
 40
1.0
 10
10.6375844645
 20
5.8823191227
 30
0.0
 10
10.6365531534
 20
5.879211063
 30
0.0
 10
10.6345754593
 20
5.8733711499
 30
0.0
 10
10.6317048253
 20
5.8652090504
 30
0.0
 10
10.6294976209
 20
5.8591342181
 30
0.0
 10
10.6279141901
 20
5.8548679555
 30
0.0
 10
10.6268827039
 20
5.85212299
 30
0.0
 10
10.6259584312
 20
5.8496896227
 30
0.0
 10
10.625146282
 20
5.8475719982
 30
0.0
 10
10.6244508322
 20
5.8457737264
 30
0.0
 10
10.6239457875
 20
5.8444763545
 30
0.0
 10
10.623603205
 20
5.8436003823
 30
0.0
 10
10.6233934733
 20
5.8430654757
 30
0.0
 10
10.6232154917
 20
5.842612454
 30
0.0
 10
10.6230695606
 20
5.8422415265
 30
0.0
 10
10.6229680643
 20
5.8419838104
 30
0.0
 10
10.6229029649
 20
5.8418188135
 30
0.0
 10
10.6228663812
 20
5.8417259188
 30
0.0
 10
10.6228376917
 20
5.841653738
 30
0.0
 10
10.6228176561
 20
5.8416019538
 30
0.0
 10
10.6228047705
 20
5.8415712515
 30
0.0
 10
10.6227999793
 20
5.8415571858
 30
0.0
 10
10.6227983451
 20
5.8415538603
 30
0.0
  0
SPLINE
  5
369
100
AcDbEntity
  8
0
100
AcDbSpline
 62
9
  6
CONTINUOUS
 70
0
 71
3
 72
16
 73
12
 74
0
 42
0.0000001
 43
0.0000001
 44
0.0000000001
 40
0.0
 40
0.0
 40
0.0
 40
0.0
 40
0.0624555841
 40
0.1244089815
 40
0.2474193713
 40
0.3701172336
 40
0.493221578
 40
0.6172551719
 40
0.7426762407
 40
0.8700120746
 40
1.0
 40
1.0
 40
1.0
 40
1.0
 10
10.6375844645
 20
6.0467577586
 30
0.0
 10
10.6387335565
 20
6.0434739831
 30
0.0
 10
10.6408502026
 20
6.0368711134
 30
0.0
 10
10.6443985415
 20
6.0235489538
 30
0.0
 10
10.647650826
 20
6.0066976903
 30
0.0
 10
10.6498854346
 20
5.9862557241
 30
0.0
 10
10.6506082266
 20
5.9656493763
 30
0.0
 10
10.6498746094
 20
5.9448924409
 30
0.0
 10
10.6476306965
 20
5.9240044015
 30
0.0
 10
10.6437160749
 20
5.9030241086
 30
0.0
 10
10.6398648452
 20
5.8891915035
 30
0.0
 10
10.6375844645
 20
5.8823191227
 30
0.0
  0
SPLINE
  5
36A
100
AcDbEntity
  8
0
100
AcDbSpline
 62
9
  6
CONTINUOUS
 70
0
 71
3
 72
21
 73
17
 74
0
 42
0.0000001
 43
0.0000001
 44
0.0000000001
 40
0.0
 40
0.0
 40
0.0
 40
0.0
 40
0.1507329454
 40
0.2990999797
 40
0.3715516998
 40
0.4423922514
 40
0.5112889715
 40
0.5779225815
 40
0.6419958453
 40
0.7032380687
 40
0.7614089608
 40
0.816300637
 40
0.8677370257
 40
0.9155718667
 40
0.9596928396
 40
1.0
 40
1.0
 40
1.0
 40
1.0
 10
10.6375844645
 20
6.3022249251
 30
0.0
 10
10.6354092912
 20
6.2894529088
 30
0.0
 10
10.6313813028
 20
6.2640586603
 30
0.0
 10
10.6273878965
 20
6.2323651216
 30
0.0
 10
10.6250442333
 20
6.2074040405
 30
0.0
 10
10.623765577
 20
6.1892087998
 30
0.0
 10
10.622981685
 20
6.1714857904
 30
0.0
 10
10.6227116673
 20
6.1543289082
 30
0.0
 10
10.6229614876
 20
6.1378294098
 30
0.0
 10
10.6237248287
 20
6.1220735993
 30
0.0
 10
10.6249833195
 20
6.1071411576
 30
0.0
 10
10.6267076876
 20
6.0931038508
 30
0.0
 10
10.6288592239
 20
6.0800249973
 30
0.0
 10
10.6313912645
 20
6.0679584829
 30
0.0
 10
10.6342516506
 20
6.0569514076
 30
0.0
 10
10.6364401452
 20
6.0500278323
 30
0.0
 10
10.6375844645
 20
6.0467577586
 30
0.0
  0
SPLINE
  5
36B
100
AcDbEntity
  8
0
100
AcDbSpline
 62
9
  6
CONTINUOUS
 70
0
 71
3
 72
15
 73
11
 74
0
 42
0.0000001
 43
0.0000001
 44
0.0000000001
 40
0.0
 40
0.0
 40
0.0
 40
0.0
 40
0.1249929358
 40
0.2499914319
 40
0.374994557
 40
0.5000000063
 40
0.6250054548
 40
0.7500085796
 40
0.8750070732
 40
1.0
 40
1.0
 40
1.0
 40
1.0
 10
10.6375844645
 20
6.631102197
 30
0.0
 10
10.6398945244
 20
6.6175389065
 30
0.0
 10
10.6437638209
 20
6.5902799513
 30
0.0
 10
10.6476528541
 20
6.5491743043
 30
0.0
 10
10.6498821351
 20
6.507945425
 30
0.0
 10
10.6506075708
 20
6.4666635589
 30
0.0
 10
10.6498821114
 20
6.4253816938
 30
0.0
 10
10.6476528559
 20
6.384152814
 30
0.0
 10
10.64376384
 20
6.3430471658
 30
0.0
 10
10.6398945209
 20
6.3157882153
 30
0.0
 10
10.6375844645
 20
6.3022249251
 30
0.0
  0
SPLINE
  5
36C
100
AcDbEntity
  8
0
100
AcDbSpline
 62
9
  6
CONTINUOUS
 70
0
 71
3
 72
20
 73
16
 74
0
 42
0.0000001
 43
0.0000001
 44
0.0000000001
 40
0.0
 40
0.0
 40
0.0
 40
0.0
 40
0.0403098038
 40
0.0844305662
 40
0.1322635666
 40
0.1837008867
 40
0.2385940167
 40
0.2967651135
 40
0.3580071905
 40
0.422081336
 40
0.4887158133
 40
0.5576127677
 40
0.7008968105
 40
0.8492652516
 40
1.0
 40
1.0
 40
1.0
 40
1.0
 10
10.6375844645
 20
6.8865693635
 30
0.0
 10
10.6364401923
 20
6.8832990696
 30
0.0
 10
10.6342525236
 20
6.8763750916
 30
0.0
 10
10.6313917644
 20
6.8653682126
 30
0.0
 10
10.6288588556
 20
6.8533020917
 30
0.0
 10
10.6267076886
 20
6.8402232524
 30
0.0
 10
10.6249837007
 20
6.8261858261
 30
0.0
 10
10.6237249949
 20
6.8112534305
 30
0.0
 10
10.6229613147
 20
6.795497708
 30
0.0
 10
10.6227116849
 20
6.7789982436
 30
0.0
 10
10.6229818078
 20
6.7618413231
 30
0.0
 10
10.6240406472
 20
6.7378972918
 30
0.0
 10
10.626627651
 20
6.7070025168
 30
0.0
 10
10.6313803728
 20
6.669268833
 30
0.0
 10
10.6354091547
 20
6.6438742146
 30
0.0
 10
10.6375844645
 20
6.631102197
 30
0.0
  0
SPLINE
  5
36D
100
AcDbEntity
  8
0
100
AcDbSpline
 62
9
  6
CONTINUOUS
 70
0
 71
3
 72
16
 73
12
 74
0
 42
0.0000001
 43
0.0000001
 44
0.0000000001
 40
0.0
 40
0.0
 40
0.0
 40
0.0
 40
0.1299880395
 40
0.2573240019
 40
0.3827452002
 40
0.50677808
 40
0.6298817893
 40
0.7525796879
 40
0.8755904127
 40
0.9375442572
 40
1.0
 40
1.0
 40
1.0
 40
1.0
 10
10.6375844645
 20
7.0510079995
 30
0.0
 10
10.6398648304
 20
7.044135608
 30
0.0
 10
10.6437160991
 20
7.0303030028
 30
0.0
 10
10.6476307129
 20
7.0093226894
 30
0.0
 10
10.6498746597
 20
6.9884346815
 30
0.0
 10
10.6506081971
 20
6.9676778113
 30
0.0
 10
10.6498853223
 20
6.947071545
 30
0.0
 10
10.6476507394
 20
6.9266295929
 30
0.0
 10
10.6443984314
 20
6.9097782932
 30
0.0
 10
10.6408502139
 20
6.8964560501
 30
0.0
 10
10.6387335806
 20
6.8898531395
 30
0.0
 10
10.6375844645
 20
6.8865693635
 30
0.0
  0
SPLINE
  5
36E
100
AcDbEntity
  8
0
100
AcDbSpline
 62
9
  6
CONTINUOUS
 70
0
 71
3
 72
26
 73
22
 74
0
 42
0.0000001
 43
0.0000001
 44
0.0000000001
 40
0.0
 40
0.0
 40
0.0
 40
0.0
 40
0.0002573575
 40
0.0010274748
 40
0.0023097754
 40
0.0041036827
 40
0.0092240119
 40
0.016383853
 40
0.0255785981
 40
0.0368032924
 40
0.0500506404
 40
0.0653123903
 40
0.1018461152
 40
0.1463337833
 40
0.1986697179
 40
0.2587330134
 40
0.3263958412
 40
0.4015128471
 40
0.5735120592
 40
0.7734790526
 40
1.0
 40
1.0
 40
1.0
 40
1.0
 10
10.6227983451
 20
7.0917732619
 30
0.0
 10
10.622799903
 20
7.0917698833
 30
0.0
 10
10.6228049229
 20
7.0917558805
 30
0.0
 10
10.6228176511
 20
7.091725021
 30
0.0
 10
10.6228378601
 20
7.0916732103
 30
0.0
 10
10.6228815695
 20
7.0915630784
 30
0.0
 10
10.6229561666
 20
7.0913737813
 30
0.0
 10
10.6230700569
 20
7.0910849765
 30
0.0
 10
10.6232160254
 20
7.0907139576
 30
0.0
 10
10.6233939979
 20
7.0902609612
 30
0.0
 10
10.6236036312
 20
7.0897261696
 30
0.0
 10
10.6239460238
 20
7.0888504334
 30
0.0
 10
10.6244508465
 20
7.0875532879
 30
0.0
 10
10.6251462036
 20
7.0857551779
 30
0.0
 10
10.6259583911
 20
7.0836375515
 30
0.0
 10
10.6268827322
 20
7.0812041254
 30
0.0
 10
10.627914231
 20
7.078459127
 30
0.0
 10
10.6294976318
 20
7.0741928775
 30
0.0
 10
10.6317048213
 20
7.0681180659
 30
0.0
 10
10.6345754597
 20
7.0599559783
 30
0.0
 10
10.6365531527
 20
7.054116059
 30
0.0
 10
10.6375844645
 20
7.0510079995
 30
0.0
  0
SPLINE
  5
36F
100
AcDbEntity
  8
0
100
AcDbSpline
 62
9
  6
CONTINUOUS
 70
0
 71
3
 72
11
 73
7
 74
0
 42
0.0000001
 43
0.0000001
 44
0.0000000001
 40
0.0
 40
0.0
 40
0.0
 40
0.0
 40
0.2844235656
 40
0.5466453075
 40
0.785446117
 40
1.0
 40
1.0
 40
1.0
 40
1.0
 10
12.3890397017
 20
4.6811951396
 30
0.0
 10
12.3905106195
 20
4.6811951394
 30
0.0
 10
12.3933379668
 20
4.6811492586
 30
0.0
 10
12.3973949925
 20
4.6809250736
 30
0.0
 10
12.4010780354
 20
4.6805503279
 30
0.0
 10
12.4033955351
 20
4.6801830169
 30
0.0
 10
12.4044842961
 20
4.6799690761
 30
0.0
  0
SPLINE
  5
370
100
AcDbEntity
  8
0
100
AcDbSpline
 62
9
  6
CONTINUOUS
 70
0
 71
3
 72
14
 73
10
 74
0
 42
0.0000001
 43
0.0000001
 44
0.0000000001
 40
0.0
 40
0.0
 40
0.0
 40
0.0
 40
0.1171561834
 40
0.2362151112
 40
0.3575171317
 40
0.4813517757
 40
0.6077631325
 40
0.7366143247
 40
1.0
 40
1.0
 40
1.0
 40
1.0
 10
10.6375844645
 20
5.8823191227
 30
0.0
 10
10.6371553267
 20
5.8816844253
 30
0.0
 10
10.636190702
 20
5.880469104
 30
0.0
 10
10.6344779431
 20
5.8788661813
 30
0.0
 10
10.6325189058
 20
5.8774978392
 30
0.0
 10
10.6303495605
 20
5.8763876404
 30
0.0
 10
10.6280068553
 20
5.8755545116
 30
0.0
 10
10.6246878041
 20
5.8748260573
 30
0.0
 10
10.6220923907
 20
5.8747408328
 30
0.0
 10
10.6203755369
 20
5.8748795352
 30
0.0
  0
SPLINE
  5
371
100
AcDbEntity
  8
0
100
AcDbSpline
 62
9
  6
CONTINUOUS
 70
0
 71
3
 72
13
 73
9
 74
0
 42
0.0000001
 43
0.0000001
 44
0.0000000001
 40
0.0
 40
0.0
 40
0.0
 40
0.0
 40
0.1230360253
 40
0.2465839844
 40
0.3706789869
 40
0.4954373207
 40
0.7464923809
 40
1.0
 40
1.0
 40
1.0
 40
1.0
 10
10.3841473429
 20
7.0797246421
 30
0.0
 10
10.3845968734
 20
7.0803829539
 30
0.0
 10
10.385584612
 20
7.0816453226
 30
0.0
 10
10.3872990464
 20
7.0833359852
 30
0.0
 10
10.389223951
 20
7.0848019564
 30
0.0
 10
10.3920330482
 20
7.0864289101
 30
0.0
 10
10.395921353
 20
7.0877939809
 30
0.0
 10
10.3992130247
 20
7.0881002763
 30
0.0
 10
10.4008549316
 20
7.08805689
 30
0.0
  0
SPLINE
  5
372
100
AcDbEntity
  8
0
100
AcDbSpline
 62
9
  6
CONTINUOUS
 70
0
 71
3
 72
13
 73
9
 74
0
 42
0.0000001
 43
0.0000001
 44
0.0000000001
 40
0.0
 40
0.0
 40
0.0
 40
0.0
 40
0.1174378016
 40
0.2368132879
 40
0.358324629
 40
0.4822247933
 40
0.7368328945
 40
1.0
 40
1.0
 40
1.0
 40
1.0
 10
10.3743690335
 20
5.8804250189
 30
0.0
 10
10.37482287
 20
5.8799145295
 30
0.0
 10
10.3758097119
 20
5.8789466522
 30
0.0
 10
10.3774806147
 20
5.877691806
 30
0.0
 10
10.3793304952
 20
5.876641015
 30
0.0
 10
10.3820216322
 20
5.8755220683
 30
0.0
 10
10.385700159
 20
5.8747136109
 30
0.0
 10
10.3887373475
 20
5.874720808
 30
0.0
 10
10.3902597623
 20
5.8748795352
 30
0.0
  0
SPLINE
  5
373
100
AcDbEntity
  8
0
100
AcDbSpline
 62
9
  6
CONTINUOUS
 70
0
 71
3
 72
12
 73
8
 74
0
 42
0.0000001
 43
0.0000001
 44
0.0000000001
 40
0.0
 40
0.0
 40
0.0
 40
0.0
 40
0.2301663161
 40
0.3519795729
 40
0.4775084789
 40
0.7363755309
 40
1.0
 40
1.0
 40
1.0
 40
1.0
 10
10.3841473429
 20
6.0899025104
 30
0.0
 10
10.3850811778
 20
6.0887995213
 30
0.0
 10
10.3867365228
 20
6.0872957438
 30
0.0
 10
10.3892485038
 20
6.0856538618
 30
0.0
 10
10.3920754364
 20
6.0841892778
 30
0.0
 10
10.3959427701
 20
6.0828493701
 30
0.0
 10
10.39920333
 20
6.0823380028
 30
0.0
 10
10.4008549316
 20
6.0822275118
 30
0.0
  0
SPLINE
  5
374
100
AcDbEntity
  8
0
100
AcDbSpline
 62
9
  6
CONTINUOUS
 70
0
 71
3
 72
14
 73
10
 74
0
 42
0.0000001
 43
0.0000001
 44
0.0000000001
 40
0.0
 40
0.0
 40
0.0
 40
0.0
 40
0.0901338806
 40
0.193250577
 40
0.3081078063
 40
0.4332530971
 40
0.5669670299
 40
0.7073459878
 40
1.0
 40
1.0
 40
1.0
 40
1.0
 10
10.3841473429
 20
6.7029635914
 30
0.0
 10
10.3846328493
 20
6.7031011372
 30
0.0
 10
10.385688629
 20
6.703344027
 30
0.0
 10
10.3873930705
 20
6.7036148459
 30
0.0
 10
10.3893046367
 20
6.7038126699
 30
0.0
 10
10.391393932
 20
6.7039342086
 30
0.0
 10
10.3936291834
 20
6.7039772069
 30
0.0
 10
10.3968021561
 20
6.7039279149
 30
0.0
 10
10.3992235984
 20
6.7037730827
 30
0.0
 10
10.4008549316
 20
6.7036208408
 30
0.0
  0
SPLINE
  5
375
100
AcDbEntity
  8
0
100
AcDbSpline
 62
9
  6
CONTINUOUS
 70
0
 71
3
 72
27
 73
23
 74
0
 42
0.0000001
 43
0.0000001
 44
0.0000000001
 40
0.0
 40
0.0
 40
0.0
 40
0.0
 40
0.227477361
 40
0.4278557763
 40
0.5998634594
 40
0.674877482
 40
0.7423877784
 40
0.8022659797
 40
0.8544038942
 40
0.8987004218
 40
0.9350652165
 40
0.9502517812
 40
0.9634302177
 40
0.9745923464
 40
0.9837315878
 40
0.9908447446
 40
0.9936406756
 40
0.9959290466
 40
0.9977095111
 40
0.9989817226
 40
0.9997453344
 40
1.0
 40
1.0
 40
1.0
 40
1.0
 10
10.6203755369
 20
5.8748795352
 30
0.0
 10
10.6194156385
 20
5.8717042604
 30
0.0
 10
10.6175759391
 20
5.8657422626
 30
0.0
 10
10.6149057308
 20
5.8574120991
 30
0.0
 10
10.6128544092
 20
5.8512186506
 30
0.0
 10
10.6113843033
 20
5.8468739506
 30
0.0
 10
10.6104276971
 20
5.8440817242
 30
0.0
 10
10.6095710123
 20
5.8416079083
 30
0.0
 10
10.6088186246
 20
5.8394562252
 30
0.0
 10
10.6081746465
 20
5.8376298855
 30
0.0
 10
10.6077071199
 20
5.8363126923
 30
0.0
 10
10.6073900756
 20
5.8354236056
 30
0.0
 10
10.6071960327
 20
5.8348808438
 30
0.0
 10
10.607031387
 20
5.8344212235
 30
0.0
 10
10.6068964039
 20
5.8340449288
 30
0.0
 10
10.6068025268
 20
5.8337834997
 30
0.0
 10
10.6067423172
 20
5.8336161317
 30
0.0
 10
10.6067084844
 20
5.8335219142
 30
0.0
 10
10.6066819512
 20
5.8334486933
 30
0.0
 10
10.606663427
 20
5.8333962
 30
0.0
 10
10.6066515058
 20
5.8333650175
 30
0.0
 10
10.6066470821
 20
5.8333508017
 30
0.0
 10
10.6066455689
 20
5.8333474103
 30
0.0
  0
LINE
  5
376
100
AcDbEntity
  8
0
100
AcDbLine
 62
9
  6
CONTINUOUS
 10
10.4008549316
 20
7.08805689
 11
10.4048521765
 21
7.0999797118
  0
SPLINE
  5
377
100
AcDbEntity
  8
0
100
AcDbSpline
 62
9
  6
CONTINUOUS
 70
0
 71
3
 72
11
 73
7
 74
0
 42
0.0000001
 43
0.0000001
 44
0.0000000001
 40
0.0
 40
0.0
 40
0.0
 40
0.0
 40
0.2523221914
 40
0.503739907
 40
0.7532904429
 40
1.0
 40
1.0
 40
1.0
 40
1.0
 10
10.3902597623
 20
6.6283216364
 30
0.0
 10
10.3914847386
 20
6.6346013546
 30
0.0
 10
10.393740279
 20
6.6471759927
 30
0.0
 10
10.3966020484
 20
6.6660634265
 30
0.0
 10
10.3989807229
 20
6.6848740464
 30
0.0
 10
10.4002770533
 20
6.6973918272
 30
0.0
 10
10.4008549316
 20
6.7036208408
 30
0.0
  0
SPLINE
  5
378
100
AcDbEntity
  8
0
100
AcDbSpline
 62
9
  6
CONTINUOUS
 70
0
 71
3
 72
20
 73
16
 74
0
 42
0.0000001
 43
0.0000001
 44
0.0000000001
 40
0.0
 40
0.0
 40
0.0
 40
0.0
 40
0.0408334336
 40
0.0854295272
 40
0.1336690084
 40
0.1854226905
 40
0.24053337
 40
0.2988195136
 40
0.3600736283
 40
0.4240622384
 40
0.4905271922
 40
0.5591884291
 40
0.7018904378
 40
0.849678399
 40
1.0
 40
1.0
 40
1.0
 40
1.0
 10
10.6203755369
 20
6.8967895116
 30
0.0
 10
10.6193105194
 20
6.8932662252
 30
0.0
 10
10.6172752075
 20
6.8858358421
 30
0.0
 10
10.6146149725
 20
6.8740807304
 30
0.0
 10
10.6122627897
 20
6.8612578887
 30
0.0
 10
10.6102668923
 20
6.8474168058
 30
0.0
 10
10.6086691842
 20
6.8326131029
 30
0.0
 10
10.6075035461
 20
6.8169104863
 30
0.0
 10
10.6067966021
 20
6.8003797144
 30
0.0
 10
10.6065654298
 20
6.7830983846
 30
0.0
 10
10.6068150218
 20
6.7651497663
 30
0.0
 10
10.6077941427
 20
6.740123195
 30
0.0
 10
10.6101897048
 20
6.7078272182
 30
0.0
 10
10.6146028562
 20
6.6683316563
 30
0.0
 10
10.6183504274
 20
6.6417194742
 30
0.0
 10
10.6203755369
 20
6.6283216364
 30
0.0
  0
SPLINE
  5
379
100
AcDbEntity
  8
0
100
AcDbSpline
 62
9
  6
CONTINUOUS
 70
0
 71
3
 72
11
 73
7
 74
0
 42
0.0000001
 43
0.0000001
 44
0.0000000001
 40
0.0
 40
0.0
 40
0.0
 40
0.0
 40
0.2765777541
 40
0.5354262613
 40
0.7764291602
 40
1.0
 40
1.0
 40
1.0
 40
1.0
 10
10.4008549316
 20
6.8510996103
 30
0.0
 10
10.4002987307
 20
6.8553974153
 30
0.0
 10
10.3990637838
 20
6.8636984761
 30
0.0
 10
10.3967047161
 20
6.8756389978
 30
0.0
 10
10.3938629491
 20
6.8866194401
 30
0.0
 10
10.3915329746
 20
6.8935259901
 30
0.0
 10
10.3902597623
 20
6.8967895116
 30
0.0
  0
SPLINE
  5
37A
100
AcDbEntity
  8
0
100
AcDbSpline
 62
9
  6
CONTINUOUS
 70
0
 71
3
 72
15
 73
11
 74
0
 42
0.0000001
 43
0.0000001
 44
0.0000000001
 40
0.0
 40
0.0
 40
0.0
 40
0.0
 40
0.1404434863
 40
0.277753593
 40
0.4112248713
 40
0.5402265966
 40
0.6641413343
 40
0.7824016459
 40
0.8945121462
 40
1.0
 40
1.0
 40
1.0
 40
1.0
 10
10.4008549316
 20
6.7036208408
 30
0.0
 10
10.4014939199
 20
6.7105088893
 30
0.0
 10
10.4026318702
 20
6.7241434293
 30
0.0
 10
10.4038957894
 20
6.7443606438
 30
0.0
 10
10.4046705943
 20
6.7640388757
 30
0.0
 10
10.4049378902
 20
6.783070963
 30
0.0
 10
10.4046912887
 20
6.8013543059
 30
0.0
 10
10.4039372726
 20
6.8187913729
 30
0.0
 10
10.4026940256
 20
6.8352903448
 30
0.0
 10
10.4015217844
 20
6.8459467168
 30
0.0
 10
10.4008549316
 20
6.8510996103
 30
0.0
  0
SPLINE
  5
37B
100
AcDbEntity
  8
0
100
AcDbSpline
 62
9
  6
CONTINUOUS
 70
0
 71
3
 72
11
 73
7
 74
0
 42
0.0000001
 43
0.0000001
 44
0.0000000001
 40
0.0
 40
0.0
 40
0.0
 40
0.0
 40
0.2235708413
 40
0.4645737393
 40
0.7234222469
 40
1.0
 40
1.0
 40
1.0
 40
1.0
 10
10.3902597623
 20
6.0365376105
 30
0.0
 10
10.3915329749
 20
6.0398011319
 30
0.0
 10
10.3938629494
 20
6.046707682
 30
0.0
 10
10.3967047161
 20
6.0576881243
 30
0.0
 10
10.3990637836
 20
6.0696286461
 30
0.0
 10
10.4002987306
 20
6.0779297068
 30
0.0
 10
10.4008549316
 20
6.0822275118
 30
0.0
  0
SPLINE
  5
37C
100
AcDbEntity
  8
0
100
AcDbSpline
 62
9
  6
CONTINUOUS
 70
0
 71
3
 72
21
 73
17
 74
0
 42
0.0000001
 43
0.0000001
 44
0.0000000001
 40
0.0
 40
0.0
 40
0.0
 40
0.0
 40
0.1503202208
 40
0.2981068714
 40
0.37025594
 40
0.4408155115
 40
0.5094761923
 40
0.5759406269
 40
0.6399287542
 40
0.7011824031
 40
0.7594680812
 40
0.8145784197
 40
0.8663317797
 40
0.9145707754
 40
0.9591667287
 40
1.0
 40
1.0
 40
1.0
 40
1.0
 10
10.6203755369
 20
6.3050054857
 30
0.0
 10
10.6183505439
 20
6.2916076478
 30
0.0
 10
10.6146035153
 20
6.2649958109
 30
0.0
 10
10.6108955632
 20
6.2318203136
 30
0.0
 10
10.6087237042
 20
6.2057234121
 30
0.0
 10
10.6075400022
 20
6.1867056354
 30
0.0
 10
10.6068148603
 20
6.1681774133
 30
0.0
 10
10.6065654137
 20
6.1502288264
 30
0.0
 10
10.6067967991
 20
6.1329474892
 30
0.0
 10
10.6075033495
 20
6.1164167041
 30
0.0
 10
10.6086687201
 20
6.1007140508
 30
0.0
 10
10.6102667961
 20
6.0859103681
 30
0.0
 10
10.6122628349
 20
6.0720693056
 30
0.0
 10
10.6146146505
 20
6.0592463824
 30
0.0
 10
10.6172747701
 20
6.0474912091
 30
0.0
 10
10.6193104375
 20
6.0400608873
 30
0.0
 10
10.6203755369
 20
6.0365376105
 30
0.0
  0
SPLINE
  5
37D
100
AcDbEntity
  8
0
100
AcDbSpline
 62
9
  6
CONTINUOUS
 70
0
 71
3
 72
20
 73
16
 74
0
 42
0.0000001
 43
0.0000001
 44
0.0000000001
 40
0.0
 40
0.0
 40
0.0
 40
0.0
 40
0.1232956111
 40
0.2456667163
 40
0.3065638767
 40
0.3673660351
 40
0.4282053194
 40
0.4892423401
 40
0.5506510466
 40
0.6125978081
 40
0.7385704656
 40
0.8027720306
 40
0.8677802099
 40
0.9335484614
 40
1.0
 40
1.0
 40
1.0
 40
1.0
 10
10.3743690335
 20
5.8804250189
 30
0.0
 10
10.3717936438
 20
5.8869078881
 30
0.0
 10
10.3669553174
 20
5.8999461966
 30
0.0
 10
10.362121471
 20
5.9166291286
 30
0.0
 10
10.3592815588
 20
5.930148801
 30
0.0
 10
10.3577159272
 20
5.9403627577
 30
0.0
 10
10.3567610537
 20
5.9506603253
 30
0.0
 10
10.3564386831
 20
5.9610316726
 30
0.0
 10
10.3567655232
 20
5.9714656779
 30
0.0
 10
10.3580504733
 20
5.9855203585
 30
0.0
 10
10.360563524
 20
5.9995920136
 30
0.0
 10
10.3640574272
 20
6.0136023994
 30
0.0
 10
10.3671362638
 20
6.0241981149
 30
0.0
 10
10.3705903249
 20
6.0348100286
 30
0.0
 10
10.3730833413
 20
6.0418637138
 30
0.0
 10
10.3743690335
 20
6.045396669
 30
0.0
  0
SPLINE
  5
37E
100
AcDbEntity
  8
0
100
AcDbSpline
 62
9
  6
CONTINUOUS
 70
0
 71
3
 72
11
 73
7
 74
0
 42
0.0000001
 43
0.0000001
 44
0.0000000001
 40
0.0
 40
0.0
 40
0.0
 40
0.0
 40
0.2467095625
 40
0.496260144
 40
0.7476778353
 40
1.0
 40
1.0
 40
1.0
 40
1.0
 10
10.4008549316
 20
6.2297062814
 30
0.0
 10
10.4002770627
 20
6.2359352959
 30
0.0
 10
10.3989807357
 20
6.2484530786
 30
0.0
 10
10.3966020574
 20
6.2672636988
 30
0.0
 10
10.3937402704
 20
6.2861511301
 30
0.0
 10
10.3914847228
 20
6.2987257651
 30
0.0
 10
10.3902597623
 20
6.3050054857
 30
0.0
  0
SPLINE
  5
37F
100
AcDbEntity
  8
0
100
AcDbSpline
 62
9
  6
CONTINUOUS
 70
0
 71
3
 72
12
 73
8
 74
0
 42
0.0000001
 43
0.0000001
 44
0.0000000001
 40
0.0
 40
0.0
 40
0.0
 40
0.0
 40
0.0799342152
 40
0.1729780345
 40
0.398092698
 40
0.6743632132
 40
1.0
 40
1.0
 40
1.0
 40
1.0
 10
12.6894810426
 20
4.8701319825
 30
0.0
 10
12.6892418498
 20
4.8701319827
 30
0.0
 10
12.6887242248
 20
4.8701480525
 30
0.0
 10
12.687535896
 20
4.8702341928
 30
0.0
 10
12.685769223
 20
4.8704486793
 30
0.0
 10
12.6833251545
 20
4.8708388434
 30
0.0
 10
12.6815545444
 20
4.8711701645
 30
0.0
 10
12.6805984029
 20
4.871358046
 30
0.0
  0
SPLINE
  5
380
100
AcDbEntity
  8
0
100
AcDbSpline
 62
9
  6
CONTINUOUS
 70
0
 71
3
 72
12
 73
8
 74
0
 42
0.0000001
 43
0.0000001
 44
0.0000000001
 40
0.0
 40
0.0
 40
0.0
 40
0.0
 40
0.3256368687
 40
0.6019073545
 40
0.8270219755
 40
0.9200657671
 40
1.0
 40
1.0
 40
1.0
 40
1.0
 10
12.6805984029
 20
4.6799690761
 30
0.0
 10
12.6815545437
 20
4.6801569623
 30
0.0
 10
12.6833251543
 20
4.6804882827
 30
0.0
 10
12.6857692235
 20
4.6808784422
 30
0.0
 10
12.6875358962
 20
4.6810929289
 30
0.0
 10
12.6887242248
 20
4.6811790694
 30
0.0
 10
12.6892418498
 20
4.6811951394
 30
0.0
 10
12.6894810426
 20
4.6811951396
 30
0.0
  0
SPLINE
  5
381
100
AcDbEntity
  8
0
100
AcDbSpline
 62
9
  6
CONTINUOUS
 70
0
 71
3
 72
20
 73
16
 74
0
 42
0.0000001
 43
0.0000001
 44
0.0000000001
 40
0.0
 40
0.0
 40
0.0
 40
0.0
 40
0.0664519823
 40
0.1322207656
 40
0.1972284795
 40
0.2614286636
 40
0.3873987028
 40
0.4493467975
 40
0.5107583879
 40
0.571798175
 40
0.6326387308
 40
0.6934397764
 40
0.7543346689
 40
0.8767030556
 40
1.0
 40
1.0
 40
1.0
 40
1.0
 10
10.3743690335
 20
6.8879304532
 30
0.0
 10
10.373083294
 20
6.891463418
 30
0.0
 10
10.3705903543
 20
6.8985171916
 30
0.0
 10
10.3671365197
 20
6.9091292076
 30
0.0
 10
10.3640575941
 20
6.9197248167
 30
0.0
 10
10.3605632389
 20
6.93373482
 30
0.0
 10
10.3580494504
 20
6.9478062212
 30
0.0
 10
10.3567649543
 20
6.9618610512
 30
0.0
 10
10.3564387201
 20
6.9722954723
 30
0.0
 10
10.3567616301
 20
6.9826671909
 30
0.0
 10
10.3577167277
 20
6.9929648963
 30
0.0
 10
10.3592821451
 20
7.003178759
 30
0.0
 10
10.3621215108
 20
7.0166981939
 30
0.0
 10
10.3669551043
 20
7.0333810089
 30
0.0
 10
10.3717936784
 20
7.0464191389
 30
0.0
 10
10.3743690335
 20
7.0529021032
 30
0.0
  0
SPLINE
  5
382
100
AcDbEntity
  8
0
100
AcDbSpline
 62
9
  6
CONTINUOUS
 70
0
 71
3
 72
11
 73
7
 74
0
 42
0.0000001
 43
0.0000001
 44
0.0000000001
 40
0.0
 40
0.0
 40
0.0
 40
0.0
 40
0.2745052092
 40
0.532707466
 40
0.7744448653
 40
1.0
 40
1.0
 40
1.0
 40
1.0
 10
10.3841473429
 20
6.8434246118
 30
0.0
 10
10.3836335939
 20
6.8475703926
 30
0.0
 10
10.3824917388
 20
6.8555989903
 30
0.0
 10
10.3803147451
 20
6.8671867
 30
0.0
 10
10.3776904859
 20
6.8779171472
 30
0.0
 10
10.3755428981
 20
6.8847048544
 30
0.0
 10
10.3743690335
 20
6.8879304532
 30
0.0
  0
SPLINE
  5
383
100
AcDbEntity
  8
0
100
AcDbSpline
 62
9
  6
CONTINUOUS
 70
0
 71
3
 72
11
 73
7
 74
0
 42
0.0000001
 43
0.0000001
 44
0.0000000001
 40
0.0
 40
0.0
 40
0.0
 40
0.0
 40
0.2526658662
 40
0.504140587
 40
0.7535461313
 40
1.0
 40
1.0
 40
1.0
 40
1.0
 10
10.3743690335
 20
6.6316352111
 30
0.0
 10
10.3755008929
 20
6.6375945033
 30
0.0
 10
10.3775839451
 20
6.6495188757
 30
0.0
 10
10.3802256717
 20
6.6674173713
 30
0.0
 10
10.3824196254
 20
6.6852257575
 30
0.0
 10
10.3836147392
 20
6.6970709173
 30
0.0
 10
10.3841473429
 20
6.7029635914
 30
0.0
  0
SPLINE
  5
384
100
AcDbEntity
  8
0
100
AcDbSpline
 62
9
  6
CONTINUOUS
 70
0
 71
3
 72
15
 73
11
 74
0
 42
0.0000001
 43
0.0000001
 44
0.0000000001
 40
0.0
 40
0.0
 40
0.0
 40
0.0
 40
0.1249844084
 40
0.2499822696
 40
0.3749889126
 40
0.5000000103
 40
0.6250111078
 40
0.7500177472
 40
0.8750156129
 40
1.0
 40
1.0
 40
1.0
 40
1.0
 10
10.3743690335
 20
6.301691911
 30
0.0
 10
10.3717854301
 20
6.315294675
 30
0.0
 10
10.3669289825
 20
6.3425634418
 30
0.0
 10
10.3611493794
 20
6.3837140194
 30
0.0
 10
10.3574110553
 20
6.4251111888
 30
0.0
 10
10.3561145875
 20
6.4666635686
 30
0.0
 10
10.3574109485
 20
6.5082159527
 30
0.0
 10
10.3611492758
 20
6.5496131244
 30
0.0
 10
10.3669289875
 20
6.5907636848
 30
0.0
 10
10.3717854503
 20
6.6180324457
 30
0.0
 10
10.3743690335
 20
6.6316352111
 30
0.0
  0
SPLINE
  5
385
100
AcDbEntity
  8
0
100
AcDbSpline
 62
9
  6
CONTINUOUS
 70
0
 71
3
 72
11
 73
7
 74
0
 42
0.0000001
 43
0.0000001
 44
0.0000000001
 40
0.0
 40
0.0
 40
0.0
 40
0.0
 40
0.2464538345
 40
0.49585945
 40
0.7473341777
 40
1.0
 40
1.0
 40
1.0
 40
1.0
 10
10.3841473429
 20
6.2303635307
 30
0.0
 10
10.383614747
 20
6.2362562047
 30
0.0
 10
10.3824196395
 20
6.2481013661
 30
0.0
 10
10.3802256699
 20
6.2659097515
 30
0.0
 10
10.3775839222
 20
6.2838082447
 30
0.0
 10
10.3755008765
 20
6.2957326168
 30
0.0
 10
10.3743690335
 20
6.301691911
 30
0.0
  0
SPLINE
  5
386
100
AcDbEntity
  8
0
100
AcDbSpline
 62
9
  6
CONTINUOUS
 70
0
 71
3
 72
11
 73
7
 74
0
 42
0.0000001
 43
0.0000001
 44
0.0000000001
 40
0.0
 40
0.0
 40
0.0
 40
0.0
 40
0.2255551308
 40
0.4672925336
 40
0.7254947956
 40
1.0
 40
1.0
 40
1.0
 40
1.0
 10
10.3743690335
 20
6.045396669
 30
0.0
 10
10.3755428983
 20
6.0486222676
 30
0.0
 10
10.3776904862
 20
6.0554099748
 30
0.0
 10
10.3803147451
 20
6.0661404222
 30
0.0
 10
10.3824917385
 20
6.0777281319
 30
0.0
 10
10.3836335938
 20
6.0857567296
 30
0.0
 10
10.3841473429
 20
6.0899025104
 30
0.0
  0
SPLINE
  5
387
100
AcDbEntity
  8
0
100
AcDbSpline
 62
9
  6
CONTINUOUS
 70
0
 71
3
 72
11
 73
7
 74
0
 42
0.0000001
 43
0.0000001
 44
0.0000000001
 40
0.0
 40
0.0
 40
0.0
 40
0.0
 40
0.2840348962
 40
0.5459037438
 40
0.7846810235
 40
1.0
 40
1.0
 40
1.0
 40
1.0
 10
12.3812123594
 20
4.6630303075
 30
0.0
 10
12.3823264462
 20
4.6630303068
 30
0.0
 10
12.3844681312
 20
4.6629836055
 30
0.0
 10
12.3875391216
 20
4.6627553098
 30
0.0
 10
12.3903233208
 20
4.6623739986
 30
0.0
 10
12.3920676021
 20
4.6620015843
 30
0.0
 10
12.3928841086
 20
4.6617857234
 30
0.0
  0
SPLINE
  5
388
100
AcDbEntity
  8
0
100
AcDbSpline
 62
9
  6
CONTINUOUS
 70
0
 71
3
 72
15
 73
11
 74
0
 42
0.0000001
 43
0.0000001
 44
0.0000000001
 40
0.0
 40
0.0
 40
0.0
 40
0.0
 40
0.1260372902
 40
0.2509658942
 40
0.3752222278
 40
0.499208727
 40
0.6233024869
 40
0.7478735241
 40
0.8733040897
 40
1.0
 40
1.0
 40
1.0
 40
1.0
 10
12.3928841086
 20
4.6617857234
 30
0.0
 10
12.404318831
 20
4.6587626826
 30
0.0
 10
12.4272957542
 20
4.6535011668
 30
0.0
 10
12.4620842307
 20
4.6479088781
 30
0.0
 10
12.4969695252
 20
4.6445854707
 30
0.0
 10
12.5319160991
 20
4.6434837971
 30
0.0
 10
12.5668921009
 20
4.6445873473
 30
0.0
 10
12.6018641622
 20
4.6479122401
 30
0.0
 10
12.6367924624
 20
4.6535053177
 30
0.0
 10
12.6598814236
 20
4.6587641538
 30
0.0
 10
12.6713804507
 20
4.6617857234
 30
0.0
  0
SPLINE
  5
389
100
AcDbEntity
  8
0
100
AcDbSpline
 62
9
  6
CONTINUOUS
 70
0
 71
3
 72
13
 73
9
 74
0
 42
0.0000001
 43
0.0000001
 44
0.0000000001
 40
0.0
 40
0.0
 40
0.0
 40
0.0
 40
0.3268741597
 40
0.6035867287
 40
0.7224975926
 40
0.8282369842
 40
0.9207318228
 40
1.0
 40
1.0
 40
1.0
 40
1.0
 10
12.6713804507
 20
4.6617857234
 30
0.0
 10
12.6721038041
 20
4.6619757967
 30
0.0
 10
12.6734437308
 20
4.6623110136
 30
0.0
 10
12.6750607759
 20
4.6626572977
 30
0.0
 10
12.6761913612
 20
4.6628524249
 30
0.0
 10
12.6769102515
 20
4.6629525037
 30
0.0
 10
12.6775424156
 20
4.6630138605
 30
0.0
 10
12.6779354306
 20
4.6630303069
 30
0.0
 10
12.6781168012
 20
4.6630303075
 30
0.0
  0
SPLINE
  5
38A
100
AcDbEntity
  8
0
100
AcDbSpline
 62
9
  6
CONTINUOUS
 70
0
 71
3
 72
23
 73
19
 74
0
 42
0.0000001
 43
0.0000001
 44
0.0000000001
 40
0.0
 40
0.0
 40
0.0
 40
0.0
 40
0.1249877127
 40
0.1874854036
 40
0.2499889264
 40
0.3124905166
 40
0.3437412382
 40
0.3749931715
 40
0.4374973209
 40
0.5000002223
 40
0.5625030803
 40
0.6250072121
 40
0.6562591721
 40
0.6875098689
 40
0.7500112996
 40
0.8125147401
 40
0.8750124111
 40
1.0
 40
1.0
 40
1.0
 40
1.0
 10
10.3902597623
 20
6.3050054857
 30
0.0
 10
10.3874854833
 20
6.3183100356
 30
0.0
 10
10.3835595913
 20
6.3383196511
 30
0.0
 10
10.3791143323
 20
6.3651386073
 30
0.0
 10
10.3762550955
 20
6.3853276536
 30
0.0
 10
10.3743234855
 20
6.4022107282
 30
0.0
 10
10.3730824139
 20
6.4157469717
 30
0.0
 10
10.3720560205
 20
6.4293014525
 30
0.0
 10
10.371186539
 20
6.446273577
 30
0.0
 10
10.370829834
 20
6.4666636266
 30
0.0
 10
10.371186363
 20
6.4870536806
 30
0.0
 10
10.3720559359
 20
6.5040257968
 30
0.0
 10
10.373082273
 20
6.5175802799
 30
0.0
 10
10.3743233863
 20
6.5311165031
 30
0.0
 10
10.3762552089
 20
6.5479995252
 30
0.0
 10
10.3791146339
 20
6.5681885141
 30
0.0
 10
10.3835597961
 20
6.5950074593
 30
0.0
 10
10.387485514
 20
6.6150170939
 30
0.0
 10
10.3902597623
 20
6.6283216364
 30
0.0
  0
SPLINE
  5
38B
100
AcDbEntity
  8
0
100
AcDbSpline
 62
9
  6
CONTINUOUS
 70
0
 71
3
 72
23
 73
19
 74
0
 42
0.0000001
 43
0.0000001
 44
0.0000000001
 40
0.0
 40
0.0
 40
0.0
 40
0.0
 40
0.0624935406
 40
0.1249970747
 40
0.1875036224
 40
0.2500040905
 40
0.3125023073
 40
0.3750013466
 40
0.4375007647
 40
0.5000000062
 40
0.5624992482
 40
0.6249986668
 40
0.6874977044
 40
0.7499959159
 40
0.812496377
 40
0.8750029211
 40
0.9375064568
 40
1.0
 40
1.0
 40
1.0
 40
1.0
 10
10.6203755369
 20
6.6283216364
 30
0.0
 10
10.6214538168
 20
6.6216480962
 30
0.0
 10
10.6234329493
 20
6.6082706796
 30
0.0
 10
10.6259090005
 20
6.5881378673
 30
0.0
 10
10.6279338121
 20
6.5679541057
 30
0.0
 10
10.6295466145
 20
6.5477340814
 30
0.0
 10
10.6307688727
 20
6.5274876225
 30
0.0
 10
10.6316230121
 20
6.5072225763
 30
0.0
 10
10.6321335305
 20
6.4869459377
 30
0.0
 10
10.6323040778
 20
6.4666635586
 30
0.0
 10
10.6321334977
 20
6.4463811797
 30
0.0
 10
10.6316229625
 20
6.4261045418
 30
0.0
 10
10.6307688494
 20
6.4058394954
 30
0.0
 10
10.6295466333
 20
6.3855930355
 30
0.0
 10
10.6279338621
 20
6.3653730103
 30
0.0
 10
10.6259090398
 20
6.3451892504
 30
0.0
 10
10.6234329596
 20
6.3250564416
 30
0.0
 10
10.6214538158
 20
6.3116790264
 30
0.0
 10
10.6203755369
 20
6.3050054857
 30
0.0
  0
SPLINE
  5
38C
100
AcDbEntity
  8
0
100
AcDbSpline
 62
9
  6
CONTINUOUS
 70
0
 71
3
 72
25
 73
21
 74
0
 42
0.0000001
 43
0.0000001
 44
0.0000000001
 40
0.0
 40
0.0
 40
0.0
 40
0.0
 40
0.0643875594
 40
0.1282680786
 40
0.1915643547
 40
0.2542466772
 40
0.316327771
 40
0.3471662497
 40
0.3778875022
 40
0.4390493887
 40
0.5000004281
 40
0.5609514694
 40
0.622113526
 40
0.6528348278
 40
0.683673239
 40
0.7457540426
 40
0.8084361865
 40
0.8717323569
 40
0.9356126849
 40
1.0
 40
1.0
 40
1.0
 40
1.0
 10
10.3902597623
 20
6.8967895116
 30
0.0
 10
10.3888774054
 20
6.9001041909
 30
0.0
 10
10.3861925667
 20
6.9067366798
 30
0.0
 10
10.3824649297
 20
6.9167522354
 30
0.0
 10
10.3791298412
 20
6.9268062679
 30
0.0
 10
10.3762676077
 20
6.9369016579
 30
0.0
 10
10.3743283542
 20
6.9453662361
 30
0.0
 10
10.3730839075
 20
6.9521504045
 30
0.0
 10
10.3720584377
 20
6.9589192196
 30
0.0
 10
10.3711874923
 20
6.9674059438
 30
0.0
 10
10.3708296831
 20
6.9776185816
 30
0.0
 10
10.3711876984
 20
6.9878312286
 30
0.0
 10
10.3720589695
 20
6.9963179247
 30
0.0
 10
10.3730842813
 20
7.00308677
 30
0.0
 10
10.3743285914
 20
7.0098709472
 30
0.0
 10
10.3762678182
 20
7.0183355025
 30
0.0
 10
10.3791299852
 20
7.0284308768
 30
0.0
 10
10.3824650084
 20
7.0384849041
 30
0.0
 10
10.3861926648
 20
7.0485004206
 30
0.0
 10
10.3888774581
 20
7.0551329005
 30
0.0
 10
10.3902597623
 20
7.058447587
 30
0.0
  0
SPLINE
  5
38D
100
AcDbEntity
  8
0
100
AcDbSpline
 62
9
  6
CONTINUOUS
 70
0
 71
3
 72
23
 73
19
 74
0
 42
0.0000001
 43
0.0000001
 44
0.0000000001
 40
0.0
 40
0.0
 40
0.0
 40
0.0
 40
0.0637807889
 40
0.1269816754
 40
0.1897343322
 40
0.2521438049
 40
0.3143027612
 40
0.3762904066
 40
0.438171433
 40
0.4999999474
 40
0.5618284818
 40
0.6237095509
 40
0.6856972552
 40
0.747856303
 40
0.8102658561
 40
0.8730184903
 40
0.9362192675
 40
1.0
 40
1.0
 40
1.0
 40
1.0
 10
10.6203755369
 20
7.058447587
 30
0.0
 10
10.621447907
 20
7.0551290992
 30
0.0
 10
10.6234205083
 20
7.0484686787
 30
0.0
 10
10.6259011273
 20
7.0383917882
 30
0.0
 10
10.6279291213
 20
7.0282909153
 30
0.0
 10
10.6295439764
 20
7.018173948
 30
0.0
 10
10.6307676257
 20
7.0080445776
 30
0.0
 10
10.6316225899
 20
6.997906758
 30
0.0
 10
10.6321335071
 20
6.9877640397
 30
0.0
 10
10.6323041736
 20
6.9776185723
 30
0.0
 10
10.6321334336
 20
6.9674731048
 30
0.0
 10
10.6316225424
 20
6.9573303787
 30
0.0
 10
10.630767528
 20
6.9471925517
 30
0.0
 10
10.6295437798
 20
6.9370631805
 30
0.0
 10
10.6279288837
 20
6.926946213
 30
0.0
 10
10.6259009834
 20
6.9168453255
 30
0.0
 10
10.623420482
 20
6.9067684163
 30
0.0
 10
10.621447915
 20
6.9001079936
 30
0.0
 10
10.6203755369
 20
6.8967895116
 30
0.0
  0
SPLINE
  5
38E
100
AcDbEntity
  8
0
100
AcDbSpline
 62
9
  6
CONTINUOUS
 70
0
 71
3
 72
14
 73
10
 74
0
 42
0.0000001
 43
0.0000001
 44
0.0000000001
 40
0.0
 40
0.0
 40
0.0
 40
0.0
 40
0.1054893651
 40
0.2176013489
 40
0.3358634465
 40
0.4597800429
 40
0.5887837065
 40
0.7222570494
 40
1.0
 40
1.0
 40
1.0
 40
1.0
 10
10.4008549316
 20
6.0822275118
 30
0.0
 10
10.4015217609
 20
6.0873804041
 30
0.0
 10
10.4026938611
 20
6.0980367771
 30
0.0
 10
10.403937118
 20
6.1145357285
 30
0.0
 10
10.4046912627
 20
6.1319727849
 30
0.0
 10
10.4049378818
 20
6.1502561021
 30
0.0
 10
10.4046706595
 20
6.1692882854
 30
0.0
 10
10.4036236444
 20
6.1958782326
 30
0.0
 10
10.4021186218
 20
6.2160845927
 30
0.0
 10
10.4008549316
 20
6.2297062814
 30
0.0
  0
SPLINE
  5
38F
100
AcDbEntity
  8
0
100
AcDbSpline
 62
9
  6
CONTINUOUS
 70
0
 71
3
 72
23
 73
19
 74
0
 42
0.0000001
 43
0.0000001
 44
0.0000000001
 40
0.0
 40
0.0
 40
0.0
 40
0.0
 40
0.0637807268
 40
0.1269815696
 40
0.1897342962
 40
0.2521439352
 40
0.3143030203
 40
0.3762906933
 40
0.4381716706
 40
0.5000001134
 40
0.5618285805
 40
0.623709601
 40
0.6856972787
 40
0.7478563164
 40
0.8102658707
 40
0.873018504
 40
0.9362192728
 40
1.0
 40
1.0
 40
1.0
 40
1.0
 10
10.6203755369
 20
6.0365376105
 30
0.0
 10
10.6214479007
 20
6.0332191241
 30
0.0
 10
10.6234204698
 20
6.0265586995
 30
0.0
 10
10.625901038
 20
6.0164817984
 30
0.0
 10
10.6279290325
 20
6.0063809162
 30
0.0
 10
10.6295440276
 20
5.9962639522
 30
0.0
 10
10.6307678481
 20
5.9861345839
 30
0.0
 10
10.6316228739
 20
5.9759967611
 30
0.0
 10
10.632133664
 20
5.9658540402
 30
0.0
 10
10.6323042365
 20
5.9557085817
 30
0.0
 10
10.6321334063
 20
5.9455631259
 30
0.0
 10
10.6316224666
 20
5.9354204102
 30
0.0
 10
10.630767437
 20
5.9252825891
 30
0.0
 10
10.6295436961
 20
5.915153219
 30
0.0
 10
10.6279288316
 20
5.905036247
 30
0.0
 10
10.6259009675
 20
5.8949353522
 30
0.0
 10
10.6234204797
 20
5.8848584399
 30
0.0
 10
10.6214479152
 20
5.8781980169
 30
0.0
 10
10.6203755369
 20
5.8748795352
 30
0.0
  0
SPLINE
  5
390
100
AcDbEntity
  8
0
100
AcDbSpline
 62
9
  6
CONTINUOUS
 70
0
 71
3
 72
25
 73
21
 74
0
 42
0.0000001
 43
0.0000001
 44
0.0000000001
 40
0.0
 40
0.0
 40
0.0
 40
0.0
 40
0.0643875553
 40
0.1282680721
 40
0.1915643473
 40
0.2542466704
 40
0.3163277674
 40
0.3471662489
 40
0.3778875049
 40
0.439049398
 40
0.5000004388
 40
0.5609514773
 40
0.6221135385
 40
0.6528348432
 40
0.6836732543
 40
0.745754054
 40
0.808436196
 40
0.8717323664
 40
0.9356126916
 40
1.0
 40
1.0
 40
1.0
 40
1.0
 10
10.3902597623
 20
5.8748795352
 30
0.0
 10
10.3888774052
 20
5.8781942145
 30
0.0
 10
10.3861925658
 20
5.8848267037
 30
0.0
 10
10.3824649267
 20
5.8948422594
 30
0.0
 10
10.3791298346
 20
5.9048962917
 30
0.0
 10
10.3762675953
 20
5.9149916814
 30
0.0
 10
10.3743283347
 20
5.9234562595
 30
0.0
 10
10.3730838809
 20
5.9302404278
 30
0.0
 10
10.3720584028
 20
5.9370092433
 30
0.0
 10
10.371187448
 20
5.945495968
 30
0.0
 10
10.3708296272
 20
5.9557086071
 30
0.0
 10
10.3711876487
 20
5.9659212558
 30
0.0
 10
10.372058936
 20
5.9744079514
 30
0.0
 10
10.3730842515
 20
5.9811767972
 30
0.0
 10
10.3743285656
 20
5.9879609746
 30
0.0
 10
10.3762678009
 20
5.9964255286
 30
0.0
 10
10.3791299765
 20
6.0065209013
 30
0.0
 10
10.3824650048
 20
6.0165749279
 30
0.0
 10
10.3861926651
 20
6.0265904437
 30
0.0
 10
10.3888774586
 20
6.0332229238
 30
0.0
 10
10.3902597623
 20
6.0365376105
 30
0.0
  0
ENDSEC
  0
SECTION
  2
OBJECTS
  0
DICTIONARY
  5
C
100
AcDbDictionary
280
0
281
1
  3
ACAD_GROUP
350
D
  3
ACAD_MLINESTYLE
350
17
  3
ACAD_LAYOUT
350
1A
  3
ACAD_PLOTSETTINGS
350
19
  3
ACAD_PLOTSTYLENAME
350
E
  0
DICTIONARY
  5
D
102
{ACAD_REACTORS
330
C
102
}
100
AcDbDictionary
280
0
281
1
  0
ACDBDICTIONARYWDFLT
  5
E
102
{ACAD_REACTORS
330
C
102
}
100
AcDbDictionary
281
1
  3
Normal
350
F
100
AcDbDictionaryWithDefault
340
F
  0
DICTIONARY
  5
17
102
{ACAD_REACTORS
330
C
102
}
100
AcDbDictionary
280
0
281
1
  3
Standard
350
18
  0
DICTIONARY
  5
19
102
{ACAD_REACTORS
330
C
102
}
100
AcDbDictionary
281
1
  0
DICTIONARY
  5
1A
102
{ACAD_REACTORS
330
C
102
}
100
AcDbDictionary
281
1
  3
Model
350
391
  3
Layout1
350
392
  0
ACDBPLACEHOLDER
  5
F
102
{ACAD_REACTORS
330
E
102
}
  0
MLINESTYLE
  5
18
102
{ACAD_REACTORS
330
17
102
}
100
AcDbMlineStyle
  2
STANDARD
 70
0
  3

 62
256
 51
90.0
 52
90.0
 71
2
 49
0.5
 62
256
  6
BYLAYER
 49
-0.5
 62
256
  6
BYLAYER
  0
LAYOUT
  5
391
102
{ACAD_REACTORS
330
1A
102
}
100
AcDbPlotSettings
  1

  2
none_device
  4
ANSI_C_(22.00_x_17.00_Inches)
  6

 40
0.0
 41
0.0
 42
0.0
 43
0.0
 44
558.8
 45
431.8
 46
0.0
 47
0.0
 48
0.0
 49
0.0
140
0.0
141
0.0
142
1.0
143
1.0
 70
1024
 72
0
 73
0
 74
0
  7

 75
0
147
1.0
148
0.0
149
0.0
100
AcDbLayout
  1
Model
 70
0
 71
0
 10
0.0
 20
0.0
 11
22.0
 21
17.0
 12
0.0
 22
0.0
 32
0.0
 14
0.0
 24
0.0
 34
0.0
 15
0.0
 25
0.0
 35
0.0
146
0.0
 13
0.0
 23
0.0
 33
0.0
 16
1.0
 26
0.0
 36
0.0
 17
0.0
 27
1.0
 37
0.0
 76
0
330
205
345
0
346
0
  0
LAYOUT
  5
392
102
{ACAD_REACTORS
330
1A
102
}
100
AcDbPlotSettings
  1

  2
none_device
  4
ANSI_C_(22.00_x_17.00_Inches)
  6

 40
0.0
 41
0.0
 42
0.0
 43
0.0
 44
558.8
 45
431.8
 46
0.0
 47
0.0
 48
0.0
 49
0.0
140
0.0
141
0.0
142
1.0
143
1.0
 70
0
 72
0
 73
0
 74
0
  7

 75
0
147
1.0
148
0.0
149
0.0
100
AcDbLayout
  1
Layout1
 70
0
 71
1
 10
0.0
 20
0.0
 11
22.0
 21
17.0
 12
0.0
 22
0.0
 32
0.0
 14
0.0
 24
0.0
 34
0.0
 15
0.0
 25
0.0
 35
0.0
146
0.0
 13
0.0
 23
0.0
 33
0.0
 16
1.0
 26
0.0
 36
0.0
 17
0.0
 27
1.0
 37
0.0
 76
0
330
206
345
0
346
0
  0
ENDSEC
  0
EOF
