999
DXF file: E:\BT Custom\CADOUTPUT\_FRONT.dxf
999
Pro/ENGINEER 2018400 by Parametric Technology Corporation
  0
SECTION
  2
HEADER
  9
$ACADVER
  1
AC1018
  9
$DWGCODEPAGE
  3
ANSI_1252
  9
$EXTMAX
 10
22.0
 20
17.0
 30
0.0
  9
$EXTMIN
 10
0.0
 20
0.0
 30
0.0
  9
$LIMMIN
 10
0.0
 20
0.0
  9
$LIMMAX
 10
22.0
 20
17.0
  9
$VIEWCTR
 10
11.0
 20
8.5
  9
$VIEWSIZE
 40
17.0
  9
$CLAYER
  8
0
  9
$LTSCALE
 40
1.21
  9
$CELTYPE
  6
BYLAYER
  9
$DIMSCALE
 40
1.0
  9
$DIMASZ
 40
0.1
  9
$DIMEXO
 40
0.0625
  9
$DIMDLI
 40
0.836
  9
$DIMEXE
 40
0.125
  9
$DIMCEN
 40
0.198
  9
$DIMLFAC
 40
1.0
  9
$DIMBLK
  1
_FILLED
  9
$DIMALT
 70
1
  9
$DIMALTD
 70
2
  9
$DIMALTTD
 70
2
  9
$DIMALTF
 40
25.4
  9
$DIMTXT
 40
0.08
  9
$DIMTOL
 70
1
  9
$DIMLIM
 70
0
  9
$DIMTFAC
 40
1.0
  9
$DIMTP
 40
0.001
  9
$DIMTM
 40
0.001
  9
$DIMGAP
 40
0.09
  9
$DIMDSEP
 70
46
  9
$AUNITS
 70
0
  9
$PDMODE
 70
3
  9
$PDSIZE
 40
0.06
  9
$HANDSEED
  5
399
  9
$TILEMODE
 70
1
  9
$MEASUREMENT
 70
0
  9
$INSUNITS
 70
1
  0
ENDSEC
  0
SECTION
  2
CLASSES
  0
CLASS
  1
ACDBDICTIONARYWDFLT
  2
AcDbDictionaryWithDefault
  3
AutoCAD 2000
 90
0
 91
1
280
0
281
0
  0
CLASS
  1
ACDBPLACEHOLDER
  2
AcDbPlaceHolder
  3
AutoCAD 2000
 90
0
 91
1
280
0
281
0
  0
CLASS
  1
LAYOUT
  2
AcDbLayout
  3
AutoCAD 2000
 90
0
 91
0
280
0
281
0
  0
ENDSEC
  0
SECTION
  2
TABLES
  0
TABLE
  2
VPORT
  5
8
100
AcDbSymbolTable
 70
2
  0
VPORT
  5
1F4
100
AcDbSymbolTableRecord
100
AcDbViewportTableRecord
  2
*ACTIVE
 70
0
 10
0.0
 20
0.0
 11
1.0
 21
1.0
 12
11.0
 22
8.5
 13
0.0
 23
0.0
 14
1.0
 24
1.0
 15
0.0
 25
0.0
 16
0.0
 26
0.0
 36
1.0
 17
0.0
 27
0.0
 37
0.0
 40
17.0
 41
1.2941176471
 42
50.0
 43
0.0
 44
0.0
 50
0.0
 51
0.0
 71
0
 72
100
 73
1
 74
1
 75
0
 76
0
 77
0
 78
0
  0
ENDTAB
  0
TABLE
  2
LTYPE
  5
5
100
AcDbSymbolTable
 70
6
  0
LTYPE
  5
14
100
AcDbSymbolTableRecord
100
AcDbLinetypeTableRecord
  2
BYBLOCK
 70
0
  3

 72
65
 73
0
 40
0.0
  0
LTYPE
  5
15
100
AcDbSymbolTableRecord
100
AcDbLinetypeTableRecord
  2
BYLAYER
 70
0
  3

 72
65
 73
0
 40
0.0
  0
LTYPE
  5
16
100
AcDbSymbolTableRecord
100
AcDbLinetypeTableRecord
  2
CONTINUOUS
 70
64
  3
Solid line
 72
65
 73
0
 40
0.0
  0
LTYPE
  5
1F5
100
AcDbSymbolTableRecord
100
AcDbLinetypeTableRecord
  2
CENTER
 70
64
  3
____ _ ____ _ ____ _ ____ _ ____ _ ____ _ ____
 72
65
 73
4
 40
0.6
 49
0.375
 74
0
 49
-0.075
 74
0
 49
0.075
 74
0
 49
-0.075
 74
0
  0
LTYPE
  5
1F6
100
AcDbSymbolTableRecord
100
AcDbLinetypeTableRecord
  2
HIDDEN
 70
64
  3
- - - - - - - - - - - - - - - - - - - -
 72
65
 73
2
 40
0.2
 49
0.1
 74
0
 49
-0.1
 74
0
  0
LTYPE
  5
1F7
100
AcDbSymbolTableRecord
100
AcDbLinetypeTableRecord
  2
PHANTOM
 70
64
  3
_____ _ _ _____ _ _ _____ _ _ _____
 72
65
 73
6
 40
0.8
 49
0.45
 74
0
 49
-0.05
 74
0
 49
0.1
 74
0
 49
-0.05
 74
0
 49
0.1
 74
0
 49
-0.05
 74
0
  0
LTYPE
  5
1F8
100
AcDbSymbolTableRecord
100
AcDbLinetypeTableRecord
  2
DOT
 70
64
  3
. . . . . . . . . . . . . . . . . . . .
 72
65
 73
2
 40
0.2
 49
0.1
 74
0
 49
-0.1
 74
0
  0
LTYPE
  5
1F9
100
AcDbSymbolTableRecord
100
AcDbLinetypeTableRecord
  2
DASHED
 70
64
  3
- - - - - - - - - - - - - - - - - - - -
 72
65
 73
2
 40
0.2
 49
0.1
 74
0
 49
-0.1
 74
0
  0
ENDTAB
  0
TABLE
  2
LAYER
  5
2
100
AcDbSymbolTable
 70
36
  0
LAYER
  5
10
100
AcDbSymbolTableRecord
100
AcDbLayerTableRecord
  2
0
 70
0
 62
7
  6
CONTINUOUS
370
-3
390
F
  0
LAYER
  5
1FA
100
AcDbSymbolTableRecord
100
AcDbLayerTableRecord
  2
DEFAULT_1
 70
0
 62
7
  6
CENTER
370
-3
390
F
  0
LAYER
  5
1FB
100
AcDbSymbolTableRecord
100
AcDbLayerTableRecord
  2
DEFAULT_2
 70
0
 62
8
  6
HIDDEN
370
-3
390
F
  0
LAYER
  5
1FC
100
AcDbSymbolTableRecord
100
AcDbLayerTableRecord
  2
DEFAULT_3
 70
0
 62
7
  6
PHANTOM
370
-3
390
F
  0
LAYER
  5
1FD
100
AcDbSymbolTableRecord
100
AcDbLayerTableRecord
  2
ALL_FEATURES
 70
0
 62
7
  6
CONTINUOUS
370
-3
390
F
  0
LAYER
  5
1FE
100
AcDbSymbolTableRecord
100
AcDbLayerTableRecord
  2
AXES_FEATURES
 70
0
 62
7
  6
CONTINUOUS
370
-3
390
F
  0
LAYER
  5
1FF
100
AcDbSymbolTableRecord
100
AcDbLayerTableRecord
  2
DEFAULT_COORDINATE_SYSTEM
 70
0
 62
7
  6
CONTINUOUS
370
-3
390
F
  0
LAYER
  5
200
100
AcDbSymbolTableRecord
100
AcDbLayerTableRecord
  2
DEFAULT_DATUM_AXES
 70
0
 62
7
  6
CONTINUOUS
370
-3
390
F
  0
LAYER
  5
201
100
AcDbSymbolTableRecord
100
AcDbLayerTableRecord
  2
DEFAULT_DATUM_PLANES
 70
0
 62
7
  6
CONTINUOUS
370
-3
390
F
  0
LAYER
  5
202
100
AcDbSymbolTableRecord
100
AcDbLayerTableRecord
  2
DIMENSIONS
 70
0
 62
7
  6
CONTINUOUS
370
-3
390
F
  0
ENDTAB
  0
TABLE
  2
STYLE
  5
3
100
AcDbSymbolTable
 70
1
  0
STYLE
  5
11
100
AcDbSymbolTableRecord
100
AcDbTextStyleTableRecord
  2
STANDARD
 70
0
 40
0.0
 41
0.8
 50
0.0
 71
0
 42
0.2
  3
txt
  4

  0
STYLE
  5
203
100
AcDbSymbolTableRecord
100
AcDbTextStyleTableRecord
  2
TEXTSTYLE_1
 70
0
 40
0.0
 41
0.8
 50
0.0
 71
0
 42
0.2
  3
gdt
  4

  0
ENDTAB
  0
TABLE
  2
VIEW
  5
6
100
AcDbSymbolTable
 70
0
  0
ENDTAB
  0
TABLE
  2
UCS
  5
7
100
AcDbSymbolTable
 70
0
  0
ENDTAB
  0
TABLE
  2
APPID
  5
9
100
AcDbSymbolTable
 70
1
  0
APPID
  5
204
100
AcDbSymbolTableRecord
100
AcDbRegAppTableRecord
  2
ACAD
 70
0
  0
ENDTAB
  0
TABLE
  2
BLOCK_RECORD
  5
1
100
AcDbSymbolTable
 70
0
  0
BLOCK_RECORD
  5
205
100
AcDbSymbolTableRecord
100
AcDbBlockTableRecord
  2
*Model_Space
  0
BLOCK_RECORD
  5
206
100
AcDbSymbolTableRecord
100
AcDbBlockTableRecord
  2
*Paper_Space
  0
BLOCK_RECORD
  5
207
100
AcDbSymbolTableRecord
100
AcDbBlockTableRecord
  2
_FILLED
  0
ENDTAB
  0
TABLE
  2
DIMSTYLE
  5
A
100
AcDbSymbolTable
 70
1
100
AcDbDimStyleTable
 71
0
  0
DIMSTYLE
105
208
100
AcDbSymbolTableRecord
100
AcDbDimStyleTableRecord
  2
STANDARD
 70
0
  3

  4

 40
1.0
 41
0.1
 42
0.0625
 43
0.38
 44
0.125
 45
0.0
 46
0.0
 47
0.001
 48
0.001
140
0.08
141
0.09
142
0.0
143
25.4
144
1.0
145
0.0
146
1.0
147
0.09
 71
1.0
 72
0.0
 73
1
 74
1
 75
0
 76
0
 77
0
 78
4
 79
1
170
1
171
2
172
0
173
0
174
0
175
0
176
0
177
0
178
0
270
2
179
3
271
3
272
3
273
2
274
2
275
0
280
0
281
0
282
0
283
1
284
4
285
0
286
0
287
3
288
0
340
11
278
46
341
207
342
207
343
207
344
207
  0
ENDTAB
  0
ENDSEC
  0
SECTION
  2
BLOCKS
  0
BLOCK
  5
20
100
AcDbEntity
  8
0
100
AcDbBlockBegin
  2
*Model_Space
 70
0
 10
0.0
 20
0.0
 30
0.0
  3
*Model_Space
  1

  0
ENDBLK
  5
21
100
AcDbEntity
  8
0
100
AcDbBlockEnd
  0
BLOCK
  5
1C
100
AcDbEntity
  8
0
100
AcDbBlockBegin
  2
*Paper_Space
 70
0
 10
0.0
 20
0.0
 30
0.0
  3
*Paper_Space
  1

  0
ENDBLK
  5
1D
100
AcDbEntity
  8
0
100
AcDbBlockEnd
  0
BLOCK
  5
209
100
AcDbEntity
  8
0
100
AcDbBlockBegin
  2
_FILLED
 70
64
 10
0.0
 20
0.0
  3
_FILLED
  1

  0
SOLID
  5
20A
100
AcDbEntity
  8
0
  6
BYBLOCK
 62
0
100
AcDbTrace
 10
0.0
 20
0.0
 11
-1.0
 21
0.2
 12
-1.0
 22
-0.2
 13
-1.0
 23
-0.2
  0
ENDBLK
  5
20B
100
AcDbEntity
  8
0
  6
BYBLOCK
 62
0
100
AcDbBlockEnd
  0
ENDSEC
  0
SECTION
  2
ENTITIES
  0
LINE
  5
20C
100
AcDbEntity
  8
0
100
AcDbLine
 62
7
  6
CONTINUOUS
 10
11.0373758702
 20
4.6566635611
 11
9.260098815
 21
4.6566635611
  0
LINE
  5
20D
100
AcDbEntity
  8
0
100
AcDbLine
 62
9
  6
CONTINUOUS
 10
11.0595563018
 20
4.6609138664
 11
9.2379183834
 21
4.6609138664
  0
LINE
  5
20E
100
AcDbEntity
  8
0
100
AcDbLine
 62
9
  6
CONTINUOUS
 10
9.1723684195
 20
4.6890303075
 11
9.1947678843
 21
4.6890303075
  0
LINE
  5
20F
100
AcDbEntity
  8
0
100
AcDbLine
 62
9
  6
CONTINUOUS
 10
9.491672326
 20
4.6890303075
 11
9.8518329008
 21
4.6890303075
  0
LINE
  5
210
100
AcDbEntity
  8
0
100
AcDbLine
 62
9
  6
CONTINUOUS
 10
10.4456417844
 20
4.6890303075
 11
10.8058023591
 21
4.6890303075
  0
LINE
  5
211
100
AcDbEntity
  8
0
100
AcDbLine
 62
9
  6
CONTINUOUS
 10
11.1027068009
 20
4.6890303075
 11
11.1251062657
 21
4.6890303075
  0
LINE
  5
212
100
AcDbEntity
  8
0
100
AcDbLine
 62
9
  6
CONTINUOUS
 10
9.1607373426
 20
4.7071951396
 11
9.1834036428
 21
4.7071951396
  0
LINE
  5
213
100
AcDbEntity
  8
0
100
AcDbLine
 62
9
  6
CONTINUOUS
 10
9.4838449838
 20
4.7071951396
 11
9.8482960016
 21
4.7071951396
  0
LINE
  5
214
100
AcDbEntity
  8
0
100
AcDbLine
 62
9
  6
CONTINUOUS
 10
10.4491786835
 20
4.7071951396
 11
10.8136297014
 21
4.7071951396
  0
LINE
  5
215
100
AcDbEntity
  8
0
100
AcDbLine
 62
9
  6
CONTINUOUS
 10
11.1140710423
 20
4.7071951396
 11
11.1367373426
 21
4.7071951396
  0
LINE
  5
216
100
AcDbEntity
  8
0
100
AcDbLine
 62
9
  6
CONTINUOUS
 10
11.1367373426
 20
4.8961319825
 11
11.1140710423
 21
4.8961319825
  0
LINE
  5
217
100
AcDbEntity
  8
0
100
AcDbLine
 62
9
  6
CONTINUOUS
 10
10.8136297014
 20
4.8961319825
 11
10.4491786835
 21
4.8961319825
  0
LINE
  5
218
100
AcDbEntity
  8
0
100
AcDbLine
 62
9
  6
CONTINUOUS
 10
9.8482960016
 20
4.8961319825
 11
9.4838449838
 21
4.8961319825
  0
LINE
  5
219
100
AcDbEntity
  8
0
100
AcDbLine
 62
9
  6
CONTINUOUS
 10
9.1834036428
 20
4.8961319825
 11
9.1607373426
 21
4.8961319825
  0
LINE
  5
21A
100
AcDbEntity
  8
0
100
AcDbLine
 62
9
  6
CONTINUOUS
 10
11.1251062657
 20
4.9142968147
 11
11.1027068009
 21
4.9142968147
  0
LINE
  5
21B
100
AcDbEntity
  8
0
100
AcDbLine
 62
9
  6
CONTINUOUS
 10
10.8058023591
 20
4.9142968147
 11
10.4456417844
 21
4.9142968147
  0
LINE
  5
21C
100
AcDbEntity
  8
0
100
AcDbLine
 62
9
  6
CONTINUOUS
 10
9.8518329008
 20
4.9142968147
 11
9.491672326
 21
4.9142968147
  0
LINE
  5
21D
100
AcDbEntity
  8
0
100
AcDbLine
 62
9
  6
CONTINUOUS
 10
9.1947678843
 20
4.9142968147
 11
9.1723684195
 21
4.9142968147
  0
LINE
  5
21E
100
AcDbEntity
  8
0
100
AcDbLine
 62
9
  6
CONTINUOUS
 10
9.2379183834
 20
4.9424132557
 11
11.0595563018
 21
4.9424132557
  0
LINE
  5
21F
100
AcDbEntity
  8
0
100
AcDbLine
 62
7
  6
CONTINUOUS
 10
9.260098815
 20
4.9466635611
 11
11.0373758702
 21
4.9466635611
  0
LINE
  5
220
100
AcDbEntity
  8
0
100
AcDbLine
 62
7
  6
CONTINUOUS
 10
11.0237373426
 20
5.0816635611
 11
9.2737373426
 21
5.0816635611
  0
LWPOLYLINE
  5
221
100
AcDbEntity
  8
0
100
AcDbPolyline
 62
7
  6
CONTINUOUS
 90
8
 70
0
 10
11.4730325088
 20
5.8073475604
 10
11.473607367
 20
5.8073558237
 10
11.4771114279
 20
5.8077679175
 10
11.4804885473
 20
5.8087893419
 10
11.4836336273
 20
5.8103883085
 10
11.4864487916
 20
5.8125150552
 10
11.4888464312
 20
5.8151033952
 10
11.4894517447
 20
5.8159279121
  0
LINE
  5
222
100
AcDbEntity
  8
0
100
AcDbLine
 62
7
  6
CONTINUOUS
 10
11.4730325088
 20
5.8073474103
 11
11.2712391165
 21
5.8073474103
  0
LINE
  5
223
100
AcDbEntity
  8
0
100
AcDbLine
 62
9
  6
CONTINUOUS
 10
11.4876249231
 20
5.8488795352
 11
11.2575091485
 21
5.8488795352
  0
LINE
  5
224
100
AcDbEntity
  8
0
100
AcDbLine
 62
7
  6
CONTINUOUS
 10
10.9445224583
 20
5.9556635611
 11
11.2237373426
 21
5.9556635611
  0
LINE
  5
225
100
AcDbEntity
  8
0
100
AcDbLine
 62
9
  6
CONTINUOUS
 10
11.4876249231
 20
6.0105376105
 11
11.2575091485
 21
6.0105376105
  0
LINE
  5
226
100
AcDbEntity
  8
0
100
AcDbLine
 62
9
  6
CONTINUOUS
 10
11.240300221
 20
6.2762249251
 11
11.2575091485
 21
6.2790054857
  0
LINE
  5
227
100
AcDbEntity
  8
0
100
AcDbLine
 62
7
  6
CONTINUOUS
 10
12.6137373426
 20
6.0606635611
 11
11.8437373426
 21
6.0606635611
  0
LINE
  5
228
100
AcDbEntity
  8
0
100
AcDbLine
 62
9
  6
CONTINUOUS
 10
11.4876249231
 20
6.2790054857
 11
11.2575091485
 21
6.2790054857
  0
LINE
  5
229
100
AcDbEntity
  8
0
100
AcDbLine
 62
9
  6
CONTINUOUS
 10
11.503515652
 20
6.6056352111
 11
11.4876249231
 21
6.6023216364
  0
LINE
  5
22A
100
AcDbEntity
  8
0
100
AcDbLine
 62
9
  6
CONTINUOUS
 10
11.4876249231
 20
6.6023216364
 11
11.2575091485
 21
6.6023216364
  0
LINE
  5
22B
100
AcDbEntity
  8
0
100
AcDbLine
 62
9
  6
CONTINUOUS
 10
11.503515652
 20
6.275691911
 11
11.4876249231
 21
6.2790054857
  0
LINE
  5
22C
100
AcDbEntity
  8
0
100
AcDbLine
 62
7
  6
CONTINUOUS
 10
11.8437373426
 20
6.8206635611
 11
12.0477153398
 21
6.8206635611
  0
LINE
  5
22D
100
AcDbEntity
  8
0
100
AcDbLine
 62
7
  6
CONTINUOUS
 10
12.4997593513
 20
6.8206635611
 11
12.6137373426
 21
6.8206635611
  0
LINE
  5
22E
100
AcDbEntity
  8
0
100
AcDbLine
 62
9
  6
CONTINUOUS
 10
11.4876249231
 20
6.8707895116
 11
11.2575091485
 21
6.8707895116
  0
LINE
  5
22F
100
AcDbEntity
  8
0
100
AcDbLine
 62
7
  6
CONTINUOUS
 10
10.9445224582
 20
6.9256635611
 11
11.2237373426
 21
6.9256635611
  0
LINE
  5
230
100
AcDbEntity
  8
0
100
AcDbLine
 62
9
  6
CONTINUOUS
 10
11.240300221
 20
6.605102197
 11
11.2575091485
 21
6.6023216364
  0
LINE
  5
231
100
AcDbEntity
  8
0
100
AcDbLine
 62
9
  6
CONTINUOUS
 10
11.4876249231
 20
7.032447587
 11
11.2575091485
 21
7.032447587
  0
LINE
  5
232
100
AcDbEntity
  8
0
100
AcDbLine
 62
7
  6
CONTINUOUS
 10
11.4730325089
 20
7.0739797118
 11
11.2712391165
 21
7.0739797118
  0
LINE
  5
233
100
AcDbEntity
  8
0
100
AcDbLine
 62
7
  6
CONTINUOUS
 10
9.1607373426
 20
4.7071951396
 11
9.1607373426
 21
4.8961319825
  0
LINE
  5
234
100
AcDbEntity
  8
0
100
AcDbLine
 62
9
  6
CONTINUOUS
 10
9.1834036428
 20
4.8961319825
 11
9.1834036428
 21
4.7071951396
  0
LINE
  5
235
100
AcDbEntity
  8
0
100
AcDbLine
 62
9
  6
CONTINUOUS
 10
9.1922862826
 20
4.897358046
 11
9.1922862826
 21
4.7059690761
  0
LINE
  5
236
100
AcDbEntity
  8
0
100
AcDbLine
 62
7
  6
CONTINUOUS
 10
9.2392373426
 20
7.429399956
 11
9.2392373426
 21
7.6299271662
  0
LINE
  5
237
100
AcDbEntity
  8
0
100
AcDbLine
 62
9
  6
CONTINUOUS
 10
9.259184961
 20
7.6299271662
 11
9.259184961
 21
7.429399956
  0
LINE
  5
238
100
AcDbEntity
  8
0
100
AcDbLine
 62
9
  6
CONTINUOUS
 10
9.2681483279
 20
7.6313202806
 11
9.2681483279
 21
7.4280068415
  0
LINE
  5
239
100
AcDbEntity
  8
0
100
AcDbLine
 62
7
  6
CONTINUOUS
 10
9.2737373426
 20
4.9466635611
 11
9.2737373426
 21
5.0816635611
  0
LINE
  5
23A
100
AcDbEntity
  8
0
100
AcDbLine
 62
7
  6
CONTINUOUS
 10
10.9737373426
 20
7.3796635611
 11
9.3237373426
 21
7.3796635611
  0
LINE
  5
23B
100
AcDbEntity
  8
0
100
AcDbLine
 62
9
  6
CONTINUOUS
 10
9.250117491
 20
7.4116002844
 11
9.2698264805
 21
7.4116002844
  0
LINE
  5
23C
100
AcDbEntity
  8
0
100
AcDbLine
 62
9
  6
CONTINUOUS
 10
9.5471862588
 20
7.4116002844
 11
9.8713775642
 21
7.4116002844
  0
LINE
  5
23D
100
AcDbEntity
  8
0
100
AcDbLine
 62
9
  6
CONTINUOUS
 10
10.4260971209
 20
7.4116002844
 11
10.7502884263
 21
7.4116002844
  0
LINE
  5
23E
100
AcDbEntity
  8
0
100
AcDbLine
 62
9
  6
CONTINUOUS
 10
11.0276482047
 20
7.4116002844
 11
11.0473571942
 21
7.4116002844
  0
LINE
  5
23F
100
AcDbEntity
  8
0
100
AcDbLine
 62
9
  6
CONTINUOUS
 10
9.2392373426
 20
7.429399956
 11
9.259184961
 21
7.429399956
  0
LINE
  5
240
100
AcDbEntity
  8
0
100
AcDbLine
 62
9
  6
CONTINUOUS
 10
9.5399029064
 20
7.429399956
 11
9.8680193972
 21
7.429399956
  0
LINE
  5
241
100
AcDbEntity
  8
0
100
AcDbLine
 62
9
  6
CONTINUOUS
 10
10.4294552879
 20
7.429399956
 11
10.7575717787
 21
7.429399956
  0
LINE
  5
242
100
AcDbEntity
  8
0
100
AcDbLine
 62
9
  6
CONTINUOUS
 10
11.0382897241
 20
7.429399956
 11
11.0582373426
 21
7.429399956
  0
LINE
  5
243
100
AcDbEntity
  8
0
100
AcDbLine
 62
9
  6
CONTINUOUS
 10
11.0582373426
 20
7.6299271662
 11
11.0382897241
 21
7.6299271662
  0
LINE
  5
244
100
AcDbEntity
  8
0
100
AcDbLine
 62
9
  6
CONTINUOUS
 10
10.7575717787
 20
7.6299271662
 11
10.4294552879
 21
7.6299271662
  0
LINE
  5
245
100
AcDbEntity
  8
0
100
AcDbLine
 62
9
  6
CONTINUOUS
 10
9.8680193972
 20
7.6299271662
 11
9.5399029064
 21
7.6299271662
  0
LINE
  5
246
100
AcDbEntity
  8
0
100
AcDbLine
 62
9
  6
CONTINUOUS
 10
9.259184961
 20
7.6299271662
 11
9.2392373426
 21
7.6299271662
  0
LINE
  5
247
100
AcDbEntity
  8
0
100
AcDbLine
 62
9
  6
CONTINUOUS
 10
11.0473571942
 20
7.6477268377
 11
11.0276482047
 21
7.6477268377
  0
LINE
  5
248
100
AcDbEntity
  8
0
100
AcDbLine
 62
9
  6
CONTINUOUS
 10
10.7502884263
 20
7.6477268377
 11
10.4260971209
 21
7.6477268377
  0
LINE
  5
249
100
AcDbEntity
  8
0
100
AcDbLine
 62
9
  6
CONTINUOUS
 10
9.8713775642
 20
7.6477268377
 11
9.5471862588
 21
7.6477268377
  0
LINE
  5
24A
100
AcDbEntity
  8
0
100
AcDbLine
 62
9
  6
CONTINUOUS
 10
9.2698264805
 20
7.6477268377
 11
9.250117491
 21
7.6477268377
  0
LINE
  5
24B
100
AcDbEntity
  8
0
100
AcDbLine
 62
9
  6
CONTINUOUS
 10
9.8726232357
 20
4.897358046
 11
9.8702410004
 21
4.9155413988
  0
LINE
  5
24C
100
AcDbEntity
  8
0
100
AcDbLine
 62
7
  6
CONTINUOUS
 10
9.3437373426
 20
5.0816635611
 11
9.3437373426
 21
7.3796635611
  0
LINE
  5
24D
100
AcDbEntity
  8
0
100
AcDbLine
 62
7
  6
CONTINUOUS
 10
9.3737373426
 20
7.6796635611
 11
9.3737373426
 21
7.7496635611
  0
LINE
  5
24E
100
AcDbEntity
  8
0
100
AcDbLine
 62
9
  6
CONTINUOUS
 10
9.4684003894
 20
4.7059690761
 11
9.4684003894
 21
4.897358046
  0
LINE
  5
24F
100
AcDbEntity
  8
0
100
AcDbLine
 62
9
  6
CONTINUOUS
 10
9.4838449838
 20
4.7071951396
 11
9.4838449838
 21
4.8961319825
  0
LINE
  5
250
100
AcDbEntity
  8
0
100
AcDbLine
 62
9
  6
CONTINUOUS
 10
9.5241742055
 20
7.4280068415
 11
9.5241742055
 21
7.6313202806
  0
LINE
  5
251
100
AcDbEntity
  8
0
100
AcDbLine
 62
9
  6
CONTINUOUS
 10
9.5399029064
 20
7.429399956
 11
9.5399029064
 21
7.6299271662
  0
LINE
  5
252
100
AcDbEntity
  8
0
100
AcDbLine
 62
7
  6
CONTINUOUS
 10
10.9737373426
 20
7.6796635611
 11
9.3237373426
 21
7.6796635611
  0
LINE
  5
253
100
AcDbEntity
  8
0
100
AcDbLine
 62
7
  6
CONTINUOUS
 10
10.9237373426
 20
7.7496635611
 11
9.3737373426
 21
7.7496635611
  0
LINE
  5
254
100
AcDbEntity
  8
0
100
AcDbLine
 62
7
  6
CONTINUOUS
 10
10.5487373426
 20
7.9106635611
 11
9.7487373426
 21
7.9106635611
  0
LINE
  5
255
100
AcDbEntity
  8
0
100
AcDbLine
 62
7
  6
CONTINUOUS
 10
9.7487373426
 20
7.7496635611
 11
9.7487373426
 21
7.9106635611
  0
LINE
  5
256
100
AcDbEntity
  8
0
100
AcDbLine
 62
9
  6
CONTINUOUS
 10
9.8482960016
 20
4.8961319825
 11
9.8482960016
 21
4.7071951396
  0
LINE
  5
257
100
AcDbEntity
  8
0
100
AcDbLine
 62
9
  6
CONTINUOUS
 10
9.8680193972
 20
7.6299271662
 11
9.8680193972
 21
7.429399956
  0
LINE
  5
258
100
AcDbEntity
  8
0
100
AcDbLine
 62
9
  6
CONTINUOUS
 10
9.8726232357
 20
4.897358046
 11
9.8726232357
 21
4.7059690761
  0
LINE
  5
259
100
AcDbEntity
  8
0
100
AcDbLine
 62
9
  6
CONTINUOUS
 10
9.892711465
 20
7.6313202806
 11
9.892711465
 21
7.4280068415
  0
LINE
  5
25A
100
AcDbEntity
  8
0
100
AcDbLine
 62
7
  6
CONTINUOUS
 10
9.8987373426
 20
7.9106635611
 11
9.8987373426
 21
13.6296635611
  0
LINE
  5
25B
100
AcDbEntity
  8
0
100
AcDbLine
 62
9
  6
CONTINUOUS
 10
9.892711465
 20
7.6313202806
 11
9.8901044762
 21
7.6491659601
  0
LINE
  5
25C
100
AcDbEntity
  8
0
100
AcDbLine
 62
9
  6
CONTINUOUS
 10
10.4248514494
 20
4.7059690761
 11
10.4272336848
 21
4.6877857234
  0
LINE
  5
25D
100
AcDbEntity
  8
0
100
AcDbLine
 62
9
  6
CONTINUOUS
 10
9.892711465
 20
7.4280068415
 11
9.8901044762
 21
7.4101611621
  0
LWPOLYLINE
  5
25E
100
AcDbEntity
  8
0
100
AcDbPolyline
 62
7
  6
CONTINUOUS
 90
8
 70
0
 10
11.4894517448
 20
7.0653992098
 10
11.4888464308
 20
7.0662237274
 10
11.4864487907
 20
7.0688120677
 10
11.4836336261
 20
7.0709388143
 10
11.4804885459
 20
7.0725377806
 10
11.4771114267
 20
7.0735592047
 10
11.4736073663
 20
7.0739712983
 10
11.4730325089
 20
7.0739795615
  0
LINE
  5
25F
100
AcDbEntity
  8
0
100
AcDbLine
 62
7
  6
CONTINUOUS
 10
11.4937373426
 20
7.0590649856
 11
11.4894517178
 21
7.0653991911
  0
LINE
  5
260
100
AcDbEntity
  8
0
100
AcDbLine
 62
9
  6
CONTINUOUS
 10
10.4047632202
 20
7.4280068415
 11
10.407370209
 21
7.4101611621
  0
LINE
  5
261
100
AcDbEntity
  8
0
100
AcDbLine
 62
7
  6
CONTINUOUS
 10
10.3987373426
 20
7.9106635611
 11
10.3987373426
 21
13.6296635611
  0
LINE
  5
262
100
AcDbEntity
  8
0
100
AcDbLine
 62
9
  6
CONTINUOUS
 10
10.4047632202
 20
7.4280068415
 11
10.4047632202
 21
7.6313202806
  0
LINE
  5
263
100
AcDbEntity
  8
0
100
AcDbLine
 62
9
  6
CONTINUOUS
 10
10.4248514494
 20
4.7059690761
 11
10.4248514494
 21
4.897358046
  0
LINE
  5
264
100
AcDbEntity
  8
0
100
AcDbLine
 62
9
  6
CONTINUOUS
 10
10.4294552879
 20
7.429399956
 11
10.4294552879
 21
7.6299271662
  0
LINE
  5
265
100
AcDbEntity
  8
0
100
AcDbLine
 62
9
  6
CONTINUOUS
 10
10.4491786835
 20
4.7071951396
 11
10.4491786835
 21
4.8961319825
  0
LINE
  5
266
100
AcDbEntity
  8
0
100
AcDbLine
 62
7
  6
CONTINUOUS
 10
10.5487373426
 20
7.7496635611
 11
10.5487373426
 21
7.9106635611
  0
LINE
  5
267
100
AcDbEntity
  8
0
100
AcDbLine
 62
9
  6
CONTINUOUS
 10
9.8726232357
 20
4.7059690761
 11
9.8702410004
 21
4.6877857234
  0
LINE
  5
268
100
AcDbEntity
  8
0
100
AcDbLine
 62
9
  6
CONTINUOUS
 10
10.4047632202
 20
7.6313202806
 11
10.407370209
 21
7.6491659601
  0
LINE
  5
269
100
AcDbEntity
  8
0
100
AcDbLine
 62
9
  6
CONTINUOUS
 10
12.3395552731
 20
7.1325742546
 11
12.3517424094
 21
7.1198820685
  0
LINE
  5
26A
100
AcDbEntity
  8
0
100
AcDbLine
 62
9
  6
CONTINUOUS
 10
10.7575717787
 20
7.6299271662
 11
10.7575717787
 21
7.429399956
  0
LINE
  5
26B
100
AcDbEntity
  8
0
100
AcDbLine
 62
9
  6
CONTINUOUS
 10
10.7733004797
 20
7.6313202806
 11
10.7733004797
 21
7.4280068415
  0
LINE
  5
26C
100
AcDbEntity
  8
0
100
AcDbLine
 62
9
  6
CONTINUOUS
 10
10.8136297014
 20
4.8961319825
 11
10.8136297014
 21
4.7071951396
  0
LINE
  5
26D
100
AcDbEntity
  8
0
100
AcDbLine
 62
9
  6
CONTINUOUS
 10
10.8290742957
 20
4.897358046
 11
10.8290742957
 21
4.7059690761
  0
LINE
  5
26E
100
AcDbEntity
  8
0
100
AcDbLine
 62
7
  6
CONTINUOUS
 10
10.9237373426
 20
7.6796635611
 11
10.9237373426
 21
7.7496635611
  0
LINE
  5
26F
100
AcDbEntity
  8
0
100
AcDbLine
 62
7
  6
CONTINUOUS
 10
10.9537373426
 20
5.0816635611
 11
10.9537373426
 21
5.9406635611
  0
LINE
  5
270
100
AcDbEntity
  8
0
100
AcDbLine
 62
7
  6
CONTINUOUS
 10
10.9537373426
 20
6.9406635611
 11
10.9537373426
 21
7.3796635611
  0
LINE
  5
271
100
AcDbEntity
  8
0
100
AcDbLine
 62
7
  6
CONTINUOUS
 10
12.2741714097
 20
9.0346636646
 11
12.2733032755
 21
9.0346636646
  0
LINE
  5
272
100
AcDbEntity
  8
0
100
AcDbLine
 62
7
  6
CONTINUOUS
 10
11.0237373426
 20
4.9466635611
 11
11.0237373426
 21
5.0816635611
  0
LINE
  5
273
100
AcDbEntity
  8
0
100
AcDbLine
 62
9
  6
CONTINUOUS
 10
11.0293263573
 20
7.4280068415
 11
11.0293263573
 21
7.6313202806
  0
LINE
  5
274
100
AcDbEntity
  8
0
100
AcDbLine
 62
9
  6
CONTINUOUS
 10
11.0382897241
 20
7.429399956
 11
11.0382897241
 21
7.6299271662
  0
LINE
  5
275
100
AcDbEntity
  8
0
100
AcDbLine
 62
7
  6
CONTINUOUS
 10
11.0582373426
 20
7.429399956
 11
11.0582373426
 21
7.6299271662
  0
LINE
  5
276
100
AcDbEntity
  8
0
100
AcDbLine
 62
9
  6
CONTINUOUS
 10
11.1051884026
 20
4.7059690761
 11
11.1051884026
 21
4.897358046
  0
LINE
  5
277
100
AcDbEntity
  8
0
100
AcDbLine
 62
9
  6
CONTINUOUS
 10
11.1140710423
 20
4.7071951396
 11
11.1140710423
 21
4.8961319825
  0
LINE
  5
278
100
AcDbEntity
  8
0
100
AcDbLine
 62
7
  6
CONTINUOUS
 10
11.1367373426
 20
4.7071951396
 11
11.1367373426
 21
4.8961319825
  0
LINE
  5
279
100
AcDbEntity
  8
0
100
AcDbLine
 62
7
  6
CONTINUOUS
 10
11.2237373426
 20
5.8706635611
 11
11.2237373426
 21
7.0106635611
  0
LINE
  5
27A
100
AcDbEntity
  8
0
100
AcDbLine
 62
9
  6
CONTINUOUS
 10
10.4248514494
 20
4.897358046
 11
10.4272336848
 21
4.9155413988
  0
LINE
  5
27B
100
AcDbEntity
  8
0
100
AcDbLine
 62
7
  6
CONTINUOUS
 10
12.1046147417
 20
6.8997018405
 11
12.0241694153
 21
7.1401275778
  0
LINE
  5
27C
100
AcDbEntity
  8
0
100
AcDbLine
 62
9
  6
CONTINUOUS
 10
11.4937373426
 20
5.8222621365
 11
11.4937373426
 21
5.82760248
  0
LINE
  5
27D
100
AcDbEntity
  8
0
100
AcDbLine
 62
9
  6
CONTINUOUS
 10
11.4937373426
 20
6.0639025104
 11
11.4937373426
 21
6.2043635307
  0
LINE
  5
27E
100
AcDbEntity
  8
0
100
AcDbLine
 62
9
  6
CONTINUOUS
 10
11.4937373426
 20
6.6769635914
 11
11.4937373426
 21
6.8174246118
  0
LINE
  5
27F
100
AcDbEntity
  8
0
100
AcDbLine
 62
9
  6
CONTINUOUS
 10
11.4937373426
 20
7.0537246421
 11
11.4937373426
 21
7.0590649856
  0
LINE
  5
280
100
AcDbEntity
  8
0
100
AcDbLine
 62
9
  6
CONTINUOUS
 10
11.5937373426
 20
5.9081909963
 11
11.5937373426
 21
6.9731361259
  0
LWPOLYLINE
  5
281
100
AcDbEntity
  8
0
100
AcDbPolyline
 62
7
  6
CONTINUOUS
 90
4
 70
0
 10
12.0221046637
 20
7.1528099308
 10
12.022275419
 20
7.1491192271
 10
12.0232170471
 20
7.1434458593
 10
12.0241700377
 20
7.1401277859
  0
LINE
  5
282
100
AcDbEntity
  8
0
100
AcDbLine
 62
9
  6
CONTINUOUS
 10
11.6737373426
 20
5.9333447079
 11
11.6737373426
 21
6.9479824142
  0
LINE
  5
283
100
AcDbEntity
  8
0
100
AcDbLine
 62
9
  6
CONTINUOUS
 10
11.7487725534
 20
6.9364660302
 11
11.7487725534
 21
5.9448610919
  0
LINE
  5
284
100
AcDbEntity
  8
0
100
AcDbLine
 62
7
  6
CONTINUOUS
 10
11.7837373426
 20
6.8967842126
 11
11.7837373426
 21
5.9845429095
  0
LINE
  5
285
100
AcDbEntity
  8
0
100
AcDbLine
 62
9
  6
CONTINUOUS
 10
11.8437373426
 20
6.0606635611
 11
11.8437373426
 21
6.8206635611
  0
LINE
  5
286
100
AcDbEntity
  8
0
100
AcDbLine
 62
9
  6
CONTINUOUS
 10
12.207919412
 20
8.9703052307
 11
12.204899712
 21
9.0091853027
  0
LINE
  5
287
100
AcDbEntity
  8
0
100
AcDbLine
 62
7
  6
CONTINUOUS
 10
12.0221014812
 20
8.9686389342
 11
12.0221014812
 21
7.1528099291
  0
LINE
  5
288
100
AcDbEntity
  8
0
100
AcDbLine
 62
9
  6
CONTINUOUS
 10
12.0381784327
 20
8.9703052307
 11
12.0381784327
 21
7.1325742547
  0
LINE
  5
289
100
AcDbEntity
  8
0
100
AcDbLine
 62
9
  6
CONTINUOUS
 10
12.1039963634
 20
8.9703052307
 11
12.1039963634
 21
7.1325742547
  0
LINE
  5
28A
100
AcDbEntity
  8
0
100
AcDbLine
 62
9
  6
CONTINUOUS
 10
12.2079194119
 20
8.9703052307
 11
12.2079194119
 21
7.1325742547
  0
LINE
  5
28B
100
AcDbEntity
  8
0
100
AcDbLine
 62
9
  6
CONTINUOUS
 10
12.3395552733
 20
8.9703052307
 11
12.3395552733
 21
7.1325742547
  0
LINE
  5
28C
100
AcDbEntity
  8
0
100
AcDbLine
 62
9
  6
CONTINUOUS
 10
12.4434783217
 20
8.9703052307
 11
12.4434783217
 21
7.1325742547
  0
LINE
  5
28D
100
AcDbEntity
  8
0
100
AcDbLine
 62
9
  6
CONTINUOUS
 10
12.5092962524
 20
8.9703052307
 11
12.5092962524
 21
7.1325742547
  0
LINE
  5
28E
100
AcDbEntity
  8
0
100
AcDbLine
 62
7
  6
CONTINUOUS
 10
12.525373204
 20
8.9686389342
 11
12.525373204
 21
7.1528099291
  0
LINE
  5
28F
100
AcDbEntity
  8
0
100
AcDbLine
 62
7
  6
CONTINUOUS
 10
12.6137373426
 20
6.0606635611
 11
12.6137373426
 21
6.8206635611
  0
LINE
  5
290
100
AcDbEntity
  8
0
100
AcDbLine
 62
9
  6
CONTINUOUS
 10
12.3395552733
 20
8.9703052307
 11
12.3425749732
 21
9.0091853027
  0
LINE
  5
291
100
AcDbEntity
  8
0
100
AcDbLine
 62
7
  6
CONTINUOUS
 10
12.7137373426
 20
6.0832038941
 11
12.7137373426
 21
6.798123228
  0
LINE
  5
292
100
AcDbEntity
  8
0
100
AcDbLine
 62
7
  6
CONTINUOUS
 10
10.3987357641
 20
11.1296635611
 11
9.898738921
 21
11.1296635611
  0
LWPOLYLINE
  5
293
100
AcDbEntity
  8
0
100
AcDbPolyline
 62
7
  6
CONTINUOUS
 90
4
 70
0
 10
12.5233046475
 20
7.1401277859
 10
12.524257638
 20
7.1434458593
 10
12.5251992662
 20
7.1491192271
 10
12.5253700214
 20
7.1528099308
  0
LINE
  5
294
100
AcDbEntity
  8
0
100
AcDbLine
 62
7
  6
CONTINUOUS
 10
12.4428599435
 20
6.8997018405
 11
12.5233052699
 21
7.1401275778
  0
LINE
  5
295
100
AcDbEntity
  8
0
100
AcDbLine
 62
7
  6
CONTINUOUS
 10
11.4937373426
 20
5.8222621365
 11
11.4894517177
 21
5.8159279309
  0
LINE
  5
296
100
AcDbEntity
  8
0
100
AcDbLine
 62
9
  6
CONTINUOUS
 10
12.2079194119
 20
7.1325742547
 11
12.1957322756
 21
7.1198820686
  0
LINE
  5
297
100
AcDbEntity
  8
0
100
AcDbLine
 62
9
  6
CONTINUOUS
 10
10.3987373426
 20
11.6296635611
 11
9.8987373426
 21
11.6296635611
  0
ARC
  5
298
100
AcDbEntity
  8
0
100
AcDbCircle
 62
7
  6
CONTINUOUS
 10
9.7347600502
 20
3.6936200951
 40
1.344
100
AcDbArc
 50
111.6955047478
 51
114.7365254906
  0
ARC
  5
299
100
AcDbEntity
  8
0
100
AcDbCircle
 62
7
  6
CONTINUOUS
 10
10.562714635
 20
3.6936200951
 40
1.344
100
AcDbArc
 50
65.2634745094
 51
68.3044952522
  0
ARC
  5
29A
100
AcDbEntity
  8
0
100
AcDbCircle
 62
7
  6
CONTINUOUS
 10
10.562714635
 20
5.9097070271
 40
1.344
100
AcDbArc
 50
291.6955047478
 51
294.7365254906
  0
ARC
  5
29B
100
AcDbEntity
  8
0
100
AcDbCircle
 62
7
  6
CONTINUOUS
 10
9.7347600502
 20
5.9097070271
 40
1.344
100
AcDbArc
 50
245.2634745094
 51
248.3044952522
  0
ARC
  5
29C
100
AcDbEntity
  8
0
100
AcDbCircle
 62
9
  6
CONTINUOUS
 10
10.6938280778
 20
6.1145766437
 40
0.8498288077
100
AcDbArc
 50
339.9160504354
 51
340.2641254841
  0
ARC
  5
29D
100
AcDbEntity
  8
0
100
AcDbCircle
 62
9
  6
CONTINUOUS
 10
10.7007197411
 20
6.7692275969
 40
0.8425054807
100
AcDbArc
 50
19.7355751694
 51
20.0868630856
  0
ARC
  5
29E
100
AcDbEntity
  8
0
100
AcDbCircle
 62
7
  6
CONTINUOUS
 10
10.7620892501
 20
7.0909550902
 40
0.6255977771
100
AcDbArc
 50
62.8711832612
 51
70.2258512461
  0
ARC
  5
29F
100
AcDbEntity
  8
0
100
AcDbCircle
 62
7
  6
CONTINUOUS
 10
9.5353854351
 20
7.0909550902
 40
0.6255977771
100
AcDbArc
 50
109.7741487539
 51
117.1288167388
  0
ARC
  5
2A0
100
AcDbEntity
  8
0
100
AcDbCircle
 62
7
  6
CONTINUOUS
 10
10.7620892501
 20
7.9683720319
 40
0.6255977771
100
AcDbArc
 50
289.7741487539
 51
297.1288167388
  0
ARC
  5
2A1
100
AcDbEntity
  8
0
100
AcDbCircle
 62
7
  6
CONTINUOUS
 10
9.5353854351
 20
7.9683720319
 40
0.6255977771
100
AcDbArc
 50
242.8711832612
 51
250.2258512461
  0
ARC
  5
2A2
100
AcDbEntity
  8
0
100
AcDbCircle
 62
7
  6
CONTINUOUS
 10
9.260098815
 20
4.8866635611
 40
0.06
100
AcDbArc
 50
90.0
 51
111.6955047478
  0
ARC
  5
2A3
100
AcDbEntity
  8
0
100
AcDbCircle
 62
7
  6
CONTINUOUS
 10
9.260098815
 20
4.7166635611
 40
0.06
100
AcDbArc
 50
248.3044952522
 51
270.0
  0
ARC
  5
2A4
100
AcDbEntity
  8
0
100
AcDbCircle
 62
7
  6
CONTINUOUS
 10
9.2592373426
 20
7.429399956
 40
0.02
100
AcDbArc
 50
180.0
 51
242.8711832612
  0
ARC
  5
2A5
100
AcDbEntity
  8
0
100
AcDbCircle
 62
7
  6
CONTINUOUS
 10
9.2592373426
 20
7.6299271662
 40
0.02
100
AcDbArc
 50
117.1288167388
 51
180.0
  0
ARC
  5
2A6
100
AcDbEntity
  8
0
100
AcDbCircle
 62
7
  6
CONTINUOUS
 10
9.1807373426
 20
4.7071951396
 40
0.02
100
AcDbArc
 50
180.0
 51
245.2634745094
  0
ARC
  5
2A7
100
AcDbEntity
  8
0
100
AcDbCircle
 62
7
  6
CONTINUOUS
 10
9.1807373426
 20
4.8961319825
 40
0.02
100
AcDbArc
 50
114.7365254906
 51
180.0
  0
ARC
  5
2A8
100
AcDbEntity
  8
0
100
AcDbCircle
 62
7
  6
CONTINUOUS
 10
10.1487373426
 20
13.6296635611
 40
0.25
100
AcDbArc
 50
0.0
 51
180.0
  0
ARC
  5
2A9
100
AcDbEntity
  8
0
100
AcDbCircle
 62
7
  6
CONTINUOUS
 10
11.9320262313
 20
8.3806635611
 40
1.4557775993
100
AcDbArc
 50
259.7802889337
 51
262.7684068827
  0
ARC
  5
2AA
100
AcDbEntity
  8
0
100
AcDbCircle
 62
7
  6
CONTINUOUS
 10
11.9320262313
 20
4.5006635611
 40
1.4557775993
100
AcDbArc
 50
97.2315931173
 51
100.2197110663
  0
ARC
  5
2AB
100
AcDbEntity
  8
0
100
AcDbCircle
 62
7
  6
CONTINUOUS
 10
12.2733032755
 20
8.1246636646
 40
0.91
100
AcDbArc
 50
90.0
 51
104.0494927406
  0
ARC
  5
2AC
100
AcDbEntity
  8
0
100
AcDbCircle
 62
7
  6
CONTINUOUS
 10
12.2741714097
 20
8.1246636646
 40
0.91
100
AcDbArc
 50
75.9505072594
 51
90.0
  0
ARC
  5
2AD
100
AcDbEntity
  8
0
100
AcDbCircle
 62
9
  6
CONTINUOUS
 10
12.2737396994
 20
8.1229575047
 40
0.8888970721
100
AcDbArc
 50
85.5586272785
 51
94.4412576181
  0
ARC
  5
2AE
100
AcDbEntity
  8
0
100
AcDbCircle
 62
9
  6
CONTINUOUS
 10
12.2737398942
 20
8.12288211
 40
0.8499750641
100
AcDbArc
 50
85.5590204103
 51
94.4408452102
  0
ARC
  5
2AF
100
AcDbEntity
  8
0
100
AcDbCircle
 62
9
  6
CONTINUOUS
 10
12.0251316992
 20
7.2414852497
 40
0.5767237456
100
AcDbArc
 50
198.1265378817
 51
201.2511767787
  0
ARC
  5
2B0
100
AcDbEntity
  8
0
100
AcDbCircle
 62
9
  6
CONTINUOUS
 10
12.0123043402
 20
5.6444319177
 40
0.5631050693
100
AcDbArc
 50
158.7110288702
 51
161.9112564695
  0
ARC
  5
2B1
100
AcDbEntity
  8
0
100
AcDbCircle
 62
9
  6
CONTINUOUS
 10
11.9860312281
 20
7.217999545
 40
0.5189792996
100
AcDbArc
 50
198.4534808323
 51
201.6057493813
  0
ARC
  5
2B2
100
AcDbEntity
  8
0
100
AcDbCircle
 62
9
  6
CONTINUOUS
 10
11.974824853
 20
5.667412925
 40
0.5070560977
100
AcDbArc
 50
158.3571788279
 51
161.5835909584
  0
ARC
  5
2B3
100
AcDbEntity
  8
0
100
AcDbCircle
 62
7
  6
CONTINUOUS
 10
11.7328128734
 20
5.6056635611
 40
0.3329637403
100
AcDbArc
 50
100.2197110663
 51
114.6888154298
  0
ARC
  5
2B4
100
AcDbEntity
  8
0
100
AcDbCircle
 62
7
  6
CONTINUOUS
 10
11.7328128734
 20
7.2756635611
 40
0.3329637403
100
AcDbArc
 50
245.3111845702
 51
259.7802889337
  0
ARC
  5
2B5
100
AcDbEntity
  8
0
100
AcDbCircle
 62
7
  6
CONTINUOUS
 10
11.4812252064
 20
5.9806635611
 40
0.28
100
AcDbArc
 50
203.1323963993
 51
216.1341261662
  0
ARC
  5
2B6
100
AcDbEntity
  8
0
100
AcDbCircle
 62
7
  6
CONTINUOUS
 10
11.4812252064
 20
6.9006635611
 40
0.28
100
AcDbArc
 50
143.8658738338
 51
156.8676036007
  0
ARC
  5
2B7
100
AcDbEntity
  8
0
100
AcDbCircle
 62
7
  6
CONTINUOUS
 10
11.6937373426
 20
5.6906635611
 40
0.2394121657
100
AcDbArc
 50
114.6888154298
 51
146.6553683898
  0
ARC
  5
2B8
100
AcDbEntity
  8
0
100
AcDbCircle
 62
7
  6
CONTINUOUS
 10
11.6937373426
 20
7.1906635611
 40
0.2394121657
100
AcDbArc
 50
213.3446316102
 51
245.3111845702
  0
ARC
  5
2B9
100
AcDbEntity
  8
0
100
AcDbCircle
 62
7
  6
CONTINUOUS
 10
11.0373758702
 20
4.8866635611
 40
0.06
100
AcDbArc
 50
68.3044952522
 51
90.0
  0
ARC
  5
2BA
100
AcDbEntity
  8
0
100
AcDbCircle
 62
7
  6
CONTINUOUS
 10
11.0373758702
 20
4.7166635611
 40
0.06
100
AcDbArc
 50
270.0
 51
291.6955047478
  0
ARC
  5
2BB
100
AcDbEntity
  8
0
100
AcDbCircle
 62
7
  6
CONTINUOUS
 10
11.8437373426
 20
6.0006635611
 40
0.06
100
AcDbArc
 50
90.0
 51
180.0
  0
ARC
  5
2BC
100
AcDbEntity
  8
0
100
AcDbCircle
 62
7
  6
CONTINUOUS
 10
11.8437373426
 20
6.8806635611
 40
0.06
100
AcDbArc
 50
180.0
 51
270.0
  0
ARC
  5
2BD
100
AcDbEntity
  8
0
100
AcDbCircle
 62
7
  6
CONTINUOUS
 10
12.0477153224
 20
6.8806635611
 40
0.06
100
AcDbArc
 50
270.0000166269
 51
18.5000000015
  0
ARC
  5
2BE
100
AcDbEntity
  8
0
100
AcDbCircle
 62
7
  6
CONTINUOUS
 10
12.4997593628
 20
6.8806635611
 40
0.06
100
AcDbArc
 50
161.4999999993
 51
269.9999866899
  0
ARC
  5
2BF
100
AcDbEntity
  8
0
100
AcDbCircle
 62
7
  6
CONTINUOUS
 10
12.6611970095
 20
6.798123228
 40
0.0525403331
100
AcDbArc
 50
0.0
 51
154.5952455743
  0
ARC
  5
2C0
100
AcDbEntity
  8
0
100
AcDbCircle
 62
7
  6
CONTINUOUS
 10
12.6611970095
 20
6.0832038941
 40
0.0525403331
100
AcDbArc
 50
205.4047544257
 51
360.0
  0
ARC
  5
2C1
100
AcDbEntity
  8
0
100
AcDbCircle
 62
7
  6
CONTINUOUS
 10
11.7437373426
 20
5.9845429095
 40
0.04
100
AcDbArc
 50
277.2315931173
 51
360.0
  0
ARC
  5
2C2
100
AcDbEntity
  8
0
100
AcDbCircle
 62
7
  6
CONTINUOUS
 10
11.7437373426
 20
6.8967842126
 40
0.04
100
AcDbArc
 50
0.0
 51
82.7684068827
  0
ARC
  5
2C3
100
AcDbEntity
  8
0
100
AcDbCircle
 62
7
  6
CONTINUOUS
 10
11.0382373426
 20
7.429399956
 40
0.02
100
AcDbArc
 50
297.1288167388
 51
360.0
  0
ARC
  5
2C4
100
AcDbEntity
  8
0
100
AcDbCircle
 62
7
  6
CONTINUOUS
 10
11.0382373426
 20
7.6299271662
 40
0.02
100
AcDbArc
 50
0.0
 51
62.8711832612
  0
ARC
  5
2C5
100
AcDbEntity
  8
0
100
AcDbCircle
 62
7
  6
CONTINUOUS
 10
11.1167373426
 20
4.7071951396
 40
0.02
100
AcDbArc
 50
294.7365254906
 51
360.0
  0
ARC
  5
2C6
100
AcDbEntity
  8
0
100
AcDbCircle
 62
7
  6
CONTINUOUS
 10
11.1167373426
 20
4.8961319825
 40
0.02
100
AcDbArc
 50
0.0
 51
65.2634745094
  0
ARC
  5
2C7
100
AcDbEntity
  8
0
100
AcDbCircle
 62
7
  6
CONTINUOUS
 10
11.2712391165
 20
5.8273474103
 40
0.02
100
AcDbArc
 50
216.1341261662
 51
269.9999999998
  0
ARC
  5
2C8
100
AcDbEntity
  8
0
100
AcDbCircle
 62
7
  6
CONTINUOUS
 10
11.2712391165
 20
7.0539797118
 40
0.02
100
AcDbArc
 50
90.0000000002
 51
143.8658738338
  0
ARC
  5
2C9
100
AcDbEntity
  8
0
100
AcDbCircle
 62
9
  6
CONTINUOUS
 10
12.0980203676
 20
8.7886132127
 40
0.2232404685
100
AcDbArc
 50
81.1309314793
 51
98.8691368423
  0
ARC
  5
2CA
100
AcDbEntity
  8
0
100
AcDbCircle
 62
9
  6
CONTINUOUS
 10
12.4494543177
 20
8.7886132136
 40
0.2232404676
100
AcDbArc
 50
81.1308631563
 51
98.8690685895
  0
ARC
  5
2CB
100
AcDbEntity
  8
0
100
AcDbCircle
 62
9
  6
CONTINUOUS
 10
12.0710873981
 20
8.7593906385
 40
0.2134656822
100
AcDbArc
 50
81.1316561312
 51
98.8683438688
  0
ARC
  5
2CC
100
AcDbEntity
  8
0
100
AcDbCircle
 62
9
  6
CONTINUOUS
 10
12.4763872871
 20
8.759390649
 40
0.2134656719
100
AcDbArc
 50
81.1316556958
 51
98.8683443042
  0
ARC
  5
2CD
100
AcDbEntity
  8
0
100
AcDbCircle
 62
7
  6
CONTINUOUS
 10
12.4853725589
 20
8.968638768
 40
0.0399999974
100
AcDbArc
 50
0.0002380326
 51
75.9505072604
  0
ARC
  5
2CE
100
AcDbEntity
  8
0
100
AcDbCircle
 62
7
  6
CONTINUOUS
 10
12.0621021262
 20
8.968638768
 40
0.0399999974
100
AcDbArc
 50
104.0494927396
 51
179.9997619674
  0
SPLINE
  5
2CF
100
AcDbEntity
  8
0
100
AcDbSpline
 62
7
  6
CONTINUOUS
 70
0
 71
3
 72
33
 73
29
 74
0
 42
0.0000001
 43
0.0000001
 44
0.0000000001
 40
0.0
 40
0.0
 40
0.0
 40
0.0
 40
0.0110991911
 40
0.0431415102
 40
0.0930454038
 40
0.1235674786
 40
0.15723322
 40
0.1936648064
 40
0.2325263031
 40
0.2735167669
 40
0.3163557416
 40
0.3607611177
 40
0.406422605
 40
0.4529772395
 40
0.5000000036
 40
0.5470227661
 40
0.5935773995
 40
0.6392388874
 40
0.6836442632
 40
0.7264832362
 40
0.7674736994
 40
0.8063351948
 40
0.8427667804
 40
0.8764325217
 40
0.9069545964
 40
0.95685849
 40
0.988900809
 40
1.0
 40
1.0
 40
1.0
 40
1.0
 10
10.9537373426
 20
5.9406635611
 30
0.0
 10
10.9516431203
 20
5.9440352836
 30
0.0
 10
10.9435394836
 20
5.9571634985
 30
0.0
 10
10.9263794442
 20
5.9856727066
 30
0.0
 10
10.906447475
 20
6.0206144501
 30
0.0
 10
10.8871904554
 20
6.0565873494
 30
0.0
 10
10.8709620137
 20
6.0887069295
 30
0.0
 10
10.854394461
 20
6.123980974
 30
0.0
 10
10.8380250902
 20
6.1622183454
 30
0.0
 10
10.8224343632
 20
6.2032460412
 30
0.0
 10
10.8082549062
 20
6.2468792237
 30
0.0
 10
10.7961665808
 20
6.2928754201
 30
0.0
 10
10.7868624347
 20
6.3408784745
 30
0.0
 10
10.7809733058
 20
6.3903705668
 30
0.0
 10
10.7789543378
 20
6.4406635644
 30
0.0
 10
10.7809733062
 20
6.4909565615
 30
0.0
 10
10.7868624355
 20
6.5404486531
 30
0.0
 10
10.7961665819
 20
6.5884517071
 30
0.0
 10
10.8082549076
 20
6.6344479029
 30
0.0
 10
10.8224343645
 20
6.6780810844
 30
0.0
 10
10.8380250911
 20
6.7191087791
 30
0.0
 10
10.8543944616
 20
6.7573461494
 30
0.0
 10
10.870962014
 20
6.7926201933
 30
0.0
 10
10.8871904555
 20
6.824739773
 30
0.0
 10
10.9064474751
 20
6.8607126723
 30
0.0
 10
10.9263794443
 20
6.8956544157
 30
0.0
 10
10.9435394837
 20
6.9241636237
 30
0.0
 10
10.9516431203
 20
6.9372918386
 30
0.0
 10
10.9537373426
 20
6.9406635611
 30
0.0
  0
SPLINE
  5
2D0
100
AcDbEntity
  8
0
100
AcDbSpline
 62
9
  6
CONTINUOUS
 70
0
 71
3
 72
9
 73
5
 74
0
 42
0.0000001
 43
0.0000001
 44
0.0000000001
 40
0.0
 40
0.0
 40
0.0
 40
0.0
 40
0.4939744786
 40
1.0
 40
1.0
 40
1.0
 40
1.0
 10
9.8518329008
 20
4.6890303075
 30
0.0
 10
9.8548724777
 20
4.689030306
 30
0.0
 10
9.8610271788
 20
4.6888094937
 30
0.0
 10
9.8671539604
 20
4.6881925436
 30
0.0
 10
9.8702410004
 20
4.6877857234
 30
0.0
  0
SPLINE
  5
2D1
100
AcDbEntity
  8
0
100
AcDbSpline
 62
9
  6
CONTINUOUS
 70
0
 71
3
 72
15
 73
11
 74
0
 42
0.0000001
 43
0.0000001
 44
0.0000000001
 40
0.0
 40
0.0
 40
0.0
 40
0.0
 40
0.1249995724
 40
0.2500000696
 40
0.3749998273
 40
0.5000000001
 40
0.6250001728
 40
0.74999993
 40
0.8750004272
 40
1.0
 40
1.0
 40
1.0
 40
1.0
 10
9.8702410004
 20
4.6877857234
 30
0.0
 10
9.8933130349
 20
4.6847451967
 30
0.0
 10
9.9395675512
 20
4.6794725245
 30
0.0
 10
10.0091713465
 20
4.6738977196
 30
0.0
 10
10.078919652
 20
4.6705838588
 30
0.0
 10
10.1487373426
 20
4.6694845183
 30
0.0
 10
10.2185550332
 20
4.6705838594
 30
0.0
 10
10.2883033385
 20
4.6738977192
 30
0.0
 10
10.3579071338
 20
4.6794725244
 30
0.0
 10
10.4041616502
 20
4.6847451966
 30
0.0
 10
10.4272336848
 20
4.6877857234
 30
0.0
  0
SPLINE
  5
2D2
100
AcDbEntity
  8
0
100
AcDbSpline
 62
9
  6
CONTINUOUS
 70
0
 71
3
 72
9
 73
5
 74
0
 42
0.0000001
 43
0.0000001
 44
0.0000000001
 40
0.0
 40
0.0
 40
0.0
 40
0.0
 40
0.4939731433
 40
1.0
 40
1.0
 40
1.0
 40
1.0
 10
10.4491786835
 20
4.8961319825
 30
0.0
 10
10.4451667436
 20
4.896131983
 30
0.0
 10
10.4370439422
 20
4.8963486878
 30
0.0
 10
10.4289415932
 20
4.8969561904
 30
0.0
 10
10.4248514494
 20
4.897358046
 30
0.0
  0
SPLINE
  5
2D3
100
AcDbEntity
  8
0
100
AcDbSpline
 62
9
  6
CONTINUOUS
 70
0
 71
3
 72
9
 73
5
 74
0
 42
0.0000001
 43
0.0000001
 44
0.0000000001
 40
0.0
 40
0.0
 40
0.0
 40
0.0
 40
0.5060269065
 40
1.0
 40
1.0
 40
1.0
 40
1.0
 10
10.4248514494
 20
4.7059690761
 30
0.0
 10
10.4289415925
 20
4.7063709422
 30
0.0
 10
10.4370439432
 20
4.7069784291
 30
0.0
 10
10.4451667441
 20
4.7071951389
 30
0.0
 10
10.4491786835
 20
4.7071951396
 30
0.0
  0
SPLINE
  5
2D4
100
AcDbEntity
  8
0
100
AcDbSpline
 62
9
  6
CONTINUOUS
 70
0
 71
3
 72
11
 73
7
 74
0
 42
0.0000001
 43
0.0000001
 44
0.0000000001
 40
0.0
 40
0.0
 40
0.0
 40
0.0
 40
0.2145539168
 40
0.4533547491
 40
0.7155764626
 40
1.0
 40
1.0
 40
1.0
 40
1.0
 10
10.8290742957
 20
4.897358046
 30
0.0
 10
10.8279855357
 20
4.8971440998
 30
0.0
 10
10.8256680349
 20
4.8967767912
 30
0.0
 10
10.8219849916
 20
4.8964020495
 30
0.0
 10
10.8179279661
 20
4.8961778639
 30
0.0
 10
10.815100619
 20
4.8961319829
 30
0.0
 10
10.8136297014
 20
4.8961319825
 30
0.0
  0
SPLINE
  5
2D5
100
AcDbEntity
  8
0
100
AcDbSpline
 62
9
  6
CONTINUOUS
 70
0
 71
3
 72
11
 73
7
 74
0
 42
0.0000001
 43
0.0000001
 44
0.0000000001
 40
0.0
 40
0.0
 40
0.0
 40
0.0
 40
0.2844235656
 40
0.5466453075
 40
0.785446117
 40
1.0
 40
1.0
 40
1.0
 40
1.0
 10
10.8136297014
 20
4.7071951396
 30
0.0
 10
10.8151006191
 20
4.7071951394
 30
0.0
 10
10.8179279665
 20
4.7071492586
 30
0.0
 10
10.8219849922
 20
4.7069250736
 30
0.0
 10
10.825668035
 20
4.7065503279
 30
0.0
 10
10.8279855348
 20
4.7061830169
 30
0.0
 10
10.8290742957
 20
4.7059690761
 30
0.0
  0
SPLINE
  5
2D6
100
AcDbEntity
  8
0
100
AcDbSpline
 62
9
  6
CONTINUOUS
 70
0
 71
3
 72
12
 73
8
 74
0
 42
0.0000001
 43
0.0000001
 44
0.0000000001
 40
0.0
 40
0.0
 40
0.0
 40
0.0
 40
0.0799342152
 40
0.1729780345
 40
0.398092698
 40
0.6743632132
 40
1.0
 40
1.0
 40
1.0
 40
1.0
 10
11.1140710423
 20
4.8961319825
 30
0.0
 10
11.1138318495
 20
4.8961319827
 30
0.0
 10
11.1133142245
 20
4.8961480525
 30
0.0
 10
11.1121258957
 20
4.8962341928
 30
0.0
 10
11.1103592226
 20
4.8964486793
 30
0.0
 10
11.1079151542
 20
4.8968388434
 30
0.0
 10
11.1061445441
 20
4.8971701645
 30
0.0
 10
11.1051884026
 20
4.897358046
 30
0.0
  0
SPLINE
  5
2D7
100
AcDbEntity
  8
0
100
AcDbSpline
 62
9
  6
CONTINUOUS
 70
0
 71
3
 72
12
 73
8
 74
0
 42
0.0000001
 43
0.0000001
 44
0.0000000001
 40
0.0
 40
0.0
 40
0.0
 40
0.0
 40
0.3256368687
 40
0.6019073545
 40
0.8270219755
 40
0.9200657671
 40
1.0
 40
1.0
 40
1.0
 40
1.0
 10
11.1051884026
 20
4.7059690761
 30
0.0
 10
11.1061445434
 20
4.7061569623
 30
0.0
 10
11.1079151539
 20
4.7064882827
 30
0.0
 10
11.1103592231
 20
4.7068784422
 30
0.0
 10
11.1121258958
 20
4.7070929289
 30
0.0
 10
11.1133142244
 20
4.7071790694
 30
0.0
 10
11.1138318495
 20
4.7071951394
 30
0.0
 10
11.1140710423
 20
4.7071951396
 30
0.0
  0
SPLINE
  5
2D8
100
AcDbEntity
  8
0
100
AcDbSpline
 62
9
  6
CONTINUOUS
 70
0
 71
3
 72
9
 73
5
 74
0
 42
0.0000001
 43
0.0000001
 44
0.0000000001
 40
0.0
 40
0.0
 40
0.0
 40
0.0
 40
0.5060257174
 40
1.0
 40
1.0
 40
1.0
 40
1.0
 10
10.4272336848
 20
4.6877857234
 30
0.0
 10
10.4303207259
 20
4.6881925446
 30
0.0
 10
10.4364475077
 20
4.6888094939
 30
0.0
 10
10.4426022087
 20
4.6890303052
 30
0.0
 10
10.4456417844
 20
4.6890303075
 30
0.0
  0
SPLINE
  5
2D9
100
AcDbEntity
  8
0
100
AcDbSpline
 62
9
  6
CONTINUOUS
 70
0
 71
3
 72
11
 73
7
 74
0
 42
0.0000001
 43
0.0000001
 44
0.0000000001
 40
0.0
 40
0.0
 40
0.0
 40
0.0
 40
0.2840348962
 40
0.5459037438
 40
0.7846810235
 40
1.0
 40
1.0
 40
1.0
 40
1.0
 10
10.8058023591
 20
4.6890303075
 30
0.0
 10
10.8069164459
 20
4.6890303068
 30
0.0
 10
10.8090581309
 20
4.6889836055
 30
0.0
 10
10.8121291212
 20
4.6887553098
 30
0.0
 10
10.8149133205
 20
4.6883739986
 30
0.0
 10
10.8166576018
 20
4.6880015843
 30
0.0
 10
10.8174741082
 20
4.6877857234
 30
0.0
  0
SPLINE
  5
2DA
100
AcDbEntity
  8
0
100
AcDbSpline
 62
9
  6
CONTINUOUS
 70
0
 71
3
 72
15
 73
11
 74
0
 42
0.0000001
 43
0.0000001
 44
0.0000000001
 40
0.0
 40
0.0
 40
0.0
 40
0.0
 40
0.1260372902
 40
0.2509658942
 40
0.3752222278
 40
0.499208727
 40
0.6233024869
 40
0.7478735241
 40
0.8733040897
 40
1.0
 40
1.0
 40
1.0
 40
1.0
 10
10.8174741082
 20
4.6877857234
 30
0.0
 10
10.8289088307
 20
4.6847626826
 30
0.0
 10
10.8518857539
 20
4.6795011668
 30
0.0
 10
10.8866742304
 20
4.6739088781
 30
0.0
 10
10.9215595249
 20
4.6705854707
 30
0.0
 10
10.9565060988
 20
4.6694837971
 30
0.0
 10
10.9914821006
 20
4.6705873473
 30
0.0
 10
11.0264541619
 20
4.6739122401
 30
0.0
 10
11.0613824621
 20
4.6795053177
 30
0.0
 10
11.0844714233
 20
4.6847641538
 30
0.0
 10
11.0959704504
 20
4.6877857234
 30
0.0
  0
SPLINE
  5
2DB
100
AcDbEntity
  8
0
100
AcDbSpline
 62
9
  6
CONTINUOUS
 70
0
 71
3
 72
13
 73
9
 74
0
 42
0.0000001
 43
0.0000001
 44
0.0000000001
 40
0.0
 40
0.0
 40
0.0
 40
0.0
 40
0.3268741597
 40
0.6035867287
 40
0.7224975926
 40
0.8282369842
 40
0.9207318228
 40
1.0
 40
1.0
 40
1.0
 40
1.0
 10
11.0959704504
 20
4.6877857234
 30
0.0
 10
11.0966938037
 20
4.6879757967
 30
0.0
 10
11.0980337305
 20
4.6883110136
 30
0.0
 10
11.0996507756
 20
4.6886572977
 30
0.0
 10
11.1007813608
 20
4.6888524249
 30
0.0
 10
11.1015002512
 20
4.6889525037
 30
0.0
 10
11.1021324153
 20
4.6890138605
 30
0.0
 10
11.1025254302
 20
4.6890303069
 30
0.0
 10
11.1027068009
 20
4.6890303075
 30
0.0
  0
SPLINE
  5
2DC
100
AcDbEntity
  8
0
100
AcDbSpline
 62
9
  6
CONTINUOUS
 70
0
 71
3
 72
15
 73
11
 74
0
 42
0.0000001
 43
0.0000001
 44
0.0000000001
 40
0.0
 40
0.0
 40
0.0
 40
0.0
 40
0.1263438042
 40
0.2515284568
 40
0.3759512252
 40
0.4999999993
 40
0.6240487733
 40
0.7484715418
 40
0.8736561951
 40
1.0
 40
1.0
 40
1.0
 40
1.0
 10
9.4684003894
 20
4.897358046
 30
0.0
 10
9.4570308405
 20
4.9003371379
 30
0.0
 10
9.4341929738
 20
4.9055218609
 30
0.0
 10
9.3996324056
 20
4.9110279543
 30
0.0
 10
9.3650034735
 20
4.9143049374
 30
0.0
 10
9.3303433361
 20
4.9153856268
 30
0.0
 10
9.2956831987
 20
4.9143049388
 30
0.0
 10
9.2610542664
 20
4.9110279561
 30
0.0
 10
9.2264936982
 20
4.9055218618
 30
0.0
 10
9.2036558315
 20
4.900337138
 30
0.0
 10
9.1922862826
 20
4.897358046
 30
0.0
  0
SPLINE
  5
2DD
100
AcDbEntity
  8
0
100
AcDbSpline
 62
9
  6
CONTINUOUS
 70
0
 71
3
 72
12
 73
8
 74
0
 42
0.0000001
 43
0.0000001
 44
0.0000000001
 40
0.0
 40
0.0
 40
0.0
 40
0.0
 40
0.3256368687
 40
0.6019073545
 40
0.8270219755
 40
0.9200657671
 40
1.0
 40
1.0
 40
1.0
 40
1.0
 10
9.1922862826
 20
4.897358046
 30
0.0
 10
9.1913301418
 20
4.8971701598
 30
0.0
 10
9.1895595312
 20
4.8968388395
 30
0.0
 10
9.187115462
 20
4.89644868
 30
0.0
 10
9.1853487893
 20
4.8962341933
 30
0.0
 10
9.1841604607
 20
4.8961480527
 30
0.0
 10
9.1836428357
 20
4.8961319827
 30
0.0
 10
9.1834036428
 20
4.8961319825
 30
0.0
  0
SPLINE
  5
2DE
100
AcDbEntity
  8
0
100
AcDbSpline
 62
9
  6
CONTINUOUS
 70
0
 71
3
 72
12
 73
8
 74
0
 42
0.0000001
 43
0.0000001
 44
0.0000000001
 40
0.0
 40
0.0
 40
0.0
 40
0.0
 40
0.0799342152
 40
0.1729780345
 40
0.398092698
 40
0.6743632132
 40
1.0
 40
1.0
 40
1.0
 40
1.0
 10
9.1834036428
 20
4.7071951396
 30
0.0
 10
9.1836428356
 20
4.7071951395
 30
0.0
 10
9.1841604607
 20
4.7071790696
 30
0.0
 10
9.1853487895
 20
4.7070929294
 30
0.0
 10
9.1871154625
 20
4.7068784429
 30
0.0
 10
9.189559531
 20
4.7064882787
 30
0.0
 10
9.1913301411
 20
4.7061569576
 30
0.0
 10
9.1922862826
 20
4.7059690761
 30
0.0
  0
SPLINE
  5
2DF
100
AcDbEntity
  8
0
100
AcDbSpline
 62
9
  6
CONTINUOUS
 70
0
 71
3
 72
11
 73
7
 74
0
 42
0.0000001
 43
0.0000001
 44
0.0000000001
 40
0.0
 40
0.0
 40
0.0
 40
0.0
 40
0.2844235656
 40
0.5466453075
 40
0.785446117
 40
1.0
 40
1.0
 40
1.0
 40
1.0
 10
9.4838449838
 20
4.8961319825
 30
0.0
 10
9.482374066
 20
4.8961319828
 30
0.0
 10
9.4795467186
 20
4.8961778635
 30
0.0
 10
9.475489693
 20
4.8964020485
 30
0.0
 10
9.4718066501
 20
4.8967767943
 30
0.0
 10
9.4694891504
 20
4.8971441053
 30
0.0
 10
9.4684003894
 20
4.897358046
 30
0.0
  0
SPLINE
  5
2E0
100
AcDbEntity
  8
0
100
AcDbSpline
 62
9
  6
CONTINUOUS
 70
0
 71
3
 72
11
 73
7
 74
0
 42
0.0000001
 43
0.0000001
 44
0.0000000001
 40
0.0
 40
0.0
 40
0.0
 40
0.0
 40
0.2145539168
 40
0.4533547491
 40
0.7155764626
 40
1.0
 40
1.0
 40
1.0
 40
1.0
 10
9.4684003894
 20
4.7059690761
 30
0.0
 10
9.4694891495
 20
4.7061830224
 30
0.0
 10
9.4718066503
 20
4.706550331
 30
0.0
 10
9.4754896936
 20
4.7069250726
 30
0.0
 10
9.479546719
 20
4.7071492583
 30
0.0
 10
9.4823740661
 20
4.7071951393
 30
0.0
 10
9.4838449838
 20
4.7071951396
 30
0.0
  0
SPLINE
  5
2E1
100
AcDbEntity
  8
0
100
AcDbSpline
 62
9
  6
CONTINUOUS
 70
0
 71
3
 72
9
 73
5
 74
0
 42
0.0000001
 43
0.0000001
 44
0.0000000001
 40
0.0
 40
0.0
 40
0.0
 40
0.0
 40
0.5060269065
 40
1.0
 40
1.0
 40
1.0
 40
1.0
 10
9.8726232357
 20
4.897358046
 30
0.0
 10
9.8685330926
 20
4.8969561799
 30
0.0
 10
9.860430742
 20
4.896348693
 30
0.0
 10
9.8523079411
 20
4.8961319833
 30
0.0
 10
9.8482960016
 20
4.8961319825
 30
0.0
  0
SPLINE
  5
2E2
100
AcDbEntity
  8
0
100
AcDbSpline
 62
9
  6
CONTINUOUS
 70
0
 71
3
 72
9
 73
5
 74
0
 42
0.0000001
 43
0.0000001
 44
0.0000000001
 40
0.0
 40
0.0
 40
0.0
 40
0.0
 40
0.4939731433
 40
1.0
 40
1.0
 40
1.0
 40
1.0
 10
9.8482960016
 20
4.7071951396
 30
0.0
 10
9.8523079415
 20
4.7071951391
 30
0.0
 10
9.8604307429
 20
4.7069784343
 30
0.0
 10
9.868533092
 20
4.7063709317
 30
0.0
 10
9.8726232357
 20
4.7059690761
 30
0.0
  0
SPLINE
  5
2E3
100
AcDbEntity
  8
0
100
AcDbSpline
 62
9
  6
CONTINUOUS
 70
0
 71
3
 72
14
 73
10
 74
0
 42
0.0000001
 43
0.0000001
 44
0.0000000001
 40
0.0
 40
0.0
 40
0.0
 40
0.0
 40
0.1386092277
 40
0.2758320288
 40
0.409988572
 40
0.5398748783
 40
0.6644254149
 40
0.7828716272
 40
1.0
 40
1.0
 40
1.0
 40
1.0
 10
9.4838449838
 20
4.8961319825
 30
0.0
 10
9.4838449838
 20
4.8970786709
 30
0.0
 10
9.483935283
 20
4.8989638242
 30
0.0
 10
9.4843375244
 20
4.9017392316
 30
0.0
 10
9.4850003107
 20
4.904403584
 30
0.0
 10
9.4859097679
 20
4.9069021471
 30
0.0
 10
9.4870489376
 20
4.9091879721
 30
0.0
 10
9.4887894272
 20
4.9118084128
 30
0.0
 10
9.490448651
 20
4.9134590734
 30
0.0
 10
9.4916723261
 20
4.9142968147
 30
0.0
  0
SPLINE
  5
2E4
100
AcDbEntity
  8
0
100
AcDbSpline
 62
9
  6
CONTINUOUS
 70
0
 71
3
 72
16
 73
12
 74
0
 42
0.0000001
 43
0.0000001
 44
0.0000000001
 40
0.0
 40
0.0
 40
0.0
 40
0.0
 40
0.1517224353
 40
0.3008137938
 40
0.4443096489
 40
0.5797505272
 40
0.7048147999
 40
0.8174620686
 40
0.9161875479
 40
0.9600031763
 40
1.0
 40
1.0
 40
1.0
 40
1.0
 10
9.8482960017
 20
4.8961319825
 30
0.0
 10
9.8482960017
 20
4.897077803
 30
0.0
 10
9.8483364578
 20
4.8989532978
 30
0.0
 10
9.8485168255
 20
4.9017180739
 30
0.0
 10
9.8488137014
 20
4.9043708491
 30
0.0
 10
9.8492206758
 20
4.9068574457
 30
0.0
 10
9.8497286821
 20
4.9091291352
 30
0.0
 10
9.8503277489
 20
4.9111409501
 30
0.0
 10
9.8509137391
 20
4.9126234053
 30
0.0
 10
9.8514272812
 20
4.9136396189
 30
0.0
 10
9.8516955516
 20
4.9140887198
 30
0.0
 10
9.8518329008
 20
4.9142968147
 30
0.0
  0
SPLINE
  5
2E5
100
AcDbEntity
  8
0
100
AcDbSpline
 62
9
  6
CONTINUOUS
 70
0
 71
3
 72
16
 73
12
 74
0
 42
0.0000001
 43
0.0000001
 44
0.0000000001
 40
0.0
 40
0.0
 40
0.0
 40
0.0
 40
0.1517224354
 40
0.3008137939
 40
0.444309649
 40
0.5797505272
 40
0.7048148
 40
0.8174620686
 40
0.9161875479
 40
0.9600031763
 40
1.0
 40
1.0
 40
1.0
 40
1.0
 10
10.4491786835
 20
4.8961319825
 30
0.0
 10
10.4491786835
 20
4.897077803
 30
0.0
 10
10.4491382273
 20
4.8989532978
 30
0.0
 10
10.4489578596
 20
4.9017180739
 30
0.0
 10
10.4486609837
 20
4.9043708491
 30
0.0
 10
10.4482540093
 20
4.9068574457
 30
0.0
 10
10.4477460031
 20
4.9091291352
 30
0.0
 10
10.4471469362
 20
4.9111409501
 30
0.0
 10
10.4465609461
 20
4.9126234053
 30
0.0
 10
10.446047404
 20
4.9136396189
 30
0.0
 10
10.4457791335
 20
4.9140887198
 30
0.0
 10
10.4456417844
 20
4.9142968147
 30
0.0
  0
SPLINE
  5
2E6
100
AcDbEntity
  8
0
100
AcDbSpline
 62
9
  6
CONTINUOUS
 70
0
 71
3
 72
14
 73
10
 74
0
 42
0.0000001
 43
0.0000001
 44
0.0000000001
 40
0.0
 40
0.0
 40
0.0
 40
0.0
 40
0.1386092277
 40
0.2758320288
 40
0.4099885721
 40
0.5398748783
 40
0.664425415
 40
0.7828716273
 40
1.0
 40
1.0
 40
1.0
 40
1.0
 10
10.8136297014
 20
4.8961319825
 30
0.0
 10
10.8136297014
 20
4.8970786709
 30
0.0
 10
10.8135394021
 20
4.8989638242
 30
0.0
 10
10.8131371608
 20
4.9017392316
 30
0.0
 10
10.8124743745
 20
4.904403584
 30
0.0
 10
10.8115649172
 20
4.9069021472
 30
0.0
 10
10.8104257475
 20
4.9091879721
 30
0.0
 10
10.8086852579
 20
4.9118084128
 30
0.0
 10
10.8070260341
 20
4.9134590734
 30
0.0
 10
10.8058023591
 20
4.9142968147
 30
0.0
  0
SPLINE
  5
2E7
100
AcDbEntity
  8
0
100
AcDbSpline
 62
9
  6
CONTINUOUS
 70
0
 71
3
 72
13
 73
9
 74
0
 42
0.0000001
 43
0.0000001
 44
0.0000000001
 40
0.0
 40
0.0
 40
0.0
 40
0.0
 40
0.2563925615
 40
0.5114227959
 40
0.6370552224
 40
0.7605472627
 40
0.8816440212
 40
1.0
 40
1.0
 40
1.0
 40
1.0
 10
10.8290742957
 20
4.897358046
 30
0.0
 10
10.8289484156
 20
4.8992797055
 30
0.0
 10
10.8282105553
 20
4.903096129
 30
0.0
 10
10.8261535566
 20
4.9074749316
 30
0.0
 10
10.8239123651
 20
4.9105387582
 30
0.0
 10
10.8219823798
 20
4.9125530056
 30
0.0
 10
10.8198370875
 20
4.9142486492
 30
0.0
 10
10.818274761
 20
4.9151550867
 30
0.0
 10
10.8174741082
 20
4.9155413988
 30
0.0
  0
SPLINE
  5
2E8
100
AcDbEntity
  8
0
100
AcDbSpline
 62
9
  6
CONTINUOUS
 70
0
 71
3
 72
15
 73
11
 74
0
 42
0.0000001
 43
0.0000001
 44
0.0000000001
 40
0.0
 40
0.0
 40
0.0
 40
0.0
 40
0.1258872633
 40
0.2517847131
 40
0.3773818683
 40
0.5026793591
 40
0.6276067795
 40
0.7521216867
 40
0.8763094256
 40
1.0
 40
1.0
 40
1.0
 40
1.0
 10
11.1140710423
 20
4.8961319825
 30
0.0
 10
11.1140710423
 20
4.8970798777
 30
0.0
 10
11.1139383967
 20
4.8989783333
 30
0.0
 10
11.1133484727
 20
4.9017669457
 30
0.0
 10
11.1123768984
 20
4.9044425763
 30
0.0
 10
11.1110440829
 20
4.9069494014
 30
0.0
 10
11.1093779894
 20
4.9092382794
 30
0.0
 10
11.1074102681
 20
4.9112625118
 30
0.0
 10
11.1051818431
 20
4.9129794415
 30
0.0
 10
11.1035491993
 20
4.9138995909
 30
0.0
 10
11.1027068009
 20
4.9142968147
 30
0.0
  0
SPLINE
  5
2E9
100
AcDbEntity
  8
0
100
AcDbSpline
 62
9
  6
CONTINUOUS
 70
0
 71
3
 72
14
 73
10
 74
0
 42
0.0000001
 43
0.0000001
 44
0.0000000001
 40
0.0
 40
0.0
 40
0.0
 40
0.0
 40
0.1049561294
 40
0.2167053943
 40
0.3347937126
 40
0.4587048887
 40
0.587848954
 40
0.7215790226
 40
1.0
 40
1.0
 40
1.0
 40
1.0
 10
11.4937373426
 20
6.8174246118
 30
0.0
 10
11.4930224713
 20
6.8125506019
 30
0.0
 10
11.4917658669
 20
6.8024540161
 30
0.0
 10
11.4904326837
 20
6.7867935454
 30
0.0
 10
11.4896239683
 20
6.7702064692
 30
0.0
 10
11.4893597417
 20
6.7527857352
 30
0.0
 10
11.4896467434
 20
6.7346313027
 30
0.0
 10
11.4907706193
 20
6.7092477292
 30
0.0
 10
11.4923841275
 20
6.6899611324
 30
0.0
 10
11.4937373426
 20
6.6769635914
 30
0.0
  0
SPLINE
  5
2EA
100
AcDbEntity
  8
0
100
AcDbSpline
 62
9
  6
CONTINUOUS
 70
0
 71
3
 72
15
 73
11
 74
0
 42
0.0000001
 43
0.0000001
 44
0.0000000001
 40
0.0
 40
0.0
 40
0.0
 40
0.0
 40
0.140802983
 40
0.2784340287
 40
0.4121618633
 40
0.5413035546
 40
0.665212282
 40
0.7832990399
 40
0.8950474707
 40
1.0
 40
1.0
 40
1.0
 40
1.0
 10
11.4937373426
 20
6.2043635307
 30
0.0
 10
11.4930530061
 20
6.1977902901
 30
0.0
 10
11.4918339505
 20
6.1847773779
 30
0.0
 10
11.490478221
 20
6.165477716
 30
0.0
 10
11.4896467639
 20
6.1466957766
 30
0.0
 10
11.4893597338
 20
6.1285414442
 30
0.0
 10
11.4896239804
 20
6.111120648
 30
0.0
 10
11.4904326641
 20
6.0945334957
 30
0.0
 10
11.4917654067
 20
6.0788729597
 30
0.0
 10
11.4930224498
 20
6.068776441
 30
0.0
 10
11.4937373426
 20
6.0639025104
 30
0.0
  0
SPLINE
  5
2EB
100
AcDbEntity
  8
0
100
AcDbSpline
 62
9
  6
CONTINUOUS
 70
0
 71
3
 72
15
 73
11
 74
0
 42
0.0000001
 43
0.0000001
 44
0.0000000001
 40
0.0
 40
0.0
 40
0.0
 40
0.0
 40
0.1258872633
 40
0.2517847131
 40
0.3773818683
 40
0.5026793591
 40
0.6276067795
 40
0.7521216867
 40
0.8763094256
 40
1.0
 40
1.0
 40
1.0
 40
1.0
 10
9.1834036428
 20
4.8961319825
 30
0.0
 10
9.1834036428
 20
4.8970798777
 30
0.0
 10
9.1835362884
 20
4.8989783333
 30
0.0
 10
9.1841262125
 20
4.9017669457
 30
0.0
 10
9.1850977867
 20
4.9044425763
 30
0.0
 10
9.1864306023
 20
4.9069494014
 30
0.0
 10
9.1880966957
 20
4.9092382794
 30
0.0
 10
9.190064417
 20
4.9112625118
 30
0.0
 10
9.192292842
 20
4.9129794415
 30
0.0
 10
9.1939254859
 20
4.9138995909
 30
0.0
 10
9.1947678843
 20
4.9142968147
 30
0.0
  0
SPLINE
  5
2EC
100
AcDbEntity
  8
0
100
AcDbSpline
 62
9
  6
CONTINUOUS
 70
0
 71
3
 72
14
 73
10
 74
0
 42
0.0000001
 43
0.0000001
 44
0.0000000001
 40
0.0
 40
0.0
 40
0.0
 40
0.0
 40
0.2639115517
 40
0.3929971033
 40
0.5194876909
 40
0.6432362852
 40
0.7643120776
 40
0.8831187216
 40
1.0
 40
1.0
 40
1.0
 40
1.0
 10
9.1922862826
 20
4.897358046
 30
0.0
 10
9.1921624475
 20
4.8992484867
 30
0.0
 10
9.1923302859
 20
4.902106316
 30
0.0
 10
9.1932865265
 20
4.9057193809
 30
0.0
 10
9.1943419438
 20
4.9082398964
 30
0.0
 10
9.1957176548
 20
4.9105339353
 30
0.0
 10
9.1973878513
 20
4.9125537273
 30
0.0
 10
9.1993170509
 20
4.91425383
 30
0.0
 10
9.2007583257
 20
4.915157215
 30
0.0
 10
9.2015042347
 20
4.9155413988
 30
0.0
  0
SPLINE
  5
2ED
100
AcDbEntity
  8
0
100
AcDbSpline
 62
9
  6
CONTINUOUS
 70
0
 71
3
 72
15
 73
11
 74
0
 42
0.0000001
 43
0.0000001
 44
0.0000000001
 40
0.0
 40
0.0
 40
0.0
 40
0.0
 40
0.1258872633
 40
0.2517847131
 40
0.3773818683
 40
0.5026793591
 40
0.6276067795
 40
0.7521216867
 40
0.8763094256
 40
1.0
 40
1.0
 40
1.0
 40
1.0
 10
9.1834036428
 20
4.7071951396
 30
0.0
 10
9.1834036428
 20
4.7062472444
 30
0.0
 10
9.1835362884
 20
4.7043487889
 30
0.0
 10
9.1841262125
 20
4.7015601764
 30
0.0
 10
9.1850977867
 20
4.6988845458
 30
0.0
 10
9.1864306023
 20
4.6963777208
 30
0.0
 10
9.1880966957
 20
4.6940888427
 30
0.0
 10
9.190064417
 20
4.6920646104
 30
0.0
 10
9.192292842
 20
4.6903476807
 30
0.0
 10
9.1939254859
 20
4.6894275312
 30
0.0
 10
9.1947678843
 20
4.6890303075
 30
0.0
  0
SPLINE
  5
2EE
100
AcDbEntity
  8
0
100
AcDbSpline
 62
9
  6
CONTINUOUS
 70
0
 71
3
 72
15
 73
11
 74
0
 42
0.0000001
 43
0.0000001
 44
0.0000000001
 40
0.0
 40
0.0
 40
0.0
 40
0.0
 40
0.1258872633
 40
0.2517847131
 40
0.3773818683
 40
0.5026793591
 40
0.6276067795
 40
0.7521216867
 40
0.8763094256
 40
1.0
 40
1.0
 40
1.0
 40
1.0
 10
11.1140710423
 20
4.7071951396
 30
0.0
 10
11.1140710423
 20
4.7062472444
 30
0.0
 10
11.1139383967
 20
4.7043487889
 30
0.0
 10
11.1133484727
 20
4.7015601764
 30
0.0
 10
11.1123768984
 20
4.6988845458
 30
0.0
 10
11.1110440829
 20
4.6963777208
 30
0.0
 10
11.1093779894
 20
4.6940888427
 30
0.0
 10
11.1074102681
 20
4.6920646104
 30
0.0
 10
11.1051818431
 20
4.6903476807
 30
0.0
 10
11.1035491993
 20
4.6894275312
 30
0.0
 10
11.1027068009
 20
4.6890303075
 30
0.0
  0
SPLINE
  5
2EF
100
AcDbEntity
  8
0
100
AcDbSpline
 62
9
  6
CONTINUOUS
 70
0
 71
3
 72
14
 73
10
 74
0
 42
0.0000001
 43
0.0000001
 44
0.0000000001
 40
0.0
 40
0.0
 40
0.0
 40
0.0
 40
0.2639115517
 40
0.3929971033
 40
0.5194876909
 40
0.6432362852
 40
0.7643120776
 40
0.8831187216
 40
1.0
 40
1.0
 40
1.0
 40
1.0
 10
11.1051884026
 20
4.7059690761
 30
0.0
 10
11.1053122377
 20
4.7040786354
 30
0.0
 10
11.1051443992
 20
4.7012208062
 30
0.0
 10
11.1041881587
 20
4.6976077412
 30
0.0
 10
11.1031327413
 20
4.6950872257
 30
0.0
 10
11.1017570304
 20
4.6927931869
 30
0.0
 10
11.1000868339
 20
4.6907733948
 30
0.0
 10
11.0981576342
 20
4.6890732922
 30
0.0
 10
11.0967163595
 20
4.6881699072
 30
0.0
 10
11.0959704504
 20
4.6877857234
 30
0.0
  0
SPLINE
  5
2F0
100
AcDbEntity
  8
0
100
AcDbSpline
 62
9
  6
CONTINUOUS
 70
0
 71
3
 72
14
 73
10
 74
0
 42
0.0000001
 43
0.0000001
 44
0.0000000001
 40
0.0
 40
0.0
 40
0.0
 40
0.0
 40
0.1386092277
 40
0.2758320288
 40
0.409988572
 40
0.5398748783
 40
0.6644254149
 40
0.7828716272
 40
1.0
 40
1.0
 40
1.0
 40
1.0
 10
10.8136297014
 20
4.7071951396
 30
0.0
 10
10.8136297014
 20
4.7062484513
 30
0.0
 10
10.8135394021
 20
4.704363298
 30
0.0
 10
10.8131371608
 20
4.7015878905
 30
0.0
 10
10.8124743745
 20
4.6989235381
 30
0.0
 10
10.8115649172
 20
4.696424975
 30
0.0
 10
10.8104257475
 20
4.69413915
 30
0.0
 10
10.8086852579
 20
4.6915187093
 30
0.0
 10
10.8070260341
 20
4.6898680487
 30
0.0
 10
10.8058023591
 20
4.6890303075
 30
0.0
  0
SPLINE
  5
2F1
100
AcDbEntity
  8
0
100
AcDbSpline
 62
9
  6
CONTINUOUS
 70
0
 71
3
 72
16
 73
12
 74
0
 42
0.0000001
 43
0.0000001
 44
0.0000000001
 40
0.0
 40
0.0
 40
0.0
 40
0.0
 40
0.1517224353
 40
0.3008137938
 40
0.444309649
 40
0.5797505272
 40
0.7048147999
 40
0.8174620686
 40
0.9161875479
 40
0.9600031763
 40
1.0
 40
1.0
 40
1.0
 40
1.0
 10
10.4491786835
 20
4.7071951396
 30
0.0
 10
10.4491786835
 20
4.7062493191
 30
0.0
 10
10.4491382273
 20
4.7043738244
 30
0.0
 10
10.4489578596
 20
4.7016090483
 30
0.0
 10
10.4486609838
 20
4.698956273
 30
0.0
 10
10.4482540094
 20
4.6964696764
 30
0.0
 10
10.4477460031
 20
4.6941979869
 30
0.0
 10
10.4471469362
 20
4.6921861721
 30
0.0
 10
10.4465609461
 20
4.6907037168
 30
0.0
 10
10.446047404
 20
4.6896875032
 30
0.0
 10
10.4457791335
 20
4.6892384024
 30
0.0
 10
10.4456417844
 20
4.6890303075
 30
0.0
  0
SPLINE
  5
2F2
100
AcDbEntity
  8
0
100
AcDbSpline
 62
9
  6
CONTINUOUS
 70
0
 71
3
 72
16
 73
12
 74
0
 42
0.0000001
 43
0.0000001
 44
0.0000000001
 40
0.0
 40
0.0
 40
0.0
 40
0.0
 40
0.1517224354
 40
0.3008137939
 40
0.444309649
 40
0.5797505272
 40
0.7048148
 40
0.8174620686
 40
0.9161875479
 40
0.9600031763
 40
1.0
 40
1.0
 40
1.0
 40
1.0
 10
9.8482960017
 20
4.7071951396
 30
0.0
 10
9.8482960017
 20
4.7062493191
 30
0.0
 10
9.8483364578
 20
4.7043738244
 30
0.0
 10
9.8485168255
 20
4.7016090483
 30
0.0
 10
9.8488137014
 20
4.698956273
 30
0.0
 10
9.8492206758
 20
4.6964696764
 30
0.0
 10
9.8497286821
 20
4.6941979869
 30
0.0
 10
9.8503277489
 20
4.6921861721
 30
0.0
 10
9.8509137391
 20
4.6907037168
 30
0.0
 10
9.8514272812
 20
4.6896875032
 30
0.0
 10
9.8516955516
 20
4.6892384024
 30
0.0
 10
9.8518329008
 20
4.6890303075
 30
0.0
  0
SPLINE
  5
2F3
100
AcDbEntity
  8
0
100
AcDbSpline
 62
9
  6
CONTINUOUS
 70
0
 71
3
 72
14
 73
10
 74
0
 42
0.0000001
 43
0.0000001
 44
0.0000000001
 40
0.0
 40
0.0
 40
0.0
 40
0.0
 40
0.1386092277
 40
0.2758320288
 40
0.4099885721
 40
0.5398748783
 40
0.664425415
 40
0.7828716273
 40
1.0
 40
1.0
 40
1.0
 40
1.0
 10
9.4838449838
 20
4.7071951396
 30
0.0
 10
9.4838449838
 20
4.7062484513
 30
0.0
 10
9.483935283
 20
4.704363298
 30
0.0
 10
9.4843375244
 20
4.7015878905
 30
0.0
 10
9.4850003107
 20
4.6989235381
 30
0.0
 10
9.4859097679
 20
4.696424975
 30
0.0
 10
9.4870489376
 20
4.69413915
 30
0.0
 10
9.4887894272
 20
4.6915187093
 30
0.0
 10
9.490448651
 20
4.6898680487
 30
0.0
 10
9.4916723261
 20
4.6890303075
 30
0.0
  0
SPLINE
  5
2F4
100
AcDbEntity
  8
0
100
AcDbSpline
 62
9
  6
CONTINUOUS
 70
0
 71
3
 72
13
 73
9
 74
0
 42
0.0000001
 43
0.0000001
 44
0.0000000001
 40
0.0
 40
0.0
 40
0.0
 40
0.0
 40
0.2563925615
 40
0.5114227959
 40
0.6370552224
 40
0.7605472627
 40
0.8816440212
 40
1.0
 40
1.0
 40
1.0
 40
1.0
 10
9.4684003894
 20
4.7059690761
 30
0.0
 10
9.4685262695
 20
4.7040474166
 30
0.0
 10
9.4692641299
 20
4.7002309932
 30
0.0
 10
9.4713211285
 20
4.6958521905
 30
0.0
 10
9.4735623201
 20
4.692788364
 30
0.0
 10
9.4754923054
 20
4.6907741166
 30
0.0
 10
9.4776375977
 20
4.6890784729
 30
0.0
 10
9.4791999242
 20
4.6881720355
 30
0.0
 10
9.4800005769
 20
4.6877857234
 30
0.0
  0
LINE
  5
2F5
100
AcDbEntity
  8
0
100
AcDbLine
 62
9
  6
CONTINUOUS
 10
12.0241694153
 20
7.1401275778
 11
12.0356166123
 21
7.1198820685
  0
LINE
  5
2F6
100
AcDbEntity
  8
0
100
AcDbLine
 62
9
  6
CONTINUOUS
 10
12.0221014814
 20
7.1528099304
 11
12.0381784327
 21
7.1325742547
  0
LINE
  5
2F7
100
AcDbEntity
  8
0
100
AcDbLine
 62
9
  6
CONTINUOUS
 10
12.4950829712
 20
9.007442279
 11
12.4838732676
 21
9.0091853027
  0
SPLINE
  5
2F8
100
AcDbEntity
  8
0
100
AcDbSpline
 62
9
  6
CONTINUOUS
 70
0
 71
3
 72
15
 73
11
 74
0
 42
0.0000001
 43
0.0000001
 44
0.0000000001
 40
0.0
 40
0.0
 40
0.0
 40
0.0
 40
0.1263438044
 40
0.2515284571
 40
0.3759512256
 40
0.4999999996
 40
0.6240487736
 40
0.7484715419
 40
0.873656195
 40
1.0
 40
1.0
 40
1.0
 40
1.0
 10
9.1922862826
 20
4.7059690761
 30
0.0
 10
9.2036558315
 20
4.7029899843
 30
0.0
 10
9.2264936982
 20
4.697805261
 30
0.0
 10
9.2610542664
 20
4.6922991674
 30
0.0
 10
9.2956831986
 20
4.6890221846
 30
0.0
 10
9.330343336
 20
4.6879414956
 30
0.0
 10
9.3650034734
 20
4.6890221834
 30
0.0
 10
9.3996324057
 20
4.6922991657
 30
0.0
 10
9.4341929738
 20
4.6978052601
 30
0.0
 10
9.4570308405
 20
4.7029899841
 30
0.0
 10
9.4684003894
 20
4.7059690761
 30
0.0
  0
LINE
  5
2F9
100
AcDbEntity
  8
0
100
AcDbLine
 62
9
  6
CONTINUOUS
 10
12.5253731369
 20
8.9686388438
 11
12.5092962524
 21
8.9703052307
  0
SPLINE
  5
2FA
100
AcDbEntity
  8
0
100
AcDbSpline
 62
9
  6
CONTINUOUS
 70
0
 71
3
 72
15
 73
11
 74
0
 42
0.0000001
 43
0.0000001
 44
0.0000000001
 40
0.0
 40
0.0
 40
0.0
 40
0.0
 40
0.1263438045
 40
0.2515284571
 40
0.3759512254
 40
0.4999999995
 40
0.6240487735
 40
0.7484715417
 40
0.8736561949
 40
1.0
 40
1.0
 40
1.0
 40
1.0
 10
11.1051884026
 20
4.897358046
 30
0.0
 10
11.0938188537
 20
4.9003371379
 30
0.0
 10
11.0709809869
 20
4.9055218612
 30
0.0
 10
11.0364204188
 20
4.9110279548
 30
0.0
 10
11.0017914866
 20
4.9143049368
 30
0.0
 10
10.9671313492
 20
4.9153856252
 30
0.0
 10
10.9324712118
 20
4.9143049381
 30
0.0
 10
10.8978422794
 20
4.9110279566
 30
0.0
 10
10.8632817113
 20
4.9055218621
 30
0.0
 10
10.8404438447
 20
4.900337138
 30
0.0
 10
10.8290742957
 20
4.897358046
 30
0.0
  0
SPLINE
  5
2FB
100
AcDbEntity
  8
0
100
AcDbSpline
 62
9
  6
CONTINUOUS
 70
0
 71
3
 72
15
 73
11
 74
0
 42
0.0000001
 43
0.0000001
 44
0.0000000001
 40
0.0
 40
0.0
 40
0.0
 40
0.0
 40
0.1263438044
 40
0.2515284571
 40
0.3759512253
 40
0.4999999994
 40
0.6240487734
 40
0.7484715417
 40
0.8736561949
 40
1.0
 40
1.0
 40
1.0
 40
1.0
 10
10.8290742957
 20
4.7059690761
 30
0.0
 10
10.8404438446
 20
4.7029899843
 30
0.0
 10
10.8632817114
 20
4.6978052609
 30
0.0
 10
10.8978422795
 20
4.6922991674
 30
0.0
 10
10.9324712117
 20
4.6890221854
 30
0.0
 10
10.9671313491
 20
4.6879414969
 30
0.0
 10
11.0017914865
 20
4.6890221841
 30
0.0
 10
11.0364204189
 20
4.6922991656
 30
0.0
 10
11.070980987
 20
4.69780526
 30
0.0
 10
11.0938188537
 20
4.7029899841
 30
0.0
 10
11.1051884026
 20
4.7059690761
 30
0.0
  0
SPLINE
  5
2FC
100
AcDbEntity
  8
0
100
AcDbSpline
 62
9
  6
CONTINUOUS
 70
0
 71
3
 72
44
 73
40
 74
0
 42
0.0000001
 43
0.0000001
 44
0.0000000001
 40
0.0
 40
0.0
 40
0.0
 40
0.0
 40
0.0000241515
 40
0.0000961258
 40
0.0002158353
 40
0.0003831919
 40
0.000598108
 40
0.0008604958
 40
0.0015273353
 40
0.0023830089
 40
0.0034268154
 40
0.0046580542
 40
0.0060759702
 40
0.0076795816
 40
0.0094678481
 40
0.0135941852
 40
0.0184466584
 40
0.0240159652
 40
0.0302877217
 40
0.0372459109
 40
0.0448745287
 40
0.0531570604
 40
0.071613258
 40
0.0924723408
 40
0.1155869778
 40
0.1408073955
 40
0.167987812
 40
0.196985867
 40
0.2276670744
 40
0.2599044359
 40
0.3285763239
 40
0.4021446835
 40
0.4798693125
 40
0.5611034042
 40
0.6452633393
 40
0.7317985007
 40
0.8201557379
 40
0.9097612508
 40
1.0
 40
1.0
 40
1.0
 40
1.0
 10
12.4428599435
 20
6.8997018405
 30
0.0
 10
12.4428589892
 20
6.8997007602
 30
0.0
 10
12.44285328
 20
6.8996988119
 30
0.0
 10
12.4428427582
 20
6.8996916229
 30
0.0
 10
12.4428237045
 20
6.8996815707
 30
0.0
 10
12.4427977795
 20
6.8996666451
 30
0.0
 10
12.4427641856
 20
6.899647851
 30
0.0
 10
12.4427046968
 20
6.8996143409
 30
0.0
 10
12.4426117796
 20
6.8995622256
 30
0.0
 10
12.4424781509
 20
6.8994873751
 30
0.0
 10
12.4423150321
 20
6.8993962368
 30
0.0
 10
12.4421225212
 20
6.8992889091
 30
0.0
 10
12.4419007092
 20
6.8991655246
 30
0.0
 10
12.4416497376
 20
6.8990261713
 30
0.0
 10
12.4412572996
 20
6.8988086051
 30
0.0
 10
12.4406950019
 20
6.8984975172
 30
0.0
 10
12.4399348652
 20
6.8980778711
 30
0.0
 10
12.4390622587
 20
6.8975970138
 30
0.0
 10
12.438078882
 20
6.897056773
 30
0.0
 10
12.4369867781
 20
6.8964591873
 30
0.0
 10
12.435788104
 20
6.8958063582
 30
0.0
 10
12.4339846134
 20
6.8948292823
 30
0.0
 10
12.4314817622
 20
6.8934854311
 30
0.0
 10
12.4281894722
 20
6.8917406528
 30
0.0
 10
12.4245283695
 20
6.8898298117
 30
0.0
 10
12.4205180436
 20
6.8877729056
 30
0.0
 10
12.4161775648
 20
6.8855905874
 30
0.0
 10
12.4115252013
 20
6.8833034636
 30
0.0
 10
12.4065781436
 20
6.8809322188
 30
0.0
 10
12.3994590649
 20
6.8776152532
 30
0.0
 10
12.3899395412
 20
6.8733910155
 30
0.0
 10
12.3777905209
 20
6.8684104018
 30
0.0
 10
12.3647767703
 20
6.8635806696
 30
0.0
 10
12.3509812234
 20
6.8590693465
 30
0.0
 10
12.3364871573
 20
6.8550469488
 30
0.0
 10
12.3213885039
 20
6.8516835365
 30
0.0
 10
12.3057989436
 20
6.8491393747
 30
0.0
 10
12.2898602051
 20
6.847551049
 30
0.0
 10
12.2791230926
 20
6.8471908556
 30
0.0
 10
12.2737373426
 20
6.8471908437
 30
0.0
  0
SPLINE
  5
2FD
100
AcDbEntity
  8
0
100
AcDbSpline
 62
9
  6
CONTINUOUS
 70
0
 71
3
 72
11
 73
7
 74
0
 42
0.0000001
 43
0.0000001
 44
0.0000000001
 40
0.0
 40
0.0
 40
0.0
 40
0.0
 40
0.2499989517
 40
0.4999999997
 40
0.7500010479
 40
1.0
 40
1.0
 40
1.0
 40
1.0
 10
10.4248514494
 20
4.897358046
 30
0.0
 10
10.3791051844
 20
4.90335135
 30
0.0
 10
10.2871690172
 20
4.9121519265
 30
0.0
 10
10.1487373427
 20
4.9164626787
 30
0.0
 10
10.0103056679
 20
4.9121519291
 30
0.0
 10
9.9183695008
 20
4.9033513503
 30
0.0
 10
9.8726232357
 20
4.897358046
 30
0.0
  0
SPLINE
  5
2FE
100
AcDbEntity
  8
0
100
AcDbSpline
 62
9
  6
CONTINUOUS
 70
0
 71
3
 72
11
 73
7
 74
0
 42
0.0000001
 43
0.0000001
 44
0.0000000001
 40
0.0
 40
0.0
 40
0.0
 40
0.0
 40
0.2499989518
 40
0.4999999999
 40
0.7500010479
 40
1.0
 40
1.0
 40
1.0
 40
1.0
 10
9.8726232357
 20
4.7059690761
 30
0.0
 10
9.9183695007
 20
4.6999757721
 30
0.0
 10
10.010305668
 20
4.6911751955
 30
0.0
 10
10.1487373425
 20
4.6868644435
 30
0.0
 10
10.2871690173
 20
4.6911751929
 30
0.0
 10
10.3791051844
 20
4.6999757718
 30
0.0
 10
10.4248514494
 20
4.7059690761
 30
0.0
  0
LINE
  5
2FF
100
AcDbEntity
  8
0
100
AcDbLine
 62
9
  6
CONTINUOUS
 10
11.473032509
 20
7.0739797118
 11
11.4770297538
 21
7.06205689
  0
LINE
  5
300
100
AcDbEntity
  8
0
100
AcDbLine
 62
9
  6
CONTINUOUS
 10
11.4894516843
 20
7.0653992811
 11
11.4916566219
 21
7.0594591449
  0
LINE
  5
301
100
AcDbEntity
  8
0
100
AcDbLine
 62
9
  6
CONTINUOUS
 10
11.4916566219
 20
7.0594591449
 11
11.4919781599
 21
7.0585813591
  0
SPLINE
  5
302
100
AcDbEntity
  8
0
100
AcDbSpline
 62
9
  6
CONTINUOUS
 70
0
 71
3
 72
26
 73
22
 74
0
 42
0.0000001
 43
0.0000001
 44
0.0000000001
 40
0.0
 40
0.0
 40
0.0
 40
0.0
 40
0.0002550325
 40
0.0010191262
 40
0.0022919015
 40
0.0040729789
 40
0.0091585231
 40
0.0162727267
 40
0.0254125603
 40
0.0365745975
 40
0.0497523311
 40
0.0649378257
 40
0.1013003545
 40
0.1455957984
 40
0.1977337317
 40
0.2576122842
 40
0.3251226599
 40
0.4001365594
 40
0.5721441174
 40
0.7725226147
 40
1.0
 40
1.0
 40
1.0
 40
1.0
 10
11.2712391165
 20
5.8073474103
 30
0.0
 10
11.2712380349
 20
5.8073509686
 30
0.0
 10
11.2712325252
 20
5.8073647924
 30
0.0
 10
11.2712215885
 20
5.8073963648
 30
0.0
 10
11.2712024175
 20
5.8074486431
 30
0.0
 10
11.2711622567
 20
5.8075603311
 30
0.0
 10
11.2710930108
 20
5.8077520901
 30
0.0
 10
11.2709877323
 20
5.8080449239
 30
0.0
 10
11.270852638
 20
5.8084212037
 30
0.0
 10
11.2706880044
 20
5.8088808248
 30
0.0
 10
11.270494053
 20
5.8094235907
 30
0.0
 10
11.2701772147
 20
5.8103126883
 30
0.0
 10
11.2697099788
 20
5.8116299163
 30
0.0
 10
11.2690661222
 20
5.8134562472
 30
0.0
 10
11.2683137056
 20
5.8156079093
 30
0.0
 10
11.2674569597
 20
5.8180817112
 30
0.0
 10
11.2665003493
 20
5.8208739412
 30
0.0
 10
11.2650302718
 20
5.8252186484
 30
0.0
 10
11.2629789625
 20
5.8314120987
 30
0.0
 10
11.2603087437
 20
5.8397422591
 30
0.0
 10
11.2584690471
 20
5.8457042599
 30
0.0
 10
11.2575091485
 20
5.8488795352
 30
0.0
  0
SPLINE
  5
303
100
AcDbEntity
  8
0
100
AcDbSpline
 62
9
  6
CONTINUOUS
 70
0
 71
3
 72
13
 73
9
 74
0
 42
0.0000001
 43
0.0000001
 44
0.0000000001
 40
0.0
 40
0.0
 40
0.0
 40
0.0
 40
0.0792681111
 40
0.171763057
 40
0.2775025621
 40
0.3964134718
 40
0.6731259797
 40
1.0
 40
1.0
 40
1.0
 40
1.0
 10
11.1027068009
 20
4.9142968147
 30
0.0
 10
11.1025254304
 20
4.914296815
 30
0.0
 10
11.1021324153
 20
4.9143132614
 30
0.0
 10
11.1015002509
 20
4.9143746184
 30
0.0
 10
11.10078136
 20
4.9144746974
 30
0.0
 10
11.0996507745
 20
4.9146698247
 30
0.0
 10
11.0980337297
 20
4.9150161088
 30
0.0
 10
11.0966938035
 20
4.9153513257
 30
0.0
 10
11.0959704504
 20
4.9155413988
 30
0.0
  0
SPLINE
  5
304
100
AcDbEntity
  8
0
100
AcDbSpline
 62
9
  6
CONTINUOUS
 70
0
 71
3
 72
15
 73
11
 74
0
 42
0.0000001
 43
0.0000001
 44
0.0000000001
 40
0.0
 40
0.0
 40
0.0
 40
0.0
 40
0.1266959083
 40
0.2521264762
 40
0.3766975122
 40
0.5007912727
 40
0.6247777725
 40
0.7490341043
 40
0.8739627105
 40
1.0
 40
1.0
 40
1.0
 40
1.0
 10
11.0959704504
 20
4.9155413988
 30
0.0
 10
11.0844714234
 20
4.9185629682
 30
0.0
 10
11.0613824622
 20
4.9238218041
 30
0.0
 10
11.0264541622
 20
4.9294148822
 30
0.0
 10
10.9914821006
 20
4.9327397747
 30
0.0
 10
10.9565060988
 20
4.933843325
 30
0.0
 10
10.921559525
 20
4.9327416517
 30
0.0
 10
10.8866742305
 20
4.9294182436
 30
0.0
 10
10.8518857539
 20
4.9238259559
 30
0.0
 10
10.8289088306
 20
4.9185644396
 30
0.0
 10
10.8174741082
 20
4.9155413988
 30
0.0
  0
SPLINE
  5
305
100
AcDbEntity
  8
0
100
AcDbSpline
 62
9
  6
CONTINUOUS
 70
0
 71
3
 72
11
 73
7
 74
0
 42
0.0000001
 43
0.0000001
 44
0.0000000001
 40
0.0
 40
0.0
 40
0.0
 40
0.0
 40
0.2153190323
 40
0.4540964497
 40
0.7159652049
 40
1.0
 40
1.0
 40
1.0
 40
1.0
 10
10.8174741082
 20
4.9155413988
 30
0.0
 10
10.8166576017
 20
4.9153255372
 30
0.0
 10
10.8149133195
 20
4.9149531234
 30
0.0
 10
10.8121291199
 20
4.9145718122
 30
0.0
 10
10.8090581297
 20
4.9143435166
 30
0.0
 10
10.8069164455
 20
4.9142968158
 30
0.0
 10
10.8058023591
 20
4.9142968147
 30
0.0
  0
SPLINE
  5
306
100
AcDbEntity
  8
0
100
AcDbSpline
 62
9
  6
CONTINUOUS
 70
0
 71
3
 72
13
 73
9
 74
0
 42
0.0000001
 43
0.0000001
 44
0.0000000001
 40
0.0
 40
0.0
 40
0.0
 40
0.0
 40
0.123035926
 40
0.2465838129
 40
0.370678773
 40
0.4954370969
 40
0.7464922294
 40
1.0
 40
1.0
 40
1.0
 40
1.0
 10
11.4937373426
 20
7.0537246421
 30
0.0
 10
11.4932878123
 20
7.0543829531
 30
0.0
 10
11.4923000741
 20
7.0556453205
 30
0.0
 10
11.4905856404
 20
7.0573359812
 30
0.0
 10
11.4886607361
 20
7.0588019511
 30
0.0
 10
11.485851639
 20
7.060428904
 30
0.0
 10
11.4819633336
 20
7.0617939753
 30
0.0
 10
11.4786716616
 20
7.062100274
 30
0.0
 10
11.4770297538
 20
7.06205689
 30
0.0
  0
SPLINE
  5
307
100
AcDbEntity
  8
0
100
AcDbSpline
 62
9
  6
CONTINUOUS
 70
0
 71
3
 72
12
 73
8
 74
0
 42
0.0000001
 43
0.0000001
 44
0.0000000001
 40
0.0
 40
0.0
 40
0.0
 40
0.0
 40
0.2449437648
 40
0.3699247002
 40
0.4959367587
 40
0.7488135234
 40
1.0
 40
1.0
 40
1.0
 40
1.0
 10
11.503515652
 20
6.8619304532
 30
0.0
 10
11.5026006509
 20
6.8631504751
 30
0.0
 10
11.5010061084
 20
6.864844214
 30
0.0
 10
11.4985652965
 20
6.8667410858
 30
0.0
 10
11.495901033
 20
6.8684069702
 30
0.0
 10
11.492275761
 20
6.8699749439
 30
0.0
 10
11.4891803771
 20
6.8706273385
 30
0.0
 10
11.4876249231
 20
6.8707895116
 30
0.0
  0
SPLINE
  5
308
100
AcDbEntity
  8
0
100
AcDbSpline
 62
9
  6
CONTINUOUS
 70
0
 71
3
 72
14
 73
10
 74
0
 42
0.0000001
 43
0.0000001
 44
0.0000000001
 40
0.0
 40
0.0
 40
0.0
 40
0.0
 40
0.0901337646
 40
0.1932503971
 40
0.3081076037
 40
0.433252905
 40
0.5669668728
 40
0.7073458806
 40
1.0
 40
1.0
 40
1.0
 40
1.0
 10
11.4937373426
 20
6.6769635914
 30
0.0
 10
11.4932518362
 20
6.6771011344
 30
0.0
 10
11.4921960567
 20
6.6773440193
 30
0.0
 10
11.4904916159
 20
6.6776148325
 30
0.0
 10
11.4885800502
 20
6.6778126523
 30
0.0
 10
11.4864907553
 20
6.6779341888
 30
0.0
 10
11.4842555039
 20
6.6779771875
 30
0.0
 10
11.4810825309
 20
6.6779278995
 30
0.0
 10
11.478661088
 20
6.6777730751
 30
0.0
 10
11.4770297538
 20
6.6776208408
 30
0.0
  0
SPLINE
  5
309
100
AcDbEntity
  8
0
100
AcDbSpline
 62
9
  6
CONTINUOUS
 70
0
 71
3
 72
9
 73
5
 74
0
 42
0.0000001
 43
0.0000001
 44
0.0000000001
 40
0.0
 40
0.0
 40
0.0
 40
0.0
 40
0.4939744786
 40
1.0
 40
1.0
 40
1.0
 40
1.0
 10
10.4456417844
 20
4.9142968147
 30
0.0
 10
10.4426022075
 20
4.9142968161
 30
0.0
 10
10.4364475064
 20
4.9145176284
 30
0.0
 10
10.4303207248
 20
4.9151345785
 30
0.0
 10
10.4272336848
 20
4.9155413988
 30
0.0
  0
SPLINE
  5
30A
100
AcDbEntity
  8
0
100
AcDbSpline
 62
9
  6
CONTINUOUS
 70
0
 71
3
 72
13
 73
9
 74
0
 42
0.0000001
 43
0.0000001
 44
0.0000000001
 40
0.0
 40
0.0
 40
0.0
 40
0.0
 40
0.0775869241
 40
0.1688710868
 40
0.2739082017
 40
0.3926301693
 40
0.6704117584
 40
1.0
 40
1.0
 40
1.0
 40
1.0
 10
11.0276482047
 20
7.6477268377
 30
0.0
 10
11.0274666822
 20
7.6477268382
 30
0.0
 10
11.0270715879
 20
7.6477461929
 30
0.0
 10
11.0264345026
 20
7.6478176334
 30
0.0
 10
11.0257064383
 20
7.6479339613
 30
0.0
 10
11.0245549982
 20
7.6481608974
 30
0.0
 10
11.0229035953
 20
7.6485622459
 30
0.0
 10
11.0215356881
 20
7.648947762
 30
0.0
 10
11.0207960986
 20
7.6491659601
 30
0.0
  0
SPLINE
  5
30B
100
AcDbEntity
  8
0
100
AcDbSpline
 62
9
  6
CONTINUOUS
 70
0
 71
3
 72
19
 73
15
 74
0
 42
0.0000001
 43
0.0000001
 44
0.0000000001
 40
0.0
 40
0.0
 40
0.0
 40
0.0
 40
0.127862262
 40
0.253913231
 40
0.3164550395
 40
0.3787481682
 40
0.4408457994
 40
0.5027980866
 40
0.5646545898
 40
0.6264662562
 40
0.6882885225
 40
0.7501826276
 40
0.8744550832
 40
1.0
 40
1.0
 40
1.0
 40
1.0
 10
11.0207960986
 20
7.6491659601
 30
0.0
 10
11.0100851827
 20
7.6523259675
 30
0.0
 10
10.9885466882
 20
7.6577221209
 30
0.0
 10
10.9612782658
 20
7.6623811481
 30
0.0
 10
10.939510968
 20
7.6649269882
 30
0.0
 10
10.9232367279
 20
7.6662714959
 30
0.0
 10
10.9069784975
 20
7.667071075
 30
0.0
 10
10.8907409397
 20
7.6673374355
 30
0.0
 10
10.8745283331
 20
7.6670718956
 30
0.0
 10
10.8583445827
 20
7.6662730956
 30
0.0
 10
10.8421932968
 20
7.6649292879
 30
0.0
 10
10.8206802173
 20
7.6623874716
 30
0.0
 10
10.7938299183
 20
7.6577364828
 30
0.0
 10
10.7726614761
 20
7.652330893
 30
0.0
 10
10.7621632322
 20
7.6491659601
 30
0.0
  0
SPLINE
  5
30C
100
AcDbEntity
  8
0
100
AcDbSpline
 62
9
  6
CONTINUOUS
 70
0
 71
3
 72
11
 73
7
 74
0
 42
0.0000001
 43
0.0000001
 44
0.0000000001
 40
0.0
 40
0.0
 40
0.0
 40
0.0
 40
0.2148882561
 40
0.4533810903
 40
0.7153534426
 40
1.0
 40
1.0
 40
1.0
 40
1.0
 10
10.7621632322
 20
7.6491659601
 30
0.0
 10
10.7613402664
 20
7.6489178601
 30
0.0
 10
10.7595751661
 20
7.64848797
 30
0.0
 10
10.7567455119
 20
7.6480461831
 30
0.0
 10
10.7536140823
 20
7.6477810393
 30
0.0
 10
10.7514270087
 20
7.647726839
 30
0.0
 10
10.7502884263
 20
7.6477268377
 30
0.0
  0
SPLINE
  5
30D
100
AcDbEntity
  8
0
100
AcDbSpline
 62
9
  6
CONTINUOUS
 70
0
 71
3
 72
9
 73
5
 74
0
 42
0.0000001
 43
0.0000001
 44
0.0000000001
 40
0.0
 40
0.0
 40
0.0
 40
0.0
 40
0.4937891984
 40
1.0
 40
1.0
 40
1.0
 40
1.0
 10
10.4260971209
 20
7.6477268377
 30
0.0
 10
10.4230035528
 20
7.6477268395
 30
0.0
 10
10.4167367776
 20
7.6479844655
 30
0.0
 10
10.4105069207
 20
7.6486982562
 30
0.0
 10
10.407370209
 20
7.6491659601
 30
0.0
  0
SPLINE
  5
30E
100
AcDbEntity
  8
0
100
AcDbSpline
 62
9
  6
CONTINUOUS
 70
0
 71
3
 72
21
 73
17
 74
0
 42
0.0000001
 43
0.0000001
 44
0.0000000001
 40
0.0
 40
0.0
 40
0.0
 40
0.0
 40
0.1249947488
 40
0.1874954755
 40
0.2499960977
 40
0.3124970525
 40
0.3749980414
 40
0.4374990088
 40
0.4999999997
 40
0.5625009905
 40
0.6250019579
 40
0.6875029468
 40
0.7500039016
 40
0.8125045236
 40
0.8750052503
 40
1.0
 40
1.0
 40
1.0
 40
1.0
 10
10.407370209
 20
7.6491659601
 30
0.0
 10
10.3859834615
 20
7.6523548831
 30
0.0
 10
10.3537903725
 20
7.6564158152
 30
0.0
 10
10.310738743
 20
7.6605429075
 30
0.0
 10
10.2783954367
 20
7.6630278071
 30
0.0
 10
10.2460130735
 20
7.6649301534
 30
0.0
 10
10.2136026591
 20
7.6662731269
 30
0.0
 10
10.1811743569
 20
7.6670716504
 30
0.0
 10
10.1487373427
 20
7.6673373888
 30
0.0
 10
10.1163003285
 20
7.6670716512
 30
0.0
 10
10.0838720263
 20
7.6662731289
 30
0.0
 10
10.0514616118
 20
7.6649301562
 30
0.0
 10
10.0190792487
 20
7.6630278091
 30
0.0
 10
9.9867359426
 20
7.660542908
 30
0.0
 10
9.9436843132
 20
7.6564158132
 30
0.0
 10
9.9114912237
 20
7.6523548834
 30
0.0
 10
9.8901044762
 20
7.6491659601
 30
0.0
  0
SPLINE
  5
30F
100
AcDbEntity
  8
0
100
AcDbSpline
 62
9
  6
CONTINUOUS
 70
0
 71
3
 72
9
 73
5
 74
0
 42
0.0000001
 43
0.0000001
 44
0.0000000001
 40
0.0
 40
0.0
 40
0.0
 40
0.0
 40
0.5062110606
 40
1.0
 40
1.0
 40
1.0
 40
1.0
 10
9.8901044762
 20
7.6491659601
 30
0.0
 10
9.886967763
 20
7.6486982548
 30
0.0
 10
9.8807379058
 20
7.6479844653
 30
0.0
 10
9.8744711307
 20
7.6477268405
 30
0.0
 10
9.8713775642
 20
7.6477268377
 30
0.0
  0
SPLINE
  5
310
100
AcDbEntity
  8
0
100
AcDbSpline
 62
9
  6
CONTINUOUS
 70
0
 71
3
 72
11
 73
7
 74
0
 42
0.0000001
 43
0.0000001
 44
0.0000000001
 40
0.0
 40
0.0
 40
0.0
 40
0.0
 40
0.2846466969
 40
0.5466191599
 40
0.7851118075
 40
1.0
 40
1.0
 40
1.0
 40
1.0
 10
9.5471862588
 20
7.6477268377
 30
0.0
 10
9.5460476759
 20
7.6477268386
 30
0.0
 10
9.5438606012
 20
7.6477810393
 30
0.0
 10
9.5407291715
 20
7.6480461833
 30
0.0
 10
9.5378995178
 20
7.6484879704
 30
0.0
 10
9.5361344188
 20
7.648917861
 30
0.0
 10
9.5353114529
 20
7.6491659601
 30
0.0
  0
SPLINE
  5
311
100
AcDbEntity
  8
0
100
AcDbSpline
 62
9
  6
CONTINUOUS
 70
0
 71
3
 72
19
 73
15
 74
0
 42
0.0000001
 43
0.0000001
 44
0.0000000001
 40
0.0
 40
0.0
 40
0.0
 40
0.0
 40
0.1255449093
 40
0.2498173847
 40
0.3117114978
 40
0.3735337626
 40
0.4353454214
 40
0.4972019179
 40
0.5591541975
 40
0.6212518182
 40
0.6835449405
 40
0.7460867519
 40
0.8721377443
 40
1.0
 40
1.0
 40
1.0
 40
1.0
 10
9.5353114529
 20
7.6491659601
 30
0.0
 10
9.5248132096
 20
7.6523308925
 30
0.0
 10
9.5036447673
 20
7.6577364864
 30
0.0
 10
9.4767944654
 20
7.66238747
 30
0.0
 10
9.4552813835
 20
7.6649292845
 30
0.0
 10
9.4391300978
 20
7.6662730928
 30
0.0
 10
9.4229463488
 20
7.667071894
 30
0.0
 10
9.4067337442
 20
7.6673374348
 30
0.0
 10
9.3904961885
 20
7.6670710752
 30
0.0
 10
9.3742379602
 20
7.6662714974
 30
0.0
 10
9.3579637212
 20
7.6649269908
 30
0.0
 10
9.3361964217
 20
7.66238115
 30
0.0
 10
9.3089279982
 20
7.6577221195
 30
0.0
 10
9.2873895019
 20
7.6523259675
 30
0.0
 10
9.2766785865
 20
7.6491659601
 30
0.0
  0
SPLINE
  5
312
100
AcDbEntity
  8
0
100
AcDbSpline
 62
9
  6
CONTINUOUS
 70
0
 71
3
 72
13
 73
9
 74
0
 42
0.0000001
 43
0.0000001
 44
0.0000000001
 40
0.0
 40
0.0
 40
0.0
 40
0.0
 40
0.3295884548
 40
0.6073701075
 40
0.7260919859
 40
0.8311289613
 40
0.9224130042
 40
1.0
 40
1.0
 40
1.0
 40
1.0
 10
9.2766785865
 20
7.6491659601
 30
0.0
 10
9.2759389966
 20
7.6489477617
 30
0.0
 10
9.2745710888
 20
7.6485622455
 30
0.0
 10
9.2729196854
 20
7.648160897
 30
0.0
 10
9.2717682456
 20
7.6479339612
 30
0.0
 10
9.2710401822
 20
7.6478176334
 30
0.0
 10
9.2704030972
 20
7.6477461932
 30
0.0
 10
9.2700080031
 20
7.6477268385
 30
0.0
 10
9.2698264805
 20
7.6477268377
 30
0.0
  0
SPLINE
  5
313
100
AcDbEntity
  8
0
100
AcDbSpline
 62
9
  6
CONTINUOUS
 70
0
 71
3
 72
15
 73
11
 74
0
 42
0.0000001
 43
0.0000001
 44
0.0000000001
 40
0.0
 40
0.0
 40
0.0
 40
0.0
 40
0.1249995723
 40
0.2500000694
 40
0.374999827
 40
0.4999999998
 40
0.6250001724
 40
0.7499999298
 40
0.8750004271
 40
1.0
 40
1.0
 40
1.0
 40
1.0
 10
10.4272336848
 20
4.9155413988
 30
0.0
 10
10.4041616503
 20
4.9185819254
 30
0.0
 10
10.357907134
 20
4.9238545973
 30
0.0
 10
10.2883033388
 20
4.9294294032
 30
0.0
 10
10.2185550333
 20
4.9327432627
 30
0.0
 10
10.1487373427
 20
4.9338426038
 30
0.0
 10
10.0789196521
 20
4.9327432634
 30
0.0
 10
10.0091713468
 20
4.9294294023
 30
0.0
 10
9.9395675513
 20
4.923854598
 30
0.0
 10
9.893313035
 20
4.9185819255
 30
0.0
 10
9.8702410004
 20
4.9155413988
 30
0.0
  0
SPLINE
  5
314
100
AcDbEntity
  8
0
100
AcDbSpline
 62
9
  6
CONTINUOUS
 70
0
 71
3
 72
13
 73
9
 74
0
 42
0.0000001
 43
0.0000001
 44
0.0000000001
 40
0.0
 40
0.0
 40
0.0
 40
0.0
 40
0.2563925618
 40
0.5114227966
 40
0.6370552233
 40
0.7605472636
 40
0.8816440219
 40
1.0
 40
1.0
 40
1.0
 40
1.0
 10
9.4684003894
 20
4.897358046
 30
0.0
 10
9.4685262696
 20
4.8992797055
 30
0.0
 10
9.4692641299
 20
4.903096129
 30
0.0
 10
9.4713211286
 20
4.9074749316
 30
0.0
 10
9.4735623201
 20
4.9105387581
 30
0.0
 10
9.4754923054
 20
4.9125530055
 30
0.0
 10
9.4776375977
 20
4.9142486492
 30
0.0
 10
9.4791999242
 20
4.9151550867
 30
0.0
 10
9.4800005769
 20
4.9155413988
 30
0.0
  0
SPLINE
  5
315
100
AcDbEntity
  8
0
100
AcDbSpline
 62
9
  6
CONTINUOUS
 70
0
 71
3
 72
12
 73
8
 74
0
 42
0.0000001
 43
0.0000001
 44
0.0000000001
 40
0.0
 40
0.0
 40
0.0
 40
0.0
 40
0.2301665475
 40
0.3519798346
 40
0.4775087227
 40
0.7363756458
 40
1.0
 40
1.0
 40
1.0
 40
1.0
 10
11.4937373426
 20
6.0639025104
 30
0.0
 10
11.4928035089
 20
6.0627995176
 30
0.0
 10
11.4911481651
 20
6.0612957349
 30
0.0
 10
11.4886361841
 20
6.0596538479
 30
0.0
 10
11.485809252
 20
6.0581892616
 30
0.0
 10
11.4819419173
 20
6.0568493555
 30
0.0
 10
11.4786813558
 20
6.0563379966
 30
0.0
 10
11.4770297538
 20
6.0562275118
 30
0.0
  0
SPLINE
  5
316
100
AcDbEntity
  8
0
100
AcDbSpline
 62
9
  6
CONTINUOUS
 70
0
 71
3
 72
13
 73
9
 74
0
 42
0.0000001
 43
0.0000001
 44
0.0000000001
 40
0.0
 40
0.0
 40
0.0
 40
0.0
 40
0.1174379494
 40
0.2368135118
 40
0.3583248681
 40
0.4822250076
 40
0.7368330004
 40
1.0
 40
1.0
 40
1.0
 40
1.0
 10
11.503515652
 20
5.8544250189
 30
0.0
 10
11.5030618151
 20
5.8539145286
 30
0.0
 10
11.5020749728
 20
5.8529466496
 30
0.0
 10
11.5004040693
 20
5.8516918015
 30
0.0
 10
11.4985541884
 20
5.8506410098
 30
0.0
 10
11.4958630515
 20
5.8495220634
 30
0.0
 10
11.4921845251
 20
5.8487136079
 30
0.0
 10
11.4891473375
 20
5.8487208069
 30
0.0
 10
11.4876249231
 20
5.8488795352
 30
0.0
  0
SPLINE
  5
317
100
AcDbEntity
  8
0
100
AcDbSpline
 62
9
  6
CONTINUOUS
 70
0
 71
3
 72
41
 73
37
 74
0
 42
0.0000001
 43
0.0000001
 44
0.0000000001
 40
0.0
 40
0.0
 40
0.0
 40
0.0
 40
0.0872467657
 40
0.1740598193
 40
0.2599776246
 40
0.3445524178
 40
0.4273016082
 40
0.5077114794
 40
0.5852103778
 40
0.659144335
 40
0.7287479577
 40
0.7931130915
 40
0.8230020565
 40
0.8511621738
 40
0.8774317103
 40
0.9016373055
 40
0.9235991859
 40
0.9431310473
 40
0.9600511213
 40
0.9674763492
 40
0.9741835697
 40
0.9801528853
 40
0.985364454
 40
0.9898016174
 40
0.9934527625
 40
0.994980087
 40
0.996306718
 40
0.997431458
 40
0.9983535133
 40
0.9990721395
 40
0.9993549341
 40
0.9995865923
 40
0.999767021
 40
0.9998961272
 40
0.9999738179
 40
1.0
 40
1.0
 40
1.0
 40
1.0
 10
12.2737373433
 20
6.7753131547
 30
0.0
 10
12.2669956669
 20
6.7753131684
 30
0.0
 10
12.2535444188
 20
6.7755704734
 30
0.0
 10
12.2334837913
 20
6.7767162667
 30
0.0
 10
12.2136849586
 20
6.7785848928
 30
0.0
 10
12.1942771127
 20
6.7811165089
 30
0.0
 10
12.175386248
 20
6.7842326799
 30
0.0
 10
12.157140096
 20
6.7878374575
 30
0.0
 10
12.1396713098
 20
6.7918205058
 30
0.0
 10
12.1231237155
 20
6.7960582346
 30
0.0
 10
12.1076591404
 20
6.8004138706
 30
0.0
 10
12.0955460371
 20
6.8041028872
 30
0.0
 10
12.0865368644
 20
6.8069858413
 30
0.0
 10
12.0803483719
 20
6.8090240223
 30
0.0
 10
12.0745919323
 20
6.8109695063
 30
0.0
 10
12.0693019287
 20
6.8127987594
 30
0.0
 10
12.0645145001
 20
6.814487984
 30
0.0
 10
12.0602663742
 20
6.8160135108
 30
0.0
 10
12.0570809846
 20
6.8171747648
 30
0.0
 10
12.0548291783
 20
6.8180035186
 30
0.0
 10
12.0533724338
 20
6.8185426011
 30
0.0
 10
12.0520769181
 20
6.8190244965
 30
0.0
 10
12.0509464511
 20
6.8194469637
 30
0.0
 10
12.0499842619
 20
6.8198080164
 30
0.0
 10
12.0492889081
 20
6.8200698402
 30
0.0
 10
12.0488185971
 20
6.8202472455
 30
0.0
 10
12.0485309621
 20
6.820355804
 30
0.0
 10
12.0482870841
 20
6.8204478479
 30
0.0
 10
12.0480871573
 20
6.8205232898
 30
0.0
 10
12.0479481056
 20
6.8205757863
 30
0.0
 10
12.0478589501
 20
6.8206093931
 30
0.0
 10
12.047808731
 20
6.8206284116
 30
0.0
 10
12.047769555
 20
6.8206430041
 30
0.0
 10
12.0477416678
 20
6.82065394
 30
0.0
 10
12.0477246282
 20
6.8206596217
 30
0.0
 10
12.0477173173
 20
6.8206631423
 30
0.0
 10
12.047715338
 20
6.8206635611
 30
0.0
  0
SPLINE
  5
318
100
AcDbEntity
  8
0
100
AcDbSpline
 62
9
  6
CONTINUOUS
 70
0
 71
3
 72
14
 73
10
 74
0
 42
0.0000001
 43
0.0000001
 44
0.0000000001
 40
0.0
 40
0.0
 40
0.0
 40
0.0
 40
0.2639115509
 40
0.3929971022
 40
0.5194876895
 40
0.6432362836
 40
0.7643120761
 40
0.8831187206
 40
1.0
 40
1.0
 40
1.0
 40
1.0
 10
11.1051884026
 20
4.897358046
 30
0.0
 10
11.1053122377
 20
4.8992484867
 30
0.0
 10
11.1051443993
 20
4.902106316
 30
0.0
 10
11.1041881587
 20
4.9057193809
 30
0.0
 10
11.1031327414
 20
4.9082398964
 30
0.0
 10
11.1017570304
 20
4.9105339352
 30
0.0
 10
11.1000868339
 20
4.9125537273
 30
0.0
 10
11.0981576342
 20
4.91425383
 30
0.0
 10
11.0967163595
 20
4.915157215
 30
0.0
 10
11.0959704504
 20
4.9155413988
 30
0.0
  0
SPLINE
  5
319
100
AcDbEntity
  8
0
100
AcDbSpline
 62
9
  6
CONTINUOUS
 70
0
 71
3
 72
41
 73
37
 74
0
 42
0.0000001
 43
0.0000001
 44
0.0000000001
 40
0.0
 40
0.0
 40
0.0
 40
0.0
 40
0.0000261432
 40
0.0001038017
 40
0.0002328821
 40
0.000413291
 40
0.0006449348
 40
0.00092772
 40
0.0016463413
 40
0.002568407
 40
0.0036931694
 40
0.0050198312
 40
0.0065471876
 40
0.0101983677
 40
0.0146354735
 40
0.0198468378
 40
0.025815883
 40
0.0325229402
 40
0.0399482837
 40
0.0568692103
 40
0.0764011409
 40
0.0983620389
 40
0.122567333
 40
0.1488374363
 40
0.1769979315
 40
0.2068868654
 40
0.2712518926
 40
0.340855482
 40
0.4147894386
 40
0.4922883832
 40
0.5726982397
 40
0.6554474328
 40
0.7400222501
 40
0.8259401245
 40
0.912753251
 40
1.0
 40
1.0
 40
1.0
 40
1.0
 10
12.4997593489
 20
6.8206635611
 30
0.0
 10
12.4997573762
 20
6.8206631256
 30
0.0
 10
12.499750063
 20
6.8206596449
 30
0.0
 10
12.4997330385
 20
6.820653927
 30
0.0
 10
12.4997051532
 20
6.8206430128
 30
0.0
 10
12.499665984
 20
6.8206284114
 30
0.0
 10
12.4996157677
 20
6.8206093966
 30
0.0
 10
12.4995266151
 20
6.8205757876
 30
0.0
 10
12.4993875638
 20
6.8205232914
 30
0.0
 10
12.4991876351
 20
6.8204478483
 30
0.0
 10
12.498943752
 20
6.8203558039
 30
0.0
 10
12.49865611
 20
6.8202472453
 30
0.0
 10
12.4981857904
 20
6.8200698414
 30
0.0
 10
12.4974904347
 20
6.8198080208
 30
0.0
 10
12.4965282635
 20
6.81944697
 30
0.0
 10
12.495397843
 20
6.8190244957
 30
0.0
 10
12.4941023838
 20
6.8185425899
 30
0.0
 10
12.4926456684
 20
6.8180034994
 30
0.0
 10
12.4903937966
 20
6.8171747435
 30
0.0
 10
12.4872082925
 20
6.8160135697
 30
0.0
 10
12.4829601741
 20
6.814488037
 30
0.0
 10
12.4781728855
 20
6.8127986975
 30
0.0
 10
12.4728829398
 20
6.8109694452
 30
0.0
 10
12.4671264234
 20
6.8090240331
 30
0.0
 10
12.4609378513
 20
6.8069858689
 30
0.0
 10
12.4519286663
 20
6.8041028926
 30
0.0
 10
12.4398155774
 20
6.8004138736
 30
0.0
 10
12.4243510169
 20
6.796058226
 30
0.0
 10
12.4078034212
 20
6.791820498
 30
0.0
 10
12.3903346294
 20
6.787837464
 30
0.0
 10
12.372088477
 20
6.7842326745
 30
0.0
 10
12.3531976105
 20
6.7811165103
 30
0.0
 10
12.3337897607
 20
6.7785848645
 30
0.0
 10
12.3139909066
 20
6.7767163143
 30
0.0
 10
12.293930269
 20
6.7755705738
 30
0.0
 10
12.2804790183
 20
6.7753131682
 30
0.0
 10
12.2737373433
 20
6.7753131547
 30
0.0
  0
SPLINE
  5
31A
100
AcDbEntity
  8
0
100
AcDbSpline
 62
9
  6
CONTINUOUS
 70
0
 71
3
 72
11
 73
7
 74
0
 42
0.0000001
 43
0.0000001
 44
0.0000000001
 40
0.0
 40
0.0
 40
0.0
 40
0.0
 40
0.2334837255
 40
0.4786925288
 40
0.7346658843
 40
1.0
 40
1.0
 40
1.0
 40
1.0
 10
12.4434783217
 20
7.1325742547
 30
0.0
 10
12.4429389136
 20
7.1314507406
 30
0.0
 10
12.4417011697
 20
7.1292089184
 30
0.0
 10
12.4394701186
 20
7.1259771477
 30
0.0
 10
12.4368453688
 20
7.122831811
 30
0.0
 10
12.4348869504
 20
7.120849992
 30
0.0
 10
12.433853006
 20
7.1198820685
 30
0.0
  0
SPLINE
  5
31B
100
AcDbEntity
  8
0
100
AcDbSpline
 62
9
  6
CONTINUOUS
 70
0
 71
3
 72
17
 73
13
 74
0
 42
0.0000001
 43
0.0000001
 44
0.0000000001
 40
0.0
 40
0.0
 40
0.0
 40
0.0
 40
0.1334238971
 40
0.2651978983
 40
0.3946031625
 40
0.5211350994
 40
0.6445980066
 40
0.7651382173
 40
0.8245134284
 40
0.8833749698
 40
0.9418445322
 40
1.0
 40
1.0
 40
1.0
 40
1.0
 10
12.5092962524
 20
8.9703052307
 30
0.0
 10
12.5093827117
 20
8.9725316392
 30
0.0
 10
12.5092329005
 20
8.9769765478
 30
0.0
 10
12.5080356295
 20
8.9834806299
 30
0.0
 10
12.505898969
 20
8.98962052
 30
0.0
 10
12.5028791219
 20
8.995222475
 30
0.0
 10
12.4990589158
 20
9.0001276511
 30
0.0
 10
12.4952708433
 20
9.0035371047
 30
0.0
 10
12.4919623295
 20
9.0057713842
 30
0.0
 10
12.4893688665
 20
9.0071887903
 30
0.0
 10
12.4866711016
 20
9.0083441104
 30
0.0
 10
12.4848119128
 20
9.008936126
 30
0.0
 10
12.4838732676
 20
9.0091853027
 30
0.0
  0
SPLINE
  5
31C
100
AcDbEntity
  8
0
100
AcDbSpline
 62
9
  6
CONTINUOUS
 70
0
 71
3
 72
13
 73
9
 74
0
 42
0.0000001
 43
0.0000001
 44
0.0000000001
 40
0.0
 40
0.0
 40
0.0
 40
0.0
 40
0.0775869241
 40
0.1688710868
 40
0.2739082017
 40
0.3926301693
 40
0.6704117584
 40
1.0
 40
1.0
 40
1.0
 40
1.0
 10
9.2698264805
 20
7.4116002844
 30
0.0
 10
9.2700080029
 20
7.411600284
 30
0.0
 10
9.2704030972
 20
7.4115809292
 30
0.0
 10
9.2710401826
 20
7.4115094887
 30
0.0
 10
9.2717682468
 20
7.4113931608
 30
0.0
 10
9.272919687
 20
7.4111662247
 30
0.0
 10
9.2745710898
 20
7.4107648762
 30
0.0
 10
9.2759389971
 20
7.4103793601
 30
0.0
 10
9.2766785865
 20
7.4101611621
 30
0.0
  0
SPLINE
  5
31D
100
AcDbEntity
  8
0
100
AcDbSpline
 62
9
  6
CONTINUOUS
 70
0
 71
3
 72
19
 73
15
 74
0
 42
0.0000001
 43
0.0000001
 44
0.0000000001
 40
0.0
 40
0.0
 40
0.0
 40
0.0
 40
0.1278622605
 40
0.2539132353
 40
0.3164550458
 40
0.378748173
 40
0.4408458008
 40
0.5027980858
 40
0.5646545873
 40
0.6264662514
 40
0.6882885168
 40
0.7501826235
 40
0.8744550846
 40
1.0
 40
1.0
 40
1.0
 40
1.0
 10
9.2766785865
 20
7.4101611621
 30
0.0
 10
9.2873895024
 20
7.4070011548
 30
0.0
 10
9.3089279973
 20
7.4016050014
 30
0.0
 10
9.3361964201
 20
7.3969459736
 30
0.0
 10
9.3579637183
 20
7.3944001331
 30
0.0
 10
9.3742379583
 20
7.3930556257
 30
0.0
 10
9.390496188
 20
7.392256047
 30
0.0
 10
9.4067337453
 20
7.3919896868
 30
0.0
 10
9.4229463513
 20
7.3922552269
 30
0.0
 10
9.4391301012
 20
7.3930540273
 30
0.0
 10
9.4552813869
 20
7.3943978352
 30
0.0
 10
9.476794467
 20
7.3969396511
 30
0.0
 10
9.5036447667
 20
7.4015906386
 30
0.0
 10
9.5248132092
 20
7.4069962291
 30
0.0
 10
9.5353114529
 20
7.4101611621
 30
0.0
  0
SPLINE
  5
31E
100
AcDbEntity
  8
0
100
AcDbSpline
 62
9
  6
CONTINUOUS
 70
0
 71
3
 72
11
 73
7
 74
0
 42
0.0000001
 43
0.0000001
 44
0.0000000001
 40
0.0
 40
0.0
 40
0.0
 40
0.0
 40
0.2148882561
 40
0.4533810903
 40
0.7153534426
 40
1.0
 40
1.0
 40
1.0
 40
1.0
 10
9.5353114529
 20
7.4101611621
 30
0.0
 10
9.5361344188
 20
7.410409262
 30
0.0
 10
9.5378995191
 20
7.4108391522
 30
0.0
 10
9.5407291733
 20
7.4112809391
 30
0.0
 10
9.5438606028
 20
7.4115460828
 30
0.0
 10
9.5460476765
 20
7.4116002831
 30
0.0
 10
9.5471862588
 20
7.4116002844
 30
0.0
  0
SPLINE
  5
31F
100
AcDbEntity
  8
0
100
AcDbSpline
 62
9
  6
CONTINUOUS
 70
0
 71
3
 72
9
 73
5
 74
0
 42
0.0000001
 43
0.0000001
 44
0.0000000001
 40
0.0
 40
0.0
 40
0.0
 40
0.0
 40
0.4937891984
 40
1.0
 40
1.0
 40
1.0
 40
1.0
 10
9.8713775642
 20
7.4116002844
 30
0.0
 10
9.8744711323
 20
7.4116002826
 30
0.0
 10
9.8807379075
 20
7.4113426566
 30
0.0
 10
9.8869677644
 20
7.410628866
 30
0.0
 10
9.8901044762
 20
7.4101611621
 30
0.0
  0
SPLINE
  5
320
100
AcDbEntity
  8
0
100
AcDbSpline
 62
9
  6
CONTINUOUS
 70
0
 71
3
 72
21
 73
17
 74
0
 42
0.0000001
 43
0.0000001
 44
0.0000000001
 40
0.0
 40
0.0
 40
0.0
 40
0.0
 40
0.124994749
 40
0.1874954757
 40
0.2499960979
 40
0.3124970528
 40
0.3749980416
 40
0.4374990091
 40
0.5
 40
0.5625009908
 40
0.6250019582
 40
0.687502947
 40
0.7500039018
 40
0.8125045238
 40
0.8750052504
 40
1.0
 40
1.0
 40
1.0
 40
1.0
 10
9.8901044762
 20
7.4101611621
 30
0.0
 10
9.9114912237
 20
7.4069722391
 30
0.0
 10
9.9436843128
 20
7.4029113073
 30
0.0
 10
9.9867359423
 20
7.3987842146
 30
0.0
 10
10.0190792486
 20
7.3962993146
 30
0.0
 10
10.0514616117
 20
7.3943969678
 30
0.0
 10
10.0838720262
 20
7.3930539945
 30
0.0
 10
10.1163003283
 20
7.3922554714
 30
0.0
 10
10.1487373426
 20
7.3919897332
 30
0.0
 10
10.1811743568
 20
7.392255471
 30
0.0
 10
10.2136026589
 20
7.3930539937
 30
0.0
 10
10.2460130734
 20
7.3943969667
 30
0.0
 10
10.2783954365
 20
7.3962993136
 30
0.0
 10
10.3107387427
 20
7.3987842144
 30
0.0
 10
10.353790372
 20
7.4029113086
 30
0.0
 10
10.3859834614
 20
7.4069722387
 30
0.0
 10
10.407370209
 20
7.4101611621
 30
0.0
  0
SPLINE
  5
321
100
AcDbEntity
  8
0
100
AcDbSpline
 62
9
  6
CONTINUOUS
 70
0
 71
3
 72
9
 73
5
 74
0
 42
0.0000001
 43
0.0000001
 44
0.0000000001
 40
0.0
 40
0.0
 40
0.0
 40
0.0
 40
0.5062110606
 40
1.0
 40
1.0
 40
1.0
 40
1.0
 10
10.407370209
 20
7.4101611621
 30
0.0
 10
10.4105069221
 20
7.4106288673
 30
0.0
 10
10.4167367793
 20
7.4113426569
 30
0.0
 10
10.4230035545
 20
7.4116002816
 30
0.0
 10
10.4260971209
 20
7.4116002844
 30
0.0
  0
SPLINE
  5
322
100
AcDbEntity
  8
0
100
AcDbSpline
 62
9
  6
CONTINUOUS
 70
0
 71
3
 72
11
 73
7
 74
0
 42
0.0000001
 43
0.0000001
 44
0.0000000001
 40
0.0
 40
0.0
 40
0.0
 40
0.0
 40
0.2846466969
 40
0.5466191599
 40
0.7851118075
 40
1.0
 40
1.0
 40
1.0
 40
1.0
 10
10.7502884263
 20
7.4116002844
 30
0.0
 10
10.7514270093
 20
7.4116002836
 30
0.0
 10
10.7536140839
 20
7.4115460828
 30
0.0
 10
10.7567455137
 20
7.4112809388
 30
0.0
 10
10.7595751673
 20
7.4108391517
 30
0.0
 10
10.7613402663
 20
7.4104092611
 30
0.0
 10
10.7621632322
 20
7.4101611621
 30
0.0
  0
SPLINE
  5
323
100
AcDbEntity
  8
0
100
AcDbSpline
 62
9
  6
CONTINUOUS
 70
0
 71
3
 72
19
 73
15
 74
0
 42
0.0000001
 43
0.0000001
 44
0.0000000001
 40
0.0
 40
0.0
 40
0.0
 40
0.0
 40
0.1255449111
 40
0.2498173818
 40
0.311711491
 40
0.3735337551
 40
0.4353454156
 40
0.4972019137
 40
0.5591541955
 40
0.6212518201
 40
0.6835449453
 40
0.7460867568
 40
0.8721377432
 40
1.0
 40
1.0
 40
1.0
 40
1.0
 10
10.7621632322
 20
7.4101611621
 30
0.0
 10
10.7726614757
 20
7.4069962297
 30
0.0
 10
10.793829918
 20
7.4015906364
 30
0.0
 10
10.820680219
 20
7.3969396521
 30
0.0
 10
10.8421933001
 20
7.3943978365
 30
0.0
 10
10.8583445855
 20
7.3930540283
 30
0.0
 10
10.8745283347
 20
7.3922552273
 30
0.0
 10
10.8907409399
 20
7.3919896867
 30
0.0
 10
10.9069784962
 20
7.3922560466
 30
0.0
 10
10.9232367253
 20
7.3930556249
 30
0.0
 10
10.9395109649
 20
7.394400132
 30
0.0
 10
10.9612782641
 20
7.3969459727
 30
0.0
 10
10.9885466873
 20
7.4016050024
 30
0.0
 10
11.0100851832
 20
7.4070011546
 30
0.0
 10
11.0207960986
 20
7.4101611621
 30
0.0
  0
SPLINE
  5
324
100
AcDbEntity
  8
0
100
AcDbSpline
 62
9
  6
CONTINUOUS
 70
0
 71
3
 72
13
 73
9
 74
0
 42
0.0000001
 43
0.0000001
 44
0.0000000001
 40
0.0
 40
0.0
 40
0.0
 40
0.0
 40
0.3295884548
 40
0.6073701075
 40
0.7260919859
 40
0.8311289613
 40
0.9224130042
 40
1.0
 40
1.0
 40
1.0
 40
1.0
 10
11.0207960986
 20
7.4101611621
 30
0.0
 10
11.0215356885
 20
7.4103793605
 30
0.0
 10
11.0229035964
 20
7.4107648767
 30
0.0
 10
11.0245549997
 20
7.4111662251
 30
0.0
 10
11.0257064395
 20
7.4113931609
 30
0.0
 10
11.026434503
 20
7.4115094887
 30
0.0
 10
11.0270715879
 20
7.4115809289
 30
0.0
 10
11.027466682
 20
7.4116002837
 30
0.0
 10
11.0276482047
 20
7.4116002844
 30
0.0
  0
SPLINE
  5
325
100
AcDbEntity
  8
0
100
AcDbSpline
 62
9
  6
CONTINUOUS
 70
0
 71
3
 72
9
 73
5
 74
0
 42
0.0000001
 43
0.0000001
 44
0.0000000001
 40
0.0
 40
0.0
 40
0.0
 40
0.0
 40
0.5060257174
 40
1.0
 40
1.0
 40
1.0
 40
1.0
 10
9.8702410004
 20
4.9155413988
 30
0.0
 10
9.8671539593
 20
4.9151345775
 30
0.0
 10
9.8610271775
 20
4.9145176283
 30
0.0
 10
9.8548724765
 20
4.914296817
 30
0.0
 10
9.8518329008
 20
4.9142968147
 30
0.0
  0
SPLINE
  5
326
100
AcDbEntity
  8
0
100
AcDbSpline
 62
9
  6
CONTINUOUS
 70
0
 71
3
 72
17
 73
13
 74
0
 42
0.0000001
 43
0.0000001
 44
0.0000000001
 40
0.0
 40
0.0
 40
0.0
 40
0.0
 40
0.130623446
 40
0.1959626372
 40
0.2611319407
 40
0.3904509793
 40
0.5178500789
 40
0.5806743031
 40
0.6428040123
 40
0.764746639
 40
0.8837136426
 40
1.0
 40
1.0
 40
1.0
 40
1.0
 10
12.4434783217
 20
8.9703052307
 30
0.0
 10
12.4433913723
 20
8.9725442578
 30
0.0
 10
12.4430146773
 20
8.9759003349
 30
0.0
 10
12.442033647
 20
8.9802739308
 30
0.0
 10
12.440743321
 20
8.9845438906
 30
0.0
 10
12.4385692735
 20
8.9896426321
 30
0.0
 10
12.4356774168
 20
8.9943260685
 30
0.0
 10
12.4329856154
 20
8.9977214604
 30
0.0
 10
12.4300967578
 20
9.0008235846
 30
0.0
 10
12.4260996049
 20
9.0041881355
 30
0.0
 10
12.4207839474
 20
9.0072940514
 30
0.0
 10
12.4169661787
 20
9.008683166
 30
0.0
 10
12.415035637
 20
9.0091853027
 30
0.0
  0
SPLINE
  5
327
100
AcDbEntity
  8
0
100
AcDbSpline
 62
9
  6
CONTINUOUS
 70
0
 71
3
 72
11
 73
7
 74
0
 42
0.0000001
 43
0.0000001
 44
0.0000000001
 40
0.0
 40
0.0
 40
0.0
 40
0.0
 40
0.2705122572
 40
0.5265096061
 40
0.7690063666
 40
1.0
 40
1.0
 40
1.0
 40
1.0
 10
12.0381784327
 20
7.1325742547
 30
0.0
 10
12.0376670046
 20
7.1315090189
 30
0.0
 10
12.0367824263
 20
7.1293794835
 30
0.0
 10
12.0358831224
 20
7.1261331631
 30
0.0
 10
12.035462763
 20
7.1229637019
 30
0.0
 10
12.0355082564
 20
7.1208852548
 30
0.0
 10
12.0356166122
 20
7.1198820685
 30
0.0
  0
SPLINE
  5
328
100
AcDbEntity
  8
0
100
AcDbSpline
 62
9
  6
CONTINUOUS
 70
0
 71
3
 72
11
 73
7
 74
0
 42
0.0000001
 43
0.0000001
 44
0.0000000001
 40
0.0
 40
0.0
 40
0.0
 40
0.0
 40
0.2334842149
 40
0.4786931264
 40
0.7346662882
 40
1.0
 40
1.0
 40
1.0
 40
1.0
 10
12.1039963633
 20
7.1325742546
 30
0.0
 10
12.1045357675
 20
7.1314507354
 30
0.0
 10
12.1057735054
 20
7.1292089051
 30
0.0
 10
12.1080045539
 20
7.1259771283
 30
0.0
 10
12.1106293064
 20
7.1228317953
 30
0.0
 10
12.112587731
 20
7.1208499854
 30
0.0
 10
12.1136216791
 20
7.1198820685
 30
0.0
  0
SPLINE
  5
329
100
AcDbEntity
  8
0
100
AcDbSpline
 62
9
  6
CONTINUOUS
 70
0
 71
3
 72
11
 73
7
 74
0
 42
0.0000001
 43
0.0000001
 44
0.0000000001
 40
0.0
 40
0.0
 40
0.0
 40
0.0
 40
0.2705131246
 40
0.5265108968
 40
0.7690074357
 40
1.0
 40
1.0
 40
1.0
 40
1.0
 10
12.5092962523
 20
7.1325742546
 30
0.0
 10
12.5098076771
 20
7.1315090135
 30
0.0
 10
12.51069225
 20
7.1293794708
 30
0.0
 10
12.511591551
 20
7.1261331463
 30
0.0
 10
12.5120119129
 20
7.1229636907
 30
0.0
 10
12.5119664253
 20
7.12088525
 30
0.0
 10
12.5118580729
 20
7.1198820685
 30
0.0
  0
SPLINE
  5
32A
100
AcDbEntity
  8
0
100
AcDbSpline
 62
9
  6
CONTINUOUS
 70
0
 71
3
 72
17
 73
13
 74
0
 42
0.0000001
 43
0.0000001
 44
0.0000000001
 40
0.0
 40
0.0
 40
0.0
 40
0.0
 40
0.1306234448
 40
0.1959626351
 40
0.2611319375
 40
0.3904509739
 40
0.5178500717
 40
0.5806742954
 40
0.6428040043
 40
0.7647466318
 40
0.883713638
 40
1.0
 40
1.0
 40
1.0
 40
1.0
 10
12.1039963634
 20
8.9703052307
 30
0.0
 10
12.1040833127
 20
8.9725442578
 30
0.0
 10
12.1044600075
 20
8.9759003349
 30
0.0
 10
12.1054410377
 20
8.9802739309
 30
0.0
 10
12.1067313635
 20
8.9845438907
 30
0.0
 10
12.1089054109
 20
8.9896426323
 30
0.0
 10
12.1117972675
 20
8.9943260687
 30
0.0
 10
12.1144890689
 20
8.9977214605
 30
0.0
 10
12.1173779266
 20
9.0008235848
 30
0.0
 10
12.1213750796
 20
9.0041881357
 30
0.0
 10
12.1266907374
 20
9.0072940515
 30
0.0
 10
12.1305085064
 20
9.008683166
 30
0.0
 10
12.1324390482
 20
9.0091853027
 30
0.0
  0
SPLINE
  5
32B
100
AcDbEntity
  8
0
100
AcDbSpline
 62
9
  6
CONTINUOUS
 70
0
 71
3
 72
17
 73
13
 74
0
 42
0.0000001
 43
0.0000001
 44
0.0000000001
 40
0.0
 40
0.0
 40
0.0
 40
0.0
 40
0.1334238847
 40
0.2651978717
 40
0.3946031231
 40
0.5211350515
 40
0.6445979573
 40
0.7651381753
 40
0.8245133936
 40
0.8833749445
 40
0.9418445186
 40
1.0
 40
1.0
 40
1.0
 40
1.0
 10
12.0381784328
 20
8.9703052307
 30
0.0
 10
12.0380919729
 20
8.972531639
 30
0.0
 10
12.038241783
 20
8.9769765475
 30
0.0
 10
12.0394390528
 20
8.9834806295
 30
0.0
 10
12.0415757126
 20
8.9896205195
 30
0.0
 10
12.0445955595
 20
8.9952224746
 30
0.0
 10
12.0484157659
 20
9.0001276507
 30
0.0
 10
12.052203839
 20
9.0035371043
 30
0.0
 10
12.0555123535
 20
9.0057713839
 30
0.0
 10
12.0581058171
 20
9.0071887901
 30
0.0
 10
12.0608035828
 20
9.0083441103
 30
0.0
 10
12.062662772
 20
9.008936126
 30
0.0
 10
12.0636014176
 20
9.0091853027
 30
0.0
  0
LINE
  5
32C
100
AcDbEntity
  8
0
100
AcDbLine
 62
9
  6
CONTINUOUS
 10
12.0381784327
 20
8.9703052307
 11
12.0221015483
 21
8.9686388438
  0
SPLINE
  5
32D
100
AcDbEntity
  8
0
100
AcDbSpline
 62
9
  6
CONTINUOUS
 70
0
 71
3
 72
30
 73
26
 74
0
 42
0.0000001
 43
0.0000001
 44
0.0000000001
 40
0.0
 40
0.0
 40
0.0
 40
0.0
 40
0.0501768848
 40
0.1008466937
 40
0.1524235882
 40
0.2053747054
 40
0.2325147011
 40
0.2601633488
 40
0.2883689667
 40
0.3171746343
 40
0.3466026039
 40
0.3766690232
 40
0.407390135
 40
0.438766449
 40
0.5033865284
 40
0.5365892677
 40
0.5703385176
 40
0.6045856117
 40
0.6392754292
 40
0.6743580361
 40
0.7097836989
 40
0.7455051113
 40
0.7814715952
 40
0.8539427536
 40
1.0
 40
1.0
 40
1.0
 40
1.0
 10
12.1039963634
 20
7.1325742547
 30
0.0
 10
12.1051721376
 20
7.1340815559
 30
0.0
 10
12.1076943884
 20
7.1369911205
 30
0.0
 10
12.1119674064
 20
7.1409412236
 30
0.0
 10
12.1167556735
 20
7.1444332059
 30
0.0
 10
12.1211446501
 20
7.1468895656
 30
0.0
 10
12.1248948061
 20
7.1485634073
 30
0.0
 10
12.1278567041
 20
7.1496758472
 30
0.0
 10
12.1309392805
 20
7.1506309916
 30
0.0
 10
12.1341371481
 20
7.1514249113
 30
0.0
 10
12.1374445184
 20
7.15204983
 30
0.0
 10
12.1408545281
 20
7.1524945088
 30
0.0
 10
12.144357933
 20
7.1527544728
 30
0.0
 10
12.1491857358
 20
7.1528671768
 30
0.0
 10
12.154111228
 20
7.1526330461
 30
0.0
 10
12.1590900601
 20
7.1520399345
 30
0.0
 10
12.1628951538
 20
7.1514105047
 30
0.0
 10
12.1667263475
 20
7.1506138826
 30
0.0
 10
12.1705734541
 20
7.1496587288
 30
0.0
 10
12.1744250864
 20
7.1485472677
 30
0.0
 10
12.178270221
 20
7.1472817084
 30
0.0
 10
12.1820999103
 20
7.1458699225
 30
0.0
 10
12.1871882275
 20
7.1438001839
 30
0.0
 10
12.1959915297
 20
7.1397250492
 30
0.0
 10
12.2032347405
 20
7.1355772058
 30
0.0
 10
12.2079194119
 20
7.1325742547
 30
0.0
  0
SPLINE
  5
32E
100
AcDbEntity
  8
0
100
AcDbSpline
 62
9
  6
CONTINUOUS
 70
0
 71
3
 72
23
 73
19
 74
0
 42
0.0000001
 43
0.0000001
 44
0.0000000001
 40
0.0
 40
0.0
 40
0.0
 40
0.0
 40
0.063552507
 40
0.1266471133
 40
0.1893752977
 40
0.2518145776
 40
0.3140365431
 40
0.3761053664
 40
0.4380767719
 40
0.5000000027
 40
0.5619232342
 40
0.6238946407
 40
0.6859634641
 40
0.7481854287
 40
0.8106247071
 40
0.8733528897
 40
0.936447494
 40
1.0
 40
1.0
 40
1.0
 40
1.0
 10
9.5241742055
 20
7.6313202806
 30
0.0
 10
9.5189024654
 20
7.6328605268
 30
0.0
 10
9.5083318367
 20
7.6357115183
 30
0.0
 10
9.4923690441
 20
7.6393380047
 30
0.0
 10
9.4763744775
 20
7.6423363465
 30
0.0
 10
9.4603571868
 20
7.6447448462
 30
0.0
 10
9.4443222912
 20
7.6465856151
 30
0.0
 10
9.4282749847
 20
7.6478808306
 30
0.0
 10
9.4122201369
 20
7.6486552439
 30
0.0
 10
9.3961612673
 20
7.6489138875
 30
0.0
 10
9.3801023978
 20
7.6486552322
 30
0.0
 10
9.3640475503
 20
7.6478808126
 30
0.0
 10
9.3480002439
 20
7.6465855962
 30
0.0
 10
9.3319653482
 20
7.6447448294
 30
0.0
 10
9.3159480572
 20
7.6423363348
 30
0.0
 10
9.2999534898
 20
7.6393379993
 30
0.0
 10
9.2839906967
 20
7.6357115173
 30
0.0
 10
9.2734200678
 20
7.6328605269
 30
0.0
 10
9.2681483279
 20
7.6313202806
 30
0.0
  0
SPLINE
  5
32F
100
AcDbEntity
  8
0
100
AcDbSpline
 62
9
  6
CONTINUOUS
 70
0
 71
3
 72
23
 73
19
 74
0
 42
0.0000001
 43
0.0000001
 44
0.0000000001
 40
0.0
 40
0.0
 40
0.0
 40
0.0
 40
0.0635525066
 40
0.1266471122
 40
0.1893752956
 40
0.2518145743
 40
0.3140365389
 40
0.3761053624
 40
0.438076769
 40
0.5000000007
 40
0.5619232317
 40
0.6238946372
 40
0.6859634599
 40
0.7481854244
 40
0.8106247034
 40
0.873352887
 40
0.9364474929
 40
1.0
 40
1.0
 40
1.0
 40
1.0
 10
9.2681483279
 20
7.4280068415
 30
0.0
 10
9.2734200679
 20
7.4264665954
 30
0.0
 10
9.2839906967
 20
7.4236156045
 30
0.0
 10
9.2999534895
 20
7.4199891201
 30
0.0
 10
9.3159480566
 20
7.4169907822
 30
0.0
 10
9.3319653477
 20
7.4145822873
 30
0.0
 10
9.3480002435
 20
7.4127415219
 30
0.0
 10
9.3640475501
 20
7.411446308
 30
0.0
 10
9.3801023978
 20
7.4106718916
 30
0.0
 10
9.3961612673
 20
7.4104132393
 30
0.0
 10
9.4122201368
 20
7.4106718852
 30
0.0
 10
9.4282749844
 20
7.4114463001
 30
0.0
 10
9.4443222907
 20
7.4127415152
 30
0.0
 10
9.4603571863
 20
7.4145822826
 30
0.0
 10
9.476374477
 20
7.4169907798
 30
0.0
 10
9.492369044
 20
7.4199891189
 30
0.0
 10
9.5083318368
 20
7.4236156038
 30
0.0
 10
9.5189024655
 20
7.4264665951
 30
0.0
 10
9.5241742055
 20
7.4280068415
 30
0.0
  0
SPLINE
  5
330
100
AcDbEntity
  8
0
100
AcDbSpline
 62
9
  6
CONTINUOUS
 70
0
 71
3
 72
17
 73
13
 74
0
 42
0.0000001
 43
0.0000001
 44
0.0000000001
 40
0.0
 40
0.0
 40
0.0
 40
0.0
 40
0.1506788162
 40
0.2987791061
 40
0.4417723211
 40
0.5772013712
 40
0.702751133
 40
0.8162891555
 40
0.8679480361
 40
0.9159131803
 40
0.959993891
 40
1.0
 40
1.0
 40
1.0
 40
1.0
 10
12.2079194119
 20
8.9703052307
 30
0.0
 10
12.2027028313
 20
8.9700354694
 30
0.0
 10
12.1923557661
 20
8.9695599836
 30
0.0
 10
12.177049536
 20
8.9690362586
 30
0.0
 10
12.1622664102
 20
8.968716429
 30
0.0
 10
12.1482619491
 20
8.9686038533
 30
0.0
 10
12.1352784657
 20
8.9687005557
 30
0.0
 10
12.1252017099
 20
8.9689593971
 30
0.0
 10
12.1178189163
 20
8.9692816394
 30
0.0
 10
12.1128450639
 20
8.9695657824
 30
0.0
 10
12.1082790991
 20
8.9698976376
 30
0.0
 10
12.1053758917
 20
8.9701625869
 30
0.0
 10
12.1039963634
 20
8.9703052307
 30
0.0
  0
SPLINE
  5
331
100
AcDbEntity
  8
0
100
AcDbSpline
 62
9
  6
CONTINUOUS
 70
0
 71
3
 72
30
 73
26
 74
0
 42
0.0000001
 43
0.0000001
 44
0.0000000001
 40
0.0
 40
0.0
 40
0.0
 40
0.0
 40
0.0731487478
 40
0.1461041099
 40
0.2185720198
 40
0.290246251
 40
0.325671032
 40
0.3607528859
 40
0.395441097
 40
0.4296860285
 40
0.4634336874
 40
0.4966353398
 40
0.5612524324
 40
0.5926275306
 40
0.6233473474
 40
0.6534124561
 40
0.6828399119
 40
0.7116452013
 40
0.7398487437
 40
0.767494013
 40
0.7946316573
 40
0.8475826318
 40
0.8991574623
 40
0.9498246053
 40
1.0
 40
1.0
 40
1.0
 40
1.0
 10
12.3395552733
 20
7.1325742547
 30
0.0
 10
12.3419015757
 20
7.1340782453
 30
0.0
 10
12.3466646548
 20
7.1369647598
 30
0.0
 10
12.3540110179
 20
7.1408952032
 30
0.0
 10
12.3615215023
 20
7.1443720259
 30
0.0
 10
12.3679036017
 20
7.1468520727
 30
0.0
 10
12.3730498954
 20
7.1485465726
 30
0.0
 10
12.3769011508
 20
7.1496595954
 30
0.0
 10
12.3807479518
 20
7.1506160115
 30
0.0
 10
12.3845792663
 20
7.1514120135
 30
0.0
 10
12.3883846331
 20
7.1520396977
 30
0.0
 10
12.3933636029
 20
7.1526314133
 30
0.0
 10
12.3982889779
 20
7.1528667794
 30
0.0
 10
12.4031168209
 20
7.1527553528
 30
0.0
 10
12.406620282
 20
7.1524958329
 30
0.0
 10
12.410030219
 20
7.1520501544
 30
0.0
 10
12.4133373181
 20
7.151423482
 30
0.0
 10
12.4165350137
 20
7.150628895
 30
0.0
 10
12.4196178488
 20
7.1496749572
 30
0.0
 10
12.4225801593
 20
7.1485640454
 30
0.0
 10
12.4263305421
 20
7.146890726
 30
0.0
 10
12.4307188526
 20
7.1444330647
 30
0.0
 10
12.4355073032
 20
7.1409413277
 30
0.0
 10
12.4397804347
 20
7.1369912793
 30
0.0
 10
12.4423025528
 20
7.1340815926
 30
0.0
 10
12.4434783217
 20
7.1325742547
 30
0.0
  0
SPLINE
  5
332
100
AcDbEntity
  8
0
100
AcDbSpline
 62
9
  6
CONTINUOUS
 70
0
 71
3
 72
17
 73
13
 74
0
 42
0.0000001
 43
0.0000001
 44
0.0000000001
 40
0.0
 40
0.0
 40
0.0
 40
0.0
 40
0.0400063666
 40
0.0840873365
 40
0.1320524478
 40
0.1837112753
 40
0.2972493845
 40
0.4227990415
 40
0.5582279734
 40
0.7012211093
 40
0.8493213281
 40
1.0
 40
1.0
 40
1.0
 40
1.0
 10
12.4434783217
 20
8.9703052307
 30
0.0
 10
12.4420987987
 20
8.9701624468
 30
0.0
 10
12.4391956061
 20
8.9698971291
 30
0.0
 10
12.434629629
 20
8.969565144
 30
0.0
 10
12.4296557355
 20
8.9692815792
 30
0.0
 10
12.4222729234
 20
8.9689598145
 30
0.0
 10
12.412196186
 20
8.9687004414
 30
0.0
 10
12.3992127001
 20
8.9686037501
 30
0.0
 10
12.3852082489
 20
8.9687164281
 30
0.0
 10
12.3704251331
 20
8.9690363454
 30
0.0
 10
12.3551189007
 20
8.9695597858
 30
0.0
 10
12.344771848
 20
8.9700354375
 30
0.0
 10
12.3395552733
 20
8.9703052307
 30
0.0
  0
LINE
  5
333
100
AcDbEntity
  8
0
100
AcDbLine
 62
9
  6
CONTINUOUS
 10
12.5092962524
 20
7.1325742547
 11
12.525373204
 21
7.1528099301
  0
LINE
  5
334
100
AcDbEntity
  8
0
100
AcDbLine
 62
9
  6
CONTINUOUS
 10
12.0636014176
 20
9.0091853027
 11
12.052391714
 21
9.007442279
  0
SPLINE
  5
335
100
AcDbEntity
  8
0
100
AcDbSpline
 62
9
  6
CONTINUOUS
 70
0
 71
3
 72
17
 73
13
 74
0
 42
0.0000001
 43
0.0000001
 44
0.0000000001
 40
0.0
 40
0.0
 40
0.0
 40
0.0
 40
0.1506239437
 40
0.2986862381
 40
0.4416364337
 40
0.5770170014
 40
0.7025264642
 40
0.8160368592
 40
0.8676907586
 40
0.9156865403
 40
0.959853132
 40
1.0
 40
1.0
 40
1.0
 40
1.0
 10
12.204899712
 20
9.0091853027
 30
0.0
 10
12.2012664645
 20
9.0089031322
 30
0.0
 10
12.1940567377
 20
9.0084062218
 30
0.0
 10
12.1833852938
 20
9.0078585966
 30
0.0
 10
12.1730739539
 20
9.0075233379
 30
0.0
 10
12.1633033855
 20
9.0074057318
 30
0.0
 10
12.1542448635
 20
9.0075067511
 30
0.0
 10
12.1472162502
 20
9.0077780371
 30
0.0
 10
12.1420698328
 20
9.0081153764
 30
0.0
 10
12.1386027693
 20
9.008412394
 30
0.0
 10
12.1354202404
 20
9.0087593093
 30
0.0
 10
12.1333988506
 20
9.0090362224
 30
0.0
 10
12.1324390482
 20
9.0091853027
 30
0.0
  0
SPLINE
  5
336
100
AcDbEntity
  8
0
100
AcDbSpline
 62
9
  6
CONTINUOUS
 70
0
 71
3
 72
17
 73
13
 74
0
 42
0.0000001
 43
0.0000001
 44
0.0000000001
 40
0.0
 40
0.0
 40
0.0
 40
0.0
 40
0.0401386023
 40
0.0842970848
 40
0.1322996116
 40
0.1839651796
 40
0.2974768582
 40
0.4229798379
 40
0.5583638172
 40
0.7013139732
 40
0.8493755309
 40
1.0
 40
1.0
 40
1.0
 40
1.0
 10
12.415035637
 20
9.0091853027
 30
0.0
 10
12.4140760343
 20
9.0090362374
 30
0.0
 10
12.4120550774
 20
9.0087591007
 30
0.0
 10
12.4088728081
 20
9.0084119005
 30
0.0
 10
12.4054054659
 20
9.0081151666
 30
0.0
 10
12.4002585394
 20
9.0077783202
 30
0.0
 10
12.3932297826
 20
9.0075068698
 30
0.0
 10
12.3841712996
 20
9.0074055041
 30
0.0
 10
12.374400806
 20
9.0075234255
 30
0.0
 10
12.3640894003
 20
9.007858617
 30
0.0
 10
12.3534179496
 20
9.0084060918
 30
0.0
 10
12.3462082338
 20
9.0089031236
 30
0.0
 10
12.3425749732
 20
9.0091853027
 30
0.0
  0
SPLINE
  5
337
100
AcDbEntity
  8
0
100
AcDbSpline
 62
9
  6
CONTINUOUS
 70
0
 71
3
 72
23
 73
19
 74
0
 42
0.0000001
 43
0.0000001
 44
0.0000000001
 40
0.0
 40
0.0
 40
0.0
 40
0.0
 40
0.0635525069
 40
0.1266471129
 40
0.1893752967
 40
0.2518145757
 40
0.3140365405
 40
0.3761053638
 40
0.4380767701
 40
0.5000000015
 40
0.5619232328
 40
0.6238946387
 40
0.6859634616
 40
0.7481854259
 40
0.8106247045
 40
0.8733528877
 40
0.9364474931
 40
1.0
 40
1.0
 40
1.0
 40
1.0
 10
11.0293263573
 20
7.6313202806
 30
0.0
 10
11.0240546172
 20
7.6328605267
 30
0.0
 10
11.0134839885
 20
7.635711518
 30
0.0
 10
10.9975211958
 20
7.6393380032
 30
0.0
 10
10.9815266288
 20
7.6423363424
 30
0.0
 10
10.9655093379
 20
7.6447448386
 30
0.0
 10
10.9494744421
 20
7.6465856046
 30
0.0
 10
10.9334271356
 20
7.6478808184
 30
0.0
 10
10.9173722878
 20
7.6486552331
 30
0.0
 10
10.9013134183
 20
7.6489138819
 30
0.0
 10
10.8852545488
 20
7.6486552324
 30
0.0
 10
10.8691997013
 20
7.6478808162
 30
0.0
 10
10.8531523949
 20
7.6465856013
 30
0.0
 10
10.8371174993
 20
7.6447448351
 30
0.0
 10
10.8211002084
 20
7.6423363396
 30
0.0
 10
10.8051056413
 20
7.6393380019
 30
0.0
 10
10.7891428484
 20
7.635711518
 30
0.0
 10
10.7785722196
 20
7.632860527
 30
0.0
 10
10.7733004797
 20
7.6313202806
 30
0.0
  0
SPLINE
  5
338
100
AcDbEntity
  8
0
100
AcDbSpline
 62
9
  6
CONTINUOUS
 70
0
 71
3
 72
23
 73
19
 74
0
 42
0.0000001
 43
0.0000001
 44
0.0000000001
 40
0.0
 40
0.0
 40
0.0
 40
0.0
 40
0.063552507
 40
0.1266471132
 40
0.1893752972
 40
0.2518145766
 40
0.3140365416
 40
0.3761053649
 40
0.4380767708
 40
0.500000002
 40
0.5619232335
 40
0.6238946396
 40
0.6859634627
 40
0.748185427
 40
0.8106247054
 40
0.8733528884
 40
0.9364474934
 40
1.0
 40
1.0
 40
1.0
 40
1.0
 10
10.7733004797
 20
7.4280068415
 30
0.0
 10
10.7785722197
 20
7.4264665954
 30
0.0
 10
10.7891428485
 20
7.423615604
 30
0.0
 10
10.8051056411
 20
7.4199891183
 30
0.0
 10
10.8211002079
 20
7.4169907781
 30
0.0
 10
10.8371174988
 20
7.4145822806
 30
0.0
 10
10.8531523945
 20
7.4127415137
 30
0.0
 10
10.869199701
 20
7.4114462995
 30
0.0
 10
10.8852545488
 20
7.4106718856
 30
0.0
 10
10.9013134183
 20
7.4104132391
 30
0.0
 10
10.9173722878
 20
7.410671891
 30
0.0
 10
10.9334271353
 20
7.4114463085
 30
0.0
 10
10.9494744417
 20
7.4127415236
 30
0.0
 10
10.9655093373
 20
7.4145822897
 30
0.0
 10
10.9815266283
 20
7.4169907845
 30
0.0
 10
10.9975211955
 20
7.4199891212
 30
0.0
 10
11.0134839885
 20
7.4236156044
 30
0.0
 10
11.0240546173
 20
7.4264665952
 30
0.0
 10
11.0293263573
 20
7.4280068415
 30
0.0
  0
SPLINE
  5
339
100
AcDbEntity
  8
0
100
AcDbSpline
 62
9
  6
CONTINUOUS
 70
0
 71
3
 72
23
 73
19
 74
0
 42
0.0000001
 43
0.0000001
 44
0.0000000001
 40
0.0
 40
0.0
 40
0.0
 40
0.0
 40
0.0624947894
 40
0.1249967467
 40
0.1875010571
 40
0.2500017831
 40
0.3125009686
 40
0.3750005476
 40
0.437500342
 40
0.4999999999
 40
0.5624996577
 40
0.6249994519
 40
0.6874990304
 40
0.7499982155
 40
0.8124989417
 40
0.8750032528
 40
0.9375052105
 40
1.0
 40
1.0
 40
1.0
 40
1.0
 10
10.4047632202
 20
7.6313202806
 30
0.0
 10
10.3941747992
 20
7.6328670919
 30
0.0
 10
10.3729617422
 20
7.6357258655
 30
0.0
 10
10.3410593108
 20
7.6393475848
 30
0.0
 10
10.3090910284
 20
7.6423423939
 30
0.0
 10
10.277073763
 20
7.6447484448
 30
0.0
 10
10.2450198441
 20
7.6465874778
 30
0.0
 10
10.2129396184
 20
7.6478815833
 30
0.0
 10
10.180842634
 20
7.6486553932
 30
0.0
 10
10.148737343
 20
7.6489138385
 30
0.0
 10
10.1166320521
 20
7.6486553873
 30
0.0
 10
10.084535068
 20
7.6478815738
 30
0.0
 10
10.0524548425
 20
7.6465874672
 30
0.0
 10
10.0204009237
 20
7.6447484351
 30
0.0
 10
9.988383658
 20
7.642342387
 30
0.0
 10
9.9564153751
 20
7.6393475817
 30
0.0
 10
9.9245129431
 20
7.6357258651
 30
0.0
 10
9.9032998859
 20
7.6328670921
 30
0.0
 10
9.892711465
 20
7.6313202806
 30
0.0
  0
SPLINE
  5
33A
100
AcDbEntity
  8
0
100
AcDbSpline
 62
9
  6
CONTINUOUS
 70
0
 71
3
 72
23
 73
19
 74
0
 42
0.0000001
 43
0.0000001
 44
0.0000000001
 40
0.0
 40
0.0
 40
0.0
 40
0.0
 40
0.0624947894
 40
0.1249967469
 40
0.1875010576
 40
0.2500017839
 40
0.3125009694
 40
0.3750005485
 40
0.4375003431
 40
0.5000000011
 40
0.5624996588
 40
0.6249994528
 40
0.6874990312
 40
0.7499982161
 40
0.8124989422
 40
0.8750032529
 40
0.9375052105
 40
1.0
 40
1.0
 40
1.0
 40
1.0
 10
9.892711465
 20
7.4280068415
 30
0.0
 10
9.9032998859
 20
7.4264600302
 30
0.0
 10
9.924512943
 20
7.4236012568
 30
0.0
 10
9.9564153746
 20
7.4199795383
 30
0.0
 10
9.9883836572
 20
7.4169847306
 30
0.0
 10
10.0204009229
 20
7.4145786814
 30
0.0
 10
10.0524548418
 20
7.4127396496
 30
0.0
 10
10.0845350676
 20
7.4114455446
 30
0.0
 10
10.116632052
 20
7.4106717336
 30
0.0
 10
10.148737343
 20
7.4104132852
 30
0.0
 10
10.1808426339
 20
7.410671733
 30
0.0
 10
10.212939618
 20
7.4114455449
 30
0.0
 10
10.2450198435
 20
7.4127396511
 30
0.0
 10
10.2770737622
 20
7.4145786834
 30
0.0
 10
10.3090910277
 20
7.4169847325
 30
0.0
 10
10.3410593104
 20
7.4199795391
 30
0.0
 10
10.3729617422
 20
7.4236012567
 30
0.0
 10
10.3941747993
 20
7.42646003
 30
0.0
 10
10.4047632202
 20
7.4280068415
 30
0.0
  0
SPLINE
  5
33B
100
AcDbEntity
  8
0
100
AcDbSpline
 62
9
  6
CONTINUOUS
 70
0
 71
3
 72
14
 73
10
 74
0
 42
0.0000001
 43
0.0000001
 44
0.0000000001
 40
0.0
 40
0.0
 40
0.0
 40
0.0
 40
0.263829225
 40
0.3928363225
 40
0.5192889762
 40
0.6430419866
 40
0.7641646014
 40
0.8830114024
 40
1.0
 40
1.0
 40
1.0
 40
1.0
 10
11.0293263573
 20
7.6313202806
 30
0.0
 10
11.0294597782
 20
7.6331468995
 30
0.0
 10
11.029328952
 20
7.6359087739
 30
0.0
 10
11.0284642241
 20
7.6394161588
 30
0.0
 10
11.0274963836
 20
7.6418736497
 30
0.0
 10
11.026222411
 20
7.6441244611
 30
0.0
 10
11.0246667485
 20
7.6461253298
 30
0.0
 10
11.0228596504
 20
7.6478346145
 30
0.0
 10
11.021501503
 20
7.6487635236
 30
0.0
 10
11.0207960986
 20
7.6491659601
 30
0.0
  0
SPLINE
  5
33C
100
AcDbEntity
  8
0
100
AcDbSpline
 62
9
  6
CONTINUOUS
 70
0
 71
3
 72
15
 73
11
 74
0
 42
0.0000001
 43
0.0000001
 44
0.0000000001
 40
0.0
 40
0.0
 40
0.0
 40
0.0
 40
0.1249824552
 40
0.2499851744
 40
0.4998186724
 40
0.6248422366
 40
0.7498768729
 40
0.8124139942
 40
0.8749596973
 40
1.0
 40
1.0
 40
1.0
 40
1.0
 10
12.1957322757
 20
7.1198820685
 30
0.0
 10
12.1985037486
 20
7.1175994252
 30
0.0
 10
12.2041636939
 20
7.1131712316
 30
0.0
 10
12.2159646364
 20
7.1049849535
 30
0.0
 10
12.2285740446
 20
7.0979733883
 30
0.0
 10
12.2419414945
 20
7.0926778453
 30
0.0
 10
12.2505882878
 20
7.090188433
 30
0.0
 10
12.2576358703
 20
7.0887703108
 30
0.0
 10
12.2647502416
 20
7.0877450893
 30
0.0
 10
12.2701452042
 20
7.0874218775
 30
0.0
 10
12.2737373426
 20
7.087422175
 30
0.0
  0
SPLINE
  5
33D
100
AcDbEntity
  8
0
100
AcDbSpline
 62
9
  6
CONTINUOUS
 70
0
 71
3
 72
14
 73
10
 74
0
 42
0.0000001
 43
0.0000001
 44
0.0000000001
 40
0.0
 40
0.0
 40
0.0
 40
0.0
 40
0.2552495293
 40
0.3831675649
 40
0.5102760832
 40
0.6359548655
 40
0.7596795453
 40
0.8811281434
 40
1.0
 40
1.0
 40
1.0
 40
1.0
 10
9.5241742055
 20
7.6313202806
 30
0.0
 10
9.5243100113
 20
7.6331795495
 30
0.0
 10
9.5248598135
 20
7.6359601982
 30
0.0
 10
9.5262272081
 20
7.6394335106
 30
0.0
 10
9.5275535969
 20
7.6418857892
 30
0.0
 10
9.5291538965
 20
7.64413061
 30
0.0
 10
9.5309971994
 20
7.6461255801
 30
0.0
 10
9.5330475682
 20
7.6478300623
 30
0.0
 10
9.534543276
 20
7.6487614263
 30
0.0
 10
9.5353114529
 20
7.6491659601
 30
0.0
  0
SPLINE
  5
33E
100
AcDbEntity
  8
0
100
AcDbSpline
 62
9
  6
CONTINUOUS
 70
0
 71
3
 72
14
 73
10
 74
0
 42
0.0000001
 43
0.0000001
 44
0.0000000001
 40
0.0
 40
0.0
 40
0.0
 40
0.0
 40
0.2552495292
 40
0.3831675648
 40
0.510276083
 40
0.6359548652
 40
0.759679545
 40
0.8811281432
 40
1.0
 40
1.0
 40
1.0
 40
1.0
 10
10.7733004797
 20
7.4280068415
 30
0.0
 10
10.7731646738
 20
7.4261475726
 30
0.0
 10
10.7726148716
 20
7.423366924
 30
0.0
 10
10.7712474771
 20
7.4198936115
 30
0.0
 10
10.7699210883
 20
7.4174413329
 30
0.0
 10
10.7683207887
 20
7.4151965121
 30
0.0
 10
10.7664774858
 20
7.413201542
 30
0.0
 10
10.764427117
 20
7.4114970599
 30
0.0
 10
10.7629314092
 20
7.4105656958
 30
0.0
 10
10.7621632322
 20
7.4101611621
 30
0.0
  0
SPLINE
  5
33F
100
AcDbEntity
  8
0
100
AcDbSpline
 62
9
  6
CONTINUOUS
 70
0
 71
3
 72
14
 73
10
 74
0
 42
0.0000001
 43
0.0000001
 44
0.0000000001
 40
0.0
 40
0.0
 40
0.0
 40
0.0
 40
0.2638292253
 40
0.392836323
 40
0.5192889768
 40
0.6430419873
 40
0.764164602
 40
0.8830114028
 40
1.0
 40
1.0
 40
1.0
 40
1.0
 10
9.2681483279
 20
7.4280068415
 30
0.0
 10
9.2680149069
 20
7.4261802226
 30
0.0
 10
9.2681457332
 20
7.4234183483
 30
0.0
 10
9.2690104611
 20
7.4199109634
 30
0.0
 10
9.2699783016
 20
7.4174534724
 30
0.0
 10
9.2712522742
 20
7.415202661
 30
0.0
 10
9.2728079366
 20
7.4132017924
 30
0.0
 10
9.2746150347
 20
7.4114925076
 30
0.0
 10
9.2759731821
 20
7.4105635986
 30
0.0
 10
9.2766785865
 20
7.4101611621
 30
0.0
  0
SPLINE
  5
340
100
AcDbEntity
  8
0
100
AcDbSpline
 62
9
  6
CONTINUOUS
 70
0
 71
3
 72
23
 73
19
 74
0
 42
0.0000001
 43
0.0000001
 44
0.0000000001
 40
0.0
 40
0.0
 40
0.0
 40
0.0
 40
0.0544499178
 40
0.1087036703
 40
0.1630087091
 40
0.2177414156
 40
0.2454187095
 40
0.2733806514
 40
0.3303695171
 40
0.389209789
 40
0.450256693
 40
0.5136221661
 40
0.5792095666
 40
0.6467174954
 40
0.7157540252
 40
0.7859310226
 40
0.8568839101
 40
1.0
 40
1.0
 40
1.0
 40
1.0
 10
12.1136216791
 20
7.1198820685
 30
0.0
 10
12.1145642642
 20
7.121314543
 30
0.0
 10
12.1165687073
 20
7.1240964569
 30
0.0
 10
12.1199652971
 20
7.1279575659
 30
0.0
 10
12.123771163
 20
7.1314324783
 30
0.0
 10
12.1272890698
 20
7.1339367107
 30
0.0
 10
12.1303079686
 20
7.1356643535
 30
0.0
 10
12.1335020957
 20
7.1372121595
 30
0.0
 10
12.1377770904
 20
7.1387540114
 30
0.0
 10
12.1432497602
 20
7.1398877672
 30
0.0
 10
12.1490270576
 20
7.1402542706
 30
0.0
 10
12.1550133423
 20
7.1398600368
 30
0.0
 10
12.1611056209
 20
7.1387062097
 30
0.0
 10
12.1672100117
 20
7.1368646883
 30
0.0
 10
12.1732462234
 20
7.1344034398
 30
0.0
 10
12.1791526048
 20
7.1314013775
 30
0.0
 10
12.1868240294
 20
7.1267773436
 30
0.0
 10
12.1922530166
 20
7.1227471676
 30
0.0
 10
12.1957322757
 20
7.1198820685
 30
0.0
  0
SPLINE
  5
341
100
AcDbEntity
  8
0
100
AcDbSpline
 62
9
  6
CONTINUOUS
 70
0
 71
3
 72
32
 73
28
 74
0
 42
0.0000001
 43
0.0000001
 44
0.0000000001
 40
0.0
 40
0.0
 40
0.0
 40
0.0
 40
0.0727488941
 40
0.1425301664
 40
0.208920652
 40
0.2715579635
 40
0.3014375298
 40
0.3303568376
 40
0.3583419616
 40
0.385469838
 40
0.411872731
 40
0.4377301797
 40
0.4632588867
 40
0.4887021406
 40
0.5143064918
 40
0.5403213818
 40
0.566977521
 40
0.59444743
 40
0.6228500901
 40
0.6522730968
 40
0.6827625968
 40
0.7143133678
 40
0.7804679049
 40
0.8504416153
 40
0.886726795
 40
0.9237860813
 40
1.0
 40
1.0
 40
1.0
 40
1.0
 10
12.0356166123
 20
7.1198820685
 30
0.0
 10
12.036863126
 20
7.1176413107
 30
0.0
 10
12.0394051979
 20
7.1133053884
 30
0.0
 10
12.0434903609
 20
7.1071727162
 30
0.0
 10
12.047791346
 20
7.1016315122
 30
0.0
 10
12.0516325811
 20
7.0975386101
 30
0.0
 10
12.0548375202
 20
7.0946974893
 30
0.0
 10
12.0572625506
 20
7.0928286564
 30
0.0
 10
12.0597455427
 20
7.0912076942
 30
0.0
 10
12.0622843936
 20
7.0898538467
 30
0.0
 10
12.0648740118
 20
7.088781205
 30
0.0
 10
12.0675090956
 20
7.0880042881
 30
0.0
 10
12.0701815673
 20
7.08753209
 30
0.0
 10
12.0728820928
 20
7.0873735005
 30
0.0
 10
12.0755998676
 20
7.0875319866
 30
0.0
 10
12.0783227913
 20
7.088010606
 30
0.0
 10
12.081042056
 20
7.0887923367
 30
0.0
 10
12.0837520117
 20
7.0898605544
 30
0.0
 10
12.0864438065
 20
7.0912076668
 30
0.0
 10
12.0891058149
 20
7.0928271177
 30
0.0
 10
12.0917344848
 20
7.094697418
 30
0.0
 10
12.0952500965
 20
7.0975394307
 30
0.0
 10
12.0995347538
 20
7.1016252639
 30
0.0
 10
12.103560036
 20
7.1061854195
 30
0.0
 10
12.1067123859
 20
7.1101333161
 30
0.0
 10
12.1098783362
 20
7.1143488776
 30
0.0
 10
12.112145449
 20
7.1176377944
 30
0.0
 10
12.1136216791
 20
7.1198820685
 30
0.0
  0
SPLINE
  5
342
100
AcDbEntity
  8
0
100
AcDbSpline
 62
9
  6
CONTINUOUS
 70
0
 71
3
 72
44
 73
40
 74
0
 42
0.0000001
 43
0.0000001
 44
0.0000000001
 40
0.0
 40
0.0
 40
0.0
 40
0.0
 40
0.0902388259
 40
0.179844407
 40
0.2682016398
 40
0.3547368309
 40
0.4388967765
 40
0.5201308088
 40
0.5978554196
 40
0.671423806
 40
0.7400956404
 40
0.772333057
 40
0.8030142782
 40
0.8320120298
 40
0.859192054
 40
0.8844127096
 40
0.9075281413
 40
0.9283871561
 40
0.9468421454
 40
0.9551242313
 40
0.9627528267
 40
0.9697113408
 40
0.9759835565
 40
0.9815532415
 40
0.9864058394
 40
0.9905321076
 40
0.9923203059
 40
0.9939238474
 40
0.9953417074
 40
0.9965729155
 40
0.9976167161
 40
0.9984724067
 40
0.9991392841
 40
0.9994016981
 40
0.999616645
 40
0.9997840367
 40
0.9999037851
 40
0.9999758022
 40
1.0
 40
1.0
 40
1.0
 40
1.0
 10
12.2737373426
 20
6.8471908437
 30
0.0
 10
12.2683515874
 20
6.8471908553
 30
0.0
 10
12.2576144572
 20
6.8475508453
 30
0.0
 10
12.2416757197
 20
6.8491393346
 30
0.0
 10
12.2260861528
 20
6.8516834807
 30
0.0
 10
12.21098751
 20
6.8550469664
 30
0.0
 10
12.1964934524
 20
6.8590693889
 30
0.0
 10
12.1826978911
 20
6.8635806591
 30
0.0
 10
12.1696841394
 20
6.8684103867
 30
0.0
 10
12.1575351378
 20
6.8733910409
 30
0.0
 10
12.1480155952
 20
6.8776152427
 30
0.0
 10
12.1408965283
 20
6.8809322383
 30
0.0
 10
12.1359494919
 20
6.883303496
 30
0.0
 10
12.1312971347
 20
6.8855905406
 30
0.0
 10
12.1269566211
 20
6.8877727301
 30
0.0
 10
12.1229462766
 20
6.8898296862
 30
0.0
 10
12.1192852346
 20
6.8917407691
 30
0.0
 10
12.1159929888
 20
6.8934855687
 30
0.0
 10
12.1134901044
 20
6.8948291409
 30
0.0
 10
12.1116866355
 20
6.8958060475
 30
0.0
 10
12.1104879655
 20
6.8964588666
 30
0.0
 10
12.1093958531
 20
6.8970565317
 30
0.0
 10
12.1084124596
 20
6.8975968862
 30
0.0
 10
12.1075398407
 20
6.8980778402
 30
0.0
 10
12.1067796922
 20
6.8984975187
 30
0.0
 10
12.1062173898
 20
6.8988085966
 30
0.0
 10
12.1058249547
 20
6.8990261427
 30
0.0
 10
12.1055739876
 20
6.8991654803
 30
0.0
 10
12.1053521794
 20
6.8992888525
 30
0.0
 10
12.1051596719
 20
6.8993961748
 30
0.0
 10
12.1049965547
 20
6.8994873139
 30
0.0
 10
12.1048629267
 20
6.8995621712
 30
0.0
 10
12.1047700075
 20
6.899614294
 30
0.0
 10
12.1047105189
 20
6.8996478142
 30
0.0
 10
12.1046769187
 20
6.899666612
 30
0.0
 10
12.1046510006
 20
6.899681553
 30
0.0
 10
12.1046319201
 20
6.8996915941
 30
0.0
 10
12.1046214344
 20
6.8996988231
 30
0.0
 10
12.1046156791
 20
6.8997007418
 30
0.0
 10
12.1046147417
 20
6.8997018405
 30
0.0
  0
LINE
  5
343
100
AcDbEntity
  8
0
100
AcDbLine
 62
9
  6
CONTINUOUS
 10
12.5118580729
 20
7.1198820685
 11
12.5233052699
 21
7.1401275779
  0
SPLINE
  5
344
100
AcDbEntity
  8
0
100
AcDbSpline
 62
9
  6
CONTINUOUS
 70
0
 71
3
 72
31
 73
27
 74
0
 42
0.0000001
 43
0.0000001
 44
0.0000000001
 40
0.0
 40
0.0
 40
0.0
 40
0.0
 40
0.0762167012
 40
0.1495532677
 40
0.2195252758
 40
0.2856801264
 40
0.317227723
 40
0.3477145532
 40
0.377139984
 40
0.4055461264
 40
0.4330148392
 40
0.4596720085
 40
0.4856931558
 40
0.5112983221
 40
0.536739649
 40
0.5622784277
 40
0.5881463305
 40
0.6145360038
 40
0.6416400332
 40
0.6696207184
 40
0.6985527146
 40
0.7284408984
 40
0.7910729779
 40
0.8574744502
 40
0.9272587873
 40
1.0
 40
1.0
 40
1.0
 40
1.0
 10
12.4338530061
 20
7.1198820685
 30
0.0
 10
12.4353291185
 20
7.1176376224
 30
0.0
 10
12.4383216226
 20
7.1132954005
 30
0.0
 10
12.4430489951
 20
7.1071644149
 30
0.0
 10
12.447940087
 20
7.1016256415
 30
0.0
 10
12.4522242265
 20
7.0975393957
 30
0.0
 10
12.4557409267
 20
7.0946990301
 30
0.0
 10
12.4583707819
 20
7.0928306648
 30
0.0
 10
12.4610323575
 20
7.0912105857
 30
0.0
 10
12.4637215667
 20
7.0898581889
 30
0.0
 10
12.4664302712
 20
7.0887860282
 30
0.0
 10
12.4691508641
 20
7.0880075062
 30
0.0
 10
12.4718746677
 20
7.0875331511
 30
0.0
 10
12.4745923839
 20
7.0873735873
 30
0.0
 10
12.4772934155
 20
7.0875310733
 30
0.0
 10
12.4799660087
 20
7.0880068773
 30
0.0
 10
12.4826004542
 20
7.088786201
 30
0.0
 10
12.4851902602
 20
7.0898555137
 30
0.0
 10
12.4877296698
 20
7.0912053258
 30
0.0
 10
12.490212261
 20
7.0928260368
 30
0.0
 10
12.492636716
 20
7.0946965508
 30
0.0
 10
12.4958414368
 20
7.0975386551
 30
0.0
 10
12.4996839337
 20
7.1016310082
 30
0.0
 10
12.5039839615
 20
7.1071733571
 30
0.0
 10
12.5080693504
 20
7.1133060159
 30
0.0
 10
12.51061172
 20
7.1176415518
 30
0.0
 10
12.5118580729
 20
7.1198820685
 30
0.0
  0
SPLINE
  5
345
100
AcDbEntity
  8
0
100
AcDbSpline
 62
9
  6
CONTINUOUS
 70
0
 71
3
 72
24
 73
20
 74
0
 42
0.0000001
 43
0.0000001
 44
0.0000000001
 40
0.0
 40
0.0
 40
0.0
 40
0.0
 40
0.1431109267
 40
0.2140612403
 40
0.2842352861
 40
0.3532700747
 40
0.4207755885
 40
0.4863598876
 40
0.5497231573
 40
0.6107680658
 40
0.6404616884
 40
0.6696422475
 40
0.7266294631
 40
0.7545903086
 40
0.7822664911
 40
0.836997387
 40
0.891300413
 40
0.9455520813
 40
1.0
 40
1.0
 40
1.0
 40
1.0
 10
12.3517424094
 20
7.1198820685
 30
0.0
 10
12.3552216885
 20
7.1227471488
 30
0.0
 10
12.360650657
 20
7.1267773464
 30
0.0
 10
12.3683220674
 20
7.131401412
 30
0.0
 10
12.3742286052
 20
7.134403188
 30
0.0
 10
12.3802646627
 20
7.1368648043
 30
0.0
 10
12.3863689282
 20
7.1387068093
 30
0.0
 10
12.3924614743
 20
7.1398597091
 30
0.0
 10
12.3984472862
 20
7.140254378
 30
0.0
 10
12.403306975
 20
7.1399459173
 30
0.0
 10
12.407032186
 20
7.1393064908
 30
0.0
 10
12.4105780703
 20
7.1384354792
 30
0.0
 10
12.4139726475
 20
7.1372118978
 30
0.0
 10
12.4171667826
 20
7.1356644947
 30
0.0
 10
12.420185764
 20
7.1339368908
 30
0.0
 10
12.4237035095
 20
7.1314324574
 30
0.0
 10
12.4275093792
 20
7.1279575513
 30
0.0
 10
12.4309059921
 20
7.1240964655
 30
0.0
 10
12.4329104354
 20
7.1213145527
 30
0.0
 10
12.4338530061
 20
7.1198820685
 30
0.0
  0
SPLINE
  5
346
100
AcDbEntity
  8
0
100
AcDbSpline
 62
9
  6
CONTINUOUS
 70
0
 71
3
 72
9
 73
5
 74
0
 42
0.0000001
 43
0.0000001
 44
0.0000000001
 40
0.0
 40
0.0
 40
0.0
 40
0.0
 40
0.4937822966
 40
1.0
 40
1.0
 40
1.0
 40
1.0
 10
10.4294552879
 20
7.6299271662
 30
0.0
 10
10.4253831561
 20
7.6299271668
 30
0.0
 10
10.4171350414
 20
7.6301750225
 30
0.0
 10
10.4089130759
 20
7.6308656525
 30
0.0
 10
10.4047632202
 20
7.6313202806
 30
0.0
  0
SPLINE
  5
347
100
AcDbEntity
  8
0
100
AcDbSpline
 62
9
  6
CONTINUOUS
 70
0
 71
3
 72
9
 73
5
 74
0
 42
0.0000001
 43
0.0000001
 44
0.0000000001
 40
0.0
 40
0.0
 40
0.0
 40
0.0
 40
0.5062177542
 40
1.0
 40
1.0
 40
1.0
 40
1.0
 10
10.4047632202
 20
7.4280068415
 30
0.0
 10
10.4089130749
 20
7.4284614827
 30
0.0
 10
10.4171350425
 20
7.4291520933
 30
0.0
 10
10.4253831565
 20
7.4293999553
 30
0.0
 10
10.4294552879
 20
7.429399956
 30
0.0
  0
SPLINE
  5
348
100
AcDbEntity
  8
0
100
AcDbSpline
 62
9
  6
CONTINUOUS
 70
0
 71
3
 72
11
 73
7
 74
0
 42
0.0000001
 43
0.0000001
 44
0.0000000001
 40
0.0
 40
0.0
 40
0.0
 40
0.0
 40
0.2144635986
 40
0.4531803693
 40
0.7154180462
 40
1.0
 40
1.0
 40
1.0
 40
1.0
 10
10.7733004797
 20
7.6313202806
 30
0.0
 10
10.7721959259
 20
7.63107826
 30
0.0
 10
10.7698407992
 20
7.6306615125
 30
0.0
 10
10.766091156
 20
7.630235087
 30
0.0
 10
10.7619557601
 20
7.6299794982
 30
0.0
 10
10.759072235
 20
7.6299271665
 30
0.0
 10
10.7575717787
 20
7.6299271662
 30
0.0
  0
SPLINE
  5
349
100
AcDbEntity
  8
0
100
AcDbSpline
 62
9
  6
CONTINUOUS
 70
0
 71
3
 72
11
 73
7
 74
0
 42
0.0000001
 43
0.0000001
 44
0.0000000001
 40
0.0
 40
0.0
 40
0.0
 40
0.0
 40
0.2845819836
 40
0.5468196932
 40
0.7855364475
 40
1.0
 40
1.0
 40
1.0
 40
1.0
 10
10.7575717787
 20
7.429399956
 30
0.0
 10
10.7590722352
 20
7.4293999557
 30
0.0
 10
10.7619557605
 20
7.429347625
 30
0.0
 10
10.7660911567
 20
7.4290920363
 30
0.0
 10
10.7698407992
 20
7.4286656048
 30
0.0
 10
10.7721959246
 20
7.4282488553
 30
0.0
 10
10.7733004797
 20
7.4280068415
 30
0.0
  0
SPLINE
  5
34A
100
AcDbEntity
  8
0
100
AcDbSpline
 62
9
  6
CONTINUOUS
 70
0
 71
3
 72
13
 73
9
 74
0
 42
0.0000001
 43
0.0000001
 44
0.0000000001
 40
0.0
 40
0.0
 40
0.0
 40
0.0
 40
0.0787505971
 40
0.170934194
 40
0.2765153284
 40
0.3953918758
 40
0.6723763133
 40
1.0
 40
1.0
 40
1.0
 40
1.0
 10
11.0382897241
 20
7.6299271662
 30
0.0
 10
11.0380512728
 20
7.6299271663
 30
0.0
 10
11.0375336895
 20
7.6299456837
 30
0.0
 10
11.0366990708
 20
7.6300144513
 30
0.0
 10
11.0357467186
 20
7.630126588
 30
0.0
 10
11.0342440792
 20
7.6303452828
 30
0.0
 10
11.0320874888
 20
7.6307331906
 30
0.0
 10
11.0302953913
 20
7.6311079597
 30
0.0
 10
11.0293263573
 20
7.6313202806
 30
0.0
  0
SPLINE
  5
34B
100
AcDbEntity
  8
0
100
AcDbSpline
 62
9
  6
CONTINUOUS
 70
0
 71
3
 72
13
 73
9
 74
0
 42
0.0000001
 43
0.0000001
 44
0.0000000001
 40
0.0
 40
0.0
 40
0.0
 40
0.0
 40
0.3276238009
 40
0.6046081835
 40
0.7234847086
 40
0.8290658134
 40
0.9212493849
 40
1.0
 40
1.0
 40
1.0
 40
1.0
 10
11.0293263573
 20
7.4280068415
 30
0.0
 10
11.0302953903
 20
7.4282191683
 30
0.0
 10
11.0320874882
 20
7.4285939374
 30
0.0
 10
11.0342440798
 20
7.4289818397
 30
0.0
 10
11.035746719
 20
7.4292005332
 30
0.0
 10
11.0366990709
 20
7.4293126698
 30
0.0
 10
11.0375336894
 20
7.429381438
 30
0.0
 10
11.0380512727
 20
7.4293999558
 30
0.0
 10
11.0382897241
 20
7.429399956
 30
0.0
  0
SPLINE
  5
34C
100
AcDbEntity
  8
0
100
AcDbSpline
 62
9
  6
CONTINUOUS
 70
0
 71
3
 72
15
 73
11
 74
0
 42
0.0000001
 43
0.0000001
 44
0.0000000001
 40
0.0
 40
0.0
 40
0.0
 40
0.0
 40
0.1250403063
 40
0.1875860319
 40
0.2501227012
 40
0.3751574449
 40
0.500181052
 40
0.7500145847
 40
0.8750171851
 40
1.0
 40
1.0
 40
1.0
 40
1.0
 10
12.2737373426
 20
7.087422175
 30
0.0
 10
12.2773294748
 20
7.0874217623
 30
0.0
 10
12.2827243022
 20
7.0877470994
 30
0.0
 10
12.2898387324
 20
7.0887713422
 30
0.0
 10
12.2968865737
 20
7.0901881253
 30
0.0
 10
12.305533556
 20
7.0926770473
 30
0.0
 10
12.3189004018
 20
7.0979740547
 30
0.0
 10
12.3315100196
 20
7.104984978
 30
0.0
 10
12.343311048
 20
7.1131711739
 30
0.0
 10
12.3489707766
 20
7.1175996131
 30
0.0
 10
12.3517424094
 20
7.1198820685
 30
0.0
  0
SPLINE
  5
34D
100
AcDbEntity
  8
0
100
AcDbSpline
 62
9
  6
CONTINUOUS
 70
0
 71
3
 72
32
 73
28
 74
0
 42
0.0000001
 43
0.0000001
 44
0.0000000001
 40
0.0
 40
0.0
 40
0.0
 40
0.0
 40
0.0749313779
 40
0.1472490326
 40
0.2163827015
 40
0.249573328
 40
0.28173528
 40
0.3127929258
 40
0.3426937668
 40
0.3713993112
 40
0.3989258771
 40
0.4253510583
 40
0.4508331735
 40
0.4756186378
 40
0.5000313677
 40
0.524444287
 40
0.5492307216
 40
0.5747135819
 40
0.6011350846
 40
0.6573077154
 40
0.6872127467
 40
0.7182699174
 40
0.7504263072
 40
0.7836135008
 40
0.8527535079
 40
0.9250723479
 40
1.0
 40
1.0
 40
1.0
 40
1.0
 10
12.4434783217
 20
7.1325742547
 30
0.0
 10
12.4445914815
 20
7.1304366139
 30
0.0
 10
12.4468563687
 20
7.126275224
 30
0.0
 10
12.4504706416
 20
7.120324118
 30
0.0
 10
12.4536759516
 20
7.1157046379
 30
0.0
 10
12.4563565695
 20
7.1123080693
 30
0.0
 10
12.458391429
 20
7.1099663332
 30
0.0
 10
12.4604790407
 20
7.1078161281
 30
0.0
 10
12.4626190994
 20
7.105879396
 30
0.0
 10
12.4648107458
 20
7.1041796269
 30
0.0
 10
12.4670522822
 20
7.1027424624
 30
0.0
 10
12.4693386195
 20
7.1015903891
 30
0.0
 10
12.4716638723
 20
7.1007476903
 30
0.0
 10
12.4740176711
 20
7.1002317117
 30
0.0
 10
12.4763873663
 20
7.1000590777
 30
0.0
 10
12.4787570945
 20
7.1002321608
 30
0.0
 10
12.4811107081
 20
7.1007491784
 30
0.0
 10
12.4834358456
 20
7.1015920686
 30
0.0
 10
12.4865470278
 20
7.1031575831
 30
0.0
 10
12.4895018233
 20
7.1052869516
 30
0.0
 10
12.4922949587
 20
7.1078167583
 30
0.0
 10
12.4943830859
 20
7.1099669717
 30
0.0
 10
12.4964183247
 20
7.1123078097
 30
0.0
 10
12.499099359
 20
7.1157040235
 30
0.0
 10
12.5023033797
 20
7.1203245578
 30
0.0
 10
12.5059178113
 20
7.1262756539
 30
0.0
 10
12.5081832574
 20
7.1304366632
 30
0.0
 10
12.5092962524
 20
7.1325742547
 30
0.0
  0
SPLINE
  5
34E
100
AcDbEntity
  8
0
100
AcDbSpline
 62
9
  6
CONTINUOUS
 70
0
 71
3
 72
16
 73
12
 74
0
 42
0.0000001
 43
0.0000001
 44
0.0000000001
 40
0.0
 40
0.0
 40
0.0
 40
0.0
 40
0.1250004372
 40
0.2500144809
 40
0.375016934
 40
0.5000221987
 40
0.6250202766
 40
0.7500081865
 40
0.812523293
 40
0.8750423437
 40
1.0
 40
1.0
 40
1.0
 40
1.0
 10
12.2079194119
 20
7.1325742547
 30
0.0
 10
12.2101798019
 20
7.1304038269
 30
0.0
 10
12.2148014824
 20
7.1261656063
 30
0.0
 10
12.2220708216
 20
7.1201951898
 30
0.0
 10
12.2297148198
 20
7.1147081398
 30
0.0
 10
12.2377653051
 20
7.109830705
 30
0.0
 10
12.2462384487
 20
7.1057231073
 30
0.0
 10
12.253640169
 20
7.1030940346
 30
0.0
 10
12.2597250111
 20
7.1015714742
 30
0.0
 10
12.2658964994
 20
7.1004624668
 30
0.0
 10
12.270604708
 20
7.1001143791
 30
0.0
 10
12.2737373426
 20
7.1001143612
 30
0.0
  0
SPLINE
  5
34F
100
AcDbEntity
  8
0
100
AcDbSpline
 62
9
  6
CONTINUOUS
 70
0
 71
3
 72
17
 73
13
 74
0
 42
0.0000001
 43
0.0000001
 44
0.0000000001
 40
0.0
 40
0.0
 40
0.0
 40
0.0
 40
0.1249504592
 40
0.1874656234
 40
0.2499766742
 40
0.3124950341
 40
0.3750128488
 40
0.5000039577
 40
0.6250026624
 40
0.7499984678
 40
0.8750060243
 40
1.0
 40
1.0
 40
1.0
 40
1.0
 10
12.2737373426
 20
7.1001143612
 30
0.0
 10
12.2768699656
 20
7.1001143668
 30
0.0
 10
12.2815780947
 20
7.1004636534
 30
0.0
 10
12.2877495218
 20
7.1015717957
 30
0.0
 10
12.2923145945
 20
7.1027136453
 30
0.0
 10
12.2967962263
 20
7.1041459818
 30
0.0
 10
12.3026461474
 20
7.106406499
 30
0.0
 10
12.3097098789
 20
7.109830864
 30
0.0
 10
12.3177595369
 20
7.1147082464
 30
0.0
 10
12.3254037967
 20
7.1201952726
 30
0.0
 10
12.332673196
 20
7.1261655654
 30
0.0
 10
12.3372948777
 20
7.1304038226
 30
0.0
 10
12.3395552733
 20
7.1325742547
 30
0.0
  0
SPLINE
  5
350
100
AcDbEntity
  8
0
100
AcDbSpline
 62
9
  6
CONTINUOUS
 70
0
 71
3
 72
13
 73
9
 74
0
 42
0.0000001
 43
0.0000001
 44
0.0000000001
 40
0.0
 40
0.0
 40
0.0
 40
0.0
 40
0.3276238009
 40
0.6046081835
 40
0.7234847086
 40
0.8290658134
 40
0.9212493849
 40
1.0
 40
1.0
 40
1.0
 40
1.0
 10
9.2681483279
 20
7.6313202806
 30
0.0
 10
9.2671792948
 20
7.6311079539
 30
0.0
 10
9.2653871969
 20
7.6307331848
 30
0.0
 10
9.2632306054
 20
7.6303452825
 30
0.0
 10
9.2617279662
 20
7.630126589
 30
0.0
 10
9.2607756142
 20
7.6300144523
 30
0.0
 10
9.2599409957
 20
7.6299456841
 30
0.0
 10
9.2594234124
 20
7.6299271663
 30
0.0
 10
9.259184961
 20
7.6299271662
 30
0.0
  0
SPLINE
  5
351
100
AcDbEntity
  8
0
100
AcDbSpline
 62
9
  6
CONTINUOUS
 70
0
 71
3
 72
13
 73
9
 74
0
 42
0.0000001
 43
0.0000001
 44
0.0000000001
 40
0.0
 40
0.0
 40
0.0
 40
0.0
 40
0.0787505971
 40
0.170934194
 40
0.2765153284
 40
0.3953918758
 40
0.6723763133
 40
1.0
 40
1.0
 40
1.0
 40
1.0
 10
9.259184961
 20
7.429399956
 30
0.0
 10
9.2594234124
 20
7.4293999558
 30
0.0
 10
9.2599409957
 20
7.4293814384
 30
0.0
 10
9.2607756143
 20
7.4293126708
 30
0.0
 10
9.2617279665
 20
7.4292005342
 30
0.0
 10
9.2632306059
 20
7.4289818394
 30
0.0
 10
9.2653871963
 20
7.4285939316
 30
0.0
 10
9.2671792939
 20
7.4282191624
 30
0.0
 10
9.2681483279
 20
7.4280068415
 30
0.0
  0
SPLINE
  5
352
100
AcDbEntity
  8
0
100
AcDbSpline
 62
9
  6
CONTINUOUS
 70
0
 71
3
 72
11
 73
7
 74
0
 42
0.0000001
 43
0.0000001
 44
0.0000000001
 40
0.0
 40
0.0
 40
0.0
 40
0.0
 40
0.2845819836
 40
0.5468196932
 40
0.7855364475
 40
1.0
 40
1.0
 40
1.0
 40
1.0
 10
9.5399029064
 20
7.6299271662
 30
0.0
 10
9.53840245
 20
7.6299271664
 30
0.0
 10
9.5355189246
 20
7.6299794971
 30
0.0
 10
9.5313835285
 20
7.6302350859
 30
0.0
 10
9.5276338859
 20
7.6306615173
 30
0.0
 10
9.5252787605
 20
7.6310782668
 30
0.0
 10
9.5241742055
 20
7.6313202806
 30
0.0
  0
SPLINE
  5
353
100
AcDbEntity
  8
0
100
AcDbSpline
 62
9
  6
CONTINUOUS
 70
0
 71
3
 72
11
 73
7
 74
0
 42
0.0000001
 43
0.0000001
 44
0.0000000001
 40
0.0
 40
0.0
 40
0.0
 40
0.0
 40
0.2144635986
 40
0.4531803693
 40
0.7154180462
 40
1.0
 40
1.0
 40
1.0
 40
1.0
 10
9.5241742055
 20
7.4280068415
 30
0.0
 10
9.5252787593
 20
7.4282488621
 30
0.0
 10
9.5276338859
 20
7.4286656096
 30
0.0
 10
9.5313835291
 20
7.4290920352
 30
0.0
 10
9.5355189251
 20
7.4293476239
 30
0.0
 10
9.5384024501
 20
7.4293999556
 30
0.0
 10
9.5399029064
 20
7.429399956
 30
0.0
  0
SPLINE
  5
354
100
AcDbEntity
  8
0
100
AcDbSpline
 62
9
  6
CONTINUOUS
 70
0
 71
3
 72
9
 73
5
 74
0
 42
0.0000001
 43
0.0000001
 44
0.0000000001
 40
0.0
 40
0.0
 40
0.0
 40
0.0
 40
0.5062177542
 40
1.0
 40
1.0
 40
1.0
 40
1.0
 10
9.892711465
 20
7.6313202806
 30
0.0
 10
9.8885616102
 20
7.6308656395
 30
0.0
 10
9.8803396427
 20
7.6301750288
 30
0.0
 10
9.8720915286
 20
7.6299271669
 30
0.0
 10
9.8680193972
 20
7.6299271662
 30
0.0
  0
SPLINE
  5
355
100
AcDbEntity
  8
0
100
AcDbSpline
 62
9
  6
CONTINUOUS
 70
0
 71
3
 72
9
 73
5
 74
0
 42
0.0000001
 43
0.0000001
 44
0.0000000001
 40
0.0
 40
0.0
 40
0.0
 40
0.0
 40
0.4937822966
 40
1.0
 40
1.0
 40
1.0
 40
1.0
 10
9.8680193972
 20
7.429399956
 30
0.0
 10
9.8720915291
 20
7.4293999554
 30
0.0
 10
9.8803396438
 20
7.4291520996
 30
0.0
 10
9.8885616092
 20
7.4284614696
 30
0.0
 10
9.892711465
 20
7.4280068415
 30
0.0
  0
SPLINE
  5
356
100
AcDbEntity
  8
0
100
AcDbSpline
 62
9
  6
CONTINUOUS
 70
0
 71
3
 72
15
 73
11
 74
0
 42
0.0000001
 43
0.0000001
 44
0.0000000001
 40
0.0
 40
0.0
 40
0.0
 40
0.0
 40
0.1258312977
 40
0.2516097174
 40
0.3771518465
 40
0.5024345427
 40
0.6273828972
 40
0.751947127
 40
0.8761752584
 40
1.0
 40
1.0
 40
1.0
 40
1.0
 10
11.0382897241
 20
7.6299271662
 30
0.0
 10
11.0382897241
 20
7.6308406382
 30
0.0
 10
11.0381668194
 20
7.6326695502
 30
0.0
 10
11.0376180475
 20
7.635359946
 30
0.0
 10
11.0367142016
 20
7.6379490578
 30
0.0
 10
11.0354729714
 20
7.640387586
 30
0.0
 10
11.0339169637
 20
7.6426297893
 30
0.0
 10
11.0320755198
 20
7.644634064
 30
0.0
 10
11.0299834194
 20
7.6463616114
 30
0.0
 10
11.0284444702
 20
7.647309714
 30
0.0
 10
11.0276482047
 20
7.6477268377
 30
0.0
  0
SPLINE
  5
357
100
AcDbEntity
  8
0
100
AcDbSpline
 62
9
  6
CONTINUOUS
 70
0
 71
3
 72
32
 73
28
 74
0
 42
0.0000001
 43
0.0000001
 44
0.0000000001
 40
0.0
 40
0.0
 40
0.0
 40
0.0
 40
0.0749315336
 40
0.1472492108
 40
0.2163829516
 40
0.2495738431
 40
0.2817360367
 40
0.3127934451
 40
0.3426936915
 40
0.3713991555
 40
0.3989265002
 40
0.4253520865
 40
0.4508335229
 40
0.475618779
 40
0.5000318486
 40
0.52444455
 40
0.5492315083
 40
0.5747154729
 40
0.6011359741
 40
0.657305922
 40
0.6872120149
 40
0.7182703243
 40
0.7504272065
 40
0.7836144602
 40
0.8527537196
 40
0.9250722338
 40
1.0
 40
1.0
 40
1.0
 40
1.0
 10
12.0381784327
 20
7.1325742547
 30
0.0
 10
12.0392915933
 20
7.1304366106
 30
0.0
 10
12.0415564696
 20
7.1262752121
 30
0.0
 10
12.045170746
 20
7.1203241034
 30
0.0
 10
12.048376077
 20
7.1157046299
 30
0.0
 10
12.0510566741
 20
7.1123080258
 30
0.0
 10
12.0530915119
 20
7.1099662619
 30
0.0
 10
12.0551791273
 20
7.107816087
 30
0.0
 10
12.0573192467
 20
7.1058794665
 30
0.0
 10
12.0595109339
 20
7.1041797557
 30
0.0
 10
12.0617523986
 20
7.1027424309
 30
0.0
 10
12.0640386688
 20
7.1015901712
 30
0.0
 10
12.0663640092
 20
7.1007477091
 30
0.0
 10
12.068717841
 20
7.1002320664
 30
0.0
 10
12.071087477
 20
7.1000590516
 30
0.0
 10
12.0734572829
 20
7.1002318022
 30
0.0
 10
12.0758108397
 20
7.1007494103
 30
0.0
 10
12.0781358097
 20
7.1015927141
 30
0.0
 10
12.0812471958
 20
7.1031575752
 30
0.0
 10
12.0842022158
 20
7.1052865887
 30
0.0
 10
12.0869951144
 20
7.1078166327
 30
0.0
 10
12.0890831831
 20
7.1099670166
 30
0.0
 10
12.0911183911
 20
7.1123079496
 30
0.0
 10
12.0937994018
 20
7.1157041678
 30
0.0
 10
12.0970035116
 20
7.1203245941
 30
0.0
 10
12.1006179452
 20
7.1262756514
 30
0.0
 10
12.1028833622
 20
7.1304366642
 30
0.0
 10
12.1039963634
 20
7.1325742547
 30
0.0
  0
SPLINE
  5
358
100
AcDbEntity
  8
0
100
AcDbSpline
 62
9
  6
CONTINUOUS
 70
0
 71
3
 72
11
 73
7
 74
0
 42
0.0000001
 43
0.0000001
 44
0.0000000001
 40
0.0
 40
0.0
 40
0.0
 40
0.0
 40
0.2840348962
 40
0.5459037438
 40
0.7846810235
 40
1.0
 40
1.0
 40
1.0
 40
1.0
 10
9.491672326
 20
4.9142968147
 30
0.0
 10
9.4905582392
 20
4.9142968153
 30
0.0
 10
9.4884165543
 20
4.9143435166
 30
0.0
 10
9.4853455639
 20
4.9145718124
 30
0.0
 10
9.4825613647
 20
4.9149531235
 30
0.0
 10
9.4808170834
 20
4.9153255379
 30
0.0
 10
9.4800005769
 20
4.9155413988
 30
0.0
  0
SPLINE
  5
359
100
AcDbEntity
  8
0
100
AcDbSpline
 62
9
  6
CONTINUOUS
 70
0
 71
3
 72
14
 73
10
 74
0
 42
0.0000001
 43
0.0000001
 44
0.0000000001
 40
0.0
 40
0.0
 40
0.0
 40
0.0
 40
0.2639115511
 40
0.3929971024
 40
0.5194876898
 40
0.6432362839
 40
0.7643120764
 40
0.8831187208
 40
1.0
 40
1.0
 40
1.0
 40
1.0
 10
9.1922862826
 20
4.7059690761
 30
0.0
 10
9.1921624475
 20
4.7040786354
 30
0.0
 10
9.1923302859
 20
4.7012208062
 30
0.0
 10
9.1932865265
 20
4.6976077412
 30
0.0
 10
9.1943419438
 20
4.6950872257
 30
0.0
 10
9.1957176547
 20
4.6927931869
 30
0.0
 10
9.1973878513
 20
4.6907733948
 30
0.0
 10
9.1993170509
 20
4.6890732922
 30
0.0
 10
9.2007583257
 20
4.6881699072
 30
0.0
 10
9.2015042347
 20
4.6877857234
 30
0.0
  0
SPLINE
  5
35A
100
AcDbEntity
  8
0
100
AcDbSpline
 62
9
  6
CONTINUOUS
 70
0
 71
3
 72
14
 73
10
 74
0
 42
0.0000001
 43
0.0000001
 44
0.0000000001
 40
0.0
 40
0.0
 40
0.0
 40
0.0
 40
0.1171561602
 40
0.2362150713
 40
0.3575170823
 40
0.4813517246
 40
0.607763087
 40
0.7366142908
 40
1.0
 40
1.0
 40
1.0
 40
1.0
 10
11.240300221
 20
5.8563191227
 30
0.0
 10
11.2407293587
 20
5.8556844255
 30
0.0
 10
11.2416939834
 20
5.8544691045
 30
0.0
 10
11.2434067421
 20
5.8528661823
 30
0.0
 10
11.2453657793
 20
5.8514978405
 30
0.0
 10
11.2475351246
 20
5.8503876419
 30
0.0
 10
11.2498778297
 20
5.8495545131
 30
0.0
 10
11.253196881
 20
5.8488260585
 30
0.0
 10
11.2557922946
 20
5.8487408334
 30
0.0
 10
11.2575091485
 20
5.8488795352
 30
0.0
  0
SPLINE
  5
35B
100
AcDbEntity
  8
0
100
AcDbSpline
 62
9
  6
CONTINUOUS
 70
0
 71
3
 72
12
 73
8
 74
0
 42
0.0000001
 43
0.0000001
 44
0.0000000001
 40
0.0
 40
0.0
 40
0.0
 40
0.0
 40
0.2449438403
 40
0.369924767
 40
0.4959368044
 40
0.7488135279
 40
1.0
 40
1.0
 40
1.0
 40
1.0
 10
11.503515652
 20
6.019396669
 30
0.0
 10
11.5026006523
 20
6.0181766451
 30
0.0
 10
11.501006111
 20
6.0164829038
 30
0.0
 10
11.4985652989
 20
6.0145860308
 30
0.0
 10
11.4959010353
 20
6.0129201466
 30
0.0
 10
11.4922757621
 20
6.0113521749
 30
0.0
 10
11.4891803775
 20
6.0106997824
 30
0.0
 10
11.4876249231
 20
6.0105376105
 30
0.0
  0
SPLINE
  5
35C
100
AcDbEntity
  8
0
100
AcDbSpline
 62
9
  6
CONTINUOUS
 70
0
 71
3
 72
11
 73
7
 74
0
 42
0.0000001
 43
0.0000001
 44
0.0000000001
 40
0.0
 40
0.0
 40
0.0
 40
0.0
 40
0.2417362086
 40
0.4915143536
 40
0.7457924552
 40
1.0
 40
1.0
 40
1.0
 40
1.0
 10
11.240300221
 20
6.0207577586
 30
0.0
 10
11.2411686399
 20
6.0193330463
 30
0.0
 10
11.2433290701
 20
6.0166624215
 30
0.0
 10
11.2474663915
 20
6.013524665
 30
0.0
 10
11.2522827646
 20
6.0113690137
 30
0.0
 10
11.2557602473
 20
6.0106789019
 30
0.0
 10
11.2575091485
 20
6.0105376105
 30
0.0
  0
SPLINE
  5
35D
100
AcDbEntity
  8
0
100
AcDbSpline
 62
9
  6
CONTINUOUS
 70
0
 71
3
 72
15
 73
11
 74
0
 42
0.0000001
 43
0.0000001
 44
0.0000000001
 40
0.0
 40
0.0
 40
0.0
 40
0.0
 40
0.1258312977
 40
0.2516097174
 40
0.3771518465
 40
0.5024345426
 40
0.6273828972
 40
0.751947127
 40
0.8761752583
 40
1.0
 40
1.0
 40
1.0
 40
1.0
 10
9.259184961
 20
7.6299271662
 30
0.0
 10
9.259184961
 20
7.6308406382
 30
0.0
 10
9.2593078658
 20
7.6326695502
 30
0.0
 10
9.2598566377
 20
7.635359946
 30
0.0
 10
9.2607604835
 20
7.6379490578
 30
0.0
 10
9.2620017138
 20
7.640387586
 30
0.0
 10
9.2635577215
 20
7.6426297893
 30
0.0
 10
9.2653991654
 20
7.644634064
 30
0.0
 10
9.2674912658
 20
7.6463616114
 30
0.0
 10
9.2690302149
 20
7.647309714
 30
0.0
 10
9.2698264805
 20
7.6477268377
 30
0.0
  0
SPLINE
  5
35E
100
AcDbEntity
  8
0
100
AcDbSpline
 62
9
  6
CONTINUOUS
 70
0
 71
3
 72
14
 73
10
 74
0
 42
0.0000001
 43
0.0000001
 44
0.0000000001
 40
0.0
 40
0.0
 40
0.0
 40
0.0
 40
0.2638292269
 40
0.3928363254
 40
0.5192889799
 40
0.6430419907
 40
0.7641646051
 40
0.8830114049
 40
1.0
 40
1.0
 40
1.0
 40
1.0
 10
9.2681483279
 20
7.6313202806
 30
0.0
 10
9.2680149069
 20
7.6331468995
 30
0.0
 10
9.2681457332
 20
7.6359087739
 30
0.0
 10
9.2690104612
 20
7.6394161588
 30
0.0
 10
9.2699783017
 20
7.6418736497
 30
0.0
 10
9.2712522743
 20
7.6441244611
 30
0.0
 10
9.2728079367
 20
7.6461253298
 30
0.0
 10
9.2746150348
 20
7.6478346145
 30
0.0
 10
9.2759731822
 20
7.6487635236
 30
0.0
 10
9.2766785865
 20
7.6491659601
 30
0.0
  0
SPLINE
  5
35F
100
AcDbEntity
  8
0
100
AcDbSpline
 62
9
  6
CONTINUOUS
 70
0
 71
3
 72
13
 73
9
 74
0
 42
0.0000001
 43
0.0000001
 44
0.0000000001
 40
0.0
 40
0.0
 40
0.0
 40
0.0
 40
0.2741973465
 40
0.4079361178
 40
0.5376859287
 40
0.6623983468
 40
0.7813049371
 40
1.0
 40
1.0
 40
1.0
 40
1.0
 10
9.5399029064
 20
7.6299271662
 30
0.0
 10
9.5399029064
 20
7.6317409237
 30
0.0
 10
9.5401475732
 20
7.6344489703
 30
0.0
 10
9.5409711276
 20
7.63791322
 30
0.0
 10
9.5418131605
 20
7.6403439849
 30
0.0
 10
9.5428705755
 20
7.6425827429
 30
0.0
 10
9.5444914725
 20
7.6451792567
 30
0.0
 10
9.5460374995
 20
7.6468475959
 30
0.0
 10
9.5471862588
 20
7.6477268377
 30
0.0
  0
SPLINE
  5
360
100
AcDbEntity
  8
0
100
AcDbSpline
 62
9
  6
CONTINUOUS
 70
0
 71
3
 72
15
 73
11
 74
0
 42
0.0000001
 43
0.0000001
 44
0.0000000001
 40
0.0
 40
0.0
 40
0.0
 40
0.0
 40
0.1495731653
 40
0.2966654633
 40
0.4386924208
 40
0.5733720295
 40
0.6985254114
 40
0.812260157
 40
0.9131026391
 40
1.0
 40
1.0
 40
1.0
 40
1.0
 10
9.8680193972
 20
7.6299271662
 30
0.0
 10
9.8680193972
 20
7.6308387873
 30
0.0
 10
9.8680574588
 20
7.6326471466
 30
0.0
 10
9.8682278088
 20
7.635316278
 30
0.0
 10
9.8685082637
 20
7.6378849349
 30
0.0
 10
9.8688930918
 20
7.6403048971
 30
0.0
 10
9.8693750588
 20
7.642531465
 30
0.0
 10
9.8699446787
 20
7.644524163
 30
0.0
 10
9.8705911122
 20
7.6462463373
 30
0.0
 10
9.8711042719
 20
7.6472731722
 30
0.0
 10
9.8713775642
 20
7.6477268377
 30
0.0
  0
SPLINE
  5
361
100
AcDbEntity
  8
0
100
AcDbSpline
 62
9
  6
CONTINUOUS
 70
0
 71
3
 72
15
 73
11
 74
0
 42
0.0000001
 43
0.0000001
 44
0.0000000001
 40
0.0
 40
0.0
 40
0.0
 40
0.0
 40
0.1495731654
 40
0.2966654635
 40
0.438692421
 40
0.5733720298
 40
0.6985254117
 40
0.8122601573
 40
0.9131026393
 40
1.0
 40
1.0
 40
1.0
 40
1.0
 10
10.4294552879
 20
7.6299271662
 30
0.0
 10
10.4294552879
 20
7.6308387873
 30
0.0
 10
10.4294172263
 20
7.6326471466
 30
0.0
 10
10.4292468763
 20
7.635316278
 30
0.0
 10
10.4289664214
 20
7.6378849349
 30
0.0
 10
10.4285815934
 20
7.6403048971
 30
0.0
 10
10.4280996264
 20
7.642531465
 30
0.0
 10
10.4275300064
 20
7.644524163
 30
0.0
 10
10.426883573
 20
7.6462463373
 30
0.0
 10
10.4263704132
 20
7.6472731722
 30
0.0
 10
10.4260971209
 20
7.6477268377
 30
0.0
  0
SPLINE
  5
362
100
AcDbEntity
  8
0
100
AcDbSpline
 62
9
  6
CONTINUOUS
 70
0
 71
3
 72
13
 73
9
 74
0
 42
0.0000001
 43
0.0000001
 44
0.0000000001
 40
0.0
 40
0.0
 40
0.0
 40
0.0
 40
0.2741973467
 40
0.4079361182
 40
0.5376859291
 40
0.6623983472
 40
0.7813049375
 40
1.0
 40
1.0
 40
1.0
 40
1.0
 10
10.7575717788
 20
7.6299271662
 30
0.0
 10
10.7575717788
 20
7.6317409237
 30
0.0
 10
10.757327112
 20
7.6344489703
 30
0.0
 10
10.7565035575
 20
7.63791322
 30
0.0
 10
10.7556615246
 20
7.6403439849
 30
0.0
 10
10.7546041097
 20
7.6425827429
 30
0.0
 10
10.7529832127
 20
7.6451792567
 30
0.0
 10
10.7514371857
 20
7.6468475959
 30
0.0
 10
10.7502884263
 20
7.6477268377
 30
0.0
  0
SPLINE
  5
363
100
AcDbEntity
  8
0
100
AcDbSpline
 62
9
  6
CONTINUOUS
 70
0
 71
3
 72
14
 73
10
 74
0
 42
0.0000001
 43
0.0000001
 44
0.0000000001
 40
0.0
 40
0.0
 40
0.0
 40
0.0
 40
0.2552495288
 40
0.3831675639
 40
0.5102760817
 40
0.6359548635
 40
0.7596795433
 40
0.8811281419
 40
1.0
 40
1.0
 40
1.0
 40
1.0
 10
10.7733004797
 20
7.6313202806
 30
0.0
 10
10.7731646739
 20
7.6331795496
 30
0.0
 10
10.7726148717
 20
7.6359601982
 30
0.0
 10
10.7712474772
 20
7.6394335106
 30
0.0
 10
10.7699210884
 20
7.6418857892
 30
0.0
 10
10.7683207887
 20
7.64413061
 30
0.0
 10
10.7664774858
 20
7.6461255801
 30
0.0
 10
10.764427117
 20
7.6478300623
 30
0.0
 10
10.7629314092
 20
7.6487614263
 30
0.0
 10
10.7621632322
 20
7.6491659601
 30
0.0
  0
SPLINE
  5
364
100
AcDbEntity
  8
0
100
AcDbSpline
 62
9
  6
CONTINUOUS
 70
0
 71
3
 72
13
 73
9
 74
0
 42
0.0000001
 43
0.0000001
 44
0.0000000001
 40
0.0
 40
0.0
 40
0.0
 40
0.0
 40
0.2741973465
 40
0.4079361178
 40
0.5376859287
 40
0.6623983468
 40
0.7813049371
 40
1.0
 40
1.0
 40
1.0
 40
1.0
 10
10.7575717788
 20
7.429399956
 30
0.0
 10
10.7575717788
 20
7.4275861985
 30
0.0
 10
10.757327112
 20
7.4248781519
 30
0.0
 10
10.7565035575
 20
7.4214139021
 30
0.0
 10
10.7556615246
 20
7.4189831372
 30
0.0
 10
10.7546041097
 20
7.4167443793
 30
0.0
 10
10.7529832127
 20
7.4141478654
 30
0.0
 10
10.7514371857
 20
7.4124795262
 30
0.0
 10
10.7502884263
 20
7.4116002844
 30
0.0
  0
SPLINE
  5
365
100
AcDbEntity
  8
0
100
AcDbSpline
 62
9
  6
CONTINUOUS
 70
0
 71
3
 72
15
 73
11
 74
0
 42
0.0000001
 43
0.0000001
 44
0.0000000001
 40
0.0
 40
0.0
 40
0.0
 40
0.0
 40
0.1495731653
 40
0.2966654633
 40
0.4386924208
 40
0.5733720295
 40
0.6985254114
 40
0.812260157
 40
0.9131026391
 40
1.0
 40
1.0
 40
1.0
 40
1.0
 10
10.4294552879
 20
7.429399956
 30
0.0
 10
10.4294552879
 20
7.4284883349
 30
0.0
 10
10.4294172263
 20
7.4266799755
 30
0.0
 10
10.4292468763
 20
7.4240108441
 30
0.0
 10
10.4289664214
 20
7.4214421872
 30
0.0
 10
10.4285815934
 20
7.419022225
 30
0.0
 10
10.4280996264
 20
7.4167956571
 30
0.0
 10
10.4275300064
 20
7.4148029591
 30
0.0
 10
10.426883573
 20
7.4130807848
 30
0.0
 10
10.4263704132
 20
7.4120539499
 30
0.0
 10
10.4260971209
 20
7.4116002844
 30
0.0
  0
SPLINE
  5
366
100
AcDbEntity
  8
0
100
AcDbSpline
 62
9
  6
CONTINUOUS
 70
0
 71
3
 72
15
 73
11
 74
0
 42
0.0000001
 43
0.0000001
 44
0.0000000001
 40
0.0
 40
0.0
 40
0.0
 40
0.0
 40
0.1495731654
 40
0.2966654635
 40
0.438692421
 40
0.5733720298
 40
0.6985254117
 40
0.8122601573
 40
0.9131026393
 40
1.0
 40
1.0
 40
1.0
 40
1.0
 10
9.8680193972
 20
7.429399956
 30
0.0
 10
9.8680193972
 20
7.4284883349
 30
0.0
 10
9.8680574588
 20
7.4266799755
 30
0.0
 10
9.8682278088
 20
7.4240108441
 30
0.0
 10
9.8685082637
 20
7.4214421872
 30
0.0
 10
9.8688930918
 20
7.419022225
 30
0.0
 10
9.8693750588
 20
7.4167956571
 30
0.0
 10
9.8699446788
 20
7.4148029591
 30
0.0
 10
9.8705911122
 20
7.4130807848
 30
0.0
 10
9.8711042719
 20
7.41205395
 30
0.0
 10
9.8713775642
 20
7.4116002844
 30
0.0
  0
SPLINE
  5
367
100
AcDbEntity
  8
0
100
AcDbSpline
 62
9
  6
CONTINUOUS
 70
0
 71
3
 72
13
 73
9
 74
0
 42
0.0000001
 43
0.0000001
 44
0.0000000001
 40
0.0
 40
0.0
 40
0.0
 40
0.0
 40
0.2741973467
 40
0.4079361182
 40
0.5376859291
 40
0.6623983472
 40
0.7813049375
 40
1.0
 40
1.0
 40
1.0
 40
1.0
 10
9.5399029064
 20
7.429399956
 30
0.0
 10
9.5399029064
 20
7.4275861985
 30
0.0
 10
9.5401475732
 20
7.4248781519
 30
0.0
 10
9.5409711277
 20
7.4214139021
 30
0.0
 10
9.5418131605
 20
7.4189831372
 30
0.0
 10
9.5428705755
 20
7.4167443793
 30
0.0
 10
9.5444914725
 20
7.4141478654
 30
0.0
 10
9.5460374995
 20
7.4124795262
 30
0.0
 10
9.5471862588
 20
7.4116002844
 30
0.0
  0
SPLINE
  5
368
100
AcDbEntity
  8
0
100
AcDbSpline
 62
9
  6
CONTINUOUS
 70
0
 71
3
 72
14
 73
10
 74
0
 42
0.0000001
 43
0.0000001
 44
0.0000000001
 40
0.0
 40
0.0
 40
0.0
 40
0.0
 40
0.2552495288
 40
0.3831675639
 40
0.5102760817
 40
0.6359548635
 40
0.7596795433
 40
0.8811281419
 40
1.0
 40
1.0
 40
1.0
 40
1.0
 10
9.5241742055
 20
7.4280068415
 30
0.0
 10
9.5243100113
 20
7.4261475726
 30
0.0
 10
9.5248598134
 20
7.423366924
 30
0.0
 10
9.526227208
 20
7.4198936115
 30
0.0
 10
9.5275535968
 20
7.4174413329
 30
0.0
 10
9.5291538964
 20
7.4151965121
 30
0.0
 10
9.5309971993
 20
7.413201542
 30
0.0
 10
9.5330475681
 20
7.4114970598
 30
0.0
 10
9.534543276
 20
7.4105656958
 30
0.0
 10
9.5353114529
 20
7.4101611621
 30
0.0
  0
SPLINE
  5
369
100
AcDbEntity
  8
0
100
AcDbSpline
 62
9
  6
CONTINUOUS
 70
0
 71
3
 72
15
 73
11
 74
0
 42
0.0000001
 43
0.0000001
 44
0.0000000001
 40
0.0
 40
0.0
 40
0.0
 40
0.0
 40
0.1258312977
 40
0.2516097174
 40
0.3771518465
 40
0.5024345427
 40
0.6273828972
 40
0.751947127
 40
0.8761752584
 40
1.0
 40
1.0
 40
1.0
 40
1.0
 10
9.259184961
 20
7.429399956
 30
0.0
 10
9.259184961
 20
7.4284864839
 30
0.0
 10
9.2593078658
 20
7.4266575719
 30
0.0
 10
9.2598566377
 20
7.4239671761
 30
0.0
 10
9.2607604835
 20
7.4213780644
 30
0.0
 10
9.2620017138
 20
7.4189395361
 30
0.0
 10
9.2635577215
 20
7.4166973328
 30
0.0
 10
9.2653991654
 20
7.4146930581
 30
0.0
 10
9.2674912658
 20
7.4129655108
 30
0.0
 10
9.2690302149
 20
7.4120174082
 30
0.0
 10
9.2698264805
 20
7.4116002844
 30
0.0
  0
SPLINE
  5
36A
100
AcDbEntity
  8
0
100
AcDbSpline
 62
9
  6
CONTINUOUS
 70
0
 71
3
 72
11
 73
7
 74
0
 42
0.0000001
 43
0.0000001
 44
0.0000000001
 40
0.0
 40
0.0
 40
0.0
 40
0.0
 40
0.2417362232
 40
0.4915143666
 40
0.7457924579
 40
1.0
 40
1.0
 40
1.0
 40
1.0
 10
11.240300221
 20
6.8605693635
 30
0.0
 10
11.2411686398
 20
6.8619940761
 30
0.0
 10
11.2433290697
 20
6.8646647014
 30
0.0
 10
11.247466391
 20
6.8678024584
 30
0.0
 10
11.2522827642
 20
6.8699581096
 30
0.0
 10
11.2557602472
 20
6.8706482208
 30
0.0
 10
11.2575091485
 20
6.8707895116
 30
0.0
  0
SPLINE
  5
36B
100
AcDbEntity
  8
0
100
AcDbSpline
 62
9
  6
CONTINUOUS
 70
0
 71
3
 72
14
 73
10
 74
0
 42
0.0000001
 43
0.0000001
 44
0.0000000001
 40
0.0
 40
0.0
 40
0.0
 40
0.0
 40
0.1171561834
 40
0.2362151112
 40
0.3575171317
 40
0.4813517757
 40
0.6077631325
 40
0.7366143247
 40
1.0
 40
1.0
 40
1.0
 40
1.0
 10
11.240300221
 20
7.0250079995
 30
0.0
 10
11.2407293588
 20
7.0256426968
 30
0.0
 10
11.2416939835
 20
7.0268580182
 30
0.0
 10
11.2434067423
 20
7.0284609408
 30
0.0
 10
11.2453657796
 20
7.029829283
 30
0.0
 10
11.247535125
 20
7.0309394818
 30
0.0
 10
11.2498778301
 20
7.0317726106
 30
0.0
 10
11.2531968813
 20
7.0325010649
 30
0.0
 10
11.2557922948
 20
7.0325862893
 30
0.0
 10
11.2575091485
 20
7.032447587
 30
0.0
  0
SPLINE
  5
36C
100
AcDbEntity
  8
0
100
AcDbSpline
 62
9
  6
CONTINUOUS
 70
0
 71
3
 72
13
 73
9
 74
0
 42
0.0000001
 43
0.0000001
 44
0.0000000001
 40
0.0
 40
0.0
 40
0.0
 40
0.0
 40
0.1174378016
 40
0.2368132879
 40
0.358324629
 40
0.4822247933
 40
0.7368328945
 40
1.0
 40
1.0
 40
1.0
 40
1.0
 10
11.503515652
 20
7.0269021032
 30
0.0
 10
11.5030618155
 20
7.0274125926
 30
0.0
 10
11.5020749736
 20
7.0283804699
 30
0.0
 10
11.5004040708
 20
7.0296353162
 30
0.0
 10
11.4985541903
 20
7.0306861071
 30
0.0
 10
11.4958630533
 20
7.0318050539
 30
0.0
 10
11.4921845264
 20
7.0326135112
 30
0.0
 10
11.489147338
 20
7.0326063142
 30
0.0
 10
11.4876249231
 20
7.032447587
 30
0.0
  0
SPLINE
  5
36D
100
AcDbEntity
  8
0
100
AcDbSpline
 62
9
  6
CONTINUOUS
 70
0
 71
3
 72
12
 73
8
 74
0
 42
0.0000001
 43
0.0000001
 44
0.0000000001
 40
0.0
 40
0.0
 40
0.0
 40
0.0
 40
0.2301663133
 40
0.3519795698
 40
0.4775084759
 40
0.7363755295
 40
1.0
 40
1.0
 40
1.0
 40
1.0
 10
11.4937373426
 20
6.8174246118
 30
0.0
 10
11.4928035076
 20
6.8185276008
 30
0.0
 10
11.4911481627
 20
6.8200313782
 30
0.0
 10
11.4886361817
 20
6.8216732602
 30
0.0
 10
11.4858092491
 20
6.8231378441
 30
0.0
 10
11.4819419153
 20
6.8244777519
 30
0.0
 10
11.4786813555
 20
6.8249891193
 30
0.0
 10
11.4770297538
 20
6.8250996103
 30
0.0
  0
SPLINE
  5
36E
100
AcDbEntity
  8
0
100
AcDbSpline
 62
9
  6
CONTINUOUS
 70
0
 71
3
 72
14
 73
10
 74
0
 42
0.0000001
 43
0.0000001
 44
0.0000000001
 40
0.0
 40
0.0
 40
0.0
 40
0.0
 40
0.0901338837
 40
0.1932505817
 40
0.3081078116
 40
0.4332531021
 40
0.5669670341
 40
0.7073459906
 40
1.0
 40
1.0
 40
1.0
 40
1.0
 10
11.4937373426
 20
6.2043635307
 30
0.0
 10
11.4932518362
 20
6.2042259849
 30
0.0
 10
11.4921960564
 20
6.203983095
 30
0.0
 10
11.4904916149
 20
6.2037122759
 30
0.0
 10
11.4885800487
 20
6.2035144518
 30
0.0
 10
11.4864907534
 20
6.2033929131
 30
0.0
 10
11.4842555021
 20
6.2033499147
 30
0.0
 10
11.4810825294
 20
6.2033992068
 30
0.0
 10
11.4786610871
 20
6.2035540392
 30
0.0
 10
11.4770297538
 20
6.2037062813
 30
0.0
  0
SPLINE
  5
36F
100
AcDbEntity
  8
0
100
AcDbSpline
 62
9
  6
CONTINUOUS
 70
0
 71
3
 72
13
 73
9
 74
0
 42
0.0000001
 43
0.0000001
 44
0.0000000001
 40
0.0
 40
0.0
 40
0.0
 40
0.0
 40
0.1230360274
 40
0.2465839881
 40
0.3706789914
 40
0.4954373254
 40
0.7464923842
 40
1.0
 40
1.0
 40
1.0
 40
1.0
 10
11.4937373426
 20
5.82760248
 30
0.0
 10
11.4932878121
 20
5.8269441683
 30
0.0
 10
11.4923000735
 20
5.8256817994
 30
0.0
 10
11.4905856391
 20
5.8239911369
 30
0.0
 10
11.4886607344
 20
5.8225251656
 30
0.0
 10
11.4858516373
 20
5.8208982119
 30
0.0
 10
11.4819633324
 20
5.8195331411
 30
0.0
 10
11.4786716607
 20
5.8192268457
 30
0.0
 10
11.4770297538
 20
5.8192702321
 30
0.0
  0
LINE
  5
370
100
AcDbEntity
  8
0
100
AcDbLine
 62
9
  6
CONTINUOUS
 10
11.4770297538
 20
5.8192702321
 11
11.4730325089
 21
5.8073474103
  0
SPLINE
  5
371
100
AcDbEntity
  8
0
100
AcDbSpline
 62
9
  6
CONTINUOUS
 70
0
 71
3
 72
11
 73
7
 74
0
 42
0.0000001
 43
0.0000001
 44
0.0000000001
 40
0.0
 40
0.0
 40
0.0
 40
0.0
 40
0.2523221914
 40
0.503739907
 40
0.7532904429
 40
1.0
 40
1.0
 40
1.0
 40
1.0
 10
11.4876249231
 20
6.2790054857
 30
0.0
 10
11.4863999469
 20
6.2727257675
 30
0.0
 10
11.4841444064
 20
6.2601511295
 30
0.0
 10
11.481282637
 20
6.2412636956
 30
0.0
 10
11.4789039626
 20
6.2224530758
 30
0.0
 10
11.4776076322
 20
6.2099352949
 30
0.0
 10
11.4770297538
 20
6.2037062814
 30
0.0
  0
SPLINE
  5
372
100
AcDbEntity
  8
0
100
AcDbSpline
 62
9
  6
CONTINUOUS
 70
0
 71
3
 72
15
 73
11
 74
0
 42
0.0000001
 43
0.0000001
 44
0.0000000001
 40
0.0
 40
0.0
 40
0.0
 40
0.0
 40
0.1258312976
 40
0.2516097174
 40
0.3771518465
 40
0.5024345426
 40
0.6273828972
 40
0.751947127
 40
0.8761752583
 40
1.0
 40
1.0
 40
1.0
 40
1.0
 10
11.0382897241
 20
7.429399956
 30
0.0
 10
11.0382897241
 20
7.4284864839
 30
0.0
 10
11.0381668194
 20
7.4266575719
 30
0.0
 10
11.0376180475
 20
7.4239671761
 30
0.0
 10
11.0367142016
 20
7.4213780644
 30
0.0
 10
11.0354729714
 20
7.4189395361
 30
0.0
 10
11.0339169637
 20
7.4166973328
 30
0.0
 10
11.0320755198
 20
7.4146930581
 30
0.0
 10
11.0299834194
 20
7.4129655108
 30
0.0
 10
11.0284444702
 20
7.4120174082
 30
0.0
 10
11.0276482047
 20
7.4116002844
 30
0.0
  0
SPLINE
  5
373
100
AcDbEntity
  8
0
100
AcDbSpline
 62
9
  6
CONTINUOUS
 70
0
 71
3
 72
14
 73
10
 74
0
 42
0.0000001
 43
0.0000001
 44
0.0000000001
 40
0.0
 40
0.0
 40
0.0
 40
0.0
 40
0.2638292269
 40
0.3928363254
 40
0.5192889799
 40
0.6430419907
 40
0.7641646051
 40
0.8830114049
 40
1.0
 40
1.0
 40
1.0
 40
1.0
 10
11.0293263573
 20
7.4280068415
 30
0.0
 10
11.0294597782
 20
7.4261802226
 30
0.0
 10
11.0293289519
 20
7.4234183482
 30
0.0
 10
11.028464224
 20
7.4199109633
 30
0.0
 10
11.0274963835
 20
7.4174534724
 30
0.0
 10
11.0262224109
 20
7.415202661
 30
0.0
 10
11.0246667484
 20
7.4132017923
 30
0.0
 10
11.0228596504
 20
7.4114925076
 30
0.0
 10
11.021501503
 20
7.4105635986
 30
0.0
 10
11.0207960986
 20
7.4101611621
 30
0.0
  0
SPLINE
  5
374
100
AcDbEntity
  8
0
100
AcDbSpline
 62
9
  6
CONTINUOUS
 70
0
 71
3
 72
20
 73
16
 74
0
 42
0.0000001
 43
0.0000001
 44
0.0000000001
 40
0.0
 40
0.0
 40
0.0
 40
0.0
 40
0.0408334336
 40
0.0854295272
 40
0.1336690084
 40
0.1854226905
 40
0.24053337
 40
0.2988195136
 40
0.3600736283
 40
0.4240622384
 40
0.4905271922
 40
0.5591884291
 40
0.7018904378
 40
0.849678399
 40
1.0
 40
1.0
 40
1.0
 40
1.0
 10
11.2575091485
 20
6.0105376105
 30
0.0
 10
11.258574166
 20
6.014060897
 30
0.0
 10
11.2606094779
 20
6.02149128
 30
0.0
 10
11.263269713
 20
6.0332463917
 30
0.0
 10
11.2656218958
 20
6.0460692335
 30
0.0
 10
11.2676177932
 20
6.0599103163
 30
0.0
 10
11.2692155012
 20
6.0747140192
 30
0.0
 10
11.2703811394
 20
6.0904166358
 30
0.0
 10
11.2710880834
 20
6.1069474077
 30
0.0
 10
11.2713192557
 20
6.1242287375
 30
0.0
 10
11.2710696637
 20
6.1421773559
 30
0.0
 10
11.2700905428
 20
6.1672039271
 30
0.0
 10
11.2676949807
 20
6.199499904
 30
0.0
 10
11.2632818292
 20
6.2389954659
 30
0.0
 10
11.2595342581
 20
6.2656076479
 30
0.0
 10
11.2575091485
 20
6.2790054857
 30
0.0
  0
SPLINE
  5
375
100
AcDbEntity
  8
0
100
AcDbSpline
 62
9
  6
CONTINUOUS
 70
0
 71
3
 72
11
 73
7
 74
0
 42
0.0000001
 43
0.0000001
 44
0.0000000001
 40
0.0
 40
0.0
 40
0.0
 40
0.0
 40
0.2765777541
 40
0.5354262613
 40
0.7764291602
 40
1.0
 40
1.0
 40
1.0
 40
1.0
 10
11.4770297538
 20
6.0562275118
 30
0.0
 10
11.4775859548
 20
6.0519297068
 30
0.0
 10
11.4788209017
 20
6.043628646
 30
0.0
 10
11.4811799694
 20
6.0316881243
 30
0.0
 10
11.4840217364
 20
6.020707682
 30
0.0
 10
11.4863517108
 20
6.013801132
 30
0.0
 10
11.4876249231
 20
6.0105376105
 30
0.0
  0
SPLINE
  5
376
100
AcDbEntity
  8
0
100
AcDbSpline
 62
9
  6
CONTINUOUS
 70
0
 71
3
 72
15
 73
11
 74
0
 42
0.0000001
 43
0.0000001
 44
0.0000000001
 40
0.0
 40
0.0
 40
0.0
 40
0.0
 40
0.1260372905
 40
0.2509658917
 40
0.37522223
 40
0.4992087274
 40
0.6233024843
 40
0.7478735258
 40
0.8733040891
 40
1.0
 40
1.0
 40
1.0
 40
1.0
 10
9.4800005769
 20
4.9155413988
 30
0.0
 10
9.4685658545
 20
4.9185644396
 30
0.0
 10
9.4455889314
 20
4.9238259549
 30
0.0
 10
9.4108004549
 20
4.9294182449
 30
0.0
 10
9.3759151602
 20
4.9327416506
 30
0.0
 10
9.3409685864
 20
4.933843325
 30
0.0
 10
9.3059925846
 20
4.9327397754
 30
0.0
 10
9.2710205234
 20
4.9294148816
 30
0.0
 10
9.236092223
 20
4.9238218046
 30
0.0
 10
9.2130032619
 20
4.9185629683
 30
0.0
 10
9.2015042347
 20
4.9155413988
 30
0.0
  0
SPLINE
  5
377
100
AcDbEntity
  8
0
100
AcDbSpline
 62
9
  6
CONTINUOUS
 70
0
 71
3
 72
13
 73
9
 74
0
 42
0.0000001
 43
0.0000001
 44
0.0000000001
 40
0.0
 40
0.0
 40
0.0
 40
0.0
 40
0.3268741597
 40
0.6035867287
 40
0.7224975926
 40
0.8282369842
 40
0.9207318228
 40
1.0
 40
1.0
 40
1.0
 40
1.0
 10
9.2015042347
 20
4.9155413988
 30
0.0
 10
9.2007808814
 20
4.9153513254
 30
0.0
 10
9.1994409547
 20
4.9150161085
 30
0.0
 10
9.1978239096
 20
4.9146698244
 30
0.0
 10
9.1966933243
 20
4.9144746973
 30
0.0
 10
9.1959744339
 20
4.9143746184
 30
0.0
 10
9.1953422699
 20
4.9143132617
 30
0.0
 10
9.1949492549
 20
4.9142968153
 30
0.0
 10
9.1947678843
 20
4.9142968147
 30
0.0
  0
SPLINE
  5
378
100
AcDbEntity
  8
0
100
AcDbSpline
 62
9
  6
CONTINUOUS
 70
0
 71
3
 72
27
 73
23
 74
0
 42
0.0000001
 43
0.0000001
 44
0.0000000001
 40
0.0
 40
0.0
 40
0.0
 40
0.0
 40
0.2265209506
 40
0.426487568
 40
0.5984878352
 40
0.6736058654
 40
0.7412681962
 40
0.801328527
 40
0.8536624498
 40
0.8981540233
 40
0.9346985975
 40
0.9499657615
 40
0.9632168316
 40
0.9744422948
 40
0.9836343806
 40
0.9907893579
 40
0.9936019424
 40
0.9959040635
 40
0.9976953255
 40
0.9989753328
 40
0.9997436896
 40
1.0
 40
1.0
 40
1.0
 40
1.0
 10
11.240300221
 20
7.0250079995
 30
0.0
 10
11.2413315321
 20
7.0281160592
 30
0.0
 10
11.2433092262
 20
7.0339559722
 30
0.0
 10
11.2461798601
 20
7.0421180717
 30
0.0
 10
11.2483870645
 20
7.048192904
 30
0.0
 10
11.2499704954
 20
7.0524591667
 30
0.0
 10
11.2510019815
 20
7.0552041321
 30
0.0
 10
11.2519262543
 20
7.0576374995
 30
0.0
 10
11.2527384034
 20
7.0597551239
 30
0.0
 10
11.2534338533
 20
7.0615533957
 30
0.0
 10
11.253938898
 20
7.0628507677
 30
0.0
 10
11.2542814805
 20
7.0637267398
 30
0.0
 10
11.2544912122
 20
7.0642616465
 30
0.0
 10
11.2546691937
 20
7.0647146682
 30
0.0
 10
11.2548151248
 20
7.0650855957
 30
0.0
 10
11.2549166212
 20
7.0653433117
 30
0.0
 10
11.2549817206
 20
7.0655083087
 30
0.0
 10
11.2550183043
 20
7.0656012034
 30
0.0
 10
11.2550469938
 20
7.0656733842
 30
0.0
 10
11.2550670294
 20
7.0657251683
 30
0.0
 10
11.255079915
 20
7.0657558706
 30
0.0
 10
11.2550847062
 20
7.0657699364
 30
0.0
 10
11.2550863404
 20
7.0657732619
 30
0.0
  0
SPLINE
  5
379
100
AcDbEntity
  8
0
100
AcDbSpline
 62
9
  6
CONTINUOUS
 70
0
 71
3
 72
16
 73
12
 74
0
 42
0.0000001
 43
0.0000001
 44
0.0000000001
 40
0.0
 40
0.0
 40
0.0
 40
0.0
 40
0.0624555841
 40
0.1244089815
 40
0.2474193713
 40
0.3701172336
 40
0.493221578
 40
0.6172551719
 40
0.7426762407
 40
0.8700120746
 40
1.0
 40
1.0
 40
1.0
 40
1.0
 10
11.240300221
 20
6.8605693635
 30
0.0
 10
11.239151129
 20
6.863853139
 30
0.0
 10
11.2370344828
 20
6.8704560088
 30
0.0
 10
11.233486144
 20
6.8837781683
 30
0.0
 10
11.2302338595
 20
6.9006294319
 30
0.0
 10
11.2279992508
 20
6.921071398
 30
0.0
 10
11.2272764589
 20
6.9416777459
 30
0.0
 10
11.2280100761
 20
6.9624346812
 30
0.0
 10
11.230253989
 20
6.9833227207
 30
0.0
 10
11.2341686106
 20
7.0043030135
 30
0.0
 10
11.2380198403
 20
7.0181356186
 30
0.0
 10
11.240300221
 20
7.0250079995
 30
0.0
  0
SPLINE
  5
37A
100
AcDbEntity
  8
0
100
AcDbSpline
 62
9
  6
CONTINUOUS
 70
0
 71
3
 72
21
 73
17
 74
0
 42
0.0000001
 43
0.0000001
 44
0.0000000001
 40
0.0
 40
0.0
 40
0.0
 40
0.0
 40
0.1507329454
 40
0.2990999797
 40
0.3715516998
 40
0.4423922514
 40
0.5112889715
 40
0.5779225815
 40
0.6419958453
 40
0.7032380687
 40
0.7614089608
 40
0.816300637
 40
0.8677370257
 40
0.9155718667
 40
0.9596928396
 40
1.0
 40
1.0
 40
1.0
 40
1.0
 10
11.240300221
 20
6.605102197
 30
0.0
 10
11.2424753942
 20
6.6178742134
 30
0.0
 10
11.2465033827
 20
6.6432684618
 30
0.0
 10
11.250496789
 20
6.6749620005
 30
0.0
 10
11.2528404521
 20
6.6999230817
 30
0.0
 10
11.2541191085
 20
6.7181183223
 30
0.0
 10
11.2549030005
 20
6.7358413318
 30
0.0
 10
11.2551730182
 20
6.752998214
 30
0.0
 10
11.2549231979
 20
6.7694977123
 30
0.0
 10
11.2541598568
 20
6.7852535229
 30
0.0
 10
11.252901366
 20
6.8001859645
 30
0.0
 10
11.2511769979
 20
6.8142232714
 30
0.0
 10
11.2490254616
 20
6.8273021248
 30
0.0
 10
11.246493421
 20
6.8393686393
 30
0.0
 10
11.2436330348
 20
6.8503757145
 30
0.0
 10
11.2414445403
 20
6.8572992898
 30
0.0
 10
11.240300221
 20
6.8605693635
 30
0.0
  0
SPLINE
  5
37B
100
AcDbEntity
  8
0
100
AcDbSpline
 62
9
  6
CONTINUOUS
 70
0
 71
3
 72
15
 73
11
 74
0
 42
0.0000001
 43
0.0000001
 44
0.0000000001
 40
0.0
 40
0.0
 40
0.0
 40
0.0
 40
0.1249929358
 40
0.2499914319
 40
0.374994557
 40
0.5000000063
 40
0.6250054548
 40
0.7500085796
 40
0.8750070732
 40
1.0
 40
1.0
 40
1.0
 40
1.0
 10
11.240300221
 20
6.2762249251
 30
0.0
 10
11.237990161
 20
6.2897882157
 30
0.0
 10
11.2341208646
 20
6.3170471709
 30
0.0
 10
11.2302318314
 20
6.3581528178
 30
0.0
 10
11.2280025504
 20
6.3993816971
 30
0.0
 10
11.2272771147
 20
6.4406635632
 30
0.0
 10
11.228002574
 20
6.4819454284
 30
0.0
 10
11.2302318296
 20
6.5231743082
 30
0.0
 10
11.2341208455
 20
6.5642799563
 30
0.0
 10
11.2379901646
 20
6.5915389068
 30
0.0
 10
11.240300221
 20
6.605102197
 30
0.0
  0
SPLINE
  5
37C
100
AcDbEntity
  8
0
100
AcDbSpline
 62
9
  6
CONTINUOUS
 70
0
 71
3
 72
20
 73
16
 74
0
 42
0.0000001
 43
0.0000001
 44
0.0000000001
 40
0.0
 40
0.0
 40
0.0
 40
0.0
 40
0.0403098038
 40
0.0844305662
 40
0.1322635666
 40
0.1837008867
 40
0.2385940167
 40
0.2967651135
 40
0.3580071905
 40
0.422081336
 40
0.4887158133
 40
0.5576127677
 40
0.7008968105
 40
0.8492652516
 40
1.0
 40
1.0
 40
1.0
 40
1.0
 10
11.240300221
 20
6.0207577586
 30
0.0
 10
11.2414444931
 20
6.0240280525
 30
0.0
 10
11.2436321619
 20
6.0309520306
 30
0.0
 10
11.246492921
 20
6.0419589095
 30
0.0
 10
11.2490258299
 20
6.0540250305
 30
0.0
 10
11.2511769968
 20
6.0671038697
 30
0.0
 10
11.2529009848
 20
6.0811412961
 30
0.0
 10
11.2541596906
 20
6.0960736916
 30
0.0
 10
11.2549233708
 20
6.1118294141
 30
0.0
 10
11.2551730006
 20
6.1283288785
 30
0.0
 10
11.2549028776
 20
6.145485799
 30
0.0
 10
11.2538440382
 20
6.1694298303
 30
0.0
 10
11.2512570344
 20
6.2003246053
 30
0.0
 10
11.2465043127
 20
6.2380582891
 30
0.0
 10
11.2424755308
 20
6.2634529075
 30
0.0
 10
11.240300221
 20
6.2762249251
 30
0.0
  0
SPLINE
  5
37D
100
AcDbEntity
  8
0
100
AcDbSpline
 62
9
  6
CONTINUOUS
 70
0
 71
3
 72
16
 73
12
 74
0
 42
0.0000001
 43
0.0000001
 44
0.0000000001
 40
0.0
 40
0.0
 40
0.0
 40
0.0
 40
0.1299880395
 40
0.2573240019
 40
0.3827452002
 40
0.50677808
 40
0.6298817893
 40
0.7525796879
 40
0.8755904127
 40
0.9375442572
 40
1.0
 40
1.0
 40
1.0
 40
1.0
 10
11.240300221
 20
5.8563191227
 30
0.0
 10
11.2380198551
 20
5.8631915141
 30
0.0
 10
11.2341685864
 20
5.8770241194
 30
0.0
 10
11.2302539726
 20
5.8980044328
 30
0.0
 10
11.2280100258
 20
5.9188924406
 30
0.0
 10
11.2272764883
 20
5.9396493108
 30
0.0
 10
11.2279993631
 20
5.9602555772
 30
0.0
 10
11.230233946
 20
5.9806975292
 30
0.0
 10
11.2334862541
 20
5.997548829
 30
0.0
 10
11.2370344716
 20
6.010871072
 30
0.0
 10
11.2391511049
 20
6.0174739826
 30
0.0
 10
11.240300221
 20
6.0207577586
 30
0.0
  0
SPLINE
  5
37E
100
AcDbEntity
  8
0
100
AcDbSpline
 62
9
  6
CONTINUOUS
 70
0
 71
3
 72
26
 73
22
 74
0
 42
0.0000001
 43
0.0000001
 44
0.0000000001
 40
0.0
 40
0.0
 40
0.0
 40
0.0
 40
0.0002573575
 40
0.0010274748
 40
0.0023097754
 40
0.0041036827
 40
0.0092240119
 40
0.016383853
 40
0.0255785981
 40
0.0368032924
 40
0.0500506404
 40
0.0653123903
 40
0.1018461152
 40
0.1463337833
 40
0.1986697179
 40
0.2587330134
 40
0.3263958412
 40
0.4015128471
 40
0.5735120592
 40
0.7734790526
 40
1.0
 40
1.0
 40
1.0
 40
1.0
 10
11.2550863404
 20
5.8155538603
 30
0.0
 10
11.2550847825
 20
5.8155572388
 30
0.0
 10
11.2550797625
 20
5.8155712416
 30
0.0
 10
11.2550670343
 20
5.8156021011
 30
0.0
 10
11.2550468254
 20
5.8156539119
 30
0.0
 10
11.255003116
 20
5.8157640437
 30
0.0
 10
11.2549285189
 20
5.8159533408
 30
0.0
 10
11.2548146285
 20
5.8162421457
 30
0.0
 10
11.2546686601
 20
5.8166131645
 30
0.0
 10
11.2544906875
 20
5.817066161
 30
0.0
 10
11.2542810543
 20
5.8176009525
 30
0.0
 10
11.2539386617
 20
5.8184766887
 30
0.0
 10
11.253433839
 20
5.8197738342
 30
0.0
 10
11.2527384819
 20
5.8215719443
 30
0.0
 10
11.2519262944
 20
5.8236895706
 30
0.0
 10
11.2510019533
 20
5.8261229968
 30
0.0
 10
11.2499704544
 20
5.8288679952
 30
0.0
 10
11.2483870536
 20
5.8331342447
 30
0.0
 10
11.2461798642
 20
5.8392090562
 30
0.0
 10
11.2433092257
 20
5.8473711439
 30
0.0
 10
11.2413315328
 20
5.8532110632
 30
0.0
 10
11.240300221
 20
5.8563191227
 30
0.0
  0
LINE
  5
37F
100
AcDbEntity
  8
0
100
AcDbLine
 62
9
  6
CONTINUOUS
 10
11.4919792085
 20
5.8227483122
 11
11.4894516843
 21
5.815927841
  0
SPLINE
  5
380
100
AcDbEntity
  8
0
100
AcDbSpline
 62
9
  6
CONTINUOUS
 70
0
 71
3
 72
15
 73
11
 74
0
 42
0.0000001
 43
0.0000001
 44
0.0000000001
 40
0.0
 40
0.0
 40
0.0
 40
0.0
 40
0.1404434867
 40
0.2777535936
 40
0.411224872
 40
0.5402265971
 40
0.6641413348
 40
0.7824016463
 40
0.8945121463
 40
1.0
 40
1.0
 40
1.0
 40
1.0
 10
11.4770297538
 20
6.2037062814
 30
0.0
 10
11.4763907656
 20
6.1968182328
 30
0.0
 10
11.4752528139
 20
6.1831836929
 30
0.0
 10
11.4739888947
 20
6.1629664784
 30
0.0
 10
11.473214091
 20
6.1432882463
 30
0.0
 10
11.4729467951
 20
6.1242561591
 30
0.0
 10
11.4731933969
 20
6.1059728162
 30
0.0
 10
11.473947413
 20
6.0885357492
 30
0.0
 10
11.4751906598
 20
6.0720367773
 30
0.0
 10
11.4763629011
 20
6.0613804054
 30
0.0
 10
11.4770297538
 20
6.0562275118
 30
0.0
  0
SPLINE
  5
381
100
AcDbEntity
  8
0
100
AcDbSpline
 62
9
  6
CONTINUOUS
 70
0
 71
3
 72
13
 73
9
 74
0
 42
0.0000001
 43
0.0000001
 44
0.0000000001
 40
0.0
 40
0.0
 40
0.0
 40
0.0
 40
0.2563925617
 40
0.5114227965
 40
0.6370552231
 40
0.7605472635
 40
0.8816440218
 40
1.0
 40
1.0
 40
1.0
 40
1.0
 10
10.8290742957
 20
4.7059690761
 30
0.0
 10
10.8289484156
 20
4.7040474166
 30
0.0
 10
10.8282105553
 20
4.7002309932
 30
0.0
 10
10.8261535566
 20
4.6958521905
 30
0.0
 10
10.823912365
 20
4.692788364
 30
0.0
 10
10.8219823797
 20
4.6907741166
 30
0.0
 10
10.8198370874
 20
4.6890784729
 30
0.0
 10
10.818274761
 20
4.6881720355
 30
0.0
 10
10.8174741082
 20
4.6877857234
 30
0.0
  0
SPLINE
  5
382
100
AcDbEntity
  8
0
100
AcDbSpline
 62
9
  6
CONTINUOUS
 70
0
 71
3
 72
11
 73
7
 74
0
 42
0.0000001
 43
0.0000001
 44
0.0000000001
 40
0.0
 40
0.0
 40
0.0
 40
0.0
 40
0.2235708413
 40
0.4645737393
 40
0.7234222469
 40
1.0
 40
1.0
 40
1.0
 40
1.0
 10
11.4876249231
 20
6.8707895116
 30
0.0
 10
11.4863517106
 20
6.8675259902
 30
0.0
 10
11.4840217361
 20
6.8606194402
 30
0.0
 10
11.4811799694
 20
6.8496389978
 30
0.0
 10
11.4788209019
 20
6.837698476
 30
0.0
 10
11.4775859549
 20
6.8293974153
 30
0.0
 10
11.4770297538
 20
6.8250996103
 30
0.0
  0
SPLINE
  5
383
100
AcDbEntity
  8
0
100
AcDbSpline
 62
9
  6
CONTINUOUS
 70
0
 71
3
 72
21
 73
17
 74
0
 42
0.0000001
 43
0.0000001
 44
0.0000000001
 40
0.0
 40
0.0
 40
0.0
 40
0.0
 40
0.1503202208
 40
0.2981068714
 40
0.37025594
 40
0.4408155115
 40
0.5094761923
 40
0.5759406269
 40
0.6399287542
 40
0.7011824031
 40
0.7594680812
 40
0.8145784197
 40
0.8663317797
 40
0.9145707754
 40
0.9591667287
 40
1.0
 40
1.0
 40
1.0
 40
1.0
 10
11.2575091485
 20
6.6023216364
 30
0.0
 10
11.2595341416
 20
6.6157194743
 30
0.0
 10
11.2632811701
 20
6.6423313113
 30
0.0
 10
11.2669891223
 20
6.6755068085
 30
0.0
 10
11.2691609813
 20
6.70160371
 30
0.0
 10
11.2703446832
 20
6.7206214867
 30
0.0
 10
11.2710698252
 20
6.7391497088
 30
0.0
 10
11.2713192718
 20
6.7570982958
 30
0.0
 10
11.2710878864
 20
6.7743796329
 30
0.0
 10
11.2703813359
 20
6.7909104181
 30
0.0
 10
11.2692159654
 20
6.8066130713
 30
0.0
 10
11.2676178894
 20
6.821416754
 30
0.0
 10
11.2656218506
 20
6.8352578166
 30
0.0
 10
11.263270035
 20
6.8480807397
 30
0.0
 10
11.2606099154
 20
6.859835913
 30
0.0
 10
11.258574248
 20
6.8672662349
 30
0.0
 10
11.2575091485
 20
6.8707895116
 30
0.0
  0
SPLINE
  5
384
100
AcDbEntity
  8
0
100
AcDbSpline
 62
9
  6
CONTINUOUS
 70
0
 71
3
 72
11
 73
7
 74
0
 42
0.0000001
 43
0.0000001
 44
0.0000000001
 40
0.0
 40
0.0
 40
0.0
 40
0.0
 40
0.2467095625
 40
0.496260144
 40
0.7476778353
 40
1.0
 40
1.0
 40
1.0
 40
1.0
 10
11.4770297538
 20
6.6776208408
 30
0.0
 10
11.4776076228
 20
6.6713918262
 30
0.0
 10
11.4789039497
 20
6.6588740435
 30
0.0
 10
11.4812826281
 20
6.6400634234
 30
0.0
 10
11.4841444151
 20
6.6211759921
 30
0.0
 10
11.4863999627
 20
6.608601357
 30
0.0
 10
11.4876249231
 20
6.6023216364
 30
0.0
  0
SPLINE
  5
385
100
AcDbEntity
  8
0
100
AcDbSpline
 62
9
  6
CONTINUOUS
 70
0
 71
3
 72
14
 73
10
 74
0
 42
0.0000001
 43
0.0000001
 44
0.0000000001
 40
0.0
 40
0.0
 40
0.0
 40
0.0
 40
0.1054893654
 40
0.2176013493
 40
0.335863447
 40
0.4597800433
 40
0.5887837068
 40
0.7222570496
 40
1.0
 40
1.0
 40
1.0
 40
1.0
 10
11.4770297538
 20
6.8250996103
 30
0.0
 10
11.4763629245
 20
6.819946718
 30
0.0
 10
11.4751908236
 20
6.8092903451
 30
0.0
 10
11.4739475667
 20
6.7927913936
 30
0.0
 10
11.4731934227
 20
6.7753543372
 30
0.0
 10
11.4729468036
 20
6.75707102
 30
0.0
 10
11.4732140261
 20
6.7380388367
 30
0.0
 10
11.4742610411
 20
6.7114488895
 30
0.0
 10
11.4757660636
 20
6.6912425295
 30
0.0
 10
11.4770297538
 20
6.6776208408
 30
0.0
  0
SPLINE
  5
386
100
AcDbEntity
  8
0
100
AcDbSpline
 62
9
  6
CONTINUOUS
 70
0
 71
3
 72
27
 73
23
 74
0
 42
0.0000001
 43
0.0000001
 44
0.0000000001
 40
0.0
 40
0.0
 40
0.0
 40
0.0
 40
0.227477361
 40
0.4278557763
 40
0.5998634594
 40
0.674877482
 40
0.7423877784
 40
0.8022659797
 40
0.8544038942
 40
0.8987004218
 40
0.9350652165
 40
0.9502517812
 40
0.9634302177
 40
0.9745923464
 40
0.9837315878
 40
0.9908447446
 40
0.9936406756
 40
0.9959290466
 40
0.9977095111
 40
0.9989817226
 40
0.9997453344
 40
1.0
 40
1.0
 40
1.0
 40
1.0
 10
11.2575091485
 20
7.032447587
 30
0.0
 10
11.2584690469
 20
7.0356228618
 30
0.0
 10
11.2603087463
 20
7.0415848595
 30
0.0
 10
11.2629789546
 20
7.0499150231
 30
0.0
 10
11.2650302763
 20
7.0561084716
 30
0.0
 10
11.2665003822
 20
7.0604531715
 30
0.0
 10
11.2674569884
 20
7.0632453979
 30
0.0
 10
11.2683136731
 20
7.0657192138
 30
0.0
 10
11.2690660609
 20
7.067870897
 30
0.0
 10
11.269710039
 20
7.0696972366
 30
0.0
 10
11.2701775656
 20
7.0710144298
 30
0.0
 10
11.2704946098
 20
7.0719035166
 30
0.0
 10
11.2706886527
 20
7.0724462784
 30
0.0
 10
11.2708532985
 20
7.0729058986
 30
0.0
 10
11.2709882816
 20
7.0732821933
 30
0.0
 10
11.2710821586
 20
7.0735436225
 30
0.0
 10
11.2711423683
 20
7.0737109904
 30
0.0
 10
11.2711762011
 20
7.073805208
 30
0.0
 10
11.2712027343
 20
7.0738784289
 30
0.0
 10
11.2712212585
 20
7.0739309221
 30
0.0
 10
11.2712331796
 20
7.0739621046
 30
0.0
 10
11.2712376034
 20
7.0739763204
 30
0.0
 10
11.2712391165
 20
7.0739797118
 30
0.0
  0
SPLINE
  5
387
100
AcDbEntity
  8
0
100
AcDbSpline
 62
9
  6
CONTINUOUS
 70
0
 71
3
 72
23
 73
19
 74
0
 42
0.0000001
 43
0.0000001
 44
0.0000000001
 40
0.0
 40
0.0
 40
0.0
 40
0.0
 40
0.0637807915
 40
0.1269816841
 40
0.1897343507
 40
0.2521438305
 40
0.3143027852
 40
0.3762904227
 40
0.4381714409
 40
0.4999999487
 40
0.5618284765
 40
0.623709537
 40
0.6856972333
 40
0.7478562792
 40
0.810265839
 40
0.8730184822
 40
0.9362192651
 40
1.0
 40
1.0
 40
1.0
 40
1.0
 10
11.2575091485
 20
5.8488795352
 30
0.0
 10
11.2564367784
 20
5.8521980231
 30
0.0
 10
11.2544641761
 20
5.8588584437
 30
0.0
 10
11.2519835547
 20
5.8689353347
 30
0.0
 10
11.2499555649
 20
5.8790362098
 30
0.0
 10
11.2483407104
 20
5.8891531779
 30
0.0
 10
11.2471170572
 20
5.8992825477
 30
0.0
 10
11.2462620938
 20
5.9094203664
 30
0.0
 10
11.2457511843
 20
5.9195630839
 30
0.0
 10
11.2455805185
 20
5.9297085501
 30
0.0
 10
11.2457512568
 20
5.9398540163
 30
0.0
 10
11.246262141
 20
5.9499967415
 30
0.0
 10
11.2471171553
 20
5.9601345676
 30
0.0
 10
11.2483409073
 20
5.9702639381
 30
0.0
 10
11.2499558028
 20
5.9803809063
 30
0.0
 10
11.2519836989
 20
5.9904817959
 30
0.0
 10
11.2544642024
 20
6.0005587056
 30
0.0
 10
11.2564367704
 20
6.0072191284
 30
0.0
 10
11.2575091485
 20
6.0105376105
 30
0.0
  0
SPLINE
  5
388
100
AcDbEntity
  8
0
100
AcDbSpline
 62
9
  6
CONTINUOUS
 70
0
 71
3
 72
20
 73
16
 74
0
 42
0.0000001
 43
0.0000001
 44
0.0000000001
 40
0.0
 40
0.0
 40
0.0
 40
0.0
 40
0.1232956111
 40
0.2456667163
 40
0.3065638767
 40
0.3673660351
 40
0.4282053194
 40
0.4892423401
 40
0.5506510466
 40
0.6125978081
 40
0.7385704656
 40
0.8027720306
 40
0.8677802099
 40
0.9335484614
 40
1.0
 40
1.0
 40
1.0
 40
1.0
 10
11.503515652
 20
7.0269021032
 30
0.0
 10
11.5060910416
 20
7.0204192341
 30
0.0
 10
11.510929368
 20
7.0073809256
 30
0.0
 10
11.5157632145
 20
6.9906979935
 30
0.0
 10
11.5186031267
 20
6.9771783211
 30
0.0
 10
11.5201687583
 20
6.9669643645
 30
0.0
 10
11.5211236317
 20
6.9566667968
 30
0.0
 10
11.5214460024
 20
6.9462954496
 30
0.0
 10
11.5211191623
 20
6.9358614442
 30
0.0
 10
11.5198342122
 20
6.9218067637
 30
0.0
 10
11.5173211615
 20
6.9077351086
 30
0.0
 10
11.5138272583
 20
6.8937247227
 30
0.0
 10
11.5107484216
 20
6.8831290073
 30
0.0
 10
11.5072943606
 20
6.8725170935
 30
0.0
 10
11.5048013442
 20
6.8654634083
 30
0.0
 10
11.503515652
 20
6.8619304532
 30
0.0
  0
SPLINE
  5
389
100
AcDbEntity
  8
0
100
AcDbSpline
 62
9
  6
CONTINUOUS
 70
0
 71
3
 72
20
 73
16
 74
0
 42
0.0000001
 43
0.0000001
 44
0.0000000001
 40
0.0
 40
0.0
 40
0.0
 40
0.0
 40
0.0664519823
 40
0.1322207656
 40
0.1972284795
 40
0.2614286636
 40
0.3873987028
 40
0.4493467975
 40
0.5107583879
 40
0.571798175
 40
0.6326387308
 40
0.6934397764
 40
0.7543346689
 40
0.8767030556
 40
1.0
 40
1.0
 40
1.0
 40
1.0
 10
11.503515652
 20
6.019396669
 30
0.0
 10
11.5048013915
 20
6.0158637041
 30
0.0
 10
11.5072943312
 20
6.0088099306
 30
0.0
 10
11.5107481658
 20
5.9981979146
 30
0.0
 10
11.5138270914
 20
5.9876023054
 30
0.0
 10
11.5173214465
 20
5.9735923022
 30
0.0
 10
11.5198352351
 20
5.9595209009
 30
0.0
 10
11.5211197312
 20
5.945466071
 30
0.0
 10
11.5214459653
 20
5.9350316498
 30
0.0
 10
11.5211230553
 20
5.9246599312
 30
0.0
 10
11.5201679577
 20
5.9143622259
 30
0.0
 10
11.5186025404
 20
5.9041483631
 30
0.0
 10
11.5157631746
 20
5.8906289282
 30
0.0
 10
11.5109295812
 20
5.8739461132
 30
0.0
 10
11.5060910071
 20
5.8609079833
 30
0.0
 10
11.503515652
 20
5.8544250189
 30
0.0
  0
SPLINE
  5
38A
100
AcDbEntity
  8
0
100
AcDbSpline
 62
9
  6
CONTINUOUS
 70
0
 71
3
 72
11
 73
7
 74
0
 42
0.0000001
 43
0.0000001
 44
0.0000000001
 40
0.0
 40
0.0
 40
0.0
 40
0.0
 40
0.2745052092
 40
0.532707466
 40
0.7744448653
 40
1.0
 40
1.0
 40
1.0
 40
1.0
 10
11.4937373426
 20
6.0639025104
 30
0.0
 10
11.4942510915
 20
6.0597567295
 30
0.0
 10
11.4953929467
 20
6.0517281318
 30
0.0
 10
11.4975699404
 20
6.0401404222
 30
0.0
 10
11.5001941996
 20
6.0294099749
 30
0.0
 10
11.5023417874
 20
6.0226222678
 30
0.0
 10
11.503515652
 20
6.019396669
 30
0.0
  0
SPLINE
  5
38B
100
AcDbEntity
  8
0
100
AcDbSpline
 62
9
  6
CONTINUOUS
 70
0
 71
3
 72
11
 73
7
 74
0
 42
0.0000001
 43
0.0000001
 44
0.0000000001
 40
0.0
 40
0.0
 40
0.0
 40
0.0
 40
0.2526658662
 40
0.504140587
 40
0.7535461313
 40
1.0
 40
1.0
 40
1.0
 40
1.0
 10
11.503515652
 20
6.275691911
 30
0.0
 10
11.5023837926
 20
6.2697326188
 30
0.0
 10
11.5003007404
 20
6.2578082465
 30
0.0
 10
11.4976590138
 20
6.2399097508
 30
0.0
 10
11.49546506
 20
6.2221013647
 30
0.0
 10
11.4942699462
 20
6.2102562049
 30
0.0
 10
11.4937373426
 20
6.2043635307
 30
0.0
  0
SPLINE
  5
38C
100
AcDbEntity
  8
0
100
AcDbSpline
 62
9
  6
CONTINUOUS
 70
0
 71
3
 72
15
 73
11
 74
0
 42
0.0000001
 43
0.0000001
 44
0.0000000001
 40
0.0
 40
0.0
 40
0.0
 40
0.0
 40
0.1249844084
 40
0.2499822696
 40
0.3749889126
 40
0.5000000103
 40
0.6250111078
 40
0.7500177472
 40
0.8750156129
 40
1.0
 40
1.0
 40
1.0
 40
1.0
 10
11.503515652
 20
6.6056352111
 30
0.0
 10
11.5060992554
 20
6.5920324472
 30
0.0
 10
11.510955703
 20
6.5647636804
 30
0.0
 10
11.5167353061
 20
6.5236131028
 30
0.0
 10
11.5204736301
 20
6.4822159333
 30
0.0
 10
11.5217700979
 20
6.4406635535
 30
0.0
 10
11.5204737369
 20
6.3991111695
 30
0.0
 10
11.5167354097
 20
6.3577139977
 30
0.0
 10
11.5109556979
 20
6.3165634374
 30
0.0
 10
11.5060992352
 20
6.2892946764
 30
0.0
 10
11.503515652
 20
6.275691911
 30
0.0
  0
SPLINE
  5
38D
100
AcDbEntity
  8
0
100
AcDbSpline
 62
9
  6
CONTINUOUS
 70
0
 71
3
 72
11
 73
7
 74
0
 42
0.0000001
 43
0.0000001
 44
0.0000000001
 40
0.0
 40
0.0
 40
0.0
 40
0.0
 40
0.2464538345
 40
0.49585945
 40
0.7473341777
 40
1.0
 40
1.0
 40
1.0
 40
1.0
 10
11.4937373426
 20
6.6769635914
 30
0.0
 10
11.4942699385
 20
6.6710709174
 30
0.0
 10
11.495465046
 20
6.659225756
 30
0.0
 10
11.4976590156
 20
6.6414173707
 30
0.0
 10
11.5003007633
 20
6.6235188774
 30
0.0
 10
11.502383809
 20
6.6115945053
 30
0.0
 10
11.503515652
 20
6.6056352111
 30
0.0
  0
SPLINE
  5
38E
100
AcDbEntity
  8
0
100
AcDbSpline
 62
9
  6
CONTINUOUS
 70
0
 71
3
 72
11
 73
7
 74
0
 42
0.0000001
 43
0.0000001
 44
0.0000000001
 40
0.0
 40
0.0
 40
0.0
 40
0.0
 40
0.2255551308
 40
0.4672925336
 40
0.7254947956
 40
1.0
 40
1.0
 40
1.0
 40
1.0
 10
11.503515652
 20
6.8619304532
 30
0.0
 10
11.5023417872
 20
6.8587048545
 30
0.0
 10
11.5001941992
 20
6.8519171474
 30
0.0
 10
11.4975699404
 20
6.8411867
 30
0.0
 10
11.495392947
 20
6.8295989902
 30
0.0
 10
11.4942510917
 20
6.8215703926
 30
0.0
 10
11.4937373426
 20
6.8174246118
 30
0.0
  0
SPLINE
  5
38F
100
AcDbEntity
  8
0
100
AcDbSpline
 62
9
  6
CONTINUOUS
 70
0
 71
3
 72
25
 73
21
 74
0
 42
0.0000001
 43
0.0000001
 44
0.0000000001
 40
0.0
 40
0.0
 40
0.0
 40
0.0
 40
0.0643875521
 40
0.1282680596
 40
0.1915643318
 40
0.2542466554
 40
0.3163277451
 40
0.3471662229
 40
0.3778874779
 40
0.4390493733
 40
0.5000004189
 40
0.5609514682
 40
0.6221135329
 40
0.6528348373
 40
0.6836732493
 40
0.7457540536
 40
0.8084362006
 40
0.8717323695
 40
0.93561269
 40
1.0
 40
1.0
 40
1.0
 40
1.0
 10
11.4876249231
 20
6.0105376105
 30
0.0
 10
11.4890072799
 20
6.0072229316
 30
0.0
 10
11.4916921184
 20
6.0005904438
 30
0.0
 10
11.4954197554
 20
5.9905748895
 30
0.0
 10
11.4987548405
 20
5.9805208569
 30
0.0
 10
11.5016170759
 20
5.970425468
 30
0.0
 10
11.5035563339
 20
5.9619608909
 30
0.0
 10
11.5048007777
 20
5.9551767221
 30
0.0
 10
11.5058262407
 20
5.9484079054
 30
0.0
 10
11.5066971908
 20
5.939921181
 30
0.0
 10
11.5070550028
 20
5.9297085418
 30
0.0
 10
11.5066969838
 20
5.9194958937
 30
0.0
 10
11.5058257137
 20
5.9110091966
 30
0.0
 10
11.5048004052
 20
5.9042403502
 30
0.0
 10
11.5035560963
 20
5.8974561724
 30
0.0
 10
11.5016168669
 20
5.8889916175
 30
0.0
 10
11.4987546989
 20
5.8788962434
 30
0.0
 10
11.4954196776
 20
5.8688422159
 30
0.0
 10
11.4916920206
 20
5.8588267005
 30
0.0
 10
11.4890072273
 20
5.8521942214
 30
0.0
 10
11.4876249231
 20
5.8488795352
 30
0.0
  0
SPLINE
  5
390
100
AcDbEntity
  8
0
100
AcDbSpline
 62
9
  6
CONTINUOUS
 70
0
 71
3
 72
23
 73
19
 74
0
 42
0.0000001
 43
0.0000001
 44
0.0000000001
 40
0.0
 40
0.0
 40
0.0
 40
0.0
 40
0.0624935415
 40
0.1249970806
 40
0.1875036402
 40
0.2500041158
 40
0.3125023295
 40
0.3750013608
 40
0.4375007714
 40
0.5000000059
 40
0.562499241
 40
0.6249986521
 40
0.6874976819
 40
0.7499958903
 40
0.8124963589
 40
0.8750029151
 40
0.9375064558
 40
1.0
 40
1.0
 40
1.0
 40
1.0
 10
11.2575091485
 20
6.2790054857
 30
0.0
 10
11.2564308687
 20
6.2856790261
 30
0.0
 10
11.2544517352
 20
6.2990564431
 30
0.0
 10
11.2519756818
 20
6.3191892571
 30
0.0
 10
11.2499508746
 20
6.3393730219
 30
0.0
 10
11.2483380726
 20
6.3595930479
 30
0.0
 10
11.2471158103
 20
6.3798395061
 30
0.0
 10
11.2462616713
 20
6.4001045504
 30
0.0
 10
11.2457511603
 20
6.4203811866
 30
0.0
 10
11.2455806143
 20
6.4406635635
 30
0.0
 10
11.2457511932
 20
6.4609459401
 30
0.0
 10
11.2462617206
 20
6.4812225757
 30
0.0
 10
11.2471158332
 20
6.5014876202
 30
0.0
 10
11.2483380535
 20
6.5217340795
 30
0.0
 10
11.2499508244
 20
6.5419541065
 30
0.0
 10
11.2519756424
 20
6.5621378694
 30
0.0
 10
11.2544517248
 20
6.58227068
 30
0.0
 10
11.2564308697
 20
6.5956480956
 30
0.0
 10
11.2575091485
 20
6.6023216364
 30
0.0
  0
SPLINE
  5
391
100
AcDbEntity
  8
0
100
AcDbSpline
 62
9
  6
CONTINUOUS
 70
0
 71
3
 72
23
 73
19
 74
0
 42
0.0000001
 43
0.0000001
 44
0.0000000001
 40
0.0
 40
0.0
 40
0.0
 40
0.0
 40
0.1249876978
 40
0.1874853884
 40
0.249988914
 40
0.3124905032
 40
0.3437412262
 40
0.3749931631
 40
0.4374973209
 40
0.5000002295
 40
0.5625030935
 40
0.6250072335
 40
0.6562591987
 40
0.6875098965
 40
0.7500113206
 40
0.8125147597
 40
0.8750124293
 40
1.0
 40
1.0
 40
1.0
 40
1.0
 10
11.4876249231
 20
6.6023216364
 30
0.0
 10
11.4903992018
 20
6.5890170882
 30
0.0
 10
11.494325095
 20
6.5690074745
 30
0.0
 10
11.4987703506
 20
6.5421885192
 30
0.0
 10
11.501629588
 20
6.5219994729
 30
0.0
 10
11.5035612012
 20
6.5051163982
 30
0.0
 10
11.5048022722
 20
6.4915801543
 30
0.0
 10
11.5058286626
 20
6.4780256717
 30
0.0
 10
11.506698144
 20
6.4610535452
 30
0.0
 10
11.5070548527
 20
6.4406634933
 30
0.0
 10
11.5066983209
 20
6.420273437
 30
0.0
 10
11.5058287431
 20
6.403301319
 30
0.0
 10
11.5048024124
 20
6.3897468339
 30
0.0
 10
11.5035613021
 20
6.3762106105
 30
0.0
 10
11.5016294752
 20
6.3593275896
 30
0.0
 10
11.4987700481
 20
6.339138602
 30
0.0
 10
11.4943248903
 20
6.3123196584
 30
0.0
 10
11.490399171
 20
6.2923100263
 30
0.0
 10
11.4876249231
 20
6.2790054857
 30
0.0
  0
SPLINE
  5
392
100
AcDbEntity
  8
0
100
AcDbSpline
 62
9
  6
CONTINUOUS
 70
0
 71
3
 72
23
 73
19
 74
0
 42
0.0000001
 43
0.0000001
 44
0.0000000001
 40
0.0
 40
0.0
 40
0.0
 40
0.0
 40
0.0637807294
 40
0.1269815783
 40
0.1897343146
 40
0.2521439609
 40
0.3143030444
 40
0.3762907094
 40
0.4381716785
 40
0.5000001148
 40
0.5618285751
 40
0.6237095872
 40
0.6856972568
 40
0.7478562927
 40
0.8102658536
 40
0.8730184959
 40
0.9362192704
 40
1.0
 40
1.0
 40
1.0
 40
1.0
 10
11.2575091485
 20
6.8707895116
 30
0.0
 10
11.2564367847
 20
6.8741079981
 30
0.0
 10
11.2544642145
 20
6.8807684229
 30
0.0
 10
11.2519836439
 20
6.8908453245
 30
0.0
 10
11.2499556537
 20
6.9009462089
 30
0.0
 10
11.2483406592
 20
6.9110631737
 30
0.0
 10
11.2471168348
 20
6.9211925414
 30
0.0
 10
11.2462618096
 20
6.9313303633
 30
0.0
 10
11.2457510272
 20
6.9414730833
 30
0.0
 10
11.2455804557
 20
6.9516185406
 30
0.0
 10
11.2457512844
 20
6.9617639952
 30
0.0
 10
11.2462622171
 20
6.9719067099
 30
0.0
 10
11.2471172466
 20
6.9820445301
 30
0.0
 10
11.2483409912
 20
6.9921738996
 30
0.0
 10
11.2499558549
 20
7.0022908723
 30
0.0
 10
11.2519837149
 20
7.0123917692
 30
0.0
 10
11.2544642048
 20
7.022468682
 30
0.0
 10
11.2564367703
 20
7.0291291051
 30
0.0
 10
11.2575091485
 20
7.032447587
 30
0.0
  0
SPLINE
  5
393
100
AcDbEntity
  8
0
100
AcDbSpline
 62
9
  6
CONTINUOUS
 70
0
 71
3
 72
25
 73
21
 74
0
 42
0.0000001
 43
0.0000001
 44
0.0000000001
 40
0.0
 40
0.0
 40
0.0
 40
0.0
 40
0.064387548
 40
0.1282680531
 40
0.1915643244
 40
0.2542466488
 40
0.3163277418
 40
0.3471662225
 40
0.3778874811
 40
0.439049383
 40
0.50000043
 40
0.5609514764
 40
0.6221135458
 40
0.652834853
 40
0.683673265
 40
0.7457540652
 40
0.8084362102
 40
0.8717323791
 40
0.9356126968
 40
1.0
 40
1.0
 40
1.0
 40
1.0
 10
11.4876249231
 20
7.032447587
 30
0.0
 10
11.4890072801
 20
7.029132908
 30
0.0
 10
11.4916921193
 20
7.0225004199
 30
0.0
 10
11.4954197583
 20
7.0124848656
 30
0.0
 10
11.4987548472
 20
7.002430833
 30
0.0
 10
11.5016170885
 20
6.9923354444
 30
0.0
 10
11.5035563534
 20
6.9838708675
 30
0.0
 10
11.5048008044
 20
6.9770866987
 30
0.0
 10
11.5058262758
 20
6.9703178817
 30
0.0
 10
11.5066972352
 20
6.9618311567
 30
0.0
 10
11.5070550588
 20
6.9516185162
 30
0.0
 10
11.5066970336
 20
6.9414058664
 30
0.0
 10
11.5058257472
 20
6.9329191699
 30
0.0
 10
11.504800435
 20
6.9261503229
 30
0.0
 10
11.5035561223
 20
6.919366145
 30
0.0
 10
11.5016168842
 20
6.9109015913
 30
0.0
 10
11.4987547076
 20
6.9008062189
 30
0.0
 10
11.4954196812
 20
6.890752192
 30
0.0
 10
11.4916920203
 20
6.8807366774
 30
0.0
 10
11.4890072267
 20
6.8741041981
 30
0.0
 10
11.4876249231
 20
6.8707895116
 30
0.0
  0
SPLINE
  5
394
100
AcDbEntity
  8
0
100
AcDbSpline
 62
9
  6
CONTINUOUS
 70
0
 71
3
 72
13
 73
9
 74
0
 42
0.0000001
 43
0.0000001
 44
0.0000000001
 40
0.0
 40
0.0
 40
0.0
 40
0.0
 40
0.0792681111
 40
0.171763057
 40
0.2775025621
 40
0.3964134718
 40
0.6731259797
 40
1.0
 40
1.0
 40
1.0
 40
1.0
 10
9.1947678843
 20
4.6890303075
 30
0.0
 10
9.1949492548
 20
4.6890303071
 30
0.0
 10
9.1953422699
 20
4.6890138607
 30
0.0
 10
9.1959744342
 20
4.6889525037
 30
0.0
 10
9.1966933252
 20
4.6888524247
 30
0.0
 10
9.1978239107
 20
4.6886572975
 30
0.0
 10
9.1994409554
 20
4.6883110134
 30
0.0
 10
9.2007808817
 20
4.6879757965
 30
0.0
 10
9.2015042347
 20
4.6877857234
 30
0.0
  0
SPLINE
  5
395
100
AcDbEntity
  8
0
100
AcDbSpline
 62
9
  6
CONTINUOUS
 70
0
 71
3
 72
15
 73
11
 74
0
 42
0.0000001
 43
0.0000001
 44
0.0000000001
 40
0.0
 40
0.0
 40
0.0
 40
0.0
 40
0.1266959089
 40
0.2521264744
 40
0.3766975148
 40
0.5007912725
 40
0.6247777703
 40
0.7490341068
 40
0.8739627102
 40
1.0
 40
1.0
 40
1.0
 40
1.0
 10
9.2015042347
 20
4.6877857234
 30
0.0
 10
9.2130032618
 20
4.6847641539
 30
0.0
 10
9.2360922228
 20
4.6795053178
 30
0.0
 10
9.2710205232
 20
4.6739122404
 30
0.0
 10
9.3059925845
 20
4.6705873469
 30
0.0
 10
9.3409685863
 20
4.6694837972
 30
0.0
 10
9.3759151601
 20
4.6705854713
 30
0.0
 10
9.4108004548
 20
4.6739088776
 30
0.0
 10
9.4455889314
 20
4.6795011667
 30
0.0
 10
9.4685658545
 20
4.6847626825
 30
0.0
 10
9.4800005769
 20
4.6877857234
 30
0.0
  0
SPLINE
  5
396
100
AcDbEntity
  8
0
100
AcDbSpline
 62
9
  6
CONTINUOUS
 70
0
 71
3
 72
11
 73
7
 74
0
 42
0.0000001
 43
0.0000001
 44
0.0000000001
 40
0.0
 40
0.0
 40
0.0
 40
0.0
 40
0.2153190323
 40
0.4540964497
 40
0.7159652049
 40
1.0
 40
1.0
 40
1.0
 40
1.0
 10
9.4800005769
 20
4.6877857234
 30
0.0
 10
9.4808170834
 20
4.688001585
 30
0.0
 10
9.4825613657
 20
4.6883739988
 30
0.0
 10
9.4853455653
 20
4.6887553099
 30
0.0
 10
9.4884165554
 20
4.6889836056
 30
0.0
 10
9.4905582396
 20
4.6890303064
 30
0.0
 10
9.491672326
 20
4.6890303075
 30
0.0
  0
ENDSEC
  0
SECTION
  2
OBJECTS
  0
DICTIONARY
  5
C
100
AcDbDictionary
280
0
281
1
  3
ACAD_GROUP
350
D
  3
ACAD_MLINESTYLE
350
17
  3
ACAD_LAYOUT
350
1A
  3
ACAD_PLOTSETTINGS
350
19
  3
ACAD_PLOTSTYLENAME
350
E
  0
DICTIONARY
  5
D
102
{ACAD_REACTORS
330
C
102
}
100
AcDbDictionary
280
0
281
1
  0
ACDBDICTIONARYWDFLT
  5
E
102
{ACAD_REACTORS
330
C
102
}
100
AcDbDictionary
281
1
  3
Normal
350
F
100
AcDbDictionaryWithDefault
340
F
  0
DICTIONARY
  5
17
102
{ACAD_REACTORS
330
C
102
}
100
AcDbDictionary
280
0
281
1
  3
Standard
350
18
  0
DICTIONARY
  5
19
102
{ACAD_REACTORS
330
C
102
}
100
AcDbDictionary
281
1
  0
DICTIONARY
  5
1A
102
{ACAD_REACTORS
330
C
102
}
100
AcDbDictionary
281
1
  3
Model
350
397
  3
Layout1
350
398
  0
ACDBPLACEHOLDER
  5
F
102
{ACAD_REACTORS
330
E
102
}
  0
MLINESTYLE
  5
18
102
{ACAD_REACTORS
330
17
102
}
100
AcDbMlineStyle
  2
STANDARD
 70
0
  3

 62
256
 51
90.0
 52
90.0
 71
2
 49
0.5
 62
256
  6
BYLAYER
 49
-0.5
 62
256
  6
BYLAYER
  0
LAYOUT
  5
397
102
{ACAD_REACTORS
330
1A
102
}
100
AcDbPlotSettings
  1

  2
none_device
  4
ANSI_C_(22.00_x_17.00_Inches)
  6

 40
0.0
 41
0.0
 42
0.0
 43
0.0
 44
558.8
 45
431.8
 46
0.0
 47
0.0
 48
0.0
 49
0.0
140
0.0
141
0.0
142
1.0
143
1.0
 70
1024
 72
0
 73
0
 74
0
  7

 75
0
147
1.0
148
0.0
149
0.0
100
AcDbLayout
  1
Model
 70
0
 71
0
 10
0.0
 20
0.0
 11
22.0
 21
17.0
 12
0.0
 22
0.0
 32
0.0
 14
0.0
 24
0.0
 34
0.0
 15
0.0
 25
0.0
 35
0.0
146
0.0
 13
0.0
 23
0.0
 33
0.0
 16
1.0
 26
0.0
 36
0.0
 17
0.0
 27
1.0
 37
0.0
 76
0
330
205
345
0
346
0
  0
LAYOUT
  5
398
102
{ACAD_REACTORS
330
1A
102
}
100
AcDbPlotSettings
  1

  2
none_device
  4
ANSI_C_(22.00_x_17.00_Inches)
  6

 40
0.0
 41
0.0
 42
0.0
 43
0.0
 44
558.8
 45
431.8
 46
0.0
 47
0.0
 48
0.0
 49
0.0
140
0.0
141
0.0
142
1.0
143
1.0
 70
0
 72
0
 73
0
 74
0
  7

 75
0
147
1.0
148
0.0
149
0.0
100
AcDbLayout
  1
Layout1
 70
0
 71
1
 10
0.0
 20
0.0
 11
22.0
 21
17.0
 12
0.0
 22
0.0
 32
0.0
 14
0.0
 24
0.0
 34
0.0
 15
0.0
 25
0.0
 35
0.0
146
0.0
 13
0.0
 23
0.0
 33
0.0
 16
1.0
 26
0.0
 36
0.0
 17
0.0
 27
1.0
 37
0.0
 76
0
330
206
345
0
346
0
  0
ENDSEC
  0
EOF
