999
DXF file: 3190-5711_front.dxf
999
Pro/ENGINEER 2018400 by Parametric Technology Corporation
  0
SECTION
  2
HEADER
  9
$ACADVER
  1
AC1027
  9
$DWGCODEPAGE
  3
ANSI_1252
  9
$EXTMAX
 10
11.0
 20
8.5
 30
0.0
  9
$EXTMIN
 10
0.0
 20
0.0
 30
0.0
  9
$LIMMIN
 10
0.0
 20
0.0
  9
$LIMMAX
 10
11.0
 20
8.5
  9
$VIEWCTR
 10
5.5
 20
4.25
  9
$VIEWSIZE
 40
8.5
  9
$CLAYER
  8
0
  9
$LTSCALE
 40
0.605
  9
$CELTYPE
  6
BYLAYER
  9
$DIMSCALE
 40
1.0
  9
$DIMASZ
 40
0.1
  9
$DIMEXO
 40
0.0625
  9
$DIMDLI
 40
0.418
  9
$DIMEXE
 40
0.125
  9
$DIMCEN
 40
0.099
  9
$DIMLFAC
 40
1.0
  9
$DIMBLK
  1
_FILLED
  9
$DIMALT
 70
1
  9
$DIMALTD
 70
1
  9
$DIMALTTD
 70
2
  9
$DIMALTF
 40
25.4
  9
$DIMTXT
 40
0.08
  9
$DIMTOL
 70
1
  9
$DIMLIM
 70
0
  9
$DIMTFAC
 40
1.0
  9
$DIMTP
 40
0.01
  9
$DIMTM
 40
0.01
  9
$DIMGAP
 40
0.09
  9
$DIMDSEP
 70
46
  9
$AUNITS
 70
0
  9
$PDMODE
 70
3
  9
$PDSIZE
 40
0.3125
  9
$HANDSEED
  5
426
  9
$TILEMODE
 70
1
  9
$MEASUREMENT
 70
0
  9
$INSUNITS
 70
1
  0
ENDSEC
  0
SECTION
  2
CLASSES
  0
CLASS
  1
ACDBDICTIONARYWDFLT
  2
AcDbDictionaryWithDefault
  3
AutoCAD 2000
 90
0
 91
1
280
0
281
0
  0
CLASS
  1
ACDBPLACEHOLDER
  2
AcDbPlaceHolder
  3
AutoCAD 2000
 90
0
 91
1
280
0
281
0
  0
CLASS
  1
LAYOUT
  2
AcDbLayout
  3
AutoCAD 2000
 90
0
 91
0
280
0
281
0
  0
ENDSEC
  0
SECTION
  2
TABLES
  0
TABLE
  2
VPORT
  5
8
100
AcDbSymbolTable
 70
2
  0
VPORT
  5
1F4
100
AcDbSymbolTableRecord
100
AcDbViewportTableRecord
  2
*ACTIVE
 70
0
 10
0.0
 20
0.0
 11
1.0
 21
1.0
 12
5.5
 22
4.25
 13
0.0
 23
0.0
 14
1.0
 24
1.0
 15
0.0
 25
0.0
 16
0.0
 26
0.0
 36
1.0
 17
0.0
 27
0.0
 37
0.0
 40
8.5
 41
1.2941176471
 42
50.0
 43
0.0
 44
0.0
 50
0.0
 51
0.0
 71
0
 72
100
 73
1
 74
1
 75
0
 76
0
 77
0
 78
0
  0
ENDTAB
  0
TABLE
  2
LTYPE
  5
5
100
AcDbSymbolTable
 70
6
  0
LTYPE
  5
14
100
AcDbSymbolTableRecord
100
AcDbLinetypeTableRecord
  2
BYBLOCK
 70
0
  3

 72
65
 73
0
 40
0.0
  0
LTYPE
  5
15
100
AcDbSymbolTableRecord
100
AcDbLinetypeTableRecord
  2
BYLAYER
 70
0
  3

 72
65
 73
0
 40
0.0
  0
LTYPE
  5
16
100
AcDbSymbolTableRecord
100
AcDbLinetypeTableRecord
  2
CONTINUOUS
 70
64
  3
Solid line
 72
65
 73
0
 40
0.0
  0
LTYPE
  5
1F5
100
AcDbSymbolTableRecord
100
AcDbLinetypeTableRecord
  2
CENTER
 70
64
  3
____ _ ____ _ ____ _ ____ _ ____ _ ____ _ ____
 72
65
 73
4
 40
0.6
 49
0.375
 74
0
 49
-0.075
 74
0
 49
0.075
 74
0
 49
-0.075
 74
0
  0
LTYPE
  5
1F6
100
AcDbSymbolTableRecord
100
AcDbLinetypeTableRecord
  2
HIDDEN
 70
64
  3
- - - - - - - - - - - - - - - - - - - -
 72
65
 73
2
 40
0.2
 49
0.1
 74
0
 49
-0.1
 74
0
  0
LTYPE
  5
1F7
100
AcDbSymbolTableRecord
100
AcDbLinetypeTableRecord
  2
PHANTOM
 70
64
  3
_____ _ _ _____ _ _ _____ _ _ _____
 72
65
 73
6
 40
0.8
 49
0.45
 74
0
 49
-0.05
 74
0
 49
0.1
 74
0
 49
-0.05
 74
0
 49
0.1
 74
0
 49
-0.05
 74
0
  0
LTYPE
  5
1F8
100
AcDbSymbolTableRecord
100
AcDbLinetypeTableRecord
  2
DOT
 70
64
  3
. . . . . . . . . . . . . . . . . . . .
 72
65
 73
2
 40
0.2
 49
0.1
 74
0
 49
-0.1
 74
0
  0
LTYPE
  5
1F9
100
AcDbSymbolTableRecord
100
AcDbLinetypeTableRecord
  2
DASHED
 70
64
  3
- - - - - - - - - - - - - - - - - - - -
 72
65
 73
2
 40
0.2
 49
0.1
 74
0
 49
-0.1
 74
0
  0
ENDTAB
  0
TABLE
  2
LAYER
  5
2
100
AcDbSymbolTable
 70
36
  0
LAYER
  5
10
100
AcDbSymbolTableRecord
100
AcDbLayerTableRecord
  2
0
 70
0
 62
7
  6
CONTINUOUS
370
-3
390
F
  0
LAYER
  5
1FA
100
AcDbSymbolTableRecord
100
AcDbLayerTableRecord
  2
DEFAULT_1
 70
0
 62
7
  6
CENTER
370
-3
390
F
  0
LAYER
  5
1FB
100
AcDbSymbolTableRecord
100
AcDbLayerTableRecord
  2
DEFAULT_2
 70
0
 62
8
  6
HIDDEN
370
-3
390
F
  0
LAYER
  5
1FC
100
AcDbSymbolTableRecord
100
AcDbLayerTableRecord
  2
DEFAULT_3
 70
0
 62
7
  6
PHANTOM
370
-3
390
F
  0
LAYER
  5
1FD
100
AcDbSymbolTableRecord
100
AcDbLayerTableRecord
  2
DEFAULT_COORDINATE_SYSTEM
 70
0
 62
7
  6
CONTINUOUS
370
-3
390
F
  0
LAYER
  5
1FE
100
AcDbSymbolTableRecord
100
AcDbLayerTableRecord
  2
DEFAULT_DATUM_AXES
 70
0
 62
7
  6
CONTINUOUS
370
-3
390
F
  0
LAYER
  5
1FF
100
AcDbSymbolTableRecord
100
AcDbLayerTableRecord
  2
DEFAULT_DATUM_PLANES
 70
0
 62
7
  6
CONTINUOUS
370
-3
390
F
  0
ENDTAB
  0
TABLE
  2
STYLE
  5
3
100
AcDbSymbolTable
 70
1
  0
STYLE
  5
11
100
AcDbSymbolTableRecord
100
AcDbTextStyleTableRecord
  2
STANDARD
 70
0
 40
0.0
 41
0.8
 50
0.0
 71
0
 42
0.2
  3
txt
  4

  0
STYLE
  5
200
100
AcDbSymbolTableRecord
100
AcDbTextStyleTableRecord
  2
TEXTSTYLE_1
 70
0
 40
0.0
 41
0.8
 50
0.0
 71
0
 42
0.2
  3
gdt
  4

  0
ENDTAB
  0
TABLE
  2
VIEW
  5
6
100
AcDbSymbolTable
 70
0
  0
ENDTAB
  0
TABLE
  2
UCS
  5
7
100
AcDbSymbolTable
 70
0
  0
ENDTAB
  0
TABLE
  2
APPID
  5
9
100
AcDbSymbolTable
 70
1
  0
APPID
  5
201
100
AcDbSymbolTableRecord
100
AcDbRegAppTableRecord
  2
ACAD
 70
0
  0
ENDTAB
  0
TABLE
  2
BLOCK_RECORD
  5
1
100
AcDbSymbolTable
 70
0
  0
BLOCK_RECORD
  5
202
100
AcDbSymbolTableRecord
100
AcDbBlockTableRecord
  2
*Model_Space
  0
BLOCK_RECORD
  5
203
100
AcDbSymbolTableRecord
100
AcDbBlockTableRecord
  2
*Paper_Space
  0
BLOCK_RECORD
  5
204
100
AcDbSymbolTableRecord
100
AcDbBlockTableRecord
  2
_FILLED
  0
ENDTAB
  0
TABLE
  2
DIMSTYLE
  5
A
100
AcDbSymbolTable
 70
1
100
AcDbDimStyleTable
 71
0
  0
DIMSTYLE
105
205
100
AcDbSymbolTableRecord
100
AcDbDimStyleTableRecord
  2
STANDARD
 70
0
  3

  4

 40
1.0
 41
0.1
 42
0.0625
 43
0.38
 44
0.125
 45
0.0
 46
0.0
 47
0.01
 48
0.01
140
0.08
141
0.09
142
0.0
143
25.4
144
1.0
145
0.0
146
1.0
147
0.09
 71
1.0
 72
0.0
 73
1
 74
1
 75
0
 76
0
 77
0
 78
4
 79
1
170
1
171
1
172
0
173
0
174
0
175
0
176
0
177
0
178
0
270
2
179
2
271
2
272
2
273
2
274
2
275
0
280
0
281
0
282
0
283
1
284
4
285
0
286
0
287
3
288
0
340
11
278
46
341
204
342
204
343
204
344
204
  0
ENDTAB
  0
ENDSEC
  0
SECTION
  2
BLOCKS
  0
BLOCK
  5
20
100
AcDbEntity
  8
0
100
AcDbBlockBegin
  2
*Model_Space
 70
0
 10
0.0
 20
0.0
 30
0.0
  3
*Model_Space
  1

  0
ENDBLK
  5
21
100
AcDbEntity
  8
0
100
AcDbBlockEnd
  0
BLOCK
  5
1C
100
AcDbEntity
  8
0
100
AcDbBlockBegin
  2
*Paper_Space
 70
0
 10
0.0
 20
0.0
 30
0.0
  3
*Paper_Space
  1

  0
ENDBLK
  5
1D
100
AcDbEntity
  8
0
100
AcDbBlockEnd
  0
BLOCK
  5
206
100
AcDbEntity
  8
0
100
AcDbBlockBegin
  2
_FILLED
 70
64
 10
0.0
 20
0.0
  3
_FILLED
  1

  0
SOLID
  5
207
100
AcDbEntity
  8
0
  6
BYBLOCK
 62
0
100
AcDbTrace
 10
0.0
 20
0.0
 11
-1.0
 21
0.2
 12
-1.0
 22
-0.2
 13
-1.0
 23
-0.2
  0
ENDBLK
  5
208
100
AcDbEntity
  8
0
  6
BYBLOCK
 62
0
100
AcDbBlockEnd
  0
ENDSEC
  0
SECTION
  2
ENTITIES
  0
MTEXT
  5
209
100
AcDbEntity
  8
0
100
AcDbMText
 62
2
  6
CONTINUOUS
  7
STANDARD
 71
3
 72
1
 10
5.3616459627
 20
1.4874301242
 30
0.0
 11
1.0
 21
0.0
 31
0.0
 73
2
 44
0.9
  1
SCALE  .500
 40
0.08
 41
0.704
  0
LINE
  5
20A
100
AcDbEntity
  8
0
100
AcDbLine
 62
7
  6
CONTINUOUS
 10
0.0
 20
0.0
 11
0.0
 21
8.5
  0
LINE
  5
20B
100
AcDbEntity
  8
0
100
AcDbLine
 62
7
  6
CONTINUOUS
 10
0.0
 20
0.0
 11
11.0
 21
0.0
  0
LINE
  5
20C
100
AcDbEntity
  8
0
100
AcDbLine
 62
7
  6
CONTINUOUS
 10
0.0
 20
8.5
 11
11.0
 21
8.5
  0
LINE
  5
20D
100
AcDbEntity
  8
0
100
AcDbLine
 62
7
  6
CONTINUOUS
 10
11.0
 20
0.0
 11
11.0
 21
8.5
  0
LINE
  5
20E
100
AcDbEntity
  8
0
100
AcDbLine
 62
7
  6
CONTINUOUS
 10
5.1751006554
 20
2.3087888199
 11
5.4801006554
 21
2.3087888199
  0
LINE
  5
20F
100
AcDbEntity
  8
0
100
AcDbLine
 62
7
  6
CONTINUOUS
 10
5.1751006554
 20
2.3235388199
 11
5.4801006554
 21
2.3235388199
  0
LINE
  5
210
100
AcDbEntity
  8
0
100
AcDbLine
 62
7
  6
CONTINUOUS
 10
5.1751006554
 20
2.3530388199
 11
5.4801006554
 21
2.3530388199
  0
LINE
  5
211
100
AcDbEntity
  8
0
100
AcDbLine
 62
7
  6
CONTINUOUS
 10
5.1751006554
 20
2.4315388199
 11
5.4801006554
 21
2.4315388199
  0
LINE
  5
212
100
AcDbEntity
  8
0
100
AcDbLine
 62
7
  6
CONTINUOUS
 10
5.1751006554
 20
2.4610388199
 11
5.4801006554
 21
2.4610388199
  0
LINE
  5
213
100
AcDbEntity
  8
0
100
AcDbLine
 62
7
  6
CONTINUOUS
 10
5.1751006554
 20
2.5395388199
 11
5.4801006554
 21
2.5395388199
  0
LINE
  5
214
100
AcDbEntity
  8
0
100
AcDbLine
 62
7
  6
CONTINUOUS
 10
4.7904883471
 20
2.4552446886
 11
4.4034949221
 21
2.6357026864
  0
LINE
  5
215
100
AcDbEntity
  8
0
100
AcDbLine
 62
7
  6
CONTINUOUS
 10
5.1751006554
 20
2.5690388199
 11
5.4801006554
 21
2.5690388199
  0
LINE
  5
216
100
AcDbEntity
  8
0
100
AcDbLine
 62
7
  6
CONTINUOUS
 10
5.1751006554
 20
2.6475388199
 11
5.4801006554
 21
2.6475388199
  0
LINE
  5
217
100
AcDbEntity
  8
0
100
AcDbLine
 62
7
  6
CONTINUOUS
 10
5.1751006554
 20
2.6770388199
 11
5.4801006554
 21
2.6770388199
  0
LINE
  5
218
100
AcDbEntity
  8
0
100
AcDbLine
 62
7
  6
CONTINUOUS
 10
4.4198919358
 20
2.6708661958
 11
4.8068853608
 21
2.490408198
  0
LINE
  5
219
100
AcDbEntity
  8
0
100
AcDbLine
 62
7
  6
CONTINUOUS
 10
4.8486834566
 20
2.5800445036
 11
4.4616900315
 21
2.7605025014
  0
LINE
  5
21A
100
AcDbEntity
  8
0
100
AcDbLine
 62
7
  6
CONTINUOUS
 10
5.1751006554
 20
2.7555388199
 11
5.4801006554
 21
2.7555388199
  0
LINE
  5
21B
100
AcDbEntity
  8
0
100
AcDbLine
 62
7
  6
CONTINUOUS
 10
5.1751006554
 20
2.7850388199
 11
5.4801006554
 21
2.7850388199
  0
LINE
  5
21C
100
AcDbEntity
  8
0
100
AcDbLine
 62
7
  6
CONTINUOUS
 10
4.8649953718
 20
2.6150255187
 11
4.4780019468
 21
2.7954835165
  0
LINE
  5
21D
100
AcDbEntity
  8
0
100
AcDbLine
 62
7
  6
CONTINUOUS
 10
4.9067934676
 20
2.7046618243
 11
4.5198000425
 21
2.8851198221
  0
LINE
  5
21E
100
AcDbEntity
  8
0
100
AcDbLine
 62
7
  6
CONTINUOUS
 10
5.1751006554
 20
2.8635388199
 11
5.4801006554
 21
2.8635388199
  0
LINE
  5
21F
100
AcDbEntity
  8
0
100
AcDbLine
 62
7
  6
CONTINUOUS
 10
5.1751006554
 20
2.8930388199
 11
5.4801006554
 21
2.8930388199
  0
LINE
  5
220
100
AcDbEntity
  8
0
100
AcDbLine
 62
7
  6
CONTINUOUS
 10
4.9231053828
 20
2.7396428395
 11
4.5361119578
 21
2.9201008372
  0
LINE
  5
221
100
AcDbEntity
  8
0
100
AcDbLine
 62
7
  6
CONTINUOUS
 10
4.9649034786
 20
2.829279145
 11
4.5779100535
 21
3.0097371428
  0
LINE
  5
222
100
AcDbEntity
  8
0
100
AcDbLine
 62
7
  6
CONTINUOUS
 10
4.9812153938
 20
2.8642601602
 11
4.5942219688
 21
3.0447181579
  0
LINE
  5
223
100
AcDbEntity
  8
0
100
AcDbLine
 62
7
  6
CONTINUOUS
 10
5.0792093099
 20
3.0784647948
 11
5.1775098495
 21
3.0784647948
  0
LINE
  5
224
100
AcDbEntity
  8
0
100
AcDbLine
 62
7
  6
CONTINUOUS
 10
5.0230134896
 20
2.9538964658
 11
4.6360200645
 21
3.1343544635
  0
LINE
  5
225
100
AcDbEntity
  8
0
100
AcDbLine
 62
7
  6
CONTINUOUS
 10
5.0393254048
 20
2.9888774809
 11
4.6523319797
 21
3.1693354787
  0
LINE
  5
226
100
AcDbEntity
  8
0
100
AcDbLine
 62
7
  6
CONTINUOUS
 10
5.0795699611
 20
3.0792382138
 11
4.6941300755
 21
3.2589717842
  0
LINE
  5
227
100
AcDbEntity
  8
0
100
AcDbLine
 62
7
  6
CONTINUOUS
 10
4.7104419907
 20
3.2939527994
 11
5.0958818763
 21
3.114219229
  0
LINE
  5
228
100
AcDbEntity
  8
0
100
AcDbLine
 62
7
  6
CONTINUOUS
 10
5.2540438033
 20
3.5604520186
 11
4.9096077651
 21
3.7210651809
  0
LINE
  5
229
100
AcDbEntity
  8
0
100
AcDbLine
 62
7
  6
CONTINUOUS
 10
5.4801006554
 20
3.7987888199
 11
5.4794736464
 21
3.7987888199
  0
LINE
  5
22A
100
AcDbEntity
  8
0
100
AcDbLine
 62
7
  6
CONTINUOUS
 10
5.4801006554
 20
3.8120388199
 11
4.8951006554
 21
3.8120388199
  0
LINE
  5
22B
100
AcDbEntity
  8
0
100
AcDbLine
 62
7
  6
CONTINUOUS
 10
4.6936006554
 20
5.4278046092
 11
4.6936006554
 21
5.5222730306
  0
LINE
  5
22C
100
AcDbEntity
  8
0
100
AcDbLine
 62
7
  6
CONTINUOUS
 10
4.7049338055
 20
5.5222730306
 11
4.7049338055
 21
5.4278046092
  0
LINE
  5
22D
100
AcDbEntity
  8
0
100
AcDbLine
 62
7
  6
CONTINUOUS
 10
4.7093751254
 20
5.5228860624
 11
4.7093751254
 21
5.4271915774
  0
LINE
  5
22E
100
AcDbEntity
  8
0
100
AcDbLine
 62
7
  6
CONTINUOUS
 10
4.7376006554
 20
4.8775388199
 11
4.7376006554
 21
4.9425388199
  0
LINE
  5
22F
100
AcDbEntity
  8
0
100
AcDbLine
 62
7
  6
CONTINUOUS
 10
4.7476006554
 20
4.8525388199
 11
4.7476006554
 21
4.8775388199
  0
LINE
  5
230
100
AcDbEntity
  8
0
100
AcDbLine
 62
7
  6
CONTINUOUS
 10
4.7501006554
 20
5.5475388199
 11
4.7501006554
 21
5.6150388199
  0
LINE
  5
231
100
AcDbEntity
  8
0
100
AcDbLine
 62
7
  6
CONTINUOUS
 10
4.7788506554
 20
5.6771091618
 11
4.7702526325
 21
5.6171686592
  0
LINE
  5
232
100
AcDbEntity
  8
0
100
AcDbLine
 62
7
  6
CONTINUOUS
 10
4.7788506554
 20
6.5950388199
 11
4.7788506554
 21
5.6771091618
  0
LINE
  5
233
100
AcDbEntity
  8
0
100
AcDbLine
 62
7
  6
CONTINUOUS
 10
4.7901006554
 20
4.8125388199
 11
4.7901006554
 21
4.6575388199
  0
LINE
  5
234
100
AcDbEntity
  8
0
100
AcDbLine
 62
7
  6
CONTINUOUS
 10
4.8474321788
 20
5.4271915774
 11
4.8474321788
 21
5.5228860624
  0
LINE
  5
235
100
AcDbEntity
  8
0
100
AcDbLine
 62
7
  6
CONTINUOUS
 10
4.855154476
 20
5.4278046092
 11
4.855154476
 21
5.5222730306
  0
LINE
  5
236
100
AcDbEntity
  8
0
100
AcDbLine
 62
7
  6
CONTINUOUS
 10
4.8728506554
 20
5.388050952
 11
4.8728506554
 21
5.3773766877
  0
LINE
  5
237
100
AcDbEntity
  8
0
100
AcDbLine
 62
7
  6
CONTINUOUS
 10
4.8728506554
 20
5.353600952
 11
4.8728506554
 21
5.3429266877
  0
LINE
  5
238
100
AcDbEntity
  8
0
100
AcDbLine
 62
7
  6
CONTINUOUS
 10
4.8728506554
 20
5.319150952
 11
4.8728506554
 21
5.3084766877
  0
LINE
  5
239
100
AcDbEntity
  8
0
100
AcDbLine
 62
7
  6
CONTINUOUS
 10
4.8728506554
 20
5.284700952
 11
4.8728506554
 21
5.2740266877
  0
LINE
  5
23A
100
AcDbEntity
  8
0
100
AcDbLine
 62
7
  6
CONTINUOUS
 10
4.8728506554
 20
5.250250952
 11
4.8728506554
 21
5.2395766877
  0
LINE
  5
23B
100
AcDbEntity
  8
0
100
AcDbLine
 62
7
  6
CONTINUOUS
 10
4.8728506554
 20
5.215800952
 11
4.8728506554
 21
5.2051266877
  0
LINE
  5
23C
100
AcDbEntity
  8
0
100
AcDbLine
 62
7
  6
CONTINUOUS
 10
4.8728506554
 20
5.181350952
 11
4.8728506554
 21
5.1706766877
  0
LINE
  5
23D
100
AcDbEntity
  8
0
100
AcDbLine
 62
7
  6
CONTINUOUS
 10
4.8728506554
 20
5.146900952
 11
4.8728506554
 21
5.1362266877
  0
LINE
  5
23E
100
AcDbEntity
  8
0
100
AcDbLine
 62
7
  6
CONTINUOUS
 10
4.8728506554
 20
5.112450952
 11
4.8728506554
 21
5.1017766877
  0
LINE
  5
23F
100
AcDbEntity
  8
0
100
AcDbLine
 62
7
  6
CONTINUOUS
 10
4.8728506554
 20
5.078000952
 11
4.8728506554
 21
5.0673266877
  0
LINE
  5
240
100
AcDbEntity
  8
0
100
AcDbLine
 62
7
  6
CONTINUOUS
 10
4.8728506554
 20
5.043550952
 11
4.8728506554
 21
5.0328766877
  0
LINE
  5
241
100
AcDbEntity
  8
0
100
AcDbLine
 62
7
  6
CONTINUOUS
 10
4.8728506554
 20
5.009100952
 11
4.8728506554
 21
4.9984266877
  0
LINE
  5
242
100
AcDbEntity
  8
0
100
AcDbLine
 62
7
  6
CONTINUOUS
 10
4.8728506554
 20
4.974650952
 11
4.8728506554
 21
4.9639766877
  0
LINE
  5
243
100
AcDbEntity
  8
0
100
AcDbLine
 62
7
  6
CONTINUOUS
 10
4.8728506554
 20
4.630150952
 11
4.8728506554
 21
4.6194766877
  0
LINE
  5
244
100
AcDbEntity
  8
0
100
AcDbLine
 62
7
  6
CONTINUOUS
 10
4.8932006554
 20
5.4025388199
 11
4.8932006554
 21
5.3935108178
  0
LINE
  5
245
100
AcDbEntity
  8
0
100
AcDbLine
 62
7
  6
CONTINUOUS
 10
4.8932006554
 20
5.3721138199
 11
4.8932006554
 21
5.3590608178
  0
LINE
  5
246
100
AcDbEntity
  8
0
100
AcDbLine
 62
7
  6
CONTINUOUS
 10
4.8932006554
 20
5.3376638199
 11
4.8932006554
 21
5.3246108178
  0
LINE
  5
247
100
AcDbEntity
  8
0
100
AcDbLine
 62
7
  6
CONTINUOUS
 10
4.8932006554
 20
5.3032138199
 11
4.8932006554
 21
5.2901608178
  0
LINE
  5
248
100
AcDbEntity
  8
0
100
AcDbLine
 62
7
  6
CONTINUOUS
 10
4.8932006554
 20
5.2687638199
 11
4.8932006554
 21
5.2557108178
  0
LINE
  5
249
100
AcDbEntity
  8
0
100
AcDbLine
 62
7
  6
CONTINUOUS
 10
4.8932006554
 20
5.2343138199
 11
4.8932006554
 21
5.2212608178
  0
LINE
  5
24A
100
AcDbEntity
  8
0
100
AcDbLine
 62
7
  6
CONTINUOUS
 10
4.8932006554
 20
5.1998638199
 11
4.8932006554
 21
5.1868108178
  0
LINE
  5
24B
100
AcDbEntity
  8
0
100
AcDbLine
 62
7
  6
CONTINUOUS
 10
4.8932006554
 20
5.1654138199
 11
4.8932006554
 21
5.1523608178
  0
LINE
  5
24C
100
AcDbEntity
  8
0
100
AcDbLine
 62
7
  6
CONTINUOUS
 10
4.8932006554
 20
5.1309638199
 11
4.8932006554
 21
5.1179108178
  0
LINE
  5
24D
100
AcDbEntity
  8
0
100
AcDbLine
 62
7
  6
CONTINUOUS
 10
4.8932006554
 20
5.0965138199
 11
4.8932006554
 21
5.0834608178
  0
LINE
  5
24E
100
AcDbEntity
  8
0
100
AcDbLine
 62
7
  6
CONTINUOUS
 10
4.8932006554
 20
5.0620638199
 11
4.8932006554
 21
5.0490108178
  0
LINE
  5
24F
100
AcDbEntity
  8
0
100
AcDbLine
 62
7
  6
CONTINUOUS
 10
4.8932006554
 20
5.0276138199
 11
4.8932006554
 21
5.0145608178
  0
LINE
  5
250
100
AcDbEntity
  8
0
100
AcDbLine
 62
7
  6
CONTINUOUS
 10
4.8932006554
 20
4.9931638199
 11
4.8932006554
 21
4.9801108178
  0
LINE
  5
251
100
AcDbEntity
  8
0
100
AcDbLine
 62
7
  6
CONTINUOUS
 10
4.8932006554
 20
4.9587138199
 11
4.8932006554
 21
4.9456608178
  0
LINE
  5
252
100
AcDbEntity
  8
0
100
AcDbLine
 62
7
  6
CONTINUOUS
 10
4.8932006554
 20
4.6375388199
 11
4.8932006554
 21
4.6356108178
  0
LINE
  5
253
100
AcDbEntity
  8
0
100
AcDbLine
 62
7
  6
CONTINUOUS
 10
4.8932006554
 20
4.6142138199
 11
4.8932006554
 21
4.6072888199
  0
LINE
  5
254
100
AcDbEntity
  8
0
100
AcDbLine
 62
7
  6
CONTINUOUS
 10
4.8951006554
 20
4.6072888199
 11
4.8951006554
 21
3.8120388199
  0
LINE
  5
255
100
AcDbEntity
  8
0
100
AcDbLine
 62
7
  6
CONTINUOUS
 10
4.9701571868
 20
4.8125388199
 11
4.9701571868
 21
4.6575388199
  0
LINE
  5
256
100
AcDbEntity
  8
0
100
AcDbLine
 62
7
  6
CONTINUOUS
 10
5.0090662102
 20
4.8125388199
 11
5.0090662102
 21
4.6575388199
  0
LINE
  5
257
100
AcDbEntity
  8
0
100
AcDbLine
 62
7
  6
CONTINUOUS
 10
5.0373799849
 20
5.5222730306
 11
5.0373799849
 21
5.4278046092
  0
LINE
  5
258
100
AcDbEntity
  8
0
100
AcDbLine
 62
7
  6
CONTINUOUS
 10
5.0495436019
 20
5.5228860624
 11
5.0495436019
 21
5.4271915774
  0
LINE
  5
259
100
AcDbEntity
  8
0
100
AcDbLine
 62
7
  6
CONTINUOUS
 10
5.0495436019
 20
5.4271915774
 11
5.0483524843
 21
5.418099901
  0
LINE
  5
25A
100
AcDbEntity
  8
0
100
AcDbLine
 62
7
  6
CONTINUOUS
 10
5.4812402442
 20
4.6310446593
 11
5.5016390601
 21
4.6363329311
  0
LINE
  5
25B
100
AcDbEntity
  8
0
100
AcDbLine
 62
7
  6
CONTINUOUS
 10
5.1751006554
 20
2.3087888199
 11
5.1751006554
 21
2.3235388199
  0
LINE
  5
25C
100
AcDbEntity
  8
0
100
AcDbLine
 62
7
  6
CONTINUOUS
 10
5.1751006554
 20
2.3530388199
 11
5.1751006554
 21
2.4315388199
  0
LINE
  5
25D
100
AcDbEntity
  8
0
100
AcDbLine
 62
7
  6
CONTINUOUS
 10
5.1751006554
 20
2.4610388199
 11
5.1751006554
 21
2.5395388199
  0
LINE
  5
25E
100
AcDbEntity
  8
0
100
AcDbLine
 62
7
  6
CONTINUOUS
 10
5.1751006554
 20
2.5690388199
 11
5.1751006554
 21
2.6475388199
  0
LINE
  5
25F
100
AcDbEntity
  8
0
100
AcDbLine
 62
7
  6
CONTINUOUS
 10
5.1751006554
 20
2.6770388199
 11
5.1751006554
 21
2.7555388199
  0
LINE
  5
260
100
AcDbEntity
  8
0
100
AcDbLine
 62
7
  6
CONTINUOUS
 10
5.1751006554
 20
2.7850388199
 11
5.1751006554
 21
2.8635388199
  0
LINE
  5
261
100
AcDbEntity
  8
0
100
AcDbLine
 62
7
  6
CONTINUOUS
 10
5.1751006554
 20
2.8930388199
 11
5.1751006554
 21
3.0784647948
  0
LINE
  5
262
100
AcDbEntity
  8
0
100
AcDbLine
 62
7
  6
CONTINUOUS
 10
5.1775098495
 20
3.0784647948
 11
5.1775098495
 21
3.2892709825
  0
LINE
  5
263
100
AcDbEntity
  8
0
100
AcDbLine
 62
7
  6
CONTINUOUS
 10
5.3256577088
 20
5.5228860624
 11
5.3268488265
 21
5.5319777387
  0
LINE
  5
264
100
AcDbEntity
  8
0
100
AcDbLine
 62
7
  6
CONTINUOUS
 10
4.8939610664
 20
4.6358079804
 11
4.8735622506
 21
4.6305197087
  0
LINE
  5
265
100
AcDbEntity
  8
0
100
AcDbLine
 62
7
  6
CONTINUOUS
 10
5.5023506554
 20
4.6072888199
 11
4.8932011971
 21
4.6072888199
  0
LINE
  5
266
100
AcDbEntity
  8
0
100
AcDbLine
 62
7
  6
CONTINUOUS
 10
5.5651006554
 20
4.6375388199
 11
4.8101006554
 21
4.6375388199
  0
LINE
  5
267
100
AcDbEntity
  8
0
100
AcDbLine
 62
7
  6
CONTINUOUS
 10
5.4050441239
 20
4.6575388199
 11
5.3661351005
 21
4.6575388199
  0
LINE
  5
268
100
AcDbEntity
  8
0
100
AcDbLine
 62
7
  6
CONTINUOUS
 10
5.0090662102
 20
4.6575388199
 11
4.9701571868
 21
4.6575388199
  0
LINE
  5
269
100
AcDbEntity
  8
0
100
AcDbLine
 62
7
  6
CONTINUOUS
 10
4.8735622506
 20
4.6191079311
 11
4.8931527957
 21
4.6140292318
  0
LINE
  5
26A
100
AcDbEntity
  8
0
100
AcDbLine
 62
7
  6
CONTINUOUS
 10
5.0495436019
 20
5.5228860624
 11
5.0483524843
 21
5.5319777387
  0
LINE
  5
26B
100
AcDbEntity
  8
0
100
AcDbLine
 62
7
  6
CONTINUOUS
 10
5.3256577088
 20
5.4271915774
 11
5.3256577088
 21
5.5228860624
  0
LINE
  5
26C
100
AcDbEntity
  8
0
100
AcDbLine
 62
7
  6
CONTINUOUS
 10
5.3378213258
 20
5.4278046092
 11
5.3378213258
 21
5.5222730306
  0
LINE
  5
26D
100
AcDbEntity
  8
0
100
AcDbLine
 62
7
  6
CONTINUOUS
 10
4.9096077651
 20
3.7210651809
 11
4.7104419907
 21
3.2939527994
  0
LINE
  5
26E
100
AcDbEntity
  8
0
100
AcDbLine
 62
7
  6
CONTINUOUS
 10
4.4198919358
 20
2.6708661958
 11
4.4616900315
 21
2.7605025014
  0
LINE
  5
26F
100
AcDbEntity
  8
0
100
AcDbLine
 62
7
  6
CONTINUOUS
 10
4.4780019468
 20
2.7954835165
 11
4.5198000425
 21
2.8851198221
  0
LINE
  5
270
100
AcDbEntity
  8
0
100
AcDbLine
 62
7
  6
CONTINUOUS
 10
4.5361119578
 20
2.9201008372
 11
4.5779100535
 21
3.0097371428
  0
LINE
  5
271
100
AcDbEntity
  8
0
100
AcDbLine
 62
7
  6
CONTINUOUS
 10
4.5942219688
 20
3.0447181579
 11
4.6360200645
 21
3.1343544635
  0
LINE
  5
272
100
AcDbEntity
  8
0
100
AcDbLine
 62
7
  6
CONTINUOUS
 10
4.6523319797
 20
3.1693354787
 11
4.6941300755
 21
3.2589717842
  0
LINE
  5
273
100
AcDbEntity
  8
0
100
AcDbLine
 62
7
  6
CONTINUOUS
 10
5.4868102494
 20
4.9425388199
 11
5.5016390601
 21
4.9463829311
  0
LINE
  5
274
100
AcDbEntity
  8
0
100
AcDbLine
 62
7
  6
CONTINUOUS
 10
4.7876016449
 20
4.8125388199
 11
5.5875996659
 21
4.8125388199
  0
LINE
  5
275
100
AcDbEntity
  8
0
100
AcDbLine
 62
7
  6
CONTINUOUS
 10
5.5016390601
 20
4.6132947087
 11
5.4820006554
 21
4.6183858178
  0
LINE
  5
276
100
AcDbEntity
  8
0
100
AcDbLine
 62
7
  6
CONTINUOUS
 10
5.3661351005
 20
4.8125388199
 11
5.3661351005
 21
4.6575388199
  0
LINE
  5
277
100
AcDbEntity
  8
0
100
AcDbLine
 62
7
  6
CONTINUOUS
 10
5.4050441239
 20
4.8125388199
 11
5.4050441239
 21
4.6575388199
  0
LINE
  5
278
100
AcDbEntity
  8
0
100
AcDbLine
 62
7
  6
CONTINUOUS
 10
5.4801006554
 20
4.6072888199
 11
5.4801006554
 21
3.8120388199
  0
LINE
  5
279
100
AcDbEntity
  8
0
100
AcDbLine
 62
7
  6
CONTINUOUS
 10
5.4801006554
 20
2.3087888199
 11
5.4801006554
 21
2.3235388199
  0
LINE
  5
27A
100
AcDbEntity
  8
0
100
AcDbLine
 62
7
  6
CONTINUOUS
 10
5.4801006554
 20
2.3530388199
 11
5.4801006554
 21
2.4315388199
  0
LINE
  5
27B
100
AcDbEntity
  8
0
100
AcDbLine
 62
7
  6
CONTINUOUS
 10
5.4801006554
 20
2.4610388199
 11
5.4801006554
 21
2.5395388199
  0
LINE
  5
27C
100
AcDbEntity
  8
0
100
AcDbLine
 62
7
  6
CONTINUOUS
 10
5.4801006554
 20
2.5690388199
 11
5.4801006554
 21
2.6475388199
  0
LINE
  5
27D
100
AcDbEntity
  8
0
100
AcDbLine
 62
7
  6
CONTINUOUS
 10
5.4801006554
 20
2.6770388199
 11
5.4801006554
 21
2.7555388199
  0
LINE
  5
27E
100
AcDbEntity
  8
0
100
AcDbLine
 62
7
  6
CONTINUOUS
 10
5.4801006554
 20
2.7850388199
 11
5.4801006554
 21
2.8635388199
  0
LINE
  5
27F
100
AcDbEntity
  8
0
100
AcDbLine
 62
7
  6
CONTINUOUS
 10
5.4801006554
 20
2.8930388199
 11
5.4801006554
 21
3.7987888199
  0
LINE
  5
280
100
AcDbEntity
  8
0
100
AcDbLine
 62
7
  6
CONTINUOUS
 10
5.4820006554
 20
4.6181888199
 11
5.4820006554
 21
4.6312418229
  0
LINE
  5
281
100
AcDbEntity
  8
0
100
AcDbLine
 62
7
  6
CONTINUOUS
 10
5.4820006554
 20
4.9626888199
 11
5.4820006554
 21
4.9757418229
  0
LINE
  5
282
100
AcDbEntity
  8
0
100
AcDbLine
 62
7
  6
CONTINUOUS
 10
5.4820006554
 20
4.9971388199
 11
5.4820006554
 21
5.0101918229
  0
LINE
  5
283
100
AcDbEntity
  8
0
100
AcDbLine
 62
7
  6
CONTINUOUS
 10
5.4820006554
 20
5.0315888199
 11
5.4820006554
 21
5.0446418229
  0
LINE
  5
284
100
AcDbEntity
  8
0
100
AcDbLine
 62
7
  6
CONTINUOUS
 10
5.4820006554
 20
5.0660388199
 11
5.4820006554
 21
5.0790918229
  0
LINE
  5
285
100
AcDbEntity
  8
0
100
AcDbLine
 62
7
  6
CONTINUOUS
 10
5.4820006554
 20
5.1004888199
 11
5.4820006554
 21
5.1135418229
  0
LINE
  5
286
100
AcDbEntity
  8
0
100
AcDbLine
 62
7
  6
CONTINUOUS
 10
5.4820006554
 20
5.1349388199
 11
5.4820006554
 21
5.1479918229
  0
LINE
  5
287
100
AcDbEntity
  8
0
100
AcDbLine
 62
7
  6
CONTINUOUS
 10
5.4820006554
 20
5.1693888199
 11
5.4820006554
 21
5.1824418229
  0
LINE
  5
288
100
AcDbEntity
  8
0
100
AcDbLine
 62
7
  6
CONTINUOUS
 10
5.4820006554
 20
5.2038388199
 11
5.4820006554
 21
5.2168918229
  0
LINE
  5
289
100
AcDbEntity
  8
0
100
AcDbLine
 62
7
  6
CONTINUOUS
 10
5.4820006554
 20
5.2382888199
 11
5.4820006554
 21
5.2513418229
  0
LINE
  5
28A
100
AcDbEntity
  8
0
100
AcDbLine
 62
7
  6
CONTINUOUS
 10
5.4820006554
 20
5.2727388199
 11
5.4820006554
 21
5.2857918229
  0
LINE
  5
28B
100
AcDbEntity
  8
0
100
AcDbLine
 62
7
  6
CONTINUOUS
 10
5.4820006554
 20
5.3071888199
 11
5.4820006554
 21
5.3202418229
  0
LINE
  5
28C
100
AcDbEntity
  8
0
100
AcDbLine
 62
7
  6
CONTINUOUS
 10
5.4820006554
 20
5.3416388199
 11
5.4820006554
 21
5.3546918229
  0
LINE
  5
28D
100
AcDbEntity
  8
0
100
AcDbLine
 62
7
  6
CONTINUOUS
 10
5.4820006554
 20
5.3760888199
 11
5.4820006554
 21
5.3891418229
  0
LINE
  5
28E
100
AcDbEntity
  8
0
100
AcDbLine
 62
7
  6
CONTINUOUS
 10
5.5023506554
 20
5.370825952
 11
5.5023506554
 21
5.3601516877
  0
LINE
  5
28F
100
AcDbEntity
  8
0
100
AcDbLine
 62
7
  6
CONTINUOUS
 10
5.5023506554
 20
5.336375952
 11
5.5023506554
 21
5.3257016877
  0
LINE
  5
290
100
AcDbEntity
  8
0
100
AcDbLine
 62
7
  6
CONTINUOUS
 10
5.5023506554
 20
5.301925952
 11
5.5023506554
 21
5.2912516877
  0
LINE
  5
291
100
AcDbEntity
  8
0
100
AcDbLine
 62
7
  6
CONTINUOUS
 10
5.5023506554
 20
5.267475952
 11
5.5023506554
 21
5.2568016877
  0
LINE
  5
292
100
AcDbEntity
  8
0
100
AcDbLine
 62
7
  6
CONTINUOUS
 10
5.5023506554
 20
5.233025952
 11
5.5023506554
 21
5.2223516877
  0
LINE
  5
293
100
AcDbEntity
  8
0
100
AcDbLine
 62
7
  6
CONTINUOUS
 10
5.5023506554
 20
5.198575952
 11
5.5023506554
 21
5.1879016877
  0
LINE
  5
294
100
AcDbEntity
  8
0
100
AcDbLine
 62
7
  6
CONTINUOUS
 10
5.5023506554
 20
5.164125952
 11
5.5023506554
 21
5.1534516877
  0
LINE
  5
295
100
AcDbEntity
  8
0
100
AcDbLine
 62
7
  6
CONTINUOUS
 10
5.5023506554
 20
5.129675952
 11
5.5023506554
 21
5.1190016877
  0
LINE
  5
296
100
AcDbEntity
  8
0
100
AcDbLine
 62
7
  6
CONTINUOUS
 10
5.5023506554
 20
5.095225952
 11
5.5023506554
 21
5.0845516877
  0
LINE
  5
297
100
AcDbEntity
  8
0
100
AcDbLine
 62
7
  6
CONTINUOUS
 10
5.5023506554
 20
5.060775952
 11
5.5023506554
 21
5.0501016877
  0
LINE
  5
298
100
AcDbEntity
  8
0
100
AcDbLine
 62
7
  6
CONTINUOUS
 10
5.5023506554
 20
5.026325952
 11
5.5023506554
 21
5.0156516877
  0
LINE
  5
299
100
AcDbEntity
  8
0
100
AcDbLine
 62
7
  6
CONTINUOUS
 10
5.5023506554
 20
4.991875952
 11
5.5023506554
 21
4.9812016877
  0
LINE
  5
29A
100
AcDbEntity
  8
0
100
AcDbLine
 62
7
  6
CONTINUOUS
 10
5.5023506554
 20
4.957425952
 11
5.5023506554
 21
4.9467516877
  0
LINE
  5
29B
100
AcDbEntity
  8
0
100
AcDbLine
 62
7
  6
CONTINUOUS
 10
5.5023506554
 20
4.612925952
 11
5.5023506554
 21
4.6072888199
  0
LINE
  5
29C
100
AcDbEntity
  8
0
100
AcDbLine
 62
7
  6
CONTINUOUS
 10
5.5023506554
 20
4.6367016877
 11
5.5023506554
 21
4.6375388199
  0
LINE
  5
29D
100
AcDbEntity
  8
0
100
AcDbLine
 62
7
  6
CONTINUOUS
 10
5.5023506554
 20
5.3946016877
 11
5.5023506554
 21
5.4025388199
  0
LINE
  5
29E
100
AcDbEntity
  8
0
100
AcDbLine
 62
7
  6
CONTINUOUS
 10
5.510983652
 20
6.0550388199
 11
5.510983652
 21
6.0525388199
  0
LINE
  5
29F
100
AcDbEntity
  8
0
100
AcDbLine
 62
7
  6
CONTINUOUS
 10
5.4812402442
 20
4.9755446593
 11
5.5016390601
 21
4.9808329311
  0
LINE
  5
2A0
100
AcDbEntity
  8
0
100
AcDbLine
 62
7
  6
CONTINUOUS
 10
5.4812402442
 20
5.0099946593
 11
5.5016390601
 21
5.0152829311
  0
LINE
  5
2A1
100
AcDbEntity
  8
0
100
AcDbLine
 62
7
  6
CONTINUOUS
 10
5.4812402442
 20
5.0444446593
 11
5.5016390601
 21
5.0497329311
  0
LINE
  5
2A2
100
AcDbEntity
  8
0
100
AcDbLine
 62
7
  6
CONTINUOUS
 10
5.4812402442
 20
5.0788946593
 11
5.5016390601
 21
5.0841829311
  0
LINE
  5
2A3
100
AcDbEntity
  8
0
100
AcDbLine
 62
7
  6
CONTINUOUS
 10
4.8939610664
 20
4.9458579804
 11
4.8811585878
 21
4.9425388199
  0
LINE
  5
2A4
100
AcDbEntity
  8
0
100
AcDbLine
 62
7
  6
CONTINUOUS
 10
5.4812402442
 20
5.1133446593
 11
5.5016390601
 21
5.1186329311
  0
LINE
  5
2A5
100
AcDbEntity
  8
0
100
AcDbLine
 62
7
  6
CONTINUOUS
 10
4.7476006554
 20
4.8525388199
 11
5.6276006554
 21
4.8525388199
  0
LINE
  5
2A6
100
AcDbEntity
  8
0
100
AcDbLine
 62
7
  6
CONTINUOUS
 10
4.7376006554
 20
4.8775388199
 11
5.6376006554
 21
4.8775388199
  0
LINE
  5
2A7
100
AcDbEntity
  8
0
100
AcDbLine
 62
7
  6
CONTINUOUS
 10
4.7376006554
 20
4.9425388199
 11
5.6376006554
 21
4.9425388199
  0
LINE
  5
2A8
100
AcDbEntity
  8
0
100
AcDbLine
 62
7
  6
CONTINUOUS
 10
4.8735622506
 20
4.9636079311
 11
4.8931527957
 21
4.9585292318
  0
LINE
  5
2A9
100
AcDbEntity
  8
0
100
AcDbLine
 62
7
  6
CONTINUOUS
 10
4.8735622506
 20
4.9980579311
 11
4.8931527957
 21
4.9929792318
  0
LINE
  5
2AA
100
AcDbEntity
  8
0
100
AcDbLine
 62
7
  6
CONTINUOUS
 10
4.8735622506
 20
5.0325079311
 11
4.8931527957
 21
5.0274292318
  0
LINE
  5
2AB
100
AcDbEntity
  8
0
100
AcDbLine
 62
7
  6
CONTINUOUS
 10
5.3256577088
 20
5.4271915774
 11
5.3268488265
 21
5.418099901
  0
LINE
  5
2AC
100
AcDbEntity
  8
0
100
AcDbLine
 62
7
  6
CONTINUOUS
 10
5.5200468348
 20
5.5222730306
 11
5.5200468348
 21
5.4278046092
  0
LINE
  5
2AD
100
AcDbEntity
  8
0
100
AcDbLine
 62
7
  6
CONTINUOUS
 10
5.5277691319
 20
5.5228860624
 11
5.5277691319
 21
5.4271915774
  0
LINE
  5
2AE
100
AcDbEntity
  8
0
100
AcDbLine
 62
7
  6
CONTINUOUS
 10
5.5614426173
 20
6.0525388199
 11
5.5614426173
 21
6.0550388199
  0
LINE
  5
2AF
100
AcDbEntity
  8
0
100
AcDbLine
 62
7
  6
CONTINUOUS
 10
5.5668371416
 20
6.0550388199
 11
5.5668371416
 21
6.0525388199
  0
LINE
  5
2B0
100
AcDbEntity
  8
0
100
AcDbLine
 62
7
  6
CONTINUOUS
 10
5.5759565649
 20
6.0150388199
 11
5.5759565649
 21
6.0960388199
  0
LINE
  5
2B1
100
AcDbEntity
  8
0
100
AcDbLine
 62
7
  6
CONTINUOUS
 10
5.5781374853
 20
6.0856983956
 11
5.5781374853
 21
6.0632941381
  0
LINE
  5
2B2
100
AcDbEntity
  8
0
100
AcDbLine
 62
7
  6
CONTINUOUS
 10
5.5781374853
 20
6.0529537138
 11
5.5781374853
 21
6.0150388199
  0
LINE
  5
2B3
100
AcDbEntity
  8
0
100
AcDbLine
 62
7
  6
CONTINUOUS
 10
5.5809638541
 20
6.0529537138
 11
5.5809638541
 21
6.0632941381
  0
LINE
  5
2B4
100
AcDbEntity
  8
0
100
AcDbLine
 62
7
  6
CONTINUOUS
 10
5.5819916674
 20
6.0856983956
 11
5.5819916674
 21
6.0960388199
  0
LINE
  5
2B5
100
AcDbEntity
  8
0
100
AcDbLine
 62
7
  6
CONTINUOUS
 10
5.5851006554
 20
4.8125388199
 11
5.5851006554
 21
4.6575388199
  0
LINE
  5
2B6
100
AcDbEntity
  8
0
100
AcDbLine
 62
7
  6
CONTINUOUS
 10
5.5860942012
 20
6.0632941381
 11
5.5860942012
 21
6.0529537138
  0
LINE
  5
2B7
100
AcDbEntity
  8
0
100
AcDbLine
 62
7
  6
CONTINUOUS
 10
5.5871088159
 20
6.0960388199
 11
5.5871088159
 21
6.0856983956
  0
LINE
  5
2B8
100
AcDbEntity
  8
0
100
AcDbLine
 62
7
  6
CONTINUOUS
 10
5.588974724
 20
6.0960388199
 11
5.588974724
 21
6.0150388199
  0
LINE
  5
2B9
100
AcDbEntity
  8
0
100
AcDbLine
 62
7
  6
CONTINUOUS
 10
5.5897219511
 20
6.0150388199
 11
5.5897219511
 21
6.0253792454
  0
LINE
  5
2BA
100
AcDbEntity
  8
0
100
AcDbLine
 62
7
  6
CONTINUOUS
 10
5.5902327267
 20
6.0960388199
 11
5.5902327267
 21
6.0253792454
  0
LINE
  5
2BB
100
AcDbEntity
  8
0
100
AcDbLine
 62
7
  6
CONTINUOUS
 10
5.5947419533
 20
6.0253792454
 11
5.5947419533
 21
6.0150388199
  0
LINE
  5
2BC
100
AcDbEntity
  8
0
100
AcDbLine
 62
7
  6
CONTINUOUS
 10
5.5963506554
 20
6.5950388199
 11
5.5963506554
 21
5.6771091618
  0
LINE
  5
2BD
100
AcDbEntity
  8
0
100
AcDbLine
 62
7
  6
CONTINUOUS
 10
5.6251006554
 20
5.5475388199
 11
5.6251006554
 21
5.6150388199
  0
LINE
  5
2BE
100
AcDbEntity
  8
0
100
AcDbLine
 62
7
  6
CONTINUOUS
 10
5.6276006554
 20
4.8525388199
 11
5.6276006554
 21
4.8775388199
  0
LINE
  5
2BF
100
AcDbEntity
  8
0
100
AcDbLine
 62
7
  6
CONTINUOUS
 10
5.6376006554
 20
4.8775388199
 11
5.6376006554
 21
4.9425388199
  0
LINE
  5
2C0
100
AcDbEntity
  8
0
100
AcDbLine
 62
7
  6
CONTINUOUS
 10
5.6658261854
 20
5.4271915774
 11
5.6658261854
 21
5.5228860624
  0
LINE
  5
2C1
100
AcDbEntity
  8
0
100
AcDbLine
 62
7
  6
CONTINUOUS
 10
5.6702675052
 20
5.4278046092
 11
5.6702675052
 21
5.5222730306
  0
LINE
  5
2C2
100
AcDbEntity
  8
0
100
AcDbLine
 62
7
  6
CONTINUOUS
 10
4.8939610664
 20
4.9803079804
 11
4.8735622506
 21
4.9750197087
  0
LINE
  5
2C3
100
AcDbEntity
  8
0
100
AcDbLine
 62
7
  6
CONTINUOUS
 10
5.4812402442
 20
5.1477946593
 11
5.5016390601
 21
5.1530829311
  0
LINE
  5
2C4
100
AcDbEntity
  8
0
100
AcDbLine
 62
7
  6
CONTINUOUS
 10
4.8939610664
 20
5.0147579804
 11
4.8735622506
 21
5.0094697087
  0
LINE
  5
2C5
100
AcDbEntity
  8
0
100
AcDbLine
 62
7
  6
CONTINUOUS
 10
5.4812402442
 20
5.1822446593
 11
5.5016390601
 21
5.1875329311
  0
LINE
  5
2C6
100
AcDbEntity
  8
0
100
AcDbLine
 62
7
  6
CONTINUOUS
 10
4.8939610664
 20
5.0492079804
 11
4.8735622506
 21
5.0439197087
  0
LINE
  5
2C7
100
AcDbEntity
  8
0
100
AcDbLine
 62
7
  6
CONTINUOUS
 10
5.4812402442
 20
5.2166946593
 11
5.5016390601
 21
5.2219829311
  0
LINE
  5
2C8
100
AcDbEntity
  8
0
100
AcDbLine
 62
7
  6
CONTINUOUS
 10
4.8939610664
 20
5.0836579804
 11
4.8735622506
 21
5.0783697087
  0
LINE
  5
2C9
100
AcDbEntity
  8
0
100
AcDbLine
 62
7
  6
CONTINUOUS
 10
5.4812402442
 20
5.2511446593
 11
5.5016390601
 21
5.2564329311
  0
LINE
  5
2CA
100
AcDbEntity
  8
0
100
AcDbLine
 62
7
  6
CONTINUOUS
 10
4.8939610664
 20
5.1181079804
 11
4.8735622506
 21
5.1128197087
  0
LINE
  5
2CB
100
AcDbEntity
  8
0
100
AcDbLine
 62
7
  6
CONTINUOUS
 10
4.8735622506
 20
5.0669579311
 11
4.8931527957
 21
5.0618792318
  0
LINE
  5
2CC
100
AcDbEntity
  8
0
100
AcDbLine
 62
7
  6
CONTINUOUS
 10
4.8735622506
 20
5.1014079311
 11
4.8931527957
 21
5.0963292318
  0
LINE
  5
2CD
100
AcDbEntity
  8
0
100
AcDbLine
 62
7
  6
CONTINUOUS
 10
5.5016390601
 20
4.9577947087
 11
5.4820006554
 21
4.9628858178
  0
LINE
  5
2CE
100
AcDbEntity
  8
0
100
AcDbLine
 62
7
  6
CONTINUOUS
 10
4.8735622506
 20
5.1358579311
 11
4.8931527957
 21
5.1307792318
  0
LINE
  5
2CF
100
AcDbEntity
  8
0
100
AcDbLine
 62
7
  6
CONTINUOUS
 10
5.5016390601
 20
4.9922447087
 11
5.4820006554
 21
4.9973358178
  0
LINE
  5
2D0
100
AcDbEntity
  8
0
100
AcDbLine
 62
7
  6
CONTINUOUS
 10
4.8735622506
 20
5.1703079311
 11
4.8931527957
 21
5.1652292318
  0
LINE
  5
2D1
100
AcDbEntity
  8
0
100
AcDbLine
 62
7
  6
CONTINUOUS
 10
5.5016390601
 20
5.0266947087
 11
5.4820006554
 21
5.0317858178
  0
LINE
  5
2D2
100
AcDbEntity
  8
0
100
AcDbLine
 62
7
  6
CONTINUOUS
 10
4.8735622506
 20
5.2047579311
 11
4.8931527957
 21
5.1996792318
  0
LINE
  5
2D3
100
AcDbEntity
  8
0
100
AcDbLine
 62
7
  6
CONTINUOUS
 10
5.6816006554
 20
5.4278046092
 11
5.6816006554
 21
5.5222730306
  0
LINE
  5
2D4
100
AcDbEntity
  8
0
100
AcDbLine
 62
7
  6
CONTINUOUS
 10
5.1775098495
 20
3.2892709825
 11
5.0958818763
 21
3.114219229
  0
LINE
  5
2D5
100
AcDbEntity
  8
0
100
AcDbLine
 62
7
  6
CONTINUOUS
 10
5.0795699611
 20
3.0792382138
 11
5.0792093099
 21
3.0784647948
  0
LINE
  5
2D6
100
AcDbEntity
  8
0
100
AcDbLine
 62
7
  6
CONTINUOUS
 10
4.8068853608
 20
2.490408198
 11
4.8486834566
 21
2.5800445036
  0
LINE
  5
2D7
100
AcDbEntity
  8
0
100
AcDbLine
 62
7
  6
CONTINUOUS
 10
4.8649953718
 20
2.6150255187
 11
4.9067934676
 21
2.7046618243
  0
LINE
  5
2D8
100
AcDbEntity
  8
0
100
AcDbLine
 62
7
  6
CONTINUOUS
 10
4.9231053828
 20
2.7396428395
 11
4.9649034786
 21
2.829279145
  0
LINE
  5
2D9
100
AcDbEntity
  8
0
100
AcDbLine
 62
7
  6
CONTINUOUS
 10
4.9812153938
 20
2.8642601602
 11
5.0230134896
 21
2.9538964658
  0
LINE
  5
2DA
100
AcDbEntity
  8
0
100
AcDbLine
 62
7
  6
CONTINUOUS
 10
5.0393254048
 20
2.9888774809
 11
5.0811006554
 21
3.0784647948
  0
LINE
  5
2DB
100
AcDbEntity
  8
0
100
AcDbLine
 62
7
  6
CONTINUOUS
 10
5.4812402442
 20
5.2855946593
 11
5.5016390601
 21
5.2908829311
  0
LINE
  5
2DC
100
AcDbEntity
  8
0
100
AcDbLine
 62
7
  6
CONTINUOUS
 10
4.8939610664
 20
5.1525579804
 11
4.8735622506
 21
5.1472697087
  0
LINE
  5
2DD
100
AcDbEntity
  8
0
100
AcDbLine
 62
7
  6
CONTINUOUS
 10
5.4812402442
 20
5.3200446593
 11
5.5016390601
 21
5.3253329311
  0
LINE
  5
2DE
100
AcDbEntity
  8
0
100
AcDbLine
 62
7
  6
CONTINUOUS
 10
4.8939610664
 20
5.1870079804
 11
4.8735622506
 21
5.1817197087
  0
LINE
  5
2DF
100
AcDbEntity
  8
0
100
AcDbLine
 62
7
  6
CONTINUOUS
 10
5.4812402442
 20
5.3544946593
 11
5.5016390601
 21
5.3597829311
  0
LINE
  5
2E0
100
AcDbEntity
  8
0
100
AcDbLine
 62
7
  6
CONTINUOUS
 10
4.8939610664
 20
5.2214579804
 11
4.8735622506
 21
5.2161697087
  0
LINE
  5
2E1
100
AcDbEntity
  8
0
100
AcDbLine
 62
7
  6
CONTINUOUS
 10
5.4812402442
 20
5.3889446593
 11
5.5016390601
 21
5.3942329311
  0
LINE
  5
2E2
100
AcDbEntity
  8
0
100
AcDbLine
 62
7
  6
CONTINUOUS
 10
4.8939610664
 20
5.2559079804
 11
4.8735622506
 21
5.2506197087
  0
LINE
  5
2E3
100
AcDbEntity
  8
0
100
AcDbLine
 62
7
  6
CONTINUOUS
 10
5.5016390601
 20
5.0611447087
 11
5.4820006554
 21
5.0662358178
  0
LINE
  5
2E4
100
AcDbEntity
  8
0
100
AcDbLine
 62
7
  6
CONTINUOUS
 10
4.8735622506
 20
5.2392079311
 11
4.8931527957
 21
5.2341292318
  0
LINE
  5
2E5
100
AcDbEntity
  8
0
100
AcDbLine
 62
7
  6
CONTINUOUS
 10
5.5016390601
 20
5.0955947087
 11
5.4820006554
 21
5.1006858178
  0
LINE
  5
2E6
100
AcDbEntity
  8
0
100
AcDbLine
 62
7
  6
CONTINUOUS
 10
4.8735622506
 20
5.2736579311
 11
4.8931527957
 21
5.2685792318
  0
LINE
  5
2E7
100
AcDbEntity
  8
0
100
AcDbLine
 62
7
  6
CONTINUOUS
 10
5.5016390601
 20
5.1300447087
 11
5.4820006554
 21
5.1351358178
  0
LINE
  5
2E8
100
AcDbEntity
  8
0
100
AcDbLine
 62
7
  6
CONTINUOUS
 10
4.8735622506
 20
5.3081079311
 11
4.8931527957
 21
5.3030292318
  0
LINE
  5
2E9
100
AcDbEntity
  8
0
100
AcDbLine
 62
7
  6
CONTINUOUS
 10
5.5016390601
 20
5.1644947087
 11
5.4820006554
 21
5.1695858178
  0
LINE
  5
2EA
100
AcDbEntity
  8
0
100
AcDbLine
 62
7
  6
CONTINUOUS
 10
4.8735622506
 20
5.3425579311
 11
4.8931527957
 21
5.3374792318
  0
LINE
  5
2EB
100
AcDbEntity
  8
0
100
AcDbLine
 62
7
  6
CONTINUOUS
 10
5.5016390601
 20
5.1989447087
 11
5.4820006554
 21
5.2040358178
  0
LINE
  5
2EC
100
AcDbEntity
  8
0
100
AcDbLine
 62
7
  6
CONTINUOUS
 10
5.5963506554
 20
5.6771091618
 11
5.6049486783
 21
5.6171686592
  0
LINE
  5
2ED
100
AcDbEntity
  8
0
100
AcDbLine
 62
7
  6
CONTINUOUS
 10
4.8939610664
 20
5.2903579804
 11
4.8735622506
 21
5.2850697087
  0
LINE
  5
2EE
100
AcDbEntity
  8
0
100
AcDbLine
 62
7
  6
CONTINUOUS
 10
4.8939610664
 20
5.3248079804
 11
4.8735622506
 21
5.3195197087
  0
LINE
  5
2EF
100
AcDbEntity
  8
0
100
AcDbLine
 62
7
  6
CONTINUOUS
 10
4.8939610664
 20
5.3592579804
 11
4.8735622506
 21
5.3539697087
  0
LINE
  5
2F0
100
AcDbEntity
  8
0
100
AcDbLine
 62
7
  6
CONTINUOUS
 10
4.8939610664
 20
5.3937079804
 11
4.8735622506
 21
5.3884197087
  0
LINE
  5
2F1
100
AcDbEntity
  8
0
100
AcDbLine
 62
7
  6
CONTINUOUS
 10
5.6319199192
 20
5.4025388199
 11
4.7432813916
 21
5.4025388199
  0
LINE
  5
2F2
100
AcDbEntity
  8
0
100
AcDbLine
 62
7
  6
CONTINUOUS
 10
5.643010135
 20
5.4046639725
 11
4.7321911758
 21
5.4046639725
  0
LINE
  5
2F3
100
AcDbEntity
  8
0
100
AcDbLine
 62
7
  6
CONTINUOUS
 10
4.6994161938
 20
5.4187221931
 11
4.7106159262
 21
5.4187221931
  0
LINE
  5
2F4
100
AcDbEntity
  8
0
100
AcDbLine
 62
7
  6
CONTINUOUS
 10
4.8590681471
 20
5.4187221931
 11
5.0391484345
 21
5.4187221931
  0
LINE
  5
2F5
100
AcDbEntity
  8
0
100
AcDbLine
 62
7
  6
CONTINUOUS
 10
5.3360528763
 20
5.4187221931
 11
5.5161331636
 21
5.4187221931
  0
LINE
  5
2F6
100
AcDbEntity
  8
0
100
AcDbLine
 62
7
  6
CONTINUOUS
 10
5.6645853845
 20
5.4187221931
 11
5.6757851169
 21
5.4187221931
  0
LINE
  5
2F7
100
AcDbEntity
  8
0
100
AcDbLine
 62
7
  6
CONTINUOUS
 10
4.6936006554
 20
5.4278046092
 11
4.7049338055
 21
5.4278046092
  0
LINE
  5
2F8
100
AcDbEntity
  8
0
100
AcDbLine
 62
7
  6
CONTINUOUS
 10
4.855154476
 20
5.4278046092
 11
5.0373799849
 21
5.4278046092
  0
LINE
  5
2F9
100
AcDbEntity
  8
0
100
AcDbLine
 62
7
  6
CONTINUOUS
 10
5.3378213258
 20
5.4278046092
 11
5.5200468348
 21
5.4278046092
  0
LINE
  5
2FA
100
AcDbEntity
  8
0
100
AcDbLine
 62
7
  6
CONTINUOUS
 10
5.6702675052
 20
5.4278046092
 11
5.6816006554
 21
5.4278046092
  0
LINE
  5
2FB
100
AcDbEntity
  8
0
100
AcDbLine
 62
7
  6
CONTINUOUS
 10
4.8735622506
 20
5.3770079311
 11
4.8931527957
 21
5.3719292318
  0
LINE
  5
2FC
100
AcDbEntity
  8
0
100
AcDbLine
 62
7
  6
CONTINUOUS
 10
5.5016390601
 20
5.2333947087
 11
5.4820006554
 21
5.2384858178
  0
LINE
  5
2FD
100
AcDbEntity
  8
0
100
AcDbLine
 62
7
  6
CONTINUOUS
 10
5.5016390601
 20
5.2678447087
 11
5.4820006554
 21
5.2729358178
  0
LINE
  5
2FE
100
AcDbEntity
  8
0
100
AcDbLine
 62
7
  6
CONTINUOUS
 10
5.5016390601
 20
5.3022947087
 11
5.4820006554
 21
5.3073858178
  0
LINE
  5
2FF
100
AcDbEntity
  8
0
100
AcDbLine
 62
7
  6
CONTINUOUS
 10
5.5016390601
 20
5.3367447087
 11
5.4820006554
 21
5.3418358178
  0
LINE
  5
300
100
AcDbEntity
  8
0
100
AcDbLine
 62
7
  6
CONTINUOUS
 10
5.6049486783
 20
5.6171686592
 11
5.5901006554
 21
5.6150388199
  0
LINE
  5
301
100
AcDbEntity
  8
0
100
AcDbLine
 62
7
  6
CONTINUOUS
 10
5.6816006554
 20
5.5222730306
 11
5.6702675052
 21
5.5222730306
  0
LINE
  5
302
100
AcDbEntity
  8
0
100
AcDbLine
 62
7
  6
CONTINUOUS
 10
5.5200468348
 20
5.5222730306
 11
5.3378213258
 21
5.5222730306
  0
LINE
  5
303
100
AcDbEntity
  8
0
100
AcDbLine
 62
7
  6
CONTINUOUS
 10
5.0373799849
 20
5.5222730306
 11
4.855154476
 21
5.5222730306
  0
LINE
  5
304
100
AcDbEntity
  8
0
100
AcDbLine
 62
7
  6
CONTINUOUS
 10
4.7049338055
 20
5.5222730306
 11
4.6936006554
 21
5.5222730306
  0
LINE
  5
305
100
AcDbEntity
  8
0
100
AcDbLine
 62
7
  6
CONTINUOUS
 10
5.6757851169
 20
5.5313554467
 11
5.6645853845
 21
5.5313554467
  0
LINE
  5
306
100
AcDbEntity
  8
0
100
AcDbLine
 62
7
  6
CONTINUOUS
 10
5.5161331636
 20
5.5313554467
 11
5.3360528763
 21
5.5313554467
  0
LINE
  5
307
100
AcDbEntity
  8
0
100
AcDbLine
 62
7
  6
CONTINUOUS
 10
5.0391484345
 20
5.5313554467
 11
4.8590681471
 21
5.5313554467
  0
LINE
  5
308
100
AcDbEntity
  8
0
100
AcDbLine
 62
7
  6
CONTINUOUS
 10
4.7106159262
 20
5.5313554467
 11
4.6994161938
 21
5.5313554467
  0
LINE
  5
309
100
AcDbEntity
  8
0
100
AcDbLine
 62
7
  6
CONTINUOUS
 10
4.7321911758
 20
5.5454136672
 11
5.643010135
 21
5.5454136672
  0
LINE
  5
30A
100
AcDbEntity
  8
0
100
AcDbLine
 62
7
  6
CONTINUOUS
 10
4.7432813916
 20
5.5475388199
 11
5.6319199192
 21
5.5475388199
  0
LINE
  5
30B
100
AcDbEntity
  8
0
100
AcDbLine
 62
7
  6
CONTINUOUS
 10
4.7702526325
 20
5.6171686592
 11
4.7851006554
 21
5.6150388199
  0
LINE
  5
30C
100
AcDbEntity
  8
0
100
AcDbLine
 62
7
  6
CONTINUOUS
 10
5.5016390601
 20
5.3711947087
 11
5.4820006554
 21
5.3762858178
  0
LINE
  5
30D
100
AcDbEntity
  8
0
100
AcDbLine
 62
7
  6
CONTINUOUS
 10
5.6251006554
 20
5.6150388199
 11
4.7501006554
 21
5.6150388199
  0
LINE
  5
30E
100
AcDbEntity
  8
0
100
AcDbLine
 62
7
  6
CONTINUOUS
 10
4.7702526325
 20
5.6171686592
 11
5.6049486783
 21
5.6171686592
  0
LINE
  5
30F
100
AcDbEntity
  8
0
100
AcDbLine
 62
7
  6
CONTINUOUS
 10
4.7788506554
 20
5.6771091618
 11
5.5963506554
 21
5.6771091618
  0
LINE
  5
310
100
AcDbEntity
  8
0
100
AcDbLine
 62
7
  6
CONTINUOUS
 10
5.3856006554
 20
5.9550388199
 11
4.9936006554
 21
5.9550388199
  0
LINE
  5
311
100
AcDbEntity
  8
0
100
AcDbLine
 62
7
  6
CONTINUOUS
 10
5.5947419533
 20
6.0150388199
 11
5.588974724
 21
6.0150388199
  0
LINE
  5
312
100
AcDbEntity
  8
0
100
AcDbLine
 62
7
  6
CONTINUOUS
 10
5.5781374853
 20
6.0150388199
 11
5.5759565649
 21
6.0150388199
  0
LINE
  5
313
100
AcDbEntity
  8
0
100
AcDbLine
 62
7
  6
CONTINUOUS
 10
5.588974724
 20
6.0253792454
 11
5.5947419533
 21
6.0253792454
  0
LINE
  5
314
100
AcDbEntity
  8
0
100
AcDbLine
 62
7
  6
CONTINUOUS
 10
5.5668371416
 20
6.0525388199
 11
5.510983652
 21
6.0525388199
  0
LINE
  5
315
100
AcDbEntity
  8
0
100
AcDbLine
 62
7
  6
CONTINUOUS
 10
5.3856006554
 20
6.0525388199
 11
4.9936006554
 21
6.0525388199
  0
LINE
  5
316
100
AcDbEntity
  8
0
100
AcDbLine
 62
7
  6
CONTINUOUS
 10
5.5759565649
 20
6.0529537138
 11
5.5860942012
 21
6.0529537138
  0
LINE
  5
317
100
AcDbEntity
  8
0
100
AcDbLine
 62
7
  6
CONTINUOUS
 10
5.5668371416
 20
6.0550388199
 11
5.510983652
 21
6.0550388199
  0
LINE
  5
318
100
AcDbEntity
  8
0
100
AcDbLine
 62
7
  6
CONTINUOUS
 10
5.5759565649
 20
6.0632941381
 11
5.5860942012
 21
6.0632941381
  0
LINE
  5
319
100
AcDbEntity
  8
0
100
AcDbLine
 62
7
  6
CONTINUOUS
 10
5.5759565649
 20
6.0856983956
 11
5.5871088159
 21
6.0856983956
  0
LINE
  5
31A
100
AcDbEntity
  8
0
100
AcDbLine
 62
7
  6
CONTINUOUS
 10
5.5902327267
 20
6.0960388199
 11
5.588974724
 21
6.0960388199
  0
LINE
  5
31B
100
AcDbEntity
  8
0
100
AcDbLine
 62
7
  6
CONTINUOUS
 10
5.5759565649
 20
6.0960388199
 11
5.5871088159
 21
6.0960388199
  0
LINE
  5
31C
100
AcDbEntity
  8
0
100
AcDbLine
 62
7
  6
CONTINUOUS
 10
5.3856006554
 20
6.1520388199
 11
4.9936006554
 21
6.1520388199
  0
LINE
  5
31D
100
AcDbEntity
  8
0
100
AcDbLine
 62
7
  6
CONTINUOUS
 10
5.3856006554
 20
6.2495388199
 11
4.9936006554
 21
6.2495388199
  0
LINE
  5
31E
100
AcDbEntity
  8
0
100
AcDbLine
 62
7
  6
CONTINUOUS
 10
4.7788506554
 20
6.5950388199
 11
5.5963506554
 21
6.5950388199
  0
LINE
  5
31F
100
AcDbEntity
  8
0
100
AcDbLine
 62
7
  6
CONTINUOUS
 10
5.4813497066
 20
6.7100388199
 11
4.8938506554
 21
6.7100388199
  0
ARC
  5
320
100
AcDbEntity
  8
0
100
AcDbCircle
 62
7
  6
CONTINUOUS
 10
4.7939712873
 20
2.4751364363
 40
0.02
100
AcDbArc
 50
260.0684881595
 51
49.7815448422
  0
ARC
  5
321
100
AcDbEntity
  8
0
100
AcDbCircle
 62
7
  6
CONTINUOUS
 10
4.416494094
 20
2.6511569423
 40
0.02
100
AcDbArc
 50
80.2184551578
 51
229.9315118405
  0
ARC
  5
322
100
AcDbEntity
  8
0
100
AcDbCircle
 62
7
  6
CONTINUOUS
 10
4.474604105
 20
2.7757742631
 40
0.02
100
AcDbArc
 50
80.2184551578
 51
229.7815448422
  0
ARC
  5
323
100
AcDbEntity
  8
0
100
AcDbCircle
 62
7
  6
CONTINUOUS
 10
4.8520812983
 20
2.599753757
 40
0.02
100
AcDbArc
 50
260.2184551578
 51
49.7815448422
  0
ARC
  5
324
100
AcDbEntity
  8
0
100
AcDbCircle
 62
7
  6
CONTINUOUS
 10
4.532714116
 20
2.9003915838
 40
0.02
100
AcDbArc
 50
80.2184551578
 51
229.7815448422
  0
ARC
  5
325
100
AcDbEntity
  8
0
100
AcDbCircle
 62
7
  6
CONTINUOUS
 10
4.9101913093
 20
2.7243710778
 40
0.02
100
AcDbArc
 50
260.2184551578
 51
49.7815448422
  0
ARC
  5
326
100
AcDbEntity
  8
0
100
AcDbCircle
 62
7
  6
CONTINUOUS
 10
4.590824127
 20
3.0250089045
 40
0.02
100
AcDbArc
 50
80.2184551578
 51
229.7815448422
  0
ARC
  5
327
100
AcDbEntity
  8
0
100
AcDbCircle
 62
7
  6
CONTINUOUS
 10
4.9683013203
 20
2.8489883985
 40
0.02
100
AcDbArc
 50
260.2184551578
 51
49.7815448422
  0
ARC
  5
328
100
AcDbEntity
  8
0
100
AcDbCircle
 62
7
  6
CONTINUOUS
 10
4.648934138
 20
3.1496262252
 40
0.02
100
AcDbArc
 50
80.2184551578
 51
229.7815448422
  0
ARC
  5
329
100
AcDbEntity
  8
0
100
AcDbCircle
 62
7
  6
CONTINUOUS
 10
5.0264113313
 20
2.9736057192
 40
0.02
100
AcDbArc
 50
260.2184551578
 51
49.7815448422
  0
ARC
  5
32A
100
AcDbEntity
  8
0
100
AcDbCircle
 62
7
  6
CONTINUOUS
 10
4.707044149
 20
3.2742435459
 40
0.02
100
AcDbArc
 50
80.2184551578
 51
229.7815448422
  0
ARC
  5
32B
100
AcDbEntity
  8
0
100
AcDbCircle
 62
7
  6
CONTINUOUS
 10
4.9806120092
 20
4.9210170869
 40
0.672
100
AcDbArc
 50
111.6955047478
 51
114.7365254906
  0
ARC
  5
32C
100
AcDbEntity
  8
0
100
AcDbCircle
 62
7
  6
CONTINUOUS
 10
4.9806120092
 20
6.0290605529
 40
0.672
100
AcDbArc
 50
245.2634745094
 51
248.3044952522
  0
ARC
  5
32D
100
AcDbEntity
  8
0
100
AcDbCircle
 62
7
  6
CONTINUOUS
 10
4.8938506554
 20
6.5950388199
 40
0.115
100
AcDbArc
 50
90.0
 51
180.0
  0
ARC
  5
32E
100
AcDbEntity
  8
0
100
AcDbCircle
 62
7
  6
CONTINUOUS
 10
4.9936006554
 20
6.2007888199
 40
0.04875
100
AcDbArc
 50
90.0
 51
270.0
  0
ARC
  5
32F
100
AcDbEntity
  8
0
100
AcDbCircle
 62
7
  6
CONTINUOUS
 10
4.9936006554
 20
6.0037888199
 40
0.04875
100
AcDbArc
 50
90.0
 51
270.0
  0
ARC
  5
330
100
AcDbEntity
  8
0
100
AcDbCircle
 62
7
  6
CONTINUOUS
 10
4.7876006554
 20
4.8525388199
 40
0.04
100
AcDbArc
 50
180.0
 51
270.0
  0
ARC
  5
331
100
AcDbEntity
  8
0
100
AcDbCircle
 62
7
  6
CONTINUOUS
 10
4.7432813916
 20
5.5175388199
 40
0.03
100
AcDbArc
 50
90.0
 51
111.6955047478
  0
ARC
  5
332
100
AcDbEntity
  8
0
100
AcDbCircle
 62
7
  6
CONTINUOUS
 10
4.7432813916
 20
5.4325388199
 40
0.03
100
AcDbArc
 50
248.3044952522
 51
270.0
  0
ARC
  5
333
100
AcDbEntity
  8
0
100
AcDbCircle
 62
7
  6
CONTINUOUS
 10
4.8101006554
 20
4.6575388199
 40
0.02
100
AcDbArc
 50
180.0
 51
270.0
  0
ARC
  5
334
100
AcDbEntity
  8
0
100
AcDbCircle
 62
7
  6
CONTINUOUS
 10
4.7036006554
 20
5.4278046092
 40
0.01
100
AcDbArc
 50
180.0
 51
245.2634745094
  0
ARC
  5
335
100
AcDbEntity
  8
0
100
AcDbCircle
 62
7
  6
CONTINUOUS
 10
4.7036006554
 20
5.5222730306
 40
0.01
100
AcDbArc
 50
114.7365254906
 51
180.0
  0
ARC
  5
336
100
AcDbEntity
  8
0
100
AcDbCircle
 62
7
  6
CONTINUOUS
 10
5.1876006554
 20
3.8120388199
 40
0.2925
100
AcDbArc
 50
180.0
 51
198.1207707255
  0
ARC
  5
337
100
AcDbEntity
  8
0
100
AcDbCircle
 62
7
  6
CONTINUOUS
 10
5.1876006554
 20
3.8120388199
 40
0.2925
100
AcDbArc
 50
357.4036616889
 51
360.0
  0
ARC
  5
338
100
AcDbEntity
  8
0
100
AcDbCircle
 62
7
  6
CONTINUOUS
 10
5.4767176766
 20
2.3382888199
 40
0.0151329787
100
AcDbArc
 50
282.9176327574
 51
77.0823672426
  0
ARC
  5
339
100
AcDbEntity
  8
0
100
AcDbCircle
 62
7
  6
CONTINUOUS
 10
5.1784836341
 20
2.3382888199
 40
0.0151329787
100
AcDbArc
 50
102.9176327574
 51
257.0823672426
  0
ARC
  5
33A
100
AcDbEntity
  8
0
100
AcDbCircle
 62
7
  6
CONTINUOUS
 10
5.4767176766
 20
2.4462888199
 40
0.0151329787
100
AcDbArc
 50
282.9176327574
 51
77.0823672426
  0
ARC
  5
33B
100
AcDbEntity
  8
0
100
AcDbCircle
 62
7
  6
CONTINUOUS
 10
5.1784836341
 20
2.4462888199
 40
0.0151329787
100
AcDbArc
 50
102.9176327574
 51
257.0823672426
  0
ARC
  5
33C
100
AcDbEntity
  8
0
100
AcDbCircle
 62
7
  6
CONTINUOUS
 10
5.4767176766
 20
2.5542888199
 40
0.0151329787
100
AcDbArc
 50
282.9176327574
 51
77.0823672426
  0
ARC
  5
33D
100
AcDbEntity
  8
0
100
AcDbCircle
 62
7
  6
CONTINUOUS
 10
5.1784836341
 20
2.5542888199
 40
0.0151329787
100
AcDbArc
 50
102.9176327574
 51
257.0823672426
  0
ARC
  5
33E
100
AcDbEntity
  8
0
100
AcDbCircle
 62
7
  6
CONTINUOUS
 10
5.4767176766
 20
2.6622888199
 40
0.0151329787
100
AcDbArc
 50
282.9176327574
 51
77.0823672426
  0
ARC
  5
33F
100
AcDbEntity
  8
0
100
AcDbCircle
 62
7
  6
CONTINUOUS
 10
5.1784836341
 20
2.6622888199
 40
0.0151329787
100
AcDbArc
 50
102.9176327574
 51
257.0823672426
  0
ARC
  5
340
100
AcDbEntity
  8
0
100
AcDbCircle
 62
7
  6
CONTINUOUS
 10
5.4767176766
 20
2.7702888199
 40
0.0151329787
100
AcDbArc
 50
282.9176327574
 51
77.0823672426
  0
ARC
  5
341
100
AcDbEntity
  8
0
100
AcDbCircle
 62
7
  6
CONTINUOUS
 10
5.1784836341
 20
2.7702888199
 40
0.0151329787
100
AcDbArc
 50
102.9176327574
 51
257.0823672426
  0
ARC
  5
342
100
AcDbEntity
  8
0
100
AcDbCircle
 62
7
  6
CONTINUOUS
 10
5.4767176766
 20
2.8782888199
 40
0.0151329787
100
AcDbArc
 50
282.9176327574
 51
77.0823672426
  0
ARC
  5
343
100
AcDbEntity
  8
0
100
AcDbCircle
 62
7
  6
CONTINUOUS
 10
5.1784836341
 20
2.8782888199
 40
0.0151329787
100
AcDbArc
 50
102.9176327574
 51
257.0823672426
  0
ARC
  5
344
100
AcDbEntity
  8
0
100
AcDbCircle
 62
7
  6
CONTINUOUS
 10
5.3945893016
 20
4.9210170869
 40
0.672
100
AcDbArc
 50
65.2634745094
 51
68.3044952522
  0
ARC
  5
345
100
AcDbEntity
  8
0
100
AcDbCircle
 62
7
  6
CONTINUOUS
 10
5.3945893016
 20
6.0290605529
 40
0.672
100
AcDbArc
 50
291.6955047478
 51
294.7365254906
  0
ARC
  5
346
100
AcDbEntity
  8
0
100
AcDbCircle
 62
7
  6
CONTINUOUS
 10
5.4813506554
 20
6.5950388199
 40
0.115
100
AcDbArc
 50
0.0
 51
90.0
  0
ARC
  5
347
100
AcDbEntity
  8
0
100
AcDbCircle
 62
7
  6
CONTINUOUS
 10
5.3856006554
 20
6.0037888199
 40
0.04875
100
AcDbArc
 50
270.0
 51
90.0
  0
ARC
  5
348
100
AcDbEntity
  8
0
100
AcDbCircle
 62
7
  6
CONTINUOUS
 10
5.3856006554
 20
6.2007888199
 40
0.04875
100
AcDbArc
 50
270.0
 51
90.0
  0
ARC
  5
349
100
AcDbEntity
  8
0
100
AcDbCircle
 62
7
  6
CONTINUOUS
 10
5.5876006554
 20
4.8525388199
 40
0.04
100
AcDbArc
 50
270.0
 51
360.0
  0
ARC
  5
34A
100
AcDbEntity
  8
0
100
AcDbCircle
 62
7
  6
CONTINUOUS
 10
5.6319199192
 20
5.5175388199
 40
0.03
100
AcDbArc
 50
68.3044952522
 51
90.0
  0
ARC
  5
34B
100
AcDbEntity
  8
0
100
AcDbCircle
 62
7
  6
CONTINUOUS
 10
5.6319199192
 20
5.4325388199
 40
0.03
100
AcDbArc
 50
270.0
 51
291.6955047478
  0
ARC
  5
34C
100
AcDbEntity
  8
0
100
AcDbCircle
 62
7
  6
CONTINUOUS
 10
5.5651006554
 20
4.6575388199
 40
0.02
100
AcDbArc
 50
270.0
 51
360.0
  0
ARC
  5
34D
100
AcDbEntity
  8
0
100
AcDbCircle
 62
7
  6
CONTINUOUS
 10
5.6716006554
 20
5.4278046092
 40
0.01
100
AcDbArc
 50
294.7365254906
 51
360.0
  0
ARC
  5
34E
100
AcDbEntity
  8
0
100
AcDbCircle
 62
7
  6
CONTINUOUS
 10
5.6716006554
 20
5.5222730306
 40
0.01
100
AcDbArc
 50
0.0
 51
65.2634745094
  0
ARC
  5
34F
100
AcDbEntity
  8
0
100
AcDbCircle
 62
7
  6
CONTINUOUS
 10
5.479361614
 20
5.1550519862
 40
0.0074965327
100
AcDbArc
 50
282.8635583621
 51
284.5129210989
  0
ARC
  5
350
100
AcDbEntity
  8
0
100
AcDbCircle
 62
7
  6
CONTINUOUS
 10
5.4794076712
 20
5.1204215765
 40
0.0073103227
100
AcDbArc
 50
283.1541382454
 51
284.5173442255
  0
ARC
  5
351
100
AcDbEntity
  8
0
100
AcDbCircle
 62
7
  6
CONTINUOUS
 10
5.4794543525
 20
5.0857864198
 40
0.0071193667
100
AcDbArc
 50
283.4455648361
 51
284.5269000125
  0
ARC
  5
352
100
AcDbEntity
  8
0
100
AcDbCircle
 62
7
  6
CONTINUOUS
 10
5.4795033721
 20
5.0511454807
 40
0.0069222629
100
AcDbArc
 50
283.7483728839
 51
284.5314076656
  0
ARC
  5
353
100
AcDbEntity
  8
0
100
AcDbCircle
 62
7
  6
CONTINUOUS
 10
5.4999830483
 20
5.1594737978
 40
0.0066018742
100
AcDbArc
 50
283.5491184007
 51
284.5250183136
  0
ARC
  5
354
100
AcDbEntity
  8
0
100
AcDbCircle
 62
7
  6
CONTINUOUS
 10
5.4999830483
 20
5.1939237978
 40
0.0066018742
100
AcDbArc
 50
283.5491184008
 51
284.5250183144
  0
ARC
  5
355
100
AcDbEntity
  8
0
100
AcDbCircle
 62
7
  6
CONTINUOUS
 10
5.4999830482
 20
5.3661737978
 40
0.0066018742
100
AcDbArc
 50
283.5491184006
 51
284.5250183133
  0
ARC
  5
356
100
AcDbEntity
  8
0
100
AcDbCircle
 62
7
  6
CONTINUOUS
 10
5.4999830483
 20
5.2283737978
 40
0.0066018742
100
AcDbArc
 50
283.5491183995
 51
284.5250183146
  0
ARC
  5
357
100
AcDbEntity
  8
0
100
AcDbCircle
 62
7
  6
CONTINUOUS
 10
5.4999830483
 20
5.2972737978
 40
0.0066018742
100
AcDbArc
 50
283.5491183996
 51
284.5250183149
  0
ARC
  5
358
100
AcDbEntity
  8
0
100
AcDbCircle
 62
7
  6
CONTINUOUS
 10
5.4999830483
 20
5.3317237978
 40
0.0066018742
100
AcDbArc
 50
283.5491183994
 51
284.5250183145
  0
ARC
  5
359
100
AcDbEntity
  8
0
100
AcDbCircle
 62
7
  6
CONTINUOUS
 10
5.4999830483
 20
4.9527737978
 40
0.0066018742
100
AcDbArc
 50
283.5491183999
 51
284.5250183149
  0
ARC
  5
35A
100
AcDbEntity
  8
0
100
AcDbCircle
 62
7
  6
CONTINUOUS
 10
5.4999830483
 20
4.9872237978
 40
0.0066018742
100
AcDbArc
 50
283.5491183981
 51
284.5250183143
  0
ARC
  5
35B
100
AcDbEntity
  8
0
100
AcDbCircle
 62
7
  6
CONTINUOUS
 10
5.4999830483
 20
5.0561237978
 40
0.0066018742
100
AcDbArc
 50
283.549118399
 51
284.5250183142
  0
ARC
  5
35C
100
AcDbEntity
  8
0
100
AcDbCircle
 62
7
  6
CONTINUOUS
 10
5.4999830483
 20
5.0905737978
 40
0.0066018742
100
AcDbArc
 50
283.5491183975
 51
284.5250183158
  0
ARC
  5
35D
100
AcDbEntity
  8
0
100
AcDbCircle
 62
7
  6
CONTINUOUS
 10
5.49998306
 20
5.2628237519
 40
0.0066018268
100
AcDbArc
 50
283.5491996714
 51
284.5250197335
  0
ARC
  5
35E
100
AcDbEntity
  8
0
100
AcDbCircle
 62
7
  6
CONTINUOUS
 10
5.4999830656
 20
5.1250237299
 40
0.0066018042
100
AcDbArc
 50
283.5492381291
 51
284.5250204214
  0
LINE
  5
35F
100
AcDbEntity
  8
0
100
AcDbLine
 62
7
  6
CONTINUOUS
 10
5.5023505515
 20
5.3946016877
 11
5.5016390588
 21
5.394232931
  0
LINE
  5
360
100
AcDbEntity
  8
0
100
AcDbLine
 62
7
  6
CONTINUOUS
 10
5.5016388163
 20
4.6132947085
 11
5.5023506554
 21
4.612925952
  0
LINE
  5
361
100
AcDbEntity
  8
0
100
AcDbLine
 62
7
  6
CONTINUOUS
 10
4.8735624944
 20
4.6305197085
 11
4.8728506554
 21
4.630150952
  0
LINE
  5
362
100
AcDbEntity
  8
0
100
AcDbLine
 62
7
  6
CONTINUOUS
 10
4.8735624623
 20
4.6191079312
 11
4.8728506554
 21
4.6194766877
  0
LINE
  5
363
100
AcDbEntity
  8
0
100
AcDbLine
 62
7
  6
CONTINUOUS
 10
5.5016388163
 20
4.9577947085
 11
5.5023506554
 21
4.957425952
  0
LINE
  5
364
100
AcDbEntity
  8
0
100
AcDbLine
 62
7
  6
CONTINUOUS
 10
4.8735622526
 20
4.9750197087
 11
4.8728506554
 21
4.974650952
  0
LINE
  5
365
100
AcDbEntity
  8
0
100
AcDbLine
 62
7
  6
CONTINUOUS
 10
5.5016388163
 20
4.9922447085
 11
5.5023506554
 21
4.991875952
  0
LINE
  5
366
100
AcDbEntity
  8
0
100
AcDbLine
 62
7
  6
CONTINUOUS
 10
5.5016388163
 20
5.0266947085
 11
5.5023506554
 21
5.026325952
  0
LINE
  5
367
100
AcDbEntity
  8
0
100
AcDbLine
 62
7
  6
CONTINUOUS
 10
5.5016388163
 20
5.0611447085
 11
5.5023506554
 21
5.060775952
  0
LINE
  5
368
100
AcDbEntity
  8
0
100
AcDbLine
 62
7
  6
CONTINUOUS
 10
5.5016388106
 20
5.0955947085
 11
5.5023506554
 21
5.095225952
  0
LINE
  5
369
100
AcDbEntity
  8
0
100
AcDbLine
 62
7
  6
CONTINUOUS
 10
4.8735624944
 20
5.0094697085
 11
4.8728506554
 21
5.009100952
  0
LINE
  5
36A
100
AcDbEntity
  8
0
100
AcDbLine
 62
7
  6
CONTINUOUS
 10
4.8735624944
 20
5.0439197085
 11
4.8728506554
 21
5.043550952
  0
LINE
  5
36B
100
AcDbEntity
  8
0
100
AcDbLine
 62
7
  6
CONTINUOUS
 10
4.8735624944
 20
5.0783697085
 11
4.8728506554
 21
5.078000952
  0
LINE
  5
36C
100
AcDbEntity
  8
0
100
AcDbLine
 62
7
  6
CONTINUOUS
 10
5.5016388163
 20
5.1300447085
 11
5.5023506554
 21
5.129675952
  0
LINE
  5
36D
100
AcDbEntity
  8
0
100
AcDbLine
 62
7
  6
CONTINUOUS
 10
5.5016388163
 20
5.1644947085
 11
5.5023506554
 21
5.164125952
  0
LINE
  5
36E
100
AcDbEntity
  8
0
100
AcDbLine
 62
7
  6
CONTINUOUS
 10
5.5016388163
 20
5.1989447085
 11
5.5023506554
 21
5.198575952
  0
LINE
  5
36F
100
AcDbEntity
  8
0
100
AcDbLine
 62
7
  6
CONTINUOUS
 10
5.5016390637
 20
5.2333947087
 11
5.5023506554
 21
5.233025952
  0
LINE
  5
370
100
AcDbEntity
  8
0
100
AcDbLine
 62
7
  6
CONTINUOUS
 10
4.8735624944
 20
5.1128197085
 11
4.8728506554
 21
5.112450952
  0
LINE
  5
371
100
AcDbEntity
  8
0
100
AcDbLine
 62
7
  6
CONTINUOUS
 10
4.8735624944
 20
5.1472697085
 11
4.8728506554
 21
5.146900952
  0
LINE
  5
372
100
AcDbEntity
  8
0
100
AcDbLine
 62
7
  6
CONTINUOUS
 10
4.8735624944
 20
5.1817197085
 11
4.8728506554
 21
5.181350952
  0
LINE
  5
373
100
AcDbEntity
  8
0
100
AcDbLine
 62
7
  6
CONTINUOUS
 10
4.8735624944
 20
5.2161697085
 11
4.8728506554
 21
5.215800952
  0
LINE
  5
374
100
AcDbEntity
  8
0
100
AcDbLine
 62
7
  6
CONTINUOUS
 10
5.5016388163
 20
5.2678447085
 11
5.5023506554
 21
5.267475952
  0
LINE
  5
375
100
AcDbEntity
  8
0
100
AcDbLine
 62
7
  6
CONTINUOUS
 10
5.5016388163
 20
5.3022947085
 11
5.5023506554
 21
5.301925952
  0
LINE
  5
376
100
AcDbEntity
  8
0
100
AcDbLine
 62
7
  6
CONTINUOUS
 10
5.5016388163
 20
5.3367447085
 11
5.5023506554
 21
5.336375952
  0
LINE
  5
377
100
AcDbEntity
  8
0
100
AcDbLine
 62
7
  6
CONTINUOUS
 10
4.8735624944
 20
5.2506197085
 11
4.8728506554
 21
5.250250952
  0
LINE
  5
378
100
AcDbEntity
  8
0
100
AcDbLine
 62
7
  6
CONTINUOUS
 10
4.8735624944
 20
5.2850697085
 11
4.8728506554
 21
5.284700952
  0
LINE
  5
379
100
AcDbEntity
  8
0
100
AcDbLine
 62
7
  6
CONTINUOUS
 10
4.8735624944
 20
5.3195197085
 11
4.8728506554
 21
5.319150952
  0
LINE
  5
37A
100
AcDbEntity
  8
0
100
AcDbLine
 62
7
  6
CONTINUOUS
 10
4.8735624556
 20
5.3539697085
 11
4.8728506554
 21
5.353600952
  0
LINE
  5
37B
100
AcDbEntity
  8
0
100
AcDbLine
 62
7
  6
CONTINUOUS
 10
4.8728506554
 20
4.9639766877
 11
4.8735624944
 21
4.9636079312
  0
LINE
  5
37C
100
AcDbEntity
  8
0
100
AcDbLine
 62
7
  6
CONTINUOUS
 10
4.8728506554
 20
4.9984266877
 11
4.8735624945
 21
4.9980579312
  0
LINE
  5
37D
100
AcDbEntity
  8
0
100
AcDbLine
 62
7
  6
CONTINUOUS
 10
4.8728506554
 20
5.0328766877
 11
4.8735624944
 21
5.0325079312
  0
LINE
  5
37E
100
AcDbEntity
  8
0
100
AcDbLine
 62
7
  6
CONTINUOUS
 10
4.8728506554
 20
5.0673266877
 11
4.8735624944
 21
5.0669579312
  0
LINE
  5
37F
100
AcDbEntity
  8
0
100
AcDbLine
 62
7
  6
CONTINUOUS
 10
4.8728506554
 20
5.1017766877
 11
4.8735624944
 21
5.1014079312
  0
LINE
  5
380
100
AcDbEntity
  8
0
100
AcDbLine
 62
7
  6
CONTINUOUS
 10
4.8728506554
 20
5.1362266877
 11
4.8735624875
 21
5.1358579312
  0
LINE
  5
381
100
AcDbEntity
  8
0
100
AcDbLine
 62
7
  6
CONTINUOUS
 10
4.8728506554
 20
5.1706766877
 11
4.8735624944
 21
5.1703079312
  0
LINE
  5
382
100
AcDbEntity
  8
0
100
AcDbLine
 62
7
  6
CONTINUOUS
 10
5.5016388163
 20
5.3711947085
 11
5.5023506554
 21
5.370825952
  0
LINE
  5
383
100
AcDbEntity
  8
0
100
AcDbLine
 62
7
  6
CONTINUOUS
 10
4.8728506554
 20
5.2051266877
 11
4.8735624944
 21
5.2047579312
  0
LINE
  5
384
100
AcDbEntity
  8
0
100
AcDbLine
 62
7
  6
CONTINUOUS
 10
4.8735624668
 20
5.3884197085
 11
4.8728506554
 21
5.388050952
  0
LINE
  5
385
100
AcDbEntity
  8
0
100
AcDbLine
 62
7
  6
CONTINUOUS
 10
4.8728506554
 20
5.2395766877
 11
4.8735624944
 21
5.2392079312
  0
LINE
  5
386
100
AcDbEntity
  8
0
100
AcDbLine
 62
7
  6
CONTINUOUS
 10
4.8728506554
 20
5.2740266877
 11
4.8735624836
 21
5.2736579312
  0
LINE
  5
387
100
AcDbEntity
  8
0
100
AcDbLine
 62
7
  6
CONTINUOUS
 10
4.8728506554
 20
5.3084766877
 11
4.8735624944
 21
5.3081079312
  0
LINE
  5
388
100
AcDbEntity
  8
0
100
AcDbLine
 62
7
  6
CONTINUOUS
 10
4.8728506554
 20
5.3429266877
 11
4.8735624944
 21
5.3425579312
  0
LINE
  5
389
100
AcDbEntity
  8
0
100
AcDbLine
 62
7
  6
CONTINUOUS
 10
4.8728506554
 20
5.3773766877
 11
4.8735624944
 21
5.3770079312
  0
LINE
  5
38A
100
AcDbEntity
  8
0
100
AcDbLine
 62
7
  6
CONTINUOUS
 10
5.5023506554
 20
4.9467516877
 11
5.5016388163
 21
4.9463829312
  0
LINE
  5
38B
100
AcDbEntity
  8
0
100
AcDbLine
 62
7
  6
CONTINUOUS
 10
5.5023506554
 20
4.9812016877
 11
5.5016388163
 21
4.9808329312
  0
LINE
  5
38C
100
AcDbEntity
  8
0
100
AcDbLine
 62
7
  6
CONTINUOUS
 10
5.5023506554
 20
5.0156516877
 11
5.5016388117
 21
5.0152829313
  0
LINE
  5
38D
100
AcDbEntity
  8
0
100
AcDbLine
 62
7
  6
CONTINUOUS
 10
5.5023506554
 20
5.0501016877
 11
5.5016388163
 21
5.0497329312
  0
LINE
  5
38E
100
AcDbEntity
  8
0
100
AcDbLine
 62
7
  6
CONTINUOUS
 10
5.5023506554
 20
5.0845516877
 11
5.5016388163
 21
5.0841829312
  0
LINE
  5
38F
100
AcDbEntity
  8
0
100
AcDbLine
 62
7
  6
CONTINUOUS
 10
5.5023506554
 20
5.1190016877
 11
5.5016388163
 21
5.1186329312
  0
LINE
  5
390
100
AcDbEntity
  8
0
100
AcDbLine
 62
7
  6
CONTINUOUS
 10
5.5023506554
 20
5.1534516877
 11
5.5016388163
 21
5.1530829312
  0
LINE
  5
391
100
AcDbEntity
  8
0
100
AcDbLine
 62
7
  6
CONTINUOUS
 10
5.5023506554
 20
5.1879016877
 11
5.5016388163
 21
5.1875329312
  0
LINE
  5
392
100
AcDbEntity
  8
0
100
AcDbLine
 62
7
  6
CONTINUOUS
 10
5.5023506554
 20
5.2223516877
 11
5.5016388163
 21
5.2219829312
  0
LINE
  5
393
100
AcDbEntity
  8
0
100
AcDbLine
 62
7
  6
CONTINUOUS
 10
5.5023506554
 20
5.2568016877
 11
5.5016388163
 21
5.2564329312
  0
LINE
  5
394
100
AcDbEntity
  8
0
100
AcDbLine
 62
7
  6
CONTINUOUS
 10
5.5023506554
 20
5.2912516877
 11
5.5016388163
 21
5.2908829312
  0
LINE
  5
395
100
AcDbEntity
  8
0
100
AcDbLine
 62
7
  6
CONTINUOUS
 10
5.5023506554
 20
5.3257016877
 11
5.5016388163
 21
5.3253329312
  0
LINE
  5
396
100
AcDbEntity
  8
0
100
AcDbLine
 62
7
  6
CONTINUOUS
 10
5.5023506554
 20
5.3601516877
 11
5.5016388163
 21
5.3597829312
  0
LINE
  5
397
100
AcDbEntity
  8
0
100
AcDbLine
 62
7
  6
CONTINUOUS
 10
5.5023506609
 20
4.6367016875
 11
5.5016390379
 21
4.6363329311
  0
SPLINE
  5
398
100
AcDbEntity
  8
0
100
AcDbSpline
 62
7
  6
CONTINUOUS
 70
0
 71
3
 72
63
 73
59
 74
0
 42
0.0000001
 43
0.0000001
 44
0.0000000001
 40
0.0
 40
0.0
 40
0.0
 40
0.0
 40
0.0010305488
 40
0.0023428763
 40
0.0039379092
 40
0.0058154627
 40
0.0079749741
 40
0.0104156864
 40
0.0161361879
 40
0.0229645197
 40
0.0308862536
 40
0.0398832882
 40
0.0499354205
 40
0.0610198261
 40
0.0731109087
 40
0.1002008843
 40
0.1309571577
 40
0.1650974078
 40
0.2023081681
 40
0.2422476303
 40
0.284548844
 40
0.3288231691
 40
0.3746637636
 40
0.4216493439
 40
0.4693481802
 40
0.5173217944
 40
0.5651293801
 40
0.6123315063
 40
0.6584944184
 40
0.7031939143
 40
0.7460192019
 40
0.7865768078
 40
0.8244940777
 40
0.8594226492
 40
0.8756647097
 40
0.8910418262
 40
0.9055184197
 40
0.9190613758
 40
0.9316397528
 40
0.9432244591
 40
0.9537894533
 40
0.9633100455
 40
0.9717652419
 40
0.979135424
 40
0.9854046854
 40
0.9905593093
 40
0.9927153186
 40
0.9945893618
 40
0.996180879
 40
0.9974896931
 40
0.9980383526
 40
0.9985168556
 40
0.9989256789
 40
0.9992656229
 40
0.9995381323
 40
0.9996499814
 40
0.9997463072
 40
1.0
 40
1.0
 40
1.0
 40
1.0
 10
5.5015297279
 20
5.0841556575
 30
0.0
 10
5.5013196525
 20
5.0841049398
 30
0.0
 10
5.5008375015
 20
5.0840088197
 30
0.0
 10
5.5000217229
 20
5.0838800842
 30
0.0
 10
5.4990265814
 20
5.0837506319
 30
0.0
 10
5.4978526392
 20
5.0836206148
 30
0.0
 10
5.4965004509
 20
5.083490252
 30
0.0
 10
5.4943439505
 20
5.0833062453
 30
0.0
 10
5.4912085239
 20
5.0830810552
 30
0.0
 10
5.4869235493
 20
5.0828215737
 30
0.0
 10
5.4819504284
 20
5.082561359
 30
0.0
 10
5.4763004972
 20
5.0823004953
 30
0.0
 10
5.4699867287
 20
5.082039244
 30
0.0
 10
5.463023638
 20
5.0817776782
 30
0.0
 10
5.4524889709
 20
5.0814147276
 30
0.0
 10
5.4378295563
 20
5.0809673354
 30
0.0
 10
5.4185465457
 20
5.0804471238
 30
0.0
 10
5.3971404921
 20
5.0799259494
 30
0.0
 10
5.3738081826
 20
5.0794040144
 30
0.0
 10
5.3487640959
 20
5.0788815729
 30
0.0
 10
5.3222384525
 20
5.0783587588
 30
0.0
 10
5.2944750911
 20
5.0778356799
 30
0.0
 10
5.2657292322
 20
5.0773124135
 30
0.0
 10
5.2362651241
 20
5.0767890218
 30
0.0
 10
5.206353644
 20
5.0762655566
 30
0.0
 10
5.1762697598
 20
5.0757420638
 30
0.0
 10
5.1462900535
 20
5.0752185875
 30
0.0
 10
5.1166901172
 20
5.0746951731
 30
0.0
 10
5.0877420634
 20
5.0741718703
 30
0.0
 10
5.0597120038
 20
5.0736487391
 30
0.0
 10
5.0328576107
 20
5.0731258497
 30
0.0
 10
5.0074257568
 20
5.0726033099
 30
0.0
 10
4.9836502431
 20
5.0720812161
 30
0.0
 10
4.9649733653
 20
5.071636625
 30
0.0
 10
4.9510225904
 20
5.0712781477
 30
0.0
 10
4.9413596439
 20
5.0710159251
 30
0.0
 10
4.9322629298
 20
5.0707537984
 30
0.0
 10
4.9237533799
 20
5.0704917853
 30
0.0
 10
4.9158505746
 20
5.0702299279
 30
0.0
 10
4.9085726246
 20
5.0699682479
 30
0.0
 10
4.901936346
 20
5.0697068428
 30
0.0
 10
4.8959568831
 20
5.0694457664
 30
0.0
 10
4.8906480749
 20
5.0691851873
 30
0.0
 10
4.8860219568
 20
5.0689253674
 30
0.0
 10
4.8820892038
 20
5.0686664987
 30
0.0
 10
4.8792501889
 20
5.0684411617
 30
0.0
 10
4.8773329802
 20
5.0682561509
 30
0.0
 10
4.8761612402
 20
5.0681261496
 30
0.0
 10
4.8751683846
 20
5.0679966175
 30
0.0
 10
4.8744537908
 20
5.0678838005
 30
0.0
 10
4.8739726964
 20
5.0677912955
 30
0.0
 10
4.8736786245
 20
5.067726173
 30
0.0
 10
4.8734295227
 20
5.067661335
 30
0.0
 10
4.8732251157
 20
5.0675965786
 30
0.0
 10
4.8730841626
 20
5.067540245
 30
0.0
 10
4.8729941827
 20
5.0674931655
 30
0.0
 10
4.8729141379
 20
5.0674428672
 30
0.0
 10
4.8728506554
 20
5.0673798883
 30
0.0
 10
4.8728506554
 20
5.0673266877
 30
0.0
  0
SPLINE
  5
399
100
AcDbEntity
  8
0
100
AcDbSpline
 62
7
  6
CONTINUOUS
 70
0
 71
3
 72
62
 73
58
 74
0
 42
0.0000001
 43
0.0000001
 44
0.0000000001
 40
0.0
 40
0.0
 40
0.0
 40
0.0
 40
0.0010965866
 40
0.0024737159
 40
0.0041322567
 40
0.0060719814
 40
0.010792313
 40
0.0166274279
 40
0.0235646922
 40
0.0315894004
 40
0.0406835806
 40
0.050826569
 40
0.0619958286
 40
0.0741653438
 40
0.1013932681
 40
0.1322617984
 40
0.1664886916
 40
0.2037608584
 40
0.2437372605
 40
0.2860519985
 40
0.3303177299
 40
0.3761292108
 40
0.4230668885
 40
0.4707010515
 40
0.5185955006
 40
0.5663117122
 40
0.6134128343
 40
0.6594674731
 40
0.7040540408
 40
0.7467642129
 40
0.7872070963
 40
0.8250125045
 40
0.8598344494
 40
0.8913544145
 40
0.9057846547
 40
0.9192841245
 40
0.9318214074
 40
0.9433685236
 40
0.9538986866
 40
0.96338827
 40
0.9718158545
 40
0.979162273
 40
0.9854119139
 40
0.9905508626
 40
0.9927009249
 40
0.994570198
 40
0.9961580697
 40
0.9974646179
 40
0.998012813
 40
0.9984913373
 40
0.9989007222
 40
0.9992418612
 40
0.9995163631
 40
0.999727429
 40
0.9998113511
 40
0.999882873
 40
1.0
 40
1.0
 40
1.0
 40
1.0
 10
5.4811097578
 20
5.0788621858
 30
0.0
 10
5.4809006111
 20
5.0788120714
 30
0.0
 10
5.4804246822
 20
5.0787164601
 30
0.0
 10
5.4796244567
 20
5.0785877311
 30
0.0
 10
5.4786571816
 20
5.0784583292
 30
0.0
 10
5.4770362269
 20
5.0782727901
 30
0.0
 10
5.4745957238
 20
5.0780477953
 30
0.0
 10
5.4711746153
 20
5.0777899418
 30
0.0
 10
5.4671039584
 20
5.0775309679
 30
0.0
 10
5.4623930948
 20
5.0772710803
 30
0.0
 10
5.4570527018
 20
5.0770106563
 30
0.0
 10
5.451094958
 20
5.0767498235
 30
0.0
 10
5.4445335581
 20
5.0764887111
 30
0.0
 10
5.4346228128
 20
5.0761265604
 30
0.0
 10
5.4208491467
 20
5.075680052
 30
0.0
 10
5.402749741
 20
5.0751607062
 30
0.0
 10
5.3826797164
 20
5.0746404221
 30
0.0
 10
5.3608228945
 20
5.0741193948
 30
0.0
 10
5.3373794464
 20
5.0735978718
 30
0.0
 10
5.3125640822
 20
5.0730759839
 30
0.0
 10
5.2866040839
 20
5.0725538368
 30
0.0
 10
5.2597372436
 20
5.0720315062
 30
0.0
 10
5.232209654
 20
5.0715090529
 30
0.0
 10
5.2042734736
 20
5.0709865279
 30
0.0
 10
5.176184578
 20
5.0704639769
 30
0.0
 10
5.1482002423
 20
5.0699414437
 30
0.0
 10
5.1205767998
 20
5.0694189734
 30
0.0
 10
5.0935672651
 20
5.0688966156
 30
0.0
 10
5.0674190631
 20
5.0683744284
 30
0.0
 10
5.0423716835
 20
5.0678524865
 30
0.0
 10
5.0186545475
 20
5.0673308807
 30
0.0
 10
4.9964848663
 20
5.066809764
 30
0.0
 10
4.9760656895
 20
5.0662892657
 30
0.0
 10
4.9602305504
 20
5.0658442614
 30
0.0
 10
4.9485765771
 20
5.0654847105
 30
0.0
 10
4.9406443297
 20
5.0652231763
 30
0.0
 10
4.933277856
 20
5.0649617801
 30
0.0
 10
4.9264941215
 20
5.0647005918
 30
0.0
 10
4.9203085855
 20
5.0644396436
 30
0.0
 10
4.9147354438
 20
5.0641790505
 30
0.0
 10
4.9097874466
 20
5.0639189378
 30
0.0
 10
4.9054758112
 20
5.0636595821
 30
0.0
 10
4.9018104576
 20
5.0634011985
 30
0.0
 10
4.8991645612
 20
5.0631762347
 30
0.0
 10
4.8973778712
 20
5.0629915688
 30
0.0
 10
4.8962857823
 20
5.0628618001
 30
0.0
 10
4.8953604329
 20
5.0627324906
 30
0.0
 10
4.894694524
 20
5.0626198811
 30
0.0
 10
4.8942462725
 20
5.0625275715
 30
0.0
 10
4.8939721572
 20
5.0624625862
 30
0.0
 10
4.8937399137
 20
5.0623977911
 30
0.0
 10
4.8935493218
 20
5.0623332849
 30
0.0
 10
4.893400302
 20
5.0622690268
 30
0.0
 10
4.8933033708
 20
5.0622122095
 30
0.0
 10
4.8932489082
 20
5.0621648012
 30
0.0
 10
4.8932145826
 20
5.0621238322
 30
0.0
 10
4.893200672
 20
5.0620867912
 30
0.0
 10
4.8932006846
 20
5.0620638198
 30
0.0
  0
SPLINE
  5
39A
100
AcDbEntity
  8
0
100
AcDbSpline
 62
7
  6
CONTINUOUS
 70
0
 71
3
 72
63
 73
59
 74
0
 42
0.0000001
 43
0.0000001
 44
0.0000000001
 40
0.0
 40
0.0
 40
0.0
 40
0.0
 40
0.0010305416
 40
0.0023428619
 40
0.0039378877
 40
0.0058154343
 40
0.0079749388
 40
0.0104156446
 40
0.0161361336
 40
0.0229644536
 40
0.0308861761
 40
0.0398832001
 40
0.0499353226
 40
0.0610197192
 40
0.0731107932
 40
0.1002007531
 40
0.1309570125
 40
0.1650972518
 40
0.2023080047
 40
0.2422474627
 40
0.2845486779
 40
0.3288230064
 40
0.3746636042
 40
0.4216491935
 40
0.4693480336
 40
0.5173216559
 40
0.5651292498
 40
0.6123313846
 40
0.6584943065
 40
0.7031938133
 40
0.7460191116
 40
0.7865767278
 40
0.8244940104
 40
0.8594225918
 40
0.8756646579
 40
0.8910417806
 40
0.9055183797
 40
0.9190613411
 40
0.9316397229
 40
0.9432244345
 40
0.9537894337
 40
0.96331003
 40
0.9717652302
 40
0.9791354155
 40
0.9854046798
 40
0.990559306
 40
0.9927153161
 40
0.9945893599
 40
0.9961808777
 40
0.9974896922
 40
0.9980383519
 40
0.998516855
 40
0.9989256785
 40
0.9992656227
 40
0.9995381321
 40
0.9996499813
 40
0.9997463071
 40
1.0
 40
1.0
 40
1.0
 40
1.0
 10
5.5015297422
 20
5.1186056609
 30
0.0
 10
5.5013196684
 20
5.1185549432
 30
0.0
 10
5.5008375205
 20
5.1184588231
 30
0.0
 10
5.5000217463
 20
5.1183300875
 30
0.0
 10
5.4990266094
 20
5.1182006353
 30
0.0
 10
5.4978526715
 20
5.1180706181
 30
0.0
 10
5.4965004875
 20
5.1179402553
 30
0.0
 10
5.4943439925
 20
5.1177562485
 30
0.0
 10
5.4912085723
 20
5.1175310583
 30
0.0
 10
5.4869236051
 20
5.1172715768
 30
0.0
 10
5.4819504912
 20
5.1170113621
 30
0.0
 10
5.4763005665
 20
5.1167504983
 30
0.0
 10
5.469986804
 20
5.116489247
 30
0.0
 10
5.463023719
 20
5.1162276811
 30
0.0
 10
5.4524890586
 20
5.1158647305
 30
0.0
 10
5.4378296517
 20
5.1154173382
 30
0.0
 10
5.4185466492
 20
5.1148971264
 30
0.0
 10
5.3971406018
 20
5.114375952
 30
0.0
 10
5.3738082964
 20
5.1138540169
 30
0.0
 10
5.3487642113
 20
5.1133315752
 30
0.0
 10
5.3222385672
 20
5.112808761
 30
0.0
 10
5.2944752034
 20
5.1122856819
 30
0.0
 10
5.2657293405
 20
5.1117624155
 30
0.0
 10
5.2362652283
 20
5.1112390237
 30
0.0
 10
5.2063537431
 20
5.1107155584
 30
0.0
 10
5.176269854
 20
5.1101920654
 30
0.0
 10
5.1462901418
 20
5.109668589
 30
0.0
 10
5.1166901992
 20
5.1091451745
 30
0.0
 10
5.0877421386
 20
5.1086218717
 30
0.0
 10
5.0597120717
 20
5.1080987404
 30
0.0
 10
5.0328576713
 20
5.1075758509
 30
0.0
 10
5.0074258098
 20
5.107053311
 30
0.0
 10
4.9836502886
 20
5.1065312171
 30
0.0
 10
4.9649734044
 20
5.106086626
 30
0.0
 10
4.9510226247
 20
5.1057281486
 30
0.0
 10
4.9413596743
 20
5.105465926
 30
0.0
 10
4.9322629564
 20
5.1052037992
 30
0.0
 10
4.923753403
 20
5.1049417861
 30
0.0
 10
4.9158505943
 20
5.1046799286
 30
0.0
 10
4.908572641
 20
5.1044182485
 30
0.0
 10
4.9019363592
 20
5.1041568433
 30
0.0
 10
4.8959568934
 20
5.1038957669
 30
0.0
 10
4.8906480828
 20
5.1036351877
 30
0.0
 10
4.8860219625
 20
5.1033753677
 30
0.0
 10
4.8820892077
 20
5.1031164989
 30
0.0
 10
4.8792501915
 20
5.1028911619
 30
0.0
 10
4.8773329819
 20
5.1027061511
 30
0.0
 10
4.8761612415
 20
5.1025761498
 30
0.0
 10
4.8751683855
 20
5.1024466176
 30
0.0
 10
4.8744537915
 20
5.1023338006
 30
0.0
 10
4.8739726969
 20
5.1022412956
 30
0.0
 10
4.8736786249
 20
5.1021761731
 30
0.0
 10
4.8734295229
 20
5.1021113351
 30
0.0
 10
4.8732251159
 20
5.1020465786
 30
0.0
 10
4.8730841627
 20
5.101990245
 30
0.0
 10
4.8729941827
 20
5.1019431655
 30
0.0
 10
4.8729141379
 20
5.1018928672
 30
0.0
 10
4.8728506554
 20
5.1018298883
 30
0.0
 10
4.8728506554
 20
5.1017766877
 30
0.0
  0
SPLINE
  5
39B
100
AcDbEntity
  8
0
100
AcDbSpline
 62
7
  6
CONTINUOUS
 70
0
 71
3
 72
62
 73
58
 74
0
 42
0.0000001
 43
0.0000001
 44
0.0000000001
 40
0.0
 40
0.0
 40
0.0
 40
0.0
 40
0.0011155702
 40
0.0025112614
 40
0.0041879528
 40
0.0061457641
 40
0.01090149
 40
0.0167698863
 40
0.0237394825
 40
0.0317944185
 40
0.0409174141
 40
0.0510874682
 40
0.0622817361
 40
0.0744748853
 40
0.1017440382
 40
0.1326462569
 40
0.1668993948
 40
0.2041905477
 40
0.2441787799
 40
0.2864985507
 40
0.3307627118
 40
0.3765665082
 40
0.4234910152
 40
0.471107031
 40
0.5189791153
 40
0.5666693083
 40
0.6137414361
 40
0.6597649419
 40
0.704318897
 40
0.7469958809
 40
0.7874056214
 40
0.8251785882
 40
0.8599694746
 40
0.8914602599
 40
0.905877047
 40
0.919363477
 40
0.9318890031
 40
0.9434246087
 40
0.9539446946
 40
0.9634247696
 40
0.9718439963
 40
0.9791832122
 40
0.9854263274
 40
0.9905604351
 40
0.9927081905
 40
0.9945754032
 40
0.9961617188
 40
0.9974671962
 40
0.9980149008
 40
0.9984929248
 40
0.9989018301
 40
0.9992425437
 40
0.9995167073
 40
0.9997275515
 40
0.9998114117
 40
0.9998829017
 40
1.0
 40
1.0
 40
1.0
 40
1.0
 10
5.4810712924
 20
5.1133030666
 30
0.0
 10
5.4808582977
 20
5.1132531069
 30
0.0
 10
5.4803748807
 20
5.1131576477
 30
0.0
 10
5.4795636509
 20
5.113028917
 30
0.0
 10
5.4785856031
 20
5.1128995277
 30
0.0
 10
5.4769505988
 20
5.1127141881
 30
0.0
 10
5.4744931687
 20
5.1124893366
 30
0.0
 10
5.4710524244
 20
5.1122315267
 30
0.0
 10
5.4669632019
 20
5.1119726906
 30
0.0
 10
5.4622347048
 20
5.111712897
 30
0.0
 10
5.4568777588
 20
5.1114526075
 30
0.0
 10
5.4509045325
 20
5.1111919067
 30
0.0
 10
5.4443287111
 20
5.1109309168
 30
0.0
 10
5.4344009878
 20
5.1105690205
 30
0.0
 10
5.4206089046
 20
5.1101227643
 30
0.0
 10
5.4024908632
 20
5.1096036802
 30
0.0
 10
5.3824067007
 20
5.109083661
 30
0.0
 10
5.3605401501
 20
5.108562905
 30
0.0
 10
5.3370912417
 20
5.1080416566
 30
0.0
 10
5.3122745421
 20
5.1075200457
 30
0.0
 10
5.2863171134
 20
5.1069981764
 30
0.0
 10
5.2594564743
 20
5.1064761247
 30
0.0
 10
5.2319383821
 20
5.1059539512
 30
0.0
 10
5.2040146059
 20
5.1054317068
 30
0.0
 10
5.175940645
 20
5.1049094371
 30
0.0
 10
5.1479733644
 20
5.1043871855
 30
0.0
 10
5.1203686726
 20
5.1038649967
 30
0.0
 10
5.0933791408
 20
5.1033429204
 30
0.0
 10
5.0672517064
 20
5.102821015
 30
0.0
 10
5.0422254147
 20
5.1022993549
 30
0.0
 10
5.0185292438
 20
5.1017780317
 30
0.0
 10
4.9963800062
 20
5.1012571963
 30
0.0
 10
4.9759803779
 20
5.1007369821
 30
0.0
 10
4.9601607558
 20
5.1002922084
 30
0.0
 10
4.9485184842
 20
5.0999328604
 30
0.0
 10
4.940594272
 20
5.0996714541
 30
0.0
 10
4.9332354135
 20
5.0994102183
 30
0.0
 10
4.9264586754
 20
5.0991491519
 30
0.0
 10
4.9202796533
 20
5.0988883624
 30
0.0
 10
4.914712367
 20
5.0986279014
 30
0.0
 10
4.9097696196
 20
5.0983679256
 30
0.0
 10
4.9054626044
 20
5.0981087311
 30
0.0
 10
4.9018011424
 20
5.0978504501
 30
0.0
 10
4.8991581027
 20
5.0976256476
 30
0.0
 10
4.8973733405
 20
5.097441068
 30
0.0
 10
4.8962824887
 20
5.0973113599
 30
0.0
 10
4.8953581223
 20
5.0971821144
 30
0.0
 10
4.8946928665
 20
5.0970695827
 30
0.0
 10
4.8942450484
 20
5.0969773247
 30
0.0
 10
4.8939712407
 20
5.0969123738
 30
0.0
 10
4.8937392906
 20
5.0968476124
 30
0.0
 10
4.8935489596
 20
5.0967831383
 30
0.0
 10
4.8934001482
 20
5.0967189108
 30
0.0
 10
4.893303353
 20
5.0966621203
 30
0.0
 10
4.8932489539
 20
5.0966147418
 30
0.0
 10
4.8932146485
 20
5.0965737931
 30
0.0
 10
4.8932007183
 20
5.0965367842
 30
0.0
 10
4.8932007047
 20
5.09651382
 30
0.0
  0
SPLINE
  5
39C
100
AcDbEntity
  8
0
100
AcDbSpline
 62
7
  6
CONTINUOUS
 70
0
 71
3
 72
15
 73
11
 74
0
 42
0.0000001
 43
0.0000001
 44
0.0000000001
 40
0.0
 40
0.0
 40
0.0
 40
0.0
 40
0.1263435934
 40
0.2515279161
 40
0.375950737
 40
0.4999999994
 40
0.6240492617
 40
0.7484720825
 40
0.8736564059
 40
1.0
 40
1.0
 40
1.0
 40
1.0
 10
5.6658261854
 20
5.5228860624
 30
0.0
 10
5.6601414203
 20
5.5243756058
 30
0.0
 10
5.6487225038
 20
5.5269679272
 30
0.0
 10
5.6314422522
 20
5.5297210231
 30
0.0
 10
5.6141277765
 20
5.5313595456
 30
0.0
 10
5.5967976587
 20
5.5318998334
 30
0.0
 10
5.5794675408
 20
5.5313595462
 30
0.0
 10
5.5621530651
 20
5.529721024
 30
0.0
 10
5.5448728135
 20
5.5269679277
 30
0.0
 10
5.533453897
 20
5.5243756059
 30
0.0
 10
5.5277691319
 20
5.5228860624
 30
0.0
  0
SPLINE
  5
39D
100
AcDbEntity
  8
0
100
AcDbSpline
 62
7
  6
CONTINUOUS
 70
0
 71
3
 72
15
 73
11
 74
0
 42
0.0000001
 43
0.0000001
 44
0.0000000001
 40
0.0
 40
0.0
 40
0.0
 40
0.0
 40
0.1263435933
 40
0.251527916
 40
0.3759507368
 40
0.4999999993
 40
0.6240492615
 40
0.7484720824
 40
0.8736564059
 40
1.0
 40
1.0
 40
1.0
 40
1.0
 10
5.5277691319
 20
5.4271915774
 30
0.0
 10
5.533453897
 20
5.4257020339
 30
0.0
 10
5.5448728135
 20
5.4231097126
 30
0.0
 10
5.5621530651
 20
5.4203566168
 30
0.0
 10
5.5794675408
 20
5.4187180942
 30
0.0
 10
5.5967976586
 20
5.4181778064
 30
0.0
 10
5.6141277765
 20
5.4187180935
 30
0.0
 10
5.6314422522
 20
5.4203566158
 30
0.0
 10
5.6487225039
 20
5.4231097121
 30
0.0
 10
5.6601414203
 20
5.4257020339
 30
0.0
 10
5.6658261854
 20
5.4271915774
 30
0.0
  0
SPLINE
  5
39E
100
AcDbEntity
  8
0
100
AcDbSpline
 62
7
  6
CONTINUOUS
 70
0
 71
3
 72
11
 73
7
 74
0
 42
0.0000001
 43
0.0000001
 44
0.0000000001
 40
0.0
 40
0.0
 40
0.0
 40
0.0
 40
0.2499984128
 40
0.4999999996
 40
0.7500015865
 40
1.0
 40
1.0
 40
1.0
 40
1.0
 10
5.3256577088
 20
5.5228860624
 30
0.0
 10
5.3027846255
 20
5.5258827079
 30
0.0
 10
5.2568165437
 20
5.5302830198
 30
0.0
 10
5.1876006555
 20
5.5324383716
 30
0.0
 10
5.1183847671
 20
5.5302830213
 30
0.0
 10
5.0724166853
 20
5.525882708
 30
0.0
 10
5.0495436019
 20
5.5228860624
 30
0.0
  0
SPLINE
  5
39F
100
AcDbEntity
  8
0
100
AcDbSpline
 62
7
  6
CONTINUOUS
 70
0
 71
3
 72
11
 73
7
 74
0
 42
0.0000001
 43
0.0000001
 44
0.0000000001
 40
0.0
 40
0.0
 40
0.0
 40
0.0
 40
0.249998413
 40
0.4999999998
 40
0.7500015866
 40
1.0
 40
1.0
 40
1.0
 40
1.0
 10
5.0495436019
 20
5.4271915774
 30
0.0
 10
5.0724166853
 20
5.4241949319
 30
0.0
 10
5.1183847671
 20
5.4197946198
 30
0.0
 10
5.1876006553
 20
5.4176392682
 30
0.0
 10
5.2568165437
 20
5.4197946185
 30
0.0
 10
5.3027846254
 20
5.4241949317
 30
0.0
 10
5.3256577088
 20
5.4271915774
 30
0.0
  0
LINE
  5
3A0
100
AcDbEntity
  8
0
100
AcDbLine
 62
7
  6
CONTINUOUS
 10
5.6645853845
 20
5.5313554467
 11
5.6612172093
 21
5.5319777387
  0
SPLINE
  5
3A1
100
AcDbEntity
  8
0
100
AcDbSpline
 62
7
  6
CONTINUOUS
 70
0
 71
3
 72
15
 73
11
 74
0
 42
0.0000001
 43
0.0000001
 44
0.0000000001
 40
0.0
 40
0.0
 40
0.0
 40
0.0
 40
0.1266959083
 40
0.2521264762
 40
0.3766975122
 40
0.5007912727
 40
0.6247777725
 40
0.7490341043
 40
0.8739627105
 40
1.0
 40
1.0
 40
1.0
 40
1.0
 10
5.6612172093
 20
5.5319777387
 30
0.0
 10
5.6554676958
 20
5.5334885234
 30
0.0
 10
5.6439232152
 20
5.5361179414
 30
0.0
 10
5.6264590652
 20
5.5389144804
 30
0.0
 10
5.6089730344
 20
5.5405769267
 30
0.0
 10
5.5914850335
 20
5.5411287018
 30
0.0
 10
5.5740117466
 20
5.5405778652
 30
0.0
 10
5.5565690993
 20
5.5389161611
 30
0.0
 10
5.539174861
 20
5.5361200173
 30
0.0
 10
5.5276863994
 20
5.5334892591
 30
0.0
 10
5.5219690382
 20
5.5319777387
 30
0.0
  0
SPLINE
  5
3A2
100
AcDbEntity
  8
0
100
AcDbSpline
 62
7
  6
CONTINUOUS
 70
0
 71
3
 72
11
 73
7
 74
0
 42
0.0000001
 43
0.0000001
 44
0.0000000001
 40
0.0
 40
0.0
 40
0.0
 40
0.0
 40
0.2153190323
 40
0.4540964497
 40
0.7159652049
 40
1.0
 40
1.0
 40
1.0
 40
1.0
 10
5.5219690382
 20
5.5319777387
 30
0.0
 10
5.5215607849
 20
5.5318698079
 30
0.0
 10
5.5206886438
 20
5.531683601
 30
0.0
 10
5.519296544
 20
5.5314929454
 30
0.0
 10
5.5177610489
 20
5.5313787976
 30
0.0
 10
5.5166902068
 20
5.5313554472
 30
0.0
 10
5.5161331636
 20
5.5313554467
 30
0.0
  0
SPLINE
  5
3A3
100
AcDbEntity
  8
0
100
AcDbSpline
 62
7
  6
CONTINUOUS
 70
0
 71
3
 72
9
 73
5
 74
0
 42
0.0000001
 43
0.0000001
 44
0.0000000001
 40
0.0
 40
0.0
 40
0.0
 40
0.0
 40
0.4939744786
 40
1.0
 40
1.0
 40
1.0
 40
1.0
 10
5.3360528763
 20
5.5313554467
 30
0.0
 10
5.3345330878
 20
5.5313554474
 30
0.0
 10
5.3314557373
 20
5.5314658536
 30
0.0
 10
5.3283923465
 20
5.5317743286
 30
0.0
 10
5.3268488265
 20
5.5319777387
 30
0.0
  0
SPLINE
  5
3A4
100
AcDbEntity
  8
0
100
AcDbSpline
 62
7
  6
CONTINUOUS
 70
0
 71
3
 72
15
 73
11
 74
0
 42
0.0000001
 43
0.0000001
 44
0.0000000001
 40
0.0
 40
0.0
 40
0.0
 40
0.0
 40
0.1249995723
 40
0.2500000694
 40
0.374999827
 40
0.4999999998
 40
0.6250001724
 40
0.7499999298
 40
0.8750004271
 40
1.0
 40
1.0
 40
1.0
 40
1.0
 10
5.3268488265
 20
5.5319777387
 30
0.0
 10
5.3153128092
 20
5.533498002
 30
0.0
 10
5.2921855511
 20
5.536134338
 30
0.0
 10
5.2573836535
 20
5.5389217409
 30
0.0
 10
5.2225095008
 20
5.5405786707
 30
0.0
 10
5.1876006554
 20
5.5411283412
 30
0.0
 10
5.1526918101
 20
5.5405786711
 30
0.0
 10
5.1178176575
 20
5.5389217405
 30
0.0
 10
5.0830157598
 20
5.5361343383
 30
0.0
 10
5.0598885016
 20
5.5334980021
 30
0.0
 10
5.0483524843
 20
5.5319777387
 30
0.0
  0
SPLINE
  5
3A5
100
AcDbEntity
  8
0
100
AcDbSpline
 62
7
  6
CONTINUOUS
 70
0
 71
3
 72
9
 73
5
 74
0
 42
0.0000001
 43
0.0000001
 44
0.0000000001
 40
0.0
 40
0.0
 40
0.0
 40
0.0
 40
0.5060257174
 40
1.0
 40
1.0
 40
1.0
 40
1.0
 10
5.0483524843
 20
5.5319777387
 30
0.0
 10
5.0468089637
 20
5.5317743281
 30
0.0
 10
5.0437455728
 20
5.5314658535
 30
0.0
 10
5.0406682223
 20
5.5313554478
 30
0.0
 10
5.0391484345
 20
5.5313554467
 30
0.0
  0
SPLINE
  5
3A6
100
AcDbEntity
  8
0
100
AcDbSpline
 62
7
  6
CONTINUOUS
 70
0
 71
3
 72
11
 73
7
 74
0
 42
0.0000001
 43
0.0000001
 44
0.0000000001
 40
0.0
 40
0.0
 40
0.0
 40
0.0
 40
0.2840348962
 40
0.5459037438
 40
0.7846810235
 40
1.0
 40
1.0
 40
1.0
 40
1.0
 10
4.8590681471
 20
5.5313554467
 30
0.0
 10
4.8585111037
 20
5.531355447
 30
0.0
 10
4.8574402612
 20
5.5313787976
 30
0.0
 10
4.855904766
 20
5.5314929455
 30
0.0
 10
4.8545126664
 20
5.5316836011
 30
0.0
 10
4.8536405258
 20
5.5318698083
 30
0.0
 10
4.8532322725
 20
5.5319777387
 30
0.0
  0
SPLINE
  5
3A7
100
AcDbEntity
  8
0
100
AcDbSpline
 62
7
  6
CONTINUOUS
 70
0
 71
3
 72
15
 73
11
 74
0
 42
0.0000001
 43
0.0000001
 44
0.0000000001
 40
0.0
 40
0.0
 40
0.0
 40
0.0
 40
0.1260372905
 40
0.2509658917
 40
0.37522223
 40
0.4992087274
 40
0.6233024843
 40
0.7478735258
 40
0.8733040891
 40
1.0
 40
1.0
 40
1.0
 40
1.0
 10
4.8532322725
 20
5.5319777387
 30
0.0
 10
4.8475149113
 20
5.5334892591
 30
0.0
 10
4.8360264498
 20
5.5361200168
 30
0.0
 10
4.8186322115
 20
5.5389161618
 30
0.0
 10
4.8011895642
 20
5.5405778647
 30
0.0
 10
4.7837162773
 20
5.5411287018
 30
0.0
 10
4.7662282764
 20
5.540576927
 30
0.0
 10
4.7487422458
 20
5.5389144801
 30
0.0
 10
4.7312780956
 20
5.5361179416
 30
0.0
 10
4.719733615
 20
5.5334885235
 30
0.0
 10
4.7139841014
 20
5.5319777387
 30
0.0
  0
LINE
  5
3A8
100
AcDbEntity
  8
0
100
AcDbLine
 62
7
  6
CONTINUOUS
 10
4.7139841014
 20
5.5319777387
 11
4.7106159262
 21
5.5313554467
  0
LINE
  5
3A9
100
AcDbEntity
  8
0
100
AcDbLine
 62
7
  6
CONTINUOUS
 10
4.7106159262
 20
5.4187221931
 11
4.7139841014
 21
5.418099901
  0
SPLINE
  5
3AA
100
AcDbEntity
  8
0
100
AcDbSpline
 62
7
  6
CONTINUOUS
 70
0
 71
3
 72
15
 73
11
 74
0
 42
0.0000001
 43
0.0000001
 44
0.0000000001
 40
0.0
 40
0.0
 40
0.0
 40
0.0
 40
0.1266959089
 40
0.2521264744
 40
0.3766975148
 40
0.5007912725
 40
0.6247777703
 40
0.7490341068
 40
0.8739627102
 40
1.0
 40
1.0
 40
1.0
 40
1.0
 10
4.7139841014
 20
5.418099901
 30
0.0
 10
4.719733615
 20
5.4165891163
 30
0.0
 10
4.7312780955
 20
5.4139596983
 30
0.0
 10
4.7487422457
 20
5.4111631595
 30
0.0
 10
4.7662282763
 20
5.4095007128
 30
0.0
 10
4.7837162773
 20
5.4089489379
 30
0.0
 10
4.8011895641
 20
5.409499775
 30
0.0
 10
4.8186322115
 20
5.4111614782
 30
0.0
 10
4.8360264498
 20
5.4139576227
 30
0.0
 10
4.8475149114
 20
5.4165883806
 30
0.0
 10
4.8532322725
 20
5.418099901
 30
0.0
  0
SPLINE
  5
3AB
100
AcDbEntity
  8
0
100
AcDbSpline
 62
7
  6
CONTINUOUS
 70
0
 71
3
 72
63
 73
59
 74
0
 42
0.0000001
 43
0.0000001
 44
0.0000000001
 40
0.0
 40
0.0
 40
0.0
 40
0.0
 40
0.0001173783
 40
0.0001890885
 40
0.0002732401
 40
0.0004849024
 40
0.0007602143
 40
0.0011024166
 40
0.0015131585
 40
0.0019933734
 40
0.0025436046
 40
0.0038550637
 40
0.0054486324
 40
0.007324414
 40
0.0094820986
 40
0.0146399094
 40
0.0209116426
 40
0.0282845028
 40
0.0367419359
 40
0.0462649208
 40
0.0568321703
 40
0.0684190743
 40
0.0809997858
 40
0.0945448902
 40
0.1090238202
 40
0.1406474192
 40
0.1755803727
 40
0.2135019159
 40
0.2540636226
 40
0.2968927044
 40
0.3415955956
 40
0.3877614218
 40
0.4349658676
 40
0.4827751128
 40
0.5307495818
 40
0.5784483934
 40
0.6254329928
 40
0.6712715996
 40
0.7155429079
 40
0.7578399924
 40
0.7977742161
 40
0.8349784928
 40
0.8691111207
 40
0.8998586709
 40
0.9269390564
 40
0.9390253122
 40
0.9501042092
 40
0.9601509919
 40
0.9691425031
 40
0.977058471
 40
0.9838814869
 40
0.9895961927
 40
0.992034456
 40
0.994191681
 40
0.9960668431
 40
0.9976595952
 40
0.9989702527
 40
1.0
 40
1.0
 40
1.0
 40
1.0
 10
5.4820005789
 20
5.1349388198
 30
0.0
 10
5.4820005658
 20
5.1349157938
 30
0.0
 10
5.4819865582
 20
5.1348786797
 30
0.0
 10
5.481952095
 20
5.134837642
 30
0.0
 10
5.481897427
 20
5.1347901404
 30
0.0
 10
5.4818001594
 20
5.1347332122
 30
0.0
 10
5.4816506254
 20
5.1346688281
 30
0.0
 10
5.4814593582
 20
5.1346041962
 30
0.0
 10
5.4812262554
 20
5.134539275
 30
0.0
 10
5.4809510785
 20
5.1344741653
 30
0.0
 10
5.4805010261
 20
5.1343816817
 30
0.0
 10
5.4798324798
 20
5.1342688695
 30
0.0
 10
5.4789035609
 20
5.1341393028
 30
0.0
 10
5.4778073332
 20
5.1340092721
 30
0.0
 10
5.476013762
 20
5.1338242396
 30
0.0
 10
5.4733577269
 20
5.1335988831
 30
0.0
 10
5.4696783171
 20
5.1333399553
 30
0.0
 10
5.4653503178
 20
5.1330801281
 30
0.0
 10
5.4603835959
 20
5.132819501
 30
0.0
 10
5.454789498
 20
5.1325584017
 30
0.0
 10
5.4485809159
 20
5.1322969633
 30
0.0
 10
5.4417720331
 20
5.1320352508
 30
0.0
 10
5.4343786
 20
5.1317733704
 30
0.0
 10
5.4264175191
 20
5.131511314
 30
0.0
 10
5.4147220513
 20
5.1311510917
 30
0.0
 10
5.3988316397
 20
5.1307052292
 30
0.0
 10
5.3783429135
 20
5.1301837318
 30
0.0
 10
5.3561003044
 20
5.1296616116
 30
0.0
 10
5.3323083376
 20
5.1291390032
 30
0.0
 10
5.3071857872
 20
5.1286160575
 30
0.0
 10
5.2809636618
 20
5.1280928665
 30
0.0
 10
5.2538830653
 20
5.127569505
 30
0.0
 10
5.2261929906
 20
5.1270460316
 30
0.0
 10
5.1981480554
 20
5.1265224966
 30
0.0
 10
5.1700061246
 20
5.1259989451
 30
0.0
 10
5.1420259911
 20
5.1254754212
 30
0.0
 10
5.1144649198
 20
5.1249519709
 30
0.0
 10
5.0875763389
 20
5.124428646
 30
0.0
 10
5.0616074775
 20
5.123905509
 30
0.0
 10
5.0367971106
 20
5.123382637
 30
0.0
 10
5.0133733896
 20
5.1228601385
 30
0.0
 10
4.9915516922
 20
5.1223381468
 30
0.0
 10
4.9715326668
 20
5.1218169148
 30
0.0
 10
4.9535003471
 20
5.1212966507
 30
0.0
 10
4.9397926062
 20
5.1208491926
 30
0.0
 10
4.9299426688
 20
5.1204862104
 30
0.0
 10
4.9234327619
 20
5.1202246038
 30
0.0
 10
4.9175304669
 20
5.1199633288
 30
0.0
 10
4.9122492932
 20
5.1197024432
 30
0.0
 10
4.907601342
 20
5.1194421815
 30
0.0
 10
4.9035973101
 20
5.1191827144
 30
0.0
 10
4.9006680029
 20
5.1189574562
 30
0.0
 10
4.8986538197
 20
5.1187734253
 30
0.0
 10
4.8973911523
 20
5.1186430532
 30
0.0
 10
4.8962953175
 20
5.1185130169
 30
0.0
 10
4.8953667807
 20
5.1183835325
 30
0.0
 10
4.894605954
 20
5.1182547803
 30
0.0
 10
4.8941566536
 20
5.1181586739
 30
0.0
 10
4.8939611135
 20
5.1181079805
 30
0.0
  0
SPLINE
  5
3AC
100
AcDbEntity
  8
0
100
AcDbSpline
 62
7
  6
CONTINUOUS
 70
0
 71
3
 72
11
 73
7
 74
0
 42
0.0000001
 43
0.0000001
 44
0.0000000001
 40
0.0
 40
0.0
 40
0.0
 40
0.0
 40
0.2153190323
 40
0.4540964497
 40
0.7159652049
 40
1.0
 40
1.0
 40
1.0
 40
1.0
 10
4.8532322725
 20
5.418099901
 30
0.0
 10
4.8536405258
 20
5.4182078318
 30
0.0
 10
4.8545126669
 20
5.4183940387
 30
0.0
 10
4.8559047667
 20
5.4185846943
 30
0.0
 10
4.8574402618
 20
5.4186988421
 30
0.0
 10
4.8585111039
 20
5.4187221925
 30
0.0
 10
4.8590681471
 20
5.4187221931
 30
0.0
  0
SPLINE
  5
3AD
100
AcDbEntity
  8
0
100
AcDbSpline
 62
7
  6
CONTINUOUS
 70
0
 71
3
 72
9
 73
5
 74
0
 42
0.0000001
 43
0.0000001
 44
0.0000000001
 40
0.0
 40
0.0
 40
0.0
 40
0.0
 40
0.4939744786
 40
1.0
 40
1.0
 40
1.0
 40
1.0
 10
5.0391484345
 20
5.4187221931
 30
0.0
 10
5.0406682229
 20
5.4187221924
 30
0.0
 10
5.0437455735
 20
5.4186117862
 30
0.0
 10
5.0468089643
 20
5.4183033111
 30
0.0
 10
5.0483524843
 20
5.418099901
 30
0.0
  0
SPLINE
  5
3AE
100
AcDbEntity
  8
0
100
AcDbSpline
 62
7
  6
CONTINUOUS
 70
0
 71
3
 72
15
 73
11
 74
0
 42
0.0000001
 43
0.0000001
 44
0.0000000001
 40
0.0
 40
0.0
 40
0.0
 40
0.0
 40
0.1249995724
 40
0.2500000696
 40
0.3749998273
 40
0.5000000001
 40
0.6250001728
 40
0.74999993
 40
0.8750004272
 40
1.0
 40
1.0
 40
1.0
 40
1.0
 10
5.0483524843
 20
5.418099901
 30
0.0
 10
5.0598885015
 20
5.4165796377
 30
0.0
 10
5.0830157597
 20
5.4139433016
 30
0.0
 10
5.1178176574
 20
5.4111558991
 30
0.0
 10
5.1526918101
 20
5.4094989688
 30
0.0
 10
5.1876006554
 20
5.4089492985
 30
0.0
 10
5.2225095007
 20
5.409498969
 30
0.0
 10
5.2573836533
 20
5.4111558989
 30
0.0
 10
5.292185551
 20
5.4139433016
 30
0.0
 10
5.3153128092
 20
5.4165796377
 30
0.0
 10
5.3268488265
 20
5.418099901
 30
0.0
  0
SPLINE
  5
3AF
100
AcDbEntity
  8
0
100
AcDbSpline
 62
7
  6
CONTINUOUS
 70
0
 71
3
 72
9
 73
5
 74
0
 42
0.0000001
 43
0.0000001
 44
0.0000000001
 40
0.0
 40
0.0
 40
0.0
 40
0.0
 40
0.5060257174
 40
1.0
 40
1.0
 40
1.0
 40
1.0
 10
5.3268488265
 20
5.418099901
 30
0.0
 10
5.328392347
 20
5.4183033117
 30
0.0
 10
5.3314557379
 20
5.4186117863
 30
0.0
 10
5.3345330884
 20
5.4187221919
 30
0.0
 10
5.3360528763
 20
5.4187221931
 30
0.0
  0
SPLINE
  5
3B0
100
AcDbEntity
  8
0
100
AcDbSpline
 62
7
  6
CONTINUOUS
 70
0
 71
3
 72
11
 73
7
 74
0
 42
0.0000001
 43
0.0000001
 44
0.0000000001
 40
0.0
 40
0.0
 40
0.0
 40
0.0
 40
0.2840348962
 40
0.5459037438
 40
0.7846810235
 40
1.0
 40
1.0
 40
1.0
 40
1.0
 10
5.5161331636
 20
5.4187221931
 30
0.0
 10
5.516690207
 20
5.4187221927
 30
0.0
 10
5.5177610495
 20
5.4186988421
 30
0.0
 10
5.5192965447
 20
5.4185846942
 30
0.0
 10
5.5206886443
 20
5.4183940386
 30
0.0
 10
5.521560785
 20
5.4182078315
 30
0.0
 10
5.5219690382
 20
5.418099901
 30
0.0
  0
SPLINE
  5
3B1
100
AcDbEntity
  8
0
100
AcDbSpline
 62
7
  6
CONTINUOUS
 70
0
 71
3
 72
63
 73
59
 74
0
 42
0.0000001
 43
0.0000001
 44
0.0000000001
 40
0.0
 40
0.0
 40
0.0
 40
0.0
 40
0.0001173577
 40
0.0001890682
 40
0.0002732342
 40
0.0004849629
 40
0.0007603693
 40
0.0011026616
 40
0.0015134548
 40
0.0019936488
 40
0.0025437811
 40
0.0038550303
 40
0.0054486605
 40
0.0073246408
 40
0.0094823972
 40
0.0146398611
 40
0.0209118992
 40
0.0282845071
 40
0.0367420936
 40
0.0462650899
 40
0.0568321985
 40
0.0684193219
 40
0.0809997444
 40
0.0945451383
 40
0.1090238523
 40
0.1406475399
 40
0.1755806031
 40
0.2135021162
 40
0.2540637419
 40
0.2968927915
 40
0.3415956323
 40
0.3877615145
 40
0.4349659917
 40
0.482775218
 40
0.5307496955
 40
0.5784484556
 40
0.6254331046
 40
0.6712717559
 40
0.715543064
 40
0.7578401399
 40
0.7977742273
 40
0.8349784848
 40
0.8691111427
 40
0.8998587832
 40
0.926939297
 40
0.9390252615
 40
0.9501044596
 40
0.9601509893
 40
0.9691426713
 40
0.9770586049
 40
0.9838814974
 40
0.9895964336
 40
0.9920345083
 40
0.9941916116
 40
0.996066931
 40
0.9976598771
 40
0.9989704464
 40
1.0
 40
1.0
 40
1.0
 40
1.0
 10
5.4820006459
 20
5.1693888199
 30
0.0
 10
5.4820006544
 20
5.169365798
 30
0.0
 10
5.4819866653
 20
5.1693286739
 30
0.0
 10
5.4819521991
 20
5.1692876398
 30
0.0
 10
5.481897511
 20
5.1692401367
 30
0.0
 10
5.4818002008
 20
5.1691832125
 30
0.0
 10
5.4816506126
 20
5.1691188313
 30
0.0
 10
5.4814592961
 20
5.1690542013
 30
0.0
 10
5.4812261687
 20
5.1689892811
 30
0.0
 10
5.4809510059
 20
5.1689241704
 30
0.0
 10
5.480501021
 20
5.16883168
 30
0.0
 10
5.4798325257
 20
5.1687188551
 30
0.0
 10
5.478903595
 20
5.1685893001
 30
0.0
 10
5.4778073008
 20
5.1684592777
 30
0.0
 10
5.4760137442
 20
5.1682742512
 30
0.0
 10
5.4733577061
 20
5.1680488597
 30
0.0
 10
5.4696783509
 20
5.1677899751
 30
0.0
 10
5.465350313
 20
5.1675301159
 30
0.0
 10
5.4603836072
 20
5.1672695064
 30
0.0
 10
5.4547895047
 20
5.1670084034
 30
0.0
 10
5.4485809051
 20
5.1667469573
 30
0.0
 10
5.441772063
 20
5.16648526
 30
0.0
 10
5.4343785873
 20
5.1662233618
 30
0.0
 10
5.4264175479
 20
5.1659613216
 30
0.0
 10
5.4147220485
 20
5.1656010842
 30
0.0
 10
5.3988316398
 20
5.1651552321
 30
0.0
 10
5.3783428802
 20
5.1646337323
 30
0.0
 10
5.3561002709
 20
5.1641116123
 30
0.0
 10
5.3323083318
 20
5.1635890032
 30
0.0
 10
5.307185813
 20
5.1630660574
 30
0.0
 10
5.2809636923
 20
5.1625428663
 30
0.0
 10
5.253883088
 20
5.1620195051
 30
0.0
 10
5.2261929992
 20
5.161496032
 30
0.0
 10
5.1981480594
 20
5.1609724969
 30
0.0
 10
5.1700061402
 20
5.1604489452
 30
0.0
 10
5.1420260048
 20
5.1599254211
 30
0.0
 10
5.1144649246
 20
5.1594019709
 30
0.0
 10
5.0875763247
 20
5.1588786464
 30
0.0
 10
5.0616074558
 20
5.1583555097
 30
0.0
 10
5.0367971169
 20
5.1578326376
 30
0.0
 10
5.0133734276
 20
5.1573101385
 30
0.0
 10
4.9915517544
 20
5.1567881459
 30
0.0
 10
4.9715327088
 20
5.1562669156
 30
0.0
 10
4.95350034
 20
5.155746647
 30
0.0
 10
4.9397926126
 20
5.1552992037
 30
0.0
 10
4.9299426487
 20
5.1549362004
 30
0.0
 10
4.9234327885
 20
5.1546746149
 30
0.0
 10
4.9175304513
 20
5.1544133207
 30
0.0
 10
4.9122492999
 20
5.1541524463
 30
0.0
 10
4.9076013458
 20
5.1538921864
 30
0.0
 10
4.9035973009
 20
5.1536327003
 30
0.0
 10
4.9006680073
 20
5.1534074719
 30
0.0
 10
4.8986538412
 20
5.1532234248
 30
0.0
 10
4.897391205
 20
5.1530930435
 30
0.0
 10
4.8962953243
 20
5.1529630125
 30
0.0
 10
4.8953667329
 20
5.1528335457
 30
0.0
 10
4.8946059239
 20
5.1527047895
 30
0.0
 10
4.894156682
 20
5.1526086733
 30
0.0
 10
4.893961181
 20
5.1525579804
 30
0.0
  0
SPLINE
  5
3B2
100
AcDbEntity
  8
0
100
AcDbSpline
 62
7
  6
CONTINUOUS
 70
0
 71
3
 72
15
 73
11
 74
0
 42
0.0000001
 43
0.0000001
 44
0.0000000001
 40
0.0
 40
0.0
 40
0.0
 40
0.0
 40
0.1260372902
 40
0.2509658942
 40
0.3752222278
 40
0.499208727
 40
0.6233024869
 40
0.7478735241
 40
0.8733040897
 40
1.0
 40
1.0
 40
1.0
 40
1.0
 10
5.5219690382
 20
5.418099901
 30
0.0
 10
5.5276863994
 20
5.4165883806
 30
0.0
 10
5.539174861
 20
5.4139576227
 30
0.0
 10
5.5565690993
 20
5.4111614784
 30
0.0
 10
5.5740117465
 20
5.4094997747
 30
0.0
 10
5.5914850335
 20
5.4089489379
 30
0.0
 10
5.6089730344
 20
5.409500713
 30
0.0
 10
5.626459065
 20
5.4111631594
 30
0.0
 10
5.6439232151
 20
5.4139596982
 30
0.0
 10
5.6554676957
 20
5.4165891163
 30
0.0
 10
5.6612172093
 20
5.418099901
 30
0.0
  0
SPLINE
  5
3B3
100
AcDbEntity
  8
0
100
AcDbSpline
 62
7
  6
CONTINUOUS
 70
0
 71
3
 72
63
 73
59
 74
0
 42
0.0000001
 43
0.0000001
 44
0.0000000001
 40
0.0
 40
0.0
 40
0.0
 40
0.0
 40
0.0001173492
 40
0.0001890304
 40
0.0002731518
 40
0.0004847725
 40
0.0007601007
 40
0.0011023933
 40
0.0015132508
 40
0.0019935417
 40
0.0025437712
 40
0.0038550833
 40
0.0054485027
 40
0.0073243561
 40
0.009482256
 40
0.014639868
 40
0.0209116559
 40
0.0282845689
 40
0.036741821
 40
0.0462650727
 40
0.0568320451
 40
0.0684192016
 40
0.080999732
 40
0.0945449037
 40
0.1090238706
 40
0.1406475247
 40
0.1755804631
 40
0.21350192
 40
0.2540635494
 40
0.2968926248
 40
0.3415955716
 40
0.3877614122
 40
0.4349658861
 40
0.482775086
 40
0.5307495485
 40
0.5784483808
 40
0.6254329951
 40
0.6712716295
 40
0.7155428704
 40
0.7578399141
 40
0.7977740783
 40
0.8349783953
 40
0.8691111348
 40
0.8998587541
 40
0.9269391228
 40
0.9390251856
 40
0.9501041787
 40
0.9601510022
 40
0.9691423612
 40
0.9770585752
 40
0.9838812825
 40
0.9895962722
 40
0.9920345305
 40
0.9941915341
 40
0.9960666547
 40
0.9976595663
 40
0.9989703572
 40
1.0
 40
1.0
 40
1.0
 40
1.0
 10
5.4820005395
 20
5.2038388199
 30
0.0
 10
5.4820005448
 20
5.2038157997
 30
0.0
 10
5.4819865735
 20
5.203778683
 30
0.0
 10
5.4819521404
 20
5.2037376412
 30
0.0
 10
5.4818975016
 20
5.2036901358
 30
0.0
 10
5.4818002466
 20
5.203633204
 30
0.0
 10
5.4816506978
 20
5.2035688217
 30
0.0
 10
5.4814593822
 20
5.2035041966
 30
0.0
 10
5.4812262209
 20
5.2034392796
 30
0.0
 10
5.4809510055
 20
5.2033741712
 30
0.0
 10
5.4805009678
 20
5.2032816874
 30
0.0
 10
5.4798324821
 20
5.2031688677
 30
0.0
 10
5.4789036084
 20
5.2030392938
 30
0.0
 10
5.4778073527
 20
5.2029092686
 30
0.0
 10
5.4760137617
 20
5.2027242589
 30
0.0
 10
5.4733577155
 20
5.2024988693
 30
0.0
 10
5.4696783218
 20
5.2022399589
 30
0.0
 10
5.4653503366
 20
5.2019801329
 30
0.0
 10
5.4603835878
 20
5.2017194918
 30
0.0
 10
5.4547895261
 20
5.2014584131
 30
0.0
 10
5.448580897
 20
5.201196953
 30
0.0
 10
5.4417720534
 20
5.2009352591
 30
0.0
 10
5.434378593
 20
5.200673366
 30
0.0
 10
5.4264175264
 20
5.2004113154
 30
0.0
 10
5.4147220265
 20
5.2000510913
 30
0.0
 10
5.3988315986
 20
5.1996052303
 30
0.0
 10
5.37834288
 20
5.1990837325
 30
0.0
 10
5.3561003043
 20
5.1985616117
 30
0.0
 10
5.3323083691
 20
5.1980390028
 30
0.0
 10
5.3071858224
 20
5.1975160574
 30
0.0
 10
5.2809636826
 20
5.1969928667
 30
0.0
 10
5.2538830649
 20
5.1964695052
 30
0.0
 10
5.2261929886
 20
5.1959460319
 30
0.0
 10
5.1981480561
 20
5.1954224966
 30
0.0
 10
5.1700061293
 20
5.1948989449
 30
0.0
 10
5.142025988
 20
5.1943754211
 30
0.0
 10
5.1144649023
 20
5.193851971
 30
0.0
 10
5.0875763243
 20
5.1933286463
 30
0.0
 10
5.0616074768
 20
5.1928055092
 30
0.0
 10
5.036797141
 20
5.1922826369
 30
0.0
 10
5.0133734301
 20
5.191760138
 30
0.0
 10
4.9915517129
 20
5.191238146
 30
0.0
 10
4.9715326427
 20
5.1907169154
 30
0.0
 10
4.9535002894
 20
5.1901966501
 30
0.0
 10
4.939792575
 20
5.1897491976
 30
0.0
 10
4.9299426595
 20
5.1893862065
 30
0.0
 10
4.923432763
 20
5.1891246036
 30
0.0
 10
4.9175304703
 20
5.1888633344
 30
0.0
 10
4.9122492707
 20
5.1886024318
 30
0.0
 10
4.9076013597
 20
5.1883421978
 30
0.0
 10
4.9035972862
 20
5.1880826968
 30
0.0
 10
4.9006679831
 20
5.18785746
 30
0.0
 10
4.8986537879
 20
5.1876734335
 30
0.0
 10
4.8973911746
 20
5.1875430475
 30
0.0
 10
4.8962953607
 20
5.1874130083
 30
0.0
 10
4.8953667731
 20
5.187283531
 30
0.0
 10
4.8946059067
 20
5.1871547925
 30
0.0
 10
4.8941566005
 20
5.1870586817
 30
0.0
 10
4.8939610837
 20
5.1870079804
 30
0.0
  0
LINE
  5
3B4
100
AcDbEntity
  8
0
100
AcDbLine
 62
7
  6
CONTINUOUS
 10
5.6612172093
 20
5.418099901
 11
5.6645853845
 21
5.4187221931
  0
SPLINE
  5
3B5
100
AcDbEntity
  8
0
100
AcDbSpline
 62
7
  6
CONTINUOUS
 70
0
 71
3
 72
63
 73
59
 74
0
 42
0.0000001
 43
0.0000001
 44
0.0000000001
 40
0.0
 40
0.0
 40
0.0
 40
0.0
 40
0.0001173722
 40
0.000189081
 40
0.0002732352
 40
0.0004849145
 40
0.0007602539
 40
0.0011024851
 40
0.0015132474
 40
0.0019934642
 40
0.0025436892
 40
0.0038551512
 40
0.0054487234
 40
0.0073244857
 40
0.0094821047
 40
0.0146398197
 40
0.0209115499
 40
0.0282843326
 40
0.0367417855
 40
0.0462646856
 40
0.0568319083
 40
0.0684187713
 40
0.0809994504
 40
0.0945445767
 40
0.109023431
 40
0.1406469648
 40
0.1755799361
 40
0.2135014416
 40
0.2540631419
 40
0.2968922114
 40
0.3415950838
 40
0.3877609308
 40
0.4349653926
 40
0.4827746501
 40
0.5307491725
 40
0.5784479741
 40
0.625432636
 40
0.6712712765
 40
0.715542617
 40
0.7578397856
 40
0.7977739936
 40
0.8349783351
 40
0.8691109648
 40
0.8998585655
 40
0.9269390079
 40
0.9390252437
 40
0.950104187
 40
0.9601509486
 40
0.9691425297
 40
0.977058459
 40
0.9838815073
 40
0.9895962064
 40
0.9920344484
 40
0.9941916845
 40
0.996066892
 40
0.9976596412
 40
0.9989702708
 40
1.0
 40
1.0
 40
1.0
 40
1.0
 10
5.482000688
 20
5.2382888197
 30
0.0
 10
5.4820006848
 20
5.2382657949
 30
0.0
 10
5.4819866849
 20
5.2382286762
 30
0.0
 10
5.4819522225
 20
5.2381876392
 30
0.0
 10
5.4818975497
 20
5.2381401373
 30
0.0
 10
5.4818002695
 20
5.2380832118
 30
0.0
 10
5.4816507184
 20
5.2380188314
 30
0.0
 10
5.4814594341
 20
5.2379542034
 30
0.0
 10
5.4812263198
 20
5.2378892858
 30
0.0
 10
5.4809511392
 20
5.2378241779
 30
0.0
 10
5.4805010867
 20
5.2377316959
 30
0.0
 10
5.4798325399
 20
5.2376188859
 30
0.0
 10
5.4789036235
 20
5.237489319
 30
0.0
 10
5.4778074118
 20
5.2373592871
 30
0.0
 10
5.4760138766
 20
5.2371742482
 30
0.0
 10
5.4733578735
 20
5.2369488907
 30
0.0
 10
5.4696784973
 20
5.236689969
 30
0.0
 10
5.4653505094
 20
5.2364301371
 30
0.0
 10
5.4603838145
 20
5.2361695142
 30
0.0
 10
5.4547897339
 20
5.2359084104
 30
0.0
 10
5.4485811806
 20
5.2356469742
 30
0.0
 10
5.4417723164
 20
5.2353852614
 30
0.0
 10
5.4343788923
 20
5.2351233799
 30
0.0
 10
5.4264178269
 20
5.2348613248
 30
0.0
 10
5.4147223805
 20
5.2345010999
 30
0.0
 10
5.3988319904
 20
5.2340552386
 30
0.0
 10
5.3783432776
 20
5.2335337407
 30
0.0
 10
5.3561006699
 20
5.2330116202
 30
0.0
 10
5.3323087102
 20
5.2324890113
 30
0.0
 10
5.3071861631
 20
5.2319660652
 30
0.0
 10
5.2809640353
 20
5.2314428737
 30
0.0
 10
5.2538834308
 20
5.2309195119
 30
0.0
 10
5.2261933418
 20
5.2303960381
 30
0.0
 10
5.1981483859
 20
5.2298725028
 30
0.0
 10
5.1700064395
 20
5.229348951
 30
0.0
 10
5.1420262806
 20
5.2288254266
 30
0.0
 10
5.1144651878
 20
5.2283019759
 30
0.0
 10
5.0875765772
 20
5.2277786508
 30
0.0
 10
5.0616076821
 20
5.2272555133
 30
0.0
 10
5.0367972914
 20
5.2267326412
 30
0.0
 10
5.0133735404
 20
5.2262101421
 30
0.0
 10
4.9915518294
 20
5.2256881499
 30
0.0
 10
4.9715327777
 20
5.2251669177
 30
0.0
 10
4.9535004335
 20
5.2246466525
 30
0.0
 10
4.9397926731
 20
5.2241991959
 30
0.0
 10
4.9299427179
 20
5.2238362113
 30
0.0
 10
4.9234328088
 20
5.2235746072
 30
0.0
 10
4.9175304943
 20
5.223313328
 30
0.0
 10
4.9122493175
 20
5.2230524467
 30
0.0
 10
4.9076013533
 20
5.2227921806
 30
0.0
 10
4.9035973231
 20
5.2225327162
 30
0.0
 10
4.9006680145
 20
5.2223074581
 30
0.0
 10
4.8986538345
 20
5.222123425
 30
0.0
 10
4.8973911601
 20
5.2219930519
 30
0.0
 10
4.8962953141
 20
5.2218630192
 30
0.0
 10
4.8953667743
 20
5.221733534
 30
0.0
 10
4.8946059573
 20
5.2216047805
 30
0.0
 10
4.8941566664
 20
5.2215086732
 30
0.0
 10
4.8939611297
 20
5.2214579805
 30
0.0
  0
SPLINE
  5
3B6
100
AcDbEntity
  8
0
100
AcDbSpline
 62
7
  6
CONTINUOUS
 70
0
 71
3
 72
23
 73
19
 74
0
 42
0.0000001
 43
0.0000001
 44
0.0000000001
 40
0.0
 40
0.0
 40
0.0
 40
0.0
 40
0.0496976446
 40
0.1004643389
 40
0.1527974848
 40
0.2071173601
 40
0.2637226708
 40
0.3227952917
 40
0.3843946707
 40
0.4484584397
 40
0.5148023244
 40
0.5831177602
 40
0.6529676483
 40
0.7237798296
 40
0.7948380225
 40
0.8652743993
 40
0.9340579285
 40
1.0
 40
1.0
 40
1.0
 40
1.0
 10
5.4794736464
 20
3.7987888199
 30
0.0
 10
5.4789432613
 20
3.7931847504
 30
0.0
 10
5.4771919179
 20
3.7819099644
 30
0.0
 10
5.4725923517
 20
3.7651905491
 30
0.0
 10
5.4660407218
 20
3.7485731108
 30
0.0
 10
5.4575944671
 20
3.7320930506
 30
0.0
 10
5.4473220155
 20
3.7157804703
 30
0.0
 10
5.4353085045
 20
3.699668226
 30
0.0
 10
5.4216557398
 20
3.6837919226
 30
0.0
 10
5.4064853891
 20
3.6681920112
 30
0.0
 10
5.3899422359
 20
3.6529146856
 30
0.0
 10
5.3721977246
 20
3.6380130532
 30
0.0
 10
5.3534539496
 20
3.6235482018
 30
0.0
 10
5.3339478924
 20
3.609590438
 30
0.0
 10
5.313955668
 20
3.5962204697
 30
0.0
 10
5.2937968028
 20
3.5835309031
 30
0.0
 10
5.2738370917
 20
3.5716268149
 30
0.0
 10
5.2605704177
 20
3.5640838705
 30
0.0
 10
5.2540438033
 20
3.5604520186
 30
0.0
  0
SPLINE
  5
3B7
100
AcDbEntity
  8
0
100
AcDbSpline
 62
7
  6
CONTINUOUS
 70
0
 71
3
 72
14
 73
10
 74
0
 42
0.0000001
 43
0.0000001
 44
0.0000000001
 40
0.0
 40
0.0
 40
0.0
 40
0.0
 40
0.1337966718
 40
0.2668479003
 40
0.3989050493
 40
0.5295636589
 40
0.6581058796
 40
0.783093791
 40
1.0
 40
1.0
 40
1.0
 40
1.0
 10
5.2540438033
 20
3.5604520186
 30
0.0
 10
5.2502839544
 20
3.548459666
 30
0.0
 10
5.2429226577
 20
3.5244985339
 30
0.0
 10
5.2322573096
 20
3.4885776348
 30
0.0
 10
5.221955112
 20
3.4528576776
 30
0.0
 10
5.2120015544
 20
3.4174789104
 30
0.0
 10
5.2024191293
 20
3.3826861693
 30
0.0
 10
5.1908832379
 20
3.3400288308
 30
0.0
 10
5.182667878
 20
3.3089819422
 30
0.0
 10
5.1775098495
 20
3.2892709825
 30
0.0
  0
SPLINE
  5
3B8
100
AcDbEntity
  8
0
100
AcDbSpline
 62
7
  6
CONTINUOUS
 70
0
 71
3
 72
63
 73
59
 74
0
 42
0.0000001
 43
0.0000001
 44
0.0000000001
 40
0.0
 40
0.0
 40
0.0
 40
0.0
 40
0.0010305488
 40
0.0023428763
 40
0.0039379092
 40
0.0058154627
 40
0.0079749741
 40
0.0104156864
 40
0.0161361879
 40
0.0229645197
 40
0.0308862536
 40
0.0398832882
 40
0.0499354205
 40
0.0610198261
 40
0.0731109087
 40
0.1002008843
 40
0.1309571577
 40
0.1650974078
 40
0.2023081681
 40
0.2422476303
 40
0.284548844
 40
0.3288231691
 40
0.3746637636
 40
0.4216493439
 40
0.4693481802
 40
0.5173217944
 40
0.5651293801
 40
0.6123315063
 40
0.6584944184
 40
0.7031939143
 40
0.7460192019
 40
0.7865768078
 40
0.8244940777
 40
0.8594226492
 40
0.8756647097
 40
0.8910418262
 40
0.9055184197
 40
0.9190613758
 40
0.9316397528
 40
0.9432244591
 40
0.9537894533
 40
0.9633100455
 40
0.9717652419
 40
0.979135424
 40
0.9854046854
 40
0.9905593093
 40
0.9927153186
 40
0.9945893618
 40
0.996180879
 40
0.9974896931
 40
0.9980383526
 40
0.9985168556
 40
0.9989256789
 40
0.9992656229
 40
0.9995381323
 40
0.9996499814
 40
0.9997463072
 40
1.0
 40
1.0
 40
1.0
 40
1.0
 10
5.5015297279
 20
5.1530556575
 30
0.0
 10
5.5013196525
 20
5.1530049398
 30
0.0
 10
5.5008375015
 20
5.1529088197
 30
0.0
 10
5.5000217229
 20
5.1527800842
 30
0.0
 10
5.4990265814
 20
5.1526506319
 30
0.0
 10
5.4978526392
 20
5.1525206148
 30
0.0
 10
5.4965004509
 20
5.152390252
 30
0.0
 10
5.4943439505
 20
5.1522062453
 30
0.0
 10
5.4912085239
 20
5.1519810552
 30
0.0
 10
5.4869235493
 20
5.1517215737
 30
0.0
 10
5.4819504284
 20
5.151461359
 30
0.0
 10
5.4763004972
 20
5.1512004953
 30
0.0
 10
5.4699867287
 20
5.150939244
 30
0.0
 10
5.463023638
 20
5.1506776782
 30
0.0
 10
5.4524889709
 20
5.1503147276
 30
0.0
 10
5.4378295563
 20
5.1498673354
 30
0.0
 10
5.4185465457
 20
5.1493471238
 30
0.0
 10
5.3971404921
 20
5.1488259494
 30
0.0
 10
5.3738081826
 20
5.1483040144
 30
0.0
 10
5.3487640959
 20
5.1477815729
 30
0.0
 10
5.3222384525
 20
5.1472587588
 30
0.0
 10
5.2944750911
 20
5.1467356799
 30
0.0
 10
5.2657292322
 20
5.1462124135
 30
0.0
 10
5.2362651241
 20
5.1456890218
 30
0.0
 10
5.206353644
 20
5.1451655566
 30
0.0
 10
5.1762697598
 20
5.1446420638
 30
0.0
 10
5.1462900535
 20
5.1441185875
 30
0.0
 10
5.1166901172
 20
5.1435951731
 30
0.0
 10
5.0877420634
 20
5.1430718703
 30
0.0
 10
5.0597120038
 20
5.1425487391
 30
0.0
 10
5.0328576107
 20
5.1420258497
 30
0.0
 10
5.0074257568
 20
5.1415033099
 30
0.0
 10
4.9836502431
 20
5.1409812161
 30
0.0
 10
4.9649733653
 20
5.140536625
 30
0.0
 10
4.9510225904
 20
5.1401781477
 30
0.0
 10
4.9413596439
 20
5.1399159251
 30
0.0
 10
4.9322629298
 20
5.1396537984
 30
0.0
 10
4.9237533799
 20
5.1393917853
 30
0.0
 10
4.9158505746
 20
5.1391299279
 30
0.0
 10
4.9085726246
 20
5.1388682479
 30
0.0
 10
4.901936346
 20
5.1386068428
 30
0.0
 10
4.8959568831
 20
5.1383457664
 30
0.0
 10
4.8906480749
 20
5.1380851873
 30
0.0
 10
4.8860219568
 20
5.1378253674
 30
0.0
 10
4.8820892038
 20
5.1375664987
 30
0.0
 10
4.8792501889
 20
5.1373411617
 30
0.0
 10
4.8773329802
 20
5.1371561509
 30
0.0
 10
4.8761612402
 20
5.1370261496
 30
0.0
 10
4.8751683846
 20
5.1368966175
 30
0.0
 10
4.8744537908
 20
5.1367838005
 30
0.0
 10
4.8739726964
 20
5.1366912955
 30
0.0
 10
4.8736786245
 20
5.136626173
 30
0.0
 10
4.8734295227
 20
5.136561335
 30
0.0
 10
4.8732251157
 20
5.1364965786
 30
0.0
 10
4.8730841626
 20
5.136440245
 30
0.0
 10
4.8729941827
 20
5.1363931655
 30
0.0
 10
4.8729141379
 20
5.1363428672
 30
0.0
 10
4.8728506554
 20
5.1362798883
 30
0.0
 10
4.8728506554
 20
5.1362266877
 30
0.0
  0
SPLINE
  5
3B9
100
AcDbEntity
  8
0
100
AcDbSpline
 62
7
  6
CONTINUOUS
 70
0
 71
3
 72
62
 73
58
 74
0
 42
0.0000001
 43
0.0000001
 44
0.0000000001
 40
0.0
 40
0.0
 40
0.0
 40
0.0
 40
0.0011351644
 40
0.002550389
 40
0.0042462241
 40
0.0062225838
 40
0.0110147108
 40
0.016918164
 40
0.0239207463
 40
0.0320075346
 40
0.0411600121
 40
0.0513582742
 40
0.0625785898
 40
0.0747959825
 40
0.102107807
 40
0.1330450796
 40
0.1673256176
 40
0.2046364906
 40
0.2446369851
 40
0.2869617418
 40
0.3312241979
 40
0.3770200379
 40
0.4239308556
 40
0.4715281512
 40
0.5193769208
 40
0.5670401014
 40
0.6140821853
 40
0.6600734141
 40
0.7045936869
 40
0.7472361757
 40
0.7876114285
 40
0.8253506019
 40
0.8601091841
 40
0.8915699243
 40
0.9059727756
 40
0.9194458392
 40
0.9319587508
 40
0.9434829544
 40
0.9539920674
 40
0.9634627501
 40
0.9718730197
 40
0.9792047849
 40
0.985441369
 40
0.9905700001
 40
0.9927157451
 40
0.9945810184
 40
0.9961654904
 40
0.9974694821
 40
0.9980166583
 40
0.998494299
 40
0.998902908
 40
0.9992433524
 40
0.9995172414
 40
0.9997278337
 40
0.9998115892
 40
0.9998829953
 40
1.0
 40
1.0
 40
1.0
 40
1.0
 10
5.4810305677
 20
5.1477435941
 30
0.0
 10
5.4808136108
 20
5.1476937799
 30
0.0
 10
5.480322397
 20
5.1475984692
 30
0.0
 10
5.4794996569
 20
5.1474697594
 30
0.0
 10
5.4785103609
 20
5.1473404059
 30
0.0
 10
5.476860835
 20
5.1471552363
 30
0.0
 10
5.4743858515
 20
5.1469305256
 30
0.0
 10
5.4709248082
 20
5.1466728175
 30
0.0
 10
5.4668162459
 20
5.1464140602
 30
0.0
 10
5.4620695541
 20
5.14615442
 30
0.0
 10
5.4566954056
 20
5.1458942327
 30
0.0
 10
5.4507061618
 20
5.1456336866
 30
0.0
 10
5.4441153979
 20
5.1453728249
 30
0.0
 10
5.4341701302
 20
5.1450111814
 30
0.0
 10
5.4203590137
 20
5.1445651941
 30
0.0
 10
5.4022216299
 20
5.144046381
 30
0.0
 10
5.3821227691
 20
5.1435266387
 30
0.0
 10
5.3602461187
 20
5.143006165
 30
0.0
 10
5.3367916199
 20
5.1424852013
 30
0.0
 10
5.31197363
 20
5.1419638771
 30
0.0
 10
5.2860189578
 20
5.1414422965
 30
0.0
 10
5.2591648025
 20
5.1409205347
 30
0.0
 10
5.2316565779
 20
5.1403986521
 30
0.0
 10
5.2037457106
 20
5.1398766995
 30
0.0
 10
5.1756872821
 20
5.1393547216
 30
0.0
 10
5.1477377474
 20
5.138832762
 30
0.0
 10
5.1201525336
 20
5.1383108657
 30
0.0
 10
5.0931837441
 20
5.1377890821
 30
0.0
 10
5.067077864
 20
5.1372674698
 30
0.0
 10
5.042073482
 20
5.1367461029
 30
0.0
 10
5.0183991483
 20
5.1362250724
 30
0.0
 10
4.9962712085
 20
5.1357045288
 30
0.0
 10
4.9758918828
 20
5.1351846068
 30
0.0
 10
4.960088344
 20
5.1347400784
 30
0.0
 10
4.9484581452
 20
5.1343809345
 30
0.0
 10
4.9405423236
 20
5.1341196761
 30
0.0
 10
4.9331913191
 20
5.1338585791
 30
0.0
 10
4.9264219233
 20
5.1335976763
 30
0.0
 10
4.9202495709
 20
5.1333370105
 30
0.0
 10
4.9146884292
 20
5.1330767229
 30
0.0
 10
4.9097510938
 20
5.1328168706
 30
0.0
 10
4.9054488828
 20
5.1325578347
 30
0.0
 10
4.9017914965
 20
5.1322997051
 30
0.0
 10
4.8991513968
 20
5.1320750007
 30
0.0
 10
4.8973686077
 20
5.1318905519
 30
0.0
 10
4.8962789695
 20
5.1317609186
 30
0.0
 10
4.8953557041
 20
5.1316317376
 30
0.0
 10
4.8946912551
 20
5.1315192603
 30
0.0
 10
4.8942439389
 20
5.1314270579
 30
0.0
 10
4.893970386
 20
5.1313621465
 30
0.0
 10
4.8937386356
 20
5.1312974259
 30
0.0
 10
4.8935484791
 20
5.1312329936
 30
0.0
 10
4.8933998344
 20
5.131168802
 30
0.0
 10
4.8933031742
 20
5.1311120385
 30
0.0
 10
4.8932488758
 20
5.131064684
 30
0.0
 10
4.8932146422
 20
5.1310237502
 30
0.0
 10
4.8932007693
 20
5.1309867641
 30
0.0
 10
4.8932007732
 20
5.1309638199
 30
0.0
  0
SPLINE
  5
3BA
100
AcDbEntity
  8
0
100
AcDbSpline
 62
7
  6
CONTINUOUS
 70
0
 71
3
 72
63
 73
59
 74
0
 42
0.0000001
 43
0.0000001
 44
0.0000000001
 40
0.0
 40
0.0
 40
0.0
 40
0.0
 40
0.0010305488
 40
0.0023428763
 40
0.0039379092
 40
0.0058154627
 40
0.0079749741
 40
0.0104156864
 40
0.0161361879
 40
0.0229645197
 40
0.0308862536
 40
0.0398832882
 40
0.0499354205
 40
0.0610198261
 40
0.0731109087
 40
0.1002008843
 40
0.1309571577
 40
0.1650974078
 40
0.2023081681
 40
0.2422476303
 40
0.284548844
 40
0.3288231691
 40
0.3746637636
 40
0.4216493439
 40
0.4693481802
 40
0.5173217944
 40
0.5651293801
 40
0.6123315063
 40
0.6584944184
 40
0.7031939143
 40
0.7460192019
 40
0.7865768078
 40
0.8244940777
 40
0.8594226492
 40
0.8756647097
 40
0.8910418262
 40
0.9055184197
 40
0.9190613758
 40
0.9316397528
 40
0.9432244591
 40
0.9537894533
 40
0.9633100455
 40
0.9717652419
 40
0.979135424
 40
0.9854046854
 40
0.9905593093
 40
0.9927153186
 40
0.9945893618
 40
0.996180879
 40
0.9974896931
 40
0.9980383526
 40
0.9985168556
 40
0.9989256789
 40
0.9992656229
 40
0.9995381323
 40
0.9996499814
 40
0.9997463072
 40
1.0
 40
1.0
 40
1.0
 40
1.0
 10
5.5015297279
 20
5.1875056575
 30
0.0
 10
5.5013196525
 20
5.1874549398
 30
0.0
 10
5.5008375015
 20
5.1873588197
 30
0.0
 10
5.5000217229
 20
5.1872300842
 30
0.0
 10
5.4990265814
 20
5.1871006319
 30
0.0
 10
5.4978526392
 20
5.1869706148
 30
0.0
 10
5.4965004509
 20
5.186840252
 30
0.0
 10
5.4943439505
 20
5.1866562453
 30
0.0
 10
5.4912085239
 20
5.1864310552
 30
0.0
 10
5.4869235493
 20
5.1861715737
 30
0.0
 10
5.4819504284
 20
5.185911359
 30
0.0
 10
5.4763004972
 20
5.1856504953
 30
0.0
 10
5.4699867287
 20
5.185389244
 30
0.0
 10
5.463023638
 20
5.1851276782
 30
0.0
 10
5.4524889709
 20
5.1847647276
 30
0.0
 10
5.4378295563
 20
5.1843173354
 30
0.0
 10
5.4185465457
 20
5.1837971238
 30
0.0
 10
5.3971404921
 20
5.1832759494
 30
0.0
 10
5.3738081826
 20
5.1827540144
 30
0.0
 10
5.3487640959
 20
5.1822315729
 30
0.0
 10
5.3222384525
 20
5.1817087588
 30
0.0
 10
5.2944750911
 20
5.1811856799
 30
0.0
 10
5.2657292322
 20
5.1806624135
 30
0.0
 10
5.2362651241
 20
5.1801390218
 30
0.0
 10
5.206353644
 20
5.1796155566
 30
0.0
 10
5.1762697598
 20
5.1790920638
 30
0.0
 10
5.1462900535
 20
5.1785685875
 30
0.0
 10
5.1166901172
 20
5.1780451731
 30
0.0
 10
5.0877420634
 20
5.1775218703
 30
0.0
 10
5.0597120038
 20
5.1769987391
 30
0.0
 10
5.0328576107
 20
5.1764758497
 30
0.0
 10
5.0074257568
 20
5.1759533099
 30
0.0
 10
4.9836502431
 20
5.1754312161
 30
0.0
 10
4.9649733653
 20
5.174986625
 30
0.0
 10
4.9510225904
 20
5.1746281477
 30
0.0
 10
4.9413596439
 20
5.1743659251
 30
0.0
 10
4.9322629298
 20
5.1741037984
 30
0.0
 10
4.9237533799
 20
5.1738417853
 30
0.0
 10
4.9158505746
 20
5.1735799279
 30
0.0
 10
4.9085726246
 20
5.1733182479
 30
0.0
 10
4.901936346
 20
5.1730568428
 30
0.0
 10
4.8959568831
 20
5.1727957664
 30
0.0
 10
4.8906480749
 20
5.1725351873
 30
0.0
 10
4.8860219568
 20
5.1722753674
 30
0.0
 10
4.8820892038
 20
5.1720164987
 30
0.0
 10
4.8792501889
 20
5.1717911617
 30
0.0
 10
4.8773329802
 20
5.1716061509
 30
0.0
 10
4.8761612402
 20
5.1714761496
 30
0.0
 10
4.8751683846
 20
5.1713466175
 30
0.0
 10
4.8744537908
 20
5.1712338005
 30
0.0
 10
4.8739726964
 20
5.1711412955
 30
0.0
 10
4.8736786245
 20
5.171076173
 30
0.0
 10
4.8734295227
 20
5.171011335
 30
0.0
 10
4.8732251157
 20
5.1709465786
 30
0.0
 10
4.8730841626
 20
5.170890245
 30
0.0
 10
4.8729941827
 20
5.1708431655
 30
0.0
 10
4.8729141379
 20
5.1707928672
 30
0.0
 10
4.8728506554
 20
5.1707298883
 30
0.0
 10
4.8728506554
 20
5.1706766877
 30
0.0
  0
LINE
  5
3BB
100
AcDbEntity
  8
0
100
AcDbLine
 62
7
  6
CONTINUOUS
 10
5.4812401305
 20
5.1822446593
 11
5.4809909908
 21
5.1821846189
  0
SPLINE
  5
3BC
100
AcDbEntity
  8
0
100
AcDbSpline
 62
7
  6
CONTINUOUS
 70
0
 71
3
 72
62
 73
58
 74
0
 42
0.0000001
 43
0.0000001
 44
0.0000000001
 40
0.0
 40
0.0
 40
0.0
 40
0.0
 40
0.0011534709
 40
0.0025869035
 40
0.0043009338
 40
0.0062952089
 40
0.0111215281
 40
0.0170581493
 40
0.0240921893
 40
0.0322087338
 40
0.0413896471
 40
0.0516140822
 40
0.0628593976
 40
0.0750995005
 40
0.1024519547
 40
0.1334224343
 40
0.1677287871
 40
0.2050581716
 40
0.2450701242
 40
0.2873996929
 40
0.3316605732
 40
0.3774489584
 40
0.4243468558
 40
0.4719263052
 40
0.5197530859
 40
0.5673906931
 40
0.614404408
 40
0.6603651262
 40
0.7048533608
 40
0.7474631905
 40
0.7878057952
 40
0.8255131672
 40
0.8602413792
 40
0.8916736998
 40
0.906062996
 40
0.9195237288
 40
0.932024636
 40
0.9435378705
 40
0.9540369466
 40
0.9634982408
 40
0.9719006144
 40
0.9792248637
 40
0.9854555842
 40
0.990578951
 40
0.992722456
 40
0.9945860459
 40
0.9961691434
 40
0.9974717617
 40
0.9980183031
 40
0.9984953871
 40
0.9989035501
 40
0.9992436897
 40
0.9995174185
 40
0.999727939
 40
0.9998116711
 40
0.9998830529
 40
1.0
 40
1.0
 40
1.0
 40
1.0
 10
5.4809909908
 20
5.1821846189
 30
0.0
 10
5.4807703355
 20
5.1821349495
 30
0.0
 10
5.4802718558
 20
5.1820397603
 30
0.0
 10
5.4794383163
 20
5.1819110622
 30
0.0
 10
5.4784383471
 20
5.1817817507
 30
0.0
 10
5.4767750442
 20
5.1815967835
 30
0.0
 10
5.4742834422
 20
5.1813721546
 30
0.0
 10
5.4708032003
 20
5.1811145616
 30
0.0
 10
5.4666763747
 20
5.1808558967
 30
0.0
 10
5.4619124
 20
5.1805963655
 30
0.0
 10
5.4565220541
 20
5.180336319
 30
0.0
 10
5.4505175944
 20
5.1800758785
 30
0.0
 10
5.4439127806
 20
5.1798151689
 30
0.0
 10
5.4339508574
 20
5.1794537415
 30
0.0
 10
5.4201217434
 20
5.1790080259
 30
0.0
 10
5.4019660544
 20
5.1784894645
 30
0.0
 10
5.3818533636
 20
5.177969985
 30
0.0
 10
5.3599672724
 20
5.1774497773
 30
0.0
 10
5.3365075615
 20
5.1769290835
 30
0.0
 10
5.3116883934
 20
5.1764080314
 30
0.0
 10
5.2857363307
 20
5.1758867247
 30
0.0
 10
5.2588883247
 20
5.1753652381
 30
0.0
 10
5.2313894854
 20
5.174843631
 30
0.0
 10
5.2034908814
 20
5.1743219543
 30
0.0
 10
5.175447208
 20
5.1738002529
 30
0.0
 10
5.1475144846
 20
5.1732785704
 30
0.0
 10
5.1199477281
 20
5.1727569515
 30
0.0
 10
5.0929986215
 20
5.1722354456
 30
0.0
 10
5.0669132064
 20
5.1717141104
 30
0.0
 10
5.0419296329
 20
5.1711930207
 30
0.0
 10
5.0182759697
 20
5.1706722671
 30
0.0
 10
4.9961681454
 20
5.1701520016
 30
0.0
 10
4.9758079859
 20
5.1696323543
 30
0.0
 10
4.9600197203
 20
5.1691880702
 30
0.0
 10
4.9484009711
 20
5.1688291009
 30
0.0
 10
4.9404931237
 20
5.1685679953
 30
0.0
 10
4.9331495483
 20
5.1683070289
 30
0.0
 10
4.9263870915
 20
5.1680462668
 30
0.0
 10
4.9202211236
 20
5.1677857495
 30
0.0
 10
4.9146657233
 20
5.1675255799
 30
0.0
 10
4.9097335894
 20
5.1672658971
 30
0.0
 10
4.9054358489
 20
5.1670069646
 30
0.0
 10
4.9017823686
 20
5.1667490039
 30
0.0
 10
4.8991450728
 20
5.1665244116
 30
0.0
 10
4.8973642104
 20
5.1663400459
 30
0.0
 10
4.8962756857
 20
5.1662104878
 30
0.0
 10
4.8953533503
 20
5.1660813931
 30
0.0
 10
4.8946896118
 20
5.165968969
 30
0.0
 10
4.8942428322
 20
5.1658768101
 30
0.0
 10
4.8939696215
 20
5.1658119309
 30
0.0
 10
4.8937381458
 20
5.1657472413
 30
0.0
 10
4.8935481828
 20
5.1656828391
 30
0.0
 10
4.8933996501
 20
5.1656186837
 30
0.0
 10
4.8933030368
 20
5.165561957
 30
0.0
 10
4.8932487518
 20
5.1655146307
 30
0.0
 10
4.8932145254
 20
5.1654737226
 30
0.0
 10
4.8932006604
 20
5.1654367512
 30
0.0
 10
4.8932006707
 20
5.1654138198
 30
0.0
  0
SPLINE
  5
3BD
100
AcDbEntity
  8
0
100
AcDbSpline
 62
7
  6
CONTINUOUS
 70
0
 71
3
 72
20
 73
16
 74
0
 42
0.0000001
 43
0.0000001
 44
0.0000000001
 40
0.0
 40
0.0
 40
0.0
 40
0.0
 40
0.2280399651
 40
0.4263428567
 40
0.5948217436
 40
0.733428161
 40
0.7915384474
 40
0.8422114898
 40
0.885499221
 40
0.9214886744
 40
0.9503351848
 40
0.9723486727
 40
0.981007232
 40
0.9883032461
 40
1.0
 40
1.0
 40
1.0
 40
1.0
 10
4.8993761243
 20
4.9942888199
 30
0.0
 10
4.8988948833
 20
4.994244831
 30
0.0
 10
4.8979955675
 20
4.9941579551
 30
0.0
 10
4.8967426878
 20
4.9940189311
 30
0.0
 10
4.8956806382
 20
4.9938803639
 30
0.0
 10
4.8949160152
 20
4.9937597156
 30
0.0
 10
4.8944011347
 20
4.9936607793
 30
0.0
 10
4.8940864257
 20
4.9935911543
 30
0.0
 10
4.8938198667
 20
4.9935217421
 30
0.0
 10
4.8936011975
 20
4.9934526813
 30
0.0
 10
4.8934303304
 20
4.9933839043
 30
0.0
 10
4.893319013
 20
4.9933231444
 30
0.0
 10
4.8932562581
 20
4.9932721922
 30
0.0
 10
4.8932170683
 20
4.993228725
 30
0.0
 10
4.8932006428
 20
4.9931886068
 30
0.0
 10
4.8932006413
 20
4.9931638198
 30
0.0
  0
LINE
  5
3BE
100
AcDbEntity
  8
0
100
AcDbLine
 62
7
  6
CONTINUOUS
 10
4.8993761243
 20
4.9810388199
 11
4.8939610317
 21
4.9803079803
  0
SPLINE
  5
3BF
100
AcDbEntity
  8
0
100
AcDbSpline
 62
7
  6
CONTINUOUS
 70
0
 71
3
 72
63
 73
59
 74
0
 42
0.0000001
 43
0.0000001
 44
0.0000000001
 40
0.0
 40
0.0
 40
0.0
 40
0.0
 40
0.0010305488
 40
0.0023428763
 40
0.0039379092
 40
0.0058154627
 40
0.0079749741
 40
0.0104156864
 40
0.0161361879
 40
0.0229645197
 40
0.0308862536
 40
0.0398832882
 40
0.0499354205
 40
0.0610198261
 40
0.0731109087
 40
0.1002008843
 40
0.1309571577
 40
0.1650974078
 40
0.2023081681
 40
0.2422476303
 40
0.284548844
 40
0.3288231691
 40
0.3746637636
 40
0.4216493439
 40
0.4693481802
 40
0.5173217944
 40
0.5651293801
 40
0.6123315063
 40
0.6584944184
 40
0.7031939143
 40
0.7460192019
 40
0.7865768078
 40
0.8244940777
 40
0.8594226492
 40
0.8756647097
 40
0.8910418262
 40
0.9055184197
 40
0.9190613758
 40
0.9316397528
 40
0.9432244591
 40
0.9537894533
 40
0.9633100455
 40
0.9717652419
 40
0.979135424
 40
0.9854046854
 40
0.9905593093
 40
0.9927153186
 40
0.9945893618
 40
0.996180879
 40
0.9974896931
 40
0.9980383526
 40
0.9985168556
 40
0.9989256789
 40
0.9992656229
 40
0.9995381323
 40
0.9996499814
 40
0.9997463072
 40
1.0
 40
1.0
 40
1.0
 40
1.0
 10
5.5015297279
 20
5.2219556575
 30
0.0
 10
5.5013196525
 20
5.2219049398
 30
0.0
 10
5.5008375015
 20
5.2218088197
 30
0.0
 10
5.5000217229
 20
5.2216800842
 30
0.0
 10
5.4990265814
 20
5.2215506319
 30
0.0
 10
5.4978526392
 20
5.2214206148
 30
0.0
 10
5.4965004509
 20
5.221290252
 30
0.0
 10
5.4943439505
 20
5.2211062453
 30
0.0
 10
5.4912085239
 20
5.2208810552
 30
0.0
 10
5.4869235493
 20
5.2206215737
 30
0.0
 10
5.4819504284
 20
5.220361359
 30
0.0
 10
5.4763004972
 20
5.2201004953
 30
0.0
 10
5.4699867287
 20
5.219839244
 30
0.0
 10
5.463023638
 20
5.2195776782
 30
0.0
 10
5.4524889709
 20
5.2192147276
 30
0.0
 10
5.4378295563
 20
5.2187673354
 30
0.0
 10
5.4185465457
 20
5.2182471238
 30
0.0
 10
5.3971404921
 20
5.2177259494
 30
0.0
 10
5.3738081826
 20
5.2172040144
 30
0.0
 10
5.3487640959
 20
5.2166815729
 30
0.0
 10
5.3222384525
 20
5.2161587588
 30
0.0
 10
5.2944750911
 20
5.2156356799
 30
0.0
 10
5.2657292322
 20
5.2151124135
 30
0.0
 10
5.2362651241
 20
5.2145890218
 30
0.0
 10
5.206353644
 20
5.2140655566
 30
0.0
 10
5.1762697598
 20
5.2135420638
 30
0.0
 10
5.1462900535
 20
5.2130185875
 30
0.0
 10
5.1166901172
 20
5.2124951731
 30
0.0
 10
5.0877420634
 20
5.2119718703
 30
0.0
 10
5.0597120038
 20
5.2114487391
 30
0.0
 10
5.0328576107
 20
5.2109258497
 30
0.0
 10
5.0074257568
 20
5.2104033099
 30
0.0
 10
4.9836502431
 20
5.2098812161
 30
0.0
 10
4.9649733653
 20
5.209436625
 30
0.0
 10
4.9510225904
 20
5.2090781477
 30
0.0
 10
4.9413596439
 20
5.2088159251
 30
0.0
 10
4.9322629298
 20
5.2085537984
 30
0.0
 10
4.9237533799
 20
5.2082917853
 30
0.0
 10
4.9158505746
 20
5.2080299279
 30
0.0
 10
4.9085726246
 20
5.2077682479
 30
0.0
 10
4.901936346
 20
5.2075068428
 30
0.0
 10
4.8959568831
 20
5.2072457664
 30
0.0
 10
4.8906480749
 20
5.2069851873
 30
0.0
 10
4.8860219568
 20
5.2067253674
 30
0.0
 10
4.8820892038
 20
5.2064664987
 30
0.0
 10
4.8792501889
 20
5.2062411617
 30
0.0
 10
4.8773329802
 20
5.2060561509
 30
0.0
 10
4.8761612402
 20
5.2059261496
 30
0.0
 10
4.8751683846
 20
5.2057966175
 30
0.0
 10
4.8744537908
 20
5.2056838005
 30
0.0
 10
4.8739726964
 20
5.2055912955
 30
0.0
 10
4.8736786245
 20
5.205526173
 30
0.0
 10
4.8734295227
 20
5.205461335
 30
0.0
 10
4.8732251157
 20
5.2053965786
 30
0.0
 10
4.8730841626
 20
5.205340245
 30
0.0
 10
4.8729941827
 20
5.2052931655
 30
0.0
 10
4.8729141379
 20
5.2052428672
 30
0.0
 10
4.8728506554
 20
5.2051798883
 30
0.0
 10
4.8728506554
 20
5.2051266877
 30
0.0
  0
LINE
  5
3C0
100
AcDbEntity
  8
0
100
AcDbLine
 62
7
  6
CONTINUOUS
 10
5.4812401899
 20
5.2166946592
 11
5.4809487243
 21
5.2166252026
  0
SPLINE
  5
3C1
100
AcDbEntity
  8
0
100
AcDbSpline
 62
7
  6
CONTINUOUS
 70
0
 71
3
 72
62
 73
58
 74
0
 42
0.0000001
 43
0.0000001
 44
0.0000000001
 40
0.0
 40
0.0
 40
0.0
 40
0.0
 40
0.0011730443
 40
0.0026256006
 40
0.004358324
 40
0.0063712126
 40
0.0112339497
 40
0.0172048327
 40
0.0242721248
 40
0.032419758
 40
0.041630272
 40
0.0518825396
 40
0.0631535783
 40
0.0754179805
 40
0.1028127416
 40
0.1338178525
 40
0.1681511376
 40
0.2054999653
 40
0.2455240964
 40
0.2878587113
 40
0.3321179796
 40
0.3778984017
 40
0.4247827054
 40
0.4723435315
 40
0.520147238
 40
0.5677581317
 40
0.6147420224
 40
0.6606707146
 40
0.7051254982
 40
0.7477011782
 40
0.7880097572
 40
0.8256837891
 40
0.8603800326
 40
0.8917824248
 40
0.9061579369
 40
0.9196052202
 40
0.9320940524
 40
0.9435955163
 40
0.9540841948
 40
0.9635357859
 40
0.9719294763
 40
0.9792463978
 40
0.985470397
 40
0.9905888061
 40
0.9927299844
 40
0.9945914471
 40
0.996172879
 40
0.9974743785
 40
0.9980204448
 40
0.9984970459
 40
0.9989047357
 40
0.9992444459
 40
0.9995178219
 40
0.9997280972
 40
0.9998117537
 40
0.9998830906
 40
1.0
 40
1.0
 40
1.0
 40
1.0
 10
5.4809487243
 20
5.2166252026
 30
0.0
 10
5.4807241217
 20
5.2165756792
 30
0.0
 10
5.4802179428
 20
5.2164806424
 30
0.0
 10
5.4793730831
 20
5.2163519499
 30
0.0
 10
5.4783620346
 20
5.2162226568
 30
0.0
 10
5.4766842915
 20
5.2160378905
 30
0.0
 10
5.4741752897
 20
5.2158134119
 30
0.0
 10
5.4706748696
 20
5.2155558686
 30
0.0
 10
5.4665289713
 20
5.2152973456
 30
0.0
 10
5.4617468978
 20
5.2150379143
 30
0.0
 10
5.4563395674
 20
5.2147780062
 30
0.0
 10
5.4503192257
 20
5.2145177033
 30
0.0
 10
5.4436996179
 20
5.2142571201
 30
0.0
 10
5.4337203059
 20
5.2138959545
 30
0.0
 10
5.4198723448
 20
5.2134504992
 30
0.0
 10
5.4016976137
 20
5.2129322089
 30
0.0
 10
5.3815705115
 20
5.2124130029
 30
0.0
 10
5.3596745442
 20
5.2118930759
 30
0.0
 10
5.3362093663
 20
5.2113726658
 30
0.0
 10
5.3113889608
 20
5.2108518997
 30
0.0
 10
5.2854396945
 20
5.2103308802
 30
0.0
 10
5.2585982064
 20
5.2098096813
 30
0.0
 10
5.2311092691
 20
5.2092883633
 30
0.0
 10
5.2032235599
 20
5.2087669764
 30
0.0
 10
5.1751953648
 20
5.2082455654
 30
0.0
 10
5.147280308
 20
5.2077241737
 30
0.0
 10
5.1197329467
 20
5.2072028454
 30
0.0
 10
5.0928045111
 20
5.2066816301
 30
0.0
 10
5.0667405515
 20
5.206160586
 30
0.0
 10
5.0417787447
 20
5.2056397873
 30
0.0
 10
5.0181467286
 20
5.2051193254
 30
0.0
 10
4.9960600099
 20
5.2045993506
 30
0.0
 10
4.9757200239
 20
5.2040799964
 30
0.0
 10
4.9599477611
 20
5.2036359492
 30
0.0
 10
4.9483410757
 20
5.2032771916
 30
0.0
 10
4.9404415191
 20
5.2030162172
 30
0.0
 10
4.9331057968
 20
5.2027554158
 30
0.0
 10
4.9263505534
 20
5.2024947819
 30
0.0
 10
4.9201912887
 20
5.2022344234
 30
0.0
 10
4.9146419419
 20
5.2019743975
 30
0.0
 10
4.9097152145
 20
5.2017148486
 30
0.0
 10
4.9054222464
 20
5.2014560888
 30
0.0
 10
4.9017727657
 20
5.2011982309
 30
0.0
 10
4.8991384078
 20
5.2009738023
 30
0.0
 10
4.8973595235
 20
5.2007895305
 30
0.0
 10
4.8962722807
 20
5.2006600365
 30
0.0
 10
4.8953509786
 20
5.2005310042
 30
0.0
 10
4.8946879257
 20
5.2004186575
 30
0.0
 10
4.8942415844
 20
5.2003265556
 30
0.0
 10
4.8939686746
 20
5.2002617128
 30
0.0
 10
4.8937374894
 20
5.2001970582
 30
0.0
 10
4.8935477905
 20
5.2001326895
 30
0.0
 10
4.8933994756
 20
5.2000685664
 30
0.0
 10
4.89330301
 20
5.2000118668
 30
0.0
 10
4.8932488022
 20
5.1999645703
 30
0.0
 10
4.8932146099
 20
5.1999236796
 30
0.0
 10
4.8932007373
 20
5.1998867423
 30
0.0
 10
4.8932007238
 20
5.19986382
 30
0.0
  0
SPLINE
  5
3C2
100
AcDbEntity
  8
0
100
AcDbSpline
 62
7
  6
CONTINUOUS
 70
0
 71
3
 72
63
 73
59
 74
0
 42
0.0000001
 43
0.0000001
 44
0.0000000001
 40
0.0
 40
0.0
 40
0.0
 40
0.0
 40
0.0010305439
 40
0.0023428665
 40
0.0039378946
 40
0.0058154434
 40
0.0079749501
 40
0.0104156581
 40
0.0161361513
 40
0.0229644753
 40
0.0308862016
 40
0.0398832294
 40
0.0499353554
 40
0.0610197556
 40
0.0731108327
 40
0.1002007982
 40
0.1309570638
 40
0.1650973053
 40
0.2023080595
 40
0.2422475171
 40
0.2845487262
 40
0.32882305
 40
0.3746636464
 40
0.4216492279
 40
0.469348067
 40
0.5173216871
 40
0.5651292758
 40
0.612331412
 40
0.658494333
 40
0.703193838
 40
0.7460191384
 40
0.7865767516
 40
0.824494031
 40
0.8594226088
 40
0.875664673
 40
0.8910417939
 40
0.9055183912
 40
0.919061351
 40
0.9316397314
 40
0.9432244415
 40
0.9537894395
 40
0.9633100346
 40
0.9717652337
 40
0.9791354181
 40
0.9854046816
 40
0.9905593072
 40
0.992715317
 40
0.9945893606
 40
0.9961808781
 40
0.9974896925
 40
0.9980383522
 40
0.9985168552
 40
0.9989256787
 40
0.9992656228
 40
0.9995381322
 40
0.9996499814
 40
0.9997463072
 40
1.0
 40
1.0
 40
1.0
 40
1.0
 10
5.5015297376
 20
5.2564056598
 30
0.0
 10
5.5013196633
 20
5.2563549421
 30
0.0
 10
5.5008375144
 20
5.256258822
 30
0.0
 10
5.5000217388
 20
5.2561300864
 30
0.0
 10
5.4990266004
 20
5.2560006342
 30
0.0
 10
5.4978526611
 20
5.2558706171
 30
0.0
 10
5.4965004758
 20
5.2557402542
 30
0.0
 10
5.494343979
 20
5.2555562475
 30
0.0
 10
5.4912085566
 20
5.2553310573
 30
0.0
 10
5.4869235869
 20
5.2550715758
 30
0.0
 10
5.4819504706
 20
5.2548113611
 30
0.0
 10
5.4763005436
 20
5.2545504973
 30
0.0
 10
5.4699867789
 20
5.254289246
 30
0.0
 10
5.4630236917
 20
5.2540276802
 30
0.0
 10
5.4524890289
 20
5.2536647295
 30
0.0
 10
5.4378296189
 20
5.2532173372
 30
0.0
 10
5.4185466137
 20
5.2526971255
 30
0.0
 10
5.3971405644
 20
5.2521759511
 30
0.0
 10
5.3738082585
 20
5.2516540161
 30
0.0
 10
5.3487641747
 20
5.2511315745
 30
0.0
 10
5.3222385331
 20
5.2506087603
 30
0.0
 10
5.2944751721
 20
5.2500856814
 30
0.0
 10
5.2657293123
 20
5.249562415
 30
0.0
 10
5.2362652025
 20
5.2490390232
 30
0.0
 10
5.2063537198
 20
5.248515558
 30
0.0
 10
5.1762698327
 20
5.247992065
 30
0.0
 10
5.1462901221
 20
5.2474685887
 30
0.0
 10
5.1166901806
 20
5.2469451742
 30
0.0
 10
5.0877421205
 20
5.2464218714
 30
0.0
 10
5.059712054
 20
5.2458987401
 30
0.0
 10
5.0328576543
 20
5.2453758506
 30
0.0
 10
5.0074257938
 20
5.2448533106
 30
0.0
 10
4.9836502749
 20
5.2443312168
 30
0.0
 10
4.9649733927
 20
5.2438866257
 30
0.0
 10
4.9510226146
 20
5.2435281483
 30
0.0
 10
4.9413596654
 20
5.2432659257
 30
0.0
 10
4.9322629487
 20
5.2430037989
 30
0.0
 10
4.9237533964
 20
5.2427417859
 30
0.0
 10
4.9158505887
 20
5.2424799284
 30
0.0
 10
4.9085726363
 20
5.2422182484
 30
0.0
 10
4.9019363554
 20
5.2419568431
 30
0.0
 10
4.8959568903
 20
5.2416957667
 30
0.0
 10
4.8906480804
 20
5.2414351876
 30
0.0
 10
4.8860219608
 20
5.2411753676
 30
0.0
 10
4.8820892064
 20
5.2409164988
 30
0.0
 10
4.8792501906
 20
5.2406911618
 30
0.0
 10
4.8773329813
 20
5.2405061511
 30
0.0
 10
4.876161241
 20
5.2403761497
 30
0.0
 10
4.8751683852
 20
5.2402466176
 30
0.0
 10
4.8744537913
 20
5.2401338006
 30
0.0
 10
4.8739726967
 20
5.2400412956
 30
0.0
 10
4.8736786248
 20
5.239976173
 30
0.0
 10
4.8734295228
 20
5.239911335
 30
0.0
 10
4.8732251158
 20
5.2398465786
 30
0.0
 10
4.8730841627
 20
5.239790245
 30
0.0
 10
4.8729941827
 20
5.2397431655
 30
0.0
 10
4.8729141379
 20
5.2396928672
 30
0.0
 10
4.8728506554
 20
5.2396298883
 30
0.0
 10
4.8728506554
 20
5.2395766877
 30
0.0
  0
LINE
  5
3C3
100
AcDbEntity
  8
0
100
AcDbLine
 62
7
  6
CONTINUOUS
 10
5.4812402589
 20
5.2511446592
 11
5.4809074948
 21
5.2510661783
  0
SPLINE
  5
3C4
100
AcDbEntity
  8
0
100
AcDbSpline
 62
7
  6
CONTINUOUS
 70
0
 71
3
 72
62
 73
58
 74
0
 42
0.0000001
 43
0.0000001
 44
0.0000000001
 40
0.0
 40
0.0
 40
0.0
 40
0.0
 40
0.0011917355
 40
0.0026628804
 40
0.0044137858
 40
0.0064442606
 40
0.0113415203
 40
0.01734569
 40
0.0244442858
 40
0.032622176
 40
0.0418606508
 40
0.0521396639
 40
0.0634353968
 40
0.0757227799
 40
0.1031580213
 40
0.1341963188
 40
0.1685555901
 40
0.2059230851
 40
0.2459587594
 40
0.2882981069
 40
0.3325556648
 40
0.3783285278
 40
0.4251998336
 40
0.4727428177
 40
0.5205244593
 40
0.5681096385
 40
0.6150650662
 40
0.6609631485
 40
0.7053859404
 40
0.7479289631
 40
0.78820476
 40
0.8258467855
 40
0.8605124217
 40
0.8918863319
 40
0.9062486075
 40
0.919683297
 40
0.9321600979
 40
0.943650796
 40
0.9541290448
 40
0.9635717412
 40
0.9719569871
 40
0.979266774
 40
0.9854846562
 40
0.9905977863
 40
0.9927370683
 40
0.9945967582
 40
0.9961764556
 40
0.9974765101
 40
0.9980220437
 40
0.9984982651
 40
0.9989056827
 40
0.9992451678
 40
0.9995183152
 40
0.9997283668
 40
0.9998119262
 40
0.999883183
 40
1.0
 40
1.0
 40
1.0
 40
1.0
 10
5.4809074948
 20
5.2510661783
 30
0.0
 10
5.48067913
 20
5.2510167843
 30
0.0
 10
5.4801655396
 20
5.2509218873
 30
0.0
 10
5.4793097425
 20
5.2507932196
 30
0.0
 10
5.4782880236
 20
5.2506639628
 30
0.0
 10
5.4765965234
 20
5.2504793503
 30
0.0
 10
5.4740708877
 20
5.2502550068
 30
0.0
 10
5.4705512297
 20
5.2499975664
 30
0.0
 10
5.4663869951
 20
5.2497391205
 30
0.0
 10
5.461587681
 20
5.2494798368
 30
0.0
 10
5.4561640584
 20
5.2492200253
 30
0.0
 10
5.4501285617
 20
5.2489598704
 30
0.0
 10
5.4434948229
 20
5.2486994103
 30
0.0
 10
5.4334989243
 20
5.2483384844
 30
0.0
 10
5.4196329915
 20
5.2478932854
 30
0.0
 10
5.4014400122
 20
5.2473752535
 30
0.0
 10
5.3812990816
 20
5.2468563119
 30
0.0
 10
5.3593936583
 20
5.2463366538
 30
0.0
 10
5.3359233054
 20
5.245816515
 30
0.0
 10
5.3111018187
 20
5.2452960221
 30
0.0
 10
5.2851552982
 20
5.2447752776
 30
0.0
 10
5.2583200967
 20
5.2442543551
 30
0.0
 10
5.2308406558
 20
5.2437333144
 30
0.0
 10
5.2029673158
 20
5.2432122054
 30
0.0
 10
5.1749539938
 20
5.2426910725
 30
0.0
 10
5.1470558846
 20
5.242169959
 30
0.0
 10
5.1195271201
 20
5.2416489093
 30
0.0
 10
5.0926184679
 20
5.2411279732
 30
0.0
 10
5.0665750522
 20
5.2406072082
 30
0.0
 10
5.0416341363
 20
5.240086689
 30
0.0
 10
5.0180229189
 20
5.2395665056
 30
0.0
 10
4.9959564864
 20
5.2390468088
 30
0.0
 10
4.9756358184
 20
5.2385277329
 30
0.0
 10
4.9598788663
 20
5.2380839213
 30
0.0
 10
4.9482836614
 20
5.2377253547
 30
0.0
 10
4.9403920941
 20
5.2374645249
 30
0.0
 10
4.933063837
 20
5.2372038519
 30
0.0
 10
4.9263155916
 20
5.2369433774
 30
0.0
 10
4.9201626691
 20
5.2366831352
 30
0.0
 10
4.9146191637
 20
5.2364232728
 30
0.0
 10
4.9096975888
 20
5.2361638463
 30
0.0
 10
4.9054091827
 20
5.2359052294
 30
0.0
 10
4.9017635957
 20
5.2356475266
 30
0.0
 10
4.8991320365
 20
5.2354231843
 30
0.0
 10
4.8973550321
 20
5.2352390359
 30
0.0
 10
4.8962689262
 20
5.2351096176
 30
0.0
 10
4.895348663
 20
5.2349806466
 30
0.0
 10
4.8946863885
 20
5.2348683517
 30
0.0
 10
4.8942405423
 20
5.2347762999
 30
0.0
 10
4.8939678833
 20
5.2347114938
 30
0.0
 10
4.893736884
 20
5.2346468777
 30
0.0
 10
4.8935473365
 20
5.2345825498
 30
0.0
 10
4.8933991627
 20
5.2345184637
 30
0.0
 10
4.8933028143
 20
5.2344617899
 30
0.0
 10
4.8932486983
 20
5.2344145156
 30
0.0
 10
4.8932145745
 20
5.2343736394
 30
0.0
 10
4.8932007596
 20
5.2343367224
 30
0.0
 10
4.8932007665
 20
5.2343138198
 30
0.0
  0
SPLINE
  5
3C5
100
AcDbEntity
  8
0
100
AcDbSpline
 62
7
  6
CONTINUOUS
 70
0
 71
3
 72
11
 73
7
 74
0
 42
0.0000001
 43
0.0000001
 44
0.0000000001
 40
0.0
 40
0.0
 40
0.0
 40
0.0
 40
0.2566916813
 40
0.5120194464
 40
0.7608849735
 40
1.0
 40
1.0
 40
1.0
 40
1.0
 10
4.8474321788
 20
5.5228860624
 30
0.0
 10
4.8474951189
 20
5.5238468921
 30
0.0
 10
4.8478643964
 20
5.525755609
 30
0.0
 10
4.8490898391
 20
5.5283652911
 30
0.0
 10
4.8508913776
 20
5.5305336965
 30
0.0
 10
4.8524244341
 20
5.5315879596
 30
0.0
 10
4.8532322725
 20
5.5319777387
 30
0.0
  0
SPLINE
  5
3C6
100
AcDbEntity
  8
0
100
AcDbSpline
 62
7
  6
CONTINUOUS
 70
0
 71
3
 72
13
 73
9
 74
0
 42
0.0000001
 43
0.0000001
 44
0.0000000001
 40
0.0
 40
0.0
 40
0.0
 40
0.0
 40
0.2640725459
 40
0.5191945607
 40
0.6430186457
 40
0.7641682985
 40
0.8830474191
 40
1.0
 40
1.0
 40
1.0
 40
1.0
 10
5.6658261854
 20
5.5228860624
 30
0.0
 10
5.6658881029
 20
5.5238312827
 30
0.0
 10
5.6657788552
 20
5.5257138726
 30
0.0
 10
5.6650362726
 20
5.5279306163
 30
0.0
 10
5.6641105141
 20
5.5294739166
 30
0.0
 10
5.6632753972
 20
5.5304839266
 30
0.0
 10
5.6623108023
 20
5.5313339478
 30
0.0
 10
5.6615901638
 20
5.5317856468
 30
0.0
 10
5.6612172093
 20
5.5319777387
 30
0.0
  0
SPLINE
  5
3C7
100
AcDbEntity
  8
0
100
AcDbSpline
 62
7
  6
CONTINUOUS
 70
0
 71
3
 72
13
 73
9
 74
0
 42
0.0000001
 43
0.0000001
 44
0.0000000001
 40
0.0
 40
0.0
 40
0.0
 40
0.0
 40
0.2640725461
 40
0.519194561
 40
0.643018646
 40
0.7641682988
 40
0.8830474193
 40
1.0
 40
1.0
 40
1.0
 40
1.0
 10
4.7093751254
 20
5.4271915774
 30
0.0
 10
4.7093132078
 20
5.4262463571
 30
0.0
 10
4.7094224555
 20
5.4243637671
 30
0.0
 10
4.7101650382
 20
5.4221470234
 30
0.0
 10
4.7110907967
 20
5.4206037232
 30
0.0
 10
4.7119259136
 20
5.4195937131
 30
0.0
 10
4.7128905085
 20
5.418743692
 30
0.0
 10
4.7136111469
 20
5.4182919929
 30
0.0
 10
4.7139841014
 20
5.418099901
 30
0.0
  0
SPLINE
  5
3C8
100
AcDbEntity
  8
0
100
AcDbSpline
 62
7
  6
CONTINUOUS
 70
0
 71
3
 72
11
 73
7
 74
0
 42
0.0000001
 43
0.0000001
 44
0.0000000001
 40
0.0
 40
0.0
 40
0.0
 40
0.0
 40
0.2566916813
 40
0.5120194462
 40
0.7608849734
 40
1.0
 40
1.0
 40
1.0
 40
1.0
 10
5.5277691319
 20
5.4271915774
 30
0.0
 10
5.5277061919
 20
5.4262307476
 30
0.0
 10
5.5273369143
 20
5.4243220307
 30
0.0
 10
5.5261114716
 20
5.4217123486
 30
0.0
 10
5.5243099331
 20
5.4195439432
 30
0.0
 10
5.5227768766
 20
5.4184896802
 30
0.0
 10
5.5219690382
 20
5.418099901
 30
0.0
  0
SPLINE
  5
3C9
100
AcDbEntity
  8
0
100
AcDbSpline
 62
7
  6
CONTINUOUS
 70
0
 71
3
 72
63
 73
59
 74
0
 42
0.0000001
 43
0.0000001
 44
0.0000000001
 40
0.0
 40
0.0
 40
0.0
 40
0.0
 40
0.0001173503
 40
0.0001890525
 40
0.0002732121
 40
0.0004849357
 40
0.000760347
 40
0.0011026511
 40
0.0015134589
 40
0.001993666
 40
0.0025438055
 40
0.0038550342
 40
0.0054486313
 40
0.0073246263
 40
0.0094824126
 40
0.0146398492
 40
0.020911896
 40
0.0282845239
 40
0.0367420684
 40
0.0462651086
 40
0.0568321716
 40
0.0684193403
 40
0.0809997335
 40
0.0945451251
 40
0.1090238507
 40
0.1406475699
 40
0.1755805923
 40
0.2135021133
 40
0.2540637276
 40
0.2968927522
 40
0.3415956465
 40
0.3877614811
 40
0.4349660107
 40
0.4827752019
 40
0.5307496853
 40
0.5784484687
 40
0.6254330953
 40
0.6712717803
 40
0.7155430611
 40
0.7578401287
 40
0.7977742239
 40
0.8349784773
 40
0.8691111556
 40
0.8998588118
 40
0.9269393088
 40
0.9390252543
 40
0.9501044689
 40
0.9601510043
 40
0.9691426395
 40
0.9770586187
 40
0.9838814717
 40
0.989596465
 40
0.9920345329
 40
0.9941916041
 40
0.9960669016
 40
0.997659871
 40
0.9989704646
 40
1.0
 40
1.0
 40
1.0
 40
1.0
 10
5.4820006327
 20
5.2727388199
 30
0.0
 10
5.4820006446
 20
5.2727157995
 30
0.0
 10
5.4819866664
 20
5.2726786751
 30
0.0
 10
5.4819522084
 20
5.272637639
 30
0.0
 10
5.4818975259
 20
5.2725901353
 30
0.0
 10
5.4818002166
 20
5.2725332112
 30
0.0
 10
5.4816506257
 20
5.2724688308
 30
0.0
 10
5.4814593025
 20
5.2724042014
 30
0.0
 10
5.481226167
 20
5.2723392815
 30
0.0
 10
5.4809509972
 20
5.272274171
 30
0.0
 10
5.480501012
 20
5.2721816819
 30
0.0
 10
5.4798325263
 20
5.2720688554
 30
0.0
 10
5.4789036035
 20
5.2719392982
 30
0.0
 10
5.4778073068
 20
5.2718092777
 30
0.0
 10
5.4760137465
 20
5.2716242538
 30
0.0
 10
5.4733577066
 20
5.2713988579
 30
0.0
 10
5.4696783509
 20
5.2711399752
 30
0.0
 10
5.4653503156
 20
5.2708801173
 30
0.0
 10
5.4603836056
 20
5.2706195047
 30
0.0
 10
5.4547895115
 20
5.2703584055
 30
0.0
 10
5.4485809035
 20
5.2700969556
 30
0.0
 10
5.441772067
 20
5.2698352613
 30
0.0
 10
5.4343785886
 20
5.2695733611
 30
0.0
 10
5.4264175531
 20
5.2693113218
 30
0.0
 10
5.4147220457
 20
5.2689510845
 30
0.0
 10
5.3988316364
 20
5.2685052325
 30
0.0
 10
5.378342877
 20
5.2679837322
 30
0.0
 10
5.3561002763
 20
5.2674616125
 30
0.0
 10
5.3323083427
 20
5.2669390032
 30
0.0
 10
5.3071858204
 20
5.2664160575
 30
0.0
 10
5.2809637033
 20
5.2658928664
 30
0.0
 10
5.2538830875
 20
5.2653695052
 30
0.0
 10
5.2261930046
 20
5.2648460321
 30
0.0
 10
5.19814806
 20
5.2643224969
 30
0.0
 10
5.1700061419
 20
5.2637989452
 30
0.0
 10
5.142026005
 20
5.2632754211
 30
0.0
 10
5.1144649179
 20
5.2627519708
 30
0.0
 10
5.087576321
 20
5.2622286464
 30
0.0
 10
5.0616074524
 20
5.2617055096
 30
0.0
 10
5.0367971188
 20
5.2611826375
 30
0.0
 10
5.0133734304
 20
5.2606601383
 30
0.0
 10
4.9915517523
 20
5.2601381458
 30
0.0
 10
4.9715327003
 20
5.2596169155
 30
0.0
 10
4.9535003277
 20
5.2590966469
 30
0.0
 10
4.9397926041
 20
5.2586492044
 30
0.0
 10
4.929942644
 20
5.2582861998
 30
0.0
 10
4.9234327832
 20
5.2580246144
 30
0.0
 10
4.9175304507
 20
5.2577633219
 30
0.0
 10
4.9122492985
 20
5.2575024441
 30
0.0
 10
4.9076013521
 20
5.2572421893
 30
0.0
 10
4.9035972952
 20
5.2569826968
 30
0.0
 10
4.9006679991
 20
5.2567574729
 30
0.0
 10
4.8986538295
 20
5.2565734254
 30
0.0
 10
4.8973912053
 20
5.2564430435
 30
0.0
 10
4.8962953309
 20
5.2563130108
 30
0.0
 10
4.8953667342
 20
5.2561835453
 30
0.0
 10
4.8946059188
 20
5.2560547923
 30
0.0
 10
4.894156676
 20
5.255958674
 30
0.0
 10
4.893961179
 20
5.2559079804
 30
0.0
  0
SPLINE
  5
3CA
100
AcDbEntity
  8
0
100
AcDbSpline
 62
7
  6
CONTINUOUS
 70
0
 71
3
 72
63
 73
59
 74
0
 42
0.0000001
 43
0.0000001
 44
0.0000000001
 40
0.0
 40
0.0
 40
0.0
 40
0.0
 40
0.0001173533
 40
0.0001890375
 40
0.0002731611
 40
0.0004847795
 40
0.0007600918
 40
0.0011023634
 40
0.0015132148
 40
0.0019935112
 40
0.0025437537
 40
0.003855097
 40
0.0054485253
 40
0.007324336
 40
0.0094822186
 40
0.0146398722
 40
0.0209116175
 40
0.0282845751
 40
0.0367418256
 40
0.0462650509
 40
0.056832045
 40
0.0684191641
 40
0.0809997557
 40
0.0945448882
 40
0.1090238659
 40
0.1406475053
 40
0.1755804508
 40
0.21350189
 40
0.2540635514
 40
0.2968926325
 40
0.3415955676
 40
0.3877614176
 40
0.434965869
 40
0.4827750718
 40
0.5307495521
 40
0.5784483449
 40
0.625433
 40
0.6712715807
 40
0.7155428498
 40
0.757839898
 40
0.7977740523
 40
0.8349784141
 40
0.8691111062
 40
0.8998587324
 40
0.9269390762
 40
0.9390251801
 40
0.950104139
 40
0.9601510054
 40
0.9691423467
 40
0.9770585407
 40
0.9838812781
 40
0.9895962251
 40
0.9920345144
 40
0.9941915443
 40
0.9960666462
 40
0.9976595289
 40
0.9989703153
 40
1.0
 40
1.0
 40
1.0
 40
1.0
 10
5.4820005384
 20
5.3071888199
 30
0.0
 10
5.4820005405
 20
5.3071657988
 30
0.0
 10
5.4819865643
 20
5.307128683
 30
0.0
 10
5.4819521281
 20
5.3070876416
 30
0.0
 10
5.481897488
 20
5.307040137
 30
0.0
 10
5.4818002366
 20
5.3069832057
 30
0.0
 10
5.4816506968
 20
5.3069188219
 30
0.0
 10
5.4814593906
 20
5.306854195
 30
0.0
 10
5.4812262334
 20
5.306789279
 30
0.0
 10
5.4809510155
 20
5.3067241708
 30
0.0
 10
5.4805009677
 20
5.3066316874
 30
0.0
 10
5.4798324713
 20
5.3065188687
 30
0.0
 10
5.4789035981
 20
5.3063892955
 30
0.0
 10
5.4778073529
 20
5.3062592667
 30
0.0
 10
5.4760137654
 20
5.3060742572
 30
0.0
 10
5.4733577224
 20
5.3058488725
 30
0.0
 10
5.4696783205
 20
5.3055899564
 30
0.0
 10
5.465350335
 20
5.3053301342
 30
0.0
 10
5.460383583
 20
5.3050694914
 30
0.0
 10
5.4547895225
 20
5.304808412
 30
0.0
 10
5.4485809015
 20
5.3045469544
 30
0.0
 10
5.441772049
 20
5.3042852577
 30
0.0
 10
5.4343785915
 20
5.3040233674
 30
0.0
 10
5.4264175185
 20
5.3037613141
 30
0.0
 10
5.4147220269
 20
5.3034010921
 30
0.0
 10
5.3988315983
 20
5.30295523
 30
0.0
 10
5.3783428846
 20
5.3024337323
 30
0.0
 10
5.3561003045
 20
5.3019116115
 30
0.0
 10
5.3323083653
 20
5.3013890027
 30
0.0
 10
5.3071858133
 20
5.3008660574
 30
0.0
 10
5.2809636727
 20
5.3003428666
 30
0.0
 10
5.2538830596
 20
5.2998195051
 30
0.0
 10
5.2261929852
 20
5.2992960318
 30
0.0
 10
5.1981480528
 20
5.2987724966
 30
0.0
 10
5.1700061295
 20
5.298248945
 30
0.0
 10
5.1420259844
 20
5.2977254211
 30
0.0
 10
5.1144649087
 20
5.2972019711
 30
0.0
 10
5.0875763275
 20
5.2966786463
 30
0.0
 10
5.061607484
 20
5.2961555091
 30
0.0
 10
5.0367971435
 20
5.2956326371
 30
0.0
 10
5.0133734247
 20
5.2951101379
 30
0.0
 10
4.9915517099
 20
5.2945881463
 30
0.0
 10
4.9715326387
 20
5.2940669154
 30
0.0
 10
4.9535002982
 20
5.2935466505
 30
0.0
 10
4.9397925791
 20
5.2930991961
 30
0.0
 10
4.929942667
 20
5.2927362081
 30
0.0
 10
4.9234327608
 20
5.2924746022
 30
0.0
 10
4.9175304697
 20
5.2922133352
 30
0.0
 10
4.9122492691
 20
5.291952432
 30
0.0
 10
4.9076013597
 20
5.2916921962
 30
0.0
 10
4.9035972922
 20
5.2914326997
 30
0.0
 10
4.9006679859
 20
5.2912074575
 30
0.0
 10
4.8986537877
 20
5.2910234334
 30
0.0
 10
4.8973911666
 20
5.2908930492
 30
0.0
 10
4.896295357
 20
5.2907630087
 30
0.0
 10
4.8953667798
 20
5.2906335305
 30
0.0
 10
4.8946059123
 20
5.2905047888
 30
0.0
 10
4.8941565979
 20
5.2904086819
 30
0.0
 10
4.8939610726
 20
5.2903579804
 30
0.0
  0
SPLINE
  5
3CB
100
AcDbEntity
  8
0
100
AcDbSpline
 62
7
  6
CONTINUOUS
 70
0
 71
3
 72
63
 73
59
 74
0
 42
0.0000001
 43
0.0000001
 44
0.0000000001
 40
0.0
 40
0.0
 40
0.0
 40
0.0
 40
0.0001173815
 40
0.0001890987
 40
0.0002732606
 40
0.0004849484
 40
0.0007602847
 40
0.0011025009
 40
0.0015132367
 40
0.001993417
 40
0.0025436034
 40
0.003855055
 40
0.0054486786
 40
0.0073245083
 40
0.0094821644
 40
0.0146399066
 40
0.0209117183
 40
0.0282844775
 40
0.0367420106
 40
0.0462649205
 40
0.0568322011
 40
0.0684191117
 40
0.0809997787
 40
0.0945449615
 40
0.1090238044
 40
0.1406474085
 40
0.1755803992
 40
0.2135019799
 40
0.2540636487
 40
0.296892737
 40
0.3415956062
 40
0.3877614151
 40
0.4349659149
 40
0.482775106
 40
0.5307496373
 40
0.578448391
 40
0.6254330159
 40
0.6712716429
 40
0.7155429376
 40
0.7578400766
 40
0.7977742384
 40
0.8349785079
 40
0.869111118
 40
0.8998586828
 40
0.9269391111
 40
0.9390253201
 40
0.9501042949
 40
0.9601509854
 40
0.9691425983
 40
0.977058492
 40
0.9838815608
 40
0.9895962574
 40
0.9920344649
 40
0.9941916914
 40
0.9960669361
 40
0.9976596877
 40
0.9989702913
 40
1.0
 40
1.0
 40
1.0
 40
1.0
 10
5.4820006146
 20
5.3416388198
 30
0.0
 10
5.4820006013
 20
5.3416157932
 30
0.0
 10
5.4819865878
 20
5.3415786779
 30
0.0
 10
5.4819521169
 20
5.3415376419
 30
0.0
 10
5.4818974373
 20
5.3414901407
 30
0.0
 10
5.4818001556
 20
5.3414332137
 30
0.0
 10
5.4816506078
 20
5.3413688301
 30
0.0
 10
5.4814593341
 20
5.3413041986
 30
0.0
 10
5.4812262367
 20
5.3412392776
 30
0.0
 10
5.4809510774
 20
5.3411741662
 30
0.0
 10
5.4805010434
 20
5.3410816776
 30
0.0
 10
5.479832496
 20
5.3409688682
 30
0.0
 10
5.4789035579
 20
5.3408393037
 30
0.0
 10
5.4778073153
 20
5.3407092752
 30
0.0
 10
5.4760137543
 20
5.3405242386
 30
0.0
 10
5.4733577231
 20
5.340298879
 30
0.0
 10
5.4696783305
 20
5.3400399613
 30
0.0
 10
5.4653503167
 20
5.3397801232
 30
0.0
 10
5.4603836093
 20
5.3395195056
 30
0.0
 10
5.4547895008
 20
5.3392583991
 30
0.0
 10
5.448580926
 20
5.3389969644
 30
0.0
 10
5.4417720447
 20
5.338735252
 30
0.0
 10
5.434378604
 20
5.3384733691
 30
0.0
 10
5.4264175335
 20
5.3382113164
 30
0.0
 10
5.4147220667
 20
5.3378510896
 30
0.0
 10
5.3988316641
 20
5.33740523
 30
0.0
 10
5.3783429227
 20
5.3368837321
 30
0.0
 10
5.3561003067
 20
5.3363616123
 30
0.0
 10
5.3323083392
 20
5.3358390034
 30
0.0
 10
5.3071857998
 20
5.3353160578
 30
0.0
 10
5.2809636813
 20
5.3347928666
 30
0.0
 10
5.2538830825
 20
5.3342695052
 30
0.0
 10
5.2261930116
 20
5.3337460319
 30
0.0
 10
5.1981480648
 20
5.3332224969
 30
0.0
 10
5.1700061443
 20
5.3326989454
 30
0.0
 10
5.1420260054
 20
5.3321754214
 30
0.0
 10
5.114464937
 20
5.331651971
 30
0.0
 10
5.0875763503
 20
5.3311286463
 30
0.0
 10
5.0616074774
 20
5.3306055092
 30
0.0
 10
5.0367971151
 20
5.3300826376
 30
0.0
 10
5.0133733974
 20
5.3295601388
 30
0.0
 10
4.9915517175
 20
5.3290381468
 30
0.0
 10
4.9715326945
 20
5.3285169151
 30
0.0
 10
4.9535003673
 20
5.32799665
 30
0.0
 10
4.9397926245
 20
5.3275491953
 30
0.0
 10
4.929942673
 20
5.3271862082
 30
0.0
 10
4.923432778
 20
5.3269246077
 30
0.0
 10
4.9175304663
 20
5.3266633249
 30
0.0
 10
4.912249305
 20
5.3264024478
 30
0.0
 10
4.9076013386
 20
5.3261421785
 30
0.0
 10
4.9035973124
 20
5.3258827153
 30
0.0
 10
4.9006680075
 20
5.3256574593
 30
0.0
 10
4.8986538372
 20
5.3254734245
 30
0.0
 10
4.8973911645
 20
5.3253430499
 30
0.0
 10
4.8962953124
 20
5.3252130208
 30
0.0
 10
4.8953667701
 20
5.3250835357
 30
0.0
 10
4.8946059622
 20
5.3249547809
 30
0.0
 10
4.8941566809
 20
5.3248586726
 30
0.0
 10
4.8939611482
 20
5.3248079805
 30
0.0
  0
SPLINE
  5
3CC
100
AcDbEntity
  8
0
100
AcDbSpline
 62
7
  6
CONTINUOUS
 70
0
 71
3
 72
9
 73
5
 74
0
 42
0.0000001
 43
0.0000001
 44
0.0000000001
 40
0.0
 40
0.0
 40
0.0
 40
0.0
 40
0.4939731433
 40
1.0
 40
1.0
 40
1.0
 40
1.0
 10
5.3378213258
 20
5.5222730306
 30
0.0
 10
5.3358153559
 20
5.5222730309
 30
0.0
 10
5.3317539552
 20
5.5223813833
 30
0.0
 10
5.3277027807
 20
5.5226851346
 30
0.0
 10
5.3256577088
 20
5.5228860624
 30
0.0
  0
SPLINE
  5
3CD
100
AcDbEntity
  8
0
100
AcDbSpline
 62
7
  6
CONTINUOUS
 70
0
 71
3
 72
9
 73
5
 74
0
 42
0.0000001
 43
0.0000001
 44
0.0000000001
 40
0.0
 40
0.0
 40
0.0
 40
0.0
 40
0.5060269065
 40
1.0
 40
1.0
 40
1.0
 40
1.0
 10
5.3256577088
 20
5.4271915774
 30
0.0
 10
5.3277027804
 20
5.4273925104
 30
0.0
 10
5.3317539557
 20
5.4276962539
 30
0.0
 10
5.3358153561
 20
5.4278046088
 30
0.0
 10
5.3378213258
 20
5.4278046092
 30
0.0
  0
SPLINE
  5
3CE
100
AcDbEntity
  8
0
100
AcDbSpline
 62
7
  6
CONTINUOUS
 70
0
 71
3
 72
11
 73
7
 74
0
 42
0.0000001
 43
0.0000001
 44
0.0000000001
 40
0.0
 40
0.0
 40
0.0
 40
0.0
 40
0.2145539168
 40
0.4533547491
 40
0.7155764626
 40
1.0
 40
1.0
 40
1.0
 40
1.0
 10
5.5277691319
 20
5.5228860624
 30
0.0
 10
5.5272247519
 20
5.5227790892
 30
0.0
 10
5.5260660015
 20
5.5225954349
 30
0.0
 10
5.5242244799
 20
5.5224080641
 30
0.0
 10
5.5221959671
 20
5.5222959713
 30
0.0
 10
5.5207822936
 20
5.5222730308
 30
0.0
 10
5.5200468348
 20
5.5222730306
 30
0.0
  0
SPLINE
  5
3CF
100
AcDbEntity
  8
0
100
AcDbSpline
 62
7
  6
CONTINUOUS
 70
0
 71
3
 72
11
 73
7
 74
0
 42
0.0000001
 43
0.0000001
 44
0.0000000001
 40
0.0
 40
0.0
 40
0.0
 40
0.0
 40
0.2844235656
 40
0.5466453075
 40
0.785446117
 40
1.0
 40
1.0
 40
1.0
 40
1.0
 10
5.5200468348
 20
5.4278046092
 30
0.0
 10
5.5207822936
 20
5.427804609
 30
0.0
 10
5.5221959673
 20
5.4277816686
 30
0.0
 10
5.5242244802
 20
5.4276695761
 30
0.0
 10
5.5260660016
 20
5.4274822033
 30
0.0
 10
5.5272247515
 20
5.4272985478
 30
0.0
 10
5.5277691319
 20
5.4271915774
 30
0.0
  0
SPLINE
  5
3D0
100
AcDbEntity
  8
0
100
AcDbSpline
 62
7
  6
CONTINUOUS
 70
0
 71
3
 72
63
 73
59
 74
0
 42
0.0000001
 43
0.0000001
 44
0.0000000001
 40
0.0
 40
0.0
 40
0.0
 40
0.0
 40
0.0010305488
 40
0.0023428763
 40
0.0039379092
 40
0.0058154627
 40
0.0079749741
 40
0.0104156864
 40
0.0161361879
 40
0.0229645197
 40
0.0308862536
 40
0.0398832882
 40
0.0499354205
 40
0.0610198261
 40
0.0731109087
 40
0.1002008843
 40
0.1309571577
 40
0.1650974078
 40
0.2023081681
 40
0.2422476303
 40
0.284548844
 40
0.3288231691
 40
0.3746637636
 40
0.4216493439
 40
0.4693481802
 40
0.5173217944
 40
0.5651293801
 40
0.6123315063
 40
0.6584944184
 40
0.7031939143
 40
0.7460192019
 40
0.7865768078
 40
0.8244940777
 40
0.8594226492
 40
0.8756647097
 40
0.8910418262
 40
0.9055184197
 40
0.9190613758
 40
0.9316397528
 40
0.9432244591
 40
0.9537894533
 40
0.9633100455
 40
0.9717652419
 40
0.979135424
 40
0.9854046854
 40
0.9905593093
 40
0.9927153186
 40
0.9945893618
 40
0.996180879
 40
0.9974896931
 40
0.9980383526
 40
0.9985168556
 40
0.9989256789
 40
0.9992656229
 40
0.9995381323
 40
0.9996499814
 40
0.9997463072
 40
1.0
 40
1.0
 40
1.0
 40
1.0
 10
5.5015297279
 20
5.2908556575
 30
0.0
 10
5.5013196525
 20
5.2908049398
 30
0.0
 10
5.5008375015
 20
5.2907088197
 30
0.0
 10
5.5000217229
 20
5.2905800842
 30
0.0
 10
5.4990265814
 20
5.2904506319
 30
0.0
 10
5.4978526392
 20
5.2903206148
 30
0.0
 10
5.4965004509
 20
5.290190252
 30
0.0
 10
5.4943439505
 20
5.2900062453
 30
0.0
 10
5.4912085239
 20
5.2897810552
 30
0.0
 10
5.4869235493
 20
5.2895215737
 30
0.0
 10
5.4819504284
 20
5.289261359
 30
0.0
 10
5.4763004972
 20
5.2890004953
 30
0.0
 10
5.4699867287
 20
5.288739244
 30
0.0
 10
5.463023638
 20
5.2884776782
 30
0.0
 10
5.4524889709
 20
5.2881147276
 30
0.0
 10
5.4378295563
 20
5.2876673354
 30
0.0
 10
5.4185465457
 20
5.2871471238
 30
0.0
 10
5.3971404921
 20
5.2866259494
 30
0.0
 10
5.3738081826
 20
5.2861040144
 30
0.0
 10
5.3487640959
 20
5.2855815729
 30
0.0
 10
5.3222384525
 20
5.2850587588
 30
0.0
 10
5.2944750911
 20
5.2845356799
 30
0.0
 10
5.2657292322
 20
5.2840124135
 30
0.0
 10
5.2362651241
 20
5.2834890218
 30
0.0
 10
5.206353644
 20
5.2829655566
 30
0.0
 10
5.1762697598
 20
5.2824420638
 30
0.0
 10
5.1462900535
 20
5.2819185875
 30
0.0
 10
5.1166901172
 20
5.2813951731
 30
0.0
 10
5.0877420634
 20
5.2808718703
 30
0.0
 10
5.0597120038
 20
5.2803487391
 30
0.0
 10
5.0328576107
 20
5.2798258497
 30
0.0
 10
5.0074257568
 20
5.2793033099
 30
0.0
 10
4.9836502431
 20
5.2787812161
 30
0.0
 10
4.9649733653
 20
5.278336625
 30
0.0
 10
4.9510225904
 20
5.2779781477
 30
0.0
 10
4.9413596439
 20
5.2777159251
 30
0.0
 10
4.9322629298
 20
5.2774537984
 30
0.0
 10
4.9237533799
 20
5.2771917853
 30
0.0
 10
4.9158505746
 20
5.2769299279
 30
0.0
 10
4.9085726246
 20
5.2766682479
 30
0.0
 10
4.901936346
 20
5.2764068428
 30
0.0
 10
4.8959568831
 20
5.2761457664
 30
0.0
 10
4.8906480749
 20
5.2758851873
 30
0.0
 10
4.8860219568
 20
5.2756253674
 30
0.0
 10
4.8820892038
 20
5.2753664987
 30
0.0
 10
4.8792501889
 20
5.2751411617
 30
0.0
 10
4.8773329802
 20
5.2749561509
 30
0.0
 10
4.8761612402
 20
5.2748261496
 30
0.0
 10
4.8751683846
 20
5.2746966175
 30
0.0
 10
4.8744537908
 20
5.2745838005
 30
0.0
 10
4.8739726964
 20
5.2744912955
 30
0.0
 10
4.8736786245
 20
5.274426173
 30
0.0
 10
4.8734295227
 20
5.274361335
 30
0.0
 10
4.8732251157
 20
5.2742965786
 30
0.0
 10
4.8730841626
 20
5.274240245
 30
0.0
 10
4.8729941827
 20
5.2741931655
 30
0.0
 10
4.8729141379
 20
5.2741428672
 30
0.0
 10
4.8728506554
 20
5.2740798883
 30
0.0
 10
4.8728506554
 20
5.2740266877
 30
0.0
  0
LINE
  5
3D1
100
AcDbEntity
  8
0
100
AcDbLine
 62
7
  6
CONTINUOUS
 10
5.4812401283
 20
5.2855946593
 11
5.480864035
 21
5.2855068883
  0
SPLINE
  5
3D2
100
AcDbEntity
  8
0
100
AcDbSpline
 62
7
  6
CONTINUOUS
 70
0
 71
3
 72
62
 73
58
 74
0
 42
0.0000001
 43
0.0000001
 44
0.0000000001
 40
0.0
 40
0.0
 40
0.0
 40
0.0
 40
0.0012106249
 40
0.0027005657
 40
0.0044702572
 40
0.0065192346
 40
0.0114518121
 40
0.0174901828
 40
0.0246212073
 40
0.0328297515
 40
0.0420975297
 40
0.0524035405
 40
0.0637250399
 40
0.076035826
 40
0.1035128693
 40
0.1345853974
 40
0.1689711664
 40
0.2063577145
 40
0.2464051642
 40
0.2887493777
 40
0.3330053415
 40
0.3787704166
 40
0.4256284013
 40
0.473152978
 40
0.5209119007
 40
0.5684707799
 40
0.6153969221
 40
0.6612635685
 40
0.7056533751
 40
0.7481627068
 40
0.7884049527
 40
0.8260141963
 40
0.8606485614
 40
0.8919932143
 40
0.9063415161
 40
0.9197634462
 40
0.9322279707
 40
0.9437073265
 40
0.9541753058
 40
0.9636082739
 40
0.9719853956
 40
0.9792874819
 40
0.9854992773
 40
0.9906070715
 40
0.992744012
 40
0.9946019037
 40
0.9961802096
 40
0.9974789046
 40
0.9980237945
 40
0.9984994401
 40
0.9989063818
 40
0.9992455218
 40
0.9995184762
 40
0.9997284487
 40
0.9998119893
 40
0.9998832301
 40
1.0
 40
1.0
 40
1.0
 40
1.0
 10
5.480864035
 20
5.2855068883
 30
0.0
 10
5.4806318723
 20
5.2854576289
 30
0.0
 10
5.4801108001
 20
5.285362853
 30
0.0
 10
5.4792438739
 20
5.2852342035
 30
0.0
 10
5.478211149
 20
5.2851049951
 30
0.0
 10
5.4765054392
 20
5.2849205908
 30
0.0
 10
5.4739626705
 20
5.2846963387
 30
0.0
 10
5.4704232323
 20
5.2844390157
 30
0.0
 10
5.4662402007
 20
5.2841806676
 30
0.0
 10
5.4614231063
 20
5.2839214976
 30
0.0
 10
5.4559828211
 20
5.2836618329
 30
0.0
 10
5.4499316726
 20
5.2834017885
 30
0.0
 10
5.4432834858
 20
5.2831414846
 30
0.0
 10
5.4332704888
 20
5.2827807827
 30
0.0
 10
5.4193860913
 20
5.2823358644
 30
0.0
 10
5.4011743703
 20
5.2818180939
 30
0.0
 10
5.381019308
 20
5.2812994242
 30
0.0
 10
5.3591042906
 20
5.280780042
 30
0.0
 10
5.335628704
 20
5.2802601826
 30
0.0
 10
5.3108061344
 20
5.2797399715
 30
0.0
 10
5.2848624521
 20
5.2792195107
 30
0.0
 10
5.2580337221
 20
5.2786988729
 30
0.0
 10
5.230564098
 20
5.2781781175
 30
0.0
 10
5.2027035323
 20
5.277657294
 30
0.0
 10
5.1747055398
 20
5.2771364474
 30
0.0
 10
5.1468248843
 20
5.2766156206
 30
0.0
 10
5.1193152549
 20
5.2760948581
 30
0.0
 10
5.0924270018
 20
5.2755742093
 30
0.0
 10
5.0664047839
 20
5.2750537313
 30
0.0
 10
5.0414853974
 20
5.2745334987
 30
0.0
 10
5.0178955694
 20
5.2740136022
 30
0.0
 10
4.9958499356
 20
5.2734941934
 30
0.0
 10
4.9755490931
 20
5.2729754018
 30
0.0
 10
4.9598079348
 20
5.2725318422
 30
0.0
 10
4.9482245816
 20
5.2721734585
 30
0.0
 10
4.9403412568
 20
5.2719127838
 30
0.0
 10
4.9330206844
 20
5.2716522499
 30
0.0
 10
4.9262795919
 20
5.2713919159
 30
0.0
 10
4.9201332771
 20
5.2711318324
 30
0.0
 10
4.9145957044
 20
5.2708720896
 30
0.0
 10
4.909679509
 20
5.2706128383
 30
0.0
 10
4.9053957243
 20
5.2703543325
 30
0.0
 10
4.9017541605
 20
5.2700967954
 30
0.0
 10
4.8991254984
 20
5.2698725782
 30
0.0
 10
4.8973504883
 20
5.2696885147
 30
0.0
 10
4.8962655491
 20
5.269559169
 30
0.0
 10
4.8953462445
 20
5.2694302888
 30
0.0
 10
4.8946846861
 20
5.2693180524
 30
0.0
 10
4.894239382
 20
5.2692260448
 30
0.0
 10
4.8939670784
 20
5.2691612724
 30
0.0
 10
4.893736373
 20
5.2690966888
 30
0.0
 10
4.8935470416
 20
5.2690323911
 30
0.0
 10
4.8933989987
 20
5.2689683391
 30
0.0
 10
4.8933027062
 20
5.2689117033
 30
0.0
 10
4.8932486009
 20
5.2688644594
 30
0.0
 10
4.8932144765
 20
5.268823611
 30
0.0
 10
4.8932006536
 20
5.2687867114
 30
0.0
 10
4.8932006597
 20
5.2687638198
 30
0.0
  0
LINE
  5
3D3
100
AcDbEntity
  8
0
100
AcDbLine
 62
7
  6
CONTINUOUS
 10
5.6702675052
 20
5.5222730306
 11
5.6658261854
 21
5.5228860624
  0
LINE
  5
3D4
100
AcDbEntity
  8
0
100
AcDbLine
 62
7
  6
CONTINUOUS
 10
5.6658261854
 20
5.4271915774
 11
5.6702675052
 21
5.4278046092
  0
SPLINE
  5
3D5
100
AcDbEntity
  8
0
100
AcDbSpline
 62
7
  6
CONTINUOUS
 70
0
 71
3
 72
63
 73
59
 74
0
 42
0.0000001
 43
0.0000001
 44
0.0000000001
 40
0.0
 40
0.0
 40
0.0
 40
0.0
 40
0.0010305488
 40
0.0023428763
 40
0.0039379092
 40
0.0058154627
 40
0.0079749741
 40
0.0104156864
 40
0.0161361879
 40
0.0229645197
 40
0.0308862536
 40
0.0398832882
 40
0.0499354205
 40
0.0610198261
 40
0.0731109087
 40
0.1002008843
 40
0.1309571577
 40
0.1650974078
 40
0.2023081681
 40
0.2422476303
 40
0.284548844
 40
0.3288231691
 40
0.3746637636
 40
0.4216493439
 40
0.4693481802
 40
0.5173217944
 40
0.5651293801
 40
0.6123315063
 40
0.6584944184
 40
0.7031939143
 40
0.7460192019
 40
0.7865768078
 40
0.8244940777
 40
0.8594226492
 40
0.8756647097
 40
0.8910418262
 40
0.9055184197
 40
0.9190613758
 40
0.9316397528
 40
0.9432244591
 40
0.9537894533
 40
0.9633100455
 40
0.9717652419
 40
0.979135424
 40
0.9854046854
 40
0.9905593093
 40
0.9927153186
 40
0.9945893618
 40
0.996180879
 40
0.9974896931
 40
0.9980383526
 40
0.9985168556
 40
0.9989256789
 40
0.9992656229
 40
0.9995381323
 40
0.9996499814
 40
0.9997463072
 40
1.0
 40
1.0
 40
1.0
 40
1.0
 10
5.5015297279
 20
5.3253056575
 30
0.0
 10
5.5013196525
 20
5.3252549398
 30
0.0
 10
5.5008375015
 20
5.3251588197
 30
0.0
 10
5.5000217229
 20
5.3250300842
 30
0.0
 10
5.4990265814
 20
5.3249006319
 30
0.0
 10
5.4978526392
 20
5.3247706148
 30
0.0
 10
5.4965004509
 20
5.324640252
 30
0.0
 10
5.4943439505
 20
5.3244562453
 30
0.0
 10
5.4912085239
 20
5.3242310552
 30
0.0
 10
5.4869235493
 20
5.3239715737
 30
0.0
 10
5.4819504284
 20
5.323711359
 30
0.0
 10
5.4763004972
 20
5.3234504953
 30
0.0
 10
5.4699867287
 20
5.323189244
 30
0.0
 10
5.463023638
 20
5.3229276782
 30
0.0
 10
5.4524889709
 20
5.3225647276
 30
0.0
 10
5.4378295563
 20
5.3221173354
 30
0.0
 10
5.4185465457
 20
5.3215971238
 30
0.0
 10
5.3971404921
 20
5.3210759494
 30
0.0
 10
5.3738081826
 20
5.3205540144
 30
0.0
 10
5.3487640959
 20
5.3200315729
 30
0.0
 10
5.3222384525
 20
5.3195087588
 30
0.0
 10
5.2944750911
 20
5.3189856799
 30
0.0
 10
5.2657292322
 20
5.3184624135
 30
0.0
 10
5.2362651241
 20
5.3179390218
 30
0.0
 10
5.206353644
 20
5.3174155566
 30
0.0
 10
5.1762697598
 20
5.3168920638
 30
0.0
 10
5.1462900535
 20
5.3163685875
 30
0.0
 10
5.1166901172
 20
5.3158451731
 30
0.0
 10
5.0877420634
 20
5.3153218703
 30
0.0
 10
5.0597120038
 20
5.3147987391
 30
0.0
 10
5.0328576107
 20
5.3142758497
 30
0.0
 10
5.0074257568
 20
5.3137533099
 30
0.0
 10
4.9836502431
 20
5.3132312161
 30
0.0
 10
4.9649733653
 20
5.312786625
 30
0.0
 10
4.9510225904
 20
5.3124281477
 30
0.0
 10
4.9413596439
 20
5.3121659251
 30
0.0
 10
4.9322629298
 20
5.3119037984
 30
0.0
 10
4.9237533799
 20
5.3116417853
 30
0.0
 10
4.9158505746
 20
5.3113799279
 30
0.0
 10
4.9085726246
 20
5.3111182479
 30
0.0
 10
4.901936346
 20
5.3108568428
 30
0.0
 10
4.8959568831
 20
5.3105957664
 30
0.0
 10
4.8906480749
 20
5.3103351873
 30
0.0
 10
4.8860219568
 20
5.3100753674
 30
0.0
 10
4.8820892038
 20
5.3098164987
 30
0.0
 10
4.8792501889
 20
5.3095911617
 30
0.0
 10
4.8773329802
 20
5.3094061509
 30
0.0
 10
4.8761612402
 20
5.3092761496
 30
0.0
 10
4.8751683846
 20
5.3091466175
 30
0.0
 10
4.8744537908
 20
5.3090338005
 30
0.0
 10
4.8739726964
 20
5.3089412955
 30
0.0
 10
4.8736786245
 20
5.308876173
 30
0.0
 10
4.8734295227
 20
5.308811335
 30
0.0
 10
4.8732251157
 20
5.3087465786
 30
0.0
 10
4.8730841626
 20
5.308690245
 30
0.0
 10
4.8729941827
 20
5.3086431655
 30
0.0
 10
4.8729141379
 20
5.3085928672
 30
0.0
 10
4.8728506554
 20
5.3085298883
 30
0.0
 10
4.8728506554
 20
5.3084766877
 30
0.0
  0
SPLINE
  5
3D6
100
AcDbEntity
  8
0
100
AcDbSpline
 62
7
  6
CONTINUOUS
 70
0
 71
3
 72
43
 73
39
 74
0
 42
0.0000001
 43
0.0000001
 44
0.0000000001
 40
0.0
 40
0.0
 40
0.0
 40
0.0
 40
0.0001050661
 40
0.0002263949
 40
0.0003749753
 40
0.0005569162
 40
0.001032387
 40
0.0016666138
 40
0.0024647015
 40
0.0034291083
 40
0.0045610751
 40
0.0058611124
 40
0.0073294085
 40
0.0089659735
 40
0.0127433862
 40
0.0171917943
 40
0.0223077976
 40
0.0280866129
 40
0.0345232306
 40
0.0493465043
 40
0.0667210862
 40
0.0865818586
 40
0.1088521512
 40
0.1334469367
 40
0.1602715102
 40
0.1892224921
 40
0.2201888481
 40
0.2530506427
 40
0.2876818847
 40
0.3239484485
 40
0.4008238083
 40
0.4824920069
 40
0.5676945479
 40
0.6551182868
 40
0.7434155872
 40
0.8312264245
 40
0.9171948616
 40
1.0
 40
1.0
 40
1.0
 40
1.0
 10
5.4820006046
 20
4.6181888198
 30
0.0
 10
5.4820005958
 20
4.6181743202
 30
0.0
 10
5.481993445
 20
4.6181428815
 30
0.0
 10
5.4819642494
 20
4.6180992835
 30
0.0
 10
5.4819181246
 20
4.6180567843
 30
0.0
 10
5.4818252658
 20
4.6179950139
 30
0.0
 10
5.4816618751
 20
4.6179216124
 30
0.0
 10
5.4814119113
 20
4.6178386372
 30
0.0
 10
5.4810916408
 20
4.6177551404
 30
0.0
 10
5.4807010602
 20
4.6176711526
 30
0.0
 10
5.4802399104
 20
4.6175868958
 30
0.0
 10
5.4797082857
 20
4.6175024319
 30
0.0
 10
5.4791062799
 20
4.6174178196
 30
0.0
 10
5.4781639163
 20
4.6172991157
 30
0.0
 10
5.4768105985
 20
4.6171532652
 30
0.0
 10
5.4749770376
 20
4.6169848515
 30
0.0
 10
5.4728663012
 20
4.6168160452
 30
0.0
 10
5.4704804485
 20
4.6166468799
 30
0.0
 10
5.4667565
 20
4.6164097369
 30
0.0
 10
5.4614326271
 20
4.6161185254
 30
0.0
 10
5.4542561434
 20
4.6157819178
 30
0.0
 10
5.4460509874
 20
4.6154445101
 30
0.0
 10
5.4368486999
 20
4.6151064107
 30
0.0
 10
5.4266848084
 20
4.6147678825
 30
0.0
 10
5.4155984974
 20
4.614429021
 30
0.0
 10
5.4036325098
 20
4.6140899097
 30
0.0
 10
5.3908330522
 20
4.6137506175
 30
0.0
 10
5.3772494384
 20
4.6134111689
 30
0.0
 10
5.3629341586
 20
4.6130716077
 30
0.0
 10
5.3425460087
 20
4.6126097205
 30
0.0
 10
5.3156673991
 20
4.6120371871
 30
0.0
 10
5.2820360856
 20
4.6113620087
 30
0.0
 10
5.246948777
 20
4.6106863754
 30
0.0
 10
5.2109464638
 20
4.6100104582
 30
0.0
 10
5.1745841335
 20
4.6093344392
 30
0.0
 10
5.1384226748
 20
4.6086584803
 30
0.0
 10
5.1030192899
 20
4.6079827398
 30
0.0
 10
5.0797323205
 20
4.6075215645
 30
0.0
 10
5.0683072001
 20
4.6072888199
 30
0.0
  0
LINE
  5
3D7
100
AcDbEntity
  8
0
100
AcDbLine
 62
7
  6
CONTINUOUS
 10
5.4812402041
 20
5.3200446592
 11
5.4808200694
 21
5.3199476495
  0
SPLINE
  5
3D8
100
AcDbEntity
  8
0
100
AcDbSpline
 62
7
  6
CONTINUOUS
 70
0
 71
3
 72
62
 73
58
 74
0
 42
0.0000001
 43
0.0000001
 44
0.0000000001
 40
0.0
 40
0.0
 40
0.0
 40
0.0
 40
0.0012298088
 40
0.0027384684
 40
0.0045264414
 40
0.0065936185
 40
0.0115618052
 40
0.0176336646
 40
0.0247972066
 40
0.0330361442
 40
0.042332828
 40
0.0526660237
 40
0.0640126323
 40
0.0763471741
 40
0.1038655266
 40
0.1349718175
 40
0.1693838997
 40
0.2067893779
 40
0.2468486877
 40
0.2891978247
 40
0.3334521028
 40
0.3792094248
 40
0.4260540555
 40
0.473560418
 40
0.5212968255
 40
0.5688295131
 40
0.6157265892
 40
0.6615618978
 40
0.705919057
 40
0.7483950752
 40
0.7886040467
 40
0.8261807804
 40
0.8607838764
 40
0.8920993184
 40
0.9064342388
 40
0.9198430141
 40
0.9322957331
 40
0.9437636172
 40
0.9542213943
 40
0.963644981
 40
0.9720135552
 40
0.9793085456
 40
0.9855137405
 40
0.990616689
 40
0.9927514086
 40
0.9946072206
 40
0.9961838487
 40
0.99748143
 40
0.9980258812
 40
0.9985010902
 40
0.998907591
 40
0.9992463181
 40
0.9995189214
 40
0.9997286368
 40
0.9998120923
 40
0.9998832777
 40
1.0
 40
1.0
 40
1.0
 40
1.0
 10
5.4808200694
 20
5.3199476495
 30
0.0
 10
5.4805840548
 20
5.3198985218
 30
0.0
 10
5.4800554586
 20
5.3198038912
 30
0.0
 10
5.4791774678
 20
5.3196752528
 30
0.0
 10
5.4781339191
 20
5.3195460662
 30
0.0
 10
5.4764141087
 20
5.3193618545
 30
0.0
 10
5.4738543501
 20
5.3191377533
 30
0.0
 10
5.4702952097
 20
5.3188804819
 30
0.0
 10
5.4660935593
 20
5.3186222746
 30
0.0
 10
5.4612588055
 20
5.3183632037
 30
0.0
 10
5.455801959
 20
5.3181036747
 30
0.0
 10
5.4497353369
 20
5.3178437666
 30
0.0
 10
5.4430727357
 20
5.3175835865
 30
0.0
 10
5.4330428088
 20
5.3172231412
 30
0.0
 10
5.4191400844
 20
5.3167784777
 30
0.0
 10
5.4009098684
 20
5.3162609739
 30
0.0
 10
5.38074085
 20
5.3157425728
 30
0.0
 10
5.3588163068
 20
5.315223466
 30
0.0
 10
5.3353355085
 20
5.3147038853
 30
0.0
 10
5.3105118727
 20
5.3141839548
 30
0.0
 10
5.2845710558
 20
5.3136637756
 30
0.0
 10
5.2577488424
 20
5.3131434204
 30
0.0
 10
5.2302890246
 20
5.3126229485
 30
0.0
 10
5.2024411893
 20
5.3121024095
 30
0.0
 10
5.1744584547
 20
5.3115818479
 30
0.0
 10
5.1465951758
 20
5.3110613064
 30
0.0
 10
5.1191046243
 20
5.3105408291
 30
0.0
 10
5.0922366674
 20
5.3100204654
 30
0.0
 10
5.0662355122
 20
5.3095002729
 30
0.0
 10
5.0413374839
 20
5.3089803262
 30
0.0
 10
5.0177688856
 20
5.3084607157
 30
0.0
 10
4.9957439628
 20
5.3079415921
 30
0.0
 10
4.9754629013
 20
5.3074230883
 30
0.0
 10
4.9597374263
 20
5.3069797595
 30
0.0
 10
4.9481658866
 20
5.3066215857
 30
0.0
 10
4.9402906814
 20
5.3063610385
 30
0.0
 10
4.9329778102
 20
5.3061006662
 30
0.0
 10
4.9262437969
 20
5.3058404608
 30
0.0
 10
4.9201040399
 20
5.3055805278
 30
0.0
 10
4.9145724053
 20
5.3053209324
 30
0.0
 10
4.9096614929
 20
5.3050618055
 30
0.0
 10
4.9053823946
 20
5.3048034751
 30
0.0
 10
4.9017447477
 20
5.3045460373
 30
0.0
 10
4.8991189637
 20
5.3043219765
 30
0.0
 10
4.8973458832
 20
5.3041380101
 30
0.0
 10
4.8962622008
 20
5.3040087276
 30
0.0
 10
4.8953439241
 20
5.3038799059
 30
0.0
 10
4.8946830479
 20
5.3037677425
 30
0.0
 10
4.8942381654
 20
5.3036757934
 30
0.0
 10
4.89396614
 20
5.3036110586
 30
0.0
 10
4.8937357064
 20
5.3035465097
 30
0.0
 10
4.8935466291
 20
5.3034822454
 30
0.0
 10
4.8933988032
 20
5.3034182256
 30
0.0
 10
4.893302663
 20
5.3033616161
 30
0.0
 10
4.8932486446
 20
5.3033144006
 30
0.0
 10
4.8932145651
 20
5.3032735674
 30
0.0
 10
4.893200751
 20
5.3032367005
 30
0.0
 10
4.8932007388
 20
5.3032138199
 30
0.0
  0
SPLINE
  5
3D9
100
AcDbEntity
  8
0
100
AcDbSpline
 62
7
  6
CONTINUOUS
 70
0
 71
3
 72
63
 73
59
 74
0
 42
0.0000001
 43
0.0000001
 44
0.0000000001
 40
0.0
 40
0.0
 40
0.0
 40
0.0
 40
0.0010305488
 40
0.0023428763
 40
0.0039379092
 40
0.0058154627
 40
0.0079749741
 40
0.0104156864
 40
0.0161361879
 40
0.0229645197
 40
0.0308862536
 40
0.0398832882
 40
0.0499354205
 40
0.0610198261
 40
0.0731109087
 40
0.1002008843
 40
0.1309571577
 40
0.1650974078
 40
0.2023081681
 40
0.2422476303
 40
0.284548844
 40
0.3288231691
 40
0.3746637636
 40
0.4216493439
 40
0.4693481802
 40
0.5173217944
 40
0.5651293801
 40
0.6123315063
 40
0.6584944184
 40
0.7031939143
 40
0.7460192019
 40
0.7865768078
 40
0.8244940777
 40
0.8594226492
 40
0.8756647097
 40
0.8910418262
 40
0.9055184197
 40
0.9190613758
 40
0.9316397528
 40
0.9432244591
 40
0.9537894533
 40
0.9633100455
 40
0.9717652419
 40
0.979135424
 40
0.9854046854
 40
0.9905593093
 40
0.9927153186
 40
0.9945893618
 40
0.996180879
 40
0.9974896931
 40
0.9980383526
 40
0.9985168556
 40
0.9989256789
 40
0.9992656229
 40
0.9995381323
 40
0.9996499814
 40
0.9997463072
 40
1.0
 40
1.0
 40
1.0
 40
1.0
 10
5.5015297279
 20
5.3597556575
 30
0.0
 10
5.5013196525
 20
5.3597049398
 30
0.0
 10
5.5008375015
 20
5.3596088197
 30
0.0
 10
5.5000217229
 20
5.3594800842
 30
0.0
 10
5.4990265814
 20
5.3593506319
 30
0.0
 10
5.4978526392
 20
5.3592206148
 30
0.0
 10
5.4965004509
 20
5.359090252
 30
0.0
 10
5.4943439505
 20
5.3589062453
 30
0.0
 10
5.4912085239
 20
5.3586810552
 30
0.0
 10
5.4869235493
 20
5.3584215737
 30
0.0
 10
5.4819504284
 20
5.358161359
 30
0.0
 10
5.4763004972
 20
5.3579004953
 30
0.0
 10
5.4699867287
 20
5.357639244
 30
0.0
 10
5.463023638
 20
5.3573776782
 30
0.0
 10
5.4524889709
 20
5.3570147276
 30
0.0
 10
5.4378295563
 20
5.3565673354
 30
0.0
 10
5.4185465457
 20
5.3560471238
 30
0.0
 10
5.3971404921
 20
5.3555259494
 30
0.0
 10
5.3738081826
 20
5.3550040144
 30
0.0
 10
5.3487640959
 20
5.3544815729
 30
0.0
 10
5.3222384525
 20
5.3539587588
 30
0.0
 10
5.2944750911
 20
5.3534356799
 30
0.0
 10
5.2657292322
 20
5.3529124135
 30
0.0
 10
5.2362651241
 20
5.3523890218
 30
0.0
 10
5.206353644
 20
5.3518655566
 30
0.0
 10
5.1762697598
 20
5.3513420638
 30
0.0
 10
5.1462900535
 20
5.3508185875
 30
0.0
 10
5.1166901172
 20
5.3502951731
 30
0.0
 10
5.0877420634
 20
5.3497718703
 30
0.0
 10
5.0597120038
 20
5.3492487391
 30
0.0
 10
5.0328576107
 20
5.3487258497
 30
0.0
 10
5.0074257568
 20
5.3482033099
 30
0.0
 10
4.9836502431
 20
5.3476812161
 30
0.0
 10
4.9649733653
 20
5.347236625
 30
0.0
 10
4.9510225904
 20
5.3468781477
 30
0.0
 10
4.9413596439
 20
5.3466159251
 30
0.0
 10
4.9322629298
 20
5.3463537984
 30
0.0
 10
4.9237533799
 20
5.3460917853
 30
0.0
 10
4.9158505746
 20
5.3458299279
 30
0.0
 10
4.9085726246
 20
5.3455682479
 30
0.0
 10
4.901936346
 20
5.3453068428
 30
0.0
 10
4.8959568831
 20
5.3450457664
 30
0.0
 10
4.8906480749
 20
5.3447851873
 30
0.0
 10
4.8860219568
 20
5.3445253674
 30
0.0
 10
4.8820892038
 20
5.3442664987
 30
0.0
 10
4.8792501889
 20
5.3440411617
 30
0.0
 10
4.8773329802
 20
5.3438561509
 30
0.0
 10
4.8761612402
 20
5.3437261496
 30
0.0
 10
4.8751683846
 20
5.3435966175
 30
0.0
 10
4.8744537908
 20
5.3434838005
 30
0.0
 10
4.8739726964
 20
5.3433912955
 30
0.0
 10
4.8736786245
 20
5.343326173
 30
0.0
 10
4.8734295227
 20
5.343261335
 30
0.0
 10
4.8732251157
 20
5.3431965786
 30
0.0
 10
4.8730841626
 20
5.343140245
 30
0.0
 10
4.8729941827
 20
5.3430931655
 30
0.0
 10
4.8729141379
 20
5.3430428672
 30
0.0
 10
4.8728506554
 20
5.3429798883
 30
0.0
 10
4.8728506554
 20
5.3429266877
 30
0.0
  0
LINE
  5
3DA
100
AcDbEntity
  8
0
100
AcDbLine
 62
7
  6
CONTINUOUS
 10
5.1178824694
 20
4.6375388165
 11
5.0503033614
 21
4.6362885679
  0
LINE
  5
3DB
100
AcDbEntity
  8
0
100
AcDbLine
 62
7
  6
CONTINUOUS
 10
5.0503033614
 20
4.6362885679
 11
5.048890658
 21
4.6362611866
  0
SPLINE
  5
3DC
100
AcDbEntity
  8
0
100
AcDbSpline
 62
7
  6
CONTINUOUS
 70
0
 71
3
 72
26
 73
22
 74
0
 42
0.0000001
 43
0.0000001
 44
0.0000000001
 40
0.0
 40
0.0
 40
0.0
 40
0.0
 40
0.2034439396
 40
0.3898865052
 40
0.4757232033
 40
0.5561402697
 40
0.6307943275
 40
0.6993648171
 40
0.761560724
 40
0.8171154495
 40
0.8657929632
 40
0.9073877585
 40
0.9254725172
 40
0.9417237402
 40
0.9561254673
 40
0.9686623433
 40
0.9793231507
 40
0.988100863
 40
0.9949912624
 40
0.9977297973
 40
1.0
 40
1.0
 40
1.0
 40
1.0
 10
5.048890658
 20
4.6362611866
 30
0.0
 10
5.0369936751
 20
4.6360303158
 30
0.0
 10
5.0141941729
 20
4.6355743821
 30
0.0
 10
4.9863761867
 20
4.6349688033
 30
0.0
 10
4.9657531654
 20
4.6344786444
 30
0.0
 10
4.9516672413
 20
4.6341214144
 30
0.0
 10
4.9385915392
 20
4.6337644625
 30
0.0
 10
4.9265819915
 20
4.633407841
 30
0.0
 10
4.9156900661
 20
4.6330516895
 30
0.0
 10
4.9059623169
 20
4.6326962332
 30
0.0
 10
4.8974403814
 20
4.6323416387
 30
0.0
 10
4.8911100277
 20
4.6320349361
 30
0.0
 10
4.8866759191
 20
4.6317852194
 30
0.0
 10
4.8838308559
 20
4.6316069987
 30
0.0
 10
4.8813109602
 20
4.6314291484
 30
0.0
 10
4.8791189371
 20
4.6312517301
 30
0.0
 10
4.8772569782
 20
4.6310751406
 30
0.0
 10
4.8757270101
 20
4.6308994588
 30
0.0
 10
4.8746610802
 20
4.6307456895
 30
0.0
 10
4.8739768957
 20
4.6306176972
 30
0.0
 10
4.8736910274
 20
4.6305530293
 30
0.0
 10
4.8735624944
 20
4.6305197085
 30
0.0
  0
LINE
  5
3DD
100
AcDbEntity
  8
0
100
AcDbLine
 62
7
  6
CONTINUOUS
 10
5.4812402061
 20
5.3544946593
 11
5.4807757364
 21
5.3543884861
  0
SPLINE
  5
3DE
100
AcDbEntity
  8
0
100
AcDbSpline
 62
7
  6
CONTINUOUS
 70
0
 71
3
 72
62
 73
58
 74
0
 42
0.0000001
 43
0.0000001
 44
0.0000000001
 40
0.0
 40
0.0
 40
0.0
 40
0.0
 40
0.0012487183
 40
0.0027761981
 40
0.0045825968
 40
0.006667606
 40
0.0116707611
 40
0.0177762949
 40
0.0249714762
 40
0.0332409982
 40
0.0425659767
 40
0.0529262243
 40
0.0642978068
 40
0.0766555345
 40
0.1042147867
 40
0.1353546305
 40
0.1697928829
 40
0.2072172401
 40
0.2472881192
 40
0.2896419955
 40
0.3338945348
 40
0.3796441209
 40
0.4264756426
 40
0.4739639021
 40
0.5216779759
 40
0.5691847009
 40
0.6160529419
 40
0.6618573587
 40
0.7061821595
 40
0.7486251352
 40
0.7888010179
 40
0.826345354
 40
0.8609175981
 40
0.8922042609
 40
0.9065257218
 40
0.9199218496
 40
0.9323623958
 40
0.943819441
 40
0.9542666682
 40
0.9636812081
 40
0.9720413258
 40
0.979329044
 40
0.9855281495
 40
0.990625699
 40
0.9927584723
 40
0.9946125484
 40
0.9961874565
 40
0.9974835598
 40
0.9980274434
 40
0.998502238
 40
0.9989084563
 40
0.9992469733
 40
0.9995193813
 40
0.9997288966
 40
0.9998122615
 40
0.9998833702
 40
1.0
 40
1.0
 40
1.0
 40
1.0
 10
5.4807757364
 20
5.3543884861
 30
0.0
 10
5.4805359319
 20
5.3543394765
 30
0.0
 10
5.4799998518
 20
5.3542449812
 30
0.0
 10
5.4791108042
 20
5.3541163736
 30
0.0
 10
5.4780564573
 20
5.3539872291
 30
0.0
 10
5.4763227251
 20
5.3538031748
 30
0.0
 10
5.4737461433
 20
5.3535792132
 30
0.0
 10
5.4701675641
 20
5.3533220471
 30
0.0
 10
5.4659474022
 20
5.3530639193
 30
0.0
 10
5.4610952456
 20
5.352804999
 30
0.0
 10
5.4556219531
 20
5.3525455702
 30
0.0
 10
5.4495400341
 20
5.3522858115
 30
0.0
 10
5.4428631879
 20
5.3520257573
 30
0.0
 10
5.432816557
 20
5.3516655538
 30
0.0
 10
5.4188957471
 20
5.3512211517
 30
0.0
 10
5.4006471959
 20
5.3507039103
 30
0.0
 10
5.3804643109
 20
5.350185778
 30
0.0
 10
5.3585303475
 20
5.3496669447
 30
0.0
 10
5.3350444509
 20
5.3491476392
 30
0.0
 10
5.3102198628
 20
5.3486279866
 30
0.0
 10
5.2842819644
 20
5.3481080866
 30
0.0
 10
5.2574662365
 20
5.347588012
 30
0.0
 10
5.2300161615
 20
5.3470678219
 30
0.0
 10
5.2021809606
 20
5.3465475649
 30
0.0
 10
5.1742133906
 20
5.3460272857
 30
0.0
 10
5.1463673711
 20
5.3455070267
 30
0.0
 10
5.1188957281
 20
5.3449868324
 30
0.0
 10
5.0920478857
 20
5.344466752
 30
0.0
 10
5.0660676033
 20
5.3439468432
 30
0.0
 10
5.0411907939
 20
5.34342718
 30
0.0
 10
5.0176433201
 20
5.3429078524
 30
0.0
 10
4.9956389738
 20
5.3423890112
 30
0.0
 10
4.9753775103
 20
5.3418707893
 30
0.0
 10
4.9596675709
 20
5.3414277026
 30
0.0
 10
4.9481076795
 20
5.3410697191
 30
0.0
 10
4.9402405829
 20
5.340809322
 30
0.0
 10
4.9329352642
 20
5.340549077
 30
0.0
 10
4.9262083466
 20
5.3402890349
 30
0.0
 10
4.9200750286
 20
5.3400292216
 30
0.0
 10
4.9145493175
 20
5.3397697878
 30
0.0
 10
4.9096436398
 20
5.3395107922
 30
0.0
 10
4.9053691481
 20
5.3392525976
 30
0.0
 10
4.9017354568
 20
5.3389953261
 30
0.0
 10
4.899112512
 20
5.3387713508
 30
0.0
 10
4.8973413465
 20
5.3385875049
 30
0.0
 10
4.8962588051
 20
5.3384583037
 30
0.0
 10
4.8953415679
 20
5.3383295454
 30
0.0
 10
4.8946814838
 20
5.3382174345
 30
0.0
 10
4.8942371193
 20
5.3381255346
 30
0.0
 10
4.8939653626
 20
5.3380608347
 30
0.0
 10
4.8937351221
 20
5.3379963243
 30
0.0
 10
4.8935461897
 20
5.3379321004
 30
0.0
 10
4.8933984891
 20
5.3378681214
 30
0.0
 10
4.8933024515
 20
5.3378115388
 30
0.0
 10
4.8932485167
 20
5.3377643454
 30
0.0
 10
4.8932145018
 20
5.3377235279
 30
0.0
 10
4.8932007439
 20
5.3376866804
 30
0.0
 10
4.8932007532
 20
5.3376638198
 30
0.0
  0
SPLINE
  5
3DF
100
AcDbEntity
  8
0
100
AcDbSpline
 62
7
  6
CONTINUOUS
 70
0
 71
3
 72
17
 73
13
 74
0
 42
0.0000001
 43
0.0000001
 44
0.0000000001
 40
0.0
 40
0.0
 40
0.0
 40
0.0
 40
0.197669995
 40
0.3750008768
 40
0.5317377598
 40
0.6676504498
 40
0.7825340427
 40
0.8762583888
 40
0.9151578929
 40
0.9487396825
 40
0.9770111447
 40
1.0
 40
1.0
 40
1.0
 40
1.0
 10
4.9150362037
 20
4.6375388155
 30
0.0
 10
4.9136435936
 20
4.6374701919
 30
0.0
 10
4.9110019481
 20
4.6373341201
 30
0.0
 10
4.9072573706
 20
4.6371193384
 30
0.0
 10
4.9039491844
 20
4.6369049705
 30
0.0
 10
4.9010824587
 20
4.6366913182
 30
0.0
 10
4.8986615951
 20
4.6364784473
 30
0.0
 10
4.8969254279
 20
4.6362929319
 30
0.0
 10
4.8957629807
 20
4.6361403766
 30
0.0
 10
4.8950603084
 20
4.6360334989
 30
0.0
 10
4.8944713274
 20
4.635927068
 30
0.0
 10
4.8941181449
 20
4.6358486816
 30
0.0
 10
4.8939611801
 20
4.6358079804
 30
0.0
  0
LINE
  5
3E0
100
AcDbEntity
  8
0
100
AcDbLine
 62
7
  6
CONTINUOUS
 10
4.7093751254
 20
5.5228860624
 11
4.7049338055
 21
5.5222730306
  0
LINE
  5
3E1
100
AcDbEntity
  8
0
100
AcDbLine
 62
7
  6
CONTINUOUS
 10
4.7049338055
 20
5.4278046092
 11
4.7093751254
 21
5.4271915774
  0
SPLINE
  5
3E2
100
AcDbEntity
  8
0
100
AcDbSpline
 62
7
  6
CONTINUOUS
 70
0
 71
3
 72
11
 73
7
 74
0
 42
0.0000001
 43
0.0000001
 44
0.0000000001
 40
0.0
 40
0.0
 40
0.0
 40
0.0
 40
0.2844235656
 40
0.5466453075
 40
0.785446117
 40
1.0
 40
1.0
 40
1.0
 40
1.0
 10
4.855154476
 20
5.5222730306
 30
0.0
 10
4.8544190171
 20
5.5222730307
 30
0.0
 10
4.8530053434
 20
5.5222959711
 30
0.0
 10
4.8509768306
 20
5.5224080636
 30
0.0
 10
4.8491353091
 20
5.5225954365
 30
0.0
 10
4.8479765593
 20
5.522779092
 30
0.0
 10
4.8474321788
 20
5.5228860624
 30
0.0
  0
SPLINE
  5
3E3
100
AcDbEntity
  8
0
100
AcDbSpline
 62
7
  6
CONTINUOUS
 70
0
 71
3
 72
11
 73
7
 74
0
 42
0.0000001
 43
0.0000001
 44
0.0000000001
 40
0.0
 40
0.0
 40
0.0
 40
0.0
 40
0.2145539168
 40
0.4533547491
 40
0.7155764626
 40
1.0
 40
1.0
 40
1.0
 40
1.0
 10
4.8474321788
 20
5.4271915774
 30
0.0
 10
4.8479765588
 20
5.4272985505
 30
0.0
 10
4.8491353092
 20
5.4274822048
 30
0.0
 10
4.8509768309
 20
5.4276695757
 30
0.0
 10
4.8530053436
 20
5.4277816685
 30
0.0
 10
4.8544190172
 20
5.427804609
 30
0.0
 10
4.855154476
 20
5.4278046092
 30
0.0
  0
SPLINE
  5
3E4
100
AcDbEntity
  8
0
100
AcDbSpline
 62
7
  6
CONTINUOUS
 70
0
 71
3
 72
9
 73
5
 74
0
 42
0.0000001
 43
0.0000001
 44
0.0000000001
 40
0.0
 40
0.0
 40
0.0
 40
0.0
 40
0.5060269065
 40
1.0
 40
1.0
 40
1.0
 40
1.0
 10
5.0495436019
 20
5.5228860624
 30
0.0
 10
5.0474985304
 20
5.5226851293
 30
0.0
 10
5.0434473551
 20
5.5223813859
 30
0.0
 10
5.0393859546
 20
5.522273031
 30
0.0
 10
5.0373799849
 20
5.5222730306
 30
0.0
  0
SPLINE
  5
3E5
100
AcDbEntity
  8
0
100
AcDbSpline
 62
7
  6
CONTINUOUS
 70
0
 71
3
 72
9
 73
5
 74
0
 42
0.0000001
 43
0.0000001
 44
0.0000000001
 40
0.0
 40
0.0
 40
0.0
 40
0.0
 40
0.4939731433
 40
1.0
 40
1.0
 40
1.0
 40
1.0
 10
5.0373799849
 20
5.4278046092
 30
0.0
 10
5.0393859548
 20
5.4278046089
 30
0.0
 10
5.0434473555
 20
5.4276962565
 30
0.0
 10
5.0474985301
 20
5.4273925052
 30
0.0
 10
5.0495436019
 20
5.4271915774
 30
0.0
  0
SPLINE
  5
3E6
100
AcDbEntity
  8
0
100
AcDbSpline
 62
7
  6
CONTINUOUS
 70
0
 71
3
 72
12
 73
8
 74
0
 42
0.0000001
 43
0.0000001
 44
0.0000000001
 40
0.0
 40
0.0
 40
0.0
 40
0.0
 40
0.2756999981
 40
0.5395556479
 40
0.6641925965
 40
0.7827209856
 40
1.0
 40
1.0
 40
1.0
 40
1.0
 10
4.855154476
 20
5.5222730306
 30
0.0
 10
4.855154476
 20
5.5232138807
 30
0.0
 10
4.8553282505
 20
5.5250597931
 30
0.0
 10
4.8559827666
 20
5.5272482942
 30
0.0
 10
4.856756409
 20
5.5288009838
 30
0.0
 10
4.8576267212
 20
5.5301112681
 30
0.0
 10
4.8584563096
 20
5.5309365761
 30
0.0
 10
4.8590681471
 20
5.5313554467
 30
0.0
  0
SPLINE
  5
3E7
100
AcDbEntity
  8
0
100
AcDbSpline
 62
7
  6
CONTINUOUS
 70
0
 71
3
 72
14
 73
10
 74
0
 42
0.0000001
 43
0.0000001
 44
0.0000000001
 40
0.0
 40
0.0
 40
0.0
 40
0.0
 40
0.3007786764
 40
0.4442926719
 40
0.5797506723
 40
0.7048307554
 40
0.8174922647
 40
0.9162302247
 40
1.0
 40
1.0
 40
1.0
 40
1.0
 10
5.0373799849
 20
5.5222730306
 30
0.0
 10
5.0373799849
 20
5.5232104222
 30
0.0
 10
5.0374379708
 20
5.524596291
 30
0.0
 10
5.0376388064
 20
5.5263924334
 30
0.0
 10
5.0378423286
 20
5.5276357862
 30
0.0
 10
5.0380963242
 20
5.5287715468
 30
0.0
 10
5.0383958569
 20
5.5297777002
 30
0.0
 10
5.0387347209
 20
5.5306342014
 30
0.0
 10
5.0390046199
 20
5.5311375561
 30
0.0
 10
5.0391484345
 20
5.5313554467
 30
0.0
  0
SPLINE
  5
3E8
100
AcDbEntity
  8
0
100
AcDbSpline
 62
7
  6
CONTINUOUS
 70
0
 71
3
 72
39
 73
35
 74
0
 42
0.0000001
 43
0.0000001
 44
0.0000000001
 40
0.0
 40
0.0
 40
0.0
 40
0.0
 40
0.0002487114
 40
0.0005722767
 40
0.0010086651
 40
0.0015735253
 40
0.0022738299
 40
0.0031130958
 40
0.0040932793
 40
0.0052155418
 40
0.0078887896
 40
0.0111361388
 40
0.0149586188
 40
0.0193554579
 40
0.0243249251
 40
0.0298649967
 40
0.0426477602
 40
0.0576795683
 40
0.0749294123
 40
0.0943632987
 40
0.1159396223
 40
0.139614566
 40
0.1653381667
 40
0.1930563413
 40
0.2227118007
 40
0.287579512
 40
0.359396749
 40
0.4375601407
 40
0.5214129365
 40
0.6102494623
 40
0.703324088
 40
0.7998493645
 40
0.8990248855
 40
1.0
 40
1.0
 40
1.0
 40
1.0
 10
5.4820005758
 20
5.3760888199
 30
0.0
 10
5.4820005868
 20
5.3760668884
 30
0.0
 10
5.4819823933
 20
5.3760165543
 30
0.0
 10
5.4819173944
 20
5.3759538861
 30
0.0
 10
5.4818177317
 20
5.3758921832
 30
0.0
 10
5.4816805459
 20
5.3758306594
 30
0.0
 10
5.4815054841
 20
5.3757687605
 30
0.0
 10
5.4812920498
 20
5.3757066606
 30
0.0
 10
5.4810401877
 20
5.3756443636
 30
0.0
 10
5.480628406
 20
5.3755559054
 30
0.0
 10
5.480016628
 20
5.3754479749
 30
0.0
 10
5.4791663974
 20
5.3753240148
 30
0.0
 10
5.4781628705
 20
5.3751996513
 30
0.0
 10
5.4770065443
 20
5.3750749384
 30
0.0
 10
5.4756980126
 20
5.374949993
 30
0.0
 10
5.473651546
 20
5.3747747091
 30
0.0
 10
5.4707180957
 20
5.3745594293
 30
0.0
 10
5.4667520216
 20
5.3743107606
 30
0.0
 10
5.4621984827
 20
5.3740614641
 30
0.0
 10
5.4570671145
 20
5.3738117007
 30
0.0
 10
5.4513685925
 20
5.3735615887
 30
0.0
 10
5.445114966
 20
5.3733112463
 30
0.0
 10
5.4383193567
 20
5.3730607184
 30
0.0
 10
5.4309960557
 20
5.3728100339
 30
0.0
 10
5.4202222203
 20
5.3724652596
 30
0.0
 10
5.4055603645
 20
5.3720385008
 30
0.0
 10
5.3866214144
 20
5.3715395615
 30
0.0
 10
5.3660078284
 20
5.3710400211
 30
0.0
 10
5.3438930723
 20
5.3705400083
 30
0.0
 10
5.3204631237
 20
5.3700396618
 30
0.0
 10
5.2959154688
 20
5.3695390764
 30
0.0
 10
5.2704559349
 20
5.3690383028
 30
0.0
 10
5.2442996011
 20
5.3685374169
 30
0.0
 10
5.2266532729
 20
5.368205496
 30
0.0
 10
5.2177507636
 20
5.3680388199
 30
0.0
  0
SPLINE
  5
3E9
100
AcDbEntity
  8
0
100
AcDbSpline
 62
7
  6
CONTINUOUS
 70
0
 71
3
 72
14
 73
10
 74
0
 42
0.0000001
 43
0.0000001
 44
0.0000000001
 40
0.0
 40
0.0
 40
0.0
 40
0.0
 40
0.3007786764
 40
0.444292672
 40
0.5797506724
 40
0.7048307555
 40
0.8174922648
 40
0.9162302248
 40
1.0
 40
1.0
 40
1.0
 40
1.0
 10
5.3378213258
 20
5.5222730306
 30
0.0
 10
5.3378213258
 20
5.5232104222
 30
0.0
 10
5.33776334
 20
5.524596291
 30
0.0
 10
5.3375625043
 20
5.5263924334
 30
0.0
 10
5.3373589821
 20
5.5276357862
 30
0.0
 10
5.3371049866
 20
5.5287715468
 30
0.0
 10
5.3368054538
 20
5.5297777002
 30
0.0
 10
5.3364665899
 20
5.5306342014
 30
0.0
 10
5.3361966909
 20
5.5311375561
 30
0.0
 10
5.3360528763
 20
5.5313554467
 30
0.0
  0
SPLINE
  5
3EA
100
AcDbEntity
  8
0
100
AcDbSpline
 62
7
  6
CONTINUOUS
 70
0
 71
3
 72
12
 73
8
 74
0
 42
0.0000001
 43
0.0000001
 44
0.0000000001
 40
0.0
 40
0.0
 40
0.0
 40
0.0
 40
0.2756999981
 40
0.539555648
 40
0.6641925966
 40
0.7827209857
 40
1.0
 40
1.0
 40
1.0
 40
1.0
 10
5.5200468348
 20
5.5222730306
 30
0.0
 10
5.5200468348
 20
5.5232138807
 30
0.0
 10
5.5198730602
 20
5.5250597931
 30
0.0
 10
5.5192185441
 20
5.5272482942
 30
0.0
 10
5.5184449018
 20
5.5288009838
 30
0.0
 10
5.5175745895
 20
5.5301112681
 30
0.0
 10
5.5167450011
 20
5.5309365761
 30
0.0
 10
5.5161331636
 20
5.5313554467
 30
0.0
  0
SPLINE
  5
3EB
100
AcDbEntity
  8
0
100
AcDbSpline
 62
7
  6
CONTINUOUS
 70
0
 71
3
 72
11
 73
7
 74
0
 42
0.0000001
 43
0.0000001
 44
0.0000000001
 40
0.0
 40
0.0
 40
0.0
 40
0.0
 40
0.2566916811
 40
0.5120194457
 40
0.7608849726
 40
1.0
 40
1.0
 40
1.0
 40
1.0
 10
5.5277691319
 20
5.5228860624
 30
0.0
 10
5.5277061919
 20
5.5238468921
 30
0.0
 10
5.5273369144
 20
5.525755609
 30
0.0
 10
5.5261114716
 20
5.5283652911
 30
0.0
 10
5.5243099331
 20
5.5305336965
 30
0.0
 10
5.5227768766
 20
5.5315879596
 30
0.0
 10
5.5219690382
 20
5.5319777387
 30
0.0
  0
SPLINE
  5
3EC
100
AcDbEntity
  8
0
100
AcDbSpline
 62
7
  6
CONTINUOUS
 70
0
 71
3
 72
11
 73
7
 74
0
 42
0.0000001
 43
0.0000001
 44
0.0000000001
 40
0.0
 40
0.0
 40
0.0
 40
0.0
 40
0.2518037606
 40
0.5027062979
 40
0.7521419293
 40
1.0
 40
1.0
 40
1.0
 40
1.0
 10
5.6702675052
 20
5.5222730306
 30
0.0
 10
5.6702675052
 20
5.5232186745
 30
0.0
 10
5.6700029171
 20
5.5251170996
 30
0.0
 10
5.6688410386
 20
5.5277310934
 30
0.0
 10
5.6670095761
 20
5.5299100101
 30
0.0
 10
5.6654273046
 20
5.5309584485
 30
0.0
 10
5.6645853845
 20
5.5313554467
 30
0.0
  0
SPLINE
  5
3ED
100
AcDbEntity
  8
0
100
AcDbSpline
 62
7
  6
CONTINUOUS
 70
0
 71
3
 72
30
 73
26
 74
0
 42
0.0000001
 43
0.0000001
 44
0.0000000001
 40
0.0
 40
0.0
 40
0.0
 40
0.0
 40
0.001955955
 40
0.0044345856
 40
0.0074380571
 40
0.0109669447
 40
0.0150210563
 40
0.0195994341
 40
0.0303207181
 40
0.0431127653
 40
0.0579537691
 40
0.0748150252
 40
0.0936659833
 40
0.1144705191
 40
0.1371889082
 40
0.1881920027
 40
0.2462861186
 40
0.3110270119
 40
0.381919374
 40
0.4584208003
 40
0.5399457525
 40
0.6258698402
 40
0.7155361297
 40
0.8082532711
 40
1.0
 40
1.0
 40
1.0
 40
1.0
 10
5.5016390588
 20
5.394232931
 30
0.0
 10
5.5014611051
 20
5.3941868067
 30
0.0
 10
5.5010533162
 20
5.3940991735
 30
0.0
 10
5.5003641208
 20
5.3939815824
 30
0.0
 10
5.4995253971
 20
5.393863346
 30
0.0
 10
5.4985374743
 20
5.3937446187
 30
0.0
 10
5.4974006426
 20
5.3936255888
 30
0.0
 10
5.4955893796
 20
5.3934576504
 30
0.0
 10
5.4929570235
 20
5.3932520332
 30
0.0
 10
5.4893599633
 20
5.3930151209
 30
0.0
 10
5.4851847914
 20
5.3927775472
 30
0.0
 10
5.4804394005
 20
5.3925393745
 30
0.0
 10
5.4751329061
 20
5.3923008669
 30
0.0
 10
5.4692754324
 20
5.3920620658
 30
0.0
 10
5.4603974045
 20
5.3917304736
 30
0.0
 10
5.448015161
 20
5.3913216879
 30
0.0
 10
5.4316835437
 20
5.3908466399
 30
0.0
 10
5.4134819151
 20
5.3903707118
 30
0.0
 10
5.3935497266
 20
5.3898940823
 30
0.0
 10
5.3720396533
 20
5.3894169815
 30
0.0
 10
5.3491164796
 20
5.3889395285
 30
0.0
 10
5.3249557339
 20
5.3884618178
 30
0.0
 10
5.2997428774
 20
5.3879839154
 30
0.0
 10
5.2645854628
 20
5.3873393178
 30
0.0
 10
5.2378537605
 20
5.386867233
 30
0.0
 10
5.2198348488
 20
5.3865516877
 30
0.0
  0
SPLINE
  5
3EE
100
AcDbEntity
  8
0
100
AcDbSpline
 62
7
  6
CONTINUOUS
 70
0
 71
3
 72
29
 73
25
 74
0
 42
0.0000001
 43
0.0000001
 44
0.0000000001
 40
0.0
 40
0.0
 40
0.0
 40
0.0
 40
0.0020652299
 40
0.0046490825
 40
0.0077540721
 40
0.011381049
 40
0.0201971772
 40
0.0310858396
 40
0.0440307202
 40
0.0590077061
 40
0.0759898557
 40
0.0949460538
 40
0.1158396948
 40
0.1386327366
 40
0.1897383025
 40
0.2478759519
 40
0.3126045593
 40
0.383431828
 40
0.4598194607
 40
0.5411866774
 40
0.6269147061
 40
0.7163525007
 40
0.8088143962
 40
1.0
 40
1.0
 40
1.0
 40
1.0
 10
5.4812401383
 20
5.3889446592
 30
0.0
 10
5.4810644457
 20
5.3888991081
 30
0.0
 10
5.4806649757
 20
5.3888120313
 30
0.0
 10
5.4799936255
 20
5.3886946189
 30
0.0
 10
5.4791833642
 20
5.3885766111
 30
0.0
 10
5.4778273679
 20
5.3884075388
 30
0.0
 10
5.4757869076
 20
5.3882024384
 30
0.0
 10
5.4729270905
 20
5.3879673035
 30
0.0
 10
5.4695243528
 20
5.3877312363
 30
0.0
 10
5.4655850732
 20
5.3874943021
 30
0.0
 10
5.4611166834
 20
5.3872568932
 30
0.0
 10
5.4561276819
 20
5.3870191366
 30
0.0
 10
5.4506274852
 20
5.3867810896
 30
0.0
 10
5.4423032653
 20
5.3864507277
 30
0.0
 10
5.4307064372
 20
5.3860433301
 30
0.0
 10
5.4154243378
 20
5.3855697876
 30
0.0
 10
5.3984082909
 20
5.3850953837
 30
0.0
 10
5.3797878125
 20
5.3846202944
 30
0.0
 10
5.3597046337
 20
5.3841447431
 30
0.0
 10
5.3383115771
 20
5.3836688455
 30
0.0
 10
5.3157713529
 20
5.3831926958
 30
0.0
 10
5.2922558764
 20
5.3827163588
 30
0.0
 10
5.2594737967
 20
5.3820739126
 30
0.0
 10
5.2345500492
 20
5.3816033425
 30
0.0
 10
5.2177507636
 20
5.3812888199
 30
0.0
  0
SPLINE
  5
3EF
100
AcDbEntity
  8
0
100
AcDbSpline
 62
7
  6
CONTINUOUS
 70
0
 71
3
 72
63
 73
59
 74
0
 42
0.0000001
 43
0.0000001
 44
0.0000000001
 40
0.0
 40
0.0
 40
0.0
 40
0.0
 40
0.0001173728
 40
0.000189092
 40
0.000273263
 40
0.0004849876
 40
0.0007603742
 40
0.0011026384
 40
0.0015134036
 40
0.001993578
 40
0.0025437082
 40
0.0038550309
 40
0.005448692
 40
0.0073246262
 40
0.0094823282
 40
0.0146398837
 40
0.0209118707
 40
0.0282844809
 40
0.0367420936
 40
0.04626501
 40
0.0568322231
 40
0.0684192725
 40
0.0809997729
 40
0.0945450951
 40
0.1090238063
 40
0.1406475045
 40
0.1755805306
 40
0.2135020992
 40
0.2540637392
 40
0.2968927787
 40
0.3415956591
 40
0.387761468
 40
0.4349659952
 40
0.4827751955
 40
0.5307496925
 40
0.578448462
 40
0.6254330827
 40
0.6712717402
 40
0.7155430582
 40
0.7578401495
 40
0.7977742739
 40
0.8349785043
 40
0.869111141
 40
0.8998587661
 40
0.9269392373
 40
0.9390252994
 40
0.9501044553
 40
0.9601510005
 40
0.9691426998
 40
0.9770585626
 40
0.9838815598
 40
0.9895963972
 40
0.9920345039
 40
0.9941916604
 40
0.9960669875
 40
0.997659848
 40
0.9989703963
 40
1.0
 40
1.0
 40
1.0
 40
1.0
 10
5.482000655
 20
4.9626888199
 30
0.0
 10
5.4820006532
 20
4.962665795
 30
0.0
 10
5.4819866453
 20
4.9626286746
 30
0.0
 10
5.4819521714
 20
4.9625876408
 30
0.0
 10
5.4818974797
 20
4.9625401388
 30
0.0
 10
5.481800175
 20
4.9624832138
 30
0.0
 10
5.4816505981
 20
4.9624188314
 30
0.0
 10
5.4814592976
 20
4.9623542008
 30
0.0
 10
5.4812261857
 20
4.9622892801
 30
0.0
 10
5.480951033
 20
4.9622241692
 30
0.0
 10
5.4805010381
 20
4.9621316765
 30
0.0
 10
5.4798325212
 20
4.9620188589
 30
0.0
 10
5.4789035793
 20
4.9618893028
 30
0.0
 10
5.4778072992
 20
4.9617592777
 30
0.0
 10
5.4760137448
 20
4.9615742458
 30
0.0
 10
5.4733577086
 20
4.9613488658
 30
0.0
 10
5.4696783457
 20
4.9610899723
 30
0.0
 10
5.4653503123
 20
4.9608301157
 30
0.0
 10
5.4603836166
 20
4.9605695085
 30
0.0
 10
5.4547895045
 20
4.9603084002
 30
0.0
 10
5.4485809145
 20
4.960046961
 30
0.0
 10
5.4417720515
 20
4.9597852569
 30
0.0
 10
5.4343785891
 20
4.959523364
 30
0.0
 10
5.4264175494
 20
4.9592613206
 30
0.0
 10
5.4147220629
 20
4.9589010852
 30
0.0
 10
5.3988316604
 20
4.9584552317
 30
0.0
 10
5.3783428957
 20
4.9579337321
 30
0.0
 10
5.3561002806
 20
4.9574116125
 30
0.0
 10
5.3323083304
 20
4.9568890033
 30
0.0
 10
5.3071858038
 20
4.9563660576
 30
0.0
 10
5.2809636924
 20
4.9558428665
 30
0.0
 10
5.2538830857
 20
4.955319505
 30
0.0
 10
5.2261930074
 20
4.954796032
 30
0.0
 10
5.1981480598
 20
4.9542724969
 30
0.0
 10
5.1700061408
 20
4.9537489453
 30
0.0
 10
5.1420260061
 20
4.9532254212
 30
0.0
 10
5.1144649292
 20
4.9527019709
 30
0.0
 10
5.0875763324
 20
4.9521786462
 30
0.0
 10
5.0616074581
 20
4.9516555095
 30
0.0
 10
5.0367971076
 20
4.9511326378
 30
0.0
 10
5.0133734141
 20
4.9506101386
 30
0.0
 10
4.9915517437
 20
4.9500881463
 30
0.0
 10
4.9715327111
 20
4.9495669153
 30
0.0
 10
4.9535003584
 20
4.9490466479
 30
0.0
 10
4.9397926237
 20
4.9485992012
 30
0.0
 10
4.9299426574
 20
4.9482362023
 30
0.0
 10
4.9234327836
 20
4.9479746136
 30
0.0
 10
4.9175304484
 20
4.94771332
 30
0.0
 10
4.9122493043
 20
4.9474524497
 30
0.0
 10
4.9076013409
 20
4.9471921812
 30
0.0
 10
4.903597308
 20
4.9469327068
 30
0.0
 10
4.9006680079
 20
4.9467074676
 30
0.0
 10
4.8986538443
 20
4.946523424
 30
0.0
 10
4.8973911895
 20
4.9463930444
 30
0.0
 10
4.8962953133
 20
4.9462630177
 30
0.0
 10
4.8953667424
 20
4.9461335436
 30
0.0
 10
4.8946059451
 20
4.9460047853
 30
0.0
 10
4.8941566969
 20
4.9459086723
 30
0.0
 10
4.8939611855
 20
4.9458579805
 30
0.0
  0
SPLINE
  5
3F0
100
AcDbEntity
  8
0
100
AcDbSpline
 62
7
  6
CONTINUOUS
 70
0
 71
3
 72
11
 73
7
 74
0
 42
0.0000001
 43
0.0000001
 44
0.0000000001
 40
0.0
 40
0.0
 40
0.0
 40
0.0
 40
0.2518037606
 40
0.5027062979
 40
0.7521419293
 40
1.0
 40
1.0
 40
1.0
 40
1.0
 10
4.7049338055
 20
5.5222730306
 30
0.0
 10
4.7049338055
 20
5.5232186745
 30
0.0
 10
4.7051983937
 20
5.5251170996
 30
0.0
 10
4.7063602721
 20
5.5277310934
 30
0.0
 10
4.7081917347
 20
5.5299100101
 30
0.0
 10
4.7097740061
 20
5.5309584485
 30
0.0
 10
4.7106159262
 20
5.5313554467
 30
0.0
  0
SPLINE
  5
3F1
100
AcDbEntity
  8
0
100
AcDbSpline
 62
7
  6
CONTINUOUS
 70
0
 71
3
 72
13
 73
9
 74
0
 42
0.0000001
 43
0.0000001
 44
0.0000000001
 40
0.0
 40
0.0
 40
0.0
 40
0.0
 40
0.2640725466
 40
0.5191945621
 40
0.6430186473
 40
0.7641683
 40
0.8830474201
 40
1.0
 40
1.0
 40
1.0
 40
1.0
 10
4.7093751254
 20
5.5228860624
 30
0.0
 10
4.7093132078
 20
5.5238312827
 30
0.0
 10
4.7094224555
 20
5.5257138726
 30
0.0
 10
4.7101650382
 20
5.5279306163
 30
0.0
 10
4.7110907967
 20
5.5294739166
 30
0.0
 10
4.7119259136
 20
5.5304839266
 30
0.0
 10
4.7128905085
 20
5.5313339478
 30
0.0
 10
4.7136111469
 20
5.5317856468
 30
0.0
 10
4.7139841014
 20
5.5319777387
 30
0.0
  0
SPLINE
  5
3F2
100
AcDbEntity
  8
0
100
AcDbSpline
 62
7
  6
CONTINUOUS
 70
0
 71
3
 72
11
 73
7
 74
0
 42
0.0000001
 43
0.0000001
 44
0.0000000001
 40
0.0
 40
0.0
 40
0.0
 40
0.0
 40
0.2518037606
 40
0.5027062979
 40
0.7521419293
 40
1.0
 40
1.0
 40
1.0
 40
1.0
 10
4.7049338055
 20
5.4278046092
 30
0.0
 10
4.7049338055
 20
5.4268589652
 30
0.0
 10
4.7051983937
 20
5.4249605402
 30
0.0
 10
4.7063602721
 20
5.4223465464
 30
0.0
 10
4.7081917347
 20
5.4201676297
 30
0.0
 10
4.7097740061
 20
5.4191191913
 30
0.0
 10
4.7106159262
 20
5.4187221931
 30
0.0
  0
SPLINE
  5
3F3
100
AcDbEntity
  8
0
100
AcDbSpline
 62
7
  6
CONTINUOUS
 70
0
 71
3
 72
22
 73
18
 74
0
 42
0.0000001
 43
0.0000001
 44
0.0000000001
 40
0.0
 40
0.0
 40
0.0
 40
0.0
 40
0.0066200759
 40
0.0149023231
 40
0.0248529476
 40
0.0364717091
 40
0.0647018804
 40
0.0995602463
 40
0.1409873131
 40
0.1889088342
 40
0.2432402919
 40
0.3038770242
 40
0.3707094072
 40
0.4436101999
 40
0.6070580045
 40
0.7929889254
 40
1.0
 40
1.0
 40
1.0
 40
1.0
 10
5.5015297279
 20
4.9463556575
 30
0.0
 10
5.5013415551
 20
4.9463102277
 30
0.0
 10
5.500914278
 20
4.9462233947
 30
0.0
 10
5.5001969668
 20
4.9461063152
 30
0.0
 10
5.4993319461
 20
4.9459886578
 30
0.0
 10
5.4978854788
 20
4.9458200902
 30
0.0
 10
5.4957103123
 20
4.9456155794
 30
0.0
 10
5.4926630863
 20
4.9453811574
 30
0.0
 10
5.4890386894
 20
4.9451457464
 30
0.0
 10
5.4848439234
 20
4.9449094911
 30
0.0
 10
5.4800866878
 20
4.9446727834
 30
0.0
 10
5.4747758893
 20
4.9444356942
 30
0.0
 10
5.4689216247
 20
4.9441983542
 30
0.0
 10
5.4600623525
 20
4.9438689415
 30
0.0
 10
5.4477210152
 20
4.9434627347
 30
0.0
 10
5.4314583283
 20
4.9429905494
 30
0.0
 10
5.4199721285
 20
4.9426905052
 30
0.0
 10
5.4139207731
 20
4.9425388237
 30
0.0
  0
SPLINE
  5
3F4
100
AcDbEntity
  8
0
100
AcDbSpline
 62
7
  6
CONTINUOUS
 70
0
 71
3
 72
63
 73
59
 74
0
 42
0.0000001
 43
0.0000001
 44
0.0000000001
 40
0.0
 40
0.0
 40
0.0
 40
0.0
 40
0.0010305488
 40
0.0023428763
 40
0.0039379092
 40
0.0058154627
 40
0.0079749741
 40
0.0104156864
 40
0.0161361879
 40
0.0229645197
 40
0.0308862536
 40
0.0398832882
 40
0.0499354205
 40
0.0610198261
 40
0.0731109087
 40
0.1002008843
 40
0.1309571577
 40
0.1650974078
 40
0.2023081681
 40
0.2422476303
 40
0.284548844
 40
0.3288231691
 40
0.3746637636
 40
0.4216493439
 40
0.4693481802
 40
0.5173217944
 40
0.5651293801
 40
0.6123315063
 40
0.6584944184
 40
0.7031939143
 40
0.7460192019
 40
0.7865768078
 40
0.8244940777
 40
0.8594226492
 40
0.8756647097
 40
0.8910418262
 40
0.9055184197
 40
0.9190613758
 40
0.9316397528
 40
0.9432244591
 40
0.9537894533
 40
0.9633100455
 40
0.9717652419
 40
0.979135424
 40
0.9854046854
 40
0.9905593093
 40
0.9927153186
 40
0.9945893618
 40
0.996180879
 40
0.9974896931
 40
0.9980383526
 40
0.9985168556
 40
0.9989256789
 40
0.9992656229
 40
0.9995381323
 40
0.9996499814
 40
0.9997463072
 40
1.0
 40
1.0
 40
1.0
 40
1.0
 10
5.5015297279
 20
4.9808056575
 30
0.0
 10
5.5013196525
 20
4.9807549398
 30
0.0
 10
5.5008375015
 20
4.9806588197
 30
0.0
 10
5.5000217229
 20
4.9805300842
 30
0.0
 10
5.4990265814
 20
4.9804006319
 30
0.0
 10
5.4978526392
 20
4.9802706148
 30
0.0
 10
5.4965004509
 20
4.980140252
 30
0.0
 10
5.4943439505
 20
4.9799562453
 30
0.0
 10
5.4912085239
 20
4.9797310552
 30
0.0
 10
5.4869235493
 20
4.9794715737
 30
0.0
 10
5.4819504284
 20
4.979211359
 30
0.0
 10
5.4763004972
 20
4.9789504953
 30
0.0
 10
5.4699867287
 20
4.978689244
 30
0.0
 10
5.463023638
 20
4.9784276782
 30
0.0
 10
5.4524889709
 20
4.9780647276
 30
0.0
 10
5.4378295563
 20
4.9776173354
 30
0.0
 10
5.4185465457
 20
4.9770971238
 30
0.0
 10
5.3971404921
 20
4.9765759494
 30
0.0
 10
5.3738081826
 20
4.9760540144
 30
0.0
 10
5.3487640959
 20
4.9755315729
 30
0.0
 10
5.3222384525
 20
4.9750087588
 30
0.0
 10
5.2944750911
 20
4.9744856799
 30
0.0
 10
5.2657292322
 20
4.9739624135
 30
0.0
 10
5.2362651241
 20
4.9734390218
 30
0.0
 10
5.206353644
 20
4.9729155566
 30
0.0
 10
5.1762697598
 20
4.9723920638
 30
0.0
 10
5.1462900535
 20
4.9718685875
 30
0.0
 10
5.1166901172
 20
4.9713451731
 30
0.0
 10
5.0877420634
 20
4.9708218703
 30
0.0
 10
5.0597120038
 20
4.9702987391
 30
0.0
 10
5.0328576107
 20
4.9697758497
 30
0.0
 10
5.0074257568
 20
4.9692533099
 30
0.0
 10
4.9836502431
 20
4.9687312161
 30
0.0
 10
4.9649733653
 20
4.968286625
 30
0.0
 10
4.9510225904
 20
4.9679281477
 30
0.0
 10
4.9413596439
 20
4.9676659251
 30
0.0
 10
4.9322629298
 20
4.9674037984
 30
0.0
 10
4.9237533799
 20
4.9671417853
 30
0.0
 10
4.9158505746
 20
4.9668799279
 30
0.0
 10
4.9085726246
 20
4.9666182479
 30
0.0
 10
4.901936346
 20
4.9663568428
 30
0.0
 10
4.8959568831
 20
4.9660957664
 30
0.0
 10
4.8906480749
 20
4.9658351873
 30
0.0
 10
4.8860219568
 20
4.9655753674
 30
0.0
 10
4.8820892038
 20
4.9653164987
 30
0.0
 10
4.8792501889
 20
4.9650911617
 30
0.0
 10
4.8773329802
 20
4.9649061509
 30
0.0
 10
4.8761612402
 20
4.9647761496
 30
0.0
 10
4.8751683846
 20
4.9646466175
 30
0.0
 10
4.8744537908
 20
4.9645338005
 30
0.0
 10
4.8739726964
 20
4.9644412955
 30
0.0
 10
4.8736786245
 20
4.964376173
 30
0.0
 10
4.8734295227
 20
4.964311335
 30
0.0
 10
4.8732251157
 20
4.9642465786
 30
0.0
 10
4.8730841626
 20
4.964190245
 30
0.0
 10
4.8729941827
 20
4.9641431655
 30
0.0
 10
4.8729141379
 20
4.9640928672
 30
0.0
 10
4.8728506554
 20
4.9640298883
 30
0.0
 10
4.8728506554
 20
4.9639766877
 30
0.0
  0
SPLINE
  5
3F5
100
AcDbEntity
  8
0
100
AcDbSpline
 62
7
  6
CONTINUOUS
 70
0
 71
3
 72
63
 73
59
 74
0
 42
0.0000001
 43
0.0000001
 44
0.0000000001
 40
0.0
 40
0.0
 40
0.0
 40
0.0
 40
0.0010295224
 40
0.0023401754
 40
0.003933166
 40
0.0058084305
 40
0.0079654642
 40
0.0104035405
 40
0.0161185877
 40
0.0229413684
 40
0.0308574229
 40
0.0398489954
 40
0.0498955774
 40
0.0609747787
 40
0.0730606988
 40
0.1001411675
 40
0.1308888605
 40
0.1650215363
 40
0.2022258125
 40
0.2421599263
 40
0.2844569384
 40
0.3287282597
 40
0.3745668773
 40
0.4215515568
 40
0.4692503247
 40
0.5172247917
 40
0.5650340133
 40
0.6122384841
 40
0.6584043741
 40
0.7031072517
 40
0.7459362837
 40
0.7864978979
 40
0.8244193849
 40
0.859352398
 40
0.8909761228
 40
0.90545488
 40
0.9190002533
 40
0.9315806425
 40
0.9431678701
 40
0.9537348666
 40
0.9632579639
 40
0.971715431
 40
0.9790881196
 40
0.9853601606
 40
0.9905175873
 40
0.992675412
 40
0.9945514092
 40
0.9961449408
 40
0.9974561584
 40
0.9980063144
 40
0.998486544
 40
0.9988973741
 40
0.9992396938
 40
0.9995151082
 40
0.9997268181
 40
0.9998109648
 40
0.9998826555
 40
1.0
 40
1.0
 40
1.0
 40
1.0
 10
5.4812401492
 20
4.9755446593
 30
0.0
 10
5.4810446551
 20
4.9754939643
 30
0.0
 10
5.4805954034
 20
4.9753978435
 30
0.0
 10
5.4798345733
 20
4.9752690979
 30
0.0
 10
5.4789059674
 20
4.9751396309
 30
0.0
 10
5.477810103
 20
4.9750095963
 30
0.0
 10
5.4765474912
 20
4.9748792127
 30
0.0
 10
5.4745333165
 20
4.9746951663
 30
0.0
 10
5.471604022
 20
4.9744699464
 30
0.0
 10
5.4675999544
 20
4.9742104463
 30
0.0
 10
5.4629520191
 20
4.9739501995
 30
0.0
 10
5.4576708556
 20
4.9736893153
 30
0.0
 10
5.4517685285
 20
4.9734280269
 30
0.0
 10
5.4452586662
 20
4.9731664397
 30
0.0
 10
5.435408719
 20
4.9728034352
 30
0.0
 10
5.4217009985
 20
4.9723559925
 30
0.0
 10
5.4036686244
 20
4.9718357244
 30
0.0
 10
5.3836495608
 20
4.9713144939
 30
0.0
 10
5.3618278747
 20
4.9707925017
 30
0.0
 10
5.3384041886
 20
4.9702700024
 30
0.0
 10
5.3135938538
 20
4.9697471303
 30
0.0
 10
5.2876250009
 20
4.9692239934
 30
0.0
 10
5.2607363984
 20
4.9687006689
 30
0.0
 10
5.2331753166
 20
4.9681772188
 30
0.0
 10
5.2051951752
 20
4.9676536947
 30
0.0
 10
5.1770532568
 20
4.967130143
 30
0.0
 10
5.1490083205
 20
4.9666066079
 30
0.0
 10
5.1213182317
 20
4.9660831346
 30
0.0
 10
5.0942376193
 20
4.9655597735
 30
0.0
 10
5.0680154927
 20
4.9650365825
 30
0.0
 10
5.0428929718
 20
4.9645136368
 30
0.0
 10
5.019101043
 20
4.9639910276
 30
0.0
 10
4.9968584504
 20
4.9634689077
 30
0.0
 10
4.976369698
 20
4.9629474077
 30
0.0
 10
4.960479283
 20
4.9625015546
 30
0.0
 10
4.9487837716
 20
4.962141319
 30
0.0
 10
4.9408227341
 20
4.9618792792
 30
0.0
 10
4.9334292485
 20
4.9616173775
 30
0.0
 10
4.926620414
 20
4.9613556865
 30
0.0
 10
4.9204117964
 20
4.9610942315
 30
0.0
 10
4.9148177189
 20
4.9608331389
 30
0.0
 10
4.9098510012
 20
4.9605725199
 30
0.0
 10
4.90552297
 20
4.9603126662
 30
0.0
 10
4.9018436054
 20
4.9600537825
 30
0.0
 10
4.8991875613
 20
4.9598283835
 30
0.0
 10
4.8973939945
 20
4.9596433632
 30
0.0
 10
4.8962977023
 20
4.9595133459
 30
0.0
 10
4.8953687951
 20
4.9593837829
 30
0.0
 10
4.8947003214
 20
4.9592709562
 30
0.0
 10
4.8942503304
 20
4.9591784686
 30
0.0
 10
4.8939751481
 20
4.9591133583
 30
0.0
 10
4.8937420002
 20
4.9590484388
 30
0.0
 10
4.8935506683
 20
4.95898381
 30
0.0
 10
4.893401076
 20
4.9589194306
 30
0.0
 10
4.893303771
 20
4.958862507
 30
0.0
 10
4.8932491
 20
4.958815001
 30
0.0
 10
4.8932146547
 20
4.9587739616
 30
0.0
 10
4.8932006851
 20
4.9587368391
 30
0.0
 10
4.8932006986
 20
4.9587138198
 30
0.0
  0
SPLINE
  5
3F6
100
AcDbEntity
  8
0
100
AcDbSpline
 62
7
  6
CONTINUOUS
 70
0
 71
3
 72
11
 73
7
 74
0
 42
0.0000001
 43
0.0000001
 44
0.0000000001
 40
0.0
 40
0.0
 40
0.0
 40
0.0
 40
0.2518037606
 40
0.5027062979
 40
0.7521419293
 40
1.0
 40
1.0
 40
1.0
 40
1.0
 10
5.6702675052
 20
5.4278046092
 30
0.0
 10
5.6702675052
 20
5.4268589652
 30
0.0
 10
5.6700029171
 20
5.4249605402
 30
0.0
 10
5.6688410386
 20
5.4223465464
 30
0.0
 10
5.6670095761
 20
5.4201676297
 30
0.0
 10
5.6654273046
 20
5.4191191913
 30
0.0
 10
5.6645853845
 20
5.4187221931
 30
0.0
  0
SPLINE
  5
3F7
100
AcDbEntity
  8
0
100
AcDbSpline
 62
7
  6
CONTINUOUS
 70
0
 71
3
 72
13
 73
9
 74
0
 42
0.0000001
 43
0.0000001
 44
0.0000000001
 40
0.0
 40
0.0
 40
0.0
 40
0.0
 40
0.2640725466
 40
0.5191945621
 40
0.6430186473
 40
0.7641683
 40
0.8830474201
 40
1.0
 40
1.0
 40
1.0
 40
1.0
 10
5.6658261854
 20
5.4271915774
 30
0.0
 10
5.6658881029
 20
5.4262463571
 30
0.0
 10
5.6657788552
 20
5.4243637671
 30
0.0
 10
5.6650362725
 20
5.4221470234
 30
0.0
 10
5.6641105141
 20
5.4206037232
 30
0.0
 10
5.6632753971
 20
5.4195937131
 30
0.0
 10
5.6623108023
 20
5.418743692
 30
0.0
 10
5.6615901638
 20
5.4182919929
 30
0.0
 10
5.6612172093
 20
5.418099901
 30
0.0
  0
SPLINE
  5
3F8
100
AcDbEntity
  8
0
100
AcDbSpline
 62
7
  6
CONTINUOUS
 70
0
 71
3
 72
12
 73
8
 74
0
 42
0.0000001
 43
0.0000001
 44
0.0000000001
 40
0.0
 40
0.0
 40
0.0
 40
0.0
 40
0.2756999981
 40
0.5395556479
 40
0.6641925965
 40
0.7827209856
 40
1.0
 40
1.0
 40
1.0
 40
1.0
 10
5.5200468348
 20
5.4278046092
 30
0.0
 10
5.5200468348
 20
5.426863759
 30
0.0
 10
5.5198730602
 20
5.4250178466
 30
0.0
 10
5.5192185441
 20
5.4228293455
 30
0.0
 10
5.5184449018
 20
5.421276656
 30
0.0
 10
5.5175745895
 20
5.4199663717
 30
0.0
 10
5.5167450011
 20
5.4191410637
 30
0.0
 10
5.5161331636
 20
5.4187221931
 30
0.0
  0
SPLINE
  5
3F9
100
AcDbEntity
  8
0
100
AcDbSpline
 62
7
  6
CONTINUOUS
 70
0
 71
3
 72
14
 73
10
 74
0
 42
0.0000001
 43
0.0000001
 44
0.0000000001
 40
0.0
 40
0.0
 40
0.0
 40
0.0
 40
0.3007786764
 40
0.444292672
 40
0.5797506723
 40
0.7048307554
 40
0.8174922647
 40
0.9162302247
 40
1.0
 40
1.0
 40
1.0
 40
1.0
 10
5.3378213258
 20
5.4278046092
 30
0.0
 10
5.3378213258
 20
5.4268672175
 30
0.0
 10
5.33776334
 20
5.4254813487
 30
0.0
 10
5.3375625043
 20
5.4236852064
 30
0.0
 10
5.3373589821
 20
5.4224418536
 30
0.0
 10
5.3371049866
 20
5.4213060929
 30
0.0
 10
5.3368054538
 20
5.4202999396
 30
0.0
 10
5.3364665899
 20
5.4194434384
 30
0.0
 10
5.3361966909
 20
5.4189400836
 30
0.0
 10
5.3360528763
 20
5.4187221931
 30
0.0
  0
SPLINE
  5
3FA
100
AcDbEntity
  8
0
100
AcDbSpline
 62
7
  6
CONTINUOUS
 70
0
 71
3
 72
14
 73
10
 74
0
 42
0.0000001
 43
0.0000001
 44
0.0000000001
 40
0.0
 40
0.0
 40
0.0
 40
0.0
 40
0.3007786764
 40
0.444292672
 40
0.5797506724
 40
0.7048307555
 40
0.8174922648
 40
0.9162302248
 40
1.0
 40
1.0
 40
1.0
 40
1.0
 10
5.0373799849
 20
5.4278046092
 30
0.0
 10
5.0373799849
 20
5.4268672175
 30
0.0
 10
5.0374379708
 20
5.4254813487
 30
0.0
 10
5.0376388064
 20
5.4236852064
 30
0.0
 10
5.0378423286
 20
5.4224418536
 30
0.0
 10
5.0380963242
 20
5.4213060929
 30
0.0
 10
5.0383958569
 20
5.4202999396
 30
0.0
 10
5.0387347209
 20
5.4194434384
 30
0.0
 10
5.0390046199
 20
5.4189400836
 30
0.0
 10
5.0391484345
 20
5.4187221931
 30
0.0
  0
SPLINE
  5
3FB
100
AcDbEntity
  8
0
100
AcDbSpline
 62
7
  6
CONTINUOUS
 70
0
 71
3
 72
12
 73
8
 74
0
 42
0.0000001
 43
0.0000001
 44
0.0000000001
 40
0.0
 40
0.0
 40
0.0
 40
0.0
 40
0.2756999981
 40
0.539555648
 40
0.6641925966
 40
0.7827209857
 40
1.0
 40
1.0
 40
1.0
 40
1.0
 10
4.855154476
 20
5.4278046092
 30
0.0
 10
4.855154476
 20
5.426863759
 30
0.0
 10
4.8553282505
 20
5.4250178466
 30
0.0
 10
4.8559827666
 20
5.4228293455
 30
0.0
 10
4.856756409
 20
5.421276656
 30
0.0
 10
4.8576267212
 20
5.4199663717
 30
0.0
 10
4.8584563096
 20
5.4191410637
 30
0.0
 10
4.8590681471
 20
5.4187221931
 30
0.0
  0
SPLINE
  5
3FC
100
AcDbEntity
  8
0
100
AcDbSpline
 62
7
  6
CONTINUOUS
 70
0
 71
3
 72
11
 73
7
 74
0
 42
0.0000001
 43
0.0000001
 44
0.0000000001
 40
0.0
 40
0.0
 40
0.0
 40
0.0
 40
0.2566916811
 40
0.5120194457
 40
0.7608849726
 40
1.0
 40
1.0
 40
1.0
 40
1.0
 10
4.8474321788
 20
5.4271915774
 30
0.0
 10
4.8474951189
 20
5.4262307476
 30
0.0
 10
4.8478643964
 20
5.4243220307
 30
0.0
 10
4.8490898391
 20
5.4217123486
 30
0.0
 10
4.8508913776
 20
5.4195439432
 30
0.0
 10
4.8524244341
 20
5.4184896802
 30
0.0
 10
4.8532322725
 20
5.418099901
 30
0.0
  0
SPLINE
  5
3FD
100
AcDbEntity
  8
0
100
AcDbSpline
 62
7
  6
CONTINUOUS
 70
0
 71
3
 72
51
 73
47
 74
0
 42
0.0000001
 43
0.0000001
 44
0.0000000001
 40
0.0
 40
0.0
 40
0.0
 40
0.0
 40
0.0001010003
 40
0.0002319079
 40
0.0004079587
 40
0.0006354676
 40
0.0009172906
 40
0.0012548905
 40
0.0016490943
 40
0.0021004051
 40
0.0031754745
 40
0.0044816066
 40
0.0060190707
 40
0.0077876387
 40
0.0097868792
 40
0.0120162429
 40
0.0171622685
 40
0.0232170046
 40
0.0301703162
 40
0.0380103312
 40
0.0467227231
 40
0.0562925732
 40
0.0667024453
 40
0.0779337139
 40
0.0899666054
 40
0.1163484808
 40
0.1456588388
 40
0.1776872156
 40
0.2122033622
 40
0.2489590277
 40
0.2876899297
 40
0.3281176411
 40
0.3699514441
 40
0.4128903091
 40
0.4566254352
 40
0.5008422923
 40
0.5894476878
 40
0.6761617105
 40
0.7584940534
 40
0.8340802337
 40
0.8686561171
 40
0.9007502731
 40
0.9301319995
 40
0.9565903238
 40
0.9799354305
 40
1.0
 40
1.0
 40
1.0
 40
1.0
 10
5.5023506554
 20
4.957425952
 30
0.0
 10
5.5023506554
 20
4.9574056956
 30
0.0
 10
5.5023340606
 20
4.9573592899
 30
0.0
 10
5.5022746078
 20
4.957301292
 30
0.0
 10
5.5021834357
 20
4.9572442229
 30
0.0
 10
5.5020580031
 20
4.9571873105
 30
0.0
 10
5.50189797
 20
4.9571300624
 30
0.0
 10
5.5017028736
 20
4.9570726273
 30
0.0
 10
5.5014726444
 20
4.957015011
 30
0.0
 10
5.5010961964
 20
4.9569331978
 30
0.0
 10
5.5005367819
 20
4.9568333735
 30
0.0
 10
5.4997592033
 20
4.9567187526
 30
0.0
 10
5.4988413156
 20
4.9566037506
 30
0.0
 10
5.4977835384
 20
4.9564884285
 30
0.0
 10
5.496586296
 20
4.9563728962
 30
0.0
 10
5.4947131191
 20
4.9562107995
 30
0.0
 10
5.4920268783
 20
4.9560117203
 30
0.0
 10
5.4883931674
 20
4.9557817532
 30
0.0
 10
5.4842182512
 20
4.9555512314
 30
0.0
 10
5.4795096382
 20
4.9553202677
 30
0.0
 10
5.4742757101
 20
4.9550889844
 30
0.0
 10
5.4685259328
 20
4.954857491
 30
0.0
 10
5.4622706087
 20
4.9546258214
 30
0.0
 10
5.4555209959
 20
4.9543940081
 30
0.0
 10
5.4455692095
 20
4.9540749272
 30
0.0
 10
5.4319921308
 20
4.953679951
 30
0.0
 10
5.4144051267
 20
4.9532184776
 30
0.0
 10
5.3951862352
 20
4.9527564445
 30
0.0
 10
5.3744737447
 20
4.9522939636
 30
0.0
 10
5.3524167057
 20
4.9518311658
 30
0.0
 10
5.329173816
 20
4.9513681287
 30
0.0
 10
5.304912278
 20
4.9509049147
 30
0.0
 10
5.2798066553
 20
4.95044157
 30
0.0
 10
5.2540375974
 20
4.9499781302
 30
0.0
 10
5.2277905255
 20
4.9495146264
 30
0.0
 10
5.1923859895
 20
4.9488961736
 30
0.0
 10
5.1483629478
 20
4.9481313884
 30
0.0
 10
5.0966970356
 20
4.9472148206
 30
0.0
 10
5.0476426305
 20
4.9462995705
 30
0.0
 10
5.0090442814
 20
4.9455178373
 30
0.0
 10
4.980520777
 20
4.9448821631
 30
0.0
 10
4.9612623889
 20
4.9444200875
 30
0.0
 10
4.9436325306
 20
4.943958627
 30
0.0
 10
4.9277579892
 20
4.9434980403
 30
0.0
 10
4.9137529234
 20
4.9430386484
 30
0.0
 10
4.9050529805
 20
4.9427081647
 30
0.0
 10
4.9010324418
 20
4.942538824
 30
0.0
  0
SPLINE
  5
3FE
100
AcDbEntity
  8
0
100
AcDbSpline
 62
7
  6
CONTINUOUS
 70
0
 71
3
 72
55
 73
51
 74
0
 42
0.0000001
 43
0.0000001
 44
0.0000000001
 40
0.0
 40
0.0
 40
0.0
 40
0.0
 40
0.0001061984
 40
0.0001715451
 40
0.000248531
 40
0.0004428988
 40
0.0006963623
 40
0.0010117927
 40
0.0013906332
 40
0.001833689
 40
0.0023414439
 40
0.0035521139
 40
0.0050238927
 40
0.0067567628
 40
0.0087502949
 40
0.0135166605
 40
0.0193152431
 40
0.0261342288
 40
0.0339604884
 40
0.0427774145
 40
0.0525670275
 40
0.0633089032
 40
0.0749803118
 40
0.0875572738
 40
0.1010128682
 40
0.1304463453
 40
0.163033442
 40
0.1985002845
 40
0.2365487352
 40
0.2768588626
 40
0.3190916921
 40
0.3628920531
 40
0.4078914065
 40
0.4537112937
 40
0.4999662734
 40
0.5462672472
 40
0.6374522536
 40
0.7242045282
 40
0.7649996938
 40
0.8036116202
 40
0.8397156082
 40
0.8730080013
 40
0.9032090214
 40
0.930064949
 40
0.9533506229
 40
0.9728707019
 40
0.9811666577
 40
0.9884635711
 40
0.994745928
 40
1.0
 40
1.0
 40
1.0
 40
1.0
 10
5.5023506554
 20
4.991875952
 30
0.0
 10
5.5023506554
 20
4.991853888
 30
0.0
 10
5.5023368327
 20
4.9918182654
 30
0.0
 10
5.5023031697
 20
4.991779149
 30
0.0
 10
5.5022495955
 20
4.9917336723
 30
0.0
 10
5.5021543782
 20
4.9916792599
 30
0.0
 10
5.5020080905
 20
4.9916176977
 30
0.0
 10
5.5018209603
 20
4.9915558871
 30
0.0
 10
5.5015929087
 20
4.9914937837
 30
0.0
 10
5.5013237145
 20
4.9914314941
 30
0.0
 10
5.5008834005
 20
4.9913429953
 30
0.0
 10
5.5002292684
 20
4.9912350572
 30
0.0
 10
5.4993202783
 20
4.9911111238
 30
0.0
 10
5.4982474163
 20
4.9909867477
 30
0.0
 10
5.4964917919
 20
4.9908097432
 30
0.0
 10
5.493891356
 20
4.9905941369
 30
0.0
 10
5.4902880653
 20
4.9903464827
 30
0.0
 10
5.4860478237
 20
4.9900978972
 30
0.0
 10
5.4811796102
 20
4.9898485953
 30
0.0
 10
5.475693522
 20
4.9895988228
 30
0.0
 10
5.4696011339
 20
4.9893487214
 30
0.0
 10
5.4629152489
 20
4.9890983788
 30
0.0
 10
5.4556498933
 20
4.9888478429
 30
0.0
 10
5.4478204237
 20
4.9885971721
 30
0.0
 10
5.4363018077
 20
4.9882523815
 30
0.0
 10
5.4206264609
 20
4.987825633
 30
0.0
 10
5.4003783511
 20
4.987326692
 30
0.0
 10
5.3783398896
 20
4.9868271533
 30
0.0
 10
5.3546965016
 20
4.986327139
 30
0.0
 10
5.3296471067
 20
4.9858267943
 30
0.0
 10
5.3034024587
 20
4.9853262046
 30
0.0
 10
5.2761833983
 20
4.9848254394
 30
0.0
 10
5.2482189616
 20
4.9843245515
 30
0.0
 10
5.2197444685
 20
4.9838235841
 30
0.0
 10
5.1909995067
 20
4.98332258
 30
0.0
 10
5.1528307889
 20
4.982657966
 30
0.0
 10
5.1062496764
 20
4.9818380241
 30
0.0
 10
5.0608129798
 20
4.9809990657
 30
0.0
 10
5.0262979908
 20
4.9803178433
 30
0.0
 10
5.0023043111
 20
4.9798177298
 30
0.0
 10
4.9798697761
 20
4.9793180591
 30
0.0
 10
4.9591831623
 20
4.9788189885
 30
0.0
 10
4.9404185383
 20
4.9783207349
 30
0.0
 10
4.9237336977
 20
4.9778238343
 30
0.0
 10
4.9092690321
 20
4.9773285808
 30
0.0
 10
4.8986605715
 20
4.9768987704
 30
0.0
 10
4.8913738802
 20
4.9765466488
 30
0.0
 10
4.8868358047
 20
4.9762976491
 30
0.0
 10
4.8829307703
 20
4.9760494679
 30
0.0
 10
4.880540627
 20
4.9758689415
 30
0.0
 10
4.8794529952
 20
4.975775952
 30
0.0
  0
LINE
  5
3FF
100
AcDbEntity
  8
0
100
AcDbLine
 62
7
  6
CONTINUOUS
 10
4.8794529952
 20
4.975775952
 11
4.8735622526
 21
4.9750197087
  0
SPLINE
  5
400
100
AcDbEntity
  8
0
100
AcDbSpline
 62
7
  6
CONTINUOUS
 70
0
 71
3
 72
19
 73
15
 74
0
 42
0.0000001
 43
0.0000001
 44
0.0000000001
 40
0.0
 40
0.0
 40
0.0
 40
0.0
 40
0.0257927194
 40
0.0358395049
 40
0.0475630635
 40
0.0762581866
 40
0.1121765775
 40
0.1554557062
 40
0.2061684896
 40
0.2643552256
 40
0.4032294039
 40
0.5721682417
 40
0.771128639
 40
1.0
 40
1.0
 40
1.0
 40
1.0
 10
4.8728506554
 20
4.9984266877
 30
0.0
 10
4.8728506554
 20
4.9984848946
 30
0.0
 10
4.8729249191
 20
4.9985519023
 30
0.0
 10
4.8730148869
 20
4.9986048509
 30
0.0
 10
4.8731180441
 20
4.9986552983
 30
0.0
 10
4.8732792309
 20
4.9987155019
 30
0.0
 10
4.8735129814
 20
4.9987847343
 30
0.0
 10
4.8737978634
 20
4.998854044
 30
0.0
 10
4.8741342264
 20
4.9989236724
 30
0.0
 10
4.8746846015
 20
4.9990225995
 30
0.0
 10
4.8755018798
 20
4.9991432473
 30
0.0
 10
4.8766371639
 20
4.9992817856
 30
0.0
 10
4.8779767721
 20
4.9994208077
 30
0.0
 10
4.8789383742
 20
4.999507689
 30
0.0
 10
4.8794529952
 20
4.9995516877
 30
0.0
  0
SPLINE
  5
401
100
AcDbEntity
  8
0
100
AcDbSpline
 62
7
  6
CONTINUOUS
 70
0
 71
3
 72
63
 73
59
 74
0
 42
0.0000001
 43
0.0000001
 44
0.0000000001
 40
0.0
 40
0.0
 40
0.0
 40
0.0
 40
0.000254191
 40
0.000350766
 40
0.0004629182
 40
0.0007361972
 40
0.00107713
 40
0.0014871617
 40
0.0019670922
 40
0.0025173986
 40
0.0038301623
 40
0.0054264967
 40
0.0073062185
 40
0.0094687629
 40
0.0146389989
 40
0.0209271832
 40
0.0283195226
 40
0.0367999917
 40
0.0463488592
 40
0.0569449942
 40
0.0685635477
 40
0.0811783319
 40
0.0947600523
 40
0.1092776068
 40
0.1246976465
 40
0.1409844077
 40
0.1760067517
 40
0.2140220423
 40
0.2546798842
 40
0.2976054903
 40
0.3424031854
 40
0.3886599366
 40
0.4359493051
 40
0.4838353209
 40
0.5318764117
 40
0.5796297201
 40
0.6266548439
 40
0.6725182901
 40
0.7167971936
 40
0.7590833558
 40
0.7989870168
 40
0.8361403695
 40
0.8702010383
 40
0.9008552814
 40
0.9278208141
 40
0.9398413368
 40
0.9508497901
 40
0.9608205511
 40
0.969731067
 40
0.9775611238
 40
0.9842929405
 40
0.9899121844
 40
0.9923005829
 40
0.9944067566
 40
0.9962299758
 40
0.9977697304
 40
0.9990259739
 40
1.0
 40
1.0
 40
1.0
 40
1.0
 10
5.5023506554
 20
5.026325952
 30
0.0
 10
5.5023506554
 20
5.0262726375
 30
0.0
 10
5.5022869312
 20
5.0262095629
 30
0.0
 10
5.5022066605
 20
5.026159203
 30
0.0
 10
5.5021163836
 20
5.0261120452
 30
0.0
 10
5.5019749742
 20
5.0260556215
 30
0.0
 10
5.5017699063
 20
5.0259907608
 30
0.0
 10
5.5015199989
 20
5.0259258184
 30
0.0
 10
5.501224975
 20
5.0258605907
 30
0.0
 10
5.5007423202
 20
5.0257679355
 30
0.0
 10
5.5000254132
 20
5.0256549362
 30
0.0
 10
5.4990293491
 20
5.0255251945
 30
0.0
 10
5.4978538265
 20
5.0253949827
 30
0.0
 10
5.4959304376
 20
5.0252096726
 30
0.0
 10
5.4930823001
 20
5.0249839716
 30
0.0
 10
5.4891369526
 20
5.0247246833
 30
0.0
 10
5.4844960902
 20
5.0244644433
 30
0.0
 10
5.4791704543
 20
5.0242034421
 30
0.0
 10
5.4731721598
 20
5.0239419432
 30
0.0
 10
5.4665151341
 20
5.0236801149
 30
0.0
 10
5.4592146169
 20
5.0234180109
 30
0.0
 10
5.4512875338
 20
5.02315573
 30
0.0
 10
5.4427521059
 20
5.0228932923
 30
0.0
 10
5.4336280423
 20
5.0226307417
 30
0.0
 10
5.4239364002
 20
5.0223680942
 30
0.0
 10
5.409945087
 20
5.0220090453
 30
0.0
 10
5.3912152707
 20
5.0215637454
 30
0.0
 10
5.3673742603
 20
5.0210408095
 30
0.0
 10
5.3418752415
 20
5.0205174269
 30
0.0
 10
5.3149533923
 20
5.0199936946
 30
0.0
 10
5.2868570088
 20
5.0194697205
 30
0.0
 10
5.2578452104
 20
5.0189455752
 30
0.0
 10
5.2281855602
 20
5.0184213187
 30
0.0
 10
5.1981516025
 20
5.017897001
 30
0.0
 10
5.1680203225
 20
5.0173726678
 30
0.0
 10
5.1380696348
 20
5.0168483638
 30
0.0
 10
5.1085757602
 20
5.0163241351
 30
0.0
 10
5.0798107297
 20
5.0158000343
 30
0.0
 10
5.0520398254
 20
5.0152761245
 30
0.0
 10
5.0255191651
 20
5.0147524841
 30
0.0
 10
5.000493331
 20
5.0142292233
 30
0.0
 10
4.9771931193
 20
5.0137064784
 30
0.0
 10
4.9558334053
 20
5.0131845105
 30
0.0
 10
4.9366111838
 20
5.0126635251
 30
0.0
 10
4.9220114997
 20
5.0122153502
 30
0.0
 10
4.9115318375
 20
5.0118516778
 30
0.0
 10
4.9046153463
 20
5.011589718
 30
0.0
 10
4.8983516514
 20
5.0113280782
 30
0.0
 10
4.8927552256
 20
5.0110668475
 30
0.0
 10
4.8878389279
 20
5.0108062879
 30
0.0
 10
4.8836140244
 20
5.0105465018
 30
0.0
 10
4.8805306461
 20
5.0103209118
 30
0.0
 10
4.8784173568
 20
5.0101364123
 30
0.0
 10
4.8770986508
 20
5.0100059012
 30
0.0
 10
4.8759589005
 20
5.0098757631
 30
0.0
 10
4.8749986251
 20
5.0097462567
 30
0.0
 10
4.8742183642
 20
5.0096175295
 30
0.0
 10
4.8737602517
 20
5.0095209749
 30
0.0
 10
4.8735624944
 20
5.0094697085
 30
0.0
  0
SPLINE
  5
402
100
AcDbEntity
  8
0
100
AcDbSpline
 62
7
  6
CONTINUOUS
 70
0
 71
3
 72
63
 73
59
 74
0
 42
0.0000001
 43
0.0000001
 44
0.0000000001
 40
0.0
 40
0.0
 40
0.0
 40
0.0
 40
0.000254191
 40
0.000350766
 40
0.0004629182
 40
0.0007361972
 40
0.00107713
 40
0.0014871617
 40
0.0019670922
 40
0.0025173986
 40
0.0038301623
 40
0.0054264967
 40
0.0073062185
 40
0.0094687629
 40
0.0146389989
 40
0.0209271832
 40
0.0283195226
 40
0.0367999917
 40
0.0463488592
 40
0.0569449942
 40
0.0685635477
 40
0.0811783319
 40
0.0947600523
 40
0.1092776068
 40
0.1246976465
 40
0.1409844077
 40
0.1760067517
 40
0.2140220423
 40
0.2546798842
 40
0.2976054903
 40
0.3424031854
 40
0.3886599366
 40
0.4359493052
 40
0.4838353209
 40
0.5318764117
 40
0.5796297201
 40
0.6266548439
 40
0.6725182901
 40
0.7167971936
 40
0.7590833558
 40
0.7989870168
 40
0.8361403695
 40
0.8702010383
 40
0.9008552814
 40
0.9278208141
 40
0.9398413368
 40
0.9508497901
 40
0.9608205511
 40
0.969731067
 40
0.9775611238
 40
0.9842929405
 40
0.9899121844
 40
0.9923005829
 40
0.9944067566
 40
0.9962299758
 40
0.9977697304
 40
0.9990259739
 40
1.0
 40
1.0
 40
1.0
 40
1.0
 10
5.5023506554
 20
5.060775952
 30
0.0
 10
5.5023506554
 20
5.0607226375
 30
0.0
 10
5.5022869312
 20
5.0606595629
 30
0.0
 10
5.5022066605
 20
5.060609203
 30
0.0
 10
5.5021163836
 20
5.0605620452
 30
0.0
 10
5.5019749742
 20
5.0605056215
 30
0.0
 10
5.5017699063
 20
5.0604407608
 30
0.0
 10
5.5015199989
 20
5.0603758184
 30
0.0
 10
5.501224975
 20
5.0603105907
 30
0.0
 10
5.5007423202
 20
5.0602179355
 30
0.0
 10
5.5000254132
 20
5.0601049361
 30
0.0
 10
5.4990293491
 20
5.0599751945
 30
0.0
 10
5.4978538265
 20
5.0598449827
 30
0.0
 10
5.4959304376
 20
5.0596596726
 30
0.0
 10
5.4930823001
 20
5.0594339716
 30
0.0
 10
5.4891369526
 20
5.0591746833
 30
0.0
 10
5.4844960902
 20
5.0589144433
 30
0.0
 10
5.4791704543
 20
5.0586534421
 30
0.0
 10
5.4731721598
 20
5.0583919432
 30
0.0
 10
5.4665151341
 20
5.0581301149
 30
0.0
 10
5.4592146169
 20
5.0578680109
 30
0.0
 10
5.4512875338
 20
5.05760573
 30
0.0
 10
5.4427521059
 20
5.0573432923
 30
0.0
 10
5.4336280423
 20
5.0570807417
 30
0.0
 10
5.4239364002
 20
5.0568180942
 30
0.0
 10
5.409945087
 20
5.0564590453
 30
0.0
 10
5.3912152707
 20
5.0560137454
 30
0.0
 10
5.3673742603
 20
5.0554908095
 30
0.0
 10
5.3418752415
 20
5.0549674269
 30
0.0
 10
5.3149533923
 20
5.0544436946
 30
0.0
 10
5.2868570088
 20
5.0539197205
 30
0.0
 10
5.2578452104
 20
5.0533955752
 30
0.0
 10
5.2281855602
 20
5.0528713187
 30
0.0
 10
5.1981516025
 20
5.052347001
 30
0.0
 10
5.1680203225
 20
5.0518226678
 30
0.0
 10
5.1380696348
 20
5.0512983638
 30
0.0
 10
5.1085757602
 20
5.0507741351
 30
0.0
 10
5.0798107297
 20
5.0502500343
 30
0.0
 10
5.0520398254
 20
5.0497261245
 30
0.0
 10
5.0255191651
 20
5.0492024841
 30
0.0
 10
5.000493331
 20
5.0486792233
 30
0.0
 10
4.9771931193
 20
5.0481564784
 30
0.0
 10
4.9558334053
 20
5.0476345105
 30
0.0
 10
4.9366111838
 20
5.0471135251
 30
0.0
 10
4.9220114997
 20
5.0466653502
 30
0.0
 10
4.9115318375
 20
5.0463016778
 30
0.0
 10
4.9046153463
 20
5.046039718
 30
0.0
 10
4.8983516514
 20
5.0457780782
 30
0.0
 10
4.8927552256
 20
5.0455168475
 30
0.0
 10
4.8878389279
 20
5.0452562879
 30
0.0
 10
4.8836140244
 20
5.0449965018
 30
0.0
 10
4.8805306461
 20
5.0447709118
 30
0.0
 10
4.8784173568
 20
5.0445864123
 30
0.0
 10
4.8770986508
 20
5.0444559012
 30
0.0
 10
4.8759589005
 20
5.0443257631
 30
0.0
 10
4.8749986251
 20
5.0441962567
 30
0.0
 10
4.8742183642
 20
5.0440675295
 30
0.0
 10
4.8737602517
 20
5.0439709749
 30
0.0
 10
4.8735624944
 20
5.0439197085
 30
0.0
  0
SPLINE
  5
403
100
AcDbEntity
  8
0
100
AcDbSpline
 62
7
  6
CONTINUOUS
 70
0
 71
3
 72
63
 73
59
 74
0
 42
0.0000001
 43
0.0000001
 44
0.0000000001
 40
0.0
 40
0.0
 40
0.0
 40
0.0
 40
0.000254191
 40
0.000350766
 40
0.0004629182
 40
0.0007361972
 40
0.00107713
 40
0.0014871617
 40
0.0019670922
 40
0.0025173986
 40
0.0038301623
 40
0.0054264967
 40
0.0073062185
 40
0.0094687629
 40
0.0146389989
 40
0.0209271832
 40
0.0283195226
 40
0.0367999917
 40
0.0463488592
 40
0.0569449942
 40
0.0685635477
 40
0.0811783319
 40
0.0947600523
 40
0.1092776068
 40
0.1246976465
 40
0.1409844077
 40
0.1760067517
 40
0.2140220423
 40
0.2546798842
 40
0.2976054903
 40
0.3424031854
 40
0.3886599366
 40
0.4359493051
 40
0.4838353209
 40
0.5318764117
 40
0.5796297201
 40
0.6266548439
 40
0.6725182901
 40
0.7167971936
 40
0.7590833558
 40
0.7989870168
 40
0.8361403695
 40
0.8702010383
 40
0.9008552814
 40
0.9278208141
 40
0.9398413368
 40
0.9508497901
 40
0.9608205511
 40
0.969731067
 40
0.9775611238
 40
0.9842929405
 40
0.9899121844
 40
0.9923005829
 40
0.9944067566
 40
0.9962299758
 40
0.9977697304
 40
0.9990259739
 40
1.0
 40
1.0
 40
1.0
 40
1.0
 10
5.5023506554
 20
5.095225952
 30
0.0
 10
5.5023506554
 20
5.0951726375
 30
0.0
 10
5.5022869312
 20
5.0951095629
 30
0.0
 10
5.5022066605
 20
5.095059203
 30
0.0
 10
5.5021163836
 20
5.0950120452
 30
0.0
 10
5.5019749742
 20
5.0949556215
 30
0.0
 10
5.5017699063
 20
5.0948907608
 30
0.0
 10
5.5015199989
 20
5.0948258184
 30
0.0
 10
5.501224975
 20
5.0947605907
 30
0.0
 10
5.5007423202
 20
5.0946679355
 30
0.0
 10
5.5000254132
 20
5.0945549361
 30
0.0
 10
5.4990293491
 20
5.0944251945
 30
0.0
 10
5.4978538265
 20
5.0942949827
 30
0.0
 10
5.4959304376
 20
5.0941096726
 30
0.0
 10
5.4930823001
 20
5.0938839716
 30
0.0
 10
5.4891369526
 20
5.0936246833
 30
0.0
 10
5.4844960902
 20
5.0933644433
 30
0.0
 10
5.4791704543
 20
5.0931034421
 30
0.0
 10
5.4731721598
 20
5.0928419432
 30
0.0
 10
5.4665151341
 20
5.0925801149
 30
0.0
 10
5.4592146169
 20
5.0923180109
 30
0.0
 10
5.4512875338
 20
5.09205573
 30
0.0
 10
5.4427521059
 20
5.0917932923
 30
0.0
 10
5.4336280423
 20
5.0915307417
 30
0.0
 10
5.4239364002
 20
5.0912680942
 30
0.0
 10
5.409945087
 20
5.0909090453
 30
0.0
 10
5.3912152707
 20
5.0904637454
 30
0.0
 10
5.3673742603
 20
5.0899408095
 30
0.0
 10
5.3418752415
 20
5.0894174269
 30
0.0
 10
5.3149533923
 20
5.0888936946
 30
0.0
 10
5.2868570088
 20
5.0883697205
 30
0.0
 10
5.2578452104
 20
5.0878455752
 30
0.0
 10
5.2281855602
 20
5.0873213187
 30
0.0
 10
5.1981516025
 20
5.086797001
 30
0.0
 10
5.1680203225
 20
5.0862726678
 30
0.0
 10
5.1380696348
 20
5.0857483638
 30
0.0
 10
5.1085757602
 20
5.0852241351
 30
0.0
 10
5.0798107297
 20
5.0847000343
 30
0.0
 10
5.0520398254
 20
5.0841761245
 30
0.0
 10
5.0255191651
 20
5.0836524841
 30
0.0
 10
5.000493331
 20
5.0831292233
 30
0.0
 10
4.9771931193
 20
5.0826064784
 30
0.0
 10
4.9558334053
 20
5.0820845105
 30
0.0
 10
4.9366111838
 20
5.0815635251
 30
0.0
 10
4.9220114997
 20
5.0811153502
 30
0.0
 10
4.9115318375
 20
5.0807516778
 30
0.0
 10
4.9046153463
 20
5.080489718
 30
0.0
 10
4.8983516514
 20
5.0802280782
 30
0.0
 10
4.8927552256
 20
5.0799668475
 30
0.0
 10
4.8878389279
 20
5.0797062879
 30
0.0
 10
4.8836140244
 20
5.0794465018
 30
0.0
 10
4.8805306461
 20
5.0792209118
 30
0.0
 10
4.8784173568
 20
5.0790364123
 30
0.0
 10
4.8770986508
 20
5.0789059012
 30
0.0
 10
4.8759589005
 20
5.0787757631
 30
0.0
 10
4.8749986251
 20
5.0786462567
 30
0.0
 10
4.8742183642
 20
5.0785175295
 30
0.0
 10
4.8737602517
 20
5.0784209749
 30
0.0
 10
4.8735624944
 20
5.0783697085
 30
0.0
  0
SPLINE
  5
404
100
AcDbEntity
  8
0
100
AcDbSpline
 62
7
  6
CONTINUOUS
 70
0
 71
3
 72
63
 73
59
 74
0
 42
0.0000001
 43
0.0000001
 44
0.0000000001
 40
0.0
 40
0.0
 40
0.0
 40
0.0
 40
0.000254191
 40
0.000350766
 40
0.0004629182
 40
0.0007361972
 40
0.00107713
 40
0.0014871617
 40
0.0019670922
 40
0.0025173986
 40
0.0038301623
 40
0.0054264967
 40
0.0073062185
 40
0.0094687629
 40
0.0146389989
 40
0.0209271832
 40
0.0283195226
 40
0.0367999917
 40
0.0463488592
 40
0.0569449942
 40
0.0685635477
 40
0.0811783319
 40
0.0947600523
 40
0.1092776068
 40
0.1246976465
 40
0.1409844077
 40
0.1760067517
 40
0.2140220423
 40
0.2546798842
 40
0.2976054903
 40
0.3424031854
 40
0.3886599366
 40
0.4359493052
 40
0.4838353209
 40
0.5318764117
 40
0.5796297201
 40
0.6266548439
 40
0.6725182901
 40
0.7167971936
 40
0.7590833558
 40
0.7989870168
 40
0.8361403695
 40
0.8702010383
 40
0.9008552814
 40
0.9278208141
 40
0.9398413368
 40
0.9508497901
 40
0.9608205511
 40
0.969731067
 40
0.9775611238
 40
0.9842929405
 40
0.9899121844
 40
0.9923005829
 40
0.9944067566
 40
0.9962299758
 40
0.9977697304
 40
0.9990259739
 40
1.0
 40
1.0
 40
1.0
 40
1.0
 10
5.5023506554
 20
5.129675952
 30
0.0
 10
5.5023506554
 20
5.1296226375
 30
0.0
 10
5.5022869312
 20
5.1295595629
 30
0.0
 10
5.5022066605
 20
5.129509203
 30
0.0
 10
5.5021163836
 20
5.1294620452
 30
0.0
 10
5.5019749742
 20
5.1294056215
 30
0.0
 10
5.5017699063
 20
5.1293407608
 30
0.0
 10
5.5015199989
 20
5.1292758184
 30
0.0
 10
5.501224975
 20
5.1292105907
 30
0.0
 10
5.5007423202
 20
5.1291179355
 30
0.0
 10
5.5000254132
 20
5.1290049361
 30
0.0
 10
5.4990293491
 20
5.1288751945
 30
0.0
 10
5.4978538265
 20
5.1287449827
 30
0.0
 10
5.4959304376
 20
5.1285596726
 30
0.0
 10
5.4930823001
 20
5.1283339716
 30
0.0
 10
5.4891369526
 20
5.1280746833
 30
0.0
 10
5.4844960902
 20
5.1278144433
 30
0.0
 10
5.4791704543
 20
5.1275534421
 30
0.0
 10
5.4731721598
 20
5.1272919432
 30
0.0
 10
5.4665151341
 20
5.1270301149
 30
0.0
 10
5.4592146169
 20
5.1267680109
 30
0.0
 10
5.4512875338
 20
5.12650573
 30
0.0
 10
5.4427521059
 20
5.1262432923
 30
0.0
 10
5.4336280423
 20
5.1259807417
 30
0.0
 10
5.4239364002
 20
5.1257180942
 30
0.0
 10
5.409945087
 20
5.1253590453
 30
0.0
 10
5.3912152707
 20
5.1249137454
 30
0.0
 10
5.3673742603
 20
5.1243908095
 30
0.0
 10
5.3418752415
 20
5.1238674269
 30
0.0
 10
5.3149533923
 20
5.1233436946
 30
0.0
 10
5.2868570088
 20
5.1228197205
 30
0.0
 10
5.2578452104
 20
5.1222955752
 30
0.0
 10
5.2281855602
 20
5.1217713187
 30
0.0
 10
5.1981516025
 20
5.121247001
 30
0.0
 10
5.1680203225
 20
5.1207226678
 30
0.0
 10
5.1380696348
 20
5.1201983638
 30
0.0
 10
5.1085757602
 20
5.1196741351
 30
0.0
 10
5.0798107297
 20
5.1191500343
 30
0.0
 10
5.0520398254
 20
5.1186261245
 30
0.0
 10
5.0255191651
 20
5.1181024841
 30
0.0
 10
5.000493331
 20
5.1175792233
 30
0.0
 10
4.9771931193
 20
5.1170564784
 30
0.0
 10
4.9558334053
 20
5.1165345105
 30
0.0
 10
4.9366111838
 20
5.1160135251
 30
0.0
 10
4.9220114997
 20
5.1155653502
 30
0.0
 10
4.9115318375
 20
5.1152016778
 30
0.0
 10
4.9046153463
 20
5.114939718
 30
0.0
 10
4.8983516514
 20
5.1146780782
 30
0.0
 10
4.8927552256
 20
5.1144168475
 30
0.0
 10
4.8878389279
 20
5.1141562879
 30
0.0
 10
4.8836140244
 20
5.1138965018
 30
0.0
 10
4.8805306461
 20
5.1136709118
 30
0.0
 10
4.8784173568
 20
5.1134864123
 30
0.0
 10
4.8770986508
 20
5.1133559012
 30
0.0
 10
4.8759589005
 20
5.1132257631
 30
0.0
 10
4.8749986251
 20
5.1130962567
 30
0.0
 10
4.8742183642
 20
5.1129675295
 30
0.0
 10
4.8737602517
 20
5.1128709749
 30
0.0
 10
4.8735624944
 20
5.1128197085
 30
0.0
  0
SPLINE
  5
405
100
AcDbEntity
  8
0
100
AcDbSpline
 62
7
  6
CONTINUOUS
 70
0
 71
3
 72
63
 73
59
 74
0
 42
0.0000001
 43
0.0000001
 44
0.0000000001
 40
0.0
 40
0.0
 40
0.0
 40
0.0
 40
0.0009741777
 40
0.0022304302
 40
0.0037699165
 40
0.0055928934
 40
0.0076991161
 40
0.010087637
 40
0.0157064772
 40
0.0224383666
 40
0.0302681998
 40
0.0391786073
 40
0.049149354
 40
0.0601575197
 40
0.0721781878
 40
0.0991435634
 40
0.1297975924
 40
0.1638580882
 40
0.2010113059
 40
0.2409148887
 40
0.2832010534
 40
0.3274799967
 40
0.3733434946
 40
0.4203686946
 40
0.4681220278
 40
0.5161632091
 40
0.5640493003
 40
0.6113387951
 40
0.6575956928
 40
0.7023935207
 40
0.7453192706
 40
0.7859772143
 40
0.8239925785
 40
0.8590150309
 40
0.8753019416
 40
0.8907219328
 40
0.9052396311
 40
0.9188213384
 40
0.9314362231
 40
0.9430547902
 40
0.9536509437
 40
0.9631998828
 40
0.9716803424
 40
0.9790727663
 40
0.9853609243
 40
0.9905312167
 40
0.9926937641
 40
0.9945734771
 40
0.9961698111
 40
0.9974825962
 40
0.9980329098
 40
0.9985128437
 40
0.9989228757
 40
0.9992638069
 40
0.9995370834
 40
0.9996492344
 40
0.9997458083
 40
1.0
 40
1.0
 40
1.0
 40
1.0
 10
5.5016390379
 20
4.6363329311
 30
0.0
 10
5.5014412459
 20
4.6362816715
 30
0.0
 10
5.5009830918
 20
4.6361851511
 30
0.0
 10
5.5002028515
 20
4.6360564411
 30
0.0
 10
5.4992426835
 20
4.6359269229
 30
0.0
 10
5.4981030314
 20
4.6357967746
 30
0.0
 10
5.4967843394
 20
4.6356662667
 30
0.0
 10
5.4946710977
 20
4.6354817746
 30
0.0
 10
5.4915877649
 20
4.6352561479
 30
0.0
 10
5.4873629742
 20
4.6349963957
 30
0.0
 10
5.4824467301
 20
4.6347358213
 30
0.0
 10
5.4768503749
 20
4.6344745926
 30
0.0
 10
5.4705867639
 20
4.6342129571
 30
0.0
 10
5.4636703035
 20
4.6339509857
 30
0.0
 10
5.4531907
 20
4.6335873271
 30
0.0
 10
5.4385910586
 20
4.6331391414
 30
0.0
 10
5.4193689445
 20
4.6326181576
 30
0.0
 10
5.3980093327
 20
4.6320961875
 30
0.0
 10
5.374709194
 20
4.6315734418
 30
0.0
 10
5.3496833955
 20
4.6310501798
 30
0.0
 10
5.3231627335
 20
4.6305265385
 30
0.0
 10
5.2953917998
 20
4.6300026277
 30
0.0
 10
5.2666267242
 20
4.6294785259
 30
0.0
 10
5.2371328074
 20
4.6289542962
 30
0.0
 10
5.207182069
 20
4.6284299908
 30
0.0
 10
5.1770507387
 20
4.6279056565
 30
0.0
 10
5.1470167092
 20
4.6273813377
 30
0.0
 10
5.1173569757
 20
4.6268570802
 30
0.0
 10
5.0883450822
 20
4.6263329338
 30
0.0
 10
5.0602486002
 20
4.6258089587
 30
0.0
 10
5.0333266623
 20
4.6252852254
 30
0.0
 10
5.0078275676
 20
4.6247618415
 30
0.0
 10
4.9839864894
 20
4.624238905
 30
0.0
 10
4.9652565972
 20
4.623793601
 30
0.0
 10
4.9512652352
 20
4.6234345564
 30
0.0
 10
4.9415735384
 20
4.6231719034
 30
0.0
 10
4.9324494543
 20
4.6229093572
 30
0.0
 10
4.9239139751
 20
4.6226469145
 30
0.0
 10
4.915986868
 20
4.6223846361
 30
0.0
 10
4.9086863205
 20
4.6221225306
 30
0.0
 10
4.9020292707
 20
4.6218607005
 30
0.0
 10
4.8960309571
 20
4.6215992041
 30
0.0
 10
4.8907052889
 20
4.6213381975
 30
0.0
 10
4.8860644142
 20
4.6210779637
 30
0.0
 10
4.8821190417
 20
4.6208186684
 30
0.0
 10
4.8792708961
 20
4.6205929696
 30
0.0
 10
4.877347496
 20
4.6204076582
 30
0.0
 10
4.8761719744
 20
4.6202774462
 30
0.0
 10
4.8751759074
 20
4.6201477039
 30
0.0
 10
4.8744589937
 20
4.6200347075
 30
0.0
 10
4.8739763318
 20
4.619942053
 30
0.0
 10
4.8736813054
 20
4.6198768254
 30
0.0
 10
4.8734313975
 20
4.6198118829
 30
0.0
 10
4.8732263304
 20
4.6197470219
 30
0.0
 10
4.8730849223
 20
4.6196905978
 30
0.0
 10
4.8729946468
 20
4.6196434394
 30
0.0
 10
4.8729143769
 20
4.6195930785
 30
0.0
 10
4.8728506554
 20
4.6195300025
 30
0.0
 10
4.8728506554
 20
4.6194766877
 30
0.0
  0
SPLINE
  5
406
100
AcDbEntity
  8
0
100
AcDbSpline
 62
7
  6
CONTINUOUS
 70
0
 71
3
 72
63
 73
59
 74
0
 42
0.0000001
 43
0.0000001
 44
0.0000000001
 40
0.0
 40
0.0
 40
0.0
 40
0.0
 40
0.0010297641
 40
0.0023404595
 40
0.0039332286
 40
0.0058083473
 40
0.0079655465
 40
0.0104038327
 40
0.0161185695
 40
0.0229415382
 40
0.030857571
 40
0.0398490235
 40
0.0498958498
 40
0.0609747173
 40
0.073060978
 40
0.1001413587
 40
0.130888903
 40
0.1650215365
 40
0.2022258659
 40
0.2421600508
 40
0.2844571644
 40
0.3287284388
 40
0.374567035
 40
0.4215516714
 40
0.4692504278
 40
0.5172249653
 40
0.5650341451
 40
0.6122386201
 40
0.6584044454
 40
0.7031073234
 40
0.7459364485
 40
0.7864981198
 40
0.8244196582
 40
0.85935259
 40
0.8909761781
 40
0.9054551548
 40
0.9190002345
 40
0.9315809472
 40
0.9431678651
 40
0.9537350609
 40
0.9632581039
 40
0.971715487
 40
0.9790884066
 40
0.9853600968
 40
0.9905179006
 40
0.9926756215
 40
0.9945513848
 40
0.9961449201
 40
0.9974563715
 40
0.9980066209
 40
0.9984868682
 40
0.9988976268
 40
0.9992398295
 40
0.9995151309
 40
0.9997267779
 40
0.9998109222
 40
0.9998826265
 40
1.0
 40
1.0
 40
1.0
 40
1.0
 10
5.4812402145
 20
4.6310446592
 30
0.0
 10
5.4810446713
 20
4.6309939645
 30
0.0
 10
5.4805953597
 20
4.6308978589
 30
0.0
 10
5.4798345185
 20
4.6307691081
 30
0.0
 10
5.4789059793
 20
4.6306396248
 30
0.0
 10
5.4778101553
 20
4.6305095847
 30
0.0
 10
5.4765474969
 20
4.6303792125
 30
0.0
 10
5.474533308
 20
4.630195184
 30
0.0
 10
5.4716039993
 20
4.6299699273
 30
0.0
 10
5.467599958
 20
4.6297104551
 30
0.0
 10
5.4629520145
 20
4.6294501993
 30
0.0
 10
5.4576708311
 20
4.6291893079
 30
0.0
 10
5.4517685446
 20
4.6289280372
 30
0.0
 10
5.4452586339
 20
4.6286664282
 30
0.0
 10
5.435408702
 20
4.6283034474
 30
0.0
 10
5.421700962
 20
4.6278559883
 30
0.0
 10
5.4036686428
 20
4.6273357246
 30
0.0
 10
5.3836496067
 20
4.6268144925
 30
0.0
 10
5.3618279049
 20
4.6262925012
 30
0.0
 10
5.338404175
 20
4.6257700024
 30
0.0
 10
5.3135938161
 20
4.6252471305
 30
0.0
 10
5.2876249571
 20
4.6247239934
 30
0.0
 10
5.260736377
 20
4.6242006686
 30
0.0
 10
5.2331753108
 20
4.6236772183
 30
0.0
 10
5.2051951667
 20
4.6231536943
 30
0.0
 10
5.1770532455
 20
4.622630143
 30
0.0
 10
5.1490083034
 20
4.6221066078
 30
0.0
 10
5.1213182352
 20
4.6215831345
 30
0.0
 10
5.0942376352
 20
4.621059773
 30
0.0
 10
5.0680155034
 20
4.6205365819
 30
0.0
 10
5.0428929535
 20
4.6200136364
 30
0.0
 10
5.0191009856
 20
4.6194910279
 30
0.0
 10
4.9968583881
 20
4.6189689075
 30
0.0
 10
4.9763696688
 20
4.6184474104
 30
0.0
 10
4.9604792541
 20
4.6180015467
 30
0.0
 10
4.9487837838
 20
4.6176413264
 30
0.0
 10
4.9408226981
 20
4.6173792687
 30
0.0
 10
4.9334292668
 20
4.617117388
 30
0.0
 10
4.9266203914
 20
4.6168556777
 30
0.0
 10
4.9204118057
 20
4.6165942356
 30
0.0
 10
4.9148177164
 20
4.6163331413
 30
0.0
 10
4.9098509814
 20
4.6160725083
 30
0.0
 10
4.9055229883
 20
4.6158126863
 30
0.0
 10
4.9018435766
 20
4.6155537564
 30
0.0
 10
4.8991875445
 20
4.6153283973
 30
0.0
 10
4.8973939706
 20
4.6151433696
 30
0.0
 10
4.896297746
 20
4.6150133375
 30
0.0
 10
4.8953688391
 20
4.6148837691
 30
0.0
 10
4.8947002976
 20
4.6147709556
 30
0.0
 10
4.8942502366
 20
4.6146784724
 30
0.0
 10
4.8939750455
 20
4.6146133652
 30
0.0
 10
4.8937419325
 20
4.6145484443
 30
0.0
 10
4.8935506639
 20
4.6144838125
 30
0.0
 10
4.8934011353
 20
4.6144194284
 30
0.0
 10
4.8933038752
 20
4.6143624995
 30
0.0
 10
4.8932492149
 20
4.6143149975
 30
0.0
 10
4.8932147579
 20
4.614273959
 30
0.0
 10
4.8932007566
 20
4.614236845
 30
0.0
 10
4.8932007457
 20
4.6142138199
 30
0.0
  0
SPLINE
  5
407
100
AcDbEntity
  8
0
100
AcDbSpline
 62
7
  6
CONTINUOUS
 70
0
 71
3
 72
63
 73
59
 74
0
 42
0.0000001
 43
0.0000001
 44
0.0000000001
 40
0.0
 40
0.0
 40
0.0
 40
0.0
 40
0.000254191
 40
0.000350766
 40
0.0004629182
 40
0.0007361972
 40
0.00107713
 40
0.0014871617
 40
0.0019670922
 40
0.0025173986
 40
0.0038301623
 40
0.0054264967
 40
0.0073062185
 40
0.0094687629
 40
0.0146389989
 40
0.0209271832
 40
0.0283195226
 40
0.0367999917
 40
0.0463488592
 40
0.0569449942
 40
0.0685635477
 40
0.0811783319
 40
0.0947600523
 40
0.1092776068
 40
0.1246976465
 40
0.1409844077
 40
0.1760067517
 40
0.2140220423
 40
0.2546798842
 40
0.2976054903
 40
0.3424031854
 40
0.3886599366
 40
0.4359493051
 40
0.4838353209
 40
0.5318764117
 40
0.5796297201
 40
0.6266548439
 40
0.6725182901
 40
0.7167971936
 40
0.7590833558
 40
0.7989870168
 40
0.8361403695
 40
0.8702010383
 40
0.9008552814
 40
0.9278208141
 40
0.9398413368
 40
0.9508497901
 40
0.9608205511
 40
0.969731067
 40
0.9775611238
 40
0.9842929405
 40
0.9899121844
 40
0.9923005829
 40
0.9944067566
 40
0.9962299758
 40
0.9977697304
 40
0.9990259739
 40
1.0
 40
1.0
 40
1.0
 40
1.0
 10
5.5023506554
 20
5.164125952
 30
0.0
 10
5.5023506554
 20
5.1640726375
 30
0.0
 10
5.5022869312
 20
5.1640095629
 30
0.0
 10
5.5022066605
 20
5.163959203
 30
0.0
 10
5.5021163836
 20
5.1639120452
 30
0.0
 10
5.5019749742
 20
5.1638556215
 30
0.0
 10
5.5017699063
 20
5.1637907608
 30
0.0
 10
5.5015199989
 20
5.1637258184
 30
0.0
 10
5.501224975
 20
5.1636605907
 30
0.0
 10
5.5007423202
 20
5.1635679355
 30
0.0
 10
5.5000254132
 20
5.1634549361
 30
0.0
 10
5.4990293491
 20
5.1633251945
 30
0.0
 10
5.4978538265
 20
5.1631949827
 30
0.0
 10
5.4959304376
 20
5.1630096726
 30
0.0
 10
5.4930823001
 20
5.1627839716
 30
0.0
 10
5.4891369526
 20
5.1625246833
 30
0.0
 10
5.4844960902
 20
5.1622644433
 30
0.0
 10
5.4791704543
 20
5.1620034421
 30
0.0
 10
5.4731721598
 20
5.1617419432
 30
0.0
 10
5.4665151341
 20
5.1614801149
 30
0.0
 10
5.4592146169
 20
5.1612180109
 30
0.0
 10
5.4512875338
 20
5.16095573
 30
0.0
 10
5.4427521059
 20
5.1606932923
 30
0.0
 10
5.4336280423
 20
5.1604307417
 30
0.0
 10
5.4239364002
 20
5.1601680942
 30
0.0
 10
5.409945087
 20
5.1598090453
 30
0.0
 10
5.3912152707
 20
5.1593637454
 30
0.0
 10
5.3673742603
 20
5.1588408095
 30
0.0
 10
5.3418752415
 20
5.1583174269
 30
0.0
 10
5.3149533923
 20
5.1577936946
 30
0.0
 10
5.2868570088
 20
5.1572697205
 30
0.0
 10
5.2578452104
 20
5.1567455752
 30
0.0
 10
5.2281855602
 20
5.1562213187
 30
0.0
 10
5.1981516025
 20
5.155697001
 30
0.0
 10
5.1680203225
 20
5.1551726678
 30
0.0
 10
5.1380696348
 20
5.1546483638
 30
0.0
 10
5.1085757602
 20
5.1541241351
 30
0.0
 10
5.0798107297
 20
5.1536000343
 30
0.0
 10
5.0520398254
 20
5.1530761245
 30
0.0
 10
5.0255191651
 20
5.1525524841
 30
0.0
 10
5.000493331
 20
5.1520292233
 30
0.0
 10
4.9771931193
 20
5.1515064784
 30
0.0
 10
4.9558334053
 20
5.1509845105
 30
0.0
 10
4.9366111838
 20
5.1504635251
 30
0.0
 10
4.9220114997
 20
5.1500153502
 30
0.0
 10
4.9115318375
 20
5.1496516778
 30
0.0
 10
4.9046153463
 20
5.149389718
 30
0.0
 10
4.8983516514
 20
5.1491280782
 30
0.0
 10
4.8927552256
 20
5.1488668475
 30
0.0
 10
4.8878389279
 20
5.1486062879
 30
0.0
 10
4.8836140244
 20
5.1483465018
 30
0.0
 10
4.8805306461
 20
5.1481209118
 30
0.0
 10
4.8784173568
 20
5.1479364123
 30
0.0
 10
4.8770986508
 20
5.1478059012
 30
0.0
 10
4.8759589005
 20
5.1476757631
 30
0.0
 10
4.8749986251
 20
5.1475462567
 30
0.0
 10
4.8742183642
 20
5.1474175295
 30
0.0
 10
4.8737602517
 20
5.1473209749
 30
0.0
 10
4.8735624944
 20
5.1472697085
 30
0.0
  0
SPLINE
  5
408
100
AcDbEntity
  8
0
100
AcDbSpline
 62
7
  6
CONTINUOUS
 70
0
 71
3
 72
63
 73
59
 74
0
 42
0.0000001
 43
0.0000001
 44
0.0000000001
 40
0.0
 40
0.0
 40
0.0
 40
0.0
 40
0.000254191
 40
0.000350766
 40
0.0004629182
 40
0.0007361972
 40
0.00107713
 40
0.0014871617
 40
0.0019670922
 40
0.0025173986
 40
0.0038301623
 40
0.0054264967
 40
0.0073062185
 40
0.0094687629
 40
0.0146389989
 40
0.0209271832
 40
0.0283195226
 40
0.0367999917
 40
0.0463488592
 40
0.0569449942
 40
0.0685635477
 40
0.0811783319
 40
0.0947600523
 40
0.1092776068
 40
0.1246976465
 40
0.1409844077
 40
0.1760067517
 40
0.2140220423
 40
0.2546798842
 40
0.2976054903
 40
0.3424031854
 40
0.3886599366
 40
0.4359493051
 40
0.4838353209
 40
0.5318764117
 40
0.5796297201
 40
0.6266548439
 40
0.6725182901
 40
0.7167971936
 40
0.7590833558
 40
0.7989870168
 40
0.8361403695
 40
0.8702010383
 40
0.9008552814
 40
0.9278208141
 40
0.9398413368
 40
0.9508497901
 40
0.9608205511
 40
0.969731067
 40
0.9775611238
 40
0.9842929405
 40
0.9899121844
 40
0.9923005829
 40
0.9944067566
 40
0.9962299758
 40
0.9977697304
 40
0.9990259739
 40
1.0
 40
1.0
 40
1.0
 40
1.0
 10
5.5023506554
 20
5.198575952
 30
0.0
 10
5.5023506554
 20
5.1985226375
 30
0.0
 10
5.5022869312
 20
5.1984595629
 30
0.0
 10
5.5022066605
 20
5.198409203
 30
0.0
 10
5.5021163836
 20
5.1983620452
 30
0.0
 10
5.5019749742
 20
5.1983056215
 30
0.0
 10
5.5017699063
 20
5.1982407608
 30
0.0
 10
5.5015199989
 20
5.1981758184
 30
0.0
 10
5.501224975
 20
5.1981105907
 30
0.0
 10
5.5007423202
 20
5.1980179355
 30
0.0
 10
5.5000254132
 20
5.1979049361
 30
0.0
 10
5.4990293491
 20
5.1977751945
 30
0.0
 10
5.4978538265
 20
5.1976449827
 30
0.0
 10
5.4959304376
 20
5.1974596726
 30
0.0
 10
5.4930823001
 20
5.1972339716
 30
0.0
 10
5.4891369526
 20
5.1969746833
 30
0.0
 10
5.4844960902
 20
5.1967144433
 30
0.0
 10
5.4791704543
 20
5.1964534421
 30
0.0
 10
5.4731721598
 20
5.1961919432
 30
0.0
 10
5.4665151341
 20
5.1959301149
 30
0.0
 10
5.4592146169
 20
5.1956680109
 30
0.0
 10
5.4512875338
 20
5.19540573
 30
0.0
 10
5.4427521059
 20
5.1951432923
 30
0.0
 10
5.4336280423
 20
5.1948807417
 30
0.0
 10
5.4239364002
 20
5.1946180942
 30
0.0
 10
5.409945087
 20
5.1942590453
 30
0.0
 10
5.3912152707
 20
5.1938137454
 30
0.0
 10
5.3673742603
 20
5.1932908095
 30
0.0
 10
5.3418752415
 20
5.1927674269
 30
0.0
 10
5.3149533923
 20
5.1922436946
 30
0.0
 10
5.2868570088
 20
5.1917197205
 30
0.0
 10
5.2578452104
 20
5.1911955752
 30
0.0
 10
5.2281855602
 20
5.1906713187
 30
0.0
 10
5.1981516025
 20
5.190147001
 30
0.0
 10
5.1680203225
 20
5.1896226678
 30
0.0
 10
5.1380696348
 20
5.1890983638
 30
0.0
 10
5.1085757602
 20
5.1885741351
 30
0.0
 10
5.0798107297
 20
5.1880500343
 30
0.0
 10
5.0520398254
 20
5.1875261245
 30
0.0
 10
5.0255191651
 20
5.1870024841
 30
0.0
 10
5.000493331
 20
5.1864792233
 30
0.0
 10
4.9771931193
 20
5.1859564784
 30
0.0
 10
4.9558334053
 20
5.1854345105
 30
0.0
 10
4.9366111838
 20
5.1849135251
 30
0.0
 10
4.9220114997
 20
5.1844653502
 30
0.0
 10
4.9115318375
 20
5.1841016778
 30
0.0
 10
4.9046153463
 20
5.183839718
 30
0.0
 10
4.8983516514
 20
5.1835780782
 30
0.0
 10
4.8927552256
 20
5.1833168475
 30
0.0
 10
4.8878389279
 20
5.1830562879
 30
0.0
 10
4.8836140244
 20
5.1827965018
 30
0.0
 10
4.8805306461
 20
5.1825709118
 30
0.0
 10
4.8784173568
 20
5.1823864123
 30
0.0
 10
4.8770986508
 20
5.1822559012
 30
0.0
 10
4.8759589005
 20
5.1821257631
 30
0.0
 10
4.8749986251
 20
5.1819962567
 30
0.0
 10
4.8742183642
 20
5.1818675295
 30
0.0
 10
4.8737602517
 20
5.1817709749
 30
0.0
 10
4.8735624944
 20
5.1817197085
 30
0.0
  0
SPLINE
  5
409
100
AcDbEntity
  8
0
100
AcDbSpline
 62
7
  6
CONTINUOUS
 70
0
 71
3
 72
63
 73
59
 74
0
 42
0.0000001
 43
0.0000001
 44
0.0000000001
 40
0.0
 40
0.0
 40
0.0
 40
0.0
 40
0.000254191
 40
0.000350766
 40
0.0004629182
 40
0.0007361972
 40
0.00107713
 40
0.0014871617
 40
0.0019670922
 40
0.0025173986
 40
0.0038301623
 40
0.0054264967
 40
0.0073062185
 40
0.0094687629
 40
0.0146389989
 40
0.0209271832
 40
0.0283195226
 40
0.0367999917
 40
0.0463488592
 40
0.0569449942
 40
0.0685635477
 40
0.0811783319
 40
0.0947600523
 40
0.1092776068
 40
0.1246976465
 40
0.1409844077
 40
0.1760067517
 40
0.2140220423
 40
0.2546798842
 40
0.2976054903
 40
0.3424031854
 40
0.3886599366
 40
0.4359493051
 40
0.4838353209
 40
0.5318764117
 40
0.5796297201
 40
0.6266548439
 40
0.6725182901
 40
0.7167971936
 40
0.7590833558
 40
0.7989870168
 40
0.8361403695
 40
0.8702010383
 40
0.9008552814
 40
0.9278208141
 40
0.9398413368
 40
0.9508497901
 40
0.9608205511
 40
0.969731067
 40
0.9775611238
 40
0.9842929405
 40
0.9899121844
 40
0.9923005829
 40
0.9944067566
 40
0.9962299758
 40
0.9977697304
 40
0.9990259739
 40
1.0
 40
1.0
 40
1.0
 40
1.0
 10
5.5023506554
 20
5.233025952
 30
0.0
 10
5.5023506554
 20
5.2329726375
 30
0.0
 10
5.5022869312
 20
5.2329095629
 30
0.0
 10
5.5022066605
 20
5.232859203
 30
0.0
 10
5.5021163836
 20
5.2328120452
 30
0.0
 10
5.5019749742
 20
5.2327556215
 30
0.0
 10
5.5017699063
 20
5.2326907608
 30
0.0
 10
5.5015199989
 20
5.2326258184
 30
0.0
 10
5.501224975
 20
5.2325605907
 30
0.0
 10
5.5007423202
 20
5.2324679355
 30
0.0
 10
5.5000254132
 20
5.2323549361
 30
0.0
 10
5.4990293491
 20
5.2322251945
 30
0.0
 10
5.4978538265
 20
5.2320949827
 30
0.0
 10
5.4959304376
 20
5.2319096726
 30
0.0
 10
5.4930823001
 20
5.2316839716
 30
0.0
 10
5.4891369526
 20
5.2314246833
 30
0.0
 10
5.4844960902
 20
5.2311644433
 30
0.0
 10
5.4791704543
 20
5.2309034421
 30
0.0
 10
5.4731721598
 20
5.2306419432
 30
0.0
 10
5.4665151341
 20
5.2303801149
 30
0.0
 10
5.4592146169
 20
5.2301180109
 30
0.0
 10
5.4512875338
 20
5.22985573
 30
0.0
 10
5.4427521059
 20
5.2295932923
 30
0.0
 10
5.4336280423
 20
5.2293307417
 30
0.0
 10
5.4239364002
 20
5.2290680942
 30
0.0
 10
5.409945087
 20
5.2287090453
 30
0.0
 10
5.3912152707
 20
5.2282637454
 30
0.0
 10
5.3673742603
 20
5.2277408095
 30
0.0
 10
5.3418752415
 20
5.2272174269
 30
0.0
 10
5.3149533923
 20
5.2266936946
 30
0.0
 10
5.2868570088
 20
5.2261697205
 30
0.0
 10
5.2578452104
 20
5.2256455752
 30
0.0
 10
5.2281855602
 20
5.2251213187
 30
0.0
 10
5.1981516025
 20
5.224597001
 30
0.0
 10
5.1680203225
 20
5.2240726678
 30
0.0
 10
5.1380696348
 20
5.2235483638
 30
0.0
 10
5.1085757602
 20
5.2230241351
 30
0.0
 10
5.0798107297
 20
5.2225000343
 30
0.0
 10
5.0520398254
 20
5.2219761245
 30
0.0
 10
5.0255191651
 20
5.2214524841
 30
0.0
 10
5.000493331
 20
5.2209292233
 30
0.0
 10
4.9771931193
 20
5.2204064784
 30
0.0
 10
4.9558334053
 20
5.2198845105
 30
0.0
 10
4.9366111838
 20
5.2193635251
 30
0.0
 10
4.9220114997
 20
5.2189153502
 30
0.0
 10
4.9115318375
 20
5.2185516778
 30
0.0
 10
4.9046153463
 20
5.218289718
 30
0.0
 10
4.8983516514
 20
5.2180280782
 30
0.0
 10
4.8927552256
 20
5.2177668475
 30
0.0
 10
4.8878389279
 20
5.2175062879
 30
0.0
 10
4.8836140244
 20
5.2172465018
 30
0.0
 10
4.8805306461
 20
5.2170209118
 30
0.0
 10
4.8784173568
 20
5.2168364123
 30
0.0
 10
4.8770986508
 20
5.2167059012
 30
0.0
 10
4.8759589005
 20
5.2165757631
 30
0.0
 10
4.8749986251
 20
5.2164462567
 30
0.0
 10
4.8742183642
 20
5.2163175295
 30
0.0
 10
4.8737602517
 20
5.2162209749
 30
0.0
 10
4.8735624944
 20
5.2161697085
 30
0.0
  0
SPLINE
  5
40A
100
AcDbEntity
  8
0
100
AcDbSpline
 62
7
  6
CONTINUOUS
 70
0
 71
3
 72
63
 73
59
 74
0
 42
0.0000001
 43
0.0000001
 44
0.0000000001
 40
0.0
 40
0.0
 40
0.0
 40
0.0
 40
0.000254191
 40
0.000350766
 40
0.0004629182
 40
0.0007361972
 40
0.00107713
 40
0.0014871617
 40
0.0019670922
 40
0.0025173986
 40
0.0038301623
 40
0.0054264967
 40
0.0073062185
 40
0.0094687629
 40
0.0146389989
 40
0.0209271832
 40
0.0283195226
 40
0.0367999917
 40
0.0463488592
 40
0.0569449942
 40
0.0685635477
 40
0.0811783319
 40
0.0947600523
 40
0.1092776068
 40
0.1246976465
 40
0.1409844077
 40
0.1760067517
 40
0.2140220423
 40
0.2546798842
 40
0.2976054903
 40
0.3424031854
 40
0.3886599366
 40
0.4359493051
 40
0.4838353209
 40
0.5318764117
 40
0.5796297201
 40
0.6266548439
 40
0.6725182901
 40
0.7167971936
 40
0.7590833558
 40
0.7989870168
 40
0.8361403695
 40
0.8702010383
 40
0.9008552814
 40
0.9278208141
 40
0.9398413368
 40
0.9508497901
 40
0.9608205511
 40
0.969731067
 40
0.9775611238
 40
0.9842929405
 40
0.9899121844
 40
0.9923005829
 40
0.9944067566
 40
0.9962299758
 40
0.9977697304
 40
0.9990259739
 40
1.0
 40
1.0
 40
1.0
 40
1.0
 10
5.5023506554
 20
5.267475952
 30
0.0
 10
5.5023506554
 20
5.2674226375
 30
0.0
 10
5.5022869312
 20
5.2673595629
 30
0.0
 10
5.5022066605
 20
5.267309203
 30
0.0
 10
5.5021163836
 20
5.2672620452
 30
0.0
 10
5.5019749742
 20
5.2672056215
 30
0.0
 10
5.5017699063
 20
5.2671407608
 30
0.0
 10
5.5015199989
 20
5.2670758184
 30
0.0
 10
5.501224975
 20
5.2670105907
 30
0.0
 10
5.5007423202
 20
5.2669179355
 30
0.0
 10
5.5000254132
 20
5.2668049361
 30
0.0
 10
5.4990293491
 20
5.2666751945
 30
0.0
 10
5.4978538265
 20
5.2665449827
 30
0.0
 10
5.4959304376
 20
5.2663596726
 30
0.0
 10
5.4930823001
 20
5.2661339716
 30
0.0
 10
5.4891369526
 20
5.2658746833
 30
0.0
 10
5.4844960902
 20
5.2656144433
 30
0.0
 10
5.4791704543
 20
5.2653534421
 30
0.0
 10
5.4731721598
 20
5.2650919432
 30
0.0
 10
5.4665151341
 20
5.2648301149
 30
0.0
 10
5.4592146169
 20
5.2645680109
 30
0.0
 10
5.4512875338
 20
5.26430573
 30
0.0
 10
5.4427521059
 20
5.2640432923
 30
0.0
 10
5.4336280423
 20
5.2637807417
 30
0.0
 10
5.4239364002
 20
5.2635180942
 30
0.0
 10
5.409945087
 20
5.2631590453
 30
0.0
 10
5.3912152707
 20
5.2627137454
 30
0.0
 10
5.3673742603
 20
5.2621908095
 30
0.0
 10
5.3418752415
 20
5.2616674269
 30
0.0
 10
5.3149533923
 20
5.2611436946
 30
0.0
 10
5.2868570088
 20
5.2606197205
 30
0.0
 10
5.2578452104
 20
5.2600955752
 30
0.0
 10
5.2281855602
 20
5.2595713187
 30
0.0
 10
5.1981516025
 20
5.259047001
 30
0.0
 10
5.1680203225
 20
5.2585226678
 30
0.0
 10
5.1380696348
 20
5.2579983638
 30
0.0
 10
5.1085757602
 20
5.2574741351
 30
0.0
 10
5.0798107297
 20
5.2569500343
 30
0.0
 10
5.0520398254
 20
5.2564261245
 30
0.0
 10
5.0255191651
 20
5.2559024841
 30
0.0
 10
5.000493331
 20
5.2553792233
 30
0.0
 10
4.9771931193
 20
5.2548564784
 30
0.0
 10
4.9558334053
 20
5.2543345105
 30
0.0
 10
4.9366111838
 20
5.2538135251
 30
0.0
 10
4.9220114997
 20
5.2533653502
 30
0.0
 10
4.9115318375
 20
5.2530016778
 30
0.0
 10
4.9046153463
 20
5.252739718
 30
0.0
 10
4.8983516514
 20
5.2524780782
 30
0.0
 10
4.8927552256
 20
5.2522168475
 30
0.0
 10
4.8878389279
 20
5.2519562879
 30
0.0
 10
4.8836140244
 20
5.2516965018
 30
0.0
 10
4.8805306461
 20
5.2514709118
 30
0.0
 10
4.8784173568
 20
5.2512864123
 30
0.0
 10
4.8770986508
 20
5.2511559012
 30
0.0
 10
4.8759589005
 20
5.2510257631
 30
0.0
 10
4.8749986251
 20
5.2508962567
 30
0.0
 10
4.8742183642
 20
5.2507675295
 30
0.0
 10
4.8737602517
 20
5.2506709749
 30
0.0
 10
4.8735624944
 20
5.2506197085
 30
0.0
  0
SPLINE
  5
40B
100
AcDbEntity
  8
0
100
AcDbSpline
 62
7
  6
CONTINUOUS
 70
0
 71
3
 72
63
 73
59
 74
0
 42
0.0000001
 43
0.0000001
 44
0.0000000001
 40
0.0
 40
0.0
 40
0.0
 40
0.0
 40
0.000254191
 40
0.000350766
 40
0.0004629182
 40
0.0007361972
 40
0.00107713
 40
0.0014871617
 40
0.0019670922
 40
0.0025173986
 40
0.0038301623
 40
0.0054264967
 40
0.0073062185
 40
0.0094687629
 40
0.0146389989
 40
0.0209271832
 40
0.0283195226
 40
0.0367999917
 40
0.0463488592
 40
0.0569449942
 40
0.0685635477
 40
0.0811783319
 40
0.0947600523
 40
0.1092776068
 40
0.1246976465
 40
0.1409844077
 40
0.1760067517
 40
0.2140220423
 40
0.2546798842
 40
0.2976054903
 40
0.3424031854
 40
0.3886599366
 40
0.4359493051
 40
0.4838353209
 40
0.5318764117
 40
0.5796297201
 40
0.6266548439
 40
0.6725182901
 40
0.7167971936
 40
0.7590833558
 40
0.7989870168
 40
0.8361403695
 40
0.8702010383
 40
0.9008552814
 40
0.9278208141
 40
0.9398413368
 40
0.9508497901
 40
0.9608205511
 40
0.969731067
 40
0.9775611238
 40
0.9842929405
 40
0.9899121844
 40
0.9923005829
 40
0.9944067566
 40
0.9962299758
 40
0.9977697304
 40
0.9990259739
 40
1.0
 40
1.0
 40
1.0
 40
1.0
 10
5.5023506554
 20
5.301925952
 30
0.0
 10
5.5023506554
 20
5.3018726375
 30
0.0
 10
5.5022869312
 20
5.3018095629
 30
0.0
 10
5.5022066605
 20
5.301759203
 30
0.0
 10
5.5021163836
 20
5.3017120452
 30
0.0
 10
5.5019749742
 20
5.3016556215
 30
0.0
 10
5.5017699063
 20
5.3015907608
 30
0.0
 10
5.5015199989
 20
5.3015258184
 30
0.0
 10
5.501224975
 20
5.3014605907
 30
0.0
 10
5.5007423202
 20
5.3013679355
 30
0.0
 10
5.5000254132
 20
5.3012549361
 30
0.0
 10
5.4990293491
 20
5.3011251945
 30
0.0
 10
5.4978538265
 20
5.3009949827
 30
0.0
 10
5.4959304376
 20
5.3008096726
 30
0.0
 10
5.4930823001
 20
5.3005839716
 30
0.0
 10
5.4891369526
 20
5.3003246833
 30
0.0
 10
5.4844960902
 20
5.3000644433
 30
0.0
 10
5.4791704543
 20
5.2998034421
 30
0.0
 10
5.4731721598
 20
5.2995419432
 30
0.0
 10
5.4665151341
 20
5.2992801149
 30
0.0
 10
5.4592146169
 20
5.2990180109
 30
0.0
 10
5.4512875338
 20
5.29875573
 30
0.0
 10
5.4427521059
 20
5.2984932923
 30
0.0
 10
5.4336280423
 20
5.2982307417
 30
0.0
 10
5.4239364002
 20
5.2979680942
 30
0.0
 10
5.409945087
 20
5.2976090453
 30
0.0
 10
5.3912152707
 20
5.2971637454
 30
0.0
 10
5.3673742603
 20
5.2966408095
 30
0.0
 10
5.3418752415
 20
5.2961174269
 30
0.0
 10
5.3149533923
 20
5.2955936946
 30
0.0
 10
5.2868570088
 20
5.2950697205
 30
0.0
 10
5.2578452104
 20
5.2945455752
 30
0.0
 10
5.2281855602
 20
5.2940213187
 30
0.0
 10
5.1981516025
 20
5.293497001
 30
0.0
 10
5.1680203225
 20
5.2929726678
 30
0.0
 10
5.1380696348
 20
5.2924483638
 30
0.0
 10
5.1085757602
 20
5.2919241351
 30
0.0
 10
5.0798107297
 20
5.2914000343
 30
0.0
 10
5.0520398254
 20
5.2908761245
 30
0.0
 10
5.0255191651
 20
5.2903524841
 30
0.0
 10
5.000493331
 20
5.2898292233
 30
0.0
 10
4.9771931193
 20
5.2893064784
 30
0.0
 10
4.9558334053
 20
5.2887845105
 30
0.0
 10
4.9366111838
 20
5.2882635251
 30
0.0
 10
4.9220114997
 20
5.2878153502
 30
0.0
 10
4.9115318375
 20
5.2874516778
 30
0.0
 10
4.9046153463
 20
5.287189718
 30
0.0
 10
4.8983516514
 20
5.2869280782
 30
0.0
 10
4.8927552256
 20
5.2866668475
 30
0.0
 10
4.8878389279
 20
5.2864062879
 30
0.0
 10
4.8836140244
 20
5.2861465018
 30
0.0
 10
4.8805306461
 20
5.2859209118
 30
0.0
 10
4.8784173568
 20
5.2857364123
 30
0.0
 10
4.8770986508
 20
5.2856059012
 30
0.0
 10
4.8759589005
 20
5.2854757631
 30
0.0
 10
4.8749986251
 20
5.2853462567
 30
0.0
 10
4.8742183642
 20
5.2852175295
 30
0.0
 10
4.8737602517
 20
5.2851209749
 30
0.0
 10
4.8735624944
 20
5.2850697085
 30
0.0
  0
SPLINE
  5
40C
100
AcDbEntity
  8
0
100
AcDbSpline
 62
7
  6
CONTINUOUS
 70
0
 71
3
 72
25
 73
21
 74
0
 42
0.0000001
 43
0.0000001
 44
0.0000000001
 40
0.0
 40
0.0
 40
0.0
 40
0.0
 40
0.0624805428
 40
0.1249946975
 40
0.187480018
 40
0.2499756719
 40
0.2812488296
 40
0.3125214672
 40
0.3750140907
 40
0.4375071068
 40
0.4999999958
 40
0.5624928804
 40
0.6249859003
 40
0.6874785198
 40
0.7187511519
 40
0.7500243215
 40
0.8125200153
 40
0.8750050782
 40
0.9375192237
 40
1.0
 40
1.0
 40
1.0
 40
1.0
 10
5.0958818763
 20
3.114219229
 30
0.0
 10
5.0967152876
 20
3.113517385
 30
0.0
 10
5.0982718144
 20
3.1119755355
 30
0.0
 10
5.1002020448
 20
3.1093197403
 30
0.0
 10
5.1016773234
 20
3.106385828
 30
0.0
 10
5.1024943864
 20
3.1037725982
 30
0.0
 10
5.1028854388
 20
3.1016252589
 30
0.0
 10
5.1031000531
 20
3.099453249
 30
0.0
 10
5.1030324371
 20
3.0967158271
 30
0.0
 10
5.1024149194
 20
3.0934905952
 30
0.0
 10
5.1012768059
 20
3.0904098393
 30
0.0
 10
5.0996483755
 20
3.0875577218
 30
0.0
 10
5.0975746369
 20
3.0850115372
 30
0.0
 10
5.0955211133
 20
3.083200159
 30
0.0
 10
5.093719306
 20
3.0819684216
 30
0.0
 10
5.091822984
 20
3.080887702
 30
0.0
 10
5.0892959386
 20
3.079833861
 30
0.0
 10
5.0861001461
 20
3.0790780998
 30
0.0
 10
5.0828249607
 20
3.0788496383
 30
0.0
 10
5.0806433152
 20
3.0790509197
 30
0.0
 10
5.0795699611
 20
3.0792382138
 30
0.0
  0
SPLINE
  5
40D
100
AcDbEntity
  8
0
100
AcDbSpline
 62
7
  6
CONTINUOUS
 70
0
 71
3
 72
63
 73
59
 74
0
 42
0.0000001
 43
0.0000001
 44
0.0000000001
 40
0.0
 40
0.0
 40
0.0
 40
0.0
 40
0.000254191
 40
0.000350766
 40
0.0004629182
 40
0.0007361972
 40
0.00107713
 40
0.0014871617
 40
0.0019670922
 40
0.0025173986
 40
0.0038301623
 40
0.0054264967
 40
0.0073062185
 40
0.0094687629
 40
0.0146389989
 40
0.0209271832
 40
0.0283195226
 40
0.0367999917
 40
0.0463488592
 40
0.0569449942
 40
0.0685635477
 40
0.0811783319
 40
0.0947600523
 40
0.1092776068
 40
0.1246976465
 40
0.1409844077
 40
0.1760067517
 40
0.2140220423
 40
0.2546798842
 40
0.2976054903
 40
0.3424031854
 40
0.3886599366
 40
0.4359493051
 40
0.4838353209
 40
0.5318764117
 40
0.5796297201
 40
0.6266548439
 40
0.6725182901
 40
0.7167971936
 40
0.7590833558
 40
0.7989870168
 40
0.8361403695
 40
0.8702010383
 40
0.9008552814
 40
0.9278208141
 40
0.9398413368
 40
0.9508497901
 40
0.9608205511
 40
0.969731067
 40
0.9775611238
 40
0.9842929405
 40
0.9899121844
 40
0.9923005829
 40
0.9944067566
 40
0.9962299758
 40
0.9977697304
 40
0.9990259739
 40
1.0
 40
1.0
 40
1.0
 40
1.0
 10
5.5023506554
 20
5.336375952
 30
0.0
 10
5.5023506554
 20
5.3363226375
 30
0.0
 10
5.5022869312
 20
5.3362595629
 30
0.0
 10
5.5022066605
 20
5.336209203
 30
0.0
 10
5.5021163836
 20
5.3361620452
 30
0.0
 10
5.5019749742
 20
5.3361056215
 30
0.0
 10
5.5017699063
 20
5.3360407608
 30
0.0
 10
5.5015199989
 20
5.3359758184
 30
0.0
 10
5.501224975
 20
5.3359105907
 30
0.0
 10
5.5007423202
 20
5.3358179355
 30
0.0
 10
5.5000254132
 20
5.3357049361
 30
0.0
 10
5.4990293491
 20
5.3355751945
 30
0.0
 10
5.4978538265
 20
5.3354449827
 30
0.0
 10
5.4959304376
 20
5.3352596726
 30
0.0
 10
5.4930823001
 20
5.3350339716
 30
0.0
 10
5.4891369526
 20
5.3347746833
 30
0.0
 10
5.4844960902
 20
5.3345144433
 30
0.0
 10
5.4791704543
 20
5.3342534421
 30
0.0
 10
5.4731721598
 20
5.3339919432
 30
0.0
 10
5.4665151341
 20
5.3337301149
 30
0.0
 10
5.4592146169
 20
5.3334680109
 30
0.0
 10
5.4512875338
 20
5.33320573
 30
0.0
 10
5.4427521059
 20
5.3329432923
 30
0.0
 10
5.4336280423
 20
5.3326807417
 30
0.0
 10
5.4239364002
 20
5.3324180942
 30
0.0
 10
5.409945087
 20
5.3320590453
 30
0.0
 10
5.3912152707
 20
5.3316137454
 30
0.0
 10
5.3673742603
 20
5.3310908095
 30
0.0
 10
5.3418752415
 20
5.3305674269
 30
0.0
 10
5.3149533923
 20
5.3300436946
 30
0.0
 10
5.2868570088
 20
5.3295197205
 30
0.0
 10
5.2578452104
 20
5.3289955752
 30
0.0
 10
5.2281855602
 20
5.3284713187
 30
0.0
 10
5.1981516025
 20
5.327947001
 30
0.0
 10
5.1680203225
 20
5.3274226678
 30
0.0
 10
5.1380696348
 20
5.3268983638
 30
0.0
 10
5.1085757602
 20
5.3263741351
 30
0.0
 10
5.0798107297
 20
5.3258500343
 30
0.0
 10
5.0520398254
 20
5.3253261245
 30
0.0
 10
5.0255191651
 20
5.3248024841
 30
0.0
 10
5.000493331
 20
5.3242792233
 30
0.0
 10
4.9771931193
 20
5.3237564784
 30
0.0
 10
4.9558334053
 20
5.3232345105
 30
0.0
 10
4.9366111838
 20
5.3227135251
 30
0.0
 10
4.9220114997
 20
5.3222653502
 30
0.0
 10
4.9115318375
 20
5.3219016778
 30
0.0
 10
4.9046153463
 20
5.321639718
 30
0.0
 10
4.8983516514
 20
5.3213780782
 30
0.0
 10
4.8927552256
 20
5.3211168475
 30
0.0
 10
4.8878389279
 20
5.3208562879
 30
0.0
 10
4.8836140244
 20
5.3205965018
 30
0.0
 10
4.8805306461
 20
5.3203709118
 30
0.0
 10
4.8784173568
 20
5.3201864123
 30
0.0
 10
4.8770986508
 20
5.3200559012
 30
0.0
 10
4.8759589005
 20
5.3199257631
 30
0.0
 10
4.8749986251
 20
5.3197962567
 30
0.0
 10
4.8742183642
 20
5.3196675295
 30
0.0
 10
4.8737602517
 20
5.3195709749
 30
0.0
 10
4.8735624944
 20
5.3195197085
 30
0.0
  0
SPLINE
  5
40E
100
AcDbEntity
  8
0
100
AcDbSpline
 62
7
  6
CONTINUOUS
 70
0
 71
3
 72
30
 73
26
 74
0
 42
0.0000001
 43
0.0000001
 44
0.0000000001
 40
0.0
 40
0.0
 40
0.0
 40
0.0
 40
0.1821232375
 40
0.2722980126
 40
0.3606691979
 40
0.4463467171
 40
0.528468466
 40
0.6062079734
 40
0.6787830016
 40
0.7454633755
 40
0.8055785118
 40
0.8585240997
 40
0.8821394461
 40
0.9037686052
 40
0.923358384
 40
0.9408588572
 40
0.9562276191
 40
0.9694258691
 40
0.980422856
 40
0.9850874315
 40
0.989192636
 40
0.9927369642
 40
0.9957193503
 40
0.9981395887
 40
1.0
 40
1.0
 40
1.0
 40
1.0
 10
5.2198348488
 20
5.362775952
 30
0.0
 10
5.1988065698
 20
5.362407707
 30
0.0
 10
5.1673664488
 20
5.3618628001
 30
0.0
 10
5.1257229858
 20
5.3611303191
 30
0.0
 10
5.0952154971
 20
5.3605828702
 30
0.0
 10
5.0656381177
 20
5.3600356054
 30
0.0
 10
5.0372886916
 20
5.3594886121
 30
0.0
 10
5.0104526215
 20
5.358942008
 30
0.0
 10
4.9854000946
 20
5.3583959402
 30
0.0
 10
4.9623833196
 20
5.3578506841
 30
0.0
 10
4.9416340156
 20
5.3573064664
 30
0.0
 10
4.9258576178
 20
5.3568383825
 30
0.0
 10
4.9145250241
 20
5.3564585214
 30
0.0
 10
4.9070429829
 20
5.3561848197
 30
0.0
 10
4.9002675844
 20
5.3559114912
 30
0.0
 10
4.894215767
 20
5.3556385716
 30
0.0
 10
4.8889028344
 20
5.3553663936
 30
0.0
 10
4.8843420158
 20
5.3550950359
 30
0.0
 10
4.881017506
 20
5.3548593178
 30
0.0
 10
4.8787429769
 20
5.3546664449
 30
0.0
 10
4.877327455
 20
5.3545301207
 30
0.0
 10
4.876107186
 20
5.3543942075
 30
0.0
 10
4.8750827427
 20
5.3542590063
 30
0.0
 10
4.8742547643
 20
5.354124678
 30
0.0
 10
4.8737704203
 20
5.3540236219
 30
0.0
 10
4.8735624556
 20
5.3539697085
 30
0.0
  0
SPLINE
  5
40F
100
AcDbEntity
  8
0
100
AcDbSpline
 62
7
  6
CONTINUOUS
 70
0
 71
3
 72
39
 73
35
 74
0
 42
0.0000001
 43
0.0000001
 44
0.0000000001
 40
0.0
 40
0.0
 40
0.0
 40
0.0
 40
0.0002340713
 40
0.0003780974
 40
0.0005477747
 40
0.0009761593
 40
0.0015347912
 40
0.0022300025
 40
0.0030649776
 40
0.0040414951
 40
0.0051606246
 40
0.0078290617
 40
0.0110729169
 40
0.0148921736
 40
0.0192859621
 40
0.0297914139
 40
0.0425715924
 40
0.0576010323
 40
0.0748504559
 40
0.0942832217
 40
0.1158602193
 40
0.1395354911
 40
0.1652601273
 40
0.192980062
 40
0.2226369228
 40
0.2875094194
 40
0.3593328275
 40
0.4375034158
 40
0.5213641238
 40
0.6102093251
 40
0.703293012
 40
0.7998291508
 40
0.8990129862
 40
1.0
 40
1.0
 40
1.0
 40
1.0
 10
5.5023506554
 20
5.370825952
 30
0.0
 10
5.5023506554
 20
5.3708038875
 30
0.0
 10
5.5023368342
 20
5.3707682642
 30
0.0
 10
5.5023031727
 20
5.3707291463
 30
0.0
 10
5.5022496012
 20
5.3706836685
 30
0.0
 10
5.5021543874
 20
5.3706292549
 30
0.0
 10
5.5020081036
 20
5.3705676919
 30
0.0
 10
5.5018209766
 20
5.3705058809
 30
0.0
 10
5.5015929264
 20
5.3704437776
 30
0.0
 10
5.5013237309
 20
5.3703814884
 30
0.0
 10
5.5008834087
 20
5.3702929906
 30
0.0
 10
5.500229269
 20
5.3701850583
 30
0.0
 10
5.49932028
 20
5.3700611254
 30
0.0
 10
5.4982474296
 20
5.3699367495
 30
0.0
 10
5.4964918001
 20
5.3697597427
 30
0.0
 10
5.4938913671
 20
5.3695441426
 30
0.0
 10
5.4902880676
 20
5.3692964774
 30
0.0
 10
5.4860478322
 20
5.3690478983
 30
0.0
 10
5.4811796233
 20
5.3687985966
 30
0.0
 10
5.4756935244
 20
5.3685488197
 30
0.0
 10
5.4696011536
 20
5.3682987261
 30
0.0
 10
5.4629152429
 20
5.3680483735
 30
0.0
 10
5.4556499084
 20
5.3677978475
 30
0.0
 10
5.4478204199
 20
5.3675471693
 30
0.0
 10
5.4363018349
 20
5.3672023844
 30
0.0
 10
5.4206264969
 20
5.3667756313
 30
0.0
 10
5.4003784003
 20
5.366276692
 30
0.0
 10
5.3783399122
 20
5.365777153
 30
0.0
 10
5.3546965081
 20
5.3652771396
 30
0.0
 10
5.3296470444
 20
5.3647767936
 30
0.0
 10
5.3034025196
 20
5.3642762068
 30
0.0
 10
5.2761832648
 20
5.3637754364
 30
0.0
 10
5.248218889
 20
5.3632745497
 30
0.0
 10
5.2293528542
 20
5.3629426303
 30
0.0
 10
5.2198348488
 20
5.362775952
 30
0.0
  0
SPLINE
  5
410
100
AcDbEntity
  8
0
100
AcDbSpline
 62
7
  6
CONTINUOUS
 70
0
 71
3
 72
41
 73
37
 74
0
 42
0.0000001
 43
0.0000001
 44
0.0000000001
 40
0.0
 40
0.0
 40
0.0
 40
0.0
 40
0.0946454945
 40
0.1892712022
 40
0.2828434208
 40
0.3743397479
 40
0.4627607718
 40
0.5471404341
 40
0.6265571656
 40
0.7001435249
 40
0.7344962918
 40
0.7670960523
 40
0.7978529816
 40
0.8266839836
 40
0.8535095016
 40
0.8782573599
 40
0.9008592305
 40
0.9212546668
 40
0.9393873689
 40
0.9552095305
 40
0.9686779285
 40
0.9745187103
 40
0.9797586763
 40
0.9843943619
 40
0.9884236141
 40
0.991844911
 40
0.9933273057
 40
0.9946574868
 40
0.9958356124
 40
0.9968621735
 40
0.9977380245
 40
0.9984646191
 40
0.9990446197
 40
0.9992812996
 40
0.9994838563
 40
1.0
 40
1.0
 40
1.0
 40
1.0
 10
5.2198348488
 20
5.3865516877
 30
0.0
 10
5.2088808367
 20
5.3863598622
 30
0.0
 10
5.1869750666
 20
5.3859783103
 30
0.0
 10
5.1542394868
 20
5.3854080051
 30
0.0
 10
5.1218684933
 20
5.3848377706
 30
0.0
 10
5.0902158335
 20
5.3842676812
 30
0.0
 10
5.0596274312
 20
5.3836978225
 30
0.0
 10
5.0304375475
 20
5.3831283174
 30
0.0
 10
5.0029651859
 20
5.3825592784
 30
0.0
 10
4.9812831906
 20
5.3820752678
 30
0.0
 10
4.9650197875
 20
5.3816849592
 30
0.0
 10
4.9537130372
 20
5.3813990648
 30
0.0
 10
4.9430456718
 20
5.3811132653
 30
0.0
 10
4.9330469544
 20
5.380827605
 30
0.0
 10
4.9237441156
 20
5.3805420902
 30
0.0
 10
4.9151626878
 20
5.3802568015
 30
0.0
 10
4.9073260103
 20
5.3799717724
 30
0.0
 10
4.9002556105
 20
5.3796871368
 30
0.0
 10
4.8939706722
 20
5.3794030424
 30
0.0
 10
4.8884884687
 20
5.3791196732
 30
0.0
 10
4.8844291532
 20
5.3788743678
 30
0.0
 10
4.8815944688
 20
5.378674654
 30
0.0
 10
4.8797807706
 20
5.3785322628
 30
0.0
 10
4.8781774562
 20
5.378390153
 30
0.0
 10
4.8767855732
 20
5.3782483745
 30
0.0
 10
4.8757587607
 20
5.378125598
 30
0.0
 10
4.8750440875
 20
5.3780256749
 30
0.0
 10
4.874587643
 20
5.3779544385
 30
0.0
 10
4.8741846636
 20
5.3778833263
 30
0.0
 10
4.8738351397
 20
5.3778123411
 30
0.0
 10
4.8735391211
 20
5.377741678
 30
0.0
 10
4.8732962148
 20
5.3776711039
 30
0.0
 10
4.8731287046
 20
5.3776097466
 30
0.0
 10
4.8730214076
 20
5.3775583006
 30
0.0
 10
4.8729283693
 20
5.3775045747
 30
0.0
 10
4.8728506554
 20
5.3774364339
 30
0.0
 10
4.8728506554
 20
5.3773766877
 30
0.0
  0
SPLINE
  5
411
100
AcDbEntity
  8
0
100
AcDbSpline
 62
7
  6
CONTINUOUS
 70
0
 71
3
 72
39
 73
35
 74
0
 42
0.0000001
 43
0.0000001
 44
0.0000000001
 40
0.0
 40
0.0
 40
0.0
 40
0.0
 40
0.022034889
 40
0.0469566229
 40
0.0745995351
 40
0.1047881148
 40
0.1720039638
 40
0.246867411
 40
0.3274447498
 40
0.4116538596
 40
0.4973190108
 40
0.5822266176
 40
0.6641827153
 40
0.7033876926
 40
0.741069768
 40
0.7769851529
 40
0.8109014
 40
0.8425992503
 40
0.8718738761
 40
0.8985360267
 40
0.9224132687
 40
0.9433517001
 40
0.9526761727
 40
0.9612167093
 40
0.9689600357
 40
0.9758938155
 40
0.9820068067
 40
0.9872900915
 40
0.9917354141
 40
0.9953369177
 40
0.996820215
 40
0.9980915559
 40
0.9991511225
 40
1.0
 40
1.0
 40
1.0
 40
1.0
 10
5.4639383483
 20
5.4025388199
 30
0.0
 10
5.4596032645
 20
5.4023810785
 30
0.0
 10
5.4503642026
 20
5.4020708074
 30
0.0
 10
5.4356844655
 20
5.401633708
 30
0.0
 10
5.419398914
 20
5.401195858
 30
0.0
 10
5.3947886166
 20
5.4005894245
 30
0.0
 10
5.3608827953
 20
5.3998449774
 30
0.0
 10
5.3170575257
 20
5.3989770727
 30
0.0
 10
5.269886264
 20
5.3981074367
 30
0.0
 10
5.2205881805
 20
5.3972366948
 30
0.0
 10
5.1704374849
 20
5.3963655993
 30
0.0
 10
5.1207303987
 20
5.3954946585
 30
0.0
 10
5.0801688412
 20
5.3947591593
 30
0.0
 10
5.0489034485
 20
5.3941643271
 30
0.0
 10
5.0267006632
 20
5.3937249399
 30
0.0
 10
5.0055392653
 20
5.3932857457
 30
0.0
 10
4.9855562281
 20
5.3928467891
 30
0.0
 10
4.9668808671
 20
5.3924081585
 30
0.0
 10
4.9496340134
 20
5.3919699591
 30
0.0
 10
4.9339273023
 20
5.3915323952
 30
0.0
 10
4.9198623979
 20
5.3910956231
 30
0.0
 10
4.9092105424
 20
5.3907196996
 30
0.0
 10
4.9015774779
 20
5.3904148831
 30
0.0
 10
4.8965407977
 20
5.3901953659
 30
0.0
 10
4.8919752435
 20
5.3899761007
 30
0.0
 10
4.8878881816
 20
5.3897571728
 30
0.0
 10
4.8842861776
 20
5.3895386593
 30
0.0
 10
4.88117502
 20
5.3893209375
 30
0.0
 10
4.8785596621
 20
5.3891041005
 30
0.0
 10
4.8766928247
 20
5.3889149435
 30
0.0
 10
4.8754511967
 20
5.3887590698
 30
0.0
 10
4.8747081467
 20
5.3886502315
 30
0.0
 10
4.8740915197
 20
5.3885419108
 30
0.0
 10
4.8737242356
 20
5.3884616458
 30
0.0
 10
4.8735624668
 20
5.3884197085
 30
0.0
  0
SPLINE
  5
412
100
AcDbEntity
  8
0
100
AcDbSpline
 62
7
  6
CONTINUOUS
 70
0
 71
3
 72
37
 73
33
 74
0
 42
0.0000001
 43
0.0000001
 44
0.0000000001
 40
0.0
 40
0.0
 40
0.0
 40
0.0
 40
0.0002963403
 40
0.000647559
 40
0.0010884297
 40
0.001636892
 40
0.0023022057
 40
0.0030894905
 40
0.0050406336
 40
0.0075044596
 40
0.0104871184
 40
0.013991799
 40
0.0180198014
 40
0.02257129
 40
0.0276459614
 40
0.0393621919
 40
0.0531617687
 40
0.06903252
 40
0.0869586023
 40
0.1069235521
 40
0.1289078385
 40
0.1528881286
 40
0.2067398765
 40
0.2682586685
 40
0.337193821
 40
0.413260069
 40
0.4961454569
 40
0.5855099855
 40
0.6809801797
 40
0.7821657111
 40
0.8886653088
 40
1.0
 40
1.0
 40
1.0
 40
1.0
 10
5.5023506554
 20
4.612925952
 30
0.0
 10
5.5023506554
 20
4.6129108918
 30
0.0
 10
5.5023421986
 20
4.6128777909
 30
0.0
 10
5.5023085539
 20
4.6128328508
 30
0.0
 10
5.5022558545
 20
4.6127891081
 30
0.0
 10
5.5021836262
 20
4.6127456425
 30
0.0
 10
5.502091588
 20
4.612702126
 30
0.0
 10
5.5019302521
 20
4.6126394461
 30
0.0
 10
5.5016765931
 20
4.6125637231
 30
0.0
 10
5.5013106207
 20
4.6124772964
 30
0.0
 10
5.5008639751
 20
4.6123904782
 30
0.0
 10
5.5003366888
 20
4.6123033192
 30
0.0
 10
5.4997287702
 20
4.6122159666
 30
0.0
 10
5.4990403732
 20
4.6121284535
 30
0.0
 10
5.497962686
 20
4.6120056713
 30
0.0
 10
5.4964152986
 20
4.6118548273
 30
0.0
 10
5.4943191867
 20
4.6116806478
 30
0.0
 10
5.4919065768
 20
4.6115060465
 30
0.0
 10
5.4891799509
 20
4.611331087
 30
0.0
 10
5.4861420751
 20
4.611155912
 30
0.0
 10
5.4827960701
 20
4.6109805633
 30
0.0
 10
5.4777291704
 20
4.6107370646
 30
0.0
 10
5.4706535906
 20
4.6104365798
 30
0.0
 10
5.461293528
 20
4.6100875112
 30
0.0
 10
5.450803833
 20
4.6097378604
 30
0.0
 10
5.4392277496
 20
4.6093877145
 30
0.0
 10
5.4266130084
 20
4.6090372364
 30
0.0
 10
5.4130118017
 20
4.6086865103
 30
0.0
 10
5.3984802866
 20
4.6083355828
 30
0.0
 10
5.3830777211
 20
4.6079844942
 30
0.0
 10
5.3668687152
 20
4.6076333015
 30
0.0
 10
5.3558006021
 20
4.6074038948
 30
0.0
 10
5.3501436666
 20
4.6072888199
 30
0.0
  0
SPLINE
  5
413
100
AcDbEntity
  8
0
100
AcDbSpline
 62
7
  6
CONTINUOUS
 70
0
 71
3
 72
55
 73
51
 74
0
 42
0.0000001
 43
0.0000001
 44
0.0000000001
 40
0.0
 40
0.0
 40
0.0
 40
0.0
 40
0.0001128487
 40
0.0002596562
 40
0.000457645
 40
0.0007139239
 40
0.0010316698
 40
0.001412476
 40
0.0018572268
 40
0.0023664457
 40
0.003579402
 40
0.0050528135
 40
0.0067871488
 40
0.0087821368
 40
0.0110369688
 40
0.013550692
 40
0.01935056
 40
0.0261710095
 40
0.0339977836
 40
0.042815523
 40
0.0526054247
 40
0.0633473935
 40
0.0750190604
 40
0.0875956041
 40
0.1010512259
 40
0.1304836712
 40
0.1630693816
 40
0.1985345941
 40
0.2365811903
 40
0.2768891737
 40
0.3191195584
 40
0.3629172345
 40
0.4079138683
 40
0.4537309421
 40
0.4999830933
 40
0.5462811969
 40
0.6374606323
 40
0.7242078439
 40
0.7650006973
 40
0.8036105559
 40
0.8397128114
 40
0.8730038737
 40
0.9032039589
 40
0.9300593548
 40
0.9533450587
 40
0.9728658316
 40
0.9811625672
 40
0.9884605144
 40
0.9947442128
 40
1.0
 40
1.0
 40
1.0
 40
1.0
 10
5.4820005632
 20
4.9971388199
 30
0.0
 10
5.4820005731
 20
4.9971168883
 30
0.0
 10
5.4819823794
 20
4.9970665557
 30
0.0
 10
5.4819173858
 20
4.9970038875
 30
0.0
 10
5.4818177319
 20
4.9969421827
 30
0.0
 10
5.4816805536
 20
4.9968806578
 30
0.0
 10
5.4815054943
 20
4.9968187599
 30
0.0
 10
5.4812920574
 20
4.9967566603
 30
0.0
 10
5.4810401892
 20
4.9966943636
 30
0.0
 10
5.4806283982
 20
4.996605906
 30
0.0
 10
5.4800166156
 20
4.9964979765
 30
0.0
 10
5.4791663914
 20
4.9963740159
 30
0.0
 10
5.4781628743
 20
4.996249649
 30
0.0
 10
5.4770065488
 20
4.9961249378
 30
0.0
 10
5.4756980057
 20
4.9959999932
 30
0.0
 10
5.4736515421
 20
4.9958247116
 30
0.0
 10
5.470718091
 20
4.9956094255
 30
0.0
 10
5.466752022
 20
4.9953607629
 30
0.0
 10
5.462198479
 20
4.9951114637
 30
0.0
 10
5.4570671059
 20
4.9948616992
 30
0.0
 10
5.4513685929
 20
4.9946115912
 30
0.0
 10
5.4451149583
 20
4.9943612435
 30
0.0
 10
5.4383193612
 20
4.9941107206
 30
0.0
 10
5.4309960517
 20
4.9938600326
 30
0.0
 10
5.4202222302
 20
4.9935152607
 30
0.0
 10
5.4055603774
 20
4.9930885
 30
0.0
 10
5.3866214224
 20
4.9925895612
 30
0.0
 10
5.3660078256
 20
4.9920900215
 30
0.0
 10
5.3438930405
 20
4.9915900081
 30
0.0
 10
5.320463163
 20
4.9910896632
 30
0.0
 10
5.2959153494
 20
4.9905890731
 30
0.0
 10
5.270456137
 20
4.9900883072
 30
0.0
 10
5.2442997376
 20
4.9895874192
 30
0.0
 10
5.2176662367
 20
4.9890864521
 30
0.0
 10
5.1907797569
 20
4.9885854481
 30
0.0
 10
5.1550787983
 20
4.9879208333
 30
0.0
 10
5.1115093122
 20
4.9871008902
 30
0.0
 10
5.0690103
 20
4.9862619328
 30
0.0
 10
5.0367268953
 20
4.9855807104
 30
0.0
 10
5.0142845231
 20
4.9850805962
 30
0.0
 10
4.9933004677
 20
4.9845809249
 30
0.0
 10
4.973951299
 20
4.984081854
 30
0.0
 10
4.9563998502
 20
4.9835836002
 30
0.0
 10
4.9407937175
 20
4.9830866973
 30
0.0
 10
4.927264216
 20
4.98259144
 30
0.0
 10
4.9173416632
 20
4.9821616284
 30
0.0
 10
4.9105261634
 20
4.9818095122
 30
0.0
 10
4.906281433
 20
4.9815605042
 30
0.0
 10
4.9026288223
 20
4.9813123179
 30
0.0
 10
4.9003933252
 20
4.9811317993
 30
0.0
 10
4.8993761243
 20
4.9810388199
 30
0.0
  0
SPLINE
  5
414
100
AcDbEntity
  8
0
100
AcDbSpline
 62
7
  6
CONTINUOUS
 70
0
 71
3
 72
63
 73
59
 74
0
 42
0.0000001
 43
0.0000001
 44
0.0000000001
 40
0.0
 40
0.0
 40
0.0
 40
0.0
 40
0.0001173745
 40
0.0001890798
 40
0.0002732254
 40
0.000484875
 40
0.0007601778
 40
0.0011023797
 40
0.0015131344
 40
0.0019933757
 40
0.0025436221
 40
0.0038550746
 40
0.0054486151
 40
0.0073243808
 40
0.0094820951
 40
0.0146399048
 40
0.020911602
 40
0.0282845081
 40
0.0367418956
 40
0.0462649303
 40
0.0568321418
 40
0.068419057
 40
0.0809997649
 40
0.0945448433
 40
0.1090238172
 40
0.1406474134
 40
0.1755803381
 40
0.213501891
 40
0.2540635586
 40
0.2968926826
 40
0.3415955634
 40
0.3877613834
 40
0.4349658606
 40
0.4827750452
 40
0.530749572
 40
0.5784483413
 40
0.6254329622
 40
0.6712715668
 40
0.7155428433
 40
0.7578399458
 40
0.7977741512
 40
0.8349784567
 40
0.8691111024
 40
0.8998586421
 40
0.9269390241
 40
0.9390252914
 40
0.9501041618
 40
0.9601509769
 40
0.9691424378
 40
0.9770584623
 40
0.983881443
 40
0.9895961725
 40
0.9920344542
 40
0.994191658
 40
0.9960667825
 40
0.997659548
 40
0.9989702373
 40
1.0
 40
1.0
 40
1.0
 40
1.0
 10
5.4820005667
 20
5.0315888198
 30
0.0
 10
5.4820005554
 20
5.0315657946
 30
0.0
 10
5.4819865529
 20
5.0315286806
 30
0.0
 10
5.4819520948
 20
5.0314876422
 30
0.0
 10
5.4818974332
 20
5.0314401403
 30
0.0
 10
5.4818001719
 20
5.0313832115
 30
0.0
 10
5.4816506426
 20
5.0313188274
 30
0.0
 10
5.4814593747
 20
5.0312541956
 30
0.0
 10
5.4812262639
 20
5.0311892746
 30
0.0
 10
5.4809510755
 20
5.031124167
 30
0.0
 10
5.480501016
 20
5.0310316838
 30
0.0
 10
5.4798324738
 20
5.0309188705
 30
0.0
 10
5.4789035652
 20
5.0307893024
 30
0.0
 10
5.4778073404
 20
5.0306592706
 30
0.0
 10
5.4760137663
 20
5.030474242
 30
0.0
 10
5.4733577328
 20
5.0302488835
 30
0.0
 10
5.4696783213
 20
5.0299899537
 30
0.0
 10
5.4653503286
 20
5.0297301309
 30
0.0
 10
5.4603835971
 20
5.029469499
 30
0.0
 10
5.4547895055
 20
5.0292084038
 30
0.0
 10
5.4485809189
 20
5.0289469624
 30
0.0
 10
5.4417720419
 20
5.0286852515
 30
0.0
 10
5.4343786124
 20
5.028423371
 30
0.0
 10
5.4264175285
 20
5.0281613135
 30
0.0
 10
5.4147220575
 20
5.0278010929
 30
0.0
 10
5.3988316432
 20
5.0273552293
 30
0.0
 10
5.378342921
 20
5.0268337322
 30
0.0
 10
5.3561003229
 20
5.0263116118
 30
0.0
 10
5.3323083532
 20
5.0257890033
 30
0.0
 10
5.3071858038
 20
5.0252660578
 30
0.0
 10
5.2809636729
 20
5.0247428667
 30
0.0
 10
5.2538830731
 20
5.0242195052
 30
0.0
 10
5.2261930048
 20
5.0236960319
 30
0.0
 10
5.1981480635
 20
5.0231724968
 30
0.0
 10
5.1700061411
 20
5.0226489454
 30
0.0
 10
5.1420259998
 20
5.0221254214
 30
0.0
 10
5.1144649325
 20
5.0216019712
 30
0.0
 10
5.0875763536
 20
5.0210786464
 30
0.0
 10
5.0616074949
 20
5.0205555093
 30
0.0
 10
5.0367971338
 20
5.0200326374
 30
0.0
 10
5.0133734069
 20
5.0195101386
 30
0.0
 10
4.9915517035
 20
5.0189881473
 30
0.0
 10
4.9715326707
 20
5.0184669152
 30
0.0
 10
4.9535003499
 20
5.0179466514
 30
0.0
 10
4.9397926093
 20
5.0174991923
 30
0.0
 10
4.9299426753
 20
5.0171362114
 30
0.0
 10
4.923432765
 20
5.0168746027
 30
0.0
 10
4.9175304785
 20
5.0166133314
 30
0.0
 10
4.9122492973
 20
5.016352441
 30
0.0
 10
4.9076013515
 20
5.016092184
 30
0.0
 10
4.9035973108
 20
5.0158327129
 30
0.0
 10
4.9006680022
 20
5.0156074558
 30
0.0
 10
4.8986538147
 20
5.0154234269
 30
0.0
 10
4.8973911552
 20
5.0152930549
 30
0.0
 10
4.8962953297
 20
5.0151630154
 30
0.0
 10
4.8953667913
 20
5.0150335318
 30
0.0
 10
4.8946059524
 20
5.0149047808
 30
0.0
 10
4.8941566423
 20
5.0148086749
 30
0.0
 10
4.8939610994
 20
5.0147579805
 30
0.0
  0
SPLINE
  5
415
100
AcDbEntity
  8
0
100
AcDbSpline
 62
7
  6
CONTINUOUS
 70
0
 71
3
 72
15
 73
11
 74
0
 42
0.0000001
 43
0.0000001
 44
0.0000000001
 40
0.0
 40
0.0
 40
0.0
 40
0.0
 40
0.126343593
 40
0.2515279156
 40
0.3759507366
 40
0.499999999
 40
0.6240492612
 40
0.7484720824
 40
0.873656406
 40
1.0
 40
1.0
 40
1.0
 40
1.0
 10
4.8474321788
 20
5.5228860624
 30
0.0
 10
4.8417474138
 20
5.5243756058
 30
0.0
 10
4.8303284973
 20
5.526967927
 30
0.0
 10
4.8130482456
 20
5.5297210227
 30
0.0
 10
4.79573377
 20
5.5313595458
 30
0.0
 10
4.7784036522
 20
5.5318998342
 30
0.0
 10
4.7610735343
 20
5.5313595467
 30
0.0
 10
4.7437590586
 20
5.5297210239
 30
0.0
 10
4.7264788069
 20
5.5269679276
 30
0.0
 10
4.7150598904
 20
5.5243756059
 30
0.0
 10
4.7093751254
 20
5.5228860624
 30
0.0
  0
SPLINE
  5
416
100
AcDbEntity
  8
0
100
AcDbSpline
 62
7
  6
CONTINUOUS
 70
0
 71
3
 72
63
 73
59
 74
0
 42
0.0000001
 43
0.0000001
 44
0.0000000001
 40
0.0
 40
0.0
 40
0.0
 40
0.0
 40
0.0001173663
 40
0.0001890828
 40
0.000273253
 40
0.0004849829
 40
0.0007603818
 40
0.0011026613
 40
0.0015134407
 40
0.0019936237
 40
0.0025437523
 40
0.0038550325
 40
0.0054486811
 40
0.007324638
 40
0.0094823644
 40
0.014639874
 40
0.0209119023
 40
0.0282845072
 40
0.0367421077
 40
0.046265053
 40
0.0568322212
 40
0.0684193207
 40
0.0809997823
 40
0.0945451359
 40
0.1090238336
 40
0.1406475464
 40
0.1755805886
 40
0.2135021237
 40
0.2540637683
 40
0.2968928002
 40
0.3415956578
 40
0.3877615188
 40
0.4349659916
 40
0.482775239
 40
0.5307496998
 40
0.5784484731
 40
0.6254331217
 40
0.6712717441
 40
0.7155431029
 40
0.757840146
 40
0.7977742749
 40
0.8349785092
 40
0.869111146
 40
0.8998587942
 40
0.9269392698
 40
0.9390252837
 40
0.9501044727
 40
0.9601510029
 40
0.9691426954
 40
0.9770585842
 40
0.9838815305
 40
0.9895964181
 40
0.9920345062
 40
0.9941916369
 40
0.9960669646
 40
0.9976598704
 40
0.9989704236
 40
1.0
 40
1.0
 40
1.0
 40
1.0
 10
5.4820006539
 20
5.0660388199
 30
0.0
 10
5.4820006576
 20
5.0660157963
 30
0.0
 10
5.4819866566
 20
5.0659786738
 30
0.0
 10
5.4819521851
 20
5.0659376403
 30
0.0
 10
5.4818974934
 20
5.0658901378
 30
0.0
 10
5.4818001843
 20
5.0658332132
 30
0.0
 10
5.4816506003
 20
5.0657688313
 30
0.0
 10
5.4814592912
 20
5.0657042009
 30
0.0
 10
5.4812261715
 20
5.0656392803
 30
0.0
 10
5.4809510145
 20
5.0655741694
 30
0.0
 10
5.4805010265
 20
5.0654816777
 30
0.0
 10
5.4798325216
 20
5.0653688559
 30
0.0
 10
5.4789035858
 20
5.0652393012
 30
0.0
 10
5.4778072987
 20
5.0651092774
 30
0.0
 10
5.4760137438
 20
5.0649242483
 30
0.0
 10
5.4733577042
 20
5.0646988624
 30
0.0
 10
5.4696783428
 20
5.0644399739
 30
0.0
 10
5.4653503048
 20
5.0641801149
 30
0.0
 10
5.4603836067
 20
5.0639195073
 30
0.0
 10
5.4547895001
 20
5.0636584014
 30
0.0
 10
5.4485809034
 20
5.063396959
 30
0.0
 10
5.4417720468
 20
5.0631352582
 30
0.0
 10
5.434378576
 20
5.0628733623
 30
0.0
 10
5.4264175403
 20
5.0626113209
 30
0.0
 10
5.4147220472
 20
5.0622510842
 30
0.0
 10
5.398831641
 20
5.0618052318
 30
0.0
 10
5.3783428767
 20
5.0612837319
 30
0.0
 10
5.3561002637
 20
5.0607616122
 30
0.0
 10
5.3323083204
 20
5.060239003
 30
0.0
 10
5.3071857984
 20
5.0597160573
 30
0.0
 10
5.2809636824
 20
5.0591928662
 30
0.0
 10
5.2538830802
 20
5.0586695049
 30
0.0
 10
5.2261929927
 20
5.0581460318
 30
0.0
 10
5.1981480532
 20
5.0576224968
 30
0.0
 10
5.170006131
 20
5.0570989451
 30
0.0
 10
5.1420259968
 20
5.056575421
 30
0.0
 10
5.1144649201
 20
5.0560519708
 30
0.0
 10
5.0875763164
 20
5.055528646
 30
0.0
 10
5.06160745
 20
5.0550055095
 30
0.0
 10
5.0367970997
 20
5.0544826375
 30
0.0
 10
5.0133734137
 20
5.0539601383
 30
0.0
 10
4.9915517413
 20
5.053438146
 30
0.0
 10
4.9715327031
 20
5.0529169152
 30
0.0
 10
4.9535003447
 20
5.0523966473
 30
0.0
 10
4.9397926138
 20
5.0519492024
 30
0.0
 10
4.9299426496
 20
5.051586201
 30
0.0
 10
4.9234327816
 20
5.0513246143
 30
0.0
 10
4.917530444
 20
5.0510633198
 30
0.0
 10
4.9122492992
 20
5.0508024481
 30
0.0
 10
4.9076013416
 20
5.0505421836
 30
0.0
 10
4.9035973042
 20
5.0502827035
 30
0.0
 10
4.9006680073
 20
5.0500574698
 30
0.0
 10
4.8986538427
 20
5.0498734241
 30
0.0
 10
4.8973911967
 20
5.0497430436
 30
0.0
 10
4.8962953167
 20
5.0496130149
 30
0.0
 10
4.8953667352
 20
5.049483545
 30
0.0
 10
4.8946059332
 20
5.0493547871
 30
0.0
 10
4.8941566897
 20
5.0492586727
 30
0.0
 10
4.8939611839
 20
5.0492079804
 30
0.0
  0
SPLINE
  5
417
100
AcDbEntity
  8
0
100
AcDbSpline
 62
7
  6
CONTINUOUS
 70
0
 71
3
 72
63
 73
59
 74
0
 42
0.0000001
 43
0.0000001
 44
0.0000000001
 40
0.0
 40
0.0
 40
0.0
 40
0.0
 40
0.0001173458
 40
0.0001890255
 40
0.0002731471
 40
0.0004847769
 40
0.0007601292
 40
0.0011024393
 40
0.0015133003
 40
0.0019935845
 40
0.0025438011
 40
0.0038550858
 40
0.0054485045
 40
0.0073243996
 40
0.0094822997
 40
0.0146398593
 40
0.0209116989
 40
0.0282845729
 40
0.0367418492
 40
0.0462650982
 40
0.0568320439
 40
0.0684192337
 40
0.0809997178
 40
0.0945449405
 40
0.1090238818
 40
0.1406475349
 40
0.1755804914
 40
0.2135019607
 40
0.2540635467
 40
0.2968926564
 40
0.3415955506
 40
0.3877614348
 40
0.4349658985
 40
0.4827750824
 40
0.5307495771
 40
0.5784483559
 40
0.6254330179
 40
0.6712716319
 40
0.7155428775
 40
0.7578399235
 40
0.7977740619
 40
0.8349783794
 40
0.8691111225
 40
0.8998587559
 40
0.9269391598
 40
0.9390251757
 40
0.9501042047
 40
0.9601509812
 40
0.9691423779
 40
0.9770586011
 40
0.9838812905
 40
0.9895963104
 40
0.9920345267
 40
0.9941915167
 40
0.9960666631
 40
0.9976596049
 40
0.9989703951
 40
1.0
 40
1.0
 40
1.0
 40
1.0
 10
5.4820005502
 20
5.1004888199
 30
0.0
 10
5.4820005583
 20
5.1004658003
 30
0.0
 10
5.4819865905
 20
5.1004286828
 30
0.0
 10
5.4819521586
 20
5.100387641
 30
0.0
 10
5.4818975184
 20
5.1003401348
 30
0.0
 10
5.4818002556
 20
5.1002832028
 30
0.0
 10
5.4816506948
 20
5.1002188236
 30
0.0
 10
5.48145937
 20
5.1001541981
 30
0.0
 10
5.4812262061
 20
5.1000892805
 30
0.0
 10
5.480950994
 20
5.1000241716
 30
0.0
 10
5.4805009658
 20
5.0999316873
 30
0.0
 10
5.4798324885
 20
5.0998188663
 30
0.0
 10
5.4789036122
 20
5.099689292
 30
0.0
 10
5.4778073478
 20
5.0995592704
 30
0.0
 10
5.4760137591
 20
5.0993742595
 30
0.0
 10
5.4733577132
 20
5.0991488662
 30
0.0
 10
5.4696783269
 20
5.0988899621
 30
0.0
 10
5.4653503348
 20
5.0986301311
 30
0.0
 10
5.4603835893
 20
5.0983694927
 30
0.0
 10
5.4547895286
 20
5.0981084133
 30
0.0
 10
5.4485808987
 20
5.097846952
 30
0.0
 10
5.4417720628
 20
5.0975852607
 30
0.0
 10
5.4343785951
 20
5.0973233648
 30
0.0
 10
5.4264175324
 20
5.0970613168
 30
0.0
 10
5.4147220278
 20
5.0967010902
 30
0.0
 10
5.3988316016
 20
5.0962552308
 30
0.0
 10
5.3783428771
 20
5.0957337326
 30
0.0
 10
5.356100304
 20
5.0952116119
 30
0.0
 10
5.3323083681
 20
5.0946890029
 30
0.0
 10
5.3071858335
 20
5.0941660575
 30
0.0
 10
5.2809636887
 20
5.0936428666
 30
0.0
 10
5.2538830747
 20
5.0931195054
 30
0.0
 10
5.226192995
 20
5.092596032
 30
0.0
 10
5.1981480612
 20
5.0920724968
 30
0.0
 10
5.1700061417
 20
5.0915489451
 30
0.0
 10
5.1420259953
 20
5.0910254212
 30
0.0
 10
5.1144649146
 20
5.0905019713
 30
0.0
 10
5.0875763303
 20
5.0899786466
 30
0.0
 10
5.0616074854
 20
5.0894555095
 30
0.0
 10
5.0367971533
 20
5.0889326373
 30
0.0
 10
5.0133734469
 20
5.0884101382
 30
0.0
 10
4.991551734
 20
5.0878881461
 30
0.0
 10
4.9715326601
 20
5.0873669157
 30
0.0
 10
4.9535002965
 20
5.0868466499
 30
0.0
 10
4.9397925814
 20
5.0863991995
 30
0.0
 10
4.9299426613
 20
5.0860362052
 30
0.0
 10
4.9234327761
 20
5.0857746058
 30
0.0
 10
4.9175304783
 20
5.0855133334
 30
0.0
 10
4.9122492786
 20
5.0852524323
 30
0.0
 10
4.9076013619
 20
5.0849921988
 30
0.0
 10
4.9035972843
 20
5.0847326946
 30
0.0
 10
4.9006679866
 20
5.0845074637
 30
0.0
 10
4.8986537968
 20
5.0843234334
 30
0.0
 10
4.8973911895
 20
5.0841930466
 30
0.0
 10
4.896295367
 20
5.0840630083
 30
0.0
 10
4.8953667685
 20
5.0839335318
 30
0.0
 10
4.8946059031
 20
5.0838047959
 30
0.0
 10
4.8941566057
 20
5.0837086808
 30
0.0
 10
4.8939610962
 20
5.0836579804
 30
0.0
  0
SPLINE
  5
418
100
AcDbEntity
  8
0
100
AcDbSpline
 62
7
  6
CONTINUOUS
 70
0
 71
3
 72
15
 73
11
 74
0
 42
0.0000001
 43
0.0000001
 44
0.0000000001
 40
0.0
 40
0.0
 40
0.0
 40
0.0
 40
0.1263435933
 40
0.2515279162
 40
0.3759507373
 40
0.4999999997
 40
0.6240492619
 40
0.7484720828
 40
0.8736564061
 40
1.0
 40
1.0
 40
1.0
 40
1.0
 10
4.7093751254
 20
5.4271915774
 30
0.0
 10
4.7150598904
 20
5.4257020339
 30
0.0
 10
4.7264788069
 20
5.4231097126
 30
0.0
 10
4.7437590585
 20
5.4203566167
 30
0.0
 10
4.7610735342
 20
5.4187180937
 30
0.0
 10
4.7784036521
 20
5.4181778057
 30
0.0
 10
4.7957337699
 20
5.4187180932
 30
0.0
 10
4.8130482456
 20
5.4203566159
 30
0.0
 10
4.8303284973
 20
5.4231097122
 30
0.0
 10
4.8417474137
 20
5.4257020339
 30
0.0
 10
4.8474321788
 20
5.4271915774
 30
0.0
  0
SPLINE
  5
419
100
AcDbEntity
  8
0
100
AcDbSpline
 62
7
  6
CONTINUOUS
 70
0
 71
3
 72
30
 73
26
 74
0
 42
0.0000001
 43
0.0000001
 44
0.0000000001
 40
0.0
 40
0.0
 40
0.0
 40
0.0
 40
0.1811743754
 40
0.2709938929
 40
0.3590893087
 40
0.4445669186
 40
0.5265624993
 40
0.6042460493
 40
0.6768316511
 40
0.7435850195
 40
0.8038310787
 40
0.8569609608
 40
0.8806864466
 40
0.9024383687
 40
0.9221608432
 40
0.9398054825
 40
0.9553273944
 40
0.968688914
 40
0.9798574842
 40
0.9846110661
 40
0.9888077297
 40
0.9924455169
 40
0.9955229606
 40
0.9980402508
 40
1.0
 40
1.0
 40
1.0
 40
1.0
 10
5.2204200735
 20
5.4025388199
 30
0.0
 10
5.2006976551
 20
5.4021692069
 30
0.0
 10
5.1711974792
 20
5.4016225634
 30
0.0
 10
5.1321074915
 20
5.4008883611
 30
0.0
 10
5.1034351243
 20
5.4003393872
 30
0.0
 10
5.075614767
 20
5.399790591
 30
0.0
 10
5.0489282542
 20
5.3992420626
 30
0.0
 10
5.0236456973
 20
5.3986939175
 30
0.0
 10
5.0000230814
 20
5.3981463009
 30
0.0
 10
4.9782995477
 20
5.3975994858
 30
0.0
 10
4.958695021
 20
5.3970536888
 30
0.0
 10
4.9437750314
 20
5.3965843872
 30
0.0
 10
4.9330456202
 20
5.3962035805
 30
0.0
 10
4.9259520888
 20
5.3959291121
 30
0.0
 10
4.9195211535
 20
5.3956549606
 30
0.0
 10
4.9137691894
 20
5.3953812547
 30
0.0
 10
4.9087106251
 20
5.3951082168
 30
0.0
 10
4.9043582971
 20
5.3948360181
 30
0.0
 10
4.9011785852
 20
5.3945996671
 30
0.0
 10
4.8989965963
 20
5.3944064193
 30
0.0
 10
4.8976328361
 20
5.3942696512
 30
0.0
 10
4.8964525776
 20
5.394133275
 30
0.0
 10
4.8954564398
 20
5.3939975281
 30
0.0
 10
4.8946449863
 20
5.3938625876
 30
0.0
 10
4.8941677176
 20
5.3937615312
 30
0.0
 10
4.8939611734
 20
5.3937079805
 30
0.0
  0
SPLINE
  5
41A
100
AcDbEntity
  8
0
100
AcDbSpline
 62
7
  6
CONTINUOUS
 70
0
 71
3
 72
45
 73
41
 74
0
 42
0.0000001
 43
0.0000001
 44
0.0000000001
 40
0.0
 40
0.0
 40
0.0
 40
0.0
 40
0.0009100685
 40
0.0020684833
 40
0.0034764673
 40
0.0051340863
 40
0.0070409766
 40
0.0091965775
 40
0.0142508826
 40
0.020287983
 40
0.0272963836
 40
0.0352628937
 40
0.0441712588
 40
0.0540043844
 40
0.0647422769
 40
0.0888452434
 40
0.1162872933
 40
0.1468484964
 40
0.1802837351
 40
0.2163247748
 40
0.2546822254
 40
0.2950480355
 40
0.3370981162
 40
0.3804948145
 40
0.4699260425
 40
0.5604744603
 40
0.6492371646
 40
0.7333683869
 40
0.7728461216
 40
0.8101711228
 40
0.8450437402
 40
0.8771840006
 40
0.906333976
 40
0.9322598342
 40
0.9547541434
 40
0.973636748
 40
0.9816757794
 40
0.9887586514
 40
0.9948709871
 40
1.0
 40
1.0
 40
1.0
 40
1.0
 10
5.5016388117
 20
5.0152829313
 30
0.0
 10
5.501456028
 20
5.0152355467
 30
0.0
 10
5.5010360263
 20
5.0151456912
 30
0.0
 10
5.5003247465
 20
5.0150253275
 30
0.0
 10
5.4994566126
 20
5.0149043084
 30
0.0
 10
5.4984320347
 20
5.0147827679
 30
0.0
 10
5.4972514317
 20
5.0146609068
 30
0.0
 10
5.4953676388
 20
5.0144888723
 30
0.0
 10
5.4926270308
 20
5.014278336
 30
0.0
 10
5.4888793801
 20
5.0140357866
 30
0.0
 10
5.4845264465
 20
5.0137925118
 30
0.0
 10
5.4795769983
 20
5.01354867
 30
0.0
 10
5.4740408496
 20
5.0133044355
 30
0.0
 10
5.4679291903
 20
5.0130599247
 30
0.0
 10
5.4586662078
 20
5.0127204057
 30
0.0
 10
5.4457501529
 20
5.0123018867
 30
0.0
 10
5.4287212495
 20
5.0118154934
 30
0.0
 10
5.4097553575
 20
5.0113281948
 30
0.0
 10
5.3890047903
 20
5.0108401766
 30
0.0
 10
5.3666362166
 20
5.0103516765
 30
0.0
 10
5.3428293405
 20
5.0098628156
 30
0.0
 10
5.3177754348
 20
5.0093736945
 30
0.0
 10
5.2916757738
 20
5.0088843738
 30
0.0
 10
5.2553971687
 20
5.0082251812
 30
0.0
 10
5.2090570356
 20
5.0074113005
 30
0.0
 10
5.1533053809
 20
5.0064437347
 30
0.0
 10
5.0986535558
 20
5.0054767262
 30
0.0
 10
5.0545972151
 20
5.0046560041
 30
0.0
 10
5.0212124474
 20
5.003989804
 30
0.0
 10
4.9980466167
 20
5.0035010807
 30
0.0
 10
4.9764035527
 20
5.0030127868
 30
0.0
 10
4.9564571333
 20
5.0025250717
 30
0.0
 10
4.9383676182
 20
5.0020381426
 30
0.0
 10
4.9222802493
 20
5.0015525062
 30
0.0
 10
4.9083242673
 20
5.0010684453
 30
0.0
 10
4.8980796631
 20
5.0006484413
 30
0.0
 10
4.891032584
 20
5.0003045298
 30
0.0
 10
4.8866334765
 20
5.0000611548
 30
0.0
 10
4.882839174
 20
4.9998185514
 30
0.0
 10
4.8805133209
 20
4.9996423426
 30
0.0
 10
4.8794529952
 20
4.9995516877
 30
0.0
  0
SPLINE
  5
41B
100
AcDbEntity
  8
0
100
AcDbSpline
 62
7
  6
CONTINUOUS
 70
0
 71
3
 72
44
 73
40
 74
0
 42
0.0000001
 43
0.0000001
 44
0.0000000001
 40
0.0
 40
0.0
 40
0.0
 40
0.0
 40
0.000962549
 40
0.0021722569
 40
0.0036302656
 40
0.0053369672
 40
0.0094947469
 40
0.0146395259
 40
0.0207630443
 40
0.027853399
 40
0.0358969646
 40
0.0448783145
 40
0.0547791536
 40
0.0655804558
 40
0.0897954565
 40
0.1173303812
 40
0.1479653704
 40
0.1814553281
 40
0.217532365
 40
0.2559079027
 40
0.2962749016
 40
0.3383102894
 40
0.3816775533
 40
0.4710112182
 40
0.56142139
 40
0.6500188443
 40
0.7339725756
 40
0.7733614317
 40
0.8105998231
 40
0.845389816
 40
0.8774530998
 40
0.9065332456
 40
0.9323976645
 40
0.9548401958
 40
0.973681811
 40
0.9817048503
 40
0.9887747929
 40
0.994877398
 40
1.0
 40
1.0
 40
1.0
 40
1.0
 10
5.4812401553
 20
5.0099946592
 30
0.0
 10
5.4810593504
 20
5.0099477849
 30
0.0
 10
5.4806471228
 20
5.009858367
 30
0.0
 10
5.4799529485
 20
5.0097380093
 30
0.0
 10
5.4791126613
 20
5.009617013
 30
0.0
 10
5.4777023068
 20
5.0094434864
 30
0.0
 10
5.4755760918
 20
5.0092331285
 30
0.0
 10
5.4725923227
 20
5.0089920055
 30
0.0
 10
5.4690379896
 20
5.0087499081
 30
0.0
 10
5.4649201179
 20
5.0085069091
 30
0.0
 10
5.4602468681
 20
5.0082634088
 30
0.0
 10
5.4550276098
 20
5.0080195507
 30
0.0
 10
5.4492727017
 20
5.0077753898
 30
0.0
 10
5.4405631208
 20
5.0074365559
 30
0.0
 10
5.428432214
 20
5.007018753
 30
0.0
 10
5.4124528028
 20
5.0065330831
 30
0.0
 10
5.3946728725
 20
5.0060465242
 30
0.0
 10
5.3752348075
 20
5.0055592601
 30
0.0
 10
5.3542942688
 20
5.0050715215
 30
0.0
 10
5.3320189135
 20
5.0045834285
 30
0.0
 10
5.3085870858
 20
5.0040950808
 30
0.0
 10
5.2841864187
 20
5.0036065375
 30
0.0
 10
5.2502852841
 20
5.002948486
 30
0.0
 10
5.206998278
 20
5.0021359691
 30
0.0
 10
5.1549357098
 20
5.0011699166
 30
0.0
 10
5.1039172865
 20
5.0002044245
 30
0.0
 10
5.0627985459
 20
4.9993849612
 30
0.0
 10
5.0316449593
 20
4.9987197969
 30
0.0
 10
5.0100299838
 20
4.9982318565
 30
0.0
 10
4.9898369069
 20
4.9977443446
 30
0.0
 10
4.9712274135
 20
4.9972574094
 30
0.0
 10
4.9543505491
 20
4.99677126
 30
0.0
 10
4.9393413941
 20
4.9962863963
 30
0.0
 10
4.9263201542
 20
4.9958031018
 30
0.0
 10
4.9167611621
 20
4.9953837711
 30
0.0
 10
4.9101850855
 20
4.9950404296
 30
0.0
 10
4.9060792259
 20
4.9947974333
 30
0.0
 10
4.9025372819
 20
4.9945552092
 30
0.0
 10
4.9003660365
 20
4.9943793049
 30
0.0
 10
4.8993761243
 20
4.9942888199
 30
0.0
  0
SPLINE
  5
41C
100
AcDbEntity
  8
0
100
AcDbSpline
 62
7
  6
CONTINUOUS
 70
0
 71
3
 72
39
 73
35
 74
0
 42
0.0000001
 43
0.0000001
 44
0.0000000001
 40
0.0
 40
0.0
 40
0.0
 40
0.0
 40
0.0946363783
 40
0.1892554026
 40
0.2828187957
 40
0.3743076388
 40
0.4627211429
 40
0.5470939832
 40
0.626504513
 40
0.7000855403
 40
0.7344364359
 40
0.7670337145
 40
0.7977893848
 40
0.8266184875
 40
0.853443336
 40
0.8781900899
 40
0.9007920407
 40
0.9211873491
 40
0.9393210184
 40
0.9551443605
 40
0.9686150587
 40
0.9796988483
 40
0.9843365848
 40
0.9883685254
 40
0.9917931104
 40
0.9946095439
 40
0.995790065
 40
0.9968194504
 40
0.9976986742
 40
0.9984293842
 40
0.9990145749
 40
0.9992544403
 40
0.9994607175
 40
1.0
 40
1.0
 40
1.0
 40
1.0
 10
5.2177507636
 20
5.3812888199
 30
0.0
 10
5.2075050813
 20
5.3810969963
 30
0.0
 10
5.187015557
 20
5.3807154434
 30
0.0
 10
5.1563964991
 20
5.3801451385
 30
0.0
 10
5.1261183227
 20
5.3795749017
 30
0.0
 10
5.0965122145
 20
5.3790048134
 30
0.0
 10
5.0679014686
 20
5.378434954
 30
0.0
 10
5.0405988561
 20
5.3778654483
 30
0.0
 10
5.0149027017
 20
5.3772964108
 30
0.0
 10
4.9946225236
 20
5.3768123931
 30
0.0
 10
4.9794106515
 20
5.3764220968
 30
0.0
 10
4.9688348804
 20
5.3761361892
 30
0.0
 10
4.9588572505
 20
5.3758504039
 30
0.0
 10
4.9495049432
 20
5.3755647283
 30
0.0
 10
4.9408036155
 20
5.3752792282
 30
0.0
 10
4.9327769633
 20
5.3749939246
 30
0.0
 10
4.925446985
 20
5.374708906
 30
0.0
 10
4.918833664
 20
5.3744242682
 30
0.0
 10
4.9129550812
 20
5.374140142
 30
0.0
 10
4.9078272385
 20
5.3738568846
 30
0.0
 10
4.9034640775
 20
5.3735746264
 30
0.0
 10
4.9003124379
 20
5.3733289756
 30
0.0
 10
4.8981829642
 20
5.3731272654
 30
0.0
 10
4.8968809951
 20
5.3729855147
 30
0.0
 10
4.8957775488
 20
5.3728442836
 30
0.0
 10
4.8949832018
 20
5.372721298
 30
0.0
 10
4.8944483163
 20
5.3726204501
 30
0.0
 10
4.8941213664
 20
5.3725494575
 30
0.0
 10
4.8938444149
 20
5.3724787789
 30
0.0
 10
4.8936171477
 20
5.3724081851
 30
0.0
 10
4.8934604202
 20
5.3723467781
 30
0.0
 10
4.8933602925
 20
5.3722954138
 30
0.0
 10
4.893271722
 20
5.3722408203
 30
0.0
 10
4.8932006531
 20
5.3721722148
 30
0.0
 10
4.8932006554
 20
5.3721138199
 30
0.0
  0
SPLINE
  5
41D
100
AcDbEntity
  8
0
100
AcDbSpline
 62
7
  6
CONTINUOUS
 70
0
 71
3
 72
30
 73
26
 74
0
 42
0.0000001
 43
0.0000001
 44
0.0000000001
 40
0.0
 40
0.0
 40
0.0
 40
0.0
 40
0.1816472931
 40
0.2715942375
 40
0.3597566451
 40
0.4452498576
 40
0.5272193638
 40
0.6048447254
 40
0.677349583
 40
0.7440085581
 40
0.8041553159
 40
0.8571886628
 40
0.880869385
 40
0.9025795631
 40
0.9222647801
 40
0.9398762306
 40
0.9553709183
 40
0.9687103012
 40
0.9798636601
 40
0.9846119009
 40
0.9888046933
 40
0.9924404427
 40
0.99551799
 40
0.998037062
 40
1.0
 40
1.0
 40
1.0
 40
1.0
 10
5.2177507636
 20
5.3680388199
 30
0.0
 10
5.198138481
 20
5.3676716313
 30
0.0
 10
5.1688146086
 20
5.3671282553
 30
0.0
 10
5.1299720901
 20
5.3663978866
 30
0.0
 10
5.1015114221
 20
5.3658519982
 30
0.0
 10
5.07391238
 20
5.3653062883
 30
0.0
 10
5.0474514365
 20
5.3647608467
 30
0.0
 10
5.022393382
 20
5.3642157869
 30
0.0
 10
4.9989890831
 20
5.3636712538
 30
0.0
 10
4.9774727891
 20
5.3631275165
 30
0.0
 10
4.9580598937
 20
5.3625847929
 30
0.0
 10
4.9432878866
 20
5.3621181156
 30
0.0
 10
4.9326659863
 20
5.3617394566
 30
0.0
 10
4.9256438369
 20
5.3614665294
 30
0.0
 10
4.9192776206
 20
5.3611939391
 30
0.0
 10
4.9135832636
 20
5.3609217596
 30
0.0
 10
4.9085750095
 20
5.3606502808
 30
0.0
 10
4.904265287
 20
5.3603795895
 30
0.0
 10
4.9011162302
 20
5.3601445913
 30
0.0
 10
4.8989547655
 20
5.3599524515
 30
0.0
 10
4.8976034086
 20
5.3598164476
 30
0.0
 10
4.8964334695
 20
5.3596808266
 30
0.0
 10
4.8954455383
 20
5.3595458432
 30
0.0
 10
4.8946402185
 20
5.359411659
 30
0.0
 10
4.8941663556
 20
5.3593111883
 30
0.0
 10
4.8939611685
 20
5.3592579804
 30
0.0
  0
SPLINE
  5
41E
100
AcDbEntity
  8
0
100
AcDbSpline
 62
7
  6
CONTINUOUS
 70
0
 71
3
 72
63
 73
59
 74
0
 42
0.0000001
 43
0.0000001
 44
0.0000000001
 40
0.0
 40
0.0
 40
0.0
 40
0.0
 40
0.0010305488
 40
0.0023428763
 40
0.0039379092
 40
0.0058154627
 40
0.0079749741
 40
0.0104156864
 40
0.0161361879
 40
0.0229645197
 40
0.0308862536
 40
0.0398832882
 40
0.0499354205
 40
0.0610198261
 40
0.0731109087
 40
0.1002008843
 40
0.1309571577
 40
0.1650974078
 40
0.2023081681
 40
0.2422476303
 40
0.284548844
 40
0.3288231691
 40
0.3746637636
 40
0.4216493439
 40
0.4693481802
 40
0.5173217944
 40
0.5651293801
 40
0.6123315063
 40
0.6584944184
 40
0.7031939143
 40
0.7460192019
 40
0.7865768078
 40
0.8244940777
 40
0.8594226492
 40
0.8756647097
 40
0.8910418262
 40
0.9055184197
 40
0.9190613758
 40
0.9316397528
 40
0.9432244591
 40
0.9537894533
 40
0.9633100455
 40
0.9717652419
 40
0.979135424
 40
0.9854046854
 40
0.9905593093
 40
0.9927153186
 40
0.9945893618
 40
0.996180879
 40
0.9974896931
 40
0.9980383526
 40
0.9985168556
 40
0.9989256789
 40
0.9992656229
 40
0.9995381323
 40
0.9996499814
 40
0.9997463072
 40
1.0
 40
1.0
 40
1.0
 40
1.0
 10
5.5015297279
 20
5.0497056575
 30
0.0
 10
5.5013196525
 20
5.0496549398
 30
0.0
 10
5.5008375015
 20
5.0495588197
 30
0.0
 10
5.5000217229
 20
5.0494300842
 30
0.0
 10
5.4990265814
 20
5.0493006319
 30
0.0
 10
5.4978526392
 20
5.0491706148
 30
0.0
 10
5.4965004509
 20
5.049040252
 30
0.0
 10
5.4943439505
 20
5.0488562453
 30
0.0
 10
5.4912085239
 20
5.0486310552
 30
0.0
 10
5.4869235493
 20
5.0483715737
 30
0.0
 10
5.4819504284
 20
5.048111359
 30
0.0
 10
5.4763004972
 20
5.0478504953
 30
0.0
 10
5.4699867287
 20
5.047589244
 30
0.0
 10
5.463023638
 20
5.0473276782
 30
0.0
 10
5.4524889709
 20
5.0469647276
 30
0.0
 10
5.4378295563
 20
5.0465173354
 30
0.0
 10
5.4185465457
 20
5.0459971238
 30
0.0
 10
5.3971404921
 20
5.0454759494
 30
0.0
 10
5.3738081826
 20
5.0449540144
 30
0.0
 10
5.3487640959
 20
5.0444315729
 30
0.0
 10
5.3222384525
 20
5.0439087588
 30
0.0
 10
5.2944750911
 20
5.0433856799
 30
0.0
 10
5.2657292322
 20
5.0428624135
 30
0.0
 10
5.2362651241
 20
5.0423390218
 30
0.0
 10
5.206353644
 20
5.0418155566
 30
0.0
 10
5.1762697598
 20
5.0412920638
 30
0.0
 10
5.1462900535
 20
5.0407685875
 30
0.0
 10
5.1166901172
 20
5.0402451731
 30
0.0
 10
5.0877420634
 20
5.0397218703
 30
0.0
 10
5.0597120038
 20
5.0391987391
 30
0.0
 10
5.0328576107
 20
5.0386758497
 30
0.0
 10
5.0074257568
 20
5.0381533099
 30
0.0
 10
4.9836502431
 20
5.0376312161
 30
0.0
 10
4.9649733653
 20
5.037186625
 30
0.0
 10
4.9510225904
 20
5.0368281477
 30
0.0
 10
4.9413596439
 20
5.0365659251
 30
0.0
 10
4.9322629298
 20
5.0363037984
 30
0.0
 10
4.9237533799
 20
5.0360417853
 30
0.0
 10
4.9158505746
 20
5.0357799279
 30
0.0
 10
4.9085726246
 20
5.0355182479
 30
0.0
 10
4.901936346
 20
5.0352568428
 30
0.0
 10
4.8959568831
 20
5.0349957664
 30
0.0
 10
4.8906480749
 20
5.0347351873
 30
0.0
 10
4.8860219568
 20
5.0344753674
 30
0.0
 10
4.8820892038
 20
5.0342164987
 30
0.0
 10
4.8792501889
 20
5.0339911617
 30
0.0
 10
4.8773329802
 20
5.0338061509
 30
0.0
 10
4.8761612402
 20
5.0336761496
 30
0.0
 10
4.8751683846
 20
5.0335466175
 30
0.0
 10
4.8744537908
 20
5.0334338005
 30
0.0
 10
4.8739726964
 20
5.0333412955
 30
0.0
 10
4.8736786245
 20
5.033276173
 30
0.0
 10
4.8734295227
 20
5.033211335
 30
0.0
 10
4.8732251157
 20
5.0331465786
 30
0.0
 10
4.8730841626
 20
5.033090245
 30
0.0
 10
4.8729941827
 20
5.0330431655
 30
0.0
 10
4.8729141379
 20
5.0329928672
 30
0.0
 10
4.8728506554
 20
5.0329298883
 30
0.0
 10
4.8728506554
 20
5.0328766877
 30
0.0
  0
SPLINE
  5
41F
100
AcDbEntity
  8
0
100
AcDbSpline
 62
7
  6
CONTINUOUS
 70
0
 71
3
 72
63
 73
59
 74
0
 42
0.0000001
 43
0.0000001
 44
0.0000000001
 40
0.0
 40
0.0
 40
0.0
 40
0.0
 40
0.0010774659
 40
0.0024355598
 40
0.0040750795
 40
0.0059960702
 40
0.0081982057
 40
0.0106806765
 40
0.0164810537
 40
0.023385373
 40
0.0313789136
 40
0.0404433386
 40
0.0505588847
 40
0.0617019356
 40
0.07384763
 40
0.1010330026
 40
0.1318666774
 40
0.1660664642
 40
0.2033192144
 40
0.2432835104
 40
0.2855932038
 40
0.3298605359
 40
0.3756797588
 40
0.4226309939
 40
0.4702837443
 40
0.5182012673
 40
0.5659442372
 40
0.6130750447
 40
0.6591617031
 40
0.7037817454
 40
0.7465262068
 40
0.7870032932
 40
0.8248420443
 40
0.859695876
 40
0.8912455832
 40
0.9056900338
 40
0.919202442
 40
0.9317523554
 40
0.9433108893
 40
0.9538516426
 40
0.9633510057
 40
0.9717869444
 40
0.9791412306
 40
0.9853969907
 40
0.9905415048
 40
0.9926938632
 40
0.9945648662
 40
0.99615424
 40
0.9974622691
 40
0.998011128
 40
0.9984902209
 40
0.9989000472
 40
0.9992414731
 40
0.9995161304
 40
0.9997272831
 40
0.9998112416
 40
0.999882802
 40
1.0
 40
1.0
 40
1.0
 40
1.0
 10
5.4811485054
 20
5.0444215488
 30
0.0
 10
5.4809432425
 20
5.0443712691
 30
0.0
 10
5.4804749242
 20
5.0442755285
 30
0.0
 10
5.4796860051
 20
5.0441467886
 30
0.0
 10
5.4787299005
 20
5.0440173694
 30
0.0
 10
5.4776070798
 20
5.0438874359
 30
0.0
 10
5.4763180022
 20
5.0437571854
 30
0.0
 10
5.4742696864
 20
5.0435735719
 30
0.0
 10
5.471299292
 20
5.0433486668
 30
0.0
 10
5.4672478277
 20
5.0430894413
 30
0.0
 10
5.4625550769
 20
5.0428294929
 30
0.0
 10
5.4572316846
 20
5.0425689064
 30
0.0
 10
5.4512899148
 20
5.0423079681
 30
0.0
 10
5.4447432838
 20
5.0420466964
 30
0.0
 10
5.4348500456
 20
5.0416843201
 30
0.0
 10
5.4210953201
 20
5.0412375282
 30
0.0
 10
5.4030152032
 20
5.0407179201
 30
0.0
 10
5.3829597928
 20
5.0401973622
 30
0.0
 10
5.3611129999
 20
5.0396760576
 30
0.0
 10
5.3376751445
 20
5.039154253
 30
0.0
 10
5.3128611565
 20
5.0386320815
 30
0.0
 10
5.2868985629
 20
5.0381096486
 30
0.0
 10
5.2600254166
 20
5.0375870311
 30
0.0
 10
5.2324881439
 20
5.0370642904
 30
0.0
 10
5.2045392451
 20
5.0365414776
 30
0.0
 10
5.1764350311
 20
5.0360186383
 30
0.0
 10
5.1484332069
 20
5.0354958161
 30
0.0
 10
5.1207905455
 20
5.0349730564
 30
0.0
 10
5.0937605159
 20
5.0344504091
 30
0.0
 10
5.067590974
 20
5.0339279325
 30
0.0
 10
5.0425219005
 20
5.0334057016
 30
0.0
 10
5.0187831863
 20
5.0328838072
 30
0.0
 10
4.9965925028
 20
5.0323624001
 30
0.0
 10
4.9761533168
 20
5.0318416159
 30
0.0
 10
4.9603022314
 20
5.0313963565
 30
0.0
 10
4.9486363105
 20
5.0310366236
 30
0.0
 10
4.9406957244
 20
5.0307749285
 30
0.0
 10
4.9333214973
 20
5.0305133992
 30
0.0
 10
4.9265305098
 20
5.0302520596
 30
0.0
 10
4.9203383205
 20
5.0299909624
 30
0.0
 10
4.9147591666
 20
5.0297302401
 30
0.0
 10
4.9098057359
 20
5.0294699547
 30
0.0
 10
4.9054894242
 20
5.0292104905
 30
0.0
 10
4.9018199895
 20
5.0289519265
 30
0.0
 10
4.8991711703
 20
5.0287268536
 30
0.0
 10
4.897382476
 20
5.0285420972
 30
0.0
 10
4.89628923
 20
5.0284122452
 30
0.0
 10
4.8953628955
 20
5.0282828501
 30
0.0
 10
4.8946962243
 20
5.0281701866
 30
0.0
 10
4.8942474074
 20
5.0280778306
 30
0.0
 10
4.8939729431
 20
5.0280128116
 30
0.0
 10
4.8937404274
 20
5.0279479847
 30
0.0
 10
4.8935496493
 20
5.0278834441
 30
0.0
 10
4.8934005206
 20
5.0278191468
 30
0.0
 10
4.8933035386
 20
5.0277622918
 30
0.0
 10
4.8932490516
 20
5.0277148557
 30
0.0
 10
4.8932147046
 20
5.0276738633
 30
0.0
 10
4.8932007714
 20
5.0276368068
 30
0.0
 10
4.893200772
 20
5.0276138199
 30
0.0
  0
ELLIPSE
  5
420
100
AcDbEntity
  8
0
100
AcDbEllipse
 62
7
  6
CONTINUOUS
 10
5.0488764424
 20
4.6575388199
 30
0.0
 11
-0.0398102322
 21
0.0
 31
0.0
 40
0.5023834047
 41
0.0
 42
1.5707963268
  0
ELLIPSE
  5
421
100
AcDbEntity
  8
0
100
AcDbEllipse
 62
7
  6
CONTINUOUS
 10
5.3263248683
 20
4.6575388199
 30
0.0
 11
-0.0398102322
 21
0.0
 31
0.0
 40
0.5023834047
 41
1.5707963268
 42
3.1415926536
  0
ELLIPSE
  5
422
100
AcDbEntity
  8
0
100
AcDbEllipse
 62
7
  6
CONTINUOUS
 10
4.9498679598
 20
4.6575388199
 30
0.0
 11
0.020289227
 21
0.0
 31
0.0
 40
0.985744801
 41
-1.5707963268
 42
0.0
  0
ELLIPSE
  5
423
100
AcDbEntity
  8
0
100
AcDbEllipse
 62
7
  6
CONTINUOUS
 10
5.4253333509
 20
4.6575388199
 30
0.0
 11
0.020289227
 21
0.0
 31
0.0
 40
0.985744801
 41
-3.1415926536
 42
-1.5707963268
  0
ENDSEC
  0
SECTION
  2
OBJECTS
  0
DICTIONARY
  5
C
100
AcDbDictionary
280
0
281
1
  3
ACAD_GROUP
350
D
  3
ACAD_MLINESTYLE
350
17
  3
ACAD_LAYOUT
350
1A
  3
ACAD_PLOTSETTINGS
350
19
  3
ACAD_PLOTSTYLENAME
350
E
  0
DICTIONARY
  5
D
102
{ACAD_REACTORS
330
C
102
}
100
AcDbDictionary
280
0
281
1
  0
ACDBDICTIONARYWDFLT
  5
E
102
{ACAD_REACTORS
330
C
102
}
100
AcDbDictionary
281
1
  3
Normal
350
F
100
AcDbDictionaryWithDefault
340
F
  0
DICTIONARY
  5
17
102
{ACAD_REACTORS
330
C
102
}
100
AcDbDictionary
280
0
281
1
  3
Standard
350
18
  0
DICTIONARY
  5
19
102
{ACAD_REACTORS
330
C
102
}
100
AcDbDictionary
281
1
  0
DICTIONARY
  5
1A
102
{ACAD_REACTORS
330
C
102
}
100
AcDbDictionary
281
1
  3
Model
350
424
  3
Layout1
350
425
  0
ACDBPLACEHOLDER
  5
F
102
{ACAD_REACTORS
330
E
102
}
  0
MLINESTYLE
  5
18
102
{ACAD_REACTORS
330
17
102
}
100
AcDbMlineStyle
  2
STANDARD
 70
0
  3

 62
256
 51
90.0
 52
90.0
 71
2
 49
0.5
 62
256
  6
BYLAYER
 49
-0.5
 62
256
  6
BYLAYER
  0
LAYOUT
  5
424
102
{ACAD_REACTORS
330
1A
102
}
100
AcDbPlotSettings
  1

  2
none_device
  4
ANSI_A_(11.00_x_8.50_Inches)
  6

 40
0.0
 41
0.0
 42
0.0
 43
0.0
 44
279.4
 45
215.9
 46
0.0
 47
0.0
 48
0.0
 49
0.0
140
0.0
141
0.0
142
1.0
143
1.0
 70
1024
 72
0
 73
0
 74
0
  7

 75
0
147
1.0
148
0.0
149
0.0
100
AcDbLayout
  1
Model
 70
0
 71
0
 10
0.0
 20
0.0
 11
11.0
 21
8.5
 12
0.0
 22
0.0
 32
0.0
 14
0.0
 24
0.0
 34
0.0
 15
0.0
 25
0.0
 35
0.0
146
0.0
 13
0.0
 23
0.0
 33
0.0
 16
1.0
 26
0.0
 36
0.0
 17
0.0
 27
1.0
 37
0.0
 76
0
330
202
345
0
346
0
  0
LAYOUT
  5
425
102
{ACAD_REACTORS
330
1A
102
}
100
AcDbPlotSettings
  1

  2
none_device
  4
ANSI_A_(11.00_x_8.50_Inches)
  6

 40
0.0
 41
0.0
 42
0.0
 43
0.0
 44
279.4
 45
215.9
 46
0.0
 47
0.0
 48
0.0
 49
0.0
140
0.0
141
0.0
142
1.0
143
1.0
 70
0
 72
0
 73
0
 74
0
  7

 75
0
147
1.0
148
0.0
149
0.0
100
AcDbLayout
  1
Layout1
 70
0
 71
1
 10
0.0
 20
0.0
 11
11.0
 21
8.5
 12
0.0
 22
0.0
 32
0.0
 14
0.0
 24
0.0
 34
0.0
 15
0.0
 25
0.0
 35
0.0
146
0.0
 13
0.0
 23
0.0
 33
0.0
 16
1.0
 26
0.0
 36
0.0
 17
0.0
 27
1.0
 37
0.0
 76
0
330
203
345
0
346
0
  0
ENDSEC
  0
EOF
