999
DXF file: E:\BT Custom\CADOUTPUT\_RIGHT.dxf
999
Pro/ENGINEER 2018400 by Parametric Technology Corporation
  0
SECTION
  2
HEADER
  9
$ACADVER
  1
AC1018
  9
$DWGCODEPAGE
  3
ANSI_1252
  9
$EXTMAX
 10
22.0
 20
17.0
 30
0.0
  9
$EXTMIN
 10
0.0
 20
0.0
 30
0.0
  9
$LIMMIN
 10
0.0
 20
0.0
  9
$LIMMAX
 10
22.0
 20
17.0
  9
$VIEWCTR
 10
11.0
 20
8.5
  9
$VIEWSIZE
 40
17.0
  9
$CLAYER
  8
0
  9
$LTSCALE
 40
1.21
  9
$CELTYPE
  6
BYLAYER
  9
$DIMSCALE
 40
1.0
  9
$DIMASZ
 40
0.1
  9
$DIMEXO
 40
0.0625
  9
$DIMDLI
 40
0.836
  9
$DIMEXE
 40
0.125
  9
$DIMCEN
 40
0.198
  9
$DIMLFAC
 40
1.0
  9
$DIMBLK
  1
_FILLED
  9
$DIMALT
 70
1
  9
$DIMALTD
 70
2
  9
$DIMALTTD
 70
2
  9
$DIMALTF
 40
25.4
  9
$DIMTXT
 40
0.08
  9
$DIMTOL
 70
1
  9
$DIMLIM
 70
0
  9
$DIMTFAC
 40
1.0
  9
$DIMTP
 40
0.001
  9
$DIMTM
 40
0.001
  9
$DIMGAP
 40
0.09
  9
$DIMDSEP
 70
46
  9
$AUNITS
 70
0
  9
$PDMODE
 70
3
  9
$PDSIZE
 40
0.06
  9
$HANDSEED
  5
298
  9
$TILEMODE
 70
1
  9
$MEASUREMENT
 70
0
  9
$INSUNITS
 70
1
  0
ENDSEC
  0
SECTION
  2
CLASSES
  0
CLASS
  1
ACDBDICTIONARYWDFLT
  2
AcDbDictionaryWithDefault
  3
AutoCAD 2000
 90
0
 91
1
280
0
281
0
  0
CLASS
  1
ACDBPLACEHOLDER
  2
AcDbPlaceHolder
  3
AutoCAD 2000
 90
0
 91
1
280
0
281
0
  0
CLASS
  1
LAYOUT
  2
AcDbLayout
  3
AutoCAD 2000
 90
0
 91
0
280
0
281
0
  0
ENDSEC
  0
SECTION
  2
TABLES
  0
TABLE
  2
VPORT
  5
8
100
AcDbSymbolTable
 70
2
  0
VPORT
  5
1F4
100
AcDbSymbolTableRecord
100
AcDbViewportTableRecord
  2
*ACTIVE
 70
0
 10
0.0
 20
0.0
 11
1.0
 21
1.0
 12
11.0
 22
8.5
 13
0.0
 23
0.0
 14
1.0
 24
1.0
 15
0.0
 25
0.0
 16
0.0
 26
0.0
 36
1.0
 17
0.0
 27
0.0
 37
0.0
 40
17.0
 41
1.2941176471
 42
50.0
 43
0.0
 44
0.0
 50
0.0
 51
0.0
 71
0
 72
100
 73
1
 74
1
 75
0
 76
0
 77
0
 78
0
  0
ENDTAB
  0
TABLE
  2
LTYPE
  5
5
100
AcDbSymbolTable
 70
6
  0
LTYPE
  5
14
100
AcDbSymbolTableRecord
100
AcDbLinetypeTableRecord
  2
BYBLOCK
 70
0
  3

 72
65
 73
0
 40
0.0
  0
LTYPE
  5
15
100
AcDbSymbolTableRecord
100
AcDbLinetypeTableRecord
  2
BYLAYER
 70
0
  3

 72
65
 73
0
 40
0.0
  0
LTYPE
  5
16
100
AcDbSymbolTableRecord
100
AcDbLinetypeTableRecord
  2
CONTINUOUS
 70
64
  3
Solid line
 72
65
 73
0
 40
0.0
  0
LTYPE
  5
1F5
100
AcDbSymbolTableRecord
100
AcDbLinetypeTableRecord
  2
CENTER
 70
64
  3
____ _ ____ _ ____ _ ____ _ ____ _ ____ _ ____
 72
65
 73
4
 40
0.6
 49
0.375
 74
0
 49
-0.075
 74
0
 49
0.075
 74
0
 49
-0.075
 74
0
  0
LTYPE
  5
1F6
100
AcDbSymbolTableRecord
100
AcDbLinetypeTableRecord
  2
HIDDEN
 70
64
  3
- - - - - - - - - - - - - - - - - - - -
 72
65
 73
2
 40
0.2
 49
0.1
 74
0
 49
-0.1
 74
0
  0
LTYPE
  5
1F7
100
AcDbSymbolTableRecord
100
AcDbLinetypeTableRecord
  2
PHANTOM
 70
64
  3
_____ _ _ _____ _ _ _____ _ _ _____
 72
65
 73
6
 40
0.8
 49
0.45
 74
0
 49
-0.05
 74
0
 49
0.1
 74
0
 49
-0.05
 74
0
 49
0.1
 74
0
 49
-0.05
 74
0
  0
LTYPE
  5
1F8
100
AcDbSymbolTableRecord
100
AcDbLinetypeTableRecord
  2
DOT
 70
64
  3
. . . . . . . . . . . . . . . . . . . .
 72
65
 73
2
 40
0.2
 49
0.1
 74
0
 49
-0.1
 74
0
  0
LTYPE
  5
1F9
100
AcDbSymbolTableRecord
100
AcDbLinetypeTableRecord
  2
DASHED
 70
64
  3
- - - - - - - - - - - - - - - - - - - -
 72
65
 73
2
 40
0.2
 49
0.1
 74
0
 49
-0.1
 74
0
  0
ENDTAB
  0
TABLE
  2
LAYER
  5
2
100
AcDbSymbolTable
 70
36
  0
LAYER
  5
10
100
AcDbSymbolTableRecord
100
AcDbLayerTableRecord
  2
0
 70
0
 62
7
  6
CONTINUOUS
370
-3
390
F
  0
LAYER
  5
1FA
100
AcDbSymbolTableRecord
100
AcDbLayerTableRecord
  2
DEFAULT_1
 70
0
 62
7
  6
CENTER
370
-3
390
F
  0
LAYER
  5
1FB
100
AcDbSymbolTableRecord
100
AcDbLayerTableRecord
  2
DEFAULT_2
 70
0
 62
8
  6
HIDDEN
370
-3
390
F
  0
LAYER
  5
1FC
100
AcDbSymbolTableRecord
100
AcDbLayerTableRecord
  2
DEFAULT_3
 70
0
 62
7
  6
PHANTOM
370
-3
390
F
  0
LAYER
  5
1FD
100
AcDbSymbolTableRecord
100
AcDbLayerTableRecord
  2
ALL_FEATURES
 70
0
 62
7
  6
CONTINUOUS
370
-3
390
F
  0
LAYER
  5
1FE
100
AcDbSymbolTableRecord
100
AcDbLayerTableRecord
  2
AXES_FEATURES
 70
0
 62
7
  6
CONTINUOUS
370
-3
390
F
  0
LAYER
  5
1FF
100
AcDbSymbolTableRecord
100
AcDbLayerTableRecord
  2
DEFAULT_COORDINATE_SYSTEM
 70
0
 62
7
  6
CONTINUOUS
370
-3
390
F
  0
LAYER
  5
200
100
AcDbSymbolTableRecord
100
AcDbLayerTableRecord
  2
DEFAULT_DATUM_AXES
 70
0
 62
7
  6
CONTINUOUS
370
-3
390
F
  0
LAYER
  5
201
100
AcDbSymbolTableRecord
100
AcDbLayerTableRecord
  2
DEFAULT_DATUM_PLANES
 70
0
 62
7
  6
CONTINUOUS
370
-3
390
F
  0
LAYER
  5
202
100
AcDbSymbolTableRecord
100
AcDbLayerTableRecord
  2
DIMENSIONS
 70
0
 62
7
  6
CONTINUOUS
370
-3
390
F
  0
ENDTAB
  0
TABLE
  2
STYLE
  5
3
100
AcDbSymbolTable
 70
1
  0
STYLE
  5
11
100
AcDbSymbolTableRecord
100
AcDbTextStyleTableRecord
  2
STANDARD
 70
0
 40
0.0
 41
0.8
 50
0.0
 71
0
 42
0.2
  3
txt
  4

  0
STYLE
  5
203
100
AcDbSymbolTableRecord
100
AcDbTextStyleTableRecord
  2
TEXTSTYLE_1
 70
0
 40
0.0
 41
0.8
 50
0.0
 71
0
 42
0.2
  3
gdt
  4

  0
ENDTAB
  0
TABLE
  2
VIEW
  5
6
100
AcDbSymbolTable
 70
0
  0
ENDTAB
  0
TABLE
  2
UCS
  5
7
100
AcDbSymbolTable
 70
0
  0
ENDTAB
  0
TABLE
  2
APPID
  5
9
100
AcDbSymbolTable
 70
1
  0
APPID
  5
204
100
AcDbSymbolTableRecord
100
AcDbRegAppTableRecord
  2
ACAD
 70
0
  0
ENDTAB
  0
TABLE
  2
BLOCK_RECORD
  5
1
100
AcDbSymbolTable
 70
0
  0
BLOCK_RECORD
  5
205
100
AcDbSymbolTableRecord
100
AcDbBlockTableRecord
  2
*Model_Space
  0
BLOCK_RECORD
  5
206
100
AcDbSymbolTableRecord
100
AcDbBlockTableRecord
  2
*Paper_Space
  0
BLOCK_RECORD
  5
207
100
AcDbSymbolTableRecord
100
AcDbBlockTableRecord
  2
_FILLED
  0
ENDTAB
  0
TABLE
  2
DIMSTYLE
  5
A
100
AcDbSymbolTable
 70
1
100
AcDbDimStyleTable
 71
0
  0
DIMSTYLE
105
208
100
AcDbSymbolTableRecord
100
AcDbDimStyleTableRecord
  2
STANDARD
 70
0
  3

  4

 40
1.0
 41
0.1
 42
0.0625
 43
0.38
 44
0.125
 45
0.0
 46
0.0
 47
0.001
 48
0.001
140
0.08
141
0.09
142
0.0
143
25.4
144
1.0
145
0.0
146
1.0
147
0.09
 71
1.0
 72
0.0
 73
1
 74
1
 75
0
 76
0
 77
0
 78
4
 79
1
170
1
171
2
172
0
173
0
174
0
175
0
176
0
177
0
178
0
270
2
179
3
271
3
272
3
273
2
274
2
275
0
280
0
281
0
282
0
283
1
284
4
285
0
286
0
287
3
288
0
340
11
278
46
341
207
342
207
343
207
344
207
  0
ENDTAB
  0
ENDSEC
  0
SECTION
  2
BLOCKS
  0
BLOCK
  5
20
100
AcDbEntity
  8
0
100
AcDbBlockBegin
  2
*Model_Space
 70
0
 10
0.0
 20
0.0
 30
0.0
  3
*Model_Space
  1

  0
ENDBLK
  5
21
100
AcDbEntity
  8
0
100
AcDbBlockEnd
  0
BLOCK
  5
1C
100
AcDbEntity
  8
0
100
AcDbBlockBegin
  2
*Paper_Space
 70
0
 10
0.0
 20
0.0
 30
0.0
  3
*Paper_Space
  1

  0
ENDBLK
  5
1D
100
AcDbEntity
  8
0
100
AcDbBlockEnd
  0
BLOCK
  5
209
100
AcDbEntity
  8
0
100
AcDbBlockBegin
  2
_FILLED
 70
64
 10
0.0
 20
0.0
  3
_FILLED
  1

  0
SOLID
  5
20A
100
AcDbEntity
  8
0
  6
BYBLOCK
 62
0
100
AcDbTrace
 10
0.0
 20
0.0
 11
-1.0
 21
0.2
 12
-1.0
 22
-0.2
 13
-1.0
 23
-0.2
  0
ENDBLK
  5
20B
100
AcDbEntity
  8
0
  6
BYBLOCK
 62
0
100
AcDbBlockEnd
  0
ENDSEC
  0
SECTION
  2
ENTITIES
  0
LINE
  5
20C
100
AcDbEntity
  8
0
100
AcDbLine
 62
7
  6
CONTINUOUS
 10
8.4815092263
 20
9.6337452321
 11
8.3780331601
 21
9.498864901
  0
LINE
  5
20D
100
AcDbEntity
  8
0
100
AcDbLine
 62
7
  6
CONTINUOUS
 10
8.8782160825
 20
9.3294038609
 11
8.7747400163
 21
9.1945235298
  0
LINE
  5
20E
100
AcDbEntity
  8
0
100
AcDbLine
 62
9
  6
CONTINUOUS
 10
9.4732763668
 20
9.622891804
 11
9.4732763668
 21
10.122891804
  0
LINE
  5
20F
100
AcDbEntity
  8
0
100
AcDbLine
 62
7
  6
CONTINUOUS
 10
12.9548178415
 20
7.801891804
 11
11.1614343703
 21
7.801891804
  0
LINE
  5
210
100
AcDbEntity
  8
0
100
AcDbLine
 62
9
  6
CONTINUOUS
 10
12.9713063531
 20
7.8042018657
 11
11.1449458586
 21
7.8042018657
  0
LINE
  5
211
100
AcDbEntity
  8
0
100
AcDbLine
 62
9
  6
CONTINUOUS
 10
11.0816886072
 20
7.8239812129
 11
11.1026951021
 21
7.8239812129
  0
LINE
  5
212
100
AcDbEntity
  8
0
100
AcDbLine
 62
9
  6
CONTINUOUS
 10
11.405950467
 20
7.8239812129
 11
11.7548707409
 21
7.8239812129
  0
LINE
  5
213
100
AcDbEntity
  8
0
100
AcDbLine
 62
9
  6
CONTINUOUS
 10
12.3613814708
 20
7.8239812129
 11
12.7103017447
 21
7.8239812129
  0
LINE
  5
214
100
AcDbEntity
  8
0
100
AcDbLine
 62
9
  6
CONTINUOUS
 10
13.0135571097
 20
7.8239812129
 11
13.0345636046
 21
7.8239812129
  0
LINE
  5
215
100
AcDbEntity
  8
0
100
AcDbLine
 62
9
  6
CONTINUOUS
 10
11.0681261059
 20
7.8429168568
 11
11.0894243764
 21
7.8429168568
  0
LINE
  5
216
100
AcDbEntity
  8
0
100
AcDbLine
 62
9
  6
CONTINUOUS
 10
11.3968918914
 20
7.8429168568
 11
11.7506585909
 21
7.8429168568
  0
LINE
  5
217
100
AcDbEntity
  8
0
100
AcDbLine
 62
9
  6
CONTINUOUS
 10
12.3655936209
 20
7.8429168568
 11
12.7193603204
 21
7.8429168568
  0
LINE
  5
218
100
AcDbEntity
  8
0
100
AcDbLine
 62
9
  6
CONTINUOUS
 10
13.0268278354
 20
7.8429168568
 11
13.0481261059
 21
7.8429168568
  0
LINE
  5
219
100
AcDbEntity
  8
0
100
AcDbLine
 62
7
  6
CONTINUOUS
 10
8.7326771226
 20
9.1889816007
 11
8.3835750892
 21
9.4568020074
  0
LINE
  5
21A
100
AcDbEntity
  8
0
100
AcDbLine
 62
9
  6
CONTINUOUS
 10
8.7747400163
 20
9.1945235298
 11
8.3780331601
 21
9.498864901
  0
LINE
  5
21B
100
AcDbEntity
  8
0
100
AcDbLine
 62
9
  6
CONTINUOUS
 10
13.0481261059
 20
8.1108667513
 11
13.0268278354
 21
8.1108667513
  0
LINE
  5
21C
100
AcDbEntity
  8
0
100
AcDbLine
 62
9
  6
CONTINUOUS
 10
12.7193603204
 20
8.1108667513
 11
12.3655936209
 21
8.1108667513
  0
LINE
  5
21D
100
AcDbEntity
  8
0
100
AcDbLine
 62
9
  6
CONTINUOUS
 10
11.7506585909
 20
8.1108667513
 11
11.3968918914
 21
8.1108667513
  0
LINE
  5
21E
100
AcDbEntity
  8
0
100
AcDbLine
 62
9
  6
CONTINUOUS
 10
11.0894243764
 20
8.1108667513
 11
11.0681261059
 21
8.1108667513
  0
LINE
  5
21F
100
AcDbEntity
  8
0
100
AcDbLine
 62
9
  6
CONTINUOUS
 10
13.0345636046
 20
8.1298023952
 11
13.0135571097
 21
8.1298023952
  0
LINE
  5
220
100
AcDbEntity
  8
0
100
AcDbLine
 62
9
  6
CONTINUOUS
 10
12.7103017447
 20
8.1298023952
 11
12.3613814708
 21
8.1298023952
  0
LINE
  5
221
100
AcDbEntity
  8
0
100
AcDbLine
 62
9
  6
CONTINUOUS
 10
11.7548707409
 20
8.1298023952
 11
11.405950467
 21
8.1298023952
  0
LINE
  5
222
100
AcDbEntity
  8
0
100
AcDbLine
 62
9
  6
CONTINUOUS
 10
11.1026951021
 20
8.1298023952
 11
11.0816886072
 21
8.1298023952
  0
LINE
  5
223
100
AcDbEntity
  8
0
100
AcDbLine
 62
9
  6
CONTINUOUS
 10
11.1449458586
 20
8.1495817424
 11
12.9713063531
 21
8.1495817424
  0
LINE
  5
224
100
AcDbEntity
  8
0
100
AcDbLine
 62
7
  6
CONTINUOUS
 10
11.1614343703
 20
8.151891804
 11
12.9548178415
 21
8.151891804
  0
LINE
  5
225
100
AcDbEntity
  8
0
100
AcDbLine
 62
9
  6
CONTINUOUS
 10
8.8782160825
 20
9.3294038609
 11
8.4815092263
 21
9.6337452321
  0
LINE
  5
226
100
AcDbEntity
  8
0
100
AcDbLine
 62
7
  6
CONTINUOUS
 10
11.2031261059
 20
8.226891804
 11
12.9131261059
 21
8.226891804
  0
LINE
  5
227
100
AcDbEntity
  8
0
100
AcDbLine
 62
7
  6
CONTINUOUS
 10
11.343129878
 20
8.822891804
 11
12.7731223337
 21
8.822891804
  0
LINE
  5
228
100
AcDbEntity
  8
0
100
AcDbLine
 62
7
  6
CONTINUOUS
 10
11.0681261059
 20
7.8429168568
 11
11.0681261059
 21
8.1108667513
  0
LINE
  5
229
100
AcDbEntity
  8
0
100
AcDbLine
 62
9
  6
CONTINUOUS
 10
11.0894243764
 20
8.1108667513
 11
11.0894243764
 21
7.8429168568
  0
LINE
  5
22A
100
AcDbEntity
  8
0
100
AcDbLine
 62
9
  6
CONTINUOUS
 10
11.0984212717
 20
8.1118109586
 11
11.0984212717
 21
7.8419726495
  0
LINE
  5
22B
100
AcDbEntity
  8
0
100
AcDbLine
 62
7
  6
CONTINUOUS
 10
11.2031261059
 20
8.151891804
 11
11.2031261059
 21
8.226891804
  0
LINE
  5
22C
100
AcDbEntity
  8
0
100
AcDbLine
 62
7
  6
CONTINUOUS
 10
11.3431261059
 20
8.822891804
 11
11.3431261059
 21
9.562891804
  0
LINE
  5
22D
100
AcDbEntity
  8
0
100
AcDbLine
 62
9
  6
CONTINUOUS
 10
11.3810429269
 20
7.8419726495
 11
11.3810429269
 21
8.1118109586
  0
LINE
  5
22E
100
AcDbEntity
  8
0
100
AcDbLine
 62
9
  6
CONTINUOUS
 10
11.3968918914
 20
7.8429168568
 11
11.3968918914
 21
8.1108667513
  0
LINE
  5
22F
100
AcDbEntity
  8
0
100
AcDbLine
 62
7
  6
CONTINUOUS
 10
11.2831261059
 20
9.622891804
 11
9.4732763668
 21
9.622891804
  0
LINE
  5
230
100
AcDbEntity
  8
0
100
AcDbLine
 62
7
  6
CONTINUOUS
 10
11.4531261059
 20
8.226891804
 11
11.4531261059
 21
8.822891804
  0
LINE
  5
231
100
AcDbEntity
  8
0
100
AcDbLine
 62
9
  6
CONTINUOUS
 10
11.7755044507
 20
8.1118109586
 11
11.773635703
 21
8.1307608655
  0
LINE
  5
232
100
AcDbEntity
  8
0
100
AcDbLine
 62
9
  6
CONTINUOUS
 10
11.7506585909
 20
8.1108667513
 11
11.7506585909
 21
7.8429168568
  0
LINE
  5
233
100
AcDbEntity
  8
0
100
AcDbLine
 62
9
  6
CONTINUOUS
 10
11.7755044507
 20
8.1118109586
 11
11.7755044507
 21
7.8419726495
  0
LINE
  5
234
100
AcDbEntity
  8
0
100
AcDbLine
 62
9
  6
CONTINUOUS
 10
11.7755044507
 20
7.8419726495
 11
11.773635703
 21
7.8230227426
  0
LINE
  5
235
100
AcDbEntity
  8
0
100
AcDbLine
 62
7
  6
CONTINUOUS
 10
11.2906644097
 20
10.122891804
 11
9.4732763668
 21
10.122891804
  0
LINE
  5
236
100
AcDbEntity
  8
0
100
AcDbLine
 62
9
  6
CONTINUOUS
 10
12.7731261059
 20
10.1410305226
 11
11.3576793467
 21
10.1410305226
  0
LINE
  5
237
100
AcDbEntity
  8
0
100
AcDbLine
 62
9
  6
CONTINUOUS
 10
12.7162131499
 20
10.2009510546
 11
11.4000390618
 21
10.2009510546
  0
LINE
  5
238
100
AcDbEntity
  8
0
100
AcDbLine
 62
9
  6
CONTINUOUS
 10
12.3407477611
 20
7.8419726495
 11
12.3426165088
 21
7.8230227426
  0
LINE
  5
239
100
AcDbEntity
  8
0
100
AcDbLine
 62
9
  6
CONTINUOUS
 10
12.3407477611
 20
7.8419726495
 11
12.3407477611
 21
8.1118109586
  0
LINE
  5
23A
100
AcDbEntity
  8
0
100
AcDbLine
 62
9
  6
CONTINUOUS
 10
12.3655936209
 20
7.8429168568
 11
12.3655936209
 21
8.1108667513
  0
LINE
  5
23B
100
AcDbEntity
  8
0
100
AcDbLine
 62
9
  6
CONTINUOUS
 10
12.3407477611
 20
8.1118109586
 11
12.3426165088
 21
8.1307608655
  0
LINE
  5
23C
100
AcDbEntity
  8
0
100
AcDbLine
 62
7
  6
CONTINUOUS
 10
12.6631261059
 20
8.226891804
 11
12.6631261059
 21
8.822891804
  0
LINE
  5
23D
100
AcDbEntity
  8
0
100
AcDbLine
 62
9
  6
CONTINUOUS
 10
12.7193603204
 20
8.1108667513
 11
12.7193603204
 21
7.8429168568
  0
LINE
  5
23E
100
AcDbEntity
  8
0
100
AcDbLine
 62
9
  6
CONTINUOUS
 10
12.7352092848
 20
8.1118109586
 11
12.7352092848
 21
7.8419726495
  0
LINE
  5
23F
100
AcDbEntity
  8
0
100
AcDbLine
 62
7
  6
CONTINUOUS
 10
12.7731261059
 20
8.822891804
 11
12.7731261059
 21
10.1410305226
  0
LINE
  5
240
100
AcDbEntity
  8
0
100
AcDbLine
 62
7
  6
CONTINUOUS
 10
12.9131261059
 20
8.151891804
 11
12.9131261059
 21
8.226891804
  0
LINE
  5
241
100
AcDbEntity
  8
0
100
AcDbLine
 62
9
  6
CONTINUOUS
 10
13.0178309401
 20
7.8419726495
 11
13.0178309401
 21
8.1118109586
  0
LINE
  5
242
100
AcDbEntity
  8
0
100
AcDbLine
 62
9
  6
CONTINUOUS
 10
13.0268278354
 20
7.8429168568
 11
13.0268278354
 21
8.1108667513
  0
LINE
  5
243
100
AcDbEntity
  8
0
100
AcDbLine
 62
7
  6
CONTINUOUS
 10
13.0481261059
 20
7.8429168568
 11
13.0481261059
 21
8.1108667513
  0
ARC
  5
244
100
AcDbEntity
  8
0
100
AcDbCircle
 62
7
  6
CONTINUOUS
 10
12.0581261059
 20
-2.572733196
 40
12.790625
100
AcDbArc
 50
87.0507879325
 51
92.9492120675
  0
ARC
  5
245
100
AcDbEntity
  8
0
100
AcDbCircle
 62
7
  6
CONTINUOUS
 10
12.6019636928
 20
6.8573271238
 40
1.344
100
AcDbArc
 50
71.2236490742
 51
74.0493960495
  0
ARC
  5
246
100
AcDbEntity
  8
0
100
AcDbCircle
 62
7
  6
CONTINUOUS
 10
11.5142885189
 20
6.8573271238
 40
1.344
100
AcDbArc
 50
105.9506039505
 51
108.7763509258
  0
ARC
  5
247
100
AcDbEntity
  8
0
100
AcDbCircle
 62
7
  6
CONTINUOUS
 10
11.5142885189
 20
9.0964564843
 40
1.344
100
AcDbArc
 50
251.2236490742
 51
254.0493960495
  0
ARC
  5
248
100
AcDbEntity
  8
0
100
AcDbCircle
 62
7
  6
CONTINUOUS
 10
12.6019636928
 20
9.0964564843
 40
1.344
100
AcDbArc
 50
285.9506039505
 51
288.7763509258
  0
ARC
  5
249
100
AcDbEntity
  8
0
100
AcDbCircle
 62
7
  6
CONTINUOUS
 10
9.4732763668
 20
8.872891804
 40
1.25
100
AcDbArc
 50
90.0
 51
142.5056825053
  0
ARC
  5
24A
100
AcDbEntity
  8
0
100
AcDbCircle
 62
7
  6
CONTINUOUS
 10
9.4732763668
 20
8.872891804
 40
0.75
100
AcDbArc
 50
90.0
 51
142.5056825053
  0
ARC
  5
24B
100
AcDbEntity
  8
0
100
AcDbCircle
 62
9
  6
CONTINUOUS
 10
11.7502210745
 20
8.4497484775
 40
0.3388820087
100
AcDbArc
 50
270.0739721944
 51
274.2787106518
  0
ARC
  5
24C
100
AcDbEntity
  8
0
100
AcDbCircle
 62
9
  6
CONTINUOUS
 10
12.3660311372
 20
7.5040351306
 40
0.3388820087
100
AcDbArc
 50
90.0739721943
 51
94.2787106518
  0
ARC
  5
24D
100
AcDbEntity
  8
0
100
AcDbCircle
 62
9
  6
CONTINUOUS
 10
11.7502210852
 20
7.5040354101
 40
0.3388817291
100
AcDbArc
 50
85.721287613
 51
89.9260295409
  0
ARC
  5
24E
100
AcDbEntity
  8
0
100
AcDbCircle
 62
9
  6
CONTINUOUS
 10
12.3660311266
 20
8.449748198
 40
0.3388817291
100
AcDbArc
 50
265.7212876129
 51
269.9260295409
  0
ARC
  5
24F
100
AcDbEntity
  8
0
100
AcDbCircle
 62
7
  6
CONTINUOUS
 10
11.4031261059
 20
10.1410305226
 40
0.06
100
AcDbArc
 50
92.9492120675
 51
159.5833739648
  0
ARC
  5
250
100
AcDbEntity
  8
0
100
AcDbCircle
 62
7
  6
CONTINUOUS
 10
12.7131261059
 20
10.1410305226
 40
0.06
100
AcDbArc
 50
0.0
 51
87.0507879325
  0
ARC
  5
251
100
AcDbEntity
  8
0
100
AcDbCircle
 62
7
  6
CONTINUOUS
 10
11.2906644097
 20
10.182891804
 40
0.06
100
AcDbArc
 50
270.0
 51
339.5833739639
  0
ARC
  5
252
100
AcDbEntity
  8
0
100
AcDbCircle
 62
7
  6
CONTINUOUS
 10
11.2831261059
 20
9.562891804
 40
0.06
100
AcDbArc
 50
0.0
 51
90.0000000002
  0
ARC
  5
253
100
AcDbEntity
  8
0
100
AcDbCircle
 62
7
  6
CONTINUOUS
 10
11.1614343703
 20
8.091891804
 40
0.06
100
AcDbArc
 50
90.0
 51
105.9506039505
  0
ARC
  5
254
100
AcDbEntity
  8
0
100
AcDbCircle
 62
7
  6
CONTINUOUS
 10
12.9548178415
 20
8.091891804
 40
0.06
100
AcDbArc
 50
74.0493960495
 51
90.0
  0
ARC
  5
255
100
AcDbEntity
  8
0
100
AcDbCircle
 62
7
  6
CONTINUOUS
 10
12.9548178415
 20
7.861891804
 40
0.06
100
AcDbArc
 50
270.0
 51
285.9506039506
  0
ARC
  5
256
100
AcDbEntity
  8
0
100
AcDbCircle
 62
7
  6
CONTINUOUS
 10
11.1614343703
 20
7.861891804
 40
0.06
100
AcDbArc
 50
254.0493960495
 51
270.0
  0
ARC
  5
257
100
AcDbEntity
  8
0
100
AcDbCircle
 62
7
  6
CONTINUOUS
 10
8.4018355714
 20
9.4806044188
 40
0.03
100
AcDbArc
 50
142.5056825053
 51
232.5056825053
  0
ARC
  5
258
100
AcDbEntity
  8
0
100
AcDbCircle
 62
7
  6
CONTINUOUS
 10
8.7509376049
 20
9.2127840121
 40
0.03
100
AcDbArc
 50
232.5056825053
 51
322.5056825053
  0
ARC
  5
259
100
AcDbEntity
  8
0
100
AcDbCircle
 62
7
  6
CONTINUOUS
 10
11.0881261059
 20
7.8429168568
 40
0.02
100
AcDbArc
 50
180.0
 51
251.2236490742
  0
ARC
  5
25A
100
AcDbEntity
  8
0
100
AcDbCircle
 62
7
  6
CONTINUOUS
 10
13.0281261059
 20
7.8429168568
 40
0.02
100
AcDbArc
 50
288.7763509258
 51
360.0
  0
ARC
  5
25B
100
AcDbEntity
  8
0
100
AcDbCircle
 62
7
  6
CONTINUOUS
 10
13.0281261059
 20
8.1108667513
 40
0.02
100
AcDbArc
 50
0.0
 51
71.2236490742
  0
ARC
  5
25C
100
AcDbEntity
  8
0
100
AcDbCircle
 62
7
  6
CONTINUOUS
 10
11.0881261059
 20
8.1108667513
 40
0.02
100
AcDbArc
 50
108.7763509258
 51
180.0
  0
SPLINE
  5
25D
100
AcDbEntity
  8
0
100
AcDbSpline
 62
9
  6
CONTINUOUS
 70
0
 71
3
 72
11
 73
7
 74
0
 42
0.0000001
 43
0.0000001
 44
0.0000000001
 40
0.0
 40
0.0
 40
0.0
 40
0.0
 40
0.2136428138
 40
0.4521768194
 40
0.7147289886
 40
1.0
 40
1.0
 40
1.0
 40
1.0
 10
12.7222512519
 20
8.1307608655
 30
0.0
 10
12.7214128553
 20
8.1305935513
 30
0.0
 10
12.7196248021
 20
8.1303063864
 30
0.0
 10
12.7167786046
 20
8.1300135445
 30
0.0
 10
12.7136357763
 20
8.1298382327
 30
0.0
 10
12.7114433059
 20
8.129802396
 30
0.0
 10
12.7103017447
 20
8.1298023952
 30
0.0
  0
SPLINE
  5
25E
100
AcDbEntity
  8
0
100
AcDbSpline
 62
9
  6
CONTINUOUS
 70
0
 71
3
 72
9
 73
5
 74
0
 42
0.0000001
 43
0.0000001
 44
0.0000000001
 40
0.0
 40
0.0
 40
0.0
 40
0.0
 40
0.4937038713
 40
1.0
 40
1.0
 40
1.0
 40
1.0
 10
12.3613814708
 20
8.1298023952
 30
0.0
 10
12.3582883965
 20
8.1298023963
 30
0.0
 10
12.3520225574
 20
8.1299724884
 30
0.0
 10
12.3457729269
 20
8.1304471963
 30
0.0
 10
12.3426165088
 20
8.1307608655
 30
0.0
  0
SPLINE
  5
25F
100
AcDbEntity
  8
0
100
AcDbSpline
 62
9
  6
CONTINUOUS
 70
0
 71
3
 72
17
 73
13
 74
0
 42
0.0000001
 43
0.0000001
 44
0.0000000001
 40
0.0
 40
0.0
 40
0.0
 40
0.0
 40
0.1249975839
 40
0.187500622
 40
0.2500023899
 40
0.3750010584
 40
0.5000000519
 40
0.6249990567
 40
0.7499977252
 40
0.8124994534
 40
0.8750024495
 40
1.0
 40
1.0
 40
1.0
 40
1.0
 10
12.3426165088
 20
8.1307608655
 30
0.0
 10
12.3189893565
 20
8.1331088287
 30
0.0
 10
12.2834970134
 20
8.1361416982
 30
0.0
 10
12.2361106647
 20
8.1392663003
 30
0.0
 10
12.1886884769
 20
8.1417991381
 30
0.0
 10
12.1293588857
 20
8.143877632
 30
0.0
 10
12.0581260739
 20
8.1447044393
 30
0.0
 10
11.986893263
 20
8.14387761
 30
0.0
 10
11.9275636757
 20
8.1417991594
 30
0.0
 10
11.880141504
 20
8.1392663069
 30
0.0
 10
11.8327551786
 20
8.1361416855
 30
0.0
 10
11.7972628492
 20
8.1331088256
 30
0.0
 10
11.773635703
 20
8.1307608655
 30
0.0
  0
SPLINE
  5
260
100
AcDbEntity
  8
0
100
AcDbSpline
 62
9
  6
CONTINUOUS
 70
0
 71
3
 72
9
 73
5
 74
0
 42
0.0000001
 43
0.0000001
 44
0.0000000001
 40
0.0
 40
0.0
 40
0.0
 40
0.0
 40
0.5062962972
 40
1.0
 40
1.0
 40
1.0
 40
1.0
 10
11.773635703
 20
8.1307608655
 30
0.0
 10
11.7704792839
 20
8.1304471956
 30
0.0
 10
11.7642296532
 20
8.1299724884
 30
0.0
 10
11.7579638142
 20
8.129802397
 30
0.0
 10
11.7548707409
 20
8.1298023952
 30
0.0
  0
SPLINE
  5
261
100
AcDbEntity
  8
0
100
AcDbSpline
 62
9
  6
CONTINUOUS
 70
0
 71
3
 72
11
 73
7
 74
0
 42
0.0000001
 43
0.0000001
 44
0.0000000001
 40
0.0
 40
0.0
 40
0.0
 40
0.0
 40
0.285271088
 40
0.5478233501
 40
0.7863572454
 40
1.0
 40
1.0
 40
1.0
 40
1.0
 10
11.405950467
 20
8.1298023952
 30
0.0
 10
11.4048089055
 20
8.1298023957
 30
0.0
 10
11.4026164345
 20
8.1298382328
 30
0.0
 10
11.3994736059
 20
8.1300135446
 30
0.0
 10
11.3966274087
 20
8.1303063863
 30
0.0
 10
11.3948393563
 20
8.1305935519
 30
0.0
 10
11.3940009599
 20
8.1307608655
 30
0.0
  0
SPLINE
  5
262
100
AcDbEntity
  8
0
100
AcDbSpline
 62
9
  6
CONTINUOUS
 70
0
 71
3
 72
13
 73
9
 74
0
 42
0.0000001
 43
0.0000001
 44
0.0000000001
 40
0.0
 40
0.0
 40
0.0
 40
0.0
 40
0.2500502497
 40
0.3745194484
 40
0.4989240987
 40
0.6234733479
 40
0.7483684984
 40
1.0
 40
1.0
 40
1.0
 40
1.0
 10
11.3940009599
 20
8.1307608655
 30
0.0
 10
11.3706090117
 20
8.1354290965
 30
0.0
 10
11.3351666393
 20
8.1405421029
 30
0.0
 10
11.2876789521
 20
8.1438775914
 30
0.0
 10
11.2520523792
 20
8.1447047011
 30
0.0
 10
11.2163853089
 20
8.1438756897
 30
0.0
 10
11.1686921941
 20
8.140534823
 30
0.0
 10
11.1330577334
 20
8.1354218699
 30
0.0
 10
11.109510557
 20
8.1307608655
 30
0.0
  0
SPLINE
  5
263
100
AcDbEntity
  8
0
100
AcDbSpline
 62
9
  6
CONTINUOUS
 70
0
 71
3
 72
11
 73
7
 74
0
 42
0.0000001
 43
0.0000001
 44
0.0000000001
 40
0.0
 40
0.0
 40
0.0
 40
0.0
 40
0.3283205991
 40
0.6055953323
 40
0.8298639933
 40
1.0
 40
1.0
 40
1.0
 40
1.0
 10
11.109510557
 20
8.1307608655
 30
0.0
 10
11.1087708611
 20
8.1306144478
 30
0.0
 10
11.1074040683
 20
8.1303563572
 30
0.0
 10
11.1055223398
 20
8.1300508881
 30
0.0
 10
11.1039912028
 20
8.1298615632
 30
0.0
 10
11.1030858503
 20
8.1298023962
 30
0.0
 10
11.1026951021
 20
8.1298023952
 30
0.0
  0
SPLINE
  5
264
100
AcDbEntity
  8
0
100
AcDbSpline
 62
9
  6
CONTINUOUS
 70
0
 71
3
 72
17
 73
13
 74
0
 42
0.0000001
 43
0.0000001
 44
0.0000000001
 40
0.0
 40
0.0
 40
0.0
 40
0.0
 40
0.1257614825
 40
0.2508568245
 40
0.3132374196
 40
0.3755388853
 40
0.4999999999
 40
0.6244611149
 40
0.6867625809
 40
0.7491431761
 40
0.8742385178
 40
1.0
 40
1.0
 40
1.0
 40
1.0
 10
11.0984212717
 20
7.8419726495
 30
0.0
 10
11.1101150433
 20
7.8396662834
 30
0.0
 10
11.1335667198
 20
7.8356834322
 30
0.0
 10
11.1630615694
 20
7.8322036742
 30
0.0
 10
11.1866579335
 20
7.8302809336
 30
0.0
 10
11.2102325851
 20
7.8289116065
 30
0.0
 10
11.2397320992
 20
7.8282252845
 30
0.0
 10
11.2692316133
 20
7.8289116089
 30
0.0
 10
11.2928062649
 20
7.8302809364
 30
0.0
 10
11.316402629
 20
7.8322036763
 30
0.0
 10
11.3458974788
 20
7.8356834325
 30
0.0
 10
11.3693491554
 20
7.8396662832
 30
0.0
 10
11.3810429269
 20
7.8419726495
 30
0.0
  0
SPLINE
  5
265
100
AcDbEntity
  8
0
100
AcDbSpline
 62
9
  6
CONTINUOUS
 70
0
 71
3
 72
15
 73
11
 74
0
 42
0.0000001
 43
0.0000001
 44
0.0000000001
 40
0.0
 40
0.0
 40
0.0
 40
0.0
 40
0.1154457366
 40
0.2342404175
 40
0.3565437655
 40
0.4821197659
 40
0.6102958382
 40
0.7400974602
 40
0.8704146921
 40
1.0
 40
1.0
 40
1.0
 40
1.0
 10
11.3576793467
 20
10.1410305226
 30
0.0
 10
11.3573108028
 20
10.1378004061
 30
0.0
 10
11.3558783916
 20
10.1313080175
 30
0.0
 10
11.3518417782
 20
10.1220531646
 30
0.0
 10
11.3460326162
 20
10.1134498124
 30
0.0
 10
11.3386551122
 20
10.1057830761
 30
0.0
 10
11.3299558194
 20
10.0993021237
 30
0.0
 10
11.3202244841
 20
10.0942157541
 30
0.0
 10
11.30978591
 20
10.0906934483
 30
0.0
 10
11.3025355055
 20
10.0894560192
 30
0.0
 10
11.2989005976
 20
10.0891327062
 30
0.0
  0
SPLINE
  5
266
100
AcDbEntity
  8
0
100
AcDbSpline
 62
9
  6
CONTINUOUS
 70
0
 71
3
 72
13
 73
9
 74
0
 42
0.0000001
 43
0.0000001
 44
0.0000000001
 40
0.0
 40
0.0
 40
0.0
 40
0.0
 40
0.1295632552
 40
0.2595162097
 40
0.5154397598
 40
0.6407594501
 40
0.763581828
 40
1.0
 40
1.0
 40
1.0
 40
1.0
 10
11.3810429269
 20
8.1118109586
 30
0.0
 10
11.3810944633
 20
8.1128561602
 30
0.0
 10
11.381343212
 20
8.1149456575
 30
0.0
 10
11.3823839344
 20
8.1189853557
 30
0.0
 10
11.3842293753
 20
8.1227501988
 30
0.0
 10
11.3867688777
 20
8.1259488755
 30
0.0
 10
11.3896319925
 20
8.1286309814
 30
0.0
 10
11.3922057448
 20
8.1301100921
 30
0.0
 10
11.3940009599
 20
8.1307608655
 30
0.0
  0
SPLINE
  5
267
100
AcDbEntity
  8
0
100
AcDbSpline
 62
9
  6
CONTINUOUS
 70
0
 71
3
 72
15
 73
11
 74
0
 42
0.0000001
 43
0.0000001
 44
0.0000000001
 40
0.0
 40
0.0
 40
0.0
 40
0.0
 40
0.1330320406
 40
0.2647452281
 40
0.3940386346
 40
0.5205147675
 40
0.6440845668
 40
0.7649442126
 40
0.8834915862
 40
1.0
 40
1.0
 40
1.0
 40
1.0
 10
13.0178309401
 20
8.1118109586
 30
0.0
 10
13.01788213
 20
8.1128491335
 30
0.0
 10
13.017841772
 20
8.1149249385
 30
0.0
 10
13.0173591069
 20
8.1179755381
 30
0.0
 10
13.0164566484
 20
8.1208769811
 30
0.0
 10
13.0151619012
 20
8.1235559404
 30
0.0
 10
13.0135020533
 20
8.125946532
 30
0.0
 10
13.0115179945
 20
8.1279921209
 30
0.0
 10
13.0092564886
 20
8.1296334709
 30
0.0
 10
13.0075937586
 20
8.1304405223
 30
0.0
 10
13.0067416548
 20
8.1307608655
 30
0.0
  0
SPLINE
  5
268
100
AcDbEntity
  8
0
100
AcDbSpline
 62
9
  6
CONTINUOUS
 70
0
 71
3
 72
17
 73
13
 74
0
 42
0.0000001
 43
0.0000001
 44
0.0000000001
 40
0.0
 40
0.0
 40
0.0
 40
0.0
 40
0.1257614776
 40
0.2508568245
 40
0.3132374307
 40
0.3755389137
 40
0.5000000542
 40
0.6244611605
 40
0.6867626114
 40
0.7491431942
 40
0.8742385238
 40
1.0
 40
1.0
 40
1.0
 40
1.0
 10
13.0178309401
 20
8.1118109586
 30
0.0
 10
13.0061371685
 20
8.1141173245
 30
0.0
 10
12.9826854907
 20
8.1181001731
 30
0.0
 10
12.9531906388
 20
8.121579929
 30
0.0
 10
12.929594271
 20
8.1235026715
 30
0.0
 10
12.9060196143
 20
8.12487201
 30
0.0
 10
12.8765200978
 20
8.1255583872
 30
0.0
 10
12.8470205804
 20
8.1248721006
 30
0.0
 10
12.823445933
 20
8.1235027426
 30
0.0
 10
12.7998495748
 20
8.1215799666
 30
0.0
 10
12.7703547311
 20
8.1181001772
 30
0.0
 10
12.7469030571
 20
8.1141173203
 30
0.0
 10
12.7352092848
 20
8.1118109586
 30
0.0
  0
SPLINE
  5
269
100
AcDbEntity
  8
0
100
AcDbSpline
 62
9
  6
CONTINUOUS
 70
0
 71
3
 72
17
 73
13
 74
0
 42
0.0000001
 43
0.0000001
 44
0.0000000001
 40
0.0
 40
0.0
 40
0.0
 40
0.0
 40
0.1257614776
 40
0.2508568244
 40
0.3132374306
 40
0.3755389136
 40
0.5000000539
 40
0.6244611603
 40
0.6867626112
 40
0.7491431941
 40
0.8742385238
 40
1.0
 40
1.0
 40
1.0
 40
1.0
 10
12.7352092848
 20
7.8419726495
 30
0.0
 10
12.7469030564
 20
7.8396662836
 30
0.0
 10
12.7703547342
 20
7.835683435
 30
0.0
 10
12.7998495861
 20
7.8322036791
 30
0.0
 10
12.8234459539
 20
7.8302809366
 30
0.0
 10
12.8470206106
 20
7.828911598
 30
0.0
 10
12.8765201271
 20
7.8282252209
 30
0.0
 10
12.9060196445
 20
7.8289115075
 30
0.0
 10
12.9295942919
 20
7.8302808654
 30
0.0
 10
12.9531906501
 20
7.8322036414
 30
0.0
 10
12.9826854938
 20
7.8356834308
 30
0.0
 10
13.0061371679
 20
7.8396662878
 30
0.0
 10
13.0178309401
 20
7.8419726495
 30
0.0
  0
SPLINE
  5
26A
100
AcDbEntity
  8
0
100
AcDbSpline
 62
9
  6
CONTINUOUS
 70
0
 71
3
 72
49
 73
45
 74
0
 42
0.0000001
 43
0.0000001
 44
0.0000000001
 40
0.0
 40
0.0
 40
0.0
 40
0.0
 40
0.0000083968
 40
0.0000332953
 40
0.0000746782
 40
0.0001325282
 40
0.0002975609
 40
0.0005282553
 40
0.0008244737
 40
0.001186078
 40
0.0016129303
 40
0.0021048928
 40
0.0032835969
 40
0.0047210842
 40
0.0064158262
 40
0.0083654346
 40
0.0105674184
 40
0.0130192882
 40
0.0186627323
 40
0.0252730866
 40
0.0328205793
 40
0.0412743948
 40
0.0506027567
 40
0.0607708406
 40
0.0717433723
 40
0.0959613973
 40
0.1229786121
 40
0.1525231189
 40
0.1843323394
 40
0.2181586908
 40
0.2537682336
 40
0.2909361881
 40
0.3294445386
 40
0.4096131183
 40
0.4925462892
 40
0.5764544247
 40
0.6595185078
 40
0.7399468142
 40
0.7786322518
 40
0.8160072282
 40
0.8859538098
 40
0.9180687943
 40
0.9479538942
 40
1.0
 40
1.0
 40
1.0
 40
1.0
 10
11.3431261059
 20
9.562891804
 30
0.0
 10
11.3431263943
 20
9.5628934312
 30
0.0
 10
11.3431293179
 20
9.562899404
 30
0.0
 10
11.3431337578
 20
9.5629133662
 30
0.0
 10
11.3431425604
 20
9.5629361933
 30
0.0
 10
11.3431603201
 20
9.5629850525
 30
0.0
 10
11.3431913364
 20
9.5630687702
 30
0.0
 10
11.3432383115
 20
9.5631965768
 30
0.0
 10
11.3432987369
 20
9.5633606658
 30
0.0
 10
11.34337242
 20
9.5635610063
 30
0.0
 10
11.3434593741
 20
9.5637975121
 30
0.0
 10
11.343601738
 20
9.5641849729
 30
0.0
 10
11.343812523
 20
9.5647591854
 30
0.0
 10
11.3441045801
 20
9.5655557128
 30
0.0
 10
11.3444484097
 20
9.5664948463
 30
0.0
 10
11.3448430399
 20
9.5675755982
 30
0.0
 10
11.3452874955
 20
9.5687967796
 30
0.0
 10
11.3459782694
 20
9.5707018995
 30
0.0
 10
11.3469591758
 20
9.573424645
 30
0.0
 10
11.3482688807
 20
9.5770948211
 30
0.0
 10
11.349748971
 20
9.5812914028
 30
0.0
 10
11.3513875451
 20
9.5859992394
 30
0.0
 10
11.3531720907
 20
9.591202288
 30
0.0
 10
11.3550883932
 20
9.5968840966
 30
0.0
 10
11.3578937616
 20
9.6053583378
 30
0.0
 10
11.3616322904
 20
9.6170163008
 30
0.0
 10
11.3662707196
 20
9.6322224854
 30
0.0
 10
11.37107427
 20
9.6489380624
 30
0.0
 10
11.3759186233
 20
9.6670332223
 30
0.0
 10
11.3806815433
 20
9.6863819602
 30
0.0
 10
11.3852417151
 20
9.706861661
 30
0.0
 10
11.3894854664
 20
9.7283498933
 30
0.0
 10
11.3946438698
 20
9.758585834
 30
0.0
 10
11.3996728644
 20
9.7979667999
 30
0.0
 10
11.4028880459
 20
9.846502968
 30
0.0
 10
11.4030053701
 20
9.8957181669
 30
0.0
 10
11.4000035816
 20
9.9443454045
 30
0.0
 10
11.3951288034
 20
9.9838585846
 30
0.0
 10
11.3900685437
 20
10.0142398077
 30
0.0
 10
11.3846035214
 20
10.0424519386
 30
0.0
 10
11.3784232097
 20
10.0691990309
 30
0.0
 10
11.3717783754
 20
10.0943024929
 30
0.0
 10
11.3656313617
 20
10.115889408
 30
0.0
 10
11.3608523999
 20
10.1312918427
 30
0.0
 10
11.3576793467
 20
10.1410305226
 30
0.0
  0
SPLINE
  5
26B
100
AcDbEntity
  8
0
100
AcDbSpline
 62
9
  6
CONTINUOUS
 70
0
 71
3
 72
17
 73
13
 74
0
 42
0.0000001
 43
0.0000001
 44
0.0000000001
 40
0.0
 40
0.0
 40
0.0
 40
0.0
 40
0.1249877142
 40
0.2499938308
 40
0.3124999422
 40
0.3750032372
 40
0.5000000633
 40
0.6249968599
 40
0.6875001213
 40
0.7500062041
 40
0.8750122914
 40
1.0
 40
1.0
 40
1.0
 40
1.0
 10
12.3407477611
 20
8.1118109586
 30
0.0
 10
12.3172764964
 20
8.1141255807
 30
0.0
 10
12.27026513
 20
8.1181134077
 30
0.0
 10
12.2113924976
 20
8.1215831792
 30
0.0
 10
12.1642528318
 20
8.1235034187
 30
0.0
 10
12.1170957317
 20
8.1248726557
 30
0.0
 10
12.0581260743
 20
8.1255580534
 30
0.0
 10
11.9991564214
 20
8.124872746
 30
0.0
 10
11.951999339
 20
8.1235034894
 30
0.0
 10
11.9048596918
 20
8.1215832164
 30
0.0
 10
11.8459870735
 20
8.1181134116
 30
0.0
 10
11.7989757147
 20
8.1141255763
 30
0.0
 10
11.7755044507
 20
8.1118109586
 30
0.0
  0
SPLINE
  5
26C
100
AcDbEntity
  8
0
100
AcDbSpline
 62
9
  6
CONTINUOUS
 70
0
 71
3
 72
17
 73
13
 74
0
 42
0.0000001
 43
0.0000001
 44
0.0000000001
 40
0.0
 40
0.0
 40
0.0
 40
0.0
 40
0.1249877142
 40
0.2499938309
 40
0.3124999424
 40
0.3750032376
 40
0.5000000639
 40
0.6249968604
 40
0.6875001217
 40
0.7500062044
 40
0.8750122915
 40
1.0
 40
1.0
 40
1.0
 40
1.0
 10
11.7755044507
 20
7.8419726495
 30
0.0
 10
11.7989757154
 20
7.8396580274
 30
0.0
 10
11.8459870817
 20
7.8356702003
 30
0.0
 10
11.9048597142
 20
7.8322004288
 30
0.0
 10
11.9519993801
 20
7.8302801895
 30
0.0
 10
11.9991564803
 20
7.8289109527
 30
0.0
 10
12.0581261377
 20
7.828225555
 30
0.0
 10
12.1170957906
 20
7.8289108624
 30
0.0
 10
12.1642528729
 20
7.8302801193
 30
0.0
 10
12.21139252
 20
7.8322003923
 30
0.0
 10
12.2702651383
 20
7.8356701967
 30
0.0
 10
12.3172764971
 20
7.8396580318
 30
0.0
 10
12.3407477611
 20
7.8419726495
 30
0.0
  0
SPLINE
  5
26D
100
AcDbEntity
  8
0
100
AcDbSpline
 62
9
  6
CONTINUOUS
 70
0
 71
3
 72
36
 73
32
 74
0
 42
0.0000001
 43
0.0000001
 44
0.0000000001
 40
0.0
 40
0.0
 40
0.0
 40
0.0
 40
0.2360070873
 40
0.341909655
 40
0.4397127095
 40
0.5294505908
 40
0.6112338511
 40
0.6851405982
 40
0.7512122887
 40
0.8094827409
 40
0.8599866146
 40
0.8823317859
 40
0.902739219
 40
0.9212077043
 40
0.9377350847
 40
0.9523202276
 40
0.9649630199
 40
0.9756631737
 40
0.9802846201
 40
0.9844202056
 40
0.9880698367
 40
0.991233407
 40
0.9939107976
 40
0.9961018766
 40
0.9978064995
 40
0.9984763414
 40
0.9990245093
 40
0.9994509816
 40
0.999755736
 40
0.9999387494
 40
1.0
 40
1.0
 40
1.0
 40
1.0
 10
11.2989005976
 20
10.0891327061
 30
0.0
 10
11.2977980644
 20
10.0916512641
 30
0.0
 10
11.2963303248
 20
10.0953593156
 30
0.0
 10
11.294716287
 20
10.1002214917
 30
0.0
 10
11.2937531355
 20
10.103502166
 30
0.0
 10
11.2929710642
 20
10.1065411354
 30
0.0
 10
11.2923481759
 20
10.1093320038
 30
0.0
 10
11.2918622869
 20
10.111869629
 30
0.0
 10
11.2914903213
 20
10.114149199
 30
0.0
 10
11.2912127461
 20
10.1161672268
 30
0.0
 10
11.2910404782
 20
10.1176850696
 30
0.0
 10
11.2909357261
 20
10.1187663928
 30
0.0
 10
11.2908737518
 20
10.1194768868
 30
0.0
 10
11.2908230949
 20
10.1201203099
 30
0.0
 10
11.2907815421
 20
10.1206963995
 30
0.0
 10
11.2907477901
 20
10.1212050014
 30
0.0
 10
11.2907211347
 20
10.1216460338
 30
0.0
 10
11.2907033769
 20
10.1219713164
 30
0.0
 10
11.2906920595
 20
10.1221976962
 30
0.0
 10
11.2906852639
 20
10.122342065
 30
0.0
 10
11.2906796376
 20
10.1224694869
 30
0.0
 10
11.2906750763
 20
10.1225799501
 30
0.0
 10
11.2906714922
 20
10.1226734531
 30
0.0
 10
11.2906687504
 20
10.1227499643
 30
0.0
 10
11.2906670483
 20
10.1228031491
 30
0.0
 10
11.2906659371
 20
10.1228371367
 30
0.0
 10
11.2906655116
 20
10.1228563755
 30
0.0
 10
11.2906647318
 20
10.122871041
 30
0.0
 10
11.2906652497
 20
10.1228822136
 30
0.0
 10
11.2906636543
 20
10.1228876826
 30
0.0
 10
11.2906650484
 20
10.1228914859
 30
0.0
 10
11.2906644097
 20
10.122891804
 30
0.0
  0
SPLINE
  5
26E
100
AcDbEntity
  8
0
100
AcDbSpline
 62
9
  6
CONTINUOUS
 70
0
 71
3
 72
55
 73
51
 74
0
 42
0.0000001
 43
0.0000001
 44
0.0000000001
 40
0.0
 40
0.0
 40
0.0
 40
0.0
 40
0.000007916
 40
0.0000314807
 40
0.0000706801
 40
0.0001255003
 40
0.0001959274
 40
0.0002819473
 40
0.00050071
 40
0.0007816769
 40
0.0011247365
 40
0.0015297772
 40
0.0019966876
 40
0.0031156719
 40
0.0044807984
 40
0.0060911644
 40
0.0079452663
 40
0.0100407371
 40
0.0123751459
 40
0.017751066
 40
0.0240536067
 40
0.0312606164
 40
0.0393451527
 40
0.0482799083
 40
0.058037454
 40
0.0685884966
 40
0.0799030295
 40
0.0919513048
 40
0.1181313975
 40
0.1468980923
 40
0.1780293055
 40
0.2113152166
 40
0.2465535693
 40
0.2835483519
 40
0.3221008915
 40
0.4030289998
 40
0.4449607644
 40
0.4875220542
 40
0.5304340924
 40
0.5519303864
 40
0.5734034209
 40
0.6161311691
 40
0.6583302066
 40
0.6997336397
 40
0.7400907409
 40
0.7791764571
 40
0.8167794486
 40
0.8867357345
 40
0.9483746875
 40
1.0
 40
1.0
 40
1.0
 40
1.0
 10
11.2831261059
 20
9.622891804
 30
0.0
 10
11.2831270301
 20
9.622892685
 30
0.0
 10
11.2831284712
 20
9.622897846
 30
0.0
 10
11.2831343754
 20
9.6229074429
 30
0.0
 10
11.2831423934
 20
9.6229247499
 30
0.0
 10
11.2831544384
 20
9.6229483328
 30
0.0
 10
11.2831695656
 20
9.6229788863
 30
0.0
 10
11.2831965915
 20
9.6230330259
 30
0.0
 10
11.2832386641
 20
9.6231176241
 30
0.0
 10
11.2832991865
 20
9.6232393407
 30
0.0
 10
11.283373
 20
9.6233880066
 30
0.0
 10
11.283460077
 20
9.6235635704
 30
0.0
 10
11.2836026306
 20
9.6238513182
 30
0.0
 10
11.2838136286
 20
9.6242779739
 30
0.0
 10
11.2841058606
 20
9.6248702077
 30
0.0
 10
11.2844499609
 20
9.6255690656
 30
0.0
 10
11.2848453062
 20
9.6263739957
 30
0.0
 10
11.2852909826
 20
9.6272843132
 30
0.0
 10
11.2859844115
 20
9.6287058015
 30
0.0
 10
11.2869703483
 20
9.6307395994
 30
0.0
 10
11.2882896829
 20
9.6334851506
 30
0.0
 10
11.2897859657
 20
9.6366303508
 30
0.0
 10
11.2914478602
 20
9.6401668739
 30
0.0
 10
11.2932639371
 20
9.6440854228
 30
0.0
 10
11.2952225965
 20
9.6483762908
 30
0.0
 10
11.2973105641
 20
9.6530299659
 30
0.0
 10
11.299514011
 20
9.6580366549
 30
0.0
 10
11.3026762799
 20
9.6653753014
 30
0.0
 10
11.3068248874
 20
9.6753536929
 30
0.0
 10
11.3119052202
 20
9.6882756125
 30
0.0
 10
11.3170956655
 20
9.7023822673
 30
0.0
 10
11.3222690737
 20
9.7176026466
 30
0.0
 10
11.3272983797
 20
9.733864487
 30
0.0
 10
11.3320526086
 20
9.7510928625
 30
0.0
 10
11.3379477382
 20
9.7756365937
 30
0.0
 10
11.3426153681
 20
9.8012818816
 30
0.0
 10
11.3457720486
 20
9.8277822057
 30
0.0
 10
11.3473232568
 20
9.8482798873
 30
0.0
 10
11.3478578512
 20
9.8655312457
 30
0.0
 10
11.3478207135
 20
9.8793842696
 30
0.0
 10
11.3474687022
 20
9.8932031155
 30
0.0
 10
11.3464591527
 20
9.9103410579
 30
0.0
 10
11.3443690466
 20
9.9306158844
 30
0.0
 10
11.3414858527
 20
9.950406426
 30
0.0
 10
11.3379032305
 20
9.9695709209
 30
0.0
 10
11.3337411427
 20
9.9879893868
 30
0.0
 10
11.3277272419
 20
10.0108687698
 30
0.0
 10
11.3195662519
 20
10.036928164
 30
0.0
 10
11.3092873998
 20
10.0646454879
 30
0.0
 10
11.3022404876
 20
10.0815050914
 30
0.0
 10
11.2989005976
 20
10.0891327061
 30
0.0
  0
SPLINE
  5
26F
100
AcDbEntity
  8
0
100
AcDbSpline
 62
9
  6
CONTINUOUS
 70
0
 71
3
 72
17
 73
13
 74
0
 42
0.0000001
 43
0.0000001
 44
0.0000000001
 40
0.0
 40
0.0
 40
0.0
 40
0.0
 40
0.1257614776
 40
0.2508568242
 40
0.3132374302
 40
0.375538913
 40
0.500000053
 40
0.6244611593
 40
0.6867626105
 40
0.7491431935
 40
0.8742385236
 40
1.0
 40
1.0
 40
1.0
 40
1.0
 10
11.3810429269
 20
8.1118109586
 30
0.0
 10
11.3693491554
 20
8.1141173245
 30
0.0
 10
11.3458974776
 20
8.118100173
 30
0.0
 10
11.3164026257
 20
8.1215799289
 30
0.0
 10
11.2928062579
 20
8.1235026716
 30
0.0
 10
11.2692316013
 20
8.1248720104
 30
0.0
 10
11.2397320849
 20
8.1255583875
 30
0.0
 10
11.2102325675
 20
8.1248721009
 30
0.0
 10
11.18665792
 20
8.1235027433
 30
0.0
 10
11.1630615617
 20
8.1215799674
 30
0.0
 10
11.133566718
 20
8.1181001775
 30
0.0
 10
11.1101150439
 20
8.1141173203
 30
0.0
 10
11.0984212717
 20
8.1118109586
 30
0.0
  0
SPLINE
  5
270
100
AcDbEntity
  8
0
100
AcDbSpline
 62
9
  6
CONTINUOUS
 70
0
 71
3
 72
29
 73
25
 74
0
 42
0.0000001
 43
0.0000001
 44
0.0000000001
 40
0.0
 40
0.0
 40
0.0
 40
0.0
 40
0.2503585023
 40
0.3599370179
 40
0.4596541863
 40
0.5498876291
 40
0.6309854874
 40
0.7032725761
 40
0.7670626799
 40
0.8226590331
 40
0.870354359
 40
0.9103994782
 40
0.9429278858
 40
0.9564070012
 40
0.9680471149
 40
0.9778614134
 40
0.9858629813
 40
0.9920648002
 40
0.9944948333
 40
0.9964797493
 40
0.9980211411
 40
0.9991205949
 40
0.9997796902
 40
1.0
 40
1.0
 40
1.0
 40
1.0
 10
11.3576793467
 20
10.1410305226
 30
0.0
 10
11.356604574
 20
10.1426799646
 30
0.0
 10
11.355111871
 20
10.1450864107
 30
0.0
 10
11.3533185394
 20
10.1482249077
 30
0.0
 10
11.3521946093
 20
10.1502950203
 30
0.0
 10
11.351214324
 20
10.1521877418
 30
0.0
 10
11.3503630667
 20
10.1539040306
 30
0.0
 10
11.3496308376
 20
10.1554469445
 30
0.0
 10
11.3490070911
 20
10.156819125
 30
0.0
 10
11.3484814169
 20
10.1580232825
 30
0.0
 10
11.3480435711
 20
10.1590619202
 30
0.0
 10
11.3476835774
 20
10.1599364741
 30
0.0
 10
11.3474312818
 20
10.16056437
 30
0.0
 10
11.3472651533
 20
10.1609861479
 30
0.0
 10
11.3471655921
 20
10.1612421726
 30
0.0
 10
11.3470825905
 20
10.1614584204
 30
0.0
 10
11.3470156662
 20
10.1616350276
 30
0.0
 10
11.3469698958
 20
10.1617575618
 30
0.0
 10
11.346940886
 20
10.1618358358
 30
0.0
 10
11.3469248442
 20
10.1618798606
 30
0.0
 10
11.3469120985
 20
10.1619138799
 30
0.0
 10
11.3469038831
 20
10.1619386194
 30
0.0
 10
11.3468975095
 20
10.1619526573
 30
0.0
 10
11.346896314
 20
10.1619597901
 30
0.0
 10
11.3468952578
 20
10.1619611633
 30
0.0
  0
SPLINE
  5
271
100
AcDbEntity
  8
0
100
AcDbSpline
 62
9
  6
CONTINUOUS
 70
0
 71
3
 72
11
 73
7
 74
0
 42
0.0000001
 43
0.0000001
 44
0.0000000001
 40
0.0
 40
0.0
 40
0.0
 40
0.0
 40
0.1701360603
 40
0.3944048318
 40
0.6716794891
 40
1.0
 40
1.0
 40
1.0
 40
1.0
 10
11.1026951021
 20
7.8239812129
 30
0.0
 10
11.1030858504
 20
7.8239812123
 30
0.0
 10
11.1039912033
 20
7.8239220446
 30
0.0
 10
11.1055223404
 20
7.82373272
 30
0.0
 10
11.1074040689
 20
7.8234272508
 30
0.0
 10
11.1087708613
 20
7.8231691601
 30
0.0
 10
11.109510557
 20
7.8230227426
 30
0.0
  0
SPLINE
  5
272
100
AcDbEntity
  8
0
100
AcDbSpline
 62
9
  6
CONTINUOUS
 70
0
 71
3
 72
13
 73
9
 74
0
 42
0.0000001
 43
0.0000001
 44
0.0000000001
 40
0.0
 40
0.0
 40
0.0
 40
0.0
 40
0.251631502
 40
0.3765267143
 40
0.5010759551
 40
0.6254805749
 40
0.7499497735
 40
1.0
 40
1.0
 40
1.0
 40
1.0
 10
11.109510557
 20
7.8230227426
 30
0.0
 10
11.1330577324
 20
7.8183617334
 30
0.0
 10
11.1686922035
 20
7.8132488174
 30
0.0
 10
11.2163853197
 20
7.8099079062
 30
0.0
 10
11.252052393
 20
7.8090789107
 30
0.0
 10
11.2876789615
 20
7.8099060248
 30
0.0
 10
11.3351666441
 20
7.8132415028
 30
0.0
 10
11.370609014
 20
7.8183545116
 30
0.0
 10
11.3940009599
 20
7.8230227426
 30
0.0
  0
SPLINE
  5
273
100
AcDbEntity
  8
0
100
AcDbSpline
 62
9
  6
CONTINUOUS
 70
0
 71
3
 72
11
 73
7
 74
0
 42
0.0000001
 43
0.0000001
 44
0.0000000001
 40
0.0
 40
0.0
 40
0.0
 40
0.0
 40
0.2136428138
 40
0.4521768194
 40
0.7147289886
 40
1.0
 40
1.0
 40
1.0
 40
1.0
 10
11.3940009599
 20
7.8230227426
 30
0.0
 10
11.3948393565
 20
7.8231900568
 30
0.0
 10
11.3966274096
 20
7.8234772217
 30
0.0
 10
11.3994736071
 20
7.8237700636
 30
0.0
 10
11.4026164355
 20
7.8239453754
 30
0.0
 10
11.4048089058
 20
7.8239812121
 30
0.0
 10
11.405950467
 20
7.8239812129
 30
0.0
  0
SPLINE
  5
274
100
AcDbEntity
  8
0
100
AcDbSpline
 62
9
  6
CONTINUOUS
 70
0
 71
3
 72
9
 73
5
 74
0
 42
0.0000001
 43
0.0000001
 44
0.0000000001
 40
0.0
 40
0.0
 40
0.0
 40
0.0
 40
0.4937038713
 40
1.0
 40
1.0
 40
1.0
 40
1.0
 10
11.7548707409
 20
7.8239812129
 30
0.0
 10
11.7579638153
 20
7.8239812118
 30
0.0
 10
11.7642296543
 20
7.8238111197
 30
0.0
 10
11.7704792848
 20
7.8233364118
 30
0.0
 10
11.773635703
 20
7.8230227426
 30
0.0
  0
SPLINE
  5
275
100
AcDbEntity
  8
0
100
AcDbSpline
 62
9
  6
CONTINUOUS
 70
0
 71
3
 72
17
 73
13
 74
0
 42
0.0000001
 43
0.0000001
 44
0.0000000001
 40
0.0
 40
0.0
 40
0.0
 40
0.0
 40
0.124997584
 40
0.1875006222
 40
0.2500023902
 40
0.3750010589
 40
0.5000000523
 40
0.6249990573
 40
0.749997726
 40
0.8124994539
 40
0.8750024498
 40
1.0
 40
1.0
 40
1.0
 40
1.0
 10
11.773635703
 20
7.8230227426
 30
0.0
 10
11.7972628553
 20
7.8206747793
 30
0.0
 10
11.8327551984
 20
7.8176419099
 30
0.0
 10
11.8801415472
 20
7.8145173078
 30
0.0
 10
11.9275637351
 20
7.8119844699
 30
0.0
 10
11.9868933262
 20
7.809905976
 30
0.0
 10
12.0581261381
 20
7.8090791687
 30
0.0
 10
12.1293589491
 20
7.8099059981
 30
0.0
 10
12.1886885365
 20
7.8119844485
 30
0.0
 10
12.2361107081
 20
7.8145173012
 30
0.0
 10
12.2834970334
 20
7.8176419227
 30
0.0
 10
12.3189893626
 20
7.8206747825
 30
0.0
 10
12.3426165088
 20
7.8230227426
 30
0.0
  0
SPLINE
  5
276
100
AcDbEntity
  8
0
100
AcDbSpline
 62
9
  6
CONTINUOUS
 70
0
 71
3
 72
9
 73
5
 74
0
 42
0.0000001
 43
0.0000001
 44
0.0000000001
 40
0.0
 40
0.0
 40
0.0
 40
0.0
 40
0.5062962972
 40
1.0
 40
1.0
 40
1.0
 40
1.0
 10
12.3426165088
 20
7.8230227426
 30
0.0
 10
12.3457729279
 20
7.8233364125
 30
0.0
 10
12.3520225585
 20
7.8238111197
 30
0.0
 10
12.3582883975
 20
7.8239812111
 30
0.0
 10
12.3613814708
 20
7.8239812129
 30
0.0
  0
SPLINE
  5
277
100
AcDbEntity
  8
0
100
AcDbSpline
 62
9
  6
CONTINUOUS
 70
0
 71
3
 72
11
 73
7
 74
0
 42
0.0000001
 43
0.0000001
 44
0.0000000001
 40
0.0
 40
0.0
 40
0.0
 40
0.0
 40
0.285271088
 40
0.5478233501
 40
0.7863572454
 40
1.0
 40
1.0
 40
1.0
 40
1.0
 10
12.7103017447
 20
7.8239812129
 30
0.0
 10
12.7114433062
 20
7.8239812124
 30
0.0
 10
12.7136357773
 20
7.8239453753
 30
0.0
 10
12.7167786059
 20
7.8237700635
 30
0.0
 10
12.7196248031
 20
7.8234772218
 30
0.0
 10
12.7214128554
 20
7.8231900562
 30
0.0
 10
12.7222512519
 20
7.8230227426
 30
0.0
  0
SPLINE
  5
278
100
AcDbEntity
  8
0
100
AcDbSpline
 62
9
  6
CONTINUOUS
 70
0
 71
3
 72
13
 73
9
 74
0
 42
0.0000001
 43
0.0000001
 44
0.0000000001
 40
0.0
 40
0.0
 40
0.0
 40
0.0
 40
0.2500502499
 40
0.3745194478
 40
0.498924098
 40
0.6234733478
 40
0.7483684988
 40
1.0
 40
1.0
 40
1.0
 40
1.0
 10
12.7222512519
 20
7.8230227426
 30
0.0
 10
12.7456432001
 20
7.8183545116
 30
0.0
 10
12.7810855725
 20
7.8132415053
 30
0.0
 10
12.8285732596
 20
7.8099060164
 30
0.0
 10
12.8641998325
 20
7.8090789068
 30
0.0
 10
12.8998669028
 20
7.8099079184
 30
0.0
 10
12.9475600177
 20
7.8132487848
 30
0.0
 10
12.9831944784
 20
7.8183617382
 30
0.0
 10
13.0067416548
 20
7.8230227426
 30
0.0
  0
SPLINE
  5
279
100
AcDbEntity
  8
0
100
AcDbSpline
 62
9
  6
CONTINUOUS
 70
0
 71
3
 72
11
 73
7
 74
0
 42
0.0000001
 43
0.0000001
 44
0.0000000001
 40
0.0
 40
0.0
 40
0.0
 40
0.0
 40
0.3283205991
 40
0.6055953323
 40
0.8298639933
 40
1.0
 40
1.0
 40
1.0
 40
1.0
 10
13.0067416548
 20
7.8230227426
 30
0.0
 10
13.0074813507
 20
7.8231691603
 30
0.0
 10
13.0088481434
 20
7.8234272509
 30
0.0
 10
13.010729872
 20
7.82373272
 30
0.0
 10
13.012261009
 20
7.8239220449
 30
0.0
 10
13.0131663614
 20
7.8239812119
 30
0.0
 10
13.0135571097
 20
7.8239812129
 30
0.0
  0
SPLINE
  5
27A
100
AcDbEntity
  8
0
100
AcDbSpline
 62
9
  6
CONTINUOUS
 70
0
 71
3
 72
13
 73
9
 74
0
 42
0.0000001
 43
0.0000001
 44
0.0000000001
 40
0.0
 40
0.0
 40
0.0
 40
0.0
 40
0.1295632552
 40
0.2595162096
 40
0.5154397595
 40
0.6407594498
 40
0.7635818277
 40
1.0
 40
1.0
 40
1.0
 40
1.0
 10
12.7352092848
 20
7.8419726495
 30
0.0
 10
12.7351577485
 20
7.8409274479
 30
0.0
 10
12.7349089997
 20
7.8388379506
 30
0.0
 10
12.7338682774
 20
7.8347982524
 30
0.0
 10
12.7320228365
 20
7.8310334093
 30
0.0
 10
12.7294833341
 20
7.8278347326
 30
0.0
 10
12.7266202193
 20
7.8251526267
 30
0.0
 10
12.7240464669
 20
7.823673516
 30
0.0
 10
12.7222512519
 20
7.8230227426
 30
0.0
  0
SPLINE
  5
27B
100
AcDbEntity
  8
0
100
AcDbSpline
 62
9
  6
CONTINUOUS
 70
0
 71
3
 72
15
 73
11
 74
0
 42
0.0000001
 43
0.0000001
 44
0.0000000001
 40
0.0
 40
0.0
 40
0.0
 40
0.0
 40
0.1330320407
 40
0.2647452283
 40
0.3940386349
 40
0.5205147679
 40
0.6440845672
 40
0.764944213
 40
0.8834915865
 40
1.0
 40
1.0
 40
1.0
 40
1.0
 10
11.0984212717
 20
7.8419726495
 30
0.0
 10
11.0983700818
 20
7.8409344746
 30
0.0
 10
11.0984104398
 20
7.8388586696
 30
0.0
 10
11.0988931049
 20
7.83580807
 30
0.0
 10
11.0997955633
 20
7.832906627
 30
0.0
 10
11.1010903106
 20
7.8302276677
 30
0.0
 10
11.1027501585
 20
7.8278370761
 30
0.0
 10
11.1047342173
 20
7.8257914872
 30
0.0
 10
11.1069957231
 20
7.8241501372
 30
0.0
 10
11.1086584532
 20
7.8233430858
 30
0.0
 10
11.109510557
 20
7.8230227426
 30
0.0
  0
SPLINE
  5
27C
100
AcDbEntity
  8
0
100
AcDbSpline
 62
9
  6
CONTINUOUS
 70
0
 71
3
 72
11
 73
7
 74
0
 42
0.0000001
 43
0.0000001
 44
0.0000000001
 40
0.0
 40
0.0
 40
0.0
 40
0.0
 40
0.1701360603
 40
0.3944048318
 40
0.6716794891
 40
1.0
 40
1.0
 40
1.0
 40
1.0
 10
13.0135571097
 20
8.1298023952
 30
0.0
 10
13.0131663613
 20
8.1298023958
 30
0.0
 10
13.0122610085
 20
8.1298615635
 30
0.0
 10
13.0107298713
 20
8.1300508881
 30
0.0
 10
13.0088481429
 20
8.1303563573
 30
0.0
 10
13.0074813505
 20
8.130614448
 30
0.0
 10
13.0067416548
 20
8.1307608655
 30
0.0
  0
SPLINE
  5
27D
100
AcDbEntity
  8
0
100
AcDbSpline
 62
9
  6
CONTINUOUS
 70
0
 71
3
 72
13
 73
9
 74
0
 42
0.0000001
 43
0.0000001
 44
0.0000000001
 40
0.0
 40
0.0
 40
0.0
 40
0.0
 40
0.251631533
 40
0.3765267727
 40
0.5010760028
 40
0.6254806567
 40
0.7499499344
 40
1.0
 40
1.0
 40
1.0
 40
1.0
 10
13.0067416548
 20
8.1307608655
 30
0.0
 10
12.9831944763
 20
8.1354218751
 30
0.0
 10
12.9475599993
 20
8.140534789
 30
0.0
 10
12.8998668788
 20
8.1438757087
 30
0.0
 10
12.8641998
 20
8.1447047019
 30
0.0
 10
12.8285732227
 20
8.1438775703
 30
0.0
 10
12.7810855401
 20
8.1405421444
 30
0.0
 10
12.745643184
 20
8.1354290877
 30
0.0
 10
12.7222512519
 20
8.1307608655
 30
0.0
  0
SPLINE
  5
27E
100
AcDbEntity
  8
0
100
AcDbSpline
 62
9
  6
CONTINUOUS
 70
0
 71
3
 72
11
 73
7
 74
0
 42
0.0000001
 43
0.0000001
 44
0.0000000001
 40
0.0
 40
0.0
 40
0.0
 40
0.0
 40
0.2518981631
 40
0.5028389678
 40
0.7522152989
 40
1.0
 40
1.0
 40
1.0
 40
1.0
 10
11.0894243764
 20
7.8429168568
 30
0.0
 10
11.0894243764
 20
7.8408544241
 30
0.0
 10
11.0900562122
 20
7.8367100878
 30
0.0
 10
11.092815897
 20
7.8310993031
 30
0.0
 10
11.0971216814
 20
7.826609339
 30
0.0
 10
11.1007787226
 20
7.8246470434
 30
0.0
 10
11.1026951021
 20
7.8239812129
 30
0.0
  0
SPLINE
  5
27F
100
AcDbEntity
  8
0
100
AcDbSpline
 62
9
  6
CONTINUOUS
 70
0
 71
3
 72
13
 73
9
 74
0
 42
0.0000001
 43
0.0000001
 44
0.0000000001
 40
0.0
 40
0.0
 40
0.0
 40
0.0
 40
0.1295632551
 40
0.2595162092
 40
0.5154397585
 40
0.6407594485
 40
0.7635818264
 40
1.0
 40
1.0
 40
1.0
 40
1.0
 10
11.3810429269
 20
7.8419726495
 30
0.0
 10
11.3810944633
 20
7.8409274479
 30
0.0
 10
11.381343212
 20
7.8388379506
 30
0.0
 10
11.3823839343
 20
7.8347982524
 30
0.0
 10
11.3842293752
 20
7.8310334093
 30
0.0
 10
11.3867688776
 20
7.8278347326
 30
0.0
 10
11.3896319925
 20
7.8251526267
 30
0.0
 10
11.3922057448
 20
7.823673516
 30
0.0
 10
11.3940009599
 20
7.8230227426
 30
0.0
  0
SPLINE
  5
280
100
AcDbEntity
  8
0
100
AcDbSpline
 62
9
  6
CONTINUOUS
 70
0
 71
3
 72
15
 73
11
 74
0
 42
0.0000001
 43
0.0000001
 44
0.0000000001
 40
0.0
 40
0.0
 40
0.0
 40
0.0
 40
0.1408859979
 40
0.2802635931
 40
0.4158819074
 40
0.5462408583
 40
0.6702299657
 40
0.7872113826
 40
0.8970324686
 40
1.0
 40
1.0
 40
1.0
 40
1.0
 10
11.3968918914
 20
7.8429168568
 30
0.0
 10
11.3968918914
 20
7.8418850478
 30
0.0
 10
11.3969991516
 20
7.8398309635
 30
0.0
 10
11.3974718785
 20
7.836816527
 30
0.0
 10
11.3982518529
 20
7.8339455717
 30
0.0
 10
11.3993162887
 20
7.8312878169
 30
0.0
 10
11.4006437099
 20
7.8289051249
 30
0.0
 10
11.4022034252
 20
7.8268510295
 30
0.0
 10
11.4039630881
 20
7.8251808128
 30
0.0
 10
11.4052784116
 20
7.8243232885
 30
0.0
 10
11.405950467
 20
7.8239812129
 30
0.0
  0
SPLINE
  5
281
100
AcDbEntity
  8
0
100
AcDbSpline
 62
9
  6
CONTINUOUS
 70
0
 71
3
 72
16
 73
12
 74
0
 42
0.0000001
 43
0.0000001
 44
0.0000000001
 40
0.0
 40
0.0
 40
0.0
 40
0.0
 40
0.1569647207
 40
0.3109187099
 40
0.4579942896
 40
0.5951637076
 40
0.7197746286
 40
0.8296771912
 40
0.9232513688
 40
0.9637230895
 40
1.0
 40
1.0
 40
1.0
 40
1.0
 10
11.7506585909
 20
7.8429168568
 30
0.0
 10
11.7506585909
 20
7.8418861455
 30
0.0
 10
11.7507079903
 20
7.8398441628
 30
0.0
 10
11.7509257993
 20
7.8368434297
 30
0.0
 10
11.7512848111
 20
7.8339869901
 30
0.0
 10
11.7517736241
 20
7.8313453843
 30
0.0
 10
11.7523814921
 20
7.8289791028
 30
0.0
 10
11.7530920073
 20
7.8269423399
 30
0.0
 10
11.7537879845
 20
7.8254930204
 30
0.0
 10
11.7543949704
 20
7.8245520966
 30
0.0
 10
11.7547100738
 20
7.8241570863
 30
0.0
 10
11.7548707409
 20
7.8239812129
 30
0.0
  0
SPLINE
  5
282
100
AcDbEntity
  8
0
100
AcDbSpline
 62
9
  6
CONTINUOUS
 70
0
 71
3
 72
11
 73
7
 74
0
 42
0.0000001
 43
0.0000001
 44
0.0000000001
 40
0.0
 40
0.0
 40
0.0
 40
0.0
 40
0.3274400487
 40
0.604376207
 40
0.8289666552
 40
1.0
 40
1.0
 40
1.0
 40
1.0
 10
11.0984212717
 20
8.1118109586
 30
0.0
 10
11.097443917
 20
8.1116663944
 30
0.0
 10
11.0956381338
 20
8.1114116789
 30
0.0
 10
11.0931547214
 20
8.1111108265
 30
0.0
 10
11.0911338241
 20
8.1109246551
 30
0.0
 10
11.0899404371
 20
8.1108667516
 30
0.0
 10
11.0894243764
 20
8.1108667513
 30
0.0
  0
SPLINE
  5
283
100
AcDbEntity
  8
0
100
AcDbSpline
 62
9
  6
CONTINUOUS
 70
0
 71
3
 72
11
 73
7
 74
0
 42
0.0000001
 43
0.0000001
 44
0.0000000001
 40
0.0
 40
0.0
 40
0.0
 40
0.0
 40
0.1710333528
 40
0.3956238394
 40
0.6725600058
 40
1.0
 40
1.0
 40
1.0
 40
1.0
 10
11.0894243764
 20
7.8429168568
 30
0.0
 10
11.0899404371
 20
7.8429168566
 30
0.0
 10
11.0911338242
 20
7.8428589529
 30
0.0
 10
11.0931547218
 20
7.8426727823
 30
0.0
 10
11.0956381339
 20
7.8423719269
 30
0.0
 10
11.0974439167
 20
7.8421172103
 30
0.0
 10
11.0984212717
 20
7.8419726495
 30
0.0
  0
SPLINE
  5
284
100
AcDbEntity
  8
0
100
AcDbSpline
 62
9
  6
CONTINUOUS
 70
0
 71
3
 72
11
 73
7
 74
0
 42
0.0000001
 43
0.0000001
 44
0.0000000001
 40
0.0
 40
0.0
 40
0.0
 40
0.0
 40
0.285290397
 40
0.5479742563
 40
0.7865922476
 40
1.0
 40
1.0
 40
1.0
 40
1.0
 10
11.3968918914
 20
8.1108667513
 30
0.0
 10
11.3953808382
 20
8.1108667515
 30
0.0
 10
11.3924782784
 20
8.1109020138
 30
0.0
 10
11.3883149158
 20
8.1110744005
 30
0.0
 10
11.3845395926
 20
8.1113625178
 30
0.0
 10
11.3821610855
 20
8.1116455718
 30
0.0
 10
11.3810429269
 20
8.1118109586
 30
0.0
  0
SPLINE
  5
285
100
AcDbEntity
  8
0
100
AcDbSpline
 62
9
  6
CONTINUOUS
 70
0
 71
3
 72
11
 73
7
 74
0
 42
0.0000001
 43
0.0000001
 44
0.0000000001
 40
0.0
 40
0.0
 40
0.0
 40
0.0
 40
0.213407773
 40
0.4520257938
 40
0.7147096292
 40
1.0
 40
1.0
 40
1.0
 40
1.0
 10
11.3810429269
 20
7.8419726495
 30
0.0
 10
11.382161085
 20
7.8421380402
 30
0.0
 10
11.3845395929
 20
7.8424210919
 30
0.0
 10
11.3883149163
 20
7.8427092069
 30
0.0
 10
11.3924782788
 20
7.8428815944
 30
0.0
 10
11.3953808384
 20
7.8429168565
 30
0.0
 10
11.3968918914
 20
7.8429168568
 30
0.0
  0
SPLINE
  5
286
100
AcDbEntity
  8
0
100
AcDbSpline
 62
9
  6
CONTINUOUS
 70
0
 71
3
 72
11
 73
7
 74
0
 42
0.0000001
 43
0.0000001
 44
0.0000000001
 40
0.0
 40
0.0
 40
0.0
 40
0.0
 40
0.213407773
 40
0.4520257938
 40
0.7147096292
 40
1.0
 40
1.0
 40
1.0
 40
1.0
 10
12.7352092848
 20
8.1118109586
 30
0.0
 10
12.7340911268
 20
8.1116455679
 30
0.0
 10
12.7317126189
 20
8.1113625162
 30
0.0
 10
12.7279372955
 20
8.1110744012
 30
0.0
 10
12.7237739329
 20
8.1109020137
 30
0.0
 10
12.7208713734
 20
8.1108667516
 30
0.0
 10
12.7193603204
 20
8.1108667513
 30
0.0
  0
SPLINE
  5
287
100
AcDbEntity
  8
0
100
AcDbSpline
 62
9
  6
CONTINUOUS
 70
0
 71
3
 72
11
 73
7
 74
0
 42
0.0000001
 43
0.0000001
 44
0.0000000001
 40
0.0
 40
0.0
 40
0.0
 40
0.0
 40
0.285290397
 40
0.5479742563
 40
0.7865922476
 40
1.0
 40
1.0
 40
1.0
 40
1.0
 10
12.7193603204
 20
7.8429168568
 30
0.0
 10
12.7208713735
 20
7.8429168566
 30
0.0
 10
12.7237739333
 20
7.8428815943
 30
0.0
 10
12.727937296
 20
7.8427092076
 30
0.0
 10
12.7317126191
 20
7.8424210902
 30
0.0
 10
12.7340911263
 20
7.8421380363
 30
0.0
 10
12.7352092848
 20
7.8419726495
 30
0.0
  0
SPLINE
  5
288
100
AcDbEntity
  8
0
100
AcDbSpline
 62
9
  6
CONTINUOUS
 70
0
 71
3
 72
11
 73
7
 74
0
 42
0.0000001
 43
0.0000001
 44
0.0000000001
 40
0.0
 40
0.0
 40
0.0
 40
0.0
 40
0.1710333528
 40
0.3956238394
 40
0.6725600058
 40
1.0
 40
1.0
 40
1.0
 40
1.0
 10
13.0268278354
 20
8.1108667513
 30
0.0
 10
13.0263117746
 20
8.1108667515
 30
0.0
 10
13.0251183876
 20
8.1109246552
 30
0.0
 10
13.02309749
 20
8.1111108258
 30
0.0
 10
13.0206140779
 20
8.1114116812
 30
0.0
 10
13.0188082951
 20
8.1116663978
 30
0.0
 10
13.0178309401
 20
8.1118109586
 30
0.0
  0
SPLINE
  5
289
100
AcDbEntity
  8
0
100
AcDbSpline
 62
9
  6
CONTINUOUS
 70
0
 71
3
 72
11
 73
7
 74
0
 42
0.0000001
 43
0.0000001
 44
0.0000000001
 40
0.0
 40
0.0
 40
0.0
 40
0.0
 40
0.3274400487
 40
0.604376207
 40
0.8289666552
 40
1.0
 40
1.0
 40
1.0
 40
1.0
 10
13.0178309401
 20
7.8419726495
 30
0.0
 10
13.0188082948
 20
7.8421172137
 30
0.0
 10
13.0206140779
 20
7.8423719292
 30
0.0
 10
13.0230974904
 20
7.8426727816
 30
0.0
 10
13.0251183877
 20
7.842858953
 30
0.0
 10
13.0263117747
 20
7.8429168564
 30
0.0
 10
13.0268278354
 20
7.8429168568
 30
0.0
  0
SPLINE
  5
28A
100
AcDbEntity
  8
0
100
AcDbSpline
 62
9
  6
CONTINUOUS
 70
0
 71
3
 72
16
 73
12
 74
0
 42
0.0000001
 43
0.0000001
 44
0.0000000001
 40
0.0
 40
0.0
 40
0.0
 40
0.0
 40
0.1569647206
 40
0.3109187098
 40
0.4579942896
 40
0.5951637075
 40
0.7197746285
 40
0.8296771911
 40
0.9232513687
 40
0.9637230895
 40
1.0
 40
1.0
 40
1.0
 40
1.0
 10
12.3655936209
 20
7.8429168568
 30
0.0
 10
12.3655936209
 20
7.8418861455
 30
0.0
 10
12.3655442215
 20
7.8398441628
 30
0.0
 10
12.3653264124
 20
7.8368434297
 30
0.0
 10
12.3649674007
 20
7.8339869901
 30
0.0
 10
12.3644785877
 20
7.8313453843
 30
0.0
 10
12.3638707197
 20
7.8289791028
 30
0.0
 10
12.3631602044
 20
7.8269423399
 30
0.0
 10
12.3624642273
 20
7.8254930204
 30
0.0
 10
12.3618572413
 20
7.8245520966
 30
0.0
 10
12.361542138
 20
7.8241570863
 30
0.0
 10
12.3613814708
 20
7.8239812129
 30
0.0
  0
SPLINE
  5
28B
100
AcDbEntity
  8
0
100
AcDbSpline
 62
9
  6
CONTINUOUS
 70
0
 71
3
 72
15
 73
11
 74
0
 42
0.0000001
 43
0.0000001
 44
0.0000000001
 40
0.0
 40
0.0
 40
0.0
 40
0.0
 40
0.1408859979
 40
0.2802635931
 40
0.4158819074
 40
0.5462408583
 40
0.6702299657
 40
0.7872113826
 40
0.8970324686
 40
1.0
 40
1.0
 40
1.0
 40
1.0
 10
12.7193603204
 20
7.8429168568
 30
0.0
 10
12.7193603204
 20
7.8418850478
 30
0.0
 10
12.7192530601
 20
7.8398309635
 30
0.0
 10
12.7187803332
 20
7.836816527
 30
0.0
 10
12.7180003589
 20
7.8339455717
 30
0.0
 10
12.7169359231
 20
7.8312878169
 30
0.0
 10
12.7156085018
 20
7.8289051249
 30
0.0
 10
12.7140487866
 20
7.8268510295
 30
0.0
 10
12.7122891236
 20
7.8251808128
 30
0.0
 10
12.7109738002
 20
7.8243232885
 30
0.0
 10
12.7103017447
 20
7.8239812129
 30
0.0
  0
SPLINE
  5
28C
100
AcDbEntity
  8
0
100
AcDbSpline
 62
9
  6
CONTINUOUS
 70
0
 71
3
 72
15
 73
11
 74
0
 42
0.0000001
 43
0.0000001
 44
0.0000000001
 40
0.0
 40
0.0
 40
0.0
 40
0.0
 40
0.1330320411
 40
0.2647452291
 40
0.3940386363
 40
0.5205147697
 40
0.6440845692
 40
0.7649442148
 40
0.8834915876
 40
1.0
 40
1.0
 40
1.0
 40
1.0
 10
13.0178309401
 20
7.8419726495
 30
0.0
 10
13.0178821299
 20
7.8409344746
 30
0.0
 10
13.017841772
 20
7.8388586696
 30
0.0
 10
13.0173591068
 20
7.83580807
 30
0.0
 10
13.0164566484
 20
7.832906627
 30
0.0
 10
13.0151619011
 20
7.8302276677
 30
0.0
 10
13.0135020532
 20
7.8278370761
 30
0.0
 10
13.0115179944
 20
7.8257914872
 30
0.0
 10
13.0092564886
 20
7.8241501372
 30
0.0
 10
13.0075937586
 20
7.8233430858
 30
0.0
 10
13.0067416548
 20
7.8230227426
 30
0.0
  0
SPLINE
  5
28D
100
AcDbEntity
  8
0
100
AcDbSpline
 62
9
  6
CONTINUOUS
 70
0
 71
3
 72
11
 73
7
 74
0
 42
0.0000001
 43
0.0000001
 44
0.0000000001
 40
0.0
 40
0.0
 40
0.0
 40
0.0
 40
0.2518981631
 40
0.5028389678
 40
0.7522152989
 40
1.0
 40
1.0
 40
1.0
 40
1.0
 10
13.0268278354
 20
7.8429168568
 30
0.0
 10
13.0268278354
 20
7.8408544241
 30
0.0
 10
13.0261959996
 20
7.8367100878
 30
0.0
 10
13.0234363148
 20
7.8310993031
 30
0.0
 10
13.0191305304
 20
7.826609339
 30
0.0
 10
13.0154734892
 20
7.8246470434
 30
0.0
 10
13.0135571097
 20
7.8239812129
 30
0.0
  0
SPLINE
  5
28E
100
AcDbEntity
  8
0
100
AcDbSpline
 62
9
  6
CONTINUOUS
 70
0
 71
3
 72
11
 73
7
 74
0
 42
0.0000001
 43
0.0000001
 44
0.0000000001
 40
0.0
 40
0.0
 40
0.0
 40
0.0
 40
0.2518981631
 40
0.5028389678
 40
0.7522152989
 40
1.0
 40
1.0
 40
1.0
 40
1.0
 10
13.0268278354
 20
8.1108667513
 30
0.0
 10
13.0268278354
 20
8.112929184
 30
0.0
 10
13.0261959996
 20
8.1170735203
 30
0.0
 10
13.0234363148
 20
8.122684305
 30
0.0
 10
13.0191305304
 20
8.1271742691
 30
0.0
 10
13.0154734892
 20
8.1291365647
 30
0.0
 10
13.0135571097
 20
8.1298023952
 30
0.0
  0
SPLINE
  5
28F
100
AcDbEntity
  8
0
100
AcDbSpline
 62
9
  6
CONTINUOUS
 70
0
 71
3
 72
13
 73
9
 74
0
 42
0.0000001
 43
0.0000001
 44
0.0000000001
 40
0.0
 40
0.0
 40
0.0
 40
0.0
 40
0.1295632551
 40
0.2595162092
 40
0.5154397585
 40
0.6407594485
 40
0.7635818264
 40
1.0
 40
1.0
 40
1.0
 40
1.0
 10
12.7352092848
 20
8.1118109586
 30
0.0
 10
12.7351577485
 20
8.1128561602
 30
0.0
 10
12.7349089998
 20
8.1149456575
 30
0.0
 10
12.7338682774
 20
8.1189853557
 30
0.0
 10
12.7320228365
 20
8.1227501988
 30
0.0
 10
12.7294833342
 20
8.1259488755
 30
0.0
 10
12.7266202193
 20
8.1286309814
 30
0.0
 10
12.724046467
 20
8.1301100921
 30
0.0
 10
12.7222512519
 20
8.1307608655
 30
0.0
  0
SPLINE
  5
290
100
AcDbEntity
  8
0
100
AcDbSpline
 62
9
  6
CONTINUOUS
 70
0
 71
3
 72
15
 73
11
 74
0
 42
0.0000001
 43
0.0000001
 44
0.0000000001
 40
0.0
 40
0.0
 40
0.0
 40
0.0
 40
0.1408859979
 40
0.2802635931
 40
0.4158819074
 40
0.5462408583
 40
0.6702299657
 40
0.7872113826
 40
0.8970324686
 40
1.0
 40
1.0
 40
1.0
 40
1.0
 10
12.7193603204
 20
8.1108667513
 30
0.0
 10
12.7193603204
 20
8.1118985603
 30
0.0
 10
12.7192530601
 20
8.1139526446
 30
0.0
 10
12.7187803332
 20
8.1169670811
 30
0.0
 10
12.7180003589
 20
8.1198380364
 30
0.0
 10
12.7169359231
 20
8.1224957912
 30
0.0
 10
12.7156085018
 20
8.1248784832
 30
0.0
 10
12.7140487866
 20
8.1269325786
 30
0.0
 10
12.7122891236
 20
8.1286027953
 30
0.0
 10
12.7109738002
 20
8.1294603196
 30
0.0
 10
12.7103017447
 20
8.1298023952
 30
0.0
  0
SPLINE
  5
291
100
AcDbEntity
  8
0
100
AcDbSpline
 62
9
  6
CONTINUOUS
 70
0
 71
3
 72
16
 73
12
 74
0
 42
0.0000001
 43
0.0000001
 44
0.0000000001
 40
0.0
 40
0.0
 40
0.0
 40
0.0
 40
0.1569647207
 40
0.3109187099
 40
0.4579942896
 40
0.5951637076
 40
0.7197746286
 40
0.8296771912
 40
0.9232513688
 40
0.9637230895
 40
1.0
 40
1.0
 40
1.0
 40
1.0
 10
12.3655936209
 20
8.1108667513
 30
0.0
 10
12.3655936209
 20
8.1118974626
 30
0.0
 10
12.3655442215
 20
8.1139394453
 30
0.0
 10
12.3653264124
 20
8.1169401784
 30
0.0
 10
12.3649674007
 20
8.119796618
 30
0.0
 10
12.3644785877
 20
8.1224382238
 30
0.0
 10
12.3638707197
 20
8.1248045053
 30
0.0
 10
12.3631602044
 20
8.1268412682
 30
0.0
 10
12.3624642273
 20
8.1282905877
 30
0.0
 10
12.3618572413
 20
8.1292315115
 30
0.0
 10
12.361542138
 20
8.1296265218
 30
0.0
 10
12.3613814708
 20
8.1298023952
 30
0.0
  0
SPLINE
  5
292
100
AcDbEntity
  8
0
100
AcDbSpline
 62
9
  6
CONTINUOUS
 70
0
 71
3
 72
16
 73
12
 74
0
 42
0.0000001
 43
0.0000001
 44
0.0000000001
 40
0.0
 40
0.0
 40
0.0
 40
0.0
 40
0.1569647206
 40
0.3109187098
 40
0.4579942896
 40
0.5951637075
 40
0.7197746285
 40
0.8296771911
 40
0.9232513687
 40
0.9637230895
 40
1.0
 40
1.0
 40
1.0
 40
1.0
 10
11.7506585909
 20
8.1108667513
 30
0.0
 10
11.7506585909
 20
8.1118974626
 30
0.0
 10
11.7507079903
 20
8.1139394453
 30
0.0
 10
11.7509257993
 20
8.1169401784
 30
0.0
 10
11.7512848111
 20
8.119796618
 30
0.0
 10
11.7517736241
 20
8.1224382238
 30
0.0
 10
11.7523814921
 20
8.1248045053
 30
0.0
 10
11.7530920073
 20
8.1268412682
 30
0.0
 10
11.7537879845
 20
8.1282905877
 30
0.0
 10
11.7543949704
 20
8.1292315115
 30
0.0
 10
11.7547100738
 20
8.1296265218
 30
0.0
 10
11.7548707409
 20
8.1298023952
 30
0.0
  0
SPLINE
  5
293
100
AcDbEntity
  8
0
100
AcDbSpline
 62
9
  6
CONTINUOUS
 70
0
 71
3
 72
15
 73
11
 74
0
 42
0.0000001
 43
0.0000001
 44
0.0000000001
 40
0.0
 40
0.0
 40
0.0
 40
0.0
 40
0.1408859979
 40
0.2802635931
 40
0.4158819074
 40
0.5462408583
 40
0.6702299657
 40
0.7872113826
 40
0.8970324686
 40
1.0
 40
1.0
 40
1.0
 40
1.0
 10
11.3968918914
 20
8.1108667513
 30
0.0
 10
11.3968918914
 20
8.1118985603
 30
0.0
 10
11.3969991516
 20
8.1139526446
 30
0.0
 10
11.3974718785
 20
8.1169670811
 30
0.0
 10
11.3982518529
 20
8.1198380363
 30
0.0
 10
11.3993162887
 20
8.1224957912
 30
0.0
 10
11.4006437099
 20
8.1248784832
 30
0.0
 10
11.4022034252
 20
8.1269325786
 30
0.0
 10
11.4039630881
 20
8.1286027953
 30
0.0
 10
11.4052784116
 20
8.1294603196
 30
0.0
 10
11.405950467
 20
8.1298023952
 30
0.0
  0
SPLINE
  5
294
100
AcDbEntity
  8
0
100
AcDbSpline
 62
9
  6
CONTINUOUS
 70
0
 71
3
 72
15
 73
11
 74
0
 42
0.0000001
 43
0.0000001
 44
0.0000000001
 40
0.0
 40
0.0
 40
0.0
 40
0.0
 40
0.1330320411
 40
0.2647452291
 40
0.3940386363
 40
0.5205147697
 40
0.6440845692
 40
0.7649442148
 40
0.8834915876
 40
1.0
 40
1.0
 40
1.0
 40
1.0
 10
11.0984212717
 20
8.1118109586
 30
0.0
 10
11.0983700818
 20
8.1128491335
 30
0.0
 10
11.0984104398
 20
8.1149249385
 30
0.0
 10
11.0988931049
 20
8.1179755381
 30
0.0
 10
11.0997955634
 20
8.1208769811
 30
0.0
 10
11.1010903107
 20
8.1235559404
 30
0.0
 10
11.1027501586
 20
8.125946532
 30
0.0
 10
11.1047342173
 20
8.1279921209
 30
0.0
 10
11.1069957231
 20
8.1296334709
 30
0.0
 10
11.1086584532
 20
8.1304405223
 30
0.0
 10
11.109510557
 20
8.1307608655
 30
0.0
  0
SPLINE
  5
295
100
AcDbEntity
  8
0
100
AcDbSpline
 62
9
  6
CONTINUOUS
 70
0
 71
3
 72
11
 73
7
 74
0
 42
0.0000001
 43
0.0000001
 44
0.0000000001
 40
0.0
 40
0.0
 40
0.0
 40
0.0
 40
0.2518981631
 40
0.5028389679
 40
0.7522152989
 40
1.0
 40
1.0
 40
1.0
 40
1.0
 10
11.0894243764
 20
8.1108667513
 30
0.0
 10
11.0894243764
 20
8.112929184
 30
0.0
 10
11.0900562122
 20
8.1170735203
 30
0.0
 10
11.092815897
 20
8.122684305
 30
0.0
 10
11.0971216814
 20
8.1271742691
 30
0.0
 10
11.1007787226
 20
8.1291365647
 30
0.0
 10
11.1026951021
 20
8.1298023952
 30
0.0
  0
ENDSEC
  0
SECTION
  2
OBJECTS
  0
DICTIONARY
  5
C
100
AcDbDictionary
280
0
281
1
  3
ACAD_GROUP
350
D
  3
ACAD_MLINESTYLE
350
17
  3
ACAD_LAYOUT
350
1A
  3
ACAD_PLOTSETTINGS
350
19
  3
ACAD_PLOTSTYLENAME
350
E
  0
DICTIONARY
  5
D
102
{ACAD_REACTORS
330
C
102
}
100
AcDbDictionary
280
0
281
1
  0
ACDBDICTIONARYWDFLT
  5
E
102
{ACAD_REACTORS
330
C
102
}
100
AcDbDictionary
281
1
  3
Normal
350
F
100
AcDbDictionaryWithDefault
340
F
  0
DICTIONARY
  5
17
102
{ACAD_REACTORS
330
C
102
}
100
AcDbDictionary
280
0
281
1
  3
Standard
350
18
  0
DICTIONARY
  5
19
102
{ACAD_REACTORS
330
C
102
}
100
AcDbDictionary
281
1
  0
DICTIONARY
  5
1A
102
{ACAD_REACTORS
330
C
102
}
100
AcDbDictionary
281
1
  3
Model
350
296
  3
Layout1
350
297
  0
ACDBPLACEHOLDER
  5
F
102
{ACAD_REACTORS
330
E
102
}
  0
MLINESTYLE
  5
18
102
{ACAD_REACTORS
330
17
102
}
100
AcDbMlineStyle
  2
STANDARD
 70
0
  3

 62
256
 51
90.0
 52
90.0
 71
2
 49
0.5
 62
256
  6
BYLAYER
 49
-0.5
 62
256
  6
BYLAYER
  0
LAYOUT
  5
296
102
{ACAD_REACTORS
330
1A
102
}
100
AcDbPlotSettings
  1

  2
none_device
  4
ANSI_C_(22.00_x_17.00_Inches)
  6

 40
0.0
 41
0.0
 42
0.0
 43
0.0
 44
558.8
 45
431.8
 46
0.0
 47
0.0
 48
0.0
 49
0.0
140
0.0
141
0.0
142
1.0
143
1.0
 70
1024
 72
0
 73
0
 74
0
  7

 75
0
147
1.0
148
0.0
149
0.0
100
AcDbLayout
  1
Model
 70
0
 71
0
 10
0.0
 20
0.0
 11
22.0
 21
17.0
 12
0.0
 22
0.0
 32
0.0
 14
0.0
 24
0.0
 34
0.0
 15
0.0
 25
0.0
 35
0.0
146
0.0
 13
0.0
 23
0.0
 33
0.0
 16
1.0
 26
0.0
 36
0.0
 17
0.0
 27
1.0
 37
0.0
 76
0
330
205
345
0
346
0
  0
LAYOUT
  5
297
102
{ACAD_REACTORS
330
1A
102
}
100
AcDbPlotSettings
  1

  2
none_device
  4
ANSI_C_(22.00_x_17.00_Inches)
  6

 40
0.0
 41
0.0
 42
0.0
 43
0.0
 44
558.8
 45
431.8
 46
0.0
 47
0.0
 48
0.0
 49
0.0
140
0.0
141
0.0
142
1.0
143
1.0
 70
0
 72
0
 73
0
 74
0
  7

 75
0
147
1.0
148
0.0
149
0.0
100
AcDbLayout
  1
Layout1
 70
0
 71
1
 10
0.0
 20
0.0
 11
22.0
 21
17.0
 12
0.0
 22
0.0
 32
0.0
 14
0.0
 24
0.0
 34
0.0
 15
0.0
 25
0.0
 35
0.0
146
0.0
 13
0.0
 23
0.0
 33
0.0
 16
1.0
 26
0.0
 36
0.0
 17
0.0
 27
1.0
 37
0.0
 76
0
330
206
345
0
346
0
  0
ENDSEC
  0
EOF
