999
DXF file: E:\BT Custom\CADOUTPUT\_TOP.dxf
999
Pro/ENGINEER 2018400 by Parametric Technology Corporation
  0
SECTION
  2
HEADER
  9
$ACADVER
  1
AC1018
  9
$DWGCODEPAGE
  3
ANSI_1252
  9
$EXTMAX
 10
22.0
 20
17.0
 30
0.0
  9
$EXTMIN
 10
0.0
 20
0.0
 30
0.0
  9
$LIMMIN
 10
0.0
 20
0.0
  9
$LIMMAX
 10
22.0
 20
17.0
  9
$VIEWCTR
 10
11.0
 20
8.5
  9
$VIEWSIZE
 40
17.0
  9
$CLAYER
  8
0
  9
$LTSCALE
 40
1.21
  9
$CELTYPE
  6
BYLAYER
  9
$DIMSCALE
 40
1.0
  9
$DIMASZ
 40
0.1
  9
$DIMEXO
 40
0.0625
  9
$DIMDLI
 40
0.836
  9
$DIMEXE
 40
0.125
  9
$DIMCEN
 40
0.198
  9
$DIMLFAC
 40
1.0
  9
$DIMBLK
  1
_FILLED
  9
$DIMALT
 70
1
  9
$DIMALTD
 70
2
  9
$DIMALTTD
 70
2
  9
$DIMALTF
 40
25.4
  9
$DIMTXT
 40
0.08
  9
$DIMTOL
 70
1
  9
$DIMLIM
 70
0
  9
$DIMTFAC
 40
1.0
  9
$DIMTP
 40
0.001
  9
$DIMTM
 40
0.001
  9
$DIMGAP
 40
0.09
  9
$DIMDSEP
 70
46
  9
$AUNITS
 70
0
  9
$PDMODE
 70
3
  9
$PDSIZE
 40
0.06
  9
$HANDSEED
  5
267
  9
$TILEMODE
 70
1
  9
$MEASUREMENT
 70
0
  9
$INSUNITS
 70
1
  0
ENDSEC
  0
SECTION
  2
CLASSES
  0
CLASS
  1
ACDBDICTIONARYWDFLT
  2
AcDbDictionaryWithDefault
  3
AutoCAD 2000
 90
0
 91
1
280
0
281
0
  0
CLASS
  1
ACDBPLACEHOLDER
  2
AcDbPlaceHolder
  3
AutoCAD 2000
 90
0
 91
1
280
0
281
0
  0
CLASS
  1
LAYOUT
  2
AcDbLayout
  3
AutoCAD 2000
 90
0
 91
0
280
0
281
0
  0
ENDSEC
  0
SECTION
  2
TABLES
  0
TABLE
  2
VPORT
  5
8
100
AcDbSymbolTable
 70
2
  0
VPORT
  5
1F4
100
AcDbSymbolTableRecord
100
AcDbViewportTableRecord
  2
*ACTIVE
 70
0
 10
0.0
 20
0.0
 11
1.0
 21
1.0
 12
11.0
 22
8.5
 13
0.0
 23
0.0
 14
1.0
 24
1.0
 15
0.0
 25
0.0
 16
0.0
 26
0.0
 36
1.0
 17
0.0
 27
0.0
 37
0.0
 40
17.0
 41
1.2941176471
 42
50.0
 43
0.0
 44
0.0
 50
0.0
 51
0.0
 71
0
 72
100
 73
1
 74
1
 75
0
 76
0
 77
0
 78
0
  0
ENDTAB
  0
TABLE
  2
LTYPE
  5
5
100
AcDbSymbolTable
 70
6
  0
LTYPE
  5
14
100
AcDbSymbolTableRecord
100
AcDbLinetypeTableRecord
  2
BYBLOCK
 70
0
  3

 72
65
 73
0
 40
0.0
  0
LTYPE
  5
15
100
AcDbSymbolTableRecord
100
AcDbLinetypeTableRecord
  2
BYLAYER
 70
0
  3

 72
65
 73
0
 40
0.0
  0
LTYPE
  5
16
100
AcDbSymbolTableRecord
100
AcDbLinetypeTableRecord
  2
CONTINUOUS
 70
64
  3
Solid line
 72
65
 73
0
 40
0.0
  0
LTYPE
  5
1F5
100
AcDbSymbolTableRecord
100
AcDbLinetypeTableRecord
  2
CENTER
 70
64
  3
____ _ ____ _ ____ _ ____ _ ____ _ ____ _ ____
 72
65
 73
4
 40
0.6
 49
0.375
 74
0
 49
-0.075
 74
0
 49
0.075
 74
0
 49
-0.075
 74
0
  0
LTYPE
  5
1F6
100
AcDbSymbolTableRecord
100
AcDbLinetypeTableRecord
  2
HIDDEN
 70
64
  3
- - - - - - - - - - - - - - - - - - - -
 72
65
 73
2
 40
0.2
 49
0.1
 74
0
 49
-0.1
 74
0
  0
LTYPE
  5
1F7
100
AcDbSymbolTableRecord
100
AcDbLinetypeTableRecord
  2
PHANTOM
 70
64
  3
_____ _ _ _____ _ _ _____ _ _ _____
 72
65
 73
6
 40
0.8
 49
0.45
 74
0
 49
-0.05
 74
0
 49
0.1
 74
0
 49
-0.05
 74
0
 49
0.1
 74
0
 49
-0.05
 74
0
  0
LTYPE
  5
1F8
100
AcDbSymbolTableRecord
100
AcDbLinetypeTableRecord
  2
DOT
 70
64
  3
. . . . . . . . . . . . . . . . . . . .
 72
65
 73
2
 40
0.2
 49
0.1
 74
0
 49
-0.1
 74
0
  0
LTYPE
  5
1F9
100
AcDbSymbolTableRecord
100
AcDbLinetypeTableRecord
  2
DASHED
 70
64
  3
- - - - - - - - - - - - - - - - - - - -
 72
65
 73
2
 40
0.2
 49
0.1
 74
0
 49
-0.1
 74
0
  0
ENDTAB
  0
TABLE
  2
LAYER
  5
2
100
AcDbSymbolTable
 70
36
  0
LAYER
  5
10
100
AcDbSymbolTableRecord
100
AcDbLayerTableRecord
  2
0
 70
0
 62
7
  6
CONTINUOUS
370
-3
390
F
  0
LAYER
  5
1FA
100
AcDbSymbolTableRecord
100
AcDbLayerTableRecord
  2
DEFAULT_1
 70
0
 62
7
  6
CENTER
370
-3
390
F
  0
LAYER
  5
1FB
100
AcDbSymbolTableRecord
100
AcDbLayerTableRecord
  2
DEFAULT_2
 70
0
 62
8
  6
HIDDEN
370
-3
390
F
  0
LAYER
  5
1FC
100
AcDbSymbolTableRecord
100
AcDbLayerTableRecord
  2
DEFAULT_3
 70
0
 62
7
  6
PHANTOM
370
-3
390
F
  0
LAYER
  5
1FD
100
AcDbSymbolTableRecord
100
AcDbLayerTableRecord
  2
ALL_FEATURES
 70
0
 62
7
  6
CONTINUOUS
370
-3
390
F
  0
LAYER
  5
1FE
100
AcDbSymbolTableRecord
100
AcDbLayerTableRecord
  2
AXES_FEATURES
 70
0
 62
7
  6
CONTINUOUS
370
-3
390
F
  0
LAYER
  5
1FF
100
AcDbSymbolTableRecord
100
AcDbLayerTableRecord
  2
DEFAULT_COORDINATE_SYSTEM
 70
0
 62
7
  6
CONTINUOUS
370
-3
390
F
  0
LAYER
  5
200
100
AcDbSymbolTableRecord
100
AcDbLayerTableRecord
  2
DEFAULT_DATUM_AXES
 70
0
 62
7
  6
CONTINUOUS
370
-3
390
F
  0
LAYER
  5
201
100
AcDbSymbolTableRecord
100
AcDbLayerTableRecord
  2
DEFAULT_DATUM_PLANES
 70
0
 62
7
  6
CONTINUOUS
370
-3
390
F
  0
LAYER
  5
202
100
AcDbSymbolTableRecord
100
AcDbLayerTableRecord
  2
DIMENSIONS
 70
0
 62
7
  6
CONTINUOUS
370
-3
390
F
  0
ENDTAB
  0
TABLE
  2
STYLE
  5
3
100
AcDbSymbolTable
 70
1
  0
STYLE
  5
11
100
AcDbSymbolTableRecord
100
AcDbTextStyleTableRecord
  2
STANDARD
 70
0
 40
0.0
 41
0.8
 50
0.0
 71
0
 42
0.2
  3
txt
  4

  0
STYLE
  5
203
100
AcDbSymbolTableRecord
100
AcDbTextStyleTableRecord
  2
TEXTSTYLE_1
 70
0
 40
0.0
 41
0.8
 50
0.0
 71
0
 42
0.2
  3
gdt
  4

  0
ENDTAB
  0
TABLE
  2
VIEW
  5
6
100
AcDbSymbolTable
 70
0
  0
ENDTAB
  0
TABLE
  2
UCS
  5
7
100
AcDbSymbolTable
 70
0
  0
ENDTAB
  0
TABLE
  2
APPID
  5
9
100
AcDbSymbolTable
 70
1
  0
APPID
  5
204
100
AcDbSymbolTableRecord
100
AcDbRegAppTableRecord
  2
ACAD
 70
0
  0
ENDTAB
  0
TABLE
  2
BLOCK_RECORD
  5
1
100
AcDbSymbolTable
 70
0
  0
BLOCK_RECORD
  5
205
100
AcDbSymbolTableRecord
100
AcDbBlockTableRecord
  2
*Model_Space
  0
BLOCK_RECORD
  5
206
100
AcDbSymbolTableRecord
100
AcDbBlockTableRecord
  2
*Paper_Space
  0
BLOCK_RECORD
  5
207
100
AcDbSymbolTableRecord
100
AcDbBlockTableRecord
  2
_FILLED
  0
ENDTAB
  0
TABLE
  2
DIMSTYLE
  5
A
100
AcDbSymbolTable
 70
1
100
AcDbDimStyleTable
 71
0
  0
DIMSTYLE
105
208
100
AcDbSymbolTableRecord
100
AcDbDimStyleTableRecord
  2
STANDARD
 70
0
  3

  4

 40
1.0
 41
0.1
 42
0.0625
 43
0.38
 44
0.125
 45
0.0
 46
0.0
 47
0.001
 48
0.001
140
0.08
141
0.09
142
0.0
143
25.4
144
1.0
145
0.0
146
1.0
147
0.09
 71
1.0
 72
0.0
 73
1
 74
1
 75
0
 76
0
 77
0
 78
4
 79
1
170
1
171
2
172
0
173
0
174
0
175
0
176
0
177
0
178
0
270
2
179
3
271
3
272
3
273
2
274
2
275
0
280
0
281
0
282
0
283
1
284
4
285
0
286
0
287
3
288
0
340
11
278
46
341
207
342
207
343
207
344
207
  0
ENDTAB
  0
ENDSEC
  0
SECTION
  2
BLOCKS
  0
BLOCK
  5
20
100
AcDbEntity
  8
0
100
AcDbBlockBegin
  2
*Model_Space
 70
0
 10
0.0
 20
0.0
 30
0.0
  3
*Model_Space
  1

  0
ENDBLK
  5
21
100
AcDbEntity
  8
0
100
AcDbBlockEnd
  0
BLOCK
  5
1C
100
AcDbEntity
  8
0
100
AcDbBlockBegin
  2
*Paper_Space
 70
0
 10
0.0
 20
0.0
 30
0.0
  3
*Paper_Space
  1

  0
ENDBLK
  5
1D
100
AcDbEntity
  8
0
100
AcDbBlockEnd
  0
BLOCK
  5
209
100
AcDbEntity
  8
0
100
AcDbBlockBegin
  2
_FILLED
 70
64
 10
0.0
 20
0.0
  3
_FILLED
  1

  0
SOLID
  5
20A
100
AcDbEntity
  8
0
  6
BYBLOCK
 62
0
100
AcDbTrace
 10
0.0
 20
0.0
 11
-1.0
 21
0.2
 12
-1.0
 22
-0.2
 13
-1.0
 23
-0.2
  0
ENDBLK
  5
20B
100
AcDbEntity
  8
0
  6
BYBLOCK
 62
0
100
AcDbBlockEnd
  0
ENDSEC
  0
SECTION
  2
ENTITIES
  0
LINE
  5
20C
100
AcDbEntity
  8
0
100
AcDbLine
 62
7
  6
CONTINUOUS
 10
10.8195758714
 20
9.7901793113
 11
10.3300608052
 21
9.5075576561
  0
LINE
  5
20D
100
AcDbEntity
  8
0
100
AcDbLine
 62
9
  6
CONTINUOUS
 10
11.9883622943
 20
9.1379419922
 11
11.9754704662
 21
9.1337298421
  0
LINE
  5
20E
100
AcDbEntity
  8
0
100
AcDbLine
 62
9
  6
CONTINUOUS
 10
10.1062743822
 20
8.5230069621
 11
10.1191662104
 21
8.5272191122
  0
LINE
  5
20F
100
AcDbEntity
  8
0
100
AcDbLine
 62
9
  6
CONTINUOUS
 10
11.2973183383
 20
6.245624738
 11
10.7973183383
 21
6.245624738
  0
LINE
  5
210
100
AcDbEntity
  8
0
100
AcDbLine
 62
9
  6
CONTINUOUS
 10
11.7841149952
 20
9.4917086917
 11
11.7740212521
 21
9.482650116
  0
LINE
  5
211
100
AcDbEntity
  8
0
100
AcDbLine
 62
9
  6
CONTINUOUS
 10
10.3105216814
 20
8.1692402627
 11
10.3206154245
 21
8.1782988383
  0
LINE
  5
212
100
AcDbEntity
  8
0
100
AcDbLine
 62
7
  6
CONTINUOUS
 10
10.1023183383
 20
9.1130961324
 11
10.1023183383
 21
8.5478528219
  0
LINE
  5
213
100
AcDbEntity
  8
0
100
AcDbLine
 62
7
  6
CONTINUOUS
 10
10.7973183383
 20
8.120173181
 11
10.7973183383
 21
5.3487349594
  0
LINE
  5
214
100
AcDbEntity
  8
0
100
AcDbLine
 62
9
  6
CONTINUOUS
 10
11.2515656375
 20
9.7991762067
 11
11.2487675523
 21
9.7859054809
  0
LINE
  5
215
100
AcDbEntity
  8
0
100
AcDbLine
 62
7
  6
CONTINUOUS
 10
11.7645758714
 20
8.1533912982
 11
11.2973183383
 21
7.8836200357
  0
LINE
  5
216
100
AcDbEntity
  8
0
100
AcDbLine
 62
7
  6
CONTINUOUS
 10
11.2973183383
 20
8.1201748565
 11
11.2973183383
 21
5.3487349594
  0
LWPOLYLINE
  5
217
100
AcDbEntity
  8
0
100
AcDbPolyline
 62
7
  6
CONTINUOUS
 90
24
 70
0
 10
11.2973181144
 20
8.1201748608
 10
11.2974411178
 20
8.1240147997
 10
11.2977817835
 20
8.1276196411
 10
11.2983288153
 20
8.1311412379
 10
11.2990701426
 20
8.1345683242
 10
11.2999932691
 20
8.13789093
 10
11.3010853908
 20
8.1411003622
 10
11.3023335065
 20
8.1441891769
 10
11.3037245215
 20
8.1471511435
 10
11.3052453431
 20
8.1499812019
 10
11.3068829689
 20
8.1526754139
 10
11.3086245655
 20
8.155230908
 10
11.3104575403
 20
8.1576458231
 10
11.3123696063
 20
8.1599192475
 10
11.314348837
 20
8.1620511557
 10
11.3163838652
 20
8.1640424837
 10
11.3184626209
 20
8.1658938933
 10
11.3205711813
 20
8.1676052353
 10
11.3226957137
 20
8.1691775656
 10
11.3248228198
 20
8.1706132355
 10
11.3269400304
 20
8.1719159828
 10
11.3290314075
 20
8.1730882911
 10
11.3309586307
 20
8.1740742243
 10
11.3331015474
 20
8.17507048
  0
LINE
  5
218
100
AcDbEntity
  8
0
100
AcDbLine
 62
7
  6
CONTINUOUS
 10
10.7973183383
 20
7.8836200357
 11
10.3300608052
 21
8.1533912982
  0
LINE
  5
219
100
AcDbEntity
  8
0
100
AcDbLine
 62
9
  6
CONTINUOUS
 10
10.8430710391
 20
9.7991762067
 11
10.8458691242
 21
9.7859054809
  0
LWPOLYLINE
  5
21A
100
AcDbEntity
  8
0
100
AcDbPolyline
 62
7
  6
CONTINUOUS
 90
12
 70
0
 10
10.7613198131
 20
8.1751625264
 10
10.7660702368
 20
8.1728348605
 10
10.771019126
 20
8.169813994
 10
10.7758605227
 20
8.1661567002
 10
10.7804824367
 20
8.1618490229
 10
10.7847676942
 20
8.1568965313
 10
10.7885979056
 20
8.1513257186
 10
10.7918575355
 20
8.1451847015
 10
10.7944382046
 20
8.1385427748
 10
10.7962425414
 20
8.1314901763
 10
10.7971885304
 20
8.124136029
 10
10.7973195481
 20
8.1201731816
  0
LINE
  5
21B
100
AcDbEntity
  8
0
100
AcDbLine
 62
7
  6
CONTINUOUS
 10
11.9923183383
 20
9.1130961324
 11
11.9923183383
 21
8.5478528219
  0
LINE
  5
21C
100
AcDbEntity
  8
0
100
AcDbLine
 62
9
  6
CONTINUOUS
 10
11.7841149952
 20
8.1692402627
 11
11.7740212521
 21
8.1782988383
  0
LINE
  5
21D
100
AcDbEntity
  8
0
100
AcDbLine
 62
9
  6
CONTINUOUS
 10
10.3105216814
 20
9.4917086917
 11
10.3206154245
 21
9.482650116
  0
LINE
  5
21E
100
AcDbEntity
  8
0
100
AcDbLine
 62
9
  6
CONTINUOUS
 10
11.9883622943
 20
8.5230069621
 11
11.9754704662
 21
8.5272191122
  0
LINE
  5
21F
100
AcDbEntity
  8
0
100
AcDbLine
 62
9
  6
CONTINUOUS
 10
10.1062743822
 20
9.1379419922
 11
10.1191662104
 21
9.1337298421
  0
LINE
  5
220
100
AcDbEntity
  8
0
100
AcDbLine
 62
7
  6
CONTINUOUS
 10
11.7645758714
 20
9.5075576561
 11
11.2750608052
 21
9.7901793113
  0
ARC
  5
221
100
AcDbEntity
  8
0
100
AcDbCircle
 62
9
  6
CONTINUOUS
 10
-102.7689615716
 20
8.8304763738
 40
112.8855202709
100
AcDbArc
 50
359.8556039339
 51
0.1443941409
  0
ARC
  5
222
100
AcDbEntity
  8
0
100
AcDbCircle
 62
9
  6
CONTINUOUS
 10
-45.4982522257
 20
-89.1079208371
 40
112.1591642101
100
AcDbArc
 50
59.872487601
 51
60.1449711402
  0
ARC
  5
223
100
AcDbEntity
  8
0
100
AcDbCircle
 62
7
  6
CONTINUOUS
 10
10.1823183383
 20
8.5478528219
 40
0.08
100
AcDbArc
 50
180.0
 51
198.0937804333
  0
ARC
  5
224
100
AcDbEntity
  8
0
100
AcDbCircle
 62
7
  6
CONTINUOUS
 10
10.3700608052
 20
8.2226733305
 40
0.08
100
AcDbArc
 50
221.9062195667
 51
240.0
  0
ARC
  5
225
100
AcDbEntity
  8
0
100
AcDbCircle
 62
7
  6
CONTINUOUS
 10
10.1823183383
 20
9.1130961324
 40
0.08
100
AcDbArc
 50
161.9062195667
 51
180.0
  0
ARC
  5
226
100
AcDbEntity
  8
0
100
AcDbCircle
 62
9
  6
CONTINUOUS
 10
10.3652377849
 20
8.2183478907
 40
0.0599589998
100
AcDbArc
 50
221.9083203636
 51
240.1389328121
  0
ARC
  5
227
100
AcDbEntity
  8
0
100
AcDbCircle
 62
9
  6
CONTINUOUS
 10
10.1761608873
 20
9.1151102706
 40
0.0599589996
100
AcDbArc
 50
161.9083203365
 51
180.1389328392
  0
ARC
  5
228
100
AcDbEntity
  8
0
100
AcDbCircle
 62
9
  6
CONTINUOUS
 10
10.1761608853
 20
8.5458386834
 40
0.0599589976
100
AcDbArc
 50
179.8610668584
 51
198.0916799659
  0
ARC
  5
229
100
AcDbEntity
  8
0
100
AcDbCircle
 62
9
  6
CONTINUOUS
 10
-45.8609166631
 20
107.3984326618
 40
112.8857136483
100
AcDbArc
 50
299.8556041812
 51
300.1443938935
  0
ARC
  5
22A
100
AcDbEntity
  8
0
100
AcDbCircle
 62
7
  6
CONTINUOUS
 10
10.8595758714
 20
9.720897279
 40
0.08
100
AcDbArc
 50
101.9062195667
 51
120.0
  0
ARC
  5
22B
100
AcDbEntity
  8
0
100
AcDbCircle
 62
7
  6
CONTINUOUS
 10
10.3700608052
 20
9.4382756238
 40
0.08
100
AcDbArc
 50
120.0
 51
138.0937804333
  0
ARC
  5
22C
100
AcDbEntity
  8
0
100
AcDbCircle
 62
9
  6
CONTINUOUS
 10
10.8582414408
 20
9.727236857
 40
0.0599589998
100
AcDbArc
 50
101.9083203636
 51
120.1389328121
  0
ARC
  5
22D
100
AcDbEntity
  8
0
100
AcDbCircle
 62
9
  6
CONTINUOUS
 10
10.3652377836
 20
9.4426010653
 40
0.0599589976
100
AcDbArc
 50
119.8610668584
 51
138.0916799659
  0
ARC
  5
22E
100
AcDbEntity
  8
0
100
AcDbCircle
 62
9
  6
CONTINUOUS
 10
67.5928304248
 20
-89.107828867
 40
112.1590553232
100
AcDbArc
 50
119.8550263396
 51
120.1275100141
  0
ARC
  5
22F
100
AcDbEntity
  8
0
100
AcDbCircle
 62
9
  6
CONTINUOUS
 10
11.1336786319
 20
5.3498677402
 40
0.1637537088
100
AcDbArc
 50
343.3309623441
 51
345.0349859062
  0
ARC
  5
230
100
AcDbEntity
  8
0
100
AcDbCircle
 62
9
  6
CONTINUOUS
 10
11.1368032243
 20
5.349108041
 40
0.1605389311
100
AcDbArc
 50
345.0089581765
 51
352.5962739904
  0
ARC
  5
231
100
AcDbEntity
  8
0
100
AcDbCircle
 62
9
  6
CONTINUOUS
 10
11.1396355847
 20
5.3487374133
 40
0.1576824256
100
AcDbArc
 50
352.5972040252
 51
359.9991083696
  0
ARC
  5
232
100
AcDbEntity
  8
0
100
AcDbCircle
 62
7
  6
CONTINUOUS
 10
11.0473183383
 20
8.8304744772
 40
0.99
100
AcDbArc
 50
138.0937804333
 51
161.9062195667
  0
ARC
  5
233
100
AcDbEntity
  8
0
100
AcDbCircle
 62
7
  6
CONTINUOUS
 10
11.0473183383
 20
8.8304744772
 40
0.99
100
AcDbArc
 50
318.0937804333
 51
341.9062195667
  0
ARC
  5
234
100
AcDbEntity
  8
0
100
AcDbCircle
 62
7
  6
CONTINUOUS
 10
11.0473183383
 20
8.8304744772
 40
0.99
100
AcDbArc
 50
198.0937804333
 51
221.9062195667
  0
ARC
  5
235
100
AcDbEntity
  8
0
100
AcDbCircle
 62
7
  6
CONTINUOUS
 10
11.0473183383
 20
8.8304744772
 40
0.99
100
AcDbArc
 50
18.0937804333
 51
41.9062195667
  0
ARC
  5
236
100
AcDbEntity
  8
0
100
AcDbCircle
 62
7
  6
CONTINUOUS
 10
11.0473183383
 20
8.8304744772
 40
0.99
100
AcDbArc
 50
78.0937804333
 51
101.9062195667
  0
ARC
  5
237
100
AcDbEntity
  8
0
100
AcDbCircle
 62
9
  6
CONTINUOUS
 10
11.0473183383
 20
8.8304744772
 40
0.9764374987
100
AcDbArc
 50
198.0937804333
 51
221.9062195667
  0
ARC
  5
238
100
AcDbEntity
  8
0
100
AcDbCircle
 62
9
  6
CONTINUOUS
 10
11.0473183383
 20
8.8304744772
 40
0.9764374987
100
AcDbArc
 50
138.0937804333
 51
161.9062195667
  0
ARC
  5
239
100
AcDbEntity
  8
0
100
AcDbCircle
 62
9
  6
CONTINUOUS
 10
11.0473183383
 20
8.8304744772
 40
0.9764374987
100
AcDbArc
 50
78.0937804333
 51
101.9062195667
  0
ARC
  5
23A
100
AcDbEntity
  8
0
100
AcDbCircle
 62
9
  6
CONTINUOUS
 10
11.0473183383
 20
8.8304744772
 40
0.9764374987
100
AcDbArc
 50
18.0937804333
 51
41.9062195667
  0
ARC
  5
23B
100
AcDbEntity
  8
0
100
AcDbCircle
 62
9
  6
CONTINUOUS
 10
11.0473183383
 20
8.8304744772
 40
0.9764374987
100
AcDbArc
 50
318.0937804333
 51
341.9062195667
  0
ARC
  5
23C
100
AcDbEntity
  8
0
100
AcDbCircle
 62
9
  6
CONTINUOUS
 10
11.0473183383
 20
8.8304744772
 40
0.9131802472
100
AcDbArc
 50
285.9118401158
 51
254.0881598838
  0
ARC
  5
23D
100
AcDbEntity
  8
0
100
AcDbCircle
 62
9
  6
CONTINUOUS
 10
11.0473183383
 20
8.8304744772
 40
0.8966917356
100
AcDbArc
 50
286.2084897614
 51
253.7915102402
  0
ARC
  5
23E
100
AcDbEntity
  8
0
100
AcDbCircle
 62
7
  6
CONTINUOUS
 10
11.0473183383
 20
8.8304744772
 40
0.855
100
AcDbArc
 50
287.0312608169
 51
252.9687391831
  0
ARC
  5
23F
100
AcDbEntity
  8
0
100
AcDbCircle
 62
7
  6
CONTINUOUS
 10
11.0473183383
 20
8.8304744772
 40
0.715
100
AcDbArc
 50
281.5798750557
 51
258.4201249443
  0
CIRCLE
  5
240
100
AcDbEntity
  8
0
100
AcDbCircle
 62
9
  6
CONTINUOUS
 10
11.0473183383
 20
8.8304744772
 40
0.658087044
  0
ARC
  5
241
100
AcDbEntity
  8
0
100
AcDbCircle
 62
7
  6
CONTINUOUS
 10
11.7245758714
 20
8.2226733305
 40
0.08
100
AcDbArc
 50
300.0
 51
318.0937804333
  0
ARC
  5
242
100
AcDbEntity
  8
0
100
AcDbCircle
 62
7
  6
CONTINUOUS
 10
11.9123183383
 20
8.5478528219
 40
0.08
100
AcDbArc
 50
341.9062195667
 51
360.0
  0
ARC
  5
243
100
AcDbEntity
  8
0
100
AcDbCircle
 62
7
  6
CONTINUOUS
 10
11.9123183383
 20
9.1130961324
 40
0.08
100
AcDbArc
 50
0.0
 51
18.0937804333
  0
ARC
  5
244
100
AcDbEntity
  8
0
100
AcDbCircle
 62
9
  6
CONTINUOUS
 10
11.9184757893
 20
8.5458386837
 40
0.0599589996
100
AcDbArc
 50
341.9083203365
 51
0.1389328392
  0
ARC
  5
245
100
AcDbEntity
  8
0
100
AcDbCircle
 62
9
  6
CONTINUOUS
 10
11.9184757913
 20
9.1151102709
 40
0.0599589976
100
AcDbArc
 50
359.8610668584
 51
18.0916799659
  0
ARC
  5
246
100
AcDbEntity
  8
0
100
AcDbCircle
 62
9
  6
CONTINUOUS
 10
11.729398893
 20
8.218347889
 40
0.0599589976
100
AcDbArc
 50
299.8610668584
 51
318.0916799659
  0
ARC
  5
247
100
AcDbEntity
  8
0
100
AcDbCircle
 62
9
  6
CONTINUOUS
 10
124.8635982478
 20
8.8304725805
 40
112.8855202706
100
AcDbArc
 50
179.8556039339
 51
180.1443941409
  0
ARC
  5
248
100
AcDbEntity
  8
0
100
AcDbCircle
 62
9
  6
CONTINUOUS
 10
67.9554623473
 20
107.3982674719
 40
112.885525094
100
AcDbArc
 50
239.85560394
 51
240.1443941347
  0
ARC
  5
249
100
AcDbEntity
  8
0
100
AcDbCircle
 62
7
  6
CONTINUOUS
 10
11.7245758714
 20
9.4382756238
 40
0.08
100
AcDbArc
 50
41.9062195667
 51
60.0
  0
ARC
  5
24A
100
AcDbEntity
  8
0
100
AcDbCircle
 62
7
  6
CONTINUOUS
 10
11.2350608052
 20
9.720897279
 40
0.08
100
AcDbArc
 50
60.0
 51
78.0937804333
  0
ARC
  5
24B
100
AcDbEntity
  8
0
100
AcDbCircle
 62
9
  6
CONTINUOUS
 10
11.7293988916
 20
9.4426010636
 40
0.0599589998
100
AcDbArc
 50
41.9083203637
 51
60.1389328121
  0
ARC
  5
24C
100
AcDbEntity
  8
0
100
AcDbCircle
 62
9
  6
CONTINUOUS
 10
11.2363952366
 20
9.727236859
 40
0.0599589976
100
AcDbArc
 50
59.8610668584
 51
78.0916799659
  0
SPLINE
  5
24D
100
AcDbEntity
  8
0
100
AcDbSpline
 62
7
  6
CONTINUOUS
 70
0
 71
3
 72
22
 73
18
 74
0
 42
0.0000001
 43
0.0000001
 44
0.0000000001
 40
0.0
 40
0.0
 40
0.0
 40
0.0
 40
0.1351507195
 40
0.2022790265
 40
0.2688380151
 40
0.3346685782
 40
0.3996392072
 40
0.4636549571
 40
0.5266574883
 40
0.5886285878
 40
0.6495916285
 40
0.709609759
 40
0.7687826283
 40
0.8272425108
 40
0.8851460408
 40
0.9426705743
 40
1.0
 40
1.0
 40
1.0
 40
1.0
 10
11.0473183377
 20
5.1441839427
 30
0.0
 10
11.0311971251
 20
5.1441839427
 30
0.0
 10
11.0070094447
 20
5.1460865389
 30
0.0
 10
10.9755478871
 20
5.1524144875
 30
0.0
 10
10.9526460001
 20
5.1589932872
 30
0.0
 10
10.9306122847
 20
5.1673610657
 30
0.0
 10
10.9096466532
 20
5.1774525915
 30
0.0
 10
10.8899454382
 20
5.189189145
 30
0.0
 10
10.8716947316
 20
5.2024785588
 30
0.0
 10
10.8550722034
 20
5.2172156995
 30
0.0
 10
10.8402471137
 20
5.2332822082
 30
0.0
 10
10.8273783241
 20
5.2505432469
 30
0.0
 10
10.8166125034
 20
5.268846162
 30
0.0
 10
10.8080825458
 20
5.2880188381
 30
0.0
 10
10.8019015262
 20
5.3078697391
 30
0.0
 10
10.7981558513
 20
5.3281818629
 30
0.0
 10
10.7973183383
 20
5.3418965211
 30
0.0
 10
10.7973183383
 20
5.3487349594
 30
0.0
  0
SPLINE
  5
24E
100
AcDbEntity
  8
0
100
AcDbSpline
 62
7
  6
CONTINUOUS
 70
0
 71
3
 72
22
 73
18
 74
0
 42
0.0000001
 43
0.0000001
 44
0.0000000001
 40
0.0
 40
0.0
 40
0.0
 40
0.0
 40
0.057329219
 40
0.1148535262
 40
0.1727570757
 40
0.2312170568
 40
0.2903900864
 40
0.3504084318
 40
0.4113716981
 40
0.4733430143
 40
0.5363457305
 40
0.6003616188
 40
0.665332315
 40
0.7311628551
 40
0.7977217988
 40
0.8648499297
 40
1.0
 40
1.0
 40
1.0
 40
1.0
 10
11.2973183383
 20
5.3487349594
 30
0.0
 10
11.2973183383
 20
5.3418965457
 30
0.0
 10
11.2964808485
 20
5.3281819377
 30
0.0
 10
11.2927351697
 20
5.3078698645
 30
0.0
 10
11.2865541792
 20
5.2880189693
 30
0.0
 10
11.2780242276
 20
5.2688462529
 30
0.0
 10
11.2672583771
 20
5.2505432893
 30
0.0
 10
11.2543895511
 20
5.2332821881
 30
0.0
 10
11.2395644013
 20
5.217215627
 30
0.0
 10
11.2229418056
 20
5.2024784495
 30
0.0
 10
11.2046910401
 20
5.1891890066
 30
0.0
 10
11.184989768
 20
5.1774524564
 30
0.0
 10
11.1640241046
 20
5.1673609483
 30
0.0
 10
11.141990385
 20
5.1589931797
 30
0.0
 10
11.1190885142
 20
5.1524144284
 30
0.0
 10
11.0876270548
 20
5.1460865216
 30
0.0
 10
11.063439473
 20
5.1441839427
 30
0.0
 10
11.0473183377
 20
5.1441839427
 30
0.0
  0
SPLINE
  5
24F
100
AcDbEntity
  8
0
100
AcDbSpline
 62
9
  6
CONTINUOUS
 70
0
 71
3
 72
20
 73
16
 74
0
 42
0.0000001
 43
0.0000001
 44
0.0000000001
 40
0.0
 40
0.0
 40
0.0
 40
0.0
 40
0.0411364931
 40
0.083369126
 40
0.1275820647
 40
0.1745251582
 40
0.2247648298
 40
0.2786594695
 40
0.3363730467
 40
0.3979364244
 40
0.4632454806
 40
0.532111666
 40
0.6792280049
 40
0.8364377497
 40
1.0
 40
1.0
 40
1.0
 40
1.0
 10
11.1908430312
 20
8.1300277179
 30
0.0
 10
11.1899516129
 20
8.1298450623
 30
0.0
 10
11.1881760056
 20
8.1293025643
 30
0.0
 10
11.1856586965
 20
8.1279963202
 30
0.0
 10
11.1832966136
 20
8.1262066298
 30
0.0
 10
11.1811101945
 20
8.1239556137
 30
0.0
 10
11.1791140848
 20
8.12126484
 30
0.0
 10
11.1773220694
 20
8.1181576891
 30
0.0
 10
11.175746105
 20
8.1146602361
 30
0.0
 10
11.1744000242
 20
8.110800626
 30
0.0
 10
11.1732921999
 20
8.1066109689
 30
0.0
 10
11.1721220259
 20
8.1004956803
 30
0.0
 10
11.1713456615
 20
8.0922565239
 30
0.0
 10
11.1714684046
 20
8.0818920905
 30
0.0
 10
11.1722287206
 20
8.0748251837
 30
0.0
 10
11.1727769858
 20
8.0712489689
 30
0.0
  0
SPLINE
  5
250
100
AcDbEntity
  8
0
100
AcDbSpline
 62
9
  6
CONTINUOUS
 70
0
 71
3
 72
21
 73
17
 74
0
 42
0.0000001
 43
0.0000001
 44
0.0000000001
 40
0.0
 40
0.0
 40
0.0
 40
0.0
 40
0.1385587271
 40
0.2072751669
 40
0.2752819606
 40
0.4082481577
 40
0.4730038865
 40
0.5364182421
 40
0.598434848
 40
0.6590488455
 40
0.7183117875
 40
0.7763318192
 40
0.833273165
 40
0.8893527884
 40
0.9448310324
 40
1.0
 40
1.0
 40
1.0
 40
1.0
 10
11.0473183383
 20
5.2538575975
 30
0.0
 10
11.0310107508
 20
5.2538575975
 30
0.0
 10
11.0065582179
 20
5.2557540022
 30
0.0
 10
10.9747528722
 20
5.2620652144
 30
0.0
 10
10.944188733
 20
5.2707247746
 30
0.0
 10
10.9151965223
 20
5.2829244965
 30
0.0
 10
10.8886658843
 20
5.2985058068
 30
0.0
 10
10.8704516286
 20
5.3115750157
 30
0.0
 10
10.8539339503
 20
5.3260018466
 30
0.0
 10
10.8392714373
 20
5.341651522
 30
0.0
 10
10.8266066496
 20
5.3583744642
 30
0.0
 10
10.8160650949
 20
5.3760124199
 30
0.0
 10
10.8077528328
 20
5.3943962102
 30
0.0
 10
10.8017526454
 20
5.4133485579
 30
0.0
 10
10.7981274877
 20
5.4326811417
 30
0.0
 10
10.7973186662
 20
5.4457179466
 30
0.0
 10
10.7973186662
 20
5.4522110256
 30
0.0
  0
SPLINE
  5
251
100
AcDbEntity
  8
0
100
AcDbSpline
 62
9
  6
CONTINUOUS
 70
0
 71
3
 72
21
 73
17
 74
0
 42
0.0000001
 43
0.0000001
 44
0.0000000001
 40
0.0
 40
0.0
 40
0.0
 40
0.0
 40
0.1385587271
 40
0.2072751669
 40
0.2752819606
 40
0.4082481577
 40
0.4730038865
 40
0.5364182421
 40
0.598434848
 40
0.6590488455
 40
0.7183117875
 40
0.7763318192
 40
0.833273165
 40
0.8893527884
 40
0.9448310324
 40
1.0
 40
1.0
 40
1.0
 40
1.0
 10
11.0473183383
 20
5.1503815313
 30
0.0
 10
11.0310107508
 20
5.1503815313
 30
0.0
 10
11.0065582179
 20
5.152277936
 30
0.0
 10
10.9747528722
 20
5.1585891482
 30
0.0
 10
10.944188733
 20
5.1672487084
 30
0.0
 10
10.9151965223
 20
5.1794484302
 30
0.0
 10
10.8886658843
 20
5.1950297406
 30
0.0
 10
10.8704516286
 20
5.2080989494
 30
0.0
 10
10.8539339503
 20
5.2225257803
 30
0.0
 10
10.8392714373
 20
5.2381754557
 30
0.0
 10
10.8266066496
 20
5.254898398
 30
0.0
 10
10.8160650949
 20
5.2725363537
 30
0.0
 10
10.8077528328
 20
5.2909201439
 30
0.0
 10
10.8017526454
 20
5.3098724917
 30
0.0
 10
10.7981274877
 20
5.3292050755
 30
0.0
 10
10.7973186662
 20
5.3422418804
 30
0.0
 10
10.7973186662
 20
5.3487349594
 30
0.0
  0
SPLINE
  5
252
100
AcDbEntity
  8
0
100
AcDbSpline
 62
9
  6
CONTINUOUS
 70
0
 71
3
 72
20
 73
16
 74
0
 42
0.0000001
 43
0.0000001
 44
0.0000000001
 40
0.0
 40
0.0
 40
0.0
 40
0.0
 40
0.0411351497
 40
0.0833667664
 40
0.1275790096
 40
0.1745216952
 40
0.2247612001
 40
0.2786558669
 40
0.3363696213
 40
0.397933287
 40
0.4632427051
 40
0.5321092965
 40
0.6792264946
 40
0.8364370506
 40
1.0
 40
1.0
 40
1.0
 40
1.0
 10
10.9037936453
 20
8.1300277179
 30
0.0
 10
10.9046850315
 20
8.1298450689
 30
0.0
 10
10.906460581
 20
8.1293025804
 30
0.0
 10
10.9089778105
 20
8.1279963505
 30
0.0
 10
10.9113398306
 20
8.1262066719
 30
0.0
 10
10.9135262033
 20
8.1239556653
 30
0.0
 10
10.9155222822
 20
8.1212648986
 30
0.0
 10
10.9173142816
 20
8.118157752
 30
0.0
 10
10.9188902435
 20
8.1146603006
 30
0.0
 10
10.9202363341
 20
8.1108006896
 30
0.0
 10
10.9213441788
 20
8.1066110292
 30
0.0
 10
10.9225143927
 20
8.1004957334
 30
0.0
 10
10.9232908259
 20
8.0922565663
 30
0.0
 10
10.9231681785
 20
8.0818921145
 30
0.0
 10
10.9224079234
 20
8.0748251919
 30
0.0
 10
10.9218596906
 20
8.0712489689
 30
0.0
  0
SPLINE
  5
253
100
AcDbEntity
  8
0
100
AcDbSpline
 62
9
  6
CONTINUOUS
 70
0
 71
3
 72
15
 73
11
 74
0
 42
0.0000001
 43
0.0000001
 44
0.0000000001
 40
0.0
 40
0.0
 40
0.0
 40
0.0
 40
0.1157709602
 40
0.2350463355
 40
0.357447049
 40
0.4825769427
 40
0.6099409011
 40
0.7390293974
 40
0.8692674013
 40
1.0
 40
1.0
 40
1.0
 40
1.0
 10
11.172776986
 20
8.0712489689
 30
0.0
 10
11.1680633434
 20
8.0700518032
 30
0.0
 10
11.15838612
 20
8.0680341434
 30
0.0
 10
11.1435080959
 20
8.065951867
 30
0.0
 10
11.1281547319
 20
8.0645893674
 30
0.0
 10
11.1124255338
 20
8.0637663972
 30
0.0
 10
11.0964014116
 20
8.0633157371
 30
0.0
 10
11.0801583832
 20
8.0631081735
 30
0.0
 10
11.0637729847
 20
8.0630206953
 30
0.0
 10
11.0528101396
 20
8.0630129086
 30
0.0
 10
11.0473183383
 20
8.0630127809
 30
0.0
  0
SPLINE
  5
254
100
AcDbEntity
  8
0
100
AcDbSpline
 62
9
  6
CONTINUOUS
 70
0
 71
3
 72
15
 73
11
 74
0
 42
0.0000001
 43
0.0000001
 44
0.0000000001
 40
0.0
 40
0.0
 40
0.0
 40
0.0
 40
0.1307326687
 40
0.2609709087
 40
0.3900596945
 40
0.5174236447
 40
0.6425531427
 40
0.7649535827
 40
0.8842290093
 40
1.0
 40
1.0
 40
1.0
 40
1.0
 10
11.0473183383
 20
8.0630127809
 30
0.0
 10
11.0418265312
 20
8.0630127895
 30
0.0
 10
11.0308636674
 20
8.0630203838
 30
0.0
 10
11.0144782344
 20
8.063107715
 30
0.0
 10
10.9982351748
 20
8.0633151876
 30
0.0
 10
10.9822110466
 20
8.0637657988
 30
0.0
 10
10.9664818787
 20
8.0645890072
 30
0.0
 10
10.9511285583
 20
8.0659517533
 30
0.0
 10
10.9362505208
 20
8.0680338839
 30
0.0
 10
10.9265732831
 20
8.0700515907
 30
0.0
 10
10.9218596906
 20
8.0712489689
 30
0.0
  0
SPLINE
  5
255
100
AcDbEntity
  8
0
100
AcDbSpline
 62
9
  6
CONTINUOUS
 70
0
 71
3
 72
37
 73
33
 74
0
 42
0.0000001
 43
0.0000001
 44
0.0000000001
 40
0.0
 40
0.0
 40
0.0
 40
0.0
 40
0.1062853481
 40
0.2085753964
 40
0.3064406665
 40
0.3995160533
 40
0.487468822
 40
0.5699368133
 40
0.6465207883
 40
0.7168031396
 40
0.780344353
 40
0.8366920415
 40
0.8620263097
 40
0.8853914722
 40
0.9067300488
 40
0.9259861887
 40
0.9431125206
 40
0.9580638547
 40
0.9707948152
 40
0.9763134883
 40
0.9812615778
 40
0.9856364809
 40
0.9894356677
 40
0.992656606
 40
0.9952967619
 40
0.9973535992
 40
0.9981624805
 40
0.9988245802
 40
0.999339581
 40
0.9997071722
 40
0.9999272591
 40
1.0
 40
1.0
 40
1.0
 40
1.0
 10
10.9218596906
 20
8.0712489689
 30
0.0
 10
10.9172534525
 20
8.0724192008
 30
0.0
 10
10.9082453658
 20
8.0748406592
 30
0.0
 10
10.8951105114
 20
8.0787489921
 30
0.0
 10
10.8826408564
 20
8.0828065865
 30
0.0
 10
10.8708772125
 20
8.0869496065
 30
0.0
 10
10.8598544604
 20
8.0911141046
 30
0.0
 10
10.8496066476
 20
8.0952357565
 30
0.0
 10
10.8401686873
 20
8.0992477899
 30
0.0
 10
10.8315769929
 20
8.1030830918
 30
0.0
 10
10.8238691598
 20
8.106675447
 30
0.0
 10
10.8180232769
 20
8.1095032087
 30
0.0
 10
10.813815058
 20
8.1115900185
 30
0.0
 10
10.8110175233
 20
8.1129977926
 30
0.0
 10
10.8084696402
 20
8.114296952
 30
0.0
 10
10.8061757213
 20
8.1154799849
 30
0.0
 10
10.8041401663
 20
8.1165408336
 30
0.0
 10
10.8023669653
 20
8.1174737254
 30
0.0
 10
10.8010554349
 20
8.1181693464
 30
0.0
 10
10.8001399915
 20
8.1186571326
 30
0.0
 10
10.7995546175
 20
8.118969801
 30
0.0
 10
10.7990373384
 20
8.1192467843
 30
0.0
 10
10.7985884118
 20
8.1194877418
 30
0.0
 10
10.7982079496
 20
8.1196924422
 30
0.0
 10
10.797896484
 20
8.1198603632
 30
0.0
 10
10.7976794974
 20
8.1199776643
 30
0.0
 10
10.7975413503
 20
8.1200523284
 30
0.0
 10
10.7974620175
 20
8.1200954643
 30
0.0
 10
10.79740449
 20
8.1201261619
 30
0.0
 10
10.7973538892
 20
8.1201546152
 30
0.0
 10
10.7973405825
 20
8.1201599658
 30
0.0
 10
10.7973160134
 20
8.1201751421
 30
0.0
 10
10.7973184748
 20
8.1201730158
 30
0.0
  0
SPLINE
  5
256
100
AcDbEntity
  8
0
100
AcDbSpline
 62
9
  6
CONTINUOUS
 70
0
 71
3
 72
14
 73
10
 74
0
 42
0.0000001
 43
0.0000001
 44
0.0000000001
 40
0.0
 40
0.0
 40
0.0
 40
0.0
 40
0.126726815
 40
0.2533455731
 40
0.3796633193
 40
0.505491739
 40
0.6306400676
 40
0.7549489419
 40
1.0
 40
1.0
 40
1.0
 40
1.0
 10
11.0473183383
 20
8.119243629
 30
0.0
 10
11.0412294097
 20
8.1192436348
 30
0.0
 10
11.0290565756
 20
8.1193173053
 30
0.0
 10
11.0108175798
 20
8.1196776397
 30
0.0
 10
10.9926292306
 20
8.1203172999
 30
0.0
 10
10.9745249351
 20
8.1212641538
 30
0.0
 10
10.9565405203
 20
8.1226020045
 30
0.0
 10
10.9329021461
 20
8.1250019631
 30
0.0
 10
10.9153281361
 20
8.1276643022
 30
0.0
 10
10.9037936453
 20
8.1300277179
 30
0.0
  0
SPLINE
  5
257
100
AcDbEntity
  8
0
100
AcDbSpline
 62
9
  6
CONTINUOUS
 70
0
 71
3
 72
14
 73
10
 74
0
 42
0.0000001
 43
0.0000001
 44
0.0000000001
 40
0.0
 40
0.0
 40
0.0
 40
0.0
 40
0.2450511407
 40
0.369360266
 40
0.4945085218
 40
0.6203367728
 40
0.7466544307
 40
0.873273165
 40
1.0
 40
1.0
 40
1.0
 40
1.0
 10
11.1908430313
 20
8.1300277179
 30
0.0
 10
11.1793085327
 20
8.1276643239
 30
0.0
 10
11.1617345128
 20
8.125001954
 30
0.0
 10
11.1380961229
 20
8.1226020333
 30
0.0
 10
11.1201117081
 20
8.1212641908
 30
0.0
 10
11.1020074257
 20
8.1203174004
 30
0.0
 10
11.0838190894
 20
8.1196777971
 30
0.0
 10
11.0655801001
 20
8.1193174308
 30
0.0
 10
11.0534072675
 20
8.1192436871
 30
0.0
 10
11.0473183383
 20
8.119243629
 30
0.0
  0
SPLINE
  5
258
100
AcDbEntity
  8
0
100
AcDbSpline
 62
9
  6
CONTINUOUS
 70
0
 71
3
 72
22
 73
18
 74
0
 42
0.0000001
 43
0.0000001
 44
0.0000000001
 40
0.0
 40
0.0
 40
0.0
 40
0.0
 40
0.0055371629
 40
0.011882305
 40
0.019576115
 40
0.0289190381
 40
0.0531009416
 40
0.0850552846
 40
0.1249204599
 40
0.1725542672
 40
0.2277148189
 40
0.2901285715
 40
0.3594831202
 40
0.435367546
 40
0.6049591216
 40
0.7949807323
 40
1.0
 40
1.0
 40
1.0
 40
1.0
 10
10.3300608052
 20
9.5075576561
 30
0.0
 10
10.330038123
 20
9.5075445606
 30
0.0
 10
10.3299953573
 20
9.5075055216
 30
0.0
 10
10.3299525497
 20
9.5074220068
 30
0.0
 10
10.329926298
 20
9.5073138948
 30
0.0
 10
10.3299109237
 20
9.5071189935
 30
0.0
 10
10.329939113
 20
9.5068089233
 30
0.0
 10
10.3300289449
 20
9.5063635704
 30
0.0
 10
10.3301799435
 20
9.5058186578
 30
0.0
 10
10.3303908407
 20
9.5051775342
 30
0.0
 10
10.3306608341
 20
9.504444071
 30
0.0
 10
10.3309884694
 20
9.5036227456
 30
0.0
 10
10.3313720539
 20
9.5027184644
 30
0.0
 10
10.3319778909
 20
9.5013580381
 30
0.0
 10
10.3328592632
 20
9.4994958808
 30
0.0
 10
10.3340569061
 20
9.4971085415
 30
0.0
 10
10.3349261097
 20
9.4954543138
 30
0.0
 10
10.3353842851
 20
9.4945996232
 30
0.0
  0
SPLINE
  5
259
100
AcDbEntity
  8
0
100
AcDbSpline
 62
9
  6
CONTINUOUS
 70
0
 71
3
 72
22
 73
18
 74
0
 42
0.0000001
 43
0.0000001
 44
0.0000000001
 40
0.0
 40
0.0
 40
0.0
 40
0.0
 40
0.0055371629
 40
0.011882305
 40
0.019576115
 40
0.0289190381
 40
0.0531009415
 40
0.0850552846
 40
0.1249204599
 40
0.1725542672
 40
0.2277148189
 40
0.2901285715
 40
0.3594831201
 40
0.435367546
 40
0.6049591216
 40
0.7949807323
 40
1.0
 40
1.0
 40
1.0
 40
1.0
 10
10.1023183383
 20
8.5478528219
 30
0.0
 10
10.1023183383
 20
8.5478266308
 30
0.0
 10
10.1023307641
 20
8.5477700751
 30
0.0
 10
10.1023816863
 20
8.5476912453
 30
0.0
 10
10.1024621882
 20
8.5476144546
 30
0.0
 10
10.1026232905
 20
8.5475036894
 30
0.0
 10
10.1029059138
 20
8.547373067
 30
0.0
 10
10.1033365167
 20
8.5472281873
 30
0.0
 10
10.1038839241
 20
8.5470864996
 30
0.0
 10
10.1045446021
 20
8.5469485801
 30
0.0
 10
10.1053147965
 20
8.5468156696
 30
0.0
 10
10.1061899029
 20
8.5466887474
 30
0.0
 10
10.1071648256
 20
8.5465688008
 30
0.0
 10
10.1086459079
 20
8.5464132579
 30
0.0
 10
10.1106992695
 20
8.54624547
 30
0.0
 10
10.1133655874
 20
8.5460889895
 30
0.0
 10
10.1152327925
 20
8.5460146281
 30
0.0
 10
10.1162020639
 20
8.5459840743
 30
0.0
  0
SPLINE
  5
25A
100
AcDbEntity
  8
0
100
AcDbSpline
 62
9
  6
CONTINUOUS
 70
0
 71
3
 72
22
 73
18
 74
0
 42
0.0000001
 43
0.0000001
 44
0.0000000001
 40
0.0
 40
0.0
 40
0.0
 40
0.0
 40
0.0055371629
 40
0.011882305
 40
0.019576115
 40
0.0289190381
 40
0.0531009416
 40
0.0850552846
 40
0.1249204599
 40
0.1725542672
 40
0.2277148189
 40
0.2901285715
 40
0.3594831202
 40
0.435367546
 40
0.6049591216
 40
0.7949807323
 40
1.0
 40
1.0
 40
1.0
 40
1.0
 10
11.7645758714
 20
8.1533912982
 30
0.0
 10
11.7645985535
 20
8.1534043937
 30
0.0
 10
11.7646413193
 20
8.1534434327
 30
0.0
 10
11.7646841268
 20
8.1535269475
 30
0.0
 10
11.7647103786
 20
8.1536350595
 30
0.0
 10
11.7647257529
 20
8.1538299608
 30
0.0
 10
11.7646975636
 20
8.154140031
 30
0.0
 10
11.7646077316
 20
8.1545853839
 30
0.0
 10
11.7644567331
 20
8.1551302965
 30
0.0
 10
11.7642458358
 20
8.1557714201
 30
0.0
 10
11.7639758425
 20
8.1565048833
 30
0.0
 10
11.7636482072
 20
8.1573262087
 30
0.0
 10
11.7632646226
 20
8.15823049
 30
0.0
 10
11.7626587856
 20
8.1595909162
 30
0.0
 10
11.7617774134
 20
8.1614530735
 30
0.0
 10
11.7605797705
 20
8.1638404128
 30
0.0
 10
11.7597105668
 20
8.1654946405
 30
0.0
 10
11.7592523915
 20
8.1663493311
 30
0.0
  0
SPLINE
  5
25B
100
AcDbEntity
  8
0
100
AcDbSpline
 62
9
  6
CONTINUOUS
 70
0
 71
3
 72
22
 73
18
 74
0
 42
0.0000001
 43
0.0000001
 44
0.0000000001
 40
0.0
 40
0.0
 40
0.0
 40
0.0
 40
0.0055371629
 40
0.011882305
 40
0.019576115
 40
0.0289190381
 40
0.0531009415
 40
0.0850552846
 40
0.1249204599
 40
0.1725542672
 40
0.2277148189
 40
0.2901285715
 40
0.3594831201
 40
0.435367546
 40
0.6049591216
 40
0.7949807323
 40
1.0
 40
1.0
 40
1.0
 40
1.0
 10
11.9923183383
 20
9.1130961324
 30
0.0
 10
11.9923183383
 20
9.1131223235
 30
0.0
 10
11.9923059124
 20
9.1131788792
 30
0.0
 10
11.9922549903
 20
9.113257709
 30
0.0
 10
11.9921744883
 20
9.1133344997
 30
0.0
 10
11.9920133861
 20
9.1134452649
 30
0.0
 10
11.9917307628
 20
9.1135758873
 30
0.0
 10
11.9913001598
 20
9.113720767
 30
0.0
 10
11.9907527524
 20
9.1138624547
 30
0.0
 10
11.9900920745
 20
9.1140003742
 30
0.0
 10
11.9893218801
 20
9.1141332847
 30
0.0
 10
11.9884467737
 20
9.1142602069
 30
0.0
 10
11.9874718509
 20
9.1143801536
 30
0.0
 10
11.9859907687
 20
9.1145356964
 30
0.0
 10
11.983937407
 20
9.1147034843
 30
0.0
 10
11.9812710891
 20
9.1148599648
 30
0.0
 10
11.9794038841
 20
9.1149343262
 30
0.0
 10
11.9784346126
 20
9.11496488
 30
0.0
  0
SPLINE
  5
25C
100
AcDbEntity
  8
0
100
AcDbSpline
 62
9
  6
CONTINUOUS
 70
0
 71
3
 72
22
 73
18
 74
0
 42
0.0000001
 43
0.0000001
 44
0.0000000001
 40
0.0
 40
0.0
 40
0.0
 40
0.0
 40
0.0055371629
 40
0.011882305
 40
0.019576115
 40
0.0289190381
 40
0.0531009416
 40
0.0850552846
 40
0.1249204599
 40
0.1725542672
 40
0.2277148189
 40
0.2901285715
 40
0.3594831202
 40
0.435367546
 40
0.6049591216
 40
0.7949807323
 40
1.0
 40
1.0
 40
1.0
 40
1.0
 10
11.2750608052
 20
9.7901793113
 30
0.0
 10
11.275038123
 20
9.7901924069
 30
0.0
 10
11.2749829314
 20
9.7902099237
 30
0.0
 10
11.2748892017
 20
9.7902052387
 30
0.0
 10
11.2747824481
 20
9.7901739173
 30
0.0
 10
11.2746059715
 20
9.7900897812
 30
0.0
 10
11.2743515375
 20
9.7899103335
 30
0.0
 10
11.2740107665
 20
9.7896098603
 30
0.0
 10
11.2736143577
 20
9.7892066354
 30
0.0
 10
11.2731645769
 20
9.7887034312
 30
0.0
 10
11.2726643758
 20
9.7881028786
 30
0.0
 10
11.2721169048
 20
9.7874084753
 30
0.0
 10
11.2715255666
 20
9.7866241408
 30
0.0
 10
11.2706503214
 20
9.7854192574
 30
0.0
 10
11.269478332
 20
9.7837248879
 30
0.0
 10
11.2680096569
 20
9.7814940292
 30
0.0
 10
11.2670116555
 20
9.7799141628
 30
0.0
 10
11.2665005594
 20
9.779090026
 30
0.0
  0
SPLINE
  5
25D
100
AcDbEntity
  8
0
100
AcDbSpline
 62
9
  6
CONTINUOUS
 70
0
 71
3
 72
44
 73
40
 74
0
 42
0.0000001
 43
0.0000001
 44
0.0000000001
 40
0.0
 40
0.0
 40
0.0
 40
0.0
 40
0.0000184525
 40
0.0000737471
 40
0.000165911
 40
0.0002949686
 40
0.0004609438
 40
0.0006638451
 40
0.0011802811
 40
0.0018439497
 40
0.0026545162
 40
0.0036116457
 40
0.0047150039
 40
0.0059642563
 40
0.0073590686
 40
0.0105840366
 40
0.0143872374
 40
0.0187660031
 40
0.0237176687
 40
0.0292395024
 40
0.0353272974
 40
0.0419754428
 40
0.0569301579
 40
0.074058521
 40
0.0933155863
 40
0.1146542543
 40
0.1380189874
 40
0.1633526026
 40
0.1905983245
 40
0.2196997334
 40
0.2832409059
 40
0.353522306
 40
0.4301031424
 40
0.5125663211
 40
0.6005133759
 40
0.6935824315
 40
0.7914407605
 40
0.8937231641
 40
1.0
 40
1.0
 40
1.0
 40
1.0
 10
11.2973182001
 20
8.1201749594
 30
0.0
 10
11.2973177634
 20
8.1201756595
 30
0.0
 10
11.2973140915
 20
8.1201715615
 30
0.0
 10
11.2973082733
 20
8.1201705442
 30
0.0
 10
11.2972969684
 20
8.1201632777
 30
0.0
 10
11.297281914
 20
8.1201556813
 30
0.0
 10
11.297262258
 20
8.120144848
 30
0.0
 10
11.2972274834
 20
8.1201261084
 30
0.0
 10
11.2971731012
 20
8.1200965472
 30
0.0
 10
11.297094871
 20
8.1200541307
 30
0.0
 10
11.2969993002
 20
8.120002284
 30
0.0
 10
11.2968864344
 20
8.1199411112
 30
0.0
 10
11.2967562953
 20
8.1198706335
 30
0.0
 10
11.2966089127
 20
8.1197909014
 30
0.0
 10
11.2963780297
 20
8.1196661372
 30
0.0
 10
11.2960465347
 20
8.1194873443
 30
0.0
 10
11.2955973393
 20
8.1192457011
 30
0.0
 10
11.2950798311
 20
8.1189680697
 30
0.0
 10
11.2944942319
 20
8.118654801
 30
0.0
 10
11.2938408352
 20
8.118306259
 30
0.0
 10
11.2931199908
 20
8.1179229824
 30
0.0
 10
11.2920258024
 20
8.1173434188
 30
0.0
 10
11.2904931371
 20
8.1165369586
 30
0.0
 10
11.2884572464
 20
8.1154761038
 30
0.0
 10
11.2861630267
 20
8.1142933151
 30
0.0
 10
11.2836148664
 20
8.1129945947
 30
0.0
 10
11.2808170905
 20
8.1115873498
 30
0.0
 10
11.2777744892
 20
8.1100791443
 30
0.0
 10
11.2744919087
 20
8.1084776328
 30
0.0
 10
11.2696582863
 20
8.1061591635
 30
0.0
 10
11.2630548583
 20
8.1030812275
 30
0.0
 10
11.2544634759
 20
8.0992455309
 30
0.0
 10
11.2450257729
 20
8.0952337009
 30
0.0
 10
11.2347783304
 20
8.0911125513
 30
0.0
 10
11.2237561069
 20
8.0869485447
 30
0.0
 10
11.2119931331
 20
8.0828059058
 30
0.0
 10
11.1995242694
 20
8.0787485949
 30
0.0
 10
11.1863903287
 20
8.0748404626
 30
0.0
 10
11.1773828859
 20
8.0724191276
 30
0.0
 10
11.172776986
 20
8.0712489689
 30
0.0
  0
SPLINE
  5
25E
100
AcDbEntity
  8
0
100
AcDbSpline
 62
9
  6
CONTINUOUS
 70
0
 71
3
 72
22
 73
18
 74
0
 42
0.0000001
 43
0.0000001
 44
0.0000000001
 40
0.0
 40
0.0
 40
0.0
 40
0.0
 40
0.0552115796
 40
0.1111873772
 40
0.1680767429
 40
0.2259960828
 40
0.2850285087
 40
0.3452221506
 40
0.4065906335
 40
0.4691159195
 40
0.5327478435
 40
0.5974106417
 40
0.6630036549
 40
0.7294037965
 40
0.863967769
 40
0.9319139454
 40
1.0
 40
1.0
 40
1.0
 40
1.0
 10
11.290551024
 20
5.3028961555
 30
0.0
 10
11.2889321251
 20
5.297488845
 30
0.0
 10
11.2851089246
 20
5.2867596951
 30
0.0
 10
11.2777467903
 20
5.2712047145
 30
0.0
 10
11.2687734118
 20
5.2561960603
 30
0.0
 10
11.2582546166
 20
5.2418401035
 30
0.0
 10
11.2462652529
 20
5.2282354292
 30
0.0
 10
11.2328892288
 20
5.2154771256
 30
0.0
 10
11.2182220272
 20
5.203651386
 30
0.0
 10
11.2023647275
 20
5.1928419112
 30
0.0
 10
11.185429689
 20
5.1831204926
 30
0.0
 10
11.1675339205
 20
5.1745564498
 30
0.0
 10
11.1488013106
 20
5.1672067307
 30
0.0
 10
11.1227780684
 20
5.1590619464
 30
0.0
 10
11.0957320887
 20
5.1535921336
 30
0.0
 10
11.0681913238
 20
5.1508436828
 30
0.0
 10
11.0542789882
 20
5.1503815313
 30
0.0
 10
11.0473183383
 20
5.1503815313
 30
0.0
  0
SPLINE
  5
25F
100
AcDbEntity
  8
0
100
AcDbSpline
 62
9
  6
CONTINUOUS
 70
0
 71
3
 72
21
 73
17
 74
0
 42
0.0000001
 43
0.0000001
 44
0.0000000001
 40
0.0
 40
0.0
 40
0.0
 40
0.0
 40
0.0551689676
 40
0.1106472116
 40
0.166726835
 40
0.2236681808
 40
0.2816882125
 40
0.3409511545
 40
0.401565152
 40
0.4635817579
 40
0.5269961135
 40
0.5917518423
 40
0.7247180394
 40
0.7927248331
 40
0.8614412729
 40
1.0
 40
1.0
 40
1.0
 40
1.0
 10
11.2973180103
 20
5.4522110256
 30
0.0
 10
11.2973180103
 20
5.4457179466
 30
0.0
 10
11.2965091889
 20
5.4326811417
 30
0.0
 10
11.2928840311
 20
5.4133485579
 30
0.0
 10
11.2868838437
 20
5.3943962102
 30
0.0
 10
11.2785715816
 20
5.3760124199
 30
0.0
 10
11.2680300269
 20
5.3583744642
 30
0.0
 10
11.2553652392
 20
5.341651522
 30
0.0
 10
11.2407027263
 20
5.3260018466
 30
0.0
 10
11.224185048
 20
5.3115750157
 30
0.0
 10
11.2059707922
 20
5.2985058068
 30
0.0
 10
11.1794401543
 20
5.2829244965
 30
0.0
 10
11.1504479436
 20
5.2707247746
 30
0.0
 10
11.1198838044
 20
5.2620652144
 30
0.0
 10
11.0880784587
 20
5.2557540022
 30
0.0
 10
11.0636259258
 20
5.2538575975
 30
0.0
 10
11.0473183383
 20
5.2538575975
 30
0.0
  0
SPLINE
  5
260
100
AcDbEntity
  8
0
100
AcDbSpline
 62
9
  6
CONTINUOUS
 70
0
 71
3
 72
22
 73
18
 74
0
 42
0.0000001
 43
0.0000001
 44
0.0000000001
 40
0.0
 40
0.0
 40
0.0
 40
0.0
 40
0.0055371619
 40
0.0118823033
 40
0.0195761127
 40
0.0289190353
 40
0.0531009382
 40
0.0850552809
 40
0.1249204561
 40
0.1725542633
 40
0.2277148152
 40
0.2901285679
 40
0.3594831168
 40
0.435367543
 40
0.6049591195
 40
0.7949807312
 40
1.0
 40
1.0
 40
1.0
 40
1.0
 10
10.1023183383
 20
9.1130961324
 30
0.0
 10
10.1023183383
 20
9.1131223235
 30
0.0
 10
10.1023307641
 20
9.1131788792
 30
0.0
 10
10.1023816863
 20
9.113257709
 30
0.0
 10
10.1024621882
 20
9.1133344997
 30
0.0
 10
10.1026232905
 20
9.1134452648
 30
0.0
 10
10.1029059138
 20
9.1135758872
 30
0.0
 10
10.1033365167
 20
9.1137207669
 30
0.0
 10
10.1038839241
 20
9.1138624546
 30
0.0
 10
10.1045446021
 20
9.114000374
 30
0.0
 10
10.1053147965
 20
9.1141332846
 30
0.0
 10
10.1061899029
 20
9.1142602068
 30
0.0
 10
10.1071648256
 20
9.1143801534
 30
0.0
 10
10.1086459079
 20
9.1145356963
 30
0.0
 10
10.1106992695
 20
9.1147034842
 30
0.0
 10
10.1133655874
 20
9.1148599648
 30
0.0
 10
10.1152327925
 20
9.1149343262
 30
0.0
 10
10.1162020639
 20
9.11496488
 30
0.0
  0
SPLINE
  5
261
100
AcDbEntity
  8
0
100
AcDbSpline
 62
9
  6
CONTINUOUS
 70
0
 71
3
 72
22
 73
18
 74
0
 42
0.0000001
 43
0.0000001
 44
0.0000000001
 40
0.0
 40
0.0
 40
0.0
 40
0.0
 40
0.0055371619
 40
0.0118823033
 40
0.0195761127
 40
0.0289190353
 40
0.0531009382
 40
0.0850552809
 40
0.1249204561
 40
0.1725542633
 40
0.2277148151
 40
0.2901285679
 40
0.3594831168
 40
0.435367543
 40
0.6049591195
 40
0.7949807312
 40
1.0
 40
1.0
 40
1.0
 40
1.0
 10
10.3300608052
 20
8.1533912982
 30
0.0
 10
10.330038123
 20
8.1534043937
 30
0.0
 10
10.3299953573
 20
8.1534434327
 30
0.0
 10
10.3299525498
 20
8.1535269475
 30
0.0
 10
10.329926298
 20
8.1536350595
 30
0.0
 10
10.3299109237
 20
8.1538299608
 30
0.0
 10
10.329939113
 20
8.1541400309
 30
0.0
 10
10.330028945
 20
8.1545853839
 30
0.0
 10
10.3301799436
 20
8.1551302964
 30
0.0
 10
10.3303908409
 20
8.15577142
 30
0.0
 10
10.3306608342
 20
8.1565048832
 30
0.0
 10
10.3309884695
 20
8.1573262087
 30
0.0
 10
10.3313720541
 20
8.1582304899
 30
0.0
 10
10.3319778911
 20
8.1595909162
 30
0.0
 10
10.3328592633
 20
8.1614530734
 30
0.0
 10
10.3340569061
 20
8.1638404128
 30
0.0
 10
10.3349261098
 20
8.1654946405
 30
0.0
 10
10.3353842851
 20
8.1663493311
 30
0.0
  0
SPLINE
  5
262
100
AcDbEntity
  8
0
100
AcDbSpline
 62
9
  6
CONTINUOUS
 70
0
 71
3
 72
22
 73
18
 74
0
 42
0.0000001
 43
0.0000001
 44
0.0000000001
 40
0.0
 40
0.0
 40
0.0
 40
0.0
 40
0.0055371619
 40
0.0118823033
 40
0.0195761127
 40
0.0289190353
 40
0.0531009382
 40
0.0850552809
 40
0.1249204561
 40
0.1725542633
 40
0.2277148152
 40
0.2901285679
 40
0.3594831168
 40
0.435367543
 40
0.6049591195
 40
0.7949807312
 40
1.0
 40
1.0
 40
1.0
 40
1.0
 10
11.9923183383
 20
8.5478528219
 30
0.0
 10
11.9923183383
 20
8.5478266308
 30
0.0
 10
11.9923059124
 20
8.5477700751
 30
0.0
 10
11.9922549903
 20
8.5476912453
 30
0.0
 10
11.9921744883
 20
8.5476144547
 30
0.0
 10
11.9920133861
 20
8.5475036895
 30
0.0
 10
11.9917307628
 20
8.5473730671
 30
0.0
 10
11.9913001598
 20
8.5472281874
 30
0.0
 10
11.9907527524
 20
8.5470864997
 30
0.0
 10
11.9900920745
 20
8.5469485803
 30
0.0
 10
11.9893218801
 20
8.5468156698
 30
0.0
 10
11.9884467737
 20
8.5466887475
 30
0.0
 10
11.9874718509
 20
8.5465688009
 30
0.0
 10
11.9859907687
 20
8.546413258
 30
0.0
 10
11.983937407
 20
8.5462454701
 30
0.0
 10
11.9812710891
 20
8.5460889896
 30
0.0
 10
11.9794038841
 20
8.5460146281
 30
0.0
 10
11.9784346126
 20
8.5459840743
 30
0.0
  0
SPLINE
  5
263
100
AcDbEntity
  8
0
100
AcDbSpline
 62
9
  6
CONTINUOUS
 70
0
 71
3
 72
22
 73
18
 74
0
 42
0.0000001
 43
0.0000001
 44
0.0000000001
 40
0.0
 40
0.0
 40
0.0
 40
0.0
 40
0.0055371619
 40
0.0118823033
 40
0.0195761127
 40
0.0289190353
 40
0.0531009382
 40
0.0850552809
 40
0.1249204561
 40
0.1725542633
 40
0.2277148151
 40
0.2901285679
 40
0.3594831168
 40
0.435367543
 40
0.6049591195
 40
0.7949807312
 40
1.0
 40
1.0
 40
1.0
 40
1.0
 10
11.7645758714
 20
9.5075576561
 30
0.0
 10
11.7645985535
 20
9.5075445606
 30
0.0
 10
11.7646413193
 20
9.5075055216
 30
0.0
 10
11.7646841268
 20
9.5074220068
 30
0.0
 10
11.7647103785
 20
9.5073138948
 30
0.0
 10
11.7647257528
 20
9.5071189935
 30
0.0
 10
11.7646975635
 20
9.5068089234
 30
0.0
 10
11.7646077315
 20
9.5063635704
 30
0.0
 10
11.764456733
 20
9.5058186579
 30
0.0
 10
11.7642458357
 20
9.5051775343
 30
0.0
 10
11.7639758424
 20
9.5044440711
 30
0.0
 10
11.7636482071
 20
9.5036227456
 30
0.0
 10
11.7632646225
 20
9.5027184644
 30
0.0
 10
11.7626587855
 20
9.5013580382
 30
0.0
 10
11.7617774132
 20
9.4994958809
 30
0.0
 10
11.7605797704
 20
9.4971085415
 30
0.0
 10
11.7597105668
 20
9.4954543138
 30
0.0
 10
11.7592523915
 20
9.4945996232
 30
0.0
  0
SPLINE
  5
264
100
AcDbEntity
  8
0
100
AcDbSpline
 62
9
  6
CONTINUOUS
 70
0
 71
3
 72
22
 73
18
 74
0
 42
0.0000001
 43
0.0000001
 44
0.0000000001
 40
0.0
 40
0.0
 40
0.0
 40
0.0
 40
0.0055371619
 40
0.0118823033
 40
0.0195761127
 40
0.0289190353
 40
0.0531009382
 40
0.0850552809
 40
0.1249204561
 40
0.1725542633
 40
0.2277148151
 40
0.2901285679
 40
0.3594831168
 40
0.435367543
 40
0.6049591195
 40
0.7949807312
 40
1.0
 40
1.0
 40
1.0
 40
1.0
 10
10.8195758714
 20
9.7901793113
 30
0.0
 10
10.8195985535
 20
9.7901924069
 30
0.0
 10
10.8196537451
 20
9.7902099236
 30
0.0
 10
10.8197474748
 20
9.7902052386
 30
0.0
 10
10.8198542285
 20
9.7901739173
 30
0.0
 10
10.820030705
 20
9.7900897812
 30
0.0
 10
10.820285139
 20
9.7899103335
 30
0.0
 10
10.82062591
 20
9.7896098602
 30
0.0
 10
10.8210223188
 20
9.7892066353
 30
0.0
 10
10.8214720995
 20
9.7887034312
 30
0.0
 10
10.8219723006
 20
9.7881028785
 30
0.0
 10
10.8225197717
 20
9.7874084753
 30
0.0
 10
10.8231111099
 20
9.7866241407
 30
0.0
 10
10.8239863551
 20
9.7854192573
 30
0.0
 10
10.8251583445
 20
9.7837248879
 30
0.0
 10
10.8266270196
 20
9.7814940291
 30
0.0
 10
10.827625021
 20
9.7799141628
 30
0.0
 10
10.8281361171
 20
9.779090026
 30
0.0
  0
ENDSEC
  0
SECTION
  2
OBJECTS
  0
DICTIONARY
  5
C
100
AcDbDictionary
280
0
281
1
  3
ACAD_GROUP
350
D
  3
ACAD_MLINESTYLE
350
17
  3
ACAD_LAYOUT
350
1A
  3
ACAD_PLOTSETTINGS
350
19
  3
ACAD_PLOTSTYLENAME
350
E
  0
DICTIONARY
  5
D
102
{ACAD_REACTORS
330
C
102
}
100
AcDbDictionary
280
0
281
1
  0
ACDBDICTIONARYWDFLT
  5
E
102
{ACAD_REACTORS
330
C
102
}
100
AcDbDictionary
281
1
  3
Normal
350
F
100
AcDbDictionaryWithDefault
340
F
  0
DICTIONARY
  5
17
102
{ACAD_REACTORS
330
C
102
}
100
AcDbDictionary
280
0
281
1
  3
Standard
350
18
  0
DICTIONARY
  5
19
102
{ACAD_REACTORS
330
C
102
}
100
AcDbDictionary
281
1
  0
DICTIONARY
  5
1A
102
{ACAD_REACTORS
330
C
102
}
100
AcDbDictionary
281
1
  3
Model
350
265
  3
Layout1
350
266
  0
ACDBPLACEHOLDER
  5
F
102
{ACAD_REACTORS
330
E
102
}
  0
MLINESTYLE
  5
18
102
{ACAD_REACTORS
330
17
102
}
100
AcDbMlineStyle
  2
STANDARD
 70
0
  3

 62
256
 51
90.0
 52
90.0
 71
2
 49
0.5
 62
256
  6
BYLAYER
 49
-0.5
 62
256
  6
BYLAYER
  0
LAYOUT
  5
265
102
{ACAD_REACTORS
330
1A
102
}
100
AcDbPlotSettings
  1

  2
none_device
  4
ANSI_C_(22.00_x_17.00_Inches)
  6

 40
0.0
 41
0.0
 42
0.0
 43
0.0
 44
558.8
 45
431.8
 46
0.0
 47
0.0
 48
0.0
 49
0.0
140
0.0
141
0.0
142
1.0
143
1.0
 70
1024
 72
0
 73
0
 74
0
  7

 75
0
147
1.0
148
0.0
149
0.0
100
AcDbLayout
  1
Model
 70
0
 71
0
 10
0.0
 20
0.0
 11
22.0
 21
17.0
 12
0.0
 22
0.0
 32
0.0
 14
0.0
 24
0.0
 34
0.0
 15
0.0
 25
0.0
 35
0.0
146
0.0
 13
0.0
 23
0.0
 33
0.0
 16
1.0
 26
0.0
 36
0.0
 17
0.0
 27
1.0
 37
0.0
 76
0
330
205
345
0
346
0
  0
LAYOUT
  5
266
102
{ACAD_REACTORS
330
1A
102
}
100
AcDbPlotSettings
  1

  2
none_device
  4
ANSI_C_(22.00_x_17.00_Inches)
  6

 40
0.0
 41
0.0
 42
0.0
 43
0.0
 44
558.8
 45
431.8
 46
0.0
 47
0.0
 48
0.0
 49
0.0
140
0.0
141
0.0
142
1.0
143
1.0
 70
0
 72
0
 73
0
 74
0
  7

 75
0
147
1.0
148
0.0
149
0.0
100
AcDbLayout
  1
Layout1
 70
0
 71
1
 10
0.0
 20
0.0
 11
22.0
 21
17.0
 12
0.0
 22
0.0
 32
0.0
 14
0.0
 24
0.0
 34
0.0
 15
0.0
 25
0.0
 35
0.0
146
0.0
 13
0.0
 23
0.0
 33
0.0
 16
1.0
 26
0.0
 36
0.0
 17
0.0
 27
1.0
 37
0.0
 76
0
330
206
345
0
346
0
  0
ENDSEC
  0
EOF
