999
DXF file: 3200-5223_front.dxf
999
Pro/ENGINEER 2018400 by Parametric Technology Corporation
  0
SECTION
  2
HEADER
  9
$ACADVER
  1
AC1027
  9
$DWGCODEPAGE
  3
ANSI_1252
  9
$EXTMAX
 10
11.0
 20
8.5
 30
0.0
  9
$EXTMIN
 10
0.0
 20
0.0
 30
0.0
  9
$LIMMIN
 10
0.0
 20
0.0
  9
$LIMMAX
 10
11.0
 20
8.5
  9
$VIEWCTR
 10
5.5
 20
4.25
  9
$VIEWSIZE
 40
8.5
  9
$CLAYER
  8
0
  9
$LTSCALE
 40
0.605
  9
$CELTYPE
  6
BYLAYER
  9
$DIMSCALE
 40
1.0
  9
$DIMASZ
 40
0.1
  9
$DIMEXO
 40
0.0625
  9
$DIMDLI
 40
0.418
  9
$DIMEXE
 40
0.125
  9
$DIMCEN
 40
0.099
  9
$DIMLFAC
 40
1.0
  9
$DIMBLK
  1
_FILLED
  9
$DIMALT
 70
1
  9
$DIMALTD
 70
1
  9
$DIMALTTD
 70
2
  9
$DIMALTF
 40
25.4
  9
$DIMTXT
 40
0.08
  9
$DIMTOL
 70
1
  9
$DIMLIM
 70
0
  9
$DIMTFAC
 40
1.0
  9
$DIMTP
 40
0.01
  9
$DIMTM
 40
0.01
  9
$DIMGAP
 40
0.09
  9
$DIMDSEP
 70
46
  9
$AUNITS
 70
0
  9
$PDMODE
 70
3
  9
$PDSIZE
 40
0.3125
  9
$HANDSEED
  5
3F6
  9
$TILEMODE
 70
1
  9
$MEASUREMENT
 70
0
  9
$INSUNITS
 70
1
  0
ENDSEC
  0
SECTION
  2
CLASSES
  0
CLASS
  1
ACDBDICTIONARYWDFLT
  2
AcDbDictionaryWithDefault
  3
AutoCAD 2000
 90
0
 91
1
280
0
281
0
  0
CLASS
  1
ACDBPLACEHOLDER
  2
AcDbPlaceHolder
  3
AutoCAD 2000
 90
0
 91
1
280
0
281
0
  0
CLASS
  1
LAYOUT
  2
AcDbLayout
  3
AutoCAD 2000
 90
0
 91
0
280
0
281
0
  0
ENDSEC
  0
SECTION
  2
TABLES
  0
TABLE
  2
VPORT
  5
8
100
AcDbSymbolTable
 70
2
  0
VPORT
  5
1F4
100
AcDbSymbolTableRecord
100
AcDbViewportTableRecord
  2
*ACTIVE
 70
0
 10
0.0
 20
0.0
 11
1.0
 21
1.0
 12
5.5
 22
4.25
 13
0.0
 23
0.0
 14
1.0
 24
1.0
 15
0.0
 25
0.0
 16
0.0
 26
0.0
 36
1.0
 17
0.0
 27
0.0
 37
0.0
 40
8.5
 41
1.2941176471
 42
50.0
 43
0.0
 44
0.0
 50
0.0
 51
0.0
 71
0
 72
100
 73
1
 74
1
 75
0
 76
0
 77
0
 78
0
  0
ENDTAB
  0
TABLE
  2
LTYPE
  5
5
100
AcDbSymbolTable
 70
6
  0
LTYPE
  5
14
100
AcDbSymbolTableRecord
100
AcDbLinetypeTableRecord
  2
BYBLOCK
 70
0
  3

 72
65
 73
0
 40
0.0
  0
LTYPE
  5
15
100
AcDbSymbolTableRecord
100
AcDbLinetypeTableRecord
  2
BYLAYER
 70
0
  3

 72
65
 73
0
 40
0.0
  0
LTYPE
  5
16
100
AcDbSymbolTableRecord
100
AcDbLinetypeTableRecord
  2
CONTINUOUS
 70
64
  3
Solid line
 72
65
 73
0
 40
0.0
  0
LTYPE
  5
1F5
100
AcDbSymbolTableRecord
100
AcDbLinetypeTableRecord
  2
CENTER
 70
64
  3
____ _ ____ _ ____ _ ____ _ ____ _ ____ _ ____
 72
65
 73
4
 40
0.6
 49
0.375
 74
0
 49
-0.075
 74
0
 49
0.075
 74
0
 49
-0.075
 74
0
  0
LTYPE
  5
1F6
100
AcDbSymbolTableRecord
100
AcDbLinetypeTableRecord
  2
HIDDEN
 70
64
  3
- - - - - - - - - - - - - - - - - - - -
 72
65
 73
2
 40
0.2
 49
0.1
 74
0
 49
-0.1
 74
0
  0
LTYPE
  5
1F7
100
AcDbSymbolTableRecord
100
AcDbLinetypeTableRecord
  2
PHANTOM
 70
64
  3
_____ _ _ _____ _ _ _____ _ _ _____
 72
65
 73
6
 40
0.8
 49
0.45
 74
0
 49
-0.05
 74
0
 49
0.1
 74
0
 49
-0.05
 74
0
 49
0.1
 74
0
 49
-0.05
 74
0
  0
LTYPE
  5
1F8
100
AcDbSymbolTableRecord
100
AcDbLinetypeTableRecord
  2
DOT
 70
64
  3
. . . . . . . . . . . . . . . . . . . .
 72
65
 73
2
 40
0.2
 49
0.1
 74
0
 49
-0.1
 74
0
  0
LTYPE
  5
1F9
100
AcDbSymbolTableRecord
100
AcDbLinetypeTableRecord
  2
DASHED
 70
64
  3
- - - - - - - - - - - - - - - - - - - -
 72
65
 73
2
 40
0.2
 49
0.1
 74
0
 49
-0.1
 74
0
  0
ENDTAB
  0
TABLE
  2
LAYER
  5
2
100
AcDbSymbolTable
 70
36
  0
LAYER
  5
10
100
AcDbSymbolTableRecord
100
AcDbLayerTableRecord
  2
0
 70
0
 62
7
  6
CONTINUOUS
370
-3
390
F
  0
LAYER
  5
1FA
100
AcDbSymbolTableRecord
100
AcDbLayerTableRecord
  2
DEFAULT_1
 70
0
 62
7
  6
CENTER
370
-3
390
F
  0
LAYER
  5
1FB
100
AcDbSymbolTableRecord
100
AcDbLayerTableRecord
  2
DEFAULT_2
 70
0
 62
8
  6
HIDDEN
370
-3
390
F
  0
LAYER
  5
1FC
100
AcDbSymbolTableRecord
100
AcDbLayerTableRecord
  2
DEFAULT_3
 70
0
 62
7
  6
PHANTOM
370
-3
390
F
  0
LAYER
  5
1FD
100
AcDbSymbolTableRecord
100
AcDbLayerTableRecord
  2
DEFAULT_COORDINATE_SYSTEM
 70
0
 62
7
  6
CONTINUOUS
370
-3
390
F
  0
LAYER
  5
1FE
100
AcDbSymbolTableRecord
100
AcDbLayerTableRecord
  2
DEFAULT_DATUM_AXES
 70
0
 62
7
  6
CONTINUOUS
370
-3
390
F
  0
LAYER
  5
1FF
100
AcDbSymbolTableRecord
100
AcDbLayerTableRecord
  2
DEFAULT_DATUM_PLANES
 70
0
 62
7
  6
CONTINUOUS
370
-3
390
F
  0
ENDTAB
  0
TABLE
  2
STYLE
  5
3
100
AcDbSymbolTable
 70
1
  0
STYLE
  5
11
100
AcDbSymbolTableRecord
100
AcDbTextStyleTableRecord
  2
STANDARD
 70
0
 40
0.0
 41
0.8
 50
0.0
 71
0
 42
0.2
  3
txt
  4

  0
STYLE
  5
200
100
AcDbSymbolTableRecord
100
AcDbTextStyleTableRecord
  2
TEXTSTYLE_1
 70
0
 40
0.0
 41
0.8
 50
0.0
 71
0
 42
0.2
  3
gdt
  4

  0
ENDTAB
  0
TABLE
  2
VIEW
  5
6
100
AcDbSymbolTable
 70
0
  0
ENDTAB
  0
TABLE
  2
UCS
  5
7
100
AcDbSymbolTable
 70
0
  0
ENDTAB
  0
TABLE
  2
APPID
  5
9
100
AcDbSymbolTable
 70
1
  0
APPID
  5
201
100
AcDbSymbolTableRecord
100
AcDbRegAppTableRecord
  2
ACAD
 70
0
  0
ENDTAB
  0
TABLE
  2
BLOCK_RECORD
  5
1
100
AcDbSymbolTable
 70
0
  0
BLOCK_RECORD
  5
202
100
AcDbSymbolTableRecord
100
AcDbBlockTableRecord
  2
*Model_Space
  0
BLOCK_RECORD
  5
203
100
AcDbSymbolTableRecord
100
AcDbBlockTableRecord
  2
*Paper_Space
  0
BLOCK_RECORD
  5
204
100
AcDbSymbolTableRecord
100
AcDbBlockTableRecord
  2
_FILLED
  0
ENDTAB
  0
TABLE
  2
DIMSTYLE
  5
A
100
AcDbSymbolTable
 70
1
100
AcDbDimStyleTable
 71
0
  0
DIMSTYLE
105
205
100
AcDbSymbolTableRecord
100
AcDbDimStyleTableRecord
  2
STANDARD
 70
0
  3

  4

 40
1.0
 41
0.1
 42
0.0625
 43
0.38
 44
0.125
 45
0.0
 46
0.0
 47
0.01
 48
0.01
140
0.08
141
0.09
142
0.0
143
25.4
144
1.0
145
0.0
146
1.0
147
0.09
 71
1.0
 72
0.0
 73
1
 74
1
 75
0
 76
0
 77
0
 78
4
 79
1
170
1
171
1
172
0
173
0
174
0
175
0
176
0
177
0
178
0
270
2
179
2
271
2
272
2
273
2
274
2
275
0
280
0
281
0
282
0
283
1
284
4
285
0
286
0
287
3
288
0
340
11
278
46
341
204
342
204
343
204
344
204
  0
ENDTAB
  0
ENDSEC
  0
SECTION
  2
BLOCKS
  0
BLOCK
  5
20
100
AcDbEntity
  8
0
100
AcDbBlockBegin
  2
*Model_Space
 70
0
 10
0.0
 20
0.0
 30
0.0
  3
*Model_Space
  1

  0
ENDBLK
  5
21
100
AcDbEntity
  8
0
100
AcDbBlockEnd
  0
BLOCK
  5
1C
100
AcDbEntity
  8
0
100
AcDbBlockBegin
  2
*Paper_Space
 70
0
 10
0.0
 20
0.0
 30
0.0
  3
*Paper_Space
  1

  0
ENDBLK
  5
1D
100
AcDbEntity
  8
0
100
AcDbBlockEnd
  0
BLOCK
  5
206
100
AcDbEntity
  8
0
100
AcDbBlockBegin
  2
_FILLED
 70
64
 10
0.0
 20
0.0
  3
_FILLED
  1

  0
SOLID
  5
207
100
AcDbEntity
  8
0
  6
BYBLOCK
 62
0
100
AcDbTrace
 10
0.0
 20
0.0
 11
-1.0
 21
0.2
 12
-1.0
 22
-0.2
 13
-1.0
 23
-0.2
  0
ENDBLK
  5
208
100
AcDbEntity
  8
0
  6
BYBLOCK
 62
0
100
AcDbBlockEnd
  0
ENDSEC
  0
SECTION
  2
ENTITIES
  0
MTEXT
  5
209
100
AcDbEntity
  8
0
100
AcDbMText
 62
2
  6
CONTINUOUS
  7
STANDARD
 71
3
 72
1
 10
4.7021583851
 20
0.3324086958
 30
0.0
 11
1.0
 21
0.0
 31
0.0
 73
2
 44
0.9
  1
SCALE  .500
 40
0.08
 41
0.704
  0
LINE
  5
20A
100
AcDbEntity
  8
0
100
AcDbLine
 62
7
  6
CONTINUOUS
 10
0.0
 20
0.0
 11
0.0
 21
8.5
  0
LINE
  5
20B
100
AcDbEntity
  8
0
100
AcDbLine
 62
7
  6
CONTINUOUS
 10
0.0
 20
0.0
 11
11.0
 21
0.0
  0
LINE
  5
20C
100
AcDbEntity
  8
0
100
AcDbLine
 62
7
  6
CONTINUOUS
 10
0.0
 20
8.5
 11
11.0
 21
8.5
  0
LINE
  5
20D
100
AcDbEntity
  8
0
100
AcDbLine
 62
7
  6
CONTINUOUS
 10
11.0
 20
0.0
 11
11.0
 21
8.5
  0
LINE
  5
20E
100
AcDbEntity
  8
0
100
AcDbLine
 62
7
  6
CONTINUOUS
 10
4.8878605574
 20
0.7041167704
 11
3.6623605574
 21
0.7041167704
  0
LINE
  5
20F
100
AcDbEntity
  8
0
100
AcDbLine
 62
7
  6
CONTINUOUS
 10
3.6623605574
 20
0.831825874
 11
4.8878605574
 21
0.831825874
  0
LINE
  5
210
100
AcDbEntity
  8
0
100
AcDbLine
 62
7
  6
CONTINUOUS
 10
3.6686774246
 20
0.8502407925
 11
4.8815436901
 21
0.8502407925
  0
LINE
  5
211
100
AcDbEntity
  8
0
100
AcDbLine
 62
7
  6
CONTINUOUS
 10
3.7909796168
 20
1.0075316889
 11
4.7592414979
 21
1.0075316889
  0
LINE
  5
212
100
AcDbEntity
  8
0
100
AcDbLine
 62
7
  6
CONTINUOUS
 10
4.7501105574
 20
1.0191167704
 11
3.8001105574
 21
1.0191167704
  0
LWPOLYLINE
  5
213
100
AcDbEntity
  8
0
100
AcDbPolyline
 62
7
  6
CONTINUOUS
 90
24
 70
0
 10
5.4912442286
 20
2.3242451178
 10
5.4992688642
 20
2.3264880363
 10
5.5036568144
 20
2.3276826338
 10
5.5082999943
 20
2.3289216194
 10
5.5131962389
 20
2.3301997425
 10
5.5183402588
 20
2.3315105408
 10
5.5237388863
 20
2.3328502291
 10
5.5293841107
 20
2.3342109445
 10
5.53524433
 20
2.3355790689
 10
5.541318019
 20
2.3369482341
 10
5.5476000705
 20
2.3383109615
 10
5.5540483645
 20
2.3396518842
 10
5.5606594642
 20
2.3409643872
 10
5.567425819
 20
2.3422408098
 10
5.5742946033
 20
2.3434655922
 10
5.5812588044
 20
2.3446326109
 10
5.5883104967
 20
2.3457355793
 10
5.5953912903
 20
2.3467614458
 10
5.6024923874
 20
2.3477059893
 10
5.6096048533
 20
2.3485653339
 10
5.6166667283
 20
2.3493306563
 10
5.6236504557
 20
2.3499991852
 10
5.6305643105
 20
2.3505725642
 10
5.6347770368
 20
2.3508779283
  0
LINE
  5
214
100
AcDbEntity
  8
0
100
AcDbLine
 62
7
  6
CONTINUOUS
 10
5.2226105574
 20
2.3141167704
 11
4.8001105574
 21
2.3141167704
  0
LINE
  5
215
100
AcDbEntity
  8
0
100
AcDbLine
 62
7
  6
CONTINUOUS
 10
5.2476105574
 20
2.3141167704
 11
5.4561976942
 21
2.3141167704
  0
LINE
  5
216
100
AcDbEntity
  8
0
100
AcDbLine
 62
7
  6
CONTINUOUS
 10
5.9914380635
 20
2.0593794367
 11
5.9791224348
 21
2.0608916058
  0
LINE
  5
217
100
AcDbEntity
  8
0
100
AcDbLine
 62
7
  6
CONTINUOUS
 10
4.8815436901
 20
0.8502407925
 11
4.7592414979
 21
1.0075316889
  0
LINE
  5
218
100
AcDbEntity
  8
0
100
AcDbLine
 62
7
  6
CONTINUOUS
 10
5.9446105574
 20
2.6187632532
 11
5.7896105574
 21
2.6187632532
  0
LINE
  5
219
100
AcDbEntity
  8
0
100
AcDbLine
 62
7
  6
CONTINUOUS
 10
3.9856095248
 20
6.1531065639
 11
3.9468038566
 21
6.0869263363
  0
LINE
  5
21A
100
AcDbEntity
  8
0
100
AcDbLine
 62
7
  6
CONTINUOUS
 10
5.7896105574
 20
2.8138583535
 11
5.7914485795
 21
2.8138592321
  0
LINE
  5
21B
100
AcDbEntity
  8
0
100
AcDbLine
 62
7
  6
CONTINUOUS
 10
5.7896105574
 20
2.7143740354
 11
5.7914485795
 21
2.7143743086
  0
LINE
  5
21C
100
AcDbEntity
  8
0
100
AcDbLine
 62
7
  6
CONTINUOUS
 10
3.6623605574
 20
0.7041167704
 11
3.6623605574
 21
0.831825874
  0
LINE
  5
21D
100
AcDbEntity
  8
0
100
AcDbLine
 62
7
  6
CONTINUOUS
 10
3.8001105574
 20
1.0191167704
 11
3.8001105574
 21
3.8041167704
  0
LINE
  5
21E
100
AcDbEntity
  8
0
100
AcDbLine
 62
7
  6
CONTINUOUS
 10
3.8001105574
 20
3.8191167704
 11
3.8001105574
 21
3.9366665749
  0
LINE
  5
21F
100
AcDbEntity
  8
0
100
AcDbLine
 62
7
  6
CONTINUOUS
 10
4.8001105574
 20
3.2141167704
 11
5.2226105574
 21
3.2141167704
  0
LINE
  5
220
100
AcDbEntity
  8
0
100
AcDbLine
 62
7
  6
CONTINUOUS
 10
5.2476105574
 20
3.2141167704
 11
5.6108605574
 21
3.2141167704
  0
LINE
  5
221
100
AcDbEntity
  8
0
100
AcDbLine
 62
7
  6
CONTINUOUS
 10
3.9376105574
 20
5.0855924427
 11
3.9376105574
 21
6.0533612368
  0
LINE
  5
222
100
AcDbEntity
  8
0
100
AcDbLine
 62
7
  6
CONTINUOUS
 10
3.9902380257
 20
7.8455047571
 11
3.9902380257
 21
6.1591224726
  0
LINE
  5
223
100
AcDbEntity
  8
0
100
AcDbLine
 62
7
  6
CONTINUOUS
 10
3.9902380257
 20
5.0149344548
 11
3.9902380257
 21
4.1016167704
  0
LINE
  5
224
100
AcDbEntity
  8
0
100
AcDbLine
 62
7
  6
CONTINUOUS
 10
3.9941105574
 20
6.1626263957
 11
3.9941105574
 21
6.1662741666
  0
LINE
  5
225
100
AcDbEntity
  8
0
100
AcDbLine
 62
7
  6
CONTINUOUS
 10
4.1604113092
 20
5.5999372046
 11
4.1604113092
 21
5.6147646129
  0
LINE
  5
226
100
AcDbEntity
  8
0
100
AcDbLine
 62
7
  6
CONTINUOUS
 10
4.1671105574
 20
5.5992259159
 11
4.1671105574
 21
5.6140533242
  0
LINE
  5
227
100
AcDbEntity
  8
0
100
AcDbLine
 62
7
  6
CONTINUOUS
 10
4.2318392422
 20
5.0069141674
 11
4.2280934065
 21
5.0033368073
  0
LINE
  5
228
100
AcDbEntity
  8
0
100
AcDbLine
 62
7
  6
CONTINUOUS
 10
4.2257619243
 20
5.0011101876
 11
4.2226357585
 21
4.9981246267
  0
LINE
  5
229
100
AcDbEntity
  8
0
100
AcDbLine
 62
7
  6
CONTINUOUS
 10
4.2801112835
 20
5.0530150884
 11
4.2838571192
 21
5.0565924485
  0
LINE
  5
22A
100
AcDbEntity
  8
0
100
AcDbLine
 62
7
  6
CONTINUOUS
 10
4.2861886014
 20
5.0588190682
 11
4.2893147672
 21
5.0618046291
  0
LINE
  5
22B
100
AcDbEntity
  8
0
100
AcDbLine
 62
7
  6
CONTINUOUS
 10
4.236805094
 20
4.9905646895
 11
4.2446316025
 21
4.9980391869
  0
LINE
  5
22C
100
AcDbEntity
  8
0
100
AcDbLine
 62
7
  6
CONTINUOUS
 10
4.293243408
 20
5.0444645906
 11
4.3010699164
 21
5.051939088
  0
LINE
  5
22D
100
AcDbEntity
  8
0
100
AcDbLine
 62
7
  6
CONTINUOUS
 10
4.2491511983
 20
4.9902689095
 11
4.2569777067
 21
4.9977434069
  0
LINE
  5
22E
100
AcDbEntity
  8
0
100
AcDbLine
 62
7
  6
CONTINUOUS
 10
4.3055895122
 20
5.0441688105
 11
4.3134160207
 21
5.0516433079
  0
LINE
  5
22F
100
AcDbEntity
  8
0
100
AcDbLine
 62
7
  6
CONTINUOUS
 10
4.2701098312
 20
5.0059973051
 11
4.2663639955
 21
5.002419945
  0
LINE
  5
230
100
AcDbEntity
  8
0
100
AcDbLine
 62
7
  6
CONTINUOUS
 10
4.2640325133
 20
5.0001933253
 11
4.2609063475
 21
4.9972077644
  0
LINE
  5
231
100
AcDbEntity
  8
0
100
AcDbLine
 62
7
  6
CONTINUOUS
 10
4.3183818725
 20
5.0520982261
 11
4.3221277082
 21
5.0556755862
  0
LINE
  5
232
100
AcDbEntity
  8
0
100
AcDbLine
 62
7
  6
CONTINUOUS
 10
4.3244591904
 20
5.0579022059
 11
4.3275853562
 21
5.0608877668
  0
LINE
  5
233
100
AcDbEntity
  8
0
100
AcDbLine
 62
7
  6
CONTINUOUS
 10
4.1878028987
 20
5.0100424949
 11
4.1769320601
 21
5.0068153118
  0
LINE
  5
234
100
AcDbEntity
  8
0
100
AcDbLine
 62
7
  6
CONTINUOUS
 10
4.1638910303
 20
5.0029438724
 11
4.1610933488
 21
5.0021133357
  0
LINE
  5
235
100
AcDbEntity
  8
0
100
AcDbLine
 62
7
  6
CONTINUOUS
 10
4.327893819
 20
5.0516307366
 11
4.3387646575
 21
5.0548579198
  0
LINE
  5
236
100
AcDbEntity
  8
0
100
AcDbLine
 62
7
  6
CONTINUOUS
 10
4.3455308825
 20
5.0568665824
 11
4.3546033688
 21
5.0595598958
  0
LINE
  5
237
100
AcDbEntity
  8
0
100
AcDbLine
 62
7
  6
CONTINUOUS
 10
4.1762898773
 20
4.99384987
 11
4.1990032894
 21
5.0005927115
  0
LINE
  5
238
100
AcDbEntity
  8
0
100
AcDbLine
 62
7
  6
CONTINUOUS
 10
4.3400802437
 20
5.0424736732
 11
4.3627936559
 21
5.0492165147
  0
LINE
  5
239
100
AcDbEntity
  8
0
100
AcDbLine
 62
7
  6
CONTINUOUS
 10
4.1874274588
 20
4.9929914828
 11
4.210140871
 21
4.9997343243
  0
LINE
  5
23A
100
AcDbEntity
  8
0
100
AcDbLine
 62
7
  6
CONTINUOUS
 10
4.3512178253
 20
5.041615286
 11
4.3739312374
 21
5.0483581275
  0
LINE
  5
23B
100
AcDbEntity
  8
0
100
AcDbLine
 62
7
  6
CONTINUOUS
 10
5.6342171702
 20
3.2057985903
 11
5.6300496888
 21
3.2073474834
  0
LINE
  5
23C
100
AcDbEntity
  8
0
100
AcDbLine
 62
7
  6
CONTINUOUS
 10
5.6300496888
 20
3.2073474834
 11
5.6256380624
 21
3.2090251727
  0
LINE
  5
23D
100
AcDbEntity
  8
0
100
AcDbLine
 62
7
  6
CONTINUOUS
 10
5.6256380624
 20
3.2090251727
 11
5.6219698956
 21
3.2104496275
  0
LINE
  5
23E
100
AcDbEntity
  8
0
100
AcDbLine
 62
7
  6
CONTINUOUS
 10
5.6219698956
 20
3.2104496275
 11
5.6190469188
 21
3.2116036784
  0
LINE
  5
23F
100
AcDbEntity
  8
0
100
AcDbLine
 62
7
  6
CONTINUOUS
 10
5.6190469188
 20
3.2116036784
 11
5.6160536065
 21
3.2128027638
  0
LINE
  5
240
100
AcDbEntity
  8
0
100
AcDbLine
 62
7
  6
CONTINUOUS
 10
5.6160536065
 20
3.2128027638
 11
5.6146247222
 21
3.2133812759
  0
LINE
  5
241
100
AcDbEntity
  8
0
100
AcDbLine
 62
7
  6
CONTINUOUS
 10
5.6140168884
 20
3.2128150617
 11
5.6108605573
 21
3.2141167704
  0
LINE
  5
242
100
AcDbEntity
  8
0
100
AcDbLine
 62
7
  6
CONTINUOUS
 10
5.6109463877
 20
3.2140805459
 11
5.6108605574
 21
3.2141167704
  0
LINE
  5
243
100
AcDbEntity
  8
0
100
AcDbLine
 62
7
  6
CONTINUOUS
 10
5.7765607958
 20
2.4991334376
 11
5.7772506983
 21
2.4985037625
  0
LINE
  5
244
100
AcDbEntity
  8
0
100
AcDbLine
 62
7
  6
CONTINUOUS
 10
5.6735568203
 20
2.3912856562
 11
5.6739433077
 21
2.3909004443
  0
LINE
  5
245
100
AcDbEntity
  8
0
100
AcDbLine
 62
7
  6
CONTINUOUS
 10
4.1766105574
 20
5.5941591609
 11
4.1766105574
 21
5.6115502766
  0
LINE
  5
246
100
AcDbEntity
  8
0
100
AcDbLine
 62
7
  6
CONTINUOUS
 10
4.3736105574
 20
5.5941591609
 11
4.3736105574
 21
5.6115502766
  0
LINE
  5
247
100
AcDbEntity
  8
0
100
AcDbLine
 62
7
  6
CONTINUOUS
 10
4.3831069104
 20
5.6149309007
 11
4.3831105574
 21
5.5992259159
  0
LINE
  5
248
100
AcDbEntity
  8
0
100
AcDbLine
 62
7
  6
CONTINUOUS
 10
4.3898098055
 20
5.6147646129
 11
4.3898098055
 21
5.5999372046
  0
LWPOLYLINE
  5
249
100
AcDbEntity
  8
0
100
AcDbPolyline
 62
7
  6
CONTINUOUS
 90
5
 70
0
 10
4.3831105574
 20
5.5992259138
 10
4.3830923273
 20
5.5972750339
 10
4.382940423
 20
5.5932606155
 10
4.3826325812
 20
5.5892352012
 10
4.3821662525
 20
5.5852052837
  0
LWPOLYLINE
  5
24A
100
AcDbEntity
  8
0
100
AcDbPolyline
 62
7
  6
CONTINUOUS
 90
74
 70
0
 10
4.3821662525
 20
5.5852052837
 10
4.3815391443
 20
5.5811802588
 10
4.380749858
 20
5.5771720887
 10
4.3797975827
 20
5.5731875351
 10
4.3786819769
 20
5.5692330105
 10
4.3774040546
 20
5.5653188213
 10
4.3759638652
 20
5.561451127
 10
4.3743620272
 20
5.5576367282
 10
4.3726019431
 20
5.5538861197
 10
4.3706854818
 20
5.5502049994
 10
4.3686144298
 20
5.5465989123
 10
4.3663932967
 20
5.5430775698
 10
4.3640247259
 20
5.5396459365
 10
4.3615115363
 20
5.5363084226
 10
4.3588596154
 20
5.5330730281
 10
4.3560721628
 20
5.529943767
 10
4.3531527576
 20
5.5269250287
 10
4.3501090726
 20
5.5240243668
 10
4.3469450789
 20
5.5212448658
 10
4.3436654124
 20
5.5185902289
 10
4.3402798898
 20
5.5160677825
 10
4.3367934828
 20
5.5136802197
 10
4.3332117462
 20
5.511430102
 10
4.3295463595
 20
5.5093232575
 10
4.3258038147
 20
5.5073617074
 10
4.3219895077
 20
5.505546854
 10
4.3181145946
 20
5.5038821356
 10
4.3141888849
 20
5.5023691726
 10
4.3102166306
 20
5.5010072879
 10
4.3062011539
 20
5.4997959749
 10
4.3021498971
 20
5.498736169
 10
4.2980690034
 20
5.4978277066
 10
4.2939593955
 20
5.4970693056
 10
4.2898280338
 20
5.4964613677
 10
4.2856817738
 20
5.4960042582
 10
4.2815210344
 20
5.4956977458
 10
4.2773528596
 20
5.4955417728
 10
4.2731842734
 20
5.4955360394
 10
4.26901577
 20
5.4956805737
 10
4.2648543631
 20
5.4959757473
 10
4.2607070511
 20
5.4964215026
 10
4.2565742654
 20
5.497017989
 10
4.2524628984
 20
5.4977648939
 10
4.2483799465
 20
5.498661869
 10
4.2443263658
 20
5.4997102169
 10
4.2403082719
 20
5.5009099886
 10
4.2363330545
 20
5.5022602364
 10
4.2324039071
 20
5.5037615272
 10
4.2285251536
 20
5.5054145419
 10
4.2247066252
 20
5.507217686
 10
4.2209592497
 20
5.5091676141
 10
4.217288441
 20
5.511262931
 10
4.2137007869
 20
5.5135015889
 10
4.2102079346
 20
5.5158778418
 10
4.2068154562
 20
5.5183891148
 10
4.2035283087
 20
5.521032727
 10
4.200356265
 20
5.5238014969
 10
4.1973040386
 20
5.5266917507
 10
4.1943756047
 20
5.5297004283
 10
4.1915784009
 20
5.5328200593
 10
4.1889160919
 20
5.5360463812
 10
4.1863919729
 20
5.5393755773
 10
4.1840118472
 20
5.5427999147
 10
4.1817784955
 20
5.5463145965
 10
4.1796946398
 20
5.5499148211
 10
4.177764888
 20
5.5535918731
 10
4.1759911718
 20
5.5573402362
 10
4.1743753247
 20
5.5611542009
 10
4.1729205689
 20
5.5650238507
 10
4.1716277701
 20
5.5689427587
 10
4.1704975631
 20
5.5729045852
 10
4.1695313172
 20
5.5768986473
 10
4.1687285122
 20
5.5809179253
 10
4.1680884735
 20
5.5849555136
  0
LINE
  5
24B
100
AcDbEntity
  8
0
100
AcDbLine
 62
7
  6
CONTINUOUS
 10
4.6086885617
 20
5.0714793782
 11
4.5872726319
 21
5.034956077
  0
LINE
  5
24C
100
AcDbEntity
  8
0
100
AcDbLine
 62
7
  6
CONTINUOUS
 10
3.807255334
 20
3.9559147953
 11
3.918283604
 21
4.0848649907
  0
LINE
  5
24D
100
AcDbEntity
  8
0
100
AcDbLine
 62
7
  6
CONTINUOUS
 10
4.4865902492
 20
5.0245529189
 11
4.4781903549
 21
5.0163474632
  0
LINE
  5
24E
100
AcDbEntity
  8
0
100
AcDbLine
 62
7
  6
CONTINUOUS
 10
4.7501105574
 20
3.8041167704
 11
3.8001105574
 21
3.8041167704
  0
LINE
  5
24F
100
AcDbEntity
  8
0
100
AcDbLine
 62
7
  6
CONTINUOUS
 10
4.7501105574
 20
3.8191167704
 11
3.8001105574
 21
3.8191167704
  0
LINE
  5
250
100
AcDbEntity
  8
0
100
AcDbLine
 62
7
  6
CONTINUOUS
 10
5.782725073
 20
2.3047759008
 11
5.9686307076
 21
2.0668275394
  0
LINE
  5
251
100
AcDbEntity
  8
0
100
AcDbLine
 62
7
  6
CONTINUOUS
 10
3.941532553
 20
5.0714793782
 11
3.9629484828
 21
5.034956077
  0
LWPOLYLINE
  5
252
100
AcDbEntity
  8
0
100
AcDbPolyline
 62
7
  6
CONTINUOUS
 90
5
 70
0
 10
4.1680884735
 20
5.5849555136
 10
4.1676104624
 20
5.5890002078
 10
4.1672926282
 20
5.5930436332
 10
4.1671324481
 20
5.5970799041
 10
4.1671105574
 20
5.5992259209
  0
LWPOLYLINE
  5
253
100
AcDbEntity
  8
0
100
AcDbPolyline
 62
7
  6
CONTINUOUS
 90
52
 70
0
 10
4.559983089
 20
7.8455047571
 10
4.5598492547
 20
7.8543169524
 10
4.5594477132
 20
7.8631212212
 10
4.558778407
 20
7.8719090006
 10
4.5578412907
 20
7.8806716228
 10
4.5566363006
 20
7.8894006199
 10
4.555163323
 20
7.8980877196
 10
4.5534222366
 20
7.9067245027
 10
4.5514129813
 20
7.9153022144
 10
4.5491355254
 20
7.9238120708
 10
4.546589645
 20
7.9322459665
 10
4.5437758984
 20
7.9405949658
 10
4.5406985983
 20
7.9488500645
 10
4.5373631152
 20
7.957003786
 10
4.5337743693
 20
7.9650498101
 10
4.5299374326
 20
7.972981342
 10
4.5258574556
 20
7.9807914103
 10
4.5215395101
 20
7.9884731986
 10
4.5169885057
 20
7.9960201303
 10
4.5122096861
 20
8.0034250468
 10
4.5072079671
 20
8.0106813143
 10
4.5019876375
 20
8.0177830639
 10
4.4965535032
 20
8.024723537
 10
4.4909106978
 20
8.0314955433
 10
4.4850638743
 20
8.0380924654
 10
4.4790178552
 20
8.0445074255
 10
4.4727777159
 20
8.0507332678
 10
4.466348466
 20
8.0567629246
 10
4.4597348572
 20
8.0625895572
 10
4.452942067
 20
8.0682059381
 10
4.4459758088
 20
8.0736044794
 10
4.438841009
 20
8.0787784454
 10
4.4315445026
 20
8.0837229635
 10
4.4240957502
 20
8.0884344521
 10
4.4165035387
 20
8.0929100482
 10
4.408775562
 20
8.097147554
 10
4.4009197548
 20
8.1011445647
 10
4.3929443714
 20
8.1048984875
 10
4.3848575499
 20
8.1084067859
 10
4.3766670104
 20
8.1116670736
 10
4.3683812382
 20
8.1146766354
 10
4.3600080828
 20
8.1174329979
 10
4.3515542454
 20
8.1199339658
 10
4.3430275302
 20
8.1221768821
 10
4.3344363771
 20
8.124158912
 10
4.3257883946
 20
8.125877412
 10
4.3170916162
 20
8.1273296073
 10
4.3083542787
 20
8.1285126844
 10
4.2995842955
 20
8.1294238686
 10
4.2907897435
 20
8.1300603439
 10
4.281978867
 20
8.1304192772
 10
4.2751105574
 20
8.1305047571
  0
LINE
  5
254
100
AcDbEntity
  8
0
100
AcDbLine
 62
7
  6
CONTINUOUS
 10
4.5561105574
 20
6.1626267964
 11
4.5561105574
 21
6.1662741666
  0
LINE
  5
255
100
AcDbEntity
  8
0
100
AcDbLine
 62
7
  6
CONTINUOUS
 10
4.559983089
 20
4.1016167704
 11
4.559983089
 21
5.0149355608
  0
LINE
  5
256
100
AcDbEntity
  8
0
100
AcDbLine
 62
7
  6
CONTINUOUS
 10
4.559983089
 20
6.1591225455
 11
4.559983089
 21
7.8455047571
  0
LINE
  5
257
100
AcDbEntity
  8
0
100
AcDbLine
 62
7
  6
CONTINUOUS
 10
4.6126105574
 20
5.0855924427
 11
4.6126105574
 21
6.0533612368
  0
LINE
  5
258
100
AcDbEntity
  8
0
100
AcDbLine
 62
7
  6
CONTINUOUS
 10
3.8001105574
 20
3.9366665749
 11
4.7501105574
 21
3.9366665749
  0
LINE
  5
259
100
AcDbEntity
  8
0
100
AcDbLine
 62
7
  6
CONTINUOUS
 10
3.807255334
 20
3.9559147953
 11
4.7429657807
 21
3.9559147953
  0
LINE
  5
25A
100
AcDbEntity
  8
0
100
AcDbLine
 62
7
  6
CONTINUOUS
 10
3.918283604
 20
4.0848649907
 11
4.6319375107
 21
4.0848649907
  0
LINE
  5
25B
100
AcDbEntity
  8
0
100
AcDbLine
 62
7
  6
CONTINUOUS
 10
3.9406388274
 20
4.0951167704
 11
4.6095822873
 21
4.0951167704
  0
LINE
  5
25C
100
AcDbEntity
  8
0
100
AcDbLine
 62
7
  6
CONTINUOUS
 10
3.9902407628
 20
4.1016167704
 11
4.5599803519
 21
4.1016167704
  0
LINE
  5
25D
100
AcDbEntity
  8
0
100
AcDbLine
 62
7
  6
CONTINUOUS
 10
4.7429657807
 20
3.9559147953
 11
4.6319375107
 21
4.0848649907
  0
LINE
  5
25E
100
AcDbEntity
  8
0
100
AcDbLine
 62
7
  6
CONTINUOUS
 10
5.7774622841
 20
3.0302423737
 11
5.7652292988
 21
3.0446597749
  0
LINE
  5
25F
100
AcDbEntity
  8
0
100
AcDbLine
 62
7
  6
CONTINUOUS
 10
5.7652292988
 20
3.0446597749
 11
5.7522279743
 21
3.0602240576
  0
LINE
  5
260
100
AcDbEntity
  8
0
100
AcDbLine
 62
7
  6
CONTINUOUS
 10
5.9954879765
 20
2.4710044991
 11
6.181393611
 21
2.2330561378
  0
LINE
  5
261
100
AcDbEntity
  8
0
100
AcDbLine
 62
7
  6
CONTINUOUS
 10
4.7501105574
 20
3.8041167704
 11
4.7501105574
 21
3.2641167704
  0
LINE
  5
262
100
AcDbEntity
  8
0
100
AcDbLine
 62
7
  6
CONTINUOUS
 10
4.7501105574
 20
2.2641167704
 11
4.7501105574
 21
1.0191167704
  0
LINE
  5
263
100
AcDbEntity
  8
0
100
AcDbLine
 62
7
  6
CONTINUOUS
 10
4.7501105574
 20
3.8191167704
 11
4.7501105574
 21
3.9366665749
  0
LINE
  5
264
100
AcDbEntity
  8
0
100
AcDbLine
 62
7
  6
CONTINUOUS
 10
4.8878605574
 20
0.7041167704
 11
4.8878605574
 21
0.831825874
  0
LINE
  5
265
100
AcDbEntity
  8
0
100
AcDbLine
 62
7
  6
CONTINUOUS
 10
4.2801112835
 20
5.0059973051
 11
4.2838571192
 21
5.002419945
  0
LINE
  5
266
100
AcDbEntity
  8
0
100
AcDbLine
 62
7
  6
CONTINUOUS
 10
4.2861886014
 20
5.0001933253
 11
4.2893147672
 21
4.9972077644
  0
LINE
  5
267
100
AcDbEntity
  8
0
100
AcDbLine
 62
7
  6
CONTINUOUS
 10
4.2318392422
 20
5.0520982261
 11
4.2280934065
 21
5.0556755862
  0
LINE
  5
268
100
AcDbEntity
  8
0
100
AcDbLine
 62
7
  6
CONTINUOUS
 10
4.2257619243
 20
5.0579022059
 11
4.2226357585
 21
5.0608877668
  0
LINE
  5
269
100
AcDbEntity
  8
0
100
AcDbLine
 62
7
  6
CONTINUOUS
 10
4.3010699164
 20
4.9902689095
 11
4.293243408
 21
4.9977434069
  0
LINE
  5
26A
100
AcDbEntity
  8
0
100
AcDbLine
 62
7
  6
CONTINUOUS
 10
4.2446316025
 20
5.0441688105
 11
4.236805094
 21
5.0516433079
  0
LINE
  5
26B
100
AcDbEntity
  8
0
100
AcDbLine
 62
7
  6
CONTINUOUS
 10
4.3134160207
 20
4.9905646895
 11
4.3055895122
 21
4.9980391869
  0
LINE
  5
26C
100
AcDbEntity
  8
0
100
AcDbLine
 62
7
  6
CONTINUOUS
 10
4.2569777067
 20
5.0444645906
 11
4.2491511983
 21
5.051939088
  0
LINE
  5
26D
100
AcDbEntity
  8
0
100
AcDbLine
 62
7
  6
CONTINUOUS
 10
4.3244591904
 20
5.0011101876
 11
4.3275853562
 21
4.9981246267
  0
LINE
  5
26E
100
AcDbEntity
  8
0
100
AcDbLine
 62
7
  6
CONTINUOUS
 10
4.3183818725
 20
5.0069141674
 11
4.3221277082
 21
5.0033368073
  0
LINE
  5
26F
100
AcDbEntity
  8
0
100
AcDbLine
 62
7
  6
CONTINUOUS
 10
4.2701098312
 20
5.0530150884
 11
4.2663639955
 21
5.0565924485
  0
LINE
  5
270
100
AcDbEntity
  8
0
100
AcDbLine
 62
7
  6
CONTINUOUS
 10
4.2640325133
 20
5.0588190682
 11
4.2609063475
 21
5.0618046291
  0
LINE
  5
271
100
AcDbEntity
  8
0
100
AcDbLine
 62
7
  6
CONTINUOUS
 10
4.0636308655
 20
5.0245529189
 11
4.0720307598
 21
5.0163474632
  0
LINE
  5
272
100
AcDbEntity
  8
0
100
AcDbLine
 62
7
  6
CONTINUOUS
 10
5.7522279743
 20
3.0602240576
 11
5.7397336832
 21
3.0753803173
  0
LINE
  5
273
100
AcDbEntity
  8
0
100
AcDbLine
 62
7
  6
CONTINUOUS
 10
5.7397336832
 20
3.0753803173
 11
5.7277740925
 21
3.0900446043
  0
LINE
  5
274
100
AcDbEntity
  8
0
100
AcDbLine
 62
7
  6
CONTINUOUS
 10
5.7277740925
 20
3.0900446043
 11
5.716380233
 21
3.1041389075
  0
LINE
  5
275
100
AcDbEntity
  8
0
100
AcDbLine
 62
7
  6
CONTINUOUS
 10
5.716380233
 20
3.1041389075
 11
5.7004056911
 21
3.124074639
  0
LINE
  5
276
100
AcDbEntity
  8
0
100
AcDbLine
 62
7
  6
CONTINUOUS
 10
5.7004056911
 20
3.124074639
 11
5.6858658719
 21
3.1423724955
  0
LINE
  5
277
100
AcDbEntity
  8
0
100
AcDbLine
 62
7
  6
CONTINUOUS
 10
5.6858658719
 20
3.1423724955
 11
5.6686328147
 21
3.1642192406
  0
LINE
  5
278
100
AcDbEntity
  8
0
100
AcDbLine
 62
7
  6
CONTINUOUS
 10
5.6688609132
 20
3.1639290622
 11
5.6513835521
 21
3.1862338789
  0
LINE
  5
279
100
AcDbEntity
  8
0
100
AcDbLine
 62
7
  6
CONTINUOUS
 10
5.6513835521
 20
3.1862338789
 11
5.6386601069
 21
3.2025535721
  0
LINE
  5
27A
100
AcDbEntity
  8
0
100
AcDbLine
 62
7
  6
CONTINUOUS
 10
5.9446105574
 20
4.4645929068
 11
5.6746105574
 21
4.4645929068
  0
LINE
  5
27B
100
AcDbEntity
  8
0
100
AcDbLine
 62
7
  6
CONTINUOUS
 10
5.9399974892
 20
4.4757298386
 11
5.6792236255
 21
4.4757298386
  0
LINE
  5
27C
100
AcDbEntity
  8
0
100
AcDbLine
 62
7
  6
CONTINUOUS
 10
5.6879974892
 20
4.4845037022
 11
5.9312236255
 21
4.4845037022
  0
LINE
  5
27D
100
AcDbEntity
  8
0
100
AcDbLine
 62
7
  6
CONTINUOUS
 10
5.699134421
 20
4.4891167704
 11
5.9200866937
 21
4.4891167704
  0
LINE
  5
27E
100
AcDbEntity
  8
0
100
AcDbLine
 62
7
  6
CONTINUOUS
 10
5.2226105574
 20
3.2141167704
 11
5.2226105574
 21
2.3141167704
  0
LINE
  5
27F
100
AcDbEntity
  8
0
100
AcDbLine
 62
7
  6
CONTINUOUS
 10
5.2376105574
 20
3.2041167704
 11
5.2376105574
 21
2.3241167704
  0
LINE
  5
280
100
AcDbEntity
  8
0
100
AcDbLine
 62
7
  6
CONTINUOUS
 10
5.2476105574
 20
3.2141167704
 11
5.2476105574
 21
2.3141167704
  0
LINE
  5
281
100
AcDbEntity
  8
0
100
AcDbLine
 62
7
  6
CONTINUOUS
 10
5.6879974892
 20
4.4845037022
 11
5.6792236255
 21
4.4757298386
  0
LINE
  5
282
100
AcDbEntity
  8
0
100
AcDbLine
 62
7
  6
CONTINUOUS
 10
4.4552902543
 20
5.0061563016
 11
4.410712673
 21
5.0095919509
  0
LINE
  5
283
100
AcDbEntity
  8
0
100
AcDbLine
 62
7
  6
CONTINUOUS
 10
4.1338335605
 20
5.0309313668
 11
4.0892559792
 21
5.0343670161
  0
LINE
  5
284
100
AcDbEntity
  8
0
100
AcDbLine
 62
7
  6
CONTINUOUS
 10
4.4609651355
 20
5.0078409813
 11
4.4163875543
 21
5.0112766307
  0
LINE
  5
285
100
AcDbEntity
  8
0
100
AcDbLine
 62
7
  6
CONTINUOUS
 10
4.1395084417
 20
5.0326160465
 11
4.0949308604
 21
5.0360516958
  0
LINE
  5
286
100
AcDbEntity
  8
0
100
AcDbLine
 62
7
  6
CONTINUOUS
 10
4.4159343627
 20
4.998465905
 11
4.3805573939
 21
5.0038170543
  0
LINE
  5
287
100
AcDbEntity
  8
0
100
AcDbLine
 62
7
  6
CONTINUOUS
 10
4.1608248861
 20
5.0370539737
 11
4.1254479172
 21
5.042405123
  0
LINE
  5
288
100
AcDbEntity
  8
0
100
AcDbLine
 62
7
  6
CONTINUOUS
 10
4.4247731975
 20
4.9998028744
 11
4.3893962287
 21
5.0051540237
  0
LINE
  5
289
100
AcDbEntity
  8
0
100
AcDbLine
 62
7
  6
CONTINUOUS
 10
4.1696637208
 20
5.0383909431
 11
4.134286752
 21
5.0437420924
  0
LINE
  5
28A
100
AcDbEntity
  8
0
100
AcDbLine
 62
7
  6
CONTINUOUS
 10
4.1757016635
 20
5.0486872199
 11
4.1627798257
 21
5.0506417877
  0
LINE
  5
28B
100
AcDbEntity
  8
0
100
AcDbLine
 62
7
  6
CONTINUOUS
 10
4.1522411833
 20
5.0522358714
 11
4.1381104546
 21
5.054373297
  0
LINE
  5
28C
100
AcDbEntity
  8
0
100
AcDbLine
 62
7
  6
CONTINUOUS
 10
4.3979082776
 20
5.0150760652
 11
4.4064984496
 21
5.0137767088
  0
LINE
  5
28D
100
AcDbEntity
  8
0
100
AcDbLine
 62
7
  6
CONTINUOUS
 10
4.3627936559
 20
4.9929914828
 11
4.3400802437
 21
4.9997343243
  0
LINE
  5
28E
100
AcDbEntity
  8
0
100
AcDbLine
 62
7
  6
CONTINUOUS
 10
4.1990032894
 20
5.041615286
 11
4.1762898773
 21
5.0483581275
  0
LINE
  5
28F
100
AcDbEntity
  8
0
100
AcDbLine
 62
7
  6
CONTINUOUS
 10
4.3739312374
 20
4.99384987
 11
4.3512178253
 21
5.0005927115
  0
LINE
  5
290
100
AcDbEntity
  8
0
100
AcDbLine
 62
7
  6
CONTINUOUS
 10
4.210140871
 20
5.0424736732
 11
4.1874274588
 21
5.0492165147
  0
LINE
  5
291
100
AcDbEntity
  8
0
100
AcDbLine
 62
7
  6
CONTINUOUS
 10
4.2223272957
 20
5.0516307366
 11
4.2114564572
 21
5.0548579198
  0
LINE
  5
292
100
AcDbEntity
  8
0
100
AcDbLine
 62
7
  6
CONTINUOUS
 10
4.2046902322
 20
5.0568665824
 11
4.1956177459
 21
5.0595598958
  0
LINE
  5
293
100
AcDbEntity
  8
0
100
AcDbLine
 62
7
  6
CONTINUOUS
 10
4.362418216
 20
5.0100424949
 11
4.3732890546
 21
5.0068153118
  0
LINE
  5
294
100
AcDbEntity
  8
0
100
AcDbLine
 62
7
  6
CONTINUOUS
 10
4.3863300844
 20
5.0029438724
 11
4.3891277659
 21
5.0021133357
  0
LINE
  5
295
100
AcDbEntity
  8
0
100
AcDbLine
 62
7
  6
CONTINUOUS
 10
5.6307680889
 20
2.3514460483
 11
5.6307680889
 21
3.2062371331
  0
LINE
  5
296
100
AcDbEntity
  8
0
100
AcDbLine
 62
7
  6
CONTINUOUS
 10
5.6374643518
 20
3.2037091676
 11
5.6374643518
 21
2.3536309615
  0
LINE
  5
297
100
AcDbEntity
  8
0
100
AcDbLine
 62
7
  6
CONTINUOUS
 10
5.6746105574
 20
4.4645929068
 11
5.6746105574
 21
3.1566242871
  0
LINE
  5
298
100
AcDbEntity
  8
0
100
AcDbLine
 62
7
  6
CONTINUOUS
 10
4.134286752
 20
4.998465905
 11
4.1696637208
 21
5.0038170543
  0
LINE
  5
299
100
AcDbEntity
  8
0
100
AcDbLine
 62
7
  6
CONTINUOUS
 10
4.3893962287
 20
5.0370539737
 11
4.4247731975
 21
5.042405123
  0
LINE
  5
29A
100
AcDbEntity
  8
0
100
AcDbLine
 62
7
  6
CONTINUOUS
 10
4.1254479172
 20
4.9998028744
 11
4.1608248861
 21
5.0051540237
  0
LINE
  5
29B
100
AcDbEntity
  8
0
100
AcDbLine
 62
7
  6
CONTINUOUS
 10
4.3805573939
 20
5.0383909431
 11
4.4159343627
 21
5.0437420924
  0
LINE
  5
29C
100
AcDbEntity
  8
0
100
AcDbLine
 62
7
  6
CONTINUOUS
 10
4.1523128371
 20
5.0150760652
 11
4.1437226651
 21
5.0137767088
  0
LINE
  5
29D
100
AcDbEntity
  8
0
100
AcDbLine
 62
7
  6
CONTINUOUS
 10
4.3745194512
 20
5.0486872199
 11
4.387441289
 21
5.0506417877
  0
LINE
  5
29E
100
AcDbEntity
  8
0
100
AcDbLine
 62
7
  6
CONTINUOUS
 10
4.3979799314
 20
5.0522358714
 11
4.4121106601
 21
5.054373297
  0
LINE
  5
29F
100
AcDbEntity
  8
0
100
AcDbLine
 62
7
  6
CONTINUOUS
 10
4.0949308604
 20
5.0061563016
 11
4.1395084417
 21
5.0095919509
  0
LINE
  5
2A0
100
AcDbEntity
  8
0
100
AcDbLine
 62
7
  6
CONTINUOUS
 10
4.4163875543
 20
5.0309313668
 11
4.4609651355
 21
5.0343670161
  0
LINE
  5
2A1
100
AcDbEntity
  8
0
100
AcDbLine
 62
7
  6
CONTINUOUS
 10
4.0892559792
 20
5.0078409813
 11
4.1338335605
 21
5.0112766307
  0
LINE
  5
2A2
100
AcDbEntity
  8
0
100
AcDbLine
 62
7
  6
CONTINUOUS
 10
4.410712673
 20
5.0326160465
 11
4.4552902543
 21
5.0360516958
  0
LINE
  5
2A3
100
AcDbEntity
  8
0
100
AcDbLine
 62
7
  6
CONTINUOUS
 10
4.1288430719
 20
5.0215221573
 11
4.124800194
 21
5.0212105677
  0
LINE
  5
2A4
100
AcDbEntity
  8
0
100
AcDbLine
 62
7
  6
CONTINUOUS
 10
4.43840167
 20
5.0453802215
 11
4.4562074269
 21
5.0467525332
  0
LINE
  5
2A5
100
AcDbEntity
  8
0
100
AcDbLine
 62
7
  6
CONTINUOUS
 10
4.0732122129
 20
5.0153098829
 11
4.1226268425
 21
5.016493727
  0
LINE
  5
2A6
100
AcDbEntity
  8
0
100
AcDbLine
 62
7
  6
CONTINUOUS
 10
4.4295497031
 20
5.0238467886
 11
4.4789643326
 21
5.0250306327
  0
LINE
  5
2A7
100
AcDbEntity
  8
0
100
AcDbLine
 62
7
  6
CONTINUOUS
 10
4.0712567821
 20
5.0171773648
 11
4.1206714116
 21
5.0183612089
  0
LINE
  5
2A8
100
AcDbEntity
  8
0
100
AcDbLine
 62
7
  6
CONTINUOUS
 10
4.4275942723
 20
5.0257142704
 11
4.4770089018
 21
5.0268981145
  0
LINE
  5
2A9
100
AcDbEntity
  8
0
100
AcDbLine
 62
7
  6
CONTINUOUS
 10
4.0675653929
 20
5.0275009912
 11
4.0615824786
 21
5.0273576563
  0
LINE
  5
2AA
100
AcDbEntity
  8
0
100
AcDbLine
 62
7
  6
CONTINUOUS
 10
4.4658251838
 20
5.0370422445
 11
4.4825771703
 21
5.0374435779
  0
LINE
  5
2AB
100
AcDbEntity
  8
0
100
AcDbLine
 62
7
  6
CONTINUOUS
 10
4.0712567821
 20
5.0250306327
 11
4.1206714116
 21
5.0238467886
  0
LINE
  5
2AC
100
AcDbEntity
  8
0
100
AcDbLine
 62
7
  6
CONTINUOUS
 10
4.4275942723
 20
5.016493727
 11
4.4770089018
 21
5.0153098829
  0
LINE
  5
2AD
100
AcDbEntity
  8
0
100
AcDbLine
 62
7
  6
CONTINUOUS
 10
4.0732122129
 20
5.0268981145
 11
4.1226268425
 21
5.0257142704
  0
LINE
  5
2AE
100
AcDbEntity
  8
0
100
AcDbLine
 62
7
  6
CONTINUOUS
 10
4.4295497031
 20
5.0183612089
 11
4.4789643326
 21
5.0171773648
  0
LINE
  5
2AF
100
AcDbEntity
  8
0
100
AcDbLine
 62
7
  6
CONTINUOUS
 10
4.0843959309
 20
5.0370422445
 11
4.0676439444
 21
5.0374435779
  0
LINE
  5
2B0
100
AcDbEntity
  8
0
100
AcDbLine
 62
7
  6
CONTINUOUS
 10
4.4826557219
 20
5.0275009912
 11
4.4886386361
 21
5.0273576563
  0
LINE
  5
2B1
100
AcDbEntity
  8
0
100
AcDbLine
 62
7
  6
CONTINUOUS
 10
4.1118194447
 20
5.0453802215
 11
4.0940136878
 21
5.0467525332
  0
LINE
  5
2B2
100
AcDbEntity
  8
0
100
AcDbLine
 62
7
  6
CONTINUOUS
 10
4.4213780428
 20
5.0215221573
 11
4.4254209207
 21
5.0212105677
  0
LINE
  5
2B3
100
AcDbEntity
  8
0
100
AcDbLine
 62
7
  6
CONTINUOUS
 10
5.9312236255
 20
4.4845037022
 11
5.9399974892
 21
4.4757298386
  0
LINE
  5
2B4
100
AcDbEntity
  8
0
100
AcDbLine
 62
7
  6
CONTINUOUS
 10
4.5646115899
 20
6.1531065639
 11
4.6034172581
 21
6.0869263363
  0
LWPOLYLINE
  5
2B5
100
AcDbEntity
  8
0
100
AcDbPolyline
 62
7
  6
CONTINUOUS
 90
17
 70
0
 10
5.7896085252
 20
2.9965657125
 10
5.7895346935
 20
2.9990217542
 10
5.7893564763
 20
3.0014502918
 10
5.7890762403
 20
3.0038472468
 10
5.7886964329
 20
3.006208253
 10
5.788219587
 20
3.008528668
 10
5.7876480625
 20
3.0108049996
 10
5.7869842752
 20
3.0130339371
 10
5.78623109
 20
3.0152112997
 10
5.7853915788
 20
3.0173329653
 10
5.7844686173
 20
3.0193956736
 10
5.7834651876
 20
3.0213962315
 10
5.7823847396
 20
3.0233311707
 10
5.7812306637
 20
3.0251975243
 10
5.7800061606
 20
3.0269929244
 10
5.778715385
 20
3.0287142416
 10
5.7774622286
 20
3.0302424384
  0
LINE
  5
2B6
100
AcDbEntity
  8
0
100
AcDbLine
 62
7
  6
CONTINUOUS
 10
5.7765607958
 20
3.0298698506
 11
5.7765607958
 21
2.4991334376
  0
LINE
  5
2B7
100
AcDbEntity
  8
0
100
AcDbLine
 62
7
  6
CONTINUOUS
 10
5.7896085252
 20
2.9965657125
 11
5.7896105574
 21
2.5323634879
  0
LINE
  5
2B8
100
AcDbEntity
  8
0
100
AcDbLine
 62
7
  6
CONTINUOUS
 10
5.7914485795
 20
2.7143743086
 11
5.7914485795
 21
2.8138592321
  0
LINE
  5
2B9
100
AcDbEntity
  8
0
100
AcDbLine
 62
7
  6
CONTINUOUS
 10
5.9446105574
 20
4.4645929068
 11
5.9446105574
 21
2.6187632532
  0
LINE
  5
2BA
100
AcDbEntity
  8
0
100
AcDbLine
 62
7
  6
CONTINUOUS
 10
3.6686774246
 20
0.8502407925
 11
3.7909796168
 21
1.0075316889
  0
LINE
  5
2BB
100
AcDbEntity
  8
0
100
AcDbLine
 62
7
  6
CONTINUOUS
 10
4.3815533971
 20
5.581271739
 11
4.372728407
 21
5.581271739
  0
LINE
  5
2BC
100
AcDbEntity
  8
0
100
AcDbLine
 62
7
  6
CONTINUOUS
 10
4.1774927137
 20
5.581271739
 11
4.1686724257
 21
5.581271739
  0
LINE
  5
2BD
100
AcDbEntity
  8
0
100
AcDbLine
 62
7
  6
CONTINUOUS
 10
6.1831028745
 20
2.2091243987
 11
6.1846150436
 21
2.2214400274
  0
LWPOLYLINE
  5
2BE
100
AcDbEntity
  8
0
100
AcDbPolyline
 62
7
  6
CONTINUOUS
 90
18
 70
0
 10
5.7772506983
 20
2.4985037625
 10
5.7784043927
 20
2.4998217688
 10
5.77969696
 20
2.5014386525
 10
5.780930337
 20
2.5031420603
 10
5.7820991837
 20
2.5049288974
 10
5.7831991488
 20
2.5067969574
 10
5.7842260884
 20
2.5087437807
 10
5.7851756989
 20
2.5107660147
 10
5.7860439074
 20
2.5128604681
 10
5.7868269657
 20
2.5150242881
 10
5.7875209095
 20
2.5172533605
 10
5.7881217002
 20
2.5195429872
 10
5.7886258497
 20
2.5218899166
 10
5.7890300451
 20
2.5242908081
 10
5.7893307583
 20
2.5267408542
 10
5.7895243949
 20
2.5292353883
 10
5.7896074584
 20
2.5317698837
 10
5.7896105564
 20
2.532374794
  0
LINE
  5
2BF
100
AcDbEntity
  8
0
100
AcDbLine
 62
7
  6
CONTINUOUS
 10
5.6356996783
 20
2.3510662773
 11
5.6434216761
 21
2.3593262642
  0
LINE
  5
2C0
100
AcDbEntity
  8
0
100
AcDbLine
 62
7
  6
CONTINUOUS
 10
5.6434216761
 20
2.3593262642
 11
5.6525953766
 21
2.3690048435
  0
LWPOLYLINE
  5
2C1
100
AcDbEntity
  8
0
100
AcDbPolyline
 62
7
  6
CONTINUOUS
 90
3
 70
0
 10
5.6525953766
 20
2.3690048435
 10
5.6617296807
 20
2.3784863398
 10
5.6662796593
 20
2.3831476304
  0
LWPOLYLINE
  5
2C2
100
AcDbEntity
  8
0
100
AcDbPolyline
 62
7
  6
CONTINUOUS
 90
10
 70
0
 10
5.6662796593
 20
2.3831476304
 10
5.6859411259
 20
2.4029772153
 10
5.6990168706
 20
2.4162352899
 10
5.7116665973
 20
2.4291677875
 10
5.7238894158
 20
2.4417755433
 10
5.7356843692
 20
2.4540589614
 10
5.7470504292
 20
2.4660179921
 10
5.7579867431
 20
2.4776528214
 10
5.7684930972
 20
2.488963386
 10
5.7772506983
 20
2.4985037625
  0
LINE
  5
2C3
100
AcDbEntity
  8
0
100
AcDbLine
 62
7
  6
CONTINUOUS
 10
5.6356993696
 20
2.351066262
 11
5.6355820202
 21
2.3509735651
  0
LINE
  5
2C4
100
AcDbEntity
  8
0
100
AcDbLine
 62
7
  6
CONTINUOUS
 10
5.9954879765
 20
2.4710044991
 11
5.782725073
 21
2.3047759008
  0
LINE
  5
2C5
100
AcDbEntity
  8
0
100
AcDbLine
 62
7
  6
CONTINUOUS
 10
5.4561976942
 20
2.3141167704
 11
5.4562822973
 21
2.3141453931
  0
LINE
  5
2C6
100
AcDbEntity
  8
0
100
AcDbLine
 62
7
  6
CONTINUOUS
 10
5.4561976942
 20
2.3141167704
 11
5.4594138789
 21
2.3151590658
  0
LINE
  5
2C7
100
AcDbEntity
  8
0
100
AcDbLine
 62
7
  6
CONTINUOUS
 10
5.4592349154
 20
2.3145891638
 11
5.4637894123
 21
2.3160292682
  0
LINE
  5
2C8
100
AcDbEntity
  8
0
100
AcDbLine
 62
7
  6
CONTINUOUS
 10
5.4637894123
 20
2.3160292682
 11
5.4686629381
 21
2.317546585
  0
LINE
  5
2C9
100
AcDbEntity
  8
0
100
AcDbLine
 62
7
  6
CONTINUOUS
 10
5.4686629381
 20
2.317546585
 11
5.4754274168
 21
2.3196113104
  0
LINE
  5
2CA
100
AcDbEntity
  8
0
100
AcDbLine
 62
7
  6
CONTINUOUS
 10
5.4754274168
 20
2.3196113104
 11
5.4810462907
 21
2.3212890616
  0
LWPOLYLINE
  5
2CB
100
AcDbEntity
  8
0
100
AcDbPolyline
 62
7
  6
CONTINUOUS
 90
3
 70
0
 10
5.4810462907
 20
2.3212890616
 10
5.4876032225
 20
2.3232030809
 10
5.4912442286
 20
2.3242451178
  0
LINE
  5
2CC
100
AcDbEntity
  8
0
100
AcDbLine
 62
7
  6
CONTINUOUS
 10
5.9686307076
 20
2.0668275394
 11
6.181393611
 21
2.2330561378
  0
LINE
  5
2CD
100
AcDbEntity
  8
0
100
AcDbLine
 62
7
  6
CONTINUOUS
 10
5.9791224348
 20
2.0608916058
 11
6.1846150436
 21
2.2214400274
  0
LINE
  5
2CE
100
AcDbEntity
  8
0
100
AcDbLine
 62
7
  6
CONTINUOUS
 10
6.1831028745
 20
2.2091243987
 11
5.9914380635
 21
2.0593794367
  0
LINE
  5
2CF
100
AcDbEntity
  8
0
100
AcDbLine
 62
7
  6
CONTINUOUS
 10
6.1771669408
 20
2.1986326715
 11
6.0030541739
 21
2.0626008692
  0
LWPOLYLINE
  5
2D0
100
AcDbEntity
  8
0
100
AcDbPolyline
 62
7
  6
CONTINUOUS
 90
52
 70
0
 10
4.2751105574
 20
8.1305047571
 10
4.2684146515
 20
8.1304235104
 10
4.259600123
 20
8.1300698415
 10
4.2508017688
 20
8.1294383606
 10
4.2420278402
 20
8.1285319031
 10
4.2332864265
 20
8.127353288
 10
4.2245854583
 20
8.1259052944
 10
4.215933183
 20
8.1241907392
 10
4.2073376429
 20
8.1222124008
 10
4.1988064615
 20
8.1199729276
 10
4.1903480905
 20
8.1174751592
 10
4.1819703411
 20
8.114721756
 10
4.1736799214
 20
8.1117149168
 10
4.1654846917
 20
8.1084571197
 10
4.1573931451
 20
8.1049510826
 10
4.1494130045
 20
8.1011991923
 10
4.1415524173
 20
8.0972039886
 10
4.1338196473
 20
8.0929680668
 10
4.1262226336
 20
8.0884938319
 10
4.118769077
 20
8.0837834825
 10
4.1114677772
 20
8.0788398854
 10
4.1043282108
 20
8.0736666199
 10
4.0973572491
 20
8.0682685254
 10
4.0905598298
 20
8.062652338
 10
4.083941674
 20
8.0568256541
 10
4.0775079637
 20
8.0507957076
 10
4.0712634586
 20
8.0445693467
 10
4.0652131798
 20
8.0381536532
 10
4.0593622102
 20
8.0315557934
 10
4.0537153761
 20
8.0247826517
 10
4.0482773364
 20
8.0178408545
 10
4.0430532307
 20
8.0107376012
 10
4.0380478698
 20
8.0034796585
 10
4.033265547
 20
7.9960729022
 10
4.0287111847
 20
7.9885239762
 10
4.0243900311
 20
7.9808400456
 10
4.0203069985
 20
7.9730276895
 10
4.016467164
 20
7.9650937305
 10
4.0128756853
 20
7.9570451496
 10
4.0095376398
 20
7.9488887482
 10
4.0064579535
 20
7.9406308527
 10
4.0036420043
 20
7.9322789493
 10
4.0010941239
 20
7.9238420508
 10
3.9988148791
 20
7.915329103
 10
3.9968040451
 20
7.906748219
 10
3.9950615894
 20
7.8981081885
 10
3.9935874518
 20
7.8894177737
 10
3.992381512
 20
7.8806854064
 10
3.9914436572
 20
7.8719193733
 10
3.9907738235
 20
7.8631281535
 10
3.9903719655
 20
7.8543204238
 10
3.9902380257
 20
7.8455047571
  0
ARC
  5
2D1
100
AcDbEntity
  8
0
100
AcDbCircle
 62
7
  6
CONTINUOUS
 10
4.8001101
 20
3.2641163032
 40
0.0499999533
100
AcDbArc
 50
179.9994646434
 51
270.0005240481
  0
ARC
  5
2D2
100
AcDbEntity
  8
0
100
AcDbCircle
 62
7
  6
CONTINUOUS
 10
4.800110038
 20
2.2641173005
 40
0.049999947
100
AcDbArc
 50
89.9994049116
 51
180.0006074962
  0
ARC
  5
2D3
100
AcDbEntity
  8
0
100
AcDbCircle
 62
7
  6
CONTINUOUS
 10
4.8578605574
 20
0.831825874
 40
0.03
100
AcDbArc
 50
0.0
 51
37.8670000001
  0
ARC
  5
2D4
100
AcDbEntity
  8
0
100
AcDbCircle
 62
7
  6
CONTINUOUS
 10
3.6923605574
 20
0.831825874
 40
0.03
100
AcDbArc
 50
142.1329999999
 51
180.0
  0
ARC
  5
2D5
100
AcDbEntity
  8
0
100
AcDbCircle
 62
7
  6
CONTINUOUS
 10
3.8146627495
 20
0.9891167704
 40
0.03
100
AcDbArc
 50
90.0
 51
142.133
  0
ARC
  5
2D6
100
AcDbEntity
  8
0
100
AcDbCircle
 62
7
  6
CONTINUOUS
 10
4.7355583652
 20
0.9891167704
 40
0.03
100
AcDbArc
 50
37.867
 51
90.0
  0
ARC
  5
2D7
100
AcDbEntity
  8
0
100
AcDbCircle
 62
7
  6
CONTINUOUS
 10
5.2226105574
 20
3.1991167704
 40
0.015
100
AcDbArc
 50
0.0
 51
90.0
  0
ARC
  5
2D8
100
AcDbEntity
  8
0
100
AcDbCircle
 62
7
  6
CONTINUOUS
 10
5.2226105574
 20
2.3291167704
 40
0.015
100
AcDbArc
 50
270.0
 51
360.0
  0
ARC
  5
2D9
100
AcDbEntity
  8
0
100
AcDbCircle
 62
7
  6
CONTINUOUS
 10
4.2743772246
 20
3.7003376781
 40
1.3615335924
100
AcDbArc
 50
90.566887956
 51
92.1778982699
  0
ARC
  5
2DA
100
AcDbEntity
  8
0
100
AcDbCircle
 62
7
  6
CONTINUOUS
 10
4.2744212842
 20
3.7393286573
 40
1.3128536552
100
AcDbArc
 50
91.1029094403
 51
91.6418767855
  0
ARC
  5
2DB
100
AcDbEntity
  8
0
100
AcDbCircle
 62
7
  6
CONTINUOUS
 10
4.2557394721
 20
4.0541723563
 40
1.0071835615
100
AcDbArc
 50
93.4221866966
 51
95.3921018949
  0
ARC
  5
2DC
100
AcDbEntity
  8
0
100
AcDbCircle
 62
7
  6
CONTINUOUS
 10
4.2746101288
 20
4.0506565556
 40
0.9939644424
100
AcDbArc
 50
91.0164512092
 51
91.7283350166
  0
ARC
  5
2DD
100
AcDbEntity
  8
0
100
AcDbCircle
 62
7
  6
CONTINUOUS
 10
4.2569006994
 20
4.0751162889
 40
0.9765745138
100
AcDbArc
 50
94.07945176
 51
94.7348368315
  0
ARC
  5
2DE
100
AcDbEntity
  8
0
100
AcDbCircle
 62
7
  6
CONTINUOUS
 10
4.2614780895
 20
4.3036884968
 40
0.7405667065
100
AcDbArc
 50
93.9750191879
 51
94.8392694037
  0
ARC
  5
2DF
100
AcDbEntity
  8
0
100
AcDbCircle
 62
7
  6
CONTINUOUS
 10
4.2052303991
 20
4.5448410557
 40
0.5039198801
100
AcDbArc
 50
98.0931914419
 51
99.1096136816
  0
ARC
  5
2E0
100
AcDbEntity
  8
0
100
AcDbCircle
 62
7
  6
CONTINUOUS
 10
4.2225143266
 20
4.6591047627
 40
0.3829506407
100
AcDbArc
 50
97.9326475938
 51
99.2701575297
  0
ARC
  5
2E1
100
AcDbEntity
  8
0
100
AcDbCircle
 62
7
  6
CONTINUOUS
 10
3.8296105574
 20
3.9366665749
 40
0.0295
100
AcDbArc
 50
139.271
 51
180.0
  0
ARC
  5
2E2
100
AcDbEntity
  8
0
100
AcDbCircle
 62
7
  6
CONTINUOUS
 10
3.9406388274
 20
4.0656167704
 40
0.0295
100
AcDbArc
 50
90.0
 51
139.271
  0
ARC
  5
2E3
100
AcDbEntity
  8
0
100
AcDbCircle
 62
7
  6
CONTINUOUS
 10
3.8151105574
 20
3.8041167704
 40
0.015
100
AcDbArc
 50
90.0
 51
180.0
  0
ARC
  5
2E4
100
AcDbEntity
  8
0
100
AcDbCircle
 62
7
  6
CONTINUOUS
 10
4.2742736579
 20
6.2967172958
 40
1.3066899112
100
AcDbArc
 50
268.3568520325
 51
268.8983617417
  0
ARC
  5
2E5
100
AcDbEntity
  8
0
100
AcDbCircle
 62
7
  6
CONTINUOUS
 10
4.2744624895
 20
5.9853888574
 40
0.9878002093
100
AcDbArc
 50
268.2694437474
 51
268.9857700267
  0
ARC
  5
2E6
100
AcDbEntity
  8
0
100
AcDbCircle
 62
7
  6
CONTINUOUS
 10
4.2746211165
 20
5.9934835011
 40
0.9874965008
100
AcDbArc
 50
267.5169650917
 51
269.7382486824
  0
ARC
  5
2E7
100
AcDbEntity
  8
0
100
AcDbCircle
 62
7
  6
CONTINUOUS
 10
4.2557790596
 20
5.952538423
 40
0.9619783115
100
AcDbArc
 50
265.2601909983
 51
265.9255204101
  0
ARC
  5
2E8
100
AcDbEntity
  8
0
100
AcDbCircle
 62
7
  6
CONTINUOUS
 10
4.2603563514
 20
5.7239649392
 40
0.7259694057
100
AcDbArc
 50
265.1520415478
 51
266.0336698607
  0
ARC
  5
2E9
100
AcDbEntity
  8
0
100
AcDbCircle
 62
7
  6
CONTINUOUS
 10
4.2030709948
 20
5.4830909094
 40
0.4894820394
100
AcDbArc
 50
260.875395631
 51
261.9217992455
  0
ARC
  5
2EA
100
AcDbEntity
  8
0
100
AcDbCircle
 62
7
  6
CONTINUOUS
 10
4.220354733
 20
5.3688259507
 40
0.3685119715
100
AcDbArc
 50
260.7036387182
 51
262.0935561583
  0
ARC
  5
2EB
100
AcDbEntity
  8
0
100
AcDbCircle
 62
7
  6
CONTINUOUS
 10
4.2715839089
 20
5.5846508053
 40
0.1115458603
100
AcDbArc
 50
7.0158654835
 51
8.7780381273
  0
ARC
  5
2EC
100
AcDbEntity
  8
0
100
AcDbCircle
 62
7
  6
CONTINUOUS
 10
4.2738187756
 20
5.5849118743
 40
0.1092958403
100
AcDbArc
 50
3.8386247343
 51
7.023132172
  0
ARC
  5
2ED
100
AcDbEntity
  8
0
100
AcDbCircle
 62
7
  6
CONTINUOUS
 10
4.2749686464
 20
5.5827786635
 40
0.0879795519
100
AcDbArc
 50
236.1658019446
 51
254.8705040124
  0
ARC
  5
2EE
100
AcDbEntity
  8
0
100
AcDbCircle
 62
7
  6
CONTINUOUS
 10
4.1666880604
 20
5.0529751113
 40
0.0482925546
100
AcDbArc
 50
275.291612521
 51
276.439799085
  0
ARC
  5
2EF
100
AcDbEntity
  8
0
100
AcDbCircle
 62
7
  6
CONTINUOUS
 10
4.2687878662
 20
5.0750233342
 40
0.018582074
100
AcDbArc
 50
257.8857138274
 51
259.3141146128
  0
ARC
  5
2F0
100
AcDbEntity
  8
0
100
AcDbCircle
 62
7
  6
CONTINUOUS
 10
4.1310129155
 20
5.0359962066
 40
0.013912008
100
AcDbArc
 50
230.1859305614
 51
233.1540057691
  0
ARC
  5
2F1
100
AcDbEntity
  8
0
100
AcDbCircle
 62
7
  6
CONTINUOUS
 10
3.9947083752
 20
6.1477706343
 40
0.010548023
100
AcDbArc
 50
147.2144866005
 51
149.6108724405
  0
ARC
  5
2F2
100
AcDbEntity
  8
0
100
AcDbCircle
 62
7
  6
CONTINUOUS
 10
4.2655011432
 20
5.0056465374
 40
0.0056444479
100
AcDbArc
 50
249.0165531825
 51
251.3840462989
  0
ARC
  5
2F3
100
AcDbEntity
  8
0
100
AcDbCircle
 62
7
  6
CONTINUOUS
 10
4.2758438901
 20
3.7003376781
 40
1.3615335924
100
AcDbArc
 50
87.8221017301
 51
89.433112044
  0
ARC
  5
2F4
100
AcDbEntity
  8
0
100
AcDbCircle
 62
7
  6
CONTINUOUS
 10
4.2759474568
 20
3.7454907016
 40
1.3066899113
100
AcDbArc
 50
88.3568520325
 51
88.8983617417
  0
ARC
  5
2F5
100
AcDbEntity
  8
0
100
AcDbCircle
 62
7
  6
CONTINUOUS
 10
4.2944816426
 20
4.0541723563
 40
1.0071835615
100
AcDbArc
 50
84.6078981051
 51
86.5778133034
  0
ARC
  5
2F6
100
AcDbEntity
  8
0
100
AcDbCircle
 62
7
  6
CONTINUOUS
 10
4.2757586252
 20
4.0568191401
 40
0.9878002093
100
AcDbArc
 50
88.2694437474
 51
88.9857700267
  0
ARC
  5
2F7
100
AcDbEntity
  8
0
100
AcDbCircle
 62
7
  6
CONTINUOUS
 10
4.2944420551
 20
4.0896695745
 40
0.9619783115
100
AcDbArc
 50
85.2601909983
 51
85.9255204101
  0
ARC
  5
2F8
100
AcDbEntity
  8
0
100
AcDbCircle
 62
7
  6
CONTINUOUS
 10
4.2898647633
 20
4.3182430582
 40
0.7259694057
100
AcDbArc
 50
85.1520415478
 51
86.0336698607
  0
ARC
  5
2F9
100
AcDbEntity
  8
0
100
AcDbCircle
 62
7
  6
CONTINUOUS
 10
4.34715012
 20
4.559117088
 40
0.4894820394
100
AcDbArc
 50
80.875395631
 51
81.9217992455
  0
ARC
  5
2FA
100
AcDbEntity
  8
0
100
AcDbCircle
 62
7
  6
CONTINUOUS
 10
4.3298663817
 20
4.6733820467
 40
0.3685119715
100
AcDbArc
 50
80.7036387183
 51
82.0935561582
  0
ARC
  5
2FB
100
AcDbEntity
  8
0
100
AcDbCircle
 62
7
  6
CONTINUOUS
 10
4.7206105574
 20
3.9366665749
 40
0.0295
100
AcDbArc
 50
0.0
 51
40.729
  0
ARC
  5
2FC
100
AcDbEntity
  8
0
100
AcDbCircle
 62
7
  6
CONTINUOUS
 10
4.6095822873
 20
4.0656167704
 40
0.0295
100
AcDbArc
 50
40.729
 51
90.0
  0
ARC
  5
2FD
100
AcDbEntity
  8
0
100
AcDbCircle
 62
7
  6
CONTINUOUS
 10
4.7351105574
 20
3.8041167704
 40
0.015
100
AcDbArc
 50
0.0
 51
90.0
  0
ARC
  5
2FE
100
AcDbEntity
  8
0
100
AcDbCircle
 62
7
  6
CONTINUOUS
 10
4.2757998305
 20
6.3028793401
 40
1.3128536552
100
AcDbArc
 50
271.1029094403
 51
271.6418767856
  0
ARC
  5
2FF
100
AcDbEntity
  8
0
100
AcDbCircle
 62
7
  6
CONTINUOUS
 10
4.2756109859
 20
5.9915514419
 40
0.9939644424
100
AcDbArc
 50
271.0164512092
 51
271.7283350166
  0
ARC
  5
300
100
AcDbEntity
  8
0
100
AcDbCircle
 62
7
  6
CONTINUOUS
 10
4.2755999982
 20
5.9934835011
 40
0.9874965008
100
AcDbArc
 50
270.2617513176
 51
272.4830349083
  0
ARC
  5
301
100
AcDbEntity
  8
0
100
AcDbCircle
 62
7
  6
CONTINUOUS
 10
4.2933204153
 20
5.9670917085
 40
0.9765745137
100
AcDbArc
 50
274.07945176
 51
274.7348368315
  0
ARC
  5
302
100
AcDbEntity
  8
0
100
AcDbCircle
 62
7
  6
CONTINUOUS
 10
4.2887430252
 20
5.7385195007
 40
0.7405667066
100
AcDbArc
 50
273.9750191879
 51
274.8392694037
  0
ARC
  5
303
100
AcDbEntity
  8
0
100
AcDbCircle
 62
7
  6
CONTINUOUS
 10
4.3449907156
 20
5.4973669418
 40
0.5039198801
100
AcDbArc
 50
278.0931914419
 51
279.1096136816
  0
ARC
  5
304
100
AcDbEntity
  8
0
100
AcDbCircle
 62
7
  6
CONTINUOUS
 10
4.3277067881
 20
5.3831032347
 40
0.3829506406
100
AcDbArc
 50
277.9326475938
 51
279.2701575297
  0
ARC
  5
305
100
AcDbEntity
  8
0
100
AcDbCircle
 62
7
  6
CONTINUOUS
 10
4.2786356109
 20
5.5846510288
 40
0.11154425
100
AcDbArc
 50
171.2243988877
 51
172.9857904173
  0
ARC
  5
306
100
AcDbEntity
  8
0
100
AcDbCircle
 62
7
  6
CONTINUOUS
 10
4.2767923998
 20
5.5848748337
 40
0.1096875037
100
AcDbArc
 50
172.9842470114
 51
176.1655892427
  0
ARC
  5
307
100
AcDbEntity
  8
0
100
AcDbCircle
 62
7
  6
CONTINUOUS
 10
4.2752517271
 20
5.5827801163
 40
0.0879811748
100
AcDbArc
 50
285.0494352382
 51
303.8342513099
  0
ARC
  5
308
100
AcDbEntity
  8
0
100
AcDbCircle
 62
7
  6
CONTINUOUS
 10
4.3833795985
 20
5.0514814059
 40
0.046791065
100
AcDbArc
 50
263.5417780534
 51
264.7268103405
  0
ARC
  5
309
100
AcDbEntity
  8
0
100
AcDbCircle
 62
7
  6
CONTINUOUS
 10
4.3268847837
 20
5.0195495518
 40
0.0185907255
100
AcDbArc
 50
257.889199041
 51
259.3161210065
  0
ARC
  5
30A
100
AcDbEntity
  8
0
100
AcDbCircle
 62
7
  6
CONTINUOUS
 10
4.4189423221
 20
5.0363325028
 40
0.0143405709
100
AcDbArc
 50
306.8903536508
 51
309.7697100187
  0
ARC
  5
30B
100
AcDbEntity
  8
0
100
AcDbCircle
 62
7
  6
CONTINUOUS
 10
4.3235960609
 20
5.0611280499
 40
0.0056436497
100
AcDbArc
 50
249.0162644119
 51
251.381533267
  0
ARC
  5
30C
100
AcDbEntity
  8
0
100
AcDbCircle
 62
7
  6
CONTINUOUS
 10
6.7903929356
 20
1.2846602098
 40
1.572241326
100
AcDbArc
 50
135.2631141143
 51
137.1639782874
  0
ARC
  5
30D
100
AcDbEntity
  8
0
100
AcDbCircle
 62
7
  6
CONTINUOUS
 10
5.7971643832
 20
1.2677306997
 40
1.1005369428
100
AcDbArc
 50
107.5029013612
 51
107.8078281173
  0
ARC
  5
30E
100
AcDbEntity
  8
0
100
AcDbCircle
 62
7
  6
CONTINUOUS
 10
6.1846105574
 20
2.6187632532
 40
0.51
100
AcDbArc
 50
201.8667832494
 51
218.0
  0
ARC
  5
30F
100
AcDbEntity
  8
0
100
AcDbCircle
 62
7
  6
CONTINUOUS
 10
6.1846105574
 20
2.6187632532
 40
0.24
100
AcDbArc
 50
180.0
 51
218.0
  0
ARC
  5
310
100
AcDbEntity
  8
0
100
AcDbCircle
 62
7
  6
CONTINUOUS
 10
5.7380451457
 20
2.5323638
 40
0.0515654117
100
AcDbArc
 50
358.4328622742
 51
359.9996548509
  0
ARC
  5
311
100
AcDbEntity
  8
0
100
AcDbCircle
 62
7
  6
CONTINUOUS
 10
5.7381476949
 20
2.5323610503
 40
0.0514628256
100
AcDbArc
 50
357.2423375636
 51
358.4327999762
  0
ARC
  5
312
100
AcDbEntity
  8
0
100
AcDbCircle
 62
7
  6
CONTINUOUS
 10
5.742903476
 20
2.9983714742
 40
0.0460973198
100
AcDbArc
 50
42.6984903216
 51
43.1021904272
  0
ARC
  5
313
100
AcDbEntity
  8
0
100
AcDbCircle
 62
7
  6
CONTINUOUS
 10
5.7470333105
 20
2.5282971704
 40
0.0415017554
100
AcDbArc
 50
315.3550994258
 51
317.9062079676
  0
ARC
  5
314
100
AcDbEntity
  8
0
100
AcDbCircle
 62
7
  6
CONTINUOUS
 10
5.6184831392
 20
2.3649882181
 40
0.0221195323
100
AcDbArc
 50
328.136223501
 51
329.1061450644
  0
ARC
  5
315
100
AcDbEntity
  8
0
100
AcDbCircle
 62
7
  6
CONTINUOUS
 10
5.6210230244
 20
2.3631879372
 40
0.0190040849
100
AcDbArc
 50
320.0047946644
 51
322.1266614837
  0
ARC
  5
316
100
AcDbEntity
  8
0
100
AcDbCircle
 62
7
  6
CONTINUOUS
 10
6.1689824417
 20
2.2233594695
 40
0.01575
100
AcDbArc
 50
352.9999999809
 51
37.9999999978
  0
ARC
  5
317
100
AcDbEntity
  8
0
100
AcDbCircle
 62
7
  6
CONTINUOUS
 10
5.9810418769
 20
2.0765242077
 40
0.01575
100
AcDbArc
 50
218.0000000022
 51
263.0000000191
  0
ARC
  5
318
100
AcDbEntity
  8
0
100
AcDbCircle
 62
7
  6
CONTINUOUS
 10
6.1674702726
 20
2.2110438409
 40
0.01575
100
AcDbArc
 50
308.0
 51
352.9999999401
  0
ARC
  5
319
100
AcDbEntity
  8
0
100
AcDbCircle
 62
7
  6
CONTINUOUS
 10
5.9933575056
 20
2.0750120386
 40
0.01575
100
AcDbArc
 50
263.0000000599
 51
308.0
  0
ARC
  5
31A
100
AcDbEntity
  8
0
100
AcDbCircle
 62
7
  6
CONTINUOUS
 10
5.6307668383
 20
3.1960469511
 40
0.0101901832
100
AcDbArc
 50
83.1179202799
 51
89.9929680803
  0
ARC
  5
31B
100
AcDbEntity
  8
0
100
AcDbCircle
 62
7
  6
CONTINUOUS
 10
5.6307771181
 20
3.1961096045
 40
0.0101267498
100
AcDbArc
 50
62.4129341593
 51
83.1331866386
  0
ARC
  5
31C
100
AcDbEntity
  8
0
100
AcDbCircle
 62
7
  6
CONTINUOUS
 10
5.4561976942
 20
2.3241167704
 40
0.01
100
AcDbArc
 50
269.9999999999
 51
287.6812995145
  0
ARC
  5
31D
100
AcDbEntity
  8
0
100
AcDbCircle
 62
7
  6
CONTINUOUS
 10
5.6108605574
 20
3.2041167704
 40
0.01
100
AcDbArc
 50
67.8881129723
 51
90.0
  0
ARC
  5
31E
100
AcDbEntity
  8
0
100
AcDbCircle
 62
7
  6
CONTINUOUS
 10
5.2476105574
 20
2.3241167704
 40
0.01
100
AcDbArc
 50
180.0
 51
270.0
  0
ARC
  5
31F
100
AcDbEntity
  8
0
100
AcDbCircle
 62
7
  6
CONTINUOUS
 10
5.2476105574
 20
3.2041167704
 40
0.01
100
AcDbArc
 50
90.0
 51
180.0
  0
ARC
  5
320
100
AcDbEntity
  8
0
100
AcDbCircle
 62
7
  6
CONTINUOUS
 10
5.6307680889
 20
3.1964122322
 40
0.01
100
AcDbArc
 50
37.8852188926
 51
69.828810392
  0
ARC
  5
321
100
AcDbEntity
  8
0
100
AcDbCircle
 62
7
  6
CONTINUOUS
 10
5.630839227
 20
3.1962265569
 40
0.0099940877
100
AcDbArc
 50
48.4782420511
 51
62.3925549414
  0
ARC
  5
322
100
AcDbEntity
  8
0
100
AcDbCircle
 62
7
  6
CONTINUOUS
 10
5.6342289006
 20
2.3589281598
 40
0.0080688604
100
AcDbArc
 50
273.8952308591
 51
279.6539147231
  0
ARC
  5
323
100
AcDbEntity
  8
0
100
AcDbCircle
 62
7
  6
CONTINUOUS
 10
5.6339771911
 20
3.1989039642
 40
0.0059371925
100
AcDbArc
 50
39.3321141397
 51
54.0314374247
  0
ARC
  5
324
100
AcDbEntity
  8
0
100
AcDbCircle
 62
7
  6
CONTINUOUS
 10
5.6340387226
 20
3.1989565942
 40
0.0058562413
100
AcDbArc
 50
37.8926395678
 51
39.3153939325
  0
ARC
  5
325
100
AcDbEntity
  8
0
100
AcDbCircle
 62
7
  6
CONTINUOUS
 10
5.8528445503
 20
3.7962012532
 40
0.6303793307
100
AcDbArc
 50
247.736702669
 51
247.9789841875
  0
ARC
  5
326
100
AcDbEntity
  8
0
100
AcDbCircle
 62
7
  6
CONTINUOUS
 10
5.8463701326
 20
3.7798324527
 40
0.612777147
100
AcDbArc
 50
247.9663295212
 51
249.3998479525
  0
ARC
  5
327
100
AcDbEntity
  8
0
100
AcDbCircle
 62
7
  6
CONTINUOUS
 10
5.9200866937
 20
4.4733667704
 40
0.01575
100
AcDbArc
 50
45.0000000599
 51
90.0
  0
ARC
  5
328
100
AcDbEntity
  8
0
100
AcDbCircle
 62
7
  6
CONTINUOUS
 10
5.699134421
 20
4.4733667704
 40
0.01575
100
AcDbArc
 50
90.0
 51
134.9999999401
  0
ARC
  5
329
100
AcDbEntity
  8
0
100
AcDbCircle
 62
7
  6
CONTINUOUS
 10
5.6903605574
 20
4.4645929068
 40
0.01575
100
AcDbArc
 50
134.999999976
 51
179.999999997
  0
ARC
  5
32A
100
AcDbEntity
  8
0
100
AcDbCircle
 62
7
  6
CONTINUOUS
 10
5.9288605574
 20
4.4645929068
 40
0.01575
100
AcDbArc
 50
0.000000003
 51
45.000000024
  0
LINE
  5
32B
100
AcDbEntity
  8
0
100
AcDbLine
 62
7
  6
CONTINUOUS
 10
4.0720307597
 20
5.0163474632
 11
4.0732122129
 21
5.0153098829
  0
SPLINE
  5
32C
100
AcDbEntity
  8
0
100
AcDbSpline
 62
7
  6
CONTINUOUS
 70
0
 71
3
 72
11
 73
7
 74
0
 42
0.0000001
 43
0.0000001
 44
0.0000000001
 40
0.0
 40
0.0
 40
0.0
 40
0.0
 40
0.2766029918
 40
0.5310988068
 40
0.7697222903
 40
1.0
 40
1.0
 40
1.0
 40
1.0
 10
4.5579561419
 20
6.1610986643
 30
0.0
 10
4.5582788366
 20
6.1615086158
 30
0.0
 10
4.558853374
 20
6.1623334551
 30
0.0
 10
4.5595024722
 20
6.1636388464
 30
0.0
 10
4.5598949248
 20
6.1649531464
 30
0.0
 10
4.559983089
 20
6.1658398236
 30
0.0
 10
4.559983089
 20
6.1662741666
 30
0.0
  0
SPLINE
  5
32D
100
AcDbEntity
  8
0
100
AcDbSpline
 62
7
  6
CONTINUOUS
 70
0
 71
3
 72
23
 73
19
 74
0
 42
0.0000001
 43
0.0000001
 44
0.0000000001
 40
0.0
 40
0.0
 40
0.0
 40
0.0
 40
0.0621800163
 40
0.1243793766
 40
0.1865962871
 40
0.2488506729
 40
0.3111485488
 40
0.373498573
 40
0.4359063299
 40
0.498375312
 40
0.5609067264
 40
0.6234993886
 40
0.6861496889
 40
0.7488516654
 40
0.811598468
 40
0.8743770974
 40
0.9371861445
 40
1.0
 40
1.0
 40
1.0
 40
1.0
 10
4.1766105574
 20
5.5941591609
 30
0.0
 10
4.1766105574
 20
5.5909708413
 30
0.0
 10
4.1769276736
 20
5.5845886913
 30
0.0
 10
4.1783493127
 20
5.5751119275
 30
0.0
 10
4.1807039407
 20
5.565818009
 30
0.0
 10
4.1839678881
 20
5.5567980775
 30
0.0
 10
4.1881100739
 20
5.5481386007
 30
0.0
 10
4.1930901693
 20
5.5399232103
 30
0.0
 10
4.1988600258
 20
5.5322309703
 30
0.0
 10
4.205363796
 20
5.5251358554
 30
0.0
 10
4.2125386477
 20
5.5187060215
 30
0.0
 10
4.2203153682
 20
5.5130032003
 30
0.0
 10
4.2286190049
 20
5.5080821353
 30
0.0
 10
4.2373696225
 20
5.5039899261
 30
0.0
 10
4.2464828267
 20
5.5007659503
 30
0.0
 10
4.2558715005
 20
5.4984404853
 30
0.0
 10
4.2654439766
 20
5.4970365994
 30
0.0
 10
4.2718897373
 20
5.4967234764
 30
0.0
 10
4.2751105574
 20
5.4967234764
 30
0.0
  0
SPLINE
  5
32E
100
AcDbEntity
  8
0
100
AcDbSpline
 62
7
  6
CONTINUOUS
 70
0
 71
3
 72
23
 73
19
 74
0
 42
0.0000001
 43
0.0000001
 44
0.0000000001
 40
0.0
 40
0.0
 40
0.0
 40
0.0
 40
0.0628138596
 40
0.1256229129
 40
0.1884015432
 40
0.2511483461
 40
0.3138503213
 40
0.376500619
 40
0.4390932778
 40
0.5016246885
 40
0.5640936667
 40
0.6265014202
 40
0.6888514417
 40
0.7511493161
 40
0.813403702
 40
0.8756206134
 40
0.9378199796
 40
1.0
 40
1.0
 40
1.0
 40
1.0
 10
4.2751105574
 20
5.4967234764
 30
0.0
 10
4.2783313777
 20
5.4967234764
 30
0.0
 10
4.2847771389
 20
5.4970365995
 30
0.0
 10
4.2943496155
 20
5.4984404855
 30
0.0
 10
4.3037382897
 20
5.5007659508
 30
0.0
 10
4.3128514938
 20
5.5039899267
 30
0.0
 10
4.3216021111
 20
5.508082136
 30
0.0
 10
4.3299057474
 20
5.513003201
 30
0.0
 10
4.3376824675
 20
5.518706022
 30
0.0
 10
4.3448573188
 20
5.5251358554
 30
0.0
 10
4.3513610886
 20
5.5322309699
 30
0.0
 10
4.3571309448
 20
5.5399232095
 30
0.0
 10
4.3621110401
 20
5.5481385994
 30
0.0
 10
4.366253226
 20
5.556798076
 30
0.0
 10
4.3695171735
 20
5.5658180074
 30
0.0
 10
4.3718718018
 20
5.5751119262
 30
0.0
 10
4.373293441
 20
5.5845886906
 30
0.0
 10
4.3736105574
 20
5.5909708411
 30
0.0
 10
4.3736105574
 20
5.5941591609
 30
0.0
  0
SPLINE
  5
32F
100
AcDbEntity
  8
0
100
AcDbSpline
 62
7
  6
CONTINUOUS
 70
0
 71
3
 72
23
 73
19
 74
0
 42
0.0000001
 43
0.0000001
 44
0.0000000001
 40
0.0
 40
0.0
 40
0.0
 40
0.0
 40
0.0622670938
 40
0.1245499528
 40
0.1868438606
 40
0.2491655423
 40
0.3115184875
 40
0.3739092258
 40
0.4363418191
 40
0.4988188501
 40
0.5613412657
 40
0.6239082872
 40
0.6865173361
 40
0.7491640587
 40
0.8118437432
 40
0.8745459568
 40
0.9372722176
 40
1.0
 40
1.0
 40
1.0
 40
1.0
 10
4.3736105574
 20
5.6115502766
 30
0.0
 10
4.3736105574
 20
5.6147455886
 30
0.0
 10
4.3732930819
 20
5.6211415418
 30
0.0
 10
4.3718698489
 20
5.6306385746
 30
0.0
 10
4.3695127528
 20
5.6399517464
 30
0.0
 10
4.3662456864
 20
5.6489894958
 30
0.0
 10
4.3621000521
 20
5.6576650154
 30
0.0
 10
4.3571165202
 20
5.6658944479
 30
0.0
 10
4.3513435894
 20
5.6735986138
 30
0.0
 10
4.3448374353
 20
5.6807035399
 30
0.0
 10
4.3376611636
 20
5.6871411726
 30
0.0
 10
4.3298841829
 20
5.6928499664
 30
0.0
 10
4.3215815485
 20
5.6977754233
 30
0.0
 10
4.3128331932
 20
5.7018707149
 30
0.0
 10
4.3037234095
 20
5.705096739
 30
0.0
 10
4.2943391166
 20
5.7074234684
 30
0.0
 10
4.2847717107
 20
5.7088280271
 30
0.0
 10
4.2783295102
 20
5.7091412936
 30
0.0
 10
4.2751105574
 20
5.7091412936
 30
0.0
  0
SPLINE
  5
330
100
AcDbEntity
  8
0
100
AcDbSpline
 62
7
  6
CONTINUOUS
 70
0
 71
3
 72
23
 73
19
 74
0
 42
0.0000001
 43
0.0000001
 44
0.0000000001
 40
0.0
 40
0.0
 40
0.0
 40
0.0
 40
0.0627277975
 40
0.1254540809
 40
0.1881562983
 40
0.2508359837
 40
0.3134827015
 40
0.3760917408
 40
0.43865875
 40
0.5011811516
 40
0.5636581685
 40
0.6260907491
 40
0.6884814773
 40
0.7508344171
 40
0.8131560992
 40
0.8754500103
 40
0.9377328911
 40
1.0
 40
1.0
 40
1.0
 40
1.0
 10
4.2751105574
 20
5.7091412936
 30
0.0
 10
4.2718916038
 20
5.7091412936
 30
0.0
 10
4.2654494013
 20
5.7088280266
 30
0.0
 10
4.2558819933
 20
5.7074234676
 30
0.0
 10
4.2464976992
 20
5.7050967371
 30
0.0
 10
4.2373879157
 20
5.7018707126
 30
0.0
 10
4.2286395612
 20
5.6977754207
 30
0.0
 10
4.2203369284
 20
5.692849964
 30
0.0
 10
4.2125599493
 20
5.6871411711
 30
0.0
 10
4.2053836792
 20
5.6807035398
 30
0.0
 10
4.1988775266
 20
5.6735986152
 30
0.0
 10
4.1931045967
 20
5.6658944509
 30
0.0
 10
4.1881210651
 20
5.65766502
 30
0.0
 10
4.1839754305
 20
5.6489895013
 30
0.0
 10
4.1807083637
 20
5.6399517522
 30
0.0
 10
4.1783512666
 20
5.6306385793
 30
0.0
 10
4.1769280333
 20
5.6211415445
 30
0.0
 10
4.1766105574
 20
5.6147455893
 30
0.0
 10
4.1766105574
 20
5.6115502766
 30
0.0
  0
SPLINE
  5
331
100
AcDbEntity
  8
0
100
AcDbSpline
 62
7
  6
CONTINUOUS
 70
0
 71
3
 72
20
 73
16
 74
0
 42
0.0000001
 43
0.0000001
 44
0.0000000001
 40
0.0
 40
0.0
 40
0.0
 40
0.0
 40
0.1327825129
 40
0.2596044265
 40
0.321129301
 40
0.3816546051
 40
0.4413973527
 40
0.5006000035
 40
0.5595954729
 40
0.6187712229
 40
0.7392189923
 40
0.8012322093
 40
0.8649658723
 40
0.9309750876
 40
1.0
 40
1.0
 40
1.0
 40
1.0
 10
4.0154344403
 20
6.1737204748
 30
0.0
 10
4.0138975953
 20
6.1731584613
 30
0.0
 10
4.0109116428
 20
6.1720072812
 30
0.0
 10
4.0072805322
 20
6.1704296234
 30
0.0
 10
4.0045153098
 20
6.1691020957
 30
0.0
 10
4.0025232491
 20
6.1680762048
 30
0.0
 10
4.0005884644
 20
6.1670037687
 30
0.0
 10
3.9987061148
 20
6.1658779566
 30
0.0
 10
3.9968734664
 20
6.1646851963
 30
0.0
 10
3.9944794669
 20
6.1629765778
 30
0.0
 10
3.9921765038
 20
6.1610783239
 30
0.0
 10
3.9900133176
 20
6.1589484749
 30
0.0
 10
3.9884381011
 20
6.1571843202
 30
0.0
 10
3.9869432894
 20
6.1552407629
 30
0.0
 10
3.9860397999
 20
6.1538403665
 30
0.0
 10
3.9856095248
 20
6.1531065639
 30
0.0
  0
SPLINE
  5
332
100
AcDbEntity
  8
0
100
AcDbSpline
 62
7
  6
CONTINUOUS
 70
0
 71
3
 72
20
 73
16
 74
0
 42
0.0000001
 43
0.0000001
 44
0.0000000001
 40
0.0
 40
0.0
 40
0.0
 40
0.0
 40
0.0690178697
 40
0.1350304352
 40
0.1987688259
 40
0.2607834285
 40
0.3812286139
 40
0.4404035027
 40
0.4993990777
 40
0.5586025298
 40
0.6183456732
 40
0.6788708311
 40
0.7403956296
 40
0.8672178996
 40
1.0
 40
1.0
 40
1.0
 40
1.0
 10
4.5646115899
 20
6.1531065639
 30
0.0
 10
4.5641813575
 20
6.1538402938
 30
0.0
 10
4.5632778718
 20
6.1552406442
 30
0.0
 10
4.5617830588
 20
6.1571842235
 30
0.0
 10
4.5602077969
 20
6.1589485041
 30
0.0
 10
4.5580445667
 20
6.1610783844
 30
0.0
 10
4.555741609
 20
6.1629766184
 30
0.0
 10
4.5533476209
 20
6.1646851974
 30
0.0
 10
4.5515149543
 20
6.1658779416
 30
0.0
 10
4.5496326022
 20
6.1670037926
 30
0.0
 10
4.5476978096
 20
6.1680762552
 30
0.0
 10
4.5457057323
 20
6.1691021335
 30
0.0
 10
4.5429404915
 20
6.1704296464
 30
0.0
 10
4.5393093852
 20
6.1720073393
 30
0.0
 10
4.5363234114
 20
6.1731584894
 30
0.0
 10
4.5347865661
 20
6.1737205011
 30
0.0
  0
SPLINE
  5
333
100
AcDbEntity
  8
0
100
AcDbSpline
 62
7
  6
CONTINUOUS
 70
0
 71
3
 72
12
 73
8
 74
0
 42
0.0000001
 43
0.0000001
 44
0.0000000001
 40
0.0
 40
0.0
 40
0.0
 40
0.0
 40
0.2414595541
 40
0.4902735668
 40
0.6167350154
 40
0.7439971888
 40
1.0
 40
1.0
 40
1.0
 40
1.0
 10
3.946804612
 20
6.0869271861
 30
0.0
 10
3.9453720004
 20
6.0844834801
 30
0.0
 10
3.9427661856
 20
6.0793367719
 30
0.0
 10
3.9403474312
 20
6.0724944892
 30
0.0
 10
3.9389468875
 20
6.0667634582
 30
0.0
 10
3.937921293
 20
6.0608689197
 30
0.0
 10
3.9376105574
 20
6.0563645307
 30
0.0
 10
3.9376105574
 20
6.0533612368
 30
0.0
  0
SPLINE
  5
334
100
AcDbEntity
  8
0
100
AcDbSpline
 62
7
  6
CONTINUOUS
 70
0
 71
3
 72
14
 73
10
 74
0
 42
0.0000001
 43
0.0000001
 44
0.0000000001
 40
0.0
 40
0.0
 40
0.0
 40
0.0
 40
0.2559375643
 40
0.383128364
 40
0.5095634775
 40
0.6348019672
 40
0.7584884021
 40
0.8803250364
 40
1.0
 40
1.0
 40
1.0
 40
1.0
 10
4.6126105574
 20
6.0533612368
 30
0.0
 10
4.6126105574
 20
6.0563648238
 30
0.0
 10
4.6123000431
 20
6.0608692948
 30
0.0
 10
4.6112739369
 20
6.0667637734
 30
0.0
 10
4.6102174064
 20
6.0710863883
 30
0.0
 10
4.6088861027
 20
6.0752888309
 30
0.0
 10
4.6072999114
 20
6.0793438828
 30
0.0
 10
4.6054848929
 20
6.0832294582
 30
0.0
 10
4.6041250014
 20
6.085718623
 30
0.0
 10
4.6034144529
 20
6.0869300807
 30
0.0
  0
SPLINE
  5
335
100
AcDbEntity
  8
0
100
AcDbSpline
 62
7
  6
CONTINUOUS
 70
0
 71
3
 72
13
 73
9
 74
0
 42
0.0000001
 43
0.0000001
 44
0.0000000001
 40
0.0
 40
0.0
 40
0.0
 40
0.0
 40
0.2378364602
 40
0.3606209957
 40
0.4852450704
 40
0.6112776148
 40
0.738755416
 40
1.0
 40
1.0
 40
1.0
 40
1.0
 10
4.6086831183
 20
5.0714667412
 30
0.0
 10
4.6092774677
 20
5.0724810794
 30
0.0
 10
4.6100887778
 20
5.0740745364
 30
0.0
 10
4.6109793249
 20
5.0763028535
 30
0.0
 10
4.6115549631
 20
5.0780581866
 30
0.0
 10
4.6120175432
 20
5.0798708198
 30
0.0
 10
4.6124729374
 20
5.0823756758
 30
0.0
 10
4.6126105574
 20
5.0843010931
 30
0.0
 10
4.6126105574
 20
5.0855924427
 30
0.0
  0
SPLINE
  5
336
100
AcDbEntity
  8
0
100
AcDbSpline
 62
7
  6
CONTINUOUS
 70
0
 71
3
 72
13
 73
9
 74
0
 42
0.0000001
 43
0.0000001
 44
0.0000000001
 40
0.0
 40
0.0
 40
0.0
 40
0.0
 40
0.2614035647
 40
0.388798768
 40
0.5147312458
 40
0.6392925464
 40
0.7620629791
 40
1.0
 40
1.0
 40
1.0
 40
1.0
 10
3.9376105574
 20
5.0855924427
 30
0.0
 10
3.9376105574
 20
5.0843002412
 30
0.0
 10
3.9377479263
 20
5.082374313
 30
0.0
 10
3.9382036543
 20
5.0798694936
 30
0.0
 10
3.9386662831
 20
5.0780580283
 30
0.0
 10
3.9392419915
 20
5.0763035398
 30
0.0
 10
3.9401329023
 20
5.0740751198
 30
0.0
 10
3.9409440286
 20
5.0724810162
 30
0.0
 10
3.9415383801
 20
5.0714660335
 30
0.0
  0
SPLINE
  5
337
100
AcDbEntity
  8
0
100
AcDbSpline
 62
7
  6
CONTINUOUS
 70
0
 71
3
 72
61
 73
57
 74
0
 42
0.0000001
 43
0.0000001
 44
0.0000000001
 40
0.0
 40
0.0
 40
0.0
 40
0.0
 40
0.0048427127
 40
0.0094571834
 40
0.0182466511
 40
0.0225169589
 40
0.0267505017
 40
0.0352592773
 40
0.0440355835
 40
0.0485792081
 40
0.0532494922
 40
0.0630140001
 40
0.0734069633
 40
0.084474611
 40
0.0962450411
 40
0.1087310624
 40
0.1219347095
 40
0.1358508035
 40
0.1504668605
 40
0.1657662362
 40
0.1817271232
 40
0.2155309721
 40
0.2516457069
 40
0.2898005668
 40
0.3296958155
 40
0.3710090728
 40
0.41340057
 40
0.4565178312
 40
0.5000000416
 40
0.5434822508
 40
0.5865995083
 40
0.6289909992
 40
0.670304248
 40
0.7101994858
 40
0.7483543326
 40
0.7844690524
 40
0.8182728844
 40
0.8342337594
 40
0.8495331286
 40
0.8641491706
 40
0.8780652616
 40
0.8912688854
 40
0.9037549117
 40
0.9155252987
 40
0.9265929927
 40
0.9369859262
 40
0.9467504782
 40
0.9514207651
 40
0.955964382
 40
0.9647407027
 40
0.973249427
 40
0.9774830347
 40
0.981753443
 40
0.9905427077
 40
0.9951569107
 40
1.0
 40
1.0
 40
1.0
 40
1.0
 10
3.9629484828
 20
5.034956077
 30
0.0
 10
3.9634744367
 20
5.0340591011
 30
0.0
 10
3.9645915695
 20
5.0323582693
 30
0.0
 10
3.9670524425
 20
5.0293042642
 30
0.0
 10
3.9697870178
 20
5.0266495748
 30
0.0
 10
3.9726929795
 20
5.02433626
 30
0.0
 10
3.975672227
 20
5.0222195038
 30
0.0
 10
3.9796345422
 20
5.0198305607
 30
0.0
 10
3.9838202815
 20
5.0177143682
 30
0.0
 10
3.9873430496
 20
5.0161287261
 30
0.0
 10
3.9911024732
 20
5.0145553447
 30
0.0
 10
3.9960949328
 20
5.0126806129
 30
0.0
 10
4.0024614776
 20
5.0105744525
 30
0.0
 10
4.0093078682
 20
5.0085608458
 30
0.0
 10
4.0166431674
 20
5.0066287285
 30
0.0
 10
4.0244698289
 20
5.0047716574
 30
0.0
 10
4.032785042
 20
5.0029871576
 30
0.0
 10
4.0415815541
 20
5.001273923
 30
0.0
 10
4.0508490345
 20
4.9996325728
 30
0.0
 10
4.0605740628
 20
4.9980640535
 30
0.0
 10
4.0743963128
 20
4.9960332545
 30
0.0
 10
4.0926909842
 20
4.9937100581
 30
0.0
 10
4.1157713156
 20
4.9912928284
 30
0.0
 10
4.140197328
 20
4.9892136116
 30
0.0
 10
4.1657695464
 20
4.9874885137
 30
0.0
 10
4.1922747351
 20
4.9861315879
 30
0.0
 10
4.2194888165
 20
4.9851540917
 30
0.0
 10
4.2471798244
 20
4.984564257
 30
0.0
 10
4.275110586
 20
4.9843670862
 30
0.0
 10
4.3030413468
 20
4.9845642578
 30
0.0
 10
4.3307323522
 20
4.9851540932
 30
0.0
 10
4.3579464296
 20
4.9861315901
 30
0.0
 10
4.3844516128
 20
4.9874885163
 30
0.0
 10
4.4100238242
 20
4.9892136145
 30
0.0
 10
4.4344498282
 20
4.9912928311
 30
0.0
 10
4.45753015
 20
4.9937100604
 30
0.0
 10
4.475824812
 20
4.9960332555
 30
0.0
 10
4.4896470544
 20
4.9980640541
 30
0.0
 10
4.4993720756
 20
4.999632572
 30
0.0
 10
4.5086395509
 20
5.001273921
 30
0.0
 10
4.5174360541
 20
5.0029871548
 30
0.0
 10
4.5257512636
 20
5.0047716497
 30
0.0
 10
4.5335779098
 20
5.0066287274
 30
0.0
 10
4.5409132168
 20
5.0085608233
 30
0.0
 10
4.547759592
 20
5.0105744605
 30
0.0
 10
4.5541261653
 20
5.0126805773
 30
0.0
 10
4.5591186146
 20
5.0145553478
 30
0.0
 10
4.5628780516
 20
5.0161287181
 30
0.0
 10
4.5664008249
 20
5.0177143548
 30
0.0
 10
4.5705865444
 20
5.0198305627
 30
0.0
 10
4.5745488874
 20
5.0222194728
 30
0.0
 10
4.5775281376
 20
5.0243362683
 30
0.0
 10
4.5804340886
 20
5.0266495832
 30
0.0
 10
4.5831686123
 20
5.0293042065
 30
0.0
 10
4.5856295166
 20
5.0323581622
 30
0.0
 10
4.5867466371
 20
5.0340590313
 30
0.0
 10
4.5872726319
 20
5.034956077
 30
0.0
  0
SPLINE
  5
338
100
AcDbEntity
  8
0
100
AcDbSpline
 62
7
  6
CONTINUOUS
 70
0
 71
3
 72
11
 73
7
 74
0
 42
0.0000001
 43
0.0000001
 44
0.0000000001
 40
0.0
 40
0.0
 40
0.0
 40
0.0
 40
0.2302766408
 40
0.468899533
 40
0.7233956192
 40
1.0
 40
1.0
 40
1.0
 40
1.0
 10
3.9902380257
 20
6.1662741666
 30
0.0
 10
3.9902380257
 20
6.1658398097
 30
0.0
 10
3.9903261958
 20
6.1649531029
 30
0.0
 10
3.9907186739
 20
6.1636387604
 30
0.0
 10
3.991367814
 20
6.1623333276
 30
0.0
 10
3.991942387
 20
6.1615084642
 30
0.0
 10
3.9922651016
 20
6.1610985006
 30
0.0
  0
LINE
  5
339
100
AcDbEntity
  8
0
100
AcDbLine
 62
7
  6
CONTINUOUS
 10
4.4163875543
 20
5.0309313668
 11
4.410712673
 21
5.0326160465
  0
LINE
  5
33A
100
AcDbEntity
  8
0
100
AcDbLine
 62
7
  6
CONTINUOUS
 10
4.1395084417
 20
5.0326160465
 11
4.1338335605
 21
5.0309313668
  0
LINE
  5
33B
100
AcDbEntity
  8
0
100
AcDbLine
 62
7
  6
CONTINUOUS
 10
4.4295497031
 20
5.0238467886
 11
4.4275942723
 21
5.0257142704
  0
LINE
  5
33C
100
AcDbEntity
  8
0
100
AcDbLine
 62
7
  6
CONTINUOUS
 10
4.1226268425
 20
5.0257142704
 11
4.1206714116
 21
5.0238467886
  0
LINE
  5
33D
100
AcDbEntity
  8
0
100
AcDbLine
 62
7
  6
CONTINUOUS
 10
4.4770089018
 20
5.0153098829
 11
4.478190355
 21
5.0163474632
  0
LINE
  5
33E
100
AcDbEntity
  8
0
100
AcDbLine
 62
7
  6
CONTINUOUS
 10
4.4552902543
 20
5.0061563016
 11
4.4609651355
 21
5.0078409813
  0
LINE
  5
33F
100
AcDbEntity
  8
0
100
AcDbLine
 62
7
  6
CONTINUOUS
 10
4.0892559792
 20
5.0078409813
 11
4.0949308604
 21
5.0061563016
  0
LINE
  5
340
100
AcDbEntity
  8
0
100
AcDbLine
 62
7
  6
CONTINUOUS
 10
5.4594138789
 20
2.3151590658
 11
5.4605922455
 21
2.3155382959
  0
SPLINE
  5
341
100
AcDbEntity
  8
0
100
AcDbSpline
 62
7
  6
CONTINUOUS
 70
0
 71
3
 72
13
 73
9
 74
0
 42
0.0000001
 43
0.0000001
 44
0.0000000001
 40
0.0
 40
0.0
 40
0.0
 40
0.0
 40
0.1673227413
 40
0.4056371209
 40
0.5428550593
 40
0.6888926374
 40
0.841857771
 40
1.0
 40
1.0
 40
1.0
 40
1.0
 10
5.4661733923
 20
2.3173146775
 30
0.0
 10
5.4751337592
 20
2.3201402122
 30
0.0
 10
5.4969457726
 20
2.3267082689
 30
0.0
 10
5.5264391163
 20
2.334455624
 30
0.0
 10
5.5550398704
 20
2.3407749871
 30
0.0
 10
5.5791236089
 20
2.3452697637
 30
0.0
 10
5.6045266791
 20
2.3490027741
 30
0.0
 10
5.621914061
 20
2.3507698041
 30
0.0
 10
5.6307680889
 20
2.3514460483
 30
0.0
  0
LINE
  5
342
100
AcDbEntity
  8
0
100
AcDbLine
 62
7
  6
CONTINUOUS
 10
5.6374643518
 20
3.2037091676
 11
5.6384623052
 21
3.2024201284
  0
LINE
  5
343
100
AcDbEntity
  8
0
100
AcDbLine
 62
7
  6
CONTINUOUS
 10
5.6384623052
 20
3.2024201284
 11
5.6398744969
 21
3.2005966292
  0
SPLINE
  5
344
100
AcDbEntity
  8
0
100
AcDbSpline
 62
7
  6
CONTINUOUS
 70
0
 71
3
 72
14
 73
10
 74
0
 42
0.0000001
 43
0.0000001
 44
0.0000000001
 40
0.0
 40
0.0
 40
0.0
 40
0.0
 40
0.2121029504
 40
0.3327823481
 40
0.4595737215
 40
0.5907824134
 40
0.7251824403
 40
0.8618460264
 40
1.0
 40
1.0
 40
1.0
 40
1.0
 10
5.6398744969
 20
3.2005966292
 30
0.0
 10
5.6493439631
 20
3.1883715293
 30
0.0
 10
5.6642375817
 20
3.1692188371
 30
0.0
 10
5.6849114272
 20
3.142851553
 30
0.0
 10
5.7020238743
 20
3.1211864778
 30
0.0
 10
5.7198582864
 20
3.0988172526
 30
0.0
 10
5.7382752981
 20
3.0759925242
 30
0.0
 10
5.7571869491
 20
3.0529172733
 30
0.0
 10
5.7700442647
 20
3.0375500722
 30
0.0
 10
5.7765607958
 20
3.0298698506
 30
0.0
  0
SPLINE
  5
345
100
AcDbEntity
  8
0
100
AcDbSpline
 62
7
  6
CONTINUOUS
 70
0
 71
3
 72
11
 73
7
 74
0
 42
0.0000001
 43
0.0000001
 44
0.0000000001
 40
0.0
 40
0.0
 40
0.0
 40
0.0
 40
0.2500015549
 40
0.5000025171
 40
0.750002395
 40
1.0
 40
1.0
 40
1.0
 40
1.0
 10
5.6735568203
 20
2.3912856562
 30
0.0
 10
5.6823154193
 20
2.4001040935
 30
0.0
 10
5.6997693569
 20
2.4178039455
 30
0.0
 10
5.7257150709
 20
2.4445837413
 30
0.0
 10
5.7513661493
 20
2.4716459165
 30
0.0
 10
5.7682170387
 20
2.489921775
 30
0.0
 10
5.7765607958
 20
2.4991334376
 30
0.0
  0
SPLINE
  5
346
100
AcDbEntity
  8
0
100
AcDbSpline
 62
7
  6
CONTINUOUS
 70
0
 71
3
 72
9
 73
5
 74
0
 42
0.0000001
 43
0.0000001
 44
0.0000000001
 40
0.0
 40
0.0
 40
0.0
 40
0.0
 40
0.5216610265
 40
1.0
 40
1.0
 40
1.0
 40
1.0
 10
4.1381104546
 20
5.054373297
 30
0.0
 10
4.1333293782
 20
5.0537706343
 30
0.0
 10
4.1241764747
 20
5.0525153319
 30
0.0
 10
4.1150594151
 20
5.0510180983
 30
0.0
 10
4.1107117379
 20
5.0502289447
 30
0.0
  0
SPLINE
  5
347
100
AcDbEntity
  8
0
100
AcDbSpline
 62
7
  6
CONTINUOUS
 70
0
 71
3
 72
11
 73
7
 74
0
 42
0.0000001
 43
0.0000001
 44
0.0000000001
 40
0.0
 40
0.0
 40
0.0
 40
0.0
 40
0.2797475716
 40
0.539913288
 40
0.7800876059
 40
1.0
 40
1.0
 40
1.0
 40
1.0
 10
4.0940136878
 20
5.0467525332
 30
0.0
 10
4.0923489374
 20
5.0463525737
 30
0.0
 10
4.0891442703
 20
5.0455453471
 30
0.0
 10
4.0845458934
 20
5.0442588542
 30
0.0
 10
4.0803380865
 20
5.0429427296
 30
0.0
 10
4.0776815751
 20
5.0420063121
 30
0.0
 10
4.0764226289
 20
5.0415303446
 30
0.0
  0
SPLINE
  5
348
100
AcDbEntity
  8
0
100
AcDbSpline
 62
7
  6
CONTINUOUS
 70
0
 71
3
 72
13
 73
9
 74
0
 42
0.0000001
 43
0.0000001
 44
0.0000000001
 40
0.0
 40
0.0
 40
0.0
 40
0.0
 40
0.3051548456
 40
0.4427192052
 40
0.5707409766
 40
0.6897362307
 40
0.8003855586
 40
1.0
 40
1.0
 40
1.0
 40
1.0
 10
4.0676439444
 20
5.0374435779
 30
0.0
 10
4.0669018346
 20
5.036999773
 30
0.0
 10
4.0658484252
 20
5.036313682
 30
0.0
 10
4.0645715982
 20
5.0353197506
 30
0.0
 10
4.0637550161
 20
5.0345969454
 30
0.0
 10
4.0630462672
 20
5.0338706641
 30
0.0
 10
4.0622727622
 20
5.0329313556
 30
0.0
 10
4.0618101842
 20
5.0321725088
 30
0.0
 10
4.0615824786
 20
5.0316547372
 30
0.0
  0
SPLINE
  5
349
100
AcDbEntity
  8
0
100
AcDbSpline
 62
7
  6
CONTINUOUS
 70
0
 71
3
 72
38
 73
34
 74
0
 42
0.0000001
 43
0.0000001
 44
0.0000000001
 40
0.0
 40
0.0
 40
0.0
 40
0.0
 40
0.094937053
 40
0.189009017
 40
0.2813501404
 40
0.3710951417
 40
0.4573806255
 40
0.5393469217
 40
0.6161525897
 40
0.6524074637
 40
0.6871436479
 40
0.7202980609
 40
0.7518084642
 40
0.7816137471
 40
0.8096543205
 40
0.8358726736
 40
0.8602141816
 40
0.882628314
 40
0.9030705017
 40
0.9215051299
 40
0.937911192
 40
0.9453600198
 40
0.9523176031
 40
0.9587964366
 40
0.964811975
 40
0.9703835057
 40
0.9755352833
 40
0.9802979578
 40
0.9847102756
 40
0.9888208847
 40
0.9926898159
 40
0.9963888731
 40
1.0
 40
1.0
 40
1.0
 40
1.0
 10
4.2751105574
 20
6.3947261041
 30
0.0
 10
4.2658066307
 20
6.3947261041
 30
0.0
 10
4.2472832571
 20
6.3945844941
 30
0.0
 10
4.2197167652
 20
6.3939590581
 30
0.0
 10
4.1926713279
 20
6.3929338482
 30
0.0
 10
4.166407398
 20
6.3915221156
 30
0.0
 10
4.141185199
 20
6.3897370668
 30
0.0
 10
4.1172636651
 20
6.3875933456
 30
0.0
 10
4.0982664096
 20
6.3854770308
 30
0.0
 10
4.0839040064
 20
6.3835996088
 30
0.0
 10
4.0738019748
 20
6.3821416713
 30
0.0
 10
4.0641812402
 20
6.3806108298
 30
0.0
 10
4.0550618524
 20
6.3790113713
 30
0.0
 10
4.0464638474
 20
6.3773475962
 30
0.0
 10
4.0384072139
 20
6.3756238349
 30
0.0
 10
4.0309118799
 20
6.3738444546
 30
0.0
 10
4.023997661
 20
6.3720138609
 30
0.0
 10
4.0176842493
 20
6.370136528
 30
0.0
 10
4.0119909441
 20
6.368216915
 30
0.0
 10
4.0069369427
 20
6.3662596617
 30
0.0
 10
4.0031585134
 20
6.3645489472
 30
0.0
 10
4.0004807497
 20
6.3631517453
 30
0.0
 10
3.9987060625
 20
6.3621307255
 30
0.0
 10
3.9970994495
 20
6.361103175
 30
0.0
 10
3.9956607859
 20
6.3600695714
 30
0.0
 10
3.994389932
 20
6.3590303586
 30
0.0
 10
3.9932867768
 20
6.3579858566
 30
0.0
 10
3.9923512988
 20
6.3569362484
 30
0.0
 10
3.9915836815
 20
6.3558815594
 30
0.0
 10
3.9909844732
 20
6.3548217943
 30
0.0
 10
3.9905547232
 20
6.3537570086
 30
0.0
 10
3.9902959059
 20
6.3526883229
 30
0.0
 10
3.9902380257
 20
6.3519706644
 30
0.0
 10
3.9902380257
 20
6.3516167704
 30
0.0
  0
LINE
  5
34A
100
AcDbEntity
  8
0
100
AcDbLine
 62
7
  6
CONTINUOUS
 10
4.1226703547
 20
5.0248631188
 11
4.123580159
 21
5.0242255387
  0
LINE
  5
34B
100
AcDbEntity
  8
0
100
AcDbLine
 62
7
  6
CONTINUOUS
 10
4.123580159
 20
5.0242255387
 11
4.1257524532
 21
5.0229609421
  0
SPLINE
  5
34C
100
AcDbEntity
  8
0
100
AcDbSpline
 62
7
  6
CONTINUOUS
 70
0
 71
3
 72
9
 73
5
 74
0
 42
0.0000001
 43
0.0000001
 44
0.0000000001
 40
0.0
 40
0.0
 40
0.0
 40
0.0
 40
0.4667056053
 40
1.0
 40
1.0
 40
1.0
 40
1.0
 10
4.0615824786
 20
5.0273576563
 30
0.0
 10
4.0618009757
 20
5.0268608237
 30
0.0
 10
4.0624067216
 20
5.0258554928
 30
0.0
 10
4.0631872223
 20
5.024986303
 30
0.0
 10
4.0636308667
 20
5.024552919
 30
0.0
  0
SPLINE
  5
34D
100
AcDbEntity
  8
0
100
AcDbSpline
 62
7
  6
CONTINUOUS
 70
0
 71
3
 72
11
 73
7
 74
0
 42
0.0000001
 43
0.0000001
 44
0.0000000001
 40
0.0
 40
0.0
 40
0.0
 40
0.0
 40
0.2085503563
 40
0.4450409578
 40
0.7090821177
 40
1.0
 40
1.0
 40
1.0
 40
1.0
 10
4.1288430719
 20
5.0215221573
 30
0.0
 10
4.1300208676
 20
5.0210284745
 30
0.0
 10
4.1325729866
 20
5.0200668554
 30
0.0
 10
4.1367118301
 20
5.0187494263
 30
0.0
 10
4.1413881413
 20
5.0174719486
 30
0.0
 10
4.1446953528
 20
5.0166875986
 30
0.0
 10
4.1464341309
 20
5.0162999687
 30
0.0
  0
SPLINE
  5
34E
100
AcDbEntity
  8
0
100
AcDbSpline
 62
7
  6
CONTINUOUS
 70
0
 71
3
 72
24
 73
20
 74
0
 42
0.0000001
 43
0.0000001
 44
0.0000000001
 40
0.0
 40
0.0
 40
0.0
 40
0.0
 40
0.016698008
 40
0.0346238623
 40
0.0537669574
 40
0.0741115932
 40
0.0956396084
 40
0.1183293001
 40
0.1670926626
 40
0.220181067
 40
0.2773392226
 40
0.3382832473
 40
0.4027039339
 40
0.4702699077
 40
0.5406304492
 40
0.6134178117
 40
0.688249728
 40
0.8424563701
 40
1.0
 40
1.0
 40
1.0
 40
1.0
 10
4.0154337557
 20
6.1737200009
 30
0.0
 10
4.0168026034
 20
6.1742207407
 30
0.0
 10
4.0196590954
 20
6.1752098386
 30
0.0
 10
4.0241369702
 20
6.1766171367
 30
0.0
 10
4.0289548282
 20
6.1779988828
 30
0.0
 10
4.0341061734
 20
6.1793532682
 30
0.0
 10
4.0395841392
 20
6.1806783468
 30
0.0
 10
4.0475058785
 20
6.1824462993
 30
0.0
 10
4.0581725213
 20
6.1845541341
 30
0.0
 10
4.071856849
 20
6.1868836147
 30
0.0
 10
4.0866422981
 20
6.1890566302
 30
0.0
 10
4.1024489632
 20
6.1910610193
 30
0.0
 10
4.1191914562
 20
6.1928854957
 30
0.0
 10
4.1367791459
 20
6.1945198968
 30
0.0
 10
4.1551167779
 20
6.1959551121
 30
0.0
 10
4.1741050142
 20
6.1971832543
 30
0.0
 10
4.2004164357
 20
6.1985489396
 30
0.0
 10
4.2341452132
 20
6.1996822701
 30
0.0
 10
4.2613586492
 20
6.1999829776
 30
0.0
 10
4.2751105574
 20
6.1999829776
 30
0.0
  0
SPLINE
  5
34F
100
AcDbEntity
  8
0
100
AcDbSpline
 62
7
  6
CONTINUOUS
 70
0
 71
3
 72
11
 73
7
 74
0
 42
0.0000001
 43
0.0000001
 44
0.0000000001
 40
0.0
 40
0.0
 40
0.0
 40
0.0
 40
0.2271669492
 40
0.4701443426
 40
0.72807147
 40
1.0
 40
1.0
 40
1.0
 40
1.0
 10
4.1523128371
 20
5.0150760652
 30
0.0
 10
4.1543728993
 20
5.0146749647
 30
0.0
 10
4.1586468403
 20
5.0138979376
 30
0.0
 10
4.165288842
 20
5.0128326357
 30
0.0
 10
4.1723587144
 20
5.0118315762
 30
0.0
 10
4.1772164327
 20
5.011224918
 30
0.0
 10
4.1797115537
 20
5.0109317129
 30
0.0
  0
SPLINE
  5
350
100
AcDbEntity
  8
0
100
AcDbSpline
 62
7
  6
CONTINUOUS
 70
0
 71
3
 72
9
 73
5
 74
0
 42
0.0000001
 43
0.0000001
 44
0.0000000001
 40
0.0
 40
0.0
 40
0.0
 40
0.0
 40
0.4845257464
 40
1.0
 40
1.0
 40
1.0
 40
1.0
 10
4.1878028987
 20
5.0100424949
 30
0.0
 10
4.193366589
 20
5.0094714862
 30
0.0
 10
4.2048661667
 20
5.0084540626
 30
0.0
 10
4.2163859843
 20
5.0077059646
 30
0.0
 10
4.2223272957
 20
5.0073816569
 30
0.0
  0
SPLINE
  5
351
100
AcDbEntity
  8
0
100
AcDbSpline
 62
7
  6
CONTINUOUS
 70
0
 71
3
 72
13
 73
9
 74
0
 42
0.0000001
 43
0.0000001
 44
0.0000000001
 40
0.0
 40
0.0
 40
0.0
 40
0.0
 40
0.1255591325
 40
0.2510075964
 40
0.3762934255
 40
0.5014294692
 40
0.7509706181
 40
1.0
 40
1.0
 40
1.0
 40
1.0
 10
5.7767818928
 20
3.0296319247
 30
0.0
 10
5.7778242318
 20
3.0285022957
 30
0.0
 10
5.7797966564
 20
3.0261384153
 30
0.0
 10
5.7823918601
 20
3.022324354
 30
0.0
 10
5.7846066445
 20
3.0182828574
 30
0.0
 10
5.7870327148
 20
3.0126554948
 30
0.0
 10
5.7890685561
 20
3.0052506431
 30
0.0
 10
5.789610522
 20
2.9991342325
 30
0.0
 10
5.7896105574
 20
2.9960856977
 30
0.0
  0
SPLINE
  5
352
100
AcDbEntity
  8
0
100
AcDbSpline
 62
7
  6
CONTINUOUS
 70
0
 71
3
 72
13
 73
9
 74
0
 42
0.0000001
 43
0.0000001
 44
0.0000000001
 40
0.0
 40
0.0
 40
0.0
 40
0.0
 40
0.1253643261
 40
0.2506108019
 40
0.3757595932
 40
0.5008313768
 40
0.7505164686
 40
1.0
 40
1.0
 40
1.0
 40
1.0
 10
5.7778296249
 20
2.5004766255
 30
0.0
 10
5.7787334104
 20
2.5014769456
 30
0.0
 10
5.7804446981
 20
2.5035651477
 30
0.0
 10
5.7827061222
 20
2.5069203441
 30
0.0
 10
5.7846543233
 20
2.5104632635
 30
0.0
 10
5.786825771
 20
2.5153873497
 30
0.0
 10
5.7887426282
 20
2.5218545358
 30
0.0
 10
5.7894218359
 20
2.5272053124
 30
0.0
 10
5.7895509246
 20
2.5298850859
 30
0.0
  0
SPLINE
  5
353
100
AcDbEntity
  8
0
100
AcDbSpline
 62
7
  6
CONTINUOUS
 70
0
 71
3
 72
9
 73
5
 74
0
 42
0.0000001
 43
0.0000001
 44
0.0000000001
 40
0.0
 40
0.0
 40
0.0
 40
0.0
 40
0.5154742536
 40
1.0
 40
1.0
 40
1.0
 40
1.0
 10
4.327893819
 20
5.0073816569
 30
0.0
 10
4.3338351304
 20
5.0077059646
 30
0.0
 10
4.345354948
 20
5.0084540626
 30
0.0
 10
4.3568545257
 20
5.0094714862
 30
0.0
 10
4.362418216
 20
5.0100424949
 30
0.0
  0
SPLINE
  5
354
100
AcDbEntity
  8
0
100
AcDbSpline
 62
7
  6
CONTINUOUS
 70
0
 71
3
 72
58
 73
54
 74
0
 42
0.0000001
 43
0.0000001
 44
0.0000000001
 40
0.0
 40
0.0
 40
0.0
 40
0.0
 40
0.0043625035
 40
0.0068001329
 40
0.009425332
 40
0.0122480761
 40
0.0152758256
 40
0.0219662129
 40
0.0295285207
 40
0.0379766759
 40
0.0473147358
 40
0.057538552
 40
0.0686388282
 40
0.0806011721
 40
0.0934079176
 40
0.1070377491
 40
0.1214669073
 40
0.1366688065
 40
0.1692733509
 40
0.2045984835
 40
0.2423619063
 40
0.2822570661
 40
0.3239568648
 40
0.3671171752
 40
0.4113802838
 40
0.4563783149
 40
0.5017366614
 40
0.5470774272
 40
0.5920228763
 40
0.6361988823
 40
0.6792383696
 40
0.7207847429
 40
0.760495312
 40
0.798044738
 40
0.8331285611
 40
0.8654669381
 40
0.8805273663
 40
0.8948098776
 40
0.9082885004
 40
0.9209398058
 40
0.9327432098
 40
0.9436815335
 40
0.9537413222
 40
0.9629140879
 40
0.9711970692
 40
0.978595882
 40
0.9819689038
 40
0.9851284401
 40
0.9880792509
 40
0.9908275759
 40
0.9933817512
 40
0.9957527646
 40
1.0
 40
1.0
 40
1.0
 40
1.0
 10
3.9858406149
 20
6.1534823431
 30
0.0
 10
3.9863058633
 20
6.1542052769
 30
0.0
 10
3.9871623822
 20
6.1552494651
 30
0.0
 10
3.9884998452
 20
6.156538821
 30
0.0
 10
3.9896924022
 20
6.1575373529
 30
0.0
 10
3.9910360889
 20
6.1585308109
 30
0.0
 10
3.9930984152
 20
6.1598943867
 30
0.0
 10
3.996067272
 20
6.1615709879
 30
0.0
 10
4.0001085817
 20
6.1634954686
 30
0.0
 10
4.0047326136
 20
6.1653909937
 30
0.0
 10
4.0099303837
 20
6.1672533284
 30
0.0
 10
4.0156917978
 20
6.1690786645
 30
0.0
 10
4.0220051118
 20
6.170862733
 30
0.0
 10
4.0288572577
 20
6.1726017687
 30
0.0
 10
4.0362338809
 20
6.1742917661
 30
0.0
 10
4.0441194448
 20
6.175929125
 30
0.0
 10
4.0524972565
 20
6.1775102004
 30
0.0
 10
4.0645850852
 20
6.1795873702
 30
0.0
 10
4.080791609
 20
6.1819971233
 30
0.0
 10
4.1014644739
 20
6.1845529192
 30
0.0
 10
4.1236163156
 20
6.1868128238
 30
0.0
 10
4.1470586235
 20
6.1887569694
 30
0.0
 10
4.1715919686
 20
6.190368123
 30
0.0
 10
4.1970074127
 20
6.191632146
 30
0.0
 10
4.2230884454
 20
6.1925379627
 30
0.0
 10
4.2496128279
 20
6.1930776592
 30
0.0
 10
4.2763545168
 20
6.1932465254
 30
0.0
 10
4.3030856037
 20
6.193043089
 30
0.0
 10
4.3295782709
 20
6.1924691239
 30
0.0
 10
4.3556067472
 20
6.1915296397
 30
0.0
 10
4.3809492455
 20
6.1902328458
 30
0.0
 10
4.4053898831
 20
6.1885901081
 30
0.0
 10
4.4287205207
 20
6.1866158478
 30
0.0
 10
4.4507426988
 20
6.1843275741
 30
0.0
 10
4.4712690297
 20
6.181745421
 30
0.0
 10
4.4873430906
 20
6.1793142948
 30
0.0
 10
4.4993172444
 20
6.1772208036
 30
0.0
 10
4.5076048909
 20
6.1756289786
 30
0.0
 10
4.5153970986
 20
6.1739815774
 30
0.0
 10
4.5226773953
 20
6.1722821685
 30
0.0
 10
4.5294304486
 20
6.1705344796
 30
0.0
 10
4.5356421544
 20
6.168742432
 30
0.0
 10
4.5412996395
 20
6.1669099151
 30
0.0
 10
4.5463915853
 20
6.1650411111
 30
0.0
 10
4.5509076782
 20
6.16313989
 30
0.0
 10
4.5542817232
 20
6.1614847632
 30
0.0
 10
4.5566745311
 20
6.1601373912
 30
0.0
 10
4.5582634887
 20
6.1591524256
 30
0.0
 10
4.5597021204
 20
6.1581620998
 30
0.0
 10
4.5609895914
 20
6.1571668556
 30
0.0
 10
4.5621257166
 20
6.1561665641
 30
0.0
 10
4.5633907281
 20
6.1548748658
 30
0.0
 10
4.5641882515
 20
6.1538286113
 30
0.0
 10
4.5646115663
 20
6.1531065636
 30
0.0
  0
LINE
  5
355
100
AcDbEntity
  8
0
100
AcDbLine
 62
7
  6
CONTINUOUS
 10
4.3217942424
 20
5.0557797574
 11
4.3221277082
 21
5.0556755862
  0
SPLINE
  5
356
100
AcDbEntity
  8
0
100
AcDbSpline
 62
7
  6
CONTINUOUS
 70
0
 71
3
 72
11
 73
7
 74
0
 42
0.0000001
 43
0.0000001
 44
0.0000000001
 40
0.0
 40
0.0
 40
0.0
 40
0.0
 40
0.27192853
 40
0.5298556574
 40
0.7728330508
 40
1.0
 40
1.0
 40
1.0
 40
1.0
 10
4.370509561
 20
5.0109317129
 30
0.0
 10
4.373004682
 20
5.011224918
 30
0.0
 10
4.3778624003
 20
5.0118315762
 30
0.0
 10
4.3849322727
 20
5.0128326357
 30
0.0
 10
4.3915742744
 20
5.0138979376
 30
0.0
 10
4.3958482154
 20
5.0146749647
 30
0.0
 10
4.3979082776
 20
5.0150760652
 30
0.0
  0
SPLINE
  5
357
100
AcDbEntity
  8
0
100
AcDbSpline
 62
7
  6
CONTINUOUS
 70
0
 71
3
 72
38
 73
34
 74
0
 42
0.0000001
 43
0.0000001
 44
0.0000000001
 40
0.0
 40
0.0
 40
0.0
 40
0.0
 40
0.0036091222
 40
0.0073093196
 40
0.0111849564
 40
0.0153093544
 40
0.0197431093
 40
0.0245341537
 40
0.0297197422
 40
0.0353286398
 40
0.0413828152
 40
0.0478983763
 40
0.0548872685
 40
0.0623583939
 40
0.0787681894
 40
0.0971551131
 40
0.117521578
 40
0.1398514455
 40
0.1641172449
 40
0.190279624
 40
0.2182921508
 40
0.2480995033
 40
0.2796412779
 40
0.3128498247
 40
0.3476535232
 40
0.3839746131
 40
0.4608384326
 40
0.5427425866
 40
0.6289312792
 40
0.7186027393
 40
0.8109184649
 40
0.9050123806
 40
1.0
 40
1.0
 40
1.0
 40
1.0
 10
3.9941105574
 20
6.1662741666
 30
0.0
 10
3.9941105574
 20
6.1666230125
 30
0.0
 10
3.9941687364
 20
6.1673307833
 30
0.0
 10
3.9944285817
 20
6.1683843964
 30
0.0
 10
3.9948596347
 20
6.1694339959
 30
0.0
 10
3.9954601416
 20
6.1704785156
 30
0.0
 10
3.9962287597
 20
6.1715179194
 30
0.0
 10
3.997164363
 20
6.1725523429
 30
0.0
 10
3.9982662117
 20
6.1735818306
 30
0.0
 10
3.9995337395
 20
6.1746062218
 30
0.0
 10
4.0009663723
 20
6.175625165
 30
0.0
 10
4.0025633289
 20
6.1766383155
 30
0.0
 10
4.0043237525
 20
6.1776452463
 30
0.0
 10
4.0069716019
 20
6.1790221004
 30
0.0
 10
4.0106953634
 20
6.1807100823
 30
0.0
 10
4.0156661024
 20
6.1826443271
 30
0.0
 10
4.0212590967
 20
6.1845406541
 30
0.0
 10
4.0274614231
 20
6.1863947041
 30
0.0
 10
4.034258885
 20
6.1882015074
 30
0.0
 10
4.0416354892
 20
6.1899567901
 30
0.0
 10
4.0495737439
 20
6.1916559157
 30
0.0
 10
4.0580547417
 20
6.1932948781
 30
0.0
 10
4.067058166
 20
6.1948694069
 30
0.0
 10
4.0765624594
 20
6.1963758013
 30
0.0
 10
4.0865447729
 20
6.1978102165
 30
0.0
 10
4.100729474
 20
6.1996571787
 30
0.0
 10
4.11947209
 20
6.2017444885
 30
0.0
 10
4.1430547474
 20
6.2038692147
 30
0.0
 10
4.1679079666
 20
6.2056371037
 30
0.0
 10
4.193792664
 20
6.2070306801
 30
0.0
 10
4.2204599239
 20
6.2080360548
 30
0.0
 10
4.2476530677
 20
6.2086432846
 30
0.0
 10
4.2659293651
 20
6.2087784571
 30
0.0
 10
4.2751105574
 20
6.2087784571
 30
0.0
  0
SPLINE
  5
358
100
AcDbEntity
  8
0
100
AcDbSpline
 62
7
  6
CONTINUOUS
 70
0
 71
3
 72
11
 73
7
 74
0
 42
0.0000001
 43
0.0000001
 44
0.0000000001
 40
0.0
 40
0.0
 40
0.0
 40
0.0
 40
0.2909178823
 40
0.5549590422
 40
0.7914496437
 40
1.0
 40
1.0
 40
1.0
 40
1.0
 10
4.4037869838
 20
5.0162999687
 30
0.0
 10
4.4055257619
 20
5.0166875986
 30
0.0
 10
4.4088329734
 20
5.0174719486
 30
0.0
 10
4.4135092846
 20
5.0187494263
 30
0.0
 10
4.4176481281
 20
5.0200668554
 30
0.0
 10
4.4202002471
 20
5.0210284745
 30
0.0
 10
4.4213780428
 20
5.0215221573
 30
0.0
  0
SPLINE
  5
359
100
AcDbEntity
  8
0
100
AcDbSpline
 62
7
  6
CONTINUOUS
 70
0
 71
3
 72
61
 73
57
 74
0
 42
0.0000001
 43
0.0000001
 44
0.0000000001
 40
0.0
 40
0.0
 40
0.0
 40
0.0
 40
0.0042572761
 40
0.0066346931
 40
0.0091963309
 40
0.0119532276
 40
0.0149137003
 40
0.018084038
 40
0.0214690495
 40
0.0288953314
 40
0.0372103433
 40
0.046419708
 40
0.0565203675
 40
0.0675038238
 40
0.0793562087
 40
0.0920603374
 40
0.1055951124
 40
0.1199371072
 40
0.1350597538
 40
0.1509346896
 40
0.1675308987
 40
0.2027543444
 40
0.2404481334
 40
0.2803047581
 40
0.3219957105
 40
0.3651750544
 40
0.4094829178
 40
0.454548965
 40
0.4999958738
 40
0.5454428244
 40
0.5905089969
 40
0.6348170678
 40
0.6779966996
 40
0.7196880174
 40
0.7595450818
 40
0.7972393804
 40
0.8324634007
 40
0.8490599196
 40
0.8649351793
 40
0.8800581627
 40
0.8944005065
 40
0.9079356414
 40
0.9206401399
 40
0.9324929029
 40
0.9434767443
 40
0.9535777939
 40
0.9627875512
 40
0.9711029555
 40
0.9785296252
 40
0.9819148271
 40
0.9850853515
 40
0.988046006
 40
0.9908030783
 40
0.9933648831
 40
0.9957424563
 40
1.0
 40
1.0
 40
1.0
 40
1.0
 10
3.9468040631
 20
6.0869266657
 30
0.0
 10
3.9472856509
 20
6.0877480245
 30
0.0
 10
3.9481935052
 20
6.0889380478
 30
0.0
 10
3.9496337872
 20
6.0904069222
 30
0.0
 10
3.9509277672
 20
6.0915445212
 30
0.0
 10
3.9523943643
 20
6.092676349
 30
0.0
 10
3.9540333402
 20
6.0938025784
 30
0.0
 10
3.9558437602
 20
6.0949226809
 30
0.0
 10
3.9585704677
 20
6.0964549306
 30
0.0
 10
3.9624156395
 20
6.0983370056
 30
0.0
 10
3.9675625276
 20
6.1004987057
 30
0.0
 10
3.9733660421
 20
6.1026233058
 30
0.0
 10
3.9798143492
 20
6.1047064918
 30
0.0
 10
3.9868944726
 20
6.1067433444
 30
0.0
 10
3.9945916538
 20
6.1087295706
 30
0.0
 10
4.0028897122
 20
6.1106605185
 30
0.0
 10
4.0117710861
 20
6.1125321198
 30
0.0
 10
4.0212168669
 20
6.1143400431
 30
0.0
 10
4.0312069336
 20
6.1160804872
 30
0.0
 10
4.0417199186
 20
6.1177495127
 30
0.0
 10
4.0567039897
 20
6.1199180652
 30
0.0
 10
4.0765704966
 20
6.1224051348
 30
0.0
 10
4.1016601752
 20
6.1249981212
 30
0.0
 10
4.1282360686
 20
6.1272321396
 30
0.0
 10
4.1560705436
 20
6.1290875226
 30
0.0
 10
4.1849252581
 20
6.1305478118
 30
0.0
 10
4.2145529642
 20
6.1316001552
 30
0.0
 10
4.2446997496
 20
6.1322352972
 30
0.0
 10
4.2751072132
 20
6.1324476634
 30
0.0
 10
4.3055147055
 20
6.1322353904
 30
0.0
 10
4.3356615766
 20
6.1316003408
 30
0.0
 10
4.3652894249
 20
6.1305480882
 30
0.0
 10
4.3941443365
 20
6.1290878873
 30
0.0
 10
4.4219790622
 20
6.1272325894
 30
0.0
 10
4.4485552574
 20
6.1249986521
 30
0.0
 10
4.4736452865
 20
6.122405742
 30
0.0
 10
4.4935121153
 20
6.1199187345
 30
0.0
 10
4.5084964663
 20
6.1177502296
 30
0.0
 10
4.5190096762
 20
6.1160812364
 30
0.0
 10
4.5289999773
 20
6.1143408228
 30
0.0
 10
4.5384460017
 20
6.1125329282
 30
0.0
 10
4.5473276278
 20
6.110661354
 30
0.0
 10
4.5556259464
 20
6.1087304312
 30
0.0
 10
4.5633233952
 20
6.1067442283
 30
0.0
 10
4.570403793
 20
6.1047073971
 30
0.0
 10
4.5768523807
 20
6.1026242303
 30
0.0
 10
4.582656181
 20
6.1004996475
 30
0.0
 10
4.5878033598
 20
6.0983379626
 30
0.0
 10
4.5916487793
 20
6.0964559013
 30
0.0
 10
4.5943756887
 20
6.0949236621
 30
0.0
 10
4.596186259
 20
6.0938035653
 30
0.0
 10
4.597825386
 20
6.092677341
 30
0.0
 10
4.5992921348
 20
6.091545518
 30
0.0
 10
4.600586267
 20
6.0904079237
 30
0.0
 10
4.6020267442
 20
6.0889390559
 30
0.0
 10
4.602934758
 20
6.0877490381
 30
0.0
 10
4.603416459
 20
6.0869276764
 30
0.0
  0
SPLINE
  5
35A
100
AcDbEntity
  8
0
100
AcDbSpline
 62
7
  6
CONTINUOUS
 70
0
 71
3
 72
134
 73
130
 74
0
 42
0.0000001
 43
0.0000001
 44
0.0000000001
 40
0.0
 40
0.0
 40
0.0
 40
0.0
 40
0.0000036371
 40
0.0000141795
 40
0.000031622
 40
0.0000559593
 40
0.0000871862
 40
0.0001252972
 40
0.0002221504
 40
0.0003464763
 40
0.0004982319
 40
0.0006773746
 40
0.0008838616
 40
0.0011176502
 40
0.0013786975
 40
0.0019823964
 40
0.0026944354
 40
0.0035138868
 40
0.004439768
 40
0.0054710963
 40
0.0066068891
 40
0.0078461625
 40
0.0106302578
 40
0.0138118549
 40
0.0173789579
 40
0.0213191982
 40
0.0256188199
 40
0.0302637457
 40
0.0352398984
 40
0.040533202
 40
0.0520149636
 40
0.0645983432
 40
0.078177642
 40
0.0926532537
 40
0.1079352575
 40
0.1239399872
 40
0.1405944767
 40
0.1578297385
 40
0.1755875146
 40
0.2124572343
 40
0.2314789466
 40
0.2508383888
 40
0.2705021438
 40
0.2904391759
 40
0.3005015818
 40
0.3106223043
 40
0.3207982793
 40
0.3310265967
 40
0.3413047004
 40
0.3516301768
 40
0.3724126565
 40
0.3828665459
 40
0.3933585334
 40
0.4038876401
 40
0.4144519764
 40
0.4250500904
 40
0.4356814409
 40
0.4463414519
 40
0.4570312276
 40
0.4677457723
 40
0.4731132993
 40
0.4784847035
 40
0.4838594237
 40
0.4892378886
 40
0.4999977049
 40
0.5053797421
 40
0.5107606538
 40
0.5161389519
 40
0.5215137528
 40
0.526885492
 40
0.5322530867
 40
0.5429675536
 40
0.5536575115
 40
0.5643176567
 40
0.574949269
 40
0.5855472658
 40
0.5961117764
 40
0.606640876
 40
0.6171329209
 40
0.627586819
 40
0.6483693166
 40
0.6586948685
 40
0.6689730145
 40
0.679201372
 40
0.6893773782
 40
0.6994981179
 40
0.7095605378
 40
0.7294976108
 40
0.749161419
 40
0.7685209197
 40
0.7875426953
 40
0.8244124748
 40
0.8421702598
 40
0.8594055227
 40
0.8760600123
 40
0.8920647418
 40
0.9073467441
 40
0.9218223566
 40
0.9354016621
 40
0.9479850416
 40
0.9594667808
 40
0.9647600736
 40
0.9697362242
 40
0.9743811586
 40
0.9786807937
 40
0.9826210448
 40
0.9861881508
 40
0.9893697457
 40
0.9921538381
 40
0.993393111
 40
0.9945289043
 40
0.9955602336
 40
0.996486116
 40
0.9973055685
 40
0.998017608
 40
0.9986213068
 40
0.9988823538
 40
0.9991161419
 40
0.9993226283
 40
0.9995017705
 40
0.9996535256
 40
0.9997778508
 40
0.9998747036
 40
0.9999128144
 40
0.9999440411
 40
0.9999683783
 40
0.9999858206
 40
0.9999963629
 40
1.0
 40
1.0
 40
1.0
 40
1.0
 10
4.8001105574
 20
3.2141167704
 30
0.0
 10
4.8001092476
 20
3.2141161989
 30
0.0
 10
4.8001057208
 20
3.2141115288
 30
0.0
 10
4.8000961062
 20
3.2141038905
 30
0.0
 10
4.8000814063
 20
3.2140893604
 30
0.0
 10
4.8000603622
 20
3.2140699358
 30
0.0
 10
4.8000335965
 20
3.2140446477
 30
0.0
 10
4.7999860145
 20
3.2139999451
 30
0.0
 10
4.7999118651
 20
3.2139300795
 30
0.0
 10
4.7998052253
 20
3.2138295987
 30
0.0
 10
4.7996751025
 20
3.2137068904
 30
0.0
 10
4.7995215259
 20
3.2135620038
 30
0.0
 10
4.799344542
 20
3.2133949605
 30
0.0
 10
4.7991441915
 20
3.213205792
 30
0.0
 10
4.7988304194
 20
3.2129094279
 30
0.0
 10
4.7983801568
 20
3.2124839232
 30
0.0
 10
4.7977706002
 20
3.2119075581
 30
0.0
 10
4.7970691892
 20
3.2112440946
 30
0.0
 10
4.796276742
 20
3.2104943218
 30
0.0
 10
4.7953940892
 20
3.2096590473
 30
0.0
 10
4.7944220632
 20
3.2087390769
 30
0.0
 10
4.7929499354
 20
3.2073456747
 30
0.0
 10
4.7908941736
 20
3.2053996078
 30
0.0
 10
4.7881747137
 20
3.2028242732
 30
0.0
 10
4.7851261778
 20
3.1999358163
 30
0.0
 10
4.7817597724
 20
3.196744186
 30
0.0
 10
4.7780874436
 20
3.1932597402
 30
0.0
 10
4.7741216158
 20
3.1894933087
 30
0.0
 10
4.7698748201
 20
3.1854557929
 30
0.0
 10
4.7636845178
 20
3.1795640429
 30
0.0
 10
4.7553361365
 20
3.1716044723
 30
0.0
 10
4.744644287
 20
3.1613850799
 30
0.0
 10
4.7331192902
 20
3.1503350008
 30
0.0
 10
4.7208504707
 20
3.1385287376
 30
0.0
 10
4.7079211927
 20
3.1260345527
 30
0.0
 10
4.6944077518
 20
3.1129130199
 30
0.0
 10
4.6803822811
 20
3.0992172893
 30
0.0
 10
4.6659095007
 20
3.0849939032
 30
0.0
 10
4.6458479861
 20
3.0651263763
 30
0.0
 10
4.6254221281
 20
3.044629305
 30
0.0
 10
4.6047450574
 20
3.0234965592
 30
0.0
 10
4.5889144462
 20
3.0070803337
 30
0.0
 10
4.5729843605
 20
2.9902616247
 30
0.0
 10
4.5597175177
 20
2.9759527835
 30
0.0
 10
4.5491178754
 20
2.9642856578
 30
0.0
 10
4.5411628626
 20
2.9553977316
 30
0.0
 10
4.5332389477
 20
2.9463949935
 30
0.0
 10
4.5253611617
 20
2.9372699705
 30
0.0
 10
4.5175438181
 20
2.9280159498
 30
0.0
 10
4.5072000842
 20
2.9154695655
 30
0.0
 10
4.497078073
 20
2.9026514977
 30
0.0
 10
4.4872695049
 20
2.8895132888
 30
0.0
 10
4.4800893636
 20
2.8794435298
 30
0.0
 10
4.4731412178
 20
2.8691594813
 30
0.0
 10
4.4664782578
 20
2.8586382491
 30
0.0
 10
4.4601669293
 20
2.8478549842
 30
0.0
 10
4.4542795481
 20
2.8367905006
 30
0.0
 10
4.4489343827
 20
2.8254119995
 30
0.0
 10
4.4442546718
 20
2.8137068816
 30
0.0
 10
4.4410216182
 20
2.8036866229
 30
0.0
 10
4.4389060218
 20
2.7955254269
 30
0.0
 10
4.4375741714
 20
2.7893341369
 30
0.0
 10
4.4365193849
 20
2.7830848652
 30
0.0
 10
4.4355080713
 20
2.7746909103
 30
0.0
 10
4.435096295
 20
2.7662301068
 30
0.0
 10
4.4353015159
 20
2.75777393
 30
0.0
 10
4.4357596125
 20
2.7514461324
 30
0.0
 10
4.4365190821
 20
2.7451504444
 30
0.0
 10
4.4375752418
 20
2.7389014849
 30
0.0
 10
4.4389067695
 20
2.7327099092
 30
0.0
 10
4.441021237
 20
2.724548302
 30
0.0
 10
4.4442534607
 20
2.7145276719
 30
0.0
 10
4.4489333177
 20
2.7028224838
 30
0.0
 10
4.4542794907
 20
2.6914442104
 30
0.0
 10
4.4601667124
 20
2.6803795382
 30
0.0
 10
4.4664779982
 20
2.6695960782
 30
0.0
 10
4.4731422646
 20
2.6590756554
 30
0.0
 10
4.4800898426
 20
2.6487911358
 30
0.0
 10
4.4872693304
 20
2.6387208822
 30
0.0
 10
4.497076486
 20
2.6255815762
 30
0.0
 10
4.5071988121
 20
2.6127636698
 30
0.0
 10
4.5175432968
 20
2.6002178408
 30
0.0
 10
4.5253608327
 20
2.5909639018
 30
0.0
 10
4.533238858
 20
2.5818390264
 30
0.0
 10
4.5411628594
 20
2.5728363194
 30
0.0
 10
4.5491177767
 20
2.563948275
 30
0.0
 10
4.559717407
 20
2.5522810996
 30
0.0
 10
4.5729842107
 20
2.5379721649
 30
0.0
 10
4.5889142392
 20
2.5211533185
 30
0.0
 10
4.6047449406
 20
2.5047370842
 30
0.0
 10
4.6254220375
 20
2.4836042645
 30
0.0
 10
4.6458479495
 20
2.4631071735
 30
0.0
 10
4.6659094901
 20
2.4432396339
 30
0.0
 10
4.680382279
 20
2.4290162506
 30
0.0
 10
4.6944077518
 20
2.4153205218
 30
0.0
 10
4.7079211918
 20
2.4021989889
 30
0.0
 10
4.7208504671
 20
2.3897048017
 30
0.0
 10
4.7331192877
 20
2.3778985363
 30
0.0
 10
4.7446442966
 20
2.3668484656
 30
0.0
 10
4.7553361484
 20
2.3566290846
 30
0.0
 10
4.7636844965
 20
2.3486694983
 30
0.0
 10
4.769874772
 20
2.34277774
 30
0.0
 10
4.7741215628
 20
2.3387402216
 30
0.0
 10
4.7780874051
 20
2.3349737939
 30
0.0
 10
4.7817597567
 20
2.3314893534
 30
0.0
 10
4.7851261816
 20
2.3282977281
 30
0.0
 10
4.7881747235
 20
2.325409271
 30
0.0
 10
4.7908941802
 20
2.3228339343
 30
0.0
 10
4.7929499373
 20
2.3208878656
 30
0.0
 10
4.7944220634
 20
2.3194944634
 30
0.0
 10
4.79539409
 20
2.3185744931
 30
0.0
 10
4.7962767444
 20
2.3177392186
 30
0.0
 10
4.7970691936
 20
2.316989446
 30
0.0
 10
4.7977706063
 20
2.3163259828
 30
0.0
 10
4.798380164
 20
2.3157496179
 30
0.0
 10
4.7988304266
 20
2.3153241132
 30
0.0
 10
4.799144198
 20
2.3150277489
 30
0.0
 10
4.7993445479
 20
2.3148385804
 30
0.0
 10
4.7995215308
 20
2.3146715371
 30
0.0
 10
4.7996751065
 20
2.3145266505
 30
0.0
 10
4.7998052284
 20
2.3144039421
 30
0.0
 10
4.7999118673
 20
2.3143034613
 30
0.0
 10
4.799986016
 20
2.3142335957
 30
0.0
 10
4.8000335974
 20
2.314188893
 30
0.0
 10
4.8000603629
 20
2.314163605
 30
0.0
 10
4.8000814067
 20
2.3141441803
 30
0.0
 10
4.8000961064
 20
2.3141296503
 30
0.0
 10
4.8001057209
 20
2.3141220119
 30
0.0
 10
4.8001092476
 20
2.3141173418
 30
0.0
 10
4.8001105574
 20
2.3141167704
 30
0.0
  0
SPLINE
  5
35B
100
AcDbEntity
  8
0
100
AcDbSpline
 62
7
  6
CONTINUOUS
 70
0
 71
3
 72
38
 73
34
 74
0
 42
0.0000001
 43
0.0000001
 44
0.0000000001
 40
0.0
 40
0.0
 40
0.0
 40
0.0
 40
0.0036111269
 40
0.0073101841
 40
0.0111791153
 40
0.0152897244
 40
0.0197020422
 40
0.0244647167
 40
0.0296164943
 40
0.035188025
 40
0.0412035634
 40
0.0476823969
 40
0.0546399802
 40
0.062088808
 40
0.0784948701
 40
0.0969294983
 40
0.117371686
 40
0.1397858184
 40
0.1641273264
 40
0.1903456795
 40
0.2183862529
 40
0.2481915358
 40
0.2797019391
 40
0.3128563521
 40
0.3475925363
 40
0.3838474103
 40
0.4606530783
 40
0.5426193745
 40
0.6289048583
 40
0.7186498596
 40
0.810990983
 40
0.905062947
 40
1.0
 40
1.0
 40
1.0
 40
1.0
 10
4.559983089
 20
6.1662741666
 30
0.0
 10
4.559983089
 20
6.1666280607
 30
0.0
 10
4.5599252088
 20
6.1673457191
 30
0.0
 10
4.5596663916
 20
6.1684144049
 30
0.0
 10
4.5592366415
 20
6.1694791906
 30
0.0
 10
4.5586374332
 20
6.1705389557
 30
0.0
 10
4.5578698159
 20
6.1715936447
 30
0.0
 10
4.5569343379
 20
6.1726432528
 30
0.0
 10
4.5558311827
 20
6.1736877548
 30
0.0
 10
4.5545603288
 20
6.1747269676
 30
0.0
 10
4.5531216652
 20
6.1757605713
 30
0.0
 10
4.5515150522
 20
6.1767881218
 30
0.0
 10
4.549740365
 20
6.1778091415
 30
0.0
 10
4.5470626013
 20
6.1792063435
 30
0.0
 10
4.543284172
 20
6.1809170579
 30
0.0
 10
4.5382301706
 20
6.1828743112
 30
0.0
 10
4.5325368654
 20
6.1847939242
 30
0.0
 10
4.5262234537
 20
6.1866712571
 30
0.0
 10
4.5193092348
 20
6.1885018509
 30
0.0
 10
4.5118139009
 20
6.1902812312
 30
0.0
 10
4.5037572673
 20
6.1920049925
 30
0.0
 10
4.4951592623
 20
6.1936687675
 30
0.0
 10
4.4860398745
 20
6.1952682261
 30
0.0
 10
4.4764191399
 20
6.1967990675
 30
0.0
 10
4.4663171083
 20
6.198257005
 30
0.0
 10
4.4519547051
 20
6.200134427
 30
0.0
 10
4.4329574496
 20
6.2022507418
 30
0.0
 10
4.4090359158
 20
6.204394463
 30
0.0
 10
4.3838137167
 20
6.2061795118
 30
0.0
 10
4.3575497868
 20
6.2075912444
 30
0.0
 10
4.3305043495
 20
6.2086164544
 30
0.0
 10
4.3029378576
 20
6.2092418903
 30
0.0
 10
4.284414484
 20
6.2093835004
 30
0.0
 10
4.2751105574
 20
6.2093835004
 30
0.0
  0
LINE
  5
35C
100
AcDbEntity
  8
0
100
AcDbLine
 62
7
  6
CONTINUOUS
 10
4.4244686615
 20
5.0229609421
 11
4.42755076
 21
5.0248631188
  0
SPLINE
  5
35D
100
AcDbEntity
  8
0
100
AcDbSpline
 62
7
  6
CONTINUOUS
 70
0
 71
3
 72
23
 73
19
 74
0
 42
0.0000001
 43
0.0000001
 44
0.0000000001
 40
0.0
 40
0.0
 40
0.0
 40
0.0
 40
0.0621396101
 40
0.1242930987
 40
0.1864738414
 40
0.2486941699
 40
0.3109648646
 40
0.3732947106
 40
0.4356901743
 40
0.4981552209
 40
0.5606911491
 40
0.6232965783
 40
0.6859673776
 40
0.7486967819
 40
0.8114768797
 40
0.8742934002
 40
0.9371434826
 40
1.0
 40
1.0
 40
1.0
 40
1.0
 10
4.3736105574
 20
5.6115502766
 30
0.0
 10
4.3736105574
 20
5.6083651498
 30
0.0
 10
4.373293743
 20
5.6019896561
 30
0.0
 10
4.3718727744
 20
5.592522551
 30
0.0
 10
4.3695197838
 20
5.5832378378
 30
0.0
 10
4.3662574761
 20
5.5742262053
 30
0.0
 10
4.3621173035
 20
5.5655741393
 30
0.0
 10
4.3571391453
 20
5.5573650995
 30
0.0
 10
4.3513710331
 20
5.5496781141
 30
0.0
 10
4.3448686136
 20
5.5425871691
 30
0.0
 10
4.3376945618
 20
5.5361604973
 30
0.0
 10
4.3299179837
 20
5.5304599454
 30
0.0
 10
4.3216137733
 20
5.5255404088
 30
0.0
 10
4.3128618686
 20
5.5214491492
 30
0.0
 10
4.3037467223
 20
5.5182257075
 30
0.0
 10
4.2943555637
 20
5.5159005078
 30
0.0
 10
4.2847802139
 20
5.5144967312
 30
0.0
 10
4.278332431
 20
5.5141836287
 30
0.0
 10
4.2751105574
 20
5.5141836287
 30
0.0
  0
LINE
  5
35E
100
AcDbEntity
  8
0
100
AcDbLine
 62
7
  6
CONTINUOUS
 10
4.2629955015
 20
5.0574776174
 11
4.2648881883
 21
5.0568550655
  0
LINE
  5
35F
100
AcDbEntity
  8
0
100
AcDbLine
 62
7
  6
CONTINUOUS
 10
4.2653422935
 20
5.0567635011
 11
4.2663639955
 21
5.0565924485
  0
SPLINE
  5
360
100
AcDbEntity
  8
0
100
AcDbSpline
 62
7
  6
CONTINUOUS
 70
0
 71
3
 72
38
 73
34
 74
0
 42
0.0000001
 43
0.0000001
 44
0.0000000001
 40
0.0
 40
0.0
 40
0.0
 40
0.0
 40
0.0036111269
 40
0.0073101841
 40
0.0111791153
 40
0.0152897244
 40
0.0197020422
 40
0.0244647167
 40
0.0296164943
 40
0.035188025
 40
0.0412035634
 40
0.0476823969
 40
0.0546399802
 40
0.062088808
 40
0.0784948701
 40
0.0969294983
 40
0.117371686
 40
0.1397858184
 40
0.1641273264
 40
0.1903456795
 40
0.2183862529
 40
0.2481915358
 40
0.2797019391
 40
0.3128563521
 40
0.3475925363
 40
0.3838474103
 40
0.4606530783
 40
0.5426193745
 40
0.6289048583
 40
0.7186498596
 40
0.810990983
 40
0.905062947
 40
1.0
 40
1.0
 40
1.0
 40
1.0
 10
4.559983089
 20
6.3516167704
 30
0.0
 10
4.559983089
 20
6.3519706644
 30
0.0
 10
4.5599252088
 20
6.3526883229
 30
0.0
 10
4.5596663916
 20
6.3537570086
 30
0.0
 10
4.5592366415
 20
6.3548217943
 30
0.0
 10
4.5586374332
 20
6.3558815594
 30
0.0
 10
4.5578698159
 20
6.3569362484
 30
0.0
 10
4.5569343379
 20
6.3579858566
 30
0.0
 10
4.5558311827
 20
6.3590303586
 30
0.0
 10
4.5545603288
 20
6.3600695714
 30
0.0
 10
4.5531216652
 20
6.361103175
 30
0.0
 10
4.5515150522
 20
6.3621307255
 30
0.0
 10
4.549740365
 20
6.3631517453
 30
0.0
 10
4.5470626013
 20
6.3645489472
 30
0.0
 10
4.543284172
 20
6.3662596617
 30
0.0
 10
4.5382301706
 20
6.368216915
 30
0.0
 10
4.5325368654
 20
6.370136528
 30
0.0
 10
4.5262234537
 20
6.3720138609
 30
0.0
 10
4.5193092348
 20
6.3738444546
 30
0.0
 10
4.5118139009
 20
6.3756238349
 30
0.0
 10
4.5037572673
 20
6.3773475962
 30
0.0
 10
4.4951592623
 20
6.3790113713
 30
0.0
 10
4.4860398745
 20
6.3806108298
 30
0.0
 10
4.4764191399
 20
6.3821416713
 30
0.0
 10
4.4663171083
 20
6.3835996088
 30
0.0
 10
4.4519547051
 20
6.3854770308
 30
0.0
 10
4.4329574496
 20
6.3875933456
 30
0.0
 10
4.4090359158
 20
6.3897370668
 30
0.0
 10
4.3838137167
 20
6.3915221156
 30
0.0
 10
4.3575497868
 20
6.3929338482
 30
0.0
 10
4.3305043495
 20
6.3939590581
 30
0.0
 10
4.3029378576
 20
6.3945844941
 30
0.0
 10
4.284414484
 20
6.3947261041
 30
0.0
 10
4.2751105574
 20
6.3947261041
 30
0.0
  0
SPLINE
  5
361
100
AcDbEntity
  8
0
100
AcDbSpline
 62
7
  6
CONTINUOUS
 70
0
 71
3
 72
13
 73
9
 74
0
 42
0.0000001
 43
0.0000001
 44
0.0000000001
 40
0.0
 40
0.0
 40
0.0
 40
0.0
 40
0.1996144414
 40
0.3102637693
 40
0.4292590234
 40
0.5572807948
 40
0.6948451544
 40
1.0
 40
1.0
 40
1.0
 40
1.0
 10
4.4886386361
 20
5.0316547372
 30
0.0
 10
4.4884109305
 20
5.0321725088
 30
0.0
 10
4.4879483525
 20
5.0329313556
 30
0.0
 10
4.4871748475
 20
5.0338706641
 30
0.0
 10
4.4864660986
 20
5.0345969454
 30
0.0
 10
4.4856495165
 20
5.0353197506
 30
0.0
 10
4.4843726895
 20
5.036313682
 30
0.0
 10
4.4833192802
 20
5.036999773
 30
0.0
 10
4.4825771703
 20
5.0374435779
 30
0.0
  0
SPLINE
  5
362
100
AcDbEntity
  8
0
100
AcDbSpline
 62
7
  6
CONTINUOUS
 70
0
 71
3
 72
11
 73
7
 74
0
 42
0.0000001
 43
0.0000001
 44
0.0000000001
 40
0.0
 40
0.0
 40
0.0
 40
0.0
 40
0.2199123941
 40
0.460086712
 40
0.7202524284
 40
1.0
 40
1.0
 40
1.0
 40
1.0
 10
4.4737984859
 20
5.0415303446
 30
0.0
 10
4.4725395396
 20
5.0420063121
 30
0.0
 10
4.4698830282
 20
5.0429427296
 30
0.0
 10
4.4656752213
 20
5.0442588542
 30
0.0
 10
4.4610768444
 20
5.0455453471
 30
0.0
 10
4.4578721773
 20
5.0463525737
 30
0.0
 10
4.4562074269
 20
5.0467525332
 30
0.0
  0
LINE
  5
363
100
AcDbEntity
  8
0
100
AcDbLine
 62
7
  6
CONTINUOUS
 10
5.6360242759
 20
2.3515209883
 11
5.637269382
 21
2.353311284
  0
SPLINE
  5
364
100
AcDbEntity
  8
0
100
AcDbSpline
 62
7
  6
CONTINUOUS
 70
0
 71
3
 72
9
 73
5
 74
0
 42
0.0000001
 43
0.0000001
 44
0.0000000001
 40
0.0
 40
0.0
 40
0.0
 40
0.0
 40
0.4783389735
 40
1.0
 40
1.0
 40
1.0
 40
1.0
 10
4.4395093768
 20
5.0502289447
 30
0.0
 10
4.4351616996
 20
5.0510180983
 30
0.0
 10
4.42604464
 20
5.0525153319
 30
0.0
 10
4.4168917365
 20
5.0537706343
 30
0.0
 10
4.4121106601
 20
5.054373297
 30
0.0
  0
SPLINE
  5
365
100
AcDbEntity
  8
0
100
AcDbSpline
 62
7
  6
CONTINUOUS
 70
0
 71
3
 72
9
 73
5
 74
0
 42
0.0000001
 43
0.0000001
 44
0.0000000001
 40
0.0
 40
0.0
 40
0.0
 40
0.0
 40
0.5140770006
 40
1.0
 40
1.0
 40
1.0
 40
1.0
 10
5.6307680889
 20
2.3514460483
 30
0.0
 10
5.6314292898
 20
2.3512251565
 30
0.0
 10
5.6327534782
 20
2.350899052
 30
0.0
 10
5.6341196332
 20
2.350832907
 30
0.0
 10
5.6347770365
 20
2.350877939
 30
0.0
  0
SPLINE
  5
366
100
AcDbEntity
  8
0
100
AcDbSpline
 62
7
  6
CONTINUOUS
 70
0
 71
3
 72
9
 73
5
 74
0
 42
0.0000001
 43
0.0000001
 44
0.0000000001
 40
0.0
 40
0.0
 40
0.0
 40
0.0
 40
0.5028232411
 40
1.0
 40
1.0
 40
1.0
 40
1.0
 10
5.6307680863
 20
3.2062371292
 30
0.0
 10
5.6313517549
 20
3.2062922709
 30
0.0
 10
5.6325282802
 20
3.2062769074
 30
0.0
 10
5.6336722233
 20
3.2059987883
 30
0.0
 10
5.6342163546
 20
3.2057989017
 30
0.0
  0
SPLINE
  5
367
100
AcDbEntity
  8
0
100
AcDbSpline
 62
7
  6
CONTINUOUS
 70
0
 71
3
 72
23
 73
19
 74
0
 42
0.0000001
 43
0.0000001
 44
0.0000000001
 40
0.0
 40
0.0
 40
0.0
 40
0.0
 40
0.0621396101
 40
0.1242930987
 40
0.1864738414
 40
0.2486941699
 40
0.3109648646
 40
0.3732947106
 40
0.4356901743
 40
0.4981552209
 40
0.5606911491
 40
0.6232965783
 40
0.6859673776
 40
0.7486967819
 40
0.8114768797
 40
0.8742934002
 40
0.9371434826
 40
1.0
 40
1.0
 40
1.0
 40
1.0
 10
4.1766105574
 20
5.6115502766
 30
0.0
 10
4.1766105574
 20
5.6083651498
 30
0.0
 10
4.1769273717
 20
5.6019896561
 30
0.0
 10
4.1783483403
 20
5.592522551
 30
0.0
 10
4.1807013309
 20
5.5832378378
 30
0.0
 10
4.1839636386
 20
5.5742262053
 30
0.0
 10
4.1881038112
 20
5.5655741393
 30
0.0
 10
4.1930819694
 20
5.5573650995
 30
0.0
 10
4.1988500816
 20
5.5496781141
 30
0.0
 10
4.2053525011
 20
5.5425871691
 30
0.0
 10
4.2125265529
 20
5.5361604973
 30
0.0
 10
4.220303131
 20
5.5304599454
 30
0.0
 10
4.2286073414
 20
5.5255404088
 30
0.0
 10
4.2373592461
 20
5.5214491492
 30
0.0
 10
4.2464743924
 20
5.5182257075
 30
0.0
 10
4.255865551
 20
5.5159005078
 30
0.0
 10
4.2654409008
 20
5.5144967312
 30
0.0
 10
4.2718886837
 20
5.5141836287
 30
0.0
 10
4.2751105574
 20
5.5141836287
 30
0.0
  0
SPLINE
  5
368
100
AcDbEntity
  8
0
100
AcDbSpline
 62
7
  6
CONTINUOUS
 70
0
 71
3
 72
9
 73
5
 74
0
 42
0.0000001
 43
0.0000001
 44
0.0000000001
 40
0.0
 40
0.0
 40
0.0
 40
0.0
 40
0.4972920501
 40
1.0
 40
1.0
 40
1.0
 40
1.0
 10
4.1801903224
 20
5.6375822832
 30
0.0
 10
4.1772986707
 20
5.632000285
 30
0.0
 10
4.1723616204
 20
5.6202988328
 30
0.0
 10
4.1693665236
 20
5.607949397
 30
0.0
 10
4.1683971604
 20
5.6016687767
 30
0.0
  0
SPLINE
  5
369
100
AcDbEntity
  8
0
100
AcDbSpline
 62
7
  6
CONTINUOUS
 70
0
 71
3
 72
23
 73
19
 74
0
 42
0.0000001
 43
0.0000001
 44
0.0000000001
 40
0.0
 40
0.0
 40
0.0
 40
0.0
 40
0.0621396101
 40
0.1242930987
 40
0.1864738414
 40
0.2486941699
 40
0.3109648646
 40
0.3732947106
 40
0.4356901743
 40
0.4981552209
 40
0.5606911491
 40
0.6232965783
 40
0.6859673776
 40
0.7486967819
 40
0.8114768797
 40
0.8742934002
 40
0.9371434826
 40
1.0
 40
1.0
 40
1.0
 40
1.0
 10
4.1766105574
 20
5.5941591609
 30
0.0
 10
4.1766105574
 20
5.5909740342
 30
0.0
 10
4.1769273717
 20
5.5845985404
 30
0.0
 10
4.1783483403
 20
5.5751314353
 30
0.0
 10
4.1807013309
 20
5.5658467221
 30
0.0
 10
4.1839636386
 20
5.5568350896
 30
0.0
 10
4.1881038112
 20
5.5481830237
 30
0.0
 10
4.1930819694
 20
5.5399739839
 30
0.0
 10
4.1988500816
 20
5.5322869984
 30
0.0
 10
4.2053525011
 20
5.5251960535
 30
0.0
 10
4.2125265529
 20
5.5187693817
 30
0.0
 10
4.220303131
 20
5.5130688298
 30
0.0
 10
4.2286073414
 20
5.5081492932
 30
0.0
 10
4.2373592461
 20
5.5040580335
 30
0.0
 10
4.2464743924
 20
5.5008345918
 30
0.0
 10
4.255865551
 20
5.4985093922
 30
0.0
 10
4.2654409008
 20
5.4971056155
 30
0.0
 10
4.2718886837
 20
5.4967925131
 30
0.0
 10
4.2751105574
 20
5.4967925131
 30
0.0
  0
SPLINE
  5
36A
100
AcDbEntity
  8
0
100
AcDbSpline
 62
7
  6
CONTINUOUS
 70
0
 71
3
 72
39
 73
35
 74
0
 42
0.0000001
 43
0.0000001
 44
0.0000000001
 40
0.0
 40
0.0
 40
0.0
 40
0.0
 40
0.0310388437
 40
0.0622145915
 40
0.0934769733
 40
0.1247850576
 40
0.1561019322
 40
0.1874040325
 40
0.2186792976
 40
0.2499267442
 40
0.2811532319
 40
0.3123702872
 40
0.3435909068
 40
0.3748264906
 40
0.4060844618
 40
0.437366841
 40
0.4686696798
 40
0.4999843588
 40
0.5312995433
 40
0.5626037668
 40
0.5938880842
 40
0.6251480516
 40
0.6563852882
 40
0.6876067643
 40
0.7188236497
 40
0.7500488917
 40
0.781294263
 40
0.8125671955
 40
0.8438674007
 40
0.8751838143
 40
0.906493865
 40
0.9377618517
 40
0.9689463761
 40
1.0
 40
1.0
 40
1.0
 40
1.0
 10
4.1671105574
 20
5.6140533242
 30
0.0
 10
4.1671106241
 20
5.6175747685
 30
0.0
 10
4.1674644943
 20
5.6246380693
 30
0.0
 10
4.1690383745
 20
5.6351421967
 30
0.0
 10
4.1716340907
 20
5.6454737385
 30
0.0
 10
4.1752158809
 20
5.6555224951
 30
0.0
 10
4.1797403232
 20
5.6651883503
 30
0.0
 10
4.1851573694
 20
5.6743792084
 30
0.0
 10
4.1914135717
 20
5.6830110084
 30
0.0
 10
4.198452885
 20
5.6910057302
 30
0.0
 10
4.2062164074
 20
5.6982899272
 30
0.0
 10
4.2146414498
 20
5.7047932306
 30
0.0
 10
4.2236596975
 20
5.7104480032
 30
0.0
 10
4.2331952654
 20
5.7151900349
 30
0.0
 10
4.2431631282
 20
5.7189603088
 30
0.0
 10
4.2534684011
 20
5.721707322
 30
0.0
 10
4.2640065574
 20
5.7233912845
 30
0.0
 10
4.2746657193
 20
5.7239862458
 30
0.0
 10
4.2853297544
 20
5.7234826712
 30
0.0
 10
4.2958823477
 20
5.7218886396
 30
0.0
 10
4.3062111287
 20
5.7192288362
 30
0.0
 10
4.3162108377
 20
5.7155419173
 30
0.0
 10
4.3257857991
 20
5.7108786851
 30
0.0
 10
4.3348501574
 20
5.7052975451
 30
0.0
 10
4.3433273149
 20
5.6988623742
 30
0.0
 10
4.3511484107
 20
5.6916405757
 30
0.0
 10
4.3582503303
 20
5.6837022576
 30
0.0
 10
4.3645739535
 20
5.6751206098
 30
0.0
 10
4.3700629531
 20
5.6659731685
 30
0.0
 10
4.3746637083
 20
5.6563434734
 30
0.0
 10
4.3783258367
 20
5.6463228794
 30
0.0
 10
4.3810051235
 20
5.6360108103
 30
0.0
 10
4.3826652612
 20
5.6255166497
 30
0.0
 10
4.3830775505
 20
5.6184538604
 30
0.0
 10
4.3831068998
 20
5.6149308615
 30
0.0
  0
SPLINE
  5
36B
100
AcDbEntity
  8
0
100
AcDbSpline
 62
7
  6
CONTINUOUS
 70
0
 71
3
 72
9
 73
5
 74
0
 42
0.0000001
 43
0.0000001
 44
0.0000000001
 40
0.0
 40
0.0
 40
0.0
 40
0.0
 40
0.5027081474
 40
1.0
 40
1.0
 40
1.0
 40
1.0
 10
4.3818232269
 20
5.6016734878
 30
0.0
 10
4.3808536856
 20
5.6079534914
 30
0.0
 10
4.3778584539
 20
5.6203016772
 30
0.0
 10
4.3729216548
 20
5.632001955
 30
0.0
 10
4.3700302104
 20
5.6375834063
 30
0.0
  0
SPLINE
  5
36C
100
AcDbEntity
  8
0
100
AcDbSpline
 62
7
  6
CONTINUOUS
 70
0
 71
3
 72
11
 73
7
 74
0
 42
0.0000001
 43
0.0000001
 44
0.0000000001
 40
0.0
 40
0.0
 40
0.0
 40
0.0
 40
0.2661925766
 40
0.5187906786
 40
0.7618674869
 40
1.0
 40
1.0
 40
1.0
 40
1.0
 10
4.608688558
 20
5.0714793782
 30
0.0
 10
4.6089001876
 20
5.0718403342
 30
0.0
 10
4.6092756638
 20
5.072566631
 30
0.0
 10
4.6096916067
 20
5.0736931461
 30
0.0
 10
4.6099420621
 20
5.0748227984
 30
0.0
 10
4.6099980527
 20
5.0755803129
 30
0.0
 10
4.6099980527
 20
5.0759546273
 30
0.0
  0
SPLINE
  5
36D
100
AcDbEntity
  8
0
100
AcDbSpline
 62
7
  6
CONTINUOUS
 70
0
 71
3
 72
11
 73
7
 74
0
 42
0.0000001
 43
0.0000001
 44
0.0000000001
 40
0.0
 40
0.0
 40
0.0
 40
0.0
 40
0.2661949891
 40
0.5187943236
 40
0.7618704264
 40
1.0
 40
1.0
 40
1.0
 40
1.0
 10
4.5872726192
 20
5.0349560771
 30
0.0
 10
4.5874706597
 20
5.0352938651
 30
0.0
 10
4.5878220276
 20
5.0359735399
 30
0.0
 10
4.5882112708
 20
5.0370277347
 30
0.0
 10
4.5884456536
 20
5.0380848572
 30
0.0
 10
4.5884980527
 20
5.0387937334
 30
0.0
 10
4.5884980527
 20
5.0391440122
 30
0.0
  0
LINE
  5
36E
100
AcDbEntity
  8
0
100
AcDbLine
 62
7
  6
CONTINUOUS
 10
4.2045685347
 20
5.0563772082
 11
4.2057090303
 21
5.055745097
  0
SPLINE
  5
36F
100
AcDbEntity
  8
0
100
AcDbSpline
 62
7
  6
CONTINUOUS
 70
0
 71
3
 72
12
 73
8
 74
0
 42
0.0000001
 43
0.0000001
 44
0.0000000001
 40
0.0
 40
0.0
 40
0.0
 40
0.0
 40
0.08666183
 40
0.18561194
 40
0.4181066723
 40
0.6919634823
 40
1.0
 40
1.0
 40
1.0
 40
1.0
 10
4.2057090303
 20
5.055745097
 30
0.0
 10
4.2058692802
 20
5.0556936895
 30
0.0
 10
4.2062161566
 20
5.0555949118
 30
0.0
 10
4.2070067155
 20
5.0554089644
 30
0.0
 10
4.2081650784
 20
5.0552042502
 30
0.0
 10
4.209734198
 20
5.0550039344
 30
0.0
 10
4.2108599432
 20
5.0549027196
 30
0.0
 10
4.2114564572
 20
5.0548579198
 30
0.0
  0
SPLINE
  5
370
100
AcDbEntity
  8
0
100
AcDbSpline
 62
7
  6
CONTINUOUS
 70
0
 71
3
 72
69
 73
65
 74
0
 42
0.0000001
 43
0.0000001
 44
0.0000000001
 40
0.0
 40
0.0
 40
0.0
 40
0.0
 40
0.001804181
 40
0.00365428
 40
0.0055922759
 40
0.0076546523
 40
0.0098715789
 40
0.0122670537
 40
0.0148597932
 40
0.0176642596
 40
0.0206913388
 40
0.0239490728
 40
0.0274435114
 40
0.0311791569
 40
0.0393839725
 40
0.048577519
 40
0.0587606371
 40
0.0699256849
 40
0.0820584507
 40
0.0951397785
 40
0.1091458966
 40
0.1240497212
 40
0.1398204594
 40
0.1564248796
 40
0.173826592
 40
0.191987271
 40
0.2304191779
 40
0.2713712527
 40
0.3144655994
 40
0.3593013336
 40
0.4054592049
 40
0.4525061752
 40
0.5
 40
0.5474938248
 40
0.5945407951
 40
0.6406986664
 40
0.6855344006
 40
0.7286287473
 40
0.7695808221
 40
0.808012729
 40
0.826173408
 40
0.8435751204
 40
0.8601795406
 40
0.8759502788
 40
0.8908541034
 40
0.9048602215
 40
0.9179415493
 40
0.9300743151
 40
0.9412393629
 40
0.951422481
 40
0.9606160275
 40
0.9688208431
 40
0.9725564886
 40
0.9760509272
 40
0.9793086612
 40
0.9823357404
 40
0.9851402068
 40
0.9877329463
 40
0.9901284211
 40
0.9923453477
 40
0.9944077241
 40
0.99634572
 40
0.998195819
 40
1.0
 40
1.0
 40
1.0
 40
1.0
 10
3.9786105574
 20
5.0295061968
 30
0.0
 10
3.9786105574
 20
5.029138186
 30
0.0
 10
3.97867196
 20
5.0283914538
 30
0.0
 10
3.9789461196
 20
5.0272797645
 30
0.0
 10
3.9794009205
 20
5.026172179
 30
0.0
 10
3.9800345578
 20
5.0250699503
 30
0.0
 10
3.9808455728
 20
5.0239731669
 30
0.0
 10
3.981832766
 20
5.0228816817
 30
0.0
 10
3.9829953928
 20
5.0217954308
 30
0.0
 10
3.9843328704
 20
5.0207145898
 30
0.0
 10
3.985844517
 20
5.0196394426
 30
0.0
 10
3.9875295322
 20
5.0185703836
 30
0.0
 10
3.9893870559
 20
5.017507888
 30
0.0
 10
3.9921809858
 20
5.0160551379
 30
0.0
 10
3.9961101305
 20
5.0142739626
 30
0.0
 10
4.0013550692
 20
5.0122331172
 30
0.0
 10
4.0072565596
 20
5.0102320973
 30
0.0
 10
4.0138010062
 20
5.0082758671
 30
0.0
 10
4.0209734165
 20
5.006369307
 30
0.0
 10
4.0287569082
 20
5.0045172952
 30
0.0
 10
4.0371330467
 20
5.0027243507
 30
0.0
 10
4.046081845
 20
5.000995074
 30
0.0
 10
4.0555819133
 20
4.999333603
 30
0.0
 10
4.0656104498
 20
4.9977442006
 30
0.0
 10
4.0761434069
 20
4.996230584
 30
0.0
 10
4.091110547
 20
4.9942818181
 30
0.0
 10
4.1108870284
 20
4.9920793269
 30
0.0
 10
4.1357705092
 20
4.9898374123
 30
0.0
 10
4.1619946338
 20
4.987972
 30
0.0
 10
4.1893071406
 20
4.9865015525
 30
0.0
 10
4.2174453613
 20
4.9854407187
 30
0.0
 10
4.246138542
 20
4.9847999926
 30
0.0
 10
4.2751105574
 20
4.984585712
 30
0.0
 10
4.3040825727
 20
4.9847999926
 30
0.0
 10
4.3327757534
 20
4.9854407187
 30
0.0
 10
4.3609139741
 20
4.9865015525
 30
0.0
 10
4.3882264809
 20
4.987972
 30
0.0
 10
4.4144506055
 20
4.9898374123
 30
0.0
 10
4.4393340863
 20
4.9920793269
 30
0.0
 10
4.4591105677
 20
4.9942818181
 30
0.0
 10
4.4740777078
 20
4.996230584
 30
0.0
 10
4.4846106649
 20
4.9977442006
 30
0.0
 10
4.4946392014
 20
4.999333603
 30
0.0
 10
4.5041392697
 20
5.000995074
 30
0.0
 10
4.5130880681
 20
5.0027243507
 30
0.0
 10
4.5214642066
 20
5.0045172952
 30
0.0
 10
4.5292476982
 20
5.006369307
 30
0.0
 10
4.5364201085
 20
5.0082758671
 30
0.0
 10
4.5429645551
 20
5.0102320973
 30
0.0
 10
4.5488660456
 20
5.0122331172
 30
0.0
 10
4.5541109842
 20
5.0142739626
 30
0.0
 10
4.5580401289
 20
5.0160551379
 30
0.0
 10
4.5608340589
 20
5.017507888
 30
0.0
 10
4.5626915825
 20
5.0185703836
 30
0.0
 10
4.5643765977
 20
5.0196394426
 30
0.0
 10
4.5658882443
 20
5.0207145898
 30
0.0
 10
4.5672257219
 20
5.0217954308
 30
0.0
 10
4.5683883488
 20
5.0228816817
 30
0.0
 10
4.5693755419
 20
5.0239731669
 30
0.0
 10
4.5701865569
 20
5.0250699503
 30
0.0
 10
4.5708201942
 20
5.026172179
 30
0.0
 10
4.5712749951
 20
5.0272797645
 30
0.0
 10
4.5715491547
 20
5.0283914538
 30
0.0
 10
4.5716105574
 20
5.029138186
 30
0.0
 10
4.5716105574
 20
5.0295061968
 30
0.0
  0
SPLINE
  5
371
100
AcDbEntity
  8
0
100
AcDbSpline
 62
7
  6
CONTINUOUS
 70
0
 71
3
 72
11
 73
7
 74
0
 42
0.0000001
 43
0.0000001
 44
0.0000000001
 40
0.0
 40
0.0
 40
0.0
 40
0.0
 40
0.2381295736
 40
0.4812056764
 40
0.7338050109
 40
1.0
 40
1.0
 40
1.0
 40
1.0
 10
3.961723062
 20
5.0391440122
 30
0.0
 10
3.961723062
 20
5.0387937334
 30
0.0
 10
3.9617754611
 20
5.0380848572
 30
0.0
 10
3.9620098439
 20
5.0370277347
 30
0.0
 10
3.9623990871
 20
5.0359735399
 30
0.0
 10
3.962750455
 20
5.0352938651
 30
0.0
 10
3.9629484955
 20
5.0349560771
 30
0.0
  0
SPLINE
  5
372
100
AcDbEntity
  8
0
100
AcDbSpline
 62
7
  6
CONTINUOUS
 70
0
 71
3
 72
11
 73
7
 74
0
 42
0.0000001
 43
0.0000001
 44
0.0000000001
 40
0.0
 40
0.0
 40
0.0
 40
0.0
 40
0.2381325131
 40
0.4812093214
 40
0.7338074234
 40
1.0
 40
1.0
 40
1.0
 40
1.0
 10
3.940223062
 20
5.0759546273
 30
0.0
 10
3.940223062
 20
5.0755803129
 30
0.0
 10
3.9402790526
 20
5.0748227984
 30
0.0
 10
3.940529508
 20
5.0736931461
 30
0.0
 10
3.9409454509
 20
5.072566631
 30
0.0
 10
3.9413209271
 20
5.0718403342
 30
0.0
 10
3.9415325567
 20
5.0714793782
 30
0.0
  0
SPLINE
  5
373
100
AcDbEntity
  8
0
100
AcDbSpline
 62
7
  6
CONTINUOUS
 70
0
 71
3
 72
69
 73
65
 74
0
 42
0.0000001
 43
0.0000001
 44
0.0000000001
 40
0.0
 40
0.0
 40
0.0
 40
0.0
 40
0.001804181
 40
0.00365428
 40
0.0055922759
 40
0.0076546523
 40
0.0098715789
 40
0.0122670537
 40
0.0148597932
 40
0.0176642596
 40
0.0206913388
 40
0.0239490728
 40
0.0274435114
 40
0.0311791569
 40
0.0393839725
 40
0.048577519
 40
0.0587606371
 40
0.0699256849
 40
0.0820584507
 40
0.0951397785
 40
0.1091458966
 40
0.1240497212
 40
0.1398204594
 40
0.1564248796
 40
0.173826592
 40
0.191987271
 40
0.2304191779
 40
0.2713712527
 40
0.3144655994
 40
0.3593013336
 40
0.4054592049
 40
0.4525061752
 40
0.5
 40
0.5474938248
 40
0.5945407951
 40
0.6406986664
 40
0.6855344006
 40
0.7286287473
 40
0.7695808221
 40
0.808012729
 40
0.826173408
 40
0.8435751204
 40
0.8601795406
 40
0.8759502788
 40
0.8908541034
 40
0.9048602215
 40
0.9179415493
 40
0.9300743151
 40
0.9412393629
 40
0.951422481
 40
0.9606160275
 40
0.9688208431
 40
0.9725564886
 40
0.9760509272
 40
0.9793086612
 40
0.9823357404
 40
0.9851402068
 40
0.9877329463
 40
0.9901284211
 40
0.9923453477
 40
0.9944077241
 40
0.99634572
 40
0.998195819
 40
1.0
 40
1.0
 40
1.0
 40
1.0
 10
3.9786105574
 20
5.0295061968
 30
0.0
 10
3.9786105574
 20
5.0298742075
 30
0.0
 10
3.97867196
 20
5.0306209397
 30
0.0
 10
3.9789461196
 20
5.031732629
 30
0.0
 10
3.9794009205
 20
5.0328402145
 30
0.0
 10
3.9800345578
 20
5.0339424432
 30
0.0
 10
3.9808455728
 20
5.0350392266
 30
0.0
 10
3.981832766
 20
5.0361307118
 30
0.0
 10
3.9829953928
 20
5.0372169627
 30
0.0
 10
3.9843328704
 20
5.0382978037
 30
0.0
 10
3.985844517
 20
5.0393729509
 30
0.0
 10
3.9875295322
 20
5.0404420099
 30
0.0
 10
3.9893870559
 20
5.0415045055
 30
0.0
 10
3.9921809858
 20
5.0429572556
 30
0.0
 10
3.9961101305
 20
5.0447384309
 30
0.0
 10
4.0013550692
 20
5.0467792763
 30
0.0
 10
4.0072565596
 20
5.0487802962
 30
0.0
 10
4.0138010062
 20
5.0507365264
 30
0.0
 10
4.0209734165
 20
5.0526430865
 30
0.0
 10
4.0287569082
 20
5.0544950983
 30
0.0
 10
4.0371330467
 20
5.0562880429
 30
0.0
 10
4.046081845
 20
5.0580173195
 30
0.0
 10
4.0555819133
 20
5.0596787905
 30
0.0
 10
4.0656104498
 20
5.0612681929
 30
0.0
 10
4.0761434069
 20
5.0627818095
 30
0.0
 10
4.091110547
 20
5.0647305754
 30
0.0
 10
4.1108870284
 20
5.0669330666
 30
0.0
 10
4.1357705092
 20
5.0691749812
 30
0.0
 10
4.1619946338
 20
5.0710403935
 30
0.0
 10
4.1893071406
 20
5.072510841
 30
0.0
 10
4.2174453613
 20
5.0735716748
 30
0.0
 10
4.246138542
 20
5.0742124009
 30
0.0
 10
4.2751105574
 20
5.0744266815
 30
0.0
 10
4.3040825727
 20
5.0742124009
 30
0.0
 10
4.3327757534
 20
5.0735716748
 30
0.0
 10
4.3609139741
 20
5.072510841
 30
0.0
 10
4.3882264809
 20
5.0710403935
 30
0.0
 10
4.4144506055
 20
5.0691749812
 30
0.0
 10
4.4393340863
 20
5.0669330666
 30
0.0
 10
4.4591105677
 20
5.0647305754
 30
0.0
 10
4.4740777078
 20
5.0627818095
 30
0.0
 10
4.4846106649
 20
5.0612681929
 30
0.0
 10
4.4946392014
 20
5.0596787905
 30
0.0
 10
4.5041392697
 20
5.0580173195
 30
0.0
 10
4.5130880681
 20
5.0562880429
 30
0.0
 10
4.5214642066
 20
5.0544950983
 30
0.0
 10
4.5292476982
 20
5.0526430865
 30
0.0
 10
4.5364201085
 20
5.0507365264
 30
0.0
 10
4.5429645551
 20
5.0487802962
 30
0.0
 10
4.5488660456
 20
5.0467792763
 30
0.0
 10
4.5541109842
 20
5.0447384309
 30
0.0
 10
4.5580401289
 20
5.0429572556
 30
0.0
 10
4.5608340589
 20
5.0415045055
 30
0.0
 10
4.5626915825
 20
5.0404420099
 30
0.0
 10
4.5643765977
 20
5.0393729509
 30
0.0
 10
4.5658882443
 20
5.0382978037
 30
0.0
 10
4.5672257219
 20
5.0372169627
 30
0.0
 10
4.5683883488
 20
5.0361307118
 30
0.0
 10
4.5693755419
 20
5.0350392266
 30
0.0
 10
4.5701865569
 20
5.0339424432
 30
0.0
 10
4.5708201942
 20
5.0328402145
 30
0.0
 10
4.5712749951
 20
5.031732629
 30
0.0
 10
4.5715491547
 20
5.0306209397
 30
0.0
 10
4.5716105574
 20
5.0298742075
 30
0.0
 10
4.5716105574
 20
5.0295061968
 30
0.0
  0
SPLINE
  5
374
100
AcDbEntity
  8
0
100
AcDbSpline
 62
7
  6
CONTINUOUS
 70
0
 71
3
 72
69
 73
65
 74
0
 42
0.0000001
 43
0.0000001
 44
0.0000000001
 40
0.0
 40
0.0
 40
0.0
 40
0.0
 40
0.0018041837
 40
0.0036542903
 40
0.005592297
 40
0.007654684
 40
0.0098716203
 40
0.0122671036
 40
0.014859848
 40
0.0176643141
 40
0.0206913955
 40
0.0239491332
 40
0.0274435734
 40
0.0311792179
 40
0.0393840399
 40
0.0485775902
 40
0.058760719
 40
0.0699257702
 40
0.0820585414
 40
0.0951398678
 40
0.1091459872
 40
0.1240498107
 40
0.13982055
 40
0.1564249694
 40
0.1738266804
 40
0.1919873571
 40
0.2304192568
 40
0.2713713225
 40
0.3144656579
 40
0.359301379
 40
0.4054592359
 40
0.4525061909
 40
0.5
 40
0.5474938091
 40
0.5945407641
 40
0.640698621
 40
0.6855343421
 40
0.7286286775
 40
0.7695807432
 40
0.8080126429
 40
0.8261733196
 40
0.8435750306
 40
0.86017945
 40
0.8759501893
 40
0.8908540128
 40
0.9048601322
 40
0.9179414586
 40
0.9300742298
 40
0.941239281
 40
0.9514224098
 40
0.9606159601
 40
0.9688207821
 40
0.9725564266
 40
0.9760508668
 40
0.9793086045
 40
0.9823356859
 40
0.985140152
 40
0.9877328964
 40
0.9901283797
 40
0.992345316
 40
0.994407703
 40
0.9963457097
 40
0.9981958163
 40
1.0
 40
1.0
 40
1.0
 40
1.0
 10
3.961723062
 20
5.0391440122
 30
0.0
 10
3.961723062
 20
5.039532984
 30
0.0
 10
3.9617879637
 20
5.0403222493
 30
0.0
 10
3.9620777428
 20
5.0414972597
 30
0.0
 10
3.9625584517
 20
5.0426679338
 30
0.0
 10
3.9632281793
 20
5.0438329486
 30
0.0
 10
3.9640853915
 20
5.0449922048
 30
0.0
 10
3.9651288177
 20
5.0461458578
 30
0.0
 10
3.9663576678
 20
5.0472939766
 30
0.0
 10
3.9677713244
 20
5.0484363786
 30
0.0
 10
3.9693690715
 20
5.0495727601
 30
0.0
 10
3.9711500617
 20
5.0507027066
 30
0.0
 10
3.9731133843
 20
5.0518257169
 30
0.0
 10
3.976066447
 20
5.053361211
 30
0.0
 10
3.9802193844
 20
5.0552438314
 30
0.0
 10
3.9857630586
 20
5.0574009172
 30
0.0
 10
3.9920006803
 20
5.0595159047
 30
0.0
 10
3.9989178771
 20
5.0615835556
 30
0.0
 10
4.0064988026
 20
5.0635987032
 30
0.0
 10
4.014725613
 20
5.0655561987
 30
0.0
 10
4.0235788242
 20
5.0674512601
 30
0.0
 10
4.0330373119
 20
5.0692790293
 30
0.0
 10
4.0430784675
 20
5.0710351299
 30
0.0
 10
4.0536781905
 20
5.0727150578
 30
0.0
 10
4.0648110633
 20
5.0743148832
 30
0.0
 10
4.0806306716
 20
5.0763746419
 30
0.0
 10
4.1015335411
 20
5.078702577
 30
0.0
 10
4.127834283
 20
5.0810721809
 30
0.0
 10
4.1555520253
 20
5.0830438387
 30
0.0
 10
4.1844201386
 20
5.0845980361
 30
0.0
 10
4.2141609944
 20
5.0857192903
 30
0.0
 10
4.244488418
 20
5.0863965092
 30
0.0
 10
4.2751105574
 20
5.0866229943
 30
0.0
 10
4.3057326967
 20
5.0863965092
 30
0.0
 10
4.3360601203
 20
5.0857192903
 30
0.0
 10
4.3658009761
 20
5.0845980361
 30
0.0
 10
4.3946690894
 20
5.0830438387
 30
0.0
 10
4.4223868317
 20
5.0810721809
 30
0.0
 10
4.4486875736
 20
5.078702577
 30
0.0
 10
4.4695904431
 20
5.0763746419
 30
0.0
 10
4.4854100514
 20
5.0743148832
 30
0.0
 10
4.4965429242
 20
5.0727150578
 30
0.0
 10
4.5071426473
 20
5.0710351299
 30
0.0
 10
4.5171838029
 20
5.0692790293
 30
0.0
 10
4.5266422905
 20
5.0674512601
 30
0.0
 10
4.5354955017
 20
5.0655561987
 30
0.0
 10
4.5437223121
 20
5.0635987032
 30
0.0
 10
4.5513032376
 20
5.0615835556
 30
0.0
 10
4.5582204345
 20
5.0595159047
 30
0.0
 10
4.5644580561
 20
5.0574009172
 30
0.0
 10
4.5700017303
 20
5.0552438314
 30
0.0
 10
4.5741546677
 20
5.053361211
 30
0.0
 10
4.5771077304
 20
5.0518257169
 30
0.0
 10
4.579071053
 20
5.0507027066
 30
0.0
 10
4.5808520432
 20
5.0495727601
 30
0.0
 10
4.5824497903
 20
5.0484363786
 30
0.0
 10
4.583863447
 20
5.0472939766
 30
0.0
 10
4.585092297
 20
5.0461458578
 30
0.0
 10
4.5861357232
 20
5.0449922048
 30
0.0
 10
4.5869929354
 20
5.0438329486
 30
0.0
 10
4.587662663
 20
5.0426679338
 30
0.0
 10
4.5881433719
 20
5.0414972597
 30
0.0
 10
4.588433151
 20
5.0403222493
 30
0.0
 10
4.5884980527
 20
5.039532984
 30
0.0
 10
4.5884980527
 20
5.0391440122
 30
0.0
  0
SPLINE
  5
375
100
AcDbEntity
  8
0
100
AcDbSpline
 62
7
  6
CONTINUOUS
 70
0
 71
3
 72
71
 73
67
 74
0
 42
0.0000001
 43
0.0000001
 44
0.0000000001
 40
0.0
 40
0.0
 40
0.0
 40
0.0
 40
0.0018042072
 40
0.0036543191
 40
0.0055923166
 40
0.0076546876
 40
0.0098716019
 40
0.0122670643
 40
0.0148598067
 40
0.0176642932
 40
0.0206913609
 40
0.0239490751
 40
0.0274435215
 40
0.0311791798
 40
0.035159003
 40
0.0393849374
 40
0.0485785165
 40
0.0587615762
 40
0.0699266481
 40
0.0820593609
 40
0.0951406833
 40
0.1091467737
 40
0.1240505528
 40
0.1398212969
 40
0.1564256314
 40
0.1738273722
 40
0.1919879371
 40
0.2304197578
 40
0.27137175
 40
0.3144660145
 40
0.3593016594
 40
0.4054594308
 40
0.4525062913
 40
0.5
 40
0.5474937087
 40
0.5945405692
 40
0.6406983406
 40
0.6855339855
 40
0.72862825
 40
0.7695802422
 40
0.8080120629
 40
0.8261726278
 40
0.8435743686
 40
0.8601787031
 40
0.8759494472
 40
0.8908532263
 40
0.9048593167
 40
0.9179406391
 40
0.9300733519
 40
0.9412384238
 40
0.9514214835
 40
0.9606150626
 40
0.964840997
 40
0.9688208202
 40
0.9725564785
 40
0.9760509249
 40
0.9793086391
 40
0.9823357068
 40
0.9851401933
 40
0.9877329357
 40
0.9901283981
 40
0.9923453124
 40
0.9944076834
 40
0.9963456809
 40
0.9981957928
 40
1.0
 40
1.0
 40
1.0
 40
1.0
 10
3.940223062
 20
5.0759546273
 30
0.0
 10
3.940223062
 20
5.0763702909
 30
0.0
 10
3.9402924124
 20
5.0772137124
 30
0.0
 10
3.9406020659
 20
5.0784693435
 30
0.0
 10
3.9411157531
 20
5.0797203312
 30
0.0
 10
3.9418314443
 20
5.0809652531
 30
0.0
 10
3.9427474603
 20
5.0822040302
 30
0.0
 10
3.9438624613
 20
5.083436829
 30
0.0
 10
3.9451756191
 20
5.0846637172
 30
0.0
 10
3.9466862718
 20
5.0858844871
 30
0.0
 10
3.9483936236
 20
5.0870988414
 30
0.0
 10
3.9502967876
 20
5.0883063267
 30
0.0
 10
3.9523948236
 20
5.0895063381
 30
0.0
 10
3.9546866571
 20
5.0906981665
 30
0.0
 10
3.9571709665
 20
5.0918812584
 30
0.0
 10
3.9608424073
 20
5.0934916464
 30
0.0
 10
3.9659125154
 20
5.0954639787
 30
0.0
 10
3.972577815
 20
5.0977241729
 30
0.0
 10
3.9799696461
 20
5.0999336195
 30
0.0
 10
3.988070639
 20
5.1020870484
 30
0.0
 10
3.9968618589
 20
5.1041788224
 30
0.0
 10
4.0063224453
 20
5.1062038961
 30
0.0
 10
4.0164298375
 20
5.1081570717
 30
0.0
 10
4.0271598653
 20
5.1100336251
 30
0.0
 10
4.0384867904
 20
5.1118288394
 30
0.0
 10
4.0503834272
 20
5.1135383807
 30
0.0
 10
4.0672883333
 20
5.1157394957
 30
0.0
 10
4.0896252352
 20
5.1182271148
 30
0.0
 10
4.117730348
 20
5.1207592933
 30
0.0
 10
4.1473496801
 20
5.1228662114
 30
0.0
 10
4.1781983038
 20
5.1245270314
 30
0.0
 10
4.2099795411
 20
5.1257252051
 30
0.0
 10
4.2423875833
 20
5.1264488818
 30
0.0
 10
4.2751105574
 20
5.1266909037
 30
0.0
 10
4.3078335314
 20
5.1264488818
 30
0.0
 10
4.3402415736
 20
5.1257252051
 30
0.0
 10
4.3720228109
 20
5.1245270314
 30
0.0
 10
4.4028714346
 20
5.1228662114
 30
0.0
 10
4.4324907667
 20
5.1207592933
 30
0.0
 10
4.4605958795
 20
5.1182271148
 30
0.0
 10
4.4829327814
 20
5.1157394957
 30
0.0
 10
4.4998376875
 20
5.1135383807
 30
0.0
 10
4.5117343244
 20
5.1118288394
 30
0.0
 10
4.5230612494
 20
5.1100336251
 30
0.0
 10
4.5337912772
 20
5.1081570717
 30
0.0
 10
4.5438986694
 20
5.1062038961
 30
0.0
 10
4.5533592558
 20
5.1041788224
 30
0.0
 10
4.5621504757
 20
5.1020870484
 30
0.0
 10
4.5702514686
 20
5.0999336195
 30
0.0
 10
4.5776432997
 20
5.0977241729
 30
0.0
 10
4.5843085994
 20
5.0954639787
 30
0.0
 10
4.5893787074
 20
5.0934916464
 30
0.0
 10
4.5930501482
 20
5.0918812584
 30
0.0
 10
4.5955344576
 20
5.0906981665
 30
0.0
 10
4.5978262911
 20
5.0895063381
 30
0.0
 10
4.5999243271
 20
5.0883063267
 30
0.0
 10
4.6018274911
 20
5.0870988414
 30
0.0
 10
4.6035348429
 20
5.0858844871
 30
0.0
 10
4.6050454956
 20
5.0846637172
 30
0.0
 10
4.6063586534
 20
5.083436829
 30
0.0
 10
4.6074736544
 20
5.0822040302
 30
0.0
 10
4.6083896704
 20
5.0809652531
 30
0.0
 10
4.6091053616
 20
5.0797203312
 30
0.0
 10
4.6096190488
 20
5.0784693435
 30
0.0
 10
4.6099287023
 20
5.0772137124
 30
0.0
 10
4.6099980527
 20
5.0763702909
 30
0.0
 10
4.6099980527
 20
5.0759546273
 30
0.0
  0
SPLINE
  5
376
100
AcDbEntity
  8
0
100
AcDbSpline
 62
7
  6
CONTINUOUS
 70
0
 71
3
 72
71
 73
67
 74
0
 42
0.0000001
 43
0.0000001
 44
0.0000000001
 40
0.0
 40
0.0
 40
0.0
 40
0.0
 40
0.0018042072
 40
0.0036543191
 40
0.0055923166
 40
0.0076546876
 40
0.0098716019
 40
0.0122670643
 40
0.0148598067
 40
0.0176642932
 40
0.0206913609
 40
0.0239490751
 40
0.0274435215
 40
0.0311791798
 40
0.035159003
 40
0.0393849374
 40
0.0485785165
 40
0.0587615762
 40
0.0699266481
 40
0.0820593609
 40
0.0951406833
 40
0.1091467737
 40
0.1240505528
 40
0.1398212969
 40
0.1564256314
 40
0.1738273722
 40
0.1919879371
 40
0.2304197578
 40
0.27137175
 40
0.3144660145
 40
0.3593016594
 40
0.4054594308
 40
0.4525062913
 40
0.5
 40
0.5474937087
 40
0.5945405692
 40
0.6406983406
 40
0.6855339855
 40
0.72862825
 40
0.7695802422
 40
0.8080120629
 40
0.8261726278
 40
0.8435743686
 40
0.8601787031
 40
0.8759494472
 40
0.8908532263
 40
0.9048593167
 40
0.9179406391
 40
0.9300733519
 40
0.9412384238
 40
0.9514214835
 40
0.9606150626
 40
0.964840997
 40
0.9688208202
 40
0.9725564785
 40
0.9760509249
 40
0.9793086391
 40
0.9823357068
 40
0.9851401933
 40
0.9877329357
 40
0.9901283981
 40
0.9923453124
 40
0.9944076834
 40
0.9963456809
 40
0.9981957928
 40
1.0
 40
1.0
 40
1.0
 40
1.0
 10
3.9376105574
 20
5.0855924427
 30
0.0
 10
3.9376105574
 20
5.0860113489
 30
0.0
 10
3.9376804488
 20
5.0868613501
 30
0.0
 10
3.9379925179
 20
5.0881267765
 30
0.0
 10
3.9385102125
 20
5.0893875234
 30
0.0
 10
3.9392314869
 20
5.0906421571
 30
0.0
 10
3.9401546488
 20
5.0918905981
 30
0.0
 10
3.9412783481
 20
5.0931330142
 30
0.0
 10
3.9426017501
 20
5.0943694735
 30
0.0
 10
3.9441241876
 20
5.0955997668
 30
0.0
 10
3.9458448587
 20
5.0968235944
 30
0.0
 10
3.9477628695
 20
5.0980404995
 30
0.0
 10
3.9498772726
 20
5.0992498723
 30
0.0
 10
3.952186985
 20
5.1004509984
 30
0.0
 10
3.9546906749
 20
5.1016433197
 30
0.0
 10
3.9583907571
 20
5.1032662706
 30
0.0
 10
3.9635004178
 20
5.1052539893
 30
0.0
 10
3.9702177144
 20
5.1075318156
 30
0.0
 10
3.9776672102
 20
5.1097584984
 30
0.0
 10
3.9858314001
 20
5.1119287265
 30
0.0
 10
3.9946912015
 20
5.1140368188
 30
0.0
 10
4.0042255913
 20
5.1160776903
 30
0.0
 10
4.0144118327
 20
5.1180461029
 30
0.0
 10
4.025225567
 20
5.1199372956
 30
0.0
 10
4.0366408549
 20
5.1217465146
 30
0.0
 10
4.0486302991
 20
5.1234693922
 30
0.0
 10
4.0656670828
 20
5.1256876785
 30
0.0
 10
4.088178238
 20
5.1281947038
 30
0.0
 10
4.1165026028
 20
5.1307466362
 30
0.0
 10
4.1463529995
 20
5.1328699907
 30
0.0
 10
4.1774422776
 20
5.134543767
 30
0.0
 10
4.2094714448
 20
5.1357512878
 30
0.0
 10
4.2421323068
 20
5.13648061
 30
0.0
 10
4.2751105574
 20
5.13672452
 30
0.0
 10
4.3080888079
 20
5.13648061
 30
0.0
 10
4.3407496699
 20
5.1357512878
 30
0.0
 10
4.3727788371
 20
5.134543767
 30
0.0
 10
4.4038681152
 20
5.1328699907
 30
0.0
 10
4.4337185119
 20
5.1307466362
 30
0.0
 10
4.4620428767
 20
5.1281947038
 30
0.0
 10
4.4845540319
 20
5.1256876785
 30
0.0
 10
4.5015908156
 20
5.1234693922
 30
0.0
 10
4.5135802598
 20
5.1217465146
 30
0.0
 10
4.5249955477
 20
5.1199372956
 30
0.0
 10
4.535809282
 20
5.1180461029
 30
0.0
 10
4.5459955235
 20
5.1160776903
 30
0.0
 10
4.5555299132
 20
5.1140368188
 30
0.0
 10
4.5643897146
 20
5.1119287265
 30
0.0
 10
4.5725539045
 20
5.1097584984
 30
0.0
 10
4.5800034003
 20
5.1075318156
 30
0.0
 10
4.5867206969
 20
5.1052539893
 30
0.0
 10
4.5918303576
 20
5.1032662706
 30
0.0
 10
4.5955304398
 20
5.1016433197
 30
0.0
 10
4.5980341297
 20
5.1004509984
 30
0.0
 10
4.6003438421
 20
5.0992498723
 30
0.0
 10
4.6024582452
 20
5.0980404995
 30
0.0
 10
4.604376256
 20
5.0968235944
 30
0.0
 10
4.6060969271
 20
5.0955997668
 30
0.0
 10
4.6076193647
 20
5.0943694735
 30
0.0
 10
4.6089427666
 20
5.0931330142
 30
0.0
 10
4.6100664659
 20
5.0918905981
 30
0.0
 10
4.6109896279
 20
5.0906421571
 30
0.0
 10
4.6117109022
 20
5.0893875234
 30
0.0
 10
4.6122285968
 20
5.0881267765
 30
0.0
 10
4.6125406659
 20
5.0868613501
 30
0.0
 10
4.6126105574
 20
5.0860113489
 30
0.0
 10
4.6126105574
 20
5.0855924427
 30
0.0
  0
SPLINE
  5
377
100
AcDbEntity
  8
0
100
AcDbSpline
 62
7
  6
CONTINUOUS
 70
0
 71
3
 72
40
 73
36
 74
0
 42
0.0000001
 43
0.0000001
 44
0.0000000001
 40
0.0
 40
0.0
 40
0.0
 40
0.0
 40
0.0310322957
 40
0.0621997568
 40
0.0934543171
 40
0.1247558006
 40
0.1560685701
 40
0.1873696877
 40
0.2186475646
 40
0.2499007351
 40
0.2811354158
 40
0.3123619409
 40
0.3435917888
 40
0.3748349866
 40
0.3904686088
 40
0.4061074155
 40
0.4373913457
 40
0.4686928449
 40
0.5000041528
 40
0.5313154558
 40
0.5626169513
 40
0.5939008688
 40
0.6251637359
 40
0.6564069372
 40
0.6876367623
 40
0.7188633111
 40
0.7500980065
 40
0.781351212
 40
0.8126291048
 40
0.8439303431
 40
0.8752431726
 40
0.9065447335
 40
0.9377994058
 40
0.9689673333
 40
1.0
 40
1.0
 40
1.0
 40
1.0
 10
4.1604113092
 20
5.6147646129
 30
0.0
 10
4.160411455
 20
5.6184839955
 30
0.0
 10
4.1607958757
 20
5.6259442836
 30
0.0
 10
4.1624976032
 20
5.6370332833
 30
0.0
 10
4.1653039522
 20
5.6479296489
 30
0.0
 10
4.169173576
 20
5.6585129334
 30
0.0
 10
4.174053682
 20
5.6686757541
 30
0.0
 10
4.1798863984
 20
5.6783198529
 30
0.0
 10
4.1866111364
 20
5.6873555072
 30
0.0
 10
4.1941618563
 20
5.6957024409
 30
0.0
 10
4.2024710913
 20
5.7032856219
 30
0.0
 10
4.2114682679
 20
5.7100342476
 30
0.0
 10
4.2210766571
 20
5.7158813965
 30
0.0
 10
4.2295250159
 20
5.7199519292
 30
0.0
 10
4.2364993895
 20
5.7226978622
 30
0.0
 10
4.2436055975
 20
5.7250972577
 30
0.0
 10
4.2527039213
 20
5.7274295228
 30
0.0
 10
4.2638482758
 20
5.7291241935
 30
0.0
 10
4.2751104266
 20
5.7296920695
 30
0.0
 10
4.2863724304
 20
5.7291241681
 30
0.0
 10
4.2975172162
 20
5.7274295117
 30
0.0
 10
4.3084312792
 20
5.7246319196
 30
0.0
 10
4.3190064008
 20
5.7207659354
 30
0.0
 10
4.3291439106
 20
5.7158817416
 30
0.0
 10
4.3387526863
 20
5.71003439
 30
0.0
 10
4.347749745
 20
5.7032858019
 30
0.0
 10
4.356059137
 20
5.6957027401
 30
0.0
 10
4.3636098478
 20
5.6873557744
 30
0.0
 10
4.3703343298
 20
5.6783199248
 30
0.0
 10
4.3761676752
 20
5.6686761974
 30
0.0
 10
4.3810478905
 20
5.6585133487
 30
0.0
 10
4.3849167495
 20
5.6479297528
 30
0.0
 10
4.387723493
 20
5.6370334831
 30
0.0
 10
4.3894266699
 20
5.6259445212
 30
0.0
 10
4.389809791
 20
5.61848404
 30
0.0
 10
4.3898098055
 20
5.6147646129
 30
0.0
  0
SPLINE
  5
378
100
AcDbEntity
  8
0
100
AcDbSpline
 62
7
  6
CONTINUOUS
 70
0
 71
3
 72
39
 73
35
 74
0
 42
0.0000001
 43
0.0000001
 44
0.0000000001
 40
0.0
 40
0.0
 40
0.0
 40
0.0
 40
0.0315678634
 40
0.0629360944
 40
0.0940954639
 40
0.1250662396
 40
0.1558872161
 40
0.1866153332
 40
0.2173172723
 40
0.2480624486
 40
0.2789156363
 40
0.3099302112
 40
0.3411430197
 40
0.3725707302
 40
0.4042076178
 40
0.4360257325
 40
0.4679772317
 40
0.4999993544
 40
0.5320214384
 40
0.5639729551
 40
0.5957910572
 40
0.6274279657
 40
0.6588556811
 40
0.6900684849
 40
0.7210830713
 40
0.7519362869
 40
0.7826814992
 40
0.8133834617
 40
0.8441116412
 40
0.8749326716
 40
0.9059036232
 40
0.9370630062
 40
0.9684314988
 40
1.0
 40
1.0
 40
1.0
 40
1.0
 10
4.3898098055
 20
5.5999372046
 30
0.0
 10
4.3898096607
 20
5.5962385062
 30
0.0
 10
4.3894314646
 20
5.5888588319
 30
0.0
 10
4.3877344431
 20
5.5779463482
 30
0.0
 10
4.3849301299
 20
5.5673356362
 30
0.0
 10
4.381059284
 20
5.5571349846
 30
0.0
 10
4.3761748157
 20
5.5474358523
 30
0.0
 10
4.3703352595
 20
5.5383177644
 30
0.0
 10
4.363602237
 20
5.529849956
 30
0.0
 10
4.3560430043
 20
5.5220910692
 30
0.0
 10
4.3477261829
 20
5.5150941599
 30
0.0
 10
4.3387236144
 20
5.5089084152
 30
0.0
 10
4.3291121695
 20
5.5035797075
 30
0.0
 10
4.3189754029
 20
5.4991502752
 30
0.0
 10
4.3084042829
 20
5.495658332
 30
0.0
 10
4.2974973943
 20
5.4931389708
 30
0.0
 10
4.2863620483
 20
5.4916159505
 30
0.0
 10
4.2751107133
 20
5.4911060302
 30
0.0
 10
4.2638593631
 20
5.4916158449
 30
0.0
 10
4.2527240435
 20
5.4931390133
 30
0.0
 10
4.2418171238
 20
5.4956582403
 30
0.0
 10
4.2312460069
 20
5.4991502054
 30
0.0
 10
4.2211092091
 20
5.5035795691
 30
0.0
 10
4.2114977601
 20
5.5089082746
 30
0.0
 10
4.2024951515
 20
5.5150939632
 30
0.0
 10
4.1941782477
 20
5.5220907867
 30
0.0
 10
4.1866190128
 20
5.5298497083
 30
0.0
 10
4.1798862493
 20
5.5383177159
 30
0.0
 10
4.1740460645
 20
5.5474354009
 30
0.0
 10
4.1691614868
 20
5.5571345672
 30
0.0
 10
4.1652914125
 20
5.5673355405
 30
0.0
 10
4.162486686
 20
5.5779461195
 30
0.0
 10
4.1607882213
 20
5.5888585584
 30
0.0
 10
4.160411324
 20
5.5962384314
 30
0.0
 10
4.1604113092
 20
5.5999372046
 30
0.0
  0
SPLINE
  5
379
100
AcDbEntity
  8
0
100
AcDbSpline
 62
7
  6
CONTINUOUS
 70
0
 71
3
 72
71
 73
67
 74
0
 42
0.0000001
 43
0.0000001
 44
0.0000000001
 40
0.0
 40
0.0
 40
0.0
 40
0.0
 40
0.0018042072
 40
0.0036543191
 40
0.0055923166
 40
0.0076546876
 40
0.0098716019
 40
0.0122670643
 40
0.0148598067
 40
0.0176642932
 40
0.0206913609
 40
0.0239490751
 40
0.0274435215
 40
0.0311791798
 40
0.035159003
 40
0.0393849374
 40
0.0485785165
 40
0.0587615762
 40
0.0699266481
 40
0.0820593609
 40
0.0951406833
 40
0.1091467737
 40
0.1240505528
 40
0.1398212969
 40
0.1564256314
 40
0.1738273722
 40
0.1919879371
 40
0.2304197578
 40
0.27137175
 40
0.3144660145
 40
0.3593016594
 40
0.4054594308
 40
0.4525062913
 40
0.5
 40
0.5474937087
 40
0.5945405692
 40
0.6406983406
 40
0.6855339855
 40
0.72862825
 40
0.7695802422
 40
0.8080120629
 40
0.8261726278
 40
0.8435743686
 40
0.8601787031
 40
0.8759494472
 40
0.8908532263
 40
0.9048593167
 40
0.9179406391
 40
0.9300733519
 40
0.9412384238
 40
0.9514214835
 40
0.9606150626
 40
0.964840997
 40
0.9688208202
 40
0.9725564785
 40
0.9760509249
 40
0.9793086391
 40
0.9823357068
 40
0.9851401933
 40
0.9877329357
 40
0.9901283981
 40
0.9923453124
 40
0.9944076834
 40
0.9963456809
 40
0.9981957928
 40
1.0
 40
1.0
 40
1.0
 40
1.0
 10
3.9376105574
 20
6.0533612368
 30
0.0
 10
3.9376105574
 20
6.053780143
 30
0.0
 10
3.9376804488
 20
6.0546301442
 30
0.0
 10
3.9379925179
 20
6.0558955706
 30
0.0
 10
3.9385102125
 20
6.0571563175
 30
0.0
 10
3.9392314869
 20
6.0584109513
 30
0.0
 10
3.9401546488
 20
6.0596593922
 30
0.0
 10
3.9412783481
 20
6.0609018083
 30
0.0
 10
3.9426017501
 20
6.0621382676
 30
0.0
 10
3.9441241876
 20
6.0633685609
 30
0.0
 10
3.9458448587
 20
6.0645923885
 30
0.0
 10
3.9477628695
 20
6.0658092936
 30
0.0
 10
3.9498772726
 20
6.0670186665
 30
0.0
 10
3.952186985
 20
6.0682197925
 30
0.0
 10
3.9546906749
 20
6.0694121138
 30
0.0
 10
3.9583907571
 20
6.0710350647
 30
0.0
 10
3.9635004178
 20
6.0730227834
 30
0.0
 10
3.9702177144
 20
6.0753006097
 30
0.0
 10
3.9776672102
 20
6.0775272926
 30
0.0
 10
3.9858314001
 20
6.0796975206
 30
0.0
 10
3.9946912015
 20
6.0818056129
 30
0.0
 10
4.0042255913
 20
6.0838464844
 30
0.0
 10
4.0144118327
 20
6.085814897
 30
0.0
 10
4.025225567
 20
6.0877060897
 30
0.0
 10
4.0366408549
 20
6.0895153087
 30
0.0
 10
4.0486302991
 20
6.0912381863
 30
0.0
 10
4.0656670828
 20
6.0934564726
 30
0.0
 10
4.088178238
 20
6.095963498
 30
0.0
 10
4.1165026028
 20
6.0985154303
 30
0.0
 10
4.1463529995
 20
6.1006387848
 30
0.0
 10
4.1774422776
 20
6.1023125611
 30
0.0
 10
4.2094714448
 20
6.1035200819
 30
0.0
 10
4.2421323068
 20
6.1042494042
 30
0.0
 10
4.2751105574
 20
6.1044933141
 30
0.0
 10
4.3080888079
 20
6.1042494042
 30
0.0
 10
4.3407496699
 20
6.1035200819
 30
0.0
 10
4.3727788371
 20
6.1023125611
 30
0.0
 10
4.4038681152
 20
6.1006387848
 30
0.0
 10
4.4337185119
 20
6.0985154303
 30
0.0
 10
4.4620428767
 20
6.095963498
 30
0.0
 10
4.4845540319
 20
6.0934564726
 30
0.0
 10
4.5015908156
 20
6.0912381863
 30
0.0
 10
4.5135802598
 20
6.0895153087
 30
0.0
 10
4.5249955477
 20
6.0877060897
 30
0.0
 10
4.535809282
 20
6.085814897
 30
0.0
 10
4.5459955235
 20
6.0838464844
 30
0.0
 10
4.5555299132
 20
6.0818056129
 30
0.0
 10
4.5643897146
 20
6.0796975206
 30
0.0
 10
4.5725539045
 20
6.0775272926
 30
0.0
 10
4.5800034003
 20
6.0753006097
 30
0.0
 10
4.5867206969
 20
6.0730227834
 30
0.0
 10
4.5918303576
 20
6.0710350647
 30
0.0
 10
4.5955304398
 20
6.0694121138
 30
0.0
 10
4.5980341297
 20
6.0682197925
 30
0.0
 10
4.6003438421
 20
6.0670186665
 30
0.0
 10
4.6024582452
 20
6.0658092936
 30
0.0
 10
4.604376256
 20
6.0645923885
 30
0.0
 10
4.6060969271
 20
6.0633685609
 30
0.0
 10
4.6076193647
 20
6.0621382676
 30
0.0
 10
4.6089427666
 20
6.0609018083
 30
0.0
 10
4.6100664659
 20
6.0596593922
 30
0.0
 10
4.6109896279
 20
6.0584109513
 30
0.0
 10
4.6117109022
 20
6.0571563175
 30
0.0
 10
4.6122285968
 20
6.0558955706
 30
0.0
 10
4.6125406659
 20
6.0546301442
 30
0.0
 10
4.6126105574
 20
6.053780143
 30
0.0
 10
4.6126105574
 20
6.0533612368
 30
0.0
  0
SPLINE
  5
37A
100
AcDbEntity
  8
0
100
AcDbSpline
 62
7
  6
CONTINUOUS
 70
0
 71
3
 72
22
 73
18
 74
0
 42
0.0000001
 43
0.0000001
 44
0.0000000001
 40
0.0
 40
0.0
 40
0.0
 40
0.0
 40
0.1699595853
 40
0.3442702954
 40
0.5131966564
 40
0.5926756764
 40
0.6673452246
 40
0.7361706607
 40
0.7982388628
 40
0.8527224741
 40
0.8989794814
 40
0.9365258544
 40
0.9652286249
 40
0.9763849017
 40
0.9856155128
 40
0.9932764659
 40
1.0
 40
1.0
 40
1.0
 40
1.0
 10
4.1604113092
 20
5.6147646129
 30
0.0
 10
4.1607992855
 20
5.6147858196
 30
0.0
 10
4.1615861209
 20
5.6148125024
 30
0.0
 10
4.1627595843
 20
5.6148102773
 30
0.0
 10
4.1637255621
 20
5.6147737408
 30
0.0
 10
4.1644624532
 20
5.6147227565
 30
0.0
 10
4.1649701053
 20
5.6146759189
 30
0.0
 10
4.1654368219
 20
5.6146203621
 30
0.0
 10
4.1658559659
 20
5.6145570523
 30
0.0
 10
4.1662215919
 20
5.6144868526
 30
0.0
 10
4.1665288194
 20
5.6144111521
 30
0.0
 10
4.166773359
 20
5.6143309525
 30
0.0
 10
4.1669351549
 20
5.6142568369
 30
0.0
 10
4.1670277395
 20
5.6141928264
 30
0.0
 10
4.1670741377
 20
5.6141479957
 30
0.0
 10
4.167103439
 20
5.6141017885
 30
0.0
 10
4.1671105574
 20
5.6140686953
 30
0.0
 10
4.1671105574
 20
5.6140533242
 30
0.0
  0
SPLINE
  5
37B
100
AcDbEntity
  8
0
100
AcDbSpline
 62
7
  6
CONTINUOUS
 70
0
 71
3
 72
22
 73
18
 74
0
 42
0.0000001
 43
0.0000001
 44
0.0000000001
 40
0.0
 40
0.0
 40
0.0
 40
0.0
 40
0.169959594
 40
0.3442703148
 40
0.5131966871
 40
0.5926757124
 40
0.6673452654
 40
0.7361707055
 40
0.7982389105
 40
0.8527225232
 40
0.8989795299
 40
0.9365258998
 40
0.965228663
 40
0.9763849338
 40
0.9856155368
 40
0.9932764792
 40
1.0
 40
1.0
 40
1.0
 40
1.0
 10
4.1604113092
 20
5.5999372046
 30
0.0
 10
4.1607992855
 20
5.5999584111
 30
0.0
 10
4.1615861209
 20
5.5999850938
 30
0.0
 10
4.1627595843
 20
5.5999828684
 30
0.0
 10
4.1637255621
 20
5.5999463317
 30
0.0
 10
4.1644624532
 20
5.5998953474
 30
0.0
 10
4.1649701053
 20
5.5998485097
 30
0.0
 10
4.1654368219
 20
5.599792953
 30
0.0
 10
4.1658559659
 20
5.5997296432
 30
0.0
 10
4.1662215919
 20
5.5996594436
 30
0.0
 10
4.1665288194
 20
5.5995837432
 30
0.0
 10
4.166773359
 20
5.5995035437
 30
0.0
 10
4.1669351549
 20
5.5994294283
 30
0.0
 10
4.1670277395
 20
5.5993654178
 30
0.0
 10
4.1670741377
 20
5.5993205872
 30
0.0
 10
4.167103439
 20
5.5992743801
 30
0.0
 10
4.1671105574
 20
5.599241287
 30
0.0
 10
4.1671105574
 20
5.5992259159
 30
0.0
  0
SPLINE
  5
37C
100
AcDbEntity
  8
0
100
AcDbSpline
 62
7
  6
CONTINUOUS
 70
0
 71
3
 72
22
 73
18
 74
0
 42
0.0000001
 43
0.0000001
 44
0.0000000001
 40
0.0
 40
0.0
 40
0.0
 40
0.0
 40
0.1699596032
 40
0.3442703353
 40
0.5131967195
 40
0.5926757503
 40
0.6673453083
 40
0.7361707525
 40
0.7982389605
 40
0.8527225747
 40
0.8989795809
 40
0.9365259473
 40
0.965228703
 40
0.9763849675
 40
0.9856155619
 40
0.993276493
 40
1.0
 40
1.0
 40
1.0
 40
1.0
 10
4.3898098055
 20
5.5999372046
 30
0.0
 10
4.3894218292
 20
5.599958411
 30
0.0
 10
4.3886349938
 20
5.5999850934
 30
0.0
 10
4.3874615304
 20
5.5999828678
 30
0.0
 10
4.3864955526
 20
5.599946331
 30
0.0
 10
4.3857586616
 20
5.5998953465
 30
0.0
 10
4.3852510094
 20
5.5998485089
 30
0.0
 10
4.3847842928
 20
5.5997929521
 30
0.0
 10
4.3843651489
 20
5.5997296424
 30
0.0
 10
4.3839995228
 20
5.5996594428
 30
0.0
 10
4.3836922953
 20
5.5995837426
 30
0.0
 10
4.3834477557
 20
5.5995035431
 30
0.0
 10
4.3832859598
 20
5.5994294279
 30
0.0
 10
4.3831933752
 20
5.5993654176
 30
0.0
 10
4.383146977
 20
5.599320587
 30
0.0
 10
4.3831176757
 20
5.59927438
 30
0.0
 10
4.3831105574
 20
5.599241287
 30
0.0
 10
4.3831105574
 20
5.5992259159
 30
0.0
  0
SPLINE
  5
37D
100
AcDbEntity
  8
0
100
AcDbSpline
 62
7
  6
CONTINUOUS
 70
0
 71
3
 72
22
 73
18
 74
0
 42
0.0000001
 43
0.0000001
 44
0.0000000001
 40
0.0
 40
0.0
 40
0.0
 40
0.0
 40
0.169959594
 40
0.3442703148
 40
0.5131966871
 40
0.5926757124
 40
0.6673452654
 40
0.7361707055
 40
0.7982389105
 40
0.8527225232
 40
0.8989795299
 40
0.9365258998
 40
0.965228663
 40
0.9763849338
 40
0.9856155368
 40
0.9932764792
 40
1.0
 40
1.0
 40
1.0
 40
1.0
 10
4.3898098055
 20
5.6147646129
 30
0.0
 10
4.3894218292
 20
5.6147858194
 30
0.0
 10
4.3886349938
 20
5.6148125021
 30
0.0
 10
4.3874615304
 20
5.6148102767
 30
0.0
 10
4.3864955526
 20
5.61477374
 30
0.0
 10
4.3857586616
 20
5.6147227557
 30
0.0
 10
4.3852510094
 20
5.614675918
 30
0.0
 10
4.3847842928
 20
5.6146203613
 30
0.0
 10
4.3843651489
 20
5.6145570515
 30
0.0
 10
4.3839995228
 20
5.6144868519
 30
0.0
 10
4.3836922953
 20
5.6144111515
 30
0.0
 10
4.3834477557
 20
5.614330952
 30
0.0
 10
4.3832859598
 20
5.6142568366
 30
0.0
 10
4.3831933752
 20
5.6141928261
 30
0.0
 10
4.383146977
 20
5.6141479955
 30
0.0
 10
4.3831176757
 20
5.6141017884
 30
0.0
 10
4.3831105574
 20
5.6140686953
 30
0.0
 10
4.3831105574
 20
5.6140533242
 30
0.0
  0
LINE
  5
37E
100
AcDbEntity
  8
0
100
AcDbLine
 62
7
  6
CONTINUOUS
 10
4.4609651355
 20
5.0343670161
 11
4.4552902543
 21
5.0360516958
  0
LINE
  5
37F
100
AcDbEntity
  8
0
100
AcDbLine
 62
7
  6
CONTINUOUS
 10
4.0949308604
 20
5.0360516958
 11
4.0892559792
 21
5.0343670161
  0
LINE
  5
380
100
AcDbEntity
  8
0
100
AcDbLine
 62
7
  6
CONTINUOUS
 10
4.4789643326
 20
5.0250306327
 11
4.4770089018
 21
5.0268981145
  0
LINE
  5
381
100
AcDbEntity
  8
0
100
AcDbLine
 62
7
  6
CONTINUOUS
 10
4.2280934065
 20
5.0556755862
 11
4.2286460613
 21
5.0558586751
  0
LINE
  5
382
100
AcDbEntity
  8
0
100
AcDbLine
 62
7
  6
CONTINUOUS
 10
4.2838571192
 20
5.0565924485
 11
4.2853329264
 21
5.0568550655
  0
LINE
  5
383
100
AcDbEntity
  8
0
100
AcDbLine
 62
7
  6
CONTINUOUS
 10
4.2853329264
 20
5.0568550655
 11
4.2872256132
 21
5.0574776174
  0
SPLINE
  5
384
100
AcDbEntity
  8
0
100
AcDbSpline
 62
7
  6
CONTINUOUS
 70
0
 71
3
 72
137
 73
133
 74
0
 42
0.0000001
 43
0.0000001
 44
0.0000000001
 40
0.0
 40
0.0
 40
0.0
 40
0.0
 40
0.0000036624
 40
0.0000081164
 40
0.0000143181
 40
0.0000319619
 40
0.000056588
 40
0.0000881909
 40
0.0001267647
 40
0.0001723037
 40
0.0002248022
 40
0.0003506549
 40
0.0005042767
 40
0.000685622
 40
0.0008946448
 40
0.0011312993
 40
0.0013955396
 40
0.0020065887
 40
0.0027271718
 40
0.0035563227
 40
0.0044930501
 40
0.0055363626
 40
0.0066852688
 40
0.0079387577
 40
0.0107540323
 40
0.0139701174
 40
0.0175746822
 40
0.0215546536
 40
0.0258956947
 40
0.0305833458
 40
0.0356031285
 40
0.0409405155
 40
0.0525100395
 40
0.0651786252
 40
0.0788373238
 40
0.0933860575
 40
0.1087322623
 40
0.1247931835
 40
0.1414933277
 40
0.1587652175
 40
0.1765497714
 40
0.1947916279
 40
0.213444459
 40
0.2518121271
 40
0.271455323
 40
0.2913622521
 40
0.301406132
 40
0.3115060305
 40
0.3216588718
 40
0.3318617254
 40
0.342112033
 40
0.352407519
 40
0.3627453321
 40
0.3731229767
 40
0.3835389189
 40
0.3939907184
 40
0.4044760077
 40
0.4149944292
 40
0.4255423987
 40
0.4361175395
 40
0.4573381652
 40
0.4679842931
 40
0.4786441343
 40
0.483979255
 40
0.4893170772
 40
0.4999952346
 40
0.5106733426
 40
0.5160110718
 40
0.5213461106
 40
0.5266783548
 40
0.5320079262
 40
0.5426539562
 40
0.5532787825
 40
0.563881429
 40
0.5744566679
 40
0.5850049577
 40
0.5955233019
 40
0.6060086001
 40
0.6164605103
 40
0.6268764313
 40
0.6372540622
 40
0.6475918845
 40
0.6578873635
 40
0.6681376992
 40
0.6783406213
 40
0.6884935383
 40
0.6985934919
 40
0.7086374118
 40
0.7285444145
 40
0.7481876967
 40
0.7865555028
 40
0.8052083675
 40
0.8234502314
 40
0.8412347815
 40
0.8585066665
 40
0.8752068112
 40
0.8912677374
 40
0.9066139438
 40
0.9211626755
 40
0.9348213768
 40
0.9474899654
 40
0.959059472
 40
0.964396847
 40
0.9694166239
 40
0.9741042808
 40
0.9784453348
 40
0.9824253186
 40
0.9860298884
 40
0.9892459717
 40
0.9920612428
 40
0.993314731
 40
0.9944636375
 40
0.9955069511
 40
0.9964436799
 40
0.9972728322
 40
0.997993416
 40
0.998604465
 40
0.9988687049
 40
0.9991053589
 40
0.999314381
 40
0.9994957256
 40
0.9996493468
 40
0.9997751988
 40
0.9998276971
 40
0.9998732358
 40
0.9999118094
 40
0.9999434121
 40
0.9999680381
 40
0.9999856818
 40
0.9999918835
 40
0.9999963376
 40
1.0
 40
1.0
 40
1.0
 40
1.0
 10
4.7501105574
 20
3.2641167704
 30
0.0
 10
4.7501101766
 20
3.2641153361
 30
0.0
 10
4.7501072185
 20
3.2641132391
 30
0.0
 10
4.750103897
 20
3.2641085974
 30
0.0
 10
4.7500962279
 20
3.2640999826
 30
0.0
 10
4.7500836518
 20
3.2640849576
 30
0.0
 10
4.7500641045
 20
3.264062258
 30
0.0
 10
4.7500391417
 20
3.264033073
 30
0.0
 10
4.7500086035
 20
3.26399749
 30
0.0
 10
4.7499725549
 20
3.2639554844
 30
0.0
 10
4.7499134494
 20
3.2638866616
 30
0.0
 10
4.749825782
 20
3.2637846406
 30
0.0
 10
4.7497040476
 20
3.2636430576
 30
0.0
 10
4.7495603064
 20
3.2634759521
 30
0.0
 10
4.7493945907
 20
3.2632833699
 30
0.0
 10
4.7492069333
 20
3.2630653561
 30
0.0
 10
4.7489129598
 20
3.2627239206
 30
0.0
 10
4.7484909481
 20
3.2622339735
 30
0.0
 10
4.747919446
 20
3.261570685
 30
0.0
 10
4.7472617866
 20
3.2608074406
 30
0.0
 10
4.7465188075
 20
3.2599450957
 30
0.0
 10
4.7456913587
 20
3.258984509
 30
0.0
 10
4.7447802928
 20
3.2579265468
 30
0.0
 10
4.7434009917
 20
3.2563242826
 30
0.0
 10
4.7414758562
 20
3.2540866793
 30
0.0
 10
4.7389304407
 20
3.2511260384
 30
0.0
 10
4.7360785052
 20
3.2478065598
 30
0.0
 10
4.7329308143
 20
3.2441402255
 30
0.0
 10
4.729498763
 20
3.2401396136
 30
0.0
 10
4.7257940907
 20
3.2358177571
 30
0.0
 10
4.7218286524
 20
3.231187692
 30
0.0
 10
4.7160528308
 20
3.2244367195
 30
0.0
 10
4.7082706195
 20
3.2153235682
 30
0.0
 10
4.6983155944
 20
3.20363205
 30
0.0
 10
4.6875978804
 20
3.1910044872
 30
0.0
 10
4.6762029581
 20
3.1775286762
 30
0.0
 10
4.6642100871
 20
3.1632838231
 30
0.0
 10
4.6516931967
 20
3.1483406662
 30
0.0
 10
4.638719984
 20
3.1327619942
 30
0.0
 10
4.6253538772
 20
3.1166017754
 30
0.0
 10
4.6116550825
 20
3.0999062464
 30
0.0
 10
4.5976786639
 20
3.0827149283
 30
0.0
 10
4.5785710761
 20
3.0589472287
 30
0.0
 10
4.5593368525
 20
3.0345527217
 30
0.0
 10
4.5401291291
 20
3.0094952905
 30
0.0
 10
4.5280804058
 20
2.9934120616
 30
0.0
 10
4.5184867459
 20
2.9803229561
 30
0.0
 10
4.5113050502
 20
2.9703666829
 30
0.0
 10
4.5041712546
 20
2.9602969407
 30
0.0
 10
4.4971018277
 20
2.9501075716
 30
0.0
 10
4.4901128664
 20
2.9397928909
 30
0.0
 10
4.4832198827
 20
2.9293481512
 30
0.0
 10
4.4764470074
 20
2.9187636665
 30
0.0
 10
4.4698215443
 20
2.9080287299
 30
0.0
 10
4.4633690161
 20
2.8971350499
 30
0.0
 10
4.4571248112
 20
2.8860701854
 30
0.0
 10
4.4511343501
 20
2.8748184259
 30
0.0
 10
4.4454394765
 20
2.8633703449
 30
0.0
 10
4.4401047763
 20
2.8517084597
 30
0.0
 10
4.4335714485
 20
2.8358409455
 30
0.0
 10
4.4280802808
 20
2.8195075685
 30
0.0
 10
4.4239676664
 20
2.8027653576
 30
0.0
 10
4.422051985
 20
2.7921326698
 30
0.0
 10
4.4209704081
 20
2.7835550123
 30
0.0
 10
4.4201951616
 20
2.7749368734
 30
0.0
 10
4.4198040627
 20
2.7641177332
 30
0.0
 10
4.4201946165
 20
2.7532985607
 30
0.0
 10
4.4209700403
 20
2.7446805761
 30
0.0
 10
4.4217829846
 20
2.738245141
 30
0.0
 10
4.4228203774
 20
2.7318455595
 30
0.0
 10
4.4244830826
 20
2.7233720298
 30
0.0
 10
4.4270540864
 20
2.7128975855
 30
0.0
 10
4.4308312954
 20
2.7005412723
 30
0.0
 10
4.435210331
 20
2.6884167694
 30
0.0
 10
4.4401056181
 20
2.6765261472
 30
0.0
 10
4.4454388214
 20
2.6648639632
 30
0.0
 10
4.4511317533
 20
2.653414649
 30
0.0
 10
4.4571225883
 20
2.642163082
 30
0.0
 10
4.4633680064
 20
2.6310988497
 30
0.0
 10
4.4698211255
 20
2.6202054894
 30
0.0
 10
4.4764473215
 20
2.6094710149
 30
0.0
 10
4.4832207553
 20
2.5988868972
 30
0.0
 10
4.4901136637
 20
2.5884420959
 30
0.0
 10
4.4971024245
 20
2.5781272354
 30
0.0
 10
4.5041716617
 20
2.5679376498
 30
0.0
 10
4.5113052172
 20
2.5578676391
 30
0.0
 10
4.5184866122
 20
2.5479110632
 30
0.0
 10
4.5280801859
 20
2.5348218086
 30
0.0
 10
4.5401290559
 20
2.5187385883
 30
0.0
 10
4.5593367217
 20
2.4936809619
 30
0.0
 10
4.5785709353
 20
2.4692863124
 30
0.0
 10
4.597678598
 20
2.4455185798
 30
0.0
 10
4.611655077
 20
2.4283272915
 30
0.0
 10
4.6253538924
 20
2.4116317802
 30
0.0
 10
4.6387199956
 20
2.3954715627
 30
0.0
 10
4.6516932
 20
2.3798928833
 30
0.0
 10
4.6642100846
 20
2.3649497178
 30
0.0
 10
4.6762029548
 20
2.3507048616
 30
0.0
 10
4.6875978819
 20
2.3372290534
 30
0.0
 10
4.6983155937
 20
2.3246014869
 30
0.0
 10
4.7082706057
 20
2.3129099638
 30
0.0
 10
4.7160528268
 20
2.3037968351
 30
0.0
 10
4.721828658
 20
2.2970458895
 30
0.0
 10
4.7257941008
 20
2.2924158346
 30
0.0
 10
4.729498771
 20
2.2880939694
 30
0.0
 10
4.7329308171
 20
2.2840933364
 30
0.0
 10
4.7360785023
 20
2.2804269811
 30
0.0
 10
4.7389304367
 20
2.2771074932
 30
0.0
 10
4.7414758544
 20
2.2741468543
 30
0.0
 10
4.7434009919
 20
2.2719092561
 30
0.0
 10
4.7447802934
 20
2.2703069942
 30
0.0
 10
4.7456913592
 20
2.2692490317
 30
0.0
 10
4.746518808
 20
2.2682884434
 30
0.0
 10
4.7472617869
 20
2.2674260963
 30
0.0
 10
4.7479194461
 20
2.2666628498
 30
0.0
 10
4.7484909478
 20
2.2659995599
 30
0.0
 10
4.7489129594
 20
2.2655096126
 30
0.0
 10
4.7492069328
 20
2.2651681775
 30
0.0
 10
4.7493945901
 20
2.2649501645
 30
0.0
 10
4.7495603057
 20
2.2647575832
 30
0.0
 10
4.7497040468
 20
2.2645904788
 30
0.0
 10
4.7498257812
 20
2.2644488967
 30
0.0
 10
4.7499134487
 20
2.2643468766
 30
0.0
 10
4.7499725542
 20
2.2642780545
 30
0.0
 10
4.7500086028
 20
2.2642360493
 30
0.0
 10
4.750039141
 20
2.2642004668
 30
0.0
 10
4.750064104
 20
2.264171282
 30
0.0
 10
4.7500836512
 20
2.2641485827
 30
0.0
 10
4.7500962278
 20
2.2641335579
 30
0.0
 10
4.7501038965
 20
2.2641249432
 30
0.0
 10
4.7501072189
 20
2.2641203017
 30
0.0
 10
4.7501101755
 20
2.2641182044
 30
0.0
 10
4.7501105574
 20
2.2641167704
 30
0.0
  0
SPLINE
  5
385
100
AcDbEntity
  8
0
100
AcDbSpline
 62
7
  6
CONTINUOUS
 70
0
 71
3
 72
18
 73
14
 74
0
 42
0.0000001
 43
0.0000001
 44
0.0000000001
 40
0.0
 40
0.0
 40
0.0
 40
0.0
 40
0.1930669339
 40
0.3709982362
 40
0.5309060985
 40
0.6705225324
 40
0.7879169336
 40
0.8378542291
 40
0.8818064128
 40
0.919767275
 40
0.9518563659
 40
0.9783738135
 40
1.0
 40
1.0
 40
1.0
 40
1.0
 10
4.3387646575
 20
5.0548579198
 30
0.0
 10
4.3392235093
 20
5.0548923808
 30
0.0
 10
4.3401045361
 20
5.0549686944
 30
0.0
 10
4.3413618932
 20
5.0551120022
 30
0.0
 10
4.3424879929
 20
5.0552776108
 30
0.0
 10
4.3434645761
 20
5.0554625766
 30
0.0
 10
4.3441755174
 20
5.0556378779
 30
0.0
 10
4.3446558105
 20
5.0557897637
 30
0.0
 10
4.3449501542
 20
5.0559003672
 30
0.0
 10
4.3451975354
 20
5.0560133723
 30
0.0
 10
4.3453974328
 20
5.0561284782
 30
0.0
 10
4.3455495277
 20
5.0562454156
 30
0.0
 10
4.3456256796
 20
5.0563332423
 30
0.0
 10
4.34565258
 20
5.0563772082
 30
0.0
  0
SPLINE
  5
386
100
AcDbEntity
  8
0
100
AcDbSpline
 62
7
  6
CONTINUOUS
 70
0
 71
3
 72
18
 73
14
 74
0
 42
0.0000001
 43
0.0000001
 44
0.0000000001
 40
0.0
 40
0.0
 40
0.0
 40
0.0
 40
0.1807372652
 40
0.3528002669
 40
0.5118917912
 40
0.6541774041
 40
0.7762654728
 40
0.8288677092
 40
0.8754674612
 40
0.915881056
 40
0.9500256355
 40
0.9779558661
 40
1.0
 40
1.0
 40
1.0
 40
1.0
 10
4.387441289
 20
5.0506417877
 30
0.0
 10
4.3880891105
 20
5.0506562663
 30
0.0
 10
4.3893533884
 20
5.0506997795
 30
0.0
 10
4.3911854859
 20
5.0508108658
 30
0.0
 10
4.3928762996
 20
5.0509636521
 30
0.0
 10
4.3943828755
 20
5.0511539196
 30
0.0
 10
4.3955034429
 20
5.0513471704
 30
0.0
 10
4.3962775231
 20
5.0515218396
 30
0.0
 10
4.3967609901
 20
5.0516522451
 30
0.0
 10
4.3971739695
 20
5.0517876517
 30
0.0
 10
4.3975144455
 20
5.0519272496
 30
0.0
 10
4.3977806373
 20
5.052070012
 30
0.0
 10
4.3979247056
 20
5.0521793353
 30
0.0
 10
4.3979799314
 20
5.0522358714
 30
0.0
  0
SPLINE
  5
387
100
AcDbEntity
  8
0
100
AcDbSpline
 62
7
  6
CONTINUOUS
 70
0
 71
3
 72
13
 73
9
 74
0
 42
0.0000001
 43
0.0000001
 44
0.0000000001
 40
0.0
 40
0.0
 40
0.0
 40
0.0
 40
0.3061423822
 40
0.5856751038
 40
0.7100328512
 40
0.8215510852
 40
0.9186603861
 40
1.0
 40
1.0
 40
1.0
 40
1.0
 10
4.4284542865
 20
5.0443397609
 30
0.0
 10
4.4294771873
 20
5.0443552947
 30
0.0
 10
4.4314337133
 20
5.0444214191
 30
0.0
 10
4.4338006909
 20
5.0445998737
 30
0.0
 10
4.435511403
 20
5.0448014311
 30
0.0
 10
4.4366118226
 20
5.044968326
 30
0.0
 10
4.4375631343
 20
5.0451539091
 30
0.0
 10
4.43814166
 20
5.0453010103
 30
0.0
 10
4.43840167
 20
5.0453802215
 30
0.0
  0
LINE
  5
388
100
AcDbEntity
  8
0
100
AcDbLine
 62
7
  6
CONTINUOUS
 10
4.0732122129
 20
5.0268981145
 11
4.0712567821
 21
5.0250306327
  0
LINE
  5
389
100
AcDbEntity
  8
0
100
AcDbLine
 62
7
  6
CONTINUOUS
 10
4.4275942723
 20
5.016493727
 11
4.4295497031
 21
5.0183612089
  0
LINE
  5
38A
100
AcDbEntity
  8
0
100
AcDbLine
 62
7
  6
CONTINUOUS
 10
4.1206714116
 20
5.0183612089
 11
4.1226268425
 21
5.016493727
  0
LINE
  5
38B
100
AcDbEntity
  8
0
100
AcDbLine
 62
7
  6
CONTINUOUS
 10
4.0712567821
 20
5.0171773648
 11
4.0720307597
 21
5.0163474632
  0
LINE
  5
38C
100
AcDbEntity
  8
0
100
AcDbLine
 62
7
  6
CONTINUOUS
 10
4.410712673
 20
5.0095919509
 11
4.4163875543
 21
5.0112766307
  0
SPLINE
  5
38D
100
AcDbEntity
  8
0
100
AcDbSpline
 62
7
  6
CONTINUOUS
 70
0
 71
3
 72
38
 73
34
 74
0
 42
0.0000001
 43
0.0000001
 44
0.0000000001
 40
0.0
 40
0.0
 40
0.0
 40
0.0
 40
0.094937053
 40
0.189009017
 40
0.2813501404
 40
0.3710951417
 40
0.4573806255
 40
0.5393469217
 40
0.6161525897
 40
0.6524074637
 40
0.6871436479
 40
0.7202980609
 40
0.7518084642
 40
0.7816137471
 40
0.8096543205
 40
0.8358726736
 40
0.8602141816
 40
0.882628314
 40
0.9030705017
 40
0.9215051299
 40
0.937911192
 40
0.9453600198
 40
0.9523176031
 40
0.9587964366
 40
0.964811975
 40
0.9703835057
 40
0.9755352833
 40
0.9802979578
 40
0.9847102756
 40
0.9888208847
 40
0.9926898159
 40
0.9963888731
 40
1.0
 40
1.0
 40
1.0
 40
1.0
 10
4.2751105574
 20
6.2093835004
 30
0.0
 10
4.2658066307
 20
6.2093835004
 30
0.0
 10
4.2472832571
 20
6.2092418903
 30
0.0
 10
4.2197167652
 20
6.2086164544
 30
0.0
 10
4.1926713279
 20
6.2075912444
 30
0.0
 10
4.166407398
 20
6.2061795118
 30
0.0
 10
4.141185199
 20
6.204394463
 30
0.0
 10
4.1172636651
 20
6.2022507418
 30
0.0
 10
4.0982664096
 20
6.200134427
 30
0.0
 10
4.0839040064
 20
6.198257005
 30
0.0
 10
4.0738019748
 20
6.1967990675
 30
0.0
 10
4.0641812402
 20
6.1952682261
 30
0.0
 10
4.0550618524
 20
6.1936687675
 30
0.0
 10
4.0464638474
 20
6.1920049925
 30
0.0
 10
4.0384072139
 20
6.1902812312
 30
0.0
 10
4.0309118799
 20
6.1885018509
 30
0.0
 10
4.023997661
 20
6.1866712571
 30
0.0
 10
4.0176842493
 20
6.1847939242
 30
0.0
 10
4.0119909441
 20
6.1828743112
 30
0.0
 10
4.0069369427
 20
6.1809170579
 30
0.0
 10
4.0031585134
 20
6.1792063435
 30
0.0
 10
4.0004807497
 20
6.1778091415
 30
0.0
 10
3.9987060625
 20
6.1767881218
 30
0.0
 10
3.9970994495
 20
6.1757605713
 30
0.0
 10
3.9956607859
 20
6.1747269676
 30
0.0
 10
3.994389932
 20
6.1736877548
 30
0.0
 10
3.9932867768
 20
6.1726432528
 30
0.0
 10
3.9923512988
 20
6.1715936447
 30
0.0
 10
3.9915836815
 20
6.1705389557
 30
0.0
 10
3.9909844732
 20
6.1694791906
 30
0.0
 10
3.9905547232
 20
6.1684144049
 30
0.0
 10
3.9902959059
 20
6.1673457191
 30
0.0
 10
3.9902380257
 20
6.1666280607
 30
0.0
 10
3.9902380257
 20
6.1662741666
 30
0.0
  0
LINE
  5
38E
100
AcDbEntity
  8
0
100
AcDbLine
 62
7
  6
CONTINUOUS
 10
4.1338335605
 20
5.0112766307
 11
4.1395084417
 21
5.0095919509
  0
SPLINE
  5
38F
100
AcDbEntity
  8
0
100
AcDbSpline
 62
7
  6
CONTINUOUS
 70
0
 71
3
 72
38
 73
34
 74
0
 42
0.0000001
 43
0.0000001
 44
0.0000000001
 40
0.0
 40
0.0
 40
0.0
 40
0.0
 40
0.0949876194
 40
0.1890815351
 40
0.2813972607
 40
0.3710687208
 40
0.4572574134
 40
0.5391615674
 40
0.6160253869
 40
0.6523464768
 40
0.6871501753
 40
0.7203587221
 40
0.7519004967
 40
0.7817078492
 40
0.809720376
 40
0.8358827551
 40
0.8601485545
 40
0.882478422
 40
0.9028448869
 40
0.9212318106
 40
0.9376416061
 40
0.9451127315
 40
0.9521016237
 40
0.9586171848
 40
0.9646713602
 40
0.9702802578
 40
0.9754658463
 40
0.9802568907
 40
0.9846906456
 40
0.9888150436
 40
0.9926906804
 40
0.9963908778
 40
1.0
 40
1.0
 40
1.0
 40
1.0
 10
4.2751105574
 20
6.2087784571
 30
0.0
 10
4.2842917496
 20
6.2087784571
 30
0.0
 10
4.302568047
 20
6.2086432846
 30
0.0
 10
4.3297611908
 20
6.2080360548
 30
0.0
 10
4.3564284507
 20
6.2070306801
 30
0.0
 10
4.3823131481
 20
6.2056371037
 30
0.0
 10
4.4071663673
 20
6.2038692147
 30
0.0
 10
4.4307490247
 20
6.2017444885
 30
0.0
 10
4.4494916407
 20
6.1996571787
 30
0.0
 10
4.4636763418
 20
6.1978102165
 30
0.0
 10
4.4736586553
 20
6.1963758013
 30
0.0
 10
4.4831629487
 20
6.1948694069
 30
0.0
 10
4.492166373
 20
6.1932948781
 30
0.0
 10
4.5006473708
 20
6.1916559157
 30
0.0
 10
4.5085856255
 20
6.1899567901
 30
0.0
 10
4.5159622297
 20
6.1882015074
 30
0.0
 10
4.5227596916
 20
6.1863947041
 30
0.0
 10
4.528962018
 20
6.1845406541
 30
0.0
 10
4.5345550123
 20
6.1826443271
 30
0.0
 10
4.5395257513
 20
6.1807100823
 30
0.0
 10
4.5432495128
 20
6.1790221004
 30
0.0
 10
4.5458973622
 20
6.1776452463
 30
0.0
 10
4.5476577858
 20
6.1766383155
 30
0.0
 10
4.5492547424
 20
6.175625165
 30
0.0
 10
4.5506873752
 20
6.1746062218
 30
0.0
 10
4.551954903
 20
6.1735818306
 30
0.0
 10
4.5530567517
 20
6.1725523429
 30
0.0
 10
4.553992355
 20
6.1715179194
 30
0.0
 10
4.5547609731
 20
6.1704785156
 30
0.0
 10
4.55536148
 20
6.1694339959
 30
0.0
 10
4.555792533
 20
6.1683843964
 30
0.0
 10
4.5560523783
 20
6.1673307833
 30
0.0
 10
4.5561105574
 20
6.1666230125
 30
0.0
 10
4.5561105574
 20
6.1662741666
 30
0.0
  0
LINE
  5
390
100
AcDbEntity
  8
0
100
AcDbLine
 62
7
  6
CONTINUOUS
 10
4.478190355
 20
5.0163474632
 11
4.4789643326
 21
5.0171773648
  0
SPLINE
  5
391
100
AcDbEntity
  8
0
100
AcDbSpline
 62
7
  6
CONTINUOUS
 70
0
 71
3
 72
24
 73
20
 74
0
 42
0.0000001
 43
0.0000001
 44
0.0000000001
 40
0.0
 40
0.0
 40
0.0
 40
0.0
 40
0.1575435668
 40
0.3117501526
 40
0.3865820455
 40
0.4593693887
 40
0.5297299158
 40
0.5972958809
 40
0.6617165649
 40
0.7226605937
 40
0.7798187607
 40
0.8329071841
 40
0.8816705733
 40
0.9043602812
 40
0.9258883148
 40
0.9462329707
 40
0.965376088
 40
0.9833019662
 40
1.0
 40
1.0
 40
1.0
 40
1.0
 10
4.2751105574
 20
6.1999829776
 30
0.0
 10
4.288862454
 20
6.1999829776
 30
0.0
 10
4.3160758679
 20
6.1996822706
 30
0.0
 10
4.3498046184
 20
6.1985489419
 30
0.0
 10
4.37611602
 20
6.1971832589
 30
0.0
 10
4.3951042432
 20
6.1959551188
 30
0.0
 10
4.4134418637
 20
6.1945199057
 30
0.0
 10
4.4310295438
 20
6.1928855072
 30
0.0
 10
4.4477720292
 20
6.1910610337
 30
0.0
 10
4.4635786888
 20
6.1890566476
 30
0.0
 10
4.478364135
 20
6.1868836353
 30
0.0
 10
4.4920484622
 20
6.184554158
 30
0.0
 10
4.5027151063
 20
6.1824463263
 30
0.0
 10
4.510636848
 20
6.1806783764
 30
0.0
 10
4.5161148168
 20
6.1793532995
 30
0.0
 10
4.5212661656
 20
6.1779989159
 30
0.0
 10
4.5260840277
 20
6.1766171716
 30
0.0
 10
4.5305619076
 20
6.1752098754
 30
0.0
 10
4.5334184032
 20
6.1742207788
 30
0.0
 10
4.5347872529
 20
6.1737200397
 30
0.0
  0
SPLINE
  5
392
100
AcDbEntity
  8
0
100
AcDbSpline
 62
7
  6
CONTINUOUS
 70
0
 71
3
 72
9
 73
5
 74
0
 42
0.0000001
 43
0.0000001
 44
0.0000000001
 40
0.0
 40
0.0
 40
0.0
 40
0.0
 40
0.5332943947
 40
1.0
 40
1.0
 40
1.0
 40
1.0
 10
4.486590248
 20
5.024552919
 30
0.0
 10
4.4870338924
 20
5.024986303
 30
0.0
 10
4.4878143932
 20
5.0258554928
 30
0.0
 10
4.488420139
 20
5.0268608237
 30
0.0
 10
4.4886386361
 20
5.0273576563
 30
0.0
  0
LINE
  5
393
100
AcDbEntity
  8
0
100
AcDbLine
 62
7
  6
CONTINUOUS
 10
5.777462225
 20
3.0302424354
 11
5.7765607958
 21
3.0298698506
  0
LINE
  5
394
100
AcDbEntity
  8
0
100
AcDbLine
 62
7
  6
CONTINUOUS
 10
4.2636993045
 20
5.0002974095
 11
4.2640325133
 21
5.0001933253
  0
LINE
  5
395
100
AcDbEntity
  8
0
100
AcDbLine
 62
7
  6
CONTINUOUS
 10
4.3210907765
 20
5.0019953088
 11
4.3229843959
 21
5.001372587
  0
LINE
  5
396
100
AcDbEntity
  8
0
100
AcDbLine
 62
7
  6
CONTINUOUS
 10
4.3234382466
 20
5.0012810966
 11
4.3244591904
 21
5.0011101876
  0
SPLINE
  5
397
100
AcDbEntity
  8
0
100
AcDbSpline
 62
7
  6
CONTINUOUS
 70
0
 71
3
 72
16
 73
12
 74
0
 42
0.0000001
 43
0.0000001
 44
0.0000000001
 40
0.0
 40
0.0
 40
0.0
 40
0.0
 40
0.3707975257
 40
0.5286511296
 40
0.6660877557
 40
0.7819904809
 40
0.8757491439
 40
0.9143893179
 40
0.9477106389
 40
0.9760391885
 40
1.0
 40
1.0
 40
1.0
 40
1.0
 10
4.1721045147
 20
5.0049872707
 30
0.0
 10
4.172743483
 20
5.0050597122
 30
0.0
 10
4.1736528419
 20
5.0051820821
 30
0.0
 10
4.1747880142
 20
5.0053973684
 30
0.0
 10
4.1754824175
 20
5.0055612407
 30
0.0
 10
4.1760593169
 20
5.0057342952
 30
0.0
 10
4.1764608699
 20
5.0058927956
 30
0.0
 10
4.1767152651
 20
5.0060271603
 30
0.0
 10
4.1768610407
 20
5.0061227014
 30
0.0
 10
4.1769742255
 20
5.0062194987
 30
0.0
 10
4.1770320492
 20
5.0062904635
 30
0.0
 10
4.1770537395
 20
5.0063259078
 30
0.0
  0
SPLINE
  5
398
100
AcDbEntity
  8
0
100
AcDbSpline
 62
7
  6
CONTINUOUS
 70
0
 71
3
 72
39
 73
35
 74
0
 42
0.0000001
 43
0.0000001
 44
0.0000000001
 40
0.0
 40
0.0
 40
0.0
 40
0.0
 40
0.0314277784
 40
0.0628535138
 40
0.0942615165
 40
0.1256515937
 40
0.1570163423
 40
0.1883517041
 40
0.2196544112
 40
0.2509223753
 40
0.2821549227
 40
0.3133526671
 40
0.344517568
 40
0.3756528912
 40
0.4067630629
 40
0.4378534659
 40
0.4689302211
 40
0.5
 40
0.5310697789
 40
0.5621465341
 40
0.5932369371
 40
0.6243471088
 40
0.655482432
 40
0.6866473329
 40
0.7178450773
 40
0.7490776247
 40
0.7803455888
 40
0.8116482959
 40
0.8429836577
 40
0.8743484063
 40
0.9057384835
 40
0.9371464862
 40
0.9685722216
 40
1.0
 40
1.0
 40
1.0
 40
1.0
 10
4.2751105574
 20
5.6981927785
 30
0.0
 10
4.2723367708
 20
5.6981927785
 30
0.0
 10
4.2667856226
 20
5.6979231819
 30
0.0
 10
4.2585418494
 20
5.696714673
 30
0.0
 10
4.2504566231
 20
5.6947127882
 30
0.0
 10
4.2426090643
 20
5.6919376485
 30
0.0
 10
4.2350742321
 20
5.6884153134
 30
0.0
 10
4.2279248592
 20
5.6841798628
 30
0.0
 10
4.2212297097
 20
5.6792720708
 30
0.0
 10
4.2150532787
 20
5.6737391425
 30
0.0
 10
4.2094550799
 20
5.6676343065
 30
0.0
 10
4.2044891501
 20
5.6610162592
 30
0.0
 10
4.2002033165
 20
5.653948772
 30
0.0
 10
4.1966388603
 20
5.6464999253
 30
0.0
 10
4.1938301574
 20
5.6387414543
 30
0.0
 10
4.1918043653
 20
5.6307480789
 30
0.0
 10
4.1905810779
 20
5.6225968247
 30
0.0
 10
4.1901720055
 20
5.6143662631
 30
0.0
 10
4.1905810779
 20
5.6061357014
 30
0.0
 10
4.1918043653
 20
5.5979844472
 30
0.0
 10
4.1938301574
 20
5.5899910718
 30
0.0
 10
4.1966388603
 20
5.5822326008
 30
0.0
 10
4.2002033165
 20
5.5747837541
 30
0.0
 10
4.2044891501
 20
5.5677162669
 30
0.0
 10
4.2094550799
 20
5.5610982196
 30
0.0
 10
4.2150532787
 20
5.5549933836
 30
0.0
 10
4.2212297097
 20
5.5494604554
 30
0.0
 10
4.2279248592
 20
5.5445526633
 30
0.0
 10
4.2350742321
 20
5.5403172127
 30
0.0
 10
4.2426090643
 20
5.5367948776
 30
0.0
 10
4.2504566231
 20
5.5340197379
 30
0.0
 10
4.2585418494
 20
5.5320178531
 30
0.0
 10
4.2667856226
 20
5.5308093442
 30
0.0
 10
4.2723367708
 20
5.5305397476
 30
0.0
 10
4.2751105574
 20
5.5305397476
 30
0.0
  0
LINE
  5
399
100
AcDbEntity
  8
0
100
AcDbLine
 62
7
  6
CONTINUOUS
 10
4.2257619243
 20
5.0011101876
 11
4.2272367188
 21
5.001372587
  0
LINE
  5
39A
100
AcDbEntity
  8
0
100
AcDbLine
 62
7
  6
CONTINUOUS
 10
4.2272367188
 20
5.001372587
 11
4.2291303382
 21
5.0019953088
  0
LINE
  5
39B
100
AcDbEntity
  8
0
100
AcDbLine
 62
7
  6
CONTINUOUS
 10
4.2861886014
 20
5.0001933253
 11
4.2867412382
 21
5.0003764072
  0
LINE
  5
39C
100
AcDbEntity
  8
0
100
AcDbLine
 62
7
  6
CONTINUOUS
 10
4.3731673752
 20
5.0063259078
 11
4.3743096711
 21
5.0056932433
  0
LINE
  5
39D
100
AcDbEntity
  8
0
100
AcDbLine
 62
7
  6
CONTINUOUS
 10
4.3743096711
 20
5.0056932433
 11
4.3781166
 21
5.0049872707
  0
SPLINE
  5
39E
100
AcDbEntity
  8
0
100
AcDbSpline
 62
7
  6
CONTINUOUS
 70
0
 71
3
 72
23
 73
19
 74
0
 42
0.0000001
 43
0.0000001
 44
0.0000000001
 40
0.0
 40
0.0
 40
0.0
 40
0.0
 40
0.0628565174
 40
0.1257065998
 40
0.1885231203
 40
0.2513032181
 40
0.3140326224
 40
0.3767034217
 40
0.4393088509
 40
0.5018447791
 40
0.5643098257
 40
0.6267052894
 40
0.6890351354
 40
0.7513058301
 40
0.8135261586
 40
0.8757069013
 40
0.9378603899
 40
1.0
 40
1.0
 40
1.0
 40
1.0
 10
4.2751105574
 20
5.4967925131
 30
0.0
 10
4.278332431
 20
5.4967925131
 30
0.0
 10
4.2847802139
 20
5.4971056155
 30
0.0
 10
4.2943555637
 20
5.4985093922
 30
0.0
 10
4.3037467223
 20
5.5008345918
 30
0.0
 10
4.3128618686
 20
5.5040580335
 30
0.0
 10
4.3216137733
 20
5.5081492932
 30
0.0
 10
4.3299179837
 20
5.5130688298
 30
0.0
 10
4.3376945618
 20
5.5187693817
 30
0.0
 10
4.3448686136
 20
5.5251960535
 30
0.0
 10
4.3513710331
 20
5.5322869984
 30
0.0
 10
4.3571391453
 20
5.5399739839
 30
0.0
 10
4.3621173035
 20
5.5481830237
 30
0.0
 10
4.3662574761
 20
5.5568350896
 30
0.0
 10
4.3695197838
 20
5.5658467222
 30
0.0
 10
4.3718727744
 20
5.5751314353
 30
0.0
 10
4.373293743
 20
5.5845985404
 30
0.0
 10
4.3736105574
 20
5.5909740342
 30
0.0
 10
4.3736105574
 20
5.5941591609
 30
0.0
  0
SPLINE
  5
39F
100
AcDbEntity
  8
0
100
AcDbSpline
 62
7
  6
CONTINUOUS
 70
0
 71
3
 72
39
 73
35
 74
0
 42
0.0000001
 43
0.0000001
 44
0.0000000001
 40
0.0
 40
0.0
 40
0.0
 40
0.0
 40
0.0314277784
 40
0.0628535138
 40
0.0942615165
 40
0.1256515937
 40
0.1570163423
 40
0.1883517041
 40
0.2196544112
 40
0.2509223753
 40
0.2821549227
 40
0.3133526671
 40
0.344517568
 40
0.3756528912
 40
0.4067630629
 40
0.4378534659
 40
0.4689302211
 40
0.5
 40
0.5310697789
 40
0.5621465341
 40
0.5932369371
 40
0.6243471088
 40
0.655482432
 40
0.6866473329
 40
0.7178450773
 40
0.7490776247
 40
0.7803455888
 40
0.8116482959
 40
0.8429836577
 40
0.8743484063
 40
0.9057384835
 40
0.9371464862
 40
0.9685722216
 40
1.0
 40
1.0
 40
1.0
 40
1.0
 10
4.2751105574
 20
5.6981927785
 30
0.0
 10
4.2778843439
 20
5.6981927785
 30
0.0
 10
4.2834354921
 20
5.6979231819
 30
0.0
 10
4.2916792653
 20
5.696714673
 30
0.0
 10
4.2997644916
 20
5.6947127882
 30
0.0
 10
4.3076120504
 20
5.6919376485
 30
0.0
 10
4.3151468826
 20
5.6884153134
 30
0.0
 10
4.3222962555
 20
5.6841798628
 30
0.0
 10
4.328991405
 20
5.6792720708
 30
0.0
 10
4.335167836
 20
5.6737391425
 30
0.0
 10
4.3407660348
 20
5.6676343065
 30
0.0
 10
4.3457319646
 20
5.6610162592
 30
0.0
 10
4.3500177982
 20
5.653948772
 30
0.0
 10
4.3535822544
 20
5.6464999253
 30
0.0
 10
4.3563909573
 20
5.6387414543
 30
0.0
 10
4.3584167494
 20
5.6307480789
 30
0.0
 10
4.3596400368
 20
5.6225968247
 30
0.0
 10
4.3600491092
 20
5.6143662631
 30
0.0
 10
4.3596400368
 20
5.6061357014
 30
0.0
 10
4.3584167494
 20
5.5979844472
 30
0.0
 10
4.3563909573
 20
5.5899910718
 30
0.0
 10
4.3535822544
 20
5.5822326008
 30
0.0
 10
4.3500177982
 20
5.5747837541
 30
0.0
 10
4.3457319646
 20
5.5677162669
 30
0.0
 10
4.3407660348
 20
5.5610982196
 30
0.0
 10
4.335167836
 20
5.5549933836
 30
0.0
 10
4.328991405
 20
5.5494604554
 30
0.0
 10
4.3222962555
 20
5.5445526633
 30
0.0
 10
4.3151468826
 20
5.5403172127
 30
0.0
 10
4.3076120504
 20
5.5367948776
 30
0.0
 10
4.2997644916
 20
5.5340197379
 30
0.0
 10
4.2916792653
 20
5.5320178531
 30
0.0
 10
4.2834354921
 20
5.5308093442
 30
0.0
 10
4.2778843439
 20
5.5305397476
 30
0.0
 10
4.2751105574
 20
5.5305397476
 30
0.0
  0
SPLINE
  5
3A0
100
AcDbEntity
  8
0
100
AcDbSpline
 62
7
  6
CONTINUOUS
 70
0
 71
3
 72
18
 73
14
 74
0
 42
0.0000001
 43
0.0000001
 44
0.0000000001
 40
0.0
 40
0.0
 40
0.0
 40
0.0
 40
0.0220441339
 40
0.0499743645
 40
0.084118944
 40
0.1245325388
 40
0.1711322908
 40
0.2237345272
 40
0.3458225959
 40
0.4881082088
 40
0.6471997331
 40
0.8192627348
 40
1.0
 40
1.0
 40
1.0
 40
1.0
 10
4.1522411833
 20
5.0522358714
 30
0.0
 10
4.1522964092
 20
5.0521793353
 30
0.0
 10
4.1524404775
 20
5.052070012
 30
0.0
 10
4.1527066692
 20
5.0519272496
 30
0.0
 10
4.1530471452
 20
5.0517876517
 30
0.0
 10
4.1534601246
 20
5.0516522451
 30
0.0
 10
4.1539435916
 20
5.0515218396
 30
0.0
 10
4.1547176718
 20
5.0513471704
 30
0.0
 10
4.1558382392
 20
5.0511539196
 30
0.0
 10
4.1573448151
 20
5.0509636521
 30
0.0
 10
4.1590356288
 20
5.0508108658
 30
0.0
 10
4.1608677263
 20
5.0506997795
 30
0.0
 10
4.1621320042
 20
5.0506562663
 30
0.0
 10
4.1627798257
 20
5.0506417877
 30
0.0
  0
SPLINE
  5
3A1
100
AcDbEntity
  8
0
100
AcDbSpline
 62
7
  6
CONTINUOUS
 70
0
 71
3
 72
13
 73
9
 74
0
 42
0.0000001
 43
0.0000001
 44
0.0000000001
 40
0.0
 40
0.0
 40
0.0
 40
0.0
 40
0.0813396139
 40
0.1784489148
 40
0.2899671488
 40
0.4143248962
 40
0.6938576178
 40
1.0
 40
1.0
 40
1.0
 40
1.0
 10
4.1118194447
 20
5.0453802215
 30
0.0
 10
4.1120794547
 20
5.0453010103
 30
0.0
 10
4.1126579804
 20
5.0451539091
 30
0.0
 10
4.1136092922
 20
5.044968326
 30
0.0
 10
4.1147097117
 20
5.0448014311
 30
0.0
 10
4.1164204238
 20
5.0445998737
 30
0.0
 10
4.1187874014
 20
5.0444214191
 30
0.0
 10
4.1207439274
 20
5.0443552947
 30
0.0
 10
4.1217668282
 20
5.0443397609
 30
0.0
  0
SPLINE
  5
3A2
100
AcDbEntity
  8
0
100
AcDbSpline
 62
7
  6
CONTINUOUS
 70
0
 71
3
 72
11
 73
7
 74
0
 42
0.0000001
 43
0.0000001
 44
0.0000000001
 40
0.0
 40
0.0
 40
0.0
 40
0.0
 40
0.2497276323
 40
0.4997091403
 40
0.7498794844
 40
1.0
 40
1.0
 40
1.0
 40
1.0
 10
5.7896181357
 20
2.821435008
 30
0.0
 10
5.7898920801
 20
2.8208415347
 30
0.0
 10
5.7903961604
 20
2.8196328036
 30
0.0
 10
5.7909845441
 20
2.8177567907
 30
0.0
 10
5.7913607933
 20
2.8158248612
 30
0.0
 10
5.7914486567
 20
2.8145139088
 30
0.0
 10
5.7914485795
 20
2.8138592321
 30
0.0
  0
SPLINE
  5
3A3
100
AcDbEntity
  8
0
100
AcDbSpline
 62
7
  6
CONTINUOUS
 70
0
 71
3
 72
11
 73
7
 74
0
 42
0.0000001
 43
0.0000001
 44
0.0000000001
 40
0.0
 40
0.0
 40
0.0
 40
0.0
 40
0.250119331
 40
0.5002826172
 40
0.7502692857
 40
1.0
 40
1.0
 40
1.0
 40
1.0
 10
5.7914485795
 20
2.7143743086
 30
0.0
 10
5.7914485541
 20
2.7137196532
 30
0.0
 10
5.7913607571
 20
2.712408765
 30
0.0
 10
5.7909845258
 20
2.7104768898
 30
0.0
 10
5.7903962169
 20
2.7086009114
 30
0.0
 10
5.789892206
 20
2.7073921669
 30
0.0
 10
5.7896182926
 20
2.7067986903
 30
0.0
  0
ELLIPSE
  5
3A4
100
AcDbEntity
  8
0
100
AcDbEllipse
 62
7
  6
CONTINUOUS
 10
4.2751105574
 20
5.0171025918
 30
0.0
 11
0.1552053493
 21
-0.0201473899
 31
0.0
 40
0.474907773
 41
0.258853807
 42
0.3435651275
  0
ELLIPSE
  5
3A5
100
AcDbEntity
  8
0
100
AcDbEllipse
 62
7
  6
CONTINUOUS
 10
4.2751105574
 20
5.0171025918
 30
0.0
 11
0.1527400974
 21
0.0381527728
 31
0.0
 40
0.7644786049
 41
2.7069432621
 42
2.7556226393
  0
ELLIPSE
  5
3A6
100
AcDbEntity
  8
0
100
AcDbEllipse
 62
7
  6
CONTINUOUS
 10
4.1730719854
 20
5.1307073279
 30
0.0
 11
0.2780673526
 21
-0.1367000485
 31
0.0
 40
0.400608112
 41
-1.7243496147
 42
-1.6765756426
  0
ELLIPSE
  5
3A7
100
AcDbEntity
  8
0
100
AcDbEllipse
 62
7
  6
CONTINUOUS
 10
4.2751105574
 20
5.0171025918
 30
0.0
 11
0.1476090399
 21
0.0781993839
 31
0.0
 40
0.6254045512
 41
2.251972384
 42
2.3102099534
  0
ELLIPSE
  5
3A8
100
AcDbEntity
  8
0
100
AcDbEllipse
 62
7
  6
CONTINUOUS
 10
4.1161817554
 20
5.1369594173
 30
0.0
 11
0.3060327977
 21
-0.1743251988
 31
0.0
 40
0.2229739838
 41
-1.4621927447
 42
-1.4144187726
  0
ELLIPSE
  5
3A9
100
AcDbEntity
  8
0
100
AcDbEllipse
 62
7
  6
CONTINUOUS
 10
4.2751105574
 20
5.0171025918
 30
0.0
 11
0.1490736958
 21
0.0942070627
 31
0.0
 40
0.4696165267
 41
8.2309035246
 42
8.3106815228
  0
ELLIPSE
  5
3AA
100
AcDbEntity
  8
0
100
AcDbEllipse
 62
7
  6
CONTINUOUS
 10
4.074848584
 20
5.1455646801
 30
0.0
 11
0.3312434189
 21
-0.1995166648
 31
0.0
 40
0.0855355287
 41
-1.2562766852
 42
-1.2085027131
  0
ELLIPSE
  5
3AB
100
AcDbEntity
  8
0
100
AcDbEllipse
 62
7
  6
CONTINUOUS
 10
4.2751105574
 20
5.0171025918
 30
0.0
 11
0.1520897922
 21
0.1010713739
 31
0.0
 40
0.3204410998
 41
1.7073048605
 42
1.792016181
  0
ELLIPSE
  5
3AC
100
AcDbEntity
  8
0
100
AcDbEllipse
 62
7
  6
CONTINUOUS
 10
4.2751105574
 20
5.0171025918
 30
0.0
 11
0.1554584671
 21
-0.0984867217
 31
0.0
 40
0.0364896329
 41
1.7911926689
 42
1.8759039894
  0
ELLIPSE
  5
3AD
100
AcDbEntity
  8
0
100
AcDbEllipse
 62
7
  6
CONTINUOUS
 10
4.2751105574
 20
5.0171025918
 30
0.0
 11
0.154441083
 21
0.1022144226
 31
0.0
 40
0.177238619
 41
1.4861918926
 42
1.570903213
  0
ELLIPSE
  5
3AE
100
AcDbEntity
  8
0
100
AcDbEllipse
 62
7
  6
CONTINUOUS
 10
4.2751105574
 20
5.0171025918
 30
0.0
 11
0.154441083
 21
-0.1022144226
 31
0.0
 40
0.177238619
 41
1.5706894406
 42
1.655400761
  0
ELLIPSE
  5
3AF
100
AcDbEntity
  8
0
100
AcDbEllipse
 62
7
  6
CONTINUOUS
 10
4.2751105574
 20
5.0171025918
 30
0.0
 11
0.1554584671
 21
0.0984867217
 31
0.0
 40
0.0364896329
 41
1.2656886642
 42
1.3503999847
  0
ELLIPSE
  5
3B0
100
AcDbEntity
  8
0
100
AcDbEllipse
 62
7
  6
CONTINUOUS
 10
4.2751105574
 20
5.0171025918
 30
0.0
 11
0.1520897922
 21
-0.1010713739
 31
0.0
 40
0.3204410998
 41
1.3495764726
 42
1.4342877931
  0
ELLIPSE
  5
3B1
100
AcDbEntity
  8
0
100
AcDbEllipse
 62
7
  6
CONTINUOUS
 10
4.4753725307
 20
5.1455646801
 30
0.0
 11
0.3312434189
 21
0.1995166648
 31
0.0
 40
0.0855355287
 41
-1.9330899405
 42
-1.8853159684
  0
ELLIPSE
  5
3B2
100
AcDbEntity
  8
0
100
AcDbEllipse
 62
7
  6
CONTINUOUS
 10
4.2751105574
 20
5.0171025918
 30
0.0
 11
0.1490736958
 21
-0.0942070627
 31
0.0
 40
0.4696165267
 41
7.3972817451
 42
7.4770597433
  0
ELLIPSE
  5
3B3
100
AcDbEntity
  8
0
100
AcDbEllipse
 62
7
  6
CONTINUOUS
 10
4.4340393593
 20
5.1369594173
 30
0.0
 11
0.3060327977
 21
0.1743251988
 31
0.0
 40
0.2229739838
 41
-1.727173881
 42
-1.6793999089
  0
ELLIPSE
  5
3B4
100
AcDbEntity
  8
0
100
AcDbEllipse
 62
7
  6
CONTINUOUS
 10
4.2751105574
 20
5.0171025918
 30
0.0
 11
0.1476090399
 21
-0.0781993839
 31
0.0
 40
0.6254045512
 41
0.8313827002
 42
0.8896202696
  0
ELLIPSE
  5
3B5
100
AcDbEntity
  8
0
100
AcDbEllipse
 62
7
  6
CONTINUOUS
 10
4.3771491293
 20
5.1307073279
 30
0.0
 11
0.2780673526
 21
0.1367000485
 31
0.0
 40
0.400608112
 41
-1.465017011
 42
-1.4172430389
  0
ELLIPSE
  5
3B6
100
AcDbEntity
  8
0
100
AcDbEllipse
 62
7
  6
CONTINUOUS
 10
4.2751105574
 20
5.0171025918
 30
0.0
 11
0.1527400974
 21
-0.0381527728
 31
0.0
 40
0.7644786049
 41
0.3859700143
 42
0.4346493915
  0
ELLIPSE
  5
3B7
100
AcDbEntity
  8
0
100
AcDbEllipse
 62
7
  6
CONTINUOUS
 10
4.3102706531
 20
5.1274204099
 30
0.0
 11
0.2639514758
 21
0.064190678
 31
0.0
 40
0.5981924693
 41
-1.0305441771
 42
-0.982770205
  0
ELLIPSE
  5
3B8
100
AcDbEntity
  8
0
100
AcDbEllipse
 62
7
  6
CONTINUOUS
 10
4.3771491293
 20
5.1912909086
 30
0.0
 11
0.2512550434
 21
0.2272586745
 31
0.0
 40
0.5769452805
 41
-1.7515328715
 42
-1.7136656554
  0
ELLIPSE
  5
3B9
100
AcDbEntity
  8
0
100
AcDbEllipse
 62
7
  6
CONTINUOUS
 10
4.2751105574
 20
5.0171025918
 30
0.0
 11
0.1541678658
 21
-0.0533236968
 31
0.0
 40
0.3808919632
 41
0.6424315011
 42
0.7271428215
  0
ELLIPSE
  5
3BA
100
AcDbEntity
  8
0
100
AcDbEllipse
 62
7
  6
CONTINUOUS
 10
4.4340393593
 20
5.1850388192
 30
0.0
 11
0.2945730228
 21
0.2339247142
 31
0.0
 40
0.3916518469
 41
-1.9023705699
 42
-1.8611476661
  0
ELLIPSE
  5
3BB
100
AcDbEntity
  8
0
100
AcDbEllipse
 62
7
  6
CONTINUOUS
 10
4.2751105574
 20
5.0171025918
 30
0.0
 11
0.1543793624
 21
-0.0755061509
 31
0.0
 40
0.2468008202
 41
0.9457297314
 42
1.0304410518
  0
ELLIPSE
  5
3BC
100
AcDbEntity
  8
0
100
AcDbEllipse
 62
7
  6
CONTINUOUS
 10
4.4753725307
 20
5.1764335563
 30
0.0
 11
0.3264151636
 21
0.2346957394
 31
0.0
 40
0.2508682184
 41
-2.0600729705
 42
-2.0122989984
  0
ELLIPSE
  5
3BD
100
AcDbEntity
  8
0
100
AcDbEllipse
 62
7
  6
CONTINUOUS
 10
4.2751105574
 20
5.0171025918
 30
0.0
 11
0.1552146655
 21
-0.0898539117
 31
0.0
 40
0.1047902948
 41
1.2003501317
 42
1.2850614522
  0
ELLIPSE
  5
3BE
100
AcDbEntity
  8
0
100
AcDbEllipse
 62
7
  6
CONTINUOUS
 10
4.4971026649
 20
5.1663174631
 30
0.0
 11
0.3438470535
 21
0.2290817503
 31
0.0
 40
0.1351315396
 41
-2.2216129982
 42
-2.1738390261
  0
ELLIPSE
  5
3BF
100
AcDbEntity
  8
0
100
AcDbEllipse
 62
7
  6
CONTINUOUS
 10
4.0531184498
 20
5.1556807733
 30
0.0
 11
0.3451833695
 21
-0.2173599675
 31
0.0
 40
0.0281814881
 41
-0.7996071634
 42
-0.7518331913
  0
ELLIPSE
  5
3C0
100
AcDbEntity
  8
0
100
AcDbEllipse
 62
7
  6
CONTINUOUS
 10
4.4971026649
 20
5.1556807733
 30
0.0
 11
0.3451833695
 21
0.2173599675
 31
0.0
 40
0.0281814881
 41
-2.3897594623
 42
-2.3419854902
  0
ELLIPSE
  5
3C1
100
AcDbEntity
  8
0
100
AcDbEllipse
 62
7
  6
CONTINUOUS
 10
4.0531184498
 20
5.1663174631
 30
0.0
 11
0.3438470535
 21
-0.2290817503
 31
0.0
 40
0.1351315396
 41
-0.9677536274
 42
-0.9199796553
  0
ELLIPSE
  5
3C2
100
AcDbEntity
  8
0
100
AcDbEllipse
 62
7
  6
CONTINUOUS
 10
4.2751105574
 20
5.0171025918
 30
0.0
 11
0.1552146655
 21
0.0898539117
 31
0.0
 40
0.1047902948
 41
1.8565312014
 42
1.9412425218
  0
ELLIPSE
  5
3C3
100
AcDbEntity
  8
0
100
AcDbEllipse
 62
7
  6
CONTINUOUS
 10
4.074848584
 20
5.1764335563
 30
0.0
 11
0.3264151636
 21
-0.2346957394
 31
0.0
 40
0.2508682184
 41
-1.1292936552
 42
-1.0815196831
  0
ELLIPSE
  5
3C4
100
AcDbEntity
  8
0
100
AcDbEllipse
 62
7
  6
CONTINUOUS
 10
4.2751105574
 20
5.0171025918
 30
0.0
 11
0.1543793624
 21
0.0755061509
 31
0.0
 40
0.2468008202
 41
2.1111516017
 42
2.1958629222
  0
ELLIPSE
  5
3C5
100
AcDbEntity
  8
0
100
AcDbEllipse
 62
7
  6
CONTINUOUS
 10
4.1161817554
 20
5.1850388192
 30
0.0
 11
0.2945730228
 21
-0.2339247142
 31
0.0
 40
0.3916518469
 41
-1.2804449875
 42
-1.2392220837
  0
ELLIPSE
  5
3C6
100
AcDbEntity
  8
0
100
AcDbEllipse
 62
7
  6
CONTINUOUS
 10
4.2751105574
 20
5.0171025918
 30
0.0
 11
0.1541678658
 21
0.0533236968
 31
0.0
 40
0.3808919632
 41
2.414449832
 42
2.4991611525
  0
ELLIPSE
  5
3C7
100
AcDbEntity
  8
0
100
AcDbEllipse
 62
7
  6
CONTINUOUS
 10
4.1730719854
 20
5.1912909086
 30
0.0
 11
-0.2512550434
 21
0.2272586745
 31
0.0
 40
0.5769452805
 41
-4.5695196518
 42
-4.5316524357
  0
ELLIPSE
  5
3C8
100
AcDbEntity
  8
0
100
AcDbEllipse
 62
7
  6
CONTINUOUS
 10
4.2751105574
 20
5.0171025918
 30
0.0
 11
0.1552053493
 21
0.0201473899
 31
0.0
 40
0.474907773
 41
2.7980275261
 42
2.8827388466
  0
ELLIPSE
  5
3C9
100
AcDbEntity
  8
0
100
AcDbEllipse
 62
7
  6
CONTINUOUS
 10
4.2399504616
 20
5.1274204099
 30
0.0
 11
0.2639514758
 21
-0.064190678
 31
0.0
 40
0.5981924693
 41
-2.1588224486
 42
-2.1110484765
  0
ELLIPSE
  5
3CA
100
AcDbEntity
  8
0
100
AcDbEllipse
 62
7
  6
CONTINUOUS
 10
4.2170153624
 20
5.0629766337
 30
0.0
 11
0.0124966613
 21
-0.007916939
 31
0.0
 40
0.0364896329
 41
-0.4585116862
 42
0.8188968591
  0
ELLIPSE
  5
3CB
100
AcDbEntity
  8
0
100
AcDbEllipse
 62
7
  6
CONTINUOUS
 10
4.1646069299
 20
5.0129253631
 30
0.0
 11
0.0122258675
 21
-0.0081247085
 31
0.0
 40
0.3204410998
 41
-0.8465760359
 42
0.3772806628
  0
ELLIPSE
  5
3CC
100
AcDbEntity
  8
0
100
AcDbEllipse
 62
7
  6
CONTINUOUS
 10
4.3856141848
 20
5.058937451
 30
0.0
 11
0.0119834161
 21
-0.007572915
 31
0.0
 40
0.4696165267
 41
-1.1356079172
 42
0.1418006281
  0
ELLIPSE
  5
3CD
100
AcDbEntity
  8
0
100
AcDbEllipse
 62
7
  6
CONTINUOUS
 10
4.4272057523
 20
5.0526462763
 30
0.0
 11
0.0118656784
 21
-0.0062861241
 31
0.0
 40
0.6254045512
 41
-1.2560829232
 42
-0.1409131096
  0
ELLIPSE
  5
3CE
100
AcDbEntity
  8
0
100
AcDbEllipse
 62
7
  6
CONTINUOUS
 10
4.3856141848
 20
5.0129253631
 30
0.0
 11
0.0122258675
 21
0.0081247085
 31
0.0
 40
0.3204410998
 41
9.047497298
 42
10.2713539967
  0
ELLIPSE
  5
3CF
100
AcDbEntity
  8
0
100
AcDbEllipse
 62
7
  6
CONTINUOUS
 10
4.3332057523
 20
5.0088861803
 30
0.0
 11
0.0124148781
 21
0.0082165935
 31
0.0
 40
0.177238619
 41
8.82638433
 42
10.1037928753
  0
ELLIPSE
  5
3D0
100
AcDbEntity
  8
0
100
AcDbEllipse
 62
7
  6
CONTINUOUS
 10
4.2751105574
 20
5.0074943728
 30
0.0
 11
0.0124966613
 21
0.007916939
 31
0.0
 40
0.0364896329
 41
8.6058811017
 42
9.8832896469
  0
ELLIPSE
  5
3D1
100
AcDbEntity
  8
0
100
AcDbEllipse
 62
7
  6
CONTINUOUS
 10
4.3102706531
 20
5.1945778265
 30
0.0
 11
0.1919189317
 21
0.2229178264
 31
0.0
 40
0.8309556449
 41
-3.4808774576
 42
-3.4331034856
  0
ELLIPSE
  5
3D2
100
AcDbEntity
  8
0
100
AcDbEllipse
 62
7
  6
CONTINUOUS
 10
4.2170153624
 20
5.0088861803
 30
0.0
 11
0.0124148781
 21
-0.0082165935
 31
0.0
 40
0.177238619
 41
-0.6790149145
 42
0.5983936307
  0
ELLIPSE
  5
3D3
100
AcDbEntity
  8
0
100
AcDbEllipse
 62
7
  6
CONTINUOUS
 10
4.3771491293
 20
5.1912909086
 30
0.0
 11
0.2512550434
 21
0.2272586745
 31
0.0
 40
0.5769452805
 41
-3.5786503826
 42
-3.5308764105
  0
ELLIPSE
  5
3D4
100
AcDbEntity
  8
0
100
AcDbEllipse
 62
7
  6
CONTINUOUS
 10
4.4340393593
 20
5.1850388192
 30
0.0
 11
0.2945730228
 21
0.2339247142
 31
0.0
 40
0.3916518469
 41
2.5536972262
 42
2.6014711983
  0
ELLIPSE
  5
3D5
100
AcDbEntity
  8
0
100
AcDbEllipse
 62
7
  6
CONTINUOUS
 10
4.4753725307
 20
5.1764335563
 30
0.0
 11
0.3264151636
 21
0.2346957394
 31
0.0
 40
0.2508682184
 41
2.3959948255
 42
2.4437687976
  0
ELLIPSE
  5
3D6
100
AcDbEntity
  8
0
100
AcDbEllipse
 62
7
  6
CONTINUOUS
 10
4.0531184498
 20
5.1556807733
 30
0.0
 11
0.3451833695
 21
-0.2173599675
 31
0.0
 40
0.0281814881
 41
1.0275103477
 42
1.0752843198
  0
ELLIPSE
  5
3D7
100
AcDbEntity
  8
0
100
AcDbEllipse
 62
7
  6
CONTINUOUS
 10
4.4971026649
 20
5.1663174631
 30
0.0
 11
0.3438470535
 21
0.2290817503
 31
0.0
 40
0.1351315396
 41
2.2344547978
 42
2.2822287699
  0
ELLIPSE
  5
3D8
100
AcDbEntity
  8
0
100
AcDbEllipse
 62
7
  6
CONTINUOUS
 10
4.0531184498
 20
5.1663174631
 30
0.0
 11
0.3438470535
 21
-0.2290817503
 31
0.0
 40
0.1351315396
 41
0.8593638837
 42
0.9071378558
  0
ELLIPSE
  5
3D9
100
AcDbEntity
  8
0
100
AcDbEllipse
 62
7
  6
CONTINUOUS
 10
4.4971026649
 20
5.1556807733
 30
0.0
 11
0.3451833695
 21
0.2173599675
 31
0.0
 40
0.0281814881
 41
2.0663083338
 42
2.1140823059
  0
ELLIPSE
  5
3DA
100
AcDbEntity
  8
0
100
AcDbEllipse
 62
7
  6
CONTINUOUS
 10
4.074848584
 20
5.1764335563
 30
0.0
 11
0.3264151636
 21
-0.2346957394
 31
0.0
 40
0.2508682184
 41
0.697823856
 42
0.7455978281
  0
ELLIPSE
  5
3DB
100
AcDbEntity
  8
0
100
AcDbEllipse
 62
7
  6
CONTINUOUS
 10
4.1161817554
 20
5.1850388192
 30
0.0
 11
0.2945730228
 21
-0.2339247142
 31
0.0
 40
0.3916518469
 41
0.5401214553
 42
0.5878954274
  0
ELLIPSE
  5
3DC
100
AcDbEntity
  8
0
100
AcDbEllipse
 62
7
  6
CONTINUOUS
 10
4.1730719854
 20
5.1912909086
 30
0.0
 11
-0.2512550434
 21
0.2272586745
 31
0.0
 40
0.5769452805
 41
-2.7523088966
 42
-2.7045349245
  0
ELLIPSE
  5
3DD
100
AcDbEntity
  8
0
100
AcDbEllipse
 62
7
  6
CONTINUOUS
 10
4.2399504616
 20
5.1945778265
 30
0.0
 11
-0.1919189317
 21
0.2229178264
 31
0.0
 40
0.8309556449
 41
-2.8500818216
 42
-2.8023078495
  0
ELLIPSE
  5
3DE
100
AcDbEntity
  8
0
100
AcDbEllipse
 62
7
  6
CONTINUOUS
 10
4.3102706531
 20
5.1945778265
 30
0.0
 11
0.1919189317
 21
0.2229178264
 31
0.0
 40
0.8309556449
 41
-1.6537599465
 42
-1.6059859744
  0
ELLIPSE
  5
3DF
100
AcDbEntity
  8
0
100
AcDbEllipse
 62
7
  6
CONTINUOUS
 10
4.2751105574
 20
5.0171025918
 30
0.0
 11
0.1527400974
 21
0.0381527728
 31
0.0
 40
0.7644786049
 41
-0.305562503
 42
-0.2607509723
  0
ELLIPSE
  5
3E0
100
AcDbEntity
  8
0
100
AcDbEllipse
 62
7
  6
CONTINUOUS
 10
4.2751105574
 20
5.0171025918
 30
0.0
 11
0.1476090399
 21
0.0781993839
 31
0.0
 40
0.6254045512
 41
-0.7509751889
 42
-0.6662638684
  0
ELLIPSE
  5
3E1
100
AcDbEntity
  8
0
100
AcDbEllipse
 62
7
  6
CONTINUOUS
 10
4.2751105574
 20
5.0171025918
 30
0.0
 11
0.1490736958
 21
0.0942070627
 31
0.0
 40
0.4696165267
 41
-1.0336889266
 42
-0.9489776062
  0
ELLIPSE
  5
3E2
100
AcDbEntity
  8
0
100
AcDbEllipse
 62
7
  6
CONTINUOUS
 10
4.2751105574
 20
5.0171025918
 30
0.0
 11
0.1520897922
 21
0.1010713739
 31
0.0
 40
0.3204410998
 41
-1.2691689613
 42
-1.1844576408
  0
ELLIPSE
  5
3E3
100
AcDbEntity
  8
0
100
AcDbEllipse
 62
7
  6
CONTINUOUS
 10
4.2751105574
 20
5.0171025918
 30
0.0
 11
0.154441083
 21
0.1022144226
 31
0.0
 40
0.177238619
 41
-1.4902819292
 42
-1.4055706088
  0
ELLIPSE
  5
3E4
100
AcDbEntity
  8
0
100
AcDbEllipse
 62
7
  6
CONTINUOUS
 10
4.2751105574
 20
5.0171025918
 30
0.0
 11
0.1554584671
 21
-0.0984867217
 31
0.0
 40
0.0364896329
 41
-1.5155188165
 42
-1.430807496
  0
ELLIPSE
  5
3E5
100
AcDbEntity
  8
0
100
AcDbEllipse
 62
7
  6
CONTINUOUS
 10
4.2751105574
 20
5.0171025918
 30
0.0
 11
0.1554584671
 21
0.0984867217
 31
0.0
 40
0.0364896329
 41
-1.7107851576
 42
-1.6260738371
  0
ELLIPSE
  5
3E6
100
AcDbEntity
  8
0
100
AcDbEllipse
 62
7
  6
CONTINUOUS
 10
4.2751105574
 20
5.0171025918
 30
0.0
 11
0.154441083
 21
-0.1022144226
 31
0.0
 40
0.177238619
 41
-1.7360220448
 42
-1.6513107244
  0
ELLIPSE
  5
3E7
100
AcDbEntity
  8
0
100
AcDbEllipse
 62
7
  6
CONTINUOUS
 10
4.2751105574
 20
5.0171025918
 30
0.0
 11
0.1520897922
 21
-0.1010713739
 31
0.0
 40
0.3204410998
 41
-1.9571350128
 42
-1.8724236923
  0
ELLIPSE
  5
3E8
100
AcDbEntity
  8
0
100
AcDbEllipse
 62
7
  6
CONTINUOUS
 10
4.2751105574
 20
5.0074943728
 30
0.0
 11
0.0124966613
 21
-0.007916939
 31
0.0
 40
0.0364896329
 41
-0.4585116862
 42
0.8188968591
  0
ELLIPSE
  5
3E9
100
AcDbEntity
  8
0
100
AcDbEllipse
 62
7
  6
CONTINUOUS
 10
4.2751105574
 20
5.0171025918
 30
0.0
 11
0.1490736958
 21
-0.0942070627
 31
0.0
 40
0.4696165267
 41
-2.1926150474
 42
-2.107903727
  0
ELLIPSE
  5
3EA
100
AcDbEntity
  8
0
100
AcDbEllipse
 62
7
  6
CONTINUOUS
 10
4.2751105574
 20
5.0171025918
 30
0.0
 11
0.1476090399
 21
-0.0781993839
 31
0.0
 40
0.6254045512
 41
-2.4753287852
 42
-2.3906174647
  0
ELLIPSE
  5
3EB
100
AcDbEntity
  8
0
100
AcDbEllipse
 62
7
  6
CONTINUOUS
 10
4.2751105574
 20
5.0171025918
 30
0.0
 11
0.1527400974
 21
-0.0381527728
 31
0.0
 40
0.7644786049
 41
3.4023436259
 42
3.4471551566
  0
ELLIPSE
  5
3EC
100
AcDbEntity
  8
0
100
AcDbEllipse
 62
7
  6
CONTINUOUS
 10
4.2399504616
 20
5.1945778265
 30
0.0
 11
-0.1919189317
 21
0.2229178264
 31
0.0
 40
0.8309556449
 41
-4.6771993328
 42
-4.6294253607
  0
ELLIPSE
  5
3ED
100
AcDbEntity
  8
0
100
AcDbEllipse
 62
7
  6
CONTINUOUS
 10
4.3332057523
 20
5.0629766337
 30
0.0
 11
0.0124966613
 21
0.007916939
 31
0.0
 40
0.0364896329
 41
8.6058811017
 42
9.8832896469
  0
ELLIPSE
  5
3EE
100
AcDbEntity
  8
0
100
AcDbEllipse
 62
7
  6
CONTINUOUS
 10
4.2751105574
 20
5.0643684412
 30
0.0
 11
0.0124148781
 21
0.0082165935
 31
0.0
 40
0.177238619
 41
8.82638433
 42
10.1037928753
  0
ELLIPSE
  5
3EF
100
AcDbEntity
  8
0
100
AcDbEllipse
 62
7
  6
CONTINUOUS
 10
4.2170153624
 20
5.0629766337
 30
0.0
 11
0.0122258675
 21
0.0081247085
 31
0.0
 40
0.3204410998
 41
9.047497298
 42
10.3249058432
  0
ELLIPSE
  5
3F0
100
AcDbEntity
  8
0
100
AcDbEllipse
 62
7
  6
CONTINUOUS
 10
4.1646069299
 20
5.058937451
 30
0.0
 11
0.0119834161
 21
0.007572915
 31
0.0
 40
0.4696165267
 41
2.9997920255
 42
4.2772005707
  0
ELLIPSE
  5
3F1
100
AcDbEntity
  8
0
100
AcDbEllipse
 62
7
  6
CONTINUOUS
 10
4.1230153624
 20
5.0526462763
 30
0.0
 11
0.0118656784
 21
0.0062861241
 31
0.0
 40
0.6254045512
 41
-3.000679544
 42
-1.8855097304
  0
ELLIPSE
  5
3F2
100
AcDbEntity
  8
0
100
AcDbEllipse
 62
7
  6
CONTINUOUS
 10
4.3332057523
 20
5.0629766337
 30
0.0
 11
0.0122258675
 21
-0.0081247085
 31
0.0
 40
0.3204410998
 41
-0.9001278825
 42
0.3772806628
  0
ELLIPSE
  5
3F3
100
AcDbEntity
  8
0
100
AcDbEllipse
 62
7
  6
CONTINUOUS
 10
4.2751105574
 20
5.0643684412
 30
0.0
 11
0.0124148781
 21
-0.0082165935
 31
0.0
 40
0.177238619
 41
-0.6790149145
 42
0.5983936307
  0
ENDSEC
  0
SECTION
  2
OBJECTS
  0
DICTIONARY
  5
C
100
AcDbDictionary
280
0
281
1
  3
ACAD_GROUP
350
D
  3
ACAD_MLINESTYLE
350
17
  3
ACAD_LAYOUT
350
1A
  3
ACAD_PLOTSETTINGS
350
19
  3
ACAD_PLOTSTYLENAME
350
E
  0
DICTIONARY
  5
D
102
{ACAD_REACTORS
330
C
102
}
100
AcDbDictionary
280
0
281
1
  0
ACDBDICTIONARYWDFLT
  5
E
102
{ACAD_REACTORS
330
C
102
}
100
AcDbDictionary
281
1
  3
Normal
350
F
100
AcDbDictionaryWithDefault
340
F
  0
DICTIONARY
  5
17
102
{ACAD_REACTORS
330
C
102
}
100
AcDbDictionary
280
0
281
1
  3
Standard
350
18
  0
DICTIONARY
  5
19
102
{ACAD_REACTORS
330
C
102
}
100
AcDbDictionary
281
1
  0
DICTIONARY
  5
1A
102
{ACAD_REACTORS
330
C
102
}
100
AcDbDictionary
281
1
  3
Model
350
3F4
  3
Layout1
350
3F5
  0
ACDBPLACEHOLDER
  5
F
102
{ACAD_REACTORS
330
E
102
}
  0
MLINESTYLE
  5
18
102
{ACAD_REACTORS
330
17
102
}
100
AcDbMlineStyle
  2
STANDARD
 70
0
  3

 62
256
 51
90.0
 52
90.0
 71
2
 49
0.5
 62
256
  6
BYLAYER
 49
-0.5
 62
256
  6
BYLAYER
  0
LAYOUT
  5
3F4
102
{ACAD_REACTORS
330
1A
102
}
100
AcDbPlotSettings
  1

  2
none_device
  4
ANSI_A_(11.00_x_8.50_Inches)
  6

 40
0.0
 41
0.0
 42
0.0
 43
0.0
 44
279.4
 45
215.9
 46
0.0
 47
0.0
 48
0.0
 49
0.0
140
0.0
141
0.0
142
1.0
143
1.0
 70
1024
 72
0
 73
0
 74
0
  7

 75
0
147
1.0
148
0.0
149
0.0
100
AcDbLayout
  1
Model
 70
0
 71
0
 10
0.0
 20
0.0
 11
11.0
 21
8.5
 12
0.0
 22
0.0
 32
0.0
 14
0.0
 24
0.0
 34
0.0
 15
0.0
 25
0.0
 35
0.0
146
0.0
 13
0.0
 23
0.0
 33
0.0
 16
1.0
 26
0.0
 36
0.0
 17
0.0
 27
1.0
 37
0.0
 76
0
330
202
345
0
346
0
  0
LAYOUT
  5
3F5
102
{ACAD_REACTORS
330
1A
102
}
100
AcDbPlotSettings
  1

  2
none_device
  4
ANSI_A_(11.00_x_8.50_Inches)
  6

 40
0.0
 41
0.0
 42
0.0
 43
0.0
 44
279.4
 45
215.9
 46
0.0
 47
0.0
 48
0.0
 49
0.0
140
0.0
141
0.0
142
1.0
143
1.0
 70
0
 72
0
 73
0
 74
0
  7

 75
0
147
1.0
148
0.0
149
0.0
100
AcDbLayout
  1
Layout1
 70
0
 71
1
 10
0.0
 20
0.0
 11
11.0
 21
8.5
 12
0.0
 22
0.0
 32
0.0
 14
0.0
 24
0.0
 34
0.0
 15
0.0
 25
0.0
 35
0.0
146
0.0
 13
0.0
 23
0.0
 33
0.0
 16
1.0
 26
0.0
 36
0.0
 17
0.0
 27
1.0
 37
0.0
 76
0
330
203
345
0
346
0
  0
ENDSEC
  0
EOF
