999
DXF file: 3200-5223_right.dxf
999
Pro/ENGINEER 2018400 by Parametric Technology Corporation
  0
SECTION
  2
HEADER
  9
$ACADVER
  1
AC1027
  9
$DWGCODEPAGE
  3
ANSI_1252
  9
$EXTMAX
 10
11.0
 20
8.5
 30
0.0
  9
$EXTMIN
 10
0.0
 20
0.0
 30
0.0
  9
$LIMMIN
 10
0.0
 20
0.0
  9
$LIMMAX
 10
11.0
 20
8.5
  9
$VIEWCTR
 10
5.5
 20
4.25
  9
$VIEWSIZE
 40
8.5
  9
$CLAYER
  8
0
  9
$LTSCALE
 40
0.605
  9
$CELTYPE
  6
BYLAYER
  9
$DIMSCALE
 40
1.0
  9
$DIMASZ
 40
0.1
  9
$DIMEXO
 40
0.0625
  9
$DIMDLI
 40
0.418
  9
$DIMEXE
 40
0.125
  9
$DIMCEN
 40
0.099
  9
$DIMLFAC
 40
1.0
  9
$DIMBLK
  1
_FILLED
  9
$DIMALT
 70
1
  9
$DIMALTD
 70
1
  9
$DIMALTTD
 70
2
  9
$DIMALTF
 40
25.4
  9
$DIMTXT
 40
0.08
  9
$DIMTOL
 70
1
  9
$DIMLIM
 70
0
  9
$DIMTFAC
 40
1.0
  9
$DIMTP
 40
0.01
  9
$DIMTM
 40
0.01
  9
$DIMGAP
 40
0.09
  9
$DIMDSEP
 70
46
  9
$AUNITS
 70
0
  9
$PDMODE
 70
3
  9
$PDSIZE
 40
0.3125
  9
$HANDSEED
  5
312
  9
$TILEMODE
 70
1
  9
$MEASUREMENT
 70
0
  9
$INSUNITS
 70
1
  0
ENDSEC
  0
SECTION
  2
CLASSES
  0
CLASS
  1
ACDBDICTIONARYWDFLT
  2
AcDbDictionaryWithDefault
  3
AutoCAD 2000
 90
0
 91
1
280
0
281
0
  0
CLASS
  1
ACDBPLACEHOLDER
  2
AcDbPlaceHolder
  3
AutoCAD 2000
 90
0
 91
1
280
0
281
0
  0
CLASS
  1
LAYOUT
  2
AcDbLayout
  3
AutoCAD 2000
 90
0
 91
0
280
0
281
0
  0
ENDSEC
  0
SECTION
  2
TABLES
  0
TABLE
  2
VPORT
  5
8
100
AcDbSymbolTable
 70
2
  0
VPORT
  5
1F4
100
AcDbSymbolTableRecord
100
AcDbViewportTableRecord
  2
*ACTIVE
 70
0
 10
0.0
 20
0.0
 11
1.0
 21
1.0
 12
5.5
 22
4.25
 13
0.0
 23
0.0
 14
1.0
 24
1.0
 15
0.0
 25
0.0
 16
0.0
 26
0.0
 36
1.0
 17
0.0
 27
0.0
 37
0.0
 40
8.5
 41
1.2941176471
 42
50.0
 43
0.0
 44
0.0
 50
0.0
 51
0.0
 71
0
 72
100
 73
1
 74
1
 75
0
 76
0
 77
0
 78
0
  0
ENDTAB
  0
TABLE
  2
LTYPE
  5
5
100
AcDbSymbolTable
 70
6
  0
LTYPE
  5
14
100
AcDbSymbolTableRecord
100
AcDbLinetypeTableRecord
  2
BYBLOCK
 70
0
  3

 72
65
 73
0
 40
0.0
  0
LTYPE
  5
15
100
AcDbSymbolTableRecord
100
AcDbLinetypeTableRecord
  2
BYLAYER
 70
0
  3

 72
65
 73
0
 40
0.0
  0
LTYPE
  5
16
100
AcDbSymbolTableRecord
100
AcDbLinetypeTableRecord
  2
CONTINUOUS
 70
64
  3
Solid line
 72
65
 73
0
 40
0.0
  0
LTYPE
  5
1F5
100
AcDbSymbolTableRecord
100
AcDbLinetypeTableRecord
  2
CENTER
 70
64
  3
____ _ ____ _ ____ _ ____ _ ____ _ ____ _ ____
 72
65
 73
4
 40
0.6
 49
0.375
 74
0
 49
-0.075
 74
0
 49
0.075
 74
0
 49
-0.075
 74
0
  0
LTYPE
  5
1F6
100
AcDbSymbolTableRecord
100
AcDbLinetypeTableRecord
  2
HIDDEN
 70
64
  3
- - - - - - - - - - - - - - - - - - - -
 72
65
 73
2
 40
0.2
 49
0.1
 74
0
 49
-0.1
 74
0
  0
LTYPE
  5
1F7
100
AcDbSymbolTableRecord
100
AcDbLinetypeTableRecord
  2
PHANTOM
 70
64
  3
_____ _ _ _____ _ _ _____ _ _ _____
 72
65
 73
6
 40
0.8
 49
0.45
 74
0
 49
-0.05
 74
0
 49
0.1
 74
0
 49
-0.05
 74
0
 49
0.1
 74
0
 49
-0.05
 74
0
  0
LTYPE
  5
1F8
100
AcDbSymbolTableRecord
100
AcDbLinetypeTableRecord
  2
DOT
 70
64
  3
. . . . . . . . . . . . . . . . . . . .
 72
65
 73
2
 40
0.2
 49
0.1
 74
0
 49
-0.1
 74
0
  0
LTYPE
  5
1F9
100
AcDbSymbolTableRecord
100
AcDbLinetypeTableRecord
  2
DASHED
 70
64
  3
- - - - - - - - - - - - - - - - - - - -
 72
65
 73
2
 40
0.2
 49
0.1
 74
0
 49
-0.1
 74
0
  0
ENDTAB
  0
TABLE
  2
LAYER
  5
2
100
AcDbSymbolTable
 70
36
  0
LAYER
  5
10
100
AcDbSymbolTableRecord
100
AcDbLayerTableRecord
  2
0
 70
0
 62
7
  6
CONTINUOUS
370
-3
390
F
  0
LAYER
  5
1FA
100
AcDbSymbolTableRecord
100
AcDbLayerTableRecord
  2
DEFAULT_1
 70
0
 62
7
  6
CENTER
370
-3
390
F
  0
LAYER
  5
1FB
100
AcDbSymbolTableRecord
100
AcDbLayerTableRecord
  2
DEFAULT_2
 70
0
 62
8
  6
HIDDEN
370
-3
390
F
  0
LAYER
  5
1FC
100
AcDbSymbolTableRecord
100
AcDbLayerTableRecord
  2
DEFAULT_3
 70
0
 62
7
  6
PHANTOM
370
-3
390
F
  0
LAYER
  5
1FD
100
AcDbSymbolTableRecord
100
AcDbLayerTableRecord
  2
DEFAULT_COORDINATE_SYSTEM
 70
0
 62
7
  6
CONTINUOUS
370
-3
390
F
  0
LAYER
  5
1FE
100
AcDbSymbolTableRecord
100
AcDbLayerTableRecord
  2
DEFAULT_DATUM_AXES
 70
0
 62
7
  6
CONTINUOUS
370
-3
390
F
  0
LAYER
  5
1FF
100
AcDbSymbolTableRecord
100
AcDbLayerTableRecord
  2
DEFAULT_DATUM_PLANES
 70
0
 62
7
  6
CONTINUOUS
370
-3
390
F
  0
ENDTAB
  0
TABLE
  2
STYLE
  5
3
100
AcDbSymbolTable
 70
1
  0
STYLE
  5
11
100
AcDbSymbolTableRecord
100
AcDbTextStyleTableRecord
  2
STANDARD
 70
0
 40
0.0
 41
0.8
 50
0.0
 71
0
 42
0.2
  3
txt
  4

  0
STYLE
  5
200
100
AcDbSymbolTableRecord
100
AcDbTextStyleTableRecord
  2
TEXTSTYLE_1
 70
0
 40
0.0
 41
0.8
 50
0.0
 71
0
 42
0.2
  3
gdt
  4

  0
ENDTAB
  0
TABLE
  2
VIEW
  5
6
100
AcDbSymbolTable
 70
0
  0
ENDTAB
  0
TABLE
  2
UCS
  5
7
100
AcDbSymbolTable
 70
0
  0
ENDTAB
  0
TABLE
  2
APPID
  5
9
100
AcDbSymbolTable
 70
1
  0
APPID
  5
201
100
AcDbSymbolTableRecord
100
AcDbRegAppTableRecord
  2
ACAD
 70
0
  0
ENDTAB
  0
TABLE
  2
BLOCK_RECORD
  5
1
100
AcDbSymbolTable
 70
0
  0
BLOCK_RECORD
  5
202
100
AcDbSymbolTableRecord
100
AcDbBlockTableRecord
  2
*Model_Space
  0
BLOCK_RECORD
  5
203
100
AcDbSymbolTableRecord
100
AcDbBlockTableRecord
  2
*Paper_Space
  0
BLOCK_RECORD
  5
204
100
AcDbSymbolTableRecord
100
AcDbBlockTableRecord
  2
_FILLED
  0
ENDTAB
  0
TABLE
  2
DIMSTYLE
  5
A
100
AcDbSymbolTable
 70
1
100
AcDbDimStyleTable
 71
0
  0
DIMSTYLE
105
205
100
AcDbSymbolTableRecord
100
AcDbDimStyleTableRecord
  2
STANDARD
 70
0
  3

  4

 40
1.0
 41
0.1
 42
0.0625
 43
0.38
 44
0.125
 45
0.0
 46
0.0
 47
0.01
 48
0.01
140
0.08
141
0.09
142
0.0
143
25.4
144
1.0
145
0.0
146
1.0
147
0.09
 71
1.0
 72
0.0
 73
1
 74
1
 75
0
 76
0
 77
0
 78
4
 79
1
170
1
171
1
172
0
173
0
174
0
175
0
176
0
177
0
178
0
270
2
179
2
271
2
272
2
273
2
274
2
275
0
280
0
281
0
282
0
283
1
284
4
285
0
286
0
287
3
288
0
340
11
278
46
341
204
342
204
343
204
344
204
  0
ENDTAB
  0
ENDSEC
  0
SECTION
  2
BLOCKS
  0
BLOCK
  5
20
100
AcDbEntity
  8
0
100
AcDbBlockBegin
  2
*Model_Space
 70
0
 10
0.0
 20
0.0
 30
0.0
  3
*Model_Space
  1

  0
ENDBLK
  5
21
100
AcDbEntity
  8
0
100
AcDbBlockEnd
  0
BLOCK
  5
1C
100
AcDbEntity
  8
0
100
AcDbBlockBegin
  2
*Paper_Space
 70
0
 10
0.0
 20
0.0
 30
0.0
  3
*Paper_Space
  1

  0
ENDBLK
  5
1D
100
AcDbEntity
  8
0
100
AcDbBlockEnd
  0
BLOCK
  5
206
100
AcDbEntity
  8
0
100
AcDbBlockBegin
  2
_FILLED
 70
64
 10
0.0
 20
0.0
  3
_FILLED
  1

  0
SOLID
  5
207
100
AcDbEntity
  8
0
  6
BYBLOCK
 62
0
100
AcDbTrace
 10
0.0
 20
0.0
 11
-1.0
 21
0.2
 12
-1.0
 22
-0.2
 13
-1.0
 23
-0.2
  0
ENDBLK
  5
208
100
AcDbEntity
  8
0
  6
BYBLOCK
 62
0
100
AcDbBlockEnd
  0
ENDSEC
  0
SECTION
  2
ENTITIES
  0
MTEXT
  5
209
100
AcDbEntity
  8
0
100
AcDbMText
 62
2
  6
CONTINUOUS
  7
STANDARD
 71
3
 72
1
 10
4.5162776603
 20
0.3324086958
 30
0.0
 11
1.0
 21
0.0
 31
0.0
 73
2
 44
0.9
  1
SCALE  .500
 40
0.08
 41
0.704
  0
LINE
  5
20A
100
AcDbEntity
  8
0
100
AcDbLine
 62
7
  6
CONTINUOUS
 10
0.0
 20
0.0
 11
0.0
 21
8.5
  0
LINE
  5
20B
100
AcDbEntity
  8
0
100
AcDbLine
 62
7
  6
CONTINUOUS
 10
0.0
 20
0.0
 11
11.0
 21
0.0
  0
LINE
  5
20C
100
AcDbEntity
  8
0
100
AcDbLine
 62
7
  6
CONTINUOUS
 10
0.0
 20
8.5
 11
11.0
 21
8.5
  0
LINE
  5
20D
100
AcDbEntity
  8
0
100
AcDbLine
 62
7
  6
CONTINUOUS
 10
11.0
 20
0.0
 11
11.0
 21
8.5
  0
LINE
  5
20E
100
AcDbEntity
  8
0
100
AcDbLine
 62
7
  6
CONTINUOUS
 10
6.0181848454
 20
0.7041167704
 11
7.2436848454
 21
0.7041167704
  0
LINE
  5
20F
100
AcDbEntity
  8
0
100
AcDbLine
 62
7
  6
CONTINUOUS
 10
6.0181848454
 20
0.831825874
 11
7.2436848454
 21
0.831825874
  0
LINE
  5
210
100
AcDbEntity
  8
0
100
AcDbLine
 62
7
  6
CONTINUOUS
 10
6.0245017127
 20
0.8502407925
 11
7.2373679781
 21
0.8502407925
  0
LINE
  5
211
100
AcDbEntity
  8
0
100
AcDbLine
 62
7
  6
CONTINUOUS
 10
6.1468039049
 20
1.0075316889
 11
7.115065786
 21
1.0075316889
  0
LINE
  5
212
100
AcDbEntity
  8
0
100
AcDbLine
 62
7
  6
CONTINUOUS
 10
7.1059339531
 20
1.0191167704
 11
6.1559357378
 21
1.0191167704
  0
LINE
  5
213
100
AcDbEntity
  8
0
100
AcDbLine
 62
7
  6
CONTINUOUS
 10
2.812670805
 20
6.193184713
 11
2.7639543939
 21
6.132376692
  0
LINE
  5
214
100
AcDbEntity
  8
0
100
AcDbLine
 62
7
  6
CONTINUOUS
 10
2.6629212608
 20
5.6981927785
 11
2.637266742
 21
5.5305397476
  0
LINE
  5
215
100
AcDbEntity
  8
0
100
AcDbLine
 62
7
  6
CONTINUOUS
 10
2.6833957464
 20
5.7089169244
 11
2.6535973648
 21
5.5141836287
  0
LINE
  5
216
100
AcDbEntity
  8
0
100
AcDbLine
 62
7
  6
CONTINUOUS
 10
2.7516786486
 20
6.1044117637
 11
2.6943094607
 21
5.7295024418
  0
LINE
  5
217
100
AcDbEntity
  8
0
100
AcDbLine
 62
7
  6
CONTINUOUS
 10
2.6578557594
 20
5.4912764371
 11
2.6035892132
 21
5.1366429695
  0
LINE
  5
218
100
AcDbEntity
  8
0
100
AcDbLine
 62
7
  6
CONTINUOUS
 10
2.6970870693
 20
5.6168638904
 11
2.6945109138
 21
5.5999822195
  0
LINE
  5
219
100
AcDbEntity
  8
0
100
AcDbLine
 62
7
  6
CONTINUOUS
 10
2.697074003
 20
5.6147646129
 11
2.6948050907
 21
5.5999372046
  0
LINE
  5
21A
100
AcDbEntity
  8
0
100
AcDbLine
 62
7
  6
CONTINUOUS
 10
2.8492140877
 20
6.3947261041
 11
2.8208526839
 21
6.2093835004
  0
LINE
  5
21B
100
AcDbEntity
  8
0
100
AcDbLine
 62
7
  6
CONTINUOUS
 10
2.823460762
 20
6.1999829776
 11
2.8248066594
 21
6.2087784571
  0
LWPOLYLINE
  5
21C
100
AcDbEntity
  8
0
100
AcDbPolyline
 62
7
  6
CONTINUOUS
 90
27
 70
0
 10
2.6945109138
 20
5.5999822195
 10
2.6942203553
 20
5.5981220209
 10
2.6935593043
 20
5.5941421646
 10
2.6928437013
 20
5.5901570609
 10
2.6920746617
 20
5.5861738196
 10
2.6912533512
 20
5.5821994177
 10
2.6903810008
 20
5.5782406127
 10
2.6894595363
 20
5.574303463
 10
2.688491587
 20
5.5703940513
 10
2.6874799594
 20
5.5665186779
 10
2.6864274474
 20
5.5626832125
 10
2.6853370991
 20
5.5588938496
 10
2.6842127564
 20
5.5551569149
 10
2.6830584818
 20
5.551478014
 10
2.6818783924
 20
5.5478626207
 10
2.6806768164
 20
5.544316576
 10
2.6794578412
 20
5.540844585
 10
2.6782265517
 20
5.5374528473
 10
2.6769889132
 20
5.5341491257
 10
2.6757493397
 20
5.5309366892
 10
2.6745135352
 20
5.5278220118
 10
2.6732893825
 20
5.5248164873
 10
2.6720819215
 20
5.5219238767
 10
2.6708962406
 20
5.5191479866
 10
2.669739931
 20
5.5164982613
 10
2.6686182946
 20
5.5139785886
 10
2.6675354815
 20
5.511590532
  0
LINE
  5
21D
100
AcDbEntity
  8
0
100
AcDbLine
 62
7
  6
CONTINUOUS
 10
2.6675172252
 20
5.5115506908
 11
2.6664810423
 21
5.5093049449
  0
LINE
  5
21E
100
AcDbEntity
  8
0
100
AcDbLine
 62
7
  6
CONTINUOUS
 10
2.6664966471
 20
5.5093384563
 11
2.6655061445
 21
5.5072250367
  0
LWPOLYLINE
  5
21F
100
AcDbEntity
  8
0
100
AcDbPolyline
 62
7
  6
CONTINUOUS
 90
6
 70
0
 10
2.6583592042
 20
5.4928200658
 10
2.6582027856
 20
5.4924889917
 10
2.6580710153
 20
5.4921473577
 10
2.6579646003
 20
5.4917969958
 10
2.6578841114
 20
5.4914397861
 10
2.6578563221
 20
5.4912763513
  0
LWPOLYLINE
  5
220
100
AcDbEntity
  8
0
100
AcDbPolyline
 62
7
  6
CONTINUOUS
 90
3
 70
0
 10
2.6654930608
 20
5.5071973346
 10
2.6645568679
 20
5.5052290515
 10
2.663676103
 20
5.5034015146
  0
LINE
  5
221
100
AcDbEntity
  8
0
100
AcDbLine
 62
7
  6
CONTINUOUS
 10
2.6636847418
 20
5.5034192984
 11
2.6628611035
 21
5.5017302655
  0
LINE
  5
222
100
AcDbEntity
  8
0
100
AcDbLine
 62
7
  6
CONTINUOUS
 10
2.6628611035
 20
5.5017302655
 11
2.6614024609
 21
5.4987860876
  0
LINE
  5
223
100
AcDbEntity
  8
0
100
AcDbLine
 62
7
  6
CONTINUOUS
 10
2.6614024609
 20
5.4987860876
 11
2.6602123768
 21
5.4964260399
  0
LINE
  5
224
100
AcDbEntity
  8
0
100
AcDbLine
 62
7
  6
CONTINUOUS
 10
2.6602123768
 20
5.4964260399
 11
2.6593092336
 21
5.4946579914
  0
LINE
  5
225
100
AcDbEntity
  8
0
100
AcDbLine
 62
7
  6
CONTINUOUS
 10
2.6593092336
 20
5.4946579914
 11
2.6583596971
 21
5.4928210169
  0
LINE
  5
226
100
AcDbEntity
  8
0
100
AcDbLine
 62
7
  6
CONTINUOUS
 10
2.6595854619
 20
5.4946006475
 11
2.6578679146
 21
5.4912992275
  0
LINE
  5
227
100
AcDbEntity
  8
0
100
AcDbLine
 62
7
  6
CONTINUOUS
 10
2.658366441
 20
5.4922505079
 11
2.6578678358
 21
5.4912990929
  0
LINE
  5
228
100
AcDbEntity
  8
0
100
AcDbLine
 62
7
  6
CONTINUOUS
 10
2.696530075
 20
5.7141943844
 11
2.6968416444
 21
5.7119876082
  0
LINE
  5
229
100
AcDbEntity
  8
0
100
AcDbLine
 62
7
  6
CONTINUOUS
 10
2.6968348569
 20
5.7120363737
 11
2.6971547758
 21
5.7096746181
  0
LINE
  5
22A
100
AcDbEntity
  8
0
100
AcDbLine
 62
7
  6
CONTINUOUS
 10
2.6971474412
 20
5.7097297968
 11
2.6974725505
 21
5.7072149218
  0
LWPOLYLINE
  5
22B
100
AcDbEntity
  8
0
100
AcDbPolyline
 62
7
  6
CONTINUOUS
 90
26
 70
0
 10
2.6974647302
 20
5.7072769081
 10
2.697783374
 20
5.704681587
 10
2.6980997715
 20
5.70194951
 10
2.6984104607
 20
5.6990833455
 10
2.6987115719
 20
5.6960883957
 10
2.698998708
 20
5.6929759916
 10
2.6992681831
 20
5.6897512807
 10
2.6995163377
 20
5.6864194301
 10
2.6997390475
 20
5.6829936713
 10
2.6999327893
 20
5.6794818878
 10
2.7000943435
 20
5.6758883332
 10
2.7002205122
 20
5.6722221137
 10
2.7003084089
 20
5.6684908818
 10
2.7003553074
 20
5.6646998202
 10
2.7003586921
 20
5.660854891
 10
2.7003163963
 20
5.6569626678
 10
2.7002263637
 20
5.6530296435
 10
2.7000868022
 20
5.6490620582
 10
2.6998963896
 20
5.6450665403
 10
2.6996539405
 20
5.6410496597
 10
2.6993586566
 20
5.6370179419
 10
2.6990101839
 20
5.6329780712
 10
2.6986083346
 20
5.6289364956
 10
2.6981534223
 20
5.6248994317
 10
2.6976459911
 20
5.6208730506
 10
2.6970870693
 20
5.6168638904
  0
LINE
  5
22C
100
AcDbEntity
  8
0
100
AcDbLine
 62
7
  6
CONTINUOUS
 10
3.3803402238
 20
6.1237698761
 11
3.3789943263
 21
6.1149743966
  0
LINE
  5
22D
100
AcDbEntity
  8
0
100
AcDbLine
 62
7
  6
CONTINUOUS
 10
3.4047144101
 20
6.2566115075
 11
3.3842941994
 21
6.1231648328
  0
LINE
  5
22E
100
AcDbEntity
  8
0
100
AcDbLine
 62
7
  6
CONTINUOUS
 10
3.4189120222
 20
6.00231071
 11
3.2708225868
 21
5.0345419159
  0
LINE
  5
22F
100
AcDbEntity
  8
0
100
AcDbLine
 62
7
  6
CONTINUOUS
 10
6.4521848454
 20
2.5323634893
 11
6.4621848454
 21
2.5323634893
  0
LINE
  5
230
100
AcDbEntity
  8
0
100
AcDbLine
 62
7
  6
CONTINUOUS
 10
6.7996848454
 20
2.5323634893
 11
6.8096848454
 21
2.5323634893
  0
LINE
  5
231
100
AcDbEntity
  8
0
100
AcDbLine
 62
7
  6
CONTINUOUS
 10
6.7659348454
 20
2.6187632532
 11
6.4959348454
 21
2.6187632532
  0
LINE
  5
232
100
AcDbEntity
  8
0
100
AcDbLine
 62
7
  6
CONTINUOUS
 10
2.6046968651
 20
5.1266099845
 11
2.620316668
 21
5.0865472618
  0
LINE
  5
233
100
AcDbEntity
  8
0
100
AcDbLine
 62
7
  6
CONTINUOUS
 10
2.6943095314
 20
5.7295029039
 11
2.6949479011
 21
5.7259166039
  0
LINE
  5
234
100
AcDbEntity
  8
0
100
AcDbLine
 62
7
  6
CONTINUOUS
 10
2.6943281488
 20
5.7278796209
 11
2.6943431273
 21
5.7277945648
  0
LINE
  5
235
100
AcDbEntity
  8
0
100
AcDbLine
 62
7
  6
CONTINUOUS
 10
2.6946172441
 20
5.7277951669
 11
2.6949479121
 21
5.7259169837
  0
LINE
  5
236
100
AcDbEntity
  8
0
100
AcDbLine
 62
7
  6
CONTINUOUS
 10
2.6943431273
 20
5.7277945648
 11
2.6946858375
 21
5.7258372626
  0
LINE
  5
237
100
AcDbEntity
  8
0
100
AcDbLine
 62
7
  6
CONTINUOUS
 10
2.6946858375
 20
5.7258372626
 11
2.6950190317
 21
5.7238792985
  0
LINE
  5
238
100
AcDbEntity
  8
0
100
AcDbLine
 62
7
  6
CONTINUOUS
 10
2.6950190317
 20
5.7238792985
 11
2.6954491944
 21
5.7212696807
  0
LWPOLYLINE
  5
239
100
AcDbEntity
  8
0
100
AcDbPolyline
 62
7
  6
CONTINUOUS
 90
4
 70
0
 10
2.6954456958
 20
5.7212913582
 10
2.6959559744
 20
5.7180543007
 10
2.6962361777
 20
5.7162012799
 10
2.696530075
 20
5.7141943844
  0
LINE
  5
23A
100
AcDbEntity
  8
0
100
AcDbLine
 62
7
  6
CONTINUOUS
 10
3.266765349
 20
5.0252992701
 11
3.2398799147
 21
4.9917407625
  0
LINE
  5
23B
100
AcDbEntity
  8
0
100
AcDbLine
 62
7
  6
CONTINUOUS
 10
6.809404906
 20
2.7803667704
 11
6.7994205669
 21
2.7800832501
  0
LINE
  5
23C
100
AcDbEntity
  8
0
100
AcDbLine
 62
7
  6
CONTINUOUS
 10
6.4521848454
 20
2.7703667704
 11
6.4621848454
 21
2.7703667704
  0
LINE
  5
23D
100
AcDbEntity
  8
0
100
AcDbLine
 62
7
  6
CONTINUOUS
 10
6.7996848454
 20
2.7703667704
 11
6.8096848454
 21
2.7703667704
  0
LINE
  5
23E
100
AcDbEntity
  8
0
100
AcDbLine
 62
7
  6
CONTINUOUS
 10
6.809404906
 20
2.9960856977
 11
6.7994205669
 21
2.9960856977
  0
LINE
  5
23F
100
AcDbEntity
  8
0
100
AcDbLine
 62
7
  6
CONTINUOUS
 10
6.462449124
 20
2.9960856977
 11
6.4524647849
 21
2.9960856977
  0
LINE
  5
240
100
AcDbEntity
  8
0
100
AcDbLine
 62
7
  6
CONTINUOUS
 10
6.4524647849
 20
2.7803667704
 11
6.462449124
 21
2.7800832501
  0
LINE
  5
241
100
AcDbEntity
  8
0
100
AcDbLine
 62
7
  6
CONTINUOUS
 10
6.5550271704
 20
2.0757551245
 11
6.5495507557
 21
2.0784487295
  0
LINE
  5
242
100
AcDbEntity
  8
0
100
AcDbLine
 62
7
  6
CONTINUOUS
 10
7.1059348454
 20
3.8041167704
 11
6.7659348454
 21
3.8041167704
  0
LINE
  5
243
100
AcDbEntity
  8
0
100
AcDbLine
 62
7
  6
CONTINUOUS
 10
6.4959348454
 20
3.8041167704
 11
6.1559348454
 21
3.8041167704
  0
LINE
  5
244
100
AcDbEntity
  8
0
100
AcDbLine
 62
7
  6
CONTINUOUS
 10
6.4959348454
 20
3.8191167704
 11
6.1559354089
 21
3.8191167704
  0
LINE
  5
245
100
AcDbEntity
  8
0
100
AcDbLine
 62
7
  6
CONTINUOUS
 10
6.7659348454
 20
3.8191167704
 11
7.105934282
 21
3.8191167704
  0
LINE
  5
246
100
AcDbEntity
  8
0
100
AcDbLine
 62
7
  6
CONTINUOUS
 10
3.3872575799
 20
6.1052605811
 11
3.4155606653
 21
6.032666921
  0
LINE
  5
247
100
AcDbEntity
  8
0
100
AcDbLine
 62
7
  6
CONTINUOUS
 10
6.1559348454
 20
3.9366665749
 11
6.4959348454
 21
3.9366665749
  0
LINE
  5
248
100
AcDbEntity
  8
0
100
AcDbLine
 62
7
  6
CONTINUOUS
 10
6.7659348454
 20
3.9366665749
 11
7.1059348454
 21
3.9366665749
  0
LINE
  5
249
100
AcDbEntity
  8
0
100
AcDbLine
 62
7
  6
CONTINUOUS
 10
6.1630796221
 20
3.9559147953
 11
6.4959348454
 21
3.9559147953
  0
LINE
  5
24A
100
AcDbEntity
  8
0
100
AcDbLine
 62
7
  6
CONTINUOUS
 10
6.7659348454
 20
3.9559147953
 11
7.0987900688
 21
3.9559147953
  0
LINE
  5
24B
100
AcDbEntity
  8
0
100
AcDbLine
 62
7
  6
CONTINUOUS
 10
6.2741078921
 20
4.0848649907
 11
6.4959348454
 21
4.0848649907
  0
LINE
  5
24C
100
AcDbEntity
  8
0
100
AcDbLine
 62
7
  6
CONTINUOUS
 10
6.7659348454
 20
4.0848649907
 11
6.9877617988
 21
4.0848649907
  0
LINE
  5
24D
100
AcDbEntity
  8
0
100
AcDbLine
 62
7
  6
CONTINUOUS
 10
6.9654065754
 20
4.0951167704
 11
6.7659348454
 21
4.0951167704
  0
LINE
  5
24E
100
AcDbEntity
  8
0
100
AcDbLine
 62
7
  6
CONTINUOUS
 10
6.4959348454
 20
4.0951167704
 11
6.2964631155
 21
4.0951167704
  0
LINE
  5
24F
100
AcDbEntity
  8
0
100
AcDbLine
 62
7
  6
CONTINUOUS
 10
6.3459348454
 20
4.1016167704
 11
6.4959348454
 21
4.1016167704
  0
LINE
  5
250
100
AcDbEntity
  8
0
100
AcDbLine
 62
7
  6
CONTINUOUS
 10
6.7659348454
 20
4.1016167704
 11
6.9159348454
 21
4.1016167704
  0
LINE
  5
251
100
AcDbEntity
  8
0
100
AcDbLine
 62
7
  6
CONTINUOUS
 10
7.115065786
 20
1.0075316889
 11
7.2373679781
 21
0.8502407925
  0
LINE
  5
252
100
AcDbEntity
  8
0
100
AcDbLine
 62
7
  6
CONTINUOUS
 10
6.7659348454
 20
4.4645929068
 11
6.4959348454
 21
4.4645929068
  0
LINE
  5
253
100
AcDbEntity
  8
0
100
AcDbLine
 62
7
  6
CONTINUOUS
 10
6.7613217772
 20
4.4757298386
 11
6.5005479136
 21
4.4757298386
  0
LINE
  5
254
100
AcDbEntity
  8
0
100
AcDbLine
 62
7
  6
CONTINUOUS
 10
6.5093217772
 20
4.4845037022
 11
6.7525479136
 21
4.4845037022
  0
LINE
  5
255
100
AcDbEntity
  8
0
100
AcDbLine
 62
7
  6
CONTINUOUS
 10
6.520458709
 20
4.4891167704
 11
6.7414109818
 21
4.4891167704
  0
LINE
  5
256
100
AcDbEntity
  8
0
100
AcDbLine
 62
7
  6
CONTINUOUS
 10
3.128845992
 20
4.9902689095
 11
3.0315713347
 21
5.0051540237
  0
LINE
  5
257
100
AcDbEntity
  8
0
100
AcDbLine
 62
7
  6
CONTINUOUS
 10
3.0250214195
 20
5.0061563016
 11
2.9915599192
 21
5.0112766307
  0
LINE
  5
258
100
AcDbEntity
  8
0
100
AcDbLine
 62
7
  6
CONTINUOUS
 10
2.9094135694
 20
5.0238467886
 11
2.8894730651
 21
5.0268981145
  0
LINE
  5
259
100
AcDbEntity
  8
0
100
AcDbLine
 62
7
  6
CONTINUOUS
 10
2.8631156436
 20
5.0309313668
 11
2.8296541433
 21
5.0360516958
  0
LINE
  5
25A
100
AcDbEntity
  8
0
100
AcDbLine
 62
7
  6
CONTINUOUS
 10
2.8231042281
 20
5.0370539737
 11
2.7258295708
 21
5.051939088
  0
LINE
  5
25B
100
AcDbEntity
  8
0
100
AcDbLine
 62
7
  6
CONTINUOUS
 10
2.9452619934
 20
5.0183612089
 11
2.9652024977
 21
5.0153098829
  0
LINE
  5
25C
100
AcDbEntity
  8
0
100
AcDbLine
 62
7
  6
CONTINUOUS
 10
3.2217119358
 20
4.9846573636
 11
2.6355350609
 21
5.07435503
  0
LINE
  5
25D
100
AcDbEntity
  8
0
100
AcDbLine
 62
7
  6
CONTINUOUS
 10
2.620316668
 20
5.0865472618
 11
3.2398799147
 21
4.9917407625
  0
LINE
  5
25E
100
AcDbEntity
  8
0
100
AcDbLine
 62
7
  6
CONTINUOUS
 10
2.6046968651
 20
5.1266099845
 11
3.266765349
 21
5.0252992701
  0
LINE
  5
25F
100
AcDbEntity
  8
0
100
AcDbLine
 62
7
  6
CONTINUOUS
 10
2.6035892132
 20
5.1366429695
 11
3.2708225868
 21
5.0345419159
  0
LINE
  5
260
100
AcDbEntity
  8
0
100
AcDbLine
 62
7
  6
CONTINUOUS
 10
2.6677306381
 20
5.512020934
 11
2.6535973648
 21
5.5141836287
  0
LINE
  5
261
100
AcDbEntity
  8
0
100
AcDbLine
 62
7
  6
CONTINUOUS
 10
2.6948050907
 20
5.5999372046
 11
2.6945109138
 21
5.5999822195
  0
LINE
  5
262
100
AcDbEntity
  8
0
100
AcDbLine
 62
7
  6
CONTINUOUS
 10
2.697074003
 20
5.6147646129
 11
2.6967798262
 21
5.6148096283
  0
LINE
  5
263
100
AcDbEntity
  8
0
100
AcDbLine
 62
7
  6
CONTINUOUS
 10
6.0181848454
 20
0.831825874
 11
6.0181848454
 21
0.7041167704
  0
LINE
  5
264
100
AcDbEntity
  8
0
100
AcDbLine
 62
7
  6
CONTINUOUS
 10
6.5093217772
 20
4.4845037022
 11
6.5005479136
 21
4.4757298386
  0
LINE
  5
265
100
AcDbEntity
  8
0
100
AcDbLine
 62
7
  6
CONTINUOUS
 10
2.6975289004
 20
5.7067542479
 11
2.6833957464
 21
5.7089169244
  0
LINE
  5
266
100
AcDbEntity
  8
0
100
AcDbLine
 62
7
  6
CONTINUOUS
 10
6.1559348454
 20
3.9366665749
 11
6.1559348454
 21
3.8191167704
  0
LINE
  5
267
100
AcDbEntity
  8
0
100
AcDbLine
 62
7
  6
CONTINUOUS
 10
6.1559348454
 20
1.0191167704
 11
6.1559348454
 21
3.8041167704
  0
LINE
  5
268
100
AcDbEntity
  8
0
100
AcDbLine
 62
7
  6
CONTINUOUS
 10
6.3459348454
 20
4.1016167704
 11
6.3459348454
 21
6.085378652
  0
LINE
  5
269
100
AcDbEntity
  8
0
100
AcDbLine
 62
7
  6
CONTINUOUS
 10
6.2741078921
 20
4.0848649907
 11
6.1630796221
 21
3.9559147953
  0
LINE
  5
26A
100
AcDbEntity
  8
0
100
AcDbLine
 62
7
  6
CONTINUOUS
 10
2.7516786486
 20
6.1044117637
 11
3.4189120222
 21
6.00231071
  0
LINE
  5
26B
100
AcDbEntity
  8
0
100
AcDbLine
 62
7
  6
CONTINUOUS
 10
2.7639543939
 20
6.132376692
 11
3.4155606653
 21
6.032666921
  0
LINE
  5
26C
100
AcDbEntity
  8
0
100
AcDbLine
 62
7
  6
CONTINUOUS
 10
2.812670805
 20
6.193184713
 11
3.3872575799
 21
6.1052605811
  0
LINE
  5
26D
100
AcDbEntity
  8
0
100
AcDbLine
 62
7
  6
CONTINUOUS
 10
2.823460762
 20
6.1999829776
 11
3.3789943263
 21
6.1149743966
  0
LINE
  5
26E
100
AcDbEntity
  8
0
100
AcDbLine
 62
7
  6
CONTINUOUS
 10
3.3842941994
 20
6.1231648328
 11
2.8208526839
 21
6.2093835004
  0
LINE
  5
26F
100
AcDbEntity
  8
0
100
AcDbLine
 62
7
  6
CONTINUOUS
 10
6.7525479136
 20
4.4845037022
 11
6.7613217772
 21
4.4757298386
  0
LINE
  5
270
100
AcDbEntity
  8
0
100
AcDbLine
 62
7
  6
CONTINUOUS
 10
6.9877617988
 20
4.0848649907
 11
7.0987900688
 21
3.9559147953
  0
LINE
  5
271
100
AcDbEntity
  8
0
100
AcDbLine
 62
7
  6
CONTINUOUS
 10
6.4521848454
 20
2.5323634879
 11
6.4521848454
 21
2.7703667704
  0
LINE
  5
272
100
AcDbEntity
  8
0
100
AcDbLine
 62
7
  6
CONTINUOUS
 10
6.4524647849
 20
2.9960856996
 11
6.4524647849
 21
2.7803667704
  0
LINE
  5
273
100
AcDbEntity
  8
0
100
AcDbLine
 62
7
  6
CONTINUOUS
 10
6.4621848454
 20
2.3979598102
 11
6.4621848454
 21
2.7703667704
  0
LINE
  5
274
100
AcDbEntity
  8
0
100
AcDbLine
 62
7
  6
CONTINUOUS
 10
6.462449124
 20
2.9960856977
 11
6.462449124
 21
2.7800832501
  0
LINE
  5
275
100
AcDbEntity
  8
0
100
AcDbLine
 62
7
  6
CONTINUOUS
 10
6.4959348454
 20
4.4645929068
 11
6.4959348454
 21
2.1499418386
  0
LINE
  5
276
100
AcDbEntity
  8
0
100
AcDbLine
 62
7
  6
CONTINUOUS
 10
6.3459348454
 20
6.085378652
 11
6.9159348454
 21
6.085378652
  0
LINE
  5
277
100
AcDbEntity
  8
0
100
AcDbLine
 62
7
  6
CONTINUOUS
 10
3.4077461805
 20
6.3092586838
 11
2.8492140877
 21
6.3947261041
  0
LINE
  5
278
100
AcDbEntity
  8
0
100
AcDbLine
 62
7
  6
CONTINUOUS
 10
6.7659348454
 20
4.4645929068
 11
6.7659348454
 21
2.1499418386
  0
LINE
  5
279
100
AcDbEntity
  8
0
100
AcDbLine
 62
7
  6
CONTINUOUS
 10
6.7994205669
 20
2.9960856977
 11
6.7994205669
 21
2.7800832501
  0
LINE
  5
27A
100
AcDbEntity
  8
0
100
AcDbLine
 62
7
  6
CONTINUOUS
 10
6.7996848454
 20
2.3979598102
 11
6.7996848454
 21
2.7703667704
  0
LINE
  5
27B
100
AcDbEntity
  8
0
100
AcDbLine
 62
7
  6
CONTINUOUS
 10
6.809404906
 20
2.9960856995
 11
6.809404906
 21
2.7803667704
  0
LINE
  5
27C
100
AcDbEntity
  8
0
100
AcDbLine
 62
7
  6
CONTINUOUS
 10
6.8096848454
 20
2.5323634878
 11
6.8096848454
 21
2.7703667704
  0
LINE
  5
27D
100
AcDbEntity
  8
0
100
AcDbLine
 62
7
  6
CONTINUOUS
 10
6.9159348454
 20
4.1016167704
 11
6.9159348454
 21
6.085378652
  0
LINE
  5
27E
100
AcDbEntity
  8
0
100
AcDbLine
 62
7
  6
CONTINUOUS
 10
7.1059348454
 20
3.9366665749
 11
7.1059348454
 21
3.8191167704
  0
LINE
  5
27F
100
AcDbEntity
  8
0
100
AcDbLine
 62
7
  6
CONTINUOUS
 10
7.1059348454
 20
1.0191167704
 11
7.1059348454
 21
3.8041167704
  0
LINE
  5
280
100
AcDbEntity
  8
0
100
AcDbLine
 62
7
  6
CONTINUOUS
 10
7.2436848454
 20
0.831825874
 11
7.2436848454
 21
0.7041167704
  0
LINE
  5
281
100
AcDbEntity
  8
0
100
AcDbLine
 62
7
  6
CONTINUOUS
 10
6.7068425205
 20
2.0757551245
 11
6.7123189351
 21
2.0784487295
  0
LINE
  5
282
100
AcDbEntity
  8
0
100
AcDbLine
 62
7
  6
CONTINUOUS
 10
6.1468039049
 20
1.0075316889
 11
6.0245017127
 21
0.8502407925
  0
ARC
  5
283
100
AcDbEntity
  8
0
100
AcDbCircle
 62
7
  6
CONTINUOUS
 10
-23.0714107077
 20
2.1819350565
 40
29.5210796947
100
AcDbArc
 50
0.4063200421
 51
0.6156440894
  0
ARC
  5
284
100
AcDbEntity
  8
0
100
AcDbCircle
 62
7
  6
CONTINUOUS
 10
4.6728964847
 20
2.2441206527
 40
2.1561420248
100
AcDbArc
 50
6.79242689
 51
7.6825596076
  0
ARC
  5
285
100
AcDbEntity
  8
0
100
AcDbCircle
 62
7
  6
CONTINUOUS
 10
6.610202961
 20
2.2017789795
 40
0.1374373873
100
AcDbArc
 50
242.2859234136
 51
243.8126472897
  0
ARC
  5
286
100
AcDbEntity
  8
0
100
AcDbCircle
 62
7
  6
CONTINUOUS
 10
6.6080649313
 20
2.197675712
 40
0.1328105389
100
AcDbArc
 50
241.2474682038
 51
242.2792322304
  0
ARC
  5
287
100
AcDbEntity
  8
0
100
AcDbCircle
 62
7
  6
CONTINUOUS
 10
6.6065730855
 20
2.1949437606
 40
0.1296978034
100
AcDbArc
 50
240.4684629459
 51
241.2447140727
  0
ARC
  5
288
100
AcDbEntity
  8
0
100
AcDbCircle
 62
7
  6
CONTINUOUS
 10
6.6048276501
 20
2.1918642656
 40
0.1261580528
100
AcDbArc
 50
239.0122373027
 51
240.4688196491
  0
ARC
  5
289
100
AcDbEntity
  8
0
100
AcDbCircle
 62
7
  6
CONTINUOUS
 10
6.6101428215
 20
2.1879378317
 40
0.1249907614
100
AcDbArc
 50
241.0371084736
 51
243.8349993449
  0
ARC
  5
28A
100
AcDbEntity
  8
0
100
AcDbCircle
 62
7
  6
CONTINUOUS
 10
6.6031730408
 20
2.1890802489
 40
0.1229194957
100
AcDbArc
 50
238.758605407
 51
239.0052893055
  0
ARC
  5
28B
100
AcDbEntity
  8
0
100
AcDbCircle
 62
7
  6
CONTINUOUS
 10
6.6082076822
 20
2.1844054158
 40
0.1209630558
100
AcDbArc
 50
240.8082745833
 51
241.0288526879
  0
ARC
  5
28C
100
AcDbEntity
  8
0
100
AcDbCircle
 62
7
  6
CONTINUOUS
 10
6.1704870376
 20
0.9891167704
 40
0.03
100
AcDbArc
 50
90.0
 51
142.133
  0
ARC
  5
28D
100
AcDbEntity
  8
0
100
AcDbCircle
 62
7
  6
CONTINUOUS
 10
6.0481848454
 20
0.831825874
 40
0.03
100
AcDbArc
 50
142.133
 51
180.0
  0
ARC
  5
28E
100
AcDbEntity
  8
0
100
AcDbCircle
 62
7
  6
CONTINUOUS
 10
4.8708087403
 20
6.085378652
 40
2.0451261051
100
AcDbArc
 50
0.0
 51
171.3
  0
ARC
  5
28F
100
AcDbEntity
  8
0
100
AcDbCircle
 62
7
  6
CONTINUOUS
 10
4.8708087403
 20
6.085378652
 40
1.4751261051
100
AcDbArc
 50
0.0
 51
169.2604022995
  0
ARC
  5
290
100
AcDbEntity
  8
0
100
AcDbCircle
 62
7
  6
CONTINUOUS
 10
2.9190544086
 20
5.5732095373
 40
0.285
100
AcDbArc
 50
153.9893829162
 51
188.6106170838
  0
ARC
  5
291
100
AcDbEntity
  8
0
100
AcDbCircle
 62
7
  6
CONTINUOUS
 10
3.6874737466
 20
6.2667523306
 40
0.2829411151
100
AcDbArc
 50
171.3596472712
 51
182.0539638233
  0
ARC
  5
292
100
AcDbEntity
  8
0
100
AcDbCircle
 62
7
  6
CONTINUOUS
 10
2.8099997879
 20
6.0954873753
 40
0.059
100
AcDbArc
 50
141.3
 51
171.3
  0
ARC
  5
293
100
AcDbEntity
  8
0
100
AcDbCircle
 62
7
  6
CONTINUOUS
 10
3.3605908829
 20
6.0112350984
 40
0.059
100
AcDbArc
 50
351.3
 51
21.3
  0
ARC
  5
294
100
AcDbEntity
  8
0
100
AcDbCircle
 62
7
  6
CONTINUOUS
 10
6.2964631155
 20
4.0656167704
 40
0.0295
100
AcDbArc
 50
90.0
 51
139.271
  0
ARC
  5
295
100
AcDbEntity
  8
0
100
AcDbCircle
 62
7
  6
CONTINUOUS
 10
6.1854348454
 20
3.9366665749
 40
0.0295
100
AcDbArc
 50
139.271
 51
180.0
  0
ARC
  5
296
100
AcDbEntity
  8
0
100
AcDbCircle
 62
7
  6
CONTINUOUS
 10
2.827889198
 20
6.1809924812
 40
0.0195
100
AcDbArc
 50
103.1263543347
 51
141.3
  0
ARC
  5
297
100
AcDbEntity
  8
0
100
AcDbCircle
 62
7
  6
CONTINUOUS
 10
2.622864844
 20
5.1336933835
 40
0.0195
100
AcDbArc
 50
171.3
 51
201.3
  0
ARC
  5
298
100
AcDbEntity
  8
0
100
AcDbCircle
 62
7
  6
CONTINUOUS
 10
2.6384846469
 20
5.0936306608
 40
0.0195
100
AcDbArc
 50
201.3
 51
261.3
  0
ARC
  5
299
100
AcDbEntity
  8
0
100
AcDbCircle
 62
7
  6
CONTINUOUS
 10
3.369089601
 20
6.0981771821
 40
0.0195
100
AcDbArc
 50
21.3
 51
59.4736456653
  0
ARC
  5
29A
100
AcDbEntity
  8
0
100
AcDbCircle
 62
7
  6
CONTINUOUS
 10
3.251546956
 20
5.0374915019
 40
0.0195
100
AcDbArc
 50
321.3
 51
351.3
  0
ARC
  5
29B
100
AcDbEntity
  8
0
100
AcDbCircle
 62
7
  6
CONTINUOUS
 10
3.2246615218
 20
5.0039329943
 40
0.0195
100
AcDbArc
 50
261.3
 51
321.3
  0
ARC
  5
29C
100
AcDbEntity
  8
0
100
AcDbCircle
 62
7
  6
CONTINUOUS
 10
2.6565469508
 20
5.5334592595
 40
0.0195
100
AcDbArc
 50
188.6106170838
 51
261.3
  0
ARC
  5
29D
100
AcDbEntity
  8
0
100
AcDbCircle
 62
7
  6
CONTINUOUS
 10
2.6804461604
 20
5.6896412936
 40
0.0195
100
AcDbArc
 50
81.3
 51
153.9893829162
  0
ARC
  5
29E
100
AcDbEntity
  8
0
100
AcDbCircle
 62
7
  6
CONTINUOUS
 10
6.5116848454
 20
4.4645929068
 40
0.01575
100
AcDbArc
 50
135.0
 51
180.0
  0
ARC
  5
29F
100
AcDbEntity
  8
0
100
AcDbCircle
 62
7
  6
CONTINUOUS
 10
6.520458709
 20
4.4733667704
 40
0.01575
100
AcDbArc
 50
90.0
 51
135.0
  0
ARC
  5
2A0
100
AcDbEntity
  8
0
100
AcDbCircle
 62
7
  6
CONTINUOUS
 10
6.1709348454
 20
3.8041167704
 40
0.015
100
AcDbArc
 50
90.0
 51
180.0
  0
ARC
  5
2A1
100
AcDbEntity
  8
0
100
AcDbCircle
 62
7
  6
CONTINUOUS
 10
2.6992524172
 20
5.7287460632
 40
0.0049999768
100
AcDbArc
 50
171.3000000006
 51
189.9917025007
  0
ARC
  5
2A2
100
AcDbEntity
  8
0
100
AcDbCircle
 62
7
  6
CONTINUOUS
 10
36.3329562394
 20
2.1819379475
 40
29.5207555231
100
AcDbArc
 50
179.3843547613
 51
179.5936811072
  0
ARC
  5
2A3
100
AcDbEntity
  8
0
100
AcDbCircle
 62
7
  6
CONTINUOUS
 10
8.5640795441
 20
2.2472820048
 40
2.1310491949
100
AcDbArc
 50
172.312199686
 51
173.2128138164
  0
ARC
  5
2A4
100
AcDbEntity
  8
0
100
AcDbCircle
 62
7
  6
CONTINUOUS
 10
6.6309348454
 20
2.7641167704
 40
0.45
100
AcDbArc
 50
287.4591813913
 51
72.5414615209
  0
ARC
  5
2A5
100
AcDbEntity
  8
0
100
AcDbCircle
 62
7
  6
CONTINUOUS
 10
6.6309348454
 20
2.7641167704
 40
0.45
100
AcDbArc
 50
107.4585384839
 51
252.5408191004
  0
ARC
  5
2A6
100
AcDbEntity
  8
0
100
AcDbCircle
 62
7
  6
CONTINUOUS
 10
6.6309348454
 20
2.7641167704
 40
0.4474269821
100
AcDbArc
 50
293.4458644501
 51
72.4375144372
  0
ARC
  5
2A7
100
AcDbEntity
  8
0
100
AcDbCircle
 62
7
  6
CONTINUOUS
 10
6.6309348454
 20
2.7641167704
 40
0.4474269821
100
AcDbArc
 50
107.562485561
 51
246.5541355499
  0
ARC
  5
2A8
100
AcDbEntity
  8
0
100
AcDbCircle
 62
7
  6
CONTINUOUS
 10
6.6309348454
 20
2.7641167704
 40
0.3220158334
100
AcDbArc
 50
124.3831569447
 51
235.3750625269
  0
ARC
  5
2A9
100
AcDbEntity
  8
0
100
AcDbCircle
 62
7
  6
CONTINUOUS
 10
6.6309348454
 20
2.7641167704
 40
0.3220158334
100
AcDbArc
 50
304.6249374731
 51
55.6168430553
  0
ARC
  5
2AA
100
AcDbEntity
  8
0
100
AcDbCircle
 62
7
  6
CONTINUOUS
 10
6.6309348454
 20
2.7641167704
 40
0.2926792541
100
AcDbArc
 50
127.5736229399
 51
232.3572004767
  0
ARC
  5
2AB
100
AcDbEntity
  8
0
100
AcDbCircle
 62
7
  6
CONTINUOUS
 10
6.6309348454
 20
2.7641167704
 40
0.2926792541
100
AcDbArc
 50
307.6427995183
 51
52.4263770467
  0
ARC
  5
2AC
100
AcDbEntity
  8
0
100
AcDbCircle
 62
7
  6
CONTINUOUS
 10
6.6309348454
 20
2.7703667704
 40
0.17875
100
AcDbArc
 50
176.7929673581
 51
180.0
  0
ARC
  5
2AD
100
AcDbEntity
  8
0
100
AcDbCircle
 62
7
  6
CONTINUOUS
 10
6.6309348454
 20
2.7703667704
 40
0.17875
100
AcDbArc
 50
0.0
 51
3.2070326419
  0
ARC
  5
2AE
100
AcDbEntity
  8
0
100
AcDbCircle
 62
7
  6
CONTINUOUS
 10
6.6309348454
 20
2.7703667704
 40
0.16875
100
AcDbArc
 50
176.621934135
 51
180.0
  0
ARC
  5
2AF
100
AcDbEntity
  8
0
100
AcDbCircle
 62
7
  6
CONTINUOUS
 10
6.6309348454
 20
2.7703667704
 40
0.16875
100
AcDbArc
 50
0.0
 51
3.3778480368
  0
ARC
  5
2B0
100
AcDbEntity
  8
0
100
AcDbCircle
 62
7
  6
CONTINUOUS
 10
6.6309348454
 20
2.5978667704
 40
0.16875
100
AcDbArc
 50
180.0
 51
216.8602546938
  0
ARC
  5
2B1
100
AcDbEntity
  8
0
100
AcDbCircle
 62
7
  6
CONTINUOUS
 10
6.6309348454
 20
2.5978667704
 40
0.16875
100
AcDbArc
 50
323.1397487149
 51
360.0
  0
ARC
  5
2B2
100
AcDbEntity
  8
0
100
AcDbCircle
 62
7
  6
CONTINUOUS
 10
6.6309348454
 20
2.7703667704
 40
0.16875
100
AcDbArc
 50
143.1371165457
 51
176.6027297639
  0
ARC
  5
2B3
100
AcDbEntity
  8
0
100
AcDbCircle
 62
7
  6
CONTINUOUS
 10
6.6309348454
 20
2.7703667704
 40
0.16875
100
AcDbArc
 50
3.397270327
 51
36.8628398544
  0
ARC
  5
2B4
100
AcDbEntity
  8
0
100
AcDbCircle
 62
7
  6
CONTINUOUS
 10
6.6510327245
 20
2.1892676458
 40
0.1264904005
100
AcDbArc
 50
296.181589447
 51
298.9463027257
  0
ARC
  5
2B5
100
AcDbEntity
  8
0
100
AcDbCircle
 62
7
  6
CONTINUOUS
 10
6.653662007
 20
2.1844054188
 40
0.1209630593
100
AcDbArc
 50
298.9711473036
 51
299.1917235362
  0
ARC
  5
2B6
100
AcDbEntity
  8
0
100
AcDbCircle
 62
7
  6
CONTINUOUS
 10
7.0913826533
 20
0.9891167704
 40
0.03
100
AcDbArc
 50
37.867
 51
90.0
  0
ARC
  5
2B7
100
AcDbEntity
  8
0
100
AcDbCircle
 62
7
  6
CONTINUOUS
 10
7.2136848454
 20
0.831825874
 40
0.03
100
AcDbArc
 50
0.0
 51
37.867
  0
ARC
  5
2B8
100
AcDbEntity
  8
0
100
AcDbCircle
 62
7
  6
CONTINUOUS
 10
6.9654065754
 20
4.0656167704
 40
0.0295
100
AcDbArc
 50
40.729
 51
90.0
  0
ARC
  5
2B9
100
AcDbEntity
  8
0
100
AcDbCircle
 62
7
  6
CONTINUOUS
 10
7.0764348454
 20
3.9366665749
 40
0.0295
100
AcDbArc
 50
0.0
 51
40.729
  0
ARC
  5
2BA
100
AcDbEntity
  8
0
100
AcDbCircle
 62
7
  6
CONTINUOUS
 10
6.7501848454
 20
4.4645929068
 40
0.01575
100
AcDbArc
 50
0.0
 51
45.0
  0
ARC
  5
2BB
100
AcDbEntity
  8
0
100
AcDbCircle
 62
7
  6
CONTINUOUS
 10
6.7414109818
 20
4.4733667704
 40
0.01575
100
AcDbArc
 50
45.0
 51
90.0
  0
ARC
  5
2BC
100
AcDbEntity
  8
0
100
AcDbCircle
 62
7
  6
CONTINUOUS
 10
7.0909348454
 20
3.8041167704
 40
0.015
100
AcDbArc
 50
0.0
 51
90.0
  0
SPLINE
  5
2BD
100
AcDbEntity
  8
0
100
AcDbSpline
 62
7
  6
CONTINUOUS
 70
0
 71
3
 72
12
 73
8
 74
0
 42
0.0000001
 43
0.0000001
 44
0.0000000001
 40
0.0
 40
0.0
 40
0.0
 40
0.0
 40
0.3806561238
 40
0.7041315579
 40
0.8290044635
 40
0.9224374248
 40
1.0
 40
1.0
 40
1.0
 40
1.0
 10
3.4077461805
 20
6.3092586838
 30
0.0
 10
3.4087620316
 20
6.3158973004
 30
0.0
 10
3.4111743306
 20
6.3281025625
 30
0.0
 10
3.4151364386
 20
6.3421946285
 30
0.0
 10
3.4181703611
 20
6.3512599787
 30
0.0
 10
3.4199432052
 20
6.3561700905
 30
0.0
 10
3.4210208042
 20
6.3589880911
 30
0.0
 10
3.4215205815
 20
6.3602620066
 30
0.0
  0
SPLINE
  5
2BE
100
AcDbEntity
  8
0
100
AcDbSpline
 62
7
  6
CONTINUOUS
 70
0
 71
3
 72
14
 73
10
 74
0
 42
0.0000001
 43
0.0000001
 44
0.0000000001
 40
0.0
 40
0.0
 40
0.0
 40
0.0
 40
0.1176004216
 40
0.2379749679
 40
0.3608363027
 40
0.4859004967
 40
0.6127906318
 40
0.7410846889
 40
1.0
 40
1.0
 40
1.0
 40
1.0
 10
6.7068425205
 20
2.0757551245
 30
0.0
 10
6.7040874836
 20
2.0744000443
 30
0.0
 10
6.6984168225
 20
2.0718484776
 30
0.0
 10
6.6895918335
 20
2.0685359002
 30
0.0
 10
6.6803964182
 20
2.0657056649
 30
0.0
 10
6.6708883694
 20
2.0633704875
 30
0.0
 10
6.6611254507
 20
2.0615417647
 30
0.0
 10
6.647814512
 20
2.0597859989
 30
0.0
 10
6.6376944788
 20
2.0592620385
 30
0.0
 10
6.630934841
 20
2.0592620386
 30
0.0
  0
SPLINE
  5
2BF
100
AcDbEntity
  8
0
100
AcDbSpline
 62
7
  6
CONTINUOUS
 70
0
 71
3
 72
14
 73
10
 74
0
 42
0.0000001
 43
0.0000001
 44
0.0000000001
 40
0.0
 40
0.0
 40
0.0
 40
0.0
 40
0.258915539
 40
0.3872096295
 40
0.5140997627
 40
0.6391639326
 40
0.7620251727
 40
0.882399624
 40
1.0
 40
1.0
 40
1.0
 40
1.0
 10
6.630934841
 20
2.0592620386
 30
0.0
 10
6.6241751981
 20
2.0592620388
 30
0.0
 10
6.6140551592
 20
2.0597860003
 30
0.0
 10
6.6007442155
 20
2.0615417685
 30
0.0
 10
6.5909812979
 20
2.0633704925
 30
0.0
 10
6.5814732537
 20
2.0657056706
 30
0.0
 10
6.5722778449
 20
2.0685359043
 30
0.0
 10
6.563452863
 20
2.07184848
 30
0.0
 10
6.5577822059
 20
2.0744000449
 30
0.0
 10
6.5550271704
 20
2.0757551245
 30
0.0
  0
SPLINE
  5
2C0
100
AcDbEntity
  8
0
100
AcDbSpline
 62
7
  6
CONTINUOUS
 70
0
 71
3
 72
20
 73
16
 74
0
 42
0.0000001
 43
0.0000001
 44
0.0000000001
 40
0.0
 40
0.0
 40
0.0
 40
0.0
 40
0.0577387186
 40
0.1155426524
 40
0.1735980709
 40
0.2320117918
 40
0.2908880468
 40
0.3503580708
 40
0.4714896547
 40
0.533461303
 40
0.5964824818
 40
0.6606355
 40
0.7259859703
 40
0.8604233876
 40
1.0
 40
1.0
 40
1.0
 40
1.0
 10
6.4959348454
 20
2.1499418386
 30
0.0
 10
6.4959348454
 20
2.1481291572
 30
0.0
 10
6.4960970047
 20
2.1444996778
 30
0.0
 10
6.4968236786
 20
2.1390914857
 30
0.0
 10
6.49802632
 20
2.1337469249
 30
0.0
 10
6.4996915387
 20
2.1284931403
 30
0.0
 10
6.5018061061
 20
2.123355496
 30
0.0
 10
6.50521842
 20
2.1166490054
 30
0.0
 10
6.5094549978
 20
2.1102810987
 30
0.0
 10
6.5143840348
 20
2.1043253559
 30
0.0
 10
6.5184681518
 20
2.1000084598
 30
0.0
 10
6.5228930407
 20
2.0958855386
 30
0.0
 10
6.5292848141
 20
2.0906055519
 30
0.0
 10
6.5380672756
 20
2.0845350498
 30
0.0
 10
6.5456186984
 20
2.0803827338
 30
0.0
 10
6.5495507557
 20
2.0784487295
 30
0.0
  0
SPLINE
  5
2C1
100
AcDbEntity
  8
0
100
AcDbSpline
 62
7
  6
CONTINUOUS
 70
0
 71
3
 72
20
 73
16
 74
0
 42
0.0000001
 43
0.0000001
 44
0.0000000001
 40
0.0
 40
0.0
 40
0.0
 40
0.0
 40
0.1395768356
 40
0.2740142207
 40
0.3393646402
 40
0.4035175605
 40
0.4665386263
 40
0.5285101694
 40
0.649641533
 40
0.7091115074
 40
0.7679877319
 40
0.826401473
 40
0.8844568286
 40
0.9422610635
 40
1.0
 40
1.0
 40
1.0
 40
1.0
 10
6.7123189351
 20
2.0784487295
 30
0.0
 10
6.7162509987
 20
2.0803827369
 30
0.0
 10
6.7238024263
 20
2.084535057
 30
0.0
 10
6.7325848905
 20
2.0906055627
 30
0.0
 10
6.7389766595
 20
2.0958855459
 30
0.0
 10
6.7434015415
 20
2.1000084624
 30
0.0
 10
6.7474856516
 20
2.1043253514
 30
0.0
 10
6.7524146802
 20
2.1102810831
 30
0.0
 10
6.7566512555
 20
2.1166489773
 30
0.0
 10
6.760063567
 20
2.1233554584
 30
0.0
 10
6.762178138
 20
2.1284930994
 30
0.0
 10
6.7638433558
 20
2.1337468815
 30
0.0
 10
6.7650460124
 20
2.1390914474
 30
0.0
 10
6.7657726784
 20
2.1444996552
 30
0.0
 10
6.7659348454
 20
2.1481291504
 30
0.0
 10
6.7659348454
 20
2.1499418386
 30
0.0
  0
SPLINE
  5
2C2
100
AcDbEntity
  8
0
100
AcDbSpline
 62
7
  6
CONTINUOUS
 70
0
 71
3
 72
20
 73
16
 74
0
 42
0.0000001
 43
0.0000001
 44
0.0000000001
 40
0.0
 40
0.0
 40
0.0
 40
0.0
 40
0.1255921335
 40
0.2526373626
 40
0.3814888147
 40
0.5126406518
 40
0.64674769
 40
0.7151099653
 40
0.7842300627
 40
0.8533542246
 40
0.9189657243
 40
0.947563619
 40
0.971031344
 40
0.9882716149
 40
1.0
 40
1.0
 40
1.0
 40
1.0
 10
6.7970979992
 20
2.3601449631
 30
0.0
 10
6.797098963
 20
2.3603205073
 30
0.0
 10
6.7971002029
 20
2.3606736312
 30
0.0
 10
6.7970994626
 20
2.3612068604
 30
0.0
 10
6.7970952939
 20
2.3617478481
 30
0.0
 10
6.7970863014
 20
2.3622986504
 30
0.0
 10
6.7970728464
 20
2.3627648028
 30
0.0
 10
6.797055891
 20
2.3631440446
 30
0.0
 10
6.797038645
 20
2.3634323413
 30
0.0
 10
6.7970149814
 20
2.3637162949
 30
0.0
 10
6.7969876427
 20
2.3639431512
 30
0.0
 10
6.7969572976
 20
2.3641048426
 30
0.0
 10
6.796933737
 20
2.3641989779
 30
0.0
 10
6.7969082941
 20
2.3642677861
 30
0.0
 10
6.7968878133
 20
2.3643033424
 30
0.0
 10
6.7968770591
 20
2.3643157154
 30
0.0
  0
SPLINE
  5
2C3
100
AcDbEntity
  8
0
100
AcDbSpline
 62
7
  6
CONTINUOUS
 70
0
 71
3
 72
14
 73
10
 74
0
 42
0.0000001
 43
0.0000001
 44
0.0000000001
 40
0.0
 40
0.0
 40
0.0
 40
0.0
 40
0.0686562589
 40
0.1547402996
 40
0.2574833709
 40
0.3762117435
 40
0.5103141051
 40
0.6592679272
 40
1.0
 40
1.0
 40
1.0
 40
1.0
 10
6.7970979992
 20
2.3601449631
 30
0.0
 10
6.796422312
 20
2.3597406431
 30
0.0
 10
6.7948804569
 20
2.3588611265
 30
0.0
 10
6.7922800629
 20
2.3574612603
 30
0.0
 10
6.7891411426
 20
2.3558515985
 30
0.0
 10
6.785479315
 20
2.3540562405
 30
0.0
 10
6.7813074722
 20
2.3520986272
 30
0.0
 10
6.7747795452
 20
2.3491707341
 30
0.0
 10
6.7695931031
 20
2.3470118
 30
0.0
 10
6.7659600897
 20
2.3455721653
 30
0.0
  0
SPLINE
  5
2C4
100
AcDbEntity
  8
0
100
AcDbSpline
 62
7
  6
CONTINUOUS
 70
0
 71
3
 72
14
 73
10
 74
0
 42
0.0000001
 43
0.0000001
 44
0.0000000001
 40
0.0
 40
0.0
 40
0.0
 40
0.0
 40
0.3407321342
 40
0.4896859639
 40
0.6237883241
 40
0.7425167242
 40
0.8452597522
 40
0.9313435756
 40
1.0
 40
1.0
 40
1.0
 40
1.0
 10
6.4959096002
 20
2.345572163
 30
0.0
 10
6.4922765842
 20
2.3470117957
 30
0.0
 10
6.4870901413
 20
2.3491707335
 30
0.0
 10
6.4805622116
 20
2.3520986266
 30
0.0
 10
6.4763903664
 20
2.3540562387
 30
0.0
 10
6.4727285411
 20
2.3558516031
 30
0.0
 10
6.4695896249
 20
2.3574612688
 30
0.0
 10
6.4669892161
 20
2.3588611057
 30
0.0
 10
6.4654473584
 20
2.3597406195
 30
0.0
 10
6.4647716847
 20
2.3601449663
 30
0.0
  0
SPLINE
  5
2C5
100
AcDbEntity
  8
0
100
AcDbSpline
 62
7
  6
CONTINUOUS
 70
0
 71
3
 72
9
 73
5
 74
0
 42
0.0000001
 43
0.0000001
 44
0.0000000001
 40
0.0
 40
0.0
 40
0.0
 40
0.0
 40
0.5041768371
 40
1.0
 40
1.0
 40
1.0
 40
1.0
 10
6.4649926362
 20
2.3643157285
 30
0.0
 10
6.4640759259
 20
2.3699197294
 30
0.0
 10
6.4626785998
 20
2.3811083256
 30
0.0
 10
6.4621848544
 20
2.3923754124
 30
0.0
 10
6.4621848454
 20
2.3979598102
 30
0.0
  0
SPLINE
  5
2C6
100
AcDbEntity
  8
0
100
AcDbSpline
 62
7
  6
CONTINUOUS
 70
0
 71
3
 72
9
 73
5
 74
0
 42
0.0000001
 43
0.0000001
 44
0.0000000001
 40
0.0
 40
0.0
 40
0.0
 40
0.0
 40
0.5041768281
 40
1.0
 40
1.0
 40
1.0
 40
1.0
 10
6.7968770534
 20
2.3643157212
 30
0.0
 10
6.7977937614
 20
2.3699197237
 30
0.0
 10
6.7991910926
 20
2.3811083216
 30
0.0
 10
6.7996848368
 20
2.392375411
 30
0.0
 10
6.7996848454
 20
2.3979598102
 30
0.0
  0
SPLINE
  5
2C7
100
AcDbEntity
  8
0
100
AcDbSpline
 62
7
  6
CONTINUOUS
 70
0
 71
3
 72
34
 73
30
 74
0
 42
0.0000001
 43
0.0000001
 44
0.0000000001
 40
0.0
 40
0.0
 40
0.0
 40
0.0
 40
0.0656902086
 40
0.0968309142
 40
0.1268233662
 40
0.1834746168
 40
0.2103589035
 40
0.2364268662
 40
0.261842527
 40
0.2867976765
 40
0.311505532
 40
0.3361913597
 40
0.3610815107
 40
0.3863922637
 40
0.4123202335
 40
0.4390352535
 40
0.4666754307
 40
0.4953459722
 40
0.5251193488
 40
0.5560363542
 40
0.5881094449
 40
0.6213250123
 40
0.6556459848
 40
0.6910154455
 40
0.7273585119
 40
0.7645848006
 40
0.8412404698
 40
0.9200626378
 40
1.0
 40
1.0
 40
1.0
 40
1.0
 10
6.7126597504
 20
2.0788055704
 30
0.0
 10
6.7170188261
 20
2.0812409596
 30
0.0
 10
6.7232368856
 20
2.0852365664
 30
0.0
 10
6.7307189298
 20
2.0913289126
 30
0.0
 10
6.7371964546
 20
2.0975184287
 30
0.0
 10
6.7426738938
 20
2.104262919
 30
0.0
 10
6.7468965666
 20
2.1114595209
 30
0.0
 10
6.7493547232
 20
2.1168990428
 30
0.0
 10
6.7511418434
 20
2.1224410854
 30
0.0
 10
6.7522460983
 20
2.1280540441
 30
0.0
 10
6.7526597995
 20
2.1337043843
 30
0.0
 10
6.7523802688
 20
2.1393580537
 30
0.0
 10
6.7514091293
 20
2.1449808538
 30
0.0
 10
6.7497533675
 20
2.1505392355
 30
0.0
 10
6.7474241888
 20
2.156000853
 30
0.0
 10
6.7444362923
 20
2.1613345002
 30
0.0
 10
6.7408083891
 20
2.1665106094
 30
0.0
 10
6.7365620475
 20
2.171500764
 30
0.0
 10
6.7317217857
 20
2.1762775771
 30
0.0
 10
6.7263154737
 20
2.1808152318
 30
0.0
 10
6.7203735895
 20
2.18508885
 30
0.0
 10
6.7139295174
 20
2.189074895
 30
0.0
 10
6.7070195295
 20
2.1927516428
 30
0.0
 10
6.6996823167
 20
2.1960985639
 30
0.0
 10
6.6919588138
 20
2.1990971824
 30
0.0
 10
6.6810993334
 20
2.2026427232
 30
0.0
 10
6.6668321224
 20
2.2060809213
 30
0.0
 10
6.6490865757
 20
2.2085687437
 30
0.0
 10
6.6370110658
 20
2.2091243985
 30
0.0
 10
6.6309348458
 20
2.2091243987
 30
0.0
  0
SPLINE
  5
2C8
100
AcDbEntity
  8
0
100
AcDbSpline
 62
7
  6
CONTINUOUS
 70
0
 71
3
 72
36
 73
32
 74
0
 42
0.0000001
 43
0.0000001
 44
0.0000000001
 40
0.0
 40
0.0
 40
0.0
 40
0.0
 40
0.0328658096
 40
0.0646002233
 40
0.0951976461
 40
0.1246786188
 40
0.1530913981
 40
0.1805144658
 40
0.2070581297
 40
0.2328635984
 40
0.2581013894
 40
0.2829664421
 40
0.3076706103
 40
0.33243346
 40
0.3574717678
 40
0.3829894772
 40
0.4091690517
 40
0.4361660175
 40
0.4641052049
 40
0.4930796323
 40
0.5231518306
 40
0.5543547007
 40
0.5866944658
 40
0.6201535331
 40
0.6546922588
 40
0.690252534
 40
0.7267597782
 40
0.7641247087
 40
0.8409912566
 40
0.9199559887
 40
1.0
 40
1.0
 40
1.0
 40
1.0
 10
6.5394214773
 20
2.0839853367
 30
0.0
 10
6.5371733664
 20
2.0853490692
 30
0.0
 10
6.5328391681
 20
2.0881728592
 30
0.0
 10
6.5267591036
 20
2.0927703865
 30
0.0
 10
6.5212441672
 20
2.0976336308
 30
0.0
 10
6.5163247031
 20
2.1027364214
 30
0.0
 10
6.5120279766
 20
2.1080520626
 30
0.0
 10
6.508378367
 20
2.1135525133
 30
0.0
 10
6.5053967258
 20
2.1192083099
 30
0.0
 10
6.5031012427
 20
2.124989059
 30
0.0
 10
6.501506179
 20
2.1308627518
 30
0.0
 10
6.5006217092
 20
2.136796149
 30
0.0
 10
6.500454193
 20
2.1427550465
 30
0.0
 10
6.5010044272
 20
2.1487046504
 30
0.0
 10
6.5022687218
 20
2.154610448
 30
0.0
 10
6.5042389802
 20
2.160438582
 30
0.0
 10
6.5069022532
 20
2.1661566344
 30
0.0
 10
6.5102425021
 20
2.1717333271
 30
0.0
 10
6.5142400864
 20
2.1771387278
 30
0.0
 10
6.5188719774
 20
2.1823443938
 30
0.0
 10
6.524112575
 20
2.1873226495
 30
0.0
 10
6.5299329041
 20
2.1920473562
 30
0.0
 10
6.5363011588
 20
2.196493635
 30
0.0
 10
6.5431829015
 20
2.2006376293
 30
0.0
 10
6.5505406913
 20
2.2044575078
 30
0.0
 10
6.5583346658
 20
2.2079327468
 30
0.0
 10
6.566522869
 20
2.2110446368
 30
0.0
 10
6.5780134465
 20
2.2147212894
 30
0.0
 10
6.5930823023
 20
2.2182855578
 30
0.0
 10
6.6118016333
 20
2.2208641938
 30
0.0
 10
6.6245309843
 20
2.2214400275
 30
0.0
 10
6.6309348458
 20
2.2214400274
 30
0.0
  0
SPLINE
  5
2C9
100
AcDbEntity
  8
0
100
AcDbSpline
 62
7
  6
CONTINUOUS
 70
0
 71
3
 72
25
 73
21
 74
0
 42
0.0000001
 43
0.0000001
 44
0.0000000001
 40
0.0
 40
0.0
 40
0.0
 40
0.0
 40
0.0234997001
 40
0.0470917206
 40
0.0708663878
 40
0.0949102458
 40
0.144091027
 40
0.1952330391
 40
0.2487673682
 40
0.3049846176
 40
0.3640401579
 40
0.4259666423
 40
0.4906893745
 40
0.5580420163
 40
0.6277813495
 40
0.6996005309
 40
0.7731432807
 40
0.848009042
 40
0.9237805038
 40
1.0
 40
1.0
 40
1.0
 40
1.0
 10
6.4959349101
 20
2.1499418386
 30
0.0
 10
6.4959349101
 20
2.1513023267
 30
0.0
 10
6.496043761
 20
2.1540299031
 30
0.0
 10
6.4965333903
 20
2.1581073788
 30
0.0
 10
6.4973478461
 20
2.1621650571
 30
0.0
 10
6.498874907
 20
2.167573966
 30
0.0
 10
6.5016153948
 20
2.1742625328
 30
0.0
 10
6.5061271064
 20
2.1819729335
 30
0.0
 10
6.5118378647
 20
2.1893615001
 30
0.0
 10
6.518688486
 20
2.1963593345
 30
0.0
 10
6.5266113159
 20
2.2029034536
 30
0.0
 10
6.5355298314
 20
2.2089341478
 30
0.0
 10
6.5453588232
 20
2.2143960299
 30
0.0
 10
6.5560047192
 20
2.2192383949
 30
0.0
 10
6.567366179
 20
2.2234159122
 30
0.0
 10
6.5793349994
 20
2.2268893474
 30
0.0
 10
6.5917968655
 20
2.2296256396
 30
0.0
 10
6.6046332564
 20
2.2315992017
 30
0.0
 10
6.6177205276
 20
2.232790683
 30
0.0
 10
6.6265222054
 20
2.2330561378
 30
0.0
 10
6.6309348454
 20
2.2330561378
 30
0.0
  0
SPLINE
  5
2CA
100
AcDbEntity
  8
0
100
AcDbSpline
 62
7
  6
CONTINUOUS
 70
0
 71
3
 72
25
 73
21
 74
0
 42
0.0000001
 43
0.0000001
 44
0.0000000001
 40
0.0
 40
0.0
 40
0.0
 40
0.0
 40
0.0234997001
 40
0.0470917206
 40
0.0708663878
 40
0.0949102458
 40
0.144091027
 40
0.1952330391
 40
0.2487673682
 40
0.3049846176
 40
0.3640401579
 40
0.4259666423
 40
0.4906893745
 40
0.5580420163
 40
0.6277813495
 40
0.6996005309
 40
0.7731432807
 40
0.848009042
 40
0.9237805038
 40
1.0
 40
1.0
 40
1.0
 40
1.0
 10
6.7659347808
 20
2.3878901999
 30
0.0
 10
6.7659347808
 20
2.389250688
 30
0.0
 10
6.7658259299
 20
2.3919782644
 30
0.0
 10
6.7653363006
 20
2.3960557401
 30
0.0
 10
6.7645218448
 20
2.4001134184
 30
0.0
 10
6.7629947839
 20
2.4055223274
 30
0.0
 10
6.7602542961
 20
2.4122108941
 30
0.0
 10
6.7557425844
 20
2.4199212948
 30
0.0
 10
6.7500318261
 20
2.4273098614
 30
0.0
 10
6.7431812048
 20
2.4343076958
 30
0.0
 10
6.735258375
 20
2.4408518149
 30
0.0
 10
6.7263398595
 20
2.4468825092
 30
0.0
 10
6.7165108677
 20
2.4523443912
 30
0.0
 10
6.7058649716
 20
2.4571867563
 30
0.0
 10
6.6945035119
 20
2.4613642736
 30
0.0
 10
6.6825346914
 20
2.4648377087
 30
0.0
 10
6.6700728254
 20
2.4675740009
 30
0.0
 10
6.6572364345
 20
2.469547563
 30
0.0
 10
6.6441491632
 20
2.4707390443
 30
0.0
 10
6.6353474854
 20
2.4710044991
 30
0.0
 10
6.6309348454
 20
2.4710044991
 30
0.0
  0
SPLINE
  5
2CB
100
AcDbEntity
  8
0
100
AcDbSpline
 62
7
  6
CONTINUOUS
 70
0
 71
3
 72
15
 73
11
 74
0
 42
0.0000001
 43
0.0000001
 44
0.0000000001
 40
0.0
 40
0.0
 40
0.0
 40
0.0
 40
0.130806361
 40
0.2595985422
 40
0.3866117511
 40
0.5120337662
 40
0.6360043077
 40
0.7586228063
 40
0.8799603252
 40
1.0
 40
1.0
 40
1.0
 40
1.0
 10
6.4959107786
 20
3.1536774742
 30
0.0
 10
6.4924822957
 20
3.1489563345
 30
0.0
 10
6.4860353159
 20
3.13932195
 30
0.0
 10
6.4774998627
 20
3.1243220781
 30
0.0
 10
6.4701108195
 20
3.1089923569
 30
0.0
 10
6.4638144286
 20
3.0934156603
 30
0.0
 10
6.4585702456
 20
3.077661194
 30
0.0
 10
6.4543485419
 20
3.061791258
 30
0.0
 10
6.4511339343
 20
3.0458667263
 30
0.0
 10
6.4496529317
 20
3.0351940472
 30
0.0
 10
6.4490846397
 20
3.0298698506
 30
0.0
  0
SPLINE
  5
2CC
100
AcDbEntity
  8
0
100
AcDbSpline
 62
7
  6
CONTINUOUS
 70
0
 71
3
 72
9
 73
5
 74
0
 42
0.0000001
 43
0.0000001
 44
0.0000000001
 40
0.0
 40
0.0
 40
0.0
 40
0.0
 40
0.5051421929
 40
1.0
 40
1.0
 40
1.0
 40
1.0
 10
6.4529115183
 20
2.3536309615
 30
0.0
 10
6.4516573052
 20
2.3598894554
 30
0.0
 10
6.4497202688
 20
2.3723955792
 30
0.0
 10
6.4489714614
 20
2.3850328391
 30
0.0
 10
6.4489266662
 20
2.3912856562
 30
0.0
  0
SPLINE
  5
2CD
100
AcDbEntity
  8
0
100
AcDbSpline
 62
7
  6
CONTINUOUS
 70
0
 71
3
 72
13
 73
9
 74
0
 42
0.0000001
 43
0.0000001
 44
0.0000000001
 40
0.0
 40
0.0
 40
0.0
 40
0.0
 40
0.139249951
 40
0.3697758273
 40
0.5116243696
 40
0.6666374966
 40
0.8309061252
 40
1.0
 40
1.0
 40
1.0
 40
1.0
 10
2.6949479011
 20
5.7259166039
 30
0.0
 10
2.6958347515
 20
5.7208104736
 30
0.0
 10
2.6979444483
 20
5.7072080483
 30
0.0
 10
2.6998845928
 20
5.6882484498
 30
0.0
 10
2.7007386293
 20
5.6686328093
 30
0.0
 10
2.7006401565
 20
5.6514625489
 30
0.0
 10
2.6995262673
 20
5.6333107544
 30
0.0
 10
2.6980259237
 20
5.6209855012
 30
0.0
 10
2.697074003
 20
5.6147646129
 30
0.0
  0
SPLINE
  5
2CE
100
AcDbEntity
  8
0
100
AcDbSpline
 62
7
  6
CONTINUOUS
 70
0
 71
3
 72
9
 73
5
 74
0
 42
0.0000001
 43
0.0000001
 44
0.0000000001
 40
0.0
 40
0.0
 40
0.0
 40
0.0
 40
0.5051421629
 40
1.0
 40
1.0
 40
1.0
 40
1.0
 10
6.8089581726
 20
2.3536309615
 30
0.0
 10
6.810212391
 20
2.3598894539
 30
0.0
 10
6.8121494108
 20
2.3723955802
 30
0.0
 10
6.8128982302
 20
2.3850328388
 30
0.0
 10
6.8129430247
 20
2.3912856562
 30
0.0
  0
SPLINE
  5
2CF
100
AcDbEntity
  8
0
100
AcDbSpline
 62
7
  6
CONTINUOUS
 70
0
 71
3
 72
15
 73
11
 74
0
 42
0.0000001
 43
0.0000001
 44
0.0000000001
 40
0.0
 40
0.0
 40
0.0
 40
0.0
 40
0.1308063659
 40
0.2595985429
 40
0.3866117436
 40
0.5120337629
 40
0.6360043101
 40
0.758622809
 40
0.8799603275
 40
1.0
 40
1.0
 40
1.0
 40
1.0
 10
6.7659589198
 20
3.1536774618
 30
0.0
 10
6.7693874031
 20
3.1489563228
 30
0.0
 10
6.7758343835
 20
3.1393219402
 30
0.0
 10
6.7843698341
 20
3.1243220692
 30
0.0
 10
6.7917588718
 20
3.1089923478
 30
0.0
 10
6.7980552639
 20
3.0934156537
 30
0.0
 10
6.8032994493
 20
3.0776611895
 30
0.0
 10
6.8075211512
 20
3.0617912545
 30
0.0
 10
6.8107357575
 20
3.0458667245
 30
0.0
 10
6.8122167596
 20
3.0351940466
 30
0.0
 10
6.8127850512
 20
3.0298698506
 30
0.0
  0
SPLINE
  5
2D0
100
AcDbEntity
  8
0
100
AcDbSpline
 62
7
  6
CONTINUOUS
 70
0
 71
3
 72
14
 73
10
 74
0
 42
0.0000001
 43
0.0000001
 44
0.0000000001
 40
0.0
 40
0.0
 40
0.0
 40
0.0
 40
0.1046681171
 40
0.2176201985
 40
0.3375805297
 40
0.463322014
 40
0.5936070734
 40
0.7272362983
 40
1.0
 40
1.0
 40
1.0
 40
1.0
 10
6.4490846397
 20
3.0298698506
 30
0.0
 10
6.4491234511
 20
3.0286854777
 30
0.0
 10
6.4492410662
 20
3.0262241625
 30
0.0
 10
6.4495058432
 20
3.0224112075
 30
0.0
 10
6.4498539283
 20
3.0183654758
 30
0.0
 10
6.4502730927
 20
3.0141293091
 30
0.0
 10
6.4507525555
 20
3.009743856
 30
0.0
 10
6.4514635873
 20
3.0037095126
 30
0.0
 10
6.4520515236
 20
2.9991460373
 30
0.0
 10
6.4524647849
 20
2.9960856977
 30
0.0
  0
SPLINE
  5
2D1
100
AcDbEntity
  8
0
100
AcDbSpline
 62
7
  6
CONTINUOUS
 70
0
 71
3
 72
14
 73
10
 74
0
 42
0.0000001
 43
0.0000001
 44
0.0000000001
 40
0.0
 40
0.0
 40
0.0
 40
0.0
 40
0.1046681771
 40
0.2176202242
 40
0.3375804876
 40
0.4633220035
 40
0.5936070691
 40
0.7272362852
 40
1.0
 40
1.0
 40
1.0
 40
1.0
 10
6.8127850512
 20
3.0298698506
 30
0.0
 10
6.8127462309
 20
3.0286854773
 30
0.0
 10
6.8126286452
 20
3.0262241606
 30
0.0
 10
6.8123638545
 20
3.0224112065
 30
0.0
 10
6.8120157496
 20
3.0183654775
 30
0.0
 10
6.8115966014
 20
3.0141293096
 30
0.0
 10
6.8111171461
 20
3.0097438552
 30
0.0
 10
6.8104060928
 20
3.0037095142
 30
0.0
 10
6.8098181651
 20
2.9991460378
 30
0.0
 10
6.809404906
 20
2.9960856977
 30
0.0
  0
LINE
  5
2D2
100
AcDbEntity
  8
0
100
AcDbLine
 62
7
  6
CONTINUOUS
 10
6.8089581726
 20
2.3536309615
 11
6.8061568727
 21
2.3509735616
  0
SPLINE
  5
2D3
100
AcDbEntity
  8
0
100
AcDbSpline
 62
7
  6
CONTINUOUS
 70
0
 71
3
 72
16
 73
12
 74
0
 42
0.0000001
 43
0.0000001
 44
0.0000000001
 40
0.0
 40
0.0
 40
0.0
 40
0.0
 40
0.1246526203
 40
0.2504389962
 40
0.3764690932
 40
0.5021427487
 40
0.6272265433
 40
0.7521384863
 40
0.8778219074
 40
0.9403760561
 40
1.0
 40
1.0
 40
1.0
 40
1.0
 10
6.8061568727
 20
2.3509735616
 30
0.0
 10
6.8055779388
 20
2.3510347756
 30
0.0
 10
6.804423247
 20
2.3512598648
 30
0.0
 10
6.8027717697
 20
2.3518858047
 30
0.0
 10
6.8012429632
 20
2.352780241
 30
0.0
 10
6.7998853983
 20
2.353912461
 30
0.0
 10
6.7987383779
 20
2.355251294
 30
0.0
 10
6.7978387732
 20
2.356767885
 30
0.0
 10
6.7973375782
 20
2.3581539969
 30
0.0
 10
6.7971298365
 20
2.3592951072
 30
0.0
 10
6.7970964716
 20
2.3598665076
 30
0.0
 10
6.7970979995
 20
2.3601449632
 30
0.0
  0
SPLINE
  5
2D4
100
AcDbEntity
  8
0
100
AcDbSpline
 62
7
  6
CONTINUOUS
 70
0
 71
3
 72
11
 73
7
 74
0
 42
0.0000001
 43
0.0000001
 44
0.0000000001
 40
0.0
 40
0.0
 40
0.0
 40
0.0
 40
0.261452366
 40
0.5133769932
 40
0.7585851324
 40
1.0
 40
1.0
 40
1.0
 40
1.0
 10
6.8061568727
 20
2.3509735616
 30
0.0
 10
6.8065273453
 20
2.3509102365
 30
0.0
 10
6.807264379
 20
2.3508352529
 30
0.0
 10
6.8083576083
 20
2.3508796654
 30
0.0
 10
6.8094045595
 20
2.3510768816
 30
0.0
 10
6.8100681876
 20
2.3513076561
 30
0.0
 10
6.810386441
 20
2.3514460483
 30
0.0
  0
SPLINE
  5
2D5
100
AcDbEntity
  8
0
100
AcDbSpline
 62
7
  6
CONTINUOUS
 70
0
 71
3
 72
16
 73
12
 74
0
 42
0.0000001
 43
0.0000001
 44
0.0000000001
 40
0.0
 40
0.0
 40
0.0
 40
0.0
 40
0.0596245228
 40
0.1221787399
 40
0.2478622147
 40
0.3727742248
 40
0.4978580477
 40
0.6235316901
 40
0.7495617428
 40
0.8753477598
 40
1.0
 40
1.0
 40
1.0
 40
1.0
 10
6.4647716704
 20
2.3601449673
 30
0.0
 10
6.464773198
 20
2.3598665093
 30
0.0
 10
6.4647398263
 20
2.3592951068
 30
0.0
 10
6.4645320891
 20
2.3581539939
 30
0.0
 10
6.4640308958
 20
2.3567678813
 30
0.0
 10
6.463131293
 20
2.3552512903
 30
0.0
 10
6.4619842732
 20
2.3539124584
 30
0.0
 10
6.4606267091
 20
2.35278024
 30
0.0
 10
6.4590979049
 20
2.3518858069
 30
0.0
 10
6.4574464327
 20
2.3512598685
 30
0.0
 10
6.4562917456
 20
2.3510347798
 30
0.0
 10
6.4557128141
 20
2.3509735651
 30
0.0
  0
LINE
  5
2D6
100
AcDbEntity
  8
0
100
AcDbLine
 62
7
  6
CONTINUOUS
 10
6.4557128141
 20
2.3509735651
 11
6.4529115183
 21
2.3536309615
  0
SPLINE
  5
2D7
100
AcDbEntity
  8
0
100
AcDbSpline
 62
7
  6
CONTINUOUS
 70
0
 71
3
 72
11
 73
7
 74
0
 42
0.0000001
 43
0.0000001
 44
0.0000000001
 40
0.0
 40
0.0
 40
0.0
 40
0.0
 40
0.24142669
 40
0.4866354644
 40
0.7385498958
 40
1.0
 40
1.0
 40
1.0
 40
1.0
 10
6.4514832499
 20
2.3514460483
 30
0.0
 10
6.4518015192
 20
2.3513076494
 30
0.0
 10
6.4524651595
 20
2.3510768562
 30
0.0
 10
6.453512115
 20
2.3508796292
 30
0.0
 10
6.4546053296
 20
2.350835254
 30
0.0
 10
6.4553423451
 20
2.3509102368
 30
0.0
 10
6.4557128141
 20
2.3509735651
 30
0.0
  0
SPLINE
  5
2D8
100
AcDbEntity
  8
0
100
AcDbSpline
 62
7
  6
CONTINUOUS
 70
0
 71
3
 72
66
 73
62
 74
0
 42
0.0000001
 43
0.0000001
 44
0.0000000001
 40
0.0
 40
0.0
 40
0.0
 40
0.0
 40
0.0169382255
 40
0.0336914001
 40
0.0502548782
 40
0.0666266491
 40
0.0987998126
 40
0.1302659067
 40
0.1610997291
 40
0.176310281
 40
0.1913988213
 40
0.2212566893
 40
0.2360606877
 40
0.2507997774
 40
0.2654903372
 40
0.2801517882
 40
0.3094632571
 40
0.3241664276
 40
0.3389367207
 40
0.3538099692
 40
0.3688253681
 40
0.3994774781
 40
0.4152353538
 40
0.4232502931
 40
0.4313664642
 40
0.4479309433
 40
0.4563828843
 40
0.4649445994
 40
0.4736057518
 40
0.4823504925
 40
0.4911580786
 40
0.4999977377
 40
0.5088373698
 40
0.5176447759
 40
0.5263896013
 40
0.5350513384
 40
0.5520640932
 40
0.5686284252
 40
0.5847599729
 40
0.6005180652
 40
0.6159682615
 40
0.6311738084
 40
0.6461890768
 40
0.6610625176
 40
0.6758330927
 40
0.6905364471
 40
0.7198480259
 40
0.7345095436
 40
0.7492001601
 40
0.7639392966
 40
0.7787433151
 40
0.8086011832
 40
0.8236897204
 40
0.8389002702
 40
0.8697340968
 40
0.9012001916
 40
0.9333733539
 40
0.9497451244
 40
0.9663086008
 40
0.9830617748
 40
1.0
 40
1.0
 40
1.0
 40
1.0
 10
6.7659375321
 20
2.2869019657
 30
0.0
 10
6.7724568896
 20
2.2891550977
 30
0.0
 10
6.7853166887
 20
2.293955607
 30
0.0
 10
6.8041277594
 20
2.3020344964
 30
0.0
 10
6.8223280843
 20
2.3108946822
 30
0.0
 10
6.8456094975
 20
2.3235980358
 30
0.0
 10
6.8731316377
 20
2.341126174
 30
0.0
 10
6.903706684
 20
2.3645492623
 30
0.0
 10
6.9271168259
 20
2.3857778116
 30
0.0
 10
6.9445318897
 20
2.4035753113
 30
0.0
 10
6.9609745238
 20
2.4217416441
 30
0.0
 10
6.976267184
 20
2.4407022684
 30
0.0
 10
6.9903889835
 20
2.4603468779
 30
0.0
 10
7.0003691782
 20
2.4753474874
 30
0.0
 10
7.0097776425
 20
2.4906448576
 30
0.0
 10
7.0215676117
 20
2.5114265909
 30
0.0
 10
7.0322668285
 20
2.532817474
 30
0.0
 10
7.0418593065
 20
2.5547542077
 30
0.0
 10
7.0485279671
 20
2.5715410688
 30
0.0
 10
7.0546606693
 20
2.5886661801
 30
0.0
 10
7.062177313
 20
2.6121501178
 30
0.0
 10
7.0685608848
 20
2.6363607024
 30
0.0
 10
7.0730906133
 20
2.6580599801
 30
0.0
 10
7.0754077768
 20
2.6708384247
 30
0.0
 10
7.0775457716
 20
2.6839807885
 30
0.0
 10
7.079340777
 20
2.6973571362
 30
0.0
 10
7.0807827774
 20
2.7109554437
 30
0.0
 10
7.0816918727
 20
2.7213720095
 30
0.0
 10
7.0824122647
 20
2.7319228274
 30
0.0
 10
7.0829316784
 20
2.7425857583
 30
0.0
 10
7.0832415686
 20
2.7533295442
 30
0.0
 10
7.0833447116
 20
2.7641159153
 30
0.0
 10
7.0832417141
 20
2.7749022191
 30
0.0
 10
7.0829315321
 20
2.7856459415
 30
0.0
 10
7.0824117996
 20
2.7963090816
 30
0.0
 10
7.08145773
 20
2.810293793
 30
0.0
 10
7.0798045324
 20
2.8274194103
 30
0.0
 10
7.0771109422
 20
2.8474867422
 30
0.0
 10
7.0737669482
 20
2.8669375452
 30
0.0
 10
7.069827151
 20
2.8858128545
 30
0.0
 10
7.0653175657
 20
2.9041719583
 30
0.0
 10
7.0602595266
 20
2.9220733034
 30
0.0
 10
7.0546600285
 20
2.9395662134
 30
0.0
 10
7.0485276653
 20
2.9566913389
 30
0.0
 10
7.0418592841
 20
2.9734786675
 30
0.0
 10
7.0322670042
 20
2.9954157264
 30
0.0
 10
7.0215676437
 20
3.016806715
 30
0.0
 10
7.009777724
 20
3.0375885819
 30
0.0
 10
7.0003692633
 20
3.0528860369
 30
0.0
 10
6.9903890667
 20
3.0678867059
 30
0.0
 10
6.9762672189
 20
3.0875313156
 30
0.0
 10
6.9609745026
 20
3.1064919023
 30
0.0
 10
6.9445318625
 20
3.1246582262
 30
0.0
 10
6.9271168014
 20
3.1424557278
 30
0.0
 10
6.9037066725
 20
3.1636842934
 30
0.0
 10
6.8731316219
 20
3.1871073795
 30
0.0
 10
6.8456094824
 20
3.2046355173
 30
0.0
 10
6.8223280722
 20
3.2173388742
 30
0.0
 10
6.804127739
 20
3.2261990411
 30
0.0
 10
6.7853166576
 20
3.2342779027
 30
0.0
 10
6.7724568577
 20
3.2390784079
 30
0.0
 10
6.7659375012
 20
3.2413315421
 30
0.0
  0
SPLINE
  5
2D9
100
AcDbEntity
  8
0
100
AcDbSpline
 62
7
  6
CONTINUOUS
 70
0
 71
3
 72
17
 73
13
 74
0
 42
0.0000001
 43
0.0000001
 44
0.0000000001
 40
0.0
 40
0.0
 40
0.0
 40
0.0
 40
0.1399678573
 40
0.2814943409
 40
0.4206385164
 40
0.5537660558
 40
0.678201028
 40
0.7928339157
 40
0.8468425626
 40
0.8990139386
 40
0.9498812158
 40
1.0
 40
1.0
 40
1.0
 40
1.0
 10
6.4489266662
 20
2.3912856562
 30
0.0
 10
6.4496865365
 20
2.3911007933
 30
0.0
 10
6.4512508334
 20
2.3908652832
 30
0.0
 10
6.453610914
 20
2.3909064223
 30
0.0
 10
6.4558948215
 20
2.3913334926
 30
0.0
 10
6.4579789845
 20
2.3921257189
 30
0.0
 10
6.4597510822
 20
2.393242674
 30
0.0
 10
6.4609102891
 20
2.3944275322
 30
0.0
 10
6.4615700395
 20
2.395474719
 30
0.0
 10
6.4619228917
 20
2.3962821073
 30
0.0
 10
6.4621366655
 20
2.3971144535
 30
0.0
 10
6.4621848454
 20
2.3976797845
 30
0.0
 10
6.4621848454
 20
2.3979598102
 30
0.0
  0
SPLINE
  5
2DA
100
AcDbEntity
  8
0
100
AcDbSpline
 62
7
  6
CONTINUOUS
 70
0
 71
3
 72
18
 73
14
 74
0
 42
0.0000001
 43
0.0000001
 44
0.0000000001
 40
0.0
 40
0.0
 40
0.0
 40
0.0
 40
0.1390015255
 40
0.281524405
 40
0.4227817622
 40
0.5581367994
 40
0.6839250126
 40
0.7426636844
 40
0.7985114714
 40
0.8516551903
 40
0.9025158693
 40
0.9517284691
 40
1.0
 40
1.0
 40
1.0
 40
1.0
 10
6.4479648197
 20
2.4991334376
 30
0.0
 10
6.448739946
 20
2.4988902074
 30
0.0
 10
6.450359535
 20
2.4985462627
 30
0.0
 10
6.4528393091
 20
2.4984487258
 30
0.0
 10
6.4552811559
 20
2.4987620695
 30
0.0
 10
6.4575376017
 20
2.4994684529
 30
0.0
 10
6.4591918959
 20
2.5003743231
 30
0.0
 10
6.4602851491
 20
2.5012619626
 30
0.0
 10
6.4609608186
 20
2.5019765876
 30
0.0
 10
6.4614996703
 20
2.5027441808
 30
0.0
 10
6.4618924383
 20
2.5035536761
 30
0.0
 10
6.4621309534
 20
2.5043918214
 30
0.0
 10
6.4621848454
 20
2.5049628982
 30
0.0
 10
6.4621848454
 20
2.5052450205
 30
0.0
  0
SPLINE
  5
2DB
100
AcDbEntity
  8
0
100
AcDbSpline
 62
7
  6
CONTINUOUS
 70
0
 71
3
 72
17
 73
13
 74
0
 42
0.0000001
 43
0.0000001
 44
0.0000000001
 40
0.0
 40
0.0
 40
0.0
 40
0.0
 40
0.0471348064
 40
0.096145423
 40
0.1475422048
 40
0.2017181622
 40
0.3187656931
 40
0.4468682165
 40
0.5832893303
 40
0.7240183056
 40
0.8644354273
 40
1.0
 40
1.0
 40
1.0
 40
1.0
 10
6.4632176355
 20
3.0237405142
 30
0.0
 10
6.4631837136
 20
3.0240049169
 30
0.0
 10
6.4630646255
 20
3.0245388609
 30
0.0
 10
6.4627471402
 20
3.0253142509
 30
0.0
 10
6.4622929078
 20
3.0260650606
 30
0.0
 10
6.4614953727
 20
3.0270436564
 30
0.0
 10
6.4601832649
 20
3.0281389181
 30
0.0
 10
6.4582719657
 20
3.0291655695
 30
0.0
 10
6.4560862826
 20
3.0298893477
 30
0.0
 10
6.4537460944
 20
3.0302709222
 30
0.0
 10
6.4513806222
 20
3.030290412
 30
0.0
 10
6.4498289133
 20
3.0300538584
 30
0.0
 10
6.4490846397
 20
3.0298698506
 30
0.0
  0
SPLINE
  5
2DC
100
AcDbEntity
  8
0
100
AcDbSpline
 62
7
  6
CONTINUOUS
 70
0
 71
3
 72
17
 73
13
 74
0
 42
0.0000001
 43
0.0000001
 44
0.0000000001
 40
0.0
 40
0.0
 40
0.0
 40
0.0
 40
0.1355645706
 40
0.2759816785
 40
0.4167106339
 40
0.5531317281
 40
0.6812342391
 40
0.7982817717
 40
0.8524577373
 40
0.9038545328
 40
0.9528651688
 40
1.0
 40
1.0
 40
1.0
 40
1.0
 10
6.8127850512
 20
3.0298698506
 30
0.0
 10
6.8120407776
 20
3.0300538588
 30
0.0
 10
6.8104890686
 20
3.0302904131
 30
0.0
 10
6.8081235964
 20
3.0302709241
 30
0.0
 10
6.805783408
 20
3.02988935
 30
0.0
 10
6.8035977249
 20
3.029165572
 30
0.0
 10
6.8016864257
 20
3.0281389204
 30
0.0
 10
6.8003743179
 20
3.0270436583
 30
0.0
 10
6.7995767829
 20
3.0260650621
 30
0.0
 10
6.7991225506
 20
3.0253142519
 30
0.0
 10
6.7988050653
 20
3.0245388614
 30
0.0
 10
6.7986859773
 20
3.0240049171
 30
0.0
 10
6.7986520554
 20
3.0237405142
 30
0.0
  0
SPLINE
  5
2DD
100
AcDbEntity
  8
0
100
AcDbSpline
 62
7
  6
CONTINUOUS
 70
0
 71
3
 72
18
 73
14
 74
0
 42
0.0000001
 43
0.0000001
 44
0.0000000001
 40
0.0
 40
0.0
 40
0.0
 40
0.0
 40
0.0482715261
 40
0.0974841219
 40
0.1483447979
 40
0.2014885148
 40
0.257336301
 40
0.3160749727
 40
0.4418631882
 40
0.5772182293
 40
0.7184755907
 40
0.8609984735
 40
1.0
 40
1.0
 40
1.0
 40
1.0
 10
6.7996848454
 20
2.5052450205
 30
0.0
 10
6.7996848454
 20
2.5049628982
 30
0.0
 10
6.7997387374
 20
2.5043918215
 30
0.0
 10
6.7999772526
 20
2.5035536763
 30
0.0
 10
6.8003700206
 20
2.5027441811
 30
0.0
 10
6.8009088722
 20
2.501976588
 30
0.0
 10
6.8015845417
 20
2.501261963
 30
0.0
 10
6.802677795
 20
2.5003743236
 30
0.0
 10
6.8043320892
 20
2.4994684534
 30
0.0
 10
6.806588535
 20
2.49876207
 30
0.0
 10
6.8090303817
 20
2.4984487262
 30
0.0
 10
6.8115101559
 20
2.4985462629
 30
0.0
 10
6.8131297449
 20
2.4988902075
 30
0.0
 10
6.8139048712
 20
2.4991334376
 30
0.0
  0
SPLINE
  5
2DE
100
AcDbEntity
  8
0
100
AcDbSpline
 62
7
  6
CONTINUOUS
 70
0
 71
3
 72
17
 73
13
 74
0
 42
0.0000001
 43
0.0000001
 44
0.0000000001
 40
0.0
 40
0.0
 40
0.0
 40
0.0
 40
0.0501187851
 40
0.100986063
 40
0.1531574396
 40
0.2071660869
 40
0.3217989748
 40
0.4462339466
 40
0.5793614853
 40
0.7185056601
 40
0.860032143
 40
1.0
 40
1.0
 40
1.0
 40
1.0
 10
6.7996848454
 20
2.3979598102
 30
0.0
 10
6.7996848454
 20
2.3976797845
 30
0.0
 10
6.7997330254
 20
2.3971144535
 30
0.0
 10
6.7999467992
 20
2.3962821073
 30
0.0
 10
6.8002996513
 20
2.3954747189
 30
0.0
 10
6.8009594017
 20
2.3944275321
 30
0.0
 10
6.8021186086
 20
2.393242674
 30
0.0
 10
6.8038907064
 20
2.3921257188
 30
0.0
 10
6.8059748694
 20
2.3913334925
 30
0.0
 10
6.8082587768
 20
2.3909064222
 30
0.0
 10
6.8106188575
 20
2.3908652832
 30
0.0
 10
6.8121831544
 20
2.3911007933
 30
0.0
 10
6.8129430247
 20
2.3912856562
 30
0.0
  0
SPLINE
  5
2DF
100
AcDbEntity
  8
0
100
AcDbSpline
 62
7
  6
CONTINUOUS
 70
0
 71
3
 72
13
 73
9
 74
0
 42
0.0000001
 43
0.0000001
 44
0.0000000001
 40
0.0
 40
0.0
 40
0.0
 40
0.0
 40
0.168796643
 40
0.3328049757
 40
0.4876199556
 40
0.629361202
 40
0.8600216429
 40
1.0
 40
1.0
 40
1.0
 40
1.0
 10
2.6948050907
 20
5.5999372046
 30
0.0
 10
2.6938556509
 20
5.5937331272
 30
0.0
 10
2.6916082181
 20
5.5815550613
 30
0.0
 10
2.687258556
 20
5.5639436348
 30
0.0
 10
2.6822343651
 20
5.5475635817
 30
0.0
 10
2.6755703082
 20
5.529121361
 30
0.0
 10
2.6680529689
 20
5.5115968903
 30
0.0
 10
2.6619677787
 20
5.4992286088
 30
0.0
 10
2.6595855644
 20
5.4946010133
 30
0.0
  0
SPLINE
  5
2E0
100
AcDbEntity
  8
0
100
AcDbSpline
 62
7
  6
CONTINUOUS
 70
0
 71
3
 72
66
 73
62
 74
0
 42
0.0000001
 43
0.0000001
 44
0.0000000001
 40
0.0
 40
0.0
 40
0.0
 40
0.0
 40
0.0169382226
 40
0.0336913992
 40
0.0502548834
 40
0.0666266546
 40
0.0987998175
 40
0.1302659173
 40
0.1610997426
 40
0.1763102957
 40
0.1913988362
 40
0.2212567075
 40
0.2360607042
 40
0.2507997949
 40
0.2654903509
 40
0.2801517969
 40
0.3094632641
 40
0.3241664296
 40
0.3389367123
 40
0.3538099488
 40
0.3688253437
 40
0.3994774711
 40
0.4152353365
 40
0.4232502552
 40
0.4313664109
 40
0.4479308931
 40
0.4563828326
 40
0.4649445454
 40
0.4736056721
 40
0.4823504153
 40
0.491158009
 40
0.499997675
 40
0.5088373221
 40
0.5176447244
 40
0.5263895335
 40
0.5350512736
 40
0.5520640827
 40
0.5686284221
 40
0.5847599105
 40
0.6005179861
 40
0.6159682142
 40
0.6311737922
 40
0.6461890808
 40
0.6610625178
 40
0.675833082
 40
0.6905364313
 40
0.7198480083
 40
0.7345095243
 40
0.7492001405
 40
0.7639392817
 40
0.7787432999
 40
0.8086011721
 40
0.8236897088
 40
0.8389002593
 40
0.8697340879
 40
0.901200187
 40
0.9333733494
 40
0.9497451197
 40
0.9663086007
 40
0.9830617758
 40
1.0
 40
1.0
 40
1.0
 40
1.0
 10
6.4959321163
 20
3.241331562
 30
0.0
 10
6.4894127525
 20
3.2390784544
 30
0.0
 10
6.4765529413
 20
3.2342779793
 30
0.0
 10
6.4577418924
 20
3.2261990368
 30
0.0
 10
6.439541587
 20
3.2173388104
 30
0.0
 10
6.4162601645
 20
3.2046354764
 30
0.0
 10
6.3887380129
 20
3.1871073561
 30
0.0
 10
6.3581629815
 20
3.1636842493
 30
0.0
 10
6.3347528396
 20
3.1424556998
 30
0.0
 10
6.317337777
 20
3.1246582002
 30
0.0
 10
6.3008951429
 20
3.1064918684
 30
0.0
 10
6.2856024884
 20
3.0875312421
 30
0.0
 10
6.2714806862
 20
3.0678866364
 30
0.0
 10
6.2615004986
 20
3.0528860267
 30
0.0
 10
6.2520920345
 20
3.0375886625
 30
0.0
 10
6.2403020663
 20
3.0168069362
 30
0.0
 10
6.2296028641
 20
2.9954160541
 30
0.0
 10
6.2200103861
 20
2.9734793311
 30
0.0
 10
6.2133417173
 20
2.9566924876
 30
0.0
 10
6.2072090051
 20
2.9395673933
 30
0.0
 10
6.1996923571
 20
2.9160834586
 30
0.0
 10
6.1933088351
 20
2.8918728623
 30
0.0
 10
6.1887790955
 20
2.8701735959
 30
0.0
 10
6.1864619056
 20
2.8573951767
 30
0.0
 10
6.1843238968
 20
2.8442528301
 30
0.0
 10
6.1825289229
 20
2.8308764848
 30
0.0
 10
6.181086935
 20
2.8172781781
 30
0.0
 10
6.1801778148
 20
2.8068616279
 30
0.0
 10
6.1794574028
 20
2.7963108226
 30
0.0
 10
6.1789380355
 20
2.7856478967
 30
0.0
 10
6.1786281868
 20
2.7749041041
 30
0.0
 10
6.1785250318
 20
2.7641177227
 30
0.0
 10
6.1786279569
 20
2.7533314121
 30
0.0
 10
6.1789381021
 20
2.7425876913
 30
0.0
 10
6.1794578873
 20
2.7319245616
 30
0.0
 10
6.1804120184
 20
2.7179398397
 30
0.0
 10
6.1820651166
 20
2.70081419
 30
0.0
 10
6.1847586453
 20
2.6807468481
 30
0.0
 10
6.1881027829
 20
2.6612960998
 30
0.0
 10
6.1920425867
 20
2.6424208143
 30
0.0
 10
6.1965521245
 20
2.6240616816
 30
0.0
 10
6.2016101303
 20
2.6061602939
 30
0.0
 10
6.2072096038
 20
2.5886673575
 30
0.0
 10
6.2133419738
 20
2.5715422338
 30
0.0
 10
6.2200103686
 20
2.5547549215
 30
0.0
 10
6.2296026527
 20
2.5328178753
 30
0.0
 10
6.2403020093
 20
2.5114268917
 30
0.0
 10
6.2520919277
 20
2.4906450288
 30
0.0
 10
6.2615003898
 20
2.4753475757
 30
0.0
 10
6.2714805774
 20
2.4603469011
 30
0.0
 10
6.2856024273
 20
2.4407022918
 30
0.0
 10
6.3008951353
 20
2.4217417002
 30
0.0
 10
6.3173377733
 20
2.4035753754
 30
0.0
 10
6.3347528305
 20
2.3857778726
 30
0.0
 10
6.3581629558
 20
2.3645493043
 30
0.0
 10
6.388737992
 20
2.3411262017
 30
0.0
 10
6.416260136
 20
2.3235980726
 30
0.0
 10
6.439541551
 20
2.3108947278
 30
0.0
 10
6.4577418697
 20
2.3020345325
 30
0.0
 10
6.4765529346
 20
2.2939556315
 30
0.0
 10
6.4894127409
 20
2.2891551455
 30
0.0
 10
6.4959321012
 20
2.2869020257
 30
0.0
  0
SPLINE
  5
2E1
100
AcDbEntity
  8
0
100
AcDbSpline
 62
7
  6
CONTINUOUS
 70
0
 71
3
 72
39
 73
35
 74
0
 42
0.0000001
 43
0.0000001
 44
0.0000000001
 40
0.0
 40
0.0
 40
0.0
 40
0.0
 40
0.0381116068
 40
0.0760003276
 40
0.1134357241
 40
0.1502099652
 40
0.1861223019
 40
0.2209945039
 40
0.2546732711
 40
0.2870370424
 40
0.3180026533
 40
0.3475326937
 40
0.3756434225
 40
0.4024125163
 40
0.4279853729
 40
0.4525775928
 40
0.4764709394
 40
0.5000000055
 40
0.5235290713
 40
0.5474224175
 40
0.5720146369
 40
0.5975874926
 40
0.6243565855
 40
0.6524673132
 40
0.6819973526
 40
0.7129629625
 40
0.7453267327
 40
0.779005499
 40
0.8138777002
 40
0.8497900362
 40
0.8865642767
 40
0.9239996728
 40
0.9618883933
 40
1.0
 40
1.0
 40
1.0
 40
1.0
 10
6.6309348414
 20
2.0626008692
 30
0.0
 10
6.6345458029
 20
2.0626008692
 30
0.0
 10
6.6417485191
 20
2.0628181098
 30
0.0
 10
6.6524583006
 20
2.0637931076
 30
0.0
 10
6.6629628762
 20
2.0654081653
 30
0.0
 10
6.673160961
 20
2.067647354
 30
0.0
 10
6.6829555855
 20
2.0704897952
 30
0.0
 10
6.6922531505
 20
2.0739084513
 30
0.0
 10
6.7009651309
 20
2.0778711757
 30
0.0
 10
6.709008626
 20
2.0823408558
 30
0.0
 10
6.7163070656
 20
2.0872760129
 30
0.0
 10
6.7227906974
 20
2.0926313049
 30
0.0
 10
6.7283968752
 20
2.098357994
 30
0.0
 10
6.7330701554
 20
2.1044041925
 30
0.0
 10
6.7367623558
 20
2.1107146936
 30
0.0
 10
6.7394327376
 20
2.1172304036
 30
0.0
 10
6.7410491747
 20
2.1238874078
 30
0.0
 10
6.7415904956
 20
2.1306167679
 30
0.0
 10
6.7410491755
 20
2.137346128
 30
0.0
 10
6.7394327392
 20
2.1440031322
 30
0.0
 10
6.7367623582
 20
2.1505188423
 30
0.0
 10
6.7330701585
 20
2.1568293437
 30
0.0
 10
6.728396879
 20
2.1628755424
 30
0.0
 10
6.7227907019
 20
2.1686022317
 30
0.0
 10
6.7163070707
 20
2.173957524
 30
0.0
 10
6.7090086317
 20
2.1788926815
 30
0.0
 10
6.7009651371
 20
2.1833623619
 30
0.0
 10
6.6922531572
 20
2.1873250867
 30
0.0
 10
6.6829555926
 20
2.1907437432
 30
0.0
 10
6.6731609685
 20
2.1935861848
 30
0.0
 10
6.6629628839
 20
2.195825374
 30
0.0
 10
6.6524583085
 20
2.1974404322
 30
0.0
 10
6.6417485271
 20
2.1984154305
 30
0.0
 10
6.634545811
 20
2.1986326714
 30
0.0
 10
6.6309348495
 20
2.1986326715
 30
0.0
  0
SPLINE
  5
2E2
100
AcDbEntity
  8
0
100
AcDbSpline
 62
7
  6
CONTINUOUS
 70
0
 71
3
 72
39
 73
35
 74
0
 42
0.0000001
 43
0.0000001
 44
0.0000000001
 40
0.0
 40
0.0
 40
0.0
 40
0.0
 40
0.0381116068
 40
0.0760003276
 40
0.1134357241
 40
0.1502099652
 40
0.1861223019
 40
0.2209945039
 40
0.2546732711
 40
0.2870370424
 40
0.3180026533
 40
0.3475326937
 40
0.3756434225
 40
0.4024125163
 40
0.4279853729
 40
0.4525775928
 40
0.4764709394
 40
0.5000000055
 40
0.5235290713
 40
0.5474224175
 40
0.5720146369
 40
0.5975874926
 40
0.6243565855
 40
0.6524673132
 40
0.6819973526
 40
0.7129629625
 40
0.7453267327
 40
0.779005499
 40
0.8138777002
 40
0.8497900362
 40
0.8865642767
 40
0.9239996728
 40
0.9618883933
 40
1.0
 40
1.0
 40
1.0
 40
1.0
 10
6.6309348495
 20
2.1986326715
 30
0.0
 10
6.627323888
 20
2.1986326716
 30
0.0
 10
6.6201211718
 20
2.198415431
 30
0.0
 10
6.6094113902
 20
2.1974404332
 30
0.0
 10
6.5989068147
 20
2.1958253755
 30
0.0
 10
6.5887087299
 20
2.1935861867
 30
0.0
 10
6.5789141053
 20
2.1907437455
 30
0.0
 10
6.5696165404
 20
2.1873250894
 30
0.0
 10
6.56090456
 20
2.1833623651
 30
0.0
 10
6.5528610649
 20
2.178892685
 30
0.0
 10
6.5455626253
 20
2.1739575278
 30
0.0
 10
6.5390789934
 20
2.1686022358
 30
0.0
 10
6.5334728157
 20
2.1628755467
 30
0.0
 10
6.5287995354
 20
2.1568293483
 30
0.0
 10
6.525107335
 20
2.1505188471
 30
0.0
 10
6.5224369533
 20
2.1440031371
 30
0.0
 10
6.5208205162
 20
2.1373461329
 30
0.0
 10
6.5202791953
 20
2.1306167729
 30
0.0
 10
6.5208205154
 20
2.1238874128
 30
0.0
 10
6.5224369517
 20
2.1172304085
 30
0.0
 10
6.5251073327
 20
2.1107146984
 30
0.0
 10
6.5287995323
 20
2.104404197
 30
0.0
 10
6.5334728119
 20
2.0983579984
 30
0.0
 10
6.5390789889
 20
2.0926313091
 30
0.0
 10
6.5455626202
 20
2.0872760167
 30
0.0
 10
6.5528610592
 20
2.0823408593
 30
0.0
 10
6.5609045537
 20
2.0778711788
 30
0.0
 10
6.5696165337
 20
2.0739084541
 30
0.0
 10
6.5789140982
 20
2.0704897975
 30
0.0
 10
6.5887087224
 20
2.0676473559
 30
0.0
 10
6.598906807
 20
2.0654081667
 30
0.0
 10
6.6094113824
 20
2.0637931085
 30
0.0
 10
6.6201211638
 20
2.0628181102
 30
0.0
 10
6.6273238799
 20
2.0626008693
 30
0.0
 10
6.6309348414
 20
2.0626008692
 30
0.0
  0
SPLINE
  5
2E3
100
AcDbEntity
  8
0
100
AcDbSpline
 62
7
  6
CONTINUOUS
 70
0
 71
3
 72
25
 73
21
 74
0
 42
0.0000001
 43
0.0000001
 44
0.0000000001
 40
0.0
 40
0.0
 40
0.0
 40
0.0
 40
0.0762194962
 40
0.151990958
 40
0.2268567193
 40
0.3003994691
 40
0.3722186505
 40
0.4419579837
 40
0.5093106255
 40
0.5740333577
 40
0.6359598421
 40
0.6950153824
 40
0.7512326318
 40
0.8047669609
 40
0.855908973
 40
0.9050897542
 40
0.9291336122
 40
0.9529082794
 40
0.9765002999
 40
1.0
 40
1.0
 40
1.0
 40
1.0
 10
6.6309348454
 20
2.4710044991
 30
0.0
 10
6.6265222054
 20
2.4710044991
 30
0.0
 10
6.6177205276
 20
2.4707390443
 30
0.0
 10
6.6046332564
 20
2.469547563
 30
0.0
 10
6.5917968655
 20
2.4675740009
 30
0.0
 10
6.5793349994
 20
2.4648377087
 30
0.0
 10
6.567366179
 20
2.4613642736
 30
0.0
 10
6.5560047192
 20
2.4571867563
 30
0.0
 10
6.5453588232
 20
2.4523443912
 30
0.0
 10
6.5355298314
 20
2.4468825092
 30
0.0
 10
6.5266113159
 20
2.4408518149
 30
0.0
 10
6.518688486
 20
2.4343076958
 30
0.0
 10
6.5118378647
 20
2.4273098614
 30
0.0
 10
6.5061271064
 20
2.4199212948
 30
0.0
 10
6.5016153948
 20
2.4122108941
 30
0.0
 10
6.498874907
 20
2.4055223274
 30
0.0
 10
6.4973478461
 20
2.4001134184
 30
0.0
 10
6.4965333903
 20
2.3960557401
 30
0.0
 10
6.496043761
 20
2.3919782644
 30
0.0
 10
6.4959349101
 20
2.389250688
 30
0.0
 10
6.4959349101
 20
2.3878901999
 30
0.0
  0
SPLINE
  5
2E4
100
AcDbEntity
  8
0
100
AcDbSpline
 62
7
  6
CONTINUOUS
 70
0
 71
3
 72
25
 73
21
 74
0
 42
0.0000001
 43
0.0000001
 44
0.0000000001
 40
0.0
 40
0.0
 40
0.0
 40
0.0
 40
0.0762194962
 40
0.151990958
 40
0.2268567193
 40
0.3003994691
 40
0.3722186505
 40
0.4419579837
 40
0.5093106255
 40
0.5740333577
 40
0.6359598421
 40
0.6950153824
 40
0.7512326318
 40
0.8047669609
 40
0.855908973
 40
0.9050897542
 40
0.9291336122
 40
0.9529082794
 40
0.9765002999
 40
1.0
 40
1.0
 40
1.0
 40
1.0
 10
6.6309348454
 20
2.2330561378
 30
0.0
 10
6.6353474854
 20
2.2330561378
 30
0.0
 10
6.6441491632
 20
2.232790683
 30
0.0
 10
6.6572364345
 20
2.2315992017
 30
0.0
 10
6.6700728254
 20
2.2296256396
 30
0.0
 10
6.6825346914
 20
2.2268893474
 30
0.0
 10
6.6945035119
 20
2.2234159122
 30
0.0
 10
6.7058649716
 20
2.2192383949
 30
0.0
 10
6.7165108677
 20
2.2143960299
 30
0.0
 10
6.7263398595
 20
2.2089341478
 30
0.0
 10
6.735258375
 20
2.2029034536
 30
0.0
 10
6.7431812048
 20
2.1963593345
 30
0.0
 10
6.7500318261
 20
2.1893615001
 30
0.0
 10
6.7557425844
 20
2.1819729335
 30
0.0
 10
6.7602542961
 20
2.1742625328
 30
0.0
 10
6.7629947839
 20
2.167573966
 30
0.0
 10
6.7645218448
 20
2.1621650571
 30
0.0
 10
6.7653363006
 20
2.1581073788
 30
0.0
 10
6.7658259299
 20
2.1540299031
 30
0.0
 10
6.7659347808
 20
2.1513023267
 30
0.0
 10
6.7659347808
 20
2.1499418386
 30
0.0
  0
SPLINE
  5
2E5
100
AcDbEntity
  8
0
100
AcDbSpline
 62
7
  6
CONTINUOUS
 70
0
 71
3
 72
34
 73
30
 74
0
 42
0.0000001
 43
0.0000001
 44
0.0000000001
 40
0.0
 40
0.0
 40
0.0
 40
0.0
 40
0.0799373623
 40
0.1587595305
 40
0.2354151999
 40
0.2726414887
 40
0.3089845553
 40
0.3443540162
 40
0.3786749889
 40
0.4118905567
 40
0.4439636476
 40
0.4748806534
 40
0.5046540303
 40
0.533324572
 40
0.5609647496
 40
0.5876797699
 40
0.6136077399
 40
0.6389184931
 40
0.6638086442
 40
0.688494472
 40
0.7132023274
 40
0.7381574768
 40
0.7635731375
 40
0.7896410998
 40
0.8165253861
 40
0.8731766359
 40
0.9031690874
 40
0.9343097925
 40
1.0
 40
1.0
 40
1.0
 40
1.0
 10
6.6309348458
 20
2.2091243987
 30
0.0
 10
6.6248586258
 20
2.2091243989
 30
0.0
 10
6.6127831161
 20
2.2085687436
 30
0.0
 10
6.5950375696
 20
2.2060809216
 30
0.0
 10
6.5807703587
 20
2.2026427235
 30
0.0
 10
6.5699108784
 20
2.1990971829
 30
0.0
 10
6.5621873755
 20
2.1960985645
 30
0.0
 10
6.5548501628
 20
2.1927516435
 30
0.0
 10
6.5479401748
 20
2.1890748958
 30
0.0
 10
6.5414961027
 20
2.1850888509
 30
0.0
 10
6.5355542185
 20
2.1808152329
 30
0.0
 10
6.5301479065
 20
2.1762775782
 30
0.0
 10
6.5253076446
 20
2.1715007653
 30
0.0
 10
6.5210613029
 20
2.1665106108
 30
0.0
 10
6.5174333996
 20
2.1613345017
 30
0.0
 10
6.5144455029
 20
2.1560008546
 30
0.0
 10
6.512116324
 20
2.1505392372
 30
0.0
 10
6.5104605621
 20
2.1449808557
 30
0.0
 10
6.5094894223
 20
2.1393580556
 30
0.0
 10
6.5092098913
 20
2.1337043863
 30
0.0
 10
6.5096235923
 20
2.1280540463
 30
0.0
 10
6.5107278469
 20
2.1224410875
 30
0.0
 10
6.5125149669
 20
2.116899045
 30
0.0
 10
6.5149731231
 20
2.1114595232
 30
0.0
 10
6.5191957955
 20
2.1042629212
 30
0.0
 10
6.5246732342
 20
2.0975184309
 30
0.0
 10
6.5311507586
 20
2.0913289148
 30
0.0
 10
6.5386328023
 20
2.0852365685
 30
0.0
 10
6.5448508615
 20
2.0812409616
 30
0.0
 10
6.549209937
 20
2.0788055723
 30
0.0
  0
SPLINE
  5
2E6
100
AcDbEntity
  8
0
100
AcDbSpline
 62
7
  6
CONTINUOUS
 70
0
 71
3
 72
36
 73
32
 74
0
 42
0.0000001
 43
0.0000001
 44
0.0000000001
 40
0.0
 40
0.0
 40
0.0
 40
0.0
 40
0.0797124968
 40
0.1582548146
 40
0.2345262176
 40
0.2715099177
 40
0.3075717453
 40
0.3426199595
 40
0.3765796754
 40
0.4093961437
 40
0.441037075
 40
0.4714957693
 40
0.5007949521
 40
0.5289890367
 40
0.5561667018
 40
0.5824527464
 40
0.6080069353
 40
0.6330210263
 40
0.657712697
 40
0.6823158138
 40
0.7070688513
 40
0.7322024764
 40
0.7579284762
 40
0.7844309567
 40
0.8118606416
 40
0.8403329958
 40
0.8699278691
 40
0.9006909617
 40
0.9326371622
 40
0.9657530608
 40
1.0
 40
1.0
 40
1.0
 40
1.0
 10
6.6309348458
 20
2.2214400274
 30
0.0
 10
6.637618737
 20
2.2214400272
 30
0.0
 10
6.6508974889
 20
2.2208132054
 30
0.0
 10
6.6703902076
 20
2.2180075686
 30
0.0
 10
6.6860316149
 20
2.2141310593
 30
0.0
 10
6.6979029661
 20
2.2101354684
 30
0.0
 10
6.706320411
 20
2.2067602268
 30
0.0
 10
6.7142920338
 20
2.2029961325
 30
0.0
 10
6.7217709475
 20
2.1988648396
 30
0.0
 10
6.7287130642
 20
2.1943905908
 30
0.0
 10
6.7350773692
 20
2.1895992107
 30
0.0
 10
6.740825979
 20
2.1845181298
 30
0.0
 10
6.7459247195
 20
2.1791766883
 30
0.0
 10
6.7503427074
 20
2.1736054082
 30
0.0
 10
6.754052442
 20
2.1678361733
 30
0.0
 10
6.7570305008
 20
2.161902626
 30
0.0
 10
6.7592570203
 20
2.1558397541
 30
0.0
 10
6.7607162772
 20
2.1496842741
 30
0.0
 10
6.7613979697
 20
2.1434746043
 30
0.0
 10
6.7612968512
 20
2.1372501425
 30
0.0
 10
6.760413502
 20
2.1310507343
 30
0.0
 10
6.7587548412
 20
2.1249155687
 30
0.0
 10
6.7563326405
 20
2.1188826039
 30
0.0
 10
6.753163453
 20
2.1129882495
 30
0.0
 10
6.7492683746
 20
2.1072670007
 30
0.0
 10
6.7446718676
 20
2.1017520167
 30
0.0
 10
6.7394021081
 20
2.0964750128
 30
0.0
 10
6.7334910675
 20
2.0914660302
 30
0.0
 10
6.726973758
 20
2.0867538854
 30
0.0
 10
6.719889122
 20
2.0823660214
 30
0.0
 10
6.714895713
 20
2.0797161203
 30
0.0
 10
6.7123189187
 20
2.0784487422
 30
0.0
  0
SPLINE
  5
2E7
100
AcDbEntity
  8
0
100
AcDbSpline
 62
7
  6
CONTINUOUS
 70
0
 71
3
 72
11
 73
7
 74
0
 42
0.0000001
 43
0.0000001
 44
0.0000000001
 40
0.0
 40
0.0
 40
0.0
 40
0.0
 40
0.2568216324
 40
0.5087166425
 40
0.7563574385
 40
1.0
 40
1.0
 40
1.0
 40
1.0
 10
6.4959240863
 20
3.1306772463
 30
0.0
 10
6.491204225
 20
3.1222734551
 30
0.0
 10
6.4828468644
 20
3.1050519308
 30
0.0
 10
6.4732933511
 20
3.0782696256
 30
0.0
 10
6.4666339057
 20
3.0511386212
 30
0.0
 10
6.4640354334
 20
3.0328477662
 30
0.0
 10
6.4632176355
 20
3.0237405142
 30
0.0
  0
SPLINE
  5
2E8
100
AcDbEntity
  8
0
100
AcDbSpline
 62
7
  6
CONTINUOUS
 70
0
 71
3
 72
11
 73
7
 74
0
 42
0.0000001
 43
0.0000001
 44
0.0000000001
 40
0.0
 40
0.0
 40
0.0
 40
0.0
 40
0.2568216398
 40
0.5087166477
 40
0.7563574412
 40
1.0
 40
1.0
 40
1.0
 40
1.0
 10
6.7659455854
 20
3.1306772817
 30
0.0
 10
6.7706654502
 20
3.1222734882
 30
0.0
 10
6.7790228144
 20
3.1050519578
 30
0.0
 10
6.7885763347
 20
3.0782696443
 30
0.0
 10
6.7952357835
 20
3.0511386306
 30
0.0
 10
6.7978342574
 20
3.0328477694
 30
0.0
 10
6.7986520554
 20
3.0237405142
 30
0.0
  0
SPLINE
  5
2E9
100
AcDbEntity
  8
0
100
AcDbSpline
 62
7
  6
CONTINUOUS
 70
0
 71
3
 72
13
 73
9
 74
0
 42
0.0000001
 43
0.0000001
 44
0.0000000001
 40
0.0
 40
0.0
 40
0.0
 40
0.0
 40
0.1085694649
 40
0.2242118351
 40
0.3455583202
 40
0.4714328379
 40
0.7325199107
 40
1.0
 40
1.0
 40
1.0
 40
1.0
 10
6.7986520554
 20
3.0237405142
 30
0.0
 10
6.7987416199
 20
3.0227430486
 30
0.0
 10
6.7988952718
 20
3.0206802949
 30
0.0
 10
6.7990652691
 20
3.017497153
 30
0.0
 10
6.7991922002
 20
3.0141522919
 30
0.0
 10
6.7993168408
 20
3.0094650877
 30
0.0
 10
6.799400937
 20
3.0034286985
 30
0.0
 10
6.799420563
 20
2.9985530176
 30
0.0
 10
6.7994205669
 20
2.9960856977
 30
0.0
  0
LINE
  5
2EA
100
AcDbEntity
  8
0
100
AcDbLine
 62
7
  6
CONTINUOUS
 10
6.7993882886
 20
2.7803666952
 11
6.7994205669
 21
2.7800832501
  0
LINE
  5
2EB
100
AcDbEntity
  8
0
100
AcDbLine
 62
7
  6
CONTINUOUS
 10
6.462449124
 20
2.7800832501
 11
6.4624814023
 21
2.780366695
  0
SPLINE
  5
2EC
100
AcDbEntity
  8
0
100
AcDbSpline
 62
7
  6
CONTINUOUS
 70
0
 71
3
 72
13
 73
9
 74
0
 42
0.0000001
 43
0.0000001
 44
0.0000000001
 40
0.0
 40
0.0
 40
0.0
 40
0.0
 40
0.1085694418
 40
0.2242118951
 40
0.3455583996
 40
0.4714328437
 40
0.7325199685
 40
1.0
 40
1.0
 40
1.0
 40
1.0
 10
6.4632176355
 20
3.0237405142
 30
0.0
 10
6.4631280705
 20
3.0227430488
 30
0.0
 10
6.4629744188
 20
3.0206802946
 30
0.0
 10
6.4628044221
 20
3.0174971519
 30
0.0
 10
6.4626774911
 20
3.0141522905
 30
0.0
 10
6.4625528494
 20
3.0094650864
 30
0.0
 10
6.4624687546
 20
3.0034286979
 30
0.0
 10
6.4624491285
 20
2.998553017
 30
0.0
 10
6.462449124
 20
2.9960856977
 30
0.0
  0
SPLINE
  5
2ED
100
AcDbEntity
  8
0
100
AcDbSpline
 62
7
  6
CONTINUOUS
 70
0
 71
3
 72
20
 73
16
 74
0
 42
0.0000001
 43
0.0000001
 44
0.0000000001
 40
0.0
 40
0.0
 40
0.0
 40
0.0
 40
0.0117168109
 40
0.0289484838
 40
0.0524108765
 40
0.0809723059
 40
0.1465991385
 40
0.215718817
 40
0.2848442004
 40
0.353211128
 40
0.4873269093
 40
0.6184866742
 40
0.7473455931
 40
0.8743981659
 40
1.0
 40
1.0
 40
1.0
 40
1.0
 10
6.4649926364
 20
2.3643157287
 30
0.0
 10
6.4649818929
 20
2.3643033679
 30
0.0
 10
6.4649613993
 20
2.3642678533
 30
0.0
 10
6.464935988
 20
2.3641990672
 30
0.0
 10
6.4649124204
 20
2.3641050092
 30
0.0
 10
6.4648820413
 20
2.3639433591
 30
0.0
 10
6.4648547526
 20
2.3637165315
 30
0.0
 10
6.4648310512
 20
2.3634325582
 30
0.0
 10
6.4648138114
 20
2.3631442519
 30
0.0
 10
6.4647968449
 20
2.3627649831
 30
0.0
 10
6.4647833916
 20
2.3622987989
 30
0.0
 10
6.4647743959
 20
2.3617479609
 30
0.0
 10
6.4647702261
 20
2.3612069393
 30
0.0
 10
6.464769488
 20
2.3606736738
 30
0.0
 10
6.4647707207
 20
2.3603205247
 30
0.0
 10
6.4647716847
 20
2.3601449663
 30
0.0
  0
SPLINE
  5
2EE
100
AcDbEntity
  8
0
100
AcDbSpline
 62
7
  6
CONTINUOUS
 70
0
 71
3
 72
15
 73
11
 74
0
 42
0.0000001
 43
0.0000001
 44
0.0000000001
 40
0.0
 40
0.0
 40
0.0
 40
0.0
 40
0.0823259301
 40
0.1759177858
 40
0.281590116
 40
0.3998134162
 40
0.5308097342
 40
0.6746001546
 40
0.8310719285
 40
1.0
 40
1.0
 40
1.0
 40
1.0
 10
6.4649926364
 20
2.3643157287
 30
0.0
 10
6.4656182467
 20
2.3650355586
 30
0.0
 10
6.467084727
 20
2.3664622247
 30
0.0
 10
6.4696849777
 20
2.3684407653
 30
0.0
 10
6.4728128743
 20
2.3703840988
 30
0.0
 10
6.476460517
 20
2.3722871352
 30
0.0
 10
6.4806196243
 20
2.3741447782
 30
0.0
 10
6.4852793657
 20
2.3759512125
 30
0.0
 10
6.4904269567
 20
2.3777003003
 30
0.0
 10
6.4940384178
 20
2.3787834824
 30
0.0
 10
6.4959211652
 20
2.37931721
 30
0.0
  0
SPLINE
  5
2EF
100
AcDbEntity
  8
0
100
AcDbSpline
 62
7
  6
CONTINUOUS
 70
0
 71
3
 72
15
 73
11
 74
0
 42
0.0000001
 43
0.0000001
 44
0.0000000001
 40
0.0
 40
0.0
 40
0.0
 40
0.0
 40
0.168928064
 40
0.325399825
 40
0.4691902244
 40
0.6001865184
 40
0.7184098049
 40
0.8240821001
 40
0.9176738808
 40
1.0
 40
1.0
 40
1.0
 40
1.0
 10
6.7659485214
 20
2.3793172112
 30
0.0
 10
6.7678312696
 20
2.3787834835
 30
0.0
 10
6.7714427323
 20
2.3777003009
 30
0.0
 10
6.7765903254
 20
2.3759512123
 30
0.0
 10
6.7812500686
 20
2.3741447776
 30
0.0
 10
6.7854091774
 20
2.3722871339
 30
0.0
 10
6.7890568206
 20
2.3703840958
 30
0.0
 10
6.7921847169
 20
2.3684407614
 30
0.0
 10
6.7947849719
 20
2.3664622222
 30
0.0
 10
6.7962514514
 20
2.365035551
 30
0.0
 10
6.7968770591
 20
2.3643157154
 30
0.0
  0
ELLIPSE
  5
2F0
100
AcDbEntity
  8
0
100
AcDbEllipse
 62
7
  6
CONTINUOUS
 10
3.1681825841
 20
5.1274204099
 30
0.0
 11
0.3749246542
 21
0.1691937401
 31
0.0
 40
0.0549449437
 41
-2.1674769265
 42
-2.1197029544
  0
ELLIPSE
  5
2F1
100
AcDbEntity
  8
0
100
AcDbEllipse
 62
7
  6
CONTINUOUS
 10
2.9139892032
 20
5.1663174631
 30
0.0
 11
-0.2308483399
 21
0.1533507792
 31
0.0
 40
0.7641869673
 41
1.1791245969
 42
1.226898569
  0
ELLIPSE
  5
2F2
100
AcDbEntity
  8
0
100
AcDbEllipse
 62
7
  6
CONTINUOUS
 10
2.8478802382
 20
5.1764335563
 30
0.0
 11
-0.2383801614
 21
0.2168205982
 31
0.0
 40
0.5099348041
 41
1.5493177388
 42
1.5970917109
  0
ELLIPSE
  5
2F3
100
AcDbEntity
  8
0
100
AcDbEllipse
 62
7
  6
CONTINUOUS
 10
2.9835002825
 20
5.1556807733
 30
0.0
 11
0.2661429342
 21
0.0773004274
 31
0.0
 40
0.7641869673
 41
-1.226898569
 42
-1.1791245969
  0
ELLIPSE
  5
2F4
100
AcDbEntity
  8
0
100
AcDbEllipse
 62
7
  6
CONTINUOUS
 10
2.7916445937
 20
5.1850388192
 30
0.0
 11
0.2674336396
 21
-0.2466177306
 31
0.0
 40
0.3175215947
 41
-1.3776904542
 42
-1.3299164821
  0
ELLIPSE
  5
2F5
100
AcDbEntity
  8
0
100
AcDbEllipse
 62
7
  6
CONTINUOUS
 10
2.9267254801
 20
5.0171025918
 30
0.0
 11
0.1633751911
 21
0.0598422315
 31
0.0
 40
0.365809989
 41
2.0950693363
 42
2.1173952585
  0
ELLIPSE
  5
2F6
100
AcDbEntity
  8
0
100
AcDbEllipse
 62
7
  6
CONTINUOUS
 10
2.7507870064
 20
5.1912909086
 30
0.0
 11
0.2928651842
 21
-0.2647453016
 31
0.0
 40
0.1730990572
 41
-1.1940495874
 42
-1.1462756153
  0
ELLIPSE
  5
2F7
100
AcDbEntity
  8
0
100
AcDbEllipse
 62
7
  6
CONTINUOUS
 10
2.9267254801
 20
5.0171025918
 30
0.0
 11
0.1667257209
 21
0.0705973697
 31
0.0
 40
0.2168892597
 41
1.7842187962
 42
1.8689301166
  0
ELLIPSE
  5
2F8
100
AcDbEntity
  8
0
100
AcDbEllipse
 62
7
  6
CONTINUOUS
 10
2.7293069016
 20
5.1945778265
 30
0.0
 11
0.3071723952
 21
-0.2735692558
 31
0.0
 40
0.0549449437
 41
-1.0218896992
 42
-0.9741157271
  0
ELLIPSE
  5
2F9
100
AcDbEntity
  8
0
100
AcDbEllipse
 62
7
  6
CONTINUOUS
 10
3.0496092475
 20
5.1455646801
 30
0.0
 11
0.292310167
 21
0.1356135665
 31
0.0
 40
0.5099348041
 41
-1.5970917109
 42
-1.5493177388
  0
ELLIPSE
  5
2FA
100
AcDbEntity
  8
0
100
AcDbEllipse
 62
7
  6
CONTINUOUS
 10
2.9267254801
 20
5.0171025918
 30
0.0
 11
0.1686872999
 21
0.0754476739
 31
0.0
 40
0.0717446904
 41
1.5567623972
 42
1.6414737176
  0
ELLIPSE
  5
2FB
100
AcDbEntity
  8
0
100
AcDbEllipse
 62
7
  6
CONTINUOUS
 10
2.9267254801
 20
5.0171025918
 30
0.0
 11
0.1384062923
 21
-0.1224395969
 31
0.0
 40
0.0717446904
 41
1.5001189359
 42
1.5848302564
  0
ELLIPSE
  5
2FC
100
AcDbEntity
  8
0
100
AcDbEllipse
 62
7
  6
CONTINUOUS
 10
2.9267254801
 20
5.0171025918
 30
0.0
 11
0.1379849133
 21
-0.1172246489
 31
0.0
 40
0.2168892597
 41
1.272662537
 42
1.3573738574
  0
ELLIPSE
  5
2FD
100
AcDbEntity
  8
0
100
AcDbEllipse
 62
7
  6
CONTINUOUS
 10
3.1467024793
 20
5.1307073279
 30
0.0
 11
0.3586334144
 21
0.1650520069
 31
0.0
 40
0.1730990572
 41
-1.9953170383
 42
-1.9475430662
  0
ELLIPSE
  5
2FE
100
AcDbEntity
  8
0
100
AcDbEllipse
 62
7
  6
CONTINUOUS
 10
2.9267254801
 20
5.0171025918
 30
0.0
 11
0.1380039277
 21
-0.1059597172
 31
0.0
 40
0.365809989
 41
1.024197395
 42
1.0465233173
  0
ELLIPSE
  5
2FF
100
AcDbEntity
  8
0
100
AcDbEllipse
 62
7
  6
CONTINUOUS
 10
3.105844892
 20
5.1369594173
 30
0.0
 11
0.3289447256
 21
0.1553590168
 31
0.0
 40
0.3175215947
 41
-1.8116761715
 42
-1.7639021994
  0
ELLIPSE
  5
300
100
AcDbEntity
  8
0
100
AcDbEllipse
 62
7
  6
CONTINUOUS
 10
2.9296066937
 20
5.035931407
 30
0.0
 11
0.0135600723
 21
0.0060649256
 31
0.0
 40
0.0717446904
 41
8.8969548347
 42
10.1743633799
  0
ELLIPSE
  5
301
100
AcDbEntity
  8
0
100
AcDbEllipse
 62
7
  6
CONTINUOUS
 10
2.8721799486
 20
5.0447189339
 30
0.0
 11
0.0134023891
 21
0.0056750297
 31
0.0
 40
0.2168892597
 41
9.1244112336
 42
10.4018197789
  0
ELLIPSE
  5
302
100
AcDbEntity
  8
0
100
AcDbEllipse
 62
7
  6
CONTINUOUS
 10
2.8203745335
 20
5.0526462763
 30
0.0
 11
0.0131330539
 21
0.0048104688
 31
0.0
 40
0.365809989
 41
3.0896910684
 42
4.2837888427
  0
ELLIPSE
  5
303
100
AcDbEntity
  8
0
100
AcDbEllipse
 62
7
  6
CONTINUOUS
 10
2.9870334387
 20
5.0271438802
 30
0.0
 11
0.0110920348
 21
-0.0094232033
 31
0.0
 40
0.2168892597
 41
-0.9770418181
 42
0.3003667271
  0
ELLIPSE
  5
304
100
AcDbEntity
  8
0
100
AcDbEllipse
 62
7
  6
CONTINUOUS
 10
2.9296066937
 20
5.035931407
 30
0.0
 11
0.0111259077
 21
-0.0098424113
 31
0.0
 40
0.0717446904
 41
-0.7495854192
 42
0.5278231261
  0
ELLIPSE
  5
305
100
AcDbEntity
  8
0
100
AcDbEllipse
 62
7
  6
CONTINUOUS
 10
3.0388388539
 20
5.0192165377
 30
0.0
 11
0.0110935633
 21
-0.0085176622
 31
0.0
 40
0.365809989
 41
-1.1421961891
 42
0.0519015852
  0
ELLIPSE
  5
306
100
AcDbEntity
  8
0
100
AcDbEllipse
 62
7
  6
CONTINUOUS
 10
2.9835002825
 20
5.1556807733
 30
0.0
 11
0.2661429342
 21
0.0773004274
 31
0.0
 40
0.7641869673
 41
-3.0540160801
 42
-3.006242108
  0
ELLIPSE
  5
307
100
AcDbEntity
  8
0
100
AcDbEllipse
 62
7
  6
CONTINUOUS
 10
3.0496092475
 20
5.1455646801
 30
0.0
 11
0.292310167
 21
0.1356135665
 31
0.0
 40
0.5099348041
 41
2.8589760851
 42
2.9067500572
  0
ELLIPSE
  5
308
100
AcDbEntity
  8
0
100
AcDbEllipse
 62
7
  6
CONTINUOUS
 10
3.105844892
 20
5.1369594173
 30
0.0
 11
0.3289447256
 21
0.1553590168
 31
0.0
 40
0.3175215947
 41
2.6443916245
 42
2.6921655966
  0
ELLIPSE
  5
309
100
AcDbEntity
  8
0
100
AcDbEllipse
 62
7
  6
CONTINUOUS
 10
2.9139892032
 20
5.1663174631
 30
0.0
 11
-0.2308483399
 21
0.1533507792
 31
0.0
 40
0.7641869673
 41
-3.2769431992
 42
-3.2291692271
  0
ELLIPSE
  5
30A
100
AcDbEntity
  8
0
100
AcDbEllipse
 62
7
  6
CONTINUOUS
 10
3.1467024793
 20
5.1307073279
 30
0.0
 11
0.3586334144
 21
0.1650520069
 31
0.0
 40
0.1730990572
 41
2.4607507577
 42
2.5085247298
  0
ELLIPSE
  5
30B
100
AcDbEntity
  8
0
100
AcDbEllipse
 62
7
  6
CONTINUOUS
 10
3.1681825841
 20
5.1274204099
 30
0.0
 11
0.3749246542
 21
0.1691937401
 31
0.0
 40
0.0549449437
 41
2.2885908696
 42
2.3363648417
  0
ELLIPSE
  5
30C
100
AcDbEntity
  8
0
100
AcDbEllipse
 62
7
  6
CONTINUOUS
 10
2.7293069016
 20
5.1945778265
 30
0.0
 11
0.3071723952
 21
-0.2735692558
 31
0.0
 40
0.0549449437
 41
0.8052278119
 42
0.853001784
  0
ELLIPSE
  5
30D
100
AcDbEntity
  8
0
100
AcDbEllipse
 62
7
  6
CONTINUOUS
 10
2.7507870064
 20
5.1912909086
 30
0.0
 11
0.2928651842
 21
-0.2647453016
 31
0.0
 40
0.1730990572
 41
0.6330679237
 42
0.6808418958
  0
ELLIPSE
  5
30E
100
AcDbEntity
  8
0
100
AcDbEllipse
 62
7
  6
CONTINUOUS
 10
2.8478802382
 20
5.1764335563
 30
0.0
 11
-0.2383801614
 21
0.2168205982
 31
0.0
 40
0.5099348041
 41
-2.9067500572
 42
-2.8589760851
  0
ELLIPSE
  5
30F
100
AcDbEntity
  8
0
100
AcDbEllipse
 62
7
  6
CONTINUOUS
 10
2.7916445937
 20
5.1850388192
 30
0.0
 11
0.2674336396
 21
-0.2466177306
 31
0.0
 40
0.3175215947
 41
0.449427057
 42
0.4972010291
  0
ENDSEC
  0
SECTION
  2
OBJECTS
  0
DICTIONARY
  5
C
100
AcDbDictionary
280
0
281
1
  3
ACAD_GROUP
350
D
  3
ACAD_MLINESTYLE
350
17
  3
ACAD_LAYOUT
350
1A
  3
ACAD_PLOTSETTINGS
350
19
  3
ACAD_PLOTSTYLENAME
350
E
  0
DICTIONARY
  5
D
102
{ACAD_REACTORS
330
C
102
}
100
AcDbDictionary
280
0
281
1
  0
ACDBDICTIONARYWDFLT
  5
E
102
{ACAD_REACTORS
330
C
102
}
100
AcDbDictionary
281
1
  3
Normal
350
F
100
AcDbDictionaryWithDefault
340
F
  0
DICTIONARY
  5
17
102
{ACAD_REACTORS
330
C
102
}
100
AcDbDictionary
280
0
281
1
  3
Standard
350
18
  0
DICTIONARY
  5
19
102
{ACAD_REACTORS
330
C
102
}
100
AcDbDictionary
281
1
  0
DICTIONARY
  5
1A
102
{ACAD_REACTORS
330
C
102
}
100
AcDbDictionary
281
1
  3
Model
350
310
  3
Layout1
350
311
  0
ACDBPLACEHOLDER
  5
F
102
{ACAD_REACTORS
330
E
102
}
  0
MLINESTYLE
  5
18
102
{ACAD_REACTORS
330
17
102
}
100
AcDbMlineStyle
  2
STANDARD
 70
0
  3

 62
256
 51
90.0
 52
90.0
 71
2
 49
0.5
 62
256
  6
BYLAYER
 49
-0.5
 62
256
  6
BYLAYER
  0
LAYOUT
  5
310
102
{ACAD_REACTORS
330
1A
102
}
100
AcDbPlotSettings
  1

  2
none_device
  4
ANSI_A_(11.00_x_8.50_Inches)
  6

 40
0.0
 41
0.0
 42
0.0
 43
0.0
 44
279.4
 45
215.9
 46
0.0
 47
0.0
 48
0.0
 49
0.0
140
0.0
141
0.0
142
1.0
143
1.0
 70
1024
 72
0
 73
0
 74
0
  7

 75
0
147
1.0
148
0.0
149
0.0
100
AcDbLayout
  1
Model
 70
0
 71
0
 10
0.0
 20
0.0
 11
11.0
 21
8.5
 12
0.0
 22
0.0
 32
0.0
 14
0.0
 24
0.0
 34
0.0
 15
0.0
 25
0.0
 35
0.0
146
0.0
 13
0.0
 23
0.0
 33
0.0
 16
1.0
 26
0.0
 36
0.0
 17
0.0
 27
1.0
 37
0.0
 76
0
330
202
345
0
346
0
  0
LAYOUT
  5
311
102
{ACAD_REACTORS
330
1A
102
}
100
AcDbPlotSettings
  1

  2
none_device
  4
ANSI_A_(11.00_x_8.50_Inches)
  6

 40
0.0
 41
0.0
 42
0.0
 43
0.0
 44
279.4
 45
215.9
 46
0.0
 47
0.0
 48
0.0
 49
0.0
140
0.0
141
0.0
142
1.0
143
1.0
 70
0
 72
0
 73
0
 74
0
  7

 75
0
147
1.0
148
0.0
149
0.0
100
AcDbLayout
  1
Layout1
 70
0
 71
1
 10
0.0
 20
0.0
 11
11.0
 21
8.5
 12
0.0
 22
0.0
 32
0.0
 14
0.0
 24
0.0
 34
0.0
 15
0.0
 25
0.0
 35
0.0
146
0.0
 13
0.0
 23
0.0
 33
0.0
 16
1.0
 26
0.0
 36
0.0
 17
0.0
 27
1.0
 37
0.0
 76
0
330
203
345
0
346
0
  0
ENDSEC
  0
EOF
