999
DXF file: E:\BT Custom\CADOUTPUT\_RIGHT.dxf
999
Pro/ENGINEER 2018400 by Parametric Technology Corporation
  0
SECTION
  2
HEADER
  9
$ACADVER
  1
AC1018
  9
$DWGCODEPAGE
  3
ANSI_1252
  9
$EXTMAX
 10
22.0
 20
17.0
 30
0.0
  9
$EXTMIN
 10
0.0
 20
0.0
 30
0.0
  9
$LIMMIN
 10
0.0
 20
0.0
  9
$LIMMAX
 10
22.0
 20
17.0
  9
$VIEWCTR
 10
11.0
 20
8.5
  9
$VIEWSIZE
 40
17.0
  9
$CLAYER
  8
0
  9
$LTSCALE
 40
1.21
  9
$CELTYPE
  6
BYLAYER
  9
$DIMSCALE
 40
1.0
  9
$DIMASZ
 40
0.1
  9
$DIMEXO
 40
0.0625
  9
$DIMDLI
 40
0.836
  9
$DIMEXE
 40
0.125
  9
$DIMCEN
 40
0.198
  9
$DIMLFAC
 40
1.0
  9
$DIMBLK
  1
_FILLED
  9
$DIMALT
 70
1
  9
$DIMALTD
 70
2
  9
$DIMALTTD
 70
2
  9
$DIMALTF
 40
25.4
  9
$DIMTXT
 40
0.08
  9
$DIMTOL
 70
1
  9
$DIMLIM
 70
0
  9
$DIMTFAC
 40
1.0
  9
$DIMTP
 40
0.001
  9
$DIMTM
 40
0.001
  9
$DIMGAP
 40
0.09
  9
$DIMDSEP
 70
46
  9
$AUNITS
 70
0
  9
$PDMODE
 70
3
  9
$PDSIZE
 40
0.06
  9
$HANDSEED
  5
2E7
  9
$TILEMODE
 70
1
  9
$MEASUREMENT
 70
0
  9
$INSUNITS
 70
1
  0
ENDSEC
  0
SECTION
  2
CLASSES
  0
CLASS
  1
ACDBDICTIONARYWDFLT
  2
AcDbDictionaryWithDefault
  3
AutoCAD 2000
 90
0
 91
1
280
0
281
0
  0
CLASS
  1
ACDBPLACEHOLDER
  2
AcDbPlaceHolder
  3
AutoCAD 2000
 90
0
 91
1
280
0
281
0
  0
CLASS
  1
LAYOUT
  2
AcDbLayout
  3
AutoCAD 2000
 90
0
 91
0
280
0
281
0
  0
ENDSEC
  0
SECTION
  2
TABLES
  0
TABLE
  2
VPORT
  5
8
100
AcDbSymbolTable
 70
2
  0
VPORT
  5
1F4
100
AcDbSymbolTableRecord
100
AcDbViewportTableRecord
  2
*ACTIVE
 70
0
 10
0.0
 20
0.0
 11
1.0
 21
1.0
 12
11.0
 22
8.5
 13
0.0
 23
0.0
 14
1.0
 24
1.0
 15
0.0
 25
0.0
 16
0.0
 26
0.0
 36
1.0
 17
0.0
 27
0.0
 37
0.0
 40
17.0
 41
1.2941176471
 42
50.0
 43
0.0
 44
0.0
 50
0.0
 51
0.0
 71
0
 72
100
 73
1
 74
1
 75
0
 76
0
 77
0
 78
0
  0
ENDTAB
  0
TABLE
  2
LTYPE
  5
5
100
AcDbSymbolTable
 70
6
  0
LTYPE
  5
14
100
AcDbSymbolTableRecord
100
AcDbLinetypeTableRecord
  2
BYBLOCK
 70
0
  3

 72
65
 73
0
 40
0.0
  0
LTYPE
  5
15
100
AcDbSymbolTableRecord
100
AcDbLinetypeTableRecord
  2
BYLAYER
 70
0
  3

 72
65
 73
0
 40
0.0
  0
LTYPE
  5
16
100
AcDbSymbolTableRecord
100
AcDbLinetypeTableRecord
  2
CONTINUOUS
 70
64
  3
Solid line
 72
65
 73
0
 40
0.0
  0
LTYPE
  5
1F5
100
AcDbSymbolTableRecord
100
AcDbLinetypeTableRecord
  2
CENTER
 70
64
  3
____ _ ____ _ ____ _ ____ _ ____ _ ____ _ ____
 72
65
 73
4
 40
0.6
 49
0.375
 74
0
 49
-0.075
 74
0
 49
0.075
 74
0
 49
-0.075
 74
0
  0
LTYPE
  5
1F6
100
AcDbSymbolTableRecord
100
AcDbLinetypeTableRecord
  2
HIDDEN
 70
64
  3
- - - - - - - - - - - - - - - - - - - -
 72
65
 73
2
 40
0.2
 49
0.1
 74
0
 49
-0.1
 74
0
  0
LTYPE
  5
1F7
100
AcDbSymbolTableRecord
100
AcDbLinetypeTableRecord
  2
PHANTOM
 70
64
  3
_____ _ _ _____ _ _ _____ _ _ _____
 72
65
 73
6
 40
0.8
 49
0.45
 74
0
 49
-0.05
 74
0
 49
0.1
 74
0
 49
-0.05
 74
0
 49
0.1
 74
0
 49
-0.05
 74
0
  0
LTYPE
  5
1F8
100
AcDbSymbolTableRecord
100
AcDbLinetypeTableRecord
  2
DOT
 70
64
  3
. . . . . . . . . . . . . . . . . . . .
 72
65
 73
2
 40
0.2
 49
0.1
 74
0
 49
-0.1
 74
0
  0
LTYPE
  5
1F9
100
AcDbSymbolTableRecord
100
AcDbLinetypeTableRecord
  2
DASHED
 70
64
  3
- - - - - - - - - - - - - - - - - - - -
 72
65
 73
2
 40
0.2
 49
0.1
 74
0
 49
-0.1
 74
0
  0
ENDTAB
  0
TABLE
  2
LAYER
  5
2
100
AcDbSymbolTable
 70
36
  0
LAYER
  5
10
100
AcDbSymbolTableRecord
100
AcDbLayerTableRecord
  2
0
 70
0
 62
7
  6
CONTINUOUS
370
-3
390
F
  0
LAYER
  5
1FA
100
AcDbSymbolTableRecord
100
AcDbLayerTableRecord
  2
DEFAULT_1
 70
0
 62
7
  6
CENTER
370
-3
390
F
  0
LAYER
  5
1FB
100
AcDbSymbolTableRecord
100
AcDbLayerTableRecord
  2
DEFAULT_2
 70
0
 62
8
  6
HIDDEN
370
-3
390
F
  0
LAYER
  5
1FC
100
AcDbSymbolTableRecord
100
AcDbLayerTableRecord
  2
DEFAULT_3
 70
0
 62
7
  6
PHANTOM
370
-3
390
F
  0
LAYER
  5
1FD
100
AcDbSymbolTableRecord
100
AcDbLayerTableRecord
  2
ALL_FEATURES
 70
0
 62
7
  6
CONTINUOUS
370
-3
390
F
  0
LAYER
  5
1FE
100
AcDbSymbolTableRecord
100
AcDbLayerTableRecord
  2
AXES_FEATURES
 70
0
 62
7
  6
CONTINUOUS
370
-3
390
F
  0
LAYER
  5
1FF
100
AcDbSymbolTableRecord
100
AcDbLayerTableRecord
  2
DIMENSIONS
 70
0
 62
7
  6
CONTINUOUS
370
-3
390
F
  0
ENDTAB
  0
TABLE
  2
STYLE
  5
3
100
AcDbSymbolTable
 70
1
  0
STYLE
  5
11
100
AcDbSymbolTableRecord
100
AcDbTextStyleTableRecord
  2
STANDARD
 70
0
 40
0.0
 41
0.8
 50
0.0
 71
0
 42
0.2
  3
txt
  4

  0
STYLE
  5
200
100
AcDbSymbolTableRecord
100
AcDbTextStyleTableRecord
  2
TEXTSTYLE_1
 70
0
 40
0.0
 41
0.8
 50
0.0
 71
0
 42
0.2
  3
gdt
  4

  0
ENDTAB
  0
TABLE
  2
VIEW
  5
6
100
AcDbSymbolTable
 70
0
  0
ENDTAB
  0
TABLE
  2
UCS
  5
7
100
AcDbSymbolTable
 70
0
  0
ENDTAB
  0
TABLE
  2
APPID
  5
9
100
AcDbSymbolTable
 70
1
  0
APPID
  5
201
100
AcDbSymbolTableRecord
100
AcDbRegAppTableRecord
  2
ACAD
 70
0
  0
ENDTAB
  0
TABLE
  2
BLOCK_RECORD
  5
1
100
AcDbSymbolTable
 70
0
  0
BLOCK_RECORD
  5
202
100
AcDbSymbolTableRecord
100
AcDbBlockTableRecord
  2
*Model_Space
  0
BLOCK_RECORD
  5
203
100
AcDbSymbolTableRecord
100
AcDbBlockTableRecord
  2
*Paper_Space
  0
BLOCK_RECORD
  5
204
100
AcDbSymbolTableRecord
100
AcDbBlockTableRecord
  2
_FILLED
  0
ENDTAB
  0
TABLE
  2
DIMSTYLE
  5
A
100
AcDbSymbolTable
 70
1
100
AcDbDimStyleTable
 71
0
  0
DIMSTYLE
105
205
100
AcDbSymbolTableRecord
100
AcDbDimStyleTableRecord
  2
STANDARD
 70
0
  3

  4

 40
1.0
 41
0.1
 42
0.0625
 43
0.38
 44
0.125
 45
0.0
 46
0.0
 47
0.001
 48
0.001
140
0.08
141
0.09
142
0.0
143
25.4
144
1.0
145
0.0
146
1.0
147
0.09
 71
1.0
 72
0.0
 73
1
 74
1
 75
0
 76
0
 77
0
 78
4
 79
1
170
1
171
2
172
0
173
0
174
0
175
0
176
0
177
0
178
0
270
2
179
3
271
3
272
3
273
2
274
2
275
0
280
0
281
0
282
0
283
1
284
4
285
0
286
0
287
3
288
0
340
11
278
46
341
204
342
204
343
204
344
204
  0
ENDTAB
  0
ENDSEC
  0
SECTION
  2
BLOCKS
  0
BLOCK
  5
20
100
AcDbEntity
  8
0
100
AcDbBlockBegin
  2
*Model_Space
 70
0
 10
0.0
 20
0.0
 30
0.0
  3
*Model_Space
  1

  0
ENDBLK
  5
21
100
AcDbEntity
  8
0
100
AcDbBlockEnd
  0
BLOCK
  5
1C
100
AcDbEntity
  8
0
100
AcDbBlockBegin
  2
*Paper_Space
 70
0
 10
0.0
 20
0.0
 30
0.0
  3
*Paper_Space
  1

  0
ENDBLK
  5
1D
100
AcDbEntity
  8
0
100
AcDbBlockEnd
  0
BLOCK
  5
206
100
AcDbEntity
  8
0
100
AcDbBlockBegin
  2
_FILLED
 70
64
 10
0.0
 20
0.0
  3
_FILLED
  1

  0
SOLID
  5
207
100
AcDbEntity
  8
0
  6
BYBLOCK
 62
0
100
AcDbTrace
 10
0.0
 20
0.0
 11
-1.0
 21
0.2
 12
-1.0
 22
-0.2
 13
-1.0
 23
-0.2
  0
ENDBLK
  5
208
100
AcDbEntity
  8
0
  6
BYBLOCK
 62
0
100
AcDbBlockEnd
  0
ENDSEC
  0
SECTION
  2
ENTITIES
  0
LINE
  5
209
100
AcDbEntity
  8
0
100
AcDbLine
 62
7
  6
CONTINUOUS
 10
-2.8530165109
 20
13.3192437715
 11
-2.8530165109
 21
12.5440972803
  0
LINE
  5
20A
100
AcDbEntity
  8
0
100
AcDbLine
 62
9
  6
CONTINUOUS
 10
-2.8442297143
 20
13.34045767
 11
-2.8442297143
 21
12.5228840768
  0
LINE
  5
20B
100
AcDbEntity
  8
0
100
AcDbLine
 62
9
  6
CONTINUOUS
 10
-2.7118033074
 20
12.39045767
 11
-2.7118033074
 21
13.4728840768
  0
LINE
  5
20C
100
AcDbEntity
  8
0
100
AcDbLine
 62
9
  6
CONTINUOUS
 10
-2.690590104
 20
13.4816708734
 11
-2.690590104
 21
12.3816708734
  0
LINE
  5
20D
100
AcDbEntity
  8
0
100
AcDbLine
 62
7
  6
CONTINUOUS
 10
-2.6120165109
 20
9.9116708734
 11
-2.6120165109
 21
12.3863120224
  0
LINE
  5
20E
100
AcDbEntity
  8
0
100
AcDbLine
 62
7
  6
CONTINUOUS
 10
-2.1120165109
 20
9.9116708734
 11
-2.1120165109
 21
12.3863086745
  0
LINE
  5
20F
100
AcDbEntity
  8
0
100
AcDbLine
 62
7
  6
CONTINUOUS
 10
-2.8442297143
 20
13.34045767
 11
-2.7118033074
 21
13.4728840768
  0
LINE
  5
210
100
AcDbEntity
  8
0
100
AcDbLine
 62
7
  6
CONTINUOUS
 10
-1.3970165109
 20
12.381671178
 11
-1.3970165109
 21
13.4816705688
  0
LINE
  5
211
100
AcDbEntity
  8
0
100
AcDbLine
 62
7
  6
CONTINUOUS
 10
-1.3876665112
 20
12.9316708734
 11
-1.3876665112
 21
13.3160402922
  0
LINE
  5
212
100
AcDbEntity
  8
0
100
AcDbLine
 62
7
  6
CONTINUOUS
 10
-1.387601776
 20
12.9316709454
 11
-1.3876665112
 21
13.3195208731
  0
LINE
  5
213
100
AcDbEntity
  8
0
100
AcDbLine
 62
7
  6
CONTINUOUS
 10
-1.3770165109
 20
13.4816618922
 11
-1.3770165109
 21
12.3816798547
  0
LINE
  5
214
100
AcDbEntity
  8
0
100
AcDbLine
 62
7
  6
CONTINUOUS
 10
-1.1770165109
 20
12.2816708734
 11
-1.1770165109
 21
12.0816708734
  0
LINE
  5
215
100
AcDbEntity
  8
0
100
AcDbLine
 62
7
  6
CONTINUOUS
 10
-1.0895165109
 20
12.0816708734
 11
-1.0895165109
 21
11.8966708734
  0
LINE
  5
216
100
AcDbEntity
  8
0
100
AcDbLine
 62
7
  6
CONTINUOUS
 10
-0.9932665109
 20
11.7266708734
 11
-0.9932665109
 21
11.7186708734
  0
LINE
  5
217
100
AcDbEntity
  8
0
100
AcDbLine
 62
7
  6
CONTINUOUS
 10
-1.3811231927
 20
12.5374266576
 11
-1.3774796155
 21
12.5437349703
  0
LINE
  5
218
100
AcDbEntity
  8
0
100
AcDbLine
 62
7
  6
CONTINUOUS
 10
-1.3970165109
 20
13.3101708734
 11
-1.3876680333
 21
13.3195193509
  0
LINE
  5
219
100
AcDbEntity
  8
0
100
AcDbLine
 62
7
  6
CONTINUOUS
 10
-1.3873091511
 20
13.3198782332
 11
-1.3770165109
 21
13.3301708734
  0
LINE
  5
21A
100
AcDbEntity
  8
0
100
AcDbLine
 62
7
  6
CONTINUOUS
 10
-0.2607665109
 20
11.7266708734
 11
-0.2607665109
 21
11.7186708734
  0
LINE
  5
21B
100
AcDbEntity
  8
0
100
AcDbLine
 62
7
  6
CONTINUOUS
 10
-0.1645165109
 20
12.0816708734
 11
-0.1645165109
 21
11.8966708734
  0
LINE
  5
21C
100
AcDbEntity
  8
0
100
AcDbLine
 62
7
  6
CONTINUOUS
 10
-0.0770165109
 20
12.2816708734
 11
-0.0770165109
 21
12.0816708734
  0
LINE
  5
21D
100
AcDbEntity
  8
0
100
AcDbLine
 62
7
  6
CONTINUOUS
 10
0.7229834891
 20
12.3816798547
 11
0.7229834891
 21
13.4816618922
  0
LINE
  5
21E
100
AcDbEntity
  8
0
100
AcDbLine
 62
7
  6
CONTINUOUS
 10
-2.8442297143
 20
12.5228840768
 11
-2.7118033074
 21
12.39045767
  0
LINE
  5
21F
100
AcDbEntity
  8
0
100
AcDbLine
 62
7
  6
CONTINUOUS
 10
-1.3970165109
 20
12.5531708734
 11
-1.3812325472
 21
12.5373869097
  0
LINE
  5
220
100
AcDbEntity
  8
0
100
AcDbLine
 62
7
  6
CONTINUOUS
 10
18.6479835443
 20
4.3016708734
 11
19.0879834339
 21
4.3016708734
  0
LINE
  5
221
100
AcDbEntity
  8
0
100
AcDbLine
 62
9
  6
CONTINUOUS
 10
18.6179834891
 20
4.3316708734
 11
19.1179834891
 21
4.3316708734
  0
LINE
  5
222
100
AcDbEntity
  8
0
100
AcDbLine
 62
7
  6
CONTINUOUS
 10
24.0685652819
 20
5.8916708734
 11
24.0909834891
 21
5.8916708734
  0
LINE
  5
223
100
AcDbEntity
  8
0
100
AcDbLine
 62
7
  6
CONTINUOUS
 10
24.2549834891
 20
5.8916708734
 11
24.2729834891
 21
5.8916708734
  0
LINE
  5
224
100
AcDbEntity
  8
0
100
AcDbLine
 62
7
  6
CONTINUOUS
 10
18.548409896
 20
6.6891708734
 11
18.6079834891
 21
6.6891708734
  0
LINE
  5
225
100
AcDbEntity
  8
0
100
AcDbLine
 62
7
  6
CONTINUOUS
 10
19.1279834891
 20
6.6891708734
 11
19.8329834891
 21
6.6891708734
  0
LINE
  5
226
100
AcDbEntity
  8
0
100
AcDbLine
 62
7
  6
CONTINUOUS
 10
19.8629834891
 20
6.6891708734
 11
23.7029834891
 21
6.6891708734
  0
LINE
  5
227
100
AcDbEntity
  8
0
100
AcDbLine
 62
7
  6
CONTINUOUS
 10
19.8489834891
 20
6.8791708734
 11
19.8534131529
 21
6.8791708734
  0
LINE
  5
228
100
AcDbEntity
  8
0
100
AcDbLine
 62
7
  6
CONTINUOUS
 10
19.8329834891
 20
6.9004813373
 11
19.8362186327
 21
6.9004813373
  0
LINE
  5
229
100
AcDbEntity
  8
0
100
AcDbLine
 62
7
  6
CONTINUOUS
 10
9.1329834891
 20
13.4016708734
 11
9.1329834891
 21
12.4616708734
  0
LINE
  5
22A
100
AcDbEntity
  8
0
100
AcDbLine
 62
7
  6
CONTINUOUS
 10
9.5929834891
 20
13.6981127347
 11
9.5929834891
 21
13.4616708734
  0
LINE
  5
22B
100
AcDbEntity
  8
0
100
AcDbLine
 62
7
  6
CONTINUOUS
 10
9.5929834891
 20
12.4016708734
 11
9.5929834891
 21
12.0416708734
  0
LINE
  5
22C
100
AcDbEntity
  8
0
100
AcDbLine
 62
7
  6
CONTINUOUS
 10
9.5929834891
 20
9.3016708734
 11
9.5929834891
 21
12.0216708734
  0
LINE
  5
22D
100
AcDbEntity
  8
0
100
AcDbLine
 62
7
  6
CONTINUOUS
 10
9.7229834891
 20
12.0216708734
 11
9.7229834891
 21
12.0416708734
  0
LINE
  5
22E
100
AcDbEntity
  8
0
100
AcDbLine
 62
7
  6
CONTINUOUS
 10
19.8560734173
 20
7.8028608728
 11
19.8460405597
 21
7.8028608728
  0
LINE
  5
22F
100
AcDbEntity
  8
0
100
AcDbLine
 62
7
  6
CONTINUOUS
 10
18.548409896
 20
8.0141708734
 11
19.8329834891
 21
8.0141708734
  0
LINE
  5
230
100
AcDbEntity
  8
0
100
AcDbLine
 62
7
  6
CONTINUOUS
 10
19.8629834891
 20
8.0141708734
 11
20.1029841195
 21
8.0141708734
  0
LINE
  5
231
100
AcDbEntity
  8
0
100
AcDbLine
 62
7
  6
CONTINUOUS
 10
21.4229828771
 20
8.0141708734
 11
23.7029834891
 21
8.0141708734
  0
LINE
  5
232
100
AcDbEntity
  8
0
100
AcDbLine
 62
7
  6
CONTINUOUS
 10
21.3629834891
 20
8.1016708734
 11
20.1629834891
 21
8.1016708734
  0
LINE
  5
233
100
AcDbEntity
  8
0
100
AcDbLine
 62
7
  6
CONTINUOUS
 10
9.9775768968
 20
12.0216708734
 11
9.9775768968
 21
11.7216708734
  0
LINE
  5
234
100
AcDbEntity
  8
0
100
AcDbLine
 62
7
  6
CONTINUOUS
 10
10.4083900814
 20
11.7216708734
 11
10.4083900814
 21
12.0216708734
  0
LINE
  5
235
100
AcDbEntity
  8
0
100
AcDbLine
 62
7
  6
CONTINUOUS
 10
10.6629834891
 20
12.0216708734
 11
10.6629834891
 21
12.0416708734
  0
LINE
  5
236
100
AcDbEntity
  8
0
100
AcDbLine
 62
7
  6
CONTINUOUS
 10
10.7929834891
 20
13.6981127347
 11
10.7929834891
 21
12.0416708734
  0
LINE
  5
237
100
AcDbEntity
  8
0
100
AcDbLine
 62
7
  6
CONTINUOUS
 10
10.7929834891
 20
9.3016708734
 11
10.7929834891
 21
9.5416708734
  0
LINE
  5
238
100
AcDbEntity
  8
0
100
AcDbLine
 62
7
  6
CONTINUOUS
 10
10.7929834891
 20
10.6016708734
 11
10.7929834891
 21
12.0216708734
  0
LINE
  5
239
100
AcDbEntity
  8
0
100
AcDbLine
 62
7
  6
CONTINUOUS
 10
24.0685652819
 20
8.8116708734
 11
24.2729834891
 21
8.8116708734
  0
LINE
  5
23A
100
AcDbEntity
  8
0
100
AcDbLine
 62
7
  6
CONTINUOUS
 10
20.9783900814
 20
8.8616708734
 11
20.5475768968
 21
8.8616708734
  0
LINE
  5
23B
100
AcDbEntity
  8
0
100
AcDbLine
 62
7
  6
CONTINUOUS
 10
11.2529834891
 20
9.6016708734
 11
11.2529834891
 21
10.5416708734
  0
LINE
  5
23C
100
AcDbEntity
  8
0
100
AcDbLine
 62
7
  6
CONTINUOUS
 10
21.3629780245
 20
9.1616708734
 11
20.1629889538
 21
9.1616708734
  0
LINE
  5
23D
100
AcDbEntity
  8
0
100
AcDbLine
 62
7
  6
CONTINUOUS
 10
20.1629834891
 20
9.1816708734
 11
21.3629834891
 21
9.1816708734
  0
LINE
  5
23E
100
AcDbEntity
  8
0
100
AcDbLine
 62
7
  6
CONTINUOUS
 10
9.6129835089
 20
9.2816708734
 11
10.7729834694
 21
9.2816708734
  0
LINE
  5
23F
100
AcDbEntity
  8
0
100
AcDbLine
 62
9
  6
CONTINUOUS
 10
9.5929834891
 20
9.3016708734
 11
10.7929834891
 21
9.3016708734
  0
LINE
  5
240
100
AcDbEntity
  8
0
100
AcDbLine
 62
7
  6
CONTINUOUS
 10
20.1029834891
 20
9.6016708734
 11
19.7029834891
 21
9.6016708734
  0
LINE
  5
241
100
AcDbEntity
  8
0
100
AcDbLine
 62
7
  6
CONTINUOUS
 10
10.8529834891
 20
9.6016708734
 11
11.2529834891
 21
9.6016708734
  0
LINE
  5
242
100
AcDbEntity
  8
0
100
AcDbLine
 62
7
  6
CONTINUOUS
 10
19.7029834891
 20
9.6966708734
 11
11.2529834891
 21
9.6966708734
  0
LINE
  5
243
100
AcDbEntity
  8
0
100
AcDbLine
 62
7
  6
CONTINUOUS
 10
-2.5820164557
 20
9.8816708734
 11
-2.1420165661
 21
9.8816708734
  0
LINE
  5
244
100
AcDbEntity
  8
0
100
AcDbLine
 62
9
  6
CONTINUOUS
 10
-2.6120165109
 20
9.9116708734
 11
-2.1120165109
 21
9.9116708734
  0
LINE
  5
245
100
AcDbEntity
  8
0
100
AcDbLine
 62
7
  6
CONTINUOUS
 10
19.7029834891
 20
10.4466708734
 11
11.2529834891
 21
10.4466708734
  0
LINE
  5
246
100
AcDbEntity
  8
0
100
AcDbLine
 62
7
  6
CONTINUOUS
 10
20.1029834891
 20
10.5416708734
 11
19.7029834891
 21
10.5416708734
  0
LINE
  5
247
100
AcDbEntity
  8
0
100
AcDbLine
 62
7
  6
CONTINUOUS
 10
10.8529834891
 20
10.5416708734
 11
11.2529834891
 21
10.5416708734
  0
LINE
  5
248
100
AcDbEntity
  8
0
100
AcDbLine
 62
9
  6
CONTINUOUS
 10
21.3629834891
 20
10.8381127347
 11
20.1629834891
 21
10.8381127347
  0
LINE
  5
249
100
AcDbEntity
  8
0
100
AcDbLine
 62
7
  6
CONTINUOUS
 10
21.3429834694
 20
10.8581127347
 11
20.1829835089
 21
10.8581127347
  0
LINE
  5
24A
100
AcDbEntity
  8
0
100
AcDbLine
 62
7
  6
CONTINUOUS
 10
10.7929834891
 20
10.9616708734
 11
9.5929834891
 21
10.9616708734
  0
LINE
  5
24B
100
AcDbEntity
  8
0
100
AcDbLine
 62
7
  6
CONTINUOUS
 10
19.8393244756
 20
7.8145118598
 11
19.8394120425
 21
7.814487336
  0
LINE
  5
24C
100
AcDbEntity
  8
0
100
AcDbLine
 62
7
  6
CONTINUOUS
 10
19.839324474
 20
7.8145118582
 11
19.8394141866
 21
7.8144840556
  0
LINE
  5
24D
100
AcDbEntity
  8
0
100
AcDbLine
 62
7
  6
CONTINUOUS
 10
-0.9932663085
 20
11.7186708734
 11
-0.2607667132
 21
11.7186708734
  0
LINE
  5
24E
100
AcDbEntity
  8
0
100
AcDbLine
 62
7
  6
CONTINUOUS
 10
10.4083900814
 20
11.7216708734
 11
9.9775768968
 21
11.7216708734
  0
LINE
  5
24F
100
AcDbEntity
  8
0
100
AcDbLine
 62
7
  6
CONTINUOUS
 10
-0.2088483439
 20
11.7266708734
 11
-1.0451846778
 21
11.7266708734
  0
LINE
  5
250
100
AcDbEntity
  8
0
100
AcDbLine
 62
9
  6
CONTINUOUS
 10
-0.1997284238
 20
11.7325683093
 11
-1.0543045979
 21
11.7325683093
  0
LINE
  5
251
100
AcDbEntity
  8
0
100
AcDbLine
 62
9
  6
CONTINUOUS
 10
-1.0895165109
 20
11.8966708734
 11
-0.1645165109
 21
11.8966708734
  0
LINE
  5
252
100
AcDbEntity
  8
0
100
AcDbLine
 62
7
  6
CONTINUOUS
 10
10.7929780245
 20
12.0216708734
 11
9.5929889538
 21
12.0216708734
  0
LINE
  5
253
100
AcDbEntity
  8
0
100
AcDbLine
 62
7
  6
CONTINUOUS
 10
9.5929834891
 20
12.0416708734
 11
10.7929834891
 21
12.0416708734
  0
LINE
  5
254
100
AcDbEntity
  8
0
100
AcDbLine
 62
7
  6
CONTINUOUS
 10
-1.1770165109
 20
12.0816708734
 11
-0.0770165109
 21
12.0816708734
  0
LINE
  5
255
100
AcDbEntity
  8
0
100
AcDbLine
 62
7
  6
CONTINUOUS
 10
-2.690590104
 20
12.3816708734
 11
-2.6220165109
 21
12.3816708734
  0
LINE
  5
256
100
AcDbEntity
  8
0
100
AcDbLine
 62
7
  6
CONTINUOUS
 10
-2.1020165109
 20
12.3816708734
 11
-1.3970165109
 21
12.3816708734
  0
LINE
  5
257
100
AcDbEntity
  8
0
100
AcDbLine
 62
7
  6
CONTINUOUS
 10
0.7229834891
 20
12.3816708734
 11
0.0229832856
 21
12.3816708734
  0
LINE
  5
258
100
AcDbEntity
  8
0
100
AcDbLine
 62
7
  6
CONTINUOUS
 10
-1.2770163073
 20
12.3816708734
 11
-1.3770165109
 21
12.3816708734
  0
LINE
  5
259
100
AcDbEntity
  8
0
100
AcDbLine
 62
7
  6
CONTINUOUS
 10
9.5329834891
 20
12.4616708734
 11
9.1329834891
 21
12.4616708734
  0
LINE
  5
25A
100
AcDbEntity
  8
0
100
AcDbLine
 62
7
  6
CONTINUOUS
 10
-1.3776283454
 20
12.5438208742
 11
-1.3770165109
 21
12.5438208742
  0
LINE
  5
25B
100
AcDbEntity
  8
0
100
AcDbLine
 62
7
  6
CONTINUOUS
 10
9.1329834891
 20
12.5566708734
 11
0.7229834891
 21
12.5566708734
  0
LINE
  5
25C
100
AcDbEntity
  8
0
100
AcDbLine
 62
7
  6
CONTINUOUS
 10
18.3747702857
 20
6.8503840768
 11
18.5271966926
 21
6.69795767
  0
LINE
  5
25D
100
AcDbEntity
  8
0
100
AcDbLine
 62
7
  6
CONTINUOUS
 10
9.1329834891
 20
13.3066708734
 11
0.7229834891
 21
13.3066708734
  0
LINE
  5
25E
100
AcDbEntity
  8
0
100
AcDbLine
 62
7
  6
CONTINUOUS
 10
9.5329834891
 20
13.4016708734
 11
9.1329834891
 21
13.4016708734
  0
LINE
  5
25F
100
AcDbEntity
  8
0
100
AcDbLine
 62
7
  6
CONTINUOUS
 10
-2.690590104
 20
13.4816708734
 11
-1.3970165109
 21
13.4816708734
  0
LINE
  5
260
100
AcDbEntity
  8
0
100
AcDbLine
 62
7
  6
CONTINUOUS
 10
0.7229834891
 20
13.4816708734
 11
-1.3770165109
 21
13.4816708734
  0
LINE
  5
261
100
AcDbEntity
  8
0
100
AcDbLine
 62
9
  6
CONTINUOUS
 10
10.7929834891
 20
13.6981127347
 11
9.5929834891
 21
13.6981127347
  0
LINE
  5
262
100
AcDbEntity
  8
0
100
AcDbLine
 62
7
  6
CONTINUOUS
 10
10.7729834694
 20
13.7181127347
 11
9.6129835089
 21
13.7181127347
  0
LINE
  5
263
100
AcDbEntity
  8
0
100
AcDbLine
 62
7
  6
CONTINUOUS
 10
23.726153652
 20
6.1419110047
 11
24.0317354448
 21
5.904304608
  0
LINE
  5
264
100
AcDbEntity
  8
0
100
AcDbLine
 62
7
  6
CONTINUOUS
 10
19.8478630651
 20
6.8802912974
 11
19.8489834891
 21
6.8791708734
  0
LINE
  5
265
100
AcDbEntity
  8
0
100
AcDbLine
 62
7
  6
CONTINUOUS
 10
18.3747702857
 20
7.85295767
 11
18.5271966926
 21
8.0053840768
  0
LINE
  5
266
100
AcDbEntity
  8
0
100
AcDbLine
 62
7
  6
CONTINUOUS
 10
19.8478630651
 20
6.8802912974
 11
19.8475564631
 21
6.8806984047
  0
LINE
  5
267
100
AcDbEntity
  8
0
100
AcDbLine
 62
7
  6
CONTINUOUS
 10
19.847864472
 20
6.8802898906
 11
19.8475203865
 21
6.8807607479
  0
LINE
  5
268
100
AcDbEntity
  8
0
100
AcDbLine
 62
7
  6
CONTINUOUS
 10
18.3659834891
 20
7.8317436112
 11
18.3659834891
 21
6.8715981356
  0
LINE
  5
269
100
AcDbEntity
  8
0
100
AcDbLine
 62
9
  6
CONTINUOUS
 10
18.3747702857
 20
7.85295767
 11
18.3747702857
 21
6.8503840768
  0
LINE
  5
26A
100
AcDbEntity
  8
0
100
AcDbLine
 62
7
  6
CONTINUOUS
 10
19.8329834891
 20
7.8081708734
 11
19.8393175499
 21
7.8145049341
  0
LINE
  5
26B
100
AcDbEntity
  8
0
100
AcDbLine
 62
7
  6
CONTINUOUS
 10
19.8461812542
 20
7.8027381343
 11
19.8394036203
 21
7.814473488
  0
LINE
  5
26C
100
AcDbEntity
  8
0
100
AcDbLine
 62
7
  6
CONTINUOUS
 10
19.8360559693
 20
6.9006138808
 11
19.8447209624
 21
6.8856099579
  0
LINE
  5
26D
100
AcDbEntity
  8
0
100
AcDbLine
 62
7
  6
CONTINUOUS
 10
19.8447209624
 20
6.8856099579
 11
19.8475228317
 21
6.8807583069
  0
LINE
  5
26E
100
AcDbEntity
  8
0
100
AcDbLine
 62
9
  6
CONTINUOUS
 10
18.5271966926
 20
6.69795767
 11
18.5271966926
 21
8.0053840768
  0
LINE
  5
26F
100
AcDbEntity
  8
0
100
AcDbLine
 62
9
  6
CONTINUOUS
 10
18.548409896
 20
8.0141708734
 11
18.548409896
 21
6.6891708734
  0
LINE
  5
270
100
AcDbEntity
  8
0
100
AcDbLine
 62
7
  6
CONTINUOUS
 10
18.6179834891
 20
4.3316708734
 11
18.6179834891
 21
6.693011065
  0
LINE
  5
271
100
AcDbEntity
  8
0
100
AcDbLine
 62
7
  6
CONTINUOUS
 10
19.1179834891
 20
4.3316708734
 11
19.1179834891
 21
6.6930098793
  0
LINE
  5
272
100
AcDbEntity
  8
0
100
AcDbLine
 62
7
  6
CONTINUOUS
 10
19.8629834891
 20
7.8152564022
 11
19.855742949
 21
7.8027192468
  0
LINE
  5
273
100
AcDbEntity
  8
0
100
AcDbLine
 62
7
  6
CONTINUOUS
 10
23.726153652
 20
8.5614307421
 11
24.0317354448
 21
8.7990371388
  0
LINE
  5
274
100
AcDbEntity
  8
0
100
AcDbLine
 62
7
  6
CONTINUOUS
 10
19.7029834891
 20
10.5416708734
 11
19.7029834891
 21
9.6016708734
  0
LINE
  5
275
100
AcDbEntity
  8
0
100
AcDbLine
 62
7
  6
CONTINUOUS
 10
19.8329834891
 20
6.6891712391
 11
19.8329834891
 21
8.0141705078
  0
LINE
  5
276
100
AcDbEntity
  8
0
100
AcDbLine
 62
7
  6
CONTINUOUS
 10
19.8489834891
 20
6.9934444884
 11
19.8489834891
 21
6.8791708734
  0
LINE
  5
277
100
AcDbEntity
  8
0
100
AcDbLine
 62
7
  6
CONTINUOUS
 10
19.8629834891
 20
8.0141708734
 11
19.8629834891
 21
6.6891708734
  0
LINE
  5
278
100
AcDbEntity
  8
0
100
AcDbLine
 62
7
  6
CONTINUOUS
 10
20.1629834891
 20
10.8381127347
 11
20.1629834891
 21
10.6016708734
  0
LINE
  5
279
100
AcDbEntity
  8
0
100
AcDbLine
 62
7
  6
CONTINUOUS
 10
20.1629834891
 20
9.5416708734
 11
20.1629834891
 21
9.1816708734
  0
LINE
  5
27A
100
AcDbEntity
  8
0
100
AcDbLine
 62
7
  6
CONTINUOUS
 10
20.1629834891
 20
8.0741708734
 11
20.1629834891
 21
9.1616708734
  0
LINE
  5
27B
100
AcDbEntity
  8
0
100
AcDbLine
 62
7
  6
CONTINUOUS
 10
20.2929834891
 20
9.1616708734
 11
20.2929834891
 21
9.1816708734
  0
LINE
  5
27C
100
AcDbEntity
  8
0
100
AcDbLine
 62
7
  6
CONTINUOUS
 10
19.8535726128
 20
6.8793049932
 11
19.8629834891
 21
6.8955996785
  0
LINE
  5
27D
100
AcDbEntity
  8
0
100
AcDbLine
 62
7
  6
CONTINUOUS
 10
20.5475768968
 20
9.1616708734
 11
20.5475768968
 21
8.8616708734
  0
LINE
  5
27E
100
AcDbEntity
  8
0
100
AcDbLine
 62
7
  6
CONTINUOUS
 10
20.9783900814
 20
8.8616708734
 11
20.9783900814
 21
9.1616708734
  0
LINE
  5
27F
100
AcDbEntity
  8
0
100
AcDbLine
 62
7
  6
CONTINUOUS
 10
21.2329834891
 20
9.1616708734
 11
21.2329834891
 21
9.1816708734
  0
LINE
  5
280
100
AcDbEntity
  8
0
100
AcDbLine
 62
7
  6
CONTINUOUS
 10
21.3629834891
 20
10.8381127347
 11
21.3629834891
 21
9.1816708734
  0
LINE
  5
281
100
AcDbEntity
  8
0
100
AcDbLine
 62
7
  6
CONTINUOUS
 10
21.3629834891
 20
8.0741708734
 11
21.3629834891
 21
9.1616708734
  0
LINE
  5
282
100
AcDbEntity
  8
0
100
AcDbLine
 62
7
  6
CONTINUOUS
 10
23.7029834891
 20
8.5140644767
 11
23.7029834891
 21
6.18927808
  0
LINE
  5
283
100
AcDbEntity
  8
0
100
AcDbLine
 62
9
  6
CONTINUOUS
 10
23.726153652
 20
8.5614307421
 11
23.726153652
 21
6.1419110047
  0
LINE
  5
284
100
AcDbEntity
  8
0
100
AcDbLine
 62
9
  6
CONTINUOUS
 10
24.0317354448
 20
5.904304608
 11
24.0317354448
 21
8.7990371388
  0
LINE
  5
285
100
AcDbEntity
  8
0
100
AcDbLine
 62
9
  6
CONTINUOUS
 10
24.0685652819
 20
8.8116708734
 11
24.0685652819
 21
5.8916708734
  0
LINE
  5
286
100
AcDbEntity
  8
0
100
AcDbLine
 62
7
  6
CONTINUOUS
 10
24.2729834891
 20
5.8916829871
 11
24.2729834891
 21
8.8116587597
  0
ARC
  5
287
100
AcDbEntity
  8
0
100
AcDbCircle
 62
7
  6
CONTINUOUS
 10
24.1729962516
 20
4.3524874909
 40
1.5413667595
100
AcDbArc
 50
90.0004744072
 51
93.0500012379
  0
ARC
  5
288
100
AcDbEntity
  8
0
100
AcDbCircle
 62
7
  6
CONTINUOUS
 10
20.2844584031
 20
6.9481665854
 40
0.4430853165
100
AcDbArc
 50
185.9009346932
 51
186.0580948591
  0
ARC
  5
289
100
AcDbEntity
  8
0
100
AcDbCircle
 62
7
  6
CONTINUOUS
 10
-0.6895165109
 20
11.8966708734
 40
0.4
100
AcDbArc
 50
180.0
 51
204.220943109
  0
ARC
  5
28A
100
AcDbEntity
  8
0
100
AcDbCircle
 62
7
  6
CONTINUOUS
 10
-0.5645165109
 20
11.8966708734
 40
0.4
100
AcDbArc
 50
335.779056891
 51
360.0
  0
ARC
  5
28B
100
AcDbEntity
  8
0
100
AcDbCircle
 62
7
  6
CONTINUOUS
 10
20.1869552909
 20
6.9376766128
 40
0.3450213198
100
AcDbArc
 50
186.1730915515
 51
186.7174989668
  0
ARC
  5
28C
100
AcDbEntity
  8
0
100
AcDbCircle
 62
7
  6
CONTINUOUS
 10
24.0685652819
 20
5.9516708734
 40
0.06
100
AcDbArc
 50
232.1330000003
 51
270.0
  0
ARC
  5
28D
100
AcDbEntity
  8
0
100
AcDbCircle
 62
7
  6
CONTINUOUS
 10
23.7629834891
 20
6.1892772701
 40
0.06
100
AcDbArc
 50
180.0
 51
232.133
  0
ARC
  5
28E
100
AcDbEntity
  8
0
100
AcDbCircle
 62
7
  6
CONTINUOUS
 10
23.7629834891
 20
8.5140644767
 40
0.06
100
AcDbArc
 50
127.867
 51
180.0
  0
ARC
  5
28F
100
AcDbEntity
  8
0
100
AcDbCircle
 62
7
  6
CONTINUOUS
 10
24.0685652819
 20
8.7516708734
 40
0.06
100
AcDbArc
 50
90.0
 51
127.8669999997
  0
ARC
  5
290
100
AcDbEntity
  8
0
100
AcDbCircle
 62
7
  6
CONTINUOUS
 10
-2.5820165109
 20
9.9116708734
 40
0.03
100
AcDbArc
 50
180.0
 51
270.0001054048
  0
ARC
  5
291
100
AcDbEntity
  8
0
100
AcDbCircle
 62
7
  6
CONTINUOUS
 10
-2.1420165109
 20
9.9116708734
 40
0.03
100
AcDbArc
 50
269.9998945952
 51
360.0
  0
ARC
  5
292
100
AcDbEntity
  8
0
100
AcDbCircle
 62
7
  6
CONTINUOUS
 10
18.6479834891
 20
4.3316708734
 40
0.03
100
AcDbArc
 50
180.0
 51
270.0001054048
  0
ARC
  5
293
100
AcDbEntity
  8
0
100
AcDbCircle
 62
7
  6
CONTINUOUS
 10
19.0879834891
 20
4.3316708734
 40
0.03
100
AcDbArc
 50
269.9998945952
 51
360.0
  0
ARC
  5
294
100
AcDbEntity
  8
0
100
AcDbCircle
 62
7
  6
CONTINUOUS
 10
-2.8230165109
 20
13.3192444665
 40
0.03
100
AcDbArc
 50
135.0000000005
 51
180.0
  0
ARC
  5
295
100
AcDbEntity
  8
0
100
AcDbCircle
 62
7
  6
CONTINUOUS
 10
-2.8230165109
 20
12.5440972803
 40
0.03
100
AcDbArc
 50
180.0
 51
224.9999999995
  0
ARC
  5
296
100
AcDbEntity
  8
0
100
AcDbCircle
 62
7
  6
CONTINUOUS
 10
-2.690590104
 20
12.4116708734
 40
0.03
100
AcDbArc
 50
225.0000000008
 51
270.0
  0
ARC
  5
297
100
AcDbEntity
  8
0
100
AcDbCircle
 62
7
  6
CONTINUOUS
 10
-2.690590104
 20
13.4516708734
 40
0.03
100
AcDbArc
 50
90.0
 51
134.9999999992
  0
ARC
  5
298
100
AcDbEntity
  8
0
100
AcDbCircle
 62
7
  6
CONTINUOUS
 10
18.3959834891
 20
7.8317444665
 40
0.03
100
AcDbArc
 50
135.0000000005
 51
180.0
  0
ARC
  5
299
100
AcDbEntity
  8
0
100
AcDbCircle
 62
7
  6
CONTINUOUS
 10
18.3959834891
 20
6.8715972803
 40
0.03
100
AcDbArc
 50
180.0
 51
224.9999999995
  0
ARC
  5
29A
100
AcDbEntity
  8
0
100
AcDbCircle
 62
7
  6
CONTINUOUS
 10
18.548409896
 20
6.7191708734
 40
0.03
100
AcDbArc
 50
225.0000000008
 51
270.0
  0
ARC
  5
29B
100
AcDbEntity
  8
0
100
AcDbCircle
 62
7
  6
CONTINUOUS
 10
18.548409896
 20
7.9841708734
 40
0.03
100
AcDbArc
 50
90.0
 51
134.9999999992
  0
ARC
  5
29C
100
AcDbEntity
  8
0
100
AcDbCircle
 62
7
  6
CONTINUOUS
 10
9.6129834891
 20
9.3016708734
 40
0.02
100
AcDbArc
 50
180.0
 51
270.0000566486
  0
ARC
  5
29D
100
AcDbEntity
  8
0
100
AcDbCircle
 62
7
  6
CONTINUOUS
 10
10.7729834891
 20
9.3016708734
 40
0.02
100
AcDbArc
 50
269.9999433514
 51
360.0
  0
ARC
  5
29E
100
AcDbEntity
  8
0
100
AcDbCircle
 62
7
  6
CONTINUOUS
 10
10.7729834891
 20
13.6981127347
 40
0.02
100
AcDbArc
 50
0.0
 51
90.0000565776
  0
ARC
  5
29F
100
AcDbEntity
  8
0
100
AcDbCircle
 62
7
  6
CONTINUOUS
 10
9.6129834891
 20
13.6981127347
 40
0.02
100
AcDbArc
 50
89.9999434224
 51
180.0
  0
ARC
  5
2A0
100
AcDbEntity
  8
0
100
AcDbCircle
 62
7
  6
CONTINUOUS
 10
21.3429834891
 20
10.8381127347
 40
0.02
100
AcDbArc
 50
0.0
 51
90.0000565776
  0
ARC
  5
2A1
100
AcDbEntity
  8
0
100
AcDbCircle
 62
7
  6
CONTINUOUS
 10
20.1829834891
 20
10.8381127347
 40
0.02
100
AcDbArc
 50
89.9999434224
 51
180.0
  0
ARC
  5
2A2
100
AcDbEntity
  8
0
100
AcDbCircle
 62
7
  6
CONTINUOUS
 10
-1.0451848957
 20
11.7366708734
 40
0.01
100
AcDbArc
 50
204.220943109
 51
270.0
  0
ARC
  5
2A3
100
AcDbEntity
  8
0
100
AcDbCircle
 62
7
  6
CONTINUOUS
 10
-0.208848126
 20
11.7366708734
 40
0.01
100
AcDbArc
 50
270.0
 51
335.779056891
  0
ARC
  5
2A4
100
AcDbEntity
  8
0
100
AcDbCircle
 62
7
  6
CONTINUOUS
 10
19.8509911188
 20
6.8827625407
 40
0.0040066749
100
AcDbArc
 50
208.5155176889
 51
209.9110514449
  0
ARC
  5
2A5
100
AcDbEntity
  8
0
100
AcDbCircle
 62
7
  6
CONTINUOUS
 10
-1.3862255643
 20
13.3187898133
 40
0.0015355421
100
AcDbArc
 50
132.2459446408
 51
134.9719823118
  0
SPLINE
  5
2A6
100
AcDbEntity
  8
0
100
AcDbSpline
 62
7
  6
CONTINUOUS
 70
0
 71
3
 72
20
 73
16
 74
0
 42
0.0000001
 43
0.0000001
 44
0.0000000001
 40
0.0
 40
0.0
 40
0.0
 40
0.0
 40
0.1985844521
 40
0.3775662216
 40
0.5361259645
 40
0.6734954147
 40
0.734024841
 40
0.7890202729
 40
0.8384123514
 40
0.8821374631
 40
0.920159216
 40
0.9524650809
 40
0.9790615544
 40
0.9902326535
 40
1.0
 40
1.0
 40
1.0
 40
1.0
 10
-1.3770148159
 20
13.2406542239
 30
0.0
 10
-1.3773389181
 20
13.2458198131
 30
0.0
 10
-1.3779819746
 20
13.2556394412
 30
0.0
 10
-1.3789977537
 20
13.2695757984
 30
0.0
 10
-1.3800137426
 20
13.2819119277
 30
0.0
 10
-1.3808902657
 20
13.2911613477
 30
0.0
 10
-1.3816026898
 20
13.2977140739
 30
0.0
 10
-1.3821144271
 20
13.3019818713
 30
0.0
 10
-1.3826264138
 20
13.3058082158
 30
0.0
 10
-1.3831390298
 20
13.3091876642
 30
0.0
 10
-1.3836516451
 20
13.3121161011
 30
0.0
 10
-1.3841635729
 20
13.314590237
 30
0.0
 10
-1.38461009
 20
13.3163623095
 30
0.0
 10
-1.3849762717
 20
13.3175461433
 30
0.0
 10
-1.3851605781
 20
13.3180601183
 30
0.0
 10
-1.3852540248
 20
13.3182969151
 30
0.0
  0
SPLINE
  5
2A7
100
AcDbEntity
  8
0
100
AcDbSpline
 62
7
  6
CONTINUOUS
 70
0
 71
3
 72
8
 73
4
 74
0
 42
0.0000001
 43
0.0000001
 44
0.0000000001
 40
0.0
 40
0.0
 40
0.0
 40
0.0
 40
1.0
 40
1.0
 40
1.0
 40
1.0
 10
-1.3872580261
 20
13.3199266264
 30
0.0
 10
-1.3872760536
 20
13.3199102138
 30
0.0
 10
-1.387293654
 20
13.3198933564
 30
0.0
 10
-1.3873108629
 20
13.3198761758
 30
0.0
  0
SPLINE
  5
2A8
100
AcDbEntity
  8
0
100
AcDbSpline
 62
7
  6
CONTINUOUS
 70
0
 71
3
 72
46
 73
42
 74
0
 42
0.0000001
 43
0.0000001
 44
0.0000000001
 40
0.0
 40
0.0
 40
0.0
 40
0.0
 40
0.1977361525
 40
0.2941645539
 40
0.3876823923
 40
0.4773313018
 40
0.5622357518
 40
0.6415931818
 40
0.7146036198
 40
0.7484791408
 40
0.7804831587
 40
0.8105493454
 40
0.8386126635
 40
0.8646081092
 40
0.8884707268
 40
0.9101356302
 40
0.92953804
 40
0.9383706789
 40
0.9466158934
 40
0.9542709874
 40
0.9613334935
 40
0.9678009827
 40
0.9736710798
 40
0.9789414893
 40
0.9836100359
 40
0.9876747387
 40
0.9911339475
 40
0.9939866288
 40
0.9951855856
 40
0.9962332131
 40
0.9971300715
 40
0.9978772619
 40
0.998476962
 40
0.9989337965
 40
0.9991119742
 40
0.9992599427
 40
0.9994861221
 40
0.9995887002
 40
0.9997019476
 40
0.9998368193
 40
1.0
 40
1.0
 40
1.0
 40
1.0
 10
-1.3775159732
 20
12.9316621941
 30
0.0
 10
-1.377936107
 20
12.9572562257
 30
0.0
 10
-1.3785610296
 20
12.9953314959
 30
0.0
 10
-1.3794095378
 20
13.0455108581
 30
0.0
 10
-1.3800402738
 20
13.0816997124
 30
0.0
 10
-1.3806708713
 20
13.1163965282
 30
0.0
 10
-1.3813011582
 20
13.1492599305
 30
0.0
 10
-1.3819306751
 20
13.1799690322
 30
0.0
 10
-1.3824667945
 20
13.2040728007
 30
0.0
 10
-1.3828994469
 20
13.2220472824
 30
0.0
 10
-1.38321578
 20
13.2344636918
 30
0.0
 10
-1.3835319637
 20
13.2461274412
 30
0.0
 10
-1.3838479757
 20
13.2570130655
 30
0.0
 10
-1.3841637636
 20
13.2670952651
 30
0.0
 10
-1.3844792439
 20
13.2763487453
 30
0.0
 10
-1.3847943475
 20
13.2847482101
 30
0.0
 10
-1.3850642087
 20
13.291202285
 30
0.0
 10
-1.3852820305
 20
13.2959197346
 30
0.0
 10
-1.3854402119
 20
13.2991175783
 30
0.0
 10
-1.3855983175
 20
13.3020859774
 30
0.0
 10
-1.3857563374
 20
13.3048238987
 30
0.0
 10
-1.3859142437
 20
13.3073303379
 30
0.0
 10
-1.3860720023
 20
13.309604293
 30
0.0
 10
-1.3862295556
 20
13.3116447705
 30
0.0
 10
-1.3863868378
 20
13.3134507801
 30
0.0
 10
-1.3865436749
 20
13.3150213783
 30
0.0
 10
-1.3866999829
 20
13.316355597
 30
0.0
 10
-1.3868360125
 20
13.3173185158
 30
0.0
 10
-1.3869474979
 20
13.3179691947
 30
0.0
 10
-1.3870260178
 20
13.3183685327
 30
0.0
 10
-1.3871043042
 20
13.3187081378
 30
0.0
 10
-1.3871821516
 20
13.3189881493
 30
0.0
 10
-1.3872596777
 20
13.319208572
 30
0.0
 10
-1.3873279315
 20
13.3193537716
 30
0.0
 10
-1.3873854371
 20
13.3194378142
 30
0.0
 10
-1.3874333801
 20
13.3194904146
 30
0.0
 10
-1.3874911789
 20
13.319523646
 30
0.0
 10
-1.3875497195
 20
13.3195174897
 30
0.0
 10
-1.3875907845
 20
13.3194964865
 30
0.0
 10
-1.3876306403
 20
13.3194606052
 30
0.0
 10
-1.3876544535
 20
13.3194300529
 30
0.0
 10
-1.3876665097
 20
13.319412707
 30
0.0
  0
SPLINE
  5
2A9
100
AcDbEntity
  8
0
100
AcDbSpline
 62
7
  6
CONTINUOUS
 70
0
 71
3
 72
14
 73
10
 74
0
 42
0.0000001
 43
0.0000001
 44
0.0000000001
 40
0.0
 40
0.0
 40
0.0
 40
0.0
 40
0.0950148155
 40
0.1766711811
 40
0.2849863785
 40
0.4210228683
 40
0.5853333721
 40
0.7782509417
 40
1.0
 40
1.0
 40
1.0
 40
1.0
 10
-1.3775197461
 20
12.5438471475
 30
0.0
 10
-1.3775872535
 20
12.5438468228
 30
0.0
 10
-1.3776870857
 20
12.5439636056
 30
0.0
 10
-1.3777706943
 20
12.5441384251
 30
0.0
 10
-1.3778512878
 20
12.5443592833
 30
0.0
 10
-1.3779295072
 20
12.5446378457
 30
0.0
 10
-1.3780092051
 20
12.5449796376
 30
0.0
 10
-1.3780887845
 20
12.5453831454
 30
0.0
 10
-1.3781385753
 20
12.5456735932
 30
0.0
 10
-1.378163765
 20
12.5458291196
 30
0.0
  0
SPLINE
  5
2AA
100
AcDbEntity
  8
0
100
AcDbSpline
 62
7
  6
CONTINUOUS
 70
0
 71
3
 72
28
 73
24
 74
0
 42
0.0000001
 43
0.0000001
 44
0.0000000001
 40
0.0
 40
0.0
 40
0.0
 40
0.0
 40
0.0026315124
 40
0.0057894308
 40
0.0136751162
 40
0.0236350528
 40
0.0356437565
 40
0.0496723176
 40
0.0656884823
 40
0.1035518961
 40
0.1489527509
 40
0.2015753379
 40
0.2609463842
 40
0.3264914023
 40
0.4739683715
 40
0.5547059438
 40
0.639196403
 40
0.6826171562
 40
0.7266987014
 40
0.816497742
 40
0.8620426563
 40
0.9078862135
 40
1.0
 40
1.0
 40
1.0
 40
1.0
 10
-1.378163765
 20
12.5458291196
 30
0.0
 10
-1.3782178982
 20
12.5461633506
 30
0.0
 10
-1.3783229782
 20
12.5469009363
 30
0.0
 10
-1.3785308756
 20
12.548648218
 30
0.0
 10
-1.3787811057
 20
12.5513394177
 30
0.0
 10
-1.3790674241
 20
12.5551700449
 30
0.0
 10
-1.3793551707
 20
12.559792821
 30
0.0
 10
-1.3796442742
 20
12.5651959843
 30
0.0
 10
-1.3800538932
 20
12.5739239023
 30
0.0
 10
-1.3805536209
 20
12.586688311
 30
0.0
 10
-1.3811290988
 20
12.6041629276
 30
0.0
 10
-1.3817056097
 20
12.6244061073
 30
0.0
 10
-1.38228377
 20
12.6472420185
 30
0.0
 10
-1.3830907731
 20
12.6822805
 30
0.0
 10
-1.3838508336
 20
12.7200698177
 30
0.0
 10
-1.384607156
 20
12.7602972343
 30
0.0
 10
-1.385093739
 20
12.7871388545
 30
0.0
 10
-1.3854746653
 20
12.8092652141
 30
0.0
 10
-1.3858525525
 20
12.8320747549
 30
0.0
 10
-1.3862309652
 20
12.8551576373
 30
0.0
 10
-1.3866481536
 20
12.8784665997
 30
0.0
 10
-1.3870883851
 20
12.9020730091
 30
0.0
 10
-1.3874111669
 20
12.919820532
 30
0.0
 10
-1.387601776
 20
12.9316709204
 30
0.0
  0
SPLINE
  5
2AB
100
AcDbEntity
  8
0
100
AcDbSpline
 62
7
  6
CONTINUOUS
 70
0
 71
3
 72
47
 73
43
 74
0
 42
0.0000001
 43
0.0000001
 44
0.0000000001
 40
0.0
 40
0.0
 40
0.0
 40
0.0
 40
0.0957079367
 40
0.1433034285
 40
0.1905358733
 40
0.2372996521
 40
0.2834970572
 40
0.3737946312
 40
0.4607033577
 40
0.5435193076
 40
0.6216128631
 40
0.6943404647
 40
0.7284856952
 40
0.7610363336
 40
0.7919038655
 40
0.8209981345
 40
0.8482275787
 40
0.8735001954
 40
0.8967234347
 40
0.917803936
 40
0.9366523652
 40
0.9531876933
 40
0.960562815
 40
0.9673294533
 40
0.9734778906
 40
0.9790011035
 40
0.9838931947
 40
0.9881482645
 40
0.9917604069
 40
0.9933235331
 40
0.9947237101
 40
0.995960198
 40
0.9970322573
 40
0.9979393439
 40
0.9986814086
 40
0.9992584789
 40
0.9994851498
 40
0.9996705825
 40
0.9998147804
 40
0.999917747
 40
0.9999794857
 40
1.0
 40
1.0
 40
1.0
 40
1.0
 10
-2.3620165109
 20
12.4470060408
 30
0.0
 10
-2.3533925458
 20
12.4470060408
 30
0.0
 10
-2.3404765549
 20
12.4466578313
 30
0.0
 10
-2.3233442641
 20
12.4455218316
 30
0.0
 10
-2.3106387551
 20
12.4443441578
 30
0.0
 10
-2.2980925058
 20
12.4428597796
 30
0.0
 10
-2.2817449836
 20
12.440518715
 30
0.0
 10
-2.2619245678
 20
12.4369562794
 30
0.0
 10
-2.2390602048
 20
12.4318099444
 30
0.0
 10
-2.2174810341
 20
12.4260469918
 30
0.0
 10
-2.1973405754
 20
12.4199053276
 30
0.0
 10
-2.1815532676
 20
12.4145551447
 30
0.0
 10
-2.1697394007
 20
12.4102808906
 30
0.0
 10
-2.1615098342
 20
12.4071885579
 30
0.0
 10
-2.153740372
 20
12.4041673731
 30
0.0
 10
-2.1464481047
 20
12.4012432873
 30
0.0
 10
-2.1396499342
 20
12.3984425278
 30
0.0
 10
-2.1333636008
 20
12.3957889087
 30
0.0
 10
-2.1276071385
 20
12.3933053039
 30
0.0
 10
-2.1223979772
 20
12.3910148
 30
0.0
 10
-2.1177528041
 20
12.3889390676
 30
0.0
 10
-2.1142437595
 20
12.3873480243
 30
0.0
 10
-2.1117303767
 20
12.3861974381
 30
0.0
 10
-2.1100695724
 20
12.3854329899
 30
0.0
 10
-2.1085615434
 20
12.384735731
 30
0.0
 10
-2.1072078328
 20
12.3841071947
 30
0.0
 10
-2.1060097217
 20
12.3835486578
 30
0.0
 10
-2.1049683862
 20
12.383061379
 30
0.0
 10
-2.1041992118
 20
12.3827002289
 30
0.0
 10
-2.103663108
 20
12.3824479533
 30
0.0
 10
-2.103320769
 20
12.382286668
 30
0.0
 10
-2.1030185027
 20
12.3821441336
 30
0.0
 10
-2.1027564602
 20
12.3820205149
 30
0.0
 10
-2.1025346605
 20
12.3819158828
 30
0.0
 10
-2.1023533187
 20
12.3818303826
 30
0.0
 10
-2.1022271291
 20
12.3817708149
 30
0.0
 10
-2.1021468235
 20
12.3817330474
 30
0.0
 10
-2.1021008223
 20
12.3817111644
 30
0.0
 10
-2.1020672648
 20
12.3816958595
 30
0.0
 10
-2.1020382356
 20
12.3816810263
 30
0.0
 10
-2.1020298809
 20
12.3816791193
 30
0.0
 10
-2.1020162053
 20
12.3816705901
 30
0.0
 10
-2.1020173861
 20
12.3816720123
 30
0.0
  0
SPLINE
  5
2AC
100
AcDbEntity
  8
0
100
AcDbSpline
 62
7
  6
CONTINUOUS
 70
0
 71
3
 72
48
 73
44
 74
0
 42
0.0000001
 43
0.0000001
 44
0.0000000001
 40
0.0
 40
0.0
 40
0.0
 40
0.0
 40
0.0000207072
 40
0.0000465179
 40
0.0000826328
 40
0.0001857734
 40
0.0003301255
 40
0.0005156857
 40
0.0007424506
 40
0.0013195803
 40
0.0020614871
 40
0.0029681433
 40
0.0040395214
 40
0.0052754469
 40
0.0066752493
 40
0.0082381538
 40
0.0118501701
 40
0.0161053025
 40
0.0209973639
 40
0.0265201739
 40
0.0326675593
 40
0.0394327344
 40
0.0468062904
 40
0.0633381936
 40
0.0821828304
 40
0.1032588317
 40
0.1264764278
 40
0.1517428964
 40
0.1789662809
 40
0.20805463
 40
0.2389164918
 40
0.3056010851
 40
0.3783224312
 40
0.4564151713
 40
0.539238814
 40
0.6261577465
 40
0.6709346497
 40
0.7164729126
 40
0.7626782978
 40
0.8094496459
 40
0.856689149
 40
0.9042893287
 40
1.0
 40
1.0
 40
1.0
 40
1.0
 10
-2.6220156356
 20
12.3816720123
 30
0.0
 10
-2.6220144437
 20
12.3816734478
 30
0.0
 10
-2.6220098789
 20
12.3816742437
 30
0.0
 10
-2.6220035475
 20
12.3816779397
 30
0.0
 10
-2.6219898703
 20
12.3816839986
 30
0.0
 10
-2.6219669302
 20
12.3816951256
 30
0.0
 10
-2.6219315592
 20
12.3817116738
 30
0.0
 10
-2.6218862258
 20
12.3817331182
 30
0.0
 10
-2.6218055754
 20
12.3817711377
 30
0.0
 10
-2.6216796064
 20
12.3818305687
 30
0.0
 10
-2.6214982085
 20
12.3819161043
 30
0.0
 10
-2.6212765298
 20
12.3820206314
 30
0.0
 10
-2.6210145804
 20
12.3821441295
 30
0.0
 10
-2.6207124302
 20
12.3822865604
 30
0.0
 10
-2.6203701732
 20
12.3824477816
 30
0.0
 10
-2.6198341235
 20
12.3827000236
 30
0.0
 10
-2.6190649818
 20
12.3830611916
 30
0.0
 10
-2.6180236754
 20
12.3835485229
 30
0.0
 10
-2.6168256134
 20
12.3841070989
 30
0.0
 10
-2.6154720303
 20
12.3847356063
 30
0.0
 10
-2.6139642123
 20
12.3854327106
 30
0.0
 10
-2.6123037064
 20
12.3861969448
 30
0.0
 10
-2.6097908193
 20
12.3873472431
 30
0.0
 10
-2.606282467
 20
12.3889379333
 30
0.0
 10
-2.6016382493
 20
12.3910132651
 30
0.0
 10
-2.5964302002
 20
12.3933032354
 30
0.0
 10
-2.5906749643
 20
12.3957860401
 30
0.0
 10
-2.5843900303
 20
12.3984389062
 30
0.0
 10
-2.5775934464
 20
12.4012392987
 30
0.0
 10
-2.5703025728
 20
12.4041626982
 30
0.0
 10
-2.5596673148
 20
12.4082979435
 30
0.0
 10
-2.5452714874
 20
12.4136083411
 30
0.0
 10
-2.5267076797
 20
12.4198995952
 30
0.0
 10
-2.5065671365
 20
12.4260419286
 30
0.0
 10
-2.4849865014
 20
12.431804674
 30
0.0
 10
-2.4661228024
 20
12.4360520739
 30
0.0
 10
-2.4504363499
 20
12.4390547319
 30
0.0
 10
-2.4383029988
 20
12.4410889535
 30
0.0
 10
-2.4259466694
 20
12.442858861
 30
0.0
 10
-2.413398437
 20
12.4443438748
 30
0.0
 10
-2.4006911251
 20
12.4455216706
 30
0.0
 10
-2.3835574635
 20
12.4466576455
 30
0.0
 10
-2.3706407564
 20
12.4470060408
 30
0.0
 10
-2.3620165109
 20
12.4470060408
 30
0.0
  0
SPLINE
  5
2AD
100
AcDbEntity
  8
0
100
AcDbSpline
 62
7
  6
CONTINUOUS
 70
0
 71
3
 72
16
 73
12
 74
0
 42
0.0000001
 43
0.0000001
 44
0.0000000001
 40
0.0
 40
0.0
 40
0.0
 40
0.0
 40
0.0154279156
 40
0.0368565909
 40
0.0983429929
 40
0.1850651713
 40
0.2971746018
 40
0.434720364
 40
0.5977129231
 40
0.7861449935
 40
1.0
 40
1.0
 40
1.0
 40
1.0
 10
19.839415719
 20
7.8144813752
 30
0.0
 10
19.8394296191
 20
7.8144582045
 30
0.0
 10
19.8394550433
 20
7.8143984058
 30
0.0
 10
19.8395050781
 20
7.8142335929
 30
0.0
 10
19.8395625457
 20
7.8139414739
 30
0.0
 10
19.8396284049
 20
7.813490436
 30
0.0
 10
19.8396946643
 20
7.812904901
 30
0.0
 10
19.8397616224
 20
7.8121853033
 30
0.0
 10
19.8398287753
 20
7.8113315312
 30
0.0
 10
19.8398960994
 20
7.8103437899
 30
0.0
 10
19.8399383503
 20
7.8096404893
 30
0.0
 10
19.8399596902
 20
7.8092665547
 30
0.0
  0
SPLINE
  5
2AE
100
AcDbEntity
  8
0
100
AcDbSpline
 62
7
  6
CONTINUOUS
 70
0
 71
3
 72
22
 73
18
 74
0
 42
0.0000001
 43
0.0000001
 44
0.0000000001
 40
0.0
 40
0.0
 40
0.0
 40
0.0
 40
0.0077490804
 40
0.017451343
 40
0.0290862197
 40
0.0426326165
 40
0.075345971
 40
0.1153298493
 40
0.1622672528
 40
0.2157854369
 40
0.2754599581
 40
0.3408264545
 40
0.4113670231
 40
0.4865324925
 40
0.6483659182
 40
0.8212973269
 40
1.0
 40
1.0
 40
1.0
 40
1.0
 10
19.8399596902
 20
7.8092665547
 30
0.0
 10
19.8400270411
 20
7.8080863806
 30
0.0
 10
19.8401550451
 20
7.8054272306
 30
0.0
 10
19.8403274052
 20
7.8009935581
 30
0.0
 10
19.8405005958
 20
7.7956749893
 30
0.0
 10
19.8407483422
 20
7.7868468299
 30
0.0
 10
19.8410492256
 20
7.7736940416
 30
0.0
 10
19.8413939851
 20
7.7554474443
 30
0.0
 10
19.8417397031
 20
7.7340266786
 30
0.0
 10
19.8420878588
 20
7.7096018802
 30
0.0
 10
19.8424368912
 20
7.6823655465
 30
0.0
 10
19.8427844871
 20
7.652532301
 30
0.0
 10
19.8431317235
 20
7.6203358167
 30
0.0
 10
19.8436070532
 20
7.5734241867
 30
0.0
 10
19.844193872
 20
7.5108935423
 30
0.0
 10
19.8448765731
 20
7.432568901
 30
0.0
 10
19.8453397458
 20
7.3789303883
 30
0.0
 10
19.8455653108
 20
7.3516708734
 30
0.0
  0
SPLINE
  5
2AF
100
AcDbEntity
  8
0
100
AcDbSpline
 62
7
  6
CONTINUOUS
 70
0
 71
3
 72
37
 73
33
 74
0
 42
0.0000001
 43
0.0000001
 44
0.0000000001
 40
0.0
 40
0.0
 40
0.0
 40
0.0
 40
0.1093201469
 40
0.2143840237
 40
0.3146952929
 40
0.4097601505
 40
0.4990848313
 40
0.5821880031
 40
0.6586804285
 40
0.7282144314
 40
0.7904426996
 40
0.8187087322
 40
0.8450183104
 40
0.8693359238
 40
0.8916398236
 40
0.9119097436
 40
0.9301255194
 40
0.9462671425
 40
0.9603148575
 40
0.9722493461
 40
0.982052118
 40
0.9861488613
 40
0.9897067003
 40
0.992724734
 40
0.9952049343
 40
0.9962446618
 40
0.9971518017
 40
0.9979275738
 40
0.9985738973
 40
0.9990940697
 40
0.9994944443
 40
1.0
 40
1.0
 40
1.0
 40
1.0
 10
19.8629807971
 20
7.5436778838
 30
0.0
 10
19.8628357506
 20
7.5531298893
 30
0.0
 10
19.8625466513
 20
7.5716658252
 30
0.0
 10
19.8621051764
 20
7.5988745388
 30
0.0
 10
19.8616638955
 20
7.6248504051
 30
0.0
 10
19.8612228527
 20
7.6494650718
 30
0.0
 10
19.8607821347
 20
7.6725914759
 30
0.0
 10
19.8603415466
 20
7.6941115786
 30
0.0
 10
19.8599013525
 20
7.7139199679
 30
0.0
 10
19.8594617865
 20
7.7319227931
 30
0.0
 10
19.8590852312
 20
7.7457556453
 30
0.0
 10
19.8587810198
 20
7.7558513204
 30
0.0
 10
19.8585603276
 20
7.7626698017
 30
0.0
 10
19.8583397102
 20
7.7689724386
 30
0.0
 10
19.8581192545
 20
7.7747524752
 30
0.0
 10
19.8578990154
 20
7.7800044648
 30
0.0
 10
19.8576790803
 20
7.7847230909
 30
0.0
 10
19.8574595484
 20
7.7889030391
 30
0.0
 10
19.8572406946
 20
7.7925390389
 30
0.0
 10
19.8570226462
 20
7.7956257955
 30
0.0
 10
19.8568328298
 20
7.7978517921
 30
0.0
 10
19.8566769779
 20
7.7993533376
 30
0.0
 10
19.8565675097
 20
7.8002697571
 30
0.0
 10
19.8564583926
 20
7.8010452758
 30
0.0
 10
19.8563633651
 20
7.8016027295
 30
0.0
 10
19.8562854338
 20
7.8019775938
 30
0.0
 10
19.8562306476
 20
7.8022065608
 30
0.0
 10
19.8561758343
 20
7.8024005958
 30
0.0
 10
19.8561217935
 20
7.8025592887
 30
0.0
 10
19.85606649
 20
7.8026845471
 30
0.0
 10
19.8560063624
 20
7.8027883671
 30
0.0
 10
19.8559378664
 20
7.8028501812
 30
0.0
 10
19.8558941501
 20
7.8028501812
 30
0.0
  0
LINE
  5
2B0
100
AcDbEntity
  8
0
100
AcDbLine
 62
7
  6
CONTINUOUS
 10
19.8474705023
 20
6.8808497671
 11
19.8466448421
 21
6.8830997653
  0
LINE
  5
2B1
100
AcDbEntity
  8
0
100
AcDbLine
 62
7
  6
CONTINUOUS
 10
19.8466448421
 20
6.8830997653
 11
19.8463512099
 21
6.8842516787
  0
SPLINE
  5
2B2
100
AcDbEntity
  8
0
100
AcDbSpline
 62
7
  6
CONTINUOUS
 70
0
 71
3
 72
16
 73
12
 74
0
 42
0.0000001
 43
0.0000001
 44
0.0000000001
 40
0.0
 40
0.0
 40
0.0
 40
0.0
 40
0.032696515
 40
0.0698254148
 40
0.1113201042
 40
0.1571067867
 40
0.2611810667
 40
0.3812533328
 40
0.5163420769
 40
0.665343897
 40
1.0
 40
1.0
 40
1.0
 40
1.0
 10
19.8439345513
 20
6.900575625
 30
0.0
 10
19.843692159
 20
6.9028105419
 30
0.0
 10
19.8432138034
 20
6.9075876215
 30
0.0
 10
19.8425394826
 20
6.9152116973
 30
0.0
 10
19.8418636946
 20
6.9237387917
 30
0.0
 10
19.8409212891
 20
6.9368615929
 30
0.0
 10
19.8397608323
 20
6.9553846711
 30
0.0
 10
19.8384104412
 20
6.9800468134
 30
0.0
 10
19.8370518204
 20
7.0078016028
 30
0.0
 10
19.8351584996
 20
7.0503009798
 30
0.0
 10
19.833850523
 20
7.0835289819
 30
0.0
 10
19.8329840162
 20
7.1065216754
 30
0.0
  0
SPLINE
  5
2B3
100
AcDbEntity
  8
0
100
AcDbSpline
 62
7
  6
CONTINUOUS
 70
0
 71
3
 72
23
 73
19
 74
0
 42
0.0000001
 43
0.0000001
 44
0.0000000001
 40
0.0
 40
0.0
 40
0.0
 40
0.0
 40
0.0040977267
 40
0.0099149667
 40
0.0174996923
 40
0.0268679764
 40
0.038025304
 40
0.0509724423
 40
0.0822275999
 40
0.1206076425
 40
0.1660762347
 40
0.2185928378
 40
0.2781147331
 40
0.3445979583
 40
0.417997791
 40
0.5853635949
 40
0.779657919
 40
1.0
 40
1.0
 40
1.0
 40
1.0
 10
19.8360559693
 20
6.9006138808
 30
0.0
 10
19.8360159674
 20
6.9006831456
 30
0.0
 10
19.8359440626
 20
6.900864297
 30
0.0
 10
19.8358513677
 20
6.9011929436
 30
0.0
 10
19.835757707
 20
6.9016277903
 30
0.0
 10
19.8356632064
 20
6.9021683165
 30
0.0
 10
19.8355682723
 20
6.9028148397
 30
0.0
 10
19.8354326428
 20
6.903886933
 30
0.0
 10
19.8352677903
 20
6.9054906458
 30
0.0
 10
19.835078665
 20
6.9077295077
 30
0.0
 10
19.8348887945
 20
6.9103845821
 30
0.0
 10
19.8346982884
 20
6.9134531784
 30
0.0
 10
19.8345074152
 20
6.9169326419
 30
0.0
 10
19.8343162478
 20
6.9208202638
 30
0.0
 10
19.8340492663
 20
6.9268117067
 30
0.0
 10
19.8337207384
 20
6.9352976084
 30
0.0
 10
19.8333405373
 20
6.9466517192
 30
0.0
 10
19.8331011332
 20
6.9547417294
 30
0.0
 10
19.8329799608
 20
6.9590410091
 30
0.0
  0
SPLINE
  5
2B4
100
AcDbEntity
  8
0
100
AcDbSpline
 62
7
  6
CONTINUOUS
 70
0
 71
3
 72
18
 73
14
 74
0
 42
0.0000001
 43
0.0000001
 44
0.0000000001
 40
0.0
 40
0.0
 40
0.0
 40
0.0
 40
0.2000412808
 40
0.3805294566
 40
0.5402290454
 40
0.6782512202
 40
0.7938254523
 40
0.8429915157
 40
0.8863085917
 40
0.9237075431
 40
0.9551449399
 40
0.9805857039
 40
1.0
 40
1.0
 40
1.0
 40
1.0
 10
19.8489834891
 20
6.9934444884
 30
0.0
 10
19.8491390672
 20
6.9859825066
 30
0.0
 10
19.8494412545
 20
6.9717880441
 30
0.0
 10
19.8499079063
 20
6.9516373101
 30
0.0
 10
19.8503786713
 20
6.9338013118
 30
0.0
 10
19.850850179
 20
6.9183882746
 30
0.0
 10
19.8512583438
 20
6.9070993728
 30
0.0
 10
19.8515919933
 20
6.8993438305
 30
0.0
 10
19.8518279851
 20
6.8945035993
 30
0.0
 10
19.8520633894
 20
6.8903257078
 30
0.0
 10
19.8522974993
 20
6.8868158724
 30
0.0
 10
19.85252999
 20
6.8839788335
 30
0.0
 10
19.8527050879
 20
6.8823140407
 30
0.0
 10
19.8527992319
 20
6.8815958311
 30
0.0
  0
SPLINE
  5
2B5
100
AcDbEntity
  8
0
100
AcDbSpline
 62
7
  6
CONTINUOUS
 70
0
 71
3
 72
16
 73
12
 74
0
 42
0.0000001
 43
0.0000001
 44
0.0000000001
 40
0.0
 40
0.0
 40
0.0
 40
0.0
 40
0.2243552771
 40
0.4194511973
 40
0.5853945301
 40
0.7223665336
 40
0.8307019543
 40
0.9111047917
 40
0.9413620773
 40
0.9655604073
 40
1.0
 40
1.0
 40
1.0
 40
1.0
 10
19.8527992319
 20
6.8815958311
 30
0.0
 10
19.8528240745
 20
6.8814063114
 30
0.0
 10
19.8528731439
 20
6.8810523213
 30
0.0
 10
19.8529516759
 20
6.8805597626
 30
0.0
 10
19.8530299761
 20
6.8801427074
 30
0.0
 10
19.8531076558
 20
6.8798009018
 30
0.0
 10
19.8531850735
 20
6.8795342603
 30
0.0
 10
19.8532528713
 20
6.8793598955
 30
0.0
 10
19.8533111798
 20
6.8792600759
 30
0.0
 10
19.8533573401
 20
6.8792010482
 30
0.0
 10
19.8534049942
 20
6.87917146
 30
0.0
 10
19.8534343352
 20
6.8791714088
 30
0.0
  0
SPLINE
  5
2B6
100
AcDbEntity
  8
0
100
AcDbSpline
 62
7
  6
CONTINUOUS
 70
0
 71
3
 72
16
 73
12
 74
0
 42
0.0000001
 43
0.0000001
 44
0.0000000001
 40
0.0
 40
0.0
 40
0.0
 40
0.0
 40
0.1411325863
 40
0.2807874758
 40
0.4172879213
 40
0.5490957551
 40
0.6746746205
 40
0.7925735682
 40
0.8482156042
 40
0.9014347004
 40
1.0
 40
1.0
 40
1.0
 40
1.0
 10
19.8455813138
 20
7.3516708734
 30
0.0
 10
19.845720764
 20
7.3348183166
 30
0.0
 10
19.8459869258
 20
7.3012895617
 30
0.0
 10
19.8464041183
 20
7.2514615015
 30
0.0
 10
19.8468383509
 20
7.202747132
 30
0.0
 10
19.8472726574
 20
7.1557137005
 30
0.0
 10
19.8477054773
 20
7.1109016215
 30
0.0
 10
19.8480731566
 20
7.0751845693
 30
0.0
 10
19.848361191
 20
7.0481078889
 30
0.0
 10
19.8486247711
 20
7.0233397834
 30
0.0
 10
19.8488264448
 20
7.0052157795
 30
0.0
 10
19.8489804502
 20
6.9934467613
 30
0.0
  0
SPLINE
  5
2B7
100
AcDbEntity
  8
0
100
AcDbSpline
 62
7
  6
CONTINUOUS
 70
0
 71
3
 72
39
 73
35
 74
0
 42
0.0000001
 43
0.0000001
 44
0.0000000001
 40
0.0
 40
0.0
 40
0.0
 40
0.0
 40
0.0201141933
 40
0.0433328711
 40
0.0694957447
 40
0.0984412
 40
0.1638636777
 40
0.2377766596
 40
0.3181936269
 40
0.4028925549
 40
0.4895791091
 40
0.5758734866
 40
0.6594237877
 40
0.6994564869
 40
0.7379498546
 40
0.774643857
 40
0.8092986709
 40
0.8416751822
 40
0.8715364815
 40
0.8986825656
 40
0.9229442296
 40
0.9441533035
 40
0.9535606303
 40
0.9621448639
 40
0.9698951433
 40
0.976801663
 40
0.9828546826
 40
0.9880445719
 40
0.9923619027
 40
0.9957976622
 40
0.9971824285
 40
0.9983440092
 40
0.9992826299
 40
1.0
 40
1.0
 40
1.0
 40
1.0
 10
19.8629836269
 20
6.9433663229
 30
0.0
 10
19.8627958294
 20
6.9491229047
 30
0.0
 10
19.8624286229
 20
6.9615257763
 30
0.0
 10
19.8619162004
 20
6.9814191219
 30
0.0
 10
19.8614023552
 20
7.0038419841
 30
0.0
 10
19.8606869171
 20
7.0383482542
 30
0.0
 10
19.8598114769
 20
7.0865271478
 30
0.0
 10
19.8587931769
 20
7.1494444324
 30
0.0
 10
19.8577730063
 20
7.2178821071
 30
0.0
 10
19.8567506854
 20
7.2899778037
 30
0.0
 10
19.85572809
 20
7.3637566404
 30
0.0
 10
19.8547054069
 20
7.4372065377
 30
0.0
 10
19.8538420956
 20
7.4972981549
 30
0.0
 10
19.8531437803
 20
7.5437030277
 30
0.0
 10
19.8526275818
 20
7.5766919434
 30
0.0
 10
19.8521115457
 20
7.6081407226
 30
0.0
 10
19.8515958918
 20
7.6378377154
 30
0.0
 10
19.8510807909
 20
7.66557788
 30
0.0
 10
19.8505660563
 20
7.6911675497
 30
0.0
 10
19.85005195
 20
7.7144330604
 30
0.0
 10
19.8495389994
 20
7.7352203861
 30
0.0
 10
19.8490973875
 20
7.7509284167
 30
0.0
 10
19.848738897
 20
7.7621476987
 30
0.0
 10
19.8484810214
 20
7.7695143059
 30
0.0
 10
19.848223469
 20
7.7761643446
 30
0.0
 10
19.847966367
 20
7.7820889977
 30
0.0
 10
19.8477098658
 20
7.7872797373
 30
0.0
 10
19.8474544781
 20
7.7917281256
 30
0.0
 10
19.8472003366
 20
7.7954256499
 30
0.0
 10
19.8469783036
 20
7.7980330926
 30
0.0
 10
19.846794202
 20
7.7997361933
 30
0.0
 10
19.846666906
 20
7.8007260856
 30
0.0
 10
19.8465404589
 20
7.8015229837
 30
0.0
 10
19.8464451689
 20
7.8019879443
 30
0.0
 10
19.8463941869
 20
7.8021869342
 30
0.0
  0
LINE
  5
2B8
100
AcDbEntity
  8
0
100
AcDbLine
 62
7
  6
CONTINUOUS
 10
19.8463941869
 20
7.8021869342
 11
19.8461943596
 21
7.8027374869
  0
SPLINE
  5
2B9
100
AcDbEntity
  8
0
100
AcDbSpline
 62
7
  6
CONTINUOUS
 70
0
 71
3
 72
46
 73
42
 74
0
 42
0.0000001
 43
0.0000001
 44
0.0000000001
 40
0.0
 40
0.0
 40
0.0
 40
0.0
 40
0.0964117702
 40
0.1919487353
 40
0.239063503
 40
0.2856022049
 40
0.3314630407
 40
0.3765461809
 40
0.4640017206
 40
0.5472193996
 40
0.6255130062
 40
0.6982136313
 40
0.7646518653
 40
0.7953103373
 40
0.8241491179
 40
0.8510834049
 40
0.876027746
 40
0.8989008261
 40
0.9196241715
 40
0.9381187994
 40
0.9543092091
 40
0.9615210176
 40
0.9681342321
 40
0.9741415904
 40
0.9795358174
 40
0.9843096261
 40
0.988456316
 40
0.9919722806
 40
0.9934929269
 40
0.9948549149
 40
0.9960579188
 40
0.9971016126
 40
0.9979856703
 40
0.9987097658
 40
0.9992735729
 40
0.9994952663
 40
0.9996767652
 40
0.9998180289
 40
0.9999190164
 40
0.9999796871
 40
1.0
 40
1.0
 40
1.0
 40
1.0
 10
18.8679834891
 20
6.7423218355
 30
0.0
 10
18.8765627546
 20
6.7423218355
 30
0.0
 10
18.8936454054
 20
6.7419579247
 30
0.0
 10
18.9148829029
 20
6.7406217165
 30
0.0
 10
18.9316452326
 20
6.7390461938
 30
0.0
 10
18.9439810244
 20
6.7376408916
 30
0.0
 10
18.9561081528
 20
6.7360216102
 30
0.0
 10
18.9718018029
 20
6.733623913
 30
0.0
 10
18.9907007713
 20
6.730217679
 30
0.0
 10
19.0123644676
 20
6.7255630641
 30
0.0
 10
19.0326024949
 20
6.7205720873
 30
0.0
 10
19.051258574
 20
6.7154350771
 30
0.0
 10
19.065727846
 20
6.711078697
 30
0.0
 10
19.0764062641
 20
6.7076788209
 30
0.0
 10
19.0837124123
 20
6.70527548
 30
0.0
 10
19.0905155117
 20
6.7029711199
 30
0.0
 10
19.0967987556
 20
6.7007874232
 30
0.0
 10
19.1025453958
 20
6.6987438258
 30
0.0
 10
19.1077389862
 20
6.6968583543
 30
0.0
 10
19.1123637722
 20
6.6951489937
 30
0.0
 10
19.1158545763
 20
6.6938397943
 30
0.0
 10
19.1183522311
 20
6.6928933973
 30
0.0
 10
19.1200012485
 20
6.6922647031
 30
0.0
 10
19.1214980614
 20
6.6916908112
 30
0.0
 10
19.1228411811
 20
6.691173278
 30
0.0
 10
19.1240291596
 20
6.6907136173
 30
0.0
 10
19.1250608788
 20
6.690313283
 30
0.0
 10
19.125822452
 20
6.6900169841
 30
0.0
 10
19.1263529407
 20
6.6898101523
 30
0.0
 10
19.1266916082
 20
6.6896779307
 30
0.0
 10
19.1269906871
 20
6.6895610085
 30
0.0
 10
19.127250108
 20
6.6894594496
 30
0.0
 10
19.1274698109
 20
6.6893733326
 30
0.0
 10
19.1276497091
 20
6.689302694
 30
0.0
 10
19.1277747535
 20
6.6892535887
 30
0.0
 10
19.1278547881
 20
6.6892220176
 30
0.0
 10
19.1278999438
 20
6.6892043868
 30
0.0
 10
19.1279348247
 20
6.689190239
 30
0.0
 10
19.1279603514
 20
6.6891810692
 30
0.0
 10
19.1279746171
 20
6.6891738482
 30
0.0
 10
19.1279821421
 20
6.689172515
 30
0.0
 10
19.1279834809
 20
6.6891713005
 30
0.0
  0
SPLINE
  5
2BA
100
AcDbEntity
  8
0
100
AcDbSpline
 62
7
  6
CONTINUOUS
 70
0
 71
3
 72
14
 73
10
 74
0
 42
0.0000001
 43
0.0000001
 44
0.0000000001
 40
0.0
 40
0.0
 40
0.0
 40
0.0
 40
0.2499489068
 40
0.3749502133
 40
0.4999546921
 40
0.6249638864
 40
0.7499763131
 40
0.8749870929
 40
1.0
 40
1.0
 40
1.0
 40
1.0
 10
18.6079834974
 20
6.6891713006
 30
0.0
 10
18.6286851769
 20
6.6972975833
 30
0.0
 10
18.660180993
 20
6.7084261598
 30
0.0
 10
18.7029689325
 20
6.7206320121
 30
0.0
 10
18.7354449973
 20
6.728347145
 30
0.0
 10
18.7682544284
 20
6.7345021497
 30
0.0
 10
18.8013366544
 20
6.7389826583
 30
0.0
 10
18.8346092229
 20
6.7417124189
 30
0.0
 10
18.8568603114
 20
6.7423265549
 30
0.0
 10
18.8679834891
 20
6.7423218355
 30
0.0
  0
LINE
  5
2BB
100
AcDbEntity
  8
0
100
AcDbLine
 62
7
  6
CONTINUOUS
 10
24.0936607856
 20
5.8918109178
 11
24.090984093
 21
5.891670876
  0
SPLINE
  5
2BC
100
AcDbEntity
  8
0
100
AcDbSpline
 62
7
  6
CONTINUOUS
 70
0
 71
3
 72
29
 73
25
 74
0
 42
0.0000001
 43
0.0000001
 44
0.0000000001
 40
0.0
 40
0.0
 40
0.0
 40
0.0
 40
0.1924378568
 40
0.3781435609
 40
0.4662416312
 40
0.5501212735
 40
0.6289903055
 40
0.7020496466
 40
0.7685193633
 40
0.827726951
 40
0.8790362368
 40
0.9015407208
 40
0.9218646095
 40
0.9399511778
 40
0.9557436868
 40
0.9691853932
 40
0.9802282361
 40
0.9888493905
 40
0.9922461248
 40
0.9950305851
 40
0.9972004872
 40
0.9987535467
 40
0.9996874791
 40
1.0
 40
1.0
 40
1.0
 40
1.0
 10
24.1729834891
 20
5.8938542503
 30
0.0
 10
24.1782458918
 20
5.8938542503
 30
0.0
 10
24.1885866746
 20
5.8938011107
 30
0.0
 10
24.2013352487
 20
5.8936070286
 30
0.0
 10
24.2111140045
 20
5.8933867969
 30
0.0
 10
24.2179711631
 20
5.8932010105
 30
0.0
 10
24.2244164021
 20
5.8929984705
 30
0.0
 10
24.2303849881
 20
5.8927871547
 30
0.0
 10
24.2358154885
 20
5.8925745413
 30
0.0
 10
24.2406509993
 20
5.8923689257
 30
0.0
 10
24.2442848541
 20
5.8922038016
 30
0.0
 10
24.2468562625
 20
5.8920820868
 30
0.0
 10
24.2485200877
 20
5.8920014236
 30
0.0
 10
24.2500005069
 20
5.8919281005
 30
0.0
 10
24.2512928956
 20
5.8918628822
 30
0.0
 10
24.2523928712
 20
5.8918065543
 30
0.0
 10
24.2532969655
 20
5.8917597478
 30
0.0
 10
24.2539267367
 20
5.8917269397
 30
0.0
 10
24.2543309444
 20
5.8917055243
 30
0.0
 10
24.2545590309
 20
5.8916937415
 30
0.0
 10
24.2547366374
 20
5.891683563
 30
0.0
 10
24.2548640174
 20
5.8916784257
 30
0.0
 10
24.2549400862
 20
5.8916714042
 30
0.0
 10
24.2549745127
 20
5.8916725904
 30
0.0
 10
24.2549828852
 20
5.891670876
 30
0.0
  0
LINE
  5
2BD
100
AcDbEntity
  8
0
100
AcDbLine
 62
7
  6
CONTINUOUS
 10
24.2549828852
 20
5.891670876
 11
24.2524531487
 21
5.8918033675
  0
SPLINE
  5
2BE
100
AcDbEntity
  8
0
100
AcDbSpline
 62
7
  6
CONTINUOUS
 70
0
 71
3
 72
17
 73
13
 74
0
 42
0.0000001
 43
0.0000001
 44
0.0000000001
 40
0.0
 40
0.0
 40
0.0
 40
0.0
 40
0.1166045786
 40
0.2399487007
 40
0.3038376149
 40
0.368769934
 40
0.4999998997
 40
0.6312298825
 40
0.6961622215
 40
0.7600511619
 40
0.8833953495
 40
1.0
 40
1.0
 40
1.0
 40
1.0
 10
10.8529834891
 20
9.6016710499
 30
0.0
 10
10.8493253056
 20
9.6016710607
 30
0.0
 10
10.8417829202
 20
9.6009707256
 30
0.0
 10
10.832556578
 20
9.5983335712
 30
0.0
 10
10.8253542071
 20
9.5950303489
 30
0.0
 10
10.8183028339
 20
9.5909058172
 30
0.0
 10
10.8102433383
 20
9.584411056
 30
0.0
 10
10.8037485848
 20
9.5763515535
 30
0.0
 10
10.7996240586
 20
9.5693001749
 30
0.0
 10
10.7963208409
 20
9.562097798
 30
0.0
 10
10.7936836916
 20
9.552871449
 30
0.0
 10
10.7929833598
 20
9.5453290591
 30
0.0
 10
10.7929833719
 20
9.5416708734
 30
0.0
  0
SPLINE
  5
2BF
100
AcDbEntity
  8
0
100
AcDbSpline
 62
7
  6
CONTINUOUS
 70
0
 71
3
 72
17
 73
13
 74
0
 42
0.0000001
 43
0.0000001
 44
0.0000000001
 40
0.0
 40
0.0
 40
0.0
 40
0.0
 40
0.1166045616
 40
0.2399486744
 40
0.3038375873
 40
0.3687699071
 40
0.4999998781
 40
0.6312298698
 40
0.6961622138
 40
0.7600511586
 40
0.883395351
 40
1.0
 40
1.0
 40
1.0
 40
1.0
 10
10.8529834891
 20
10.5416706728
 30
0.0
 10
10.8493253046
 20
10.5416706604
 30
0.0
 10
10.8417829164
 20
10.542370993
 30
0.0
 10
10.8325565703
 20
10.5450081461
 30
0.0
 10
10.8253541961
 20
10.5483113688
 30
0.0
 10
10.8183028193
 20
10.5524359018
 30
0.0
 10
10.8102433199
 20
10.5589306663
 30
0.0
 10
10.8037485645
 20
10.5669901738
 30
0.0
 10
10.7996240378
 20
10.574041557
 30
0.0
 10
10.7963208205
 20
10.5812439383
 30
0.0
 10
10.7936836733
 20
10.5904702925
 30
0.0
 10
10.7929833443
 20
10.5980126862
 30
0.0
 10
10.7929833581
 20
10.6016708735
 30
0.0
  0
SPLINE
  5
2C0
100
AcDbEntity
  8
0
100
AcDbSpline
 62
9
  6
CONTINUOUS
 70
0
 71
3
 72
71
 73
67
 74
0
 42
0.0000001
 43
0.0000001
 44
0.0000000001
 40
0.0
 40
0.0
 40
0.0
 40
0.0
 40
0.000051821
 40
0.0001160683
 40
0.0002057677
 40
0.0004612055
 40
0.0008174999
 40
0.0012740164
 40
0.0018301206
 40
0.0024851781
 40
0.0032385546
 40
0.0050377272
 40
0.0072225646
 40
0.0097879936
 40
0.0127289418
 40
0.0160393544
 40
0.0197092458
 40
0.0280836089
 40
0.0377643734
 40
0.0486639707
 40
0.0606954612
 40
0.0737741596
 40
0.0878161405
 40
0.1027377577
 40
0.1349114161
 40
0.1697584418
 40
0.2067973206
 40
0.2456414032
 40
0.2859493252
 40
0.327411432
 40
0.3697883202
 40
0.4128346911
 40
0.4563122847
 40
0.5000004426
 40
0.5436886176
 40
0.58716632
 40
0.6302128526
 40
0.6725896457
 40
0.7140517732
 40
0.754359781
 40
0.7932038174
 40
0.8302425799
 40
0.8650895255
 40
0.8972631248
 40
0.9121847064
 40
0.926226644
 40
0.9393052898
 40
0.9513367173
 40
0.9622362404
 40
0.971916921
 40
0.9802911922
 40
0.9839610353
 40
0.9872713983
 40
0.9902122961
 40
0.9927776748
 40
0.9949624631
 40
0.9967615889
 40
0.9975149431
 40
0.9981699793
 40
0.9987260633
 40
0.9991825609
 40
0.9995388377
 40
0.9997942594
 40
0.9998839513
 40
0.9999481916
 40
1.0
 40
1.0
 40
1.0
 40
1.0
 10
10.8529834793
 20
9.6016710499
 30
0.0
 10
10.852969769
 20
9.6016842898
 30
0.0
 10
10.8529424215
 20
9.6017172074
 30
0.0
 10
10.8528908212
 20
9.6017725336
 30
0.0
 10
10.8527899894
 20
9.6018843831
 30
0.0
 10
10.8526163132
 20
9.6020751328
 30
0.0
 10
10.8523525176
 20
9.6023663142
 30
0.0
 10
10.8520143801
 20
9.6027393494
 30
0.0
 10
10.851602704
 20
9.6031940393
 30
0.0
 10
10.8511179188
 20
9.6037298218
 30
0.0
 10
10.85032673
 20
9.6046049365
 30
0.0
 10
10.8491589761
 20
9.6058981092
 30
0.0
 10
10.8475459192
 20
9.6076871515
 30
0.0
 10
10.8456532775
 20
9.6097895423
 30
0.0
 10
10.8434855354
 20
9.6122012991
 30
0.0
 10
10.8410484178
 20
9.6149171243
 30
0.0
 10
10.8372811891
 20
9.619124394
 30
0.0
 10
10.8319632395
 20
9.6250881195
 30
0.0
 10
10.8249015426
 20
9.6330595608
 30
0.0
 10
10.8169815661
 20
9.6420675388
 30
0.0
 10
10.8082780717
 20
9.6520506051
 30
0.0
 10
10.7988703601
 20
9.6629528224
 30
0.0
 10
10.7888369605
 20
9.6747188556
 30
0.0
 10
10.7743594352
 20
9.6919244056
 30
0.0
 10
10.7552158402
 20
9.7152036556
 30
0.0
 10
10.7314861053
 20
9.7452357144
 30
0.0
 10
10.7070137362
 20
9.7777958627
 30
0.0
 10
10.6824540759
 20
9.8127791979
 30
0.0
 10
10.6584446611
 20
9.8501017918
 30
0.0
 10
10.6359138827
 20
9.889850947
 30
0.0
 10
10.6158330139
 20
9.9320356415
 30
0.0
 10
10.5996099208
 20
9.9766819845
 30
0.0
 10
10.5888432651
 20
10.0234990136
 30
0.0
 10
10.5850357563
 20
10.0716713731
 30
0.0
 10
10.5888434048
 20
10.1198437536
 30
0.0
 10
10.5996101329
 20
10.166660886
 30
0.0
 10
10.6158336108
 20
10.2113071535
 30
0.0
 10
10.6359143528
 20
10.2534919359
 30
0.0
 10
10.6584452925
 20
10.2932410145
 30
0.0
 10
10.6824548959
 20
10.3305635098
 30
0.0
 10
10.7070145661
 20
10.3655468019
 30
0.0
 10
10.7314868529
 20
10.3981069003
 30
0.0
 10
10.7552165217
 20
10.4281388917
 30
0.0
 10
10.7743600761
 20
10.4514180919
 30
0.0
 10
10.7888375679
 20
10.4686236036
 30
0.0
 10
10.7988709357
 20
10.4803896005
 30
0.0
 10
10.8082786095
 20
10.4912917733
 30
0.0
 10
10.8169820595
 20
10.5012747856
 30
0.0
 10
10.8249019859
 20
10.5102826994
 30
0.0
 10
10.8319636262
 20
10.5182540678
 30
0.0
 10
10.8372815249
 20
10.5242177285
 30
0.0
 10
10.8410487096
 20
10.5284249439
 30
0.0
 10
10.8434857922
 20
10.5311407273
 30
0.0
 10
10.8456534982
 20
10.5335524422
 30
0.0
 10
10.8475461034
 20
10.5356547918
 30
0.0
 10
10.8491591242
 20
10.5374437941
 30
0.0
 10
10.8503268486
 20
10.5387369348
 30
0.0
 10
10.8511180147
 20
10.5396120251
 30
0.0
 10
10.8516027839
 20
10.5401477905
 30
0.0
 10
10.8520144446
 20
10.5406024644
 30
0.0
 10
10.8523525681
 20
10.5409754841
 30
0.0
 10
10.8526163492
 20
10.5412666526
 30
0.0
 10
10.8527900171
 20
10.5414573892
 30
0.0
 10
10.8528908381
 20
10.5415692337
 30
0.0
 10
10.8529424367
 20
10.5416245474
 30
0.0
 10
10.8529697692
 20
10.54165747
 30
0.0
 10
10.8529834824
 20
10.5416707003
 30
0.0
  0
SPLINE
  5
2C1
100
AcDbEntity
  8
0
100
AcDbSpline
 62
9
  6
CONTINUOUS
 70
0
 71
3
 72
101
 73
97
 74
0
 42
0.0000001
 43
0.0000001
 44
0.0000000001
 40
0.0
 40
0.0
 40
0.0
 40
0.0
 40
0.000003308
 40
0.0000130269
 40
0.0000291529
 40
0.0000516821
 40
0.0001159344
 40
0.0002057524
 40
0.0003211046
 40
0.0004619596
 40
0.0006282861
 40
0.0008200525
 40
0.0012797789
 40
0.0018407926
 40
0.0025025575
 40
0.0032645143
 40
0.0041261042
 40
0.0050867634
 40
0.0073020218
 40
0.0099024173
 40
0.0128796561
 40
0.0162244884
 40
0.0199271268
 40
0.0239773387
 40
0.0283638166
 40
0.0330750941
 40
0.038099677
 40
0.0490426806
 40
0.0611003372
 40
0.0741808392
 40
0.0881978731
 40
0.1030700105
 40
0.1187208635
 40
0.1350814333
 40
0.1520880911
 40
0.1696833648
 40
0.2064353715
 40
0.2255043503
 40
0.2449826752
 40
0.2850316385
 40
0.3055453564
 40
0.3263481996
 40
0.3474152899
 40
0.3687228076
 40
0.4119431548
 40
0.4338104768
 40
0.455801895
 40
0.4778790708
 40
0.5000001931
 40
0.5221213171
 40
0.5441985008
 40
0.5661898969
 40
0.588057183
 40
0.6312775587
 40
0.6525851133
 40
0.6736522745
 40
0.6944550592
 40
0.7149687049
 40
0.755017478
 40
0.7744957451
 40
0.7935647269
 40
0.8303166811
 40
0.8479119657
 40
0.8649186555
 40
0.8812791892
 40
0.8969299948
 40
0.9118021217
 40
0.9258191506
 40
0.9388996451
 40
0.9509573135
 40
0.9619003347
 40
0.9669249227
 40
0.9716361994
 40
0.9760226711
 40
0.9800728755
 40
0.9837755075
 40
0.9871203346
 40
0.990097572
 40
0.9926979697
 40
0.9949132404
 40
0.9958739113
 40
0.9967355135
 40
0.9974974814
 40
0.9981592543
 40
0.9987202713
 40
0.9991799943
 40
0.9993717565
 40
0.9995380776
 40
0.9996789265
 40
0.999794272
 40
0.9998840832
 40
0.9999483289
 40
0.999970855
 40
0.9999869781
 40
0.9999966944
 40
1.0
 40
1.0
 40
1.0
 40
1.0
 10
10.7929834891
 20
9.5416708734
 30
0.0
 10
10.792983174
 20
9.5416721407
 30
0.0
 10
10.7929791431
 20
9.5416758516
 30
0.0
 10
10.7929733783
 20
9.5416856188
 30
0.0
 10
10.7929616116
 20
9.5417008263
 30
0.0
 10
10.7929380683
 20
9.5417338439
 30
0.0
 10
10.7928968068
 20
9.5417901075
 30
0.0
 10
10.7928343257
 20
9.5418761469
 30
0.0
 10
10.7927538505
 20
9.5419865376
 30
0.0
 10
10.7926556298
 20
9.5421213511
 30
0.0
 10
10.7925395953
 20
9.5422805152
 30
0.0
 10
10.7923493816
 20
9.5425413793
 30
0.0
 10
10.7920672853
 20
9.5429280791
 30
0.0
 10
10.7916757695
 20
9.5434646205
 30
0.0
 10
10.7912139963
 20
9.5440975936
 30
0.0
 10
10.7906824627
 20
9.5448265522
 30
0.0
 10
10.7900816793
 20
9.545651047
 30
0.0
 10
10.7891435353
 20
9.5469395893
 30
0.0
 10
10.7878025705
 20
9.5487839348
 30
0.0
 10
10.7859955024
 20
9.5512736477
 30
0.0
 10
10.7839288078
 20
9.5541259155
 30
0.0
 10
10.7816099888
 20
9.5573328467
 30
0.0
 10
10.7790471881
 20
9.560886064
 30
0.0
 10
10.7762489622
 20
9.5647764821
 30
0.0
 10
10.7732242545
 20
9.5689944721
 30
0.0
 10
10.7699822347
 20
9.5735299496
 30
0.0
 10
10.7652461316
 20
9.5801790001
 30
0.0
 10
10.7588535922
 20
9.5892087726
 30
0.0
 10
10.7506745967
 20
9.6008701863
 30
0.0
 10
10.7418612042
 20
9.6135687073
 30
0.0
 10
10.7324924198
 20
9.6272339175
 30
0.0
 10
10.7226446033
 20
9.6418005609
 30
0.0
 10
10.7123907825
 20
9.6572089282
 30
0.0
 10
10.701804428
 20
9.6734074304
 30
0.0
 10
10.6909565995
 20
9.690351144
 30
0.0
 10
10.6760194556
 20
9.7142331877
 30
0.0
 10
10.6610942409
 20
9.7390819309
 30
0.0
 10
10.6463657159
 20
9.7649038407
 30
0.0
 10
10.6314557687
 20
9.7921149657
 30
0.0
 10
10.6170878744
 20
9.8202710133
 30
0.0
 10
10.6035613561
 20
9.8494082164
 30
0.0
 10
10.5938227143
 20
9.8720318913
 30
0.0
 10
10.5847028576
 20
9.8952511435
 30
0.0
 10
10.573499629
 20
9.9271349135
 30
0.0
 10
10.5641675422
 20
9.9599978737
 30
0.0
 10
10.557269428
 20
9.9936884642
 30
0.0
 10
10.5534345346
 20
10.0194480418
 30
0.0
 10
10.5510787933
 20
10.0454863189
 30
0.0
 10
10.5502835876
 20
10.0716711013
 30
0.0
 10
10.5510787197
 20
10.0978558945
 30
0.0
 10
10.5534346606
 20
10.1238941487
 30
0.0
 10
10.5572695083
 20
10.1496537097
 30
0.0
 10
10.5641676114
 20
10.1833442933
 30
0.0
 10
10.5734998044
 20
10.2162072375
 30
0.0
 10
10.5847030878
 20
10.2480910417
 30
0.0
 10
10.593822801
 20
10.2713103718
 30
0.0
 10
10.6035615216
 20
10.2939339891
 30
0.0
 10
10.6170880492
 20
10.3230710466
 30
0.0
 10
10.6314558864
 20
10.3512269828
 30
0.0
 10
10.6463658738
 20
10.378437974
 30
0.0
 10
10.661094172
 20
10.4042599645
 30
0.0
 10
10.676019516
 20
10.4291086156
 30
0.0
 10
10.690956692
 20
10.4529906334
 30
0.0
 10
10.7018044349
 20
10.4699344051
 30
0.0
 10
10.7123908017
 20
10.4861328754
 30
0.0
 10
10.7226446391
 20
10.5015411868
 30
0.0
 10
10.7324924113
 20
10.5161078302
 30
0.0
 10
10.7418611861
 20
10.5297730361
 30
0.0
 10
10.7506746012
 20
10.5424715411
 30
0.0
 10
10.7588535963
 20
10.5541329655
 30
0.0
 10
10.7652461314
 20
10.5631627578
 30
0.0
 10
10.7699822338
 20
10.5698118194
 30
0.0
 10
10.7732242547
 20
10.5743472951
 30
0.0
 10
10.7762489653
 20
10.5785652761
 30
0.0
 10
10.7790471941
 20
10.5824556823
 30
0.0
 10
10.7816099959
 20
10.5860088895
 30
0.0
 10
10.7839288151
 20
10.5892158142
 30
0.0
 10
10.7859955108
 20
10.5920680791
 30
0.0
 10
10.7878025798
 20
10.5945577977
 30
0.0
 10
10.7891435429
 20
10.5964021572
 30
0.0
 10
10.7900816834
 20
10.5976907197
 30
0.0
 10
10.7906824652
 20
10.5985152329
 30
0.0
 10
10.791213997
 20
10.5992442082
 30
0.0
 10
10.7916757686
 20
10.5998771934
 30
0.0
 10
10.7920672834
 20
10.6004137394
 30
0.0
 10
10.7923493815
 20
10.6008004358
 30
0.0
 10
10.7925395969
 20
10.6010612921
 30
0.0
 10
10.792655632
 20
10.6012204483
 30
0.0
 10
10.7927538529
 20
10.6013552526
 30
0.0
 10
10.7928343284
 20
10.6014656336
 30
0.0
 10
10.7928968087
 20
10.6015516636
 30
0.0
 10
10.7929380711
 20
10.601607919
 30
0.0
 10
10.7929616126
 20
10.6016409313
 30
0.0
 10
10.7929733812
 20
10.601656134
 30
0.0
 10
10.792979141
 20
10.6016658995
 30
0.0
 10
10.7929831756
 20
10.6016696067
 30
0.0
 10
10.7929834891
 20
10.6016708734
 30
0.0
  0
SPLINE
  5
2C2
100
AcDbEntity
  8
0
100
AcDbSpline
 62
7
  6
CONTINUOUS
 70
0
 71
3
 72
17
 73
13
 74
0
 42
0.0000001
 43
0.0000001
 44
0.0000000001
 40
0.0
 40
0.0
 40
0.0
 40
0.0
 40
0.1166045788
 40
0.2399487009
 40
0.3038376152
 40
0.3687699342
 40
0.4999998999
 40
0.6312298826
 40
0.6961622216
 40
0.7600511619
 40
0.8833953495
 40
1.0
 40
1.0
 40
1.0
 40
1.0
 10
9.5329834891
 20
13.4016706972
 30
0.0
 10
9.5366416726
 20
13.4016706863
 30
0.0
 10
9.544184058
 20
13.4023710215
 30
0.0
 10
9.5534104002
 20
13.4050081759
 30
0.0
 10
9.5606127711
 20
13.4083113982
 30
0.0
 10
9.5676641443
 20
13.4124359299
 30
0.0
 10
9.5757236398
 20
13.418930691
 30
0.0
 10
9.5822183932
 20
13.4269901935
 30
0.0
 10
9.5863429194
 20
13.4340415721
 30
0.0
 10
9.5896461372
 20
13.4412439489
 30
0.0
 10
9.5922832865
 20
13.4504702978
 30
0.0
 10
9.5929836184
 20
13.4580126877
 30
0.0
 10
9.5929836062
 20
13.4616708735
 30
0.0
  0
SPLINE
  5
2C3
100
AcDbEntity
  8
0
100
AcDbSpline
 62
7
  6
CONTINUOUS
 70
0
 71
3
 72
17
 73
13
 74
0
 42
0.0000001
 43
0.0000001
 44
0.0000000001
 40
0.0
 40
0.0
 40
0.0
 40
0.0
 40
0.1166045618
 40
0.2399486747
 40
0.3038375876
 40
0.3687699074
 40
0.4999998783
 40
0.6312298699
 40
0.6961622139
 40
0.7600511586
 40
0.883395351
 40
1.0
 40
1.0
 40
1.0
 40
1.0
 10
9.5329834891
 20
12.4616710738
 30
0.0
 10
9.5366416737
 20
12.4616710861
 30
0.0
 10
9.5441840618
 20
12.4609707535
 30
0.0
 10
9.5534104079
 20
12.4583336004
 30
0.0
 10
9.5606127821
 20
12.4550303777
 30
0.0
 10
9.5676641588
 20
12.4509058448
 30
0.0
 10
9.5757236581
 20
12.4444110803
 30
0.0
 10
9.5822184136
 20
12.4363515728
 30
0.0
 10
9.5863429402
 20
12.4293001896
 30
0.0
 10
9.5896461576
 20
12.4220978084
 30
0.0
 10
9.5922833048
 20
12.4128714542
 30
0.0
 10
9.5929836338
 20
12.4053290606
 30
0.0
 10
9.5929836201
 20
12.4016708734
 30
0.0
  0
SPLINE
  5
2C4
100
AcDbEntity
  8
0
100
AcDbSpline
 62
9
  6
CONTINUOUS
 70
0
 71
3
 72
71
 73
67
 74
0
 42
0.0000001
 43
0.0000001
 44
0.0000000001
 40
0.0
 40
0.0
 40
0.0
 40
0.0
 40
0.0000518208
 40
0.0001160679
 40
0.0002057672
 40
0.0004612048
 40
0.000817499
 40
0.0012740154
 40
0.0018301195
 40
0.0024851769
 40
0.0032385532
 40
0.0050377257
 40
0.0072225629
 40
0.0097879917
 40
0.0127289396
 40
0.0160393517
 40
0.0197092426
 40
0.0280836043
 40
0.0377643674
 40
0.0486639632
 40
0.0606954521
 40
0.073774149
 40
0.0878161284
 40
0.1027377439
 40
0.1349113987
 40
0.1697584218
 40
0.2067973006
 40
0.2456413853
 40
0.2859493112
 40
0.3274114226
 40
0.3697883148
 40
0.4128346886
 40
0.4563122836
 40
0.5000004427
 40
0.5436886189
 40
0.5871663227
 40
0.6302128581
 40
0.6725896553
 40
0.7140517872
 40
0.754359799
 40
0.7932038376
 40
0.8302426
 40
0.8650895429
 40
0.8972631387
 40
0.9121847186
 40
0.9262266546
 40
0.939305299
 40
0.9513367249
 40
0.9622362465
 40
0.9719169256
 40
0.9802911955
 40
0.9839610381
 40
0.9872714006
 40
0.9902122981
 40
0.9927776766
 40
0.9949624647
 40
0.9967615902
 40
0.9975149443
 40
0.9981699804
 40
0.9987260643
 40
0.9991825617
 40
0.9995388383
 40
0.9997942599
 40
0.9998839517
 40
0.9999481919
 40
1.0
 40
1.0
 40
1.0
 40
1.0
 10
9.5329835241
 20
13.4016706971
 30
0.0
 10
9.5329972342
 20
13.4016574571
 30
0.0
 10
9.5330245819
 20
13.4016245399
 30
0.0
 10
9.5330761819
 20
13.4015692137
 30
0.0
 10
9.5331770137
 20
13.4014573644
 30
0.0
 10
9.5333506898
 20
13.4012666148
 30
0.0
 10
9.5336144852
 20
13.4009754336
 30
0.0
 10
9.5339526226
 20
13.4006023985
 30
0.0
 10
9.5343642986
 20
13.4001477086
 30
0.0
 10
9.5348490838
 20
13.3996119262
 30
0.0
 10
9.5356402725
 20
13.3987368117
 30
0.0
 10
9.5368080263
 20
13.3974436391
 30
0.0
 10
9.5384210831
 20
13.3956545971
 30
0.0
 10
9.5403137247
 20
13.3935522066
 30
0.0
 10
9.5424814666
 20
13.3911404501
 30
0.0
 10
9.544918584
 20
13.3884246252
 30
0.0
 10
9.5486858123
 20
13.3842173563
 30
0.0
 10
9.5540037613
 20
13.3782536317
 30
0.0
 10
9.5610654572
 20
13.3702821918
 30
0.0
 10
9.5689854329
 20
13.3612742153
 30
0.0
 10
9.5776889264
 20
13.3512911504
 30
0.0
 10
9.5870966372
 20
13.3403889346
 30
0.0
 10
9.5971300359
 20
13.3286229027
 30
0.0
 10
9.6116075598
 20
13.3114173549
 30
0.0
 10
9.6307511533
 20
13.2881381072
 30
0.0
 10
9.654480887
 20
13.2581060504
 30
0.0
 10
9.6789532569
 20
13.2255459028
 30
0.0
 10
9.7035129195
 20
13.1905625662
 30
0.0
 10
9.7275223369
 20
13.1532399692
 30
0.0
 10
9.7500531182
 20
13.1134908103
 30
0.0
 10
9.7701339898
 20
13.0713061123
 30
0.0
 10
9.786357082
 20
13.0266597656
 30
0.0
 10
9.7971237391
 20
12.9798427347
 30
0.0
 10
9.8009312479
 20
12.9316703737
 30
0.0
 10
9.7971235994
 20
12.8834979916
 30
0.0
 10
9.7863568699
 20
12.8366808573
 30
0.0
 10
9.7701333928
 20
12.7920345862
 30
0.0
 10
9.750052648
 20
12.7498498003
 30
0.0
 10
9.7275217054
 20
12.710100718
 30
0.0
 10
9.7035120993
 20
12.6727782196
 30
0.0
 10
9.678952427
 20
12.6377949262
 30
0.0
 10
9.6544801394
 20
12.6052348285
 30
0.0
 10
9.6307504718
 20
12.5752028391
 30
0.0
 10
9.6116069189
 20
12.5519236412
 30
0.0
 10
9.5971294285
 20
12.5347181316
 30
0.0
 10
9.5870960615
 20
12.5229521362
 30
0.0
 10
9.5776883886
 20
12.5120499649
 30
0.0
 10
9.5689849394
 20
12.502066954
 30
0.0
 10
9.5610650139
 20
12.4930590416
 30
0.0
 10
9.5540033744
 20
12.4850876745
 30
0.0
 10
9.5486854765
 20
12.4791240149
 30
0.0
 10
9.5449182922
 20
12.4749168002
 30
0.0
 10
9.5424812098
 20
12.4722010172
 30
0.0
 10
9.540313504
 20
12.4697893026
 30
0.0
 10
9.538420899
 20
12.4676869533
 30
0.0
 10
9.5368078782
 20
12.4658979512
 30
0.0
 10
9.5356401539
 20
12.4646048107
 30
0.0
 10
9.5348489879
 20
12.4637297205
 30
0.0
 10
9.5343642187
 20
12.4631939552
 30
0.0
 10
9.5339525581
 20
12.4627392814
 30
0.0
 10
9.5336144347
 20
12.4623662618
 30
0.0
 10
9.5333506537
 20
12.4620750935
 30
0.0
 10
9.533176986
 20
12.461884357
 30
0.0
 10
9.533076165
 20
12.4617725127
 30
0.0
 10
9.5330245667
 20
12.461717199
 30
0.0
 10
9.532997234
 20
12.4616842767
 30
0.0
 10
9.5329835211
 20
12.4616710463
 30
0.0
  0
SPLINE
  5
2C5
100
AcDbEntity
  8
0
100
AcDbSpline
 62
9
  6
CONTINUOUS
 70
0
 71
3
 72
101
 73
97
 74
0
 42
0.0000001
 43
0.0000001
 44
0.0000000001
 40
0.0
 40
0.0
 40
0.0
 40
0.0
 40
0.000003308
 40
0.0000130268
 40
0.0000291528
 40
0.000051682
 40
0.0001159343
 40
0.0002057523
 40
0.0003211046
 40
0.0004619597
 40
0.0006282863
 40
0.0008200528
 40
0.0012797794
 40
0.0018407938
 40
0.0025025595
 40
0.0032645172
 40
0.0041261073
 40
0.0050867661
 40
0.0073020251
 40
0.009902422
 40
0.0128796622
 40
0.0162244965
 40
0.0199271354
 40
0.0239773478
 40
0.0283638274
 40
0.0330751072
 40
0.0380996923
 40
0.0490426987
 40
0.0611003597
 40
0.0741808664
 40
0.0881979071
 40
0.1030700506
 40
0.1187209059
 40
0.1350814742
 40
0.152088135
 40
0.1696834139
 40
0.2064354148
 40
0.2255043948
 40
0.2449827132
 40
0.285031633
 40
0.3055453297
 40
0.3263481488
 40
0.3474152357
 40
0.3687227503
 40
0.4119431006
 40
0.4338104214
 40
0.4558018455
 40
0.4778790291
 40
0.5000001558
 40
0.522121287
 40
0.544198473
 40
0.5661898698
 40
0.5880571602
 40
0.6312775436
 40
0.6525850946
 40
0.6736522407
 40
0.6944550156
 40
0.7149686591
 40
0.7550174091
 40
0.7744956788
 40
0.7935646704
 40
0.8303166188
 40
0.8479119131
 40
0.8649186128
 40
0.8812791505
 40
0.8969299597
 40
0.9118020913
 40
0.9258191244
 40
0.9388996222
 40
0.9509572948
 40
0.9619003192
 40
0.9669249096
 40
0.9716361887
 40
0.9760226621
 40
0.9800728671
 40
0.9837754997
 40
0.9871203289
 40
0.9900975676
 40
0.9926979667
 40
0.9949132379
 40
0.9958739085
 40
0.996735511
 40
0.9974974796
 40
0.9981592533
 40
0.9987202709
 40
0.9991799941
 40
0.9993717564
 40
0.9995380776
 40
0.9996789265
 40
0.9997942721
 40
0.9998840833
 40
0.999948329
 40
0.9999708551
 40
0.9999869782
 40
0.9999966944
 40
1.0
 40
1.0
 40
1.0
 40
1.0
 10
9.5929834891
 20
13.4616708734
 30
0.0
 10
9.5929838043
 20
13.4616696061
 30
0.0
 10
9.5929878351
 20
13.4616658953
 30
0.0
 10
9.5929936
 20
13.4616561281
 30
0.0
 10
9.5930053667
 20
13.4616409207
 30
0.0
 10
9.59302891
 20
13.4616079032
 30
0.0
 10
9.5930701717
 20
13.4615516396
 30
0.0
 10
9.5931326528
 20
13.4614656002
 30
0.0
 10
9.5932131282
 20
13.4613552095
 30
0.0
 10
9.593311349
 20
13.461220396
 30
0.0
 10
9.5934273836
 20
13.4610612317
 30
0.0
 10
9.5936175973
 20
13.4608003675
 30
0.0
 10
9.5938996936
 20
13.4604136672
 30
0.0
 10
9.5942912095
 20
13.459877125
 30
0.0
 10
9.594752983
 20
13.4592441511
 30
0.0
 10
9.595284517
 20
13.4585151918
 30
0.0
 10
9.5958853006
 20
13.4576906967
 30
0.0
 10
9.5968234451
 20
13.4564021546
 30
0.0
 10
9.5981644107
 20
13.4545578089
 30
0.0
 10
9.5999714796
 20
13.4520680949
 30
0.0
 10
9.6020381743
 20
13.4492158249
 30
0.0
 10
9.6043569941
 20
13.4460088925
 30
0.0
 10
9.6069197959
 20
13.4424556745
 30
0.0
 10
9.6097180232
 20
13.4385652561
 30
0.0
 10
9.6127427321
 20
13.4343472647
 30
0.0
 10
9.615984752
 20
13.4298117843
 30
0.0
 10
9.6207208565
 20
13.4231627313
 30
0.0
 10
9.6271133994
 20
13.4141329566
 30
0.0
 10
9.6352923964
 20
13.4024715383
 30
0.0
 10
9.6441057932
 20
13.3897730127
 30
0.0
 10
9.6534745822
 20
13.3761077972
 30
0.0
 10
9.6633223971
 20
13.3615411454
 30
0.0
 10
9.6735762235
 20
13.3461327787
 30
0.0
 10
9.6841625843
 20
13.3299342788
 30
0.0
 10
9.6950104024
 20
13.3129905553
 30
0.0
 10
9.7099475387
 20
13.289108506
 30
0.0
 10
9.7248727862
 20
13.264259782
 30
0.0
 10
9.7396012785
 20
13.2384378583
 30
0.0
 10
9.7545112003
 20
13.2112267419
 30
0.0
 10
9.7688791169
 20
13.1830707374
 30
0.0
 10
9.7824056184
 20
13.1539335648
 30
0.0
 10
9.7921442419
 20
13.1313099027
 30
0.0
 10
9.8012640829
 20
13.1080906579
 30
0.0
 10
9.812467348
 20
13.0762069016
 30
0.0
 10
9.8217993956
 20
13.0433439321
 30
0.0
 10
9.8286975673
 20
13.0096533496
 30
0.0
 10
9.8325324083
 20
12.9838937593
 30
0.0
 10
9.8348882016
 20
12.9578554807
 30
0.0
 10
9.8356833962
 20
12.9316706886
 30
0.0
 10
9.8348882385
 20
12.905485892
 30
0.0
 10
9.8325323414
 20
12.8794476296
 30
0.0
 10
9.8286974635
 20
12.8536880698
 30
0.0
 10
9.8217993807
 20
12.8199974775
 30
0.0
 10
9.8124671724
 20
12.7871345339
 30
0.0
 10
9.8012639134
 20
12.7552507258
 30
0.0
 10
9.7921441801
 20
12.7320314152
 30
0.0
 10
9.7824054539
 20
12.7094078128
 30
0.0
 10
9.7688789935
 20
12.6802707391
 30
0.0
 10
9.7545111027
 20
12.652114839
 30
0.0
 10
9.7396011239
 20
12.6249038487
 30
0.0
 10
9.7248728705
 20
12.5990818294
 30
0.0
 10
9.7099474827
 20
12.5742331978
 30
0.0
 10
9.6950103137
 20
12.5503511696
 30
0.0
 10
9.6841625789
 20
12.5334073815
 30
0.0
 10
9.6735762035
 20
12.5172089085
 30
0.0
 10
9.6633223586
 20
12.5018005964
 30
0.0
 10
9.6534745885
 20
12.4872339457
 30
0.0
 10
9.6441058102
 20
12.4735687363
 30
0.0
 10
9.635292392
 20
12.4608702279
 30
0.0
 10
9.6271133955
 20
12.4492087993
 30
0.0
 10
9.6207208568
 20
12.4401790049
 30
0.0
 10
9.615984753
 20
12.4335299404
 30
0.0
 10
9.6127427319
 20
12.4289944617
 30
0.0
 10
9.60971802
 20
12.4247764794
 30
0.0
 10
9.6069197898
 20
12.4208860727
 30
0.0
 10
9.6043569868
 20
12.4173328647
 30
0.0
 10
9.6020381668
 20
12.4141259387
 30
0.0
 10
9.599971471
 20
12.4112736716
 30
0.0
 10
9.5981644012
 20
12.4087839519
 30
0.0
 10
9.5968234372
 20
12.4069395922
 30
0.0
 10
9.5958852962
 20
12.4056510299
 30
0.0
 10
9.5952845143
 20
12.4048265165
 30
0.0
 10
9.5947529822
 20
12.4040975405
 30
0.0
 10
9.5942912103
 20
12.4034645545
 30
0.0
 10
9.5938996954
 20
12.4029280078
 30
0.0
 10
9.5936175973
 20
12.402541311
 30
0.0
 10
9.5934273818
 20
12.4022804545
 30
0.0
 10
9.5933113467
 20
12.4021212983
 30
0.0
 10
9.5932131257
 20
12.4019864939
 30
0.0
 10
9.5931326501
 20
12.4018761129
 30
0.0
 10
9.5930701697
 20
12.4017900829
 30
0.0
 10
9.5930289072
 20
12.4017338276
 30
0.0
 10
9.5930053657
 20
12.4017008154
 30
0.0
 10
9.5929935971
 20
12.4016856127
 30
0.0
 10
9.5929878373
 20
12.4016758473
 30
0.0
 10
9.5929838027
 20
12.4016721401
 30
0.0
 10
9.5929834891
 20
12.4016708734
 30
0.0
  0
SPLINE
  5
2C6
100
AcDbEntity
  8
0
100
AcDbSpline
 62
7
  6
CONTINUOUS
 70
0
 71
3
 72
17
 73
13
 74
0
 42
0.0000001
 43
0.0000001
 44
0.0000000001
 40
0.0
 40
0.0
 40
0.0
 40
0.0
 40
0.1166045788
 40
0.2399487009
 40
0.3038376152
 40
0.3687699342
 40
0.4999998999
 40
0.6312298826
 40
0.6961622216
 40
0.7600511619
 40
0.8833953495
 40
1.0
 40
1.0
 40
1.0
 40
1.0
 10
20.1029834891
 20
10.5416706972
 30
0.0
 10
20.1066416726
 20
10.5416706863
 30
0.0
 10
20.114184058
 20
10.5423710215
 30
0.0
 10
20.1234104002
 20
10.5450081759
 30
0.0
 10
20.1306127711
 20
10.5483113982
 30
0.0
 10
20.1376641443
 20
10.5524359299
 30
0.0
 10
20.1457236398
 20
10.558930691
 30
0.0
 10
20.1522183932
 20
10.5669901935
 30
0.0
 10
20.1563429194
 20
10.5740415721
 30
0.0
 10
20.1596461372
 20
10.5812439489
 30
0.0
 10
20.1622832865
 20
10.5904702978
 30
0.0
 10
20.1629836184
 20
10.5980126877
 30
0.0
 10
20.1629836062
 20
10.6016708735
 30
0.0
  0
SPLINE
  5
2C7
100
AcDbEntity
  8
0
100
AcDbSpline
 62
7
  6
CONTINUOUS
 70
0
 71
3
 72
17
 73
13
 74
0
 42
0.0000001
 43
0.0000001
 44
0.0000000001
 40
0.0
 40
0.0
 40
0.0
 40
0.0
 40
0.1166045618
 40
0.2399486747
 40
0.3038375876
 40
0.3687699074
 40
0.4999998783
 40
0.6312298699
 40
0.6961622139
 40
0.7600511586
 40
0.883395351
 40
1.0
 40
1.0
 40
1.0
 40
1.0
 10
20.1029834891
 20
9.6016710738
 30
0.0
 10
20.1066416737
 20
9.6016710861
 30
0.0
 10
20.1141840618
 20
9.6009707535
 30
0.0
 10
20.1234104079
 20
9.5983336004
 30
0.0
 10
20.1306127821
 20
9.5950303777
 30
0.0
 10
20.1376641588
 20
9.5909058448
 30
0.0
 10
20.1457236581
 20
9.5844110803
 30
0.0
 10
20.1522184136
 20
9.5763515728
 30
0.0
 10
20.1563429402
 20
9.5693001896
 30
0.0
 10
20.1596461576
 20
9.5620978084
 30
0.0
 10
20.1622833048
 20
9.5528714542
 30
0.0
 10
20.1629836338
 20
9.5453290606
 30
0.0
 10
20.1629836201
 20
9.5416708734
 30
0.0
  0
SPLINE
  5
2C8
100
AcDbEntity
  8
0
100
AcDbSpline
 62
9
  6
CONTINUOUS
 70
0
 71
3
 72
71
 73
67
 74
0
 42
0.0000001
 43
0.0000001
 44
0.0000000001
 40
0.0
 40
0.0
 40
0.0
 40
0.0
 40
0.0000518208
 40
0.0001160679
 40
0.0002057672
 40
0.0004612048
 40
0.000817499
 40
0.0012740154
 40
0.0018301195
 40
0.0024851769
 40
0.0032385532
 40
0.0050377257
 40
0.0072225629
 40
0.0097879917
 40
0.0127289396
 40
0.0160393517
 40
0.0197092426
 40
0.0280836043
 40
0.0377643674
 40
0.0486639632
 40
0.0606954521
 40
0.073774149
 40
0.0878161284
 40
0.1027377439
 40
0.1349113987
 40
0.1697584218
 40
0.2067973006
 40
0.2456413853
 40
0.2859493112
 40
0.3274114226
 40
0.3697883148
 40
0.4128346886
 40
0.4563122836
 40
0.5000004427
 40
0.5436886189
 40
0.5871663227
 40
0.6302128581
 40
0.6725896553
 40
0.7140517872
 40
0.754359799
 40
0.7932038376
 40
0.8302426
 40
0.8650895429
 40
0.8972631387
 40
0.9121847186
 40
0.9262266546
 40
0.939305299
 40
0.9513367249
 40
0.9622362465
 40
0.9719169256
 40
0.9802911955
 40
0.9839610381
 40
0.9872714006
 40
0.9902122981
 40
0.9927776766
 40
0.9949624647
 40
0.9967615902
 40
0.9975149443
 40
0.9981699804
 40
0.9987260643
 40
0.9991825617
 40
0.9995388383
 40
0.9997942599
 40
0.9998839517
 40
0.9999481919
 40
1.0
 40
1.0
 40
1.0
 40
1.0
 10
20.1029835241
 20
10.5416706971
 30
0.0
 10
20.1029972342
 20
10.5416574571
 30
0.0
 10
20.1030245819
 20
10.5416245399
 30
0.0
 10
20.1030761819
 20
10.5415692137
 30
0.0
 10
20.1031770137
 20
10.5414573644
 30
0.0
 10
20.1033506898
 20
10.5412666148
 30
0.0
 10
20.1036144852
 20
10.5409754336
 30
0.0
 10
20.1039526226
 20
10.5406023985
 30
0.0
 10
20.1043642986
 20
10.5401477086
 30
0.0
 10
20.1048490838
 20
10.5396119262
 30
0.0
 10
20.1056402725
 20
10.5387368117
 30
0.0
 10
20.1068080263
 20
10.5374436391
 30
0.0
 10
20.1084210831
 20
10.5356545971
 30
0.0
 10
20.1103137247
 20
10.5335522066
 30
0.0
 10
20.1124814666
 20
10.5311404501
 30
0.0
 10
20.114918584
 20
10.5284246252
 30
0.0
 10
20.1186858123
 20
10.5242173563
 30
0.0
 10
20.1240037613
 20
10.5182536317
 30
0.0
 10
20.1310654572
 20
10.5102821918
 30
0.0
 10
20.1389854329
 20
10.5012742153
 30
0.0
 10
20.1476889264
 20
10.4912911504
 30
0.0
 10
20.1570966372
 20
10.4803889346
 30
0.0
 10
20.1671300359
 20
10.4686229027
 30
0.0
 10
20.1816075598
 20
10.4514173549
 30
0.0
 10
20.2007511533
 20
10.4281381072
 30
0.0
 10
20.224480887
 20
10.3981060504
 30
0.0
 10
20.2489532569
 20
10.3655459028
 30
0.0
 10
20.2735129195
 20
10.3305625662
 30
0.0
 10
20.2975223369
 20
10.2932399692
 30
0.0
 10
20.3200531182
 20
10.2534908103
 30
0.0
 10
20.3401339898
 20
10.2113061123
 30
0.0
 10
20.356357082
 20
10.1666597656
 30
0.0
 10
20.3671237391
 20
10.1198427347
 30
0.0
 10
20.3709312479
 20
10.0716703737
 30
0.0
 10
20.3671235994
 20
10.0234979916
 30
0.0
 10
20.3563568699
 20
9.9766808573
 30
0.0
 10
20.3401333928
 20
9.9320345862
 30
0.0
 10
20.320052648
 20
9.8898498003
 30
0.0
 10
20.2975217054
 20
9.850100718
 30
0.0
 10
20.2735120993
 20
9.8127782196
 30
0.0
 10
20.248952427
 20
9.7777949262
 30
0.0
 10
20.2244801394
 20
9.7452348285
 30
0.0
 10
20.2007504718
 20
9.7152028391
 30
0.0
 10
20.1816069189
 20
9.6919236412
 30
0.0
 10
20.1671294285
 20
9.6747181316
 30
0.0
 10
20.1570960615
 20
9.6629521362
 30
0.0
 10
20.1476883886
 20
9.6520499649
 30
0.0
 10
20.1389849394
 20
9.642066954
 30
0.0
 10
20.1310650139
 20
9.6330590416
 30
0.0
 10
20.1240033744
 20
9.6250876745
 30
0.0
 10
20.1186854765
 20
9.6191240149
 30
0.0
 10
20.1149182922
 20
9.6149168002
 30
0.0
 10
20.1124812098
 20
9.6122010172
 30
0.0
 10
20.110313504
 20
9.6097893026
 30
0.0
 10
20.108420899
 20
9.6076869533
 30
0.0
 10
20.1068078782
 20
9.6058979512
 30
0.0
 10
20.1056401539
 20
9.6046048107
 30
0.0
 10
20.1048489879
 20
9.6037297205
 30
0.0
 10
20.1043642187
 20
9.6031939552
 30
0.0
 10
20.1039525581
 20
9.6027392814
 30
0.0
 10
20.1036144347
 20
9.6023662618
 30
0.0
 10
20.1033506537
 20
9.6020750935
 30
0.0
 10
20.103176986
 20
9.601884357
 30
0.0
 10
20.103076165
 20
9.6017725127
 30
0.0
 10
20.1030245667
 20
9.601717199
 30
0.0
 10
20.102997234
 20
9.6016842767
 30
0.0
 10
20.1029835211
 20
9.6016710463
 30
0.0
  0
SPLINE
  5
2C9
100
AcDbEntity
  8
0
100
AcDbSpline
 62
9
  6
CONTINUOUS
 70
0
 71
3
 72
101
 73
97
 74
0
 42
0.0000001
 43
0.0000001
 44
0.0000000001
 40
0.0
 40
0.0
 40
0.0
 40
0.0
 40
0.000003308
 40
0.0000130268
 40
0.0000291528
 40
0.000051682
 40
0.0001159343
 40
0.0002057523
 40
0.0003211046
 40
0.0004619597
 40
0.0006282863
 40
0.0008200528
 40
0.0012797794
 40
0.0018407938
 40
0.0025025595
 40
0.0032645172
 40
0.0041261073
 40
0.0050867661
 40
0.0073020251
 40
0.009902422
 40
0.0128796622
 40
0.0162244965
 40
0.0199271354
 40
0.0239773478
 40
0.0283638274
 40
0.0330751072
 40
0.0380996923
 40
0.0490426987
 40
0.0611003597
 40
0.0741808664
 40
0.0881979071
 40
0.1030700506
 40
0.1187209059
 40
0.1350814742
 40
0.152088135
 40
0.1696834139
 40
0.2064354148
 40
0.2255043948
 40
0.2449827132
 40
0.285031633
 40
0.3055453297
 40
0.3263481488
 40
0.3474152357
 40
0.3687227503
 40
0.4119431006
 40
0.4338104214
 40
0.4558018455
 40
0.4778790291
 40
0.5000001558
 40
0.522121287
 40
0.544198473
 40
0.5661898698
 40
0.5880571602
 40
0.6312775436
 40
0.6525850946
 40
0.6736522407
 40
0.6944550156
 40
0.7149686591
 40
0.7550174091
 40
0.7744956788
 40
0.7935646704
 40
0.8303166188
 40
0.8479119131
 40
0.8649186128
 40
0.8812791505
 40
0.8969299597
 40
0.9118020913
 40
0.9258191244
 40
0.9388996222
 40
0.9509572948
 40
0.9619003192
 40
0.9669249096
 40
0.9716361887
 40
0.9760226621
 40
0.9800728671
 40
0.9837754997
 40
0.9871203289
 40
0.9900975676
 40
0.9926979667
 40
0.9949132379
 40
0.9958739085
 40
0.996735511
 40
0.9974974796
 40
0.9981592533
 40
0.9987202709
 40
0.9991799941
 40
0.9993717564
 40
0.9995380776
 40
0.9996789265
 40
0.9997942721
 40
0.9998840833
 40
0.999948329
 40
0.9999708551
 40
0.9999869782
 40
0.9999966944
 40
1.0
 40
1.0
 40
1.0
 40
1.0
 10
20.1629834891
 20
10.6016708734
 30
0.0
 10
20.1629838043
 20
10.6016696061
 30
0.0
 10
20.1629878351
 20
10.6016658953
 30
0.0
 10
20.1629936
 20
10.6016561281
 30
0.0
 10
20.1630053667
 20
10.6016409207
 30
0.0
 10
20.16302891
 20
10.6016079032
 30
0.0
 10
20.1630701717
 20
10.6015516396
 30
0.0
 10
20.1631326528
 20
10.6014656002
 30
0.0
 10
20.1632131282
 20
10.6013552095
 30
0.0
 10
20.163311349
 20
10.601220396
 30
0.0
 10
20.1634273836
 20
10.6010612317
 30
0.0
 10
20.1636175973
 20
10.6008003675
 30
0.0
 10
20.1638996936
 20
10.6004136672
 30
0.0
 10
20.1642912095
 20
10.599877125
 30
0.0
 10
20.164752983
 20
10.5992441511
 30
0.0
 10
20.165284517
 20
10.5985151918
 30
0.0
 10
20.1658853006
 20
10.5976906967
 30
0.0
 10
20.1668234451
 20
10.5964021546
 30
0.0
 10
20.1681644107
 20
10.5945578089
 30
0.0
 10
20.1699714796
 20
10.5920680949
 30
0.0
 10
20.1720381743
 20
10.5892158249
 30
0.0
 10
20.1743569941
 20
10.5860088925
 30
0.0
 10
20.1769197959
 20
10.5824556745
 30
0.0
 10
20.1797180232
 20
10.5785652561
 30
0.0
 10
20.1827427321
 20
10.5743472647
 30
0.0
 10
20.185984752
 20
10.5698117843
 30
0.0
 10
20.1907208565
 20
10.5631627313
 30
0.0
 10
20.1971133994
 20
10.5541329566
 30
0.0
 10
20.2052923964
 20
10.5424715383
 30
0.0
 10
20.2141057932
 20
10.5297730127
 30
0.0
 10
20.2234745822
 20
10.5161077972
 30
0.0
 10
20.2333223971
 20
10.5015411454
 30
0.0
 10
20.2435762235
 20
10.4861327787
 30
0.0
 10
20.2541625843
 20
10.4699342788
 30
0.0
 10
20.2650104024
 20
10.4529905553
 30
0.0
 10
20.2799475387
 20
10.429108506
 30
0.0
 10
20.2948727862
 20
10.404259782
 30
0.0
 10
20.3096012785
 20
10.3784378583
 30
0.0
 10
20.3245112003
 20
10.3512267419
 30
0.0
 10
20.3388791169
 20
10.3230707374
 30
0.0
 10
20.3524056184
 20
10.2939335648
 30
0.0
 10
20.3621442419
 20
10.2713099027
 30
0.0
 10
20.3712640829
 20
10.2480906579
 30
0.0
 10
20.382467348
 20
10.2162069016
 30
0.0
 10
20.3917993956
 20
10.1833439321
 30
0.0
 10
20.3986975673
 20
10.1496533496
 30
0.0
 10
20.4025324083
 20
10.1238937593
 30
0.0
 10
20.4048882016
 20
10.0978554807
 30
0.0
 10
20.4056833962
 20
10.0716706886
 30
0.0
 10
20.4048882385
 20
10.045485892
 30
0.0
 10
20.4025323414
 20
10.0194476296
 30
0.0
 10
20.3986974635
 20
9.9936880698
 30
0.0
 10
20.3917993807
 20
9.9599974775
 30
0.0
 10
20.3824671724
 20
9.9271345339
 30
0.0
 10
20.3712639134
 20
9.8952507258
 30
0.0
 10
20.3621441801
 20
9.8720314152
 30
0.0
 10
20.3524054539
 20
9.8494078128
 30
0.0
 10
20.3388789935
 20
9.8202707391
 30
0.0
 10
20.3245111027
 20
9.792114839
 30
0.0
 10
20.3096011239
 20
9.7649038487
 30
0.0
 10
20.2948728705
 20
9.7390818294
 30
0.0
 10
20.2799474827
 20
9.7142331978
 30
0.0
 10
20.2650103137
 20
9.6903511696
 30
0.0
 10
20.2541625789
 20
9.6734073815
 30
0.0
 10
20.2435762035
 20
9.6572089085
 30
0.0
 10
20.2333223586
 20
9.6418005964
 30
0.0
 10
20.2234745885
 20
9.6272339457
 30
0.0
 10
20.2141058102
 20
9.6135687363
 30
0.0
 10
20.205292392
 20
9.6008702279
 30
0.0
 10
20.1971133955
 20
9.5892087993
 30
0.0
 10
20.1907208568
 20
9.5801790049
 30
0.0
 10
20.185984753
 20
9.5735299404
 30
0.0
 10
20.1827427319
 20
9.5689944617
 30
0.0
 10
20.17971802
 20
9.5647764794
 30
0.0
 10
20.1769197898
 20
9.5608860727
 30
0.0
 10
20.1743569868
 20
9.5573328647
 30
0.0
 10
20.1720381668
 20
9.5541259387
 30
0.0
 10
20.169971471
 20
9.5512736716
 30
0.0
 10
20.1681644012
 20
9.5487839519
 30
0.0
 10
20.1668234372
 20
9.5469395922
 30
0.0
 10
20.1658852962
 20
9.5456510299
 30
0.0
 10
20.1652845143
 20
9.5448265165
 30
0.0
 10
20.1647529822
 20
9.5440975405
 30
0.0
 10
20.1642912103
 20
9.5434645545
 30
0.0
 10
20.1638996954
 20
9.5429280078
 30
0.0
 10
20.1636175973
 20
9.542541311
 30
0.0
 10
20.1634273818
 20
9.5422804545
 30
0.0
 10
20.1633113467
 20
9.5421212983
 30
0.0
 10
20.1632131257
 20
9.5419864939
 30
0.0
 10
20.1631326501
 20
9.5418761129
 30
0.0
 10
20.1630701697
 20
9.5417900829
 30
0.0
 10
20.1630289072
 20
9.5417338276
 30
0.0
 10
20.1630053657
 20
9.5417008154
 30
0.0
 10
20.1629935971
 20
9.5416856127
 30
0.0
 10
20.1629878373
 20
9.5416758473
 30
0.0
 10
20.1629838027
 20
9.5416721401
 30
0.0
 10
20.1629834891
 20
9.5416708734
 30
0.0
  0
SPLINE
  5
2CA
100
AcDbEntity
  8
0
100
AcDbSpline
 62
7
  6
CONTINUOUS
 70
0
 71
3
 72
21
 73
17
 74
0
 42
0.0000001
 43
0.0000001
 44
0.0000000001
 40
0.0
 40
0.0
 40
0.0
 40
0.0
 40
0.057368249
 40
0.1166633082
 40
0.1776238709
 40
0.2400883552
 40
0.3039430246
 40
0.3688405296
 40
0.5000001073
 40
0.6311596668
 40
0.6960571503
 40
0.7599117917
 40
0.8223762426
 40
0.8833367687
 40
0.9426317894
 40
1.0
 40
1.0
 40
1.0
 40
1.0
 10
-0.0770166157
 20
12.281670873
 30
0.0
 10
-0.0770166218
 20
12.2846721262
 30
0.0
 10
-0.0767354734
 20
12.290778791
 30
0.0
 10
-0.0754667283
 20
12.2999968018
 30
0.0
 10
-0.0732835046
 20
12.3093182669
 30
0.0
 10
-0.0701261102
 20
12.3186104414
 30
0.0
 10
-0.0659486719
 20
12.3277201109
 30
0.0
 10
-0.059074617
 20
12.3394716441
 30
0.0
 10
-0.0482500652
 20
12.3529044734
 30
0.0
 10
-0.0348172443
 20
12.3637290338
 30
0.0
 10
-0.0230657182
 20
12.3706030939
 30
0.0
 10
-0.0139560548
 20
12.3747805352
 30
0.0
 10
-0.0046638865
 20
12.3779379319
 30
0.0
 10
0.0046575724
 20
12.3801211571
 30
0.0
 10
0.0138755772
 20
12.3813899031
 30
0.0
 10
0.0199822379
 20
12.3816710517
 30
0.0
 10
0.0229834891
 20
12.3816710456
 30
0.0
  0
SPLINE
  5
2CB
100
AcDbEntity
  8
0
100
AcDbSpline
 62
7
  6
CONTINUOUS
 70
0
 71
3
 72
21
 73
17
 74
0
 42
0.0000001
 43
0.0000001
 44
0.0000000001
 40
0.0
 40
0.0
 40
0.0
 40
0.0
 40
0.057368249
 40
0.1166633082
 40
0.1776238709
 40
0.2400883552
 40
0.3039430246
 40
0.3688405296
 40
0.5000001074
 40
0.6311596668
 40
0.6960571504
 40
0.7599117917
 40
0.8223762426
 40
0.8833367687
 40
0.9426317894
 40
1.0
 40
1.0
 40
1.0
 40
1.0
 10
-1.177016406
 20
12.281670873
 30
0.0
 10
-1.1770163999
 20
12.2846721262
 30
0.0
 10
-1.1772975483
 20
12.290778791
 30
0.0
 10
-1.1785662934
 20
12.2999968018
 30
0.0
 10
-1.1807495171
 20
12.3093182669
 30
0.0
 10
-1.1839069115
 20
12.3186104414
 30
0.0
 10
-1.1880843498
 20
12.3277201109
 30
0.0
 10
-1.1949584046
 20
12.3394716442
 30
0.0
 10
-1.2057829564
 20
12.3529044734
 30
0.0
 10
-1.2192157774
 20
12.3637290339
 30
0.0
 10
-1.2309673035
 20
12.370603094
 30
0.0
 10
-1.2400769669
 20
12.3747805352
 30
0.0
 10
-1.2493691352
 20
12.3779379319
 30
0.0
 10
-1.2586905942
 20
12.3801211572
 30
0.0
 10
-1.2679085989
 20
12.3813899032
 30
0.0
 10
-1.2740152596
 20
12.3816710518
 30
0.0
 10
-1.2770165109
 20
12.3816710457
 30
0.0
  0
LINE
  5
2CC
100
AcDbEntity
  8
0
100
AcDbLine
 62
9
  6
CONTINUOUS
 10
-0.6270163845
 20
12.931670724
 11
-1.2770161121
 21
12.3816710447
  0
SPLINE
  5
2CD
100
AcDbEntity
  8
0
100
AcDbSpline
 62
7
  6
CONTINUOUS
 70
0
 71
3
 72
17
 73
13
 74
0
 42
0.0000001
 43
0.0000001
 44
0.0000000001
 40
0.0
 40
0.0
 40
0.0
 40
0.0
 40
0.194489251
 40
0.3705275282
 40
0.5272594349
 40
0.663934023
 40
0.7799756068
 40
0.8748583236
 40
0.9142504616
 40
0.9482411436
 40
0.9768195951
 40
1.0
 40
1.0
 40
1.0
 40
1.0
 10
-1.3770165109
 20
13.2406718212
 30
0.0
 10
-1.3773246187
 20
13.245680207
 30
0.0
 10
-1.3779437629
 20
13.2552199083
 30
0.0
 10
-1.3789323211
 20
13.2687874831
 30
0.0
 10
-1.3799225513
 20
13.2808588634
 30
0.0
 10
-1.3809053233
 20
13.2913772441
 30
0.0
 10
-1.381883792
 20
13.3002921872
 30
0.0
 10
-1.3827394931
 20
13.306694741
 30
0.0
 10
-1.383446355
 20
13.3109784162
 30
0.0
 10
-1.3839423966
 20
13.3135623208
 30
0.0
 10
-1.3844369411
 20
13.3157191282
 30
0.0
 10
-1.3848020949
 20
13.3170049489
 30
0.0
 10
-1.3849919449
 20
13.3175720737
 30
0.0
  0
SPLINE
  5
2CE
100
AcDbEntity
  8
0
100
AcDbSpline
 62
7
  6
CONTINUOUS
 70
0
 71
3
 72
15
 73
11
 74
0
 42
0.0000001
 43
0.0000001
 44
0.0000000001
 40
0.0
 40
0.0
 40
0.0
 40
0.0
 40
0.2145874203
 40
0.396082945
 40
0.5456435726
 40
0.6653918954
 40
0.7595359669
 40
0.8366551561
 40
0.9114957327
 40
1.0
 40
1.0
 40
1.0
 40
1.0
 10
-1.3849919449
 20
13.3175720737
 30
0.0
 10
-1.3850793267
 20
13.3178331029
 30
0.0
 10
-1.3852512985
 20
13.3183115216
 30
0.0
 10
-1.3855306211
 20
13.3189539945
 30
0.0
 10
-1.3858095264
 20
13.3194619604
 30
0.0
 10
-1.3860897295
 20
13.3198372096
 30
0.0
 10
-1.3863762146
 20
13.3200840137
 30
0.0
 10
-1.3866856229
 20
13.3201912109
 30
0.0
 10
-1.3870006102
 20
13.3201289379
 30
0.0
 10
-1.387173847
 20
13.3200028053
 30
0.0
 10
-1.3872579314
 20
13.3199265225
 30
0.0
  0
SPLINE
  5
2CF
100
AcDbEntity
  8
0
100
AcDbSpline
 62
7
  6
CONTINUOUS
 70
0
 71
3
 72
42
 73
38
 74
0
 42
0.0000001
 43
0.0000001
 44
0.0000000001
 40
0.0
 40
0.0
 40
0.0
 40
0.0
 40
0.1977621651
 40
0.2941882125
 40
0.3876720087
 40
0.4773060895
 40
0.5622387003
 40
0.6416196636
 40
0.7146018073
 40
0.7484562484
 40
0.7804553593
 40
0.8105286341
 40
0.838605592
 40
0.8646157862
 40
0.888488819
 40
0.910154364
 40
0.929542689
 40
0.9466037665
 40
0.9542539896
 40
0.9613136687
 40
0.9677801044
 40
0.9736506516
 40
0.9789227437
 40
0.9835939349
 40
0.9876619726
 40
0.9911249342
 40
0.9939815119
 40
0.9951823836
 40
0.9962318565
 40
0.997130454
 40
0.9978792383
 40
0.9984803432
 40
0.9989383387
 40
0.9992643913
 40
0.9994909178
 40
0.9997033041
 40
1.0
 40
1.0
 40
1.0
 40
1.0
 10
-1.3775160348
 20
12.9316634213
 30
0.0
 10
-1.377936192
 20
12.957260545
 30
0.0
 10
-1.3785610246
 20
12.9953384701
 30
0.0
 10
-1.3794094583
 20
13.0455159493
 30
0.0
 10
-1.3800403865
 20
13.0816977789
 30
0.0
 10
-1.3806710904
 20
13.116391538
 30
0.0
 10
-1.3813011992
 20
13.1492593631
 30
0.0
 10
-1.3819304712
 20
13.1799711694
 30
0.0
 10
-1.3824667442
 20
13.2040713295
 30
0.0
 10
-1.38289956
 20
13.2220385849
 30
0.0
 10
-1.3832158683
 20
13.234452414
 30
0.0
 10
-1.3835320302
 20
13.2461180872
 30
0.0
 10
-1.3838480146
 20
13.2570081894
 30
0.0
 10
-1.3841637638
 20
13.2670953077
 30
0.0
 10
-1.3844792133
 20
13.2763520307
 30
0.0
 10
-1.3847942161
 20
13.28475102
 30
0.0
 10
-1.3851088279
 20
13.2922675215
 30
0.0
 10
-1.3853794883
 20
13.2979699031
 30
0.0
 10
-1.3855983447
 20
13.3020768818
 30
0.0
 10
-1.3857563701
 20
13.3048136386
 30
0.0
 10
-1.385914274
 20
13.3073196058
 30
0.0
 10
-1.3860720322
 20
13.3095936764
 30
0.0
 10
-1.386229585
 20
13.311634752
 30
0.0
 10
-1.3863868664
 20
13.3134417376
 30
0.0
 10
-1.3865437042
 20
13.3150135843
 30
0.0
 10
-1.3867000097
 20
13.3163492206
 30
0.0
 10
-1.386836038
 20
13.3173133774
 30
0.0
 10
-1.3869475045
 20
13.3179650595
 30
0.0
 10
-1.3870260466
 20
13.3183651103
 30
0.0
 10
-1.3871042672
 20
13.318705423
 30
0.0
 10
-1.3871823023
 20
13.3189859989
 30
0.0
 10
-1.3872593224
 20
13.3192071724
 30
0.0
 10
-1.3873369645
 20
13.3193696879
 30
0.0
 10
-1.3874123022
 20
13.3194769608
 30
0.0
 10
-1.3875046677
 20
13.3195317987
 30
0.0
 10
-1.3876031457
 20
13.3194975083
 30
0.0
 10
-1.3876445907
 20
13.3194442431
 30
0.0
 10
-1.3876665111
 20
13.3194127051
 30
0.0
  0
SPLINE
  5
2D0
100
AcDbEntity
  8
0
100
AcDbSpline
 62
7
  6
CONTINUOUS
 70
0
 71
3
 72
38
 73
34
 74
0
 42
0.0000001
 43
0.0000001
 44
0.0000000001
 40
0.0
 40
0.0
 40
0.0
 40
0.0
 40
0.0972291106
 40
0.1936788176
 40
0.2882939838
 40
0.3801917784
 40
0.4685041297
 40
0.5523596998
 40
0.6309532263
 40
0.7035349595
 40
0.7694162882
 40
0.7996409032
 40
0.8279611655
 40
0.854310874
 40
0.8786246902
 40
0.9008469075
 40
0.9209279493
 40
0.9388183839
 40
0.9544734254
 40
0.9678614351
 40
0.9736962051
 40
0.9789533339
 40
0.9836292617
 40
0.9877210828
 40
0.9912275951
 40
0.9941480578
 40
0.99648212
 40
0.997429409
 40
0.9982304732
 40
0.9988858392
 40
0.9993966211
 40
0.9997654351
 40
1.0
 40
1.0
 40
1.0
 40
1.0
 10
-1.3876147815
 20
12.9316708734
 30
0.0
 10
-1.3874817885
 20
12.9188894317
 30
0.0
 10
-1.3871939191
 20
12.893429251
 30
0.0
 10
-1.3867622903
 20
12.8555314093
 30
0.0
 10
-1.3863784001
 20
12.8183339659
 30
0.0
 10
-1.3859916484
 20
12.782206382
 30
0.0
 10
-1.3855877973
 20
12.7474935764
 30
0.0
 10
-1.3851907027
 20
12.71452985
 30
0.0
 10
-1.3848004995
 20
12.6836342027
 30
0.0
 10
-1.3844078219
 20
12.6551017572
 30
0.0
 10
-1.3840717621
 20
12.6329279263
 30
0.0
 10
-1.3838014683
 20
12.6165725829
 30
0.0
 10
-1.3836049089
 20
12.6054137244
 30
0.0
 10
-1.3834084414
 20
12.5950320503
 30
0.0
 10
-1.3832116996
 20
12.5854522099
 30
0.0
 10
-1.3830148132
 20
12.5766966653
 30
0.0
 10
-1.3828181453
 20
12.5687857935
 30
0.0
 10
-1.3826220471
 20
12.5617385474
 30
0.0
 10
-1.3824267495
 20
12.5555715561
 30
0.0
 10
-1.3822581486
 20
12.5509894419
 30
0.0
 10
-1.3821211782
 20
12.5477741207
 30
0.0
 10
-1.3820233846
 20
12.5457035176
 30
0.0
 10
-1.381925803
 20
12.5438623204
 30
0.0
 10
-1.3818284453
 20
12.5422516201
 30
0.0
 10
-1.3817314987
 20
12.5408721402
 30
0.0
 10
-1.3816350135
 20
12.5397244024
 30
0.0
 10
-1.3815507319
 20
12.5389133201
 30
0.0
 10
-1.3814810407
 20
12.5383811662
 30
0.0
 10
-1.3814326797
 20
12.5380687851
 30
0.0
 10
-1.3813846612
 20
12.5378147675
 30
0.0
 10
-1.3813372258
 20
12.5376180553
 30
0.0
 10
-1.3812907273
 20
12.5374798709
 30
0.0
 10
-1.3812532088
 20
12.5374075783
 30
0.0
 10
-1.3812314073
 20
12.5373857698
 30
0.0
  0
SPLINE
  5
2D1
100
AcDbEntity
  8
0
100
AcDbSpline
 62
7
  6
CONTINUOUS
 70
0
 71
3
 72
36
 73
32
 74
0
 42
0.0000001
 43
0.0000001
 44
0.0000000001
 40
0.0
 40
0.0
 40
0.0
 40
0.0
 40
0.0005025867
 40
0.0009288791
 40
0.0014920386
 40
0.002197498
 40
0.0030479694
 40
0.0040449838
 40
0.0051894857
 40
0.0079229259
 40
0.0112494181
 40
0.0196755554
 40
0.0304517358
 40
0.0435576362
 40
0.0589662657
 40
0.0766370284
 40
0.0965270153
 40
0.118592854
 40
0.1427826129
 40
0.1690340906
 40
0.1972844169
 40
0.2274697653
 40
0.2933434217
 40
0.3660171257
 40
0.4447947006
 40
0.5289199319
 40
0.6175769019
 40
0.7099048735
 40
0.8050393877
 40
0.9020886095
 40
1.0
 40
1.0
 40
1.0
 40
1.0
 10
-1.377517776
 20
12.5438232179
 30
0.0
 10
-1.3775828025
 20
12.5438234322
 30
0.0
 10
-1.377679275
 20
12.5439330546
 30
0.0
 10
-1.37776088
 20
12.5440993894
 30
0.0
 10
-1.3778388468
 20
12.5443076862
 30
0.0
 10
-1.377914632
 20
12.5445702578
 30
0.0
 10
-1.377991772
 20
12.5448918922
 30
0.0
 10
-1.3780688374
 20
12.545271196
 30
0.0
 10
-1.3781785846
 20
12.5458924215
 30
0.0
 10
-1.3783124188
 20
12.546815066
 30
0.0
 10
-1.3785353934
 20
12.5486761454
 30
0.0
 10
-1.3788028289
 20
12.5515791585
 30
0.0
 10
-1.3791087658
 20
12.5557482089
 30
0.0
 10
-1.3794162909
 20
12.560822628
 30
0.0
 10
-1.3797251597
 20
12.5667903457
 30
0.0
 10
-1.3800347952
 20
12.5736368033
 30
0.0
 10
-1.3803450123
 20
12.5813453431
 30
0.0
 10
-1.3806555676
 20
12.5898979374
 30
0.0
 10
-1.3809664028
 20
12.59927409
 30
0.0
 10
-1.3812775698
 20
12.6094508112
 30
0.0
 10
-1.3815890666
 20
12.6204035939
 30
0.0
 10
-1.3820173595
 20
12.6364815971
 30
0.0
 10
-1.3825476216
 20
12.6583065824
 30
0.0
 10
-1.3831654338
 20
12.686418288
 30
0.0
 10
-1.3837832737
 20
12.7168919822
 30
0.0
 10
-1.384411242
 20
12.7494338601
 30
0.0
 10
-1.3850397483
 20
12.7837292597
 30
0.0
 10
-1.3856380041
 20
12.81944983
 30
0.0
 10
-1.3862454764
 20
12.8562562322
 30
0.0
 10
-1.3869382906
 20
12.8937836538
 30
0.0
 10
-1.3873938871
 20
12.9190044356
 30
0.0
 10
-1.387601776
 20
12.9316709454
 30
0.0
  0
LINE
  5
2D2
100
AcDbEntity
  8
0
100
AcDbLine
 62
9
  6
CONTINUOUS
 10
0.0229827856
 20
12.3816711665
 11
-0.6270167407
 21
12.9316706017
  0
LINE
  5
2D3
100
AcDbEntity
  8
0
100
AcDbLine
 62
9
  6
CONTINUOUS
 10
-0.0770165109
 20
12.2816708734
 11
-0.6270165109
 21
12.9316708734
  0
LINE
  5
2D4
100
AcDbEntity
  8
0
100
AcDbLine
 62
9
  6
CONTINUOUS
 10
-1.1770165109
 20
12.2816708734
 11
-0.6270165109
 21
12.9316708734
  0
SPLINE
  5
2D5
100
AcDbEntity
  8
0
100
AcDbSpline
 62
7
  6
CONTINUOUS
 70
0
 71
3
 72
17
 73
13
 74
0
 42
0.0000001
 43
0.0000001
 44
0.0000000001
 40
0.0
 40
0.0
 40
0.0
 40
0.0
 40
0.1166044674
 40
0.2399485119
 40
0.303837405
 40
0.3687697149
 40
0.4999996926
 40
0.6312297236
 40
0.6961620959
 40
0.7600510705
 40
0.8833953165
 40
1.0
 40
1.0
 40
1.0
 40
1.0
 10
21.3629829286
 20
8.0741708734
 30
0.0
 10
21.3629828924
 20
8.0705126899
 30
0.0
 10
21.3636831782
 20
8.0629702981
 30
0.0
 10
21.3663202794
 20
8.0537439373
 30
0.0
 10
21.3696234655
 20
8.0465415449
 30
0.0
 10
21.3737479659
 20
8.0394901448
 30
0.0
 10
21.3802426986
 20
8.0314306106
 30
0.0
 10
21.3883021863
 20
8.0249358174
 30
0.0
 10
21.39535356
 20
8.0208112596
 30
0.0
 10
21.4025559359
 20
8.0175080116
 30
0.0
 10
21.411782289
 20
8.0148708279
 30
0.0
 10
21.4193246869
 20
8.0141704705
 30
0.0
 10
21.4229828772
 20
8.0141704708
 30
0.0
  0
SPLINE
  5
2D6
100
AcDbEntity
  8
0
100
AcDbSpline
 62
7
  6
CONTINUOUS
 70
0
 71
3
 72
17
 73
13
 74
0
 42
0.0000001
 43
0.0000001
 44
0.0000000001
 40
0.0
 40
0.0
 40
0.0
 40
0.0
 40
0.1166044641
 40
0.2399484972
 40
0.3038373817
 40
0.3687696819
 40
0.499999642
 40
0.6312296624
 40
0.6961620331
 40
0.7600510101
 40
0.8833952766
 40
1.0
 40
1.0
 40
1.0
 40
1.0
 10
20.1629840103
 20
8.0741708734
 30
0.0
 10
20.1629840439
 20
8.0705126933
 30
0.0
 10
20.1622837547
 20
8.0629703095
 30
0.0
 10
20.1596466534
 20
8.0537439589
 30
0.0
 10
20.1563434702
 20
8.0465415743
 30
0.0
 10
20.1522189747
 20
8.0394901814
 30
0.0
 10
20.145724251
 20
8.0314306541
 30
0.0
 10
20.1376647751
 20
8.0249358632
 30
0.0
 10
20.1306134111
 20
8.0208113046
 30
0.0
 10
20.1234110438
 20
8.0175080538
 30
0.0
 10
20.1141846997
 20
8.0148708639
 30
0.0
 10
20.1066423076
 20
8.0141704995
 30
0.0
 10
20.1029841194
 20
8.014170496
 30
0.0
  0
SPLINE
  5
2D7
100
AcDbEntity
  8
0
100
AcDbSpline
 62
9
  6
CONTINUOUS
 70
0
 71
3
 72
97
 73
93
 74
0
 42
0.0000001
 43
0.0000001
 44
0.0000000001
 40
0.0
 40
0.0
 40
0.0
 40
0.0
 40
0.000003459
 40
0.0000135267
 40
0.0000302123
 40
0.0000535249
 40
0.0001200665
 40
0.0002132232
 40
0.0003330666
 40
0.0004796686
 40
0.0006531015
 40
0.0008534375
 40
0.0013351092
 40
0.0019249868
 40
0.002622141
 40
0.0034253019
 40
0.0043331978
 40
0.0053445571
 40
0.007672646
 40
0.0103998131
 40
0.01351641
 40
0.0170121637
 40
0.0208756326
 40
0.0250952054
 40
0.0296583457
 40
0.0397615924
 40
0.0510783671
 40
0.0635032395
 40
0.0769349507
 40
0.0912773918
 40
0.106442421
 40
0.1223488041
 40
0.1389223561
 40
0.173813261
 40
0.2106632566
 40
0.2491076088
 40
0.2888521258
 40
0.3296569333
 40
0.3504002146
 40
0.371342204
 40
0.3924626218
 40
0.4137431671
 40
0.4351644921
 40
0.4567019687
 40
0.4783238281
 40
0.4999907428
 40
0.5108306725
 40
0.5216648911
 40
0.5324873282
 40
0.5432923053
 40
0.5648292968
 40
0.5862511281
 40
0.6075334334
 40
0.6286541237
 40
0.6495954821
 40
0.6703387468
 40
0.7111473695
 40
0.7508935355
 40
0.7893329926
 40
0.8261781074
 40
0.8610703299
 40
0.8776469623
 40
0.8935572772
 40
0.9087261693
 40
0.9230713809
 40
0.9365037715
 40
0.9489274664
 40
0.9602416229
 40
0.9703407431
 40
0.9749018923
 40
0.9791201586
 40
0.9829831821
 40
0.9864792266
 40
0.9895967076
 40
0.9923252005
 40
0.99465492
 40
0.9956671483
 40
0.9965758531
 40
0.9973796697
 40
0.9980772342
 40
0.9986671841
 40
0.9991485331
 40
0.9993485979
 40
0.9995217187
 40
0.9996679919
 40
0.9997875137
 40
0.99988038
 40
0.9999466863
 40
0.9999699092
 40
0.9999865278
 40
0.999996554
 40
1.0
 40
1.0
 40
1.0
 40
1.0
 10
21.4229828771
 20
8.0141708734
 30
0.0
 10
21.4229811447
 20
8.0141703834
 30
0.0
 10
21.4229765517
 20
8.0141643157
 30
0.0
 10
21.42296387
 20
8.0141555255
 30
0.0
 10
21.422944512
 20
8.0141377451
 30
0.0
 10
21.422902197
 20
8.0141021029
 30
0.0
 10
21.422830105
 20
8.0140396992
 30
0.0
 10
21.4227195087
 20
8.0139452323
 30
0.0
 10
21.422577231
 20
8.0138236003
 30
0.0
 10
21.4224029248
 20
8.0136751719
 30
0.0
 10
21.422196482
 20
8.0134998506
 30
0.0
 10
21.4218566631
 20
8.0132121727
 30
0.0
 10
21.4213503672
 20
8.0127856825
 30
0.0
 10
21.4206444944
 20
8.0121947567
 30
0.0
 10
21.4198091908
 20
8.0114977709
 30
0.0
 10
21.4188461381
 20
8.0106955315
 30
0.0
 10
21.4177571885
 20
8.0097889165
 30
0.0
 10
21.4160584178
 20
8.0083743031
 30
0.0
 10
21.4136332646
 20
8.0063522604
 30
0.0
 10
21.410367492
 20
8.0036273808
 30
0.0
 10
21.4066352979
 20
8.0005128829
 30
0.0
 10
21.4024484039
 20
7.9970201979
 30
0.0
 10
21.397818743
 20
7.9931620999
 30
0.0
 10
21.3927591965
 20
7.9889520695
 30
0.0
 10
21.3851978556
 20
7.982671199
 30
0.0
 10
21.3747833742
 20
7.9740440528
 30
0.0
 10
21.3611954447
 20
7.9628336016
 30
0.0
 10
21.3462420087
 20
7.9505561391
 30
0.0
 10
21.3300356271
 20
7.9373231281
 30
0.0
 10
21.3126812174
 20
7.9232413006
 30
0.0
 10
21.2942737323
 20
7.9084133288
 30
0.0
 10
21.2748988708
 20
7.8929354296
 30
0.0
 10
21.2474031532
 20
7.8711743527
 30
0.0
 10
21.2111298698
 20
7.8429395838
 30
0.0
 10
21.1653752081
 20
7.8083608762
 30
0.0
 10
21.1169091359
 20
7.7731936499
 30
0.0
 10
21.0658087133
 20
7.7381857466
 30
0.0
 10
21.0212166672
 20
7.7100200344
 30
0.0
 10
20.9839721189
 20
7.6886478612
 30
0.0
 10
20.9550614522
 20
7.6733746388
 30
0.0
 10
20.9252676577
 20
7.6592305723
 30
0.0
 10
20.8945376273
 20
7.6465679471
 30
0.0
 10
20.8628348293
 20
7.6358552028
 30
0.0
 10
20.8301975682
 20
7.6276427535
 30
0.0
 10
20.7968086439
 20
7.6224395035
 30
0.0
 10
20.768621436
 20
7.6209190486
 30
0.0
 10
20.7460616814
 20
7.6214926309
 30
0.0
 10
20.7291922658
 20
7.6228229422
 30
0.0
 10
20.7124321013
 20
7.6250142661
 30
0.0
 10
20.6903189145
 20
7.6290230065
 30
0.0
 10
20.663152338
 20
7.635885093
 30
0.0
 10
20.6314427044
 20
7.6465750118
 30
0.0
 10
20.6007043139
 20
7.6592229083
 30
0.0
 10
20.5709116375
 20
7.6733713284
 30
0.0
 10
20.542006122
 20
7.6886540069
 30
0.0
 10
20.5047653865
 20
7.7100355759
 30
0.0
 10
20.4601501671
 20
7.7381690775
 30
0.0
 10
20.4090443457
 20
7.7731710522
 30
0.0
 10
20.3606048784
 20
7.8083678592
 30
0.0
 10
20.3148679591
 20
7.8429624279
 30
0.0
 10
20.2785898322
 20
7.8711904167
 30
0.0
 10
20.2510816767
 20
7.8929427576
 30
0.0
 10
20.231695259
 20
7.9084152543
 30
0.0
 10
20.2132773384
 20
7.9232390386
 30
0.0
 10
20.195916001
 20
7.9373183756
 30
0.0
 10
20.1797081436
 20
7.9505514574
 30
0.0
 10
20.1647578782
 20
7.9628302284
 30
0.0
 10
20.1511760721
 20
7.974041625
 30
0.0
 10
20.1407691442
 20
7.9826707619
 30
0.0
 10
20.1332137181
 20
7.9889527035
 30
0.0
 10
20.1281569955
 20
7.9931630808
 30
0.0
 10
20.1235282929
 20
7.9970211404
 30
0.0
 10
20.1193407781
 20
8.0005136739
 30
0.0
 10
20.1156067422
 20
8.0036279958
 30
0.0
 10
20.1123382298
 20
8.0063527114
 30
0.0
 10
20.1099103105
 20
8.0083745448
 30
0.0
 10
20.1082091554
 20
8.009788985
 30
0.0
 10
20.1071185668
 20
8.0106955291
 30
0.0
 10
20.1061541855
 20
8.0114976976
 30
0.0
 10
20.1053180517
 20
8.012194613
 30
0.0
 10
20.1046120073
 20
8.0127854642
 30
0.0
 10
20.1041061443
 20
8.013212048
 30
0.0
 10
20.1037670129
 20
8.0134998078
 30
0.0
 10
20.1035611983
 20
8.013675135
 30
0.0
 10
20.1033875555
 20
8.013823569
 30
0.0
 10
20.1032459277
 20
8.0139452076
 30
0.0
 10
20.1031359172
 20
8.0140396792
 30
0.0
 10
20.1030642578
 20
8.0141020954
 30
0.0
 10
20.1030222153
 20
8.0141377398
 30
0.0
 10
20.103002998
 20
8.0141555276
 30
0.0
 10
20.1029903951
 20
8.0141643088
 30
0.0
 10
20.1029858464
 20
8.0141703888
 30
0.0
 10
20.1029841195
 20
8.0141708734
 30
0.0
  0
SPLINE
  5
2D8
100
AcDbEntity
  8
0
100
AcDbSpline
 62
7
  6
CONTINUOUS
 70
0
 71
3
 72
8
 73
4
 74
0
 42
0.0000001
 43
0.0000001
 44
0.0000000001
 40
0.0
 40
0.0
 40
0.0
 40
0.0
 40
1.0
 40
1.0
 40
1.0
 40
1.0
 10
19.8489836081
 20
6.9934791834
 30
0.0
 10
19.8489838434
 20
6.993467624
 30
0.0
 10
19.8489840787
 20
6.9934560646
 30
0.0
 10
19.8489843141
 20
6.9934445052
 30
0.0
  0
SPLINE
  5
2D9
100
AcDbEntity
  8
0
100
AcDbSpline
 62
7
  6
CONTINUOUS
 70
0
 71
3
 72
13
 73
9
 74
0
 42
0.0000001
 43
0.0000001
 44
0.0000000001
 40
0.0
 40
0.0
 40
0.0
 40
0.0
 40
0.385585426
 40
0.6804600973
 40
0.7939015485
 40
0.8847637096
 40
0.9532619006
 40
1.0
 40
1.0
 40
1.0
 40
1.0
 10
19.8524835056
 20
6.8846658674
 30
0.0
 10
19.8525445477
 20
6.8839705838
 30
0.0
 10
19.8526620831
 20
6.8827444862
 30
0.0
 10
19.852836993
 20
6.8813175428
 30
0.0
 10
19.85298407
 20
6.8804260237
 30
0.0
 10
19.8530834674
 20
6.8799418259
 30
0.0
 10
19.8531817147
 20
6.8795822783
 30
0.0
 10
19.8532583557
 20
6.8793862453
 30
0.0
 10
19.8533020795
 20
6.8793138181
 30
0.0
  0
LINE
  5
2DA
100
AcDbEntity
  8
0
100
AcDbLine
 62
7
  6
CONTINUOUS
 10
19.8533020795
 20
6.8793138181
 11
19.8534341984
 21
6.879199805
  0
SPLINE
  5
2DB
100
AcDbEntity
  8
0
100
AcDbSpline
 62
7
  6
CONTINUOUS
 70
0
 71
3
 72
31
 73
27
 74
0
 42
0.0000001
 43
0.0000001
 44
0.0000000001
 40
0.0
 40
0.0
 40
0.0
 40
0.0
 40
0.214475178
 40
0.3148192508
 40
0.4098328898
 40
0.4990720034
 40
0.5821485763
 40
0.6586752051
 40
0.7282645932
 40
0.7905296124
 40
0.8450854575
 40
0.8693748783
 40
0.8916456384
 40
0.9118807235
 40
0.9300632202
 40
0.94617637
 40
0.9602036638
 40
0.9721290229
 40
0.9819371788
 40
0.9896145894
 40
0.9951521511
 40
0.9971198626
 40
0.9985593569
 40
0.9990864104
 40
0.9994917186
 40
1.0
 40
1.0
 40
1.0
 40
1.0
 10
19.8629834817
 20
7.5434809116
 30
0.0
 10
19.8626987483
 20
7.5620395124
 30
0.0
 10
19.8622679797
 20
7.5892807258
 30
0.0
 10
19.8616660233
 20
7.624742756
 30
0.0
 10
19.8612246165
 20
7.6493679508
 30
0.0
 10
19.8607833762
 20
7.6724985569
 30
0.0
 10
19.860342512
 20
7.6940289858
 30
0.0
 10
19.8599021415
 20
7.7138585452
 30
0.0
 10
19.8594624811
 20
7.7318865991
 30
0.0
 10
19.8590237782
 20
7.7480126892
 30
0.0
 10
19.8586460738
 20
7.7602186465
 30
0.0
 10
19.8583397206
 20
7.7689639233
 30
0.0
 10
19.8581191165
 20
7.7747402183
 30
0.0
 10
19.8578987362
 20
7.7799876057
 30
0.0
 10
19.8576786563
 20
7.7847016094
 30
0.0
 10
19.8574589612
 20
7.7888777518
 30
0.0
 10
19.8572399661
 20
7.7925116116
 30
0.0
 10
19.8570216513
 20
7.7955987017
 30
0.0
 10
19.856805673
 20
7.7981349678
 30
0.0
 10
19.8565906039
 20
7.8001158311
 30
0.0
 10
19.8564039514
 20
7.8014171918
 30
0.0
 10
19.8562409941
 20
7.8021746982
 30
0.0
 10
19.8561474882
 20
7.8025018284
 30
0.0
 10
19.8560651608
 20
7.8026920898
 30
0.0
 10
19.8560051932
 20
7.8027973547
 30
0.0
 10
19.855936671
 20
7.802860855
 30
0.0
 10
19.8558926841
 20
7.8028608728
 30
0.0
  0
SPLINE
  5
2DC
100
AcDbEntity
  8
0
100
AcDbSpline
 62
7
  6
CONTINUOUS
 70
0
 71
3
 72
32
 73
28
 74
0
 42
0.0000001
 43
0.0000001
 44
0.0000000001
 40
0.0
 40
0.0
 40
0.0
 40
0.0
 40
0.0198720423
 40
0.0427917788
 40
0.0970648643
 40
0.1613979768
 40
0.2341651979
 40
0.3133369516
 40
0.3968315982
 40
0.4824571803
 40
0.5679074932
 40
0.6508855894
 40
0.7292301282
 40
0.8008536667
 40
0.8335043201
 40
0.863768118
 40
0.8914644689
 40
0.9164128306
 40
0.9384327394
 40
0.9573454319
 40
0.9730230063
 40
0.9796274671
 40
0.9853985579
 40
0.9903285585
 40
0.994409969
 40
0.9976357492
 40
1.0
 40
1.0
 40
1.0
 40
1.0
 10
19.8629834891
 20
6.9433689643
 30
0.0
 10
19.8627981227
 20
6.9490487875
 30
0.0
 10
19.8624357282
 20
6.9612807262
 30
0.0
 10
19.8617204318
 20
6.9890293782
 30
0.0
 10
19.8608521526
 20
7.0294926718
 30
0.0
 10
19.8598506758
 20
7.0842109774
 30
0.0
 10
19.8588468094
 20
7.14605062
 30
0.0
 10
19.8578385891
 20
7.2133704965
 30
0.0
 10
19.8568291016
 20
7.2843678733
 30
0.0
 10
19.8558192684
 20
7.3571609101
 30
0.0
 10
19.8548094806
 20
7.4298062146
 30
0.0
 10
19.8538000185
 20
7.5003691472
 30
0.0
 10
19.8527922949
 20
7.5669776112
 30
0.0
 10
19.8519317528
 20
7.6191943935
 30
0.0
 10
19.8512313272
 20
7.6576621225
 30
0.0
 10
19.8507226935
 20
7.6835692909
 30
0.0
 10
19.8502148772
 20
7.7072733795
 30
0.0
 10
19.8497080911
 20
7.7286193762
 30
0.0
 10
19.8492031293
 20
7.7474527633
 30
0.0
 10
19.8486997958
 20
7.7636339106
 30
0.0
 10
19.8482616161
 20
7.7754064445
 30
0.0
 10
19.8479023623
 20
7.7834208397
 30
0.0
 10
19.8476492483
 20
7.7883633205
 30
0.0
 10
19.8473970678
 20
7.7925832083
 30
0.0
 10
19.8471469305
 20
7.7960739591
 30
0.0
 10
19.8468988753
 20
7.7988285714
 30
0.0
 10
19.8467101222
 20
7.8004167398
 30
0.0
 10
19.8466057657
 20
7.8010847471
 30
0.0
  0
LINE
  5
2DD
100
AcDbEntity
  8
0
100
AcDbLine
 62
7
  6
CONTINUOUS
 10
19.8466057657
 20
7.8010847471
 11
19.8461976977
 21
7.8027381397
  0
SPLINE
  5
2DE
100
AcDbEntity
  8
0
100
AcDbSpline
 62
7
  6
CONTINUOUS
 70
0
 71
3
 72
15
 73
11
 74
0
 42
0.0000001
 43
0.0000001
 44
0.0000000001
 40
0.0
 40
0.0
 40
0.0
 40
0.0
 40
0.1411184112
 40
0.2808062201
 40
0.4173127924
 40
0.5491164594
 40
0.6746979433
 40
0.7925916303
 40
0.901464091
 40
1.0
 40
1.0
 40
1.0
 40
1.0
 10
19.845581273
 20
7.3516708734
 30
0.0
 10
19.8457234705
 20
7.3348176997
 30
0.0
 10
19.8459922162
 20
7.3012820854
 30
0.0
 10
19.8464021737
 20
7.2514440972
 30
0.0
 10
19.8468378792
 20
7.2027188303
 30
0.0
 10
19.8472731684
 20
7.1556783505
 30
0.0
 10
19.8477069243
 20
7.1108608908
 30
0.0
 10
19.8481392439
 20
7.0687822273
 30
0.0
 10
19.8485508221
 20
7.0299335803
 30
0.0
 10
19.848831982
 20
7.0051643814
 30
0.0
 10
19.8489780915
 20
6.9933971436
 30
0.0
  0
SPLINE
  5
2DF
100
AcDbEntity
  8
0
100
AcDbSpline
 62
7
  6
CONTINUOUS
 70
0
 71
3
 72
17
 73
13
 74
0
 42
0.0000001
 43
0.0000001
 44
0.0000000001
 40
0.0
 40
0.0
 40
0.0
 40
0.0
 40
0.0119705022
 40
0.0304572291
 40
0.0556384602
 40
0.0875755603
 40
0.1717996692
 40
0.2832005558
 40
0.4217660221
 40
0.5874591324
 40
0.7802321591
 40
1.0
 40
1.0
 40
1.0
 40
1.0
 10
19.8394142028
 20
7.8144837786
 30
0.0
 10
19.8394367981
 20
7.8144471193
 30
0.0
 10
19.8394744756
 20
7.8143428205
 30
0.0
 10
19.8395227318
 20
7.8141489895
 30
0.0
 10
19.8395715286
 20
7.8138810501
 30
0.0
 10
19.8396444955
 20
7.813377909
 30
0.0
 10
19.8397308315
 20
7.8125635135
 30
0.0
 10
19.8398294135
 20
7.8113653464
 30
0.0
 10
19.8399284647
 20
7.8098732386
 30
0.0
 10
19.8400279953
 20
7.8080879491
 30
0.0
 10
19.8401275365
 20
7.8060101397
 30
0.0
 10
19.8401897611
 20
7.8045273395
 30
0.0
 10
19.8402212005
 20
7.8037373592
 30
0.0
  0
SPLINE
  5
2E0
100
AcDbEntity
  8
0
100
AcDbSpline
 62
7
  6
CONTINUOUS
 70
0
 71
3
 72
10
 73
6
 74
0
 42
0.0000001
 43
0.0000001
 44
0.0000000001
 40
0.0
 40
0.0
 40
0.0
 40
0.0
 40
0.1777723209
 40
0.4028025349
 40
1.0
 40
1.0
 40
1.0
 40
1.0
 10
19.8475560896
 20
6.8807015096
 30
0.0
 10
19.847440877
 20
6.8808922108
 30
0.0
 10
19.847219559
 20
6.8813479537
 30
0.0
 10
19.8467826652
 20
6.8825233718
 30
0.0
 10
19.8465215023
 20
6.8835228382
 30
0.0
 10
19.8463492668
 20
6.8842512201
 30
0.0
  0
SPLINE
  5
2E1
100
AcDbEntity
  8
0
100
AcDbSpline
 62
7
  6
CONTINUOUS
 70
0
 71
3
 72
11
 73
7
 74
0
 42
0.0000001
 43
0.0000001
 44
0.0000000001
 40
0.0
 40
0.0
 40
0.0
 40
0.0
 40
0.1798600304
 40
0.4065582284
 40
0.6800074611
 40
1.0
 40
1.0
 40
1.0
 40
1.0
 10
19.8463492668
 20
6.8842512201
 30
0.0
 10
19.8461099892
 20
6.8852631221
 30
0.0
 10
19.8456549765
 20
6.8875704683
 30
0.0
 10
19.8450428535
 20
6.8914541334
 30
0.0
 10
19.8444264845
 20
6.8961557506
 30
0.0
 10
19.8440427965
 20
6.8995651695
 30
0.0
 10
19.8438475418
 20
6.9014047784
 30
0.0
  0
SPLINE
  5
2E2
100
AcDbEntity
  8
0
100
AcDbSpline
 62
7
  6
CONTINUOUS
 70
0
 71
3
 72
8
 73
4
 74
0
 42
0.0000001
 43
0.0000001
 44
0.0000000001
 40
0.0
 40
0.0
 40
0.0
 40
0.0
 40
1.0
 40
1.0
 40
1.0
 40
1.0
 10
19.8329850787
 20
7.1065217155
 30
0.0
 10
19.8329846376
 20
7.1065334046
 30
0.0
 10
19.8329841965
 20
7.1065450937
 30
0.0
 10
19.8329837554
 20
7.1065567827
 30
0.0
  0
SPLINE
  5
2E3
100
AcDbEntity
  8
0
100
AcDbSpline
 62
7
  6
CONTINUOUS
 70
0
 71
3
 72
12
 73
8
 74
0
 42
0.0000001
 43
0.0000001
 44
0.0000000001
 40
0.0
 40
0.0
 40
0.0
 40
0.0
 40
0.0677162681
 40
0.1521597377
 40
0.370530134
 40
0.6536774558
 40
1.0
 40
1.0
 40
1.0
 40
1.0
 10
19.8352243703
 20
6.9060620059
 30
0.0
 10
19.835115068
 20
6.9072967128
 30
0.0
 10
19.8349064485
 20
6.9100743632
 30
0.0
 10
19.8344948133
 20
6.9168444502
 30
0.0
 10
19.8340049713
 20
6.9275596672
 30
0.0
 10
19.8334446972
 20
6.9430691719
 30
0.0
 10
19.8331030219
 20
6.9545865402
 30
0.0
 10
19.8329271797
 20
6.9609234796
 30
0.0
  0
SPLINE
  5
2E4
100
AcDbEntity
  8
0
100
AcDbSpline
 62
9
  6
CONTINUOUS
 70
0
 71
3
 72
63
 73
59
 74
0
 42
0.0000001
 43
0.0000001
 44
0.0000000001
 40
0.0
 40
0.0
 40
0.0
 40
0.0
 40
0.0000550109
 40
0.0002177629
 40
0.0004874676
 40
0.0008633367
 40
0.0019304153
 40
0.0034126925
 40
0.0053038626
 40
0.0075976198
 40
0.0102876587
 40
0.013367674
 40
0.0206636107
 40
0.0293909831
 40
0.0394465606
 40
0.0507271373
 40
0.0631314725
 40
0.0765661158
 40
0.106160573
 40
0.1388136754
 40
0.17396572
 40
0.2111216789
 40
0.2499015903
 40
0.2899669373
 40
0.3310171944
 40
0.3728005425
 40
0.4150506192
 40
0.43629121
 40
0.457547339
 40
0.4999996328
 40
0.5424520728
 40
0.5637083069
 40
0.5849489827
 40
0.6271991366
 40
0.6689825112
 40
0.7100328266
 40
0.7500982527
 40
0.7888782322
 40
0.8260342312
 40
0.8611862801
 40
0.8938393655
 40
0.9234338045
 40
0.9368684449
 40
0.9492727847
 40
0.9605533749
 40
0.9706089696
 40
0.9793363559
 40
0.9866322968
 40
0.9897123089
 40
0.9924023425
 40
0.9946960943
 40
0.996587261
 40
0.9980695388
 40
0.9991366239
 40
0.9995124992
 40
0.9997822124
 40
0.9999449753
 40
1.0
 40
1.0
 40
1.0
 40
1.0
 10
21.3629829286
 20
8.0741704343
 30
0.0
 10
21.3629640964
 20
8.0741503031
 30
0.0
 10
21.3628858097
 20
8.0740742156
 30
0.0
 10
21.3627149669
 20
8.073899652
 30
0.0
 10
21.3624286518
 20
8.0736130997
 30
0.0
 10
21.3618239342
 20
8.0730041203
 30
0.0
 10
21.3607896356
 20
8.0719653716
 30
0.0
 10
21.3592196416
 20
8.0703884773
 30
0.0
 10
21.3572149172
 20
8.0683769845
 30
0.0
 10
21.3547821237
 20
8.0659376488
 30
0.0
 10
21.3519274976
 20
8.0630776348
 30
0.0
 10
21.3473002897
 20
8.0584452696
 30
0.0
 10
21.3405305465
 20
8.0516769128
 30
0.0
 10
21.3312764853
 20
8.0424494645
 30
0.0
 10
21.3205909025
 20
8.031829791
 30
0.0
 10
21.3085756072
 20
8.0199342429
 30
0.0
 10
21.2953288277
 20
8.0068758745
 30
0.0
 10
21.2754949572
 20
7.9874271589
 30
0.0
 10
21.2482905246
 20
7.9610025615
 30
0.0
 10
21.2130162857
 20
7.9272680637
 30
0.0
 10
21.1746081217
 20
7.891331974
 30
0.0
 10
21.1334305053
 20
7.853867941
 30
0.0
 10
21.0896663107
 20
7.8156026321
 30
0.0
 10
21.0434385354
 20
7.7772107519
 30
0.0
 10
20.9944591151
 20
7.7398358221
 30
0.0
 10
20.9425198044
 20
7.7046724152
 30
0.0
 10
20.8962076968
 20
7.6791268378
 30
0.0
 10
20.856970037
 20
7.6627459422
 30
0.0
 10
20.8163045766
 20
7.6500039983
 30
0.0
 10
20.7629840019
 20
7.6427185276
 30
0.0
 10
20.7096633538
 20
7.6500038491
 30
0.0
 10
20.668997687
 20
7.6627456977
 30
0.0
 10
20.6297598551
 20
7.6791265335
 30
0.0
 10
20.5834476394
 20
7.7046721185
 30
0.0
 10
20.5315082398
 20
7.7398355383
 30
0.0
 10
20.4825287477
 20
7.7772105105
 30
0.0
 10
20.4363008941
 20
7.8156024575
 30
0.0
 10
20.3925366327
 20
7.8538678326
 30
0.0
 10
20.3513589746
 20
7.8913319036
 30
0.0
 10
20.3129507893
 20
7.9272679905
 30
0.0
 10
20.2776765492
 20
7.9610024647
 30
0.0
 10
20.2504721276
 20
7.9874270459
 30
0.0
 10
20.2306382638
 20
8.0068757566
 30
0.0
 10
20.2173914803
 20
8.0199341316
 30
0.0
 10
20.2053761738
 20
8.0318296936
 30
0.0
 10
20.1946905763
 20
8.0424493841
 30
0.0
 10
20.1854365031
 20
8.0516768454
 30
0.0
 10
20.1786667543
 20
8.0584452072
 30
0.0
 10
20.1740395469
 20
8.0630775698
 30
0.0
 10
20.1711849248
 20
8.0659375779
 30
0.0
 10
20.1687521355
 20
8.0683769079
 30
0.0
 10
20.1667474127
 20
8.0703883964
 30
0.0
 10
20.1651774181
 20
8.0719652927
 30
0.0
 10
20.1641431117
 20
8.0730040433
 30
0.0
 10
20.1635383907
 20
8.073613034
 30
0.0
 10
20.1632520601
 20
8.0738995895
 30
0.0
 10
20.1630812179
 20
8.0740741763
 30
0.0
 10
20.1630029103
 20
8.0741502613
 30
0.0
 10
20.162984079
 20
8.0741704027
 30
0.0
  0
ENDSEC
  0
SECTION
  2
OBJECTS
  0
DICTIONARY
  5
C
100
AcDbDictionary
280
0
281
1
  3
ACAD_GROUP
350
D
  3
ACAD_MLINESTYLE
350
17
  3
ACAD_LAYOUT
350
1A
  3
ACAD_PLOTSETTINGS
350
19
  3
ACAD_PLOTSTYLENAME
350
E
  0
DICTIONARY
  5
D
102
{ACAD_REACTORS
330
C
102
}
100
AcDbDictionary
280
0
281
1
  0
ACDBDICTIONARYWDFLT
  5
E
102
{ACAD_REACTORS
330
C
102
}
100
AcDbDictionary
281
1
  3
Normal
350
F
100
AcDbDictionaryWithDefault
340
F
  0
DICTIONARY
  5
17
102
{ACAD_REACTORS
330
C
102
}
100
AcDbDictionary
280
0
281
1
  3
Standard
350
18
  0
DICTIONARY
  5
19
102
{ACAD_REACTORS
330
C
102
}
100
AcDbDictionary
281
1
  0
DICTIONARY
  5
1A
102
{ACAD_REACTORS
330
C
102
}
100
AcDbDictionary
281
1
  3
Model
350
2E5
  3
Layout1
350
2E6
  0
ACDBPLACEHOLDER
  5
F
102
{ACAD_REACTORS
330
E
102
}
  0
MLINESTYLE
  5
18
102
{ACAD_REACTORS
330
17
102
}
100
AcDbMlineStyle
  2
STANDARD
 70
0
  3

 62
256
 51
90.0
 52
90.0
 71
2
 49
0.5
 62
256
  6
BYLAYER
 49
-0.5
 62
256
  6
BYLAYER
  0
LAYOUT
  5
2E5
102
{ACAD_REACTORS
330
1A
102
}
100
AcDbPlotSettings
  1

  2
none_device
  4
ANSI_C_(22.00_x_17.00_Inches)
  6

 40
0.0
 41
0.0
 42
0.0
 43
0.0
 44
558.8
 45
431.8
 46
0.0
 47
0.0
 48
0.0
 49
0.0
140
0.0
141
0.0
142
1.0
143
1.0
 70
1024
 72
0
 73
0
 74
0
  7

 75
0
147
1.0
148
0.0
149
0.0
100
AcDbLayout
  1
Model
 70
0
 71
0
 10
0.0
 20
0.0
 11
22.0
 21
17.0
 12
0.0
 22
0.0
 32
0.0
 14
0.0
 24
0.0
 34
0.0
 15
0.0
 25
0.0
 35
0.0
146
0.0
 13
0.0
 23
0.0
 33
0.0
 16
1.0
 26
0.0
 36
0.0
 17
0.0
 27
1.0
 37
0.0
 76
0
330
202
345
0
346
0
  0
LAYOUT
  5
2E6
102
{ACAD_REACTORS
330
1A
102
}
100
AcDbPlotSettings
  1

  2
none_device
  4
ANSI_C_(22.00_x_17.00_Inches)
  6

 40
0.0
 41
0.0
 42
0.0
 43
0.0
 44
558.8
 45
431.8
 46
0.0
 47
0.0
 48
0.0
 49
0.0
140
0.0
141
0.0
142
1.0
143
1.0
 70
0
 72
0
 73
0
 74
0
  7

 75
0
147
1.0
148
0.0
149
0.0
100
AcDbLayout
  1
Layout1
 70
0
 71
1
 10
0.0
 20
0.0
 11
22.0
 21
17.0
 12
0.0
 22
0.0
 32
0.0
 14
0.0
 24
0.0
 34
0.0
 15
0.0
 25
0.0
 35
0.0
146
0.0
 13
0.0
 23
0.0
 33
0.0
 16
1.0
 26
0.0
 36
0.0
 17
0.0
 27
1.0
 37
0.0
 76
0
330
203
345
0
346
0
  0
ENDSEC
  0
EOF
