999
DXF file: 3200-5711_right.dxf
999
Pro/ENGINEER 2018400 by Parametric Technology Corporation
  0
SECTION
  2
HEADER
  9
$ACADVER
  1
AC1027
  9
$DWGCODEPAGE
  3
ANSI_1252
  9
$EXTMAX
 10
11.0
 20
8.5
 30
0.0
  9
$EXTMIN
 10
0.0
 20
0.0
 30
0.0
  9
$LIMMIN
 10
0.0
 20
0.0
  9
$LIMMAX
 10
11.0
 20
8.5
  9
$VIEWCTR
 10
5.5
 20
4.25
  9
$VIEWSIZE
 40
8.5
  9
$CLAYER
  8
0
  9
$LTSCALE
 40
0.605
  9
$CELTYPE
  6
BYLAYER
  9
$DIMSCALE
 40
1.0
  9
$DIMASZ
 40
0.1
  9
$DIMEXO
 40
0.0625
  9
$DIMDLI
 40
0.418
  9
$DIMEXE
 40
0.125
  9
$DIMCEN
 40
0.099
  9
$DIMLFAC
 40
1.0
  9
$DIMBLK
  1
_FILLED
  9
$DIMALT
 70
1
  9
$DIMALTD
 70
1
  9
$DIMALTTD
 70
2
  9
$DIMALTF
 40
25.4
  9
$DIMTXT
 40
0.08
  9
$DIMTOL
 70
1
  9
$DIMLIM
 70
0
  9
$DIMTFAC
 40
1.0
  9
$DIMTP
 40
0.01
  9
$DIMTM
 40
0.01
  9
$DIMGAP
 40
0.09
  9
$DIMDSEP
 70
46
  9
$AUNITS
 70
0
  9
$PDMODE
 70
3
  9
$PDSIZE
 40
0.3125
  9
$HANDSEED
  5
3C7
  9
$TILEMODE
 70
1
  9
$MEASUREMENT
 70
0
  9
$INSUNITS
 70
1
  0
ENDSEC
  0
SECTION
  2
CLASSES
  0
CLASS
  1
ACDBDICTIONARYWDFLT
  2
AcDbDictionaryWithDefault
  3
AutoCAD 2000
 90
0
 91
1
280
0
281
0
  0
CLASS
  1
ACDBPLACEHOLDER
  2
AcDbPlaceHolder
  3
AutoCAD 2000
 90
0
 91
1
280
0
281
0
  0
CLASS
  1
LAYOUT
  2
AcDbLayout
  3
AutoCAD 2000
 90
0
 91
0
280
0
281
0
  0
ENDSEC
  0
SECTION
  2
TABLES
  0
TABLE
  2
VPORT
  5
8
100
AcDbSymbolTable
 70
2
  0
VPORT
  5
1F4
100
AcDbSymbolTableRecord
100
AcDbViewportTableRecord
  2
*ACTIVE
 70
0
 10
0.0
 20
0.0
 11
1.0
 21
1.0
 12
5.5
 22
4.25
 13
0.0
 23
0.0
 14
1.0
 24
1.0
 15
0.0
 25
0.0
 16
0.0
 26
0.0
 36
1.0
 17
0.0
 27
0.0
 37
0.0
 40
8.5
 41
1.2941176471
 42
50.0
 43
0.0
 44
0.0
 50
0.0
 51
0.0
 71
0
 72
100
 73
1
 74
1
 75
0
 76
0
 77
0
 78
0
  0
ENDTAB
  0
TABLE
  2
LTYPE
  5
5
100
AcDbSymbolTable
 70
6
  0
LTYPE
  5
14
100
AcDbSymbolTableRecord
100
AcDbLinetypeTableRecord
  2
BYBLOCK
 70
0
  3

 72
65
 73
0
 40
0.0
  0
LTYPE
  5
15
100
AcDbSymbolTableRecord
100
AcDbLinetypeTableRecord
  2
BYLAYER
 70
0
  3

 72
65
 73
0
 40
0.0
  0
LTYPE
  5
16
100
AcDbSymbolTableRecord
100
AcDbLinetypeTableRecord
  2
CONTINUOUS
 70
64
  3
Solid line
 72
65
 73
0
 40
0.0
  0
LTYPE
  5
1F5
100
AcDbSymbolTableRecord
100
AcDbLinetypeTableRecord
  2
CENTER
 70
64
  3
____ _ ____ _ ____ _ ____ _ ____ _ ____ _ ____
 72
65
 73
4
 40
0.6
 49
0.375
 74
0
 49
-0.075
 74
0
 49
0.075
 74
0
 49
-0.075
 74
0
  0
LTYPE
  5
1F6
100
AcDbSymbolTableRecord
100
AcDbLinetypeTableRecord
  2
HIDDEN
 70
64
  3
- - - - - - - - - - - - - - - - - - - -
 72
65
 73
2
 40
0.2
 49
0.1
 74
0
 49
-0.1
 74
0
  0
LTYPE
  5
1F7
100
AcDbSymbolTableRecord
100
AcDbLinetypeTableRecord
  2
PHANTOM
 70
64
  3
_____ _ _ _____ _ _ _____ _ _ _____
 72
65
 73
6
 40
0.8
 49
0.45
 74
0
 49
-0.05
 74
0
 49
0.1
 74
0
 49
-0.05
 74
0
 49
0.1
 74
0
 49
-0.05
 74
0
  0
LTYPE
  5
1F8
100
AcDbSymbolTableRecord
100
AcDbLinetypeTableRecord
  2
DOT
 70
64
  3
. . . . . . . . . . . . . . . . . . . .
 72
65
 73
2
 40
0.2
 49
0.1
 74
0
 49
-0.1
 74
0
  0
LTYPE
  5
1F9
100
AcDbSymbolTableRecord
100
AcDbLinetypeTableRecord
  2
DASHED
 70
64
  3
- - - - - - - - - - - - - - - - - - - -
 72
65
 73
2
 40
0.2
 49
0.1
 74
0
 49
-0.1
 74
0
  0
ENDTAB
  0
TABLE
  2
LAYER
  5
2
100
AcDbSymbolTable
 70
36
  0
LAYER
  5
10
100
AcDbSymbolTableRecord
100
AcDbLayerTableRecord
  2
0
 70
0
 62
7
  6
CONTINUOUS
370
-3
390
F
  0
LAYER
  5
1FA
100
AcDbSymbolTableRecord
100
AcDbLayerTableRecord
  2
DEFAULT_1
 70
0
 62
7
  6
CENTER
370
-3
390
F
  0
LAYER
  5
1FB
100
AcDbSymbolTableRecord
100
AcDbLayerTableRecord
  2
DEFAULT_2
 70
0
 62
8
  6
HIDDEN
370
-3
390
F
  0
LAYER
  5
1FC
100
AcDbSymbolTableRecord
100
AcDbLayerTableRecord
  2
DEFAULT_3
 70
0
 62
7
  6
PHANTOM
370
-3
390
F
  0
LAYER
  5
1FD
100
AcDbSymbolTableRecord
100
AcDbLayerTableRecord
  2
DEFAULT_COORDINATE_SYSTEM
 70
0
 62
7
  6
CONTINUOUS
370
-3
390
F
  0
LAYER
  5
1FE
100
AcDbSymbolTableRecord
100
AcDbLayerTableRecord
  2
DEFAULT_DATUM_AXES
 70
0
 62
7
  6
CONTINUOUS
370
-3
390
F
  0
LAYER
  5
1FF
100
AcDbSymbolTableRecord
100
AcDbLayerTableRecord
  2
DEFAULT_DATUM_PLANES
 70
0
 62
7
  6
CONTINUOUS
370
-3
390
F
  0
ENDTAB
  0
TABLE
  2
STYLE
  5
3
100
AcDbSymbolTable
 70
1
  0
STYLE
  5
11
100
AcDbSymbolTableRecord
100
AcDbTextStyleTableRecord
  2
STANDARD
 70
0
 40
0.0
 41
0.8
 50
0.0
 71
0
 42
0.2
  3
txt
  4

  0
STYLE
  5
200
100
AcDbSymbolTableRecord
100
AcDbTextStyleTableRecord
  2
TEXTSTYLE_1
 70
0
 40
0.0
 41
0.8
 50
0.0
 71
0
 42
0.2
  3
gdt
  4

  0
ENDTAB
  0
TABLE
  2
VIEW
  5
6
100
AcDbSymbolTable
 70
0
  0
ENDTAB
  0
TABLE
  2
UCS
  5
7
100
AcDbSymbolTable
 70
0
  0
ENDTAB
  0
TABLE
  2
APPID
  5
9
100
AcDbSymbolTable
 70
1
  0
APPID
  5
201
100
AcDbSymbolTableRecord
100
AcDbRegAppTableRecord
  2
ACAD
 70
0
  0
ENDTAB
  0
TABLE
  2
BLOCK_RECORD
  5
1
100
AcDbSymbolTable
 70
0
  0
BLOCK_RECORD
  5
202
100
AcDbSymbolTableRecord
100
AcDbBlockTableRecord
  2
*Model_Space
  0
BLOCK_RECORD
  5
203
100
AcDbSymbolTableRecord
100
AcDbBlockTableRecord
  2
*Paper_Space
  0
BLOCK_RECORD
  5
204
100
AcDbSymbolTableRecord
100
AcDbBlockTableRecord
  2
_FILLED
  0
ENDTAB
  0
TABLE
  2
DIMSTYLE
  5
A
100
AcDbSymbolTable
 70
1
100
AcDbDimStyleTable
 71
0
  0
DIMSTYLE
105
205
100
AcDbSymbolTableRecord
100
AcDbDimStyleTableRecord
  2
STANDARD
 70
0
  3

  4

 40
1.0
 41
0.1
 42
0.0625
 43
0.38
 44
0.125
 45
0.0
 46
0.0
 47
0.01
 48
0.01
140
0.08
141
0.09
142
0.0
143
25.4
144
1.0
145
0.0
146
1.0
147
0.09
 71
1.0
 72
0.0
 73
1
 74
1
 75
0
 76
0
 77
0
 78
4
 79
1
170
1
171
1
172
0
173
0
174
0
175
0
176
0
177
0
178
0
270
2
179
2
271
2
272
2
273
2
274
2
275
0
280
0
281
0
282
0
283
1
284
4
285
0
286
0
287
3
288
0
340
11
278
46
341
204
342
204
343
204
344
204
  0
ENDTAB
  0
ENDSEC
  0
SECTION
  2
BLOCKS
  0
BLOCK
  5
20
100
AcDbEntity
  8
0
100
AcDbBlockBegin
  2
*Model_Space
 70
0
 10
0.0
 20
0.0
 30
0.0
  3
*Model_Space
  1

  0
ENDBLK
  5
21
100
AcDbEntity
  8
0
100
AcDbBlockEnd
  0
BLOCK
  5
1C
100
AcDbEntity
  8
0
100
AcDbBlockBegin
  2
*Paper_Space
 70
0
 10
0.0
 20
0.0
 30
0.0
  3
*Paper_Space
  1

  0
ENDBLK
  5
1D
100
AcDbEntity
  8
0
100
AcDbBlockEnd
  0
BLOCK
  5
206
100
AcDbEntity
  8
0
100
AcDbBlockBegin
  2
_FILLED
 70
64
 10
0.0
 20
0.0
  3
_FILLED
  1

  0
SOLID
  5
207
100
AcDbEntity
  8
0
  6
BYBLOCK
 62
0
100
AcDbTrace
 10
0.0
 20
0.0
 11
-1.0
 21
0.2
 12
-1.0
 22
-0.2
 13
-1.0
 23
-0.2
  0
ENDBLK
  5
208
100
AcDbEntity
  8
0
  6
BYBLOCK
 62
0
100
AcDbBlockEnd
  0
ENDSEC
  0
SECTION
  2
ENTITIES
  0
MTEXT
  5
209
100
AcDbEntity
  8
0
100
AcDbMText
 62
2
  6
CONTINUOUS
  7
STANDARD
 71
3
 72
1
 10
4.6270749202
 20
1.4413121118
 30
0.0
 11
1.0
 21
0.0
 31
0.0
 73
2
 44
0.9
  1
SCALE  .500
 40
0.08
 41
0.704
  0
LINE
  5
20A
100
AcDbEntity
  8
0
100
AcDbLine
 62
7
  6
CONTINUOUS
 10
0.0
 20
0.0
 11
0.0
 21
8.5
  0
LINE
  5
20B
100
AcDbEntity
  8
0
100
AcDbLine
 62
7
  6
CONTINUOUS
 10
0.0
 20
0.0
 11
11.0
 21
0.0
  0
LINE
  5
20C
100
AcDbEntity
  8
0
100
AcDbLine
 62
7
  6
CONTINUOUS
 10
0.0
 20
8.5
 11
11.0
 21
8.5
  0
LINE
  5
20D
100
AcDbEntity
  8
0
100
AcDbLine
 62
7
  6
CONTINUOUS
 10
11.0
 20
0.0
 11
11.0
 21
8.5
  0
LINE
  5
20E
100
AcDbEntity
  8
0
100
AcDbLine
 62
7
  6
CONTINUOUS
 10
4.1599611801
 20
2.0897282609
 11
4.4649611801
 21
2.0897282609
  0
LINE
  5
20F
100
AcDbEntity
  8
0
100
AcDbLine
 62
7
  6
CONTINUOUS
 10
4.1599611801
 20
2.1044782609
 11
4.4649611801
 21
2.1044782609
  0
LINE
  5
210
100
AcDbEntity
  8
0
100
AcDbLine
 62
7
  6
CONTINUOUS
 10
4.1599611801
 20
2.1339782609
 11
4.4649611801
 21
2.1339782609
  0
LINE
  5
211
100
AcDbEntity
  8
0
100
AcDbLine
 62
7
  6
CONTINUOUS
 10
4.1599611801
 20
2.2124782609
 11
4.4649611801
 21
2.2124782609
  0
LINE
  5
212
100
AcDbEntity
  8
0
100
AcDbLine
 62
7
  6
CONTINUOUS
 10
4.1599611801
 20
2.2419782609
 11
4.4649611801
 21
2.2419782609
  0
LINE
  5
213
100
AcDbEntity
  8
0
100
AcDbLine
 62
7
  6
CONTINUOUS
 10
4.1599611801
 20
2.3204782609
 11
4.4649611801
 21
2.3204782609
  0
LINE
  5
214
100
AcDbEntity
  8
0
100
AcDbLine
 62
7
  6
CONTINUOUS
 10
4.1599611801
 20
2.3499782609
 11
4.4649611801
 21
2.3499782609
  0
LINE
  5
215
100
AcDbEntity
  8
0
100
AcDbLine
 62
7
  6
CONTINUOUS
 10
4.1599611801
 20
2.4284782609
 11
4.4649611801
 21
2.4284782609
  0
LINE
  5
216
100
AcDbEntity
  8
0
100
AcDbLine
 62
7
  6
CONTINUOUS
 10
4.1599611801
 20
2.4579782609
 11
4.4649611801
 21
2.4579782609
  0
LINE
  5
217
100
AcDbEntity
  8
0
100
AcDbLine
 62
7
  6
CONTINUOUS
 10
4.1599611801
 20
2.5364782609
 11
4.4649611801
 21
2.5364782609
  0
LINE
  5
218
100
AcDbEntity
  8
0
100
AcDbLine
 62
7
  6
CONTINUOUS
 10
4.1599611801
 20
2.5659782609
 11
4.4649611801
 21
2.5659782609
  0
LINE
  5
219
100
AcDbEntity
  8
0
100
AcDbLine
 62
7
  6
CONTINUOUS
 10
4.1599611801
 20
2.6444782609
 11
4.4649611801
 21
2.6444782609
  0
LINE
  5
21A
100
AcDbEntity
  8
0
100
AcDbLine
 62
7
  6
CONTINUOUS
 10
4.1599611801
 20
2.6739782609
 11
4.4649611801
 21
2.6739782609
  0
LINE
  5
21B
100
AcDbEntity
  8
0
100
AcDbLine
 62
7
  6
CONTINUOUS
 10
3.8719575516
 20
5.3901857201
 11
3.7843696138
 21
5.277540272
  0
LINE
  5
21C
100
AcDbEntity
  8
0
100
AcDbLine
 62
7
  6
CONTINUOUS
 10
4.3262758312
 20
3.5797282609
 11
4.2986465291
 21
3.5797282609
  0
LINE
  5
21D
100
AcDbEntity
  8
0
100
AcDbLine
 62
7
  6
CONTINUOUS
 10
4.0199611801
 20
3.5929782609
 11
4.6049611801
 21
3.5929782609
  0
LINE
  5
21E
100
AcDbEntity
  8
0
100
AcDbLine
 62
7
  6
CONTINUOUS
 10
3.7812111801
 20
5.2683328127
 11
3.7812111801
 21
5.1834782609
  0
LINE
  5
21F
100
AcDbEntity
  8
0
100
AcDbLine
 62
7
  6
CONTINUOUS
 10
3.8624611801
 20
4.6584782609
 11
3.8624611801
 21
4.7234782609
  0
LINE
  5
220
100
AcDbEntity
  8
0
100
AcDbLine
 62
7
  6
CONTINUOUS
 10
3.8724611801
 20
4.6334782609
 11
3.8724611801
 21
4.6584782609
  0
LINE
  5
221
100
AcDbEntity
  8
0
100
AcDbLine
 62
7
  6
CONTINUOUS
 10
3.8951131572
 20
5.3981081002
 11
3.9037111801
 21
5.4580486028
  0
LINE
  5
222
100
AcDbEntity
  8
0
100
AcDbLine
 62
7
  6
CONTINUOUS
 10
3.9037111801
 20
5.4580486028
 11
3.9037111801
 21
5.7359782609
  0
LINE
  5
223
100
AcDbEntity
  8
0
100
AcDbLine
 62
7
  6
CONTINUOUS
 10
3.9037111801
 20
5.8334782609
 11
3.9037111801
 21
5.9329782609
  0
LINE
  5
224
100
AcDbEntity
  8
0
100
AcDbLine
 62
7
  6
CONTINUOUS
 10
3.9037111801
 20
6.0304782609
 11
3.9037111801
 21
6.3759782609
  0
LINE
  5
225
100
AcDbEntity
  8
0
100
AcDbLine
 62
7
  6
CONTINUOUS
 10
3.9574611801
 20
4.4184782609
 11
3.9574611801
 21
4.5934782609
  0
LINE
  5
226
100
AcDbEntity
  8
0
100
AcDbLine
 62
7
  6
CONTINUOUS
 10
3.9800684333
 20
4.5934782609
 11
3.9800684333
 21
4.4384782609
  0
LINE
  5
227
100
AcDbEntity
  8
0
100
AcDbLine
 62
7
  6
CONTINUOUS
 10
3.9977111801
 20
4.4090286287
 11
3.9977111801
 21
4.4184782609
  0
LINE
  5
228
100
AcDbEntity
  8
0
100
AcDbLine
 62
7
  6
CONTINUOUS
 10
3.9977111801
 20
4.7234782609
 11
3.9977111801
 21
4.729752893
  0
LINE
  5
229
100
AcDbEntity
  8
0
100
AcDbLine
 62
7
  6
CONTINUOUS
 10
3.9977111801
 20
4.7535286287
 11
3.9977111801
 21
4.764202893
  0
LINE
  5
22A
100
AcDbEntity
  8
0
100
AcDbLine
 62
7
  6
CONTINUOUS
 10
3.9977111801
 20
4.7879786287
 11
3.9977111801
 21
4.798652893
  0
LINE
  5
22B
100
AcDbEntity
  8
0
100
AcDbLine
 62
7
  6
CONTINUOUS
 10
3.9977111801
 20
4.8224286287
 11
3.9977111801
 21
4.833102893
  0
LINE
  5
22C
100
AcDbEntity
  8
0
100
AcDbLine
 62
7
  6
CONTINUOUS
 10
3.9977111801
 20
4.8568786287
 11
3.9977111801
 21
4.867552893
  0
LINE
  5
22D
100
AcDbEntity
  8
0
100
AcDbLine
 62
7
  6
CONTINUOUS
 10
3.9977111801
 20
4.8913286287
 11
3.9977111801
 21
4.902002893
  0
LINE
  5
22E
100
AcDbEntity
  8
0
100
AcDbLine
 62
7
  6
CONTINUOUS
 10
3.9977111801
 20
4.9257786287
 11
3.9977111801
 21
4.936452893
  0
LINE
  5
22F
100
AcDbEntity
  8
0
100
AcDbLine
 62
7
  6
CONTINUOUS
 10
3.9977111801
 20
4.9602286287
 11
3.9977111801
 21
4.970902893
  0
LINE
  5
230
100
AcDbEntity
  8
0
100
AcDbLine
 62
7
  6
CONTINUOUS
 10
3.9977111801
 20
4.9946786287
 11
3.9977111801
 21
5.005352893
  0
LINE
  5
231
100
AcDbEntity
  8
0
100
AcDbLine
 62
7
  6
CONTINUOUS
 10
3.9977111801
 20
5.0291286287
 11
3.9977111801
 21
5.039802893
  0
LINE
  5
232
100
AcDbEntity
  8
0
100
AcDbLine
 62
7
  6
CONTINUOUS
 10
3.9977111801
 20
5.0635786287
 11
3.9977111801
 21
5.074252893
  0
LINE
  5
233
100
AcDbEntity
  8
0
100
AcDbLine
 62
7
  6
CONTINUOUS
 10
3.9977111801
 20
5.0980286287
 11
3.9977111801
 21
5.108702893
  0
LINE
  5
234
100
AcDbEntity
  8
0
100
AcDbLine
 62
7
  6
CONTINUOUS
 10
3.9977111801
 20
5.1324786287
 11
3.9977111801
 21
5.143152893
  0
LINE
  5
235
100
AcDbEntity
  8
0
100
AcDbLine
 62
7
  6
CONTINUOUS
 10
3.9977111801
 20
5.1669286287
 11
3.9977111801
 21
5.177602893
  0
LINE
  5
236
100
AcDbEntity
  8
0
100
AcDbLine
 62
7
  6
CONTINUOUS
 10
4.0180611801
 20
5.1834782609
 11
4.0180611801
 21
5.1830627588
  0
LINE
  5
237
100
AcDbEntity
  8
0
100
AcDbLine
 62
7
  6
CONTINUOUS
 10
4.0180611801
 20
5.1616657609
 11
4.0180611801
 21
5.1486127588
  0
LINE
  5
238
100
AcDbEntity
  8
0
100
AcDbLine
 62
7
  6
CONTINUOUS
 10
4.0180611801
 20
5.1272157609
 11
4.0180611801
 21
5.1141627588
  0
LINE
  5
239
100
AcDbEntity
  8
0
100
AcDbLine
 62
7
  6
CONTINUOUS
 10
4.0180611801
 20
5.0927657609
 11
4.0180611801
 21
5.0797127588
  0
LINE
  5
23A
100
AcDbEntity
  8
0
100
AcDbLine
 62
7
  6
CONTINUOUS
 10
4.0180611801
 20
5.0583157609
 11
4.0180611801
 21
5.0452627588
  0
LINE
  5
23B
100
AcDbEntity
  8
0
100
AcDbLine
 62
7
  6
CONTINUOUS
 10
4.0180611801
 20
5.0238657609
 11
4.0180611801
 21
5.0108127588
  0
LINE
  5
23C
100
AcDbEntity
  8
0
100
AcDbLine
 62
7
  6
CONTINUOUS
 10
4.0180611801
 20
4.9894157609
 11
4.0180611801
 21
4.9763627588
  0
LINE
  5
23D
100
AcDbEntity
  8
0
100
AcDbLine
 62
7
  6
CONTINUOUS
 10
4.0180611801
 20
4.9549657609
 11
4.0180611801
 21
4.9419127588
  0
LINE
  5
23E
100
AcDbEntity
  8
0
100
AcDbLine
 62
7
  6
CONTINUOUS
 10
4.0180611801
 20
4.9205157609
 11
4.0180611801
 21
4.9074627588
  0
LINE
  5
23F
100
AcDbEntity
  8
0
100
AcDbLine
 62
7
  6
CONTINUOUS
 10
4.0180611801
 20
4.8860657609
 11
4.0180611801
 21
4.8730127588
  0
LINE
  5
240
100
AcDbEntity
  8
0
100
AcDbLine
 62
7
  6
CONTINUOUS
 10
4.0180611801
 20
4.8516157609
 11
4.0180611801
 21
4.8385627588
  0
LINE
  5
241
100
AcDbEntity
  8
0
100
AcDbLine
 62
7
  6
CONTINUOUS
 10
4.0180611801
 20
4.8171657609
 11
4.0180611801
 21
4.8041127588
  0
LINE
  5
242
100
AcDbEntity
  8
0
100
AcDbLine
 62
7
  6
CONTINUOUS
 10
4.0180611801
 20
4.7827157609
 11
4.0180611801
 21
4.7696627588
  0
LINE
  5
243
100
AcDbEntity
  8
0
100
AcDbLine
 62
7
  6
CONTINUOUS
 10
4.0180611801
 20
4.7482657609
 11
4.0180611801
 21
4.7352127588
  0
LINE
  5
244
100
AcDbEntity
  8
0
100
AcDbLine
 62
7
  6
CONTINUOUS
 10
4.0180611801
 20
4.4037657609
 11
4.0180611801
 21
4.3907127588
  0
LINE
  5
245
100
AcDbEntity
  8
0
100
AcDbLine
 62
7
  6
CONTINUOUS
 10
4.0199611801
 20
3.5929782609
 11
4.0199611801
 21
4.3882282609
  0
LINE
  5
246
100
AcDbEntity
  8
0
100
AcDbLine
 62
7
  6
CONTINUOUS
 10
4.0624611801
 20
5.8359782609
 11
4.0624611801
 21
5.8334782609
  0
LINE
  5
247
100
AcDbEntity
  8
0
100
AcDbLine
 62
7
  6
CONTINUOUS
 10
4.0989611801
 20
3.3930839609
 11
4.0989611801
 21
2.9846632415
  0
LINE
  5
248
100
AcDbEntity
  8
0
100
AcDbLine
 62
7
  6
CONTINUOUS
 10
4.0989611801
 20
2.9272963152
 11
4.0989611801
 21
2.8600459208
  0
LINE
  5
249
100
AcDbEntity
  8
0
100
AcDbLine
 62
7
  6
CONTINUOUS
 10
4.0989611801
 20
2.8026444136
 11
4.0989611801
 21
2.7354286001
  0
LINE
  5
24A
100
AcDbEntity
  8
0
100
AcDbLine
 62
7
  6
CONTINUOUS
 10
4.0989611801
 20
2.6780270929
 11
4.0989611801
 21
2.6108112793
  0
LINE
  5
24B
100
AcDbEntity
  8
0
100
AcDbLine
 62
7
  6
CONTINUOUS
 10
4.0989611801
 20
2.5534097722
 11
4.0989611801
 21
2.4861939586
  0
LINE
  5
24C
100
AcDbEntity
  8
0
100
AcDbLine
 62
7
  6
CONTINUOUS
 10
4.0989611801
 20
2.4287924515
 11
4.0989611801
 21
2.3615766379
  0
LINE
  5
24D
100
AcDbEntity
  8
0
100
AcDbLine
 62
7
  6
CONTINUOUS
 10
4.1599611801
 20
5.8359782609
 11
4.1599611801
 21
5.8334782609
  0
LINE
  5
24E
100
AcDbEntity
  8
0
100
AcDbLine
 62
7
  6
CONTINUOUS
 10
4.1599611801
 20
2.0897282609
 11
4.1599611801
 21
2.1044782609
  0
LINE
  5
24F
100
AcDbEntity
  8
0
100
AcDbLine
 62
7
  6
CONTINUOUS
 10
4.1599611801
 20
2.1339782609
 11
4.1599611801
 21
2.2124782609
  0
LINE
  5
250
100
AcDbEntity
  8
0
100
AcDbLine
 62
7
  6
CONTINUOUS
 10
4.1599611801
 20
2.2419782609
 11
4.1599611801
 21
2.3204782609
  0
LINE
  5
251
100
AcDbEntity
  8
0
100
AcDbLine
 62
7
  6
CONTINUOUS
 10
4.1599611801
 20
2.3499782609
 11
4.1599611801
 21
2.4284782609
  0
LINE
  5
252
100
AcDbEntity
  8
0
100
AcDbLine
 62
7
  6
CONTINUOUS
 10
4.1599611801
 20
2.4579782609
 11
4.1599611801
 21
2.5364782609
  0
LINE
  5
253
100
AcDbEntity
  8
0
100
AcDbLine
 62
7
  6
CONTINUOUS
 10
4.1599611801
 20
2.5659782609
 11
4.1599611801
 21
2.6444782609
  0
LINE
  5
254
100
AcDbEntity
  8
0
100
AcDbLine
 62
7
  6
CONTINUOUS
 10
4.1599611801
 20
2.6739782609
 11
4.1599611801
 21
3.3863384777
  0
LINE
  5
255
100
AcDbEntity
  8
0
100
AcDbLine
 62
7
  6
CONTINUOUS
 10
4.1849611801
 20
5.7959782609
 11
4.1849611801
 21
5.8769782609
  0
LINE
  5
256
100
AcDbEntity
  8
0
100
AcDbLine
 62
7
  6
CONTINUOUS
 10
4.1918065203
 20
5.8666378366
 11
4.1918065203
 21
5.8442335791
  0
LINE
  5
257
100
AcDbEntity
  8
0
100
AcDbLine
 62
7
  6
CONTINUOUS
 10
4.1918065203
 20
5.8338931548
 11
4.1918065203
 21
5.7959782609
  0
LINE
  5
258
100
AcDbEntity
  8
0
100
AcDbLine
 62
7
  6
CONTINUOUS
 10
4.2214696619
 20
5.8442335791
 11
4.2214696619
 21
5.8338931548
  0
LINE
  5
259
100
AcDbEntity
  8
0
100
AcDbLine
 62
7
  6
CONTINUOUS
 10
4.2260332209
 20
5.8769782609
 11
4.2260332209
 21
5.8666378366
  0
LINE
  5
25A
100
AcDbEntity
  8
0
100
AcDbLine
 62
7
  6
CONTINUOUS
 10
4.2351603421
 20
5.8769782609
 11
4.2351603421
 21
5.7959782609
  0
LINE
  5
25B
100
AcDbEntity
  8
0
100
AcDbLine
 62
7
  6
CONTINUOUS
 10
4.242005679
 20
5.8769782609
 11
4.242005679
 21
5.8063186864
  0
LINE
  5
25C
100
AcDbEntity
  8
0
100
AcDbLine
 62
7
  6
CONTINUOUS
 10
4.2762323796
 20
5.8063186864
 11
4.2762323796
 21
5.7959782609
  0
LINE
  5
25D
100
AcDbEntity
  8
0
100
AcDbLine
 62
7
  6
CONTINUOUS
 10
4.2899611801
 20
4.5934782609
 11
4.2899611801
 21
4.4384782609
  0
LINE
  5
25E
100
AcDbEntity
  8
0
100
AcDbLine
 62
7
  6
CONTINUOUS
 10
4.3349611801
 20
4.5934782609
 11
4.3349611801
 21
4.4384782609
  0
LINE
  5
25F
100
AcDbEntity
  8
0
100
AcDbLine
 62
7
  6
CONTINUOUS
 10
4.4649611801
 20
2.0897282609
 11
4.4649611801
 21
2.1044782609
  0
LINE
  5
260
100
AcDbEntity
  8
0
100
AcDbLine
 62
7
  6
CONTINUOUS
 10
4.4649611801
 20
2.1339782609
 11
4.4649611801
 21
2.2124782609
  0
LINE
  5
261
100
AcDbEntity
  8
0
100
AcDbLine
 62
7
  6
CONTINUOUS
 10
4.4649611801
 20
2.2419782609
 11
4.4649611801
 21
2.3204782609
  0
LINE
  5
262
100
AcDbEntity
  8
0
100
AcDbLine
 62
7
  6
CONTINUOUS
 10
4.4649611801
 20
2.3499782609
 11
4.4649611801
 21
2.4284782609
  0
LINE
  5
263
100
AcDbEntity
  8
0
100
AcDbLine
 62
7
  6
CONTINUOUS
 10
4.4649611801
 20
2.4579782609
 11
4.4649611801
 21
2.5364782609
  0
LINE
  5
264
100
AcDbEntity
  8
0
100
AcDbLine
 62
7
  6
CONTINUOUS
 10
4.4649611801
 20
2.5659782609
 11
4.4649611801
 21
2.6444782609
  0
LINE
  5
265
100
AcDbEntity
  8
0
100
AcDbLine
 62
7
  6
CONTINUOUS
 10
4.4649611801
 20
2.6739782609
 11
4.4649611801
 21
3.3863384777
  0
LINE
  5
266
100
AcDbEntity
  8
0
100
AcDbLine
 62
7
  6
CONTINUOUS
 10
4.018821591
 20
4.3909099214
 11
4.0084782585
 21
4.3882282609
  0
LINE
  5
267
100
AcDbEntity
  8
0
100
AcDbLine
 62
7
  6
CONTINUOUS
 10
4.0084788362
 20
4.3882282609
 11
4.6272111473
 21
4.3882282609
  0
LINE
  5
268
100
AcDbEntity
  8
0
100
AcDbLine
 62
7
  6
CONTINUOUS
 10
4.6674611801
 20
4.4184782609
 11
3.9574611801
 21
4.4184782609
  0
LINE
  5
269
100
AcDbEntity
  8
0
100
AcDbLine
 62
7
  6
CONTINUOUS
 10
4.6674611801
 20
4.4384782609
 11
4.6448539269
 21
4.4384782609
  0
LINE
  5
26A
100
AcDbEntity
  8
0
100
AcDbLine
 62
7
  6
CONTINUOUS
 10
4.3349611801
 20
4.4384782609
 11
4.2899611801
 21
4.4384782609
  0
LINE
  5
26B
100
AcDbEntity
  8
0
100
AcDbLine
 62
7
  6
CONTINUOUS
 10
3.9800684333
 20
4.4384782609
 11
3.9574611801
 21
4.4384782609
  0
LINE
  5
26C
100
AcDbEntity
  8
0
100
AcDbLine
 62
7
  6
CONTINUOUS
 10
3.9984227756
 20
4.408659872
 11
4.0180133205
 21
4.4035811728
  0
LINE
  5
26D
100
AcDbEntity
  8
0
100
AcDbLine
 62
7
  6
CONTINUOUS
 10
4.5259611801
 20
3.3930839609
 11
4.5259611801
 21
2.9846632415
  0
LINE
  5
26E
100
AcDbEntity
  8
0
100
AcDbLine
 62
7
  6
CONTINUOUS
 10
4.5259611801
 20
2.9272753104
 11
4.5259611801
 21
2.8600459208
  0
LINE
  5
26F
100
AcDbEntity
  8
0
100
AcDbLine
 62
7
  6
CONTINUOUS
 10
4.5259611801
 20
2.8026803988
 11
4.5259611801
 21
2.7354286001
  0
LINE
  5
270
100
AcDbEntity
  8
0
100
AcDbLine
 62
7
  6
CONTINUOUS
 10
4.5259611801
 20
2.6780630781
 11
4.5259611801
 21
2.6108112793
  0
LINE
  5
271
100
AcDbEntity
  8
0
100
AcDbLine
 62
7
  6
CONTINUOUS
 10
4.5259611801
 20
2.5534457573
 11
4.5259611801
 21
2.4861939586
  0
LINE
  5
272
100
AcDbEntity
  8
0
100
AcDbLine
 62
7
  6
CONTINUOUS
 10
4.5259611801
 20
2.4288284366
 11
4.5259611801
 21
2.3615766379
  0
LINE
  5
273
100
AcDbEntity
  8
0
100
AcDbLine
 62
7
  6
CONTINUOUS
 10
4.6049611801
 20
3.5929782609
 11
4.6049611801
 21
4.3882282609
  0
LINE
  5
274
100
AcDbEntity
  8
0
100
AcDbLine
 62
7
  6
CONTINUOUS
 10
4.6068611801
 20
4.4077407609
 11
4.6068611801
 21
4.4184782609
  0
LINE
  5
275
100
AcDbEntity
  8
0
100
AcDbLine
 62
7
  6
CONTINUOUS
 10
4.6068611801
 20
4.7234782609
 11
4.6068611801
 21
4.7308437639
  0
LINE
  5
276
100
AcDbEntity
  8
0
100
AcDbLine
 62
7
  6
CONTINUOUS
 10
4.6068611801
 20
4.7522407609
 11
4.6068611801
 21
4.7652937639
  0
LINE
  5
277
100
AcDbEntity
  8
0
100
AcDbLine
 62
7
  6
CONTINUOUS
 10
4.6068611801
 20
4.7866907609
 11
4.6068611801
 21
4.7997437639
  0
LINE
  5
278
100
AcDbEntity
  8
0
100
AcDbLine
 62
7
  6
CONTINUOUS
 10
4.6068611801
 20
4.8211407609
 11
4.6068611801
 21
4.8341937639
  0
LINE
  5
279
100
AcDbEntity
  8
0
100
AcDbLine
 62
7
  6
CONTINUOUS
 10
4.6068611801
 20
4.8555907609
 11
4.6068611801
 21
4.8686437639
  0
LINE
  5
27A
100
AcDbEntity
  8
0
100
AcDbLine
 62
7
  6
CONTINUOUS
 10
4.6068611801
 20
4.8900407609
 11
4.6068611801
 21
4.9030937639
  0
LINE
  5
27B
100
AcDbEntity
  8
0
100
AcDbLine
 62
7
  6
CONTINUOUS
 10
4.6068611801
 20
4.9244907609
 11
4.6068611801
 21
4.9375437639
  0
LINE
  5
27C
100
AcDbEntity
  8
0
100
AcDbLine
 62
7
  6
CONTINUOUS
 10
4.6068611801
 20
4.9589407609
 11
4.6068611801
 21
4.9719937639
  0
LINE
  5
27D
100
AcDbEntity
  8
0
100
AcDbLine
 62
7
  6
CONTINUOUS
 10
4.6068611801
 20
4.9933907609
 11
4.6068611801
 21
5.0064437639
  0
LINE
  5
27E
100
AcDbEntity
  8
0
100
AcDbLine
 62
7
  6
CONTINUOUS
 10
4.6068611801
 20
5.0278407609
 11
4.6068611801
 21
5.0408937639
  0
LINE
  5
27F
100
AcDbEntity
  8
0
100
AcDbLine
 62
7
  6
CONTINUOUS
 10
4.6068611801
 20
5.0622907609
 11
4.6068611801
 21
5.0753437639
  0
LINE
  5
280
100
AcDbEntity
  8
0
100
AcDbLine
 62
7
  6
CONTINUOUS
 10
4.6068611801
 20
5.0967407609
 11
4.6068611801
 21
5.1097937639
  0
LINE
  5
281
100
AcDbEntity
  8
0
100
AcDbLine
 62
7
  6
CONTINUOUS
 10
4.6068611801
 20
5.1311907609
 11
4.6068611801
 21
5.1442437639
  0
LINE
  5
282
100
AcDbEntity
  8
0
100
AcDbLine
 62
7
  6
CONTINUOUS
 10
4.6068611801
 20
5.1656407609
 11
4.6068611801
 21
5.1786937639
  0
LINE
  5
283
100
AcDbEntity
  8
0
100
AcDbLine
 62
7
  6
CONTINUOUS
 10
4.6272111801
 20
4.3882282609
 11
4.6272111801
 21
4.402477893
  0
LINE
  5
284
100
AcDbEntity
  8
0
100
AcDbLine
 62
7
  6
CONTINUOUS
 10
4.6272111801
 20
4.7363036287
 11
4.6272111801
 21
4.746977893
  0
LINE
  5
285
100
AcDbEntity
  8
0
100
AcDbLine
 62
7
  6
CONTINUOUS
 10
4.6272111801
 20
4.7707536287
 11
4.6272111801
 21
4.781427893
  0
LINE
  5
286
100
AcDbEntity
  8
0
100
AcDbLine
 62
7
  6
CONTINUOUS
 10
4.6272111801
 20
4.8052036287
 11
4.6272111801
 21
4.815877893
  0
LINE
  5
287
100
AcDbEntity
  8
0
100
AcDbLine
 62
7
  6
CONTINUOUS
 10
4.6272111801
 20
4.8396536287
 11
4.6272111801
 21
4.850327893
  0
LINE
  5
288
100
AcDbEntity
  8
0
100
AcDbLine
 62
7
  6
CONTINUOUS
 10
4.6272111801
 20
4.8741036287
 11
4.6272111801
 21
4.884777893
  0
LINE
  5
289
100
AcDbEntity
  8
0
100
AcDbLine
 62
7
  6
CONTINUOUS
 10
4.6272111801
 20
4.9085536287
 11
4.6272111801
 21
4.919227893
  0
LINE
  5
28A
100
AcDbEntity
  8
0
100
AcDbLine
 62
7
  6
CONTINUOUS
 10
4.6272111801
 20
4.9430036287
 11
4.6272111801
 21
4.953677893
  0
LINE
  5
28B
100
AcDbEntity
  8
0
100
AcDbLine
 62
7
  6
CONTINUOUS
 10
4.6272111801
 20
4.9774536287
 11
4.6272111801
 21
4.988127893
  0
LINE
  5
28C
100
AcDbEntity
  8
0
100
AcDbLine
 62
7
  6
CONTINUOUS
 10
4.6272111801
 20
5.0119036287
 11
4.6272111801
 21
5.022577893
  0
LINE
  5
28D
100
AcDbEntity
  8
0
100
AcDbLine
 62
7
  6
CONTINUOUS
 10
4.6272111801
 20
5.0463536287
 11
4.6272111801
 21
5.057027893
  0
LINE
  5
28E
100
AcDbEntity
  8
0
100
AcDbLine
 62
7
  6
CONTINUOUS
 10
4.6272111801
 20
5.0808036287
 11
4.6272111801
 21
5.091477893
  0
LINE
  5
28F
100
AcDbEntity
  8
0
100
AcDbLine
 62
7
  6
CONTINUOUS
 10
4.6272111801
 20
5.1152536287
 11
4.6272111801
 21
5.125927893
  0
LINE
  5
290
100
AcDbEntity
  8
0
100
AcDbLine
 62
7
  6
CONTINUOUS
 10
4.6272111801
 20
5.1497036287
 11
4.6272111801
 21
5.160377893
  0
LINE
  5
291
100
AcDbEntity
  8
0
100
AcDbLine
 62
7
  6
CONTINUOUS
 10
3.9124611801
 20
4.5934782609
 11
4.7124611801
 21
4.5934782609
  0
LINE
  5
292
100
AcDbEntity
  8
0
100
AcDbLine
 62
7
  6
CONTINUOUS
 10
4.6264995848
 20
4.4028466497
 11
4.6068611801
 21
4.4079377588
  0
LINE
  5
293
100
AcDbEntity
  8
0
100
AcDbLine
 62
7
  6
CONTINUOUS
 10
4.6448539269
 20
4.5934782609
 11
4.6448539269
 21
4.4384782609
  0
LINE
  5
294
100
AcDbEntity
  8
0
100
AcDbLine
 62
7
  6
CONTINUOUS
 10
4.6674611801
 20
4.5934782609
 11
4.6674611801
 21
4.4184782609
  0
LINE
  5
295
100
AcDbEntity
  8
0
100
AcDbLine
 62
7
  6
CONTINUOUS
 10
4.7212111801
 20
5.4580486028
 11
4.7212111801
 21
6.3759782609
  0
LINE
  5
296
100
AcDbEntity
  8
0
100
AcDbLine
 62
7
  6
CONTINUOUS
 10
4.7524611801
 20
4.6334782609
 11
4.7524611801
 21
4.6584782609
  0
LINE
  5
297
100
AcDbEntity
  8
0
100
AcDbLine
 62
7
  6
CONTINUOUS
 10
4.7624611801
 20
4.6584782609
 11
4.7624611801
 21
4.7234782609
  0
LINE
  5
298
100
AcDbEntity
  8
0
100
AcDbLine
 62
7
  6
CONTINUOUS
 10
4.6061007692
 20
4.7306466003
 11
4.6264995847
 21
4.735934872
  0
LINE
  5
299
100
AcDbEntity
  8
0
100
AcDbLine
 62
7
  6
CONTINUOUS
 10
4.6061007692
 20
4.7650966003
 11
4.6264995847
 21
4.770384872
  0
LINE
  5
29A
100
AcDbEntity
  8
0
100
AcDbLine
 62
7
  6
CONTINUOUS
 10
4.6061007692
 20
4.7995466003
 11
4.6264995847
 21
4.804834872
  0
LINE
  5
29B
100
AcDbEntity
  8
0
100
AcDbLine
 62
7
  6
CONTINUOUS
 10
4.6061007692
 20
4.8339966003
 11
4.6264995847
 21
4.839284872
  0
LINE
  5
29C
100
AcDbEntity
  8
0
100
AcDbLine
 62
7
  6
CONTINUOUS
 10
3.8724611801
 20
4.6334782609
 11
4.7524611801
 21
4.6334782609
  0
LINE
  5
29D
100
AcDbEntity
  8
0
100
AcDbLine
 62
7
  6
CONTINUOUS
 10
4.7624611801
 20
4.6584782609
 11
3.8624611801
 21
4.6584782609
  0
LINE
  5
29E
100
AcDbEntity
  8
0
100
AcDbLine
 62
7
  6
CONTINUOUS
 10
4.7624611801
 20
4.7234782609
 11
3.8624611801
 21
4.7234782609
  0
LINE
  5
29F
100
AcDbEntity
  8
0
100
AcDbLine
 62
7
  6
CONTINUOUS
 10
3.9984227756
 20
4.753159872
 11
4.0180133205
 21
4.7480811728
  0
LINE
  5
2A0
100
AcDbEntity
  8
0
100
AcDbLine
 62
7
  6
CONTINUOUS
 10
3.9984227756
 20
4.787609872
 11
4.0180133205
 21
4.7825311728
  0
LINE
  5
2A1
100
AcDbEntity
  8
0
100
AcDbLine
 62
7
  6
CONTINUOUS
 10
3.9984227756
 20
4.822059872
 11
4.0180133205
 21
4.8169811728
  0
LINE
  5
2A2
100
AcDbEntity
  8
0
100
AcDbLine
 62
7
  6
CONTINUOUS
 10
3.9984227756
 20
4.856509872
 11
4.0180133205
 21
4.8514311728
  0
LINE
  5
2A3
100
AcDbEntity
  8
0
100
AcDbLine
 62
7
  6
CONTINUOUS
 10
4.8437111801
 20
5.2683328127
 11
4.8437111801
 21
5.1834782609
  0
LINE
  5
2A4
100
AcDbEntity
  8
0
100
AcDbLine
 62
7
  6
CONTINUOUS
 10
4.6061007692
 20
4.8684466003
 11
4.6264995847
 21
4.873734872
  0
LINE
  5
2A5
100
AcDbEntity
  8
0
100
AcDbLine
 62
7
  6
CONTINUOUS
 10
4.018821591
 20
4.7354099214
 11
3.9984227755
 21
4.7301216497
  0
LINE
  5
2A6
100
AcDbEntity
  8
0
100
AcDbLine
 62
7
  6
CONTINUOUS
 10
4.6061007692
 20
4.9028966003
 11
4.6264995847
 21
4.908184872
  0
LINE
  5
2A7
100
AcDbEntity
  8
0
100
AcDbLine
 62
7
  6
CONTINUOUS
 10
4.018821591
 20
4.7698599214
 11
3.9984227755
 21
4.7645716497
  0
LINE
  5
2A8
100
AcDbEntity
  8
0
100
AcDbLine
 62
7
  6
CONTINUOUS
 10
4.6061007692
 20
4.9373466003
 11
4.6264995847
 21
4.942634872
  0
LINE
  5
2A9
100
AcDbEntity
  8
0
100
AcDbLine
 62
7
  6
CONTINUOUS
 10
4.018821591
 20
4.8043099214
 11
3.9984227755
 21
4.7990216497
  0
LINE
  5
2AA
100
AcDbEntity
  8
0
100
AcDbLine
 62
7
  6
CONTINUOUS
 10
4.6061007692
 20
4.9717966003
 11
4.6264995847
 21
4.977084872
  0
LINE
  5
2AB
100
AcDbEntity
  8
0
100
AcDbLine
 62
7
  6
CONTINUOUS
 10
4.018821591
 20
4.8387599214
 11
3.9984227755
 21
4.8334716497
  0
LINE
  5
2AC
100
AcDbEntity
  8
0
100
AcDbLine
 62
7
  6
CONTINUOUS
 10
4.6061007692
 20
5.0062466003
 11
4.6264995847
 21
5.011534872
  0
LINE
  5
2AD
100
AcDbEntity
  8
0
100
AcDbLine
 62
7
  6
CONTINUOUS
 10
3.9984227756
 20
4.890959872
 11
4.0180133205
 21
4.8858811728
  0
LINE
  5
2AE
100
AcDbEntity
  8
0
100
AcDbLine
 62
7
  6
CONTINUOUS
 10
4.6264995848
 20
4.7473466497
 11
4.6068611801
 21
4.7524377588
  0
LINE
  5
2AF
100
AcDbEntity
  8
0
100
AcDbLine
 62
7
  6
CONTINUOUS
 10
3.9984227756
 20
4.925409872
 11
4.0180133205
 21
4.9203311728
  0
LINE
  5
2B0
100
AcDbEntity
  8
0
100
AcDbLine
 62
7
  6
CONTINUOUS
 10
4.6264995848
 20
4.7817966497
 11
4.6068611801
 21
4.7868877588
  0
LINE
  5
2B1
100
AcDbEntity
  8
0
100
AcDbLine
 62
7
  6
CONTINUOUS
 10
3.9984227756
 20
4.959859872
 11
4.0180133205
 21
4.9547811728
  0
LINE
  5
2B2
100
AcDbEntity
  8
0
100
AcDbLine
 62
7
  6
CONTINUOUS
 10
4.6264995848
 20
4.8162466497
 11
4.6068611801
 21
4.8213377588
  0
LINE
  5
2B3
100
AcDbEntity
  8
0
100
AcDbLine
 62
7
  6
CONTINUOUS
 10
3.9984227756
 20
4.994309872
 11
4.0180133205
 21
4.9892311728
  0
LINE
  5
2B4
100
AcDbEntity
  8
0
100
AcDbLine
 62
7
  6
CONTINUOUS
 10
4.6264995848
 20
4.8506966497
 11
4.6068611801
 21
4.8557877588
  0
LINE
  5
2B5
100
AcDbEntity
  8
0
100
AcDbLine
 62
7
  6
CONTINUOUS
 10
4.729809203
 20
5.3981081002
 11
4.7212111801
 21
5.4580486028
  0
LINE
  5
2B6
100
AcDbEntity
  8
0
100
AcDbLine
 62
7
  6
CONTINUOUS
 10
4.018821591
 20
4.8732099214
 11
3.9984227755
 21
4.8679216497
  0
LINE
  5
2B7
100
AcDbEntity
  8
0
100
AcDbLine
 62
7
  6
CONTINUOUS
 10
4.6061007692
 20
5.0406966003
 11
4.6264995847
 21
5.045984872
  0
LINE
  5
2B8
100
AcDbEntity
  8
0
100
AcDbLine
 62
7
  6
CONTINUOUS
 10
4.018821591
 20
4.9076599214
 11
3.9984227755
 21
4.9023716497
  0
LINE
  5
2B9
100
AcDbEntity
  8
0
100
AcDbLine
 62
7
  6
CONTINUOUS
 10
4.6061007692
 20
5.0751466003
 11
4.6264995847
 21
5.080434872
  0
LINE
  5
2BA
100
AcDbEntity
  8
0
100
AcDbLine
 62
7
  6
CONTINUOUS
 10
4.018821591
 20
4.9421099214
 11
3.9984227755
 21
4.9368216497
  0
LINE
  5
2BB
100
AcDbEntity
  8
0
100
AcDbLine
 62
7
  6
CONTINUOUS
 10
4.6061007692
 20
5.1095966003
 11
4.6264995847
 21
5.114884872
  0
LINE
  5
2BC
100
AcDbEntity
  8
0
100
AcDbLine
 62
7
  6
CONTINUOUS
 10
4.018821591
 20
4.9765599214
 11
3.9984227755
 21
4.9712716497
  0
LINE
  5
2BD
100
AcDbEntity
  8
0
100
AcDbLine
 62
7
  6
CONTINUOUS
 10
4.6061007692
 20
5.1440466003
 11
4.6264995847
 21
5.149334872
  0
LINE
  5
2BE
100
AcDbEntity
  8
0
100
AcDbLine
 62
7
  6
CONTINUOUS
 10
4.018821591
 20
5.0110099214
 11
3.9984227755
 21
5.0057216497
  0
LINE
  5
2BF
100
AcDbEntity
  8
0
100
AcDbLine
 62
7
  6
CONTINUOUS
 10
4.3553814486
 20
5.014715393
 11
4.3124611801
 21
5.013965393
  0
LINE
  5
2C0
100
AcDbEntity
  8
0
100
AcDbLine
 62
7
  6
CONTINUOUS
 10
4.3124611801
 20
5.0377411287
 11
4.3553814486
 21
5.0384911287
  0
LINE
  5
2C1
100
AcDbEntity
  8
0
100
AcDbLine
 62
7
  6
CONTINUOUS
 10
3.9984227756
 20
5.028759872
 11
4.0180133205
 21
5.0236811728
  0
LINE
  5
2C2
100
AcDbEntity
  8
0
100
AcDbLine
 62
7
  6
CONTINUOUS
 10
4.6264995848
 20
4.8851466497
 11
4.6068611801
 21
4.8902377588
  0
LINE
  5
2C3
100
AcDbEntity
  8
0
100
AcDbLine
 62
7
  6
CONTINUOUS
 10
3.9984227756
 20
5.063209872
 11
4.0180133205
 21
5.0581311728
  0
LINE
  5
2C4
100
AcDbEntity
  8
0
100
AcDbLine
 62
7
  6
CONTINUOUS
 10
4.6264995848
 20
4.9195966497
 11
4.6068611801
 21
4.9246877588
  0
LINE
  5
2C5
100
AcDbEntity
  8
0
100
AcDbLine
 62
7
  6
CONTINUOUS
 10
3.9984227756
 20
5.097659872
 11
4.0180133205
 21
5.0925811728
  0
LINE
  5
2C6
100
AcDbEntity
  8
0
100
AcDbLine
 62
7
  6
CONTINUOUS
 10
4.6264995848
 20
4.9540466497
 11
4.6068611801
 21
4.9591377588
  0
LINE
  5
2C7
100
AcDbEntity
  8
0
100
AcDbLine
 62
7
  6
CONTINUOUS
 10
3.9984227756
 20
5.132109872
 11
4.0180133205
 21
5.1270311728
  0
LINE
  5
2C8
100
AcDbEntity
  8
0
100
AcDbLine
 62
7
  6
CONTINUOUS
 10
4.6264995848
 20
4.9884966497
 11
4.6068611801
 21
4.9935877588
  0
LINE
  5
2C9
100
AcDbEntity
  8
0
100
AcDbLine
 62
7
  6
CONTINUOUS
 10
3.9984227756
 20
5.166559872
 11
4.0180133205
 21
5.1614811728
  0
LINE
  5
2CA
100
AcDbEntity
  8
0
100
AcDbLine
 62
7
  6
CONTINUOUS
 10
4.6061007692
 20
5.1784966003
 11
4.6253166978
 21
5.1834782609
  0
LINE
  5
2CB
100
AcDbEntity
  8
0
100
AcDbLine
 62
7
  6
CONTINUOUS
 10
4.018821591
 20
5.0454599214
 11
3.9984227755
 21
5.0401716497
  0
LINE
  5
2CC
100
AcDbEntity
  8
0
100
AcDbLine
 62
7
  6
CONTINUOUS
 10
4.018821591
 20
5.0799099214
 11
3.9984227755
 21
5.0746216497
  0
LINE
  5
2CD
100
AcDbEntity
  8
0
100
AcDbLine
 62
7
  6
CONTINUOUS
 10
4.018821591
 20
5.1143599214
 11
3.9984227755
 21
5.1090716497
  0
LINE
  5
2CE
100
AcDbEntity
  8
0
100
AcDbLine
 62
7
  6
CONTINUOUS
 10
4.018821591
 20
5.1488099214
 11
3.9984227755
 21
5.1435216497
  0
LINE
  5
2CF
100
AcDbEntity
  8
0
100
AcDbLine
 62
7
  6
CONTINUOUS
 10
4.0196091168
 20
5.1489782609
 11
4.018821591
 21
5.1488099214
  0
LINE
  5
2D0
100
AcDbEntity
  8
0
100
AcDbLine
 62
7
  6
CONTINUOUS
 10
3.9993661158
 20
5.143715393
 11
3.9984227755
 21
5.1435216497
  0
LINE
  5
2D1
100
AcDbEntity
  8
0
100
AcDbLine
 62
7
  6
CONTINUOUS
 10
3.7812122084
 20
5.1834782609
 11
4.8437101519
 21
5.1834782609
  0
LINE
  5
2D2
100
AcDbEntity
  8
0
100
AcDbLine
 62
7
  6
CONTINUOUS
 10
4.6264995848
 20
5.0229466497
 11
4.6068611801
 21
5.0280377588
  0
LINE
  5
2D3
100
AcDbEntity
  8
0
100
AcDbLine
 62
7
  6
CONTINUOUS
 10
4.6264995848
 20
5.0573966497
 11
4.6068611801
 21
5.0624877588
  0
LINE
  5
2D4
100
AcDbEntity
  8
0
100
AcDbLine
 62
7
  6
CONTINUOUS
 10
4.6264995848
 20
5.0918466497
 11
4.6068611801
 21
5.0969377588
  0
LINE
  5
2D5
100
AcDbEntity
  8
0
100
AcDbLine
 62
7
  6
CONTINUOUS
 10
4.6264995848
 20
5.1262966497
 11
4.6068611801
 21
5.1313877588
  0
LINE
  5
2D6
100
AcDbEntity
  8
0
100
AcDbLine
 62
7
  6
CONTINUOUS
 10
4.6264995848
 20
5.1607466497
 11
4.6068611801
 21
5.1658377588
  0
LINE
  5
2D7
100
AcDbEntity
  8
0
100
AcDbLine
 62
7
  6
CONTINUOUS
 10
4.018821591
 20
5.1832599214
 11
3.9984227755
 21
5.1779716497
  0
LINE
  5
2D8
100
AcDbEntity
  8
0
100
AcDbLine
 62
7
  6
CONTINUOUS
 10
4.0198962373
 20
5.1834782609
 11
4.018821591
 21
5.1832599214
  0
LINE
  5
2D9
100
AcDbEntity
  8
0
100
AcDbLine
 62
7
  6
CONTINUOUS
 10
4.7149611801
 20
5.3959782609
 11
4.729809203
 21
5.3981081002
  0
LINE
  5
2DA
100
AcDbEntity
  8
0
100
AcDbLine
 62
7
  6
CONTINUOUS
 10
3.7812111801
 20
5.2683328127
 11
4.8437111801
 21
5.2683328127
  0
LINE
  5
2DB
100
AcDbEntity
  8
0
100
AcDbLine
 62
7
  6
CONTINUOUS
 10
3.7843696138
 20
5.277540272
 11
4.8405527465
 21
5.277540272
  0
LINE
  5
2DC
100
AcDbEntity
  8
0
100
AcDbLine
 62
7
  6
CONTINUOUS
 10
3.9099611801
 20
5.3959782609
 11
3.8951131572
 21
5.3981081002
  0
LINE
  5
2DD
100
AcDbEntity
  8
0
100
AcDbLine
 62
7
  6
CONTINUOUS
 10
4.7529648087
 20
5.3901857201
 11
4.8405527465
 21
5.277540272
  0
LINE
  5
2DE
100
AcDbEntity
  8
0
100
AcDbLine
 62
7
  6
CONTINUOUS
 10
3.8719575516
 20
5.3901857201
 11
4.7529648087
 21
5.3901857201
  0
LINE
  5
2DF
100
AcDbEntity
  8
0
100
AcDbLine
 62
7
  6
CONTINUOUS
 10
3.8837991179
 20
5.3959782609
 11
4.7411232423
 21
5.3959782609
  0
LINE
  5
2E0
100
AcDbEntity
  8
0
100
AcDbLine
 62
7
  6
CONTINUOUS
 10
4.729809203
 20
5.3981081002
 11
3.8951131572
 21
5.3981081002
  0
LINE
  5
2E1
100
AcDbEntity
  8
0
100
AcDbLine
 62
7
  6
CONTINUOUS
 10
4.7212111801
 20
5.4580486028
 11
3.9037111801
 21
5.4580486028
  0
LINE
  5
2E2
100
AcDbEntity
  8
0
100
AcDbLine
 62
7
  6
CONTINUOUS
 10
3.9548684474
 20
5.7359782609
 11
3.9037111801
 21
5.7359782609
  0
LINE
  5
2E3
100
AcDbEntity
  8
0
100
AcDbLine
 62
7
  6
CONTINUOUS
 10
4.2762323796
 20
5.7959782609
 11
4.2351603421
 21
5.7959782609
  0
LINE
  5
2E4
100
AcDbEntity
  8
0
100
AcDbLine
 62
7
  6
CONTINUOUS
 10
4.1918065203
 20
5.7959782609
 11
4.1849611801
 21
5.7959782609
  0
LINE
  5
2E5
100
AcDbEntity
  8
0
100
AcDbLine
 62
7
  6
CONTINUOUS
 10
4.2762323796
 20
5.8063186864
 11
4.242005679
 21
5.8063186864
  0
LINE
  5
2E6
100
AcDbEntity
  8
0
100
AcDbLine
 62
7
  6
CONTINUOUS
 10
4.1599611801
 20
5.8334782609
 11
4.0624611801
 21
5.8334782609
  0
LINE
  5
2E7
100
AcDbEntity
  8
0
100
AcDbLine
 62
7
  6
CONTINUOUS
 10
3.9548684474
 20
5.8334782609
 11
3.9037111801
 21
5.8334782609
  0
LINE
  5
2E8
100
AcDbEntity
  8
0
100
AcDbLine
 62
7
  6
CONTINUOUS
 10
4.2214696619
 20
5.8338931548
 11
4.1918065203
 21
5.8338931548
  0
LINE
  5
2E9
100
AcDbEntity
  8
0
100
AcDbLine
 62
7
  6
CONTINUOUS
 10
4.1599611801
 20
5.8359782609
 11
4.0624611801
 21
5.8359782609
  0
LINE
  5
2EA
100
AcDbEntity
  8
0
100
AcDbLine
 62
7
  6
CONTINUOUS
 10
4.1918065203
 20
5.8442335791
 11
4.2214696619
 21
5.8442335791
  0
LINE
  5
2EB
100
AcDbEntity
  8
0
100
AcDbLine
 62
7
  6
CONTINUOUS
 10
4.2260332209
 20
5.8666378366
 11
4.1918065203
 21
5.8666378366
  0
LINE
  5
2EC
100
AcDbEntity
  8
0
100
AcDbLine
 62
7
  6
CONTINUOUS
 10
4.242005679
 20
5.8769782609
 11
4.2351603421
 21
5.8769782609
  0
LINE
  5
2ED
100
AcDbEntity
  8
0
100
AcDbLine
 62
7
  6
CONTINUOUS
 10
4.1849611801
 20
5.8769782609
 11
4.2260332209
 21
5.8769782609
  0
LINE
  5
2EE
100
AcDbEntity
  8
0
100
AcDbLine
 62
7
  6
CONTINUOUS
 10
3.9548684474
 20
5.9329782609
 11
3.9037111801
 21
5.9329782609
  0
LINE
  5
2EF
100
AcDbEntity
  8
0
100
AcDbLine
 62
7
  6
CONTINUOUS
 10
3.9548684474
 20
6.0304782609
 11
3.9037111801
 21
6.0304782609
  0
LINE
  5
2F0
100
AcDbEntity
  8
0
100
AcDbLine
 62
7
  6
CONTINUOUS
 10
4.7212111801
 20
6.3759782609
 11
3.9037111801
 21
6.3759782609
  0
LINE
  5
2F1
100
AcDbEntity
  8
0
100
AcDbLine
 62
7
  6
CONTINUOUS
 10
4.6062111801
 20
6.4909782609
 11
4.0187111801
 21
6.4909782609
  0
ARC
  5
2F2
100
AcDbEntity
  8
0
100
AcDbCircle
 62
7
  6
CONTINUOUS
 10
4.3124611801
 20
3.5929782609
 40
0.2925
100
AcDbArc
 50
311.0443782716
 51
360.0
  0
ARC
  5
2F3
100
AcDbEntity
  8
0
100
AcDbCircle
 62
7
  6
CONTINUOUS
 10
4.3124611801
 20
3.5929782609
 40
0.2925
100
AcDbArc
 50
180.0
 51
228.9556217284
  0
ARC
  5
2F4
100
AcDbEntity
  8
0
100
AcDbCircle
 62
7
  6
CONTINUOUS
 10
4.6062111801
 20
6.3759782609
 40
0.115
100
AcDbArc
 50
0.0
 51
90.0
  0
ARC
  5
2F5
100
AcDbEntity
  8
0
100
AcDbCircle
 62
7
  6
CONTINUOUS
 10
4.0187111801
 20
6.3759782609
 40
0.115
100
AcDbArc
 50
90.0
 51
180.0
  0
ARC
  5
2F6
100
AcDbEntity
  8
0
100
AcDbCircle
 62
7
  6
CONTINUOUS
 10
3.9124611801
 20
4.6334782609
 40
0.04
100
AcDbArc
 50
180.0
 51
270.0
  0
ARC
  5
2F7
100
AcDbEntity
  8
0
100
AcDbCircle
 62
7
  6
CONTINUOUS
 10
4.7124611801
 20
4.6334782609
 40
0.04
100
AcDbArc
 50
270.0
 51
360.0
  0
ARC
  5
2F8
100
AcDbEntity
  8
0
100
AcDbCircle
 62
7
  6
CONTINUOUS
 10
4.4615782014
 20
2.1192282609
 40
0.0151329787
100
AcDbArc
 50
282.9176327574
 51
77.0823672426
  0
ARC
  5
2F9
100
AcDbEntity
  8
0
100
AcDbCircle
 62
7
  6
CONTINUOUS
 10
4.4615782014
 20
2.2272282609
 40
0.0151329787
100
AcDbArc
 50
282.9176327574
 51
77.0823672426
  0
ARC
  5
2FA
100
AcDbEntity
  8
0
100
AcDbCircle
 62
7
  6
CONTINUOUS
 10
4.4615782014
 20
2.3352282609
 40
0.0151329787
100
AcDbArc
 50
282.9176327574
 51
77.0823672426
  0
ARC
  5
2FB
100
AcDbEntity
  8
0
100
AcDbCircle
 62
7
  6
CONTINUOUS
 10
4.4615782014
 20
2.4432282609
 40
0.0151329787
100
AcDbArc
 50
282.9176327574
 51
77.0823672426
  0
ARC
  5
2FC
100
AcDbEntity
  8
0
100
AcDbCircle
 62
7
  6
CONTINUOUS
 10
4.4615782014
 20
2.5512282609
 40
0.0151329787
100
AcDbArc
 50
282.9176327574
 51
77.0823672426
  0
ARC
  5
2FD
100
AcDbEntity
  8
0
100
AcDbCircle
 62
7
  6
CONTINUOUS
 10
4.4615782014
 20
2.6592282609
 40
0.0151329787
100
AcDbArc
 50
282.9176327574
 51
77.0823672426
  0
ARC
  5
2FE
100
AcDbEntity
  8
0
100
AcDbCircle
 62
7
  6
CONTINUOUS
 10
4.1633441588
 20
2.1192282609
 40
0.0151329787
100
AcDbArc
 50
102.9176327574
 51
257.0823672426
  0
ARC
  5
2FF
100
AcDbEntity
  8
0
100
AcDbCircle
 62
7
  6
CONTINUOUS
 10
4.1633441588
 20
2.2272282609
 40
0.0151329787
100
AcDbArc
 50
102.9176327574
 51
257.0823672426
  0
ARC
  5
300
100
AcDbEntity
  8
0
100
AcDbCircle
 62
7
  6
CONTINUOUS
 10
4.1633441588
 20
2.3352282609
 40
0.0151329787
100
AcDbArc
 50
102.9176327574
 51
257.0823672426
  0
ARC
  5
301
100
AcDbEntity
  8
0
100
AcDbCircle
 62
7
  6
CONTINUOUS
 10
4.1633441588
 20
2.4432282609
 40
0.0151329787
100
AcDbArc
 50
102.9176327574
 51
257.0823672426
  0
ARC
  5
302
100
AcDbEntity
  8
0
100
AcDbCircle
 62
7
  6
CONTINUOUS
 10
4.1633441588
 20
2.5512282609
 40
0.0151329787
100
AcDbArc
 50
102.9176327574
 51
257.0823672426
  0
ARC
  5
303
100
AcDbEntity
  8
0
100
AcDbCircle
 62
7
  6
CONTINUOUS
 10
4.1633441588
 20
2.6592282609
 40
0.0151329787
100
AcDbArc
 50
102.9176327574
 51
257.0823672426
  0
ARC
  5
304
100
AcDbEntity
  8
0
100
AcDbCircle
 62
7
  6
CONTINUOUS
 10
4.8287111801
 20
5.2683328127
 40
0.015
100
AcDbArc
 50
0.0
 51
37.867
  0
ARC
  5
305
100
AcDbEntity
  8
0
100
AcDbCircle
 62
7
  6
CONTINUOUS
 10
3.7962111801
 20
5.2683328127
 40
0.015
100
AcDbArc
 50
142.133
 51
180.0
  0
ARC
  5
306
100
AcDbEntity
  8
0
100
AcDbCircle
 62
7
  6
CONTINUOUS
 10
4.7411232423
 20
5.3809782609
 40
0.015
100
AcDbArc
 50
37.867
 51
90.0
  0
ARC
  5
307
100
AcDbEntity
  8
0
100
AcDbCircle
 62
7
  6
CONTINUOUS
 10
3.8837991179
 20
5.3809782609
 40
0.015
100
AcDbArc
 50
90.0
 51
142.133
  0
ARC
  5
308
100
AcDbEntity
  8
0
100
AcDbCircle
 62
7
  6
CONTINUOUS
 10
4.6042334584
 20
4.7378592054
 40
0.0074504014
100
AcDbArc
 50
282.9305470303
 51
284.5148420773
  0
LINE
  5
309
100
AcDbEntity
  8
0
100
AcDbLine
 62
7
  6
CONTINUOUS
 10
3.9977111888
 20
5.1669286287
 11
3.998422775
 21
5.1665598719
  0
LINE
  5
30A
100
AcDbEntity
  8
0
100
AcDbLine
 62
7
  6
CONTINUOUS
 10
3.9977112916
 20
5.1324786287
 11
3.9984227966
 21
5.132109872
  0
LINE
  5
30B
100
AcDbEntity
  8
0
100
AcDbLine
 62
7
  6
CONTINUOUS
 10
3.9977112916
 20
5.0980286287
 11
3.9984227966
 21
5.097659872
  0
LINE
  5
30C
100
AcDbEntity
  8
0
100
AcDbLine
 62
7
  6
CONTINUOUS
 10
3.9977112916
 20
5.0635786287
 11
3.9984227966
 21
5.063209872
  0
LINE
  5
30D
100
AcDbEntity
  8
0
100
AcDbLine
 62
7
  6
CONTINUOUS
 10
3.9977112917
 20
5.0291286287
 11
3.9984227966
 21
5.028759872
  0
LINE
  5
30E
100
AcDbEntity
  8
0
100
AcDbLine
 62
7
  6
CONTINUOUS
 10
3.9977112916
 20
4.9946786287
 11
3.9984227966
 21
4.994309872
  0
LINE
  5
30F
100
AcDbEntity
  8
0
100
AcDbLine
 62
7
  6
CONTINUOUS
 10
3.9977112916
 20
4.9602286287
 11
3.9984227966
 21
4.959859872
  0
LINE
  5
310
100
AcDbEntity
  8
0
100
AcDbLine
 62
7
  6
CONTINUOUS
 10
3.9977112916
 20
4.9257786287
 11
3.9984227966
 21
4.925409872
  0
LINE
  5
311
100
AcDbEntity
  8
0
100
AcDbLine
 62
7
  6
CONTINUOUS
 10
3.9977112917
 20
4.8913286287
 11
3.9984227966
 21
4.890959872
  0
LINE
  5
312
100
AcDbEntity
  8
0
100
AcDbLine
 62
7
  6
CONTINUOUS
 10
3.9977112916
 20
4.8568786287
 11
3.9984227966
 21
4.856509872
  0
LINE
  5
313
100
AcDbEntity
  8
0
100
AcDbLine
 62
7
  6
CONTINUOUS
 10
3.9977112916
 20
4.8224286287
 11
3.9984227966
 21
4.822059872
  0
LINE
  5
314
100
AcDbEntity
  8
0
100
AcDbLine
 62
7
  6
CONTINUOUS
 10
3.9977112906
 20
4.7879786287
 11
3.998422782
 21
4.787609872
  0
LINE
  5
315
100
AcDbEntity
  8
0
100
AcDbLine
 62
7
  6
CONTINUOUS
 10
3.9977112916
 20
4.7535286287
 11
3.9984227966
 21
4.753159872
  0
LINE
  5
316
100
AcDbEntity
  8
0
100
AcDbLine
 62
7
  6
CONTINUOUS
 10
4.6272110687
 20
5.1497036287
 11
4.6264995636
 21
5.149334872
  0
LINE
  5
317
100
AcDbEntity
  8
0
100
AcDbLine
 62
7
  6
CONTINUOUS
 10
4.6272110687
 20
5.1152536287
 11
4.6264995636
 21
5.114884872
  0
LINE
  5
318
100
AcDbEntity
  8
0
100
AcDbLine
 62
7
  6
CONTINUOUS
 10
4.6272110687
 20
5.0808036287
 11
4.6264995636
 21
5.080434872
  0
LINE
  5
319
100
AcDbEntity
  8
0
100
AcDbLine
 62
7
  6
CONTINUOUS
 10
4.6272110866
 20
5.0463536288
 11
4.6264995196
 21
5.045984872
  0
LINE
  5
31A
100
AcDbEntity
  8
0
100
AcDbLine
 62
7
  6
CONTINUOUS
 10
4.6272110687
 20
5.0119036287
 11
4.6264995636
 21
5.011534872
  0
LINE
  5
31B
100
AcDbEntity
  8
0
100
AcDbLine
 62
7
  6
CONTINUOUS
 10
4.6272110687
 20
4.9774536287
 11
4.6264995636
 21
4.977084872
  0
LINE
  5
31C
100
AcDbEntity
  8
0
100
AcDbLine
 62
7
  6
CONTINUOUS
 10
4.6272110687
 20
4.9430036287
 11
4.6264995636
 21
4.942634872
  0
LINE
  5
31D
100
AcDbEntity
  8
0
100
AcDbLine
 62
7
  6
CONTINUOUS
 10
4.6272111801
 20
4.9085536286
 11
4.626499503
 21
4.908184872
  0
LINE
  5
31E
100
AcDbEntity
  8
0
100
AcDbLine
 62
7
  6
CONTINUOUS
 10
4.6272110687
 20
4.8741036287
 11
4.6264995636
 21
4.873734872
  0
LINE
  5
31F
100
AcDbEntity
  8
0
100
AcDbLine
 62
7
  6
CONTINUOUS
 10
4.6272110687
 20
4.8396536287
 11
4.6264995636
 21
4.839284872
  0
LINE
  5
320
100
AcDbEntity
  8
0
100
AcDbLine
 62
7
  6
CONTINUOUS
 10
4.6272110687
 20
4.8052036287
 11
4.6264995636
 21
4.804834872
  0
LINE
  5
321
100
AcDbEntity
  8
0
100
AcDbLine
 62
7
  6
CONTINUOUS
 10
4.6272110686
 20
4.7707536287
 11
4.6264995636
 21
4.770384872
  0
LINE
  5
322
100
AcDbEntity
  8
0
100
AcDbLine
 62
7
  6
CONTINUOUS
 10
4.6272110687
 20
4.7363036287
 11
4.6264995636
 21
4.735934872
  0
SPLINE
  5
323
100
AcDbEntity
  8
0
100
AcDbSpline
 62
7
  6
CONTINUOUS
 70
0
 71
3
 72
33
 73
29
 74
0
 42
0.0000001
 43
0.0000001
 44
0.0000000001
 40
0.0
 40
0.0
 40
0.0
 40
0.0
 40
0.0203760966
 40
0.0416231976
 40
0.0640319847
 40
0.087830121
 40
0.1131804308
 40
0.1401881326
 40
0.1689217761
 40
0.1994203684
 40
0.2316982376
 40
0.2657433272
 40
0.3388379059
 40
0.4176930688
 40
0.5000000076
 40
0.5823069361
 40
0.6611620949
 40
0.7342566704
 40
0.7683017603
 40
0.8005796301
 40
0.8310782232
 40
0.8598118678
 40
0.88681957
 40
0.9121698796
 40
0.9359680158
 40
0.9583768026
 40
0.9796239035
 40
1.0
 40
1.0
 40
1.0
 40
1.0
 10
3.9548684474
 20
5.7359782609
 30
0.0
 10
3.9557264069
 20
5.7359782609
 30
0.0
 10
3.9574817618
 20
5.7361305919
 30
0.0
 10
3.9601075009
 20
5.7367823441
 30
0.0
 10
3.9627491539
 20
5.737848461
 30
0.0
 10
3.9653870768
 20
5.7393184652
 30
0.0
 10
3.9680031333
 20
5.7411830576
 30
0.0
 10
3.970575395
 20
5.7434363675
 30
0.0
 10
3.9730798929
 20
5.7460722072
 30
0.0
 10
3.9754881561
 20
5.7490856653
 30
0.0
 10
3.9777688804
 20
5.7524702045
 30
0.0
 10
3.9806579724
 20
5.7575862498
 30
0.0
 10
3.9836871103
 20
5.7648455528
 30
0.0
 10
3.9860419132
 20
5.7744650931
 30
0.0
 10
3.9868720007
 20
5.7847282614
 30
0.0
 10
3.986041913
 20
5.7949914295
 30
0.0
 10
3.9836871102
 20
5.804610969
 30
0.0
 10
3.9806579724
 20
5.8118702718
 30
0.0
 10
3.9777688806
 20
5.816986317
 30
0.0
 10
3.9754881562
 20
5.8203708563
 30
0.0
 10
3.973079893
 20
5.8233843145
 30
0.0
 10
3.970575395
 20
5.8260201543
 30
0.0
 10
3.9680031333
 20
5.8282734642
 30
0.0
 10
3.9653870767
 20
5.8301380566
 30
0.0
 10
3.9627491539
 20
5.8316080608
 30
0.0
 10
3.9601075009
 20
5.8326741776
 30
0.0
 10
3.9574817618
 20
5.8333259298
 30
0.0
 10
3.9557264069
 20
5.8334782609
 30
0.0
 10
3.9548684474
 20
5.8334782609
 30
0.0
  0
SPLINE
  5
324
100
AcDbEntity
  8
0
100
AcDbSpline
 62
7
  6
CONTINUOUS
 70
0
 71
3
 72
33
 73
29
 74
0
 42
0.0000001
 43
0.0000001
 44
0.0000000001
 40
0.0
 40
0.0
 40
0.0
 40
0.0
 40
0.0203760966
 40
0.0416231976
 40
0.0640319847
 40
0.087830121
 40
0.1131804308
 40
0.1401881326
 40
0.1689217761
 40
0.1994203684
 40
0.2316982376
 40
0.2657433272
 40
0.3388379059
 40
0.4176930688
 40
0.5000000076
 40
0.5823069361
 40
0.6611620949
 40
0.7342566704
 40
0.7683017603
 40
0.8005796301
 40
0.8310782232
 40
0.8598118678
 40
0.88681957
 40
0.9121698796
 40
0.9359680158
 40
0.9583768026
 40
0.9796239035
 40
1.0
 40
1.0
 40
1.0
 40
1.0
 10
3.9548684474
 20
5.9329782609
 30
0.0
 10
3.9557264069
 20
5.9329782609
 30
0.0
 10
3.9574817618
 20
5.9331305919
 30
0.0
 10
3.9601075009
 20
5.9337823441
 30
0.0
 10
3.9627491539
 20
5.934848461
 30
0.0
 10
3.9653870768
 20
5.9363184652
 30
0.0
 10
3.9680031333
 20
5.9381830576
 30
0.0
 10
3.970575395
 20
5.9404363675
 30
0.0
 10
3.9730798929
 20
5.9430722072
 30
0.0
 10
3.9754881561
 20
5.9460856653
 30
0.0
 10
3.9777688804
 20
5.9494702045
 30
0.0
 10
3.9806579724
 20
5.9545862498
 30
0.0
 10
3.9836871103
 20
5.9618455528
 30
0.0
 10
3.9860419132
 20
5.9714650931
 30
0.0
 10
3.9868720007
 20
5.9817282614
 30
0.0
 10
3.986041913
 20
5.9919914295
 30
0.0
 10
3.9836871102
 20
6.001610969
 30
0.0
 10
3.9806579724
 20
6.0088702718
 30
0.0
 10
3.9777688806
 20
6.013986317
 30
0.0
 10
3.9754881562
 20
6.0173708563
 30
0.0
 10
3.973079893
 20
6.0203843145
 30
0.0
 10
3.970575395
 20
6.0230201543
 30
0.0
 10
3.9680031333
 20
6.0252734642
 30
0.0
 10
3.9653870767
 20
6.0271380566
 30
0.0
 10
3.9627491539
 20
6.0286080608
 30
0.0
 10
3.9601075009
 20
6.0296741776
 30
0.0
 10
3.9574817618
 20
6.0303259298
 30
0.0
 10
3.9557264069
 20
6.0304782609
 30
0.0
 10
3.9548684474
 20
6.0304782609
 30
0.0
  0
SPLINE
  5
325
100
AcDbEntity
  8
0
100
AcDbSpline
 62
7
  6
CONTINUOUS
 70
0
 71
3
 72
33
 73
29
 74
0
 42
0.0000001
 43
0.0000001
 44
0.0000000001
 40
0.0
 40
0.0
 40
0.0
 40
0.0
 40
0.0205845238
 40
0.0422892423
 40
0.065301002
 40
0.0897531953
 40
0.1157330971
 40
0.1432988274
 40
0.1724821179
 40
0.2032983142
 40
0.2357360546
 40
0.2697656565
 40
0.3422467857
 40
0.4196826318
 40
0.4999999478
 40
0.5803172749
 40
0.6577531338
 40
0.7302342756
 40
0.7642638857
 40
0.796701634
 40
0.827517837
 40
0.856701134
 40
0.8842668707
 40
0.9102467794
 40
0.9346989798
 40
0.9577107465
 40
0.9794154711
 40
1.0
 40
1.0
 40
1.0
 40
1.0
 10
3.955885452
 20
5.9333277339
 30
0.0
 10
3.9566824129
 20
5.9334988787
 30
0.0
 10
3.9582955219
 20
5.9339711638
 30
0.0
 10
3.9606684136
 20
5.9350137284
 30
0.0
 10
3.963037772
 20
5.9363988214
 30
0.0
 10
3.9653883566
 20
5.938119204
 30
0.0
 10
3.9677032768
 20
5.9401700785
 30
0.0
 10
3.969964104
 20
5.942545984
 30
0.0
 10
3.9721491986
 20
5.9452428231
 30
0.0
 10
3.9742353288
 20
5.9482546141
 30
0.0
 10
3.9761951965
 20
5.9515751296
 30
0.0
 10
3.978651628
 20
5.9565029066
 30
0.0
 10
3.9811954468
 20
5.9633563179
 30
0.0
 10
3.9831487078
 20
5.9722923166
 30
0.0
 10
3.9838310368
 20
5.9817282493
 30
0.0
 10
3.9831487111
 20
5.9911641828
 30
0.0
 10
3.9811954527
 20
6.0001001836
 30
0.0
 10
3.9786516357
 20
6.006953597
 30
0.0
 10
3.9761952054
 20
6.0118813758
 30
0.0
 10
3.9742353383
 20
6.0152018928
 30
0.0
 10
3.9721492087
 20
6.0182136852
 30
0.0
 10
3.9699641146
 20
6.0209105257
 30
0.0
 10
3.9677032878
 20
6.0232864326
 30
0.0
 10
3.9653883679
 20
6.0253373087
 30
0.0
 10
3.9630377834
 20
6.0270576928
 30
0.0
 10
3.960668425
 20
6.0284427875
 30
0.0
 10
3.9582955333
 20
6.0294853537
 30
0.0
 10
3.9566824242
 20
6.0299576401
 30
0.0
 10
3.9558854632
 20
6.0301287854
 30
0.0
  0
SPLINE
  5
326
100
AcDbEntity
  8
0
100
AcDbSpline
 62
7
  6
CONTINUOUS
 70
0
 71
3
 72
33
 73
29
 74
0
 42
0.0000001
 43
0.0000001
 44
0.0000000001
 40
0.0
 40
0.0
 40
0.0
 40
0.0
 40
0.0205845238
 40
0.0422892423
 40
0.065301002
 40
0.0897531953
 40
0.1157330971
 40
0.1432988274
 40
0.1724821179
 40
0.2032983142
 40
0.2357360546
 40
0.2697656565
 40
0.3422467857
 40
0.4196826318
 40
0.4999999478
 40
0.5803172749
 40
0.6577531338
 40
0.7302342756
 40
0.7642638857
 40
0.796701634
 40
0.827517837
 40
0.856701134
 40
0.8842668707
 40
0.9102467794
 40
0.9346989798
 40
0.9577107465
 40
0.9794154711
 40
1.0
 40
1.0
 40
1.0
 40
1.0
 10
3.955885452
 20
5.7363277339
 30
0.0
 10
3.9566824129
 20
5.7364988787
 30
0.0
 10
3.9582955219
 20
5.7369711638
 30
0.0
 10
3.9606684136
 20
5.7380137284
 30
0.0
 10
3.963037772
 20
5.7393988214
 30
0.0
 10
3.9653883566
 20
5.741119204
 30
0.0
 10
3.9677032768
 20
5.7431700785
 30
0.0
 10
3.969964104
 20
5.745545984
 30
0.0
 10
3.9721491986
 20
5.7482428231
 30
0.0
 10
3.9742353288
 20
5.7512546141
 30
0.0
 10
3.9761951965
 20
5.7545751296
 30
0.0
 10
3.978651628
 20
5.7595029066
 30
0.0
 10
3.9811954468
 20
5.7663563179
 30
0.0
 10
3.9831487078
 20
5.7752923166
 30
0.0
 10
3.9838310368
 20
5.7847282493
 30
0.0
 10
3.9831487111
 20
5.7941641828
 30
0.0
 10
3.9811954527
 20
5.8031001836
 30
0.0
 10
3.9786516357
 20
5.809953597
 30
0.0
 10
3.9761952054
 20
5.8148813758
 30
0.0
 10
3.9742353383
 20
5.8182018928
 30
0.0
 10
3.9721492087
 20
5.8212136852
 30
0.0
 10
3.9699641146
 20
5.8239105257
 30
0.0
 10
3.9677032878
 20
5.8262864326
 30
0.0
 10
3.9653883679
 20
5.8283373087
 30
0.0
 10
3.9630377834
 20
5.8300576928
 30
0.0
 10
3.960668425
 20
5.8314427875
 30
0.0
 10
3.9582955333
 20
5.8324853537
 30
0.0
 10
3.9566824242
 20
5.8329576401
 30
0.0
 10
3.9558854632
 20
5.8331287854
 30
0.0
  0
LINE
  5
327
100
AcDbEntity
  8
0
100
AcDbLine
 62
7
  6
CONTINUOUS
 10
4.6264995637
 20
4.4028466498
 11
4.6272110687
 21
4.402477893
  0
LINE
  5
328
100
AcDbEntity
  8
0
100
AcDbLine
 62
7
  6
CONTINUOUS
 10
4.6264995637
 20
4.7473466498
 11
4.6272110687
 21
4.746977893
  0
LINE
  5
329
100
AcDbEntity
  8
0
100
AcDbLine
 62
7
  6
CONTINUOUS
 10
3.9984227966
 20
4.7301216498
 11
3.9977112916
 21
4.729752893
  0
LINE
  5
32A
100
AcDbEntity
  8
0
100
AcDbLine
 62
7
  6
CONTINUOUS
 10
4.6264995637
 20
4.7817966498
 11
4.6272110687
 21
4.781427893
  0
LINE
  5
32B
100
AcDbEntity
  8
0
100
AcDbLine
 62
7
  6
CONTINUOUS
 10
4.6264995637
 20
4.8162466498
 11
4.6272110687
 21
4.815877893
  0
LINE
  5
32C
100
AcDbEntity
  8
0
100
AcDbLine
 62
7
  6
CONTINUOUS
 10
4.6264995637
 20
4.8506966498
 11
4.6272110687
 21
4.850327893
  0
LINE
  5
32D
100
AcDbEntity
  8
0
100
AcDbLine
 62
7
  6
CONTINUOUS
 10
4.6264995572
 20
4.8851466498
 11
4.6272111798
 21
4.8847778929
  0
LINE
  5
32E
100
AcDbEntity
  8
0
100
AcDbLine
 62
7
  6
CONTINUOUS
 10
3.9984228147
 20
4.7645716498
 11
3.9977112906
 21
4.764202893
  0
SPLINE
  5
32F
100
AcDbEntity
  8
0
100
AcDbSpline
 62
7
  6
CONTINUOUS
 70
0
 71
3
 72
30
 73
26
 74
0
 42
0.0000001
 43
0.0000001
 44
0.0000000001
 40
0.0
 40
0.0
 40
0.0
 40
0.0
 40
0.059405325
 40
0.1177172979
 40
0.1466165858
 40
0.1754103886
 40
0.2041263732
 40
0.2327927538
 40
0.2614407745
 40
0.2900848661
 40
0.3187381792
 40
0.3474273832
 40
0.3761808489
 40
0.4050205246
 40
0.4339983067
 40
0.4631687648
 40
0.5222576219
 40
0.5828381888
 40
0.6138485527
 40
0.645414506
 40
0.7103998608
 40
0.7781560981
 40
0.8489320264
 40
0.922863967
 40
1.0
 40
1.0
 40
1.0
 40
1.0
 10
4.5259661158
 20
2.3839997856
 30
0.0
 10
4.5279343276
 20
2.3814813123
 30
0.0
 10
4.5315571475
 20
2.3762646287
 30
0.0
 10
4.5351983355
 20
2.3692371046
 30
0.0
 10
4.5374625799
 20
2.3634152554
 30
0.0
 10
4.5388213608
 20
2.3589641828
 30
0.0
 10
4.5398330588
 20
2.3544344044
 30
0.0
 10
4.540483307
 20
2.3498463634
 30
0.0
 10
4.5407608504
 20
2.3452246358
 30
0.0
 10
4.5406668868
 20
2.3405962451
 30
0.0
 10
4.5401987263
 20
2.3359883632
 30
0.0
 10
4.5393628594
 20
2.3314270935
 30
0.0
 10
4.5381738315
 20
2.3269347536
 30
0.0
 10
4.5366424681
 20
2.322531126
 30
0.0
 10
4.5347855316
 20
2.3182304114
 30
0.0
 10
4.5318879292
 20
2.3126224906
 30
0.0
 10
4.5275093692
 20
2.3058896199
 30
0.0
 10
4.522309909
 20
2.2996471542
 30
0.0
 10
4.5176886079
 20
2.2948949551
 30
0.0
 10
4.5126679128
 20
2.2902116018
 30
0.0
 10
4.5057956268
 20
2.2846313966
 30
0.0
 10
4.4967635614
 20
2.2784228749
 30
0.0
 10
4.4869042999
 20
2.2726199391
 30
0.0
 10
4.4762533256
 20
2.2672168194
 30
0.0
 10
4.4688060516
 20
2.2639487733
 30
0.0
 10
4.4649653245
 20
2.2623758163
 30
0.0
  0
SPLINE
  5
330
100
AcDbEntity
  8
0
100
AcDbSpline
 62
7
  6
CONTINUOUS
 70
0
 71
3
 72
30
 73
26
 74
0
 42
0.0000001
 43
0.0000001
 44
0.0000000001
 40
0.0
 40
0.0
 40
0.0
 40
0.0
 40
0.059405325
 40
0.1177172979
 40
0.1466165858
 40
0.1754103886
 40
0.2041263732
 40
0.2327927538
 40
0.2614407745
 40
0.2900848661
 40
0.3187381792
 40
0.3474273832
 40
0.3761808489
 40
0.4050205246
 40
0.4339983067
 40
0.4631687648
 40
0.5222576219
 40
0.5828381888
 40
0.6138485527
 40
0.645414506
 40
0.7103998608
 40
0.7781560981
 40
0.8489320264
 40
0.922863967
 40
1.0
 40
1.0
 40
1.0
 40
1.0
 10
4.5259661158
 20
2.5086171063
 30
0.0
 10
4.5279343276
 20
2.506098633
 30
0.0
 10
4.5315571475
 20
2.5008819495
 30
0.0
 10
4.5351983355
 20
2.4938544253
 30
0.0
 10
4.5374625799
 20
2.4880325761
 30
0.0
 10
4.5388213608
 20
2.4835815035
 30
0.0
 10
4.5398330588
 20
2.4790517251
 30
0.0
 10
4.540483307
 20
2.4744636841
 30
0.0
 10
4.5407608504
 20
2.4698419565
 30
0.0
 10
4.5406668868
 20
2.4652135659
 30
0.0
 10
4.5401987263
 20
2.4606056839
 30
0.0
 10
4.5393628594
 20
2.4560444142
 30
0.0
 10
4.5381738315
 20
2.4515520743
 30
0.0
 10
4.5366424681
 20
2.4471484467
 30
0.0
 10
4.5347855316
 20
2.4428477322
 30
0.0
 10
4.5318879292
 20
2.4372398114
 30
0.0
 10
4.5275093692
 20
2.4305069406
 30
0.0
 10
4.522309909
 20
2.4242644749
 30
0.0
 10
4.5176886079
 20
2.4195122758
 30
0.0
 10
4.5126679128
 20
2.4148289225
 30
0.0
 10
4.5057956268
 20
2.4092487173
 30
0.0
 10
4.4967635614
 20
2.4030401956
 30
0.0
 10
4.4869042999
 20
2.3972372599
 30
0.0
 10
4.4762533256
 20
2.3918341401
 30
0.0
 10
4.4688060516
 20
2.388566094
 30
0.0
 10
4.4649653245
 20
2.386993137
 30
0.0
  0
SPLINE
  5
331
100
AcDbEntity
  8
0
100
AcDbSpline
 62
7
  6
CONTINUOUS
 70
0
 71
3
 72
30
 73
26
 74
0
 42
0.0000001
 43
0.0000001
 44
0.0000000001
 40
0.0
 40
0.0
 40
0.0
 40
0.0
 40
0.059405325
 40
0.1177172979
 40
0.1466165858
 40
0.1754103886
 40
0.2041263732
 40
0.2327927538
 40
0.2614407745
 40
0.2900848661
 40
0.3187381792
 40
0.3474273832
 40
0.3761808489
 40
0.4050205246
 40
0.4339983067
 40
0.4631687648
 40
0.5222576219
 40
0.5828381888
 40
0.6138485527
 40
0.645414506
 40
0.7103998608
 40
0.7781560981
 40
0.8489320264
 40
0.922863967
 40
1.0
 40
1.0
 40
1.0
 40
1.0
 10
4.5259661158
 20
2.6332344271
 30
0.0
 10
4.5279343276
 20
2.6307159538
 30
0.0
 10
4.5315571475
 20
2.6254992702
 30
0.0
 10
4.5351983355
 20
2.618471746
 30
0.0
 10
4.5374625799
 20
2.6126498968
 30
0.0
 10
4.5388213608
 20
2.6081988242
 30
0.0
 10
4.5398330588
 20
2.6036690458
 30
0.0
 10
4.540483307
 20
2.5990810049
 30
0.0
 10
4.5407608504
 20
2.5944592772
 30
0.0
 10
4.5406668868
 20
2.5898308866
 30
0.0
 10
4.5401987263
 20
2.5852230046
 30
0.0
 10
4.5393628594
 20
2.5806617349
 30
0.0
 10
4.5381738315
 20
2.576169395
 30
0.0
 10
4.5366424681
 20
2.5717657674
 30
0.0
 10
4.5347855316
 20
2.5674650529
 30
0.0
 10
4.5318879292
 20
2.5618571321
 30
0.0
 10
4.5275093692
 20
2.5551242613
 30
0.0
 10
4.522309909
 20
2.5488817956
 30
0.0
 10
4.5176886079
 20
2.5441295965
 30
0.0
 10
4.5126679128
 20
2.5394462432
 30
0.0
 10
4.5057956268
 20
2.533866038
 30
0.0
 10
4.4967635614
 20
2.5276575163
 30
0.0
 10
4.4869042999
 20
2.5218545806
 30
0.0
 10
4.4762533256
 20
2.5164514608
 30
0.0
 10
4.4688060516
 20
2.5131834147
 30
0.0
 10
4.4649653245
 20
2.5116104577
 30
0.0
  0
SPLINE
  5
332
100
AcDbEntity
  8
0
100
AcDbSpline
 62
7
  6
CONTINUOUS
 70
0
 71
3
 72
30
 73
26
 74
0
 42
0.0000001
 43
0.0000001
 44
0.0000000001
 40
0.0
 40
0.0
 40
0.0
 40
0.0
 40
0.059405325
 40
0.1177172979
 40
0.1466165858
 40
0.1754103886
 40
0.2041263732
 40
0.2327927538
 40
0.2614407745
 40
0.2900848661
 40
0.3187381792
 40
0.3474273832
 40
0.3761808489
 40
0.4050205246
 40
0.4339983067
 40
0.4631687648
 40
0.5222576219
 40
0.5828381888
 40
0.6138485527
 40
0.645414506
 40
0.7103998608
 40
0.7781560981
 40
0.8489320264
 40
0.922863967
 40
1.0
 40
1.0
 40
1.0
 40
1.0
 10
4.5259661158
 20
2.7578517478
 30
0.0
 10
4.5279343276
 20
2.7553332745
 30
0.0
 10
4.5315571475
 20
2.7501165909
 30
0.0
 10
4.5351983355
 20
2.7430890667
 30
0.0
 10
4.5374625799
 20
2.7372672175
 30
0.0
 10
4.5388213608
 20
2.7328161449
 30
0.0
 10
4.5398330588
 20
2.7282863665
 30
0.0
 10
4.540483307
 20
2.7236983256
 30
0.0
 10
4.5407608504
 20
2.719076598
 30
0.0
 10
4.5406668868
 20
2.7144482073
 30
0.0
 10
4.5401987263
 20
2.7098403253
 30
0.0
 10
4.5393628594
 20
2.7052790556
 30
0.0
 10
4.5381738315
 20
2.7007867157
 30
0.0
 10
4.5366424681
 20
2.6963830881
 30
0.0
 10
4.5347855316
 20
2.6920823736
 30
0.0
 10
4.5318879292
 20
2.6864744528
 30
0.0
 10
4.5275093692
 20
2.679741582
 30
0.0
 10
4.522309909
 20
2.6734991163
 30
0.0
 10
4.5176886079
 20
2.6687469172
 30
0.0
 10
4.5126679128
 20
2.664063564
 30
0.0
 10
4.5057956268
 20
2.6584833587
 30
0.0
 10
4.4967635614
 20
2.652274837
 30
0.0
 10
4.4869042999
 20
2.6464719013
 30
0.0
 10
4.4762533256
 20
2.6410687816
 30
0.0
 10
4.4688060516
 20
2.6378007354
 30
0.0
 10
4.4649653245
 20
2.6362277784
 30
0.0
  0
SPLINE
  5
333
100
AcDbEntity
  8
0
100
AcDbSpline
 62
7
  6
CONTINUOUS
 70
0
 71
3
 72
30
 73
26
 74
0
 42
0.0000001
 43
0.0000001
 44
0.0000000001
 40
0.0
 40
0.0
 40
0.0
 40
0.0
 40
0.059405325
 40
0.1177172979
 40
0.1466165858
 40
0.1754103886
 40
0.2041263732
 40
0.2327927538
 40
0.2614407745
 40
0.2900848661
 40
0.3187381792
 40
0.3474273832
 40
0.3761808489
 40
0.4050205246
 40
0.4339983067
 40
0.4631687648
 40
0.5222576219
 40
0.5828381888
 40
0.6138485527
 40
0.645414506
 40
0.7103998608
 40
0.7781560981
 40
0.8489320264
 40
0.922863967
 40
1.0
 40
1.0
 40
1.0
 40
1.0
 10
4.5259661158
 20
2.8824690685
 30
0.0
 10
4.5279343276
 20
2.8799505952
 30
0.0
 10
4.5315571475
 20
2.8747339116
 30
0.0
 10
4.5351983355
 20
2.8677063874
 30
0.0
 10
4.5374625799
 20
2.8618845382
 30
0.0
 10
4.5388213608
 20
2.8574334656
 30
0.0
 10
4.5398330588
 20
2.8529036872
 30
0.0
 10
4.540483307
 20
2.8483156463
 30
0.0
 10
4.5407608504
 20
2.8436939187
 30
0.0
 10
4.5406668868
 20
2.839065528
 30
0.0
 10
4.5401987263
 20
2.8344576461
 30
0.0
 10
4.5393628594
 20
2.8298963763
 30
0.0
 10
4.5381738315
 20
2.8254040364
 30
0.0
 10
4.5366424681
 20
2.8210004088
 30
0.0
 10
4.5347855316
 20
2.8166996943
 30
0.0
 10
4.5318879292
 20
2.8110917735
 30
0.0
 10
4.5275093692
 20
2.8043589028
 30
0.0
 10
4.522309909
 20
2.798116437
 30
0.0
 10
4.5176886079
 20
2.7933642379
 30
0.0
 10
4.5126679128
 20
2.7886808847
 30
0.0
 10
4.5057956268
 20
2.7831006794
 30
0.0
 10
4.4967635614
 20
2.7768921578
 30
0.0
 10
4.4869042999
 20
2.771089222
 30
0.0
 10
4.4762533256
 20
2.7656861023
 30
0.0
 10
4.4688060516
 20
2.7624180561
 30
0.0
 10
4.4649653245
 20
2.7608450992
 30
0.0
  0
SPLINE
  5
334
100
AcDbEntity
  8
0
100
AcDbSpline
 62
7
  6
CONTINUOUS
 70
0
 71
3
 72
26
 73
22
 74
0
 42
0.0000001
 43
0.0000001
 44
0.0000000001
 40
0.0
 40
0.0
 40
0.0
 40
0.0
 40
0.0771482092
 40
0.1510917526
 40
0.2218789761
 40
0.2896460536
 40
0.354640153
 40
0.3862092675
 40
0.4172239934
 40
0.4778110122
 40
0.5369135648
 40
0.5950302947
 40
0.6525988874
 40
0.6812907862
 40
0.7099528428
 40
0.7672095809
 40
0.8245618411
 40
0.8533598873
 40
0.8822639979
 40
0.9405859871
 40
1.0
 40
1.0
 40
1.0
 40
1.0
 10
4.1599556163
 20
2.8854630012
 30
0.0
 10
4.1561154812
 20
2.8870357471
 30
0.0
 10
4.1486693371
 20
2.8903032983
 30
0.0
 10
4.138019973
 20
2.8957055916
 30
0.0
 10
4.1281620253
 20
2.901507375
 30
0.0
 10
4.1191313341
 20
2.9077148335
 30
0.0
 10
4.112259747
 20
2.9132934827
 30
0.0
 10
4.1072398251
 20
2.9179758761
 30
0.0
 10
4.1026191123
 20
2.9227266929
 30
0.0
 10
4.0974189374
 20
2.9289679097
 30
0.0
 10
4.0921906928
 20
2.9370058611
 30
0.0
 10
4.0881335282
 20
2.9455199812
 30
0.0
 10
4.0858421345
 20
2.9529741829
 30
0.0
 10
4.0847253252
 20
2.9590599002
 30
0.0
 10
4.0841017903
 20
2.9651988168
 30
0.0
 10
4.0842503558
 20
2.9729398439
 30
0.0
 10
4.0856470838
 20
2.9805606933
 30
0.0
 10
4.0874537861
 20
2.9864848416
 30
0.0
 10
4.0897164363
 20
2.9923066556
 30
0.0
 10
4.0933546944
 20
2.9993341999
 30
0.0
 10
4.096975843
 20
3.0045509587
 30
0.0
 10
4.0989431022
 20
3.0070695156
 30
0.0
  0
LINE
  5
335
100
AcDbEntity
  8
0
100
AcDbLine
 62
7
  6
CONTINUOUS
 10
3.9984227966
 20
4.7990216498
 11
3.9977112916
 21
4.798652893
  0
SPLINE
  5
336
100
AcDbEntity
  8
0
100
AcDbSpline
 62
7
  6
CONTINUOUS
 70
0
 71
3
 72
29
 73
25
 74
0
 42
0.0000001
 43
0.0000001
 44
0.0000000001
 40
0.0
 40
0.0
 40
0.0
 40
0.0
 40
0.0771394863
 40
0.1510752571
 40
0.221855407
 40
0.2896161897
 40
0.3546061317
 40
0.3861738707
 40
0.4171864976
 40
0.4777707704
 40
0.5368644974
 40
0.5660355668
 40
0.5950127772
 40
0.6238560369
 40
0.6526103122
 40
0.6812988331
 40
0.7099546407
 40
0.7386003563
 40
0.7672479528
 40
0.8245898492
 40
0.8533824696
 40
0.8822823359
 40
0.9405952898
 40
1.0
 40
1.0
 40
1.0
 40
1.0
 10
4.1599601568
 20
2.2623745393
 30
0.0
 10
4.156120128
 20
2.2639471521
 30
0.0
 10
4.1486741541
 20
2.2672144412
 30
0.0
 10
4.1380249448
 20
2.2726162736
 30
0.0
 10
4.128167045
 20
2.2784176291
 30
0.0
 10
4.1191361346
 20
2.2846245939
 30
0.0
 10
4.1122643047
 20
2.2902030248
 30
0.0
 10
4.1072439317
 20
2.2948850742
 30
0.0
 10
4.1026227944
 20
2.2996358574
 30
0.0
 10
4.0974227973
 20
2.3058761862
 30
0.0
 10
4.0930438206
 20
2.312607128
 30
0.0
 10
4.0901449625
 20
2.3182130322
 30
0.0
 10
4.0882870167
 20
2.3225123561
 30
0.0
 10
4.0867550416
 20
2.326914835
 30
0.0
 10
4.0855641653
 20
2.3314057445
 30
0.0
 10
4.0847264832
 20
2.3359657869
 30
0.0
 10
4.0842574997
 20
2.3405726003
 30
0.0
 10
4.0841608493
 20
2.3452003154
 30
0.0
 10
4.0845278608
 20
2.3513612731
 30
0.0
 10
4.0856446418
 20
2.3574650565
 30
0.0
 10
4.0874504323
 20
2.363388304
 30
0.0
 10
4.0897119526
 20
2.3692101235
 30
0.0
 10
4.0933486585
 20
2.3762377272
 30
0.0
 10
4.0969688397
 20
2.3814545781
 30
0.0
 10
4.0989355736
 20
2.3839732234
 30
0.0
  0
LINE
  5
337
100
AcDbEntity
  8
0
100
AcDbLine
 62
7
  6
CONTINUOUS
 10
3.9984227966
 20
4.8334716498
 11
3.9977112916
 21
4.833102893
  0
SPLINE
  5
338
100
AcDbEntity
  8
0
100
AcDbSpline
 62
7
  6
CONTINUOUS
 70
0
 71
3
 72
29
 73
25
 74
0
 42
0.0000001
 43
0.0000001
 44
0.0000000001
 40
0.0
 40
0.0
 40
0.0
 40
0.0
 40
0.0771394863
 40
0.1510752571
 40
0.221855407
 40
0.2896161897
 40
0.3546061317
 40
0.3861738707
 40
0.4171864976
 40
0.4777707704
 40
0.5368644974
 40
0.5660355668
 40
0.5950127772
 40
0.6238560369
 40
0.6526103122
 40
0.6812988331
 40
0.7099546407
 40
0.7386003563
 40
0.7672479528
 40
0.8245898492
 40
0.8533824696
 40
0.8822823359
 40
0.9405952898
 40
1.0
 40
1.0
 40
1.0
 40
1.0
 10
4.1599601568
 20
2.38699186
 30
0.0
 10
4.156120128
 20
2.3885644728
 30
0.0
 10
4.1486741541
 20
2.3918317619
 30
0.0
 10
4.1380249448
 20
2.3972335943
 30
0.0
 10
4.128167045
 20
2.4030349498
 30
0.0
 10
4.1191361346
 20
2.4092419146
 30
0.0
 10
4.1122643047
 20
2.4148203455
 30
0.0
 10
4.1072439317
 20
2.4195023949
 30
0.0
 10
4.1026227944
 20
2.4242531781
 30
0.0
 10
4.0974227973
 20
2.4304935069
 30
0.0
 10
4.0930438206
 20
2.4372244487
 30
0.0
 10
4.0901449625
 20
2.4428303529
 30
0.0
 10
4.0882870167
 20
2.4471296768
 30
0.0
 10
4.0867550416
 20
2.4515321558
 30
0.0
 10
4.0855641653
 20
2.4560230653
 30
0.0
 10
4.0847264832
 20
2.4605831076
 30
0.0
 10
4.0842574997
 20
2.465189921
 30
0.0
 10
4.0841608493
 20
2.4698176361
 30
0.0
 10
4.0845278608
 20
2.4759785938
 30
0.0
 10
4.0856446418
 20
2.4820823772
 30
0.0
 10
4.0874504323
 20
2.4880056247
 30
0.0
 10
4.0897119526
 20
2.4938274442
 30
0.0
 10
4.0933486585
 20
2.5008550479
 30
0.0
 10
4.0969688397
 20
2.5060718988
 30
0.0
 10
4.0989355736
 20
2.5085905441
 30
0.0
  0
LINE
  5
339
100
AcDbEntity
  8
0
100
AcDbLine
 62
7
  6
CONTINUOUS
 10
3.9984227966
 20
4.8679216498
 11
3.9977112916
 21
4.867552893
  0
SPLINE
  5
33A
100
AcDbEntity
  8
0
100
AcDbSpline
 62
7
  6
CONTINUOUS
 70
0
 71
3
 72
29
 73
25
 74
0
 42
0.0000001
 43
0.0000001
 44
0.0000000001
 40
0.0
 40
0.0
 40
0.0
 40
0.0
 40
0.0771394863
 40
0.1510752571
 40
0.221855407
 40
0.2896161897
 40
0.3546061317
 40
0.3861738707
 40
0.4171864976
 40
0.4777707704
 40
0.5368644974
 40
0.5660355668
 40
0.5950127772
 40
0.6238560369
 40
0.6526103122
 40
0.6812988331
 40
0.7099546407
 40
0.7386003563
 40
0.7672479528
 40
0.8245898492
 40
0.8533824696
 40
0.8822823359
 40
0.9405952898
 40
1.0
 40
1.0
 40
1.0
 40
1.0
 10
4.1599601568
 20
2.5116091807
 30
0.0
 10
4.156120128
 20
2.5131817935
 30
0.0
 10
4.1486741541
 20
2.5164490826
 30
0.0
 10
4.1380249448
 20
2.521850915
 30
0.0
 10
4.128167045
 20
2.5276522705
 30
0.0
 10
4.1191361346
 20
2.5338592353
 30
0.0
 10
4.1122643047
 20
2.5394376662
 30
0.0
 10
4.1072439317
 20
2.5441197156
 30
0.0
 10
4.1026227944
 20
2.5488704988
 30
0.0
 10
4.0974227973
 20
2.5551108276
 30
0.0
 10
4.0930438206
 20
2.5618417694
 30
0.0
 10
4.0901449625
 20
2.5674476736
 30
0.0
 10
4.0882870167
 20
2.5717469975
 30
0.0
 10
4.0867550416
 20
2.5761494765
 30
0.0
 10
4.0855641653
 20
2.580640386
 30
0.0
 10
4.0847264832
 20
2.5852004283
 30
0.0
 10
4.0842574997
 20
2.5898072417
 30
0.0
 10
4.0841608493
 20
2.5944349568
 30
0.0
 10
4.0845278608
 20
2.6005959146
 30
0.0
 10
4.0856446418
 20
2.6066996979
 30
0.0
 10
4.0874504323
 20
2.6126229454
 30
0.0
 10
4.0897119526
 20
2.6184447649
 30
0.0
 10
4.0933486585
 20
2.6254723686
 30
0.0
 10
4.0969688397
 20
2.6306892195
 30
0.0
 10
4.0989355736
 20
2.6332078648
 30
0.0
  0
SPLINE
  5
33B
100
AcDbEntity
  8
0
100
AcDbSpline
 62
7
  6
CONTINUOUS
 70
0
 71
3
 72
29
 73
25
 74
0
 42
0.0000001
 43
0.0000001
 44
0.0000000001
 40
0.0
 40
0.0
 40
0.0
 40
0.0
 40
0.0771394863
 40
0.1510752571
 40
0.221855407
 40
0.2896161897
 40
0.3546061317
 40
0.3861738707
 40
0.4171864976
 40
0.4777707704
 40
0.5368644974
 40
0.5660355668
 40
0.5950127772
 40
0.6238560369
 40
0.6526103122
 40
0.6812988331
 40
0.7099546407
 40
0.7386003563
 40
0.7672479528
 40
0.8245898492
 40
0.8533824696
 40
0.8822823359
 40
0.9405952898
 40
1.0
 40
1.0
 40
1.0
 40
1.0
 10
4.1599601568
 20
2.6362265014
 30
0.0
 10
4.156120128
 20
2.6377991142
 30
0.0
 10
4.1486741541
 20
2.6410664034
 30
0.0
 10
4.1380249448
 20
2.6464682357
 30
0.0
 10
4.128167045
 20
2.6522695912
 30
0.0
 10
4.1191361346
 20
2.658476556
 30
0.0
 10
4.1122643047
 20
2.6640549869
 30
0.0
 10
4.1072439317
 20
2.6687370364
 30
0.0
 10
4.1026227944
 20
2.6734878196
 30
0.0
 10
4.0974227973
 20
2.6797281484
 30
0.0
 10
4.0930438206
 20
2.6864590902
 30
0.0
 10
4.0901449625
 20
2.6920649943
 30
0.0
 10
4.0882870167
 20
2.6963643182
 30
0.0
 10
4.0867550416
 20
2.7007667972
 30
0.0
 10
4.0855641653
 20
2.7052577067
 30
0.0
 10
4.0847264832
 20
2.7098177491
 30
0.0
 10
4.0842574997
 20
2.7144245624
 30
0.0
 10
4.0841608493
 20
2.7190522776
 30
0.0
 10
4.0845278608
 20
2.7252132353
 30
0.0
 10
4.0856446418
 20
2.7313170186
 30
0.0
 10
4.0874504323
 20
2.7372402662
 30
0.0
 10
4.0897119526
 20
2.7430620856
 30
0.0
 10
4.0933486585
 20
2.7500896893
 30
0.0
 10
4.0969688397
 20
2.7553065402
 30
0.0
 10
4.0989355736
 20
2.7578251856
 30
0.0
  0
SPLINE
  5
33C
100
AcDbEntity
  8
0
100
AcDbSpline
 62
7
  6
CONTINUOUS
 70
0
 71
3
 72
29
 73
25
 74
0
 42
0.0000001
 43
0.0000001
 44
0.0000000001
 40
0.0
 40
0.0
 40
0.0
 40
0.0
 40
0.0771394863
 40
0.1510752571
 40
0.221855407
 40
0.2896161897
 40
0.3546061317
 40
0.3861738707
 40
0.4171864976
 40
0.4777707704
 40
0.5368644974
 40
0.5660355668
 40
0.5950127772
 40
0.6238560369
 40
0.6526103122
 40
0.6812988331
 40
0.7099546407
 40
0.7386003563
 40
0.7672479528
 40
0.8245898492
 40
0.8533824696
 40
0.8822823359
 40
0.9405952898
 40
1.0
 40
1.0
 40
1.0
 40
1.0
 10
4.1599601568
 20
2.7608438222
 30
0.0
 10
4.156120128
 20
2.7624164349
 30
0.0
 10
4.1486741541
 20
2.7656837241
 30
0.0
 10
4.1380249448
 20
2.7710855564
 30
0.0
 10
4.128167045
 20
2.7768869119
 30
0.0
 10
4.1191361346
 20
2.7830938767
 30
0.0
 10
4.1122643047
 20
2.7886723076
 30
0.0
 10
4.1072439317
 20
2.7933543571
 30
0.0
 10
4.1026227944
 20
2.7981051403
 30
0.0
 10
4.0974227973
 20
2.8043454691
 30
0.0
 10
4.0930438206
 20
2.8110764109
 30
0.0
 10
4.0901449625
 20
2.8166823151
 30
0.0
 10
4.0882870167
 20
2.820981639
 30
0.0
 10
4.0867550416
 20
2.8253841179
 30
0.0
 10
4.0855641653
 20
2.8298750274
 30
0.0
 10
4.0847264832
 20
2.8344350698
 30
0.0
 10
4.0842574997
 20
2.8390418831
 30
0.0
 10
4.0841608493
 20
2.8436695983
 30
0.0
 10
4.0845278608
 20
2.849830556
 30
0.0
 10
4.0856446418
 20
2.8559343393
 30
0.0
 10
4.0874504323
 20
2.8618575869
 30
0.0
 10
4.0897119526
 20
2.8676794063
 30
0.0
 10
4.0933486585
 20
2.87470701
 30
0.0
 10
4.0969688397
 20
2.879923861
 30
0.0
 10
4.0989355736
 20
2.8824425063
 30
0.0
  0
LINE
  5
33D
100
AcDbEntity
  8
0
100
AcDbLine
 62
7
  6
CONTINUOUS
 10
3.997711229
 20
4.4090286287
 11
3.9984228023
 21
4.4086598721
  0
LINE
  5
33E
100
AcDbEntity
  8
0
100
AcDbLine
 62
7
  6
CONTINUOUS
 10
4.6264995637
 20
4.9195966498
 11
4.6272110687
 21
4.919227893
  0
LINE
  5
33F
100
AcDbEntity
  8
0
100
AcDbLine
 62
7
  6
CONTINUOUS
 10
4.6264995637
 20
4.9540466498
 11
4.6272110687
 21
4.953677893
  0
LINE
  5
340
100
AcDbEntity
  8
0
100
AcDbLine
 62
7
  6
CONTINUOUS
 10
4.6264995637
 20
4.9884966498
 11
4.6272110687
 21
4.988127893
  0
LINE
  5
341
100
AcDbEntity
  8
0
100
AcDbLine
 62
7
  6
CONTINUOUS
 10
3.9984227966
 20
4.9023716498
 11
3.9977112916
 21
4.902002893
  0
LINE
  5
342
100
AcDbEntity
  8
0
100
AcDbLine
 62
7
  6
CONTINUOUS
 10
3.9984227966
 20
4.9368216498
 11
3.9977112916
 21
4.936452893
  0
LINE
  5
343
100
AcDbEntity
  8
0
100
AcDbLine
 62
7
  6
CONTINUOUS
 10
3.9984227966
 20
4.9712716498
 11
3.9977112916
 21
4.970902893
  0
LINE
  5
344
100
AcDbEntity
  8
0
100
AcDbLine
 62
7
  6
CONTINUOUS
 10
3.9984227966
 20
5.0057216498
 11
3.9977112916
 21
5.005352893
  0
LINE
  5
345
100
AcDbEntity
  8
0
100
AcDbLine
 62
7
  6
CONTINUOUS
 10
3.9984228784
 20
5.1779716497
 11
3.9977112032
 21
5.177602893
  0
LINE
  5
346
100
AcDbEntity
  8
0
100
AcDbLine
 62
7
  6
CONTINUOUS
 10
4.6264995637
 20
5.1607466498
 11
4.6272110687
 21
5.160377893
  0
LINE
  5
347
100
AcDbEntity
  8
0
100
AcDbLine
 62
7
  6
CONTINUOUS
 10
4.6264995846
 20
5.0229466497
 11
4.6272110866
 21
5.0225778931
  0
LINE
  5
348
100
AcDbEntity
  8
0
100
AcDbLine
 62
7
  6
CONTINUOUS
 10
4.6264995637
 20
5.0573966498
 11
4.6272110687
 21
5.057027893
  0
LINE
  5
349
100
AcDbEntity
  8
0
100
AcDbLine
 62
7
  6
CONTINUOUS
 10
3.9984229432
 20
5.1435216498
 11
3.9977111888
 21
5.143152893
  0
LINE
  5
34A
100
AcDbEntity
  8
0
100
AcDbLine
 62
7
  6
CONTINUOUS
 10
4.6264995637
 20
5.0918466498
 11
4.6272110687
 21
5.091477893
  0
LINE
  5
34B
100
AcDbEntity
  8
0
100
AcDbLine
 62
7
  6
CONTINUOUS
 10
3.9984227966
 20
5.1090716498
 11
3.9977112916
 21
5.108702893
  0
LINE
  5
34C
100
AcDbEntity
  8
0
100
AcDbLine
 62
7
  6
CONTINUOUS
 10
3.9984227966
 20
5.0746216498
 11
3.9977112916
 21
5.074252893
  0
LINE
  5
34D
100
AcDbEntity
  8
0
100
AcDbLine
 62
7
  6
CONTINUOUS
 10
4.6264995637
 20
5.1262966498
 11
4.6272110687
 21
5.125927893
  0
LINE
  5
34E
100
AcDbEntity
  8
0
100
AcDbLine
 62
7
  6
CONTINUOUS
 10
3.9984227966
 20
5.0401716498
 11
3.9977112916
 21
5.039802893
  0
SPLINE
  5
34F
100
AcDbEntity
  8
0
100
AcDbSpline
 62
7
  6
CONTINUOUS
 70
0
 71
3
 72
30
 73
26
 74
0
 42
0.0000001
 43
0.0000001
 44
0.0000000001
 40
0.0
 40
0.0
 40
0.0
 40
0.0
 40
0.0594010963
 40
0.1177087397
 40
0.1466087024
 40
0.1754040073
 40
0.2041193129
 40
0.2327863203
 40
0.2614360416
 40
0.2900814791
 40
0.3187354739
 40
0.3474253442
 40
0.3761807565
 40
0.4050225094
 40
0.4339994851
 40
0.4631701965
 40
0.5222606067
 40
0.5828393767
 40
0.6138489744
 40
0.6454139481
 40
0.7103982985
 40
0.7781552832
 40
0.8489318365
 40
0.9228640334
 40
1.0
 40
1.0
 40
1.0
 40
1.0
 10
4.5259826021
 20
3.0070654132
 30
0.0
 10
4.5279495305
 20
3.0045469167
 30
0.0
 10
4.5315694471
 20
2.9993301297
 30
0.0
 10
4.5352081095
 20
2.9923032711
 30
0.0
 10
4.5374693868
 20
2.9864815203
 30
0.0
 10
4.5388264645
 20
2.9820306948
 30
0.0
 10
4.5398368654
 20
2.9775013446
 30
0.0
 10
4.5404850262
 20
2.9729137061
 30
0.0
 10
4.540760941
 20
2.9682924893
 30
0.0
 10
4.5406657184
 20
2.9636647144
 30
0.0
 10
4.5401962803
 20
2.9590576036
 30
0.0
 10
4.5393589827
 20
2.9544972169
 30
0.0
 10
4.5381688038
 20
2.9500057547
 30
0.0
 10
4.5366368988
 20
2.9456029745
 30
0.0
 10
4.5347791531
 20
2.9413033789
 30
0.0
 10
4.5318806022
 20
2.9356971109
 30
0.0
 10
4.5275018776
 20
2.9289660038
 30
0.0
 10
4.522302334
 20
2.9227254771
 30
0.0
 10
4.5176814561
 20
2.9179747161
 30
0.0
 10
4.5126613688
 20
2.913292645
 30
0.0
 10
4.5057899942
 20
2.9077138217
 30
0.0
 10
4.4967591618
 20
2.9015067747
 30
0.0
 10
4.4869013933
 20
2.8957049805
 30
0.0
 10
4.4762521207
 20
2.8903029084
 30
0.0
 10
4.4688061095
 20
2.8870354115
 30
0.0
 10
4.4649660447
 20
2.8854627121
 30
0.0
  0
SPLINE
  5
350
100
AcDbEntity
  8
0
100
AcDbSpline
 62
7
  6
CONTINUOUS
 70
0
 71
3
 72
39
 73
35
 74
0
 42
0.0000001
 43
0.0000001
 44
0.0000000001
 40
0.0
 40
0.0
 40
0.0
 40
0.0
 40
0.000522443
 40
0.0007225193
 40
0.0009552567
 40
0.0015233136
 40
0.0022329777
 40
0.0030871452
 40
0.0040873247
 40
0.0052343691
 40
0.0079707117
 40
0.0112981435
 40
0.0152168847
 40
0.0197258015
 40
0.0305042131
 40
0.0436114798
 40
0.0590180463
 40
0.0766875226
 40
0.0965788924
 40
0.1186437664
 40
0.1428305587
 40
0.1690801068
 40
0.1973305283
 40
0.2275130044
 40
0.2595556403
 40
0.2933809986
 40
0.3660507836
 40
0.4448230863
 40
0.5289400226
 40
0.6175916474
 40
0.7099254491
 40
0.8050502783
 40
0.9020555645
 40
1.0
 40
1.0
 40
1.0
 40
1.0
 10
4.6272110687
 20
5.057027893
 30
0.0
 10
4.6272110687
 20
5.0569730319
 30
0.0
 10
4.6271441298
 20
5.0569086359
 30
0.0
 10
4.6270608113
 20
5.0568574277
 30
0.0
 10
4.6269665156
 20
5.0568092036
 30
0.0
 10
4.6268188885
 20
5.0567515597
 30
0.0
 10
4.6266047705
 20
5.0566852991
 30
0.0
 10
4.6263437935
 20
5.05661896
 30
0.0
 10
4.626035679
 20
5.0565523231
 30
0.0
 10
4.6255316312
 20
5.0564576638
 30
0.0
 10
4.624783108
 20
5.0563422066
 30
0.0
 10
4.6237432127
 20
5.0562096183
 30
0.0
 10
4.6225159553
 20
5.0560765585
 30
0.0
 10
4.6205080094
 20
5.0558872144
 30
0.0
 10
4.6175350825
 20
5.05565656
 30
0.0
 10
4.6134175025
 20
5.0553916075
 30
0.0
 10
4.6085750799
 20
5.0551256985
 30
0.0
 10
4.6030193982
 20
5.0548589692
 30
0.0
 10
4.596763846
 20
5.0545917786
 30
0.0
 10
4.5898233777
 20
5.0543242025
 30
0.0
 10
4.5822148038
 20
5.0540563907
 30
0.0
 10
4.5739563318
 20
5.0537883609
 30
0.0
 10
4.5650679576
 20
5.053520197
 30
0.0
 10
4.5555710036
 20
5.0532519025
 30
0.0
 10
4.5454884151
 20
5.0529835149
 30
0.0
 10
4.5309453331
 20
5.0526167375
 30
0.0
 10
4.5114959011
 20
5.0521618606
 30
0.0
 10
4.4867658654
 20
5.0516275356
 30
0.0
 10
4.4603572387
 20
5.0510927588
 30
0.0
 10
4.4325242664
 20
5.0505576286
 30
0.0
 10
4.4035351679
 20
5.0500222611
 30
0.0
 10
4.3736687194
 20
5.0494867212
 30
0.0
 10
4.3432130138
 20
5.0489510816
 30
0.0
 10
4.3227446593
 20
5.0485945294
 30
0.0
 10
4.3124611801
 20
5.048415393
 30
0.0
  0
SPLINE
  5
351
100
AcDbEntity
  8
0
100
AcDbSpline
 62
7
  6
CONTINUOUS
 70
0
 71
3
 72
39
 73
35
 74
0
 42
0.0000001
 43
0.0000001
 44
0.0000000001
 40
0.0
 40
0.0
 40
0.0
 40
0.0
 40
0.0002370941
 40
0.0003818743
 40
0.000551755
 40
0.0009790612
 40
0.0015349645
 40
0.0022260091
 40
0.0030554346
 40
0.0040250252
 40
0.0051358315
 40
0.0077833055
 40
0.0110007521
 40
0.0147890556
 40
0.0191476293
 40
0.0295683055
 40
0.0422463059
 40
0.0571589784
 40
0.0742766607
 40
0.0935672274
 40
0.1149913333
 40
0.138507154
 40
0.1640676769
 40
0.1916213738
 40
0.2211141119
 40
0.2856742595
 40
0.3572309961
 40
0.4352108423
 40
0.5189885967
 40
0.6078916293
 40
0.7012080827
 40
0.7981848251
 40
0.8980543519
 40
1.0
 40
1.0
 40
1.0
 40
1.0
 10
4.6272110866
 20
5.0225778931
 30
0.0
 10
4.6272110947
 20
5.0225563882
 30
0.0
 10
4.6271980647
 20
5.0225217151
 30
0.0
 10
4.6271659276
 20
5.0224833643
 30
0.0
 10
4.6271149358
 20
5.0224389814
 30
0.0
 10
4.6270241622
 20
5.0223857885
 30
0.0
 10
4.6268845752
 20
5.022325638
 30
0.0
 10
4.6267060085
 20
5.022265257
 30
0.0
 10
4.6264883873
 20
5.0222046041
 30
0.0
 10
4.6262315113
 20
5.0221437726
 30
0.0
 10
4.6258114361
 20
5.0220573623
 30
0.0
 10
4.6251873945
 20
5.021951951
 30
0.0
 10
4.6243201784
 20
5.0218308892
 30
0.0
 10
4.6232965385
 20
5.0217094069
 30
0.0
 10
4.6216212813
 20
5.0215365297
 30
0.0
 10
4.6191396071
 20
5.0213259225
 30
0.0
 10
4.615700351
 20
5.0210840099
 30
0.0
 10
4.6116524419
 20
5.0208412436
 30
0.0
 10
4.6070038916
 20
5.0205977147
 30
0.0
 10
4.6017640507
 20
5.0203537755
 30
0.0
 10
4.5959433446
 20
5.0201094843
 30
0.0
 10
4.5895534994
 20
5.019864967
 30
0.0
 10
4.582607325
 20
5.0196202723
 30
0.0
 10
4.5751187292
 20
5.0193754213
 30
0.0
 10
4.5640939442
 20
5.019038583
 30
0.0
 10
4.5490786307
 20
5.01862164
 30
0.0
 10
4.5296657964
 20
5.0181342819
 30
0.0
 10
4.5085094059
 20
5.0176463342
 30
0.0
 10
4.4857793023
 20
5.0171579214
 30
0.0
 10
4.4616578489
 20
5.0166691791
 30
0.0
 10
4.4363389972
 20
5.0161801988
 30
0.0
 10
4.4100252923
 20
5.0156910297
 30
0.0
 10
4.3829287763
 20
5.0152017439
 30
0.0
 10
4.3646266621
 20
5.0148779615
 30
0.0
 10
4.3553814486
 20
5.014715393
 30
0.0
  0
SPLINE
  5
352
100
AcDbEntity
  8
0
100
AcDbSpline
 62
7
  6
CONTINUOUS
 70
0
 71
3
 72
39
 73
35
 74
0
 42
0.0000001
 43
0.0000001
 44
0.0000000001
 40
0.0
 40
0.0
 40
0.0
 40
0.0
 40
0.000522443
 40
0.0007225193
 40
0.0009552567
 40
0.0015233136
 40
0.0022329777
 40
0.0030871452
 40
0.0040873247
 40
0.0052343691
 40
0.0079707117
 40
0.0112981435
 40
0.0152168847
 40
0.0197258015
 40
0.0305042131
 40
0.0436114798
 40
0.0590180463
 40
0.0766875226
 40
0.0965788924
 40
0.1186437664
 40
0.1428305587
 40
0.1690801068
 40
0.1973305283
 40
0.2275130044
 40
0.2595556403
 40
0.2933809986
 40
0.3660507836
 40
0.4448230863
 40
0.5289400226
 40
0.6175916474
 40
0.7099254491
 40
0.8050502783
 40
0.9020555645
 40
1.0
 40
1.0
 40
1.0
 40
1.0
 10
4.6272110687
 20
4.988127893
 30
0.0
 10
4.6272110687
 20
4.9880730319
 30
0.0
 10
4.6271441298
 20
4.9880086359
 30
0.0
 10
4.6270608113
 20
4.9879574277
 30
0.0
 10
4.6269665156
 20
4.9879092036
 30
0.0
 10
4.6268188885
 20
4.9878515597
 30
0.0
 10
4.6266047705
 20
4.9877852991
 30
0.0
 10
4.6263437935
 20
4.98771896
 30
0.0
 10
4.626035679
 20
4.9876523231
 30
0.0
 10
4.6255316312
 20
4.9875576638
 30
0.0
 10
4.624783108
 20
4.9874422066
 30
0.0
 10
4.6237432127
 20
4.9873096183
 30
0.0
 10
4.6225159553
 20
4.9871765585
 30
0.0
 10
4.6205080094
 20
4.9869872144
 30
0.0
 10
4.6175350825
 20
4.98675656
 30
0.0
 10
4.6134175025
 20
4.9864916075
 30
0.0
 10
4.6085750799
 20
4.9862256985
 30
0.0
 10
4.6030193982
 20
4.9859589692
 30
0.0
 10
4.596763846
 20
4.9856917786
 30
0.0
 10
4.5898233777
 20
4.9854242025
 30
0.0
 10
4.5822148038
 20
4.9851563907
 30
0.0
 10
4.5739563318
 20
4.9848883609
 30
0.0
 10
4.5650679576
 20
4.984620197
 30
0.0
 10
4.5555710036
 20
4.9843519025
 30
0.0
 10
4.5454884151
 20
4.9840835149
 30
0.0
 10
4.5309453331
 20
4.9837167375
 30
0.0
 10
4.5114959011
 20
4.9832618606
 30
0.0
 10
4.4867658654
 20
4.9827275356
 30
0.0
 10
4.4603572387
 20
4.9821927588
 30
0.0
 10
4.4325242664
 20
4.9816576286
 30
0.0
 10
4.4035351679
 20
4.9811222611
 30
0.0
 10
4.3736687194
 20
4.9805867212
 30
0.0
 10
4.3432130138
 20
4.9800510816
 30
0.0
 10
4.3227446593
 20
4.9796945294
 30
0.0
 10
4.3124611801
 20
4.979515393
 30
0.0
  0
SPLINE
  5
353
100
AcDbEntity
  8
0
100
AcDbSpline
 62
7
  6
CONTINUOUS
 70
0
 71
3
 72
39
 73
35
 74
0
 42
0.0000001
 43
0.0000001
 44
0.0000000001
 40
0.0
 40
0.0
 40
0.0
 40
0.0
 40
0.000522443
 40
0.0007225193
 40
0.0009552567
 40
0.0015233136
 40
0.0022329777
 40
0.0030871452
 40
0.0040873247
 40
0.0052343691
 40
0.0079707117
 40
0.0112981435
 40
0.0152168847
 40
0.0197258015
 40
0.0305042131
 40
0.0436114798
 40
0.0590180463
 40
0.0766875226
 40
0.0965788924
 40
0.1186437664
 40
0.1428305587
 40
0.1690801068
 40
0.1973305283
 40
0.2275130044
 40
0.2595556403
 40
0.2933809986
 40
0.3660507836
 40
0.4448230863
 40
0.5289400226
 40
0.6175916474
 40
0.7099254491
 40
0.8050502783
 40
0.9020555645
 40
1.0
 40
1.0
 40
1.0
 40
1.0
 10
4.6272110687
 20
4.953677893
 30
0.0
 10
4.6272110687
 20
4.9536230319
 30
0.0
 10
4.6271441298
 20
4.9535586359
 30
0.0
 10
4.6270608113
 20
4.9535074277
 30
0.0
 10
4.6269665156
 20
4.9534592036
 30
0.0
 10
4.6268188885
 20
4.9534015597
 30
0.0
 10
4.6266047705
 20
4.9533352991
 30
0.0
 10
4.6263437935
 20
4.95326896
 30
0.0
 10
4.626035679
 20
4.9532023231
 30
0.0
 10
4.6255316312
 20
4.9531076638
 30
0.0
 10
4.624783108
 20
4.9529922066
 30
0.0
 10
4.6237432127
 20
4.9528596183
 30
0.0
 10
4.6225159553
 20
4.9527265585
 30
0.0
 10
4.6205080094
 20
4.9525372144
 30
0.0
 10
4.6175350825
 20
4.95230656
 30
0.0
 10
4.6134175025
 20
4.9520416075
 30
0.0
 10
4.6085750799
 20
4.9517756985
 30
0.0
 10
4.6030193982
 20
4.9515089692
 30
0.0
 10
4.596763846
 20
4.9512417786
 30
0.0
 10
4.5898233777
 20
4.9509742025
 30
0.0
 10
4.5822148038
 20
4.9507063907
 30
0.0
 10
4.5739563318
 20
4.9504383609
 30
0.0
 10
4.5650679576
 20
4.950170197
 30
0.0
 10
4.5555710036
 20
4.9499019025
 30
0.0
 10
4.5454884151
 20
4.9496335149
 30
0.0
 10
4.5309453331
 20
4.9492667375
 30
0.0
 10
4.5114959011
 20
4.9488118605
 30
0.0
 10
4.4867658654
 20
4.9482775356
 30
0.0
 10
4.4603572387
 20
4.9477427588
 30
0.0
 10
4.4325242664
 20
4.9472076286
 30
0.0
 10
4.4035351679
 20
4.9466722611
 30
0.0
 10
4.3736687194
 20
4.9461367212
 30
0.0
 10
4.3432130138
 20
4.9456010816
 30
0.0
 10
4.3227446593
 20
4.9452445294
 30
0.0
 10
4.3124611801
 20
4.945065393
 30
0.0
  0
SPLINE
  5
354
100
AcDbEntity
  8
0
100
AcDbSpline
 62
7
  6
CONTINUOUS
 70
0
 71
3
 72
23
 73
19
 74
0
 42
0.0000001
 43
0.0000001
 44
0.0000000001
 40
0.0
 40
0.0
 40
0.0
 40
0.0
 40
0.0216665118
 40
0.0437948284
 40
0.0897116347
 40
0.1382352329
 40
0.1896351682
 40
0.2440293451
 40
0.301419099
 40
0.3617190357
 40
0.424780655
 40
0.4904083172
 40
0.5583724427
 40
0.6284199454
 40
0.7002788473
 40
0.773661202
 40
0.8482767327
 40
1.0
 40
1.0
 40
1.0
 40
1.0
 10
4.4649611533
 20
3.3863384917
 30
0.0
 10
4.4649611761
 20
3.3880931975
 30
0.0
 10
4.4648276117
 20
3.3916412672
 30
0.0
 10
4.4640463889
 20
3.3988693475
 30
0.0
 10
4.4621050746
 20
3.4081345538
 30
0.0
 10
4.4584137422
 20
3.4193741308
 30
0.0
 10
4.4534266224
 20
3.4308501431
 30
0.0
 10
4.447236698
 20
3.4425387797
 30
0.0
 10
4.4399362543
 20
3.4544194441
 30
0.0
 10
4.4316178776
 20
3.4664716776
 30
0.0
 10
4.4223744915
 20
3.4786761229
 30
0.0
 10
4.4122990353
 20
3.49101417
 30
0.0
 10
4.4014845782
 20
3.5034683201
 30
0.0
 10
4.3900239901
 20
3.5160219557
 30
0.0
 10
4.378010048
 20
3.5286591174
 30
0.0
 10
4.3655352347
 20
3.5413649233
 30
0.0
 10
4.3483147126
 20
3.5584727972
 30
0.0
 10
4.3351350598
 20
3.5712135983
 30
0.0
 10
4.3262758312
 20
3.5797282609
 30
0.0
  0
SPLINE
  5
355
100
AcDbEntity
  8
0
100
AcDbSpline
 62
7
  6
CONTINUOUS
 70
0
 71
3
 72
39
 73
35
 74
0
 42
0.0000001
 43
0.0000001
 44
0.0000000001
 40
0.0
 40
0.0
 40
0.0
 40
0.0
 40
0.000522443
 40
0.0007225193
 40
0.0009552567
 40
0.0015233136
 40
0.0022329777
 40
0.0030871452
 40
0.0040873247
 40
0.0052343691
 40
0.0079707117
 40
0.0112981435
 40
0.0152168847
 40
0.0197258015
 40
0.0305042131
 40
0.0436114798
 40
0.0590180463
 40
0.0766875226
 40
0.0965788924
 40
0.1186437664
 40
0.1428305587
 40
0.1690801068
 40
0.1973305283
 40
0.2275130044
 40
0.2595556403
 40
0.2933809986
 40
0.3660507836
 40
0.4448230863
 40
0.5289400226
 40
0.6175916474
 40
0.7099254491
 40
0.8050502783
 40
0.9020555645
 40
1.0
 40
1.0
 40
1.0
 40
1.0
 10
4.6272110687
 20
4.919227893
 30
0.0
 10
4.6272110687
 20
4.9191730319
 30
0.0
 10
4.6271441298
 20
4.9191086359
 30
0.0
 10
4.6270608113
 20
4.9190574277
 30
0.0
 10
4.6269665156
 20
4.9190092036
 30
0.0
 10
4.6268188885
 20
4.9189515597
 30
0.0
 10
4.6266047705
 20
4.9188852991
 30
0.0
 10
4.6263437935
 20
4.91881896
 30
0.0
 10
4.626035679
 20
4.9187523231
 30
0.0
 10
4.6255316312
 20
4.9186576638
 30
0.0
 10
4.624783108
 20
4.9185422066
 30
0.0
 10
4.6237432127
 20
4.9184096183
 30
0.0
 10
4.6225159553
 20
4.9182765585
 30
0.0
 10
4.6205080094
 20
4.9180872144
 30
0.0
 10
4.6175350825
 20
4.91785656
 30
0.0
 10
4.6134175025
 20
4.9175916075
 30
0.0
 10
4.6085750799
 20
4.9173256985
 30
0.0
 10
4.6030193982
 20
4.9170589692
 30
0.0
 10
4.596763846
 20
4.9167917786
 30
0.0
 10
4.5898233777
 20
4.9165242025
 30
0.0
 10
4.5822148038
 20
4.9162563907
 30
0.0
 10
4.5739563318
 20
4.9159883609
 30
0.0
 10
4.5650679576
 20
4.915720197
 30
0.0
 10
4.5555710036
 20
4.9154519025
 30
0.0
 10
4.5454884151
 20
4.9151835149
 30
0.0
 10
4.5309453331
 20
4.9148167375
 30
0.0
 10
4.5114959011
 20
4.9143618605
 30
0.0
 10
4.4867658654
 20
4.9138275356
 30
0.0
 10
4.4603572387
 20
4.9132927588
 30
0.0
 10
4.4325242664
 20
4.9127576286
 30
0.0
 10
4.4035351679
 20
4.9122222611
 30
0.0
 10
4.3736687194
 20
4.9116867212
 30
0.0
 10
4.3432130138
 20
4.9111510816
 30
0.0
 10
4.3227446593
 20
4.9107945294
 30
0.0
 10
4.3124611801
 20
4.910615393
 30
0.0
  0
SPLINE
  5
356
100
AcDbEntity
  8
0
100
AcDbSpline
 62
7
  6
CONTINUOUS
 70
0
 71
3
 72
39
 73
35
 74
0
 42
0.0000001
 43
0.0000001
 44
0.0000000001
 40
0.0
 40
0.0
 40
0.0
 40
0.0
 40
0.0005224677
 40
0.0007225728
 40
0.0009553479
 40
0.0015235054
 40
0.0022332601
 40
0.0030874541
 40
0.0040876087
 40
0.0052345927
 40
0.0079707756
 40
0.0112981099
 40
0.0152168904
 40
0.0197257609
 40
0.0305040073
 40
0.0436113434
 40
0.0590177284
 40
0.0766872442
 40
0.0965785095
 40
0.1186433939
 40
0.1428301351
 40
0.169079624
 40
0.197330054
 40
0.2275124605
 40
0.2595551692
 40
0.293380491
 40
0.3660502426
 40
0.4448226252
 40
0.5289396223
 40
0.6175912644
 40
0.7099252065
 40
0.8050500242
 40
0.9020555653
 40
1.0
 40
1.0
 40
1.0
 40
1.0
 10
4.6272111798
 20
4.8847778929
 30
0.0
 10
4.6272111793
 20
4.8847230291
 30
0.0
 10
4.6271442195
 20
4.8846586373
 30
0.0
 10
4.6270608882
 20
4.8846074347
 30
0.0
 10
4.6269665712
 20
4.8845592124
 30
0.0
 10
4.6268189169
 20
4.8845015732
 30
0.0
 10
4.6266047741
 20
4.8844353155
 30
0.0
 10
4.6263437874
 20
4.8843689755
 30
0.0
 10
4.6260356792
 20
4.8843023381
 30
0.0
 10
4.6255316578
 20
4.8842076776
 30
0.0
 10
4.6247831687
 20
4.8840922167
 30
0.0
 10
4.6237432964
 20
4.8839596256
 30
0.0
 10
4.6225160493
 20
4.8838265697
 30
0.0
 10
4.6205081212
 20
4.8836372227
 30
0.0
 10
4.6175352086
 20
4.8834065655
 30
0.0
 10
4.6134176561
 20
4.8831416205
 30
0.0
 10
4.6085752403
 20
4.8828757042
 30
0.0
 10
4.6030195827
 20
4.8826089796
 30
0.0
 10
4.5967640346
 20
4.882341785
 30
0.0
 10
4.5898235796
 20
4.8820742107
 30
0.0
 10
4.582215014
 20
4.8818063978
 30
0.0
 10
4.5739565504
 20
4.8815383674
 30
0.0
 10
4.5650681863
 20
4.8812702042
 30
0.0
 10
4.5555712285
 20
4.881001908
 30
0.0
 10
4.5454886406
 20
4.8807335214
 30
0.0
 10
4.5309455542
 20
4.8803667421
 30
0.0
 10
4.5114961156
 20
4.8799118654
 30
0.0
 10
4.4867660617
 20
4.8793775397
 30
0.0
 10
4.4603574111
 20
4.8788427622
 30
0.0
 10
4.4325244079
 20
4.8783076313
 30
0.0
 10
4.4035352859
 20
4.8777722633
 30
0.0
 10
4.3736687887
 20
4.8772367224
 30
0.0
 10
4.343213049
 20
4.8767010823
 30
0.0
 10
4.3227446622
 20
4.8763445294
 30
0.0
 10
4.3124611801
 20
4.876165393
 30
0.0
  0
SPLINE
  5
357
100
AcDbEntity
  8
0
100
AcDbSpline
 62
7
  6
CONTINUOUS
 70
0
 71
3
 72
15
 73
11
 74
0
 42
0.0000001
 43
0.0000001
 44
0.0000000001
 40
0.0
 40
0.0
 40
0.0
 40
0.0
 40
0.2184797565
 40
0.4090474033
 40
0.571887543
 40
0.7073134491
 40
0.8158949812
 40
0.8604687428
 40
0.8988609118
 40
1.0
 40
1.0
 40
1.0
 40
1.0
 10
4.0196091168
 20
5.1622282609
 30
0.0
 10
4.0194880591
 20
5.1622062462
 30
0.0
 10
4.0192618148
 20
5.1621627395
 30
0.0
 10
4.0189472858
 20
5.162093122
 30
0.0
 10
4.0186808174
 20
5.1620237865
 30
0.0
 10
4.018462124
 20
5.1619545289
 30
0.0
 10
4.0183112958
 20
5.1618942697
 30
0.0
 10
4.0182149922
 20
5.161843907
 30
0.0
 10
4.0181292895
 20
5.161790079
 30
0.0
 10
4.0180613032
 20
5.1617227203
 30
0.0
 10
4.0180612323
 20
5.161665761
 30
0.0
  0
SPLINE
  5
358
100
AcDbEntity
  8
0
100
AcDbSpline
 62
7
  6
CONTINUOUS
 70
0
 71
3
 72
39
 73
35
 74
0
 42
0.0000001
 43
0.0000001
 44
0.0000000001
 40
0.0
 40
0.0
 40
0.0
 40
0.0
 40
0.000522443
 40
0.0007225193
 40
0.0009552567
 40
0.0015233136
 40
0.0022329777
 40
0.0030871452
 40
0.0040873247
 40
0.0052343691
 40
0.0079707117
 40
0.0112981435
 40
0.0152168847
 40
0.0197258015
 40
0.0305042131
 40
0.0436114798
 40
0.0590180463
 40
0.0766875226
 40
0.0965788924
 40
0.1186437664
 40
0.1428305587
 40
0.1690801068
 40
0.1973305283
 40
0.2275130044
 40
0.2595556403
 40
0.2933809986
 40
0.3660507836
 40
0.4448230863
 40
0.5289400226
 40
0.6175916474
 40
0.7099254491
 40
0.8050502783
 40
0.9020555645
 40
1.0
 40
1.0
 40
1.0
 40
1.0
 10
4.6272110687
 20
4.850327893
 30
0.0
 10
4.6272110687
 20
4.8502730319
 30
0.0
 10
4.6271441298
 20
4.8502086359
 30
0.0
 10
4.6270608113
 20
4.8501574277
 30
0.0
 10
4.6269665156
 20
4.8501092036
 30
0.0
 10
4.6268188885
 20
4.8500515597
 30
0.0
 10
4.6266047705
 20
4.8499852991
 30
0.0
 10
4.6263437935
 20
4.84991896
 30
0.0
 10
4.626035679
 20
4.8498523231
 30
0.0
 10
4.6255316312
 20
4.8497576638
 30
0.0
 10
4.624783108
 20
4.8496422066
 30
0.0
 10
4.6237432127
 20
4.8495096183
 30
0.0
 10
4.6225159553
 20
4.8493765585
 30
0.0
 10
4.6205080094
 20
4.8491872144
 30
0.0
 10
4.6175350825
 20
4.84895656
 30
0.0
 10
4.6134175025
 20
4.8486916075
 30
0.0
 10
4.6085750799
 20
4.8484256985
 30
0.0
 10
4.6030193982
 20
4.8481589692
 30
0.0
 10
4.596763846
 20
4.8478917786
 30
0.0
 10
4.5898233777
 20
4.8476242025
 30
0.0
 10
4.5822148038
 20
4.8473563907
 30
0.0
 10
4.5739563318
 20
4.8470883609
 30
0.0
 10
4.5650679576
 20
4.846820197
 30
0.0
 10
4.5555710036
 20
4.8465519025
 30
0.0
 10
4.5454884151
 20
4.8462835149
 30
0.0
 10
4.5309453331
 20
4.8459167375
 30
0.0
 10
4.5114959011
 20
4.8454618605
 30
0.0
 10
4.4867658654
 20
4.8449275356
 30
0.0
 10
4.4603572387
 20
4.8443927588
 30
0.0
 10
4.4325242664
 20
4.8438576286
 30
0.0
 10
4.4035351679
 20
4.8433222611
 30
0.0
 10
4.3736687194
 20
4.8427867212
 30
0.0
 10
4.3432130138
 20
4.8422510816
 30
0.0
 10
4.3227446593
 20
4.8418945294
 30
0.0
 10
4.3124611801
 20
4.841715393
 30
0.0
  0
SPLINE
  5
359
100
AcDbEntity
  8
0
100
AcDbSpline
 62
7
  6
CONTINUOUS
 70
0
 71
3
 72
12
 73
8
 74
0
 42
0.0000001
 43
0.0000001
 44
0.0000000001
 40
0.0
 40
0.0
 40
0.0
 40
0.0
 40
0.2747016155
 40
0.5392983723
 40
0.784064576
 40
0.8961607147
 40
1.0
 40
1.0
 40
1.0
 40
1.0
 10
4.3124611801
 20
4.7276911287
 30
0.0
 10
4.2924311505
 20
4.7273422092
 30
0.0
 10
4.2531078898
 20
4.726657315
 30
0.0
 10
4.1959380072
 20
4.7256247304
 30
0.0
 10
4.1506256128
 20
4.7247433615
 30
0.0
 10
4.1170358596
 20
4.7240248769
 30
0.0
 10
4.1012925896
 20
4.7236616692
 30
0.0
 10
4.0937221597
 20
4.7234782647
 30
0.0
  0
SPLINE
  5
35A
100
AcDbEntity
  8
0
100
AcDbSpline
 62
7
  6
CONTINUOUS
 70
0
 71
3
 72
30
 73
26
 74
0
 42
0.0000001
 43
0.0000001
 44
0.0000000001
 40
0.0
 40
0.0
 40
0.0
 40
0.0
 40
0.1871952894
 40
0.2787245434
 40
0.3677975185
 40
0.453625249
 40
0.5354519329
 40
0.6125554168
 40
0.6842559485
 40
0.7499212207
 40
0.808972689
 40
0.8608903728
 40
0.8840291009
 40
0.9052177572
 40
0.9244110532
 40
0.9415662246
 40
0.9566465401
 40
0.9696197108
 40
0.9804581081
 40
0.9850703887
 40
0.9891416202
 40
0.9926700473
 40
0.9956552528
 40
0.9980978099
 40
1.0
 40
1.0
 40
1.0
 40
1.0
 10
4.3124611801
 20
4.738365393
 30
0.0
 10
4.292858589
 20
4.7380239195
 30
0.0
 10
4.263671296
 20
4.737515593
 30
0.0
 10
4.2251568383
 20
4.7368266725
 30
0.0
 10
4.1972574803
 20
4.7363139667
 30
0.0
 10
4.1703744768
 20
4.7358014524
 30
0.0
 10
4.1447453084
 20
4.7352892069
 30
0.0
 10
4.1205960297
 20
4.7347773346
 30
0.0
 10
4.0981397811
 20
4.7342659685
 30
0.0
 10
4.0775746858
 20
4.7337553589
 30
0.0
 10
4.0590821902
 20
4.7332457113
 30
0.0
 10
4.0450434319
 20
4.7328072363
 30
0.0
 10
4.0349696417
 20
4.7324514934
 30
0.0
 10
4.0283218399
 20
4.7321952348
 30
0.0
 10
4.0223012087
 20
4.7319393132
 30
0.0
 10
4.0169209457
 20
4.7316837732
 30
0.0
 10
4.0121929166
 20
4.7314288749
 30
0.0
 10
4.008127527
 20
4.7311747636
 30
0.0
 10
4.0051586663
 20
4.730954071
 30
0.0
 10
4.003122015
 20
4.7307736653
 30
0.0
 10
4.0018493672
 20
4.730645993
 30
0.0
 10
4.000748072
 20
4.7305186647
 30
0.0
 10
3.9998185431
 20
4.7303919287
 30
0.0
 10
3.9990611829
 20
4.7302659586
 30
0.0
 10
3.9986156475
 20
4.7301716309
 30
0.0
 10
3.9984227966
 20
4.7301216498
 30
0.0
  0
SPLINE
  5
35B
100
AcDbEntity
  8
0
100
AcDbSpline
 62
7
  6
CONTINUOUS
 70
0
 71
3
 72
30
 73
26
 74
0
 42
0.0000001
 43
0.0000001
 44
0.0000000001
 40
0.0
 40
0.0
 40
0.0
 40
0.0
 40
0.1871953475
 40
0.278724538
 40
0.3677975429
 40
0.4536252769
 40
0.535451975
 40
0.6125554627
 40
0.6842559723
 40
0.7499212397
 40
0.8089727039
 40
0.8608904089
 40
0.8840291397
 40
0.9052178276
 40
0.9244110604
 40
0.941566316
 40
0.9566465476
 40
0.9696198094
 40
0.9804581448
 40
0.985070389
 40
0.9891416702
 40
0.9926701576
 40
0.9956553265
 40
0.9980978225
 40
1.0
 40
1.0
 40
1.0
 40
1.0
 10
4.3124611801
 20
4.772815393
 30
0.0
 10
4.2928585841
 20
4.7724739194
 30
0.0
 10
4.2636712933
 20
4.771965593
 30
0.0
 10
4.2251568352
 20
4.7712766724
 30
0.0
 10
4.1972574819
 20
4.7707639667
 30
0.0
 10
4.170374475
 20
4.7702514524
 30
0.0
 10
4.1447453058
 20
4.7697392069
 30
0.0
 10
4.1205960288
 20
4.7692273347
 30
0.0
 10
4.098139784
 20
4.7687159684
 30
0.0
 10
4.0775746931
 20
4.7682053589
 30
0.0
 10
4.0590821972
 20
4.7676957111
 30
0.0
 10
4.0450434377
 20
4.7672572367
 30
0.0
 10
4.0349696423
 20
4.766901493
 30
0.0
 10
4.0283218438
 20
4.7666452359
 30
0.0
 10
4.0223012076
 20
4.7663893114
 30
0.0
 10
4.0169209512
 20
4.7661337756
 30
0.0
 10
4.012192913
 20
4.7658788724
 30
0.0
 10
4.0081275292
 20
4.7656247656
 30
0.0
 10
4.0051586695
 20
4.7654040716
 30
0.0
 10
4.0031220237
 20
4.7652236639
 30
0.0
 10
4.0018493681
 20
4.7650959924
 30
0.0
 10
4.0007480649
 20
4.7649686669
 30
0.0
 10
3.9998185401
 20
4.7648419296
 30
0.0
 10
3.9990611918
 20
4.7647159579
 30
0.0
 10
3.9986156647
 20
4.7646216295
 30
0.0
 10
3.9984228147
 20
4.7645716498
 30
0.0
  0
SPLINE
  5
35C
100
AcDbEntity
  8
0
100
AcDbSpline
 62
7
  6
CONTINUOUS
 70
0
 71
3
 72
39
 73
35
 74
0
 42
0.0000001
 43
0.0000001
 44
0.0000000001
 40
0.0
 40
0.0
 40
0.0
 40
0.0
 40
0.0979444355
 40
0.1949497217
 40
0.2900745509
 40
0.3824083526
 40
0.4710599774
 40
0.5551769137
 40
0.6339492164
 40
0.7066190014
 40
0.7404443597
 40
0.7724869956
 40
0.8026694717
 40
0.8309198932
 40
0.8571694413
 40
0.8813562336
 40
0.9034211076
 40
0.9233124774
 40
0.9409819537
 40
0.9563885202
 40
0.9694957869
 40
0.9802741985
 40
0.9847831153
 40
0.9887018565
 40
0.9920292883
 40
0.9947656309
 40
0.9959126753
 40
0.9969128548
 40
0.9977670223
 40
0.9984766864
 40
0.9990447433
 40
0.9992774807
 40
0.999477557
 40
1.0
 40
1.0
 40
1.0
 40
1.0
 10
4.3124611801
 20
4.7621411287
 30
0.0
 10
4.3021777009
 20
4.7619619924
 30
0.0
 10
4.2817093465
 20
4.7616054401
 30
0.0
 10
4.2512536409
 20
4.7610698006
 30
0.0
 10
4.2213871924
 20
4.7605342606
 30
0.0
 10
4.1923980939
 20
4.7599988931
 30
0.0
 10
4.1645651215
 20
4.759463763
 30
0.0
 10
4.1381564949
 20
4.7589289861
 30
0.0
 10
4.1134264592
 20
4.7583946612
 30
0.0
 10
4.0939770272
 20
4.7579397842
 30
0.0
 10
4.0794339451
 20
4.7575730069
 30
0.0
 10
4.0693513566
 20
4.7573046192
 30
0.0
 10
4.0598544027
 20
4.7570363247
 30
0.0
 10
4.0509660285
 20
4.7567681608
 30
0.0
 10
4.0427075564
 20
4.756500131
 30
0.0
 10
4.0350989825
 20
4.7562323192
 30
0.0
 10
4.0281585142
 20
4.7559647432
 30
0.0
 10
4.021902962
 20
4.7556975525
 30
0.0
 10
4.0163472803
 20
4.7554308232
 30
0.0
 10
4.0115048578
 20
4.7551649143
 30
0.0
 10
4.0073872778
 20
4.7548999618
 30
0.0
 10
4.0044143508
 20
4.7546693073
 30
0.0
 10
4.0024064049
 20
4.7544799632
 30
0.0
 10
4.0011791475
 20
4.7543469035
 30
0.0
 10
4.0001392522
 20
4.7542143152
 30
0.0
 10
3.999390729
 20
4.754098858
 30
0.0
 10
3.9988866813
 20
4.7540041986
 30
0.0
 10
3.9985785668
 20
4.7539375618
 30
0.0
 10
3.9983175897
 20
4.7538712227
 30
0.0
 10
3.9981034718
 20
4.753804962
 30
0.0
 10
3.9979558447
 20
4.7537473182
 30
0.0
 10
3.9978615489
 20
4.7536990941
 30
0.0
 10
3.9977782304
 20
4.7536478859
 30
0.0
 10
3.9977112916
 20
4.7535834899
 30
0.0
 10
3.9977112916
 20
4.7535286287
 30
0.0
  0
SPLINE
  5
35D
100
AcDbEntity
  8
0
100
AcDbSpline
 62
7
  6
CONTINUOUS
 70
0
 71
3
 72
39
 73
35
 74
0
 42
0.0000001
 43
0.0000001
 44
0.0000000001
 40
0.0
 40
0.0
 40
0.0
 40
0.0
 40
0.093478315
 40
0.1872588766
 40
0.2802719572
 40
0.3714615371
 40
0.4597895434
 40
0.5442515275
 40
0.6238869066
 40
0.6977900298
 40
0.7323267706
 40
0.7651207872
 40
0.7960794568
 40
0.8251139863
 40
0.8521428729
 40
0.8770884093
 40
0.8998810024
 40
0.9204549265
 40
0.9387534459
 40
0.9547240087
 40
0.96832361
 40
0.9795142601
 40
0.9841974928
 40
0.9882690454
 40
0.9917267195
 40
0.9945699183
 40
0.9957616387
 40
0.9968006787
 40
0.9976879085
 40
0.9984248565
 40
0.9990143719
 40
0.9992556233
 40
0.9994627422
 40
1.0
 40
1.0
 40
1.0
 40
1.0
 10
4.3526064606
 20
5.0332282609
 30
0.0
 10
4.3421747354
 20
5.0330321492
 30
0.0
 10
4.3212775017
 20
5.0326421716
 30
0.0
 10
4.2900003997
 20
5.0320603353
 30
0.0
 10
4.2589787978
 20
5.0314785524
 30
0.0
 10
4.2285658876
 20
5.0308969061
 30
0.0
 10
4.1991075812
 20
5.0303154837
 30
0.0
 10
4.1709391479
 20
5.0297344133
 30
0.0
 10
4.1443810961
 20
5.029153814
 30
0.0
 10
4.1233948963
 20
5.0286601129
 30
0.0
 10
4.1076361218
 20
5.0282619902
 30
0.0
 10
4.0966694378
 20
5.0279702494
 30
0.0
 10
4.0863171079
 20
5.0276786294
 30
0.0
 10
4.0766085194
 20
5.027387122
 30
0.0
 10
4.0675714027
 20
5.0270957966
 30
0.0
 10
4.059231361
 20
5.0268046632
 30
0.0
 10
4.0516122534
 20
5.026513836
 30
0.0
 10
4.0447356266
 20
5.0262233734
 30
0.0
 10
4.0386211696
 20
5.0259334675
 30
0.0
 10
4.033286077
 20
5.0256444012
 30
0.0
 10
4.0287456254
 20
5.0253564175
 30
0.0
 10
4.0254653252
 20
5.0251057268
 30
0.0
 10
4.0232486044
 20
5.024899915
 30
0.0
 10
4.021893143
 20
5.0247552813
 30
0.0
 10
4.0207443661
 20
5.0246111657
 30
0.0
 10
4.0199173638
 20
5.0244856531
 30
0.0
 10
4.0193604182
 20
5.0243827482
 30
0.0
 10
4.0190199537
 20
5.0243103095
 30
0.0
 10
4.0187315472
 20
5.0242381985
 30
0.0
 10
4.0184948825
 20
5.0241661742
 30
0.0
 10
4.0183316799
 20
5.0241035332
 30
0.0
 10
4.0182273576
 20
5.0240510882
 30
0.0
 10
4.0181356541
 20
5.0239956551
 30
0.0
 10
4.018061238
 20
5.0239257267
 30
0.0
 10
4.0180612679
 20
5.0238657608
 30
0.0
  0
SPLINE
  5
35E
100
AcDbEntity
  8
0
100
AcDbSpline
 62
7
  6
CONTINUOUS
 70
0
 71
3
 72
39
 73
35
 74
0
 42
0.0000001
 43
0.0000001
 44
0.0000000001
 40
0.0
 40
0.0
 40
0.0
 40
0.0
 40
0.0979443522
 40
0.194949762
 40
0.290074521
 40
0.382408345
 40
0.4710599582
 40
0.5551769042
 40
0.6339492106
 40
0.706619004
 40
0.7404443214
 40
0.7724870048
 40
0.8026694309
 40
0.8309198828
 40
0.8571694139
 40
0.8813562006
 40
0.9034211042
 40
0.923312415
 40
0.9409819652
 40
0.9563884474
 40
0.9694958169
 40
0.9802741337
 40
0.9847830512
 40
0.9887018805
 40
0.9920293044
 40
0.9947655837
 40
0.9959126016
 40
0.996912772
 40
0.9977669576
 40
0.998476674
 40
0.9990447695
 40
0.9992775127
 40
0.9994775879
 40
1.0
 40
1.0
 40
1.0
 40
1.0
 10
4.3124611801
 20
4.7965911287
 30
0.0
 10
4.3021777094
 20
4.7964119925
 30
0.0
 10
4.2817093504
 20
4.7960554402
 30
0.0
 10
4.2512536473
 20
4.7955198007
 30
0.0
 10
4.2213871902
 20
4.7949842605
 30
0.0
 10
4.1923980973
 20
4.7944488932
 30
0.0
 10
4.1645651223
 20
4.7939137629
 30
0.0
 10
4.1381564949
 20
4.7933789862
 30
0.0
 10
4.1134264564
 20
4.792844661
 30
0.0
 10
4.093977027
 20
4.7923897848
 30
0.0
 10
4.0794339432
 20
4.7920230063
 30
0.0
 10
4.069351359
 20
4.7917546199
 30
0.0
 10
4.0598544019
 20
4.7914863242
 30
0.0
 10
4.0509660313
 20
4.7912181612
 30
0.0
 10
4.0427075583
 20
4.790950131
 30
0.0
 10
4.0350989835
 20
4.7906823187
 30
0.0
 10
4.0281585187
 20
4.7904147442
 30
0.0
 10
4.0219029618
 20
4.7901475508
 30
0.0
 10
4.0163472871
 20
4.7898808256
 30
0.0
 10
4.0115048551
 20
4.7896149114
 30
0.0
 10
4.0073872826
 20
4.7893499647
 30
0.0
 10
4.0044143549
 20
4.7891193069
 30
0.0
 10
4.0024064098
 20
4.7889299612
 30
0.0
 10
4.0011791434
 20
4.7887969054
 30
0.0
 10
4.0001392463
 20
4.7886643167
 30
0.0
 10
3.9993907336
 20
4.7885488581
 30
0.0
 10
3.9988866966
 20
4.7884541982
 30
0.0
 10
3.998578584
 20
4.788387561
 30
0.0
 10
3.9983176007
 20
4.7883212207
 30
0.0
 10
3.9981034702
 20
4.788254962
 30
0.0
 10
3.9979558317
 20
4.7881973196
 30
0.0
 10
3.9978615311
 20
4.7881490944
 30
0.0
 10
3.997778215
 20
4.7880978886
 30
0.0
 10
3.9977112811
 20
4.7880334866
 30
0.0
 10
3.9977112906
 20
4.7879786287
 30
0.0
  0
SPLINE
  5
35F
100
AcDbEntity
  8
0
100
AcDbSpline
 62
7
  6
CONTINUOUS
 70
0
 71
3
 72
30
 73
26
 74
0
 42
0.0000001
 43
0.0000001
 44
0.0000000001
 40
0.0
 40
0.0
 40
0.0
 40
0.0
 40
0.1871952894
 40
0.2787245434
 40
0.3677975185
 40
0.453625249
 40
0.5354519329
 40
0.6125554168
 40
0.6842559485
 40
0.7499212207
 40
0.808972689
 40
0.8608903728
 40
0.8840291009
 40
0.9052177572
 40
0.9244110532
 40
0.9415662246
 40
0.9566465401
 40
0.9696197108
 40
0.9804581081
 40
0.9850703887
 40
0.9891416202
 40
0.9926700473
 40
0.9956552528
 40
0.9980978099
 40
1.0
 40
1.0
 40
1.0
 40
1.0
 10
4.3124611801
 20
4.807265393
 30
0.0
 10
4.292858589
 20
4.8069239195
 30
0.0
 10
4.263671296
 20
4.806415593
 30
0.0
 10
4.2251568383
 20
4.8057266725
 30
0.0
 10
4.1972574803
 20
4.8052139667
 30
0.0
 10
4.1703744768
 20
4.8047014524
 30
0.0
 10
4.1447453084
 20
4.8041892069
 30
0.0
 10
4.1205960297
 20
4.8036773346
 30
0.0
 10
4.0981397811
 20
4.8031659685
 30
0.0
 10
4.0775746858
 20
4.8026553589
 30
0.0
 10
4.0590821902
 20
4.8021457113
 30
0.0
 10
4.0450434319
 20
4.8017072363
 30
0.0
 10
4.0349696417
 20
4.8013514934
 30
0.0
 10
4.0283218399
 20
4.8010952348
 30
0.0
 10
4.0223012087
 20
4.8008393132
 30
0.0
 10
4.0169209457
 20
4.8005837732
 30
0.0
 10
4.0121929166
 20
4.8003288749
 30
0.0
 10
4.008127527
 20
4.8000747636
 30
0.0
 10
4.0051586663
 20
4.799854071
 30
0.0
 10
4.003122015
 20
4.7996736653
 30
0.0
 10
4.0018493672
 20
4.799545993
 30
0.0
 10
4.000748072
 20
4.7994186647
 30
0.0
 10
3.9998185431
 20
4.7992919287
 30
0.0
 10
3.9990611829
 20
4.7991659586
 30
0.0
 10
3.9986156475
 20
4.7990716309
 30
0.0
 10
3.9984227966
 20
4.7990216498
 30
0.0
  0
SPLINE
  5
360
100
AcDbEntity
  8
0
100
AcDbSpline
 62
7
  6
CONTINUOUS
 70
0
 71
3
 72
39
 73
35
 74
0
 42
0.0000001
 43
0.0000001
 44
0.0000000001
 40
0.0
 40
0.0
 40
0.0
 40
0.0
 40
0.0979444355
 40
0.1949497217
 40
0.2900745509
 40
0.3824083526
 40
0.4710599774
 40
0.5551769137
 40
0.6339492164
 40
0.7066190014
 40
0.7404443597
 40
0.7724869956
 40
0.8026694717
 40
0.8309198932
 40
0.8571694413
 40
0.8813562336
 40
0.9034211076
 40
0.9233124774
 40
0.9409819537
 40
0.9563885202
 40
0.9694957869
 40
0.9802741985
 40
0.9847831153
 40
0.9887018565
 40
0.9920292883
 40
0.9947656309
 40
0.9959126753
 40
0.9969128548
 40
0.9977670223
 40
0.9984766864
 40
0.9990447433
 40
0.9992774807
 40
0.999477557
 40
1.0
 40
1.0
 40
1.0
 40
1.0
 10
4.3124611801
 20
4.8310411287
 30
0.0
 10
4.3021777009
 20
4.8308619924
 30
0.0
 10
4.2817093465
 20
4.8305054401
 30
0.0
 10
4.2512536409
 20
4.8299698006
 30
0.0
 10
4.2213871924
 20
4.8294342606
 30
0.0
 10
4.1923980939
 20
4.8288988931
 30
0.0
 10
4.1645651215
 20
4.828363763
 30
0.0
 10
4.1381564949
 20
4.8278289861
 30
0.0
 10
4.1134264592
 20
4.8272946612
 30
0.0
 10
4.0939770272
 20
4.8268397842
 30
0.0
 10
4.0794339451
 20
4.8264730069
 30
0.0
 10
4.0693513566
 20
4.8262046192
 30
0.0
 10
4.0598544027
 20
4.8259363247
 30
0.0
 10
4.0509660285
 20
4.8256681608
 30
0.0
 10
4.0427075564
 20
4.825400131
 30
0.0
 10
4.0350989825
 20
4.8251323192
 30
0.0
 10
4.0281585142
 20
4.8248647432
 30
0.0
 10
4.021902962
 20
4.8245975525
 30
0.0
 10
4.0163472803
 20
4.8243308232
 30
0.0
 10
4.0115048578
 20
4.8240649143
 30
0.0
 10
4.0073872778
 20
4.8237999618
 30
0.0
 10
4.0044143508
 20
4.8235693073
 30
0.0
 10
4.0024064049
 20
4.8233799632
 30
0.0
 10
4.0011791475
 20
4.8232469035
 30
0.0
 10
4.0001392522
 20
4.8231143152
 30
0.0
 10
3.999390729
 20
4.822998858
 30
0.0
 10
3.9988866813
 20
4.8229041986
 30
0.0
 10
3.9985785668
 20
4.8228375618
 30
0.0
 10
3.9983175897
 20
4.8227712227
 30
0.0
 10
3.9981034718
 20
4.822704962
 30
0.0
 10
3.9979558447
 20
4.8226473182
 30
0.0
 10
3.9978615489
 20
4.8225990941
 30
0.0
 10
3.9977782304
 20
4.8225478859
 30
0.0
 10
3.9977112916
 20
4.8224834899
 30
0.0
 10
3.9977112916
 20
4.8224286287
 30
0.0
  0
SPLINE
  5
361
100
AcDbEntity
  8
0
100
AcDbSpline
 62
7
  6
CONTINUOUS
 70
0
 71
3
 72
30
 73
26
 74
0
 42
0.0000001
 43
0.0000001
 44
0.0000000001
 40
0.0
 40
0.0
 40
0.0
 40
0.0
 40
0.1871952894
 40
0.2787245434
 40
0.3677975185
 40
0.453625249
 40
0.5354519329
 40
0.6125554168
 40
0.6842559485
 40
0.7499212207
 40
0.808972689
 40
0.8608903728
 40
0.8840291009
 40
0.9052177572
 40
0.9244110532
 40
0.9415662246
 40
0.9566465401
 40
0.9696197108
 40
0.9804581081
 40
0.9850703887
 40
0.9891416202
 40
0.9926700473
 40
0.9956552528
 40
0.9980978099
 40
1.0
 40
1.0
 40
1.0
 40
1.0
 10
4.3124611801
 20
4.841715393
 30
0.0
 10
4.292858589
 20
4.8413739195
 30
0.0
 10
4.263671296
 20
4.840865593
 30
0.0
 10
4.2251568383
 20
4.8401766725
 30
0.0
 10
4.1972574803
 20
4.8396639666
 30
0.0
 10
4.1703744768
 20
4.8391514524
 30
0.0
 10
4.1447453084
 20
4.8386392069
 30
0.0
 10
4.1205960297
 20
4.8381273346
 30
0.0
 10
4.0981397811
 20
4.8376159685
 30
0.0
 10
4.0775746858
 20
4.8371053589
 30
0.0
 10
4.0590821902
 20
4.8365957113
 30
0.0
 10
4.0450434319
 20
4.8361572363
 30
0.0
 10
4.0349696417
 20
4.8358014934
 30
0.0
 10
4.0283218399
 20
4.8355452348
 30
0.0
 10
4.0223012087
 20
4.8352893132
 30
0.0
 10
4.0169209457
 20
4.8350337732
 30
0.0
 10
4.0121929166
 20
4.8347788749
 30
0.0
 10
4.008127527
 20
4.8345247636
 30
0.0
 10
4.0051586663
 20
4.834304071
 30
0.0
 10
4.003122015
 20
4.8341236653
 30
0.0
 10
4.0018493672
 20
4.833995993
 30
0.0
 10
4.000748072
 20
4.8338686647
 30
0.0
 10
3.9998185431
 20
4.8337419287
 30
0.0
 10
3.9990611829
 20
4.8336159586
 30
0.0
 10
3.9986156475
 20
4.8335216309
 30
0.0
 10
3.9984227966
 20
4.8334716498
 30
0.0
  0
SPLINE
  5
362
100
AcDbEntity
  8
0
100
AcDbSpline
 62
7
  6
CONTINUOUS
 70
0
 71
3
 72
39
 73
35
 74
0
 42
0.0000001
 43
0.0000001
 44
0.0000000001
 40
0.0
 40
0.0
 40
0.0
 40
0.0
 40
0.0979444355
 40
0.1949497217
 40
0.2900745509
 40
0.3824083526
 40
0.4710599774
 40
0.5551769137
 40
0.6339492164
 40
0.7066190014
 40
0.7404443597
 40
0.7724869956
 40
0.8026694717
 40
0.8309198932
 40
0.8571694413
 40
0.8813562336
 40
0.9034211076
 40
0.9233124774
 40
0.9409819537
 40
0.9563885202
 40
0.9694957869
 40
0.9802741985
 40
0.9847831153
 40
0.9887018565
 40
0.9920292883
 40
0.9947656309
 40
0.9959126753
 40
0.9969128548
 40
0.9977670223
 40
0.9984766864
 40
0.9990447433
 40
0.9992774807
 40
0.999477557
 40
1.0
 40
1.0
 40
1.0
 40
1.0
 10
4.3124611801
 20
4.8654911287
 30
0.0
 10
4.3021777009
 20
4.8653119924
 30
0.0
 10
4.2817093465
 20
4.8649554401
 30
0.0
 10
4.2512536409
 20
4.8644198006
 30
0.0
 10
4.2213871924
 20
4.8638842606
 30
0.0
 10
4.1923980939
 20
4.8633488931
 30
0.0
 10
4.1645651215
 20
4.862813763
 30
0.0
 10
4.1381564949
 20
4.8622789861
 30
0.0
 10
4.1134264592
 20
4.8617446612
 30
0.0
 10
4.0939770272
 20
4.8612897842
 30
0.0
 10
4.0794339451
 20
4.8609230069
 30
0.0
 10
4.0693513566
 20
4.8606546192
 30
0.0
 10
4.0598544027
 20
4.8603863247
 30
0.0
 10
4.0509660285
 20
4.8601181608
 30
0.0
 10
4.0427075564
 20
4.859850131
 30
0.0
 10
4.0350989825
 20
4.8595823192
 30
0.0
 10
4.0281585142
 20
4.8593147432
 30
0.0
 10
4.021902962
 20
4.8590475525
 30
0.0
 10
4.0163472803
 20
4.8587808232
 30
0.0
 10
4.0115048578
 20
4.8585149143
 30
0.0
 10
4.0073872778
 20
4.8582499618
 30
0.0
 10
4.0044143508
 20
4.8580193073
 30
0.0
 10
4.0024064049
 20
4.8578299632
 30
0.0
 10
4.0011791475
 20
4.8576969035
 30
0.0
 10
4.0001392522
 20
4.8575643152
 30
0.0
 10
3.999390729
 20
4.857448858
 30
0.0
 10
3.9988866813
 20
4.8573541986
 30
0.0
 10
3.9985785668
 20
4.8572875618
 30
0.0
 10
3.9983175897
 20
4.8572212227
 30
0.0
 10
3.9981034718
 20
4.857154962
 30
0.0
 10
3.9979558447
 20
4.8570973181
 30
0.0
 10
3.9978615489
 20
4.8570490941
 30
0.0
 10
3.9977782304
 20
4.8569978859
 30
0.0
 10
3.9977112916
 20
4.8569334899
 30
0.0
 10
3.9977112916
 20
4.8568786287
 30
0.0
  0
SPLINE
  5
363
100
AcDbEntity
  8
0
100
AcDbSpline
 62
7
  6
CONTINUOUS
 70
0
 71
3
 72
30
 73
26
 74
0
 42
0.0000001
 43
0.0000001
 44
0.0000000001
 40
0.0
 40
0.0
 40
0.0
 40
0.0
 40
0.1871952894
 40
0.2787245434
 40
0.3677975185
 40
0.453625249
 40
0.5354519329
 40
0.6125554168
 40
0.6842559485
 40
0.7499212207
 40
0.808972689
 40
0.8608903728
 40
0.8840291009
 40
0.9052177572
 40
0.9244110532
 40
0.9415662246
 40
0.9566465401
 40
0.9696197108
 40
0.9804581081
 40
0.9850703887
 40
0.9891416202
 40
0.9926700473
 40
0.9956552528
 40
0.9980978099
 40
1.0
 40
1.0
 40
1.0
 40
1.0
 10
4.3124611801
 20
4.876165393
 30
0.0
 10
4.292858589
 20
4.8758239195
 30
0.0
 10
4.263671296
 20
4.875315593
 30
0.0
 10
4.2251568383
 20
4.8746266725
 30
0.0
 10
4.1972574803
 20
4.8741139666
 30
0.0
 10
4.1703744768
 20
4.8736014524
 30
0.0
 10
4.1447453084
 20
4.8730892069
 30
0.0
 10
4.1205960297
 20
4.8725773346
 30
0.0
 10
4.0981397811
 20
4.8720659685
 30
0.0
 10
4.0775746858
 20
4.8715553589
 30
0.0
 10
4.0590821902
 20
4.8710457113
 30
0.0
 10
4.0450434319
 20
4.8706072363
 30
0.0
 10
4.0349696417
 20
4.8702514934
 30
0.0
 10
4.0283218399
 20
4.8699952348
 30
0.0
 10
4.0223012087
 20
4.8697393132
 30
0.0
 10
4.0169209457
 20
4.8694837732
 30
0.0
 10
4.0121929166
 20
4.8692288749
 30
0.0
 10
4.008127527
 20
4.8689747636
 30
0.0
 10
4.0051586663
 20
4.868754071
 30
0.0
 10
4.003122015
 20
4.8685736653
 30
0.0
 10
4.0018493672
 20
4.868445993
 30
0.0
 10
4.000748072
 20
4.8683186647
 30
0.0
 10
3.9998185431
 20
4.8681919287
 30
0.0
 10
3.9990611829
 20
4.8680659586
 30
0.0
 10
3.9986156475
 20
4.8679716309
 30
0.0
 10
3.9984227966
 20
4.8679216498
 30
0.0
  0
SPLINE
  5
364
100
AcDbEntity
  8
0
100
AcDbSpline
 62
7
  6
CONTINUOUS
 70
0
 71
3
 72
30
 73
26
 74
0
 42
0.0000001
 43
0.0000001
 44
0.0000000001
 40
0.0
 40
0.0
 40
0.0
 40
0.0
 40
0.1871952894
 40
0.2787245434
 40
0.3677975185
 40
0.453625249
 40
0.5354519329
 40
0.6125554168
 40
0.6842559485
 40
0.7499212207
 40
0.808972689
 40
0.8608903728
 40
0.8840291009
 40
0.9052177572
 40
0.9244110532
 40
0.9415662246
 40
0.9566465401
 40
0.9696197108
 40
0.9804581081
 40
0.9850703887
 40
0.9891416202
 40
0.9926700473
 40
0.9956552528
 40
0.9980978099
 40
1.0
 40
1.0
 40
1.0
 40
1.0
 10
4.3124611801
 20
4.910615393
 30
0.0
 10
4.292858589
 20
4.9102739195
 30
0.0
 10
4.263671296
 20
4.909765593
 30
0.0
 10
4.2251568383
 20
4.9090766725
 30
0.0
 10
4.1972574803
 20
4.9085639666
 30
0.0
 10
4.1703744768
 20
4.9080514524
 30
0.0
 10
4.1447453084
 20
4.9075392069
 30
0.0
 10
4.1205960297
 20
4.9070273346
 30
0.0
 10
4.0981397811
 20
4.9065159685
 30
0.0
 10
4.0775746858
 20
4.9060053589
 30
0.0
 10
4.0590821902
 20
4.9054957113
 30
0.0
 10
4.0450434319
 20
4.9050572363
 30
0.0
 10
4.0349696417
 20
4.9047014934
 30
0.0
 10
4.0283218399
 20
4.9044452348
 30
0.0
 10
4.0223012087
 20
4.9041893132
 30
0.0
 10
4.0169209457
 20
4.9039337732
 30
0.0
 10
4.0121929166
 20
4.9036788749
 30
0.0
 10
4.008127527
 20
4.9034247636
 30
0.0
 10
4.0051586663
 20
4.903204071
 30
0.0
 10
4.003122015
 20
4.9030236653
 30
0.0
 10
4.0018493672
 20
4.902895993
 30
0.0
 10
4.000748072
 20
4.9027686647
 30
0.0
 10
3.9998185431
 20
4.9026419287
 30
0.0
 10
3.9990611829
 20
4.9025159586
 30
0.0
 10
3.9986156475
 20
4.9024216309
 30
0.0
 10
3.9984227966
 20
4.9023716498
 30
0.0
  0
SPLINE
  5
365
100
AcDbEntity
  8
0
100
AcDbSpline
 62
7
  6
CONTINUOUS
 70
0
 71
3
 72
39
 73
35
 74
0
 42
0.0000001
 43
0.0000001
 44
0.0000000001
 40
0.0
 40
0.0
 40
0.0
 40
0.0
 40
0.0979444339
 40
0.1949497171
 40
0.2900745495
 40
0.3824083537
 40
0.4710599801
 40
0.5551769169
 40
0.6339492164
 40
0.706618998
 40
0.7404443556
 40
0.7724869912
 40
0.8026694671
 40
0.8309198888
 40
0.8571694373
 40
0.8813562308
 40
0.9034211067
 40
0.9233124783
 40
0.9409819553
 40
0.9563885208
 40
0.9694957875
 40
0.9802741994
 40
0.9847831167
 40
0.9887018584
 40
0.99202929
 40
0.994765632
 40
0.995912676
 40
0.9969128553
 40
0.9977670226
 40
0.9984766866
 40
0.9990447435
 40
0.9992774809
 40
0.9994775572
 40
1.0
 40
1.0
 40
1.0
 40
1.0
 10
4.3124611801
 20
4.8999411287
 30
0.0
 10
4.3021777011
 20
4.8997619924
 30
0.0
 10
4.2817093471
 20
4.8994054401
 30
0.0
 10
4.2512536417
 20
4.8988698006
 30
0.0
 10
4.2213871929
 20
4.8983342606
 30
0.0
 10
4.1923980936
 20
4.8977988931
 30
0.0
 10
4.1645651208
 20
4.8972637629
 30
0.0
 10
4.1381564943
 20
4.8967289861
 30
0.0
 10
4.1134264592
 20
4.8961946612
 30
0.0
 10
4.093977028
 20
4.8957397843
 30
0.0
 10
4.0794339464
 20
4.8953730069
 30
0.0
 10
4.069351358
 20
4.8951046193
 30
0.0
 10
4.0598544041
 20
4.8948363248
 30
0.0
 10
4.0509660299
 20
4.8945681608
 30
0.0
 10
4.0427075577
 20
4.894300131
 30
0.0
 10
4.0350989834
 20
4.8940323192
 30
0.0
 10
4.0281585146
 20
4.8937647432
 30
0.0
 10
4.0219029619
 20
4.8934975525
 30
0.0
 10
4.01634728
 20
4.8932308232
 30
0.0
 10
4.0115048575
 20
4.8929649143
 30
0.0
 10
4.0073872776
 20
4.8926999617
 30
0.0
 10
4.0044143506
 20
4.8924693073
 30
0.0
 10
4.0024064045
 20
4.8922799632
 30
0.0
 10
4.001179147
 20
4.8921469034
 30
0.0
 10
4.0001392518
 20
4.8920143151
 30
0.0
 10
3.9993907287
 20
4.891898858
 30
0.0
 10
3.9988866811
 20
4.8918041986
 30
0.0
 10
3.9985785667
 20
4.8917375617
 30
0.0
 10
3.9983175897
 20
4.8916712227
 30
0.0
 10
3.9981034718
 20
4.891604962
 30
0.0
 10
3.9979558447
 20
4.8915473181
 30
0.0
 10
3.9978615489
 20
4.8914990941
 30
0.0
 10
3.9977782305
 20
4.8914478859
 30
0.0
 10
3.9977112916
 20
4.8913834899
 30
0.0
 10
3.9977112917
 20
4.8913286287
 30
0.0
  0
SPLINE
  5
366
100
AcDbEntity
  8
0
100
AcDbSpline
 62
7
  6
CONTINUOUS
 70
0
 71
3
 72
39
 73
35
 74
0
 42
0.0000001
 43
0.0000001
 44
0.0000000001
 40
0.0
 40
0.0
 40
0.0
 40
0.0
 40
0.0979444355
 40
0.1949497217
 40
0.2900745509
 40
0.3824083526
 40
0.4710599774
 40
0.5551769137
 40
0.6339492164
 40
0.7066190014
 40
0.7404443597
 40
0.7724869956
 40
0.8026694717
 40
0.8309198932
 40
0.8571694413
 40
0.8813562336
 40
0.9034211076
 40
0.9233124774
 40
0.9409819537
 40
0.9563885202
 40
0.9694957869
 40
0.9802741985
 40
0.9847831153
 40
0.9887018565
 40
0.9920292883
 40
0.9947656309
 40
0.9959126753
 40
0.9969128548
 40
0.9977670223
 40
0.9984766864
 40
0.9990447433
 40
0.9992774807
 40
0.999477557
 40
1.0
 40
1.0
 40
1.0
 40
1.0
 10
4.3124611801
 20
4.9343911287
 30
0.0
 10
4.3021777009
 20
4.9342119924
 30
0.0
 10
4.2817093465
 20
4.9338554401
 30
0.0
 10
4.2512536409
 20
4.9333198006
 30
0.0
 10
4.2213871924
 20
4.9327842606
 30
0.0
 10
4.1923980939
 20
4.9322488931
 30
0.0
 10
4.1645651215
 20
4.931713763
 30
0.0
 10
4.1381564949
 20
4.9311789861
 30
0.0
 10
4.1134264592
 20
4.9306446612
 30
0.0
 10
4.0939770272
 20
4.9301897842
 30
0.0
 10
4.0794339451
 20
4.9298230069
 30
0.0
 10
4.0693513566
 20
4.9295546192
 30
0.0
 10
4.0598544027
 20
4.9292863247
 30
0.0
 10
4.0509660285
 20
4.9290181608
 30
0.0
 10
4.0427075564
 20
4.928750131
 30
0.0
 10
4.0350989825
 20
4.9284823192
 30
0.0
 10
4.0281585142
 20
4.9282147432
 30
0.0
 10
4.021902962
 20
4.9279475525
 30
0.0
 10
4.0163472803
 20
4.9276808232
 30
0.0
 10
4.0115048578
 20
4.9274149143
 30
0.0
 10
4.0073872778
 20
4.9271499618
 30
0.0
 10
4.0044143508
 20
4.9269193073
 30
0.0
 10
4.0024064049
 20
4.9267299632
 30
0.0
 10
4.0011791475
 20
4.9265969035
 30
0.0
 10
4.0001392522
 20
4.9264643152
 30
0.0
 10
3.999390729
 20
4.926348858
 30
0.0
 10
3.9988866813
 20
4.9262541986
 30
0.0
 10
3.9985785668
 20
4.9261875618
 30
0.0
 10
3.9983175897
 20
4.9261212227
 30
0.0
 10
3.9981034718
 20
4.926054962
 30
0.0
 10
3.9979558447
 20
4.9259973181
 30
0.0
 10
3.9978615489
 20
4.9259490941
 30
0.0
 10
3.9977782304
 20
4.9258978859
 30
0.0
 10
3.9977112916
 20
4.9258334899
 30
0.0
 10
3.9977112916
 20
4.9257786287
 30
0.0
  0
SPLINE
  5
367
100
AcDbEntity
  8
0
100
AcDbSpline
 62
7
  6
CONTINUOUS
 70
0
 71
3
 72
30
 73
26
 74
0
 42
0.0000001
 43
0.0000001
 44
0.0000000001
 40
0.0
 40
0.0
 40
0.0
 40
0.0
 40
0.1871952894
 40
0.2787245434
 40
0.3677975185
 40
0.453625249
 40
0.5354519329
 40
0.6125554168
 40
0.6842559485
 40
0.7499212207
 40
0.808972689
 40
0.8608903728
 40
0.8840291009
 40
0.9052177572
 40
0.9244110532
 40
0.9415662246
 40
0.9566465401
 40
0.9696197108
 40
0.9804581081
 40
0.9850703887
 40
0.9891416202
 40
0.9926700473
 40
0.9956552528
 40
0.9980978099
 40
1.0
 40
1.0
 40
1.0
 40
1.0
 10
4.3124611801
 20
4.945065393
 30
0.0
 10
4.292858589
 20
4.9447239195
 30
0.0
 10
4.263671296
 20
4.944215593
 30
0.0
 10
4.2251568383
 20
4.9435266725
 30
0.0
 10
4.1972574803
 20
4.9430139666
 30
0.0
 10
4.1703744768
 20
4.9425014524
 30
0.0
 10
4.1447453084
 20
4.9419892069
 30
0.0
 10
4.1205960297
 20
4.9414773346
 30
0.0
 10
4.0981397811
 20
4.9409659685
 30
0.0
 10
4.0775746858
 20
4.9404553589
 30
0.0
 10
4.0590821902
 20
4.9399457113
 30
0.0
 10
4.0450434319
 20
4.9395072363
 30
0.0
 10
4.0349696417
 20
4.9391514934
 30
0.0
 10
4.0283218399
 20
4.9388952348
 30
0.0
 10
4.0223012087
 20
4.9386393132
 30
0.0
 10
4.0169209457
 20
4.9383837732
 30
0.0
 10
4.0121929166
 20
4.9381288749
 30
0.0
 10
4.008127527
 20
4.9378747636
 30
0.0
 10
4.0051586663
 20
4.937654071
 30
0.0
 10
4.003122015
 20
4.9374736653
 30
0.0
 10
4.0018493672
 20
4.937345993
 30
0.0
 10
4.000748072
 20
4.9372186647
 30
0.0
 10
3.9998185431
 20
4.9370919287
 30
0.0
 10
3.9990611829
 20
4.9369659586
 30
0.0
 10
3.9986156475
 20
4.9368716309
 30
0.0
 10
3.9984227966
 20
4.9368216498
 30
0.0
  0
SPLINE
  5
368
100
AcDbEntity
  8
0
100
AcDbSpline
 62
7
  6
CONTINUOUS
 70
0
 71
3
 72
39
 73
35
 74
0
 42
0.0000001
 43
0.0000001
 44
0.0000000001
 40
0.0
 40
0.0
 40
0.0
 40
0.0
 40
0.0979444355
 40
0.1949497217
 40
0.2900745509
 40
0.3824083526
 40
0.4710599774
 40
0.5551769137
 40
0.6339492164
 40
0.7066190014
 40
0.7404443597
 40
0.7724869956
 40
0.8026694717
 40
0.8309198932
 40
0.8571694413
 40
0.8813562336
 40
0.9034211076
 40
0.9233124774
 40
0.9409819537
 40
0.9563885202
 40
0.9694957869
 40
0.9802741985
 40
0.9847831153
 40
0.9887018565
 40
0.9920292883
 40
0.9947656309
 40
0.9959126753
 40
0.9969128548
 40
0.9977670223
 40
0.9984766864
 40
0.9990447433
 40
0.9992774807
 40
0.999477557
 40
1.0
 40
1.0
 40
1.0
 40
1.0
 10
4.3124611801
 20
4.9688411287
 30
0.0
 10
4.3021777009
 20
4.9686619924
 30
0.0
 10
4.2817093465
 20
4.9683054401
 30
0.0
 10
4.2512536409
 20
4.9677698006
 30
0.0
 10
4.2213871924
 20
4.9672342606
 30
0.0
 10
4.1923980939
 20
4.9666988931
 30
0.0
 10
4.1645651215
 20
4.966163763
 30
0.0
 10
4.1381564949
 20
4.9656289861
 30
0.0
 10
4.1134264592
 20
4.9650946612
 30
0.0
 10
4.0939770272
 20
4.9646397842
 30
0.0
 10
4.0794339451
 20
4.9642730069
 30
0.0
 10
4.0693513566
 20
4.9640046192
 30
0.0
 10
4.0598544027
 20
4.9637363247
 30
0.0
 10
4.0509660285
 20
4.9634681608
 30
0.0
 10
4.0427075564
 20
4.963200131
 30
0.0
 10
4.0350989825
 20
4.9629323192
 30
0.0
 10
4.0281585142
 20
4.9626647432
 30
0.0
 10
4.021902962
 20
4.9623975525
 30
0.0
 10
4.0163472803
 20
4.9621308232
 30
0.0
 10
4.0115048578
 20
4.9618649143
 30
0.0
 10
4.0073872778
 20
4.9615999618
 30
0.0
 10
4.0044143508
 20
4.9613693073
 30
0.0
 10
4.0024064049
 20
4.9611799632
 30
0.0
 10
4.0011791475
 20
4.9610469035
 30
0.0
 10
4.0001392522
 20
4.9609143152
 30
0.0
 10
3.999390729
 20
4.960798858
 30
0.0
 10
3.9988866813
 20
4.9607041986
 30
0.0
 10
3.9985785668
 20
4.9606375618
 30
0.0
 10
3.9983175897
 20
4.9605712227
 30
0.0
 10
3.9981034718
 20
4.960504962
 30
0.0
 10
3.9979558447
 20
4.9604473181
 30
0.0
 10
3.9978615489
 20
4.9603990941
 30
0.0
 10
3.9977782304
 20
4.9603478859
 30
0.0
 10
3.9977112916
 20
4.9602834899
 30
0.0
 10
3.9977112916
 20
4.9602286287
 30
0.0
  0
SPLINE
  5
369
100
AcDbEntity
  8
0
100
AcDbSpline
 62
7
  6
CONTINUOUS
 70
0
 71
3
 72
30
 73
26
 74
0
 42
0.0000001
 43
0.0000001
 44
0.0000000001
 40
0.0
 40
0.0
 40
0.0
 40
0.0
 40
0.1871952894
 40
0.2787245434
 40
0.3677975185
 40
0.453625249
 40
0.5354519329
 40
0.6125554168
 40
0.6842559485
 40
0.7499212207
 40
0.808972689
 40
0.8608903728
 40
0.8840291009
 40
0.9052177572
 40
0.9244110532
 40
0.9415662246
 40
0.9566465401
 40
0.9696197108
 40
0.9804581081
 40
0.9850703887
 40
0.9891416202
 40
0.9926700473
 40
0.9956552528
 40
0.9980978099
 40
1.0
 40
1.0
 40
1.0
 40
1.0
 10
4.3124611801
 20
4.979515393
 30
0.0
 10
4.292858589
 20
4.9791739195
 30
0.0
 10
4.263671296
 20
4.978665593
 30
0.0
 10
4.2251568383
 20
4.9779766725
 30
0.0
 10
4.1972574803
 20
4.9774639666
 30
0.0
 10
4.1703744768
 20
4.9769514524
 30
0.0
 10
4.1447453084
 20
4.9764392069
 30
0.0
 10
4.1205960297
 20
4.9759273346
 30
0.0
 10
4.0981397811
 20
4.9754159685
 30
0.0
 10
4.0775746858
 20
4.9749053589
 30
0.0
 10
4.0590821902
 20
4.9743957113
 30
0.0
 10
4.0450434319
 20
4.9739572363
 30
0.0
 10
4.0349696417
 20
4.9736014934
 30
0.0
 10
4.0283218399
 20
4.9733452348
 30
0.0
 10
4.0223012087
 20
4.9730893132
 30
0.0
 10
4.0169209457
 20
4.9728337732
 30
0.0
 10
4.0121929166
 20
4.9725788749
 30
0.0
 10
4.008127527
 20
4.9723247636
 30
0.0
 10
4.0051586663
 20
4.972104071
 30
0.0
 10
4.003122015
 20
4.9719236653
 30
0.0
 10
4.0018493672
 20
4.971795993
 30
0.0
 10
4.000748072
 20
4.9716686647
 30
0.0
 10
3.9998185431
 20
4.9715419287
 30
0.0
 10
3.9990611829
 20
4.9714159586
 30
0.0
 10
3.9986156475
 20
4.9713216309
 30
0.0
 10
3.9984227966
 20
4.9712716498
 30
0.0
  0
SPLINE
  5
36A
100
AcDbEntity
  8
0
100
AcDbSpline
 62
7
  6
CONTINUOUS
 70
0
 71
3
 72
39
 73
35
 74
0
 42
0.0000001
 43
0.0000001
 44
0.0000000001
 40
0.0
 40
0.0
 40
0.0
 40
0.0
 40
0.0979444355
 40
0.1949497217
 40
0.2900745509
 40
0.3824083526
 40
0.4710599774
 40
0.5551769137
 40
0.6339492164
 40
0.7066190014
 40
0.7404443597
 40
0.7724869956
 40
0.8026694717
 40
0.8309198932
 40
0.8571694413
 40
0.8813562336
 40
0.9034211076
 40
0.9233124774
 40
0.9409819537
 40
0.9563885202
 40
0.9694957869
 40
0.9802741985
 40
0.9847831153
 40
0.9887018565
 40
0.9920292883
 40
0.9947656309
 40
0.9959126753
 40
0.9969128548
 40
0.9977670223
 40
0.9984766864
 40
0.9990447433
 40
0.9992774807
 40
0.999477557
 40
1.0
 40
1.0
 40
1.0
 40
1.0
 10
4.3124611801
 20
5.0032911287
 30
0.0
 10
4.3021777009
 20
5.0031119924
 30
0.0
 10
4.2817093465
 20
5.0027554401
 30
0.0
 10
4.2512536409
 20
5.0022198006
 30
0.0
 10
4.2213871924
 20
5.0016842606
 30
0.0
 10
4.1923980939
 20
5.0011488931
 30
0.0
 10
4.1645651215
 20
5.000613763
 30
0.0
 10
4.1381564949
 20
5.0000789861
 30
0.0
 10
4.1134264592
 20
4.9995446612
 30
0.0
 10
4.0939770272
 20
4.9990897842
 30
0.0
 10
4.0794339451
 20
4.9987230069
 30
0.0
 10
4.0693513566
 20
4.9984546192
 30
0.0
 10
4.0598544027
 20
4.9981863247
 30
0.0
 10
4.0509660285
 20
4.9979181608
 30
0.0
 10
4.0427075564
 20
4.997650131
 30
0.0
 10
4.0350989825
 20
4.9973823192
 30
0.0
 10
4.0281585142
 20
4.9971147432
 30
0.0
 10
4.021902962
 20
4.9968475525
 30
0.0
 10
4.0163472803
 20
4.9965808232
 30
0.0
 10
4.0115048578
 20
4.9963149143
 30
0.0
 10
4.0073872778
 20
4.9960499618
 30
0.0
 10
4.0044143508
 20
4.9958193073
 30
0.0
 10
4.0024064049
 20
4.9956299632
 30
0.0
 10
4.0011791475
 20
4.9954969035
 30
0.0
 10
4.0001392522
 20
4.9953643152
 30
0.0
 10
3.999390729
 20
4.995248858
 30
0.0
 10
3.9988866813
 20
4.9951541986
 30
0.0
 10
3.9985785668
 20
4.9950875618
 30
0.0
 10
3.9983175897
 20
4.9950212227
 30
0.0
 10
3.9981034718
 20
4.994954962
 30
0.0
 10
3.9979558447
 20
4.9948973181
 30
0.0
 10
3.9978615489
 20
4.9948490941
 30
0.0
 10
3.9977782304
 20
4.9947978859
 30
0.0
 10
3.9977112916
 20
4.9947334899
 30
0.0
 10
3.9977112916
 20
4.9946786287
 30
0.0
  0
SPLINE
  5
36B
100
AcDbEntity
  8
0
100
AcDbSpline
 62
7
  6
CONTINUOUS
 70
0
 71
3
 72
30
 73
26
 74
0
 42
0.0000001
 43
0.0000001
 44
0.0000000001
 40
0.0
 40
0.0
 40
0.0
 40
0.0
 40
0.1871952894
 40
0.2787245434
 40
0.3677975185
 40
0.453625249
 40
0.5354519329
 40
0.6125554168
 40
0.6842559485
 40
0.7499212207
 40
0.808972689
 40
0.8608903728
 40
0.8840291009
 40
0.9052177572
 40
0.9244110532
 40
0.9415662246
 40
0.9566465401
 40
0.9696197108
 40
0.9804581081
 40
0.9850703887
 40
0.9891416202
 40
0.9926700473
 40
0.9956552528
 40
0.9980978099
 40
1.0
 40
1.0
 40
1.0
 40
1.0
 10
4.3124611801
 20
5.013965393
 30
0.0
 10
4.292858589
 20
5.0136239195
 30
0.0
 10
4.263671296
 20
5.013115593
 30
0.0
 10
4.2251568383
 20
5.0124266725
 30
0.0
 10
4.1972574803
 20
5.0119139666
 30
0.0
 10
4.1703744768
 20
5.0114014524
 30
0.0
 10
4.1447453084
 20
5.0108892069
 30
0.0
 10
4.1205960297
 20
5.0103773346
 30
0.0
 10
4.0981397811
 20
5.0098659685
 30
0.0
 10
4.0775746858
 20
5.0093553589
 30
0.0
 10
4.0590821902
 20
5.0088457113
 30
0.0
 10
4.0450434319
 20
5.0084072363
 30
0.0
 10
4.0349696417
 20
5.0080514934
 30
0.0
 10
4.0283218399
 20
5.0077952348
 30
0.0
 10
4.0223012087
 20
5.0075393132
 30
0.0
 10
4.0169209457
 20
5.0072837732
 30
0.0
 10
4.0121929166
 20
5.0070288749
 30
0.0
 10
4.008127527
 20
5.0067747636
 30
0.0
 10
4.0051586663
 20
5.006554071
 30
0.0
 10
4.003122015
 20
5.0063736653
 30
0.0
 10
4.0018493672
 20
5.006245993
 30
0.0
 10
4.000748072
 20
5.0061186647
 30
0.0
 10
3.9998185431
 20
5.0059919287
 30
0.0
 10
3.9990611829
 20
5.0058659586
 30
0.0
 10
3.9986156475
 20
5.0057716309
 30
0.0
 10
3.9984227966
 20
5.0057216498
 30
0.0
  0
SPLINE
  5
36C
100
AcDbEntity
  8
0
100
AcDbSpline
 62
7
  6
CONTINUOUS
 70
0
 71
3
 72
30
 73
26
 74
0
 42
0.0000001
 43
0.0000001
 44
0.0000000001
 40
0.0
 40
0.0
 40
0.0
 40
0.0
 40
0.1871952894
 40
0.2787245434
 40
0.3677975185
 40
0.453625249
 40
0.5354519329
 40
0.6125554168
 40
0.6842559485
 40
0.7499212207
 40
0.808972689
 40
0.8608903728
 40
0.8840291009
 40
0.9052177572
 40
0.9244110532
 40
0.9415662246
 40
0.9566465401
 40
0.9696197108
 40
0.9804581081
 40
0.9850703887
 40
0.9891416202
 40
0.9926700473
 40
0.9956552528
 40
0.9980978099
 40
1.0
 40
1.0
 40
1.0
 40
1.0
 10
4.3124611801
 20
5.048415393
 30
0.0
 10
4.292858589
 20
5.0480739195
 30
0.0
 10
4.263671296
 20
5.047565593
 30
0.0
 10
4.2251568383
 20
5.0468766725
 30
0.0
 10
4.1972574803
 20
5.0463639666
 30
0.0
 10
4.1703744768
 20
5.0458514524
 30
0.0
 10
4.1447453084
 20
5.0453392069
 30
0.0
 10
4.1205960297
 20
5.0448273346
 30
0.0
 10
4.0981397811
 20
5.0443159685
 30
0.0
 10
4.0775746858
 20
5.0438053589
 30
0.0
 10
4.0590821902
 20
5.0432957113
 30
0.0
 10
4.0450434319
 20
5.0428572363
 30
0.0
 10
4.0349696417
 20
5.0425014934
 30
0.0
 10
4.0283218399
 20
5.0422452348
 30
0.0
 10
4.0223012087
 20
5.0419893132
 30
0.0
 10
4.0169209457
 20
5.0417337732
 30
0.0
 10
4.0121929166
 20
5.0414788749
 30
0.0
 10
4.008127527
 20
5.0412247636
 30
0.0
 10
4.0051586663
 20
5.041004071
 30
0.0
 10
4.003122015
 20
5.0408236653
 30
0.0
 10
4.0018493672
 20
5.040695993
 30
0.0
 10
4.000748072
 20
5.0405686647
 30
0.0
 10
3.9998185431
 20
5.0404419287
 30
0.0
 10
3.9990611829
 20
5.0403159586
 30
0.0
 10
3.9986156475
 20
5.0402216309
 30
0.0
 10
3.9984227966
 20
5.0401716498
 30
0.0
  0
SPLINE
  5
36D
100
AcDbEntity
  8
0
100
AcDbSpline
 62
7
  6
CONTINUOUS
 70
0
 71
3
 72
39
 73
35
 74
0
 42
0.0000001
 43
0.0000001
 44
0.0000000001
 40
0.0
 40
0.0
 40
0.0
 40
0.0
 40
0.0979444361
 40
0.1949497217
 40
0.2900745568
 40
0.3824083636
 40
0.4710599932
 40
0.555176932
 40
0.633949234
 40
0.7066190177
 40
0.7404443729
 40
0.7724870063
 40
0.8026694812
 40
0.8309199019
 40
0.8571694484
 40
0.8813562385
 40
0.9034211108
 40
0.9233124793
 40
0.940981955
 40
0.9563885218
 40
0.9694957884
 40
0.9802741996
 40
0.9847831161
 40
0.9887018569
 40
0.9920292886
 40
0.9947656314
 40
0.9959126758
 40
0.9969128553
 40
0.9977670227
 40
0.9984766865
 40
0.9990447432
 40
0.9992774807
 40
0.999477557
 40
1.0
 40
1.0
 40
1.0
 40
1.0
 10
4.3124611801
 20
5.0377411287
 30
0.0
 10
4.3021777008
 20
5.0375619924
 30
0.0
 10
4.2817093464
 20
5.0372054401
 30
0.0
 10
4.2512536402
 20
5.0366698005
 30
0.0
 10
4.2213871906
 20
5.0361342606
 30
0.0
 10
4.1923980904
 20
5.0355988931
 30
0.0
 10
4.1645651168
 20
5.0350637629
 30
0.0
 10
4.1381564895
 20
5.034528986
 30
0.0
 10
4.1134264538
 20
5.0339946611
 30
0.0
 10
4.0939770223
 20
5.0335397841
 30
0.0
 10
4.079433941
 20
5.0331730067
 30
0.0
 10
4.0693513532
 20
5.0329046191
 30
0.0
 10
4.0598543997
 20
5.0326363247
 30
0.0
 10
4.0509660259
 20
5.0323681607
 30
0.0
 10
4.0427075544
 20
5.0321001309
 30
0.0
 10
4.035098981
 20
5.0318323191
 30
0.0
 10
4.0281585132
 20
5.0315647431
 30
0.0
 10
4.0219029614
 20
5.0312975525
 30
0.0
 10
4.0163472799
 20
5.0310308232
 30
0.0
 10
4.0115048574
 20
5.0307649143
 30
0.0
 10
4.0073872774
 20
5.0304999617
 30
0.0
 10
4.0044143506
 20
5.0302693073
 30
0.0
 10
4.0024064048
 20
5.0300799632
 30
0.0
 10
4.0011791475
 20
5.0299469035
 30
0.0
 10
4.0001392522
 20
5.0298143152
 30
0.0
 10
3.999390729
 20
5.029698858
 30
0.0
 10
3.9988866812
 20
5.0296041986
 30
0.0
 10
3.9985785667
 20
5.0295375618
 30
0.0
 10
3.9983175897
 20
5.0294712227
 30
0.0
 10
3.9981034718
 20
5.029404962
 30
0.0
 10
3.9979558447
 20
5.0293473182
 30
0.0
 10
3.997861549
 20
5.0292990941
 30
0.0
 10
3.9977782305
 20
5.0292478859
 30
0.0
 10
3.9977112917
 20
5.0291834899
 30
0.0
 10
3.9977112917
 20
5.0291286287
 30
0.0
  0
SPLINE
  5
36E
100
AcDbEntity
  8
0
100
AcDbSpline
 62
7
  6
CONTINUOUS
 70
0
 71
3
 72
39
 73
35
 74
0
 42
0.0000001
 43
0.0000001
 44
0.0000000001
 40
0.0
 40
0.0
 40
0.0
 40
0.0
 40
0.0979444355
 40
0.1949497217
 40
0.2900745509
 40
0.3824083526
 40
0.4710599774
 40
0.5551769137
 40
0.6339492164
 40
0.7066190014
 40
0.7404443597
 40
0.7724869956
 40
0.8026694717
 40
0.8309198932
 40
0.8571694413
 40
0.8813562336
 40
0.9034211076
 40
0.9233124774
 40
0.9409819537
 40
0.9563885202
 40
0.9694957869
 40
0.9802741985
 40
0.9847831153
 40
0.9887018565
 40
0.9920292883
 40
0.9947656309
 40
0.9959126753
 40
0.9969128548
 40
0.9977670223
 40
0.9984766864
 40
0.9990447433
 40
0.9992774807
 40
0.999477557
 40
1.0
 40
1.0
 40
1.0
 40
1.0
 10
4.3124611801
 20
5.0721911287
 30
0.0
 10
4.3021777009
 20
5.0720119924
 30
0.0
 10
4.2817093465
 20
5.0716554401
 30
0.0
 10
4.2512536409
 20
5.0711198006
 30
0.0
 10
4.2213871924
 20
5.0705842606
 30
0.0
 10
4.1923980939
 20
5.0700488931
 30
0.0
 10
4.1645651215
 20
5.069513763
 30
0.0
 10
4.1381564949
 20
5.0689789861
 30
0.0
 10
4.1134264592
 20
5.0684446612
 30
0.0
 10
4.0939770272
 20
5.0679897842
 30
0.0
 10
4.0794339451
 20
5.0676230069
 30
0.0
 10
4.0693513566
 20
5.0673546192
 30
0.0
 10
4.0598544027
 20
5.0670863247
 30
0.0
 10
4.0509660285
 20
5.0668181608
 30
0.0
 10
4.0427075564
 20
5.066550131
 30
0.0
 10
4.0350989825
 20
5.0662823192
 30
0.0
 10
4.0281585142
 20
5.0660147432
 30
0.0
 10
4.021902962
 20
5.0657475525
 30
0.0
 10
4.0163472803
 20
5.0654808232
 30
0.0
 10
4.0115048578
 20
5.0652149143
 30
0.0
 10
4.0073872778
 20
5.0649499618
 30
0.0
 10
4.0044143508
 20
5.0647193073
 30
0.0
 10
4.0024064049
 20
5.0645299632
 30
0.0
 10
4.0011791475
 20
5.0643969035
 30
0.0
 10
4.0001392522
 20
5.0642643152
 30
0.0
 10
3.999390729
 20
5.064148858
 30
0.0
 10
3.9988866813
 20
5.0640541986
 30
0.0
 10
3.9985785668
 20
5.0639875618
 30
0.0
 10
3.9983175897
 20
5.0639212227
 30
0.0
 10
3.9981034718
 20
5.063854962
 30
0.0
 10
3.9979558447
 20
5.0637973181
 30
0.0
 10
3.9978615489
 20
5.0637490941
 30
0.0
 10
3.9977782304
 20
5.0636978859
 30
0.0
 10
3.9977112916
 20
5.0636334899
 30
0.0
 10
3.9977112916
 20
5.0635786287
 30
0.0
  0
SPLINE
  5
36F
100
AcDbEntity
  8
0
100
AcDbSpline
 62
7
  6
CONTINUOUS
 70
0
 71
3
 72
30
 73
26
 74
0
 42
0.0000001
 43
0.0000001
 44
0.0000000001
 40
0.0
 40
0.0
 40
0.0
 40
0.0
 40
0.1871952894
 40
0.2787245434
 40
0.3677975185
 40
0.453625249
 40
0.5354519329
 40
0.6125554168
 40
0.6842559485
 40
0.7499212207
 40
0.808972689
 40
0.8608903728
 40
0.8840291009
 40
0.9052177572
 40
0.9244110532
 40
0.9415662246
 40
0.9566465401
 40
0.9696197108
 40
0.9804581081
 40
0.9850703887
 40
0.9891416202
 40
0.9926700473
 40
0.9956552528
 40
0.9980978099
 40
1.0
 40
1.0
 40
1.0
 40
1.0
 10
4.3124611801
 20
5.082865393
 30
0.0
 10
4.292858589
 20
5.0825239195
 30
0.0
 10
4.263671296
 20
5.082015593
 30
0.0
 10
4.2251568383
 20
5.0813266725
 30
0.0
 10
4.1972574803
 20
5.0808139666
 30
0.0
 10
4.1703744768
 20
5.0803014524
 30
0.0
 10
4.1447453084
 20
5.0797892069
 30
0.0
 10
4.1205960297
 20
5.0792773346
 30
0.0
 10
4.0981397811
 20
5.0787659685
 30
0.0
 10
4.0775746858
 20
5.0782553589
 30
0.0
 10
4.0590821902
 20
5.0777457113
 30
0.0
 10
4.0450434319
 20
5.0773072363
 30
0.0
 10
4.0349696417
 20
5.0769514934
 30
0.0
 10
4.0283218399
 20
5.0766952348
 30
0.0
 10
4.0223012087
 20
5.0764393132
 30
0.0
 10
4.0169209457
 20
5.0761837732
 30
0.0
 10
4.0121929166
 20
5.0759288749
 30
0.0
 10
4.008127527
 20
5.0756747636
 30
0.0
 10
4.0051586663
 20
5.075454071
 30
0.0
 10
4.003122015
 20
5.0752736653
 30
0.0
 10
4.0018493672
 20
5.075145993
 30
0.0
 10
4.000748072
 20
5.0750186647
 30
0.0
 10
3.9998185431
 20
5.0748919287
 30
0.0
 10
3.9990611829
 20
5.0747659586
 30
0.0
 10
3.9986156475
 20
5.0746716309
 30
0.0
 10
3.9984227966
 20
5.0746216498
 30
0.0
  0
SPLINE
  5
370
100
AcDbEntity
  8
0
100
AcDbSpline
 62
7
  6
CONTINUOUS
 70
0
 71
3
 72
39
 73
35
 74
0
 42
0.0000001
 43
0.0000001
 44
0.0000000001
 40
0.0
 40
0.0
 40
0.0
 40
0.0
 40
0.0979444355
 40
0.1949497217
 40
0.2900745509
 40
0.3824083526
 40
0.4710599774
 40
0.5551769137
 40
0.6339492164
 40
0.7066190014
 40
0.7404443597
 40
0.7724869956
 40
0.8026694717
 40
0.8309198932
 40
0.8571694413
 40
0.8813562336
 40
0.9034211076
 40
0.9233124774
 40
0.9409819537
 40
0.9563885202
 40
0.9694957869
 40
0.9802741985
 40
0.9847831153
 40
0.9887018565
 40
0.9920292883
 40
0.9947656309
 40
0.9959126753
 40
0.9969128548
 40
0.9977670223
 40
0.9984766864
 40
0.9990447433
 40
0.9992774807
 40
0.999477557
 40
1.0
 40
1.0
 40
1.0
 40
1.0
 10
4.3124611801
 20
5.1066411287
 30
0.0
 10
4.3021777009
 20
5.1064619924
 30
0.0
 10
4.2817093465
 20
5.1061054401
 30
0.0
 10
4.2512536409
 20
5.1055698006
 30
0.0
 10
4.2213871924
 20
5.1050342606
 30
0.0
 10
4.1923980939
 20
5.1044988931
 30
0.0
 10
4.1645651215
 20
5.103963763
 30
0.0
 10
4.1381564949
 20
5.1034289861
 30
0.0
 10
4.1134264592
 20
5.1028946612
 30
0.0
 10
4.0939770272
 20
5.1024397842
 30
0.0
 10
4.0794339451
 20
5.1020730069
 30
0.0
 10
4.0693513566
 20
5.1018046192
 30
0.0
 10
4.0598544027
 20
5.1015363247
 30
0.0
 10
4.0509660285
 20
5.1012681608
 30
0.0
 10
4.0427075564
 20
5.101000131
 30
0.0
 10
4.0350989825
 20
5.1007323192
 30
0.0
 10
4.0281585142
 20
5.1004647432
 30
0.0
 10
4.021902962
 20
5.1001975525
 30
0.0
 10
4.0163472803
 20
5.0999308232
 30
0.0
 10
4.0115048578
 20
5.0996649143
 30
0.0
 10
4.0073872778
 20
5.0993999618
 30
0.0
 10
4.0044143508
 20
5.0991693073
 30
0.0
 10
4.0024064049
 20
5.0989799632
 30
0.0
 10
4.0011791475
 20
5.0988469035
 30
0.0
 10
4.0001392522
 20
5.0987143152
 30
0.0
 10
3.999390729
 20
5.098598858
 30
0.0
 10
3.9988866813
 20
5.0985041986
 30
0.0
 10
3.9985785668
 20
5.0984375618
 30
0.0
 10
3.9983175897
 20
5.0983712227
 30
0.0
 10
3.9981034718
 20
5.098304962
 30
0.0
 10
3.9979558447
 20
5.0982473181
 30
0.0
 10
3.9978615489
 20
5.0981990941
 30
0.0
 10
3.9977782304
 20
5.0981478859
 30
0.0
 10
3.9977112916
 20
5.0980834899
 30
0.0
 10
3.9977112916
 20
5.0980286287
 30
0.0
  0
SPLINE
  5
371
100
AcDbEntity
  8
0
100
AcDbSpline
 62
7
  6
CONTINUOUS
 70
0
 71
3
 72
30
 73
26
 74
0
 42
0.0000001
 43
0.0000001
 44
0.0000000001
 40
0.0
 40
0.0
 40
0.0
 40
0.0
 40
0.1871952894
 40
0.2787245434
 40
0.3677975185
 40
0.453625249
 40
0.5354519329
 40
0.6125554168
 40
0.6842559485
 40
0.7499212207
 40
0.808972689
 40
0.8608903728
 40
0.8840291009
 40
0.9052177572
 40
0.9244110532
 40
0.9415662246
 40
0.9566465401
 40
0.9696197108
 40
0.9804581081
 40
0.9850703887
 40
0.9891416202
 40
0.9926700473
 40
0.9956552528
 40
0.9980978099
 40
1.0
 40
1.0
 40
1.0
 40
1.0
 10
4.3124611801
 20
5.117315393
 30
0.0
 10
4.292858589
 20
5.1169739195
 30
0.0
 10
4.263671296
 20
5.116465593
 30
0.0
 10
4.2251568383
 20
5.1157766725
 30
0.0
 10
4.1972574803
 20
5.1152639666
 30
0.0
 10
4.1703744768
 20
5.1147514524
 30
0.0
 10
4.1447453084
 20
5.1142392069
 30
0.0
 10
4.1205960297
 20
5.1137273346
 30
0.0
 10
4.0981397811
 20
5.1132159685
 30
0.0
 10
4.0775746858
 20
5.1127053589
 30
0.0
 10
4.0590821902
 20
5.1121957113
 30
0.0
 10
4.0450434319
 20
5.1117572363
 30
0.0
 10
4.0349696417
 20
5.1114014934
 30
0.0
 10
4.0283218399
 20
5.1111452348
 30
0.0
 10
4.0223012087
 20
5.1108893132
 30
0.0
 10
4.0169209457
 20
5.1106337732
 30
0.0
 10
4.0121929166
 20
5.1103788749
 30
0.0
 10
4.008127527
 20
5.1101247636
 30
0.0
 10
4.0051586663
 20
5.109904071
 30
0.0
 10
4.003122015
 20
5.1097236653
 30
0.0
 10
4.0018493672
 20
5.109595993
 30
0.0
 10
4.000748072
 20
5.1094686647
 30
0.0
 10
3.9998185431
 20
5.1093419287
 30
0.0
 10
3.9990611829
 20
5.1092159586
 30
0.0
 10
3.9986156475
 20
5.1091216309
 30
0.0
 10
3.9984227966
 20
5.1090716498
 30
0.0
  0
SPLINE
  5
372
100
AcDbEntity
  8
0
100
AcDbSpline
 62
7
  6
CONTINUOUS
 70
0
 71
3
 72
39
 73
35
 74
0
 42
0.0000001
 43
0.0000001
 44
0.0000000001
 40
0.0
 40
0.0
 40
0.0
 40
0.0
 40
0.0979444355
 40
0.1949497217
 40
0.2900745509
 40
0.3824083526
 40
0.4710599774
 40
0.5551769137
 40
0.6339492164
 40
0.7066190014
 40
0.7404443597
 40
0.7724869956
 40
0.8026694717
 40
0.8309198932
 40
0.8571694413
 40
0.8813562336
 40
0.9034211076
 40
0.9233124774
 40
0.9409819537
 40
0.9563885202
 40
0.9694957869
 40
0.9802741985
 40
0.9847831153
 40
0.9887018565
 40
0.9920292883
 40
0.9947656309
 40
0.9959126753
 40
0.9969128548
 40
0.9977670223
 40
0.9984766864
 40
0.9990447433
 40
0.9992774807
 40
0.999477557
 40
1.0
 40
1.0
 40
1.0
 40
1.0
 10
4.3124611801
 20
5.1410911287
 30
0.0
 10
4.3021777009
 20
5.1409119924
 30
0.0
 10
4.2817093465
 20
5.1405554401
 30
0.0
 10
4.2512536409
 20
5.1400198006
 30
0.0
 10
4.2213871924
 20
5.1394842606
 30
0.0
 10
4.1923980939
 20
5.1389488931
 30
0.0
 10
4.1645651215
 20
5.138413763
 30
0.0
 10
4.1381564949
 20
5.1378789861
 30
0.0
 10
4.1134264592
 20
5.1373446612
 30
0.0
 10
4.0939770272
 20
5.1368897842
 30
0.0
 10
4.0794339451
 20
5.1365230069
 30
0.0
 10
4.0693513566
 20
5.1362546192
 30
0.0
 10
4.0598544027
 20
5.1359863247
 30
0.0
 10
4.0509660285
 20
5.1357181608
 30
0.0
 10
4.0427075564
 20
5.135450131
 30
0.0
 10
4.0350989825
 20
5.1351823192
 30
0.0
 10
4.0281585142
 20
5.1349147432
 30
0.0
 10
4.021902962
 20
5.1346475525
 30
0.0
 10
4.0163472803
 20
5.1343808232
 30
0.0
 10
4.0115048578
 20
5.1341149143
 30
0.0
 10
4.0073872778
 20
5.1338499618
 30
0.0
 10
4.0044143508
 20
5.1336193073
 30
0.0
 10
4.0024064049
 20
5.1334299632
 30
0.0
 10
4.0011791475
 20
5.1332969035
 30
0.0
 10
4.0001392522
 20
5.1331643152
 30
0.0
 10
3.999390729
 20
5.133048858
 30
0.0
 10
3.9988866813
 20
5.1329541986
 30
0.0
 10
3.9985785668
 20
5.1328875618
 30
0.0
 10
3.9983175897
 20
5.1328212227
 30
0.0
 10
3.9981034718
 20
5.132754962
 30
0.0
 10
3.9979558447
 20
5.1326973181
 30
0.0
 10
3.9978615489
 20
5.1326490941
 30
0.0
 10
3.9977782304
 20
5.1325978859
 30
0.0
 10
3.9977112916
 20
5.1325334899
 30
0.0
 10
3.9977112916
 20
5.1324786287
 30
0.0
  0
SPLINE
  5
373
100
AcDbEntity
  8
0
100
AcDbSpline
 62
7
  6
CONTINUOUS
 70
0
 71
3
 72
27
 73
23
 74
0
 42
0.0000001
 43
0.0000001
 44
0.0000000001
 40
0.0
 40
0.0
 40
0.0
 40
0.0
 40
0.183408033
 40
0.360655796
 40
0.4450972747
 40
0.5257951246
 40
0.6020702557
 40
0.6732813888
 40
0.7388297154
 40
0.7981643436
 40
0.8507870156
 40
0.8962562021
 40
0.916187155
 40
0.9341915414
 40
0.9502327911
 40
0.9642771059
 40
0.9762964324
 40
0.9862678688
 40
0.990479464
 40
0.9941727309
 40
0.9973464656
 40
1.0
 40
1.0
 40
1.0
 40
1.0
 10
4.3124611801
 20
5.151765393
 30
0.0
 10
4.2933140561
 20
5.1514318536
 30
0.0
 10
4.2556629177
 20
5.150775998
 30
0.0
 10
4.2091968688
 20
5.1499395827
 30
0.0
 10
4.1734539281
 20
5.1492611235
 30
0.0
 10
4.1482522859
 20
5.148760735
 30
0.0
 10
4.1244323314
 20
5.1482606806
 30
0.0
 10
4.1021945306
 20
5.1477610714
 30
0.0
 10
4.0817259898
 20
5.1472620677
 30
0.0
 10
4.0631989099
 20
5.1467639963
 30
0.0
 10
4.0467691491
 20
5.1462670983
 30
0.0
 10
4.0344535233
 20
5.1458381273
 30
0.0
 10
4.0257520559
 20
5.1454890448
 30
0.0
 10
4.0201217644
 20
5.1452391596
 30
0.0
 10
4.0151067599
 20
5.1449897294
 30
0.0
 10
4.0107174885
 20
5.144740974
 30
0.0
 10
4.0069631118
 20
5.144493026
 30
0.0
 10
4.0042356225
 20
5.144277464
 30
0.0
 10
4.0023774518
 20
5.1441008933
 30
0.0
 10
4.0012273906
 20
5.1439763204
 30
0.0
 10
4.0002410639
 20
5.1438521703
 30
0.0
 10
3.999639254
 20
5.1437618526
 30
0.0
 10
3.9993661158
 20
5.143715393
 30
0.0
  0
SPLINE
  5
374
100
AcDbEntity
  8
0
100
AcDbSpline
 62
7
  6
CONTINUOUS
 70
0
 71
3
 72
30
 73
26
 74
0
 42
0.0000001
 43
0.0000001
 44
0.0000000001
 40
0.0
 40
0.0
 40
0.0
 40
0.0
 40
0.1798524124
 40
0.2693138785
 40
0.3572205206
 40
0.4426528822
 40
0.5247199391
 40
0.6025649638
 40
0.675375722
 40
0.7423924294
 40
0.8029162267
 40
0.8563160376
 40
0.8801673854
 40
0.9020360377
 40
0.9218640124
 40
0.9396012457
 40
0.9552009293
 40
0.9686243527
 40
0.9798372092
 40
0.9846062341
 40
0.9888136487
 40
0.9924572821
 40
0.9955356127
 40
0.9980490163
 40
1.0
 40
1.0
 40
1.0
 40
1.0
 10
4.3526064606
 20
5.0199782609
 30
0.0
 10
4.3325887797
 20
5.0196019375
 30
0.0
 10
4.3026138369
 20
5.0190462954
 30
0.0
 10
4.262854928
 20
5.0183015864
 30
0.0
 10
4.2336052212
 20
5.0177441316
 30
0.0
 10
4.2051788112
 20
5.0171868495
 30
0.0
 10
4.1778726799
 20
5.0166298351
 30
0.0
 10
4.1519718856
 20
5.0160732064
 30
0.0
 10
4.1277468976
 20
5.0155171133
 30
0.0
 10
4.1054506356
 20
5.0149618336
 30
0.0
 10
4.085315913
 20
5.014407591
 30
0.0
 10
4.0699861171
 20
5.013931063
 30
0.0
 10
4.0589588372
 20
5.01354437
 30
0.0
 10
4.0516673304
 20
5.013265639
 30
0.0
 10
4.0450569766
 20
5.0129872292
 30
0.0
 10
4.0391451493
 20
5.0127092821
 30
0.0
 10
4.0339471153
 20
5.0124320085
 30
0.0
 10
4.0294765185
 20
5.012155611
 30
0.0
 10
4.0262117829
 20
5.0119155726
 30
0.0
 10
4.0239728571
 20
5.0117192818
 30
0.0
 10
4.0225748247
 20
5.0115804019
 30
0.0
 10
4.0213660212
 20
5.0114419263
 30
0.0
 10
4.0203470855
 20
5.0113040986
 30
0.0
 10
4.019518596
 20
5.0111671164
 30
0.0
 10
4.0190319182
 20
5.0110644258
 30
0.0
 10
4.0188216846
 20
5.0110099215
 30
0.0
  0
SPLINE
  5
375
100
AcDbEntity
  8
0
100
AcDbSpline
 62
7
  6
CONTINUOUS
 70
0
 71
3
 72
45
 73
41
 74
0
 42
0.0000001
 43
0.0000001
 44
0.0000000001
 40
0.0
 40
0.0
 40
0.0
 40
0.0
 40
0.0015497755
 40
0.0033563248
 40
0.0077366522
 40
0.0131336534
 40
0.0195368122
 40
0.0269336973
 40
0.0353099339
 40
0.0549287518
 40
0.078231884
 40
0.105027012
 40
0.1350924472
 40
0.1681791235
 40
0.204012765
 40
0.2422962827
 40
0.2827122522
 40
0.3249255422
 40
0.4133317449
 40
0.504587873
 40
0.5956725641
 40
0.6835701315
 40
0.7254074995
 40
0.7653704209
 40
0.8031275297
 40
0.8383657775
 40
0.870793027
 40
0.9001404919
 40
0.9261650944
 40
0.9486515981
 40
0.9585090719
 40
0.9674145961
 40
0.9753504741
 40
0.9823000014
 40
0.9882497973
 40
0.993188497
 40
0.9952756907
 40
0.9971070257
 40
0.9986819064
 40
1.0
 40
1.0
 40
1.0
 40
1.0
 10
4.6248263986
 20
5.1834782609
 30
0.0
 10
4.62450635
 20
5.1834328848
 30
0.0
 10
4.6238118992
 20
5.1833439535
 30
0.0
 10
4.6222078217
 20
5.1831675516
 30
0.0
 10
4.6198009667
 20
5.1829533799
 30
0.0
 10
4.6164349516
 20
5.1827078208
 30
0.0
 10
4.6124383947
 20
5.1824612891
 30
0.0
 10
4.607819496
 20
5.1822138645
 30
0.0
 10
4.6004457382
 20
5.1818646664
 30
0.0
 10
4.589754446
 20
5.1814379034
 30
0.0
 10
4.5752212675
 20
5.1809458716
 30
0.0
 10
4.5585081198
 20
5.1804522574
 30
0.0
 10
4.5397535993
 20
5.1799573753
 30
0.0
 10
4.5191132713
 20
5.179461711
 30
0.0
 10
4.4967583932
 20
5.1789654689
 30
0.0
 10
4.4728744439
 20
5.1784688225
 30
0.0
 10
4.4476595755
 20
5.1779718641
 30
0.0
 10
4.4119916683
 20
5.1772986011
 30
0.0
 10
4.3657207062
 20
5.1764683379
 30
0.0
 10
4.309257349
 20
5.1754856199
 30
0.0
 10
4.2529000971
 20
5.1745029562
 30
0.0
 10
4.2068494384
 20
5.1736720395
 30
0.0
 10
4.1714605891
 20
5.1729981032
 30
0.0
 10
4.1465284769
 20
5.172501204
 30
0.0
 10
4.1229730768
 20
5.1720046377
 30
0.0
 10
4.1009898133
 20
5.1715085129
 30
0.0
 10
4.0807610836
 20
5.1710129898
 30
0.0
 10
4.0624547184
 20
5.1705183899
 30
0.0
 10
4.0462225876
 20
5.1700249518
 30
0.0
 10
4.0340555554
 20
5.1695989671
 30
0.0
 10
4.0254587768
 20
5.1692523342
 30
0.0
 10
4.0198954848
 20
5.1690041896
 30
0.0
 10
4.0149393744
 20
5.1687565064
 30
0.0
 10
4.010600582
 20
5.1685094754
 30
0.0
 10
4.0068880619
 20
5.1682632507
 30
0.0
 10
4.0041899467
 20
5.1680491941
 30
0.0
 10
4.0023508212
 20
5.1678738872
 30
0.0
 10
4.0012116663
 20
5.1677501774
 30
0.0
 10
4.000233973
 20
5.1676268837
 30
0.0
 10
3.9996371485
 20
5.1675372301
 30
0.0
 10
3.9993661158
 20
5.1674911287
 30
0.0
  0
SPLINE
  5
376
100
AcDbEntity
  8
0
100
AcDbSpline
 62
7
  6
CONTINUOUS
 70
0
 71
3
 72
15
 73
11
 74
0
 42
0.0000001
 43
0.0000001
 44
0.0000000001
 40
0.0
 40
0.0
 40
0.0
 40
0.0
 40
0.2200229032
 40
0.4118002867
 40
0.5754925315
 40
0.7113757823
 40
0.8199589793
 40
0.8643296214
 40
0.9023585972
 40
1.0
 40
1.0
 40
1.0
 40
1.0
 10
3.9993661158
 20
5.1674911287
 30
0.0
 10
3.9992367174
 20
5.1674691186
 30
0.0
 10
3.9989949135
 20
5.1674256287
 30
0.0
 10
3.998658658
 20
5.1673560196
 30
0.0
 10
3.998373826
 20
5.1672867122
 30
0.0
 10
3.9981400664
 20
5.1672174826
 30
0.0
 10
3.9979788405
 20
5.1671572781
 30
0.0
 10
3.9978756317
 20
5.1671068306
 30
0.0
 10
3.9977855938
 20
5.1670538673
 30
0.0
 10
3.9977112383
 20
5.1669868777
 30
0.0
 10
3.9977111888
 20
5.1669286287
 30
0.0
  0
SPLINE
  5
377
100
AcDbEntity
  8
0
100
AcDbSpline
 62
7
  6
CONTINUOUS
 70
0
 71
3
 72
25
 73
21
 74
0
 42
0.0000001
 43
0.0000001
 44
0.0000000001
 40
0.0
 40
0.0
 40
0.0
 40
0.0
 40
0.2044268069
 40
0.391127415
 40
0.4769066574
 40
0.5571779507
 40
0.6316273532
 40
0.6999619003
 40
0.7619133637
 40
0.8172393388
 40
0.8657219619
 40
0.9071745293
 40
0.9414357059
 40
0.9558290523
 40
0.9683784973
 40
0.9790749419
 40
0.9879114282
 40
0.9948840317
 40
0.9976730662
 40
1.0
 40
1.0
 40
1.0
 40
1.0
 10
4.1617792569
 20
5.1834782609
 30
0.0
 10
4.1506406823
 20
5.1832572575
 30
0.0
 10
4.1293296457
 20
5.1828207132
 30
0.0
 10
4.1033458626
 20
5.1822393144
 30
0.0
 10
4.084127529
 20
5.1817688236
 30
0.0
 10
4.0710253363
 20
5.1814261664
 30
0.0
 10
4.0588741774
 20
5.181083777
 30
0.0
 10
4.0477218232
 20
5.1807417034
 30
0.0
 10
4.0376121678
 20
5.1804000787
 30
0.0
 10
4.0285850556
 20
5.180059069
 30
0.0
 10
4.0206759253
 20
5.1797190388
 30
0.0
 10
4.0139159499
 20
5.179380243
 30
0.0
 10
4.0090140233
 20
5.1790855124
 30
0.0
 10
4.0056872794
 20
5.1788437477
 30
0.0
 10
4.0036430683
 20
5.1786734979
 30
0.0
 10
4.0019027873
 20
5.1785040412
 30
0.0
 10
4.0004681018
 20
5.1783354313
 30
0.0
 10
3.9994649919
 20
5.178187897
 30
0.0
 10
3.9988176104
 20
5.1780653544
 30
0.0
 10
3.9985456339
 20
5.1780034683
 30
0.0
 10
3.9984228784
 20
5.1779716497
 30
0.0
  0
SPLINE
  5
378
100
AcDbEntity
  8
0
100
AcDbSpline
 62
7
  6
CONTINUOUS
 70
0
 71
3
 72
15
 73
11
 74
0
 42
0.0000001
 43
0.0000001
 44
0.0000000001
 40
0.0
 40
0.0
 40
0.0
 40
0.0
 40
0.296838458
 40
0.4391305135
 40
0.5741813565
 40
0.6997651204
 40
0.8138123003
 40
0.9144415841
 40
0.9592029295
 40
1.0
 40
1.0
 40
1.0
 40
1.0
 10
4.3124611801
 20
4.393865393
 30
0.0
 10
4.2857900619
 20
4.393400787
 30
0.0
 10
4.2463339015
 20
4.3927139935
 30
0.0
 10
4.1947441621
 20
4.3917697042
 30
0.0
 10
4.1585421734
 20
4.3910721351
 30
0.0
 10
4.1248788618
 20
4.3903757145
 30
0.0
 10
4.0943095069
 20
4.3896807911
 30
0.0
 10
4.0710029242
 20
4.3890830797
 30
0.0
 10
4.0542783606
 20
4.3885967738
 30
0.0
 10
4.046593604
 20
4.3883518585
 30
0.0
 10
4.04292949
 20
4.3882282609
 30
0.0
  0
SPLINE
  5
379
100
AcDbEntity
  8
0
100
AcDbSpline
 62
7
  6
CONTINUOUS
 70
0
 71
3
 72
39
 73
35
 74
0
 42
0.0000001
 43
0.0000001
 44
0.0000000001
 40
0.0
 40
0.0
 40
0.0
 40
0.0
 40
0.000522443
 40
0.0007225193
 40
0.0009552567
 40
0.0015233136
 40
0.0022329777
 40
0.0030871452
 40
0.0040873247
 40
0.0052343691
 40
0.0079707117
 40
0.0112981435
 40
0.0152168847
 40
0.0197258015
 40
0.0305042131
 40
0.0436114798
 40
0.0590180463
 40
0.0766875226
 40
0.0965788924
 40
0.1186437664
 40
0.1428305587
 40
0.1690801068
 40
0.1973305283
 40
0.2275130044
 40
0.2595556403
 40
0.2933809986
 40
0.3660507836
 40
0.4448230863
 40
0.5289400226
 40
0.6175916474
 40
0.7099254491
 40
0.8050502783
 40
0.9020555645
 40
1.0
 40
1.0
 40
1.0
 40
1.0
 10
4.6272110687
 20
4.815877893
 30
0.0
 10
4.6272110687
 20
4.8158230319
 30
0.0
 10
4.6271441298
 20
4.8157586359
 30
0.0
 10
4.6270608113
 20
4.8157074277
 30
0.0
 10
4.6269665156
 20
4.8156592036
 30
0.0
 10
4.6268188885
 20
4.8156015597
 30
0.0
 10
4.6266047705
 20
4.8155352991
 30
0.0
 10
4.6263437935
 20
4.81546896
 30
0.0
 10
4.626035679
 20
4.8154023231
 30
0.0
 10
4.6255316312
 20
4.8153076638
 30
0.0
 10
4.624783108
 20
4.8151922066
 30
0.0
 10
4.6237432127
 20
4.8150596183
 30
0.0
 10
4.6225159553
 20
4.8149265585
 30
0.0
 10
4.6205080094
 20
4.8147372144
 30
0.0
 10
4.6175350825
 20
4.81450656
 30
0.0
 10
4.6134175025
 20
4.8142416075
 30
0.0
 10
4.6085750799
 20
4.8139756985
 30
0.0
 10
4.6030193982
 20
4.8137089692
 30
0.0
 10
4.596763846
 20
4.8134417786
 30
0.0
 10
4.5898233777
 20
4.8131742025
 30
0.0
 10
4.5822148038
 20
4.8129063907
 30
0.0
 10
4.5739563318
 20
4.812638361
 30
0.0
 10
4.5650679576
 20
4.812370197
 30
0.0
 10
4.5555710036
 20
4.8121019025
 30
0.0
 10
4.5454884151
 20
4.8118335149
 30
0.0
 10
4.5309453331
 20
4.8114667375
 30
0.0
 10
4.5114959011
 20
4.8110118606
 30
0.0
 10
4.4867658654
 20
4.8104775356
 30
0.0
 10
4.4603572387
 20
4.8099427588
 30
0.0
 10
4.4325242664
 20
4.8094076286
 30
0.0
 10
4.4035351679
 20
4.8088722611
 30
0.0
 10
4.3736687194
 20
4.8083367212
 30
0.0
 10
4.3432130138
 20
4.8078010816
 30
0.0
 10
4.3227446593
 20
4.8074445294
 30
0.0
 10
4.3124611801
 20
4.807265393
 30
0.0
  0
SPLINE
  5
37A
100
AcDbEntity
  8
0
100
AcDbSpline
 62
7
  6
CONTINUOUS
 70
0
 71
3
 72
63
 73
59
 74
0
 42
0.0000001
 43
0.0000001
 44
0.0000000001
 40
0.0
 40
0.0
 40
0.0
 40
0.0
 40
0.0001173584
 40
0.0001890694
 40
0.0002732359
 40
0.0004849649
 40
0.0007603708
 40
0.0011026622
 40
0.0015134543
 40
0.0019936474
 40
0.0025437792
 40
0.0038550305
 40
0.0054486626
 40
0.0073246413
 40
0.0094823952
 40
0.0146398621
 40
0.0209118997
 40
0.0282845069
 40
0.0367420955
 40
0.0462650879
 40
0.0568322007
 40
0.0684193215
 40
0.080999747
 40
0.0945451393
 40
0.1090238519
 40
0.1406475396
 40
0.1755806038
 40
0.2135021172
 40
0.254063745
 40
0.2968927946
 40
0.3415956345
 40
0.3877615185
 40
0.4349659928
 40
0.482775223
 40
0.5307496988
 40
0.5784484594
 40
0.6254331104
 40
0.6712717569
 40
0.7155430697
 40
0.7578401433
 40
0.7977742321
 40
0.8349784889
 40
0.8691111443
 40
0.8998587846
 40
0.9269392969
 40
0.9390252641
 40
0.950104461
 40
0.9601509906
 40
0.9691426747
 40
0.9770586044
 40
0.9838815004
 40
0.9895964322
 40
0.9920345078
 40
0.9941916133
 40
0.9960669339
 40
0.9976598773
 40
0.9989704449
 40
1.0
 40
1.0
 40
1.0
 40
1.0
 10
4.6068611715
 20
4.7522407609
 30
0.0
 10
4.6068611797
 20
4.7522177388
 30
0.0
 10
4.6068471896
 20
4.7521806148
 30
0.0
 10
4.6068127229
 20
4.7521395809
 30
0.0
 10
4.6067580344
 20
4.7520920778
 30
0.0
 10
4.6066607242
 20
4.7520351536
 30
0.0
 10
4.6065111362
 20
4.7519707723
 30
0.0
 10
4.6063198202
 20
4.7519061423
 30
0.0
 10
4.6060866934
 20
4.751841222
 30
0.0
 10
4.6058115312
 20
4.7517761113
 30
0.0
 10
4.6053615461
 20
4.7516836209
 30
0.0
 10
4.6046930501
 20
4.7515707961
 30
0.0
 10
4.6037641189
 20
4.7514412412
 30
0.0
 10
4.6026678252
 20
4.7513112186
 30
0.0
 10
4.6008742688
 20
4.751126192
 30
0.0
 10
4.5982182307
 20
4.7509008009
 30
0.0
 10
4.5945388751
 20
4.750641916
 30
0.0
 10
4.5902108371
 20
4.7503820568
 30
0.0
 10
4.5852441317
 20
4.7501214475
 30
0.0
 10
4.5796500288
 20
4.7498603442
 30
0.0
 10
4.5734414297
 20
4.7495988984
 30
0.0
 10
4.5666325866
 20
4.7493372008
 30
0.0
 10
4.5592391111
 20
4.7490753028
 30
0.0
 10
4.5512780718
 20
4.7488132625
 30
0.0
 10
4.539582573
 20
4.7484530252
 30
0.0
 10
4.5236921643
 20
4.7480071731
 30
0.0
 10
4.5032034045
 20
4.7474856732
 30
0.0
 10
4.4809607945
 20
4.7469635532
 30
0.0
 10
4.4571688549
 20
4.7464409442
 30
0.0
 10
4.4320463359
 20
4.7459179984
 30
0.0
 10
4.405824215
 20
4.7453948073
 30
0.0
 10
4.3787436112
 20
4.7448714461
 30
0.0
 10
4.3510535219
 20
4.7443479729
 30
0.0
 10
4.3230085821
 20
4.7438244379
 30
0.0
 10
4.2948666624
 20
4.7433008862
 30
0.0
 10
4.2668865269
 20
4.7427773621
 30
0.0
 10
4.2393254472
 20
4.7422539118
 30
0.0
 10
4.2124368469
 20
4.7417305873
 30
0.0
 10
4.1864679785
 20
4.7412074506
 30
0.0
 10
4.1616576388
 20
4.7406845786
 30
0.0
 10
4.1382339499
 20
4.7401620795
 30
0.0
 10
4.1164122771
 20
4.7396400869
 30
0.0
 10
4.0963932321
 20
4.7391188566
 30
0.0
 10
4.0783608641
 20
4.738598588
 30
0.0
 10
4.0646531365
 20
4.7381511446
 30
0.0
 10
4.0548031726
 20
4.7377881414
 30
0.0
 10
4.0482933122
 20
4.7375265559
 30
0.0
 10
4.0423909748
 20
4.7372652615
 30
0.0
 10
4.0371098238
 20
4.7370043874
 30
0.0
 10
4.0324618694
 20
4.7367441272
 30
0.0
 10
4.0284578254
 20
4.7364846415
 30
0.0
 10
4.0255285318
 20
4.7362594127
 30
0.0
 10
4.023514366
 20
4.7360753657
 30
0.0
 10
4.0222517289
 20
4.7359449845
 30
0.0
 10
4.0211558481
 20
4.7358149536
 30
0.0
 10
4.0202272573
 20
4.7356854866
 30
0.0
 10
4.0194664489
 20
4.7355567302
 30
0.0
 10
4.019017207
 20
4.7354606142
 30
0.0
 10
4.0188217057
 20
4.7354099214
 30
0.0
  0
SPLINE
  5
37B
100
AcDbEntity
  8
0
100
AcDbSpline
 62
7
  6
CONTINUOUS
 70
0
 71
3
 72
39
 73
35
 74
0
 42
0.0000001
 43
0.0000001
 44
0.0000000001
 40
0.0
 40
0.0
 40
0.0
 40
0.0
 40
0.000522443
 40
0.0007225193
 40
0.0009552567
 40
0.0015233136
 40
0.0022329777
 40
0.0030871452
 40
0.0040873247
 40
0.0052343691
 40
0.0079707117
 40
0.0112981435
 40
0.0152168847
 40
0.0197258015
 40
0.0305042131
 40
0.0436114798
 40
0.0590180463
 40
0.0766875226
 40
0.0965788924
 40
0.1186437664
 40
0.1428305587
 40
0.1690801068
 40
0.1973305283
 40
0.2275130044
 40
0.2595556403
 40
0.2933809986
 40
0.3660507836
 40
0.4448230863
 40
0.5289400226
 40
0.6175916474
 40
0.7099254491
 40
0.8050502783
 40
0.9020555645
 40
1.0
 40
1.0
 40
1.0
 40
1.0
 10
4.6272110687
 20
4.781427893
 30
0.0
 10
4.6272110687
 20
4.7813730319
 30
0.0
 10
4.6271441298
 20
4.7813086359
 30
0.0
 10
4.6270608113
 20
4.7812574277
 30
0.0
 10
4.6269665156
 20
4.7812092036
 30
0.0
 10
4.6268188885
 20
4.7811515597
 30
0.0
 10
4.6266047705
 20
4.7810852991
 30
0.0
 10
4.6263437935
 20
4.78101896
 30
0.0
 10
4.626035679
 20
4.7809523231
 30
0.0
 10
4.6255316312
 20
4.7808576638
 30
0.0
 10
4.624783108
 20
4.7807422066
 30
0.0
 10
4.6237432127
 20
4.7806096183
 30
0.0
 10
4.6225159553
 20
4.7804765585
 30
0.0
 10
4.6205080094
 20
4.7802872144
 30
0.0
 10
4.6175350825
 20
4.78005656
 30
0.0
 10
4.6134175025
 20
4.7797916075
 30
0.0
 10
4.6085750799
 20
4.7795256985
 30
0.0
 10
4.6030193982
 20
4.7792589692
 30
0.0
 10
4.596763846
 20
4.7789917786
 30
0.0
 10
4.5898233777
 20
4.7787242025
 30
0.0
 10
4.5822148038
 20
4.7784563907
 30
0.0
 10
4.5739563318
 20
4.778188361
 30
0.0
 10
4.5650679576
 20
4.777920197
 30
0.0
 10
4.5555710036
 20
4.7776519025
 30
0.0
 10
4.5454884151
 20
4.7773835149
 30
0.0
 10
4.5309453331
 20
4.7770167375
 30
0.0
 10
4.5114959011
 20
4.7765618606
 30
0.0
 10
4.4867658654
 20
4.7760275356
 30
0.0
 10
4.4603572387
 20
4.7754927588
 30
0.0
 10
4.4325242664
 20
4.7749576286
 30
0.0
 10
4.4035351679
 20
4.7744222611
 30
0.0
 10
4.3736687194
 20
4.7738867212
 30
0.0
 10
4.3432130138
 20
4.7733510816
 30
0.0
 10
4.3227446593
 20
4.7729945294
 30
0.0
 10
4.3124611801
 20
4.772815393
 30
0.0
  0
SPLINE
  5
37C
100
AcDbEntity
  8
0
100
AcDbSpline
 62
7
  6
CONTINUOUS
 70
0
 71
3
 72
22
 73
18
 74
0
 42
0.0000001
 43
0.0000001
 44
0.0000000001
 40
0.0
 40
0.0
 40
0.0
 40
0.0
 40
0.1643395276
 40
0.2419594504
 40
0.3164721801
 40
0.3878605033
 40
0.4561387264
 40
0.5213498853
 40
0.5835790958
 40
0.6429507638
 40
0.6996377835
 40
0.753867553
 40
0.8059208406
 40
0.8561400493
 40
0.904921807
 40
0.9527134167
 40
1.0
 40
1.0
 40
1.0
 40
1.0
 10
4.4649893346
 20
2.9215283101
 30
0.0
 10
4.4696439013
 20
2.923536724
 30
0.0
 10
4.4764020054
 20
2.9267271897
 30
0.0
 10
4.4849567283
 20
2.9314349315
 30
0.0
 10
4.4908472049
 20
2.9350234994
 30
0.0
 10
4.4963204597
 20
2.9387287967
 30
0.0
 10
4.5013642345
 20
2.942542065
 30
0.0
 10
4.505966394
 20
2.9464552814
 30
0.0
 10
4.510116543
 20
2.9504592444
 30
0.0
 10
4.5138047609
 20
2.9545453324
 30
0.0
 10
4.5170219193
 20
2.9587047496
 30
0.0
 10
4.519760495
 20
2.9629280134
 30
0.0
 10
4.5220124785
 20
2.9672063253
 30
0.0
 10
4.5237720621
 20
2.9715294894
 30
0.0
 10
4.5250333984
 20
2.9758876422
 30
0.0
 10
4.5257918792
 20
2.9802689949
 30
0.0
 10
4.5259611671
 20
2.9832045897
 30
0.0
 10
4.525961179
 20
2.9846632415
 30
0.0
  0
SPLINE
  5
37D
100
AcDbEntity
  8
0
100
AcDbSpline
 62
7
  6
CONTINUOUS
 70
0
 71
3
 72
11
 73
7
 74
0
 42
0.0000001
 43
0.0000001
 44
0.0000000001
 40
0.0
 40
0.0
 40
0.0
 40
0.0
 40
0.2241428639
 40
0.465579693
 40
0.724318003
 40
1.0
 40
1.0
 40
1.0
 40
1.0
 10
4.5045293337
 20
3.3723744161
 30
0.0
 10
4.5019199057
 20
3.3701025894
 30
0.0
 10
4.4962492257
 20
3.3656670324
 30
0.0
 10
4.4868683994
 20
3.3595636375
 30
0.0
 10
4.4763592155
 20
3.3538004203
 30
0.0
 10
4.4688749877
 20
3.3503167231
 30
0.0
 10
4.4649676478
 20
3.3486312631
 30
0.0
  0
SPLINE
  5
37E
100
AcDbEntity
  8
0
100
AcDbSpline
 62
7
  6
CONTINUOUS
 70
0
 71
3
 72
22
 73
18
 74
0
 42
0.0000001
 43
0.0000001
 44
0.0000000001
 40
0.0
 40
0.0
 40
0.0
 40
0.0
 40
0.0472865833
 40
0.095078193
 40
0.1438599507
 40
0.1940791594
 40
0.246132447
 40
0.3003622165
 40
0.3570492362
 40
0.4164209042
 40
0.4786501147
 40
0.5438612736
 40
0.6121394967
 40
0.6835278199
 40
0.7580405496
 40
0.8356604724
 40
1.0
 40
1.0
 40
1.0
 40
1.0
 10
4.0989611813
 20
2.9846632415
 30
0.0
 10
4.0989611931
 20
2.9832045897
 30
0.0
 10
4.099130481
 20
2.9802689949
 30
0.0
 10
4.0998889619
 20
2.9758876422
 30
0.0
 10
4.1011502982
 20
2.9715294894
 30
0.0
 10
4.1029098817
 20
2.9672063253
 30
0.0
 10
4.1051618653
 20
2.9629280134
 30
0.0
 10
4.107900441
 20
2.9587047496
 30
0.0
 10
4.1111175993
 20
2.9545453324
 30
0.0
 10
4.1148058173
 20
2.9504592444
 30
0.0
 10
4.1189559662
 20
2.9464552814
 30
0.0
 10
4.1235581257
 20
2.942542065
 30
0.0
 10
4.1286019005
 20
2.9387287967
 30
0.0
 10
4.1340751554
 20
2.9350234994
 30
0.0
 10
4.1399656319
 20
2.9314349315
 30
0.0
 10
4.1485203548
 20
2.9267271897
 30
0.0
 10
4.1552784589
 20
2.923536724
 30
0.0
 10
4.1599330257
 20
2.9215283101
 30
0.0
  0
SPLINE
  5
37F
100
AcDbEntity
  8
0
100
AcDbSpline
 62
7
  6
CONTINUOUS
 70
0
 71
3
 72
22
 73
18
 74
0
 42
0.0000001
 43
0.0000001
 44
0.0000000001
 40
0.0
 40
0.0
 40
0.0
 40
0.0
 40
0.0472858147
 40
0.0950767068
 40
0.1438576938
 40
0.1940763084
 40
0.2461291001
 40
0.3003586206
 40
0.3570456236
 40
0.4164170796
 40
0.4786463753
 40
0.5438576819
 40
0.6121363927
 40
0.6835254342
 40
0.7580384996
 40
0.8356589918
 40
1.0
 40
1.0
 40
1.0
 40
1.0
 10
4.0989611801
 20
2.3615766379
 30
0.0
 10
4.0989611801
 20
2.3601179168
 30
0.0
 10
4.0991304924
 20
2.3571821786
 30
0.0
 10
4.099889073
 20
2.3528006279
 30
0.0
 10
4.1011504811
 20
2.3484422604
 30
0.0
 10
4.1029102651
 20
2.3441189165
 30
0.0
 10
4.1051624408
 20
2.3398404055
 30
0.0
 10
4.107901275
 20
2.3356169522
 30
0.0
 10
4.1111187531
 20
2.3314573782
 30
0.0
 10
4.114807272
 20
2.3273710945
 30
0.0
 10
4.1189578186
 20
2.3233670116
 30
0.0
 10
4.1235603807
 20
2.319453641
 30
0.0
 10
4.1286046161
 20
2.3156402421
 30
0.0
 10
4.1340783724
 20
2.3119348501
 30
0.0
 10
4.1399693418
 20
2.3083461488
 30
0.0
 10
4.1485248225
 20
2.3036383386
 30
0.0
 10
4.1552834864
 20
2.3004477957
 30
0.0
 10
4.1599384493
 20
2.2984393686
 30
0.0
  0
SPLINE
  5
380
100
AcDbEntity
  8
0
100
AcDbSpline
 62
7
  6
CONTINUOUS
 70
0
 71
3
 72
30
 73
26
 74
0
 42
0.0000001
 43
0.0000001
 44
0.0000000001
 40
0.0
 40
0.0
 40
0.0
 40
0.0
 40
0.0019021902
 40
0.0043447473
 40
0.0073299528
 40
0.01085838
 40
0.0149296116
 40
0.0195418922
 40
0.0303802895
 40
0.0433534604
 40
0.0584337759
 40
0.0755889474
 40
0.0947822435
 40
0.1159708998
 40
0.1391096279
 40
0.1910273118
 40
0.2500787802
 40
0.3157440523
 40
0.387444584
 40
0.4645480678
 40
0.5463747517
 40
0.6322024821
 40
0.721275457
 40
0.8128047108
 40
1.0
 40
1.0
 40
1.0
 40
1.0
 10
4.6264995636
 20
4.735934872
 30
0.0
 10
4.6263067127
 20
4.7358848908
 30
0.0
 10
4.6258611773
 20
4.7357905632
 30
0.0
 10
4.6251038171
 20
4.7356645931
 30
0.0
 10
4.6241742881
 20
4.735537857
 30
0.0
 10
4.6230729929
 20
4.7354105287
 30
0.0
 10
4.6218003451
 20
4.7352828564
 30
0.0
 10
4.6197636938
 20
4.7351024507
 30
0.0
 10
4.6167948331
 20
4.7348817581
 30
0.0
 10
4.6127294435
 20
4.7346276468
 30
0.0
 10
4.6080014143
 20
4.7343727485
 30
0.0
 10
4.6026211513
 20
4.7341172085
 30
0.0
 10
4.5966005201
 20
4.7338612869
 30
0.0
 10
4.5899527182
 20
4.7336050283
 30
0.0
 10
4.579878928
 20
4.7332492854
 30
0.0
 10
4.5658401698
 20
4.7328108104
 30
0.0
 10
4.5473476741
 20
4.7323011628
 30
0.0
 10
4.5267825788
 20
4.7317905533
 30
0.0
 10
4.5043263303
 20
4.7312791871
 30
0.0
 10
4.4801770516
 20
4.7307673148
 30
0.0
 10
4.4545478832
 20
4.7302550694
 30
0.0
 10
4.4276648798
 20
4.7297425551
 30
0.0
 10
4.3997655218
 20
4.7292298493
 30
0.0
 10
4.3612510642
 20
4.7285409287
 30
0.0
 10
4.3320637712
 20
4.7280326023
 30
0.0
 10
4.3124611801
 20
4.7276911287
 30
0.0
  0
SPLINE
  5
381
100
AcDbEntity
  8
0
100
AcDbSpline
 62
7
  6
CONTINUOUS
 70
0
 71
3
 72
27
 73
23
 74
0
 42
0.0000001
 43
0.0000001
 44
0.0000000001
 40
0.0
 40
0.0
 40
0.0
 40
0.0
 40
0.0023312187
 40
0.0051615168
 40
0.0084920714
 40
0.0123230404
 40
0.0214841764
 40
0.0326359597
 40
0.0457613314
 40
0.0608413499
 40
0.0778522834
 40
0.0967658892
 40
0.140178733
 40
0.1907963103
 40
0.2482873451
 40
0.3122754122
 40
0.3823398147
 40
0.4580195964
 40
0.5388174796
 40
0.6242024118
 40
0.8064586026
 40
1.0
 40
1.0
 40
1.0
 40
1.0
 10
4.605900633
 20
4.7305977311
 30
0.0
 10
4.6057207594
 20
4.7305562271
 30
0.0
 10
4.6053198391
 20
4.7304759384
 30
0.0
 10
4.6046563159
 20
4.7303663256
 30
0.0
 10
4.6038727266
 20
4.7302562967
 30
0.0
 10
4.6025896709
 20
4.7300997243
 30
0.0
 10
4.6006871629
 20
4.7299089782
 30
0.0
 10
4.5980483311
 20
4.7296899286
 30
0.0
 10
4.5949394972
 20
4.7294700587
 30
0.0
 10
4.5913657626
 20
4.7292495488
 30
0.0
 10
4.5873329383
 20
4.7290286258
 30
0.0
 10
4.5810581295
 20
4.728719252
 30
0.0
 10
4.5721225262
 20
4.7283393833
 30
0.0
 10
4.5601321645
 20
4.7278999251
 30
0.0
 10
4.546511612
 20
4.727459383
 30
0.0
 10
4.5313504606
 20
4.72701797
 30
0.0
 10
4.5147484788
 20
4.7265759901
 30
0.0
 10
4.4968149742
 20
4.7261335872
 30
0.0
 10
4.4776679631
 20
4.7256908602
 30
0.0
 10
4.4500830863
 20
4.7250870788
 30
0.0
 10
4.4135714905
 20
4.7243418987
 30
0.0
 10
4.3838191101
 20
4.7237689477
 30
0.0
 10
4.3684961051
 20
4.7234782585
 30
0.0
  0
SPLINE
  5
382
100
AcDbEntity
  8
0
100
AcDbSpline
 62
7
  6
CONTINUOUS
 70
0
 71
3
 72
22
 73
18
 74
0
 42
0.0000001
 43
0.0000001
 44
0.0000000001
 40
0.0
 40
0.0
 40
0.0
 40
0.0
 40
0.0472858147
 40
0.0950767068
 40
0.1438576938
 40
0.1940763084
 40
0.2461291001
 40
0.3003586206
 40
0.3570456236
 40
0.4164170796
 40
0.4786463753
 40
0.5438576819
 40
0.6121363927
 40
0.6835254342
 40
0.7580384996
 40
0.8356589918
 40
1.0
 40
1.0
 40
1.0
 40
1.0
 10
4.5259611801
 20
2.8600459208
 30
0.0
 10
4.5259611801
 20
2.8585871996
 30
0.0
 10
4.5257918678
 20
2.8556514615
 30
0.0
 10
4.5250332872
 20
2.8512699108
 30
0.0
 10
4.5237718791
 20
2.8469115433
 30
0.0
 10
4.5220120951
 20
2.8425881994
 30
0.0
 10
4.5197599194
 20
2.8383096884
 30
0.0
 10
4.5170210852
 20
2.8340862351
 30
0.0
 10
4.5138036072
 20
2.8299266611
 30
0.0
 10
4.5101150883
 20
2.8258403773
 30
0.0
 10
4.5059645416
 20
2.8218362945
 30
0.0
 10
4.5013619796
 20
2.8179229239
 30
0.0
 10
4.4963177441
 20
2.8141095249
 30
0.0
 10
4.4908439878
 20
2.810404133
 30
0.0
 10
4.4849530185
 20
2.8068154317
 30
0.0
 10
4.4763975378
 20
2.8021076215
 30
0.0
 10
4.4696388739
 20
2.7989170786
 30
0.0
 10
4.4649839109
 20
2.7969086514
 30
0.0
  0
SPLINE
  5
383
100
AcDbEntity
  8
0
100
AcDbSpline
 62
7
  6
CONTINUOUS
 70
0
 71
3
 72
30
 73
26
 74
0
 42
0.0000001
 43
0.0000001
 44
0.0000000001
 40
0.0
 40
0.0
 40
0.0
 40
0.0
 40
0.0019021898
 40
0.0043447465
 40
0.0073299518
 40
0.0108583791
 40
0.014929611
 40
0.0195418918
 40
0.0303802892
 40
0.0433534598
 40
0.0584337744
 40
0.0755889464
 40
0.0947822435
 40
0.1159709002
 40
0.1391096276
 40
0.1910273099
 40
0.2500787757
 40
0.3157440422
 40
0.3874445737
 40
0.4645480558
 40
0.5463747425
 40
0.6322024763
 40
0.7212754557
 40
0.8128047132
 40
1.0
 40
1.0
 40
1.0
 40
1.0
 10
4.6264995636
 20
4.770384872
 30
0.0
 10
4.6263067127
 20
4.7703348908
 30
0.0
 10
4.6258611774
 20
4.7702405632
 30
0.0
 10
4.6251038173
 20
4.7701145931
 30
0.0
 10
4.6241742884
 20
4.769987857
 30
0.0
 10
4.6230729932
 20
4.7698605288
 30
0.0
 10
4.6218003453
 20
4.7697328564
 30
0.0
 10
4.619763694
 20
4.7695524508
 30
0.0
 10
4.6167948332
 20
4.7693317581
 30
0.0
 10
4.6127294438
 20
4.7690776469
 30
0.0
 10
4.6080014147
 20
4.7688227485
 30
0.0
 10
4.6026211516
 20
4.7685672086
 30
0.0
 10
4.5966005201
 20
4.7683112869
 30
0.0
 10
4.5899527182
 20
4.7680550283
 30
0.0
 10
4.5798789282
 20
4.7676992854
 30
0.0
 10
4.5658401705
 20
4.7672608104
 30
0.0
 10
4.5473476758
 20
4.7667511629
 30
0.0
 10
4.5267825814
 20
4.7662405533
 30
0.0
 10
4.5043263337
 20
4.7657291872
 30
0.0
 10
4.4801770549
 20
4.7652173149
 30
0.0
 10
4.454547886
 20
4.7647050694
 30
0.0
 10
4.4276648815
 20
4.7641925551
 30
0.0
 10
4.3997655223
 20
4.7636798493
 30
0.0
 10
4.3612510641
 20
4.7629909287
 30
0.0
 10
4.3320637709
 20
4.7624826023
 30
0.0
 10
4.3124611801
 20
4.7621411287
 30
0.0
  0
LINE
  5
384
100
AcDbEntity
  8
0
100
AcDbLine
 62
7
  6
CONTINUOUS
 10
4.6061006556
 20
4.7650966003
 11
4.6058611479
 21
4.7650387331
  0
SPLINE
  5
385
100
AcDbEntity
  8
0
100
AcDbSpline
 62
7
  6
CONTINUOUS
 70
0
 71
3
 72
62
 73
58
 74
0
 42
0.0000001
 43
0.0000001
 44
0.0000000001
 40
0.0
 40
0.0
 40
0.0
 40
0.0
 40
0.0011489886
 40
0.0025779869
 40
0.0042876482
 40
0.0062776288
 40
0.0110956052
 40
0.0170242372
 40
0.0240506611
 40
0.0321599794
 40
0.0413340686
 40
0.0515520954
 40
0.0627914266
 40
0.0750259764
 40
0.1023686375
 40
0.133331098
 40
0.1676312052
 40
0.2049560929
 40
0.2449652527
 40
0.2872936623
 40
0.3315549261
 40
0.3773451358
 40
0.4242461648
 40
0.4718299228
 40
0.5196620304
 40
0.5673058218
 40
0.614326417
 40
0.6602945223
 40
0.7047904926
 40
0.7474082165
 40
0.7877587076
 40
0.8254737914
 40
0.8602093762
 40
0.8916485887
 40
0.9060411058
 40
0.9195048865
 40
0.9320086537
 40
0.943524552
 40
0.9540260726
 40
0.9634895925
 40
0.9718939496
 40
0.9792199416
 40
0.9854521498
 40
0.9905767415
 40
0.9927207624
 40
0.9945847997
 40
0.9961682731
 40
0.9974712002
 40
0.9980178714
 40
0.9984950687
 40
0.9989033277
 40
0.9992435459
 40
0.9995173355
 40
0.9997278989
 40
0.9998116461
 40
0.9998830389
 40
1.0
 40
1.0
 40
1.0
 40
1.0
 10
4.6058611479
 20
4.7650387331
 30
0.0
 10
4.6056413973
 20
4.7649890301
 30
0.0
 10
4.6051446921
 20
4.764893808
 30
0.0
 10
4.6043137745
 20
4.7647651068
 30
0.0
 10
4.6033163782
 20
4.7646357878
 30
0.0
 10
4.6016564069
 20
4.764450776
 30
0.0
 10
4.5991688249
 20
4.7642261178
 30
0.0
 10
4.5956932345
 20
4.763968504
 30
0.0
 10
4.5915708263
 20
4.7637098146
 30
0.0
 10
4.5868110276
 20
4.7634502552
 30
0.0
 10
4.5814246088
 20
4.7631901788
 30
0.0
 10
4.575423821
 20
4.7629297073
 30
0.0
 10
4.5688224191
 20
4.762668966
 30
0.0
 10
4.5588645159
 20
4.7623074816
 30
0.0
 10
4.5450397554
 20
4.7618617035
 30
0.0
 10
4.5268884826
 20
4.7613430802
 30
0.0
 10
4.5067791357
 20
4.7608235373
 30
0.0
 10
4.4848953333
 20
4.7603032649
 30
0.0
 10
4.4614368871
 20
4.7597825057
 30
0.0
 10
4.4366180035
 20
4.7592613877
 30
0.0
 10
4.4106653008
 20
4.7587400148
 30
0.0
 10
4.383815798
 20
4.7582184616
 30
0.0
 10
4.3563146814
 20
4.7576967878
 30
0.0
 10
4.3284131064
 20
4.7571750442
 30
0.0
 10
4.3003658609
 20
4.7566532759
 30
0.0
 10
4.2724290628
 20
4.7561315262
 30
0.0
 10
4.2448578338
 20
4.7556098402
 30
0.0
 10
4.2179039608
 20
4.7550882672
 30
0.0
 10
4.1918135948
 20
4.7545668649
 30
0.0
 10
4.166824991
 20
4.7540457079
 30
0.0
 10
4.1431663245
 20
4.7535248871
 30
0.0
 10
4.1210536251
 20
4.7530045545
 30
0.0
 10
4.1006888147
 20
4.7524848402
 30
0.0
 10
4.0848968554
 20
4.7520404993
 30
0.0
 10
4.0732753306
 20
4.7516814841
 30
0.0
 10
4.0653655605
 20
4.7514203447
 30
0.0
 10
4.058020181
 20
4.7511593444
 30
0.0
 10
4.0512560482
 20
4.7508985488
 30
0.0
 10
4.0450885387
 20
4.7506379975
 30
0.0
 10
4.0395317404
 20
4.7503777945
 30
0.0
 10
4.0345983566
 20
4.7501180778
 30
0.0
 10
4.0302995215
 20
4.7498591119
 30
0.0
 10
4.0266451061
 20
4.749601118
 30
0.0
 10
4.0240071329
 20
4.7493764963
 30
0.0
 10
4.0222258114
 20
4.7491921069
 30
0.0
 10
4.0211370057
 20
4.7490625322
 30
0.0
 10
4.0202144327
 20
4.7489334207
 30
0.0
 10
4.0195505232
 20
4.7488209819
 30
0.0
 10
4.0191036277
 20
4.7487288111
 30
0.0
 10
4.0188303458
 20
4.7486639236
 30
0.0
 10
4.0185988097
 20
4.7485992256
 30
0.0
 10
4.0184087972
 20
4.7485348152
 30
0.0
 10
4.018260226
 20
4.7484706517
 30
0.0
 10
4.0181635876
 20
4.7484139179
 30
0.0
 10
4.0181092887
 20
4.7483665851
 30
0.0
 10
4.0180750544
 20
4.7483256723
 30
0.0
 10
4.018061186
 20
4.7482886953
 30
0.0
 10
4.0180611966
 20
4.7482657608
 30
0.0
  0
SPLINE
  5
386
100
AcDbEntity
  8
0
100
AcDbSpline
 62
7
  6
CONTINUOUS
 70
0
 71
3
 72
22
 73
18
 74
0
 42
0.0000001
 43
0.0000001
 44
0.0000000001
 40
0.0
 40
0.0
 40
0.0
 40
0.0
 40
0.0472858147
 40
0.0950767068
 40
0.1438576938
 40
0.1940763084
 40
0.2461291001
 40
0.3003586206
 40
0.3570456236
 40
0.4164170796
 40
0.4786463753
 40
0.5438576819
 40
0.6121363927
 40
0.6835254342
 40
0.7580384996
 40
0.8356589918
 40
1.0
 40
1.0
 40
1.0
 40
1.0
 10
4.5259611801
 20
2.4861939586
 30
0.0
 10
4.5259611801
 20
2.4847352375
 30
0.0
 10
4.5257918678
 20
2.4817994994
 30
0.0
 10
4.5250332872
 20
2.4774179487
 30
0.0
 10
4.5237718791
 20
2.4730595811
 30
0.0
 10
4.5220120951
 20
2.4687362372
 30
0.0
 10
4.5197599194
 20
2.4644577262
 30
0.0
 10
4.5170210852
 20
2.4602342729
 30
0.0
 10
4.5138036072
 20
2.4560746989
 30
0.0
 10
4.5101150883
 20
2.4519884152
 30
0.0
 10
4.5059645416
 20
2.4479843323
 30
0.0
 10
4.5013619796
 20
2.4440709617
 30
0.0
 10
4.4963177441
 20
2.4402575628
 30
0.0
 10
4.4908439878
 20
2.4365521708
 30
0.0
 10
4.4849530185
 20
2.4329634695
 30
0.0
 10
4.4763975378
 20
2.4282556593
 30
0.0
 10
4.4696388739
 20
2.4250651164
 30
0.0
 10
4.4649839109
 20
2.4230566893
 30
0.0
  0
SPLINE
  5
387
100
AcDbEntity
  8
0
100
AcDbSpline
 62
7
  6
CONTINUOUS
 70
0
 71
3
 72
21
 73
17
 74
0
 42
0.0000001
 43
0.0000001
 44
0.0000000001
 40
0.0
 40
0.0
 40
0.0
 40
0.0
 40
0.0491308533
 40
0.0986831099
 40
0.1490643642
 40
0.2006574777
 40
0.2538085253
 40
0.308824849
 40
0.3659702947
 40
0.425463095
 40
0.4874834318
 40
0.5521704819
 40
0.6898818813
 40
0.7630699988
 40
0.839162751
 40
1.0
 40
1.0
 40
1.0
 40
1.0
 10
4.5259611801
 20
2.6108112793
 30
0.0
 10
4.5259611801
 20
2.6095058092
 30
0.0
 10
4.525825848
 20
2.6068817163
 30
0.0
 10
4.5252190256
 20
2.6029611817
 30
0.0
 10
4.5242095924
 20
2.5990568106
 30
0.0
 10
4.5227998185
 20
2.5951772148
 30
0.0
 10
4.5209938654
 20
2.5913294931
 30
0.0
 10
4.5187954351
 20
2.5875210098
 30
0.0
 10
4.5162092355
 20
2.5837587328
 30
0.0
 10
4.5132409799
 20
2.5800490801
 30
0.0
 10
4.509895988
 20
2.5763988583
 30
0.0
 10
4.5048370021
 20
2.5715182218
 30
0.0
 10
4.4991362901
 20
2.5668967935
 30
0.0
 10
4.4928891843
 20
2.5625207702
 30
0.0
 10
4.4859353341
 20
2.5580954309
 30
0.0
 10
4.4804161497
 20
2.5550499806
 30
0.0
 10
4.4766061589
 20
2.5531139845
 30
0.0
  0
SPLINE
  5
388
100
AcDbEntity
  8
0
100
AcDbSpline
 62
7
  6
CONTINUOUS
 70
0
 71
3
 72
22
 73
18
 74
0
 42
0.0000001
 43
0.0000001
 44
0.0000000001
 40
0.0
 40
0.0
 40
0.0
 40
0.0
 40
0.0476181918
 40
0.0957256416
 40
0.1447928404
 40
0.1952554077
 40
0.2475007456
 40
0.3018655397
 40
0.3586278714
 40
0.4180136815
 40
0.4801987946
 40
0.5453100702
 40
0.6134375093
 40
0.6846303577
 40
0.7589073989
 40
0.8362604734
 40
1.0
 40
1.0
 40
1.0
 40
1.0
 10
4.5259611801
 20
2.7354286001
 30
0.0
 10
4.5259611801
 20
2.7339982798
 30
0.0
 10
4.5257984598
 20
2.7311203816
 30
0.0
 10
4.525069303
 20
2.7268242751
 30
0.0
 10
4.5238567222
 20
2.7225499111
 30
0.0
 10
4.5221646924
 20
2.7183084931
 30
0.0
 10
4.5199988577
 20
2.714109264
 30
0.0
 10
4.5173644421
 20
2.7099619234
 30
0.0
 10
4.5142688533
 20
2.7058749012
 30
0.0
 10
4.5107192878
 20
2.7018569707
 30
0.0
 10
4.5067239105
 20
2.6979167711
 30
0.0
 10
4.502292184
 20
2.6940622036
 30
0.0
 10
4.4974336267
 20
2.6903020736
 30
0.0
 10
4.4921594605
 20
2.6866441284
 30
0.0
 10
4.4864812312
 20
2.6830963242
 30
0.0
 10
4.4782317916
 20
2.6784354346
 30
0.0
 10
4.4717095156
 20
2.6752670359
 30
0.0
 10
4.4672154699
 20
2.6732687598
 30
0.0
  0
SPLINE
  5
389
100
AcDbEntity
  8
0
100
AcDbSpline
 62
7
  6
CONTINUOUS
 70
0
 71
3
 72
39
 73
35
 74
0
 42
0.0000001
 43
0.0000001
 44
0.0000000001
 40
0.0
 40
0.0
 40
0.0
 40
0.0
 40
0.000522443
 40
0.0007225193
 40
0.0009552567
 40
0.0015233136
 40
0.0022329777
 40
0.0030871452
 40
0.0040873247
 40
0.0052343691
 40
0.0079707117
 40
0.0112981435
 40
0.0152168847
 40
0.0197258015
 40
0.0305042131
 40
0.0436114798
 40
0.0590180463
 40
0.0766875226
 40
0.0965788924
 40
0.1186437664
 40
0.1428305587
 40
0.1690801068
 40
0.1973305283
 40
0.2275130044
 40
0.2595556403
 40
0.2933809986
 40
0.3660507836
 40
0.4448230863
 40
0.5289400226
 40
0.6175916474
 40
0.7099254491
 40
0.8050502783
 40
0.9020555645
 40
1.0
 40
1.0
 40
1.0
 40
1.0
 10
4.6272110687
 20
4.746977893
 30
0.0
 10
4.6272110687
 20
4.7469230319
 30
0.0
 10
4.6271441298
 20
4.7468586359
 30
0.0
 10
4.6270608113
 20
4.7468074277
 30
0.0
 10
4.6269665156
 20
4.7467592036
 30
0.0
 10
4.6268188885
 20
4.7467015597
 30
0.0
 10
4.6266047705
 20
4.7466352991
 30
0.0
 10
4.6263437935
 20
4.74656896
 30
0.0
 10
4.626035679
 20
4.7465023231
 30
0.0
 10
4.6255316312
 20
4.7464076638
 30
0.0
 10
4.624783108
 20
4.7462922066
 30
0.0
 10
4.6237432127
 20
4.7461596183
 30
0.0
 10
4.6225159553
 20
4.7460265585
 30
0.0
 10
4.6205080094
 20
4.7458372144
 30
0.0
 10
4.6175350825
 20
4.74560656
 30
0.0
 10
4.6134175025
 20
4.7453416075
 30
0.0
 10
4.6085750799
 20
4.7450756985
 30
0.0
 10
4.6030193982
 20
4.7448089692
 30
0.0
 10
4.596763846
 20
4.7445417786
 30
0.0
 10
4.5898233777
 20
4.7442742025
 30
0.0
 10
4.5822148038
 20
4.7440063907
 30
0.0
 10
4.5739563318
 20
4.7437383609
 30
0.0
 10
4.5650679576
 20
4.743470197
 30
0.0
 10
4.5555710036
 20
4.7432019025
 30
0.0
 10
4.5454884151
 20
4.7429335149
 30
0.0
 10
4.5309453331
 20
4.7425667375
 30
0.0
 10
4.5114959011
 20
4.7421118606
 30
0.0
 10
4.4867658654
 20
4.7415775356
 30
0.0
 10
4.4603572387
 20
4.7410427588
 30
0.0
 10
4.4325242664
 20
4.7405076286
 30
0.0
 10
4.4035351679
 20
4.7399722611
 30
0.0
 10
4.3736687194
 20
4.7394367212
 30
0.0
 10
4.3432130138
 20
4.7389010816
 30
0.0
 10
4.3227446593
 20
4.7385445294
 30
0.0
 10
4.3124611801
 20
4.738365393
 30
0.0
  0
SPLINE
  5
38A
100
AcDbEntity
  8
0
100
AcDbSpline
 62
7
  6
CONTINUOUS
 70
0
 71
3
 72
63
 73
59
 74
0
 42
0.0000001
 43
0.0000001
 44
0.0000000001
 40
0.0
 40
0.0
 40
0.0
 40
0.0
 40
0.0001173489
 40
0.0001890299
 40
0.0002731513
 40
0.0004847724
 40
0.0007601022
 40
0.0011023963
 40
0.0015132542
 40
0.0019935446
 40
0.0025437731
 40
0.0038550829
 40
0.005448502
 40
0.0073243589
 40
0.0094822594
 40
0.0146398676
 40
0.0209116593
 40
0.0282845689
 40
0.0367418222
 40
0.0462650752
 40
0.0568320458
 40
0.0684192048
 40
0.0809997307
 40
0.0945449065
 40
0.1090238728
 40
0.140647527
 40
0.175580466
 40
0.2135019255
 40
0.2540635501
 40
0.2968926279
 40
0.3415955724
 40
0.3877614143
 40
0.4349658892
 40
0.4827750876
 40
0.5307495513
 40
0.5784483826
 40
0.6254329974
 40
0.6712716336
 40
0.7155428731
 40
0.7578399174
 40
0.7977740806
 40
0.8349783959
 40
0.8691111379
 40
0.8998587565
 40
0.9269391286
 40
0.9390251878
 40
0.9501041829
 40
0.9601510021
 40
0.9691423634
 40
0.9770585788
 40
0.9838812841
 40
0.9895962762
 40
0.9920345313
 40
0.9941915332
 40
0.9960666555
 40
0.9976595694
 40
0.9989703604
 40
1.0
 40
1.0
 40
1.0
 40
1.0
 10
4.6068610648
 20
4.7866907609
 30
0.0
 10
4.6068610703
 20
4.7866677407
 30
0.0
 10
4.6068470994
 20
4.786630624
 30
0.0
 10
4.6068126664
 20
4.7865895822
 30
0.0
 10
4.6067580276
 20
4.7865420767
 30
0.0
 10
4.6066607721
 20
4.7864851449
 30
0.0
 10
4.6065112225
 20
4.7864207628
 30
0.0
 10
4.6063199061
 20
4.7863561377
 30
0.0
 10
4.6060867446
 20
4.7862912206
 30
0.0
 10
4.6058115295
 20
4.7862261122
 30
0.0
 10
4.6053614925
 20
4.7861336284
 30
0.0
 10
4.6046930076
 20
4.7860208086
 30
0.0
 10
4.6037641337
 20
4.7858912346
 30
0.0
 10
4.6026678772
 20
4.7857612097
 30
0.0
 10
4.6008742861
 20
4.7855762
 30
0.0
 10
4.5982182398
 20
4.78535081
 30
0.0
 10
4.5945388468
 20
4.7850919001
 30
0.0
 10
4.5902108613
 20
4.7848320737
 30
0.0
 10
4.5852441127
 20
4.7845714328
 30
0.0
 10
4.5796500508
 20
4.7843103541
 30
0.0
 10
4.5734414213
 20
4.7840488939
 30
0.0
 10
4.5666325784
 20
4.7837872002
 30
0.0
 10
4.5592391177
 20
4.7835253069
 30
0.0
 10
4.5512780512
 20
4.7832632565
 30
0.0
 10
4.5395825506
 20
4.7829030322
 30
0.0
 10
4.5236921227
 20
4.7824571713
 30
0.0
 10
4.5032034035
 20
4.7819356734
 30
0.0
 10
4.4809608281
 20
4.7814135527
 30
0.0
 10
4.4571688929
 20
4.7808909438
 30
0.0
 10
4.4320463471
 20
4.7803679984
 30
0.0
 10
4.405824207
 20
4.7798448076
 30
0.0
 10
4.3787435893
 20
4.7793214462
 30
0.0
 10
4.3510535129
 20
4.7787979729
 30
0.0
 10
4.3230085801
 20
4.7782744376
 30
0.0
 10
4.2948666536
 20
4.7777508859
 30
0.0
 10
4.2668865122
 20
4.7772273621
 30
0.0
 10
4.2393254262
 20
4.776703912
 30
0.0
 10
4.212436848
 20
4.7761805873
 30
0.0
 10
4.1864680004
 20
4.7756574502
 30
0.0
 10
4.1616576649
 20
4.7751345779
 30
0.0
 10
4.1382339544
 20
4.7746120789
 30
0.0
 10
4.1164122373
 20
4.7740900869
 30
0.0
 10
4.096393167
 20
4.7735688563
 30
0.0
 10
4.0783608127
 20
4.773048591
 30
0.0
 10
4.0646530984
 20
4.7726011387
 30
0.0
 10
4.0548031826
 20
4.7722381473
 30
0.0
 10
4.0482932873
 20
4.7719765447
 30
0.0
 10
4.0423909946
 20
4.7717152752
 30
0.0
 10
4.037109795
 20
4.7714543727
 30
0.0
 10
4.0324618837
 20
4.7711941389
 30
0.0
 10
4.0284578098
 20
4.7709346375
 30
0.0
 10
4.0255285073
 20
4.7707094012
 30
0.0
 10
4.0235143127
 20
4.7705253745
 30
0.0
 10
4.0222517
 20
4.7703949884
 30
0.0
 10
4.0211558856
 20
4.7702649492
 30
0.0
 10
4.0202272972
 20
4.770135472
 30
0.0
 10
4.0194664309
 20
4.7700067338
 30
0.0
 10
4.0190171254
 20
4.7699106226
 30
0.0
 10
4.0188216092
 20
4.7698599213
 30
0.0
  0
SPLINE
  5
38B
100
AcDbEntity
  8
0
100
AcDbSpline
 62
7
  6
CONTINUOUS
 70
0
 71
3
 72
63
 73
59
 74
0
 42
0.0000001
 43
0.0000001
 44
0.0000000001
 40
0.0
 40
0.0
 40
0.0
 40
0.0
 40
0.0001173802
 40
0.0001890939
 40
0.0002732505
 40
0.0004849245
 40
0.0007602468
 40
0.001102454
 40
0.0015131909
 40
0.0019933871
 40
0.0025436007
 40
0.003855063
 40
0.0054486598
 40
0.0073244618
 40
0.0094821264
 40
0.014639907
 40
0.02091167
 40
0.0282844908
 40
0.0367419799
 40
0.046264923
 40
0.0568321801
 40
0.0684190751
 40
0.0809997863
 40
0.0945449376
 40
0.1090238212
 40
0.1406473994
 40
0.1755804038
 40
0.2135019332
 40
0.2540636517
 40
0.2968927279
 40
0.3415956012
 40
0.3877614402
 40
0.4349658842
 40
0.4827751238
 40
0.5307496147
 40
0.5784483891
 40
0.625433014
 40
0.671271615
 40
0.7155429177
 40
0.7578400425
 40
0.7977742138
 40
0.8349785165
 40
0.8691111099
 40
0.8998586764
 40
0.9269390862
 40
0.9390253102
 40
0.9501042381
 40
0.9601509919
 40
0.9691425586
 40
0.977058482
 40
0.9838815205
 40
0.9895962139
 40
0.9920344557
 40
0.9941916895
 40
0.9960668918
 40
0.9976596395
 40
0.9989702701
 40
1.0
 40
1.0
 40
1.0
 40
1.0
 10
4.6068611206
 20
4.8211407608
 30
0.0
 10
4.6068611069
 20
4.8211177345
 30
0.0
 10
4.6068470961
 20
4.8210806199
 30
0.0
 10
4.606812629
 20
4.821039583
 30
0.0
 10
4.6067579555
 20
4.8209920817
 30
0.0
 10
4.6066606816
 20
4.820935154
 30
0.0
 10
4.6065111417
 20
4.8208707701
 30
0.0
 10
4.6063198725
 20
4.8208061384
 30
0.0
 10
4.6060867735
 20
4.8207412173
 30
0.0
 10
4.6058116052
 20
4.8206761063
 30
0.0
 10
4.6053615597
 20
4.8205836211
 30
0.0
 10
4.6046930105
 20
4.82047081
 30
0.0
 10
4.6037640812
 20
4.8203412443
 30
0.0
 10
4.6026678478
 20
4.8202112145
 30
0.0
 10
4.6008742828
 20
4.8200261794
 30
0.0
 10
4.5982182517
 20
4.8198008227
 30
0.0
 10
4.5945388495
 20
4.8195418989
 30
0.0
 10
4.5902108413
 20
4.819282067
 30
0.0
 10
4.5852441242
 20
4.8190214442
 30
0.0
 10
4.5796500222
 20
4.8187603412
 30
0.0
 10
4.5734414485
 20
4.818498905
 30
0.0
 10
4.5666325662
 20
4.8182371922
 30
0.0
 10
4.5592391258
 20
4.817975311
 30
0.0
 10
4.5512780449
 20
4.8177132559
 30
0.0
 10
4.5395825811
 20
4.8173530316
 30
0.0
 10
4.5236921728
 20
4.8169071705
 30
0.0
 10
4.5032034436
 20
4.8163856729
 30
0.0
 10
4.480960825
 20
4.8158635528
 30
0.0
 10
4.4571688599
 20
4.8153409443
 30
0.0
 10
4.432046312
 20
4.8148179985
 30
0.0
 10
4.4058241889
 20
4.8142948075
 30
0.0
 10
4.3787435939
 20
4.813771446
 30
0.0
 10
4.3510535183
 20
4.8132479726
 30
0.0
 10
4.3230085804
 20
4.8127244377
 30
0.0
 10
4.2948666539
 20
4.8122008862
 30
0.0
 10
4.2668865186
 20
4.8116773622
 30
0.0
 10
4.2393254509
 20
4.8111539119
 30
0.0
 10
4.2124368674
 20
4.8106305871
 30
0.0
 10
4.1864680006
 20
4.81010745
 30
0.0
 10
4.1616576373
 20
4.8095845783
 30
0.0
 10
4.1382339138
 20
4.8090620796
 30
0.0
 10
4.1164122285
 20
4.8085400878
 30
0.0
 10
4.0963932017
 20
4.808018856
 30
0.0
 10
4.0783608808
 20
4.8074985912
 30
0.0
 10
4.0646531383
 20
4.8070511347
 30
0.0
 10
4.0548031964
 20
4.8066881506
 30
0.0
 10
4.0482932953
 20
4.8064265464
 30
0.0
 10
4.0423909893
 20
4.8061652677
 30
0.0
 10
4.0371098189
 20
4.8059043863
 30
0.0
 10
4.0324618614
 20
4.8056441207
 30
0.0
 10
4.028457836
 20
4.8053846563
 30
0.0
 10
4.025528531
 20
4.8051593983
 30
0.0
 10
4.023514353
 20
4.8049753655
 30
0.0
 10
4.0222516803
 20
4.8048449926
 30
0.0
 10
4.0211558363
 20
4.8047149596
 30
0.0
 10
4.0202272978
 20
4.8045854746
 30
0.0
 10
4.0194664809
 20
4.8044567213
 30
0.0
 10
4.0190171896
 20
4.8043606141
 30
0.0
 10
4.0188216528
 20
4.8043099215
 30
0.0
  0
SPLINE
  5
38C
100
AcDbEntity
  8
0
100
AcDbSpline
 62
7
  6
CONTINUOUS
 70
0
 71
3
 72
63
 73
59
 74
0
 42
0.0000001
 43
0.0000001
 44
0.0000000001
 40
0.0
 40
0.0
 40
0.0
 40
0.0
 40
0.0001173508
 40
0.0001890537
 40
0.0002732138
 40
0.0004849379
 40
0.0007603489
 40
0.001102652
 40
0.0015134586
 40
0.0019936646
 40
0.0025438034
 40
0.0038550334
 40
0.0054486337
 40
0.0073246281
 40
0.0094824121
 40
0.0146398502
 40
0.0209118964
 40
0.0282845219
 40
0.0367420707
 40
0.0462651081
 40
0.0568321745
 40
0.068419339
 40
0.0809997338
 40
0.0945451269
 40
0.1090238522
 40
0.1406475681
 40
0.1755805938
 40
0.2135021152
 40
0.2540637289
 40
0.296892756
 40
0.3415956469
 40
0.387761483
 40
0.4349660118
 40
0.4827752032
 40
0.5307496878
 40
0.57844847
 40
0.6254330968
 40
0.6712717825
 40
0.7155430627
 40
0.7578401334
 40
0.7977742267
 40
0.8349784805
 40
0.8691111581
 40
0.8998588115
 40
0.9269393113
 40
0.9390252575
 40
0.9501044705
 40
0.9601510044
 40
0.9691426435
 40
0.9770586191
 40
0.983881475
 40
0.9895964639
 40
0.9920345318
 40
0.9941916053
 40
0.9960669046
 40
0.9976598723
 40
0.9989704635
 40
1.0
 40
1.0
 40
1.0
 40
1.0
 10
4.6068611586
 20
4.8555907609
 30
0.0
 10
4.6068611702
 20
4.8555677404
 30
0.0
 10
4.6068471914
 20
4.8555306159
 30
0.0
 10
4.6068127326
 20
4.8554895801
 30
0.0
 10
4.6067580496
 20
4.8554420764
 30
0.0
 10
4.6066607403
 20
4.8553851524
 30
0.0
 10
4.6065111495
 20
4.8553207718
 30
0.0
 10
4.6063198269
 20
4.8552561424
 30
0.0
 10
4.606086692
 20
4.8551912224
 30
0.0
 10
4.6058115228
 20
4.855126112
 30
0.0
 10
4.6053615378
 20
4.8550336228
 30
0.0
 10
4.6046930513
 20
4.8549207963
 30
0.0
 10
4.6037641277
 20
4.8547912394
 30
0.0
 10
4.602667831
 20
4.8546612187
 30
0.0
 10
4.6008742709
 20
4.8544761946
 30
0.0
 10
4.5982182313
 20
4.854250799
 30
0.0
 10
4.5945388759
 20
4.8539919162
 30
0.0
 10
4.5902108404
 20
4.8537320581
 30
0.0
 10
4.5852441305
 20
4.8534714458
 30
0.0
 10
4.5796500355
 20
4.8532103463
 30
0.0
 10
4.5734414282
 20
4.8529488967
 30
0.0
 10
4.5666325915
 20
4.8526872022
 30
0.0
 10
4.5592391134
 20
4.8524253022
 30
0.0
 10
4.5512780773
 20
4.8521632627
 30
0.0
 10
4.5395825702
 20
4.8518030254
 30
0.0
 10
4.5236921611
 20
4.8513571734
 30
0.0
 10
4.5032034016
 20
4.8508356732
 30
0.0
 10
4.4809608003
 20
4.8503135535
 30
0.0
 10
4.4571688662
 20
4.8497909442
 30
0.0
 10
4.4320463443
 20
4.8492679985
 30
0.0
 10
4.4058242271
 20
4.8487448074
 30
0.0
 10
4.3787436118
 20
4.8482214462
 30
0.0
 10
4.3510535287
 20
4.8476979731
 30
0.0
 10
4.323008584
 20
4.8471744379
 30
0.0
 10
4.2948666658
 20
4.8466508862
 30
0.0
 10
4.266886529
 20
4.8461273621
 30
0.0
 10
4.2393254419
 20
4.8456039118
 30
0.0
 10
4.212436845
 20
4.8450805874
 30
0.0
 10
4.1864679757
 20
4.8445574505
 30
0.0
 10
4.161657642
 20
4.8440345785
 30
0.0
 10
4.1382339532
 20
4.8435120793
 30
0.0
 10
4.1164122757
 20
4.8429900868
 30
0.0
 10
4.0963932242
 20
4.8424688565
 30
0.0
 10
4.0783608518
 20
4.8419485879
 30
0.0
 10
4.064653128
 20
4.8415011453
 30
0.0
 10
4.0548031676
 20
4.8411381408
 30
0.0
 10
4.0482933072
 20
4.8408765554
 30
0.0
 10
4.0423909746
 20
4.8406152628
 30
0.0
 10
4.0371098226
 20
4.8403543853
 30
0.0
 10
4.0324618756
 20
4.84009413
 30
0.0
 10
4.0284578197
 20
4.839834638
 30
0.0
 10
4.0255285239
 20
4.8396094138
 30
0.0
 10
4.0235143547
 20
4.8394253663
 30
0.0
 10
4.0222517297
 20
4.8392949844
 30
0.0
 10
4.0211558548
 20
4.8391649519
 30
0.0
 10
4.0202272586
 20
4.8390354863
 30
0.0
 10
4.0194664438
 20
4.838906733
 30
0.0
 10
4.0190172013
 20
4.8388106149
 30
0.0
 10
4.018821704
 20
4.8387599214
 30
0.0
  0
SPLINE
  5
38D
100
AcDbEntity
  8
0
100
AcDbSpline
 62
7
  6
CONTINUOUS
 70
0
 71
3
 72
63
 73
59
 74
0
 42
0.0000001
 43
0.0000001
 44
0.0000000001
 40
0.0
 40
0.0
 40
0.0
 40
0.0
 40
0.0001173566
 40
0.0001890491
 40
0.0002731843
 40
0.0004848319
 40
0.0007601737
 40
0.001102467
 40
0.0015133276
 40
0.0019936223
 40
0.002543854
 40
0.0038551566
 40
0.0054485333
 40
0.007324299
 40
0.009482148
 40
0.0146397555
 40
0.0209114717
 40
0.0282843854
 40
0.0367415912
 40
0.0462647788
 40
0.0568317352
 40
0.0684188253
 40
0.0809993821
 40
0.0945444885
 40
0.1090234382
 40
0.1406470351
 40
0.1755799461
 40
0.2135013602
 40
0.2540630067
 40
0.2968920788
 40
0.34159502
 40
0.3877608789
 40
0.4349653497
 40
0.4827745781
 40
0.5307490841
 40
0.5784479159
 40
0.625432605
 40
0.6712712287
 40
0.7155425391
 40
0.757839628
 40
0.7977738252
 40
0.8349782257
 40
0.8691109582
 40
0.8998586217
 40
0.9269389974
 40
0.939025112
 40
0.9501040874
 40
0.9601509635
 40
0.9691423158
 40
0.9770585201
 40
0.9838812622
 40
0.9895962194
 40
0.9920345095
 40
0.9941915392
 40
0.996066644
 40
0.9976595303
 40
0.9989703181
 40
1.0
 40
1.0
 40
1.0
 40
1.0
 10
4.6068611804
 20
4.8900407607
 30
0.0
 10
4.6068611792
 20
4.890017739
 30
0.0
 10
4.6068471927
 20
4.8899806238
 30
0.0
 10
4.6068127455
 20
4.8899395862
 30
0.0
 10
4.6067580902
 20
4.8898920842
 30
0.0
 10
4.6066608211
 20
4.8898351569
 30
0.0
 10
4.6065112628
 20
4.8897707763
 30
0.0
 10
4.6063199435
 20
4.8897061514
 30
0.0
 10
4.6060867802
 20
4.8896412362
 30
0.0
 10
4.6058115628
 20
4.8895761284
 30
0.0
 10
4.6053615256
 20
4.8894836452
 30
0.0
 10
4.6046930499
 20
4.8893708248
 30
0.0
 10
4.6037642041
 20
4.889241249
 30
0.0
 10
4.6026679846
 20
4.8891112186
 30
0.0
 10
4.6008744215
 20
4.888926208
 30
0.0
 10
4.5982183994
 20
4.888700824
 30
0.0
 10
4.5945390204
 20
4.8884419095
 30
0.0
 10
4.5902110574
 20
4.8881820866
 30
0.0
 10
4.5852443295
 20
4.8879214433
 30
0.0
 10
4.5796502917
 20
4.8876603638
 30
0.0
 10
4.5734416903
 20
4.8873989059
 30
0.0
 10
4.5666328567
 20
4.8871372093
 30
0.0
 10
4.5592394158
 20
4.8868753185
 30
0.0
 10
4.551278359
 20
4.8866132652
 30
0.0
 10
4.5395828846
 20
4.8862530427
 30
0.0
 10
4.5236924743
 20
4.8858071804
 30
0.0
 10
4.5032037775
 20
4.8852856823
 30
0.0
 10
4.4809612087
 20
4.8847635611
 30
0.0
 10
4.4571692756
 20
4.8842409519
 30
0.0
 10
4.4320467233
 20
4.8837180062
 30
0.0
 10
4.4058245776
 20
4.883194815
 30
0.0
 10
4.3787439537
 20
4.8826714532
 30
0.0
 10
4.3510538646
 20
4.8821479794
 30
0.0
 10
4.3230089141
 20
4.8816244438
 30
0.0
 10
4.2948669689
 20
4.8811008918
 30
0.0
 10
4.2668868002
 20
4.8805773676
 30
0.0
 10
4.2393256977
 20
4.8800539172
 30
0.0
 10
4.2124370892
 20
4.879530592
 30
0.0
 10
4.1864682173
 20
4.8790074544
 30
0.0
 10
4.1616578486
 20
4.878484582
 30
0.0
 10
4.1382341023
 20
4.8779620824
 30
0.0
 10
4.1164123603
 20
4.8774400904
 30
0.0
 10
4.0963932633
 20
4.8769188591
 30
0.0
 10
4.0783608985
 20
4.8763985938
 30
0.0
 10
4.0646531618
 20
4.8759511392
 30
0.0
 10
4.0548032366
 20
4.8755881508
 30
0.0
 10
4.0482933222
 20
4.8753265448
 30
0.0
 10
4.0423910229
 20
4.8750652775
 30
0.0
 10
4.0371098154
 20
4.8748043741
 30
0.0
 10
4.0324619002
 20
4.8745441383
 30
0.0
 10
4.0284578272
 20
4.8742846412
 30
0.0
 10
4.0255285174
 20
4.8740593992
 30
0.0
 10
4.0235143167
 20
4.8738753748
 30
0.0
 10
4.0222516948
 20
4.8737449904
 30
0.0
 10
4.0211558837
 20
4.8736149499
 30
0.0
 10
4.0202273048
 20
4.8734854717
 30
0.0
 10
4.0194664368
 20
4.8733567302
 30
0.0
 10
4.0190171227
 20
4.8732606229
 30
0.0
 10
4.0188215979
 20
4.8732099214
 30
0.0
  0
SPLINE
  5
38E
100
AcDbEntity
  8
0
100
AcDbSpline
 62
7
  6
CONTINUOUS
 70
0
 71
3
 72
39
 73
35
 74
0
 42
0.0000001
 43
0.0000001
 44
0.0000000001
 40
0.0
 40
0.0
 40
0.0
 40
0.0
 40
0.000522443
 40
0.0007225193
 40
0.0009552567
 40
0.0015233136
 40
0.0022329777
 40
0.0030871452
 40
0.0040873247
 40
0.0052343691
 40
0.0079707117
 40
0.0112981435
 40
0.0152168847
 40
0.0197258015
 40
0.0305042131
 40
0.0436114798
 40
0.0590180463
 40
0.0766875226
 40
0.0965788924
 40
0.1186437664
 40
0.1428305587
 40
0.1690801068
 40
0.1973305283
 40
0.2275130044
 40
0.2595556403
 40
0.2933809986
 40
0.3660507836
 40
0.4448230863
 40
0.5289400226
 40
0.6175916474
 40
0.7099254491
 40
0.8050502783
 40
0.9020555645
 40
1.0
 40
1.0
 40
1.0
 40
1.0
 10
4.6272110687
 20
4.402477893
 30
0.0
 10
4.6272110687
 20
4.4024230319
 30
0.0
 10
4.6271441298
 20
4.4023586359
 30
0.0
 10
4.6270608113
 20
4.4023074277
 30
0.0
 10
4.6269665156
 20
4.4022592036
 30
0.0
 10
4.6268188885
 20
4.4022015597
 30
0.0
 10
4.6266047705
 20
4.4021352991
 30
0.0
 10
4.6263437935
 20
4.40206896
 30
0.0
 10
4.626035679
 20
4.4020023231
 30
0.0
 10
4.6255316312
 20
4.4019076638
 30
0.0
 10
4.624783108
 20
4.4017922066
 30
0.0
 10
4.6237432127
 20
4.4016596183
 30
0.0
 10
4.6225159553
 20
4.4015265585
 30
0.0
 10
4.6205080094
 20
4.4013372144
 30
0.0
 10
4.6175350825
 20
4.40110656
 30
0.0
 10
4.6134175025
 20
4.4008416075
 30
0.0
 10
4.6085750799
 20
4.4005756985
 30
0.0
 10
4.6030193982
 20
4.4003089692
 30
0.0
 10
4.596763846
 20
4.4000417786
 30
0.0
 10
4.5898233777
 20
4.3997742025
 30
0.0
 10
4.5822148038
 20
4.3995063907
 30
0.0
 10
4.5739563318
 20
4.399238361
 30
0.0
 10
4.5650679576
 20
4.398970197
 30
0.0
 10
4.5555710036
 20
4.3987019025
 30
0.0
 10
4.5454884151
 20
4.3984335149
 30
0.0
 10
4.5309453331
 20
4.3980667375
 30
0.0
 10
4.5114959011
 20
4.3976118606
 30
0.0
 10
4.4867658654
 20
4.3970775356
 30
0.0
 10
4.4603572387
 20
4.3965427588
 30
0.0
 10
4.4325242664
 20
4.3960076286
 30
0.0
 10
4.4035351679
 20
4.3954722611
 30
0.0
 10
4.3736687194
 20
4.3949367212
 30
0.0
 10
4.3432130138
 20
4.3944010816
 30
0.0
 10
4.3227446593
 20
4.3940445294
 30
0.0
 10
4.3124611801
 20
4.393865393
 30
0.0
  0
SPLINE
  5
38F
100
AcDbEntity
  8
0
100
AcDbSpline
 62
7
  6
CONTINUOUS
 70
0
 71
3
 72
30
 73
26
 74
0
 42
0.0000001
 43
0.0000001
 44
0.0000000001
 40
0.0
 40
0.0
 40
0.0
 40
0.0
 40
0.0019021902
 40
0.0043447473
 40
0.0073299528
 40
0.01085838
 40
0.0149296116
 40
0.0195418922
 40
0.0303802895
 40
0.0433534604
 40
0.0584337759
 40
0.0755889474
 40
0.0947822435
 40
0.1159708998
 40
0.1391096279
 40
0.1910273118
 40
0.2500787802
 40
0.3157440523
 40
0.387444584
 40
0.4645480678
 40
0.5463747517
 40
0.6322024821
 40
0.721275457
 40
0.8128047108
 40
1.0
 40
1.0
 40
1.0
 40
1.0
 10
4.6264995636
 20
4.804834872
 30
0.0
 10
4.6263067127
 20
4.8047848908
 30
0.0
 10
4.6258611773
 20
4.8046905632
 30
0.0
 10
4.6251038171
 20
4.8045645931
 30
0.0
 10
4.6241742881
 20
4.804437857
 30
0.0
 10
4.6230729929
 20
4.8043105287
 30
0.0
 10
4.6218003451
 20
4.8041828564
 30
0.0
 10
4.6197636938
 20
4.8040024507
 30
0.0
 10
4.6167948331
 20
4.8037817581
 30
0.0
 10
4.6127294435
 20
4.8035276468
 30
0.0
 10
4.6080014143
 20
4.8032727485
 30
0.0
 10
4.6026211513
 20
4.8030172085
 30
0.0
 10
4.5966005201
 20
4.8027612869
 30
0.0
 10
4.5899527182
 20
4.8025050283
 30
0.0
 10
4.579878928
 20
4.8021492854
 30
0.0
 10
4.5658401698
 20
4.8017108104
 30
0.0
 10
4.5473476741
 20
4.8012011628
 30
0.0
 10
4.5267825788
 20
4.8006905533
 30
0.0
 10
4.5043263303
 20
4.8001791871
 30
0.0
 10
4.4801770516
 20
4.7996673148
 30
0.0
 10
4.4545478832
 20
4.7991550694
 30
0.0
 10
4.4276648798
 20
4.7986425551
 30
0.0
 10
4.3997655218
 20
4.7981298493
 30
0.0
 10
4.3612510642
 20
4.7974409287
 30
0.0
 10
4.3320637712
 20
4.7969326023
 30
0.0
 10
4.3124611801
 20
4.7965911287
 30
0.0
  0
LINE
  5
390
100
AcDbEntity
  8
0
100
AcDbLine
 62
7
  6
CONTINUOUS
 10
4.6061007136
 20
4.7995466002
 11
4.6058191877
 21
4.7994793404
  0
SPLINE
  5
391
100
AcDbEntity
  8
0
100
AcDbSpline
 62
7
  6
CONTINUOUS
 70
0
 71
3
 72
62
 73
58
 74
0
 42
0.0000001
 43
0.0000001
 44
0.0000000001
 40
0.0
 40
0.0
 40
0.0
 40
0.0
 40
0.0011685153
 40
0.002616593
 40
0.0043449046
 40
0.0063534573
 40
0.0112077711
 40
0.0171705876
 40
0.0242301903
 40
0.0323705284
 40
0.0415741565
 40
0.0518199562
 40
0.0630849549
 40
0.0753437508
 40
0.1027286325
 40
0.1337256522
 40
0.1680526347
 40
0.205396931
 40
0.2454182419
 40
0.2877516929
 40
0.3320113524
 40
0.3777936162
 40
0.424681087
 40
0.4722462596
 40
0.5200553455
 40
0.5676724835
 40
0.6146633145
 40
0.6605994686
 40
0.7050620543
 40
0.7476457026
 40
0.7879622418
 40
0.8256440536
 40
0.8603477436
 40
0.891757087
 40
0.906135845
 40
0.9195862079
 40
0.9320779272
 40
0.9435820758
 40
0.954073224
 40
0.9635270546
 40
0.9719227537
 40
0.9792414289
 40
0.9854669314
 40
0.9905865754
 40
0.9927282706
 40
0.9945901853
 40
0.9961720014
 40
0.997473814
 40
0.9980200093
 40
0.998496722
 40
0.9989045073
 40
0.9992442962
 40
0.9995177342
 40
0.9997280542
 40
0.9998117267
 40
0.9998830757
 40
1.0
 40
1.0
 40
1.0
 40
1.0
 10
4.6058191877
 20
4.7994793404
 30
0.0
 10
4.6055954978
 20
4.799429784
 30
0.0
 10
4.6050911101
 20
4.7993347144
 30
0.0
 10
4.6042488973
 20
4.7992060181
 30
0.0
 10
4.6032404457
 20
4.7990767171
 30
0.0
 10
4.601566065
 20
4.798891906
 30
0.0
 10
4.5990611203
 20
4.7986673976
 30
0.0
 10
4.5955653945
 20
4.798409833
 30
0.0
 10
4.5914239537
 20
4.7981512852
 30
0.0
 10
4.5866460932
 20
4.7978918252
 30
0.0
 10
4.5812427237
 20
4.797631887
 30
0.0
 10
4.5752260852
 20
4.7973715526
 30
0.0
 10
4.5686099184
 20
4.7971109373
 30
0.0
 10
4.5586346589
 20
4.7967497142
 30
0.0
 10
4.544791085
 20
4.7963041958
 30
0.0
 10
4.5266208022
 20
4.7957858428
 30
0.0
 10
4.5064970651
 20
4.7952665727
 30
0.0
 10
4.4846033983
 20
4.7947465803
 30
0.0
 10
4.4611394856
 20
4.7942261041
 30
0.0
 10
4.4363193565
 20
4.7937052714
 30
0.0
 10
4.4103694328
 20
4.7931841849
 30
0.0
 10
4.3835264224
 20
4.7926629188
 30
0.0
 10
4.356035176
 20
4.7921415333
 30
0.0
 10
4.328146457
 20
4.7916200788
 30
0.0
 10
4.3001146462
 20
4.7910986001
 30
0.0
 10
4.272195467
 20
4.7905771406
 30
0.0
 10
4.2446435813
 20
4.7900557444
 30
0.0
 10
4.2177103265
 20
4.7895344613
 30
0.0
 10
4.191641361
 20
4.7890133493
 30
0.0
 10
4.1666744695
 20
4.7884924826
 30
0.0
 10
4.1430373962
 20
4.7879719528
 30
0.0
 10
4.1209457492
 20
4.7874519101
 30
0.0
 10
4.100601063
 20
4.7869324881
 30
0.0
 10
4.0848250679
 20
4.7864883837
 30
0.0
 10
4.0732155785
 20
4.7861295796
 30
0.0
 10
4.0653140788
 20
4.785868571
 30
0.0
 10
4.0579765333
 20
4.7856077354
 30
0.0
 10
4.0512195963
 20
4.7853470674
 30
0.0
 10
4.0450587752
 20
4.785086675
 30
0.0
 10
4.0395080152
 20
4.7848266147
 30
0.0
 10
4.0345800256
 20
4.7845670322
 30
0.0
 10
4.0302859508
 20
4.7843082381
 30
0.0
 10
4.026635526
 20
4.7840503468
 30
0.0
 10
4.0240004841
 20
4.7838258888
 30
0.0
 10
4.0222211368
 20
4.7836415927
 30
0.0
 10
4.0211336098
 20
4.7835120818
 30
0.0
 10
4.0202120662
 20
4.7833830328
 30
0.0
 10
4.0195488397
 20
4.7832706715
 30
0.0
 10
4.019102382
 20
4.7831785573
 30
0.0
 10
4.0188294016
 20
4.7831137059
 30
0.0
 10
4.0185981562
 20
4.7830490429
 30
0.0
 10
4.0184084076
 20
4.7829846659
 30
0.0
 10
4.0182600536
 20
4.7829205345
 30
0.0
 10
4.0181635621
 20
4.7828638278
 30
0.0
 10
4.0181093391
 20
4.7828165248
 30
0.0
 10
4.0180751379
 20
4.7827756296
 30
0.0
 10
4.0180612607
 20
4.7827386866
 30
0.0
 10
4.0180612471
 20
4.7827157609
 30
0.0
  0
SPLINE
  5
392
100
AcDbEntity
  8
0
100
AcDbSpline
 62
7
  6
CONTINUOUS
 70
0
 71
3
 72
22
 73
18
 74
0
 42
0.0000001
 43
0.0000001
 44
0.0000000001
 40
0.0
 40
0.0
 40
0.0
 40
0.0
 40
0.1643410082
 40
0.2419615004
 40
0.3164745658
 40
0.3878636073
 40
0.4561423181
 40
0.5213536247
 40
0.5835829204
 40
0.6429543764
 40
0.6996413794
 40
0.7538708999
 40
0.8059236916
 40
0.8561423062
 40
0.9049232932
 40
0.9527141853
 40
1.0
 40
1.0
 40
1.0
 40
1.0
 10
4.4649839109
 20
2.2984393686
 30
0.0
 10
4.4696388739
 20
2.3004477957
 30
0.0
 10
4.4763975378
 20
2.3036383386
 30
0.0
 10
4.4849530185
 20
2.3083461488
 30
0.0
 10
4.4908439878
 20
2.3119348501
 30
0.0
 10
4.4963177441
 20
2.3156402421
 30
0.0
 10
4.5013619796
 20
2.319453641
 30
0.0
 10
4.5059645416
 20
2.3233670116
 30
0.0
 10
4.5101150883
 20
2.3273710945
 30
0.0
 10
4.5138036072
 20
2.3314573782
 30
0.0
 10
4.5170210852
 20
2.3356169522
 30
0.0
 10
4.5197599194
 20
2.3398404055
 30
0.0
 10
4.5220120951
 20
2.3441189165
 30
0.0
 10
4.5237718791
 20
2.3484422604
 30
0.0
 10
4.5250332872
 20
2.3528006279
 30
0.0
 10
4.5257918678
 20
2.3571821786
 30
0.0
 10
4.5259611801
 20
2.3601179168
 30
0.0
 10
4.5259611801
 20
2.3615766379
 30
0.0
  0
SPLINE
  5
393
100
AcDbEntity
  8
0
100
AcDbSpline
 62
7
  6
CONTINUOUS
 70
0
 71
3
 72
30
 73
26
 74
0
 42
0.0000001
 43
0.0000001
 44
0.0000000001
 40
0.0
 40
0.0
 40
0.0
 40
0.0
 40
0.0019021902
 40
0.0043447473
 40
0.0073299528
 40
0.01085838
 40
0.0149296116
 40
0.0195418922
 40
0.0303802895
 40
0.0433534604
 40
0.0584337759
 40
0.0755889474
 40
0.0947822435
 40
0.1159708998
 40
0.1391096279
 40
0.1910273118
 40
0.2500787802
 40
0.3157440523
 40
0.387444584
 40
0.4645480678
 40
0.5463747517
 40
0.6322024821
 40
0.721275457
 40
0.8128047108
 40
1.0
 40
1.0
 40
1.0
 40
1.0
 10
4.6264995636
 20
4.839284872
 30
0.0
 10
4.6263067127
 20
4.8392348908
 30
0.0
 10
4.6258611773
 20
4.8391405632
 30
0.0
 10
4.6251038171
 20
4.8390145931
 30
0.0
 10
4.6241742881
 20
4.838887857
 30
0.0
 10
4.6230729929
 20
4.8387605287
 30
0.0
 10
4.6218003451
 20
4.8386328564
 30
0.0
 10
4.6197636938
 20
4.8384524507
 30
0.0
 10
4.6167948331
 20
4.8382317581
 30
0.0
 10
4.6127294435
 20
4.8379776468
 30
0.0
 10
4.6080014143
 20
4.8377227485
 30
0.0
 10
4.6026211513
 20
4.8374672085
 30
0.0
 10
4.5966005201
 20
4.8372112869
 30
0.0
 10
4.5899527182
 20
4.8369550283
 30
0.0
 10
4.579878928
 20
4.8365992854
 30
0.0
 10
4.5658401698
 20
4.8361608104
 30
0.0
 10
4.5473476741
 20
4.8356511628
 30
0.0
 10
4.5267825788
 20
4.8351405533
 30
0.0
 10
4.5043263303
 20
4.8346291871
 30
0.0
 10
4.4801770516
 20
4.8341173148
 30
0.0
 10
4.4545478832
 20
4.8336050694
 30
0.0
 10
4.4276648798
 20
4.8330925551
 30
0.0
 10
4.3997655218
 20
4.8325798493
 30
0.0
 10
4.3612510642
 20
4.8318909287
 30
0.0
 10
4.3320637712
 20
4.8313826023
 30
0.0
 10
4.3124611801
 20
4.8310411287
 30
0.0
  0
SPLINE
  5
394
100
AcDbEntity
  8
0
100
AcDbSpline
 62
7
  6
CONTINUOUS
 70
0
 71
3
 72
22
 73
18
 74
0
 42
0.0000001
 43
0.0000001
 44
0.0000000001
 40
0.0
 40
0.0
 40
0.0
 40
0.0
 40
0.1637395266
 40
0.2410926011
 40
0.3153696423
 40
0.3865624907
 40
0.4546899298
 40
0.5198012054
 40
0.5819863185
 40
0.6413721286
 40
0.6981344603
 40
0.7524992544
 40
0.8047445923
 40
0.8552071596
 40
0.9042743584
 40
0.9523818082
 40
1.0
 40
1.0
 40
1.0
 40
1.0
 10
4.1577068903
 20
2.6732687598
 30
0.0
 10
4.1532128446
 20
2.6752670359
 30
0.0
 10
4.1466905687
 20
2.6784354346
 30
0.0
 10
4.138441129
 20
2.6830963242
 30
0.0
 10
4.1327628998
 20
2.6866441284
 30
0.0
 10
4.1274887335
 20
2.6903020736
 30
0.0
 10
4.1226301762
 20
2.6940622036
 30
0.0
 10
4.1181984498
 20
2.6979167711
 30
0.0
 10
4.1142030725
 20
2.7018569707
 30
0.0
 10
4.110653507
 20
2.7058749012
 30
0.0
 10
4.1075579181
 20
2.7099619234
 30
0.0
 10
4.1049235025
 20
2.714109264
 30
0.0
 10
4.1027576679
 20
2.7183084931
 30
0.0
 10
4.1010656381
 20
2.7225499111
 30
0.0
 10
4.0998530573
 20
2.7268242751
 30
0.0
 10
4.0991239005
 20
2.7311203816
 30
0.0
 10
4.0989611801
 20
2.7339982798
 30
0.0
 10
4.0989611801
 20
2.7354286001
 30
0.0
  0
LINE
  5
395
100
AcDbEntity
  8
0
100
AcDbLine
 62
7
  6
CONTINUOUS
 10
4.6061007467
 20
4.8339966004
 11
4.6057779993
 21
4.833920283
  0
SPLINE
  5
396
100
AcDbEntity
  8
0
100
AcDbSpline
 62
7
  6
CONTINUOUS
 70
0
 71
3
 72
62
 73
58
 74
0
 42
0.0000001
 43
0.0000001
 44
0.0000000001
 40
0.0
 40
0.0
 40
0.0
 40
0.0
 40
0.001187238
 40
0.0026539676
 40
0.0044005441
 40
0.0064267733
 40
0.0113157709
 40
0.0173120004
 40
0.0244030233
 40
0.0325737366
 40
0.0418054399
 40
0.0520780926
 40
0.0633678846
 40
0.0756497559
 40
0.1030752804
 40
0.1341056223
 40
0.1684586995
 40
0.2058217374
 40
0.2458546475
 40
0.2881928507
 40
0.3324507979
 40
0.3782254773
 40
0.4250998961
 40
0.4726471636
 40
0.5204340931
 40
0.5680254176
 40
0.6149876724
 40
0.6608930892
 40
0.7053235589
 40
0.7478744153
 40
0.7881580422
 40
0.8258077192
 40
0.8604806729
 40
0.8918614199
 40
0.9062268917
 40
0.9196646025
 40
0.9321442454
 40
0.943637581
 40
0.9541182605
 40
0.9635631617
 40
0.9719503771
 40
0.9792618939
 40
0.985481248
 40
0.990595599
 40
0.9927353904
 40
0.99459552
 40
0.9961755931
 40
0.9974759574
 40
0.9980216202
 40
0.9984979534
 40
0.9989054649
 40
0.9992450257
 40
0.9995182312
 40
0.999728325
 40
0.9998118998
 40
0.9998831683
 40
1.0
 40
1.0
 40
1.0
 40
1.0
 10
4.6057779993
 20
4.833920283
 30
0.0
 10
4.6055505401
 20
4.8338708544
 30
0.0
 10
4.6050387211
 20
4.833775923
 30
0.0
 10
4.6041855343
 20
4.8336472519
 30
0.0
 10
4.6031663647
 20
4.8335179887
 30
0.0
 10
4.6014781594
 20
4.833333336
 30
0.0
 10
4.5989565054
 20
4.8331089646
 30
0.0
 10
4.5954414613
 20
4.8328515013
 30
0.0
 10
4.5912816125
 20
4.8325930296
 30
0.0
 10
4.5864864419
 20
4.8323337179
 30
0.0
 10
4.5810667126
 20
4.8320738771
 30
0.0
 10
4.575034855
 20
4.8318136913
 30
0.0
 10
4.5684044972
 20
4.8315531994
 30
0.0
 10
4.5584125801
 20
4.8311922168
 30
0.0
 10
4.5445509561
 20
4.8307469557
 30
0.0
 10
4.5263623436
 20
4.8302288621
 30
0.0
 10
4.506224714
 20
4.8297098572
 30
0.0
 10
4.4843215427
 20
4.8291901347
 30
0.0
 10
4.4608524243
 20
4.8286699308
 30
0.0
 10
4.436031198
 20
4.8281493723
 30
0.0
 10
4.4100840201
 20
4.8276285618
 30
0.0
 10
4.383247311
 20
4.8271075731
 30
0.0
 10
4.3557655876
 20
4.8265864659
 30
0.0
 10
4.3278892776
 20
4.8260652903
 30
0.0
 10
4.2998723885
 20
4.8255440907
 30
0.0
 10
4.2719702155
 20
4.8250229104
 30
0.0
 10
4.2444369922
 20
4.824501794
 30
0.0
 10
4.2175235914
 20
4.8239807909
 30
0.0
 10
4.1914752448
 20
4.8234599591
 30
0.0
 10
4.1665293199
 20
4.822939373
 30
0.0
 10
4.1429131217
 20
4.8224191227
 30
0.0
 10
4.1208418364
 20
4.8218993591
 30
0.0
 10
4.1005165406
 20
4.8213802164
 30
0.0
 10
4.0847559133
 20
4.8209363483
 30
0.0
 10
4.0731579478
 20
4.8205777361
 30
0.0
 10
4.0652644673
 20
4.8203168724
 30
0.0
 10
4.0579344163
 20
4.820056166
 30
0.0
 10
4.0511845029
 20
4.8197956577
 30
0.0
 10
4.0450300476
 20
4.819535382
 30
0.0
 10
4.0394851509
 20
4.819275486
 30
0.0
 10
4.034562333
 20
4.819016026
 30
0.0
 10
4.0302728385
 20
4.8187573761
 30
0.0
 10
4.026626321
 20
4.8184996395
 30
0.0
 10
4.0239940881
 20
4.8182752686
 30
0.0
 10
4.0222166273
 20
4.8180910965
 30
0.0
 10
4.0211302427
 20
4.8179616613
 30
0.0
 10
4.0202097428
 20
4.8178326737
 30
0.0
 10
4.0195472969
 20
4.8177203644
 30
0.0
 10
4.0191013348
 20
4.8176283007
 30
0.0
 10
4.0188286054
 20
4.8175634863
 30
0.0
 10
4.0185975467
 20
4.8174988619
 30
0.0
 10
4.0184079512
 20
4.8174345259
 30
0.0
 10
4.0182597404
 20
4.8173704315
 30
0.0
 10
4.0181633675
 20
4.8173137505
 30
0.0
 10
4.0181092373
 20
4.8172664699
 30
0.0
 10
4.0180751048
 20
4.8172255892
 30
0.0
 10
4.0180612855
 20
4.8171886667
 30
0.0
 10
4.0180612921
 20
4.8171657608
 30
0.0
  0
SPLINE
  5
397
100
AcDbEntity
  8
0
100
AcDbSpline
 62
7
  6
CONTINUOUS
 70
0
 71
3
 72
21
 73
17
 74
0
 42
0.0000001
 43
0.0000001
 44
0.0000000001
 40
0.0
 40
0.0
 40
0.0
 40
0.0
 40
0.160837249
 40
0.2369300012
 40
0.3101181187
 40
0.4478295181
 40
0.5125165682
 40
0.574536905
 40
0.6340297053
 40
0.691175151
 40
0.7461914747
 40
0.7993425223
 40
0.8509356358
 40
0.9013168901
 40
0.9508691467
 40
1.0
 40
1.0
 40
1.0
 40
1.0
 10
4.1483162014
 20
2.5531139845
 30
0.0
 10
4.1445062105
 20
2.5550499806
 30
0.0
 10
4.1389870261
 20
2.5580954309
 30
0.0
 10
4.132033176
 20
2.5625207702
 30
0.0
 10
4.1257860702
 20
2.5668967935
 30
0.0
 10
4.1200853582
 20
2.5715182218
 30
0.0
 10
4.1150263722
 20
2.5763988583
 30
0.0
 10
4.1116813803
 20
2.5800490801
 30
0.0
 10
4.1087131248
 20
2.5837587328
 30
0.0
 10
4.1061269252
 20
2.5875210098
 30
0.0
 10
4.1039284948
 20
2.5913294931
 30
0.0
 10
4.1021225417
 20
2.5951772148
 30
0.0
 10
4.1007127679
 20
2.5990568106
 30
0.0
 10
4.0997033347
 20
2.6029611817
 30
0.0
 10
4.0990965122
 20
2.6068817163
 30
0.0
 10
4.0989611801
 20
2.6095058092
 30
0.0
 10
4.0989611801
 20
2.6108112793
 30
0.0
  0
SPLINE
  5
398
100
AcDbEntity
  8
0
100
AcDbSpline
 62
7
  6
CONTINUOUS
 70
0
 71
3
 72
30
 73
26
 74
0
 42
0.0000001
 43
0.0000001
 44
0.0000000001
 40
0.0
 40
0.0
 40
0.0
 40
0.0
 40
0.0019021902
 40
0.0043447473
 40
0.0073299528
 40
0.01085838
 40
0.0149296116
 40
0.0195418922
 40
0.0303802895
 40
0.0433534604
 40
0.0584337759
 40
0.0755889474
 40
0.0947822435
 40
0.1159708998
 40
0.1391096279
 40
0.1910273118
 40
0.2500787802
 40
0.3157440523
 40
0.387444584
 40
0.4645480678
 40
0.5463747517
 40
0.6322024821
 40
0.721275457
 40
0.8128047108
 40
1.0
 40
1.0
 40
1.0
 40
1.0
 10
4.6264995636
 20
4.873734872
 30
0.0
 10
4.6263067127
 20
4.8736848908
 30
0.0
 10
4.6258611773
 20
4.8735905632
 30
0.0
 10
4.6251038171
 20
4.8734645931
 30
0.0
 10
4.6241742881
 20
4.873337857
 30
0.0
 10
4.6230729929
 20
4.8732105287
 30
0.0
 10
4.6218003451
 20
4.8730828564
 30
0.0
 10
4.6197636938
 20
4.8729024507
 30
0.0
 10
4.6167948331
 20
4.8726817581
 30
0.0
 10
4.6127294435
 20
4.8724276468
 30
0.0
 10
4.6080014143
 20
4.8721727485
 30
0.0
 10
4.6026211513
 20
4.8719172085
 30
0.0
 10
4.5966005201
 20
4.8716612869
 30
0.0
 10
4.5899527182
 20
4.8714050283
 30
0.0
 10
4.579878928
 20
4.8710492854
 30
0.0
 10
4.5658401698
 20
4.8706108104
 30
0.0
 10
4.5473476741
 20
4.8701011628
 30
0.0
 10
4.5267825788
 20
4.8695905533
 30
0.0
 10
4.5043263303
 20
4.8690791871
 30
0.0
 10
4.4801770516
 20
4.8685673148
 30
0.0
 10
4.4545478832
 20
4.8680550694
 30
0.0
 10
4.4276648798
 20
4.8675425551
 30
0.0
 10
4.3997655218
 20
4.8670298493
 30
0.0
 10
4.3612510642
 20
4.8663409287
 30
0.0
 10
4.3320637712
 20
4.8658326023
 30
0.0
 10
4.3124611801
 20
4.8654911287
 30
0.0
  0
LINE
  5
399
100
AcDbEntity
  8
0
100
AcDbLine
 62
7
  6
CONTINUOUS
 10
4.6061006535
 20
4.8684466003
 11
4.605734916
 21
4.8683610314
  0
SPLINE
  5
39A
100
AcDbEntity
  8
0
100
AcDbSpline
 62
7
  6
CONTINUOUS
 70
0
 71
3
 72
62
 73
58
 74
0
 42
0.0000001
 43
0.0000001
 44
0.0000000001
 40
0.0
 40
0.0
 40
0.0
 40
0.0
 40
0.0012060892
 40
0.0026915476
 40
0.004456825
 40
0.0065014649
 40
0.0114256175
 40
0.0174559211
 40
0.0245792572
 40
0.0327805095
 40
0.0420414038
 40
0.0523409497
 40
0.0636564112
 40
0.075961596
 40
0.10342877
 40
0.1344932136
 40
0.1688726931
 40
0.2062547167
 40
0.2462993573
 40
0.2886424147
 40
0.3328987743
 40
0.3786656983
 40
0.4255268521
 40
0.4730557789
 40
0.5208200813
 40
0.5683852032
 40
0.6153182832
 40
0.6611923883
 40
0.7055899921
 40
0.7481072886
 40
0.7883574863
 40
0.8259745036
 40
0.8606163057
 40
0.8919679023
 40
0.9063194518
 40
0.9197444571
 40
0.9322118638
 40
0.9436939029
 40
0.954164345
 40
0.9635995569
 40
0.9719786795
 40
0.9792825212
 40
0.9854958163
 40
0.9906048435
 40
0.9927423039
 40
0.9946006472
 40
0.9961793329
 40
0.9974783383
 40
0.9980233589
 40
0.9984991184
 40
0.9989061569
 40
0.9992453761
 40
0.999518392
 40
0.9997284081
 40
0.999811964
 40
0.999883216
 40
1.0
 40
1.0
 40
1.0
 40
1.0
 10
4.605734916
 20
4.8683610314
 30
0.0
 10
4.6055036646
 20
4.8683117407
 30
0.0
 10
4.6049843831
 20
4.8682169324
 30
0.0
 10
4.6041201035
 20
4.8680882785
 30
0.0
 10
4.6030899747
 20
4.8679590615
 30
0.0
 10
4.6013876254
 20
4.8677746129
 30
0.0
 10
4.5988489111
 20
4.8675503306
 30
0.0
 10
4.5953141633
 20
4.8672929858
 30
0.0
 10
4.5911355842
 20
4.8670346124
 30
0.0
 10
4.5863226969
 20
4.8667754137
 30
0.0
 10
4.580886366
 20
4.8665157185
 30
0.0
 10
4.5748389138
 20
4.8662556426
 30
0.0
 10
4.5681941603
 20
4.8659953065
 30
0.0
 10
4.5581852042
 20
4.865634547
 30
0.0
 10
4.5443051787
 20
4.8651895655
 30
0.0
 10
4.5260978861
 20
4.8646717321
 30
0.0
 10
4.5059461685
 20
4.864152998
 30
0.0
 10
4.4840334294
 20
4.8636335503
 30
0.0
 10
4.4605590862
 20
4.8631136246
 30
0.0
 10
4.4357367709
 20
4.8625933467
 30
0.0
 10
4.4097924094
 20
4.8620728187
 30
0.0
 10
4.3829621361
 20
4.8615521135
 30
0.0
 10
4.3554901818
 20
4.8610312905
 30
0.0
 10
4.3276265864
 20
4.8605103992
 30
0.0
 10
4.2996249592
 20
4.8599894847
 30
0.0
 10
4.2717401638
 20
4.85946859
 30
0.0
 10
4.2442259934
 20
4.8589477595
 30
0.0
 10
4.2173329057
 20
4.8584270426
 30
0.0
 10
4.1913056674
 20
4.8579064965
 30
0.0
 10
4.1663811837
 20
4.8573861959
 30
0.0
 10
4.1427862869
 20
4.8568662313
 30
0.0
 10
4.1207357155
 20
4.8563467544
 30
0.0
 10
4.1004301645
 20
4.8558278949
 30
0.0
 10
4.084685267
 20
4.8553842778
 30
0.0
 10
4.0730991044
 20
4.8550258476
 30
0.0
 10
4.0652138331
 20
4.8547651386
 30
0.0
 10
4.057891435
 20
4.8545045704
 30
0.0
 10
4.0511486473
 20
4.8542442024
 30
0.0
 10
4.0450007731
 20
4.8539840845
 30
0.0
 10
4.0394617857
 20
4.8537243077
 30
0.0
 10
4.0345443254
 20
4.8534650222
 30
0.0
 10
4.030259433
 20
4.8532064824
 30
0.0
 10
4.0266169237
 20
4.8529489118
 30
0.0
 10
4.0239875765
 20
4.8527246648
 30
0.0
 10
4.0222121021
 20
4.8525405773
 30
0.0
 10
4.0211268783
 20
4.8524112147
 30
0.0
 10
4.0202073332
 20
4.8522823175
 30
0.0
 10
4.0195456018
 20
4.8521700662
 30
0.0
 10
4.0191001807
 20
4.8520780466
 30
0.0
 10
4.0188278052
 20
4.8520132657
 30
0.0
 10
4.0185970387
 20
4.8519486737
 30
0.0
 10
4.0184076571
 20
4.8518843676
 30
0.0
 10
4.0182595753
 20
4.8518203074
 30
0.0
 10
4.0181632572
 20
4.8517636644
 30
0.0
 10
4.0181091375
 20
4.851716414
 30
0.0
 10
4.0180750049
 20
4.8516755609
 30
0.0
 10
4.0180611786
 20
4.8516386556
 30
0.0
 10
4.0180611851
 20
4.8516157608
 30
0.0
  0
SPLINE
  5
39B
100
AcDbEntity
  8
0
100
AcDbSpline
 62
7
  6
CONTINUOUS
 70
0
 71
3
 72
30
 73
26
 74
0
 42
0.0000001
 43
0.0000001
 44
0.0000000001
 40
0.0
 40
0.0
 40
0.0
 40
0.0
 40
0.0019022053
 40
0.0043446701
 40
0.0073297942
 40
0.010858268
 40
0.0149295476
 40
0.0195417892
 40
0.0303801545
 40
0.0433534689
 40
0.0584336936
 40
0.0755889777
 40
0.0947822023
 40
0.1159709168
 40
0.139109667
 40
0.1910273927
 40
0.250078859
 40
0.3157441446
 40
0.3874446298
 40
0.4645481169
 40
0.5463748055
 40
0.6322025234
 40
0.7212755231
 40
0.8128046809
 40
1.0
 40
1.0
 40
1.0
 40
1.0
 10
4.626499503
 20
4.908184872
 30
0.0
 10
4.6263066496
 20
4.9081348945
 30
0.0
 10
4.625861123
 20
4.9080405663
 30
0.0
 10
4.6251037803
 20
4.9079145923
 30
0.0
 10
4.6241742655
 20
4.9077878524
 30
0.0
 10
4.6230729688
 20
4.9076605262
 30
0.0
 10
4.6218003153
 20
4.9075328544
 30
0.0
 10
4.6197636671
 20
4.9073524464
 30
0.0
 10
4.6167947992
 20
4.9071317538
 30
0.0
 10
4.6127294079
 20
4.9068776481
 30
0.0
 10
4.6080013627
 20
4.9066227435
 30
0.0
 10
4.6026211056
 20
4.9063672085
 30
0.0
 10
4.5966004653
 20
4.9061112834
 30
0.0
 10
4.5899526637
 20
4.905855027
 30
0.0
 10
4.5798788627
 20
4.9054992831
 30
0.0
 10
4.5658401006
 20
4.9050608088
 30
0.0
 10
4.5473476029
 20
4.9045511613
 30
0.0
 10
4.5267825152
 20
4.9040405519
 30
0.0
 10
4.5043262741
 20
4.9035291858
 30
0.0
 10
4.480177004
 20
4.9030173138
 30
0.0
 10
4.454547841
 20
4.9025050685
 30
0.0
 10
4.4276648409
 20
4.9019925544
 30
0.0
 10
4.399765497
 20
4.9014798489
 30
0.0
 10
4.3612510511
 20
4.9007909285
 30
0.0
 10
4.3320637706
 20
4.9002826023
 30
0.0
 10
4.3124611801
 20
4.8999411287
 30
0.0
  0
SPLINE
  5
39C
100
AcDbEntity
  8
0
100
AcDbSpline
 62
7
  6
CONTINUOUS
 70
0
 71
3
 72
22
 73
18
 74
0
 42
0.0000001
 43
0.0000001
 44
0.0000000001
 40
0.0
 40
0.0
 40
0.0
 40
0.0
 40
0.1643410082
 40
0.2419615004
 40
0.3164745658
 40
0.3878636073
 40
0.4561423181
 40
0.5213536247
 40
0.5835829204
 40
0.6429543764
 40
0.6996413794
 40
0.7538708999
 40
0.8059236916
 40
0.8561423062
 40
0.9049232932
 40
0.9527141853
 40
1.0
 40
1.0
 40
1.0
 40
1.0
 10
4.1599384493
 20
2.4230566893
 30
0.0
 10
4.1552834864
 20
2.4250651164
 30
0.0
 10
4.1485248225
 20
2.4282556593
 30
0.0
 10
4.1399693418
 20
2.4329634695
 30
0.0
 10
4.1340783724
 20
2.4365521708
 30
0.0
 10
4.1286046161
 20
2.4402575628
 30
0.0
 10
4.1235603807
 20
2.4440709617
 30
0.0
 10
4.1189578186
 20
2.4479843323
 30
0.0
 10
4.114807272
 20
2.4519884152
 30
0.0
 10
4.1111187531
 20
2.4560746989
 30
0.0
 10
4.107901275
 20
2.4602342729
 30
0.0
 10
4.1051624408
 20
2.4644577262
 30
0.0
 10
4.1029102651
 20
2.4687362372
 30
0.0
 10
4.1011504811
 20
2.4730595811
 30
0.0
 10
4.099889073
 20
2.4774179487
 30
0.0
 10
4.0991304924
 20
2.4817994994
 30
0.0
 10
4.0989611801
 20
2.4847352375
 30
0.0
 10
4.0989611801
 20
2.4861939586
 30
0.0
  0
LINE
  5
39D
100
AcDbEntity
  8
0
100
AcDbLine
 62
7
  6
CONTINUOUS
 10
4.6061006906
 20
4.9028966003
 11
4.6056909808
 21
4.9028017686
  0
SPLINE
  5
39E
100
AcDbEntity
  8
0
100
AcDbSpline
 62
7
  6
CONTINUOUS
 70
0
 71
3
 72
62
 73
58
 74
0
 42
0.0000001
 43
0.0000001
 44
0.0000000001
 40
0.0
 40
0.0
 40
0.0
 40
0.0
 40
0.0012253258
 40
0.0027295398
 40
0.0045131333
 40
0.0065760177
 40
0.0115358961
 40
0.0175998141
 40
0.0247557781
 40
0.0329875213
 40
0.0422774163
 40
0.0526042389
 40
0.0639448983
 40
0.0762739191
 40
0.1037825413
 40
0.1348808695
 40
0.1692867541
 40
0.2066877756
 40
0.2467443253
 40
0.2890923238
 40
0.3333470036
 40
0.3791061516
 40
0.4259539119
 40
0.4734645715
 40
0.5212062815
 40
0.5687451333
 40
0.6156490495
 40
0.6614917134
 40
0.7058565637
 40
0.7483404315
 40
0.788557247
 40
0.8261416457
 40
0.8607520748
 40
0.8920743658
 40
0.9064124833
 40
0.9198242897
 40
0.9322798518
 40
0.9437503803
 40
0.954210592
 40
0.9636363838
 40
0.972006935
 40
0.9793036519
 40
0.9855103276
 40
0.9906144946
 40
0.9927497225
 40
0.9946059792
 40
0.9961829855
 40
0.9974808754
 40
0.9980254539
 40
0.9985007723
 40
0.9989073664
 40
0.9992461707
 40
0.9995188348
 40
0.9997285943
 40
0.9998120655
 40
0.9998832629
 40
1.0
 40
1.0
 40
1.0
 40
1.0
 10
4.6056909808
 20
4.9028017686
 30
0.0
 10
4.6054558657
 20
4.9027526116
 30
0.0
 10
4.6049290412
 20
4.9026579487
 30
0.0
 10
4.6040536715
 20
4.9025293031
 30
0.0
 10
4.6030126956
 20
4.9024001056
 30
0.0
 10
4.601296206
 20
4.9022158491
 30
0.0
 10
4.5987404444
 20
4.9019917189
 30
0.0
 10
4.5951859239
 20
4.9017344273
 30
0.0
 10
4.5909886596
 20
4.9014761947
 30
0.0
 10
4.5861580524
 20
4.9012170949
 30
0.0
 10
4.5807051035
 20
4.9009575357
 30
0.0
 10
4.5746421228
 20
4.9006975966
 30
0.0
 10
4.5679829029
 20
4.9004373848
 30
0.0
 10
4.5579569555
 20
4.9000768827
 30
0.0
 10
4.5440585348
 20
4.8996321566
 30
0.0
 10
4.5258326764
 20
4.8991145907
 30
0.0
 10
4.5056669461
 20
4.8985961261
 30
0.0
 10
4.483744639
 20
4.8980769545
 30
0.0
 10
4.4602650566
 20
4.8975573083
 30
0.0
 10
4.4354416598
 20
4.8970373119
 30
0.0
 10
4.4095001624
 20
4.8965170664
 30
0.0
 10
4.3826764158
 20
4.8959966446
 30
0.0
 10
4.3552142896
 20
4.895476106
 30
0.0
 10
4.3273634572
 20
4.8949555
 30
0.0
 10
4.2993771281
 20
4.8944348714
 30
0.0
 10
4.2715097583
 20
4.8939142628
 30
0.0
 10
4.2440147201
 20
4.8933937183
 30
0.0
 10
4.2171419883
 20
4.8928732875
 30
0.0
 10
4.191135876
 20
4.8923530278
 30
0.0
 10
4.1662328146
 20
4.8918330138
 30
0.0
 10
4.1426592123
 20
4.8913133361
 30
0.0
 10
4.1206294145
 20
4.8907941454
 30
0.0
 10
4.1003437046
 20
4.8902755744
 30
0.0
 10
4.084614539
 20
4.8898321889
 30
0.0
 10
4.0730402271
 20
4.8894739691
 30
0.0
 10
4.0651631016
 20
4.8892133882
 30
0.0
 10
4.0578484284
 20
4.8889529821
 30
0.0
 10
4.0511127407
 20
4.8886927428
 30
0.0
 10
4.044971445
 20
4.8884327762
 30
0.0
 10
4.0394384134
 20
4.8881731468
 30
0.0
 10
4.0345262541
 20
4.8879139866
 30
0.0
 10
4.0302460623
 20
4.8876556224
 30
0.0
 10
4.026607482
 20
4.8873981514
 30
0.0
 10
4.0239810217
 20
4.8871740616
 30
0.0
 10
4.0222074834
 20
4.886990071
 30
0.0
 10
4.0211235203
 20
4.8868607718
 30
0.0
 10
4.0202050051
 20
4.8867319336
 30
0.0
 10
4.0195439573
 20
4.8866197557
 30
0.0
 10
4.0190989596
 20
4.8865277946
 30
0.0
 10
4.0188268646
 20
4.8864630513
 30
0.0
 10
4.0185963719
 20
4.886398494
 30
0.0
 10
4.0184072456
 20
4.8863342214
 30
0.0
 10
4.0182593813
 20
4.8862701935
 30
0.0
 10
4.0181632154
 20
4.8862135769
 30
0.0
 10
4.0181091821
 20
4.886166355
 30
0.0
 10
4.0180750937
 20
4.8861255172
 30
0.0
 10
4.0180612749
 20
4.8860886448
 30
0.0
 10
4.0180612626
 20
4.8860657609
 30
0.0
  0
SPLINE
  5
39F
100
AcDbEntity
  8
0
100
AcDbSpline
 62
7
  6
CONTINUOUS
 70
0
 71
3
 72
23
 73
19
 74
0
 42
0.0000001
 43
0.0000001
 44
0.0000000001
 40
0.0
 40
0.0
 40
0.0
 40
0.0
 40
0.1517232674
 40
0.2263387982
 40
0.2997211529
 40
0.3715800547
 40
0.4416275573
 40
0.5095916829
 40
0.5752193454
 40
0.6382809644
 40
0.6985809009
 40
0.7559706552
 40
0.8103648321
 40
0.861764767
 40
0.9102883652
 40
0.9562051717
 40
0.9783334883
 40
1.0
 40
1.0
 40
1.0
 40
1.0
 10
4.2986465291
 20
3.5797282609
 30
0.0
 10
4.2897873004
 20
3.5712135983
 30
0.0
 10
4.2766076476
 20
3.5584727972
 30
0.0
 10
4.2593871256
 20
3.5413649232
 30
0.0
 10
4.2469123122
 20
3.5286591174
 30
0.0
 10
4.2348983702
 20
3.5160219557
 30
0.0
 10
4.223437782
 20
3.5034683201
 30
0.0
 10
4.2126233249
 20
3.49101417
 30
0.0
 10
4.2025478688
 20
3.4786761228
 30
0.0
 10
4.1933044826
 20
3.4664716776
 30
0.0
 10
4.1849861059
 20
3.4544194441
 30
0.0
 10
4.1776856623
 20
3.4425387796
 30
0.0
 10
4.1714957378
 20
3.4308501431
 30
0.0
 10
4.1665086181
 20
3.4193741307
 30
0.0
 10
4.1628172856
 20
3.4081345538
 30
0.0
 10
4.1608759714
 20
3.3988693475
 30
0.0
 10
4.1600947486
 20
3.3916412672
 30
0.0
 10
4.1599611842
 20
3.3880931975
 30
0.0
 10
4.159961207
 20
3.3863384917
 30
0.0
  0
SPLINE
  5
3A0
100
AcDbEntity
  8
0
100
AcDbSpline
 62
7
  6
CONTINUOUS
 70
0
 71
3
 72
11
 73
7
 74
0
 42
0.0000001
 43
0.0000001
 44
0.0000000001
 40
0.0
 40
0.0
 40
0.0
 40
0.0
 40
0.2756819972
 40
0.5344203071
 40
0.7758571359
 40
1.0
 40
1.0
 40
1.0
 40
1.0
 10
4.1599547124
 20
3.3486312631
 30
0.0
 10
4.1560473725
 20
3.3503167231
 30
0.0
 10
4.1485631447
 20
3.3538004203
 30
0.0
 10
4.1380539609
 20
3.3595636375
 30
0.0
 10
4.1286731345
 20
3.3656670324
 30
0.0
 10
4.1230024546
 20
3.3701025894
 30
0.0
 10
4.1203930266
 20
3.3723744161
 30
0.0
  0
SPLINE
  5
3A1
100
AcDbEntity
  8
0
100
AcDbSpline
 62
7
  6
CONTINUOUS
 70
0
 71
3
 72
50
 73
46
 74
0
 42
0.0000001
 43
0.0000001
 44
0.0000000001
 40
0.0
 40
0.0
 40
0.0
 40
0.0
 40
0.0009936717
 40
0.0022504922
 40
0.0037715943
 40
0.0055573136
 40
0.0076074071
 40
0.0099209934
 40
0.0153342766
 40
0.0217876215
 40
0.0292676513
 40
0.0377588515
 40
0.0472436382
 40
0.057701345
 40
0.0691103146
 40
0.0946812287
 40
0.1237376612
 40
0.1560305801
 40
0.1912829944
 40
0.2291922385
 40
0.2694328825
 40
0.3116594601
 40
0.3555093885
 40
0.400606147
 40
0.4929835076
 40
0.5856248923
 40
0.6753547202
 40
0.7181597167
 40
0.7590971115
 40
0.797815388
 40
0.8339821811
 40
0.8672871104
 40
0.897444281
 40
0.9241951329
 40
0.9473105845
 40
0.9574422737
 40
0.9665934114
 40
0.9747451869
 40
0.9818798205
 40
0.9879832042
 40
0.9930433048
 40
0.9951789993
 40
0.9970506805
 40
0.9986577693
 40
1.0
 40
1.0
 40
1.0
 40
1.0
 10
4.6061007211
 20
5.1784966002
 30
0.0
 10
4.6059125749
 20
5.1784478235
 30
0.0
 10
4.6054819285
 20
5.1783550633
 30
0.0
 10
4.6047546993
 20
5.1782305041
 30
0.0
 10
4.6038707531
 20
5.1781052724
 30
0.0
 10
4.6028304454
 20
5.1779795369
 30
0.0
 10
4.6016341826
 20
5.1778534912
 30
0.0
 10
4.5997300201
 20
5.1776756904
 30
0.0
 10
4.5969647429
 20
5.1774579634
 30
0.0
 10
4.5931887315
 20
5.177207103
 30
0.0
 10
4.5888095707
 20
5.1769555004
 30
0.0
 10
4.5838366378
 20
5.1767032959
 30
0.0
 10
4.5782806123
 20
5.1764507334
 30
0.0
 10
4.5721533447
 20
5.1761978468
 30
0.0
 10
4.5628809885
 20
5.1758469341
 30
0.0
 10
4.549971216
 20
5.1754142951
 30
0.0
 10
4.5329766841
 20
5.174911324
 30
0.0
 10
4.5140876969
 20
5.1744074245
 30
0.0
 10
4.4934665276
 20
5.173902793
 30
0.0
 10
4.4712903343
 20
5.1733976696
 30
0.0
 10
4.4477496448
 20
5.172892182
 30
0.0
 10
4.4230466861
 20
5.1723864337
 30
0.0
 10
4.3973936658
 20
5.1718804907
 30
0.0
 10
4.3619324894
 20
5.1712003017
 30
0.0
 10
4.3169288136
 20
5.1703610334
 30
0.0
 10
4.263196206
 20
5.1693615685
 30
0.0
 10
4.2191589422
 20
5.168516991
 30
0.0
 10
4.1852340082
 20
5.1678317895
 30
0.0
 10
4.1612855511
 20
5.1673261959
 30
0.0
 10
4.1386358487
 20
5.1668209394
 30
0.0
 10
4.1174794692
 20
5.1663161321
 30
0.0
 10
4.0979981725
 20
5.1658119391
 30
0.0
 10
4.0803593116
 20
5.1653086907
 30
0.0
 10
4.0647144226
 20
5.1648066316
 30
0.0
 10
4.0529865019
 20
5.1643732042
 30
0.0
 10
4.0447007146
 20
5.1640204739
 30
0.0
 10
4.0393403183
 20
5.1637679801
 30
0.0
 10
4.0345668557
 20
5.1635159639
 30
0.0
 10
4.0303904282
 20
5.1632646182
 30
0.0
 10
4.0268199624
 20
5.1630141067
 30
0.0
 10
4.0242275641
 20
5.1627962778
 30
0.0
 10
4.0224628891
 20
5.1626178223
 30
0.0
 10
4.0213718614
 20
5.1624919579
 30
0.0
 10
4.0204371792
 20
5.1623665274
 30
0.0
 10
4.019867426
 20
5.1622752352
 30
0.0
 10
4.0196091168
 20
5.1622282609
 30
0.0
  0
SPLINE
  5
3A2
100
AcDbEntity
  8
0
100
AcDbSpline
 62
7
  6
CONTINUOUS
 70
0
 71
3
 72
63
 73
59
 74
0
 42
0.0000001
 43
0.0000001
 44
0.0000000001
 40
0.0
 40
0.0
 40
0.0
 40
0.0
 40
0.0001173814
 40
0.0001890984
 40
0.0002732599
 40
0.0004849467
 40
0.0007602819
 40
0.0011024973
 40
0.001513233
 40
0.0019934143
 40
0.0025436028
 40
0.0038550559
 40
0.0054486779
 40
0.0073245055
 40
0.0094821618
 40
0.0146399067
 40
0.0209117143
 40
0.0282844783
 40
0.0367420092
 40
0.0462649213
 40
0.0568321999
 40
0.0684191083
 40
0.0809997795
 40
0.0945449609
 40
0.1090238071
 40
0.1406474074
 40
0.1755803996
 40
0.2135019774
 40
0.2540636482
 40
0.2968927373
 40
0.3415956058
 40
0.3877614164
 40
0.4349659145
 40
0.4827751058
 40
0.5307496382
 40
0.5784483909
 40
0.6254330172
 40
0.671271643
 40
0.7155429367
 40
0.7578400777
 40
0.7977742377
 40
0.8349785117
 40
0.8691111194
 40
0.8998586836
 40
0.9269391114
 40
0.9390253211
 40
0.9501042915
 40
0.9601509866
 40
0.9691425965
 40
0.9770584921
 40
0.9838815593
 40
0.9895962546
 40
0.9920344645
 40
0.9941916917
 40
0.9960669332
 40
0.997659684
 40
0.9989702896
 40
1.0
 40
1.0
 40
1.0
 40
1.0
 10
4.6068611382
 20
4.9244907608
 30
0.0
 10
4.6068611248
 20
4.9244677342
 30
0.0
 10
4.6068471115
 20
4.924430619
 30
0.0
 10
4.6068126408
 20
4.9243895829
 30
0.0
 10
4.6067579617
 20
4.9243420817
 30
0.0
 10
4.6066606805
 20
4.9242851547
 30
0.0
 10
4.6065111334
 20
4.924220771
 30
0.0
 10
4.60631986
 20
4.9241561395
 30
0.0
 10
4.6060867626
 20
4.9240912185
 30
0.0
 10
4.6058116028
 20
4.9240261071
 30
0.0
 10
4.6053615678
 20
4.9239336188
 30
0.0
 10
4.60469302
 20
4.9238208093
 30
0.0
 10
4.6037640824
 20
4.9236912447
 30
0.0
 10
4.6026678405
 20
4.9235612161
 30
0.0
 10
4.6008742792
 20
4.9233761795
 30
0.0
 10
4.5982182482
 20
4.9231508202
 30
0.0
 10
4.5945388551
 20
4.9228919021
 30
0.0
 10
4.5902108415
 20
4.9226320644
 30
0.0
 10
4.5852441332
 20
4.9223714465
 30
0.0
 10
4.5796500251
 20
4.9221103401
 30
0.0
 10
4.5734414507
 20
4.9218489054
 30
0.0
 10
4.5666325694
 20
4.9215871929
 30
0.0
 10
4.5592391285
 20
4.9213253101
 30
0.0
 10
4.5512780568
 20
4.9210632573
 30
0.0
 10
4.5395825904
 20
4.9207030306
 30
0.0
 10
4.5236921876
 20
4.920257171
 30
0.0
 10
4.5032034472
 20
4.9197356731
 30
0.0
 10
4.4809608311
 20
4.9192135532
 30
0.0
 10
4.4571688636
 20
4.9186909444
 30
0.0
 10
4.4320463237
 20
4.9181679988
 30
0.0
 10
4.4058242048
 20
4.9176448076
 30
0.0
 10
4.3787436061
 20
4.9171214461
 30
0.0
 10
4.3510535351
 20
4.9165979729
 30
0.0
 10
4.3230085883
 20
4.9160744379
 30
0.0
 10
4.2948666677
 20
4.9155508864
 30
0.0
 10
4.2668865286
 20
4.9150273623
 30
0.0
 10
4.2393254603
 20
4.914503912
 30
0.0
 10
4.2124368737
 20
4.9139805873
 30
0.0
 10
4.1864680008
 20
4.9134574502
 30
0.0
 10
4.1616576386
 20
4.9129345786
 30
0.0
 10
4.13823392
 20
4.9124120798
 30
0.0
 10
4.11641224
 20
4.9118900878
 30
0.0
 10
4.0963932167
 20
4.9113688561
 30
0.0
 10
4.0783608902
 20
4.9108485909
 30
0.0
 10
4.0646531474
 20
4.9104011361
 30
0.0
 10
4.0548031968
 20
4.9100381493
 30
0.0
 10
4.0482933016
 20
4.9097765485
 30
0.0
 10
4.0423909904
 20
4.909515266
 30
0.0
 10
4.0371098284
 20
4.9092543886
 30
0.0
 10
4.0324618625
 20
4.9089941195
 30
0.0
 10
4.0284578366
 20
4.9087346563
 30
0.0
 10
4.0255285317
 20
4.9085094001
 30
0.0
 10
4.023514361
 20
4.9083253654
 30
0.0
 10
4.0222516884
 20
4.908194991
 30
0.0
 10
4.0211558369
 20
4.9080649616
 30
0.0
 10
4.020227295
 20
4.9079354765
 30
0.0
 10
4.0194664866
 20
4.9078067218
 30
0.0
 10
4.0190172045
 20
4.9077106135
 30
0.0
 10
4.0188216715
 20
4.9076599215
 30
0.0
  0
SPLINE
  5
3A3
100
AcDbEntity
  8
0
100
AcDbSpline
 62
7
  6
CONTINUOUS
 70
0
 71
3
 72
63
 73
59
 74
0
 42
0.0000001
 43
0.0000001
 44
0.0000000001
 40
0.0
 40
0.0
 40
0.0
 40
0.0
 40
0.0001173463
 40
0.000189041
 40
0.0002731933
 40
0.0004849102
 40
0.000760325
 40
0.0011026398
 40
0.0015134621
 40
0.0019936832
 40
0.0025438324
 40
0.003855051
 40
0.0054486069
 40
0.0073246043
 40
0.0094824139
 40
0.0146398407
 40
0.0209118927
 40
0.0282845585
 40
0.0367420522
 40
0.0462651234
 40
0.0568321454
 40
0.0684193607
 40
0.0809997502
 40
0.0945451275
 40
0.1090238648
 40
0.1406476041
 40
0.1755806131
 40
0.2135021166
 40
0.2540637381
 40
0.2968927539
 40
0.3415956553
 40
0.3877615113
 40
0.4349660093
 40
0.4827752224
 40
0.5307496843
 40
0.5784484642
 40
0.6254331224
 40
0.671271757
 40
0.7155430773
 40
0.7578400934
 40
0.7977742105
 40
0.8349784747
 40
0.8691111463
 40
0.899858838
 40
0.9269393059
 40
0.9390252364
 40
0.9501044526
 40
0.9601510136
 40
0.9691426053
 40
0.9770586283
 40
0.9838814376
 40
0.9895964709
 40
0.9920345415
 40
0.9941915875
 40
0.9960668638
 40
0.9976598476
 40
0.9989704754
 40
1.0
 40
1.0
 40
1.0
 40
1.0
 10
4.6068611452
 20
4.9589407609
 30
0.0
 10
4.6068611583
 20
4.9589177413
 30
0.0
 10
4.6068471859
 20
4.9588806181
 30
0.0
 10
4.6068127362
 20
4.9588395796
 30
0.0
 10
4.6067580599
 20
4.9587920748
 30
0.0
 10
4.6066607525
 20
4.9587351509
 30
0.0
 10
4.6065111598
 20
4.9586707711
 30
0.0
 10
4.6063198305
 20
4.9586061421
 30
0.0
 10
4.6060866869
 20
4.9585412224
 30
0.0
 10
4.6058115094
 20
4.958476112
 30
0.0
 10
4.6053615213
 20
4.9583836239
 30
0.0
 10
4.604693044
 20
4.958270797
 30
0.0
 10
4.6037641314
 20
4.9581412363
 30
0.0
 10
4.6026678374
 20
4.9580112179
 30
0.0
 10
4.6008742737
 20
4.9578261964
 30
0.0
 10
4.5982182303
 20
4.9576007982
 30
0.0
 10
4.594538868
 20
4.9573419154
 30
0.0
 10
4.5902108341
 20
4.9570820597
 30
0.0
 10
4.5852441206
 20
4.9568214432
 30
0.0
 10
4.5796500382
 20
4.9565603482
 30
0.0
 10
4.5734414231
 20
4.9562988951
 30
0.0
 10
4.5666325861
 20
4.9560372029
 30
0.0
 10
4.5592391021
 20
4.9557753015
 30
0.0
 10
4.5512780677
 20
4.9555132621
 30
0.0
 10
4.5395825566
 20
4.9551530257
 30
0.0
 10
4.5236921436
 20
4.9547071732
 30
0.0
 10
4.5032033862
 20
4.9541856729
 30
0.0
 10
4.4809607899
 20
4.9536635532
 30
0.0
 10
4.4571688597
 20
4.9531409439
 30
0.0
 10
4.4320463361
 20
4.9526179982
 30
0.0
 10
4.4058242149
 20
4.9520948072
 30
0.0
 10
4.3787435993
 20
4.951571446
 30
0.0
 10
4.3510535138
 20
4.9510479729
 30
0.0
 10
4.3230085751
 20
4.9505244377
 30
0.0
 10
4.2948666572
 20
4.950000886
 30
0.0
 10
4.2668865188
 20
4.9494773619
 30
0.0
 10
4.2393254358
 20
4.9489539118
 30
0.0
 10
4.2124368345
 20
4.9484305873
 30
0.0
 10
4.1864679779
 20
4.9479074505
 30
0.0
 10
4.1616576421
 20
4.9473845783
 30
0.0
 10
4.1382339571
 20
4.9468620791
 30
0.0
 10
4.1164122737
 20
4.9463400868
 30
0.0
 10
4.0963932137
 20
4.9458188563
 30
0.0
 10
4.0783608409
 20
4.945298588
 30
0.0
 10
4.0646531189
 20
4.9448511456
 30
0.0
 10
4.054803167
 20
4.9444881407
 30
0.0
 10
4.0482933038
 20
4.9442265544
 30
0.0
 10
4.0423909743
 20
4.9439652643
 30
0.0
 10
4.0371098172
 20
4.9437043827
 30
0.0
 10
4.032461879
 20
4.9434441328
 30
0.0
 10
4.0284578145
 20
4.9431846352
 30
0.0
 10
4.0255285184
 20
4.9429594142
 30
0.0
 10
4.0235143452
 20
4.9427753672
 30
0.0
 10
4.0222517297
 20
4.9426449843
 30
0.0
 10
4.0211558618
 20
4.9425149504
 30
0.0
 10
4.0202272598
 20
4.9423854843
 30
0.0
 10
4.0194664361
 20
4.9422567358
 30
0.0
 10
4.0190171889
 20
4.9421606158
 30
0.0
 10
4.0188216942
 20
4.9421099213
 30
0.0
  0
SPLINE
  5
3A4
100
AcDbEntity
  8
0
100
AcDbSpline
 62
7
  6
CONTINUOUS
 70
0
 71
3
 72
61
 73
57
 74
0
 42
0.0000001
 43
0.0000001
 44
0.0000000001
 40
0.0
 40
0.0
 40
0.0
 40
0.0
 40
0.0001162361
 40
0.0001870274
 40
0.0002699629
 40
0.0004782435
 40
0.0007488856
 40
0.0010851387
 40
0.0014886506
 40
0.0019602956
 40
0.0025005731
 40
0.0037880397
 40
0.0053523179
 40
0.0071936924
 40
0.0093119497
 40
0.0143751141
 40
0.0205321561
 40
0.0277708977
 40
0.0360750272
 40
0.0454268963
 40
0.0558052693
 40
0.0671871697
 40
0.0795471811
 40
0.0928572727
 40
0.1070880464
 40
0.1381804149
 40
0.1725446476
 40
0.209871513
 40
0.2498249053
 40
0.2920450315
 40
0.3361515363
 40
0.3817470902
 40
0.4284209773
 40
0.4757527174
 40
0.5233159004
 40
0.5706820603
 40
0.6174243625
 40
0.6631217976
 40
0.7073626378
 40
0.7497484154
 40
0.7898973792
 40
0.82744787
 40
0.8620618231
 40
0.8934275397
 40
0.9212629762
 40
0.9453180249
 40
0.9558593365
 40
0.9653772238
 40
0.973851099
 40
0.9812617144
 40
0.987593402
 40
0.9928331843
 40
0.9950401736
 40
0.9969706729
 40
0.998624048
 40
1.0
 40
1.0
 40
1.0
 40
1.0
 10
4.6068610656
 20
5.1656407609
 30
0.0
 10
4.6068610635
 20
5.1656179902
 30
0.0
 10
4.6068474102
 20
5.1655813039
 30
0.0
 10
4.6068136288
 20
5.1655406189
 30
0.0
 10
4.6067601036
 20
5.1654936118
 30
0.0
 10
4.6066647999
 20
5.1654372349
 30
0.0
 10
4.6065182227
 20
5.165373483
 30
0.0
 10
4.6063307236
 20
5.1653094904
 30
0.0
 10
4.6061022064
 20
5.1652452208
 30
0.0
 10
4.6058324585
 20
5.1651807621
 30
0.0
 10
4.6053913612
 20
5.1650892061
 30
0.0
 10
4.6047361307
 20
5.1649775157
 30
0.0
 10
4.6038256735
 20
5.1648492378
 30
0.0
 10
4.6027511575
 20
5.1647205051
 30
0.0
 10
4.6009930555
 20
5.1645373407
 30
0.0
 10
4.5983894013
 20
5.1643142126
 30
0.0
 10
4.5947823191
 20
5.1640578762
 30
0.0
 10
4.590539024
 20
5.163800653
 30
0.0
 10
4.5856689335
 20
5.1635426155
 30
0.0
 10
4.5801830496
 20
5.163284142
 30
0.0
 10
4.5740936506
 20
5.163025301
 30
0.0
 10
4.5674144839
 20
5.1627662151
 30
0.0
 10
4.5601606046
 20
5.1625069457
 30
0.0
 10
4.5523483067
 20
5.1622475087
 30
0.0
 10
4.5408675647
 20
5.161890844
 30
0.0
 10
4.5252629908
 20
5.1614493773
 30
0.0
 10
4.5051342741
 20
5.1609330751
 30
0.0
 10
4.4832691722
 20
5.1604161539
 30
0.0
 10
4.4598647115
 20
5.1598987482
 30
0.0
 10
4.4351318191
 20
5.159381007
 30
0.0
 10
4.4092934001
 20
5.1588630199
 30
0.0
 10
4.3825823225
 20
5.1583448608
 30
0.0
 10
4.3552393067
 20
5.1578265868
 30
0.0
 10
4.3275107651
 20
5.1573082466
 30
0.0
 10
4.2996465839
 20
5.1567898838
 30
0.0
 10
4.2718978934
 20
5.1562715405
 30
0.0
 10
4.2445147667
 20
5.1557532595
 30
0.0
 10
4.2177440007
 20
5.1552350891
 30
0.0
 10
4.1918268402
 20
5.1547170858
 30
0.0
 10
4.1669968473
 20
5.1541993206
 30
0.0
 10
4.1434777875
 20
5.1536818855
 30
0.0
 10
4.12148161
 20
5.1531649139
 30
0.0
 10
4.1012065684
 20
5.1526485726
 30
0.0
 10
4.0828353499
 20
5.1521332054
 30
0.0
 10
4.0665334968
 20
5.1516190686
 30
0.0
 10
4.0543110557
 20
5.1511752145
 30
0.0
 10
4.0456765901
 20
5.15081394
 30
0.0
 10
4.0400929103
 20
5.1505553553
 30
0.0
 10
4.0351232413
 20
5.150297261
 30
0.0
 10
4.0307786427
 20
5.1500398804
 30
0.0
 10
4.0270688424
 20
5.1497833645
 30
0.0
 10
4.0243787044
 20
5.1495602617
 30
0.0
 10
4.0225507759
 20
5.1493773838
 30
0.0
 10
4.0214236321
 20
5.1492485087
 30
0.0
 10
4.0204604665
 20
5.1491200969
 30
0.0
 10
4.0198743169
 20
5.1490264883
 30
0.0
 10
4.0196091168
 20
5.1489782609
 30
0.0
  0
SPLINE
  5
3A5
100
AcDbEntity
  8
0
100
AcDbSpline
 62
7
  6
CONTINUOUS
 70
0
 71
3
 72
63
 73
59
 74
0
 42
0.0000001
 43
0.0000001
 44
0.0000000001
 40
0.0
 40
0.0
 40
0.0
 40
0.0
 40
0.0001173574
 40
0.0001890451
 40
0.0002731716
 40
0.0004847909
 40
0.0007600928
 40
0.0011023417
 40
0.0015131802
 40
0.001993476
 40
0.0025437266
 40
0.0038550967
 40
0.0054485399
 40
0.0073243222
 40
0.0094821835
 40
0.0146398815
 40
0.0209115889
 40
0.0282845605
 40
0.0367418199
 40
0.0462650264
 40
0.0568320624
 40
0.0684191278
 40
0.0809997449
 40
0.094544847
 40
0.1090238581
 40
0.1406474726
 40
0.1755804014
 40
0.2135018752
 40
0.2540635039
 40
0.2968926402
 40
0.3415955316
 40
0.3877613916
 40
0.4349658495
 40
0.4827750269
 40
0.5307495479
 40
0.5784483122
 40
0.6254329755
 40
0.6712715549
 40
0.7155428156
 40
0.7578398843
 40
0.7977740448
 40
0.8349784008
 40
0.8691111012
 40
0.8998586806
 40
0.9269390407
 40
0.9390251944
 40
0.950104107
 40
0.9601509809
 40
0.9691423264
 40
0.9770585105
 40
0.9838812913
 40
0.9895961856
 40
0.9920344868
 40
0.9941915477
 40
0.9960666388
 40
0.9976594976
 40
0.9989702773
 40
1.0
 40
1.0
 40
1.0
 40
1.0
 10
4.6068610634
 20
4.9933907609
 30
0.0
 10
4.6068610626
 20
4.993367739
 30
0.0
 10
4.6068470814
 20
4.9933306238
 30
0.0
 10
4.6068126417
 20
4.9932895829
 30
0.0
 10
4.6067579991
 20
4.9932420789
 30
0.0
 10
4.6066607493
 20
4.9931851481
 30
0.0
 10
4.6065112165
 20
4.993120764
 30
0.0
 10
4.6063199206
 20
4.9930561347
 30
0.0
 10
4.6060867706
 20
4.9929912193
 30
0.0
 10
4.6058115537
 20
4.9929261114
 30
0.0
 10
4.605361499
 20
4.9928336283
 30
0.0
 10
4.6046929925
 20
4.9927208106
 30
0.0
 10
4.6037641165
 20
4.9925912384
 30
0.0
 10
4.6026678785
 20
4.9924612071
 30
0.0
 10
4.6008742922
 20
4.992276196
 30
0.0
 10
4.5982182516
 20
4.9920508166
 30
0.0
 10
4.5945388461
 20
4.9917918955
 30
0.0
 10
4.5902108634
 20
4.9915320759
 30
0.0
 10
4.5852441106
 20
4.9912714331
 30
0.0
 10
4.5796500439
 20
4.9910103519
 30
0.0
 10
4.5734414288
 20
4.990748897
 30
0.0
 10
4.5666325738
 20
4.9904871973
 30
0.0
 10
4.5592391277
 20
4.9902253097
 30
0.0
 10
4.5512780491
 20
4.9899632546
 30
0.0
 10
4.5395825617
 20
4.9896030341
 30
0.0
 10
4.5236921348
 20
4.9891571707
 30
0.0
 10
4.5032034224
 20
4.9886356735
 30
0.0
 10
4.4809608453
 20
4.9881135526
 30
0.0
 10
4.4571688949
 20
4.9875909439
 30
0.0
 10
4.4320463471
 20
4.9870679987
 30
0.0
 10
4.4058242022
 20
4.9865448077
 30
0.0
 10
4.3787435946
 20
4.9860214464
 30
0.0
 10
4.3510535219
 20
4.9854979729
 30
0.0
 10
4.3230085852
 20
4.9849744377
 30
0.0
 10
4.2948666646
 20
4.9844508862
 30
0.0
 10
4.2668865154
 20
4.9839273623
 30
0.0
 10
4.239325444
 20
4.9834039122
 30
0.0
 10
4.2124368631
 20
4.9828805874
 30
0.0
 10
4.1864680175
 20
4.9823574502
 30
0.0
 10
4.1616576735
 20
4.9818345782
 30
0.0
 10
4.1382339506
 20
4.9813120791
 30
0.0
 10
4.1164122341
 20
4.9807900876
 30
0.0
 10
4.0963931715
 20
4.9802688566
 30
0.0
 10
4.0783608353
 20
4.9797485921
 30
0.0
 10
4.0646531126
 20
4.9793011357
 30
0.0
 10
4.0548031965
 20
4.9789381505
 30
0.0
 10
4.0482932883
 20
4.9786765427
 30
0.0
 10
4.0423910039
 20
4.9784152769
 30
0.0
 10
4.0371098029
 20
4.9781543741
 30
0.0
 10
4.0324618863
 20
4.9778941352
 30
0.0
 10
4.0284578222
 20
4.9776346438
 30
0.0
 10
4.0255285157
 20
4.9774093975
 30
0.0
 10
4.0235143194
 20
4.9772253741
 30
0.0
 10
4.0222516917
 20
4.9770949923
 30
0.0
 10
4.0211558829
 20
4.9769649507
 30
0.0
 10
4.020227314
 20
4.9768354715
 30
0.0
 10
4.0194664456
 20
4.9767067269
 30
0.0
 10
4.0190171246
 20
4.976610622
 30
0.0
 10
4.0188215914
 20
4.9765599214
 30
0.0
  0
SPLINE
  5
3A6
100
AcDbEntity
  8
0
100
AcDbSpline
 62
7
  6
CONTINUOUS
 70
0
 71
3
 72
30
 73
26
 74
0
 42
0.0000001
 43
0.0000001
 44
0.0000000001
 40
0.0
 40
0.0
 40
0.0
 40
0.0
 40
0.0019021902
 40
0.0043447473
 40
0.0073299528
 40
0.01085838
 40
0.0149296116
 40
0.0195418922
 40
0.0303802895
 40
0.0433534604
 40
0.0584337759
 40
0.0755889474
 40
0.0947822435
 40
0.1159708998
 40
0.1391096279
 40
0.1910273118
 40
0.2500787802
 40
0.3157440523
 40
0.387444584
 40
0.4645480678
 40
0.5463747517
 40
0.6322024821
 40
0.721275457
 40
0.8128047108
 40
1.0
 40
1.0
 40
1.0
 40
1.0
 10
4.6264995636
 20
4.942634872
 30
0.0
 10
4.6263067127
 20
4.9425848908
 30
0.0
 10
4.6258611773
 20
4.9424905632
 30
0.0
 10
4.6251038171
 20
4.9423645931
 30
0.0
 10
4.6241742881
 20
4.942237857
 30
0.0
 10
4.6230729929
 20
4.9421105287
 30
0.0
 10
4.6218003451
 20
4.9419828564
 30
0.0
 10
4.6197636938
 20
4.9418024507
 30
0.0
 10
4.6167948331
 20
4.9415817581
 30
0.0
 10
4.6127294435
 20
4.9413276468
 30
0.0
 10
4.6080014143
 20
4.9410727485
 30
0.0
 10
4.6026211513
 20
4.9408172085
 30
0.0
 10
4.5966005201
 20
4.9405612869
 30
0.0
 10
4.5899527182
 20
4.9403050283
 30
0.0
 10
4.579878928
 20
4.9399492854
 30
0.0
 10
4.5658401698
 20
4.9395108104
 30
0.0
 10
4.5473476741
 20
4.9390011628
 30
0.0
 10
4.5267825788
 20
4.9384905533
 30
0.0
 10
4.5043263303
 20
4.9379791871
 30
0.0
 10
4.4801770516
 20
4.9374673148
 30
0.0
 10
4.4545478832
 20
4.9369550694
 30
0.0
 10
4.4276648798
 20
4.9364425551
 30
0.0
 10
4.3997655218
 20
4.9359298493
 30
0.0
 10
4.3612510642
 20
4.9352409287
 30
0.0
 10
4.3320637712
 20
4.9347326023
 30
0.0
 10
4.3124611801
 20
4.9343911287
 30
0.0
  0
LINE
  5
3A7
100
AcDbEntity
  8
0
100
AcDbLine
 62
7
  6
CONTINUOUS
 10
4.6061007324
 20
4.9373466004
 11
4.6056470328
 21
4.9372426334
  0
SPLINE
  5
3A8
100
AcDbEntity
  8
0
100
AcDbSpline
 62
7
  6
CONTINUOUS
 70
0
 71
3
 72
62
 73
58
 74
0
 42
0.0000001
 43
0.0000001
 44
0.0000000001
 40
0.0
 40
0.0
 40
0.0
 40
0.0
 40
0.0012441788
 40
0.002767175
 40
0.0045691594
 40
0.0066498317
 40
0.0116445647
 40
0.0177420355
 40
0.0249295348
 40
0.0331917706
 40
0.0425098711
 40
0.0528636591
 40
0.0642292106
 40
0.0765813463
 40
0.1041307425
 40
0.1352625148
 40
0.169694492
 40
0.2071143338
 40
0.2471824173
 40
0.2895351442
 40
0.3337880874
 40
0.3795395265
 40
0.4263742182
 40
0.4738668283
 40
0.5215862794
 40
0.5690992426
 40
0.6159744161
 40
0.6617862823
 40
0.706118871
 40
0.7485698032
 40
0.7887536262
 40
0.8263057286
 40
0.8608853962
 40
0.8921789924
 40
0.9065036981
 40
0.9199028912
 40
0.9323463185
 40
0.943806038
 40
0.9542557301
 40
0.9636725082
 40
0.9720346229
 40
0.9793240954
 40
0.985524693
 40
0.9906234804
 40
0.9927567711
 40
0.9946112933
 40
0.9961865817
 40
0.9974829989
 40
0.9980270138
 40
0.9985019219
 40
0.9989082358
 40
0.9992468301
 40
0.9995192969
 40
0.9997288546
 40
0.9998122349
 40
0.9998833553
 40
1.0
 40
1.0
 40
1.0
 40
1.0
 10
4.6056470328
 20
4.9372426334
 30
0.0
 10
4.605408138
 20
4.9371935941
 30
0.0
 10
4.6048738469
 20
4.937099067
 30
0.0
 10
4.6039874441
 20
4.9369704541
 30
0.0
 10
4.6029356913
 20
4.9368413004
 30
0.0
 10
4.6012053158
 20
4.9366572023
 30
0.0
 10
4.5986327837
 20
4.9364332101
 30
0.0
 10
4.5950588881
 20
4.9361760218
 30
0.0
 10
4.590843171
 20
4.9359178684
 30
0.0
 10
4.5859952133
 20
4.9356589191
 30
0.0
 10
4.5805258666
 20
4.9353994597
 30
0.0
 10
4.574447635
 20
4.9351396694
 30
0.0
 10
4.5677742121
 20
4.9348795829
 30
0.0
 10
4.5577316081
 20
4.9345193219
 30
0.0
 10
4.5438151521
 20
4.9340748562
 30
0.0
 10
4.5255710072
 20
4.9335575518
 30
0.0
 10
4.5053914448
 20
4.9330393551
 30
0.0
 10
4.4834597365
 20
4.932520456
 30
0.0
 10
4.4599750609
 20
4.9320010841
 30
0.0
 10
4.4351507041
 20
4.9314813645
 30
0.0
 10
4.4092121049
 20
4.9309613973
 30
0.0
 10
4.382394813
 20
4.9304412551
 30
0.0
 10
4.3549423882
 20
4.9299209972
 30
0.0
 10
4.3271041394
 20
4.9294006724
 30
0.0
 10
4.2991329176
 20
4.9288803251
 30
0.0
 10
4.2712827423
 20
4.928359998
 30
0.0
 10
4.2438065444
 20
4.9278397355
 30
0.0
 10
4.2169538548
 20
4.927319587
 30
0.0
 10
4.1909685408
 20
4.9267996099
 30
0.0
 10
4.166086624
 20
4.9262798786
 30
0.0
 10
4.1425340719
 20
4.9257604828
 30
0.0
 10
4.1205247806
 20
4.9252415734
 30
0.0
 10
4.1002586019
 20
4.9247232835
 30
0.0
 10
4.0845449187
 20
4.924280139
 30
0.0
 10
4.0729822153
 20
4.9239221091
 30
0.0
 10
4.0651131701
 20
4.9236616775
 30
0.0
 10
4.057806025
 20
4.9234013984
 30
0.0
 10
4.0510774096
 20
4.9231413218
 30
0.0
 10
4.0449425308
 20
4.9228814744
 30
0.0
 10
4.039415403
 20
4.9226220065
 30
0.0
 10
4.0345084595
 20
4.9223629765
 30
0.0
 10
4.03023286
 20
4.9221047482
 30
0.0
 10
4.0265982217
 20
4.9218474424
 30
0.0
 10
4.0239745911
 20
4.9216234379
 30
0.0
 10
4.0222029608
 20
4.9214395679
 30
0.0
 10
4.0211201358
 20
4.9213103494
 30
0.0
 10
4.0202026577
 20
4.9211815741
 30
0.0
 10
4.0195423993
 20
4.9210694486
 30
0.0
 10
4.0190979167
 20
4.9209775365
 30
0.0
 10
4.0188260881
 20
4.9209128282
 30
0.0
 10
4.0185957871
 20
4.9208483094
 30
0.0
 10
4.0184068056
 20
4.9207840772
 30
0.0
 10
4.0182590673
 20
4.9207200897
 30
0.0
 10
4.0181630049
 20
4.9206634998
 30
0.0
 10
4.0181090558
 20
4.9206163
 30
0.0
 10
4.0180750322
 20
4.9205754778
 30
0.0
 10
4.0180612698
 20
4.9205386248
 30
0.0
 10
4.0180612789
 20
4.9205157608
 30
0.0
  0
SPLINE
  5
3A9
100
AcDbEntity
  8
0
100
AcDbSpline
 62
7
  6
CONTINUOUS
 70
0
 71
3
 72
30
 73
26
 74
0
 42
0.0000001
 43
0.0000001
 44
0.0000000001
 40
0.0
 40
0.0
 40
0.0
 40
0.0
 40
0.0019021902
 40
0.0043447473
 40
0.0073299528
 40
0.01085838
 40
0.0149296116
 40
0.0195418922
 40
0.0303802895
 40
0.0433534604
 40
0.0584337759
 40
0.0755889474
 40
0.0947822435
 40
0.1159708998
 40
0.1391096279
 40
0.1910273118
 40
0.2500787802
 40
0.3157440523
 40
0.387444584
 40
0.4645480678
 40
0.5463747517
 40
0.6322024821
 40
0.721275457
 40
0.8128047108
 40
1.0
 40
1.0
 40
1.0
 40
1.0
 10
4.6264995636
 20
4.977084872
 30
0.0
 10
4.6263067127
 20
4.9770348908
 30
0.0
 10
4.6258611773
 20
4.9769405632
 30
0.0
 10
4.6251038171
 20
4.9768145931
 30
0.0
 10
4.6241742881
 20
4.976687857
 30
0.0
 10
4.6230729929
 20
4.9765605287
 30
0.0
 10
4.6218003451
 20
4.9764328564
 30
0.0
 10
4.6197636938
 20
4.9762524507
 30
0.0
 10
4.6167948331
 20
4.9760317581
 30
0.0
 10
4.6127294435
 20
4.9757776468
 30
0.0
 10
4.6080014143
 20
4.9755227485
 30
0.0
 10
4.6026211513
 20
4.9752672085
 30
0.0
 10
4.5966005201
 20
4.9750112869
 30
0.0
 10
4.5899527182
 20
4.9747550283
 30
0.0
 10
4.579878928
 20
4.9743992854
 30
0.0
 10
4.5658401698
 20
4.9739608104
 30
0.0
 10
4.5473476741
 20
4.9734511628
 30
0.0
 10
4.5267825788
 20
4.9729405533
 30
0.0
 10
4.5043263303
 20
4.9724291871
 30
0.0
 10
4.4801770516
 20
4.9719173148
 30
0.0
 10
4.4545478832
 20
4.9714050694
 30
0.0
 10
4.4276648798
 20
4.9708925551
 30
0.0
 10
4.3997655218
 20
4.9703798493
 30
0.0
 10
4.3612510642
 20
4.9696909287
 30
0.0
 10
4.3320637712
 20
4.9691826023
 30
0.0
 10
4.3124611801
 20
4.9688411287
 30
0.0
  0
SPLINE
  5
3AA
100
AcDbEntity
  8
0
100
AcDbSpline
 62
7
  6
CONTINUOUS
 70
0
 71
3
 72
63
 73
59
 74
0
 42
0.0000001
 43
0.0000001
 44
0.0000000001
 40
0.0
 40
0.0
 40
0.0
 40
0.0
 40
0.0010295306
 40
0.0023402558
 40
0.0039332393
 40
0.005808453
 40
0.0079654524
 40
0.0104035711
 40
0.0161186436
 40
0.0229413609
 40
0.0308575053
 40
0.0398489977
 40
0.0498956546
 40
0.060974794
 40
0.0730607254
 40
0.1001411831
 40
0.1308888473
 40
0.1650215752
 40
0.2022258594
 40
0.2421599755
 40
0.2844570223
 40
0.3287282651
 40
0.3745669387
 40
0.4215515685
 40
0.469250376
 40
0.5172248462
 40
0.5650340354
 40
0.6122385393
 40
0.6584043934
 40
0.7031073165
 40
0.745936358
 40
0.7864979559
 40
0.8244194357
 40
0.8593524213
 40
0.8909761169
 40
0.9054549559
 40
0.9190002857
 40
0.931580688
 40
0.9431679225
 40
0.9537348671
 40
0.9632580546
 40
0.9717154351
 40
0.9790881921
 40
0.9853601561
 40
0.9905176176
 40
0.9926754894
 40
0.9945514713
 40
0.9961449365
 40
0.9974561689
 40
0.9980063487
 40
0.998486603
 40
0.9988974513
 40
0.9992397756
 40
0.9995151747
 40
0.9997268473
 40
0.9998109771
 40
0.9998826585
 40
1.0
 40
1.0
 40
1.0
 40
1.0
 10
4.6061006976
 20
5.1440466004
 30
0.0
 10
4.6059052024
 20
5.1439959033
 30
0.0
 10
4.6054559345
 20
5.1438997813
 30
0.0
 10
4.6046950885
 20
5.1437710439
 30
0.0
 10
4.6037664806
 20
5.1436415726
 30
0.0
 10
4.6026706345
 20
5.1435115366
 30
0.0
 10
4.6014080312
 20
5.1433811512
 30
0.0
 10
4.5993938495
 20
5.14319711
 30
0.0
 10
4.5964645543
 20
5.1429718893
 30
0.0
 10
4.5924604767
 20
5.1427123835
 30
0.0
 10
4.5878125515
 20
5.1424521447
 30
0.0
 10
4.5825313717
 20
5.1421912525
 30
0.0
 10
4.5766290575
 20
5.1419299708
 30
0.0
 10
4.5701191904
 20
5.1416683793
 30
0.0
 10
4.5602692552
 20
5.1413053775
 30
0.0
 10
4.5465615402
 20
5.1408579328
 30
0.0
 10
4.5285291635
 20
5.1403376653
 30
0.0
 10
4.5085100935
 20
5.1398164351
 30
0.0
 10
4.486688395
 20
5.1392944426
 30
0.0
 10
4.4632646998
 20
5.1387719436
 30
0.0
 10
4.438454373
 20
5.1382490713
 30
0.0
 10
4.4124855174
 20
5.1377259342
 30
0.0
 10
4.3855969288
 20
5.1372026098
 30
0.0
 10
4.3580358378
 20
5.1366791596
 30
0.0
 10
4.3300556974
 20
5.1361556357
 30
0.0
 10
4.3019137767
 20
5.1356320839
 30
0.0
 10
4.2738688395
 20
5.1351085487
 30
0.0
 10
4.2461787573
 20
5.1345850754
 30
0.0
 10
4.2190981363
 20
5.1340617142
 30
0.0
 10
4.1928760057
 20
5.1335385235
 30
0.0
 10
4.167753477
 20
5.1330155777
 30
0.0
 10
4.1439615507
 20
5.1324929686
 30
0.0
 10
4.1217189679
 20
5.1319708484
 30
0.0
 10
4.1012302278
 20
5.131449349
 30
0.0
 10
4.0853398078
 20
5.1310034936
 30
0.0
 10
4.0736442944
 20
5.1306432611
 30
0.0
 10
4.0656832468
 20
5.1303812189
 30
0.0
 10
4.0582897657
 20
5.1301193181
 30
0.0
 10
4.0514809373
 20
5.1298576292
 30
0.0
 10
4.045272311
 20
5.1295961692
 30
0.0
 10
4.0396782427
 20
5.1293350835
 30
0.0
 10
4.0347115112
 20
5.1290744559
 30
0.0
 10
4.0303834981
 20
5.1288146113
 30
0.0
 10
4.0267041288
 20
5.1285557211
 30
0.0
 10
4.0240480838
 20
5.128330322
 30
0.0
 10
4.0222545035
 20
5.1281453055
 30
0.0
 10
4.0211582179
 20
5.1280152894
 30
0.0
 10
4.0202293248
 20
5.1278857192
 30
0.0
 10
4.0195608564
 20
5.1277728949
 30
0.0
 10
4.0191108524
 20
5.127680409
 30
0.0
 10
4.0188356566
 20
5.1276152993
 30
0.0
 10
4.0186024987
 20
5.1275503807
 30
0.0
 10
4.0184111648
 20
5.1274857528
 30
0.0
 10
4.0182615815
 20
5.1274213761
 30
0.0
 10
4.0181642933
 20
5.1273644492
 30
0.0
 10
4.0181096408
 20
5.127316941
 30
0.0
 10
4.0180752062
 20
5.1272758999
 30
0.0
 10
4.0180612421
 20
5.1272387795
 30
0.0
 10
4.0180612553
 20
5.1272157608
 30
0.0
  0
SPLINE
  5
3AB
100
AcDbEntity
  8
0
100
AcDbSpline
 62
7
  6
CONTINUOUS
 70
0
 71
3
 72
30
 73
26
 74
0
 42
0.0000001
 43
0.0000001
 44
0.0000000001
 40
0.0
 40
0.0
 40
0.0
 40
0.0
 40
0.0019021902
 40
0.0043447473
 40
0.0073299528
 40
0.01085838
 40
0.0149296116
 40
0.0195418922
 40
0.0303802895
 40
0.0433534604
 40
0.0584337759
 40
0.0755889474
 40
0.0947822435
 40
0.1159708998
 40
0.1391096279
 40
0.1910273118
 40
0.2500787802
 40
0.3157440523
 40
0.387444584
 40
0.4645480678
 40
0.5463747517
 40
0.6322024821
 40
0.721275457
 40
0.8128047108
 40
1.0
 40
1.0
 40
1.0
 40
1.0
 10
4.6264995636
 20
5.149334872
 30
0.0
 10
4.6263067127
 20
5.1492848908
 30
0.0
 10
4.6258611773
 20
5.1491905632
 30
0.0
 10
4.6251038171
 20
5.1490645931
 30
0.0
 10
4.6241742881
 20
5.148937857
 30
0.0
 10
4.6230729929
 20
5.1488105287
 30
0.0
 10
4.6218003451
 20
5.1486828564
 30
0.0
 10
4.6197636938
 20
5.1485024507
 30
0.0
 10
4.6167948331
 20
5.1482817581
 30
0.0
 10
4.6127294435
 20
5.1480276468
 30
0.0
 10
4.6080014143
 20
5.1477727485
 30
0.0
 10
4.6026211513
 20
5.1475172085
 30
0.0
 10
4.5966005201
 20
5.1472612869
 30
0.0
 10
4.5899527182
 20
5.1470050283
 30
0.0
 10
4.579878928
 20
5.1466492854
 30
0.0
 10
4.5658401698
 20
5.1462108104
 30
0.0
 10
4.5473476741
 20
5.1457011628
 30
0.0
 10
4.5267825788
 20
5.1451905533
 30
0.0
 10
4.5043263303
 20
5.1446791871
 30
0.0
 10
4.4801770516
 20
5.1441673148
 30
0.0
 10
4.4545478832
 20
5.1436550694
 30
0.0
 10
4.4276648798
 20
5.1431425551
 30
0.0
 10
4.3997655218
 20
5.1426298493
 30
0.0
 10
4.3612510642
 20
5.1419409287
 30
0.0
 10
4.3320637712
 20
5.1414326023
 30
0.0
 10
4.3124611801
 20
5.1410911287
 30
0.0
  0
SPLINE
  5
3AC
100
AcDbEntity
  8
0
100
AcDbSpline
 62
7
  6
CONTINUOUS
 70
0
 71
3
 72
63
 73
59
 74
0
 42
0.0000001
 43
0.0000001
 44
0.0000000001
 40
0.0
 40
0.0
 40
0.0
 40
0.0
 40
0.00102976
 40
0.0023404858
 40
0.0039332791
 40
0.0058083736
 40
0.0079655353
 40
0.0104038435
 40
0.0161186336
 40
0.0229415282
 40
0.0308576056
 40
0.0398490035
 40
0.0498958786
 40
0.0609747499
 40
0.0730609785
 40
0.1001413336
 40
0.1308889023
 40
0.1650215366
 40
0.2022258945
 40
0.2421600769
 40
0.2844571624
 40
0.3287284419
 40
0.3745670263
 40
0.4215516505
 40
0.4692504486
 40
0.5172249306
 40
0.5650341546
 40
0.6122385948
 40
0.658404431
 40
0.7031073438
 40
0.745936431
 40
0.7864981493
 40
0.8244196189
 40
0.8593525692
 40
0.8909761615
 40
0.9054551557
 40
0.9190002279
 40
0.9315809341
 40
0.9431678973
 40
0.9537350335
 40
0.9632581353
 40
0.9717154662
 40
0.9790884304
 40
0.9853601042
 40
0.9905178873
 40
0.9926756593
 40
0.9945514152
 40
0.9961449146
 40
0.9974563439
 40
0.9980066004
 40
0.9984868736
 40
0.9988976578
 40
0.9992398674
 40
0.9995151624
 40
0.9997267961
 40
0.9998109334
 40
0.9998826316
 40
1.0
 40
1.0
 40
1.0
 40
1.0
 10
4.6061007576
 20
5.1095966003
 30
0.0
 10
4.6059052158
 20
5.1095459039
 30
0.0
 10
4.6054558985
 20
5.1094497988
 30
0.0
 10
4.604695047
 20
5.1093210502
 30
0.0
 10
4.6037665015
 20
5.1091915685
 30
0.0
 10
4.6026706851
 20
5.1090615267
 30
0.0
 10
4.6014080348
 20
5.1089311521
 30
0.0
 10
4.5993938381
 20
5.108747126
 30
0.0
 10
4.596464529
 20
5.1085218715
 30
0.0
 10
4.5924604833
 20
5.1082623928
 30
0.0
 10
4.5878125558
 20
5.1080021436
 30
0.0
 10
4.582531365
 20
5.1077412473
 30
0.0
 10
4.5766290785
 20
5.1074799797
 30
0.0
 10
4.5701191637
 20
5.1072183694
 30
0.0
 10
4.5602692422
 20
5.1068553884
 30
0.0
 10
4.5465615084
 20
5.1064079296
 30
0.0
 10
4.5285291889
 20
5.1058876656
 30
0.0
 10
4.5085101418
 20
5.1053664338
 30
0.0
 10
4.4866884342
 20
5.1048444427
 30
0.0
 10
4.4632647042
 20
5.1043219436
 30
0.0
 10
4.4384543497
 20
5.1037990717
 30
0.0
 10
4.412485497
 20
5.1032759346
 30
0.0
 10
4.38559692
 20
5.1027526098
 30
0.0
 10
4.3580358496
 20
5.1022291595
 30
0.0
 10
4.33005571
 20
5.1017056357
 30
0.0
 10
4.3019137822
 20
5.1011820842
 30
0.0
 10
4.2738688485
 20
5.1006585491
 30
0.0
 10
4.2461787757
 20
5.1001350757
 30
0.0
 10
4.2190981729
 20
5.0996117142
 30
0.0
 10
4.192876039
 20
5.0990885233
 30
0.0
 10
4.1677534799
 20
5.0985655776
 30
0.0
 10
4.1439615232
 20
5.0980429695
 30
0.0
 10
4.1217189258
 20
5.0975208486
 30
0.0
 10
4.101230215
 20
5.0969993516
 30
0.0
 10
4.0853397921
 20
5.0965534875
 30
0.0
 10
4.0736443187
 20
5.0961932681
 30
0.0
 10
4.0656832322
 20
5.0959312101
 30
0.0
 10
4.0582897946
 20
5.0956693279
 30
0.0
 10
4.051480923
 20
5.0954076207
 30
0.0
 10
4.0452723287
 20
5.0951461742
 30
0.0
 10
4.0396782494
 20
5.0948850852
 30
0.0
 10
4.0347115045
 20
5.0946244472
 30
0.0
 10
4.0303835158
 20
5.0943646285
 30
0.0
 10
4.0267041025
 20
5.094105699
 30
0.0
 10
4.0240480681
 20
5.0938803339
 30
0.0
 10
4.0222544889
 20
5.0936953128
 30
0.0
 10
4.0211582629
 20
5.09356528
 30
0.0
 10
4.0202293691
 20
5.0934357102
 30
0.0
 10
4.0195608379
 20
5.0933228954
 30
0.0
 10
4.0191107747
 20
5.0932304122
 30
0.0
 10
4.0188355717
 20
5.0931653059
 30
0.0
 10
4.0186024462
 20
5.093100387
 30
0.0
 10
4.0184111721
 20
5.093035755
 30
0.0
 10
4.0182616463
 20
5.0929713708
 30
0.0
 10
4.0181643923
 20
5.0929144412
 30
0.0
 10
4.0181097394
 20
5.0928669386
 30
0.0
 10
4.0180752888
 20
5.0928258991
 30
0.0
 10
4.0180612942
 20
5.0927887849
 30
0.0
 10
4.0180612863
 20
5.0927657609
 30
0.0
  0
SPLINE
  5
3AD
100
AcDbEntity
  8
0
100
AcDbSpline
 62
7
  6
CONTINUOUS
 70
0
 71
3
 72
30
 73
26
 74
0
 42
0.0000001
 43
0.0000001
 44
0.0000000001
 40
0.0
 40
0.0
 40
0.0
 40
0.0
 40
0.0019021902
 40
0.0043447473
 40
0.0073299528
 40
0.01085838
 40
0.0149296116
 40
0.0195418922
 40
0.0303802895
 40
0.0433534604
 40
0.0584337759
 40
0.0755889474
 40
0.0947822435
 40
0.1159708998
 40
0.1391096279
 40
0.1910273118
 40
0.2500787802
 40
0.3157440523
 40
0.387444584
 40
0.4645480678
 40
0.5463747517
 40
0.6322024821
 40
0.721275457
 40
0.8128047108
 40
1.0
 40
1.0
 40
1.0
 40
1.0
 10
4.6264995636
 20
5.114884872
 30
0.0
 10
4.6263067127
 20
5.1148348908
 30
0.0
 10
4.6258611773
 20
5.1147405632
 30
0.0
 10
4.6251038171
 20
5.1146145931
 30
0.0
 10
4.6241742881
 20
5.114487857
 30
0.0
 10
4.6230729929
 20
5.1143605287
 30
0.0
 10
4.6218003451
 20
5.1142328564
 30
0.0
 10
4.6197636938
 20
5.1140524507
 30
0.0
 10
4.6167948331
 20
5.1138317581
 30
0.0
 10
4.6127294435
 20
5.1135776468
 30
0.0
 10
4.6080014143
 20
5.1133227485
 30
0.0
 10
4.6026211513
 20
5.1130672085
 30
0.0
 10
4.5966005201
 20
5.1128112869
 30
0.0
 10
4.5899527182
 20
5.1125550283
 30
0.0
 10
4.579878928
 20
5.1121992854
 30
0.0
 10
4.5658401698
 20
5.1117608104
 30
0.0
 10
4.5473476741
 20
5.1112511628
 30
0.0
 10
4.5267825788
 20
5.1107405533
 30
0.0
 10
4.5043263303
 20
5.1102291871
 30
0.0
 10
4.4801770516
 20
5.1097173148
 30
0.0
 10
4.4545478832
 20
5.1092050694
 30
0.0
 10
4.4276648798
 20
5.1086925551
 30
0.0
 10
4.3997655218
 20
5.1081798493
 30
0.0
 10
4.3612510642
 20
5.1074909287
 30
0.0
 10
4.3320637712
 20
5.1069826023
 30
0.0
 10
4.3124611801
 20
5.1066411287
 30
0.0
  0
SPLINE
  5
3AE
100
AcDbEntity
  8
0
100
AcDbSpline
 62
7
  6
CONTINUOUS
 70
0
 71
3
 72
63
 73
59
 74
0
 42
0.0000001
 43
0.0000001
 44
0.0000000001
 40
0.0
 40
0.0
 40
0.0
 40
0.0
 40
0.0001173818
 40
0.0001891014
 40
0.0002732674
 40
0.0004849671
 40
0.0007603165
 40
0.0011025428
 40
0.0015132815
 40
0.001993453
 40
0.0025436158
 40
0.0038550455
 40
0.005448688
 40
0.0073245447
 40
0.0094822028
 40
0.0146399024
 40
0.0209117669
 40
0.0282844704
 40
0.036742038
 40
0.0462649265
 40
0.0568322142
 40
0.0684191585
 40
0.0809997779
 40
0.0945450007
 40
0.1090237936
 40
0.1406474299
 40
0.1755804346
 40
0.2135020259
 40
0.2540636856
 40
0.2968927553
 40
0.3415956299
 40
0.3877614341
 40
0.4349659447
 40
0.4827751485
 40
0.5307496582
 40
0.5784484269
 40
0.6254330423
 40
0.6712716818
 40
0.7155430024
 40
0.7578401119
 40
0.7977742758
 40
0.8349785068
 40
0.8691111318
 40
0.8998587273
 40
0.9269391755
 40
0.9390253232
 40
0.9501043949
 40
0.9601510004
 40
0.9691426798
 40
0.9770585316
 40
0.9838815889
 40
0.989596343
 40
0.9920344954
 40
0.9941916944
 40
0.9960670007
 40
0.9976597893
 40
0.9989703479
 40
1.0
 40
1.0
 40
1.0
 40
1.0
 10
4.6068611532
 20
4.4077407608
 30
0.0
 10
4.6068611409
 20
4.4077177342
 30
0.0
 10
4.6068471261
 20
4.407680618
 30
0.0
 10
4.6068126524
 20
4.4076395827
 30
0.0
 10
4.6067579681
 20
4.4075920815
 30
0.0
 10
4.6066606795
 20
4.407535155
 30
0.0
 10
4.6065111242
 20
4.4074707716
 30
0.0
 10
4.6063198451
 20
4.4074061402
 30
0.0
 10
4.6060867468
 20
4.4073412192
 30
0.0
 10
4.6058115936
 20
4.407276108
 30
0.0
 10
4.605361571
 20
4.4071836166
 30
0.0
 10
4.6046930287
 20
4.4070708075
 30
0.0
 10
4.6037640858
 20
4.4069412447
 30
0.0
 10
4.6026678336
 20
4.4068112172
 30
0.0
 10
4.6008742753
 20
4.4066261806
 30
0.0
 10
4.5982182421
 20
4.4064008169
 30
0.0
 10
4.5945388582
 20
4.4061419056
 30
0.0
 10
4.5902108387
 20
4.4058820614
 30
0.0
 10
4.5852441396
 20
4.4056214483
 30
0.0
 10
4.5796500275
 20
4.4053603396
 30
0.0
 10
4.5734414491
 20
4.4050989051
 30
0.0
 10
4.5666325694
 20
4.4048371941
 30
0.0
 10
4.5592391238
 20
4.4045753086
 30
0.0
 10
4.5512780648
 20
4.4043132589
 30
0.0
 10
4.5395825942
 20
4.4039530291
 30
0.0
 10
4.5236921929
 20
4.4035071714
 30
0.0
 10
4.5032034411
 20
4.4029856732
 30
0.0
 10
4.4809608229
 20
4.4024635534
 30
0.0
 10
4.4571688597
 20
4.4019409444
 30
0.0
 10
4.4320463255
 20
4.4014179988
 30
0.0
 10
4.4058242115
 20
4.4008948076
 30
0.0
 10
4.3787436114
 20
4.4003714461
 30
0.0
 10
4.3510535379
 20
4.399847973
 30
0.0
 10
4.3230085917
 20
4.399324438
 30
0.0
 10
4.294866671
 20
4.3988008865
 30
0.0
 10
4.2668865364
 20
4.3982773624
 30
0.0
 10
4.2393254654
 20
4.3977539121
 30
0.0
 10
4.212436874
 20
4.3972305873
 30
0.0
 10
4.1864680004
 20
4.3967074505
 30
0.0
 10
4.1616576392
 20
4.3961845789
 30
0.0
 10
4.1382339354
 20
4.3956620799
 30
0.0
 10
4.1164122605
 20
4.3951400877
 30
0.0
 10
4.0963932368
 20
4.3946188563
 30
0.0
 10
4.0783608975
 20
4.3940985901
 30
0.0
 10
4.0646531571
 20
4.3936511393
 30
0.0
 10
4.0548031953
 20
4.3932881463
 30
0.0
 10
4.04829331
 20
4.3930265522
 30
0.0
 10
4.0423909835
 20
4.3927652627
 30
0.0
 10
4.0371098339
 20
4.3925043913
 30
0.0
 10
4.0324618652
 20
4.3922441196
 30
0.0
 10
4.0284578386
 20
4.3919846532
 30
0.0
 10
4.025528535
 20
4.3917594045
 30
0.0
 10
4.0235143701
 20
4.3915753652
 30
0.0
 10
4.022251702
 20
4.3914449875
 30
0.0
 10
4.0211558354
 20
4.3913149622
 30
0.0
 10
4.0202272819
 20
4.3911854808
 30
0.0
 10
4.0194664872
 20
4.3910567236
 30
0.0
 10
4.0190172268
 20
4.3909606129
 30
0.0
 10
4.0188217055
 20
4.3909099214
 30
0.0
  0
SPLINE
  5
3AF
100
AcDbEntity
  8
0
100
AcDbSpline
 62
7
  6
CONTINUOUS
 70
0
 71
3
 72
63
 73
59
 74
0
 42
0.0000001
 43
0.0000001
 44
0.0000000001
 40
0.0
 40
0.0
 40
0.0
 40
0.0
 40
0.0010296161
 40
0.0023401661
 40
0.0039330088
 40
0.0058083355
 40
0.0079655052
 40
0.0104036231
 40
0.0161184342
 40
0.0229414433
 40
0.0308572983
 40
0.039849005
 40
0.0498955666
 40
0.0609746956
 40
0.0730607668
 40
0.1001412497
 40
0.1308888577
 40
0.1650214859
 40
0.2022257346
 40
0.2421598383
 40
0.2844569648
 40
0.3287282659
 40
0.3745669282
 40
0.4215515523
 40
0.4692503121
 40
0.5172248217
 40
0.5650340189
 40
0.6122385395
 40
0.658404356
 40
0.7031072221
 40
0.7459362731
 40
0.7864979168
 40
0.824419477
 40
0.8593525222
 40
0.8909761849
 40
0.9054549101
 40
0.9190002305
 40
0.9315807547
 40
0.9431677736
 40
0.9537349968
 40
0.9632579073
 40
0.9717155281
 40
0.9790881485
 40
0.9853601113
 40
0.9905176866
 40
0.9926753793
 40
0.9945513031
 40
0.9961449675
 40
0.9974563111
 40
0.9980064439
 40
0.9984866158
 40
0.9988973753
 40
0.9992396325
 40
0.9995150131
 40
0.9997267344
 40
0.9998109051
 40
0.999882625
 40
1.0
 40
1.0
 40
1.0
 40
1.0
 10
4.6061006529
 20
5.0751466003
 30
0.0
 10
4.6059051389
 20
5.0750959085
 30
0.0
 10
4.6054558877
 20
5.0749997963
 30
0.0
 10
4.6046950912
 20
5.0748710381
 30
0.0
 10
4.6037665239
 20
5.074741562
 30
0.0
 10
4.6026706485
 20
5.074611536
 30
0.0
 10
4.601407989
 20
5.0744811568
 30
0.0
 10
4.5993938257
 20
5.0742971142
 30
0.0
 10
4.5964645264
 20
5.0740718724
 30
0.0
 10
4.5924604977
 20
5.0738124004
 30
0.0
 10
4.5878125321
 20
5.0735521308
 30
0.0
 10
4.5825313849
 20
5.0732912606
 30
0.0
 10
4.5766290502
 20
5.0730299676
 30
0.0
 10
4.5701191768
 20
5.0727683777
 30
0.0
 10
4.5602692117
 20
5.0724053803
 30
0.0
 10
4.5465614763
 20
5.0719579328
 30
0.0
 10
4.5285291264
 20
5.0714376654
 30
0.0
 10
4.5085100952
 20
5.0709164345
 30
0.0
 10
4.486688427
 20
5.0703944421
 30
0.0
 10
4.4632647271
 20
5.069871943
 30
0.0
 10
4.4384543772
 20
5.0693490714
 30
0.0
 10
4.4124854983
 20
5.0688259344
 30
0.0
 10
4.3855969034
 20
5.0683026099
 30
0.0
 10
4.3580358267
 20
5.0677791595
 30
0.0
 10
4.3300556909
 20
5.0672556354
 30
0.0
 10
4.301913772
 20
5.0667320838
 30
0.0
 10
4.2738688239
 20
5.0662085487
 30
0.0
 10
4.246178746
 20
5.0656850756
 30
0.0
 10
4.219098142
 20
5.0651617142
 30
0.0
 10
4.1928760297
 20
5.0646385231
 30
0.0
 10
4.1677535029
 20
5.0641155774
 30
0.0
 10
4.1439615515
 20
5.0635929683
 30
0.0
 10
4.1217189336
 20
5.0630708485
 30
0.0
 10
4.1012301738
 20
5.0625493493
 30
0.0
 10
4.0853397719
 20
5.0621034952
 30
0.0
 10
4.0736442898
 20
5.0617432606
 30
0.0
 10
4.0656832431
 20
5.0614812161
 30
0.0
 10
4.0582897823
 20
5.0612193245
 30
0.0
 10
4.0514809188
 20
5.0609576192
 30
0.0
 10
4.0452723339
 20
5.0606961812
 30
0.0
 10
4.0396782195
 20
5.060435072
 30
0.0
 10
4.0347115214
 20
5.0601744644
 30
0.0
 10
4.030383489
 20
5.0599146095
 30
0.0
 10
4.0267041252
 20
5.0596557133
 30
0.0
 10
4.0240480914
 20
5.0594303362
 30
0.0
 10
4.0222545372
 20
5.0592453031
 30
0.0
 10
4.0211582604
 20
5.0591152776
 30
0.0
 10
4.0202293159
 20
5.0589857204
 30
0.0
 10
4.0195607933
 20
5.0588729047
 30
0.0
 10
4.0191107943
 20
5.0587804117
 30
0.0
 10
4.0188356428
 20
5.0587153007
 30
0.0
 10
4.0186025339
 20
5.05865038
 30
0.0
 10
4.0184112373
 20
5.0585857493
 30
0.0
 10
4.018261664
 20
5.0585213667
 30
0.0
 10
4.0181643616
 20
5.0584644415
 30
0.0
 10
4.0181096706
 20
5.0584169398
 30
0.0
 10
4.0180751961
 20
5.0583759058
 30
0.0
 10
4.0180611861
 20
5.0583387862
 30
0.0
 10
4.018061182
 20
5.0583157609
 30
0.0
  0
SPLINE
  5
3B0
100
AcDbEntity
  8
0
100
AcDbSpline
 62
7
  6
CONTINUOUS
 70
0
 71
3
 72
30
 73
26
 74
0
 42
0.0000001
 43
0.0000001
 44
0.0000000001
 40
0.0
 40
0.0
 40
0.0
 40
0.0
 40
0.0019021902
 40
0.0043447473
 40
0.0073299528
 40
0.01085838
 40
0.0149296116
 40
0.0195418922
 40
0.0303802895
 40
0.0433534604
 40
0.0584337759
 40
0.0755889474
 40
0.0947822435
 40
0.1159708998
 40
0.1391096279
 40
0.1910273118
 40
0.2500787802
 40
0.3157440523
 40
0.387444584
 40
0.4645480678
 40
0.5463747517
 40
0.6322024821
 40
0.721275457
 40
0.8128047108
 40
1.0
 40
1.0
 40
1.0
 40
1.0
 10
4.6264995636
 20
5.080434872
 30
0.0
 10
4.6263067127
 20
5.0803848908
 30
0.0
 10
4.6258611773
 20
5.0802905632
 30
0.0
 10
4.6251038171
 20
5.0801645931
 30
0.0
 10
4.6241742881
 20
5.080037857
 30
0.0
 10
4.6230729929
 20
5.0799105287
 30
0.0
 10
4.6218003451
 20
5.0797828564
 30
0.0
 10
4.6197636938
 20
5.0796024507
 30
0.0
 10
4.6167948331
 20
5.0793817581
 30
0.0
 10
4.6127294435
 20
5.0791276468
 30
0.0
 10
4.6080014143
 20
5.0788727485
 30
0.0
 10
4.6026211513
 20
5.0786172085
 30
0.0
 10
4.5966005201
 20
5.0783612869
 30
0.0
 10
4.5899527182
 20
5.0781050283
 30
0.0
 10
4.579878928
 20
5.0777492854
 30
0.0
 10
4.5658401698
 20
5.0773108104
 30
0.0
 10
4.5473476741
 20
5.0768011628
 30
0.0
 10
4.5267825788
 20
5.0762905533
 30
0.0
 10
4.5043263303
 20
5.0757791871
 30
0.0
 10
4.4801770516
 20
5.0752673148
 30
0.0
 10
4.4545478832
 20
5.0747550694
 30
0.0
 10
4.4276648798
 20
5.0742425551
 30
0.0
 10
4.3997655218
 20
5.0737298493
 30
0.0
 10
4.3612510642
 20
5.0730409287
 30
0.0
 10
4.3320637712
 20
5.0725326023
 30
0.0
 10
4.3124611801
 20
5.0721911287
 30
0.0
  0
SPLINE
  5
3B1
100
AcDbEntity
  8
0
100
AcDbSpline
 62
7
  6
CONTINUOUS
 70
0
 71
3
 72
29
 73
25
 74
0
 42
0.0000001
 43
0.0000001
 44
0.0000000001
 40
0.0
 40
0.0
 40
0.0
 40
0.0
 40
0.0020874098
 40
0.0046882778
 40
0.0078046601
 40
0.011436842
 40
0.0202461937
 40
0.0311079942
 40
0.0440045691
 40
0.0589143327
 40
0.0758124163
 40
0.0946676267
 40
0.1154474367
 40
0.138114388
 40
0.1889423743
 40
0.2467854983
 40
0.3112265969
 40
0.3817995963
 40
0.45799383
 40
0.5392576883
 40
0.6250035466
 40
0.7146116083
 40
0.8074276191
 40
1.0
 40
1.0
 40
1.0
 40
1.0
 10
4.6061007138
 20
5.0406966004
 30
0.0
 10
4.6059298701
 20
5.0406522958
 30
0.0
 10
4.6055423985
 20
5.0405674374
 30
0.0
 10
4.6048924456
 20
5.0404528469
 30
0.0
 10
4.6041102731
 20
5.0403376927
 30
0.0
 10
4.6028051289
 20
5.0401728429
 30
0.0
 10
4.6008447336
 20
5.0399727291
 30
0.0
 10
4.5981005651
 20
5.0397433302
 30
0.0
 10
4.5948391428
 20
5.0395129758
 30
0.0
 10
4.5910663287
 20
5.0392818156
 30
0.0
 10
4.5867888974
 20
5.0390502158
 30
0.0
 10
4.582014518
 20
5.038818246
 30
0.0
 10
4.5767518621
 20
5.0385860306
 30
0.0
 10
4.5687872393
 20
5.0382637243
 30
0.0
 10
4.5576893904
 20
5.0378662413
 30
0.0
 10
4.5430596558
 20
5.037404235
 30
0.0
 10
4.5267597209
 20
5.0369413978
 30
0.0
 10
4.5089076165
 20
5.0364778967
 30
0.0
 10
4.4896326833
 20
5.0360139448
 30
0.0
 10
4.4690745155
 20
5.0355496531
 30
0.0
 10
4.4473819136
 20
5.0350851139
 30
0.0
 10
4.4247123439
 20
5.0346203901
 30
0.0
 10
4.3930118155
 20
5.0339928756
 30
0.0
 10
4.3688859829
 20
5.0335343085
 30
0.0
 10
4.3526064606
 20
5.0332282609
 30
0.0
  0
SPLINE
  5
3B2
100
AcDbEntity
  8
0
100
AcDbSpline
 62
7
  6
CONTINUOUS
 70
0
 71
3
 72
29
 73
25
 74
0
 42
0.0000001
 43
0.0000001
 44
0.0000000001
 40
0.0
 40
0.0
 40
0.0
 40
0.0
 40
0.0019769101
 40
0.0044705894
 40
0.0074834883
 40
0.0110165054
 40
0.0196405266
 40
0.0303314883
 40
0.0430737888
 40
0.0578454199
 40
0.074620124
 40
0.09336908
 40
0.114057338
 40
0.1366484748
 40
0.1873708919
 40
0.2451685063
 40
0.309620737
 40
0.380258078
 40
0.4565661679
 40
0.537989099
 40
0.6239334766
 40
0.7137739666
 40
0.8068507576
 40
1.0
 40
1.0
 40
1.0
 40
1.0
 10
4.6264995196
 20
5.045984872
 30
0.0
 10
4.6263264759
 20
5.0459400247
 30
0.0
 10
4.6259310591
 20
5.0458546195
 30
0.0
 10
4.6252641023
 20
5.0457398244
 30
0.0
 10
4.6244547959
 20
5.0456244005
 30
0.0
 10
4.6230930476
 20
5.0454587171
 30
0.0
 10
4.6210365653
 20
5.0452579755
 30
0.0
 10
4.618146885
 20
5.0450279218
 30
0.0
 10
4.6146998921
 20
5.0447969176
 30
0.0
 10
4.6107018076
 20
5.0445650517
 30
0.0
 10
4.6061598043
 20
5.0443326909
 30
0.0
 10
4.6010821942
 20
5.0440999898
 30
0.0
 10
4.5954781539
 20
5.0438669974
 30
0.0
 10
4.5869842547
 20
5.0435434815
 30
0.0
 10
4.5751352822
 20
5.043144594
 30
0.0
 10
4.5595012361
 20
5.0426810885
 30
0.0
 10
4.542065716
 20
5.0422167269
 30
0.0
 10
4.5229558837
 20
5.041751684
 30
0.0
 10
4.5023110819
 20
5.0412861816
 30
0.0
 10
4.4802818332
 20
5.0408203341
 30
0.0
 10
4.457028675
 20
5.0403542341
 30
0.0
 10
4.4327215277
 20
5.039887944
 30
0.0
 10
4.3987218182
 20
5.0392582725
 30
0.0
 10
4.3728441268
 20
5.0387981937
 30
0.0
 10
4.3553814486
 20
5.0384911287
 30
0.0
  0
LINE
  5
3B3
100
AcDbEntity
  8
0
100
AcDbLine
 62
7
  6
CONTINUOUS
 10
4.6061006495
 20
4.9717966003
 11
4.6056004609
 21
4.9716831822
  0
SPLINE
  5
3B4
100
AcDbEntity
  8
0
100
AcDbSpline
 62
7
  6
CONTINUOUS
 70
0
 71
3
 72
62
 73
58
 74
0
 42
0.0000001
 43
0.0000001
 44
0.0000000001
 40
0.0
 40
0.0
 40
0.0
 40
0.0
 40
0.0012634088
 40
0.0028054886
 40
0.0046265135
 40
0.006725927
 40
0.0117564569
 40
0.0178886128
 40
0.025109012
 40
0.03340231
 40
0.0427500903
 40
0.0531312273
 40
0.0645228874
 40
0.0768987587
 40
0.1044904708
 40
0.1356568821
 40
0.1701157001
 40
0.2075547595
 40
0.2476347757
 40
0.2899923869
 40
0.3342436544
 40
0.3799872267
 40
0.426808309
 40
0.4742823063
 40
0.5219786953
 40
0.5694649799
 40
0.6163105327
 40
0.6620904653
 40
0.7063896967
 40
0.748806486
 40
0.7889563379
 40
0.8264752906
 40
0.8610232495
 40
0.8922872391
 40
0.9065978262
 40
0.9199840372
 40
0.9324150806
 40
0.9438632557
 40
0.954302624
 40
0.9637095377
 40
0.9720634175
 40
0.9793451143
 40
0.9855394778
 40
0.9906329508
 40
0.9927638548
 40
0.9946165025
 40
0.996190393
 40
0.9974854891
 40
0.9980288632
 40
0.9985031868
 40
0.9989090046
 40
0.9992472226
 40
0.9995194605
 40
0.9997289235
 40
0.9998122852
 40
0.9998833934
 40
1.0
 40
1.0
 40
1.0
 40
1.0
 10
4.6056004609
 20
4.9716831822
 30
0.0
 10
4.6053577137
 20
4.9716342728
 30
0.0
 10
4.6048158309
 20
4.9715398685
 30
0.0
 10
4.6039181416
 20
4.9714112781
 30
0.0
 10
4.6028552433
 20
4.9712821746
 30
0.0
 10
4.6011104871
 20
4.9710982804
 30
0.0
 10
4.5985206082
 20
4.9708743841
 30
0.0
 10
4.5949266796
 20
4.9706173176
 30
0.0
 10
4.5906919288
 20
4.9703592672
 30
0.0
 10
4.585825978
 20
4.9701004336
 30
0.0
 10
4.5803397823
 20
4.9698411238
 30
0.0
 10
4.574245728
 20
4.9695814469
 30
0.0
 10
4.5675576976
 20
4.9693215189
 30
0.0
 10
4.5574978226
 20
4.9689614858
 30
0.0
 10
4.5435627375
 20
4.9685173051
 30
0.0
 10
4.5252997075
 20
4.9680002672
 30
0.0
 10
4.5051059467
 20
4.9674823472
 30
0.0
 10
4.4831646341
 20
4.9669637289
 30
0.0
 10
4.4596747849
 20
4.9664446415
 30
0.0
 10
4.4348494589
 20
4.9659252086
 30
0.0
 10
4.4089138621
 20
4.9654055301
 30
0.0
 10
4.3821032691
 20
4.9648856777
 30
0.0
 10
4.3546609147
 20
4.9643657098
 30
0.0
 10
4.3268357464
 20
4.9638456757
 30
0.0
 10
4.2988801776
 20
4.9633256196
 30
0.0
 10
4.2710478036
 20
4.9628055844
 30
0.0
 10
4.2435911158
 20
4.9622856142
 30
0.0
 10
4.2167591953
 20
4.9617657578
 30
0.0
 10
4.1907954669
 20
4.9612460726
 30
0.0
 10
4.1659354462
 20
4.960726633
 30
0.0
 10
4.1424046424
 20
4.960207529
 30
0.0
 10
4.1204164978
 20
4.9596889127
 30
0.0
 10
4.1001704701
 20
4.9591709124
 30
0.0
 10
4.08447284
 20
4.9587280226
 30
0.0
 10
4.0729221851
 20
4.9583701809
 30
0.0
 10
4.0650615139
 20
4.9581099043
 30
0.0
 10
4.0577621932
 20
4.957849771
 30
0.0
 10
4.0510408348
 20
4.9575898328
 30
0.0
 10
4.0449126703
 20
4.9573301501
 30
0.0
 10
4.0393915612
 20
4.9570708023
 30
0.0
 10
4.0344900841
 20
4.9568119492
 30
0.0
 10
4.0302191917
 20
4.9565538396
 30
0.0
 10
4.0265886341
 20
4.9562966931
 30
0.0
 10
4.0239679464
 20
4.9560728234
 30
0.0
 10
4.0221983386
 20
4.955889039
 30
0.0
 10
4.0211167111
 20
4.95575989
 30
0.0
 10
4.020200205
 20
4.9556312065
 30
0.0
 10
4.0195406581
 20
4.9555191451
 30
0.0
 10
4.0190967132
 20
4.9554272777
 30
0.0
 10
4.0188252463
 20
4.955362604
 30
0.0
 10
4.0185952525
 20
4.9552981187
 30
0.0
 10
4.0184065057
 20
4.9552339178
 30
0.0
 10
4.0182589177
 20
4.9551699617
 30
0.0
 10
4.0181629241
 20
4.9551134098
 30
0.0
 10
4.0181089877
 20
4.9550662422
 30
0.0
 10
4.0180749605
 20
4.955025448
 30
0.0
 10
4.0180611789
 20
4.9549886155
 30
0.0
 10
4.0180611803
 20
4.9549657609
 30
0.0
  0
SPLINE
  5
3B5
100
AcDbEntity
  8
0
100
AcDbSpline
 62
7
  6
CONTINUOUS
 70
0
 71
3
 72
30
 73
26
 74
0
 42
0.0000001
 43
0.0000001
 44
0.0000000001
 40
0.0
 40
0.0
 40
0.0
 40
0.0
 40
0.0019021902
 40
0.0043447473
 40
0.0073299528
 40
0.01085838
 40
0.0149296116
 40
0.0195418922
 40
0.0303802895
 40
0.0433534604
 40
0.0584337759
 40
0.0755889474
 40
0.0947822435
 40
0.1159708998
 40
0.1391096279
 40
0.1910273118
 40
0.2500787802
 40
0.3157440523
 40
0.387444584
 40
0.4645480678
 40
0.5463747517
 40
0.6322024821
 40
0.721275457
 40
0.8128047108
 40
1.0
 40
1.0
 40
1.0
 40
1.0
 10
4.6264995636
 20
5.011534872
 30
0.0
 10
4.6263067127
 20
5.0114848908
 30
0.0
 10
4.6258611773
 20
5.0113905632
 30
0.0
 10
4.6251038171
 20
5.0112645931
 30
0.0
 10
4.6241742881
 20
5.011137857
 30
0.0
 10
4.6230729929
 20
5.0110105287
 30
0.0
 10
4.6218003451
 20
5.0108828564
 30
0.0
 10
4.6197636938
 20
5.0107024507
 30
0.0
 10
4.6167948331
 20
5.0104817581
 30
0.0
 10
4.6127294435
 20
5.0102276468
 30
0.0
 10
4.6080014143
 20
5.0099727485
 30
0.0
 10
4.6026211513
 20
5.0097172085
 30
0.0
 10
4.5966005201
 20
5.0094612869
 30
0.0
 10
4.5899527182
 20
5.0092050283
 30
0.0
 10
4.579878928
 20
5.0088492854
 30
0.0
 10
4.5658401698
 20
5.0084108104
 30
0.0
 10
4.5473476741
 20
5.0079011628
 30
0.0
 10
4.5267825788
 20
5.0073905533
 30
0.0
 10
4.5043263303
 20
5.0068791871
 30
0.0
 10
4.4801770516
 20
5.0063673148
 30
0.0
 10
4.4545478832
 20
5.0058550694
 30
0.0
 10
4.4276648798
 20
5.0053425551
 30
0.0
 10
4.3997655218
 20
5.0048298493
 30
0.0
 10
4.3612510642
 20
5.0041409287
 30
0.0
 10
4.3320637712
 20
5.0036326023
 30
0.0
 10
4.3124611801
 20
5.0032911287
 30
0.0
  0
SPLINE
  5
3B6
100
AcDbEntity
  8
0
100
AcDbSpline
 62
7
  6
CONTINUOUS
 70
0
 71
3
 72
63
 73
59
 74
0
 42
0.0000001
 43
0.0000001
 44
0.0000000001
 40
0.0
 40
0.0
 40
0.0
 40
0.0
 40
0.0010297648
 40
0.0023404665
 40
0.0039332399
 40
0.0058083524
 40
0.0079655454
 40
0.0104038363
 40
0.0161185817
 40
0.0229415364
 40
0.0308575781
 40
0.0398490201
 40
0.0498958575
 40
0.0609747227
 40
0.0730609768
 40
0.1001413532
 40
0.130888903
 40
0.1650215308
 40
0.2022258742
 40
0.2421600519
 40
0.2844571661
 40
0.3287284403
 40
0.3745670316
 40
0.4215516738
 40
0.469250428
 40
0.5172249656
 40
0.565034147
 40
0.6122386171
 40
0.6584044468
 40
0.7031073256
 40
0.7459364488
 40
0.786498126
 40
0.8244196498
 40
0.8593525877
 40
0.8909761717
 40
0.9054551522
 40
0.9190002315
 40
0.9315809469
 40
0.9431678714
 40
0.9537350538
 40
0.9632581075
 40
0.971715482
 40
0.9790884135
 40
0.9853600982
 40
0.990517898
 40
0.9926756276
 40
0.9945513884
 40
0.9961449172
 40
0.9974563656
 40
0.9980066174
 40
0.9984868708
 40
0.9988976338
 40
0.9992398373
 40
0.9995151372
 40
0.9997267815
 40
0.9998109244
 40
0.9998826275
 40
1.0
 40
1.0
 40
1.0
 40
1.0
 10
4.6061007432
 20
5.0062466003
 30
0.0
 10
4.6059052
 20
5.0061959053
 30
0.0
 10
4.6054558869
 20
5.0060997997
 30
0.0
 10
4.6046950434
 20
5.0059710493
 30
0.0
 10
4.6037665032
 20
5.0058415663
 30
0.0
 10
4.6026706809
 20
5.0057115257
 30
0.0
 10
4.601408024
 20
5.0055811532
 30
0.0
 10
4.5993938336
 20
5.0053971252
 30
0.0
 10
4.5964645251
 20
5.0051718688
 30
0.0
 10
4.5924604831
 20
5.0049123955
 30
0.0
 10
4.5878125426
 20
5.0046521409
 30
0.0
 10
4.5825313574
 20
5.0043912485
 30
0.0
 10
4.5766290711
 20
5.0041299785
 30
0.0
 10
4.57011916
 20
5.0038683692
 30
0.0
 10
4.5602692306
 20
5.0035053885
 30
0.0
 10
4.5465614916
 20
5.0030579294
 30
0.0
 10
4.5285291732
 20
5.0025376656
 30
0.0
 10
4.5085101342
 20
5.0020164335
 30
0.0
 10
4.4866884321
 20
5.0014944424
 30
0.0
 10
4.4632647006
 20
5.0009719434
 30
0.0
 10
4.4384543429
 20
5.0004490716
 30
0.0
 10
4.4124854847
 20
4.9999259344
 30
0.0
 10
4.3855969044
 20
4.9994026096
 30
0.0
 10
4.3580358382
 20
4.9988791594
 30
0.0
 10
4.3300556933
 20
4.9983556354
 30
0.0
 10
4.301913772
 20
4.997832084
 30
0.0
 10
4.2738688303
 20
4.9973085488
 30
0.0
 10
4.2461787618
 20
4.9967850755
 30
0.0
 10
4.2190981615
 20
4.996261714
 30
0.0
 10
4.192876029
 20
4.9957385229
 30
0.0
 10
4.167753478
 20
4.9952155774
 30
0.0
 10
4.143961512
 20
4.994692969
 30
0.0
 10
4.1217189149
 20
4.9941708485
 30
0.0
 10
4.101230198
 20
4.9936493514
 30
0.0
 10
4.0853397821
 20
4.9932034877
 30
0.0
 10
4.0736443118
 20
4.9928432676
 30
0.0
 10
4.0656832249
 20
4.9925812097
 30
0.0
 10
4.0582897918
 20
4.9923193288
 30
0.0
 10
4.0514809171
 20
4.9920576191
 30
0.0
 10
4.0452723307
 20
4.9917961762
 30
0.0
 10
4.0396782435
 20
4.9915350829
 30
0.0
 10
4.0347115059
 20
4.9912744488
 30
0.0
 10
4.030383513
 20
4.9910146276
 30
0.0
 10
4.0267041009
 20
4.9907556976
 30
0.0
 10
4.024048069
 20
4.9905303375
 30
0.0
 10
4.0222544945
 20
4.9903453111
 30
0.0
 10
4.0211582701
 20
4.9902152787
 30
0.0
 10
4.0202293656
 20
4.9900857101
 30
0.0
 10
4.0195608255
 20
4.9899728962
 30
0.0
 10
4.0191107634
 20
4.989880413
 30
0.0
 10
4.0188355697
 20
4.9898153062
 30
0.0
 10
4.0186024542
 20
4.9897503855
 30
0.0
 10
4.0184111849
 20
4.9896857537
 30
0.0
 10
4.018261657
 20
4.9896213696
 30
0.0
 10
4.0181643982
 20
4.9895644406
 30
0.0
 10
4.0181097393
 20
4.9895169385
 30
0.0
 10
4.0180752836
 20
4.9894758998
 30
0.0
 10
4.0180612835
 20
4.9894387858
 30
0.0
 10
4.0180612732
 20
4.9894157609
 30
0.0
  0
SPLINE
  5
3B7
100
AcDbEntity
  8
0
100
AcDbSpline
 62
7
  6
CONTINUOUS
 70
0
 71
3
 72
22
 73
18
 74
0
 42
0.0000001
 43
0.0000001
 44
0.0000000001
 40
0.0
 40
0.0
 40
0.0
 40
0.0
 40
0.1643410082
 40
0.2419615004
 40
0.3164745658
 40
0.3878636073
 40
0.4561423181
 40
0.5213536247
 40
0.5835829204
 40
0.6429543764
 40
0.6996413794
 40
0.7538708999
 40
0.8059236916
 40
0.8561423062
 40
0.9049232932
 40
0.9527141853
 40
1.0
 40
1.0
 40
1.0
 40
1.0
 10
4.1599384493
 20
2.7969086514
 30
0.0
 10
4.1552834864
 20
2.7989170786
 30
0.0
 10
4.1485248225
 20
2.8021076215
 30
0.0
 10
4.1399693418
 20
2.8068154317
 30
0.0
 10
4.1340783724
 20
2.810404133
 30
0.0
 10
4.1286046161
 20
2.8141095249
 30
0.0
 10
4.1235603807
 20
2.8179229239
 30
0.0
 10
4.1189578186
 20
2.8218362945
 30
0.0
 10
4.114807272
 20
2.8258403773
 30
0.0
 10
4.1111187531
 20
2.8299266611
 30
0.0
 10
4.107901275
 20
2.8340862351
 30
0.0
 10
4.1051624408
 20
2.8383096884
 30
0.0
 10
4.1029102651
 20
2.8425881994
 30
0.0
 10
4.1011504811
 20
2.8469115433
 30
0.0
 10
4.099889073
 20
2.8512699108
 30
0.0
 10
4.0991304924
 20
2.8556514615
 30
0.0
 10
4.0989611801
 20
2.8585871996
 30
0.0
 10
4.0989611801
 20
2.8600459208
 30
0.0
  0
SPLINE
  5
3B8
100
AcDbEntity
  8
0
100
AcDbSpline
 62
7
  6
CONTINUOUS
 70
0
 71
3
 72
51
 73
47
 74
0
 42
0.0000001
 43
0.0000001
 44
0.0000000001
 40
0.0
 40
0.0
 40
0.0
 40
0.0
 40
0.0211965548
 40
0.045562562
 40
0.0729276622
 40
0.1030998272
 40
0.135867214
 40
0.1709999348
 40
0.2473600945
 40
0.330038552
 40
0.4167166059
 40
0.5049628027
 40
0.5489002968
 40
0.5923018579
 40
0.6348627089
 40
0.6762839344
 40
0.7162743735
 40
0.7545532214
 40
0.7908517639
 40
0.8249150808
 40
0.8565038457
 40
0.8853964237
 40
0.9113903444
 40
0.9232425132
 40
0.9343034689
 40
0.9445535018
 40
0.9539753073
 40
0.962552048
 40
0.9702689473
 40
0.9771131377
 40
0.9830724253
 40
0.9881375555
 40
0.9903323601
 40
0.9923007601
 40
0.9940421732
 40
0.9955564277
 40
0.9968435984
 40
0.9979041891
 40
0.9983499434
 40
0.9987397203
 40
0.9990740783
 40
0.9993539786
 40
0.9995810879
 40
0.9997585725
 40
0.9998931552
 40
1.0
 40
1.0
 40
1.0
 40
1.0
 10
4.5764880034
 20
4.4184782594
 30
0.0
 10
4.5725432922
 20
4.4183121868
 30
0.0
 10
4.5640626917
 20
4.4179869517
 30
0.0
 10
4.5504862989
 20
4.4175323311
 30
0.0
 10
4.535237251
 20
4.4170767174
 30
0.0
 10
4.5184227068
 20
4.4166203715
 30
0.0
 10
4.5001608431
 20
4.4161634944
 30
0.0
 10
4.4732973165
 20
4.4155363135
 30
0.0
 10
4.4371379343
 20
4.41476429
 30
0.0
 10
4.3913781225
 20
4.4138591902
 30
0.0
 10
4.3434039547
 20
4.4129529452
 30
0.0
 10
4.302644393
 20
4.4121962931
 30
0.0
 10
4.2699444849
 20
4.4115845871
 30
0.0
 10
4.2457528364
 20
4.41112649
 30
0.0
 10
4.2220299681
 20
4.4106684595
 30
0.0
 10
4.1989425963
 20
4.4102105259
 30
0.0
 10
4.1766529765
 20
4.4097527231
 30
0.0
 10
4.1553177455
 20
4.4092950965
 30
0.0
 10
4.1350867984
 20
4.4088377083
 30
0.0
 10
4.116102318
 20
4.408380635
 30
0.0
 10
4.0984977342
 20
4.4079240037
 30
0.0
 10
4.0823967411
 20
4.4074679238
 30
0.0
 10
4.0699716709
 20
4.4070775395
 30
0.0
 10
4.0608673864
 20
4.4067621545
 30
0.0
 10
4.0546944471
 20
4.4065330695
 30
0.0
 10
4.048974532
 20
4.4063041069
 30
0.0
 10
4.0437177349
 20
4.4060753256
 30
0.0
 10
4.0389332504
 20
4.4058467632
 30
0.0
 10
4.0346294769
 20
4.405618485
 30
0.0
 10
4.0308139756
 20
4.4053906843
 30
0.0
 10
4.0274933785
 20
4.4051634073
 30
0.0
 10
4.0250388571
 20
4.4049666384
 30
0.0
 10
4.0233273835
 20
4.404806454
 30
0.0
 10
4.0222334679
 20
4.4046922727
 30
0.0
 10
4.0212670644
 20
4.4045782901
 30
0.0
 10
4.0204284923
 20
4.4044646219
 30
0.0
 10
4.0197180383
 20
4.40435133
 30
0.0
 10
4.0192069516
 20
4.4042526964
 30
0.0
 10
4.0188630867
 20
4.4041718815
 30
0.0
 10
4.0186526956
 20
4.4041149372
 30
0.0
 10
4.0184744177
 20
4.4040581489
 30
0.0
 10
4.0183281588
 20
4.4040015274
 30
0.0
 10
4.0182135007
 20
4.4039451381
 30
0.0
 10
4.0181300427
 20
4.4038885531
 30
0.0
 10
4.0180758992
 20
4.4038306942
 30
0.0
 10
4.0180612996
 20
4.4037856625
 30
0.0
 10
4.0180612943
 20
4.4037657609
 30
0.0
  0
SPLINE
  5
3B9
100
AcDbEntity
  8
0
100
AcDbSpline
 62
7
  6
CONTINUOUS
 70
0
 71
3
 72
63
 73
59
 74
0
 42
0.0000001
 43
0.0000001
 44
0.0000000001
 40
0.0
 40
0.0
 40
0.0
 40
0.0
 40
0.0001173806
 40
0.0001891017
 40
0.0002732711
 40
0.0004849822
 40
0.0007603459
 40
0.0011025851
 40
0.0015133309
 40
0.0019934994
 40
0.0025436448
 40
0.0038550405
 40
0.0054486951
 40
0.0073245792
 40
0.0094822478
 40
0.0146398999
 40
0.0209118105
 40
0.0282844781
 40
0.0367420741
 40
0.0462649613
 40
0.0568322267
 40
0.0684191965
 40
0.0809997888
 40
0.0945450588
 40
0.109023819
 40
0.1406474437
 40
0.175580503
 40
0.2135020441
 40
0.2540637308
 40
0.2968927858
 40
0.3415956361
 40
0.3877614922
 40
0.4349659409
 40
0.4827752039
 40
0.5307496717
 40
0.5784484493
 40
0.6254330788
 40
0.6712716942
 40
0.7155430345
 40
0.7578401345
 40
0.7977742768
 40
0.8349785256
 40
0.8691111312
 40
0.8998587287
 40
0.9269391885
 40
0.9390253109
 40
0.9501043775
 40
0.9601509931
 40
0.9691426854
 40
0.9770585315
 40
0.983881571
 40
0.9895963186
 40
0.9920344736
 40
0.9941916773
 40
0.9960669893
 40
0.9976597839
 40
0.9989703474
 40
1.0
 40
1.0
 40
1.0
 40
1.0
 10
4.6068611658
 20
5.1311907608
 30
0.0
 10
4.6068611557
 20
5.1311677344
 30
0.0
 10
4.6068471411
 20
5.131130617
 30
0.0
 10
4.6068126657
 20
5.1310895824
 30
0.0
 10
4.6067579771
 20
5.131042081
 30
0.0
 10
4.6066606818
 20
5.130985155
 30
0.0
 10
4.6065111182
 20
5.1309207719
 30
0.0
 10
4.6063198319
 20
5.1308561406
 30
0.0
 10
4.6060867302
 20
5.1307912196
 30
0.0
 10
4.6058115796
 20
5.1307261085
 30
0.0
 10
4.6053615683
 20
5.1306336155
 30
0.0
 10
4.604693034
 20
5.1305208046
 30
0.0
 10
4.6037640896
 20
5.1303912441
 30
0.0
 10
4.6026678274
 20
5.1302612176
 30
0.0
 10
4.6008742708
 20
5.1300761821
 30
0.0
 10
4.5982182362
 20
5.1298508134
 30
0.0
 10
4.594538859
 20
5.1295919083
 30
0.0
 10
4.5902108321
 20
5.1293320591
 30
0.0
 10
4.5852441343
 20
5.1290714489
 30
0.0
 10
4.5796500211
 20
5.1288103394
 30
0.0
 10
4.5734414421
 20
5.1285489041
 30
0.0
 10
4.5666325667
 20
5.128287195
 30
0.0
 10
4.559239112
 20
5.1280253072
 30
0.0
 10
4.5512780551
 20
5.1277632594
 30
0.0
 10
4.5395825835
 20
5.1274030278
 30
0.0
 10
4.5236921796
 20
5.1269571715
 30
0.0
 10
4.5032034283
 20
5.1264356731
 30
0.0
 10
4.4809608031
 20
5.125913553
 30
0.0
 10
4.4571688464
 20
5.1253909442
 30
0.0
 10
4.4320463136
 20
5.1248679984
 30
0.0
 10
4.405824196
 20
5.1243448073
 30
0.0
 10
4.3787436016
 20
5.1238214459
 30
0.0
 10
4.3510535173
 20
5.1232979726
 30
0.0
 10
4.3230085788
 20
5.1227744378
 30
0.0
 10
4.2948666519
 20
5.1222508861
 30
0.0
 10
4.2668865198
 20
5.121727362
 30
0.0
 10
4.239325448
 20
5.1212039117
 30
0.0
 10
4.2124368537
 20
5.120680587
 30
0.0
 10
4.1864679817
 20
5.1201574501
 30
0.0
 10
4.1616576218
 20
5.1196345785
 30
0.0
 10
4.1382339197
 20
5.1191120796
 30
0.0
 10
4.1164122485
 20
5.1185900873
 30
0.0
 10
4.0963932239
 20
5.1180688561
 30
0.0
 10
4.078360885
 20
5.1175485895
 30
0.0
 10
4.0646531464
 20
5.1171011392
 30
0.0
 10
4.0548031879
 20
5.1167381461
 30
0.0
 10
4.0482933063
 20
5.116476552
 30
0.0
 10
4.0423909761
 20
5.1162152621
 30
0.0
 10
4.0371098229
 20
5.1159543907
 30
0.0
 10
4.032461856
 20
5.1156941195
 30
0.0
 10
4.0284578352
 20
5.1154346532
 30
0.0
 10
4.0255285358
 20
5.1152094042
 30
0.0
 10
4.0235143707
 20
5.1150253646
 30
0.0
 10
4.0222516999
 20
5.1148949868
 30
0.0
 10
4.0211558301
 20
5.1147649614
 30
0.0
 10
4.0202272733
 20
5.1146354802
 30
0.0
 10
4.0194664762
 20
5.1145067234
 30
0.0
 10
4.0190172146
 20
5.114410613
 30
0.0
 10
4.0188216933
 20
5.1143599214
 30
0.0
  0
SPLINE
  5
3BA
100
AcDbEntity
  8
0
100
AcDbSpline
 62
7
  6
CONTINUOUS
 70
0
 71
3
 72
63
 73
59
 74
0
 42
0.0000001
 43
0.0000001
 44
0.0000000001
 40
0.0
 40
0.0
 40
0.0
 40
0.0
 40
0.0001173623
 40
0.0001890543
 40
0.0002731849
 40
0.0004848079
 40
0.0007601027
 40
0.0011023288
 40
0.0015131447
 40
0.001993433
 40
0.0025436873
 40
0.0038550825
 40
0.0054485463
 40
0.0073243113
 40
0.0094821423
 40
0.0146398919
 40
0.0209115739
 40
0.0282845419
 40
0.0367418177
 40
0.0462649937
 40
0.0568320868
 40
0.068419104
 40
0.0809997483
 40
0.094544821
 40
0.1090238479
 40
0.1406474614
 40
0.1755803765
 40
0.2135018703
 40
0.2540635217
 40
0.2968926431
 40
0.3415955531
 40
0.3877613839
 40
0.4349658447
 40
0.482775043
 40
0.5307495249
 40
0.578448343
 40
0.6254329464
 40
0.6712715602
 40
0.7155428169
 40
0.7578398809
 40
0.7977740854
 40
0.8349784051
 40
0.8691111161
 40
0.8998586648
 40
0.9269390255
 40
0.9390252284
 40
0.950104111
 40
0.960150985
 40
0.9691423415
 40
0.9770584897
 40
0.9838813217
 40
0.9895961673
 40
0.9920344759
 40
0.9941915786
 40
0.9960666642
 40
0.9976594931
 40
0.9989702531
 40
1.0
 40
1.0
 40
1.0
 40
1.0
 10
4.6068610625
 20
5.0967407608
 30
0.0
 10
4.6068610584
 20
5.096717738
 30
0.0
 10
4.6068470716
 20
5.0966806234
 30
0.0
 10
4.6068126275
 20
5.0966395829
 30
0.0
 10
4.6067579814
 20
5.0965920795
 30
0.0
 10
4.6066607315
 20
5.0965351492
 30
0.0
 10
4.6065112044
 20
5.096470765
 30
0.0
 10
4.6063199201
 20
5.0964061336
 30
0.0
 10
4.6060867809
 20
5.0963412175
 30
0.0
 10
4.6058115691
 20
5.0962761105
 30
0.0
 10
4.6053615101
 20
5.0961836275
 30
0.0
 10
4.6046929936
 20
5.0960708112
 30
0.0
 10
4.6037641119
 20
5.0959412402
 30
0.0
 10
4.6026678793
 20
5.0958112076
 30
0.0
 10
4.6008742926
 20
5.095626193
 30
0.0
 10
4.5982182523
 20
5.0954008197
 30
0.0
 10
4.5945388429
 20
5.0951418937
 30
0.0
 10
4.5902108625
 20
5.0948820757
 30
0.0
 10
4.5852441133
 20
5.0946214344
 30
0.0
 10
4.5796500383
 20
5.0943603503
 30
0.0
 10
4.5734414274
 20
5.0940988987
 30
0.0
 10
4.5666325655
 20
5.0938371954
 30
0.0
 10
4.5592391293
 20
5.0935753107
 30
0.0
 10
4.5512780483
 20
5.093313254
 30
0.0
 10
4.539582564
 20
5.0929530345
 30
0.0
 10
4.5236921371
 20
5.0925071702
 30
0.0
 10
4.503203424
 20
5.0919856734
 30
0.0
 10
4.4809608415
 20
5.0914635524
 30
0.0
 10
4.457168886
 20
5.0909409439
 30
0.0
 10
4.4320463334
 20
5.0904179986
 30
0.0
 10
4.405824194
 20
5.0898948076
 30
0.0
 10
4.3787435883
 20
5.0893714462
 30
0.0
 10
4.3510535171
 20
5.0888479728
 30
0.0
 10
4.3230085838
 20
5.0883244376
 30
0.0
 10
4.2948666566
 20
5.0878008861
 30
0.0
 10
4.2668865168
 20
5.0872773623
 30
0.0
 10
4.2393254403
 20
5.0867539121
 30
0.0
 10
4.2124368656
 20
5.0862305873
 30
0.0
 10
4.1864680153
 20
5.0857074502
 30
0.0
 10
4.1616576648
 20
5.085184578
 30
0.0
 10
4.1382339417
 20
5.0846620792
 30
0.0
 10
4.1164122219
 20
5.0841400876
 30
0.0
 10
4.0963931708
 20
5.0836188564
 30
0.0
 10
4.0783608387
 20
5.0830985922
 30
0.0
 10
4.0646531125
 20
5.0826511342
 30
0.0
 10
4.0548031926
 20
5.0822881514
 30
0.0
 10
4.0482932807
 20
5.082026542
 30
0.0
 10
4.0423910001
 20
5.0817652762
 30
0.0
 10
4.0371098039
 20
5.0815043755
 30
0.0
 10
4.0324618825
 20
5.0812441325
 30
0.0
 10
4.0284578247
 20
5.0809846466
 30
0.0
 10
4.0255285166
 20
5.0807593962
 30
0.0
 10
4.0235143202
 20
5.0805753723
 30
0.0
 10
4.0222516836
 20
5.0804449938
 30
0.0
 10
4.0211558736
 20
5.0803149516
 30
0.0
 10
4.0202273159
 20
5.0801854714
 30
0.0
 10
4.0194664528
 20
5.0800567248
 30
0.0
 10
4.019017131
 20
5.0799606201
 30
0.0
 10
4.0188215924
 20
5.0799099214
 30
0.0
  0
SPLINE
  5
3BB
100
AcDbEntity
  8
0
100
AcDbSpline
 62
7
  6
CONTINUOUS
 70
0
 71
3
 72
63
 73
59
 74
0
 42
0.0000001
 43
0.0000001
 44
0.0000000001
 40
0.0
 40
0.0
 40
0.0
 40
0.0
 40
0.0001173432
 40
0.000189031
 40
0.0002731728
 40
0.000484875
 40
0.0007602873
 40
0.0011026094
 40
0.0015134449
 40
0.001993681
 40
0.0025438427
 40
0.0038550617
 40
0.0054485752
 40
0.0073245718
 40
0.0094824096
 40
0.01463984
 40
0.0209118628
 40
0.0282845666
 40
0.0367420147
 40
0.0462651393
 40
0.0568321165
 40
0.0684193415
 40
0.0809997276
 40
0.0945451015
 40
0.1090238856
 40
0.140647584
 40
0.1755806043
 40
0.2135020866
 40
0.2540636846
 40
0.2968927432
 40
0.3415956035
 40
0.3877615125
 40
0.434965976
 40
0.4827751927
 40
0.5307496686
 40
0.5784484309
 40
0.6254331131
 40
0.6712717357
 40
0.7155430356
 40
0.7578400622
 40
0.7977741645
 40
0.834978448
 40
0.8691111389
 40
0.8998588144
 40
0.9269392999
 40
0.9390252129
 40
0.9501043923
 40
0.9601509914
 40
0.9691425527
 40
0.9770586366
 40
0.983881395
 40
0.9895964478
 40
0.9920345304
 40
0.994191555
 40
0.9960668093
 40
0.9976598033
 40
0.9989704775
 40
1.0
 40
1.0
 40
1.0
 40
1.0
 10
4.6068611294
 20
5.0622907609
 30
0.0
 10
4.606861143
 20
5.0622677419
 30
0.0
 10
4.6068471753
 20
5.06223062
 30
0.0
 10
4.6068127334
 20
5.0621895801
 30
0.0
 10
4.6067580674
 20
5.0621420729
 30
0.0
 10
4.6066607654
 20
5.0620851493
 30
0.0
 10
4.6065111745
 20
5.0620207703
 30
0.0
 10
4.6063198412
 20
5.0619561419
 30
0.0
 10
4.6060866904
 20
5.0618912225
 30
0.0
 10
4.6058115045
 20
5.0618261124
 30
0.0
 10
4.6053615107
 20
5.0617336252
 30
0.0
 10
4.6046930392
 20
5.061620799
 30
0.0
 10
4.6037641356
 20
5.061491234
 30
0.0
 10
4.6026678444
 20
5.0613612173
 30
0.0
 10
4.6008742743
 20
5.061176198
 30
0.0
 10
4.5982182305
 20
5.0609507986
 30
0.0
 10
4.5945388659
 20
5.0606919137
 30
0.0
 10
4.5902108388
 20
5.0604320621
 30
0.0
 10
4.5852441166
 20
5.0601714409
 30
0.0
 10
4.5796500412
 20
5.0599103501
 30
0.0
 10
4.5734414225
 20
5.0596488937
 30
0.0
 10
4.5666325929
 20
5.0593872036
 30
0.0
 10
4.5592391082
 20
5.0591253019
 30
0.0
 10
4.5512780659
 20
5.0588632616
 30
0.0
 10
4.5395825541
 20
5.0585030266
 30
0.0
 10
4.5236921375
 20
5.058057173
 30
0.0
 10
4.5032033898
 20
5.0575356733
 30
0.0
 10
4.4809607997
 20
5.0570135531
 30
0.0
 10
4.4571688696
 20
5.056490944
 30
0.0
 10
4.4320463499
 20
5.0559679983
 30
0.0
 10
4.4058242176
 20
5.0554448073
 30
0.0
 10
4.3787436061
 20
5.0549214463
 30
0.0
 10
4.3510535158
 20
5.0543979729
 30
0.0
 10
4.32300858
 20
5.0538744378
 30
0.0
 10
4.2948666617
 20
5.0533508861
 30
0.0
 10
4.2668865189
 20
5.0528273619
 30
0.0
 10
4.2393254366
 20
5.0523039119
 30
0.0
 10
4.2124368366
 20
5.0517805874
 30
0.0
 10
4.1864679839
 20
5.0512574505
 30
0.0
 10
4.1616576526
 20
5.0507345783
 30
0.0
 10
4.1382339643
 20
5.0502120792
 30
0.0
 10
4.116412276
 20
5.0496900868
 30
0.0
 10
4.0963932112
 20
5.0491688565
 30
0.0
 10
4.0783608341
 20
5.0486485884
 30
0.0
 10
4.0646531151
 20
5.0482011454
 30
0.0
 10
4.0548031703
 20
5.0478381414
 30
0.0
 10
4.0482933102
 20
5.0475765534
 30
0.0
 10
4.0423909862
 20
5.0473152665
 30
0.0
 10
4.0371098158
 20
5.0470543801
 30
0.0
 10
4.0324618812
 20
5.0467941356
 30
0.0
 10
4.0284578111
 20
5.0465346337
 30
0.0
 10
4.0255285187
 20
5.0463094143
 30
0.0
 10
4.0235143433
 20
5.0461253688
 30
0.0
 10
4.0222517341
 20
5.0459949847
 30
0.0
 10
4.0211558729
 20
5.0458649495
 30
0.0
 10
4.0202272644
 20
5.0457354815
 30
0.0
 10
4.0194664289
 20
5.0456067383
 30
0.0
 10
4.019017173
 20
5.0455106168
 30
0.0
 10
4.018821679
 20
5.0454599213
 30
0.0
  0
SPLINE
  5
3BC
100
AcDbEntity
  8
0
100
AcDbSpline
 62
7
  6
CONTINUOUS
 70
0
 71
3
 72
39
 73
35
 74
0
 42
0.0000001
 43
0.0000001
 44
0.0000000001
 40
0.0
 40
0.0
 40
0.0
 40
0.0
 40
0.000522443
 40
0.0007225193
 40
0.0009552567
 40
0.0015233136
 40
0.0022329777
 40
0.0030871452
 40
0.0040873247
 40
0.0052343691
 40
0.0079707117
 40
0.0112981435
 40
0.0152168847
 40
0.0197258015
 40
0.0305042131
 40
0.0436114798
 40
0.0590180463
 40
0.0766875226
 40
0.0965788924
 40
0.1186437664
 40
0.1428305587
 40
0.1690801068
 40
0.1973305283
 40
0.2275130044
 40
0.2595556403
 40
0.2933809986
 40
0.3660507836
 40
0.4448230863
 40
0.5289400226
 40
0.6175916474
 40
0.7099254491
 40
0.8050502783
 40
0.9020555645
 40
1.0
 40
1.0
 40
1.0
 40
1.0
 10
4.6272110687
 20
5.160377893
 30
0.0
 10
4.6272110687
 20
5.1603230319
 30
0.0
 10
4.6271441298
 20
5.1602586359
 30
0.0
 10
4.6270608113
 20
5.1602074277
 30
0.0
 10
4.6269665156
 20
5.1601592036
 30
0.0
 10
4.6268188885
 20
5.1601015597
 30
0.0
 10
4.6266047705
 20
5.1600352991
 30
0.0
 10
4.6263437935
 20
5.15996896
 30
0.0
 10
4.626035679
 20
5.1599023231
 30
0.0
 10
4.6255316312
 20
5.1598076638
 30
0.0
 10
4.624783108
 20
5.1596922066
 30
0.0
 10
4.6237432127
 20
5.1595596183
 30
0.0
 10
4.6225159553
 20
5.1594265585
 30
0.0
 10
4.6205080094
 20
5.1592372144
 30
0.0
 10
4.6175350825
 20
5.15900656
 30
0.0
 10
4.6134175025
 20
5.1587416075
 30
0.0
 10
4.6085750799
 20
5.1584756985
 30
0.0
 10
4.6030193982
 20
5.1582089692
 30
0.0
 10
4.596763846
 20
5.1579417786
 30
0.0
 10
4.5898233777
 20
5.1576742025
 30
0.0
 10
4.5822148038
 20
5.1574063907
 30
0.0
 10
4.5739563318
 20
5.1571383609
 30
0.0
 10
4.5650679576
 20
5.156870197
 30
0.0
 10
4.5555710036
 20
5.1566019025
 30
0.0
 10
4.5454884151
 20
5.1563335149
 30
0.0
 10
4.5309453331
 20
5.1559667375
 30
0.0
 10
4.5114959011
 20
5.1555118605
 30
0.0
 10
4.4867658654
 20
5.1549775356
 30
0.0
 10
4.4603572387
 20
5.1544427588
 30
0.0
 10
4.4325242664
 20
5.1539076286
 30
0.0
 10
4.4035351679
 20
5.1533722611
 30
0.0
 10
4.3736687194
 20
5.1528367212
 30
0.0
 10
4.3432130138
 20
5.1523010816
 30
0.0
 10
4.3227446593
 20
5.1519445294
 30
0.0
 10
4.3124611801
 20
5.151765393
 30
0.0
  0
SPLINE
  5
3BD
100
AcDbEntity
  8
0
100
AcDbSpline
 62
7
  6
CONTINUOUS
 70
0
 71
3
 72
40
 73
36
 74
0
 42
0.0000001
 43
0.0000001
 44
0.0000000001
 40
0.0
 40
0.0
 40
0.0
 40
0.0
 40
0.0002520354
 40
0.0005771464
 40
0.0010129853
 40
0.0015753378
 40
0.0022713941
 40
0.0031048572
 40
0.0051913424
 40
0.0064467546
 40
0.0078442796
 40
0.0093841304
 40
0.0110663986
 40
0.0148581354
 40
0.019219055
 40
0.0241481401
 40
0.0296439788
 40
0.0423254238
 40
0.0572393604
 40
0.0743589083
 40
0.0936494933
 40
0.1150735805
 40
0.1385890812
 40
0.1641480462
 40
0.191700829
 40
0.2211912273
 40
0.2857467946
 40
0.3572974954
 40
0.435270016
 40
0.5190393664
 40
0.6079334417
 40
0.7012403685
 40
0.7982061103
 40
0.898066573
 40
1.0
 40
1.0
 40
1.0
 40
1.0
 10
4.606861152
 20
5.0278407608
 30
0.0
 10
4.6068611403
 20
5.027819376
 30
0.0
 10
4.6068439129
 20
5.0277704919
 30
0.0
 10
4.6067818904
 20
5.0277091156
 30
0.0
 10
4.6066867182
 20
5.0276487975
 30
0.0
 10
4.6065558218
 20
5.0275886578
 30
0.0
 10
4.6063888317
 20
5.0275281699
 30
0.0
 10
4.606094649
 20
5.0274406042
 30
0.0
 10
4.6057489896
 20
5.027361578
 30
0.0
 10
4.6053543013
 20
5.0272846308
 30
0.0
 10
4.6050038018
 20
5.0272235484
 30
0.0
 10
4.604616626
 20
5.0271623675
 30
0.0
 10
4.6040276023
 20
5.0270773261
 30
0.0
 10
4.6031996982
 20
5.0269723162
 30
0.0
 10
4.602096405
 20
5.0268504894
 30
0.0
 10
4.6008477704
 20
5.0267284503
 30
0.0
 10
4.5988946928
 20
5.0265572541
 30
0.0
 10
4.5960947365
 20
5.0263469835
 30
0.0
 10
4.5923084796
 20
5.0261040751
 30
0.0
 10
4.5879604797
 20
5.0258606091
 30
0.0
 10
4.5830593763
 20
5.0256166375
 30
0.0
 10
4.5776150002
 20
5.0253723552
 30
0.0
 10
4.5716382884
 20
5.0251278416
 30
0.0
 10
4.565141176
 20
5.0248831339
 30
0.0
 10
4.5581367757
 20
5.0246382967
 30
0.0
 10
4.5478247932
 20
5.024301446
 30
0.0
 10
4.5337803158
 20
5.0238845132
 30
0.0
 10
4.5156225675
 20
5.0233971512
 30
0.0
 10
4.4958340373
 20
5.0229092035
 30
0.0
 10
4.4745735466
 20
5.0224207892
 30
0.0
 10
4.4520116402
 20
5.0219320473
 30
0.0
 10
4.4283297959
 20
5.0214430681
 30
0.0
 10
4.4037172839
 20
5.0209538965
 30
0.0
 10
4.3783726887
 20
5.0204646112
 30
0.0
 10
4.3612538345
 20
5.0201408276
 30
0.0
 10
4.3526064606
 20
5.0199782609
 30
0.0
  0
SPLINE
  5
3BE
100
AcDbEntity
  8
0
100
AcDbSpline
 62
7
  6
CONTINUOUS
 70
0
 71
3
 72
44
 73
40
 74
0
 42
0.0000001
 43
0.0000001
 44
0.0000000001
 40
0.0
 40
0.0
 40
0.0
 40
0.0
 40
0.0929363953
 40
0.1863242347
 40
0.279082043
 40
0.3701344167
 40
0.4584264612
 40
0.5429350265
 40
0.6226809769
 40
0.6967404362
 40
0.7313666752
 40
0.7642556028
 40
0.795311413
 40
0.8244447316
 40
0.8515706925
 40
0.8766113835
 40
0.8994939204
 40
0.9201528156
 40
0.9385281371
 40
0.9545677611
 40
0.9682257577
 40
0.9741498487
 40
0.9794647265
 40
0.9841671939
 40
0.9882547957
 40
0.9917254211
 40
0.9932289136
 40
0.9945778415
 40
0.99577246
 40
0.9968132138
 40
0.9977008644
 40
0.9984367519
 40
0.9990233873
 40
0.9992623191
 40
0.9994663727
 40
0.9996374621
 40
0.9997788718
 40
0.9998964159
 40
1.0
 40
1.0
 40
1.0
 40
1.0
 10
4.3603309956
 20
4.4184782609
 30
0.0
 10
4.3490902334
 20
4.4182801441
 30
0.0
 10
4.3265540484
 20
4.4178862356
 30
0.0
 10
4.2927986238
 20
4.4172990451
 30
0.0
 10
4.2592711428
 20
4.4167119018
 30
0.0
 10
4.2263601929
 20
4.416124887
 30
0.0
 10
4.1944473115
 20
4.4155380941
 30
0.0
 10
4.1639023994
 20
4.4149516521
 30
0.0
 10
4.1350795263
 20
4.4143656811
 30
0.0
 10
4.1122903959
 20
4.4138674885
 30
0.0
 10
4.0951688348
 20
4.4134657254
 30
0.0
 10
4.0832483444
 20
4.413171282
 30
0.0
 10
4.0719925429
 20
4.4128769406
 30
0.0
 10
4.0614341358
 20
4.4125827364
 30
0.0
 10
4.0516036737
 20
4.4122886887
 30
0.0
 10
4.0425297245
 20
4.4119948655
 30
0.0
 10
4.0342385298
 20
4.4117013201
 30
0.0
 10
4.0267541833
 20
4.4114081674
 30
0.0
 10
4.0200982977
 20
4.4111155852
 30
0.0
 10
4.0142902045
 20
4.4108237365
 30
0.0
 10
4.009988369
 20
4.4105711166
 30
0.0
 10
4.0069835916
 20
4.4103654491
 30
0.0
 10
4.0050607195
 20
4.4102187857
 30
0.0
 10
4.0033606972
 20
4.4100724181
 30
0.0
 10
4.0018846842
 20
4.4099263983
 30
0.0
 10
4.000795712
 20
4.4097999543
 30
0.0
 10
4.0000377447
 20
4.4096970387
 30
0.0
 10
3.9995536791
 20
4.4096236763
 30
0.0
 10
3.9991262794
 20
4.4095504432
 30
0.0
 10
3.9987555768
 20
4.4094773694
 30
0.0
 10
3.9984415095
 20
4.4094045614
 30
0.0
 10
3.9981840736
 20
4.4093320528
 30
0.0
 10
3.9980058494
 20
4.409268522
 30
0.0
 10
3.9978927696
 20
4.4092160816
 30
0.0
 10
3.9978279964
 20
4.4091795002
 30
0.0
 10
3.9977771507
 20
4.4091428768
 30
0.0
 10
3.9977400825
 20
4.409105932
 30
0.0
 10
3.9977168031
 20
4.4090680833
 30
0.0
 10
3.9977112221
 20
4.4090411592
 30
0.0
 10
3.997711229
 20
4.4090286287
 30
0.0
  0
SPLINE
  5
3BF
100
AcDbEntity
  8
0
100
AcDbSpline
 62
7
  6
CONTINUOUS
 70
0
 71
3
 72
39
 73
35
 74
0
 42
0.0000001
 43
0.0000001
 44
0.0000000001
 40
0.0
 40
0.0
 40
0.0
 40
0.0
 40
0.000522443
 40
0.0007225193
 40
0.0009552567
 40
0.0015233136
 40
0.0022329777
 40
0.0030871452
 40
0.0040873247
 40
0.0052343691
 40
0.0079707117
 40
0.0112981435
 40
0.0152168847
 40
0.0197258015
 40
0.0305042131
 40
0.0436114798
 40
0.0590180463
 40
0.0766875226
 40
0.0965788924
 40
0.1186437664
 40
0.1428305587
 40
0.1690801068
 40
0.1973305283
 40
0.2275130044
 40
0.2595556403
 40
0.2933809986
 40
0.3660507836
 40
0.4448230863
 40
0.5289400226
 40
0.6175916474
 40
0.7099254491
 40
0.8050502783
 40
0.9020555645
 40
1.0
 40
1.0
 40
1.0
 40
1.0
 10
4.6272110687
 20
5.125927893
 30
0.0
 10
4.6272110687
 20
5.1258730319
 30
0.0
 10
4.6271441298
 20
5.1258086359
 30
0.0
 10
4.6270608113
 20
5.1257574277
 30
0.0
 10
4.6269665156
 20
5.1257092036
 30
0.0
 10
4.6268188885
 20
5.1256515597
 30
0.0
 10
4.6266047705
 20
5.1255852991
 30
0.0
 10
4.6263437935
 20
5.12551896
 30
0.0
 10
4.626035679
 20
5.1254523231
 30
0.0
 10
4.6255316312
 20
5.1253576638
 30
0.0
 10
4.624783108
 20
5.1252422066
 30
0.0
 10
4.6237432127
 20
5.1251096183
 30
0.0
 10
4.6225159553
 20
5.1249765585
 30
0.0
 10
4.6205080094
 20
5.1247872144
 30
0.0
 10
4.6175350825
 20
5.12455656
 30
0.0
 10
4.6134175025
 20
5.1242916075
 30
0.0
 10
4.6085750799
 20
5.1240256985
 30
0.0
 10
4.6030193982
 20
5.1237589692
 30
0.0
 10
4.596763846
 20
5.1234917786
 30
0.0
 10
4.5898233777
 20
5.1232242025
 30
0.0
 10
4.5822148038
 20
5.1229563907
 30
0.0
 10
4.5739563318
 20
5.1226883609
 30
0.0
 10
4.5650679576
 20
5.122420197
 30
0.0
 10
4.5555710036
 20
5.1221519025
 30
0.0
 10
4.5454884151
 20
5.1218835149
 30
0.0
 10
4.5309453331
 20
5.1215167375
 30
0.0
 10
4.5114959011
 20
5.1210618605
 30
0.0
 10
4.4867658654
 20
5.1205275356
 30
0.0
 10
4.4603572387
 20
5.1199927588
 30
0.0
 10
4.4325242664
 20
5.1194576286
 30
0.0
 10
4.4035351679
 20
5.1189222611
 30
0.0
 10
4.3736687194
 20
5.1183867212
 30
0.0
 10
4.3432130138
 20
5.1178510816
 30
0.0
 10
4.3227446593
 20
5.1174945294
 30
0.0
 10
4.3124611801
 20
5.117315393
 30
0.0
  0
SPLINE
  5
3C0
100
AcDbEntity
  8
0
100
AcDbSpline
 62
7
  6
CONTINUOUS
 70
0
 71
3
 72
39
 73
35
 74
0
 42
0.0000001
 43
0.0000001
 44
0.0000000001
 40
0.0
 40
0.0
 40
0.0
 40
0.0
 40
0.000522443
 40
0.0007225193
 40
0.0009552567
 40
0.0015233136
 40
0.0022329777
 40
0.0030871452
 40
0.0040873247
 40
0.0052343691
 40
0.0079707117
 40
0.0112981435
 40
0.0152168847
 40
0.0197258015
 40
0.0305042131
 40
0.0436114798
 40
0.0590180463
 40
0.0766875226
 40
0.0965788924
 40
0.1186437664
 40
0.1428305587
 40
0.1690801068
 40
0.1973305283
 40
0.2275130044
 40
0.2595556403
 40
0.2933809986
 40
0.3660507836
 40
0.4448230863
 40
0.5289400226
 40
0.6175916474
 40
0.7099254491
 40
0.8050502783
 40
0.9020555645
 40
1.0
 40
1.0
 40
1.0
 40
1.0
 10
4.6272110687
 20
5.091477893
 30
0.0
 10
4.6272110687
 20
5.0914230319
 30
0.0
 10
4.6271441298
 20
5.0913586359
 30
0.0
 10
4.6270608113
 20
5.0913074277
 30
0.0
 10
4.6269665156
 20
5.0912592036
 30
0.0
 10
4.6268188885
 20
5.0912015597
 30
0.0
 10
4.6266047705
 20
5.0911352991
 30
0.0
 10
4.6263437935
 20
5.09106896
 30
0.0
 10
4.626035679
 20
5.0910023231
 30
0.0
 10
4.6255316312
 20
5.0909076638
 30
0.0
 10
4.624783108
 20
5.0907922066
 30
0.0
 10
4.6237432127
 20
5.0906596183
 30
0.0
 10
4.6225159553
 20
5.0905265585
 30
0.0
 10
4.6205080094
 20
5.0903372144
 30
0.0
 10
4.6175350825
 20
5.09010656
 30
0.0
 10
4.6134175025
 20
5.0898416075
 30
0.0
 10
4.6085750799
 20
5.0895756985
 30
0.0
 10
4.6030193982
 20
5.0893089692
 30
0.0
 10
4.596763846
 20
5.0890417786
 30
0.0
 10
4.5898233777
 20
5.0887742025
 30
0.0
 10
4.5822148038
 20
5.0885063907
 30
0.0
 10
4.5739563318
 20
5.0882383609
 30
0.0
 10
4.5650679576
 20
5.087970197
 30
0.0
 10
4.5555710036
 20
5.0877019025
 30
0.0
 10
4.5454884151
 20
5.0874335149
 30
0.0
 10
4.5309453331
 20
5.0870667375
 30
0.0
 10
4.5114959011
 20
5.0866118605
 30
0.0
 10
4.4867658654
 20
5.0860775356
 30
0.0
 10
4.4603572387
 20
5.0855427588
 30
0.0
 10
4.4325242664
 20
5.0850076286
 30
0.0
 10
4.4035351679
 20
5.0844722611
 30
0.0
 10
4.3736687194
 20
5.0839367212
 30
0.0
 10
4.3432130138
 20
5.0834010816
 30
0.0
 10
4.3227446593
 20
5.0830445294
 30
0.0
 10
4.3124611801
 20
5.082865393
 30
0.0
  0
ELLIPSE
  5
3C1
100
AcDbEntity
  8
0
100
AcDbEllipse
 62
7
  6
CONTINUOUS
 10
4.3693828969
 20
4.4384782609
 30
0.0
 11
0.0344217168
 21
0.0
 31
0.0
 40
0.5810285439
 41
-3.1415926536
 42
-1.5707963268
  0
ELLIPSE
  5
3C2
100
AcDbEntity
  8
0
100
AcDbEllipse
 62
7
  6
CONTINUOUS
 10
4.6099344257
 20
4.4384782609
 30
0.0
 11
0.0349195013
 21
0.0
 31
0.0
 40
0.5727458664
 41
-1.5707963268
 42
0.0
  0
ELLIPSE
  5
3C3
100
AcDbEntity
  8
0
100
AcDbEllipse
 62
7
  6
CONTINUOUS
 10
4.2555394633
 20
4.4384782609
 30
0.0
 11
0.0344217168
 21
0.0
 31
0.0
 40
0.5810285439
 41
-1.5707963268
 42
0.0
  0
ELLIPSE
  5
3C4
100
AcDbEntity
  8
0
100
AcDbEllipse
 62
7
  6
CONTINUOUS
 10
4.0149879346
 20
4.4384782609
 30
0.0
 11
0.0349195013
 21
0.0
 31
0.0
 40
0.5727458664
 41
-3.1415926536
 42
-1.5707963268
  0
ENDSEC
  0
SECTION
  2
OBJECTS
  0
DICTIONARY
  5
C
100
AcDbDictionary
280
0
281
1
  3
ACAD_GROUP
350
D
  3
ACAD_MLINESTYLE
350
17
  3
ACAD_LAYOUT
350
1A
  3
ACAD_PLOTSETTINGS
350
19
  3
ACAD_PLOTSTYLENAME
350
E
  0
DICTIONARY
  5
D
102
{ACAD_REACTORS
330
C
102
}
100
AcDbDictionary
280
0
281
1
  0
ACDBDICTIONARYWDFLT
  5
E
102
{ACAD_REACTORS
330
C
102
}
100
AcDbDictionary
281
1
  3
Normal
350
F
100
AcDbDictionaryWithDefault
340
F
  0
DICTIONARY
  5
17
102
{ACAD_REACTORS
330
C
102
}
100
AcDbDictionary
280
0
281
1
  3
Standard
350
18
  0
DICTIONARY
  5
19
102
{ACAD_REACTORS
330
C
102
}
100
AcDbDictionary
281
1
  0
DICTIONARY
  5
1A
102
{ACAD_REACTORS
330
C
102
}
100
AcDbDictionary
281
1
  3
Model
350
3C5
  3
Layout1
350
3C6
  0
ACDBPLACEHOLDER
  5
F
102
{ACAD_REACTORS
330
E
102
}
  0
MLINESTYLE
  5
18
102
{ACAD_REACTORS
330
17
102
}
100
AcDbMlineStyle
  2
STANDARD
 70
0
  3

 62
256
 51
90.0
 52
90.0
 71
2
 49
0.5
 62
256
  6
BYLAYER
 49
-0.5
 62
256
  6
BYLAYER
  0
LAYOUT
  5
3C5
102
{ACAD_REACTORS
330
1A
102
}
100
AcDbPlotSettings
  1

  2
none_device
  4
ANSI_A_(11.00_x_8.50_Inches)
  6

 40
0.0
 41
0.0
 42
0.0
 43
0.0
 44
279.4
 45
215.9
 46
0.0
 47
0.0
 48
0.0
 49
0.0
140
0.0
141
0.0
142
1.0
143
1.0
 70
1024
 72
0
 73
0
 74
0
  7

 75
0
147
1.0
148
0.0
149
0.0
100
AcDbLayout
  1
Model
 70
0
 71
0
 10
0.0
 20
0.0
 11
11.0
 21
8.5
 12
0.0
 22
0.0
 32
0.0
 14
0.0
 24
0.0
 34
0.0
 15
0.0
 25
0.0
 35
0.0
146
0.0
 13
0.0
 23
0.0
 33
0.0
 16
1.0
 26
0.0
 36
0.0
 17
0.0
 27
1.0
 37
0.0
 76
0
330
202
345
0
346
0
  0
LAYOUT
  5
3C6
102
{ACAD_REACTORS
330
1A
102
}
100
AcDbPlotSettings
  1

  2
none_device
  4
ANSI_A_(11.00_x_8.50_Inches)
  6

 40
0.0
 41
0.0
 42
0.0
 43
0.0
 44
279.4
 45
215.9
 46
0.0
 47
0.0
 48
0.0
 49
0.0
140
0.0
141
0.0
142
1.0
143
1.0
 70
0
 72
0
 73
0
 74
0
  7

 75
0
147
1.0
148
0.0
149
0.0
100
AcDbLayout
  1
Layout1
 70
0
 71
1
 10
0.0
 20
0.0
 11
11.0
 21
8.5
 12
0.0
 22
0.0
 32
0.0
 14
0.0
 24
0.0
 34
0.0
 15
0.0
 25
0.0
 35
0.0
146
0.0
 13
0.0
 23
0.0
 33
0.0
 16
1.0
 26
0.0
 36
0.0
 17
0.0
 27
1.0
 37
0.0
 76
0
330
203
345
0
346
0
  0
ENDSEC
  0
EOF
