999
DXF file: 3200-5711_top.dxf
999
Pro/ENGINEER 2018400 by Parametric Technology Corporation
  0
SECTION
  2
HEADER
  9
$ACADVER
  1
AC1027
  9
$DWGCODEPAGE
  3
ANSI_1252
  9
$EXTMAX
 10
11.0
 20
8.5
 30
0.0
  9
$EXTMIN
 10
0.0
 20
0.0
 30
0.0
  9
$LIMMIN
 10
0.0
 20
0.0
  9
$LIMMAX
 10
11.0
 20
8.5
  9
$VIEWCTR
 10
5.5
 20
4.25
  9
$VIEWSIZE
 40
8.5
  9
$CLAYER
  8
0
  9
$LTSCALE
 40
0.605
  9
$CELTYPE
  6
BYLAYER
  9
$DIMSCALE
 40
1.0
  9
$DIMASZ
 40
0.1
  9
$DIMEXO
 40
0.0625
  9
$DIMDLI
 40
0.418
  9
$DIMEXE
 40
0.125
  9
$DIMCEN
 40
0.099
  9
$DIMLFAC
 40
1.0
  9
$DIMBLK
  1
_FILLED
  9
$DIMALT
 70
1
  9
$DIMALTD
 70
1
  9
$DIMALTTD
 70
2
  9
$DIMALTF
 40
25.4
  9
$DIMTXT
 40
0.08
  9
$DIMTOL
 70
1
  9
$DIMLIM
 70
0
  9
$DIMTFAC
 40
1.0
  9
$DIMTP
 40
0.01
  9
$DIMTM
 40
0.01
  9
$DIMGAP
 40
0.09
  9
$DIMDSEP
 70
46
  9
$AUNITS
 70
0
  9
$PDMODE
 70
3
  9
$PDSIZE
 40
0.3125
  9
$HANDSEED
  5
22B
  9
$TILEMODE
 70
1
  9
$MEASUREMENT
 70
0
  9
$INSUNITS
 70
1
  0
ENDSEC
  0
SECTION
  2
CLASSES
  0
CLASS
  1
ACDBDICTIONARYWDFLT
  2
AcDbDictionaryWithDefault
  3
AutoCAD 2000
 90
0
 91
1
280
0
281
0
  0
CLASS
  1
ACDBPLACEHOLDER
  2
AcDbPlaceHolder
  3
AutoCAD 2000
 90
0
 91
1
280
0
281
0
  0
CLASS
  1
LAYOUT
  2
AcDbLayout
  3
AutoCAD 2000
 90
0
 91
0
280
0
281
0
  0
ENDSEC
  0
SECTION
  2
TABLES
  0
TABLE
  2
VPORT
  5
8
100
AcDbSymbolTable
 70
2
  0
VPORT
  5
1F4
100
AcDbSymbolTableRecord
100
AcDbViewportTableRecord
  2
*ACTIVE
 70
0
 10
0.0
 20
0.0
 11
1.0
 21
1.0
 12
5.5
 22
4.25
 13
0.0
 23
0.0
 14
1.0
 24
1.0
 15
0.0
 25
0.0
 16
0.0
 26
0.0
 36
1.0
 17
0.0
 27
0.0
 37
0.0
 40
8.5
 41
1.2941176471
 42
50.0
 43
0.0
 44
0.0
 50
0.0
 51
0.0
 71
0
 72
100
 73
1
 74
1
 75
0
 76
0
 77
0
 78
0
  0
ENDTAB
  0
TABLE
  2
LTYPE
  5
5
100
AcDbSymbolTable
 70
6
  0
LTYPE
  5
14
100
AcDbSymbolTableRecord
100
AcDbLinetypeTableRecord
  2
BYBLOCK
 70
0
  3

 72
65
 73
0
 40
0.0
  0
LTYPE
  5
15
100
AcDbSymbolTableRecord
100
AcDbLinetypeTableRecord
  2
BYLAYER
 70
0
  3

 72
65
 73
0
 40
0.0
  0
LTYPE
  5
16
100
AcDbSymbolTableRecord
100
AcDbLinetypeTableRecord
  2
CONTINUOUS
 70
64
  3
Solid line
 72
65
 73
0
 40
0.0
  0
LTYPE
  5
1F5
100
AcDbSymbolTableRecord
100
AcDbLinetypeTableRecord
  2
CENTER
 70
64
  3
____ _ ____ _ ____ _ ____ _ ____ _ ____ _ ____
 72
65
 73
4
 40
0.6
 49
0.375
 74
0
 49
-0.075
 74
0
 49
0.075
 74
0
 49
-0.075
 74
0
  0
LTYPE
  5
1F6
100
AcDbSymbolTableRecord
100
AcDbLinetypeTableRecord
  2
HIDDEN
 70
64
  3
- - - - - - - - - - - - - - - - - - - -
 72
65
 73
2
 40
0.2
 49
0.1
 74
0
 49
-0.1
 74
0
  0
LTYPE
  5
1F7
100
AcDbSymbolTableRecord
100
AcDbLinetypeTableRecord
  2
PHANTOM
 70
64
  3
_____ _ _ _____ _ _ _____ _ _ _____
 72
65
 73
6
 40
0.8
 49
0.45
 74
0
 49
-0.05
 74
0
 49
0.1
 74
0
 49
-0.05
 74
0
 49
0.1
 74
0
 49
-0.05
 74
0
  0
LTYPE
  5
1F8
100
AcDbSymbolTableRecord
100
AcDbLinetypeTableRecord
  2
DOT
 70
64
  3
. . . . . . . . . . . . . . . . . . . .
 72
65
 73
2
 40
0.2
 49
0.1
 74
0
 49
-0.1
 74
0
  0
LTYPE
  5
1F9
100
AcDbSymbolTableRecord
100
AcDbLinetypeTableRecord
  2
DASHED
 70
64
  3
- - - - - - - - - - - - - - - - - - - -
 72
65
 73
2
 40
0.2
 49
0.1
 74
0
 49
-0.1
 74
0
  0
ENDTAB
  0
TABLE
  2
LAYER
  5
2
100
AcDbSymbolTable
 70
36
  0
LAYER
  5
10
100
AcDbSymbolTableRecord
100
AcDbLayerTableRecord
  2
0
 70
0
 62
7
  6
CONTINUOUS
370
-3
390
F
  0
LAYER
  5
1FA
100
AcDbSymbolTableRecord
100
AcDbLayerTableRecord
  2
DEFAULT_1
 70
0
 62
7
  6
CENTER
370
-3
390
F
  0
LAYER
  5
1FB
100
AcDbSymbolTableRecord
100
AcDbLayerTableRecord
  2
DEFAULT_2
 70
0
 62
8
  6
HIDDEN
370
-3
390
F
  0
LAYER
  5
1FC
100
AcDbSymbolTableRecord
100
AcDbLayerTableRecord
  2
DEFAULT_3
 70
0
 62
7
  6
PHANTOM
370
-3
390
F
  0
LAYER
  5
1FD
100
AcDbSymbolTableRecord
100
AcDbLayerTableRecord
  2
DEFAULT_COORDINATE_SYSTEM
 70
0
 62
7
  6
CONTINUOUS
370
-3
390
F
  0
LAYER
  5
1FE
100
AcDbSymbolTableRecord
100
AcDbLayerTableRecord
  2
DEFAULT_DATUM_AXES
 70
0
 62
7
  6
CONTINUOUS
370
-3
390
F
  0
LAYER
  5
1FF
100
AcDbSymbolTableRecord
100
AcDbLayerTableRecord
  2
DEFAULT_DATUM_PLANES
 70
0
 62
7
  6
CONTINUOUS
370
-3
390
F
  0
ENDTAB
  0
TABLE
  2
STYLE
  5
3
100
AcDbSymbolTable
 70
1
  0
STYLE
  5
11
100
AcDbSymbolTableRecord
100
AcDbTextStyleTableRecord
  2
STANDARD
 70
0
 40
0.0
 41
0.8
 50
0.0
 71
0
 42
0.2
  3
txt
  4

  0
STYLE
  5
200
100
AcDbSymbolTableRecord
100
AcDbTextStyleTableRecord
  2
TEXTSTYLE_1
 70
0
 40
0.0
 41
0.8
 50
0.0
 71
0
 42
0.2
  3
gdt
  4

  0
ENDTAB
  0
TABLE
  2
VIEW
  5
6
100
AcDbSymbolTable
 70
0
  0
ENDTAB
  0
TABLE
  2
UCS
  5
7
100
AcDbSymbolTable
 70
0
  0
ENDTAB
  0
TABLE
  2
APPID
  5
9
100
AcDbSymbolTable
 70
1
  0
APPID
  5
201
100
AcDbSymbolTableRecord
100
AcDbRegAppTableRecord
  2
ACAD
 70
0
  0
ENDTAB
  0
TABLE
  2
BLOCK_RECORD
  5
1
100
AcDbSymbolTable
 70
0
  0
BLOCK_RECORD
  5
202
100
AcDbSymbolTableRecord
100
AcDbBlockTableRecord
  2
*Model_Space
  0
BLOCK_RECORD
  5
203
100
AcDbSymbolTableRecord
100
AcDbBlockTableRecord
  2
*Paper_Space
  0
BLOCK_RECORD
  5
204
100
AcDbSymbolTableRecord
100
AcDbBlockTableRecord
  2
_FILLED
  0
ENDTAB
  0
TABLE
  2
DIMSTYLE
  5
A
100
AcDbSymbolTable
 70
1
100
AcDbDimStyleTable
 71
0
  0
DIMSTYLE
105
205
100
AcDbSymbolTableRecord
100
AcDbDimStyleTableRecord
  2
STANDARD
 70
0
  3

  4

 40
1.0
 41
0.1
 42
0.0625
 43
0.38
 44
0.125
 45
0.0
 46
0.0
 47
0.01
 48
0.01
140
0.08
141
0.09
142
0.0
143
25.4
144
1.0
145
0.0
146
1.0
147
0.09
 71
1.0
 72
0.0
 73
1
 74
1
 75
0
 76
0
 77
0
 78
4
 79
1
170
1
171
1
172
0
173
0
174
0
175
0
176
0
177
0
178
0
270
2
179
2
271
2
272
2
273
2
274
2
275
0
280
0
281
0
282
0
283
1
284
4
285
0
286
0
287
3
288
0
340
11
278
46
341
204
342
204
343
204
344
204
  0
ENDTAB
  0
ENDSEC
  0
SECTION
  2
BLOCKS
  0
BLOCK
  5
20
100
AcDbEntity
  8
0
100
AcDbBlockBegin
  2
*Model_Space
 70
0
 10
0.0
 20
0.0
 30
0.0
  3
*Model_Space
  1

  0
ENDBLK
  5
21
100
AcDbEntity
  8
0
100
AcDbBlockEnd
  0
BLOCK
  5
1C
100
AcDbEntity
  8
0
100
AcDbBlockBegin
  2
*Paper_Space
 70
0
 10
0.0
 20
0.0
 30
0.0
  3
*Paper_Space
  1

  0
ENDBLK
  5
1D
100
AcDbEntity
  8
0
100
AcDbBlockEnd
  0
BLOCK
  5
206
100
AcDbEntity
  8
0
100
AcDbBlockBegin
  2
_FILLED
 70
64
 10
0.0
 20
0.0
  3
_FILLED
  1

  0
SOLID
  5
207
100
AcDbEntity
  8
0
  6
BYBLOCK
 62
0
100
AcDbTrace
 10
0.0
 20
0.0
 11
-1.0
 21
0.2
 12
-1.0
 22
-0.2
 13
-1.0
 23
-0.2
  0
ENDBLK
  5
208
100
AcDbEntity
  8
0
  6
BYBLOCK
 62
0
100
AcDbBlockEnd
  0
ENDSEC
  0
SECTION
  2
ENTITIES
  0
MTEXT
  5
209
100
AcDbEntity
  8
0
100
AcDbMText
 62
2
  6
CONTINUOUS
  7
STANDARD
 71
3
 72
1
 10
4.7044642857
 20
3.1112888379
 30
0.0
 11
1.0
 21
0.0
 31
0.0
 73
2
 44
0.9
  1
SCALE  .500
 40
0.08
 41
0.704
  0
LINE
  5
20A
100
AcDbEntity
  8
0
100
AcDbLine
 62
7
  6
CONTINUOUS
 10
0.0
 20
0.0
 11
0.0
 21
8.5
  0
LINE
  5
20B
100
AcDbEntity
  8
0
100
AcDbLine
 62
7
  6
CONTINUOUS
 10
0.0
 20
0.0
 11
11.0
 21
0.0
  0
LINE
  5
20C
100
AcDbEntity
  8
0
100
AcDbLine
 62
7
  6
CONTINUOUS
 10
0.0
 20
8.5
 11
11.0
 21
8.5
  0
LINE
  5
20D
100
AcDbEntity
  8
0
100
AcDbLine
 62
7
  6
CONTINUOUS
 10
11.0
 20
0.0
 11
11.0
 21
8.5
  0
CIRCLE
  5
20E
100
AcDbEntity
  8
0
100
AcDbCircle
 62
7
  6
CONTINUOUS
 10
4.4423894596
 20
4.2903532609
 40
0.53125
  0
CIRCLE
  5
20F
100
AcDbEntity
  8
0
100
AcDbCircle
 62
7
  6
CONTINUOUS
 10
4.4423894596
 20
4.2903532609
 40
0.5280915664
  0
CIRCLE
  5
210
100
AcDbEntity
  8
0
100
AcDbCircle
 62
7
  6
CONTINUOUS
 10
4.4423894596
 20
4.2903532609
 40
0.4405036286
  0
CIRCLE
  5
211
100
AcDbEntity
  8
0
100
AcDbCircle
 62
7
  6
CONTINUOUS
 10
4.4423894596
 20
4.2903532609
 40
0.4286620622
  0
CIRCLE
  5
212
100
AcDbEntity
  8
0
100
AcDbCircle
 62
7
  6
CONTINUOUS
 10
4.4423894596
 20
4.2903532609
 40
0.4173480229
  0
CIRCLE
  5
213
100
AcDbEntity
  8
0
100
AcDbCircle
 62
7
  6
CONTINUOUS
 10
4.4423894596
 20
4.2903532609
 40
0.40875
  0
CIRCLE
  5
214
100
AcDbEntity
  8
0
100
AcDbCircle
 62
7
  6
CONTINUOUS
 10
4.4423894596
 20
4.2903532609
 40
0.29375
  0
ARC
  5
215
100
AcDbEntity
  8
0
100
AcDbCircle
 62
7
  6
CONTINUOUS
 10
4.1413166712
 20
4.290426722
 40
0.2341958987
100
AcDbArc
 50
165.7526412899
 51
180.0179721861
  0
ARC
  5
216
100
AcDbEntity
  8
0
100
AcDbCircle
 62
7
  6
CONTINUOUS
 10
4.1413166712
 20
4.2902797997
 40
0.2341958987
100
AcDbArc
 50
179.9820278139
 51
194.2473587101
  0
SPLINE
  5
217
100
AcDbEntity
  8
0
100
AcDbSpline
 62
7
  6
CONTINUOUS
 70
0
 71
3
 72
15
 73
11
 74
0
 42
0.0000001
 43
0.0000001
 44
0.0000000001
 40
0.0
 40
0.0
 40
0.0
 40
0.0
 40
0.1228641554
 40
0.2465138961
 40
0.3708847098
 40
0.4958924099
 40
0.6214333282
 40
0.7473815861
 40
0.8736297516
 40
1.0
 40
1.0
 40
1.0
 40
1.0
 10
3.9313993255
 20
4.1451264471
 30
0.0
 10
3.9275657411
 20
4.1502109472
 30
0.0
 10
3.9203035173
 20
4.1607441335
 30
0.0
 10
3.91073769
 20
4.1774410066
 30
0.0
 10
3.9025263774
 20
4.1949678246
 30
0.0
 10
3.8957284531
 20
4.213193596
 30
0.0
 10
3.8903916412
 20
4.2319841184
 30
0.0
 10
3.8865522616
 20
4.2512024199
 30
0.0
 10
3.8842385833
 20
4.2707052965
 30
0.0
 10
3.8837229423
 20
4.2838037768
 30
0.0
 10
3.8837229423
 20
4.2903532609
 30
0.0
  0
SPLINE
  5
218
100
AcDbEntity
  8
0
100
AcDbSpline
 62
7
  6
CONTINUOUS
 70
0
 71
3
 72
21
 73
17
 74
0
 42
0.0000001
 43
0.0000001
 44
0.0000000001
 40
0.0
 40
0.0
 40
0.0
 40
0.0
 40
0.060137569
 40
0.1205696238
 40
0.1813251312
 40
0.2424258751
 40
0.3038862584
 40
0.365712673
 40
0.4279033119
 40
0.4904486185
 40
0.5533312612
 40
0.6165264465
 40
0.6800032933
 40
0.7437252024
 40
0.8716500238
 40
1.0
 40
1.0
 40
1.0
 40
1.0
 10
3.9548713252
 20
4.0792841944
 30
0.0
 10
3.9500932295
 20
4.0814342009
 30
0.0
 10
3.9406800366
 20
4.0861255903
 30
0.0
 10
3.9271192878
 20
4.0942595055
 30
0.0
 10
3.9141555353
 20
4.1034616426
 30
0.0
 10
3.9018595312
 20
4.1136784699
 30
0.0
 10
3.8902961334
 20
4.1248519704
 30
0.0
 10
3.8795269342
 20
4.1369199252
 30
0.0
 10
3.8696079516
 20
4.1498149385
 30
0.0
 10
3.8605907808
 20
4.1634659983
 30
0.0
 10
3.8525225643
 20
4.1777987757
 30
0.0
 10
3.8454442796
 20
4.192734816
 30
0.0
 10
3.8393924738
 20
4.2081944255
 30
0.0
 10
3.832726761
 20
4.2294148969
 30
0.0
 10
3.8271146693
 20
4.2568152316
 30
0.0
 10
3.8256129313
 20
4.279170664
 30
0.0
 10
3.8256129313
 20
4.2903532609
 30
0.0
  0
SPLINE
  5
219
100
AcDbEntity
  8
0
100
AcDbSpline
 62
7
  6
CONTINUOUS
 70
0
 71
3
 72
25
 73
21
 74
0
 42
0.0000001
 43
0.0000001
 44
0.0000000001
 40
0.0
 40
0.0
 40
0.0
 40
0.0
 40
0.0599400344
 40
0.0899706491
 40
0.1200491219
 40
0.1803694279
 40
0.2409940288
 40
0.2714498108
 40
0.3020038665
 40
0.3634106506
 40
0.4252671537
 40
0.4875916075
 40
0.550385474
 40
0.6136336293
 40
0.6773049831
 40
0.7413537396
 40
0.8057220141
 40
0.8703365483
 40
0.9351285682
 40
1.0
 40
1.0
 40
1.0
 40
1.0
 10
3.9624288896
 20
4.0626031237
 30
0.0
 10
3.9558633771
 20
4.0630788985
 30
0.0
 10
3.9460356313
 20
4.0643036465
 30
0.0
 10
3.9331132709
 20
4.0669377512
 30
0.0
 10
3.9203008537
 20
4.0702398451
 30
0.0
 10
3.9045751471
 20
4.075605661
 30
0.0
 10
3.8894334321
 20
4.0825462939
 30
0.0
 10
3.8777344689
 20
4.0890038905
 30
0.0
 10
3.8662954666
 20
4.0960762706
 30
0.0
 10
3.8525966448
 20
4.1060101422
 30
0.0
 10
3.8373030169
 20
4.1195286499
 30
0.0
 10
3.8232524736
 20
4.1345444357
 30
0.0
 10
3.810565381
 20
4.1509210534
 30
0.0
 10
3.7993482336
 20
4.1685123322
 30
0.0
 10
3.7896949005
 20
4.187162541
 30
0.0
 10
3.7816855381
 20
4.2067080258
 30
0.0
 10
3.775386803
 20
4.2269777672
 30
0.0
 10
3.7708496046
 20
4.2477966283
 30
0.0
 10
3.7681129199
 20
4.2689815441
 30
0.0
 10
3.7675029203
 20
4.2832289568
 30
0.0
 10
3.7675029203
 20
4.2903532609
 30
0.0
  0
SPLINE
  5
21A
100
AcDbEntity
  8
0
100
AcDbSpline
 62
7
  6
CONTINUOUS
 70
0
 71
3
 72
24
 73
20
 74
0
 42
0.0000001
 43
0.0000001
 44
0.0000000001
 40
0.0
 40
0.0
 40
0.0
 40
0.0
 40
0.0301314207
 40
0.0602396476
 40
0.1204185455
 40
0.180678157
 40
0.24113034
 40
0.3018780157
 40
0.36301051
 40
0.4245989906
 40
0.4866935885
 40
0.5493212776
 40
0.6124844169
 40
0.6761609599
 40
0.7403055363
 40
0.8048526724
 40
0.8697167846
 40
0.934803514
 40
1.0
 40
1.0
 40
1.0
 40
1.0
 10
3.9472182286
 20
4.0643283481
 30
0.0
 10
3.9435210707
 20
4.0637599706
 30
0.0
 10
3.9360943197
 20
4.0628392262
 30
0.0
 10
3.9211699767
 20
4.0618715474
 30
0.0
 10
3.9024387224
 20
4.0623076709
 30
0.0
 10
3.8801546838
 20
4.0654629229
 30
0.0
 10
3.8583201205
 20
4.071208597
 30
0.0
 10
3.8371938315
 20
4.0794719955
 30
0.0
 10
3.8170204959
 20
4.0901495603
 30
0.0
 10
3.7980309669
 20
4.1031098426
 30
0.0
 10
3.7804389853
 20
4.118196138
 30
0.0
 10
3.7644396872
 20
4.1352292775
 30
0.0
 10
3.7502081892
 20
4.1540101854
 30
0.0
 10
3.7378987049
 20
4.1743223591
 30
0.0
 10
3.7276433123
 20
4.1959342886
 30
0.0
 10
3.7195518615
 20
4.2186014602
 30
0.0
 10
3.7137098189
 20
4.2420702225
 30
0.0
 10
3.7101800039
 20
4.2660748499
 30
0.0
 10
3.7093929093
 20
4.2822596012
 30
0.0
 10
3.7093929093
 20
4.2903532609
 30
0.0
  0
SPLINE
  5
21B
100
AcDbEntity
  8
0
100
AcDbSpline
 62
7
  6
CONTINUOUS
 70
0
 71
3
 72
24
 73
20
 74
0
 42
0.0000001
 43
0.0000001
 44
0.0000000001
 40
0.0
 40
0.0
 40
0.0
 40
0.0
 40
0.0301314207
 40
0.0602396476
 40
0.1204185455
 40
0.180678157
 40
0.24113034
 40
0.3018780157
 40
0.36301051
 40
0.4245989906
 40
0.4866935885
 40
0.5493212776
 40
0.6124844169
 40
0.6761609599
 40
0.7403055363
 40
0.8048526724
 40
0.8697167846
 40
0.934803514
 40
1.0
 40
1.0
 40
1.0
 40
1.0
 10
3.8891082176
 20
4.0643283481
 30
0.0
 10
3.8854110597
 20
4.0637599706
 30
0.0
 10
3.8779843087
 20
4.0628392262
 30
0.0
 10
3.8630599657
 20
4.0618715474
 30
0.0
 10
3.8443287114
 20
4.0623076709
 30
0.0
 10
3.8220446729
 20
4.0654629229
 30
0.0
 10
3.8002101095
 20
4.071208597
 30
0.0
 10
3.7790838205
 20
4.0794719955
 30
0.0
 10
3.7589104849
 20
4.0901495603
 30
0.0
 10
3.7399209559
 20
4.1031098426
 30
0.0
 10
3.7223289743
 20
4.118196138
 30
0.0
 10
3.7063296762
 20
4.1352292775
 30
0.0
 10
3.6920981782
 20
4.1540101854
 30
0.0
 10
3.6797886939
 20
4.1743223591
 30
0.0
 10
3.6695333013
 20
4.1959342886
 30
0.0
 10
3.6614418505
 20
4.2186014602
 30
0.0
 10
3.6555998079
 20
4.2420702225
 30
0.0
 10
3.6520699929
 20
4.2660748499
 30
0.0
 10
3.6512828983
 20
4.2822596012
 30
0.0
 10
3.6512828983
 20
4.2903532609
 30
0.0
  0
SPLINE
  5
21C
100
AcDbEntity
  8
0
100
AcDbSpline
 62
7
  6
CONTINUOUS
 70
0
 71
3
 72
15
 73
11
 74
0
 42
0.0000001
 43
0.0000001
 44
0.0000000001
 40
0.0
 40
0.0
 40
0.0
 40
0.0
 40
0.1263705831
 40
0.2526189675
 40
0.3785673674
 40
0.504108333
 40
0.6291159706
 40
0.7534866432
 40
0.8771361512
 40
1.0
 40
1.0
 40
1.0
 40
1.0
 10
3.8837229423
 20
4.2903532609
 30
0.0
 10
3.8837229423
 20
4.2969030243
 30
0.0
 10
3.884238627
 20
4.3100020576
 30
0.0
 10
3.8865524997
 20
4.3295057402
 30
0.0
 10
3.8903921987
 20
4.3487248006
 30
0.0
 10
3.8957294445
 20
4.3675160207
 30
0.0
 10
3.9025279125
 20
4.3857424129
 30
0.0
 10
3.9107398697
 20
4.4032697613
 30
0.0
 10
3.9203064392
 20
4.4199670568
 30
0.0
 10
3.9275691984
 20
4.4305004637
 30
0.0
 10
3.9314030709
 20
4.4355850457
 30
0.0
  0
SPLINE
  5
21D
100
AcDbEntity
  8
0
100
AcDbSpline
 62
7
  6
CONTINUOUS
 70
0
 71
3
 72
21
 73
17
 74
0
 42
0.0000001
 43
0.0000001
 44
0.0000000001
 40
0.0
 40
0.0
 40
0.0
 40
0.0
 40
0.1283501987
 40
0.2562751219
 40
0.3199970411
 40
0.3834738784
 40
0.4466690448
 40
0.5095516533
 40
0.572096919
 40
0.6342875135
 40
0.6961138802
 40
0.7575742188
 40
0.8186749221
 40
0.8794303976
 40
0.9398624383
 40
1.0
 40
1.0
 40
1.0
 40
1.0
 10
3.8256129313
 20
4.2903532609
 30
0.0
 10
3.8256129313
 20
4.3015357785
 30
0.0
 10
3.827114648
 20
4.3238910416
 30
0.0
 10
3.8327266514
 20
4.3512911712
 30
0.0
 10
3.8393922616
 20
4.3725114783
 30
0.0
 10
3.8454439627
 20
4.3879709695
 30
0.0
 10
3.8525221292
 20
4.4029068985
 30
0.0
 10
3.8605902104
 20
4.4172395756
 30
0.0
 10
3.8696072169
 20
4.4308905585
 30
0.0
 10
3.8795260378
 20
4.4437855003
 30
0.0
 10
3.8902950461
 20
4.4558534172
 30
0.0
 10
3.9018582451
 20
4.4670269033
 30
0.0
 10
3.9141540581
 20
4.4772437228
 30
0.0
 10
3.9271175892
 20
4.4864459156
 30
0.0
 10
3.9406781378
 20
4.494579885
 30
0.0
 10
3.9500911937
 20
4.4992713364
 30
0.0
 10
3.9548692238
 20
4.5014213746
 30
0.0
  0
SPLINE
  5
21E
100
AcDbEntity
  8
0
100
AcDbSpline
 62
7
  6
CONTINUOUS
 70
0
 71
3
 72
25
 73
21
 74
0
 42
0.0000001
 43
0.0000001
 44
0.0000000001
 40
0.0
 40
0.0
 40
0.0
 40
0.0
 40
0.0648716075
 40
0.1296637437
 40
0.1942783636
 40
0.2586466755
 40
0.3226954319
 40
0.3863667576
 40
0.4496148561
 40
0.5124086471
 40
0.5747330094
 40
0.636589415
 40
0.6979961116
 40
0.7285501316
 40
0.7590058789
 40
0.8196304394
 40
0.8799507438
 40
0.9100292303
 40
0.9400598714
 40
1.0
 40
1.0
 40
1.0
 40
1.0
 10
3.7675029203
 20
4.2903532609
 30
0.0
 10
3.7675029203
 20
4.297477674
 30
0.0
 10
3.7681129381
 20
4.3117252985
 30
0.0
 10
3.7708497038
 20
4.3329105178
 30
0.0
 10
3.7753870304
 20
4.3537296534
 30
0.0
 10
3.7816859397
 20
4.3739996356
 30
0.0
 10
3.7896955138
 20
4.393545323
 30
0.0
 10
3.7993490879
 20
4.4121956953
 30
0.0
 10
3.8105665094
 20
4.4297870912
 30
0.0
 10
3.8232539027
 20
4.4461637758
 30
0.0
 10
3.837304766
 20
4.461179579
 30
0.0
 10
3.8525987288
 20
4.4746980493
 30
0.0
 10
3.8662978219
 20
4.4846318724
 30
0.0
 10
3.8777370724
 20
4.4917041399
 30
0.0
 10
3.8894362542
 20
4.498161663
 30
0.0
 10
3.9045782754
 20
4.5051021202
 30
0.0
 10
3.9203042789
 20
4.5104676978
 30
0.0
 10
3.9331169142
 20
4.5137696341
 30
0.0
 10
3.9460395136
 20
4.5164034704
 30
0.0
 10
3.955867416
 20
4.5176280814
 30
0.0
 10
3.9624330331
 20
4.5181037039
 30
0.0
  0
SPLINE
  5
21F
100
AcDbEntity
  8
0
100
AcDbSpline
 62
7
  6
CONTINUOUS
 70
0
 71
3
 72
24
 73
20
 74
0
 42
0.0000001
 43
0.0000001
 44
0.0000000001
 40
0.0
 40
0.0
 40
0.0
 40
0.0
 40
0.0651962187
 40
0.1302826624
 40
0.1951465271
 40
0.2596934709
 40
0.3238379501
 40
0.3875144987
 40
0.4506777524
 40
0.5133056512
 40
0.5754005321
 40
0.6369893373
 40
0.6981221521
 40
0.7588701042
 40
0.8193224596
 40
0.8795820869
 40
0.9397607969
 40
0.9698688334
 40
1.0
 40
1.0
 40
1.0
 40
1.0
 10
3.7093929093
 20
4.2903532609
 30
0.0
 10
3.7093929093
 20
4.2984455891
 30
0.0
 10
3.7101797444
 20
4.3146276721
 30
0.0
 10
3.7137083985
 20
4.3386284236
 30
0.0
 10
3.7195485247
 20
4.3620935585
 30
0.0
 10
3.727637346
 20
4.3847574841
 30
0.0
 10
3.7378894455
 20
4.4063666739
 30
0.0
 10
3.7501950465
 20
4.4266767316
 30
0.0
 10
3.7644221557
 20
4.4454562538
 30
0.0
 10
3.7804166601
 20
4.4624888333
 30
0.0
 10
3.7980035584
 20
4.4775754741
 30
0.0
 10
3.8169878422
 20
4.4905370708
 30
0.0
 10
3.837155911
 20
4.5012169633
 30
0.0
 10
3.8582770599
 20
4.5094837216
 30
0.0
 10
3.8801067641
 20
4.5152337823
 30
0.0
 10
3.9023863771
 20
4.5183943968
 30
0.0
 10
3.9211144432
 20
4.5188357909
 30
0.0
 10
3.9360365963
 20
4.5178726749
 30
0.0
 10
3.9434623845
 20
4.5169543898
 30
0.0
 10
3.9471590955
 20
4.516387263
 30
0.0
  0
SPLINE
  5
220
100
AcDbEntity
  8
0
100
AcDbSpline
 62
7
  6
CONTINUOUS
 70
0
 71
3
 72
24
 73
20
 74
0
 42
0.0000001
 43
0.0000001
 44
0.0000000001
 40
0.0
 40
0.0
 40
0.0
 40
0.0
 40
0.0651962187
 40
0.1302826624
 40
0.1951465271
 40
0.2596934709
 40
0.3238379501
 40
0.3875144987
 40
0.4506777524
 40
0.5133056512
 40
0.5754005321
 40
0.6369893373
 40
0.6981221521
 40
0.7588701042
 40
0.8193224596
 40
0.8795820869
 40
0.9397607969
 40
0.9698688334
 40
1.0
 40
1.0
 40
1.0
 40
1.0
 10
3.6512828983
 20
4.2903532609
 30
0.0
 10
3.6512828983
 20
4.2984455891
 30
0.0
 10
3.6520697334
 20
4.3146276721
 30
0.0
 10
3.6555983875
 20
4.3386284236
 30
0.0
 10
3.6614385137
 20
4.3620935585
 30
0.0
 10
3.669527335
 20
4.3847574841
 30
0.0
 10
3.6797794345
 20
4.4063666739
 30
0.0
 10
3.6920850355
 20
4.4266767316
 30
0.0
 10
3.7063121447
 20
4.4454562538
 30
0.0
 10
3.7223066492
 20
4.4624888333
 30
0.0
 10
3.7398935474
 20
4.4775754741
 30
0.0
 10
3.7588778312
 20
4.4905370708
 30
0.0
 10
3.7790459
 20
4.5012169633
 30
0.0
 10
3.8001670489
 20
4.5094837216
 30
0.0
 10
3.8219967531
 20
4.5152337823
 30
0.0
 10
3.8442763661
 20
4.5183943968
 30
0.0
 10
3.8630044322
 20
4.5188357909
 30
0.0
 10
3.8779265853
 20
4.5178726749
 30
0.0
 10
3.8853523735
 20
4.5169543898
 30
0.0
 10
3.8890490846
 20
4.516387263
 30
0.0
  0
SPLINE
  5
221
100
AcDbEntity
  8
0
100
AcDbSpline
 62
7
  6
CONTINUOUS
 70
0
 71
3
 72
26
 73
22
 74
0
 42
0.0000001
 43
0.0000001
 44
0.0000000001
 40
0.0
 40
0.0
 40
0.0
 40
0.0
 40
0.059323726
 40
0.0890876
 40
0.1189280021
 40
0.1788603352
 40
0.2392079113
 40
0.2695636343
 40
0.3000426546
 40
0.3613719028
 40
0.4232349586
 40
0.4856378386
 40
0.5170462949
 40
0.5485842287
 40
0.6120183023
 40
0.6759124196
 40
0.7402120293
 40
0.8048505513
 40
0.8697481047
 40
0.934834702
 40
1.0
 40
1.0
 40
1.0
 40
1.0
 10
3.89656727
 20
4.0793867639
 30
0.0
 10
3.890917039
 20
4.0803559127
 30
0.0
 10
3.8824954918
 20
4.0822260907
 30
0.0
 10
3.8714827958
 20
4.0855233395
 30
0.0
 10
3.8605843791
 20
4.0893644321
 30
0.0
 10
3.8472621805
 20
4.09516454
 30
0.0
 10
3.8345025005
 20
4.1022174503
 30
0.0
 10
3.8246691703
 20
4.1085833658
 30
0.0
 10
3.8150619643
 20
4.1154501056
 30
0.0
 10
3.8035851337
 20
4.1249089112
 30
0.0
 10
3.7908082588
 20
4.1375274069
 30
0.0
 10
3.7810648673
 20
4.1490168518
 30
0.0
 10
3.7738450491
 20
4.1587471541
 30
0.0
 10
3.7669940401
 20
4.1688612855
 30
0.0
 10
3.7592072244
 20
4.1821151675
 30
0.0
 10
3.7511913379
 20
4.1988315256
 30
0.0
 10
3.7445459049
 20
4.2162633966
 30
0.0
 10
3.7393234238
 20
4.234273444
 30
0.0
 10
3.7355632451
 20
4.2527223003
 30
0.0
 10
3.7332961679
 20
4.2714632977
 30
0.0
 10
3.732790751
 20
4.2840560164
 30
0.0
 10
3.732790751
 20
4.2903532609
 30
0.0
  0
SPLINE
  5
222
100
AcDbEntity
  8
0
100
AcDbSpline
 62
7
  6
CONTINUOUS
 70
0
 71
3
 72
26
 73
22
 74
0
 42
0.0000001
 43
0.0000001
 44
0.0000000001
 40
0.0
 40
0.0
 40
0.0
 40
0.0
 40
0.065165298
 40
0.1302518953
 40
0.1951494487
 40
0.2597879707
 40
0.3240875804
 40
0.3879816977
 40
0.4514157713
 40
0.4829537051
 40
0.5143621614
 40
0.5767650414
 40
0.6386280972
 40
0.6999573454
 40
0.7304363657
 40
0.7607920887
 40
0.8211396648
 40
0.8810719979
 40
0.9109124
 40
0.940676274
 40
1.0
 40
1.0
 40
1.0
 40
1.0
 10
3.6746807401
 20
4.2903532609
 30
0.0
 10
3.6746807401
 20
4.2840560164
 30
0.0
 10
3.6751861569
 20
4.2714632977
 30
0.0
 10
3.6774532341
 20
4.2527223003
 30
0.0
 10
3.6812134129
 20
4.234273444
 30
0.0
 10
3.6864358939
 20
4.2162633966
 30
0.0
 10
3.6930813269
 20
4.1988315256
 30
0.0
 10
3.7010972134
 20
4.1821151675
 30
0.0
 10
3.7088840291
 20
4.1688612855
 30
0.0
 10
3.7157350381
 20
4.1587471541
 30
0.0
 10
3.7229548563
 20
4.1490168518
 30
0.0
 10
3.7326982478
 20
4.1375274069
 30
0.0
 10
3.7454751227
 20
4.1249089112
 30
0.0
 10
3.7569519533
 20
4.1154501056
 30
0.0
 10
3.7665591593
 20
4.1085833658
 30
0.0
 10
3.7763924895
 20
4.1022174503
 30
0.0
 10
3.7891521695
 20
4.09516454
 30
0.0
 10
3.8024743681
 20
4.0893644321
 30
0.0
 10
3.8133727849
 20
4.0855233395
 30
0.0
 10
3.8243854808
 20
4.0822260907
 30
0.0
 10
3.832807028
 20
4.0803559127
 30
0.0
 10
3.838457259
 20
4.0793867639
 30
0.0
  0
SPLINE
  5
223
100
AcDbEntity
  8
0
100
AcDbSpline
 62
7
  6
CONTINUOUS
 70
0
 71
3
 72
26
 73
22
 74
0
 42
0.0000001
 43
0.0000001
 44
0.0000000001
 40
0.0
 40
0.0
 40
0.0
 40
0.0
 40
0.0651654353
 40
0.1302521607
 40
0.1951498287
 40
0.2597884447
 40
0.324088122
 40
0.3879822776
 40
0.4514163582
 40
0.4829542844
 40
0.5143627256
 40
0.5767655531
 40
0.6386285324
 40
0.6999576875
 40
0.7304366586
 40
0.7607923317
 40
0.8211398103
 40
0.8810720614
 40
0.9109124333
 40
0.9406762857
 40
1.0
 40
1.0
 40
1.0
 40
1.0
 10
3.732790751
 20
4.2903532609
 30
0.0
 10
3.732790751
 20
4.2966507592
 30
0.0
 10
3.7332962086
 20
4.3092439853
 30
0.0
 10
3.7355634682
 20
4.3279857259
 30
0.0
 10
3.7393239479
 20
4.3464352901
 30
0.0
 10
3.7445468434
 20
4.364445993
 30
0.0
 10
3.7511927984
 20
4.3818784506
 30
0.0
 10
3.7592093061
 20
4.3985953107
 30
0.0
 10
3.7669967163
 20
4.411849531
 30
0.0
 10
3.7738482398
 20
4.4219638762
 30
0.0
 10
3.7810685926
 20
4.4316943496
 30
0.0
 10
3.7908126933
 20
4.4431839322
 30
0.0
 10
3.8035904732
 20
4.4558024605
 30
0.0
 10
3.8150680906
 20
4.4652611751
 30
0.0
 10
3.8246759351
 20
4.4721277664
 30
0.0
 10
3.8345099044
 20
4.4784934839
 30
0.0
 10
3.8472703874
 20
4.4855460515
 30
0.0
 10
3.8605933786
 20
4.4913456846
 30
0.0
 10
3.8714924113
 20
4.4951863202
 30
0.0
 10
3.8825057115
 20
4.4984830621
 30
0.0
 10
3.8909276922
 20
4.5003528009
 30
0.0
 10
3.8965781988
 20
4.501321632
 30
0.0
  0
SPLINE
  5
224
100
AcDbEntity
  8
0
100
AcDbSpline
 62
7
  6
CONTINUOUS
 70
0
 71
3
 72
26
 73
22
 74
0
 42
0.0000001
 43
0.0000001
 44
0.0000000001
 40
0.0
 40
0.0
 40
0.0
 40
0.0
 40
0.0651654353
 40
0.1302521607
 40
0.1951498287
 40
0.2597884447
 40
0.324088122
 40
0.3879822776
 40
0.4514163582
 40
0.4829542844
 40
0.5143627256
 40
0.5767655531
 40
0.6386285324
 40
0.6999576875
 40
0.7304366586
 40
0.7607923317
 40
0.8211398103
 40
0.8810720614
 40
0.9109124333
 40
0.9406762857
 40
1.0
 40
1.0
 40
1.0
 40
1.0
 10
3.790900762
 20
4.2903532609
 30
0.0
 10
3.790900762
 20
4.2966507592
 30
0.0
 10
3.7914062196
 20
4.3092439853
 30
0.0
 10
3.7936734792
 20
4.3279857259
 30
0.0
 10
3.7974339589
 20
4.3464352901
 30
0.0
 10
3.8026568544
 20
4.364445993
 30
0.0
 10
3.8093028094
 20
4.3818784506
 30
0.0
 10
3.817319317
 20
4.3985953107
 30
0.0
 10
3.8251067272
 20
4.411849531
 30
0.0
 10
3.8319582508
 20
4.4219638762
 30
0.0
 10
3.8391786035
 20
4.4316943496
 30
0.0
 10
3.8489227043
 20
4.4431839322
 30
0.0
 10
3.8617004842
 20
4.4558024605
 30
0.0
 10
3.8731781016
 20
4.4652611751
 30
0.0
 10
3.882785946
 20
4.4721277664
 30
0.0
 10
3.8926199154
 20
4.4784934839
 30
0.0
 10
3.9053803984
 20
4.4855460515
 30
0.0
 10
3.9187033896
 20
4.4913456846
 30
0.0
 10
3.9296024223
 20
4.4951863202
 30
0.0
 10
3.9406157225
 20
4.4984830621
 30
0.0
 10
3.9490377032
 20
4.5003528009
 30
0.0
 10
3.9546882097
 20
4.501321632
 30
0.0
  0
SPLINE
  5
225
100
AcDbEntity
  8
0
100
AcDbSpline
 62
7
  6
CONTINUOUS
 70
0
 71
3
 72
20
 73
16
 74
0
 42
0.0000001
 43
0.0000001
 44
0.0000000001
 40
0.0
 40
0.0
 40
0.0
 40
0.0
 40
0.1282873327
 40
0.1923401839
 40
0.2562475688
 40
0.3834169073
 40
0.5095332807
 40
0.5721457208
 40
0.6344073155
 40
0.6962996974
 40
0.7578101018
 40
0.818932227
 40
0.8796656516
 40
0.9400172248
 40
1.0
 40
1.0
 40
1.0
 40
1.0
 10
3.849010773
 20
4.2903532609
 30
0.0
 10
3.849010773
 20
4.2995611415
 30
0.0
 10
3.849821983
 20
4.3133845164
 30
0.0
 10
3.8525159219
 20
4.3315861584
 30
0.0
 10
3.8562629448
 20
4.3495206459
 30
0.0
 10
3.8628946808
 20
4.3713596754
 30
0.0
 10
3.8720659516
 20
4.3921613205
 30
0.0
 10
3.8808252542
 20
4.4079144604
 30
0.0
 10
3.888058466
 20
4.4192115311
 30
0.0
 10
3.8959388826
 20
4.4299688045
 30
0.0
 10
3.9044345285
 20
4.4401411676
 30
0.0
 10
3.9135089592
 20
4.4496864501
 30
0.0
 10
3.9231253301
 20
4.4585638507
 30
0.0
 10
3.933241868
 20
4.4667365713
 30
0.0
 10
3.9403145684
 20
4.4717073804
 30
0.0
 10
3.9439187721
 20
4.4740622141
 30
0.0
  0
SPLINE
  5
226
100
AcDbEntity
  8
0
100
AcDbSpline
 62
7
  6
CONTINUOUS
 70
0
 71
3
 72
20
 73
16
 74
0
 42
0.0000001
 43
0.0000001
 44
0.0000000001
 40
0.0
 40
0.0
 40
0.0
 40
0.0
 40
0.0599827752
 40
0.1203343484
 40
0.181067773
 40
0.2421898982
 40
0.3037003026
 40
0.3655926845
 40
0.4278542792
 40
0.4904667193
 40
0.6165830927
 40
0.7437524312
 40
0.8076598161
 40
0.8717126673
 40
1.0
 40
1.0
 40
1.0
 40
1.0
 10
3.9439187721
 20
4.1066443076
 30
0.0
 10
3.9403145684
 20
4.1089991414
 30
0.0
 10
3.933241868
 20
4.1139699505
 30
0.0
 10
3.9231253301
 20
4.122142671
 30
0.0
 10
3.9135089592
 20
4.1310200717
 30
0.0
 10
3.9044345285
 20
4.1405653542
 30
0.0
 10
3.8959388826
 20
4.1507377172
 30
0.0
 10
3.888058466
 20
4.1614949906
 30
0.0
 10
3.8808252542
 20
4.1727920614
 30
0.0
 10
3.8720659516
 20
4.1885452013
 30
0.0
 10
3.8628946808
 20
4.2093468464
 30
0.0
 10
3.8562629448
 20
4.2311858758
 30
0.0
 10
3.8525159219
 20
4.2491203634
 30
0.0
 10
3.849821983
 20
4.2673220053
 30
0.0
 10
3.849010773
 20
4.2811453802
 30
0.0
 10
3.849010773
 20
4.2903532609
 30
0.0
  0
SPLINE
  5
227
100
AcDbEntity
  8
0
100
AcDbSpline
 62
7
  6
CONTINUOUS
 70
0
 71
3
 72
26
 73
22
 74
0
 42
0.0000001
 43
0.0000001
 44
0.0000000001
 40
0.0
 40
0.0
 40
0.0
 40
0.0
 40
0.059323726
 40
0.0890876
 40
0.1189280021
 40
0.1788603352
 40
0.2392079113
 40
0.2695636343
 40
0.3000426546
 40
0.3613719028
 40
0.4232349586
 40
0.4856378386
 40
0.5170462949
 40
0.5485842287
 40
0.6120183023
 40
0.6759124196
 40
0.7402120293
 40
0.8048505513
 40
0.8697481047
 40
0.934834702
 40
1.0
 40
1.0
 40
1.0
 40
1.0
 10
3.954677281
 20
4.0793867639
 30
0.0
 10
3.94902705
 20
4.0803559127
 30
0.0
 10
3.9406055028
 20
4.0822260907
 30
0.0
 10
3.9295928068
 20
4.0855233395
 30
0.0
 10
3.9186943901
 20
4.0893644321
 30
0.0
 10
3.9053721914
 20
4.09516454
 30
0.0
 10
3.8926125115
 20
4.1022174503
 30
0.0
 10
3.8827791813
 20
4.1085833658
 30
0.0
 10
3.8731719753
 20
4.1154501056
 30
0.0
 10
3.8616951446
 20
4.1249089112
 30
0.0
 10
3.8489182698
 20
4.1375274069
 30
0.0
 10
3.8391748783
 20
4.1490168518
 30
0.0
 10
3.8319550601
 20
4.1587471541
 30
0.0
 10
3.8251040511
 20
4.1688612855
 30
0.0
 10
3.8173172354
 20
4.1821151675
 30
0.0
 10
3.8093013489
 20
4.1988315256
 30
0.0
 10
3.8026559158
 20
4.2162633966
 30
0.0
 10
3.7974334348
 20
4.234273444
 30
0.0
 10
3.793673256
 20
4.2527223003
 30
0.0
 10
3.7914061789
 20
4.2714632977
 30
0.0
 10
3.790900762
 20
4.2840560164
 30
0.0
 10
3.790900762
 20
4.2903532609
 30
0.0
  0
SPLINE
  5
228
100
AcDbEntity
  8
0
100
AcDbSpline
 62
7
  6
CONTINUOUS
 70
0
 71
3
 72
26
 73
22
 74
0
 42
0.0000001
 43
0.0000001
 44
0.0000000001
 40
0.0
 40
0.0
 40
0.0
 40
0.0
 40
0.0593237143
 40
0.0890875667
 40
0.1189279386
 40
0.1788601897
 40
0.2392076683
 40
0.2695633414
 40
0.3000423125
 40
0.3613714676
 40
0.4232344469
 40
0.4856372744
 40
0.5170457156
 40
0.5485836418
 40
0.6120177224
 40
0.675911878
 40
0.7402115553
 40
0.8048501713
 40
0.8697478393
 40
0.9348345647
 40
1.0
 40
1.0
 40
1.0
 40
1.0
 10
3.8384681878
 20
4.501321632
 30
0.0
 10
3.8328176812
 20
4.5003528009
 30
0.0
 10
3.8243957005
 20
4.4984830621
 30
0.0
 10
3.8133824003
 20
4.4951863202
 30
0.0
 10
3.8024833676
 20
4.4913456846
 30
0.0
 10
3.7891603764
 20
4.4855460515
 30
0.0
 10
3.7763998934
 20
4.4784934839
 30
0.0
 10
3.7665659241
 20
4.4721277664
 30
0.0
 10
3.7569580796
 20
4.4652611751
 30
0.0
 10
3.7454804622
 20
4.4558024605
 30
0.0
 10
3.7327026823
 20
4.4431839322
 30
0.0
 10
3.7229585816
 20
4.4316943496
 30
0.0
 10
3.7157382289
 20
4.4219638762
 30
0.0
 10
3.7088867053
 20
4.411849531
 30
0.0
 10
3.7010992951
 20
4.3985953107
 30
0.0
 10
3.6930827874
 20
4.3818784506
 30
0.0
 10
3.6864368324
 20
4.364445993
 30
0.0
 10
3.6812139369
 20
4.3464352901
 30
0.0
 10
3.6774534572
 20
4.3279857259
 30
0.0
 10
3.6751861976
 20
4.3092439853
 30
0.0
 10
3.6746807401
 20
4.2966507592
 30
0.0
 10
3.6746807401
 20
4.2903532609
 30
0.0
  0
ENDSEC
  0
SECTION
  2
OBJECTS
  0
DICTIONARY
  5
C
100
AcDbDictionary
280
0
281
1
  3
ACAD_GROUP
350
D
  3
ACAD_MLINESTYLE
350
17
  3
ACAD_LAYOUT
350
1A
  3
ACAD_PLOTSETTINGS
350
19
  3
ACAD_PLOTSTYLENAME
350
E
  0
DICTIONARY
  5
D
102
{ACAD_REACTORS
330
C
102
}
100
AcDbDictionary
280
0
281
1
  0
ACDBDICTIONARYWDFLT
  5
E
102
{ACAD_REACTORS
330
C
102
}
100
AcDbDictionary
281
1
  3
Normal
350
F
100
AcDbDictionaryWithDefault
340
F
  0
DICTIONARY
  5
17
102
{ACAD_REACTORS
330
C
102
}
100
AcDbDictionary
280
0
281
1
  3
Standard
350
18
  0
DICTIONARY
  5
19
102
{ACAD_REACTORS
330
C
102
}
100
AcDbDictionary
281
1
  0
DICTIONARY
  5
1A
102
{ACAD_REACTORS
330
C
102
}
100
AcDbDictionary
281
1
  3
Model
350
229
  3
Layout1
350
22A
  0
ACDBPLACEHOLDER
  5
F
102
{ACAD_REACTORS
330
E
102
}
  0
MLINESTYLE
  5
18
102
{ACAD_REACTORS
330
17
102
}
100
AcDbMlineStyle
  2
STANDARD
 70
0
  3

 62
256
 51
90.0
 52
90.0
 71
2
 49
0.5
 62
256
  6
BYLAYER
 49
-0.5
 62
256
  6
BYLAYER
  0
LAYOUT
  5
229
102
{ACAD_REACTORS
330
1A
102
}
100
AcDbPlotSettings
  1

  2
none_device
  4
ANSI_A_(11.00_x_8.50_Inches)
  6

 40
0.0
 41
0.0
 42
0.0
 43
0.0
 44
279.4
 45
215.9
 46
0.0
 47
0.0
 48
0.0
 49
0.0
140
0.0
141
0.0
142
1.0
143
1.0
 70
1024
 72
0
 73
0
 74
0
  7

 75
0
147
1.0
148
0.0
149
0.0
100
AcDbLayout
  1
Model
 70
0
 71
0
 10
0.0
 20
0.0
 11
11.0
 21
8.5
 12
0.0
 22
0.0
 32
0.0
 14
0.0
 24
0.0
 34
0.0
 15
0.0
 25
0.0
 35
0.0
146
0.0
 13
0.0
 23
0.0
 33
0.0
 16
1.0
 26
0.0
 36
0.0
 17
0.0
 27
1.0
 37
0.0
 76
0
330
202
345
0
346
0
  0
LAYOUT
  5
22A
102
{ACAD_REACTORS
330
1A
102
}
100
AcDbPlotSettings
  1

  2
none_device
  4
ANSI_A_(11.00_x_8.50_Inches)
  6

 40
0.0
 41
0.0
 42
0.0
 43
0.0
 44
279.4
 45
215.9
 46
0.0
 47
0.0
 48
0.0
 49
0.0
140
0.0
141
0.0
142
1.0
143
1.0
 70
0
 72
0
 73
0
 74
0
  7

 75
0
147
1.0
148
0.0
149
0.0
100
AcDbLayout
  1
Layout1
 70
0
 71
1
 10
0.0
 20
0.0
 11
11.0
 21
8.5
 12
0.0
 22
0.0
 32
0.0
 14
0.0
 24
0.0
 34
0.0
 15
0.0
 25
0.0
 35
0.0
146
0.0
 13
0.0
 23
0.0
 33
0.0
 16
1.0
 26
0.0
 36
0.0
 17
0.0
 27
1.0
 37
0.0
 76
0
330
203
345
0
346
0
  0
ENDSEC
  0
EOF
