999
DXF file: E:\BT Custom\CADOUTPUT\_FRONT.dxf
999
Pro/ENGINEER 2018400 by Parametric Technology Corporation
  0
SECTION
  2
HEADER
  9
$ACADVER
  1
AC1018
  9
$DWGCODEPAGE
  3
ANSI_1252
  9
$EXTMAX
 10
22.0
 20
17.0
 30
0.0
  9
$EXTMIN
 10
0.0
 20
0.0
 30
0.0
  9
$LIMMIN
 10
0.0
 20
0.0
  9
$LIMMAX
 10
22.0
 20
17.0
  9
$VIEWCTR
 10
11.0
 20
8.5
  9
$VIEWSIZE
 40
17.0
  9
$CLAYER
  8
0
  9
$LTSCALE
 40
1.21
  9
$CELTYPE
  6
BYLAYER
  9
$DIMSCALE
 40
1.0
  9
$DIMASZ
 40
0.1
  9
$DIMEXO
 40
0.0625
  9
$DIMDLI
 40
0.836
  9
$DIMEXE
 40
0.125
  9
$DIMCEN
 40
0.198
  9
$DIMLFAC
 40
1.0
  9
$DIMBLK
  1
_FILLED
  9
$DIMALT
 70
1
  9
$DIMALTD
 70
2
  9
$DIMALTTD
 70
2
  9
$DIMALTF
 40
25.4
  9
$DIMTXT
 40
0.08
  9
$DIMTOL
 70
1
  9
$DIMLIM
 70
0
  9
$DIMTFAC
 40
1.0
  9
$DIMTP
 40
0.001
  9
$DIMTM
 40
0.001
  9
$DIMGAP
 40
0.09
  9
$DIMDSEP
 70
46
  9
$AUNITS
 70
0
  9
$PDMODE
 70
3
  9
$PDSIZE
 40
0.06
  9
$HANDSEED
  5
237
  9
$TILEMODE
 70
1
  9
$MEASUREMENT
 70
0
  9
$INSUNITS
 70
1
  0
ENDSEC
  0
SECTION
  2
CLASSES
  0
CLASS
  1
ACDBDICTIONARYWDFLT
  2
AcDbDictionaryWithDefault
  3
AutoCAD 2000
 90
0
 91
1
280
0
281
0
  0
CLASS
  1
ACDBPLACEHOLDER
  2
AcDbPlaceHolder
  3
AutoCAD 2000
 90
0
 91
1
280
0
281
0
  0
CLASS
  1
LAYOUT
  2
AcDbLayout
  3
AutoCAD 2000
 90
0
 91
0
280
0
281
0
  0
ENDSEC
  0
SECTION
  2
TABLES
  0
TABLE
  2
VPORT
  5
8
100
AcDbSymbolTable
 70
2
  0
VPORT
  5
1F4
100
AcDbSymbolTableRecord
100
AcDbViewportTableRecord
  2
*ACTIVE
 70
0
 10
0.0
 20
0.0
 11
1.0
 21
1.0
 12
11.0
 22
8.5
 13
0.0
 23
0.0
 14
1.0
 24
1.0
 15
0.0
 25
0.0
 16
0.0
 26
0.0
 36
1.0
 17
0.0
 27
0.0
 37
0.0
 40
17.0
 41
1.2941176471
 42
50.0
 43
0.0
 44
0.0
 50
0.0
 51
0.0
 71
0
 72
100
 73
1
 74
1
 75
0
 76
0
 77
0
 78
0
  0
ENDTAB
  0
TABLE
  2
LTYPE
  5
5
100
AcDbSymbolTable
 70
6
  0
LTYPE
  5
14
100
AcDbSymbolTableRecord
100
AcDbLinetypeTableRecord
  2
BYBLOCK
 70
0
  3

 72
65
 73
0
 40
0.0
  0
LTYPE
  5
15
100
AcDbSymbolTableRecord
100
AcDbLinetypeTableRecord
  2
BYLAYER
 70
0
  3

 72
65
 73
0
 40
0.0
  0
LTYPE
  5
16
100
AcDbSymbolTableRecord
100
AcDbLinetypeTableRecord
  2
CONTINUOUS
 70
64
  3
Solid line
 72
65
 73
0
 40
0.0
  0
LTYPE
  5
1F5
100
AcDbSymbolTableRecord
100
AcDbLinetypeTableRecord
  2
CENTER
 70
64
  3
____ _ ____ _ ____ _ ____ _ ____ _ ____ _ ____
 72
65
 73
4
 40
0.6
 49
0.375
 74
0
 49
-0.075
 74
0
 49
0.075
 74
0
 49
-0.075
 74
0
  0
LTYPE
  5
1F6
100
AcDbSymbolTableRecord
100
AcDbLinetypeTableRecord
  2
HIDDEN
 70
64
  3
- - - - - - - - - - - - - - - - - - - -
 72
65
 73
2
 40
0.2
 49
0.1
 74
0
 49
-0.1
 74
0
  0
LTYPE
  5
1F7
100
AcDbSymbolTableRecord
100
AcDbLinetypeTableRecord
  2
PHANTOM
 70
64
  3
_____ _ _ _____ _ _ _____ _ _ _____
 72
65
 73
6
 40
0.8
 49
0.45
 74
0
 49
-0.05
 74
0
 49
0.1
 74
0
 49
-0.05
 74
0
 49
0.1
 74
0
 49
-0.05
 74
0
  0
LTYPE
  5
1F8
100
AcDbSymbolTableRecord
100
AcDbLinetypeTableRecord
  2
DOT
 70
64
  3
. . . . . . . . . . . . . . . . . . . .
 72
65
 73
2
 40
0.2
 49
0.1
 74
0
 49
-0.1
 74
0
  0
LTYPE
  5
1F9
100
AcDbSymbolTableRecord
100
AcDbLinetypeTableRecord
  2
DASHED
 70
64
  3
- - - - - - - - - - - - - - - - - - - -
 72
65
 73
2
 40
0.2
 49
0.1
 74
0
 49
-0.1
 74
0
  0
ENDTAB
  0
TABLE
  2
LAYER
  5
2
100
AcDbSymbolTable
 70
36
  0
LAYER
  5
10
100
AcDbSymbolTableRecord
100
AcDbLayerTableRecord
  2
0
 70
0
 62
7
  6
CONTINUOUS
370
-3
390
F
  0
LAYER
  5
1FA
100
AcDbSymbolTableRecord
100
AcDbLayerTableRecord
  2
DEFAULT_1
 70
0
 62
7
  6
CENTER
370
-3
390
F
  0
LAYER
  5
1FB
100
AcDbSymbolTableRecord
100
AcDbLayerTableRecord
  2
DEFAULT_2
 70
0
 62
8
  6
HIDDEN
370
-3
390
F
  0
LAYER
  5
1FC
100
AcDbSymbolTableRecord
100
AcDbLayerTableRecord
  2
DEFAULT_3
 70
0
 62
7
  6
PHANTOM
370
-3
390
F
  0
LAYER
  5
1FD
100
AcDbSymbolTableRecord
100
AcDbLayerTableRecord
  2
ALL_FEATURES
 70
0
 62
7
  6
CONTINUOUS
370
-3
390
F
  0
LAYER
  5
1FE
100
AcDbSymbolTableRecord
100
AcDbLayerTableRecord
  2
AXES_FEATURES
 70
0
 62
7
  6
CONTINUOUS
370
-3
390
F
  0
LAYER
  5
1FF
100
AcDbSymbolTableRecord
100
AcDbLayerTableRecord
  2
DEFAULT_COORDINATE_SYSTEM
 70
0
 62
7
  6
CONTINUOUS
370
-3
390
F
  0
LAYER
  5
200
100
AcDbSymbolTableRecord
100
AcDbLayerTableRecord
  2
DEFAULT_DATUM_AXES
 70
0
 62
7
  6
CONTINUOUS
370
-3
390
F
  0
LAYER
  5
201
100
AcDbSymbolTableRecord
100
AcDbLayerTableRecord
  2
DEFAULT_DATUM_PLANES
 70
0
 62
7
  6
CONTINUOUS
370
-3
390
F
  0
LAYER
  5
202
100
AcDbSymbolTableRecord
100
AcDbLayerTableRecord
  2
DIMENSIONS
 70
0
 62
7
  6
CONTINUOUS
370
-3
390
F
  0
ENDTAB
  0
TABLE
  2
STYLE
  5
3
100
AcDbSymbolTable
 70
1
  0
STYLE
  5
11
100
AcDbSymbolTableRecord
100
AcDbTextStyleTableRecord
  2
STANDARD
 70
0
 40
0.0
 41
0.8
 50
0.0
 71
0
 42
0.2
  3
txt
  4

  0
STYLE
  5
203
100
AcDbSymbolTableRecord
100
AcDbTextStyleTableRecord
  2
TEXTSTYLE_1
 70
0
 40
0.0
 41
0.8
 50
0.0
 71
0
 42
0.2
  3
gdt
  4

  0
ENDTAB
  0
TABLE
  2
VIEW
  5
6
100
AcDbSymbolTable
 70
0
  0
ENDTAB
  0
TABLE
  2
UCS
  5
7
100
AcDbSymbolTable
 70
0
  0
ENDTAB
  0
TABLE
  2
APPID
  5
9
100
AcDbSymbolTable
 70
1
  0
APPID
  5
204
100
AcDbSymbolTableRecord
100
AcDbRegAppTableRecord
  2
ACAD
 70
0
  0
ENDTAB
  0
TABLE
  2
BLOCK_RECORD
  5
1
100
AcDbSymbolTable
 70
0
  0
BLOCK_RECORD
  5
205
100
AcDbSymbolTableRecord
100
AcDbBlockTableRecord
  2
*Model_Space
  0
BLOCK_RECORD
  5
206
100
AcDbSymbolTableRecord
100
AcDbBlockTableRecord
  2
*Paper_Space
  0
BLOCK_RECORD
  5
207
100
AcDbSymbolTableRecord
100
AcDbBlockTableRecord
  2
_FILLED
  0
ENDTAB
  0
TABLE
  2
DIMSTYLE
  5
A
100
AcDbSymbolTable
 70
1
100
AcDbDimStyleTable
 71
0
  0
DIMSTYLE
105
208
100
AcDbSymbolTableRecord
100
AcDbDimStyleTableRecord
  2
STANDARD
 70
0
  3

  4

 40
1.0
 41
0.1
 42
0.0625
 43
0.38
 44
0.125
 45
0.0
 46
0.0
 47
0.001
 48
0.001
140
0.08
141
0.09
142
0.0
143
25.4
144
1.0
145
0.0
146
1.0
147
0.09
 71
1.0
 72
0.0
 73
1
 74
1
 75
0
 76
0
 77
0
 78
4
 79
1
170
1
171
2
172
0
173
0
174
0
175
0
176
0
177
0
178
0
270
2
179
3
271
3
272
3
273
2
274
2
275
0
280
0
281
0
282
0
283
1
284
4
285
0
286
0
287
3
288
0
340
11
278
46
341
207
342
207
343
207
344
207
  0
ENDTAB
  0
ENDSEC
  0
SECTION
  2
BLOCKS
  0
BLOCK
  5
20
100
AcDbEntity
  8
0
100
AcDbBlockBegin
  2
*Model_Space
 70
0
 10
0.0
 20
0.0
 30
0.0
  3
*Model_Space
  1

  0
ENDBLK
  5
21
100
AcDbEntity
  8
0
100
AcDbBlockEnd
  0
BLOCK
  5
1C
100
AcDbEntity
  8
0
100
AcDbBlockBegin
  2
*Paper_Space
 70
0
 10
0.0
 20
0.0
 30
0.0
  3
*Paper_Space
  1

  0
ENDBLK
  5
1D
100
AcDbEntity
  8
0
100
AcDbBlockEnd
  0
BLOCK
  5
209
100
AcDbEntity
  8
0
100
AcDbBlockBegin
  2
_FILLED
 70
64
 10
0.0
 20
0.0
  3
_FILLED
  1

  0
SOLID
  5
20A
100
AcDbEntity
  8
0
  6
BYBLOCK
 62
0
100
AcDbTrace
 10
0.0
 20
0.0
 11
-1.0
 21
0.2
 12
-1.0
 22
-0.2
 13
-1.0
 23
-0.2
  0
ENDBLK
  5
20B
100
AcDbEntity
  8
0
  6
BYBLOCK
 62
0
100
AcDbBlockEnd
  0
ENDSEC
  0
SECTION
  2
ENTITIES
  0
LINE
  5
20C
100
AcDbEntity
  8
0
100
AcDbLine
 62
7
  6
CONTINUOUS
 10
9.8751923427
 20
8.0596695021
 11
12.0001923427
 21
8.0596695021
  0
LINE
  5
20D
100
AcDbEntity
  8
0
100
AcDbLine
 62
7
  6
CONTINUOUS
 10
9.8751923427
 20
8.2293786058
 11
9.8751923427
 21
8.0596695021
  0
LINE
  5
20E
100
AcDbEntity
  8
0
100
AcDbLine
 62
9
  6
CONTINUOUS
 10
12.0001923427
 20
8.2293786058
 11
9.8751923427
 21
8.2293786058
  0
LINE
  5
20F
100
AcDbEntity
  8
0
100
AcDbLine
 62
9
  6
CONTINUOUS
 10
11.9938754754
 20
8.2477935243
 11
9.88150921
 21
8.2477935243
  0
LINE
  5
210
100
AcDbEntity
  8
0
100
AcDbLine
 62
9
  6
CONTINUOUS
 10
11.8186995999
 20
8.4730844207
 11
10.0566850856
 21
8.4730844207
  0
LINE
  5
211
100
AcDbEntity
  8
0
100
AcDbLine
 62
7
  6
CONTINUOUS
 10
11.7950114564
 20
8.4846695021
 11
10.0803732291
 21
8.4846695021
  0
LINE
  5
212
100
AcDbEntity
  8
0
100
AcDbLine
 62
7
  6
CONTINUOUS
 10
10.2226923427
 20
9.0806695021
 11
10.2226923427
 21
10.3988082207
  0
LINE
  5
213
100
AcDbEntity
  8
0
100
AcDbLine
 62
7
  6
CONTINUOUS
 10
10.3326923427
 20
9.0806695021
 11
10.3326923427
 21
8.4846695021
  0
LINE
  5
214
100
AcDbEntity
  8
0
100
AcDbLine
 62
7
  6
CONTINUOUS
 10
10.6876923427
 20
10.1306695021
 11
10.6876923427
 21
9.6044719135
  0
LINE
  5
215
100
AcDbEntity
  8
0
100
AcDbLine
 62
7
  6
CONTINUOUS
 10
10.0566850856
 20
8.4730844207
 11
9.88150921
 21
8.2477935243
  0
LINE
  5
216
100
AcDbEntity
  8
0
100
AcDbLine
 62
7
  6
CONTINUOUS
 10
10.2226923427
 20
9.0806695021
 11
11.6526923427
 21
9.0806695021
  0
LINE
  5
217
100
AcDbEntity
  8
0
100
AcDbLine
 62
7
  6
CONTINUOUS
 10
11.8186995999
 20
8.4730844207
 11
11.9938754754
 21
8.2477935243
  0
LINE
  5
218
100
AcDbEntity
  8
0
100
AcDbLine
 62
7
  6
CONTINUOUS
 10
11.1876923427
 20
10.1306695021
 11
11.1876923427
 21
9.6044719135
  0
LINE
  5
219
100
AcDbEntity
  8
0
100
AcDbLine
 62
7
  6
CONTINUOUS
 10
11.5426923427
 20
9.0806695021
 11
11.5426923427
 21
8.4846695021
  0
LINE
  5
21A
100
AcDbEntity
  8
0
100
AcDbLine
 62
7
  6
CONTINUOUS
 10
11.6526923427
 20
9.0806695021
 11
11.6526923427
 21
10.3988082207
  0
LINE
  5
21B
100
AcDbEntity
  8
0
100
AcDbLine
 62
7
  6
CONTINUOUS
 10
12.0001923427
 20
8.2293786058
 11
12.0001923427
 21
8.0596695021
  0
LINE
  5
21C
100
AcDbEntity
  8
0
100
AcDbLine
 62
9
  6
CONTINUOUS
 10
11.6526923427
 20
10.3988082207
 11
11.0812170357
 21
10.3988082207
  0
LINE
  5
21D
100
AcDbEntity
  8
0
100
AcDbLine
 62
9
  6
CONTINUOUS
 10
10.7941676498
 20
10.3988082207
 11
10.2226923427
 21
10.3988082207
  0
LINE
  5
21E
100
AcDbEntity
  8
0
100
AcDbLine
 62
9
  6
CONTINUOUS
 10
11.5957793868
 20
10.4587287527
 11
10.2796052987
 21
10.4587287527
  0
ARC
  5
21F
100
AcDbEntity
  8
0
100
AcDbCircle
 62
7
  6
CONTINUOUS
 10
10.9376923427
 20
-2.3149554979
 40
12.790625
100
AcDbArc
 50
87.0507879325
 51
92.9492120675
  0
ARC
  5
220
100
AcDbEntity
  8
0
100
AcDbCircle
 62
7
  6
CONTINUOUS
 10
10.9376923427
 20
10.1306695021
 40
0.25
100
AcDbArc
 50
0.0
 51
180.0
  0
ARC
  5
221
100
AcDbEntity
  8
0
100
AcDbCircle
 62
7
  6
CONTINUOUS
 10
10.2826923427
 20
10.3988082207
 40
0.06
100
AcDbArc
 50
92.9492120674
 51
180.0
  0
ARC
  5
222
100
AcDbEntity
  8
0
100
AcDbCircle
 62
7
  6
CONTINUOUS
 10
11.5926923427
 20
10.3988082207
 40
0.06
100
AcDbArc
 50
0.0
 51
87.0507879326
  0
ARC
  5
223
100
AcDbEntity
  8
0
100
AcDbCircle
 62
7
  6
CONTINUOUS
 10
11.9701923427
 20
8.2293786058
 40
0.03
100
AcDbArc
 50
0.0
 51
37.867
  0
ARC
  5
224
100
AcDbEntity
  8
0
100
AcDbCircle
 62
7
  6
CONTINUOUS
 10
9.9051923427
 20
8.2293786058
 40
0.03
100
AcDbArc
 50
142.133
 51
180.0
  0
ARC
  5
225
100
AcDbEntity
  8
0
100
AcDbCircle
 62
7
  6
CONTINUOUS
 10
11.7950164672
 20
8.4546695021
 40
0.03
100
AcDbArc
 50
37.867
 51
90.0
  0
ARC
  5
226
100
AcDbEntity
  8
0
100
AcDbCircle
 62
7
  6
CONTINUOUS
 10
10.0803682183
 20
8.4546695021
 40
0.03
100
AcDbArc
 50
90.0
 51
142.133
  0
SPLINE
  5
227
100
AcDbEntity
  8
0
100
AcDbSpline
 62
7
  6
CONTINUOUS
 70
0
 71
3
 72
28
 73
24
 74
0
 42
0.0000001
 43
0.0000001
 44
0.0000000001
 40
0.0
 40
0.0
 40
0.0
 40
0.0
 40
0.0263738024
 40
0.0527437065
 40
0.0791844199
 40
0.1057552712
 40
0.1324918225
 40
0.1594219587
 40
0.1865883639
 40
0.2140383173
 40
0.2699210575
 40
0.3274051628
 40
0.356833032
 40
0.3867431793
 40
0.4480523539
 40
0.5114124413
 40
0.576789765
 40
0.6440651344
 40
0.7130415059
 40
0.7834544344
 40
0.8549879472
 40
0.9273100163
 40
1.0
 40
1.0
 40
1.0
 40
1.0
 10
10.6876923427
 20
9.6044719135
 30
0.0
 10
10.6876923427
 20
9.6015784609
 30
0.0
 10
10.687918035
 20
9.5957894755
 30
0.0
 10
10.688928722
 20
9.5871529334
 30
0.0
 10
10.6906037486
 20
9.578597902
 30
0.0
 10
10.6929302995
 20
9.5701554385
 30
0.0
 10
10.6958877314
 20
9.5618560665
 30
0.0
 10
10.6994589908
 20
9.5537307656
 30
0.0
 10
10.7036219636
 20
9.5458038987
 30
0.0
 10
10.7099648092
 20
9.5354639653
 30
0.0
 10
10.7193025321
 20
9.5231032104
 30
0.0
 10
10.7301659041
 20
9.5117690923
 30
0.0
 10
10.739743437
 20
9.5032454027
 30
0.0
 10
10.7500696299
 20
9.4949569074
 30
0.0
 10
10.7640597842
 20
9.4853242026
 30
0.0
 10
10.7822331007
 20
9.4750550427
 30
0.0
 10
10.8017747173
 20
9.4660259457
 30
0.0
 10
10.8225179406
 20
9.45828581
 30
0.0
 10
10.8442860282
 20
9.4518800459
 30
0.0
 10
10.8668898859
 20
9.4468497909
 30
0.0
 10
10.8901329071
 20
9.4432298196
 30
0.0
 10
10.9138040879
 20
9.4410480846
 30
0.0
 10
10.9297175728
 20
9.4405617102
 30
0.0
 10
10.9376923433
 20
9.4405617102
 30
0.0
  0
SPLINE
  5
228
100
AcDbEntity
  8
0
100
AcDbSpline
 62
7
  6
CONTINUOUS
 70
0
 71
3
 72
28
 73
24
 74
0
 42
0.0000001
 43
0.0000001
 44
0.0000000001
 40
0.0
 40
0.0
 40
0.0
 40
0.0
 40
0.0726903694
 40
0.1450133169
 40
0.2165472712
 40
0.2869603948
 40
0.3559369913
 40
0.4232123974
 40
0.4885896045
 40
0.5519495071
 40
0.6132583399
 40
0.6431683075
 40
0.6725959798
 40
0.7300795727
 40
0.7859618997
 40
0.8134116484
 40
0.8405778848
 40
0.8675078704
 40
0.894244203
 40
0.9208149591
 40
0.9472559884
 40
0.9736263833
 40
1.0
 40
1.0
 40
1.0
 40
1.0
 10
10.9376923433
 20
9.4405617102
 30
0.0
 10
10.9456671561
 20
9.4405617102
 30
0.0
 10
10.9615807789
 20
9.4410481095
 30
0.0
 10
10.9852521465
 20
9.4432298541
 30
0.0
 10
11.0084953288
 20
9.4468498801
 30
0.0
 10
11.0310992645
 20
9.4518802166
 30
0.0
 10
11.0528673945
 20
9.4582860143
 30
0.0
 10
11.0736106114
 20
9.4660262147
 30
0.0
 10
11.0931521774
 20
9.4750553504
 30
0.0
 10
11.1113254096
 20
9.4853245163
 30
0.0
 10
11.1253154719
 20
9.4949572178
 30
0.0
 10
11.1356415822
 20
9.5032456899
 30
0.0
 10
11.1452190244
 20
9.5117693343
 30
0.0
 10
11.1560822961
 20
9.5231033772
 30
0.0
 10
11.1654199276
 20
9.5354640448
 30
0.0
 10
11.1717627237
 20
9.545803907
 30
0.0
 10
11.1759256677
 20
9.5537307241
 30
0.0
 10
11.1794969049
 20
9.5618559693
 30
0.0
 10
11.1824543627
 20
9.5701552773
 30
0.0
 10
11.1847809332
 20
9.5785977375
 30
0.0
 10
11.1864559249
 20
9.5871528556
 30
0.0
 10
11.1874666256
 20
9.5957894629
 30
0.0
 10
11.1876923427
 20
9.6015784813
 30
0.0
 10
11.1876923427
 20
9.6044719135
 30
0.0
  0
SPLINE
  5
229
100
AcDbEntity
  8
0
100
AcDbSpline
 62
9
  6
CONTINUOUS
 70
0
 71
3
 72
26
 73
22
 74
0
 42
0.0000001
 43
0.0000001
 44
0.0000000001
 40
0.0
 40
0.0
 40
0.0
 40
0.0
 40
0.0233187988
 40
0.0467325312
 40
0.0703343436
 40
0.0942128427
 40
0.1184515284
 40
0.1431269509
 40
0.194021545
 40
0.2473697291
 40
0.3034654094
 40
0.362463599
 40
0.4243954735
 40
0.4891812302
 40
0.5566484054
 40
0.6265482681
 40
0.6985681981
 40
0.7723395571
 40
0.8474573722
 40
0.9235124416
 40
1.0
 40
1.0
 40
1.0
 40
1.0
 10
11.1876920148
 20
9.7393522446
 30
0.0
 10
11.1876920148
 20
9.741843154
 30
0.0
 10
11.1874905068
 20
9.7468374466
 30
0.0
 10
11.186583871
 20
9.7543033464
 30
0.0
 10
11.1850750208
 20
9.761732499
 30
0.0
 10
11.1829693242
 20
9.7691061988
 30
0.0
 10
11.1802708987
 20
9.776406609
 30
0.0
 10
11.1758480115
 20
9.786116317
 30
0.0
 10
11.1688109324
 20
9.7980078079
 30
0.0
 10
11.1582346456
 20
9.8115323868
 30
0.0
 10
11.1455474832
 20
9.8243435734
 30
0.0
 10
11.1308759632
 20
9.836323704
 30
0.0
 10
11.1143604737
 20
9.8473635312
 30
0.0
 10
11.0961592925
 20
9.8573620471
 30
0.0
 10
11.0764457825
 20
9.8662270905
 30
0.0
 10
11.0554068909
 20
9.8738746525
 30
0.0
 10
11.033243437
 20
9.8802330552
 30
0.0
 10
11.0101673849
 20
9.8852428714
 30
0.0
 10
10.9863963419
 20
9.8888559708
 30
0.0
 10
10.9621615037
 20
9.8910364012
 30
0.0
 10
10.9458627282
 20
9.8915229302
 30
0.0
 10
10.9376923427
 20
9.8915229302
 30
0.0
  0
SPLINE
  5
22A
100
AcDbEntity
  8
0
100
AcDbSpline
 62
9
  6
CONTINUOUS
 70
0
 71
3
 72
25
 73
21
 74
0
 42
0.0000001
 43
0.0000001
 44
0.0000000001
 40
0.0
 40
0.0
 40
0.0
 40
0.0
 40
0.1917583041
 40
0.3738158433
 40
0.459313609
 40
0.5402265392
 40
0.6159121334
 40
0.685769883
 40
0.7492946519
 40
0.8060310909
 40
0.8556446912
 40
0.8979022427
 40
0.9162587582
 40
0.9327901794
 40
0.9475427685
 40
0.9605976154
 40
0.9720950127
 40
0.9822561736
 40
0.9914075955
 40
1.0
 40
1.0
 40
1.0
 40
1.0
 10
10.7941676498
 20
10.3988082207
 30
0.0
 10
10.7959205875
 20
10.3956599649
 30
0.0
 10
10.7992407872
 20
10.3894681124
 30
0.0
 10
10.8030591451
 20
10.3817252571
 30
0.0
 10
10.8057769334
 20
10.3757672736
 30
0.0
 10
10.8075737611
 20
10.3715874199
 30
0.0
 10
10.8091577237
 20
10.3676372794
 30
0.0
 10
10.8105150603
 20
10.3639498852
 30
0.0
 10
10.8116354394
 20
10.3605567051
 30
0.0
 10
10.8125096229
 20
10.3574853
 30
0.0
 10
10.8131316065
 20
10.3547615031
 30
0.0
 10
10.813451276
 20
10.3527120382
 30
0.0
 10
10.8135614454
 20
10.3512658333
 30
0.0
 10
10.8135742393
 20
10.3503323771
 30
0.0
 10
10.8135213567
 20
10.3494998439
 30
0.0
 10
10.8134022594
 20
10.3487693978
 30
0.0
 10
10.8132165305
 20
10.3481418218
 30
0.0
 10
10.8129630829
 20
10.3476176264
 30
0.0
 10
10.8126399759
 20
10.347199085
 30
0.0
 10
10.8123733537
 20
10.3469914314
 30
0.0
 10
10.8122336951
 20
10.3469104042
 30
0.0
  0
SPLINE
  5
22B
100
AcDbEntity
  8
0
100
AcDbSpline
 62
9
  6
CONTINUOUS
 70
0
 71
3
 72
26
 73
22
 74
0
 42
0.0000001
 43
0.0000001
 44
0.0000000001
 40
0.0
 40
0.0
 40
0.0
 40
0.0
 40
0.0764875584
 40
0.1525426278
 40
0.2276604429
 40
0.3014318019
 40
0.3734517319
 40
0.4433515946
 40
0.5108187698
 40
0.5756045265
 40
0.637536401
 40
0.6965345906
 40
0.7526302709
 40
0.805978455
 40
0.8568730491
 40
0.8815484716
 40
0.9057871573
 40
0.9296656564
 40
0.9532674688
 40
0.9766812012
 40
1.0
 40
1.0
 40
1.0
 40
1.0
 10
10.9376923427
 20
9.7566425991
 30
0.0
 10
10.9295219573
 20
9.7566425991
 30
0.0
 10
10.9132231818
 20
9.7561560701
 30
0.0
 10
10.8889883436
 20
9.7539756397
 30
0.0
 10
10.8652173006
 20
9.7503625403
 30
0.0
 10
10.8421412484
 20
9.7453527241
 30
0.0
 10
10.8199777946
 20
9.7389943214
 30
0.0
 10
10.798938903
 20
9.7313467594
 30
0.0
 10
10.7792253929
 20
9.722481716
 30
0.0
 10
10.7610242118
 20
9.7124832001
 30
0.0
 10
10.7445087223
 20
9.7014433729
 30
0.0
 10
10.7298372022
 20
9.6894632423
 30
0.0
 10
10.7171500399
 20
9.6766520557
 30
0.0
 10
10.706573753
 20
9.6631274768
 30
0.0
 10
10.699536674
 20
9.6512359859
 30
0.0
 10
10.6951137868
 20
9.6415262779
 30
0.0
 10
10.6924153613
 20
9.6342258677
 30
0.0
 10
10.6903096646
 20
9.6268521679
 30
0.0
 10
10.6888008145
 20
9.6194230153
 30
0.0
 10
10.6878941786
 20
9.6119571155
 30
0.0
 10
10.6876926707
 20
9.6069628229
 30
0.0
 10
10.6876926707
 20
9.6044719135
 30
0.0
  0
SPLINE
  5
22C
100
AcDbEntity
  8
0
100
AcDbSpline
 62
9
  6
CONTINUOUS
 70
0
 71
3
 72
26
 73
22
 74
0
 42
0.0000001
 43
0.0000001
 44
0.0000000001
 40
0.0
 40
0.0
 40
0.0
 40
0.0
 40
0.0764875584
 40
0.1525426278
 40
0.2276604429
 40
0.3014318019
 40
0.3734517319
 40
0.4433515946
 40
0.5108187698
 40
0.5756045265
 40
0.637536401
 40
0.6965345906
 40
0.7526302709
 40
0.805978455
 40
0.8568730491
 40
0.8815484716
 40
0.9057871573
 40
0.9296656564
 40
0.9532674688
 40
0.9766812012
 40
1.0
 40
1.0
 40
1.0
 40
1.0
 10
10.9376923427
 20
9.8915229302
 30
0.0
 10
10.9295219573
 20
9.8915229302
 30
0.0
 10
10.9132231818
 20
9.8910364012
 30
0.0
 10
10.8889883436
 20
9.8888559708
 30
0.0
 10
10.8652173006
 20
9.8852428714
 30
0.0
 10
10.8421412484
 20
9.8802330552
 30
0.0
 10
10.8199777946
 20
9.8738746525
 30
0.0
 10
10.798938903
 20
9.8662270905
 30
0.0
 10
10.7792253929
 20
9.8573620471
 30
0.0
 10
10.7610242118
 20
9.8473635312
 30
0.0
 10
10.7445087223
 20
9.836323704
 30
0.0
 10
10.7298372022
 20
9.8243435734
 30
0.0
 10
10.7171500399
 20
9.8115323868
 30
0.0
 10
10.706573753
 20
9.7980078079
 30
0.0
 10
10.699536674
 20
9.786116317
 30
0.0
 10
10.6951137868
 20
9.776406609
 30
0.0
 10
10.6924153613
 20
9.7691061988
 30
0.0
 10
10.6903096646
 20
9.761732499
 30
0.0
 10
10.6888008145
 20
9.7543033464
 30
0.0
 10
10.6878941786
 20
9.7468374466
 30
0.0
 10
10.6876926707
 20
9.741843154
 30
0.0
 10
10.6876926707
 20
9.7393522446
 30
0.0
  0
SPLINE
  5
22D
100
AcDbEntity
  8
0
100
AcDbSpline
 62
9
  6
CONTINUOUS
 70
0
 71
3
 72
25
 73
21
 74
0
 42
0.0000001
 43
0.0000001
 44
0.0000000001
 40
0.0
 40
0.0
 40
0.0
 40
0.0
 40
0.0620763721
 40
0.1240298031
 40
0.1859129351
 40
0.2478332277
 40
0.3098709759
 40
0.3720908899
 40
0.4345356923
 40
0.4972142741
 40
0.5601000561
 40
0.623136269
 40
0.6546937017
 40
0.6862571645
 40
0.7178144548
 40
0.7493539672
 40
0.8123236086
 40
0.875109915
 40
0.937671346
 40
1.0
 40
1.0
 40
1.0
 40
1.0
 10
10.7941676498
 20
10.3988082207
 30
0.0
 10
10.7858926043
 20
10.3936040452
 30
0.0
 10
10.7698909546
 20
10.3823330798
 30
0.0
 10
10.7477527989
 20
10.3631042127
 30
0.0
 10
10.7276453552
 20
10.3417930247
 30
0.0
 10
10.7096915341
 20
10.318625506
 30
0.0
 10
10.6939818074
 20
10.293820363
 30
0.0
 10
10.6806068573
 20
10.2675909304
 30
0.0
 10
10.6696508275
 20
10.2401550068
 30
0.0
 10
10.6611904696
 20
10.2117408044
 30
0.0
 10
10.6552882103
 20
10.1825940469
 30
0.0
 10
10.652542437
 20
10.157911624
 30
0.0
 10
10.6516643265
 20
10.1380591064
 30
0.0
 10
10.6516667528
 20
10.1231446061
 30
0.0
 10
10.6523306116
 20
10.1082476863
 30
0.0
 10
10.6540967711
 20
10.0884687038
 30
0.0
 10
10.6579427913
 20
10.0639630283
 30
0.0
 10
10.6651442279
 20
10.0351549402
 30
0.0
 10
10.6748711917
 20
10.0072063644
 30
0.0
 10
10.6830110414
 20
9.9892670482
 30
0.0
 10
10.6874754588
 20
9.9805259329
 30
0.0
  0
SPLINE
  5
22E
100
AcDbEntity
  8
0
100
AcDbSpline
 62
9
  6
CONTINUOUS
 70
0
 71
3
 72
41
 73
37
 74
0
 42
0.0000001
 43
0.0000001
 44
0.0000000001
 40
0.0
 40
0.0
 40
0.0
 40
0.0
 40
0.0382458797
 40
0.0762752047
 40
0.1138367417
 40
0.1507252432
 40
0.1867378137
 40
0.2216902154
 40
0.2554261925
 40
0.2878213899
 40
0.3187895886
 40
0.3482908122
 40
0.3763406569
 40
0.4030166613
 40
0.4284657781
 40
0.4529081484
 40
0.4766320725
 40
0.4883397713
 40
0.5
 40
0.5116602287
 40
0.5233679275
 40
0.5470918516
 40
0.5715342219
 40
0.5969833387
 40
0.6236593431
 40
0.6517091878
 40
0.6812104114
 40
0.7121786101
 40
0.7445738075
 40
0.7783097846
 40
0.8132621863
 40
0.8492747568
 40
0.8861632583
 40
0.9237247953
 40
0.9617541203
 40
1.0
 40
1.0
 40
1.0
 40
1.0
 10
10.9376923427
 20
9.4467592988
 30
0.0
 10
10.9448821828
 20
9.4467592988
 30
0.0
 10
10.9592248537
 20
9.4471873799
 30
0.0
 10
10.9805512635
 20
9.4491061844
 30
0.0
 10
11.0014697003
 20
9.4522856246
 30
0.0
 10
11.0217767244
 20
9.4566942316
 30
0.0
 10
11.0412806566
 20
9.462289634
 30
0.0
 10
11.0597949453
 20
9.4690194617
 30
0.0
 10
11.077142889
 20
9.4768206829
 30
0.0
 10
11.0931599873
 20
9.4856193995
 30
0.0
 10
11.1076936858
 20
9.4953344115
 30
0.0
 10
11.1206047197
 20
9.5058770516
 30
0.0
 10
11.1317693418
 20
9.5171505592
 30
0.0
 10
11.1410769607
 20
9.5290534509
 30
0.0
 10
11.148430846
 20
9.5414784705
 30
0.0
 10
11.1537509261
 20
9.5543064895
 30
0.0
 10
11.1564469555
 20
9.5652862888
 30
0.0
 10
11.15751462
 20
9.5740825837
 30
0.0
 10
11.1577805887
 20
9.5806695021
 30
0.0
 10
11.15751462
 20
9.5872564205
 30
0.0
 10
11.1564469555
 20
9.5960527155
 30
0.0
 10
11.1537509261
 20
9.6070325148
 30
0.0
 10
11.148430846
 20
9.6198605338
 30
0.0
 10
11.1410769607
 20
9.6322855534
 30
0.0
 10
11.1317693418
 20
9.6441884451
 30
0.0
 10
11.1206047197
 20
9.6554619526
 30
0.0
 10
11.1076936858
 20
9.6660045928
 30
0.0
 10
11.0931599873
 20
9.6757196048
 30
0.0
 10
11.077142889
 20
9.6845183214
 30
0.0
 10
11.0597949453
 20
9.6923195426
 30
0.0
 10
11.0412806566
 20
9.6990493703
 30
0.0
 10
11.0217767244
 20
9.7046447727
 30
0.0
 10
11.0014697003
 20
9.7090533797
 30
0.0
 10
10.9805512635
 20
9.7122328199
 30
0.0
 10
10.9592248537
 20
9.7141516244
 30
0.0
 10
10.9448821828
 20
9.7145797055
 30
0.0
 10
10.9376923427
 20
9.7145797055
 30
0.0
  0
SPLINE
  5
22F
100
AcDbEntity
  8
0
100
AcDbSpline
 62
9
  6
CONTINUOUS
 70
0
 71
3
 72
41
 73
37
 74
0
 42
0.0000001
 43
0.0000001
 44
0.0000000001
 40
0.0
 40
0.0
 40
0.0
 40
0.0
 40
0.0382458797
 40
0.0762752047
 40
0.1138367417
 40
0.1507252432
 40
0.1867378137
 40
0.2216902154
 40
0.2554261925
 40
0.2878213899
 40
0.3187895886
 40
0.3482908122
 40
0.3763406569
 40
0.4030166613
 40
0.4284657781
 40
0.4529081484
 40
0.4766320725
 40
0.4883397713
 40
0.5
 40
0.5116602287
 40
0.5233679275
 40
0.5470918516
 40
0.5715342219
 40
0.5969833387
 40
0.6236593431
 40
0.6517091878
 40
0.6812104114
 40
0.7121786101
 40
0.7445738075
 40
0.7783097846
 40
0.8132621863
 40
0.8492747568
 40
0.8861632583
 40
0.9237247953
 40
0.9617541203
 40
1.0
 40
1.0
 40
1.0
 40
1.0
 10
10.9376923427
 20
9.7145797055
 30
0.0
 10
10.9305025026
 20
9.7145797055
 30
0.0
 10
10.9161598317
 20
9.7141516244
 30
0.0
 10
10.894833422
 20
9.7122328199
 30
0.0
 10
10.8739149852
 20
9.7090533797
 30
0.0
 10
10.853607961
 20
9.7046447727
 30
0.0
 10
10.8341040288
 20
9.6990493703
 30
0.0
 10
10.8155897402
 20
9.6923195426
 30
0.0
 10
10.7982417964
 20
9.6845183214
 30
0.0
 10
10.7822246982
 20
9.6757196048
 30
0.0
 10
10.7676909996
 20
9.6660045928
 30
0.0
 10
10.7547799658
 20
9.6554619526
 30
0.0
 10
10.7436153437
 20
9.6441884451
 30
0.0
 10
10.7343077248
 20
9.6322855534
 30
0.0
 10
10.7269538395
 20
9.6198605338
 30
0.0
 10
10.7216337593
 20
9.6070325148
 30
0.0
 10
10.71893773
 20
9.5960527155
 30
0.0
 10
10.7178700654
 20
9.5872564205
 30
0.0
 10
10.7176040968
 20
9.5806695021
 30
0.0
 10
10.7178700654
 20
9.5740825837
 30
0.0
 10
10.71893773
 20
9.5652862888
 30
0.0
 10
10.7216337593
 20
9.5543064895
 30
0.0
 10
10.7269538395
 20
9.5414784705
 30
0.0
 10
10.7343077248
 20
9.5290534509
 30
0.0
 10
10.7436153437
 20
9.5171505592
 30
0.0
 10
10.7547799658
 20
9.5058770516
 30
0.0
 10
10.7676909996
 20
9.4953344115
 30
0.0
 10
10.7822246982
 20
9.4856193995
 30
0.0
 10
10.7982417964
 20
9.4768206829
 30
0.0
 10
10.8155897402
 20
9.4690194617
 30
0.0
 10
10.8341040288
 20
9.462289634
 30
0.0
 10
10.853607961
 20
9.4566942316
 30
0.0
 10
10.8739149852
 20
9.4522856246
 30
0.0
 10
10.894833422
 20
9.4491061844
 30
0.0
 10
10.9161598317
 20
9.4471873799
 30
0.0
 10
10.9305025026
 20
9.4467592988
 30
0.0
 10
10.9376923427
 20
9.4467592988
 30
0.0
  0
SPLINE
  5
230
100
AcDbEntity
  8
0
100
AcDbSpline
 62
9
  6
CONTINUOUS
 70
0
 71
3
 72
25
 73
21
 74
0
 42
0.0000001
 43
0.0000001
 44
0.0000000001
 40
0.0
 40
0.0
 40
0.0
 40
0.0
 40
0.1917575717
 40
0.3738143829
 40
0.4593118175
 40
0.5402244526
 40
0.6159097996
 40
0.6857673621
 40
0.7492920152
 40
0.8060284219
 40
0.8556420888
 40
0.8978998257
 40
0.9162564863
 40
0.9327880908
 40
0.9475409048
 40
0.9605960212
 40
0.9720937379
 40
0.9822552737
 40
0.9914071253
 40
1.0
 40
1.0
 40
1.0
 40
1.0
 10
11.0812170357
 20
10.3988082207
 30
0.0
 10
11.0794640283
 20
10.3956600063
 30
0.0
 10
11.0761437157
 20
10.3894682194
 30
0.0
 10
11.0723252686
 20
10.3817254143
 30
0.0
 10
11.0696074402
 20
10.3757674539
 30
0.0
 10
11.0678105969
 20
10.3715876089
 30
0.0
 10
11.0662266318
 20
10.3676374694
 30
0.0
 10
11.0648693048
 20
10.3639500694
 30
0.0
 10
11.0637489454
 20
10.3605568772
 30
0.0
 10
11.0628747904
 20
10.3574854548
 30
0.0
 10
11.0622528424
 20
10.3547616362
 30
0.0
 10
11.0619332094
 20
10.352712151
 30
0.0
 10
11.0618230719
 20
10.3512659293
 30
0.0
 10
11.0618103013
 20
10.3503324594
 30
0.0
 10
11.0618632077
 20
10.3494999122
 30
0.0
 10
11.0619823289
 20
10.3487694521
 30
0.0
 10
11.062168082
 20
10.3481418621
 30
0.0
 10
11.062421554
 20
10.347617653
 30
0.0
 10
11.0627446856
 20
10.3471990983
 30
0.0
 10
11.0630113236
 20
10.3469914361
 30
0.0
 10
11.0631509903
 20
10.3469104043
 30
0.0
  0
SPLINE
  5
231
100
AcDbEntity
  8
0
100
AcDbSpline
 62
9
  6
CONTINUOUS
 70
0
 71
3
 72
23
 73
19
 74
0
 42
0.0000001
 43
0.0000001
 44
0.0000000001
 40
0.0
 40
0.0
 40
0.0
 40
0.0
 40
0.0623305052
 40
0.1248939816
 40
0.1876821208
 40
0.2506536394
 40
0.3137373141
 40
0.3768443633
 40
0.4398827079
 40
0.5027701612
 40
0.5654507145
 40
0.6278975948
 40
0.6901193109
 40
0.7521590985
 40
0.8140812841
 40
0.875966233
 40
0.9379216967
 40
1.0
 40
1.0
 40
1.0
 40
1.0
 10
11.1879087924
 20
9.9805265819
 30
0.0
 10
11.1923729854
 20
9.989267779
 30
0.0
 10
11.20051269
 20
10.0072071453
 30
0.0
 10
11.2102414989
 20
10.0351546694
 30
0.0
 10
11.2174450216
 20
10.0639632949
 30
0.0
 10
11.2220564374
 20
10.0933804502
 30
0.0
 10
11.2240447503
 20
10.1231404422
 30
0.0
 10
11.2233925872
 20
10.1529702669
 30
0.0
 10
11.2200988255
 20
10.1825940166
 30
0.0
 10
11.2141941765
 20
10.211741286
 30
0.0
 10
11.205731332
 20
10.2401542987
 30
0.0
 10
11.1947776494
 20
10.267591113
 30
0.0
 10
11.181403163
 20
10.2938208309
 30
0.0
 10
11.1656931127
 20
10.3186256833
 30
0.0
 10
11.1477396889
 20
10.3417934524
 30
0.0
 10
11.1276317153
 20
10.3631041097
 30
0.0
 10
11.1054933922
 20
10.3823326491
 30
0.0
 10
11.0894920289
 20
10.3936039906
 30
0.0
 10
11.0812170357
 20
10.3988082207
 30
0.0
  0
SPLINE
  5
232
100
AcDbEntity
  8
0
100
AcDbSpline
 62
9
  6
CONTINUOUS
 70
0
 71
3
 72
26
 73
22
 74
0
 42
0.0000001
 43
0.0000001
 44
0.0000000001
 40
0.0
 40
0.0
 40
0.0
 40
0.0
 40
0.0233187988
 40
0.0467325312
 40
0.0703343436
 40
0.0942128427
 40
0.1184515284
 40
0.1431269509
 40
0.194021545
 40
0.2473697291
 40
0.3034654094
 40
0.362463599
 40
0.4243954735
 40
0.4891812302
 40
0.5566484054
 40
0.6265482681
 40
0.6985681981
 40
0.7723395571
 40
0.8474573722
 40
0.9235124416
 40
1.0
 40
1.0
 40
1.0
 40
1.0
 10
11.1876920148
 20
9.6044719135
 30
0.0
 10
11.1876920148
 20
9.6069628229
 30
0.0
 10
11.1874905068
 20
9.6119571155
 30
0.0
 10
11.186583871
 20
9.6194230153
 30
0.0
 10
11.1850750208
 20
9.6268521679
 30
0.0
 10
11.1829693242
 20
9.6342258677
 30
0.0
 10
11.1802708987
 20
9.6415262779
 30
0.0
 10
11.1758480115
 20
9.6512359859
 30
0.0
 10
11.1688109324
 20
9.6631274768
 30
0.0
 10
11.1582346456
 20
9.6766520557
 30
0.0
 10
11.1455474832
 20
9.6894632423
 30
0.0
 10
11.1308759632
 20
9.7014433729
 30
0.0
 10
11.1143604737
 20
9.7124832001
 30
0.0
 10
11.0961592925
 20
9.722481716
 30
0.0
 10
11.0764457825
 20
9.7313467594
 30
0.0
 10
11.0554068909
 20
9.7389943214
 30
0.0
 10
11.033243437
 20
9.7453527241
 30
0.0
 10
11.0101673849
 20
9.7503625403
 30
0.0
 10
10.9863963419
 20
9.7539756397
 30
0.0
 10
10.9621615037
 20
9.7561560701
 30
0.0
 10
10.9458627282
 20
9.7566425991
 30
0.0
 10
10.9376923427
 20
9.7566425991
 30
0.0
  0
SPLINE
  5
233
100
AcDbEntity
  8
0
100
AcDbSpline
 62
9
  6
CONTINUOUS
 70
0
 71
3
 72
13
 73
9
 74
0
 42
0.0000001
 43
0.0000001
 44
0.0000000001
 40
0.0
 40
0.0
 40
0.0
 40
0.0
 40
0.1236648996
 40
0.248149121
 40
0.4981965736
 40
0.623557571
 40
0.7490271444
 40
1.0
 40
1.0
 40
1.0
 40
1.0
 10
11.0812170357
 20
10.3988082207
 30
0.0
 10
11.0754925104
 20
10.4006083237
 30
0.0
 10
11.0639229805
 20
10.4039636126
 30
0.0
 10
11.0404353533
 20
10.4097100618
 30
0.0
 10
11.0165353809
 20
10.414029443
 30
0.0
 10
10.9924088897
 20
10.4170049014
 30
0.0
 10
10.9681464367
 20
10.4191164968
 30
0.0
 10
10.9498708833
 20
10.4197387105
 30
0.0
 10
10.9376923427
 20
10.4197388614
 30
0.0
  0
SPLINE
  5
234
100
AcDbEntity
  8
0
100
AcDbSpline
 62
9
  6
CONTINUOUS
 70
0
 71
3
 72
13
 73
9
 74
0
 42
0.0000001
 43
0.0000001
 44
0.0000000001
 40
0.0
 40
0.0
 40
0.0
 40
0.0
 40
0.2509729905
 40
0.3764427768
 40
0.5018039406
 40
0.751851025
 40
0.8763351022
 40
1.0
 40
1.0
 40
1.0
 40
1.0
 10
10.9376923427
 20
10.4197388614
 30
0.0
 10
10.9255137991
 20
10.4197388376
 30
0.0
 10
10.9072382297
 20
10.4191164102
 30
0.0
 10
10.8829757856
 20
10.4170045564
 30
0.0
 10
10.8588492955
 20
10.4140291746
 30
0.0
 10
10.8349492965
 20
10.4097100446
 30
0.0
 10
10.811461723
 20
10.4039635
 30
0.0
 10
10.7998921962
 20
10.4006082505
 30
0.0
 10
10.7941676498
 20
10.3988082207
 30
0.0
  0
ENDSEC
  0
SECTION
  2
OBJECTS
  0
DICTIONARY
  5
C
100
AcDbDictionary
280
0
281
1
  3
ACAD_GROUP
350
D
  3
ACAD_MLINESTYLE
350
17
  3
ACAD_LAYOUT
350
1A
  3
ACAD_PLOTSETTINGS
350
19
  3
ACAD_PLOTSTYLENAME
350
E
  0
DICTIONARY
  5
D
102
{ACAD_REACTORS
330
C
102
}
100
AcDbDictionary
280
0
281
1
  0
ACDBDICTIONARYWDFLT
  5
E
102
{ACAD_REACTORS
330
C
102
}
100
AcDbDictionary
281
1
  3
Normal
350
F
100
AcDbDictionaryWithDefault
340
F
  0
DICTIONARY
  5
17
102
{ACAD_REACTORS
330
C
102
}
100
AcDbDictionary
280
0
281
1
  3
Standard
350
18
  0
DICTIONARY
  5
19
102
{ACAD_REACTORS
330
C
102
}
100
AcDbDictionary
281
1
  0
DICTIONARY
  5
1A
102
{ACAD_REACTORS
330
C
102
}
100
AcDbDictionary
281
1
  3
Model
350
235
  3
Layout1
350
236
  0
ACDBPLACEHOLDER
  5
F
102
{ACAD_REACTORS
330
E
102
}
  0
MLINESTYLE
  5
18
102
{ACAD_REACTORS
330
17
102
}
100
AcDbMlineStyle
  2
STANDARD
 70
0
  3

 62
256
 51
90.0
 52
90.0
 71
2
 49
0.5
 62
256
  6
BYLAYER
 49
-0.5
 62
256
  6
BYLAYER
  0
LAYOUT
  5
235
102
{ACAD_REACTORS
330
1A
102
}
100
AcDbPlotSettings
  1

  2
none_device
  4
ANSI_C_(22.00_x_17.00_Inches)
  6

 40
0.0
 41
0.0
 42
0.0
 43
0.0
 44
558.8
 45
431.8
 46
0.0
 47
0.0
 48
0.0
 49
0.0
140
0.0
141
0.0
142
1.0
143
1.0
 70
1024
 72
0
 73
0
 74
0
  7

 75
0
147
1.0
148
0.0
149
0.0
100
AcDbLayout
  1
Model
 70
0
 71
0
 10
0.0
 20
0.0
 11
22.0
 21
17.0
 12
0.0
 22
0.0
 32
0.0
 14
0.0
 24
0.0
 34
0.0
 15
0.0
 25
0.0
 35
0.0
146
0.0
 13
0.0
 23
0.0
 33
0.0
 16
1.0
 26
0.0
 36
0.0
 17
0.0
 27
1.0
 37
0.0
 76
0
330
205
345
0
346
0
  0
LAYOUT
  5
236
102
{ACAD_REACTORS
330
1A
102
}
100
AcDbPlotSettings
  1

  2
none_device
  4
ANSI_C_(22.00_x_17.00_Inches)
  6

 40
0.0
 41
0.0
 42
0.0
 43
0.0
 44
558.8
 45
431.8
 46
0.0
 47
0.0
 48
0.0
 49
0.0
140
0.0
141
0.0
142
1.0
143
1.0
 70
0
 72
0
 73
0
 74
0
  7

 75
0
147
1.0
148
0.0
149
0.0
100
AcDbLayout
  1
Layout1
 70
0
 71
1
 10
0.0
 20
0.0
 11
22.0
 21
17.0
 12
0.0
 22
0.0
 32
0.0
 14
0.0
 24
0.0
 34
0.0
 15
0.0
 25
0.0
 35
0.0
146
0.0
 13
0.0
 23
0.0
 33
0.0
 16
1.0
 26
0.0
 36
0.0
 17
0.0
 27
1.0
 37
0.0
 76
0
330
206
345
0
346
0
  0
ENDSEC
  0
EOF
