999
DXF file: E:\BT Custom\CADOUTPUT\_RIGHT.dxf
999
Pro/ENGINEER 2018400 by Parametric Technology Corporation
  0
SECTION
  2
HEADER
  9
$ACADVER
  1
AC1018
  9
$DWGCODEPAGE
  3
ANSI_1252
  9
$EXTMAX
 10
22.0
 20
17.0
 30
0.0
  9
$EXTMIN
 10
0.0
 20
0.0
 30
0.0
  9
$LIMMIN
 10
0.0
 20
0.0
  9
$LIMMAX
 10
22.0
 20
17.0
  9
$VIEWCTR
 10
11.0
 20
8.5
  9
$VIEWSIZE
 40
17.0
  9
$CLAYER
  8
0
  9
$LTSCALE
 40
1.21
  9
$CELTYPE
  6
BYLAYER
  9
$DIMSCALE
 40
1.0
  9
$DIMASZ
 40
0.1
  9
$DIMEXO
 40
0.0625
  9
$DIMDLI
 40
0.836
  9
$DIMEXE
 40
0.125
  9
$DIMCEN
 40
0.198
  9
$DIMLFAC
 40
1.0
  9
$DIMBLK
  1
_FILLED
  9
$DIMALT
 70
1
  9
$DIMALTD
 70
2
  9
$DIMALTTD
 70
2
  9
$DIMALTF
 40
25.4
  9
$DIMTXT
 40
0.08
  9
$DIMTOL
 70
1
  9
$DIMLIM
 70
0
  9
$DIMTFAC
 40
1.0
  9
$DIMTP
 40
0.001
  9
$DIMTM
 40
0.001
  9
$DIMGAP
 40
0.09
  9
$DIMDSEP
 70
46
  9
$AUNITS
 70
0
  9
$PDMODE
 70
3
  9
$PDSIZE
 40
0.06
  9
$HANDSEED
  5
238
  9
$TILEMODE
 70
1
  9
$MEASUREMENT
 70
0
  9
$INSUNITS
 70
1
  0
ENDSEC
  0
SECTION
  2
CLASSES
  0
CLASS
  1
ACDBDICTIONARYWDFLT
  2
AcDbDictionaryWithDefault
  3
AutoCAD 2000
 90
0
 91
1
280
0
281
0
  0
CLASS
  1
ACDBPLACEHOLDER
  2
AcDbPlaceHolder
  3
AutoCAD 2000
 90
0
 91
1
280
0
281
0
  0
CLASS
  1
LAYOUT
  2
AcDbLayout
  3
AutoCAD 2000
 90
0
 91
0
280
0
281
0
  0
ENDSEC
  0
SECTION
  2
TABLES
  0
TABLE
  2
VPORT
  5
8
100
AcDbSymbolTable
 70
2
  0
VPORT
  5
1F4
100
AcDbSymbolTableRecord
100
AcDbViewportTableRecord
  2
*ACTIVE
 70
0
 10
0.0
 20
0.0
 11
1.0
 21
1.0
 12
11.0
 22
8.5
 13
0.0
 23
0.0
 14
1.0
 24
1.0
 15
0.0
 25
0.0
 16
0.0
 26
0.0
 36
1.0
 17
0.0
 27
0.0
 37
0.0
 40
17.0
 41
1.2941176471
 42
50.0
 43
0.0
 44
0.0
 50
0.0
 51
0.0
 71
0
 72
100
 73
1
 74
1
 75
0
 76
0
 77
0
 78
0
  0
ENDTAB
  0
TABLE
  2
LTYPE
  5
5
100
AcDbSymbolTable
 70
6
  0
LTYPE
  5
14
100
AcDbSymbolTableRecord
100
AcDbLinetypeTableRecord
  2
BYBLOCK
 70
0
  3

 72
65
 73
0
 40
0.0
  0
LTYPE
  5
15
100
AcDbSymbolTableRecord
100
AcDbLinetypeTableRecord
  2
BYLAYER
 70
0
  3

 72
65
 73
0
 40
0.0
  0
LTYPE
  5
16
100
AcDbSymbolTableRecord
100
AcDbLinetypeTableRecord
  2
CONTINUOUS
 70
64
  3
Solid line
 72
65
 73
0
 40
0.0
  0
LTYPE
  5
1F5
100
AcDbSymbolTableRecord
100
AcDbLinetypeTableRecord
  2
CENTER
 70
64
  3
____ _ ____ _ ____ _ ____ _ ____ _ ____ _ ____
 72
65
 73
4
 40
0.6
 49
0.375
 74
0
 49
-0.075
 74
0
 49
0.075
 74
0
 49
-0.075
 74
0
  0
LTYPE
  5
1F6
100
AcDbSymbolTableRecord
100
AcDbLinetypeTableRecord
  2
HIDDEN
 70
64
  3
- - - - - - - - - - - - - - - - - - - -
 72
65
 73
2
 40
0.2
 49
0.1
 74
0
 49
-0.1
 74
0
  0
LTYPE
  5
1F7
100
AcDbSymbolTableRecord
100
AcDbLinetypeTableRecord
  2
PHANTOM
 70
64
  3
_____ _ _ _____ _ _ _____ _ _ _____
 72
65
 73
6
 40
0.8
 49
0.45
 74
0
 49
-0.05
 74
0
 49
0.1
 74
0
 49
-0.05
 74
0
 49
0.1
 74
0
 49
-0.05
 74
0
  0
LTYPE
  5
1F8
100
AcDbSymbolTableRecord
100
AcDbLinetypeTableRecord
  2
DOT
 70
64
  3
. . . . . . . . . . . . . . . . . . . .
 72
65
 73
2
 40
0.2
 49
0.1
 74
0
 49
-0.1
 74
0
  0
LTYPE
  5
1F9
100
AcDbSymbolTableRecord
100
AcDbLinetypeTableRecord
  2
DASHED
 70
64
  3
- - - - - - - - - - - - - - - - - - - -
 72
65
 73
2
 40
0.2
 49
0.1
 74
0
 49
-0.1
 74
0
  0
ENDTAB
  0
TABLE
  2
LAYER
  5
2
100
AcDbSymbolTable
 70
36
  0
LAYER
  5
10
100
AcDbSymbolTableRecord
100
AcDbLayerTableRecord
  2
0
 70
0
 62
7
  6
CONTINUOUS
370
-3
390
F
  0
LAYER
  5
1FA
100
AcDbSymbolTableRecord
100
AcDbLayerTableRecord
  2
DEFAULT_1
 70
0
 62
7
  6
CENTER
370
-3
390
F
  0
LAYER
  5
1FB
100
AcDbSymbolTableRecord
100
AcDbLayerTableRecord
  2
DEFAULT_2
 70
0
 62
8
  6
HIDDEN
370
-3
390
F
  0
LAYER
  5
1FC
100
AcDbSymbolTableRecord
100
AcDbLayerTableRecord
  2
DEFAULT_3
 70
0
 62
7
  6
PHANTOM
370
-3
390
F
  0
LAYER
  5
1FD
100
AcDbSymbolTableRecord
100
AcDbLayerTableRecord
  2
ALL_FEATURES
 70
0
 62
7
  6
CONTINUOUS
370
-3
390
F
  0
LAYER
  5
1FE
100
AcDbSymbolTableRecord
100
AcDbLayerTableRecord
  2
AXES_FEATURES
 70
0
 62
7
  6
CONTINUOUS
370
-3
390
F
  0
LAYER
  5
1FF
100
AcDbSymbolTableRecord
100
AcDbLayerTableRecord
  2
DEFAULT_COORDINATE_SYSTEM
 70
0
 62
7
  6
CONTINUOUS
370
-3
390
F
  0
LAYER
  5
200
100
AcDbSymbolTableRecord
100
AcDbLayerTableRecord
  2
DEFAULT_DATUM_AXES
 70
0
 62
7
  6
CONTINUOUS
370
-3
390
F
  0
LAYER
  5
201
100
AcDbSymbolTableRecord
100
AcDbLayerTableRecord
  2
DEFAULT_DATUM_PLANES
 70
0
 62
7
  6
CONTINUOUS
370
-3
390
F
  0
LAYER
  5
202
100
AcDbSymbolTableRecord
100
AcDbLayerTableRecord
  2
DIMENSIONS
 70
0
 62
7
  6
CONTINUOUS
370
-3
390
F
  0
ENDTAB
  0
TABLE
  2
STYLE
  5
3
100
AcDbSymbolTable
 70
1
  0
STYLE
  5
11
100
AcDbSymbolTableRecord
100
AcDbTextStyleTableRecord
  2
STANDARD
 70
0
 40
0.0
 41
0.8
 50
0.0
 71
0
 42
0.2
  3
txt
  4

  0
STYLE
  5
203
100
AcDbSymbolTableRecord
100
AcDbTextStyleTableRecord
  2
TEXTSTYLE_1
 70
0
 40
0.0
 41
0.8
 50
0.0
 71
0
 42
0.2
  3
gdt
  4

  0
ENDTAB
  0
TABLE
  2
VIEW
  5
6
100
AcDbSymbolTable
 70
0
  0
ENDTAB
  0
TABLE
  2
UCS
  5
7
100
AcDbSymbolTable
 70
0
  0
ENDTAB
  0
TABLE
  2
APPID
  5
9
100
AcDbSymbolTable
 70
1
  0
APPID
  5
204
100
AcDbSymbolTableRecord
100
AcDbRegAppTableRecord
  2
ACAD
 70
0
  0
ENDTAB
  0
TABLE
  2
BLOCK_RECORD
  5
1
100
AcDbSymbolTable
 70
0
  0
BLOCK_RECORD
  5
205
100
AcDbSymbolTableRecord
100
AcDbBlockTableRecord
  2
*Model_Space
  0
BLOCK_RECORD
  5
206
100
AcDbSymbolTableRecord
100
AcDbBlockTableRecord
  2
*Paper_Space
  0
BLOCK_RECORD
  5
207
100
AcDbSymbolTableRecord
100
AcDbBlockTableRecord
  2
_FILLED
  0
ENDTAB
  0
TABLE
  2
DIMSTYLE
  5
A
100
AcDbSymbolTable
 70
1
100
AcDbDimStyleTable
 71
0
  0
DIMSTYLE
105
208
100
AcDbSymbolTableRecord
100
AcDbDimStyleTableRecord
  2
STANDARD
 70
0
  3

  4

 40
1.0
 41
0.1
 42
0.0625
 43
0.38
 44
0.125
 45
0.0
 46
0.0
 47
0.001
 48
0.001
140
0.08
141
0.09
142
0.0
143
25.4
144
1.0
145
0.0
146
1.0
147
0.09
 71
1.0
 72
0.0
 73
1
 74
1
 75
0
 76
0
 77
0
 78
4
 79
1
170
1
171
2
172
0
173
0
174
0
175
0
176
0
177
0
178
0
270
2
179
3
271
3
272
3
273
2
274
2
275
0
280
0
281
0
282
0
283
1
284
4
285
0
286
0
287
3
288
0
340
11
278
46
341
207
342
207
343
207
344
207
  0
ENDTAB
  0
ENDSEC
  0
SECTION
  2
BLOCKS
  0
BLOCK
  5
20
100
AcDbEntity
  8
0
100
AcDbBlockBegin
  2
*Model_Space
 70
0
 10
0.0
 20
0.0
 30
0.0
  3
*Model_Space
  1

  0
ENDBLK
  5
21
100
AcDbEntity
  8
0
100
AcDbBlockEnd
  0
BLOCK
  5
1C
100
AcDbEntity
  8
0
100
AcDbBlockBegin
  2
*Paper_Space
 70
0
 10
0.0
 20
0.0
 30
0.0
  3
*Paper_Space
  1

  0
ENDBLK
  5
1D
100
AcDbEntity
  8
0
100
AcDbBlockEnd
  0
BLOCK
  5
209
100
AcDbEntity
  8
0
100
AcDbBlockBegin
  2
_FILLED
 70
64
 10
0.0
 20
0.0
  3
_FILLED
  1

  0
SOLID
  5
20A
100
AcDbEntity
  8
0
  6
BYBLOCK
 62
0
100
AcDbTrace
 10
0.0
 20
0.0
 11
-1.0
 21
0.2
 12
-1.0
 22
-0.2
 13
-1.0
 23
-0.2
  0
ENDBLK
  5
20B
100
AcDbEntity
  8
0
  6
BYBLOCK
 62
0
100
AcDbBlockEnd
  0
ENDSEC
  0
SECTION
  2
ENTITIES
  0
LINE
  5
20C
100
AcDbEntity
  8
0
100
AcDbLine
 62
7
  6
CONTINUOUS
 10
8.4452592263
 20
9.6337452321
 11
8.3417831601
 21
9.498864901
  0
LINE
  5
20D
100
AcDbEntity
  8
0
100
AcDbLine
 62
7
  6
CONTINUOUS
 10
8.8419660825
 20
9.3294038609
 11
8.7384900163
 21
9.1945235298
  0
LINE
  5
20E
100
AcDbEntity
  8
0
100
AcDbLine
 62
9
  6
CONTINUOUS
 10
9.4370263668
 20
9.622891804
 11
9.4370263668
 21
10.122891804
  0
LINE
  5
20F
100
AcDbEntity
  8
0
100
AcDbLine
 62
7
  6
CONTINUOUS
 10
13.0843761059
 20
7.801891804
 11
10.9593761059
 21
7.801891804
  0
LINE
  5
210
100
AcDbEntity
  8
0
100
AcDbLine
 62
7
  6
CONTINUOUS
 10
8.6964271226
 20
9.1889816007
 11
8.3473250892
 21
9.4568020074
  0
LINE
  5
211
100
AcDbEntity
  8
0
100
AcDbLine
 62
9
  6
CONTINUOUS
 10
8.7384900163
 20
9.1945235298
 11
8.3417831601
 21
9.498864901
  0
LINE
  5
212
100
AcDbEntity
  8
0
100
AcDbLine
 62
9
  6
CONTINUOUS
 10
13.0843761059
 20
7.9716009077
 11
10.9593761059
 21
7.9716009077
  0
LINE
  5
213
100
AcDbEntity
  8
0
100
AcDbLine
 62
9
  6
CONTINUOUS
 10
13.0780592386
 20
7.9900158262
 11
10.9656929732
 21
7.9900158262
  0
LINE
  5
214
100
AcDbEntity
  8
0
100
AcDbLine
 62
9
  6
CONTINUOUS
 10
8.8419660825
 20
9.3294038609
 11
8.4452592263
 21
9.6337452321
  0
LINE
  5
215
100
AcDbEntity
  8
0
100
AcDbLine
 62
9
  6
CONTINUOUS
 10
12.902883363
 20
8.2153067226
 11
11.1408688487
 21
8.2153067226
  0
LINE
  5
216
100
AcDbEntity
  8
0
100
AcDbLine
 62
7
  6
CONTINUOUS
 10
12.8792002303
 20
8.226891804
 11
11.1645519815
 21
8.226891804
  0
LINE
  5
217
100
AcDbEntity
  8
0
100
AcDbLine
 62
7
  6
CONTINUOUS
 10
11.3068761059
 20
8.822891804
 11
12.7368761059
 21
8.822891804
  0
LINE
  5
218
100
AcDbEntity
  8
0
100
AcDbLine
 62
7
  6
CONTINUOUS
 10
10.9593761059
 20
7.9716009077
 11
10.9593761059
 21
7.801891804
  0
LINE
  5
219
100
AcDbEntity
  8
0
100
AcDbLine
 62
7
  6
CONTINUOUS
 10
11.3068761059
 20
8.822891804
 11
11.3068761059
 21
9.562891804
  0
LINE
  5
21A
100
AcDbEntity
  8
0
100
AcDbLine
 62
7
  6
CONTINUOUS
 10
11.4168761059
 20
8.226891804
 11
11.4168761059
 21
8.822891804
  0
LINE
  5
21B
100
AcDbEntity
  8
0
100
AcDbLine
 62
7
  6
CONTINUOUS
 10
11.2468761059
 20
9.622891804
 11
9.4370263668
 21
9.622891804
  0
LINE
  5
21C
100
AcDbEntity
  8
0
100
AcDbLine
 62
7
  6
CONTINUOUS
 10
11.1408688487
 20
8.2153067226
 11
10.9656929732
 21
7.9900158262
  0
LINE
  5
21D
100
AcDbEntity
  8
0
100
AcDbLine
 62
7
  6
CONTINUOUS
 10
11.2544144097
 20
10.122891804
 11
9.4370263668
 21
10.122891804
  0
LINE
  5
21E
100
AcDbEntity
  8
0
100
AcDbLine
 62
9
  6
CONTINUOUS
 10
12.7368761059
 20
10.1410305226
 11
11.3214293467
 21
10.1410305226
  0
LINE
  5
21F
100
AcDbEntity
  8
0
100
AcDbLine
 62
9
  6
CONTINUOUS
 10
12.6799631499
 20
10.2009510546
 11
11.3637890618
 21
10.2009510546
  0
LINE
  5
220
100
AcDbEntity
  8
0
100
AcDbLine
 62
7
  6
CONTINUOUS
 10
12.902883363
 20
8.2153067226
 11
13.0780592386
 21
7.9900158262
  0
LINE
  5
221
100
AcDbEntity
  8
0
100
AcDbLine
 62
7
  6
CONTINUOUS
 10
12.6268761059
 20
8.226891804
 11
12.6268761059
 21
8.822891804
  0
LINE
  5
222
100
AcDbEntity
  8
0
100
AcDbLine
 62
7
  6
CONTINUOUS
 10
12.7368761059
 20
8.822891804
 11
12.7368761059
 21
10.1410305226
  0
LINE
  5
223
100
AcDbEntity
  8
0
100
AcDbLine
 62
7
  6
CONTINUOUS
 10
13.0843761059
 20
7.9716009077
 11
13.0843761059
 21
7.801891804
  0
ARC
  5
224
100
AcDbEntity
  8
0
100
AcDbCircle
 62
7
  6
CONTINUOUS
 10
12.0218761059
 20
-2.572733196
 40
12.790625
100
AcDbArc
 50
87.0507879325
 51
92.9492120675
  0
ARC
  5
225
100
AcDbEntity
  8
0
100
AcDbCircle
 62
7
  6
CONTINUOUS
 10
9.4370263668
 20
8.872891804
 40
1.25
100
AcDbArc
 50
90.0
 51
142.5056825053
  0
ARC
  5
226
100
AcDbEntity
  8
0
100
AcDbCircle
 62
7
  6
CONTINUOUS
 10
9.4370263668
 20
8.872891804
 40
0.75
100
AcDbArc
 50
90.0
 51
142.5056825053
  0
ARC
  5
227
100
AcDbEntity
  8
0
100
AcDbCircle
 62
7
  6
CONTINUOUS
 10
11.3668761059
 20
10.1410305226
 40
0.06
100
AcDbArc
 50
92.9492120675
 51
159.5833739648
  0
ARC
  5
228
100
AcDbEntity
  8
0
100
AcDbCircle
 62
7
  6
CONTINUOUS
 10
12.6768761059
 20
10.1410305226
 40
0.06
100
AcDbArc
 50
0.0
 51
87.0507879325
  0
ARC
  5
229
100
AcDbEntity
  8
0
100
AcDbCircle
 62
7
  6
CONTINUOUS
 10
11.2544144097
 20
10.182891804
 40
0.06
100
AcDbArc
 50
270.0
 51
339.5833739639
  0
ARC
  5
22A
100
AcDbEntity
  8
0
100
AcDbCircle
 62
7
  6
CONTINUOUS
 10
11.2468761059
 20
9.562891804
 40
0.06
100
AcDbArc
 50
0.0
 51
90.0000000002
  0
ARC
  5
22B
100
AcDbEntity
  8
0
100
AcDbCircle
 62
7
  6
CONTINUOUS
 10
11.1645519815
 20
8.196891804
 40
0.03
100
AcDbArc
 50
90.0
 51
142.133
  0
ARC
  5
22C
100
AcDbEntity
  8
0
100
AcDbCircle
 62
7
  6
CONTINUOUS
 10
12.8792002303
 20
8.196891804
 40
0.03
100
AcDbArc
 50
37.867
 51
90.0
  0
ARC
  5
22D
100
AcDbEntity
  8
0
100
AcDbCircle
 62
7
  6
CONTINUOUS
 10
10.9893761059
 20
7.9716009077
 40
0.03
100
AcDbArc
 50
142.1329999997
 51
180.0
  0
ARC
  5
22E
100
AcDbEntity
  8
0
100
AcDbCircle
 62
7
  6
CONTINUOUS
 10
13.0543761059
 20
7.9716009077
 40
0.03
100
AcDbArc
 50
0.0
 51
37.8670000003
  0
ARC
  5
22F
100
AcDbEntity
  8
0
100
AcDbCircle
 62
7
  6
CONTINUOUS
 10
8.3655855714
 20
9.4806044188
 40
0.03
100
AcDbArc
 50
142.5056825053
 51
232.5056825053
  0
ARC
  5
230
100
AcDbEntity
  8
0
100
AcDbCircle
 62
7
  6
CONTINUOUS
 10
8.7146876049
 20
9.2127840121
 40
0.03
100
AcDbArc
 50
232.5056825053
 51
322.5056825053
  0
SPLINE
  5
231
100
AcDbEntity
  8
0
100
AcDbSpline
 62
9
  6
CONTINUOUS
 70
0
 71
3
 72
29
 73
25
 74
0
 42
0.0000001
 43
0.0000001
 44
0.0000000001
 40
0.0
 40
0.0
 40
0.0
 40
0.0
 40
0.2503584659
 40
0.3599369391
 40
0.4596540404
 40
0.5498873737
 40
0.6309850664
 40
0.7032720084
 40
0.7670620654
 40
0.8226585434
 40
0.8703542289
 40
0.9103996807
 40
0.9429281998
 40
0.9564073114
 40
0.9680473936
 40
0.9778616419
 40
0.9858631498
 40
0.9920649073
 40
0.994494912
 40
0.9964798023
 40
0.9980211724
 40
0.9991206095
 40
0.9997796941
 40
1.0
 40
1.0
 40
1.0
 40
1.0
 10
11.3214293467
 20
10.1410305226
 30
0.0
 10
11.3203545742
 20
10.1426799644
 30
0.0
 10
11.3188618749
 20
10.1450864121
 30
0.0
 10
11.3170685466
 20
10.1482249096
 30
0.0
 10
11.3159446169
 20
10.1502950204
 30
0.0
 10
11.3149643232
 20
10.1521877346
 30
0.0
 10
11.3141130656
 20
10.1539040195
 30
0.0
 10
11.3133808414
 20
10.1554469326
 30
0.0
 10
11.3127570996
 20
10.1568191148
 30
0.0
 10
11.3122314269
 20
10.1580232766
 30
0.0
 10
11.3117935715
 20
10.1590619172
 30
0.0
 10
11.3114335666
 20
10.1599364733
 30
0.0
 10
11.3111812682
 20
10.1605643719
 30
0.0
 10
11.3110151403
 20
10.1609861506
 30
0.0
 10
11.3109155806
 20
10.1612421752
 30
0.0
 10
11.3108325812
 20
10.1614584226
 30
0.0
 10
11.3107656592
 20
10.1616350292
 30
0.0
 10
11.310719891
 20
10.161757563
 30
0.0
 10
11.3106908828
 20
10.1618358366
 30
0.0
 10
11.3106748421
 20
10.1618798612
 30
0.0
 10
11.3106620971
 20
10.1619138802
 30
0.0
 10
11.3106538824
 20
10.1619386196
 30
0.0
 10
11.3106475092
 20
10.1619526573
 30
0.0
 10
11.310646314
 20
10.1619597902
 30
0.0
 10
11.3106452578
 20
10.1619611633
 30
0.0
  0
SPLINE
  5
232
100
AcDbEntity
  8
0
100
AcDbSpline
 62
9
  6
CONTINUOUS
 70
0
 71
3
 72
49
 73
45
 74
0
 42
0.0000001
 43
0.0000001
 44
0.0000000001
 40
0.0
 40
0.0
 40
0.0
 40
0.0
 40
0.0000083968
 40
0.0000332953
 40
0.0000746782
 40
0.0001325282
 40
0.0002975609
 40
0.0005282553
 40
0.0008244737
 40
0.001186078
 40
0.0016129303
 40
0.0021048928
 40
0.0032835969
 40
0.0047210842
 40
0.0064158262
 40
0.0083654346
 40
0.0105674184
 40
0.0130192882
 40
0.0186627323
 40
0.0252730866
 40
0.0328205793
 40
0.0412743948
 40
0.0506027567
 40
0.0607708406
 40
0.0717433723
 40
0.0959613973
 40
0.1229786121
 40
0.1525231189
 40
0.1843323394
 40
0.2181586908
 40
0.2537682336
 40
0.2909361881
 40
0.3294445386
 40
0.4096131183
 40
0.4925462892
 40
0.5764544247
 40
0.6595185078
 40
0.7399468142
 40
0.7786322518
 40
0.8160072282
 40
0.8859538098
 40
0.9180687943
 40
0.9479538942
 40
1.0
 40
1.0
 40
1.0
 40
1.0
 10
11.3068761059
 20
9.562891804
 30
0.0
 10
11.3068763943
 20
9.5628934312
 30
0.0
 10
11.3068793179
 20
9.562899404
 30
0.0
 10
11.3068837578
 20
9.5629133662
 30
0.0
 10
11.3068925604
 20
9.5629361933
 30
0.0
 10
11.3069103201
 20
9.5629850525
 30
0.0
 10
11.3069413364
 20
9.5630687702
 30
0.0
 10
11.3069883115
 20
9.5631965768
 30
0.0
 10
11.3070487369
 20
9.5633606658
 30
0.0
 10
11.30712242
 20
9.5635610063
 30
0.0
 10
11.3072093741
 20
9.5637975121
 30
0.0
 10
11.307351738
 20
9.5641849729
 30
0.0
 10
11.307562523
 20
9.5647591854
 30
0.0
 10
11.3078545801
 20
9.5655557128
 30
0.0
 10
11.3081984097
 20
9.5664948463
 30
0.0
 10
11.3085930399
 20
9.5675755982
 30
0.0
 10
11.3090374955
 20
9.5687967796
 30
0.0
 10
11.3097282694
 20
9.5707018995
 30
0.0
 10
11.3107091758
 20
9.573424645
 30
0.0
 10
11.3120188807
 20
9.5770948211
 30
0.0
 10
11.313498971
 20
9.5812914028
 30
0.0
 10
11.3151375451
 20
9.5859992394
 30
0.0
 10
11.3169220907
 20
9.591202288
 30
0.0
 10
11.3188383932
 20
9.5968840966
 30
0.0
 10
11.3216437616
 20
9.6053583378
 30
0.0
 10
11.3253822904
 20
9.6170163008
 30
0.0
 10
11.3300207196
 20
9.6322224854
 30
0.0
 10
11.33482427
 20
9.6489380624
 30
0.0
 10
11.3396686233
 20
9.6670332223
 30
0.0
 10
11.3444315433
 20
9.6863819602
 30
0.0
 10
11.3489917151
 20
9.706861661
 30
0.0
 10
11.3532354664
 20
9.7283498933
 30
0.0
 10
11.3583938698
 20
9.758585834
 30
0.0
 10
11.3634228644
 20
9.7979667999
 30
0.0
 10
11.3666380459
 20
9.846502968
 30
0.0
 10
11.3667553701
 20
9.8957181669
 30
0.0
 10
11.3637535816
 20
9.9443454045
 30
0.0
 10
11.3588788034
 20
9.9838585846
 30
0.0
 10
11.3538185437
 20
10.0142398077
 30
0.0
 10
11.3483535214
 20
10.0424519386
 30
0.0
 10
11.3421732097
 20
10.0691990309
 30
0.0
 10
11.3355283754
 20
10.0943024929
 30
0.0
 10
11.3293813617
 20
10.115889408
 30
0.0
 10
11.3246023999
 20
10.1312918427
 30
0.0
 10
11.3214293467
 20
10.1410305226
 30
0.0
  0
SPLINE
  5
233
100
AcDbEntity
  8
0
100
AcDbSpline
 62
9
  6
CONTINUOUS
 70
0
 71
3
 72
55
 73
51
 74
0
 42
0.0000001
 43
0.0000001
 44
0.0000000001
 40
0.0
 40
0.0
 40
0.0
 40
0.0
 40
0.000007916
 40
0.0000314807
 40
0.0000706801
 40
0.0001255003
 40
0.0001959274
 40
0.0002819473
 40
0.00050071
 40
0.0007816769
 40
0.0011247365
 40
0.0015297772
 40
0.0019966876
 40
0.0031156719
 40
0.0044807984
 40
0.0060911644
 40
0.0079452663
 40
0.0100407371
 40
0.0123751459
 40
0.017751066
 40
0.0240536067
 40
0.0312606164
 40
0.0393451527
 40
0.0482799083
 40
0.058037454
 40
0.0685884966
 40
0.0799030295
 40
0.0919513048
 40
0.1181313975
 40
0.1468980923
 40
0.1780293055
 40
0.2113152166
 40
0.2465535693
 40
0.2835483519
 40
0.3221008915
 40
0.4030289998
 40
0.4449607644
 40
0.4875220542
 40
0.5304340924
 40
0.5519303864
 40
0.5734034209
 40
0.6161311691
 40
0.6583302066
 40
0.6997336397
 40
0.7400907409
 40
0.7791764571
 40
0.8167794486
 40
0.8867357345
 40
0.9483746875
 40
1.0
 40
1.0
 40
1.0
 40
1.0
 10
11.2468761059
 20
9.622891804
 30
0.0
 10
11.2468770301
 20
9.622892685
 30
0.0
 10
11.2468784712
 20
9.622897846
 30
0.0
 10
11.2468843754
 20
9.6229074429
 30
0.0
 10
11.2468923934
 20
9.6229247499
 30
0.0
 10
11.2469044384
 20
9.6229483328
 30
0.0
 10
11.2469195656
 20
9.6229788863
 30
0.0
 10
11.2469465915
 20
9.6230330259
 30
0.0
 10
11.2469886641
 20
9.6231176241
 30
0.0
 10
11.2470491865
 20
9.6232393407
 30
0.0
 10
11.247123
 20
9.6233880066
 30
0.0
 10
11.247210077
 20
9.6235635704
 30
0.0
 10
11.2473526306
 20
9.6238513182
 30
0.0
 10
11.2475636286
 20
9.6242779739
 30
0.0
 10
11.2478558606
 20
9.6248702077
 30
0.0
 10
11.2481999609
 20
9.6255690656
 30
0.0
 10
11.2485953062
 20
9.6263739957
 30
0.0
 10
11.2490409826
 20
9.6272843132
 30
0.0
 10
11.2497344115
 20
9.6287058015
 30
0.0
 10
11.2507203483
 20
9.6307395994
 30
0.0
 10
11.2520396829
 20
9.6334851506
 30
0.0
 10
11.2535359657
 20
9.6366303508
 30
0.0
 10
11.2551978602
 20
9.6401668739
 30
0.0
 10
11.2570139371
 20
9.6440854228
 30
0.0
 10
11.2589725965
 20
9.6483762908
 30
0.0
 10
11.2610605641
 20
9.6530299659
 30
0.0
 10
11.263264011
 20
9.6580366549
 30
0.0
 10
11.2664262799
 20
9.6653753014
 30
0.0
 10
11.2705748874
 20
9.6753536929
 30
0.0
 10
11.2756552202
 20
9.6882756125
 30
0.0
 10
11.2808456655
 20
9.7023822673
 30
0.0
 10
11.2860190737
 20
9.7176026466
 30
0.0
 10
11.2910483797
 20
9.733864487
 30
0.0
 10
11.2958026086
 20
9.7510928625
 30
0.0
 10
11.3016977382
 20
9.7756365937
 30
0.0
 10
11.3063653681
 20
9.8012818816
 30
0.0
 10
11.3095220486
 20
9.8277822057
 30
0.0
 10
11.3110732568
 20
9.8482798873
 30
0.0
 10
11.3116078512
 20
9.8655312457
 30
0.0
 10
11.3115707135
 20
9.8793842696
 30
0.0
 10
11.3112187022
 20
9.8932031155
 30
0.0
 10
11.3102091527
 20
9.9103410579
 30
0.0
 10
11.3081190466
 20
9.9306158844
 30
0.0
 10
11.3052358527
 20
9.950406426
 30
0.0
 10
11.3016532305
 20
9.9695709209
 30
0.0
 10
11.2974911427
 20
9.9879893868
 30
0.0
 10
11.2914772419
 20
10.0108687698
 30
0.0
 10
11.2833162519
 20
10.036928164
 30
0.0
 10
11.2730373998
 20
10.0646454879
 30
0.0
 10
11.2659904876
 20
10.0815050914
 30
0.0
 10
11.2626505976
 20
10.0891327061
 30
0.0
  0
SPLINE
  5
234
100
AcDbEntity
  8
0
100
AcDbSpline
 62
9
  6
CONTINUOUS
 70
0
 71
3
 72
36
 73
32
 74
0
 42
0.0000001
 43
0.0000001
 44
0.0000000001
 40
0.0
 40
0.0
 40
0.0
 40
0.0
 40
0.2360070873
 40
0.341909655
 40
0.4397127095
 40
0.5294505908
 40
0.6112338511
 40
0.6851405982
 40
0.7512122887
 40
0.8094827409
 40
0.8599866146
 40
0.8823317859
 40
0.902739219
 40
0.9212077043
 40
0.9377350847
 40
0.9523202276
 40
0.9649630199
 40
0.9756631737
 40
0.9802846201
 40
0.9844202056
 40
0.9880698367
 40
0.991233407
 40
0.9939107976
 40
0.9961018766
 40
0.9978064995
 40
0.9984763414
 40
0.9990245093
 40
0.9994509816
 40
0.999755736
 40
0.9999387494
 40
1.0
 40
1.0
 40
1.0
 40
1.0
 10
11.2626505976
 20
10.0891327061
 30
0.0
 10
11.2615480644
 20
10.0916512641
 30
0.0
 10
11.2600803248
 20
10.0953593156
 30
0.0
 10
11.258466287
 20
10.1002214917
 30
0.0
 10
11.2575031355
 20
10.103502166
 30
0.0
 10
11.2567210642
 20
10.1065411354
 30
0.0
 10
11.2560981759
 20
10.1093320038
 30
0.0
 10
11.2556122869
 20
10.111869629
 30
0.0
 10
11.2552403213
 20
10.114149199
 30
0.0
 10
11.2549627461
 20
10.1161672268
 30
0.0
 10
11.2547904782
 20
10.1176850696
 30
0.0
 10
11.2546857261
 20
10.1187663928
 30
0.0
 10
11.2546237518
 20
10.1194768868
 30
0.0
 10
11.2545730949
 20
10.1201203099
 30
0.0
 10
11.2545315421
 20
10.1206963995
 30
0.0
 10
11.2544977901
 20
10.1212050014
 30
0.0
 10
11.2544711347
 20
10.1216460338
 30
0.0
 10
11.2544533769
 20
10.1219713164
 30
0.0
 10
11.2544420595
 20
10.1221976962
 30
0.0
 10
11.2544352639
 20
10.122342065
 30
0.0
 10
11.2544296376
 20
10.1224694869
 30
0.0
 10
11.2544250763
 20
10.1225799501
 30
0.0
 10
11.2544214922
 20
10.1226734531
 30
0.0
 10
11.2544187504
 20
10.1227499643
 30
0.0
 10
11.2544170483
 20
10.1228031491
 30
0.0
 10
11.2544159371
 20
10.1228371367
 30
0.0
 10
11.2544155116
 20
10.1228563755
 30
0.0
 10
11.2544147318
 20
10.122871041
 30
0.0
 10
11.2544152497
 20
10.1228822136
 30
0.0
 10
11.2544136543
 20
10.1228876826
 30
0.0
 10
11.2544150484
 20
10.1228914859
 30
0.0
 10
11.2544144097
 20
10.122891804
 30
0.0
  0
SPLINE
  5
235
100
AcDbEntity
  8
0
100
AcDbSpline
 62
9
  6
CONTINUOUS
 70
0
 71
3
 72
15
 73
11
 74
0
 42
0.0000001
 43
0.0000001
 44
0.0000000001
 40
0.0
 40
0.0
 40
0.0
 40
0.0
 40
0.1154457366
 40
0.2342404175
 40
0.3565437655
 40
0.4821197659
 40
0.6102958382
 40
0.7400974602
 40
0.8704146921
 40
1.0
 40
1.0
 40
1.0
 40
1.0
 10
11.3214293467
 20
10.1410305226
 30
0.0
 10
11.3210608028
 20
10.1378004061
 30
0.0
 10
11.3196283916
 20
10.1313080175
 30
0.0
 10
11.3155917782
 20
10.1220531646
 30
0.0
 10
11.3097826162
 20
10.1134498124
 30
0.0
 10
11.3024051122
 20
10.1057830761
 30
0.0
 10
11.2937058194
 20
10.0993021237
 30
0.0
 10
11.2839744841
 20
10.0942157541
 30
0.0
 10
11.27353591
 20
10.0906934483
 30
0.0
 10
11.2662855055
 20
10.0894560192
 30
0.0
 10
11.2626505976
 20
10.0891327062
 30
0.0
  0
ENDSEC
  0
SECTION
  2
OBJECTS
  0
DICTIONARY
  5
C
100
AcDbDictionary
280
0
281
1
  3
ACAD_GROUP
350
D
  3
ACAD_MLINESTYLE
350
17
  3
ACAD_LAYOUT
350
1A
  3
ACAD_PLOTSETTINGS
350
19
  3
ACAD_PLOTSTYLENAME
350
E
  0
DICTIONARY
  5
D
102
{ACAD_REACTORS
330
C
102
}
100
AcDbDictionary
280
0
281
1
  0
ACDBDICTIONARYWDFLT
  5
E
102
{ACAD_REACTORS
330
C
102
}
100
AcDbDictionary
281
1
  3
Normal
350
F
100
AcDbDictionaryWithDefault
340
F
  0
DICTIONARY
  5
17
102
{ACAD_REACTORS
330
C
102
}
100
AcDbDictionary
280
0
281
1
  3
Standard
350
18
  0
DICTIONARY
  5
19
102
{ACAD_REACTORS
330
C
102
}
100
AcDbDictionary
281
1
  0
DICTIONARY
  5
1A
102
{ACAD_REACTORS
330
C
102
}
100
AcDbDictionary
281
1
  3
Model
350
236
  3
Layout1
350
237
  0
ACDBPLACEHOLDER
  5
F
102
{ACAD_REACTORS
330
E
102
}
  0
MLINESTYLE
  5
18
102
{ACAD_REACTORS
330
17
102
}
100
AcDbMlineStyle
  2
STANDARD
 70
0
  3

 62
256
 51
90.0
 52
90.0
 71
2
 49
0.5
 62
256
  6
BYLAYER
 49
-0.5
 62
256
  6
BYLAYER
  0
LAYOUT
  5
236
102
{ACAD_REACTORS
330
1A
102
}
100
AcDbPlotSettings
  1

  2
none_device
  4
ANSI_C_(22.00_x_17.00_Inches)
  6

 40
0.0
 41
0.0
 42
0.0
 43
0.0
 44
558.8
 45
431.8
 46
0.0
 47
0.0
 48
0.0
 49
0.0
140
0.0
141
0.0
142
1.0
143
1.0
 70
1024
 72
0
 73
0
 74
0
  7

 75
0
147
1.0
148
0.0
149
0.0
100
AcDbLayout
  1
Model
 70
0
 71
0
 10
0.0
 20
0.0
 11
22.0
 21
17.0
 12
0.0
 22
0.0
 32
0.0
 14
0.0
 24
0.0
 34
0.0
 15
0.0
 25
0.0
 35
0.0
146
0.0
 13
0.0
 23
0.0
 33
0.0
 16
1.0
 26
0.0
 36
0.0
 17
0.0
 27
1.0
 37
0.0
 76
0
330
205
345
0
346
0
  0
LAYOUT
  5
237
102
{ACAD_REACTORS
330
1A
102
}
100
AcDbPlotSettings
  1

  2
none_device
  4
ANSI_C_(22.00_x_17.00_Inches)
  6

 40
0.0
 41
0.0
 42
0.0
 43
0.0
 44
558.8
 45
431.8
 46
0.0
 47
0.0
 48
0.0
 49
0.0
140
0.0
141
0.0
142
1.0
143
1.0
 70
0
 72
0
 73
0
 74
0
  7

 75
0
147
1.0
148
0.0
149
0.0
100
AcDbLayout
  1
Layout1
 70
0
 71
1
 10
0.0
 20
0.0
 11
22.0
 21
17.0
 12
0.0
 22
0.0
 32
0.0
 14
0.0
 24
0.0
 34
0.0
 15
0.0
 25
0.0
 35
0.0
146
0.0
 13
0.0
 23
0.0
 33
0.0
 16
1.0
 26
0.0
 36
0.0
 17
0.0
 27
1.0
 37
0.0
 76
0
330
206
345
0
346
0
  0
ENDSEC
  0
EOF
