999
DXF file: 3200-5751_right.dxf
999
Pro/ENGINEER 2013150 by Parametric Technology Corporation
  0
SECTION
  2
HEADER
  9
$ACADVER
  1
AC1021
  9
$DWGCODEPAGE
  3
ANSI_1252
  9
$EXTMAX
 10
11.0
 20
8.5
 30
0.0
  9
$EXTMIN
 10
0.0
 20
0.0
 30
0.0
  9
$LIMMIN
 10
0.0
 20
0.0
  9
$LIMMAX
 10
11.0
 20
8.5
  9
$VIEWCTR
 10
5.5
 20
4.25
  9
$VIEWSIZE
 40
8.5
  9
$CLAYER
  8
0
  9
$LTSCALE
 40
0.605
  9
$CELTYPE
  6
BYLAYER
  9
$DIMSCALE
 40
1.0
  9
$DIMASZ
 40
0.1
  9
$DIMEXO
 40
0.0625
  9
$DIMDLI
 40
0.418
  9
$DIMEXE
 40
0.125
  9
$DIMCEN
 40
0.099
  9
$DIMLFAC
 40
1.0
  9
$DIMBLK
  1
_FILLED
  9
$DIMTXT
 40
0.08
  9
$DIMTOL
 70
1
  9
$DIMLIM
 70
0
  9
$DIMTFAC
 40
1.0
  9
$DIMTP
 40
0.001
  9
$DIMTM
 40
0.001
  9
$DIMGAP
 40
0.09
  9
$DIMDSEP
 70
46
  9
$PDMODE
 70
3
  9
$PDSIZE
 40
0.3125
  9
$HANDSEED
  5
252
  9
$TILEMODE
 70
1
  9
$MEASUREMENT
 70
0
  9
$INSUNITS
 70
1
  0
ENDSEC
  0
SECTION
  2
CLASSES
  0
CLASS
  1
ACDBDICTIONARYWDFLT
  2
AcDbDictionaryWithDefault
  3
AutoCAD 2000
 90
0
 91
1
280
0
281
0
  0
CLASS
  1
ACDBPLACEHOLDER
  2
AcDbPlaceHolder
  3
AutoCAD 2000
 90
0
 91
1
280
0
281
0
  0
CLASS
  1
LAYOUT
  2
AcDbLayout
  3
AutoCAD 2000
 90
0
 91
0
280
0
281
0
  0
ENDSEC
  0
SECTION
  2
TABLES
  0
TABLE
  2
VPORT
  5
8
100
AcDbSymbolTable
 70
2
  0
VPORT
  5
1F4
100
AcDbSymbolTableRecord
100
AcDbViewportTableRecord
  2
*ACTIVE
 70
0
 10
0.0
 20
0.0
 11
1.0
 21
1.0
 12
5.5
 22
4.25
 13
0.0
 23
0.0
 14
1.0
 24
1.0
 15
0.0
 25
0.0
 16
0.0
 26
0.0
 36
1.0
 17
0.0
 27
0.0
 37
0.0
 40
8.5
 41
1.2941176471
 42
50.0
 43
0.0
 44
0.0
 50
0.0
 51
0.0
 71
0
 72
100
 73
1
 74
1
 75
0
 76
0
 77
0
 78
0
  0
ENDTAB
  0
TABLE
  2
LTYPE
  5
5
100
AcDbSymbolTable
 70
6
  0
LTYPE
  5
14
100
AcDbSymbolTableRecord
100
AcDbLinetypeTableRecord
  2
BYBLOCK
 70
0
  3

 72
65
 73
0
 40
0.0
  0
LTYPE
  5
15
100
AcDbSymbolTableRecord
100
AcDbLinetypeTableRecord
  2
BYLAYER
 70
0
  3

 72
65
 73
0
 40
0.0
  0
LTYPE
  5
16
100
AcDbSymbolTableRecord
100
AcDbLinetypeTableRecord
  2
CONTINUOUS
 70
64
  3
Solid line
 72
65
 73
0
 40
0.0
  0
LTYPE
  5
1F5
100
AcDbSymbolTableRecord
100
AcDbLinetypeTableRecord
  2
CENTER
 70
64
  3
____ _ ____ _ ____ _ ____ _ ____ _ ____ _ ____
 72
65
 73
4
 40
0.6
 49
0.375
 74
0
 49
-0.075
 74
0
 49
0.075
 74
0
 49
-0.075
 74
0
  0
LTYPE
  5
1F6
100
AcDbSymbolTableRecord
100
AcDbLinetypeTableRecord
  2
HIDDEN
 70
64
  3
- - - - - - - - - - - - - - - - - - - -
 72
65
 73
2
 40
0.2
 49
0.1
 74
0
 49
-0.1
 74
0
  0
LTYPE
  5
1F7
100
AcDbSymbolTableRecord
100
AcDbLinetypeTableRecord
  2
PHANTOM
 70
64
  3
_____ _ _ _____ _ _ _____ _ _ _____
 72
65
 73
6
 40
0.8
 49
0.45
 74
0
 49
-0.05
 74
0
 49
0.1
 74
0
 49
-0.05
 74
0
 49
0.1
 74
0
 49
-0.05
 74
0
  0
LTYPE
  5
1F8
100
AcDbSymbolTableRecord
100
AcDbLinetypeTableRecord
  2
DOT
 70
64
  3
. . . . . . . . . . . . . . . . . . . .
 72
65
 73
2
 40
0.2
 49
0.1
 74
0
 49
-0.1
 74
0
  0
LTYPE
  5
1F9
100
AcDbSymbolTableRecord
100
AcDbLinetypeTableRecord
  2
DASHED
 70
64
  3
- - - - - - - - - - - - - - - - - - - -
 72
65
 73
2
 40
0.2
 49
0.1
 74
0
 49
-0.1
 74
0
  0
ENDTAB
  0
TABLE
  2
LAYER
  5
2
100
AcDbSymbolTable
 70
36
  0
LAYER
  5
10
100
AcDbSymbolTableRecord
100
AcDbLayerTableRecord
  2
0
 70
0
 62
7
  6
CONTINUOUS
370
-3
390
F
  0
LAYER
  5
1FA
100
AcDbSymbolTableRecord
100
AcDbLayerTableRecord
  2
DEFAULT_1
 70
0
 62
7
  6
CENTER
370
-3
390
F
  0
LAYER
  5
1FB
100
AcDbSymbolTableRecord
100
AcDbLayerTableRecord
  2
DEFAULT_2
 70
0
 62
8
  6
HIDDEN
370
-3
390
F
  0
LAYER
  5
1FC
100
AcDbSymbolTableRecord
100
AcDbLayerTableRecord
  2
DEFAULT_3
 70
0
 62
7
  6
PHANTOM
370
-3
390
F
  0
LAYER
  5
1FD
100
AcDbSymbolTableRecord
100
AcDbLayerTableRecord
  2
ALL_FEATURES
 70
0
 62
7
  6
CONTINUOUS
370
-3
390
F
  0
LAYER
  5
1FE
100
AcDbSymbolTableRecord
100
AcDbLayerTableRecord
  2
AXES_FEATURES
 70
0
 62
7
  6
CONTINUOUS
370
-3
390
F
  0
LAYER
  5
1FF
100
AcDbSymbolTableRecord
100
AcDbLayerTableRecord
  2
DATUM_CURVES
 70
0
 62
7
  6
CONTINUOUS
370
-3
390
F
  0
LAYER
  5
200
100
AcDbSymbolTableRecord
100
AcDbLayerTableRecord
  2
DEFAULT_COORDINATE_SYSTEM
 70
0
 62
7
  6
CONTINUOUS
370
-3
390
F
  0
LAYER
  5
201
100
AcDbSymbolTableRecord
100
AcDbLayerTableRecord
  2
DEFAULT_DATUM_AXES
 70
0
 62
7
  6
CONTINUOUS
370
-3
390
F
  0
LAYER
  5
202
100
AcDbSymbolTableRecord
100
AcDbLayerTableRecord
  2
DEFAULT_DATUM_CURVES
 70
0
 62
7
  6
CONTINUOUS
370
-3
390
F
  0
LAYER
  5
203
100
AcDbSymbolTableRecord
100
AcDbLayerTableRecord
  2
DEFAULT_DATUM_PLANES
 70
0
 62
7
  6
CONTINUOUS
370
-3
390
F
  0
LAYER
  5
204
100
AcDbSymbolTableRecord
100
AcDbLayerTableRecord
  2
DEFAULT_SURFACES
 70
0
 62
7
  6
CONTINUOUS
370
-3
390
F
  0
LAYER
  5
205
100
AcDbSymbolTableRecord
100
AcDbLayerTableRecord
  2
DIMENSIONS
 70
0
 62
7
  6
CONTINUOUS
370
-3
390
F
  0
LAYER
  5
206
100
AcDbSymbolTableRecord
100
AcDbLayerTableRecord
  2
LAY0001
 70
0
 62
7
  6
CONTINUOUS
370
-3
390
F
  0
LAYER
  5
207
100
AcDbSymbolTableRecord
100
AcDbLayerTableRecord
  2
PROTRUSION_FEATURES
 70
0
 62
7
  6
CONTINUOUS
370
-3
390
F
  0
LAYER
  5
208
100
AcDbSymbolTableRecord
100
AcDbLayerTableRecord
  2
SIZE_REF
 70
0
 62
7
  6
CONTINUOUS
370
-3
390
F
  0
ENDTAB
  0
TABLE
  2
STYLE
  5
3
100
AcDbSymbolTable
 70
1
  0
STYLE
  5
11
100
AcDbSymbolTableRecord
100
AcDbTextStyleTableRecord
  2
STANDARD
 70
0
 40
0.0
 41
0.8
 50
0.0
 71
0
 42
0.2
  3
txt
  4

  0
STYLE
  5
209
100
AcDbSymbolTableRecord
100
AcDbTextStyleTableRecord
  2
TEXTSTYLE_1
 70
0
 40
0.0
 41
0.8
 50
0.0
 71
0
 42
0.2
  3
gdt
  4

  0
ENDTAB
  0
TABLE
  2
VIEW
  5
6
100
AcDbSymbolTable
 70
0
  0
ENDTAB
  0
TABLE
  2
UCS
  5
7
100
AcDbSymbolTable
 70
0
  0
ENDTAB
  0
TABLE
  2
APPID
  5
9
100
AcDbSymbolTable
 70
1
  0
APPID
  5
20A
100
AcDbSymbolTableRecord
100
AcDbRegAppTableRecord
  2
ACAD
 70
0
  0
ENDTAB
  0
TABLE
  2
BLOCK_RECORD
  5
1
100
AcDbSymbolTable
 70
0
  0
BLOCK_RECORD
  5
20B
100
AcDbSymbolTableRecord
100
AcDbBlockTableRecord
  2
*Model_Space
  0
BLOCK_RECORD
  5
20C
100
AcDbSymbolTableRecord
100
AcDbBlockTableRecord
  2
*Paper_Space
  0
ENDTAB
  0
TABLE
  2
DIMSTYLE
  5
A
100
AcDbSymbolTable
 70
1
100
AcDbDimStyleTable
 71
0
  0
DIMSTYLE
105
20D
100
AcDbSymbolTableRecord
100
AcDbDimStyleTableRecord
  2
STANDARD
 70
0
  3

  4

 40
1.0
 41
0.1
 42
0.0625
 43
0.38
 44
0.125
 45
0.0
 46
0.0
 47
0.001
 48
0.001
140
0.08
141
0.09
142
0.0
143
25.4
144
1.0
145
0.0
146
1.0
147
0.09
 71
1.0
 72
0.0
 73
1
 74
1
 75
0
 76
0
 77
0
 78
4
170
0
171
2
172
0
173
0
174
0
175
0
176
0
177
0
178
0
270
2
271
3
272
3
273
2
274
2
275
0
280
0
281
0
282
0
283
1
284
4
285
0
286
0
287
3
288
0
340
11
278
46
  0
ENDTAB
  0
ENDSEC
  0
SECTION
  2
BLOCKS
  0
BLOCK
  5
20
100
AcDbEntity
  8
0
100
AcDbBlockBegin
  2
*Model_Space
 70
0
 10
0.0
 20
0.0
 30
0.0
  3
*Model_Space
  1

  0
ENDBLK
  5
21
100
AcDbEntity
  8
0
100
AcDbBlockEnd
  0
BLOCK
  5
1C
100
AcDbEntity
  8
0
100
AcDbBlockBegin
  2
*Paper_Space
 70
0
 10
0.0
 20
0.0
 30
0.0
  3
*Paper_Space
  1

  0
ENDBLK
  5
1D
100
AcDbEntity
  8
0
100
AcDbBlockEnd
  0
ENDSEC
  0
SECTION
  2
ENTITIES
  0
LINE
  5
20E
100
AcDbEntity
  8
0
100
AcDbLine
 62
7
  6
CONTINUOUS
 10
0.0
 20
0.0
 11
0.0
 21
8.5
  0
LINE
  5
20F
100
AcDbEntity
  8
0
100
AcDbLine
 62
7
  6
CONTINUOUS
 10
0.0
 20
0.0
 11
11.0
 21
0.0
  0
LINE
  5
210
100
AcDbEntity
  8
0
100
AcDbLine
 62
7
  6
CONTINUOUS
 10
0.0
 20
8.5
 11
11.0
 21
8.5
  0
LINE
  5
211
100
AcDbEntity
  8
0
100
AcDbLine
 62
7
  6
CONTINUOUS
 10
11.0
 20
0.0
 11
11.0
 21
8.5
  0
LINE
  5
212
100
AcDbEntity
  8
0
100
AcDbLine
 62
7
  6
CONTINUOUS
 10
5.8303043478
 20
2.9623237578
 11
4.0398043478
 21
2.9623237578
  0
LINE
  5
213
100
AcDbEntity
  8
0
100
AcDbLine
 62
7
  6
CONTINUOUS
 10
3.8725569722
 20
2.9803237578
 11
5.9975517235
 21
2.9803237578
  0
LINE
  5
214
100
AcDbEntity
  8
0
100
AcDbLine
 62
7
  6
CONTINUOUS
 10
3.8725543478
 20
3.1500328614
 11
5.9975543478
 21
3.1500328614
  0
LINE
  5
215
100
AcDbEntity
  8
0
100
AcDbLine
 62
7
  6
CONTINUOUS
 10
3.8725543478
 20
3.1500328614
 11
3.8725543478
 21
2.9803237578
  0
LINE
  5
216
100
AcDbEntity
  8
0
100
AcDbLine
 62
7
  6
CONTINUOUS
 10
3.8788712151
 20
3.1684477799
 11
5.9912374805
 21
3.1684477799
  0
LINE
  5
217
100
AcDbEntity
  8
0
100
AcDbLine
 62
7
  6
CONTINUOUS
 10
5.7697503936
 20
3.4095834365
 11
5.7400543478
 21
3.4053237578
  0
LINE
  5
218
100
AcDbEntity
  8
0
100
AcDbLine
 62
7
  6
CONTINUOUS
 10
4.100358302
 20
3.4095834365
 11
4.1300543478
 21
3.4053237578
  0
LINE
  5
219
100
AcDbEntity
  8
0
100
AcDbLine
 62
7
  6
CONTINUOUS
 10
4.1175543478
 20
5.3653237578
 11
4.1175543478
 21
4.6743237578
  0
LINE
  5
21A
100
AcDbEntity
  8
0
100
AcDbLine
 62
7
  6
CONTINUOUS
 10
4.1175543478
 20
4.4793237578
 11
4.1175543478
 21
4.2803237578
  0
LINE
  5
21B
100
AcDbEntity
  8
0
100
AcDbLine
 62
7
  6
CONTINUOUS
 10
4.1175543478
 20
4.0853237578
 11
4.1175543478
 21
3.5294644416
  0
LINE
  5
21C
100
AcDbEntity
  8
0
100
AcDbLine
 62
7
  6
CONTINUOUS
 10
4.0540470907
 20
3.3937386763
 11
5.816061605
 21
3.3937386763
  0
LINE
  5
21D
100
AcDbEntity
  8
0
100
AcDbLine
 62
7
  6
CONTINUOUS
 10
4.0777302234
 20
3.4053237578
 11
5.7923784723
 21
3.4053237578
  0
LINE
  5
21E
100
AcDbEntity
  8
0
100
AcDbLine
 62
7
  6
CONTINUOUS
 10
5.7697503936
 20
3.4095834365
 11
4.100358302
 21
3.4095834365
  0
LINE
  5
21F
100
AcDbEntity
  8
0
100
AcDbLine
 62
7
  6
CONTINUOUS
 10
4.1175543478
 20
3.5294644416
 11
4.100358302
 21
3.4095834365
  0
LINE
  5
220
100
AcDbEntity
  8
0
100
AcDbLine
 62
7
  6
CONTINUOUS
 10
5.7525543478
 20
3.5294644416
 11
4.1175543478
 21
3.5294644416
  0
LINE
  5
221
100
AcDbEntity
  8
0
100
AcDbLine
 62
7
  6
CONTINUOUS
 10
4.4350543478
 20
4.2853237578
 11
4.4350543478
 21
4.2803237578
  0
LINE
  5
222
100
AcDbEntity
  8
0
100
AcDbLine
 62
7
  6
CONTINUOUS
 10
4.6300543478
 20
4.2853237578
 11
4.6300543478
 21
4.2803237578
  0
LINE
  5
223
100
AcDbEntity
  8
0
100
AcDbLine
 62
7
  6
CONTINUOUS
 10
4.6800543478
 20
4.2053237578
 11
4.6800543478
 21
4.3673237578
  0
LINE
  5
224
100
AcDbEntity
  8
0
100
AcDbLine
 62
7
  6
CONTINUOUS
 10
4.6937450281
 20
4.3466429092
 11
4.6937450281
 21
4.3018343942
  0
LINE
  5
225
100
AcDbEntity
  8
0
100
AcDbLine
 62
7
  6
CONTINUOUS
 10
4.6937450281
 20
4.2811535456
 11
4.6937450281
 21
4.2053237578
  0
LINE
  5
226
100
AcDbEntity
  8
0
100
AcDbLine
 62
7
  6
CONTINUOUS
 10
4.7530713113
 20
4.3018343942
 11
4.7530713113
 21
4.2811535456
  0
LINE
  5
227
100
AcDbEntity
  8
0
100
AcDbLine
 62
7
  6
CONTINUOUS
 10
4.7621984293
 20
4.3673237578
 11
4.7621984293
 21
4.3466429092
  0
LINE
  5
228
100
AcDbEntity
  8
0
100
AcDbLine
 62
7
  6
CONTINUOUS
 10
4.7804526718
 20
4.3673237578
 11
4.7804526718
 21
4.2053237578
  0
LINE
  5
229
100
AcDbEntity
  8
0
100
AcDbLine
 62
7
  6
CONTINUOUS
 10
4.7941433456
 20
4.3673237578
 11
4.7941433456
 21
4.2260046088
  0
LINE
  5
22A
100
AcDbEntity
  8
0
100
AcDbLine
 62
7
  6
CONTINUOUS
 10
4.0540470907
 20
3.3937386763
 11
3.8788712151
 21
3.1684477799
  0
LINE
  5
22B
100
AcDbEntity
  8
0
100
AcDbLine
 62
7
  6
CONTINUOUS
 10
4.2198688824
 20
4.0853237578
 11
4.1175543478
 21
4.0853237578
  0
LINE
  5
22C
100
AcDbEntity
  8
0
100
AcDbLine
 62
7
  6
CONTINUOUS
 10
4.8625967468
 20
4.2260046088
 11
4.8625967468
 21
4.2053237578
  0
LINE
  5
22D
100
AcDbEntity
  8
0
100
AcDbLine
 62
7
  6
CONTINUOUS
 10
4.8625967468
 20
4.2053237578
 11
4.7804526718
 21
4.2053237578
  0
LINE
  5
22E
100
AcDbEntity
  8
0
100
AcDbLine
 62
7
  6
CONTINUOUS
 10
4.6937450281
 20
4.2053237578
 11
4.6800543478
 21
4.2053237578
  0
LINE
  5
22F
100
AcDbEntity
  8
0
100
AcDbLine
 62
7
  6
CONTINUOUS
 10
4.8625967468
 20
4.2260046088
 11
4.7941433456
 21
4.2260046088
  0
LINE
  5
230
100
AcDbEntity
  8
0
100
AcDbLine
 62
7
  6
CONTINUOUS
 10
4.6300543478
 20
4.2803237578
 11
4.4350543478
 21
4.2803237578
  0
LINE
  5
231
100
AcDbEntity
  8
0
100
AcDbLine
 62
7
  6
CONTINUOUS
 10
4.2198688824
 20
4.2803237578
 11
4.1175543478
 21
4.2803237578
  0
LINE
  5
232
100
AcDbEntity
  8
0
100
AcDbLine
 62
7
  6
CONTINUOUS
 10
4.7530713113
 20
4.2811535456
 11
4.6937450281
 21
4.2811535456
  0
LINE
  5
233
100
AcDbEntity
  8
0
100
AcDbLine
 62
7
  6
CONTINUOUS
 10
4.6300543478
 20
4.2853237578
 11
4.4350543478
 21
4.2853237578
  0
LINE
  5
234
100
AcDbEntity
  8
0
100
AcDbLine
 62
7
  6
CONTINUOUS
 10
4.6937450281
 20
4.3018343942
 11
4.7530713113
 21
4.3018343942
  0
LINE
  5
235
100
AcDbEntity
  8
0
100
AcDbLine
 62
7
  6
CONTINUOUS
 10
4.7621984293
 20
4.3466429092
 11
4.6937450281
 21
4.3466429092
  0
LINE
  5
236
100
AcDbEntity
  8
0
100
AcDbLine
 62
7
  6
CONTINUOUS
 10
4.7941433456
 20
4.3673237578
 11
4.7804526718
 21
4.3673237578
  0
LINE
  5
237
100
AcDbEntity
  8
0
100
AcDbLine
 62
7
  6
CONTINUOUS
 10
4.6800543478
 20
4.3673237578
 11
4.7621984293
 21
4.3673237578
  0
LINE
  5
238
100
AcDbEntity
  8
0
100
AcDbLine
 62
7
  6
CONTINUOUS
 10
4.2198688824
 20
4.4793237578
 11
4.1175543478
 21
4.4793237578
  0
LINE
  5
239
100
AcDbEntity
  8
0
100
AcDbLine
 62
7
  6
CONTINUOUS
 10
5.816061605
 20
3.3937386763
 11
5.9912374805
 21
3.1684477799
  0
LINE
  5
23A
100
AcDbEntity
  8
0
100
AcDbLine
 62
7
  6
CONTINUOUS
 10
4.2198688824
 20
4.6743237578
 11
4.1175543478
 21
4.6743237578
  0
LINE
  5
23B
100
AcDbEntity
  8
0
100
AcDbLine
 62
7
  6
CONTINUOUS
 10
5.7525543478
 20
3.5294644416
 11
5.7697503936
 21
3.4095834365
  0
LINE
  5
23C
100
AcDbEntity
  8
0
100
AcDbLine
 62
7
  6
CONTINUOUS
 10
5.7525543478
 20
5.3653237578
 11
5.7525543478
 21
3.5294644416
  0
LINE
  5
23D
100
AcDbEntity
  8
0
100
AcDbLine
 62
7
  6
CONTINUOUS
 10
5.9975543478
 20
3.1500328614
 11
5.9975543478
 21
2.9803237578
  0
LINE
  5
23E
100
AcDbEntity
  8
0
100
AcDbLine
 62
7
  6
CONTINUOUS
 10
5.7525543478
 20
5.3653237578
 11
4.1175543478
 21
5.3653237578
  0
LINE
  5
23F
100
AcDbEntity
  8
0
100
AcDbLine
 62
7
  6
CONTINUOUS
 10
5.5225543478
 20
5.5953237578
 11
4.3475543478
 21
5.5953237578
  0
ARC
  5
240
100
AcDbEntity
  8
0
100
AcDbCircle
 62
7
  6
CONTINUOUS
 10
5.5225543478
 20
5.3653237578
 40
0.23
100
AcDbArc
 50
0.0
 51
90.0
  0
ARC
  5
241
100
AcDbEntity
  8
0
100
AcDbCircle
 62
7
  6
CONTINUOUS
 10
4.3475543478
 20
5.3653237578
 40
0.23
100
AcDbArc
 50
90.0
 51
180.0
  0
ARC
  5
242
100
AcDbEntity
  8
0
100
AcDbCircle
 62
7
  6
CONTINUOUS
 10
5.8303043478
 20
3.0138237578
 40
0.0515
100
AcDbArc
 50
270.0
 51
319.366485035
  0
ARC
  5
243
100
AcDbEntity
  8
0
100
AcDbCircle
 62
7
  6
CONTINUOUS
 10
4.0398043478
 20
3.0138237578
 40
0.0515
100
AcDbArc
 50
220.633514965
 51
270.0
  0
ARC
  5
244
100
AcDbEntity
  8
0
100
AcDbCircle
 62
7
  6
CONTINUOUS
 10
3.9025543478
 20
3.1500328614
 40
0.03
100
AcDbArc
 50
142.133
 51
180.0
  0
ARC
  5
245
100
AcDbEntity
  8
0
100
AcDbCircle
 62
7
  6
CONTINUOUS
 10
5.9675543478
 20
3.1500328614
 40
0.03
100
AcDbArc
 50
0.0
 51
37.867
  0
ARC
  5
246
100
AcDbEntity
  8
0
100
AcDbCircle
 62
7
  6
CONTINUOUS
 10
4.0777302234
 20
3.3753237578
 40
0.03
100
AcDbArc
 50
90.0
 51
142.133
  0
ARC
  5
247
100
AcDbEntity
  8
0
100
AcDbCircle
 62
7
  6
CONTINUOUS
 10
5.7923784723
 20
3.3753237578
 40
0.03
100
AcDbArc
 50
37.867
 51
90.0
  0
SPLINE
  5
248
100
AcDbEntity
  8
0
100
AcDbSpline
 62
7
  6
CONTINUOUS
 70
0
 71
3
 72
39
 73
35
 74
0
 42
0.0000001
 43
0.0000001
 44
0.0000000001
 40
0.0
 40
0.0
 40
0.0
 40
0.0
 40
0.0203560035
 40
0.0415865026
 40
0.0639787822
 40
0.0877555899
 40
0.1130823667
 40
0.1400655213
 40
0.168774611
 40
0.1992480466
 40
0.2314999174
 40
0.265522628
 40
0.3012657016
 40
0.3386491092
 40
0.3774950529
 40
0.4175868154
 40
0.4585557036
 40
0.5000017921
 40
0.5414479623
 40
0.5824160951
 40
0.6225068547
 40
0.6613520675
 40
0.6987346338
 40
0.7344775322
 40
0.7685003816
 40
0.8007521917
 40
0.8312252852
 40
0.8599340762
 40
0.8869171267
 40
0.9122438614
 40
0.9360207429
 40
0.95841322
 40
0.9796439152
 40
1.0
 40
1.0
 40
1.0
 40
1.0
 10
4.2198688824
 20
4.4793237578
 30
0.0
 10
4.2215837402
 20
4.4793237578
 30
0.0
 10
4.2250926398
 20
4.4796282219
 30
0.0
 10
4.2303417633
 20
4.480930632
 30
0.0
 10
4.2356233085
 20
4.4830605103
 30
0.0
 10
4.2408970792
 20
4.4859982302
 30
0.0
 10
4.2461268586
 20
4.4897246148
 30
0.0
 10
4.2512699933
 20
4.4942273579
 30
0.0
 10
4.2562772995
 20
4.4994956471
 30
0.0
 10
4.2610939596
 20
4.5055180221
 30
0.0
 10
4.2656542821
 20
4.5122836271
 30
0.0
 10
4.2698876141
 20
4.5197730155
 30
0.0
 10
4.2737090306
 20
4.5279608274
 30
0.0
 10
4.2770283126
 20
4.5368005596
 30
0.0
 10
4.2797506514
 20
4.5462247462
 30
0.0
 10
4.2817750344
 20
4.5561319772
 30
0.0
 10
4.2830344124
 20
4.566386629
 30
0.0
 10
4.283453009
 20
4.5768242201
 30
0.0
 10
4.2830342939
 20
4.5872617361
 30
0.0
 10
4.2817750164
 20
4.5975162612
 30
0.0
 10
4.2797504646
 20
4.6074232438
 30
0.0
 10
4.277028249
 20
4.6168472359
 30
0.0
 10
4.273708971
 20
4.6256868152
 30
0.0
 10
4.2698875732
 20
4.6338745522
 30
0.0
 10
4.2656542505
 20
4.6413639366
 30
0.0
 10
4.2610939411
 20
4.6481295239
 30
0.0
 10
4.2562773142
 20
4.6541518495
 30
0.0
 10
4.2512700529
 20
4.659420095
 30
0.0
 10
4.2461269467
 20
4.6639228121
 30
0.0
 10
4.2408971969
 20
4.6676492275
 30
0.0
 10
4.2356234105
 20
4.6705869614
 30
0.0
 10
4.2303418296
 20
4.6727168557
 30
0.0
 10
4.2250926699
 20
4.6740192852
 30
0.0
 10
4.2215837471
 20
4.6743237578
 30
0.0
 10
4.2198688824
 20
4.6743237578
 30
0.0
  0
SPLINE
  5
249
100
AcDbEntity
  8
0
100
AcDbSpline
 62
7
  6
CONTINUOUS
 70
0
 71
3
 72
39
 73
35
 74
0
 42
0.0000001
 43
0.0000001
 44
0.0000000001
 40
0.0
 40
0.0
 40
0.0
 40
0.0
 40
0.0203560035
 40
0.0415865026
 40
0.0639787822
 40
0.0877555899
 40
0.1130823667
 40
0.1400655213
 40
0.168774611
 40
0.1992480466
 40
0.2314999174
 40
0.265522628
 40
0.3012657016
 40
0.3386491092
 40
0.3774950529
 40
0.4175868154
 40
0.4585557036
 40
0.5000017921
 40
0.5414479623
 40
0.5824160951
 40
0.6225068547
 40
0.6613520675
 40
0.6987346338
 40
0.7344775322
 40
0.7685003816
 40
0.8007521917
 40
0.8312252852
 40
0.8599340762
 40
0.8869171267
 40
0.9122438614
 40
0.9360207429
 40
0.95841322
 40
0.9796439152
 40
1.0
 40
1.0
 40
1.0
 40
1.0
 10
4.2198688824
 20
4.0853237578
 30
0.0
 10
4.2215837402
 20
4.0853237578
 30
0.0
 10
4.2250926398
 20
4.0856282219
 30
0.0
 10
4.2303417633
 20
4.086930632
 30
0.0
 10
4.2356233085
 20
4.0890605103
 30
0.0
 10
4.2408970792
 20
4.0919982302
 30
0.0
 10
4.2461268586
 20
4.0957246148
 30
0.0
 10
4.2512699933
 20
4.1002273579
 30
0.0
 10
4.2562772995
 20
4.1054956471
 30
0.0
 10
4.2610939596
 20
4.1115180221
 30
0.0
 10
4.2656542821
 20
4.1182836271
 30
0.0
 10
4.2698876141
 20
4.1257730155
 30
0.0
 10
4.2737090306
 20
4.1339608274
 30
0.0
 10
4.2770283126
 20
4.1428005596
 30
0.0
 10
4.2797506514
 20
4.1522247462
 30
0.0
 10
4.2817750344
 20
4.1621319772
 30
0.0
 10
4.2830344124
 20
4.172386629
 30
0.0
 10
4.283453009
 20
4.1828242201
 30
0.0
 10
4.2830342939
 20
4.1932617361
 30
0.0
 10
4.2817750164
 20
4.2035162612
 30
0.0
 10
4.2797504646
 20
4.2134232438
 30
0.0
 10
4.277028249
 20
4.2228472359
 30
0.0
 10
4.273708971
 20
4.2316868152
 30
0.0
 10
4.2698875732
 20
4.2398745522
 30
0.0
 10
4.2656542505
 20
4.2473639366
 30
0.0
 10
4.2610939411
 20
4.2541295239
 30
0.0
 10
4.2562773142
 20
4.2601518495
 30
0.0
 10
4.2512700529
 20
4.265420095
 30
0.0
 10
4.2461269467
 20
4.2699228121
 30
0.0
 10
4.2408971969
 20
4.2736492275
 30
0.0
 10
4.2356234105
 20
4.2765869614
 30
0.0
 10
4.2303418296
 20
4.2787168557
 30
0.0
 10
4.2250926699
 20
4.2800192852
 30
0.0
 10
4.2215837471
 20
4.2803237578
 30
0.0
 10
4.2198688824
 20
4.2803237578
 30
0.0
  0
LINE
  5
24A
100
AcDbEntity
  8
0
100
AcDbLine
 62
7
  6
CONTINUOUS
 10
4.2229323483
 20
4.4802609663
 11
4.2267260943
 21
4.4814262944
  0
SPLINE
  5
24B
100
AcDbEntity
  8
0
100
AcDbSpline
 62
7
  6
CONTINUOUS
 70
0
 71
3
 72
35
 73
31
 74
0
 42
0.0000001
 43
0.0000001
 44
0.0000000001
 40
0.0
 40
0.0
 40
0.0
 40
0.0
 40
0.0435163907
 40
0.0672057058
 40
0.0922822886
 40
0.118797604
 40
0.1467886983
 40
0.1762676759
 40
0.2072382471
 40
0.2735276079
 40
0.3087810883
 40
0.3452890451
 40
0.3829113205
 40
0.4214401224
 40
0.4605975845
 40
0.5000953228
 40
0.5395912413
 40
0.5787440885
 40
0.6172658578
 40
0.6548777819
 40
0.691373799
 40
0.7266136381
 40
0.7928741052
 40
0.8238296385
 40
0.8532937012
 40
0.881269928
 40
0.9077705414
 40
0.9328327796
 40
0.9565083155
 40
1.0
 40
1.0
 40
1.0
 40
1.0
 10
4.2267260943
 20
4.4814262944
 30
0.0
 10
4.2298265848
 20
4.4825616976
 30
0.0
 10
4.2344038253
 20
4.4849254311
 30
0.0
 10
4.2401115726
 20
4.4889876631
 30
0.0
 10
4.2444617635
 20
4.4927020905
 30
0.0
 10
4.2487229474
 20
4.4969887191
 30
0.0
 10
4.252864666
 20
4.5018393016
 30
0.0
 10
4.2568482927
 20
4.5072466164
 30
0.0
 10
4.2620082899
 20
4.5153684051
 30
0.0
 10
4.2665221513
 20
4.5243921883
 30
0.0
 10
4.2702884347
 20
4.5341718992
 30
0.0
 10
4.2727604764
 20
4.5421016221
 30
0.0
 10
4.2747576065
 20
4.5504195572
 30
0.0
 10
4.2762301148
 20
4.5590505038
 30
0.0
 10
4.2771348593
 20
4.5679027393
 30
0.0
 10
4.2774325041
 20
4.5768695056
 30
0.0
 10
4.2771287704
 20
4.5858357262
 30
0.0
 10
4.2762177719
 20
4.5946862881
 30
0.0
 10
4.2747398399
 20
4.6033146089
 30
0.0
 10
4.2727374977
 20
4.6116290036
 30
0.0
 10
4.270260959
 20
4.6195544611
 30
0.0
 10
4.2664896055
 20
4.6293277856
 30
0.0
 10
4.261971653
 20
4.638344625
 30
0.0
 10
4.256808444
 20
4.6464590832
 30
0.0
 10
4.252822935
 20
4.6518607877
 30
0.0
 10
4.248679751
 20
4.6567056826
 30
0.0
 10
4.2444174666
 20
4.6609865238
 30
0.0
 10
4.240066504
 20
4.6646950555
 30
0.0
 10
4.2343581454
 20
4.6687495187
 30
0.0
 10
4.2297808225
 20
4.6711068973
 30
0.0
 10
4.2266806917
 20
4.6722378236
 30
0.0
  0
SPLINE
  5
24C
100
AcDbEntity
  8
0
100
AcDbSpline
 62
7
  6
CONTINUOUS
 70
0
 71
3
 72
9
 73
5
 74
0
 42
0.0000001
 43
0.0000001
 44
0.0000000001
 40
0.0
 40
0.0
 40
0.0
 40
0.0
 40
0.5093064316
 40
1.0
 40
1.0
 40
1.0
 40
1.0
 10
4.2266806917
 20
4.6722378236
 30
0.0
 10
4.2254450513
 20
4.6726885846
 30
0.0
 10
4.2229721442
 20
4.673451754
 30
0.0
 10
4.2204278404
 20
4.6739324105
 30
0.0
 10
4.2191705109
 20
4.6740904563
 30
0.0
  0
LINE
  5
24D
100
AcDbEntity
  8
0
100
AcDbLine
 62
7
  6
CONTINUOUS
 10
4.2229323483
 20
4.0862609663
 11
4.2267260943
 21
4.0874262944
  0
SPLINE
  5
24E
100
AcDbEntity
  8
0
100
AcDbSpline
 62
7
  6
CONTINUOUS
 70
0
 71
3
 72
35
 73
31
 74
0
 42
0.0000001
 43
0.0000001
 44
0.0000000001
 40
0.0
 40
0.0
 40
0.0
 40
0.0
 40
0.0435163907
 40
0.0672057058
 40
0.0922822886
 40
0.118797604
 40
0.1467886983
 40
0.1762676759
 40
0.2072382471
 40
0.2735276079
 40
0.3087810883
 40
0.3452890451
 40
0.3829113205
 40
0.4214401224
 40
0.4605975845
 40
0.5000953228
 40
0.5395912413
 40
0.5787440885
 40
0.6172658578
 40
0.6548777819
 40
0.691373799
 40
0.7266136381
 40
0.7928741052
 40
0.8238296385
 40
0.8532937012
 40
0.881269928
 40
0.9077705414
 40
0.9328327796
 40
0.9565083155
 40
1.0
 40
1.0
 40
1.0
 40
1.0
 10
4.2267260943
 20
4.0874262944
 30
0.0
 10
4.2298265848
 20
4.0885616976
 30
0.0
 10
4.2344038253
 20
4.0909254311
 30
0.0
 10
4.2401115726
 20
4.0949876631
 30
0.0
 10
4.2444617635
 20
4.0987020905
 30
0.0
 10
4.2487229474
 20
4.1029887191
 30
0.0
 10
4.252864666
 20
4.1078393016
 30
0.0
 10
4.2568482927
 20
4.1132466164
 30
0.0
 10
4.2620082899
 20
4.1213684051
 30
0.0
 10
4.2665221513
 20
4.1303921883
 30
0.0
 10
4.2702884347
 20
4.1401718992
 30
0.0
 10
4.2727604764
 20
4.1481016221
 30
0.0
 10
4.2747576065
 20
4.1564195572
 30
0.0
 10
4.2762301148
 20
4.1650505038
 30
0.0
 10
4.2771348593
 20
4.1739027393
 30
0.0
 10
4.2774325041
 20
4.1828695056
 30
0.0
 10
4.2771287704
 20
4.1918357262
 30
0.0
 10
4.2762177719
 20
4.2006862881
 30
0.0
 10
4.2747398399
 20
4.2093146089
 30
0.0
 10
4.2727374977
 20
4.2176290036
 30
0.0
 10
4.270260959
 20
4.2255544611
 30
0.0
 10
4.2664896055
 20
4.2353277856
 30
0.0
 10
4.261971653
 20
4.244344625
 30
0.0
 10
4.256808444
 20
4.2524590832
 30
0.0
 10
4.252822935
 20
4.2578607877
 30
0.0
 10
4.248679751
 20
4.2627056826
 30
0.0
 10
4.2444174666
 20
4.2669865238
 30
0.0
 10
4.240066504
 20
4.2706950555
 30
0.0
 10
4.2343581454
 20
4.2747495187
 30
0.0
 10
4.2297808225
 20
4.2771068973
 30
0.0
 10
4.2266806917
 20
4.2782378236
 30
0.0
  0
SPLINE
  5
24F
100
AcDbEntity
  8
0
100
AcDbSpline
 62
7
  6
CONTINUOUS
 70
0
 71
3
 72
9
 73
5
 74
0
 42
0.0000001
 43
0.0000001
 44
0.0000000001
 40
0.0
 40
0.0
 40
0.0
 40
0.0
 40
0.5093064316
 40
1.0
 40
1.0
 40
1.0
 40
1.0
 10
4.2266806917
 20
4.2782378236
 30
0.0
 10
4.2254450513
 20
4.2786885846
 30
0.0
 10
4.2229721442
 20
4.279451754
 30
0.0
 10
4.2204278404
 20
4.2799324105
 30
0.0
 10
4.2191705109
 20
4.2800904563
 30
0.0
  0
ENDSEC
  0
SECTION
  2
OBJECTS
  0
DICTIONARY
  5
C
100
AcDbDictionary
280
0
281
1
  3
ACAD_GROUP
350
D
  3
ACAD_MLINESTYLE
350
17
  3
ACAD_LAYOUT
350
1A
  3
ACAD_PLOTSETTINGS
350
19
  3
ACAD_PLOTSTYLENAME
350
E
  0
DICTIONARY
  5
D
102
{ACAD_REACTORS
330
C
102
}
100
AcDbDictionary
280
0
281
1
  0
ACDBDICTIONARYWDFLT
  5
E
102
{ACAD_REACTORS
330
C
102
}
100
AcDbDictionary
281
1
  3
Normal
350
F
100
AcDbDictionaryWithDefault
340
F
  0
DICTIONARY
  5
17
102
{ACAD_REACTORS
330
C
102
}
100
AcDbDictionary
280
0
281
1
  3
Standard
350
18
  0
DICTIONARY
  5
19
102
{ACAD_REACTORS
330
C
102
}
100
AcDbDictionary
281
1
  0
DICTIONARY
  5
1A
102
{ACAD_REACTORS
330
C
102
}
100
AcDbDictionary
281
1
  3
Model
350
250
  3
Layout1
350
251
  0
ACDBPLACEHOLDER
  5
F
102
{ACAD_REACTORS
330
E
102
}
  0
MLINESTYLE
  5
18
102
{ACAD_REACTORS
330
17
102
}
100
AcDbMlineStyle
  2
STANDARD
 70
0
  3

 62
256
 51
90.0
 52
90.0
 71
2
 49
0.5
 62
256
  6
BYLAYER
 49
-0.5
 62
256
  6
BYLAYER
  0
LAYOUT
  5
250
102
{ACAD_REACTORS
330
1A
102
}
100
AcDbPlotSettings
  1

  2
none_device
  4
ANSI_A_(11.00_x_8.50_Inches)
  6

 40
0.0
 41
0.0
 42
0.0
 43
0.0
 44
279.4
 45
215.9
 46
0.0
 47
0.0
 48
0.0
 49
0.0
140
0.0
141
0.0
142
1.0
143
1.0
 70
1024
 72
0
 73
0
 74
0
  7

 75
0
147
1.0
148
0.0
149
0.0
100
AcDbLayout
  1
Model
 70
0
 71
0
 10
0.0
 20
0.0
 11
11.0
 21
8.5
 12
0.0
 22
0.0
 32
0.0
 14
0.0
 24
0.0
 34
0.0
 15
0.0
 25
0.0
 35
0.0
146
0.0
 13
0.0
 23
0.0
 33
0.0
 16
1.0
 26
0.0
 36
0.0
 17
0.0
 27
1.0
 37
0.0
 76
0
330
20B
345
0
346
0
  0
LAYOUT
  5
251
102
{ACAD_REACTORS
330
1A
102
}
100
AcDbPlotSettings
  1

  2
none_device
  4
ANSI_A_(11.00_x_8.50_Inches)
  6

 40
0.0
 41
0.0
 42
0.0
 43
0.0
 44
279.4
 45
215.9
 46
0.0
 47
0.0
 48
0.0
 49
0.0
140
0.0
141
0.0
142
1.0
143
1.0
 70
0
 72
0
 73
0
 74
0
  7

 75
0
147
1.0
148
0.0
149
0.0
100
AcDbLayout
  1
Layout1
 70
0
 71
1
 10
0.0
 20
0.0
 11
11.0
 21
8.5
 12
0.0
 22
0.0
 32
0.0
 14
0.0
 24
0.0
 34
0.0
 15
0.0
 25
0.0
 35
0.0
146
0.0
 13
0.0
 23
0.0
 33
0.0
 16
1.0
 26
0.0
 36
0.0
 17
0.0
 27
1.0
 37
0.0
 76
0
330
20C
345
0
346
0
  0
ENDSEC
  0
EOF
