999
DXF file: E:\BT Custom\CADOUTPUT\_RIGHT.dxf
999
Pro/ENGINEER 2018400 by Parametric Technology Corporation
  0
SECTION
  2
HEADER
  9
$ACADVER
  1
AC1018
  9
$DWGCODEPAGE
  3
ANSI_1252
  9
$EXTMAX
 10
22.0
 20
17.0
 30
0.0
  9
$EXTMIN
 10
0.0
 20
0.0
 30
0.0
  9
$LIMMIN
 10
0.0
 20
0.0
  9
$LIMMAX
 10
22.0
 20
17.0
  9
$VIEWCTR
 10
11.0
 20
8.5
  9
$VIEWSIZE
 40
17.0
  9
$CLAYER
  8
0
  9
$LTSCALE
 40
1.21
  9
$CELTYPE
  6
BYLAYER
  9
$DIMSCALE
 40
1.0
  9
$DIMASZ
 40
0.1
  9
$DIMEXO
 40
0.0625
  9
$DIMDLI
 40
0.836
  9
$DIMEXE
 40
0.125
  9
$DIMCEN
 40
0.198
  9
$DIMLFAC
 40
1.0
  9
$DIMBLK
  1
_FILLED
  9
$DIMALT
 70
1
  9
$DIMALTD
 70
2
  9
$DIMALTTD
 70
2
  9
$DIMALTF
 40
25.4
  9
$DIMTXT
 40
0.08
  9
$DIMTOL
 70
1
  9
$DIMLIM
 70
0
  9
$DIMTFAC
 40
1.0
  9
$DIMTP
 40
0.001
  9
$DIMTM
 40
0.001
  9
$DIMGAP
 40
0.09
  9
$DIMDSEP
 70
46
  9
$AUNITS
 70
0
  9
$PDMODE
 70
3
  9
$PDSIZE
 40
0.06
  9
$HANDSEED
  5
4A2
  9
$TILEMODE
 70
1
  9
$MEASUREMENT
 70
0
  9
$INSUNITS
 70
1
  0
ENDSEC
  0
SECTION
  2
CLASSES
  0
CLASS
  1
ACDBDICTIONARYWDFLT
  2
AcDbDictionaryWithDefault
  3
AutoCAD 2000
 90
0
 91
1
280
0
281
0
  0
CLASS
  1
ACDBPLACEHOLDER
  2
AcDbPlaceHolder
  3
AutoCAD 2000
 90
0
 91
1
280
0
281
0
  0
CLASS
  1
LAYOUT
  2
AcDbLayout
  3
AutoCAD 2000
 90
0
 91
0
280
0
281
0
  0
ENDSEC
  0
SECTION
  2
TABLES
  0
TABLE
  2
VPORT
  5
8
100
AcDbSymbolTable
 70
2
  0
VPORT
  5
1F4
100
AcDbSymbolTableRecord
100
AcDbViewportTableRecord
  2
*ACTIVE
 70
0
 10
0.0
 20
0.0
 11
1.0
 21
1.0
 12
11.0
 22
8.5
 13
0.0
 23
0.0
 14
1.0
 24
1.0
 15
0.0
 25
0.0
 16
0.0
 26
0.0
 36
1.0
 17
0.0
 27
0.0
 37
0.0
 40
17.0
 41
1.2941176471
 42
50.0
 43
0.0
 44
0.0
 50
0.0
 51
0.0
 71
0
 72
100
 73
1
 74
1
 75
0
 76
0
 77
0
 78
0
  0
ENDTAB
  0
TABLE
  2
LTYPE
  5
5
100
AcDbSymbolTable
 70
6
  0
LTYPE
  5
14
100
AcDbSymbolTableRecord
100
AcDbLinetypeTableRecord
  2
BYBLOCK
 70
0
  3

 72
65
 73
0
 40
0.0
  0
LTYPE
  5
15
100
AcDbSymbolTableRecord
100
AcDbLinetypeTableRecord
  2
BYLAYER
 70
0
  3

 72
65
 73
0
 40
0.0
  0
LTYPE
  5
16
100
AcDbSymbolTableRecord
100
AcDbLinetypeTableRecord
  2
CONTINUOUS
 70
64
  3
Solid line
 72
65
 73
0
 40
0.0
  0
LTYPE
  5
1F5
100
AcDbSymbolTableRecord
100
AcDbLinetypeTableRecord
  2
CENTER
 70
64
  3
____ _ ____ _ ____ _ ____ _ ____ _ ____ _ ____
 72
65
 73
4
 40
0.6
 49
0.375
 74
0
 49
-0.075
 74
0
 49
0.075
 74
0
 49
-0.075
 74
0
  0
LTYPE
  5
1F6
100
AcDbSymbolTableRecord
100
AcDbLinetypeTableRecord
  2
HIDDEN
 70
64
  3
- - - - - - - - - - - - - - - - - - - -
 72
65
 73
2
 40
0.2
 49
0.1
 74
0
 49
-0.1
 74
0
  0
LTYPE
  5
1F7
100
AcDbSymbolTableRecord
100
AcDbLinetypeTableRecord
  2
PHANTOM
 70
64
  3
_____ _ _ _____ _ _ _____ _ _ _____
 72
65
 73
6
 40
0.8
 49
0.45
 74
0
 49
-0.05
 74
0
 49
0.1
 74
0
 49
-0.05
 74
0
 49
0.1
 74
0
 49
-0.05
 74
0
  0
LTYPE
  5
1F8
100
AcDbSymbolTableRecord
100
AcDbLinetypeTableRecord
  2
DOT
 70
64
  3
. . . . . . . . . . . . . . . . . . . .
 72
65
 73
2
 40
0.2
 49
0.1
 74
0
 49
-0.1
 74
0
  0
LTYPE
  5
1F9
100
AcDbSymbolTableRecord
100
AcDbLinetypeTableRecord
  2
DASHED
 70
64
  3
- - - - - - - - - - - - - - - - - - - -
 72
65
 73
2
 40
0.2
 49
0.1
 74
0
 49
-0.1
 74
0
  0
ENDTAB
  0
TABLE
  2
LAYER
  5
2
100
AcDbSymbolTable
 70
36
  0
LAYER
  5
10
100
AcDbSymbolTableRecord
100
AcDbLayerTableRecord
  2
0
 70
0
 62
7
  6
CONTINUOUS
370
-3
390
F
  0
LAYER
  5
1FA
100
AcDbSymbolTableRecord
100
AcDbLayerTableRecord
  2
DEFAULT_1
 70
0
 62
7
  6
CENTER
370
-3
390
F
  0
LAYER
  5
1FB
100
AcDbSymbolTableRecord
100
AcDbLayerTableRecord
  2
DEFAULT_2
 70
0
 62
8
  6
HIDDEN
370
-3
390
F
  0
LAYER
  5
1FC
100
AcDbSymbolTableRecord
100
AcDbLayerTableRecord
  2
DEFAULT_3
 70
0
 62
7
  6
PHANTOM
370
-3
390
F
  0
LAYER
  5
1FD
100
AcDbSymbolTableRecord
100
AcDbLayerTableRecord
  2
ALL_FEATURES
 70
0
 62
7
  6
CONTINUOUS
370
-3
390
F
  0
LAYER
  5
1FE
100
AcDbSymbolTableRecord
100
AcDbLayerTableRecord
  2
AXES_FEATURES
 70
0
 62
7
  6
CONTINUOUS
370
-3
390
F
  0
LAYER
  5
1FF
100
AcDbSymbolTableRecord
100
AcDbLayerTableRecord
  2
DEFAULT_COORDINATE_SYSTEM
 70
0
 62
7
  6
CONTINUOUS
370
-3
390
F
  0
LAYER
  5
200
100
AcDbSymbolTableRecord
100
AcDbLayerTableRecord
  2
DEFAULT_DATUM_AXES
 70
0
 62
7
  6
CONTINUOUS
370
-3
390
F
  0
LAYER
  5
201
100
AcDbSymbolTableRecord
100
AcDbLayerTableRecord
  2
DEFAULT_DATUM_PLANES
 70
0
 62
7
  6
CONTINUOUS
370
-3
390
F
  0
LAYER
  5
202
100
AcDbSymbolTableRecord
100
AcDbLayerTableRecord
  2
DIMENSIONS
 70
0
 62
7
  6
CONTINUOUS
370
-3
390
F
  0
ENDTAB
  0
TABLE
  2
STYLE
  5
3
100
AcDbSymbolTable
 70
1
  0
STYLE
  5
11
100
AcDbSymbolTableRecord
100
AcDbTextStyleTableRecord
  2
STANDARD
 70
0
 40
0.0
 41
0.8
 50
0.0
 71
0
 42
0.2
  3
txt
  4

  0
STYLE
  5
203
100
AcDbSymbolTableRecord
100
AcDbTextStyleTableRecord
  2
TEXTSTYLE_1
 70
0
 40
0.0
 41
0.8
 50
0.0
 71
0
 42
0.2
  3
gdt
  4

  0
ENDTAB
  0
TABLE
  2
VIEW
  5
6
100
AcDbSymbolTable
 70
0
  0
ENDTAB
  0
TABLE
  2
UCS
  5
7
100
AcDbSymbolTable
 70
0
  0
ENDTAB
  0
TABLE
  2
APPID
  5
9
100
AcDbSymbolTable
 70
1
  0
APPID
  5
204
100
AcDbSymbolTableRecord
100
AcDbRegAppTableRecord
  2
ACAD
 70
0
  0
ENDTAB
  0
TABLE
  2
BLOCK_RECORD
  5
1
100
AcDbSymbolTable
 70
0
  0
BLOCK_RECORD
  5
205
100
AcDbSymbolTableRecord
100
AcDbBlockTableRecord
  2
*Model_Space
  0
BLOCK_RECORD
  5
206
100
AcDbSymbolTableRecord
100
AcDbBlockTableRecord
  2
*Paper_Space
  0
BLOCK_RECORD
  5
207
100
AcDbSymbolTableRecord
100
AcDbBlockTableRecord
  2
_FILLED
  0
ENDTAB
  0
TABLE
  2
DIMSTYLE
  5
A
100
AcDbSymbolTable
 70
1
100
AcDbDimStyleTable
 71
0
  0
DIMSTYLE
105
208
100
AcDbSymbolTableRecord
100
AcDbDimStyleTableRecord
  2
STANDARD
 70
0
  3

  4

 40
1.0
 41
0.1
 42
0.0625
 43
0.38
 44
0.125
 45
0.0
 46
0.0
 47
0.001
 48
0.001
140
0.08
141
0.09
142
0.0
143
25.4
144
1.0
145
0.0
146
1.0
147
0.09
 71
1.0
 72
0.0
 73
1
 74
1
 75
0
 76
0
 77
0
 78
4
 79
1
170
1
171
2
172
0
173
0
174
0
175
0
176
0
177
0
178
0
270
2
179
3
271
3
272
3
273
2
274
2
275
0
280
0
281
0
282
0
283
1
284
4
285
0
286
0
287
3
288
0
340
11
278
46
341
207
342
207
343
207
344
207
  0
ENDTAB
  0
ENDSEC
  0
SECTION
  2
BLOCKS
  0
BLOCK
  5
20
100
AcDbEntity
  8
0
100
AcDbBlockBegin
  2
*Model_Space
 70
0
 10
0.0
 20
0.0
 30
0.0
  3
*Model_Space
  1

  0
ENDBLK
  5
21
100
AcDbEntity
  8
0
100
AcDbBlockEnd
  0
BLOCK
  5
1C
100
AcDbEntity
  8
0
100
AcDbBlockBegin
  2
*Paper_Space
 70
0
 10
0.0
 20
0.0
 30
0.0
  3
*Paper_Space
  1

  0
ENDBLK
  5
1D
100
AcDbEntity
  8
0
100
AcDbBlockEnd
  0
BLOCK
  5
209
100
AcDbEntity
  8
0
100
AcDbBlockBegin
  2
_FILLED
 70
64
 10
0.0
 20
0.0
  3
_FILLED
  1

  0
SOLID
  5
20A
100
AcDbEntity
  8
0
  6
BYBLOCK
 62
0
100
AcDbTrace
 10
0.0
 20
0.0
 11
-1.0
 21
0.2
 12
-1.0
 22
-0.2
 13
-1.0
 23
-0.2
  0
ENDBLK
  5
20B
100
AcDbEntity
  8
0
  6
BYBLOCK
 62
0
100
AcDbBlockEnd
  0
ENDSEC
  0
SECTION
  2
ENTITIES
  0
LINE
  5
20C
100
AcDbEntity
  8
0
100
AcDbLine
 62
7
  6
CONTINUOUS
 10
13.4995611217
 20
0.4904512192
 11
16.0665611217
 21
0.4904512192
  0
LINE
  5
20D
100
AcDbEntity
  8
0
100
AcDbLine
 62
9
  6
CONTINUOUS
 10
13.4995611217
 20
0.6074693877
 11
16.0665516052
 21
0.6074693877
  0
LINE
  5
20E
100
AcDbEntity
  8
0
100
AcDbLine
 62
9
  6
CONTINUOUS
 10
16.0665516052
 20
0.6087487439
 11
15.9710042229
 21
0.6087487439
  0
LINE
  5
20F
100
AcDbEntity
  8
0
100
AcDbLine
 62
9
  6
CONTINUOUS
 10
15.8159087132
 20
0.6087487439
 11
14.9561951062
 21
0.6087487439
  0
LINE
  5
210
100
AcDbEntity
  8
0
100
AcDbLine
 62
9
  6
CONTINUOUS
 10
14.6396135249
 20
0.6087487439
 11
13.768252005
 21
0.6087487439
  0
LINE
  5
211
100
AcDbEntity
  8
0
100
AcDbLine
 62
9
  6
CONTINUOUS
 10
13.6067659328
 20
0.6087487439
 11
13.4995706382
 21
0.6087487439
  0
LINE
  5
212
100
AcDbEntity
  8
0
100
AcDbLine
 62
7
  6
CONTINUOUS
 10
16.0465535897
 20
0.6284512192
 11
15.9524951391
 21
0.6284512192
  0
LINE
  5
213
100
AcDbEntity
  8
0
100
AcDbLine
 62
7
  6
CONTINUOUS
 10
15.7998161389
 20
0.6284512192
 11
14.9534975431
 21
0.6284512192
  0
LINE
  5
214
100
AcDbEntity
  8
0
100
AcDbLine
 62
7
  6
CONTINUOUS
 10
14.6418485502
 20
0.6284512192
 11
13.7840635257
 21
0.6284512192
  0
LINE
  5
215
100
AcDbEntity
  8
0
100
AcDbLine
 62
7
  6
CONTINUOUS
 10
13.625093533
 20
0.6284512192
 11
13.5195686537
 21
0.6284512192
  0
LINE
  5
216
100
AcDbEntity
  8
0
100
AcDbLine
 62
9
  6
CONTINUOUS
 10
15.9272691802
 20
0.6470755458
 11
15.8485621898
 21
0.6470755458
  0
LINE
  5
217
100
AcDbEntity
  8
0
100
AcDbLine
 62
9
  6
CONTINUOUS
 10
13.6457228638
 20
0.6470755458
 11
13.7260997426
 21
0.6470755458
  0
LINE
  5
218
100
AcDbEntity
  8
0
100
AcDbLine
 62
9
  6
CONTINUOUS
 10
14.711223932
 20
0.6470755458
 11
14.8703078014
 21
0.6470755458
  0
LINE
  5
219
100
AcDbEntity
  8
0
100
AcDbLine
 62
9
  6
CONTINUOUS
 10
15.9495720398
 20
0.6823975469
 11
15.9022508779
 21
0.6823975469
  0
LINE
  5
21A
100
AcDbEntity
  8
0
100
AcDbLine
 62
9
  6
CONTINUOUS
 10
15.6940953721
 20
0.6823975469
 11
14.9584746058
 21
0.6823975469
  0
LINE
  5
21B
100
AcDbEntity
  8
0
100
AcDbLine
 62
9
  6
CONTINUOUS
 10
14.6076477931
 20
0.6823975469
 11
13.8720269696
 21
0.6823975469
  0
LINE
  5
21C
100
AcDbEntity
  8
0
100
AcDbLine
 62
9
  6
CONTINUOUS
 10
13.6666557827
 20
0.6823975469
 11
13.6165502036
 21
0.6823975469
  0
LINE
  5
21D
100
AcDbEntity
  8
0
100
AcDbLine
 62
9
  6
CONTINUOUS
 10
15.8722689261
 20
0.831391933
 11
15.8321353141
 21
0.831391933
  0
LINE
  5
21E
100
AcDbEntity
  8
0
100
AcDbLine
 62
9
  6
CONTINUOUS
 10
15.6268966911
 20
0.831391933
 11
14.9575797373
 21
0.831391933
  0
LINE
  5
21F
100
AcDbEntity
  8
0
100
AcDbLine
 62
9
  6
CONTINUOUS
 10
14.6085425061
 20
0.831391933
 11
13.9392255523
 21
0.831391933
  0
LINE
  5
220
100
AcDbEntity
  8
0
100
AcDbLine
 62
9
  6
CONTINUOUS
 10
13.7339869886
 20
0.831391933
 11
13.6938533173
 21
0.831391933
  0
LINE
  5
221
100
AcDbEntity
  8
0
100
AcDbLine
 62
9
  6
CONTINUOUS
 10
13.7275611217
 20
0.9695529498
 11
13.79436624
 21
0.9695529498
  0
LINE
  5
222
100
AcDbEntity
  8
0
100
AcDbLine
 62
9
  6
CONTINUOUS
 10
13.9623991209
 20
0.9695529498
 11
14.6185481451
 21
0.9695529498
  0
LINE
  5
223
100
AcDbEntity
  8
0
100
AcDbLine
 62
9
  6
CONTINUOUS
 10
14.9475740983
 20
0.9695529498
 11
15.6037231225
 21
0.9695529498
  0
LINE
  5
224
100
AcDbEntity
  8
0
100
AcDbLine
 62
9
  6
CONTINUOUS
 10
15.7717559896
 20
0.9695529498
 11
15.8385611217
 21
0.9695529498
  0
LWPOLYLINE
  5
225
100
AcDbEntity
  8
0
100
AcDbPolyline
 62
7
  6
CONTINUOUS
 90
4
 70
0
 10
15.9525104767
 20
0.6284512123
 10
15.9516773701
 20
0.6284782542
 10
15.9508537835
 20
0.628595285
 10
15.9499684852
 20
0.6288683958
  0
LINE
  5
226
100
AcDbEntity
  8
0
100
AcDbLine
 62
9
  6
CONTINUOUS
 10
15.753814268
 20
1.0630191602
 11
15.8385611217
 21
1.0630199994
  0
LINE
  5
227
100
AcDbEntity
  8
0
100
AcDbLine
 62
9
  6
CONTINUOUS
 10
13.9388127968
 20
1.0630191602
 11
14.6565562935
 21
1.0630191717
  0
LINE
  5
228
100
AcDbEntity
  8
0
100
AcDbLine
 62
9
  6
CONTINUOUS
 10
14.909565943
 20
1.0630191602
 11
15.6273094425
 21
1.0630191717
  0
LINE
  5
229
100
AcDbEntity
  8
0
100
AcDbLine
 62
9
  6
CONTINUOUS
 10
13.7275611217
 20
1.0630199994
 11
13.8123079727
 21
1.0630191717
  0
LINE
  5
22A
100
AcDbEntity
  8
0
100
AcDbLine
 62
9
  6
CONTINUOUS
 10
15.8363139347
 20
1.0722307338
 11
15.7517454578
 21
1.0722307338
  0
LINE
  5
22B
100
AcDbEntity
  8
0
100
AcDbLine
 62
9
  6
CONTINUOUS
 10
14.6568309873
 20
1.0722307338
 11
13.9406070711
 21
1.0722307338
  0
LINE
  5
22C
100
AcDbEntity
  8
0
100
AcDbLine
 62
9
  6
CONTINUOUS
 10
13.8143768467
 20
1.0722307338
 11
13.7298083087
 21
1.0722307338
  0
LINE
  5
22D
100
AcDbEntity
  8
0
100
AcDbLine
 62
9
  6
CONTINUOUS
 10
14.9092957094
 20
1.0722310991
 11
15.6255123521
 21
1.072231121
  0
LINE
  5
22E
100
AcDbEntity
  8
0
100
AcDbLine
 62
9
  6
CONTINUOUS
 10
13.7565883142
 20
1.1238466429
 11
15.8095339292
 21
1.1238466429
  0
LINE
  5
22F
100
AcDbEntity
  8
0
100
AcDbLine
 62
7
  6
CONTINUOUS
 10
15.7509496461
 20
1.1594512192
 11
13.8151725973
 21
1.1594512192
  0
LWPOLYLINE
  5
230
100
AcDbEntity
  8
0
100
AcDbPolyline
 62
7
  6
CONTINUOUS
 90
4
 70
0
 10
6.0804181083
 20
13.450340768
 10
6.0799105067
 20
13.449410895
 10
6.07788383
 20
13.4457462824
 10
6.0757478714
 20
13.4419416667
  0
LINE
  5
231
100
AcDbEntity
  8
0
100
AcDbLine
 62
7
  6
CONTINUOUS
 10
6.0757478714
 20
13.4419416667
 11
6.0712317661
 21
13.4340104983
  0
LINE
  5
232
100
AcDbEntity
  8
0
100
AcDbLine
 62
7
  6
CONTINUOUS
 10
6.0712317661
 20
13.4340104983
 11
6.0639786727
 21
13.4214455497
  0
LINE
  5
233
100
AcDbEntity
  8
0
100
AcDbLine
 62
7
  6
CONTINUOUS
 10
6.0639786727
 20
13.4214455497
 11
6.0510391778
 21
13.3992617855
  0
LWPOLYLINE
  5
234
100
AcDbEntity
  8
0
100
AcDbPolyline
 62
7
  6
CONTINUOUS
 90
3
 70
0
 10
6.0510396623
 20
13.3992626129
 10
6.0432975341
 20
13.3861621809
 10
6.0326464914
 20
13.3684754335
  0
LINE
  5
235
100
AcDbEntity
  8
0
100
AcDbLine
 62
7
  6
CONTINUOUS
 10
6.0326464914
 20
13.3684754335
 11
6.0216323347
 21
13.3505107601
  0
LWPOLYLINE
  5
236
100
AcDbEntity
  8
0
100
AcDbPolyline
 62
7
  6
CONTINUOUS
 90
12
 70
0
 10
6.0216319941
 20
13.3505102082
 10
6.0164019564
 20
13.342180739
 10
6.0100930032
 20
13.3324601694
 10
6.0039462557
 20
13.3233379765
 10
5.9979256989
 20
13.3147867553
 10
5.9919785326
 20
13.3067972008
 10
5.9860754602
 20
13.2993887287
 10
5.9802476954
 20
13.292602693
 10
5.9745604042
 20
13.2864667703
 10
5.9690773157
 20
13.2809823098
 10
5.9638469344
 20
13.2761303007
 10
5.9603246436
 20
13.2730691055
  0
LINE
  5
237
100
AcDbEntity
  8
0
100
AcDbLine
 62
7
  6
CONTINUOUS
 10
6.0720888452
 20
13.5249499033
 11
6.0471267656
 21
13.4896564644
  0
LINE
  5
238
100
AcDbEntity
  8
0
100
AcDbLine
 62
7
  6
CONTINUOUS
 10
5.9603221183
 20
13.2730669696
 11
5.9509129531
 21
13.2650511951
  0
LINE
  5
239
100
AcDbEntity
  8
0
100
AcDbLine
 62
7
  6
CONTINUOUS
 10
5.9603221183
 20
13.2730669696
 11
5.9603246437
 21
13.2730691055
  0
LWPOLYLINE
  5
23A
100
AcDbEntity
  8
0
100
AcDbPolyline
 62
7
  6
CONTINUOUS
 90
7
 70
0
 10
5.9509129531
 20
13.2650511951
 10
5.9477587657
 20
13.2624497443
 10
5.9450505461
 20
13.2603394042
 10
5.9428580042
 20
13.258777154
 10
5.9412158815
 20
13.2577502553
 10
5.9401798621
 20
13.2572119863
 10
5.9400651282
 20
13.2571616006
  0
LINE
  5
23B
100
AcDbEntity
  8
0
100
AcDbLine
 62
7
  6
CONTINUOUS
 10
5.3934438304
 20
11.2232625198
 11
5.3536362809
 21
10.9632926004
  0
LINE
  5
23C
100
AcDbEntity
  8
0
100
AcDbLine
 62
7
  6
CONTINUOUS
 10
5.8847263613
 20
13.2457477266
 11
5.8736741734
 21
13.1735695484
  0
LINE
  5
23D
100
AcDbEntity
  8
0
100
AcDbLine
 62
7
  6
CONTINUOUS
 10
6.0436858458
 20
13.4811348449
 11
6.0339565791
 21
13.4175962271
  0
LINE
  5
23E
100
AcDbEntity
  8
0
100
AcDbLine
 62
7
  6
CONTINUOUS
 10
5.8964473285
 20
13.1308906757
 11
5.6678046651
 21
11.8608756702
  0
LWPOLYLINE
  5
23F
100
AcDbEntity
  8
0
100
AcDbPolyline
 62
7
  6
CONTINUOUS
 90
9
 70
0
 10
15.9499684852
 20
0.6288683958
 10
15.9486194817
 20
0.6295145811
 10
15.9467532599
 20
0.6307038672
 10
15.9445541006
 20
0.6324021277
 10
15.9419984436
 20
0.6346570639
 10
15.9391093662
 20
0.6374575785
 10
15.935920056
 20
0.6407496513
 10
15.9324372436
 20
0.6444769924
 10
15.9259728183
 20
0.6514802832
  0
LINE
  5
240
100
AcDbEntity
  8
0
100
AcDbLine
 62
7
  6
CONTINUOUS
 10
5.7747235607
 20
10.8051067208
 11
5.7763862636
 21
10.8307786506
  0
LINE
  5
241
100
AcDbEntity
  8
0
100
AcDbLine
 62
7
  6
CONTINUOUS
 10
5.8017333383
 20
10.8268974133
 11
5.8000706355
 21
10.8012254836
  0
LINE
  5
242
100
AcDbEntity
  8
0
100
AcDbLine
 62
7
  6
CONTINUOUS
 10
5.8747173313
 20
10.8157218361
 11
5.8730546284
 21
10.7900499063
  0
LINE
  5
243
100
AcDbEntity
  8
0
100
AcDbLine
 62
7
  6
CONTINUOUS
 10
5.9865352958
 20
10.7985998584
 11
5.9848725929
 21
10.7729279287
  0
LINE
  5
244
100
AcDbEntity
  8
0
100
AcDbLine
 62
7
  6
CONTINUOUS
 10
6.123700335
 20
10.7775966435
 11
6.1220376322
 21
10.7519247137
  0
LINE
  5
245
100
AcDbEntity
  8
0
100
AcDbLine
 62
7
  6
CONTINUOUS
 10
6.1080968215
 20
13.5417117002
 11
6.1118948337
 21
13.5665152603
  0
LINE
  5
246
100
AcDbEntity
  8
0
100
AcDbLine
 62
7
  6
CONTINUOUS
 10
5.982197627
 20
10.7992640582
 11
5.9761023005
 21
10.7742708681
  0
LINE
  5
247
100
AcDbEntity
  8
0
100
AcDbLine
 62
7
  6
CONTINUOUS
 10
6.0940155915
 20
10.7821420806
 11
6.087920265
 21
10.7571488904
  0
LINE
  5
248
100
AcDbEntity
  8
0
100
AcDbLine
 62
7
  6
CONTINUOUS
 10
6.2311806307
 20
10.7611388656
 11
6.2250853042
 21
10.7361456755
  0
LINE
  5
249
100
AcDbEntity
  8
0
100
AcDbLine
 62
7
  6
CONTINUOUS
 10
6.3771486166
 20
10.7387877112
 11
6.3710532901
 21
10.713794521
  0
LINE
  5
24A
100
AcDbEntity
  8
0
100
AcDbLine
 62
7
  6
CONTINUOUS
 10
6.2696683209
 20
10.7552454891
 11
6.2680056181
 21
10.7295735593
  0
LINE
  5
24B
100
AcDbEntity
  8
0
100
AcDbLine
 62
7
  6
CONTINUOUS
 10
6.4068333602
 20
10.7342422742
 11
6.4051706573
 21
10.7085703444
  0
LINE
  5
24C
100
AcDbEntity
  8
0
100
AcDbLine
 62
7
  6
CONTINUOUS
 10
6.5186513247
 20
10.7171202965
 11
6.5169886218
 21
10.6914483667
  0
LINE
  5
24D
100
AcDbEntity
  8
0
100
AcDbLine
 62
7
  6
CONTINUOUS
 10
7.2229449837
 20
13.3963871781
 11
7.2191469714
 21
13.371583618
  0
LINE
  5
24E
100
AcDbEntity
  8
0
100
AcDbLine
 62
7
  6
CONTINUOUS
 10
7.2624801828
 20
13.2945085768
 11
7.2527509161
 21
13.2309699589
  0
LINE
  5
24F
100
AcDbEntity
  8
0
100
AcDbLine
 62
7
  6
CONTINUOUS
 10
6.5143136559
 20
10.7177844963
 11
6.5082183294
 21
10.6927913061
  0
LINE
  5
250
100
AcDbEntity
  8
0
100
AcDbLine
 62
7
  6
CONTINUOUS
 10
6.6261316203
 20
10.7006625186
 11
6.6200362938
 21
10.6756693284
  0
LINE
  5
251
100
AcDbEntity
  8
0
100
AcDbLine
 62
7
  6
CONTINUOUS
 10
6.6991156133
 20
10.6894869414
 11
6.6930202868
 21
10.6644937512
  0
LINE
  5
252
100
AcDbEntity
  8
0
100
AcDbLine
 62
7
  6
CONTINUOUS
 10
6.7183673616
 20
10.660612514
 11
6.7244626881
 21
10.6856057041
  0
LWPOLYLINE
  5
253
100
AcDbEntity
  8
0
100
AcDbPolyline
 62
7
  6
CONTINUOUS
 90
9
 70
0
 10
7.3558743841
 20
12.8536449273
 10
7.3576262413
 20
12.8597726107
 10
7.3585850799
 20
12.8660815143
 10
7.3587323074
 20
12.8724667767
 10
7.3580637802
 20
12.878821921
 10
7.3565898878
 20
12.8850407171
 10
7.3543350607
 20
12.8910200141
 10
7.3513363109
 20
12.8966623937
 10
7.3472988349
 20
12.9022962093
  0
LINE
  5
254
100
AcDbEntity
  8
0
100
AcDbLine
 62
7
  6
CONTINUOUS
 10
7.4928271223
 20
11.819518658
 11
7.4884331117
 21
11.8150834349
  0
LINE
  5
255
100
AcDbEntity
  8
0
100
AcDbLine
 62
7
  6
CONTINUOUS
 10
7.1283724938
 20
11.3258464704
 11
7.1282965735
 21
11.3268665939
  0
LWPOLYLINE
  5
256
100
AcDbEntity
  8
0
100
AcDbPolyline
 62
7
  6
CONTINUOUS
 90
12
 70
0
 10
7.1282963336
 20
11.3268698451
 10
7.1277454597
 20
11.3418580221
 10
7.1284790557
 20
11.3584046133
 10
7.130603667
 20
11.3744558312
 10
7.1341139619
 20
11.3902118797
 10
7.1390726277
 20
11.4058611915
 10
7.1456042357
 20
11.4215638102
 10
7.1538459861
 20
11.4373744885
 10
7.163888606
 20
11.4532284052
 10
7.1757802878
 20
11.4690292442
 10
7.1895545574
 20
11.4847034833
 10
7.2030973758
 20
11.4982021497
  0
LINE
  5
257
100
AcDbEntity
  8
0
100
AcDbLine
 62
9
  6
CONTINUOUS
 10
7.4302297535
 20
11.7428747499
 11
7.4257063894
 21
12.7119451542
  0
LINE
  5
258
100
AcDbEntity
  8
0
100
AcDbLine
 62
7
  6
CONTINUOUS
 10
7.3437210422
 20
13.0223410991
 11
7.329864989
 21
12.9318518054
  0
LINE
  5
259
100
AcDbEntity
  8
0
100
AcDbLine
 62
7
  6
CONTINUOUS
 10
7.2073023937
 20
10.9455178304
 11
7.1674948442
 21
10.685547911
  0
LINE
  5
25A
100
AcDbEntity
  8
0
100
AcDbLine
 62
9
  6
CONTINUOUS
 10
14.9780611217
 20
5.6494512192
 11
14.5880611217
 21
5.6494512192
  0
LINE
  5
25B
100
AcDbEntity
  8
0
100
AcDbLine
 62
7
  6
CONTINUOUS
 10
7.488742146
 20
11.7488769572
 11
7.4842722274
 21
12.7064973926
  0
LINE
  5
25C
100
AcDbEntity
  8
0
100
AcDbLine
 62
9
  6
CONTINUOUS
 10
7.4923170335
 20
11.9287983739
 11
7.4928271223
 21
11.819518658
  0
LINE
  5
25D
100
AcDbEntity
  8
0
100
AcDbLine
 62
7
  6
CONTINUOUS
 10
7.4962480554
 20
11.8277572209
 11
7.4958147267
 21
11.9205921053
  0
LINE
  5
25E
100
AcDbEntity
  8
0
100
AcDbLine
 62
7
  6
CONTINUOUS
 10
14.5595611217
 20
6.0344512192
 11
15.0065611217
 21
6.0344512192
  0
LINE
  5
25F
100
AcDbEntity
  8
0
100
AcDbLine
 62
9
  6
CONTINUOUS
 10
14.4650611217
 20
6.1289512192
 11
15.1010611217
 21
6.1289512192
  0
LINE
  5
260
100
AcDbEntity
  8
0
100
AcDbLine
 62
9
  6
CONTINUOUS
 10
14.4650611217
 20
6.2404512192
 11
15.1010611217
 21
6.2404512192
  0
LINE
  5
261
100
AcDbEntity
  8
0
100
AcDbLine
 62
7
  6
CONTINUOUS
 10
14.4750614273
 20
6.2504512192
 11
15.0910608161
 21
6.2504512192
  0
LINE
  5
262
100
AcDbEntity
  8
0
100
AcDbLine
 62
9
  6
CONTINUOUS
 10
15.0423307831
 20
6.2607138881
 11
14.5237914603
 21
6.2607138881
  0
LINE
  5
263
100
AcDbEntity
  8
0
100
AcDbLine
 62
7
  6
CONTINUOUS
 10
7.2201916718
 20
13.2686867818
 11
7.2201198487
 21
13.2690535088
  0
LINE
  5
264
100
AcDbEntity
  8
0
100
AcDbLine
 62
7
  6
CONTINUOUS
 10
7.2484894293
 20
13.3448151224
 11
7.2617468592
 21
13.3036693717
  0
LWPOLYLINE
  5
265
100
AcDbEntity
  8
0
100
AcDbPolyline
 62
7
  6
CONTINUOUS
 90
3
 70
0
 10
7.2455575772
 20
13.1613103671
 10
7.2410897719
 20
13.1789341644
 10
7.2367966145
 20
13.1963676331
  0
LINE
  5
266
100
AcDbEntity
  8
0
100
AcDbLine
 62
7
  6
CONTINUOUS
 10
7.2367966145
 20
13.1963676331
 11
7.2332540347
 21
13.2112527514
  0
LWPOLYLINE
  5
267
100
AcDbEntity
  8
0
100
AcDbPolyline
 62
7
  6
CONTINUOUS
 90
5
 70
0
 10
7.2332540347
 20
13.2112527514
 10
7.2271105226
 20
13.2376290977
 10
7.2241970389
 20
13.2503892386
 10
7.2216194321
 20
13.2619892256
 10
7.220212956
 20
13.2685843675
  0
LINE
  5
268
100
AcDbEntity
  8
0
100
AcDbLine
 62
7
  6
CONTINUOUS
 10
7.2202129745
 20
13.2685842052
 11
7.2201916727
 21
13.2686867771
  0
LINE
  5
269
100
AcDbEntity
  8
0
100
AcDbLine
 62
7
  6
CONTINUOUS
 10
14.4949210902
 20
7.3594512192
 11
13.7595611217
 21
7.3594512192
  0
LINE
  5
26A
100
AcDbEntity
  8
0
100
AcDbLine
 62
7
  6
CONTINUOUS
 10
15.0712011532
 20
7.3594512192
 11
15.8065611217
 21
7.3594512192
  0
LINE
  5
26B
100
AcDbEntity
  8
0
100
AcDbLine
 62
9
  6
CONTINUOUS
 10
14.4917170002
 20
7.4813912336
 11
13.7595611217
 21
7.4813912336
  0
LINE
  5
26C
100
AcDbEntity
  8
0
100
AcDbLine
 62
9
  6
CONTINUOUS
 10
15.0744052432
 20
7.4813912336
 11
15.8065611217
 21
7.4813912336
  0
LINE
  5
26D
100
AcDbEntity
  8
0
100
AcDbLine
 62
9
  6
CONTINUOUS
 10
14.4884309299
 20
7.6064512192
 11
13.8515611217
 21
7.6064512192
  0
LINE
  5
26E
100
AcDbEntity
  8
0
100
AcDbLine
 62
9
  6
CONTINUOUS
 10
15.0776913135
 20
7.6064512192
 11
15.7145611217
 21
7.6064512192
  0
LWPOLYLINE
  5
26F
100
AcDbEntity
  8
0
100
AcDbPolyline
 62
7
  6
CONTINUOUS
 90
10
 70
0
 10
15.9259715391
 20
0.6514816597
 10
15.9222810003
 20
0.6555743681
 10
15.9170360693
 20
0.6618163923
 10
15.9117605852
 20
0.6686193089
 10
15.9065351373
 20
0.6759156077
 10
15.9014385961
 20
0.6836265018
 10
15.8965466214
 20
0.6916628702
 10
15.8919267722
 20
0.69993204
 10
15.8876382329
 20
0.7083389345
 10
15.8846254223
 20
0.7147747206
  0
LINE
  5
270
100
AcDbEntity
  8
0
100
AcDbLine
 62
9
  6
CONTINUOUS
 10
14.4835436027
 20
7.7924512192
 11
14.0210029705
 21
7.7924512192
  0
LINE
  5
271
100
AcDbEntity
  8
0
100
AcDbLine
 62
9
  6
CONTINUOUS
 10
15.0825786407
 20
7.7924512192
 11
15.5451192729
 21
7.7924512192
  0
LINE
  5
272
100
AcDbEntity
  8
0
100
AcDbLine
 62
9
  6
CONTINUOUS
 10
14.4826502203
 20
7.8264512192
 11
14.0413905747
 21
7.8264512192
  0
LINE
  5
273
100
AcDbEntity
  8
0
100
AcDbLine
 62
9
  6
CONTINUOUS
 10
15.0834720231
 20
7.8264512192
 11
15.5247316687
 21
7.8264512192
  0
LINE
  5
274
100
AcDbEntity
  8
0
100
AcDbLine
 62
9
  6
CONTINUOUS
 10
14.4821801206
 20
7.8443420902
 11
14.0686793363
 21
7.8443420902
  0
LINE
  5
275
100
AcDbEntity
  8
0
100
AcDbLine
 62
9
  6
CONTINUOUS
 10
15.0839421228
 20
7.8443420902
 11
15.4974429071
 21
7.8443420902
  0
LINE
  5
276
100
AcDbEntity
  8
0
100
AcDbLine
 62
9
  6
CONTINUOUS
 10
14.4811112359
 20
7.8850212893
 11
14.1768314757
 21
7.8850212893
  0
LINE
  5
277
100
AcDbEntity
  8
0
100
AcDbLine
 62
9
  6
CONTINUOUS
 10
15.0850110075
 20
7.8850212893
 11
15.3892907677
 21
7.8850212893
  0
LINE
  5
278
100
AcDbEntity
  8
0
100
AcDbLine
 62
7
  6
CONTINUOUS
 10
14.4809685594
 20
7.8904512192
 11
14.2120611217
 21
7.8904512192
  0
LINE
  5
279
100
AcDbEntity
  8
0
100
AcDbLine
 62
7
  6
CONTINUOUS
 10
15.085153684
 20
7.8904512192
 11
15.3540611217
 21
7.8904512192
  0
LWPOLYLINE
  5
27A
100
AcDbEntity
  8
0
100
AcDbPolyline
 62
7
  6
CONTINUOUS
 90
3
 70
0
 10
7.2925717773
 20
13.0594032182
 10
7.2870460079
 20
13.0677415025
 10
7.2850608257
 20
13.0706913555
  0
LWPOLYLINE
  5
27B
100
AcDbEntity
  8
0
100
AcDbPolyline
 62
7
  6
CONTINUOUS
 90
11
 70
0
 10
7.2850588483
 20
13.0706942684
 10
7.2816470338
 20
13.0758835467
 10
7.2770372043
 20
13.0834332059
 10
7.272406954
 20
13.0916802619
 10
7.267837231
 20
13.1005471591
 10
7.2634073672
 20
13.1099446527
 10
7.2591884431
 20
13.1197838416
 10
7.2552190677
 20
13.130041551
 10
7.2515260677
 20
13.1407280771
 10
7.2481288877
 20
13.1518471021
 10
7.2455575772
 20
13.1613103671
  0
LINE
  5
27C
100
AcDbEntity
  8
0
100
AcDbLine
 62
9
  6
CONTINUOUS
 10
14.4630611217
 20
8.5719655258
 11
15.1030611217
 21
8.5719655258
  0
LINE
  5
27D
100
AcDbEntity
  8
0
100
AcDbLine
 62
9
  6
CONTINUOUS
 10
14.4320611217
 20
8.6962704976
 11
15.1340611217
 21
8.6962704976
  0
LINE
  5
27E
100
AcDbEntity
  8
0
100
AcDbLine
 62
7
  6
CONTINUOUS
 10
14.3960611217
 20
8.8194512192
 11
15.1700611217
 21
8.8194512192
  0
LINE
  5
27F
100
AcDbEntity
  8
0
100
AcDbLine
 62
9
  6
CONTINUOUS
 10
14.3960611217
 20
8.8954512192
 11
15.1700611217
 21
8.8954512192
  0
LINE
  5
280
100
AcDbEntity
  8
0
100
AcDbLine
 62
7
  6
CONTINUOUS
 10
14.5960611217
 20
8.9344512192
 11
14.9700608321
 21
8.9344512192
  0
LINE
  5
281
100
AcDbEntity
  8
0
100
AcDbLine
 62
7
  6
CONTINUOUS
 10
7.4878818104
 20
11.9331923845
 11
7.4923170335
 21
11.9287983739
  0
LWPOLYLINE
  5
282
100
AcDbEntity
  8
0
100
AcDbPolyline
 62
7
  6
CONTINUOUS
 90
6
 70
0
 10
7.3473023684
 20
12.902299071
 10
7.3455757334
 20
12.9044705861
 10
7.3410413091
 20
12.9109771051
 10
7.3367464923
 20
12.9181994161
 10
7.3326334174
 20
12.9260600349
 10
7.329864989
 20
12.9318518054
  0
LWPOLYLINE
  5
283
100
AcDbEntity
  8
0
100
AcDbPolyline
 62
7
  6
CONTINUOUS
 90
5
 70
0
 10
7.2998637191
 20
13.0495809197
 10
7.2986032443
 20
13.0510091431
 10
7.2969463415
 20
13.0531268312
 10
7.2949210439
 20
13.0559472091
 10
7.2925717773
 20
13.0594032182
  0
LINE
  5
284
100
AcDbEntity
  8
0
100
AcDbLine
 62
7
  6
CONTINUOUS
 10
6.2118189946
 20
10.7272697712
 11
6.1320401389
 21
10.7394858028
  0
LINE
  5
285
100
AcDbEntity
  8
0
100
AcDbLine
 62
7
  6
CONTINUOUS
 10
6.0746228508
 20
10.748277749
 11
5.9949062043
 21
10.7604842549
  0
LINE
  5
286
100
AcDbEntity
  8
0
100
AcDbLine
 62
7
  6
CONTINUOUS
 10
5.7847221788
 20
10.7926684053
 11
5.9628396287
 21
10.7653944067
  0
LINE
  5
287
100
AcDbEntity
  8
0
100
AcDbLine
 62
7
  6
CONTINUOUS
 10
6.2780044542
 20
10.7171352104
 11
6.3577906512
 21
10.7049180547
  0
LINE
  5
288
100
AcDbEntity
  8
0
100
AcDbLine
 62
7
  6
CONTINUOUS
 10
6.4151692754
 20
10.6961320289
 11
6.4949559084
 21
10.6839148064
  0
LINE
  5
289
100
AcDbEntity
  8
0
100
AcDbLine
 62
7
  6
CONTINUOUS
 10
6.526987491
 20
10.6790100127
 11
6.7051049406
 21
10.6517360143
  0
LINE
  5
28A
100
AcDbEntity
  8
0
100
AcDbLine
 62
9
  6
CONTINUOUS
 10
5.7747235607
 20
10.8051067208
 11
5.9761023005
 21
10.7742708681
  0
LINE
  5
28B
100
AcDbEntity
  8
0
100
AcDbLine
 62
9
  6
CONTINUOUS
 10
5.9848725929
 20
10.7729279287
 11
6.087920265
 21
10.7571488904
  0
LINE
  5
28C
100
AcDbEntity
  8
0
100
AcDbLine
 62
9
  6
CONTINUOUS
 10
6.1220376322
 20
10.7519247137
 11
6.2250853042
 21
10.7361456755
  0
LINE
  5
28D
100
AcDbEntity
  8
0
100
AcDbLine
 62
9
  6
CONTINUOUS
 10
6.2680056181
 20
10.7295735593
 11
6.3710532901
 21
10.713794521
  0
LINE
  5
28E
100
AcDbEntity
  8
0
100
AcDbLine
 62
9
  6
CONTINUOUS
 10
6.4051706573
 20
10.7085703444
 11
6.5082183294
 21
10.6927913061
  0
LINE
  5
28F
100
AcDbEntity
  8
0
100
AcDbLine
 62
9
  6
CONTINUOUS
 10
6.5169886218
 20
10.6914483667
 11
6.7183673616
 21
10.660612514
  0
LINE
  5
290
100
AcDbEntity
  8
0
100
AcDbLine
 62
7
  6
CONTINUOUS
 10
7.0616660249
 20
10.6339718899
 11
5.4391829267
 21
10.8824124648
  0
LINE
  5
291
100
AcDbEntity
  8
0
100
AcDbLine
 62
9
  6
CONTINUOUS
 10
5.4222516447
 20
10.9034702134
 11
7.0841226636
 21
10.6489984153
  0
LINE
  5
292
100
AcDbEntity
  8
0
100
AcDbLine
 62
7
  6
CONTINUOUS
 10
7.1446980785
 20
10.6688055254
 11
5.3703786665
 21
10.9404958347
  0
LINE
  5
293
100
AcDbEntity
  8
0
100
AcDbLine
 62
9
  6
CONTINUOUS
 10
5.3536362809
 20
10.9632926004
 11
7.1674948442
 21
10.685547911
  0
LINE
  5
294
100
AcDbEntity
  8
0
100
AcDbLine
 62
9
  6
CONTINUOUS
 10
5.3934438304
 20
11.2232625198
 11
7.2073023937
 21
10.9455178304
  0
LWPOLYLINE
  5
295
100
AcDbEntity
  8
0
100
AcDbPolyline
 62
7
  6
CONTINUOUS
 90
3
 70
0
 10
7.3008543311
 20
13.048649829
 10
7.3006501897
 20
13.0488190074
 10
7.2998637191
 20
13.0495809197
  0
LINE
  5
296
100
AcDbEntity
  8
0
100
AcDbLine
 62
7
  6
CONTINUOUS
 10
15.8722689261
 20
0.831391933
 11
15.9495720398
 21
0.6823975469
  0
LINE
  5
297
100
AcDbEntity
  8
0
100
AcDbLine
 62
7
  6
CONTINUOUS
 10
15.8095339292
 20
1.1238466429
 11
15.8363139347
 21
1.0722307338
  0
LINE
  5
298
100
AcDbEntity
  8
0
100
AcDbLine
 62
7
  6
CONTINUOUS
 10
15.8846254066
 20
0.7147747814
 11
15.812855333
 21
0.8742408909
  0
LWPOLYLINE
  5
299
100
AcDbEntity
  8
0
100
AcDbPolyline
 62
7
  6
CONTINUOUS
 90
4
 70
0
 10
15.812855333
 20
0.8742408909
 10
15.8014867271
 20
0.8997785405
 10
15.7898053396
 20
0.9266489424
 10
15.7808209273
 20
0.9478427927
  0
LINE
  5
29A
100
AcDbEntity
  8
0
100
AcDbLine
 62
9
  6
CONTINUOUS
 10
5.465758864
 20
11.3752015288
 11
7.183765701
 21
11.1121340079
  0
LINE
  5
29B
100
AcDbEntity
  8
0
100
AcDbLine
 62
9
  6
CONTINUOUS
 10
5.582563449
 20
11.5625464324
 11
7.1283724938
 21
11.3258464704
  0
LINE
  5
29C
100
AcDbEntity
  8
0
100
AcDbLine
 62
9
  6
CONTINUOUS
 10
5.6678046651
 20
11.8608756702
 11
6.9680606021
 21
11.6617757024
  0
LINE
  5
29D
100
AcDbEntity
  8
0
100
AcDbLine
 62
9
  6
CONTINUOUS
 10
7.1282965735
 20
11.3268665939
 11
7.1174871319
 21
11.3285249325
  0
LINE
  5
29E
100
AcDbEntity
  8
0
100
AcDbLine
 62
7
  6
CONTINUOUS
 10
15.7808212003
 20
0.9478421403
 11
15.7641313526
 21
0.9878908426
  0
LWPOLYLINE
  5
29F
100
AcDbEntity
  8
0
100
AcDbPolyline
 62
7
  6
CONTINUOUS
 90
4
 70
0
 10
15.7641313526
 20
0.9878908426
 10
15.7541598384
 20
1.0121695907
 10
15.7496754575
 20
1.0233436753
 10
15.7490018371
 20
1.025051387
  0
LINE
  5
2A0
100
AcDbEntity
  8
0
100
AcDbLine
 62
7
  6
CONTINUOUS
 10
7.2061942812
 20
11.6475148202
 11
7.3916363341
 21
11.6499988441
  0
LINE
  5
2A1
100
AcDbEntity
  8
0
100
AcDbLine
 62
7
  6
CONTINUOUS
 10
13.4995611217
 20
0.6074693877
 11
13.4995611217
 21
0.4904512192
  0
LINE
  5
2A2
100
AcDbEntity
  8
0
100
AcDbLine
 62
7
  6
CONTINUOUS
 10
13.7275611217
 20
0.9695529498
 11
13.7275611217
 21
1.0630199994
  0
LINE
  5
2A3
100
AcDbEntity
  8
0
100
AcDbLine
 62
7
  6
CONTINUOUS
 10
13.7595611217
 20
7.4813912336
 11
13.7595611217
 21
7.3594512192
  0
LINE
  5
2A4
100
AcDbEntity
  8
0
100
AcDbLine
 62
7
  6
CONTINUOUS
 10
13.8330611217
 20
1.1594512192
 11
13.8330611217
 21
5.0408473992
  0
LINE
  5
2A5
100
AcDbEntity
  8
0
100
AcDbLine
 62
7
  6
CONTINUOUS
 10
13.8330611217
 20
5.5580550392
 11
13.8330611217
 21
7.3594512192
  0
LINE
  5
2A6
100
AcDbEntity
  8
0
100
AcDbLine
 62
7
  6
CONTINUOUS
 10
13.4995706382
 20
0.6087487439
 11
13.4995611217
 21
0.6074693877
  0
LINE
  5
2A7
100
AcDbEntity
  8
0
100
AcDbLine
 62
7
  6
CONTINUOUS
 10
7.3298649013
 20
12.9318512327
 11
7.2832189156
 21
12.938990086
  0
LINE
  5
2A8
100
AcDbEntity
  8
0
100
AcDbLine
 62
9
  6
CONTINUOUS
 10
5.8964473285
 20
13.1308906757
 11
7.1263794725
 21
12.9425589265
  0
LINE
  5
2A9
100
AcDbEntity
  8
0
100
AcDbLine
 62
9
  6
CONTINUOUS
 10
7.1400530966
 20
12.9601758116
 11
5.8851894792
 21
13.1523251404
  0
LINE
  5
2AA
100
AcDbEntity
  8
0
100
AcDbLine
 62
9
  6
CONTINUOUS
 10
7.1538608168
 20
12.9775426625
 11
5.8736741734
 21
13.1735695484
  0
LINE
  5
2AB
100
AcDbEntity
  8
0
100
AcDbLine
 62
7
  6
CONTINUOUS
 10
7.4024857055
 20
12.8030503167
 11
7.3418967223
 21
12.8134424227
  0
LINE
  5
2AC
100
AcDbEntity
  8
0
100
AcDbLine
 62
7
  6
CONTINUOUS
 10
14.5237914603
 20
6.2607138881
 11
14.4630611217
 21
8.5719655258
  0
LINE
  5
2AD
100
AcDbEntity
  8
0
100
AcDbLine
 62
7
  6
CONTINUOUS
 10
14.2130611217
 20
12.8814512192
 11
14.2130611217
 21
7.8904512192
  0
LINE
  5
2AE
100
AcDbEntity
  8
0
100
AcDbLine
 62
7
  6
CONTINUOUS
 10
14.3960611217
 20
8.8194512192
 11
14.3960611217
 21
8.8954512192
  0
LINE
  5
2AF
100
AcDbEntity
  8
0
100
AcDbLine
 62
9
  6
CONTINUOUS
 10
14.4222246775
 20
4.9638480927
 11
14.4222246775
 21
5.2298621113
  0
LINE
  5
2B0
100
AcDbEntity
  8
0
100
AcDbLine
 62
7
  6
CONTINUOUS
 10
14.4455611217
 20
4.9669512192
 11
14.4455611217
 21
5.154465213
  0
LINE
  5
2B1
100
AcDbEntity
  8
0
100
AcDbLine
 62
7
  6
CONTINUOUS
 10
14.4650611217
 20
6.1289512192
 11
14.4650611217
 21
6.2404512192
  0
LINE
  5
2B2
100
AcDbEntity
  8
0
100
AcDbLine
 62
7
  6
CONTINUOUS
 10
14.5880611217
 20
6.0344512192
 11
14.5880611217
 21
5.2994512192
  0
LINE
  5
2B3
100
AcDbEntity
  8
0
100
AcDbLine
 62
9
  6
CONTINUOUS
 10
7.4848514909
 20
12.5823979106
 11
7.4927254209
 21
12.582434664
  0
LINE
  5
2B4
100
AcDbEntity
  8
0
100
AcDbLine
 62
9
  6
CONTINUOUS
 10
14.2130611217
 20
12.8814512192
 11
15.3530611217
 21
12.8814512192
  0
LINE
  5
2B5
100
AcDbEntity
  8
0
100
AcDbLine
 62
9
  6
CONTINUOUS
 10
6.0436858458
 20
13.4811348449
 11
6.0811695709
 21
13.4753977508
  0
LINE
  5
2B6
100
AcDbEntity
  8
0
100
AcDbLine
 62
9
  6
CONTINUOUS
 10
7.3437210422
 20
13.0223410991
 11
7.3141742698
 21
13.0268654095
  0
LINE
  5
2B7
100
AcDbEntity
  8
0
100
AcDbLine
 62
9
  6
CONTINUOUS
 10
7.1567605835
 20
13.0509691716
 11
6.7862195515
 21
13.1077077762
  0
LINE
  5
2B8
100
AcDbEntity
  8
0
100
AcDbLine
 62
9
  6
CONTINUOUS
 10
6.4631592452
 20
13.1571759576
 11
6.0862689835
 21
13.2148867796
  0
LINE
  5
2B9
100
AcDbEntity
  8
0
100
AcDbLine
 62
9
  6
CONTINUOUS
 10
5.9206223635
 20
13.2402511989
 11
5.8847263613
 21
13.2457477266
  0
LINE
  5
2BA
100
AcDbEntity
  8
0
100
AcDbLine
 62
9
  6
CONTINUOUS
 10
5.9252033165
 20
13.2403572079
 11
6.0761723302
 21
13.2172402777
  0
LINE
  5
2BB
100
AcDbEntity
  8
0
100
AcDbLine
 62
9
  6
CONTINUOUS
 10
6.4769889906
 20
13.1558657576
 11
6.7717590715
 21
13.1107294795
  0
LINE
  5
2BC
100
AcDbEntity
  8
0
100
AcDbLine
 62
9
  6
CONTINUOUS
 10
7.1661301847
 20
13.0503419253
 11
7.309931252
 21
13.0283225774
  0
LINE
  5
2BD
100
AcDbEntity
  8
0
100
AcDbLine
 62
9
  6
CONTINUOUS
 10
7.1485484977
 20
13.0718605143
 11
6.7856259926
 21
13.1274324075
  0
LINE
  5
2BE
100
AcDbEntity
  8
0
100
AcDbLine
 62
9
  6
CONTINUOUS
 10
6.4692039177
 20
13.1758842531
 11
6.1000603326
 21
13.2324087409
  0
LINE
  5
2BF
100
AcDbEntity
  8
0
100
AcDbLine
 62
9
  6
CONTINUOUS
 10
7.3316650089
 20
13.0438209655
 11
7.3027268772
 21
13.0482520196
  0
LINE
  5
2C0
100
AcDbEntity
  8
0
100
AcDbLine
 62
9
  6
CONTINUOUS
 10
5.9378166573
 20
13.2572522233
 11
5.9026574431
 21
13.2626358558
  0
LINE
  5
2C1
100
AcDbEntity
  8
0
100
AcDbLine
 62
9
  6
CONTINUOUS
 10
5.9583941658
 20
13.2691163146
 11
6.0469173614
 21
13.2555613176
  0
LINE
  5
2C2
100
AcDbEntity
  8
0
100
AcDbLine
 62
9
  6
CONTINUOUS
 10
6.5397490752
 20
13.1800971143
 11
6.713714857
 21
13.1534588345
  0
LINE
  5
2C3
100
AcDbEntity
  8
0
100
AcDbLine
 62
9
  6
CONTINUOUS
 10
7.2007626251
 20
13.0788802902
 11
7.2862052113
 21
13.0657970074
  0
LINE
  5
2C4
100
AcDbEntity
  8
0
100
AcDbLine
 62
9
  6
CONTINUOUS
 10
6.0060784914
 20
13.3321732219
 11
6.0095422649
 21
13.3316428362
  0
LINE
  5
2C5
100
AcDbEntity
  8
0
100
AcDbLine
 62
9
  6
CONTINUOUS
 10
6.1792526562
 20
13.3056561574
 11
6.493398871
 21
13.2575529344
  0
LINE
  5
2C6
100
AcDbEntity
  8
0
100
AcDbLine
 62
9
  6
CONTINUOUS
 10
6.7781730403
 20
13.213947267
 11
7.0888437839
 21
13.166376221
  0
LINE
  5
2C7
100
AcDbEntity
  8
0
100
AcDbLine
 62
9
  6
CONTINUOUS
 10
7.2512896382
 20
13.1415019148
 11
7.2537904084
 21
13.1411189877
  0
LINE
  5
2C8
100
AcDbEntity
  8
0
100
AcDbLine
 62
9
  6
CONTINUOUS
 10
6.0339565791
 20
13.4175962271
 11
6.0594673758
 21
13.4136899201
  0
LINE
  5
2C9
100
AcDbEntity
  8
0
100
AcDbLine
 62
9
  6
CONTINUOUS
 10
6.1992430631
 20
13.3922869532
 11
6.5146127459
 21
13.3439963883
  0
LINE
  5
2CA
100
AcDbEntity
  8
0
100
AcDbLine
 62
9
  6
CONTINUOUS
 10
6.7826817982
 20
13.3029486698
 11
7.0948252745
 21
13.2551521136
  0
LINE
  5
2CB
100
AcDbEntity
  8
0
100
AcDbLine
 62
9
  6
CONTINUOUS
 10
7.2277677225
 20
13.2347954774
 11
7.2527509161
 21
13.2309699589
  0
LINE
  5
2CC
100
AcDbEntity
  8
0
100
AcDbLine
 62
9
  6
CONTINUOUS
 10
6.765563041
 20
13.3705975555
 11
7.1212753607
 21
13.3161329297
  0
LINE
  5
2CD
100
AcDbEntity
  8
0
100
AcDbLine
 62
9
  6
CONTINUOUS
 10
6.1906372785
 20
13.4586323012
 11
6.5493615355
 21
13.4037064765
  0
LINE
  5
2CE
100
AcDbEntity
  8
0
100
AcDbLine
 62
9
  6
CONTINUOUS
 10
7.228008657
 20
13.2997861832
 11
7.2624801828
 21
13.2945085768
  0
LINE
  5
2CF
100
AcDbEntity
  8
0
100
AcDbLine
 62
9
  6
CONTINUOUS
 10
7.2617468592
 20
13.3036693717
 11
7.2273917305
 21
13.3089299553
  0
LINE
  5
2D0
100
AcDbEntity
  8
0
100
AcDbLine
 62
9
  6
CONTINUOUS
 10
7.1210285734
 20
13.3252166728
 11
6.766526439
 21
13.3794993425
  0
LINE
  5
2D1
100
AcDbEntity
  8
0
100
AcDbLine
 62
9
  6
CONTINUOUS
 10
6.5510752764
 20
13.4124900163
 11
6.193571521
 21
13.4672323052
  0
LINE
  5
2D2
100
AcDbEntity
  8
0
100
AcDbLine
 62
9
  6
CONTINUOUS
 10
6.0844835154
 20
13.4839362616
 11
6.0471267656
 21
13.4896564644
  0
LINE
  5
2D3
100
AcDbEntity
  8
0
100
AcDbLine
 62
9
  6
CONTINUOUS
 10
6.0720888452
 20
13.5249499033
 11
7.2484894293
 21
13.3448151224
  0
LINE
  5
2D4
100
AcDbEntity
  8
0
100
AcDbLine
 62
7
  6
CONTINUOUS
 10
6.1080968215
 20
13.5417117002
 11
7.2191469714
 21
13.371583618
  0
LINE
  5
2D5
100
AcDbEntity
  8
0
100
AcDbLine
 62
7
  6
CONTINUOUS
 10
7.2308528139
 20
13.395176302
 11
6.1039870035
 21
13.5677261363
  0
LINE
  5
2D6
100
AcDbEntity
  8
0
100
AcDbLine
 62
7
  6
CONTINUOUS
 10
14.9780611217
 20
6.0344512192
 11
14.9780611217
 21
5.2994512192
  0
LINE
  5
2D7
100
AcDbEntity
  8
0
100
AcDbLine
 62
7
  6
CONTINUOUS
 10
15.1010611217
 20
6.1289512192
 11
15.1010611217
 21
6.2404512192
  0
LINE
  5
2D8
100
AcDbEntity
  8
0
100
AcDbLine
 62
7
  6
CONTINUOUS
 10
15.1205611217
 20
5.154465213
 11
15.1205611217
 21
4.9669512192
  0
LINE
  5
2D9
100
AcDbEntity
  8
0
100
AcDbLine
 62
9
  6
CONTINUOUS
 10
15.1438975659
 20
5.2298621113
 11
15.1438975659
 21
4.9638480927
  0
LINE
  5
2DA
100
AcDbEntity
  8
0
100
AcDbLine
 62
7
  6
CONTINUOUS
 10
15.1700611217
 20
8.8194512192
 11
15.1700611217
 21
8.8954512192
  0
LINE
  5
2DB
100
AcDbEntity
  8
0
100
AcDbLine
 62
7
  6
CONTINUOUS
 10
15.3530611217
 20
7.8904512192
 11
15.3530611217
 21
12.8814512192
  0
LINE
  5
2DC
100
AcDbEntity
  8
0
100
AcDbLine
 62
7
  6
CONTINUOUS
 10
15.0423307831
 20
6.2607138881
 11
15.1030611217
 21
8.5719655258
  0
LINE
  5
2DD
100
AcDbEntity
  8
0
100
AcDbLine
 62
7
  6
CONTINUOUS
 10
16.0665516052
 20
0.6087487439
 11
16.0665611217
 21
0.6074693877
  0
LINE
  5
2DE
100
AcDbEntity
  8
0
100
AcDbLine
 62
7
  6
CONTINUOUS
 10
15.7330611217
 20
1.1594512192
 11
15.7330611217
 21
5.0408473992
  0
LINE
  5
2DF
100
AcDbEntity
  8
0
100
AcDbLine
 62
7
  6
CONTINUOUS
 10
15.7330611217
 20
5.5580550392
 11
15.7330611217
 21
7.3594512192
  0
LINE
  5
2E0
100
AcDbEntity
  8
0
100
AcDbLine
 62
7
  6
CONTINUOUS
 10
15.8065611217
 20
7.4813912336
 11
15.8065611217
 21
7.3594512192
  0
LINE
  5
2E1
100
AcDbEntity
  8
0
100
AcDbLine
 62
7
  6
CONTINUOUS
 10
15.8385611217
 20
0.9695529498
 11
15.8385611217
 21
1.0630199994
  0
LINE
  5
2E2
100
AcDbEntity
  8
0
100
AcDbLine
 62
7
  6
CONTINUOUS
 10
16.0665611217
 20
0.6074693877
 11
16.0665611217
 21
0.4904512192
  0
LINE
  5
2E3
100
AcDbEntity
  8
0
100
AcDbLine
 62
7
  6
CONTINUOUS
 10
5.9401198552
 20
13.2571409837
 11
5.9401236544
 21
13.2571417104
  0
LWPOLYLINE
  5
2E4
100
AcDbEntity
  8
0
100
AcDbPolyline
 62
7
  6
CONTINUOUS
 90
3
 70
0
 10
13.8171352767
 20
1.0250891848
 10
13.8164517302
 20
1.0233561904
 10
13.8119733021
 20
1.0121964351
  0
LINE
  5
2E5
100
AcDbEntity
  8
0
100
AcDbLine
 62
7
  6
CONTINUOUS
 10
13.8119733021
 20
1.0121964351
 11
13.8020189408
 21
0.9879585845
  0
LINE
  5
2E6
100
AcDbEntity
  8
0
100
AcDbLine
 62
7
  6
CONTINUOUS
 10
13.8020189408
 20
0.9879585845
 11
13.7853009717
 21
0.9478419696
  0
LWPOLYLINE
  5
2E7
100
AcDbEntity
  8
0
100
AcDbPolyline
 62
7
  6
CONTINUOUS
 90
3
 70
0
 10
13.7853012702
 20
0.9478426827
 10
13.7763974371
 20
0.9268366528
 10
13.7647197907
 20
0.8999700385
  0
LINE
  5
2E8
100
AcDbEntity
  8
0
100
AcDbLine
 62
7
  6
CONTINUOUS
 10
13.7647197907
 20
0.8999700385
 11
13.7524890922
 21
0.8724936535
  0
LWPOLYLINE
  5
2E9
100
AcDbEntity
  8
0
100
AcDbPolyline
 62
7
  6
CONTINUOUS
 90
3
 70
0
 10
13.7524893011
 20
0.872494118
 10
13.7281032416
 20
0.8183214125
 10
13.6704429391
 20
0.6902133999
  0
LWPOLYLINE
  5
2EA
100
AcDbEntity
  8
0
100
AcDbPolyline
 62
7
  6
CONTINUOUS
 90
8
 70
0
 10
13.6704432556
 20
0.6902131244
 10
13.6681948381
 20
0.6854067575
 10
13.6646899448
 20
0.6785538776
 10
13.660948958
 20
0.6719219584
 10
13.6570261368
 20
0.6655805528
 10
13.652981634
 20
0.6595978663
 10
13.648875613
 20
0.6540320665
 10
13.6460964311
 20
0.6505322733
  0
LINE
  5
2EB
100
AcDbEntity
  8
0
100
AcDbLine
 62
7
  6
CONTINUOUS
 10
13.7565883142
 20
1.1238466429
 11
13.7298083087
 21
1.0722307338
  0
LINE
  5
2EC
100
AcDbEntity
  8
0
100
AcDbLine
 62
7
  6
CONTINUOUS
 10
13.6938533173
 20
0.831391933
 11
13.6165502036
 21
0.6823975469
  0
LINE
  5
2ED
100
AcDbEntity
  8
0
100
AcDbLine
 62
7
  6
CONTINUOUS
 10
13.6460958233
 20
0.6505315304
 11
13.6409798696
 21
0.6442443972
  0
LWPOLYLINE
  5
2EE
100
AcDbEntity
  8
0
100
AcDbPolyline
 62
7
  6
CONTINUOUS
 90
7
 70
0
 10
13.6409798696
 20
0.6442443972
 10
13.6379864281
 20
0.6406083952
 10
13.6352341974
 20
0.6373769408
 10
13.6327492531
 20
0.6346236705
 10
13.6305486259
 20
0.6323859441
 10
13.628672585
 20
0.6306894208
 10
13.6271450593
 20
0.6295089063
  0
LWPOLYLINE
  5
2EF
100
AcDbEntity
  8
0
100
AcDbPolyline
 62
7
  6
CONTINUOUS
 90
5
 70
0
 10
13.6271450593
 20
0.6295089063
 10
13.6259931566
 20
0.6287933969
 10
13.6253461822
 20
0.6285024516
 10
13.6251725165
 20
0.6284556006
 10
13.6250738413
 20
0.6284512077
  0
ARC
  5
2F0
100
AcDbEntity
  8
0
100
AcDbCircle
 62
9
  6
CONTINUOUS
 10
-101.9660790036
 20
32.4244485337
 40
110.8183580656
100
AcDbArc
 50
349.560985747
 51
349.874771788
  0
ARC
  5
2F1
100
AcDbEntity
  8
0
100
AcDbCircle
 62
9
  6
CONTINUOUS
 10
-0.0934157559
 20
-71.1963030816
 40
83.6435826415
100
AcDbArc
 50
85.0078450238
 51
85.1386358946
  0
ARC
  5
2F2
100
AcDbEntity
  8
0
100
AcDbCircle
 62
9
  6
CONTINUOUS
 10
-34.7474740466
 20
14.2437912168
 40
41.7951058074
100
AcDbArc
 50
356.4783204737
 51
357.1235152474
  0
ARC
  5
2F3
100
AcDbEntity
  8
0
100
AcDbCircle
 62
7
  6
CONTINUOUS
 10
3.2872434005
 20
-10.6864874452
 40
23.7944168887
100
AcDbArc
 50
80.0638363582
 51
80.2288304881
  0
ARC
  5
2F4
100
AcDbEntity
  8
0
100
AcDbCircle
 62
7
  6
CONTINUOUS
 10
4.1413447047
 20
12.1356864948
 40
1.551
100
AcDbArc
 50
338.313404377
 51
349.7942799924
  0
ARC
  5
2F5
100
AcDbEntity
  8
0
100
AcDbCircle
 62
7
  6
CONTINUOUS
 10
5.0064476389
 20
11.7916546456
 40
0.62
100
AcDbArc
 50
317.8017025798
 51
338.313404377
  0
ARC
  5
2F6
100
AcDbEntity
  8
0
100
AcDbCircle
 62
7
  6
CONTINUOUS
 10
5.6820796345
 20
11.1790655447
 40
0.292
100
AcDbArc
 50
137.8017025798
 51
171.2942799924
  0
ARC
  5
2F7
100
AcDbEntity
  8
0
100
AcDbCircle
 62
7
  6
CONTINUOUS
 10
6.9186665896
 20
10.9897148055
 40
0.292
100
AcDbArc
 50
351.2942799924
 51
24.7868574051
  0
ARC
  5
2F8
100
AcDbEntity
  8
0
100
AcDbCircle
 62
7
  6
CONTINUOUS
 10
7.1688431053
 20
11.5346252974
 40
0.05
100
AcDbArc
 50
313.2423165786
 51
7.648760644
  0
ARC
  5
2F9
100
AcDbEntity
  8
0
100
AcDbCircle
 62
9
  6
CONTINUOUS
 10
7.1686228657
 20
11.5365736433
 40
0.0499600468
100
AcDbArc
 50
309.744517272
 51
7.6023632946
  0
ARC
  5
2FA
100
AcDbEntity
  8
0
100
AcDbCircle
 62
7
  6
CONTINUOUS
 10
7.1147240452
 20
10.6415281112
 40
0.0315
100
AcDbArc
 50
81.2942799924
 51
166.2814599669
  0
ARC
  5
2FB
100
AcDbEntity
  8
0
100
AcDbCircle
 62
7
  6
CONTINUOUS
 10
5.390817051
 20
10.9054990857
 40
0.0315
100
AcDbArc
 50
356.307100018
 51
81.2942799924
  0
ARC
  5
2FC
100
AcDbEntity
  8
0
100
AcDbCircle
 62
7
  6
CONTINUOUS
 10
7.064693215
 20
10.6537414655
 40
0.02
100
AcDbArc
 50
261.2942799924
 51
346.281459967
  0
ARC
  5
2FD
100
AcDbEntity
  8
0
100
AcDbCircle
 62
7
  6
CONTINUOUS
 10
5.4422101168
 20
10.9021820404
 40
0.02
100
AcDbArc
 50
176.3071000179
 51
261.2942799924
  0
ARC
  5
2FE
100
AcDbEntity
  8
0
100
AcDbCircle
 62
7
  6
CONTINUOUS
 10
7.1477252686
 20
10.6885751011
 40
0.02
100
AcDbArc
 50
261.2942799924
 51
351.2942799924
  0
ARC
  5
2FF
100
AcDbEntity
  8
0
100
AcDbCircle
 62
7
  6
CONTINUOUS
 10
5.3734058566
 20
10.9602654103
 40
0.02
100
AcDbArc
 50
171.2942799924
 51
261.2942799924
  0
ARC
  5
300
100
AcDbEntity
  8
0
100
AcDbCircle
 62
7
  6
CONTINUOUS
 10
6.3595785798
 20
10.7165929675
 40
0.0118110236
100
AcDbArc
 50
261.2942799924
 51
346.2942799924
  0
ARC
  5
301
100
AcDbEntity
  8
0
100
AcDbCircle
 62
7
  6
CONTINUOUS
 10
6.2797919469
 20
10.72881019
 40
0.0118110236
100
AcDbArc
 50
176.2942799925
 51
261.2942799924
  0
ARC
  5
302
100
AcDbEntity
  8
0
100
AcDbCircle
 62
7
  6
CONTINUOUS
 10
6.4967436191
 20
10.6955897526
 40
0.0118110236
100
AcDbArc
 50
261.2942799924
 51
346.2942799924
  0
ARC
  5
303
100
AcDbEntity
  8
0
100
AcDbCircle
 62
7
  6
CONTINUOUS
 10
6.4169569861
 20
10.7078069751
 40
0.0118110236
100
AcDbArc
 50
176.2942799925
 51
261.2942799924
  0
ARC
  5
304
100
AcDbEntity
  8
0
100
AcDbCircle
 62
7
  6
CONTINUOUS
 10
6.6085615836
 20
10.678467775
 40
0.0118110236
100
AcDbArc
 50
261.2942799924
 51
346.2942799924
  0
ARC
  5
305
100
AcDbEntity
  8
0
100
AcDbCircle
 62
7
  6
CONTINUOUS
 10
6.5287749506
 20
10.6906849974
 40
0.0118110236
100
AcDbArc
 50
176.2942799925
 51
261.2942799925
  0
ARC
  5
306
100
AcDbEntity
  8
0
100
AcDbCircle
 62
7
  6
CONTINUOUS
 10
6.6815455765
 20
10.6672921977
 40
0.0118110236
100
AcDbArc
 50
261.2942799924
 51
346.2942799924
  0
ARC
  5
307
100
AcDbEntity
  8
0
100
AcDbCircle
 62
7
  6
CONTINUOUS
 10
5.8118569643
 20
10.8004621143
 40
0.0118110236
100
AcDbArc
 50
176.2942799925
 51
261.2942799924
  0
ARC
  5
308
100
AcDbEntity
  8
0
100
AcDbCircle
 62
7
  6
CONTINUOUS
 10
5.8848409572
 20
10.789286537
 40
0.0118110236
100
AcDbArc
 50
176.2942799925
 51
261.2942799924
  0
ARC
  5
309
100
AcDbEntity
  8
0
100
AcDbCircle
 62
7
  6
CONTINUOUS
 10
5.9646275902
 20
10.7770693146
 40
0.0118110236
100
AcDbArc
 50
261.2942799924
 51
346.2942799924
  0
ARC
  5
30A
100
AcDbEntity
  8
0
100
AcDbCircle
 62
7
  6
CONTINUOUS
 10
5.9966589217
 20
10.7721645594
 40
0.0118110236
100
AcDbArc
 50
176.2942799925
 51
261.2942799925
  0
ARC
  5
30B
100
AcDbEntity
  8
0
100
AcDbCircle
 62
7
  6
CONTINUOUS
 10
6.0764455547
 20
10.7599473369
 40
0.0118110236
100
AcDbArc
 50
261.2942799924
 51
346.2942799925
  0
ARC
  5
30C
100
AcDbEntity
  8
0
100
AcDbCircle
 62
7
  6
CONTINUOUS
 10
6.1338239609
 20
10.7511613445
 40
0.0118110236
100
AcDbArc
 50
176.2942799925
 51
261.2942799925
  0
ARC
  5
30D
100
AcDbEntity
  8
0
100
AcDbCircle
 62
7
  6
CONTINUOUS
 10
6.2136105939
 20
10.738944122
 40
0.0118110236
100
AcDbArc
 50
261.2942799924
 51
346.2942799925
  0
ARC
  5
30E
100
AcDbEntity
  8
0
100
AcDbCircle
 62
7
  6
CONTINUOUS
 10
5.7865098895
 20
10.8043433515
 40
0.0118110236
100
AcDbArc
 50
176.2942799969
 51
261.2942799925
  0
ARC
  5
30F
100
AcDbEntity
  8
0
100
AcDbCircle
 62
7
  6
CONTINUOUS
 10
6.7068926513
 20
10.6634109605
 40
0.0118110236
100
AcDbArc
 50
261.2942799924
 51
346.294279988
  0
ARC
  5
310
100
AcDbEntity
  8
0
100
AcDbCircle
 62
9
  6
CONTINUOUS
 10
3.9793218985
 20
14.6158876086
 40
2.4042227875
100
AcDbArc
 50
328.2645938624
 51
329.5763127345
  0
ARC
  5
311
100
AcDbEntity
  8
0
100
AcDbCircle
 62
9
  6
CONTINUOUS
 10
5.4323916764
 20
13.716591654
 40
0.6953795787
100
AcDbArc
 50
328.1482902887
 51
328.3081007075
  0
ARC
  5
312
100
AcDbEntity
  8
0
100
AcDbCircle
 62
7
  6
CONTINUOUS
 10
5.7611364355
 20
13.4593714501
 40
0.276
100
AcDbArc
 50
332.5571812562
 51
351.2942799924
  0
ARC
  5
313
100
AcDbEntity
  8
0
100
AcDbCircle
 62
9
  6
CONTINUOUS
 10
5.8358892584
 20
13.415714313
 40
0.191045611
100
AcDbArc
 50
309.8838841849
 51
311.0861598922
  0
ARC
  5
314
100
AcDbEntity
  8
0
100
AcDbCircle
 62
9
  6
CONTINUOUS
 10
6.8069381804
 20
13.2429690401
 40
0.1368388508
100
AcDbArc
 50
255.1028800077
 51
261.2914129668
  0
ARC
  5
315
100
AcDbEntity
  8
0
100
AcDbCircle
 62
7
  6
CONTINUOUS
 10
5.8907072332
 20
13.3920854309
 40
0.13
100
AcDbArc
 50
275.2743428913
 51
332.5571812562
  0
ARC
  5
316
100
AcDbEntity
  8
0
100
AcDbCircle
 62
9
  6
CONTINUOUS
 10
6.4814826058
 20
13.2769425358
 40
0.121160137
100
AcDbArc
 50
261.3016366326
 51
267.8745133856
  0
ARC
  5
317
100
AcDbEntity
  8
0
100
AcDbCircle
 62
9
  6
CONTINUOUS
 10
6.8025001268
 20
13.238073551
 40
0.1119207689
100
AcDbArc
 50
254.9662153975
 51
261.3285596364
  0
ARC
  5
318
100
AcDbEntity
  8
0
100
AcDbCircle
 62
9
  6
CONTINUOUS
 10
5.9249649295
 20
13.3681522248
 40
0.1116423147
100
AcDbArc
 50
277.9449038874
 51
278.4640760816
  0
ARC
  5
319
100
AcDbEntity
  8
0
100
AcDbCircle
 62
9
  6
CONTINUOUS
 10
5.9249973933
 20
13.3679211118
 40
0.1114089329
100
AcDbArc
 50
277.7335836518
 51
277.9447971166
  0
ARC
  5
31A
100
AcDbEntity
  8
0
100
AcDbCircle
 62
9
  6
CONTINUOUS
 10
5.9250640041
 20
13.3674170088
 40
0.1109004514
100
AcDbArc
 50
276.6031576346
 51
277.7345294875
  0
ARC
  5
31B
100
AcDbEntity
  8
0
100
AcDbCircle
 62
9
  6
CONTINUOUS
 10
6.4843092026
 20
13.271242669
 40
0.0965471311
100
AcDbArc
 50
260.9988522336
 51
267.743000945
  0
ARC
  5
31C
100
AcDbEntity
  8
0
100
AcDbCircle
 62
9
  6
CONTINUOUS
 10
6.0963259659
 20
13.2808662446
 40
0.0667415365
100
AcDbArc
 50
252.4243112338
 51
261.3333450783
  0
ARC
  5
31D
100
AcDbEntity
  8
0
100
AcDbCircle
 62
9
  6
CONTINUOUS
 10
6.1082942975
 20
13.2867654375
 40
0.0549770661
100
AcDbArc
 50
252.2602673028
 51
261.3859363969
  0
ARC
  5
31E
100
AcDbEntity
  8
0
100
AcDbCircle
 62
9
  6
CONTINUOUS
 10
7.1650919264
 20
13.1051264074
 40
0.0547943196
100
AcDbArc
 50
261.2543953197
 51
271.0857217067
  0
ARC
  5
31F
100
AcDbEntity
  8
0
100
AcDbCircle
 62
9
  6
CONTINUOUS
 10
7.1559250689
 20
13.1175372289
 40
0.0462682744
100
AcDbArc
 50
260.8255196402
 51
270.6170671178
  0
ARC
  5
320
100
AcDbEntity
  8
0
100
AcDbCircle
 62
7
  6
CONTINUOUS
 10
6.1047461567
 20
13.5018522842
 40
0.04
100
AcDbArc
 50
85.1948955228
 51
144.7292799924
  0
ARC
  5
321
100
AcDbEntity
  8
0
100
AcDbCircle
 62
7
  6
CONTINUOUS
 10
7.2104169253
 20
13.3325479126
 40
0.04
100
AcDbArc
 50
17.8592799924
 51
77.3936644622
  0
ARC
  5
322
100
AcDbEntity
  8
0
100
AcDbCircle
 62
7
  6
CONTINUOUS
 10
5.893443749
 20
13.1705423583
 40
0.02
100
AcDbArc
 50
171.2942799924
 51
245.6245935937
  0
ARC
  5
323
100
AcDbEntity
  8
0
100
AcDbCircle
 62
7
  6
CONTINUOUS
 10
5.9044959369
 20
13.2427205366
 40
0.02
100
AcDbArc
 50
95.2743428913
 51
171.2942799924
  0
ARC
  5
324
100
AcDbEntity
  8
0
100
AcDbCircle
 62
7
  6
CONTINUOUS
 10
6.0634554214
 20
13.4781076549
 40
0.02
100
AcDbArc
 50
144.7292799924
 51
171.2942799924
  0
ARC
  5
325
100
AcDbEntity
  8
0
100
AcDbCircle
 62
7
  6
CONTINUOUS
 10
5.8770590234
 20
13.1343811807
 40
0.0197
100
AcDbArc
 50
349.7942799924
 51
65.6245935937
  0
ARC
  5
326
100
AcDbEntity
  8
0
100
AcDbCircle
 62
9
  6
CONTINUOUS
 10
5.9392982982
 20
13.265950487
 40
0.0088232895
100
AcDbArc
 50
260.3369918544
 51
267.7242255017
  0
ARC
  5
327
100
AcDbEntity
  8
0
100
AcDbCircle
 62
9
  6
CONTINUOUS
 10
10.4717455811
 20
11.837895922
 40
3.3002547951
100
AcDbArc
 50
163.3460065655
 51
171.8799082585
  0
ARC
  5
328
100
AcDbEntity
  8
0
100
AcDbCircle
 62
7
  6
CONTINUOUS
 10
9.993485571
 20
11.9139601634
 40
2.8
100
AcDbArc
 50
160.3908945478
 51
187.6490258435
  0
ARC
  5
329
100
AcDbEntity
  8
0
100
AcDbCircle
 62
9
  6
CONTINUOUS
 10
9.9477811704
 20
11.9105342813
 40
2.7712897344
100
AcDbArc
 50
171.8365113076
 51
175.4580931124
  0
ARC
  5
32A
100
AcDbEntity
  8
0
100
AcDbCircle
 62
7
  6
CONTINUOUS
 10
7.746647376
 20
11.3720651912
 40
0.62
100
AcDbArc
 50
184.2751556079
 51
204.7868574051
  0
ARC
  5
32B
100
AcDbEntity
  8
0
100
AcDbCircle
 62
9
  6
CONTINUOUS
 10
7.3750313747
 20
11.651245337
 40
0.4071066896
100
AcDbArc
 50
176.4467739874
 51
178.5177973497
  0
ARC
  5
32C
100
AcDbEntity
  8
0
100
AcDbCircle
 62
7
  6
CONTINUOUS
 10
7.3903180323
 20
11.7484152119
 40
0.0984251969
100
AcDbArc
 50
270.7674395812
 51
0.2674395874
  0
ARC
  5
32D
100
AcDbEntity
  8
0
100
AcDbCircle
 62
7
  6
CONTINUOUS
 10
7.4458066985
 20
12.5126177775
 40
0.0472440945
100
AcDbArc
 50
326.7101298255
 51
33.8247493493
  0
ARC
  5
32E
100
AcDbEntity
  8
0
100
AcDbCircle
 62
7
  6
CONTINUOUS
 10
7.4454818411
 20
12.5822141435
 40
0.0472440945
100
AcDbArc
 50
326.7101298255
 51
33.8247493493
  0
ARC
  5
32F
100
AcDbEntity
  8
0
100
AcDbCircle
 62
7
  6
CONTINUOUS
 10
7.4459412588
 20
12.4837900188
 40
0.0472440945
100
AcDbArc
 50
326.7101298255
 51
18.0590424795
  0
ARC
  5
330
100
AcDbEntity
  8
0
100
AcDbCircle
 62
7
  6
CONTINUOUS
 10
7.4840044345
 20
11.9204078449
 40
0.0118110236
100
AcDbArc
 50
0.2673196891
 51
45.2673168822
  0
ARC
  5
331
100
AcDbEntity
  8
0
100
AcDbCircle
 62
7
  6
CONTINUOUS
 10
7.4844365577
 20
11.827831221
 40
0.0118110236
100
AcDbArc
 50
315.2675622925
 51
0.2675594856
  0
ARC
  5
332
100
AcDbEntity
  8
0
100
AcDbCircle
 62
9
  6
CONTINUOUS
 10
9.4750661048
 20
13.7374409363
 40
2.3044042224
100
AcDbArc
 50
193.2653099282
 51
194.4415586718
  0
ARC
  5
333
100
AcDbEntity
  8
0
100
AcDbCircle
 62
9
  6
CONTINUOUS
 10
7.595773095
 20
13.2530129379
 40
0.3636815932
100
AcDbArc
 50
194.3722458729
 51
194.6738669395
  0
ARC
  5
334
100
AcDbEntity
  8
0
100
AcDbCircle
 62
7
  6
CONTINUOUS
 10
7.5255710597
 20
13.1891947359
 40
0.276
100
AcDbArc
 50
171.2942799924
 51
190.0313787287
  0
ARC
  5
335
100
AcDbEntity
  8
0
100
AcDbCircle
 62
9
  6
CONTINUOUS
 10
7.4714295495
 20
13.1932724795
 40
0.2248511762
100
AcDbArc
 50
213.3503976896
 51
214.5366055584
  0
ARC
  5
336
100
AcDbEntity
  8
0
100
AcDbCircle
 62
7
  6
CONTINUOUS
 10
7.381803034
 20
13.1637633618
 40
0.13
100
AcDbArc
 50
190.0313787287
 51
247.3142170936
  0
ARC
  5
337
100
AcDbEntity
  8
0
100
AcDbCircle
 62
9
  6
CONTINUOUS
 10
7.3501096409
 20
13.1580875754
 40
0.1196201747
100
AcDbArc
 50
245.0638510358
 51
245.4253979537
  0
ARC
  5
338
100
AcDbEntity
  8
0
100
AcDbCircle
 62
9
  6
CONTINUOUS
 10
7.3500724669
 20
13.1580063663
 40
0.1195308616
100
AcDbArc
 50
245.4254141046
 51
245.6564250449
  0
ARC
  5
339
100
AcDbEntity
  8
0
100
AcDbCircle
 62
9
  6
CONTINUOUS
 10
7.3499841109
 20
13.1578094187
 40
0.1193150025
100
AcDbArc
 50
245.7780505525
 51
246.6672024831
  0
ARC
  5
33A
100
AcDbEntity
  8
0
100
AcDbCircle
 62
7
  6
CONTINUOUS
 10
7.3858480863
 20
12.7060415079
 40
0.0984251969
100
AcDbArc
 50
0.2674395874
 51
80.2680966397
  0
ARC
  5
33B
100
AcDbEntity
  8
0
100
AcDbCircle
 62
9
  6
CONTINUOUS
 10
7.3062875529
 20
12.8629707842
 40
0.0498557032
100
AcDbArc
 50
340.60474989
 51
51.3611342629
  0
ARC
  5
33C
100
AcDbEntity
  8
0
100
AcDbCircle
 62
7
  6
CONTINUOUS
 10
7.4451569836
 20
12.6518105094
 40
0.0472440945
100
AcDbArc
 50
326.7101298255
 51
33.8247493493
  0
ARC
  5
33D
100
AcDbEntity
  8
0
100
AcDbCircle
 62
7
  6
CONTINUOUS
 10
7.4450224233
 20
12.6806382681
 40
0.0472440945
100
AcDbArc
 50
342.4758366954
 51
33.8268821135
  0
ARC
  5
33E
100
AcDbEntity
  8
0
100
AcDbCircle
 62
7
  6
CONTINUOUS
 10
7.3239514666
 20
13.0253682892
 40
0.02
100
AcDbArc
 50
351.2942799924
 51
67.3142170936
  0
ARC
  5
33F
100
AcDbEntity
  8
0
100
AcDbCircle
 62
7
  6
CONTINUOUS
 10
7.2427106072
 20
13.2975357669
 40
0.02
100
AcDbArc
 50
351.2942799924
 51
17.8592799924
  0
ARC
  5
340
100
AcDbEntity
  8
0
100
AcDbCircle
 62
9
  6
CONTINUOUS
 10
7.2920461174
 20
13.0329831482
 40
0.0179801556
100
AcDbArc
 50
57.6845385667
 51
60.6654801988
  0
ARC
  5
341
100
AcDbEntity
  8
0
100
AcDbCircle
 62
9
  6
CONTINUOUS
 10
15.5695773298
 20
1.7620557513
 40
1.1050038168
100
AcDbArc
 50
281.0521728896
 51
283.065829557
  0
ARC
  5
342
100
AcDbEntity
  8
0
100
AcDbCircle
 62
9
  6
CONTINUOUS
 10
16.7741241434
 20
1.4306965702
 40
1.1043113101
100
AcDbArc
 50
201.5884244473
 51
201.708701174
  0
ARC
  5
343
100
AcDbEntity
  8
0
100
AcDbCircle
 62
7
  6
CONTINUOUS
 10
13.4275611217
 20
0.9695529498
 40
0.3
100
AcDbArc
 50
332.5782533518
 51
360.0
  0
ARC
  5
344
100
AcDbEntity
  8
0
100
AcDbCircle
 62
7
  6
CONTINUOUS
 10
16.1385611217
 20
0.9695529498
 40
0.3
100
AcDbArc
 50
180.0
 51
207.4217466482
  0
ARC
  5
345
100
AcDbEntity
  8
0
100
AcDbCircle
 62
9
  6
CONTINUOUS
 10
16.1124718982
 20
0.8194087579
 40
0.2525660847
100
AcDbArc
 50
204.2246001422
 51
204.6691535447
  0
ARC
  5
346
100
AcDbEntity
  8
0
100
AcDbCircle
 62
9
  6
CONTINUOUS
 10
16.0736178236
 20
0.7840549586
 40
0.2004527
100
AcDbArc
 50
221.9387878617
 51
223.1060053437
  0
ARC
  5
347
100
AcDbEntity
  8
0
100
AcDbCircle
 62
9
  6
CONTINUOUS
 10
13.4931914833
 20
0.772081039
 40
0.1970882655
100
AcDbArc
 50
335.2043783626
 51
335.776427576
  0
ARC
  5
348
100
AcDbEntity
  8
0
100
AcDbCircle
 62
9
  6
CONTINUOUS
 10
13.51420953
 20
0.7553482928
 40
0.1703488911
100
AcDbArc
 50
320.5359396873
 51
321.5167944133
  0
ARC
  5
349
100
AcDbEntity
  8
0
100
AcDbCircle
 62
7
  6
CONTINUOUS
 10
13.5277861384
 20
0.7284512192
 40
0.1
100
AcDbArc
 50
270.0
 51
332.5782533518
  0
ARC
  5
34A
100
AcDbEntity
  8
0
100
AcDbCircle
 62
7
  6
CONTINUOUS
 10
16.038336105
 20
0.7284512192
 40
0.1
100
AcDbArc
 50
207.4217466482
 51
270.0
  0
ARC
  5
34B
100
AcDbEntity
  8
0
100
AcDbCircle
 62
7
  6
CONTINUOUS
 10
15.7509496461
 20
1.0934512192
 40
0.066
100
AcDbArc
 50
27.4217466482
 51
90.0
  0
ARC
  5
34C
100
AcDbEntity
  8
0
100
AcDbCircle
 62
7
  6
CONTINUOUS
 10
13.8151725973
 20
1.0934512192
 40
0.066
100
AcDbArc
 50
90.0
 51
152.5782533518
  0
ARC
  5
34D
100
AcDbEntity
  8
0
100
AcDbCircle
 62
9
  6
CONTINUOUS
 10
14.6362011173
 20
0.6735761881
 40
0.0451249701
100
AcDbArc
 50
270.0129488841
 51
277.1402265979
  0
ARC
  5
34E
100
AcDbEntity
  8
0
100
AcDbCircle
 62
7
  6
CONTINUOUS
 10
13.7475611217
 20
1.0630199994
 40
0.02
100
AcDbArc
 50
152.5782533518
 51
180.0
  0
ARC
  5
34F
100
AcDbEntity
  8
0
100
AcDbCircle
 62
7
  6
CONTINUOUS
 10
15.8185611217
 20
1.0630199994
 40
0.02
100
AcDbArc
 50
0.0
 51
27.4217466482
  0
ARC
  5
350
100
AcDbEntity
  8
0
100
AcDbCircle
 62
7
  6
CONTINUOUS
 10
13.5195684251
 20
0.6084512192
 40
0.02
100
AcDbArc
 50
90.0
 51
179.1476230686
  0
ARC
  5
351
100
AcDbEntity
  8
0
100
AcDbCircle
 62
7
  6
CONTINUOUS
 10
16.0465538183
 20
0.6084512192
 40
0.02
100
AcDbArc
 50
0.8523769314
 51
90.0
  0
ARC
  5
352
100
AcDbEntity
  8
0
100
AcDbCircle
 62
9
  6
CONTINUOUS
 10
14.7825653168
 20
4.9604577145
 40
0.3609662488
100
AcDbArc
 50
305.0159968514
 51
354.2244906429
  0
ARC
  5
353
100
AcDbEntity
  8
0
100
AcDbCircle
 62
9
  6
CONTINUOUS
 10
14.771579275
 20
5.4417636093
 40
0.8595393702
100
AcDbArc
 50
63.5357668994
 51
67.4591720833
  0
ARC
  5
354
100
AcDbEntity
  8
0
100
AcDbCircle
 62
9
  6
CONTINUOUS
 10
14.7776049346
 20
5.4569105861
 40
0.8432338965
100
AcDbArc
 50
70.2996479858
 51
70.8955697851
  0
ARC
  5
355
100
AcDbEntity
  8
0
100
AcDbCircle
 62
9
  6
CONTINUOUS
 10
14.778505315
 20
5.4595055728
 40
0.8404871459
100
AcDbArc
 50
70.8956703384
 51
71.662314584
  0
ARC
  5
356
100
AcDbEntity
  8
0
100
AcDbCircle
 62
9
  6
CONTINUOUS
 10
14.7835548127
 20
4.9604573636
 40
0.360964899
100
AcDbArc
 50
185.7754877178
 51
234.9842460028
  0
ARC
  5
357
100
AcDbEntity
  8
0
100
AcDbCircle
 62
9
  6
CONTINUOUS
 10
14.783059938
 20
4.9638480274
 40
0.3608352606
100
AcDbArc
 50
179.999989625
 51
186.3190621558
  0
ARC
  5
358
100
AcDbEntity
  8
0
100
AcDbCircle
 62
9
  6
CONTINUOUS
 10
14.7830623076
 20
4.9638480273
 40
0.3608352583
100
AcDbArc
 50
353.6809378244
 51
0.0000103948
  0
ARC
  5
359
100
AcDbEntity
  8
0
100
AcDbCircle
 62
7
  6
CONTINUOUS
 10
14.7830611217
 20
4.9669512192
 40
0.3375
100
AcDbArc
 50
180.0
 51
360.0
  0
ARC
  5
35A
100
AcDbEntity
  8
0
100
AcDbCircle
 62
7
  6
CONTINUOUS
 10
14.7830611217
 20
5.2994512192
 40
0.985
100
AcDbArc
 50
108.8437892373
 51
71.1562107627
  0
ARC
  5
35B
100
AcDbEntity
  8
0
100
AcDbCircle
 62
9
  6
CONTINUOUS
 10
14.7830611217
 20
5.2994512192
 40
0.904
100
AcDbArc
 50
110.6009790671
 51
69.3990209329
  0
ARC
  5
35C
100
AcDbEntity
  8
0
100
AcDbCircle
 62
9
  6
CONTINUOUS
 10
14.7939673401
 20
5.4430326099
 40
0.8581467857
100
AcDbArc
 50
112.5378247457
 51
116.4673327359
  0
ARC
  5
35D
100
AcDbEntity
  8
0
100
AcDbCircle
 62
9
  6
CONTINUOUS
 10
14.7883485476
 20
5.4573844362
 40
0.842731054
100
AcDbArc
 50
109.1041331822
 51
109.7004014917
  0
ARC
  5
35E
100
AcDbEntity
  8
0
100
AcDbCircle
 62
9
  6
CONTINUOUS
 10
14.7874400286
 20
5.4600185167
 40
0.8399446991
100
AcDbArc
 50
108.3372073996
 51
109.10437979
  0
ARC
  5
35F
100
AcDbEntity
  8
0
100
AcDbCircle
 62
9
  6
CONTINUOUS
 10
14.7830611217
 20
5.2994512192
 40
0.8029468303
100
AcDbArc
 50
110.3031243892
 51
69.6968756108
  0
ARC
  5
360
100
AcDbEntity
  8
0
100
AcDbCircle
 62
9
  6
CONTINUOUS
 10
14.7830611217
 20
5.2994512192
 40
0.7121080753
100
AcDbArc
 50
105.8992150828
 51
74.1007849172
  0
ARC
  5
361
100
AcDbEntity
  8
0
100
AcDbCircle
 62
9
  6
CONTINUOUS
 10
14.7830611217
 20
5.2994512192
 40
0.6674078227
100
AcDbArc
 50
106.9979348404
 51
251.9652514863
  0
ARC
  5
362
100
AcDbEntity
  8
0
100
AcDbCircle
 62
9
  6
CONTINUOUS
 10
14.7830611217
 20
5.2994512192
 40
0.6674078227
100
AcDbArc
 50
288.0347485138
 51
73.0020651596
  0
ARC
  5
363
100
AcDbEntity
  8
0
100
AcDbCircle
 62
9
  6
CONTINUOUS
 10
14.7830611217
 20
5.2994512192
 40
0.5191238966
100
AcDbArc
 50
112.0773292524
 51
226.3014378571
  0
ARC
  5
364
100
AcDbEntity
  8
0
100
AcDbCircle
 62
9
  6
CONTINUOUS
 10
14.7830611217
 20
5.2994512192
 40
0.5191238966
100
AcDbArc
 50
313.6985621429
 51
67.9226707476
  0
ARC
  5
365
100
AcDbEntity
  8
0
100
AcDbCircle
 62
7
  6
CONTINUOUS
 10
14.7830611217
 20
5.2994512192
 40
0.3675
100
AcDbArc
 50
122.069507581
 51
57.930492419
  0
ARC
  5
366
100
AcDbEntity
  8
0
100
AcDbCircle
 62
9
  6
CONTINUOUS
 10
14.783075529
 20
5.3120545551
 40
0.3608555124
100
AcDbArc
 50
122.73477699
 51
148.72658536
  0
ARC
  5
367
100
AcDbEntity
  8
0
100
AcDbCircle
 62
9
  6
CONTINUOUS
 10
14.7830704916
 20
5.3120758028
 40
0.3608241713
100
AcDbArc
 50
31.2883227221
 51
57.2658161222
  0
ARC
  5
368
100
AcDbEntity
  8
0
100
AcDbCircle
 62
9
  6
CONTINUOUS
 10
14.7830611217
 20
5.2994512192
 40
0.3075
100
AcDbArc
 50
129.3946908529
 51
50.6053091471
  0
ARC
  5
369
100
AcDbEntity
  8
0
100
AcDbCircle
 62
9
  6
CONTINUOUS
 10
14.7830611217
 20
5.2994512192
 40
0.215
100
AcDbArc
 50
155.1019615167
 51
24.898038342
  0
ARC
  5
36A
100
AcDbEntity
  8
0
100
AcDbCircle
 62
7
  6
CONTINUOUS
 10
14.7830611217
 20
5.2994512192
 40
0.195
100
AcDbArc
 50
180.0
 51
360.0
  0
ARC
  5
36B
100
AcDbEntity
  8
0
100
AcDbCircle
 62
7
  6
CONTINUOUS
 10
15.2430240474
 20
7.3320384266
 40
0.572
100
AcDbArc
 50
63.5902102985
 51
75.184277754
  0
ARC
  5
36C
100
AcDbEntity
  8
0
100
AcDbCircle
 62
7
  6
CONTINUOUS
 10
14.323098196
 20
7.3320384266
 40
0.572
100
AcDbArc
 50
104.815722246
 51
116.4097897015
  0
ARC
  5
36D
100
AcDbEntity
  8
0
100
AcDbCircle
 62
7
  6
CONTINUOUS
 10
14.7560240572
 20
8.8578007315
 40
0.362
100
AcDbArc
 50
186.0812044785
 51
206.5011717742
  0
ARC
  5
36E
100
AcDbEntity
  8
0
100
AcDbCircle
 62
7
  6
CONTINUOUS
 10
14.8100981862
 20
8.8578007315
 40
0.362
100
AcDbArc
 50
333.4988282258
 51
353.9187955215
  0
ARC
  5
36F
100
AcDbEntity
  8
0
100
AcDbCircle
 62
7
  6
CONTINUOUS
 10
14.1671632518
 20
8.5641905274
 40
0.296
100
AcDbArc
 50
1.5051548541
 51
26.5011717742
  0
ARC
  5
370
100
AcDbEntity
  8
0
100
AcDbCircle
 62
7
  6
CONTINUOUS
 10
15.3989589916
 20
8.5641905274
 40
0.296
100
AcDbArc
 50
153.4988282258
 51
178.4948451459
  0
ARC
  5
371
100
AcDbEntity
  8
0
100
AcDbCircle
 62
7
  6
CONTINUOUS
 10
15.7886908927
 20
7.8441606575
 40
0.249
100
AcDbArc
 50
191.9857509959
 51
252.67989237
  0
ARC
  5
372
100
AcDbEntity
  8
0
100
AcDbCircle
 62
7
  6
CONTINUOUS
 10
13.7774313507
 20
7.8441606575
 40
0.249
100
AcDbArc
 50
287.32010763
 51
348.0142490041
  0
ARC
  5
373
100
AcDbEntity
  8
0
100
AcDbCircle
 62
7
  6
CONTINUOUS
 10
15.3460756003
 20
7.721639989
 40
0.169
100
AcDbArc
 50
75.184277754
 51
87.2916739502
  0
ARC
  5
374
100
AcDbEntity
  8
0
100
AcDbCircle
 62
7
  6
CONTINUOUS
 10
14.2200466431
 20
7.721639989
 40
0.169
100
AcDbArc
 50
92.7083260498
 51
104.815722246
  0
ARC
  5
375
100
AcDbEntity
  8
0
100
AcDbCircle
 62
7
  6
CONTINUOUS
 10
15.4365069215
 20
7.721639989
 40
0.137
100
AcDbArc
 50
49.9110379351
 51
63.5902102985
  0
ARC
  5
376
100
AcDbEntity
  8
0
100
AcDbCircle
 62
7
  6
CONTINUOUS
 10
14.1296153219
 20
7.721639989
 40
0.137
100
AcDbArc
 50
116.4097897015
 51
130.0889620649
  0
ARC
  5
377
100
AcDbEntity
  8
0
100
AcDbCircle
 62
7
  6
CONTINUOUS
 10
15.6755611217
 20
7.4813912336
 40
0.131
100
AcDbArc
 50
0.0
 51
72.67989237
  0
ARC
  5
378
100
AcDbEntity
  8
0
100
AcDbCircle
 62
7
  6
CONTINUOUS
 10
13.8905611217
 20
7.4813912336
 40
0.131
100
AcDbArc
 50
107.32010763
 51
180.0
  0
ARC
  5
379
100
AcDbEntity
  8
0
100
AcDbCircle
 62
7
  6
CONTINUOUS
 10
14.5595611217
 20
6.1289512192
 40
0.0945
100
AcDbArc
 50
180.0
 51
270.0
  0
ARC
  5
37A
100
AcDbEntity
  8
0
100
AcDbCircle
 62
7
  6
CONTINUOUS
 10
15.0065611217
 20
6.1289512192
 40
0.0945
100
AcDbArc
 50
270.0
 51
360.0
  0
ARC
  5
37B
100
AcDbEntity
  8
0
100
AcDbCircle
 62
7
  6
CONTINUOUS
 10
15.485449117
 20
7.7797834452
 40
0.061
100
AcDbArc
 50
11.9857509959
 51
49.9110379351
  0
ARC
  5
37C
100
AcDbEntity
  8
0
100
AcDbCircle
 62
7
  6
CONTINUOUS
 10
14.0806731264
 20
7.7797834452
 40
0.061
100
AcDbArc
 50
130.0889620649
 51
168.0142490041
  0
ARC
  5
37D
100
AcDbEntity
  8
0
100
AcDbCircle
 62
7
  6
CONTINUOUS
 10
15.0523273328
 20
6.2604512192
 40
0.01
100
AcDbArc
 50
178.4948451459
 51
270.0
  0
ARC
  5
37E
100
AcDbEntity
  8
0
100
AcDbCircle
 62
7
  6
CONTINUOUS
 10
14.5137949106
 20
6.2604512192
 40
0.01
100
AcDbArc
 50
270.0
 51
1.5051548541
  0
ARC
  5
37F
100
AcDbEntity
  8
0
100
AcDbCircle
 62
7
  6
CONTINUOUS
 10
15.0910611217
 20
6.2404512192
 40
0.01
100
AcDbArc
 50
0.0
 51
90.0
  0
ARC
  5
380
100
AcDbEntity
  8
0
100
AcDbCircle
 62
7
  6
CONTINUOUS
 10
14.4750611217
 20
6.2404512192
 40
0.01
100
AcDbArc
 50
90.0
 51
180.0
  0
ARC
  5
381
100
AcDbEntity
  8
0
100
AcDbCircle
 62
9
  6
CONTINUOUS
 10
18.5607389648
 20
2.1149162348
 40
3.0168165176
100
AcDbArc
 50
202.7737667188
 51
204.2990942723
  0
ARC
  5
382
100
AcDbEntity
  8
0
100
AcDbCircle
 62
9
  6
CONTINUOUS
 10
14.78446538
 20
46.940615235
 40
35.4562583612
100
AcDbArc
 50
257.3472150571
 51
257.6559481949
  0
ARC
  5
383
100
AcDbEntity
  8
0
100
AcDbCircle
 62
9
  6
CONTINUOUS
 10
8.6299163641
 20
22.4464865566
 40
9.62212367
100
AcDbArc
 50
261.0102180738
 51
261.6364934363
  0
SPLINE
  5
384
100
AcDbEntity
  8
0
100
AcDbSpline
 62
7
  6
CONTINUOUS
 70
0
 71
3
 72
34
 73
30
 74
0
 42
0.0000001
 43
0.0000001
 44
0.0000000001
 40
0.0
 40
0.0
 40
0.0
 40
0.0
 40
0.0083428764
 40
0.0159480305
 40
0.0230326934
 40
0.0297770188
 40
0.042691119
 40
0.0552294683
 40
0.0676685827
 40
0.0801574219
 40
0.0927727164
 40
0.1055537258
 40
0.1316663347
 40
0.158554008
 40
0.186161878
 40
0.2144381049
 40
0.2433215532
 40
0.2727602545
 40
0.302700901
 40
0.3330993609
 40
0.3951142135
 40
0.4585686336
 40
0.5232417809
 40
0.5889823102
 40
0.6556590365
 40
0.723171045
 40
0.7914276696
 40
0.8603585566
 40
1.0
 40
1.0
 40
1.0
 40
1.0
 10
15.1700611217
 20
8.8954512192
 30
0.0
 10
15.1700611217
 20
8.8960415833
 30
0.0
 10
15.170001306
 20
8.8971714862
 30
0.0
 10
15.1697234884
 20
8.8987811522
 30
0.0
 10
15.1692933905
 20
8.9002390388
 30
0.0
 10
15.1685714356
 20
8.901990837
 30
0.0
 10
15.1674435601
 20
8.9039824816
 30
0.0
 10
15.1657860967
 20
8.9060997851
 30
0.0
 10
15.1639157191
 20
8.907985759
 30
0.0
 10
15.1618680727
 20
8.9096835372
 30
0.0
 10
15.1596778306
 20
8.9112331834
 30
0.0
 10
15.1565714259
 20
8.9131435678
 30
0.0
 10
15.1524186915
 20
8.915263119
 30
0.0
 10
15.1471441497
 20
8.9174448117
 30
0.0
 10
15.1416100053
 20
8.9193708314
 30
0.0
 10
15.135857509
 20
8.9210766456
 30
0.0
 10
15.129921019
 20
8.9226009874
 30
0.0
 10
15.1238254454
 20
8.9239659746
 30
0.0
 10
15.1175919255
 20
8.9251949484
 30
0.0
 10
15.1090619158
 20
8.9266818651
 30
0.0
 10
15.0981446618
 20
8.9282685652
 30
0.0
 10
15.0847766021
 20
8.9298077493
 30
0.0
 10
15.0711146503
 20
8.9310644337
 30
0.0
 10
15.0572039035
 20
8.9320741809
 30
0.0
 10
15.0430784973
 20
8.9328740321
 30
0.0
 10
15.0287656836
 20
8.9334874429
 30
0.0
 10
15.0142873203
 20
8.9339383233
 30
0.0
 10
14.9947021487
 20
8.9343454648
 30
0.0
 10
14.979942522
 20
8.9344512192
 30
0.0
 10
14.9700611217
 20
8.9344512192
 30
0.0
  0
SPLINE
  5
385
100
AcDbEntity
  8
0
100
AcDbSpline
 62
7
  6
CONTINUOUS
 70
0
 71
3
 72
34
 73
30
 74
0
 42
0.0000001
 43
0.0000001
 44
0.0000000001
 40
0.0
 40
0.0
 40
0.0
 40
0.0
 40
0.0083428764
 40
0.0159480305
 40
0.0230326934
 40
0.0297770188
 40
0.042691119
 40
0.0552294683
 40
0.0676685827
 40
0.0801574219
 40
0.0927727164
 40
0.1055537258
 40
0.1316663347
 40
0.158554008
 40
0.186161878
 40
0.2144381049
 40
0.2433215532
 40
0.2727602545
 40
0.302700901
 40
0.3330993609
 40
0.3951142135
 40
0.4585686336
 40
0.5232417809
 40
0.5889823102
 40
0.6556590365
 40
0.723171045
 40
0.7914276696
 40
0.8603585566
 40
1.0
 40
1.0
 40
1.0
 40
1.0
 10
14.3960611217
 20
8.8954512192
 30
0.0
 10
14.3960611217
 20
8.8960415833
 30
0.0
 10
14.3961209374
 20
8.8971714862
 30
0.0
 10
14.3963987549
 20
8.8987811522
 30
0.0
 10
14.3968288529
 20
8.9002390388
 30
0.0
 10
14.3975508078
 20
8.901990837
 30
0.0
 10
14.3986786833
 20
8.9039824816
 30
0.0
 10
14.4003361467
 20
8.9060997851
 30
0.0
 10
14.4022065243
 20
8.907985759
 30
0.0
 10
14.4042541707
 20
8.9096835372
 30
0.0
 10
14.4064444128
 20
8.9112331834
 30
0.0
 10
14.4095508175
 20
8.9131435678
 30
0.0
 10
14.4137035519
 20
8.915263119
 30
0.0
 10
14.4189780937
 20
8.9174448117
 30
0.0
 10
14.4245122381
 20
8.9193708314
 30
0.0
 10
14.4302647344
 20
8.9210766456
 30
0.0
 10
14.4362012244
 20
8.9226009874
 30
0.0
 10
14.442296798
 20
8.9239659746
 30
0.0
 10
14.4485303179
 20
8.9251949484
 30
0.0
 10
14.4570603276
 20
8.9266818651
 30
0.0
 10
14.4679775816
 20
8.9282685652
 30
0.0
 10
14.4813456413
 20
8.9298077493
 30
0.0
 10
14.4950075931
 20
8.9310644337
 30
0.0
 10
14.5089183399
 20
8.9320741809
 30
0.0
 10
14.5230437461
 20
8.9328740321
 30
0.0
 10
14.5373565598
 20
8.9334874429
 30
0.0
 10
14.5518349231
 20
8.9339383233
 30
0.0
 10
14.5714200947
 20
8.9343454648
 30
0.0
 10
14.5861797214
 20
8.9344512192
 30
0.0
 10
14.5960611217
 20
8.9344512192
 30
0.0
  0
SPLINE
  5
386
100
AcDbEntity
  8
0
100
AcDbSpline
 62
7
  6
CONTINUOUS
 70
0
 71
3
 72
126
 73
122
 74
0
 42
0.0000001
 43
0.0000001
 44
0.0000000001
 40
0.0
 40
0.0
 40
0.0
 40
0.0
 40
0.016579362
 40
0.032946764
 40
0.0410444095
 40
0.04908152
 40
0.0649672198
 40
0.0805993386
 40
0.088321523
 40
0.0959820777
 40
0.103582749
 40
0.1111343173
 40
0.1186610079
 40
0.126188389
 40
0.1337404064
 40
0.1413239716
 40
0.1489362556
 40
0.1565741451
 40
0.1719122599
 40
0.1873122792
 40
0.1950280365
 40
0.2027508909
 40
0.2182083435
 40
0.2336687151
 40
0.2491143862
 40
0.2568270101
 40
0.2645315943
 40
0.2799192261
 40
0.295282705
 40
0.3029516662
 40
0.3106082404
 40
0.3182546492
 40
0.3258993159
 40
0.3335511412
 40
0.3412187603
 40
0.3489077302
 40
0.3566216909
 40
0.3643640511
 40
0.3721380098
 40
0.3877905892
 40
0.4035873887
 40
0.4195205846
 40
0.4275355455
 40
0.4355804175
 40
0.4517520333
 40
0.468020964
 40
0.4843699972
 40
0.5007799557
 40
0.5172285317
 40
0.5336913384
 40
0.5419203687
 40
0.5501430211
 40
0.5583537611
 40
0.5665455578
 40
0.5747114143
 40
0.5828444234
 40
0.5909377865
 40
0.5989848334
 40
0.6069790443
 40
0.6149160177
 40
0.6227978409
 40
0.6306281485
 40
0.6461492534
 40
0.6538499027
 40
0.6615166835
 40
0.6691548068
 40
0.6767669301
 40
0.6843412531
 40
0.6918616804
 40
0.6993144571
 40
0.706699778
 40
0.7140245195
 40
0.7176666278
 40
0.7212973782
 40
0.7249248143
 40
0.7285594999
 40
0.7358837448
 40
0.7432787041
 40
0.750723721
 40
0.758205887
 40
0.7657139631
 40
0.7732366286
 40
0.7807649478
 40
0.7882933737
 40
0.7958165684
 40
0.8033323872
 40
0.810853559
 40
0.8183970164
 40
0.8259794774
 40
0.833614464
 40
0.8413092631
 40
0.849069919
 40
0.8569007449
 40
0.8608378943
 40
0.8647830275
 40
0.8687310435
 40
0.8726728915
 40
0.8765914409
 40
0.8804686321
 40
0.8842865022
 40
0.8880336705
 40
0.8953636739
 40
0.8989787033
 40
0.9025858232
 40
0.9062064909
 40
0.9098619174
 40
0.9135643833
 40
0.917313301
 40
0.9249435272
 40
0.9288213801
 40
0.9327384733
 40
0.9366928232
 40
0.9406828142
 40
0.9447080074
 40
0.9487681141
 40
0.9569915182
 40
0.9653495322
 40
0.9738373626
 40
0.9824475438
 40
0.991171433
 40
1.0
 40
1.0
 40
1.0
 40
1.0
 10
14.2130611217
 20
12.8814512192
 30
0.0
 10
14.2130611217
 20
12.9406353974
 30
0.0
 10
14.2114389505
 20
13.0582548605
 30
0.0
 10
14.2048488812
 20
13.2046535248
 30
0.0
 10
14.1965817496
 20
13.3203891765
 30
0.0
 10
14.1863289741
 20
13.4342390611
 30
0.0
 10
14.1695549582
 20
13.5744815745
 30
0.0
 10
14.1469392233
 20
13.7127735567
 30
0.0
 10
14.1251960295
 20
13.821342403
 30
0.0
 10
14.1071004751
 20
13.9013762302
 30
0.0
 10
14.0870923669
 20
13.9803257393
 30
0.0
 10
14.0650981069
 20
14.0582493676
 30
0.0
 10
14.041050237
 20
14.1352901448
 30
0.0
 10
14.0148692063
 20
14.21163427
 30
0.0
 10
13.9864976225
 20
14.2874084573
 30
0.0
 10
13.9559404945
 20
14.3626547103
 30
0.0
 10
13.9232365259
 20
14.4373280968
 30
0.0
 10
13.8767729496
 20
14.5361537347
 30
0.0
 10
13.8135917488
 20
14.6577822043
 30
0.0
 10
13.7440525296
 20
14.7762103369
 30
0.0
 10
13.6846951474
 20
14.8689356574
 30
0.0
 10
13.6228810712
 20
14.9602889459
 30
0.0
 10
13.5412578985
 20
15.0715639022
 30
0.0
 10
13.4367414085
 20
15.1999791569
 30
0.0
 10
13.3444176607
 20
15.3024438946
 30
0.0
 10
13.2676143678
 20
15.3814471552
 30
0.0
 10
13.188983769
 20
15.4583362273
 30
0.0
 10
13.0872108892
 20
15.5505559733
 30
0.0
 10
12.9809778591
 20
15.637401223
 30
0.0
 10
12.8935569883
 20
15.7034424992
 30
0.0
 10
12.8268693463
 20
15.7511812094
 30
0.0
 10
12.7590409221
 20
15.7971295806
 30
0.0
 10
12.6900529739
 20
15.8412868849
 30
0.0
 10
12.6198705341
 20
15.8836666647
 30
0.0
 10
12.5484660483
 20
15.9242741258
 30
0.0
 10
12.4758411475
 20
15.9631281661
 30
0.0
 10
12.4020158031
 20
16.0002467145
 30
0.0
 10
12.3270135533
 20
16.0356428959
 30
0.0
 10
12.2252509672
 20
16.0806578331
 30
0.0
 10
12.0951895761
 20
16.1326667277
 30
0.0
 10
11.9353566272
 20
16.1881795011
 30
0.0
 10
11.7993465841
 20
16.2287389635
 30
0.0
 10
11.6889007221
 20
16.2578357962
 30
0.0
 10
11.5770350214
 20
16.2847837675
 30
0.0
 10
11.4354975908
 20
16.3142252073
 30
0.0
 10
11.2636439084
 20
16.3427895376
 30
0.0
 10
11.0899565025
 20
16.3646831982
 30
0.0
 10
10.9149196713
 20
16.3799436458
 30
0.0
 10
10.73903395
 20
16.3886991096
 30
0.0
 10
10.5921519771
 20
16.3906775002
 30
0.0
 10
10.474660766
 20
16.3891272725
 30
0.0
 10
10.3866590743
 20
16.3864155547
 30
0.0
 10
10.2988519129
 20
16.382158147
 30
0.0
 10
10.2113368113
 20
16.3763481035
 30
0.0
 10
10.1242173819
 20
16.3689809974
 30
0.0
 10
10.0375972609
 20
16.3600517713
 30
0.0
 10
9.951580095
 20
16.3495555624
 30
0.0
 10
9.8662695461
 20
16.3374873534
 30
0.0
 10
9.7817622751
 20
16.3238414197
 30
0.0
 10
9.6981265936
 20
16.3086046797
 30
0.0
 10
9.6153992998
 20
16.2917424649
 30
0.0
 10
9.5066513977
 20
16.2671178568
 30
0.0
 10
9.3993733062
 20
16.2390253305
 30
0.0
 10
9.2937650994
 20
16.2072919625
 30
0.0
 10
9.2157084529
 20
16.1817384692
 30
0.0
 10
9.1386170861
 20
16.1543358115
 30
0.0
 10
9.0625647272
 20
16.1250745925
 30
0.0
 10
8.9877029388
 20
16.0939669505
 30
0.0
 10
8.9142442416
 20
16.0610426384
 30
0.0
 10
8.8423699713
 20
16.026311205
 30
0.0
 10
8.7721909034
 20
15.989758336
 30
0.0
 10
8.7150505266
 20
15.9576884388
 30
0.0
 10
8.6702413509
 20
15.9310844621
 30
0.0
 10
8.6371137613
 20
15.9106688511
 30
0.0
 10
8.6043508249
 20
15.8897222289
 30
0.0
 10
8.5609446757
 20
15.8609583561
 30
0.0
 10
8.5072102436
 20
15.823450026
 30
0.0
 10
8.4437406316
 20
15.7761898732
 30
0.0
 10
8.381254275
 20
15.7267237496
 30
0.0
 10
8.3199220985
 20
15.6752041516
 30
0.0
 10
8.2598843496
 20
15.621764206
 30
0.0
 10
8.20127072
 20
15.5665256484
 30
0.0
 10
8.1441934722
 20
15.5095981787
 30
0.0
 10
8.0887422452
 20
15.4510832098
 30
0.0
 10
8.0349896383
 20
15.3910639694
 30
0.0
 10
7.9829685935
 20
15.3295717654
 30
0.0
 10
7.9326514694
 20
15.2665852746
 30
0.0
 10
7.8839607902
 20
15.2020352868
 30
0.0
 10
7.8368178531
 20
15.1358473921
 30
0.0
 10
7.7911514671
 20
15.0679809225
 30
0.0
 10
7.7468813751
 20
14.9984411324
 30
0.0
 10
7.7039467536
 20
14.9272523291
 30
0.0
 10
7.6693245496
 20
14.8667379779
 30
0.0
 10
7.6422620642
 20
14.8176053757
 30
0.0
 10
7.6222766382
 20
14.7804015385
 30
0.0
 10
7.6026641221
 20
14.7429809523
 30
0.0
 10
7.5834734119
 20
14.7054488002
 30
0.0
 10
7.5647989149
 20
14.667939236
 30
0.0
 10
7.5467475615
 20
14.6306167797
 30
0.0
 10
7.5294184287
 20
14.5936276822
 30
0.0
 10
7.507514059
 20
14.5451763722
 30
0.0
 10
7.4869653538
 20
14.4969104055
 30
0.0
 10
7.4678416639
 20
14.4486087381
 30
0.0
 10
7.4542048572
 20
14.4123823579
 30
0.0
 10
7.4411229918
 20
14.3757989241
 30
0.0
 10
7.4285180898
 20
14.3386889305
 30
0.0
 10
7.4163345207
 20
14.3009571843
 30
0.0
 10
7.4005254664
 20
14.249491539
 30
0.0
 10
7.3855973408
 20
14.1971061591
 30
0.0
 10
7.3714703138
 20
14.1438843287
 30
0.0
 10
7.3611793669
 20
14.10322336
 30
0.0
 10
7.3512417566
 20
14.0620628756
 30
0.0
 10
7.3416469298
 20
14.020425104
 30
0.0
 10
7.3323738482
 20
13.9783279315
 30
0.0
 10
7.3203593243
 20
13.9213624909
 30
0.0
 10
7.3060491469
 20
13.8490771024
 30
0.0
 10
7.2898837961
 20
13.7610560344
 30
0.0
 10
7.2744808742
 20
13.6714977723
 30
0.0
 10
7.259634247
 20
13.5805227555
 30
0.0
 10
7.245137612
 20
13.4882602986
 30
0.0
 10
7.2356230219
 20
13.4263289798
 30
0.0
 10
7.2308528139
 20
13.395176302
 30
0.0
  0
SPLINE
  5
387
100
AcDbEntity
  8
0
100
AcDbSpline
 62
7
  6
CONTINUOUS
 70
0
 71
3
 72
149
 73
145
 74
0
 42
0.0000001
 43
0.0000001
 44
0.0000000001
 40
0.0
 40
0.0
 40
0.0
 40
0.0
 40
0.0149548741
 40
0.0300513495
 40
0.037650389
 40
0.0452825045
 40
0.0529477371
 40
0.06064642
 40
0.068379342
 40
0.0761479148
 40
0.0839542081
 40
0.0918009783
 40
0.0957406837
 40
0.0996917406
 40
0.1036530846
 40
0.1076227312
 40
0.1155788084
 40
0.1195614854
 40
0.1235445993
 40
0.1275262591
 40
0.1315055144
 40
0.1394572074
 40
0.1474011922
 40
0.1553386047
 40
0.1632703436
 40
0.1711970807
 40
0.1791192734
 40
0.1870371795
 40
0.1949510092
 40
0.2028610343
 40
0.2186692925
 40
0.2344646382
 40
0.250248129
 40
0.266021259
 40
0.2817888967
 40
0.289673431
 40
0.2975603476
 40
0.305452189
 40
0.313351512
 40
0.3212576558
 40
0.3291657002
 40
0.3331189012
 40
0.3370706444
 40
0.3410203041
 40
0.3449675647
 40
0.3528549023
 40
0.3607330884
 40
0.3686020993
 40
0.3764616171
 40
0.3921490401
 40
0.407799718
 40
0.4156144269
 40
0.4234227333
 40
0.4312251278
 40
0.4390219166
 40
0.4545985489
 40
0.4701535146
 40
0.4856846843
 40
0.5011875345
 40
0.5089262947
 40
0.5166547888
 40
0.5243716654
 40
0.5320754544
 40
0.5397645744
 40
0.5436031474
 40
0.5474376224
 40
0.5550960599
 40
0.562744069
 40
0.5703859689
 40
0.5780262256
 40
0.5856694477
 40
0.5933203824
 40
0.6009839095
 40
0.6086642028
 40
0.6163629971
 40
0.6240818806
 40
0.6318228586
 40
0.6395883666
 40
0.6473812829
 40
0.6552049388
 40
0.6630631271
 40
0.6709598808
 40
0.6788986214
 40
0.686883113
 40
0.6949167587
 40
0.7029953971
 40
0.7070494891
 40
0.7111122947
 40
0.71518311
 40
0.7192606683
 40
0.7233394172
 40
0.7274119725
 40
0.7314712428
 40
0.7355155522
 40
0.7435697512
 40
0.7515937539
 40
0.7595974335
 40
0.7675884599
 40
0.7715816473
 40
0.7755743643
 40
0.7835593961
 40
0.7915449493
 40
0.7995320364
 40
0.807519843
 40
0.8154985726
 40
0.823455512
 40
0.8274218467
 40
0.831377868
 40
0.8353226796
 40
0.8392560971
 40
0.8470877242
 40
0.8548706426
 40
0.8587429674
 40
0.8626027813
 40
0.8664532398
 40
0.8702979961
 40
0.8722193705
 40
0.8741406858
 40
0.8779876625
 40
0.8818511399
 40
0.8857441562
 40
0.8896798718
 40
0.8936666336
 40
0.8976961392
 40
0.8997232903
 40
0.9017567867
 40
0.9037951945
 40
0.9058368185
 40
0.9099221812
 40
0.9139978128
 40
0.9180486251
 40
0.9260511582
 40
0.9339313069
 40
0.937829351
 40
0.9417010918
 40
0.9455477132
 40
0.949369967
 40
0.9569399485
 40
0.9644068688
 40
0.9717652614
 40
0.9790090834
 40
0.9861330758
 40
0.9931319339
 40
1.0
 40
1.0
 40
1.0
 40
1.0
 10
15.3530611217
 20
12.8814512192
 30
0.0
 10
15.3530611217
 20
12.951826222
 30
0.0
 10
15.3510969887
 20
13.0932517199
 30
0.0
 10
15.3430850203
 20
13.2702816239
 30
0.0
 10
15.3328975557
 20
13.4126408608
 30
0.0
 10
15.323225887
 20
13.5199588674
 30
0.0
 10
15.3114308325
 20
13.6275364962
 30
0.0
 10
15.297380789
 20
13.7353222873
 30
0.0
 10
15.2809328012
 20
13.8432611552
 30
0.0
 10
15.2619466249
 20
13.9512978999
 30
0.0
 10
15.2402814997
 20
14.059376567
 30
0.0
 10
15.2199049008
 20
14.1493081084
 30
0.0
 10
15.2021336393
 20
14.2212041775
 30
0.0
 10
15.1880306342
 20
14.2751673671
 30
0.0
 10
15.1731691689
 20
14.3290728594
 30
0.0
 10
15.1523350015
 20
14.4008746955
 30
0.0
 10
15.1300238438
 20
14.4723463132
 30
0.0
 10
15.1062420497
 20
14.543399265
 30
0.0
 10
15.0876664131
 20
14.596466558
 30
0.0
 10
15.0683612253
 20
14.6492556753
 30
0.0
 10
15.0416639166
 20
14.7192189213
 30
0.0
 10
15.0065104438
 20
14.8059029146
 30
0.0
 10
14.9615346687
 20
14.9086588328
 30
0.0
 10
14.9138462862
 20
15.0100806204
 30
0.0
 10
14.8635132546
 20
15.1101248948
 30
0.0
 10
14.8106035363
 20
15.2087490662
 30
0.0
 10
14.7551844523
 20
15.3059100718
 30
0.0
 10
14.6973254012
 20
15.4015666185
 30
0.0
 10
14.637083866
 20
15.495673699
 30
0.0
 10
14.5536692491
 20
15.6189771417
 30
0.0
 10
14.4436622921
 20
15.7689965792
 30
0.0
 10
14.3028405775
 20
15.9420201011
 30
0.0
 10
14.1535923434
 20
16.1076123729
 30
0.0
 10
13.9962766062
 20
16.265371596
 30
0.0
 10
13.8587319988
 20
16.3900091268
 30
0.0
 10
13.7450274885
 20
16.4854182524
 30
0.0
 10
13.6579153047
 20
16.5548034568
 30
0.0
 10
13.5689954729
 20
16.6219709562
 30
0.0
 10
13.4782968292
 20
16.6868726872
 30
0.0
 10
13.3858857575
 20
16.7494473669
 30
0.0
 10
13.307527124
 20
16.7995982173
 30
0.0
 10
13.2440800585
 20
16.8384832013
 30
0.0
 10
13.1961393434
 20
16.8670123603
 30
0.0
 10
13.1478535526
 20
16.8948976593
 30
0.0
 10
13.0830499192
 20
16.9312013563
 30
0.0
 10
13.0012460691
 20
16.9749679949
 30
0.0
 10
12.9018705021
 20
17.0249368056
 30
0.0
 10
12.8014005255
 20
17.0723622639
 30
0.0
 10
12.6661966937
 20
17.1321918862
 30
0.0
 10
12.4948767894
 20
17.2007556167
 30
0.0
 10
12.3207742524
 20
17.261250279
 30
0.0
 10
12.1802104821
 20
17.304876982
 30
0.0
 10
12.0742301821
 20
17.3352430692
 30
0.0
 10
11.9677038545
 20
17.3633034582
 30
0.0
 10
11.8250699747
 20
17.3976750881
 30
0.0
 10
11.6456706999
 20
17.4350269394
 30
0.0
 10
11.4290021808
 20
17.4710573479
 30
0.0
 10
11.2114284118
 20
17.4984732209
 30
0.0
 10
11.0296118345
 20
17.5143115856
 30
0.0
 10
10.8841183728
 20
17.5228964412
 30
0.0
 10
10.7751014065
 20
17.5273229186
 30
0.0
 10
10.6661872789
 20
17.529772628
 30
0.0
 10
10.5574322775
 20
17.5302776512
 30
0.0
 10
10.4669349196
 20
17.5291037427
 30
0.0
 10
10.3946669551
 20
17.5272229293
 30
0.0
 10
10.3225623108
 20
17.5247207457
 30
0.0
 10
10.2325865255
 20
17.5204110777
 30
0.0
 10
10.1248237536
 20
17.5133069469
 30
0.0
 10
10.0172942794
 20
17.5042345122
 30
0.0
 10
9.9099754169
 20
17.4931558402
 30
0.0
 10
9.8028442294
 20
17.4800330255
 30
0.0
 10
9.6958778813
 20
17.464827905
 30
0.0
 10
9.5890573158
 20
17.4475039891
 30
0.0
 10
9.4823794414
 20
17.4280240879
 30
0.0
 10
9.3758708022
 20
17.4062926176
 30
0.0
 10
9.2695734684
 20
17.3822193046
 30
0.0
 10
9.1635321313
 20
17.35571351
 30
0.0
 10
9.0577914873
 20
17.3266848106
 30
0.0
 10
8.9523962885
 20
17.29504267
 30
0.0
 10
8.8473912357
 20
17.260696724
 30
0.0
 10
8.7428223836
 20
17.2235563445
 30
0.0
 10
8.6387403702
 20
17.1835355478
 30
0.0
 10
8.5352186422
 20
17.1405106997
 30
0.0
 10
8.4323449444
 20
17.0943586319
 30
0.0
 10
8.3302472675
 20
17.0449815232
 30
0.0
 10
8.2460722511
 20
17.0011234025
 30
0.0
 10
8.1793207573
 20
16.9643387248
 30
0.0
 10
8.1295340717
 20
16.9358611334
 30
0.0
 10
8.0801213291
 20
16.9065226079
 30
0.0
 10
8.0311395633
 20
16.8763267184
 30
0.0
 10
7.982653106
 20
16.8453267487
 30
0.0
 10
7.9347455543
 20
16.8135951534
 30
0.0
 10
7.8874874517
 20
16.7811897696
 30
0.0
 10
7.8254658454
 20
16.7371995044
 30
0.0
 10
7.7495068545
 20
16.6806313193
 30
0.0
 10
7.660633683
 20
16.6102915342
 30
0.0
 10
7.5740747399
 20
16.5375841157
 30
0.0
 10
7.5038131686
 20
16.4750292559
 30
0.0
 10
7.4487353025
 20
16.4238484146
 30
0.0
 10
7.3944034856
 20
16.3719171084
 30
0.0
 10
7.3278669317
 20
16.3055781199
 30
0.0
 10
7.2502988114
 20
16.223743298
 30
0.0
 10
7.1750728351
 20
16.1397320265
 30
0.0
 10
7.1022916146
 20
16.0536365093
 30
0.0
 10
7.032030394
 20
15.9656552914
 30
0.0
 10
6.9756110131
 20
15.8908853213
 30
0.0
 10
6.9318263272
 20
15.8303292967
 30
0.0
 10
6.8997214212
 20
15.784633404
 30
0.0
 10
6.8683191616
 20
15.7386394026
 30
0.0
 10
6.8274335686
 20
15.6770443605
 30
0.0
 10
6.7780262759
 20
15.5994375016
 30
0.0
 10
6.7306609427
 20
15.5209048541
 30
0.0
 10
6.6940361983
 20
15.4577428592
 30
0.0
 10
6.667222664
 20
15.4102873163
 30
0.0
 10
6.6409880387
 20
15.3626575533
 30
0.0
 10
6.6195710514
 20
15.3227913607
 30
0.0
 10
6.6026926667
 20
15.2907942453
 30
0.0
 10
6.585966764
 20
15.2587053857
 30
0.0
 10
6.5653176764
 20
15.2183558047
 30
0.0
 10
6.5409792636
 20
15.1694747739
 30
0.0
 10
6.5170420849
 20
15.1199315905
 30
0.0
 10
6.4934866708
 20
15.0695643776
 30
0.0
 10
6.4703346749
 20
15.0183046779
 30
0.0
 10
6.4515039537
 20
14.9749532981
 30
0.0
 10
6.43674955
 20
14.9398573891
 30
0.0
 10
6.4258445338
 20
14.9133083247
 30
0.0
 10
6.4151444616
 20
14.8866025928
 30
0.0
 10
6.4011608252
 20
14.8508120705
 30
0.0
 10
6.3842502967
 20
14.8058745089
 30
0.0
 10
6.3648767441
 20
14.7517694788
 30
0.0
 10
6.3404081412
 20
14.6799188372
 30
0.0
 10
6.3121910144
 20
14.5904447747
 30
0.0
 10
6.286668545
 20
14.5009158915
 30
0.0
 10
6.2678087595
 20
14.4297244282
 30
0.0
 10
6.2544278067
 20
14.3767214044
 30
0.0
 10
6.2417085397
 20
14.323922736
 30
0.0
 10
6.2256181017
 20
14.2540388094
 30
0.0
 10
6.206933221
 20
14.1672748807
 30
0.0
 10
6.1864434265
 20
14.0638936633
 30
0.0
 10
6.167666611
 20
13.9617489576
 30
0.0
 10
6.1503072336
 20
13.8609920925
 30
0.0
 10
6.1340991845
 20
13.7617583098
 30
0.0
 10
6.1187769298
 20
13.6641739843
 30
0.0
 10
6.1088789242
 20
13.5996736812
 30
0.0
 10
6.1039870035
 20
13.5677261363
 30
0.0
  0
SPLINE
  5
388
100
AcDbEntity
  8
0
100
AcDbSpline
 62
9
  6
CONTINUOUS
 70
0
 71
3
 72
13
 73
9
 74
0
 42
0.0000001
 43
0.0000001
 44
0.0000000001
 40
0.0
 40
0.0
 40
0.0
 40
0.0
 40
0.2606202339
 40
0.5161831281
 40
0.6413269304
 40
0.7641245334
 40
0.8840107122
 40
1.0
 40
1.0
 40
1.0
 40
1.0
 10
13.7988618945
 20
0.980682167
 30
0.0
 10
13.7995373155
 20
0.9879072225
 30
0.0
 10
13.8010409875
 20
1.0022023306
 30
0.0
 10
13.8034319622
 20
1.019902207
 30
0.0
 10
13.8057218373
 20
1.0337342499
 30
0.0
 10
13.8076365519
 20
1.0437964823
 30
0.0
 10
13.8097829901
 20
1.0535512894
 30
0.0
 10
13.811426317
 20
1.0599123088
 30
0.0
 10
13.8123079727
 20
1.0630191717
 30
0.0
  0
LINE
  5
389
100
AcDbEntity
  8
0
100
AcDbLine
 62
9
  6
CONTINUOUS
 10
14.9575797373
 20
0.831391933
 11
14.9584746058
 21
0.6823975469
  0
SPLINE
  5
38A
100
AcDbEntity
  8
0
100
AcDbSpline
 62
9
  6
CONTINUOUS
 70
0
 71
3
 72
17
 73
13
 74
0
 42
0.0000001
 43
0.0000001
 44
0.0000000001
 40
0.0
 40
0.0
 40
0.0
 40
0.0
 40
0.2501043514
 40
0.3751572663
 40
0.5001733849
 40
0.562671733
 40
0.6251673396
 40
0.6876560096
 40
0.7501397406
 40
0.8126314667
 40
0.8751286166
 40
1.0
 40
1.0
 40
1.0
 40
1.0
 10
14.6185481451
 20
0.9695529498
 30
0.0
 10
14.6204138508
 20
0.9778091156
 30
0.0
 10
14.6235825205
 20
0.9901165925
 30
0.0
 10
14.6286848628
 20
1.0062600382
 30
0.0
 10
14.6322800485
 20
1.0162127093
 30
0.0
 10
14.63542712
 20
1.0240675355
 30
0.0
 10
14.6379292556
 20
1.0298991207
 30
0.0
 10
14.6405839023
 20
1.0356624567
 30
0.0
 10
14.6434014324
 20
1.0413478709
 30
0.0
 10
14.6463913412
 20
1.0469452893
 30
0.0
 10
14.6506194029
 20
1.0542693678
 30
0.0
 10
14.6540917165
 20
1.0595861861
 30
0.0
 10
14.6565562935
 20
1.0630191717
 30
0.0
  0
SPLINE
  5
38B
100
AcDbEntity
  8
0
100
AcDbSpline
 62
9
  6
CONTINUOUS
 70
0
 71
3
 72
15
 73
11
 74
0
 42
0.0000001
 43
0.0000001
 44
0.0000000001
 40
0.0
 40
0.0
 40
0.0
 40
0.0
 40
0.1180489131
 40
0.1783345049
 40
0.2392667711
 40
0.3627443933
 40
0.4879834683
 40
0.6145928403
 40
0.7422875351
 40
1.0
 40
1.0
 40
1.0
 40
1.0
 10
13.9388127968
 20
1.0630191602
 30
0.0
 10
13.9403273994
 20
1.0595305195
 30
0.0
 10
13.9424440762
 20
1.0541846774
 30
0.0
 10
13.9450102487
 20
1.0469154799
 30
0.0
 10
13.9474676492
 20
1.0394241116
 30
0.0
 10
13.9502850129
 20
1.0298514089
 30
0.0
 10
13.9532997265
 20
1.0181392079
 30
0.0
 10
13.9559973465
 20
1.0062108695
 30
0.0
 10
13.9592164016
 20
0.9900307903
 30
0.0
 10
13.9612168033
 20
0.977771188
 30
0.0
 10
13.9623991209
 20
0.9695529498
 30
0.0
  0
LINE
  5
38C
100
AcDbEntity
  8
0
100
AcDbLine
 62
9
  6
CONTINUOUS
 10
14.8563687727
 20
0.7102138105
 11
14.8563107479
 21
0.8678811855
  0
SPLINE
  5
38D
100
AcDbEntity
  8
0
100
AcDbSpline
 62
9
  6
CONTINUOUS
 70
0
 71
3
 72
19
 73
15
 74
0
 42
0.0000001
 43
0.0000001
 44
0.0000000001
 40
0.0
 40
0.0
 40
0.0
 40
0.0
 40
0.0452410404
 40
0.0930130102
 40
0.1433652779
 40
0.1963183128
 40
0.2518640155
 40
0.3099522404
 40
0.3704919667
 40
0.4333691021
 40
0.5655313725
 40
0.7051141149
 40
0.8505392648
 40
1.0
 40
1.0
 40
1.0
 40
1.0
 10
14.8563107479
 20
0.8678811855
 30
0.0
 10
14.8574235598
 20
0.8666532184
 30
0.0
 10
14.8598279759
 20
0.8642324818
 30
0.0
 10
14.8638168308
 20
0.8608096628
 30
0.0
 10
14.8682676207
 20
0.8575136475
 30
0.0
 10
14.8731607231
 20
0.854358129
 30
0.0
 10
14.8784765061
 20
0.8513553215
 30
0.0
 10
14.8841935165
 20
0.8485171522
 30
0.0
 10
14.8902883916
 20
0.8458546279
 30
0.0
 10
14.8990310391
 20
0.8424989127
 30
0.0
 10
14.9107452123
 20
0.8388428637
 30
0.0
 10
14.9256407095
 20
0.8353782889
 30
0.0
 10
14.9413599699
 20
0.8328236178
 30
0.0
 10
14.9521176767
 20
0.8317645679
 30
0.0
 10
14.9575797373
 20
0.831391933
 30
0.0
  0
SPLINE
  5
38E
100
AcDbEntity
  8
0
100
AcDbSpline
 62
9
  6
CONTINUOUS
 70
0
 71
3
 72
18
 73
14
 74
0
 42
0.0000001
 43
0.0000001
 44
0.0000000001
 40
0.0
 40
0.0
 40
0.0
 40
0.0
 40
0.0415390944
 40
0.086301416
 40
0.1342933807
 40
0.1854925907
 40
0.2398496479
 40
0.2972708061
 40
0.4207135813
 40
0.5545042484
 40
0.6969680032
 40
0.8461842747
 40
1.0
 40
1.0
 40
1.0
 40
1.0
 10
14.8563687727
 20
0.7102138105
 30
0.0
 10
14.8575104219
 20
0.7092634708
 30
0.0
 10
14.8599715013
 20
0.7073948264
 30
0.0
 10
14.8640033689
 20
0.7047795419
 30
0.0
 10
14.868496831
 20
0.702261338
 30
0.0
 10
14.8734330194
 20
0.6998506775
 30
0.0
 10
14.8787927028
 20
0.6975560341
 30
0.0
 10
14.8866671023
 20
0.6945920286
 30
0.0
 10
14.8974328908
 20
0.6912807097
 30
0.0
 10
14.9113531146
 20
0.687999886
 30
0.0
 10
14.9263468874
 20
0.6853705158
 30
0.0
 10
14.94216739
 20
0.6834436915
 30
0.0
 10
14.9529807602
 20
0.6826665635
 30
0.0
 10
14.9584746075
 20
0.682397575
 30
0.0
  0
SPLINE
  5
38F
100
AcDbEntity
  8
0
100
AcDbSpline
 62
9
  6
CONTINUOUS
 70
0
 71
3
 72
11
 73
7
 74
0
 42
0.0000001
 43
0.0000001
 44
0.0000000001
 40
0.0
 40
0.0
 40
0.0
 40
0.0
 40
0.2470898246
 40
0.4960444628
 40
0.7469543451
 40
1.0
 40
1.0
 40
1.0
 40
1.0
 10
14.8563107479
 20
0.8678811856
 30
0.0
 10
14.856308118
 20
0.8741552568
 30
0.0
 10
14.8563528661
 20
0.8867508228
 30
0.0
 10
14.8565619037
 20
0.9057163796
 30
0.0
 10
14.8568902055
 20
0.9248314372
 30
0.0
 10
14.8571570731
 20
0.9376250306
 30
0.0
 10
14.8572899229
 20
0.9440489585
 30
0.0
  0
SPLINE
  5
390
100
AcDbEntity
  8
0
100
AcDbSpline
 62
9
  6
CONTINUOUS
 70
0
 71
3
 72
14
 73
10
 74
0
 42
0.0000001
 43
0.0000001
 44
0.0000000001
 40
0.0
 40
0.0
 40
0.0
 40
0.0
 40
0.084669262
 40
0.1837894993
 40
0.2960839448
 40
0.4201217174
 40
0.5543097478
 40
0.6969178137
 40
1.0
 40
1.0
 40
1.0
 40
1.0
 10
14.8572899229
 20
0.9440489585
 30
0.0
 10
14.8598056274
 20
0.9448759422
 30
0.0
 10
14.8652837758
 20
0.9466182205
 30
0.0
 10
14.8741428144
 20
0.9493155286
 30
0.0
 10
14.8842083702
 20
0.9522758931
 30
0.0
 10
14.8953507682
 20
0.9554606668
 30
0.0
 10
14.9074266701
 20
0.9588283611
 30
0.0
 10
14.924923714
 20
0.963601981
 30
0.0
 10
14.9383998032
 20
0.9671676859
 30
0.0
 10
14.9475740983
 20
0.96955295
 30
0.0
  0
SPLINE
  5
391
100
AcDbEntity
  8
0
100
AcDbSpline
 62
9
  6
CONTINUOUS
 70
0
 71
3
 72
50
 73
46
 74
0
 42
0.0000001
 43
0.0000001
 44
0.0000000001
 40
0.0
 40
0.0
 40
0.0
 40
0.0
 40
0.0615815492
 40
0.1231826706
 40
0.1848045459
 40
0.2464497603
 40
0.308119803
 40
0.3389655137
 40
0.369818259
 40
0.4006795675
 40
0.4315488609
 40
0.4624264636
 40
0.4933126327
 40
0.5087570433
 40
0.5242025354
 40
0.5396467671
 40
0.5550840828
 40
0.5705055914
 40
0.5782054526
 40
0.5858910769
 40
0.5935534507
 40
0.6011819748
 40
0.6087644575
 40
0.6162964595
 40
0.6237937416
 40
0.6312831463
 40
0.6387864131
 40
0.6463156427
 40
0.6614640344
 40
0.6767465515
 40
0.6921572293
 40
0.7076876748
 40
0.7233294244
 40
0.7390737277
 40
0.7549134752
 40
0.770841988
 40
0.7868529014
 40
0.8029398407
 40
0.8190963935
 40
0.8353169485
 40
0.8679223571
 40
0.9007242596
 40
0.933690496
 40
0.9667925879
 40
1.0
 40
1.0
 40
1.0
 40
1.0
 10
14.8572899328
 20
0.9440489617
 30
0.0
 10
14.8573395259
 20
0.9473216
 30
0.0
 10
14.8574214502
 20
0.9538681943
 30
0.0
 10
14.857488588
 20
0.9636902441
 30
0.0
 10
14.8574956775
 20
0.9735159209
 30
0.0
 10
14.8574357219
 20
0.9833450895
 30
0.0
 10
14.8573234931
 20
0.9915379683
 30
0.0
 10
14.8571891583
 20
0.998093558
 30
0.0
 10
14.8570647476
 20
1.0030114901
 30
0.0
 10
14.8569131031
 20
1.0079299177
 30
0.0
 10
14.8567316554
 20
1.0128486615
 30
0.0
 10
14.8565174007
 20
1.017767422
 30
0.0
 10
14.8563056155
 20
1.0218655592
 30
0.0
 10
14.8561172644
 20
1.0251435127
 30
0.0
 10
14.8559648725
 20
1.0276014269
 30
0.0
 10
14.8558024436
 20
1.0300583168
 30
0.0
 10
14.8556349705
 20
1.032513581
 30
0.0
 10
14.8554991507
 20
1.034558456
 30
0.0
 10
14.8554037
 20
1.0361930564
 30
0.0
 10
14.8553474564
 20
1.0374167993
 30
0.0
 10
14.8553207559
 20
1.0386378835
 30
0.0
 10
14.8553440626
 20
1.0398538928
 30
0.0
 10
14.8554480656
 20
1.0410595523
 30
0.0
 10
14.855670195
 20
1.0422432809
 30
0.0
 10
14.8560311956
 20
1.0433873781
 30
0.0
 10
14.8565170603
 20
1.0444818877
 30
0.0
 10
14.8571070006
 20
1.0455252102
 30
0.0
 10
14.8580041318
 20
1.0468564548
 30
0.0
 10
14.859290427
 20
1.0484168682
 30
0.0
 10
14.8610138889
 20
1.0501428375
 30
0.0
 10
14.8628828576
 20
1.0517408499
 30
0.0
 10
14.8648720599
 20
1.0532178209
 30
0.0
 10
14.866963173
 20
1.0545787461
 30
0.0
 10
14.8691392513
 20
1.0558319736
 30
0.0
 10
14.8713898459
 20
1.0569795671
 30
0.0
 10
14.8737057925
 20
1.0580234946
 30
0.0
 10
14.8760790808
 20
1.0589655109
 30
0.0
 10
14.8785024025
 20
1.0598075776
 30
0.0
 10
14.8809695611
 20
1.0605504789
 30
0.0
 10
14.884314533
 20
1.061413449
 30
0.0
 10
14.8885723054
 20
1.062266326
 30
0.0
 10
14.8937598809
 20
1.0629471732
 30
0.0
 10
14.899006595
 20
1.0632970789
 30
0.0
 10
14.9042858907
 20
1.0633269882
 30
0.0
 10
14.9078075825
 20
1.0631488194
 30
0.0
 10
14.9095675831
 20
1.0630167411
 30
0.0
  0
LINE
  5
392
100
AcDbEntity
  8
0
100
AcDbLine
 62
9
  6
CONTINUOUS
 10
15.7373336069
 20
0.8678811857
 11
15.8193858467
 21
0.6856600146
  0
SPLINE
  5
393
100
AcDbEntity
  8
0
100
AcDbSpline
 62
9
  6
CONTINUOUS
 70
0
 71
3
 72
16
 73
12
 74
0
 42
0.0000001
 43
0.0000001
 44
0.0000000001
 40
0.0
 40
0.0
 40
0.0
 40
0.0
 40
0.1384270209
 40
0.2742423625
 40
0.4066585593
 40
0.5351252589
 40
0.659128521
 40
0.7781939301
 40
0.8357492667
 40
0.8919193223
 40
1.0
 40
1.0
 40
1.0
 40
1.0
 10
15.7814096145
 20
0.6775464766
 30
0.0
 10
15.7774059263
 20
0.6767629887
 30
0.0
 10
15.7694173931
 20
0.6754877737
 30
0.0
 10
15.7574767063
 20
0.6743749815
 30
0.0
 10
15.7457828949
 20
0.6740260174
 30
0.0
 10
15.7344384286
 20
0.6744002374
 30
0.0
 10
15.723532335
 20
0.6754549373
 30
0.0
 10
15.7147806244
 20
0.6768779404
 30
0.0
 10
15.7080711899
 20
0.6783163925
 30
0.0
 10
15.7017291883
 20
0.679903793
 30
0.0
 10
15.6970971304
 20
0.6813313783
 30
0.0
 10
15.6940956282
 20
0.6823976823
 30
0.0
  0
SPLINE
  5
394
100
AcDbEntity
  8
0
100
AcDbSpline
 62
9
  6
CONTINUOUS
 70
0
 71
3
 72
11
 73
7
 74
0
 42
0.0000001
 43
0.0000001
 44
0.0000000001
 40
0.0
 40
0.0
 40
0.0
 40
0.0
 40
0.2509263356
 40
0.5012872252
 40
0.7509993611
 40
1.0
 40
1.0
 40
1.0
 40
1.0
 10
15.7051018243
 20
0.9440487722
 30
0.0
 10
15.707612843
 20
0.937602097
 30
0.0
 10
15.7127543565
 20
0.9247718405
 30
0.0
 10
15.720739775
 20
0.9056667704
 30
0.0
 10
15.7289308698
 20
0.8867069142
 30
0.0
 10
15.734514771
 20
0.8741411503
 30
0.0
 10
15.737333607
 20
0.8678811858
 30
0.0
  0
SPLINE
  5
395
100
AcDbEntity
  8
0
100
AcDbSpline
 62
9
  6
CONTINUOUS
 70
0
 71
3
 72
18
 73
14
 74
0
 42
0.0000001
 43
0.0000001
 44
0.0000000001
 40
0.0
 40
0.0
 40
0.0
 40
0.0
 40
0.1430422317
 40
0.2851270737
 40
0.4240107787
 40
0.5575594891
 40
0.6837185967
 40
0.7434311893
 40
0.80059684
 40
0.8550151024
 40
0.9065061409
 40
0.954893048
 40
1.0
 40
1.0
 40
1.0
 40
1.0
 10
15.737333607
 20
0.8678811858
 30
0.0
 10
15.7323088232
 20
0.8654853466
 30
0.0
 10
15.722220983
 20
0.8608588943
 30
0.0
 10
15.7070226435
 20
0.8544266435
 30
0.0
 10
15.6919792015
 20
0.8485946334
 30
0.0
 10
15.6773394311
 20
0.8434583117
 30
0.0
 10
15.6654674412
 20
0.8397617614
 30
0.0
 10
15.6563531903
 20
0.837231882
 30
0.0
 10
15.6498911332
 20
0.8355919175
 30
0.0
 10
15.6437029616
 20
0.8341808256
 30
0.0
 10
15.6378137967
 20
0.8330042779
 30
0.0
 10
15.6322488901
 20
0.8320673449
 30
0.0
 10
15.6286412112
 20
0.8315871938
 30
0.0
 10
15.6268966911
 20
0.831391933
 30
0.0
  0
SPLINE
  5
396
100
AcDbEntity
  8
0
100
AcDbSpline
 62
9
  6
CONTINUOUS
 70
0
 71
3
 72
46
 73
42
 74
0
 42
0.0000001
 43
0.0000001
 44
0.0000000001
 40
0.0
 40
0.0
 40
0.0
 40
0.0
 40
0.021163518
 40
0.0428954062
 40
0.0653500845
 40
0.0886833579
 40
0.1130285003
 40
0.1385226604
 40
0.1653205858
 40
0.1935244019
 40
0.2081796047
 40
0.2232139445
 40
0.2386395076
 40
0.2544654523
 40
0.270695962
 40
0.2873345551
 40
0.2958067315
 40
0.3043724955
 40
0.3130121931
 40
0.3216855959
 40
0.3303366378
 40
0.33892413
 40
0.3474432217
 40
0.3559098336
 40
0.3643434992
 40
0.3727597088
 40
0.3895702916
 40
0.4063764173
 40
0.4231906227
 40
0.4400190733
 40
0.4568617452
 40
0.4905864892
 40
0.5243601519
 40
0.5581751319
 40
0.5920260398
 40
0.6598182629
 40
0.7277103869
 40
0.7956848698
 40
0.863729937
 40
0.9318370667
 40
1.0
 40
1.0
 40
1.0
 40
1.0
 10
15.6273080999
 20
1.0630167371
 30
0.0
 10
15.628385683
 20
1.0631503704
 30
0.0
 10
15.6305826187
 20
1.0633286601
 30
0.0
 10
15.6339400081
 20
1.0632937898
 30
0.0
 10
15.6373906879
 20
1.0629363134
 30
0.0
 10
15.6409267893
 20
1.0622458038
 30
0.0
 10
15.6445407631
 20
1.0612129069
 30
0.0
 10
15.6482215875
 20
1.0598162531
 30
0.0
 10
15.6519461782
 20
1.0580206202
 30
0.0
 10
15.6550321394
 20
1.0562098292
 30
0.0
 10
15.6575014603
 20
1.054557838
 30
0.0
 10
15.6593724955
 20
1.0531938935
 30
0.0
 10
15.6612313946
 20
1.0517148517
 30
0.0
 10
15.6630693611
 20
1.050114553
 30
0.0
 10
15.6648746673
 20
1.0483860797
 30
0.0
 10
15.6663263256
 20
1.0468375168
 30
0.0
 10
15.6674413892
 20
1.0455171404
 30
0.0
 10
15.6682487461
 20
1.0444754818
 30
0.0
 10
15.6690081137
 20
1.0433854145
 30
0.0
 10
15.6697005591
 20
1.0422462858
 30
0.0
 10
15.6703170929
 20
1.0410674214
 30
0.0
 10
15.6708598459
 20
1.0398618402
 30
0.0
 10
15.6713479792
 20
1.0386436799
 30
0.0
 10
15.6718000346
 20
1.0374202372
 30
0.0
 10
15.6722302934
 20
1.0361946244
 30
0.0
 10
15.672788516
 20
1.0345602995
 30
0.0
 10
15.6734703893
 20
1.032514333
 30
0.0
 10
15.6742824379
 20
1.0300576049
 30
0.0
 10
15.6750939141
 20
1.0275997167
 30
0.0
 10
15.6759111185
 20
1.0251417506
 30
0.0
 10
15.677008312
 20
1.0218625545
 30
0.0
 10
15.6783921321
 20
1.0177624812
 30
0.0
 10
15.6800753525
 20
1.012844448
 30
0.0
 10
15.681777553
 20
1.0079261058
 30
0.0
 10
15.6840717591
 20
1.0013657218
 30
0.0
 10
15.6869793634
 20
0.9931676736
 30
0.0
 10
15.6905203605
 20
0.9833367837
 30
0.0
 10
15.6941068636
 20
0.9735085983
 30
0.0
 10
15.6977346941
 20
0.9636838385
 30
0.0
 10
15.7013991165
 20
0.9538623521
 30
0.0
 10
15.7038641005
 20
0.9473196692
 30
0.0
 10
15.7051018101
 20
0.9440487744
 30
0.0
  0
SPLINE
  5
397
100
AcDbEntity
  8
0
100
AcDbSpline
 62
9
  6
CONTINUOUS
 70
0
 71
3
 72
16
 73
12
 74
0
 42
0.0000001
 43
0.0000001
 44
0.0000000001
 40
0.0
 40
0.0
 40
0.0
 40
0.0
 40
0.140849454
 40
0.2804802652
 40
0.4171414258
 40
0.5491617261
 40
0.674917823
 40
0.7928833456
 40
0.9016642763
 40
0.9522192208
 40
1.0
 40
1.0
 40
1.0
 40
1.0
 10
15.7051018101
 20
0.9440487744
 30
0.0
 10
15.700242145
 20
0.9448013134
 30
0.0
 10
15.6905809535
 20
0.946406022
 30
0.0
 10
15.6762686056
 20
0.9491078032
 30
0.0
 10
15.6623225248
 20
0.9520691436
 30
0.0
 10
15.6489224809
 20
0.9552513166
 30
0.0
 10
15.6362402477
 20
0.9586131227
 30
0.0
 10
15.6244385758
 20
0.9621106158
 30
0.0
 10
15.6152504882
 20
0.965170254
 30
0.0
 10
15.6084629184
 20
0.967665489
 30
0.0
 10
15.6052674963
 20
0.9689222153
 30
0.0
 10
15.6037231225
 20
0.9695529498
 30
0.0
  0
SPLINE
  5
398
100
AcDbEntity
  8
0
100
AcDbSpline
 62
9
  6
CONTINUOUS
 70
0
 71
3
 72
15
 73
11
 74
0
 42
0.0000001
 43
0.0000001
 44
0.0000000001
 40
0.0
 40
0.0
 40
0.0
 40
0.0
 40
0.1483520125
 40
0.2938929389
 40
0.4341858011
 40
0.5673147434
 40
0.6915456337
 40
0.8054924445
 40
0.9083875035
 40
1.0
 40
1.0
 40
1.0
 40
1.0
 10
14.838791616
 20
0.7157772014
 30
0.0
 10
14.8397233652
 20
0.7157604917
 30
0.0
 10
14.8415687158
 20
0.7156677425
 30
0.0
 10
14.8442797604
 20
0.7153517718
 30
0.0
 10
14.8468684753
 20
0.7148647271
 30
0.0
 10
14.8492836127
 20
0.714216484
 30
0.0
 10
14.8514794045
 20
0.7134203896
 30
0.0
 10
14.8534145253
 20
0.7124904262
 30
0.0
 10
14.8550512649
 20
0.7114439471
 30
0.0
 10
14.8559762898
 20
0.7106346649
 30
0.0
 10
14.856368763
 20
0.7102137827
 30
0.0
  0
SPLINE
  5
399
100
AcDbEntity
  8
0
100
AcDbSpline
 62
9
  6
CONTINUOUS
 70
0
 71
3
 72
15
 73
11
 74
0
 42
0.0000001
 43
0.0000001
 44
0.0000000001
 40
0.0
 40
0.0
 40
0.0
 40
0.0
 40
0.1486352519
 40
0.2943931235
 40
0.4348204184
 40
0.5679920064
 40
0.692169996
 40
0.8059723946
 40
0.9086480887
 40
1.0
 40
1.0
 40
1.0
 40
1.0
 10
14.8387412713
 20
0.8734949299
 30
0.0
 10
14.8396755124
 20
0.8734770364
 30
0.0
 10
14.8415253442
 20
0.8733816165
 30
0.0
 10
14.844242001
 20
0.8730606458
 30
0.0
 10
14.8468342713
 20
0.8725677739
 30
0.0
 10
14.8492505446
 20
0.8719130491
 30
0.0
 10
14.8514447857
 20
0.8711100234
 30
0.0
 10
14.853375486
 20
0.8701728558
 30
0.0
 10
14.8550048218
 20
0.8691190993
 30
0.0
 10
14.8559226715
 20
0.8683045118
 30
0.0
 10
14.8563107479
 20
0.8678811791
 30
0.0
  0
SPLINE
  5
39A
100
AcDbEntity
  8
0
100
AcDbSpline
 62
9
  6
CONTINUOUS
 70
0
 71
3
 72
14
 73
10
 74
0
 42
0.0000001
 43
0.0000001
 44
0.0000000001
 40
0.0
 40
0.0
 40
0.0
 40
0.0
 40
0.2809991578
 40
0.417201479
 40
0.5484783264
 40
0.673459222
 40
0.7909395946
 40
0.9000297999
 40
1.0
 40
1.0
 40
1.0
 40
1.0
 10
14.8412069332
 20
0.9493359441
 30
0.0
 10
14.8428090629
 20
0.9492138017
 30
0.0
 10
14.8451810706
 20
0.9489009844
 30
0.0
 10
14.8482431732
 20
0.9482166717
 30
0.0
 10
14.8503998429
 20
0.9475901852
 30
0.0
 10
14.8524084264
 20
0.9468551494
 30
0.0
 10
14.854240196
 20
0.9460216124
 30
0.0
 10
14.8558679333
 20
0.9451017602
 30
0.0
 10
14.8568458327
 20
0.9444088674
 30
0.0
 10
14.8572899325
 20
0.9440489421
 30
0.0
  0
LINE
  5
39B
100
AcDbEntity
  8
0
100
AcDbLine
 62
9
  6
CONTINUOUS
 10
14.9092957094
 20
1.0722310991
 11
14.9095659496
 21
1.0630199994
  0
SPLINE
  5
39C
100
AcDbEntity
  8
0
100
AcDbSpline
 62
9
  6
CONTINUOUS
 70
0
 71
3
 72
9
 73
5
 74
0
 42
0.0000001
 43
0.0000001
 44
0.0000000001
 40
0.0
 40
0.0
 40
0.0
 40
0.0
 40
0.49495323
 40
1.0
 40
1.0
 40
1.0
 40
1.0
 10
15.6255123521
 20
1.072231121
 30
0.0
 10
15.6261085415
 20
1.0707941197
 30
0.0
 10
15.6270104153
 20
1.067758085
 30
0.0
 10
15.6273090449
 20
1.0646074942
 30
0.0
 10
15.6273088789
 20
1.0630199994
 30
0.0
  0
SPLINE
  5
39D
100
AcDbEntity
  8
0
100
AcDbSpline
 62
9
  6
CONTINUOUS
 70
0
 71
3
 72
13
 73
9
 74
0
 42
0.0000001
 43
0.0000001
 44
0.0000000001
 40
0.0
 40
0.0
 40
0.0
 40
0.0
 40
0.0862079968
 40
0.1865682374
 40
0.2997672546
 40
0.424358198
 40
0.7006366425
 40
1.0
 40
1.0
 40
1.0
 40
1.0
 10
15.720039816
 20
0.9493357694
 30
0.0
 10
15.719588257
 20
0.9492683793
 30
0.0
 10
15.7186172773
 20
0.9490804168
 30
0.0
 10
15.7170774684
 20
0.9486918435
 30
0.0
 10
15.7153612637
 20
0.9481784667
 30
0.0
 10
15.7127816828
 20
0.9473065663
 30
0.0
 10
15.7093242644
 20
0.9459600887
 30
0.0
 10
15.7065369561
 20
0.9447225738
 30
0.0
 10
15.7051018198
 20
0.9440487838
 30
0.0
  0
SPLINE
  5
39E
100
AcDbEntity
  8
0
100
AcDbSpline
 62
9
  6
CONTINUOUS
 70
0
 71
3
 72
15
 73
11
 74
0
 42
0.0000001
 43
0.0000001
 44
0.0000000001
 40
0.0
 40
0.0
 40
0.0
 40
0.0
 40
0.086432385
 40
0.1878452841
 40
0.3025993548
 40
0.4288144109
 40
0.5642101649
 40
0.7063107053
 40
0.8525680397
 40
1.0
 40
1.0
 40
1.0
 40
1.0
 10
15.7554995082
 20
0.87349493
 30
0.0
 10
15.754949267
 20
0.873475163
 30
0.0
 10
15.7537560357
 20
0.873359637
 30
0.0
 10
15.7518561507
 20
0.8730271744
 30
0.0
 10
15.7497326586
 20
0.8725245696
 30
0.0
 10
15.7474278914
 20
0.8718614379
 30
0.0
 10
15.744986699
 20
0.8710504581
 30
0.0
 10
15.7424570087
 20
0.8701067948
 30
0.0
 10
15.7398897617
 20
0.8690491698
 30
0.0
 10
15.7381835219
 20
0.8682808127
 30
0.0
 10
15.7373336038
 20
0.8678811924
 30
0.0
  0
SPLINE
  5
39F
100
AcDbEntity
  8
0
100
AcDbSpline
 62
9
  6
CONTINUOUS
 70
0
 71
3
 72
19
 73
15
 74
0
 42
0.0000001
 43
0.0000001
 44
0.0000000001
 40
0.0
 40
0.0
 40
0.0
 40
0.0
 40
0.0616782344
 40
0.1235470345
 40
0.1856115881
 40
0.2478634288
 40
0.3728572132
 40
0.498490217
 40
0.5615421644
 40
0.6247097993
 40
0.7511138511
 40
0.8768452901
 40
0.9389616023
 40
1.0
 40
1.0
 40
1.0
 40
1.0
 10
14.9534975436
 20
0.6284512192
 30
0.0
 10
14.9519057036
 20
0.6284512194
 30
0.0
 10
14.9487169146
 20
0.6284826971
 30
0.0
 10
14.9439291795
 20
0.6286635128
 30
0.0
 10
14.9391351908
 20
0.6290080446
 30
0.0
 10
14.9327384591
 20
0.6297156358
 30
0.0
 10
14.9247732237
 20
0.6311076952
 30
0.0
 10
14.9169480147
 20
0.6332336772
 30
0.0
 10
14.9108142287
 20
0.6353917801
 30
0.0
 10
14.9047770311
 20
0.6378600475
 30
0.0
 10
14.897487665
 20
0.6415115225
 30
0.0
 10
14.8906457695
 20
0.6458993499
 30
0.0
 10
14.885549105
 20
0.6498135716
 30
0.0
 10
14.8831437141
 20
0.6518948726
 30
0.0
 10
14.8819854165
 20
0.6529625807
 30
0.0
  0
SPLINE
  5
3A0
100
AcDbEntity
  8
0
100
AcDbSpline
 62
9
  6
CONTINUOUS
 70
0
 71
3
 72
15
 73
11
 74
0
 42
0.0000001
 43
0.0000001
 44
0.0000000001
 40
0.0
 40
0.0
 40
0.0
 40
0.0
 40
0.1303334797
 40
0.2588965806
 40
0.3856564772
 40
0.5108058556
 40
0.634547456
 40
0.757131447
 40
0.878881194
 40
1.0
 40
1.0
 40
1.0
 40
1.0
 10
14.8819854165
 20
0.6529625807
 30
0.0
 10
14.8799230758
 20
0.6548637199
 30
0.0
 10
14.8760091224
 20
0.6588444901
 30
0.0
 10
14.8708040207
 20
0.6653266426
 30
0.0
 10
14.8663485012
 20
0.6722140189
 30
0.0
 10
14.8626783154
 20
0.6794338002
 30
0.0
 10
14.8598172449
 20
0.6869147464
 30
0.0
 10
14.8577839045
 20
0.6945864531
 30
0.0
 10
14.8565885451
 20
0.7023744184
 30
0.0
 10
14.8563489858
 20
0.7076074006
 30
0.0
 10
14.8563685949
 20
0.7102139375
 30
0.0
  0
SPLINE
  5
3A1
100
AcDbEntity
  8
0
100
AcDbSpline
 62
9
  6
CONTINUOUS
 70
0
 71
3
 72
25
 73
21
 74
0
 42
0.0000001
 43
0.0000001
 44
0.0000000001
 40
0.0
 40
0.0
 40
0.0
 40
0.0
 40
0.2035339541
 40
0.3918576535
 40
0.4788581788
 40
0.5603802479
 40
0.635923074
 40
0.7050491776
 40
0.7673582533
 40
0.8225193553
 40
0.8702546607
 40
0.9103909706
 40
0.9275877283
 40
0.9428816749
 40
0.9563061864
 40
0.9679216882
 40
0.9778361565
 40
0.9862416872
 40
0.9934606115
 40
1.0
 40
1.0
 40
1.0
 40
1.0
 10
15.7814095758
 20
0.6775462264
 30
0.0
 10
15.7815358189
 20
0.6741184966
 30
0.0
 10
15.7818438765
 20
0.6675213659
 30
0.0
 10
15.7824034221
 20
0.6594698956
 30
0.0
 10
15.7829474681
 20
0.6534806043
 30
0.0
 10
15.7833836176
 20
0.6493904884
 30
0.0
 10
15.7838560011
 20
0.6456077531
 30
0.0
 10
15.7843612168
 20
0.6421561208
 30
0.0
 10
15.7848961107
 20
0.639056934
 30
0.0
 10
15.7854565089
 20
0.6363291273
 30
0.0
 10
15.7860389784
 20
0.6339893626
 30
0.0
 10
15.7865616464
 20
0.6322958659
 30
0.0
 10
15.7869978023
 20
0.6311518078
 30
0.0
 10
15.7873111795
 20
0.6304438353
 30
0.0
 10
15.7876273602
 20
0.6298413987
 30
0.0
 10
15.7879462024
 20
0.6293448967
 30
0.0
 10
15.788268103
 20
0.6289544125
 30
0.0
 10
15.7885945365
 20
0.6286698188
 30
0.0
 10
15.7889283123
 20
0.6284928227
 30
0.0
 10
15.789161514
 20
0.6284512192
 30
0.0
 10
15.789271719
 20
0.6284512192
 30
0.0
  0
SPLINE
  5
3A2
100
AcDbEntity
  8
0
100
AcDbSpline
 62
9
  6
CONTINUOUS
 70
0
 71
3
 72
14
 73
10
 74
0
 42
0.0000001
 43
0.0000001
 44
0.0000000001
 40
0.0
 40
0.0
 40
0.0
 40
0.0
 40
0.2748554651
 40
0.4075709799
 40
0.536258023
 40
0.660356735
 40
0.779335137
 40
0.8927121429
 40
1.0
 40
1.0
 40
1.0
 40
1.0
 10
15.8193863812
 20
0.6856599633
 30
0.0
 10
15.8208930123
 20
0.6827115143
 30
0.0
 10
15.8229668899
 20
0.6782533222
 30
0.0
 10
15.8253083717
 20
0.672230745
 30
0.0
 10
15.8267898773
 20
0.6678273927
 30
0.0
 10
15.8280020853
 20
0.6635139156
 30
0.0
 10
15.8289301345
 20
0.6593186345
 30
0.0
 10
15.8295585861
 20
0.6552727283
 30
0.0
 10
15.829775594
 20
0.6526200356
 30
0.0
 10
15.8298249169
 20
0.6513285186
 30
0.0
  0
SPLINE
  5
3A3
100
AcDbEntity
  8
0
100
AcDbSpline
 62
9
  6
CONTINUOUS
 70
0
 71
3
 72
19
 73
15
 74
0
 42
0.0000001
 43
0.0000001
 44
0.0000000001
 40
0.0
 40
0.0
 40
0.0
 40
0.0
 40
0.0669256909
 40
0.1320285581
 40
0.1956555344
 40
0.2582433506
 40
0.320117755
 40
0.381523432
 40
0.4426027016
 40
0.5035487944
 40
0.6253452425
 40
0.7480448746
 40
0.8726173075
 40
1.0
 40
1.0
 40
1.0
 40
1.0
 10
15.8298249169
 20
0.6513285186
 30
0.0
 10
15.8298606336
 20
0.6503876124
 30
0.0
 10
15.8297848771
 20
0.6485226062
 30
0.0
 10
15.8292515061
 20
0.6458119651
 30
0.0
 10
15.8283453687
 20
0.6432674243
 30
0.0
 10
15.8271169964
 20
0.6409145838
 30
0.0
 10
15.8256124952
 20
0.6387674045
 30
0.0
 10
15.823876997
 20
0.6368321392
 30
0.0
 10
15.8219478659
 20
0.635110306
 30
0.0
 10
15.8191623496
 20
0.6330996636
 30
0.0
 10
15.8153297237
 20
0.6310995568
 30
0.0
 10
15.8103696827
 20
0.6294957714
 30
0.0
 10
15.8051570493
 20
0.6286148616
 30
0.0
 10
15.8016082964
 20
0.62845122
 30
0.0
 10
15.7998161373
 20
0.6284512192
 30
0.0
  0
SPLINE
  5
3A4
100
AcDbEntity
  8
0
100
AcDbSpline
 62
9
  6
CONTINUOUS
 70
0
 71
3
 72
17
 73
13
 74
0
 42
0.0000001
 43
0.0000001
 44
0.0000000001
 40
0.0
 40
0.0
 40
0.0
 40
0.0
 40
0.1776927912
 40
0.3439107773
 40
0.4959761661
 40
0.6319688628
 40
0.7504160949
 40
0.802799088
 40
0.8506101274
 40
0.8939510195
 40
0.9330418991
 40
1.0
 40
1.0
 40
1.0
 40
1.0
 10
14.8703078014
 20
0.6470755458
 30
0.0
 10
14.8709118408
 20
0.6475939767
 30
0.0
 10
14.8721024646
 20
0.6485726913
 30
0.0
 10
14.8738860148
 20
0.6498992152
 30
0.0
 10
14.8755863032
 20
0.6510199219
 30
0.0
 10
14.8771736118
 20
0.6519156028
 30
0.0
 10
14.8784274456
 20
0.6524855691
 30
0.0
 10
14.8793537278
 20
0.6528061143
 30
0.0
 10
14.8799754866
 20
0.6529721392
 30
0.0
 10
14.8805514613
 20
0.6530730694
 30
0.0
 10
14.8812190911
 20
0.6531176332
 30
0.0
 10
14.8817015971
 20
0.6530594851
 30
0.0
 10
14.8819854535
 20
0.6529625464
 30
0.0
  0
SPLINE
  5
3A5
100
AcDbEntity
  8
0
100
AcDbSpline
 62
9
  6
CONTINUOUS
 70
0
 71
3
 72
24
 73
20
 74
0
 42
0.0000001
 43
0.0000001
 44
0.0000000001
 40
0.0
 40
0.0
 40
0.0
 40
0.0
 40
0.1907918153
 40
0.3740241226
 40
0.4606329827
 40
0.5428612302
 40
0.6199529801
 40
0.6911936506
 40
0.7559675131
 40
0.8137029423
 40
0.8639480187
 40
0.90633371
 40
0.9406649335
 40
0.9548269761
 40
0.9670319832
 40
0.9773814277
 40
0.9860664503
 40
0.9934213424
 40
1.0
 40
1.0
 40
1.0
 40
1.0
 10
14.9561951062
 20
0.6087487439
 30
0.0
 10
14.9561925244
 20
0.6100351995
 30
0.0
 10
14.9561548675
 20
0.6125571883
 30
0.0
 10
14.9560251037
 20
0.6156608599
 30
0.0
 10
14.9558706721
 20
0.6180298352
 30
0.0
 10
14.9557348842
 20
0.6196825871
 30
0.0
 10
14.9555784519
 20
0.621229412
 30
0.0
 10
14.9554027012
 20
0.6226556726
 30
0.0
 10
14.9552096838
 20
0.6239479224
 30
0.0
 10
14.9550010985
 20
0.6250941555
 30
0.0
 10
14.9547795245
 20
0.626083954
 30
0.0
 10
14.9545471231
 20
0.6269082974
 30
0.0
 10
14.9543355158
 20
0.62748472
 30
0.0
 10
14.9541566815
 20
0.6278532573
 30
0.0
 10
14.9540296523
 20
0.6280662209
 30
0.0
 10
14.9539010815
 20
0.6282338767
 30
0.0
 10
14.9537704463
 20
0.628356316
 30
0.0
 10
14.9536364225
 20
0.6284329604
 30
0.0
 10
14.9535419013
 20
0.6284512192
 30
0.0
 10
14.9534975432
 20
0.6284512192
 30
0.0
  0
SPLINE
  5
3A6
100
AcDbEntity
  8
0
100
AcDbSpline
 62
9
  6
CONTINUOUS
 70
0
 71
3
 72
12
 73
8
 74
0
 42
0.0000001
 43
0.0000001
 44
0.0000000001
 40
0.0
 40
0.0
 40
0.0
 40
0.0
 40
0.2306317125
 40
0.3530860856
 40
0.4792409663
 40
0.7384769403
 40
1.0
 40
1.0
 40
1.0
 40
1.0
 10
15.8485621897
 20
0.6470755466
 30
0.0
 10
15.8473587579
 20
0.6479902062
 30
0.0
 10
15.8453285429
 20
0.6491547428
 30
0.0
 10
15.8423946878
 20
0.6502835948
 30
0.0
 10
15.8391810309
 20
0.6511701499
 30
0.0
 10
15.834952998
 20
0.6517193933
 30
0.0
 10
15.8315230746
 20
0.6515611776
 30
0.0
 10
15.8298249107
 20
0.6513284602
 30
0.0
  0
SPLINE
  5
3A7
100
AcDbEntity
  8
0
100
AcDbSpline
 62
9
  6
CONTINUOUS
 70
0
 71
3
 72
14
 73
10
 74
0
 42
0.0000001
 43
0.0000001
 44
0.0000000001
 40
0.0
 40
0.0
 40
0.0
 40
0.0
 40
0.0862432579
 40
0.1874827508
 40
0.3021005091
 40
0.4282356704
 40
0.5636273912
 40
0.7058184486
 40
1.0
 40
1.0
 40
1.0
 40
1.0
 10
15.8374582485
 20
0.6912158815
 30
0.0
 10
15.8369122652
 20
0.691197608
 30
0.0
 10
15.8357278
 20
0.6910854635
 30
0.0
 10
15.8338411666
 20
0.6907587816
 30
0.0
 10
15.8317312722
 20
0.6902629206
 30
0.0
 10
15.8294399059
 20
0.6896072805
 30
0.0
 10
15.8270112592
 20
0.6888043492
 30
0.0
 10
15.8236157644
 20
0.6875429344
 30
0.0
 10
15.8210740154
 20
0.6864500622
 30
0.0
 10
15.8193863804
 20
0.6856599651
 30
0.0
  0
LINE
  5
3A8
100
AcDbEntity
  8
0
100
AcDbLine
 62
9
  6
CONTINUOUS
 10
15.6940953721
 20
0.6823975469
 11
15.6268966911
 21
0.831391933
  0
SPLINE
  5
3A9
100
AcDbEntity
  8
0
100
AcDbSpline
 62
9
  6
CONTINUOUS
 70
0
 71
3
 72
19
 73
15
 74
0
 42
0.0000001
 43
0.0000001
 44
0.0000000001
 40
0.0
 40
0.0
 40
0.0
 40
0.0
 40
0.1203840003
 40
0.1811379585
 40
0.2422633164
 40
0.3655951522
 40
0.4904114428
 40
0.5533626523
 40
0.6166206963
 40
0.7438399721
 40
0.8077575675
 40
0.8718069855
 40
0.9359239342
 40
1.0
 40
1.0
 40
1.0
 40
1.0
 10
15.789271719
 20
0.6284512192
 30
0.0
 10
15.7847124715
 20
0.6284513
 30
0.0
 10
15.7778405778
 20
0.6289506223
 30
0.0
 10
15.7688018376
 20
0.6305534967
 30
0.0
 10
15.7597804309
 20
0.632784797
 30
0.0
 10
15.7487089062
 20
0.6367108232
 30
0.0
 10
15.7381510728
 20
0.6420082096
 30
0.0
 10
15.7300587501
 20
0.6470067148
 30
0.0
 10
15.7221936213
 20
0.6525151941
 30
0.0
 10
15.7147796038
 20
0.6587049025
 30
0.0
 10
15.7078886384
 20
0.6654861168
 30
0.0
 10
15.7029856129
 20
0.6708654946
 30
0.0
 10
15.6983722844
 20
0.6765020123
 30
0.0
 10
15.6954885225
 20
0.6804106288
 30
0.0
 10
15.6940952739
 20
0.6823975469
 30
0.0
  0
SPLINE
  5
3AA
100
AcDbEntity
  8
0
100
AcDbSpline
 62
9
  6
CONTINUOUS
 70
0
 71
3
 72
27
 73
23
 74
0
 42
0.0000001
 43
0.0000001
 44
0.0000000001
 40
0.0
 40
0.0
 40
0.0
 40
0.0
 40
0.2051210275
 40
0.3010518414
 40
0.391948361
 40
0.4774413783
 40
0.5571802616
 40
0.6308354088
 40
0.6981083048
 40
0.7587652295
 40
0.8126136205
 40
0.8595489643
 40
0.8804198641
 40
0.8995688987
 40
0.9170245438
 40
0.9328316716
 40
0.9470573826
 40
0.959801433
 40
0.9712130121
 40
0.9815064739
 40
0.9909759148
 40
1.0
 40
1.0
 40
1.0
 40
1.0
 10
14.9584746368
 20
0.6823975469
 30
0.0
 10
14.9587895452
 20
0.6785093112
 30
0.0
 10
14.9593188176
 20
0.6728075653
 30
0.0
 10
14.9601670764
 20
0.6654017443
 30
0.0
 10
14.9608380853
 20
0.6602661796
 30
0.0
 10
14.9615577815
 20
0.655448303
 30
0.0
 10
14.9623244412
 20
0.6509699359
 30
0.0
 10
14.9631342842
 20
0.6468516854
 30
0.0
 10
14.9639840584
 20
0.6431126824
 30
0.0
 10
14.9648687717
 20
0.6397698125
 30
0.0
 10
14.9657843552
 20
0.6368381128
 30
0.0
 10
14.9665973769
 20
0.6346699786
 30
0.0
 10
14.9672686909
 20
0.6331581604
 30
0.0
 10
14.9677574888
 20
0.6321799773
 30
0.0
 10
14.9682508893
 20
0.6313132325
 30
0.0
 10
14.968748539
 20
0.6305586456
 30
0.0
 10
14.969250171
 20
0.6299168218
 30
0.0
 10
14.9697559202
 20
0.6293884049
 30
0.0
 10
14.970266056
 20
0.6289740055
 30
0.0
 10
14.9707812179
 20
0.6286746021
 30
0.0
 10
14.9713013974
 20
0.6284924995
 30
0.0
 10
14.9716542723
 20
0.6284512188
 30
0.0
 10
14.9718258913
 20
0.6284512192
 30
0.0
  0
SPLINE
  5
3AB
100
AcDbEntity
  8
0
100
AcDbSpline
 62
9
  6
CONTINUOUS
 70
0
 71
3
 72
14
 73
10
 74
0
 42
0.0000001
 43
0.0000001
 44
0.0000000001
 40
0.0
 40
0.0
 40
0.0
 40
0.0
 40
0.3304624716
 40
0.4725368761
 40
0.5999221916
 40
0.7138318617
 40
0.8163403707
 40
0.9104332762
 40
1.0
 40
1.0
 40
1.0
 40
1.0
 10
15.8821457651
 20
0.7157772014
 30
0.0
 10
15.8824539391
 20
0.7157654186
 30
0.0
 10
15.8828951856
 20
0.7157268203
 30
0.0
 10
15.8834429084
 20
0.7156075719
 30
0.0
 10
15.8837836832
 20
0.7154960595
 30
0.0
 10
15.8840743695
 20
0.7153577237
 30
0.0
 10
15.8843141061
 20
0.7151922149
 30
0.0
 10
15.8845015617
 20
0.7149993321
 30
0.0
 10
15.8845911326
 20
0.7148510182
 30
0.0
 10
15.8846254254
 20
0.7147747899
 30
0.0
  0
SPLINE
  5
3AC
100
AcDbEntity
  8
0
100
AcDbSpline
 62
9
  6
CONTINUOUS
 70
0
 71
3
 72
14
 73
10
 74
0
 42
0.0000001
 43
0.0000001
 44
0.0000000001
 40
0.0
 40
0.0
 40
0.0
 40
0.0
 40
0.3299893452
 40
0.471938478
 40
0.599285671
 40
0.7132470391
 40
0.8158897106
 40
0.9101870876
 40
1.0
 40
1.0
 40
1.0
 40
1.0
 10
15.8111796578
 20
0.8734949299
 30
0.0
 10
15.8114844385
 20
0.8734824264
 30
0.0
 10
15.8119208402
 20
0.8734429538
 30
0.0
 10
15.8124624191
 20
0.8733232506
 30
0.0
 10
15.8127995066
 20
0.8732117424
 30
0.0
 10
15.813087128
 20
0.8730737612
 30
0.0
 10
15.8133244183
 20
0.8729089507
 30
0.0
 10
15.8135100708
 20
0.8727171403
 30
0.0
 10
15.8135988955
 20
0.8725698309
 30
0.0
 10
15.8136329662
 20
0.8724941224
 30
0.0
  0
SPLINE
  5
3AD
100
AcDbEntity
  8
0
100
AcDbSpline
 62
9
  6
CONTINUOUS
 70
0
 71
3
 72
13
 73
9
 74
0
 42
0.0000001
 43
0.0000001
 44
0.0000000001
 40
0.0
 40
0.0
 40
0.0
 40
0.0
 40
0.3129531703
 40
0.4508346131
 40
0.5771652222
 40
0.8001816227
 40
0.9016876001
 40
1.0
 40
1.0
 40
1.0
 40
1.0
 10
15.778185542
 20
0.9493359441
 30
0.0
 10
15.7785107102
 20
0.9492852653
 30
0.0
 10
15.7789765825
 20
0.9491854709
 30
0.0
 10
15.7795485321
 20
0.9489792787
 30
0.0
 10
15.7800101442
 20
0.9487562384
 30
0.0
 10
15.7803999621
 20
0.9484720666
 30
0.0
 10
15.7806808368
 20
0.9481245999
 30
0.0
 10
15.7807809527
 20
0.9479381345
 30
0.0
 10
15.7808208515
 20
0.9478427611
 30
0.0
  0
SPLINE
  5
3AE
100
AcDbEntity
  8
0
100
AcDbSpline
 62
9
  6
CONTINUOUS
 70
0
 71
3
 72
9
 73
5
 74
0
 42
0.0000001
 43
0.0000001
 44
0.0000000001
 40
0.0
 40
0.0
 40
0.0
 40
0.0
 40
0.4978765239
 40
1.0
 40
1.0
 40
1.0
 40
1.0
 10
15.7517471618
 20
1.0722307338
 30
0.0
 10
15.7524260726
 20
1.0708080849
 30
0.0
 10
15.7534656934
 20
1.0677856501
 30
0.0
 10
15.7538142123
 20
1.0646097864
 30
0.0
 10
15.7538142706
 20
1.0630199994
 30
0.0
  0
SPLINE
  5
3AF
100
AcDbEntity
  8
0
100
AcDbSpline
 62
9
  6
CONTINUOUS
 70
0
 71
3
 72
36
 73
32
 74
0
 42
0.0000001
 43
0.0000001
 44
0.0000000001
 40
0.0
 40
0.0
 40
0.0
 40
0.0
 40
0.0677394154
 40
0.1349528954
 40
0.1683051359
 40
0.201437401
 40
0.2343102523
 40
0.266880479
 40
0.2991087148
 40
0.3309423751
 40
0.3623536357
 40
0.37790948
 40
0.3933422866
 40
0.4086705114
 40
0.4239337729
 40
0.4391399643
 40
0.4543135391
 40
0.4694807548
 40
0.4846396727
 40
0.4997935975
 40
0.5149464497
 40
0.5452538323
 40
0.5755625276
 40
0.605871748
 40
0.6361825833
 40
0.6968084956
 40
0.7574393373
 40
0.8180744766
 40
0.8787132659
 40
0.9393552367
 40
1.0
 40
1.0
 40
1.0
 40
1.0
 10
14.6568309873
 20
1.0722307338
 30
0.0
 10
14.6605215856
 20
1.0722297362
 30
0.0
 10
14.6678805327
 20
1.0718610001
 30
0.0
 10
14.6769499912
 20
1.0703464887
 30
0.0
 10
14.6839850954
 20
1.0684382772
 30
0.0
 10
14.6891000011
 20
1.0666505326
 30
0.0
 10
14.6940216818
 20
1.0644861107
 30
0.0
 10
14.6986970271
 20
1.0619297772
 30
0.0
 10
14.7030614109
 20
1.0589689355
 30
0.0
 10
14.7070326184
 20
1.0555923236
 30
0.0
 10
14.7099397324
 20
1.052412744
 30
0.0
 10
14.7119408213
 20
1.0496605392
 30
0.0
 10
14.7132495691
 20
1.0474987177
 30
0.0
 10
14.7143376377
 20
1.0452355255
 30
0.0
 10
14.7152211237
 20
1.0428990895
 30
0.0
 10
14.7159220912
 20
1.0405111307
 30
0.0
 10
14.7164767774
 20
1.0380913975
 30
0.0
 10
14.7169377057
 20
1.0356554182
 30
0.0
 10
14.7173519463
 20
1.0332123275
 30
0.0
 10
14.7177260854
 20
1.0307635763
 30
0.0
 10
14.7181842253
 20
1.0274930515
 30
0.0
 10
14.7186973953
 20
1.023396808
 30
0.0
 10
14.7192522899
 20
1.0184740974
 30
0.0
 10
14.7197647011
 20
1.0135466126
 30
0.0
 10
14.7204042889
 20
1.0069718564
 30
0.0
 10
14.7211410694
 20
0.9987469337
 30
0.0
 10
14.7219615467
 20
0.9888710336
 30
0.0
 10
14.7227380111
 20
0.9789908844
 30
0.0
 10
14.7234836974
 20
0.9691077708
 30
0.0
 10
14.7242076991
 20
0.9592225242
 30
0.0
 10
14.7246804989
 20
0.9526314797
 30
0.0
 10
14.7249153227
 20
0.9493357693
 30
0.0
  0
SPLINE
  5
3B0
100
AcDbEntity
  8
0
100
AcDbSpline
 62
9
  6
CONTINUOUS
 70
0
 71
3
 72
11
 73
7
 74
0
 42
0.0000001
 43
0.0000001
 44
0.0000000001
 40
0.0
 40
0.0
 40
0.0
 40
0.0
 40
0.2802061151
 40
0.5361108764
 40
0.7731717517
 40
1.0
 40
1.0
 40
1.0
 40
1.0
 10
15.9272691803
 20
0.6470755457
 30
0.0
 10
15.9272968279
 20
0.6475150054
 30
0.0
 10
15.9272922102
 20
0.6483614319
 30
0.0
 10
15.927075631
 20
0.6495643099
 30
0.0
 10
15.9266462336
 20
0.6506205006
 30
0.0
 10
15.92621542
 20
0.6512191324
 30
0.0
 10
15.9259727613
 20
0.6514802302
 30
0.0
  0
SPLINE
  5
3B1
100
AcDbEntity
  8
0
100
AcDbSpline
 62
9
  6
CONTINUOUS
 70
0
 71
3
 72
17
 73
13
 74
0
 42
0.0000001
 43
0.0000001
 44
0.0000000001
 40
0.0
 40
0.0
 40
0.0
 40
0.0
 40
0.1296642816
 40
0.1943577451
 40
0.2587595323
 40
0.3863798929
 40
0.512298844
 40
0.5746313097
 40
0.6365024439
 40
0.7588043469
 40
0.8797829546
 40
1.0
 40
1.0
 40
1.0
 40
1.0
 10
15.9710042229
 20
0.6087487439
 30
0.0
 10
15.9709864252
 20
0.6100412116
 30
0.0
 10
15.970784631
 20
0.6119820675
 30
0.0
 10
15.9701727051
 20
0.614490586
 30
0.0
 10
15.9693416204
 20
0.6169144053
 30
0.0
 10
15.9679039087
 20
0.6197606118
 30
0.0
 10
15.9659702208
 20
0.6222717775
 30
0.0
 10
15.9641753729
 20
0.6240077521
 30
0.0
 10
15.9622469285
 20
0.6255361668
 30
0.0
 10
15.959588789
 20
0.6270617471
 30
0.0
 10
15.9561206599
 20
0.6281931621
 30
0.0
 10
15.9537088898
 20
0.6284501306
 30
0.0
 10
15.9525104772
 20
0.6284512123
 30
0.0
  0
SPLINE
  5
3B2
100
AcDbEntity
  8
0
100
AcDbSpline
 62
9
  6
CONTINUOUS
 70
0
 71
3
 72
33
 73
29
 74
0
 42
0.0000001
 43
0.0000001
 44
0.0000000001
 40
0.0
 40
0.0
 40
0.0
 40
0.0
 40
0.1353804422
 40
0.2030978394
 40
0.2708439748
 40
0.3386306562
 40
0.4064759555
 40
0.4404291555
 40
0.4744094205
 40
0.5084260128
 40
0.5424901342
 40
0.5766177717
 40
0.5937197032
 40
0.6108575772
 40
0.6280267836
 40
0.6452212326
 40
0.6624134714
 40
0.6795075149
 40
0.696409678
 40
0.713065839
 40
0.7294312119
 40
0.7454752182
 40
0.7765468502
 40
0.8062283986
 40
0.8614244052
 40
0.9115602893
 40
0.9574355447
 40
1.0
 40
1.0
 40
1.0
 40
1.0
 10
13.8460825128
 20
0.9493359441
 30
0.0
 10
13.8493049037
 20
0.9559287441
 30
0.0
 10
13.8541437203
 20
0.9658170325
 30
0.0
 10
13.8606169064
 20
0.978993733
 30
0.0
 10
13.8654889957
 20
0.9888748796
 30
0.0
 10
13.8703844524
 20
0.9987522116
 30
0.0
 10
13.8744907484
 20
1.0069762951
 30
0.0
 10
13.8778011969
 20
1.0135495141
 30
0.0
 10
13.880301599
 20
1.0184775968
 30
0.0
 10
13.8828239992
 20
1.0234012275
 30
0.0
 10
13.8853774676
 20
1.0283178255
 30
0.0
 10
13.887542511
 20
1.032402958
 30
0.0
 10
13.8893140246
 20
1.0356579418
 30
0.0
 10
13.8906671767
 20
1.0380939862
 30
0.0
 10
13.8920614553
 20
1.04051268
 30
0.0
 10
13.893520897
 20
1.0428963924
 30
0.0
 10
13.8950607753
 20
1.0452242564
 30
0.0
 10
13.8966790874
 20
1.0474790216
 30
0.0
 10
13.8983761411
 20
1.0496384077
 30
0.0
 10
13.9001359598
 20
1.0516950243
 30
0.0
 10
13.9019420083
 20
1.0536482064
 30
0.0
 10
13.9043701441
 20
1.0560871013
 30
0.0
 10
13.9074646682
 20
1.0588775608
 30
0.0
 10
13.9124223936
 20
1.0627466752
 30
0.0
 10
13.9186514152
 20
1.0666401142
 30
0.0
 10
13.9261952364
 20
1.0699238721
 30
0.0
 10
13.9334976515
 20
1.0718139921
 30
0.0
 10
13.9382999033
 20
1.0722296653
 30
0.0
 10
13.9406070711
 20
1.0722307338
 30
0.0
  0
SPLINE
  5
3B3
100
AcDbEntity
  8
0
100
AcDbSpline
 62
9
  6
CONTINUOUS
 70
0
 71
3
 72
12
 73
8
 74
0
 42
0.0000001
 43
0.0000001
 44
0.0000000001
 40
0.0
 40
0.0
 40
0.0
 40
0.0
 40
0.2506951538
 40
0.501143928
 40
0.7511076618
 40
0.8757566326
 40
1.0
 40
1.0
 40
1.0
 40
1.0
 10
15.778185542
 20
0.9493359441
 30
0.0
 10
15.775647101
 20
0.9554157074
 30
0.0
 10
15.7705760466
 20
0.9675706538
 30
0.0
 10
15.7630001369
 20
0.9857985276
 30
0.0
 10
15.7567347708
 20
1.0009838044
 30
0.0
 10
15.7517847521
 20
1.0131236496
 30
0.0
 10
15.749342177
 20
1.0191915666
 30
0.0
 10
15.7481345564
 20
1.0222252286
 30
0.0
  0
SPLINE
  5
3B4
100
AcDbEntity
  8
0
100
AcDbSpline
 62
9
  6
CONTINUOUS
 70
0
 71
3
 72
28
 73
24
 74
0
 42
0.0000001
 43
0.0000001
 44
0.0000000001
 40
0.0
 40
0.0
 40
0.0
 40
0.0
 40
0.0976871047
 40
0.146299164
 40
0.1946900838
 40
0.24279805
 40
0.2904019816
 40
0.3370334446
 40
0.3822272846
 40
0.4255193142
 40
0.466500789
 40
0.5051099376
 40
0.5414573766
 40
0.6077857009
 40
0.6664594575
 40
0.7185119245
 40
0.7650832311
 40
0.8074170507
 40
0.8468369798
 40
0.8846618636
 40
0.9221417811
 40
0.9603276723
 40
1.0
 40
1.0
 40
1.0
 40
1.0
 10
15.7472793445
 20
1.0243799099
 30
0.0
 10
15.7466000314
 20
1.0260968919
 30
0.0
 10
15.7455899549
 20
1.0286711991
 30
0.0
 10
15.7442680206
 20
1.0321056178
 30
0.0
 10
15.7432987638
 20
1.0346715661
 30
0.0
 10
15.7423556871
 20
1.0372269604
 30
0.0
 10
15.7414540707
 20
1.0397620894
 30
0.0
 10
15.7406284157
 20
1.0422653204
 30
0.0
 10
15.7399141758
 20
1.044718052
 30
0.0
 10
15.739328477
 20
1.0470950539
 30
0.0
 10
15.7388902211
 20
1.0493772264
 30
0.0
 10
15.7385967509
 20
1.0515501524
 30
0.0
 10
15.7383836955
 20
1.05421315
 30
0.0
 10
15.7383862045
 20
1.0572702675
 30
0.0
 10
15.7387972862
 20
1.0606007728
 30
0.0
 10
15.7395633933
 20
1.0634844785
 30
0.0
 10
15.7406417578
 20
1.0659339514
 30
0.0
 10
15.7419955968
 20
1.0679627347
 30
0.0
 10
15.7435920518
 20
1.0695828215
 30
0.0
 10
15.7453984904
 20
1.0708076665
 30
0.0
 10
15.7473848827
 20
1.0716508631
 30
0.0
 10
15.7495211497
 20
1.0721333597
 30
0.0
 10
15.7509955717
 20
1.0722302026
 30
0.0
 10
15.7517454578
 20
1.0722307338
 30
0.0
  0
SPLINE
  5
3B5
100
AcDbEntity
  8
0
100
AcDbSpline
 62
9
  6
CONTINUOUS
 70
0
 71
3
 72
15
 73
11
 74
0
 42
0.0000001
 43
0.0000001
 44
0.0000000001
 40
0.0
 40
0.0
 40
0.0
 40
0.0
 40
0.1379433845
 40
0.2739860326
 40
0.4064952483
 40
0.5343617436
 40
0.6570305379
 40
0.7747103308
 40
0.8884636456
 40
1.0
 40
1.0
 40
1.0
 40
1.0
 10
15.8159087132
 20
0.6087487439
 30
0.0
 10
15.8158932508
 20
0.6100402318
 30
0.0
 10
15.8156621975
 20
0.6126076362
 30
0.0
 10
15.814724883
 20
0.6163126959
 30
0.0
 10
15.8132295323
 20
0.6197295072
 30
0.0
 10
15.8112296135
 20
0.6227305446
 30
0.0
 10
15.8087940882
 20
0.6252025296
 30
0.0
 10
15.8060089882
 20
0.6270493114
 30
0.0
 10
15.8029783407
 20
0.6281920201
 30
0.0
 10
15.8008604671
 20
0.6284512192
 30
0.0
 10
15.7998161388
 20
0.6284512192
 30
0.0
  0
LINE
  5
3B6
100
AcDbEntity
  8
0
100
AcDbLine
 62
9
  6
CONTINUOUS
 10
15.7791099189
 20
0.9471254003
 11
15.778185542
 21
0.9493359441
  0
LINE
  5
3B7
100
AcDbEntity
  8
0
100
AcDbLine
 62
9
  6
CONTINUOUS
 10
15.8821457651
 20
0.7157772014
 11
15.8119673059
 21
0.8717445994
  0
LINE
  5
3B8
100
AcDbEntity
  8
0
100
AcDbLine
 62
9
  6
CONTINUOUS
 10
15.8119673059
 20
0.8717445994
 11
15.8111796578
 21
0.8734949299
  0
SPLINE
  5
3B9
100
AcDbEntity
  8
0
100
AcDbSpline
 62
9
  6
CONTINUOUS
 70
0
 71
3
 72
14
 73
10
 74
0
 42
0.0000001
 43
0.0000001
 44
0.0000000001
 40
0.0
 40
0.0
 40
0.0
 40
0.0
 40
0.117640307
 40
0.2391762803
 40
0.3637137633
 40
0.490354334
 40
0.6181826807
 40
0.7463028123
 40
1.0
 40
1.0
 40
1.0
 40
1.0
 10
15.9245092246
 20
0.6500851461
 30
0.0
 10
15.9225040279
 20
0.652316266
 30
0.0
 10
15.9185248533
 20
0.6569409735
 30
0.0
 10
15.9127599778
 20
0.6642090388
 30
0.0
 10
15.9071412554
 20
0.671877212
 30
0.0
 10
15.9017206196
 20
0.6798809869
 30
0.0
 10
15.8965465933
 20
0.6881546011
 30
0.0
 10
15.8900584544
 20
0.6994169593
 30
0.0
 10
15.8856568324
 20
0.7081144837
 30
0.0
 10
15.8829567589
 20
0.7139932564
 30
0.0
  0
SPLINE
  5
3BA
100
AcDbEntity
  8
0
100
AcDbSpline
 62
9
  6
CONTINUOUS
 70
0
 71
3
 72
50
 73
46
 74
0
 42
0.0000001
 43
0.0000001
 44
0.0000000001
 40
0.0
 40
0.0
 40
0.0
 40
0.0
 40
0.0039484418
 40
0.0083221901
 40
0.0131739705
 40
0.0185405701
 40
0.0244340785
 40
0.0308549882
 40
0.0377987284
 40
0.0452588325
 40
0.0532263282
 40
0.0616935324
 40
0.0801069111
 40
0.1004420865
 40
0.1225952868
 40
0.1464572127
 40
0.1719239351
 40
0.1989100507
 40
0.2273325091
 40
0.2570992926
 40
0.2881367081
 40
0.3203982105
 40
0.3538239749
 40
0.4238612982
 40
0.4603188238
 40
0.4976941097
 40
0.535973915
 40
0.5554149133
 40
0.5750293693
 40
0.6147515158
 40
0.6348733841
 40
0.6551791962
 40
0.6963251135
 40
0.7381370973
 40
0.7805497872
 40
0.8019622484
 40
0.8235048713
 40
0.8451744862
 40
0.8669676817
 40
0.8888819325
 40
0.9109158625
 40
0.9330590797
 40
0.9552969139
 40
0.9776147949
 40
1.0
 40
1.0
 40
1.0
 40
1.0
 10
7.1174871319
 20
11.3285249325
 30
0.0
 10
7.1169971396
 20
11.3285995601
 30
0.0
 10
7.1159751242
 20
11.3288318606
 30
0.0
 10
7.1144135054
 20
11.329384688
 30
0.0
 10
7.1127529195
 20
11.3301638277
 30
0.0
 10
7.1109966755
 20
11.3311703779
 30
0.0
 10
7.1091442838
 20
11.3323950996
 30
0.0
 10
7.107197793
 20
11.3338301368
 30
0.0
 10
7.1051595979
 20
11.3354679918
 30
0.0
 10
7.1030330537
 20
11.3373028573
 30
0.0
 10
7.1008205334
 20
11.3393286699
 30
0.0
 10
7.0976710162
 20
11.3423650701
 30
0.0
 10
7.0935528733
 20
11.3466304626
 30
0.0
 10
7.0884565571
 20
11.3523307914
 30
0.0
 10
7.0831002884
 20
11.3587104062
 30
0.0
 10
7.0775135326
 20
11.3657331706
 30
0.0
 10
7.0717236656
 20
11.3733661891
 30
0.0
 10
7.0657648437
 20
11.3815865633
 30
0.0
 10
7.059669967
 20
11.3903720937
 30
0.0
 10
7.0534648776
 20
11.3996975095
 30
0.0
 10
7.0471815173
 20
11.4095471778
 30
0.0
 10
7.0408630333
 20
11.4199164017
 30
0.0
 10
7.0323054196
 20
11.4346498174
 30
0.0
 10
7.0239849593
 20
11.4501251483
 30
0.0
 10
7.0159223198
 20
11.4662864555
 30
0.0
 10
7.0099477059
 20
11.4790306086
 30
0.0
 10
7.0051862079
 20
11.4899788289
 30
0.0
 10
7.0014781635
 20
11.498950732
 30
0.0
 10
6.9978051997
 20
11.508132303
 30
0.0
 10
6.994260508
 20
11.5174569332
 30
0.0
 10
6.9908911452
 20
11.5269374769
 30
0.0
 10
6.9876166361
 20
11.5366400117
 30
0.0
 10
6.983779638
 20
11.5490245872
 30
0.0
 10
6.9796574872
 20
11.5642161302
 30
0.0
 10
6.9766537034
 20
11.5771353445
 30
0.0
 10
6.9745207639
 20
11.5876375883
 30
0.0
 10
6.9730626676
 20
11.5956182964
 30
0.0
 10
6.971758776
 20
11.6036740825
 30
0.0
 10
6.9706224114
 20
11.6118024186
 30
0.0
 10
6.9696720473
 20
11.6200007847
 30
0.0
 10
6.9689266465
 20
11.6282645107
 30
0.0
 10
6.9683876444
 20
11.6365849146
 30
0.0
 10
6.9680528913
 20
11.6449517096
 30
0.0
 10
6.9679265461
 20
11.6533546288
 30
0.0
 10
6.9679900833
 20
11.6589666021
 30
0.0
 10
6.9680606021
 20
11.6617757024
 30
0.0
  0
SPLINE
  5
3BB
100
AcDbEntity
  8
0
100
AcDbSpline
 62
9
  6
CONTINUOUS
 70
0
 71
3
 72
15
 73
11
 74
0
 42
0.0000001
 43
0.0000001
 44
0.0000000001
 40
0.0
 40
0.0
 40
0.0
 40
0.0
 40
0.1389470186
 40
0.2751625902
 40
0.4078981259
 40
0.5365404486
 40
0.6605463712
 40
0.7794190496
 40
0.8927149589
 40
1.0
 40
1.0
 40
1.0
 40
1.0
 10
15.837458549
 20
0.6912160665
 30
0.0
 10
15.8383290879
 20
0.6892798781
 30
0.0
 10
15.8399807428
 20
0.6854125052
 30
0.0
 10
15.8421978928
 20
0.6795863789
 30
0.0
 10
15.8441139344
 20
0.6738197567
 30
0.0
 10
15.8457118912
 20
0.6681503306
 30
0.0
 10
15.8469757936
 20
0.6626139165
 30
0.0
 10
15.847891548
 20
0.6572464934
 30
0.0
 10
15.848444769
 20
0.6520863055
 30
0.0
 10
15.8485693125
 20
0.6487146759
 30
0.0
 10
15.8485621898
 20
0.6470755458
 30
0.0
  0
SPLINE
  5
3BC
100
AcDbEntity
  8
0
100
AcDbSpline
 62
9
  6
CONTINUOUS
 70
0
 71
3
 72
15
 73
11
 74
0
 42
0.0000001
 43
0.0000001
 44
0.0000000001
 40
0.0
 40
0.0
 40
0.0
 40
0.0
 40
0.1233279803
 40
0.2494481879
 40
0.3771851504
 40
0.5053676332
 40
0.6328426147
 40
0.7585060614
 40
0.8812596561
 40
1.0
 40
1.0
 40
1.0
 40
1.0
 10
6.9949635619
 20
12.1463858108
 30
0.0
 10
6.9953750765
 20
12.154617615
 30
0.0
 10
6.9963431491
 20
12.1712610934
 30
0.0
 10
6.9982055578
 20
12.1964007278
 30
0.0
 10
7.000501905
 20
12.221830345
 30
0.0
 10
7.0032347684
 20
12.2473079959
 30
0.0
 10
7.0064073254
 20
12.2725949843
 30
0.0
 10
7.0099555671
 20
12.2974653865
 30
0.0
 10
7.0138156626
 20
12.3216982271
 30
0.0
 10
7.0166093587
 20
12.3375946171
 30
0.0
 10
7.0180475707
 20
12.3453986889
 30
0.0
  0
LINE
  5
3BD
100
AcDbEntity
  8
0
100
AcDbLine
 62
9
  6
CONTINUOUS
 10
15.7554995082
 20
0.87349493
 11
15.837458549
 21
0.6912160665
  0
SPLINE
  5
3BE
100
AcDbEntity
  8
0
100
AcDbSpline
 62
9
  6
CONTINUOUS
 70
0
 71
3
 72
10
 73
6
 74
0
 42
0.0000001
 43
0.0000001
 44
0.0000000001
 40
0.0
 40
0.0
 40
0.0
 40
0.0
 40
0.2510769484
 40
0.501406595
 40
1.0
 40
1.0
 40
1.0
 40
1.0
 10
15.720039816
 20
0.9493357693
 30
0.0
 10
15.7231167961
 20
0.9430404483
 30
0.0
 10
15.7291924902
 20
0.9304346866
 30
0.0
 10
15.7410921496
 20
0.9051905667
 30
0.0
 10
15.7497929796
 20
0.8861857077
 30
0.0
 10
15.7554995082
 20
0.87349493
 30
0.0
  0
SPLINE
  5
3BF
100
AcDbEntity
  8
0
100
AcDbSpline
 62
9
  6
CONTINUOUS
 70
0
 71
3
 72
35
 73
31
 74
0
 42
0.0000001
 43
0.0000001
 44
0.0000000001
 40
0.0
 40
0.0
 40
0.0
 40
0.0
 40
0.0425671771
 40
0.0884507584
 40
0.1129520674
 40
0.138629119
 40
0.1938340726
 40
0.223519367
 40
0.2545965555
 40
0.2706450102
 40
0.2870114901
 40
0.3036669762
 40
0.3205787994
 40
0.3376684918
 40
0.3462503343
 40
0.3548427213
 40
0.3720392185
 40
0.3892142331
 40
0.4063435879
 40
0.4234393635
 40
0.4575663405
 40
0.4916271511
 40
0.5256391781
 40
0.5596162559
 40
0.5935660122
 40
0.6614042337
 40
0.7291839292
 40
0.7969230601
 40
0.8646334946
 40
1.0
 40
1.0
 40
1.0
 40
1.0
 10
15.6255123521
 20
1.072231121
 30
0.0
 10
15.6278197971
 20
1.0722300915
 30
0.0
 10
15.6326224756
 20
1.0718144296
 30
0.0
 10
15.6385768064
 20
1.0702739272
 30
0.0
 10
15.643437784
 20
1.0683949063
 30
0.0
 10
15.6485989451
 20
1.065935441
 30
0.0
 10
15.6537026617
 20
1.0627450952
 30
0.0
 10
15.6586604189
 20
1.0588746621
 30
0.0
 10
15.6617558006
 20
1.0560835791
 30
0.0
 10
15.6641847986
 20
1.0536444331
 30
0.0
 10
15.6659908084
 20
1.0516906251
 30
0.0
 10
15.6677494201
 20
1.0496320216
 30
0.0
 10
15.6694458837
 20
1.0474717965
 30
0.0
 10
15.6707966154
 20
1.0455990694
 30
0.0
 10
15.6718362974
 20
1.044059841
 30
0.0
 10
15.6728474183
 20
1.0424947993
 30
0.0
 10
15.6740595836
 20
1.0405057234
 30
0.0
 10
15.675456064
 20
1.0380882312
 30
0.0
 10
15.676813126
 20
1.0356547042
 30
0.0
 10
15.6785811305
 20
1.0323985118
 30
0.0
 10
15.6807467881
 20
1.0283140583
 30
0.0
 10
15.6833002138
 20
1.0233975978
 30
0.0
 10
15.6858223605
 20
1.0184741646
 30
0.0
 10
15.6883226348
 20
1.0135463489
 30
0.0
 10
15.6916328977
 20
1.0069734056
 30
0.0
 10
15.6957390599
 20
0.9987497387
 30
0.0
 10
15.7006342415
 20
0.9888728536
 30
0.0
 10
15.7055060988
 20
0.978992169
 30
0.0
 10
15.7119789872
 20
0.9658160883
 30
0.0
 10
15.7168175761
 20
0.9559282612
 30
0.0
 10
15.720039816
 20
0.9493357693
 30
0.0
  0
SPLINE
  5
3C0
100
AcDbEntity
  8
0
100
AcDbSpline
 62
9
  6
CONTINUOUS
 70
0
 71
3
 72
40
 73
36
 74
0
 42
0.0000001
 43
0.0000001
 44
0.0000000001
 40
0.0
 40
0.0
 40
0.0
 40
0.0
 40
0.0606434985
 40
0.1212842024
 40
0.1819217266
 40
0.242555589
 40
0.3031851809
 40
0.333498177
 40
0.3638098369
 40
0.3941201461
 40
0.4244288602
 40
0.4547362118
 40
0.4850434366
 40
0.5001967781
 40
0.5153503957
 40
0.5305068895
 40
0.538088218
 40
0.5456725273
 40
0.560846582
 40
0.5760467203
 40
0.5913029677
 40
0.5989571541
 40
0.6066338097
 40
0.6220690005
 40
0.6376223585
 40
0.6532807161
 40
0.669048577
 40
0.7008837146
 40
0.7331122548
 40
0.7656835763
 40
0.7985566468
 40
0.8316904594
 40
0.8650427964
 40
0.9322592894
 40
1.0
 40
1.0
 40
1.0
 40
1.0
 10
14.8412069332
 20
0.9493359441
 30
0.0
 10
14.8414417636
 20
0.9526317522
 30
0.0
 10
14.8419145747
 20
0.9592229923
 30
0.0
 10
14.8426385984
 20
0.9691085315
 30
0.0
 10
14.8433843321
 20
0.978991937
 30
0.0
 10
14.844160848
 20
0.9888723715
 30
0.0
 10
14.8448444424
 20
0.9971027275
 30
0.0
 10
14.8454236419
 20
1.0036838457
 30
0.0
 10
14.8458781759
 20
1.0086175648
 30
0.0
 10
14.8463577144
 20
1.01354869
 30
0.0
 10
14.8468698334
 20
1.0184763297
 30
0.0
 10
14.8474257089
 20
1.0233990695
 30
0.0
 10
14.8479382247
 20
1.0274955457
 30
0.0
 10
14.8483962314
 20
1.0307662614
 30
0.0
 10
14.8487691489
 20
1.0332151852
 30
0.0
 10
14.8491146179
 20
1.0352507424
 30
0.0
 10
14.8494184067
 20
1.0368747196
 30
0.0
 10
14.8497427006
 20
1.0384956712
 30
0.0
 10
14.8502030326
 20
1.0405127716
 30
0.0
 10
14.8508987014
 20
1.0429016206
 30
0.0
 10
14.8516333219
 20
1.0448466385
 30
0.0
 10
14.8523235824
 20
1.0463640868
 30
0.0
 10
14.8530896829
 20
1.0478557233
 30
0.0
 10
14.8541831504
 20
1.0496599631
 30
0.0
 10
14.8556781646
 20
1.0517183951
 30
0.0
 10
14.8573342822
 20
1.0536730967
 30
0.0
 10
14.8597394654
 20
1.0561450725
 30
0.0
 10
14.8630617021
 20
1.0589696544
 30
0.0
 10
14.8674261049
 20
1.0619301815
 30
0.0
 10
14.8721018917
 20
1.0644867695
 30
0.0
 10
14.8770239809
 20
1.0666512438
 30
0.0
 10
14.882139373
 20
1.0684387583
 30
0.0
 10
14.8891750786
 20
1.0703471076
 30
0.0
 10
14.8982453238
 20
1.0718612355
 30
0.0
 10
14.9056048542
 20
1.0722300674
 30
0.0
 10
14.9092957094
 20
1.0722310991
 30
0.0
  0
LINE
  5
3C1
100
AcDbEntity
  8
0
100
AcDbLine
 62
9
  6
CONTINUOUS
 10
7.2312805909
 20
12.9048133334
 11
7.2351091474
 21
12.9254889538
  0
SPLINE
  5
3C2
100
AcDbEntity
  8
0
100
AcDbSpline
 62
9
  6
CONTINUOUS
 70
0
 71
3
 72
30
 73
26
 74
0
 42
0.0000001
 43
0.0000001
 44
0.0000000001
 40
0.0
 40
0.0
 40
0.0
 40
0.0
 40
0.0244410369
 40
0.0485103228
 40
0.071712528
 40
0.0938165509
 40
0.1147373873
 40
0.1345554131
 40
0.153391719
 40
0.1713664177
 40
0.2052163514
 40
0.2369788415
 40
0.2672774032
 40
0.2965625344
 40
0.3532860462
 40
0.4089079406
 40
0.464370463
 40
0.5202098525
 40
0.5767360906
 40
0.6341286046
 40
0.6924895989
 40
0.7518749063
 40
0.812312209
 40
0.8738128165
 40
1.0
 40
1.0
 40
1.0
 40
1.0
 10
7.2351091474
 20
12.9254889538
 30
0.0
 10
7.2352693325
 20
12.9263501985
 30
0.0
 10
7.2355026727
 20
12.9280757411
 30
0.0
 10
7.2356457367
 20
12.9306450608
 30
0.0
 10
7.235554584
 20
12.9331331634
 30
0.0
 10
7.2352815786
 20
12.9354935061
 30
0.0
 10
7.2348439025
 20
12.9377053557
 30
0.0
 10
7.2342754055
 20
12.9397653783
 30
0.0
 10
7.2336025824
 20
12.9416819858
 30
0.0
 10
7.232607449
 20
12.9440125238
 30
0.0
 10
7.2311814665
 20
12.9466557746
 30
0.0
 10
7.2292257055
 20
12.9494898869
 30
0.0
 10
7.2271106808
 20
12.9519951927
 30
0.0
 10
7.2241548493
 20
12.9549405593
 30
0.0
 10
7.2201640618
 20
12.9581058392
 30
0.0
 10
7.215031559
 20
12.9612610784
 30
0.0
 10
7.2096601217
 20
12.9639112884
 30
0.0
 10
7.204083162
 20
12.9661761464
 30
0.0
 10
7.1983226765
 20
12.9681429397
 30
0.0
 10
7.1923947472
 20
12.9698771908
 30
0.0
 10
7.1863114247
 20
12.9714296538
 30
0.0
 10
7.1800820941
 20
12.9728402944
 30
0.0
 10
7.1737138775
 20
12.974139461
 30
0.0
 10
7.1649704569
 20
12.9757668174
 30
0.0
 10
7.1583315038
 20
12.9768580876
 30
0.0
 10
7.1538608168
 20
12.9775426625
 30
0.0
  0
SPLINE
  5
3C3
100
AcDbEntity
  8
0
100
AcDbSpline
 62
9
  6
CONTINUOUS
 70
0
 71
3
 72
9
 73
5
 74
0
 42
0.0000001
 43
0.0000001
 44
0.0000000001
 40
0.0
 40
0.0
 40
0.0
 40
0.0
 40
0.4847238825
 40
1.0
 40
1.0
 40
1.0
 40
1.0
 10
7.3141742698
 20
13.0268654095
 30
0.0
 10
7.3134551797
 20
13.0269755089
 30
0.0
 10
7.3119911781
 20
13.0273459986
 30
0.0
 10
7.3106138117
 20
13.0279590671
 30
0.0
 10
7.309931252
 20
13.0283225774
 30
0.0
  0
SPLINE
  5
3C4
100
AcDbEntity
  8
0
100
AcDbSpline
 62
9
  6
CONTINUOUS
 70
0
 71
3
 72
27
 73
23
 74
0
 42
0.0000001
 43
0.0000001
 44
0.0000000001
 40
0.0
 40
0.0
 40
0.0
 40
0.0
 40
0.1130711161
 40
0.1695423863
 40
0.2258434444
 40
0.281653157
 40
0.3360107312
 40
0.3872486378
 40
0.434260488
 40
0.4773034567
 40
0.5169808134
 40
0.5879456341
 40
0.6495114469
 40
0.703132684
 40
0.7498743652
 40
0.7908607959
 40
0.8275287099
 40
0.8615391324
 40
0.894457589
 40
0.9277568372
 40
0.9626563788
 40
1.0
 40
1.0
 40
1.0
 40
1.0
 10
7.2201916748
 20
13.2686867709
 30
0.0
 10
7.219893397
 20
13.2701227795
 30
0.0
 10
7.2194428588
 20
13.2722752918
 30
0.0
 10
7.2188410776
 20
13.2751422581
 30
0.0
 10
7.2183959801
 20
13.2772831823
 30
0.0
 10
7.2179710712
 20
13.2794002812
 30
0.0
 10
7.2176014562
 20
13.281461326
 30
0.0
 10
7.2173342438
 20
13.2834235836
 30
0.0
 10
7.2171891468
 20
13.2852515435
 30
0.0
 10
7.217149196
 20
13.2869347152
 30
0.0
 10
7.2172078842
 20
13.2889279929
 30
0.0
 10
7.2174407649
 20
13.2911539657
 30
0.0
 10
7.2179504378
 20
13.2935192562
 30
0.0
 10
7.2186369985
 20
13.2955104329
 30
0.0
 10
7.2194757401
 20
13.2971489233
 30
0.0
 10
7.2204490742
 20
13.2984475456
 30
0.0
 10
7.2215396126
 20
13.2994169413
 30
0.0
 10
7.2227245497
 20
13.3000750713
 30
0.0
 10
7.2239881745
 20
13.3004279866
 30
0.0
 10
7.225308973
 20
13.3004855174
 30
0.0
 10
7.2266679973
 20
13.3002662607
 30
0.0
 10
7.2275595802
 20
13.2999658927
 30
0.0
 10
7.228008408
 20
13.2997837219
 30
0.0
  0
SPLINE
  5
3C5
100
AcDbEntity
  8
0
100
AcDbSpline
 62
9
  6
CONTINUOUS
 70
0
 71
3
 72
12
 73
8
 74
0
 42
0.0000001
 43
0.0000001
 44
0.0000000001
 40
0.0
 40
0.0
 40
0.0
 40
0.0
 40
0.2500970723
 40
0.5001260108
 40
0.6251173327
 40
0.750095209
 40
1.0
 40
1.0
 40
1.0
 40
1.0
 10
14.8387412713
 20
0.8734949299
 30
0.0
 10
14.8387391189
 20
0.879822026
 30
0.0
 10
14.8388307588
 20
0.8924747269
 30
0.0
 10
14.8391916351
 20
0.9082858949
 30
0.0
 10
14.8396400738
 20
0.9209273413
 30
0.0
 10
14.8401999179
 20
0.9335611129
 30
0.0
 10
14.8407576703
 20
0.9430296947
 30
0.0
 10
14.8412069332
 20
0.9493359441
 30
0.0
  0
LINE
  5
3C6
100
AcDbEntity
  8
0
100
AcDbLine
 62
9
  6
CONTINUOUS
 10
14.838791616
 20
0.7157772014
 11
14.8387412713
 21
0.8734949299
  0
SPLINE
  5
3C7
100
AcDbEntity
  8
0
100
AcDbSpline
 62
9
  6
CONTINUOUS
 70
0
 71
3
 72
15
 73
11
 74
0
 42
0.0000001
 43
0.0000001
 44
0.0000000001
 40
0.0
 40
0.0
 40
0.0
 40
0.0
 40
0.1300116799
 40
0.2583597417
 40
0.3850421928
 40
0.5102087244
 40
0.6340348629
 40
0.7567510019
 40
0.8786573845
 40
1.0
 40
1.0
 40
1.0
 40
1.0
 10
14.8703078014
 20
0.6470755458
 30
0.0
 10
14.867810182
 20
0.6493409798
 30
0.0
 10
14.8630615111
 20
0.6540867504
 30
0.0
 10
14.8567233205
 20
0.6618248555
 30
0.0
 10
14.8512716954
 20
0.6700626395
 30
0.0
 10
14.8467551499
 20
0.6787161009
 30
0.0
 10
14.8432109104
 20
0.6877009893
 30
0.0
 10
14.8406648903
 20
0.6969308787
 30
0.0
 10
14.8391341196
 20
0.7063160101
 30
0.0
 10
14.8387925933
 20
0.712630056
 30
0.0
 10
14.838791616
 20
0.7157772014
 30
0.0
  0
SPLINE
  5
3C8
100
AcDbEntity
  8
0
100
AcDbSpline
 62
9
  6
CONTINUOUS
 70
0
 71
3
 72
12
 73
8
 74
0
 42
0.0000001
 43
0.0000001
 44
0.0000000001
 40
0.0
 40
0.0
 40
0.0
 40
0.0
 40
0.2510558552
 40
0.5016987287
 40
0.751616341
 40
0.8760963364
 40
1.0
 40
1.0
 40
1.0
 40
1.0
 10
7.2316309657
 20
13.2108727898
 30
0.0
 10
7.2305110853
 20
13.2156668417
 30
0.0
 10
7.2282788778
 20
13.2252483984
 30
0.0
 10
7.2249645144
 20
13.2396098452
 30
0.0
 10
7.222249924
 20
13.2515623492
 30
0.0
 10
7.2201367118
 20
13.261102638
 30
0.0
 10
7.2191098946
 20
13.2658639501
 30
0.0
 10
7.2186096182
 20
13.2682415954
 30
0.0
  0
LINE
  5
3C9
100
AcDbEntity
  8
0
100
AcDbLine
 62
9
  6
CONTINUOUS
 10
7.2186096182
 20
13.2682415954
 11
7.2185603256
 21
13.2684760628
  0
SPLINE
  5
3CA
100
AcDbEntity
  8
0
100
AcDbSpline
 62
9
  6
CONTINUOUS
 70
0
 71
3
 72
26
 73
22
 74
0
 42
0.0000001
 43
0.0000001
 44
0.0000000001
 40
0.0
 40
0.0
 40
0.0
 40
0.0
 40
0.1013929476
 40
0.2017270391
 40
0.2511749204
 40
0.2997787855
 40
0.3470719373
 40
0.3926519014
 40
0.4361999648
 40
0.4775759064
 40
0.5538194911
 40
0.6217463448
 40
0.6819466969
 40
0.7351248321
 40
0.7821449437
 40
0.8240301161
 40
0.8619454536
 40
0.897184588
 40
0.9311170258
 40
0.9650366486
 40
1.0
 40
1.0
 40
1.0
 40
1.0
 10
7.2185603256
 20
13.2684760628
 30
0.0
 10
7.2182307668
 20
13.2700449752
 30
0.0
 10
7.2175862118
 20
13.2731687467
 30
0.0
 10
7.2168262138
 20
13.2770669743
 30
0.0
 10
7.2162804089
 20
13.2801559543
 30
0.0
 10
7.2159196619
 20
13.2824257337
 30
0.0
 10
7.2156282389
 20
13.2846439664
 30
0.0
 10
7.2154205246
 20
13.2867914117
 30
0.0
 10
7.2153023554
 20
13.288852096
 30
0.0
 10
7.2152650709
 20
13.2914006656
 30
0.0
 10
7.2154068029
 20
13.2943351354
 30
0.0
 10
7.2158617993
 20
13.2975393249
 30
0.0
 10
7.2165540668
 20
13.3003269887
 30
0.0
 10
7.2174505444
 20
13.3027064556
 30
0.0
 10
7.2185228151
 20
13.3046895665
 30
0.0
 10
7.2197463881
 20
13.3062900934
 30
0.0
 10
7.2211010859
 20
13.3075205983
 30
0.0
 10
7.2225687266
 20
13.3083896334
 30
0.0
 10
7.2241273282
 20
13.3089074212
 30
0.0
 10
7.225752677
 20
13.3090930974
 30
0.0
 10
7.2268452146
 20
13.3090131714
 30
0.0
 10
7.2273917305
 20
13.3089299553
 30
0.0
  0
LINE
  5
3CB
100
AcDbEntity
  8
0
100
AcDbLine
 62
9
  6
CONTINUOUS
 10
7.2321468949
 20
13.2086709709
 11
7.2316309657
 21
13.2108727898
  0
SPLINE
  5
3CC
100
AcDbEntity
  8
0
100
AcDbSpline
 62
9
  6
CONTINUOUS
 70
0
 71
3
 72
16
 73
12
 74
0
 42
0.0000001
 43
0.0000001
 44
0.0000000001
 40
0.0
 40
0.0
 40
0.0
 40
0.0
 40
0.1132040286
 40
0.2325288082
 40
0.3565901344
 40
0.4839819253
 40
0.6133075186
 40
0.743204865
 40
0.8079668914
 40
0.872417064
 40
1.0
 40
1.0
 40
1.0
 40
1.0
 10
7.2836059398
 20
13.0696587946
 30
0.0
 10
7.2815329424
 20
13.0728073129
 30
0.0
 10
7.2774295835
 20
13.0793775053
 30
0.0
 10
7.271580315
 20
13.0897151421
 30
0.0
 10
7.2659512104
 20
13.1007081311
 30
0.0
 10
7.2606363724
 20
13.1122242452
 30
0.0
 10
7.2557198668
 20
13.124126505
 30
0.0
 10
7.2520103093
 20
13.1342608084
 30
0.0
 10
7.2492913431
 20
13.1424500591
 30
0.0
 10
7.246757476
 20
13.1506176842
 30
0.0
 10
7.2450297778
 20
13.1567763787
 30
0.0
 10
7.2439535613
 20
13.1608863024
 30
0.0
  0
SPLINE
  5
3CD
100
AcDbEntity
  8
0
100
AcDbSpline
 62
9
  6
CONTINUOUS
 70
0
 71
3
 72
20
 73
16
 74
0
 42
0.0000001
 43
0.0000001
 44
0.0000000001
 40
0.0
 40
0.0
 40
0.0
 40
0.0
 40
0.1390023164
 40
0.2080067189
 40
0.2766187137
 40
0.3447580937
 40
0.4123008105
 40
0.4790579875
 40
0.5447604145
 40
0.6716900773
 40
0.732323892
 40
0.7907347441
 40
0.8467631009
 40
0.9003243899
 40
1.0
 40
1.0
 40
1.0
 40
1.0
 10
7.1929280753
 20
13.1722947378
 30
0.0
 10
7.1940972936
 20
13.1680445431
 30
0.0
 10
7.1957711264
 20
13.1616632041
 30
0.0
 10
7.197843015
 20
13.15313901
 30
0.0
 10
7.1993012296
 20
13.1467788239
 30
0.0
 10
7.2006558877
 20
13.1404431033
 30
0.0
 10
7.2018880766
 20
13.1341422938
 30
0.0
 10
7.2029697112
 20
13.1278918186
 30
0.0
 10
7.2041457564
 20
13.1197501111
 30
0.0
 10
7.2048861711
 20
13.1117413866
 30
0.0
 10
7.205034281
 20
13.1039391301
 30
0.0
 10
7.2048372285
 20
13.0983877492
 30
0.0
 10
7.2043234938
 20
13.0930804308
 30
0.0
 10
7.2032375486
 20
13.0865314644
 30
0.0
 10
7.2019112566
 20
13.0818251536
 30
0.0
 10
7.2007626251
 20
13.0788802902
 30
0.0
  0
SPLINE
  5
3CE
100
AcDbEntity
  8
0
100
AcDbSpline
 62
9
  6
CONTINUOUS
 70
0
 71
3
 72
10
 73
6
 74
0
 42
0.0000001
 43
0.0000001
 44
0.0000000001
 40
0.0
 40
0.0
 40
0.0
 40
0.0
 40
0.250908967
 40
0.5011825631
 40
1.0
 40
1.0
 40
1.0
 40
1.0
 10
7.176573009
 20
13.2285047658
 30
0.0
 10
7.178023897
 20
13.2238283324
 30
0.0
 10
7.1808688013
 20
13.2144707485
 30
0.0
 10
7.1863781293
 20
13.1957500539
 30
0.0
 10
7.1903461559
 20
13.1816801928
 30
0.0
 10
7.1929280753
 20
13.1722947378
 30
0.0
  0
SPLINE
  5
3CF
100
AcDbEntity
  8
0
100
AcDbSpline
 62
9
  6
CONTINUOUS
 70
0
 71
3
 72
28
 73
24
 74
0
 42
0.0000001
 43
0.0000001
 44
0.0000000001
 40
0.0
 40
0.0
 40
0.0
 40
0.0
 40
0.0447263027
 40
0.0922470547
 40
0.143366005
 40
0.1988150033
 40
0.2590030741
 40
0.2908722322
 40
0.3237804924
 40
0.3574719057
 40
0.3915368755
 40
0.4256311838
 40
0.4426536943
 40
0.4596574147
 40
0.4936160323
 40
0.5275224256
 40
0.561387874
 40
0.5952207456
 40
0.6628118486
 40
0.7303297968
 40
0.797795587
 40
0.8652230407
 40
1.0
 40
1.0
 40
1.0
 40
1.0
 10
7.1210285734
 20
13.3252166728
 30
0.0
 10
7.1227569973
 20
13.3249531055
 30
0.0
 10
7.1262843257
 20
13.3241232263
 30
0.0
 10
7.131489836
 20
13.3219903371
 30
0.0
 10
7.1366778032
 20
13.318885789
 30
0.0
 10
7.1417403084
 20
13.3147448131
 30
0.0
 10
7.145664763
 20
13.310492746
 30
0.0
 10
7.148594601
 20
13.3065797647
 30
0.0
 10
7.1506759949
 20
13.3033374648
 30
0.0
 10
7.1525519395
 20
13.2998740823
 30
0.0
 10
7.1541959427
 20
13.2962452997
 30
0.0
 10
7.1554332481
 20
13.2931532482
 30
0.0
 10
7.1563743119
 20
13.2906621397
 30
0.0
 10
7.1572921104
 20
13.2881680079
 30
0.0
 10
7.1584036205
 20
13.2850420333
 30
0.0
 10
7.159701639
 20
13.2812830373
 30
0.0
 10
7.1609728908
 20
13.2775201022
 30
0.0
 10
7.1626414626
 20
13.2725015808
 30
0.0
 10
7.164689519
 20
13.2662229852
 30
0.0
 10
7.1671088113
 20
13.2586826859
 30
0.0
 10
7.1695005112
 20
13.2511403054
 30
0.0
 10
7.1726619685
 20
13.2410837978
 30
0.0
 10
7.1750117884
 20
13.2335367275
 30
0.0
 10
7.176573009
 20
13.2285047658
 30
0.0
  0
SPLINE
  5
3D0
100
AcDbEntity
  8
0
100
AcDbSpline
 62
9
  6
CONTINUOUS
 70
0
 71
3
 72
36
 73
32
 74
0
 42
0.0000001
 43
0.0000001
 44
0.0000000001
 40
0.0
 40
0.0
 40
0.0
 40
0.0
 40
0.0609266826
 40
0.1218458013
 40
0.182755965
 40
0.2436553299
 40
0.3045412269
 40
0.3349781356
 40
0.3654101211
 40
0.3958364682
 40
0.4262564382
 40
0.4566690495
 40
0.4718731517
 40
0.4870762453
 40
0.5022832625
 40
0.5174973401
 40
0.5327202775
 40
0.5479759605
 40
0.5632750025
 40
0.5786298449
 40
0.5940538687
 40
0.6095490259
 40
0.6407519558
 40
0.6722605205
 40
0.7040623023
 40
0.7361396483
 40
0.7684716047
 40
0.8010327292
 40
0.8667246228
 40
0.933096028
 40
1.0
 40
1.0
 40
1.0
 40
1.0
 10
6.6927927896
 20
13.2933816716
 30
0.0
 10
6.6934010323
 20
13.2959861783
 30
0.0
 10
6.6946233242
 20
13.3011934982
 30
0.0
 10
6.6964799437
 20
13.3089984301
 30
0.0
 10
6.6983673725
 20
13.3167947507
 30
0.0
 10
6.7002963797
 20
13.3245794005
 30
0.0
 10
6.7019524309
 20
13.3310533738
 30
0.0
 10
6.7033208058
 20
13.3362201237
 30
0.0
 10
6.7043748068
 20
13.3400868058
 30
0.0
 10
6.7054642238
 20
13.3439429267
 30
0.0
 10
6.706602507
 20
13.3477840706
 30
0.0
 10
6.7076099286
 20
13.3509666569
 30
0.0
 10
6.7084687648
 20
13.3534947664
 30
0.0
 10
6.7091502602
 20
13.3553778128
 30
0.0
 10
6.7098823553
 20
13.3572423717
 30
0.0
 10
6.7106807331
 20
13.3590807884
 30
0.0
 10
6.7115736904
 20
13.3608782536
 30
0.0
 10
6.7125858717
 20
13.3626161311
 30
0.0
 10
6.7137199248
 20
13.3642842647
 30
0.0
 10
6.7149785564
 20
13.3658700068
 30
0.0
 10
6.7163506538
 20
13.3673700636
 30
0.0
 10
6.7183194435
 20
13.3692593515
 30
0.0
 10
6.7210105636
 20
13.3714046131
 30
0.0
 10
6.7245199937
 20
13.3736305252
 30
0.0
 10
6.7282608807
 20
13.3755252329
 30
0.0
 10
6.7321863432
 20
13.3770969989
 30
0.0
 10
6.7362567199
 20
13.3783578514
 30
0.0
 10
6.7418470693
 20
13.3796453915
 30
0.0
 10
6.749041368
 20
13.380536422
 30
0.0
 10
6.7577930426
 20
13.380555096
 30
0.0
 10
6.7636231707
 20
13.3799430624
 30
0.0
 10
6.766526439
 20
13.3794993425
 30
0.0
  0
SPLINE
  5
3D1
100
AcDbEntity
  8
0
100
AcDbSpline
 62
9
  6
CONTINUOUS
 70
0
 71
3
 72
11
 73
7
 74
0
 42
0.0000001
 43
0.0000001
 44
0.0000000001
 40
0.0
 40
0.0
 40
0.0
 40
0.0
 40
0.2501330115
 40
0.5001819465
 40
0.7501414356
 40
1.0
 40
1.0
 40
1.0
 40
1.0
 10
6.6838162531
 20
13.2484364153
 30
0.0
 10
6.6844654896
 20
13.252202803
 30
0.0
 10
6.6858069994
 20
13.2597269393
 30
0.0
 10
6.6879584573
 20
13.2709854035
 30
0.0
 10
6.6902649038
 20
13.2822089202
 30
0.0
 10
6.6919246242
 20
13.2896639523
 30
0.0
 10
6.6927927896
 20
13.2933816716
 30
0.0
  0
SPLINE
  5
3D2
100
AcDbEntity
  8
0
100
AcDbSpline
 62
9
  6
CONTINUOUS
 70
0
 71
3
 72
18
 73
14
 74
0
 42
0.0000001
 43
0.0000001
 44
0.0000000001
 40
0.0
 40
0.0
 40
0.0
 40
0.0
 40
0.1310544037
 40
0.2602269812
 40
0.3874232855
 40
0.5126947958
 40
0.6362330192
 40
0.69747353
 40
0.7584012833
 40
0.8190641901
 40
0.8795184182
 40
0.9398212194
 40
1.0
 40
1.0
 40
1.0
 40
1.0
 10
6.713714857
 20
13.1534588345
 30
0.0
 10
6.7105841539
 20
13.1567180958
 30
0.0
 10
6.7047134007
 20
13.1635336034
 30
0.0
 10
6.6971706202
 20
13.1745942971
 30
0.0
 10
6.6910520528
 20
13.1862812242
 30
0.0
 10
6.6864445
 20
13.1984345621
 30
0.0
 10
6.6839061494
 20
13.2088518315
 30
0.0
 10
6.6826828255
 20
13.2172406988
 30
0.0
 10
6.6821647047
 20
13.2235284272
 30
0.0
 10
6.6820354483
 20
13.2298086023
 30
0.0
 10
6.6822792225
 20
13.2360634076
 30
0.0
 10
6.6828614523
 20
13.2422783739
 30
0.0
 10
6.6834637432
 20
13.2463913593
 30
0.0
 10
6.6838162531
 20
13.2484364153
 30
0.0
  0
SPLINE
  5
3D3
100
AcDbEntity
  8
0
100
AcDbSpline
 62
9
  6
CONTINUOUS
 70
0
 71
3
 72
10
 73
6
 74
0
 42
0.0000001
 43
0.0000001
 44
0.0000000001
 40
0.0
 40
0.0
 40
0.0
 40
0.0
 40
0.4985933889
 40
0.7489230982
 40
1.0
 40
1.0
 40
1.0
 40
1.0
 10
13.8106227352
 20
0.8734949299
 30
0.0
 10
13.816329279
 20
0.8861857358
 30
0.0
 10
13.8250301332
 20
0.9051906384
 30
0.0
 10
13.8369298304
 20
0.9304348123
 30
0.0
 10
13.8430055595
 20
0.9430405932
 30
0.0
 10
13.8460825128
 20
0.9493359441
 30
0.0
  0
LINE
  5
3D4
100
AcDbEntity
  8
0
100
AcDbLine
 62
9
  6
CONTINUOUS
 10
13.7397069727
 20
0.7157772014
 11
13.8106227352
 21
0.8734949299
  0
SPLINE
  5
3D5
100
AcDbEntity
  8
0
100
AcDbSpline
 62
9
  6
CONTINUOUS
 70
0
 71
3
 72
15
 73
11
 74
0
 42
0.0000001
 43
0.0000001
 44
0.0000000001
 40
0.0
 40
0.0
 40
0.0
 40
0.0
 40
0.1014284165
 40
0.2103867916
 40
0.3267441926
 40
0.450141947
 40
0.5799764196
 40
0.7154838383
 40
0.8558254657
 40
1.0
 40
1.0
 40
1.0
 40
1.0
 10
13.7260997426
 20
0.6470755458
 30
0.0
 10
13.7257060334
 20
0.649441407
 30
0.0
 10
13.7251999782
 20
0.6544032296
 30
0.0
 10
13.7252127502
 20
0.6621401189
 30
0.0
 10
13.725954056
 20
0.6703620009
 30
0.0
 10
13.727401742
 20
0.6789880813
 30
0.0
 10
13.7295293365
 20
0.6879369994
 30
0.0
 10
13.7323054785
 20
0.697124879
 30
0.0
 10
13.7356951936
 20
0.7064651522
 30
0.0
 10
13.7383089749
 20
0.7126678431
 30
0.0
 10
13.7397069727
 20
0.7157772014
 30
0.0
  0
SPLINE
  5
3D6
100
AcDbEntity
  8
0
100
AcDbSpline
 62
9
  6
CONTINUOUS
 70
0
 71
3
 72
27
 73
23
 74
0
 42
0.0000001
 43
0.0000001
 44
0.0000000001
 40
0.0
 40
0.0
 40
0.0
 40
0.0
 40
0.0396708331
 40
0.0778558176
 40
0.1153349009
 40
0.1531593777
 40
0.1925788975
 40
0.2349130077
 40
0.2814876464
 40
0.3335444334
 40
0.3922226986
 40
0.4585578829
 40
0.4949134327
 40
0.5335299151
 40
0.5744912301
 40
0.6177898026
 40
0.7096244672
 40
0.757202705
 40
0.8053171331
 40
0.8537104317
 40
0.9023200148
 40
1.0
 40
1.0
 40
1.0
 40
1.0
 10
13.8143768467
 20
1.0722307338
 30
0.0
 10
13.8151268028
 20
1.072230221
 30
0.0
 10
13.8166013752
 20
1.0721333934
 30
0.0
 10
13.8187378671
 20
1.0716508571
 30
0.0
 10
13.8207244575
 20
1.0708074791
 30
0.0
 10
13.8225309572
 20
1.0695822603
 30
0.0
 10
13.824127459
 20
1.0679618345
 30
0.0
 10
13.8254814554
 20
1.0659326872
 30
0.0
 10
13.826559564
 20
1.0634825343
 30
0.0
 10
13.827325337
 20
1.0605981126
 30
0.0
 10
13.8277363329
 20
1.0572668704
 30
0.0
 10
13.8277386364
 20
1.054208948
 30
0.0
 10
13.827524401
 20
1.0515452623
 30
0.0
 10
13.8272307523
 20
1.0493722053
 30
0.0
 10
13.8267943897
 20
1.0470894563
 30
0.0
 10
13.825994826
 20
1.0438565994
 30
0.0
 10
13.8249522468
 20
1.0405604042
 30
0.0
 10
13.8237652881
 20
1.0372200435
 30
0.0
 10
13.8228207134
 20
1.0346650961
 30
0.0
 10
13.8218513275
 20
1.0320987047
 30
0.0
 10
13.8205294944
 20
1.0286638692
 30
0.0
 10
13.8195193262
 20
1.0260894053
 30
0.0
 10
13.8188399629
 20
1.0243723275
 30
0.0
  0
SPLINE
  5
3D7
100
AcDbEntity
  8
0
100
AcDbSpline
 62
9
  6
CONTINUOUS
 70
0
 71
3
 72
12
 73
8
 74
0
 42
0.0000001
 43
0.0000001
 44
0.0000000001
 40
0.0
 40
0.0
 40
0.0
 40
0.0
 40
0.1241518487
 40
0.2487697093
 40
0.4987451926
 40
0.7492429039
 40
1.0
 40
1.0
 40
1.0
 40
1.0
 10
13.8188399629
 20
1.0243723275
 30
0.0
 10
13.8176044053
 20
1.0212494795
 30
0.0
 10
13.8150992909
 20
1.0150036818
 30
0.0
 10
13.810014091
 20
1.0025073297
 30
0.0
 10
13.8035685282
 20
0.9868748102
 30
0.0
 10
13.7957708259
 20
0.9681091444
 30
0.0
 10
13.7905500963
 20
0.9555952304
 30
0.0
 10
13.7879366284
 20
0.9493357693
 30
0.0
  0
SPLINE
  5
3D8
100
AcDbEntity
  8
0
100
AcDbSpline
 62
9
  6
CONTINUOUS
 70
0
 71
3
 72
11
 73
7
 74
0
 42
0.0000001
 43
0.0000001
 44
0.0000000001
 40
0.0
 40
0.0
 40
0.0
 40
0.0
 40
0.250319905
 40
0.5033391882
 40
0.7547588448
 40
1.0
 40
1.0
 40
1.0
 40
1.0
 10
13.6721100889
 20
0.6894256277
 30
0.0
 10
13.6704616966
 20
0.6858573202
 30
0.0
 10
13.6669344785
 20
0.6787784846
 30
0.0
 10
13.6610424827
 20
0.6684878877
 30
0.0
 10
13.6546058789
 20
0.6586237942
 30
0.0
 10
13.6499534868
 20
0.6523570763
 30
0.0
 10
13.6475570395
 20
0.6493426967
 30
0.0
  0
SPLINE
  5
3D9
100
AcDbEntity
  8
0
100
AcDbSpline
 62
9
  6
CONTINUOUS
 70
0
 71
3
 72
9
 73
5
 74
0
 42
0.0000001
 43
0.0000001
 44
0.0000000001
 40
0.0
 40
0.0
 40
0.0
 40
0.0
 40
0.5136215036
 40
1.0
 40
1.0
 40
1.0
 40
1.0
 10
5.9252033165
 20
13.2403572079
 30
0.0
 10
5.924428871
 20
13.2402158646
 30
0.0
 10
5.9228984302
 20
13.2400476059
 30
0.0
 10
5.9213592601
 20
13.2401383851
 30
0.0
 10
5.9206223635
 20
13.2402511989
 30
0.0
  0
SPLINE
  5
3DA
100
AcDbEntity
  8
0
100
AcDbSpline
 62
9
  6
CONTINUOUS
 70
0
 71
3
 72
31
 73
27
 74
0
 42
0.0000001
 43
0.0000001
 44
0.0000000001
 40
0.0
 40
0.0
 40
0.0
 40
0.0
 40
0.0675434703
 40
0.1351121976
 40
0.2027143055
 40
0.270360974
 40
0.3380689324
 40
0.4058650485
 40
0.4398095748
 40
0.4737973396
 40
0.5078417091
 40
0.5419610522
 40
0.5590592946
 40
0.5761809599
 40
0.5933044155
 40
0.6104052347
 40
0.6274295478
 40
0.6443202372
 40
0.677540906
 40
0.7098433932
 40
0.7411120049
 40
0.8003486265
 40
0.8553234959
 40
0.9064831513
 40
0.9544563672
 40
1.0
 40
1.0
 40
1.0
 40
1.0
 10
6.1010248686
 20
13.3839953505
 30
0.0
 10
6.1026906129
 20
13.386438498
 30
0.0
 10
6.1060255921
 20
13.3913237525
 30
0.0
 10
6.1110403473
 20
13.3986456751
 30
0.0
 10
6.1160723163
 20
13.4059612656
 30
0.0
 10
6.1211272404
 20
13.4132684367
 30
0.0
 10
6.1262141055
 20
13.4205637729
 30
0.0
 10
6.1304900657
 20
13.4266257603
 30
0.0
 10
6.1339470252
 20
13.4314587025
 30
0.0
 10
6.1365664677
 20
13.4350739385
 30
0.0
 10
6.1392222797
 20
13.4386720592
 30
0.0
 10
6.1414780638
 20
13.4416463041
 30
0.0
 10
6.1433304329
 20
13.4439958247
 30
0.0
 10
6.1447514363
 20
13.445737599
 30
0.0
 10
6.1462141068
 20
13.4474448861
 30
0.0
 10
6.1477264992
 20
13.4491026439
 30
0.0
 10
6.1492861413
 20
13.4507019416
 30
0.0
 10
6.1514132353
 20
13.4527310005
 30
0.0
 10
6.154153779
 20
13.455082407
 30
0.0
 10
6.1575499539
 20
13.4576218225
 30
0.0
 10
6.1620591374
 20
13.4605551371
 30
0.0
 10
6.167721112
 20
13.4635141388
 30
0.0
 10
6.1745439302
 20
13.4659983623
 30
0.0
 10
6.1811616587
 20
13.4674228563
 30
0.0
 10
6.1875021565
 20
13.4678550131
 30
0.0
 10
6.1916005196
 20
13.4675332526
 30
0.0
 10
6.193571521
 20
13.4672323052
 30
0.0
  0
SPLINE
  5
3DB
100
AcDbEntity
  8
0
100
AcDbSpline
 62
9
  6
CONTINUOUS
 70
0
 71
3
 72
10
 73
6
 74
0
 42
0.0000001
 43
0.0000001
 44
0.0000000001
 40
0.0
 40
0.0
 40
0.0
 40
0.0
 40
0.4989430565
 40
0.7491816065
 40
1.0
 40
1.0
 40
1.0
 40
1.0
 10
6.0732756759
 20
13.3419246323
 30
0.0
 10
6.0778024686
 20
13.348979312
 30
0.0
 10
6.0846568078
 20
13.359535738
 30
0.0
 10
6.0939434431
 20
13.3735355613
 30
0.0
 10
6.0986512024
 20
13.3805138316
 30
0.0
 10
6.1010248686
 20
13.3839953505
 30
0.0
  0
SPLINE
  5
3DC
100
AcDbEntity
  8
0
100
AcDbSpline
 62
9
  6
CONTINUOUS
 70
0
 71
3
 72
18
 73
14
 74
0
 42
0.0000001
 43
0.0000001
 44
0.0000000001
 40
0.0
 40
0.0
 40
0.0
 40
0.0
 40
0.0990917137
 40
0.1514848853
 40
0.2058841385
 40
0.3207956779
 40
0.4438050447
 40
0.5743485529
 40
0.7114748462
 40
0.7821179599
 40
0.853885682
 40
0.9265734149
 40
1.0
 40
1.0
 40
1.0
 40
1.0
 10
6.0469173614
 20
13.2555613176
 30
0.0
 10
6.0463171168
 20
13.2585505436
 30
0.0
 10
6.0458098239
 20
13.2632100516
 30
0.0
 10
6.0458080802
 20
13.2695472354
 30
0.0
 10
6.0462646304
 20
13.2763584873
 30
0.0
 10
6.0477054454
 20
13.2852578871
 30
0.0
 10
6.050659284
 20
13.2962199921
 30
0.0
 10
6.054794548
 20
13.3075210771
 30
0.0
 10
6.0591078752
 20
13.3170049017
 30
0.0
 10
6.0630503367
 20
13.3246502248
 30
0.0
 10
6.0662623633
 20
13.3304379083
 30
0.0
 10
6.0696724935
 20
13.3362104518
 30
0.0
 10
6.0720555876
 20
13.3400231958
 30
0.0
 10
6.0732756759
 20
13.3419246323
 30
0.0
  0
SPLINE
  5
3DD
100
AcDbEntity
  8
0
100
AcDbSpline
 62
9
  6
CONTINUOUS
 70
0
 71
3
 72
16
 73
12
 74
0
 42
0.0000001
 43
0.0000001
 44
0.0000000001
 40
0.0
 40
0.0
 40
0.0
 40
0.0
 40
0.1248810846
 40
0.2507771694
 40
0.3776176238
 40
0.5052811816
 40
0.5692621603
 40
0.6331409112
 40
0.7596350756
 40
0.8826526669
 40
1.0
 40
1.0
 40
1.0
 40
1.0
 10
6.0230587499
 20
13.3496241257
 30
0.0
 10
6.0208686263
 20
13.346098904
 30
0.0
 10
6.0164083269
 20
13.3390582993
 30
0.0
 10
6.0095099616
 20
13.3285742616
 30
0.0
 10
6.0023501981
 20
13.3181541973
 30
0.0
 10
5.9961167033
 20
13.3095975775
 30
0.0
 10
5.9909149212
 20
13.3028846901
 30
0.0
 10
5.9855890849
 20
13.2963198574
 30
0.0
 10
5.9787369799
 20
13.2884700535
 30
0.0
 10
5.9702483978
 20
13.2797114212
 30
0.0
 10
5.9643826179
 20
13.2742817765
 30
0.0
 10
5.9614431346
 20
13.2717190019
 30
0.0
  0
LINE
  5
3DE
100
AcDbEntity
  8
0
100
AcDbLine
 62
9
  6
CONTINUOUS
 10
6.0536798455
 20
13.4004462938
 11
6.0524918236
 21
13.398413645
  0
SPLINE
  5
3DF
100
AcDbEntity
  8
0
100
AcDbSpline
 62
9
  6
CONTINUOUS
 70
0
 71
3
 72
24
 73
20
 74
0
 42
0.0000001
 43
0.0000001
 44
0.0000000001
 40
0.0
 40
0.0
 40
0.0
 40
0.0
 40
0.0362742875
 40
0.0713208939
 40
0.1061515503
 40
0.1420155495
 40
0.1802549552
 40
0.2222228414
 40
0.269171391
 40
0.3221924724
 40
0.3822053985
 40
0.4500126989
 40
0.5262511666
 40
0.6111293467
 40
0.7035178418
 40
0.8004944616
 40
0.8499224926
 40
0.8997008273
 40
1.0
 40
1.0
 40
1.0
 40
1.0
 10
6.0844835154
 20
13.4839362616
 30
0.0
 10
6.0849581984
 20
13.4838641335
 30
0.0
 10
6.0858832518
 20
13.4836520665
 30
0.0
 10
6.0871821357
 20
13.4830946575
 30
0.0
 10
6.088339739
 20
13.4822902651
 30
0.0
 10
6.0893357015
 20
13.4812337063
 30
0.0
 10
6.0901501441
 20
13.4799196462
 30
0.0
 10
6.0907608216
 20
13.478342127
 30
0.0
 10
6.0911468997
 20
13.476496211
 30
0.0
 10
6.0912863047
 20
13.4743773052
 30
0.0
 10
6.091154165
 20
13.4719822446
 30
0.0
 10
6.090719014
 20
13.4693119628
 30
0.0
 10
6.0899466271
 20
13.4663776175
 30
0.0
 10
6.0888102761
 20
13.4632162491
 30
0.0
 10
6.0873260601
 20
13.4599011614
 30
0.0
 10
6.0859087941
 20
13.4570755419
 30
0.0
 10
6.0847048675
 20
13.4547747762
 30
0.0
 10
6.0834630075
 20
13.4524443011
 30
0.0
 10
6.0825126209
 20
13.4506999086
 30
0.0
 10
6.0818733585
 20
13.4495363807
 30
0.0
  0
SPLINE
  5
3E0
100
AcDbEntity
  8
0
100
AcDbSpline
 62
9
  6
CONTINUOUS
 70
0
 71
3
 72
12
 73
8
 74
0
 42
0.0000001
 43
0.0000001
 44
0.0000000001
 40
0.0
 40
0.0
 40
0.0
 40
0.0
 40
0.1236614814
 40
0.2480517946
 40
0.4979926079
 40
0.7487720876
 40
1.0
 40
1.0
 40
1.0
 40
1.0
 10
6.0818733585
 20
13.4495363807
 30
0.0
 10
6.0807496935
 20
13.4474911868
 30
0.0
 10
6.0784695309
 20
13.4434031516
 30
0.0
 10
6.0738370407
 20
13.4352269368
 30
0.0
 10
6.0679579413
 20
13.4250001759
 30
0.0
 10
6.0608391519
 20
13.4127255046
 30
0.0
 10
6.0560691307
 20
13.4045409648
 30
0.0
 10
6.0536798455
 20
13.4004462938
 30
0.0
  0
SPLINE
  5
3E1
100
AcDbEntity
  8
0
100
AcDbSpline
 62
9
  6
CONTINUOUS
 70
0
 71
3
 72
20
 73
16
 74
0
 42
0.0000001
 43
0.0000001
 44
0.0000000001
 40
0.0
 40
0.0
 40
0.0
 40
0.0
 40
0.0593127978
 40
0.1199632947
 40
0.1815608898
 40
0.2438380561
 40
0.3695516605
 40
0.4958899818
 40
0.5591056431
 40
0.6222758744
 40
0.6853840189
 40
0.7484212788
 40
0.8114044172
 40
0.874340157
 40
1.0
 40
1.0
 40
1.0
 40
1.0
 10
14.7112239145
 20
0.6470755458
 30
0.0
 10
14.710318784
 20
0.6456649101
 30
0.0
 10
14.708395766
 20
0.6428700547
 30
0.0
 10
14.7052321093
 20
0.6388272868
 30
0.0
 10
14.7017722288
 20
0.6349216425
 30
0.0
 10
14.6967756906
 20
0.6299385347
 30
0.0
 10
14.6898985513
 20
0.6242768841
 30
0.0
 10
14.6823319887
 20
0.6195242595
 30
0.0
 10
14.6759378864
 20
0.6163339633
 30
0.0
 10
14.670996081
 20
0.6142617743
 30
0.0
 10
14.6659347402
 20
0.6125176238
 30
0.0
 10
14.6607758417
 20
0.6111080185
 30
0.0
 10
14.6555427563
 20
0.610028766
 30
0.0
 10
14.6485011267
 20
0.609027712
 30
0.0
 10
14.643164404
 20
0.608748747
 30
0.0
 10
14.6396135249
 20
0.6087487439
 30
0.0
  0
SPLINE
  5
3E2
100
AcDbEntity
  8
0
100
AcDbSpline
 62
9
  6
CONTINUOUS
 70
0
 71
3
 72
22
 73
18
 74
0
 42
0.0000001
 43
0.0000001
 44
0.0000000001
 40
0.0
 40
0.0
 40
0.0
 40
0.0
 40
0.0609480954
 40
0.1219423973
 40
0.1829902787
 40
0.2441043329
 40
0.3053028595
 40
0.3666149023
 40
0.4280864407
 40
0.4897832066
 40
0.5517863831
 40
0.6141868528
 40
0.6770615483
 40
0.7404750276
 40
0.804471262
 40
0.8690707218
 40
1.0
 40
1.0
 40
1.0
 40
1.0
 10
6.5838035862
 20
13.2655661182
 30
0.0
 10
6.5835432866
 20
13.2635607777
 30
0.0
 10
6.5829706284
 20
13.2595551308
 30
0.0
 10
6.5819613917
 20
13.253567662
 30
0.0
 10
6.5807999562
 20
13.2476021436
 30
0.0
 10
6.579477127
 20
13.241663269
 30
0.0
 10
6.5779749434
 20
13.2357579126
 30
0.0
 10
6.5762644085
 20
13.2298967101
 30
0.0
 10
6.5743024871
 20
13.2240965265
 30
0.0
 10
6.5720320299
 20
13.2183841765
 30
0.0
 10
6.5694005868
 20
13.212793531
 30
0.0
 10
6.5663691939
 20
13.2073634177
 30
0.0
 10
6.5629204378
 20
13.2021315638
 30
0.0
 10
6.55905489
 20
13.1971324921
 30
0.0
 10
6.5547840372
 20
13.1923968765
 30
0.0
 10
6.5485535696
 20
13.1864453587
 30
0.0
 10
6.543374912
 20
13.1824895851
 30
0.0
 10
6.5397490752
 20
13.1800971143
 30
0.0
  0
SPLINE
  5
3E3
100
AcDbEntity
  8
0
100
AcDbSpline
 62
9
  6
CONTINUOUS
 70
0
 71
3
 72
11
 73
7
 74
0
 42
0.0000001
 43
0.0000001
 44
0.0000000001
 40
0.0
 40
0.0
 40
0.0
 40
0.0
 40
0.249846954
 40
0.4998023897
 40
0.749854702
 40
1.0
 40
1.0
 40
1.0
 40
1.0
 10
6.5890131513
 20
13.3184740906
 30
0.0
 10
6.5887441033
 20
13.3140538925
 30
0.0
 10
6.5880994948
 20
13.3052178817
 30
0.0
 10
6.5868836828
 20
13.291982328
 30
0.0
 10
6.5854552116
 20
13.278762788
 30
0.0
 10
6.5843742953
 20
13.2699629001
 30
0.0
 10
6.5838035862
 20
13.2655661182
 30
0.0
  0
SPLINE
  5
3E4
100
AcDbEntity
  8
0
100
AcDbSpline
 62
9
  6
CONTINUOUS
 70
0
 71
3
 72
29
 73
25
 74
0
 42
0.0000001
 43
0.0000001
 44
0.0000000001
 40
0.0
 40
0.0
 40
0.0
 40
0.0
 40
0.0671396401
 40
0.1336954449
 40
0.1994926782
 40
0.2643081387
 40
0.2963114283
 40
0.3279924145
 40
0.3593336654
 40
0.3903363167
 40
0.4210429373
 40
0.4515631274
 40
0.4820167459
 40
0.4972391873
 40
0.5124597854
 40
0.5429016788
 40
0.5733486827
 40
0.6038013699
 40
0.634258831
 40
0.6951865968
 40
0.7561290983
 40
0.8170834787
 40
0.8780477236
 40
1.0
 40
1.0
 40
1.0
 40
1.0
 10
6.5510752764
 20
13.4124900163
 30
0.0
 10
6.5536633974
 20
13.4120947789
 30
0.0
 10
6.5587828341
 20
13.4110491156
 30
0.0
 10
6.5661940892
 20
13.4086243994
 30
0.0
 10
6.5731570637
 20
13.4053090269
 30
0.0
 10
6.5784333243
 20
13.4017332777
 30
0.0
 10
6.582167354
 20
13.3983815922
 30
0.0
 10
6.584668496
 20
13.3956379344
 30
0.0
 10
6.5868233174
 20
13.392660577
 30
0.0
 10
6.588561308
 20
13.3894623878
 30
0.0
 10
6.5898050087
 20
13.3860724207
 30
0.0
 10
6.5905251556
 20
13.3825608108
 30
0.0
 10
6.590840813
 20
13.3796039898
 30
0.0
 10
6.5909950482
 20
13.3772342406
 30
0.0
 10
6.5911059545
 20
13.3748624822
 30
0.0
 10
6.5911755724
 20
13.3718950448
 30
0.0
 10
6.5911905159
 20
13.3683330655
 30
0.0
 10
6.5911554496
 20
13.3647706547
 30
0.0
 10
6.5910609975
 20
13.3600204412
 30
0.0
 10
6.5908729656
 20
13.3540831765
 30
0.0
 10
6.5905764419
 20
13.3469599938
 30
0.0
 10
6.5902306274
 20
13.3398376282
 30
0.0
 10
6.5897220844
 20
13.3303414083
 30
0.0
 10
6.5893020456
 20
13.3232208647
 30
0.0
 10
6.5890131513
 20
13.3184740906
 30
0.0
  0
LINE
  5
3E5
100
AcDbEntity
  8
0
100
AcDbLine
 62
9
  6
CONTINUOUS
 10
13.7549425856
 20
0.87349493
 11
13.7541549407
 21
0.8717446077
  0
LINE
  5
3E6
100
AcDbEntity
  8
0
100
AcDbLine
 62
9
  6
CONTINUOUS
 10
13.7541549407
 20
0.8717446077
 11
13.672926401
 21
0.6912160665
  0
SPLINE
  5
3E7
100
AcDbEntity
  8
0
100
AcDbSpline
 62
9
  6
CONTINUOUS
 70
0
 71
3
 72
14
 73
10
 74
0
 42
0.0000001
 43
0.0000001
 44
0.0000000001
 40
0.0
 40
0.0
 40
0.0
 40
0.0
 40
0.2599387975
 40
0.3881883399
 40
0.5149908535
 40
0.6400282058
 40
0.7629113506
 40
0.883118068
 40
1.0
 40
1.0
 40
1.0
 40
1.0
 10
6.0658850855
 20
13.4248248672
 30
0.0
 10
6.0669658463
 20
13.4292768774
 30
0.0
 10
6.0686418717
 20
13.4359108019
 30
0.0
 10
6.0710252087
 20
13.4446690162
 30
0.0
 10
6.0728734261
 20
13.4511081979
 30
0.0
 10
6.0747978329
 20
13.4574262847
 30
0.0
 10
6.0768054874
 20
13.4635964466
 30
0.0
 10
6.0789065816
 20
13.4695834223
 30
0.0
 10
6.0803999604
 20
13.4734869178
 30
0.0
 10
6.0811695709
 20
13.4753977508
 30
0.0
  0
SPLINE
  5
3E8
100
AcDbEntity
  8
0
100
AcDbSpline
 62
9
  6
CONTINUOUS
 70
0
 71
3
 72
15
 73
11
 74
0
 42
0.0000001
 43
0.0000001
 44
0.0000000001
 40
0.0
 40
0.0
 40
0.0
 40
0.0
 40
0.1275192323
 40
0.2547022652
 40
0.3812645481
 40
0.506967753
 40
0.6316717169
 40
0.7553429991
 40
0.8780536199
 40
1.0
 40
1.0
 40
1.0
 40
1.0
 10
5.9206230793
 20
13.2402510893
 30
0.0
 10
5.9207901903
 20
13.2413424398
 30
0.0
 10
5.9212967669
 20
13.2434998191
 30
0.0
 10
5.9225528157
 20
13.2465667899
 30
0.0
 10
5.9242711529
 20
13.2493835437
 30
0.0
 10
5.9264052959
 20
13.2518718681
 30
0.0
 10
5.9288971964
 20
13.2539636554
 30
0.0
 10
5.9316794011
 20
13.2556008866
 30
0.0
 10
5.9346745559
 20
13.2567379914
 30
0.0
 10
5.9367665439
 20
13.2571424769
 30
0.0
 10
5.937816645
 20
13.2572522252
 30
0.0
  0
SPLINE
  5
3E9
100
AcDbEntity
  8
0
100
AcDbSpline
 62
9
  6
CONTINUOUS
 70
0
 71
3
 72
13
 73
9
 74
0
 42
0.0000001
 43
0.0000001
 44
0.0000000001
 40
0.0
 40
0.0
 40
0.0
 40
0.0
 40
0.2502826513
 40
0.5003907275
 40
0.6253919683
 40
0.7503325764
 40
0.8752088195
 40
1.0
 40
1.0
 40
1.0
 40
1.0
 10
6.5146127459
 20
13.3439963883
 30
0.0
 10
6.516741103
 20
13.3493849549
 30
0.0
 10
6.5212903712
 20
13.3600454974
 30
0.0
 10
6.5278515529
 20
13.3729669849
 30
0.0
 10
6.5337340671
 20
13.3829403411
 30
0.0
 10
6.5384986443
 20
13.3901963932
 30
0.0
 10
6.5436630152
 20
13.3971686683
 30
0.0
 10
6.5474081838
 20
13.4015782938
 30
0.0
 10
6.5493615355
 20
13.4037064765
 30
0.0
  0
SPLINE
  5
3EA
100
AcDbEntity
  8
0
100
AcDbSpline
 62
9
  6
CONTINUOUS
 70
0
 71
3
 72
14
 73
10
 74
0
 42
0.0000001
 43
0.0000001
 44
0.0000000001
 40
0.0
 40
0.0
 40
0.0
 40
0.0
 40
0.1198797391
 40
0.2419135679
 40
0.365620373
 40
0.4906893469
 40
0.616846636
 40
0.7438902148
 40
1.0
 40
1.0
 40
1.0
 40
1.0
 10
6.1906372785
 20
13.4586323012
 30
0.0
 10
6.191338682
 20
13.4560469852
 30
0.0
 10
6.1926188423
 20
13.4507927554
 30
0.0
 10
6.194235337
 20
13.4427826738
 30
0.0
 10
6.1955960882
 20
13.4346077313
 30
0.0
 10
6.1967201005
 20
13.4263043011
 30
0.0
 10
6.1976323782
 20
13.4179001296
 30
0.0
 10
6.1985924793
 20
13.4065591276
 30
0.0
 10
6.1990414848
 20
13.3980063041
 30
0.0
 10
6.1992430631
 20
13.3922869532
 30
0.0
  0
SPLINE
  5
3EB
100
AcDbEntity
  8
0
100
AcDbSpline
 62
9
  6
CONTINUOUS
 70
0
 71
3
 72
15
 73
11
 74
0
 42
0.0000001
 43
0.0000001
 44
0.0000000001
 40
0.0
 40
0.0
 40
0.0
 40
0.0
 40
0.2441363453
 40
0.3682518876
 40
0.4934322064
 40
0.619441993
 40
0.7460392365
 40
0.809484372
 40
0.8729863201
 40
1.0
 40
1.0
 40
1.0
 40
1.0
 10
6.493398871
 20
13.2575529344
 30
0.0
 10
6.4949029401
 20
13.2646406541
 30
0.0
 10
6.4972122262
 20
13.2753232328
 30
0.0
 10
6.5004376784
 20
13.2896079308
 30
0.0
 10
6.5029706198
 20
13.3004546707
 30
0.0
 10
6.5056245487
 20
13.311348346
 30
0.0
 10
6.5079562907
 20
13.3204341179
 30
0.0
 10
6.5099078812
 20
13.3277014818
 30
0.0
 10
6.5119216165
 20
13.3349646491
 30
0.0
 10
6.5135097148
 20
13.3403918324
 30
0.0
 10
6.5146127459
 20
13.3439963883
 30
0.0
  0
SPLINE
  5
3EC
100
AcDbEntity
  8
0
100
AcDbSpline
 62
9
  6
CONTINUOUS
 70
0
 71
3
 72
14
 73
10
 74
0
 42
0.0000001
 43
0.0000001
 44
0.0000000001
 40
0.0
 40
0.0
 40
0.0
 40
0.0
 40
0.1258423328
 40
0.2515507407
 40
0.377053583
 40
0.5023194246
 40
0.627299306
 40
0.7519419973
 40
1.0
 40
1.0
 40
1.0
 40
1.0
 10
6.1992430631
 20
13.3922869532
 30
0.0
 10
6.1990589514
 20
13.3885439341
 30
0.0
 10
6.1985094028
 20
13.3810696852
 30
0.0
 10
6.1971702766
 20
13.3699176677
 30
0.0
 10
6.1953381462
 20
13.3588532244
 30
0.0
 10
6.1930260762
 20
13.3479015158
 30
0.0
 10
6.1902533258
 20
13.3370835283
 30
0.0
 10
6.185973287
 20
13.3228911786
 30
0.0
 10
6.1821060322
 20
13.3124699166
 30
0.0
 10
6.1792526562
 20
13.3056561574
 30
0.0
  0
SPLINE
  5
3ED
100
AcDbEntity
  8
0
100
AcDbSpline
 62
9
  6
CONTINUOUS
 70
0
 71
3
 72
23
 73
19
 74
0
 42
0.0000001
 43
0.0000001
 44
0.0000000001
 40
0.0
 40
0.0
 40
0.0
 40
0.0
 40
0.070113008
 40
0.1394721733
 40
0.2079523595
 40
0.2754959373
 40
0.3420164062
 40
0.4074309185
 40
0.4717136703
 40
0.5348371462
 40
0.596771011
 40
0.6575211537
 40
0.7171170719
 40
0.7756048873
 40
0.8330356541
 40
0.8894918005
 40
0.9451176297
 40
1.0
 40
1.0
 40
1.0
 40
1.0
 10
6.1792526562
 20
13.3056561574
 30
0.0
 10
6.1782481423
 20
13.3032287865
 30
0.0
 10
6.176131105
 20
13.2984483256
 30
0.0
 10
6.1726300362
 20
13.2914842825
 30
0.0
 10
6.1688331315
 20
13.2847869396
 30
0.0
 10
6.1647457618
 20
13.2783884712
 30
0.0
 10
6.1603897022
 20
13.2723106061
 30
0.0
 10
6.1557859869
 20
13.2665736358
 30
0.0
 10
6.1509454122
 20
13.2612048049
 30
0.0
 10
6.1458869329
 20
13.2562247454
 30
0.0
 10
6.1406325773
 20
13.2516506229
 30
0.0
 10
6.1352016595
 20
13.2475013877
 30
0.0
 10
6.1296141519
 20
13.2437937348
 30
0.0
 10
6.1238912922
 20
13.2405430035
 30
0.0
 10
6.1180564134
 20
13.2377607838
 30
0.0
 10
6.1121308476
 20
13.2354573892
 30
0.0
 10
6.1061366171
 20
13.2336460385
 30
0.0
 10
6.1020857085
 20
13.2327642756
 30
0.0
 10
6.1000603326
 20
13.2324087409
 30
0.0
  0
SPLINE
  5
3EE
100
AcDbEntity
  8
0
100
AcDbSpline
 62
9
  6
CONTINUOUS
 70
0
 71
3
 72
19
 73
15
 74
0
 42
0.0000001
 43
0.0000001
 44
0.0000000001
 40
0.0
 40
0.0
 40
0.0
 40
0.0
 40
0.0267639129
 40
0.0591586164
 40
0.0970643589
 40
0.1403397921
 40
0.1888294666
 40
0.2423535575
 40
0.3006948731
 40
0.3636281757
 40
0.5022949677
 40
0.656203764
 40
0.8229665492
 40
1.0
 40
1.0
 40
1.0
 40
1.0
 10
6.4692039177
 20
13.1758842531
 30
0.0
 10
6.4695347542
 20
13.176569541
 30
0.0
 10
6.470232445
 20
13.1781004889
 30
0.0
 10
6.4713080305
 20
13.1806422764
 30
0.0
 10
6.4725014994
 20
13.1836431665
 30
0.0
 10
6.4737969185
 20
13.1870951785
 30
0.0
 10
6.4751865754
 20
13.1909855235
 30
0.0
 10
6.4766616651
 20
13.1952997737
 30
0.0
 10
6.4782035122
 20
13.2000247117
 30
0.0
 10
6.4804062095
 20
13.2070798172
 30
0.0
 10
6.4832503282
 20
13.2167804366
 30
0.0
 10
6.486658431
 20
13.2293889801
 30
0.0
 10
6.4900949858
 20
13.243117196
 30
0.0
 10
6.4923003811
 20
13.2526407372
 30
0.0
 10
6.493398871
 20
13.2575529344
 30
0.0
  0
SPLINE
  5
3EF
100
AcDbEntity
  8
0
100
AcDbSpline
 62
9
  6
CONTINUOUS
 70
0
 71
3
 72
9
 73
5
 74
0
 42
0.0000001
 43
0.0000001
 44
0.0000000001
 40
0.0
 40
0.0
 40
0.0
 40
0.0
 40
0.4943953072
 40
1.0
 40
1.0
 40
1.0
 40
1.0
 10
6.1935745311
 20
13.4672318443
 30
0.0
 10
6.1928345928
 20
13.4659229661
 30
0.0
 10
6.1915935827
 20
13.463124902
 30
0.0
 10
6.1908701102
 20
13.4601530141
 30
0.0
 10
6.1906374669
 20
13.4586330726
 30
0.0
  0
SPLINE
  5
3F0
100
AcDbEntity
  8
0
100
AcDbSpline
 62
9
  6
CONTINUOUS
 70
0
 71
3
 72
18
 73
14
 74
0
 42
0.0000001
 43
0.0000001
 44
0.0000000001
 40
0.0
 40
0.0
 40
0.0
 40
0.0
 40
0.1662415936
 40
0.3281118369
 40
0.4814002889
 40
0.622146708
 40
0.7468236875
 40
0.8021995091
 40
0.8525164667
 40
0.897540915
 40
0.9371268728
 40
0.971240565
 40
1.0
 40
1.0
 40
1.0
 40
1.0
 10
6.4631615056
 20
13.1571756115
 30
0.0
 10
6.4633281205
 20
13.1582637314
 30
0.0
 10
6.4636934761
 20
13.1604059665
 30
0.0
 10
6.4643387341
 20
13.1635283239
 30
0.0
 10
6.4650607514
 20
13.1664604526
 30
0.0
 10
6.4658394403
 20
13.1691223772
 30
0.0
 10
6.4665418723
 20
13.1711287325
 30
0.0
 10
6.4671235884
 20
13.172539285
 30
0.0
 10
6.4675429661
 20
13.1734453041
 30
0.0
 10
6.4679598402
 20
13.1742360628
 30
0.0
 10
6.4683715258
 20
13.174906733
 30
0.0
 10
6.4687752729
 20
13.1754530631
 30
0.0
 10
6.4690613383
 20
13.1757579729
 30
0.0
 10
6.4692038788
 20
13.175884259
 30
0.0
  0
SPLINE
  5
3F1
100
AcDbEntity
  8
0
100
AcDbSpline
 62
9
  6
CONTINUOUS
 70
0
 71
3
 72
14
 73
10
 74
0
 42
0.0000001
 43
0.0000001
 44
0.0000000001
 40
0.0
 40
0.0
 40
0.0
 40
0.0
 40
0.2564378212
 40
0.3836657846
 40
0.5099894982
 40
0.6351767038
 40
0.7589005619
 40
0.8807131027
 40
1.0
 40
1.0
 40
1.0
 40
1.0
 10
7.0948252745
 20
13.2551521136
 30
0.0
 10
7.0965487161
 20
13.2605810293
 30
0.0
 10
7.0992774296
 20
13.2686575968
 30
0.0
 10
7.1032666948
 20
13.2792605413
 30
0.0
 10
7.1064290649
 20
13.2870570922
 30
0.0
 10
7.1097832545
 20
13.29468834
 30
0.0
 10
7.1133445472
 20
13.3021147981
 30
0.0
 10
7.1171347555
 20
13.3092796832
 30
0.0
 10
7.119862226
 20
13.3138916764
 30
0.0
 10
7.1212753607
 20
13.3161329297
 30
0.0
  0
SPLINE
  5
3F2
100
AcDbEntity
  8
0
100
AcDbSpline
 62
9
  6
CONTINUOUS
 70
0
 71
3
 72
14
 73
10
 74
0
 42
0.0000001
 43
0.0000001
 44
0.0000000001
 40
0.0
 40
0.0
 40
0.0
 40
0.0
 40
0.1247894434
 40
0.1872264929
 40
0.2496725115
 40
0.3745997599
 40
0.4995925269
 40
0.7497008122
 40
1.0
 40
1.0
 40
1.0
 40
1.0
 10
6.765563041
 20
13.3705975555
 30
0.0
 10
6.7667967201
 20
13.3679568185
 30
0.0
 10
6.7685117869
 20
13.3639300879
 30
0.0
 10
6.7705695241
 20
13.3584732659
 30
0.0
 10
6.7724874914
 20
13.3529620533
 30
0.0
 10
6.7746320846
 20
13.3459854342
 30
0.0
 10
6.7775761651
 20
13.3346805371
 30
0.0
 10
6.7804470514
 20
13.3203450968
 30
0.0
 10
6.7820337464
 20
13.3087588578
 30
0.0
 10
6.7826817982
 20
13.3029486698
 30
0.0
  0
SPLINE
  5
3F3
100
AcDbEntity
  8
0
100
AcDbSpline
 62
9
  6
CONTINUOUS
 70
0
 71
3
 72
14
 73
10
 74
0
 42
0.0000001
 43
0.0000001
 44
0.0000000001
 40
0.0
 40
0.0
 40
0.0
 40
0.0
 40
0.2483042352
 40
0.3730186784
 40
0.498030119
 40
0.623283843
 40
0.7487270408
 40
0.8743253427
 40
1.0
 40
1.0
 40
1.0
 40
1.0
 10
7.0888437839
 20
13.166376221
 30
0.0
 10
7.0880777785
 20
13.1737382853
 30
0.0
 10
7.0873749562
 20
13.1848520664
 30
0.0
 10
7.0873632093
 20
13.1997010439
 30
0.0
 10
7.0878269847
 20
13.2108730408
 30
0.0
 10
7.0887787784
 20
13.2220357868
 30
0.0
 10
7.0902370198
 20
13.2331617995
 30
0.0
 10
7.0922137081
 20
13.2442201774
 30
0.0
 10
7.0938912959
 20
13.2515241153
 30
0.0
 10
7.0948252745
 20
13.2551521136
 30
0.0
  0
SPLINE
  5
3F4
100
AcDbEntity
  8
0
100
AcDbSpline
 62
9
  6
CONTINUOUS
 70
0
 71
3
 72
14
 73
10
 74
0
 42
0.0000001
 43
0.0000001
 44
0.0000000001
 40
0.0
 40
0.0
 40
0.0
 40
0.0
 40
0.1269310398
 40
0.2538148843
 40
0.3803768653
 40
0.5063789842
 40
0.6315779361
 40
0.7557348288
 40
1.0
 40
1.0
 40
1.0
 40
1.0
 10
6.7826817982
 20
13.3029486698
 30
0.0
 10
6.782657949
 20
13.2991774946
 30
0.0
 10
6.7825405569
 20
13.2916369003
 30
0.0
 10
6.7822034665
 20
13.2803402831
 30
0.0
 10
6.7817388822
 20
13.2690758542
 30
0.0
 10
6.7811647064
 20
13.2578666753
 30
0.0
 10
6.7805053873
 20
13.2467338198
 30
0.0
 10
6.7795453752
 20
13.2320992187
 30
0.0
 10
6.7787379524
 20
13.2211826148
 30
0.0
 10
6.7781730403
 20
13.213947267
 30
0.0
  0
SPLINE
  5
3F5
100
AcDbEntity
  8
0
100
AcDbSpline
 62
9
  6
CONTINUOUS
 70
0
 71
3
 72
23
 73
19
 74
0
 42
0.0000001
 43
0.0000001
 44
0.0000000001
 40
0.0
 40
0.0
 40
0.0
 40
0.0
 40
0.0870309316
 40
0.1720048502
 40
0.2545870606
 40
0.3344778081
 40
0.4114011816
 40
0.485094665
 40
0.5552904266
 40
0.6217505511
 40
0.6842701155
 40
0.7426584897
 40
0.7967491356
 40
0.8464112945
 40
0.8915683108
 40
0.932189991
 40
0.9682845124
 40
1.0
 40
1.0
 40
1.0
 40
1.0
 10
6.7781730403
 20
13.213947267
 30
0.0
 10
6.7779907046
 20
13.21140874
 30
0.0
 10
6.7776645733
 20
13.2063891238
 30
0.0
 10
6.7773028796
 20
13.198952597
 30
0.0
 10
6.7770786151
 20
13.1917195767
 30
0.0
 10
6.7769759065
 20
13.1847192703
 30
0.0
 10
6.777004173
 20
13.1779780511
 30
0.0
 10
6.7771726607
 20
13.171522452
 30
0.0
 10
6.7774671709
 20
13.1653776938
 30
0.0
 10
6.7778861635
 20
13.1595675819
 30
0.0
 10
6.7784341689
 20
13.154114989
 30
0.0
 10
6.7791062363
 20
13.1490408166
 30
0.0
 10
6.7798979127
 20
13.1443646491
 30
0.0
 10
6.7808045273
 20
13.1401039097
 30
0.0
 10
6.7818246506
 20
13.1362746835
 30
0.0
 10
6.7829563674
 20
13.1328921153
 30
0.0
 10
6.7841859119
 20
13.1299658977
 30
0.0
 10
6.7851297826
 20
13.1282159665
 30
0.0
 10
6.7856259926
 20
13.1274324075
 30
0.0
  0
SPLINE
  5
3F6
100
AcDbEntity
  8
0
100
AcDbSpline
 62
9
  6
CONTINUOUS
 70
0
 71
3
 72
20
 73
16
 74
0
 42
0.0000001
 43
0.0000001
 44
0.0000000001
 40
0.0
 40
0.0
 40
0.0
 40
0.0
 40
0.0583257381
 40
0.1168332119
 40
0.1756277992
 40
0.2348462123
 40
0.2945845249
 40
0.3549257947
 40
0.4776861884
 40
0.5402612955
 40
0.6036461443
 40
0.6678476133
 40
0.7328510201
 40
0.8650761459
 40
1.0
 40
1.0
 40
1.0
 40
1.0
 10
7.1485484977
 20
13.0718605143
 30
0.0
 10
7.1464947543
 20
13.0728332401
 30
0.0
 10
7.1424522356
 20
13.0749366458
 30
0.0
 10
7.1366291303
 20
13.0785416891
 30
0.0
 10
7.1310602932
 20
13.0825882451
 30
0.0
 10
7.1257642009
 20
13.0870598447
 30
0.0
 10
7.1207584238
 20
13.0919413431
 30
0.0
 10
7.114461741
 20
13.0990112776
 30
0.0
 10
7.1088428696
 20
13.1068021554
 30
0.0
 10
7.1039559482
 20
13.1151754776
 30
0.0
 10
7.1006271338
 20
13.1218002074
 30
0.0
 10
7.0976701899
 20
13.1287015231
 30
0.0
 10
7.0942180605
 20
13.1382898412
 30
0.0
 10
7.0909001841
 20
13.1508281684
 30
0.0
 10
7.0893505057
 20
13.1611438691
 30
0.0
 10
7.0888437839
 20
13.166376221
 30
0.0
  0
SPLINE
  5
3F7
100
AcDbEntity
  8
0
100
AcDbSpline
 62
9
  6
CONTINUOUS
 70
0
 71
3
 72
9
 73
5
 74
0
 42
0.0000001
 43
0.0000001
 44
0.0000000001
 40
0.0
 40
0.0
 40
0.0
 40
0.0
 40
0.4867578229
 40
1.0
 40
1.0
 40
1.0
 40
1.0
 10
6.7665309817
 20
13.3794986469
 30
0.0
 10
6.7664441241
 20
13.3780482607
 30
0.0
 10
6.7661847573
 20
13.3750731904
 30
0.0
 10
6.7657950127
 20
13.3721127333
 30
0.0
 10
6.7655632644
 20
13.3705983216
 30
0.0
  0
SPLINE
  5
3F8
100
AcDbEntity
  8
0
100
AcDbSpline
 62
9
  6
CONTINUOUS
 70
0
 71
3
 72
14
 73
10
 74
0
 42
0.0000001
 43
0.0000001
 44
0.0000000001
 40
0.0
 40
0.0
 40
0.0
 40
0.0
 40
0.2752646096
 40
0.4090887057
 40
0.5383692237
 40
0.6621882172
 40
0.7801389351
 40
0.8924347887
 40
1.0
 40
1.0
 40
1.0
 40
1.0
 10
7.1567621281
 20
13.0509689351
 30
0.0
 10
7.1570932659
 20
13.0531315044
 30
0.0
 10
7.1571961997
 20
13.0564265079
 30
0.0
 10
7.1565022752
 20
13.0606579588
 30
0.0
 10
7.1555931137
 20
13.0636071929
 30
0.0
 10
7.154313652
 20
13.0662770725
 30
0.0
 10
7.1526951326
 20
13.0685961573
 30
0.0
 10
7.1507794214
 20
13.0704987148
 30
0.0
 10
7.1493087633
 20
13.0714695716
 30
0.0
 10
7.1485484712
 20
13.0718605184
 30
0.0
  0
SPLINE
  5
3F9
100
AcDbEntity
  8
0
100
AcDbSpline
 62
9
  6
CONTINUOUS
 70
0
 71
3
 72
14
 73
10
 74
0
 42
0.0000001
 43
0.0000001
 44
0.0000000001
 40
0.0
 40
0.0
 40
0.0
 40
0.0
 40
0.1170089601
 40
0.2372707336
 40
0.3601141883
 40
0.4851083863
 40
0.6118696637
 40
0.7400907892
 40
1.0
 40
1.0
 40
1.0
 40
1.0
 10
7.228008657
 20
13.2997861832
 30
0.0
 10
7.2281760146
 20
13.297386309
 30
0.0
 10
7.2284306531
 20
13.2925137731
 30
0.0
 10
7.2286226381
 20
13.2851117211
 30
0.0
 10
7.2286554702
 20
13.2775431553
 30
0.0
 10
7.2285477891
 20
13.269841807
 30
0.0
 10
7.2283179092
 20
13.2620326023
 30
0.0
 10
7.2278659475
 20
13.2514558675
 30
0.0
 10
7.2273869166
 20
13.2434895618
 30
0.0
 10
7.22701955
 20
13.2381584749
 30
0.0
  0
SPLINE
  5
3FA
100
AcDbEntity
  8
0
100
AcDbSpline
 62
9
  6
CONTINUOUS
 70
0
 71
3
 72
21
 73
17
 74
0
 42
0.0000001
 43
0.0000001
 44
0.0000000001
 40
0.0
 40
0.0
 40
0.0
 40
0.0
 40
0.1793978371
 40
0.2644846773
 40
0.345801451
 40
0.4229535134
 40
0.4956906972
 40
0.5638394995
 40
0.6273447091
 40
0.6862531968
 40
0.7407353605
 40
0.8376678153
 40
0.8812273314
 40
0.9223328266
 40
0.961699418
 40
1.0
 40
1.0
 40
1.0
 40
1.0
 10
13.6457228559
 20
0.6470755458
 30
0.0
 10
13.6437182871
 20
0.6443647586
 30
0.0
 10
13.6408168706
 20
0.6403285275
 30
0.0
 10
13.6370552345
 20
0.6350292547
 30
0.0
 10
13.6343953071
 20
0.6313042503
 30
0.0
 10
13.6318331661
 20
0.6277947757
 30
0.0
 10
13.6293574544
 20
0.6245292014
 30
0.0
 10
13.6269536487
 20
0.6215322735
 30
0.0
 10
13.6246092748
 20
0.618823774
 30
0.0
 10
13.6223088506
 20
0.6164204555
 30
0.0
 10
13.6193988209
 20
0.6137447758
 30
0.0
 10
13.6164166201
 20
0.6115697701
 30
0.0
 10
13.6133500395
 20
0.6100548817
 30
0.0
 10
13.6111411485
 20
0.6092895494
 30
0.0
 10
13.6089471817
 20
0.6088450484
 30
0.0
 10
13.6074857209
 20
0.6087487455
 30
0.0
 10
13.6067659328
 20
0.6087487439
 30
0.0
  0
LINE
  5
3FB
100
AcDbEntity
  8
0
100
AcDbLine
 62
9
  6
CONTINUOUS
 10
7.3008009629
 20
13.0491029881
 11
7.3010324551
 21
13.0489985496
  0
SPLINE
  5
3FC
100
AcDbEntity
  8
0
100
AcDbSpline
 62
9
  6
CONTINUOUS
 70
0
 71
3
 72
22
 73
18
 74
0
 42
0.0000001
 43
0.0000001
 44
0.0000000001
 40
0.0
 40
0.0
 40
0.0
 40
0.0
 40
0.0591214237
 40
0.1179796158
 40
0.1473696299
 40
0.1767780127
 40
0.2357345991
 40
0.2950432365
 40
0.3549132286
 40
0.4154695442
 40
0.4768118598
 40
0.6019318005
 40
0.7306334202
 40
0.7964572771
 40
0.8632523291
 40
0.9310949398
 40
1.0
 40
1.0
 40
1.0
 40
1.0
 10
13.768252005
 20
0.6087487439
 30
0.0
 10
13.767004657
 20
0.6087487448
 30
0.0
 10
13.7645147652
 20
0.6088162903
 30
0.0
 10
13.7614163585
 20
0.6091098793
 30
0.0
 10
13.7589629697
 20
0.6094923762
 30
0.0
 10
13.7565264957
 20
0.6099814574
 30
0.0
 10
13.7535154537
 20
0.6107998904
 30
0.0
 10
13.7499904487
 20
0.6121192357
 30
0.0
 10
13.7465774724
 20
0.6137853094
 30
0.0
 10
13.7433043227
 20
0.6157956737
 30
0.0
 10
13.7391444585
 20
0.6189467893
 30
0.0
 10
13.7344621892
 20
0.6237327857
 30
0.0
 10
13.7307750592
 20
0.6294397815
 30
0.0
 10
13.7285346611
 20
0.6344869501
 30
0.0
 10
13.7272404058
 20
0.6385227073
 30
0.0
 10
13.7263881256
 20
0.6427402782
 30
0.0
 10
13.7261400274
 20
0.6456223409
 30
0.0
 10
13.7260997152
 20
0.6470755458
 30
0.0
  0
SPLINE
  5
3FD
100
AcDbEntity
  8
0
100
AcDbSpline
 62
9
  6
CONTINUOUS
 70
0
 71
3
 72
9
 73
5
 74
0
 42
0.0000001
 43
0.0000001
 44
0.0000000001
 40
0.0
 40
0.0
 40
0.0
 40
0.0
 40
0.4985798777
 40
1.0
 40
1.0
 40
1.0
 40
1.0
 10
7.227393263
 20
13.3089297206
 30
0.0
 10
7.227829703
 20
13.3074610218
 30
0.0
 10
7.2283758476
 20
13.3044079406
 30
0.0
 10
7.2282419942
 20
13.3013101161
 30
0.0
 10
7.2280088117
 20
13.2997869598
 30
0.0
  0
LINE
  5
3FE
100
AcDbEntity
  8
0
100
AcDbLine
 62
9
  6
CONTINUOUS
 10
13.7879366284
 20
0.9493357693
 11
13.7870122839
 21
0.9471252934
  0
SPLINE
  5
3FF
100
AcDbEntity
  8
0
100
AcDbSpline
 62
9
  6
CONTINUOUS
 70
0
 71
3
 72
10
 73
6
 74
0
 42
0.0000001
 43
0.0000001
 44
0.0000000001
 40
0.0
 40
0.0
 40
0.0
 40
0.0
 40
0.2485866715
 40
0.4982243041
 40
1.0
 40
1.0
 40
1.0
 40
1.0
 10
13.7870122839
 20
0.9471252934
 30
0.0
 10
13.7844415309
 20
0.9409869503
 30
0.0
 10
13.7792339018
 20
0.9287074069
 30
0.0
 10
13.7686089436
 20
0.9041349529
 30
0.0
 10
13.7604550365
 20
0.8857448271
 30
0.0
 10
13.7549425856
 20
0.87349493
 30
0.0
  0
LINE
  5
400
100
AcDbEntity
  8
0
100
AcDbLine
 62
9
  6
CONTINUOUS
 10
7.347300759
 20
12.9022990606
 11
7.3374204503
 21
12.9019165587
  0
SPLINE
  5
401
100
AcDbEntity
  8
0
100
AcDbSpline
 62
9
  6
CONTINUOUS
 70
0
 71
3
 72
28
 73
24
 74
0
 42
0.0000001
 43
0.0000001
 44
0.0000000001
 40
0.0
 40
0.0
 40
0.0
 40
0.0
 40
0.0416628358
 40
0.0808713662
 40
0.1182076664
 40
0.1545528739
 40
0.1910618348
 40
0.2291441782
 40
0.2704603742
 40
0.3164870814
 40
0.3685844457
 40
0.4282861462
 40
0.461600203
 40
0.4976211431
 40
0.5368655195
 40
0.5801644467
 40
0.628228012
 40
0.6798501736
 40
0.7328412336
 40
0.7861960595
 40
0.8396427266
 40
0.8931085453
 40
1.0
 40
1.0
 40
1.0
 40
1.0
 10
13.8123076675
 20
1.0630167371
 30
0.0
 10
13.8129616992
 20
1.0631408018
 30
0.0
 10
13.8142456991
 20
1.0633160391
 30
0.0
 10
13.8161417856
 20
1.0633089208
 30
0.0
 10
13.81792837
 20
1.0629960523
 30
0.0
 10
13.8195834322
 20
1.0623616299
 30
0.0
 10
13.8210837342
 20
1.061393585
 30
0.0
 10
13.822404432
 20
1.0600753509
 30
0.0
 10
13.8235021404
 20
1.0583826315
 30
0.0
 10
13.8243530551
 20
1.0563117284
 30
0.0
 10
13.8249280045
 20
1.0538467956
 30
0.0
 10
13.8251294571
 20
1.0515292597
 30
0.0
 10
13.8251115735
 20
1.0494665261
 30
0.0
 10
13.8249842031
 20
1.0477349896
 30
0.0
 10
13.8247201861
 20
1.0458576147
 30
0.0
 10
13.8242820485
 20
1.0438151345
 30
0.0
 10
13.8236267814
 20
1.0416242722
 30
0.0
 10
13.8227875481
 20
1.039332981
 30
0.0
 10
13.8218643958
 20
1.0369838308
 30
0.0
 10
13.8209172152
 20
1.0346128229
 30
0.0
 10
13.8199664458
 20
1.0322350957
 30
0.0
 10
13.818701966
 20
1.0290615395
 30
0.0
 10
13.81776017
 20
1.0266786871
 30
0.0
 10
13.8171352763
 20
1.0250891832
 30
0.0
  0
SPLINE
  5
402
100
AcDbEntity
  8
0
100
AcDbSpline
 62
9
  6
CONTINUOUS
 70
0
 71
3
 72
16
 73
12
 74
0
 42
0.0000001
 43
0.0000001
 44
0.0000000001
 40
0.0
 40
0.0
 40
0.0
 40
0.0
 40
0.1302719525
 40
0.259751255
 40
0.3877279363
 40
0.5137895324
 40
0.6377478977
 40
0.7597305665
 40
0.820191742
 40
0.8803771115
 40
1.0
 40
1.0
 40
1.0
 40
1.0
 10
13.6067659328
 20
0.6087487439
 30
0.0
 10
13.6067835514
 20
0.6100408747
 30
0.0
 10
13.607048659
 20
0.6126200617
 30
0.0
 10
13.6081221708
 20
0.6163341252
 30
0.0
 10
13.6098335189
 20
0.6197563118
 30
0.0
 10
13.6121194974
 20
0.6227571998
 30
0.0
 10
13.6148966083
 20
0.6252226131
 30
0.0
 10
13.6175459165
 20
0.6267584825
 30
0.0
 10
13.6197937342
 20
0.6276298467
 30
0.0
 10
13.6220965211
 20
0.6282562793
 30
0.0
 10
13.6238872249
 20
0.6284498052
 30
0.0
 10
13.6250738402
 20
0.6284512076
 30
0.0
  0
SPLINE
  5
403
100
AcDbEntity
  8
0
100
AcDbSpline
 62
9
  6
CONTINUOUS
 70
0
 71
3
 72
14
 73
10
 74
0
 42
0.0000001
 43
0.0000001
 44
0.0000000001
 40
0.0
 40
0.0
 40
0.0
 40
0.0
 40
0.1263614574
 40
0.2525365656
 40
0.3783906279
 40
0.5038576568
 40
0.6288456785
 40
0.7532634269
 40
1.0
 40
1.0
 40
1.0
 40
1.0
 10
13.9623991209
 20
0.9695529498
 30
0.0
 10
13.9628848086
 20
0.9636158649
 30
0.0
 10
13.9634523709
 20
0.951713976
 30
0.0
 10
13.9631508946
 20
0.9338672923
 30
0.0
 10
13.9617433442
 20
0.9161156624
 30
0.0
 10
13.9592662768
 20
0.8985389931
 30
0.0
 10
13.9557586162
 20
0.8812068713
 30
0.0
 10
13.9497751267
 20
0.8585870208
 30
0.0
 10
13.9438190601
 20
0.8420781137
 30
0.0
 10
13.9392255523
 20
0.831391933
 30
0.0
  0
SPLINE
  5
404
100
AcDbEntity
  8
0
100
AcDbSpline
 62
9
  6
CONTINUOUS
 70
0
 71
3
 72
16
 73
12
 74
0
 42
0.0000001
 43
0.0000001
 44
0.0000000001
 40
0.0
 40
0.0
 40
0.0
 40
0.0
 40
0.116917111
 40
0.2370928401
 40
0.3600400795
 40
0.485315494
 40
0.6124424161
 40
0.7409313604
 40
0.8055380686
 40
0.8703035636
 40
1.0
 40
1.0
 40
1.0
 40
1.0
 10
14.6085425061
 20
0.831391933
 30
0.0
 10
14.6087559953
 20
0.8367878138
 30
0.0
 10
14.6092221791
 20
0.8477286707
 30
0.0
 10
14.6100235046
 20
0.8643387676
 30
0.0
 10
14.6109446447
 20
0.8813293109
 30
0.0
 10
14.6120058367
 20
0.898633425
 30
0.0
 10
14.6132412645
 20
0.9161826709
 30
0.0
 10
14.6144487666
 20
0.9309240176
 30
0.0
 10
14.6155501251
 20
0.9427830628
 30
0.0
 10
14.6167529157
 20
0.9546882256
 30
0.0
 10
14.6177845922
 20
0.9636114649
 30
0.0
 10
14.6185481451
 20
0.9695529498
 30
0.0
  0
SPLINE
  5
405
100
AcDbEntity
  8
0
100
AcDbSpline
 62
9
  6
CONTINUOUS
 70
0
 71
3
 72
9
 73
5
 74
0
 42
0.0000001
 43
0.0000001
 44
0.0000000001
 40
0.0
 40
0.0
 40
0.0
 40
0.0
 40
0.497878689
 40
1.0
 40
1.0
 40
1.0
 40
1.0
 10
13.8143750564
 20
1.0722307338
 30
0.0
 10
13.8136960869
 20
1.0708080912
 30
0.0
 10
13.8126563459
 20
1.0677856707
 30
0.0
 10
13.8123077128
 20
1.0646097924
 30
0.0
 10
13.812307604
 20
1.0630199994
 30
0.0
  0
SPLINE
  5
406
100
AcDbEntity
  8
0
100
AcDbSpline
 62
9
  6
CONTINUOUS
 70
0
 71
3
 72
13
 73
9
 74
0
 42
0.0000001
 43
0.0000001
 44
0.0000000001
 40
0.0
 40
0.0
 40
0.0
 40
0.0
 40
0.3129523566
 40
0.4508338631
 40
0.5771647686
 40
0.8001819607
 40
0.901688014
 40
1.0
 40
1.0
 40
1.0
 40
1.0
 10
13.7879366284
 20
0.9493357694
 30
0.0
 10
13.7876114681
 20
0.9492850921
 30
0.0
 10
13.7871456066
 20
0.949185301
 30
0.0
 10
13.7865736685
 20
0.9489791176
 30
0.0
 10
13.7861120628
 20
0.9487560868
 30
0.0
 10
13.7857222474
 20
0.9484719284
 30
0.0
 10
13.7854413679
 20
0.9481244776
 30
0.0
 10
13.7853412474
 20
0.9479380205
 30
0.0
 10
13.7853013459
 20
0.947842651
 30
0.0
  0
SPLINE
  5
407
100
AcDbEntity
  8
0
100
AcDbSpline
 62
9
  6
CONTINUOUS
 70
0
 71
3
 72
14
 73
10
 74
0
 42
0.0000001
 43
0.0000001
 44
0.0000000001
 40
0.0
 40
0.0
 40
0.0
 40
0.0
 40
0.329989601
 40
0.4719387937
 40
0.5992860003
 40
0.7132473366
 40
0.8158899352
 40
0.9101872074
 40
1.0
 40
1.0
 40
1.0
 40
1.0
 10
13.7549425856
 20
0.87349493
 30
0.0
 10
13.7546378051
 20
0.8734824269
 30
0.0
 10
13.7542014037
 20
0.8734429549
 30
0.0
 10
13.7536598251
 20
0.8733232527
 30
0.0
 10
13.7533227379
 20
0.8732117452
 30
0.0
 10
13.7530351169
 20
0.8730737646
 30
0.0
 10
13.7527978269
 20
0.8729089548
 30
0.0
 10
13.7526121746
 20
0.872717145
 30
0.0
 10
13.7525233502
 20
0.872569836
 30
0.0
 10
13.7524892796
 20
0.8724941277
 30
0.0
  0
LINE
  5
408
100
AcDbEntity
  8
0
100
AcDbLine
 62
9
  6
CONTINUOUS
 10
13.9392255523
 20
0.831391933
 11
13.8720269696
 21
0.6823975469
  0
SPLINE
  5
409
100
AcDbEntity
  8
0
100
AcDbSpline
 62
9
  6
CONTINUOUS
 70
0
 71
3
 72
12
 73
8
 74
0
 42
0.0000001
 43
0.0000001
 44
0.0000000001
 40
0.0
 40
0.0
 40
0.0
 40
0.0
 40
0.2993170371
 40
0.5596208858
 40
0.7884332157
 40
0.8953860359
 40
1.0
 40
1.0
 40
1.0
 40
1.0
 10
13.6457228622
 20
0.6470755545
 30
0.0
 10
13.6456320065
 20
0.6474231967
 30
0.0
 10
13.6455024198
 20
0.6480854795
 30
0.0
 10
13.6454847766
 20
0.6490377293
 30
0.0
 10
13.6456421877
 20
0.6497457242
 30
0.0
 10
13.6458712064
 20
0.6502242865
 30
0.0
 10
13.6460163268
 20
0.6504343097
 30
0.0
 10
13.6460958646
 20
0.6505314969
 30
0.0
  0
SPLINE
  5
40A
100
AcDbEntity
  8
0
100
AcDbSpline
 62
9
  6
CONTINUOUS
 70
0
 71
3
 72
14
 73
10
 74
0
 42
0.0000001
 43
0.0000001
 44
0.0000000001
 40
0.0
 40
0.0
 40
0.0
 40
0.0
 40
0.3305293292
 40
0.4726214823
 40
0.6000122214
 40
0.7139146255
 40
0.8164041873
 40
0.9104681559
 40
1.0
 40
1.0
 40
1.0
 40
1.0
 10
13.6729267174
 20
0.6912158815
 30
0.0
 10
13.6726180581
 20
0.6912042023
 30
0.0
 10
13.6721761186
 20
0.6911657297
 30
0.0
 10
13.671627517
 20
0.6910465472
 30
0.0
 10
13.6712862146
 20
0.6909350344
 30
0.0
 10
13.6709950897
 20
0.6907966482
 30
0.0
 10
13.6707550031
 20
0.6906310397
 30
0.0
 10
13.6705672893
 20
0.6904380037
 30
0.0
 10
13.6704776116
 20
0.690289546
 30
0.0
 10
13.670443287
 20
0.6902132434
 30
0.0
  0
LINE
  5
40B
100
AcDbEntity
  8
0
100
AcDbLine
 62
9
  6
CONTINUOUS
 10
13.7577914075
 20
0.7102138105
 11
13.8287886364
 21
0.8678811855
  0
SPLINE
  5
40C
100
AcDbEntity
  8
0
100
AcDbSpline
 62
9
  6
CONTINUOUS
 70
0
 71
3
 72
18
 73
14
 74
0
 42
0.0000001
 43
0.0000001
 44
0.0000000001
 40
0.0
 40
0.0
 40
0.0
 40
0.0
 40
0.1430422316
 40
0.2851270734
 40
0.4240107781
 40
0.5575594884
 40
0.6837185958
 40
0.7434311885
 40
0.8005968392
 40
0.8550151017
 40
0.9065061404
 40
0.9548930477
 40
1.0
 40
1.0
 40
1.0
 40
1.0
 10
13.8287886364
 20
0.8678811855
 30
0.0
 10
13.8338134201
 20
0.8654853463
 30
0.0
 10
13.8439012602
 20
0.8608588938
 30
0.0
 10
13.8590995997
 20
0.854426643
 30
0.0
 10
13.8741430416
 20
0.8485946327
 30
0.0
 10
13.888782812
 20
0.843458311
 30
0.0
 10
13.9006548019
 20
0.8397617608
 30
0.0
 10
13.9097690529
 20
0.8372318815
 30
0.0
 10
13.9162311101
 20
0.8355919171
 30
0.0
 10
13.9224192817
 20
0.8341808252
 30
0.0
 10
13.9283084466
 20
0.8330042776
 30
0.0
 10
13.9338733533
 20
0.8320673448
 30
0.0
 10
13.9374810322
 20
0.8315871937
 30
0.0
 10
13.9392255523
 20
0.831391933
 30
0.0
  0
SPLINE
  5
40D
100
AcDbEntity
  8
0
100
AcDbSpline
 62
9
  6
CONTINUOUS
 70
0
 71
3
 72
18
 73
14
 74
0
 42
0.0000001
 43
0.0000001
 44
0.0000000001
 40
0.0
 40
0.0
 40
0.0
 40
0.0
 40
0.142460137
 40
0.2842921397
 40
0.4232038309
 40
0.5569917263
 40
0.6834987918
 40
0.7433828283
 40
0.8006937254
 40
0.8552104349
 40
0.9067330474
 40
0.9550632533
 40
1.0
 40
1.0
 40
1.0
 40
1.0
 10
13.7577914075
 20
0.7102138105
 30
0.0
 10
13.7630772399
 20
0.708378562
 30
0.0
 10
13.7736664578
 20
0.7048325335
 30
0.0
 10
13.7895451716
 20
0.6999127133
 30
0.0
 10
13.8052049116
 20
0.6954508058
 30
0.0
 10
13.8203873099
 20
0.6915272014
 30
0.0
 10
13.8326456242
 20
0.688711492
 30
0.0
 10
13.8420222707
 20
0.6867866197
 30
0.0
 10
13.848650812
 20
0.6855406646
 30
0.0
 10
13.8549774067
 20
0.6844717123
 30
0.0
 10
13.860976117
 20
0.683586651
 30
0.0
 10
13.8666207598
 20
0.6828904922
 30
0.0
 10
13.8702676729
 20
0.6825388731
 30
0.0
 10
13.8720269767
 20
0.682397575
 30
0.0
  0
SPLINE
  5
40E
100
AcDbEntity
  8
0
100
AcDbSpline
 62
9
  6
CONTINUOUS
 70
0
 71
3
 72
11
 73
7
 74
0
 42
0.0000001
 43
0.0000001
 44
0.0000000001
 40
0.0
 40
0.0
 40
0.0
 40
0.0
 40
0.2490006199
 40
0.4987127232
 40
0.7490736519
 40
1.0
 40
1.0
 40
1.0
 40
1.0
 10
13.8287886364
 20
0.8678811856
 30
0.0
 10
13.8316074793
 20
0.8741411645
 30
0.0
 10
13.8371913907
 20
0.8867069586
 30
0.0
 10
13.8453825146
 20
0.9056668561
 30
0.0
 10
13.8533679642
 20
0.9247719679
 30
0.0
 10
13.8585094724
 20
0.937602264
 30
0.0
 10
13.8610204887
 20
0.9440489585
 30
0.0
  0
SPLINE
  5
40F
100
AcDbEntity
  8
0
100
AcDbSpline
 62
9
  6
CONTINUOUS
 70
0
 71
3
 72
16
 73
12
 74
0
 42
0.0000001
 43
0.0000001
 44
0.0000000001
 40
0.0
 40
0.0
 40
0.0
 40
0.0
 40
0.1408495871
 40
0.2804805472
 40
0.4171418475
 40
0.5491622536
 40
0.6749183965
 40
0.7928838742
 40
0.9016646302
 40
0.952219424
 40
1.0
 40
1.0
 40
1.0
 40
1.0
 10
13.8610204887
 20
0.9440489585
 30
0.0
 10
13.8658801403
 20
0.9448015633
 30
0.0
 10
13.8755413047
 20
0.9464063974
 30
0.0
 10
13.8898536195
 20
0.9491083042
 30
0.0
 10
13.9037996768
 20
0.9520697088
 30
0.0
 10
13.9171997065
 20
0.9552518869
 30
0.0
 10
13.929881935
 20
0.9586136406
 30
0.0
 10
13.9416836116
 20
0.9621110244
 30
0.0
 10
13.9508717154
 20
0.9651705211
 30
0.0
 10
13.9576593054
 20
0.9676656136
 30
0.0
 10
13.96085474
 20
0.9689222588
 30
0.0
 10
13.9623991209
 20
0.96955295
 30
0.0
  0
SPLINE
  5
410
100
AcDbEntity
  8
0
100
AcDbSpline
 62
9
  6
CONTINUOUS
 70
0
 71
3
 72
45
 73
41
 74
0
 42
0.0000001
 43
0.0000001
 44
0.0000000001
 40
0.0
 40
0.0
 40
0.0
 40
0.0
 40
0.0681635584
 40
0.136271312
 40
0.2043170058
 40
0.2722920998
 40
0.3401848293
 40
0.4079776947
 40
0.441828883
 40
0.4756441863
 40
0.5094181468
 40
0.5431432242
 40
0.5599861156
 40
0.5768144293
 40
0.5936290347
 40
0.6104353272
 40
0.6272460963
 40
0.6440953467
 40
0.6525627883
 40
0.6610827804
 40
0.6696706154
 40
0.6783211792
 40
0.6956261468
 40
0.7041914919
 40
0.7126631505
 40
0.7293014014
 40
0.7455315801
 40
0.761357321
 40
0.7767829458
 40
0.7918163841
 40
0.8064716867
 40
0.8346750917
 40
0.8614726739
 40
0.8743772706
 40
0.8869729761
 40
0.911317302
 40
0.9346504048
 40
0.9571051987
 40
0.9788365903
 40
1.0
 40
1.0
 40
1.0
 40
1.0
 10
13.8610205098
 20
0.9440489617
 30
0.0
 10
13.8622582292
 20
0.947319874
 30
0.0
 10
13.864723212
 20
0.9538625997
 30
0.0
 10
13.8683876606
 20
0.9636841397
 30
0.0
 10
13.8720155112
 20
0.9735089548
 30
0.0
 10
13.8756020388
 20
0.983337193
 30
0.0
 10
13.8791429718
 20
0.9931681682
 30
0.0
 10
13.8820506999
 20
1.0013662235
 30
0.0
 10
13.8843448354
 20
1.0079266741
 30
0.0
 10
13.8860470924
 20
1.0128450262
 30
0.0
 10
13.8877303304
 20
1.0177630863
 30
0.0
 10
13.8891140602
 20
1.0218632196
 30
0.0
 10
13.8902115299
 20
1.0251423331
 30
0.0
 10
13.8910281988
 20
1.0276004947
 30
0.0
 10
13.8918402129
 20
1.0300582144
 30
0.0
 10
13.8926518938
 20
1.0325151105
 30
0.0
 10
13.8934716055
 20
1.034971169
 30
0.0
 10
13.8941722948
 20
1.0370160488
 30
0.0
 10
13.8947747226
 20
1.0386443659
 30
0.0
 10
13.8952632311
 20
1.0398624777
 30
0.0
 10
13.8958057957
 20
1.0410681787
 30
0.0
 10
13.8966261936
 20
1.0426404133
 30
0.0
 10
13.8976015915
 20
1.0441249624
 30
0.0
 10
13.8986813395
 20
1.0455177017
 30
0.0
 10
13.8997963846
 20
1.0468381023
 30
0.0
 10
13.9012480523
 20
1.048386512
 30
0.0
 10
13.9030533195
 20
1.0501149654
 30
0.0
 10
13.9048912894
 20
1.051715197
 30
0.0
 10
13.9067499484
 20
1.0531944554
 30
0.0
 10
13.908621303
 20
1.0545578795
 30
0.0
 10
13.9110903378
 20
1.0562101692
 30
0.0
 10
13.914176252
 20
1.0580208477
 30
0.0
 10
13.9173188451
 20
1.0595350629
 30
0.0
 10
13.9198073554
 20
1.0605406969
 30
0.0
 10
13.9222185305
 20
1.0613949148
 30
0.0
 10
13.9251957043
 20
1.0622457931
 30
0.0
 10
13.9287316853
 20
1.062936105
 30
0.0
 10
13.9321823098
 20
1.0632938103
 30
0.0
 10
13.9355396671
 20
1.0633290371
 30
0.0
 10
13.9377365526
 20
1.0631504718
 30
0.0
 10
13.9388141142
 20
1.0630167411
 30
0.0
  0
LINE
  5
411
100
AcDbEntity
  8
0
100
AcDbLine
 62
9
  6
CONTINUOUS
 10
14.7098114955
 20
0.8678811857
 11
14.7097452741
 21
0.6856600146
  0
SPLINE
  5
412
100
AcDbEntity
  8
0
100
AcDbSpline
 62
9
  6
CONTINUOUS
 70
0
 71
3
 72
11
 73
7
 74
0
 42
0.0000001
 43
0.0000001
 44
0.0000000001
 40
0.0
 40
0.0
 40
0.0
 40
0.0
 40
0.2134781727
 40
0.4514421954
 40
0.713780291
 40
1.0
 40
1.0
 40
1.0
 40
1.0
 10
14.7097452741
 20
0.6856600146
 30
0.0
 10
14.7084143703
 20
0.6848855979
 30
0.0
 10
14.7055246632
 20
0.6833760272
 30
0.0
 10
14.7008041483
 20
0.6813134025
 30
0.0
 10
14.6954831482
 20
0.6793385386
 30
0.0
 10
14.69171215
 20
0.6781359105
 30
0.0
 10
14.689733586
 20
0.6775464766
 30
0.0
  0
SPLINE
  5
413
100
AcDbEntity
  8
0
100
AcDbSpline
 62
9
  6
CONTINUOUS
 70
0
 71
3
 72
17
 73
13
 74
0
 42
0.0000001
 43
0.0000001
 44
0.0000000001
 40
0.0
 40
0.0
 40
0.0
 40
0.0
 40
0.1029796484
 40
0.157100222
 40
0.2129558849
 40
0.3297662144
 40
0.453117003
 40
0.5824664068
 40
0.7171992729
 40
0.786399555
 40
0.856688685
 40
1.0
 40
1.0
 40
1.0
 40
1.0
 10
14.689733586
 20
0.6775464766
 30
0.0
 10
14.6869986664
 20
0.6767306868
 30
0.0
 10
14.6827395109
 20
0.6757659652
 30
0.0
 10
14.6768989262
 20
0.6749106395
 30
0.0
 10
14.6706415676
 20
0.6742952654
 30
0.0
 10
14.6624326697
 20
0.6740278066
 30
0.0
 10
14.6521927963
 20
0.6744308116
 30
0.0
 10
14.6415040766
 20
0.6755117296
 30
0.0
 10
14.6323724772
 20
0.6769261002
 30
0.0
 10
14.6249046773
 20
0.678339153
 30
0.0
 10
14.6172361108
 20
0.6799602103
 30
0.0
 10
14.6114843508
 20
0.6813704961
 30
0.0
 10
14.60764772
 20
0.6823976823
 30
0.0
  0
SPLINE
  5
414
100
AcDbEntity
  8
0
100
AcDbSpline
 62
9
  6
CONTINUOUS
 70
0
 71
3
 72
11
 73
7
 74
0
 42
0.0000001
 43
0.0000001
 44
0.0000000001
 40
0.0
 40
0.0
 40
0.0
 40
0.0
 40
0.2530455481
 40
0.5039554252
 40
0.7529101476
 40
1.0
 40
1.0
 40
1.0
 40
1.0
 10
14.7088323229
 20
0.9440487722
 30
0.0
 10
14.7089651844
 20
0.937624863
 30
0.0
 10
14.7092320539
 20
0.9248313038
 30
0.0
 10
14.7095603411
 20
0.9057162934
 30
0.0
 10
14.7097693762
 20
0.8867507803
 30
0.0
 10
14.7098141248
 20
0.8741552423
 30
0.0
 10
14.7098114955
 20
0.8678811858
 30
0.0
  0
SPLINE
  5
415
100
AcDbEntity
  8
0
100
AcDbSpline
 62
9
  6
CONTINUOUS
 70
0
 71
3
 72
19
 73
15
 74
0
 42
0.0000001
 43
0.0000001
 44
0.0000000001
 40
0.0
 40
0.0
 40
0.0
 40
0.0
 40
0.0452410397
 40
0.093013009
 40
0.1433652764
 40
0.1963183109
 40
0.2518640135
 40
0.3099522384
 40
0.3704919647
 40
0.4333691002
 40
0.565531371
 40
0.7051141139
 40
0.8505392643
 40
1.0
 40
1.0
 40
1.0
 40
1.0
 10
14.7098114955
 20
0.8678811858
 30
0.0
 10
14.7086986837
 20
0.8666532187
 30
0.0
 10
14.7062942675
 20
0.8642324822
 30
0.0
 10
14.7023054126
 20
0.8608096632
 30
0.0
 10
14.6978546227
 20
0.857513648
 30
0.0
 10
14.6929615203
 20
0.8543581295
 30
0.0
 10
14.6876457374
 20
0.8513553221
 30
0.0
 10
14.681928727
 20
0.8485171529
 30
0.0
 10
14.6758338518
 20
0.8458546285
 30
0.0
 10
14.6670912044
 20
0.8424989133
 30
0.0
 10
14.6553770312
 20
0.8388428643
 30
0.0
 10
14.6404815339
 20
0.8353782894
 30
0.0
 10
14.6247622735
 20
0.8328236181
 30
0.0
 10
14.6140045667
 20
0.831764568
 30
0.0
 10
14.6085425061
 20
0.831391933
 30
0.0
  0
SPLINE
  5
416
100
AcDbEntity
  8
0
100
AcDbSpline
 62
9
  6
CONTINUOUS
 70
0
 71
3
 72
47
 73
43
 74
0
 42
0.0000001
 43
0.0000001
 44
0.0000000001
 40
0.0
 40
0.0
 40
0.0
 40
0.0
 40
0.0332080241
 40
0.0663110899
 40
0.0992780758
 40
0.1320808283
 40
0.1646867452
 40
0.1970584164
 40
0.2291494708
 40
0.2450782533
 40
0.260918387
 40
0.2766631631
 40
0.2923051593
 40
0.3078359813
 40
0.3232471017
 40
0.3385300738
 40
0.3536788356
 40
0.361208591
 40
0.368712376
 40
0.3762021026
 40
0.3837002177
 40
0.3912321638
 40
0.3988139278
 40
0.4064424132
 40
0.4141054332
 40
0.4217912183
 40
0.4294905051
 40
0.4449121452
 40
0.4603495781
 40
0.4757942088
 40
0.5066839899
 40
0.5375703975
 40
0.5684482052
 40
0.5993177516
 40
0.6301792268
 40
0.6610321286
 40
0.6918781736
 40
0.7535485771
 40
0.8151942006
 40
0.8768165005
 40
0.9384180454
 40
1.0
 40
1.0
 40
1.0
 40
1.0
 10
14.6565546457
 20
1.0630167371
 30
0.0
 10
14.6583146641
 20
1.0631487177
 30
0.0
 10
14.6618364019
 20
1.0633266122
 30
0.0
 10
14.6671157578
 20
1.0632970492
 30
0.0
 10
14.672362533
 20
1.0629473769
 30
0.0
 10
14.6775502677
 20
1.0622663795
 30
0.0
 10
14.6826500108
 20
1.0612446891
 30
0.0
 10
14.6876258983
 20
1.0598627818
 30
0.0
 10
14.6916375228
 20
1.0583744965
 30
0.0
 10
14.6947327901
 20
1.0569794579
 30
0.0
 10
14.6969833273
 20
1.0558316233
 30
0.0
 10
14.6991596688
 20
1.0545787984
 30
0.0
 10
14.7012503707
 20
1.053217186
 30
0.0
 10
14.7032398154
 20
1.0517405221
 30
0.0
 10
14.7051087783
 20
1.0501424315
 30
0.0
 10
14.7068322669
 20
1.0484164323
 30
0.0
 10
14.7081184786
 20
1.0468559024
 30
0.0
 10
14.7090156304
 20
1.0455245807
 30
0.0
 10
14.7096054949
 20
1.0444812191
 30
0.0
 10
14.7100926762
 20
1.0433871056
 30
0.0
 10
14.7104509214
 20
1.0422421044
 30
0.0
 10
14.7106746268
 20
1.041058799
 30
0.0
 10
14.7107788958
 20
1.0398531467
 30
0.0
 10
14.7108017523
 20
1.0386371532
 30
0.0
 10
14.7107741793
 20
1.0374160605
 30
0.0
 10
14.710717754
 20
1.0361923375
 30
0.0
 10
14.7106236095
 20
1.034557696
 30
0.0
 10
14.7104870693
 20
1.032512907
 30
0.0
 10
14.7103199457
 20
1.0300576177
 30
0.0
 10
14.7101025994
 20
1.0267817252
 30
0.0
 10
14.7098588742
 20
1.0226847361
 30
0.0
 10
14.709604815
 20
1.0177668142
 30
0.0
 10
14.7093905656
 20
1.0128480765
 30
0.0
 10
14.7092090777
 20
1.0079293631
 30
0.0
 10
14.7090574828
 20
1.0030109648
 30
0.0
 10
14.7089331231
 20
0.9980930584
 30
0.0
 10
14.7087986587
 20
0.9915375082
 30
0.0
 10
14.7086865302
 20
0.9833446716
 30
0.0
 10
14.7086265665
 20
0.9735155632
 30
0.0
 10
14.7086336562
 20
0.9636899427
 30
0.0
 10
14.708700793
 20
0.9538679493
 30
0.0
 10
14.7087827244
 20
0.9473213932
 30
0.0
 10
14.7088323162
 20
0.9440487744
 30
0.0
  0
SPLINE
  5
417
100
AcDbEntity
  8
0
100
AcDbSpline
 62
9
  6
CONTINUOUS
 70
0
 71
3
 72
14
 73
10
 74
0
 42
0.0000001
 43
0.0000001
 44
0.0000000001
 40
0.0
 40
0.0
 40
0.0
 40
0.0
 40
0.0846690952
 40
0.1837892422
 40
0.2960836574
 40
0.4201214435
 40
0.5543095191
 40
0.6969176518
 40
1.0
 40
1.0
 40
1.0
 40
1.0
 10
14.7088323162
 20
0.9440487744
 30
0.0
 10
14.7063165928
 20
0.9448756864
 30
0.0
 10
14.7008384097
 20
0.9466178338
 30
0.0
 10
14.6919793414
 20
0.9493150219
 30
0.0
 10
14.6819137682
 20
0.952275326
 30
0.0
 10
14.6707713653
 20
0.9554600978
 30
0.0
 10
14.6586954708
 20
0.9588278472
 30
0.0
 10
14.6411984542
 20
0.9636016202
 30
0.0
 10
14.6277224053
 20
0.9671675201
 30
0.0
 10
14.6185481451
 20
0.9695529498
 30
0.0
  0
SPLINE
  5
418
100
AcDbEntity
  8
0
100
AcDbSpline
 62
9
  6
CONTINUOUS
 70
0
 71
3
 72
15
 73
11
 74
0
 42
0.0000001
 43
0.0000001
 44
0.0000000001
 40
0.0
 40
0.0
 40
0.0
 40
0.0
 40
0.0862640268
 40
0.1875219613
 40
0.302153143
 40
0.4282942723
 40
0.5636820349
 40
0.7058568668
 40
0.8522855379
 40
1.0
 40
1.0
 40
1.0
 40
1.0
 10
13.7397069727
 20
0.7157772014
 30
0.0
 10
13.7402535125
 20
0.7157587413
 30
0.0
 10
13.7414391274
 20
0.7156461701
 30
0.0
 10
13.7433275044
 20
0.7153187514
 30
0.0
 10
13.745439194
 20
0.7148220221
 30
0.0
 10
13.7477323531
 20
0.7141654194
 30
0.0
 10
13.7501626295
 20
0.7133614145
 30
0.0
 10
13.7526825952
 20
0.712424944
 30
0.0
 10
13.7552418047
 20
0.7113744739
 30
0.0
 10
13.7569434146
 20
0.7106109989
 30
0.0
 10
13.7577913942
 20
0.7102137827
 30
0.0
  0
SPLINE
  5
419
100
AcDbEntity
  8
0
100
AcDbSpline
 62
9
  6
CONTINUOUS
 70
0
 71
3
 72
15
 73
11
 74
0
 42
0.0000001
 43
0.0000001
 44
0.0000000001
 40
0.0
 40
0.0
 40
0.0
 40
0.0
 40
0.0864323607
 40
0.1878452451
 40
0.3025993092
 40
0.4288143652
 40
0.5642101246
 40
0.7063106749
 40
0.8525680229
 40
1.0
 40
1.0
 40
1.0
 40
1.0
 10
13.8106227352
 20
0.8734949299
 30
0.0
 10
13.8111729762
 20
0.8734751623
 30
0.0
 10
13.8123662069
 20
0.873359635
 30
0.0
 10
13.814266091
 20
0.8730271706
 30
0.0
 10
13.8163895824
 20
0.8725245641
 30
0.0
 10
13.8186943487
 20
0.8718614306
 30
0.0
 10
13.8211355404
 20
0.8710504492
 30
0.0
 10
13.8236652299
 20
0.8701067843
 30
0.0
 10
13.8262324763
 20
0.8690491578
 30
0.0
 10
13.8279387156
 20
0.8682807999
 30
0.0
 10
13.8287886334
 20
0.8678811791
 30
0.0
  0
SPLINE
  5
41A
100
AcDbEntity
  8
0
100
AcDbSpline
 62
9
  6
CONTINUOUS
 70
0
 71
3
 72
13
 73
9
 74
0
 42
0.0000001
 43
0.0000001
 44
0.0000000001
 40
0.0
 40
0.0
 40
0.0
 40
0.0
 40
0.0862079861
 40
0.1865682167
 40
0.2997672264
 40
0.4243581664
 40
0.700636617
 40
1.0
 40
1.0
 40
1.0
 40
1.0
 10
13.8460825128
 20
0.9493359441
 30
0.0
 10
13.8465340717
 20
0.9492685537
 30
0.0
 10
13.8475050511
 20
0.9490805903
 30
0.0
 10
13.8490448593
 20
0.9486920153
 30
0.0
 10
13.8507610632
 20
0.9481786365
 30
0.0
 10
13.8533406429
 20
0.947306733
 30
0.0
 10
13.8567980597
 20
0.9459602513
 30
0.0
 10
13.8595853667
 20
0.9447227335
 30
0.0
 10
13.8610205023
 20
0.9440489421
 30
0.0
  0
SPLINE
  5
41B
100
AcDbEntity
  8
0
100
AcDbSpline
 62
9
  6
CONTINUOUS
 70
0
 71
3
 72
9
 73
5
 74
0
 42
0.0000001
 43
0.0000001
 44
0.0000000001
 40
0.0
 40
0.0
 40
0.0
 40
0.0
 40
0.4949566
 40
1.0
 40
1.0
 40
1.0
 40
1.0
 10
13.9406096921
 20
1.0722307338
 30
0.0
 10
13.9400134643
 20
1.0707937931
 30
0.0
 10
13.9391114863
 20
1.0677579016
 30
0.0
 10
13.9388127117
 20
1.0646074307
 30
0.0
 10
13.9388128007
 20
1.0630199994
 30
0.0
  0
LINE
  5
41C
100
AcDbEntity
  8
0
100
AcDbLine
 62
9
  6
CONTINUOUS
 10
14.6568264475
 20
1.0722307338
 11
14.6565553612
 21
1.0630199994
  0
SPLINE
  5
41D
100
AcDbEntity
  8
0
100
AcDbSpline
 62
9
  6
CONTINUOUS
 70
0
 71
3
 72
14
 73
10
 74
0
 42
0.0000001
 43
0.0000001
 44
0.0000000001
 40
0.0
 40
0.0
 40
0.0
 40
0.0
 40
0.280999218
 40
0.4172015571
 40
0.5484784117
 40
0.6734593035
 40
0.7909396602
 40
0.9000298378
 40
1.0
 40
1.0
 40
1.0
 40
1.0
 10
14.7249153227
 20
0.9493357694
 30
0.0
 10
14.723313193
 20
0.9492136276
 30
0.0
 10
14.7209411855
 20
0.9489008117
 30
0.0
 10
14.7178790827
 20
0.9482165017
 30
0.0
 10
14.715722413
 20
0.9475900174
 30
0.0
 10
14.7137138293
 20
0.946854984
 30
0.0
 10
14.7118820597
 20
0.9460214494
 30
0.0
 10
14.7102543222
 20
0.9451015996
 30
0.0
 10
14.7092764226
 20
0.9444087084
 30
0.0
 10
14.7088323227
 20
0.9440487838
 30
0.0
  0
SPLINE
  5
41E
100
AcDbEntity
  8
0
100
AcDbSpline
 62
9
  6
CONTINUOUS
 70
0
 71
3
 72
15
 73
11
 74
0
 42
0.0000001
 43
0.0000001
 44
0.0000000001
 40
0.0
 40
0.0
 40
0.0
 40
0.0
 40
0.14863528
 40
0.2943931726
 40
0.4348204809
 40
0.5679920743
 40
0.6921700605
 40
0.8059724467
 40
0.9086481191
 40
1.0
 40
1.0
 40
1.0
 40
1.0
 10
14.7273809721
 20
0.87349493
 30
0.0
 10
14.726446731
 20
0.873477037
 30
0.0
 10
14.7245968993
 20
0.8733816183
 30
0.0
 10
14.7218802424
 20
0.8730606494
 30
0.0
 10
14.7192879721
 20
0.8725677793
 30
0.0
 10
14.7168716989
 20
0.8719130562
 30
0.0
 10
14.7146774578
 20
0.8711100322
 30
0.0
 10
14.7127467575
 20
0.8701728662
 30
0.0
 10
14.7111174216
 20
0.8691191112
 30
0.0
 10
14.7101995719
 20
0.8683045247
 30
0.0
 10
14.7098114955
 20
0.8678811924
 30
0.0
  0
SPLINE
  5
41F
100
AcDbEntity
  8
0
100
AcDbSpline
 62
9
  6
CONTINUOUS
 70
0
 71
3
 72
11
 73
7
 74
0
 42
0.0000001
 43
0.0000001
 44
0.0000000001
 40
0.0
 40
0.0
 40
0.0
 40
0.0
 40
0.2390391448
 40
0.4898614254
 40
0.746009706
 40
1.0
 40
1.0
 40
1.0
 40
1.0
 10
13.7260997426
 20
0.6470755457
 30
0.0
 10
13.7273100954
 20
0.6481736531
 30
0.0
 10
13.7300795833
 20
0.6501180784
 30
0.0
 10
13.7348135176
 20
0.6521054734
 30
0.0
 10
13.7399456364
 20
0.6531383563
 30
0.0
 10
13.7434614684
 20
0.6531424276
 30
0.0
 10
13.7451886003
 20
0.6529625464
 30
0.0
  0
SPLINE
  5
420
100
AcDbEntity
  8
0
100
AcDbSpline
 62
9
  6
CONTINUOUS
 70
0
 71
3
 72
29
 73
25
 74
0
 42
0.0000001
 43
0.0000001
 44
0.0000000001
 40
0.0
 40
0.0
 40
0.0
 40
0.0
 40
0.1068877893
 40
0.1603516079
 40
0.2137960961
 40
0.2671512793
 40
0.3201366524
 40
0.3717669561
 40
0.4198133044
 40
0.4631145495
 40
0.5023551213
 40
0.5383730312
 40
0.5716850827
 40
0.6313821855
 40
0.6834766256
 40
0.7294993978
 40
0.7708154619
 40
0.7901825132
 40
0.8089489978
 40
0.845454294
 40
0.8817967835
 40
0.9191312173
 40
0.9583381771
 40
1.0
 40
1.0
 40
1.0
 40
1.0
 10
15.7489868133
 20
1.0250895808
 30
0.0
 10
15.7483619117
 20
1.0266791016
 30
0.0
 10
15.7474201207
 20
1.0290619831
 30
0.0
 10
15.7461555884
 20
1.0322355499
 30
0.0
 10
15.7452048988
 20
1.0346133668
 30
0.0
 10
15.7442574279
 20
1.0369842578
 30
0.0
 10
15.7433347396
 20
1.0393337501
 30
0.0
 10
15.74249487
 20
1.041624693
 30
0.0
 10
15.741840433
 20
1.0438157945
 30
0.0
 10
15.7414018811
 20
1.0458579618
 30
0.0
 10
15.7411379941
 20
1.0477353809
 30
0.0
 10
15.7410106487
 20
1.0494668507
 30
0.0
 10
15.7409927744
 20
1.0515295278
 30
0.0
 10
15.7411942364
 20
1.0538469957
 30
0.0
 10
15.741769307
 20
1.0563119121
 30
0.0
 10
15.7426199063
 20
1.0583826147
 30
0.0
 10
15.7435549003
 20
1.0598231825
 30
0.0
 10
15.7444085068
 20
1.0607659254
 30
0.0
 10
15.745299439
 20
1.0615615693
 30
0.0
 10
15.7465390309
 20
1.0623617522
 30
0.0
 10
15.7481939106
 20
1.0629957996
 30
0.0
 10
15.7499804545
 20
1.0633090028
 30
0.0
 10
15.7518765662
 20
1.0633163991
 30
0.0
 10
15.7531605623
 20
1.0631408985
 30
0.0
 10
15.7538145906
 20
1.0630167411
 30
0.0
  0
SPLINE
  5
421
100
AcDbEntity
  8
0
100
AcDbSpline
 62
9
  6
CONTINUOUS
 70
0
 71
3
 72
15
 73
11
 74
0
 42
0.0000001
 43
0.0000001
 44
0.0000000001
 40
0.0
 40
0.0
 40
0.0
 40
0.0
 40
0.138949391
 40
0.2758588412
 40
0.4089766983
 40
0.5370985932
 40
0.6596118276
 40
0.7767240124
 40
0.8895681411
 40
1.0
 40
1.0
 40
1.0
 40
1.0
 10
13.768252005
 20
0.6087487439
 30
0.0
 10
13.7682671952
 20
0.6100400529
 30
0.0
 10
13.7684939815
 20
0.6126058674
 30
0.0
 10
13.7694141531
 20
0.6163095153
 30
0.0
 10
13.7708822083
 20
0.6197252962
 30
0.0
 10
13.7728458262
 20
0.6227259994
 30
0.0
 10
13.775237729
 20
0.6251986083
 30
0.0
 10
13.7779741504
 20
0.627046924
 30
0.0
 10
13.7809534582
 20
0.6281914
 30
0.0
 10
13.7830371699
 20
0.6284512192
 30
0.0
 10
13.7840635257
 20
0.6284512192
 30
0.0
  0
SPLINE
  5
422
100
AcDbEntity
  8
0
100
AcDbSpline
 62
9
  6
CONTINUOUS
 70
0
 71
3
 72
15
 73
11
 74
0
 42
0.0000001
 43
0.0000001
 44
0.0000000001
 40
0.0
 40
0.0
 40
0.0
 40
0.0
 40
0.1676372416
 40
0.3263617998
 40
0.4738229568
 40
0.6083184298
 40
0.7284949212
 40
0.8335443946
 40
0.9236015248
 40
1.0
 40
1.0
 40
1.0
 40
1.0
 10
14.7112239198
 20
0.6470755545
 30
0.0
 10
14.71054861
 20
0.647503761
 30
0.0
 10
14.7092135932
 20
0.6483060277
 30
0.0
 10
14.7072159691
 20
0.6493657219
 30
0.0
 10
14.7053012279
 20
0.650236751
 30
0.0
 10
14.7035011227
 20
0.650905002
 30
0.0
 10
14.7018442554
 20
0.6513609834
 30
0.0
 10
14.7003546689
 20
0.6515972275
 30
0.0
 10
14.6990542998
 20
0.6516097053
 30
0.0
 10
14.698265898
 20
0.6514532456
 30
0.0
 10
14.6979235087
 20
0.6513284602
 30
0.0
  0
SPLINE
  5
423
100
AcDbEntity
  8
0
100
AcDbSpline
 62
9
  6
CONTINUOUS
 70
0
 71
3
 72
15
 73
11
 74
0
 42
0.0000001
 43
0.0000001
 44
0.0000000001
 40
0.0
 40
0.0
 40
0.0
 40
0.0
 40
0.148310292
 40
0.2938191648
 40
0.4340920695
 40
0.567214567
 40
0.6914531494
 40
0.8054212355
 40
0.9083487431
 40
1.0
 40
1.0
 40
1.0
 40
1.0
 10
14.7273238442
 20
0.6912158815
 30
0.0
 10
14.726392492
 20
0.6911993407
 30
0.0
 10
14.7245478616
 20
0.6911069761
 30
0.0
 10
14.7218377341
 20
0.6907917353
 30
0.0
 10
14.7192496319
 20
0.6903055492
 30
0.0
 10
14.7168347466
 20
0.6896582683
 30
0.0
 10
14.7146388044
 20
0.6888632094
 30
0.0
 10
14.7127031018
 20
0.6879343283
 30
0.0
 10
14.7110653297
 20
0.686888949
 30
0.0
 10
14.7101392821
 20
0.6860804725
 30
0.0
 10
14.7097461754
 20
0.6856599651
 30
0.0
  0
SPLINE
  5
424
100
AcDbEntity
  8
0
100
AcDbSpline
 62
9
  6
CONTINUOUS
 70
0
 71
3
 72
18
 73
14
 74
0
 42
0.0000001
 43
0.0000001
 44
0.0000000001
 40
0.0
 40
0.0
 40
0.0
 40
0.0
 40
0.1310545116
 40
0.2583247118
 40
0.3828407243
 40
0.5058619014
 40
0.6282991809
 40
0.6895833983
 40
0.7509372377
 40
0.8124849773
 40
0.8743490846
 40
0.93678181
 40
1.0
 40
1.0
 40
1.0
 40
1.0
 10
13.7840635265
 20
0.6284512192
 30
0.0
 10
13.7818732941
 20
0.6284512197
 30
0.0
 10
13.7775524686
 20
0.6285724206
 30
0.0
 10
13.7711950846
 20
0.6294210857
 30
0.0
 10
13.7651337435
 20
0.6310892433
 30
0.0
 10
13.7594746385
 20
0.6336461496
 30
0.0
 10
13.7552110392
 20
0.6365495551
 30
0.0
 10
13.7521913119
 20
0.639325534
 30
0.0
 10
13.7501495071
 20
0.6416372119
 30
0.0
 10
13.7483715179
 20
0.6441701903
 30
0.0
 10
13.7469029721
 20
0.6469164719
 30
0.0
 10
13.7457957165
 20
0.6498578959
 30
0.0
 10
13.7453387721
 20
0.651916782
 30
0.0
 10
13.7451885964
 20
0.6529625807
 30
0.0
  0
SPLINE
  5
425
100
AcDbEntity
  8
0
100
AcDbSpline
 62
9
  6
CONTINUOUS
 70
0
 71
3
 72
15
 73
11
 74
0
 42
0.0000001
 43
0.0000001
 44
0.0000000001
 40
0.0
 40
0.0
 40
0.0
 40
0.0
 40
0.1014761464
 40
0.2105773594
 40
0.3270748195
 40
0.4505724586
 40
0.5804268216
 40
0.715869052
 40
0.8560765565
 40
1.0
 40
1.0
 40
1.0
 40
1.0
 10
13.7451885964
 20
0.6529625807
 30
0.0
 10
13.7449033396
 20
0.6549501775
 30
0.0
 10
13.7445764753
 20
0.6591150207
 30
0.0
 10
13.7447395226
 20
0.6655938085
 30
0.0
 10
13.7455194127
 20
0.6724652804
 30
0.0
 10
13.746892165
 20
0.6796598536
 30
0.0
 10
13.7488311994
 20
0.687109909
 30
0.0
 10
13.7513089027
 20
0.694746198
 30
0.0
 10
13.7542941876
 20
0.7024970366
 30
0.0
 10
13.7565753093
 20
0.7076385712
 30
0.0
 10
13.7577910242
 20
0.7102139375
 30
0.0
  0
SPLINE
  5
426
100
AcDbEntity
  8
0
100
AcDbSpline
 62
9
  6
CONTINUOUS
 70
0
 71
3
 72
19
 73
15
 74
0
 42
0.0000001
 43
0.0000001
 44
0.0000000001
 40
0.0
 40
0.0
 40
0.0
 40
0.0
 40
0.1372191755
 40
0.2714780133
 40
0.3373131177
 40
0.4021911051
 40
0.5288437936
 40
0.6514452959
 40
0.7113550899
 40
0.7703936756
 40
0.8286518785
 40
0.8862413505
 40
0.9433056036
 40
1.0
 40
1.0
 40
1.0
 40
1.0
 10
14.6897334944
 20
0.6775462264
 30
0.0
 10
14.6889264323
 20
0.6743270013
 30
0.0
 10
14.6869468709
 20
0.6680466972
 30
0.0
 10
14.6835329725
 20
0.6606109631
 30
0.0
 10
14.6802922993
 20
0.6550768008
 30
0.0
 10
14.6767886653
 20
0.6499268025
 30
0.0
 10
14.671869481
 20
0.6441006278
 30
0.0
 10
14.6662265769
 20
0.6391454968
 30
0.0
 10
14.6614021388
 20
0.6358407454
 30
0.0
 10
14.6576752198
 20
0.6337138775
 30
0.0
 10
14.6538337099
 20
0.6319312707
 30
0.0
 10
14.6498971141
 20
0.6305034444
 30
0.0
 10
14.6458868554
 20
0.6294374788
 30
0.0
 10
14.6431706841
 20
0.6289715077
 30
0.0
 10
14.6418100676
 20
0.628801166
 30
0.0
  0
LINE
  5
427
100
AcDbEntity
  8
0
100
AcDbLine
 62
9
  6
CONTINUOUS
 10
7.2232434035
 20
12.8871599241
 11
7.2303505613
 21
12.9266924682
  0
SPLINE
  5
428
100
AcDbEntity
  8
0
100
AcDbSpline
 62
9
  6
CONTINUOUS
 70
0
 71
3
 72
15
 73
11
 74
0
 42
0.0000001
 43
0.0000001
 44
0.0000000001
 40
0.0
 40
0.0
 40
0.0
 40
0.0
 40
0.1250049227
 40
0.2500131527
 40
0.3750193623
 40
0.500026807
 40
0.6250339566
 40
0.7500359725
 40
0.8750264902
 40
1.0
 40
1.0
 40
1.0
 40
1.0
 10
7.1851937231
 20
12.1299878544
 30
0.0
 10
7.183686804
 20
12.1107402381
 30
0.0
 10
7.1809975436
 20
12.0722182418
 30
0.0
 10
7.1779592557
 20
12.0143749671
 30
0.0
 10
7.1759222751
 20
11.9564872414
 30
0.0
 10
7.1748785459
 20
11.8985733662
 30
0.0
 10
7.174815839
 20
11.8406508524
 30
0.0
 10
7.1757201922
 20
11.7827379836
 30
0.0
 10
7.177588963
 20
11.7248535797
 30
0.0
 10
7.1794726092
 20
11.6862915533
 30
0.0
 10
7.1805714848
 20
11.6670211953
 30
0.0
  0
SPLINE
  5
429
100
AcDbEntity
  8
0
100
AcDbSpline
 62
9
  6
CONTINUOUS
 70
0
 71
3
 72
14
 73
10
 74
0
 42
0.0000001
 43
0.0000001
 44
0.0000000001
 40
0.0
 40
0.0
 40
0.0
 40
0.0
 40
0.108736885
 40
0.2220667576
 40
0.3400204023
 40
0.4626251206
 40
0.5899052211
 40
0.7218824291
 40
1.0
 40
1.0
 40
1.0
 40
1.0
 10
6.9687069868
 20
11.6764760739
 30
0.0
 10
6.9763961148
 20
11.6766226274
 30
0.0
 10
6.9921022929
 20
11.6767725493
 30
0.0
 10
7.016150894
 20
11.6765903061
 30
0.0
 10
7.0411741415
 20
11.676005523
 30
0.0
 10
7.067171979
 20
11.6750181455
 30
0.0
 10
7.0941445654
 20
11.6736281982
 30
0.0
 10
7.1320737043
 20
11.6711950547
 30
0.0
 10
7.1609839967
 20
11.6688225297
 30
0.0
 10
7.1805714848
 20
11.6670211953
 30
0.0
  0
LINE
  5
42A
100
AcDbEntity
  8
0
100
AcDbLine
 62
9
  6
CONTINUOUS
 10
7.1805732389
 20
11.667021034
 11
7.1811129188
 21
11.6551697552
  0
SPLINE
  5
42B
100
AcDbEntity
  8
0
100
AcDbSpline
 62
9
  6
CONTINUOUS
 70
0
 71
3
 72
11
 73
7
 74
0
 42
0.0000001
 43
0.0000001
 44
0.0000000001
 40
0.0
 40
0.0
 40
0.0
 40
0.0
 40
0.2208661256
 40
0.4611426987
 40
0.720848925
 40
1.0
 40
1.0
 40
1.0
 40
1.0
 10
6.9680606021
 20
11.6617757024
 30
0.0
 10
6.9837531213
 20
11.6615951718
 30
0.0
 10
7.0165151629
 20
11.6610224276
 30
0.0
 10
7.0677166453
 20
11.6596360444
 30
0.0
 10
7.1230438553
 20
11.6576853968
 30
0.0
 10
7.1612982452
 20
11.6560668805
 30
0.0
 10
7.1811129188
 20
11.6551697552
 30
0.0
  0
SPLINE
  5
42C
100
AcDbEntity
  8
0
100
AcDbSpline
 62
9
  6
CONTINUOUS
 70
0
 71
3
 72
39
 73
35
 74
0
 42
0.0000001
 43
0.0000001
 44
0.0000000001
 40
0.0
 40
0.0
 40
0.0
 40
0.0
 40
0.096793384
 40
0.1922238127
 40
0.2854872618
 40
0.3310740104
 40
0.375858771
 40
0.4197671683
 40
0.462701833
 40
0.5452418021
 40
0.5846698526
 40
0.6227717454
 40
0.6594870092
 40
0.694746208
 40
0.7284722308
 40
0.7605815915
 40
0.7909866801
 40
0.8196070845
 40
0.8463695071
 40
0.8712000599
 40
0.8940235079
 40
0.914762467
 40
0.9333384191
 40
0.9496840321
 40
0.9637450983
 40
0.9754793548
 40
0.9804667039
 40
0.9848661749
 40
0.9886802575
 40
0.9919157868
 40
0.9945896634
 40
0.9967513832
 40
0.9984982116
 40
1.0
 40
1.0
 40
1.0
 40
1.0
 10
7.1810978099
 20
11.6551704392
 30
0.0
 10
7.1811628826
 20
11.6500218872
 30
0.0
 10
7.1813399222
 20
11.6397977821
 30
0.0
 10
7.1817672853
 20
11.6246169148
 30
0.0
 10
7.1822706332
 20
11.6121639159
 30
0.0
 10
7.1827919542
 20
11.6024091835
 30
0.0
 10
7.1832304095
 20
11.5952795158
 30
0.0
 10
7.1837092152
 20
11.5882938437
 30
0.0
 10
7.1843933921
 20
11.5793093992
 30
0.0
 10
7.1851703764
 20
11.570571224
 30
0.0
 10
7.1860483908
 20
11.5621015135
 30
0.0
 10
7.1867362269
 20
11.5560631274
 30
0.0
 10
7.1874618671
 20
11.5502525883
 30
0.0
 10
7.188219675
 20
11.5446810011
 30
0.0
 10
7.1890000294
 20
11.5393600536
 30
0.0
 10
7.1897989639
 20
11.5343031026
 30
0.0
 10
7.1906176148
 20
11.529524611
 30
0.0
 10
7.1914538022
 20
11.5250381684
 30
0.0
 10
7.1923034149
 20
11.5208564142
 30
0.0
 10
7.1931611943
 20
11.5169916142
 30
0.0
 10
7.1940198732
 20
11.5134559334
 30
0.0
 10
7.1948721061
 20
11.5102618728
 30
0.0
 10
7.1957103058
 20
11.507421709
 30
0.0
 10
7.1965266615
 20
11.5049466258
 30
0.0
 10
7.1973140279
 20
11.5028470754
 30
0.0
 10
7.1979688423
 20
11.5013447667
 30
0.0
 10
7.1984786393
 20
11.5003431642
 30
0.0
 10
7.1988266431
 20
11.4997328706
 30
0.0
 10
7.1991587144
 20
11.4992218067
 30
0.0
 10
7.1994726514
 20
11.4988099535
 30
0.0
 10
7.1997669368
 20
11.4984958775
 30
0.0
 10
7.2000437512
 20
11.4982783169
 30
0.0
 10
7.2003089355
 20
11.4981563623
 30
0.0
 10
7.2004870703
 20
11.4981456494
 30
0.0
 10
7.2005658646
 20
11.4981588246
 30
0.0
  0
SPLINE
  5
42D
100
AcDbEntity
  8
0
100
AcDbSpline
 62
9
  6
CONTINUOUS
 70
0
 71
3
 72
20
 73
16
 74
0
 42
0.0000001
 43
0.0000001
 44
0.0000000001
 40
0.0
 40
0.0
 40
0.0
 40
0.0
 40
0.060235375
 40
0.1196415338
 40
0.1784605745
 40
0.2369418873
 40
0.2953391895
 40
0.35390729
 40
0.4128987849
 40
0.4725608925
 40
0.5331326206
 40
0.5948424089
 40
0.7224780166
 40
0.8570858744
 40
1.0
 40
1.0
 40
1.0
 40
1.0
 10
7.1174871319
 20
11.3285249325
 30
0.0
 10
7.1172453264
 20
11.3324623034
 30
0.0
 10
7.1170021243
 20
11.3402997458
 30
0.0
 10
7.117377701
 20
11.3519886359
 30
0.0
 10
7.1184968508
 20
11.3635151715
 30
0.0
 10
7.1203597699
 20
11.3748781733
 30
0.0
 10
7.1229664529
 20
11.3860771403
 30
0.0
 10
7.1263167271
 20
11.3971113952
 30
0.0
 10
7.1304102847
 20
11.407980407
 30
0.0
 10
7.1352466096
 20
11.4186836591
 30
0.0
 10
7.1408254469
 20
11.4292211155
 30
0.0
 10
7.1493469554
 20
11.4432045309
 30
0.0
 10
7.1619666171
 20
11.4603191398
 30
0.0
 10
7.1798986737
 20
11.4799309546
 30
0.0
 10
7.1933853292
 20
11.4921556593
 30
0.0
 10
7.2005658646
 20
11.4981588246
 30
0.0
  0
LINE
  5
42E
100
AcDbEntity
  8
0
100
AcDbLine
 62
9
  6
CONTINUOUS
 10
7.2005658943
 20
11.4981588494
 11
7.2030970833
 21
11.4982021595
  0
SPLINE
  5
42F
100
AcDbEntity
  8
0
100
AcDbSpline
 62
9
  6
CONTINUOUS
 70
0
 71
3
 72
11
 73
7
 74
0
 42
0.0000001
 43
0.0000001
 44
0.0000000001
 40
0.0
 40
0.0
 40
0.0
 40
0.0
 40
0.2440157093
 40
0.4909065628
 40
0.7423978074
 40
1.0
 40
1.0
 40
1.0
 40
1.0
 10
14.7097461754
 20
0.6856599633
 30
0.0
 10
14.7098112858
 20
0.6826492197
 30
0.0
 10
14.7094227097
 20
0.6765677628
 30
0.0
 10
14.7072419639
 20
0.6676215542
 30
0.0
 10
14.7034525952
 20
0.6590443042
 30
0.0
 10
14.6999201385
 20
0.6538024785
 30
0.0
 10
14.6979235581
 20
0.6513285186
 30
0.0
  0
SPLINE
  5
430
100
AcDbEntity
  8
0
100
AcDbSpline
 62
9
  6
CONTINUOUS
 70
0
 71
3
 72
16
 73
12
 74
0
 42
0.0000001
 43
0.0000001
 44
0.0000000001
 40
0.0
 40
0.0
 40
0.0
 40
0.0
 40
0.059963043
 40
0.1215136001
 40
0.2470472628
 40
0.3738376259
 40
0.5004856553
 40
0.6264962048
 40
0.751749757
 40
0.8762499188
 40
1.0
 40
1.0
 40
1.0
 40
1.0
 10
14.6979235581
 20
0.6513285186
 30
0.0
 10
14.6971381638
 20
0.6503554529
 30
0.0
 10
14.695464013
 20
0.6484489032
 30
0.0
 10
14.6917799373
 20
0.6448420785
 30
0.0
 10
14.6866186932
 20
0.6407795438
 30
0.0
 10
14.6798128958
 20
0.6367237781
 30
0.0
 10
14.6725650444
 20
0.6335042439
 30
0.0
 10
14.6650397353
 20
0.6311141207
 30
0.0
 10
14.6573569269
 20
0.6295092984
 30
0.0
 10
14.6496088353
 20
0.6286231838
 30
0.0
 10
14.6444292565
 20
0.62845122
 30
0.0
 10
14.6418485494
 20
0.6284512192
 30
0.0
  0
SPLINE
  5
431
100
AcDbEntity
  8
0
100
AcDbSpline
 62
9
  6
CONTINUOUS
 70
0
 71
3
 72
17
 73
13
 74
0
 42
0.0000001
 43
0.0000001
 44
0.0000000001
 40
0.0
 40
0.0
 40
0.0
 40
0.0
 40
0.1205214235
 40
0.2425986882
 40
0.304205491
 40
0.3661713361
 40
0.491090742
 40
0.6171905672
 40
0.7442341717
 40
0.8080293755
 40
0.8719549834
 40
1.0
 40
1.0
 40
1.0
 40
1.0
 10
14.4115012
 20
4.3876670051
 30
0.0
 10
14.4253573466
 20
4.38076988
 30
0.0
 10
14.453627728
 20
4.3676347456
 30
0.0
 10
14.4899215879
 20
4.3531219587
 30
0.0
 10
14.5196813066
 20
4.3426419727
 30
0.0
 10
14.5500735444
 20
4.3328982643
 30
0.0
 10
14.5888650121
 20
4.3222775589
 30
0.0
 10
14.6363855714
 20
4.3121932721
 30
0.0
 10
14.6766564737
 20
4.3061031179
 30
0.0
 10
14.7091982919
 20
4.3026713693
 30
0.0
 10
14.7419553204
 20
4.3002035868
 30
0.0
 10
14.7666170858
 20
4.2994533728
 30
0.0
 10
14.7830611217
 20
4.2994512192
 30
0.0
  0
LINE
  5
432
100
AcDbEntity
  8
0
100
AcDbLine
 62
9
  6
CONTINUOUS
 10
14.6076477931
 20
0.6823975469
 11
14.6085425061
 21
0.831391933
  0
SPLINE
  5
433
100
AcDbEntity
  8
0
100
AcDbSpline
 62
9
  6
CONTINUOUS
 70
0
 71
3
 72
17
 73
13
 74
0
 42
0.0000001
 43
0.0000001
 44
0.0000000001
 40
0.0
 40
0.0
 40
0.0
 40
0.0
 40
0.1280451089
 40
0.1919707677
 40
0.2557660123
 40
0.3828096679
 40
0.5089095401
 40
0.633828912
 40
0.6957947524
 40
0.7574015299
 40
0.8794786753
 40
1.0
 40
1.0
 40
1.0
 40
1.0
 10
14.7830611217
 20
4.2994512192
 30
0.0
 10
14.7995054463
 20
4.299453459
 30
0.0
 10
14.824167642
 20
4.3002036373
 30
0.0
 10
14.8569252537
 20
4.3026713594
 30
0.0
 10
14.8894676454
 20
4.3061031344
 30
0.0
 10
14.9297391625
 20
4.3121939196
 30
0.0
 10
14.9772605548
 20
4.3222782222
 30
0.0
 10
15.0160526221
 20
4.3328993486
 30
0.0
 10
15.0464452602
 20
4.3426435361
 30
0.0
 10
15.0762054377
 20
4.3531237537
 30
0.0
 10
15.112499875
 20
4.3676367993
 30
0.0
 10
15.1407705534
 20
4.3807724838
 30
0.0
 10
15.1546268478
 20
4.3876698683
 30
0.0
  0
SPLINE
  5
434
100
AcDbEntity
  8
0
100
AcDbSpline
 62
9
  6
CONTINUOUS
 70
0
 71
3
 72
27
 73
23
 74
0
 42
0.0000001
 43
0.0000001
 44
0.0000000001
 40
0.0
 40
0.0
 40
0.0
 40
0.0
 40
0.0096190042
 40
0.0199351249
 40
0.031266004
 40
0.0438461087
 40
0.0578403529
 40
0.0733485118
 40
0.0904262291
 40
0.109106576
 40
0.1513270065
 40
0.2000401499
 40
0.255155721
 40
0.3165137762
 40
0.3839002081
 40
0.4570662019
 40
0.5357154305
 40
0.6195354961
 40
0.7082142521
 40
0.8014384955
 40
0.8988458368
 40
1.0
 40
1.0
 40
1.0
 40
1.0
 10
14.6362113156
 20
0.6284512192
 30
0.0
 10
14.6360120789
 20
0.6284512397
 30
0.0
 10
14.6355982794
 20
0.6284963038
 30
0.0
 10
14.6349763214
 20
0.628687242
 30
0.0
 10
14.6343371015
 20
0.62899924
 30
0.0
 10
14.6336788068
 20
0.6294300141
 30
0.0
 10
14.6329994237
 20
0.6299778974
 30
0.0
 10
14.6322981634
 20
0.6306417053
 30
0.0
 10
14.6315751872
 20
0.6314202615
 30
0.0
 10
14.6305402796
 20
0.6326610917
 30
0.0
 10
14.6292072077
 20
0.6345020027
 30
0.0
 10
14.6275875852
 20
0.6370584192
 30
0.0
 10
14.62589181
 20
0.640031229
 30
0.0
 10
14.6241224869
 20
0.6434041666
 30
0.0
 10
14.6222805058
 20
0.6471592527
 30
0.0
 10
14.6203677745
 20
0.6512772717
 30
0.0
 10
14.6183884645
 20
0.6557387982
 30
0.0
 10
14.6163470157
 20
0.6605236309
 30
0.0
 10
14.614248187
 20
0.665611739
 30
0.0
 10
14.6120997511
 20
0.6709834243
 30
0.0
 10
14.6098992925
 20
0.6766123323
 30
0.0
 10
14.6084092511
 20
0.6804456875
 30
0.0
 10
14.6076476378
 20
0.6823975469
 30
0.0
  0
SPLINE
  5
435
100
AcDbEntity
  8
0
100
AcDbSpline
 62
9
  6
CONTINUOUS
 70
0
 71
3
 72
13
 73
9
 74
0
 42
0.0000001
 43
0.0000001
 44
0.0000000001
 40
0.0
 40
0.0
 40
0.0
 40
0.0
 40
0.2726591165
 40
0.5331247202
 40
0.6576158503
 40
0.7774283194
 40
0.8917686242
 40
1.0
 40
1.0
 40
1.0
 40
1.0
 10
7.2832189284
 20
12.9389900841
 30
0.0
 10
7.2880505745
 20
12.9354832767
 30
0.0
 10
7.2975133969
 20
12.9286479528
 30
0.0
 10
7.309272292
 20
12.9203364644
 30
0.0
 10
7.31838881
 20
12.9140875061
 30
0.0
 10
7.3249220842
 20
12.9097299541
 30
0.0
 10
7.3312286826
 20
12.9056759044
 30
0.0
 10
7.33538363
 20
12.9031279459
 30
0.0
 10
7.3374204503
 20
12.9019165587
 30
0.0
  0
SPLINE
  5
436
100
AcDbEntity
  8
0
100
AcDbSpline
 62
9
  6
CONTINUOUS
 70
0
 71
3
 72
15
 73
11
 74
0
 42
0.0000001
 43
0.0000001
 44
0.0000000001
 40
0.0
 40
0.0
 40
0.0
 40
0.0
 40
0.1384166588
 40
0.272979339
 40
0.403274431
 40
0.5292295175
 40
0.651106651
 40
0.7695239482
 40
0.8854346542
 40
1.0
 40
1.0
 40
1.0
 40
1.0
 10
13.8720269891
 20
0.6823975469
 30
0.0
 10
13.8704192445
 20
0.6784113355
 30
0.0
 10
13.8667906018
 20
0.6707239921
 30
0.0
 10
13.8600746276
 20
0.6601162705
 30
0.0
 10
13.8522812822
 20
0.6507653692
 30
0.0
 10
13.843556087
 20
0.6428471797
 30
0.0
 10
13.8340546828
 20
0.6365152723
 30
0.0
 10
13.8239498759
 20
0.6318945835
 30
0.0
 10
13.8134350552
 20
0.6290823488
 30
0.0
 10
13.8062627723
 20
0.6284512175
 30
0.0
 10
13.8027051987
 20
0.6284512192
 30
0.0
  0
SPLINE
  5
437
100
AcDbEntity
  8
0
100
AcDbSpline
 62
9
  6
CONTINUOUS
 70
0
 71
3
 72
24
 73
20
 74
0
 42
0.0000001
 43
0.0000001
 44
0.0000000001
 40
0.0
 40
0.0
 40
0.0
 40
0.0
 40
0.0051646898
 40
0.0110666415
 40
0.01821461
 40
0.0268989753
 40
0.0372801604
 40
0.0494478733
 40
0.0793146017
 40
0.1167081825
 40
0.1616643128
 40
0.2141363058
 40
0.2740366941
 40
0.341233931
 40
0.4155774477
 40
0.4968794755
 40
0.584935706
 40
0.7804244562
 40
1.0
 40
1.0
 40
1.0
 40
1.0
 10
7.2201545566
 20
12.2994923725
 30
0.0
 10
7.2201584495
 20
12.2995203763
 30
0.0
 10
7.2201538014
 20
12.2995825783
 30
0.0
 10
7.2201116927
 20
12.29967445
 30
0.0
 10
7.2200377231
 20
12.2997685445
 30
0.0
 10
7.2199320259
 20
12.2998661909
 30
0.0
 10
7.219794354
 20
12.2999679822
 30
0.0
 10
7.2195506982
 20
12.3001199307
 30
0.0
 10
7.2191617837
 20
12.30031598
 30
0.0
 10
7.2185956807
 20
12.3005550404
 30
0.0
 10
7.2179029001
 20
12.3008102058
 30
0.0
 10
7.2170851201
 20
12.3010807498
 30
0.0
 10
7.2161442166
 20
12.301365701
 30
0.0
 10
7.2150825945
 20
12.3016642707
 30
0.0
 10
7.2139030188
 20
12.301975542
 30
0.0
 10
7.2126086126
 20
12.3022986868
 30
0.0
 10
7.2106653995
 20
12.3027604376
 30
0.0
 10
7.207976401
 20
12.3033570478
 30
0.0
 10
7.2057510388
 20
12.3038163206
 30
0.0
 10
7.2045724397
 20
12.3040524726
 30
0.0
  0
SPLINE
  5
438
100
AcDbEntity
  8
0
100
AcDbSpline
 62
9
  6
CONTINUOUS
 70
0
 71
3
 72
24
 73
20
 74
0
 42
0.0000001
 43
0.0000001
 44
0.0000000001
 40
0.0
 40
0.0
 40
0.0
 40
0.0
 40
0.005361659
 40
0.0114372255
 40
0.0187297717
 40
0.0275340412
 40
0.0380161545
 40
0.0502703079
 40
0.0802773831
 40
0.1177797696
 40
0.1628190807
 40
0.2153498802
 40
0.2752835337
 40
0.3424852757
 40
0.4168003103
 40
0.4980352466
 40
0.5859794691
 40
0.7810817448
 40
1.0
 40
1.0
 40
1.0
 40
1.0
 10
7.2019281423
 20
12.1312321641
 30
0.0
 10
7.2019257867
 20
12.1312018981
 30
0.0
 10
7.2019072982
 20
12.1311379724
 30
0.0
 10
7.2018442886
 20
12.1310509533
 30
0.0
 10
7.2017483927
 20
12.1309687628
 30
0.0
 10
7.2016196067
 20
12.130890087
 30
0.0
 10
7.2014575893
 20
12.1308143647
 30
0.0
 10
7.2011774892
 20
12.1307101366
 30
0.0
 10
7.2007406336
 20
12.1305925187
 30
0.0
 10
7.2001150397
 20
12.1304700236
 30
0.0
 10
7.1993580502
 20
12.1303594617
 30
0.0
 10
7.1984715798
 20
12.1302612243
 30
0.0
 10
7.1974578057
 20
12.1301759055
 30
0.0
 10
7.1963194203
 20
12.1301037923
 30
0.0
 10
7.1950595211
 20
12.1300452253
 30
0.0
 10
7.1936815597
 20
12.1300003675
 30
0.0
 10
7.1916194165
 20
12.1299576537
 30
0.0
 10
7.1887771811
 20
12.1299431498
 30
0.0
 10
7.1864330617
 20
12.1299674841
 30
0.0
 10
7.1851937231
 20
12.1299878544
 30
0.0
  0
SPLINE
  5
439
100
AcDbEntity
  8
0
100
AcDbSpline
 62
9
  6
CONTINUOUS
 70
0
 71
3
 72
25
 73
21
 74
0
 42
0.0000001
 43
0.0000001
 44
0.0000000001
 40
0.0
 40
0.0
 40
0.0
 40
0.0
 40
0.0059308382
 40
0.0125437792
 40
0.020338247
 40
0.0296221824
 40
0.0405752638
 40
0.0532995157
 40
0.0678539364
 40
0.0842731941
 40
0.1227612097
 40
0.1687840196
 40
0.2222594812
 40
0.2830287205
 40
0.3508932882
 40
0.4256056995
 40
0.5068914528
 40
0.5944305314
 40
0.7869020867
 40
1.0
 40
1.0
 40
1.0
 40
1.0
 10
7.2038847292
 20
11.6728644495
 30
0.0
 10
7.2038888788
 20
11.6728164361
 30
0.0
 10
7.203878385
 20
11.6727126017
 30
0.0
 10
7.2038093541
 20
11.6725602401
 30
0.0
 10
7.2036909314
 20
11.6724069571
 30
0.0
 10
7.2035237997
 20
11.6722511975
 30
0.0
 10
7.2033077804
 20
11.6720921457
 30
0.0
 10
7.2030427361
 20
11.6719295738
 30
0.0
 10
7.202728686
 20
11.6717634904
 30
0.0
 10
7.2022170343
 20
11.6715247598
 30
0.0
 10
7.2014533438
 20
11.6712239202
 30
0.0
 10
7.2003900169
 20
11.6708673386
 30
0.0
 10
7.1991401432
 20
11.6705006644
 30
0.0
 10
7.1977085921
 20
11.6701253861
 30
0.0
 10
7.1961009113
 20
11.6697433191
 30
0.0
 10
7.1943234795
 20
11.669356034
 30
0.0
 10
7.19238346
 20
11.6689652423
 30
0.0
 10
7.1894978443
 20
11.6684243618
 30
0.0
 10
7.1855466084
 20
11.6677570497
 30
0.0
 10
7.1822873963
 20
11.6672679226
 30
0.0
 10
7.1805731325
 20
11.6670236792
 30
0.0
  0
SPLINE
  5
43A
100
AcDbEntity
  8
0
100
AcDbSpline
 62
9
  6
CONTINUOUS
 70
0
 71
3
 72
24
 73
20
 74
0
 42
0.0000001
 43
0.0000001
 44
0.0000000001
 40
0.0
 40
0.0
 40
0.0
 40
0.0
 40
0.0066615471
 40
0.0139305845
 40
0.0222777941
 40
0.0320161182
 40
0.0433405069
 40
0.0563679601
 40
0.0877763313
 40
0.1265453169
 40
0.1727198114
 40
0.2262368137
 40
0.2869479008
 40
0.354659977
 40
0.42912747
 40
0.5100755897
 40
0.5971822107
 40
0.7884907391
 40
1.0
 40
1.0
 40
1.0
 40
1.0
 10
7.204872269
 20
11.6616986882
 30
0.0
 10
7.204877287
 20
11.6616432166
 30
0.0
 10
7.2048686027
 20
11.6615248515
 30
0.0
 10
7.2048011147
 20
11.6613491292
 30
0.0
 10
7.2046823173
 20
11.6611719805
 30
0.0
 10
7.2045132467
 20
11.6609923509
 30
0.0
 10
7.204293988
 20
11.6608094349
 30
0.0
 10
7.2039100779
 20
11.6605440885
 30
0.0
 10
7.2032973826
 20
11.6602110897
 30
0.0
 10
7.2024065293
 20
11.659818876
 30
0.0
 10
7.2013211077
 20
11.6594147192
 30
0.0
 10
7.2000452163
 20
11.6590005696
 30
0.0
 10
7.1985835417
 20
11.6585783092
 30
0.0
 10
7.1969419635
 20
11.6581499464
 30
0.0
 10
7.1951271021
 20
11.6577173009
 30
0.0
 10
7.193146448
 20
11.6572823287
 30
0.0
 10
7.1902020889
 20
11.6566827756
 30
0.0
 10
7.1861718566
 20
11.6559475111
 30
0.0
 10
7.1828463928
 20
11.655412456
 30
0.0
 10
7.1810980605
 20
11.655146414
 30
0.0
  0
SPLINE
  5
43B
100
AcDbEntity
  8
0
100
AcDbSpline
 62
9
  6
CONTINUOUS
 70
0
 71
3
 72
19
 73
15
 74
0
 42
0.0000001
 43
0.0000001
 44
0.0000000001
 40
0.0
 40
0.0
 40
0.0
 40
0.0
 40
0.0625182252
 40
0.1250999403
 40
0.1877292771
 40
0.2504276203
 40
0.3131959047
 40
0.3760445684
 40
0.5019349207
 40
0.6280455256
 40
0.7539148567
 40
0.8784976921
 40
0.9398106192
 40
1.0
 40
1.0
 40
1.0
 40
1.0
 10
14.9561951062
 20
0.6087487439
 30
0.0
 10
14.9541692444
 20
0.6087487448
 30
0.0
 10
14.9501149626
 20
0.6088176318
 30
0.0
 10
14.9440399932
 20
0.6091702028
 30
0.0
 10
14.937982589
 20
0.6098175044
 30
0.0
 10
14.931963547
 20
0.6107971219
 30
0.0
 10
14.9260014658
 20
0.6121136422
 30
0.0
 10
14.9181550612
 20
0.614331194
 30
0.0
 10
14.9085950088
 20
0.6179670874
 30
0.0
 10
14.8977134677
 20
0.6236399886
 30
0.0
 10
14.8875812155
 20
0.6304840866
 30
0.0
 10
14.8798623147
 20
0.637035017
 30
0.0
 10
14.8742139336
 20
0.6426679028
 30
0.0
 10
14.8715749278
 20
0.6455928322
 30
0.0
 10
14.8703078014
 20
0.6470755458
 30
0.0
  0
SPLINE
  5
43C
100
AcDbEntity
  8
0
100
AcDbSpline
 62
7
  6
CONTINUOUS
 70
0
 71
3
 72
9
 73
5
 74
0
 42
0.0000001
 43
0.0000001
 44
0.0000000001
 40
0.0
 40
0.0
 40
0.0
 40
0.0
 40
0.2470177509
 40
1.0
 40
1.0
 40
1.0
 40
1.0
 10
7.2312805966
 20
12.9048133475
 30
0.0
 10
7.2306973591
 20
12.9033260943
 30
0.0
 10
7.2282465329
 20
12.8973404675
 30
0.0
 10
7.2254668894
 20
12.8914923977
 30
0.0
 10
7.2232434033
 20
12.8871599242
 30
0.0
  0
SPLINE
  5
43D
100
AcDbEntity
  8
0
100
AcDbSpline
 62
9
  6
CONTINUOUS
 70
0
 71
3
 72
13
 73
9
 74
0
 42
0.0000001
 43
0.0000001
 44
0.0000000001
 40
0.0
 40
0.0
 40
0.0
 40
0.0
 40
0.1237198238
 40
0.2479888149
 40
0.3727099745
 40
0.4978024826
 40
0.7487303036
 40
1.0
 40
1.0
 40
1.0
 40
1.0
 10
7.3099300763
 20
12.7837193527
 30
0.0
 10
7.3059478213
 20
12.7876165906
 30
0.0
 10
7.2981009108
 20
12.7955675319
 30
0.0
 10
7.2866710154
 20
12.8078632065
 30
0.0
 10
7.2755186876
 20
12.8204934025
 30
0.0
 10
7.2609742609
 20
12.8377304267
 30
0.0
 10
7.2433941222
 20
12.8598535999
 30
0.0
 10
7.2298845758
 20
12.8779971425
 30
0.0
 10
7.2232434159
 20
12.8871599227
 30
0.0
  0
SPLINE
  5
43E
100
AcDbEntity
  8
0
100
AcDbSpline
 62
7
  6
CONTINUOUS
 70
0
 71
3
 72
19
 73
15
 74
0
 42
0.0000001
 43
0.0000001
 44
0.0000000001
 40
0.0
 40
0.0
 40
0.0
 40
0.0
 40
0.1032938901
 40
0.1993995963
 40
0.2874733379
 40
0.3676390692
 40
0.4406875428
 40
0.5076622921
 40
0.5695856345
 40
0.6273391518
 40
0.732960405
 40
0.8287320397
 40
0.9171938358
 40
1.0
 40
1.0
 40
1.0
 40
1.0
 10
7.2312805909
 20
12.9048133334
 30
0.0
 10
7.2321299006
 20
12.906979073
 30
0.0
 10
7.2339406238
 20
12.9110961904
 30
0.0
 10
7.2370971329
 20
12.9167604749
 30
0.0
 10
7.2405143651
 20
12.9216487668
 30
0.0
 10
7.2440859563
 20
12.9257577592
 30
0.0
 10
7.2477211976
 20
12.9291438252
 30
0.0
 10
7.2513545487
 20
12.9318920193
 30
0.0
 10
7.2549441342
 20
12.934092159
 30
0.0
 10
7.2595009475
 20
12.9363368737
 30
0.0
 10
7.2650473058
 20
12.9382431096
 30
0.0
 10
7.2714958527
 20
12.9393937604
 30
0.0
 10
7.2775226661
 20
12.9396220535
 30
0.0
 10
7.2813756316
 20
12.9392732479
 30
0.0
 10
7.2832189156
 20
12.938990086
 30
0.0
  0
SPLINE
  5
43F
100
AcDbEntity
  8
0
100
AcDbSpline
 62
9
  6
CONTINUOUS
 70
0
 71
3
 72
27
 73
23
 74
0
 42
0.0000001
 43
0.0000001
 44
0.0000000001
 40
0.0
 40
0.0
 40
0.0
 40
0.0
 40
0.0244929077
 40
0.0381878255
 40
0.0529876378
 40
0.0689828184
 40
0.0862480259
 40
0.1048450794
 40
0.1248249959
 40
0.1462252896
 40
0.1690692164
 40
0.219150198
 40
0.2751577329
 40
0.3370216857
 40
0.404573396
 40
0.4775260931
 40
0.5554698858
 40
0.6379124048
 40
0.7242648062
 40
0.8138611653
 40
0.9060194106
 40
1.0
 40
1.0
 40
1.0
 40
1.0
 10
7.3374206292
 20
12.9019164517
 30
0.0
 10
7.3379797638
 20
12.9010770149
 30
0.0
 10
7.3386801292
 20
12.8996507077
 30
0.0
 10
7.3393629427
 20
12.8975774944
 30
0.0
 10
7.3397902272
 20
12.8957935679
 30
0.0
 10
7.3401117434
 20
12.8938394178
 30
0.0
 10
7.340326428
 20
12.8917135266
 30
0.0
 10
7.3404334796
 20
12.8894155096
 30
0.0
 10
7.3404323114
 20
12.8869448825
 30
0.0
 10
7.3403221518
 20
12.8843017945
 30
0.0
 10
7.3400186258
 20
12.880428673
 30
0.0
 10
7.3393393054
 20
12.8751595766
 30
0.0
 10
7.3381127268
 20
12.868350852
 30
0.0
 10
7.3364490081
 20
12.8608967918
 30
0.0
 10
7.334361445
 20
12.8528277878
 30
0.0
 10
7.3318671443
 20
12.8441838893
 30
0.0
 10
7.3289833469
 20
12.8350172654
 30
0.0
 10
7.3257433198
 20
12.8253865522
 30
0.0
 10
7.3221805167
 20
12.8153598348
 30
0.0
 10
7.3183244425
 20
12.8050142515
 30
0.0
 10
7.3142324649
 20
12.7944223166
 30
0.0
 10
7.3113853555
 20
12.787305386
 30
0.0
 10
7.3099300763
 20
12.7837193527
 30
0.0
  0
SPLINE
  5
440
100
AcDbEntity
  8
0
100
AcDbSpline
 62
9
  6
CONTINUOUS
 70
0
 71
3
 72
24
 73
20
 74
0
 42
0.0000001
 43
0.0000001
 44
0.0000000001
 40
0.0
 40
0.0
 40
0.0
 40
0.0
 40
0.0058639721
 40
0.0124031604
 40
0.0201125457
 40
0.0292974724
 40
0.0401363893
 40
0.052731451
 40
0.0833954459
 40
0.1215378773
 40
0.1671877066
 40
0.2202848335
 40
0.2806980436
 40
0.3482592396
 40
0.422755889
 40
0.5039507763
 40
0.5915656779
 40
0.7848628416
 40
1.0
 40
1.0
 40
1.0
 40
1.0
 10
7.3288503323
 20
12.7740293724
 30
0.0
 10
7.3288632749
 20
12.774069471
 30
0.0
 10
7.3288746738
 20
12.7741600104
 30
0.0
 10
7.3288456769
 20
12.7743033819
 30
0.0
 10
7.3287747564
 20
12.7744572456
 30
0.0
 10
7.3286627902
 20
12.7746228137
 30
0.0
 10
7.3285097984
 20
12.7748008665
 30
0.0
 10
7.3282321611
 20
12.7750734155
 30
0.0
 10
7.3277755156
 20
12.7754407824
 30
0.0
 10
7.3270976872
 20
12.7759071592
 30
0.0
 10
7.3262590936
 20
12.7764219305
 30
0.0
 10
7.3252624033
 20
12.776983132
 30
0.0
 10
7.324110659
 20
12.7775886876
 30
0.0
 10
7.3228077791
 20
12.7782362955
 30
0.0
 10
7.3213582293
 20
12.7789236461
 30
0.0
 10
7.3197670966
 20
12.7796482025
 30
0.0
 10
7.3173850557
 20
12.7806951929
 30
0.0
 10
7.3140970944
 20
12.7820721167
 30
0.0
 10
7.3113703217
 20
12.7831577362
 30
0.0
 10
7.3099300889
 20
12.7837193748
 30
0.0
  0
SPLINE
  5
441
100
AcDbEntity
  8
0
100
AcDbSpline
 62
9
  6
CONTINUOUS
 70
0
 71
3
 72
35
 73
31
 74
0
 42
0.0000001
 43
0.0000001
 44
0.0000000001
 40
0.0
 40
0.0
 40
0.0
 40
0.0
 40
0.0116354759
 40
0.0173642666
 40
0.0229592062
 40
0.0336570059
 40
0.0437366413
 40
0.0533219732
 40
0.0625292349
 40
0.0801227644
 40
0.0970042615
 40
0.1134248998
 40
0.1295317786
 40
0.1454155328
 40
0.1611363959
 40
0.1767337478
 40
0.2076656256
 40
0.2383664319
 40
0.2689245206
 40
0.2993929097
 40
0.3298070475
 40
0.3905545761
 40
0.4512823385
 40
0.5120407322
 40
0.5728522548
 40
0.6337240851
 40
0.6946556715
 40
0.7556424522
 40
0.8777531543
 40
1.0
 40
1.0
 40
1.0
 40
1.0
 10
7.2303505605
 20
12.9266924681
 30
0.0
 10
7.230437654
 20
12.9270738724
 30
0.0
 10
7.2305144175
 20
12.9276572845
 30
0.0
 10
7.2305062383
 20
12.9284298991
 30
0.0
 10
7.2304367238
 20
12.9291678324
 30
0.0
 10
7.2302489623
 20
12.930038287
 30
0.0
 10
7.2298960141
 20
12.9309988007
 30
0.0
 10
7.2294671926
 20
12.9318712793
 30
0.0
 10
7.2288346719
 20
12.9329199826
 30
0.0
 10
7.2279377811
 20
12.9340885253
 30
0.0
 10
7.2267623274
 20
12.9353349149
 30
0.0
 10
7.2255270335
 20
12.93644796
 30
0.0
 10
7.2242513189
 20
12.937460255
 30
0.0
 10
7.2229446268
 20
12.9383919157
 30
0.0
 10
7.2216129979
 20
12.9392561628
 30
0.0
 10
7.2198167532
 20
12.9403312877
 30
0.0
 10
7.2175259216
 20
12.9415573033
 30
0.0
 10
7.2147236053
 20
12.9428843756
 30
0.0
 10
7.2118850689
 20
12.9440922661
 30
0.0
 10
7.2090176814
 20
12.9452029472
 30
0.0
 10
7.2051643571
 20
12.9465740823
 30
0.0
 10
7.2002941258
 20
12.9481164085
 30
0.0
 10
7.1943906763
 20
12.949760612
 30
0.0
 10
7.1884430958
 20
12.951245034
 30
0.0
 10
7.182460932
 20
12.9526042052
 30
0.0
 10
7.1764512461
 20
12.9538640703
 30
0.0
 10
7.1704195692
 20
12.9550446901
 30
0.0
 10
7.1623507195
 20
12.9565340786
 30
0.0
 10
7.1522308788
 20
12.9582664887
 30
0.0
 10
7.1441160745
 20
12.959553669
 30
0.0
 10
7.1400531013
 20
12.9601758086
 30
0.0
  0
SPLINE
  5
442
100
AcDbEntity
  8
0
100
AcDbSpline
 62
9
  6
CONTINUOUS
 70
0
 71
3
 72
14
 73
10
 74
0
 42
0.0000001
 43
0.0000001
 44
0.0000000001
 40
0.0
 40
0.0
 40
0.0
 40
0.0
 40
0.2731025411
 40
0.4064052039
 40
0.535579277
 40
0.6596949954
 40
0.7782893952
 40
0.8914688555
 40
1.0
 40
1.0
 40
1.0
 40
1.0
 10
7.1263794721
 20
12.9425589265
 30
0.0
 10
7.1266633328
 20
12.9446939788
 30
0.0
 10
7.1274825675
 20
12.9478394558
 30
0.0
 10
7.1293201849
 20
12.9516524995
 30
0.0
 10
7.1310103341
 20
12.9542029737
 30
0.0
 10
7.1329776784
 20
12.9563932442
 30
0.0
 10
7.1351723744
 20
12.9581643065
 30
0.0
 10
7.1375361191
 20
12.9594654293
 30
0.0
 10
7.13921488
 20
12.9600025408
 30
0.0
 10
7.1400530959
 20
12.9601758117
 30
0.0
  0
SPLINE
  5
443
100
AcDbEntity
  8
0
100
AcDbSpline
 62
9
  6
CONTINUOUS
 70
0
 71
3
 72
14
 73
10
 74
0
 42
0.0000001
 43
0.0000001
 44
0.0000000001
 40
0.0
 40
0.0
 40
0.0
 40
0.0
 40
0.1087081734
 40
0.2219669516
 40
0.3405241768
 40
0.4645168821
 40
0.5935332021
 40
0.7267110785
 40
1.0
 40
1.0
 40
1.0
 40
1.0
 10
7.1400530966
 20
12.9601758116
 30
0.0
 10
7.1408869554
 20
12.9603481819
 30
0.0
 10
7.1425568224
 20
12.9608785338
 30
0.0
 10
7.1449128512
 20
12.9621580197
 30
0.0
 10
7.1471065658
 20
12.9638978743
 30
0.0
 10
7.1490818722
 20
12.9660500199
 30
0.0
 10
7.1507905284
 20
12.9685587388
 30
0.0
 10
7.152669927
 20
12.9723180703
 30
0.0
 10
7.1535368148
 20
12.9754267129
 30
0.0
 10
7.1538608172
 20
12.9775426646
 30
0.0
  0
LINE
  5
444
100
AcDbEntity
  8
0
100
AcDbLine
 62
9
  6
CONTINUOUS
 10
7.2303505606
 20
12.926692468
 11
7.2351091429
 21
12.9254889563
  0
SPLINE
  5
445
100
AcDbEntity
  8
0
100
AcDbSpline
 62
9
  6
CONTINUOUS
 70
0
 71
3
 72
19
 73
15
 74
0
 42
0.0000001
 43
0.0000001
 44
0.0000000001
 40
0.0
 40
0.0
 40
0.0
 40
0.0
 40
0.1443152878
 40
0.2822876185
 40
0.4140264579
 40
0.5397946264
 40
0.6006259902
 40
0.6601403937
 40
0.7184693288
 40
0.7757729963
 40
0.8323101752
 40
0.8883274627
 40
0.9441305598
 40
1.0
 40
1.0
 40
1.0
 40
1.0
 10
15.8485621898
 20
0.6470755458
 30
0.0
 10
15.8488281407
 20
0.6443570786
 30
0.0
 10
15.8487766135
 20
0.6389650616
 30
0.0
 10
15.8470228084
 20
0.631268552
 30
0.0
 10
15.8438289525
 20
0.6244379125
 30
0.0
 10
15.8401701459
 20
0.6195909423
 30
0.0
 10
15.8368062039
 20
0.6163582638
 30
0.0
 10
15.834129901
 20
0.6142803313
 30
0.0
 10
15.8313066506
 20
0.6125312522
 30
0.0
 10
15.8283646005
 20
0.6111159978
 30
0.0
 10
15.8253314884
 20
0.6100325792
 30
0.0
 10
15.822229614
 20
0.6092786041
 30
0.0
 10
15.8190811439
 20
0.6088414588
 30
0.0
 10
15.8169661501
 20
0.6087487454
 30
0.0
 10
15.8159087132
 20
0.6087487439
 30
0.0
  0
SPLINE
  5
446
100
AcDbEntity
  8
0
100
AcDbSpline
 62
9
  6
CONTINUOUS
 70
0
 71
3
 72
25
 73
21
 74
0
 42
0.0000001
 43
0.0000001
 44
0.0000000001
 40
0.0
 40
0.0
 40
0.0
 40
0.0
 40
0.0393968236
 40
0.0760190715
 40
0.1105687017
 40
0.1440608275
 40
0.1778795748
 40
0.2137512316
 40
0.2533810595
 40
0.2982365559
 40
0.3496660287
 40
0.4092675357
 40
0.4790642682
 40
0.5620317623
 40
0.6098358858
 40
0.6618524433
 40
0.7166884827
 40
0.7728301625
 40
0.8862408049
 40
1.0
 40
1.0
 40
1.0
 40
1.0
 10
6.0811715841
 20
13.4754012827
 30
0.0
 10
6.0815771203
 20
13.4754504514
 30
0.0
 10
6.0823667703
 20
13.4754986058
 30
0.0
 10
6.0835136494
 20
13.4753933078
 30
0.0
 10
6.084565129
 20
13.4750985935
 30
0.0
 10
6.0855104708
 20
13.4746093724
 30
0.0
 10
6.0863315635
 20
13.4739077585
 30
0.0
 10
6.0869995667
 20
13.472979415
 30
0.0
 10
6.0874964859
 20
13.4718255923
 30
0.0
 10
6.0878097415
 20
13.4704448403
 30
0.0
 10
6.0879218708
 20
13.4688268899
 30
0.0
 10
6.0877994608
 20
13.4669508601
 30
0.0
 10
6.0873914515
 20
13.4647820639
 30
0.0
 10
6.086774692
 20
13.462790783
 30
0.0
 10
6.0860645428
 20
13.4610326735
 30
0.0
 10
6.085386094
 20
13.4595789457
 30
0.0
 10
6.0846165527
 20
13.458074031
 30
0.0
 10
6.0835194903
 20
13.4560221723
 30
0.0
 10
6.0821102877
 20
13.4534445603
 30
0.0
 10
6.0809818645
 20
13.4513769166
 30
0.0
 10
6.0804181118
 20
13.4503407851
 30
0.0
  0
SPLINE
  5
447
100
AcDbEntity
  8
0
100
AcDbSpline
 62
9
  6
CONTINUOUS
 70
0
 71
3
 72
15
 73
11
 74
0
 42
0.0000001
 43
0.0000001
 44
0.0000000001
 40
0.0
 40
0.0
 40
0.0
 40
0.0
 40
0.1287518402
 40
0.2565005825
 40
0.3830752871
 40
0.5084030196
 40
0.6325374369
 40
0.75565037
 40
0.8780096663
 40
1.0
 40
1.0
 40
1.0
 40
1.0
 10
5.9252033166
 20
13.240357208
 30
0.0
 10
5.9253203264
 20
13.2413811398
 30
0.0
 10
5.9257049075
 20
13.243407125
 30
0.0
 10
5.9267251426
 20
13.2463106371
 30
0.0
 10
5.9281629506
 20
13.2490017722
 30
0.0
 10
5.9299840114
 20
13.2514140035
 30
0.0
 10
5.9321444103
 20
13.2534884423
 30
0.0
 10
5.9345921699
 20
13.2551738017
 30
0.0
 10
5.9372666707
 20
13.256428445
 30
0.0
 10
5.9391608015
 20
13.2569573645
 30
0.0
 10
5.9401198649
 20
13.2571409331
 30
0.0
  0
SPLINE
  5
448
100
AcDbEntity
  8
0
100
AcDbSpline
 62
9
  6
CONTINUOUS
 70
0
 71
3
 72
11
 73
7
 74
0
 42
0.0000001
 43
0.0000001
 44
0.0000000001
 40
0.0
 40
0.0
 40
0.0
 40
0.0
 40
0.2744918541
 40
0.528975598
 40
0.7684847367
 40
1.0
 40
1.0
 40
1.0
 40
1.0
 10
5.9583941647
 20
13.2691163076
 30
0.0
 10
5.9584448224
 20
13.2695244555
 30
0.0
 10
5.9585956906
 20
13.270306135
 30
0.0
 10
5.9589987567
 20
13.2713911159
 30
0.0
 10
5.9595674189
 20
13.272325877
 30
0.0
 10
5.9600573535
 20
13.2728428495
 30
0.0
 10
5.9603221212
 20
13.2730669661
 30
0.0
  0
SPLINE
  5
449
100
AcDbEntity
  8
0
100
AcDbSpline
 62
9
  6
CONTINUOUS
 70
0
 71
3
 72
13
 73
9
 74
0
 42
0.0000001
 43
0.0000001
 44
0.0000000001
 40
0.0
 40
0.0
 40
0.0
 40
0.0
 40
0.3232119988
 40
0.5897772188
 40
0.7044978399
 40
0.8091790119
 40
0.906533443
 40
1.0
 40
1.0
 40
1.0
 40
1.0
 10
6.0240800033
 20
13.3512730502
 30
0.0
 10
6.0237919111
 20
13.3512876551
 30
0.0
 10
6.0232641044
 20
13.3512868613
 30
0.0
 10
6.0226387794
 20
13.3511824016
 30
0.0
 10
6.022231813
 20
13.3510284604
 30
0.0
 10
6.0219847805
 20
13.350888207
 30
0.0
 10
6.0217818638
 20
13.3507172221
 30
0.0
 10
6.0216762137
 20
13.3505817046
 30
0.0
 10
6.0216323695
 20
13.3505107386
 30
0.0
  0
SPLINE
  5
44A
100
AcDbEntity
  8
0
100
AcDbSpline
 62
9
  6
CONTINUOUS
 70
0
 71
3
 72
12
 73
8
 74
0
 42
0.0000001
 43
0.0000001
 44
0.0000000001
 40
0.0
 40
0.0
 40
0.0
 40
0.0
 40
0.3072221723
 40
0.5693501293
 40
0.79488131
 40
0.8988358624
 40
1.0
 40
1.0
 40
1.0
 40
1.0
 10
6.0536798455
 20
13.4004462938
 30
0.0
 10
6.0533726902
 20
13.4004275583
 30
0.0
 10
6.052804066
 20
13.4003592101
 30
0.0
 10
6.0520368132
 20
13.4001289694
 30
0.0
 10
6.051519008
 20
13.3998228512
 30
0.0
 10
6.0512108679
 20
13.3995183676
 30
0.0
 10
6.0510909271
 20
13.3993500184
 30
0.0
 10
6.0510396834
 20
13.3992626006
 30
0.0
  0
SPLINE
  5
44B
100
AcDbEntity
  8
0
100
AcDbSpline
 62
9
  6
CONTINUOUS
 70
0
 71
3
 72
9
 73
5
 74
0
 42
0.0000001
 43
0.0000001
 44
0.0000000001
 40
0.0
 40
0.0
 40
0.0
 40
0.0
 40
0.4984512253
 40
1.0
 40
1.0
 40
1.0
 40
1.0
 10
6.0844813253
 20
13.4839365969
 30
0.0
 10
6.0836290366
 20
13.4826653192
 30
0.0
 10
6.0822004476
 20
13.4799154953
 30
0.0
 10
6.0814036237
 20
13.4769218468
 30
0.0
 10
6.0811703526
 20
13.4753995679
 30
0.0
  0
SPLINE
  5
44C
100
AcDbEntity
  8
0
100
AcDbSpline
 62
9
  6
CONTINUOUS
 70
0
 71
3
 72
14
 73
10
 74
0
 42
0.0000001
 43
0.0000001
 44
0.0000000001
 40
0.0
 40
0.0
 40
0.0
 40
0.0
 40
0.2557612482
 40
0.3826765373
 40
0.508672975
 40
0.6335412936
 40
0.7570585691
 40
0.8790934972
 40
1.0
 40
1.0
 40
1.0
 40
1.0
 10
6.0915431358
 20
13.2344025081
 30
0.0
 10
6.0883858851
 20
13.2354143182
 30
0.0
 10
6.0837837946
 20
13.2373743854
 30
0.0
 10
6.0781733708
 20
13.2408560219
 30
0.0
 10
6.0743101897
 20
13.2438839627
 30
0.0
 10
6.0708676966
 20
13.2473227106
 30
0.0
 10
6.0679492654
 20
13.2511577589
 30
0.0
 10
6.0656938929
 20
13.2553629863
 30
0.0
 10
6.0647514486
 20
13.2583978315
 30
0.0
 10
6.0644647584
 20
13.2599386914
 30
0.0
  0
SPLINE
  5
44D
100
AcDbEntity
  8
0
100
AcDbSpline
 62
9
  6
CONTINUOUS
 70
0
 71
3
 72
23
 73
19
 74
0
 42
0.0000001
 43
0.0000001
 44
0.0000000001
 40
0.0
 40
0.0
 40
0.0
 40
0.0
 40
0.0994688499
 40
0.1520875724
 40
0.2067127381
 40
0.2633748616
 40
0.3220642579
 40
0.3827411802
 40
0.445337818
 40
0.5097623894
 40
0.5759017794
 40
0.6436237583
 40
0.7127763268
 40
0.7831856726
 40
0.8546552197
 40
0.9269815379
 40
0.963411971
 40
1.0
 40
1.0
 40
1.0
 40
1.0
 10
6.0644647584
 20
13.2599386914
 30
0.0
 10
6.0639783157
 20
13.2625538952
 30
0.0
 10
6.0635960885
 20
13.2666261032
 30
0.0
 10
6.0636744385
 20
13.2721555535
 30
0.0
 10
6.0640288872
 20
13.2765279998
 30
0.0
 10
6.0646717898
 20
13.281030371
 30
0.0
 10
6.0655963558
 20
13.2856484722
 30
0.0
 10
6.0667952854
 20
13.2903666499
 30
0.0
 10
6.0682612771
 20
13.2951691727
 30
0.0
 10
6.0699866622
 20
13.3000398144
 30
0.0
 10
6.0719656212
 20
13.3049609644
 30
0.0
 10
6.0741894627
 20
13.3099152434
 30
0.0
 10
6.0766532991
 20
13.3148824001
 30
0.0
 10
6.0793470313
 20
13.319842953
 30
0.0
 10
6.08224611
 20
13.3247844612
 30
0.0
 10
6.0847728227
 20
13.3288889663
 30
0.0
 10
6.0868326144
 20
13.3321852134
 30
0.0
 10
6.0878734363
 20
13.3338374206
 30
0.0
 10
6.0883971203
 20
13.3346639435
 30
0.0
  0
SPLINE
  5
44E
100
AcDbEntity
  8
0
100
AcDbSpline
 62
9
  6
CONTINUOUS
 70
0
 71
3
 72
15
 73
11
 74
0
 42
0.0000001
 43
0.0000001
 44
0.0000000001
 40
0.0
 40
0.0
 40
0.0
 40
0.0
 40
0.139563095
 40
0.2777890613
 40
0.4132050167
 40
0.5443658461
 40
0.669886105
 40
0.7884553842
 40
0.8988570719
 40
1.0
 40
1.0
 40
1.0
 40
1.0
 10
6.0883971203
 20
13.3346639435
 30
0.0
 10
6.0924847705
 20
13.3329160532
 30
0.0
 10
6.1006601868
 20
13.3295280482
 30
0.0
 10
6.1129314288
 20
13.3247644306
 30
0.0
 10
6.1250585787
 20
13.3203784794
 30
0.0
 10
6.136905757
 20
13.3164191255
 30
0.0
 10
6.1483401635
 20
13.3129303226
 30
0.0
 10
6.1592338778
 20
13.3099505337
 30
0.0
 10
6.1694648576
 20
13.3075123112
 30
0.0
 10
6.1760776895
 20
13.3062036647
 30
0.0
 10
6.1792526562
 20
13.3056561576
 30
0.0
  0
SPLINE
  5
44F
100
AcDbEntity
  8
0
100
AcDbSpline
 62
9
  6
CONTINUOUS
 70
0
 71
3
 72
9
 73
5
 74
0
 42
0.0000001
 43
0.0000001
 44
0.0000000001
 40
0.0
 40
0.0
 40
0.0
 40
0.0
 40
0.4992436067
 40
1.0
 40
1.0
 40
1.0
 40
1.0
 10
6.0883971168
 20
13.334663945
 30
0.0
 10
6.0927013528
 20
13.3417076698
 30
0.0
 10
6.1012078486
 20
13.3558871094
 30
0.0
 10
6.1094227766
 20
13.3702387108
 30
0.0
 10
6.1134330217
 20
13.3774824681
 30
0.0
  0
SPLINE
  5
450
100
AcDbEntity
  8
0
100
AcDbSpline
 62
9
  6
CONTINUOUS
 70
0
 71
3
 72
15
 73
11
 74
0
 42
0.0000001
 43
0.0000001
 44
0.0000000001
 40
0.0
 40
0.0
 40
0.0
 40
0.0
 40
0.1381731934
 40
0.2748566964
 40
0.4088638918
 40
0.5390370952
 40
0.664260715
 40
0.7834747965
 40
0.8956893265
 40
1.0
 40
1.0
 40
1.0
 40
1.0
 10
6.1134330217
 20
13.3774824681
 30
0.0
 10
6.1174390543
 20
13.3777930047
 30
0.0
 10
6.1254014273
 20
13.3784983415
 30
0.0
 10
6.1372193742
 20
13.3798112164
 30
0.0
 10
6.1487736056
 20
13.3813641863
 30
0.0
 10
6.1599580236
 20
13.3831428288
 30
0.0
 10
6.1706700655
 20
13.3851305903
 30
0.0
 10
6.1808116932
 20
13.3873089313
 30
0.0
 10
6.1902899529
 20
13.389657431
 30
0.0
 10
6.1963455614
 20
13.3913893985
 30
0.0
 10
6.1992430631
 20
13.3922869532
 30
0.0
  0
SPLINE
  5
451
100
AcDbEntity
  8
0
100
AcDbSpline
 62
9
  6
CONTINUOUS
 70
0
 71
3
 72
42
 73
38
 74
0
 42
0.0000001
 43
0.0000001
 44
0.0000000001
 40
0.0
 40
0.0
 40
0.0
 40
0.0
 40
0.0678632178
 40
0.1356733555
 40
0.2034225516
 40
0.2711000626
 40
0.3386913905
 40
0.372448167
 40
0.4061751651
 40
0.4398684979
 40
0.4735236449
 40
0.5071413464
 40
0.5239367676
 40
0.5407279002
 40
0.5575251601
 40
0.5743460778
 40
0.5912313875
 40
0.6082454919
 40
0.6168226763
 40
0.6254390034
 40
0.6340722504
 40
0.6426928073
 40
0.659791724
 40
0.6766211533
 40
0.6931450946
 40
0.7093566503
 40
0.7408381121
 40
0.7711048427
 40
0.8001916786
 40
0.8281453912
 40
0.8550351022
 40
0.8809688977
 40
0.9060523205
 40
0.9303835775
 40
0.9540719796
 40
0.9772408862
 40
1.0
 40
1.0
 40
1.0
 40
1.0
 10
6.1134330328
 20
13.3774824689
 30
0.0
 10
6.1147478191
 20
13.3799294034
 30
0.0
 10
6.1173686922
 20
13.3848254873
 30
0.0
 10
6.121271294
 20
13.3921808539
 30
0.0
 10
6.1251417205
 20
13.3995446241
 30
0.0
 10
6.1289740686
 20
13.4069181939
 30
0.0
 10
6.1321344584
 20
13.413072832
 30
0.0
 10
6.1346367913
 20
13.4180030966
 30
0.0
 10
6.1364999042
 20
13.4217017636
 30
0.0
 10
6.138348608
 20
13.425403009
 30
0.0
 10
6.1401805155
 20
13.4291076025
 30
0.0
 10
6.1416978711
 20
13.4321961089
 30
0.0
 10
6.1429060014
 20
13.4346674331
 30
0.0
 10
6.1438120402
 20
13.4365200781
 30
0.0
 10
6.1447253215
 20
13.4383703169
 30
0.0
 10
6.1456528978
 20
13.4402178357
 30
0.0
 10
6.1466185992
 20
13.4420557516
 30
0.0
 10
6.1474849402
 20
13.4435645137
 30
0.0
 10
6.1482527824
 20
13.4447359505
 30
0.0
 10
6.148873553
 20
13.4455921599
 30
0.0
 10
6.1495377503
 20
13.446417498
 30
0.0
 10
6.1504750474
 20
13.4474664005
 30
0.0
 10
6.1517238625
 20
13.4486834333
 30
0.0
 10
6.1533004715
 20
13.450019055
 30
0.0
 10
6.1549190809
 20
13.4512437126
 30
0.0
 10
6.1570878418
 20
13.4527301938
 30
0.0
 10
6.1598320453
 20
13.4543660583
 30
0.0
 10
6.1631626834
 20
13.4560258836
 30
0.0
 10
6.1664729961
 20
13.4573810547
 30
0.0
 10
6.1697438056
 20
13.4584427521
 30
0.0
 10
6.17296187
 20
13.4592163413
 30
0.0
 10
6.1761134768
 20
13.4597223097
 30
0.0
 10
6.1791900832
 20
13.4599784779
 30
0.0
 10
6.1821855034
 20
13.4599913688
 30
0.0
 10
6.1850941672
 20
13.4597687666
 30
0.0
 10
6.1879112131
 20
13.4593203643
 30
0.0
 10
6.1897410617
 20
13.4588803151
 30
0.0
 10
6.1906382861
 20
13.4586296475
 30
0.0
  0
SPLINE
  5
452
100
AcDbEntity
  8
0
100
AcDbSpline
 62
9
  6
CONTINUOUS
 70
0
 71
3
 72
22
 73
18
 74
0
 42
0.0000001
 43
0.0000001
 44
0.0000000001
 40
0.0
 40
0.0
 40
0.0
 40
0.0
 40
0.1243417508
 40
0.1857541222
 40
0.2466549664
 40
0.3070647647
 40
0.3670656336
 40
0.4268671575
 40
0.4868443143
 40
0.5170572574
 40
0.5474967608
 40
0.6091567938
 40
0.6719494183
 40
0.7358140585
 40
0.800648368
 40
0.8663551139
 40
1.0
 40
1.0
 40
1.0
 40
1.0
 10
6.5660796206
 20
13.2625131286
 30
0.0
 10
6.565588714
 20
13.2589914883
 30
0.0
 10
6.56477869
 20
13.2537407512
 30
0.0
 10
6.5635499105
 20
13.2467950529
 30
0.0
 10
6.5625588464
 20
13.2416644735
 30
0.0
 10
6.5614854304
 20
13.2365916871
 30
0.0
 10
6.5603087752
 20
13.2315738776
 30
0.0
 10
6.5589858678
 20
13.2266050033
 30
0.0
 10
6.5577012693
 20
13.2225103404
 30
0.0
 10
6.5565162279
 20
13.2192700398
 30
0.0
 10
6.5551980981
 20
13.2160295817
 30
0.0
 10
6.5532887028
 20
13.2120269285
 30
0.0
 10
6.5505566918
 20
13.2073783766
 30
0.0
 10
6.5473795596
 20
13.2029101928
 30
0.0
 10
6.5437806549
 20
13.1986640099
 30
0.0
 10
6.5384354217
 20
13.1933168462
 30
0.0
 10
6.5339272989
 20
13.1897784957
 30
0.0
 10
6.5307544638
 20
13.1876480739
 30
0.0
  0
SPLINE
  5
453
100
AcDbEntity
  8
0
100
AcDbSpline
 62
9
  6
CONTINUOUS
 70
0
 71
3
 72
14
 73
10
 74
0
 42
0.0000001
 43
0.0000001
 44
0.0000000001
 40
0.0
 40
0.0
 40
0.0
 40
0.0
 40
0.0618094198
 40
0.1243535015
 40
0.2503601435
 40
0.3766120073
 40
0.5024849895
 40
0.7522953961
 40
1.0
 40
1.0
 40
1.0
 40
1.0
 10
6.5307544638
 20
13.1876480739
 30
0.0
 10
6.5298536627
 20
13.1870432409
 30
0.0
 10
6.5280054705
 20
13.1858790743
 30
0.0
 10
6.5241686673
 20
13.1837326741
 30
0.0
 10
6.5191574161
 20
13.1813839893
 30
0.0
 10
6.512925291
 20
13.1790787029
 30
0.0
 10
6.5044422802
 20
13.1766695911
 30
0.0
 10
6.4936128257
 20
13.1748452348
 30
0.0
 10
6.4848518849
 20
13.1745989771
 30
0.0
 10
6.4805069952
 20
13.174770436
 30
0.0
  0
LINE
  5
454
100
AcDbEntity
  8
0
100
AcDbLine
 62
9
  6
CONTINUOUS
 10
6.5731877233
 20
13.3157118914
 11
6.5660796188
 21
13.2625131277
  0
SPLINE
  5
455
100
AcDbEntity
  8
0
100
AcDbSpline
 62
9
  6
CONTINUOUS
 70
0
 71
3
 72
19
 73
15
 74
0
 42
0.0000001
 43
0.0000001
 44
0.0000000001
 40
0.0
 40
0.0
 40
0.0
 40
0.0
 40
0.0407582849
 40
0.084794473
 40
0.1321229525
 40
0.1827282599
 40
0.236555414
 40
0.2935127267
 40
0.3534818814
 40
0.4163234834
 40
0.5499488258
 40
0.6929266108
 40
0.8435589515
 40
1.0
 40
1.0
 40
1.0
 40
1.0
 10
6.5660796188
 20
13.2625131277
 30
0.0
 10
6.5651844687
 20
13.2620654856
 30
0.0
 10
6.5632821441
 20
13.2612131069
 30
0.0
 10
6.5602345355
 20
13.2600945877
 30
0.0
 10
6.556893959
 20
13.2590912441
 30
0.0
 10
6.5532724492
 20
13.258206493
 30
0.0
 10
6.5493823676
 20
13.2574433207
 30
0.0
 10
6.5452373339
 20
13.2568045338
 30
0.0
 10
6.5408519489
 20
13.2562923094
 30
0.0
 10
6.5345757586
 20
13.2557702424
 30
0.0
 10
6.5262412215
 20
13.2554643416
 30
0.0
 10
6.5157475175
 20
13.2556235242
 30
0.0
 10
6.5047135976
 20
13.2563009983
 30
0.0
 10
6.4972112339
 20
13.2570808465
 30
0.0
 10
6.493398871
 20
13.2575529344
 30
0.0
  0
SPLINE
  5
456
100
AcDbEntity
  8
0
100
AcDbSpline
 62
9
  6
CONTINUOUS
 70
0
 71
3
 72
43
 73
39
 74
0
 42
0.0000001
 43
0.0000001
 44
0.0000000001
 40
0.0
 40
0.0
 40
0.0
 40
0.0
 40
0.0327894698
 40
0.0654511713
 40
0.0979562683
 40
0.130284831
 40
0.1624096234
 40
0.1942948805
 40
0.2259049284
 40
0.2572028049
 40
0.2727281156
 40
0.2881612545
 40
0.3034969797
 40
0.3187309458
 40
0.33386123
 40
0.3488927469
 40
0.3638492569
 40
0.3788022029
 40
0.3863256696
 40
0.393895596
 40
0.4015143714
 40
0.4091778661
 40
0.4168800117
 40
0.4246081247
 40
0.4401146199
 40
0.4556606182
 40
0.4712278633
 40
0.4868075362
 40
0.5023912666
 40
0.5335578352
 40
0.5647218288
 40
0.6270185328
 40
0.6892741289
 40
0.7514878251
 40
0.8136646416
 40
0.8758070504
 40
0.9379182061
 40
1.0
 40
1.0
 40
1.0
 40
1.0
 10
6.5493646923
 20
13.4037098333
 30
0.0
 10
6.5505906704
 20
13.4036432746
 30
0.0
 10
6.5530348708
 20
13.403444664
 30
0.0
 10
6.5566698375
 20
13.4029393368
 30
0.0
 10
6.560251656
 20
13.4022223497
 30
0.0
 10
6.5637635402
 20
13.4012920365
 30
0.0
 10
6.5671825481
 20
13.4001316117
 30
0.0
 10
6.5704770455
 20
13.3987195407
 30
0.0
 10
6.5736163466
 20
13.3970542293
 30
0.0
 10
6.5760807661
 20
13.3954477252
 30
0.0
 10
6.5779326758
 20
13.3940303481
 30
0.0
 10
6.5792503152
 20
13.3929024056
 30
0.0
 10
6.5804867795
 20
13.3917013146
 30
0.0
 10
6.5816297381
 20
13.3904257079
 30
0.0
 10
6.5826608368
 20
13.389071663
 30
0.0
 10
6.5835523263
 20
13.3876328347
 30
0.0
 10
6.5842593731
 20
13.3860997214
 30
0.0
 10
6.5846311105
 20
13.3847394269
 30
0.0
 10
6.5847694328
 20
13.3836213778
 30
0.0
 10
6.5847966773
 20
13.3827703363
 30
0.0
 10
6.5847607179
 20
13.3819148294
 30
0.0
 10
6.5846756861
 20
13.3810580241
 30
0.0
 10
6.5845517135
 20
13.3802020497
 30
0.0
 10
6.5843567294
 20
13.3790600951
 30
0.0
 10
6.5840743528
 20
13.3776355153
 30
0.0
 10
6.5837114653
 20
13.3759280113
 30
0.0
 10
6.5833386587
 20
13.3742198199
 30
0.0
 10
6.5829628795
 20
13.3725108453
 30
0.0
 10
6.5824667345
 20
13.3702302752
 30
0.0
 10
6.5818610172
 20
13.3673763675
 30
0.0
 10
6.5809201492
 20
13.3628055679
 30
0.0
 10
6.579807101
 20
13.3570818874
 30
0.0
 10
6.5785519513
 20
13.3502019673
 30
0.0
 10
6.5773684909
 20
13.3433139274
 30
0.0
 10
6.5762456923
 20
13.3364200664
 30
0.0
 10
6.5751769261
 20
13.32952152
 30
0.0
 10
6.5741567206
 20
13.3226192359
 30
0.0
 10
6.5735061891
 20
13.3180145915
 30
0.0
 10
6.5731877244
 20
13.3157118908
 30
0.0
  0
SPLINE
  5
457
100
AcDbEntity
  8
0
100
AcDbSpline
 62
9
  6
CONTINUOUS
 70
0
 71
3
 72
14
 73
10
 74
0
 42
0.0000001
 43
0.0000001
 44
0.0000000001
 40
0.0
 40
0.0
 40
0.0
 40
0.0
 40
0.0887622792
 40
0.1902520834
 40
0.3034273667
 40
0.4271185699
 40
0.5600429831
 40
0.7008193351
 40
1.0
 40
1.0
 40
1.0
 40
1.0
 10
6.5731877244
 20
13.3157118908
 30
0.0
 10
6.5714996929
 20
13.3166370897
 30
0.0
 10
6.5678599945
 20
13.3185807967
 30
0.0
 10
6.5620096612
 20
13.3215934694
 30
0.0
 10
6.5554464795
 20
13.3248752607
 30
0.0
 10
6.5482388503
 20
13.3283915515
 30
0.0
 10
6.5404619273
 20
13.3321053696
 30
0.0
 10
6.5292115174
 20
13.3373762719
 30
0.0
 10
6.5205307311
 20
13.341336619
 30
0.0
 10
6.5146127458
 20
13.3439963883
 30
0.0
  0
SPLINE
  5
458
100
AcDbEntity
  8
0
100
AcDbSpline
 62
9
  6
CONTINUOUS
 70
0
 71
3
 72
13
 73
9
 74
0
 42
0.0000001
 43
0.0000001
 44
0.0000000001
 40
0.0
 40
0.0
 40
0.0
 40
0.0
 40
0.0893111855
 40
0.1912763913
 40
0.3048406007
 40
0.4288260255
 40
0.7024604269
 40
1.0
 40
1.0
 40
1.0
 40
1.0
 10
6.1010248686
 20
13.3839953505
 30
0.0
 10
6.1014211295
 20
13.3838622628
 30
0.0
 10
6.1022602979
 20
13.3835488279
 30
0.0
 10
6.1035727016
 20
13.3829882492
 30
0.0
 10
6.1050104009
 20
13.3823106364
 30
0.0
 10
6.107142831
 20
13.3812250841
 30
0.0
 10
6.1099825683
 20
13.3796343667
 30
0.0
 10
6.1122602288
 20
13.3782333916
 30
0.0
 10
6.1134330252
 20
13.3774824549
 30
0.0
  0
SPLINE
  5
459
100
AcDbEntity
  8
0
100
AcDbSpline
 62
9
  6
CONTINUOUS
 70
0
 71
3
 72
14
 73
10
 74
0
 42
0.0000001
 43
0.0000001
 44
0.0000000001
 40
0.0
 40
0.0
 40
0.0
 40
0.0
 40
0.0886282872
 40
0.1908194349
 40
0.3052802762
 40
0.4304526171
 40
0.5645422204
 40
0.7055753589
 40
1.0
 40
1.0
 40
1.0
 40
1.0
 10
6.0732756759
 20
13.3419246323
 30
0.0
 10
6.0737596305
 20
13.3418100792
 30
0.0
 10
6.0747901356
 20
13.3415147675
 30
0.0
 10
6.0764048456
 20
13.340940609
 30
0.0
 10
6.0781790163
 20
13.3402098464
 30
0.0
 10
6.0800847727
 20
13.3393335742
 30
0.0
 10
6.0820923349
 20
13.3383250896
 30
0.0
 10
6.0849029719
 20
13.3368030646
 30
0.0
 10
6.0870014645
 20
13.3355480758
 30
0.0
 10
6.0883971203
 20
13.3346639507
 30
0.0
  0
SPLINE
  5
45A
100
AcDbEntity
  8
0
100
AcDbSpline
 62
9
  6
CONTINUOUS
 70
0
 71
3
 72
11
 73
7
 74
0
 42
0.0000001
 43
0.0000001
 44
0.0000000001
 40
0.0
 40
0.0
 40
0.0
 40
0.0
 40
0.2444557529
 40
0.496207637
 40
0.7499319917
 40
1.0
 40
1.0
 40
1.0
 40
1.0
 10
6.0469173614
 20
13.2555613175
 30
0.0
 10
6.0481392574
 20
13.2564399933
 30
0.0
 10
6.0508098514
 20
13.2579700851
 30
0.0
 10
6.0551952507
 20
13.259490214
 30
0.0
 10
6.059815097
 20
13.2602099114
 30
0.0
 10
6.0629368079
 20
13.2601275969
 30
0.0
 10
6.0644647549
 20
13.2599387119
 30
0.0
  0
SPLINE
  5
45B
100
AcDbEntity
  8
0
100
AcDbSpline
 62
9
  6
CONTINUOUS
 70
0
 71
3
 72
14
 73
10
 74
0
 42
0.0000001
 43
0.0000001
 44
0.0000000001
 40
0.0
 40
0.0
 40
0.0
 40
0.0
 40
0.2715296155
 40
0.4051143558
 40
0.5349942256
 40
0.6599420581
 40
0.7791521572
 40
0.8923649546
 40
1.0
 40
1.0
 40
1.0
 40
1.0
 10
6.0761723304
 20
13.2172402765
 30
0.0
 10
6.0766633056
 20
13.2193837401
 30
0.0
 10
6.0777903533
 20
13.2225108489
 30
0.0
 10
6.079988252
 20
13.2262538464
 30
0.0
 10
6.0819228285
 20
13.2287467921
 30
0.0
 10
6.0840991197
 20
13.2308684872
 30
0.0
 10
6.0864613436
 20
13.2325619267
 30
0.0
 10
6.0889465463
 20
13.2337790527
 30
0.0
 10
6.0906835604
 20
13.2342590338
 30
0.0
 10
6.0915433634
 20
13.2344024353
 30
0.0
  0
SPLINE
  5
45C
100
AcDbEntity
  8
0
100
AcDbSpline
 62
9
  6
CONTINUOUS
 70
0
 71
3
 72
14
 73
10
 74
0
 42
0.0000001
 43
0.0000001
 44
0.0000000001
 40
0.0
 40
0.0
 40
0.0
 40
0.0
 40
0.2773853392
 40
0.4119485347
 40
0.5416122011
 40
0.6653686305
 40
0.7827530303
 40
0.8939694352
 40
1.0
 40
1.0
 40
1.0
 40
1.0
 10
6.086271846
 20
13.2148863413
 30
0.0
 10
6.0866028441
 20
13.2170479662
 30
0.0
 10
6.0874780673
 20
13.2202199841
 30
0.0
 10
6.0893711398
 20
13.2240569767
 30
0.0
 10
6.0910840973
 20
13.2266037559
 30
0.0
 10
6.093058077
 20
13.228775104
 30
0.0
 10
6.0952433903
 20
13.2305121702
 30
0.0
 10
6.0975822949
 20
13.2317645915
 30
0.0
 10
6.0992376107
 20
13.2322595338
 30
0.0
 10
6.1000601056
 20
13.2324087022
 30
0.0
  0
SPLINE
  5
45D
100
AcDbEntity
  8
0
100
AcDbSpline
 62
9
  6
CONTINUOUS
 70
0
 71
3
 72
18
 73
14
 74
0
 42
0.0000001
 43
0.0000001
 44
0.0000000001
 40
0.0
 40
0.0
 40
0.0
 40
0.0
 40
0.1683601337
 40
0.3317422022
 40
0.4859361714
 40
0.6269898428
 40
0.7513844472
 40
0.8063970397
 40
0.8562011747
 40
0.9005589422
 40
0.9393165787
 40
0.9724285178
 40
1.0
 40
1.0
 40
1.0
 40
1.0
 10
6.476988991
 20
13.1558657576
 30
0.0
 10
6.4770304809
 20
13.1569538179
 30
0.0
 10
6.4771447927
 20
13.1590966834
 30
0.0
 10
6.4774107991
 20
13.1622286672
 30
0.0
 10
6.4777627038
 20
13.1651745545
 30
0.0
 10
6.478190697
 20
13.1678553269
 30
0.0
 10
6.4786155396
 20
13.16988517
 30
0.0
 10
6.4789923379
 20
13.1713191938
 30
0.0
 10
6.4792744165
 20
13.1722421358
 30
0.0
 10
6.479565558
 20
13.1730513986
 30
0.0
 10
6.4798638465
 20
13.1737421374
 30
0.0
 10
6.4801672379
 20
13.1743100599
 30
0.0
 10
6.4803916674
 20
13.1746340678
 30
0.0
 10
6.4805065384
 20
13.1747704537
 30
0.0
  0
SPLINE
  5
45E
100
AcDbEntity
  8
0
100
AcDbSpline
 62
9
  6
CONTINUOUS
 70
0
 71
3
 72
14
 73
10
 74
0
 42
0.0000001
 43
0.0000001
 44
0.0000000001
 40
0.0
 40
0.0
 40
0.0
 40
0.0
 40
0.3252587883
 40
0.4722164692
 40
0.6066822207
 40
0.7273901385
 40
0.8334010481
 40
0.9242328143
 40
1.0
 40
1.0
 40
1.0
 40
1.0
 10
6.5397490816
 20
13.1800971062
 30
0.0
 10
6.5389174041
 20
13.1810788447
 30
0.0
 10
6.5376664732
 20
13.1824691332
 30
0.0
 10
6.5359533732
 20
13.1841507719
 30
0.0
 10
6.5347659936
 20
13.1852104939
 30
0.0
 10
6.5336464732
 20
13.1860996923
 30
0.0
 10
6.53260762
 20
13.1868086915
 30
0.0
 10
6.5316615415
 20
13.1873297703
 30
0.0
 10
6.5310438982
 20
13.1875700497
 30
0.0
 10
6.5307545218
 20
13.1876481116
 30
0.0
  0
SPLINE
  5
45F
100
AcDbEntity
  8
0
100
AcDbSpline
 62
9
  6
CONTINUOUS
 70
0
 71
3
 72
15
 73
11
 74
0
 42
0.0000001
 43
0.0000001
 44
0.0000000001
 40
0.0
 40
0.0
 40
0.0
 40
0.0
 40
0.1486180628
 40
0.2941240171
 40
0.4343647062
 40
0.567415862
 40
0.6915768026
 40
0.8055095717
 40
0.9083799536
 40
1.0
 40
1.0
 40
1.0
 40
1.0
 10
6.5838035862
 20
13.2655661182
 30
0.0
 10
6.5828996032
 20
13.2656618912
 30
0.0
 10
6.5811042345
 20
13.2657966452
 30
0.0
 10
6.5784457968
 20
13.2658280432
 30
0.0
 10
6.5758859667
 20
13.2656869829
 30
0.0
 10
6.5734723808
 20
13.2653763734
 30
0.0
 10
6.5712493938
 20
13.2649019426
 30
0.0
 10
6.5692570082
 20
13.2642722757
 30
0.0
 10
6.56753149
 20
13.2634985588
 30
0.0
 10
6.5665214928
 20
13.2628578187
 30
0.0
 10
6.5660796219
 20
13.2625131373
 30
0.0
  0
SPLINE
  5
460
100
AcDbEntity
  8
0
100
AcDbSpline
 62
9
  6
CONTINUOUS
 70
0
 71
3
 72
14
 73
10
 74
0
 42
0.0000001
 43
0.0000001
 44
0.0000000001
 40
0.0
 40
0.0
 40
0.0
 40
0.0
 40
0.2793164366
 40
0.4147665883
 40
0.5455770321
 40
0.6704935147
 40
0.7884166345
 40
0.898482616
 40
1.0
 40
1.0
 40
1.0
 40
1.0
 10
6.5890131513
 20
13.3184740906
 30
0.0
 10
6.5875028108
 20
13.3185491785
 30
0.0
 10
6.5852517114
 20
13.3185468666
 30
0.0
 10
6.5823070551
 20
13.3183018084
 30
0.0
 10
6.5802088538
 20
13.31800444
 30
0.0
 10
6.5782262336
 20
13.3175955924
 30
0.0
 10
6.5763844721
 20
13.3170806479
 30
0.0
 10
6.5747076569
 20
13.3164662009
 30
0.0
 10
6.5736703278
 20
13.315974881
 30
0.0
 10
6.5731877231
 20
13.3157118901
 30
0.0
  0
LINE
  5
461
100
AcDbEntity
  8
0
100
AcDbLine
 62
9
  6
CONTINUOUS
 10
6.5510690266
 20
13.4124909733
 11
6.5493632279
 21
13.4037081542
  0
SPLINE
  5
462
100
AcDbEntity
  8
0
100
AcDbSpline
 62
9
  6
CONTINUOUS
 70
0
 71
3
 72
13
 73
9
 74
0
 42
0.0000001
 43
0.0000001
 44
0.0000000001
 40
0.0
 40
0.0
 40
0.0
 40
0.0
 40
0.2473428044
 40
0.4969705918
 40
0.6227836184
 40
0.7490042583
 40
0.8751052222
 40
1.0
 40
1.0
 40
1.0
 40
1.0
 10
6.7734691597
 20
13.1299834892
 30
0.0
 10
6.7688360569
 20
13.1312267666
 30
0.0
 10
6.7596769769
 20
13.1343245377
 30
0.0
 10
6.7488002334
 20
13.1396605979
 30
0.0
 10
6.7405337474
 20
13.144803552
 30
0.0
 10
6.7345834675
 20
13.1491011627
 30
0.0
 10
6.7289708303
 20
13.1538031942
 30
0.0
 10
6.7254844857
 20
13.1572095183
 30
0.0
 10
6.7238259571
 20
13.1589748814
 30
0.0
  0
SPLINE
  5
463
100
AcDbEntity
  8
0
100
AcDbSpline
 62
9
  6
CONTINUOUS
 70
0
 71
3
 72
19
 73
15
 74
0
 42
0.0000001
 43
0.0000001
 44
0.0000000001
 40
0.0
 40
0.0
 40
0.0
 40
0.0
 40
0.1313665494
 40
0.1963569059
 40
0.2608407643
 40
0.3882224116
 40
0.5136171094
 40
0.6371694388
 40
0.6983378724
 40
0.7591017887
 40
0.8194890418
 40
0.8796007961
 40
0.9396854615
 40
1.0
 40
1.0
 40
1.0
 40
1.0
 10
6.7238259571
 20
13.1589748814
 30
0.0
 10
6.7211534186
 20
13.1618196479
 30
0.0
 10
6.7173897746
 20
13.1662989872
 30
0.0
 10
6.7129301199
 20
13.1726414448
 30
0.0
 10
6.7089061127
 20
13.1791305901
 30
0.0
 10
6.7046461057
 20
13.1875665634
 30
0.0
 10
6.7008283838
 20
13.1981042732
 30
0.0
 10
6.6987706393
 20
13.2071126371
 30
0.0
 10
6.6978225328
 20
13.2143487339
 30
0.0
 10
6.6974579108
 20
13.2197573641
 30
0.0
 10
6.6974318799
 20
13.2251464359
 30
0.0
 10
6.6977245536
 20
13.2305068439
 30
0.0
 10
6.6982877515
 20
13.2358423359
 30
0.0
 10
6.6988087491
 20
13.2393826837
 30
0.0
 10
6.6991058564
 20
13.2411499774
 30
0.0
  0
SPLINE
  5
464
100
AcDbEntity
  8
0
100
AcDbSpline
 62
9
  6
CONTINUOUS
 70
0
 71
3
 72
18
 73
14
 74
0
 42
0.0000001
 43
0.0000001
 44
0.0000000001
 40
0.0
 40
0.0
 40
0.0
 40
0.0
 40
0.043910374
 40
0.0907017882
 40
0.1403378621
 40
0.192772605
 40
0.2479379337
 40
0.3057435052
 40
0.4288277373
 40
0.561039421
 40
0.7012017833
 40
0.8479948195
 40
1.0
 40
1.0
 40
1.0
 40
1.0
 10
6.6991058564
 20
13.2411499774
 30
0.0
 10
6.7000980168
 20
13.2404175141
 30
0.0
 10
6.7021930027
 20
13.2389656369
 30
0.0
 10
6.7055433133
 20
13.236886874
 30
0.0
 10
6.7091924383
 20
13.2348437849
 30
0.0
 10
6.7131299474
 20
13.2328421126
 30
0.0
 10
6.7173451273
 20
13.2308872505
 30
0.0
 10
6.7234486319
 20
13.2282962463
 30
0.0
 10
6.7316961163
 20
13.2252311527
 30
0.0
 10
6.7422937826
 20
13.2218944595
 30
0.0
 10
6.753673291
 20
13.2188640365
 30
0.0
 10
6.7657076481
 20
13.2161741164
 30
0.0
 10
6.7739620791
 20
13.2146496057
 30
0.0
 10
6.7781730403
 20
13.2139472673
 30
0.0
  0
LINE
  5
465
100
AcDbEntity
  8
0
100
AcDbLine
 62
9
  6
CONTINUOUS
 10
6.6991058547
 20
13.2411499786
 11
6.7066054445
 21
13.2866537267
  0
SPLINE
  5
466
100
AcDbEntity
  8
0
100
AcDbSpline
 62
9
  6
CONTINUOUS
 70
0
 71
3
 72
14
 73
10
 74
0
 42
0.0000001
 43
0.0000001
 44
0.0000000001
 40
0.0
 40
0.0
 40
0.0
 40
0.0
 40
0.0921702961
 40
0.1958108188
 40
0.3099938708
 40
0.4336883415
 40
0.5657715843
 40
0.7050411383
 40
1.0
 40
1.0
 40
1.0
 40
1.0
 10
6.7066054445
 20
13.2866537267
 30
0.0
 10
6.7089097732
 20
13.2872918175
 30
0.0
 10
6.7138211908
 20
13.2885898075
 30
0.0
 10
6.721630074
 20
13.2905120796
 30
0.0
 10
6.7302615056
 20
13.2925105474
 30
0.0
 10
6.7396362731
 20
13.2945664389
 30
0.0
 10
6.7496683469
 20
13.2966605893
 30
0.0
 10
6.7640759545
 20
13.2995330561
 30
0.0
 10
6.7751502018
 20
13.3015982687
 30
0.0
 10
6.7826817982
 20
13.3029486699
 30
0.0
  0
SPLINE
  5
467
100
AcDbEntity
  8
0
100
AcDbSpline
 62
9
  6
CONTINUOUS
 70
0
 71
3
 72
42
 73
38
 74
0
 42
0.0000001
 43
0.0000001
 44
0.0000000001
 40
0.0
 40
0.0
 40
0.0
 40
0.0
 40
0.0619893941
 40
0.1240091197
 40
0.1860609243
 40
0.2481491772
 40
0.2792073684
 40
0.3102758761
 40
0.3413559676
 40
0.3724461665
 40
0.4035473636
 40
0.4346591859
 40
0.4657739012
 40
0.4813308272
 40
0.4968821038
 40
0.512418479
 40
0.5279277691
 40
0.543379413
 40
0.5510696073
 40
0.5587236108
 40
0.5663319386
 40
0.5738935842
 40
0.5814159871
 40
0.5889120438
 40
0.603875578
 40
0.6188828497
 40
0.6339671945
 40
0.6491387858
 40
0.6797331809
 40
0.7106703781
 40
0.7419226552
 40
0.7734623769
 40
0.8052597971
 40
0.8372868828
 40
0.8695175372
 40
0.9344748404
 40
1.0
 40
1.0
 40
1.0
 40
1.0
 10
6.7066054505
 20
13.2866537283
 30
0.0
 10
6.7070162396
 20
13.2892406125
 30
0.0
 10
6.707824866
 20
13.294417748
 30
0.0
 10
6.7089937169
 20
13.3021922293
 30
0.0
 10
6.7101142945
 20
13.3099780468
 30
0.0
 10
6.7110014041
 20
13.3164755814
 30
0.0
 10
6.7116790343
 20
13.321680241
 30
0.0
 10
6.7121699617
 20
13.3255878951
 30
0.0
 10
6.7126408228
 20
13.3294993824
 30
0.0
 10
6.7130910543
 20
13.3334146891
 30
0.0
 10
6.7135184176
 20
13.3373339165
 30
0.0
 10
6.7139188472
 20
13.3412570263
 30
0.0
 10
6.7142338416
 20
13.3445285745
 30
0.0
 10
6.7144744829
 20
13.3471467059
 30
0.0
 10
6.7146524396
 20
13.3491095702
 30
0.0
 10
6.7148363757
 20
13.3510698835
 30
0.0
 10
6.7150352168
 20
13.3530244857
 30
0.0
 10
6.7152390224
 20
13.3546453615
 30
0.0
 10
6.7154537108
 20
13.3559290118
 30
0.0
 10
6.715653615
 20
13.3568784513
 30
0.0
 10
6.7159099517
 20
13.3578089699
 30
0.0
 10
6.716234287
 20
13.3587123955
 30
0.0
 10
6.7166320474
 20
13.35958102
 30
0.0
 10
6.7172605504
 20
13.360682677
 30
0.0
 10
6.7182101949
 20
13.3619569551
 30
0.0
 10
6.7195296984
 20
13.3633338911
 30
0.0
 10
6.7209802375
 20
13.3645840949
 30
0.0
 10
6.7230547967
 20
13.3661064479
 30
0.0
 10
6.7258567051
 20
13.3677529923
 30
0.0
 10
6.7294366518
 20
13.3693660651
 30
0.0
 10
6.7331907112
 20
13.3706449057
 30
0.0
 10
6.7370754918
 20
13.3716038994
 30
0.0
 10
6.741056568
 20
13.3722517693
 30
0.0
 10
6.7451023838
 20
13.372613462
 30
0.0
 10
6.7505640117
 20
13.3727410019
 30
0.0
 10
6.7574399226
 20
13.3722505064
 30
0.0
 10
6.7628696663
 20
13.3712315267
 30
0.0
 10
6.7655641734
 20
13.3705948827
 30
0.0
  0
SPLINE
  5
468
100
AcDbEntity
  8
0
100
AcDbSpline
 62
9
  6
CONTINUOUS
 70
0
 71
3
 72
21
 73
17
 74
0
 42
0.0000001
 43
0.0000001
 44
0.0000000001
 40
0.0
 40
0.0
 40
0.0
 40
0.0
 40
0.1379196702
 40
0.2745258453
 40
0.3422429085
 40
0.4094773076
 40
0.4761008605
 40
0.5418930547
 40
0.5743786776
 40
0.6065231755
 40
0.6695743356
 40
0.7306749902
 40
0.7895362068
 40
0.8459688013
 40
0.8998700493
 40
1.0
 40
1.0
 40
1.0
 40
1.0
 10
7.1745501345
 20
13.1693418873
 30
0.0
 10
7.1755088161
 20
13.1655850735
 30
0.0
 10
7.1774776878
 20
13.1581224985
 30
0.0
 10
7.1800938549
 20
13.1488634266
 30
0.0
 10
7.1822461213
 20
13.1415390422
 30
0.0
 10
7.1838616303
 20
13.1361075042
 30
0.0
 10
7.1854350392
 20
13.1307199696
 30
0.0
 10
7.1866452954
 20
13.1262441422
 30
0.0
 10
7.1874908528
 20
13.1226761314
 30
0.0
 10
7.1882253721
 20
13.1191623733
 30
0.0
 10
7.1889317142
 20
13.1148222375
 30
0.0
 10
7.1893942609
 20
13.1096934926
 30
0.0
 10
7.1894707709
 20
13.1047307608
 30
0.0
 10
7.1891770751
 20
13.0999776642
 30
0.0
 10
7.1883381163
 20
13.0941179179
 30
0.0
 10
7.1871811574
 20
13.0899102831
 30
0.0
 10
7.1861483186
 20
13.0872917582
 30
0.0
  0
SPLINE
  5
469
100
AcDbEntity
  8
0
100
AcDbSpline
 62
9
  6
CONTINUOUS
 70
0
 71
3
 72
16
 73
12
 74
0
 42
0.0000001
 43
0.0000001
 44
0.0000000001
 40
0.0
 40
0.0
 40
0.0
 40
0.0
 40
0.0625849709
 40
0.1247878676
 40
0.1868246031
 40
0.2488599355
 40
0.3731202298
 40
0.4978808104
 40
0.6230525528
 40
0.7485231434
 40
1.0
 40
1.0
 40
1.0
 40
1.0
 10
7.1861483186
 20
13.0872917582
 30
0.0
 10
7.1858758037
 20
13.0866009161
 30
0.0
 10
7.1852360862
 20
13.0852597855
 30
0.0
 10
7.1840394653
 20
13.0833880536
 30
0.0
 10
7.1826489452
 20
13.0816645306
 30
0.0
 10
7.1805804113
 20
13.0795605158
 30
0.0
 10
7.1776543471
 20
13.0772814123
 30
0.0
 10
7.1737791161
 20
13.0750878372
 30
0.0
 10
7.1696437101
 20
13.0734008083
 30
0.0
 10
7.1638951879
 20
13.0717996546
 30
0.0
 10
7.1594072611
 20
13.0713050576
 30
0.0
 10
7.1564233618
 20
13.0712716378
 30
0.0
  0
SPLINE
  5
46A
100
AcDbEntity
  8
0
100
AcDbSpline
 62
9
  6
CONTINUOUS
 70
0
 71
3
 72
11
 73
7
 74
0
 42
0.0000001
 43
0.0000001
 44
0.0000000001
 40
0.0
 40
0.0
 40
0.0
 40
0.0
 40
0.2506498877
 40
0.5009149685
 40
0.7507188236
 40
1.0
 40
1.0
 40
1.0
 40
1.0
 10
7.1618970633
 20
13.2255665537
 30
0.0
 10
7.1628203228
 20
13.2208403693
 30
0.0
 10
7.1647534027
 20
13.2114123186
 30
0.0
 10
7.1678581378
 20
13.1973271577
 30
0.0
 10
7.1711252971
 20
13.1833058722
 30
0.0
 10
7.1733954921
 20
13.1739898403
 30
0.0
 10
7.1745501304
 20
13.1693418867
 30
0.0
  0
SPLINE
  5
46B
100
AcDbEntity
  8
0
100
AcDbSpline
 62
9
  6
CONTINUOUS
 70
0
 71
3
 72
15
 73
11
 74
0
 42
0.0000001
 43
0.0000001
 44
0.0000000001
 40
0.0
 40
0.0
 40
0.0
 40
0.0
 40
0.1389492168
 40
0.2775626729
 40
0.4139448776
 40
0.546225445
 40
0.6726054932
 40
0.7913829752
 40
0.9009822903
 40
1.0
 40
1.0
 40
1.0
 40
1.0
 10
7.1745501304
 20
13.1693418867
 30
0.0
 10
7.1706044815
 20
13.1688185807
 30
0.0
 10
7.1627100734
 20
13.1678662601
 30
0.0
 10
7.150907083
 20
13.1667204127
 30
0.0
 10
7.1392706478
 20
13.1658685225
 30
0.0
 10
7.1279665806
 20
13.1653225207
 30
0.0
 10
7.1171559774
 20
13.1650897114
 30
0.0
 10
7.1069925368
 20
13.1651727064
 30
0.0
 10
7.0976208215
 20
13.1655692964
 30
0.0
 10
7.0916629921
 20
13.1660647467
 30
0.0
 10
7.0888437839
 20
13.166376221
 30
0.0
  0
SPLINE
  5
46C
100
AcDbEntity
  8
0
100
AcDbSpline
 62
9
  6
CONTINUOUS
 70
0
 71
3
 72
41
 73
37
 74
0
 42
0.0000001
 43
0.0000001
 44
0.0000000001
 40
0.0
 40
0.0
 40
0.0
 40
0.0
 40
0.0223247449
 40
0.0451067561
 40
0.0684719062
 40
0.0925450447
 40
0.1174612223
 40
0.1433768725
 40
0.1704180512
 40
0.1986826619
 40
0.2282574483
 40
0.25925838
 40
0.2753253889
 40
0.2917752035
 40
0.3085934758
 40
0.3256922605
 40
0.3342854143
 40
0.3428619761
 40
0.359890687
 40
0.3683415107
 40
0.3767622395
 40
0.3935456106
 40
0.4102906634
 40
0.4270220714
 40
0.4437521119
 40
0.4604892085
 40
0.4939938012
 40
0.5275381047
 40
0.5611223404
 40
0.5947426566
 40
0.6620749761
 40
0.7295112251
 40
0.7970331992
 40
0.864627871
 40
0.9322858887
 40
1.0
 40
1.0
 40
1.0
 40
1.0
 10
7.1212770788
 20
13.3161365068
 30
0.0
 10
7.1220874745
 20
13.3161347787
 30
0.0
 10
7.1237256038
 20
13.3160604755
 30
0.0
 10
7.126192291
 20
13.3157311936
 30
0.0
 10
7.1286835065
 20
13.3151771349
 30
0.0
 10
7.1311939628
 20
13.3143947296
 30
0.0
 10
7.1337140504
 20
13.3133642124
 30
0.0
 10
7.1362276618
 20
13.3120629151
 30
0.0
 10
7.138723583
 20
13.3104869367
 30
0.0
 10
7.1411860648
 20
13.3086292023
 30
0.0
 10
7.14359636
 20
13.3064810217
 30
0.0
 10
7.145500728
 20
13.30444626
 30
0.0
 10
7.1469449018
 20
13.3026476027
 30
0.0
 10
7.1479826034
 20
13.3011864424
 30
0.0
 10
7.1489319301
 20
13.299621559
 30
0.0
 10
7.1496047322
 20
13.2982292861
 30
0.0
 10
7.1500498117
 20
13.2970670139
 30
0.0
 10
7.1504284014
 20
13.2958841698
 30
0.0
 10
7.1507230876
 20
13.2946820331
 30
0.0
 10
7.1509602398
 20
13.2934745011
 30
0.0
 10
7.1511737467
 20
13.292271543
 30
0.0
 10
7.1514099791
 20
13.2907671095
 30
0.0
 10
7.151672346
 20
13.2889616153
 30
0.0
 10
7.1519246055
 20
13.2871566336
 30
0.0
 10
7.1521719773
 20
13.2853512748
 30
0.0
 10
7.152503225
 20
13.282942845
 30
0.0
 10
7.1529250544
 20
13.2799307682
 30
0.0
 10
7.1534416087
 20
13.2763144429
 30
0.0
 10
7.1539734997
 20
13.2726960905
 30
0.0
 10
7.1547027257
 20
13.2678670875
 30
0.0
 10
7.1556448402
 20
13.2618274924
 30
0.0
 10
7.156822494
 20
13.2545792677
 30
0.0
 10
7.1580394998
 20
13.2473279
 30
0.0
 10
7.1592926078
 20
13.2400745186
 30
0.0
 10
7.1605777994
 20
13.2328196753
 30
0.0
 10
7.1614543735
 20
13.2279844106
 30
0.0
 10
7.1618970656
 20
13.2255665529
 30
0.0
  0
SPLINE
  5
46D
100
AcDbEntity
  8
0
100
AcDbSpline
 62
9
  6
CONTINUOUS
 70
0
 71
3
 72
14
 73
10
 74
0
 42
0.0000001
 43
0.0000001
 44
0.0000000001
 40
0.0
 40
0.0
 40
0.0
 40
0.0
 40
0.276812867
 40
0.4117781231
 40
0.5426328862
 40
0.6680753268
 40
0.7868692072
 40
0.8978612553
 40
1.0
 40
1.0
 40
1.0
 40
1.0
 10
7.1618970656
 20
13.2255665529
 30
0.0
 10
7.1554919303
 20
13.227772357
 30
0.0
 10
7.1460261155
 20
13.2312396299
 30
0.0
 10
7.1337029017
 20
13.2361898428
 30
0.0
 10
7.1248962153
 20
13.2399505353
 30
0.0
 10
7.1165393655
 20
13.2437506765
 30
0.0
 10
7.1087192084
 20
13.2475504577
 30
0.0
 10
7.1015171271
 20
13.2513097973
 30
0.0
 10
7.0969750736
 20
13.2538768345
 30
0.0
 10
7.0948252745
 20
13.2551521136
 30
0.0
  0
SPLINE
  5
46E
100
AcDbEntity
  8
0
100
AcDbSpline
 62
9
  6
CONTINUOUS
 70
0
 71
3
 72
13
 73
9
 74
0
 42
0.0000001
 43
0.0000001
 44
0.0000000001
 40
0.0
 40
0.0
 40
0.0
 40
0.0
 40
0.276788818
 40
0.5414914723
 40
0.666430528
 40
0.7850157494
 40
0.896435124
 40
1.0
 40
1.0
 40
1.0
 40
1.0
 10
6.6927927896
 20
13.2933816716
 30
0.0
 10
6.6941813203
 20
13.2930362333
 30
0.0
 10
6.696866952
 20
13.2922290634
 30
0.0
 10
6.7000557582
 20
13.2909059627
 30
0.0
 10
6.7023853144
 20
13.2896879798
 30
0.0
 10
6.7039548074
 20
13.2887346562
 30
0.0
 10
6.7053618921
 20
13.2877352203
 30
0.0
 10
6.706213547
 20
13.2870184623
 30
0.0
 10
6.7066054481
 20
13.2866537135
 30
0.0
  0
SPLINE
  5
46F
100
AcDbEntity
  8
0
100
AcDbSpline
 62
9
  6
CONTINUOUS
 70
0
 71
3
 72
14
 73
10
 74
0
 42
0.0000001
 43
0.0000001
 44
0.0000000001
 40
0.0
 40
0.0
 40
0.0
 40
0.0
 40
0.2874323583
 40
0.4254401307
 40
0.5574087976
 40
0.6818845501
 40
0.7976579952
 40
0.9038540872
 40
1.0
 40
1.0
 40
1.0
 40
1.0
 10
6.6838162531
 20
13.2484364153
 30
0.0
 10
6.6854320113
 20
13.2481156741
 30
0.0
 10
6.687801041
 20
13.2475086775
 30
0.0
 10
6.6908118368
 20
13.2464363038
 30
0.0
 10
6.692889062
 20
13.2455396284
 30
0.0
 10
6.6947831965
 20
13.2445539983
 30
0.0
 10
6.6964655314
 20
13.2434944474
 30
0.0
 10
6.6979100444
 20
13.2423772569
 30
0.0
 10
6.6987419969
 20
13.2415637783
 30
0.0
 10
6.6991058557
 20
13.2411499847
 30
0.0
  0
SPLINE
  5
470
100
AcDbEntity
  8
0
100
AcDbSpline
 62
9
  6
CONTINUOUS
 70
0
 71
3
 72
18
 73
14
 74
0
 42
0.0000001
 43
0.0000001
 44
0.0000000001
 40
0.0
 40
0.0
 40
0.0
 40
0.0
 40
0.1781550589
 40
0.3445038772
 40
0.4968638223
 40
0.5672418034
 40
0.6334751052
 40
0.7527854926
 40
0.8537262273
 40
0.8971638116
 40
0.9359240695
 40
0.9701230725
 40
1.0
 40
1.0
 40
1.0
 40
1.0
 10
6.7137148571
 20
13.1534588344
 30
0.0
 10
6.7142620476
 20
13.1538826805
 30
0.0
 10
6.7153316658
 20
13.1546876272
 30
0.0
 10
6.7169108596
 20
13.1557983537
 30
0.0
 10
6.7181793732
 20
13.156621383
 30
0.0
 10
6.7191421581
 20
13.1571990377
 30
0.0
 10
6.7200077882
 20
13.1576883793
 30
0.0
 10
6.7209994419
 20
13.1581952541
 30
0.0
 10
6.7219461177
 20
13.1585914147
 30
0.0
 10
6.7226244951
 20
13.1588074808
 30
0.0
 10
6.7230645263
 20
13.1589138753
 30
0.0
 10
6.723460271
 20
13.1589727887
 30
0.0
 10
6.7237100084
 20
13.1589807415
 30
0.0
 10
6.7238259353
 20
13.1589749047
 30
0.0
  0
SPLINE
  5
471
100
AcDbEntity
  8
0
100
AcDbSpline
 62
9
  6
CONTINUOUS
 70
0
 71
3
 72
18
 73
14
 74
0
 42
0.0000001
 43
0.0000001
 44
0.0000000001
 40
0.0
 40
0.0
 40
0.0
 40
0.0
 40
0.1683570503
 40
0.331670031
 40
0.4857168498
 40
0.6265514898
 40
0.7506932504
 40
0.8055957605
 40
0.8553237895
 40
0.8996685044
 40
0.938519225
 40
0.9718953485
 40
1.0
 40
1.0
 40
1.0
 40
1.0
 10
6.7717590719
 20
13.1107294782
 30
0.0
 10
6.772038832
 20
13.1117911401
 30
0.0
 10
6.772553292
 20
13.1138925418
 30
0.0
 10
6.7731942265
 20
13.1169952308
 30
0.0
 10
6.7736825887
 20
13.1199440162
 30
0.0
 10
6.7740054795
 20
13.1226584387
 30
0.0
 10
6.7741361714
 20
13.1247421021
 30
0.0
 10
6.7741418419
 20
13.1262343895
 30
0.0
 10
6.7741007565
 20
13.1272054562
 30
0.0
 10
6.7740151813
 20
13.1280686008
 30
0.0
 10
6.7738857208
 20
13.1288186392
 30
0.0
 10
6.773713285
 20
13.1294508882
 30
0.0
 10
6.7735573714
 20
13.129822566
 30
0.0
 10
6.7734694899
 20
13.1299834006
 30
0.0
  0
SPLINE
  5
472
100
AcDbEntity
  8
0
100
AcDbSpline
 62
9
  6
CONTINUOUS
 70
0
 71
3
 72
18
 73
14
 74
0
 42
0.0000001
 43
0.0000001
 44
0.0000000001
 40
0.0
 40
0.0
 40
0.0
 40
0.0
 40
0.165180251
 40
0.3260760607
 40
0.478565867
 40
0.6187840432
 40
0.7433099024
 40
0.7987941258
 40
0.8493676907
 40
0.8948227309
 40
0.9350464125
 40
0.9700482922
 40
1.0
 40
1.0
 40
1.0
 40
1.0
 10
6.7862235826
 20
13.107707159
 30
0.0
 10
6.786390203
 20
13.1087952915
 30
0.0
 10
6.7866776115
 20
13.1109499445
 30
0.0
 10
6.7869736079
 20
13.1141263395
 30
0.0
 10
6.787125048
 20
13.1171466052
 30
0.0
 10
6.7871282082
 20
13.1199283478
 30
0.0
 10
6.7870045815
 20
13.122060819
 30
0.0
 10
6.7868221485
 20
13.1235870902
 30
0.0
 10
6.7866549359
 20
13.1245833468
 30
0.0
 10
6.7864534593
 20
13.1254693428
 30
0.0
 10
6.7862190045
 20
13.1262396565
 30
0.0
 10
6.7859530913
 20
13.1268893695
 30
0.0
 10
6.7857397686
 20
13.1272682873
 30
0.0
 10
6.7856260392
 20
13.1274323269
 30
0.0
  0
SPLINE
  5
473
100
AcDbEntity
  8
0
100
AcDbSpline
 62
9
  6
CONTINUOUS
 70
0
 71
3
 72
14
 73
10
 74
0
 42
0.0000001
 43
0.0000001
 44
0.0000000001
 40
0.0
 40
0.0
 40
0.0
 40
0.0
 40
0.2690793766
 40
0.4018726467
 40
0.5313966637
 40
0.6564968058
 40
0.7763933626
 40
0.8907914255
 40
1.0
 40
1.0
 40
1.0
 40
1.0
 10
7.166130185
 20
13.0503419253
 30
0.0
 10
7.1662956865
 20
13.0525169154
 30
0.0
 10
7.1661401093
 20
13.055815161
 30
0.0
 10
7.1651383036
 20
13.0600130153
 30
0.0
 10
7.1640165766
 20
13.0629571846
 30
0.0
 10
7.16255069
 20
13.0656274808
 30
0.0
 10
7.160777126
 20
13.0679540776
 30
0.0
 10
7.1587418567
 20
13.0698732569
 30
0.0
 10
7.1572103538
 20
13.0708667973
 30
0.0
 10
7.156423047
 20
13.0712716338
 30
0.0
  0
SPLINE
  5
474
100
AcDbEntity
  8
0
100
AcDbSpline
 62
9
  6
CONTINUOUS
 70
0
 71
3
 72
11
 73
7
 74
0
 42
0.0000001
 43
0.0000001
 44
0.0000000001
 40
0.0
 40
0.0
 40
0.0
 40
0.0
 40
0.2396320862
 40
0.4894313198
 40
0.7446966882
 40
1.0
 40
1.0
 40
1.0
 40
1.0
 10
7.2007626316
 20
13.078880282
 30
0.0
 10
7.1998894451
 20
13.0799374047
 30
0.0
 10
7.1978853394
 20
13.0819208513
 30
0.0
 10
7.1943618827
 20
13.0843512578
 30
0.0
 10
7.1904066269
 20
13.0862076677
 30
0.0
 10
7.1875818341
 20
13.0870107599
 30
0.0
 10
7.1861483395
 20
13.0872918016
 30
0.0
  0
SPLINE
  5
475
100
AcDbEntity
  8
0
100
AcDbSpline
 62
9
  6
CONTINUOUS
 70
0
 71
3
 72
14
 73
10
 74
0
 42
0.0000001
 43
0.0000001
 44
0.0000000001
 40
0.0
 40
0.0
 40
0.0
 40
0.0
 40
0.0875932359
 40
0.1897348581
 40
0.304848003
 40
0.4310295547
 40
0.566093039
 40
0.7076427924
 40
1.0
 40
1.0
 40
1.0
 40
1.0
 10
7.1929280753
 20
13.1722947378
 30
0.0
 10
7.192383729
 20
13.1723310949
 30
0.0
 10
7.1912005959
 20
13.1723498283
 30
0.0
 10
7.1893034395
 20
13.1722551043
 30
0.0
 10
7.1871744577
 20
13.1720398717
 30
0.0
 10
7.1848534928
 20
13.1717076705
 30
0.0
 10
7.1823837545
 20
13.1712641846
 30
0.0
 10
7.1789171137
 20
13.1705271816
 30
0.0
 10
7.1762992162
 20
13.1698482238
 30
0.0
 10
7.1745501323
 20
13.1693418965
 30
0.0
  0
SPLINE
  5
476
100
AcDbEntity
  8
0
100
AcDbSpline
 62
9
  6
CONTINUOUS
 70
0
 71
3
 72
13
 73
9
 74
0
 42
0.0000001
 43
0.0000001
 44
0.0000000001
 40
0.0
 40
0.0
 40
0.0
 40
0.0
 40
0.0882929574
 40
0.1898636824
 40
0.3035108916
 40
0.4278949258
 40
0.7025296496
 40
1.0
 40
1.0
 40
1.0
 40
1.0
 10
7.176573009
 20
13.2285047658
 30
0.0
 10
7.176132063
 20
13.2284866612
 30
0.0
 10
7.1751851436
 20
13.2284157447
 30
0.0
 10
7.173678719
 20
13.2282337213
 30
0.0
 10
7.1720015945
 20
13.2279698178
 30
0.0
 10
7.1694828216
 20
13.2274970313
 30
0.0
 10
7.1660871819
 20
13.2267237997
 30
0.0
 10
7.1633255295
 20
13.2259791352
 30
0.0
 10
7.1618970635
 20
13.2255665523
 30
0.0
  0
SPLINE
  5
477
100
AcDbEntity
  8
0
100
AcDbSpline
 62
9
  6
CONTINUOUS
 70
0
 71
3
 72
9
 73
5
 74
0
 42
0.0000001
 43
0.0000001
 44
0.0000000001
 40
0.0
 40
0.0
 40
0.0
 40
0.0
 40
0.4946017017
 40
1.0
 40
1.0
 40
1.0
 40
1.0
 10
7.1210245137
 20
13.3252172945
 30
0.0
 10
7.1213454331
 20
13.3237476804
 30
0.0
 10
7.1217031655
 20
13.3207071961
 30
0.0
 10
7.1215086826
 20
13.3176541364
 30
0.0
 10
7.1212765612
 20
13.3161346827
 30
0.0
  0
LINE
  5
478
100
AcDbEntity
  8
0
100
AcDbLine
 62
9
  6
CONTINUOUS
 10
7.3027272842
 20
13.0482516885
 11
7.3006484595
 21
13.0488068808
  0
SPLINE
  5
479
100
AcDbEntity
  8
0
100
AcDbSpline
 62
9
  6
CONTINUOUS
 70
0
 71
3
 72
12
 73
8
 74
0
 42
0.0000001
 43
0.0000001
 44
0.0000000001
 40
0.0
 40
0.0
 40
0.0
 40
0.0
 40
0.3097857664
 40
0.5725823836
 40
0.7970577999
 40
0.9000066859
 40
1.0
 40
1.0
 40
1.0
 40
1.0
 10
7.2316309657
 20
13.2108727898
 30
0.0
 10
7.2319146078
 20
13.210770658
 30
0.0
 10
7.2324292572
 20
13.2105510548
 30
0.0
 10
7.2330844889
 20
13.2101272309
 30
0.0
 10
7.2334831981
 20
13.2097014084
 30
0.0
 10
7.233683825
 20
13.209334898
 30
0.0
 10
7.2337469696
 20
13.2091464217
 30
0.0
 10
7.2337692915
 20
13.2090517076
 30
0.0
  0
SPLINE
  5
47A
100
AcDbEntity
  8
0
100
AcDbSpline
 62
9
  6
CONTINUOUS
 70
0
 71
3
 72
13
 73
9
 74
0
 42
0.0000001
 43
0.0000001
 44
0.0000000001
 40
0.0
 40
0.0
 40
0.0
 40
0.0
 40
0.3239502607
 40
0.5906858696
 40
0.7053175485
 40
0.809799097
 40
0.9068696862
 40
1.0
 40
1.0
 40
1.0
 40
1.0
 10
7.243473458
 20
13.1627396472
 30
0.0
 10
7.2437495451
 20
13.1626695392
 30
0.0
 10
7.2442470071
 20
13.1625154036
 30
0.0
 10
7.2448062105
 20
13.1622355117
 30
0.0
 10
7.2451447437
 20
13.1619726855
 30
0.0
 10
7.2453362523
 20
13.1617692715
 30
0.0
 10
7.245477082
 20
13.1615498571
 30
0.0
 10
7.2455366571
 20
13.1613919513
 30
0.0
 10
7.2455569916
 20
13.1613126267
 30
0.0
  0
SPLINE
  5
47B
100
AcDbEntity
  8
0
100
AcDbSpline
 62
9
  6
CONTINUOUS
 70
0
 71
3
 72
11
 73
7
 74
0
 42
0.0000001
 43
0.0000001
 44
0.0000000001
 40
0.0
 40
0.0
 40
0.0
 40
0.0
 40
0.2675555505
 40
0.5206815482
 40
0.7631375614
 40
1.0
 40
1.0
 40
1.0
 40
1.0
 10
7.2862052113
 20
13.0657970074
 30
0.0
 10
7.286242561
 20
13.0662520793
 30
0.0
 10
7.2862558904
 20
13.0671442653
 30
0.0
 10
7.2860718693
 20
13.0684393978
 30
0.0
 10
7.2856832368
 20
13.0696342636
 30
0.0
 10
7.2852877261
 20
13.0703568233
 30
0.0
 10
7.2850608063
 20
13.0706913423
 30
0.0
  0
SPLINE
  5
47C
100
AcDbEntity
  8
0
100
AcDbSpline
 62
9
  6
CONTINUOUS
 70
0
 71
3
 72
15
 73
11
 74
0
 42
0.0000001
 43
0.0000001
 44
0.0000000001
 40
0.0
 40
0.0
 40
0.0
 40
0.0
 40
0.1280167274
 40
0.2552414998
 40
0.3815389165
 40
0.506851479
 40
0.6312062598
 40
0.7547144592
 40
0.8775632385
 40
1.0
 40
1.0
 40
1.0
 40
1.0
 10
7.309931252
 20
13.0283225761
 30
0.0
 10
7.3101100655
 20
13.0292797884
 30
0.0
 10
7.3103324694
 20
13.0312162738
 30
0.0
 10
7.3102498801
 20
13.0341268422
 30
0.0
 10
7.3097521977
 20
13.0369756729
 30
0.0
 10
7.3088496414
 20
13.0397003354
 30
0.0
 10
7.3075614515
 20
13.0422417939
 30
0.0
 10
7.3059150212
 20
13.0445447299
 30
0.0
 10
7.303946619
 20
13.0465583011
 30
0.0
 10
7.302445028
 20
13.0476806115
 30
0.0
 10
7.3016579566
 20
13.0481784942
 30
0.0
  0
SPLINE
  5
47D
100
AcDbEntity
  8
0
100
AcDbSpline
 62
9
  6
CONTINUOUS
 70
0
 71
3
 72
15
 73
11
 74
0
 42
0.0000001
 43
0.0000001
 44
0.0000000001
 40
0.0
 40
0.0
 40
0.0
 40
0.0
 40
0.1270696658
 40
0.2538613612
 40
0.3801430855
 40
0.5057182771
 40
0.6304730594
 40
0.7543814949
 40
0.8775025856
 40
1.0
 40
1.0
 40
1.0
 40
1.0
 10
7.3141754383
 20
13.0268652305
 30
0.0
 10
7.3143425545
 20
13.0279566082
 30
0.0
 10
7.31450318
 20
13.0301675895
 30
0.0
 10
7.3142151753
 20
13.0334715124
 30
0.0
 10
7.3134065747
 20
13.0366755296
 30
0.0
 10
7.3120987353
 20
13.0396909618
 30
0.0
 10
7.3103272204
 20
13.0424353728
 30
0.0
 10
7.3081396949
 20
13.0448331769
 30
0.0
 10
7.3055970369
 20
13.046817771
 30
0.0
 10
7.3037050524
 20
13.0478317021
 30
0.0
 10
7.3027271398
 20
13.048251906
 30
0.0
  0
SPLINE
  5
47E
100
AcDbEntity
  8
0
100
AcDbSpline
 62
9
  6
CONTINUOUS
 70
0
 71
3
 72
20
 73
16
 74
0
 42
0.0000001
 43
0.0000001
 44
0.0000000001
 40
0.0
 40
0.0
 40
0.0
 40
0.0
 40
0.1238118318
 40
0.1858284957
 40
0.2479270305
 40
0.3723736668
 40
0.497211554
 40
0.559781602
 40
0.6224111556
 40
0.6850967279
 40
0.7478469081
 40
0.8106600363
 40
0.8735706319
 40
0.9366679339
 40
1.0
 40
1.0
 40
1.0
 40
1.0
 10
6.076172326
 20
13.2172402784
 30
0.0
 10
6.0742006298
 20
13.2179880017
 30
0.0
 10
6.0713097477
 20
13.2193048293
 30
0.0
 10
6.067653768
 20
13.2214219428
 30
0.0
 10
6.0641343584
 20
13.2237796756
 30
0.0
 10
6.0600293417
 20
13.2271635382
 30
0.0
 10
6.0564135284
 20
13.2310790733
 30
0.0
 10
6.0538699737
 20
13.2344984316
 30
0.0
 10
6.0521505896
 20
13.2372008829
 30
0.0
 10
6.0506402465
 20
13.2400291244
 30
0.0
 10
6.0493572486
 20
13.2429712052
 30
0.0
 10
6.0483177876
 20
13.2460121727
 30
0.0
 10
6.0475409185
 20
13.2491372544
 30
0.0
 10
6.0470507997
 20
13.2523290397
 30
0.0
 10
6.0469266836
 20
13.2544827216
 30
0.0
 10
6.046917296
 20
13.2555613276
 30
0.0
  0
SPLINE
  5
47F
100
AcDbEntity
  8
0
100
AcDbSpline
 62
9
  6
CONTINUOUS
 70
0
 71
3
 72
18
 73
14
 74
0
 42
0.0000001
 43
0.0000001
 44
0.0000000001
 40
0.0
 40
0.0
 40
0.0
 40
0.0
 40
0.1760607685
 40
0.3386192037
 40
0.4863066217
 40
0.6185362403
 40
0.6788232052
 40
0.7352639539
 40
0.7879286484
 40
0.8369256071
 40
0.8824073964
 40
0.9245806352
 40
1.0
 40
1.0
 40
1.0
 40
1.0
 10
5.9583941711
 20
13.2691163138
 30
0.0
 10
5.9565194315
 20
13.2673224954
 30
0.0
 10
5.9529600745
 20
13.26382397
 30
0.0
 10
5.9479223313
 20
13.2587262863
 30
0.0
 10
5.943339923
 20
13.2540869341
 30
0.0
 10
5.9397578231
 20
13.2505777812
 30
0.0
 10
5.9370609221
 20
13.2480896566
 30
0.0
 10
5.9351813185
 20
13.2464461797
 30
0.0
 10
5.9333752346
 20
13.2449730976
 30
0.0
 10
5.931636289
 20
13.2436763165
 30
0.0
 10
5.9299579716
 20
13.2425602321
 30
0.0
 10
5.9278733241
 20
13.2413640038
 30
0.0
 10
5.9262689033
 20
13.2406732922
 30
0.0
 10
5.9252033019
 20
13.2403572102
 30
0.0
  0
SPLINE
  5
480
100
AcDbEntity
  8
0
100
AcDbSpline
 62
9
  6
CONTINUOUS
 70
0
 71
3
 72
15
 73
11
 74
0
 42
0.0000001
 43
0.0000001
 44
0.0000000001
 40
0.0
 40
0.0
 40
0.0
 40
0.0
 40
0.1223435529
 40
0.2472944796
 40
0.3733654371
 40
0.4996155215
 40
0.6255370746
 40
0.7509091634
 40
0.8757104436
 40
1.0
 40
1.0
 40
1.0
 40
1.0
 10
6.5397490884
 20
13.1800971123
 30
0.0
 10
6.5376591056
 20
13.1782309162
 30
0.0
 10
6.533250645
 20
13.1746601586
 30
0.0
 10
6.5261388582
 20
13.1698935311
 30
0.0
 10
6.5185578056
 20
13.1657252504
 30
0.0
 10
6.5106224538
 20
13.1622237076
 30
0.0
 10
6.5024239229
 20
13.159440846
 30
0.0
 10
6.4940397516
 20
13.1574151472
 30
0.0
 10
6.4855424413
 20
13.156173111
 30
0.0
 10
6.4798354047
 20
13.155877509
 30
0.0
 10
6.4769889488
 20
13.155865764
 30
0.0
  0
SPLINE
  5
481
100
AcDbEntity
  8
0
100
AcDbSpline
 62
9
  6
CONTINUOUS
 70
0
 71
3
 72
18
 73
14
 74
0
 42
0.0000001
 43
0.0000001
 44
0.0000000001
 40
0.0
 40
0.0
 40
0.0
 40
0.0
 40
0.1236386372
 40
0.2478771981
 40
0.3727985851
 40
0.4984134502
 40
0.5614510578
 40
0.6245833631
 40
0.6877464832
 40
0.7508578232
 40
0.8138027314
 40
0.876438613
 40
1.0
 40
1.0
 40
1.0
 40
1.0
 10
6.7717590652
 20
13.1107294805
 30
0.0
 10
6.7688704591
 20
13.1116186912
 30
0.0
 10
6.7631557943
 20
13.1136611479
 30
0.0
 10
6.7548640185
 20
13.1174681289
 30
0.0
 10
6.7468860645
 20
13.1219940323
 30
0.0
 10
6.7405493661
 20
13.1263237808
 30
0.0
 10
6.7356850885
 20
13.1300971232
 30
0.0
 10
6.732142519
 20
13.1330775606
 30
0.0
 10
6.7287191634
 20
13.1361967587
 30
0.0
 10
6.725423886
 20
13.1394443661
 30
0.0
 10
6.7222635771
 20
13.1428058679
 30
0.0
 10
6.7182618738
 20
13.1473983387
 30
0.0
 10
6.7154716913
 20
13.1510019259
 30
0.0
 10
6.7137147485
 20
13.1534588511
 30
0.0
  0
SPLINE
  5
482
100
AcDbEntity
  8
0
100
AcDbSpline
 62
9
  6
CONTINUOUS
 70
0
 71
3
 72
18
 73
14
 74
0
 42
0.0000001
 43
0.0000001
 44
0.0000000001
 40
0.0
 40
0.0
 40
0.0
 40
0.0
 40
0.0661329321
 40
0.1314928286
 40
0.2601500344
 40
0.3868758981
 40
0.4496962282
 40
0.512150079
 40
0.6359240029
 40
0.7583535543
 40
0.8191389106
 40
0.8796603387
 40
1.0
 40
1.0
 40
1.0
 40
1.0
 10
7.200762633
 20
13.078880289
 30
0.0
 10
7.2005440143
 20
13.0778455669
 30
0.0
 10
7.2000048195
 20
13.0758086417
 30
0.0
 10
7.1985486837
 20
13.0719059661
 30
0.0
 10
7.1960789645
 20
13.067375098
 30
0.0
 10
7.1928869743
 20
13.0633803831
 30
0.0
 10
7.1900061174
 20
13.060557404
 30
0.0
 10
7.1869498708
 20
13.057998272
 30
0.0
 10
7.1828139146
 20
13.0552687397
 30
0.0
 10
7.1783497202
 20
13.0531835014
 30
0.0
 10
7.1746586166
 20
13.0519219511
 30
0.0
 10
7.1709201615
 20
13.0509347823
 30
0.0
 10
7.1680484065
 20
13.0504958194
 30
0.0
 10
7.1661301571
 20
13.0503419295
 30
0.0
  0
SPLINE
  5
483
100
AcDbEntity
  8
0
100
AcDbSpline
 62
9
  6
CONTINUOUS
 70
0
 71
3
 72
21
 73
17
 74
0
 42
0.0000001
 43
0.0000001
 44
0.0000000001
 40
0.0
 40
0.0
 40
0.0
 40
0.0
 40
0.0355979722
 40
0.0740291899
 40
0.1155963409
 40
0.1605549883
 40
0.2091110729
 40
0.2614174106
 40
0.3175831058
 40
0.3776807566
 40
0.4417523439
 40
0.5098224619
 40
0.6579700966
 40
0.7379238522
 40
0.8216713521
 40
1.0
 40
1.0
 40
1.0
 40
1.0
 10
7.30993125
 20
13.0283225777
 30
0.0
 10
7.3094938706
 20
13.0286208027
 30
0.0
 10
7.3086197005
 20
13.0292937804
 30
0.0
 10
7.3073600351
 20
13.0304662996
 30
0.0
 10
7.3061012306
 20
13.0318353517
 30
0.0
 10
7.3048377296
 20
13.0333984133
 30
0.0
 10
7.3035630997
 20
13.0351537075
 30
0.0
 10
7.3022697209
 20
13.0370985757
 30
0.0
 10
7.3009490844
 20
13.0392296689
 30
0.0
 10
7.2995923206
 20
13.0415431091
 30
0.0
 10
7.2981892319
 20
13.0440339982
 30
0.0
 10
7.2961862804
 20
13.0476894504
 30
0.0
 10
7.2941094478
 20
13.0515734427
 30
0.0
 10
7.2919079313
 20
13.0556550907
 30
0.0
 10
7.2894661703
 20
13.0601169506
 30
0.0
 10
7.2875472588
 20
13.0635097745
 30
0.0
 10
7.2862051694
 20
13.0657970138
 30
0.0
  0
SPLINE
  5
484
100
AcDbEntity
  8
0
100
AcDbSpline
 62
9
  6
CONTINUOUS
 70
0
 71
3
 72
25
 73
21
 74
0
 42
0.0000001
 43
0.0000001
 44
0.0000000001
 40
0.0
 40
0.0
 40
0.0
 40
0.0
 40
0.1921370776
 40
0.3766153584
 40
0.4637794687
 40
0.5465023544
 40
0.6240153399
 40
0.6955897809
 40
0.7605945885
 40
0.8184392139
 40
0.8686479672
 40
0.9108174829
 40
0.9288044714
 40
0.9447067497
 40
0.9585261308
 40
0.9702873708
 40
0.9800663699
 40
0.9880235502
 40
0.9944711147
 40
1.0
 40
1.0
 40
1.0
 40
1.0
 10
14.6396135243
 20
0.6087487439
 30
0.0
 10
14.6396156633
 20
0.6100351538
 30
0.0
 10
14.6396468559
 20
0.6125567296
 30
0.0
 10
14.6397543516
 20
0.6156603171
 30
0.0
 10
14.6398823096
 20
0.6180295036
 30
0.0
 10
14.6399948019
 20
0.6196821527
 30
0.0
 10
14.640124393
 20
0.6212288403
 30
0.0
 10
14.6402699744
 20
0.6226549293
 30
0.0
 10
14.6404298568
 20
0.6239469115
 30
0.0
 10
14.6406025517
 20
0.6250928303
 30
0.0
 10
14.640786082
 20
0.6260819307
 30
0.0
 10
14.6409538175
 20
0.6268020487
 30
0.0
 10
14.6410957686
 20
0.6272912275
 30
0.0
 10
14.6411981326
 20
0.6275939379
 30
0.0
 10
14.6413018183
 20
0.6278518055
 30
0.0
 10
14.6414066889
 20
0.6280643902
 30
0.0
 10
14.6415126359
 20
0.6282316872
 30
0.0
 10
14.6416200948
 20
0.6283540372
 30
0.0
 10
14.6417308556
 20
0.6284318887
 30
0.0
 10
14.6418115327
 20
0.6284512192
 30
0.0
 10
14.6418485502
 20
0.6284512192
 30
0.0
  0
SPLINE
  5
485
100
AcDbEntity
  8
0
100
AcDbSpline
 62
9
  6
CONTINUOUS
 70
0
 71
3
 72
15
 73
11
 74
0
 42
0.0000001
 43
0.0000001
 44
0.0000000001
 40
0.0
 40
0.0
 40
0.0
 40
0.0
 40
0.1252916317
 40
0.2505200341
 40
0.3756623881
 40
0.5007005203
 40
0.6256349391
 40
0.7504796653
 40
0.8752557569
 40
1.0
 40
1.0
 40
1.0
 40
1.0
 10
7.3929900712
 20
12.7510278182
 30
0.0
 10
7.3952648662
 20
12.7506360825
 30
0.0
 10
7.3997515065
 20
12.7494345517
 30
0.0
 10
7.4060482133
 20
12.7464813046
 30
0.0
 10
7.4117286611
 20
12.742472393
 30
0.0
 10
7.41661567
 20
12.7375364368
 30
0.0
 10
7.4205728819
 20
12.7318352055
 30
0.0
 10
7.4234851262
 20
12.7255410256
 30
0.0
 10
7.4252792368
 20
12.718848279
 30
0.0
 10
7.4256973545
 20
12.7142433302
 30
0.0
 10
7.4257063894
 20
12.7119451542
 30
0.0
  0
SPLINE
  5
486
100
AcDbEntity
  8
0
100
AcDbSpline
 62
9
  6
CONTINUOUS
 70
0
 71
3
 72
17
 73
13
 74
0
 42
0.0000001
 43
0.0000001
 44
0.0000000001
 40
0.0
 40
0.0
 40
0.0
 40
0.0
 40
0.1246750026
 40
0.2493920958
 40
0.3118528186
 40
0.3743368552
 40
0.4992437342
 40
0.6242678867
 40
0.6868970448
 40
0.7495519434
 40
0.8747600639
 40
1.0
 40
1.0
 40
1.0
 40
1.0
 10
7.4302297535
 20
11.7428747499
 30
0.0
 10
7.4302445681
 20
11.740306969
 30
0.0
 10
7.4297724797
 20
11.7351551422
 30
0.0
 10
7.4279670685
 20
11.7289488997
 30
0.0
 10
7.4258361871
 20
11.7242612936
 30
0.0
 10
7.4232609178
 20
11.719797983
 30
0.0
 10
7.4192454627
 20
11.714715031
 30
0.0
 10
7.414316364
 20
11.7105062268
 30
0.0
 10
7.4099402402
 20
11.7077670137
 30
0.0
 10
7.4053113117
 20
11.7054718298
 30
0.0
 10
7.3991339177
 20
11.7034757008
 30
0.0
 10
7.3939689018
 20
11.7028845057
 30
0.0
 10
7.3913896184
 20
11.7028543938
 30
0.0
  0
LINE
  5
487
100
AcDbEntity
  8
0
100
AcDbLine
 62
7
  6
CONTINUOUS
 10
7.3913898779
 20
11.7028337616
 11
7.2020781857
 21
11.7002998832
  0
SPLINE
  5
488
100
AcDbEntity
  8
0
100
AcDbSpline
 62
9
  6
CONTINUOUS
 70
0
 71
3
 72
15
 73
11
 74
0
 42
0.0000001
 43
0.0000001
 44
0.0000000001
 40
0.0
 40
0.0
 40
0.0
 40
0.0
 40
0.257712414
 40
0.385407019
 40
0.512016336
 40
0.6372555466
 40
0.7607332889
 40
0.8216654431
 40
0.8819508463
 40
1.0
 40
1.0
 40
1.0
 40
1.0
 10
15.6037231225
 20
0.9695529498
 30
0.0
 10
15.6049054463
 20
0.9777711858
 30
0.0
 10
15.6069058503
 20
0.9900307837
 30
0.0
 10
15.6101249311
 20
1.0062108522
 30
0.0
 10
15.6128225702
 20
1.0181391863
 30
0.0
 10
15.6158372607
 20
1.0298513998
 30
0.0
 10
15.6186545867
 20
1.0394241193
 30
0.0
 10
15.6211119977
 20
1.0469154785
 30
0.0
 10
15.623678209
 20
1.0541846611
 30
0.0
 10
15.6257948919
 20
1.0595304998
 30
0.0
 10
15.6273094425
 20
1.0630191717
 30
0.0
  0
SPLINE
  5
489
100
AcDbEntity
  8
0
100
AcDbSpline
 62
9
  6
CONTINUOUS
 70
0
 71
3
 72
17
 73
13
 74
0
 42
0.0000001
 43
0.0000001
 44
0.0000000001
 40
0.0
 40
0.0
 40
0.0
 40
0.0
 40
0.1248713497
 40
0.1873685528
 40
0.2498603325
 40
0.3123440746
 40
0.3748327193
 40
0.4373282878
 40
0.4998266117
 40
0.6248427306
 40
0.749895669
 40
1.0
 40
1.0
 40
1.0
 40
1.0
 10
14.909565943
 20
1.0630191602
 30
0.0
 10
14.9120305939
 20
1.0595862286
 30
0.0
 10
14.9155029065
 20
1.0542694011
 30
0.0
 10
14.9197309101
 20
1.0469452867
 30
0.0
 10
14.9227208058
 20
1.0413478566
 30
0.0
 10
14.9255383539
 20
1.0356624497
 30
0.0
 10
14.9281930297
 20
1.0298991287
 30
0.0
 10
14.9306951911
 20
1.0240675572
 30
0.0
 10
14.9338422718
 20
1.0162127361
 30
0.0
 10
14.9374374357
 20
1.0062600558
 30
0.0
 10
14.9425397368
 20
0.9901165963
 30
0.0
 10
14.9457084055
 20
0.9778091184
 30
0.0
 10
14.9475740983
 20
0.9695529498
 30
0.0
  0
SPLINE
  5
48A
100
AcDbEntity
  8
0
100
AcDbSpline
 62
9
  6
CONTINUOUS
 70
0
 71
3
 72
23
 73
19
 74
0
 42
0.0000001
 43
0.0000001
 44
0.0000000001
 40
0.0
 40
0.0
 40
0.0
 40
0.0
 40
0.0389768066
 40
0.0788414522
 40
0.0992812222
 40
0.1201674612
 40
0.16361711
 40
0.2098799783
 40
0.2595617098
 40
0.3131671924
 40
0.371080201
 40
0.4335670958
 40
0.5007803954
 40
0.5727800926
 40
0.6495150898
 40
0.730871554
 40
0.8166350538
 40
1.0
 40
1.0
 40
1.0
 40
1.0
 10
15.9710042229
 20
0.6087487439
 30
0.0
 10
15.9702247764
 20
0.6087487448
 30
0.0
 10
15.9686469589
 20
0.6088189889
 30
0.0
 10
15.9666793275
 20
0.6091150994
 30
0.0
 10
15.9651000516
 20
0.6094957834
 30
0.0
 10
15.9634782623
 20
0.609992921
 30
0.0
 10
15.9614263665
 20
0.6108326447
 30
0.0
 10
15.9589726277
 20
0.6121655356
 30
0.0
 10
15.9564932097
 20
0.6138450943
 30
0.0
 10
15.9539780092
 20
0.6158660189
 30
0.0
 10
15.9514153704
 20
0.6182230618
 30
0.0
 10
15.9487915686
 20
0.6209066749
 30
0.0
 10
15.9460884994
 20
0.6239015212
 30
0.0
 10
15.94329022
 20
0.6271912516
 30
0.0
 10
15.9403769755
 20
0.6307530447
 30
0.0
 10
15.9373319281
 20
0.6345620863
 30
0.0
 10
15.9329742494
 20
0.6400515379
 30
0.0
 10
15.9296058216
 20
0.6442495954
 30
0.0
 10
15.9272691583
 20
0.6470755458
 30
0.0
  0
SPLINE
  5
48B
100
AcDbEntity
  8
0
100
AcDbSpline
 62
9
  6
CONTINUOUS
 70
0
 71
3
 72
13
 73
9
 74
0
 42
0.0000001
 43
0.0000001
 44
0.0000000001
 40
0.0
 40
0.0
 40
0.0
 40
0.0
 40
0.1159888982
 40
0.235875496
 40
0.3586730524
 40
0.4838166119
 40
0.7393796115
 40
1.0
 40
1.0
 40
1.0
 40
1.0
 10
15.753814268
 20
1.0630191602
 30
0.0
 10
15.754695961
 20
1.0599123192
 30
0.0
 10
15.7563392899
 20
1.0535512978
 30
0.0
 10
15.7584856779
 20
1.0437964809
 30
0.0
 10
15.7604004125
 20
1.0337342493
 30
0.0
 10
15.7626903219
 20
1.0199022173
 30
0.0
 10
15.7650812688
 20
1.0022023365
 30
0.0
 10
15.7665849367
 20
0.9879072212
 30
0.0
 10
15.7672603555
 20
0.9806821614
 30
0.0
  0
SPLINE
  5
48C
100
AcDbEntity
  8
0
100
AcDbSpline
 62
9
  6
CONTINUOUS
 70
0
 71
3
 72
35
 73
31
 74
0
 42
0.0000001
 43
0.0000001
 44
0.0000000001
 40
0.0
 40
0.0
 40
0.0
 40
0.0
 40
0.0001140415
 40
0.0003313532
 40
0.0011413975
 40
0.0024760796
 40
0.0043470456
 40
0.0067627049
 40
0.0097305599
 40
0.0132577605
 40
0.0173512914
 40
0.0220180494
 40
0.0272648809
 40
0.0395259867
 40
0.0541889362
 40
0.0713078647
 40
0.0909156017
 40
0.1129595147
 40
0.1373654443
 40
0.1640592055
 40
0.1929665969
 40
0.2240134064
 40
0.2922283894
 40
0.3679819381
 40
0.4500348099
 40
0.5370176424
 40
0.6275610406
 40
0.7203273647
 40
0.8141072792
 40
1.0
 40
1.0
 40
1.0
 40
1.0
 10
7.3916363333
 20
11.6499990843
 30
0.0
 10
7.3916383419
 20
11.6499991111
 30
0.0
 10
7.3916430221
 20
11.6500041095
 30
0.0
 10
7.3916495618
 20
11.6500224834
 30
0.0
 10
7.3916577312
 20
11.650064063
 30
0.0
 10
7.3916660159
 20
11.6501339313
 30
0.0
 10
7.3916745377
 20
11.650232766
 30
0.0
 10
7.391682727
 20
11.6503602246
 30
0.0
 10
7.3916906835
 20
11.6505170078
 30
0.0
 10
7.3916983011
 20
11.6507033577
 30
0.0
 10
7.3917055745
 20
11.6509196767
 30
0.0
 10
7.3917124757
 20
11.6511663076
 30
0.0
 10
7.3917216389
 20
11.651556796
 30
0.0
 10
7.391731705
 20
11.6521233821
 30
0.0
 10
7.3917415748
 20
11.6528991131
 30
0.0
 10
7.391749618
 20
11.6538042775
 30
0.0
 10
7.3917557232
 20
11.6548394704
 30
0.0
 10
7.3917598806
 20
11.6560030299
 30
0.0
 10
7.3917620575
 20
11.657291411
 30
0.0
 10
7.3917622267
 20
11.65870069
 30
0.0
 10
7.3917603642
 20
11.660226943
 30
0.0
 10
7.3917549634
 20
11.662484563
 30
0.0
 10
7.3917426709
 20
11.6655673347
 30
0.0
 10
7.3917200882
 20
11.6695485083
 30
0.0
 10
7.3916898942
 20
11.6738602248
 30
0.0
 10
7.3916527701
 20
11.6784324108
 30
0.0
 10
7.3916094298
 20
11.6831932613
 30
0.0
 10
7.3915605661
 20
11.6880737911
 30
0.0
 10
7.3914896142
 20
11.6946337048
 30
0.0
 10
7.3914310098
 20
11.69955963
 30
0.0
 10
7.3913898771
 20
11.7028337645
 30
0.0
  0
SPLINE
  5
48D
100
AcDbEntity
  8
0
100
AcDbSpline
 62
9
  6
CONTINUOUS
 70
0
 71
3
 72
28
 73
24
 74
0
 42
0.0000001
 43
0.0000001
 44
0.0000000001
 40
0.0
 40
0.0
 40
0.0
 40
0.0
 40
0.1799793663
 40
0.3634840651
 40
0.4533893797
 40
0.5400931952
 40
0.6220468878
 40
0.6978764885
 40
0.7663354764
 40
0.8265006597
 40
0.8776289089
 40
0.899683507
 40
0.9193546313
 40
0.9366324133
 40
0.951581771
 40
0.9642939479
 40
0.9748760846
 40
0.9834648033
 40
0.990255528
 40
0.9930753914
 40
0.9955833708
 40
0.9978584735
 40
1.0
 40
1.0
 40
1.0
 40
1.0
 10
7.4257063894
 20
12.7119451535
 30
0.0
 10
7.4292716158
 20
12.7119587823
 30
0.0
 10
7.4364722654
 20
12.711922046
 30
0.0
 10
7.4454518046
 20
12.7117139887
 30
0.0
 10
7.4525798569
 20
12.7114295187
 30
0.0
 10
7.4576949812
 20
12.7111627025
 30
0.0
 10
7.4625276631
 20
12.7108424403
 30
0.0
 10
7.4669943999
 20
12.710473893
 30
0.0
 10
7.471023733
 20
12.7100612586
 30
0.0
 10
7.4745565441
 20
12.7096130178
 30
0.0
 10
7.4771660137
 20
12.7091980924
 30
0.0
 10
7.478971762
 20
12.7088471355
 30
0.0
 10
7.4801128641
 20
12.7085933148
 30
0.0
 10
7.4811085636
 20
12.708336449
 30
0.0
 10
7.4819607412
 20
12.7080778183
 30
0.0
 10
7.4826730447
 20
12.7078185572
 30
0.0
 10
7.4832500059
 20
12.7075594924
 30
0.0
 10
7.4836959388
 20
12.7073014689
 30
0.0
 10
7.483979371
 20
12.7070741685
 30
0.0
 10
7.4841348266
 20
12.7068902394
 30
0.0
 10
7.4842132474
 20
12.7067607526
 30
0.0
 10
7.4842608552
 20
12.7066310869
 30
0.0
 10
7.4842719166
 20
12.7065433477
 30
0.0
 10
7.4842721146
 20
12.7065009262
 30
0.0
  0
SPLINE
  5
48E
100
AcDbEntity
  8
0
100
AcDbSpline
 62
9
  6
CONTINUOUS
 70
0
 71
3
 72
28
 73
24
 74
0
 42
0.0000001
 43
0.0000001
 44
0.0000000001
 40
0.0
 40
0.0
 40
0.0
 40
0.0
 40
0.0021448023
 40
0.0044230283
 40
0.0069338758
 40
0.0097563168
 40
0.0165513642
 40
0.0251434902
 40
0.0357283076
 40
0.0484425588
 40
0.0633934523
 40
0.0806722655
 40
0.1003440628
 40
0.1223991071
 40
0.1735274851
 40
0.2336919078
 40
0.3021493844
 40
0.3779767986
 40
0.4599278035
 40
0.5466285184
 40
0.6365304989
 40
0.8200279807
 40
1.0
 40
1.0
 40
1.0
 40
1.0
 10
7.4887420321
 20
11.748874628
 30
0.0
 10
7.4887422328
 20
11.7488321399
 30
0.0
 10
7.4887319977
 20
11.7487441707
 30
0.0
 10
7.4886856121
 20
11.748613863
 30
0.0
 10
7.4886084098
 20
11.7484834418
 30
0.0
 10
7.4884546974
 20
11.7482977891
 30
0.0
 10
7.488173414
 20
11.7480674848
 30
0.0
 10
7.4877298951
 20
11.7478048814
 30
0.0
 10
7.487155366
 20
11.7475400154
 30
0.0
 10
7.4864455059
 20
11.7472736912
 30
0.0
 10
7.4855957776
 20
11.7470066934
 30
0.0
 10
7.4846025223
 20
11.7467401225
 30
0.0
 10
7.4834638434
 20
11.7464752442
 30
0.0
 10
7.4816614655
 20
11.7461068723
 30
0.0
 10
7.4790559919
 20
11.7456669201
 30
0.0
 10
7.4755275176
 20
11.7451849734
 30
0.0
 10
7.4715022129
 20
11.74473405
 30
0.0
 10
7.4670391133
 20
11.744323196
 30
0.0
 10
7.462209635
 20
11.7439572842
 30
0.0
 10
7.4570972266
 20
11.7436422624
 30
0.0
 10
7.4499721476
 20
11.7432907533
 30
0.0
 10
7.4409949448
 20
11.7429984772
 30
0.0
 10
7.4337949501
 20
11.7428944104
 30
0.0
 10
7.4302297535
 20
11.7428747513
 30
0.0
  0
SPLINE
  5
48F
100
AcDbEntity
  8
0
100
AcDbSpline
 62
9
  6
CONTINUOUS
 70
0
 71
3
 72
33
 73
29
 74
0
 42
0.0000001
 43
0.0000001
 44
0.0000000001
 40
0.0
 40
0.0
 40
0.0
 40
0.0
 40
0.000130378
 40
0.0003548823
 40
0.0011697415
 40
0.002504935
 40
0.0043745719
 40
0.0067879282
 40
0.0097529152
 40
0.0132769129
 40
0.0173670523
 40
0.027273634
 40
0.039527946
 40
0.0541846576
 40
0.0712981878
 40
0.0909015976
 40
0.1129423359
 40
0.1373462509
 40
0.1640391521
 40
0.2239950202
 40
0.2922160742
 40
0.3679790974
 40
0.4500427276
 40
0.5370356895
 40
0.6275866584
 40
0.7203563911
 40
0.81413421
 40
1.0
 40
1.0
 40
1.0
 40
1.0
 10
7.4024869385
 20
12.8030499173
 30
0.0
 10
7.4024846849
 20
12.8030503705
 30
0.0
 10
7.4024783447
 20
12.8030470927
 30
0.0
 10
7.4024666242
 20
12.80303035
 30
0.0
 10
7.4024493529
 20
12.8029916766
 30
0.0
 10
7.4024262467
 20
12.8029248764
 30
0.0
 10
7.4023977609
 20
12.8028298863
 30
0.0
 10
7.4023642649
 20
12.8027065941
 30
0.0
 10
7.4023256566
 20
12.8025544382
 30
0.0
 10
7.4022819579
 20
12.802373108
 30
0.0
 10
7.4022122808
 20
12.802072152
 30
0.0
 10
7.4021127366
 20
12.8016201357
 30
0.0
 10
7.4019785914
 20
12.8009850039
 30
0.0
 10
7.4018229475
 20
12.8002245587
 30
0.0
 10
7.4016454846
 20
12.7993363313
 30
0.0
 10
7.401446248
 20
12.7983196997
 30
0.0
 10
7.4012255504
 20
12.7971762959
 30
0.0
 10
7.4009840889
 20
12.7959096003
 30
0.0
 10
7.4006211666
 20
12.793985535
 30
0.0
 10
7.4001218379
 20
12.7913010325
 30
0.0
 10
7.3994731356
 20
12.7877643225
 30
0.0
 10
7.3987622468
 20
12.7838427389
 30
0.0
 10
7.397999245
 20
12.7795942433
 30
0.0
 10
7.3971963299
 20
12.7750880199
 30
0.0
 10
7.396365966
 20
12.7703949564
 30
0.0
 10
7.3955201219
 20
12.7655831519
 30
0.0
 10
7.3943897072
 20
12.759115092
 30
0.0
 10
7.3935473245
 20
12.7542571291
 30
0.0
 10
7.3929900714
 20
12.7510278183
 30
0.0
  0
SPLINE
  5
490
100
AcDbEntity
  8
0
100
AcDbSpline
 62
9
  6
CONTINUOUS
 70
0
 71
3
 72
11
 73
7
 74
0
 42
0.0000001
 43
0.0000001
 44
0.0000000001
 40
0.0
 40
0.0
 40
0.0
 40
0.0
 40
0.2451374597
 40
0.4925966645
 40
0.7438301587
 40
1.0
 40
1.0
 40
1.0
 40
1.0
 10
14.7273238283
 20
0.6912160665
 30
0.0
 10
14.727322689
 20
0.6873034254
 30
0.0
 10
14.7266463427
 20
0.6794241787
 30
0.0
 10
14.7235791114
 20
0.66789433
 30
0.0
 10
14.7184821846
 20
0.6569120735
 30
0.0
 10
14.7138311425
 20
0.6502251743
 30
0.0
 10
14.711223932
 20
0.6470755458
 30
0.0
  0
LINE
  5
491
100
AcDbEntity
  8
0
100
AcDbLine
 62
9
  6
CONTINUOUS
 10
14.7273809721
 20
0.87349493
 11
14.7273238283
 21
0.6912160665
  0
SPLINE
  5
492
100
AcDbEntity
  8
0
100
AcDbSpline
 62
9
  6
CONTINUOUS
 70
0
 71
3
 72
12
 73
8
 74
0
 42
0.0000001
 43
0.0000001
 44
0.0000000001
 40
0.0
 40
0.0
 40
0.0
 40
0.0
 40
0.2499047727
 40
0.3748827135
 40
0.4998740475
 40
0.7499029402
 40
1.0
 40
1.0
 40
1.0
 40
1.0
 10
14.7249153227
 20
0.9493357693
 30
0.0
 10
14.7253646381
 20
0.9430295387
 30
0.0
 10
14.7259224018
 20
0.9335609771
 30
0.0
 10
14.7264821976
 20
0.9209272311
 30
0.0
 10
14.7269306257
 20
0.9082858126
 30
0.0
 10
14.7272914871
 20
0.8924746817
 30
0.0
 10
14.7273831251
 20
0.8798220113
 30
0.0
 10
14.7273809721
 20
0.87349493
 30
0.0
  0
SPLINE
  5
493
100
AcDbEntity
  8
0
100
AcDbSpline
 62
9
  6
CONTINUOUS
 70
0
 71
3
 72
13
 73
9
 74
0
 42
0.0000001
 43
0.0000001
 44
0.0000000001
 40
0.0
 40
0.0
 40
0.0
 40
0.0
 40
0.2648932281
 40
0.5175000568
 40
0.6402593613
 40
0.7612086208
 40
0.8809364442
 40
1.0
 40
1.0
 40
1.0
 40
1.0
 10
7.4852625427
 20
12.494335542
 30
0.0
 10
7.486497673
 20
12.4956645735
 30
0.0
 10
7.4887154151
 20
12.4984533455
 30
0.0
 10
7.4908147181
 20
12.5023337603
 30
0.0
 10
7.4919851
 20
12.5055304892
 30
0.0
 10
7.4926069245
 20
12.5079453746
 30
0.0
 10
7.4929766615
 20
12.5103855965
 30
0.0
 10
7.4930540848
 20
12.5120227966
 30
0.0
 10
7.4930502783
 20
12.512838298
 30
0.0
  0
SPLINE
  5
494
100
AcDbEntity
  8
0
100
AcDbSpline
 62
9
  6
CONTINUOUS
 70
0
 71
3
 72
13
 73
9
 74
0
 42
0.0000001
 43
0.0000001
 44
0.0000000001
 40
0.0
 40
0.0
 40
0.0
 40
0.0
 40
0.2648932281
 40
0.5175000568
 40
0.6402593613
 40
0.7612086208
 40
0.8809364442
 40
1.0
 40
1.0
 40
1.0
 40
1.0
 10
7.4844404391
 20
12.6704602791
 30
0.0
 10
7.4856879224
 20
12.6691428358
 30
0.0
 10
7.4879316018
 20
12.6663748885
 30
0.0
 10
7.490067038
 20
12.6625142404
 30
0.0
 10
7.4912672113
 20
12.6593285766
 30
0.0
 10
7.4919115523
 20
12.6569196013
 30
0.0
 10
7.4923040532
 20
12.6544829373
 30
0.0
 10
7.4923967569
 20
12.6528465313
 30
0.0
 10
7.4924005635
 20
12.6520310299
 30
0.0
  0
SPLINE
  5
495
100
AcDbEntity
  8
0
100
AcDbSpline
 62
9
  6
CONTINUOUS
 70
0
 71
3
 72
17
 73
13
 74
0
 42
0.0000001
 43
0.0000001
 44
0.0000000001
 40
0.0
 40
0.0
 40
0.0
 40
0.0
 40
0.1257628844
 40
0.250625459
 40
0.3747611849
 40
0.4984400145
 40
0.622077179
 40
0.7463266388
 40
0.8089897757
 40
0.8721672163
 40
0.9358974513
 40
1.0
 40
1.0
 40
1.0
 40
1.0
 10
14.9896863993
 20
4.6648338569
 30
0.0
 10
14.9824428946
 20
4.6588550702
 30
0.0
 10
14.9674907862
 20
4.6475508648
 30
0.0
 10
14.9437762128
 20
4.6326255879
 30
0.0
 10
14.9190115776
 20
4.6198483847
 30
0.0
 10
14.8933323347
 20
4.6092650916
 30
0.0
 10
14.8668359474
 20
4.6009101256
 30
0.0
 10
14.8441689834
 20
4.5958545834
 30
0.0
 10
14.8257099127
 20
4.5929767656
 30
0.0
 10
14.8116344229
 20
4.591409648
 30
0.0
 10
14.7973965599
 20
4.5904618074
 30
0.0
 10
14.7878484387
 20
4.5902457615
 30
0.0
 10
14.7830611217
 20
4.5902458429
 30
0.0
  0
SPLINE
  5
496
100
AcDbEntity
  8
0
100
AcDbSpline
 62
9
  6
CONTINUOUS
 70
0
 71
3
 72
16
 73
12
 74
0
 42
0.0000001
 43
0.0000001
 44
0.0000000001
 40
0.0
 40
0.0
 40
0.0
 40
0.0
 40
0.064104953
 40
0.1278354355
 40
0.2536503089
 40
0.3779030748
 40
0.5015438917
 40
0.6252266896
 40
0.7493664456
 40
0.8742330452
 40
1.0
 40
1.0
 40
1.0
 40
1.0
 10
14.7830611217
 20
4.5902458429
 30
0.0
 10
14.7782737683
 20
4.5902457896
 30
0.0
 10
14.7687255223
 20
4.5904604251
 30
0.0
 10
14.7498201714
 20
4.5917212647
 30
0.0
 10
14.7265591776
 20
4.5948262985
 30
0.0
 10
14.6992873877
 20
4.6009100099
 30
0.0
 10
14.6727898825
 20
4.6092649648
 30
0.0
 10
14.6471109243
 20
4.619848319
 30
0.0
 10
14.6223461226
 20
4.6326255004
 30
0.0
 10
14.5986315368
 20
4.6475508525
 30
0.0
 10
14.5836793708
 20
4.6588550605
 30
0.0
 10
14.5764358441
 20
4.6648338569
 30
0.0
  0
SPLINE
  5
497
100
AcDbEntity
  8
0
100
AcDbSpline
 62
9
  6
CONTINUOUS
 70
0
 71
3
 72
25
 73
21
 74
0
 42
0.0000001
 43
0.0000001
 44
0.0000000001
 40
0.0
 40
0.0
 40
0.0
 40
0.0
 40
0.1793807536
 40
0.3574224345
 40
0.4433397776
 40
0.5258343698
 40
0.603949951
 40
0.6767872987
 40
0.7435226303
 40
0.8034183689
 40
0.8558452764
 40
0.900313785
 40
0.9194628852
 40
0.936530414
 40
0.9515240403
 40
0.964493344
 40
0.9755435143
 40
0.9848708252
 40
0.9928305972
 40
1.0
 40
1.0
 40
1.0
 40
1.0
 10
15.1417052724
 20
4.9241326969
 30
0.0
 10
15.1402538285
 20
4.9242504401
 30
0.0
 10
15.1373657631
 20
4.9245365875
 30
0.0
 10
15.1337975233
 20
4.9250121947
 30
0.0
 10
15.1310207746
 20
4.9254601941
 30
0.0
 10
15.1290514789
 20
4.9258175167
 30
0.0
 10
15.1271943137
 20
4.926195729
 30
0.0
 10
15.1254715053
 20
4.9265902045
 30
0.0
 10
15.1239036523
 20
4.9269960453
 30
0.0
 10
15.1225093024
 20
4.9274081327
 30
0.0
 10
15.1213049809
 20
4.9278213639
 30
0.0
 10
15.1204318919
 20
4.9281775659
 30
0.0
 10
15.1198426635
 20
4.9284641681
 30
0.0
 10
15.1194786702
 20
4.9286654984
 30
0.0
 10
15.1191709916
 20
4.9288635355
 30
0.0
 10
15.1189202421
 20
4.9290578619
 30
0.0
 10
15.1187266768
 20
4.9292483222
 30
0.0
 10
15.1185906905
 20
4.9294356762
 30
0.0
 10
15.1185134523
 20
4.9296211635
 30
0.0
 10
15.1185042049
 20
4.9297464972
 30
0.0
 10
15.1185106108
 20
4.9298043447
 30
0.0
  0
SPLINE
  5
498
100
AcDbEntity
  8
0
100
AcDbSpline
 62
9
  6
CONTINUOUS
 70
0
 71
3
 72
25
 73
21
 74
0
 42
0.0000001
 43
0.0000001
 44
0.0000000001
 40
0.0
 40
0.0
 40
0.0
 40
0.0
 40
0.1803090625
 40
0.3587079543
 40
0.4446357412
 40
0.5270554664
 40
0.6050313948
 40
0.6776847589
 40
0.7442116419
 40
0.8038935007
 40
0.8561190266
 40
0.9004153068
 40
0.9194942691
 40
0.9365048114
 40
0.9514566348
 40
0.9644012449
 40
0.975445757
 40
0.984787957
 40
0.9927824001
 40
1.0
 40
1.0
 40
1.0
 40
1.0
 10
15.1438975659
 20
4.9638480927
 30
0.0
 10
15.1424546588
 20
4.9638096761
 30
0.0
 10
15.1395825974
 20
4.9637836541
 30
0.0
 10
15.136023491
 20
4.9638709087
 30
0.0
 10
15.1332513025
 20
4.9640151285
 30
0.0
 10
15.1312843277
 20
4.9641561056
 30
0.0
 10
15.1294266239
 20
4.964329452
 30
0.0
 10
15.1276999951
 20
4.9645330352
 30
0.0
 10
15.126124695
 20
4.9647642914
 30
0.0
 10
15.1247190168
 20
4.965020229
 30
0.0
 10
15.1234993075
 20
4.965297661
 30
0.0
 10
15.1226093214
 20
4.9655545499
 30
0.0
 10
15.1220039346
 20
4.965773429
 30
0.0
 10
15.1216273545
 20
4.9659325975
 30
0.0
 10
15.1213060597
 20
4.9660946216
 30
0.0
 10
15.1210406771
 20
4.9662591703
 30
0.0
 10
15.1208314689
 20
4.9664261332
 30
0.0
 10
15.1206787543
 20
4.9665962957
 30
0.0
 10
15.1205835835
 20
4.9667709427
 30
0.0
 10
15.1205611217
 20
4.9668934405
 30
0.0
 10
15.1205611217
 20
4.9669512192
 30
0.0
  0
SPLINE
  5
499
100
AcDbEntity
  8
0
100
AcDbSpline
 62
9
  6
CONTINUOUS
 70
0
 71
3
 72
24
 73
20
 74
0
 42
0.0000001
 43
0.0000001
 44
0.0000000001
 40
0.0
 40
0.0
 40
0.0
 40
0.0
 40
0.1641173002
 40
0.3361422573
 40
0.5055005714
 40
0.5859046307
 40
0.6617928319
 40
0.7320096119
 40
0.7954991899
 40
0.8513297557
 40
0.8987239469
 40
0.9190721083
 40
0.937115871
 40
0.9528336684
 40
0.9662326279
 40
0.9773803385
 40
0.9864374265
 40
0.9937506476
 40
1.0
 40
1.0
 40
1.0
 40
1.0
 10
14.5764358441
 20
4.6648338569
 30
0.0
 10
14.5774277547
 20
4.6660776838
 30
0.0
 10
14.5794033254
 20
4.6686702343
 30
0.0
 10
14.5822327194
 20
4.6726720709
 30
0.0
 10
14.5844765098
 20
4.6760913228
 30
0.0
 10
14.5861304549
 20
4.6787803451
 30
0.0
 10
14.5872405815
 20
4.6806749848
 30
0.0
 10
14.5882247932
 20
4.6824526974
 30
0.0
 10
14.5890679784
 20
4.6840854975
 30
0.0
 10
14.5897571678
 20
4.6855476648
 30
0.0
 10
14.5902163453
 20
4.686654913
 30
0.0
 10
14.590492607
 20
4.6874394922
 30
0.0
 10
14.5906447593
 20
4.6879416875
 30
0.0
 10
14.5907524327
 20
4.688386318
 30
0.0
 10
14.590815302
 20
4.6887720341
 30
0.0
 10
14.5908335078
 20
4.6890981442
 30
0.0
 10
14.5908064775
 20
4.6893650692
 30
0.0
 10
14.590732127
 20
4.6895747911
 30
0.0
 10
14.590641914
 20
4.6896768025
 30
0.0
 10
14.5905921508
 20
4.6897113497
 30
0.0
  0
SPLINE
  5
49A
100
AcDbEntity
  8
0
100
AcDbSpline
 62
9
  6
CONTINUOUS
 70
0
 71
3
 72
24
 73
20
 74
0
 42
0.0000001
 43
0.0000001
 44
0.0000000001
 40
0.0
 40
0.0
 40
0.0
 40
0.0
 40
0.1641172647
 40
0.3361421709
 40
0.5055004297
 40
0.5859044632
 40
0.6617926414
 40
0.7320094027
 40
0.7954989678
 40
0.8513295281
 40
0.8987237232
 40
0.9190718912
 40
0.9371156642
 40
0.9528334764
 40
0.9662324562
 40
0.9773801944
 40
0.9864373192
 40
0.9937505887
 40
1.0
 40
1.0
 40
1.0
 40
1.0
 10
14.9896863993
 20
4.6648338569
 30
0.0
 10
14.9886944856
 20
4.6660776815
 30
0.0
 10
14.9867189098
 20
4.6686702284
 30
0.0
 10
14.9838895106
 20
4.6726720615
 30
0.0
 10
14.9816457178
 20
4.6760913118
 30
0.0
 10
14.979991772
 20
4.6787803336
 30
0.0
 10
14.9788816455
 20
4.6806749735
 30
0.0
 10
14.9778974344
 20
4.6824526866
 30
0.0
 10
14.9770542503
 20
4.6840854874
 30
0.0
 10
14.9763650625
 20
4.6855476559
 30
0.0
 10
14.9759058868
 20
4.6866549053
 30
0.0
 10
14.9756296267
 20
4.6874394856
 30
0.0
 10
14.9754774756
 20
4.6879416817
 30
0.0
 10
14.9753698035
 20
4.6883863131
 30
0.0
 10
14.9753069355
 20
4.6887720302
 30
0.0
 10
14.9752887311
 20
4.6890981413
 30
0.0
 10
14.9753157628
 20
4.6893650674
 30
0.0
 10
14.9753901149
 20
4.6895747902
 30
0.0
 10
14.9754803289
 20
4.6896768021
 30
0.0
 10
14.9755300926
 20
4.6897113497
 30
0.0
  0
LINE
  5
49B
100
AcDbEntity
  8
0
100
AcDbLine
 62
9
  6
CONTINUOUS
 10
14.7830611217
 20
4.5902458429
 11
14.7830611217
 21
4.6294512192
  0
SPLINE
  5
49C
100
AcDbEntity
  8
0
100
AcDbSpline
 62
9
  6
CONTINUOUS
 70
0
 71
3
 72
25
 73
21
 74
0
 42
0.0000001
 43
0.0000001
 44
0.0000000001
 40
0.0
 40
0.0
 40
0.0
 40
0.0
 40
0.1793807545
 40
0.3574224364
 40
0.4433397801
 40
0.5258343728
 40
0.6039499544
 40
0.6767873025
 40
0.7435226344
 40
0.8034183732
 40
0.8558452808
 40
0.9003137893
 40
0.9194628893
 40
0.9365304179
 40
0.9515240439
 40
0.9644933472
 40
0.9755435169
 40
0.9848708271
 40
0.9928305982
 40
1.0
 40
1.0
 40
1.0
 40
1.0
 10
14.424416971
 20
4.9241326969
 30
0.0
 10
14.4258684149
 20
4.9242504401
 30
0.0
 10
14.4287564803
 20
4.9245365876
 30
0.0
 10
14.43232472
 20
4.9250121949
 30
0.0
 10
14.4351014688
 20
4.9254601943
 30
0.0
 10
14.4370707645
 20
4.9258175169
 30
0.0
 10
14.4389279297
 20
4.9261957293
 30
0.0
 10
14.440650738
 20
4.9265902048
 30
0.0
 10
14.4422185911
 20
4.9269960455
 30
0.0
 10
14.443612941
 20
4.927408133
 30
0.0
 10
14.4448172625
 20
4.9278213641
 30
0.0
 10
14.4456903514
 20
4.9281775661
 30
0.0
 10
14.4462795799
 20
4.9284641682
 30
0.0
 10
14.4466435731
 20
4.9286654985
 30
0.0
 10
14.4469512517
 20
4.9288635357
 30
0.0
 10
14.4472020012
 20
4.929057862
 30
0.0
 10
14.4473955665
 20
4.9292483223
 30
0.0
 10
14.4475315529
 20
4.9294356763
 30
0.0
 10
14.4476087911
 20
4.9296211635
 30
0.0
 10
14.4476180385
 20
4.9297464972
 30
0.0
 10
14.4476116326
 20
4.9298043447
 30
0.0
  0
SPLINE
  5
49D
100
AcDbEntity
  8
0
100
AcDbSpline
 62
9
  6
CONTINUOUS
 70
0
 71
3
 72
16
 73
12
 74
0
 42
0.0000001
 43
0.0000001
 44
0.0000000001
 40
0.0
 40
0.0
 40
0.0
 40
0.0
 40
0.1296964451
 40
0.1944619336
 40
0.2590686351
 40
0.3875575844
 40
0.5146845301
 40
0.6399599528
 40
0.7629071797
 40
0.8830828995
 40
1.0
 40
1.0
 40
1.0
 40
1.0
 10
14.9475740983
 20
0.9695529498
 30
0.0
 10
14.9483375753
 20
0.9636114548
 30
0.0
 10
14.9493692634
 20
0.9546882182
 30
0.0
 10
14.9505721018
 20
0.9427830604
 30
0.0
 10
14.9516734527
 20
0.9309240148
 30
0.0
 10
14.9528808899
 20
0.9161826621
 30
0.0
 10
14.9541163985
 20
0.8986334209
 30
0.0
 10
14.9551776712
 20
0.8813293106
 30
0.0
 10
14.9560987602
 20
0.8643387653
 30
0.0
 10
14.9569000643
 20
0.8477286691
 30
0.0
 10
14.9573662529
 20
0.8367878135
 30
0.0
 10
14.9575797373
 20
0.831391933
 30
0.0
  0
SPLINE
  5
49E
100
AcDbEntity
  8
0
100
AcDbSpline
 62
9
  6
CONTINUOUS
 70
0
 71
3
 72
14
 73
10
 74
0
 42
0.0000001
 43
0.0000001
 44
0.0000000001
 40
0.0
 40
0.0
 40
0.0
 40
0.0
 40
0.2467365433
 40
0.3711542643
 40
0.4961423544
 40
0.6216094217
 40
0.747463444
 40
0.8736385827
 40
1.0
 40
1.0
 40
1.0
 40
1.0
 10
15.6268966911
 20
0.831391933
 30
0.0
 10
15.6223031909
 20
0.8420781157
 30
0.0
 10
15.616347117
 20
0.8585870188
 30
0.0
 10
15.6103636713
 20
0.8812068814
 30
0.0
 10
15.6068559622
 20
0.8985389959
 30
0.0
 10
15.6043788404
 20
0.9161156628
 30
0.0
 10
15.6029713443
 20
0.9338672993
 30
0.0
 10
15.6026698418
 20
0.9517139781
 30
0.0
 10
15.6032373892
 20
0.9636158704
 30
0.0
 10
15.6037231225
 20
0.9695529498
 30
0.0
  0
SPLINE
  5
49F
100
AcDbEntity
  8
0
100
AcDbSpline
 62
9
  6
CONTINUOUS
 70
0
 71
3
 72
25
 73
21
 74
0
 42
0.0000001
 43
0.0000001
 44
0.0000000001
 40
0.0
 40
0.0
 40
0.0
 40
0.0
 40
0.1803090625
 40
0.3587079543
 40
0.4446357413
 40
0.5270554664
 40
0.6050313948
 40
0.6776847589
 40
0.7442116419
 40
0.8038935007
 40
0.8561190266
 40
0.9004153068
 40
0.9194942691
 40
0.9365048114
 40
0.9514566348
 40
0.9644012449
 40
0.975445757
 40
0.984787957
 40
0.9927824001
 40
1.0
 40
1.0
 40
1.0
 40
1.0
 10
14.4222246775
 20
4.9638480927
 30
0.0
 10
14.4236675846
 20
4.9638096761
 30
0.0
 10
14.426539646
 20
4.9637836541
 30
0.0
 10
14.4300987523
 20
4.9638709087
 30
0.0
 10
14.4328709409
 20
4.9640151285
 30
0.0
 10
14.4348379157
 20
4.9641561056
 30
0.0
 10
14.4366956195
 20
4.964329452
 30
0.0
 10
14.4384222483
 20
4.9645330352
 30
0.0
 10
14.4399975484
 20
4.9647642914
 30
0.0
 10
14.4414032266
 20
4.965020229
 30
0.0
 10
14.4426229359
 20
4.965297661
 30
0.0
 10
14.443512922
 20
4.9655545499
 30
0.0
 10
14.4441183088
 20
4.965773429
 30
0.0
 10
14.4444948889
 20
4.9659325975
 30
0.0
 10
14.4448161837
 20
4.9660946216
 30
0.0
 10
14.4450815663
 20
4.9662591703
 30
0.0
 10
14.4452907745
 20
4.9664261332
 30
0.0
 10
14.4454434891
 20
4.9665962957
 30
0.0
 10
14.4455386599
 20
4.9667709427
 30
0.0
 10
14.4455611217
 20
4.9668934405
 30
0.0
 10
14.4455611217
 20
4.9669512192
 30
0.0
  0
ENDSEC
  0
SECTION
  2
OBJECTS
  0
DICTIONARY
  5
C
100
AcDbDictionary
280
0
281
1
  3
ACAD_GROUP
350
D
  3
ACAD_MLINESTYLE
350
17
  3
ACAD_LAYOUT
350
1A
  3
ACAD_PLOTSETTINGS
350
19
  3
ACAD_PLOTSTYLENAME
350
E
  0
DICTIONARY
  5
D
102
{ACAD_REACTORS
330
C
102
}
100
AcDbDictionary
280
0
281
1
  0
ACDBDICTIONARYWDFLT
  5
E
102
{ACAD_REACTORS
330
C
102
}
100
AcDbDictionary
281
1
  3
Normal
350
F
100
AcDbDictionaryWithDefault
340
F
  0
DICTIONARY
  5
17
102
{ACAD_REACTORS
330
C
102
}
100
AcDbDictionary
280
0
281
1
  3
Standard
350
18
  0
DICTIONARY
  5
19
102
{ACAD_REACTORS
330
C
102
}
100
AcDbDictionary
281
1
  0
DICTIONARY
  5
1A
102
{ACAD_REACTORS
330
C
102
}
100
AcDbDictionary
281
1
  3
Model
350
4A0
  3
Layout1
350
4A1
  0
ACDBPLACEHOLDER
  5
F
102
{ACAD_REACTORS
330
E
102
}
  0
MLINESTYLE
  5
18
102
{ACAD_REACTORS
330
17
102
}
100
AcDbMlineStyle
  2
STANDARD
 70
0
  3

 62
256
 51
90.0
 52
90.0
 71
2
 49
0.5
 62
256
  6
BYLAYER
 49
-0.5
 62
256
  6
BYLAYER
  0
LAYOUT
  5
4A0
102
{ACAD_REACTORS
330
1A
102
}
100
AcDbPlotSettings
  1

  2
none_device
  4
ANSI_C_(22.00_x_17.00_Inches)
  6

 40
0.0
 41
0.0
 42
0.0
 43
0.0
 44
558.8
 45
431.8
 46
0.0
 47
0.0
 48
0.0
 49
0.0
140
0.0
141
0.0
142
1.0
143
1.0
 70
1024
 72
0
 73
0
 74
0
  7

 75
0
147
1.0
148
0.0
149
0.0
100
AcDbLayout
  1
Model
 70
0
 71
0
 10
0.0
 20
0.0
 11
22.0
 21
17.0
 12
0.0
 22
0.0
 32
0.0
 14
0.0
 24
0.0
 34
0.0
 15
0.0
 25
0.0
 35
0.0
146
0.0
 13
0.0
 23
0.0
 33
0.0
 16
1.0
 26
0.0
 36
0.0
 17
0.0
 27
1.0
 37
0.0
 76
0
330
205
345
0
346
0
  0
LAYOUT
  5
4A1
102
{ACAD_REACTORS
330
1A
102
}
100
AcDbPlotSettings
  1

  2
none_device
  4
ANSI_C_(22.00_x_17.00_Inches)
  6

 40
0.0
 41
0.0
 42
0.0
 43
0.0
 44
558.8
 45
431.8
 46
0.0
 47
0.0
 48
0.0
 49
0.0
140
0.0
141
0.0
142
1.0
143
1.0
 70
0
 72
0
 73
0
 74
0
  7

 75
0
147
1.0
148
0.0
149
0.0
100
AcDbLayout
  1
Layout1
 70
0
 71
1
 10
0.0
 20
0.0
 11
22.0
 21
17.0
 12
0.0
 22
0.0
 32
0.0
 14
0.0
 24
0.0
 34
0.0
 15
0.0
 25
0.0
 35
0.0
146
0.0
 13
0.0
 23
0.0
 33
0.0
 16
1.0
 26
0.0
 36
0.0
 17
0.0
 27
1.0
 37
0.0
 76
0
330
206
345
0
346
0
  0
ENDSEC
  0
EOF
