999
DXF file: 3210-5203_right.dxf
999
Pro/ENGINEER 2018400 by Parametric Technology Corporation
  0
SECTION
  2
HEADER
  9
$ACADVER
  1
AC1027
  9
$DWGCODEPAGE
  3
ANSI_1252
  9
$EXTMAX
 10
11.0
 20
8.5
 30
0.0
  9
$EXTMIN
 10
0.0
 20
0.0
 30
0.0
  9
$LIMMIN
 10
0.0
 20
0.0
  9
$LIMMAX
 10
11.0
 20
8.5
  9
$VIEWCTR
 10
5.5
 20
4.25
  9
$VIEWSIZE
 40
8.5
  9
$CLAYER
  8
0
  9
$LTSCALE
 40
0.605
  9
$CELTYPE
  6
BYLAYER
  9
$DIMSCALE
 40
1.0
  9
$DIMASZ
 40
0.1
  9
$DIMEXO
 40
0.0625
  9
$DIMDLI
 40
0.418
  9
$DIMEXE
 40
0.125
  9
$DIMCEN
 40
0.099
  9
$DIMLFAC
 40
1.0
  9
$DIMBLK
  1
_FILLED
  9
$DIMALT
 70
1
  9
$DIMALTD
 70
1
  9
$DIMALTTD
 70
2
  9
$DIMALTF
 40
25.4
  9
$DIMTXT
 40
0.08
  9
$DIMTOL
 70
1
  9
$DIMLIM
 70
0
  9
$DIMTFAC
 40
1.0
  9
$DIMTP
 40
0.01
  9
$DIMTM
 40
0.01
  9
$DIMGAP
 40
0.09
  9
$DIMDSEP
 70
46
  9
$AUNITS
 70
0
  9
$PDMODE
 70
3
  9
$PDSIZE
 40
0.3125
  9
$HANDSEED
  5
4D8
  9
$TILEMODE
 70
1
  9
$MEASUREMENT
 70
0
  9
$INSUNITS
 70
1
  0
ENDSEC
  0
SECTION
  2
CLASSES
  0
CLASS
  1
ACDBDICTIONARYWDFLT
  2
AcDbDictionaryWithDefault
  3
AutoCAD 2000
 90
0
 91
1
280
0
281
0
  0
CLASS
  1
ACDBPLACEHOLDER
  2
AcDbPlaceHolder
  3
AutoCAD 2000
 90
0
 91
1
280
0
281
0
  0
CLASS
  1
LAYOUT
  2
AcDbLayout
  3
AutoCAD 2000
 90
0
 91
0
280
0
281
0
  0
ENDSEC
  0
SECTION
  2
TABLES
  0
TABLE
  2
VPORT
  5
8
100
AcDbSymbolTable
 70
2
  0
VPORT
  5
1F4
100
AcDbSymbolTableRecord
100
AcDbViewportTableRecord
  2
*ACTIVE
 70
0
 10
0.0
 20
0.0
 11
1.0
 21
1.0
 12
5.5
 22
4.25
 13
0.0
 23
0.0
 14
1.0
 24
1.0
 15
0.0
 25
0.0
 16
0.0
 26
0.0
 36
1.0
 17
0.0
 27
0.0
 37
0.0
 40
8.5
 41
1.2941176471
 42
50.0
 43
0.0
 44
0.0
 50
0.0
 51
0.0
 71
0
 72
100
 73
1
 74
1
 75
0
 76
0
 77
0
 78
0
  0
ENDTAB
  0
TABLE
  2
LTYPE
  5
5
100
AcDbSymbolTable
 70
6
  0
LTYPE
  5
14
100
AcDbSymbolTableRecord
100
AcDbLinetypeTableRecord
  2
BYBLOCK
 70
0
  3

 72
65
 73
0
 40
0.0
  0
LTYPE
  5
15
100
AcDbSymbolTableRecord
100
AcDbLinetypeTableRecord
  2
BYLAYER
 70
0
  3

 72
65
 73
0
 40
0.0
  0
LTYPE
  5
16
100
AcDbSymbolTableRecord
100
AcDbLinetypeTableRecord
  2
CONTINUOUS
 70
64
  3
Solid line
 72
65
 73
0
 40
0.0
  0
LTYPE
  5
1F5
100
AcDbSymbolTableRecord
100
AcDbLinetypeTableRecord
  2
CENTER
 70
64
  3
____ _ ____ _ ____ _ ____ _ ____ _ ____ _ ____
 72
65
 73
4
 40
0.6
 49
0.375
 74
0
 49
-0.075
 74
0
 49
0.075
 74
0
 49
-0.075
 74
0
  0
LTYPE
  5
1F6
100
AcDbSymbolTableRecord
100
AcDbLinetypeTableRecord
  2
HIDDEN
 70
64
  3
- - - - - - - - - - - - - - - - - - - -
 72
65
 73
2
 40
0.2
 49
0.1
 74
0
 49
-0.1
 74
0
  0
LTYPE
  5
1F7
100
AcDbSymbolTableRecord
100
AcDbLinetypeTableRecord
  2
PHANTOM
 70
64
  3
_____ _ _ _____ _ _ _____ _ _ _____
 72
65
 73
6
 40
0.8
 49
0.45
 74
0
 49
-0.05
 74
0
 49
0.1
 74
0
 49
-0.05
 74
0
 49
0.1
 74
0
 49
-0.05
 74
0
  0
LTYPE
  5
1F8
100
AcDbSymbolTableRecord
100
AcDbLinetypeTableRecord
  2
DOT
 70
64
  3
. . . . . . . . . . . . . . . . . . . .
 72
65
 73
2
 40
0.2
 49
0.1
 74
0
 49
-0.1
 74
0
  0
LTYPE
  5
1F9
100
AcDbSymbolTableRecord
100
AcDbLinetypeTableRecord
  2
DASHED
 70
64
  3
- - - - - - - - - - - - - - - - - - - -
 72
65
 73
2
 40
0.2
 49
0.1
 74
0
 49
-0.1
 74
0
  0
ENDTAB
  0
TABLE
  2
LAYER
  5
2
100
AcDbSymbolTable
 70
36
  0
LAYER
  5
10
100
AcDbSymbolTableRecord
100
AcDbLayerTableRecord
  2
0
 70
0
 62
7
  6
CONTINUOUS
370
-3
390
F
  0
LAYER
  5
1FA
100
AcDbSymbolTableRecord
100
AcDbLayerTableRecord
  2
DEFAULT_1
 70
0
 62
7
  6
CENTER
370
-3
390
F
  0
LAYER
  5
1FB
100
AcDbSymbolTableRecord
100
AcDbLayerTableRecord
  2
DEFAULT_2
 70
0
 62
8
  6
HIDDEN
370
-3
390
F
  0
LAYER
  5
1FC
100
AcDbSymbolTableRecord
100
AcDbLayerTableRecord
  2
DEFAULT_3
 70
0
 62
7
  6
PHANTOM
370
-3
390
F
  0
LAYER
  5
1FD
100
AcDbSymbolTableRecord
100
AcDbLayerTableRecord
  2
DEFAULT_COORDINATE_SYSTEM
 70
0
 62
7
  6
CONTINUOUS
370
-3
390
F
  0
LAYER
  5
1FE
100
AcDbSymbolTableRecord
100
AcDbLayerTableRecord
  2
DEFAULT_DATUM_AXES
 70
0
 62
7
  6
CONTINUOUS
370
-3
390
F
  0
LAYER
  5
1FF
100
AcDbSymbolTableRecord
100
AcDbLayerTableRecord
  2
DEFAULT_DATUM_PLANES
 70
0
 62
7
  6
CONTINUOUS
370
-3
390
F
  0
ENDTAB
  0
TABLE
  2
STYLE
  5
3
100
AcDbSymbolTable
 70
1
  0
STYLE
  5
11
100
AcDbSymbolTableRecord
100
AcDbTextStyleTableRecord
  2
STANDARD
 70
0
 40
0.0
 41
0.8
 50
0.0
 71
0
 42
0.2
  3
txt
  4

  0
STYLE
  5
200
100
AcDbSymbolTableRecord
100
AcDbTextStyleTableRecord
  2
TEXTSTYLE_1
 70
0
 40
0.0
 41
0.8
 50
0.0
 71
0
 42
0.2
  3
gdt
  4

  0
ENDTAB
  0
TABLE
  2
VIEW
  5
6
100
AcDbSymbolTable
 70
0
  0
ENDTAB
  0
TABLE
  2
UCS
  5
7
100
AcDbSymbolTable
 70
0
  0
ENDTAB
  0
TABLE
  2
APPID
  5
9
100
AcDbSymbolTable
 70
1
  0
APPID
  5
201
100
AcDbSymbolTableRecord
100
AcDbRegAppTableRecord
  2
ACAD
 70
0
  0
ENDTAB
  0
TABLE
  2
BLOCK_RECORD
  5
1
100
AcDbSymbolTable
 70
0
  0
BLOCK_RECORD
  5
202
100
AcDbSymbolTableRecord
100
AcDbBlockTableRecord
  2
*Model_Space
  0
BLOCK_RECORD
  5
203
100
AcDbSymbolTableRecord
100
AcDbBlockTableRecord
  2
*Paper_Space
  0
BLOCK_RECORD
  5
204
100
AcDbSymbolTableRecord
100
AcDbBlockTableRecord
  2
_FILLED
  0
ENDTAB
  0
TABLE
  2
DIMSTYLE
  5
A
100
AcDbSymbolTable
 70
1
100
AcDbDimStyleTable
 71
0
  0
DIMSTYLE
105
205
100
AcDbSymbolTableRecord
100
AcDbDimStyleTableRecord
  2
STANDARD
 70
0
  3

  4

 40
1.0
 41
0.1
 42
0.0625
 43
0.38
 44
0.125
 45
0.0
 46
0.0
 47
0.01
 48
0.01
140
0.08
141
0.09
142
0.0
143
25.4
144
1.0
145
0.0
146
1.0
147
0.09
 71
1.0
 72
0.0
 73
1
 74
1
 75
0
 76
0
 77
0
 78
4
 79
1
170
1
171
1
172
0
173
0
174
0
175
0
176
0
177
0
178
0
270
2
179
2
271
2
272
2
273
2
274
2
275
0
280
0
281
0
282
0
283
1
284
4
285
0
286
0
287
3
288
0
340
11
278
46
341
204
342
204
343
204
344
204
  0
ENDTAB
  0
ENDSEC
  0
SECTION
  2
BLOCKS
  0
BLOCK
  5
20
100
AcDbEntity
  8
0
100
AcDbBlockBegin
  2
*Model_Space
 70
0
 10
0.0
 20
0.0
 30
0.0
  3
*Model_Space
  1

  0
ENDBLK
  5
21
100
AcDbEntity
  8
0
100
AcDbBlockEnd
  0
BLOCK
  5
1C
100
AcDbEntity
  8
0
100
AcDbBlockBegin
  2
*Paper_Space
 70
0
 10
0.0
 20
0.0
 30
0.0
  3
*Paper_Space
  1

  0
ENDBLK
  5
1D
100
AcDbEntity
  8
0
100
AcDbBlockEnd
  0
BLOCK
  5
206
100
AcDbEntity
  8
0
100
AcDbBlockBegin
  2
_FILLED
 70
64
 10
0.0
 20
0.0
  3
_FILLED
  1

  0
SOLID
  5
207
100
AcDbEntity
  8
0
  6
BYBLOCK
 62
0
100
AcDbTrace
 10
0.0
 20
0.0
 11
-1.0
 21
0.2
 12
-1.0
 22
-0.2
 13
-1.0
 23
-0.2
  0
ENDBLK
  5
208
100
AcDbEntity
  8
0
  6
BYBLOCK
 62
0
100
AcDbBlockEnd
  0
ENDSEC
  0
SECTION
  2
ENTITIES
  0
MTEXT
  5
209
100
AcDbEntity
  8
0
100
AcDbMText
 62
2
  6
CONTINUOUS
  7
STANDARD
 71
3
 72
1
 10
4.2631795224
 20
0.3110375193
 30
0.0
 11
1.0
 21
0.0
 31
0.0
 73
2
 44
0.9
  1
SCALE  .500
 40
0.08
 41
0.704
  0
LINE
  5
20A
100
AcDbEntity
  8
0
100
AcDbLine
 62
7
  6
CONTINUOUS
 10
0.0
 20
0.0
 11
0.0
 21
8.5
  0
LINE
  5
20B
100
AcDbEntity
  8
0
100
AcDbLine
 62
7
  6
CONTINUOUS
 10
0.0
 20
0.0
 11
11.0
 21
0.0
  0
LINE
  5
20C
100
AcDbEntity
  8
0
100
AcDbLine
 62
7
  6
CONTINUOUS
 10
0.0
 20
8.5
 11
11.0
 21
8.5
  0
LINE
  5
20D
100
AcDbEntity
  8
0
100
AcDbLine
 62
7
  6
CONTINUOUS
 10
11.0
 20
0.0
 11
11.0
 21
8.5
  0
LINE
  5
20E
100
AcDbEntity
  8
0
100
AcDbLine
 62
7
  6
CONTINUOUS
 10
5.9497556057
 20
0.6250980783
 11
7.2332556057
 21
0.6250980783
  0
LINE
  5
20F
100
AcDbEntity
  8
0
100
AcDbLine
 62
7
  6
CONTINUOUS
 10
5.9497556057
 20
0.6836071626
 11
7.2332556057
 21
0.6836071626
  0
LINE
  5
210
100
AcDbEntity
  8
0
100
AcDbLine
 62
7
  6
CONTINUOUS
 10
7.2332508475
 20
0.6842468407
 11
7.1854771563
 21
0.6842468407
  0
LINE
  5
211
100
AcDbEntity
  8
0
100
AcDbLine
 62
7
  6
CONTINUOUS
 10
7.1079294015
 20
0.6842468407
 11
6.678072598
 21
0.6842468407
  0
LINE
  5
212
100
AcDbEntity
  8
0
100
AcDbLine
 62
7
  6
CONTINUOUS
 10
6.5197818073
 20
0.6842468407
 11
6.0841010474
 21
0.6842468407
  0
LINE
  5
213
100
AcDbEntity
  8
0
100
AcDbLine
 62
7
  6
CONTINUOUS
 10
6.0033580113
 20
0.6842468407
 11
5.949760364
 21
0.6842468407
  0
LINE
  5
214
100
AcDbEntity
  8
0
100
AcDbLine
 62
7
  6
CONTINUOUS
 10
7.2232519045
 20
0.6940980783
 11
7.1762226144
 21
0.6940980783
  0
LINE
  5
215
100
AcDbEntity
  8
0
100
AcDbLine
 62
7
  6
CONTINUOUS
 10
7.0998831143
 20
0.6940980783
 11
6.6767238164
 21
0.6940980783
  0
LINE
  5
216
100
AcDbEntity
  8
0
100
AcDbLine
 62
7
  6
CONTINUOUS
 10
6.52089932
 20
0.6940980783
 11
6.0920068077
 21
0.6940980783
  0
LINE
  5
217
100
AcDbEntity
  8
0
100
AcDbLine
 62
7
  6
CONTINUOUS
 10
6.0125218114
 20
0.6940980783
 11
5.9597593069
 21
0.6940980783
  0
LINE
  5
218
100
AcDbEntity
  8
0
100
AcDbLine
 62
7
  6
CONTINUOUS
 10
7.163609635
 20
0.7034102416
 11
7.1242561398
 21
0.7034102416
  0
LINE
  5
219
100
AcDbEntity
  8
0
100
AcDbLine
 62
7
  6
CONTINUOUS
 10
6.0228364768
 20
0.7034102416
 11
6.0630249162
 21
0.7034102416
  0
LINE
  5
21A
100
AcDbEntity
  8
0
100
AcDbLine
 62
7
  6
CONTINUOUS
 10
6.5555870109
 20
0.7034102416
 11
6.6351289456
 21
0.7034102416
  0
LINE
  5
21B
100
AcDbEntity
  8
0
100
AcDbLine
 62
7
  6
CONTINUOUS
 10
7.1747610648
 20
0.7210712422
 11
7.151087904
 21
0.7210712422
  0
LINE
  5
21C
100
AcDbEntity
  8
0
100
AcDbLine
 62
7
  6
CONTINUOUS
 10
7.0470227309
 20
0.7210712422
 11
6.6792123478
 21
0.7210712422
  0
LINE
  5
21D
100
AcDbEntity
  8
0
100
AcDbLine
 62
7
  6
CONTINUOUS
 10
6.5037989414
 20
0.7210712422
 11
6.1359885297
 21
0.7210712422
  0
LINE
  5
21E
100
AcDbEntity
  8
0
100
AcDbLine
 62
7
  6
CONTINUOUS
 10
6.0333227657
 20
0.7210712422
 11
6.0082501467
 21
0.7210712422
  0
LINE
  5
21F
100
AcDbEntity
  8
0
100
AcDbLine
 62
7
  6
CONTINUOUS
 10
7.1361095079
 20
0.7955684353
 11
7.1160427547
 21
0.7955684353
  0
LINE
  5
220
100
AcDbEntity
  8
0
100
AcDbLine
 62
7
  6
CONTINUOUS
 10
7.0134233904
 20
0.7955684353
 11
6.6787649135
 21
0.7955684353
  0
LINE
  5
221
100
AcDbEntity
  8
0
100
AcDbLine
 62
7
  6
CONTINUOUS
 10
6.5042462979
 20
0.7955684353
 11
6.169587821
 21
0.7955684353
  0
LINE
  5
222
100
AcDbEntity
  8
0
100
AcDbLine
 62
7
  6
CONTINUOUS
 10
6.0669684588
 20
0.7955684353
 11
6.0469017035
 21
0.7955684353
  0
LWPOLYLINE
  5
223
100
AcDbEntity
  8
0
100
AcDbPolyline
 62
7
  6
CONTINUOUS
 90
11
 70
0
 10
7.1762302833
 20
0.6940980749
 10
7.1759976596
 20
0.6941017049
 10
7.1758137295
 20
0.6941115959
 10
7.1756621449
 20
0.6941262572
 10
7.1755327656
 20
0.6941447671
 10
7.1754019364
 20
0.6941701113
 10
7.1752670341
 20
0.6942036807
 10
7.1751260621
 20
0.6942465803
 10
7.1749592873
 20
0.6943066667
 10
7.1747623598
 20
0.69438895
 10
7.1745388864
 20
0.6944950456
  0
LINE
  5
224
100
AcDbEntity
  8
0
100
AcDbLine
 62
7
  6
CONTINUOUS
 10
6.0637556057
 20
0.8646489436
 11
6.0971591412
 21
0.8646489436
  0
LINE
  5
225
100
AcDbEntity
  8
0
100
AcDbLine
 62
7
  6
CONTINUOUS
 10
6.1811746053
 20
0.8646489436
 11
6.5092491174
 21
0.8646489436
  0
LINE
  5
226
100
AcDbEntity
  8
0
100
AcDbLine
 62
7
  6
CONTINUOUS
 10
6.673762094
 20
0.8646489436
 11
7.0018366061
 21
0.8646489436
  0
LINE
  5
227
100
AcDbEntity
  8
0
100
AcDbLine
 62
7
  6
CONTINUOUS
 10
7.0858520318
 20
0.8646489436
 11
7.1192556057
 21
0.8646489436
  0
LINE
  5
228
100
AcDbEntity
  8
0
100
AcDbLine
 62
7
  6
CONTINUOUS
 10
7.0768821789
 20
0.9113820488
 11
7.1192556057
 21
0.9113824684
  0
LINE
  5
229
100
AcDbEntity
  8
0
100
AcDbLine
 62
7
  6
CONTINUOUS
 10
6.1693814433
 20
0.9113820488
 11
6.5282531916
 21
0.9113820546
  0
LINE
  5
22A
100
AcDbEntity
  8
0
100
AcDbLine
 62
7
  6
CONTINUOUS
 10
6.6547580164
 20
0.9113820488
 11
7.0136297661
 21
0.9113820546
  0
LINE
  5
22B
100
AcDbEntity
  8
0
100
AcDbLine
 62
7
  6
CONTINUOUS
 10
6.0637556057
 20
0.9113824684
 11
6.1061290312
 21
0.9113820546
  0
LINE
  5
22C
100
AcDbEntity
  8
0
100
AcDbLine
 62
7
  6
CONTINUOUS
 10
7.1181320122
 20
0.9159878356
 11
7.0758477738
 21
0.9159878356
  0
LINE
  5
22D
100
AcDbEntity
  8
0
100
AcDbLine
 62
7
  6
CONTINUOUS
 10
6.5283905385
 20
0.9159878356
 11
6.1702785804
 21
0.9159878356
  0
LINE
  5
22E
100
AcDbEntity
  8
0
100
AcDbLine
 62
7
  6
CONTINUOUS
 10
6.1071634682
 20
0.9159878356
 11
6.0648791992
 21
0.9159878356
  0
LINE
  5
22F
100
AcDbEntity
  8
0
100
AcDbLine
 62
7
  6
CONTINUOUS
 10
6.6546228996
 20
0.9159880183
 11
7.0127312209
 21
0.9159880292
  0
LINE
  5
230
100
AcDbEntity
  8
0
100
AcDbLine
 62
7
  6
CONTINUOUS
 10
6.078269202
 20
0.9417957902
 11
7.1047420095
 21
0.9417957902
  0
LINE
  5
231
100
AcDbEntity
  8
0
100
AcDbLine
 62
7
  6
CONTINUOUS
 10
6.1075613435
 20
0.9595980783
 11
7.075449868
 21
0.9595980783
  0
LINE
  5
232
100
AcDbEntity
  8
0
100
AcDbLine
 62
6
  6
CONTINUOUS
 10
2.7696450956
 20
6.0911713881
 11
2.769097115
 21
6.0901706977
  0
LINE
  5
233
100
AcDbEntity
  8
0
100
AcDbLine
 62
6
  6
CONTINUOUS
 10
2.769097115
 20
6.0901706977
 11
2.7684015928
 21
6.0889159921
  0
LINE
  5
234
100
AcDbEntity
  8
0
100
AcDbLine
 62
6
  6
CONTINUOUS
 10
2.7684015928
 20
6.0889159921
 11
2.7672918835
 21
6.0869387945
  0
LINE
  5
235
100
AcDbEntity
  8
0
100
AcDbLine
 62
6
  6
CONTINUOUS
 10
2.7672918835
 20
6.0869387945
 11
2.765706142
 21
6.0841476466
  0
LINE
  5
236
100
AcDbEntity
  8
0
100
AcDbLine
 62
6
  6
CONTINUOUS
 10
2.765706142
 20
6.0841476466
 11
2.7631307647
 21
6.0796661534
  0
LINE
  5
237
100
AcDbEntity
  8
0
100
AcDbLine
 62
6
  6
CONTINUOUS
 10
2.7631307647
 20
6.0796661534
 11
2.7578561895
 21
6.0705887863
  0
LINE
  5
238
100
AcDbEntity
  8
0
100
AcDbLine
 62
6
  6
CONTINUOUS
 10
2.7578561895
 20
6.0705887863
 11
2.7541528027
 21
6.0642571312
  0
LINE
  5
239
100
AcDbEntity
  8
0
100
AcDbLine
 62
6
  6
CONTINUOUS
 10
2.7541528027
 20
6.0642571312
 11
2.7510877795
 21
6.0590798131
  0
LINE
  5
23A
100
AcDbEntity
  8
0
100
AcDbLine
 62
6
  6
CONTINUOUS
 10
2.7510877795
 20
6.0590798131
 11
2.7476257987
 21
6.0533104597
  0
LINE
  5
23B
100
AcDbEntity
  8
0
100
AcDbLine
 62
6
  6
CONTINUOUS
 10
2.7476257987
 20
6.0533104597
 11
2.7438220352
 21
6.0470517396
  0
LINE
  5
23C
100
AcDbEntity
  8
0
100
AcDbLine
 62
6
  6
CONTINUOUS
 10
2.7438220352
 20
6.0470517396
 11
2.7402569525
 21
6.0412530097
  0
LWPOLYLINE
  5
23D
100
AcDbEntity
  8
0
100
AcDbPolyline
 62
6
  6
CONTINUOUS
 90
30
 70
0
 10
2.7402567164
 20
6.0412526269
 10
2.7396860316
 20
6.0403325235
 10
2.7384992577
 20
6.0384390604
 10
2.7373229743
 20
6.0365878243
 10
2.7361593037
 20
6.0347806294
 10
2.7350082742
 20
6.033016533
 10
2.7338676602
 20
6.0312916863
 10
2.7327374495
 20
6.0296061839
 10
2.7316180162
 20
6.0279610035
 10
2.7305068037
 20
6.0263533726
 10
2.7294029018
 20
6.0247834311
 10
2.7283060603
 20
6.0232523763
 10
2.7272134165
 20
6.0217582012
 10
2.7261236665
 20
6.0203012059
 10
2.7250371826
 20
6.0188832789
 10
2.7239533953
 20
6.0175046369
 10
2.7228728201
 20
6.0161663852
 10
2.7217967506
 20
6.0148698877
 10
2.7207264322
 20
6.0136157159
 10
2.719663804
 20
6.0124049402
 10
2.718610414
 20
6.0112379368
 10
2.7175676801
 20
6.0101146199
 10
2.7165378912
 20
6.0090357003
 10
2.7155223779
 20
6.0080008431
 10
2.7145216459
 20
6.007008878
 10
2.7135375133
 20
6.0060599271
 10
2.712571304
 20
6.0051536384
 10
2.7116230506
 20
6.0042885162
 10
2.7106938437
 20
6.0034640837
 10
2.709785552
 20
6.0026805592
  0
LINE
  5
23E
100
AcDbEntity
  8
0
100
AcDbLine
 62
6
  6
CONTINUOUS
 10
2.7654765003
 20
6.1284750997
 11
2.7529972224
 21
6.1108271343
  0
LWPOLYLINE
  5
23F
100
AcDbEntity
  8
0
100
AcDbPolyline
 62
6
  6
CONTINUOUS
 90
13
 70
0
 10
2.664885686
 20
5.9436193213
 10
2.663749555
 20
5.9423834394
 10
2.6626985203
 20
5.9412700322
 10
2.6616505476
 20
5.9401902859
 10
2.6606051136
 20
5.939145241
 10
2.6595604699
 20
5.9381348966
 10
2.6585169304
 20
5.937161447
 10
2.6574745223
 20
5.9362268729
 10
2.6564311803
 20
5.9353314815
 10
2.6553870254
 20
5.9344777701
 10
2.6543421839
 20
5.9336685608
 10
2.653294633
 20
5.9329054095
 10
2.6521460768
 20
5.9321276315
  0
LWPOLYLINE
  5
240
100
AcDbEntity
  8
0
100
AcDbPolyline
 62
6
  6
CONTINUOUS
 90
19
 70
0
 10
2.7091622986
 20
6.0021523111
 10
2.7054680328
 20
5.9989980552
 10
2.7049015302
 20
5.9985196996
 10
2.7043545278
 20
5.9980624192
 10
2.7038269931
 20
5.9976270348
 10
2.7033245658
 20
5.9972188162
 10
2.702847285
 20
5.9968382798
 10
2.7023944901
 20
5.9964853407
 10
2.7019705608
 20
5.9961635104
 10
2.7015761449
 20
5.995872924
 10
2.7012100759
 20
5.995612248
 10
2.7008743674
 20
5.9953822755
 10
2.7005693395
 20
5.9951823351
 10
2.7002949207
 20
5.9950111971
 10
2.7000533569
 20
5.9948687439
 10
2.6998450692
 20
5.9947534358
 10
2.6996710656
 20
5.9946638308
 10
2.6995353738
 20
5.9945995575
 10
2.6994780093
 20
5.9945743589
  0
LINE
  5
241
100
AcDbEntity
  8
0
100
AcDbLine
 62
6
  6
CONTINUOUS
 10
2.709785552
 20
6.0026805592
 11
2.7091622986
 21
6.0021523111
  0
LINE
  5
242
100
AcDbEntity
  8
0
100
AcDbLine
 62
6
  6
CONTINUOUS
 10
2.4262688868
 20
4.9775975381
 11
2.4063780889
 21
4.847610592
  0
LINE
  5
243
100
AcDbEntity
  8
0
100
AcDbLine
 62
6
  6
CONTINUOUS
 10
2.6718091957
 20
5.9888646596
 11
2.664885686
 21
5.9436193213
  0
LINE
  5
244
100
AcDbEntity
  8
0
100
AcDbLine
 62
7
  6
CONTINUOUS
 10
2.4344580786
 20
5.4859627996
 11
2.4203662046
 21
5.4417356024
  0
LINE
  5
245
100
AcDbEntity
  8
0
100
AcDbLine
 62
7
  6
CONTINUOUS
 10
2.4373542417
 20
5.4893549102
 11
2.4207661241
 21
5.4372932787
  0
LINE
  5
246
100
AcDbEntity
  8
0
100
AcDbLine
 62
7
  6
CONTINUOUS
 10
2.5575117173
 20
5.85919703
 11
2.4121497039
 21
5.4029798892
  0
LINE
  5
247
100
AcDbEntity
  8
0
100
AcDbLine
 62
7
  6
CONTINUOUS
 10
2.586268248
 20
5.8530355161
 11
2.4391681783
 21
5.3913635039
  0
LINE
  5
248
100
AcDbEntity
  8
0
100
AcDbLine
 62
6
  6
CONTINUOUS
 10
2.5208117598
 20
5.1472489337
 11
2.5210010843
 21
5.1477256071
  0
LINE
  5
249
100
AcDbEntity
  8
0
100
AcDbLine
 62
6
  6
CONTINUOUS
 10
2.7696234539
 20
6.0911279567
 11
2.7696537225
 21
6.0911874007
  0
LWPOLYLINE
  5
24A
100
AcDbEntity
  8
0
100
AcDbPolyline
 62
6
  6
CONTINUOUS
 90
26
 70
0
 10
2.6521473346
 20
5.9321257376
 10
2.6519205217
 20
5.9319767294
 10
2.6510458936
 20
5.9313680393
 10
2.650198011
 20
5.9307226407
 10
2.649378395
 20
5.930041692
 10
2.6485885354
 20
5.9293264296
 10
2.647829868
 20
5.928578152
 10
2.6471037562
 20
5.9277982003
 10
2.6464115193
 20
5.926987985
 10
2.6457544215
 20
5.926148979
 10
2.6451336547
 20
5.9252826964
 10
2.6445503339
 20
5.9243906801
 10
2.6440055438
 20
5.9234745751
 10
2.6435003199
 20
5.9225361234
 10
2.6430355692
 20
5.9215770205
 10
2.6426121381
 20
5.9205990247
 10
2.6422308356
 20
5.9196040411
 10
2.6418923331
 20
5.9185938861
 10
2.6415972231
 20
5.9175704009
 10
2.6413460476
 20
5.9165355784
 10
2.6411392229
 20
5.915491302
 10
2.6409770861
 20
5.9144394764
 10
2.6408599042
 20
5.9133821559
 10
2.6407878341
 20
5.9123213089
 10
2.6407609421
 20
5.9112588111
 10
2.6407792189
 20
5.9101965843
  0
LWPOLYLINE
  5
24B
100
AcDbEntity
  8
0
100
AcDbPolyline
 62
6
  6
CONTINUOUS
 90
6
 70
0
 10
2.6994780093
 20
5.9945743589
 10
2.699438815
 20
5.9945580312
 10
2.6993826837
 20
5.9945364393
 10
2.6993724536
 20
5.9945328615
 10
2.6994106523
 20
5.9945433161
 10
2.6995072743
 20
5.9945644168
  0
LINE
  5
24C
100
AcDbEntity
  8
0
100
AcDbLine
 62
7
  6
CONTINUOUS
 10
2.6169296239
 20
4.7685386718
 11
2.6177596938
 21
4.7813747196
  0
LINE
  5
24D
100
AcDbEntity
  8
0
100
AcDbLine
 62
7
  6
CONTINUOUS
 10
2.6304334249
 20
4.7794353662
 11
2.6296033549
 21
4.7665993184
  0
LINE
  5
24E
100
AcDbEntity
  8
0
100
AcDbLine
 62
7
  6
CONTINUOUS
 10
2.666925979
 20
4.7738512207
 11
2.6660959091
 21
4.7610151729
  0
LINE
  5
24F
100
AcDbEntity
  8
0
100
AcDbLine
 62
7
  6
CONTINUOUS
 10
2.7228358157
 20
4.7652958135
 11
2.7220057457
 21
4.7524597657
  0
LINE
  5
250
100
AcDbEntity
  8
0
100
AcDbLine
 62
7
  6
CONTINUOUS
 10
2.7914193834
 20
4.7548010529
 11
2.7905893134
 21
4.7419650051
  0
LINE
  5
251
100
AcDbEntity
  8
0
100
AcDbLine
 62
6
  6
CONTINUOUS
 10
2.7512771878
 20
6.1065661528
 11
2.7464157261
 21
6.0747963584
  0
LINE
  5
252
100
AcDbEntity
  8
0
100
AcDbLine
 62
7
  6
CONTINUOUS
 10
2.809784848
 20
6.3352074121
 11
2.7814234442
 21
6.1498648083
  0
LINE
  5
253
100
AcDbEntity
  8
0
100
AcDbLine
 62
7
  6
CONTINUOUS
 10
2.7834866595
 20
6.1369035915
 11
2.7853774197
 21
6.149259765
  0
LINE
  5
254
100
AcDbEntity
  8
0
100
AcDbLine
 62
7
  6
CONTINUOUS
 10
2.7206669481
 20
4.7656276969
 11
2.7176205325
 21
4.7531307976
  0
LINE
  5
255
100
AcDbEntity
  8
0
100
AcDbLine
 62
7
  6
CONTINUOUS
 10
2.7765767848
 20
4.7570722896
 11
2.7735303691
 21
4.7445753904
  0
LINE
  5
256
100
AcDbEntity
  8
0
100
AcDbLine
 62
7
  6
CONTINUOUS
 10
2.4401275134
 20
5.4907879481
 11
2.4373542417
 21
5.4893549102
  0
LWPOLYLINE
  5
257
100
AcDbEntity
  8
0
100
AcDbPolyline
 62
7
  6
CONTINUOUS
 90
18
 70
0
 10
7.1745388864
 20
0.6944950456
 10
7.174284786
 20
0.6946297591
 10
7.1739988807
 20
0.6947966876
 10
7.1736856529
 20
0.6949957974
 10
7.1733516759
 20
0.6952244016
 10
7.1730025845
 20
0.6954791504
 10
7.1726374566
 20
0.6957609644
 10
7.1722520969
 20
0.6960735312
 10
7.1718450359
 20
0.6964186528
 10
7.1714189993
 20
0.6967944859
 10
7.1709742687
 20
0.6972009988
 10
7.1705104486
 20
0.6976384948
 10
7.1700284259
 20
0.6981058805
 10
7.1695297296
 20
0.6986012564
 10
7.1690145873
 20
0.6991238627
 10
7.1684828589
 20
0.6996730711
 10
7.1679350736
 20
0.7002472936
 10
7.1673711493
 20
0.7008455287
  0
LINE
  5
258
100
AcDbEntity
  8
0
100
AcDbLine
 62
7
  6
CONTINUOUS
 10
2.8644044916
 20
4.7436327619
 11
2.8635744217
 21
4.7307967141
  0
LINE
  5
259
100
AcDbEntity
  8
0
100
AcDbLine
 62
7
  6
CONTINUOUS
 10
2.9329880593
 20
4.7331380013
 11
2.9321579893
 21
4.7203019535
  0
LINE
  5
25A
100
AcDbEntity
  8
0
100
AcDbLine
 62
7
  6
CONTINUOUS
 10
2.988897896
 20
4.7245825941
 11
2.988067826
 21
4.7117465463
  0
LINE
  5
25B
100
AcDbEntity
  8
0
100
AcDbLine
 62
7
  6
CONTINUOUS
 10
2.8451603524
 20
4.746577529
 11
2.8421139368
 21
4.7340806298
  0
LINE
  5
25C
100
AcDbEntity
  8
0
100
AcDbLine
 62
7
  6
CONTINUOUS
 10
2.9181454607
 20
4.7354092381
 11
2.9150990451
 21
4.7229123388
  0
LINE
  5
25D
100
AcDbEntity
  8
0
100
AcDbLine
 62
7
  6
CONTINUOUS
 10
2.9867290284
 20
4.7249144775
 11
2.9836826127
 21
4.7124175782
  0
LINE
  5
25E
100
AcDbEntity
  8
0
100
AcDbLine
 62
7
  6
CONTINUOUS
 10
3.042638865
 20
4.7163590702
 11
3.0395924494
 21
4.703862171
  0
LINE
  5
25F
100
AcDbEntity
  8
0
100
AcDbLine
 62
7
  6
CONTINUOUS
 10
3.0791314192
 20
4.7107749247
 11
3.0760850035
 21
4.6982780255
  0
LINE
  5
260
100
AcDbEntity
  8
0
100
AcDbLine
 62
7
  6
CONTINUOUS
 10
3.0887587346
 20
4.6963386721
 11
3.0918051502
 21
4.7088355714
  0
LINE
  5
261
100
AcDbEntity
  8
0
100
AcDbLine
 62
6
  6
CONTINUOUS
 10
3.3785466067
 20
5.8241883559
 11
3.2976795788
 21
5.1840599163
  0
LINE
  5
262
100
AcDbEntity
  8
0
100
AcDbLine
 62
7
  6
CONTINUOUS
 10
3.3409109841
 20
6.0642511841
 11
3.3390202239
 21
6.0518950105
  0
LINE
  5
263
100
AcDbEntity
  8
0
100
AcDbLine
 62
7
  6
CONTINUOUS
 10
3.3652851704
 20
6.1970928155
 11
3.3448649597
 21
6.0636461408
  0
LINE
  5
264
100
AcDbEntity
  8
0
100
AcDbLine
 62
6
  6
CONTINUOUS
 10
3.360683669
 20
6.0133138571
 11
3.3558222073
 21
5.9815440627
  0
LINE
  5
265
100
AcDbEntity
  8
0
100
AcDbLine
 62
6
  6
CONTINUOUS
 10
3.4013176841
 20
5.8772341742
 11
3.3957951931
 21
5.8411445336
  0
LINE
  5
266
100
AcDbEntity
  8
0
100
AcDbLine
 62
6
  6
CONTINUOUS
 10
3.333212028
 20
4.8388157355
 11
3.3133212301
 21
4.7088287894
  0
LINE
  5
267
100
AcDbEntity
  8
0
100
AcDbLine
 62
7
  6
CONTINUOUS
 10
6.6890056057
 20
2.8795980783
 11
6.4940056057
 21
2.8795980783
  0
LWPOLYLINE
  5
268
100
AcDbEntity
  8
0
100
AcDbPolyline
 62
6
  6
CONTINUOUS
 90
31
 70
0
 10
2.5109390265
 20
5.2406571838
 10
2.5122210571
 20
5.2383351375
 10
2.5140974125
 20
5.2347675395
 10
2.5158463933
 20
5.2312274593
 10
2.5174699699
 20
5.227713571
 10
2.518968987
 20
5.2242268914
 10
2.5203435574
 20
5.2207707371
 10
2.5215957429
 20
5.2173441156
 10
2.5227269859
 20
5.2139476346
 10
2.5237374001
 20
5.2105869089
 10
2.5246293192
 20
5.2072617023
 10
2.5254050721
 20
5.203971739
 10
2.5260659016
 20
5.2007224497
 10
2.5266143655
 20
5.1975154234
 10
2.5270537096
 20
5.1943484338
 10
2.527386738
 20
5.1912211304
 10
2.5276160068
 20
5.1881368938
 10
2.5277447132
 20
5.1850917116
 10
2.5277755104
 20
5.1820742668
 10
2.5277100807
 20
5.1790855314
 10
2.5275500832
 20
5.1761241663
 10
2.5272956689
 20
5.1731756592
 10
2.5269470763
 20
5.1702399922
 10
2.5265045417
 20
5.1673171309
 10
2.525965448
 20
5.1643928417
 10
2.5253285936
 20
5.1614670259
 10
2.5245928629
 20
5.1585400366
 10
2.5237530468
 20
5.1555986169
 10
2.5228051329
 20
5.1526385975
 10
2.5217477867
 20
5.1496647348
 10
2.5210011496
 20
5.147725773
  0
LINE
  5
269
100
AcDbEntity
  8
0
100
AcDbLine
 62
7
  6
CONTINUOUS
 10
2.4207661241
 20
5.4372932787
 11
2.422199162
 21
5.434520007
  0
LINE
  5
26A
100
AcDbEntity
  8
0
100
AcDbLine
 62
7
  6
CONTINUOUS
 10
6.4797556057
 20
3.0720980783
 11
6.7032556057
 21
3.0720980783
  0
LINE
  5
26B
100
AcDbEntity
  8
0
100
AcDbLine
 62
7
  6
CONTINUOUS
 10
6.4325056057
 20
3.1193480783
 11
6.7505056057
 21
3.1193480783
  0
LINE
  5
26C
100
AcDbEntity
  8
0
100
AcDbLine
 62
7
  6
CONTINUOUS
 10
6.4325056057
 20
3.1750980783
 11
6.7505056057
 21
3.1750980783
  0
LINE
  5
26D
100
AcDbEntity
  8
0
100
AcDbLine
 62
7
  6
CONTINUOUS
 10
6.4375057942
 20
3.1800980783
 11
6.7455054172
 21
3.1800980783
  0
LINE
  5
26E
100
AcDbEntity
  8
0
100
AcDbLine
 62
7
  6
CONTINUOUS
 10
6.7211404364
 20
3.1852294128
 11
6.461870775
 21
3.1852294128
  0
LINE
  5
26F
100
AcDbEntity
  8
0
100
AcDbLine
 62
6
  6
CONTINUOUS
 10
3.3536857812
 20
6.0384664314
 11
3.36031655
 21
6.017894218
  0
LINE
  5
270
100
AcDbEntity
  8
0
100
AcDbLine
 62
6
  6
CONTINUOUS
 10
3.3524610718
 20
5.9458206084
 11
3.3516367937
 21
5.9490266042
  0
LINE
  5
271
100
AcDbEntity
  8
0
100
AcDbLine
 62
6
  6
CONTINUOUS
 10
3.3516367937
 20
5.9490266042
 11
3.3499942329
 21
5.9555255828
  0
LINE
  5
272
100
AcDbEntity
  8
0
100
AcDbLine
 62
6
  6
CONTINUOUS
 10
3.3499942329
 20
5.9555255828
 11
3.3485193746
 21
5.9614813936
  0
LINE
  5
273
100
AcDbEntity
  8
0
100
AcDbLine
 62
6
  6
CONTINUOUS
 10
3.3485193746
 20
5.9614813936
 11
3.3472183825
 21
5.9668507508
  0
LINE
  5
274
100
AcDbEntity
  8
0
100
AcDbLine
 62
6
  6
CONTINUOUS
 10
3.3472183825
 20
5.9668507508
 11
3.3446692138
 21
5.9776857708
  0
LINE
  5
275
100
AcDbEntity
  8
0
100
AcDbLine
 62
6
  6
CONTINUOUS
 10
3.3446692138
 20
5.9776857708
 11
3.3420102999
 21
5.9891980299
  0
LINE
  5
276
100
AcDbEntity
  8
0
100
AcDbLine
 62
6
  6
CONTINUOUS
 10
3.3420102999
 20
5.9891980299
 11
3.3406692259
 21
5.9951641057
  0
LINE
  5
277
100
AcDbEntity
  8
0
100
AcDbLine
 62
6
  6
CONTINUOUS
 10
3.3406692259
 20
5.9951641057
 11
3.3398542032
 21
5.9989118632
  0
LINE
  5
278
100
AcDbEntity
  8
0
100
AcDbLine
 62
6
  6
CONTINUOUS
 10
3.3387481061
 20
6.0001793197
 11
3.3386992295
 21
6.0004094288
  0
LINE
  5
279
100
AcDbEntity
  8
0
100
AcDbLine
 62
6
  6
CONTINUOUS
 10
3.3398542032
 20
5.9989118632
 11
3.3394709745
 21
6.0007360344
  0
LINE
  5
27A
100
AcDbEntity
  8
0
100
AcDbLine
 62
6
  6
CONTINUOUS
 10
3.3395407007
 20
6.0004008574
 11
3.3395048759
 21
6.0005836205
  0
LINE
  5
27B
100
AcDbEntity
  8
0
100
AcDbLine
 62
7
  6
CONTINUOUS
 10
6.44743559
 20
3.7345980783
 11
6.0797556057
 21
3.7345980783
  0
LINE
  5
27C
100
AcDbEntity
  8
0
100
AcDbLine
 62
7
  6
CONTINUOUS
 10
6.7355756215
 20
3.7345980783
 11
7.1032556057
 21
3.7345980783
  0
LINE
  5
27D
100
AcDbEntity
  8
0
100
AcDbLine
 62
7
  6
CONTINUOUS
 10
6.445833545
 20
3.7955680855
 11
6.0797556057
 21
3.7955680855
  0
LINE
  5
27E
100
AcDbEntity
  8
0
100
AcDbLine
 62
7
  6
CONTINUOUS
 10
6.7371776665
 20
3.7955680855
 11
7.1032556057
 21
3.7955680855
  0
LINE
  5
27F
100
AcDbEntity
  8
0
100
AcDbLine
 62
7
  6
CONTINUOUS
 10
7.1673711493
 20
0.7008455287
 11
7.1661936665
 21
0.7021109651
  0
LWPOLYLINE
  5
280
100
AcDbEntity
  8
0
100
AcDbPolyline
 62
7
  6
CONTINUOUS
 90
3
 70
0
 10
7.1661936665
 20
0.7021109651
 10
7.1649488592
 20
0.7034612095
 10
7.1627283044
 20
0.7058644086
  0
LWPOLYLINE
  5
281
100
AcDbEntity
  8
0
100
AcDbPolyline
 62
7
  6
CONTINUOUS
 90
24
 70
0
 10
7.1627283044
 20
0.7058644086
 10
7.1617637121
 20
0.7069269009
 10
7.1607899509
 20
0.7080334602
 10
7.1598087547
 20
0.7091832542
 10
7.1588223793
 20
0.7103747929
 10
7.1578335269
 20
0.7116059153
 10
7.156843852
 20
0.7128755512
 10
7.155855232
 20
0.7141822647
 10
7.1548704937
 20
0.7155232502
 10
7.1538913825
 20
0.7168970074
 10
7.1529196304
 20
0.7183019227
 10
7.1519579818
 20
0.7197347827
 10
7.1510081655
 20
0.7211937224
 10
7.1500718106
 20
0.7226768969
 10
7.1491513825
 20
0.724180931
 10
7.1482484428
 20
0.7257037543
 10
7.1473644474
 20
0.7272433811
 10
7.1465014874
 20
0.7287964842
 10
7.1456608392
 20
0.7303610164
 10
7.1448437636
 20
0.7319348964
 10
7.1440521855
 20
0.7335144894
 10
7.1432875043
 20
0.7350968542
 10
7.1425506439
 20
0.7366799217
 10
7.1422877587
 20
0.7372598231
  0
LINE
  5
282
100
AcDbEntity
  8
0
100
AcDbLine
 62
7
  6
CONTINUOUS
 10
6.4441905098
 20
3.8580980783
 11
6.1257556057
 21
3.8580980783
  0
LINE
  5
283
100
AcDbEntity
  8
0
100
AcDbLine
 62
7
  6
CONTINUOUS
 10
6.7388207016
 20
3.8580980783
 11
7.0572556057
 21
3.8580980783
  0
LINE
  5
284
100
AcDbEntity
  8
0
100
AcDbLine
 62
7
  6
CONTINUOUS
 10
6.4408666018
 20
3.9845980783
 11
6.2129557583
 21
3.9845980783
  0
LINE
  5
285
100
AcDbEntity
  8
0
100
AcDbLine
 62
7
  6
CONTINUOUS
 10
6.7421446096
 20
3.9845980783
 11
6.9700554532
 21
3.9845980783
  0
LINE
  5
286
100
AcDbEntity
  8
0
100
AcDbLine
 62
7
  6
CONTINUOUS
 10
6.4407298206
 20
3.9898036466
 11
6.2134643213
 21
3.9898036466
  0
LINE
  5
287
100
AcDbEntity
  8
0
100
AcDbLine
 62
7
  6
CONTINUOUS
 10
6.7422813909
 20
3.9898036466
 11
6.9695468901
 21
3.9898036466
  0
LINE
  5
288
100
AcDbEntity
  8
0
100
AcDbLine
 62
7
  6
CONTINUOUS
 10
6.9224146966
 20
4.0335980083
 11
6.7434321295
 21
4.0335980083
  0
LINE
  5
289
100
AcDbEntity
  8
0
100
AcDbLine
 62
7
  6
CONTINUOUS
 10
6.439579082
 20
4.0335980083
 11
6.2605965148
 21
4.0335980083
  0
LINE
  5
28A
100
AcDbEntity
  8
0
100
AcDbLine
 62
7
  6
CONTINUOUS
 10
6.9213213218
 20
4.0336813475
 11
6.7434343193
 21
4.0336813475
  0
LINE
  5
28B
100
AcDbEntity
  8
0
100
AcDbLine
 62
7
  6
CONTINUOUS
 10
6.4395768922
 20
4.0336813475
 11
6.2615056057
 21
4.0336813475
  0
LINE
  5
28C
100
AcDbEntity
  8
0
100
AcDbLine
 62
7
  6
CONTINUOUS
 10
6.8965051418
 20
4.0345980783
 11
6.7434584073
 21
4.0345980783
  0
LINE
  5
28D
100
AcDbEntity
  8
0
100
AcDbLine
 62
7
  6
CONTINUOUS
 10
6.4395528042
 20
4.0345980783
 11
6.2865060697
 21
4.0345980783
  0
LINE
  5
28E
100
AcDbEntity
  8
0
100
AcDbLine
 62
7
  6
CONTINUOUS
 10
6.3065056057
 20
4.0420980783
 11
6.4393557345
 21
4.0420980783
  0
LINE
  5
28F
100
AcDbEntity
  8
0
100
AcDbLine
 62
7
  6
CONTINUOUS
 10
6.7436554769
 20
4.0420980783
 11
6.8765056057
 21
4.0420980783
  0
LINE
  5
290
100
AcDbEntity
  8
0
100
AcDbLine
 62
6
  6
CONTINUOUS
 10
3.3724750884
 20
5.900681723
 11
3.3717890566
 21
5.9016961502
  0
LINE
  5
291
100
AcDbEntity
  8
0
100
AcDbLine
 62
6
  6
CONTINUOUS
 10
3.3761493069
 20
5.8951550562
 11
3.3753170336
 21
5.8963994356
  0
LINE
  5
292
100
AcDbEntity
  8
0
100
AcDbLine
 62
6
  6
CONTINUOUS
 10
3.3734711405
 20
5.8991903544
 11
3.3724750884
 21
5.900681723
  0
LWPOLYLINE
  5
293
100
AcDbEntity
  8
0
100
AcDbPolyline
 62
6
  6
CONTINUOUS
 90
29
 70
0
 10
3.3717890566
 20
5.9016961502
 10
3.3710370537
 20
5.9028275613
 10
3.3702780073
 20
5.9040022996
 10
3.3695132358
 20
5.905219588
 10
3.3687442325
 20
5.9064783088
 10
3.3679727158
 20
5.9077768991
 10
3.3672000376
 20
5.9091143149
 10
3.3664276065
 20
5.9104893795
 10
3.365657179
 20
5.9119001959
 10
3.3648901036
 20
5.9133455187
 10
3.364127755
 20
5.9148239837
 10
3.3633718749
 20
5.9163334163
 10
3.3626238547
 20
5.917872203
 10
3.3618849167
 20
5.9194389925
 10
3.361156474
 20
5.9210319418
 10
3.3604403299
 20
5.9226481723
 10
3.3597371202
 20
5.9242872993
 10
3.3590465209
 20
5.9259513256
 10
3.3583700231
 20
5.9276380257
 10
3.3577085979
 20
5.929346265
 10
3.3570613211
 20
5.931079982
 10
3.3564293422
 20
5.9328378062
 10
3.3558138899
 20
5.9346177535
 10
3.3552142878
 20
5.9364230606
 10
3.3546314256
 20
5.9382519234
 10
3.3540655455
 20
5.9401035615
 10
3.3535151427
 20
5.9419824034
 10
3.3529799633
 20
5.9438890016
 10
3.3524610718
 20
5.9458206084
  0
LINE
  5
294
100
AcDbEntity
  8
0
100
AcDbLine
 62
6
  6
CONTINUOUS
 10
3.3753170336
 20
5.8963994356
 11
3.3734711405
 21
5.8991903544
  0
LINE
  5
295
100
AcDbEntity
  8
0
100
AcDbLine
 62
7
  6
CONTINUOUS
 10
6.4315056057
 20
4.3408552317
 11
6.7515056057
 21
4.3408552317
  0
LINE
  5
296
100
AcDbEntity
  8
0
100
AcDbLine
 62
7
  6
CONTINUOUS
 10
6.4160056057
 20
4.4030077176
 11
6.7670056057
 21
4.4030077176
  0
LINE
  5
297
100
AcDbEntity
  8
0
100
AcDbLine
 62
7
  6
CONTINUOUS
 10
6.3980056057
 20
4.4645980783
 11
6.7850056057
 21
4.4645980783
  0
LINE
  5
298
100
AcDbEntity
  8
0
100
AcDbLine
 62
7
  6
CONTINUOUS
 10
6.3980056057
 20
4.5025980783
 11
6.7850056057
 21
4.5025980783
  0
LINE
  5
299
100
AcDbEntity
  8
0
100
AcDbLine
 62
7
  6
CONTINUOUS
 10
6.4980057887
 20
4.5220980783
 11
6.6850056057
 21
4.5220980783
  0
LINE
  5
29A
100
AcDbEntity
  8
0
100
AcDbLine
 62
7
  6
CONTINUOUS
 10
2.9084492926
 20
4.7184763321
 11
2.8685933367
 21
4.7245751503
  0
LINE
  5
29B
100
AcDbEntity
  8
0
100
AcDbLine
 62
7
  6
CONTINUOUS
 10
2.7668996017
 20
4.7401364785
 11
2.7270056756
 21
4.746241107
  0
LINE
  5
29C
100
AcDbEntity
  8
0
100
AcDbLine
 62
7
  6
CONTINUOUS
 10
2.71097078
 20
4.7486947909
 11
2.6346222699
 21
4.7603777546
  0
LINE
  5
29D
100
AcDbEntity
  8
0
100
AcDbLine
 62
7
  6
CONTINUOUS
 10
2.6219295538
 20
4.7623200131
 11
2.6343390666
 21
4.7604210908
  0
LINE
  5
29E
100
AcDbEntity
  8
0
100
AcDbLine
 62
7
  6
CONTINUOUS
 10
2.7955893219
 20
4.7357463344
 11
2.8354830908
 21
4.7296417299
  0
LINE
  5
29F
100
AcDbEntity
  8
0
100
AcDbLine
 62
7
  6
CONTINUOUS
 10
2.9371579193
 20
4.7140832949
 11
2.9770517264
 21
4.7079786845
  0
LINE
  5
2A0
100
AcDbEntity
  8
0
100
AcDbLine
 62
7
  6
CONTINUOUS
 10
2.9930678022
 20
4.7055278806
 11
3.0694539051
 21
4.6938391643
  0
LINE
  5
2A1
100
AcDbEntity
  8
0
100
AcDbLine
 62
7
  6
CONTINUOUS
 10
3.0697184624
 20
4.6937986813
 11
3.0821279672
 21
4.6918997602
  0
LINE
  5
2A2
100
AcDbEntity
  8
0
100
AcDbLine
 62
7
  6
CONTINUOUS
 10
2.6169296239
 20
4.7685386718
 11
2.7176205325
 21
4.7531307976
  0
LINE
  5
2A3
100
AcDbEntity
  8
0
100
AcDbLine
 62
7
  6
CONTINUOUS
 10
2.7220057457
 20
4.7524597657
 11
2.7735303691
 21
4.7445753904
  0
LINE
  5
2A4
100
AcDbEntity
  8
0
100
AcDbLine
 62
7
  6
CONTINUOUS
 10
2.7905893134
 20
4.7419650051
 11
2.8421139368
 21
4.7340806298
  0
LINE
  5
2A5
100
AcDbEntity
  8
0
100
AcDbLine
 62
7
  6
CONTINUOUS
 10
2.8635744217
 20
4.7307967141
 11
2.9150990451
 21
4.7229123388
  0
LINE
  5
2A6
100
AcDbEntity
  8
0
100
AcDbLine
 62
7
  6
CONTINUOUS
 10
2.9321579893
 20
4.7203019535
 11
2.9836826127
 21
4.7124175782
  0
LINE
  5
2A7
100
AcDbEntity
  8
0
100
AcDbLine
 62
7
  6
CONTINUOUS
 10
2.988067826
 20
4.7117465463
 11
3.0887587346
 21
4.6963386721
  0
LINE
  5
2A8
100
AcDbEntity
  8
0
100
AcDbLine
 62
6
  6
CONTINUOUS
 10
2.4491554489
 20
4.8071747946
 11
3.2604046394
 21
4.6830362241
  0
LINE
  5
2A9
100
AcDbEntity
  8
0
100
AcDbLine
 62
6
  6
CONTINUOUS
 10
2.4406887568
 20
4.8177028236
 11
3.2716369644
 21
4.69054988
  0
LINE
  5
2AA
100
AcDbEntity
  8
0
100
AcDbLine
 62
6
  6
CONTINUOUS
 10
3.301923683
 20
4.7004564587
 11
2.4147504196
 21
4.8362130449
  0
LINE
  5
2AB
100
AcDbEntity
  8
0
100
AcDbLine
 62
6
  6
CONTINUOUS
 10
2.4063780889
 20
4.847610592
 11
3.3133212301
 21
4.7088287894
  0
LINE
  5
2AC
100
AcDbEntity
  8
0
100
AcDbLine
 62
6
  6
CONTINUOUS
 10
2.4262688868
 20
4.9775975381
 11
3.333212028
 21
4.8388157355
  0
LINE
  5
2AD
100
AcDbEntity
  8
0
100
AcDbLine
 62
7
  6
CONTINUOUS
 10
2.4436900346
 20
5.3412795815
 11
2.531795039
 21
5.3123578575
  0
LINE
  5
2AE
100
AcDbEntity
  8
0
100
AcDbLine
 62
6
  6
CONTINUOUS
 10
2.4624188191
 20
5.0535706519
 11
3.3214353648
 21
4.922122649
  0
LINE
  5
2AF
100
AcDbEntity
  8
0
100
AcDbLine
 62
6
  6
CONTINUOUS
 10
2.5208117598
 20
5.1472489337
 11
3.2937280936
 21
5.0289761147
  0
LINE
  5
2B0
100
AcDbEntity
  8
0
100
AcDbLine
 62
6
  6
CONTINUOUS
 10
2.5264058352
 20
5.1468987399
 11
2.5210010844
 21
5.1477256072
  0
LINE
  5
2B1
100
AcDbEntity
  8
0
100
AcDbLine
 62
6
  6
CONTINUOUS
 10
2.6475416752
 20
5.2835449954
 11
3.2976795788
 21
5.1840599163
  0
LINE
  5
2B2
100
AcDbEntity
  8
0
100
AcDbLine
 62
6
  6
CONTINUOUS
 10
3.3798510107
 20
5.8904065829
 11
3.3798830155
 21
5.8903863993
  0
LWPOLYLINE
  5
2B3
100
AcDbEntity
  8
0
100
AcDbPolyline
 62
6
  6
CONTINUOUS
 90
18
 70
0
 10
3.3798830155
 20
5.8903863993
 10
3.379889684
 20
5.8903819588
 10
3.3798514737
 20
5.8904118285
 10
3.3797809363
 20
5.8904709784
 10
3.3796789769
 20
5.8905627281
 10
3.3795469114
 20
5.89068959
 10
3.379387663
 20
5.8908518953
 10
3.3792018965
 20
5.8910516838
 10
3.3789907907
 20
5.8912901588
 10
3.3787573543
 20
5.8915659441
 10
3.3785022942
 20
5.8918798234
 10
3.3782256711
 20
5.8922330423
 10
3.3779287972
 20
5.8926247054
 10
3.3776108098
 20
5.8930564486
 10
3.3772721977
 20
5.8935279145
 10
3.3769160076
 20
5.8940347932
 10
3.3765418686
 20
5.8945772373
 10
3.3761493069
 20
5.8951550562
  0
LINE
  5
2B4
100
AcDbEntity
  8
0
100
AcDbLine
 62
7
  6
CONTINUOUS
 10
7.1361095079
 20
0.7955684353
 11
7.1747610648
 21
0.7210712422
  0
LINE
  5
2B5
100
AcDbEntity
  8
0
100
AcDbLine
 62
7
  6
CONTINUOUS
 10
7.1047420095
 20
0.9417957902
 11
7.1181320122
 21
0.9159878356
  0
LINE
  5
2B6
100
AcDbEntity
  8
0
100
AcDbLine
 62
7
  6
CONTINUOUS
 10
2.5386736848
 20
5.8000740642
 11
2.5349224887
 21
5.8012692876
  0
LINE
  5
2B7
100
AcDbEntity
  8
0
100
AcDbLine
 62
6
  6
CONTINUOUS
 10
3.3798497747
 20
5.8906159375
 11
3.3799653509
 21
5.8905637909
  0
LINE
  5
2B8
100
AcDbEntity
  8
0
100
AcDbLine
 62
6
  6
CONTINUOUS
 10
3.3798563486
 20
5.8906314355
 11
3.379971495
 21
5.8905783622
  0
LINE
  5
2B9
100
AcDbEntity
  8
0
100
AcDbLine
 62
7
  6
CONTINUOUS
 10
7.1059587014
 20
0.8157447606
 11
7.1055648738
 21
0.8166199337
  0
LINE
  5
2BA
100
AcDbEntity
  8
0
100
AcDbLine
 62
7
  6
CONTINUOUS
 10
7.1422877482
 20
0.7372598594
 11
7.1050102895
 21
0.8200890152
  0
LINE
  5
2BB
100
AcDbEntity
  8
0
100
AcDbLine
 62
7
  6
CONTINUOUS
 10
7.1050102895
 20
0.8200890152
 11
7.1007184085
 21
0.8297617389
  0
LINE
  5
2BC
100
AcDbEntity
  8
0
100
AcDbLine
 62
7
  6
CONTINUOUS
 10
7.1007184085
 20
0.8297617389
 11
7.0967281857
 21
0.8389031981
  0
LINE
  5
2BD
100
AcDbEntity
  8
0
100
AcDbLine
 62
7
  6
CONTINUOUS
 10
7.0967281857
 20
0.8389031981
 11
7.0931401701
 21
0.8472643648
  0
LINE
  5
2BE
100
AcDbEntity
  8
0
100
AcDbLine
 62
7
  6
CONTINUOUS
 10
7.0895318181
 20
0.853435403
 11
7.0890678159
 21
0.8545404408
  0
LINE
  5
2BF
100
AcDbEntity
  8
0
100
AcDbLine
 62
7
  6
CONTINUOUS
 10
7.0931401701
 20
0.8472643648
 11
7.0903855085
 21
0.8537938651
  0
LINE
  5
2C0
100
AcDbEntity
  8
0
100
AcDbLine
 62
7
  6
CONTINUOUS
 10
7.090385645
 20
0.8537935389
 11
7.0829183775
 21
0.871701037
  0
LINE
  5
2C1
100
AcDbEntity
  8
0
100
AcDbLine
 62
7
  6
CONTINUOUS
 10
7.0829183775
 20
0.871701037
 11
7.0786543628
 21
0.8820345382
  0
LINE
  5
2C2
100
AcDbEntity
  8
0
100
AcDbLine
 62
7
  6
CONTINUOUS
 10
7.0786543628
 20
0.8820345382
 11
7.0762850665
 21
0.88786094
  0
LWPOLYLINE
  5
2C3
100
AcDbEntity
  8
0
100
AcDbPolyline
 62
7
  6
CONTINUOUS
 90
3
 70
0
 10
7.0762850665
 20
0.88786094
 10
7.074812835
 20
0.8915441514
 10
7.0744760986
 20
0.8923978184
  0
LINE
  5
2C4
100
AcDbEntity
  8
0
100
AcDbLine
 62
7
  6
CONTINUOUS
 10
5.9497556057
 20
0.6836071626
 11
5.9497556057
 21
0.6250980783
  0
LINE
  5
2C5
100
AcDbEntity
  8
0
100
AcDbLine
 62
7
  6
CONTINUOUS
 10
5.949760364
 20
0.6842468407
 11
5.9497556057
 21
0.6836071626
  0
LINE
  5
2C6
100
AcDbEntity
  8
0
100
AcDbLine
 62
7
  6
CONTINUOUS
 10
6.0637556057
 20
0.8646489436
 11
6.0637556057
 21
0.9113824684
  0
LINE
  5
2C7
100
AcDbEntity
  8
0
100
AcDbLine
 62
7
  6
CONTINUOUS
 10
6.0797556057
 20
3.7955680855
 11
6.0797556057
 21
3.7345980783
  0
LINE
  5
2C8
100
AcDbEntity
  8
0
100
AcDbLine
 62
7
  6
CONTINUOUS
 10
6.1165056057
 20
0.9595980783
 11
6.1165056057
 21
2.5744824118
  0
LINE
  5
2C9
100
AcDbEntity
  8
0
100
AcDbLine
 62
7
  6
CONTINUOUS
 10
6.1165056057
 20
2.8347137449
 11
6.1165056057
 21
3.7345980783
  0
LINE
  5
2CA
100
AcDbEntity
  8
0
100
AcDbLine
 62
7
  6
CONTINUOUS
 10
6.3065056057
 20
4.0420980783
 11
6.3065056057
 21
6.0258599599
  0
LINE
  5
2CB
100
AcDbEntity
  8
0
100
AcDbLine
 62
7
  6
CONTINUOUS
 10
2.6414356062
 20
5.8889250693
 11
2.6109728181
 21
5.8930292695
  0
LINE
  5
2CC
100
AcDbEntity
  8
0
100
AcDbLine
 62
6
  6
CONTINUOUS
 10
2.7635711336
 20
5.9182928176
 11
3.3785466067
 21
5.8241883559
  0
LINE
  5
2CD
100
AcDbEntity
  8
0
100
AcDbLine
 62
6
  6
CONTINUOUS
 10
3.3871236962
 20
5.8327310369
 11
2.7596822983
 21
5.9287430627
  0
LINE
  5
2CE
100
AcDbEntity
  8
0
100
AcDbLine
 62
6
  6
CONTINUOUS
 10
3.3957951931
 20
5.8411445336
 11
2.7556920883
 21
5.9390940717
  0
LINE
  5
2CF
100
AcDbEntity
  8
0
100
AcDbLine
 62
6
  6
CONTINUOUS
 10
3.4013176841
 20
5.8772341742
 11
3.3865440722
 21
5.8794948545
  0
LINE
  5
2D0
100
AcDbEntity
  8
0
100
AcDbLine
 62
6
  6
CONTINUOUS
 10
2.9610300574
 20
5.9446076486
 11
2.7725820467
 21
5.9734442464
  0
LINE
  5
2D1
100
AcDbEntity
  8
0
100
AcDbLine
 62
6
  6
CONTINUOUS
 10
2.689757471
 20
5.9861181875
 11
2.6718091957
 21
5.9888646596
  0
LINE
  5
2D2
100
AcDbEntity
  8
0
100
AcDbLine
 62
6
  6
CONTINUOUS
 10
3.3078368019
 20
5.8915387815
 11
3.122564689
 21
5.9198893393
  0
LINE
  5
2D3
100
AcDbEntity
  8
0
100
AcDbLine
 62
6
  6
CONTINUOUS
 10
2.6920479422
 20
5.9861714207
 11
2.7675336026
 21
5.9746204915
  0
LINE
  5
2D4
100
AcDbEntity
  8
0
100
AcDbLine
 62
6
  6
CONTINUOUS
 10
2.9679449954
 20
5.9439532389
 11
3.1153322886
 21
5.9213998138
  0
LINE
  5
2D5
100
AcDbEntity
  8
0
100
AcDbLine
 62
6
  6
CONTINUOUS
 10
3.3125208583
 20
5.8912257225
 11
3.3844224906
 21
5.8802232267
  0
LINE
  5
2D6
100
AcDbEntity
  8
0
100
AcDbLine
 62
6
  6
CONTINUOUS
 10
3.3797577947
 20
5.8903500831
 11
3.3798747202
 21
5.8903321906
  0
LINE
  5
2D7
100
AcDbEntity
  8
0
100
AcDbLine
 62
6
  6
CONTINUOUS
 10
3.3037289406
 20
5.9019841394
 11
3.122264915
 21
5.92975197
  0
LINE
  5
2D8
100
AcDbEntity
  8
0
100
AcDbLine
 62
6
  6
CONTINUOUS
 10
2.9640514597
 20
5.953962098
 11
2.7794768466
 21
5.9822059155
  0
LINE
  5
2D9
100
AcDbEntity
  8
0
100
AcDbLine
 62
6
  6
CONTINUOUS
 10
3.3952885948
 20
5.8879735058
 11
3.3808193084
 21
5.8901875882
  0
LINE
  5
2DA
100
AcDbEntity
  8
0
100
AcDbLine
 62
6
  6
CONTINUOUS
 10
2.6983537692
 20
5.994619558
 11
2.6807738941
 21
5.9973096192
  0
LINE
  5
2DB
100
AcDbEntity
  8
0
100
AcDbLine
 62
6
  6
CONTINUOUS
 10
2.7086419312
 20
6.0005526307
 11
2.7529042054
 21
5.993779551
  0
LINE
  5
2DC
100
AcDbEntity
  8
0
100
AcDbLine
 62
6
  6
CONTINUOUS
 10
2.999323828
 20
5.95607205
 11
3.0863080482
 21
5.9427615939
  0
LINE
  5
2DD
100
AcDbEntity
  8
0
100
AcDbLine
 62
6
  6
CONTINUOUS
 10
3.3298356536
 20
5.9054966337
 11
3.3725575997
 21
5.8989592573
  0
LINE
  5
2DE
100
AcDbEntity
  8
0
100
AcDbLine
 62
6
  6
CONTINUOUS
 10
2.7324809464
 20
6.0320834645
 11
2.7342157088
 21
6.0318180085
  0
LINE
  5
2DF
100
AcDbEntity
  8
0
100
AcDbLine
 62
6
  6
CONTINUOUS
 10
2.819069352
 20
6.0188335765
 11
2.9761448597
 21
5.9947976462
  0
LINE
  5
2E0
100
AcDbEntity
  8
0
100
AcDbLine
 62
6
  6
CONTINUOUS
 10
3.1185341203
 20
5.9730090276
 11
3.2738718659
 21
5.9492390123
  0
LINE
  5
2E1
100
AcDbEntity
  8
0
100
AcDbLine
 62
6
  6
CONTINUOUS
 10
3.3550907205
 20
5.9368107811
 11
3.3563464385
 21
5.9366186292
  0
LINE
  5
2E2
100
AcDbEntity
  8
0
100
AcDbLine
 62
6
  6
CONTINUOUS
 10
2.7464157261
 20
6.0747963584
 11
2.7591715129
 21
6.0728444487
  0
LINE
  5
2E3
100
AcDbEntity
  8
0
100
AcDbLine
 62
6
  6
CONTINUOUS
 10
2.829060231
 20
6.062149972
 11
2.9867474821
 21
6.0380204319
  0
LINE
  5
2E4
100
AcDbEntity
  8
0
100
AcDbLine
 62
6
  6
CONTINUOUS
 10
3.1207840566
 20
6.0175099538
 11
3.2768581798
 21
5.9936272569
  0
LINE
  5
2E5
100
AcDbEntity
  8
0
100
AcDbLine
 62
6
  6
CONTINUOUS
 10
3.3433289584
 20
5.9834557984
 11
3.3558222073
 21
5.9815440627
  0
LINE
  5
2E6
100
AcDbEntity
  8
0
100
AcDbLine
 62
6
  6
CONTINUOUS
 10
3.1122213012
 20
6.0513335419
 11
3.2900801789
 21
6.0241189851
  0
LINE
  5
2E7
100
AcDbEntity
  8
0
100
AcDbLine
 62
6
  6
CONTINUOUS
 10
2.8247540271
 20
6.0953222163
 11
3.0041188964
 21
6.0678772103
  0
LINE
  5
2E8
100
AcDbEntity
  8
0
100
AcDbLine
 62
6
  6
CONTINUOUS
 10
3.3434476428
 20
6.0159509396
 11
3.360683669
 21
6.0133138571
  0
LINE
  5
2E9
100
AcDbEntity
  8
0
100
AcDbLine
 62
6
  6
CONTINUOUS
 10
2.7512771878
 20
6.1065661528
 11
2.7700193366
 21
6.1036994768
  0
LINE
  5
2EA
100
AcDbEntity
  8
0
100
AcDbLine
 62
6
  6
CONTINUOUS
 10
3.36031655
 20
6.017894218
 11
3.3431387231
 21
6.0205227949
  0
LINE
  5
2EB
100
AcDbEntity
  8
0
100
AcDbLine
 62
6
  6
CONTINUOUS
 10
3.0049753284
 20
6.0722690658
 11
2.826220719
 21
6.0996223648
  0
LINE
  5
2EC
100
AcDbEntity
  8
0
100
AcDbLine
 62
6
  6
CONTINUOUS
 10
2.7716758827
 20
6.1079688976
 11
2.7529972224
 21
6.1108271343
  0
LINE
  5
2ED
100
AcDbEntity
  8
0
100
AcDbLine
 62
6
  6
CONTINUOUS
 10
3.1127048406
 20
6.0557843576
 11
3.2899542324
 21
6.0286614733
  0
LINE
  5
2EE
100
AcDbEntity
  8
0
100
AcDbLine
 62
6
  6
CONTINUOUS
 10
2.7654765003
 20
6.1284750997
 11
3.3536857812
 21
6.0384664314
  0
LINE
  5
2EF
100
AcDbEntity
  8
0
100
AcDbLine
 62
7
  6
CONTINUOUS
 10
3.3390202239
 20
6.0518950105
 11
2.7834866595
 21
6.1369035915
  0
LINE
  5
2F0
100
AcDbEntity
  8
0
100
AcDbLine
 62
7
  6
CONTINUOUS
 10
3.3448649597
 20
6.0636461408
 11
2.7814234442
 21
6.1498648083
  0
LINE
  5
2F1
100
AcDbEntity
  8
0
100
AcDbLine
 62
6
  6
CONTINUOUS
 10
2.6882148157
 20
5.9400481557
 11
2.664885686
 21
5.9436193213
  0
LINE
  5
2F2
100
AcDbEntity
  8
0
100
AcDbLine
 62
7
  6
CONTINUOUS
 10
6.461870775
 20
3.1852294128
 11
6.4315056057
 21
4.3408552317
  0
LINE
  5
2F3
100
AcDbEntity
  8
0
100
AcDbLine
 62
7
  6
CONTINUOUS
 10
6.3980056057
 20
4.4645980783
 11
6.3980056057
 21
4.5025980783
  0
LINE
  5
2F4
100
AcDbEntity
  8
0
100
AcDbLine
 62
7
  6
CONTINUOUS
 10
6.4110873836
 20
2.5367965151
 11
6.4110870368
 21
2.6698327403
  0
LINE
  5
2F5
100
AcDbEntity
  8
0
100
AcDbLine
 62
7
  6
CONTINUOUS
 10
6.4227556057
 20
2.5383480783
 11
6.4227556057
 21
2.6319224926
  0
LINE
  5
2F6
100
AcDbEntity
  8
0
100
AcDbLine
 62
7
  6
CONTINUOUS
 10
6.4325056057
 20
3.1193480783
 11
6.4325056057
 21
3.1750980783
  0
LINE
  5
2F7
100
AcDbEntity
  8
0
100
AcDbLine
 62
7
  6
CONTINUOUS
 10
6.4940056057
 20
3.0720980783
 11
6.4940056057
 21
2.7045980783
  0
LINE
  5
2F8
100
AcDbEntity
  8
0
100
AcDbLine
 62
7
  6
CONTINUOUS
 10
6.5915056057
 20
2.3499953902
 11
6.5915056057
 21
2.3695980783
  0
LINE
  5
2F9
100
AcDbEntity
  8
0
100
AcDbLine
 62
7
  6
CONTINUOUS
 10
6.3065056057
 20
6.0258599599
 11
6.8765056057
 21
6.0258599599
  0
LINE
  5
2FA
100
AcDbEntity
  8
0
100
AcDbLine
 62
7
  6
CONTINUOUS
 10
3.3683169408
 20
6.2497399918
 11
2.809784848
 21
6.3352074121
  0
LINE
  5
2FB
100
AcDbEntity
  8
0
100
AcDbLine
 62
7
  6
CONTINUOUS
 10
6.6890056057
 20
3.0720980783
 11
6.6890056057
 21
2.7045980783
  0
LINE
  5
2FC
100
AcDbEntity
  8
0
100
AcDbLine
 62
7
  6
CONTINUOUS
 10
6.7505056057
 20
3.1193480783
 11
6.7505056057
 21
3.1750980783
  0
LINE
  5
2FD
100
AcDbEntity
  8
0
100
AcDbLine
 62
7
  6
CONTINUOUS
 10
6.7602556057
 20
2.6319224926
 11
6.7602556057
 21
2.5383480783
  0
LINE
  5
2FE
100
AcDbEntity
  8
0
100
AcDbLine
 62
7
  6
CONTINUOUS
 10
6.7719241746
 20
2.6698327403
 11
6.7719238278
 21
2.5367965151
  0
LINE
  5
2FF
100
AcDbEntity
  8
0
100
AcDbLine
 62
7
  6
CONTINUOUS
 10
6.7850056057
 20
4.4645980783
 11
6.7850056057
 21
4.5025980783
  0
LINE
  5
300
100
AcDbEntity
  8
0
100
AcDbLine
 62
7
  6
CONTINUOUS
 10
6.8765056057
 20
4.0420980783
 11
6.8765056057
 21
6.0258599599
  0
LINE
  5
301
100
AcDbEntity
  8
0
100
AcDbLine
 62
7
  6
CONTINUOUS
 10
6.7211404364
 20
3.1852294128
 11
6.7515056057
 21
4.3408552317
  0
LINE
  5
302
100
AcDbEntity
  8
0
100
AcDbLine
 62
6
  6
CONTINUOUS
 10
2.6995053738
 20
5.9945640531
 11
2.6995072725
 21
5.9945644165
  0
LWPOLYLINE
  5
303
100
AcDbEntity
  8
0
100
AcDbPolyline
 62
6
  6
CONTINUOUS
 90
4
 70
0
 10
2.6995053738
 20
5.9945640531
 10
2.6995540058
 20
5.9945727917
 10
2.6996049724
 20
5.9945808109
 10
2.6996623262
 20
5.9945885766
  0
LINE
  5
304
100
AcDbEntity
  8
0
100
AcDbLine
 62
6
  6
CONTINUOUS
 10
2.6996842361
 20
5.9945912143
 11
2.7001781505
 21
5.9946508897
  0
LINE
  5
305
100
AcDbEntity
  8
0
100
AcDbLine
 62
7
  6
CONTINUOUS
 10
7.2332508475
 20
0.6842468407
 11
7.2332556057
 21
0.6836071626
  0
LINE
  5
306
100
AcDbEntity
  8
0
100
AcDbLine
 62
7
  6
CONTINUOUS
 10
7.0665056057
 20
0.9595980783
 11
7.0665056057
 21
2.5744824118
  0
LINE
  5
307
100
AcDbEntity
  8
0
100
AcDbLine
 62
7
  6
CONTINUOUS
 10
7.0665056057
 20
2.8347137449
 11
7.0665056057
 21
3.7345980783
  0
LINE
  5
308
100
AcDbEntity
  8
0
100
AcDbLine
 62
7
  6
CONTINUOUS
 10
7.1032556057
 20
3.7955680855
 11
7.1032556057
 21
3.7345980783
  0
LINE
  5
309
100
AcDbEntity
  8
0
100
AcDbLine
 62
7
  6
CONTINUOUS
 10
7.1192556057
 20
0.8646489436
 11
7.1192556057
 21
0.9113824684
  0
LINE
  5
30A
100
AcDbEntity
  8
0
100
AcDbLine
 62
7
  6
CONTINUOUS
 10
7.2332556057
 20
0.6836071626
 11
7.2332556057
 21
0.6250980783
  0
LINE
  5
30B
100
AcDbEntity
  8
0
100
AcDbLine
 62
7
  6
CONTINUOUS
 10
6.1085426821
 20
0.8924170582
 11
6.10749643
 21
0.8897795988
  0
LINE
  5
30C
100
AcDbEntity
  8
0
100
AcDbLine
 62
7
  6
CONTINUOUS
 10
6.10749643
 20
0.8897795988
 11
6.1060296153
 21
0.8861381613
  0
LINE
  5
30D
100
AcDbEntity
  8
0
100
AcDbLine
 62
7
  6
CONTINUOUS
 10
6.1060296153
 20
0.8861381613
 11
6.1028500359
 21
0.8783669203
  0
LINE
  5
30E
100
AcDbEntity
  8
0
100
AcDbLine
 62
7
  6
CONTINUOUS
 10
6.1028500359
 20
0.8783669203
 11
6.0975170389
 21
0.8655074456
  0
LINE
  5
30F
100
AcDbEntity
  8
0
100
AcDbLine
 62
7
  6
CONTINUOUS
 10
6.0939433591
 20
0.8545403534
 11
6.0934814207
 21
0.8534356753
  0
LINE
  5
310
100
AcDbEntity
  8
0
100
AcDbLine
 62
7
  6
CONTINUOUS
 10
6.0975170389
 20
0.8655074456
 11
6.0915433952
 21
0.8512153088
  0
LINE
  5
311
100
AcDbEntity
  8
0
100
AcDbLine
 62
7
  6
CONTINUOUS
 10
6.0915433952
 20
0.8512153088
 11
6.0881737634
 21
0.8432907952
  0
LINE
  5
312
100
AcDbEntity
  8
0
100
AcDbLine
 62
7
  6
CONTINUOUS
 10
6.0881737634
 20
0.8432907952
 11
6.0843694197
 21
0.8345001771
  0
LINE
  5
313
100
AcDbEntity
  8
0
100
AcDbLine
 62
7
  6
CONTINUOUS
 10
6.0843694197
 20
0.8345001771
 11
6.0802290198
 21
0.8250909517
  0
LINE
  5
314
100
AcDbEntity
  8
0
100
AcDbLine
 62
7
  6
CONTINUOUS
 10
6.0802290198
 20
0.8250909517
 11
6.076219591
 21
0.8161192955
  0
LINE
  5
315
100
AcDbEntity
  8
0
100
AcDbLine
 62
7
  6
CONTINUOUS
 10
6.0774463377
 20
0.8166199337
 11
6.0770525112
 21
0.8157447616
  0
LINE
  5
316
100
AcDbEntity
  8
0
100
AcDbLine
 62
7
  6
CONTINUOUS
 10
6.0762196954
 20
0.8161195277
 11
6.0351965145
 21
0.7249791687
  0
LWPOLYLINE
  5
317
100
AcDbEntity
  8
0
100
AcDbPolyline
 62
7
  6
CONTINUOUS
 90
20
 70
0
 10
6.0351966727
 20
0.724979031
 10
6.0346258845
 20
0.7237360853
 10
6.0340724639
 20
0.7225758474
 10
6.0335030282
 20
0.7214236502
 10
6.0329185918
 20
0.720281094
 10
6.0323200172
 20
0.7191494075
 10
6.0317083158
 20
0.718030015
 10
6.031084531
 20
0.7169243427
 10
6.0304495239
 20
0.7158334479
 10
6.0298043564
 20
0.7147586441
 10
6.0291502001
 20
0.7137013482
 10
6.0284881133
 20
0.7126627451
 10
6.0278192906
 20
0.7116441557
 10
6.0271448794
 20
0.710646745
 10
6.0264658619
 20
0.7096714019
 10
6.0257834104
 20
0.7087192372
 10
6.0250987297
 20
0.7077913342
 10
6.0244128514
 20
0.706888502
 10
6.0237270071
 20
0.7060117533
 10
6.0230232605
 20
0.7051386055
  0
LINE
  5
318
100
AcDbEntity
  8
0
100
AcDbLine
 62
7
  6
CONTINUOUS
 10
6.078269202
 20
0.9417957902
 11
6.0648791992
 21
0.9159878356
  0
LINE
  5
319
100
AcDbEntity
  8
0
100
AcDbLine
 62
7
  6
CONTINUOUS
 10
6.0469017035
 20
0.7955684353
 11
6.0082501467
 21
0.7210712422
  0
LWPOLYLINE
  5
31A
100
AcDbEntity
  8
0
100
AcDbPolyline
 62
7
  6
CONTINUOUS
 90
19
 70
0
 10
6.023022952
 20
0.7051382284
 10
6.0199324113
 20
0.7013431371
 10
6.0194297505
 20
0.7007324011
 10
6.0189411344
 20
0.7001441779
 10
6.0184661414
 20
0.6995789086
 10
6.0180048931
 20
0.6990376228
 10
6.0175592871
 20
0.6985233453
 10
6.0171300479
 20
0.6980375676
 10
6.016716231
 20
0.6975797995
 10
6.0163176651
 20
0.6971502541
 10
6.015934821
 20
0.6967494576
 10
6.0155676826
 20
0.6963772971
 10
6.0152161896
 20
0.6960335727
 10
6.0148810845
 20
0.6957187955
 10
6.0145631133
 20
0.6954332443
 10
6.0142633156
 20
0.6951770534
 10
6.0139829387
 20
0.6949502837
 10
6.0137233095
 20
0.6947528219
 10
6.0134866353
 20
0.6945848693
  0
LWPOLYLINE
  5
31B
100
AcDbEntity
  8
0
100
AcDbPolyline
 62
7
  6
CONTINUOUS
 90
12
 70
0
 10
6.0134866353
 20
0.6945848693
 10
6.0132753396
 20
0.6944460999
 10
6.0130906313
 20
0.6943348926
 10
6.0129335325
 20
0.6942492681
 10
6.012807944
 20
0.6941882087
 10
6.0127130548
 20
0.6941476598
 10
6.0126419208
 20
0.694121612
 10
6.0125982971
 20
0.694108398
 10
6.0125783418
 20
0.6941034116
 10
6.0125615595
 20
0.6941003052
 10
6.0125396143
 20
0.6940982227
 10
6.0125287252
 20
0.6940980783
  0
ARC
  5
31C
100
AcDbEntity
  8
0
100
AcDbCircle
 62
6
  6
CONTINUOUS
 10
-6.3763105821
 20
-35.3046499978
 40
41.8217921064
100
AcDbArc
 50
77.4556440984
 51
77.5864349958
  0
ARC
  5
31D
100
AcDbEntity
  8
0
100
AcDbCircle
 62
7
  6
CONTINUOUS
 10
1.0919792279
 20
-5.6964557804
 40
11.662165292
100
AcDbArc
 50
82.3632986849
 51
82.5320817441
  0
ARC
  5
31E
100
AcDbEntity
  8
0
100
AcDbCircle
 62
6
  6
CONTINUOUS
 10
2.4048217054
 20
1.1814563125
 40
4.7529823994
100
AcDbArc
 50
86.0656965334
 51
86.3472953529
  0
ARC
  5
31F
100
AcDbEntity
  8
0
100
AcDbCircle
 62
6
  6
CONTINUOUS
 10
1.0033643083
 20
5.8915232264
 40
1.6490187619
100
AcDbArc
 50
350.7112131585
 51
359.250848624
  0
ARC
  5
320
100
AcDbEntity
  8
0
100
AcDbCircle
 62
6
  6
CONTINUOUS
 10
1.2418143174
 20
5.8563703674
 40
1.4
100
AcDbArc
 50
334.9455163253
 51
2.2029391879
  0
ARC
  5
321
100
AcDbEntity
  8
0
100
AcDbCircle
 62
6
  6
CONTINUOUS
 10
1.2595963308
 20
5.848579682
 40
1.3892205031
100
AcDbArc
 50
347.141098073
 51
350.7533576009
  0
ARC
  5
322
100
AcDbEntity
  8
0
100
AcDbCircle
 62
6
  6
CONTINUOUS
 10
1.7189895842
 20
6.6738693047
 40
1.2021687464
100
AcDbArc
 50
328.2703331124
 51
329.5819917063
  0
ARC
  5
323
100
AcDbEntity
  8
0
100
AcDbCircle
 62
6
  6
CONTINUOUS
 10
2.2327424199
 20
5.2617742821
 40
0.31
100
AcDbArc
 50
317.8074225874
 51
338.3191243846
  0
ARC
  5
324
100
AcDbEntity
  8
0
100
AcDbCircle
 62
6
  6
CONTINUOUS
 10
2.4493529617
 20
5.3400409358
 40
0.2060836605
100
AcDbArc
 50
344.0892049607
 51
346.1347961182
  0
ARC
  5
325
100
AcDbEntity
  8
0
100
AcDbCircle
 62
6
  6
CONTINUOUS
 10
2.5705889943
 20
4.9555134583
 40
0.146
100
AcDbArc
 50
137.8074225874
 51
171.3
  0
ARC
  5
326
100
AcDbEntity
  8
0
100
AcDbCircle
 62
7
  6
CONTINUOUS
 10
2.4590389454
 20
5.3880373699
 40
0.0492125984
100
AcDbArc
 50
162.3268404051
 51
251.8268404112
  0
ARC
  5
327
100
AcDbEntity
  8
0
100
AcDbCircle
 62
6
  6
CONTINUOUS
 10
2.5327296566
 20
5.2529115145
 40
0.025
100
AcDbArc
 50
154.9455193487
 51
209.3519634138
  0
ARC
  5
328
100
AcDbEntity
  8
0
100
AcDbCircle
 62
6
  6
CONTINUOUS
 10
2.5331210061
 20
5.2538077945
 40
0.024974617
100
AcDbArc
 50
154.9868338954
 51
212.8568637472
  0
ARC
  5
329
100
AcDbEntity
  8
0
100
AcDbCircle
 62
6
  6
CONTINUOUS
 10
2.4249713587
 20
4.8187156907
 40
0.01575
100
AcDbArc
 50
356.3128200255
 51
81.3
  0
ARC
  5
32A
100
AcDbEntity
  8
0
100
AcDbCircle
 62
6
  6
CONTINUOUS
 10
2.4506680571
 20
4.8170597334
 40
0.01
100
AcDbArc
 50
176.3128200255
 51
261.3
  0
ARC
  5
32B
100
AcDbEntity
  8
0
100
AcDbCircle
 62
6
  6
CONTINUOUS
 10
2.4162630278
 20
4.8460979838
 40
0.01
100
AcDbArc
 50
171.3
 51
261.3
  0
ARC
  5
32C
100
AcDbEntity
  8
0
100
AcDbCircle
 62
7
  6
CONTINUOUS
 10
2.6228228263
 20
4.7681575755
 40
0.0059055118
100
AcDbArc
 50
176.3000000044
 51
261.3
  0
ARC
  5
32D
100
AcDbEntity
  8
0
100
AcDbCircle
 62
7
  6
CONTINUOUS
 10
2.6354965574
 20
4.7662182221
 40
0.0059055118
100
AcDbArc
 50
176.3
 51
261.3
  0
ARC
  5
32E
100
AcDbEntity
  8
0
100
AcDbCircle
 62
7
  6
CONTINUOUS
 10
2.7118830377
 20
4.7545294481
 40
0.0059055118
100
AcDbArc
 50
261.3
 51
346.3
  0
ARC
  5
32F
100
AcDbEntity
  8
0
100
AcDbCircle
 62
7
  6
CONTINUOUS
 10
2.6719891115
 20
4.7606340766
 40
0.0059055118
100
AcDbArc
 50
176.3
 51
261.3
  0
ARC
  5
330
100
AcDbEntity
  8
0
100
AcDbCircle
 62
7
  6
CONTINUOUS
 10
2.7278989482
 20
4.7520786694
 40
0.0059055118
100
AcDbArc
 50
176.3
 51
261.3
  0
ARC
  5
331
100
AcDbEntity
  8
0
100
AcDbCircle
 62
7
  6
CONTINUOUS
 10
2.4400652713
 20
5.4841084459
 40
0.0059055118
100
AcDbArc
 50
117.3269631102
 51
162.3269603033
  0
ARC
  5
332
100
AcDbEntity
  8
0
100
AcDbCircle
 62
7
  6
CONTINUOUS
 10
2.4260126001
 20
5.4400042858
 40
0.0059055118
100
AcDbArc
 50
162.3267205068
 51
207.3267176999
  0
ARC
  5
333
100
AcDbEntity
  8
0
100
AcDbCircle
 62
6
  6
CONTINUOUS
 10
2.4211127196
 20
6.2393881427
 40
0.3764867402
100
AcDbArc
 50
328.1665726685
 51
328.3141732545
  0
ARC
  5
334
100
AcDbEntity
  8
0
100
AcDbCircle
 62
6
  6
CONTINUOUS
 10
2.6100035697
 20
6.0956703516
 40
0.138
100
AcDbArc
 50
332.5629012637
 51
351.3
  0
ARC
  5
335
100
AcDbEntity
  8
0
100
AcDbCircle
 62
6
  6
CONTINUOUS
 10
2.6474612289
 20
6.0737480405
 40
0.0953973079
100
AcDbArc
 50
309.8907111752
 51
311.0969447984
  0
ARC
  5
336
100
AcDbEntity
  8
0
100
AcDbCircle
 62
6
  6
CONTINUOUS
 10
2.6747923269
 20
6.0620338099
 40
0.065
100
AcDbArc
 50
275.2800628989
 51
332.5629012637
  0
ARC
  5
337
100
AcDbEntity
  8
0
100
AcDbCircle
 62
6
  6
CONTINUOUS
 10
2.691929981
 20
6.0500012904
 40
0.0557531047
100
AcDbArc
 50
277.9636292708
 51
278.3578749339
  0
ARC
  5
338
100
AcDbEntity
  8
0
100
AcDbCircle
 62
6
  6
CONTINUOUS
 10
2.6919447444
 20
6.0498961596
 40
0.0556469424
100
AcDbArc
 50
277.7513552124
 51
277.9635718475
  0
ARC
  5
339
100
AcDbEntity
  8
0
100
AcDbCircle
 62
6
  6
CONTINUOUS
 10
2.6919814486
 20
6.0496189692
 40
0.0553673343
100
AcDbArc
 50
276.6089142488
 51
277.7524077515
  0
ARC
  5
33A
100
AcDbEntity
  8
0
100
AcDbCircle
 62
7
  6
CONTINUOUS
 10
2.6044018564
 20
5.8442573277
 40
0.0492125984
100
AcDbArc
 50
82.3261833528
 51
162.3268404051
  0
ARC
  5
33B
100
AcDbEntity
  8
0
100
AcDbCircle
 62
6
  6
CONTINUOUS
 10
2.6658329802
 20
5.9072305603
 40
0.0249278369
100
AcDbArc
 50
111.2354151819
 51
181.9923750898
  0
ARC
  5
33C
100
AcDbEntity
  8
0
100
AcDbCircle
 62
7
  6
CONTINUOUS
 10
2.572369958
 20
5.8409878979
 40
0.0236220472
100
AcDbArc
 50
128.7673978789
 51
180.0915978924
  0
ARC
  5
33D
100
AcDbEntity
  8
0
100
AcDbCircle
 62
7
  6
CONTINUOUS
 10
2.5468652828
 20
5.7609417448
 40
0.0236220472
100
AcDbArc
 50
128.7695306431
 51
195.884150167
  0
ARC
  5
33E
100
AcDbEntity
  8
0
100
AcDbCircle
 62
7
  6
CONTINUOUS
 10
2.5574296651
 20
5.794097947
 40
0.0236220472
100
AcDbArc
 50
128.7695306431
 51
195.884150167
  0
ARC
  5
33F
100
AcDbEntity
  8
0
100
AcDbCircle
 62
7
  6
CONTINUOUS
 10
2.5679940475
 20
5.8272541493
 40
0.0236220472
100
AcDbArc
 50
128.7695306431
 51
195.884150167
  0
ARC
  5
340
100
AcDbEntity
  8
0
100
AcDbCircle
 62
7
  6
CONTINUOUS
 10
2.5424893723
 20
5.7472079961
 40
0.0236220472
100
AcDbArc
 50
144.5620829177
 51
195.884150167
  0
ARC
  5
341
100
AcDbEntity
  8
0
100
AcDbCircle
 62
6
  6
CONTINUOUS
 10
2.6816941345
 20
5.9873520514
 40
0.01
100
AcDbArc
 50
95.2800628989
 51
171.3
  0
ARC
  5
342
100
AcDbEntity
  8
0
100
AcDbCircle
 62
6
  6
CONTINUOUS
 10
2.701152864
 20
5.9860312318
 40
0.0086898533
100
AcDbArc
 50
99.7381931421
 51
100.9152733855
  0
ARC
  5
343
100
AcDbEntity
  8
0
100
AcDbCircle
 62
6
  6
CONTINUOUS
 10
2.7011367533
 20
5.9861280064
 40
0.008591748
100
AcDbArc
 50
96.8369807518
 51
99.7414641028
  0
ARC
  5
344
100
AcDbEntity
  8
0
100
AcDbCircle
 62
6
  6
CONTINUOUS
 10
2.699024471
 20
6.0001976851
 40
0.0056451566
100
AcDbArc
 50
276.7116500524
 51
281.1283135569
  0
ARC
  5
345
100
AcDbEntity
  8
0
100
AcDbCircle
 62
6
  6
CONTINUOUS
 10
2.6990998254
 20
5.9990680106
 40
0.0045110387
100
AcDbArc
 50
265.2827349117
 51
267.7131539075
  0
ARC
  5
346
100
AcDbEntity
  8
0
100
AcDbCircle
 62
6
  6
CONTINUOUS
 10
2.6990862444
 20
5.9989045513
 40
0.0043470162
100
AcDbArc
 50
260.3035269668
 51
265.2839503662
  0
ARC
  5
347
100
AcDbEntity
  8
0
100
AcDbCircle
 62
6
  6
CONTINUOUS
 10
3.602863226
 20
5.0521163371
 40
0.31
100
AcDbArc
 50
184.2808756154
 51
204.7925774126
  0
ARC
  5
348
100
AcDbEntity
  8
0
100
AcDbCircle
 62
6
  6
CONTINUOUS
 10
3.1888919205
 20
4.8608998153
 40
0.146
100
AcDbArc
 50
351.3
 51
24.7925774126
  0
ARC
  5
349
100
AcDbEntity
  8
0
100
AcDbCircle
 62
6
  6
CONTINUOUS
 10
3.286938028
 20
4.6868162555
 40
0.01575
100
AcDbArc
 50
81.3
 51
166.2871799745
  0
ARC
  5
34A
100
AcDbEntity
  8
0
100
AcDbCircle
 62
6
  6
CONTINUOUS
 10
3.2619220034
 20
4.6929204353
 40
0.01
100
AcDbArc
 50
261.3
 51
346.2871799745
  0
ARC
  5
34B
100
AcDbEntity
  8
0
100
AcDbCircle
 62
6
  6
CONTINUOUS
 10
3.3034362912
 20
4.7103413976
 40
0.01
100
AcDbArc
 50
261.3
 51
351.3
  0
ARC
  5
34C
100
AcDbEntity
  8
0
100
AcDbCircle
 62
7
  6
CONTINUOUS
 10
3.0830212398
 20
4.6977373226
 40
0.0059055118
100
AcDbArc
 50
261.3
 51
346.2999999956
  0
ARC
  5
34D
100
AcDbEntity
  8
0
100
AcDbCircle
 62
7
  6
CONTINUOUS
 10
2.7677928743
 20
4.7459740408
 40
0.0059055118
100
AcDbArc
 50
261.3
 51
346.3
  0
ARC
  5
34E
100
AcDbEntity
  8
0
100
AcDbCircle
 62
7
  6
CONTINUOUS
 10
2.7964825158
 20
4.7415839088
 40
0.0059055118
100
AcDbArc
 50
176.3
 51
261.3
  0
ARC
  5
34F
100
AcDbEntity
  8
0
100
AcDbCircle
 62
7
  6
CONTINUOUS
 10
2.836376442
 20
4.7354792802
 40
0.0059055118
100
AcDbArc
 50
261.3
 51
346.3
  0
ARC
  5
350
100
AcDbEntity
  8
0
100
AcDbCircle
 62
7
  6
CONTINUOUS
 10
2.8694676241
 20
4.7304156178
 40
0.0059055118
100
AcDbArc
 50
176.3
 51
261.3
  0
ARC
  5
351
100
AcDbEntity
  8
0
100
AcDbCircle
 62
7
  6
CONTINUOUS
 10
2.9093615503
 20
4.7243109893
 40
0.0059055118
100
AcDbArc
 50
261.3
 51
346.3
  0
ARC
  5
352
100
AcDbEntity
  8
0
100
AcDbCircle
 62
7
  6
CONTINUOUS
 10
2.9380511918
 20
4.7199208572
 40
0.0059055118
100
AcDbArc
 50
176.3
 51
261.3
  0
ARC
  5
353
100
AcDbEntity
  8
0
100
AcDbCircle
 62
7
  6
CONTINUOUS
 10
2.9779451179
 20
4.7138162287
 40
0.0059055118
100
AcDbArc
 50
261.3
 51
346.3
  0
ARC
  5
354
100
AcDbEntity
  8
0
100
AcDbCircle
 62
7
  6
CONTINUOUS
 10
2.9939610284
 20
4.71136545
 40
0.0059055118
100
AcDbArc
 50
176.3
 51
261.3
  0
ARC
  5
355
100
AcDbEntity
  8
0
100
AcDbCircle
 62
7
  6
CONTINUOUS
 10
3.0338549546
 20
4.7052608214
 40
0.0059055118
100
AcDbArc
 50
261.3
 51
346.3
  0
ARC
  5
356
100
AcDbEntity
  8
0
100
AcDbCircle
 62
7
  6
CONTINUOUS
 10
3.0703475087
 20
4.6996766759
 40
0.0059055118
100
AcDbArc
 50
261.3
 51
346.3
  0
ARC
  5
357
100
AcDbEntity
  8
0
100
AcDbCircle
 62
6
  6
CONTINUOUS
 10
3.5294709613
 20
5.9931302778
 40
0.1840485528
100
AcDbArc
 50
194.3777662776
 51
194.6757651291
  0
ARC
  5
358
100
AcDbEntity
  8
0
100
AcDbCircle
 62
6
  6
CONTINUOUS
 10
3.4922343637
 20
5.9606700695
 40
0.138
100
AcDbArc
 50
171.3
 51
190.0370987363
  0
ARC
  5
359
100
AcDbEntity
  8
0
100
AcDbCircle
 62
6
  6
CONTINUOUS
 10
3.4708007089
 20
5.9664272273
 40
0.119180069
100
AcDbArc
 50
212.6727558949
 51
213.355530051
  0
ARC
  5
35A
100
AcDbEntity
  8
0
100
AcDbCircle
 62
6
  6
CONTINUOUS
 10
3.4647052822
 20
5.9623899004
 40
0.1118688602
100
AcDbArc
 50
213.3448701243
 51
214.5419118809
  0
ARC
  5
35B
100
AcDbEntity
  8
0
100
AcDbCircle
 62
6
  6
CONTINUOUS
 10
3.1329200428
 20
5.9875426746
 40
0.0684412677
100
AcDbArc
 50
255.1093037383
 51
261.2975681374
  0
ARC
  5
35C
100
AcDbEntity
  8
0
100
AcDbCircle
 62
6
  6
CONTINUOUS
 10
3.4203516207
 20
5.9479472062
 40
0.065
100
AcDbArc
 50
190.0370987363
 51
247.3199371011
  0
ARC
  5
35D
100
AcDbEntity
  8
0
100
AcDbCircle
 62
6
  6
CONTINUOUS
 10
2.9701857593
 20
6.0044918525
 40
0.0605800689
100
AcDbArc
 50
261.3073566646
 51
267.8802333692
  0
ARC
  5
35E
100
AcDbEntity
  8
0
100
AcDbCircle
 62
6
  6
CONTINUOUS
 10
3.4045031754
 20
5.9451021701
 40
0.0598041784
100
AcDbArc
 50
245.1684922933
 51
245.4233219326
  0
ARC
  5
35F
100
AcDbEntity
  8
0
100
AcDbCircle
 62
6
  6
CONTINUOUS
 10
3.4044851019
 20
5.9450626583
 40
0.0597607292
100
AcDbArc
 50
245.4233245482
 51
245.6548325679
  0
ARC
  5
360
100
AcDbEntity
  8
0
100
AcDbCircle
 62
6
  6
CONTINUOUS
 10
3.4044319588
 20
5.9449441964
 40
0.059630893
100
AcDbArc
 50
245.7762629914
 51
246.672882011
  0
ARC
  5
361
100
AcDbEntity
  8
0
100
AcDbCircle
 62
6
  6
CONTINUOUS
 10
3.1306964599
 20
5.985073387
 40
0.0559603878
100
AcDbArc
 50
254.9719355929
 51
261.334279456
  0
ARC
  5
362
100
AcDbEntity
  8
0
100
AcDbCircle
 62
6
  6
CONTINUOUS
 10
2.9715993424
 20
6.0016420621
 40
0.0482735679
100
AcDbArc
 50
261.0045724062
 51
267.7487207875
  0
ARC
  5
363
100
AcDbEntity
  8
0
100
AcDbCircle
 62
6
  6
CONTINUOUS
 10
2.7776072446
 20
6.0064344816
 40
0.0333707691
100
AcDbArc
 50
252.4300313583
 51
261.3390649798
  0
ARC
  5
364
100
AcDbEntity
  8
0
100
AcDbCircle
 62
6
  6
CONTINUOUS
 10
2.7835911156
 20
6.009384674
 40
0.0274885324
100
AcDbArc
 50
252.2659872077
 51
261.3916565072
  0
ARC
  5
365
100
AcDbEntity
  8
0
100
AcDbCircle
 62
6
  6
CONTINUOUS
 10
3.3119989042
 20
5.9186145954
 40
0.0273938459
100
AcDbArc
 50
261.2608817498
 51
271.091762531
  0
ARC
  5
366
100
AcDbEntity
  8
0
100
AcDbCircle
 62
6
  6
CONTINUOUS
 10
3.307414946
 20
5.9248228636
 40
0.0231341361
100
AcDbArc
 50
260.8312394061
 51
270.622787367
  0
ARC
  5
367
100
AcDbEntity
  8
0
100
AcDbCircle
 62
6
  6
CONTINUOUS
 10
3.3346501416
 20
6.0323309261
 40
0.02
100
AcDbArc
 50
17.865
 51
76.01375
  0
ARC
  5
368
100
AcDbEntity
  8
0
100
AcDbCircle
 62
6
  6
CONTINUOUS
 10
2.781806309
 20
6.1169279203
 40
0.02
100
AcDbArc
 50
86.58625
 51
144.735
  0
ARC
  5
369
100
AcDbEntity
  8
0
100
AcDbCircle
 62
6
  6
CONTINUOUS
 10
3.3859102542
 20
5.8426571418
 40
0.01
100
AcDbArc
 50
276.9696863988
 51
351.3
  0
ARC
  5
36A
100
AcDbEntity
  8
0
100
AcDbCircle
 62
6
  6
CONTINUOUS
 10
2.7611621267
 20
6.1050535446
 40
0.01
100
AcDbArc
 50
144.735
 51
171.3
  0
ARC
  5
36B
100
AcDbEntity
  8
0
100
AcDbCircle
 62
6
  6
CONTINUOUS
 10
3.3914327453
 20
5.8787467824
 40
0.01
100
AcDbArc
 50
351.3
 51
67.3199371011
  0
ARC
  5
36C
100
AcDbEntity
  8
0
100
AcDbCircle
 62
6
  6
CONTINUOUS
 10
3.3507987302
 20
6.0148264653
 40
0.01
100
AcDbArc
 50
351.3
 51
17.865
  0
ARC
  5
36D
100
AcDbEntity
  8
0
100
AcDbCircle
 62
6
  6
CONTINUOUS
 10
3.3883189365
 20
5.8229538236
 40
0.00985
100
AcDbArc
 50
96.9696863988
 51
172.8
  0
ARC
  5
36E
100
AcDbEntity
  8
0
100
AcDbCircle
 62
6
  6
CONTINUOUS
 10
3.3754434972
 20
5.8825219329
 40
0.0090335192
100
AcDbArc
 50
57.6001833794
 51
60.5344033464
  0
ARC
  5
36F
100
AcDbEntity
  8
0
100
AcDbCircle
 62
6
  6
CONTINUOUS
 10
4.0670645297
 20
5.0868639936
 40
0.7755
100
AcDbArc
 50
172.8
 51
184.2808756154
  0
ARC
  5
370
100
AcDbEntity
  8
0
100
AcDbCircle
 62
6
  6
CONTINUOUS
 10
4.4669310825
 20
6.2348847483
 40
1.1521779882
100
AcDbArc
 50
193.2710112578
 51
194.4472933664
  0
ARC
  5
371
100
AcDbEntity
  8
0
100
AcDbCircle
 62
6
  6
CONTINUOUS
 10
3.7580099026
 20
6.0883277099
 40
0.428425212
100
AcDbArc
 50
191.8736085499
 51
192.0255346583
  0
ARC
  5
372
100
AcDbEntity
  8
0
100
AcDbCircle
 62
7
  6
CONTINUOUS
 10
3.6473134111
 20
6.2072731001
 40
0.2822108598
100
AcDbArc
 50
171.3452689948
 51
182.067290149
  0
ARC
  5
373
100
AcDbEntity
  8
0
100
AcDbCircle
 62
7
  6
CONTINUOUS
 10
5.9137556057
 20
0.8646489436
 40
0.15
100
AcDbArc
 50
332.5782533518
 51
360.0
  0
ARC
  5
374
100
AcDbEntity
  8
0
100
AcDbCircle
 62
7
  6
CONTINUOUS
 10
5.9461881291
 20
0.7660856549
 40
0.0989639426
100
AcDbArc
 50
334.9318314203
 51
335.7761613039
  0
ARC
  5
375
100
AcDbEntity
  8
0
100
AcDbCircle
 62
7
  6
CONTINUOUS
 10
5.9548878449
 20
0.7592917997
 40
0.0879763154
100
AcDbArc
 50
321.422300648
 51
322.2941470748
  0
ARC
  5
376
100
AcDbEntity
  8
0
100
AcDbCircle
 62
7
  6
CONTINUOUS
 10
5.9571379979
 20
0.757500966
 40
0.0851005087
100
AcDbArc
 50
320.5347670116
 51
321.4201919633
  0
ARC
  5
377
100
AcDbEntity
  8
0
100
AcDbCircle
 62
7
  6
CONTINUOUS
 10
5.9638681141
 20
0.7440980783
 40
0.05
100
AcDbArc
 50
270.0
 51
332.5782533518
  0
ARC
  5
378
100
AcDbEntity
  8
0
100
AcDbCircle
 62
7
  6
CONTINUOUS
 10
6.1075613435
 20
0.9265980783
 40
0.033
100
AcDbArc
 50
90.0
 51
152.5782533518
  0
ARC
  5
379
100
AcDbEntity
  8
0
100
AcDbCircle
 62
7
  6
CONTINUOUS
 10
6.0737556057
 20
0.9113824684
 40
0.01
100
AcDbArc
 50
152.5782533518
 51
180.0
  0
ARC
  5
37A
100
AcDbEntity
  8
0
100
AcDbCircle
 62
7
  6
CONTINUOUS
 10
5.9597592574
 20
0.6840980783
 40
0.01
100
AcDbArc
 50
90.0
 51
179.1476230686
  0
ARC
  5
37B
100
AcDbEntity
  8
0
100
AcDbCircle
 62
7
  6
CONTINUOUS
 10
6.5180785179
 20
0.7166203716
 40
0.0225222934
100
AcDbArc
 50
270.0055579726
 51
275.488506079
  0
ARC
  5
37C
100
AcDbEntity
  8
0
100
AcDbCircle
 62
7
  6
CONTINUOUS
 10
6.4797556057
 20
3.1193480783
 40
0.04725
100
AcDbArc
 50
180.0
 51
270.0
  0
ARC
  5
37D
100
AcDbEntity
  8
0
100
AcDbCircle
 62
7
  6
CONTINUOUS
 10
6.4375056057
 20
3.1750980783
 40
0.005
100
AcDbArc
 50
90.0
 51
180.0
  0
ARC
  5
37E
100
AcDbEntity
  8
0
100
AcDbCircle
 62
7
  6
CONTINUOUS
 10
6.4568725002
 20
3.1850980783
 40
0.005
100
AcDbArc
 50
270.0
 51
1.5051548541
  0
ARC
  5
37F
100
AcDbEntity
  8
0
100
AcDbCircle
 62
7
  6
CONTINUOUS
 10
6.5912577033
 20
2.535101326
 40
0.1804831244
100
AcDbArc
 50
305.0159968514
 51
354.2244906429
  0
ARC
  5
380
100
AcDbEntity
  8
0
100
AcDbCircle
 62
7
  6
CONTINUOUS
 10
6.585916964
 20
2.7761132312
 40
0.4293800023
100
AcDbArc
 50
63.9307994865
 51
67.4595649533
  0
ARC
  5
381
100
AcDbEntity
  8
0
100
AcDbCircle
 62
7
  6
CONTINUOUS
 10
6.5885525129
 20
2.7826718124
 40
0.422310095
100
AcDbArc
 50
70.2381810459
 51
70.902954423
  0
ARC
  5
382
100
AcDbEntity
  8
0
100
AcDbCircle
 62
7
  6
CONTINUOUS
 10
6.5888693243
 20
2.7835849042
 40
0.4213436035
100
AcDbArc
 50
70.9030415158
 51
71.6665583196
  0
ARC
  5
383
100
AcDbEntity
  8
0
100
AcDbCircle
 62
7
  6
CONTINUOUS
 10
6.5917524512
 20
2.5351011505
 40
0.1804824495
100
AcDbArc
 50
185.7754877173
 51
234.9842460023
  0
ARC
  5
384
100
AcDbEntity
  8
0
100
AcDbCircle
 62
7
  6
CONTINUOUS
 10
6.5915050139
 20
2.5367964824
 40
0.1804176303
100
AcDbArc
 50
179.9999896251
 51
186.3190621558
  0
ARC
  5
385
100
AcDbEntity
  8
0
100
AcDbCircle
 62
7
  6
CONTINUOUS
 10
6.5915061987
 20
2.5367964824
 40
0.1804176291
100
AcDbArc
 50
353.6809378244
 51
0.0000103948
  0
ARC
  5
386
100
AcDbEntity
  8
0
100
AcDbCircle
 62
7
  6
CONTINUOUS
 10
6.5915056057
 20
2.5383480783
 40
0.16875
100
AcDbArc
 50
180.0
 51
360.0
  0
ARC
  5
387
100
AcDbEntity
  8
0
100
AcDbCircle
 62
7
  6
CONTINUOUS
 10
6.5915056057
 20
2.7045980783
 40
0.4925
100
AcDbArc
 50
108.835982713
 51
71.164017287
  0
ARC
  5
388
100
AcDbEntity
  8
0
100
AcDbCircle
 62
7
  6
CONTINUOUS
 10
6.5915056057
 20
2.7045980783
 40
0.452
100
AcDbArc
 50
110.5968886728
 51
69.4031113272
  0
ARC
  5
389
100
AcDbEntity
  8
0
100
AcDbCircle
 62
7
  6
CONTINUOUS
 10
6.5967482326
 20
2.7768825784
 40
0.4285368579
100
AcDbArc
 50
112.5371267524
 51
116.072796416
  0
ARC
  5
38A
100
AcDbEntity
  8
0
100
AcDbCircle
 62
7
  6
CONTINUOUS
 10
6.5943938819
 20
2.7828509504
 40
0.4221196695
100
AcDbArc
 50
109.0966823103
 51
109.7618162429
  0
ARC
  5
38B
100
AcDbEntity
  8
0
100
AcDbCircle
 62
7
  6
CONTINUOUS
 10
6.594072942
 20
2.7837822342
 40
0.4211346366
100
AcDbArc
 50
108.3329704542
 51
109.0968733025
  0
ARC
  5
38C
100
AcDbEntity
  8
0
100
AcDbCircle
 62
7
  6
CONTINUOUS
 10
6.5915056057
 20
2.7045980783
 40
0.4014734152
100
AcDbArc
 50
110.3240182401
 51
69.6759817599
  0
ARC
  5
38D
100
AcDbEntity
  8
0
100
AcDbCircle
 62
7
  6
CONTINUOUS
 10
6.5915056057
 20
2.7045980783
 40
0.3560540376
100
AcDbArc
 50
105.8932377682
 51
74.1067622318
  0
ARC
  5
38E
100
AcDbEntity
  8
0
100
AcDbCircle
 62
7
  6
CONTINUOUS
 10
6.5915056057
 20
2.7045980783
 40
0.3337039114
100
AcDbArc
 50
106.9893976141
 51
251.9652514863
  0
ARC
  5
38F
100
AcDbEntity
  8
0
100
AcDbCircle
 62
7
  6
CONTINUOUS
 10
6.5915056057
 20
2.7045980783
 40
0.3337039114
100
AcDbArc
 50
288.0347485138
 51
73.0106023859
  0
ARC
  5
390
100
AcDbEntity
  8
0
100
AcDbCircle
 62
7
  6
CONTINUOUS
 10
6.5915056057
 20
2.7045980783
 40
0.2595619483
100
AcDbArc
 50
112.065201283
 51
226.3014378571
  0
ARC
  5
391
100
AcDbEntity
  8
0
100
AcDbCircle
 62
7
  6
CONTINUOUS
 10
6.5915056057
 20
2.7045980783
 40
0.2595619483
100
AcDbArc
 50
313.6985621429
 51
67.9347987171
  0
ARC
  5
392
100
AcDbEntity
  8
0
100
AcDbCircle
 62
7
  6
CONTINUOUS
 10
6.5915056057
 20
2.7045980783
 40
0.18375
100
AcDbArc
 50
122.0496956527
 51
57.9503043473
  0
ARC
  5
393
100
AcDbEntity
  8
0
100
AcDbCircle
 62
7
  6
CONTINUOUS
 10
6.5915077324
 20
2.7109043169
 40
0.1804209606
100
AcDbArc
 50
122.714362715
 51
148.9599306625
  0
ARC
  5
394
100
AcDbEntity
  8
0
100
AcDbCircle
 62
7
  6
CONTINUOUS
 10
6.5915068515
 20
2.7109070908
 40
0.1804167571
100
AcDbArc
 50
31.0012038084
 51
57.2863546063
  0
ARC
  5
395
100
AcDbEntity
  8
0
100
AcDbCircle
 62
7
  6
CONTINUOUS
 10
6.5915056057
 20
2.7045980783
 40
0.15375
100
AcDbArc
 50
129.3603498619
 51
50.6396501381
  0
ARC
  5
396
100
AcDbEntity
  8
0
100
AcDbCircle
 62
7
  6
CONTINUOUS
 10
6.5915056057
 20
2.7045980783
 40
0.1075
100
AcDbArc
 50
155.096166802
 51
24.9038332338
  0
ARC
  5
397
100
AcDbEntity
  8
0
100
AcDbCircle
 62
7
  6
CONTINUOUS
 10
6.5915056057
 20
2.7045980783
 40
0.0975
100
AcDbArc
 50
180.0
 51
360.0
  0
ARC
  5
398
100
AcDbEntity
  8
0
100
AcDbCircle
 62
7
  6
CONTINUOUS
 10
4.8313794989
 20
6.0258599371
 40
2.0451261068
100
AcDbArc
 50
0.0000006386
 51
171.2999993614
  0
ARC
  5
399
100
AcDbEntity
  8
0
100
AcDbCircle
 62
7
  6
CONTINUOUS
 10
4.8313794984
 20
6.0258599367
 40
1.4751261073
100
AcDbArc
 50
0.000000902
 51
169.2604013975
  0
ARC
  5
39A
100
AcDbEntity
  8
0
100
AcDbCircle
 62
7
  6
CONTINUOUS
 10
6.605024138
 20
4.4837728345
 40
0.181
100
AcDbArc
 50
333.4988282258
 51
353.9187955215
  0
ARC
  5
39B
100
AcDbEntity
  8
0
100
AcDbCircle
 62
7
  6
CONTINUOUS
 10
6.5779870735
 20
4.4837728345
 40
0.181
100
AcDbArc
 50
186.0812044785
 51
206.5011717742
  0
ARC
  5
39C
100
AcDbEntity
  8
0
100
AcDbCircle
 62
7
  6
CONTINUOUS
 10
6.2835566708
 20
4.3369677325
 40
0.148
100
AcDbArc
 50
1.5051548541
 51
26.5011717742
  0
ARC
  5
39D
100
AcDbEntity
  8
0
100
AcDbCircle
 62
7
  6
CONTINUOUS
 10
6.0886907202
 20
3.9769527975
 40
0.1245
100
AcDbArc
 50
287.32010763
 51
3.5206272987
  0
ARC
  5
39E
100
AcDbEntity
  8
0
100
AcDbCircle
 62
7
  6
CONTINUOUS
 10
6.1452556057
 20
3.7955680855
 40
0.0655
100
AcDbArc
 50
107.32010763
 51
180.0
  0
ARC
  5
39F
100
AcDbEntity
  8
0
100
AcDbCircle
 62
7
  6
CONTINUOUS
 10
6.2715056057
 20
3.9745980783
 40
0.06
100
AcDbArc
 50
100.4756816964
 51
165.3196536005
  0
ARC
  5
3A0
100
AcDbEntity
  8
0
100
AcDbCircle
 62
7
  6
CONTINUOUS
 10
6.2294588799
 20
3.9856134162
 40
0.016534326
100
AcDbArc
 50
165.3196536005
 51
183.5206272987
  0
ARC
  5
3A1
100
AcDbEntity
  8
0
100
AcDbCircle
 62
7
  6
CONTINUOUS
 10
6.2865056057
 20
4.0195980783
 40
0.015
100
AcDbArc
 50
90.0
 51
110.0937761101
  0
ARC
  5
3A2
100
AcDbEntity
  8
0
100
AcDbCircle
 62
7
  6
CONTINUOUS
 10
6.2615056057
 20
4.0286813475
 40
0.005
100
AcDbArc
 50
90.0
 51
100.4756816964
  0
ARC
  5
3A3
100
AcDbEntity
  8
0
100
AcDbCircle
 62
7
  6
CONTINUOUS
 10
8.4804779798
 20
1.437388593
 40
1.5085537637
100
AcDbArc
 50
202.7738130326
 51
204.2990164986
  0
ARC
  5
3A4
100
AcDbEntity
  8
0
100
AcDbCircle
 62
7
  6
CONTINUOUS
 10
6.9847637098
 20
1.2609003444
 40
0.5525019084
100
AcDbArc
 50
281.0521728896
 51
283.065829557
  0
ARC
  5
3A5
100
AcDbEntity
  8
0
100
AcDbCircle
 62
7
  6
CONTINUOUS
 10
7.2692556057
 20
0.8646489436
 40
0.15
100
AcDbArc
 50
180.0
 51
207.4217466482
  0
ARC
  5
3A6
100
AcDbEntity
  8
0
100
AcDbCircle
 62
7
  6
CONTINUOUS
 10
7.2573173391
 20
0.7900848081
 40
0.127500428
100
AcDbArc
 50
204.6650105675
 51
205.0141562124
  0
ARC
  5
3A7
100
AcDbEntity
  8
0
100
AcDbCircle
 62
7
  6
CONTINUOUS
 10
7.2562504389
 20
0.7895945166
 40
0.1263262637
100
AcDbArc
 50
204.2245675894
 51
204.6648616149
  0
ARC
  5
3A8
100
AcDbEntity
  8
0
100
AcDbCircle
 62
7
  6
CONTINUOUS
 10
7.2376629351
 20
0.7727139762
 40
0.1014243506
100
AcDbArc
 50
221.3592695533
 51
223.1024261256
  0
ARC
  5
3A9
100
AcDbEntity
  8
0
100
AcDbCircle
 62
7
  6
CONTINUOUS
 10
7.2191430974
 20
0.7440980783
 40
0.05
100
AcDbArc
 50
207.4217466482
 51
270.0
  0
ARC
  5
3AA
100
AcDbEntity
  8
0
100
AcDbCircle
 62
7
  6
CONTINUOUS
 10
6.7032556057
 20
3.1193480783
 40
0.04725
100
AcDbArc
 50
270.0
 51
360.0
  0
ARC
  5
3AB
100
AcDbEntity
  8
0
100
AcDbCircle
 62
7
  6
CONTINUOUS
 10
7.075449868
 20
0.9265980783
 40
0.033
100
AcDbArc
 50
27.4217466482
 51
90.0
  0
ARC
  5
3AC
100
AcDbEntity
  8
0
100
AcDbCircle
 62
7
  6
CONTINUOUS
 10
7.1092556057
 20
0.9113824684
 40
0.01
100
AcDbArc
 50
0.0
 51
27.4217466482
  0
ARC
  5
3AD
100
AcDbEntity
  8
0
100
AcDbCircle
 62
7
  6
CONTINUOUS
 10
7.223251954
 20
0.6840980783
 40
0.01
100
AcDbArc
 50
0.8523769314
 51
90.0
  0
ARC
  5
3AE
100
AcDbEntity
  8
0
100
AcDbCircle
 62
7
  6
CONTINUOUS
 10
6.7455056057
 20
3.1750980783
 40
0.005
100
AcDbArc
 50
0.0
 51
90.0
  0
ARC
  5
3AF
100
AcDbEntity
  8
0
100
AcDbCircle
 62
7
  6
CONTINUOUS
 10
6.7261387113
 20
3.1850980783
 40
0.005
100
AcDbArc
 50
178.4948451459
 51
270.0
  0
ARC
  5
3B0
100
AcDbEntity
  8
0
100
AcDbCircle
 62
7
  6
CONTINUOUS
 10
6.8994545407
 20
4.3369677325
 40
0.148
100
AcDbArc
 50
153.4988282258
 51
178.4948451459
  0
ARC
  5
3B1
100
AcDbEntity
  8
0
100
AcDbCircle
 62
7
  6
CONTINUOUS
 10
7.0943204912
 20
3.9769527975
 40
0.1245
100
AcDbArc
 50
176.4793727013
 51
252.67989237
  0
ARC
  5
3B2
100
AcDbEntity
  8
0
100
AcDbCircle
 62
7
  6
CONTINUOUS
 10
7.0377556057
 20
3.7955680855
 40
0.0655
100
AcDbArc
 50
0.0
 51
72.67989237
  0
ARC
  5
3B3
100
AcDbEntity
  8
0
100
AcDbCircle
 62
7
  6
CONTINUOUS
 10
6.9115056057
 20
3.9745980783
 40
0.06
100
AcDbArc
 50
14.6803463995
 51
79.5243183036
  0
ARC
  5
3B4
100
AcDbEntity
  8
0
100
AcDbCircle
 62
7
  6
CONTINUOUS
 10
6.9535523315
 20
3.9856134162
 40
0.016534326
100
AcDbArc
 50
356.4793727013
 51
14.6803463995
  0
ARC
  5
3B5
100
AcDbEntity
  8
0
100
AcDbCircle
 62
7
  6
CONTINUOUS
 10
6.8965056057
 20
4.0195980783
 40
0.015
100
AcDbArc
 50
69.9062238899
 51
90.0
  0
ARC
  5
3B6
100
AcDbEntity
  8
0
100
AcDbCircle
 62
7
  6
CONTINUOUS
 10
6.9215056057
 20
4.0286813475
 40
0.005
100
AcDbArc
 50
79.5243183036
 51
90.0
  0
ARC
  5
3B7
100
AcDbEntity
  8
0
100
AcDbCircle
 62
6
  6
CONTINUOUS
 10
4.1948804867
 20
23.2843482606
 40
17.7281291803
100
AcDbArc
 50
264.9383317975
 51
265.2470649353
  0
ARC
  5
3B8
100
AcDbEntity
  8
0
100
AcDbCircle
 62
6
  6
CONTINUOUS
 10
3.4144775797
 20
10.3242357018
 40
4.453763799
100
AcDbArc
 50
261.1716380769
 51
261.5962658033
  0
ARC
  5
3B9
100
AcDbEntity
  8
0
100
AcDbCircle
 62
6
  6
CONTINUOUS
 10
22.9348159735
 20
0.276533499
 40
20.8958909741
100
AcDbArc
 50
165.4707318796
 51
166.1159780242
  0
ARC
  5
3BA
100
AcDbEntity
  8
0
100
AcDbCircle
 62
6
  6
CONTINUOUS
 10
57.7260512177
 20
-1.103542776
 40
55.4092084757
100
AcDbArc
 50
172.7195086979
 51
173.0332945632
  0
SPLINE
  5
3BB
100
AcDbEntity
  8
0
100
AcDbSpline
 62
7
  6
CONTINUOUS
 70
0
 71
3
 72
15
 73
11
 74
0
 42
0.0000001
 43
0.0000001
 44
0.0000000001
 40
0.0
 40
0.0
 40
0.0
 40
0.0
 40
0.1940727807
 40
0.3806906545
 40
0.552841061
 40
0.704173046
 40
0.8290283221
 40
0.9224483398
 40
0.9803621366
 40
1.0
 40
1.0
 40
1.0
 40
1.0
 10
3.3683169408
 20
6.2497399918
 30
0.0
 10
3.3688349324
 20
6.2531250818
 30
0.0
 10
3.3699974689
 20
6.2597437827
 30
0.0
 10
3.3720976436
 20
6.2692729236
 30
0.0
 10
3.3743869303
 20
6.2779801749
 30
0.0
 10
3.3766710626
 20
6.2855558683
 30
0.0
 10
3.3787410536
 20
6.2917413661
 30
0.0
 10
3.3803964786
 20
6.2963254108
 30
0.0
 10
3.3814675079
 20
6.2991458505
 30
0.0
 10
3.3819646985
 20
6.3004207681
 30
0.0
 10
3.3820913418
 20
6.3007433146
 30
0.0
  0
SPLINE
  5
3BC
100
AcDbEntity
  8
0
100
AcDbSpline
 62
7
  6
CONTINUOUS
 70
0
 71
3
 72
34
 73
30
 74
0
 42
0.0000001
 43
0.0000001
 44
0.0000000001
 40
0.0
 40
0.0
 40
0.0
 40
0.0
 40
0.0083428764
 40
0.0159480305
 40
0.0230326934
 40
0.0297770188
 40
0.042691119
 40
0.0552294683
 40
0.0676685827
 40
0.0801574219
 40
0.0927727164
 40
0.1055537258
 40
0.1316663347
 40
0.158554008
 40
0.186161878
 40
0.2144381049
 40
0.2433215532
 40
0.2727602545
 40
0.302700901
 40
0.3330993609
 40
0.3951142135
 40
0.4585686336
 40
0.5232417809
 40
0.5889823102
 40
0.6556590365
 40
0.723171045
 40
0.7914276696
 40
0.8603585566
 40
1.0
 40
1.0
 40
1.0
 40
1.0
 10
6.3980056057
 20
4.5025980783
 30
0.0
 10
6.3980056057
 20
4.5028932604
 30
0.0
 10
6.3980355136
 20
4.5034582118
 30
0.0
 10
6.3981744224
 20
4.5042630448
 30
0.0
 10
6.3983894713
 20
4.5049919881
 30
0.0
 10
6.3987504488
 20
4.5058678872
 30
0.0
 10
6.3993143865
 20
4.5068637096
 30
0.0
 10
6.4001431182
 20
4.5079223613
 30
0.0
 10
6.401078307
 20
4.5088653482
 30
0.0
 10
6.4021021302
 20
4.5097142374
 30
0.0
 10
6.4031972513
 20
4.5104890605
 30
0.0
 10
6.4047504536
 20
4.5114442526
 30
0.0
 10
6.4068268208
 20
4.5125040282
 30
0.0
 10
6.4094640917
 20
4.5135948746
 30
0.0
 10
6.4122311639
 20
4.5145578844
 30
0.0
 10
6.4151074121
 20
4.5154107915
 30
0.0
 10
6.4180756571
 20
4.5161729624
 30
0.0
 10
6.4211234439
 20
4.516855456
 30
0.0
 10
6.4242402038
 20
4.5174699429
 30
0.0
 10
6.4285052087
 20
4.5182134013
 30
0.0
 10
6.4339638357
 20
4.5190067513
 30
0.0
 10
6.4406478655
 20
4.5197763434
 30
0.0
 10
6.4474788414
 20
4.5204046856
 30
0.0
 10
6.4544342148
 20
4.5209095592
 30
0.0
 10
6.4614969179
 20
4.5213094848
 30
0.0
 10
6.4686533248
 20
4.5216161902
 30
0.0
 10
6.4758925064
 20
4.5218416304
 30
0.0
 10
6.4856850922
 20
4.5220452011
 30
0.0
 10
6.4930649056
 20
4.5220980783
 30
0.0
 10
6.4980056057
 20
4.5220980783
 30
0.0
  0
SPLINE
  5
3BD
100
AcDbEntity
  8
0
100
AcDbSpline
 62
7
  6
CONTINUOUS
 70
0
 71
3
 72
34
 73
30
 74
0
 42
0.0000001
 43
0.0000001
 44
0.0000000001
 40
0.0
 40
0.0
 40
0.0
 40
0.0
 40
0.0083428764
 40
0.0159480305
 40
0.0230326934
 40
0.0297770188
 40
0.042691119
 40
0.0552294683
 40
0.0676685827
 40
0.0801574219
 40
0.0927727164
 40
0.1055537258
 40
0.1316663347
 40
0.158554008
 40
0.186161878
 40
0.2144381049
 40
0.2433215532
 40
0.2727602545
 40
0.302700901
 40
0.3330993609
 40
0.3951142135
 40
0.4585686336
 40
0.5232417809
 40
0.5889823102
 40
0.6556590365
 40
0.723171045
 40
0.7914276696
 40
0.8603585566
 40
1.0
 40
1.0
 40
1.0
 40
1.0
 10
6.7850056057
 20
4.5025980783
 30
0.0
 10
6.7850056057
 20
4.5028932604
 30
0.0
 10
6.7849756979
 20
4.5034582118
 30
0.0
 10
6.7848367891
 20
4.5042630448
 30
0.0
 10
6.7846217401
 20
4.5049919881
 30
0.0
 10
6.7842607627
 20
4.5058678872
 30
0.0
 10
6.7836968249
 20
4.5068637096
 30
0.0
 10
6.7828680932
 20
4.5079223613
 30
0.0
 10
6.7819329044
 20
4.5088653482
 30
0.0
 10
6.7809090812
 20
4.5097142374
 30
0.0
 10
6.7798139602
 20
4.5104890605
 30
0.0
 10
6.7782607578
 20
4.5114442526
 30
0.0
 10
6.7761843906
 20
4.5125040282
 30
0.0
 10
6.7735471197
 20
4.5135948746
 30
0.0
 10
6.7707800475
 20
4.5145578844
 30
0.0
 10
6.7679037994
 20
4.5154107915
 30
0.0
 10
6.7649355544
 20
4.5161729624
 30
0.0
 10
6.7618877676
 20
4.516855456
 30
0.0
 10
6.7587710076
 20
4.5174699429
 30
0.0
 10
6.7545060028
 20
4.5182134013
 30
0.0
 10
6.7490473758
 20
4.5190067513
 30
0.0
 10
6.7423633459
 20
4.5197763434
 30
0.0
 10
6.73553237
 20
4.5204046856
 30
0.0
 10
6.7285769966
 20
4.5209095592
 30
0.0
 10
6.7215142935
 20
4.5213094848
 30
0.0
 10
6.7143578867
 20
4.5216161902
 30
0.0
 10
6.707118705
 20
4.5218416304
 30
0.0
 10
6.6973261192
 20
4.5220452011
 30
0.0
 10
6.6899463059
 20
4.5220980783
 30
0.0
 10
6.6850056057
 20
4.5220980783
 30
0.0
  0
SPLINE
  5
3BE
100
AcDbEntity
  8
0
100
AcDbSpline
 62
7
  6
CONTINUOUS
 70
0
 71
3
 72
17
 73
13
 74
0
 42
0.0000001
 43
0.0000001
 44
0.0000000001
 40
0.0
 40
0.0
 40
0.0
 40
0.0
 40
0.1257632479
 40
0.2506262095
 40
0.3747623059
 40
0.4984414649
 40
0.6220782457
 40
0.746326902
 40
0.8089897474
 40
0.8721670583
 40
0.9358972868
 40
1.0
 40
1.0
 40
1.0
 40
1.0
 10
6.6948182445
 20
2.3872893972
 30
0.0
 10
6.6911964817
 20
2.3842999952
 30
0.0
 10
6.6837204045
 20
2.3786478766
 30
0.0
 10
6.6718630797
 20
2.3711852199
 30
0.0
 10
6.6594807213
 20
2.364796609
 30
0.0
 10
6.6466410836
 20
2.35950497
 30
0.0
 10
6.6333929149
 20
2.3553275164
 30
0.0
 10
6.6220594885
 20
2.3527997528
 30
0.0
 10
6.6128299984
 20
2.3513608496
 30
0.0
 10
6.6057922688
 20
2.3505772986
 30
0.0
 10
6.5986733369
 20
2.3501033699
 30
0.0
 10
6.5938992703
 20
2.3499953495
 30
0.0
 10
6.5915056057
 20
2.3499953902
 30
0.0
  0
LINE
  5
3BF
100
AcDbEntity
  8
0
100
AcDbLine
 62
7
  6
CONTINUOUS
 10
2.5418541289
 20
5.3368600891
 11
2.4517132433
 21
5.3664603389
  0
SPLINE
  5
3C0
100
AcDbEntity
  8
0
100
AcDbSpline
 62
7
  6
CONTINUOUS
 70
0
 71
3
 72
17
 73
13
 74
0
 42
0.0000001
 43
0.0000001
 44
0.0000000001
 40
0.0
 40
0.0
 40
0.0
 40
0.0
 40
0.1252399452
 40
0.2504480221
 40
0.3131029097
 40
0.3757320897
 40
0.5007562377
 40
0.6256631415
 40
0.6881471787
 40
0.7506079121
 40
0.8753250149
 40
1.0
 40
1.0
 40
1.0
 40
1.0
 10
2.4517132443
 20
5.3664603402
 30
0.0
 10
2.4504871599
 20
5.36686049
 30
0.0
 10
2.4481113254
 20
5.3679150636
 30
0.0
 10
2.4454626077
 20
5.369791362
 30
0.0
 10
2.4435974224
 20
5.3715787604
 30
0.0
 10
2.4419192354
 20
5.3735401698
 30
0.0
 10
2.4401970505
 20
5.3762854573
 30
0.0
 10
2.4390414939
 20
5.3793111402
 30
0.0
 10
2.4384803924
 20
5.3818257894
 30
0.0
 10
2.4381648662
 20
5.3843809841
 30
0.0
 10
2.4382317232
 20
5.387612046
 30
0.0
 10
2.4387770383
 20
5.3901406225
 30
0.0
 10
2.4391681783
 20
5.3913635039
 30
0.0
  0
SPLINE
  5
3C1
100
AcDbEntity
  8
0
100
AcDbSpline
 62
7
  6
CONTINUOUS
 70
0
 71
3
 72
15
 73
11
 74
0
 42
0.0000001
 43
0.0000001
 44
0.0000000001
 40
0.0
 40
0.0
 40
0.0
 40
0.0
 40
0.1247443768
 40
0.2495204975
 40
0.3743650032
 40
0.4992995494
 40
0.6243377303
 40
0.7494798999
 40
0.874708262
 40
1.0
 40
1.0
 40
1.0
 40
1.0
 10
2.586268248
 20
5.8530355161
 30
0.0
 10
2.5866165243
 20
5.8541305659
 30
0.0
 10
2.5875045309
 20
5.8562651273
 30
0.0
 10
2.5893613672
 20
5.8591900875
 30
0.0
 10
2.5916923897
 20
5.8617573542
 30
0.0
 10
2.5944331474
 20
5.8638855265
 30
0.0
 10
2.5975030125
 20
5.8655095665
 30
0.0
 10
2.6008127123
 20
5.8665728838
 30
0.0
 10
2.6042586928
 20
5.8670398969
 30
0.0
 10
2.6065789506
 20
5.8669418537
 30
0.0
 10
2.6077228917
 20
5.8667887445
 30
0.0
  0
SPLINE
  5
3C2
100
AcDbEntity
  8
0
100
AcDbSpline
 62
7
  6
CONTINUOUS
 70
0
 71
3
 72
20
 73
16
 74
0
 42
0.0000001
 43
0.0000001
 44
0.0000000001
 40
0.0
 40
0.0
 40
0.0
 40
0.0
 40
0.1206248991
 40
0.2427737372
 40
0.304405098
 40
0.3663847355
 40
0.4286963689
 40
0.4913200893
 40
0.5542312763
 40
0.6174042011
 40
0.6808055789
 40
0.744401966
 40
0.8081601858
 40
0.8720460288
 40
1.0
 40
1.0
 40
1.0
 40
1.0
 10
6.408400833
 20
2.2473862011
 30
0.0
 10
6.4152510712
 20
2.2440351676
 30
0.0
 10
6.4292195752
 20
2.2376550826
 30
0.0
 10
6.4471392537
 20
2.2306106264
 30
0.0
 10
6.4618226554
 20
2.2255263387
 30
0.0
 10
6.4730341036
 20
2.2219908041
 30
0.0
 10
6.4844011911
 20
2.218755964
 30
0.0
 10
6.4959128828
 20
2.2158315172
 30
0.0
 10
6.5075566265
 20
2.2132254466
 30
0.0
 10
6.5193188893
 20
2.2109464358
 30
0.0
 10
6.5311851995
 20
2.2090030429
 30
0.0
 10
6.5431402449
 20
2.2074049777
 30
0.0
 10
6.5551678833
 20
2.2061570421
 30
0.0
 10
6.5712841816
 20
2.2049621619
 30
0.0
 10
6.5834163039
 20
2.2045991378
 30
0.0
 10
6.5915056057
 20
2.2045980783
 30
0.0
  0
SPLINE
  5
3C3
100
AcDbEntity
  8
0
100
AcDbSpline
 62
7
  6
CONTINUOUS
 70
0
 71
3
 72
11
 73
7
 74
0
 42
0.0000001
 43
0.0000001
 44
0.0000000001
 40
0.0
 40
0.0
 40
0.0
 40
0.0
 40
0.250033719
 40
0.502538352
 40
0.7538478689
 40
1.0
 40
1.0
 40
1.0
 40
1.0
 10
6.0358300967
 20
0.7241550029
 30
0.0
 10
6.0350573464
 20
0.7225028499
 30
0.0
 10
6.0334130541
 20
0.7192240595
 30
0.0
 10
6.0306871408
 20
0.7144451433
 30
0.0
 10
6.0277229419
 20
0.7098438458
 30
0.0
 10
6.0255895239
 20
0.7069054001
 30
0.0
 10
6.0244912798
 20
0.7054847935
 30
0.0
  0
LINE
  5
3C4
100
AcDbEntity
  8
0
100
AcDbLine
 62
7
  6
CONTINUOUS
 10
6.0770525111
 20
0.8157447634
 11
6.0364382454
 21
0.725480502
  0
SPLINE
  5
3C5
100
AcDbEntity
  8
0
100
AcDbSpline
 62
7
  6
CONTINUOUS
 70
0
 71
3
 72
10
 73
6
 74
0
 42
0.0000001
 43
0.0000001
 44
0.0000000001
 40
0.0
 40
0.0
 40
0.0
 40
0.0
 40
0.2485866656
 40
0.4982238941
 40
1.0
 40
1.0
 40
1.0
 40
1.0
 10
6.0934814207
 20
0.8534356753
 30
0.0
 10
6.0921960236
 20
0.850366458
 30
0.0
 10
6.0895921613
 20
0.8442266031
 30
0.0
 10
6.0842796357
 20
0.8319401759
 30
0.0
 10
6.080202607
 20
0.8227449798
 30
0.0
 10
6.0774463377
 20
0.8166199337
 30
0.0
  0
SPLINE
  5
3C6
100
AcDbEntity
  8
0
100
AcDbSpline
 62
7
  6
CONTINUOUS
 70
0
 71
3
 72
27
 73
23
 74
0
 42
0.0000001
 43
0.0000001
 44
0.0000000001
 40
0.0
 40
0.0
 40
0.0
 40
0.0
 40
0.0395937982
 40
0.0776947355
 40
0.1150937406
 40
0.1528575722
 40
0.1922388395
 40
0.2345576051
 40
0.2811475395
 40
0.3332629953
 40
0.3920310025
 40
0.4584908618
 40
0.4949247556
 40
0.5336269743
 40
0.5746729266
 40
0.6179885356
 40
0.6632931182
 40
0.7099794706
 40
0.7575159565
 40
0.8055465102
 40
0.9024449332
 40
1.0
 40
1.0
 40
1.0
 40
1.0
 10
6.1071634682
 20
0.9159878356
 30
0.0
 10
6.1075397573
 20
0.9159875783
 30
0.0
 10
6.1082795459
 20
0.9159387733
 30
0.0
 10
6.1093511378
 20
0.9156955973
 30
0.0
 10
6.1103473795
 20
0.9152712277
 30
0.0
 10
6.1112528157
 20
0.9146540843
 30
0.0
 10
6.112051587
 20
0.9138372018
 30
0.0
 10
6.1127289121
 20
0.9128153351
 30
0.0
 10
6.1132665707
 20
0.9115810091
 30
0.0
 10
6.1136461047
 20
0.9101278995
 30
0.0
 10
6.113846704
 20
0.9084498778
 30
0.0
 10
6.1138423273
 20
0.9069097819
 30
0.0
 10
6.1137287616
 20
0.9055683984
 30
0.0
 10
6.1135757377
 20
0.9044742983
 30
0.0
 10
6.1133516491
 20
0.903325867
 30
0.0
 10
6.1130543839
 20
0.9021294164
 30
0.0
 10
6.1126866098
 20
0.9008968635
 30
0.0
 10
6.1122679081
 20
0.8996385309
 30
0.0
 10
6.1118141917
 20
0.8983649381
 30
0.0
 10
6.111179951
 20
0.8966492514
 30
0.0
 10
6.1103552531
 20
0.8944972946
 30
0.0
 10
6.1096794603
 20
0.8927772458
 30
0.0
 10
6.1093381668
 20
0.8919152113
 30
0.0
  0
LINE
  5
3C7
100
AcDbEntity
  8
0
100
AcDbLine
 62
7
  6
CONTINUOUS
 10
6.1093381668
 20
0.8919152113
 11
6.1089439294
 21
0.890922338
  0
LINE
  5
3C8
100
AcDbEntity
  8
0
100
AcDbLine
 62
7
  6
CONTINUOUS
 10
6.1089439294
 20
0.890922338
 11
6.0939433591
 21
0.8545403534
  0
SPLINE
  5
3C9
100
AcDbEntity
  8
0
100
AcDbSpline
 62
7
  6
CONTINUOUS
 70
0
 71
3
 72
16
 73
12
 74
0
 42
0.0000001
 43
0.0000001
 44
0.0000000001
 40
0.0
 40
0.0
 40
0.0
 40
0.0
 40
0.0641050793
 40
0.1278356515
 40
0.2536503796
 40
0.3779025353
 40
0.5015431244
 40
0.6252261054
 40
0.7493660542
 40
0.8742328561
 40
1.0
 40
1.0
 40
1.0
 40
1.0
 10
6.5915056057
 20
2.3499953902
 30
0.0
 10
6.5891119243
 20
2.3499953636
 30
0.0
 10
6.5843377931
 20
2.350102677
 30
0.0
 10
6.5748851162
 20
2.3507331134
 30
0.0
 10
6.5632546422
 20
2.3522856115
 30
0.0
 10
6.5496187859
 20
2.3553274721
 30
0.0
 10
6.5363700524
 20
2.3595049265
 30
0.0
 10
6.5235305655
 20
2.3647966003
 30
0.0
 10
6.5111481435
 20
2.3711851968
 30
0.0
 10
6.4992908304
 20
2.3786478818
 30
0.0
 10
6.4918147357
 20
2.3842999945
 30
0.0
 10
6.4881929669
 20
2.3872893972
 30
0.0
  0
SPLINE
  5
3CA
100
AcDbEntity
  8
0
100
AcDbSpline
 62
7
  6
CONTINUOUS
 70
0
 71
3
 72
15
 73
11
 74
0
 42
0.0000001
 43
0.0000001
 44
0.0000000001
 40
0.0
 40
0.0
 40
0.0
 40
0.0
 40
0.1223738008
 40
0.245148274
 40
0.3684887296
 40
0.4926040405
 40
0.6176690004
 40
0.7438362868
 40
0.8712566917
 40
1.0
 40
1.0
 40
1.0
 40
1.0
 10
6.563636959
 20
0.725480502
 30
0.0
 10
6.5636366744
 20
0.7245029853
 30
0.0
 10
6.5635526046
 20
0.7225437274
 30
0.0
 10
6.563173305
 20
0.7196212568
 30
0.0
 10
6.562538722
 20
0.7167288825
 30
0.0
 10
6.5616492263
 20
0.7138853108
 30
0.0
 10
6.5605068375
 20
0.7111091235
 30
0.0
 10
6.5591156228
 20
0.7084190817
 30
0.0
 10
6.5574818191
 20
0.705834542
 30
0.0
 10
6.5562427757
 20
0.7042024353
 30
0.0
 10
6.5555870109
 20
0.7034102416
 30
0.0
  0
LINE
  5
3CB
100
AcDbEntity
  8
0
100
AcDbLine
 62
7
  6
CONTINUOUS
 10
6.5636655309
 20
0.8166199337
 11
6.563636959
 21
0.725480502
  0
SPLINE
  5
3CC
100
AcDbEntity
  8
0
100
AcDbSpline
 62
7
  6
CONTINUOUS
 70
0
 71
3
 72
12
 73
8
 74
0
 42
0.0000001
 43
0.0000001
 44
0.0000000001
 40
0.0
 40
0.0
 40
0.0
 40
0.0
 40
0.2499046933
 40
0.3748824227
 40
0.4998737129
 40
0.74990282
 40
1.0
 40
1.0
 40
1.0
 40
1.0
 10
6.5624327062
 20
0.8545403534
 30
0.0
 10
6.5626573639
 20
0.8513872391
 30
0.0
 10
6.5629361813
 20
0.8466529586
 30
0.0
 10
6.5632161653
 20
0.8403360938
 30
0.0
 10
6.5634403579
 20
0.8340153842
 30
0.0
 10
6.5636207942
 20
0.8261098154
 30
0.0
 10
6.5636666075
 20
0.8197834759
 30
0.0
 10
6.5636655309
 20
0.8166199337
 30
0.0
  0
SPLINE
  5
3CD
100
AcDbEntity
  8
0
100
AcDbSpline
 62
7
  6
CONTINUOUS
 70
0
 71
3
 72
37
 73
33
 74
0
 42
0.0000001
 43
0.0000001
 44
0.0000000001
 40
0.0
 40
0.0
 40
0.0
 40
0.0
 40
0.0677346949
 40
0.1349365986
 40
0.1682866913
 40
0.2014168199
 40
0.2667921237
 40
0.2990126464
 40
0.3308427514
 40
0.3622418633
 40
0.3777842131
 40
0.3932173883
 40
0.4085506668
 40
0.4161847254
 40
0.4238030007
 40
0.439008481
 40
0.4541844195
 40
0.4693502305
 40
0.484510732
 40
0.4996692874
 40
0.5148269305
 40
0.5451416743
 40
0.5754571965
 40
0.6057741018
 40
0.6360924661
 40
0.6664122646
 40
0.6967334082
 40
0.7573792661
 40
0.8180294116
 40
0.8786832205
 40
0.9393402112
 40
1.0
 40
1.0
 40
1.0
 40
1.0
 10
6.5283905385
 20
0.9159878356
 30
0.0
 10
6.530235605
 20
0.9159873369
 30
0.0
 10
6.5339144148
 20
0.915802587
 30
0.0
 10
6.5384484165
 20
0.9150466049
 30
0.0
 10
6.5419655495
 20
0.9140919073
 30
0.0
 10
6.5453579979
 20
0.9129066637
 30
0.0
 10
6.548580275
 20
0.9113415628
 30
0.0
 10
6.5515020783
 20
0.9093591091
 30
0.0
 10
6.553488015
 20
0.9076722263
 30
0.0
 10
6.5549413807
 20
0.9060834773
 30
0.0
 10
6.555940787
 20
0.9047074212
 30
0.0
 10
6.5565948765
 20
0.9036269632
 30
0.0
 10
6.5570547607
 20
0.9026856509
 30
0.0
 10
6.5573666095
 20
0.9019127973
 30
0.0
 10
6.5576426667
 20
0.901130164
 30
0.0
 10
6.5579306955
 20
0.900135062
 30
0.0
 10
6.5582091037
 20
0.8989256259
 30
0.0
 10
6.5584430601
 20
0.8977082791
 30
0.0
 10
6.558650574
 20
0.8964867242
 30
0.0
 10
6.5588371134
 20
0.8952620361
 30
0.0
 10
6.5590661051
 20
0.8936263967
 30
0.0
 10
6.5593227219
 20
0.8915778765
 30
0.0
 10
6.5596006048
 20
0.8891161111
 30
0.0
 10
6.5598567475
 20
0.8866518983
 30
0.0
 10
6.560096684
 20
0.8841859504
 30
0.0
 10
6.5603239545
 20
0.8817186911
 30
0.0
 10
6.5606135768
 20
0.8784275984
 30
0.0
 10
6.560955523
 20
0.8743117634
 30
0.0
 10
6.5613438115
 20
0.8693707454
 30
0.0
 10
6.561716751
 20
0.864428245
 30
0.0
 10
6.5620788321
 20
0.8594846771
 30
0.0
 10
6.5623152718
 20
0.8561885239
 30
0.0
 10
6.5624327062
 20
0.8545403534
 30
0.0
  0
SPLINE
  5
3CE
100
AcDbEntity
  8
0
100
AcDbSpline
 62
7
  6
CONTINUOUS
 70
0
 71
3
 72
35
 73
31
 74
0
 42
0.0000001
 43
0.0000001
 44
0.0000000001
 40
0.0
 40
0.0
 40
0.0
 40
0.0
 40
0.1353914752
 40
0.2031144249
 40
0.2708660381
 40
0.3386583036
 40
0.4065090965
 40
0.4404650868
 40
0.4744484738
 40
0.5084671985
 40
0.5425336605
 40
0.5766671599
 40
0.5937686294
 40
0.6109013306
 40
0.6280676403
 40
0.6452653498
 40
0.6624440126
 40
0.6795225457
 40
0.6964183884
 40
0.713062353
 40
0.7454469102
 40
0.776504282
 40
0.8061740118
 40
0.8613515156
 40
0.8870180479
 40
0.9115128613
 40
0.9349371572
 40
0.9574082181
 40
0.9790543267
 40
1.0
 40
1.0
 40
1.0
 40
1.0
 10
6.1230163013
 20
0.8545404408
 30
0.0
 10
6.1246277982
 20
0.8578374576
 30
0.0
 10
6.1270476548
 20
0.8627825301
 30
0.0
 10
6.1302848771
 20
0.8693721013
 30
0.0
 10
6.1327213637
 20
0.8743136075
 30
0.0
 10
6.1351695652
 20
0.8792531896
 30
0.0
 10
6.1372231346
 20
0.8833659837
 30
0.0
 10
6.1388786777
 20
0.8866532138
 30
0.0
 10
6.1401290998
 20
0.8891177149
 30
0.0
 10
6.1413906176
 20
0.8915799269
 30
0.0
 10
6.1426676553
 20
0.8940387144
 30
0.0
 10
6.1437503382
 20
0.8960817052
 30
0.0
 10
6.1446359497
 20
0.8977095107
 30
0.0
 10
6.1453138092
 20
0.8989267248
 30
0.0
 10
6.1460115714
 20
0.9001357277
 30
0.0
 10
6.1467404316
 20
0.9013278188
 30
0.0
 10
6.1475076143
 20
0.9024929611
 30
0.0
 10
6.1483191135
 20
0.9036177028
 30
0.0
 10
6.1491680022
 20
0.9046960755
 30
0.0
 10
6.150329563
 20
0.9060544267
 30
0.0
 10
6.1518339163
 20
0.9076223389
 30
0.0
 10
6.1537104
 20
0.9093134157
 30
0.0
 10
6.1561883306
 20
0.9112474505
 30
0.0
 10
6.1587394234
 20
0.912841418
 30
0.0
 10
6.1613188661
 20
0.9140706946
 30
0.0
 10
6.1631812254
 20
0.9147904607
 30
0.0
 10
6.1650114199
 20
0.9153365645
 30
0.0
 10
6.1668044209
 20
0.9157164116
 30
0.0
 10
6.1685558759
 20
0.9159383204
 30
0.0
 10
6.1697108498
 20
0.9159875727
 30
0.0
 10
6.1702785804
 20
0.9159878356
 30
0.0
  0
SPLINE
  5
3CF
100
AcDbEntity
  8
0
100
AcDbSpline
 62
7
  6
CONTINUOUS
 70
0
 71
3
 72
10
 73
6
 74
0
 42
0.0000001
 43
0.0000001
 44
0.0000000001
 40
0.0
 40
0.0
 40
0.0
 40
0.0
 40
0.4985936794
 40
0.7489233008
 40
1.0
 40
1.0
 40
1.0
 40
1.0
 10
6.1052864125
 20
0.8166199337
 30
0.0
 10
6.108139686
 20
0.8229653403
 30
0.0
 10
6.1124900926
 20
0.8324678044
 30
0.0
 10
6.1184399883
 20
0.845089869
 30
0.0
 10
6.1214778259
 20
0.8513927679
 30
0.0
 10
6.1230163013
 20
0.8545404408
 30
0.0
  0
LINE
  5
3D0
100
AcDbEntity
  8
0
100
AcDbLine
 62
7
  6
CONTINUOUS
 10
6.0698285312
 20
0.7377610694
 11
6.1052864125
 21
0.8166199337
  0
SPLINE
  5
3D1
100
AcDbEntity
  8
0
100
AcDbSpline
 62
7
  6
CONTINUOUS
 70
0
 71
3
 72
15
 73
11
 74
0
 42
0.0000001
 43
0.0000001
 44
0.0000000001
 40
0.0
 40
0.0
 40
0.0
 40
0.0
 40
0.101437415
 40
0.2103814034
 40
0.3267446957
 40
0.4501392719
 40
0.5799712856
 40
0.7154849924
 40
0.8558121777
 40
1.0
 40
1.0
 40
1.0
 40
1.0
 10
6.0630249162
 20
0.7034102416
 30
0.0
 10
6.0628280441
 20
0.7045932772
 30
0.0
 10
6.0625751342
 20
0.7070741337
 30
0.0
 10
6.0625813146
 20
0.7109425808
 30
0.0
 10
6.0629520844
 20
0.7150533799
 30
0.0
 10
6.0636758935
 20
0.7193664236
 30
0.0
 10
6.0647396912
 20
0.7238408922
 30
0.0
 10
6.0661277121
 20
0.7284347164
 30
0.0
 10
6.0678226165
 20
0.7331048998
 30
0.0
 10
6.0691294679
 20
0.736206247
 30
0.0
 10
6.0698285312
 20
0.7377610694
 30
0.0
  0
LINE
  5
3D2
100
AcDbEntity
  8
0
100
AcDbLine
 62
7
  6
CONTINUOUS
 10
7.0890678159
 20
0.8545404408
 11
7.0739828088
 21
0.8911346259
  0
LINE
  5
3D3
100
AcDbEntity
  8
0
100
AcDbLine
 62
7
  6
CONTINUOUS
 10
7.0739828088
 20
0.8911346259
 11
7.0736169256
 21
0.8920570197
  0
SPLINE
  5
3D4
100
AcDbEntity
  8
0
100
AcDbSpline
 62
7
  6
CONTINUOUS
 70
0
 71
3
 72
26
 73
22
 74
0
 42
0.0000001
 43
0.0000001
 44
0.0000000001
 40
0.0
 40
0.0
 40
0.0
 40
0.0
 40
0.0977223933
 40
0.1947671294
 40
0.2428542956
 40
0.2904345483
 40
0.3371067054
 40
0.3823539708
 40
0.425584038
 40
0.4665290977
 40
0.5414590415
 40
0.6077814223
 40
0.666454843
 40
0.718514288
 40
0.7650851863
 40
0.8074202889
 40
0.8468431845
 40
0.8846696029
 40
0.9221433465
 40
0.9603248524
 40
1.0
 40
1.0
 40
1.0
 40
1.0
 10
7.0736169256
 20
0.8920570197
 30
0.0
 10
7.0732771406
 20
0.8929159971
 30
0.0
 10
7.0726045097
 20
0.8946298089
 30
0.0
 10
7.0717840497
 20
0.8967738892
 30
0.0
 10
7.071154243
 20
0.8984832274
 30
0.0
 10
7.0707041344
 20
0.8997512642
 30
0.0
 10
7.0702908048
 20
0.9010036228
 30
0.0
 10
7.0699300222
 20
0.9022294874
 30
0.0
 10
7.0696391142
 20
0.9034183576
 30
0.0
 10
7.0693573943
 20
0.9048962323
 30
0.0
 10
7.06916623
 20
0.9066115139
 30
0.0
 10
7.0691680475
 20
0.9085055199
 30
0.0
 10
7.0693735514
 20
0.9101711367
 30
0.0
 10
7.0697561127
 20
0.9116134362
 30
0.0
 10
7.0702953444
 20
0.912838547
 30
0.0
 10
7.0709725513
 20
0.913853
 30
0.0
 10
7.0717703757
 20
0.9146637891
 30
0.0
 10
7.0726737981
 20
0.9152763387
 30
0.0
 10
7.0736671941
 20
0.9156976977
 30
0.0
 10
7.0747354008
 20
0.9159391179
 30
0.0
 10
7.0754727367
 20
0.91598757
 30
0.0
 10
7.0758477738
 20
0.9159878356
 30
0.0
  0
LINE
  5
3D5
100
AcDbEntity
  8
0
100
AcDbLine
 62
7
  6
CONTINUOUS
 10
7.1410479274
 20
0.7377610694
 11
7.1059587014
 21
0.8157447606
  0
SPLINE
  5
3D6
100
AcDbEntity
  8
0
100
AcDbSpline
 62
7
  6
CONTINUOUS
 70
0
 71
3
 72
13
 73
9
 74
0
 42
0.0000001
 43
0.0000001
 44
0.0000000001
 40
0.0
 40
0.0
 40
0.0
 40
0.0
 40
0.1182769767
 40
0.2400972881
 40
0.3646579338
 40
0.4911291865
 40
0.7465218796
 40
1.0
 40
1.0
 40
1.0
 40
1.0
 10
7.1615357453
 20
0.7056949501
 30
0.0
 10
7.1605861643
 20
0.7067728917
 30
0.0
 10
7.1587025468
 20
0.709000185
 30
0.0
 10
7.1559712392
 20
0.7124879052
 30
0.0
 10
7.1533092833
 20
0.7161526802
 30
0.0
 10
7.1498712072
 20
0.7212541982
 30
0.0
 10
7.1458932313
 20
0.7278738098
 30
0.0
 10
7.1430778005
 20
0.7333823694
 30
0.0
 10
7.1417760252
 20
0.7361722501
 30
0.0
  0
SPLINE
  5
3D7
100
AcDbEntity
  8
0
100
AcDbSpline
 62
7
  6
CONTINUOUS
 70
0
 71
3
 72
14
 73
10
 74
0
 42
0.0000001
 43
0.0000001
 44
0.0000000001
 40
0.0
 40
0.0
 40
0.0
 40
0.0
 40
0.2751333628
 40
0.4078549835
 40
0.5365184763
 40
0.6605453641
 40
0.7794090549
 40
0.8926812658
 40
1.0
 40
1.0
 40
1.0
 40
1.0
 10
7.1187043194
 20
0.725480502
 30
0.0
 10
7.1195661625
 20
0.7235636543
 30
0.0
 10
7.120739276
 20
0.7206725655
 30
0.0
 10
7.1220320236
 20
0.716782363
 30
0.0
 10
7.1228310108
 20
0.7139475324
 30
0.0
 10
7.1234630028
 20
0.7111792495
 30
0.0
 10
7.1239207427
 20
0.7084957597
 30
0.0
 10
7.1241975889
 20
0.7059158259
 30
0.0
 10
7.124259702
 20
0.7042300187
 30
0.0
 10
7.1242561398
 20
0.7034102416
 30
0.0
  0
LINE
  5
3D8
100
AcDbEntity
  8
0
100
AcDbLine
 62
7
  6
CONTINUOUS
 10
7.077724799
 20
0.8166199337
 11
7.1187043194
 21
0.725480502
  0
SPLINE
  5
3D9
100
AcDbEntity
  8
0
100
AcDbSpline
 62
7
  6
CONTINUOUS
 70
0
 71
3
 72
10
 73
6
 74
0
 42
0.0000001
 43
0.0000001
 44
0.0000000001
 40
0.0
 40
0.0
 40
0.0
 40
0.0
 40
0.2510767353
 40
0.50140628
 40
1.0
 40
1.0
 40
1.0
 40
1.0
 10
7.0599949529
 20
0.8545403534
 30
0.0
 10
7.0615334416
 20
0.8513926955
 30
0.0
 10
7.0645712607
 20
0.8450898062
 30
0.0
 10
7.0705211389
 20
0.8324677693
 30
0.0
 10
7.0748715329
 20
0.8229653266
 30
0.0
 10
7.077724799
 20
0.8166199337
 30
0.0
  0
SPLINE
  5
3DA
100
AcDbEntity
  8
0
100
AcDbSpline
 62
7
  6
CONTINUOUS
 70
0
 71
3
 72
35
 73
31
 74
0
 42
0.0000001
 43
0.0000001
 44
0.0000000001
 40
0.0
 40
0.0
 40
0.0
 40
0.0
 40
0.0209460099
 40
0.0425923083
 40
0.0650623844
 40
0.08848572
 40
0.1129801944
 40
0.1386456998
 40
0.1938237656
 40
0.2234955079
 40
0.2545567643
 40
0.2869458284
 40
0.3035929366
 40
0.3204866797
 40
0.3375664541
 40
0.3547421408
 40
0.3719362993
 40
0.3891022978
 40
0.4062337656
 40
0.423335111
 40
0.4574684661
 40
0.4915346468
 40
0.5255533282
 40
0.5595365475
 40
0.5934923512
 40
0.661342937
 40
0.7291349297
 40
0.7968863182
 40
0.8646090025
 40
1.0
 40
1.0
 40
1.0
 40
1.0
 10
7.0127312209
 20
0.9159880292
 30
0.0
 10
7.0132989712
 20
0.9159877759
 30
0.0
 10
7.0144539808
 20
0.9159384767
 30
0.0
 10
7.0162054505
 20
0.9157165652
 30
0.0
 10
7.0179984772
 20
0.9153369136
 30
0.0
 10
7.0198286792
 20
0.9147909089
 30
0.0
 10
7.021691013
 20
0.9140711586
 30
0.0
 10
7.0242706262
 20
0.9128421684
 30
0.0
 10
7.0268218157
 20
0.9112481483
 30
0.0
 10
7.0293000158
 20
0.9093140856
 30
0.0
 10
7.0311768004
 20
0.9076228483
 30
0.0
 10
7.0326814057
 20
0.9060546818
 30
0.0
 10
7.0338430762
 20
0.9046961925
 30
0.0
 10
7.034692253
 20
0.9036179199
 30
0.0
 10
7.0355031749
 20
0.9024928785
 30
0.0
 10
7.0362714559
 20
0.9013285903
 30
0.0
 10
7.0369987515
 20
0.9001357177
 30
0.0
 10
7.0376971424
 20
0.8989272257
 30
0.0
 10
7.0383750169
 20
0.8977100337
 30
0.0
 10
7.0392605814
 20
0.8960822121
 30
0.0
 10
7.040343258
 20
0.8940391852
 30
0.0
 10
7.0416203477
 20
0.8915803812
 30
0.0
 10
7.0428819093
 20
0.8891181487
 30
0.0
 10
7.0441323472
 20
0.8866536099
 30
0.0
 10
7.0457878809
 20
0.8833663153
 30
0.0
 10
7.0478415217
 20
0.8792534814
 30
0.0
 10
7.0502897341
 20
0.8743138114
 30
0.0
 10
7.0527262749
 20
0.8693722406
 30
0.0
 10
7.0559635297
 20
0.8627825622
 30
0.0
 10
7.0583834318
 20
0.8578374201
 30
0.0
 10
7.0599949529
 20
0.8545403534
 30
0.0
  0
SPLINE
  5
3DB
100
AcDbEntity
  8
0
100
AcDbSpline
 62
7
  6
CONTINUOUS
 70
0
 71
3
 72
37
 73
33
 74
0
 42
0.0000001
 43
0.0000001
 44
0.0000000001
 40
0.0
 40
0.0
 40
0.0
 40
0.0
 40
0.1213088497
 40
0.1819587112
 40
0.2426049075
 40
0.3032468186
 40
0.3335659782
 40
0.3638837965
 40
0.3942001875
 40
0.4245151014
 40
0.4548286245
 40
0.4851412729
 40
0.5154548054
 40
0.5306142018
 40
0.5381956587
 40
0.5457790802
 40
0.5609534737
 40
0.5761543174
 40
0.5837710281
 40
0.5914055236
 40
0.6067359749
 40
0.6221670758
 40
0.6377101769
 40
0.6691109001
 40
0.7009430623
 40
0.733163983
 40
0.7657301585
 40
0.7985980574
 40
0.831725836
 40
0.8650735239
 40
0.9322699989
 40
1.0
 40
1.0
 40
1.0
 40
1.0
 10
6.6205785115
 20
0.8545404408
 30
0.0
 10
6.6208133798
 20
0.8578367809
 30
0.0
 10
6.6211701951
 20
0.8627808538
 30
0.0
 10
6.6216674235
 20
0.8693711756
 30
0.0
 10
6.6220557484
 20
0.8743123054
 30
0.0
 10
6.6223976609
 20
0.8784282384
 30
0.0
 10
6.6226873127
 20
0.8817194047
 30
0.0
 10
6.6229146413
 20
0.8841867151
 30
0.0
 10
6.623154512
 20
0.8866527272
 30
0.0
 10
6.6234106718
 20
0.8891169909
 30
0.0
 10
6.6236885749
 20
0.8915788212
 30
0.0
 10
6.6239968917
 20
0.8940370101
 30
0.0
 10
6.6242920276
 20
0.8960806018
 30
0.0
 10
6.6245333668
 20
0.8975057225
 30
0.0
 10
6.6246856711
 20
0.8983176789
 30
0.0
 10
6.6248489217
 20
0.8991279195
 30
0.0
 10
6.625080865
 20
0.9001359627
 30
0.0
 10
6.6253680317
 20
0.901131193
 30
0.0
 10
6.6256443564
 20
0.9019136639
 30
0.0
 10
6.6259571913
 20
0.9026860658
 30
0.0
 10
6.6264160719
 20
0.9036278127
 30
0.0
 10
6.6270709032
 20
0.904707867
 30
0.0
 10
6.6280702172
 20
0.9060841355
 30
0.0
 10
6.6295239966
 20
0.9076730244
 30
0.0
 10
6.6315101828
 20
0.9093598795
 30
0.0
 10
6.6336920656
 20
0.9108402436
 30
0.0
 10
6.6360297159
 20
0.9121177514
 30
0.0
 10
6.6384905469
 20
0.913199264
 30
0.0
 10
6.6410478141
 20
0.9140927234
 30
0.0
 10
6.6445647301
 20
0.9150469475
 30
0.0
 10
6.649098986
 20
0.9158028597
 30
0.0
 10
6.6527777983
 20
0.9159875025
 30
0.0
 10
6.6546228996
 20
0.9159880183
 30
0.0
  0
SPLINE
  5
3DC
100
AcDbEntity
  8
0
100
AcDbSpline
 62
7
  6
CONTINUOUS
 70
0
 71
3
 72
12
 73
8
 74
0
 42
0.0000001
 43
0.0000001
 44
0.0000000001
 40
0.0
 40
0.0
 40
0.0
 40
0.0
 40
0.2500971999
 40
0.5001263624
 40
0.62511764
 40
0.7500952958
 40
1.0
 40
1.0
 40
1.0
 40
1.0
 10
6.6193456805
 20
0.8166199337
 30
0.0
 10
6.6193446043
 20
0.8197834834
 30
0.0
 10
6.6193904158
 20
0.8261098384
 30
0.0
 10
6.6195708622
 20
0.8340154258
 30
0.0
 10
6.6197950598
 20
0.8403361494
 30
0.0
 10
6.620075072
 20
0.8466530266
 30
0.0
 10
6.6203538801
 20
0.8513873172
 30
0.0
 10
6.6205785115
 20
0.8545404408
 30
0.0
  0
LINE
  5
3DD
100
AcDbEntity
  8
0
100
AcDbLine
 62
7
  6
CONTINUOUS
 10
6.6193708529
 20
0.7377610694
 11
6.6193456805
 21
0.8166199337
  0
SPLINE
  5
3DE
100
AcDbEntity
  8
0
100
AcDbSpline
 62
7
  6
CONTINUOUS
 70
0
 71
3
 72
15
 73
11
 74
0
 42
0.0000001
 43
0.0000001
 44
0.0000000001
 40
0.0
 40
0.0
 40
0.0
 40
0.0
 40
0.1300210677
 40
0.2583540028
 40
0.3850426161
 40
0.5102067858
 40
0.6340318477
 40
0.7567541286
 40
0.8786463914
 40
1.0
 40
1.0
 40
1.0
 40
1.0
 10
6.6351289456
 20
0.7034102416
 30
0.0
 10
6.6338800456
 20
0.7045430405
 30
0.0
 10
6.6315058716
 20
0.7069159752
 30
0.0
 10
6.6283365564
 20
0.7107848519
 30
0.0
 10
6.6256109524
 20
0.7149037176
 30
0.0
 10
6.6233526432
 20
0.7192304619
 30
0.0
 10
6.6215805023
 20
0.7237229369
 30
0.0
 10
6.6203074944
 20
0.728337764
 30
0.0
 10
6.6195421539
 20
0.7330303738
 30
0.0
 10
6.6193713416
 20
0.736187354
 30
0.0
 10
6.6193708529
 20
0.7377610694
 30
0.0
  0
SPLINE
  5
3DF
100
AcDbEntity
  8
0
100
AcDbSpline
 62
7
  6
CONTINUOUS
 70
0
 71
3
 72
34
 73
30
 74
0
 42
0.0000001
 43
0.0000001
 44
0.0000000001
 40
0.0
 40
0.0
 40
0.0
 40
0.0
 40
0.0001319649
 40
0.000359274
 40
0.0011803056
 40
0.002521715
 40
0.0043974865
 40
0.0068168633
 40
0.0097877423
 40
0.0133174948
 40
0.0174132452
 40
0.027330596
 40
0.0395950404
 40
0.0542612111
 40
0.0713834914
 40
0.0909946234
 40
0.1130417878
 40
0.1374508746
 40
0.1641477349
 40
0.1930581952
 40
0.224108066
 40
0.2923292183
 40
0.3680878064
 40
0.4501426018
 40
0.5371231419
 40
0.6276589144
 40
0.7204115449
 40
0.8141711517
 40
1.0
 40
1.0
 40
1.0
 40
1.0
 10
2.6109728091
 20
5.8930292042
 30
0.0
 10
2.610973962
 20
5.8930290486
 30
0.0
 10
2.6109764603
 20
5.8930264577
 30
0.0
 10
2.6109795451
 20
5.8930166337
 30
0.0
 10
2.6109819709
 20
5.892995448
 30
0.0
 10
2.610982992
 20
5.892959966
 30
0.0
 10
2.6109823505
 20
5.8929102201
 30
0.0
 10
2.6109798709
 20
5.8928462299
 30
0.0
 10
2.6109755116
 20
5.8927677058
 30
0.0
 10
2.6109692183
 20
5.8926745056
 30
0.0
 10
2.6109574199
 20
5.8925203031
 30
0.0
 10
2.6109372726
 20
5.8922895239
 30
0.0
 10
2.6109062406
 20
5.8919661707
 30
0.0
 10
2.6108667251
 20
5.8915798321
 30
0.0
 10
2.6108185099
 20
5.8911292858
 30
0.0
 10
2.6107614813
 20
5.8906142472
 30
0.0
 10
2.6106957351
 20
5.8900355465
 30
0.0
 10
2.6106214584
 20
5.8893949501
 30
0.0
 10
2.6105388651
 20
5.8886944101
 30
0.0
 10
2.6104481705
 20
5.8879358784
 30
0.0
 10
2.6103124051
 20
5.8868140684
 30
0.0
 10
2.6101240238
 20
5.8852826206
 30
0.0
 10
2.6098766621
 20
5.8833054053
 30
0.0
 10
2.609605279
 20
5.8811645341
 30
0.0
 10
2.6093144056
 20
5.8788948239
 30
0.0
 10
2.609008693
 20
5.8765319383
 30
0.0
 10
2.608692614
 20
5.8741101358
 30
0.0
 10
2.6082646081
 20
5.870855754
 30
0.0
 10
2.6079399817
 20
5.8684124873
 30
0.0
 10
2.6077228919
 20
5.8667887445
 30
0.0
  0
SPLINE
  5
3E0
100
AcDbEntity
  8
0
100
AcDbSpline
 62
7
  6
CONTINUOUS
 70
0
 71
3
 72
28
 73
24
 74
0
 42
0.0000001
 43
0.0000001
 44
0.0000000001
 40
0.0
 40
0.0
 40
0.0
 40
0.0
 40
0.0021415272
 40
0.0044166307
 40
0.0069246107
 40
0.0097444746
 40
0.0165351999
 40
0.0251239185
 40
0.0357060544
 40
0.0484182296
 40
0.0633675849
 40
0.0806453634
 40
0.1003164836
 40
0.1223710771
 40
0.1734993156
 40
0.2336644872
 40
0.3021234632
 40
0.3779530535
 40
0.4599067383
 40
0.5466105502
 40
0.6365158664
 40
0.820020587
 40
1.0
 40
1.0
 40
1.0
 40
1.0
 10
2.5575119725
 20
5.8591976003
 30
0.0
 10
2.5575184118
 20
5.8592178103
 30
0.0
 10
2.5575368123
 20
5.8592580166
 30
0.0
 10
2.55757892
 20
5.8593127602
 30
0.0
 10
2.557635702
 20
5.8593628098
 30
0.0
 10
2.5577373805
 20
5.859427312
 30
0.0
 10
2.5579066043
 20
5.8594933659
 30
0.0
 10
2.5581579531
 20
5.859549773
 30
0.0
 10
2.5584719718
 20
5.8595870792
 30
0.0
 10
2.5588505924
 20
5.8596042362
 30
0.0
 10
2.5592958533
 20
5.8596001718
 30
0.0
 10
2.5598093252
 20
5.8595737991
 30
0.0
 10
2.5603917138
 20
5.859524226
 30
0.0
 10
2.5613057369
 20
5.8594215874
 30
0.0
 10
2.5626127869
 20
5.8592292575
 30
0.0
 10
2.5643653504
 20
5.8589147203
 30
0.0
 10
2.5663494815
 20
5.8585089315
 30
0.0
 10
2.568535706
 20
5.8580166869
 30
0.0
 10
2.5708893029
 20
5.8574466714
 30
0.0
 10
2.5733696608
 20
5.8568089124
 30
0.0
 10
2.5768130372
 20
5.8558785066
 30
0.0
 10
2.5811283386
 20
5.8546347206
 30
0.0
 10
2.5845692989
 20
5.8535752614
 30
0.0
 10
2.5862682478
 20
5.8530355154
 30
0.0
  0
SPLINE
  5
3E1
100
AcDbEntity
  8
0
100
AcDbSpline
 62
7
  6
CONTINUOUS
 70
0
 71
3
 72
28
 73
24
 74
0
 42
0.0000001
 43
0.0000001
 44
0.0000000001
 40
0.0
 40
0.0
 40
0.0
 40
0.0
 40
0.0021448025
 40
0.0044230286
 40
0.0069338763
 40
0.0097563174
 40
0.016551365
 40
0.0251434909
 40
0.0357283083
 40
0.0484425593
 40
0.0633934524
 40
0.0806722651
 40
0.1003440618
 40
0.1223991056
 40
0.1735274821
 40
0.2336919031
 40
0.3021493781
 40
0.3779767909
 40
0.4599277947
 40
0.5466285091
 40
0.6365304898
 40
0.8200279745
 40
1.0
 40
1.0
 40
1.0
 40
1.0
 10
2.4121490577
 20
5.4029776421
 30
0.0
 10
2.4121426071
 20
5.4029574008
 30
0.0
 10
2.4121343329
 20
5.4029138994
 30
0.0
 10
2.4121369738
 20
5.4028447911
 30
0.0
 10
2.4121543006
 20
5.4027710195
 30
0.0
 10
2.4121998699
 20
5.4026594531
 30
0.0
 10
2.4122996255
 20
5.4025075027
 30
0.0
 10
2.4124719536
 20
5.4023158771
 30
0.0
 10
2.4127064489
 20
5.402103577
 30
0.0
 10
2.4130052932
 20
5.40187034
 30
0.0
 10
2.4133707686
 20
5.4016158617
 30
0.0
 10
2.4138047854
 20
5.4013401202
 30
0.0
 10
2.4143084376
 20
5.4010434354
 30
0.0
 10
2.4151132647
 20
5.4005981052
 30
0.0
 10
2.4162905468
 20
5.3999985062
 30
0.0
 10
2.4179019163
 20
5.3992408201
 30
0.0
 10
2.4197549663
 20
5.3984236253
 30
0.0
 10
2.4218228835
 20
5.3975600679
 30
0.0
 10
2.4240723238
 20
5.396663154
 30
0.0
 10
2.4264643631
 20
5.3957482027
 30
0.0
 10
2.4298112006
 20
5.394514812
 30
0.0
 10
2.4340505554
 20
5.3930326632
 30
0.0
 10
2.4374701451
 20
5.3919061234
 30
0.0
 10
2.4391681785
 20
5.3913635046
 30
0.0
  0
SPLINE
  5
3E2
100
AcDbEntity
  8
0
100
AcDbSpline
 62
7
  6
CONTINUOUS
 70
0
 71
3
 72
16
 73
12
 74
0
 42
0.0000001
 43
0.0000001
 44
0.0000000001
 40
0.0
 40
0.0
 40
0.0
 40
0.0
 40
0.0593440192
 40
0.1199871166
 40
0.2438250561
 40
0.3695681096
 40
0.4959343344
 40
0.6222837403
 40
0.7484012222
 40
0.8742855999
 40
1.0
 40
1.0
 40
1.0
 40
1.0
 10
6.5555870021
 20
0.7034102416
 30
0.0
 10
6.5551343129
 20
0.7027047306
 30
0.0
 10
6.5541726936
 20
0.701307414
 30
0.0
 10
6.5520494291
 20
0.698593628
 30
0.0
 10
6.5490355472
 20
0.6953956085
 30
0.0
 10
6.5449247716
 20
0.6920117114
 30
0.0
 10
6.5403857105
 20
0.6891592834
 30
0.0
 10
6.5355075625
 20
0.6869222893
 30
0.0
 10
6.5303857728
 20
0.685343738
 30
0.0
 10
6.5251153363
 20
0.684431932
 30
0.0
 10
6.5215575695
 20
0.6842468422
 30
0.0
 10
6.5197818073
 20
0.6842468407
 30
0.0
  0
SPLINE
  5
3E3
100
AcDbEntity
  8
0
100
AcDbSpline
 62
7
  6
CONTINUOUS
 70
0
 71
3
 72
23
 73
19
 74
0
 42
0.0000001
 43
0.0000001
 44
0.0000000001
 40
0.0
 40
0.0
 40
0.0
 40
0.0
 40
0.0910304603
 40
0.1793710372
 40
0.2644331016
 40
0.3457431514
 40
0.4228905614
 40
0.4956129826
 40
0.563758973
 40
0.6272571405
 40
0.6861564308
 40
0.740632633
 40
0.7909919401
 40
0.837669607
 40
0.8812257425
 40
0.9223256143
 40
0.9616880838
 40
1.0
 40
1.0
 40
1.0
 40
1.0
 10
6.0228364728
 20
0.7034102416
 30
0.0
 10
6.0223278321
 20
0.7027224045
 30
0.0
 10
6.0213345669
 20
0.7013604005
 30
0.0
 10
6.019888611
 20
0.6993393205
 30
0.0
 10
6.0185029783
 20
0.697387441
 30
0.0
 10
6.0171729929
 20
0.695525051
 30
0.0
 10
6.0158919738
 20
0.693770265
 30
0.0
 10
6.0146539126
 20
0.6921375919
 30
0.0
 10
6.0134524615
 20
0.6906388098
 30
0.0
 10
6.0122800199
 20
0.6892846071
 30
0.0
 10
6.0111300837
 20
0.6880831581
 30
0.0
 10
6.0099964713
 20
0.6870407777
 30
0.0
 10
6.0088743378
 20
0.6861614095
 30
0.0
 10
6.00775968
 20
0.6854476613
 30
0.0
 10
6.0066503471
 20
0.6849001606
 30
0.0
 10
6.0055460968
 20
0.6845170735
 30
0.0
 10
6.0044489593
 20
0.6842945954
 30
0.0
 10
6.0037180538
 20
0.6842468415
 30
0.0
 10
6.0033580113
 20
0.6842468407
 30
0.0
  0
SPLINE
  5
3E4
100
AcDbEntity
  8
0
100
AcDbSpline
 62
7
  6
CONTINUOUS
 70
0
 71
3
 72
21
 73
17
 74
0
 42
0.0000001
 43
0.0000001
 44
0.0000000001
 40
0.0
 40
0.0
 40
0.0
 40
0.0
 40
0.0591328097
 40
0.1179977153
 40
0.176797292
 40
0.2357447091
 40
0.2950623086
 40
0.3549283626
 40
0.4154840865
 40
0.4768302913
 40
0.6019500673
 40
0.7306487471
 40
0.7964744042
 40
0.8632616943
 40
0.9310791817
 40
1.0
 40
1.0
 40
1.0
 40
1.0
 10
6.0841010474
 20
0.6842468407
 30
0.0
 10
6.083477259
 20
0.6842468411
 30
0.0
 10
6.0822320857
 20
0.6842794089
 30
0.0
 10
6.0803735883
 20
0.6844550296
 30
0.0
 10
6.0785371871
 20
0.6847825698
 30
0.0
 10
6.0767320287
 20
0.6852723557
 30
0.0
 10
6.0749696944
 20
0.6859325176
 30
0.0
 10
6.0732630865
 20
0.6867653028
 30
0.0
 10
6.0716266108
 20
0.6877706342
 30
0.0
 10
6.0695467518
 20
0.6893462937
 30
0.0
 10
6.0672058159
 20
0.6917394462
 30
0.0
 10
6.0653622767
 20
0.6945929068
 30
0.0
 10
6.0642423325
 20
0.6971164804
 30
0.0
 10
6.063595319
 20
0.6991340082
 30
0.0
 10
6.0631687953
 20
0.701242525
 30
0.0
 10
6.063045063
 20
0.7026834798
 30
0.0
 10
6.0630249025
 20
0.7034102416
 30
0.0
  0
SPLINE
  5
3E5
100
AcDbEntity
  8
0
100
AcDbSpline
 62
7
  6
CONTINUOUS
 70
0
 71
3
 72
15
 73
11
 74
0
 42
0.0000001
 43
0.0000001
 44
0.0000000001
 40
0.0
 40
0.0
 40
0.0
 40
0.0
 40
0.1251102001
 40
0.2504213414
 40
0.3760065521
 40
0.501917662
 40
0.6280463675
 40
0.7539319673
 40
0.8785294786
 40
1.0
 40
1.0
 40
1.0
 40
1.0
 10
6.678072598
 20
0.6842468407
 30
0.0
 10
6.6760458743
 20
0.6842468416
 30
0.0
 10
6.6719859226
 20
0.6843797252
 30
0.0
 10
6.6659364842
 20
0.6851864641
 30
0.0
 10
6.6600026194
 20
0.6866759809
 30
0.0
 10
6.6542718853
 20
0.6888564769
 30
0.0
 10
6.6488310876
 20
0.6916929809
 30
0.0
 10
6.6437648197
 20
0.6951151625
 30
0.0
 10
6.6391625231
 20
0.6990214561
 30
0.0
 10
6.636407354
 20
0.7019143265
 30
0.0
 10
6.6351289456
 20
0.7034102416
 30
0.0
  0
SPLINE
  5
3E6
100
AcDbEntity
  8
0
100
AcDbSpline
 62
7
  6
CONTINUOUS
 70
0
 71
3
 72
21
 73
17
 74
0
 42
0.0000001
 43
0.0000001
 44
0.0000000001
 40
0.0
 40
0.0
 40
0.0
 40
0.0
 40
0.144259338
 40
0.2821733875
 40
0.3488745897
 40
0.4140459536
 40
0.4777263471
 40
0.5399433699
 40
0.6007557776
 40
0.6602485772
 40
0.7185553874
 40
0.7758517456
 40
0.8323582539
 40
0.8883556192
 40
0.9441374956
 40
1.0
 40
1.0
 40
1.0
 40
1.0
 10
7.1242561398
 20
0.7034102416
 30
0.0
 10
7.1243891114
 20
0.7020510468
 30
0.0
 10
7.1243637218
 20
0.6993556737
 30
0.0
 10
7.1236235823
 20
0.6961099699
 30
0.0
 10
7.1226603943
 20
0.6937399917
 30
0.0
 10
7.1217849705
 20
0.692104806
 30
0.0
 10
7.1207680116
 20
0.6906049991
 30
0.0
 10
7.1196265555
 20
0.6892511845
 30
0.0
 10
7.1183783449
 20
0.6880517545
 30
0.0
 10
7.117040334
 20
0.6870127768
 30
0.0
 10
7.1156285103
 20
0.6861383046
 30
0.0
 10
7.1141576071
 20
0.6854303767
 30
0.0
 10
7.1126409009
 20
0.6848890248
 30
0.0
 10
7.1110902568
 20
0.6845113587
 30
0.0
 10
7.1095158628
 20
0.6842928057
 30
0.0
 10
7.1084582443
 20
0.6842468415
 30
0.0
 10
7.1079294015
 20
0.6842468407
 30
0.0
  0
LINE
  5
3E7
100
AcDbEntity
  8
0
100
AcDbLine
 62
7
  6
CONTINUOUS
 10
2.4436900544
 20
5.3412796414
 11
2.4517132445
 21
5.3664603401
  0
SPLINE
  5
3E8
100
AcDbEntity
  8
0
100
AcDbSpline
 62
7
  6
CONTINUOUS
 70
0
 71
3
 72
22
 73
18
 74
0
 42
0.0000001
 43
0.0000001
 44
0.0000000001
 40
0.0
 40
0.0
 40
0.0
 40
0.0
 40
0.03898793
 40
0.0788553851
 40
0.1201787565
 40
0.1636303959
 40
0.2098918227
 40
0.2595735004
 40
0.3131803668
 40
0.3710951396
 40
0.4335828908
 40
0.5007989122
 40
0.572794051
 40
0.6495332506
 40
0.7308943294
 40
0.8166476276
 40
1.0
 40
1.0
 40
1.0
 40
1.0
 10
7.1854771563
 20
0.6842468407
 30
0.0
 10
7.1850873259
 20
0.6842468411
 30
0.0
 10
7.184298225
 20
0.6842807318
 30
0.0
 10
7.1831073334
 20
0.6844594797
 30
0.0
 10
7.1819031183
 20
0.6847922153
 30
0.0
 10
7.1806874753
 20
0.6852885713
 30
0.0
 10
7.179460914
 20
0.6859558104
 30
0.0
 10
7.178221008
 20
0.6867951591
 30
0.0
 10
7.1769634552
 20
0.6878057606
 30
0.0
 10
7.1756823328
 20
0.6889845044
 30
0.0
 10
7.1743701817
 20
0.6903261182
 30
0.0
 10
7.1730190053
 20
0.6918238266
 30
0.0
 10
7.1716196812
 20
0.6934685304
 30
0.0
 10
7.1701631725
 20
0.6952495474
 30
0.0
 10
7.1686406316
 20
0.6971540024
 30
0.0
 10
7.166461943
 20
0.6998985701
 30
0.0
 10
7.1647778634
 20
0.7019973781
 30
0.0
 10
7.1636096241
 20
0.7034102416
 30
0.0
  0
SPLINE
  5
3E9
100
AcDbEntity
  8
0
100
AcDbSpline
 62
7
  6
CONTINUOUS
 70
0
 71
3
 72
15
 73
11
 74
0
 42
0.0000001
 43
0.0000001
 44
0.0000000001
 40
0.0
 40
0.0
 40
0.0
 40
0.0
 40
0.1297036782
 40
0.1944643788
 40
0.2590669803
 40
0.3875561
 40
0.5146849537
 40
0.7629074616
 40
0.8830765052
 40
1.0
 40
1.0
 40
1.0
 40
1.0
 10
6.673762094
 20
0.8646489436
 30
0.0
 10
6.6741438532
 20
0.8616780352
 30
0.0
 10
6.6746589912
 20
0.8572162891
 30
0.0
 10
6.6752613396
 20
0.8512638558
 30
0.0
 10
6.6758128763
 20
0.8453346236
 30
0.0
 10
6.6764161787
 20
0.8379639573
 30
0.0
 10
6.6772303012
 20
0.8263567783
 30
0.0
 10
6.677885598
 20
0.8149316782
 30
0.0
 10
6.6784249417
 20
0.803736931
 30
0.0
 10
6.6786581657
 20
0.7982665187
 30
0.0
 10
6.6787649135
 20
0.7955684353
 30
0.0
  0
SPLINE
  5
3EA
100
AcDbEntity
  8
0
100
AcDbSpline
 62
7
  6
CONTINUOUS
 70
0
 71
3
 72
14
 73
10
 74
0
 42
0.0000001
 43
0.0000001
 44
0.0000000001
 40
0.0
 40
0.0
 40
0.0
 40
0.0
 40
0.1230632184
 40
0.2468443231
 40
0.4961397527
 40
0.6216113796
 40
0.7474663673
 40
0.8736311468
 40
1.0
 40
1.0
 40
1.0
 40
1.0
 10
7.0134233904
 20
0.7955684353
 30
0.0
 10
7.0122778565
 20
0.7982333714
 30
0.0
 10
7.0101391713
 20
0.8036490163
 30
0.0
 10
7.0064887949
 20
0.8147640606
 30
0.0
 10
7.0038130317
 20
0.8262403961
 30
0.0
 10
7.0021642061
 20
0.8379301159
 30
0.0
 10
7.0014599411
 20
0.8468061338
 30
0.0
 10
7.0013103851
 20
0.8557293385
 30
0.0
 10
7.0015937255
 20
0.8616802332
 30
0.0
 10
7.0018366061
 20
0.8646489436
 30
0.0
  0
LINE
  5
3EB
100
AcDbEntity
  8
0
100
AcDbLine
 62
7
  6
CONTINUOUS
 10
6.6787649135
 20
0.7955684353
 11
6.6792123478
 21
0.7210712422
  0
LINE
  5
3EC
100
AcDbEntity
  8
0
100
AcDbLine
 62
7
  6
CONTINUOUS
 10
7.0470227309
 20
0.7210712422
 11
7.0134233904
 21
0.7955684353
  0
SPLINE
  5
3ED
100
AcDbEntity
  8
0
100
AcDbSpline
 62
7
  6
CONTINUOUS
 70
0
 71
3
 72
19
 73
15
 74
0
 42
0.0000001
 43
0.0000001
 44
0.0000000001
 40
0.0
 40
0.0
 40
0.0
 40
0.0
 40
0.1203911074
 40
0.2421974996
 40
0.3655246221
 40
0.4903497557
 40
0.5533005081
 40
0.6165582209
 40
0.6800850848
 40
0.7438339591
 40
0.8077546084
 40
0.8717951173
 40
0.9359056688
 40
1.0
 40
1.0
 40
1.0
 40
1.0
 10
7.0946109044
 20
0.6940980783
 30
0.0
 10
7.0923311854
 20
0.6940981187
 30
0.0
 10
7.0877389567
 20
0.6944314828
 30
0.0
 10
7.0809504406
 20
0.6958798569
 30
0.0
 10
7.0743302747
 20
0.6982282649
 30
0.0
 10
7.0690505077
 20
0.7008761322
 30
0.0
 10
7.0650046851
 20
0.7033757336
 30
0.0
 10
7.0620601499
 20
0.7054379588
 30
0.0
 10
7.0592247376
 20
0.7076720062
 30
0.0
 10
7.0565083349
 20
0.7100683355
 30
0.0
 10
7.0539196425
 20
0.7126158438
 30
0.0
 10
7.0514666623
 20
0.7153036046
 30
0.0
 10
7.0491599981
 20
0.7181219978
 30
0.0
 10
7.0477194927
 20
0.7200775171
 30
0.0
 10
7.0470226818
 20
0.7210712422
 30
0.0
  0
SPLINE
  5
3EE
100
AcDbEntity
  8
0
100
AcDbSpline
 62
7
  6
CONTINUOUS
 70
0
 71
3
 72
26
 73
22
 74
0
 42
0.0000001
 43
0.0000001
 44
0.0000000001
 40
0.0
 40
0.0
 40
0.0
 40
0.0
 40
0.2051355041
 40
0.3919391405
 40
0.477442248
 40
0.5571808301
 40
0.6308308305
 40
0.6981060367
 40
0.7587615477
 40
0.8126126665
 40
0.8595469525
 40
0.8804171675
 40
0.899567653
 40
0.9170250916
 40
0.932831763
 40
0.9470549432
 40
0.9597973572
 40
0.9712080261
 40
0.9815009232
 40
0.9909717209
 40
1.0
 40
1.0
 40
1.0
 40
1.0
 10
6.6792123633
 20
0.7210712422
 30
0.0
 10
6.6793702111
 20
0.7191270271
 30
0.0
 10
6.6797146618
 20
0.7154156468
 30
0.0
 10
6.6802596732
 20
0.7109076572
 30
0.0
 10
6.6807543544
 20
0.7075966396
 30
0.0
 10
6.6811373621
 20
0.7053573655
 30
0.0
 10
6.6815421906
 20
0.7032982613
 30
0.0
 10
6.6819670051
 20
0.7014287922
 30
0.0
 10
6.6824094605
 20
0.6997573559
 30
0.0
 10
6.6828672091
 20
0.6982914992
 30
0.0
 10
6.6832737101
 20
0.6972074217
 30
0.0
 10
6.6836094061
 20
0.696451537
 30
0.0
 10
6.6838538261
 20
0.695962432
 30
0.0
 10
6.6841005329
 20
0.6955290358
 30
0.0
 10
6.6843493525
 20
0.6951517536
 30
0.0
 10
6.6846001608
 20
0.6948308953
 30
0.0
 10
6.6848529434
 20
0.6945666751
 30
0.0
 10
6.6851079077
 20
0.6943593936
 30
0.0
 10
6.685365493
 20
0.6942096911
 30
0.0
 10
6.6856256509
 20
0.6941186868
 30
0.0
 10
6.6858021416
 20
0.6940980781
 30
0.0
 10
6.6858879905
 20
0.6940980783
 30
0.0
  0
SPLINE
  5
3EF
100
AcDbEntity
  8
0
100
AcDbSpline
 62
7
  6
CONTINUOUS
 70
0
 71
3
 72
17
 73
13
 74
0
 42
0.0000001
 43
0.0000001
 44
0.0000000001
 40
0.0
 40
0.0
 40
0.0
 40
0.0
 40
0.1379059256
 40
0.2738700303
 40
0.4063385346
 40
0.5341527813
 40
0.6567723415
 40
0.7744135883
 40
0.8317497632
 40
0.8882927552
 40
0.9443010769
 40
1.0
 40
1.0
 40
1.0
 40
1.0
 10
7.1079294015
 20
0.6842468407
 30
0.0
 10
7.1079216693
 20
0.6848926641
 30
0.0
 10
7.1078062288
 20
0.6861763461
 30
0.0
 10
7.1073373778
 20
0.6880288388
 30
0.0
 10
7.1065899472
 20
0.6897372562
 30
0.0
 10
7.1055897687
 20
0.6912377727
 30
0.0
 10
7.1043724077
 20
0.6924737697
 30
0.0
 10
7.1032005213
 20
0.6932502818
 30
0.0
 10
7.1022065632
 20
0.6936886851
 30
0.0
 10
7.1014445586
 20
0.6939241751
 30
0.0
 10
7.1006676885
 20
0.6940662837
 30
0.0
 10
7.1001439751
 20
0.6940980783
 30
0.0
 10
7.0998831143
 20
0.6940980783
 30
0.0
  0
SPLINE
  5
3F0
100
AcDbEntity
  8
0
100
AcDbSpline
 62
7
  6
CONTINUOUS
 70
0
 71
3
 72
18
 73
14
 74
0
 42
0.0000001
 43
0.0000001
 44
0.0000000001
 40
0.0
 40
0.0
 40
0.0
 40
0.0
 40
0.1302513441
 40
0.1951737392
 40
0.2598031748
 40
0.3877546589
 40
0.5137796537
 40
0.5760773787
 40
0.6378531599
 40
0.6991347051
 40
0.7599691284
 40
0.8803969755
 40
1.0
 40
1.0
 40
1.0
 40
1.0
 10
6.0033580113
 20
0.6842468407
 30
0.0
 10
6.0033668212
 20
0.6848929483
 30
0.0
 10
6.0034665369
 20
0.685862856
 30
0.0
 10
6.0037694813
 20
0.6871169123
 30
0.0
 10
6.0041805756
 20
0.6883280723
 30
0.0
 10
6.0048913934
 20
0.6897503751
 30
0.0
 10
6.0058485874
 20
0.6910065159
 30
0.0
 10
6.0067372538
 20
0.6918747723
 30
0.0
 10
6.0074561584
 20
0.692450597
 30
0.0
 10
6.0082230654
 20
0.6929476247
 30
0.0
 10
6.0092956146
 20
0.693496885
 30
0.0
 10
6.0107235653
 20
0.6939685872
 30
0.0
 10
6.0119177838
 20
0.6940973137
 30
0.0
 10
6.0125111254
 20
0.6940980715
 30
0.0
  0
SPLINE
  5
3F1
100
AcDbEntity
  8
0
100
AcDbSpline
 62
7
  6
CONTINUOUS
 70
0
 71
3
 72
14
 73
10
 74
0
 42
0.0000001
 43
0.0000001
 44
0.0000000001
 40
0.0
 40
0.0
 40
0.0
 40
0.0
 40
0.1263689034
 40
0.2525336489
 40
0.3783885979
 40
0.503860216
 40
0.7531556677
 40
0.8769367609
 40
1.0
 40
1.0
 40
1.0
 40
1.0
 10
6.1811746053
 20
0.8646489436
 30
0.0
 10
6.1814174631
 20
0.8616802302
 30
0.0
 10
6.1817007942
 20
0.855729336
 30
0.0
 10
6.18155126
 20
0.8468061316
 30
0.0
 10
6.1808470154
 20
0.8379301138
 30
0.0
 10
6.1791981914
 20
0.826240394
 30
0.0
 10
6.1765224171
 20
0.8147640614
 30
0.0
 10
6.1728720474
 20
0.8036490143
 30
0.0
 10
6.1707333569
 20
0.7982333711
 30
0.0
 10
6.169587821
 20
0.7955684353
 30
0.0
  0
SPLINE
  5
3F2
100
AcDbEntity
  8
0
100
AcDbSpline
 62
7
  6
CONTINUOUS
 70
0
 71
3
 72
15
 73
11
 74
0
 42
0.0000001
 43
0.0000001
 44
0.0000000001
 40
0.0
 40
0.0
 40
0.0
 40
0.0
 40
0.1169235072
 40
0.2370925529
 40
0.4853150684
 40
0.6124439184
 40
0.7409330253
 40
0.8055356215
 40
0.8702963223
 40
1.0
 40
1.0
 40
1.0
 40
1.0
 10
6.5042462979
 20
0.7955684353
 30
0.0
 10
6.5043530482
 20
0.7982665189
 30
0.0
 10
6.5045862819
 20
0.8037369311
 30
0.0
 10
6.5051256142
 20
0.8149316795
 30
0.0
 10
6.5057809294
 20
0.8263567789
 30
0.0
 10
6.5065950486
 20
0.8379639579
 30
0.0
 10
6.5071983247
 20
0.8453346259
 30
0.0
 10
6.5077498403
 20
0.8512638596
 30
0.0
 10
6.5083521725
 20
0.8572162944
 30
0.0
 10
6.5088673203
 20
0.8616780401
 30
0.0
 10
6.5092491174
 20
0.8646489436
 30
0.0
  0
LINE
  5
3F3
100
AcDbEntity
  8
0
100
AcDbLine
 62
7
  6
CONTINUOUS
 10
6.169587821
 20
0.7955684353
 11
6.1359885297
 21
0.7210712422
  0
LINE
  5
3F4
100
AcDbEntity
  8
0
100
AcDbLine
 62
7
  6
CONTINUOUS
 10
6.5037989414
 20
0.7210712422
 11
6.5042462979
 21
0.7955684353
  0
SPLINE
  5
3F5
100
AcDbEntity
  8
0
100
AcDbSpline
 62
7
  6
CONTINUOUS
 70
0
 71
3
 72
29
 73
25
 74
0
 42
0.0000001
 43
0.0000001
 44
0.0000000001
 40
0.0
 40
0.0
 40
0.0
 40
0.0
 40
0.0096112826
 40
0.0199123875
 40
0.0312442437
 40
0.0438523841
 40
0.0578747263
 40
0.0733930666
 40
0.0904608247
 40
0.1091203066
 40
0.1294001305
 40
0.1513151235
 40
0.200028264
 40
0.2551566907
 40
0.3165208962
 40
0.3839037704
 40
0.4570626945
 40
0.5357137159
 40
0.6195431966
 40
0.7082241106
 40
0.8014262843
 40
0.8496212032
 40
0.8988189669
 40
1.0
 40
1.0
 40
1.0
 40
1.0
 10
6.5180807027
 20
0.6940980783
 30
0.0
 10
6.5179811632
 20
0.6940980886
 30
0.0
 10
6.5177744888
 20
0.6941205613
 30
0.0
 10
6.5174637577
 20
0.6942161039
 30
0.0
 10
6.5171440576
 20
0.6943722091
 30
0.0
 10
6.5168140756
 20
0.6945873752
 30
0.0
 10
6.5164733142
 20
0.6948611046
 30
0.0
 10
6.516122152
 20
0.6951929085
 30
0.0
 10
6.5157611332
 20
0.695582357
 30
0.0
 10
6.5153901836
 20
0.6960285689
 30
0.0
 10
6.5150090349
 20
0.6965307064
 30
0.0
 10
6.5144676894
 20
0.6973012055
 30
0.0
 10
6.5137703004
 20
0.6984020117
 30
0.0
 10
6.5129212738
 20
0.6998879109
 30
0.0
 10
6.5120356459
 20
0.7015741262
 30
0.0
 10
6.5111154206
 20
0.7034520189
 30
0.0
 10
6.5101593707
 20
0.7055110961
 30
0.0
 10
6.5091692843
 20
0.7077417467
 30
0.0
 10
6.5081489497
 20
0.7101345164
 30
0.0
 10
6.5070994035
 20
0.7126784218
 30
0.0
 10
6.5062119754
 20
0.714889851
 30
0.0
 10
6.5054887753
 20
0.7167265009
 30
0.0
 10
6.5047422668
 20
0.7186427645
 30
0.0
 10
6.504179776
 20
0.720095042
 30
0.0
 10
6.5037988638
 20
0.7210712422
 30
0.0
  0
SPLINE
  5
3F6
100
AcDbEntity
  8
0
100
AcDbSpline
 62
7
  6
CONTINUOUS
 70
0
 71
3
 72
18
 73
14
 74
0
 42
0.0000001
 43
0.0000001
 44
0.0000000001
 40
0.0
 40
0.0
 40
0.0
 40
0.0
 40
0.1383810548
 40
0.2728879333
 40
0.4031490602
 40
0.5290651485
 40
0.6509027688
 40
0.7105231495
 40
0.7693858307
 40
0.8276153863
 40
0.8853551596
 40
0.9427692776
 40
1.0
 40
1.0
 40
1.0
 40
1.0
 10
6.1359885395
 20
0.7210712422
 30
0.0
 10
6.1351848366
 20
0.7190779372
 30
0.0
 10
6.1333703901
 20
0.7152343853
 30
0.0
 10
6.1300124525
 20
0.7099305587
 30
0.0
 10
6.1261157521
 20
0.7052550061
 30
0.0
 10
6.1217535786
 20
0.7012962873
 30
0.0
 10
6.1177634514
 20
0.6986375389
 30
0.0
 10
6.1144288348
 20
0.6969529871
 30
0.0
 10
6.1118834137
 20
0.6959179702
 30
0.0
 10
6.1092884219
 20
0.6951077071
 30
0.0
 10
6.1066556695
 20
0.6945260895
 30
0.0
 10
6.1039980607
 20
0.6941761093
 30
0.0
 10
6.1022165099
 20
0.6940980779
 30
0.0
 10
6.1013276442
 20
0.6940980783
 30
0.0
  0
SPLINE
  5
3F7
100
AcDbEntity
  8
0
100
AcDbSpline
 62
7
  6
CONTINUOUS
 70
0
 71
3
 72
25
 73
21
 74
0
 42
0.0000001
 43
0.0000001
 44
0.0000000001
 40
0.0
 40
0.0
 40
0.0
 40
0.0
 40
0.1803090625
 40
0.3587079543
 40
0.4446357413
 40
0.5270554664
 40
0.6050313948
 40
0.6776847589
 40
0.7442116419
 40
0.8038935007
 40
0.8561190266
 40
0.9004153068
 40
0.9194942691
 40
0.9365048114
 40
0.9514566348
 40
0.9644012449
 40
0.975445757
 40
0.984787957
 40
0.9927824001
 40
1.0
 40
1.0
 40
1.0
 40
1.0
 10
6.4110873836
 20
2.5367965151
 30
0.0
 10
6.4118088372
 20
2.5367773068
 30
0.0
 10
6.4132448679
 20
2.5367642958
 30
0.0
 10
6.4150244211
 20
2.5368079231
 30
0.0
 10
6.4164105153
 20
2.536880033
 30
0.0
 10
6.4173940028
 20
2.5369505215
 30
0.0
 10
6.4183228546
 20
2.5370371947
 30
0.0
 10
6.419186169
 20
2.5371389863
 30
0.0
 10
6.4199738191
 20
2.5372546145
 30
0.0
 10
6.4206766582
 20
2.5373825832
 30
0.0
 10
6.4212865129
 20
2.5375212992
 30
0.0
 10
6.4217315059
 20
2.5376497437
 30
0.0
 10
6.4220341993
 20
2.5377591832
 30
0.0
 10
6.4222224893
 20
2.5378387675
 30
0.0
 10
6.4223831367
 20
2.5379197795
 30
0.0
 10
6.422515828
 20
2.5380020539
 30
0.0
 10
6.4226204321
 20
2.5380855353
 30
0.0
 10
6.4226967894
 20
2.5381706166
 30
0.0
 10
6.4227443748
 20
2.5382579401
 30
0.0
 10
6.4227556057
 20
2.538319189
 30
0.0
 10
6.4227556057
 20
2.5383480783
 30
0.0
  0
SPLINE
  5
3F8
100
AcDbEntity
  8
0
100
AcDbSpline
 62
7
  6
CONTINUOUS
 70
0
 71
3
 72
25
 73
21
 74
0
 42
0.0000001
 43
0.0000001
 44
0.0000000001
 40
0.0
 40
0.0
 40
0.0
 40
0.0
 40
0.1793807545
 40
0.3574224364
 40
0.4433397801
 40
0.5258343728
 40
0.6039499544
 40
0.6767873025
 40
0.7435226344
 40
0.8034183732
 40
0.8558452808
 40
0.9003137893
 40
0.9194628893
 40
0.9365304179
 40
0.9515240439
 40
0.9644933472
 40
0.9755435169
 40
0.9848708271
 40
0.9928305982
 40
1.0
 40
1.0
 40
1.0
 40
1.0
 10
6.4121835304
 20
2.5169388172
 30
0.0
 10
6.4129092523
 20
2.5169976888
 30
0.0
 10
6.414353285
 20
2.5171407625
 30
0.0
 10
6.4161374049
 20
2.5173785662
 30
0.0
 10
6.4175257793
 20
2.5176025659
 30
0.0
 10
6.4185104271
 20
2.5177812272
 30
0.0
 10
6.4194390097
 20
2.5179703334
 30
0.0
 10
6.4203004139
 20
2.5181675711
 30
0.0
 10
6.4210843404
 20
2.5183704915
 30
0.0
 10
6.4217815154
 20
2.5185765352
 30
0.0
 10
6.4223836761
 20
2.5187831508
 30
0.0
 10
6.4228202206
 20
2.5189612518
 30
0.0
 10
6.4231148348
 20
2.5191045529
 30
0.0
 10
6.4232968315
 20
2.519205218
 30
0.0
 10
6.4234506708
 20
2.5193042366
 30
0.0
 10
6.4235760455
 20
2.5194013998
 30
0.0
 10
6.4236728281
 20
2.5194966299
 30
0.0
 10
6.4237408213
 20
2.5195903069
 30
0.0
 10
6.4237794404
 20
2.5196830505
 30
0.0
 10
6.4237840641
 20
2.5197457173
 30
0.0
 10
6.4237808612
 20
2.5197746411
 30
0.0
  0
SPLINE
  5
3F9
100
AcDbEntity
  8
0
100
AcDbSpline
 62
7
  6
CONTINUOUS
 70
0
 71
3
 72
25
 73
21
 74
0
 42
0.0000001
 43
0.0000001
 44
0.0000000001
 40
0.0
 40
0.0
 40
0.0
 40
0.0
 40
0.1921600207
 40
0.3766019793
 40
0.463783151
 40
0.5465066189
 40
0.6240112776
 40
0.6955896544
 40
0.7605900739
 40
0.8184397098
 40
0.8686456111
 40
0.9108155565
 40
0.9288059431
 40
0.9447068128
 40
0.9585210657
 40
0.9702820039
 40
0.9800632648
 40
0.9880197291
 40
0.9944672125
 40
1.0
 40
1.0
 40
1.0
 40
1.0
 10
6.519781807
 20
0.6842468407
 30
0.0
 10
6.5197828767
 20
0.6848901255
 30
0.0
 10
6.5197984598
 20
0.6861508749
 30
0.0
 10
6.519852234
 20
0.6877026874
 30
0.0
 10
6.5199161945
 20
0.6888872244
 30
0.0
 10
6.5199724314
 20
0.689713585
 30
0.0
 10
6.5200372563
 20
0.690486917
 30
0.0
 10
6.5201100152
 20
0.6911999388
 30
0.0
 10
6.5201899898
 20
0.6918459442
 30
0.0
 10
6.5202763032
 20
0.6924189036
 30
0.0
 10
6.5203680748
 20
0.6929134648
 30
0.0
 10
6.5204519736
 20
0.6932735212
 30
0.0
 10
6.5205229438
 20
0.6935181216
 30
0.0
 10
6.5205741227
 20
0.6936694679
 30
0.0
 10
6.5206259727
 20
0.6937983748
 30
0.0
 10
6.5206783759
 20
0.6939046691
 30
0.0
 10
6.5207312933
 20
0.693988359
 30
0.0
 10
6.5207850236
 20
0.6940495457
 30
0.0
 10
6.5208404428
 20
0.6940884433
 30
0.0
 10
6.5208807981
 20
0.6940980783
 30
0.0
 10
6.52089932
 20
0.6940980783
 30
0.0
  0
SPLINE
  5
3FA
100
AcDbEntity
  8
0
100
AcDbSpline
 62
7
  6
CONTINUOUS
 70
0
 71
3
 72
14
 73
10
 74
0
 42
0.0000001
 43
0.0000001
 44
0.0000000001
 40
0.0
 40
0.0
 40
0.0
 40
0.0
 40
0.2577374441
 40
0.3854301324
 40
0.5120427613
 40
0.6372922154
 40
0.760766433
 40
0.8819348189
 40
1.0
 40
1.0
 40
1.0
 40
1.0
 10
7.0018366061
 20
0.8646489436
 30
0.0
 10
7.0024278192
 20
0.8687584175
 30
0.0
 10
7.003428019
 20
0.8748885311
 30
0.0
 10
7.0050380122
 20
0.8829788267
 30
0.0
 10
7.0063871908
 20
0.8889430276
 30
0.0
 10
7.0078944806
 20
0.8947992791
 30
0.0
 10
7.0095776335
 20
0.9005165467
 30
0.0
 10
7.0114546585
 20
0.9060512994
 30
0.0
 10
7.012872396
 20
0.9096375001
 30
0.0
 10
7.0136297661
 20
0.9113820546
 30
0.0
  0
SPLINE
  5
3FB
100
AcDbEntity
  8
0
100
AcDbSpline
 62
7
  6
CONTINUOUS
 70
0
 71
3
 72
14
 73
10
 74
0
 42
0.0000001
 43
0.0000001
 44
0.0000000001
 40
0.0
 40
0.0
 40
0.0
 40
0.0
 40
0.1248821199
 40
0.2498173585
 40
0.3747794103
 40
0.499780015
 40
0.6248054929
 40
0.7498622234
 40
1.0
 40
1.0
 40
1.0
 40
1.0
 10
6.6547580164
 20
0.9113820488
 30
0.0
 10
6.6559903922
 20
0.9096655129
 30
0.0
 10
6.6583023504
 20
0.9061200477
 30
0.0
 10
6.6613767606
 20
0.9005688574
 30
0.0
 10
6.6641082141
 20
0.8948395838
 30
0.0
 10
6.6665352374
 20
0.8889743267
 30
0.0
 10
6.6686929758
 20
0.8830034934
 30
0.0
 10
6.6712447547
 20
0.8749314394
 30
0.0
 10
6.6728291652
 20
0.8687773926
 30
0.0
 10
6.673762094
 20
0.8646489436
 30
0.0
  0
SPLINE
  5
3FC
100
AcDbEntity
  8
0
100
AcDbSpline
 62
7
  6
CONTINUOUS
 70
0
 71
3
 72
15
 73
11
 74
0
 42
0.0000001
 43
0.0000001
 44
0.0000000001
 40
0.0
 40
0.0
 40
0.0
 40
0.0
 40
0.1159969244
 40
0.235834659
 40
0.3586243405
 40
0.4837682622
 40
0.6108044118
 40
0.7393591687
 40
0.8691687193
 40
1.0
 40
1.0
 40
1.0
 40
1.0
 10
7.0768821789
 20
0.9113820488
 30
0.0
 10
7.0773250486
 20
0.909821499
 30
0.0
 10
7.0781490243
 20
0.9066268327
 30
0.0
 10
7.0792265064
 20
0.9017279579
 30
0.0
 10
7.0801860485
 20
0.8966744945
 30
0.0
 10
7.0810417725
 20
0.8915005653
 30
0.0
 10
7.081805119
 20
0.8862308264
 30
0.0
 10
7.0824866295
 20
0.8808841738
 30
0.0
 10
7.0830938893
 20
0.8754752273
 30
0.0
 10
7.083453082
 20
0.8718478938
 30
0.0
 10
7.0836226627
 20
0.8700261423
 30
0.0
  0
SPLINE
  5
3FD
100
AcDbEntity
  8
0
100
AcDbSpline
 62
7
  6
CONTINUOUS
 70
0
 71
3
 72
15
 73
11
 74
0
 42
0.0000001
 43
0.0000001
 44
0.0000000001
 40
0.0
 40
0.0
 40
0.0
 40
0.0
 40
0.1308313193
 40
0.26064094
 40
0.3891957623
 40
0.516231934
 40
0.6413759831
 40
0.7641659484
 40
0.8840032226
 40
1.0
 40
1.0
 40
1.0
 40
1.0
 10
6.0993885189
 20
0.8700258034
 30
0.0
 10
6.0995580994
 20
0.8718475707
 30
0.0
 10
6.0999172907
 20
0.8754749362
 30
0.0
 10
6.1005245487
 20
0.8808839307
 30
0.0
 10
6.1012060588
 20
0.8862306305
 30
0.0
 10
6.1019694081
 20
0.8915004165
 30
0.0
 10
6.1028251351
 20
0.8966743952
 30
0.0
 10
6.1037846615
 20
0.9017279041
 30
0.0
 10
6.104862169
 20
0.9066268122
 30
0.0
 10
6.1056861786
 20
0.9098214881
 30
0.0
 10
6.1061290312
 20
0.9113820546
 30
0.0
  0
SPLINE
  5
3FE
100
AcDbEntity
  8
0
100
AcDbSpline
 62
7
  6
CONTINUOUS
 70
0
 71
3
 72
14
 73
10
 74
0
 42
0.0000001
 43
0.0000001
 44
0.0000000001
 40
0.0
 40
0.0
 40
0.0
 40
0.0
 40
0.250137782
 40
0.3751945262
 40
0.5002199965
 40
0.6252205907
 40
0.7501827009
 40
0.8751178748
 40
1.0
 40
1.0
 40
1.0
 40
1.0
 10
6.5092491174
 20
0.8646489436
 30
0.0
 10
6.5101820529
 20
0.8687773921
 30
0.0
 10
6.5117664562
 20
0.874931442
 30
0.0
 10
6.5143182249
 20
0.8830035015
 30
0.0
 10
6.516475958
 20
0.8889743384
 30
0.0
 10
6.5189029839
 20
0.8948395962
 30
0.0
 10
6.5216343967
 20
0.9005688896
 30
0.0
 10
6.5247088236
 20
0.9061200776
 30
0.0
 10
6.5270208527
 20
0.9096654915
 30
0.0
 10
6.5282531916
 20
0.9113820546
 30
0.0
  0
SPLINE
  5
3FF
100
AcDbEntity
  8
0
100
AcDbSpline
 62
7
  6
CONTINUOUS
 70
0
 71
3
 72
14
 73
10
 74
0
 42
0.0000001
 43
0.0000001
 44
0.0000000001
 40
0.0
 40
0.0
 40
0.0
 40
0.0
 40
0.1180653154
 40
0.2392339089
 40
0.3627079152
 40
0.4879573401
 40
0.6145699491
 40
0.7422625865
 40
1.0
 40
1.0
 40
1.0
 40
1.0
 10
6.1693814433
 20
0.9113820488
 30
0.0
 10
6.1701388417
 20
0.9096375047
 30
0.0
 10
6.1715565261
 20
0.9060512756
 30
0.0
 10
6.1734335438
 20
0.9005165216
 30
0.0
 10
6.1751167231
 20
0.894799263
 30
0.0
 10
6.1766240105
 20
0.8889430161
 30
0.0
 10
6.1779731927
 20
0.8829788188
 30
0.0
 10
6.1795831924
 20
0.8748885276
 30
0.0
 10
6.1805833956
 20
0.8687584168
 30
0.0
 10
6.1811746053
 20
0.8646489436
 30
0.0
  0
LINE
  5
400
100
AcDbEntity
  8
0
100
AcDbLine
 62
7
  6
CONTINUOUS
 10
6.6281594312
 20
0.734979374
 11
6.6281304188
 21
0.8138130615
  0
SPLINE
  5
401
100
AcDbEntity
  8
0
100
AcDbSpline
 62
7
  6
CONTINUOUS
 70
0
 71
3
 72
20
 73
16
 74
0
 42
0.0000001
 43
0.0000001
 44
0.0000000001
 40
0.0
 40
0.0
 40
0.0
 40
0.0
 40
0.0452504905
 40
0.0930154138
 40
0.1433576591
 40
0.196310777
 40
0.2518582012
 40
0.3099444519
 40
0.3704825469
 40
0.4333575466
 40
0.4984306029
 40
0.565540944
 40
0.7051258069
 40
0.8505349733
 40
1.0
 40
1.0
 40
1.0
 40
1.0
 10
6.6281304188
 20
0.8138130615
 30
0.0
 10
6.6286869556
 20
0.8131989336
 30
0.0
 10
6.6298891266
 20
0.8119884009
 30
0.0
 10
6.6318836105
 20
0.8102771573
 30
0.0
 10
6.6341088337
 20
0.8086293264
 30
0.0
 10
6.6365553317
 20
0.8070516209
 30
0.0
 10
6.6392132465
 20
0.8055501091
 30
0.0
 10
6.6420717841
 20
0.8041309552
 30
0.0
 10
6.6451192417
 20
0.8027998554
 30
0.0
 10
6.6483431491
 20
0.8015622141
 30
0.0
 10
6.6517303597
 20
0.8004231307
 30
0.0
 10
6.6565082846
 20
0.799023743
 30
0.0
 10
6.6627955575
 20
0.7975616924
 30
0.0
 10
6.6706548673
 20
0.7962842217
 30
0.0
 10
6.6760337332
 20
0.7957547629
 30
0.0
 10
6.6787649135
 20
0.7955684352
 30
0.0
  0
SPLINE
  5
402
100
AcDbEntity
  8
0
100
AcDbSpline
 62
7
  6
CONTINUOUS
 70
0
 71
3
 72
23
 73
19
 74
0
 42
0.0000001
 43
0.0000001
 44
0.0000000001
 40
0.0
 40
0.0
 40
0.0
 40
0.0
 40
0.0415421809
 40
0.0862971805
 40
0.1342845329
 40
0.1854796858
 40
0.2398311395
 40
0.2972478901
 40
0.3575885497
 40
0.420698557
 40
0.4864067244
 40
0.5545053468
 40
0.6247706727
 40
0.6969687686
 40
0.77085589
 40
0.8461751755
 40
0.9226576116
 40
1.0
 40
1.0
 40
1.0
 40
1.0
 10
6.6281594312
 20
0.734979374
 30
0.0
 10
6.6287303406
 20
0.7345041336
 30
0.0
 10
6.6299610116
 20
0.7335699089
 30
0.0
 10
6.6319770223
 20
0.7322623867
 30
0.0
 10
6.6342232296
 20
0.731002548
 30
0.0
 10
6.636691439
 20
0.7297975034
 30
0.0
 10
6.6393714882
 20
0.7286508397
 30
0.0
 10
6.6422524007
 20
0.7275659029
 30
0.0
 10
6.6453235494
 20
0.7265495664
 30
0.0
 10
6.6485723216
 20
0.7256057842
 30
0.0
 10
6.6519850468
 20
0.7247363887
 30
0.0
 10
6.6555481862
 20
0.7239465609
 30
0.0
 10
6.6592470887
 20
0.7232407694
 30
0.0
 10
6.6630665191
 20
0.722622816
 30
0.0
 10
6.6669902598
 20
0.722092637
 30
0.0
 10
6.6710019429
 20
0.7216500953
 30
0.0
 10
6.6750851192
 20
0.721304185
 30
0.0
 10
6.6778310245
 20
0.7211388883
 30
0.0
 10
6.6792123486
 20
0.7210712562
 30
0.0
  0
SPLINE
  5
403
100
AcDbEntity
  8
0
100
AcDbSpline
 62
7
  6
CONTINUOUS
 70
0
 71
3
 72
11
 73
7
 74
0
 42
0.0000001
 43
0.0000001
 44
0.0000000001
 40
0.0
 40
0.0
 40
0.0
 40
0.0
 40
0.2470898332
 40
0.4960445386
 40
0.7469543693
 40
1.0
 40
1.0
 40
1.0
 40
1.0
 10
6.6281304188
 20
0.8138130615
 30
0.0
 10
6.6281291039
 20
0.8169500972
 30
0.0
 10
6.6281514825
 20
0.8232478812
 30
0.0
 10
6.628255994
 20
0.83273066
 30
0.0
 10
6.6284201466
 20
0.8422881886
 30
0.0
 10
6.6285535814
 20
0.8486849844
 30
0.0
 10
6.6286200063
 20
0.851896948
 30
0.0
  0
SPLINE
  5
404
100
AcDbEntity
  8
0
100
AcDbSpline
 62
7
  6
CONTINUOUS
 70
0
 71
3
 72
14
 73
10
 74
0
 42
0.0000001
 43
0.0000001
 44
0.0000000001
 40
0.0
 40
0.0
 40
0.0
 40
0.0
 40
0.0846723324
 40
0.183787504
 40
0.296084079
 40
0.4201215625
 40
0.5543082406
 40
0.6969211799
 40
1.0
 40
1.0
 40
1.0
 40
1.0
 10
6.6286200063
 20
0.851896948
 30
0.0
 10
6.629877904
 20
0.8523104555
 30
0.0
 10
6.6326169471
 20
0.8531815894
 30
0.0
 10
6.6370464717
 20
0.8545302333
 30
0.0
 10
6.6420791979
 20
0.8560104124
 30
0.0
 10
6.6476504065
 20
0.8576027938
 30
0.0
 10
6.6536884044
 20
0.8592866607
 30
0.0
 10
6.6624369311
 20
0.8616734626
 30
0.0
 10
6.6691749975
 20
0.8634563246
 30
0.0
 10
6.673762094
 20
0.8646489437
 30
0.0
  0
SPLINE
  5
405
100
AcDbEntity
  8
0
100
AcDbSpline
 62
7
  6
CONTINUOUS
 70
0
 71
3
 72
50
 73
46
 74
0
 42
0.0000001
 43
0.0000001
 44
0.0000000001
 40
0.0
 40
0.0
 40
0.0
 40
0.0
 40
0.0615825709
 40
0.1231847218
 40
0.1848075797
 40
0.2464538221
 40
0.3081248505
 40
0.338971214
 40
0.3698243941
 40
0.4006861396
 40
0.4315560245
 40
0.4624340878
 40
0.4933208163
 40
0.5087654918
 40
0.5242111071
 40
0.5396557403
 40
0.5550932899
 40
0.5705151808
 40
0.5782144892
 40
0.5859003958
 40
0.6011865747
 40
0.60876846
 40
0.6162989006
 40
0.6237944217
 40
0.6312822982
 40
0.6387844442
 40
0.6463129349
 40
0.6614601267
 40
0.6767419634
 40
0.6921520843
 40
0.7076821751
 40
0.7233234233
 40
0.7390675722
 40
0.7549070613
 40
0.7708354133
 40
0.786846075
 40
0.8029328904
 40
0.8190894242
 40
0.8353098452
 40
0.851588673
 40
0.8679203231
 40
0.9007224336
 40
0.9336890928
 40
0.9667918442
 40
1.0
 40
1.0
 40
1.0
 40
1.0
 10
6.6286200113
 20
0.8518969496
 30
0.0
 10
6.6286448082
 20
0.8535332979
 30
0.0
 10
6.6286857731
 20
0.8568066534
 30
0.0
 10
6.6287193338
 20
0.8617177648
 30
0.0
 10
6.6287228884
 20
0.8666306899
 30
0.0
 10
6.6286929007
 20
0.8715453596
 30
0.0
 10
6.628636818
 20
0.8756418754
 30
0.0
 10
6.6285695845
 20
0.8789197279
 30
0.0
 10
6.6285073975
 20
0.8813787378
 30
0.0
 10
6.6284316067
 20
0.8838379945
 30
0.0
 10
6.6283408314
 20
0.8862974071
 30
0.0
 10
6.6282337347
 20
0.8887568343
 30
0.0
 10
6.6281278286
 20
0.8908059393
 30
0.0
 10
6.6280335926
 20
0.8924449393
 30
0.0
 10
6.6279575303
 20
0.8936739277
 30
0.0
 10
6.6278761447
 20
0.8949023818
 30
0.0
 10
6.6277925805
 20
0.8961300589
 30
0.0
 10
6.6277242517
 20
0.897152456
 30
0.0
 10
6.6276771771
 20
0.8979698351
 30
0.0
 10
6.6276396641
 20
0.8987839379
 30
0.0
 10
6.6276304366
 20
0.8995970801
 30
0.0
 10
6.6276988195
 20
0.9004029383
 30
0.0
 10
6.6278105084
 20
0.9009945939
 30
0.0
 10
6.627990697
 20
0.9015665845
 30
0.0
 10
6.6282337645
 20
0.9021136656
 30
0.0
 10
6.6285286146
 20
0.9026352846
 30
0.0
 10
6.6289772675
 20
0.9033007562
 30
0.0
 10
6.6296202805
 20
0.9040809724
 30
0.0
 10
6.6304819957
 20
0.9049438924
 30
0.0
 10
6.6314164534
 20
0.9057428653
 30
0.0
 10
6.6324110338
 20
0.9064813119
 30
0.0
 10
6.6334564671
 20
0.9071619238
 30
0.0
 10
6.6345446108
 20
0.9077883128
 30
0.0
 10
6.6356698341
 20
0.9083622153
 30
0.0
 10
6.6368277986
 20
0.9088841662
 30
0.0
 10
6.6380144353
 20
0.9093551557
 30
0.0
 10
6.6392260951
 20
0.90977617
 30
0.0
 10
6.6404596228
 20
0.9101477314
 30
0.0
 10
6.6417119435
 20
0.9104708201
 30
0.0
 10
6.6429797798
 20
0.9107487643
 30
0.0
 10
6.6446899401
 20
0.9110619689
 30
0.0
 10
6.6468548955
 20
0.9113460365
 30
0.0
 10
6.6494782139
 20
0.9115210127
 30
0.0
 10
6.6521179341
 20
0.9115359499
 30
0.0
 10
6.6538788153
 20
0.91144688
 30
0.0
 10
6.6547588364
 20
0.9113808393
 30
0.0
  0
LINE
  5
406
100
AcDbEntity
  8
0
100
AcDbLine
 62
7
  6
CONTINUOUS
 10
7.0686418483
 20
0.8138130616
 11
7.1096679682
 21
0.722702476
  0
SPLINE
  5
407
100
AcDbEntity
  8
0
100
AcDbSpline
 62
7
  6
CONTINUOUS
 70
0
 71
3
 72
15
 73
11
 74
0
 42
0.0000001
 43
0.0000001
 44
0.0000000001
 40
0.0
 40
0.0
 40
0.0
 40
0.0
 40
0.138452516
 40
0.2742293451
 40
0.4066591638
 40
0.5351350165
 40
0.6591327984
 40
0.7782067459
 40
0.8919187263
 40
1.0
 40
1.0
 40
1.0
 40
1.0
 10
7.0906798521
 20
0.7186457071
 30
0.0
 10
7.0886776774
 20
0.7182538984
 30
0.0
 10
7.0846834357
 20
0.7176181775
 30
0.0
 10
7.0787135757
 20
0.7170578963
 30
0.0
 10
7.0728668317
 20
0.7168858294
 30
0.0
 10
7.0671946002
 20
0.7170738555
 30
0.0
 10
7.0617411944
 20
0.7175990771
 30
0.0
 10
7.0565482709
 20
0.718444062
 30
0.0
 10
7.0516513573
 20
0.7195770266
 30
0.0
 10
7.0485235899
 20
0.7205381651
 30
0.0
 10
7.047022859
 20
0.7210713099
 30
0.0
  0
SPLINE
  5
408
100
AcDbEntity
  8
0
100
AcDbSpline
 62
7
  6
CONTINUOUS
 70
0
 71
3
 72
11
 73
7
 74
0
 42
0.0000001
 43
0.0000001
 44
0.0000000001
 40
0.0
 40
0.0
 40
0.0
 40
0.0
 40
0.2509263221
 40
0.5012871623
 40
0.7509993204
 40
1.0
 40
1.0
 40
1.0
 40
1.0
 10
7.052525957
 20
0.8518968548
 30
0.0
 10
7.0537814663
 20
0.8486735174
 30
0.0
 10
7.0563522237
 20
0.8422583904
 30
0.0
 10
7.0603449351
 20
0.8327058569
 30
0.0
 10
7.0644404734
 20
0.8232259246
 30
0.0
 10
7.0672324301
 20
0.8169430444
 30
0.0
 10
7.0686418484
 20
0.8138130616
 30
0.0
  0
SPLINE
  5
409
100
AcDbEntity
  8
0
100
AcDbSpline
 62
7
  6
CONTINUOUS
 70
0
 71
3
 72
18
 73
14
 74
0
 42
0.0000001
 43
0.0000001
 44
0.0000000001
 40
0.0
 40
0.0
 40
0.0
 40
0.0
 40
0.1430499813
 40
0.2851232101
 40
0.4240123569
 40
0.5575598365
 40
0.6837183896
 40
0.7434305324
 40
0.80059945
 40
0.8550192229
 40
0.9065014666
 40
0.9548827551
 40
1.0
 40
1.0
 40
1.0
 40
1.0
 10
7.0686418484
 20
0.8138130616
 30
0.0
 10
7.0661293202
 20
0.8126150771
 30
0.0
 10
7.0610854799
 20
0.8103018547
 30
0.0
 10
7.053486255
 20
0.8070857808
 30
0.0
 10
7.0459646948
 20
0.8041697577
 30
0.0
 10
7.0386447275
 20
0.8016016132
 30
0.0
 10
7.0327087828
 20
0.7997533229
 30
0.0
 10
7.0281516119
 20
0.7984883792
 30
0.0
 10
7.0249204914
 20
0.7976684164
 30
0.0
 10
7.0218264835
 20
0.7969628794
 30
0.0
 10
7.0188821513
 20
0.7963746383
 30
0.0
 10
7.0160997884
 20
0.7959061096
 30
0.0
 10
7.0142958496
 20
0.7956660879
 30
0.0
 10
7.0134233904
 20
0.7955684352
 30
0.0
  0
SPLINE
  5
40A
100
AcDbEntity
  8
0
100
AcDbSpline
 62
7
  6
CONTINUOUS
 70
0
 71
3
 72
47
 73
43
 74
0
 42
0.0000001
 43
0.0000001
 44
0.0000000001
 40
0.0
 40
0.0
 40
0.0
 40
0.0
 40
0.0211639116
 40
0.0428963293
 40
0.0653513086
 40
0.0886848027
 40
0.1130300098
 40
0.1256259322
 40
0.1385299967
 40
0.1653276848
 40
0.1935310352
 40
0.2081863621
 40
0.2232196797
 40
0.238645149
 40
0.2544703509
 40
0.2707000228
 40
0.2873372576
 40
0.2958082292
 40
0.3043724396
 40
0.313010394
 40
0.3216815574
 40
0.3303307267
 40
0.3389175218
 40
0.3474353854
 40
0.355903258
 40
0.3643362964
 40
0.372752243
 40
0.3895632459
 40
0.4063695495
 40
0.4231840887
 40
0.4400126088
 40
0.4568555083
 40
0.490580591
 40
0.5243546606
 40
0.5581700382
 40
0.5920213089
 40
0.659814325
 40
0.7277072146
 40
0.7956824948
 40
0.8637283518
 40
0.93183627
 40
1.0
 40
1.0
 40
1.0
 40
1.0
 10
7.0136290948
 20
0.9113808373
 30
0.0
 10
7.0141678996
 20
0.9114476556
 30
0.0
 10
7.0152663992
 20
0.9115367792
 30
0.0
 10
7.0169451331
 20
0.911519379
 30
0.0
 10
7.0186705168
 20
0.9113405959
 30
0.0
 10
7.0204385573
 20
0.9109953855
 30
0.0
 10
7.0219271358
 20
0.9105697188
 30
0.0
 10
7.0231327261
 20
0.9101425529
 30
0.0
 10
7.0243770939
 20
0.9096399931
 30
0.0
 10
7.0259483198
 20
0.9088827084
 30
0.0
 10
7.0274913042
 20
0.9079773901
 30
0.0
 10
7.0287257913
 20
0.90715118
 30
0.0
 10
7.0296614672
 20
0.9064694584
 30
0.0
 10
7.0305907535
 20
0.9057297921
 30
0.0
 10
7.0315097602
 20
0.9049297298
 30
0.0
 10
7.0324123518
 20
0.9040655242
 30
0.0
 10
7.0331381214
 20
0.903291299
 30
0.0
 10
7.0336955909
 20
0.9026311905
 30
0.0
 10
7.0340992295
 20
0.9021104707
 30
0.0
 10
7.0344788382
 20
0.9015655562
 30
0.0
 10
7.0348250811
 20
0.90099617
 30
0.0
 10
7.0351331774
 20
0.9004067921
 30
0.0
 10
7.0354048836
 20
0.8998042426
 30
0.0
 10
7.0356481952
 20
0.8991948781
 30
0.0
 10
7.0358752986
 20
0.8985835725
 30
0.0
 10
7.0360898857
 20
0.8979705538
 30
0.0
 10
7.0363688961
 20
0.8971533685
 30
0.0
 10
7.0367100194
 20
0.8961304302
 30
0.0
 10
7.0371159538
 20
0.8949020036
 30
0.0
 10
7.0375218397
 20
0.8936730846
 30
0.0
 10
7.0379303269
 20
0.8924440383
 30
0.0
 10
7.0384790117
 20
0.8908044417
 30
0.0
 10
7.0391708585
 20
0.8887543441
 30
0.0
 10
7.0400125212
 20
0.8862952982
 30
0.0
 10
7.040863641
 20
0.8838360862
 30
0.0
 10
7.0420107357
 20
0.8805558274
 30
0.0
 10
7.0434645863
 20
0.8764567411
 30
0.0
 10
7.0452350889
 20
0.8715412008
 30
0.0
 10
7.047028378
 20
0.8666270248
 30
0.0
 10
7.0488423355
 20
0.8617145628
 30
0.0
 10
7.0506745685
 20
0.8568037299
 30
0.0
 10
7.0519070842
 20
0.853532332
 30
0.0
 10
7.0525259499
 20
0.8518968559
 30
0.0
  0
SPLINE
  5
40B
100
AcDbEntity
  8
0
100
AcDbSpline
 62
7
  6
CONTINUOUS
 70
0
 71
3
 72
15
 73
11
 74
0
 42
0.0000001
 43
0.0000001
 44
0.0000000001
 40
0.0
 40
0.0
 40
0.0
 40
0.0
 40
0.1408561488
 40
0.2804789092
 40
0.4171452758
 40
0.5491652491
 40
0.6749216362
 40
0.7928905578
 40
0.9016661652
 40
1.0
 40
1.0
 40
1.0
 40
1.0
 10
7.0525259499
 20
0.8518968559
 30
0.0
 10
7.050096017
 20
0.852273141
 30
0.0
 10
7.045265472
 20
0.8530754707
 30
0.0
 10
7.0381092826
 20
0.8544264004
 30
0.0
 10
7.0311363349
 20
0.8559070133
 30
0.0
 10
7.0244362624
 20
0.8574981349
 30
0.0
 10
7.0180951599
 20
0.8591790285
 30
0.0
 10
7.0121942666
 20
0.8609277425
 30
0.0
 10
7.0068091668
 20
0.8627212725
 30
0.0
 10
7.0034257729
 20
0.8639999154
 30
0.0
 10
7.0018366061
 20
0.8646489436
 30
0.0
  0
SPLINE
  5
40C
100
AcDbEntity
  8
0
100
AcDbSpline
 62
7
  6
CONTINUOUS
 70
0
 71
3
 72
15
 73
11
 74
0
 42
0.0000001
 43
0.0000001
 44
0.0000000001
 40
0.0
 40
0.0
 40
0.0
 40
0.0
 40
0.1484085729
 40
0.293878217
 40
0.4341786523
 40
0.5673192462
 40
0.691547744
 40
0.8055009058
 40
0.9083584567
 40
1.0
 40
1.0
 40
1.0
 40
1.0
 10
6.6193708529
 20
0.7377610694
 30
0.0
 10
6.619836906
 20
0.7377527114
 30
0.0
 10
6.6207595439
 20
0.7377064427
 30
0.0
 10
6.6221150317
 20
0.7375483027
 30
0.0
 10
6.6234092203
 20
0.7373047959
 30
0.0
 10
6.6246168888
 20
0.7369808191
 30
0.0
 10
6.6257147868
 20
0.7365826057
 30
0.0
 10
6.6266822265
 20
0.7361176498
 30
0.0
 10
6.6275007343
 20
0.7355946149
 30
0.0
 10
6.6279631272
 20
0.7351898683
 30
0.0
 10
6.6281594264
 20
0.7349793601
 30
0.0
  0
SPLINE
  5
40D
100
AcDbEntity
  8
0
100
AcDbSpline
 62
7
  6
CONTINUOUS
 70
0
 71
3
 72
15
 73
11
 74
0
 42
0.0000001
 43
0.0000001
 44
0.0000000001
 40
0.0
 40
0.0
 40
0.0
 40
0.0
 40
0.1486922781
 40
0.2943782853
 40
0.4348131915
 40
0.5679965736
 40
0.6921720774
 40
0.8059808452
 40
0.9086189795
 40
1.0
 40
1.0
 40
1.0
 40
1.0
 10
6.6193456805
 20
0.8166199337
 30
0.0
 10
6.6198129812
 20
0.8166109835
 30
0.0
 10
6.6207378596
 20
0.8165633808
 30
0.0
 10
6.6220961529
 20
0.816402739
 30
0.0
 10
6.6233921178
 20
0.8161563188
 30
0.0
 10
6.6246003556
 20
0.8158291031
 30
0.0
 10
6.6256974774
 20
0.8154274219
 30
0.0
 10
6.6266627059
 20
0.8149588641
 30
0.0
 10
6.6274775155
 20
0.814432193
 30
0.0
 10
6.6279363184
 20
0.8140247925
 30
0.0
 10
6.6281304188
 20
0.8138130583
 30
0.0
  0
SPLINE
  5
40E
100
AcDbEntity
  8
0
100
AcDbSpline
 62
7
  6
CONTINUOUS
 70
0
 71
3
 72
14
 73
10
 74
0
 42
0.0000001
 43
0.0000001
 44
0.0000000001
 40
0.0
 40
0.0
 40
0.0
 40
0.0
 40
0.2809939674
 40
0.417195119
 40
0.5484811226
 40
0.6734627382
 40
0.7909424498
 40
0.9000127516
 40
1.0
 40
1.0
 40
1.0
 40
1.0
 10
6.6205785115
 20
0.8545404408
 30
0.0
 10
6.6213795618
 20
0.8544793707
 30
0.0
 10
6.6225655521
 20
0.8543229757
 30
0.0
 10
6.6240965997
 20
0.8539807769
 30
0.0
 10
6.6251749898
 20
0.8536676284
 30
0.0
 10
6.6261792745
 20
0.8533000059
 30
0.0
 10
6.6270951044
 20
0.852883266
 30
0.0
 10
6.6279090122
 20
0.8524234226
 30
0.0
 10
6.6283979233
 20
0.8520769332
 30
0.0
 10
6.6286200111
 20
0.8518969398
 30
0.0
  0
LINE
  5
40F
100
AcDbEntity
  8
0
100
AcDbLine
 62
7
  6
CONTINUOUS
 10
6.6546228996
 20
0.9159880183
 11
6.6547580197
 21
0.9113824684
  0
SPLINE
  5
410
100
AcDbEntity
  8
0
100
AcDbSpline
 62
7
  6
CONTINUOUS
 70
0
 71
3
 72
9
 73
5
 74
0
 42
0.0000001
 43
0.0000001
 44
0.0000000001
 40
0.0
 40
0.0
 40
0.0
 40
0.0
 40
0.49495323
 40
1.0
 40
1.0
 40
1.0
 40
1.0
 10
7.0127312209
 20
0.9159880292
 30
0.0
 10
7.0130293157
 20
0.9152695286
 30
0.0
 10
7.0134802525
 20
0.9137515112
 30
0.0
 10
7.0136295673
 20
0.9121762158
 30
0.0
 10
7.0136294843
 20
0.9113824684
 30
0.0
  0
SPLINE
  5
411
100
AcDbEntity
  8
0
100
AcDbSpline
 62
7
  6
CONTINUOUS
 70
0
 71
3
 72
14
 73
10
 74
0
 42
0.0000001
 43
0.0000001
 44
0.0000000001
 40
0.0
 40
0.0
 40
0.0
 40
0.0
 40
0.0862188512
 40
0.1865612536
 40
0.2997570416
 40
0.4243433316
 40
0.5586061403
 40
0.7006494726
 40
1.0
 40
1.0
 40
1.0
 40
1.0
 10
7.0599949529
 20
0.8545403534
 30
0.0
 10
7.0597691394
 20
0.8545066533
 30
0.0
 10
7.0592836508
 20
0.854412699
 30
0.0
 10
7.0585137619
 20
0.8542183762
 30
0.0
 10
7.0576557118
 20
0.8539616858
 30
0.0
 10
7.0567221886
 20
0.853646282
 30
0.0
 10
7.0557268887
 20
0.8532765917
 30
0.0
 10
7.0543122166
 20
0.8527084278
 30
0.0
 10
7.0532435097
 20
0.8522337494
 30
0.0
 10
7.0525259548
 20
0.8518968606
 30
0.0
  0
SPLINE
  5
412
100
AcDbEntity
  8
0
100
AcDbSpline
 62
7
  6
CONTINUOUS
 70
0
 71
3
 72
14
 73
10
 74
0
 42
0.0000001
 43
0.0000001
 44
0.0000000001
 40
0.0
 40
0.0
 40
0.0
 40
0.0
 40
0.0864609508
 40
0.1878436528
 40
0.3026088565
 40
0.4288262011
 40
0.5642392177
 40
0.7063532815
 40
1.0
 40
1.0
 40
1.0
 40
1.0
 10
7.077724799
 20
0.8166199337
 30
0.0
 10
7.0774495981
 20
0.8166100473
 30
0.0
 10
7.0768530019
 20
0.8165523693
 30
0.0
 10
7.0759030859
 20
0.8163860119
 30
0.0
 10
7.0748414316
 20
0.8161347514
 30
0.0
 10
7.0736889828
 20
0.8158032402
 30
0.0
 10
7.0724683324
 20
0.8153976673
 30
0.0
 10
7.0707636672
 20
0.8147616617
 30
0.0
 10
7.0694882234
 20
0.8142110201
 30
0.0
 10
7.0686418468
 20
0.813813065
 30
0.0
  0
SPLINE
  5
413
100
AcDbEntity
  8
0
100
AcDbSpline
 62
7
  6
CONTINUOUS
 70
0
 71
3
 72
18
 73
14
 74
0
 42
0.0000001
 43
0.0000001
 44
0.0000000001
 40
0.0
 40
0.0
 40
0.0
 40
0.0
 40
0.0616955366
 40
0.1235811986
 40
0.1856616289
 40
0.2479280246
 40
0.3729469135
 40
0.4985996826
 40
0.5616600011
 40
0.6248293771
 40
0.7512251731
 40
0.8769319018
 40
1.0
 40
1.0
 40
1.0
 40
1.0
 10
6.6767238167
 20
0.6940980783
 30
0.0
 10
6.6759277156
 20
0.6940980785
 30
0.0
 10
6.6743329647
 20
0.6941138117
 30
0.0
 10
6.6719385783
 20
0.694204241
 30
0.0
 10
6.6695411058
 20
0.6943766022
 30
0.0
 10
6.6663422108
 20
0.6947305823
 30
0.0
 10
6.6623590757
 20
0.6954268793
 30
0.0
 10
6.6584460722
 20
0.6964901935
 30
0.0
 10
6.6553790475
 20
0.6975695557
 30
0.0
 10
6.6523607089
 20
0.6988037778
 30
0.0
 10
6.6487163107
 20
0.7006297003
 30
0.0
 10
6.6446342209
 20
0.7032482214
 30
0.0
 10
6.6421353945
 20
0.7052774379
 30
0.0
 10
6.6409677531
 20
0.7063537591
 30
0.0
  0
SPLINE
  5
414
100
AcDbEntity
  8
0
100
AcDbSpline
 62
7
  6
CONTINUOUS
 70
0
 71
3
 72
15
 73
11
 74
0
 42
0.0000001
 43
0.0000001
 44
0.0000000001
 40
0.0
 40
0.0
 40
0.0
 40
0.0
 40
0.1303556867
 40
0.2588871646
 40
0.3856516581
 40
0.510803292
 40
0.6345474839
 40
0.757133897
 40
0.8788574432
 40
1.0
 40
1.0
 40
1.0
 40
1.0
 10
6.6409677531
 20
0.7063537591
 30
0.0
 10
6.6399364062
 20
0.7073044915
 30
0.0
 10
6.6379793321
 20
0.7092946518
 30
0.0
 10
6.6353770817
 20
0.7125359183
 30
0.0
 10
6.6331494555
 20
0.7159793537
 30
0.0
 10
6.631314032
 20
0.7195892071
 30
0.0
 10
6.6298837534
 20
0.7233298775
 30
0.0
 10
6.6288671399
 20
0.727165489
 30
0.0
 10
6.6282690749
 20
0.7310594267
 30
0.0
 10
6.6281495359
 20
0.7336759124
 30
0.0
 10
6.6281593423
 20
0.7349794375
 30
0.0
  0
SPLINE
  5
415
100
AcDbEntity
  8
0
100
AcDbSpline
 62
7
  6
CONTINUOUS
 70
0
 71
3
 72
25
 73
21
 74
0
 42
0.0000001
 43
0.0000001
 44
0.0000000001
 40
0.0
 40
0.0
 40
0.0
 40
0.0
 40
0.2035371965
 40
0.3918563216
 40
0.4788611981
 40
0.5603791988
 40
0.6359228796
 40
0.7050475505
 40
0.767358874
 40
0.8225179297
 40
0.8702545996
 40
0.9103892316
 40
0.927587185
 40
0.9428826291
 40
0.9563057569
 40
0.967919391
 40
0.9778340148
 40
0.9862392479
 40
0.9934583954
 40
1.0
 40
1.0
 40
1.0
 40
1.0
 10
7.0906798328
 20
0.7186455819
 30
0.0
 10
7.0907429555
 20
0.7169316869
 30
0.0
 10
7.0908969774
 20
0.7136331267
 30
0.0
 10
7.0911767771
 20
0.7096073619
 30
0.0
 10
7.091448761
 20
0.7066127437
 30
0.0
 10
7.091666869
 20
0.7045676765
 30
0.0
 10
7.0919030268
 20
0.7026763406
 30
0.0
 10
7.0921556716
 20
0.7009505132
 30
0.0
 10
7.0924230789
 20
0.6994009203
 30
0.0
 10
7.0927033225
 20
0.698037011
 30
0.0
 10
7.0929945007
 20
0.6968671326
 30
0.0
 10
7.0932558749
 20
0.6960203864
 30
0.0
 10
7.0934739693
 20
0.6954483539
 30
0.0
 10
7.0936306483
 20
0.695094351
 30
0.0
 10
7.0937887427
 20
0.6947931489
 30
0.0
 10
7.0939481619
 20
0.6945449312
 30
0.0
 10
7.094109028
 20
0.6943496437
 30
0.0
 10
7.094272229
 20
0.6942073187
 30
0.0
 10
7.0944391591
 20
0.69411885
 30
0.0
 10
7.0945557831
 20
0.6940980783
 30
0.0
 10
7.0946109044
 20
0.6940980783
 30
0.0
  0
SPLINE
  5
416
100
AcDbEntity
  8
0
100
AcDbSpline
 62
7
  6
CONTINUOUS
 70
0
 71
3
 72
14
 73
10
 74
0
 42
0.0000001
 43
0.0000001
 44
0.0000000001
 40
0.0
 40
0.0
 40
0.0
 40
0.0
 40
0.2748689928
 40
0.4075605163
 40
0.5362619208
 40
0.6603751458
 40
0.7793401054
 40
0.8926844718
 40
1.0
 40
1.0
 40
1.0
 40
1.0
 10
7.1096682355
 20
0.7227024504
 30
0.0
 10
7.1104215883
 20
0.721228153
 30
0.0
 10
7.1114585496
 20
0.718999133
 30
0.0
 10
7.1126292023
 20
0.7159877849
 30
0.0
 10
7.1133700158
 20
0.7137860988
 30
0.0
 10
7.1139761302
 20
0.7116292632
 30
0.0
 10
7.1144400677
 20
0.709531802
 30
0.0
 10
7.1147544323
 20
0.7075089802
 30
0.0
 10
7.1148628355
 20
0.7061826532
 30
0.0
 10
7.1148875033
 20
0.705536728
 30
0.0
  0
SPLINE
  5
417
100
AcDbEntity
  8
0
100
AcDbSpline
 62
7
  6
CONTINUOUS
 70
0
 71
3
 72
18
 73
14
 74
0
 42
0.0000001
 43
0.0000001
 44
0.0000000001
 40
0.0
 40
0.0
 40
0.0
 40
0.0
 40
0.066947482
 40
0.1320111346
 40
0.1956345915
 40
0.2582364466
 40
0.3201176564
 40
0.3815115641
 40
0.5033878406
 40
0.6252142091
 40
0.7479413927
 40
0.8725481788
 40
1.0
 40
1.0
 40
1.0
 40
1.0
 10
7.1148875033
 20
0.705536728
 30
0.0
 10
7.1149053646
 20
0.7050661985
 30
0.0
 10
7.1148674928
 20
0.7041339695
 30
0.0
 10
7.1146010231
 20
0.7027790063
 30
0.0
 10
7.1141483312
 20
0.7015070262
 30
0.0
 10
7.1135339839
 20
0.7003308166
 30
0.0
 10
7.112781932
 20
0.6992571939
 30
0.0
 10
7.1116288595
 20
0.6979706831
 30
0.0
 10
7.1099384114
 20
0.6966213275
 30
0.0
 10
7.1076416311
 20
0.695423209
 30
0.0
 10
7.1051610364
 20
0.6946205214
 30
0.0
 10
7.1025543826
 20
0.6941799173
 30
0.0
 10
7.1007795331
 20
0.6940980787
 30
0.0
 10
7.0998831135
 20
0.6940980783
 30
0.0
  0
SPLINE
  5
418
100
AcDbEntity
  8
0
100
AcDbSpline
 62
7
  6
CONTINUOUS
 70
0
 71
3
 72
17
 73
13
 74
0
 42
0.0000001
 43
0.0000001
 44
0.0000000001
 40
0.0
 40
0.0
 40
0.0
 40
0.0
 40
0.1777556333
 40
0.3438949271
 40
0.4959674414
 40
0.6319763097
 40
0.7504153113
 40
0.8028067757
 40
0.8506143742
 40
0.8939428046
 40
0.9330254486
 40
1.0
 40
1.0
 40
1.0
 40
1.0
 10
6.6351289456
 20
0.7034102416
 30
0.0
 10
6.6354310729
 20
0.7036695495
 30
0.0
 10
6.6360263239
 20
0.7041589292
 30
0.0
 10
6.6369181368
 20
0.7048221164
 30
0.0
 10
6.6377681877
 20
0.7053823812
 30
0.0
 10
6.6385618188
 20
0.7058303462
 30
0.0
 10
6.6391888178
 20
0.7061152422
 30
0.0
 10
6.6396519453
 20
0.706275532
 30
0.0
 10
6.639962814
 20
0.7063585312
 30
0.0
 10
6.6402507425
 20
0.7064089888
 30
0.0
 10
6.6405845452
 20
0.7064314262
 30
0.0
 10
6.6408258082
 20
0.7064022233
 30
0.0
 10
6.6409677717
 20
0.7063537419
 30
0.0
  0
SPLINE
  5
419
100
AcDbEntity
  8
0
100
AcDbSpline
 62
7
  6
CONTINUOUS
 70
0
 71
3
 72
24
 73
20
 74
0
 42
0.0000001
 43
0.0000001
 44
0.0000000001
 40
0.0
 40
0.0
 40
0.0
 40
0.0
 40
0.1908145685
 40
0.3740107891
 40
0.4606365672
 40
0.5428653704
 40
0.619948876
 40
0.6911934123
 40
0.7559629482
 40
0.8137032552
 40
0.8639455197
 40
0.9063318253
 40
0.9406650368
 40
0.954821893
 40
0.967026012
 40
0.9773768631
 40
0.9860610447
 40
0.9934164837
 40
1.0
 40
1.0
 40
1.0
 40
1.0
 10
6.678072598
 20
0.6842468407
 30
0.0
 10
6.6780713069
 20
0.6848901483
 30
0.0
 10
6.6780524944
 20
0.6861511044
 30
0.0
 10
6.6779875808
 20
0.6877029585
 30
0.0
 10
6.6779103872
 20
0.6888873902
 30
0.0
 10
6.6778425043
 20
0.6897138027
 30
0.0
 10
6.6777642529
 20
0.6904872021
 30
0.0
 10
6.6776764158
 20
0.6912003113
 30
0.0
 10
6.677579867
 20
0.6918464484
 30
0.0
 10
6.6774756152
 20
0.6924195669
 30
0.0
 10
6.6773648202
 20
0.6929144779
 30
0.0
 10
6.6772485784
 20
0.6933266375
 30
0.0
 10
6.6771428009
 20
0.6936148523
 30
0.0
 10
6.6770533647
 20
0.6937990974
 30
0.0
 10
6.67698989
 20
0.6939055818
 30
0.0
 10
6.6769256673
 20
0.693989458
 30
0.0
 10
6.6768603464
 20
0.6940506873
 30
0.0
 10
6.6767932935
 20
0.6940889772
 30
0.0
 10
6.676746012
 20
0.6940980783
 30
0.0
 10
6.6767238165
 20
0.6940980783
 30
0.0
  0
SPLINE
  5
41A
100
AcDbEntity
  8
0
100
AcDbSpline
 62
7
  6
CONTINUOUS
 70
0
 71
3
 72
12
 73
8
 74
0
 42
0.0000001
 43
0.0000001
 44
0.0000000001
 40
0.0
 40
0.0
 40
0.0
 40
0.0
 40
0.2306219016
 40
0.3530822554
 40
0.4792394491
 40
0.7384880803
 40
1.0
 40
1.0
 40
1.0
 40
1.0
 10
7.1242561397
 20
0.703410242
 30
0.0
 10
7.123654449
 20
0.7038675522
 30
0.0
 10
7.1226393557
 20
0.7044498276
 30
0.0
 10
7.1211724202
 20
0.7050142081
 30
0.0
 10
7.1195655711
 20
0.7054576773
 30
0.0
 10
7.1174515029
 20
0.7057321017
 30
0.0
 10
7.1157365462
 20
0.7056530533
 30
0.0
 10
7.1148875002
 20
0.7055366988
 30
0.0
  0
SPLINE
  5
41B
100
AcDbEntity
  8
0
100
AcDbSpline
 62
7
  6
CONTINUOUS
 70
0
 71
3
 72
14
 73
10
 74
0
 42
0.0000001
 43
0.0000001
 44
0.0000000001
 40
0.0
 40
0.0
 40
0.0
 40
0.0
 40
0.0862681781
 40
0.1874738049
 40
0.3020981303
 40
0.4282305733
 40
0.5636342019
 40
0.7058331541
 40
1.0
 40
1.0
 40
1.0
 40
1.0
 10
7.1187041691
 20
0.7254804095
 30
0.0
 10
7.1184310985
 20
0.7254712701
 30
0.0
 10
7.1178388852
 20
0.7254152819
 30
0.0
 10
7.1168955941
 20
0.7252518162
 30
0.0
 10
7.1158407392
 20
0.7250039261
 30
0.0
 10
7.1146949849
 20
0.724676164
 30
0.0
 10
7.1134806359
 20
0.7242746009
 30
0.0
 10
7.1117828624
 20
0.7236439189
 30
0.0
 10
7.1105120107
 20
0.7230974802
 30
0.0
 10
7.1096682351
 20
0.7227024513
 30
0.0
  0
SPLINE
  5
41C
100
AcDbEntity
  8
0
100
AcDbSpline
 62
7
  6
CONTINUOUS
 70
0
 71
3
 72
13
 73
9
 74
0
 42
0.0000001
 43
0.0000001
 44
0.0000000001
 40
0.0
 40
0.0
 40
0.0
 40
0.0
 40
0.3308054334
 40
0.5998267983
 40
0.7137127917
 40
0.8162495269
 40
0.9103826306
 40
1.0
 40
1.0
 40
1.0
 40
1.0
 10
7.1410479274
 20
0.7377610694
 30
0.0
 10
7.141202119
 20
0.737755174
 30
0.0
 10
7.1414814874
 20
0.7377306255
 30
0.0
 10
7.1418070346
 20
0.7376488878
 30
0.0
 10
7.1420122105
 20
0.7375513233
 30
0.0
 10
7.1421320655
 20
0.7374685991
 30
0.0
 10
7.1422257828
 20
0.7373721344
 30
0.0
 10
7.1422705682
 20
0.737297968
 30
0.0
 10
7.142287731
 20
0.7372598517
 30
0.0
  0
SPLINE
  5
41D
100
AcDbEntity
  8
0
100
AcDbSpline
 62
7
  6
CONTINUOUS
 70
0
 71
3
 72
13
 73
9
 74
0
 42
0.0000001
 43
0.0000001
 44
0.0000000001
 40
0.0
 40
0.0
 40
0.0
 40
0.0
 40
0.3303355872
 40
0.5991960592
 40
0.7131298957
 40
0.8157995327
 40
0.9101364738
 40
1.0
 40
1.0
 40
1.0
 40
1.0
 10
7.1055648738
 20
0.8166199337
 30
0.0
 10
7.1057173693
 20
0.8166136776
 30
0.0
 10
7.1059937307
 20
0.8165885745
 30
0.0
 10
7.1063156635
 20
0.8165066259
 30
0.0
 10
7.1065185922
 20
0.8164093382
 30
0.0
 10
7.1066372227
 20
0.8163269662
 30
0.0
 10
7.1067300394
 20
0.8162310396
 30
0.0
 10
7.1067744489
 20
0.8161573738
 30
0.0
 10
7.1067914984
 20
0.8161195166
 30
0.0
  0
SPLINE
  5
41E
100
AcDbEntity
  8
0
100
AcDbSpline
 62
7
  6
CONTINUOUS
 70
0
 71
3
 72
12
 73
8
 74
0
 42
0.0000001
 43
0.0000001
 44
0.0000000001
 40
0.0
 40
0.0
 40
0.0
 40
0.0
 40
0.3131545765
 40
0.5770123559
 40
0.8000936578
 40
0.9016429918
 40
1.0
 40
1.0
 40
1.0
 40
1.0
 10
7.0890678159
 20
0.8545404408
 30
0.0
 10
7.0892304454
 20
0.8545150943
 30
0.0
 10
7.089528187
 20
0.8544511545
 30
0.0
 10
7.0899208087
 20
0.8542936084
 30
0.0
 10
7.0901750155
 20
0.8541085516
 30
0.0
 10
7.0903154244
 20
0.8539347506
 30
0.0
 10
7.0903655194
 20
0.8538415403
 30
0.0
 10
7.0903854928
 20
0.8537938586
 30
0.0
  0
SPLINE
  5
41F
100
AcDbEntity
  8
0
100
AcDbSpline
 62
7
  6
CONTINUOUS
 70
0
 71
3
 72
9
 73
5
 74
0
 42
0.0000001
 43
0.0000001
 44
0.0000000001
 40
0.0
 40
0.0
 40
0.0
 40
0.0
 40
0.4978765239
 40
1.0
 40
1.0
 40
1.0
 40
1.0
 10
7.0758486258
 20
0.9159878356
 30
0.0
 10
7.0761880812
 20
0.9152765112
 30
0.0
 10
7.0767078916
 20
0.9137652938
 30
0.0
 10
7.076882151
 20
0.9121773619
 30
0.0
 10
7.0768821802
 20
0.9113824684
 30
0.0
  0
SPLINE
  5
420
100
AcDbEntity
  8
0
100
AcDbSpline
 62
7
  6
CONTINUOUS
 70
0
 71
3
 72
11
 73
7
 74
0
 42
0.0000001
 43
0.0000001
 44
0.0000000001
 40
0.0
 40
0.0
 40
0.0
 40
0.0
 40
0.2803329987
 40
0.5361072557
 40
0.7731402858
 40
1.0
 40
1.0
 40
1.0
 40
1.0
 10
7.163609635
 20
0.7034102416
 30
0.0
 10
7.1636234652
 20
0.7036300721
 30
0.0
 10
7.1636213014
 20
0.7040532963
 30
0.0
 10
7.1635127827
 20
0.7046546744
 30
0.0
 10
7.1632981603
 20
0.7051826835
 30
0.0
 10
7.1630827639
 20
0.7054820084
 30
0.0
 10
7.1629614542
 20
0.7056126105
 30
0.0
  0
SPLINE
  5
421
100
AcDbEntity
  8
0
100
AcDbSpline
 62
7
  6
CONTINUOUS
 70
0
 71
3
 72
18
 73
14
 74
0
 42
0.0000001
 43
0.0000001
 44
0.0000000001
 40
0.0
 40
0.0
 40
0.0
 40
0.0
 40
0.1296596464
 40
0.1943157491
 40
0.258710899
 40
0.3863214673
 40
0.5122189062
 40
0.5745414328
 40
0.6364011523
 40
0.6978231869
 40
0.758849751
 40
0.879788173
 40
1.0
 40
1.0
 40
1.0
 40
1.0
 10
7.1854771563
 20
0.6842468407
 30
0.0
 10
7.1854682564
 20
0.6848931545
 30
0.0
 10
7.1853674504
 20
0.6858635435
 30
0.0
 10
7.1850613767
 20
0.6871177392
 30
0.0
 10
7.1846458534
 20
0.688329584
 30
0.0
 10
7.1839271146
 20
0.6897528016
 30
0.0
 10
7.1829601751
 20
0.6910084538
 30
0.0
 10
7.1820627531
 20
0.6918762701
 30
0.0
 10
7.1813364488
 20
0.6924520195
 30
0.0
 10
7.1805616855
 20
0.6929489156
 30
0.0
 10
7.1794777997
 20
0.6934981317
 30
0.0
 10
7.178035193
 20
0.6939693243
 30
0.0
 10
7.1768295594
 20
0.6940975363
 30
0.0
 10
7.1762302835
 20
0.6940980749
 30
0.0
  0
SPLINE
  5
422
100
AcDbEntity
  8
0
100
AcDbSpline
 62
7
  6
CONTINUOUS
 70
0
 71
3
 72
13
 73
9
 74
0
 42
0.0000001
 43
0.0000001
 44
0.0000000001
 40
0.0
 40
0.0
 40
0.0
 40
0.0
 40
0.2648932281
 40
0.5175000568
 40
0.6402593613
 40
0.7612086208
 40
0.8809364442
 40
1.0
 40
1.0
 40
1.0
 40
1.0
 10
2.5520411145
 20
5.842027601
 30
0.0
 10
2.5512488863
 20
5.8415856255
 30
0.0
 10
2.5497644187
 20
5.8406006061
 30
0.0
 10
2.5481681614
 20
5.8390780636
 30
0.0
 10
2.547119079
 20
5.8377376743
 30
0.0
 10
2.5464513549
 20
5.8366847124
 30
0.0
 10
2.5458996436
 20
5.8355808728
 30
0.0
 10
2.5456106601
 20
5.8348140005
 30
0.0
 10
2.5454868711
 20
5.8344254898
 30
0.0
  0
SPLINE
  5
423
100
AcDbEntity
  8
0
100
AcDbSpline
 62
7
  6
CONTINUOUS
 70
0
 71
3
 72
13
 73
9
 74
0
 42
0.0000001
 43
0.0000001
 44
0.0000000001
 40
0.0
 40
0.0
 40
0.0
 40
0.0
 40
0.2648932281
 40
0.5175000568
 40
0.6402593613
 40
0.7612086208
 40
0.8809364442
 40
1.0
 40
1.0
 40
1.0
 40
1.0
 10
2.525306255
 20
5.7581205273
 30
0.0
 10
2.5249157485
 20
5.7589393512
 30
0.0
 10
2.5242747633
 20
5.7606015923
 30
0.0
 10
2.5238535609
 20
5.7627669471
 30
0.0
 10
2.5237732939
 20
5.7644671749
 30
0.0
 10
2.5238378078
 20
5.7657123344
 30
0.0
 10
2.5240263836
 20
5.7669318779
 30
0.0
 10
2.5242343173
 20
5.7677245747
 30
0.0
 10
2.5243581064
 20
5.7681130853
 30
0.0
  0
SPLINE
  5
424
100
AcDbEntity
  8
0
100
AcDbSpline
 62
7
  6
CONTINUOUS
 70
0
 71
3
 72
29
 73
25
 74
0
 42
0.0000001
 43
0.0000001
 44
0.0000000001
 40
0.0
 40
0.0
 40
0.0
 40
0.0
 40
0.0416644316
 40
0.0808741085
 40
0.1182113588
 40
0.1545573904
 40
0.1910672515
 40
0.22914962
 40
0.2704677033
 40
0.3164947691
 40
0.3685949242
 40
0.4282971212
 40
0.4616106202
 40
0.4976313225
 40
0.5368738412
 40
0.5801667396
 40
0.6036152528
 40
0.6282273226
 40
0.6798437874
 40
0.732831169
 40
0.7861902999
 40
0.8396382658
 40
0.8931055926
 40
1.0
 40
1.0
 40
1.0
 40
1.0
 10
6.1061288786
 20
0.9113808373
 30
0.0
 10
6.1064559096
 20
0.9114428725
 30
0.0
 10
6.1070979386
 20
0.9115304705
 30
0.0
 10
6.1080460196
 20
0.9115269404
 30
0.0
 10
6.1089393377
 20
0.9113704666
 30
0.0
 10
6.1097668884
 20
0.9110532229
 30
0.0
 10
6.1105170253
 20
0.9105691444
 30
0.0
 10
6.1111774092
 20
0.9099100177
 30
0.0
 10
6.1117261983
 20
0.9090635821
 30
0.0
 10
6.1121516817
 20
0.9080280916
 30
0.0
 10
6.112439078
 20
0.9067955621
 30
0.0
 10
6.1125397779
 20
0.9056367649
 30
0.0
 10
6.1125308247
 20
0.9046053914
 30
0.0
 10
6.1124670976
 20
0.9037396405
 30
0.0
 10
6.1123351392
 20
0.9028010084
 30
0.0
 10
6.1121571407
 20
0.9019723113
 30
0.0
 10
6.1119633812
 20
0.9012685141
 30
0.0
 10
6.1117238918
 20
0.9005088681
 30
0.0
 10
6.1113688868
 20
0.8995391192
 30
0.0
 10
6.1109074114
 20
0.8983645662
 30
0.0
 10
6.1104336946
 20
0.8971790772
 30
0.0
 10
6.1099583231
 20
0.8959901382
 30
0.0
 10
6.1093260486
 20
0.894403309
 30
0.0
 10
6.10885514
 20
0.8932118379
 30
0.0
 10
6.1085426818
 20
0.8924170577
 30
0.0
  0
SPLINE
  5
425
100
AcDbEntity
  8
0
100
AcDbSpline
 62
7
  6
CONTINUOUS
 70
0
 71
3
 72
9
 73
5
 74
0
 42
0.0000001
 43
0.0000001
 44
0.0000000001
 40
0.0
 40
0.0
 40
0.0
 40
0.0
 40
0.497878689
 40
1.0
 40
1.0
 40
1.0
 40
1.0
 10
6.1071625731
 20
0.9159878356
 30
0.0
 10
6.1068230883
 20
0.9152765143
 30
0.0
 10
6.1063032178
 20
0.9137653041
 30
0.0
 10
6.1061289013
 20
0.9121773649
 30
0.0
 10
6.1061288469
 20
0.9113824684
 30
0.0
  0
SPLINE
  5
426
100
AcDbEntity
  8
0
100
AcDbSpline
 62
7
  6
CONTINUOUS
 70
0
 71
3
 72
12
 73
8
 74
0
 42
0.0000001
 43
0.0000001
 44
0.0000000001
 40
0.0
 40
0.0
 40
0.0
 40
0.0
 40
0.313153757
 40
0.5770119181
 40
0.8000940008
 40
0.9016434065
 40
1.0
 40
1.0
 40
1.0
 40
1.0
 10
6.0939433591
 20
0.8545403534
 30
0.0
 10
6.0937807335
 20
0.8545150077
 30
0.0
 10
6.0934829985
 20
0.85445107
 30
0.0
 10
6.0930903841
 20
0.8542935305
 30
0.0
 10
6.092836179
 20
0.8541084824
 30
0.0
 10
6.0926957678
 20
0.8539346895
 30
0.0
 10
6.0926456704
 20
0.8538414832
 30
0.0
 10
6.0926256956
 20
0.8537938035
 30
0.0
  0
SPLINE
  5
427
100
AcDbEntity
  8
0
100
AcDbSpline
 62
7
  6
CONTINUOUS
 70
0
 71
3
 72
13
 73
9
 74
0
 42
0.0000001
 43
0.0000001
 44
0.0000000001
 40
0.0
 40
0.0
 40
0.0
 40
0.0
 40
0.3303358425
 40
0.5991963884
 40
0.7131301937
 40
0.8157997579
 40
0.9101365941
 40
1.0
 40
1.0
 40
1.0
 40
1.0
 10
6.0774463377
 20
0.8166199337
 30
0.0
 10
6.0772938422
 20
0.8166136779
 30
0.0
 10
6.0770174811
 20
0.8165885752
 30
0.0
 10
6.0766955485
 20
0.8165066271
 30
0.0
 10
6.07649262
 20
0.8164093399
 30
0.0
 10
6.0763739896
 20
0.8163269682
 30
0.0
 10
6.0762811731
 20
0.8162310419
 30
0.0
 10
6.0762367637
 20
0.8161573764
 30
0.0
 10
6.0762197142
 20
0.8161195193
 30
0.0
  0
SPLINE
  5
428
100
AcDbEntity
  8
0
100
AcDbSpline
 62
7
  6
CONTINUOUS
 70
0
 71
3
 72
12
 73
8
 74
0
 42
0.0000001
 43
0.0000001
 44
0.0000000001
 40
0.0
 40
0.0
 40
0.0
 40
0.0
 40
0.2994576182
 40
0.5596218207
 40
0.7884044669
 40
0.8953724694
 40
1.0
 40
1.0
 40
1.0
 40
1.0
 10
6.022836476
 20
0.703410246
 30
0.0
 10
6.0227910267
 20
0.7035841485
 30
0.0
 10
6.0227261128
 20
0.7039152779
 30
0.0
 10
6.0227174924
 20
0.7043913855
 30
0.0
 10
6.0227961284
 20
0.7047452975
 30
0.0
 10
6.0229106674
 20
0.7049845634
 30
0.0
 10
6.0229831978
 20
0.7050896123
 30
0.0
 10
6.0230229523
 20
0.7051382281
 30
0.0
  0
SPLINE
  5
429
100
AcDbEntity
  8
0
100
AcDbSpline
 62
7
  6
CONTINUOUS
 70
0
 71
3
 72
13
 73
9
 74
0
 42
0.0000001
 43
0.0000001
 44
0.0000000001
 40
0.0
 40
0.0
 40
0.0
 40
0.0
 40
0.3308718091
 40
0.5999160127
 40
0.713795294
 40
0.8163132553
 40
0.9104175126
 40
1.0
 40
1.0
 40
1.0
 40
1.0
 10
6.0364384036
 20
0.7254804095
 30
0.0
 10
6.0362839695
 20
0.725474566
 30
0.0
 10
6.036004171
 20
0.7254500972
 30
0.0
 10
6.0356781067
 20
0.72536839
 30
0.0
 10
6.0354726092
 20
0.7252707861
 30
0.0
 10
6.035352579
 20
0.7251880116
 30
0.0
 10
6.0352587327
 20
0.72509147
 30
0.0
 10
6.0352138935
 20
0.725017232
 30
0.0
 10
6.0351967145
 20
0.7249790787
 30
0.0
  0
LINE
  5
42A
100
AcDbEntity
  8
0
100
AcDbLine
 62
7
  6
CONTINUOUS
 10
6.0788707486
 20
0.734979374
 11
6.1143693631
 21
0.8138130615
  0
SPLINE
  5
42B
100
AcDbEntity
  8
0
100
AcDbSpline
 62
7
  6
CONTINUOUS
 70
0
 71
3
 72
18
 73
14
 74
0
 42
0.0000001
 43
0.0000001
 44
0.0000000001
 40
0.0
 40
0.0
 40
0.0
 40
0.0
 40
0.1430499811
 40
0.2851232097
 40
0.4240123563
 40
0.5575598358
 40
0.6837183887
 40
0.7434305315
 40
0.8005994492
 40
0.8550192222
 40
0.9065014661
 40
0.9548827548
 40
1.0
 40
1.0
 40
1.0
 40
1.0
 10
6.1143693631
 20
0.8138130615
 30
0.0
 10
6.1168818913
 20
0.8126150769
 30
0.0
 10
6.1219257315
 20
0.8103018545
 30
0.0
 10
6.1295249564
 20
0.8070857805
 30
0.0
 10
6.1370465165
 20
0.8041697574
 30
0.0
 10
6.1443664839
 20
0.8016016129
 30
0.0
 10
6.1503024285
 20
0.7997533226
 30
0.0
 10
6.1548595995
 20
0.798488379
 30
0.0
 10
6.15809072
 20
0.7976684162
 30
0.0
 10
6.1611847278
 20
0.7969628793
 30
0.0
 10
6.1641290601
 20
0.7963746381
 30
0.0
 10
6.166911423
 20
0.7959061095
 30
0.0
 10
6.1687153619
 20
0.7956660879
 30
0.0
 10
6.169587821
 20
0.7955684352
 30
0.0
  0
SPLINE
  5
42C
100
AcDbEntity
  8
0
100
AcDbSpline
 62
7
  6
CONTINUOUS
 70
0
 71
3
 72
23
 73
19
 74
0
 42
0.0000001
 43
0.0000001
 44
0.0000000001
 40
0.0
 40
0.0
 40
0.0
 40
0.0
 40
0.0711657795
 40
0.1424687297
 40
0.2136006697
 40
0.2842890233
 40
0.3542525936
 40
0.4232075065
 40
0.490879244
 40
0.5569958851
 40
0.6212879906
 40
0.6834989688
 40
0.743382814
 40
0.8007029548
 40
0.85522506
 40
0.9067321335
 40
0.95505209
 40
1.0
 40
1.0
 40
1.0
 40
1.0
 10
6.0788707486
 20
0.734979374
 30
0.0
 10
6.0801910309
 20
0.7345209701
 30
0.0
 10
6.0828393801
 20
0.7336182977
 30
0.0
 10
6.0868246451
 20
0.7323087709
 30
0.0
 10
6.0908152565
 20
0.7310463276
 30
0.0
 10
6.0947953484
 20
0.7298387889
 30
0.0
 10
6.0987481776
 20
0.7286896437
 30
0.0
 10
6.1026568979
 20
0.7276019233
 30
0.0
 10
6.1065060293
 20
0.7265829953
 30
0.0
 10
6.1102793498
 20
0.7256368361
 30
0.0
 10
6.1139604014
 20
0.7247649357
 30
0.0
 10
6.1175341423
 20
0.7239726055
 30
0.0
 10
6.1209858416
 20
0.723264298
 30
0.0
 10
6.1243009303
 20
0.7226438704
 30
0.0
 10
6.1274645407
 20
0.7221112634
 30
0.0
 10
6.130463084
 20
0.7216658344
 30
0.0
 10
6.1332850552
 20
0.7213166961
 30
0.0
 10
6.1351086516
 20
0.7211419237
 30
0.0
 10
6.1359885332
 20
0.7210712562
 30
0.0
  0
SPLINE
  5
42D
100
AcDbEntity
  8
0
100
AcDbSpline
 62
7
  6
CONTINUOUS
 70
0
 71
3
 72
11
 73
7
 74
0
 42
0.0000001
 43
0.0000001
 44
0.0000000001
 40
0.0
 40
0.0
 40
0.0
 40
0.0
 40
0.2490006595
 40
0.498712785
 40
0.749073665
 40
1.0
 40
1.0
 40
1.0
 40
1.0
 10
6.1143693631
 20
0.8138130615
 30
0.0
 10
6.1157787848
 20
0.8169430515
 30
0.0
 10
6.1185707462
 20
0.8232259469
 30
0.0
 10
6.1226662996
 20
0.8327058996
 30
0.0
 10
6.1266590264
 20
0.842258454
 30
0.0
 10
6.1292297812
 20
0.8486736009
 30
0.0
 10
6.1304852892
 20
0.851896948
 30
0.0
  0
SPLINE
  5
42E
100
AcDbEntity
  8
0
100
AcDbSpline
 62
7
  6
CONTINUOUS
 70
0
 71
3
 72
15
 73
11
 74
0
 42
0.0000001
 43
0.0000001
 44
0.0000000001
 40
0.0
 40
0.0
 40
0.0
 40
0.0
 40
0.1408562817
 40
0.2804791903
 40
0.4171456966
 40
0.5491657752
 40
0.6749222082
 40
0.7928910847
 40
0.9016665169
 40
1.0
 40
1.0
 40
1.0
 40
1.0
 10
6.1304852892
 20
0.851896948
 30
0.0
 10
6.1329152153
 20
0.8522732666
 30
0.0
 10
6.1377457467
 20
0.8530756588
 30
0.0
 10
6.1449019197
 20
0.8544266504
 30
0.0
 10
6.1518748556
 20
0.8559072962
 30
0.0
 10
6.1585749211
 20
0.8574984199
 30
0.0
 10
6.1649160213
 20
0.8591792874
 30
0.0
 10
6.1708169169
 20
0.8609279468
 30
0.0
 10
6.176202024
 20
0.8627213931
 30
0.0
 10
6.1795854302
 20
0.8639999594
 30
0.0
 10
6.1811746053
 20
0.8646489437
 30
0.0
  0
SPLINE
  5
42F
100
AcDbEntity
  8
0
100
AcDbSpline
 62
7
  6
CONTINUOUS
 70
0
 71
3
 72
47
 73
43
 74
0
 42
0.0000001
 43
0.0000001
 44
0.0000000001
 40
0.0
 40
0.0
 40
0.0
 40
0.0
 40
0.0681641221
 40
0.1362724311
 40
0.2043186843
 40
0.2722943463
 40
0.3401876272
 40
0.40798102
 40
0.4418325085
 40
0.4756480537
 40
0.5094223056
 40
0.5431476106
 40
0.5599906124
 40
0.5768191801
 40
0.5936337924
 40
0.6104402214
 40
0.6272510249
 40
0.635667323
 40
0.6441011191
 40
0.6525674264
 40
0.6610876546
 40
0.6696738897
 40
0.678323071
 40
0.6869940728
 40
0.6956316933
 40
0.7126624627
 40
0.729299306
 40
0.7455286134
 40
0.7613536107
 40
0.776778806
 40
0.7918120469
 40
0.8064665917
 40
0.8346696517
 40
0.8614667314
 40
0.874371471
 40
0.8869669825
 40
0.8992758712
 40
0.9113165092
 40
0.9346496929
 40
0.9571046173
 40
0.9788363176
 40
1.0
 40
1.0
 40
1.0
 40
1.0
 10
6.1304852998
 20
0.8518969496
 30
0.0
 10
6.1311041705
 20
0.8535324348
 30
0.0
 10
6.1323366857
 20
0.8568038549
 30
0.0
 10
6.1341689324
 20
0.8617147156
 30
0.0
 10
6.1359829072
 20
0.866627204
 30
0.0
 10
6.1377761904
 20
0.8715414147
 30
0.0
 10
6.1395467192
 20
0.8764569777
 30
0.0
 10
6.1410005459
 20
0.8805560999
 30
0.0
 10
6.1421476954
 20
0.8838363607
 30
0.0
 10
6.1429987821
 20
0.8862956
 30
0.0
 10
6.1438404531
 20
0.8887546589
 30
0.0
 10
6.144532317
 20
0.8908047648
 30
0.0
 10
6.145081015
 20
0.8924443673
 30
0.0
 10
6.1454894737
 20
0.8936734293
 30
0.0
 10
6.1458953349
 20
0.8949023631
 30
0.0
 10
6.1463013636
 20
0.8961307593
 30
0.0
 10
6.1466422736
 20
0.8971537739
 30
0.0
 10
6.1469213721
 20
0.8979709599
 30
0.0
 10
6.1471365749
 20
0.8985837378
 30
0.0
 10
6.1473622585
 20
0.8991956277
 30
0.0
 10
6.1476073915
 20
0.8998042662
 30
0.0
 10
6.1478780079
 20
0.900407328
 30
0.0
 10
6.1481861565
 20
0.9009967004
 30
0.0
 10
6.1485329547
 20
0.9015657248
 30
0.0
 10
6.1490364322
 20
0.9022891401
 30
0.0
 10
6.149723278
 20
0.903131336
 30
0.0
 10
6.1505990605
 20
0.9040657724
 30
0.0
 10
6.151501722
 20
0.9049299621
 30
0.0
 10
6.1524206665
 20
0.9057300388
 30
0.0
 10
6.1533499879
 20
0.9064696426
 30
0.0
 10
6.1542855599
 20
0.9071514595
 30
0.0
 10
6.1555201923
 20
0.9079773989
 30
0.0
 10
6.1570630202
 20
0.9088828982
 30
0.0
 10
6.1586343861
 20
0.9096398848
 30
0.0
 10
6.1598785626
 20
0.9101428346
 30
0.0
 10
6.1607931159
 20
0.9104668329
 30
0.0
 10
6.1616992906
 20
0.9107455313
 30
0.0
 10
6.1628827915
 20
0.9110559095
 30
0.0
 10
6.1643408352
 20
0.9113405117
 30
0.0
 10
6.1660661147
 20
0.9115193759
 30
0.0
 10
6.1677448434
 20
0.9115369752
 30
0.0
 10
6.1688433091
 20
0.9114477061
 30
0.0
 10
6.169382102
 20
0.9113808393
 30
0.0
  0
LINE
  5
430
100
AcDbEntity
  8
0
100
AcDbLine
 62
7
  6
CONTINUOUS
 10
6.5548807926
 20
0.8138130616
 11
6.5548476819
 21
0.722702476
  0
SPLINE
  5
431
100
AcDbEntity
  8
0
100
AcDbSpline
 62
7
  6
CONTINUOUS
 70
0
 71
3
 72
11
 73
7
 74
0
 42
0.0000001
 43
0.0000001
 44
0.0000000001
 40
0.0
 40
0.0
 40
0.0
 40
0.0
 40
0.2134781727
 40
0.4514421954
 40
0.713780291
 40
1.0
 40
1.0
 40
1.0
 40
1.0
 10
6.5548476819
 20
0.722702476
 30
0.0
 10
6.55418223
 20
0.7223152677
 30
0.0
 10
6.5527373765
 20
0.7215604823
 30
0.0
 10
6.5503771191
 20
0.72052917
 30
0.0
 10
6.547716619
 20
0.719541738
 30
0.0
 10
6.5458311199
 20
0.718940424
 30
0.0
 10
6.5448418379
 20
0.7186457071
 30
0.0
  0
SPLINE
  5
432
100
AcDbEntity
  8
0
100
AcDbSpline
 62
7
  6
CONTINUOUS
 70
0
 71
3
 72
15
 73
11
 74
0
 42
0.0000001
 43
0.0000001
 44
0.0000000001
 40
0.0
 40
0.0
 40
0.0
 40
0.0
 40
0.1029905952
 40
0.2129289045
 40
0.3297411113
 40
0.4530918587
 40
0.5824590173
 40
0.7172016521
 40
0.856644215
 40
1.0
 40
1.0
 40
1.0
 40
1.0
 10
6.5448418379
 20
0.7186457071
 30
0.0
 10
6.5434742889
 20
0.7182377856
 30
0.0
 10
6.5405883752
 20
0.7175860428
 30
0.0
 10
6.5360457151
 20
0.7170427853
 30
0.0
 10
6.5311917753
 20
0.7168867483
 30
0.0
 10
6.5260718062
 20
0.7170891703
 30
0.0
 10
6.5207270576
 20
0.7176273653
 30
0.0
 10
6.5151989701
 20
0.7184842405
 30
0.0
 10
6.5095257598
 20
0.7196274209
 30
0.0
 10
6.5057177367
 20
0.7205575785
 30
0.0
 10
6.5037989049
 20
0.7210713099
 30
0.0
  0
SPLINE
  5
433
100
AcDbEntity
  8
0
100
AcDbSpline
 62
7
  6
CONTINUOUS
 70
0
 71
3
 72
11
 73
7
 74
0
 42
0.0000001
 43
0.0000001
 44
0.0000000001
 40
0.0
 40
0.0
 40
0.0
 40
0.0
 40
0.2530455228
 40
0.5039553474
 40
0.7529101397
 40
1.0
 40
1.0
 40
1.0
 40
1.0
 10
6.5543912063
 20
0.8518968548
 30
0.0
 10
6.5544576371
 20
0.8486849006
 30
0.0
 10
6.5545910728
 20
0.842288122
 30
0.0
 10
6.5547552183
 20
0.8327306169
 30
0.0
 10
6.5548597281
 20
0.82324786
 30
0.0
 10
6.5548821073
 20
0.81695009
 30
0.0
 10
6.5548807926
 20
0.8138130616
 30
0.0
  0
SPLINE
  5
434
100
AcDbEntity
  8
0
100
AcDbSpline
 62
7
  6
CONTINUOUS
 70
0
 71
3
 72
20
 73
16
 74
0
 42
0.0000001
 43
0.0000001
 44
0.0000000001
 40
0.0
 40
0.0
 40
0.0
 40
0.0
 40
0.0452504898
 40
0.0930154126
 40
0.1433576575
 40
0.1963107751
 40
0.2518581992
 40
0.3099444499
 40
0.3704825449
 40
0.4333575447
 40
0.4984306012
 40
0.5655409425
 40
0.7051258058
 40
0.8505349729
 40
1.0
 40
1.0
 40
1.0
 40
1.0
 10
6.5548807926
 20
0.8138130616
 30
0.0
 10
6.5543242559
 20
0.8131989337
 30
0.0
 10
6.5531220849
 20
0.8119884011
 30
0.0
 10
6.551127601
 20
0.8102771575
 30
0.0
 10
6.5489023778
 20
0.8086293267
 30
0.0
 10
6.5464558798
 20
0.8070516212
 30
0.0
 10
6.543797965
 20
0.8055501094
 30
0.0
 10
6.5409394274
 20
0.8041309555
 30
0.0
 10
6.5378919698
 20
0.8027998558
 30
0.0
 10
6.5346680624
 20
0.8015622145
 30
0.0
 10
6.5312808518
 20
0.800423131
 30
0.0
 10
6.5265029268
 20
0.7990237433
 30
0.0
 10
6.520215654
 20
0.7975616927
 30
0.0
 10
6.5123563442
 20
0.7962842218
 30
0.0
 10
6.5069774783
 20
0.795754763
 30
0.0
 10
6.5042462979
 20
0.7955684352
 30
0.0
  0
SPLINE
  5
435
100
AcDbEntity
  8
0
100
AcDbSpline
 62
7
  6
CONTINUOUS
 70
0
 71
3
 72
49
 73
45
 74
0
 42
0.0000001
 43
0.0000001
 44
0.0000000001
 40
0.0
 40
0.0
 40
0.0
 40
0.0
 40
0.0332086574
 40
0.0663123423
 40
0.099279641
 40
0.1320824961
 40
0.1646883509
 40
0.1970597063
 40
0.2131467983
 40
0.2291578405
 40
0.2450863901
 40
0.2609261554
 40
0.276670407
 40
0.2923120004
 40
0.3078422682
 40
0.3232526798
 40
0.3385348387
 40
0.3536823259
 40
0.3612110396
 40
0.368713529
 40
0.3762017435
 40
0.3836978751
 40
0.3912281923
 40
0.3988089321
 40
0.4064375019
 40
0.4140991305
 40
0.4217853473
 40
0.4294850761
 40
0.444906631
 40
0.4603442343
 40
0.4757888546
 40
0.4912344004
 40
0.5066790808
 40
0.5375658551
 40
0.5684439268
 40
0.5993137532
 40
0.6301755671
 40
0.6610287369
 40
0.691875111
 40
0.7535461578
 40
0.8151923883
 40
0.8768152648
 40
0.9384174346
 40
1.0
 40
1.0
 40
1.0
 40
1.0
 10
6.5282523678
 20
0.9113808373
 30
0.0
 10
6.5291324004
 20
0.9114468294
 30
0.0
 10
6.5308933164
 20
0.9115357561
 30
0.0
 10
6.5335330582
 20
0.9115210046
 30
0.0
 10
6.5361564847
 20
0.911346144
 30
0.0
 10
6.5387504077
 20
0.9110056136
 30
0.0
 10
6.5413001771
 20
0.91049476
 30
0.0
 10
6.5433782848
 20
0.909917742
 30
0.0
 10
6.5449970081
 20
0.9093551148
 30
0.0
 10
6.5461836487
 20
0.90888407
 30
0.0
 10
6.5473416125
 20
0.9083620943
 30
0.0
 10
6.5484668937
 20
0.9077882764
 30
0.0
 10
6.5495548905
 20
0.9071616129
 30
0.0
 10
6.5506004236
 20
0.9064811427
 30
0.0
 10
6.5515949599
 20
0.9057426089
 30
0.0
 10
6.5525294645
 20
0.9049436714
 30
0.0
 10
6.5533911508
 20
0.9040807002
 30
0.0
 10
6.554034201
 20
0.9033004885
 30
0.0
 10
6.5544827324
 20
0.9026349085
 30
0.0
 10
6.5547776699
 20
0.9021133409
 30
0.0
 10
6.5550212166
 20
0.9015664057
 30
0.0
 10
6.5552004572
 20
0.9009940698
 30
0.0
 10
6.5553121326
 20
0.9004025201
 30
0.0
 10
6.5553647893
 20
0.8997997856
 30
0.0
 10
6.5553751638
 20
0.8991918316
 30
0.0
 10
6.5553628634
 20
0.898581283
 30
0.0
 10
6.555333925
 20
0.8979694497
 30
0.0
 10
6.5552867128
 20
0.8971521171
 30
0.0
 10
6.5552186823
 20
0.896129682
 30
0.0
 10
6.5551349974
 20
0.894902035
 30
0.0
 10
6.5550536491
 20
0.8936735849
 30
0.0
 10
6.5549776192
 20
0.8924446046
 30
0.0
 10
6.5548833722
 20
0.8908056156
 30
0.0
 10
6.5547774531
 20
0.8887565223
 30
0.0
 10
6.554670359
 20
0.88629711
 30
0.0
 10
6.554579619
 20
0.8838377107
 30
0.0
 10
6.5545037937
 20
0.8813784701
 30
0.0
 10
6.5544416218
 20
0.8789194729
 30
0.0
 10
6.5543743901
 20
0.8756416399
 30
0.0
 10
6.5543183032
 20
0.8715451486
 30
0.0
 10
6.5542883295
 20
0.8666305082
 30
0.0
 10
6.5542918773
 20
0.8617176124
 30
0.0
 10
6.5543254383
 20
0.85680653
 30
0.0
 10
6.5543664067
 20
0.8535331941
 30
0.0
 10
6.554391203
 20
0.8518968559
 30
0.0
  0
SPLINE
  5
436
100
AcDbEntity
  8
0
100
AcDbSpline
 62
7
  6
CONTINUOUS
 70
0
 71
3
 72
14
 73
10
 74
0
 42
0.0000001
 43
0.0000001
 44
0.0000000001
 40
0.0
 40
0.0
 40
0.0
 40
0.0
 40
0.0846721653
 40
0.1837872471
 40
0.2960837915
 40
0.4201212887
 40
0.554308012
 40
0.696921018
 40
1.0
 40
1.0
 40
1.0
 40
1.0
 10
6.554391203
 20
0.8518968559
 30
0.0
 10
6.5531332957
 20
0.8523103269
 30
0.0
 10
6.5503942353
 20
0.8531813958
 30
0.0
 10
6.5459646961
 20
0.8545299804
 30
0.0
 10
6.5409319609
 20
0.8560101286
 30
0.0
 10
6.53536075
 20
0.8576025095
 30
0.0
 10
6.5293227558
 20
0.8592864038
 30
0.0
 10
6.5205742427
 20
0.8616732821
 30
0.0
 10
6.5138361966
 20
0.8634562421
 30
0.0
 10
6.5092491174
 20
0.8646489436
 30
0.0
  0
SPLINE
  5
437
100
AcDbEntity
  8
0
100
AcDbSpline
 62
7
  6
CONTINUOUS
 70
0
 71
3
 72
14
 73
10
 74
0
 42
0.0000001
 43
0.0000001
 44
0.0000000001
 40
0.0
 40
0.0
 40
0.0
 40
0.0
 40
0.0862923594
 40
0.1875203598
 40
0.3021626133
 40
0.4283059722
 40
0.5637109656
 40
0.7058992709
 40
1.0
 40
1.0
 40
1.0
 40
1.0
 10
6.0698285312
 20
0.7377610694
 30
0.0
 10
6.0701018803
 20
0.7377518367
 30
0.0
 10
6.0706946685
 20
0.7376956353
 30
0.0
 10
6.071638831
 20
0.7375318009
 30
0.0
 10
6.072694585
 20
0.7372834775
 30
0.0
 10
6.0738412292
 20
0.7369552305
 30
0.0
 10
6.075056421
 20
0.7365531459
 30
0.0
 10
6.0767551288
 20
0.7359217671
 30
0.0
 10
6.0780266074
 20
0.7353747752
 30
0.0
 10
6.078870742
 20
0.7349793601
 30
0.0
  0
SPLINE
  5
438
100
AcDbEntity
  8
0
100
AcDbSpline
 62
7
  6
CONTINUOUS
 70
0
 71
3
 72
14
 73
10
 74
0
 42
0.0000001
 43
0.0000001
 44
0.0000000001
 40
0.0
 40
0.0
 40
0.0
 40
0.0
 40
0.0864609263
 40
0.1878436138
 40
0.3026088108
 40
0.4288261553
 40
0.5642391772
 40
0.706353251
 40
1.0
 40
1.0
 40
1.0
 40
1.0
 10
6.1052864125
 20
0.8166199337
 30
0.0
 10
6.1055616132
 20
0.816610047
 30
0.0
 10
6.1061582092
 20
0.8165523683
 30
0.0
 10
6.1071081247
 20
0.81638601
 30
0.0
 10
6.1081697786
 20
0.8161347486
 30
0.0
 10
6.1093222271
 20
0.8158032366
 30
0.0
 10
6.1105428771
 20
0.8153976628
 30
0.0
 10
6.1122475418
 20
0.8147616562
 30
0.0
 10
6.1135229852
 20
0.8142110139
 30
0.0
 10
6.1143693616
 20
0.8138130583
 30
0.0
  0
SPLINE
  5
439
100
AcDbEntity
  8
0
100
AcDbSpline
 62
7
  6
CONTINUOUS
 70
0
 71
3
 72
14
 73
10
 74
0
 42
0.0000001
 43
0.0000001
 44
0.0000000001
 40
0.0
 40
0.0
 40
0.0
 40
0.0
 40
0.0862188407
 40
0.1865612331
 40
0.2997570137
 40
0.4243433003
 40
0.5586061101
 40
0.7006494476
 40
1.0
 40
1.0
 40
1.0
 40
1.0
 10
6.1230163013
 20
0.8545404408
 30
0.0
 10
6.1232421147
 20
0.8545067405
 30
0.0
 10
6.1237276031
 20
0.8544127857
 30
0.0
 10
6.1244974917
 20
0.8542184621
 30
0.0
 10
6.1253555414
 20
0.8539617707
 30
0.0
 10
6.1262890641
 20
0.8536463658
 30
0.0
 10
6.1272843636
 20
0.8532766743
 30
0.0
 10
6.128699035
 20
0.8527085088
 30
0.0
 10
6.1297677414
 20
0.8522338293
 30
0.0
 10
6.130485296
 20
0.8518969398
 30
0.0
  0
SPLINE
  5
43A
100
AcDbEntity
  8
0
100
AcDbSpline
 62
7
  6
CONTINUOUS
 70
0
 71
3
 72
9
 73
5
 74
0
 42
0.0000001
 43
0.0000001
 44
0.0000000001
 40
0.0
 40
0.0
 40
0.0
 40
0.0
 40
0.4949566
 40
1.0
 40
1.0
 40
1.0
 40
1.0
 10
6.1702798909
 20
0.9159878356
 30
0.0
 10
6.169981777
 20
0.9152693653
 30
0.0
 10
6.169530788
 20
0.9137514195
 30
0.0
 10
6.1693814007
 20
0.9121761841
 30
0.0
 10
6.1693814453
 20
0.9113824684
 30
0.0
  0
LINE
  5
43B
100
AcDbEntity
  8
0
100
AcDbLine
 62
7
  6
CONTINUOUS
 10
6.5283882686
 20
0.9159878356
 11
6.5282527255
 21
0.9113824684
  0
SPLINE
  5
43C
100
AcDbEntity
  8
0
100
AcDbSpline
 62
7
  6
CONTINUOUS
 70
0
 71
3
 72
14
 73
10
 74
0
 42
0.0000001
 43
0.0000001
 44
0.0000000001
 40
0.0
 40
0.0
 40
0.0
 40
0.0
 40
0.2809940274
 40
0.4171951967
 40
0.5484812077
 40
0.6734628192
 40
0.7909425149
 40
0.9000127892
 40
1.0
 40
1.0
 40
1.0
 40
1.0
 10
6.5624327062
 20
0.8545403534
 30
0.0
 10
6.5616316559
 20
0.8544792836
 30
0.0
 10
6.5604456657
 20
0.8543228894
 30
0.0
 10
6.5589146181
 20
0.8539806919
 30
0.0
 10
6.5578362279
 20
0.8536675445
 30
0.0
 10
6.5568319431
 20
0.8532999232
 30
0.0
 10
6.5559161132
 20
0.8528831845
 30
0.0
 10
6.5551022052
 20
0.8524233423
 30
0.0
 10
6.5546132941
 20
0.8520768537
 30
0.0
 10
6.5543912062
 20
0.8518968606
 30
0.0
  0
SPLINE
  5
43D
100
AcDbEntity
  8
0
100
AcDbSpline
 62
7
  6
CONTINUOUS
 70
0
 71
3
 72
15
 73
11
 74
0
 42
0.0000001
 43
0.0000001
 44
0.0000000001
 40
0.0
 40
0.0
 40
0.0
 40
0.0
 40
0.1486923061
 40
0.2943783344
 40
0.434813254
 40
0.5679966414
 40
0.6921721419
 40
0.8059808973
 40
0.90861901
 40
1.0
 40
1.0
 40
1.0
 40
1.0
 10
6.5636655309
 20
0.8166199337
 30
0.0
 10
6.5631982303
 20
0.8166109838
 30
0.0
 10
6.5622733519
 20
0.8165633818
 30
0.0
 10
6.5609150586
 20
0.8164027408
 30
0.0
 10
6.5596190937
 20
0.8161563215
 30
0.0
 10
6.5584108559
 20
0.8158291067
 30
0.0
 10
6.557313734
 20
0.8154274263
 30
0.0
 10
6.5563485056
 20
0.8149588693
 30
0.0
 10
6.5555336959
 20
0.8144321989
 30
0.0
 10
6.555074893
 20
0.814024799
 30
0.0
 10
6.5548807926
 20
0.813813065
 30
0.0
  0
SPLINE
  5
43E
100
AcDbEntity
  8
0
100
AcDbSpline
 62
7
  6
CONTINUOUS
 70
0
 71
3
 72
12
 73
8
 74
0
 42
0.0000001
 43
0.0000001
 44
0.0000000001
 40
0.0
 40
0.0
 40
0.0
 40
0.0
 40
0.2389474039
 40
0.3633806423
 40
0.4900336853
 40
0.7461071928
 40
1.0
 40
1.0
 40
1.0
 40
1.0
 10
6.0630249162
 20
0.7034102416
 30
0.0
 10
6.063630066
 20
0.7039592711
 30
0.0
 10
6.0646587302
 20
0.7046813789
 30
0.0
 10
6.0661672579
 20
0.7054149959
 30
0.0
 10
6.0677996121
 20
0.7060094791
 30
0.0
 10
6.0699481843
 20
0.7064416216
 30
0.0
 10
6.0717058171
 20
0.7064436786
 30
0.0
 10
6.072569345
 20
0.7063537419
 30
0.0
  0
SPLINE
  5
43F
100
AcDbEntity
  8
0
100
AcDbSpline
 62
7
  6
CONTINUOUS
 70
0
 71
3
 72
17
 73
13
 74
0
 42
0.0000001
 43
0.0000001
 44
0.0000000001
 40
0.0
 40
0.0
 40
0.0
 40
0.0
 40
0.138910487
 40
0.2757396916
 40
0.4088156068
 40
0.5368840301
 40
0.6593470933
 40
0.7764198073
 40
0.833337895
 40
0.8893929597
 40
0.9448638226
 40
1.0
 40
1.0
 40
1.0
 40
1.0
 10
6.0841010474
 20
0.6842468407
 30
0.0
 10
6.0841086434
 20
0.6848925747
 30
0.0
 10
6.0842219516
 20
0.6861754611
 30
0.0
 10
6.0846822289
 20
0.6880272498
 30
0.0
 10
6.0854160136
 20
0.6897351492
 30
0.0
 10
6.0863980434
 20
0.6912355018
 30
0.0
 10
6.0875935844
 20
0.6924718048
 30
0.0
 10
6.0887459253
 20
0.6932495812
 30
0.0
 10
6.0897234362
 20
0.6936884981
 30
0.0
 10
6.0904722617
 20
0.6939240865
 30
0.0
 10
6.0912357348
 20
0.6940662644
 30
0.0
 10
6.0917504861
 20
0.6940980783
 30
0.0
 10
6.0920068077
 20
0.6940980783
 30
0.0
  0
SPLINE
  5
440
100
AcDbEntity
  8
0
100
AcDbSpline
 62
7
  6
CONTINUOUS
 70
0
 71
3
 72
15
 73
11
 74
0
 42
0.0000001
 43
0.0000001
 44
0.0000000001
 40
0.0
 40
0.0
 40
0.0
 40
0.0
 40
0.1676933912
 40
0.326347528
 40
0.4738154387
 40
0.6083243337
 40
0.7284951375
 40
0.8335496597
 40
0.923582405
 40
1.0
 40
1.0
 40
1.0
 40
1.0
 10
6.5555870048
 20
0.703410246
 30
0.0
 10
6.5552492359
 20
0.7036244212
 30
0.0
 10
6.5545817852
 20
0.7040255896
 30
0.0
 10
6.5535829434
 20
0.7045553516
 30
0.0
 10
6.5526256767
 20
0.7049908005
 30
0.0
 10
6.5517256261
 20
0.7053250413
 30
0.0
 10
6.5508971286
 20
0.7055529485
 30
0.0
 10
6.5501524031
 20
0.7056710261
 30
0.0
 10
6.5495022073
 20
0.705677453
 30
0.0
 10
6.549108037
 20
0.7055991075
 30
0.0
 10
6.5489367993
 20
0.7055366988
 30
0.0
  0
SPLINE
  5
441
100
AcDbEntity
  8
0
100
AcDbSpline
 62
7
  6
CONTINUOUS
 70
0
 71
3
 72
15
 73
11
 74
0
 42
0.0000001
 43
0.0000001
 44
0.0000000001
 40
0.0
 40
0.0
 40
0.0
 40
0.0
 40
0.1483667811
 40
0.2938044493
 40
0.4340849138
 40
0.5672190425
 40
0.6914552364
 40
0.805429672
 40
0.9083197022
 40
1.0
 40
1.0
 40
1.0
 40
1.0
 10
6.563636967
 20
0.7254804095
 30
0.0
 10
6.5631711126
 20
0.725472136
 30
0.0
 10
6.5622488348
 20
0.7254260594
 30
0.0
 10
6.5608938056
 20
0.7252682845
 30
0.0
 10
6.5595999231
 20
0.7250252071
 30
0.0
 10
6.5583923809
 20
0.7247017111
 30
0.0
 10
6.5572944077
 20
0.7243040158
 30
0.0
 10
6.5563266768
 20
0.7238396011
 30
0.0
 10
6.5555076533
 20
0.7233171156
 30
0.0
 10
6.5550447486
 20
0.722912772
 30
0.0
 10
6.5548481326
 20
0.7227024513
 30
0.0
  0
SPLINE
  5
442
100
AcDbEntity
  8
0
100
AcDbSpline
 62
7
  6
CONTINUOUS
 70
0
 71
3
 72
17
 73
13
 74
0
 42
0.0000001
 43
0.0000001
 44
0.0000000001
 40
0.0
 40
0.0
 40
0.0
 40
0.0
 40
0.1311049001
 40
0.258419823
 40
0.3829734
 40
0.5060249339
 40
0.6284860624
 40
0.7509657652
 40
0.8125111545
 40
0.8743687056
 40
0.9367672234
 40
1.0
 40
1.0
 40
1.0
 40
1.0
 10
6.0920068081
 20
0.6940980783
 30
0.0
 10
6.0909114525
 20
0.6940980786
 30
0.0
 10
6.0887506073
 20
0.6941586427
 30
0.0
 10
6.0855713211
 20
0.6945832759
 30
0.0
 10
6.0825404304
 20
0.6954175119
 30
0.0
 10
6.0797102816
 20
0.6966969557
 30
0.0
 10
6.0771552792
 20
0.6984364029
 30
0.0
 10
6.0753423755
 20
0.7002737533
 30
0.0
 10
6.0741601221
 20
0.7019587098
 30
0.0
 10
6.0734262026
 20
0.7033314457
 30
0.0
 10
6.0728728332
 20
0.7048017076
 30
0.0
 10
6.0726444358
 20
0.7058308258
 30
0.0
 10
6.0725693431
 20
0.7063537591
 30
0.0
  0
SPLINE
  5
443
100
AcDbEntity
  8
0
100
AcDbSpline
 62
7
  6
CONTINUOUS
 70
0
 71
3
 72
15
 73
11
 74
0
 42
0.0000001
 43
0.0000001
 44
0.0000000001
 40
0.0
 40
0.0
 40
0.0
 40
0.0
 40
0.1014912599
 40
0.2105695564
 40
0.327070815
 40
0.4505678213
 40
0.5804275248
 40
0.7158725343
 40
0.8560475954
 40
1.0
 40
1.0
 40
1.0
 40
1.0
 10
6.0725693431
 20
0.7063537591
 30
0.0
 10
6.0724266934
 20
0.7073477057
 30
0.0
 10
6.0722632071
 20
0.7094300493
 30
0.0
 10
6.0723448761
 20
0.7126694013
 30
0.0
 10
6.0727347489
 20
0.7161049423
 30
0.0
 10
6.0734210102
 20
0.7197023411
 30
0.0
 10
6.0743906827
 20
0.7234274087
 30
0.0
 10
6.0756294695
 20
0.7272453159
 30
0.0
 10
6.0771219452
 20
0.7311207944
 30
0.0
 10
6.0782625771
 20
0.733691495
 30
0.0
 10
6.078870557
 20
0.7349794375
 30
0.0
  0
SPLINE
  5
444
100
AcDbEntity
  8
0
100
AcDbSpline
 62
7
  6
CONTINUOUS
 70
0
 71
3
 72
19
 73
15
 74
0
 42
0.0000001
 43
0.0000001
 44
0.0000000001
 40
0.0
 40
0.0
 40
0.0
 40
0.0
 40
0.1374571214
 40
0.2718592585
 40
0.3377403691
 40
0.4026326966
 40
0.5292378636
 40
0.6517165772
 40
0.711550923
 40
0.7705136744
 40
0.8287075599
 40
0.8862543571
 40
0.9432958192
 40
1.0
 40
1.0
 40
1.0
 40
1.0
 10
6.5448417921
 20
0.7186455819
 30
0.0
 10
6.544430318
 20
0.7170042858
 30
0.0
 10
6.5434175995
 20
0.713804156
 30
0.0
 10
6.5416632726
 20
0.7100210422
 30
0.0
 10
6.5399959745
 20
0.7072119127
 30
0.0
 10
6.5381929473
 20
0.7046040568
 30
0.0
 10
6.5356607849
 20
0.7016647202
 30
0.0
 10
6.5327561668
 20
0.6991837193
 30
0.0
 10
6.5302753477
 20
0.6975452493
 30
0.0
 10
6.5283605397
 20
0.6965000907
 30
0.0
 10
6.5263883882
 20
0.6956355958
 30
0.0
 10
6.524369726
 20
0.6949565025
 30
0.0
 10
6.5223159185
 20
0.6944668164
 30
0.0
 10
6.5209275136
 20
0.694268075
 30
0.0
 10
6.5202326867
 20
0.6942013338
 30
0.0
  0
SPLINE
  5
445
100
AcDbEntity
  8
0
100
AcDbSpline
 62
7
  6
CONTINUOUS
 70
0
 71
3
 72
11
 73
7
 74
0
 42
0.0000001
 43
0.0000001
 44
0.0000000001
 40
0.0
 40
0.0
 40
0.0
 40
0.0
 40
0.244027645
 40
0.490910657
 40
0.742403762
 40
1.0
 40
1.0
 40
1.0
 40
1.0
 10
6.5548481326
 20
0.7227024504
 30
0.0
 10
6.5548806894
 20
0.7211970049
 30
0.0
 10
6.5546864109
 20
0.7181562476
 30
0.0
 10
6.5535959776
 20
0.7136831193
 30
0.0
 10
6.5517012986
 20
0.7093945748
 30
0.0
 10
6.5499350911
 20
0.7067736794
 30
0.0
 10
6.5489368239
 20
0.705536728
 30
0.0
  0
SPLINE
  5
446
100
AcDbEntity
  8
0
100
AcDbSpline
 62
7
  6
CONTINUOUS
 70
0
 71
3
 72
16
 73
12
 74
0
 42
0.0000001
 43
0.0000001
 44
0.0000000001
 40
0.0
 40
0.0
 40
0.0
 40
0.0
 40
0.0599698372
 40
0.1214766896
 40
0.2469925503
 40
0.373760385
 40
0.5004029223
 40
0.6264160415
 40
0.7516818956
 40
0.8762069482
 40
1.0
 40
1.0
 40
1.0
 40
1.0
 10
6.5489368239
 20
0.705536728
 30
0.0
 10
6.5485440821
 20
0.7050501398
 30
0.0
 10
6.5477074053
 20
0.7040970227
 30
0.0
 10
6.5458655898
 20
0.7022941936
 30
0.0
 10
6.5432858813
 20
0.700263216
 30
0.0
 10
6.5398834577
 20
0.698235447
 30
0.0
 10
6.5362599129
 20
0.6966254941
 30
0.0
 10
6.5324972594
 20
0.6954300852
 30
0.0
 10
6.5286554892
 20
0.6946273726
 30
0.0
 10
6.5247806229
 20
0.6941840756
 30
0.0
 10
6.5221901219
 20
0.6940980787
 30
0.0
 10
6.5208993196
 20
0.6940980783
 30
0.0
  0
SPLINE
  5
447
100
AcDbEntity
  8
0
100
AcDbSpline
 62
7
  6
CONTINUOUS
 70
0
 71
3
 72
24
 73
20
 74
0
 42
0.0000001
 43
0.0000001
 44
0.0000000001
 40
0.0
 40
0.0
 40
0.0
 40
0.0
 40
0.1641192944
 40
0.3361421095
 40
0.5055001442
 40
0.5859045805
 40
0.6617934474
 40
0.7320097576
 40
0.7954984453
 40
0.8513292129
 40
0.8987245358
 40
0.9190714516
 40
0.9371162118
 40
0.952833499
 40
0.9662322609
 40
0.9773807738
 40
0.9864378512
 40
0.9937512081
 40
1.0
 40
1.0
 40
1.0
 40
1.0
 10
6.6948182445
 20
2.3872893972
 30
0.0
 10
6.6943222817
 20
2.3879113169
 30
0.0
 10
6.6933344954
 20
2.3892075903
 30
0.0
 10
6.6919197942
 20
2.3912085029
 30
0.0
 10
6.69079791
 20
2.392918124
 30
0.0
 10
6.6899709312
 20
2.3942626355
 30
0.0
 10
6.6894158631
 20
2.3952099557
 30
0.0
 10
6.6889237626
 20
2.396098811
 30
0.0
 10
6.6885021764
 20
2.3969152081
 30
0.0
 10
6.6881575845
 20
2.3976462946
 30
0.0
 10
6.6879279793
 20
2.3981999133
 30
0.0
 10
6.6877898689
 20
2.3985922144
 30
0.0
 10
6.6877137815
 20
2.3988433045
 30
0.0
 10
6.6876599447
 20
2.3990656218
 30
0.0
 10
6.6876285158
 20
2.3992584803
 30
0.0
 10
6.6876194029
 20
2.3994215389
 30
0.0
 10
6.6876329416
 20
2.3995550039
 30
0.0
 10
6.6876701128
 20
2.3996598611
 30
0.0
 10
6.6877152118
 20
2.3997108715
 30
0.0
 10
6.6877400912
 20
2.3997281436
 30
0.0
  0
SPLINE
  5
448
100
AcDbEntity
  8
0
100
AcDbSpline
 62
7
  6
CONTINUOUS
 70
0
 71
3
 72
24
 73
20
 74
0
 42
0.0000001
 43
0.0000001
 44
0.0000000001
 40
0.0
 40
0.0
 40
0.0
 40
0.0
 40
0.1641193299
 40
0.3361421959
 40
0.5055002859
 40
0.5859047481
 40
0.6617936379
 40
0.7320099668
 40
0.7954986675
 40
0.8513294406
 40
0.8987247595
 40
0.9190716687
 40
0.9371164187
 40
0.952833691
 40
0.9662324325
 40
0.977380918
 40
0.9864379585
 40
0.9937512671
 40
1.0
 40
1.0
 40
1.0
 40
1.0
 10
6.4881929669
 20
2.3872893972
 30
0.0
 10
6.4886889282
 20
2.3879113181
 30
0.0
 10
6.4896767119
 20
2.3892075933
 30
0.0
 10
6.4910914106
 20
2.3912085076
 30
0.0
 10
6.4922132936
 20
2.3929181295
 30
0.0
 10
6.493040272
 20
2.3942626412
 30
0.0
 10
6.4935953402
 20
2.3952099613
 30
0.0
 10
6.494087441
 20
2.3960988164
 30
0.0
 10
6.4945090278
 20
2.3969152131
 30
0.0
 10
6.4948536204
 20
2.3976462991
 30
0.0
 10
6.4950832265
 20
2.3981999172
 30
0.0
 10
6.4952213377
 20
2.3985922177
 30
0.0
 10
6.4952974257
 20
2.3988433074
 30
0.0
 10
6.4953512631
 20
2.3990656243
 30
0.0
 10
6.4953826928
 20
2.3992584823
 30
0.0
 10
6.4953918063
 20
2.3994215404
 30
0.0
 10
6.4953782684
 20
2.3995550048
 30
0.0
 10
6.4953410979
 20
2.3996598615
 30
0.0
 10
6.4952959994
 20
2.3997108717
 30
0.0
 10
6.4952711203
 20
2.3997281436
 30
0.0
  0
SPLINE
  5
449
100
AcDbEntity
  8
0
100
AcDbSpline
 62
7
  6
CONTINUOUS
 70
0
 71
3
 72
25
 73
21
 74
0
 42
0.0000001
 43
0.0000001
 44
0.0000000001
 40
0.0
 40
0.0
 40
0.0
 40
0.0
 40
0.1803090625
 40
0.3587079543
 40
0.4446357412
 40
0.5270554664
 40
0.6050313948
 40
0.6776847589
 40
0.7442116419
 40
0.8038935007
 40
0.8561190266
 40
0.9004153068
 40
0.9194942691
 40
0.9365048114
 40
0.9514566348
 40
0.9644012449
 40
0.975445757
 40
0.984787957
 40
0.9927824001
 40
1.0
 40
1.0
 40
1.0
 40
1.0
 10
6.7719238278
 20
2.5367965151
 30
0.0
 10
6.7712023743
 20
2.5367773068
 30
0.0
 10
6.7697663436
 20
2.5367642958
 30
0.0
 10
6.7679867904
 20
2.5368079231
 30
0.0
 10
6.7666006961
 20
2.536880033
 30
0.0
 10
6.7656172087
 20
2.5369505215
 30
0.0
 10
6.7646883568
 20
2.5370371947
 30
0.0
 10
6.7638250424
 20
2.5371389863
 30
0.0
 10
6.7630373924
 20
2.5372546145
 30
0.0
 10
6.7623345533
 20
2.5373825832
 30
0.0
 10
6.7617246986
 20
2.5375212992
 30
0.0
 10
6.7612797056
 20
2.5376497437
 30
0.0
 10
6.7609770122
 20
2.5377591832
 30
0.0
 10
6.7607887221
 20
2.5378387675
 30
0.0
 10
6.7606280747
 20
2.5379197795
 30
0.0
 10
6.7604953834
 20
2.5380020539
 30
0.0
 10
6.7603907793
 20
2.5380855353
 30
0.0
 10
6.760314422
 20
2.5381706166
 30
0.0
 10
6.7602668366
 20
2.5382579401
 30
0.0
 10
6.7602556057
 20
2.538319189
 30
0.0
 10
6.7602556057
 20
2.5383480783
 30
0.0
  0
SPLINE
  5
44A
100
AcDbEntity
  8
0
100
AcDbSpline
 62
7
  6
CONTINUOUS
 70
0
 71
3
 72
25
 73
21
 74
0
 42
0.0000001
 43
0.0000001
 44
0.0000000001
 40
0.0
 40
0.0
 40
0.0
 40
0.0
 40
0.1793807536
 40
0.3574224345
 40
0.4433397776
 40
0.5258343698
 40
0.603949951
 40
0.6767872987
 40
0.7435226303
 40
0.8034183689
 40
0.8558452764
 40
0.900313785
 40
0.9194628852
 40
0.936530414
 40
0.9515240403
 40
0.964493344
 40
0.9755435143
 40
0.9848708252
 40
0.9928305972
 40
1.0
 40
1.0
 40
1.0
 40
1.0
 10
6.7708276811
 20
2.5169388172
 30
0.0
 10
6.7701019591
 20
2.5169976888
 30
0.0
 10
6.7686579264
 20
2.5171407625
 30
0.0
 10
6.7668738066
 20
2.5173785661
 30
0.0
 10
6.7654854322
 20
2.5176025658
 30
0.0
 10
6.7645007843
 20
2.5177812271
 30
0.0
 10
6.7635722017
 20
2.5179703333
 30
0.0
 10
6.7627107975
 20
2.518167571
 30
0.0
 10
6.761926871
 20
2.5183704914
 30
0.0
 10
6.7612296961
 20
2.5185765351
 30
0.0
 10
6.7606275353
 20
2.5187831507
 30
0.0
 10
6.7601909908
 20
2.5189612517
 30
0.0
 10
6.7598963766
 20
2.5191045528
 30
0.0
 10
6.75971438
 20
2.5192052179
 30
0.0
 10
6.7595605407
 20
2.5193042365
 30
0.0
 10
6.7594351659
 20
2.5194013997
 30
0.0
 10
6.7593383833
 20
2.5194966298
 30
0.0
 10
6.7592703901
 20
2.5195903068
 30
0.0
 10
6.759231771
 20
2.5196830505
 30
0.0
 10
6.7592271473
 20
2.5197457173
 30
0.0
 10
6.7592303503
 20
2.5197746411
 30
0.0
  0
SPLINE
  5
44B
100
AcDbEntity
  8
0
100
AcDbSpline
 62
7
  6
CONTINUOUS
 70
0
 71
3
 72
20
 73
16
 74
0
 42
0.0000001
 43
0.0000001
 44
0.0000000001
 40
0.0
 40
0.0
 40
0.0
 40
0.0
 40
0.1279539931
 40
0.1918398484
 40
0.2555980841
 40
0.3191944795
 40
0.3825958607
 40
0.4457687974
 40
0.5086799964
 40
0.5713037129
 40
0.6336153337
 40
0.6955949644
 40
0.7572263302
 40
0.8793751395
 40
1.0
 40
1.0
 40
1.0
 40
1.0
 10
6.5915056057
 20
2.2045980783
 30
0.0
 10
6.5995949386
 20
2.2045991802
 30
0.0
 10
6.6117271067
 20
2.2049621577
 30
0.0
 10
6.627843471
 20
2.206157004
 30
0.0
 10
6.639871156
 20
2.2074049452
 30
0.0
 10
6.6518262433
 20
2.2090030466
 30
0.0
 10
6.6636925901
 20
2.2109464984
 30
0.0
 10
6.6754548914
 20
2.2132255484
 30
0.0
 10
6.6870986845
 20
2.2158316026
 30
0.0
 10
6.6986104278
 20
2.2187560234
 30
0.0
 10
6.7099775525
 20
2.2219908879
 30
0.0
 10
6.7211890226
 20
2.2255264943
 30
0.0
 10
6.7358724557
 20
2.2306108564
 30
0.0
 10
6.7537922426
 20
2.2376552163
 30
0.0
 10
6.7677607778
 20
2.2440353682
 30
0.0
 10
6.7746110146
 20
2.2473864626
 30
0.0
  0
SPLINE
  5
44C
100
AcDbEntity
  8
0
100
AcDbSpline
 62
7
  6
CONTINUOUS
 70
0
 71
3
 72
30
 73
26
 74
0
 42
0.0000001
 43
0.0000001
 44
0.0000000001
 40
0.0
 40
0.0
 40
0.0
 40
0.0
 40
0.1068912883
 40
0.1603569323
 40
0.21380357
 40
0.2671573019
 40
0.3201438572
 40
0.3462444605
 40
0.3717713196
 40
0.4198088931
 40
0.4631040636
 40
0.5023428355
 40
0.571636775
 40
0.6313381441
 40
0.6582419399
 40
0.6834671613
 40
0.7294917086
 40
0.7708090106
 40
0.7901779479
 40
0.8089435062
 40
0.845449576
 40
0.8817929905
 40
0.9191283973
 40
0.9583365652
 40
1.0
 40
1.0
 40
1.0
 40
1.0
 10
7.0744684499
 20
0.8924172602
 30
0.0
 10
7.0741559878
 20
0.8932120494
 30
0.0
 10
7.0736850677
 20
0.8944035316
 30
0.0
 10
7.0730528007
 20
0.8959903839
 30
0.0
 10
7.0725773756
 20
0.8971792915
 30
0.0
 10
7.072103839
 20
0.8983648201
 30
0.0
 10
7.0717167407
 20
0.8993496457
 30
0.0
 10
7.0714250908
 20
0.9001329684
 30
0.0
 10
7.0711625896
 20
0.9008847689
 30
0.0
 10
7.0708953287
 20
0.90178026
 30
0.0
 10
7.0706759952
 20
0.9028012325
 30
0.0
 10
7.0705071714
 20
0.9040032021
 30
0.0
 10
7.0704466978
 20
0.9053498211
 30
0.0
 10
7.0705544523
 20
0.9065949422
 30
0.0
 10
7.0707300991
 20
0.907471789
 30
0.0
 10
7.0709414176
 20
0.9082275648
 30
0.0
 10
7.0712849363
 20
0.9090636519
 30
0.0
 10
7.0717524181
 20
0.9097838961
 30
0.0
 10
7.0721791403
 20
0.9102553829
 30
0.0
 10
7.0726246759
 20
0.9106531521
 30
0.0
 10
7.0732444449
 20
0.9110532854
 30
0.0
 10
7.0740718997
 20
0.9113703521
 30
0.0
 10
7.0749651984
 20
0.9115269695
 30
0.0
 10
7.0759132876
 20
0.9115306583
 30
0.0
 10
7.0765553122
 20
0.9114429206
 30
0.0
 10
7.0768823402
 20
0.9113808393
 30
0.0
  0
SPLINE
  5
44D
100
AcDbEntity
  8
0
100
AcDbSpline
 62
6
  6
CONTINUOUS
 70
0
 71
3
 72
9
 73
5
 74
0
 42
0.0000001
 43
0.0000001
 44
0.0000000001
 40
0.0
 40
0.0
 40
0.0
 40
0.0
 40
0.498579586
 40
1.0
 40
1.0
 40
1.0
 40
1.0
 10
3.3431394894
 20
6.0205226776
 30
0.0
 10
3.3433577825
 20
6.0197883504
 30
0.0
 10
3.3436310074
 20
6.0182618371
 30
0.0
 10
3.3435642354
 20
6.0167129181
 30
0.0
 10
3.3434477201
 20
6.0159513279
 30
0.0
  0
LINE
  5
44E
100
AcDbEntity
  8
0
100
AcDbLine
 62
6
  6
CONTINUOUS
 10
2.6994705125
 20
5.9945707127
 11
2.6989198241
 21
5.9945605646
  0
SPLINE
  5
44F
100
AcDbEntity
  8
0
100
AcDbSpline
 62
6
  6
CONTINUOUS
 70
0
 71
3
 72
14
 73
10
 74
0
 42
0.0000001
 43
0.0000001
 44
0.0000000001
 40
0.0
 40
0.0
 40
0.0
 40
0.0
 40
0.116999054
 40
0.2372706122
 40
0.3601222495
 40
0.4851134124
 40
0.6118729031
 40
0.7400918024
 40
1.0
 40
1.0
 40
1.0
 40
1.0
 10
3.3434476428
 20
6.0159509396
 30
0.0
 10
3.3435315515
 20
6.0147494332
 30
0.0
 10
3.3436594949
 20
6.0123097788
 30
0.0
 10
3.3437555442
 20
6.0086034823
 30
0.0
 10
3.343771848
 20
6.0048137513
 30
0.0
 10
3.3437181746
 20
6.0009576504
 30
0.0
 10
3.3436032011
 20
5.9970476512
 30
0.0
 10
3.343377058
 20
5.9917519271
 30
0.0
 10
3.3431371435
 20
5.9877632357
 30
0.0
 10
3.3429532042
 20
5.9850939719
 30
0.0
  0
SPLINE
  5
450
100
AcDbEntity
  8
0
100
AcDbSpline
 62
6
  6
CONTINUOUS
 70
0
 71
3
 72
18
 73
14
 74
0
 42
0.0000001
 43
0.0000001
 44
0.0000000001
 40
0.0
 40
0.0
 40
0.0
 40
0.0
 40
0.1381297303
 40
0.2753510358
 40
0.3429186228
 40
0.4094126203
 40
0.4746849977
 40
0.5386547104
 40
0.6623496535
 40
0.7803590792
 40
0.8373119634
 40
0.8928853016
 40
1.0
 40
1.0
 40
1.0
 40
1.0
 10
3.3078368019
 20
5.8915387815
 30
0.0
 10
3.3079198925
 20
5.8920817915
 30
0.0
 10
3.3080173129
 20
5.893175714
 30
0.0
 10
3.3079717422
 20
5.8945423802
 30
0.0
 10
3.3078325249
 20
5.8956129209
 30
0.0
 10
3.3076775909
 20
5.896391006
 30
0.0
 10
3.3074728217
 20
5.8971427238
 30
0.0
 10
3.3071397206
 20
5.8980925846
 30
0.0
 10
3.3066125293
 20
5.8991936431
 30
0.0
 10
3.3059269385
 20
5.9001713422
 30
0.0
 10
3.3053027957
 20
5.9008446452
 30
0.0
 10
3.3046517586
 20
5.9014281237
 30
0.0
 10
3.3041077834
 20
5.9017893792
 30
0.0
 10
3.3037289273
 20
5.9019841414
 30
0.0
  0
LINE
  5
451
100
AcDbEntity
  8
0
100
AcDbLine
 62
6
  6
CONTINUOUS
 10
3.1127048405
 20
6.0557843576
 11
3.1122214129
 21
6.051333925
  0
SPLINE
  5
452
100
AcDbEntity
  8
0
100
AcDbSpline
 62
6
  6
CONTINUOUS
 70
0
 71
3
 72
19
 73
15
 74
0
 42
0.0000001
 43
0.0000001
 44
0.0000000001
 40
0.0
 40
0.0
 40
0.0
 40
0.0
 40
0.058319375
 40
0.1168485808
 40
0.1756624227
 40
0.2348723452
 40
0.3548799811
 40
0.4776449671
 40
0.5402245786
 40
0.6036180375
 40
0.6678242748
 40
0.7328255942
 40
0.8650702059
 40
1.0
 40
1.0
 40
1.0
 40
1.0
 10
3.3037289406
 20
5.9019841394
 30
0.0
 10
3.3027022077
 20
5.902470311
 30
0.0
 10
3.3006807809
 20
5.903521976
 30
0.0
 10
3.297768429
 20
5.9053239408
 30
0.0
 10
3.2949832286
 20
5.9073469929
 30
0.0
 10
3.29143792
 20
5.9103406253
 30
0.0
 10
3.2873644078
 20
5.9146132302
 30
0.0
 10
3.2838750515
 20
5.9194529015
 30
0.0
 10
3.2814307249
 20
5.923639429
 30
0.0
 10
3.2797658882
 20
5.9269515904
 30
0.0
 10
3.2782870138
 20
5.9304020362
 30
0.0
 10
3.2765604623
 20
5.9351960776
 30
0.0
 10
3.274900984
 20
5.9414650758
 30
0.0
 10
3.2741254805
 20
5.9466229384
 30
0.0
 10
3.2738718659
 20
5.9492390123
 30
0.0
  0
SPLINE
  5
453
100
AcDbEntity
  8
0
100
AcDbSpline
 62
6
  6
CONTINUOUS
 70
0
 71
3
 72
21
 73
17
 74
0
 42
0.0000001
 43
0.0000001
 44
0.0000000001
 40
0.0
 40
0.0
 40
0.0
 40
0.0
 40
0.1719913066
 40
0.3344697499
 40
0.4113926715
 40
0.48508121
 40
0.5552794447
 40
0.6217461587
 40
0.6842702615
 40
0.7426567362
 40
0.79674663
 40
0.84640859
 40
0.8915591273
 40
0.9321691757
 40
0.968272248
 40
1.0
 40
1.0
 40
1.0
 40
1.0
 10
3.1185341203
 20
5.9730090276
 30
0.0
 10
3.1183542052
 20
5.9705006955
 30
0.0
 10
3.1180736454
 20
5.9656174081
 30
0.0
 10
3.1179295408
 20
5.9596025456
 30
0.0
 10
3.1179523904
 20
5.9550244798
 30
0.0
 10
3.1180347026
 20
5.9517967028
 30
0.0
 10
3.1181820272
 20
5.948724259
 30
0.0
 10
3.1183938605
 20
5.9458191911
 30
0.0
 10
3.1186685387
 20
5.9430928592
 30
0.0
 10
3.1190045893
 20
5.9405557679
 30
0.0
 10
3.119400282
 20
5.938217713
 30
0.0
 10
3.1198541006
 20
5.936087565
 30
0.0
 10
3.1203640466
 20
5.9341732587
 30
0.0
 10
3.1209278953
 20
5.9324814586
 30
0.0
 10
3.1215434533
 20
5.9310184374
 30
0.0
 10
3.1220166765
 20
5.9301438738
 30
0.0
 10
3.122264915
 20
5.92975197
 30
0.0
  0
SPLINE
  5
454
100
AcDbEntity
  8
0
100
AcDbSpline
 62
6
  6
CONTINUOUS
 70
0
 71
3
 72
13
 73
9
 74
0
 42
0.0000001
 43
0.0000001
 44
0.0000000001
 40
0.0
 40
0.0
 40
0.0
 40
0.0
 40
0.2538034404
 40
0.3803984969
 40
0.5064013771
 40
0.6315944904
 40
0.7557611494
 40
1.0
 40
1.0
 40
1.0
 40
1.0
 10
3.1207840566
 20
6.0175099538
 30
0.0
 10
3.1207605895
 20
6.0137396721
 30
0.0
 10
3.12062567
 20
6.0080892291
 30
0.0
 10
3.12031298
 20
6.0005729223
 30
0.0
 10
3.1200272558
 20
5.994967864
 30
0.0
 10
3.1196985757
 20
5.9894013485
 30
0.0
 10
3.1192189336
 20
5.9820844043
 30
0.0
 10
3.118816183
 20
5.976626316
 30
0.0
 10
3.1185341203
 20
5.9730090276
 30
0.0
  0
SPLINE
  5
455
100
AcDbEntity
  8
0
100
AcDbSpline
 62
6
  6
CONTINUOUS
 70
0
 71
3
 72
12
 73
8
 74
0
 42
0.0000001
 43
0.0000001
 44
0.0000000001
 40
0.0
 40
0.0
 40
0.0
 40
0.0
 40
0.2483224988
 40
0.4980484988
 40
0.6233102779
 40
0.7487909849
 40
1.0
 40
1.0
 40
1.0
 40
1.0
 10
3.2738718659
 20
5.9492390123
 30
0.0
 10
3.2734885188
 20
5.9529197847
 30
0.0
 10
3.273019459
 20
5.9603367297
 30
0.0
 10
3.2732036999
 20
5.96963554
 30
0.0
 10
3.2738378009
 20
5.9770692749
 30
0.0
 10
3.2748076079
 20
5.984488165
 30
0.0
 10
3.2759252093
 20
5.9900016753
 30
0.0
 10
3.2768581798
 20
5.9936272569
 30
0.0
  0
SPLINE
  5
456
100
AcDbEntity
  8
0
100
AcDbSpline
 62
6
  6
CONTINUOUS
 70
0
 71
3
 72
15
 73
11
 74
0
 42
0.0000001
 43
0.0000001
 44
0.0000000001
 40
0.0
 40
0.0
 40
0.0
 40
0.0
 40
0.1247865855
 40
0.1872249665
 40
0.2496706473
 40
0.3745943963
 40
0.4995806811
 40
0.6246227392
 40
0.7497139403
 40
1.0
 40
1.0
 40
1.0
 40
1.0
 10
3.1122213012
 20
6.0513335419
 30
0.0
 10
3.1128382812
 20
6.0500132166
 30
0.0
 10
3.1136965894
 20
6.0480001124
 30
0.0
 10
3.1147254886
 20
6.0452716132
 30
0.0
 10
3.1156842593
 20
6.0425158463
 30
0.0
 10
3.1167563589
 20
6.0390274975
 30
0.0
 10
3.1178613219
 20
6.0347889917
 30
0.0
 10
3.1188037121
 20
6.0305095444
 30
0.0
 10
3.1198644775
 20
6.0247614376
 30
0.0
 10
3.1204597457
 20
6.0204149701
 30
0.0
 10
3.1207840566
 20
6.0175099538
 30
0.0
  0
SPLINE
  5
457
100
AcDbEntity
  8
0
100
AcDbSpline
 62
6
  6
CONTINUOUS
 70
0
 71
3
 72
14
 73
10
 74
0
 42
0.0000001
 43
0.0000001
 44
0.0000000001
 40
0.0
 40
0.0
 40
0.0
 40
0.0
 40
0.2564335877
 40
0.3836579618
 40
0.5099817206
 40
0.6351660093
 40
0.7588882672
 40
0.8807072781
 40
1.0
 40
1.0
 40
1.0
 40
1.0
 10
3.2768581798
 20
5.9936272569
 30
0.0
 10
3.2777196151
 20
5.9963417549
 30
0.0
 10
3.2790834076
 20
6.0003801365
 30
0.0
 10
3.2810775179
 20
6.005681711
 30
0.0
 10
3.2826582425
 20
6.0095800948
 30
0.0
 10
3.2843350559
 20
6.0133957864
 30
0.0
 10
3.2861154585
 20
6.0171091597
 30
0.0
 10
3.2880105151
 20
6.0206917477
 30
0.0
 10
3.2893736892
 20
6.0229982336
 30
0.0
 10
3.2900801789
 20
6.0241189851
 30
0.0
  0
SPLINE
  5
458
100
AcDbEntity
  8
0
100
AcDbSpline
 62
6
  6
CONTINUOUS
 70
0
 71
3
 72
14
 73
10
 74
0
 42
0.0000001
 43
0.0000001
 44
0.0000000001
 40
0.0
 40
0.0
 40
0.0
 40
0.0
 40
0.1223237464
 40
0.2474247771
 40
0.3735178634
 40
0.4997703478
 40
0.6256932734
 40
0.7511495142
 40
1.0
 40
1.0
 40
1.0
 40
1.0
 10
2.9993238346
 20
5.956072049
 30
0.0
 10
2.9982793909
 20
5.9551392526
 30
0.0
 10
2.9960739534
 20
5.9533542759
 30
0.0
 10
2.9925190494
 20
5.9509685276
 30
0.0
 10
2.9887275922
 20
5.9488841372
 30
0.0
 10
2.9847608432
 20
5.9471339259
 30
0.0
 10
2.9806612996
 20
5.9457420528
 30
0.0
 10
2.9750902574
 20
5.9443947803
 30
0.0
 10
2.9707937576
 20
5.9439652813
 30
0.0
 10
2.9679449736
 20
5.9439532423
 30
0.0
  0
SPLINE
  5
459
100
AcDbEntity
  8
0
100
AcDbSpline
 62
6
  6
CONTINUOUS
 70
0
 71
3
 72
15
 73
11
 74
0
 42
0.0000001
 43
0.0000001
 44
0.0000000001
 40
0.0
 40
0.0
 40
0.0
 40
0.0
 40
0.1235991389
 40
0.2478550829
 40
0.3727639073
 40
0.4983744379
 40
0.6245155508
 40
0.7507729165
 40
0.8764195508
 40
1.0
 40
1.0
 40
1.0
 40
1.0
 10
3.1153322886
 20
5.9213998138
 30
0.0
 10
3.1138885114
 20
5.9218440995
 30
0.0
 10
3.1110315132
 20
5.9228647979
 30
0.0
 10
3.106886187
 20
5.9247676059
 30
0.0
 10
3.1028970872
 20
5.9270298522
 30
0.0
 10
3.0990913758
 20
5.9296289911
 30
0.0
 10
3.0954949698
 20
5.9325366128
 30
0.0
 10
3.0921372345
 20
5.9357173164
 30
0.0
 10
3.0890557036
 20
5.9391235527
 30
0.0
 10
3.0871867118
 20
5.9415331222
 30
0.0
 10
3.0863080482
 20
5.9427615939
 30
0.0
  0
SPLINE
  5
45A
100
AcDbEntity
  8
0
100
AcDbSpline
 62
6
  6
CONTINUOUS
 70
0
 71
3
 72
18
 73
14
 74
0
 42
0.0000001
 43
0.0000001
 44
0.0000000001
 40
0.0
 40
0.0
 40
0.0
 40
0.0
 40
0.1759644811
 40
0.3387152288
 40
0.4863810352
 40
0.618556606
 40
0.6788210748
 40
0.7352552571
 40
0.7879320128
 40
0.8369597114
 40
0.882477297
 40
0.9246619861
 40
1.0
 40
1.0
 40
1.0
 40
1.0
 10
2.7086419339
 20
6.0005526303
 30
0.0
 10
2.7077051724
 20
5.999656124
 30
0.0
 10
2.7059250939
 20
5.9979062827
 30
0.0
 10
2.7034061773
 20
5.9953567448
 30
0.0
 10
2.7011145432
 20
5.9930363199
 30
0.0
 10
2.6993242598
 20
5.9912820088
 30
0.0
 10
2.6979760978
 20
5.9900385554
 30
0.0
 10
2.6970365907
 20
5.9892166915
 30
0.0
 10
2.696133643
 20
5.9884796193
 30
0.0
 10
2.6952636284
 20
5.9878309814
 30
0.0
 10
2.6944237192
 20
5.9872730343
 30
0.0
 10
2.6933815785
 20
5.9866751851
 30
0.0
 10
2.692580142
 20
5.9863293444
 30
0.0
 10
2.6920479353
 20
5.9861714218
 30
0.0
  0
SPLINE
  5
45B
100
AcDbEntity
  8
0
100
AcDbSpline
 62
6
  6
CONTINUOUS
 70
0
 71
3
 72
16
 73
12
 74
0
 42
0.0000001
 43
0.0000001
 44
0.0000000001
 40
0.0
 40
0.0
 40
0.0
 40
0.0
 40
0.1238036008
 40
0.2479416165
 40
0.3724849584
 40
0.497346124
 40
0.5599239712
 40
0.6225819779
 40
0.7479572651
 40
0.873731294
 40
1.0
 40
1.0
 40
1.0
 40
1.0
 10
2.7675336004
 20
5.9746204918
 30
0.0
 10
2.7665482063
 20
5.9749940688
 30
0.0
 10
2.7646210871
 20
5.9758715435
 30
0.0
 10
2.7619227454
 20
5.9775529226
 30
0.0
 10
2.7594618769
 20
5.9795811294
 30
0.0
 10
2.7576535066
 20
5.9815385254
 30
0.0
 10
2.7563819801
 20
5.9832480116
 30
0.0
 10
2.7552361022
 20
5.9850491989
 30
0.0
 10
2.7540617489
 20
5.9874619365
 30
0.0
 10
2.7531460171
 20
5.9905565469
 30
0.0
 10
2.7529136343
 20
5.9927047827
 30
0.0
 10
2.7529041728
 20
5.993779556
 30
0.0
  0
SPLINE
  5
45C
100
AcDbEntity
  8
0
100
AcDbSpline
 62
6
  6
CONTINUOUS
 70
0
 71
3
 72
20
 73
16
 74
0
 42
0.0000001
 43
0.0000001
 44
0.0000000001
 40
0.0
 40
0.0
 40
0.0
 40
0.0
 40
0.0355524044
 40
0.0739563794
 40
0.1155345003
 40
0.1605262037
 40
0.2091080207
 40
0.261421299
 40
0.3175784098
 40
0.3776584176
 40
0.5097788547
 40
0.5818447878
 40
0.6578972784
 40
0.8217764529
 40
1.0
 40
1.0
 40
1.0
 40
1.0
 10
3.3844224896
 20
5.8802232268
 30
0.0
 10
3.3842040667
 20
5.8803721255
 30
0.0
 10
3.3837674719
 20
5.8807083685
 30
0.0
 10
3.3831381483
 20
5.8812944765
 30
0.0
 10
3.3825084718
 20
5.8819788928
 30
0.0
 10
3.3818759183
 20
5.8827604328
 30
0.0
 10
3.3812380796
 20
5.8836383044
 30
0.0
 10
3.3805914595
 20
5.8846109905
 30
0.0
 10
3.3799311539
 20
5.8856763584
 30
0.0
 10
3.3789964266
 20
5.8872691137
 30
0.0
 10
3.3780479199
 20
5.8889902368
 30
0.0
 10
3.3770588202
 20
5.8908241763
 30
0.0
 10
3.3759615057
 20
5.8928680844
 30
0.0
 10
3.3744818806
 20
5.89560263
 30
0.0
 10
3.3732283364
 20
5.8978163909
 30
0.0
 10
3.3725575784
 20
5.8989592605
 30
0.0
  0
SPLINE
  5
45D
100
AcDbEntity
  8
0
100
AcDbSpline
 62
6
  6
CONTINUOUS
 70
0
 71
3
 72
17
 73
13
 74
0
 42
0.0000001
 43
0.0000001
 44
0.0000000001
 40
0.0
 40
0.0
 40
0.0
 40
0.0
 40
0.1313443121
 40
0.2600257351
 40
0.386762828
 40
0.4495945675
 40
0.5120534555
 40
0.6358406973
 40
0.758285175
 40
0.8190996906
 40
0.879645509
 40
1.0
 40
1.0
 40
1.0
 40
1.0
 10
3.3298356536
 20
5.9054966337
 30
0.0
 10
3.329618696
 20
5.9044692667
 30
0.0
 10
3.3289820681
 20
5.9024734012
 30
0.0
 10
3.3274945383
 20
5.8997446938
 30
0.0
 10
3.3258988484
 20
5.8977463182
 30
0.0
 10
3.3244586695
 20
5.8963348297
 30
0.0
 10
3.3229306677
 20
5.8950552217
 30
0.0
 10
3.3208628677
 20
5.8936904722
 30
0.0
 10
3.3186309399
 20
5.8926473765
 30
0.0
 10
3.3167852755
 20
5.892016207
 30
0.0
 10
3.3149158736
 20
5.8915223659
 30
0.0
 10
3.3134799371
 20
5.8913027602
 30
0.0
 10
3.3125208583
 20
5.8912257225
 30
0.0
  0
SPLINE
  5
45E
100
AcDbEntity
  8
0
100
AcDbSpline
 62
6
  6
CONTINUOUS
 70
0
 71
3
 72
18
 73
14
 74
0
 42
0.0000001
 43
0.0000001
 44
0.0000000001
 40
0.0
 40
0.0
 40
0.0
 40
0.0
 40
0.1310566133
 40
0.2602338522
 40
0.3874323506
 40
0.5127056126
 40
0.6362458387
 40
0.6974847502
 40
0.7584092452
 40
0.8190703869
 40
0.8795224158
 40
0.9398178373
 40
1.0
 40
1.0
 40
1.0
 40
1.0
 10
3.0863080482
 20
5.9427615939
 30
0.0
 10
3.0847425076
 20
5.9443910957
 30
0.0
 10
3.0818067241
 20
5.9477986551
 30
0.0
 10
3.0780346872
 20
5.9533287513
 30
0.0
 10
3.0749748085
 20
5.9591720757
 30
0.0
 10
3.0726704708
 20
5.9652486355
 30
0.0
 10
3.0714007526
 20
5.9704571839
 30
0.0
 10
3.0707888281
 20
5.9746515252
 30
0.0
 10
3.0705293524
 20
5.9777952446
 30
0.0
 10
3.0704645458
 20
5.9809351918
 30
0.0
 10
3.0705856403
 20
5.9840624517
 30
0.0
 10
3.0708777823
 20
5.9871697202
 30
0.0
 10
3.0711778426
 20
5.9892262886
 30
0.0
 10
3.0713540053
 20
5.9902488916
 30
0.0
  0
SPLINE
  5
45F
100
AcDbEntity
  8
0
100
AcDbSpline
 62
6
  6
CONTINUOUS
 70
0
 71
3
 72
10
 73
6
 74
0
 42
0.0000001
 43
0.0000001
 44
0.0000000001
 40
0.0
 40
0.0
 40
0.0
 40
0.0
 40
0.5001763486
 40
0.7501388564
 40
1.0
 40
1.0
 40
1.0
 40
1.0
 10
3.0713540053
 20
5.9902488916
 30
0.0
 10
3.0720027433
 20
5.9940146323
 30
0.0
 10
3.0730397007
 20
5.9996517164
 30
0.0
 10
3.0745765747
 20
6.007135464
 30
0.0
 10
3.0754061327
 20
6.0108630637
 30
0.0
 10
3.0758400301
 20
6.0127219678
 30
0.0
  0
SPLINE
  5
460
100
AcDbEntity
  8
0
100
AcDbSpline
 62
6
  6
CONTINUOUS
 70
0
 71
3
 72
33
 73
29
 74
0
 42
0.0000001
 43
0.0000001
 44
0.0000000001
 40
0.0
 40
0.0
 40
0.0
 40
0.0
 40
0.0609325176
 40
0.1218574482
 40
0.1827734287
 40
0.2436785767
 40
0.304570224
 40
0.3654443678
 40
0.3958734611
 40
0.4262959095
 40
0.4567108847
 40
0.4871187479
 40
0.5023236539
 40
0.5175332695
 40
0.5327556356
 40
0.548005924
 40
0.5633000635
 40
0.5786525693
 40
0.609548831
 40
0.6407490505
 40
0.6722551814
 40
0.704055362
 40
0.7361315909
 40
0.7684620249
 40
0.801022702
 40
0.8667156158
 40
0.9330903777
 40
1.0
 40
1.0
 40
1.0
 40
1.0
 10
3.0758400301
 20
6.0127219678
 30
0.0
 10
3.0761440556
 20
6.014024398
 30
0.0
 10
3.0767549884
 20
6.0166284166
 30
0.0
 10
3.0776830759
 20
6.0205313992
 30
0.0
 10
3.0786264717
 20
6.024430097
 30
0.0
 10
3.0795906788
 20
6.0283229647
 30
0.0
 10
3.0805841503
 20
6.0322075303
 30
0.0
 10
3.0814477627
 20
6.0354347296
 30
0.0
 10
3.0821741389
 20
6.0380059715
 30
0.0
 10
3.0827431389
 20
6.0399268178
 30
0.0
 10
3.0833471993
 20
6.0418364648
 30
0.0
 10
3.0838956697
 20
6.0434130635
 30
0.0
 10
3.0843827512
 20
6.0446562819
 30
0.0
 10
3.0847824464
 20
6.0455751315
 30
0.0
 10
3.0852286554
 20
6.046473717
 30
0.0
 10
3.0857334272
 20
6.0473431959
 30
0.0
 10
3.0863015475
 20
6.0481762695
 30
0.0
 10
3.087142187
 20
6.0492349633
 30
0.0
 10
3.0883363101
 20
6.0504524814
 30
0.0
 10
3.0899463425
 20
6.051735659
 30
0.0
 10
3.0917010294
 20
6.0528488131
 30
0.0
 10
3.0935713797
 20
6.0537960607
 30
0.0
 10
3.0955339777
 20
6.0545821521
 30
0.0
 10
3.0975691326
 20
6.0552125813
 30
0.0
 10
3.1003643027
 20
6.0558564751
 30
0.0
 10
3.103961568
 20
6.0563022795
 30
0.0
 10
3.1083376945
 20
6.0563117709
 30
0.0
 10
3.1112530375
 20
6.0560060963
 30
0.0
 10
3.1127048406
 20
6.0557843576
 30
0.0
  0
SPLINE
  5
461
100
AcDbEntity
  8
0
100
AcDbSpline
 62
6
  6
CONTINUOUS
 70
0
 71
3
 72
30
 73
26
 74
0
 42
0.0000001
 43
0.0000001
 44
0.0000000001
 40
0.0
 40
0.0
 40
0.0
 40
0.0
 40
0.0220822589
 40
0.0447565572
 40
0.0922666572
 40
0.1433704865
 40
0.1988017134
 40
0.2283051782
 40
0.2590059196
 40
0.2908632449
 40
0.3237561572
 40
0.3574310439
 40
0.3914824889
 40
0.4085342211
 40
0.4255736491
 40
0.4595997268
 40
0.4935612402
 40
0.5274709217
 40
0.5613397415
 40
0.5951762493
 40
0.6627746434
 40
0.7303000464
 40
0.7977732705
 40
0.865208104
 40
1.0
 40
1.0
 40
1.0
 40
1.0
 10
3.2899542324
 20
6.0286614733
 30
0.0
 10
3.2903809641
 20
6.0285964453
 30
0.0
 10
3.2912411181
 20
6.0284307143
 30
0.0
 10
3.2929813824
 20
6.0279511512
 30
0.0
 10
3.2951852525
 20
6.0270492583
 30
0.0
 10
3.297778452
 20
6.025498109
 30
0.0
 10
3.2998449805
 20
6.0238087603
 30
0.0
 10
3.3014396067
 20
6.0222047609
 30
0.0
 10
3.3026178189
 20
6.0208424305
 30
0.0
 10
3.3037373518
 20
6.0193478544
 30
0.0
 10
3.3047782792
 20
6.0177277077
 30
0.0
 10
3.3057163027
 20
6.0159968205
 30
0.0
 10
3.306401691
 20
6.0144868335
 30
0.0
 10
3.306909633
 20
6.0132554223
 30
0.0
 10
3.3073966595
 20
6.0120160871
 30
0.0
 10
3.3079759694
 20
6.0104581102
 30
0.0
 10
3.308643791
 20
6.0085815048
 30
0.0
 10
3.3092930476
 20
6.0067016583
 30
0.0
 10
3.3099290947
 20
6.0048198935
 30
0.0
 10
3.3107638251
 20
6.0023101808
 30
0.0
 10
3.3117883951
 20
5.9991703027
 30
0.0
 10
3.3129987238
 20
5.9953994623
 30
0.0
 10
3.3141952194
 20
5.9916275666
 30
0.0
 10
3.3157767739
 20
5.9865983591
 30
0.0
 10
3.3169523437
 20
5.9828241203
 30
0.0
 10
3.317733377
 20
5.9803076636
 30
0.0
  0
SPLINE
  5
462
100
AcDbEntity
  8
0
100
AcDbSpline
 62
6
  6
CONTINUOUS
 70
0
 71
3
 72
10
 73
6
 74
0
 42
0.0000001
 43
0.0000001
 44
0.0000000001
 40
0.0
 40
0.0
 40
0.0
 40
0.0
 40
0.2509092396
 40
0.5011819037
 40
1.0
 40
1.0
 40
1.0
 40
1.0
 10
3.317733377
 20
5.9803076636
 30
0.0
 10
3.3184590552
 20
5.9779695169
 30
0.0
 10
3.3198818991
 20
5.9732908509
 30
0.0
 10
3.3226375837
 20
5.9639308046
 30
0.0
 10
3.3246222861
 20
5.9568960708
 30
0.0
 10
3.3259137159
 20
5.9522034661
 30
0.0
  0
SPLINE
  5
463
100
AcDbEntity
  8
0
100
AcDbSpline
 62
6
  6
CONTINUOUS
 70
0
 71
3
 72
19
 73
15
 74
0
 42
0.0000001
 43
0.0000001
 44
0.0000000001
 40
0.0
 40
0.0
 40
0.0
 40
0.0
 40
0.1389979693
 40
0.2080009854
 40
0.2766125571
 40
0.3447519303
 40
0.4122961635
 40
0.479054081
 40
0.5447596355
 40
0.6716998898
 40
0.7907120899
 40
0.8467466564
 40
0.90031267
 40
1.0
 40
1.0
 40
1.0
 40
1.0
 10
3.3259137159
 20
5.9522034661
 30
0.0
 10
3.3264984933
 20
5.9500785869
 30
0.0
 10
3.3273356653
 20
5.9468882277
 30
0.0
 10
3.3283719525
 20
5.9426265134
 30
0.0
 10
3.32910141
 20
5.9394466757
 30
0.0
 10
3.3297789897
 20
5.936279001
 30
0.0
 10
3.3303954942
 20
5.9331287691
 30
0.0
 10
3.3309363048
 20
5.9300036316
 30
0.0
 10
3.3315252725
 20
5.9259326563
 30
0.0
 10
3.3319811704
 20
5.9210068065
 30
0.0
 10
3.3319643333
 20
5.9162081451
 30
0.0
 10
3.3316155233
 20
5.9125973824
 30
0.0
 10
3.3310727769
 20
5.9093225927
 30
0.0
 10
3.3304098646
 20
5.9069692312
 30
0.0
 10
3.3298356536
 20
5.9054966337
 30
0.0
  0
SPLINE
  5
464
100
AcDbEntity
  8
0
100
AcDbSpline
 62
6
  6
CONTINUOUS
 70
0
 71
3
 72
16
 73
12
 74
0
 42
0.0000001
 43
0.0000001
 44
0.0000000001
 40
0.0
 40
0.0
 40
0.0
 40
0.0
 40
0.1144271757
 40
0.2344594272
 40
0.3587291281
 40
0.4859736854
 40
0.6149300713
 40
0.6796544833
 40
0.7443295466
 40
0.8730017605
 40
1.0
 40
1.0
 40
1.0
 40
1.0
 10
3.3704787918
 20
5.9020890444
 30
0.0
 10
3.369479627
 20
5.9036468255
 30
0.0
 10
3.3675041331
 20
5.9068852203
 30
0.0
 10
3.3646903896
 20
5.911960862
 30
0.0
 10
3.3619892819
 20
5.9173305658
 30
0.0
 10
3.3594430974
 20
5.9229343037
 30
0.0
 10
3.3574832952
 20
5.9277421222
 30
0.0
 10
3.3560197524
 20
5.9316561729
 30
0.0
 10
3.3546360153
 20
5.9355943032
 30
0.0
 10
3.3530621478
 20
5.940531899
 30
0.0
 10
3.3519473728
 20
5.9445148163
 30
0.0
 10
3.3514269925
 20
5.9465017999
 30
0.0
  0
LINE
  5
465
100
AcDbEntity
  8
0
100
AcDbLine
 62
6
  6
CONTINUOUS
 10
3.3455212691
 20
5.9703937112
 11
3.3452632353
 21
5.971494424
  0
LINE
  5
466
100
AcDbEntity
  8
0
100
AcDbLine
 62
6
  6
CONTINUOUS
 10
3.3452632353
 20
5.971494424
 11
3.3389865484
 21
5.9990663472
  0
SPLINE
  5
467
100
AcDbEntity
  8
0
100
AcDbSpline
 62
6
  6
CONTINUOUS
 70
0
 71
3
 72
23
 73
19
 74
0
 42
0.0000001
 43
0.0000001
 44
0.0000000001
 40
0.0
 40
0.0
 40
0.0
 40
0.0
 40
0.1015126035
 40
0.2020833417
 40
0.2997575453
 40
0.3923791069
 40
0.4775951354
 40
0.5538602279
 40
0.6216703947
 40
0.6817702935
 40
0.7349102909
 40
0.7819286521
 40
0.8238062629
 40
0.8617427545
 40
0.8970356256
 40
0.9310271577
 40
0.9650044191
 40
1.0
 40
1.0
 40
1.0
 40
1.0
 10
3.3387031003
 20
6.0004075264
 30
0.0
 10
3.3385392574
 20
6.0011891686
 30
0.0
 10
3.3382172805
 20
6.0027460765
 30
0.0
 10
3.3377587484
 20
6.0050594314
 30
0.0
 10
3.3373826074
 20
6.00731739
 30
0.0
 10
3.3371433748
 20
6.0094729695
 30
0.0
 10
3.3370576787
 20
6.0114724189
 30
0.0
 10
3.3371466882
 20
6.013276978
 30
0.0
 10
3.3373822505
 20
6.01486851
 30
0.0
 10
3.3377321575
 20
6.0162519978
 30
0.0
 10
3.3381805567
 20
6.0174338189
 30
0.0
 10
3.338715399
 20
6.0184194064
 30
0.0
 10
3.3393258035
 20
6.0192147906
 30
0.0
 10
3.3400025119
 20
6.0198250236
 30
0.0
 10
3.3407350932
 20
6.0202554562
 30
0.0
 10
3.3415122968
 20
6.0205120502
 30
0.0
 10
3.34232222
 20
6.0206039598
 30
0.0
 10
3.3428665357
 20
6.0205642121
 30
0.0
 10
3.3431387231
 20
6.0205227949
 30
0.0
  0
SPLINE
  5
468
100
AcDbEntity
  8
0
100
AcDbSpline
 62
6
  6
CONTINUOUS
 70
0
 71
3
 72
11
 73
7
 74
0
 42
0.0000001
 43
0.0000001
 44
0.0000000001
 40
0.0
 40
0.0
 40
0.0
 40
0.0
 40
0.2291428668
 40
0.4676558854
 40
0.7230244919
 40
1.0
 40
1.0
 40
1.0
 40
1.0
 10
2.7096069275
 20
6.0025293086
 30
0.0
 10
2.7097495826
 20
6.0026498993
 30
0.0
 10
2.7100711639
 20
6.0028621707
 30
0.0
 10
2.7106280201
 20
6.0030683253
 30
0.0
 10
2.7112524658
 20
6.0031651942
 30
0.0
 10
2.7116884191
 20
6.0031581353
 30
0.0
 10
2.7119133816
 20
6.0031388404
 30
0.0
  0
LINE
  5
469
100
AcDbEntity
  8
0
100
AcDbLine
 62
6
  6
CONTINUOUS
 10
3.3865440722
 20
5.8794948545
 11
3.3844224906
 21
5.8802232267
  0
SPLINE
  5
46A
100
AcDbEntity
  8
0
100
AcDbSpline
 62
6
  6
CONTINUOUS
 70
0
 71
3
 72
19
 73
15
 74
0
 42
0.0000001
 43
0.0000001
 44
0.0000000001
 40
0.0
 40
0.0
 40
0.0
 40
0.0
 40
0.099029665
 40
0.1514567641
 40
0.2058895832
 40
0.2623562448
 40
0.3208632285
 40
0.4438534837
 40
0.5082498952
 40
0.5744269421
 40
0.7115512112
 40
0.7822039034
 40
0.8539818012
 40
1.0
 40
1.0
 40
1.0
 40
1.0
 10
2.7529042054
 20
5.993779551
 30
0.0
 10
2.7526041043
 20
5.9952732862
 30
0.0
 10
2.7523514084
 20
5.9976028474
 30
0.0
 10
2.7523494022
 20
6.0007716127
 30
0.0
 10
2.7525164618
 20
6.0032808972
 30
0.0
 10
2.7528501134
 20
6.0058672736
 30
0.0
 10
2.7535225725
 20
6.0094676759
 30
0.0
 10
2.7545085223
 20
6.0131272166
 30
0.0
 10
2.7557660614
 20
6.0168208102
 30
0.0
 10
2.7572517492
 20
6.0206631759
 30
0.0
 10
2.7589972462
 20
6.024504241
 30
0.0
 10
2.7609686601
 20
6.0283273363
 30
0.0
 10
2.7631206855
 20
6.0322090776
 30
0.0
 10
2.7648660178
 20
6.0350716659
 30
0.0
 10
2.7660790517
 20
6.0369625239
 30
0.0
  0
LINE
  5
46B
100
AcDbEntity
  8
0
100
AcDbLine
 62
6
  6
CONTINUOUS
 10
2.7660790517
 20
6.0369625239
 11
2.7799515479
 21
6.057999268
  0
SPLINE
  5
46C
100
AcDbEntity
  8
0
100
AcDbSpline
 62
6
  6
CONTINUOUS
 70
0
 71
3
 72
32
 73
28
 74
0
 42
0.0000001
 43
0.0000001
 44
0.0000000001
 40
0.0
 40
0.0
 40
0.0
 40
0.0
 40
0.0674824421
 40
0.1349903441
 40
0.2025314896
 40
0.2701161258
 40
0.3377642806
 40
0.3716199254
 40
0.4055000119
 40
0.4394085089
 40
0.4733624583
 40
0.4903644834
 40
0.5073875222
 40
0.5414961298
 40
0.5756848408
 40
0.6099425992
 40
0.6270003043
 40
0.6439317983
 40
0.6606830718
 40
0.6772156009
 40
0.7095743591
 40
0.7409149704
 40
0.8002228919
 40
0.855241696
 40
0.9064408703
 40
0.9544563262
 40
1.0
 40
1.0
 40
1.0
 40
1.0
 10
2.7799515479
 20
6.057999268
 30
0.0
 10
2.780783543
 20
6.0592198172
 30
0.0
 10
2.7824492923
 20
6.0616603915
 30
0.0
 10
2.7849540212
 20
6.0653182988
 30
0.0
 10
2.787467218
 20
6.0689731113
 30
0.0
 10
2.7899923121
 20
6.0726234505
 30
0.0
 10
2.7921087759
 20
6.0756598595
 30
0.0
 10
2.793812621
 20
6.0780845324
 30
0.0
 10
2.7950989658
 20
6.07989992
 30
0.0
 10
2.796395724
 20
6.0817105357
 30
0.0
 10
2.7974865246
 20
6.0832141909
 30
0.0
 10
2.7983667449
 20
6.0844139463
 30
0.0
 10
2.7992531444
 20
6.0856133429
 30
0.0
 10
2.800375023
 20
6.0871065754
 30
0.0
 10
2.8017789282
 20
6.0888590759
 30
0.0
 10
2.8030235255
 20
6.0902584302
 30
0.0
 10
2.8040655977
 20
6.0913291185
 30
0.0
 10
2.8048653972
 20
6.0921000767
 30
0.0
 10
2.8056829525
 20
6.0928351654
 30
0.0
 10
2.8067865279
 20
6.0937557444
 30
0.0
 10
2.8081941825
 20
6.094808602
 30
0.0
 10
2.8104545171
 20
6.0962742703
 30
0.0
 10
2.8132879972
 20
6.0977572267
 30
0.0
 10
2.816701327
 20
6.0990043708
 30
0.0
 10
2.8200130921
 20
6.0997167637
 30
0.0
 10
2.8231850421
 20
6.0999329493
 30
0.0
 10
2.8252352056
 20
6.0997727397
 30
0.0
 10
2.826220719
 20
6.0996223648
 30
0.0
  0
SPLINE
  5
46D
100
AcDbEntity
  8
0
100
AcDbSpline
 62
6
  6
CONTINUOUS
 70
0
 71
3
 72
32
 73
28
 74
0
 42
0.0000001
 43
0.0000001
 44
0.0000000001
 40
0.0
 40
0.0
 40
0.0
 40
0.0
 40
0.067136245
 40
0.133758972
 40
0.1996018886
 40
0.2321767965
 40
0.2644944266
 40
0.2965311005
 40
0.3283131754
 40
0.3597543157
 40
0.3907397366
 40
0.4214230321
 40
0.4520155417
 40
0.4824778118
 40
0.5128929376
 40
0.5281051308
 40
0.5433169229
 40
0.558527531
 40
0.5737378292
 40
0.6041601956
 40
0.6345884059
 40
0.6650232535
 40
0.6954631568
 40
0.7563508836
 40
0.8172494276
 40
0.8781584637
 40
1.0
 40
1.0
 40
1.0
 40
1.0
 10
3.0049753284
 20
6.0722690658
 30
0.0
 10
3.0062693955
 20
6.0720715783
 30
0.0
 10
3.0088302284
 20
6.0715470136
 30
0.0
 10
3.0125382101
 20
6.070336748
 30
0.0
 10
3.0154542104
 20
6.0689477576
 30
0.0
 10
3.0176174333
 20
6.0675947396
 30
0.0
 10
3.0191335519
 20
6.0664622654
 30
0.0
 10
3.0205296767
 20
6.0652072869
 30
0.0
 10
3.0217841916
 20
6.0638329937
 30
0.0
 10
3.0228664745
 20
6.0623433366
 30
0.0
 10
3.0237308719
 20
6.060738893
 30
0.0
 10
3.0243270899
 20
6.059034753
 30
0.0
 10
3.0247024761
 20
6.0572822825
 30
0.0
 10
3.0249066168
 20
6.055508509
 30
0.0
 10
3.0249790312
 20
6.0540260811
 30
0.0
 10
3.0250070406
 20
6.0528401545
 30
0.0
 10
3.0250206025
 20
6.0519504427
 30
0.0
 10
3.0250278846
 20
6.0510607017
 30
0.0
 10
3.0250294788
 20
6.0498743479
 30
0.0
 10
3.0250173794
 20
6.0483912931
 30
0.0
 10
3.0249833856
 20
6.0466116698
 30
0.0
 10
3.0249336446
 20
6.0448320844
 30
0.0
 10
3.0248514101
 20
6.0424593242
 30
0.0
 10
3.0247284496
 20
6.03949367
 30
0.0
 10
3.0245563223
 20
6.0359355441
 30
0.0
 10
3.024302437
 20
6.03119155
 30
0.0
 10
3.0240930438
 20
6.0276343392
 30
0.0
 10
3.0239489587
 20
6.0252629969
 30
0.0
  0
SPLINE
  5
46E
100
AcDbEntity
  8
0
100
AcDbSpline
 62
6
  6
CONTINUOUS
 70
0
 71
3
 72
11
 73
7
 74
0
 42
0.0000001
 43
0.0000001
 44
0.0000000001
 40
0.0
 40
0.0
 40
0.0
 40
0.0
 40
0.2498470694
 40
0.4998029664
 40
0.749854924
 40
1.0
 40
1.0
 40
1.0
 40
1.0
 10
3.0239489587
 20
6.0252629969
 30
0.0
 10
3.0238146552
 20
6.0230528833
 30
0.0
 10
3.0234928606
 20
6.0186348353
 30
0.0
 10
3.0228855143
 20
6.0120170045
 30
0.0
 10
3.0221719667
 20
6.0054071618
 30
0.0
 10
3.021631952
 20
6.0010071683
 30
0.0
 10
3.0213468171
 20
5.9988087507
 30
0.0
  0
SPLINE
  5
46F
100
AcDbEntity
  8
0
100
AcDbSpline
 62
6
  6
CONTINUOUS
 70
0
 71
3
 72
23
 73
19
 74
0
 42
0.0000001
 43
0.0000001
 44
0.0000000001
 40
0.0
 40
0.0
 40
0.0
 40
0.0
 40
0.1217357653
 40
0.1827058464
 40
0.2437770963
 40
0.2743627365
 40
0.3049874719
 40
0.3663368444
 40
0.4894000059
 40
0.551347168
 40
0.6137672653
 40
0.6766899198
 40
0.7401524446
 40
0.7721146057
 40
0.8042406961
 40
0.8689557586
 40
0.934240478
 40
1.0
 40
1.0
 40
1.0
 40
1.0
 10
3.0213468171
 20
5.9988087507
 30
0.0
 10
3.0210870495
 20
5.9968059421
 30
0.0
 10
3.020626475
 20
5.9938083613
 30
0.0
 10
3.0198537529
 20
5.9898382632
 30
0.0
 10
3.0193004803
 20
5.9873669597
 30
0.0
 10
3.0188134943
 20
5.9853975864
 30
0.0
 10
3.0182959444
 20
5.9834311806
 30
0.0
 10
3.017301745
 20
5.9800048434
 30
0.0
 10
3.0159076218
 20
5.9761531277
 30
0.0
 10
3.0141556892
 20
5.9724377743
 30
0.0
 10
3.0126353778
 20
5.9697249054
 30
0.0
 10
3.0109113995
 20
5.9671065887
 30
0.0
 10
3.0093071711
 20
5.9650229443
 30
0.0
 10
3.0079226186
 20
5.9634221243
 30
0.0
 10
3.0064631061
 20
5.9618607643
 30
0.0
 10
3.0045158045
 20
5.9600014769
 30
0.0
 10
3.0020076978
 20
5.9579342747
 30
0.0
 10
3.0002343474
 20
5.9566729772
 30
0.0
 10
2.999323828
 20
5.95607205
 30
0.0
  0
SPLINE
  5
470
100
AcDbEntity
  8
0
100
AcDbSpline
 62
6
  6
CONTINUOUS
 70
0
 71
3
 72
24
 73
20
 74
0
 42
0.0000001
 43
0.0000001
 44
0.0000000001
 40
0.0
 40
0.0
 40
0.0
 40
0.0
 40
0.0362298663
 40
0.0712650853
 40
0.1061000676
 40
0.1419758844
 40
0.1802182231
 40
0.2221671051
 40
0.2691091804
 40
0.3221318697
 40
0.3821786069
 40
0.4500539119
 40
0.5263771931
 40
0.611568416
 40
0.7039095532
 40
0.8005617338
 40
0.8996835181
 40
0.9497673521
 40
1.0
 40
1.0
 40
1.0
 40
1.0
 10
2.7716758827
 20
6.1079688976
 30
0.0
 10
2.7719128919
 20
6.1079329083
 30
0.0
 10
2.7723749085
 20
6.1078265731
 30
0.0
 10
2.7730236889
 20
6.1075477392
 30
0.0
 10
2.7736030129
 20
6.1071466031
 30
0.0
 10
2.7741019622
 20
6.1066191932
 30
0.0
 10
2.7745094846
 20
6.1059624804
 30
0.0
 10
2.7748144516
 20
6.1051738971
 30
0.0
 10
2.7750072683
 20
6.1042512557
 30
0.0
 10
2.7750770651
 20
6.1031918271
 30
0.0
 10
2.7750117943
 20
6.1019938746
 30
0.0
 10
2.7747978791
 20
6.100657189
 30
0.0
 10
2.7744105374
 20
6.0991870265
 30
0.0
 10
2.7738301079
 20
6.0976087691
 30
0.0
 10
2.7730948588
 20
6.0959493699
 30
0.0
 10
2.772247065
 20
6.0942414035
 30
0.0
 10
2.7714833845
 20
6.0928048874
 30
0.0
 10
2.7708525771
 20
6.0916457767
 30
0.0
 10
2.770533468
 20
6.0910637379
 30
0.0
 10
2.7703732762
 20
6.0907725079
 30
0.0
  0
LINE
  5
471
100
AcDbEntity
  8
0
100
AcDbLine
 62
6
  6
CONTINUOUS
 10
2.7703732762
 20
6.0907725079
 11
2.7700662359
 21
6.0902154693
  0
LINE
  5
472
100
AcDbEntity
  8
0
100
AcDbLine
 62
6
  6
CONTINUOUS
 10
2.7700662359
 20
6.0902154693
 11
2.7562782153
 21
6.0662223763
  0
LINE
  5
473
100
AcDbEntity
  8
0
100
AcDbLine
 62
6
  6
CONTINUOUS
 10
2.7562782153
 20
6.0662223763
 11
2.7556843313
 21
6.0652060336
  0
SPLINE
  5
474
100
AcDbEntity
  8
0
100
AcDbSpline
 62
6
  6
CONTINUOUS
 70
0
 71
3
 72
21
 73
17
 74
0
 42
0.0000001
 43
0.0000001
 44
0.0000000001
 40
0.0
 40
0.0
 40
0.0
 40
0.0
 40
0.1246545099
 40
0.1874027945
 40
0.2504335503
 40
0.313748896
 40
0.3773191197
 40
0.5049212962
 40
0.5688234837
 40
0.6326871673
 40
0.696273534
 40
0.7592955575
 40
0.821470341
 40
0.8825148856
 40
0.9421275369
 40
1.0
 40
1.0
 40
1.0
 40
1.0
 10
2.7409702495
 20
6.040809629
 30
0.0
 10
2.7398777755
 20
6.0390499552
 30
0.0
 10
2.7382132967
 20
6.0364180891
 30
0.0
 10
2.7359411117
 20
6.0329320426
 30
0.0
 10
2.7342001672
 20
6.0303164818
 30
0.0
 10
2.7324257587
 20
6.0277069515
 30
0.0
 10
2.7300095341
 20
6.0242367573
 30
0.0
 10
2.727513892
 20
6.0208099824
 30
0.0
 10
2.7249148314
 20
6.0174556617
 30
0.0
 10
2.7229101469
 20
6.0149874582
 30
0.0
 10
2.7208572297
 20
6.0125784034
 30
0.0
 10
2.7187646321
 20
6.0102412328
 30
0.0
 10
2.7166413996
 20
6.0079895076
 30
0.0
 10
2.7144970585
 20
6.0058370929
 30
0.0
 10
2.7123462928
 20
6.0037936176
 30
0.0
 10
2.7108939117
 20
6.0024888254
 30
0.0
 10
2.7101692242
 20
6.0018567777
 30
0.0
  0
LINE
  5
475
100
AcDbEntity
  8
0
100
AcDbLine
 62
6
  6
CONTINUOUS
 10
2.6920479422
 20
5.9861714207
 11
2.689757471
 21
5.9861181875
  0
SPLINE
  5
476
100
AcDbEntity
  8
0
100
AcDbSpline
 62
6
  6
CONTINUOUS
 70
0
 71
3
 72
21
 73
17
 74
0
 42
0.0000001
 43
0.0000001
 44
0.0000000001
 40
0.0
 40
0.0
 40
0.0
 40
0.0
 40
0.1113334677
 40
0.2219201164
 40
0.3324213987
 40
0.4439247169
 40
0.5006306061
 40
0.5584476614
 40
0.6179590488
 40
0.68007656
 40
0.7463144559
 40
0.8193220928
 40
0.8597183799
 40
0.9035110306
 40
0.9507777661
 40
1.0
 40
1.0
 40
1.0
 40
1.0
 10
2.7261683196
 20
5.9407875957
 30
0.0
 10
2.7251831821
 20
5.9406484449
 30
0.0
 10
2.7232259715
 20
5.9403219627
 30
0.0
 10
2.7203271501
 20
5.939664012
 30
0.0
 10
2.717477889
 20
5.9388091665
 30
0.0
 10
2.7151559882
 20
5.9378968082
 30
0.0
 10
2.7133387502
 20
5.9370128687
 30
0.0
 10
2.7119829064
 20
5.9362487265
 30
0.0
 10
2.7106437327
 20
5.9353637967
 30
0.0
 10
2.7093244715
 20
5.934321496
 30
0.0
 10
2.7080338099
 20
5.9330621843
 30
0.0
 10
2.7070408827
 20
5.931791662
 30
0.0
 10
2.70632565
 20
5.9305803703
 30
0.0
 10
2.7058354932
 20
5.9295099266
 30
0.0
 10
2.7054552975
 20
5.9283118763
 30
0.0
 10
2.7053058333
 20
5.9274593785
 30
0.0
 10
2.7052599513
 20
5.9270219102
 30
0.0
  0
SPLINE
  5
477
100
AcDbEntity
  8
0
100
AcDbSpline
 62
6
  6
CONTINUOUS
 70
0
 71
3
 72
14
 73
10
 74
0
 42
0.0000001
 43
0.0000001
 44
0.0000000001
 40
0.0
 40
0.0
 40
0.0
 40
0.0
 40
0.2648314044
 40
0.3933527298
 40
0.5192804482
 40
0.642699812
 40
0.7637620124
 40
0.8826965499
 40
1.0
 40
1.0
 40
1.0
 40
1.0
 10
2.7556920883
 20
5.9390940717
 30
0.0
 10
2.7531035488
 20
5.9394900022
 30
0.0
 10
2.7492511266
 20
5.9400311623
 30
0.0
 10
2.7441491627
 20
5.940611676
 30
0.0
 10
2.7404280251
 20
5.9409531805
 30
0.0
 10
2.7367718317
 20
5.9411797195
 30
0.0
 10
2.7331783685
 20
5.9412705846
 30
0.0
 10
2.7296447358
 20
5.9411753265
 30
0.0
 10
2.7273168427
 20
5.9409496012
 30
0.0
 10
2.7261683196
 20
5.9407875957
 30
0.0
  0
SPLINE
  5
478
100
AcDbEntity
  8
0
100
AcDbSpline
 62
6
  6
CONTINUOUS
 70
0
 71
3
 72
15
 73
11
 74
0
 42
0.0000001
 43
0.0000001
 44
0.0000000001
 40
0.0
 40
0.0
 40
0.0
 40
0.0
 40
0.118740221
 40
0.2416224661
 40
0.3674815418
 40
0.4951574575
 40
0.6234823843
 40
0.7512300452
 40
0.8771531857
 40
1.0
 40
1.0
 40
1.0
 40
1.0
 10
2.7259406944
 20
5.6171815659
 30
0.0
 10
2.7254596339
 20
5.6132430981
 30
0.0
 10
2.7244142114
 20
5.6052367653
 30
0.0
 10
2.7226296115
 20
5.593087128
 30
0.0
 10
2.7205996168
 20
5.5806733485
 30
0.0
 10
2.7183274466
 20
5.5681166465
 30
0.0
 10
2.7158170708
 20
5.5555410327
 30
0.0
 10
2.7131082697
 20
5.5430666846
 30
0.0
 10
2.7102410847
 20
5.5308157814
 30
0.0
 10
2.7082190813
 20
5.522752303
 30
0.0
 10
2.7071882408
 20
5.5187788817
 30
0.0
  0
SPLINE
  5
479
100
AcDbEntity
  8
0
100
AcDbSpline
 62
6
  6
CONTINUOUS
 70
0
 71
3
 72
41
 73
37
 74
0
 42
0.0000001
 43
0.0000001
 44
0.0000000001
 40
0.0
 40
0.0
 40
0.0
 40
0.0
 40
0.0446781723
 40
0.089074713
 40
0.133065759
 40
0.1765519968
 40
0.2195046351
 40
0.2618848932
 40
0.3036468953
 40
0.3447718648
 40
0.3852370327
 40
0.4250076089
 40
0.4640382804
 40
0.502277313
 40
0.5761469766
 40
0.6461564379
 40
0.6795678944
 40
0.711831349
 40
0.7726444291
 40
0.8010596986
 40
0.8280513101
 40
0.8535300608
 40
0.8773948043
 40
0.8995460214
 40
0.9198869015
 40
0.938322243
 40
0.9467981528
 40
0.9547661475
 40
0.9622180377
 40
0.9691474915
 40
0.9755517426
 40
0.9814328335
 40
0.9867979379
 40
0.9916615177
 40
0.9960486666
 40
1.0
 40
1.0
 40
1.0
 40
1.0
 10
2.6475416752
 20
5.2835449954
 30
0.0
 10
2.64676943
 20
5.2808493403
 30
0.0
 10
2.6450850937
 20
5.2755154062
 30
0.0
 10
2.6421666216
 20
5.267687013
 30
0.0
 10
2.6389001946
 20
5.2600786906
 30
0.0
 10
2.6353229053
 20
5.2527126161
 30
0.0
 10
2.6314804487
 20
5.2455965117
 30
0.0
 10
2.6274144421
 20
5.2387316607
 30
0.0
 10
2.623164011
 20
5.2321157483
 30
0.0
 10
2.6187612152
 20
5.2257461096
 30
0.0
 10
2.6142365326
 20
5.2196174456
 30
0.0
 10
2.6096212174
 20
5.2137230746
 30
0.0
 10
2.6049410249
 20
5.2080602737
 30
0.0
 10
2.598712587
 20
5.200904646
 30
0.0
 10
2.5908959302
 20
5.1925588163
 30
0.0
 10
2.5829241622
 20
5.1847905011
 30
0.0
 10
2.5766364724
 20
5.1790465119
 30
0.0
 10
2.5706670542
 20
5.173812552
 30
0.0
 10
2.5647867409
 20
5.1689545017
 30
0.0
 10
2.5590235259
 20
5.1644827942
 30
0.0
 10
2.5549506649
 20
5.161451812
 30
0.0
 10
2.5510469987
 20
5.1586736346
 30
0.0
 10
2.547330448
 20
5.1561585014
 30
0.0
 10
2.5438199719
 20
5.1539166341
 30
0.0
 10
2.5405348596
 20
5.1519582089
 30
0.0
 10
2.537932127
 20
5.1505345873
 30
0.0
 10
2.5359745729
 20
5.1495542565
 30
0.0
 10
2.5346157487
 20
5.1489190647
 30
0.0
 10
2.5333270009
 20
5.1483646383
 30
0.0
 10
2.5321105108
 20
5.1478925648
 30
0.0
 10
2.5309682758
 20
5.1475044003
 30
0.0
 10
2.5299020558
 20
5.1472017026
 30
0.0
 10
2.528913472
 20
5.146985985
 30
0.0
 10
2.5280038656
 20
5.1468588449
 30
0.0
 10
2.527174733
 20
5.1468219845
 30
0.0
 10
2.5266509461
 20
5.1468610382
 30
0.0
 10
2.5264058352
 20
5.1468987399
 30
0.0
  0
LINE
  5
47A
100
AcDbEntity
  8
0
100
AcDbLine
 62
6
  6
CONTINUOUS
 10
3.0049722034
 20
6.072269544
 11
3.0041197425
 21
6.0678780493
  0
SPLINE
  5
47B
100
AcDbEntity
  8
0
100
AcDbSpline
 62
6
  6
CONTINUOUS
 70
0
 71
3
 72
14
 73
10
 74
0
 42
0.0000001
 43
0.0000001
 44
0.0000000001
 40
0.0
 40
0.0
 40
0.0
 40
0.0
 40
0.1404008389
 40
0.279296976
 40
0.5455802569
 40
0.6704778249
 40
0.7884822309
 40
0.8986205351
 40
1.0
 40
1.0
 40
1.0
 40
1.0
 10
3.0239489587
 20
6.0252629969
 30
0.0
 10
3.0235693724
 20
6.0252818304
 30
0.0
 10
3.0228130923
 20
6.0252995684
 30
0.0
 10
3.0213364991
 20
6.0252573006
 30
0.0
 10
3.0199061124
 20
6.0251018484
 30
0.0
 10
3.0185553599
 20
6.0248233507
 30
0.0
 10
3.0176342688
 20
6.024565229
 30
0.0
 10
3.0167959635
 20
6.0242577496
 30
0.0
 10
3.0162773385
 20
6.0240124446
 30
0.0
 10
3.0160363825
 20
6.0238811067
 30
0.0
  0
SPLINE
  5
47C
100
AcDbEntity
  8
0
100
AcDbSpline
 62
6
  6
CONTINUOUS
 70
0
 71
3
 72
15
 73
11
 74
0
 42
0.0000001
 43
0.0000001
 44
0.0000000001
 40
0.0
 40
0.0
 40
0.0
 40
0.0
 40
0.148250747
 40
0.293946289
 40
0.4344076776
 40
0.5674413465
 40
0.6915759695
 40
0.8055859284
 40
0.9085575777
 40
1.0
 40
1.0
 40
1.0
 40
1.0
 10
3.0213468171
 20
5.9988087507
 30
0.0
 10
3.0208959466
 20
5.9988564734
 30
0.0
 10
3.0199987724
 20
5.9989231858
 30
0.0
 10
3.0186694799
 20
5.998938973
 30
0.0
 10
3.0173883321
 20
5.9988691272
 30
0.0
 10
3.0161810579
 20
5.9987134776
 30
0.0
 10
3.0150694541
 20
5.9984763422
 30
0.0
 10
3.0140731236
 20
5.9981603256
 30
0.0
 10
3.0132107254
 20
5.9977729222
 30
0.0
 10
3.0127054733
 20
5.9974534007
 30
0.0
 10
3.0124849874
 20
5.9972813756
 30
0.0
  0
SPLINE
  5
47D
100
AcDbEntity
  8
0
100
AcDbSpline
 62
6
  6
CONTINUOUS
 70
0
 71
3
 72
15
 73
11
 74
0
 42
0.0000001
 43
0.0000001
 44
0.0000000001
 40
0.0
 40
0.0
 40
0.0
 40
0.0
 40
0.1670247958
 40
0.3251495101
 40
0.4722809086
 40
0.6067263296
 40
0.7274061352
 40
0.8334427779
 40
0.9243123977
 40
1.0
 40
1.0
 40
1.0
 40
1.0
 10
2.9993238312
 20
5.9560720459
 30
0.0
 10
2.9991102583
 20
5.9563241045
 30
0.0
 10
2.9986866038
 20
5.9568081871
 30
0.0
 10
2.9980467506
 20
5.9574891061
 30
0.0
 10
2.9974259508
 20
5.9580986244
 30
0.0
 10
2.9968319873
 20
5.9586285873
 30
0.0
 10
2.9962722312
 20
5.9590731782
 30
0.0
 10
2.9957525086
 20
5.9594274418
 30
0.0
 10
2.9952793814
 20
5.9596877459
 30
0.0
 10
2.9949707208
 20
5.9598081216
 30
0.0
 10
2.9948261744
 20
5.9598470996
 30
0.0
  0
SPLINE
  5
47E
100
AcDbEntity
  8
0
100
AcDbSpline
 62
6
  6
CONTINUOUS
 70
0
 71
3
 72
18
 73
14
 74
0
 42
0.0000001
 43
0.0000001
 44
0.0000000001
 40
0.0
 40
0.0
 40
0.0
 40
0.0
 40
0.1677426214
 40
0.3314557816
 40
0.4860103342
 40
0.6270483622
 40
0.7514048445
 40
0.8064120558
 40
0.8562147692
 40
0.9006023394
 40
0.9394069328
 40
0.9725285804
 40
1.0
 40
1.0
 40
1.0
 40
1.0
 10
2.9679449956
 20
5.9439532389
 30
0.0
 10
2.9679656099
 20
5.9444952633
 30
0.0
 10
2.968023069
 20
5.9455657287
 30
0.0
 10
2.968155732
 20
5.9471319403
 30
0.0
 10
2.9683310635
 20
5.9486071326
 30
0.0
 10
2.9685451871
 20
5.9499484739
 30
0.0
 10
2.9687573584
 20
5.9509632311
 30
0.0
 10
2.9689459407
 20
5.9516800336
 30
0.0
 10
2.9690874641
 20
5.9521414255
 30
0.0
 10
2.9692334581
 20
5.9525461481
 30
0.0
 10
2.9693827153
 20
5.9528917557
 30
0.0
 10
2.9695339149
 20
5.9531757866
 30
0.0
 10
2.9696456067
 20
5.9533378129
 30
0.0
 10
2.9697028257
 20
5.9534057625
 30
0.0
  0
SPLINE
  5
47F
100
AcDbEntity
  8
0
100
AcDbSpline
 62
6
  6
CONTINUOUS
 70
0
 71
3
 72
16
 73
12
 74
0
 42
0.0000001
 43
0.0000001
 44
0.0000000001
 40
0.0
 40
0.0
 40
0.0
 40
0.0
 40
0.1392628099
 40
0.2774981445
 40
0.4122529568
 40
0.5418207468
 40
0.6654767602
 40
0.7250325824
 40
0.7830468599
 40
0.8943904553
 40
1.0
 40
1.0
 40
1.0
 40
1.0
 10
2.772583478
 20
5.9734440274
 30
0.0
 10
2.7726665596
 20
5.9739869647
 30
0.0
 10
2.7728988001
 20
5.9750597008
 30
0.0
 10
2.7734298636
 20
5.9766003887
 30
0.0
 10
2.7741316695
 20
5.9780297064
 30
0.0
 10
2.7749886115
 20
5.9793032373
 30
0.0
 10
2.7758217815
 20
5.980220272
 30
0.0
 10
2.7765445457
 20
5.9808406151
 30
0.0
 10
2.7772787433
 20
5.9813676981
 30
0.0
 10
2.7782407066
 20
5.9818818502
 30
0.0
 10
2.7790668987
 20
5.9821315259
 30
0.0
 10
2.7794767331
 20
5.9822058961
 30
0.0
  0
SPLINE
  5
480
100
AcDbEntity
  8
0
100
AcDbSpline
 62
6
  6
CONTINUOUS
 70
0
 71
3
 72
18
 73
14
 74
0
 42
0.0000001
 43
0.0000001
 44
0.0000000001
 40
0.0
 40
0.0
 40
0.0
 40
0.0
 40
0.1356814864
 40
0.2716107164
 40
0.33893259
 40
0.4054244335
 40
0.4709075748
 40
0.5352630276
 40
0.660093279
 40
0.7793692273
 40
0.836849757
 40
0.8928028931
 40
1.0
 40
1.0
 40
1.0
 40
1.0
 10
2.7675336027
 20
5.9746204909
 30
0.0
 10
2.7676563024
 20
5.9751564099
 30
0.0
 10
2.7679696183
 20
5.9762147074
 30
0.0
 10
2.7685144404
 20
5.977479113
 30
0.0
 10
2.769037545
 20
5.9784395306
 30
0.0
 10
2.7694686897
 20
5.979123046
 30
0.0
 10
2.7699366718
 20
5.9797671383
 30
0.0
 10
2.7705981842
 20
5.9805599324
 30
0.0
 10
2.7714959879
 20
5.9814360753
 30
0.0
 10
2.7724950907
 20
5.9821495322
 30
0.0
 10
2.7733263937
 20
5.9825970159
 30
0.0
 10
2.774147796
 20
5.98295152
 30
0.0
 10
2.7747898217
 20
5.9831308364
 30
0.0
 10
2.7752182625
 20
5.9832023375
 30
0.0
  0
SPLINE
  5
481
100
AcDbEntity
  8
0
100
AcDbSpline
 62
6
  6
CONTINUOUS
 70
0
 71
3
 72
13
 73
9
 74
0
 42
0.0000001
 43
0.0000001
 44
0.0000000001
 40
0.0
 40
0.0
 40
0.0
 40
0.0
 40
0.1208852094
 40
0.2445080469
 40
0.4962182111
 40
0.7499062125
 40
0.8759178526
 40
1.0
 40
1.0
 40
1.0
 40
1.0
 10
2.7529042054
 20
5.993779551
 30
0.0
 10
2.7532064666
 20
5.9939969553
 30
0.0
 10
2.7538411796
 20
5.9944050837
 30
0.0
 10
2.755201731
 20
5.9951053476
 30
0.0
 10
2.7570428294
 20
5.995745197
 30
0.0
 10
2.7589757156
 20
5.9960451356
 30
0.0
 10
2.7605288067
 20
5.9960729714
 30
0.0
 10
2.7612983939
 20
5.9960159735
 30
0.0
 10
2.7616776837
 20
5.9959691241
 30
0.0
  0
SPLINE
  5
482
100
AcDbEntity
  8
0
100
AcDbSpline
 62
6
  6
CONTINUOUS
 70
0
 71
3
 72
13
 73
9
 74
0
 42
0.0000001
 43
0.0000001
 44
0.0000000001
 40
0.0
 40
0.0
 40
0.0
 40
0.0
 40
0.088498273
 40
0.1907727619
 40
0.3052983741
 40
0.4304495323
 40
0.7057150408
 40
1.0
 40
1.0
 40
1.0
 40
1.0
 10
2.7660790517
 20
6.0369625239
 30
0.0
 10
2.766320671
 20
6.0369053575
 30
0.0
 10
2.7668357095
 20
6.0367574959
 30
0.0
 10
2.7676431617
 20
6.0364706742
 30
0.0
 10
2.7685307141
 20
6.03610556
 30
0.0
 10
2.7698435927
 20
6.0355018673
 30
0.0
 10
2.7715701827
 20
6.0345946883
 30
0.0
 10
2.7729426206
 20
6.0337747051
 30
0.0
 10
2.7736401363
 20
6.0333329379
 30
0.0
  0
SPLINE
  5
483
100
AcDbEntity
  8
0
100
AcDbSpline
 62
6
  6
CONTINUOUS
 70
0
 71
3
 72
13
 73
9
 74
0
 42
0.0000001
 43
0.0000001
 44
0.0000000001
 40
0.0
 40
0.0
 40
0.0
 40
0.0
 40
0.0892141218
 40
0.1912315938
 40
0.3048484688
 40
0.4288130596
 40
0.7025814119
 40
1.0
 40
1.0
 40
1.0
 40
1.0
 10
2.7799515479
 20
6.057999268
 30
0.0
 10
2.7801494695
 20
6.0579328163
 30
0.0
 10
2.7805689232
 20
6.0577760497
 30
0.0
 10
2.7812251962
 20
6.0574958935
 30
0.0
 10
2.7819443214
 20
6.0571572083
 30
0.0
 10
2.7830109288
 20
6.0566143467
 30
0.0
 10
2.78443077
 20
6.0558189838
 30
0.0
 10
2.7855697548
 20
6.0551186963
 30
0.0
 10
2.7861559513
 20
6.0547434396
 30
0.0
  0
SPLINE
  5
484
100
AcDbEntity
  8
0
100
AcDbSpline
 62
6
  6
CONTINUOUS
 70
0
 71
3
 72
14
 73
10
 74
0
 42
0.0000001
 43
0.0000001
 44
0.0000000001
 40
0.0
 40
0.0
 40
0.0
 40
0.0
 40
0.0887216073
 40
0.1902520691
 40
0.3034499996
 40
0.427118561
 40
0.560020645
 40
0.7008193304
 40
1.0
 40
1.0
 40
1.0
 40
1.0
 10
3.0160363831
 20
6.023881107
 30
0.0
 10
3.015192708
 20
6.0243434103
 30
0.0
 10
3.013372727
 20
6.025315016
 30
0.0
 10
3.0104472475
 20
6.0268212799
 30
0.0
 10
3.0071650732
 20
6.0284619956
 30
0.0
 10
3.0035613132
 20
6.0302196997
 30
0.0
 10
2.9996728799
 20
6.0320760982
 30
0.0
 10
2.9940474221
 20
6.0347110094
 30
0.0
 10
2.9897066074
 20
6.0366908425
 30
0.0
 10
2.9867474821
 20
6.0380204319
 30
0.0
  0
SPLINE
  5
485
100
AcDbEntity
  8
0
100
AcDbSpline
 62
6
  6
CONTINUOUS
 70
0
 71
3
 72
42
 73
38
 74
0
 42
0.0000001
 43
0.0000001
 44
0.0000000001
 40
0.0
 40
0.0
 40
0.0
 40
0.0
 40
0.0327871153
 40
0.0654459444
 40
0.0979489811
 40
0.1302761487
 40
0.1623996638
 40
0.1942844282
 40
0.225894191
 40
0.2571923756
 40
0.2727178512
 40
0.2881517514
 40
0.3034881162
 40
0.3187230946
 40
0.333854764
 40
0.348889309
 40
0.3638528911
 40
0.3788206059
 40
0.3939140277
 40
0.4091968651
 40
0.416900118
 40
0.4246282048
 40
0.432375659
 40
0.4401356523
 40
0.455680988
 40
0.4712478089
 40
0.4868269354
 40
0.5024100194
 40
0.533575506
 40
0.5647380973
 40
0.6270326447
 40
0.6892858818
 40
0.751497093
 40
0.8136716896
 40
0.8758117494
 40
0.9379205484
 40
1.0
 40
1.0
 40
1.0
 40
1.0
 10
3.0041204746
 20
6.0678788889
 30
0.0
 10
3.0047334096
 20
6.0678456739
 30
0.0
 10
3.0059553959
 20
6.0677464894
 30
0.0
 10
3.0077727276
 20
6.06749407
 30
0.0
 10
3.0095635699
 20
6.0671359669
 30
0.0
 10
3.0113192582
 20
6.0666704102
 30
0.0
 10
3.0130289914
 20
6.0660911937
 30
0.0
 10
3.0146761325
 20
6.0653850594
 30
0.0
 10
3.0162458884
 20
6.0645527352
 30
0.0
 10
3.0174782251
 20
6.0637497243
 30
0.0
 10
3.0184042822
 20
6.0630411652
 30
0.0
 10
3.0190630724
 20
6.0624771511
 30
0.0
 10
3.0196815989
 20
6.0618768726
 30
0.0
 10
3.0202531314
 20
6.0612390565
 30
0.0
 10
3.0207688614
 20
6.0605620802
 30
0.0
 10
3.0212149208
 20
6.059842609
 30
0.0
 10
3.0215684732
 20
6.0590755908
 30
0.0
 10
3.0217930274
 20
6.0582578844
 30
0.0
 10
3.0218534705
 20
6.0574063387
 30
0.0
 10
3.0217966459
 20
6.0566941368
 30
0.0
 10
3.0217152725
 20
6.0561248888
 30
0.0
 10
3.0216422481
 20
6.0556970723
 30
0.0
 10
3.0215608389
 20
6.0552697363
 30
0.0
 10
3.0214461902
 20
6.054699781
 30
0.0
 10
3.0212948964
 20
6.0539879093
 30
0.0
 10
3.0211085483
 20
6.0531338584
 30
0.0
 10
3.0209207474
 20
6.0522794004
 30
0.0
 10
3.0206728458
 20
6.0511391483
 30
0.0
 10
3.0203700948
 20
6.0497122636
 30
0.0
 10
3.0199000471
 20
6.0474269248
 30
0.0
 10
3.0193437389
 20
6.0445652207
 30
0.0
 10
3.0187165848
 20
6.0411253935
 30
0.0
 10
3.0181252791
 20
6.0376815122
 30
0.0
 10
3.0175642218
 20
6.0342347366
 30
0.0
 10
3.0170302335
 20
6.0307856101
 30
0.0
 10
3.0165205071
 20
6.0273346225
 30
0.0
 10
3.0161954911
 20
6.0250324048
 30
0.0
 10
3.0160363831
 20
6.023881107
 30
0.0
  0
SPLINE
  5
486
100
AcDbEntity
  8
0
100
AcDbSpline
 62
6
  6
CONTINUOUS
 70
0
 71
3
 72
19
 73
15
 74
0
 42
0.0000001
 43
0.0000001
 44
0.0000000001
 40
0.0
 40
0.0
 40
0.0
 40
0.0
 40
0.0407094785
 40
0.0847412186
 40
0.1320930719
 40
0.1827270556
 40
0.2365765776
 40
0.2935414659
 40
0.3535011079
 40
0.416322249
 40
0.5499185978
 40
0.6929253964
 40
0.8436834164
 40
1.0
 40
1.0
 40
1.0
 40
1.0
 10
3.0124849859
 20
5.9972813708
 30
0.0
 10
3.0120379701
 20
5.9970577737
 30
0.0
 10
3.01108734
 20
5.9966319901
 30
0.0
 10
3.0095638831
 20
5.9960728956
 30
0.0
 10
3.0078932003
 20
5.9955705457
 30
0.0
 10
3.0060817123
 20
5.9951273115
 30
0.0
 10
3.0041359773
 20
5.9947455168
 30
0.0
 10
3.0020632307
 20
5.9944260162
 30
0.0
 10
2.999870844
 20
5.9941697176
 30
0.0
 10
2.9967335126
 20
5.993908304
 30
0.0
 10
2.9925665161
 20
5.9937551679
 30
0.0
 10
2.9873181125
 20
5.9938338628
 30
0.0
 10
2.9818008155
 20
5.9941729647
 30
0.0
 10
2.9780495436
 20
5.9945619807
 30
0.0
 10
2.9761448597
 20
5.9947976462
 30
0.0
  0
LINE
  5
487
100
AcDbEntity
  8
0
100
AcDbLine
 62
6
  6
CONTINUOUS
 10
3.0160363826
 20
6.0238811073
 11
3.0124849859
 21
5.9972813708
  0
SPLINE
  5
488
100
AcDbEntity
  8
0
100
AcDbSpline
 62
6
  6
CONTINUOUS
 70
0
 71
3
 72
14
 73
10
 74
0
 42
0.0000001
 43
0.0000001
 44
0.0000000001
 40
0.0
 40
0.0
 40
0.0
 40
0.0
 40
0.061811912
 40
0.1243666506
 40
0.2503778788
 40
0.3766312033
 40
0.5025020648
 40
0.7523027607
 40
1.0
 40
1.0
 40
1.0
 40
1.0
 10
2.9948261454
 20
5.9598470808
 30
0.0
 10
2.9943757569
 20
5.9595446071
 30
0.0
 10
2.9934516177
 20
5.9589623757
 30
0.0
 10
2.9915331845
 20
5.9578889126
 30
0.0
 10
2.9890275222
 20
5.956714302
 30
0.0
 10
2.9859115335
 20
5.9555613609
 30
0.0
 10
2.9816702203
 20
5.9543564624
 30
0.0
 10
2.9762557516
 20
5.953443779
 30
0.0
 10
2.9718754428
 20
5.9533202437
 30
0.0
 10
2.9697030541
 20
5.9534057537
 30
0.0
  0
SPLINE
  5
489
100
AcDbEntity
  8
0
100
AcDbSpline
 62
6
  6
CONTINUOUS
 70
0
 71
3
 72
23
 73
19
 74
0
 42
0.0000001
 43
0.0000001
 44
0.0000000001
 40
0.0
 40
0.0
 40
0.0
 40
0.0
 40
0.1243191367
 40
0.1857215517
 40
0.2466123962
 40
0.3070134073
 40
0.3670083267
 40
0.4267991628
 40
0.4867851118
 40
0.5474270042
 40
0.578133528
 40
0.6091197284
 40
0.640387878
 40
0.6719401851
 40
0.7358249026
 40
0.8006699359
 40
0.8663793842
 40
1.0
 40
1.0
 40
1.0
 40
1.0
 10
3.0124849868
 20
5.9972813713
 30
0.0
 10
3.0122397495
 20
5.9955208159
 30
0.0
 10
3.0118350601
 20
5.9928958223
 30
0.0
 10
3.0112211336
 20
5.9894234455
 30
0.0
 10
3.0107259839
 20
5.9868584573
 30
0.0
 10
3.0101897437
 20
5.9843222693
 30
0.0
 10
3.0096013643
 20
5.9818137333
 30
0.0
 10
3.0089411065
 20
5.9793289663
 30
0.0
 10
3.0081680085
 20
5.9768666936
 30
0.0
 10
3.0073925016
 20
5.9748444159
 30
0.0
 10
3.006670391
 20
5.9732507671
 30
0.0
 10
3.0060725698
 20
5.9720631778
 30
0.0
 10
3.0054187969
 20
5.97089152
 30
0.0
 10
3.0044672736
 20
5.9693492785
 30
0.0
 10
3.0031379074
 20
5.9674787433
 30
0.0
 10
3.0013382424
 20
5.9653552288
 30
0.0
 10
2.9986658876
 20
5.9626814817
 30
0.0
 10
2.9964121964
 20
5.9609122753
 30
0.0
 10
2.9948261454
 20
5.9598470808
 30
0.0
  0
SPLINE
  5
48A
100
AcDbEntity
  8
0
100
AcDbSpline
 62
6
  6
CONTINUOUS
 70
0
 71
3
 72
43
 73
39
 74
0
 42
0.0000001
 43
0.0000001
 44
0.0000000001
 40
0.0
 40
0.0
 40
0.0
 40
0.0
 40
0.0678539474
 40
0.1356548657
 40
0.2033948149
 40
0.271063145
 40
0.3386452997
 40
0.372397493
 40
0.4061200953
 40
0.4398086354
 40
0.4734596111
 40
0.5070724213
 40
0.5238658678
 40
0.540654761
 40
0.5574492053
 40
0.5742684625
 40
0.5911500101
 40
0.5996403105
 40
0.6081771757
 40
0.6167562939
 40
0.625377696
 40
0.6340220222
 40
0.6426516001
 40
0.6597632579
 40
0.6766024353
 40
0.6931312984
 40
0.7093462922
 40
0.7408323539
 40
0.7711020214
 40
0.8001911497
 40
0.8281459279
 40
0.8550380156
 40
0.8809711987
 40
0.9060548533
 40
0.9303851492
 40
0.9540742473
 40
0.9772431077
 40
1.0
 40
1.0
 40
1.0
 40
1.0
 10
2.7861559551
 20
6.0547434466
 30
0.0
 10
2.7868131372
 20
6.0559668141
 30
0.0
 10
2.7881231442
 20
6.0584146611
 30
0.0
 10
2.7900738605
 20
6.0620920188
 30
0.0
 10
2.7920083731
 20
6.0657736395
 30
0.0
 10
2.7939240135
 20
6.0694600715
 30
0.0
 10
2.7955036801
 20
6.0725371401
 30
0.0
 10
2.7967543715
 20
6.0750021009
 30
0.0
 10
2.7976857974
 20
6.0768511883
 30
0.0
 10
2.7986095365
 20
6.0787018141
 30
0.0
 10
2.7995256175
 20
6.0805537352
 30
0.0
 10
2.8002836277
 20
6.0820980667
 30
0.0
 10
2.8008877231
 20
6.0833335101
 30
0.0
 10
2.8013407507
 20
6.0842596655
 30
0.0
 10
2.8017966438
 20
6.0851850165
 30
0.0
 10
2.8022609987
 20
6.0861082577
 30
0.0
 10
2.8026613545
 20
6.0868734834
 30
0.0
 10
2.8030020675
 20
6.0874781492
 30
0.0
 10
2.8032719535
 20
6.0879274758
 30
0.0
 10
2.8035600932
 20
6.0883686288
 30
0.0
 10
2.8038707625
 20
6.0887970101
 30
0.0
 10
2.8042033689
 20
6.0892099071
 30
0.0
 10
2.8046713021
 20
6.089735897
 30
0.0
 10
2.8052964919
 20
6.0903446081
 30
0.0
 10
2.8060850023
 20
6.0910130058
 30
0.0
 10
2.8068945719
 20
6.0916256156
 30
0.0
 10
2.807979026
 20
6.0923692154
 30
0.0
 10
2.8093512905
 20
6.0931873316
 30
0.0
 10
2.811016685
 20
6.0940175267
 30
0.0
 10
2.8126718553
 20
6.0946954641
 30
0.0
 10
2.8143074074
 20
6.0952261866
 30
0.0
 10
2.8159163024
 20
6.0956138557
 30
0.0
 10
2.8174922511
 20
6.0958662712
 30
0.0
 10
2.8190304779
 20
6.0959947468
 30
0.0
 10
2.8205281961
 20
6.0960013757
 30
0.0
 10
2.8219825404
 20
6.0958902284
 30
0.0
 10
2.8233910149
 20
6.0956659417
 30
0.0
 10
2.8243059494
 20
6.0954461665
 30
0.0
 10
2.824754531
 20
6.0953208895
 30
0.0
  0
SPLINE
  5
48B
100
AcDbEntity
  8
0
100
AcDbSpline
 62
6
  6
CONTINUOUS
 70
0
 71
3
 72
15
 73
11
 74
0
 42
0.0000001
 43
0.0000001
 44
0.0000000001
 40
0.0
 40
0.0
 40
0.0
 40
0.0
 40
0.1380053965
 40
0.2747786338
 40
0.4088812327
 40
0.5390427657
 40
0.6642514766
 40
0.7835206191
 40
0.895798218
 40
1.0
 40
1.0
 40
1.0
 40
1.0
 10
2.7861559496
 20
6.0547434462
 30
0.0
 10
2.7881565167
 20
6.0548987219
 30
0.0
 10
2.7921364978
 20
6.0552521043
 30
0.0
 10
2.7980456647
 20
6.0559089718
 30
0.0
 10
2.803825287
 20
6.0566857368
 30
0.0
 10
2.809418379
 20
6.0575758587
 30
0.0
 10
2.8147747266
 20
6.0585702396
 30
0.0
 10
2.8198467575
 20
6.059660904
 30
0.0
 10
2.8245858024
 20
6.0608359784
 30
0.0
 10
2.8276130372
 20
6.0617015231
 30
0.0
 10
2.829060231
 20
6.062149972
 30
0.0
  0
SPLINE
  5
48C
100
AcDbEntity
  8
0
100
AcDbSpline
 62
6
  6
CONTINUOUS
 70
0
 71
3
 72
9
 73
5
 74
0
 42
0.0000001
 43
0.0000001
 44
0.0000000001
 40
0.0
 40
0.0
 40
0.0
 40
0.0
 40
0.4992430409
 40
1.0
 40
1.0
 40
1.0
 40
1.0
 10
2.7736401345
 20
6.033332935
 30
0.0
 10
2.7757918985
 20
6.0368550083
 30
0.0
 10
2.7800444637
 20
6.0439451379
 30
0.0
 10
2.7841511863
 20
6.0511213632
 30
0.0
 10
2.7861559496
 20
6.0547434462
 30
0.0
  0
SPLINE
  5
48D
100
AcDbEntity
  8
0
100
AcDbSpline
 62
6
  6
CONTINUOUS
 70
0
 71
3
 72
15
 73
11
 74
0
 42
0.0000001
 43
0.0000001
 44
0.0000000001
 40
0.0
 40
0.0
 40
0.0
 40
0.0
 40
0.139478125
 40
0.2777896007
 40
0.4132288861
 40
0.5443660158
 40
0.669862256
 40
0.7884552196
 40
0.8989113884
 40
1.0
 40
1.0
 40
1.0
 40
1.0
 10
2.7736401363
 20
6.0333329343
 30
0.0
 10
2.7756828035
 20
6.0324597251
 30
0.0
 10
2.7797707849
 20
6.0307663688
 30
0.0
 10
2.7859068399
 20
6.0283846328
 30
0.0
 10
2.791971974
 20
6.0261919811
 30
0.0
 10
2.7978953536
 20
6.0242129077
 30
0.0
 10
2.8036123996
 20
6.0224693186
 30
0.0
 10
2.8090601757
 20
6.0209794978
 30
0.0
 10
2.8141762801
 20
6.0197613467
 30
0.0
 10
2.8174826942
 20
6.0191070245
 30
0.0
 10
2.819069352
 20
6.0188335766
 30
0.0
  0
SPLINE
  5
48E
100
AcDbEntity
  8
0
100
AcDbSpline
 62
6
  6
CONTINUOUS
 70
0
 71
3
 72
21
 73
17
 74
0
 42
0.0000001
 43
0.0000001
 44
0.0000000001
 40
0.0
 40
0.0
 40
0.0
 40
0.0
 40
0.0994491743
 40
0.1520584322
 40
0.2066778784
 40
0.263335903
 40
0.3220242732
 40
0.3827026761
 40
0.4453039234
 40
0.5758552633
 40
0.6435860538
 40
0.7127476153
 40
0.783165507
 40
0.8546424523
 40
0.9269749596
 40
1.0
 40
1.0
 40
1.0
 40
1.0
 10
2.7616776854
 20
5.9959691138
 30
0.0
 10
2.7614343887
 20
5.9972763952
 30
0.0
 10
2.7612430779
 20
5.9993120238
 30
0.0
 10
2.7612818672
 20
6.002076208
 30
0.0
 10
2.7614587315
 20
6.0042621377
 30
0.0
 10
2.7617798471
 20
6.006513161
 30
0.0
 10
2.7622417603
 20
6.0088221576
 30
0.0
 10
2.7628409182
 20
6.0111813591
 30
0.0
 10
2.7638316346
 20
6.0144285385
 30
0.0
 10
2.7650728374
 20
6.0176937423
 30
0.0
 10
2.7665370226
 20
6.0209568367
 30
0.0
 10
2.7677688455
 20
6.0234408473
 30
0.0
 10
2.7691155313
 20
6.025921484
 30
0.0
 10
2.7705648752
 20
6.0283926131
 30
0.0
 10
2.7720848236
 20
6.0308616285
 30
0.0
 10
2.7731176304
 20
6.0325080887
 30
0.0
 10
2.7736401363
 20
6.0333329343
 30
0.0
  0
SPLINE
  5
48F
100
AcDbEntity
  8
0
100
AcDbSpline
 62
6
  6
CONTINUOUS
 70
0
 71
3
 72
14
 73
10
 74
0
 42
0.0000001
 43
0.0000001
 44
0.0000000001
 40
0.0
 40
0.0
 40
0.0
 40
0.0
 40
0.2557251697
 40
0.3826250617
 40
0.5086137611
 40
0.6334870595
 40
0.756994573
 40
0.879063625
 40
1.0
 40
1.0
 40
1.0
 40
1.0
 10
2.7752181487
 20
5.9832023739
 30
0.0
 10
2.7736396949
 20
5.9837080502
 30
0.0
 10
2.771338855
 20
5.9846876972
 30
0.0
 10
2.7685337438
 20
5.9864279485
 30
0.0
 10
2.7666019989
 20
5.9879415218
 30
0.0
 10
2.7648804385
 20
5.9896604721
 30
0.0
 10
2.7634208584
 20
5.9915779735
 30
0.0
 10
2.7622928065
 20
5.9936807796
 30
0.0
 10
2.7618211429
 20
5.9951985075
 30
0.0
 10
2.7616776854
 20
5.9959691138
 30
0.0
  0
SPLINE
  5
490
100
AcDbEntity
  8
0
100
AcDbSpline
 62
6
  6
CONTINUOUS
 70
0
 71
3
 72
9
 73
5
 74
0
 42
0.0000001
 43
0.0000001
 44
0.0000000001
 40
0.0
 40
0.0
 40
0.0
 40
0.0
 40
0.4984512017
 40
1.0
 40
1.0
 40
1.0
 40
1.0
 10
2.7716747876
 20
6.1079690652
 30
0.0
 10
2.7712487067
 20
6.1073333838
 30
0.0
 10
2.7705345495
 20
6.1059584005
 30
0.0
 10
2.770136287
 20
6.1044615365
 30
0.0
 10
2.7700197274
 20
6.1037003854
 30
0.0
  0
SPLINE
  5
491
100
AcDbEntity
  8
0
100
AcDbSpline
 62
6
  6
CONTINUOUS
 70
0
 71
3
 72
12
 73
8
 74
0
 42
0.0000001
 43
0.0000001
 44
0.0000000001
 40
0.0
 40
0.0
 40
0.0
 40
0.0
 40
0.3065573237
 40
0.5688379809
 40
0.7948195067
 40
0.8988415774
 40
1.0
 40
1.0
 40
1.0
 40
1.0
 10
2.7562782153
 20
6.0662223763
 30
0.0
 10
2.756124982
 20
6.0662130142
 30
0.0
 10
2.7558409567
 20
6.0661786004
 30
0.0
 10
2.7554575168
 20
6.0660633288
 30
0.0
 10
2.7551980087
 20
6.0659106879
 30
0.0
 10
2.7550436171
 20
6.0657584032
 30
0.0
 10
2.754983629
 20
6.0656742083
 30
0.0
 10
2.754958015
 20
6.0656305023
 30
0.0
  0
SPLINE
  5
492
100
AcDbEntity
  8
0
100
AcDbSpline
 62
6
  6
CONTINUOUS
 70
0
 71
3
 72
13
 73
9
 74
0
 42
0.0000001
 43
0.0000001
 44
0.0000000001
 40
0.0
 40
0.0
 40
0.0
 40
0.0
 40
0.3220456676
 40
0.5886123193
 40
0.703701878
 40
0.8087852064
 40
0.9064253998
 40
1.0
 40
1.0
 40
1.0
 40
1.0
 10
2.7414807489
 20
6.0416342771
 30
0.0
 10
2.7413372683
 20
6.0416415368
 30
0.0
 10
2.7410739405
 20
6.0416408298
 30
0.0
 10
2.7407618576
 20
6.0415882721
 30
0.0
 10
2.7405580089
 20
6.041511545
 30
0.0
 10
2.7404338997
 20
6.0414416286
 30
0.0
 10
2.740331806
 20
6.0413563973
 30
0.0
 10
2.7402787222
 20
6.0412886278
 30
0.0
 10
2.7402567389
 20
6.0412531419
 30
0.0
  0
SPLINE
  5
493
100
AcDbEntity
  8
0
100
AcDbSpline
 62
6
  6
CONTINUOUS
 70
0
 71
3
 72
11
 73
7
 74
0
 42
0.0000001
 43
0.0000001
 44
0.0000000001
 40
0.0
 40
0.0
 40
0.0
 40
0.0
 40
0.274022659
 40
0.5286846538
 40
0.7684897461
 40
1.0
 40
1.0
 40
1.0
 40
1.0
 10
2.7086419307
 20
6.0005526272
 30
0.0
 10
2.7086671954
 20
6.0007563467
 30
0.0
 10
2.7087428937
 20
6.0011469067
 30
0.0
 10
2.7089443129
 20
6.0016893504
 30
0.0
 10
2.7092281065
 20
6.0021574609
 30
0.0
 10
2.7094732313
 20
6.0024161251
 30
0.0
 10
2.7096055997
 20
6.0025281853
 30
0.0
  0
SPLINE
  5
494
100
AcDbEntity
  8
0
100
AcDbSpline
 62
6
  6
CONTINUOUS
 70
0
 71
3
 72
16
 73
12
 74
0
 42
0.0000001
 43
0.0000001
 44
0.0000000001
 40
0.0
 40
0.0
 40
0.0
 40
0.0
 40
0.128218454
 40
0.2561398359
 40
0.3829321572
 40
0.5082189761
 40
0.6322650419
 40
0.6939912947
 40
0.7555654613
 40
0.8781742091
 40
1.0
 40
1.0
 40
1.0
 40
1.0
 10
2.6920479423
 20
5.9861714207
 30
0.0
 10
2.6921061557
 20
5.9866812872
 30
0.0
 10
2.6923001574
 20
5.9876925388
 30
0.0
 10
2.692809185
 20
5.9891438121
 30
0.0
 10
2.693525399
 20
5.9904925894
 30
0.0
 10
2.6944360175
 20
5.9916990896
 30
0.0
 10
2.6953379184
 20
5.9925657191
 30
0.0
 10
2.696130837
 20
5.9931600874
 30
0.0
 10
2.6969654502
 20
5.9936836421
 30
0.0
 10
2.6980800881
 20
5.9942046197
 30
0.0
 10
2.6990267274
 20
5.9944710739
 30
0.0
 10
2.6995054796
 20
5.9945635043
 30
0.0
  0
SPLINE
  5
495
100
AcDbEntity
  8
0
100
AcDbSpline
 62
6
  6
CONTINUOUS
 70
0
 71
3
 72
27
 73
23
 74
0
 42
0.0000001
 43
0.0000001
 44
0.0000000001
 40
0.0
 40
0.0
 40
0.0
 40
0.0
 40
0.0393903993
 40
0.0580244511
 40
0.0760387229
 40
0.1105832356
 40
0.1440750213
 40
0.1778804318
 40
0.213746459
 40
0.2533670358
 40
0.2982114449
 40
0.3496271274
 40
0.4092097683
 40
0.4789899246
 40
0.5619526757
 40
0.6097910285
 40
0.6618538609
 40
0.7167112804
 40
0.7728545635
 40
0.8294686668
 40
0.8862555275
 40
1.0
 40
1.0
 40
1.0
 40
1.0
 10
2.7700203431
 20
6.1037012429
 30
0.0
 10
2.7702230729
 20
6.1037258431
 30
0.0
 10
2.770524626
 20
6.1037442147
 30
0.0
 10
2.7709186205
 20
6.103722407
 30
0.0
 10
2.7712845041
 20
6.1036712426
 30
0.0
 10
2.7717170062
 20
6.1035503691
 30
0.0
 10
2.7721892311
 20
6.1033052889
 30
0.0
 10
2.7726002418
 20
6.1029552313
 30
0.0
 10
2.7729341005
 20
6.102491079
 30
0.0
 10
2.7731827564
 20
6.101914448
 30
0.0
 10
2.7733395194
 20
6.1012242761
 30
0.0
 10
2.7733957938
 20
6.1004155631
 30
0.0
 10
2.7733349111
 20
6.0994777936
 30
0.0
 10
2.7731312043
 20
6.0983935654
 30
0.0
 10
2.7728230755
 20
6.0973977954
 30
0.0
 10
2.772468075
 20
6.0965182958
 30
0.0
 10
2.7721285627
 20
6.0957909955
 30
0.0
 10
2.7717439035
 20
6.0950380944
 30
0.0
 10
2.7713343285
 20
6.0942716604
 30
0.0
 10
2.7709147826
 20
6.0934992573
 30
0.0
 10
2.7703505862
 20
6.0924655876
 30
0.0
 10
2.7699269704
 20
6.0916895736
 30
0.0
 10
2.7696451855
 20
6.0911715543
 30
0.0
  0
SPLINE
  5
496
100
AcDbEntity
  8
0
100
AcDbSpline
 62
6
  6
CONTINUOUS
 70
0
 71
3
 72
17
 73
13
 74
0
 42
0.0000001
 43
0.0000001
 44
0.0000000001
 40
0.0
 40
0.0
 40
0.0
 40
0.0
 40
0.126585692
 40
0.2535997217
 40
0.317010254
 40
0.3801878776
 40
0.5057185892
 40
0.6304279303
 40
0.6925973097
 40
0.7546322118
 40
0.8779653002
 40
1.0
 40
1.0
 40
1.0
 40
1.0
 10
3.3865446565
 20
5.8794947651
 30
0.0
 10
3.3866278538
 20
5.8800384608
 30
0.0
 10
3.3867055854
 20
5.881143038
 30
0.0
 10
3.3865860906
 20
5.8825211412
 30
0.0
 10
3.3863612333
 20
5.8836009789
 30
0.0
 10
3.386050951
 20
5.88465271
 30
0.0
 10
3.3855062707
 20
5.8859078634
 30
0.0
 10
3.3847665002
 20
5.8870539085
 30
0.0
 10
3.3840694965
 20
5.8878824164
 30
0.0
 10
3.3833090853
 20
5.8886446888
 30
0.0
 10
3.3822505729
 20
5.8894696728
 30
0.0
 10
3.3813066388
 20
5.8899782421
 30
0.0
 10
3.3808194397
 20
5.8901875313
 30
0.0
  0
SPLINE
  5
497
100
AcDbEntity
  8
0
100
AcDbSpline
 62
6
  6
CONTINUOUS
 70
0
 71
3
 72
16
 73
12
 74
0
 42
0.0000001
 43
0.0000001
 44
0.0000000001
 40
0.0
 40
0.0
 40
0.0
 40
0.0
 40
0.1274275681
 40
0.2547656282
 40
0.3812967356
 40
0.5065897917
 40
0.568865191
 40
0.630911894
 40
0.754394723
 40
0.8774534359
 40
1.0
 40
1.0
 40
1.0
 40
1.0
 10
3.3844224906
 20
5.8802232261
 30
0.0
 10
3.3845114394
 20
5.8806996446
 30
0.0
 10
3.384620464
 20
5.8816663539
 30
0.0
 10
3.3845792068
 20
5.8831205116
 30
0.0
 10
3.3843339029
 20
5.8845467255
 30
0.0
 10
3.383957041
 20
5.8856854783
 30
0.0
 10
3.3835593212
 20
5.8865483771
 30
0.0
 10
3.383101424
 20
5.8873730034
 30
0.0
 10
3.3824160731
 20
5.8883320869
 30
0.0
 10
3.3814288483
 20
5.8893373758
 30
0.0
 10
3.3806774162
 20
5.8898994777
 30
0.0
 10
3.3802838744
 20
5.8901492009
 30
0.0
  0
SPLINE
  5
498
100
AcDbEntity
  8
0
100
AcDbSpline
 62
6
  6
CONTINUOUS
 70
0
 71
3
 72
11
 73
7
 74
0
 42
0.0000001
 43
0.0000001
 44
0.0000000001
 40
0.0
 40
0.0
 40
0.0
 40
0.0
 40
0.2670242359
 40
0.5202971125
 40
0.7631046929
 40
1.0
 40
1.0
 40
1.0
 40
1.0
 10
3.3725575997
 20
5.8989592573
 30
0.0
 10
3.3725762138
 20
5.8991863316
 30
0.0
 10
3.3725824115
 20
5.8996320944
 30
0.0
 10
3.3724902863
 20
5.9002795092
 30
0.0
 10
3.3722967275
 20
5.9008776334
 30
0.0
 10
3.3720988303
 20
5.9012392322
 30
0.0
 10
3.371985341
 20
5.9014064931
 30
0.0
  0
SPLINE
  5
499
100
AcDbEntity
  8
0
100
AcDbSpline
 62
6
  6
CONTINUOUS
 70
0
 71
3
 72
13
 73
9
 74
0
 42
0.0000001
 43
0.0000001
 44
0.0000000001
 40
0.0
 40
0.0
 40
0.0
 40
0.0
 40
0.3229884597
 40
0.5898364218
 40
0.7048006347
 40
0.8095964095
 40
0.9068332781
 40
1.0
 40
1.0
 40
1.0
 40
1.0
 10
3.3511868841
 20
5.9474284439
 30
0.0
 10
3.3513244982
 20
5.9473935136
 30
0.0
 10
3.3515727834
 20
5.9473163469
 30
0.0
 10
3.3518520052
 20
5.947176379
 30
0.0
 10
3.3520217327
 20
5.9470451015
 30
0.0
 10
3.3521180398
 20
5.9469434631
 30
0.0
 10
3.3521888917
 20
5.9468337756
 30
0.0
 10
3.3522187718
 20
5.9467547651
 30
0.0
 10
3.3522289612
 20
5.9467150991
 30
0.0
  0
SPLINE
  5
49A
100
AcDbEntity
  8
0
100
AcDbSpline
 62
6
  6
CONTINUOUS
 70
0
 71
3
 72
12
 73
8
 74
0
 42
0.0000001
 43
0.0000001
 44
0.0000000001
 40
0.0
 40
0.0
 40
0.0
 40
0.0
 40
0.3092027181
 40
0.572187616
 40
0.797040707
 40
0.9000241297
 40
1.0
 40
1.0
 40
1.0
 40
1.0
 10
3.3452632353
 20
5.971494424
 30
0.0
 10
3.3454047882
 20
5.9714434706
 30
0.0
 10
3.3456618627
 20
5.971333564
 30
0.0
 10
3.3459893836
 20
5.9711216769
 30
0.0
 10
3.346189386
 20
5.9709089806
 30
0.0
 10
3.3462899118
 20
5.9707256151
 30
0.0
 10
3.3463214896
 20
5.9706313737
 30
0.0
 10
3.3463326501
 20
5.9705840275
 30
0.0
  0
LINE
  5
49B
100
AcDbEntity
  8
0
100
AcDbLine
 62
6
  6
CONTINUOUS
 10
3.3808195119
 20
5.8901874226
 11
3.379793288
 21
5.8904598756
  0
SPLINE
  5
49C
100
AcDbEntity
  8
0
100
AcDbSpline
 62
6
  6
CONTINUOUS
 70
0
 71
3
 72
9
 73
5
 74
0
 42
0.0000001
 43
0.0000001
 44
0.0000000001
 40
0.0
 40
0.0
 40
0.0
 40
0.0
 40
0.4946009933
 40
1.0
 40
1.0
 40
1.0
 40
1.0
 10
3.2899542324
 20
6.0286614733
 30
0.0
 10
3.2901147975
 20
6.0279266357
 30
0.0
 10
3.2902938588
 20
6.0264063052
 30
0.0
 10
3.2901967723
 20
6.0248796552
 30
0.0
 10
3.290080779
 20
6.0241198617
 30
0.0
  0
SPLINE
  5
49D
100
AcDbEntity
  8
0
100
AcDbSpline
 62
6
  6
CONTINUOUS
 70
0
 71
3
 72
13
 73
9
 74
0
 42
0.0000001
 43
0.0000001
 44
0.0000000001
 40
0.0
 40
0.0
 40
0.0
 40
0.0
 40
0.0881877554
 40
0.1898156044
 40
0.3035192842
 40
0.4278804361
 40
0.7026637216
 40
1.0
 40
1.0
 40
1.0
 40
1.0
 10
3.317733377
 20
5.9803076636
 30
0.0
 10
3.3175131679
 20
5.9802986002
 30
0.0
 10
3.3170398437
 20
5.9802629438
 30
0.0
 10
3.3162866144
 20
5.9801719486
 30
0.0
 10
3.315447814
 20
5.9800400456
 30
0.0
 10
3.3141880073
 20
5.9798034218
 30
0.0
 10
3.3124902961
 20
5.9794164412
 30
0.0
 10
3.3111094405
 20
5.9790440937
 30
0.0
 10
3.310395551
 20
5.9788378243
 30
0.0
  0
SPLINE
  5
49E
100
AcDbEntity
  8
0
100
AcDbSpline
 62
6
  6
CONTINUOUS
 70
0
 71
3
 72
13
 73
9
 74
0
 42
0.0000001
 43
0.0000001
 44
0.0000000001
 40
0.0
 40
0.0
 40
0.0
 40
0.0
 40
0.0874436136
 40
0.1896818193
 40
0.3048673933
 40
0.4310246622
 40
0.7078053467
 40
1.0
 40
1.0
 40
1.0
 40
1.0
 10
3.3259137159
 20
5.9522034661
 30
0.0
 10
3.3256420167
 20
5.9522215862
 30
0.0
 10
3.3250506289
 20
5.9522304557
 30
0.0
 10
3.3241020401
 20
5.9521832702
 30
0.0
 10
3.3230370972
 20
5.9520759447
 30
0.0
 10
3.3214396135
 20
5.9518469211
 30
0.0
 10
3.3193150667
 20
5.9514238204
 30
0.0
 10
3.3175988878
 20
5.9509792275
 30
0.0
 10
3.3167248919
 20
5.9507261282
 30
0.0
  0
SPLINE
  5
49F
100
AcDbEntity
  8
0
100
AcDbSpline
 62
6
  6
CONTINUOUS
 70
0
 71
3
 72
13
 73
9
 74
0
 42
0.0000001
 43
0.0000001
 44
0.0000000001
 40
0.0
 40
0.0
 40
0.0
 40
0.0
 40
0.1181953425
 40
0.239692837
 40
0.4894562052
 40
0.7446990891
 40
0.8728470161
 40
1.0
 40
1.0
 40
1.0
 40
1.0
 10
3.3298356536
 20
5.9054966337
 30
0.0
 10
3.3296201845
 20
5.9057574387
 30
0.0
 10
3.3291562937
 20
5.906264612
 30
0.0
 10
3.3281186287
 20
5.9072081029
 30
0.0
 10
3.3266351666
 20
5.9082323852
 30
0.0
 10
3.3249864212
 20
5.9090049362
 30
0.0
 10
3.3235967322
 20
5.9094607054
 30
0.0
 10
3.3228852365
 20
5.9096316765
 30
0.0
 10
3.3225280911
 20
5.9097016598
 30
0.0
  0
SPLINE
  5
4A0
100
AcDbEntity
  8
0
100
AcDbSpline
 62
6
  6
CONTINUOUS
 70
0
 71
3
 72
18
 73
14
 74
0
 42
0.0000001
 43
0.0000001
 44
0.0000000001
 40
0.0
 40
0.0
 40
0.0
 40
0.0
 40
0.1343756692
 40
0.2691768779
 40
0.336049187
 40
0.402190792
 40
0.4674353568
 40
0.5316725205
 40
0.6566543391
 40
0.7766189288
 40
0.8346332172
 40
0.8912326828
 40
1.0
 40
1.0
 40
1.0
 40
1.0
 10
3.3125208583
 20
5.8912257225
 30
0.0
 10
3.3125621579
 20
5.8917691916
 30
0.0
 10
3.3125753014
 20
5.8928641193
 30
0.0
 10
3.3124267874
 20
5.8942225516
 30
0.0
 10
3.3122089188
 20
5.8952874032
 30
0.0
 10
3.3119970891
 20
5.8960637538
 30
0.0
 10
3.311738018
 20
5.8968143832
 30
0.0
 10
3.3113363125
 20
5.8977657851
 30
0.0
 10
3.3107309554
 20
5.8988692588
 30
0.0
 10
3.3099806913
 20
5.8998494053
 30
0.0
 10
3.3093127594
 20
5.900528549
 30
0.0
 10
3.3086248008
 20
5.9011191125
 30
0.0
 10
3.3080586022
 20
5.9014883898
 30
0.0
 10
3.3076662446
 20
5.9016900922
 30
0.0
  0
SPLINE
  5
4A1
100
AcDbEntity
  8
0
100
AcDbSpline
 62
6
  6
CONTINUOUS
 70
0
 71
3
 72
18
 73
14
 74
0
 42
0.0000001
 43
0.0000001
 44
0.0000000001
 40
0.0
 40
0.0
 40
0.0
 40
0.0
 40
0.164567976
 40
0.3257944634
 40
0.4786411949
 40
0.6188441172
 40
0.7433333407
 40
0.7988167522
 40
0.8493977678
 40
0.8948913855
 40
0.9351648325
 40
0.9701676787
 40
1.0
 40
1.0
 40
1.0
 40
1.0
 10
3.1225646946
 20
5.9198893756
 30
0.0
 10
3.1226476393
 20
5.9204314168
 30
0.0
 10
3.1227905105
 20
5.9215078752
 30
0.0
 10
3.1229386325
 20
5.9230962418
 30
0.0
 10
3.1230152582
 20
5.9246085373
 30
0.0
 10
3.123016556
 20
5.9260003861
 30
0.0
 10
3.1229547846
 20
5.9270664197
 30
0.0
 10
3.12286312
 20
5.9278293866
 30
0.0
 10
3.1227787751
 20
5.9283275314
 30
0.0
 10
3.1226774286
 20
5.9287706972
 30
0.0
 10
3.1225600345
 20
5.9291560885
 30
0.0
 10
3.1224276546
 20
5.9294808907
 30
0.0
 10
3.1223215827
 20
5.929670245
 30
0.0
 10
3.1222649383
 20
5.9297519297
 30
0.0
  0
SPLINE
  5
4A2
100
AcDbEntity
  8
0
100
AcDbSpline
 62
6
  6
CONTINUOUS
 70
0
 71
3
 72
18
 73
14
 74
0
 42
0.0000001
 43
0.0000001
 44
0.0000000001
 40
0.0
 40
0.0
 40
0.0
 40
0.0
 40
0.1677297443
 40
0.3313806233
 40
0.4857949236
 40
0.6266149472
 40
0.7507193417
 40
0.8056168764
 40
0.8553445194
 40
0.8997209768
 40
0.9386197876
 40
0.9720028427
 40
1.0
 40
1.0
 40
1.0
 40
1.0
 10
3.1153322886
 20
5.9213998138
 30
0.0
 10
3.1154715903
 20
5.9219286645
 30
0.0
 10
3.1157279519
 20
5.9229785733
 30
0.0
 10
3.116048535
 20
5.9245300848
 30
0.0
 10
3.1162937915
 20
5.9260065458
 30
0.0
 10
3.1164550871
 20
5.9273647712
 30
0.0
 10
3.1165204439
 20
5.928406388
 30
0.0
 10
3.116522843
 20
5.9291523795
 30
0.0
 10
3.1165016139
 20
5.9296379583
 30
0.0
 10
3.1164582749
 20
5.9300697165
 30
0.0
 10
3.116393409
 20
5.9304449762
 30
0.0
 10
3.1163077213
 20
5.9307610249
 30
0.0
 10
3.1162303156
 20
5.9309467569
 30
0.0
 10
3.1161865363
 20
5.9310268598
 30
0.0
  0
SPLINE
  5
4A3
100
AcDbEntity
  8
0
100
AcDbSpline
 62
6
  6
CONTINUOUS
 70
0
 71
3
 72
17
 73
13
 74
0
 42
0.0000001
 43
0.0000001
 44
0.0000000001
 40
0.0
 40
0.0
 40
0.0
 40
0.0
 40
0.1778271443
 40
0.3443298499
 40
0.4969177566
 40
0.6335060954
 40
0.7527930655
 40
0.8537474854
 40
0.8972034148
 40
0.9359818786
 40
0.9701766625
 40
1.0
 40
1.0
 40
1.0
 40
1.0
 10
3.0863080482
 20
5.9427615939
 30
0.0
 10
3.086581112
 20
5.9429731488
 30
0.0
 10
3.0871156782
 20
5.9433753494
 30
0.0
 10
3.0879052669
 20
5.9439308839
 30
0.0
 10
3.0886478474
 20
5.9444130545
 30
0.0
 10
3.0893326522
 20
5.9448145
 30
0.0
 10
3.0899501104
 20
5.9451303253
 30
0.0
 10
3.0904235549
 20
5.9453281968
 30
0.0
 10
3.0907628819
 20
5.9454360768
 30
0.0
 10
3.0909829396
 20
5.9454893244
 30
0.0
 10
3.0911806992
 20
5.9455189474
 30
0.0
 10
3.0913054536
 20
5.945523041
 30
0.0
 10
3.091363312
 20
5.9455201337
 30
0.0
  0
SPLINE
  5
4A4
100
AcDbEntity
  8
0
100
AcDbSpline
 62
6
  6
CONTINUOUS
 70
0
 71
3
 72
14
 73
10
 74
0
 42
0.0000001
 43
0.0000001
 44
0.0000000001
 40
0.0
 40
0.0
 40
0.0
 40
0.0
 40
0.1448143341
 40
0.2874159321
 40
0.5574141266
 40
0.6818698898
 40
0.7977224593
 40
0.9040122258
 40
1.0
 40
1.0
 40
1.0
 40
1.0
 10
3.0713540053
 20
5.9902488916
 30
0.0
 10
3.0717610241
 20
5.9901681373
 30
0.0
 10
3.0725645374
 20
5.9899847814
 30
0.0
 10
3.0740993024
 20
5.9895410069
 30
0.0
 10
3.0755394989
 20
5.988983547
 30
0.0
 10
3.0768379417
 20
5.9883083818
 30
0.0
 10
3.0776791766
 20
5.9877778676
 30
0.0
 10
3.0784012415
 20
5.987219103
 30
0.0
 10
3.0788175264
 20
5.9868129701
 30
0.0
 10
3.0789991703
 20
5.9866064395
 30
0.0
  0
SPLINE
  5
4A5
100
AcDbEntity
  8
0
100
AcDbSpline
 62
6
  6
CONTINUOUS
 70
0
 71
3
 72
12
 73
8
 74
0
 42
0.0000001
 43
0.0000001
 44
0.0000000001
 40
0.0
 40
0.0
 40
0.0
 40
0.0
 40
0.2767174917
 40
0.5415690772
 40
0.7850526043
 40
0.8965512419
 40
1.0
 40
1.0
 40
1.0
 40
1.0
 10
3.0758400301
 20
6.0127219678
 30
0.0
 10
3.0765340418
 20
6.0125493853
 30
0.0
 10
3.0778770319
 20
6.0121456027
 30
0.0
 10
3.0797543435
 20
6.0113672782
 30
0.0
 10
3.0811583494
 20
6.0105854413
 30
0.0
 10
3.0821250581
 20
6.009898837
 30
0.0
 10
3.082550972
 20
6.0095408045
 30
0.0
 10
3.0827466952
 20
6.0093586782
 30
0.0
  0
SPLINE
  5
4A6
100
AcDbEntity
  8
0
100
AcDbSpline
 62
6
  6
CONTINUOUS
 70
0
 71
3
 72
15
 73
11
 74
0
 42
0.0000001
 43
0.0000001
 44
0.0000000001
 40
0.0
 40
0.0
 40
0.0
 40
0.0
 40
0.139021909
 40
0.2768229125
 40
0.4118086757
 40
0.5426392814
 40
0.6680574547
 40
0.7868722408
 40
0.8979133339
 40
1.0
 40
1.0
 40
1.0
 40
1.0
 10
3.310395552
 20
5.9788378246
 30
0.0
 10
3.3087870702
 20
5.9793915749
 30
0.0
 10
3.3055950791
 20
5.9805260093
 30
0.0
 10
3.3008810457
 20
5.9823074159
 30
0.0
 10
3.296297693
 20
5.9841482417
 30
0.0
 10
3.291894405
 20
5.9860279408
 30
0.0
 10
3.2877160705
 20
5.9879275625
 30
0.0
 10
3.2838051775
 20
5.9898271951
 30
0.0
 10
3.2802038635
 20
5.9917069314
 30
0.0
 10
3.2779326096
 20
5.9929900409
 30
0.0
 10
3.2768581798
 20
5.9936272569
 30
0.0
  0
SPLINE
  5
4A7
100
AcDbEntity
  8
0
100
AcDbSpline
 62
6
  6
CONTINUOUS
 70
0
 71
3
 72
39
 73
35
 74
0
 42
0.0000001
 43
0.0000001
 44
0.0000000001
 40
0.0
 40
0.0
 40
0.0
 40
0.0
 40
0.0223227995
 40
0.0451023252
 40
0.0684655779
 40
0.0925377276
 40
0.1174509944
 40
0.1433657425
 40
0.1704055786
 40
0.1986689867
 40
0.2282439784
 40
0.2592447356
 40
0.2753125327
 40
0.2917650181
 40
0.3085909046
 40
0.3257063584
 40
0.3428856837
 40
0.3599209824
 40
0.3767948315
 40
0.3935766869
 40
0.4103209963
 40
0.4270514225
 40
0.4437805851
 40
0.4605168692
 40
0.4940197271
 40
0.52756242
 40
0.5611448603
 40
0.5947634681
 40
0.6620923536
 40
0.7295251836
 40
0.7970436602
 40
0.8646348597
 40
0.9322893892
 40
1.0
 40
1.0
 40
1.0
 40
1.0
 10
3.2900810378
 20
6.0241207737
 30
0.0
 10
3.2904861973
 20
6.0241199502
 30
0.0
 10
3.2913051794
 20
6.0240828719
 30
0.0
 10
3.292538413
 20
6.0239184166
 30
0.0
 10
3.2937839992
 20
6.0236416971
 30
0.0
 10
3.2950389596
 20
6.0232500762
 30
0.0
 10
3.2962992648
 20
6.0227357379
 30
0.0
 10
3.2975559157
 20
6.0220849672
 30
0.0
 10
3.2988039578
 20
6.0212972822
 30
0.0
 10
3.3000353515
 20
6.0203686871
 30
0.0
 10
3.3012404744
 20
6.0192946271
 30
0.0
 10
3.3021929253
 20
6.0182774945
 30
0.0
 10
3.3029151574
 20
6.0173782174
 30
0.0
 10
3.3034342815
 20
6.0166475891
 30
0.0
 10
3.303909128
 20
6.0158646933
 30
0.0
 10
3.3043143107
 20
6.01502794
 30
0.0
 10
3.3046213573
 20
6.0141462777
 30
0.0
 10
3.3048410884
 20
6.0132445164
 30
0.0
 10
3.3050072513
 20
6.0123393865
 30
0.0
 10
3.3051489664
 20
6.0114356338
 30
0.0
 10
3.3052803709
 20
6.0105329794
 30
0.0
 10
3.305406483
 20
6.0096305423
 30
0.0
 10
3.305530256
 20
6.0087279305
 30
0.0
 10
3.3056960291
 20
6.0075238085
 30
0.0
 10
3.3059070119
 20
6.0060178676
 30
0.0
 10
3.306165586
 20
6.0042098558
 30
0.0
 10
3.3064315919
 20
6.0024007967
 30
0.0
 10
3.3067964681
 20
5.9999864811
 30
0.0
 10
3.3072677751
 20
5.9969669037
 30
0.0
 10
3.3078570027
 20
5.9933430754
 30
0.0
 10
3.3084657742
 20
5.9897176566
 30
0.0
 10
3.3090926745
 20
5.986091247
 30
0.0
 10
3.3097355955
 20
5.9824641046
 30
0.0
 10
3.3101740984
 20
5.9800466595
 30
0.0
 10
3.310395552
 20
5.9788378246
 30
0.0
  0
SPLINE
  5
4A8
100
AcDbEntity
  8
0
100
AcDbSpline
 62
6
  6
CONTINUOUS
 70
0
 71
3
 72
15
 73
11
 74
0
 42
0.0000001
 43
0.0000001
 44
0.0000000001
 40
0.0
 40
0.0
 40
0.0
 40
0.0
 40
0.1388428642
 40
0.2775633553
 40
0.4139748832
 40
0.5462256861
 40
0.6725754646
 40
0.7913828122
 40
0.9010482702
 40
1.0
 40
1.0
 40
1.0
 40
1.0
 10
3.3167248909
 20
5.9507261233
 30
0.0
 10
3.3147536033
 20
5.9504644738
 30
0.0
 10
3.3108064046
 20
5.9499882242
 30
0.0
 10
3.3049045907
 20
5.9494141615
 30
0.0
 10
3.2990848765
 20
5.9489877498
 30
0.0
 10
3.2934333182
 20
5.948714066
 30
0.0
 10
3.2880284626
 20
5.9485972925
 30
0.0
 10
3.2829457885
 20
5.9486379896
 30
0.0
 10
3.2782595153
 20
5.9488364933
 30
0.0
 10
3.2752805457
 20
5.9490835196
 30
0.0
 10
3.2738718659
 20
5.9492390123
 30
0.0
  0
SPLINE
  5
4A9
100
AcDbEntity
  8
0
100
AcDbSpline
 62
6
  6
CONTINUOUS
 70
0
 71
3
 72
11
 73
7
 74
0
 42
0.0000001
 43
0.0000001
 44
0.0000000001
 40
0.0
 40
0.0
 40
0.0
 40
0.0
 40
0.2506507615
 40
0.5009153475
 40
0.750718432
 40
1.0
 40
1.0
 40
1.0
 40
1.0
 10
3.3103955508
 20
5.978837825
 30
0.0
 10
3.3108574181
 20
5.9764747707
 30
0.0
 10
3.3118245884
 20
5.9717608715
 30
0.0
 10
3.3133774688
 20
5.9647184093
 30
0.0
 10
3.3150117518
 20
5.9577079384
 30
0.0
 10
3.3161473389
 20
5.953050046
 30
0.0
 10
3.3167248909
 20
5.9507261233
 30
0.0
  0
SPLINE
  5
4AA
100
AcDbEntity
  8
0
100
AcDbSpline
 62
6
  6
CONTINUOUS
 70
0
 71
3
 72
16
 73
12
 74
0
 42
0.0000001
 43
0.0000001
 44
0.0000000001
 40
0.0
 40
0.0
 40
0.0
 40
0.0
 40
0.0625871438
 40
0.1248011232
 40
0.186840089
 40
0.248878169
 40
0.3731395135
 40
0.4978985548
 40
0.6230623589
 40
0.7485294138
 40
1.0
 40
1.0
 40
1.0
 40
1.0
 10
3.3225280806
 20
5.9097016381
 30
0.0
 10
3.3223918529
 20
5.9093561915
 30
0.0
 10
3.3220720485
 20
5.908685511
 30
0.0
 10
3.3214737231
 20
5.9077495453
 30
0.0
 10
3.3207785117
 20
5.9068876216
 30
0.0
 10
3.3197442271
 20
5.9058355797
 30
0.0
 10
3.3182813233
 20
5.9046958496
 30
0.0
 10
3.3163438067
 20
5.9035989871
 30
0.0
 10
3.314276298
 20
5.9027552087
 30
0.0
 10
3.3114021833
 20
5.9019544777
 30
0.0
 10
3.3091583127
 20
5.9017069526
 30
0.0
 10
3.307666402
 20
5.9016900942
 30
0.0
  0
SPLINE
  5
4AB
100
AcDbEntity
  8
0
100
AcDbSpline
 62
6
  6
CONTINUOUS
 70
0
 71
3
 72
24
 73
20
 74
0
 42
0.0000001
 43
0.0000001
 44
0.0000000001
 40
0.0
 40
0.0
 40
0.0
 40
0.0
 40
0.1378949411
 40
0.2063670146
 40
0.2744809824
 40
0.3421884975
 40
0.4094138783
 40
0.4428111708
 40
0.4760335735
 40
0.5418257122
 40
0.6064568433
 40
0.6382154193
 40
0.6695344568
 40
0.7003642126
 40
0.7306638033
 40
0.7895447435
 40
0.8459862518
 40
0.8998887597
 40
1.0
 40
1.0
 40
1.0
 40
1.0
 10
3.316724893
 20
5.9507261235
 30
0.0
 10
3.3172043419
 20
5.9488480754
 30
0.0
 10
3.317944819
 20
5.9460432506
 30
0.0
 10
3.3189777265
 20
5.9423258878
 30
0.0
 10
3.3197688755
 20
5.9395653949
 30
0.0
 10
3.3205738052
 20
5.9368271694
 30
0.0
 10
3.3212482131
 20
5.9345592333
 30
0.0
 10
3.3217781836
 20
5.9327540577
 30
0.0
 10
3.3222919212
 20
5.930965147
 30
0.0
 10
3.322891111
 20
5.9287440246
 30
0.0
 10
3.3233948077
 20
5.9265194903
 30
0.0
 10
3.3237089237
 20
5.9247517756
 30
0.0
 10
3.3238970625
 20
5.9234450187
 30
0.0
 10
3.3240371686
 20
5.9221528174
 30
0.0
 10
3.324156637
 20
5.9204698379
 30
0.0
 10
3.3241884265
 20
5.9184211811
 30
0.0
 10
3.3240418673
 20
5.9160442014
 30
0.0
 10
3.3236224567
 20
5.9131143827
 30
0.0
 10
3.32304428
 20
5.9110107255
 30
0.0
 10
3.3225280806
 20
5.9097016381
 30
0.0
  0
SPLINE
  5
4AC
100
AcDbEntity
  8
0
100
AcDbSpline
 62
6
  6
CONTINUOUS
 70
0
 71
3
 72
43
 73
39
 74
0
 42
0.0000001
 43
0.0000001
 44
0.0000000001
 40
0.0
 40
0.0
 40
0.0
 40
0.0
 40
0.0619792462
 40
0.1239887698
 40
0.1860305807
 40
0.2481084536
 40
0.2791617006
 40
0.3102251117
 40
0.3413001695
 40
0.3723851001
 40
0.403481657
 40
0.4345878053
 40
0.4656981019
 40
0.4812519768
 40
0.4968005104
 40
0.5123354566
 40
0.5278418432
 40
0.5432929656
 40
0.5509843319
 40
0.5586442293
 40
0.5662561251
 40
0.5738222881
 40
0.5813539467
 40
0.5888576826
 40
0.6038316616
 40
0.6188467009
 40
0.6339349756
 40
0.649108987
 40
0.6797069078
 40
0.7106460136
 40
0.7418995704
 40
0.7734403076
 40
0.8052375285
 40
0.8372651864
 40
0.8694952752
 40
0.9019061181
 40
0.9344793869
 40
1.0
 40
1.0
 40
1.0
 40
1.0
 10
3.0827466963
 20
6.0093586856
 30
0.0
 10
3.082951934
 20
6.0106519732
 30
0.0
 10
3.0833559252
 20
6.0132402313
 30
0.0
 10
3.083939928
 20
6.0171270001
 30
0.0
 10
3.0844996984
 20
6.0210194435
 30
0.0
 10
3.0849429418
 20
6.0242678075
 30
0.0
 10
3.0852814362
 20
6.0268698191
 30
0.0
 10
3.0855266928
 20
6.0288234077
 30
0.0
 10
3.0857618393
 20
6.0307789137
 30
0.0
 10
3.0859869418
 20
6.0327363079
 30
0.0
 10
3.0862000696
 20
6.0346957062
 30
0.0
 10
3.0864005447
 20
6.0366569784
 30
0.0
 10
3.0865574182
 20
6.0382925802
 30
0.0
 10
3.0866778478
 20
6.0396014571
 30
0.0
 10
3.086766927
 20
6.0405827525
 30
0.0
 10
3.0868580295
 20
6.0415628755
 30
0.0
 10
3.0869583473
 20
6.0425399924
 30
0.0
 10
3.0870584436
 20
6.0433506472
 30
0.0
 10
3.0871667348
 20
6.0439924901
 30
0.0
 10
3.0872669634
 20
6.0444673661
 30
0.0
 10
3.0873940855
 20
6.0449332336
 30
0.0
 10
3.0875566268
 20
6.0453852618
 30
0.0
 10
3.0877559869
 20
6.0458198095
 30
0.0
 10
3.0880685274
 20
6.0463722975
 30
0.0
 10
3.0885443112
 20
6.0470095937
 30
0.0
 10
3.0892040145
 20
6.0476986949
 30
0.0
 10
3.0899295326
 20
6.0483240474
 30
0.0
 10
3.0909668151
 20
6.0490856167
 30
0.0
 10
3.0923679411
 20
6.0499090477
 30
0.0
 10
3.0941579747
 20
6.0507158911
 30
0.0
 10
3.096035047
 20
6.0513556944
 30
0.0
 10
3.0979775551
 20
6.0518350465
 30
0.0
 10
3.0999680379
 20
6.0521599762
 30
0.0
 10
3.1019910251
 20
6.0523402153
 30
0.0
 10
3.1040341942
 20
6.0523883939
 30
0.0
 10
3.10608786
 20
6.0523072623
 30
0.0
 10
3.1088327334
 20
6.052033296
 30
0.0
 10
3.1108746375
 20
6.0516503801
 30
0.0
 10
3.1122218676
 20
6.0513322056
 30
0.0
  0
SPLINE
  5
4AD
100
AcDbEntity
  8
0
100
AcDbSpline
 62
6
  6
CONTINUOUS
 70
0
 71
3
 72
13
 73
9
 74
0
 42
0.0000001
 43
0.0000001
 44
0.0000000001
 40
0.0
 40
0.0
 40
0.0
 40
0.0
 40
0.092083283
 40
0.1957775077
 40
0.3100015107
 40
0.4336801838
 40
0.7051293777
 40
1.0
 40
1.0
 40
1.0
 40
1.0
 10
3.0827466934
 20
6.0093586848
 30
0.0
 10
3.0838977358
 20
6.0096775392
 30
0.0
 10
3.0863530153
 20
6.0103264395
 30
0.0
 10
3.0902574083
 20
6.0112881251
 30
0.0
 10
3.0945739505
 20
6.0122882769
 30
0.0
 10
3.1010272849
 20
6.013703996
 30
0.0
 10
3.1097982987
 20
6.0154866525
 30
0.0
 10
3.1170194619
 20
6.0168345896
 30
0.0
 10
3.1207840566
 20
6.0175099538
 30
0.0
  0
LINE
  5
4AE
100
AcDbEntity
  8
0
100
AcDbLine
 62
6
  6
CONTINUOUS
 10
3.0789991699
 20
5.9866064365
 11
3.0827466934
 21
6.0093586848
  0
SPLINE
  5
4AF
100
AcDbEntity
  8
0
100
AcDbSpline
 62
6
  6
CONTINUOUS
 70
0
 71
3
 72
18
 73
14
 74
0
 42
0.0000001
 43
0.0000001
 44
0.0000000001
 40
0.0
 40
0.0
 40
0.0
 40
0.0
 40
0.04386813
 40
0.0906550805
 40
0.1403118605
 40
0.1927721726
 40
0.2479557566
 40
0.3057667821
 40
0.4288271486
 40
0.5610154918
 40
0.7012010174
 40
0.8480899561
 40
1.0
 40
1.0
 40
1.0
 40
1.0
 10
3.0789991707
 20
5.9866064359
 30
0.0
 10
3.0794948095
 20
5.9862406064
 30
0.0
 10
3.0805419363
 20
5.9855152893
 30
0.0
 10
3.0822169532
 20
5.9844763932
 30
0.0
 10
3.084042
 20
5.9834545254
 30
0.0
 10
3.0860115069
 20
5.982453167
 30
0.0
 10
3.0881198607
 20
5.9814757352
 30
0.0
 10
3.0911717915
 20
5.9801806768
 30
0.0
 10
3.0952950747
 20
5.9786485934
 30
0.0
 10
3.1005937995
 20
5.9769810534
 30
0.0
 10
3.106284925
 20
5.9754657755
 30
0.0
 10
3.1123027086
 20
5.9741220136
 30
0.0
 10
3.1164299248
 20
5.9733597664
 30
0.0
 10
3.1185341203
 20
5.9730090277
 30
0.0
  0
SPLINE
  5
4B0
100
AcDbEntity
  8
0
100
AcDbSpline
 62
6
  6
CONTINUOUS
 70
0
 71
3
 72
19
 73
15
 74
0
 42
0.0000001
 43
0.0000001
 44
0.0000000001
 40
0.0
 40
0.0
 40
0.0
 40
0.0
 40
0.1313379893
 40
0.1963163647
 40
0.2607937987
 40
0.3881702536
 40
0.5135714049
 40
0.6371377984
 40
0.6983134033
 40
0.7590838899
 40
0.8194772483
 40
0.8795935765
 40
0.9396817419
 40
1.0
 40
1.0
 40
1.0
 40
1.0
 10
3.0913633229
 20
5.945520122
 30
0.0
 10
3.0900272021
 20
5.9469420628
 30
0.0
 10
3.088145522
 20
5.9491810586
 30
0.0
 10
3.0859156869
 20
5.9523514274
 30
0.0
 10
3.0839033932
 20
5.9555954075
 30
0.0
 10
3.0817728361
 20
5.9598130273
 30
0.0
 10
3.0798631002
 20
5.9650818091
 30
0.0
 10
3.0788335336
 20
5.9695862581
 30
0.0
 10
3.0783589387
 20
5.9732046533
 30
0.0
 10
3.0781762992
 20
5.9759092424
 30
0.0
 10
3.0781629532
 20
5.9786040334
 30
0.0
 10
3.0783090189
 20
5.9812844639
 30
0.0
 10
3.0785903513
 20
5.9839524145
 30
0.0
 10
3.0788506961
 20
5.9857227197
 30
0.0
 10
3.0789991707
 20
5.9866064359
 30
0.0
  0
SPLINE
  5
4B1
100
AcDbEntity
  8
0
100
AcDbSpline
 62
6
  6
CONTINUOUS
 70
0
 71
3
 72
13
 73
9
 74
0
 42
0.0000001
 43
0.0000001
 44
0.0000000001
 40
0.0
 40
0.0
 40
0.0
 40
0.0
 40
0.247308362
 40
0.4969098366
 40
0.6227222555
 40
0.7489375736
 40
0.8750739438
 40
1.0
 40
1.0
 40
1.0
 40
1.0
 10
3.1161863712
 20
5.931026904
 30
0.0
 10
3.1138700802
 20
5.931648225
 30
0.0
 10
3.1092909428
 20
5.933196439
 30
0.0
 10
3.1038527604
 20
5.9358634946
 30
0.0
 10
3.0997194522
 20
5.9384342716
 30
0.0
 10
3.0967437526
 20
5.9405827952
 30
0.0
 10
3.0939367642
 20
5.9429339397
 30
0.0
 10
3.0921928831
 20
5.9446373022
 30
0.0
 10
3.0913633229
 20
5.945520122
 30
0.0
  0
SPLINE
  5
4B2
100
AcDbEntity
  8
0
100
AcDbSpline
 62
6
  6
CONTINUOUS
 70
0
 71
3
 72
15
 73
11
 74
0
 42
0.0000001
 43
0.0000001
 44
0.0000000001
 40
0.0
 40
0.0
 40
0.0
 40
0.0
 40
0.10830207
 40
0.2216928619
 40
0.3403426679
 40
0.4642473254
 40
0.5931796447
 40
0.7265458794
 40
0.8628712224
 40
1.0
 40
1.0
 40
1.0
 40
1.0
 10
2.7596822983
 20
5.9287430627
 30
0.0
 10
2.7593114596
 20
5.9289493423
 30
0.0
 10
2.7585959559
 20
5.9294536351
 30
0.0
 10
2.7576626042
 20
5.9304152827
 30
0.0
 10
2.7568730889
 20
5.9315729532
 30
0.0
 10
2.7562529007
 20
5.9328959074
 30
0.0
 10
2.7558122253
 20
5.9343486725
 30
0.0
 10
2.7555657623
 20
5.9358956351
 30
0.0
 10
2.7555149826
 20
5.9374926092
 30
0.0
 10
2.7556108163
 20
5.9385629564
 30
0.0
 10
2.7556920885
 20
5.9390940727
 30
0.0
  0
SPLINE
  5
4B3
100
AcDbEntity
  8
0
100
AcDbSpline
 62
6
  6
CONTINUOUS
 70
0
 71
3
 72
11
 73
7
 74
0
 42
0.0000001
 43
0.0000001
 44
0.0000000001
 40
0.0
 40
0.0
 40
0.0
 40
0.0
 40
0.2469327491
 40
0.4927951068
 40
0.741927114
 40
1.0
 40
1.0
 40
1.0
 40
1.0
 10
2.7076273154
 20
5.924783249
 30
0.0
 10
2.7073870996
 20
5.924912748
 30
0.0
 10
2.7069140516
 20
5.9251838279
 30
0.0
 10
2.7062510507
 20
5.925671127
 30
0.0
 10
2.7056723304
 20
5.9262762498
 30
0.0
 10
2.7053782212
 20
5.9267604889
 30
0.0
 10
2.7052601639
 20
5.9270201181
 30
0.0
  0
SPLINE
  5
4B4
100
AcDbEntity
  8
0
100
AcDbSpline
 62
6
  6
CONTINUOUS
 70
0
 71
3
 72
15
 73
11
 74
0
 42
0.0000001
 43
0.0000001
 44
0.0000000001
 40
0.0
 40
0.0
 40
0.0
 40
0.0
 40
0.1190883885
 40
0.2410563308
 40
0.3652051168
 40
0.4909550689
 40
0.6179071551
 40
0.7456174069
 40
0.8733166515
 40
1.0
 40
1.0
 40
1.0
 40
1.0
 10
2.7293853349
 20
5.9319776918
 30
0.0
 10
2.7291132289
 20
5.9322474685
 30
0.0
 10
2.7285953093
 20
5.9328276014
 30
0.0
 10
2.7279146089
 20
5.9337881537
 30
0.0
 10
2.7273315162
 20
5.9348356569
 30
0.0
 10
2.7268569823
 20
5.935953875
 30
0.0
 10
2.7264965125
 20
5.9371258293
 30
0.0
 10
2.7262567664
 20
5.9383347125
 30
0.0
 10
2.7261398957
 20
5.939560503
 30
0.0
 10
2.7261445441
 20
5.9403806807
 30
0.0
 10
2.7261683125
 20
5.9407875968
 30
0.0
  0
SPLINE
  5
4B5
100
AcDbEntity
  8
0
100
AcDbSpline
 62
6
  6
CONTINUOUS
 70
0
 71
3
 72
40
 73
36
 74
0
 42
0.0000001
 43
0.0000001
 44
0.0000000001
 40
0.0
 40
0.0
 40
0.0
 40
0.0
 40
0.1229751279
 40
0.2441548986
 40
0.3041011666
 40
0.3636434897
 40
0.4228134932
 40
0.4816588075
 40
0.5402532742
 40
0.5987178125
 40
0.6279647635
 40
0.6572723746
 40
0.6867014828
 40
0.7163447977
 40
0.7463530225
 40
0.7769938085
 40
0.8088077194
 40
0.8255196113
 40
0.8341975948
 40
0.8431667862
 40
0.8525127681
 40
0.8623613642
 40
0.8728351728
 40
0.8840635138
 40
0.8899445909
 40
0.8958967028
 40
0.9018380879
 40
0.9077068801
 40
0.9191052976
 40
0.9298168021
 40
0.9397924438
 40
0.9492371069
 40
0.9670212218
 40
0.9838270893
 40
1.0
 40
1.0
 40
1.0
 40
1.0
 10
2.729385341
 20
5.9319776917
 30
0.0
 10
2.7282807455
 20
5.9320018644
 30
0.0
 10
2.7260870454
 20
5.9320252429
 30
0.0
 10
2.7233547857
 20
5.9319815823
 30
0.0
 10
2.7211942041
 20
5.9318937714
 30
0.0
 10
2.7195917633
 20
5.9317988464
 30
0.0
 10
2.7180015303
 20
5.9316706968
 30
0.0
 10
2.716423375
 20
5.9315040042
 30
0.0
 10
2.7148571014
 20
5.9312912489
 30
0.0
 10
2.7135615496
 20
5.9310664314
 30
0.0
 10
2.7125327061
 20
5.9308495395
 30
0.0
 10
2.711763995
 20
5.9306647699
 30
0.0
 10
2.7109984027
 20
5.9304534481
 30
0.0
 10
2.7102360053
 20
5.9302090798
 30
0.0
 10
2.7094768452
 20
5.9299217551
 30
0.0
 10
2.7087211365
 20
5.929574997
 30
0.0
 10
2.7081045728
 20
5.9292164797
 30
0.0
 10
2.7076914769
 20
5.9289095217
 30
0.0
 10
2.7074582024
 20
5.9287071156
 30
0.0
 10
2.707284787
 20
5.9285373369
 30
0.0
 10
2.7071168587
 20
5.928347709
 30
0.0
 10
2.7069577706
 20
5.9281333715
 30
0.0
 10
2.7068127498
 20
5.9278890342
 30
0.0
 10
2.7067165153
 20
5.9276596089
 30
0.0
 10
2.7066575677
 20
5.9274608215
 30
0.0
 10
2.7066234999
 20
5.9273046431
 30
0.0
 10
2.7066019448
 20
5.9271463224
 30
0.0
 10
2.7065919811
 20
5.9269378199
 30
0.0
 10
2.7066092831
 20
5.9266861058
 30
0.0
 10
2.7066658312
 20
5.926402752
 30
0.0
 10
2.7067492534
 20
5.9261446545
 30
0.0
 10
2.7068818276
 20
5.9258374561
 30
0.0
 10
2.7070756843
 20
5.9254913168
 30
0.0
 10
2.7073401458
 20
5.9251190286
 30
0.0
 10
2.7075306202
 20
5.9248917136
 30
0.0
 10
2.7076273114
 20
5.924783251
 30
0.0
  0
SPLINE
  5
4B6
100
AcDbEntity
  8
0
100
AcDbSpline
 62
6
  6
CONTINUOUS
 70
0
 71
3
 72
15
 73
11
 74
0
 42
0.0000001
 43
0.0000001
 44
0.0000000001
 40
0.0
 40
0.0
 40
0.0
 40
0.0
 40
0.1346452351
 40
0.2686587131
 40
0.400635277
 40
0.5295585163
 40
0.6545783916
 40
0.7750113966
 40
0.8903127044
 40
1.0
 40
1.0
 40
1.0
 40
1.0
 10
2.7309362101
 20
5.9232377259
 30
0.0
 10
2.7310063948
 20
5.9236398558
 30
0.0
 10
2.7311126433
 20
5.9244485278
 30
0.0
 10
2.7311700867
 20
5.9256631733
 30
0.0
 10
2.7311233623
 20
5.9268610783
 30
0.0
 10
2.7309740136
 20
5.9280231509
 30
0.0
 10
2.7307237526
 20
5.9291320358
 30
0.0
 10
2.7303766142
 20
5.930171362
 30
0.0
 10
2.7299370312
 20
5.9311242
 30
0.0
 10
2.729578523
 20
5.9317070362
 30
0.0
 10
2.7293853432
 20
5.9319777137
 30
0.0
  0
SPLINE
  5
4B7
100
AcDbEntity
  8
0
100
AcDbSpline
 62
6
  6
CONTINUOUS
 70
0
 71
3
 72
12
 73
8
 74
0
 42
0.0000001
 43
0.0000001
 44
0.0000000001
 40
0.0
 40
0.0
 40
0.0
 40
0.0
 40
0.250700663
 40
0.5010197463
 40
0.6259902181
 40
0.7508048556
 40
1.0
 40
1.0
 40
1.0
 40
1.0
 10
2.7596822957
 20
5.928743062
 30
0.0
 10
2.7571638198
 20
5.9291284105
 30
0.0
 10
2.7521256032
 20
5.9298656111
 30
0.0
 10
2.7458164768
 20
5.9306854978
 30
0.0
 10
2.7407644307
 20
5.9312427826
 30
0.0
 10
2.7357152201
 20
5.9317105664
 30
0.0
 10
2.7319174351
 20
5.9319330247
 30
0.0
 10
2.7293853432
 20
5.9319777137
 30
0.0
  0
SPLINE
  5
4B8
100
AcDbEntity
  8
0
100
AcDbSpline
 62
6
  6
CONTINUOUS
 70
0
 71
3
 72
23
 73
19
 74
0
 42
0.0000001
 43
0.0000001
 44
0.0000000001
 40
0.0
 40
0.0
 40
0.0
 40
0.0
 40
0.0283187343
 40
0.0391792037
 40
0.0517913275
 40
0.0662137008
 40
0.0824815129
 40
0.1006157755
 40
0.1206285287
 40
0.1663013514
 40
0.2194394155
 40
0.2798976529
 40
0.3475097647
 40
0.4220975109
 40
0.5034739523
 40
0.5913677186
 40
0.7850974611
 40
1.0
 40
1.0
 40
1.0
 40
1.0
 10
2.6417645961
 20
5.8681694107
 30
0.0
 10
2.6417637396
 20
5.868271031
 30
0.0
 10
2.641888591
 20
5.8683904574
 30
0.0
 10
2.6420426472
 20
5.8684855237
 30
0.0
 10
2.6421646397
 20
5.8685482401
 30
0.0
 10
2.6423069626
 20
5.8686099617
 30
0.0
 10
2.6424710531
 20
5.8686718515
 30
0.0
 10
2.6426563638
 20
5.8687334473
 30
0.0
 10
2.6429447742
 20
5.868819059
 30
0.0
 10
2.6433584128
 20
5.8689233047
 30
0.0
 10
2.6439176014
 20
5.8690419555
 30
0.0
 10
2.6445574201
 20
5.8691585374
 30
0.0
 10
2.6452757203
 20
5.8692726146
 30
0.0
 10
2.6460703457
 20
5.869383743
 30
0.0
 10
2.6469388229
 20
5.8694914642
 30
0.0
 10
2.6482336126
 20
5.8696346523
 30
0.0
 10
2.6500079028
 20
5.8697997308
 30
0.0
 10
2.6514702312
 20
5.8699099181
 30
0.0
 10
2.6522396415
 20
5.8699623346
 30
0.0
  0
SPLINE
  5
4B9
100
AcDbEntity
  8
0
100
AcDbSpline
 62
6
  6
CONTINUOUS
 70
0
 71
3
 72
27
 73
23
 74
0
 42
0.0000001
 43
0.0000001
 44
0.0000000001
 40
0.0
 40
0.0
 40
0.0
 40
0.0
 40
0.0939341757
 40
0.1861321064
 40
0.2757537461
 40
0.3620996515
 40
0.4445348785
 40
0.5224902042
 40
0.5954442424
 40
0.6629986303
 40
0.7248730923
 40
0.7536142659
 40
0.7808798174
 40
0.8309760352
 40
0.8752034778
 40
0.895177895
 40
0.9137746091
 40
0.9310418066
 40
0.9470383465
 40
0.9618372018
 40
0.9755274964
 40
1.0
 40
1.0
 40
1.0
 40
1.0
 10
2.6522396521
 20
5.8699621305
 30
0.0
 10
2.6520817831
 20
5.8718897789
 30
0.0
 10
2.6517886892
 20
5.8757110979
 30
0.0
 10
2.6514188281
 20
5.8813769313
 30
0.0
 10
2.6511293504
 20
5.886891028
 30
0.0
 10
2.6509280093
 20
5.892207943
 30
0.0
 10
2.6508226227
 20
5.8972874342
 30
0.0
 10
2.6508184874
 20
5.9020923576
 30
0.0
 10
2.6509203682
 20
5.9065898705
 30
0.0
 10
2.6511314271
 20
5.9107521822
 30
0.0
 10
2.6514054024
 20
5.9139982147
 30
0.0
 10
2.6516863833
 20
5.9164092654
 30
0.0
 10
2.6519892322
 20
5.9185729838
 30
0.0
 10
2.6524277662
 20
5.921039077
 30
0.0
 10
2.6529869227
 20
5.9233275329
 30
0.0
 10
2.6534963524
 20
5.9249550146
 30
0.0
 10
2.6538914103
 20
5.9260352349
 30
0.0
 10
2.6543120881
 20
5.9270173545
 30
0.0
 10
2.6547580554
 20
5.9279015246
 30
0.0
 10
2.6552290123
 20
5.9286884796
 30
0.0
 10
2.6558647018
 20
5.9295749556
 30
0.0
 10
2.6564117073
 20
5.930150439
 30
0.0
 10
2.6568037026
 20
5.9304670507
 30
0.0
  0
SPLINE
  5
4BA
100
AcDbEntity
  8
0
100
AcDbSpline
 62
6
  6
CONTINUOUS
 70
0
 71
3
 72
18
 73
14
 74
0
 42
0.0000001
 43
0.0000001
 44
0.0000000001
 40
0.0
 40
0.0
 40
0.0
 40
0.0
 40
0.0893336015
 40
0.1726638061
 40
0.2506069747
 40
0.3238988153
 40
0.3932101067
 40
0.4590886911
 40
0.5822302766
 40
0.6962162343
 40
0.802986475
 40
0.9039108038
 40
1.0
 40
1.0
 40
1.0
 40
1.0
 10
2.7052599513
 20
5.9270219102
 30
0.0
 10
2.7049843739
 20
5.9276284528
 30
0.0
 10
2.7044051924
 20
5.9287803889
 30
0.0
 10
2.7034326641
 20
5.9303785164
 30
0.0
 10
2.7024083724
 20
5.931798741
 30
0.0
 10
2.7013463435
 20
5.933056577
 30
0.0
 10
2.7002595098
 20
5.9341702539
 30
0.0
 10
2.6988205624
 20
5.9354530809
 30
0.0
 10
2.696991235
 20
5.9367907754
 30
0.0
 10
2.6947491386
 20
5.9380471225
 30
0.0
 10
2.6925354822
 20
5.9389836327
 30
0.0
 10
2.6903656013
 20
5.9396469853
 30
0.0
 10
2.688923226
 20
5.9399401849
 30
0.0
 10
2.6882148157
 20
5.9400481557
 30
0.0
  0
SPLINE
  5
4BB
100
AcDbEntity
  8
0
100
AcDbSpline
 62
6
  6
CONTINUOUS
 70
0
 71
3
 72
22
 73
18
 74
0
 42
0.0000001
 43
0.0000001
 44
0.0000000001
 40
0.0
 40
0.0
 40
0.0
 40
0.0
 40
0.0094634788
 40
0.0193549043
 40
0.0300296882
 40
0.0417660375
 40
0.0691486371
 40
0.1025749727
 40
0.1425428719
 40
0.1892890006
 40
0.2428461422
 40
0.3031213728
 40
0.3699732469
 40
0.4432315565
 40
0.6080974362
 40
0.7949051411
 40
1.0
 40
1.0
 40
1.0
 40
1.0
 10
2.5332651988
 20
5.3158570734
 30
0.0
 10
2.5332491412
 20
5.3158187069
 30
0.0
 10
2.5332249078
 20
5.3157363617
 30
0.0
 10
2.5332145836
 20
5.3156039903
 30
0.0
 10
2.5332292826
 20
5.3154621205
 30
0.0
 10
2.5332845564
 20
5.3152496925
 30
0.0
 10
2.5334227388
 20
5.3149595977
 30
0.0
 10
2.5336739656
 20
5.3145936811
 30
0.0
 10
2.5340188596
 20
5.3141928004
 30
0.0
 10
2.5344570339
 20
5.3137585204
 30
0.0
 10
2.5349871185
 20
5.3132921307
 30
0.0
 10
2.5356069648
 20
5.3127954222
 30
0.0
 10
2.5363142224
 20
5.3122703766
 30
0.0
 10
2.537414555
 20
5.311504709
 30
0.0
 10
2.5389895305
 20
5.3104997911
 30
0.0
 10
2.5411008002
 20
5.3092620527
 30
0.0
 10
2.5426128421
 20
5.3084366432
 30
0.0
 10
2.5434094641
 20
5.3080148946
 30
0.0
  0
SPLINE
  5
4BC
100
AcDbEntity
  8
0
100
AcDbSpline
 62
6
  6
CONTINUOUS
 70
0
 71
3
 72
26
 73
22
 74
0
 42
0.0000001
 43
0.0000001
 44
0.0000000001
 40
0.0
 40
0.0
 40
0.0
 40
0.0
 40
0.0059227725
 40
0.0125427633
 40
0.020357124
 40
0.0296656081
 40
0.0406394479
 40
0.0533770782
 40
0.067936144
 40
0.0843506555
 40
0.102640305
 40
0.1228157246
 40
0.1688288504
 40
0.222306133
 40
0.2830716496
 40
0.3509276708
 40
0.4256642978
 40
0.5070626516
 40
0.5948093651
 40
0.7875066963
 40
1.0
 40
1.0
 40
1.0
 40
1.0
 10
2.5350144722
 20
5.3200557586
 30
0.0
 10
2.5350052114
 20
5.3200334283
 30
0.0
 10
2.5349946064
 20
5.3199820721
 30
0.0
 10
2.5350048719
 20
5.3198986053
 30
0.0
 10
2.5350386263
 20
5.3198071365
 30
0.0
 10
2.5350952528
 20
5.319707025
 30
0.0
 10
2.5351746608
 20
5.3195978701
 30
0.0
 10
2.5352768879
 20
5.3194795825
 30
0.0
 10
2.5354019372
 20
5.3193521996
 30
0.0
 10
2.5355497812
 20
5.3192158219
 30
0.0
 10
2.5357203605
 20
5.3190705665
 30
0.0
 10
2.535990078
 20
5.3188556737
 30
0.0
 10
2.5363846885
 20
5.3185675008
 30
0.0
 10
2.5369273568
 20
5.3182021304
 30
0.0
 10
2.5375558166
 20
5.3178051399
 30
0.0
 10
2.5382676473
 20
5.3173781218
 30
0.0
 10
2.5390604244
 20
5.316922671
 30
0.0
 10
2.5399313583
 20
5.3164405581
 30
0.0
 10
2.541233144
 20
5.3157429122
 30
0.0
 10
2.5430233387
 20
5.3148242574
 30
0.0
 10
2.5445083572
 20
5.3140961316
 30
0.0
 10
2.5452899856
 20
5.3137202365
 30
0.0
  0
SPLINE
  5
4BD
100
AcDbEntity
  8
0
100
AcDbSpline
 62
6
  6
CONTINUOUS
 70
0
 71
3
 72
24
 73
20
 74
0
 42
0.0000001
 43
0.0000001
 44
0.0000000001
 40
0.0
 40
0.0
 40
0.0
 40
0.0
 40
0.0053487015
 40
0.0114217622
 40
0.0187208575
 40
0.027535332
 40
0.0380252912
 40
0.0502814249
 40
0.0802753283
 40
0.1177478732
 40
0.162767354
 40
0.2152906228
 40
0.275210217
 40
0.3424008353
 40
0.4167271
 40
0.4980463252
 40
0.5861477765
 40
0.7814330895
 40
1.0
 40
1.0
 40
1.0
 40
1.0
 10
2.6061778035
 20
5.5425037113
 30
0.0
 10
2.606174409
 20
5.5424889554
 30
0.0
 10
2.6061737407
 20
5.5424557239
 30
0.0
 10
2.6061909497
 20
5.5424048682
 30
0.0
 10
2.6062245603
 20
5.5423513682
 30
0.0
 10
2.6062743616
 20
5.5422945949
 30
0.0
 10
2.6063404019
 20
5.5422342341
 30
0.0
 10
2.6064584229
 20
5.5421426083
 30
0.0
 10
2.6066490808
 20
5.5420211196
 30
0.0
 10
2.6069289873
 20
5.5418690583
 30
0.0
 10
2.6072734338
 20
5.5417031293
 30
0.0
 10
2.6076815651
 20
5.541523761
 30
0.0
 10
2.6081523801
 20
5.5413314976
 30
0.0
 10
2.6086846725
 20
5.5411268882
 30
0.0
 10
2.6092772225
 20
5.5409104696
 30
0.0
 10
2.6099286161
 20
5.5406828302
 30
0.0
 10
2.6109072257
 20
5.5403538123
 30
0.0
 10
2.6122610155
 20
5.5399218751
 30
0.0
 10
2.6133825136
 20
5.5395829812
 30
0.0
 10
2.6139758739
 20
5.5394076413
 30
0.0
  0
SPLINE
  5
4BE
100
AcDbEntity
  8
0
100
AcDbSpline
 62
6
  6
CONTINUOUS
 70
0
 71
3
 72
23
 73
19
 74
0
 42
0.0000001
 43
0.0000001
 44
0.0000000001
 40
0.0
 40
0.0
 40
0.0
 40
0.0
 40
0.0051546921
 40
0.0110565449
 40
0.0182127376
 40
0.0269083716
 40
0.0372981123
 40
0.0494683841
 40
0.0793230688
 40
0.1166880723
 40
0.1616251201
 40
0.214089733
 40
0.2739762062
 40
0.3411622089
 40
0.4155160405
 40
0.5851043249
 40
0.7807683029
 40
1.0
 40
1.0
 40
1.0
 40
1.0
 10
2.6226483541
 20
5.6255081507
 30
0.0
 10
2.6226506807
 20
5.6255220662
 30
0.0
 10
2.6226622548
 20
5.6255510068
 30
0.0
 10
2.6226961972
 20
5.6255884291
 30
0.0
 10
2.6227456749
 20
5.6256221763
 30
0.0
 10
2.62281081
 20
5.6256529078
 30
0.0
 10
2.6228917802
 20
5.6256808761
 30
0.0
 10
2.6230307378
 20
5.6257169648
 30
0.0
 10
2.6232454789
 20
5.6257524495
 30
0.0
 10
2.6235511372
 20
5.6257819946
 30
0.0
 10
2.6239196657
 20
5.6258001773
 30
0.0
 10
2.6243501721
 20
5.6258069396
 30
0.0
 10
2.6248415953
 20
5.6258021681
 30
0.0
 10
2.6253926976
 20
5.6257858346
 30
0.0
 10
2.6262434092
 20
5.6257468173
 30
0.0
 10
2.6274440944
 20
5.6256667966
 30
0.0
 10
2.6290380908
 20
5.6255303383
 30
0.0
 10
2.6301680293
 20
5.625416723
 30
0.0
 10
2.6307647091
 20
5.6253532137
 30
0.0
  0
SPLINE
  5
4BF
100
AcDbEntity
  8
0
100
AcDbSpline
 62
6
  6
CONTINUOUS
 70
0
 71
3
 72
15
 73
11
 74
0
 42
0.0000001
 43
0.0000001
 44
0.0000000001
 40
0.0
 40
0.0
 40
0.0
 40
0.0
 40
0.1372259551
 40
0.2734981375
 40
0.4067794702
 40
0.5358349035
 40
0.6598332934
 40
0.7784151416
 40
0.8916773324
 40
1.0
 40
1.0
 40
1.0
 40
1.0
 10
2.7635711338
 20
5.9182928176
 30
0.0
 10
2.7636635885
 20
5.9188262697
 30
0.0
 10
2.7637809339
 20
5.9199022063
 30
0.0
 10
2.7637566971
 20
5.9215110216
 30
0.0
 10
2.7635279024
 20
5.9230716752
 30
0.0
 10
2.7631034225
 20
5.9245408633
 30
0.0
 10
2.7624921048
 20
5.925879784
 30
0.0
 10
2.7617101798
 20
5.9270539582
 30
0.0
 10
2.7607756981
 20
5.9280271701
 30
0.0
 10
2.7600557779
 20
5.9285353144
 30
0.0
 10
2.7596822987
 20
5.9287430626
 30
0.0
  0
LINE
  5
4C0
100
AcDbEntity
  8
0
100
AcDbLine
 62
6
  6
CONTINUOUS
 10
2.6568036128
 20
5.9304670188
 11
2.6521471445
 21
5.9321274391
  0
SPLINE
  5
4C1
100
AcDbEntity
  8
0
100
AcDbSpline
 62
6
  6
CONTINUOUS
 70
0
 71
3
 72
13
 73
9
 74
0
 42
0.0000001
 43
0.0000001
 44
0.0000000001
 40
0.0
 40
0.0
 40
0.0
 40
0.0
 40
0.1082384666
 40
0.2225527586
 40
0.3423662771
 40
0.4668685837
 40
0.7273312647
 40
1.0
 40
1.0
 40
1.0
 40
1.0
 10
2.6568036128
 20
5.9304670188
 30
0.0
 10
2.6579566724
 20
5.9307403134
 30
0.0
 10
2.6603198725
 20
5.9313347147
 30
0.0
 10
2.6639351204
 20
5.9323251219
 30
0.0
 10
2.667703794
 20
5.9334270479
 30
0.0
 10
2.6729880583
 20
5.935045186
 30
0.0
 10
2.6798417516
 20
5.9372517356
 30
0.0
 10
2.6853789491
 20
5.9390977228
 30
0.0
 10
2.6882087889
 20
5.9400482182
 30
0.0
  0
SPLINE
  5
4C2
100
AcDbEntity
  8
0
100
AcDbSpline
 62
6
  6
CONTINUOUS
 70
0
 71
3
 72
15
 73
11
 74
0
 42
0.0000001
 43
0.0000001
 44
0.0000000001
 40
0.0
 40
0.0
 40
0.0
 40
0.0
 40
0.1238148617
 40
0.2483434898
 40
0.3734220693
 40
0.4988690272
 40
0.6244912644
 40
0.7500734487
 40
0.8753575331
 40
1.0
 40
1.0
 40
1.0
 40
1.0
 10
2.65224072
 20
5.869962678
 30
0.0
 10
2.6557419431
 20
5.8717442147
 30
0.0
 10
2.6626762385
 20
5.8754926322
 30
0.0
 10
2.6728731793
 20
5.8815299119
 30
0.0
 10
2.6829130026
 20
5.8879212207
 30
0.0
 10
2.6928053242
 20
5.8945996937
 30
0.0
 10
2.7025537531
 20
5.9015136818
 30
0.0
 10
2.7121575883
 20
5.9086180705
 30
0.0
 10
2.7216133213
 20
5.9158671019
 30
0.0
 10
2.727840088
 20
5.9207773192
 30
0.0
 10
2.7309361832
 20
5.9232377312
 30
0.0
  0
SPLINE
  5
4C3
100
AcDbEntity
  8
0
100
AcDbSpline
 62
6
  6
CONTINUOUS
 70
0
 71
3
 72
16
 73
12
 74
0
 42
0.0000001
 43
0.0000001
 44
0.0000000001
 40
0.0
 40
0.0
 40
0.0
 40
0.0
 40
0.1249735503
 40
0.2499635351
 40
0.3749669414
 40
0.4999751095
 40
0.5624782859
 40
0.6249808443
 40
0.7499857628
 40
0.8749936777
 40
1.0
 40
1.0
 40
1.0
 40
1.0
 10
2.5452907182
 20
5.3137221673
 30
0.0
 10
2.5487872823
 20
5.3229146815
 30
0.0
 10
2.5556298706
 20
5.3413587767
 30
0.0
 10
2.5654313457
 20
5.3691936334
 30
0.0
 10
2.5747619004
 20
5.3971928052
 30
0.0
 10
2.5821397509
 20
5.4206554516
 30
0.0
 10
2.5877997586
 20
5.4394993574
 30
0.0
 10
2.5932940943
 20
5.4583919665
 30
0.0
 10
2.5998486884
 20
5.4820979656
 30
0.0
 10
2.6072066687
 20
5.5106804393
 30
0.0
 10
2.6117743838
 20
5.5298194998
 30
0.0
 10
2.6139758739
 20
5.5394076413
 30
0.0
  0
SPLINE
  5
4C4
100
AcDbEntity
  8
0
100
AcDbSpline
 62
6
  6
CONTINUOUS
 70
0
 71
3
 72
15
 73
11
 74
0
 42
0.0000001
 43
0.0000001
 44
0.0000000001
 40
0.0
 40
0.0
 40
0.0
 40
0.0
 40
0.1085049778
 40
0.2215772872
 40
0.3393003988
 40
0.4617482722
 40
0.5889866286
 40
0.7210740386
 40
0.8580628532
 40
1.0
 40
1.0
 40
1.0
 40
1.0
 10
2.6494319873
 20
5.290655298
 30
0.0
 10
2.6457685383
 20
5.2918809028
 30
0.0
 10
2.6382478385
 20
5.2942665995
 30
0.0
 10
2.6266335563
 20
5.2975930201
 30
0.0
 10
2.614456083
 20
5.300740286
 30
0.0
 10
2.6017154761
 20
5.3037083842
 30
0.0
 10
2.5884116151
 20
5.3064973505
 30
0.0
 10
2.5745444283
 20
5.3091071957
 30
0.0
 10
2.5601139018
 20
5.3115379208
 30
0.0
 10
2.5502930395
 20
5.313012696
 30
0.0
 10
2.5452898224
 20
5.3137222944
 30
0.0
  0
LINE
  5
4C5
100
AcDbEntity
  8
0
100
AcDbLine
 62
6
  6
CONTINUOUS
 10
2.5434066039
 20
5.3080067524
 11
2.5452898224
 21
5.3137222944
  0
SPLINE
  5
4C6
100
AcDbEntity
  8
0
100
AcDbSpline
 62
6
  6
CONTINUOUS
 70
0
 71
3
 72
11
 73
7
 74
0
 42
0.0000001
 43
0.0000001
 44
0.0000000001
 40
0.0
 40
0.0
 40
0.0
 40
0.0
 40
0.2205030755
 40
0.4606662448
 40
0.7204966696
 40
1.0
 40
1.0
 40
1.0
 40
1.0
 10
2.6475416752
 20
5.2835449954
 30
0.0
 10
2.6399099498
 20
5.2854339931
 30
0.0
 10
2.6239515627
 20
5.2893219816
 30
0.0
 10
2.598957019
 20
5.2952564815
 30
0.0
 10
2.5718840691
 20
5.3015420681
 30
0.0
 10
2.5531338315
 20
5.3058106901
 30
0.0
 10
2.5434128065
 20
5.3080053521
 30
0.0
  0
SPLINE
  5
4C7
100
AcDbEntity
  8
0
100
AcDbSpline
 62
6
  6
CONTINUOUS
 70
0
 71
3
 72
43
 73
39
 74
0
 42
0.0000001
 43
0.0000001
 44
0.0000000001
 40
0.0
 40
0.0
 40
0.0
 40
0.0
 40
0.0015350087
 40
0.003304179
 40
0.0054771949
 40
0.0081455333
 40
0.0113581664
 40
0.0151397463
 40
0.0194979954
 40
0.0244355274
 40
0.0360453401
 40
0.0499504964
 40
0.0661097599
 40
0.0844680143
 40
0.1049512582
 40
0.1274887213
 40
0.1520283176
 40
0.1785147955
 40
0.2068862479
 40
0.2370734855
 40
0.2689961756
 40
0.3025537268
 40
0.3376500243
 40
0.3742038295
 40
0.4121651426
 40
0.4514831646
 40
0.4920873579
 40
0.533903613
 40
0.5768479595
 40
0.6208156374
 40
0.6657186849
 40
0.711488653
 40
0.7580638413
 40
0.8053694903
 40
0.8533152006
 40
0.901801989
 40
0.9507302275
 40
1.0
 40
1.0
 40
1.0
 40
1.0
 10
2.5121406563
 20
5.240257393
 30
0.0
 10
2.5121750847
 20
5.2402401189
 30
0.0
 10
2.5122578115
 20
5.2402188884
 30
0.0
 10
2.5123963093
 20
5.2402339281
 30
0.0
 10
2.5125535394
 20
5.2402896004
 30
0.0
 10
2.5127319773
 20
5.240385615
 30
0.0
 10
2.5129324612
 20
5.2405225399
 30
0.0
 10
2.5131548384
 20
5.2407009288
 30
0.0
 10
2.5133982087
 20
5.2409212987
 30
0.0
 10
2.5137695167
 20
5.2412921169
 30
0.0
 10
2.5142764634
 20
5.2418647845
 30
0.0
 10
2.5149268265
 20
5.2426841018
 30
0.0
 10
2.5156428761
 20
5.2436661617
 30
0.0
 10
2.5164196445
 20
5.2448072171
 30
0.0
 10
2.5172532022
 20
5.2461025594
 30
0.0
 10
2.518139239
 20
5.2475480767
 30
0.0
 10
2.5190720067
 20
5.2491411906
 30
0.0
 10
2.5200469193
 20
5.2508788668
 30
0.0
 10
2.5210596217
 20
5.2527574803
 30
0.0
 10
2.5221066882
 20
5.254772233
 30
0.0
 10
2.5231848887
 20
5.256917199
 30
0.0
 10
2.524294256
 20
5.2591841916
 30
0.0
 10
2.5254305941
 20
5.2615672275
 30
0.0
 10
2.526586179
 20
5.2640633215
 30
0.0
 10
2.5277590096
 20
5.2666679879
 30
0.0
 10
2.5289468215
 20
5.2693772205
 30
0.0
 10
2.5301448642
 20
5.2721874185
 30
0.0
 10
2.5313507191
 20
5.2750930446
 30
0.0
 10
2.532562732
 20
5.2780873461
 30
0.0
 10
2.5337841773
 20
5.2811613095
 30
0.0
 10
2.5350100259
 20
5.2843097504
 30
0.0
 10
2.5362317511
 20
5.2875298839
 30
0.0
 10
2.5374468589
 20
5.2908168722
 30
0.0
 10
2.538653522
 20
5.2941650552
 30
0.0
 10
2.53985385
 20
5.2975664114
 30
0.0
 10
2.5410489576
 20
5.3010127275
 30
0.0
 10
2.5422365875
 20
5.3044967442
 30
0.0
 10
2.5430216928
 20
5.3068324856
 30
0.0
 10
2.5434128065
 20
5.3080053521
 30
0.0
  0
SPLINE
  5
4C8
100
AcDbEntity
  8
0
100
AcDbSpline
 62
6
  6
CONTINUOUS
 70
0
 71
3
 72
20
 73
16
 74
0
 42
0.0000001
 43
0.0000001
 44
0.0000000001
 40
0.0
 40
0.0
 40
0.0
 40
0.0
 40
0.0602354259
 40
0.1196416375
 40
0.178460731
 40
0.2369420944
 40
0.295339443
 40
0.3539075835
 40
0.4128991101
 40
0.4725612391
 40
0.5331329769
 40
0.5948427616
 40
0.7224783181
 40
0.8570860598
 40
1.0
 40
1.0
 40
1.0
 40
1.0
 10
2.5264058352
 20
5.1468987399
 30
0.0
 10
2.5271101035
 20
5.1487411056
 30
0.0
 10
2.5283983621
 20
5.1524439984
 30
0.0
 10
2.5299674522
 20
5.1580769776
 30
0.0
 10
2.5311575
 20
5.1637437111
 30
0.0
 10
2.5319682357
 20
5.1694436655
 30
0.0
 10
2.5323995867
 20
5.1751766011
 30
0.0
 10
2.5324515342
 20
5.1809421688
 30
0.0
 10
2.5321241458
 20
5.1867400694
 30
0.0
 10
2.5314175902
 20
5.1925699792
 30
0.0
 10
2.5303319837
 20
5.1984318427
 30
0.0
 10
2.5283578304
 20
5.2063779099
 30
0.0
 10
2.5248967702
 20
5.216430828
 30
0.0
 10
2.5192746628
 20
5.2284697319
 30
0.0
 10
2.514668587
 20
5.2363193385
 30
0.0
 10
2.512140626
 20
5.2402574402
 30
0.0
  0
SPLINE
  5
4C9
100
AcDbEntity
  8
0
100
AcDbSpline
 62
6
  6
CONTINUOUS
 70
0
 71
3
 72
27
 73
23
 74
0
 42
0.0000001
 43
0.0000001
 44
0.0000000001
 40
0.0
 40
0.0
 40
0.0
 40
0.0
 40
0.1139349548
 40
0.1708104806
 40
0.2274648284
 40
0.2834803685
 40
0.3376502895
 40
0.3883526667
 40
0.4347529633
 40
0.477321876
 40
0.5166436872
 40
0.5871108738
 40
0.6483704985
 40
0.7017969747
 40
0.748438631
 40
0.7894302632
 40
0.8261939917
 40
0.8603906516
 40
0.8935585456
 40
0.9271459736
 40
0.9623506716
 40
1.0
 40
1.0
 40
1.0
 40
1.0
 10
3.3394709745
 20
6.0007360344
 30
0.0
 10
3.3393229619
 20
6.001446726
 30
0.0
 10
3.3390994317
 20
6.0025118495
 30
0.0
 10
3.3388019951
 20
6.0039303013
 30
0.0
 10
3.3385830979
 20
6.0049881586
 30
0.0
 10
3.3383777676
 20
6.0060312067
 30
0.0
 10
3.3382058952
 20
6.0070420172
 30
0.0
 10
3.3380880175
 20
6.0079990955
 30
0.0
 10
3.3380297445
 20
6.0088875753
 30
0.0
 10
3.3380203421
 20
6.0097053362
 30
0.0
 10
3.3380600225
 20
6.0106755995
 30
0.0
 10
3.3381853783
 20
6.0117603399
 30
0.0
 10
3.338446552
 20
6.0129132724
 30
0.0
 10
3.3387931372
 20
6.0138840504
 30
0.0
 10
3.3392136908
 20
6.0146823782
 30
0.0
 10
3.3396992531
 20
6.0153146422
 30
0.0
 10
3.3402419233
 20
6.0157856132
 30
0.0
 10
3.3408301835
 20
6.0161044519
 30
0.0
 10
3.341456586
 20
6.0162741367
 30
0.0
 10
3.3421108091
 20
6.0162992589
 30
0.0
 10
3.3427836395
 20
6.016188719
 30
0.0
 10
3.3432252361
 20
6.0160399033
 30
0.0
 10
3.3434475184
 20
6.015949709
 30
0.0
  0
LINE
  5
4CA
100
AcDbEntity
  8
0
100
AcDbLine
 62
6
  6
CONTINUOUS
 10
2.7696451026
 20
6.0911714019
 11
2.7558494841
 21
6.064822065
  0
LINE
  5
4CB
100
AcDbEntity
  8
0
100
AcDbLine
 62
6
  6
CONTINUOUS
 10
2.5109390319
 20
5.2406571811
 11
2.512140626
 21
5.2402574402
  0
SPLINE
  5
4CC
100
AcDbEntity
  8
0
100
AcDbSpline
 62
6
  6
CONTINUOUS
 70
0
 71
3
 72
17
 73
13
 74
0
 42
0.0000001
 43
0.0000001
 44
0.0000000001
 40
0.0
 40
0.0
 40
0.0
 40
0.0
 40
0.1656284436
 40
0.3278349362
 40
0.4814867631
 40
0.6222208479
 40
0.7468632599
 40
0.8525337855
 40
0.8975937554
 40
0.9372295233
 40
0.9713499046
 40
1.0
 40
1.0
 40
1.0
 40
1.0
 10
2.9610311876
 20
5.9446074757
 30
0.0
 10
2.9611141295
 20
5.9451495098
 30
0.0
 10
2.9612970599
 20
5.9462195972
 30
0.0
 10
2.9616193375
 20
5.9477810514
 30
0.0
 10
2.961979935
 20
5.9492494569
 30
0.0
 10
2.9623694887
 20
5.9505814878
 30
0.0
 10
2.9627756201
 20
5.9517414424
 30
0.0
 10
2.9631361841
 20
5.9525802231
 30
0.0
 10
2.9634306586
 20
5.9531377991
 30
0.0
 10
2.9636366694
 20
5.9534733562
 30
0.0
 10
2.9638379898
 20
5.9537466575
 30
0.0
 10
2.9639804509
 20
5.9538991941
 30
0.0
 10
2.9640514403
 20
5.953962101
 30
0.0
  0
SPLINE
  5
4CD
100
AcDbEntity
  8
0
100
AcDbSpline
 62
6
  6
CONTINUOUS
 70
0
 71
3
 72
9
 73
5
 74
0
 42
0.0000001
 43
0.0000001
 44
0.0000000001
 40
0.0
 40
0.0
 40
0.0
 40
0.0
 40
0.4943950134
 40
1.0
 40
1.0
 40
1.0
 40
1.0
 10
2.8262222241
 20
6.0996221345
 30
0.0
 10
2.8258523205
 20
6.0989676588
 30
0.0
 10
2.825231955
 20
6.0975685649
 30
0.0
 10
2.8248703671
 20
6.0960825848
 30
0.0
 10
2.8247541212
 20
6.095322602
 30
0.0
  0
SPLINE
  5
4CE
100
AcDbEntity
  8
0
100
AcDbSpline
 62
6
  6
CONTINUOUS
 70
0
 71
3
 72
17
 73
13
 74
0
 42
0.0000001
 43
0.0000001
 44
0.0000000001
 40
0.0
 40
0.0
 40
0.0
 40
0.0
 40
0.0267564239
 40
0.0591461781
 40
0.0970548253
 40
0.1403369146
 40
0.2423496342
 40
0.3636260116
 40
0.5022937921
 40
0.6561947915
 40
0.8229711391
 40
1.0
 40
1.0
 40
1.0
 40
1.0
 10
2.9640514597
 20
5.953962098
 30
0.0
 10
2.9642167964
 20
5.9543046602
 30
0.0
 10
2.9645652172
 20
5.9550701351
 30
0.0
 10
2.9651016875
 20
5.9563414312
 30
0.0
 10
2.9656976263
 20
5.9578422374
 30
0.0
 10
2.9666148834
 20
5.9602799524
 30
0.0
 10
2.9678585367
 20
5.9638603763
 30
0.0
 10
2.9694189749
 20
5.968764213
 30
0.0
 10
2.9710722666
 20
5.9744109593
 30
0.0
 10
2.9727763601
 20
5.980715274
 30
0.0
 10
2.9744936094
 20
5.9875796099
 30
0.0
 10
2.975595878
 20
5.9923415735
 30
0.0
 10
2.9761448597
 20
5.9947976462
 30
0.0
  0
SPLINE
  5
4CF
100
AcDbEntity
  8
0
100
AcDbSpline
 62
6
  6
CONTINUOUS
 70
0
 71
3
 72
15
 73
11
 74
0
 42
0.0000001
 43
0.0000001
 44
0.0000000001
 40
0.0
 40
0.0
 40
0.0
 40
0.0
 40
0.1394938578
 40
0.2755542871
 40
0.4074984812
 40
0.5349033533
 40
0.6575831839
 40
0.7756519562
 40
0.8895483728
 40
1.0
 40
1.0
 40
1.0
 40
1.0
 10
2.819069352
 20
6.0188335765
 30
0.0
 10
2.8180708202
 20
6.0164199793
 30
0.0
 10
2.815867056
 20
6.0117436951
 30
0.0
 10
2.8119320247
 20
6.0051911754
 30
0.0
 10
2.8074576951
 20
5.9992731728
 30
0.0
 10
2.8025116173
 20
5.9940822107
 30
0.0
 10
2.7971657846
 20
5.9897002187
 30
0.0
 10
2.7914988272
 20
5.9861973413
 30
0.0
 10
2.7855980883
 20
5.9836324309
 30
0.0
 10
2.7815138489
 20
5.9825637006
 30
0.0
 10
2.7794768466
 20
5.9822059155
 30
0.0
  0
SPLINE
  5
4D0
100
AcDbEntity
  8
0
100
AcDbSpline
 62
6
  6
CONTINUOUS
 70
0
 71
3
 72
11
 73
7
 74
0
 42
0.0000001
 43
0.0000001
 44
0.0000000001
 40
0.0
 40
0.0
 40
0.0
 40
0.0
 40
0.2515210364
 40
0.5023113898
 40
0.7519262008
 40
1.0
 40
1.0
 40
1.0
 40
1.0
 10
2.829060231
 20
6.062149972
 30
0.0
 10
2.8288766461
 20
6.0584100532
 30
0.0
 10
2.8281508552
 20
6.050954607
 30
0.0
 10
2.8260727039
 20
6.0399414625
 30
0.0
 10
2.8230754823
 20
6.0291962047
 30
0.0
 10
2.8204955294
 20
6.0222401913
 30
0.0
 10
2.819069352
 20
6.0188335765
 30
0.0
  0
SPLINE
  5
4D1
100
AcDbEntity
  8
0
100
AcDbSpline
 62
6
  6
CONTINUOUS
 70
0
 71
3
 72
13
 73
9
 74
0
 42
0.0000001
 43
0.0000001
 44
0.0000000001
 40
0.0
 40
0.0
 40
0.0
 40
0.0
 40
0.24412636
 40
0.3682670838
 40
0.4934495567
 40
0.619453846
 40
0.7460698677
 40
1.0
 40
1.0
 40
1.0
 40
1.0
 10
2.9761448597
 20
5.9947976462
 30
0.0
 10
2.9768965
 20
5.9983413901
 30
0.0
 10
2.9780508639
 20
6.0036828964
 30
0.0
 10
2.9796628943
 20
6.0108255726
 30
0.0
 10
2.9809292211
 20
6.0162492249
 30
0.0
 10
2.982256878
 20
6.0216961027
 30
0.0
 10
2.9841219951
 20
6.028977686
 30
0.0
 10
2.9856452473
 20
6.0344171923
 30
0.0
 10
2.9867474821
 20
6.0380204319
 30
0.0
  0
SPLINE
  5
4D2
100
AcDbEntity
  8
0
100
AcDbSpline
 62
6
  6
CONTINUOUS
 70
0
 71
3
 72
14
 73
10
 74
0
 42
0.0000001
 43
0.0000001
 44
0.0000000001
 40
0.0
 40
0.0
 40
0.0
 40
0.0
 40
0.1198780507
 40
0.2419210254
 40
0.3656321931
 40
0.4906973577
 40
0.6168530606
 40
0.743893437
 40
1.0
 40
1.0
 40
1.0
 40
1.0
 10
2.8247540271
 20
6.0953222163
 30
0.0
 10
2.8251048529
 20
6.0940296116
 30
0.0
 10
2.8257457885
 20
6.0914026176
 30
0.0
 10
2.8265537679
 20
6.0873973722
 30
0.0
 10
2.8272341407
 20
6.0833098034
 30
0.0
 10
2.8277969679
 20
6.0791582132
 30
0.0
 10
2.8282536544
 20
6.0749562816
 30
0.0
 10
2.8287344353
 20
6.0692859313
 30
0.0
 10
2.8289591577
 20
6.0650096013
 30
0.0
 10
2.829060231
 20
6.062149972
 30
0.0
  0
SPLINE
  5
4D3
100
AcDbEntity
  8
0
100
AcDbSpline
 62
6
  6
CONTINUOUS
 70
0
 71
3
 72
13
 73
9
 74
0
 42
0.0000001
 43
0.0000001
 44
0.0000000001
 40
0.0
 40
0.0
 40
0.0
 40
0.0
 40
0.2503014694
 40
0.3754108769
 40
0.500473582
 40
0.625484745
 40
0.7504369667
 40
1.0
 40
1.0
 40
1.0
 40
1.0
 10
2.9867474821
 20
6.0380204319
 30
0.0
 10
2.9878113711
 20
6.0407147691
 30
0.0
 10
2.9895173151
 20
6.0447143556
 30
0.0
 10
2.9920539264
 20
6.049922525
 30
0.0
 10
2.9941004016
 20
6.0537532931
 30
0.0
 10
2.9963062309
 20
6.057493307
 30
0.0
 10
2.9994794513
 20
6.0623265095
 30
0.0
 10
3.0021660931
 20
6.0657491988
 30
0.0
 10
3.0041188964
 20
6.0678772103
 30
0.0
  0
SPLINE
  5
4D4
100
AcDbEntity
  8
0
100
AcDbSpline
 62
6
  6
CONTINUOUS
 70
0
 71
3
 72
17
 73
13
 74
0
 42
0.0000001
 43
0.0000001
 44
0.0000000001
 40
0.0
 40
0.0
 40
0.0
 40
0.0
 40
0.1270334353
 40
0.2544399082
 40
0.3180080014
 40
0.3813092866
 40
0.5069681745
 40
0.6316266366
 40
0.6936997725
 40
0.7555920409
 40
0.8785134669
 40
1.0
 40
1.0
 40
1.0
 40
1.0
 10
2.689757829
 20
5.9861181327
 30
0.0
 10
2.6898410236
 20
5.986661814
 30
0.0
 10
2.6900962672
 20
5.9877389184
 30
0.0
 10
2.6906194257
 20
5.9890187266
 30
0.0
 10
2.6911535418
 20
5.9899826259
 30
0.0
 10
2.691759759
 20
5.9908937999
 30
0.0
 10
2.6926478823
 20
5.9919293095
 30
0.0
 10
2.6936886908
 20
5.9928033559
 30
0.0
 10
2.6945946299
 20
5.9933868857
 30
0.0
 10
2.6955401403
 20
5.9938879256
 30
0.0
 10
2.6967861515
 20
5.9943602369
 30
0.0
 10
2.6978306243
 20
5.9945648317
 30
0.0
 10
2.6983537631
 20
5.9946195589
 30
0.0
  0
SPLINE
  5
4D5
100
AcDbEntity
  8
0
100
AcDbSpline
 62
6
  6
CONTINUOUS
 70
0
 71
3
 72
13
 73
9
 74
0
 42
0.0000001
 43
0.0000001
 44
0.0000000001
 40
0.0
 40
0.0
 40
0.0
 40
0.0
 40
0.2599380776
 40
0.5149876408
 40
0.6400263406
 40
0.7629056815
 40
0.8831201283
 40
1.0
 40
1.0
 40
1.0
 40
1.0
 10
2.7623626071
 20
6.0783422396
 30
0.0
 10
2.76290377
 20
6.0805744586
 30
0.0
 10
2.7640174275
 20
6.0849870069
 30
0.0
 10
2.765532715
 20
6.0904365172
 30
0.0
 10
2.766826487
 20
6.094688607
 30
0.0
 10
2.767832537
 20
6.0977822954
 30
0.0
 10
2.768885232
 20
6.1007841878
 30
0.0
 10
2.7696335874
 20
6.1027414404
 30
0.0
 10
2.7700193366
 20
6.1036994768
 30
0.0
  0
ENDSEC
  0
SECTION
  2
OBJECTS
  0
DICTIONARY
  5
C
100
AcDbDictionary
280
0
281
1
  3
ACAD_GROUP
350
D
  3
ACAD_MLINESTYLE
350
17
  3
ACAD_LAYOUT
350
1A
  3
ACAD_PLOTSETTINGS
350
19
  3
ACAD_PLOTSTYLENAME
350
E
  0
DICTIONARY
  5
D
102
{ACAD_REACTORS
330
C
102
}
100
AcDbDictionary
280
0
281
1
  0
ACDBDICTIONARYWDFLT
  5
E
102
{ACAD_REACTORS
330
C
102
}
100
AcDbDictionary
281
1
  3
Normal
350
F
100
AcDbDictionaryWithDefault
340
F
  0
DICTIONARY
  5
17
102
{ACAD_REACTORS
330
C
102
}
100
AcDbDictionary
280
0
281
1
  3
Standard
350
18
  0
DICTIONARY
  5
19
102
{ACAD_REACTORS
330
C
102
}
100
AcDbDictionary
281
1
  0
DICTIONARY
  5
1A
102
{ACAD_REACTORS
330
C
102
}
100
AcDbDictionary
281
1
  3
Model
350
4D6
  3
Layout1
350
4D7
  0
ACDBPLACEHOLDER
  5
F
102
{ACAD_REACTORS
330
E
102
}
  0
MLINESTYLE
  5
18
102
{ACAD_REACTORS
330
17
102
}
100
AcDbMlineStyle
  2
STANDARD
 70
0
  3

 62
256
 51
90.0
 52
90.0
 71
2
 49
0.5
 62
256
  6
BYLAYER
 49
-0.5
 62
256
  6
BYLAYER
  0
LAYOUT
  5
4D6
102
{ACAD_REACTORS
330
1A
102
}
100
AcDbPlotSettings
  1

  2
none_device
  4
ANSI_A_(11.00_x_8.50_Inches)
  6

 40
0.0
 41
0.0
 42
0.0
 43
0.0
 44
279.4
 45
215.9
 46
0.0
 47
0.0
 48
0.0
 49
0.0
140
0.0
141
0.0
142
1.0
143
1.0
 70
1024
 72
0
 73
0
 74
0
  7

 75
0
147
1.0
148
0.0
149
0.0
100
AcDbLayout
  1
Model
 70
0
 71
0
 10
0.0
 20
0.0
 11
11.0
 21
8.5
 12
0.0
 22
0.0
 32
0.0
 14
0.0
 24
0.0
 34
0.0
 15
0.0
 25
0.0
 35
0.0
146
0.0
 13
0.0
 23
0.0
 33
0.0
 16
1.0
 26
0.0
 36
0.0
 17
0.0
 27
1.0
 37
0.0
 76
0
330
202
345
0
346
0
  0
LAYOUT
  5
4D7
102
{ACAD_REACTORS
330
1A
102
}
100
AcDbPlotSettings
  1

  2
none_device
  4
ANSI_A_(11.00_x_8.50_Inches)
  6

 40
0.0
 41
0.0
 42
0.0
 43
0.0
 44
279.4
 45
215.9
 46
0.0
 47
0.0
 48
0.0
 49
0.0
140
0.0
141
0.0
142
1.0
143
1.0
 70
0
 72
0
 73
0
 74
0
  7

 75
0
147
1.0
148
0.0
149
0.0
100
AcDbLayout
  1
Layout1
 70
0
 71
1
 10
0.0
 20
0.0
 11
11.0
 21
8.5
 12
0.0
 22
0.0
 32
0.0
 14
0.0
 24
0.0
 34
0.0
 15
0.0
 25
0.0
 35
0.0
146
0.0
 13
0.0
 23
0.0
 33
0.0
 16
1.0
 26
0.0
 36
0.0
 17
0.0
 27
1.0
 37
0.0
 76
0
330
203
345
0
346
0
  0
ENDSEC
  0
EOF
