999
DXF file: E:\BT Custom\CADOUTPUT\_FRONT.dxf
999
Pro/ENGINEER 2018400 by Parametric Technology Corporation
  0
SECTION
  2
HEADER
  9
$ACADVER
  1
AC1018
  9
$DWGCODEPAGE
  3
ANSI_1252
  9
$EXTMAX
 10
22.0
 20
17.0
 30
0.0
  9
$EXTMIN
 10
0.0
 20
0.0
 30
0.0
  9
$LIMMIN
 10
0.0
 20
0.0
  9
$LIMMAX
 10
22.0
 20
17.0
  9
$VIEWCTR
 10
11.0
 20
8.5
  9
$VIEWSIZE
 40
17.0
  9
$CLAYER
  8
0
  9
$LTSCALE
 40
1.21
  9
$CELTYPE
  6
BYLAYER
  9
$DIMSCALE
 40
1.0
  9
$DIMASZ
 40
0.1
  9
$DIMEXO
 40
0.0625
  9
$DIMDLI
 40
0.836
  9
$DIMEXE
 40
0.125
  9
$DIMCEN
 40
0.198
  9
$DIMLFAC
 40
1.0
  9
$DIMBLK
  1
_FILLED
  9
$DIMALT
 70
1
  9
$DIMALTD
 70
2
  9
$DIMALTTD
 70
2
  9
$DIMALTF
 40
25.4
  9
$DIMTXT
 40
0.08
  9
$DIMTOL
 70
1
  9
$DIMLIM
 70
0
  9
$DIMTFAC
 40
1.0
  9
$DIMTP
 40
0.001
  9
$DIMTM
 40
0.001
  9
$DIMGAP
 40
0.09
  9
$DIMDSEP
 70
46
  9
$AUNITS
 70
0
  9
$PDMODE
 70
3
  9
$PDSIZE
 40
0.06
  9
$HANDSEED
  5
3B6
  9
$TILEMODE
 70
1
  9
$MEASUREMENT
 70
0
  9
$INSUNITS
 70
1
  0
ENDSEC
  0
SECTION
  2
CLASSES
  0
CLASS
  1
ACDBDICTIONARYWDFLT
  2
AcDbDictionaryWithDefault
  3
AutoCAD 2000
 90
0
 91
1
280
0
281
0
  0
CLASS
  1
ACDBPLACEHOLDER
  2
AcDbPlaceHolder
  3
AutoCAD 2000
 90
0
 91
1
280
0
281
0
  0
CLASS
  1
LAYOUT
  2
AcDbLayout
  3
AutoCAD 2000
 90
0
 91
0
280
0
281
0
  0
ENDSEC
  0
SECTION
  2
TABLES
  0
TABLE
  2
VPORT
  5
8
100
AcDbSymbolTable
 70
2
  0
VPORT
  5
1F4
100
AcDbSymbolTableRecord
100
AcDbViewportTableRecord
  2
*ACTIVE
 70
0
 10
0.0
 20
0.0
 11
1.0
 21
1.0
 12
11.0
 22
8.5
 13
0.0
 23
0.0
 14
1.0
 24
1.0
 15
0.0
 25
0.0
 16
0.0
 26
0.0
 36
1.0
 17
0.0
 27
0.0
 37
0.0
 40
17.0
 41
1.2941176471
 42
50.0
 43
0.0
 44
0.0
 50
0.0
 51
0.0
 71
0
 72
100
 73
1
 74
1
 75
0
 76
0
 77
0
 78
0
  0
ENDTAB
  0
TABLE
  2
LTYPE
  5
5
100
AcDbSymbolTable
 70
6
  0
LTYPE
  5
14
100
AcDbSymbolTableRecord
100
AcDbLinetypeTableRecord
  2
BYBLOCK
 70
0
  3

 72
65
 73
0
 40
0.0
  0
LTYPE
  5
15
100
AcDbSymbolTableRecord
100
AcDbLinetypeTableRecord
  2
BYLAYER
 70
0
  3

 72
65
 73
0
 40
0.0
  0
LTYPE
  5
16
100
AcDbSymbolTableRecord
100
AcDbLinetypeTableRecord
  2
CONTINUOUS
 70
64
  3
Solid line
 72
65
 73
0
 40
0.0
  0
LTYPE
  5
1F5
100
AcDbSymbolTableRecord
100
AcDbLinetypeTableRecord
  2
CENTER
 70
64
  3
____ _ ____ _ ____ _ ____ _ ____ _ ____ _ ____
 72
65
 73
4
 40
0.6
 49
0.375
 74
0
 49
-0.075
 74
0
 49
0.075
 74
0
 49
-0.075
 74
0
  0
LTYPE
  5
1F6
100
AcDbSymbolTableRecord
100
AcDbLinetypeTableRecord
  2
HIDDEN
 70
64
  3
- - - - - - - - - - - - - - - - - - - -
 72
65
 73
2
 40
0.2
 49
0.1
 74
0
 49
-0.1
 74
0
  0
LTYPE
  5
1F7
100
AcDbSymbolTableRecord
100
AcDbLinetypeTableRecord
  2
PHANTOM
 70
64
  3
_____ _ _ _____ _ _ _____ _ _ _____
 72
65
 73
6
 40
0.8
 49
0.45
 74
0
 49
-0.05
 74
0
 49
0.1
 74
0
 49
-0.05
 74
0
 49
0.1
 74
0
 49
-0.05
 74
0
  0
LTYPE
  5
1F8
100
AcDbSymbolTableRecord
100
AcDbLinetypeTableRecord
  2
DOT
 70
64
  3
. . . . . . . . . . . . . . . . . . . .
 72
65
 73
2
 40
0.2
 49
0.1
 74
0
 49
-0.1
 74
0
  0
LTYPE
  5
1F9
100
AcDbSymbolTableRecord
100
AcDbLinetypeTableRecord
  2
DASHED
 70
64
  3
- - - - - - - - - - - - - - - - - - - -
 72
65
 73
2
 40
0.2
 49
0.1
 74
0
 49
-0.1
 74
0
  0
ENDTAB
  0
TABLE
  2
LAYER
  5
2
100
AcDbSymbolTable
 70
36
  0
LAYER
  5
10
100
AcDbSymbolTableRecord
100
AcDbLayerTableRecord
  2
0
 70
0
 62
7
  6
CONTINUOUS
370
-3
390
F
  0
LAYER
  5
1FA
100
AcDbSymbolTableRecord
100
AcDbLayerTableRecord
  2
DEFAULT_1
 70
0
 62
7
  6
CENTER
370
-3
390
F
  0
LAYER
  5
1FB
100
AcDbSymbolTableRecord
100
AcDbLayerTableRecord
  2
DEFAULT_2
 70
0
 62
8
  6
HIDDEN
370
-3
390
F
  0
LAYER
  5
1FC
100
AcDbSymbolTableRecord
100
AcDbLayerTableRecord
  2
DEFAULT_3
 70
0
 62
7
  6
PHANTOM
370
-3
390
F
  0
LAYER
  5
1FD
100
AcDbSymbolTableRecord
100
AcDbLayerTableRecord
  2
ALL_FEATURES
 70
0
 62
7
  6
CONTINUOUS
370
-3
390
F
  0
LAYER
  5
1FE
100
AcDbSymbolTableRecord
100
AcDbLayerTableRecord
  2
AXES_FEATURES
 70
0
 62
7
  6
CONTINUOUS
370
-3
390
F
  0
LAYER
  5
1FF
100
AcDbSymbolTableRecord
100
AcDbLayerTableRecord
  2
DEFAULT_COORDINATE_SYSTEM
 70
0
 62
7
  6
CONTINUOUS
370
-3
390
F
  0
LAYER
  5
200
100
AcDbSymbolTableRecord
100
AcDbLayerTableRecord
  2
DEFAULT_DATUM_AXES
 70
0
 62
7
  6
CONTINUOUS
370
-3
390
F
  0
LAYER
  5
201
100
AcDbSymbolTableRecord
100
AcDbLayerTableRecord
  2
DEFAULT_DATUM_PLANES
 70
0
 62
7
  6
CONTINUOUS
370
-3
390
F
  0
LAYER
  5
202
100
AcDbSymbolTableRecord
100
AcDbLayerTableRecord
  2
DIMENSIONS
 70
0
 62
7
  6
CONTINUOUS
370
-3
390
F
  0
ENDTAB
  0
TABLE
  2
STYLE
  5
3
100
AcDbSymbolTable
 70
1
  0
STYLE
  5
11
100
AcDbSymbolTableRecord
100
AcDbTextStyleTableRecord
  2
STANDARD
 70
0
 40
0.0
 41
0.8
 50
0.0
 71
0
 42
0.2
  3
txt
  4

  0
STYLE
  5
203
100
AcDbSymbolTableRecord
100
AcDbTextStyleTableRecord
  2
TEXTSTYLE_1
 70
0
 40
0.0
 41
0.8
 50
0.0
 71
0
 42
0.2
  3
gdt
  4

  0
ENDTAB
  0
TABLE
  2
VIEW
  5
6
100
AcDbSymbolTable
 70
0
  0
ENDTAB
  0
TABLE
  2
UCS
  5
7
100
AcDbSymbolTable
 70
0
  0
ENDTAB
  0
TABLE
  2
APPID
  5
9
100
AcDbSymbolTable
 70
1
  0
APPID
  5
204
100
AcDbSymbolTableRecord
100
AcDbRegAppTableRecord
  2
ACAD
 70
0
  0
ENDTAB
  0
TABLE
  2
BLOCK_RECORD
  5
1
100
AcDbSymbolTable
 70
0
  0
BLOCK_RECORD
  5
205
100
AcDbSymbolTableRecord
100
AcDbBlockTableRecord
  2
*Model_Space
  0
BLOCK_RECORD
  5
206
100
AcDbSymbolTableRecord
100
AcDbBlockTableRecord
  2
*Paper_Space
  0
BLOCK_RECORD
  5
207
100
AcDbSymbolTableRecord
100
AcDbBlockTableRecord
  2
_FILLED
  0
ENDTAB
  0
TABLE
  2
DIMSTYLE
  5
A
100
AcDbSymbolTable
 70
1
100
AcDbDimStyleTable
 71
0
  0
DIMSTYLE
105
208
100
AcDbSymbolTableRecord
100
AcDbDimStyleTableRecord
  2
STANDARD
 70
0
  3

  4

 40
1.0
 41
0.1
 42
0.0625
 43
0.38
 44
0.125
 45
0.0
 46
0.0
 47
0.001
 48
0.001
140
0.08
141
0.09
142
0.0
143
25.4
144
1.0
145
0.0
146
1.0
147
0.09
 71
1.0
 72
0.0
 73
1
 74
1
 75
0
 76
0
 77
0
 78
4
 79
1
170
1
171
2
172
0
173
0
174
0
175
0
176
0
177
0
178
0
270
2
179
3
271
3
272
3
273
2
274
2
275
0
280
0
281
0
282
0
283
1
284
4
285
0
286
0
287
3
288
0
340
11
278
46
341
207
342
207
343
207
344
207
  0
ENDTAB
  0
ENDSEC
  0
SECTION
  2
BLOCKS
  0
BLOCK
  5
20
100
AcDbEntity
  8
0
100
AcDbBlockBegin
  2
*Model_Space
 70
0
 10
0.0
 20
0.0
 30
0.0
  3
*Model_Space
  1

  0
ENDBLK
  5
21
100
AcDbEntity
  8
0
100
AcDbBlockEnd
  0
BLOCK
  5
1C
100
AcDbEntity
  8
0
100
AcDbBlockBegin
  2
*Paper_Space
 70
0
 10
0.0
 20
0.0
 30
0.0
  3
*Paper_Space
  1

  0
ENDBLK
  5
1D
100
AcDbEntity
  8
0
100
AcDbBlockEnd
  0
BLOCK
  5
209
100
AcDbEntity
  8
0
100
AcDbBlockBegin
  2
_FILLED
 70
64
 10
0.0
 20
0.0
  3
_FILLED
  1

  0
SOLID
  5
20A
100
AcDbEntity
  8
0
  6
BYBLOCK
 62
0
100
AcDbTrace
 10
0.0
 20
0.0
 11
-1.0
 21
0.2
 12
-1.0
 22
-0.2
 13
-1.0
 23
-0.2
  0
ENDBLK
  5
20B
100
AcDbEntity
  8
0
  6
BYBLOCK
 62
0
100
AcDbBlockEnd
  0
ENDSEC
  0
SECTION
  2
ENTITIES
  0
LINE
  5
20C
100
AcDbEntity
  8
0
100
AcDbLine
 62
7
  6
CONTINUOUS
 10
12.0001923427
 20
4.5552946624
 11
9.8751923427
 21
4.5552946624
  0
LINE
  5
20D
100
AcDbEntity
  8
0
100
AcDbLine
 62
9
  6
CONTINUOUS
 10
9.8751923427
 20
4.6357768621
 11
12.0001923427
 21
4.6357768621
  0
LINE
  5
20E
100
AcDbEntity
  8
0
100
AcDbLine
 62
9
  6
CONTINUOUS
 10
11.9944694855
 20
4.6401741125
 11
11.5604388368
 21
4.6401741125
  0
LINE
  5
20F
100
AcDbEntity
  8
0
100
AcDbLine
 62
9
  6
CONTINUOUS
 10
11.3717225394
 20
4.6401741125
 11
10.5036616368
 21
4.6401741125
  0
LINE
  5
210
100
AcDbEntity
  8
0
100
AcDbLine
 62
9
  6
CONTINUOUS
 10
10.3149453966
 20
4.6401741125
 11
9.8809151428
 21
4.6401741125
  0
LINE
  5
211
100
AcDbEntity
  8
0
100
AcDbLine
 62
7
  6
CONTINUOUS
 10
11.9785779139
 20
4.6552946624
 11
11.551074118
 21
4.6552946624
  0
LINE
  5
212
100
AcDbEntity
  8
0
100
AcDbLine
 62
7
  6
CONTINUOUS
 10
11.3651956935
 20
4.6552946624
 11
10.5101884904
 21
4.6552946624
  0
LINE
  5
213
100
AcDbEntity
  8
0
100
AcDbLine
 62
7
  6
CONTINUOUS
 10
10.3243101223
 20
4.6552946624
 11
9.8968067152
 21
4.6552946624
  0
LINE
  5
214
100
AcDbEntity
  8
0
100
AcDbLine
 62
9
  6
CONTINUOUS
 10
9.884180932
 20
4.6726194942
 11
9.8852703065
 21
4.6726194942
  0
LINE
  5
215
100
AcDbEntity
  8
0
100
AcDbLine
 62
9
  6
CONTINUOUS
 10
10.3700010827
 20
4.6726194942
 11
10.4529615943
 21
4.6726194942
  0
LINE
  5
216
100
AcDbEntity
  8
0
100
AcDbLine
 62
9
  6
CONTINUOUS
 10
11.4224231203
 20
4.6726194942
 11
11.5053836304
 21
4.6726194942
  0
LINE
  5
217
100
AcDbEntity
  8
0
100
AcDbLine
 62
9
  6
CONTINUOUS
 10
11.9901143804
 20
4.6726194942
 11
11.9912037535
 21
4.6726194942
  0
LINE
  5
218
100
AcDbEntity
  8
0
100
AcDbLine
 62
9
  6
CONTINUOUS
 10
11.9073812286
 20
4.6822680174
 11
11.5506655839
 21
4.6822680174
  0
LINE
  5
219
100
AcDbEntity
  8
0
100
AcDbLine
 62
9
  6
CONTINUOUS
 10
11.2944079873
 20
4.6822680174
 11
10.5809766981
 21
4.6822680174
  0
LINE
  5
21A
100
AcDbEntity
  8
0
100
AcDbLine
 62
9
  6
CONTINUOUS
 10
10.3247191014
 20
4.6822680174
 11
9.9680034569
 21
4.6822680174
  0
LINE
  5
21B
100
AcDbEntity
  8
0
100
AcDbLine
 62
9
  6
CONTINUOUS
 10
11.8662791096
 20
4.7606880045
 11
11.5297014238
 21
4.7606880045
  0
LINE
  5
21C
100
AcDbEntity
  8
0
100
AcDbLine
 62
9
  6
CONTINUOUS
 10
11.2742700285
 20
4.7606880045
 11
10.601114657
 21
4.7606880045
  0
LINE
  5
21D
100
AcDbEntity
  8
0
100
AcDbLine
 62
9
  6
CONTINUOUS
 10
10.3456832617
 20
4.7606880045
 11
10.0091055759
 21
4.7606880045
  0
LINE
  5
21E
100
AcDbEntity
  8
0
100
AcDbLine
 62
9
  6
CONTINUOUS
 10
11.8466407008
 20
4.8435839268
 11
11.5152911
 21
4.8435839268
  0
LINE
  5
21F
100
AcDbEntity
  8
0
100
AcDbLine
 62
9
  6
CONTINUOUS
 10
11.2690419435
 20
4.8435839268
 11
10.6063427419
 21
4.8435839268
  0
LINE
  5
220
100
AcDbEntity
  8
0
100
AcDbLine
 62
9
  6
CONTINUOUS
 10
10.3600935854
 20
4.8435839268
 11
10.0287439847
 21
4.8435839268
  0
LINE
  5
221
100
AcDbEntity
  8
0
100
AcDbLine
 62
9
  6
CONTINUOUS
 10
10.5730748774
 20
4.9260497071
 11
11.3023098007
 21
4.9260497357
  0
LINE
  5
222
100
AcDbEntity
  8
0
100
AcDbLine
 62
9
  6
CONTINUOUS
 10
11.4868824672
 20
4.9260497071
 11
11.8514999316
 21
4.9260497357
  0
LINE
  5
223
100
AcDbEntity
  8
0
100
AcDbLine
 62
9
  6
CONTINUOUS
 10
10.0238847529
 20
4.9260497071
 11
10.3885022119
 21
4.9260497357
  0
LINE
  5
224
100
AcDbEntity
  8
0
100
AcDbLine
 62
9
  6
CONTINUOUS
 10
11.8497157273
 20
4.9334176935
 11
11.4857997358
 21
4.9334176935
  0
LINE
  5
225
100
AcDbEntity
  8
0
100
AcDbLine
 62
9
  6
CONTINUOUS
 10
11.3016084958
 20
4.9334176935
 11
10.5737764097
 21
4.9334176935
  0
LINE
  5
226
100
AcDbEntity
  8
0
100
AcDbLine
 62
9
  6
CONTINUOUS
 10
10.3895851151
 20
4.9334176935
 11
10.0256689898
 21
4.9334176935
  0
LINE
  5
227
100
AcDbEntity
  8
0
100
AcDbLine
 62
9
  6
CONTINUOUS
 10
10.0298165915
 20
4.9533213075
 11
11.845568094
 21
4.9533213075
  0
LINE
  5
228
100
AcDbEntity
  8
0
100
AcDbLine
 62
7
  6
CONTINUOUS
 10
10.0741987232
 20
4.9802946624
 11
11.8011859623
 21
4.9802946624
  0
LINE
  5
229
100
AcDbEntity
  8
0
100
AcDbLine
 62
9
  6
CONTINUOUS
 10
9.8975737415
 20
4.6968754317
 11
9.9044078898
 21
4.693334293
  0
LINE
  5
22A
100
AcDbEntity
  8
0
100
AcDbLine
 62
9
  6
CONTINUOUS
 10
9.9476088588
 20
4.7932379141
 11
9.9544939234
 21
4.7896707911
  0
LINE
  5
22B
100
AcDbEntity
  8
0
100
AcDbLine
 62
7
  6
CONTINUOUS
 10
11.53341593
 20
4.658020505
 11
11.5334137164
 21
4.6580212676
  0
LINE
  5
22C
100
AcDbEntity
  8
0
100
AcDbLine
 62
7
  6
CONTINUOUS
 10
11.5334146696
 20
4.6580209834
 11
11.5314303619
 21
4.6587565145
  0
LINE
  5
22D
100
AcDbEntity
  8
0
100
AcDbLine
 62
7
  6
CONTINUOUS
 10
11.5314303619
 20
4.6587565145
 11
11.5287687291
 21
4.6599143241
  0
LINE
  5
22E
100
AcDbEntity
  8
0
100
AcDbLine
 62
7
  6
CONTINUOUS
 10
11.5288278141
 20
4.6598863853
 11
11.5262402736
 21
4.6612105808
  0
LINE
  5
22F
100
AcDbEntity
  8
0
100
AcDbLine
 62
7
  6
CONTINUOUS
 10
11.526299062
 20
4.6611780688
 11
11.5237887739
 21
4.6626652462
  0
LINE
  5
230
100
AcDbEntity
  8
0
100
AcDbLine
 62
7
  6
CONTINUOUS
 10
12.1786923427
 20
5.7962946624
 11
12.0876923427
 21
5.7962946624
  0
LINE
  5
231
100
AcDbEntity
  8
0
100
AcDbLine
 62
7
  6
CONTINUOUS
 10
9.6966923427
 20
5.7962946624
 11
9.7876923427
 21
5.7962946624
  0
LINE
  5
232
100
AcDbEntity
  8
0
100
AcDbLine
 62
7
  6
CONTINUOUS
 10
10.1419195229
 20
5.9062946624
 11
9.7876923427
 21
5.9062946624
  0
LINE
  5
233
100
AcDbEntity
  8
0
100
AcDbLine
 62
7
  6
CONTINUOUS
 10
11.7334651625
 20
5.9062946624
 11
12.0876923427
 21
5.9062946624
  0
LINE
  5
234
100
AcDbEntity
  8
0
100
AcDbLine
 62
7
  6
CONTINUOUS
 10
13.4576923427
 20
5.9412946624
 11
12.7222934231
 21
5.9412946624
  0
LINE
  5
235
100
AcDbEntity
  8
0
100
AcDbLine
 62
7
  6
CONTINUOUS
 10
8.4176923427
 20
5.9412946624
 11
9.1530912624
 21
5.9412946624
  0
LINE
  5
236
100
AcDbEntity
  8
0
100
AcDbLine
 62
7
  6
CONTINUOUS
 10
11.5238472078
 20
4.6626281426
 11
11.5214206997
 21
4.6642721038
  0
LINE
  5
237
100
AcDbEntity
  8
0
100
AcDbLine
 62
7
  6
CONTINUOUS
 10
11.5214779076
 20
4.6642308238
 11
11.5192031528
 21
4.6659721024
  0
LINE
  5
238
100
AcDbEntity
  8
0
100
AcDbLine
 62
7
  6
CONTINUOUS
 10
11.5192031528
 20
4.6659721024
 11
11.5170407978
 21
4.6678294106
  0
LWPOLYLINE
  5
239
100
AcDbEntity
  8
0
100
AcDbPolyline
 62
7
  6
CONTINUOUS
 90
4
 70
0
 10
11.5170407978
 20
4.6678294106
 10
11.5150094581
 20
4.6697720014
 10
11.5131283959
 20
4.6717620145
 10
11.5114149155
 20
4.6737532357
  0
LINE
  5
23A
100
AcDbEntity
  8
0
100
AcDbLine
 62
7
  6
CONTINUOUS
 10
8.4869236288
 20
7.3225564319
 11
8.4521404631
 21
8.6508719405
  0
LINE
  5
23B
100
AcDbEntity
  8
0
100
AcDbLine
 62
7
  6
CONTINUOUS
 10
8.3176923427
 20
6.8512946624
 11
8.3176923427
 21
5.9312946624
  0
LINE
  5
23C
100
AcDbEntity
  8
0
100
AcDbLine
 62
7
  6
CONTINUOUS
 10
8.3586923427
 20
8.9812946624
 11
8.3586923427
 21
9.0572946624
  0
LINE
  5
23D
100
AcDbEntity
  8
0
100
AcDbLine
 62
7
  6
CONTINUOUS
 10
8.4176923427
 20
6.8512946624
 11
8.4176923427
 21
5.9312946624
  0
LINE
  5
23E
100
AcDbEntity
  8
0
100
AcDbLine
 62
7
  6
CONTINUOUS
 10
8.4281923427
 20
7.1907946624
 11
8.4281923427
 21
7.3022946624
  0
LINE
  5
23F
100
AcDbEntity
  8
0
100
AcDbLine
 62
7
  6
CONTINUOUS
 10
8.5661923427
 20
7.0962946624
 11
8.5661923427
 21
6.8382235051
  0
LINE
  5
240
100
AcDbEntity
  8
0
100
AcDbLine
 62
7
  6
CONTINUOUS
 10
13.4576923427
 20
6.8412946624
 11
13.3166923427
 21
6.8412946624
  0
LINE
  5
241
100
AcDbEntity
  8
0
100
AcDbLine
 62
7
  6
CONTINUOUS
 10
12.9416923427
 20
6.8412946624
 11
12.7222934231
 21
6.8412946624
  0
LINE
  5
242
100
AcDbEntity
  8
0
100
AcDbLine
 62
7
  6
CONTINUOUS
 10
8.4176923427
 20
6.8412946624
 11
8.5586923427
 21
6.8412946624
  0
LINE
  5
243
100
AcDbEntity
  8
0
100
AcDbLine
 62
7
  6
CONTINUOUS
 10
8.9336923427
 20
6.8412946624
 11
9.1530912624
 21
6.8412946624
  0
LINE
  5
244
100
AcDbEntity
  8
0
100
AcDbLine
 62
7
  6
CONTINUOUS
 10
10.1419195225
 20
6.8762946624
 11
9.7876923427
 21
6.8762946624
  0
LINE
  5
245
100
AcDbEntity
  8
0
100
AcDbLine
 62
7
  6
CONTINUOUS
 10
11.7334651628
 20
6.8762946624
 11
12.0876923427
 21
6.8762946624
  0
LINE
  5
246
100
AcDbEntity
  8
0
100
AcDbLine
 62
7
  6
CONTINUOUS
 10
12.1786923427
 20
6.9862946624
 11
12.0876923427
 21
6.9862946624
  0
LINE
  5
247
100
AcDbEntity
  8
0
100
AcDbLine
 62
7
  6
CONTINUOUS
 10
9.6966923427
 20
6.9862946624
 11
9.7876923427
 21
6.9862946624
  0
LINE
  5
248
100
AcDbEntity
  8
0
100
AcDbLine
 62
7
  6
CONTINUOUS
 10
8.5226924481
 20
7.0962946624
 11
8.9696923427
 21
7.0962946624
  0
LINE
  5
249
100
AcDbEntity
  8
0
100
AcDbLine
 62
7
  6
CONTINUOUS
 10
12.9056924481
 20
7.0962946624
 11
13.3526923427
 21
7.0962946624
  0
LINE
  5
24A
100
AcDbEntity
  8
0
100
AcDbLine
 62
7
  6
CONTINUOUS
 10
11.5114149155
 20
4.6737532357
 11
11.5103729355
 21
4.6750577192
  0
LWPOLYLINE
  5
24B
100
AcDbEntity
  8
0
100
AcDbPolyline
 62
7
  6
CONTINUOUS
 90
7
 70
0
 10
11.5103729082
 20
4.6750577544
 10
11.5087805739
 20
4.6772196681
 10
11.5067493749
 20
4.6803529327
 10
11.5049238811
 20
4.6836607995
 10
11.5033360825
 20
4.6871122599
 10
11.5020138985
 20
4.6906719796
 10
11.5011723332
 20
4.6935339996
  0
LINE
  5
24C
100
AcDbEntity
  8
0
100
AcDbLine
 62
7
  6
CONTINUOUS
 10
8.9261923427
 20
7.0962946624
 11
8.9261923427
 21
6.838223506
  0
LINE
  5
24D
100
AcDbEntity
  8
0
100
AcDbLine
 62
7
  6
CONTINUOUS
 10
9.0641923427
 20
7.1907946624
 11
9.0641923427
 21
7.3022946624
  0
LINE
  5
24E
100
AcDbEntity
  8
0
100
AcDbLine
 62
7
  6
CONTINUOUS
 10
9.1336923427
 20
8.9812946624
 11
9.1336923427
 21
9.0572946624
  0
LINE
  5
24F
100
AcDbEntity
  8
0
100
AcDbLine
 62
9
  6
CONTINUOUS
 10
9.1530912624
 20
5.9412946624
 11
9.1530912624
 21
6.8412946624
  0
LINE
  5
250
100
AcDbEntity
  8
0
100
AcDbLine
 62
7
  6
CONTINUOUS
 10
9.0054610566
 20
7.3225564319
 11
9.0402442224
 21
8.6508719405
  0
LINE
  5
251
100
AcDbEntity
  8
0
100
AcDbLine
 62
7
  6
CONTINUOUS
 10
10.6136475945
 20
11.6337072529
 11
10.6135817457
 21
11.6336302847
  0
LINE
  5
252
100
AcDbEntity
  8
0
100
AcDbLine
 62
9
  6
CONTINUOUS
 10
8.4281923427
 20
7.1907946624
 11
9.0641923427
 21
7.1907946624
  0
LINE
  5
253
100
AcDbEntity
  8
0
100
AcDbLine
 62
9
  6
CONTINUOUS
 10
12.8111923427
 20
7.1907946624
 11
13.4471923427
 21
7.1907946624
  0
LINE
  5
254
100
AcDbEntity
  8
0
100
AcDbLine
 62
9
  6
CONTINUOUS
 10
8.4281923427
 20
7.3022946624
 11
9.0641923427
 21
7.3022946624
  0
LINE
  5
255
100
AcDbEntity
  8
0
100
AcDbLine
 62
9
  6
CONTINUOUS
 10
12.8111923427
 20
7.3022946624
 11
13.4471923427
 21
7.3022946624
  0
LINE
  5
256
100
AcDbEntity
  8
0
100
AcDbLine
 62
7
  6
CONTINUOUS
 10
8.4381923427
 20
7.3122946624
 11
9.0541923427
 21
7.3122946624
  0
LINE
  5
257
100
AcDbEntity
  8
0
100
AcDbLine
 62
7
  6
CONTINUOUS
 10
12.8211923427
 20
7.3122946624
 11
13.4371923427
 21
7.3122946624
  0
LINE
  5
258
100
AcDbEntity
  8
0
100
AcDbLine
 62
9
  6
CONTINUOUS
 10
13.3884610566
 20
7.3225564319
 11
12.8699236288
 21
7.3225564319
  0
LINE
  5
259
100
AcDbEntity
  8
0
100
AcDbLine
 62
9
  6
CONTINUOUS
 10
9.0054610566
 20
7.3225564319
 11
8.4869236288
 21
7.3225564319
  0
LINE
  5
25A
100
AcDbEntity
  8
0
100
AcDbLine
 62
7
  6
CONTINUOUS
 10
10.0426923427
 20
7.3302946624
 11
11.8326923427
 21
7.3302946624
  0
LINE
  5
25B
100
AcDbEntity
  8
0
100
AcDbLine
 62
9
  6
CONTINUOUS
 10
10.0226923427
 20
7.3502946624
 11
11.8526923427
 21
7.3502946624
  0
LINE
  5
25C
100
AcDbEntity
  8
0
100
AcDbLine
 62
9
  6
CONTINUOUS
 10
11.8526923427
 20
7.4522346768
 11
10.0226923427
 21
7.4522346768
  0
LINE
  5
25D
100
AcDbEntity
  8
0
100
AcDbLine
 62
9
  6
CONTINUOUS
 10
9.1976158343
 20
5.9140446624
 11
9.1976158343
 21
6.8685446624
  0
LINE
  5
25E
100
AcDbEntity
  8
0
100
AcDbLine
 62
9
  6
CONTINUOUS
 10
9.244366783
 20
5.8868442546
 11
9.244366783
 21
6.8957450703
  0
LINE
  5
25F
100
AcDbEntity
  8
0
100
AcDbLine
 62
9
  6
CONTINUOUS
 10
11.7606923427
 20
7.5772946624
 11
10.1146923427
 21
7.5772946624
  0
LINE
  5
260
100
AcDbEntity
  8
0
100
AcDbLine
 62
9
  6
CONTINUOUS
 10
11.5912504939
 20
7.7632946624
 11
10.2841341916
 21
7.7632946624
  0
LINE
  5
261
100
AcDbEntity
  8
0
100
AcDbLine
 62
9
  6
CONTINUOUS
 10
11.5708628897
 20
7.7972946624
 11
10.3045217958
 21
7.7972946624
  0
LINE
  5
262
100
AcDbEntity
  8
0
100
AcDbLine
 62
9
  6
CONTINUOUS
 10
11.5433961005
 20
7.8152737842
 11
10.331988585
 21
7.8152737842
  0
LINE
  5
263
100
AcDbEntity
  8
0
100
AcDbLine
 62
9
  6
CONTINUOUS
 10
11.4344752624
 20
7.8559822409
 11
10.440909423
 21
7.8559822409
  0
LINE
  5
264
100
AcDbEntity
  8
0
100
AcDbLine
 62
7
  6
CONTINUOUS
 10
11.3996923427
 20
7.8612946624
 11
10.4756923427
 21
7.8612946624
  0
LINE
  5
265
100
AcDbEntity
  8
0
100
AcDbLine
 62
9
  6
CONTINUOUS
 10
9.6649807445
 20
5.8033286817
 11
9.6649807445
 21
6.9792606432
  0
LINE
  5
266
100
AcDbEntity
  8
0
100
AcDbLine
 62
9
  6
CONTINUOUS
 10
9.6966923427
 20
5.7962946624
 11
9.6966923427
 21
6.9862946624
  0
LINE
  5
267
100
AcDbEntity
  8
0
100
AcDbLine
 62
7
  6
CONTINUOUS
 10
9.7876923427
 20
6.9862946624
 11
9.7876923427
 21
5.7962946624
  0
LINE
  5
268
100
AcDbEntity
  8
0
100
AcDbLine
 62
7
  6
CONTINUOUS
 10
9.8751923427
 20
4.5552946624
 11
9.8751923427
 21
4.6357768621
  0
LINE
  5
269
100
AcDbEntity
  8
0
100
AcDbLine
 62
7
  6
CONTINUOUS
 10
11.2520063785
 20
11.4997748789
 11
11.2555967387
 21
11.5036636765
  0
LINE
  5
26A
100
AcDbEntity
  8
0
100
AcDbLine
 62
9
  6
CONTINUOUS
 10
11.2520063785
 20
11.4997748789
 11
11.2520008045
 21
11.4997690175
  0
LINE
  5
26B
100
AcDbEntity
  8
0
100
AcDbLine
 62
7
  6
CONTINUOUS
 10
11.225408309
 20
11.1847900587
 11
11.2253085431
 21
11.1846894162
  0
LINE
  5
26C
100
AcDbEntity
  8
0
100
AcDbLine
 62
7
  6
CONTINUOUS
 10
11.9912037535
 20
4.6726194942
 11
11.845568094
 21
4.9533213075
  0
LINE
  5
26D
100
AcDbEntity
  8
0
100
AcDbLine
 62
7
  6
CONTINUOUS
 10
10.0226923427
 20
7.3502946624
 11
10.0226923427
 21
7.4522346768
  0
LINE
  5
26E
100
AcDbEntity
  8
0
100
AcDbLine
 62
7
  6
CONTINUOUS
 10
10.1326923427
 20
4.9802946624
 11
10.1326923427
 21
5.8912946624
  0
LINE
  5
26F
100
AcDbEntity
  8
0
100
AcDbLine
 62
7
  6
CONTINUOUS
 10
10.1326923427
 20
6.8912946624
 11
10.1326923427
 21
7.3302946624
  0
LINE
  5
270
100
AcDbEntity
  8
0
100
AcDbLine
 62
7
  6
CONTINUOUS
 10
10.5931656297
 20
11.5931735422
 11
10.5928819504
 21
11.5916954569
  0
LINE
  5
271
100
AcDbEntity
  8
0
100
AcDbLine
 62
7
  6
CONTINUOUS
 10
10.6537812723
 20
11.3385084793
 11
10.6542649521
 21
11.361745653
  0
LINE
  5
272
100
AcDbEntity
  8
0
100
AcDbLine
 62
9
  6
CONTINUOUS
 10
8.4521404631
 20
8.6508719405
 11
9.0402442224
 21
8.6508719405
  0
LINE
  5
273
100
AcDbEntity
  8
0
100
AcDbLine
 62
9
  6
CONTINUOUS
 10
12.8351404631
 20
8.6508719405
 11
13.4232442224
 21
8.6508719405
  0
LINE
  5
274
100
AcDbEntity
  8
0
100
AcDbLine
 62
9
  6
CONTINUOUS
 10
8.4101588137
 20
8.7952491644
 11
9.0822258718
 21
8.7952491644
  0
LINE
  5
275
100
AcDbEntity
  8
0
100
AcDbLine
 62
9
  6
CONTINUOUS
 10
12.7931588137
 20
8.7952491644
 11
13.4652258718
 21
8.7952491644
  0
LINE
  5
276
100
AcDbEntity
  8
0
100
AcDbLine
 62
7
  6
CONTINUOUS
 10
11.5011723241
 20
4.6935342031
 11
11.4761070799
 21
4.7898976421
  0
LWPOLYLINE
  5
277
100
AcDbEntity
  8
0
100
AcDbPolyline
 62
7
  6
CONTINUOUS
 90
3
 70
0
 10
11.4761071632
 20
4.7898973216
 10
11.4742841637
 20
4.7970734103
 10
11.4724683564
 20
4.8046081959
  0
LINE
  5
278
100
AcDbEntity
  8
0
100
AcDbLine
 62
7
  6
CONTINUOUS
 10
11.4724683564
 20
4.8046081959
 11
11.4717833954
 21
4.8075745704
  0
LINE
  5
279
100
AcDbEntity
  8
0
100
AcDbLine
 62
9
  6
CONTINUOUS
 10
11.4717833954
 20
4.8075745704
 11
11.4701393616
 21
4.8150263487
  0
LINE
  5
27A
100
AcDbEntity
  8
0
100
AcDbLine
 62
9
  6
CONTINUOUS
 10
10.6491792089
 20
11.4411548904
 11
10.6488997968
 21
11.4454987647
  0
LINE
  5
27B
100
AcDbEntity
  8
0
100
AcDbLine
 62
7
  6
CONTINUOUS
 10
10.6876923427
 20
13.7302882317
 11
10.6876923427
 21
11.6833385224
  0
LINE
  5
27C
100
AcDbEntity
  8
0
100
AcDbLine
 62
7
  6
CONTINUOUS
 10
10.6876923427
 20
7.8612946624
 11
10.6876923427
 21
11.1579012173
  0
LINE
  5
27D
100
AcDbEntity
  8
0
100
AcDbLine
 62
9
  6
CONTINUOUS
 10
8.3586923427
 20
8.9812946624
 11
9.1336923427
 21
8.9812946624
  0
LINE
  5
27E
100
AcDbEntity
  8
0
100
AcDbLine
 62
9
  6
CONTINUOUS
 10
12.7416923427
 20
8.9812946624
 11
13.5166923427
 21
8.9812946624
  0
LINE
  5
27F
100
AcDbEntity
  8
0
100
AcDbLine
 62
9
  6
CONTINUOUS
 10
8.3586923427
 20
9.0572946624
 11
9.1336923427
 21
9.0572946624
  0
LINE
  5
280
100
AcDbEntity
  8
0
100
AcDbLine
 62
9
  6
CONTINUOUS
 10
12.7416923427
 20
9.0572946624
 11
13.5166923427
 21
9.0572946624
  0
LINE
  5
281
100
AcDbEntity
  8
0
100
AcDbLine
 62
7
  6
CONTINUOUS
 10
8.5586923427
 20
9.0962946624
 11
8.9336922386
 21
9.0962946624
  0
LINE
  5
282
100
AcDbEntity
  8
0
100
AcDbLine
 62
7
  6
CONTINUOUS
 10
12.9416923427
 20
9.0962946624
 11
13.3166922386
 21
9.0962946624
  0
LINE
  5
283
100
AcDbEntity
  8
0
100
AcDbLine
 62
7
  6
CONTINUOUS
 10
11.2211197334
 20
11.361745653
 11
11.2216034158
 21
11.3385084174
  0
LINE
  5
284
100
AcDbEntity
  8
0
100
AcDbLine
 62
7
  6
CONTINUOUS
 10
11.1876923427
 20
13.7302882317
 11
11.1876923427
 21
11.6833751945
  0
LINE
  5
285
100
AcDbEntity
  8
0
100
AcDbLine
 62
7
  6
CONTINUOUS
 10
11.1876923427
 20
7.8612946624
 11
11.1876923427
 21
11.1578957949
  0
LINE
  5
286
100
AcDbEntity
  8
0
100
AcDbLine
 62
9
  6
CONTINUOUS
 10
11.2264848888
 20
11.4454987647
 11
11.2262054766
 21
11.4411548904
  0
LINE
  5
287
100
AcDbEntity
  8
0
100
AcDbLine
 62
9
  6
CONTINUOUS
 10
10.4052453139
 20
4.8150263019
 11
10.4036013596
 21
4.8075748757
  0
LWPOLYLINE
  5
288
100
AcDbEntity
  8
0
100
AcDbPolyline
 62
7
  6
CONTINUOUS
 90
4
 70
0
 10
10.4036013596
 20
4.8075748757
 10
10.4029221149
 20
4.8046329056
 10
10.4011133022
 20
4.797124979
 10
10.3992775316
 20
4.7898973575
  0
LINE
  5
289
100
AcDbEntity
  8
0
100
AcDbLine
 62
7
  6
CONTINUOUS
 10
10.3832490953
 20
4.728278916
 11
10.3742123614
 21
4.6935342031
  0
LINE
  5
28A
100
AcDbEntity
  8
0
100
AcDbLine
 62
7
  6
CONTINUOUS
 10
10.3992776088
 20
4.7898976545
 11
10.3742124326
 21
4.6935343542
  0
LWPOLYLINE
  5
28B
100
AcDbEntity
  8
0
100
AcDbPolyline
 62
7
  6
CONTINUOUS
 90
7
 70
0
 10
10.3742124581
 20
4.6935342328
 10
10.3733920064
 20
4.6907362053
 10
10.3720738856
 20
4.6871731258
 10
10.3704904436
 20
4.6837195564
 10
10.3686704012
 20
4.6804114586
 10
10.3666461205
 20
4.6772797642
 10
10.3650118401
 20
4.675057801
  0
LINE
  5
28C
100
AcDbEntity
  8
0
100
AcDbLine
 62
7
  6
CONTINUOUS
 10
11.7426923427
 20
4.9802946624
 11
11.7426923427
 21
5.8912946624
  0
LINE
  5
28D
100
AcDbEntity
  8
0
100
AcDbLine
 62
7
  6
CONTINUOUS
 10
11.7426923427
 20
6.8912946624
 11
11.7426923427
 21
7.3302946624
  0
LINE
  5
28E
100
AcDbEntity
  8
0
100
AcDbLine
 62
7
  6
CONTINUOUS
 10
11.8526923427
 20
7.3502946624
 11
11.8526923427
 21
7.4522346768
  0
LINE
  5
28F
100
AcDbEntity
  8
0
100
AcDbLine
 62
7
  6
CONTINUOUS
 10
12.0001923427
 20
4.5552946624
 11
12.0001923427
 21
4.6357768621
  0
LINE
  5
290
100
AcDbEntity
  8
0
100
AcDbLine
 62
7
  6
CONTINUOUS
 10
11.2825027351
 20
11.5916954569
 11
11.2822191916
 21
11.5931728592
  0
LINE
  5
291
100
AcDbEntity
  8
0
100
AcDbLine
 62
7
  6
CONTINUOUS
 10
12.0876923427
 20
6.9862946624
 11
12.0876923427
 21
5.7962946624
  0
LINE
  5
292
100
AcDbEntity
  8
0
100
AcDbLine
 62
9
  6
CONTINUOUS
 10
12.1786923427
 20
5.7962946624
 11
12.1786923427
 21
6.9862946624
  0
LINE
  5
293
100
AcDbEntity
  8
0
100
AcDbLine
 62
9
  6
CONTINUOUS
 10
12.210403941
 20
5.8033286817
 11
12.210403941
 21
6.9792606432
  0
LINE
  5
294
100
AcDbEntity
  8
0
100
AcDbLine
 62
7
  6
CONTINUOUS
 10
9.884180932
 20
4.6726194942
 11
10.0298165915
 21
4.9533213075
  0
LINE
  5
295
100
AcDbEntity
  8
0
100
AcDbLine
 62
7
  6
CONTINUOUS
 10
10.6500760781
 20
11.184689481
 11
10.649975468
 21
11.1847909768
  0
LINE
  5
296
100
AcDbEntity
  8
0
100
AcDbLine
 62
9
  6
CONTINUOUS
 10
10.6233841619
 20
11.4997687221
 11
10.6233717487
 21
11.499781777
  0
LINE
  5
297
100
AcDbEntity
  8
0
100
AcDbLine
 62
7
  6
CONTINUOUS
 10
10.6197879469
 20
11.5036636765
 11
10.6233717487
 21
11.499781777
  0
LINE
  5
298
100
AcDbEntity
  8
0
100
AcDbLine
 62
9
  6
CONTINUOUS
 10
11.2346436445
 20
11.2981979894
 11
11.2346408991
 21
11.298201764
  0
LINE
  5
299
100
AcDbEntity
  8
0
100
AcDbLine
 62
9
  6
CONTINUOUS
 10
12.6310179025
 20
5.8868442546
 11
12.6310179025
 21
6.8957450703
  0
LINE
  5
29A
100
AcDbEntity
  8
0
100
AcDbLine
 62
9
  6
CONTINUOUS
 10
12.6777688512
 20
5.9140446624
 11
12.6777688512
 21
6.8685446624
  0
LINE
  5
29B
100
AcDbEntity
  8
0
100
AcDbLine
 62
9
  6
CONTINUOUS
 10
12.7222934231
 20
5.9412946624
 11
12.7222934231
 21
6.8412946624
  0
LINE
  5
29C
100
AcDbEntity
  8
0
100
AcDbLine
 62
7
  6
CONTINUOUS
 10
12.7416923427
 20
8.9812946624
 11
12.7416923427
 21
9.0572946624
  0
LINE
  5
29D
100
AcDbEntity
  8
0
100
AcDbLine
 62
7
  6
CONTINUOUS
 10
11.2618024616
 20
11.6336308444
 11
11.2617371623
 21
11.6337071697
  0
LINE
  5
29E
100
AcDbEntity
  8
0
100
AcDbLine
 62
7
  6
CONTINUOUS
 10
12.8699236288
 20
7.3225564319
 11
12.8351404631
 21
8.6508719405
  0
LINE
  5
29F
100
AcDbEntity
  8
0
100
AcDbLine
 62
7
  6
CONTINUOUS
 10
12.8111923427
 20
7.1907946624
 11
12.8111923427
 21
7.3022946624
  0
LINE
  5
2A0
100
AcDbEntity
  8
0
100
AcDbLine
 62
7
  6
CONTINUOUS
 10
12.9491923427
 20
6.8382240477
 11
12.9491923427
 21
7.0962946624
  0
LINE
  5
2A1
100
AcDbEntity
  8
0
100
AcDbLine
 62
7
  6
CONTINUOUS
 10
13.3091923427
 20
6.8382240484
 11
13.3091923427
 21
7.0962946624
  0
LINE
  5
2A2
100
AcDbEntity
  8
0
100
AcDbLine
 62
7
  6
CONTINUOUS
 10
13.4471923427
 20
7.1907946624
 11
13.4471923427
 21
7.3022946624
  0
LINE
  5
2A3
100
AcDbEntity
  8
0
100
AcDbLine
 62
7
  6
CONTINUOUS
 10
13.4576923427
 20
6.8512946624
 11
13.4576923427
 21
5.9312946624
  0
LINE
  5
2A4
100
AcDbEntity
  8
0
100
AcDbLine
 62
7
  6
CONTINUOUS
 10
13.3884610566
 20
7.3225564319
 11
13.4232442224
 21
8.6508719405
  0
LWPOLYLINE
  5
2A5
100
AcDbEntity
  8
0
100
AcDbPolyline
 62
7
  6
CONTINUOUS
 90
10
 70
0
 10
10.3650118096
 20
4.6750577617
 10
10.3640174043
 20
4.6738115119
 10
10.3623069451
 20
4.6718193608
 10
10.3604278676
 20
4.6698258117
 10
10.3583986361
 20
4.6678790301
 10
10.3562381282
 20
4.6660184905
 10
10.3539639858
 20
4.6642721038
 10
10.3515959115
 20
4.6626652462
 10
10.3491444119
 20
4.6612105808
 10
10.3466159564
 20
4.6599143241
  0
LINE
  5
2A6
100
AcDbEntity
  8
0
100
AcDbLine
 62
7
  6
CONTINUOUS
 10
13.5166923427
 20
8.9812946624
 11
13.5166923427
 21
9.0572946624
  0
LINE
  5
2A7
100
AcDbEntity
  8
0
100
AcDbLine
 62
7
  6
CONTINUOUS
 10
13.5576923427
 20
6.8512946624
 11
13.5576923427
 21
5.9312946624
  0
LINE
  5
2A8
100
AcDbEntity
  8
0
100
AcDbLine
 62
7
  6
CONTINUOUS
 10
10.3466159564
 20
4.6599143241
 11
10.3439543236
 21
4.6587565145
  0
LINE
  5
2A9
100
AcDbEntity
  8
0
100
AcDbLine
 62
7
  6
CONTINUOUS
 10
10.3440138829
 20
4.6587801908
 11
10.3419749184
 21
4.6580226525
  0
LINE
  5
2AA
100
AcDbEntity
  8
0
100
AcDbLine
 62
7
  6
CONTINUOUS
 10
10.341973634
 20
4.6580222018
 11
10.3419701312
 21
4.658020995
  0
LINE
  5
2AB
100
AcDbEntity
  8
0
100
AcDbLine
 62
9
  6
CONTINUOUS
 10
11.9277758243
 20
4.7932379187
 11
11.9208907557
 21
4.7896708032
  0
LINE
  5
2AC
100
AcDbEntity
  8
0
100
AcDbLine
 62
9
  6
CONTINUOUS
 10
11.977810838
 20
4.6968755192
 11
11.9709764505
 21
4.6933343075
  0
ARC
  5
2AD
100
AcDbEntity
  8
0
100
AcDbCircle
 62
9
  6
CONTINUOUS
 10
8.1256497725
 20
5.4036649088
 40
2.4456354853
100
AcDbArc
 50
345.4599240949
 51
346.0727653179
  0
ARC
  5
2AE
100
AcDbEntity
  8
0
100
AcDbCircle
 62
7
  6
CONTINUOUS
 10
9.2844415656
 20
4.9877369129
 40
0.9
100
AcDbArc
 50
64.9871628475
 51
92.5520837091
  0
ARC
  5
2AF
100
AcDbEntity
  8
0
100
AcDbCircle
 62
7
  6
CONTINUOUS
 10
9.2844415656
 20
7.7948524119
 40
0.9
100
AcDbArc
 50
267.4479162909
 51
295.0128371525
  0
ARC
  5
2B0
100
AcDbEntity
  8
0
100
AcDbCircle
 62
9
  6
CONTINUOUS
 10
9.4243418881
 20
5.0656892874
 40
0.5977008687
100
AcDbArc
 50
332.4966999918
 51
335.2046437981
  0
ARC
  5
2B1
100
AcDbEntity
  8
0
100
AcDbCircle
 62
7
  6
CONTINUOUS
 10
10.5856641467
 20
7.3026016576
 40
0.572
100
AcDbArc
 50
104.659117346
 51
116.3266895349
  0
ARC
  5
2B2
100
AcDbEntity
  8
0
100
AcDbCircle
 62
7
  6
CONTINUOUS
 10
8.7716923427
 20
8.9812946624
 40
0.362
100
AcDbArc
 50
329.0735148774
 51
360.0
  0
ARC
  5
2B3
100
AcDbEntity
  8
0
100
AcDbCircle
 62
7
  6
CONTINUOUS
 10
8.7206923427
 20
8.9812946624
 40
0.362
100
AcDbArc
 50
180.0
 51
210.9264851226
  0
ARC
  5
2B4
100
AcDbEntity
  8
0
100
AcDbCircle
 62
7
  6
CONTINUOUS
 10
9.3361427905
 20
8.6431235638
 40
0.296
100
AcDbArc
 50
149.0735148774
 51
178.5
  0
ARC
  5
2B5
100
AcDbEntity
  8
0
100
AcDbCircle
 62
7
  6
CONTINUOUS
 10
8.1562418949
 20
8.6431235638
 40
0.296
100
AcDbArc
 50
1.5
 51
30.9264851226
  0
ARC
  5
2B6
100
AcDbEntity
  8
0
100
AcDbCircle
 62
7
  6
CONTINUOUS
 10
10.0405625717
 20
7.8150041007
 40
0.249
100
AcDbArc
 50
287.32010763
 51
348.0142490041
  0
ARC
  5
2B7
100
AcDbEntity
  8
0
100
AcDbCircle
 62
9
  6
CONTINUOUS
 10
9.8522015997
 20
4.8416363858
 40
0.1765538229
100
AcDbArc
 50
332.7103237683
 51
0.6320371984
  0
ARC
  5
2B8
100
AcDbEntity
  8
0
100
AcDbCircle
 62
7
  6
CONTINUOUS
 10
10.4836778641
 20
7.6924834322
 40
0.169
100
AcDbArc
 50
92.7083260498
 51
104.659117346
  0
ARC
  5
2B9
100
AcDbEntity
  8
0
100
AcDbCircle
 62
7
  6
CONTINUOUS
 10
10.392746543
 20
7.6924834322
 40
0.137
100
AcDbArc
 50
116.3266895349
 51
130.0889620649
  0
ARC
  5
2BA
100
AcDbEntity
  8
0
100
AcDbCircle
 62
7
  6
CONTINUOUS
 10
10.1536923427
 20
7.4522346768
 40
0.131
100
AcDbArc
 50
107.32010763
 51
180.0
  0
ARC
  5
2BB
100
AcDbEntity
  8
0
100
AcDbCircle
 62
7
  6
CONTINUOUS
 10
8.9696923427
 20
7.1907946624
 40
0.0945
100
AcDbArc
 50
270.0
 51
360.0
  0
ARC
  5
2BC
100
AcDbEntity
  8
0
100
AcDbCircle
 62
7
  6
CONTINUOUS
 10
8.5226923427
 20
7.1907946624
 40
0.0945
100
AcDbArc
 50
180.0
 51
270.0
  0
ARC
  5
2BD
100
AcDbEntity
  8
0
100
AcDbCircle
 62
7
  6
CONTINUOUS
 10
9.9551923427
 20
4.6357768621
 40
0.08
100
AcDbArc
 50
152.5785
 51
180.0
  0
ARC
  5
2BE
100
AcDbEntity
  8
0
100
AcDbCircle
 62
7
  6
CONTINUOUS
 10
9.6966923427
 20
5.8712946624
 40
0.075
100
AcDbArc
 50
244.9871628475
 51
270.0
  0
ARC
  5
2BF
100
AcDbEntity
  8
0
100
AcDbCircle
 62
7
  6
CONTINUOUS
 10
9.6966923427
 20
6.9112946624
 40
0.075
100
AcDbArc
 50
90.0
 51
115.0128371525
  0
ARC
  5
2C0
100
AcDbEntity
  8
0
100
AcDbCircle
 62
7
  6
CONTINUOUS
 10
10.3438043474
 20
7.7506268884
 40
0.061
100
AcDbArc
 50
130.0889620649
 51
168.0142490041
  0
ARC
  5
2C1
100
AcDbEntity
  8
0
100
AcDbCircle
 62
7
  6
CONTINUOUS
 10
10.0741987232
 20
4.9302946624
 40
0.05
100
AcDbArc
 50
90.0
 51
152.5785
  0
ARC
  5
2C2
100
AcDbEntity
  8
0
100
AcDbCircle
 62
7
  6
CONTINUOUS
 10
8.3676923427
 20
5.9312946624
 40
0.05
100
AcDbArc
 50
180.0
 51
360.0
  0
ARC
  5
2C3
100
AcDbEntity
  8
0
100
AcDbCircle
 62
7
  6
CONTINUOUS
 10
8.3676923427
 20
6.8512946624
 40
0.05
100
AcDbArc
 50
0.0
 51
180.0
  0
ARC
  5
2C4
100
AcDbEntity
  8
0
100
AcDbCircle
 62
7
  6
CONTINUOUS
 10
9.2421404062
 20
5.9367946624
 40
0.05
100
AcDbArc
 50
207.0649342288
 51
272.5520837091
  0
ARC
  5
2C5
100
AcDbEntity
  8
0
100
AcDbCircle
 62
7
  6
CONTINUOUS
 10
9.2421404062
 20
6.8457946624
 40
0.05
100
AcDbArc
 50
87.4479162909
 51
152.9350657712
  0
ARC
  5
2C6
100
AcDbEntity
  8
0
100
AcDbCircle
 62
7
  6
CONTINUOUS
 10
9.1530912624
 20
5.8912946624
 40
0.05
100
AcDbArc
 50
27.0649342288
 51
90.0
  0
ARC
  5
2C7
100
AcDbEntity
  8
0
100
AcDbCircle
 62
7
  6
CONTINUOUS
 10
9.1530912624
 20
6.8912946624
 40
0.05
100
AcDbArc
 50
270.0
 51
332.9350657712
  0
ARC
  5
2C8
100
AcDbEntity
  8
0
100
AcDbCircle
 62
9
  6
CONTINUOUS
 10
10.3782166056
 20
4.7931669539
 40
0.0213018658
100
AcDbArc
 50
342.0628997532
 51
345.4009074576
  0
ARC
  5
2C9
100
AcDbEntity
  8
0
100
AcDbCircle
 62
7
  6
CONTINUOUS
 10
10.0426923427
 20
7.3502946624
 40
0.02
100
AcDbArc
 50
180.0
 51
270.0
  0
ARC
  5
2CA
100
AcDbEntity
  8
0
100
AcDbCircle
 62
9
  6
CONTINUOUS
 10
10.0399713074
 20
4.9260515991
 40
0.0160865485
100
AcDbArc
 50
152.7480630792
 51
180.0086622561
  0
ARC
  5
2CB
100
AcDbEntity
  8
0
100
AcDbCircle
 62
7
  6
CONTINUOUS
 10
8.4769270556
 20
7.3222946624
 40
0.01
100
AcDbArc
 50
270.0
 51
1.5
  0
ARC
  5
2CC
100
AcDbEntity
  8
0
100
AcDbCircle
 62
7
  6
CONTINUOUS
 10
9.0154576299
 20
7.3222946624
 40
0.01
100
AcDbArc
 50
178.5
 51
270.0
  0
ARC
  5
2CD
100
AcDbEntity
  8
0
100
AcDbCircle
 62
7
  6
CONTINUOUS
 10
8.4381923427
 20
7.3022946624
 40
0.01
100
AcDbArc
 50
90.0
 51
180.0
  0
ARC
  5
2CE
100
AcDbEntity
  8
0
100
AcDbCircle
 62
7
  6
CONTINUOUS
 10
9.0541923427
 20
7.3022946624
 40
0.01
100
AcDbArc
 50
0.0
 51
90.0
  0
ARC
  5
2CF
100
AcDbEntity
  8
0
100
AcDbCircle
 62
7
  6
CONTINUOUS
 10
10.0320975011
 20
11.3617663964
 40
0.6221674533
100
AcDbArc
 50
359.9980898084
 51
7.3309304697
  0
ARC
  5
2D0
100
AcDbEntity
  8
0
100
AcDbCircle
 62
7
  6
CONTINUOUS
 10
10.6878379901
 20
11.5740967897
 40
0.096573029
100
AcDbArc
 50
169.5015073414
 51
179.9905027193
  0
ARC
  5
2D1
100
AcDbEntity
  8
0
100
AcDbCircle
 62
9
  6
CONTINUOUS
 10
10.6829993658
 20
11.5565104928
 40
0.0823018828
100
AcDbArc
 50
219.8410428446
 51
223.5728283675
  0
ARC
  5
2D2
100
AcDbEntity
  8
0
100
AcDbCircle
 62
7
  6
CONTINUOUS
 10
10.6997106427
 20
11.2460496631
 40
0.0770183172
100
AcDbArc
 50
168.8883762325
 51
179.9871520175
  0
ARC
  5
2D3
100
AcDbEntity
  8
0
100
AcDbCircle
 62
9
  6
CONTINUOUS
 10
10.6812904445
 20
11.5415203391
 40
0.0710627727
100
AcDbArc
 50
216.9299672912
 51
219.7301051015
  0
ARC
  5
2D4
100
AcDbEntity
  8
0
100
AcDbCircle
 62
9
  6
CONTINUOUS
 10
10.6773266056
 20
11.5384946094
 40
0.0660762325
100
AcDbArc
 50
215.6508976719
 51
216.8978384958
  0
ARC
  5
2D5
100
AcDbEntity
  8
0
100
AcDbCircle
 62
9
  6
CONTINUOUS
 10
10.6348668457
 20
11.5839246846
 40
0.0426979676
100
AcDbArc
 50
167.5258181761
 51
169.514053695
  0
ARC
  5
2D6
100
AcDbEntity
  8
0
100
AcDbCircle
 62
9
  6
CONTINUOUS
 10
12.4572364467
 20
5.0687305604
 40
0.6046000083
100
AcDbArc
 50
204.8108477304
 51
207.487884316
  0
ARC
  5
2D7
100
AcDbEntity
  8
0
100
AcDbCircle
 62
9
  6
CONTINUOUS
 10
12.0231830885
 20
4.8416363863
 40
0.1765538256
100
AcDbArc
 50
179.3679629737
 51
207.2896759635
  0
ARC
  5
2D8
100
AcDbEntity
  8
0
100
AcDbCircle
 62
7
  6
CONTINUOUS
 10
11.9201923427
 20
4.6357768621
 40
0.08
100
AcDbArc
 50
0.0
 51
27.4215
  0
ARC
  5
2D9
100
AcDbEntity
  8
0
100
AcDbCircle
 62
7
  6
CONTINUOUS
 10
12.1786923427
 20
5.8712946624
 40
0.075
100
AcDbArc
 50
270.0
 51
295.0128371525
  0
ARC
  5
2DA
100
AcDbEntity
  8
0
100
AcDbCircle
 62
7
  6
CONTINUOUS
 10
11.5525580916
 20
4.7070952484
 40
0.0529703349
100
AcDbArc
 50
227.5183804778
 51
227.9866207797
  0
ARC
  5
2DB
100
AcDbEntity
  8
0
100
AcDbCircle
 62
7
  6
CONTINUOUS
 10
11.5517062985
 20
4.706137033
 40
0.0516882839
100
AcDbArc
 50
227.9772375101
 51
230.3266865817
  0
ARC
  5
2DC
100
AcDbEntity
  8
0
100
AcDbCircle
 62
7
  6
CONTINUOUS
 10
11.5509414131
 20
4.7052102917
 40
0.050486664
100
AcDbArc
 50
230.3233836567
 51
232.3549540012
  0
ARC
  5
2DD
100
AcDbEntity
  8
0
100
AcDbCircle
 62
7
  6
CONTINUOUS
 10
11.8011859623
 20
4.9302946624
 40
0.05
100
AcDbArc
 50
27.4215
 51
90.0
  0
ARC
  5
2DE
100
AcDbEntity
  8
0
100
AcDbCircle
 62
7
  6
CONTINUOUS
 10
11.5501958503
 20
4.7042382017
 40
0.049261588
100
AcDbArc
 50
232.3510257656
 51
234.2585759641
  0
ARC
  5
2DF
100
AcDbEntity
  8
0
100
AcDbCircle
 62
7
  6
CONTINUOUS
 10
11.5493355385
 20
4.703016653
 40
0.0477675741
100
AcDbArc
 50
234.24027303
 51
238.562337465
  0
ARC
  5
2E0
100
AcDbEntity
  8
0
100
AcDbCircle
 62
7
  6
CONTINUOUS
 10
11.5487962456
 20
4.7021418963
 40
0.0467399454
100
AcDbArc
 50
238.5670958244
 51
239.9542484636
  0
ARC
  5
2E1
100
AcDbEntity
  8
0
100
AcDbCircle
 62
7
  6
CONTINUOUS
 10
11.548395209
 20
4.7014273724
 40
0.0459206407
100
AcDbArc
 50
239.9410123777
 51
245.1183963043
  0
ARC
  5
2E2
100
AcDbEntity
  8
0
100
AcDbCircle
 62
7
  6
CONTINUOUS
 10
11.5482981225
 20
4.7012366862
 40
0.0457068728
100
AcDbArc
 50
245.9450673373
 51
250.9929422773
  0
ARC
  5
2E3
100
AcDbEntity
  8
0
100
AcDbCircle
 62
7
  6
CONTINUOUS
 10
11.5482638343
 20
4.7011500599
 40
0.0456137935
100
AcDbArc
 50
245.1215399221
 51
245.9400435789
  0
ARC
  5
2E4
100
AcDbEntity
  8
0
100
AcDbCircle
 62
9
  6
CONTINUOUS
 10
11.4971681475
 20
4.7931669624
 40
0.0213019333
100
AcDbArc
 50
194.5990904872
 51
197.9370728957
  0
ARC
  5
2E5
100
AcDbEntity
  8
0
100
AcDbCircle
 62
9
  6
CONTINUOUS
 10
11.8354133544
 20
4.9260516625
 40
0.0160865454
100
AcDbArc
 50
359.9911121764
 51
27.2516888201
  0
ARC
  5
2E6
100
AcDbEntity
  8
0
100
AcDbCircle
 62
7
  6
CONTINUOUS
 10
11.2897205387
 20
7.3026016576
 40
0.572
100
AcDbArc
 50
63.6733104651
 51
75.340882654
  0
ARC
  5
2E7
100
AcDbEntity
  8
0
100
AcDbCircle
 62
7
  6
CONTINUOUS
 10
11.8348221137
 20
7.8150041007
 40
0.249
100
AcDbArc
 50
191.9857509959
 51
252.67989237
  0
ARC
  5
2E8
100
AcDbEntity
  8
0
100
AcDbCircle
 62
7
  6
CONTINUOUS
 10
11.3917068213
 20
7.6924834322
 40
0.169
100
AcDbArc
 50
75.340882654
 51
87.2916739502
  0
ARC
  5
2E9
100
AcDbEntity
  8
0
100
AcDbCircle
 62
7
  6
CONTINUOUS
 10
11.4826381425
 20
7.6924834322
 40
0.137
100
AcDbArc
 50
49.9110379351
 51
63.6733104651
  0
ARC
  5
2EA
100
AcDbEntity
  8
0
100
AcDbCircle
 62
7
  6
CONTINUOUS
 10
11.7216923427
 20
7.4522346768
 40
0.131
100
AcDbArc
 50
0.0
 51
72.67989237
  0
ARC
  5
2EB
100
AcDbEntity
  8
0
100
AcDbCircle
 62
7
  6
CONTINUOUS
 10
12.1786923427
 20
6.9112946624
 40
0.075
100
AcDbArc
 50
64.9871628475
 51
90.0
  0
ARC
  5
2EC
100
AcDbEntity
  8
0
100
AcDbCircle
 62
7
  6
CONTINUOUS
 10
11.531580338
 20
7.7506268884
 40
0.061
100
AcDbArc
 50
11.9857509959
 51
49.9110379351
  0
ARC
  5
2ED
100
AcDbEntity
  8
0
100
AcDbCircle
 62
7
  6
CONTINUOUS
 10
11.8326923427
 20
7.3502946624
 40
0.02
100
AcDbArc
 50
270.0
 51
360.0
  0
ARC
  5
2EE
100
AcDbEntity
  8
0
100
AcDbCircle
 62
9
  6
CONTINUOUS
 10
13.6767801582
 20
5.3851446315
 40
2.3703672948
100
AcDbArc
 50
193.9171711591
 51
194.5494711981
  0
ARC
  5
2EF
100
AcDbEntity
  8
0
100
AcDbCircle
 62
7
  6
CONTINUOUS
 10
12.5909431199
 20
4.9877369129
 40
0.9
100
AcDbArc
 50
87.4479162909
 51
115.0128371525
  0
ARC
  5
2F0
100
AcDbEntity
  8
0
100
AcDbCircle
 62
7
  6
CONTINUOUS
 10
13.5076923427
 20
5.9312946624
 40
0.05
100
AcDbArc
 50
180.0
 51
360.0
  0
ARC
  5
2F1
100
AcDbEntity
  8
0
100
AcDbCircle
 62
7
  6
CONTINUOUS
 10
12.6332442793
 20
5.9367946624
 40
0.05
100
AcDbArc
 50
267.4479162909
 51
332.9350657712
  0
ARC
  5
2F2
100
AcDbEntity
  8
0
100
AcDbCircle
 62
7
  6
CONTINUOUS
 10
12.7222934231
 20
5.8912946624
 40
0.05
100
AcDbArc
 50
90.0
 51
152.9350657712
  0
ARC
  5
2F3
100
AcDbEntity
  8
0
100
AcDbCircle
 62
7
  6
CONTINUOUS
 10
12.5909431199
 20
7.7948524119
 40
0.9
100
AcDbArc
 50
244.9871628475
 51
272.5520837091
  0
ARC
  5
2F4
100
AcDbEntity
  8
0
100
AcDbCircle
 62
7
  6
CONTINUOUS
 10
13.1546923427
 20
8.9812946624
 40
0.362
100
AcDbArc
 50
329.0735148774
 51
360.0
  0
ARC
  5
2F5
100
AcDbEntity
  8
0
100
AcDbCircle
 62
7
  6
CONTINUOUS
 10
13.1036923427
 20
8.9812946624
 40
0.362
100
AcDbArc
 50
180.0
 51
210.9264851226
  0
ARC
  5
2F6
100
AcDbEntity
  8
0
100
AcDbCircle
 62
7
  6
CONTINUOUS
 10
13.7191427905
 20
8.6431235638
 40
0.296
100
AcDbArc
 50
149.0735148774
 51
178.5
  0
ARC
  5
2F7
100
AcDbEntity
  8
0
100
AcDbCircle
 62
7
  6
CONTINUOUS
 10
12.5392418949
 20
8.6431235638
 40
0.296
100
AcDbArc
 50
1.5
 51
30.9264851226
  0
ARC
  5
2F8
100
AcDbEntity
  8
0
100
AcDbCircle
 62
7
  6
CONTINUOUS
 10
13.3526923427
 20
7.1907946624
 40
0.0945
100
AcDbArc
 50
270.0
 51
360.0
  0
ARC
  5
2F9
100
AcDbEntity
  8
0
100
AcDbCircle
 62
7
  6
CONTINUOUS
 10
12.9056923427
 20
7.1907946624
 40
0.0945
100
AcDbArc
 50
180.0
 51
270.0
  0
ARC
  5
2FA
100
AcDbEntity
  8
0
100
AcDbCircle
 62
7
  6
CONTINUOUS
 10
13.5076923427
 20
6.8512946624
 40
0.05
100
AcDbArc
 50
0.0
 51
180.0
  0
ARC
  5
2FB
100
AcDbEntity
  8
0
100
AcDbCircle
 62
7
  6
CONTINUOUS
 10
12.6332442793
 20
6.8457946624
 40
0.05
100
AcDbArc
 50
27.0649342288
 51
92.5520837091
  0
ARC
  5
2FC
100
AcDbEntity
  8
0
100
AcDbCircle
 62
7
  6
CONTINUOUS
 10
12.7222934231
 20
6.8912946624
 40
0.05
100
AcDbArc
 50
207.0649342288
 51
270.0
  0
ARC
  5
2FD
100
AcDbEntity
  8
0
100
AcDbCircle
 62
7
  6
CONTINUOUS
 10
12.8599270556
 20
7.3222946624
 40
0.01
100
AcDbArc
 50
270.0
 51
1.5
  0
ARC
  5
2FE
100
AcDbEntity
  8
0
100
AcDbCircle
 62
7
  6
CONTINUOUS
 10
13.3984576299
 20
7.3222946624
 40
0.01
100
AcDbArc
 50
178.5
 51
270.0
  0
ARC
  5
2FF
100
AcDbEntity
  8
0
100
AcDbCircle
 62
7
  6
CONTINUOUS
 10
12.8211923427
 20
7.3022946624
 40
0.01
100
AcDbArc
 50
90.0
 51
180.0
  0
ARC
  5
300
100
AcDbEntity
  8
0
100
AcDbCircle
 62
7
  6
CONTINUOUS
 10
13.4371923427
 20
7.3022946624
 40
0.01
100
AcDbArc
 50
0.0
 51
90.0
  0
ARC
  5
301
100
AcDbEntity
  8
0
100
AcDbCircle
 62
7
  6
CONTINUOUS
 10
11.8432862897
 20
11.3617664467
 40
0.6221665586
100
AcDbArc
 50
172.6690653211
 51
180.0019148223
  0
ARC
  5
302
100
AcDbEntity
  8
0
100
AcDbCircle
 62
7
  6
CONTINUOUS
 10
10.9376923427
 20
13.7302946624
 40
0.25
100
AcDbArc
 50
0.0
 51
180.0
  0
ARC
  5
303
100
AcDbEntity
  8
0
100
AcDbCircle
 62
7
  6
CONTINUOUS
 10
11.1875506251
 20
11.5740970392
 40
0.0965690992
100
AcDbArc
 50
0.009349603
 51
10.4984429841
  0
ARC
  5
304
100
AcDbEntity
  8
0
100
AcDbCircle
 62
9
  6
CONTINUOUS
 10
11.1938238314
 20
11.5552282129
 40
0.0803758734
100
AcDbArc
 50
316.3758183899
 51
320.2108048202
  0
ARC
  5
305
100
AcDbEntity
  8
0
100
AcDbCircle
 62
7
  6
CONTINUOUS
 10
11.1756783189
 20
11.2460499546
 40
0.077014041
100
AcDbArc
 50
0.0126318045
 51
11.1116793707
  0
ARC
  5
306
100
AcDbEntity
  8
0
100
AcDbCircle
 62
9
  6
CONTINUOUS
 10
11.2406481091
 20
11.583951141
 40
0.0425650591
100
AcDbArc
 50
10.48284188
 51
12.4772862485
  0
SPLINE
  5
307
100
AcDbEntity
  8
0
100
AcDbSpline
 62
7
  6
CONTINUOUS
 70
0
 71
3
 72
35
 73
31
 74
0
 42
0.0000001
 43
0.0000001
 44
0.0000000001
 40
0.0
 40
0.0
 40
0.0
 40
0.0
 40
0.0083223652
 40
0.0159070907
 40
0.0230020517
 40
0.0297640497
 40
0.0363044317
 40
0.0426957076
 40
0.048992864
 40
0.0552380301
 40
0.0676771793
 40
0.0801654802
 40
0.1055487713
 40
0.1316662093
 40
0.1585482684
 40
0.1861540768
 40
0.2144329635
 40
0.2433174763
 40
0.2727554654
 40
0.3026954032
 40
0.3330950131
 40
0.3951164053
 40
0.4585648991
 40
0.5232362757
 40
0.588979516
 40
0.6556573136
 40
0.723169156
 40
0.791426079
 40
0.8603576047
 40
1.0
 40
1.0
 40
1.0
 40
1.0
 10
12.7416923427
 20
9.0572946624
 30
0.0
 10
12.7416923427
 20
9.0578835711
 30
0.0
 10
12.741756032
 20
9.0590106782
 30
0.0
 10
12.7420428139
 20
9.0606162573
 30
0.0
 10
12.7424679603
 20
9.0620755618
 30
0.0
 10
12.7430087501
 20
9.0634160545
 30
0.0
 10
12.7436422339
 20
9.0646591697
 30
0.0
 10
12.7443587167
 20
9.0658176055
 30
0.0
 10
12.7451481409
 20
9.0669015492
 30
0.0
 10
12.7462823417
 20
9.0682587403
 30
0.0
 10
12.7478391585
 20
9.0698278782
 30
0.0
 10
12.7505809977
 20
9.0721049833
 30
0.0
 10
12.754388005
 20
9.0745830031
 30
0.0
 10
12.7593367936
 20
9.0771018473
 30
0.0
 10
12.7646092456
 20
9.0792893234
 30
0.0
 10
12.7701429085
 20
9.0812154174
 30
0.0
 10
12.7758959174
 20
9.0829198491
 30
0.0
 10
12.781832598
 20
9.0844440469
 30
0.0
 10
12.7879280157
 20
9.0858094261
 30
0.0
 10
12.7941614013
 20
9.0870387603
 30
0.0
 10
12.8026919055
 20
9.0885254646
 30
0.0
 10
12.8136096187
 20
9.0901091897
 30
0.0
 10
12.8269770781
 20
9.0916517804
 30
0.0
 10
12.840638604
 20
9.0929085918
 30
0.0
 10
12.8545494541
 20
9.0939174792
 30
0.0
 10
12.8686750201
 20
9.0947172854
 30
0.0
 10
12.8829878116
 20
9.0953309237
 30
0.0
 10
12.8974661312
 20
9.0957818157
 30
0.0
 10
12.9170513044
 20
9.0961888778
 30
0.0
 10
12.9318109424
 20
9.0962946624
 30
0.0
 10
12.9416923427
 20
9.0962946624
 30
0.0
  0
SPLINE
  5
308
100
AcDbEntity
  8
0
100
AcDbSpline
 62
7
  6
CONTINUOUS
 70
0
 71
3
 72
35
 73
31
 74
0
 42
0.0000001
 43
0.0000001
 44
0.0000000001
 40
0.0
 40
0.0
 40
0.0
 40
0.0
 40
0.0083223652
 40
0.0159070907
 40
0.0230020517
 40
0.0297640497
 40
0.0363044317
 40
0.0426957076
 40
0.048992864
 40
0.0552380301
 40
0.0676771793
 40
0.0801654802
 40
0.1055487713
 40
0.1316662093
 40
0.1585482684
 40
0.1861540768
 40
0.2144329635
 40
0.2433174763
 40
0.2727554654
 40
0.3026954032
 40
0.3330950131
 40
0.3951164053
 40
0.4585648991
 40
0.5232362757
 40
0.588979516
 40
0.6556573136
 40
0.723169156
 40
0.791426079
 40
0.8603576047
 40
1.0
 40
1.0
 40
1.0
 40
1.0
 10
13.5166923427
 20
9.0572946624
 30
0.0
 10
13.5166923427
 20
9.0578835711
 30
0.0
 10
13.5166286535
 20
9.0590106782
 30
0.0
 10
13.5163418716
 20
9.0606162573
 30
0.0
 10
13.5159167251
 20
9.0620755618
 30
0.0
 10
13.5153759354
 20
9.0634160545
 30
0.0
 10
13.5147424516
 20
9.0646591697
 30
0.0
 10
13.5140259688
 20
9.0658176055
 30
0.0
 10
13.5132365446
 20
9.0669015492
 30
0.0
 10
13.5121023438
 20
9.0682587403
 30
0.0
 10
13.510545527
 20
9.0698278782
 30
0.0
 10
13.5078036878
 20
9.0721049833
 30
0.0
 10
13.5039966805
 20
9.0745830031
 30
0.0
 10
13.4990478918
 20
9.0771018473
 30
0.0
 10
13.4937754399
 20
9.0792893234
 30
0.0
 10
13.488241777
 20
9.0812154174
 30
0.0
 10
13.4824887681
 20
9.0829198491
 30
0.0
 10
13.4765520874
 20
9.0844440469
 30
0.0
 10
13.4704566698
 20
9.0858094261
 30
0.0
 10
13.4642232842
 20
9.0870387603
 30
0.0
 10
13.4556927799
 20
9.0885254646
 30
0.0
 10
13.4447750667
 20
9.0901091897
 30
0.0
 10
13.4314076074
 20
9.0916517804
 30
0.0
 10
13.4177460814
 20
9.0929085918
 30
0.0
 10
13.4038352313
 20
9.0939174792
 30
0.0
 10
13.3897096654
 20
9.0947172854
 30
0.0
 10
13.3753968739
 20
9.0953309237
 30
0.0
 10
13.3609185543
 20
9.0957818157
 30
0.0
 10
13.3413333811
 20
9.0961888778
 30
0.0
 10
13.3265737431
 20
9.0962946624
 30
0.0
 10
13.3166923427
 20
9.0962946624
 30
0.0
  0
SPLINE
  5
309
100
AcDbEntity
  8
0
100
AcDbSpline
 62
7
  6
CONTINUOUS
 70
0
 71
3
 72
35
 73
31
 74
0
 42
0.0000001
 43
0.0000001
 44
0.0000000001
 40
0.0
 40
0.0
 40
0.0
 40
0.0
 40
0.0083223652
 40
0.0159070907
 40
0.0230020517
 40
0.0297640497
 40
0.0363044317
 40
0.0426957076
 40
0.048992864
 40
0.0552380301
 40
0.0676771793
 40
0.0801654802
 40
0.1055487713
 40
0.1316662093
 40
0.1585482684
 40
0.1861540768
 40
0.2144329635
 40
0.2433174763
 40
0.2727554654
 40
0.3026954032
 40
0.3330950131
 40
0.3951164053
 40
0.4585648991
 40
0.5232362757
 40
0.588979516
 40
0.6556573136
 40
0.723169156
 40
0.791426079
 40
0.8603576047
 40
1.0
 40
1.0
 40
1.0
 40
1.0
 10
8.3586923427
 20
9.0572946624
 30
0.0
 10
8.3586923427
 20
9.0578835711
 30
0.0
 10
8.358756032
 20
9.0590106782
 30
0.0
 10
8.3590428139
 20
9.0606162573
 30
0.0
 10
8.3594679603
 20
9.0620755618
 30
0.0
 10
8.3600087501
 20
9.0634160545
 30
0.0
 10
8.3606422339
 20
9.0646591697
 30
0.0
 10
8.3613587167
 20
9.0658176055
 30
0.0
 10
8.3621481409
 20
9.0669015492
 30
0.0
 10
8.3632823417
 20
9.0682587403
 30
0.0
 10
8.3648391585
 20
9.0698278782
 30
0.0
 10
8.3675809977
 20
9.0721049833
 30
0.0
 10
8.371388005
 20
9.0745830031
 30
0.0
 10
8.3763367936
 20
9.0771018473
 30
0.0
 10
8.3816092456
 20
9.0792893234
 30
0.0
 10
8.3871429085
 20
9.0812154174
 30
0.0
 10
8.3928959174
 20
9.0829198491
 30
0.0
 10
8.398832598
 20
9.0844440469
 30
0.0
 10
8.4049280157
 20
9.0858094261
 30
0.0
 10
8.4111614013
 20
9.0870387603
 30
0.0
 10
8.4196919055
 20
9.0885254646
 30
0.0
 10
8.4306096187
 20
9.0901091897
 30
0.0
 10
8.4439770781
 20
9.0916517804
 30
0.0
 10
8.457638604
 20
9.0929085918
 30
0.0
 10
8.4715494541
 20
9.0939174792
 30
0.0
 10
8.4856750201
 20
9.0947172854
 30
0.0
 10
8.4999878116
 20
9.0953309237
 30
0.0
 10
8.5144661312
 20
9.0957818157
 30
0.0
 10
8.5340513044
 20
9.0961888778
 30
0.0
 10
8.5488109424
 20
9.0962946624
 30
0.0
 10
8.5586923427
 20
9.0962946624
 30
0.0
  0
SPLINE
  5
30A
100
AcDbEntity
  8
0
100
AcDbSpline
 62
7
  6
CONTINUOUS
 70
0
 71
3
 72
35
 73
31
 74
0
 42
0.0000001
 43
0.0000001
 44
0.0000000001
 40
0.0
 40
0.0
 40
0.0
 40
0.0
 40
0.0083223652
 40
0.0159070907
 40
0.0230020517
 40
0.0297640497
 40
0.0363044317
 40
0.0426957076
 40
0.048992864
 40
0.0552380301
 40
0.0676771793
 40
0.0801654802
 40
0.1055487713
 40
0.1316662093
 40
0.1585482684
 40
0.1861540768
 40
0.2144329635
 40
0.2433174763
 40
0.2727554654
 40
0.3026954032
 40
0.3330950131
 40
0.3951164053
 40
0.4585648991
 40
0.5232362757
 40
0.588979516
 40
0.6556573136
 40
0.723169156
 40
0.791426079
 40
0.8603576047
 40
1.0
 40
1.0
 40
1.0
 40
1.0
 10
9.1336923427
 20
9.0572946624
 30
0.0
 10
9.1336923427
 20
9.0578835711
 30
0.0
 10
9.1336286535
 20
9.0590106782
 30
0.0
 10
9.1333418716
 20
9.0606162573
 30
0.0
 10
9.1329167251
 20
9.0620755618
 30
0.0
 10
9.1323759354
 20
9.0634160545
 30
0.0
 10
9.1317424516
 20
9.0646591697
 30
0.0
 10
9.1310259688
 20
9.0658176055
 30
0.0
 10
9.1302365446
 20
9.0669015492
 30
0.0
 10
9.1291023438
 20
9.0682587403
 30
0.0
 10
9.127545527
 20
9.0698278782
 30
0.0
 10
9.1248036878
 20
9.0721049833
 30
0.0
 10
9.1209966805
 20
9.0745830031
 30
0.0
 10
9.1160478918
 20
9.0771018473
 30
0.0
 10
9.1107754399
 20
9.0792893234
 30
0.0
 10
9.105241777
 20
9.0812154174
 30
0.0
 10
9.0994887681
 20
9.0829198491
 30
0.0
 10
9.0935520874
 20
9.0844440469
 30
0.0
 10
9.0874566698
 20
9.0858094261
 30
0.0
 10
9.0812232842
 20
9.0870387603
 30
0.0
 10
9.0726927799
 20
9.0885254646
 30
0.0
 10
9.0617750667
 20
9.0901091897
 30
0.0
 10
9.0484076074
 20
9.0916517804
 30
0.0
 10
9.0347460814
 20
9.0929085918
 30
0.0
 10
9.0208352313
 20
9.0939174792
 30
0.0
 10
9.0067096654
 20
9.0947172854
 30
0.0
 10
8.9923968739
 20
9.0953309237
 30
0.0
 10
8.9779185543
 20
9.0957818157
 30
0.0
 10
8.9583333811
 20
9.0961888778
 30
0.0
 10
8.9435737431
 20
9.0962946624
 30
0.0
 10
8.9336923427
 20
9.0962946624
 30
0.0
  0
SPLINE
  5
30B
100
AcDbEntity
  8
0
100
AcDbSpline
 62
7
  6
CONTINUOUS
 70
0
 71
3
 72
15
 73
11
 74
0
 42
0.0000001
 43
0.0000001
 44
0.0000000001
 40
0.0
 40
0.0
 40
0.0
 40
0.0
 40
0.0833507372
 40
0.182683719
 40
0.2959878504
 40
0.4211435204
 40
0.5560478014
 40
0.6987190921
 40
0.8472515935
 40
1.0
 40
1.0
 40
1.0
 40
1.0
 10
11.2487453827
 20
11.4960981602
 30
0.0
 10
11.2476777449
 20
11.4948130811
 30
0.0
 10
11.2454340015
 20
11.4919156055
 30
0.0
 10
11.2421090017
 20
11.4869970132
 30
0.0
 10
11.2386997416
 20
11.4811408862
 30
0.0
 10
11.2353898133
 20
11.4744218617
 30
0.0
 10
11.2323447988
 20
11.4669381339
 30
0.0
 10
11.2297070727
 20
11.458806396
 30
0.0
 10
11.227590785
 20
11.4501549427
 30
0.0
 10
11.2265963259
 20
11.4441915847
 30
0.0
 10
11.2262054766
 20
11.4411548904
 30
0.0
  0
SPLINE
  5
30C
100
AcDbEntity
  8
0
100
AcDbSpline
 62
7
  6
CONTINUOUS
 70
0
 71
3
 72
16
 73
12
 74
0
 42
0.0000001
 43
0.0000001
 44
0.0000000001
 40
0.0
 40
0.0
 40
0.0
 40
0.0
 40
0.1527497765
 40
0.3012610349
 40
0.3734635363
 40
0.44395806
 40
0.5788571283
 40
0.7040107897
 40
0.8173149703
 40
0.9166476188
 40
1.0
 40
1.0
 40
1.0
 40
1.0
 10
10.6491792089
 20
11.4411548904
 30
0.0
 10
10.6487883533
 20
11.4441916337
 30
0.0
 10
10.6477941648
 20
11.4501545274
 30
0.0
 10
10.6460132694
 20
11.4574328401
 30
0.0
 10
10.6443118435
 20
11.4630177516
 30
0.0
 10
10.6424944785
 20
11.4682779785
 30
0.0
 10
10.6399953372
 20
11.4744209914
 30
0.0
 10
10.6366855326
 20
11.4811398159
 30
0.0
 10
10.6332763639
 20
11.4869960378
 30
0.0
 10
10.6299513531
 20
11.491914697
 30
0.0
 10
10.6277076421
 20
11.4948122668
 30
0.0
 10
10.6266399755
 20
11.4960973804
 30
0.0
  0
SPLINE
  5
30D
100
AcDbEntity
  8
0
100
AcDbSpline
 62
7
  6
CONTINUOUS
 70
0
 71
3
 72
17
 73
13
 74
0
 42
0.0000001
 43
0.0000001
 44
0.0000000001
 40
0.0
 40
0.0
 40
0.0
 40
0.0
 40
0.1225795362
 40
0.2452106382
 40
0.3684265707
 40
0.4926207803
 40
0.6179918835
 40
0.744513748
 40
0.8081805201
 40
0.8720057886
 40
0.9359176809
 40
1.0
 40
1.0
 40
1.0
 40
1.0
 10
11.225425601
 20
11.1848073814
 30
0.0
 10
11.2274032761
 20
11.1868058553
 30
0.0
 10
11.2312203683
 20
11.1909448156
 30
0.0
 10
11.2364545049
 20
11.1975907652
 30
0.0
 10
11.2411246267
 20
11.2046915661
 30
0.0
 10
11.2451464196
 20
11.2122522857
 30
0.0
 10
11.248422753
 20
11.2202482658
 30
0.0
 10
11.2504463417
 20
11.2272139896
 30
0.0
 10
11.2516012694
 20
11.232927258
 30
0.0
 10
11.2522287124
 20
11.2372749143
 30
0.0
 10
11.2526079129
 20
11.2416605735
 30
0.0
 10
11.252692358
 20
11.2445970808
 30
0.0
 10
11.252692358
 20
11.2460669336
 30
0.0
  0
SPLINE
  5
30E
100
AcDbEntity
  8
0
100
AcDbSpline
 62
7
  6
CONTINUOUS
 70
0
 71
3
 72
15
 73
11
 74
0
 42
0.0000001
 43
0.0000001
 44
0.0000000001
 40
0.0
 40
0.0
 40
0.0
 40
0.0
 40
0.1450511669
 40
0.282752619
 40
0.4137257235
 40
0.5387410987
 40
0.658725195
 40
0.7747614437
 40
0.8880805418
 40
1.0
 40
1.0
 40
1.0
 40
1.0
 10
10.6499754692
 20
11.1847909769
 30
0.0
 10
10.6486857199
 20
11.1860942841
 30
0.0
 10
10.6462534268
 20
11.1887180669
 30
0.0
 10
10.6429898805
 20
11.1928113779
 30
0.0
 10
10.640215381
 20
11.1969504127
 30
0.0
 10
10.6379356828
 20
11.2011288389
 30
0.0
 10
10.636155776
 20
11.2053401307
 30
0.0
 10
10.6348803726
 20
11.2095775488
 30
0.0
 10
10.6341134521
 20
11.2138323155
 30
0.0
 10
10.6339423999
 20
11.2166824104
 30
0.0
 10
10.6339423999
 20
11.2180971851
 30
0.0
  0
SPLINE
  5
30F
100
AcDbEntity
  8
0
100
AcDbSpline
 62
7
  6
CONTINUOUS
 70
0
 71
3
 72
17
 73
13
 74
0
 42
0.0000001
 43
0.0000001
 44
0.0000000001
 40
0.0
 40
0.0
 40
0.0
 40
0.0
 40
0.0640848395
 40
0.1279929354
 40
0.1918162074
 40
0.2554837841
 40
0.3820061392
 40
0.5073771657
 40
0.6315712889
 40
0.7547868237
 40
0.8774187788
 40
1.0
 40
1.0
 40
1.0
 40
1.0
 10
10.6226923275
 20
11.2460669336
 30
0.0
 10
10.6226923275
 20
11.2445970594
 30
0.0
 10
10.6227767508
 20
11.2416606536
 30
0.0
 10
10.6231559428
 20
11.2372751776
 30
0.0
 10
10.6237833711
 20
11.2329277459
 30
0.0
 10
10.6249381778
 20
11.2272146176
 30
0.0
 10
10.6269616632
 20
11.220249019
 30
0.0
 10
10.6302378605
 20
11.2122532084
 30
0.0
 10
10.6342594462
 20
11.2046926329
 30
0.0
 10
10.6389293564
 20
11.197591941
 30
0.0
 10
10.6441631971
 20
11.1909459521
 30
0.0
 10
10.6479803316
 20
11.1868071438
 30
0.0
 10
10.6499579175
 20
11.1848086251
 30
0.0
  0
SPLINE
  5
310
100
AcDbEntity
  8
0
100
AcDbSpline
 62
7
  6
CONTINUOUS
 70
0
 71
3
 72
17
 73
13
 74
0
 42
0.0000001
 43
0.0000001
 44
0.0000000001
 40
0.0
 40
0.0
 40
0.0
 40
0.0
 40
0.1208410581
 40
0.2426733132
 40
0.3657866201
 40
0.4903207619
 40
0.6162489932
 40
0.7433856626
 40
0.807344565
 40
0.8714588954
 40
0.9356597356
 40
1.0
 40
1.0
 40
1.0
 40
1.0
 10
11.2555979547
 20
11.5036650017
 30
0.0
 10
11.2576875917
 20
11.5059969448
 30
0.0
 10
11.2617202851
 20
11.5108302486
 30
0.0
 10
11.2672243079
 20
11.518558418
 30
0.0
 10
11.2721224421
 20
11.5267981397
 30
0.0
 10
11.276321454
 20
11.5355349825
 30
0.0
 10
11.2797227335
 20
11.5447246319
 30
0.0
 10
11.2818112183
 20
11.5526848732
 30
0.0
 10
11.2829999576
 20
11.559192527
 30
0.0
 10
11.2836442763
 20
11.5641352109
 30
0.0
 10
11.2840331453
 20
11.5691142186
 30
0.0
 10
11.284119723
 20
11.5724456195
 30
0.0
 10
11.284119723
 20
11.5741127975
 30
0.0
  0
SPLINE
  5
311
100
AcDbEntity
  8
0
100
AcDbSpline
 62
7
  6
CONTINUOUS
 70
0
 71
3
 72
17
 73
13
 74
0
 42
0.0000001
 43
0.0000001
 44
0.0000000001
 40
0.0
 40
0.0
 40
0.0
 40
0.0
 40
0.0643430201
 40
0.1285405445
 40
0.192653365
 40
0.2566133649
 40
0.383750861
 40
0.5096796134
 40
0.6342141245
 40
0.7573268975
 40
0.8791583517
 40
1.0
 40
1.0
 40
1.0
 40
1.0
 10
10.5912649625
 20
11.5741127975
 30
0.0
 10
10.5912649625
 20
11.5724452418
 30
0.0
 10
10.5913515559
 20
11.5691132426
 30
0.0
 10
10.5917405815
 20
11.5641333791
 30
0.0
 10
10.5923851597
 20
11.5591899032
 30
0.0
 10
10.593574274
 20
11.5526810712
 30
0.0
 10
10.5956635361
 20
11.5447193974
 30
0.0
 10
10.5990660281
 20
11.5355282256
 30
0.0
 10
10.6032665108
 20
11.5267900976
 30
0.0
 10
10.6081662919
 20
11.5185493346
 30
0.0
 10
10.6136720322
 20
11.510820269
 30
0.0
 10
10.6177059807
 20
11.5059865142
 30
0.0
 10
10.6197962268
 20
11.503654324
 30
0.0
  0
LINE
  5
312
100
AcDbEntity
  8
0
100
AcDbLine
 62
7
  6
CONTINUOUS
 10
11.252000528
 20
11.4997687987
 11
11.248745185
 21
11.4960979492
  0
LINE
  5
313
100
AcDbEntity
  8
0
100
AcDbLine
 62
7
  6
CONTINUOUS
 10
10.6266395005
 20
11.4960979492
 11
10.6233842734
 21
11.4997686431
  0
SPLINE
  5
314
100
AcDbEntity
  8
0
100
AcDbSpline
 62
7
  6
CONTINUOUS
 70
0
 71
3
 72
50
 73
46
 74
0
 42
0.0000001
 43
0.0000001
 44
0.0000000001
 40
0.0
 40
0.0
 40
0.0
 40
0.0
 40
0.0225847059
 40
0.0341762529
 40
0.0460123454
 40
0.0581237392
 40
0.0705353842
 40
0.0832673163
 40
0.0963355002
 40
0.1097511249
 40
0.1235218012
 40
0.1376511408
 40
0.1521399247
 40
0.1669856708
 40
0.1821835067
 40
0.2136024077
 40
0.2463158046
 40
0.2802134553
 40
0.3151629084
 40
0.3510138911
 40
0.3876020615
 40
0.4247522444
 40
0.4622813856
 40
0.5000012699
 40
0.5377211507
 40
0.5752502821
 40
0.6124004517
 40
0.6489886002
 40
0.6848395534
 40
0.7197889682
 40
0.7536865803
 40
0.7863999373
 40
0.817818795
 40
0.8478604273
 40
0.86234917
 40
0.8764784864
 40
0.8902491309
 40
0.903664725
 40
0.9167328765
 40
0.9294647475
 40
0.9418763864
 40
0.9539877742
 40
0.9658236625
 40
0.9774151297
 40
1.0
 40
1.0
 40
1.0
 40
1.0
 10
10.6500945459
 20
11.1846708583
 30
0.0
 10
10.6533096938
 20
11.181432886
 30
0.0
 10
10.6584822394
 20
11.1768300979
 30
0.0
 10
10.6658765333
 20
11.1711927227
 30
0.0
 10
10.6717859069
 20
11.1671089032
 30
0.0
 10
10.6780038002
 20
11.1631933812
 30
0.0
 10
10.6845273699
 20
11.1594347343
 30
0.0
 10
10.6913533045
 20
11.1558243186
 30
0.0
 10
10.6984783209
 20
11.1523553495
 30
0.0
 10
10.7058988139
 20
11.1490231367
 30
0.0
 10
10.7136102466
 20
11.1458242412
 30
0.0
 10
10.7216074533
 20
11.1427567778
 30
0.0
 10
10.7298841655
 20
11.1398195981
 30
0.0
 10
10.7384333793
 20
11.1370125383
 30
0.0
 10
10.7503164505
 20
11.1334039575
 30
0.0
 10
10.7657993889
 20
11.1292406736
 30
0.0
 10
10.7851134898
 20
11.1248337586
 30
0.0
 10
10.8052711412
 20
11.1209757247
 30
0.0
 10
10.8261700412
 20
11.1176810407
 30
0.0
 10
10.8476995729
 20
11.1149636917
 30
0.0
 10
10.8697419025
 20
11.1128361729
 30
0.0
 10
10.8921736428
 20
11.1113088006
 30
0.0
 10
10.9148672598
 20
11.1103892393
 30
0.0
 10
10.9376924926
 20
11.1100821931
 30
0.0
 10
10.9605177233
 20
11.1103892483
 30
0.0
 10
10.9832113347
 20
11.1113088175
 30
0.0
 10
11.0056430651
 20
11.1128361952
 30
0.0
 10
11.0276853825
 20
11.1149637209
 30
0.0
 10
11.0492148896
 20
11.117681076
 30
0.0
 10
11.070113787
 20
11.1209757651
 30
0.0
 10
11.0902713427
 20
11.1248338013
 30
0.0
 10
11.1095856692
 20
11.1292407194
 30
0.0
 10
11.1279647856
 20
11.1341830087
 30
0.0
 10
11.1426069844
 20
11.1387928614
 30
0.0
 10
11.1537773147
 20
11.1427567897
 30
0.0
 10
11.1617745185
 20
11.1458242762
 30
0.0
 10
11.1694859282
 20
11.1490231645
 30
0.0
 10
11.1769064083
 20
11.1523553639
 30
0.0
 10
11.1840313927
 20
11.1558243398
 30
0.0
 10
11.1908573238
 20
11.1594347197
 30
0.0
 10
11.1973808637
 20
11.1631933889
 30
0.0
 10
11.2035987282
 20
11.1671088738
 30
0.0
 10
11.2095080578
 20
11.1711926538
 30
0.0
 10
11.2169023491
 20
11.176829993
 30
0.0
 10
11.2220748997
 20
11.1814328017
 30
0.0
 10
11.2252900752
 20
11.1846707935
 30
0.0
  0
SPLINE
  5
315
100
AcDbEntity
  8
0
100
AcDbSpline
 62
7
  6
CONTINUOUS
 70
0
 71
3
 72
57
 73
53
 74
0
 42
0.0000001
 43
0.0000001
 44
0.0000000001
 40
0.0
 40
0.0
 40
0.0
 40
0.0
 40
0.0088048995
 40
0.0180781543
 40
0.0278416732
 40
0.0381112716
 40
0.0488975645
 40
0.0602065549
 40
0.0720403099
 40
0.0843975079
 40
0.0972737469
 40
0.1106620204
 40
0.1245529882
 40
0.1389351551
 40
0.1537952062
 40
0.1691181119
 40
0.1848872769
 40
0.2010847674
 40
0.2176913355
 40
0.2346865755
 40
0.2697549979
 40
0.3061088381
 40
0.3435525894
 40
0.3818803895
 40
0.4208782263
 40
0.460326064
 40
0.4999998946
 40
0.5396737262
 40
0.5791215671
 40
0.6181194092
 40
0.6564472166
 40
0.693890977
 40
0.7302448284
 40
0.7653132637
 40
0.7823085107
 40
0.7989150863
 40
0.8151125846
 40
0.8308817578
 40
0.8462046721
 40
0.8610647319
 40
0.8754469079
 40
0.889337885
 40
0.9027261679
 40
0.9156024166
 40
0.9279596243
 40
0.9397933892
 40
0.9511023894
 40
0.961888692
 40
0.9721583
 40
0.9819218283
 40
0.991195092
 40
1.0
 40
1.0
 40
1.0
 40
1.0
 10
11.2617371485
 20
11.6337071683
 30
0.0
 10
11.2604324744
 20
11.6352301956
 30
0.0
 10
11.2576351766
 20
11.6382571462
 30
0.0
 10
11.2530297639
 20
11.6426219879
 30
0.0
 10
11.247917032
 20
11.6469189019
 30
0.0
 10
11.2423054652
 20
11.6511411196
 30
0.0
 10
11.2362038378
 20
11.6552822626
 30
0.0
 10
11.2296218632
 20
11.6593359217
 30
0.0
 10
11.2225699795
 20
11.6632957737
 30
0.0
 10
11.2150593806
 20
11.6671555218
 30
0.0
 10
11.2071020551
 20
11.6709090734
 30
0.0
 10
11.198710706
 20
11.6745504232
 30
0.0
 10
11.1898987512
 20
11.6780737085
 30
0.0
 10
11.1806803266
 20
11.6814733078
 30
0.0
 10
11.1710702162
 20
11.6847437208
 30
0.0
 10
11.1610838571
 20
11.6878796679
 30
0.0
 10
11.1507373104
 20
11.6908761207
 30
0.0
 10
11.140047222
 20
11.6937281955
 30
0.0
 10
11.1290307743
 20
11.6964313322
 30
0.0
 10
11.113771329
 20
11.699866853
 30
0.0
 10
11.0940051401
 20
11.7037444455
 30
0.0
 10
11.0695216039
 20
11.7076936971
 30
0.0
 10
11.0441891698
 20
11.7109605726
 30
0.0
 10
11.0181710344
 20
11.7135238091
 30
0.0
 10
10.9916345712
 20
11.7153667067
 30
0.0
 10
10.9647506683
 20
11.7164772754
 30
0.0
 10
10.9376924694
 20
11.7168482772
 30
0.0
 10
10.9106342696
 20
11.7164772824
 30
0.0
 10
10.8837503642
 20
11.7153667206
 30
0.0
 10
10.857213897
 20
11.7135238297
 30
0.0
 10
10.8311957559
 20
11.7109605999
 30
0.0
 10
10.8058633147
 20
11.7076937309
 30
0.0
 10
10.7813797698
 20
11.7037444855
 30
0.0
 10
10.7616135727
 20
11.6998668982
 30
0.0
 10
10.7463541201
 20
11.6964313813
 30
0.0
 10
10.7353376665
 20
11.6937282474
 30
0.0
 10
10.7246475718
 20
11.6908761754
 30
0.0
 10
10.7143010185
 20
11.6878797252
 30
0.0
 10
10.7043146525
 20
11.6847437807
 30
0.0
 10
10.694704535
 20
11.6814733702
 30
0.0
 10
10.6854861029
 20
11.6780737732
 30
0.0
 10
10.6766741403
 20
11.6745504902
 30
0.0
 10
10.6682827832
 20
11.6709091426
 30
0.0
 10
10.6603254495
 20
11.667155593
 30
0.0
 10
10.6528148422
 20
11.6632958469
 30
0.0
 10
10.6457629498
 20
11.6593359966
 30
0.0
 10
10.6391809663
 20
11.6552823392
 30
0.0
 10
10.6330793298
 20
11.6511411978
 30
0.0
 10
10.6274677538
 20
11.6469189816
 30
0.0
 10
10.6223550125
 20
11.6426220689
 30
0.0
 10
10.6177495902
 20
11.6382572284
 30
0.0
 10
10.6149522858
 20
11.6352302785
 30
0.0
 10
10.6136476083
 20
11.6337072515
 30
0.0
  0
SPLINE
  5
316
100
AcDbEntity
  8
0
100
AcDbSpline
 62
7
  6
CONTINUOUS
 70
0
 71
3
 72
54
 73
50
 74
0
 42
0.0000001
 43
0.0000001
 44
0.0000000001
 40
0.0
 40
0.0
 40
0.0
 40
0.0
 40
0.0120312156
 40
0.0180471109
 40
0.024079415
 40
0.0362134251
 40
0.0484686532
 40
0.060887679
 40
0.073511797
 40
0.0863743336
 40
0.0995032272
 40
0.1129217403
 40
0.1266478687
 40
0.1406948547
 40
0.1550712972
 40
0.1697821856
 40
0.1848284452
 40
0.2159139254
 40
0.2482788432
 40
0.2818338593
 40
0.3164589792
 40
0.3520097595
 40
0.3883225588
 40
0.4252191219
 40
0.4625106046
 40
0.5000012417
 40
0.5374918726
 40
0.5747833424
 40
0.6116798778
 40
0.6479926351
 40
0.6835433637
 40
0.7181684413
 40
0.7517233869
 40
0.7840882205
 40
0.815173605
 40
0.8302198455
 40
0.8449306727
 40
0.8593070733
 40
0.8733540153
 40
0.8870800606
 40
0.9004985675
 40
0.9136273654
 40
0.926489795
 40
0.9391138871
 40
0.9515330663
 40
0.9637877844
 40
0.9759211929
 40
0.9879703093
 40
1.0
 40
1.0
 40
1.0
 40
1.0
 10
11.2617223606
 20
11.633724458
 30
0.0
 10
11.2599229752
 20
11.6358249982
 30
0.0
 10
11.2571160506
 20
11.6388854879
 30
0.0
 10
11.2531859735
 20
11.6427847054
 30
0.0
 10
11.2491241191
 20
11.6465814789
 30
0.0
 10
11.243811336
 20
11.6511355062
 30
0.0
 10
11.2371043798
 20
11.6563006606
 30
0.0
 10
11.2300642773
 20
11.6612009282
 30
0.0
 10
11.2226981816
 20
11.6658616657
 30
0.0
 10
11.2150083003
 20
11.6703016338
 30
0.0
 10
11.2069972676
 20
11.674537442
 30
0.0
 10
11.1986667191
 20
11.6785814373
 30
0.0
 10
11.1900189192
 20
11.6824437063
 30
0.0
 10
11.1810568659
 20
11.6861315202
 30
0.0
 10
11.1717846158
 20
11.6896500328
 30
0.0
 10
11.1622075612
 20
11.6930029827
 30
0.0
 10
11.1488961852
 20
11.6973019585
 30
0.0
 10
11.1315352328
 20
11.702249094
 30
0.0
 10
11.1098493894
 20
11.7074731573
 30
0.0
 10
11.0871852294
 20
11.7120391467
 30
0.0
 10
11.0636541828
 20
11.7159346137
 30
0.0
 10
11.0393807279
 20
11.7191457008
 30
0.0
 10
11.0145005338
 20
11.7216590637
 30
0.0
 10
10.9891578753
 20
11.7234632011
 30
0.0
 10
10.963503413
 20
11.7245493318
 30
0.0
 10
10.9376920067
 20
11.7249119844
 30
0.0
 10
10.9118806037
 20
11.7245493103
 30
0.0
 10
10.8862261528
 20
11.7234631649
 30
0.0
 10
10.8608835145
 20
11.7216590105
 30
0.0
 10
10.8360033503
 20
11.7191456292
 30
0.0
 10
10.811729929
 20
11.7159345267
 30
0.0
 10
10.7881989225
 20
11.7120390492
 30
0.0
 10
10.7655348106
 20
11.7074730502
 30
0.0
 10
10.7438490279
 20
11.7022489815
 30
0.0
 10
10.7264881216
 20
11.6973018505
 30
0.0
 10
10.7131767905
 20
11.693002867
 30
0.0
 10
10.7035997651
 20
11.6896499197
 30
0.0
 10
10.6943275447
 20
11.6861314229
 30
0.0
 10
10.685365545
 20
11.6824435827
 30
0.0
 10
10.6767177499
 20
11.6785813759
 30
0.0
 10
10.6683872813
 20
11.6745373153
 30
0.0
 10
10.6603762503
 20
11.670301605
 30
0.0
 10
10.6526864529
 20
11.6658616014
 30
0.0
 10
10.6453203082
 20
11.6612009166
 30
0.0
 10
10.6382803874
 20
11.6563005893
 30
0.0
 10
10.6315734289
 20
11.6511356469
 30
0.0
 10
10.6252103983
 20
11.6456812279
 30
0.0
 10
10.6192065246
 20
11.639907617
 30
0.0
 10
10.6154615571
 20
11.6358248122
 30
0.0
 10
10.6136623963
 20
11.6337245412
 30
0.0
  0
SPLINE
  5
317
100
AcDbEntity
  8
0
100
AcDbSpline
 62
7
  6
CONTINUOUS
 70
0
 71
3
 72
14
 73
10
 74
0
 42
0.0000001
 43
0.0000001
 44
0.0000000001
 40
0.0
 40
0.0
 40
0.0
 40
0.0
 40
0.2484680721
 40
0.3727062062
 40
0.497199866
 40
0.6221233175
 40
0.747575107
 40
0.8734460983
 40
1.0
 40
1.0
 40
1.0
 40
1.0
 10
10.6135661577
 20
11.6336121267
 30
0.0
 10
10.6111029945
 20
11.6307294413
 30
0.0
 10
10.6076237623
 20
11.6262113313
 30
0.0
 10
10.6035294665
 20
11.6198193744
 30
0.0
 10
10.6007505044
 20
11.6148357442
 30
0.0
 10
10.5982902228
 20
11.6096666619
 30
0.0
 10
10.5961766516
 20
11.6043232177
 30
0.0
 10
10.5944350486
 20
11.5988210844
 30
0.0
 10
10.5935426806
 20
11.5950694898
 30
0.0
 10
10.5931659908
 20
11.5931753267
 30
0.0
  0
SPLINE
  5
318
100
AcDbEntity
  8
0
100
AcDbSpline
 62
7
  6
CONTINUOUS
 70
0
 71
3
 72
14
 73
10
 74
0
 42
0.0000001
 43
0.0000001
 44
0.0000000001
 40
0.0
 40
0.0
 40
0.0
 40
0.0
 40
0.1265630399
 40
0.2524193135
 40
0.377873617
 40
0.5028003399
 40
0.6272935933
 40
0.7515301688
 40
1.0
 40
1.0
 40
1.0
 40
1.0
 10
11.2822186948
 20
11.5931753267
 30
0.0
 10
11.2818419696
 20
11.5950696673
 30
0.0
 10
11.2809496618
 20
11.5988212767
 30
0.0
 10
11.2792078893
 20
11.6043234381
 30
0.0
 10
11.2770943462
 20
11.6096668754
 30
0.0
 10
11.2746340135
 20
11.6148361634
 30
0.0
 10
11.2718549111
 20
11.6198198798
 30
0.0
 10
11.2677604868
 20
11.6262119425
 30
0.0
 10
11.2642811655
 20
11.6307301435
 30
0.0
 10
11.2618179121
 20
11.6336128944
 30
0.0
  0
SPLINE
  5
319
100
AcDbEntity
  8
0
100
AcDbSpline
 62
7
  6
CONTINUOUS
 70
0
 71
3
 72
18
 73
14
 74
0
 42
0.0000001
 43
0.0000001
 44
0.0000000001
 40
0.0
 40
0.0
 40
0.0
 40
0.0
 40
0.0817331515
 40
0.180191502
 40
0.2933512823
 40
0.3547630058
 40
0.4189975469
 40
0.4857670017
 40
0.554787698
 40
0.6984223059
 40
0.772420928
 40
0.8474509994
 40
1.0
 40
1.0
 40
1.0
 40
1.0
 10
10.6407416096
 20
11.2981988057
 30
0.0
 10
10.6414297534
 20
11.299144951
 30
0.0
 10
10.6428728932
 20
11.3012853192
 30
0.0
 10
10.6449851107
 20
11.3049179359
 30
0.0
 10
10.6467117154
 20
11.3084280694
 30
0.0
 10
10.6480566008
 20
11.3115712989
 30
0.0
 10
10.6490469773
 20
11.3141420204
 30
0.0
 10
10.6499758454
 20
11.3168510541
 30
0.0
 10
10.6511308455
 20
11.3206811177
 30
0.0
 10
10.65208669
 20
11.324676317
 30
0.0
 10
10.6528291147
 20
11.328800042
 30
0.0
 10
10.6534280838
 20
11.3330758878
 30
0.0
 10
10.6536904183
 20
11.3363272586
 30
0.0
 10
10.6537812864
 20
11.338508954
 30
0.0
  0
SPLINE
  5
31A
100
AcDbEntity
  8
0
100
AcDbSpline
 62
7
  6
CONTINUOUS
 70
0
 71
3
 72
17
 73
13
 74
0
 42
0.0000001
 43
0.0000001
 44
0.0000000001
 40
0.0
 40
0.0
 40
0.0
 40
0.0
 40
0.1525663462
 40
0.2275828526
 40
0.3015692031
 40
0.4452072494
 40
0.5142315182
 40
0.5810016884
 40
0.7066257664
 40
0.8197911582
 40
0.918257892
 40
1.0
 40
1.0
 40
1.0
 40
1.0
 10
11.2216033991
 20
11.338508954
 30
0.0
 10
11.2216942736
 20
11.3363271059
 30
0.0
 10
11.2219566185
 20
11.333075826
 30
0.0
 10
11.2225554754
 20
11.3288002771
 30
0.0
 10
11.2232979631
 20
11.3246770726
 30
0.0
 10
11.2242535525
 20
11.3206821005
 30
0.0
 10
11.2254085045
 20
11.3168520388
 30
0.0
 10
11.2266224299
 20
11.3133118561
 30
0.0
 10
11.2282668252
 20
11.3092545776
 30
0.0
 10
11.2303989146
 20
11.3049191815
 30
0.0
 10
11.232511161
 20
11.3012862847
 30
0.0
 10
11.2339543153
 20
11.2991457861
 30
0.0
 10
11.23464249
 20
11.2981995679
 30
0.0
  0
SPLINE
  5
31B
100
AcDbEntity
  8
0
100
AcDbSpline
 62
7
  6
CONTINUOUS
 70
0
 71
3
 72
12
 73
8
 74
0
 42
0.0000001
 43
0.0000001
 44
0.0000000001
 40
0.0
 40
0.0
 40
0.0
 40
0.0
 40
0.2453046938
 40
0.49370182
 40
0.7453829769
 40
0.8723109274
 40
1.0
 40
1.0
 40
1.0
 40
1.0
 10
10.640743488
 20
11.2982013952
 30
0.0
 10
10.6387644865
 20
11.2954805572
 30
0.0
 10
10.6350361254
 20
11.2898129713
 30
0.0
 10
10.6303074293
 20
11.2807290532
 30
0.0
 10
10.6271897826
 20
11.2726924854
 30
0.0
 10
10.6252485346
 20
11.2660220375
 30
0.0
 10
10.6244733339
 20
11.2626143417
 30
0.0
 10
10.6241365589
 20
11.2608957312
 30
0.0
  0
SPLINE
  5
31C
100
AcDbEntity
  8
0
100
AcDbSpline
 62
7
  6
CONTINUOUS
 70
0
 71
3
 72
12
 73
8
 74
0
 42
0.0000001
 43
0.0000001
 44
0.0000000001
 40
0.0
 40
0.0
 40
0.0
 40
0.0
 40
0.1277051535
 40
0.2546097992
 40
0.5062967249
 40
0.7546923482
 40
1.0
 40
1.0
 40
1.0
 40
1.0
 10
11.2512481266
 20
11.2608957312
 30
0.0
 10
11.2509112901
 20
11.2626146555
 30
0.0
 10
11.2501361378
 20
11.2660224666
 30
0.0
 10
11.2481945574
 20
11.2726932064
 30
0.0
 10
11.2450769159
 20
11.2807300146
 30
0.0
 10
11.2403476992
 20
11.2898144395
 30
0.0
 10
11.2366190126
 20
11.2954822904
 30
0.0
 10
11.2346398384
 20
11.2982032885
 30
0.0
  0
SPLINE
  5
31D
100
AcDbEntity
  8
0
100
AcDbSpline
 62
7
  6
CONTINUOUS
 70
0
 71
3
 72
11
 73
7
 74
0
 42
0.0000001
 43
0.0000001
 44
0.0000000001
 40
0.0
 40
0.0
 40
0.0
 40
0.0
 40
0.2419906922
 40
0.4881107567
 40
0.74003415
 40
1.0
 40
1.0
 40
1.0
 40
1.0
 10
11.5510741192
 20
4.6552946624
 30
0.0
 10
11.549626377
 20
4.6552946642
 30
0.0
 10
11.546705106
 20
4.6553796437
 30
0.0
 10
11.5422958277
 20
4.6558263853
 30
0.0
 10
11.5378330377
 20
4.6566638626
 30
0.0
 10
11.5348847935
 20
4.6575145171
 30
0.0
 10
11.5334143125
 20
4.658021059
 30
0.0
  0
SPLINE
  5
31E
100
AcDbEntity
  8
0
100
AcDbSpline
 62
7
  6
CONTINUOUS
 70
0
 71
3
 72
41
 73
37
 74
0
 42
0.0000001
 43
0.0000001
 44
0.0000000001
 40
0.0
 40
0.0
 40
0.0
 40
0.0
 40
0.0110981197
 40
0.0431377588
 40
0.0930387001
 40
0.1235594913
 40
0.1572239853
 40
0.1936542724
 40
0.2325144954
 40
0.2735035508
 40
0.3163405346
 40
0.3383669953
 40
0.3607484986
 40
0.383445068
 40
0.4064134153
 40
0.4296063259
 40
0.4529723918
 40
0.4764563282
 40
0.4999999986
 40
0.5235436692
 40
0.5470276058
 40
0.5703936717
 40
0.5935865832
 40
0.6165549303
 40
0.6392514994
 40
0.661633003
 40
0.6836594634
 40
0.7264964477
 40
0.7674855035
 40
0.8063457273
 40
0.8427760144
 40
0.8764405086
 40
0.9069612999
 40
0.9568622411
 40
0.9889018803
 40
1.0
 40
1.0
 40
1.0
 40
1.0
 10
11.7426923427
 20
5.8912946624
 30
0.0
 10
11.7405981964
 20
5.8946662591
 30
0.0
 10
11.7324947742
 20
5.9077941089
 30
0.0
 10
11.715334931
 20
5.9363029484
 30
0.0
 10
11.6954030409
 20
5.9712446469
 30
0.0
 10
11.6761458304
 20
6.0072179717
 30
0.0
 10
11.6599171397
 20
6.0393383015
 30
0.0
 10
11.6433492163
 20
6.0746131791
 30
0.0
 10
11.6269792063
 20
6.112851595
 30
0.0
 10
11.6113883624
 20
6.153879561
 30
0.0
 10
11.599682924
 20
6.1899012889
 30
0.0
 10
11.5913091675
 20
6.2199621834
 30
0.0
 10
11.5855814325
 20
6.2432715157
 30
0.0
 10
11.5805509348
 20
6.2670860349
 30
0.0
 10
11.576300031
 20
6.2913472896
 30
0.0
 10
11.5729042553
 20
6.315985193
 30
0.0
 10
11.5704282735
 20
6.340918231
 30
0.0
 10
11.5689217123
 20
6.3660545777
 30
0.0
 10
11.5684159516
 20
6.391294661
 30
0.0
 10
11.5689217123
 20
6.4165347444
 30
0.0
 10
11.5704282733
 20
6.4416710912
 30
0.0
 10
11.572904255
 20
6.4666041297
 30
0.0
 10
11.5763000308
 20
6.4912420333
 30
0.0
 10
11.5805509343
 20
6.5155032882
 30
0.0
 10
11.5855814321
 20
6.5393178072
 30
0.0
 10
11.591309167
 20
6.5626271395
 30
0.0
 10
11.5996829235
 20
6.5926880342
 30
0.0
 10
11.6113883619
 20
6.6287097623
 30
0.0
 10
11.626979206
 20
6.6697377289
 30
0.0
 10
11.6433492161
 20
6.7079761452
 30
0.0
 10
11.6599171395
 20
6.7432510231
 30
0.0
 10
11.6761458303
 20
6.775371353
 30
0.0
 10
11.6954030409
 20
6.8113446779
 30
0.0
 10
11.7153349309
 20
6.8462863764
 30
0.0
 10
11.7324947742
 20
6.8747952159
 30
0.0
 10
11.7405981964
 20
6.8879230658
 30
0.0
 10
11.7426923427
 20
6.8912946624
 30
0.0
  0
SPLINE
  5
31F
100
AcDbEntity
  8
0
100
AcDbSpline
 62
7
  6
CONTINUOUS
 70
0
 71
3
 72
41
 73
37
 74
0
 42
0.0000001
 43
0.0000001
 44
0.0000000001
 40
0.0
 40
0.0
 40
0.0
 40
0.0
 40
0.0110981198
 40
0.0431377589
 40
0.0930387
 40
0.1235594912
 40
0.1572239854
 40
0.1936542725
 40
0.2325144964
 40
0.2735035522
 40
0.3163405367
 40
0.338366997
 40
0.3607485007
 40
0.3834450696
 40
0.4064134165
 40
0.4296063282
 40
0.4529723941
 40
0.4764563309
 40
0.5000000018
 40
0.5235436723
 40
0.5470276088
 40
0.5703936749
 40
0.5935865853
 40
0.6165549327
 40
0.639251502
 40
0.6616330052
 40
0.683659466
 40
0.7264964497
 40
0.7674855053
 40
0.8063457281
 40
0.8427760151
 40
0.8764405089
 40
0.9069613
 40
0.9568622412
 40
0.9889018803
 40
1.0
 40
1.0
 40
1.0
 40
1.0
 10
10.1326923427
 20
6.8912946624
 30
0.0
 10
10.1347864891
 20
6.8879230657
 30
0.0
 10
10.1428899113
 20
6.8747952159
 30
0.0
 10
10.1600497545
 20
6.8462863765
 30
0.0
 10
10.1799816446
 20
6.8113446781
 30
0.0
 10
10.1992388551
 20
6.7753713532
 30
0.0
 10
10.2154675459
 20
6.7432510233
 30
0.0
 10
10.2320354693
 20
6.7079761454
 30
0.0
 10
10.2484054795
 20
6.669737729
 30
0.0
 10
10.2639963236
 20
6.6287097623
 30
0.0
 10
10.275701762
 20
6.5926880342
 30
0.0
 10
10.2840755185
 20
6.5626271394
 30
0.0
 10
10.2898032533
 20
6.5393178072
 30
0.0
 10
10.2948337512
 20
6.5155032884
 30
0.0
 10
10.2990846546
 20
6.4912420335
 30
0.0
 10
10.3024804304
 20
6.4666041298
 30
0.0
 10
10.3049564122
 20
6.4416710912
 30
0.0
 10
10.3064629731
 20
6.4165347443
 30
0.0
 10
10.3069687339
 20
6.3912946607
 30
0.0
 10
10.3064629731
 20
6.3660545771
 30
0.0
 10
10.3049564119
 20
6.3409182304
 30
0.0
 10
10.3024804301
 20
6.3159851923
 30
0.0
 10
10.2990846543
 20
6.2913472888
 30
0.0
 10
10.2948337506
 20
6.2670860342
 30
0.0
 10
10.2898032529
 20
6.2432715151
 30
0.0
 10
10.2840755178
 20
6.2199621829
 30
0.0
 10
10.2757017613
 20
6.1899012884
 30
0.0
 10
10.2639963228
 20
6.1538795604
 30
0.0
 10
10.2484054789
 20
6.1128515945
 30
0.0
 10
10.2320354689
 20
6.0746131785
 30
0.0
 10
10.2154675456
 20
6.0393383012
 30
0.0
 10
10.199238855
 20
6.0072179715
 30
0.0
 10
10.1799816445
 20
5.9712446468
 30
0.0
 10
10.1600497545
 20
5.9363029484
 30
0.0
 10
10.1428899112
 20
5.9077941089
 30
0.0
 10
10.1347864891
 20
5.8946662591
 30
0.0
 10
10.1326923427
 20
5.8912946624
 30
0.0
  0
SPLINE
  5
320
100
AcDbEntity
  8
0
100
AcDbSpline
 62
7
  6
CONTINUOUS
 70
0
 71
3
 72
9
 73
5
 74
0
 42
0.0000001
 43
0.0000001
 44
0.0000000001
 40
0.0
 40
0.0
 40
0.0
 40
0.0
 40
0.2469387256
 40
1.0
 40
1.0
 40
1.0
 40
1.0
 10
11.5167843824
 20
4.6680299427
 30
0.0
 10
11.5162123173
 20
4.6685538011
 30
0.0
 10
11.5139422632
 20
4.6707256766
 30
0.0
 10
11.5118597337
 20
4.6730922752
 30
0.0
 10
11.5104062461
 20
4.674958567
 30
0.0
  0
SPLINE
  5
321
100
AcDbEntity
  8
0
100
AcDbSpline
 62
7
  6
CONTINUOUS
 70
0
 71
3
 72
15
 73
11
 74
0
 42
0.0000001
 43
0.0000001
 44
0.0000000001
 40
0.0
 40
0.0
 40
0.0
 40
0.0
 40
0.1119188589
 40
0.2252374283
 40
0.3412732846
 40
0.4612571793
 40
0.5862725837
 40
0.7172459761
 40
0.8549479906
 40
1.0
 40
1.0
 40
1.0
 40
1.0
 10
11.2414422856
 20
11.2180971851
 30
0.0
 10
11.2414422856
 20
11.2166823699
 30
0.0
 10
11.2412712235
 20
11.213832192
 30
0.0
 10
11.2405042587
 20
11.2095773029
 30
0.0
 10
11.2392287818
 20
11.205339764
 30
0.0
 10
11.2374487729
 20
11.2011283538
 30
0.0
 10
11.2351689445
 20
11.1969498122
 30
0.0
 10
11.2323942873
 20
11.1928106654
 30
0.0
 10
11.2291305565
 20
11.1887172462
 30
0.0
 10
11.2266981285
 20
11.1860933981
 30
0.0
 10
11.2254083077
 20
11.1847900588
 30
0.0
  0
SPLINE
  5
322
100
AcDbEntity
  8
0
100
AcDbSpline
 62
7
  6
CONTINUOUS
 70
0
 71
3
 72
27
 73
23
 74
0
 42
0.0000001
 43
0.0000001
 44
0.0000000001
 40
0.0
 40
0.0
 40
0.0
 40
0.0
 40
0.0404405501
 40
0.0883643011
 40
0.1514299988
 40
0.2269022062
 40
0.2684596962
 40
0.312110456
 40
0.3574948086
 40
0.4042243311
 40
0.4518768607
 40
0.4999999969
 40
0.5481231422
 40
0.5957756643
 40
0.6425051911
 40
0.6878895409
 40
0.731540302
 40
0.7730977908
 40
0.8485700009
 40
0.9116356999
 40
0.9595594499
 40
1.0
 40
1.0
 40
1.0
 40
1.0
 10
8.9336923427
 20
6.8412946624
 30
0.0
 10
8.9288847284
 20
6.8392915324
 30
0.0
 10
8.9183300412
 20
6.8350327673
 30
0.0
 10
8.9000556452
 20
6.8282139182
 30
0.0
 10
8.8772644401
 20
6.8206267882
 30
0.0
 10
8.8549107866
 20
6.8143877613
 30
0.0
 10
8.8347407445
 20
6.8097465865
 30
0.0
 10
8.8182239654
 20
6.8065529282
 30
0.0
 10
8.8009376401
 20
6.8038947434
 30
0.0
 10
8.783043321
 20
6.8018949909
 30
0.0
 10
8.7647264063
 20
6.8006520503
 30
0.0
 10
8.7461923428
 20
6.8002303732
 30
0.0
 10
8.7276582802
 20
6.8006520502
 30
0.0
 10
8.7093413648
 20
6.8018949911
 30
0.0
 10
8.6914470464
 20
6.8038947432
 30
0.0
 10
8.6741607208
 20
6.8065529282
 30
0.0
 10
8.6576439419
 20
6.8097465862
 30
0.0
 10
8.6374738995
 20
6.8143877612
 30
0.0
 10
8.6151202456
 20
6.8206267881
 30
0.0
 10
8.5923290402
 20
6.8282139182
 30
0.0
 10
8.5740546442
 20
6.8350327673
 30
0.0
 10
8.5634999571
 20
6.8392915324
 30
0.0
 10
8.5586923427
 20
6.8412946624
 30
0.0
  0
SPLINE
  5
323
100
AcDbEntity
  8
0
100
AcDbSpline
 62
7
  6
CONTINUOUS
 70
0
 71
3
 72
27
 73
23
 74
0
 42
0.0000001
 43
0.0000001
 44
0.0000000001
 40
0.0
 40
0.0
 40
0.0
 40
0.0
 40
0.0404405224
 40
0.0883642816
 40
0.1514300006
 40
0.2269022459
 40
0.2684597355
 40
0.3121104752
 40
0.357494879
 40
0.4042243366
 40
0.4518768918
 40
0.4999999971
 40
0.5481231082
 40
0.5957756588
 40
0.6425051223
 40
0.6878895212
 40
0.7315402643
 40
0.7730977514
 40
0.8485699994
 40
0.9116357192
 40
0.9595594776
 40
1.0
 40
1.0
 40
1.0
 40
1.0
 10
13.3166923427
 20
6.8412946624
 30
0.0
 10
13.3118847311
 20
6.8392915352
 30
0.0
 10
13.3013300454
 20
6.835032773
 30
0.0
 10
13.2830556495
 20
6.8282139231
 30
0.0
 10
13.2602644388
 20
6.8206267826
 30
0.0
 10
13.2379107752
 20
6.8143877623
 30
0.0
 10
13.2177407318
 20
6.8097465855
 30
0.0
 10
13.2012239518
 20
6.8065529063
 30
0.0
 10
13.1839376234
 20
6.8038947785
 30
0.0
 10
13.1660433118
 20
6.8018949339
 30
0.0
 10
13.1477263988
 20
6.8006521142
 30
0.0
 10
13.1291923431
 20
6.8002303034
 30
0.0
 10
13.110658288
 20
6.8006521141
 30
0.0
 10
13.0923413741
 20
6.801894934
 30
0.0
 10
13.0744470629
 20
6.8038947782
 30
0.0
 10
13.057160734
 20
6.8065529063
 30
0.0
 10
13.0406439544
 20
6.8097465853
 30
0.0
 10
13.0204739107
 20
6.8143877623
 30
0.0
 10
12.9981202469
 20
6.8206267825
 30
0.0
 10
12.9753290358
 20
6.8282139232
 30
0.0
 10
12.95705464
 20
6.835032773
 30
0.0
 10
12.9464999544
 20
6.8392915352
 30
0.0
 10
12.9416923427
 20
6.8412946624
 30
0.0
  0
SPLINE
  5
324
100
AcDbEntity
  8
0
100
AcDbSpline
 62
9
  6
CONTINUOUS
 70
0
 71
3
 72
15
 73
11
 74
0
 42
0.0000001
 43
0.0000001
 44
0.0000000001
 40
0.0
 40
0.0
 40
0.0
 40
0.0
 40
0.1159758681
 40
0.2374719508
 40
0.3630463426
 40
0.4912714278
 40
0.6206159789
 40
0.7495252269
 40
0.8765067682
 40
1.0
 40
1.0
 40
1.0
 40
1.0
 10
10.4854174077
 20
4.8188800778
 30
0.0
 10
10.4859793018
 20
4.8188395685
 30
0.0
 10
10.4871275514
 20
4.8187223977
 30
0.0
 10
10.4888709649
 20
4.818452556
 30
0.0
 10
10.4906576974
 20
4.8180873621
 30
0.0
 10
10.4924628825
 20
4.8176319737
 30
0.0
 10
10.4942616582
 20
4.8170925255
 30
0.0
 10
10.4960293036
 20
4.8164765333
 30
0.0
 10
10.4977411469
 20
4.8157924823
 30
0.0
 10
10.4988491762
 20
4.8152885373
 30
0.0
 10
10.4993887079
 20
4.8150263406
 30
0.0
  0
SPLINE
  5
325
100
AcDbEntity
  8
0
100
AcDbSpline
 62
9
  6
CONTINUOUS
 70
0
 71
3
 72
15
 73
11
 74
0
 42
0.0000001
 43
0.0000001
 44
0.0000000001
 40
0.0
 40
0.0
 40
0.0
 40
0.0
 40
0.1173458392
 40
0.2400940181
 40
0.3666605533
 40
0.4954814071
 40
0.624884109
 40
0.7531821268
 40
0.8787725099
 40
1.0
 40
1.0
 40
1.0
 40
1.0
 10
10.478142733
 20
4.7932379141
 30
0.0
 10
10.4787427458
 20
4.7932267264
 30
0.0
 10
10.4799698853
 20
4.7931638283
 30
0.0
 10
10.4818349239
 20
4.7929612666
 30
0.0
 10
10.4837445402
 20
4.7926507706
 30
0.0
 10
10.4856692784
 20
4.7922372397
 30
0.0
 10
10.4875797758
 20
4.7917268183
 30
0.0
 10
10.4894469496
 20
4.7911274205
 30
0.0
 10
10.4912419275
 20
4.7904481806
 30
0.0
 10
10.4923974015
 20
4.789938111
 30
0.0
 10
10.4929567768
 20
4.7896707911
 30
0.0
  0
SPLINE
  5
326
100
AcDbEntity
  8
0
100
AcDbSpline
 62
9
  6
CONTINUOUS
 70
0
 71
3
 72
15
 73
11
 74
0
 42
0.0000001
 43
0.0000001
 44
0.0000000001
 40
0.0
 40
0.0
 40
0.0
 40
0.0
 40
0.1172447529
 40
0.2399021804
 40
0.3663983519
 40
0.4951785434
 40
0.6245794883
 40
0.7529229938
 40
0.8786130201
 40
1.0
 40
1.0
 40
1.0
 40
1.0
 10
10.4531490676
 20
4.6968754317
 30
0.0
 10
10.4537470992
 20
4.6968647878
 30
0.0
 10
10.454970297
 20
4.6968031671
 30
0.0
 10
10.4568296078
 20
4.6966029974
 30
0.0
 10
10.4587338248
 20
4.6962953672
 30
0.0
 10
10.4606537227
 20
4.6958851062
 30
0.0
 10
10.4625601593
 20
4.6953782786
 30
0.0
 10
10.464424258
 20
4.6947827031
 30
0.0
 10
10.466217338
 20
4.6941074094
 30
0.0
 10
10.4673721056
 20
4.6936001783
 30
0.0
 10
10.4679313779
 20
4.693334293
 30
0.0
  0
SPLINE
  5
327
100
AcDbEntity
  8
0
100
AcDbSpline
 62
9
  6
CONTINUOUS
 70
0
 71
3
 72
22
 73
18
 74
0
 42
0.0000001
 43
0.0000001
 44
0.0000000001
 40
0.0
 40
0.0
 40
0.0
 40
0.0
 40
0.068753412
 40
0.1378483087
 40
0.20666529
 40
0.2747305311
 40
0.3416734327
 40
0.4072836825
 40
0.4714628801
 40
0.5342090253
 40
0.5955995957
 40
0.6557655189
 40
0.7148651272
 40
0.7730718955
 40
0.8305516367
 40
0.8874631468
 40
1.0
 40
1.0
 40
1.0
 40
1.0
 10
10.3700009533
 20
4.6726194942
 30
0.0
 10
10.3691397006
 20
4.6713549001
 30
0.0
 10
10.3673563414
 20
4.6688575156
 30
0.0
 10
10.364524765
 20
4.6652316807
 30
0.0
 10
10.3615367841
 20
4.6617531867
 30
0.0
 10
10.3584041746
 20
4.6584696159
 30
0.0
 10
10.355139112
 20
4.6554209511
 30
0.0
 10
10.3517636865
 20
4.6526284965
 30
0.0
 10
10.3482927847
 20
4.6501110995
 30
0.0
 10
10.344739907
 20
4.6478824763
 30
0.0
 10
10.3411196712
 20
4.6459477545
 30
0.0
 10
10.3374456648
 20
4.6443071234
 30
0.0
 10
10.333730489
 20
4.6429573918
 30
0.0
 10
10.3299871878
 20
4.6418890866
 30
0.0
 10
10.326226973
 20
4.6410909215
 30
0.0
 10
10.3212263077
 20
4.6403676553
 30
0.0
 10
10.317449758
 20
4.6401741191
 30
0.0
 10
10.3149453966
 20
4.6401741125
 30
0.0
  0
SPLINE
  5
328
100
AcDbEntity
  8
0
100
AcDbSpline
 62
9
  6
CONTINUOUS
 70
0
 71
3
 72
28
 73
24
 74
0
 42
0.0000001
 43
0.0000001
 44
0.0000000001
 40
0.0
 40
0.0
 40
0.0
 40
0.0
 40
0.0119578096
 40
0.024446495
 40
0.0376792499
 40
0.0518341563
 40
0.0670549755
 40
0.0834546447
 40
0.1011209615
 40
0.1201213653
 40
0.1405049895
 40
0.1623077513
 40
0.2102595356
 40
0.2640993356
 40
0.3238465429
 40
0.3894500348
 40
0.4608117984
 40
0.5377916029
 40
0.6202168868
 40
0.7078831475
 40
0.8005714255
 40
0.8980448988
 40
1.0
 40
1.0
 40
1.0
 40
1.0
 10
11.4701393616
 20
4.8150263487
 30
0.0
 10
11.470125389
 20
4.8152452557
 30
0.0
 10
11.4701313141
 20
4.8156955795
 30
0.0
 10
11.4702381567
 20
4.8163804395
 30
0.0
 10
11.4704421662
 20
4.8170847457
 30
0.0
 10
11.470742687
 20
4.8178077861
 30
0.0
 10
11.4711391073
 20
4.8185493012
 30
0.0
 10
11.4716308641
 20
4.8193090476
 30
0.0
 10
11.4722175507
 20
4.8200867307
 30
0.0
 10
11.4728987809
 20
4.8208819309
 30
0.0
 10
11.4736740234
 20
4.821694241
 30
0.0
 10
11.4748707819
 20
4.8228359169
 30
0.0
 10
11.4766083764
 20
4.8242958108
 30
0.0
 10
11.4789946743
 20
4.8260550519
 30
0.0
 10
11.4817379258
 20
4.8278681171
 30
0.0
 10
11.4848301462
 20
4.8297296981
 30
0.0
 10
11.4882625282
 20
4.8316340444
 30
0.0
 10
11.4920248928
 20
4.8335754054
 30
0.0
 10
11.4961059741
 20
4.8355477394
 30
0.0
 10
11.5004935229
 20
4.8375450529
 30
0.0
 10
11.5051745259
 20
4.8395612832
 30
0.0
 10
11.5101344707
 20
4.8415900404
 30
0.0
 10
11.5135433625
 20
4.8429181565
 30
0.0
 10
11.5152911
 20
4.8435839268
 30
0.0
  0
SPLINE
  5
329
100
AcDbEntity
  8
0
100
AcDbSpline
 62
9
  6
CONTINUOUS
 70
0
 71
3
 72
54
 73
50
 74
0
 42
0.0000001
 43
0.0000001
 44
0.0000000001
 40
0.0
 40
0.0
 40
0.0
 40
0.0
 40
0.0675415487
 40
0.1351574138
 40
0.2028535795
 40
0.2706393467
 40
0.3045689715
 40
0.33852619
 40
0.3725126733
 40
0.4065310885
 40
0.440586056
 40
0.4746798729
 40
0.4917435842
 40
0.5088194732
 40
0.5259070616
 40
0.5430067279
 40
0.5601190407
 40
0.577241598
 40
0.5943647309
 40
0.6029207413
 40
0.6114678225
 40
0.6199927918
 40
0.6242418384
 40
0.6284783479
 40
0.6368808179
 40
0.6451345305
 40
0.6531610749
 40
0.6570688972
 40
0.6609026544
 40
0.6683686552
 40
0.6756197467
 40
0.6896658659
 40
0.7033228403
 40
0.7167265441
 40
0.7299571258
 40
0.7560901775
 40
0.7820683211
 40
0.7950728984
 40
0.8081103515
 40
0.8211967785
 40
0.8343472874
 40
0.8608803112
 40
0.8877970045
 40
0.9151473687
 40
0.9289958416
 40
0.9429611869
 40
0.9570453888
 40
0.97124776
 40
1.0
 40
1.0
 40
1.0
 40
1.0
 10
11.4701393614
 20
4.8150263505
 30
0.0
 10
11.4694799133
 20
4.8181108816
 30
0.0
 10
11.4681498419
 20
4.8242811098
 30
0.0
 10
11.4661198345
 20
4.8335344756
 30
0.0
 10
11.4640502296
 20
4.8427907579
 30
0.0
 10
11.4622890273
 20
4.8505039068
 30
0.0
 10
11.4608544607
 20
4.856675376
 30
0.0
 10
11.4597639986
 20
4.8613062802
 30
0.0
 10
11.4586579578
 20
4.8659377526
 30
0.0
 10
11.4575348362
 20
4.870569813
 30
0.0
 10
11.4563918481
 20
4.8752021765
 30
0.0
 10
11.4554213363
 20
4.8790615176
 30
0.0
 10
11.4546319403
 20
4.8821487424
 30
0.0
 10
11.4540324774
 20
4.8844647676
 30
0.0
 10
11.4534256328
 20
4.8867806056
 30
0.0
 10
11.4528109232
 20
4.8890961291
 30
0.0
 10
11.4521876765
 20
4.8914110614
 30
0.0
 10
11.4515559676
 20
4.8937248337
 30
0.0
 10
11.451024718
 20
4.895651813
 30
0.0
 10
11.4506008887
 20
4.8971929856
 30
0.0
 10
11.4502850754
 20
4.898347415
 30
0.0
 10
11.4500280838
 20
4.8993094045
 30
0.0
 10
11.4498300798
 20
4.9000787438
 30
0.0
 10
11.449639007
 20
4.9008439311
 30
0.0
 10
11.4494217079
 20
4.9017953468
 30
0.0
 10
11.4492172398
 20
4.9029303725
 30
0.0
 10
11.4491183144
 20
4.9038693108
 30
0.0
 10
11.4490956056
 20
4.9046056508
 30
0.0
 10
11.4491100585
 20
4.9053159753
 30
0.0
 10
11.4491917879
 20
4.9061798747
 30
0.0
 10
11.4494344953
 20
4.9075023259
 30
0.0
 10
11.4499062517
 20
4.9090705286
 30
0.0
 10
11.4506680794
 20
4.9108361354
 30
0.0
 10
11.4515813064
 20
4.9124845305
 30
0.0
 10
11.4529631793
 20
4.9145280654
 30
0.0
 10
11.4549774176
 20
4.9168375456
 30
0.0
 10
11.4572881759
 20
4.9188289305
 30
0.0
 10
11.4592748984
 20
4.9202293598
 30
0.0
 10
11.4608316438
 20
4.9211885046
 30
0.0
 10
11.4624487189
 20
4.9220562686
 30
0.0
 10
11.4646835349
 20
4.9230974497
 30
0.0
 10
11.4676029546
 20
4.9241867192
 30
0.0
 10
11.4712523374
 20
4.9251654626
 30
0.0
 10
11.4743893113
 20
4.9257175565
 30
0.0
 10
11.4769495781
 20
4.9260083688
 30
0.0
 10
11.4789013382
 20
4.9261535573
 30
0.0
 10
11.480873523
 20
4.9262285623
 30
0.0
 10
11.4835376063
 20
4.9262396673
 30
0.0
 10
11.485543354
 20
4.9261495193
 30
0.0
 10
11.4868823238
 20
4.9260488481
 30
0.0
  0
LINE
  5
32A
100
AcDbEntity
  8
0
100
AcDbLine
 62
9
  6
CONTINUOUS
 10
11.9208907573
 20
4.7896708002
 11
11.9709767944
 21
4.6933344041
  0
LINE
  5
32B
100
AcDbEntity
  8
0
100
AcDbLine
 62
9
  6
CONTINUOUS
 10
11.9073814224
 20
4.6822679812
 11
11.9709767944
 21
4.6933344041
  0
LINE
  5
32C
100
AcDbEntity
  8
0
100
AcDbLine
 62
9
  6
CONTINUOUS
 10
11.9208907573
 20
4.7896708002
 11
11.8662791096
 21
4.7606880045
  0
SPLINE
  5
32D
100
AcDbEntity
  8
0
100
AcDbSpline
 62
9
  6
CONTINUOUS
 70
0
 71
3
 72
52
 73
48
 74
0
 42
0.0000001
 43
0.0000001
 44
0.0000000001
 40
0.0
 40
0.0
 40
0.0
 40
0.0
 40
0.00259567
 40
0.0052525744
 40
0.0080808331
 40
0.0111800435
 40
0.014639156
 40
0.0185349802
 40
0.0229295481
 40
0.0278692133
 40
0.0333902334
 40
0.0395196641
 40
0.0462802573
 40
0.0536979809
 40
0.070617992
 40
0.0801787996
 40
0.0904964514
 40
0.1134618454
 40
0.1396465496
 40
0.154014788
 40
0.1692772597
 40
0.1854863627
 40
0.202734918
 40
0.2117962498
 40
0.2211690719
 40
0.2308360746
 40
0.2407149835
 40
0.2506880852
 40
0.2606826208
 40
0.2706730837
 40
0.2806572621
 40
0.3006146574
 40
0.3205687105
 40
0.3405248106
 40
0.3604849484
 40
0.4004171805
 40
0.440362193
 40
0.4803169929
 40
0.5202787919
 40
0.5602459232
 40
0.6002169318
 40
0.6401908419
 40
0.6801669056
 40
0.7601231668
 40
0.8400822395
 40
0.9200417522
 40
1.0
 40
1.0
 40
1.0
 40
1.0
 10
11.8514988561
 20
4.9260489276
 30
0.0
 10
11.8515959327
 20
4.9260994714
 30
0.0
 10
11.8518036093
 20
4.926181776
 30
0.0
 10
11.8521419576
 20
4.9262383211
 30
0.0
 10
11.8525058151
 20
4.9262268955
 30
0.0
 10
11.8528951037
 20
4.9261469678
 30
0.0
 10
11.8533107208
 20
4.9259962947
 30
0.0
 10
11.8537536975
 20
4.9257723135
 30
0.0
 10
11.8542252277
 20
4.9254729311
 30
0.0
 10
11.8547268158
 20
4.925096932
 30
0.0
 10
11.8552594773
 20
4.9246429292
 30
0.0
 10
11.8558241669
 20
4.9241098363
 30
0.0
 10
11.8564219113
 20
4.9234964223
 30
0.0
 10
11.8573029632
 20
4.9225249568
 30
0.0
 10
11.8582117256
 20
4.9214205885
 30
0.0
 10
11.8591566197
 20
4.9201898243
 30
0.0
 10
11.860227601
 20
4.9187348498
 30
0.0
 10
11.8616592776
 20
4.9166757677
 30
0.0
 10
11.8631290172
 20
4.9144364878
 30
0.0
 10
11.8643857536
 20
4.912446617
 30
0.0
 10
11.8653991822
 20
4.9108007114
 30
0.0
 10
11.8664556943
 20
4.9090388781
 30
0.0
 10
11.8673570109
 20
4.9074889923
 30
0.0
 10
11.8680939607
 20
4.9061772343
 30
0.0
 10
11.868660736
 20
4.9051366438
 30
0.0
 10
11.8692253347
 20
4.9040557828
 30
0.0
 10
11.8697787907
 20
4.90294084
 30
0.0
 10
11.8703186441
 20
4.9018039822
 30
0.0
 10
11.8708463759
 20
4.9006562899
 30
0.0
 10
11.8713634905
 20
4.8995032799
 30
0.0
 10
11.8720467055
 20
4.8979643866
 30
0.0
 10
11.8728919595
 20
4.8960377914
 30
0.0
 10
11.8739021484
 20
4.8937244172
 30
0.0
 10
11.8749099907
 20
4.891409892
 30
0.0
 10
11.8762536502
 20
4.8883228179
 30
0.0
 10
11.877934196
 20
4.8844631656
 30
0.0
 10
11.8799523785
 20
4.8798309977
 30
0.0
 10
11.8819740774
 20
4.8751990032
 30
0.0
 10
11.8839976649
 20
4.8705668157
 30
0.0
 10
11.8860243087
 20
4.8659352185
 30
0.0
 10
11.8880530135
 20
4.8613039663
 30
0.0
 10
11.890083823
 20
4.8566732252
 30
0.0
 10
11.8927946495
 20
4.850499722
 30
0.0
 10
11.8961875339
 20
4.842784358
 30
0.0
 10
11.9002662918
 20
4.8335288955
 30
0.0
 10
11.9043511192
 20
4.8242760186
 30
0.0
 10
11.9070784883
 20
4.818109274
 30
0.0
 10
11.9084430149
 20
4.8150263037
 30
0.0
  0
SPLINE
  5
32E
100
AcDbEntity
  8
0
100
AcDbSpline
 62
9
  6
CONTINUOUS
 70
0
 71
3
 72
23
 73
19
 74
0
 42
0.0000001
 43
0.0000001
 44
0.0000000001
 40
0.0
 40
0.0
 40
0.0
 40
0.0
 40
0.0890081906
 40
0.1752077439
 40
0.2583467077
 40
0.3382278351
 40
0.4146667134
 40
0.4874882737
 40
0.556541153
 40
0.6216975645
 40
0.6828587116
 40
0.7399561821
 40
0.7929639155
 40
0.8419029971
 40
0.8868566593
 40
0.9279909679
 40
0.9655756283
 40
1.0
 40
1.0
 40
1.0
 40
1.0
 10
11.9084430149
 20
4.8150263037
 30
0.0
 10
11.9064225297
 20
4.8154514286
 30
0.0
 10
11.9024534932
 20
4.8163278186
 30
0.0
 10
11.8966300941
 20
4.8177449284
 30
0.0
 10
11.8910451518
 20
4.8192404315
 30
0.0
 10
11.8857160119
 20
4.8208095561
 30
0.0
 10
11.8806585445
 20
4.8224475324
 30
0.0
 10
11.8758880049
 20
4.8241494268
 30
0.0
 10
11.8714188178
 20
4.8259099538
 30
0.0
 10
11.867264416
 20
4.8277238625
 30
0.0
 10
11.8634371371
 20
4.8295855272
 30
0.0
 10
11.8599483432
 20
4.8314895311
 30
0.0
 10
11.8568081966
 20
4.833430172
 30
0.0
 10
11.8540257724
 20
4.8354020355
 30
0.0
 10
11.8516089367
 20
4.8373997104
 30
0.0
 10
11.8495643539
 20
4.8394186815
 30
0.0
 10
11.8478987955
 20
4.84145398
 30
0.0
 10
11.8470097709
 20
4.8428757896
 30
0.0
 10
11.8466407008
 20
4.8435839268
 30
0.0
  0
SPLINE
  5
32F
100
AcDbEntity
  8
0
100
AcDbSpline
 62
9
  6
CONTINUOUS
 70
0
 71
3
 72
21
 73
17
 74
0
 42
0.0000001
 43
0.0000001
 44
0.0000000001
 40
0.0
 40
0.0
 40
0.0
 40
0.0
 40
0.0048248209
 40
0.0111878379
 40
0.0192572726
 40
0.0291102203
 40
0.0542957484
 40
0.0868610872
 40
0.126767668
 40
0.1739313137
 40
0.2282119206
 40
0.2894353997
 40
0.4318953107
 40
0.5993725464
 40
0.7896512397
 40
1.0
 40
1.0
 40
1.0
 40
1.0
 10
11.9144310384
 20
4.8188800925
 30
0.0
 10
11.9144292281
 20
4.8188687401
 30
0.0
 10
11.9144196939
 20
4.8188433824
 30
0.0
 10
11.914395445
 20
4.8188043387
 30
0.0
 10
11.9143593081
 20
4.8187590016
 30
0.0
 10
11.9142891337
 20
4.818683924
 30
0.0
 10
11.9141694148
 20
4.8185758203
 30
0.0
 10
11.9139881132
 20
4.8184299148
 30
0.0
 10
11.9137593277
 20
4.8182597783
 30
0.0
 10
11.9134838148
 20
4.818066037
 30
0.0
 10
11.9131624038
 20
4.8178494022
 30
0.0
 10
11.912647476
 20
4.817513764
 30
0.0
 10
11.9118974847
 20
4.8170450279
 30
0.0
 10
11.9108764449
 20
4.816430174
 30
0.0
 10
11.9097080299
 20
4.8157467146
 30
0.0
 10
11.9088792068
 20
4.8152731521
 30
0.0
 10
11.908443021
 20
4.8150263077
 30
0.0
  0
SPLINE
  5
330
100
AcDbEntity
  8
0
100
AcDbSpline
 62
9
  6
CONTINUOUS
 70
0
 71
3
 72
16
 73
12
 74
0
 42
0.0000001
 43
0.0000001
 44
0.0000000001
 40
0.0
 40
0.0
 40
0.0
 40
0.0
 40
0.1683899221
 40
0.3248792175
 40
0.4683017796
 40
0.5981500765
 40
0.7145280848
 40
0.8184893295
 40
0.9123527545
 40
0.9566980098
 40
1.0
 40
1.0
 40
1.0
 40
1.0
 10
11.4621560721
 20
4.8188800778
 30
0.0
 10
11.4626791055
 20
4.8188419295
 30
0.0
 10
11.4636862797
 20
4.8187354571
 30
0.0
 10
11.4651222672
 20
4.8184715165
 30
0.0
 10
11.4664137103
 20
4.8181119559
 30
0.0
 10
11.4675435578
 20
4.8176614861
 30
0.0
 10
11.4684974628
 20
4.8171244999
 30
0.0
 10
11.4692628494
 20
4.8165061858
 30
0.0
 10
11.4697420554
 20
4.8159138671
 30
0.0
 10
11.4700070519
 20
4.8154129464
 30
0.0
 10
11.4701017218
 20
4.8151558376
 30
0.0
 10
11.4701393636
 20
4.8150263406
 30
0.0
  0
SPLINE
  5
331
100
AcDbEntity
  8
0
100
AcDbSpline
 62
9
  6
CONTINUOUS
 70
0
 71
3
 72
18
 73
14
 74
0
 42
0.0000001
 43
0.0000001
 44
0.0000000001
 40
0.0
 40
0.0
 40
0.0
 40
0.0
 40
0.1728206288
 40
0.25437694
 40
0.332405247
 40
0.4774020725
 40
0.607327627
 40
0.7223786237
 40
0.8238873208
 40
0.8704793253
 40
0.9149248359
 40
0.9578616407
 40
1.0
 40
1.0
 40
1.0
 40
1.0
 10
11.4682262169
 20
4.7932379141
 30
0.0
 10
11.4687491129
 20
4.7932277873
 30
0.0
 10
11.469518769
 20
4.7931884604
 30
0.0
 10
11.4705189675
 20
4.7930790009
 30
0.0
 10
11.4714304519
 20
4.7929405716
 30
0.0
 10
11.4724753372
 20
4.7927104798
 30
0.0
 10
11.4735958097
 20
4.7923304068
 30
0.0
 10
11.474536068
 20
4.7918574852
 30
0.0
 10
11.475177269
 20
4.7913745318
 30
0.0
 10
11.475574265
 20
4.7909461364
 30
0.0
 10
11.4758101162
 20
4.7906148106
 30
0.0
 10
11.475991073
 20
4.7902656619
 30
0.0
 10
11.4760749211
 20
4.7900210407
 30
0.0
 10
11.4761070504
 20
4.7898976345
 30
0.0
  0
SPLINE
  5
332
100
AcDbEntity
  8
0
100
AcDbSpline
 62
9
  6
CONTINUOUS
 70
0
 71
3
 72
18
 73
14
 74
0
 42
0.0000001
 43
0.0000001
 44
0.0000000001
 40
0.0
 40
0.0
 40
0.0
 40
0.0
 40
0.1728577799
 40
0.2544341393
 40
0.3324824304
 40
0.477514978
 40
0.6074629637
 40
0.72251539
 40
0.8240002074
 40
0.8705714221
 40
0.9149908206
 40
0.957896639
 40
1.0
 40
1.0
 40
1.0
 40
1.0
 10
11.4932676689
 20
4.6968754317
 30
0.0
 10
11.4937920684
 20
4.696865755
 30
0.0
 10
11.4945639675
 20
4.6968270228
 30
0.0
 10
11.4955671432
 20
4.696718179
 30
0.0
 10
11.4964813935
 20
4.6965802086
 30
0.0
 10
11.4975294913
 20
4.6963504613
 30
0.0
 10
11.4986534703
 20
4.6959704321
 30
0.0
 10
11.4995966812
 20
4.6954971911
 30
0.0
 10
11.5002399202
 20
4.6950136233
 30
0.0
 10
11.500638141
 20
4.6945845472
 30
0.0
 10
11.5008746594
 20
4.6942526635
 30
0.0
 10
11.5010560902
 20
4.6939029018
 30
0.0
 10
11.5011401208
 20
4.6936578285
 30
0.0
 10
11.5011722999
 20
4.6935341968
 30
0.0
  0
SPLINE
  5
333
100
AcDbEntity
  8
0
100
AcDbSpline
 62
9
  6
CONTINUOUS
 70
0
 71
3
 72
21
 73
17
 74
0
 42
0.0000001
 43
0.0000001
 44
0.0000000001
 40
0.0
 40
0.0
 40
0.0
 40
0.0
 40
0.1286592002
 40
0.2566265173
 40
0.3839098215
 40
0.5103755127
 40
0.5732632208
 40
0.6358098185
 40
0.6979413412
 40
0.7595825729
 40
0.8206591503
 40
0.8509738688
 40
0.8811250265
 40
0.9111100843
 40
0.9409268744
 40
1.0
 40
1.0
 40
1.0
 40
1.0
 10
10.5036616368
 20
4.6401741125
 30
0.0
 10
10.5008637801
 20
4.6401741202
 30
0.0
 10
10.4952777514
 20
4.6404248185
 30
0.0
 10
10.4870127559
 20
4.6417439255
 30
0.0
 10
10.4790362501
 20
4.644138581
 30
0.0
 10
10.4727878164
 20
4.6471097952
 30
0.0
 10
10.4681764422
 20
4.6500779715
 30
0.0
 10
10.4649555799
 20
4.6525904625
 30
0.0
 10
10.4620090496
 20
4.6553811351
 30
0.0
 10
10.4593801863
 20
4.6584314568
 30
0.0
 10
10.4574853708
 20
4.6611762876
 30
0.0
 10
10.4561743917
 20
4.6634728092
 30
0.0
 10
10.4553008194
 20
4.6652364431
 30
0.0
 10
10.4545375112
 20
4.6670388925
 30
0.0
 10
10.4536733031
 20
4.6694762423
 30
0.0
 10
10.4531949678
 20
4.6713562431
 30
0.0
 10
10.4529616342
 20
4.6726194942
 30
0.0
  0
SPLINE
  5
334
100
AcDbEntity
  8
0
100
AcDbSpline
 62
9
  6
CONTINUOUS
 70
0
 71
3
 72
63
 73
59
 74
0
 42
0.0000001
 43
0.0000001
 44
0.0000000001
 40
0.0
 40
0.0
 40
0.0
 40
0.0
 40
0.0075616457
 40
0.0154051241
 40
0.0236261127
 40
0.0323046259
 40
0.0415051434
 40
0.051277581
 40
0.0616589936
 40
0.0726753941
 40
0.0843434305
 40
0.0966718289
 40
0.1096625871
 40
0.1233120037
 40
0.1376114935
 40
0.1525482357
 40
0.1681056838
 40
0.1842640375
 40
0.2010006222
 40
0.2182901959
 40
0.2361051933
 40
0.2544159797
 40
0.2731910739
 40
0.2923973324
 40
0.3120001047
 40
0.3319634015
 40
0.3728202934
 40
0.4146608228
 40
0.4571637983
 40
0.5
 40
0.5428362017
 40
0.5853391772
 40
0.6271797066
 40
0.6680365985
 40
0.6879998953
 40
0.7076026676
 40
0.7268089261
 40
0.7455840203
 40
0.7638948067
 40
0.7817098041
 40
0.7989993778
 40
0.8157359625
 40
0.8318943162
 40
0.8474517643
 40
0.8623885065
 40
0.8766879963
 40
0.8903374129
 40
0.9033281711
 40
0.9156565695
 40
0.9273246059
 40
0.9383410064
 40
0.948722419
 40
0.9584948566
 40
0.9676953741
 40
0.9763738873
 40
0.9845948759
 40
0.9924383543
 40
1.0
 40
1.0
 40
1.0
 40
1.0
 10
11.2822186982
 20
11.5931753268
 30
0.0
 10
11.2818469308
 20
11.5950447574
 30
0.0
 10
11.2808311941
 20
11.5988060585
 30
0.0
 10
11.2785660036
 20
11.6043284329
 30
0.0
 10
11.2755467151
 20
11.6098002091
 30
0.0
 10
11.2717831995
 20
11.6152090738
 30
0.0
 10
11.2672855796
 20
11.6205452858
 30
0.0
 10
11.2620646616
 20
11.6257987733
 30
0.0
 10
11.2561321925
 20
11.6309595537
 30
0.0
 10
11.2495010923
 20
11.636017443
 30
0.0
 10
11.2421856274
 20
11.6409621642
 30
0.0
 10
11.2342015164
 20
11.645783418
 30
0.0
 10
11.2255659745
 20
11.6504710016
 30
0.0
 10
11.2162976788
 20
11.6550148513
 30
0.0
 10
11.2064167392
 20
11.659405118
 30
0.0
 10
11.1959446625
 20
11.6636322143
 30
0.0
 10
11.184904316
 20
11.6676868889
 30
0.0
 10
11.1733198556
 20
11.6715602328
 30
0.0
 10
11.1612166612
 20
11.6752437126
 30
0.0
 10
11.1486212814
 20
11.6787291923
 30
0.0
 10
11.1355613806
 20
11.6820089812
 30
0.0
 10
11.1220656687
 20
11.6850758373
 30
0.0
 10
11.1081638213
 20
11.6879229827
 30
0.0
 10
11.0938864342
 20
11.6905441025
 30
0.0
 10
11.079264888
 20
11.6929334392
 30
0.0
 10
11.0591992591
 20
11.6958252112
 30
0.0
 10
11.0334888815
 20
11.6988120239
 30
0.0
 10
11.0020285891
 20
11.7013758087
 30
0.0
 10
10.9700024682
 20
11.7029232841
 30
0.0
 10
10.9376923428
 20
11.7034406365
 30
0.0
 10
10.9053822174
 20
11.7029232841
 30
0.0
 10
10.8733560964
 20
11.7013758087
 30
0.0
 10
10.841895804
 20
11.6988120239
 30
0.0
 10
10.8161854264
 20
11.6958252112
 30
0.0
 10
10.7961197975
 20
11.6929334392
 30
0.0
 10
10.7814982513
 20
11.6905441025
 30
0.0
 10
10.7672208642
 20
11.6879229827
 30
0.0
 10
10.7533190168
 20
11.6850758373
 30
0.0
 10
10.7398233049
 20
11.6820089812
 30
0.0
 10
10.7267634042
 20
11.6787291923
 30
0.0
 10
10.7141680243
 20
11.6752437126
 30
0.0
 10
10.7020648299
 20
11.6715602328
 30
0.0
 10
10.6904803695
 20
11.6676868889
 30
0.0
 10
10.679440023
 20
11.6636322143
 30
0.0
 10
10.6689679463
 20
11.659405118
 30
0.0
 10
10.6590870067
 20
11.6550148513
 30
0.0
 10
10.649818711
 20
11.6504710016
 30
0.0
 10
10.6411831691
 20
11.645783418
 30
0.0
 10
10.6331990582
 20
11.6409621642
 30
0.0
 10
10.6258835932
 20
11.636017443
 30
0.0
 10
10.619252493
 20
11.6309595537
 30
0.0
 10
10.6133200239
 20
11.6257987733
 30
0.0
 10
10.6080991059
 20
11.6205452858
 30
0.0
 10
10.6036014861
 20
11.6152090738
 30
0.0
 10
10.5998379704
 20
11.6098002091
 30
0.0
 10
10.5968186819
 20
11.6043284329
 30
0.0
 10
10.5945534914
 20
11.5988060585
 30
0.0
 10
10.5935377547
 20
11.5950447574
 30
0.0
 10
10.5931659873
 20
11.5931753268
 30
0.0
  0
SPLINE
  5
335
100
AcDbEntity
  8
0
100
AcDbSpline
 62
9
  6
CONTINUOUS
 70
0
 71
3
 72
20
 73
16
 74
0
 42
0.0000001
 43
0.0000001
 44
0.0000000001
 40
0.0
 40
0.0
 40
0.0
 40
0.0
 40
0.0590672253
 40
0.1188331145
 40
0.1792762459
 40
0.2403540011
 40
0.3019913442
 40
0.364120052
 40
0.4266622592
 40
0.4895469155
 40
0.5527110625
 40
0.6161091478
 40
0.7433862222
 40
0.8713471968
 40
1.0
 40
1.0
 40
1.0
 40
1.0
 10
11.4224229686
 20
4.6726194942
 30
0.0
 10
11.4221900845
 20
4.6713562215
 30
0.0
 10
11.4215492306
 20
4.6688439322
 30
0.0
 10
11.42012794
 20
4.6652041533
 30
0.0
 10
11.4182705303
 20
4.6617165232
 30
0.0
 10
11.4160075794
 20
4.6584284959
 30
0.0
 10
11.4133761221
 20
4.6553797798
 30
0.0
 10
11.4104286794
 20
4.652590309
 30
0.0
 10
11.4072080459
 20
4.6500777917
 30
0.0
 10
11.4037548656
 20
4.6478552035
 30
0.0
 10
11.400108729
 20
4.6459264967
 30
0.0
 10
11.395032658
 20
4.6437442158
 30
0.0
 10
11.388370638
 20
4.6417433596
 30
0.0
 10
11.3801067001
 20
4.6404248484
 30
0.0
 10
11.3745204051
 20
4.6401741191
 30
0.0
 10
11.3717225394
 20
4.6401741125
 30
0.0
  0
SPLINE
  5
336
100
AcDbEntity
  8
0
100
AcDbSpline
 62
9
  6
CONTINUOUS
 70
0
 71
3
 72
24
 73
20
 74
0
 42
0.0000001
 43
0.0000001
 44
0.0000000001
 40
0.0
 40
0.0
 40
0.0
 40
0.0
 40
0.1125361725
 40
0.1694473355
 40
0.2269266588
 40
0.2851329181
 40
0.3442320873
 40
0.4043979238
 40
0.4657882233
 40
0.5285338905
 40
0.5927141459
 40
0.6583264065
 40
0.7252715122
 40
0.7933318019
 40
0.82767366
 40
0.8621495189
 40
0.8966971026
 40
0.9312487996
 40
1.0
 40
1.0
 40
1.0
 40
1.0
 10
11.5604388368
 20
4.6401741125
 30
0.0
 10
11.55793448
 20
4.6401741202
 30
0.0
 10
11.5541579394
 20
4.6403677281
 30
0.0
 10
11.5491572924
 20
4.641091035
 30
0.0
 10
11.5453970903
 20
4.6418891962
 30
0.0
 10
11.5416537857
 20
4.6429574348
 30
0.0
 10
11.537938605
 20
4.6443071454
 30
0.0
 10
11.5342646642
 20
4.6459479254
 30
0.0
 10
11.5306444693
 20
4.6478827144
 30
0.0
 10
11.5270915574
 20
4.6501113237
 30
0.0
 10
11.5236205495
 20
4.6526287121
 30
0.0
 10
11.520245779
 20
4.6554222762
 30
0.0
 10
11.5169824706
 20
4.6584726416
 30
0.0
 10
11.5143767963
 20
4.6611980756
 30
0.0
 10
11.5123597208
 20
4.6634809438
 30
0.0
 10
11.5108809902
 20
4.6652432541
 30
0.0
 10
11.5094419441
 20
4.6670440572
 30
0.0
 10
11.5075808566
 20
4.6694829327
 30
0.0
 10
11.506245148
 20
4.6713551047
 30
0.0
 10
11.5053836708
 20
4.6726194942
 30
0.0
  0
SPLINE
  5
337
100
AcDbEntity
  8
0
100
AcDbSpline
 62
9
  6
CONTINUOUS
 70
0
 71
3
 72
63
 73
59
 74
0
 42
0.0000001
 43
0.0000001
 44
0.0000000001
 40
0.0
 40
0.0
 40
0.0
 40
0.0
 40
0.0075792625
 40
0.0154541915
 40
0.0237168324
 40
0.0324437774
 40
0.0416965804
 40
0.0515226443
 40
0.0619569934
 40
0.0730240217
 40
0.0847391177
 40
0.0971100573
 40
0.1101381305
 40
0.1238191155
 40
0.13814407
 40
0.153099956
 40
0.168670125
 40
0.1848347578
 40
0.2015712412
 40
0.2188544667
 40
0.2366570672
 40
0.2549496499
 40
0.2737010218
 40
0.2928783698
 40
0.3124474127
 40
0.3323725576
 40
0.3731416207
 40
0.4148820186
 40
0.4572765075
 40
0.5
 40
0.5427234925
 40
0.5851179814
 40
0.6268583793
 40
0.6676274424
 40
0.6875525873
 40
0.7071216302
 40
0.7262989782
 40
0.7450503501
 40
0.7633429328
 40
0.7811455333
 40
0.7984287588
 40
0.8151652422
 40
0.831329875
 40
0.846900044
 40
0.86185593
 40
0.8761808845
 40
0.8898618695
 40
0.9028899427
 40
0.9152608823
 40
0.9269759783
 40
0.9380430066
 40
0.9484773557
 40
0.9583034196
 40
0.9675562226
 40
0.9762831676
 40
0.9845458085
 40
0.9924207375
 40
1.0
 40
1.0
 40
1.0
 40
1.0
 10
11.2822078552
 20
11.5931474311
 30
0.0
 10
11.2817960295
 20
11.5950092723
 30
0.0
 10
11.2807018701
 20
11.5987532961
 30
0.0
 10
11.2783309951
 20
11.6042431203
 30
0.0
 10
11.2752146438
 20
11.6096812319
 30
0.0
 10
11.2713626134
 20
11.6150556083
 30
0.0
 10
11.2667849698
 20
11.6203567051
 30
0.0
 10
11.2614924281
 20
11.625574565
 30
0.0
 10
11.2554967135
 20
11.6306993187
 30
0.0
 10
11.2488107285
 20
11.6357209063
 30
0.0
 10
11.2414487115
 20
11.6406291884
 30
0.0
 10
11.2334263233
 20
11.6454140101
 30
0.0
 10
11.2247606937
 20
11.6500653224
 30
0.0
 10
11.2154703916
 20
11.6545732309
 30
0.0
 10
11.205575384
 20
11.658928055
 30
0.0
 10
11.1950969982
 20
11.6631203742
 30
0.0
 10
11.1840578884
 20
11.6671410963
 30
0.0
 10
11.1724819722
 20
11.6709814782
 30
0.0
 10
11.1603943617
 20
11.674633144
 30
0.0
 10
11.1478213071
 20
11.6780881092
 30
0.0
 10
11.1347901461
 20
11.681338822
 30
0.0
 10
11.1213292394
 20
11.6843781799
 30
0.0
 10
11.107467891
 20
11.6871995339
 30
0.0
 10
11.0932363013
 20
11.689796691
 30
0.0
 10
11.0786654348
 20
11.6921639997
 30
0.0
 10
11.0586754932
 20
11.6950286847
 30
0.0
 10
11.0330687957
 20
11.6979874296
 30
0.0
 10
11.0017417038
 20
11.7005270812
 30
0.0
 10
10.9698569659
 20
11.7020598978
 30
0.0
 10
10.9376923428
 20
11.7025723334
 30
0.0
 10
10.9055277197
 20
11.7020598978
 30
0.0
 10
10.8736429817
 20
11.7005270812
 30
0.0
 10
10.8423158898
 20
11.6979874296
 30
0.0
 10
10.8167091923
 20
11.6950286847
 30
0.0
 10
10.7967192507
 20
11.6921639997
 30
0.0
 10
10.7821483842
 20
11.689796691
 30
0.0
 10
10.7679167946
 20
11.6871995339
 30
0.0
 10
10.7540554461
 20
11.6843781799
 30
0.0
 10
10.7405945395
 20
11.681338822
 30
0.0
 10
10.7275633784
 20
11.6780881092
 30
0.0
 10
10.7149903238
 20
11.674633144
 30
0.0
 10
10.7029027133
 20
11.6709814782
 30
0.0
 10
10.6913267971
 20
11.6671410963
 30
0.0
 10
10.6802876873
 20
11.6631203742
 30
0.0
 10
10.6698093016
 20
11.658928055
 30
0.0
 10
10.6599142939
 20
11.6545732309
 30
0.0
 10
10.6506239918
 20
11.6500653224
 30
0.0
 10
10.6419583622
 20
11.6454140101
 30
0.0
 10
10.633935974
 20
11.6406291884
 30
0.0
 10
10.626573957
 20
11.6357209063
 30
0.0
 10
10.619887972
 20
11.6306993187
 30
0.0
 10
10.6138922574
 20
11.625574565
 30
0.0
 10
10.6085997157
 20
11.6203567051
 30
0.0
 10
10.6040220721
 20
11.6150556083
 30
0.0
 10
10.6001700417
 20
11.6096812319
 30
0.0
 10
10.5970536904
 20
11.6042431203
 30
0.0
 10
10.5946828154
 20
11.5987532961
 30
0.0
 10
10.593588656
 20
11.5950092723
 30
0.0
 10
10.5931768303
 20
11.5931474311
 30
0.0
  0
SPLINE
  5
338
100
AcDbEntity
  8
0
100
AcDbSpline
 62
9
  6
CONTINUOUS
 70
0
 71
3
 72
35
 73
31
 74
0
 42
0.0000001
 43
0.0000001
 44
0.0000000001
 40
0.0
 40
0.0
 40
0.0
 40
0.0
 40
0.005099344
 40
0.0081729786
 40
0.011674279
 40
0.0156488773
 40
0.0201329217
 40
0.0251574683
 40
0.0307519989
 40
0.036942876
 40
0.0437505492
 40
0.0592828602
 40
0.0774794028
 40
0.0984716259
 40
0.1223771001
 40
0.1492790242
 40
0.1792357307
 40
0.2122652105
 40
0.2482459501
 40
0.2865222852
 40
0.3060798239
 40
0.3257418093
 40
0.3652101801
 40
0.4047707194
 40
0.4443778555
 40
0.5236658789
 40
0.6030076252
 40
0.6823792664
 40
0.8411721451
 40
1.0
 40
1.0
 40
1.0
 40
1.0
 10
11.8497157273
 20
4.9334176935
 30
0.0
 10
11.8499405797
 20
4.9334175875
 30
0.0
 10
11.8503008862
 20
4.9333330026
 30
0.0
 10
11.8507686689
 20
4.9331186607
 30
0.0
 10
11.8511686897
 20
4.9328790335
 30
0.0
 10
11.8515958835
 20
4.9325691125
 30
0.0
 10
11.8520519378
 20
4.9321870296
 30
0.0
 10
11.8525375801
 20
4.9317309282
 30
0.0
 10
11.8530537571
 20
4.93119866
 30
0.0
 10
11.8536012981
 20
4.9305882208
 30
0.0
 10
11.8544103748
 20
4.9296246121
 30
0.0
 10
11.8555008346
 20
4.9282073717
 30
0.0
 10
11.856895202
 20
4.9262376492
 30
0.0
 10
11.8584322389
 20
4.9239182525
 30
0.0
 10
11.8601171809
 20
4.9212376289
 30
0.0
 10
11.8619542824
 20
4.9181866015
 30
0.0
 10
11.8639456213
 20
4.9147594408
 30
0.0
 10
11.8660884143
 20
4.9109577494
 30
0.0
 10
11.8683639524
 20
4.9068101338
 30
0.0
 10
11.8703157633
 20
4.903162792
 30
0.0
 10
11.8719159847
 20
4.9001435089
 30
0.0
 10
11.8735362677
 20
4.8970753711
 30
0.0
 10
11.8755630033
 20
4.8932244277
 30
0.0
 10
11.8779950739
 20
4.8885929797
 30
0.0
 10
11.8812397705
 20
4.8824050725
 30
0.0
 10
11.8852944637
 20
4.8746612437
 30
0.0
 10
11.8901582974
 20
4.8653618799
 30
0.0
 10
11.8966431224
 20
4.8529540672
 30
0.0
 10
11.9047463941
 20
4.8374374099
 30
0.0
 10
11.9112264379
 20
4.8250214059
 30
0.0
 10
11.9144663001
 20
4.8188124508
 30
0.0
  0
SPLINE
  5
339
100
AcDbEntity
  8
0
100
AcDbSpline
 62
9
  6
CONTINUOUS
 70
0
 71
3
 72
40
 73
36
 74
0
 42
0.0000001
 43
0.0000001
 44
0.0000000001
 40
0.0
 40
0.0
 40
0.0
 40
0.0
 40
0.0671661171
 40
0.1343063586
 40
0.2014106181
 40
0.2684647794
 40
0.3019668669
 40
0.3354476965
 40
0.3689025918
 40
0.4023249535
 40
0.4357059933
 40
0.4690320367
 40
0.5022819188
 40
0.5188674267
 40
0.5354172891
 40
0.551920487
 40
0.5683588015
 40
0.584701379
 40
0.6008917788
 40
0.6168281909
 40
0.6324035067
 40
0.6475788673
 40
0.6623937977
 40
0.6769080617
 40
0.6911778527
 40
0.7191560452
 40
0.7466783061
 40
0.7739910184
 40
0.8012832185
 40
0.8286982809
 40
0.8563419257
 40
0.8842948336
 40
0.9412867248
 40
0.9704294094
 40
1.0
 40
1.0
 40
1.0
 40
1.0
 10
11.4621560721
 20
4.8188800778
 30
0.0
 10
11.4615043472
 20
4.8219828544
 30
0.0
 10
11.4602036922
 20
4.8281877471
 30
0.0
 10
11.4582644807
 20
4.8374951888
 30
0.0
 10
11.4563422664
 20
4.8468007616
 30
0.0
 10
11.4547598215
 20
4.8545551384
 30
0.0
 10
11.4535107218
 20
4.8607576516
 30
0.0
 10
11.4525844834
 20
4.8654073259
 30
0.0
 10
11.4516707713
 20
4.870055645
 30
0.0
 10
11.4507729323
 20
4.8747022618
 30
0.0
 10
11.4498949577
 20
4.8793464916
 30
0.0
 10
11.4490436025
 20
4.8839874051
 30
0.0
 10
11.4483636089
 20
4.8878536447
 30
0.0
 10
11.4478464173
 20
4.8909443136
 30
0.0
 10
11.4474760798
 20
4.8932580074
 30
0.0
 10
11.4471279849
 20
4.8955681428
 30
0.0
 10
11.4468105608
 20
4.8978728644
 30
0.0
 10
11.4465380128
 20
4.900168547
 30
0.0
 10
11.4463341369
 20
4.9024479067
 30
0.0
 10
11.4462501299
 20
4.90469968
 30
0.0
 10
11.4463452446
 20
4.9069045197
 30
0.0
 10
11.4466462765
 20
4.9090376889
 30
0.0
 10
11.447136308
 20
4.9110835526
 30
0.0
 10
11.4477945059
 20
4.9130363579
 30
0.0
 10
11.448864013
 20
4.915495897
 30
0.0
 10
11.4505369952
 20
4.9183492722
 30
0.0
 10
11.4529915369
 20
4.9214072985
 30
0.0
 10
11.4558061542
 20
4.9240885881
 30
0.0
 10
11.4589216195
 20
4.9264019486
 30
0.0
 10
11.4622871665
 20
4.9283616026
 30
0.0
 10
11.465861536
 20
4.9299827543
 30
0.0
 10
11.4708915066
 20
4.9317175964
 30
0.0
 10
11.4761925795
 20
4.9328080268
 30
0.0
 10
11.4816312133
 20
4.9333330854
 30
0.0
 10
11.4844038969
 20
4.9334175402
 30
0.0
 10
11.4857997358
 20
4.9334176935
 30
0.0
  0
SPLINE
  5
33A
100
AcDbEntity
  8
0
100
AcDbSpline
 62
9
  6
CONTINUOUS
 70
0
 71
3
 72
67
 73
63
 74
0
 42
0.0000001
 43
0.0000001
 44
0.0000000001
 40
0.0
 40
0.0
 40
0.0
 40
0.0
 40
0.0037452633
 40
0.0075169964
 40
0.0113309702
 40
0.0152026481
 40
0.0231733145
 40
0.0315388823
 40
0.0403870477
 40
0.0497879635
 40
0.0597953573
 40
0.0704485729
 40
0.0817746854
 40
0.0937903948
 40
0.1065036741
 40
0.1199151897
 40
0.1340194162
 40
0.1488054924
 40
0.1642579485
 40
0.1803573376
 40
0.1970807159
 40
0.2144020062
 40
0.2322923549
 40
0.2507204596
 40
0.2696528187
 40
0.2890539287
 40
0.308886517
 40
0.3291117545
 40
0.3705763101
 40
0.4131140122
 40
0.4563750138
 40
0.5
 40
0.5436249862
 40
0.5868859878
 40
0.6294236899
 40
0.6708882455
 40
0.691113483
 40
0.7109460713
 40
0.7303471813
 40
0.7492795404
 40
0.7677076451
 40
0.7855979938
 40
0.8029192841
 40
0.8196426624
 40
0.8357420515
 40
0.8511945076
 40
0.8659805838
 40
0.8800848103
 40
0.8934963259
 40
0.9062096052
 40
0.9182253146
 40
0.9295514271
 40
0.9402046427
 40
0.9502120365
 40
0.9596129523
 40
0.9684611177
 40
0.9768266855
 40
0.9847973519
 40
0.9886690298
 40
0.9924830036
 40
0.9962547367
 40
1.0
 40
1.0
 40
1.0
 40
1.0
 10
11.2216033804
 20
11.3385089537
 30
0.0
 10
11.2215705211
 20
11.3392976206
 30
0.0
 10
11.2214481416
 20
11.3408787421
 30
0.0
 10
11.2210965083
 20
11.3432426773
 30
0.0
 10
11.2205765166
 20
11.3456027925
 30
0.0
 10
11.2196508128
 20
11.3487721965
 30
0.0
 10
11.2180549781
 20
11.3527342357
 30
0.0
 10
11.21549323
 20
11.3573955008
 30
0.0
 10
11.2122749604
 20
11.3620015343
 30
0.0
 10
11.2084097461
 20
11.366542493
 30
0.0
 10
11.2039075345
 20
11.3710096284
 30
0.0
 10
11.1987791542
 20
11.3753938076
 30
0.0
 10
11.1930365289
 20
11.3796858071
 30
0.0
 10
11.1866928859
 20
11.383876279
 30
0.0
 10
11.1797628434
 20
11.3879558871
 30
0.0
 10
11.1722624038
 20
11.3919153505
 30
0.0
 10
11.1642089484
 20
11.395745529
 30
0.0
 10
11.1556212263
 20
11.399437509
 30
0.0
 10
11.1465193055
 20
11.402982656
 30
0.0
 10
11.1369245012
 20
11.4063726288
 30
0.0
 10
11.1268593243
 20
11.4095994156
 30
0.0
 10
11.1163474387
 20
11.4126553903
 30
0.0
 10
11.1054135941
 20
11.4155333274
 30
0.0
 10
11.0940835511
 20
11.4182264043
 30
0.0
 10
11.0823840172
 20
11.4207282249
 30
0.0
 10
11.0703426088
 20
11.4230328503
 30
0.0
 10
11.0579877113
 20
11.4251348575
 30
0.0
 10
11.0409949276
 20
11.4276816181
 30
0.0
 10
11.0191805464
 20
11.4303126441
 30
0.0
 10
10.9924485416
 20
11.432571325
 30
0.0
 10
10.9652000917
 20
11.4339352002
 30
0.0
 10
10.9376923428
 20
11.4343913062
 30
0.0
 10
10.9101845938
 20
11.4339352002
 30
0.0
 10
10.8829361439
 20
11.432571325
 30
0.0
 10
10.8562041391
 20
11.4303126441
 30
0.0
 10
10.8343897579
 20
11.4276816181
 30
0.0
 10
10.8173969742
 20
11.4251348575
 30
0.0
 10
10.8050420768
 20
11.4230328503
 30
0.0
 10
10.7930006683
 20
11.4207282249
 30
0.0
 10
10.7813011344
 20
11.4182264043
 30
0.0
 10
10.7699710914
 20
11.4155333274
 30
0.0
 10
10.7590372468
 20
11.4126553903
 30
0.0
 10
10.7485253612
 20
11.4095994156
 30
0.0
 10
10.7384601844
 20
11.4063726288
 30
0.0
 10
10.7288653801
 20
11.402982656
 30
0.0
 10
10.7197634592
 20
11.399437509
 30
0.0
 10
10.7111757371
 20
11.395745529
 30
0.0
 10
10.7031222817
 20
11.3919153505
 30
0.0
 10
10.6956218421
 20
11.3879558871
 30
0.0
 10
10.6886917996
 20
11.383876279
 30
0.0
 10
10.6823481566
 20
11.3796858071
 30
0.0
 10
10.6766055313
 20
11.3753938076
 30
0.0
 10
10.671477151
 20
11.3710096284
 30
0.0
 10
10.6669749394
 20
11.366542493
 30
0.0
 10
10.6631097251
 20
11.3620015343
 30
0.0
 10
10.6598914556
 20
11.3573955008
 30
0.0
 10
10.6573297074
 20
11.3527342357
 30
0.0
 10
10.6557338727
 20
11.3487721965
 30
0.0
 10
10.6548081689
 20
11.3456027925
 30
0.0
 10
10.6542881772
 20
11.3432426773
 30
0.0
 10
10.6539365439
 20
11.3408787421
 30
0.0
 10
10.6538141644
 20
11.3392976206
 30
0.0
 10
10.6537813051
 20
11.3385089537
 30
0.0
  0
SPLINE
  5
33B
100
AcDbEntity
  8
0
100
AcDbSpline
 62
9
  6
CONTINUOUS
 70
0
 71
3
 72
11
 73
7
 74
0
 42
0.0000001
 43
0.0000001
 44
0.0000000001
 40
0.0
 40
0.0
 40
0.0
 40
0.0
 40
0.2511968918
 40
0.5016504867
 40
0.7512918268
 40
1.0
 40
1.0
 40
1.0
 40
1.0
 10
11.4682262169
 20
4.7932379141
 30
0.0
 10
11.467671185
 20
4.7953735725
 30
0.0
 10
11.4665840281
 20
4.7996441308
 30
0.0
 10
11.4650224126
 20
4.8060564574
 30
0.0
 10
11.463538143
 20
4.8124647077
 30
0.0
 10
11.4626051782
 20
4.8167419949
 30
0.0
 10
11.4621560721
 20
4.8188800778
 30
0.0
  0
SPLINE
  5
33C
100
AcDbEntity
  8
0
100
AcDbSpline
 62
9
  6
CONTINUOUS
 70
0
 71
3
 72
16
 73
12
 74
0
 42
0.0000001
 43
0.0000001
 44
0.0000000001
 40
0.0
 40
0.0
 40
0.0
 40
0.0
 40
0.2541382478
 40
0.3805028784
 40
0.5062509699
 40
0.5688627426
 40
0.6312687473
 40
0.6934498054
 40
0.7553839556
 40
0.8783840486
 40
1.0
 40
1.0
 40
1.0
 40
1.0
 10
10.3600935854
 20
4.8435839268
 30
0.0
 10
10.3615650284
 20
4.8508564711
 30
0.0
 10
10.3640232076
 20
4.8616974199
 30
0.0
 10
10.367918439
 20
4.8759574708
 30
0.0
 10
10.3706313612
 20
4.8847389486
 30
0.0
 10
10.3729878202
 20
4.891671227
 30
0.0
 10
10.3748513713
 20
4.8968096655
 30
0.0
 10
10.3768188462
 20
4.9018880891
 30
0.0
 10
10.3795823136
 20
4.9085533546
 30
0.0
 10
10.3833269415
 20
4.9166874258
 30
0.0
 10
10.3867076465
 20
4.9229858653
 30
0.0
 10
10.3885022119
 20
4.9260497357
 30
0.0
  0
SPLINE
  5
33D
100
AcDbEntity
  8
0
100
AcDbSpline
 62
9
  6
CONTINUOUS
 70
0
 71
3
 72
57
 73
53
 74
0
 42
0.0000001
 43
0.0000001
 44
0.0000000001
 40
0.0
 40
0.0
 40
0.0
 40
0.0
 40
0.0084841244
 40
0.0174286648
 40
0.0268646596
 40
0.0368153853
 40
0.0472974221
 40
0.0583216194
 40
0.0698937736
 40
0.0820154132
 40
0.0946843698
 40
0.1078951458
 40
0.1216394362
 40
0.1359064115
 40
0.1506829305
 40
0.1659538939
 40
0.1817023658
 40
0.1979097327
 40
0.2145559473
 40
0.2316195701
 40
0.2669057315
 40
0.303575733
 40
0.3414205586
 40
0.3802191887
 40
0.4197412332
 40
0.4597493699
 40
0.5000016823
 40
0.5402539773
 40
0.5802620623
 40
0.619784021
 40
0.6585825321
 40
0.6964272068
 40
0.7330970268
 40
0.7683829781
 40
0.7854464858
 40
0.8020925792
 40
0.8182998188
 40
0.8340481581
 40
0.8493189839
 40
0.8640953606
 40
0.8783621896
 40
0.8921063303
 40
0.905316954
 40
0.9179857562
 40
0.9301072404
 40
0.941679239
 40
0.9527032817
 40
0.9631851663
 40
0.9731357435
 40
0.9825715955
 40
0.9915160008
 40
1.0
 40
1.0
 40
1.0
 40
1.0
 10
11.2346408952
 20
11.2982017631
 30
0.0
 10
11.2335931631
 20
11.2996421793
 30
0.0
 10
11.2313123718
 20
11.3025092989
 30
0.0
 10
11.2274742353
 20
11.3066480057
 30
0.0
 10
11.2231396017
 20
11.3107270189
 30
0.0
 10
11.2183162896
 20
11.3147395646
 30
0.0
 10
11.2130123864
 20
11.31867941
 30
0.0
 10
11.2072368349
 20
11.3225400877
 30
0.0
 10
11.2009993871
 20
11.3263152893
 30
0.0
 10
11.1943105735
 20
11.3299987186
 30
0.0
 10
11.1871816995
 20
11.3335841471
 30
0.0
 10
11.1796248816
 20
11.3370655433
 30
0.0
 10
11.1716529652
 20
11.3404369673
 30
0.0
 10
11.163279529
 20
11.34369264
 30
0.0
 10
11.1545188786
 20
11.3468270231
 30
0.0
 10
11.1453859803
 20
11.3498347137
 30
0.0
 10
11.1358964579
 20
11.3527105405
 30
0.0
 10
11.126066577
 20
11.3554495779
 30
0.0
 10
11.1159131475
 20
11.3580471187
 30
0.0
 10
11.1018094511
 20
11.3613526761
 30
0.0
 10
11.0834922899
 20
11.3650852375
 30
0.0
 10
11.060751984
 20
11.3688874801
 30
0.0
 10
11.037167872
 20
11.3720350176
 30
0.0
 10
11.0129017316
 20
11.3745060493
 30
0.0
 10
10.9881197738
 20
11.3762834165
 30
0.0
 10
10.9629919347
 20
11.3773547686
 30
0.0
 10
10.9376905495
 20
11.3777126769
 30
0.0
 10
10.9123891765
 20
11.3773546673
 30
0.0
 10
10.8872613743
 20
11.3762832146
 30
0.0
 10
10.8624794776
 20
11.3745057482
 30
0.0
 10
10.8382134221
 20
11.3720346194
 30
0.0
 10
10.8146294182
 20
11.3688869876
 30
0.0
 10
10.7918892429
 20
11.365084654
 30
0.0
 10
10.7735722052
 20
11.3613520185
 30
0.0
 10
10.7594686186
 20
11.3580464036
 30
0.0
 10
10.7493152782
 20
11.3554488221
 30
0.0
 10
10.7394854914
 20
11.3527097453
 30
0.0
 10
10.7299960677
 20
11.3498338804
 30
0.0
 10
10.7208632726
 20
11.3468261532
 30
0.0
 10
10.7121027298
 20
11.343691735
 30
0.0
 10
10.7037294053
 20
11.3404360287
 30
0.0
 10
10.6957576046
 20
11.3370645727
 30
0.0
 10
10.688200906
 20
11.3335831462
 30
0.0
 10
10.681072155
 20
11.3299976891
 30
0.0
 10
10.6743834677
 20
11.3263142329
 30
0.0
 10
10.6681461493
 20
11.3225390062
 30
0.0
 10
10.6623707299
 20
11.3186783052
 30
0.0
 10
10.6570669616
 20
11.3147384383
 30
0.0
 10
10.6522437868
 20
11.3107258729
 30
0.0
 10
10.6479092926
 20
11.3066468418
 30
0.0
 10
10.6440712977
 20
11.302508119
 30
0.0
 10
10.6417906051
 20
11.2996409903
 30
0.0
 10
10.6407429228
 20
11.2982005704
 30
0.0
  0
SPLINE
  5
33E
100
AcDbEntity
  8
0
100
AcDbSpline
 62
9
  6
CONTINUOUS
 70
0
 71
3
 72
15
 73
11
 74
0
 42
0.0000001
 43
0.0000001
 44
0.0000000001
 40
0.0
 40
0.0
 40
0.0
 40
0.0
 40
0.094067869
 40
0.1934385792
 40
0.3009617917
 40
0.4185870527
 40
0.5473215512
 40
0.6874130075
 40
0.8385914471
 40
1.0
 40
1.0
 40
1.0
 40
1.0
 10
9.8852703067
 20
4.6726194944
 30
0.0
 10
9.8854270058
 20
4.6728737664
 30
0.0
 10
9.885814019
 20
4.6733590163
 30
0.0
 10
9.8865645982
 20
4.6739607898
 30
0.0
 10
9.8874811052
 20
4.6744432674
 30
0.0
 10
9.8885497893
 20
4.6748028322
 30
0.0
 10
9.8897573381
 20
4.6750369876
 30
0.0
 10
9.8910889573
 20
4.6751439706
 30
0.0
 10
9.892527911
 20
4.6751227015
 30
0.0
 10
9.8935168928
 20
4.6750263446
 30
0.0
 10
9.8940248833
 20
4.6749585489
 30
0.0
  0
SPLINE
  5
33F
100
AcDbEntity
  8
0
100
AcDbSpline
 62
9
  6
CONTINUOUS
 70
0
 71
3
 72
15
 73
11
 74
0
 42
0.0000001
 43
0.0000001
 44
0.0000000001
 40
0.0
 40
0.0
 40
0.0
 40
0.0
 40
0.1253311328
 40
0.2505956685
 40
0.3757717391
 40
0.5008278762
 40
0.6257597088
 40
0.7505804831
 40
0.8753092166
 40
1.0
 40
1.0
 40
1.0
 40
1.0
 10
9.8809151428
 20
4.6401741125
 30
0.0
 10
9.880970308
 20
4.6411815369
 30
0.0
 10
9.881271502
 20
4.6431905719
 30
0.0
 10
9.8822791436
 20
4.6460610222
 30
0.0
 10
9.8838066395
 20
4.6486906142
 30
0.0
 10
9.8857996128
 20
4.6509837829
 30
0.0
 10
9.8881866024
 20
4.6528588337
 30
0.0
 10
9.8908826668
 20
4.6542482921
 30
0.0
 10
9.8937898322
 20
4.6551025591
 30
0.0
 10
9.8958029365
 20
4.6552946624
 30
0.0
 10
9.8968067152
 20
4.6552946624
 30
0.0
  0
SPLINE
  5
340
100
AcDbEntity
  8
0
100
AcDbSpline
 62
9
  6
CONTINUOUS
 70
0
 71
3
 72
22
 73
18
 74
0
 42
0.0000001
 43
0.0000001
 44
0.0000000001
 40
0.0
 40
0.0
 40
0.0
 40
0.0
 40
0.2155269336
 40
0.4080040815
 40
0.5752394405
 40
0.6488707085
 40
0.7156077009
 40
0.7752954496
 40
0.8278221212
 40
0.8731390885
 40
0.9112521181
 40
0.9422923866
 40
0.966625225
 40
0.9765360947
 40
0.9851769357
 40
0.9928542471
 40
1.0
 40
1.0
 40
1.0
 40
1.0
 10
10.3700009917
 20
4.6726195531
 30
0.0
 10
10.3696604173
 20
4.672841372
 30
0.0
 10
10.3690121916
 20
4.6732559714
 30
0.0
 10
10.36808607
 20
4.6738209905
 30
0.0
 10
10.3673771067
 20
4.6742277529
 30
0.0
 10
10.3668657666
 20
4.6745017402
 30
0.0
 10
10.3665292444
 20
4.6746723642
 30
0.0
 10
10.3662240887
 20
4.6748165829
 30
0.0
 10
10.3659511282
 20
4.674934033
 30
0.0
 10
10.3657111278
 20
4.6750245095
 30
0.0
 10
10.3655045437
 20
4.6750879647
 30
0.0
 10
10.3653318269
 20
4.6751243495
 30
0.0
 10
10.3652081411
 20
4.675133097
 30
0.0
 10
10.3651275888
 20
4.6751233808
 30
0.0
 10
10.3650798326
 20
4.6751094182
 30
0.0
 10
10.3650406078
 20
4.675088078
 30
0.0
 10
10.365020141
 20
4.6750684138
 30
0.0
 10
10.3650118765
 20
4.6750577702
 30
0.0
  0
SPLINE
  5
341
100
AcDbEntity
  8
0
100
AcDbSpline
 62
9
  6
CONTINUOUS
 70
0
 71
3
 72
18
 73
14
 74
0
 42
0.0000001
 43
0.0000001
 44
0.0000000001
 40
0.0
 40
0.0
 40
0.0
 40
0.0
 40
0.1728589871
 40
0.2544357983
 40
0.3324844291
 40
0.4775173056
 40
0.6074651583
 40
0.7225170508
 40
0.8240010914
 40
0.870571924
 40
0.9149910112
 40
0.9578966461
 40
1.0
 40
1.0
 40
1.0
 40
1.0
 10
10.3821171045
 20
4.6968755192
 30
0.0
 10
10.3815926988
 20
4.6968658433
 30
0.0
 10
10.380820791
 20
4.6968271119
 30
0.0
 10
10.3798176045
 20
4.696718268
 30
0.0
 10
10.3789033465
 20
4.696580297
 30
0.0
 10
10.3778552422
 20
4.6963505479
 30
0.0
 10
10.3767312598
 20
4.6959705141
 30
0.0
 10
10.3757880515
 20
4.6954972661
 30
0.0
 10
10.37514482
 20
4.6950136898
 30
0.0
 10
10.3747466095
 20
4.6945846062
 30
0.0
 10
10.3745101007
 20
4.6942527166
 30
0.0
 10
10.3743286813
 20
4.6939029486
 30
0.0
 10
10.3742446596
 20
4.6936578715
 30
0.0
 10
10.3742124852
 20
4.6935342379
 30
0.0
  0
SPLINE
  5
342
100
AcDbEntity
  8
0
100
AcDbSpline
 62
9
  6
CONTINUOUS
 70
0
 71
3
 72
23
 73
19
 74
0
 42
0.0000001
 43
0.0000001
 44
0.0000000001
 40
0.0
 40
0.0
 40
0.0
 40
0.0
 40
0.0345764493
 40
0.0684300711
 40
0.1020877046
 40
0.1363145609
 40
0.1721138742
 40
0.2106252315
 40
0.2530598071
 40
0.3006350758
 40
0.3545539523
 40
0.4159977918
 40
0.4861525907
 40
0.5661560525
 40
0.657050013
 40
0.7596255781
 40
0.8741556442
 40
1.0
 40
1.0
 40
1.0
 40
1.0
 10
9.8968067192
 20
4.6552946624
 30
0.0
 10
9.8965362091
 20
4.6552946634
 30
0.0
 10
9.8960001977
 20
4.6553216982
 30
0.0
 10
9.8952114783
 20
4.6554620609
 30
0.0
 10
9.8944538735
 20
4.6557168178
 30
0.0
 10
9.8937350207
 20
4.6561012338
 30
0.0
 10
9.8930641805
 20
4.656628958
 30
0.0
 10
9.8924521379
 20
4.6573128262
 30
0.0
 10
9.8919107801
 20
4.658165033
 30
0.0
 10
9.8914540033
 20
4.6591983909
 30
0.0
 10
9.8910993318
 20
4.6604264432
 30
0.0
 10
9.8908694751
 20
4.6618628719
 30
0.0
 10
9.8907924643
 20
4.6635197821
 30
0.0
 10
9.8909027409
 20
4.6654057005
 30
0.0
 10
9.8912394008
 20
4.6675219862
 30
0.0
 10
9.8918459741
 20
4.6698579083
 30
0.0
 10
9.8927650264
 20
4.6723825986
 30
0.0
 10
9.8935669478
 20
4.6740870054
 30
0.0
 10
9.8940248939
 20
4.674958567
 30
0.0
  0
SPLINE
  5
343
100
AcDbEntity
  8
0
100
AcDbSpline
 62
9
  6
CONTINUOUS
 70
0
 71
3
 72
11
 73
7
 74
0
 42
0.0000001
 43
0.0000001
 44
0.0000000001
 40
0.0
 40
0.0
 40
0.0
 40
0.0
 40
0.2367510924
 40
0.4855394835
 40
0.741416837
 40
1.0
 40
1.0
 40
1.0
 40
1.0
 10
9.8940248939
 20
4.674958567
 30
0.0
 10
9.8947998884
 20
4.6764331279
 30
0.0
 10
9.8964209449
 20
4.6794406096
 30
0.0
 10
9.8989642109
 20
4.6839955396
 30
0.0
 10
9.9016401951
 20
4.6886518144
 30
0.0
 10
9.9034771303
 20
4.6917709964
 30
0.0
 10
9.9044080395
 20
4.6933342419
 30
0.0
  0
SPLINE
  5
344
100
AcDbEntity
  8
0
100
AcDbSpline
 62
9
  6
CONTINUOUS
 70
0
 71
3
 72
63
 73
59
 74
0
 42
0.0000001
 43
0.0000001
 44
0.0000000001
 40
0.0
 40
0.0
 40
0.0
 40
0.0
 40
0.0075595317
 40
0.015399039
 40
0.0236147011
 40
0.0322869612
 40
0.0414806993
 40
0.0512461546
 40
0.0616206529
 40
0.0726304312
 40
0.084292312
 40
0.0966151285
 40
0.1096009762
 40
0.1232462353
 40
0.1375423765
 40
0.1524765839
 40
0.1680323272
 40
0.184189824
 40
0.2009264007
 40
0.2182167737
 40
0.2360333518
 40
0.2543464845
 40
0.2731246608
 40
0.2923346735
 40
0.3119418213
 40
0.3319100776
 40
0.3727784132
 40
0.4146319829
 40
0.4571491045
 40
0.5
 40
0.5428508955
 40
0.5853680171
 40
0.6272215868
 40
0.6680899224
 40
0.6880581787
 40
0.7076653265
 40
0.7268753392
 40
0.7456535155
 40
0.7639666482
 40
0.7817832263
 40
0.7990735993
 40
0.815810176
 40
0.8319676728
 40
0.8475234161
 40
0.8624576235
 40
0.8767537647
 40
0.8903990238
 40
0.9033848715
 40
0.915707688
 40
0.9273695688
 40
0.9383793471
 40
0.9487538454
 40
0.9585193007
 40
0.9677130388
 40
0.9763852989
 40
0.984600961
 40
0.9924404683
 40
1.0
 40
1.0
 40
1.0
 40
1.0
 10
11.2512481292
 20
11.2608957313
 30
0.0
 10
11.2509145633
 20
11.2625980001
 30
0.0
 10
11.2499994963
 20
11.2660232057
 30
0.0
 10
11.2479505641
 20
11.2710530033
 30
0.0
 10
11.2452143052
 20
11.2760368935
 30
0.0
 10
11.2417996926
 20
11.2809636279
 30
0.0
 10
11.2377159497
 20
11.2858243098
 30
0.0
 10
11.2329729361
 20
11.2906097714
 30
0.0
 10
11.2275813396
 20
11.295310909
 30
0.0
 10
11.2215529156
 20
11.2999184387
 30
0.0
 10
11.2149006465
 20
11.304422981
 30
0.0
 10
11.2076388605
 20
11.3088151638
 30
0.0
 10
11.1997832307
 20
11.3130856765
 30
0.0
 10
11.1913507608
 20
11.3172253375
 30
0.0
 10
11.1823597663
 20
11.3212251517
 30
0.0
 10
11.172829855
 20
11.3250763946
 30
0.0
 10
11.1627818626
 20
11.328770622
 30
0.0
 10
11.1522377935
 20
11.3322997009
 30
0.0
 10
11.1412207754
 20
11.3356558354
 30
0.0
 10
11.1297550158
 20
11.3388316225
 30
0.0
 10
11.1178657323
 20
11.3418200448
 30
0.0
 10
11.1055790878
 20
11.3446144867
 30
0.0
 10
11.0929221322
 20
11.3472087534
 30
0.0
 10
11.0799227653
 20
11.3495971012
 30
0.0
 10
11.0666095985
 20
11.3517742804
 30
0.0
 10
11.0483387645
 20
11.3544093315
 30
0.0
 10
11.0249272779
 20
11.3571309717
 30
0.0
 10
10.9962792494
 20
11.3594671865
 30
0.0
 10
10.9671152789
 20
11.3608772744
 30
0.0
 10
10.9376923428
 20
11.3613487308
 30
0.0
 10
10.9082694066
 20
11.3608772744
 30
0.0
 10
10.8791054362
 20
11.3594671865
 30
0.0
 10
10.8504574076
 20
11.3571309717
 30
0.0
 10
10.8270459211
 20
11.3544093315
 30
0.0
 10
10.808775087
 20
11.3517742804
 30
0.0
 10
10.7954619203
 20
11.3495971012
 30
0.0
 10
10.7824625534
 20
11.3472087534
 30
0.0
 10
10.7698055977
 20
11.3446144867
 30
0.0
 10
10.7575189532
 20
11.3418200448
 30
0.0
 10
10.7456296697
 20
11.3388316225
 30
0.0
 10
10.7341639101
 20
11.3356558354
 30
0.0
 10
10.723146892
 20
11.3322997009
 30
0.0
 10
10.712602823
 20
11.328770622
 30
0.0
 10
10.7025548305
 20
11.3250763946
 30
0.0
 10
10.6930249192
 20
11.3212251517
 30
0.0
 10
10.6840339247
 20
11.3172253375
 30
0.0
 10
10.6756014548
 20
11.3130856765
 30
0.0
 10
10.667745825
 20
11.3088151638
 30
0.0
 10
10.660484039
 20
11.304422981
 30
0.0
 10
10.6538317699
 20
11.2999184387
 30
0.0
 10
10.6478033459
 20
11.295310909
 30
0.0
 10
10.6424117494
 20
11.2906097714
 30
0.0
 10
10.6376687358
 20
11.2858243098
 30
0.0
 10
10.6335849929
 20
11.2809636279
 30
0.0
 10
10.6301703803
 20
11.2760368935
 30
0.0
 10
10.6274341214
 20
11.2710530033
 30
0.0
 10
10.6253851892
 20
11.2660232057
 30
0.0
 10
10.6244701222
 20
11.2625980001
 30
0.0
 10
10.6241365563
 20
11.2608957313
 30
0.0
  0
SPLINE
  5
345
100
AcDbEntity
  8
0
100
AcDbSpline
 62
9
  6
CONTINUOUS
 70
0
 71
3
 72
13
 73
9
 74
0
 42
0.0000001
 43
0.0000001
 44
0.0000000001
 40
0.0
 40
0.0
 40
0.0
 40
0.0
 40
0.1138347614
 40
0.2325106951
 40
0.3548932481
 40
0.4801622127
 40
0.7370896178
 40
1.0
 40
1.0
 40
1.0
 40
1.0
 10
10.0238847529
 20
4.9260497071
 30
0.0
 10
10.0241491175
 20
4.9229260585
 30
0.0
 10
10.0246604154
 20
4.9165434736
 30
0.0
 10
10.0253700368
 20
4.9067960473
 30
0.0
 10
10.0260389515
 20
4.8967301514
 30
0.0
 10
10.0268820192
 20
4.8828604458
 30
0.0
 10
10.0278225327
 20
4.8651199234
 30
0.0
 10
10.0284534069
 20
4.8508181979
 30
0.0
 10
10.0287439847
 20
4.8435839268
 30
0.0
  0
SPLINE
  5
346
100
AcDbEntity
  8
0
100
AcDbSpline
 62
9
  6
CONTINUOUS
 70
0
 71
3
 72
14
 73
10
 74
0
 42
0.0000001
 43
0.0000001
 44
0.0000000001
 40
0.0
 40
0.0
 40
0.0
 40
0.0
 40
0.2561625463
 40
0.3854760918
 40
0.5140802807
 40
0.640852896
 40
0.7647228343
 40
0.8847462294
 40
1.0
 40
1.0
 40
1.0
 40
1.0
 10
10.4529615942
 20
4.6726194944
 30
0.0
 10
10.454057078
 20
4.6731285372
 30
0.0
 10
10.4557614679
 20
4.6737808877
 30
0.0
 10
10.4581002992
 20
4.6744227494
 30
0.0
 10
10.4598789199
 20
4.6747870225
 30
0.0
 10
10.4616524277
 20
4.6750275816
 30
0.0
 10
10.4633981808
 20
4.6751414931
 30
0.0
 10
10.4650932634
 20
4.6751270869
 30
0.0
 10
10.4662000162
 20
4.6750299747
 30
0.0
 10
10.4667388009
 20
4.6749585489
 30
0.0
  0
SPLINE
  5
347
100
AcDbEntity
  8
0
100
AcDbSpline
 62
9
  6
CONTINUOUS
 70
0
 71
3
 72
21
 73
17
 74
0
 42
0.0000001
 43
0.0000001
 44
0.0000000001
 40
0.0
 40
0.0
 40
0.0
 40
0.0
 40
0.1703774221
 40
0.3342217317
 40
0.4122443721
 40
0.4869352064
 40
0.5578227753
 40
0.6245019975
 40
0.6866574998
 40
0.7440720726
 40
0.7966720491
 40
0.8445527911
 40
0.8880371618
 40
0.9277460085
 40
0.9646450783
 40
1.0
 40
1.0
 40
1.0
 40
1.0
 10
10.5036616368
 20
4.6401741125
 30
0.0
 10
10.5036841139
 20
4.6411735149
 30
0.0
 10
10.5038030861
 20
4.6431331342
 30
0.0
 10
10.5041430676
 20
4.6455310359
 30
0.0
 10
10.5045289969
 20
4.6473484704
 30
0.0
 10
10.5048641211
 20
4.6486174819
 30
0.0
 10
10.5052464525
 20
4.6498034182
 30
0.0
 10
10.5056727552
 20
4.6508958112
 30
0.0
 10
10.506139105
 20
4.6518851716
 30
0.0
 10
10.5066416992
 20
4.6527628748
 30
0.0
 10
10.5071762733
 20
4.6535214746
 30
0.0
 10
10.5077388509
 20
4.6541544379
 30
0.0
 10
10.5083254485
 20
4.654656188
 30
0.0
 10
10.5089326332
 20
4.6550214237
 30
0.0
 10
10.5095556497
 20
4.6552441022
 30
0.0
 10
10.5099810529
 20
4.6552946624
 30
0.0
 10
10.5101884908
 20
4.6552946624
 30
0.0
  0
SPLINE
  5
348
100
AcDbEntity
  8
0
100
AcDbSpline
 62
9
  6
CONTINUOUS
 70
0
 71
3
 72
14
 73
10
 74
0
 42
0.0000001
 43
0.0000001
 44
0.0000000001
 40
0.0
 40
0.0
 40
0.0
 40
0.0
 40
0.2561622793
 40
0.3854749092
 40
0.5140781349
 40
0.6408500866
 40
0.7647199715
 40
0.8847442232
 40
1.0
 40
1.0
 40
1.0
 40
1.0
 10
11.4224229786
 20
4.6726195598
 30
0.0
 10
11.4213275411
 20
4.6731286764
 30
0.0
 10
11.4196231976
 20
4.6737811042
 30
0.0
 10
11.4172844071
 20
4.6744230054
 30
0.0
 10
11.4155058122
 20
4.6747872764
 30
0.0
 10
11.4137323221
 20
4.6750278056
 30
0.0
 10
11.4119865781
 20
4.6751416626
 30
0.0
 10
11.4102914958
 20
4.6751271791
 30
0.0
 10
11.4091847437
 20
4.675030001
 30
0.0
 10
11.4086459584
 20
4.6749585403
 30
0.0
  0
SPLINE
  5
349
100
AcDbEntity
  8
0
100
AcDbSpline
 62
9
  6
CONTINUOUS
 70
0
 71
3
 72
15
 73
11
 74
0
 42
0.0000001
 43
0.0000001
 44
0.0000000001
 40
0.0
 40
0.0
 40
0.0
 40
0.0
 40
0.1172449697
 40
0.2399026942
 40
0.3663991709
 40
0.4951796013
 40
0.6245806452
 40
0.7529240359
 40
0.8786136986
 40
1.0
 40
1.0
 40
1.0
 40
1.0
 10
11.4222355997
 20
4.6968755192
 30
0.0
 10
11.4216375575
 20
4.6968648761
 30
0.0
 10
11.4204143379
 20
4.696803256
 30
0.0
 10
11.4185549936
 20
4.6966030842
 30
0.0
 10
11.4166507424
 20
4.6962954488
 30
0.0
 10
11.4147308114
 20
4.6958851797
 30
0.0
 10
11.4128243444
 20
4.6953783411
 30
0.0
 10
11.4109602198
 20
4.6947827522
 30
0.0
 10
11.4091671199
 20
4.6941074429
 30
0.0
 10
11.4080123418
 20
4.6936001994
 30
0.0
 10
11.4074530657
 20
4.6933343075
 30
0.0
  0
SPLINE
  5
34A
100
AcDbEntity
  8
0
100
AcDbSpline
 62
9
  6
CONTINUOUS
 70
0
 71
3
 72
20
 73
16
 74
0
 42
0.0000001
 43
0.0000001
 44
0.0000000001
 40
0.0
 40
0.0
 40
0.0
 40
0.0
 40
0.1309439339
 40
0.2611611255
 40
0.3904226831
 40
0.4546202339
 40
0.5184386087
 40
0.5817965777
 40
0.6445809228
 40
0.7066596412
 40
0.7678521566
 40
0.8279616829
 40
0.8867732614
 40
0.9441173103
 40
1.0
 40
1.0
 40
1.0
 40
1.0
 10
10.5101884956
 20
4.6552946624
 30
0.0
 10
10.5079696527
 20
4.6552946645
 30
0.0
 10
10.503542711
 20
4.6554061649
 30
0.0
 10
10.4969496184
 20
4.6560189893
 30
0.0
 10
10.4915425211
 20
4.6569937713
 30
0.0
 10
10.48732586
 20
4.6581090481
 30
0.0
 10
10.4842437544
 20
4.6591242987
 30
0.0
 10
10.4812580153
 20
4.6603341598
 30
0.0
 10
10.4783974822
 20
4.6617523935
 30
0.0
 10
10.4756991556
 20
4.663391372
 30
0.0
 10
10.4732096399
 20
4.6652605939
 30
0.0
 10
10.4709868959
 20
4.6673630135
 30
0.0
 10
10.4691003992
 20
4.6696921986
 30
0.0
 10
10.4676316022
 20
4.6722247665
 30
0.0
 10
10.4669713797
 20
4.6740406431
 30
0.0
 10
10.4667387973
 20
4.674958567
 30
0.0
  0
SPLINE
  5
34B
100
AcDbEntity
  8
0
100
AcDbSpline
 62
9
  6
CONTINUOUS
 70
0
 71
3
 72
11
 73
7
 74
0
 42
0.0000001
 43
0.0000001
 44
0.0000000001
 40
0.0
 40
0.0
 40
0.0
 40
0.0
 40
0.2391680152
 40
0.4851189448
 40
0.738722886
 40
1.0
 40
1.0
 40
1.0
 40
1.0
 10
10.4667387973
 20
4.674958567
 30
0.0
 10
10.4663738447
 20
4.6763997551
 30
0.0
 10
10.4658958009
 20
4.6793944382
 30
0.0
 10
10.4659007625
 20
4.6840025473
 30
0.0
 10
10.4665726479
 20
4.6886977557
 30
0.0
 10
10.467418661
 20
4.6917932237
 30
0.0
 10
10.4679314919
 20
4.6933342419
 30
0.0
  0
SPLINE
  5
34C
100
AcDbEntity
  8
0
100
AcDbSpline
 62
9
  6
CONTINUOUS
 70
0
 71
3
 72
11
 73
7
 74
0
 42
0.0000001
 43
0.0000001
 44
0.0000000001
 40
0.0
 40
0.0
 40
0.0
 40
0.0
 40
0.2612762126
 40
0.5148815637
 40
0.7608305981
 40
1.0
 40
1.0
 40
1.0
 40
1.0
 10
11.4074530611
 20
4.6933343238
 30
0.0
 10
11.4079659934
 20
4.6917933444
 30
0.0
 10
11.4088120842
 20
4.6886978737
 30
0.0
 10
11.4094837758
 20
4.6840026644
 30
0.0
 10
11.4094891339
 20
4.679394539
 30
0.0
 10
11.4090109078
 20
4.6763998826
 30
0.0
 10
11.4086460132
 20
4.6749586701
 30
0.0
  0
SPLINE
  5
34D
100
AcDbEntity
  8
0
100
AcDbSpline
 62
9
  6
CONTINUOUS
 70
0
 71
3
 72
20
 73
16
 74
0
 42
0.0000001
 43
0.0000001
 44
0.0000000001
 40
0.0
 40
0.0
 40
0.0
 40
0.0
 40
0.0558929273
 40
0.1132375658
 40
0.1720323299
 40
0.2321423171
 40
0.2933412337
 40
0.3554176466
 40
0.4182022432
 40
0.481561084
 40
0.5453794427
 40
0.6095770673
 40
0.7388397476
 40
0.8690561493
 40
1.0
 40
1.0
 40
1.0
 40
1.0
 10
11.4086460132
 20
4.6749586701
 30
0.0
 10
11.4084132866
 20
4.6740405945
 30
0.0
 10
11.4077518639
 20
4.672224898
 30
0.0
 10
11.4062830794
 20
4.669692624
 30
0.0
 10
11.4043984948
 20
4.6673621602
 30
0.0
 10
11.4021752847
 20
4.6652602932
 30
0.0
 10
11.3996854054
 20
4.6633914612
 30
0.0
 10
11.3969871321
 20
4.6617521955
 30
0.0
 10
11.3941265226
 20
4.6603340738
 30
0.0
 10
11.3911407182
 20
4.6591242542
 30
0.0
 10
11.3880585662
 20
4.6581089948
 30
0.0
 10
11.3838418408
 20
4.6569937194
 30
0.0
 10
11.3784346809
 20
4.6560189588
 30
0.0
 10
11.3718415228
 20
4.6554061017
 30
0.0
 10
11.3674145518
 20
4.6552946642
 30
0.0
 10
11.3651956893
 20
4.6552946624
 30
0.0
  0
SPLINE
  5
34E
100
AcDbEntity
  8
0
100
AcDbSpline
 62
9
  6
CONTINUOUS
 70
0
 71
3
 72
22
 73
18
 74
0
 42
0.0000001
 43
0.0000001
 44
0.0000000001
 40
0.0
 40
0.0
 40
0.0
 40
0.0
 40
0.2155334689
 40
0.4080165044
 40
0.5752567871
 40
0.6488900416
 40
0.7156286342
 40
0.7753175263
 40
0.8278447876
 40
0.8731616644
 40
0.9112737344
 40
0.9423118621
 40
0.9666408575
 40
0.976548906
 40
0.9851861909
 40
0.992859182
 40
1.0
 40
1.0
 40
1.0
 40
1.0
 10
11.5053836302
 20
4.6726194944
 30
0.0
 10
11.5057242414
 20
4.6728412781
 30
0.0
 10
11.5063725311
 20
4.6732558178
 30
0.0
 10
11.5072987274
 20
4.6738207731
 30
0.0
 10
11.508007734
 20
4.6742275048
 30
0.0
 10
11.5085190958
 20
4.6745014832
 30
0.0
 10
11.508855627
 20
4.6746721072
 30
0.0
 10
11.5091607859
 20
4.6748163323
 30
0.0
 10
11.5094337438
 20
4.6749337946
 30
0.0
 10
11.5096737358
 20
4.675024289
 30
0.0
 10
11.5098803057
 20
4.6750877675
 30
0.0
 10
11.5100530024
 20
4.6751241805
 30
0.0
 10
11.5101766683
 20
4.6751329591
 30
0.0
 10
11.5102572042
 20
4.6751232705
 30
0.0
 10
11.5103049454
 20
4.6751093291
 30
0.0
 10
11.5103441549
 20
4.6750880113
 30
0.0
 10
11.5103646117
 20
4.6750683615
 30
0.0
 10
11.5103728706
 20
4.6750577253
 30
0.0
  0
SPLINE
  5
34F
100
AcDbEntity
  8
0
100
AcDbSpline
 62
9
  6
CONTINUOUS
 70
0
 71
3
 72
18
 73
14
 74
0
 42
0.0000001
 43
0.0000001
 44
0.0000000001
 40
0.0
 40
0.0
 40
0.0
 40
0.0
 40
0.1550746382
 40
0.3055004375
 40
0.4480787042
 40
0.5802446124
 40
0.7004762858
 40
0.7561147574
 40
0.8089102874
 40
0.8591694584
 40
0.9073566925
 40
0.9540789947
 40
1.0
 40
1.0
 40
1.0
 40
1.0
 10
11.5604388368
 20
4.6401741125
 30
0.0
 10
11.5604065321
 20
4.6411752469
 30
0.0
 10
11.5602343806
 20
4.6431459169
 30
0.0
 10
11.5596538855
 20
4.645987883
 30
0.0
 10
11.5587727567
 20
4.6485975804
 30
0.0
 10
11.5576207425
 20
4.6508842186
 30
0.0
 10
11.5564339519
 20
4.6524975451
 30
0.0
 10
11.5553797708
 20
4.6535359793
 30
0.0
 10
11.5545694229
 20
4.6541678714
 30
0.0
 10
11.5537261529
 20
4.6546668012
 30
0.0
 10
11.5528569574
 20
4.6550275832
 30
0.0
 10
11.5519702046
 20
4.6552456688
 30
0.0
 10
11.5513707304
 20
4.6552946624
 30
0.0
 10
11.5510741183
 20
4.6552946624
 30
0.0
  0
SPLINE
  5
350
100
AcDbEntity
  8
0
100
AcDbSpline
 62
9
  6
CONTINUOUS
 70
0
 71
3
 72
15
 73
11
 74
0
 42
0.0000001
 43
0.0000001
 44
0.0000000001
 40
0.0
 40
0.0
 40
0.0
 40
0.0
 40
0.0940799082
 40
0.1934578059
 40
0.3009838723
 40
0.4186084393
 40
0.5473396244
 40
0.6874259861
 40
0.8385982
 40
1.0
 40
1.0
 40
1.0
 40
1.0
 10
11.99011434
 20
4.6726195598
 30
0.0
 10
11.9899576198
 20
4.6728738635
 30
0.0
 10
11.9895705782
 20
4.6733591675
 30
0.0
 10
11.988819962
 20
4.6739610074
 30
0.0
 10
11.9879034379
 20
4.6744435175
 30
0.0
 10
11.9868347568
 20
4.6748030821
 30
0.0
 10
11.9856272313
 20
4.675037208
 30
0.0
 10
11.9842956542
 20
4.6751441363
 30
0.0
 10
11.982856759
 20
4.6751227895
 30
0.0
 10
11.9818678249
 20
4.6750263695
 30
0.0
 10
11.9813598608
 20
4.6749585403
 30
0.0
  0
SPLINE
  5
351
100
AcDbEntity
  8
0
100
AcDbSpline
 62
9
  6
CONTINUOUS
 70
0
 71
3
 72
15
 73
11
 74
0
 42
0.0000001
 43
0.0000001
 44
0.0000000001
 40
0.0
 40
0.0
 40
0.0
 40
0.0
 40
0.1198655254
 40
0.2418787509
 40
0.3656874088
 40
0.4909784269
 40
0.617408963
 40
0.7446281677
 40
0.8722945945
 40
1.0
 40
1.0
 40
1.0
 40
1.0
 10
10.3456832617
 20
4.7606880045
 30
0.0
 10
10.3466820942
 20
4.7639065539
 30
0.0
 10
10.3485837624
 20
4.7704372082
 30
0.0
 10
10.3511272673
 20
4.7804005818
 30
0.0
 10
10.3533805255
 20
4.7905898993
 30
0.0
 10
10.3553369092
 20
4.8009666416
 30
0.0
 10
10.3569914873
 20
4.8114927849
 30
0.0
 10
10.3583411679
 20
4.8221295785
 30
0.0
 10
10.3593927798
 20
4.8328357874
 30
0.0
 10
10.359894184
 20
4.8399990787
 30
0.0
 10
10.3600935854
 20
4.8435839268
 30
0.0
  0
SPLINE
  5
352
100
AcDbEntity
  8
0
100
AcDbSpline
 62
9
  6
CONTINUOUS
 70
0
 71
3
 72
11
 73
7
 74
0
 42
0.0000001
 43
0.0000001
 44
0.0000000001
 40
0.0
 40
0.0
 40
0.0
 40
0.0
 40
0.2585830352
 40
0.5144598626
 40
0.7632495088
 40
1.0
 40
1.0
 40
1.0
 40
1.0
 10
11.9709764417
 20
4.6933343238
 30
0.0
 10
11.9719074508
 20
4.6917711292
 30
0.0
 10
11.9737444533
 20
4.6886519711
 30
0.0
 10
11.976420291
 20
4.683995581
 30
0.0
 10
11.9789638751
 20
4.6794407992
 30
0.0
 10
11.980584783
 20
4.6764332143
 30
0.0
 10
11.9813598166
 20
4.6749586701
 30
0.0
  0
SPLINE
  5
353
100
AcDbEntity
  8
0
100
AcDbSpline
 62
9
  6
CONTINUOUS
 70
0
 71
3
 72
24
 73
20
 74
0
 42
0.0000001
 43
0.0000001
 44
0.0000000001
 40
0.0
 40
0.0
 40
0.0
 40
0.0
 40
0.1258273711
 40
0.2403546932
 40
0.3429581053
 40
0.4338445028
 40
0.4751550282
 40
0.5138641036
 40
0.5840170091
 40
0.6454584294
 40
0.6993757739
 40
0.7469495819
 40
0.7893836965
 40
0.8278962643
 40
0.8636946142
 40
0.8979173271
 40
0.9315718199
 40
0.965425177
 40
1.0
 40
1.0
 40
1.0
 40
1.0
 10
11.9813598166
 20
4.6749586701
 30
0.0
 10
11.9818176507
 20
4.6740871676
 30
0.0
 10
11.9826184977
 20
4.6723823302
 30
0.0
 10
11.9835369845
 20
4.6698573901
 30
0.0
 10
11.9841466372
 20
4.6675221783
 30
0.0
 10
11.9844354356
 20
4.6657046422
 30
0.0
 10
11.9845423421
 20
4.6643712611
 30
0.0
 10
11.9845771555
 20
4.6631964804
 30
0.0
 10
11.9845154191
 20
4.661862714
 30
0.0
 10
11.9842854275
 20
4.6604263474
 30
0.0
 10
11.9839306088
 20
4.6591983394
 30
0.0
 10
11.9834738514
 20
4.6581649734
 30
0.0
 10
11.9829324538
 20
4.657312756
 30
0.0
 10
11.9823203198
 20
4.656628938
 30
0.0
 10
11.9816494958
 20
4.6561012141
 30
0.0
 10
11.9809307114
 20
4.6557167566
 30
0.0
 10
11.9801731383
 20
4.6554620062
 30
0.0
 10
11.9793844272
 20
4.6553216886
 30
0.0
 10
11.9788484159
 20
4.6552946633
 30
0.0
 10
11.9785779107
 20
4.6552946624
 30
0.0
  0
LINE
  5
354
100
AcDbEntity
  8
0
100
AcDbLine
 62
9
  6
CONTINUOUS
 10
10.0091055759
 20
4.7606880045
 11
9.9680034569
 21
4.6822680174
  0
LINE
  5
355
100
AcDbEntity
  8
0
100
AcDbLine
 62
9
  6
CONTINUOUS
 10
10.3247191014
 20
4.6822680174
 11
10.3456832617
 21
4.7606880045
  0
SPLINE
  5
356
100
AcDbEntity
  8
0
100
AcDbSpline
 62
9
  6
CONTINUOUS
 70
0
 71
3
 72
16
 73
12
 74
0
 42
0.0000001
 43
0.0000001
 44
0.0000000001
 40
0.0
 40
0.0
 40
0.0
 40
0.0
 40
0.1255528866
 40
0.2509651873
 40
0.3136343634
 40
0.3762544598
 40
0.5012798367
 40
0.6261310128
 40
0.7508403177
 40
0.8754444249
 40
1.0
 40
1.0
 40
1.0
 40
1.0
 10
9.9680034462
 20
4.6822680174
 30
0.0
 10
9.9669712012
 20
4.6802508609
 30
0.0
 10
9.9646299184
 20
4.6763545408
 30
0.0
 10
9.9610681588
 20
4.671931867
 30
0.0
 10
9.9578839297
 20
4.6687130535
 30
0.0
 10
9.9544927657
 20
4.6657237695
 30
0.0
 10
9.9498866569
 20
4.662436141
 30
0.0
 10
9.9438799929
 20
4.6592890519
 30
0.0
 10
9.9375046082
 20
4.6569979453
 30
0.0
 10
9.9308814758
 20
4.655605917
 30
0.0
 10
9.9263785494
 20
4.6552946553
 30
0.0
 10
9.9241306161
 20
4.6552946624
 30
0.0
  0
SPLINE
  5
357
100
AcDbEntity
  8
0
100
AcDbSpline
 62
9
  6
CONTINUOUS
 70
0
 71
3
 72
20
 73
16
 74
0
 42
0.0000001
 43
0.0000001
 44
0.0000000001
 40
0.0
 40
0.0
 40
0.0
 40
0.0
 40
0.0517712561
 40
0.1039102273
 40
0.1567500673
 40
0.2106452239
 40
0.2659001789
 40
0.3227554545
 40
0.4419071553
 40
0.5045551589
 40
0.5693063693
 40
0.7050581372
 40
0.7760413154
 40
0.8489593398
 40
1.0
 40
1.0
 40
1.0
 40
1.0
 10
10.2969843729
 20
4.6552946624
 30
0.0
 10
10.2976963846
 20
4.6552946508
 30
0.0
 10
10.2991266711
 20
4.6553730426
 30
0.0
 10
10.3012576745
 20
4.6557242963
 30
0.0
 10
10.3033674513
 20
4.6563081415
 30
0.0
 10
10.3054457193
 20
4.6571209566
 30
0.0
 10
10.3074834489
 20
4.6581585223
 30
0.0
 10
10.3101745782
 20
4.6598606844
 30
0.0
 10
10.3127042676
 20
4.6619797273
 30
0.0
 10
10.315042347
 20
4.6644382293
 30
0.0
 10
10.3173436291
 20
4.6672351263
 30
0.0
 10
10.3194153123
 20
4.6703555915
 30
0.0
 10
10.3212553463
 20
4.6737345662
 30
0.0
 10
10.3229925328
 20
4.6774020544
 30
0.0
 10
10.3240811115
 20
4.6802911494
 30
0.0
 10
10.3247191014
 20
4.6822680174
 30
0.0
  0
LINE
  5
358
100
AcDbEntity
  8
0
100
AcDbLine
 62
9
  6
CONTINUOUS
 10
11.4932676689
 20
4.6968754317
 11
11.4682262169
 21
4.7932379141
  0
SPLINE
  5
359
100
AcDbEntity
  8
0
100
AcDbSpline
 62
9
  6
CONTINUOUS
 70
0
 71
3
 72
12
 73
8
 74
0
 42
0.0000001
 43
0.0000001
 44
0.0000000001
 40
0.0
 40
0.0
 40
0.0
 40
0.0
 40
0.2572216269
 40
0.384504044
 40
0.510586257
 40
0.7584883082
 40
1.0
 40
1.0
 40
1.0
 40
1.0
 10
11.5053836304
 20
4.6726194942
 30
0.0
 10
11.5039414962
 20
4.6744624673
 30
0.0
 10
11.5019225814
 20
4.6773288519
 30
0.0
 10
11.4995433461
 20
4.6813201407
 30
0.0
 10
11.4974092801
 20
4.6853524881
 30
0.0
 10
11.4951706418
 20
4.6904961883
 30
0.0
 10
11.4938202839
 20
4.6947488359
 30
0.0
 10
11.4932676689
 20
4.6968754317
 30
0.0
  0
SPLINE
  5
35A
100
AcDbEntity
  8
0
100
AcDbSpline
 62
9
  6
CONTINUOUS
 70
0
 71
3
 72
11
 73
7
 74
0
 42
0.0000001
 43
0.0000001
 44
0.0000000001
 40
0.0
 40
0.0
 40
0.0
 40
0.0
 40
0.2612381048
 40
0.5149337023
 40
0.7609916889
 40
1.0
 40
1.0
 40
1.0
 40
1.0
 10
11.4222356225
 20
4.6968755446
 30
0.0
 10
11.4227718973
 20
4.6948077744
 30
0.0
 10
11.423609821
 20
4.6906703249
 30
0.0
 10
11.4241016846
 20
4.6844505348
 30
0.0
 10
11.4237703769
 20
4.678399842
 30
0.0
 10
11.422969769
 20
4.6744958921
 30
0.0
 10
11.4224231203
 20
4.6726194942
 30
0.0
  0
SPLINE
  5
35B
100
AcDbEntity
  8
0
100
AcDbSpline
 62
9
  6
CONTINUOUS
 70
0
 71
3
 72
18
 73
14
 74
0
 42
0.0000001
 43
0.0000001
 44
0.0000000001
 40
0.0
 40
0.0
 40
0.0
 40
0.0
 40
0.1550746253
 40
0.3055004199
 40
0.4480786892
 40
0.5802446054
 40
0.7004762888
 40
0.756114765
 40
0.8089102986
 40
0.8591694713
 40
0.9073567046
 40
0.9540790028
 40
1.0
 40
1.0
 40
1.0
 40
1.0
 10
10.3149453966
 20
4.6401741125
 30
0.0
 10
10.3149777019
 20
4.6411752469
 30
0.0
 10
10.3151498543
 20
4.6431459169
 30
0.0
 10
10.3157303508
 20
4.645987883
 30
0.0
 10
10.3166114808
 20
4.6485975805
 30
0.0
 10
10.3177634961
 20
4.6508842186
 30
0.0
 10
10.3189502874
 20
4.6524975451
 30
0.0
 10
10.320004469
 20
4.6535359793
 30
0.0
 10
10.3208148171
 20
4.6541678714
 30
0.0
 10
10.3216580872
 20
4.6546668011
 30
0.0
 10
10.3225272829
 20
4.6550275831
 30
0.0
 10
10.3234140357
 20
4.6552456688
 30
0.0
 10
10.3240135098
 20
4.6552946624
 30
0.0
 10
10.324310122
 20
4.6552946624
 30
0.0
  0
SPLINE
  5
35C
100
AcDbEntity
  8
0
100
AcDbSpline
 62
9
  6
CONTINUOUS
 70
0
 71
3
 72
37
 73
33
 74
0
 42
0.0000001
 43
0.0000001
 44
0.0000000001
 40
0.0
 40
0.0
 40
0.0
 40
0.0
 40
0.007510694
 40
0.0150554097
 40
0.0226676308
 40
0.0303797862
 40
0.0462177855
 40
0.0628030748
 40
0.0803248718
 40
0.098935641
 40
0.1187531728
 40
0.1398644479
 40
0.1623301209
 40
0.1861886639
 40
0.2114598488
 40
0.2381477566
 40
0.2662432894
 40
0.2957260948
 40
0.3265660206
 40
0.3587244772
 40
0.3921555296
 40
0.4268067126
 40
0.4626196833
 40
0.4995309574
 40
0.5374724677
 40
0.5763719892
 40
0.6161535627
 40
0.6567379795
 40
0.7399808149
 40
0.8254189702
 40
0.91233657
 40
1.0
 40
1.0
 40
1.0
 40
1.0
 10
11.1876923297
 20
12.2498399849
 30
0.0
 10
11.1876923297
 20
12.2505399012
 30
0.0
 10
11.1876418748
 20
12.2519434249
 30
0.0
 10
11.1874150028
 20
12.2540452782
 30
0.0
 10
11.1870370562
 20
12.256144494
 30
0.0
 10
11.1863262162
 20
12.2589621559
 30
0.0
 10
11.1850443996
 20
12.2624881171
 30
0.0
 10
11.1829211755
 20
12.2666416063
 30
0.0
 10
11.1802072345
 20
12.2707476369
 30
0.0
 10
11.1769111102
 20
12.2747972038
 30
0.0
 10
11.1730416707
 20
12.2787823958
 30
0.0
 10
11.168608537
 20
12.282695024
 30
0.0
 10
11.1636222616
 20
12.286526801
 30
0.0
 10
11.1580945351
 20
12.2902692867
 30
0.0
 10
11.1520383119
 20
12.2939140299
 30
0.0
 10
11.1454678281
 20
12.2974526332
 30
0.0
 10
11.1383985769
 20
12.3008768078
 30
0.0
 10
11.1308472913
 20
12.3041784373
 30
0.0
 10
11.1228319273
 20
12.3073496675
 30
0.0
 10
11.1143715962
 20
12.3103829123
 30
0.0
 10
11.105486505
 20
12.3132708806
 30
0.0
 10
11.0961979132
 20
12.3160066079
 30
0.0
 10
11.0865280879
 20
12.3185835135
 30
0.0
 10
11.07650023
 20
12.3209953803
 30
0.0
 10
11.0661384087
 20
12.3232363778
 30
0.0
 10
11.0554675261
 20
12.3253010772
 30
0.0
 10
11.0445131989
 20
12.3271845366
 30
0.0
 10
11.0294375986
 20
12.3294671792
 30
0.0
 10
11.0100744102
 20
12.3318254903
 30
0.0
 10
10.9863367112
 20
12.3338501046
 30
0.0
 10
10.9621320483
 20
12.335072805
 30
0.0
 10
10.9458616357
 20
12.3353450207
 30
0.0
 10
10.9376923427
 20
12.3353450207
 30
0.0
  0
SPLINE
  5
35D
100
AcDbEntity
  8
0
100
AcDbSpline
 62
9
  6
CONTINUOUS
 70
0
 71
3
 72
16
 73
12
 74
0
 42
0.0000001
 43
0.0000001
 44
0.0000000001
 40
0.0
 40
0.0
 40
0.0
 40
0.0
 40
0.2517332206
 40
0.3773439395
 40
0.5027042068
 40
0.5652786813
 40
0.6277633273
 40
0.6901484496
 40
0.7524225008
 40
0.8765570566
 40
1.0
 40
1.0
 40
1.0
 40
1.0
 10
11.2690419435
 20
4.8435839268
 30
0.0
 10
11.2708089329
 20
4.8508706179
 30
0.0
 10
11.2737514482
 20
4.8617269194
 30
0.0
 10
11.2783681514
 20
4.8759727796
 30
0.0
 10
11.2815685173
 20
4.8847490656
 30
0.0
 10
11.2843356608
 20
4.8916760176
 30
0.0
 10
11.2865192952
 20
4.8968148175
 30
0.0
 10
11.2888176108
 20
4.9018936285
 30
0.0
 10
11.2920393343
 20
4.9085676902
 30
0.0
 10
11.296385421
 20
4.9167149467
 30
0.0
 10
11.3002625362
 20
4.9229956915
 30
0.0
 10
11.3023098007
 20
4.9260497357
 30
0.0
  0
SPLINE
  5
35E
100
AcDbEntity
  8
0
100
AcDbSpline
 62
9
  6
CONTINUOUS
 70
0
 71
3
 72
16
 73
12
 74
0
 42
0.0000001
 43
0.0000001
 44
0.0000000001
 40
0.0
 40
0.0
 40
0.0
 40
0.0
 40
0.1234429322
 40
0.2475775319
 40
0.309851573
 40
0.3722366887
 40
0.4347213385
 40
0.497295821
 40
0.6226560889
 40
0.7482667916
 40
1.0
 40
1.0
 40
1.0
 40
1.0
 10
10.5730748774
 20
4.9260497071
 30
0.0
 10
10.5751221903
 20
4.9229956974
 30
0.0
 10
10.5789992634
 20
4.9167149235
 30
0.0
 10
10.5833453208
 20
4.9085676572
 30
0.0
 10
10.586567048
 20
4.9018935989
 30
0.0
 10
10.5888653587
 20
4.8968147882
 30
0.0
 10
10.5910489843
 20
4.8916759865
 30
0.0
 10
10.5938161165
 20
4.8847490323
 30
0.0
 10
10.5970164825
 20
4.8759727502
 30
0.0
 10
10.6016332138
 20
4.861726906
 30
0.0
 10
10.6045757669
 20
4.8508706184
 30
0.0
 10
10.6063427419
 20
4.8435839268
 30
0.0
  0
SPLINE
  5
35F
100
AcDbEntity
  8
0
100
AcDbSpline
 62
9
  6
CONTINUOUS
 70
0
 71
3
 72
16
 73
12
 74
0
 42
0.0000001
 43
0.0000001
 44
0.0000000001
 40
0.0
 40
0.0
 40
0.0
 40
0.0
 40
0.1185158363
 40
0.2395371433
 40
0.362728192
 40
0.4877882273
 40
0.6143862818
 40
0.7421812078
 40
0.8064275985
 40
0.8708484479
 40
1.0
 40
1.0
 40
1.0
 40
1.0
 10
11.2742700285
 20
4.7606880045
 30
0.0
 10
11.2736080083
 20
4.7639116255
 30
0.0
 10
11.2723925906
 20
4.7704527788
 30
0.0
 10
11.2709061324
 20
4.7804165281
 30
0.0
 10
11.2697427923
 20
4.7906061281
 30
0.0
 10
11.268908862
 20
4.800983226
 30
0.0
 10
11.2684088766
 20
4.8115096538
 30
0.0
 10
11.2682754443
 20
4.8203581912
 30
0.0
 10
11.2683438106
 20
4.8274794896
 30
0.0
 10
11.2685312545
 20
4.834636274
 30
0.0
 10
11.2688033875
 20
4.8400056449
 30
0.0
 10
11.2690419435
 20
4.8435839268
 30
0.0
  0
SPLINE
  5
360
100
AcDbEntity
  8
0
100
AcDbSpline
 62
9
  6
CONTINUOUS
 70
0
 71
3
 72
16
 73
12
 74
0
 42
0.0000001
 43
0.0000001
 44
0.0000000001
 40
0.0
 40
0.0
 40
0.0
 40
0.0
 40
0.129151552
 40
0.1935724015
 40
0.2578187922
 40
0.3856137181
 40
0.5122117729
 40
0.637271809
 40
0.7604628579
 40
0.8814841649
 40
1.0
 40
1.0
 40
1.0
 40
1.0
 10
10.6063427419
 20
4.8435839268
 30
0.0
 10
10.606581298
 20
4.8400056449
 30
0.0
 10
10.606853431
 20
4.834636274
 30
0.0
 10
10.607040875
 20
4.8274794896
 30
0.0
 10
10.6071092415
 20
4.8203581912
 30
0.0
 10
10.6069758098
 20
4.8115096538
 30
0.0
 10
10.606475824
 20
4.8009832259
 30
0.0
 10
10.605641893
 20
4.7906061281
 30
0.0
 10
10.6044785528
 20
4.7804165281
 30
0.0
 10
10.6029920943
 20
4.7704527788
 30
0.0
 10
10.6017766768
 20
4.7639116256
 30
0.0
 10
10.601114657
 20
4.7606880045
 30
0.0
  0
LINE
  5
361
100
AcDbEntity
  8
0
100
AcDbLine
 62
9
  6
CONTINUOUS
 10
10.601114657
 20
4.7606880045
 11
10.5809766981
 21
4.6822680174
  0
LINE
  5
362
100
AcDbEntity
  8
0
100
AcDbLine
 62
9
  6
CONTINUOUS
 10
11.2944079873
 20
4.6822680174
 11
11.2742700285
 21
4.7606880045
  0
SPLINE
  5
363
100
AcDbEntity
  8
0
100
AcDbSpline
 62
9
  6
CONTINUOUS
 70
0
 71
3
 72
22
 73
18
 74
0
 42
0.0000001
 43
0.0000001
 44
0.0000000001
 40
0.0
 40
0.0
 40
0.0
 40
0.0
 40
0.1787586637
 40
0.2633154823
 40
0.344215587
 40
0.4211868957
 40
0.4940316225
 40
0.5625923571
 40
0.626754158
 40
0.6864771512
 40
0.7418019938
 40
0.7928743235
 40
0.8399651512
 40
0.8835045222
 40
0.9241142487
 40
0.9626186318
 40
1.0
 40
1.0
 40
1.0
 40
1.0
 10
10.5809766321
 20
4.6822680174
 30
0.0
 10
10.5806217076
 20
4.6803127152
 30
0.0
 10
10.580008528
 20
4.6774469671
 30
0.0
 10
10.5789897754
 20
4.6737576623
 30
0.0
 10
10.5781739285
 20
4.6711883142
 30
0.0
 10
10.5772993122
 20
4.6687763433
 30
0.0
 10
10.5763666092
 20
4.666533917
 30
0.0
 10
10.5753801314
 20
4.6644712375
 30
0.0
 10
10.5743448566
 20
4.6625974037
 30
0.0
 10
10.5732654186
 20
4.6609208424
 30
0.0
 10
10.572146136
 20
4.6594491876
 30
0.0
 10
10.5709916811
 20
4.658188933
 30
0.0
 10
10.5698063102
 20
4.6571459926
 30
0.0
 10
10.5685942839
 20
4.6563257307
 30
0.0
 10
10.567359649
 20
4.6557335381
 30
0.0
 10
10.5661084508
 20
4.6553752409
 30
0.0
 10
10.5652628336
 20
4.6552946589
 30
0.0
 10
10.5648472662
 20
4.6552946624
 30
0.0
  0
SPLINE
  5
364
100
AcDbEntity
  8
0
100
AcDbSpline
 62
9
  6
CONTINUOUS
 70
0
 71
3
 72
11
 73
7
 74
0
 42
0.0000001
 43
0.0000001
 44
0.0000000001
 40
0.0
 40
0.0
 40
0.0
 40
0.0
 40
0.2599631069
 40
0.5118887701
 40
0.7580111966
 40
1.0
 40
1.0
 40
1.0
 40
1.0
 10
10.3419718639
 20
4.6580215907
 30
0.0
 10
10.340501251
 20
4.657514943
 30
0.0
 10
10.3375527037
 20
4.6566640941
 30
0.0
 10
10.3330894118
 20
4.6558264416
 30
0.0
 10
10.3286796204
 20
4.655379617
 30
0.0
 10
10.3257580156
 20
4.655294664
 30
0.0
 10
10.3243101213
 20
4.6552946624
 30
0.0
  0
SPLINE
  5
365
100
AcDbEntity
  8
0
100
AcDbSpline
 62
9
  6
CONTINUOUS
 70
0
 71
3
 72
23
 73
19
 74
0
 42
0.0000001
 43
0.0000001
 44
0.0000000001
 40
0.0
 40
0.0
 40
0.0
 40
0.0
 40
0.0372831764
 40
0.0757251577
 40
0.1163053931
 40
0.1598237787
 40
0.2068924759
 40
0.2579469615
 40
0.3132597187
 40
0.3729752878
 40
0.437131758
 40
0.5056896145
 40
0.5785410671
 40
0.6555205513
 40
0.7364085405
 40
0.8209730193
 40
0.9089580087
 40
1.0
 40
1.0
 40
1.0
 40
1.0
 10
11.3105481707
 20
4.6552946624
 30
0.0
 10
11.3101337748
 20
4.6552946507
 30
0.0
 10
11.3092901069
 20
4.6553753344
 30
0.0
 10
11.308041411
 20
4.6557337286
 30
0.0
 10
11.3068083955
 20
4.6563257482
 30
0.0
 10
11.3055976033
 20
4.6571459061
 30
0.0
 10
11.3044135941
 20
4.658188914
 30
0.0
 10
11.3032604942
 20
4.659449171
 30
0.0
 10
11.3021424604
 20
4.6609208015
 30
0.0
 10
11.3010641735
 20
4.6625973154
 30
0.0
 10
11.3000300889
 20
4.6644711403
 30
0.0
 10
11.2990449423
 20
4.6665339459
 30
0.0
 10
11.2981128968
 20
4.6687762567
 30
0.0
 10
11.2972383499
 20
4.671187795
 30
0.0
 10
11.2964261302
 20
4.6737578005
 30
0.0
 10
11.2956791153
 20
4.6764744822
 30
0.0
 10
11.2949984174
 20
4.6793245887
 30
0.0
 10
11.2945973051
 20
4.6812739692
 30
0.0
 10
11.2944079873
 20
4.6822680174
 30
0.0
  0
SPLINE
  5
366
100
AcDbEntity
  8
0
100
AcDbSpline
 62
9
  6
CONTINUOUS
 70
0
 71
3
 72
37
 73
33
 74
0
 42
0.0000001
 43
0.0000001
 44
0.0000000001
 40
0.0
 40
0.0
 40
0.0
 40
0.0
 40
0.08766343
 40
0.1745810298
 40
0.2600191851
 40
0.3432620205
 40
0.3838464373
 40
0.4236280108
 40
0.4625275323
 40
0.5004690426
 40
0.5373803167
 40
0.5731932874
 40
0.6078444704
 40
0.6412755228
 40
0.6734339794
 40
0.7042739052
 40
0.7337567106
 40
0.7618522434
 40
0.7885401512
 40
0.8138113361
 40
0.8376698791
 40
0.8601355521
 40
0.8812468272
 40
0.901064359
 40
0.9196751282
 40
0.9371969252
 40
0.9537822145
 40
0.9696202138
 40
0.9773323692
 40
0.9849445903
 40
0.992489306
 40
1.0
 40
1.0
 40
1.0
 40
1.0
 10
10.9376923427
 20
12.3353450207
 30
0.0
 10
10.9295230498
 20
12.3353450207
 30
0.0
 10
10.9132526371
 20
12.335072805
 30
0.0
 10
10.8890479743
 20
12.3338501046
 30
0.0
 10
10.8653102753
 20
12.3318254903
 30
0.0
 10
10.8459470868
 20
12.3294671792
 30
0.0
 10
10.8308714866
 20
12.3271845366
 30
0.0
 10
10.8199171594
 20
12.3253010772
 30
0.0
 10
10.8092462767
 20
12.3232363778
 30
0.0
 10
10.7988844555
 20
12.3209953803
 30
0.0
 10
10.7888565976
 20
12.3185835135
 30
0.0
 10
10.7791867723
 20
12.3160066079
 30
0.0
 10
10.7698981805
 20
12.3132708806
 30
0.0
 10
10.7610130893
 20
12.3103829123
 30
0.0
 10
10.7525527582
 20
12.3073496675
 30
0.0
 10
10.7445373942
 20
12.3041784373
 30
0.0
 10
10.7369861086
 20
12.3008768078
 30
0.0
 10
10.7299168574
 20
12.2974526332
 30
0.0
 10
10.7233463736
 20
12.2939140299
 30
0.0
 10
10.7172901503
 20
12.2902692867
 30
0.0
 10
10.7117624239
 20
12.286526801
 30
0.0
 10
10.7067761485
 20
12.282695024
 30
0.0
 10
10.7023430148
 20
12.2787823958
 30
0.0
 10
10.6984735753
 20
12.2747972038
 30
0.0
 10
10.695177451
 20
12.2707476369
 30
0.0
 10
10.6924635099
 20
12.2666416063
 30
0.0
 10
10.6903402859
 20
12.2624881171
 30
0.0
 10
10.6890584693
 20
12.2589621559
 30
0.0
 10
10.6883476292
 20
12.256144494
 30
0.0
 10
10.6879696827
 20
12.2540452782
 30
0.0
 10
10.6877428107
 20
12.2519434249
 30
0.0
 10
10.6876923557
 20
12.2505399012
 30
0.0
 10
10.6876923557
 20
12.2498399849
 30
0.0
  0
SPLINE
  5
367
100
AcDbEntity
  8
0
100
AcDbSpline
 62
9
  6
CONTINUOUS
 70
0
 71
3
 72
67
 73
63
 74
0
 42
0.0000001
 43
0.0000001
 44
0.0000000001
 40
0.0
 40
0.0
 40
0.0
 40
0.0
 40
0.0037550413
 40
0.0075275415
 40
0.0113338329
 40
0.0151899389
 40
0.0231088376
 40
0.0314014919
 40
0.0401624065
 40
0.049467796
 40
0.0593765471
 40
0.0699321749
 40
0.0811650275
 40
0.0930943015
 40
0.1057298777
 40
0.1190738285
 40
0.1331216138
 40
0.1478630154
 40
0.1632829652
 40
0.1793621939
 40
0.1960777355
 40
0.2134033243
 40
0.2313098026
 40
0.2497654432
 40
0.2687362085
 40
0.2881859673
 40
0.3080767518
 40
0.3283689655
 40
0.3699903842
 40
0.4127094655
 40
0.4561685222
 40
0.5
 40
0.5438314778
 40
0.5872905345
 40
0.6300096158
 40
0.6716310345
 40
0.6919232482
 40
0.7118140327
 40
0.7312637915
 40
0.7502345568
 40
0.7686901974
 40
0.7865966757
 40
0.8039222645
 40
0.8206378061
 40
0.8367170348
 40
0.8521369846
 40
0.8668783862
 40
0.8809261715
 40
0.8942701223
 40
0.9069056985
 40
0.9188349725
 40
0.9300678251
 40
0.9406234529
 40
0.950532204
 40
0.9598375935
 40
0.9685985081
 40
0.9768911624
 40
0.9848100611
 40
0.9886661671
 40
0.9924724585
 40
0.9962449587
 40
1.0
 40
1.0
 40
1.0
 40
1.0
 10
11.2076923423
 20
11.2067811758
 30
0.0
 10
11.2076923423
 20
11.2075370239
 30
0.0
 10
11.2076378052
 20
11.2090527949
 30
0.0
 10
11.2073928147
 20
11.2113228009
 30
0.0
 10
11.206984667
 20
11.2135900338
 30
0.0
 10
11.2062169082
 20
11.2166331189
 30
0.0
 10
11.204832564
 20
11.2204411458
 30
0.0
 10
11.2025395123
 20
11.2249269149
 30
0.0
 10
11.1996084344
 20
11.229361422
 30
0.0
 10
11.1960486127
 20
11.2337349484
 30
0.0
 10
11.1918696372
 20
11.2380389684
 30
0.0
 10
11.1870818589
 20
11.2422646123
 30
0.0
 10
11.1816966694
 20
11.2464029188
 30
0.0
 10
11.1757267247
 20
11.2504448032
 30
0.0
 10
11.1691860138
 20
11.2543811361
 30
0.0
 10
11.1620898934
 20
11.258202832
 30
0.0
 10
11.1544550932
 20
11.2619009291
 30
0.0
 10
11.1462997055
 20
11.2654666921
 30
0.0
 10
11.1376431183
 20
11.2688916284
 30
0.0
 10
11.1285059607
 20
11.272167535
 30
0.0
 10
11.1189100564
 20
11.2752865313
 30
0.0
 10
11.1088783776
 20
11.2782411214
 30
0.0
 10
11.098434969
 20
11.2810241849
 30
0.0
 10
11.0876048812
 20
11.2836290014
 30
0.0
 10
11.0764141104
 20
11.2860492723
 30
0.0
 10
11.0648895569
 20
11.2882791519
 30
0.0
 10
11.0530588836
 20
11.2903132919
 30
0.0
 10
11.036777236
 20
11.2927785433
 30
0.0
 10
11.0158649758
 20
11.29532552
 30
0.0
 10
10.9902282723
 20
11.2975121116
 30
0.0
 10
10.9640869891
 20
11.2988326141
 30
0.0
 10
10.9376923428
 20
11.2992742417
 30
0.0
 10
10.9112976964
 20
11.2988326141
 30
0.0
 10
10.8851564132
 20
11.2975121116
 30
0.0
 10
10.8595197097
 20
11.29532552
 30
0.0
 10
10.8386074495
 20
11.2927785433
 30
0.0
 10
10.8223258019
 20
11.2903132919
 30
0.0
 10
10.8104951286
 20
11.2882791519
 30
0.0
 10
10.7989705751
 20
11.2860492723
 30
0.0
 10
10.7877798043
 20
11.2836290014
 30
0.0
 10
10.7769497165
 20
11.2810241849
 30
0.0
 10
10.7665063079
 20
11.2782411214
 30
0.0
 10
10.7564746291
 20
11.2752865313
 30
0.0
 10
10.7468787248
 20
11.272167535
 30
0.0
 10
10.7377415672
 20
11.2688916284
 30
0.0
 10
10.7290849801
 20
11.2654666921
 30
0.0
 10
10.7209295923
 20
11.2619009291
 30
0.0
 10
10.7132947921
 20
11.258202832
 30
0.0
 10
10.7061986718
 20
11.2543811361
 30
0.0
 10
10.6996579608
 20
11.2504448032
 30
0.0
 10
10.6936880161
 20
11.2464029188
 30
0.0
 10
10.6883028266
 20
11.2422646123
 30
0.0
 10
10.6835150483
 20
11.2380389684
 30
0.0
 10
10.6793360728
 20
11.2337349484
 30
0.0
 10
10.6757762511
 20
11.229361422
 30
0.0
 10
10.6728451732
 20
11.2249269149
 30
0.0
 10
10.6705521215
 20
11.2204411458
 30
0.0
 10
10.6691677773
 20
11.2166331189
 30
0.0
 10
10.6684000185
 20
11.2135900338
 30
0.0
 10
10.6679918708
 20
11.2113228009
 30
0.0
 10
10.6677468803
 20
11.2090527949
 30
0.0
 10
10.6676923432
 20
11.2075370239
 30
0.0
 10
10.6676923432
 20
11.2067811758
 30
0.0
  0
SPLINE
  5
368
100
AcDbEntity
  8
0
100
AcDbSpline
 62
9
  6
CONTINUOUS
 70
0
 71
3
 72
67
 73
63
 74
0
 42
0.0000001
 43
0.0000001
 44
0.0000000001
 40
0.0
 40
0.0
 40
0.0
 40
0.0
 40
0.0037550446
 40
0.0075275534
 40
0.0113338561
 40
0.0151899697
 40
0.0231088716
 40
0.0314015272
 40
0.0401624414
 40
0.0494678294
 40
0.0593765809
 40
0.0699322112
 40
0.0811650665
 40
0.0930943413
 40
0.1057299171
 40
0.1190738674
 40
0.1331216525
 40
0.1478630537
 40
0.163283003
 40
0.1793622314
 40
0.196077772
 40
0.2134033593
 40
0.2313098359
 40
0.2497654751
 40
0.2687362387
 40
0.2881859954
 40
0.3080767777
 40
0.3283689891
 40
0.3699904025
 40
0.412709478
 40
0.4561685284
 40
0.5
 40
0.5438314716
 40
0.587290522
 40
0.6300095975
 40
0.6716310109
 40
0.6919232223
 40
0.7118140046
 40
0.7312637613
 40
0.7502345249
 40
0.7686901641
 40
0.7865966407
 40
0.803922228
 40
0.8206377686
 40
0.836716997
 40
0.8521369463
 40
0.8668783475
 40
0.8809261326
 40
0.8942700829
 40
0.9069056587
 40
0.9188349335
 40
0.9300677888
 40
0.9406234191
 40
0.9505321706
 40
0.9598375586
 40
0.9685984728
 40
0.9768911284
 40
0.9848100303
 40
0.9886661439
 40
0.9924724466
 40
0.9962449554
 40
1.0
 40
1.0
 40
1.0
 40
1.0
 10
11.2230114903
 20
11.2081723223
 30
0.0
 10
11.2230114903
 20
11.208971056
 30
0.0
 10
11.2229538582
 20
11.2105728308
 30
0.0
 10
11.2226949657
 20
11.2129716362
 30
0.0
 10
11.2222636608
 20
11.2153675123
 30
0.0
 10
11.2214523381
 20
11.2185832589
 30
0.0
 10
11.2199894471
 20
11.2226073458
 30
0.0
 10
11.2175662897
 20
11.2273476258
 30
0.0
 10
11.2144689076
 20
11.2320337347
 30
0.0
 10
11.2107071091
 20
11.236655403
 30
0.0
 10
11.2062910273
 20
11.2412036219
 30
0.0
 10
11.2012315999
 20
11.245669018
 30
0.0
 10
11.1955408655
 20
11.2500421214
 30
0.0
 10
11.1892321995
 20
11.2543133319
 30
0.0
 10
11.1823203839
 20
11.258473002
 30
0.0
 10
11.1748216463
 20
11.2625115303
 30
0.0
 10
11.1667536657
 20
11.2664194473
 30
0.0
 10
11.1581355609
 20
11.2701875224
 30
0.0
 10
11.1489878198
 20
11.2738067806
 30
0.0
 10
11.1393322421
 20
11.2772685532
 30
0.0
 10
11.1291918897
 20
11.280564513
 30
0.0
 10
11.1185910384
 20
11.2836867386
 30
0.0
 10
11.1075550968
 20
11.2866277057
 30
0.0
 10
11.0961105368
 20
11.2893803124
 30
0.0
 10
11.0842848297
 20
11.2919379029
 30
0.0
 10
11.072106402
 20
11.2942942999
 30
0.0
 10
11.0596044863
 20
11.2964438515
 30
0.0
 10
11.0423990593
 20
11.2990489746
 30
0.0
 10
11.0203002907
 20
11.3017404598
 30
0.0
 10
10.9932090262
 20
11.3040511127
 30
0.0
 10
10.9655845537
 20
11.3054465369
 30
0.0
 10
10.9376923428
 20
11.3059132213
 30
0.0
 10
10.9098001319
 20
11.3054465369
 30
0.0
 10
10.8821756593
 20
11.3040511127
 30
0.0
 10
10.8550843948
 20
11.3017404598
 30
0.0
 10
10.8329856263
 20
11.2990489746
 30
0.0
 10
10.8157801992
 20
11.2964438515
 30
0.0
 10
10.8032782835
 20
11.2942942999
 30
0.0
 10
10.7910998558
 20
11.2919379029
 30
0.0
 10
10.7792741487
 20
11.2893803124
 30
0.0
 10
10.7678295888
 20
11.2866277057
 30
0.0
 10
10.7567936471
 20
11.2836867386
 30
0.0
 10
10.7461927958
 20
11.280564513
 30
0.0
 10
10.7360524434
 20
11.2772685532
 30
0.0
 10
10.7263968657
 20
11.2738067806
 30
0.0
 10
10.7172491246
 20
11.2701875224
 30
0.0
 10
10.7086310198
 20
11.2664194473
 30
0.0
 10
10.7005630392
 20
11.2625115303
 30
0.0
 10
10.6930643017
 20
11.258473002
 30
0.0
 10
10.686152486
 20
11.2543133319
 30
0.0
 10
10.67984382
 20
11.2500421214
 30
0.0
 10
10.6741530856
 20
11.245669018
 30
0.0
 10
10.6690936582
 20
11.2412036219
 30
0.0
 10
10.6646775764
 20
11.236655403
 30
0.0
 10
10.6609157779
 20
11.2320337347
 30
0.0
 10
10.6578183958
 20
11.2273476258
 30
0.0
 10
10.6553952385
 20
11.2226073458
 30
0.0
 10
10.6539323474
 20
11.2185832589
 30
0.0
 10
10.6531210247
 20
11.2153675123
 30
0.0
 10
10.6526897198
 20
11.2129716362
 30
0.0
 10
10.6524308274
 20
11.2105728308
 30
0.0
 10
10.6523731952
 20
11.208971056
 30
0.0
 10
10.6523731952
 20
11.2081723223
 30
0.0
  0
LINE
  5
369
100
AcDbEntity
  8
0
100
AcDbLine
 62
9
  6
CONTINUOUS
 10
11.3972317289
 20
4.7932773779
 11
11.4222356225
 21
4.6968755446
  0
SPLINE
  5
36A
100
AcDbEntity
  8
0
100
AcDbSpline
 62
9
  6
CONTINUOUS
 70
0
 71
3
 72
10
 73
6
 74
0
 42
0.0000001
 43
0.0000001
 44
0.0000000001
 40
0.0
 40
0.0
 40
0.0
 40
0.0
 40
0.2510866995
 40
0.5013992479
 40
1.0
 40
1.0
 40
1.0
 40
1.0
 10
11.3899884558
 20
4.8188124713
 30
0.0
 10
11.3906496825
 20
4.8166914802
 30
0.0
 10
11.3919365785
 20
4.8124455306
 30
0.0
 10
11.3943930882
 20
4.8039449988
 30
0.0
 10
11.3961241062
 20
4.7975478047
 30
0.0
 10
11.3972317289
 20
4.7932773779
 30
0.0
  0
SPLINE
  5
36B
100
AcDbEntity
  8
0
100
AcDbSpline
 62
9
  6
CONTINUOUS
 70
0
 71
3
 72
43
 73
39
 74
0
 42
0.0000001
 43
0.0000001
 44
0.0000000001
 40
0.0
 40
0.0
 40
0.0
 40
0.0
 40
0.0304028437
 40
0.0610832392
 40
0.0920507499
 40
0.1233211578
 40
0.1549039131
 40
0.1867983576
 40
0.218993988
 40
0.25146928
 40
0.2841838782
 40
0.3170701872
 40
0.3500230144
 40
0.3664815837
 40
0.3828884948
 40
0.3992066233
 40
0.4153910026
 40
0.4234190806
 40
0.431398557
 40
0.4393308396
 40
0.4472196876
 40
0.4628955215
 40
0.4784790659
 40
0.4940025871
 40
0.5094843806
 40
0.5249356514
 40
0.5403633363
 40
0.5711658213
 40
0.6019169495
 40
0.6326306958
 40
0.6633162122
 40
0.6939794494
 40
0.7246249166
 40
0.7552558299
 40
0.8164835113
 40
0.8776772598
 40
0.9388469771
 40
1.0
 40
1.0
 40
1.0
 40
1.0
 10
11.3016084958
 20
4.9334176935
 30
0.0
 10
11.3032254618
 20
4.9334175974
 30
0.0
 10
11.3064748594
 20
4.9333305266
 30
0.0
 10
11.3113565618
 20
4.932929403
 30
0.0
 10
11.3162534357
 20
4.9322438842
 30
0.0
 10
11.3211486456
 20
4.9312612363
 30
0.0
 10
11.3260214117
 20
4.929963996
 30
0.0
 10
11.3308477406
 20
4.9283408858
 30
0.0
 10
11.3355992332
 20
4.9263810189
 30
0.0
 10
11.3402401452
 20
4.9240711123
 30
0.0
 10
11.3447260429
 20
4.9213988538
 30
0.0
 10
11.3490020789
 20
4.918357177
 30
0.0
 10
11.3523346278
 20
4.9155082166
 30
0.0
 10
11.3548148928
 20
4.9130359511
 30
0.0
 10
11.3565631085
 20
4.9110880736
 30
0.0
 10
11.3581799474
 20
4.9090481458
 30
0.0
 10
11.3594018921
 20
4.9072698929
 30
0.0
 10
11.360292127
 20
4.9058070218
 30
0.0
 10
11.3609138541
 20
4.9046955965
 30
0.0
 10
11.3614956037
 20
4.9035711498
 30
0.0
 10
11.36222274
 20
4.9020618356
 30
0.0
 10
11.3630626001
 20
4.9001560977
 30
0.0
 10
11.36400475
 20
4.8978530902
 30
0.0
 10
11.3649031492
 20
4.8955437826
 30
0.0
 10
11.3657711458
 20
4.8932304465
 30
0.0
 10
11.366617074
 20
4.8909143902
 30
0.0
 10
11.3677214288
 20
4.8878253353
 30
0.0
 10
11.3690685912
 20
4.8839590253
 30
0.0
 10
11.3706497412
 20
4.8793134958
 30
0.0
 10
11.3722039728
 20
4.8746654585
 30
0.0
 10
11.3737380151
 20
4.8700156497
 30
0.0
 10
11.3752559032
 20
4.8653643656
 30
0.0
 10
11.376760993
 20
4.8607119791
 30
0.0
 10
11.3787532777
 20
4.8545087122
 30
0.0
 10
11.3812220477
 20
4.8467520582
 30
0.0
 10
11.3841605792
 20
4.8374404785
 30
0.0
 10
11.3870813446
 20
4.8281274747
 30
0.0
 10
11.3890204409
 20
4.8219174809
 30
0.0
 10
11.3899884558
 20
4.8188124713
 30
0.0
  0
SPLINE
  5
36C
100
AcDbEntity
  8
0
100
AcDbSpline
 62
9
  6
CONTINUOUS
 70
0
 71
3
 72
67
 73
63
 74
0
 42
0.0000001
 43
0.0000001
 44
0.0000000001
 40
0.0
 40
0.0
 40
0.0
 40
0.0
 40
0.0037550446
 40
0.0075275534
 40
0.0113338561
 40
0.0151899697
 40
0.0231088716
 40
0.0314015272
 40
0.0401624414
 40
0.0494678294
 40
0.0593765809
 40
0.0699322112
 40
0.0811650665
 40
0.0930943413
 40
0.1057299171
 40
0.1190738674
 40
0.1331216525
 40
0.1478630537
 40
0.163283003
 40
0.1793622314
 40
0.196077772
 40
0.2134033593
 40
0.2313098359
 40
0.2497654751
 40
0.2687362387
 40
0.2881859954
 40
0.3080767777
 40
0.3283689891
 40
0.3699904025
 40
0.412709478
 40
0.4561685284
 40
0.5
 40
0.5438314716
 40
0.587290522
 40
0.6300095975
 40
0.6716310109
 40
0.6919232223
 40
0.7118140046
 40
0.7312637613
 40
0.7502345249
 40
0.7686901641
 40
0.7865966407
 40
0.803922228
 40
0.8206377686
 40
0.836716997
 40
0.8521369463
 40
0.8668783475
 40
0.8809261326
 40
0.8942700829
 40
0.9069056587
 40
0.9188349335
 40
0.9300677888
 40
0.9406234191
 40
0.9505321706
 40
0.9598375586
 40
0.9685984728
 40
0.9768911284
 40
0.9848100303
 40
0.9886661439
 40
0.9924724466
 40
0.9962449554
 40
1.0
 40
1.0
 40
1.0
 40
1.0
 10
11.2211197315
 20
11.361745654
 30
0.0
 10
11.2211197315
 20
11.3625390918
 30
0.0
 10
11.2210624815
 20
11.3641302463
 30
0.0
 10
11.2208053056
 20
11.3665131469
 30
0.0
 10
11.2203768604
 20
11.3688931376
 30
0.0
 10
11.219570917
 20
11.3720875627
 30
0.0
 10
11.2181177254
 20
11.3760849686
 30
0.0
 10
11.2157106344
 20
11.380793819
 30
0.0
 10
11.2126337889
 20
11.3854488575
 30
0.0
 10
11.2088969323
 20
11.3900398826
 30
0.0
 10
11.2045101306
 20
11.3945579453
 30
0.0
 10
11.1994842488
 20
11.3989937344
 30
0.0
 10
11.1938312459
 20
11.4033378427
 30
0.0
 10
11.1875644084
 20
11.4075807337
 30
0.0
 10
11.1806984203
 20
11.4117128238
 30
0.0
 10
11.1732494019
 20
11.4157245754
 30
0.0
 10
11.1652349146
 20
11.4196065816
 30
0.0
 10
11.1566739506
 20
11.4233496732
 30
0.0
 10
11.1475868621
 20
11.4269449345
 30
0.0
 10
11.1379953039
 20
11.4303837544
 30
0.0
 10
11.1279221854
 20
11.4336578609
 30
0.0
 10
11.1173916212
 20
11.4367593851
 30
0.0
 10
11.1064288514
 20
11.4396808527
 30
0.0
 10
11.0950601726
 20
11.4424152087
 30
0.0
 10
11.0833128738
 20
11.4449558415
 30
0.0
 10
11.0712151931
 20
11.4472966149
 30
0.0
 10
11.0587961691
 20
11.4494319143
 30
0.0
 10
11.0417048196
 20
11.4520197645
 30
0.0
 10
11.0197525731
 20
11.4546934043
 30
0.0
 10
10.9928409325
 20
11.4569887368
 30
0.0
 10
10.9653996192
 20
11.4583749089
 30
0.0
 10
10.9376923428
 20
11.458838499
 30
0.0
 10
10.9099850663
 20
11.4583749089
 30
0.0
 10
10.882543753
 20
11.4569887368
 30
0.0
 10
10.8556321124
 20
11.4546934043
 30
0.0
 10
10.8336798659
 20
11.4520197645
 30
0.0
 10
10.8165885164
 20
11.4494319143
 30
0.0
 10
10.8041694924
 20
11.4472966149
 30
0.0
 10
10.7920718117
 20
11.4449558415
 30
0.0
 10
10.7803245129
 20
11.4424152087
 30
0.0
 10
10.7689558341
 20
11.4396808527
 30
0.0
 10
10.7579930644
 20
11.4367593851
 30
0.0
 10
10.7474625001
 20
11.4336578609
 30
0.0
 10
10.7373893816
 20
11.4303837544
 30
0.0
 10
10.7277978234
 20
11.4269449345
 30
0.0
 10
10.7187107349
 20
11.4233496732
 30
0.0
 10
10.7101497709
 20
11.4196065816
 30
0.0
 10
10.7021352836
 20
11.4157245754
 30
0.0
 10
10.6946862652
 20
11.4117128238
 30
0.0
 10
10.6878202771
 20
11.4075807337
 30
0.0
 10
10.6815534396
 20
11.4033378427
 30
0.0
 10
10.6759004367
 20
11.3989937344
 30
0.0
 10
10.6708745549
 20
11.3945579453
 30
0.0
 10
10.6664877532
 20
11.3900398826
 30
0.0
 10
10.6627508966
 20
11.3854488575
 30
0.0
 10
10.6596740511
 20
11.380793819
 30
0.0
 10
10.6572669601
 20
11.3760849686
 30
0.0
 10
10.6558137685
 20
11.3720875627
 30
0.0
 10
10.6550078251
 20
11.3688931376
 30
0.0
 10
10.65457938
 20
11.3665131469
 30
0.0
 10
10.654322204
 20
11.3641302463
 30
0.0
 10
10.654264954
 20
11.3625390918
 30
0.0
 10
10.654264954
 20
11.361745654
 30
0.0
  0
SPLINE
  5
36D
100
AcDbEntity
  8
0
100
AcDbSpline
 62
9
  6
CONTINUOUS
 70
0
 71
3
 72
71
 73
67
 74
0
 42
0.0000001
 43
0.0000001
 44
0.0000000001
 40
0.0
 40
0.0
 40
0.0
 40
0.0
 40
0.0037553158
 40
0.0075276304
 40
0.0113337063
 40
0.0151897465
 40
0.0191112245
 40
0.023112744
 40
0.0314052906
 40
0.040166091
 40
0.0494713724
 40
0.0593800136
 40
0.0699355204
 40
0.081168228
 40
0.0930973598
 40
0.1057327984
 40
0.1190765965
 40
0.1331241991
 40
0.1478654174
 40
0.1632851967
 40
0.1793642439
 40
0.1960795742
 40
0.213404945
 40
0.231311217
 40
0.2497666474
 40
0.268737179
 40
0.2881866965
 40
0.3080772446
 40
0.3283692223
 40
0.349021566
 40
0.3699919466
 40
0.4127105172
 40
0.4561690493
 40
0.5
 40
0.5438309507
 40
0.5872894828
 40
0.6300080534
 40
0.650978434
 40
0.6716307777
 40
0.6919227554
 40
0.7118133035
 40
0.731262821
 40
0.7502333526
 40
0.768688783
 40
0.786595055
 40
0.8039204258
 40
0.8206357561
 40
0.8367148033
 40
0.8521345826
 40
0.8668758009
 40
0.8809234035
 40
0.8942672016
 40
0.9069026402
 40
0.918831772
 40
0.9300644796
 40
0.9406199864
 40
0.9505286276
 40
0.959833909
 40
0.9685947094
 40
0.976887256
 40
0.9808887755
 40
0.9848102535
 40
0.9886662937
 40
0.9924723696
 40
0.9962446842
 40
1.0
 40
1.0
 40
1.0
 40
1.0
 10
11.2610588803
 20
11.5263276679
 30
0.0
 10
11.2610590084
 20
11.5272329891
 30
0.0
 10
11.2609937941
 20
11.5290484092
 30
0.0
 10
11.2607002134
 20
11.5317670955
 30
0.0
 10
11.2602112884
 20
11.5344822841
 30
0.0
 10
11.2595275418
 20
11.5371920224
 30
0.0
 10
11.2586494366
 20
11.5398947196
 30
0.0
 10
11.2572033809
 20
11.5435291001
 30
0.0
 10
11.2548874307
 20
11.548060459
 30
0.0
 10
11.2513771843
 20
11.5533708752
 30
0.0
 10
11.2471137031
 20
11.5586090194
 30
0.0
 10
11.242108737
 20
11.5637636865
 30
0.0
 10
11.236374629
 20
11.5688245564
 30
0.0
 10
11.2299250475
 20
11.5737808213
 30
0.0
 10
11.2227751186
 20
11.5786216001
 30
0.0
 10
11.214941601
 20
11.5833359559
 30
0.0
 10
11.2064429006
 20
11.5879130175
 30
0.0
 10
11.1972990622
 20
11.592342067
 30
0.0
 10
11.187531735
 20
11.5966126207
 30
0.0
 10
11.1771641325
 20
11.6007144999
 30
0.0
 10
11.1662209752
 20
11.6046378936
 30
0.0
 10
11.1547284096
 20
11.6083733784
 30
0.0
 10
11.1427139371
 20
11.611911961
 30
0.0
 10
11.1302063459
 20
11.6152451016
 30
0.0
 10
11.1172356449
 20
11.6183647607
 30
0.0
 10
11.1038329804
 20
11.6212634102
 30
0.0
 10
11.0900305526
 20
11.6239340466
 30
0.0
 10
11.0758615304
 20
11.6263702142
 30
0.0
 10
11.0613599956
 20
11.62856601
 30
0.0
 10
11.0465607808
 20
11.63051617
 30
0.0
 10
11.0263553008
 20
11.6327964009
 30
0.0
 10
11.0006119933
 20
11.6349918873
 30
0.0
 10
10.9693040385
 20
11.6365734391
 30
0.0
 10
10.9376923428
 20
11.6371023381
 30
0.0
 10
10.906080647
 20
11.6365734391
 30
0.0
 10
10.8747726922
 20
11.6349918873
 30
0.0
 10
10.8490293848
 20
11.6327964009
 30
0.0
 10
10.8288239047
 20
11.63051617
 30
0.0
 10
10.8140246899
 20
11.62856601
 30
0.0
 10
10.7995231551
 20
11.6263702142
 30
0.0
 10
10.785354133
 20
11.6239340466
 30
0.0
 10
10.7715517052
 20
11.6212634102
 30
0.0
 10
10.7581490407
 20
11.6183647607
 30
0.0
 10
10.7451783396
 20
11.6152451016
 30
0.0
 10
10.7326707484
 20
11.611911961
 30
0.0
 10
10.7206562759
 20
11.6083733784
 30
0.0
 10
10.7091637103
 20
11.6046378936
 30
0.0
 10
10.698220553
 20
11.6007144999
 30
0.0
 10
10.6878529506
 20
11.5966126207
 30
0.0
 10
10.6780856233
 20
11.592342067
 30
0.0
 10
10.6689417849
 20
11.5879130175
 30
0.0
 10
10.6604430846
 20
11.5833359559
 30
0.0
 10
10.6526095669
 20
11.5786216001
 30
0.0
 10
10.645459638
 20
11.5737808213
 30
0.0
 10
10.6390100565
 20
11.5688245564
 30
0.0
 10
10.6332759485
 20
11.5637636865
 30
0.0
 10
10.6282709824
 20
11.5586090194
 30
0.0
 10
10.6240075012
 20
11.5533708752
 30
0.0
 10
10.6204972548
 20
11.548060459
 30
0.0
 10
10.6181813046
 20
11.5435291001
 30
0.0
 10
10.616735249
 20
11.5398947196
 30
0.0
 10
10.6158571438
 20
11.5371920224
 30
0.0
 10
10.6151733971
 20
11.5344822841
 30
0.0
 10
10.6146844721
 20
11.5317670955
 30
0.0
 10
10.6143908914
 20
11.5290484092
 30
0.0
 10
10.6143256771
 20
11.5272329891
 30
0.0
 10
10.6143258053
 20
11.5263276679
 30
0.0
  0
SPLINE
  5
36E
100
AcDbEntity
  8
0
100
AcDbSpline
 62
9
  6
CONTINUOUS
 70
0
 71
3
 72
71
 73
67
 74
0
 42
0.0000001
 43
0.0000001
 44
0.0000000001
 40
0.0
 40
0.0
 40
0.0
 40
0.0
 40
0.0037550351
 40
0.0075274993
 40
0.011333728
 40
0.0151897756
 40
0.0191112116
 40
0.0231127143
 40
0.0314052738
 40
0.0401660736
 40
0.0494713549
 40
0.0593799967
 40
0.0699355038
 40
0.0811682119
 40
0.0930973441
 40
0.1057327833
 40
0.1190765818
 40
0.133124185
 40
0.1478654038
 40
0.1632851838
 40
0.1793642316
 40
0.1960795625
 40
0.213404934
 40
0.2313112067
 40
0.2497666378
 40
0.2687371701
 40
0.2881866884
 40
0.3080772373
 40
0.3283692157
 40
0.3490215602
 40
0.3699919416
 40
0.4127105138
 40
0.4561690476
 40
0.5
 40
0.5438309524
 40
0.5872894862
 40
0.6300080584
 40
0.6509784398
 40
0.6716307843
 40
0.6919227627
 40
0.7118133116
 40
0.7312628299
 40
0.7502333622
 40
0.7686887933
 40
0.786595066
 40
0.8039204375
 40
0.8206357684
 40
0.8367148162
 40
0.8521345962
 40
0.866875815
 40
0.8809234182
 40
0.8942672167
 40
0.9069026559
 40
0.9188317881
 40
0.9300644962
 40
0.9406200033
 40
0.9505286451
 40
0.9598339264
 40
0.9685947262
 40
0.9768872857
 40
0.9808887884
 40
0.9848102244
 40
0.988666272
 40
0.9924725007
 40
0.9962449649
 40
1.0
 40
1.0
 40
1.0
 40
1.0
 10
11.2682102493
 20
11.5347359188
 30
0.0
 10
11.2682102493
 20
11.5356611924
 30
0.0
 10
11.2681434926
 20
11.5375167168
 30
0.0
 10
11.2678435798
 20
11.5402955474
 30
0.0
 10
11.2673439825
 20
11.5430708894
 30
0.0
 10
11.2666450941
 20
11.5458405825
 30
0.0
 10
11.2657475137
 20
11.5486030189
 30
0.0
 10
11.2642694581
 20
11.552317753
 30
0.0
 10
11.2619023304
 20
11.5569493433
 30
0.0
 10
11.2583144362
 20
11.5623771955
 30
0.0
 10
11.2539566689
 20
11.5677311832
 30
0.0
 10
11.2488410171
 20
11.572999849
 30
0.0
 10
11.2429800964
 20
11.578172641
 30
0.0
 10
11.2363878804
 20
11.5832385159
 30
0.0
 10
11.2290798281
 20
11.5881863501
 30
0.0
 10
11.2210730694
 20
11.5930049657
 30
0.0
 10
11.2123864172
 20
11.5976832507
 30
0.0
 10
11.2030403595
 20
11.6022102502
 30
0.0
 10
11.1930570242
 20
11.6065752488
 30
0.0
 10
11.1824601385
 20
11.6107678424
 30
0.0
 10
11.1712749692
 20
11.6147780034
 30
0.0
 10
11.1595282413
 20
11.6185960999
 30
0.0
 10
11.1472480644
 20
11.6222129395
 30
0.0
 10
11.1344638633
 20
11.6256197937
 30
0.0
 10
11.1212063104
 20
11.6288084453
 30
0.0
 10
11.1075072411
 20
11.6317711995
 30
0.0
 10
11.0933995676
 20
11.6345008979
 30
0.0
 10
11.0789171923
 20
11.6369909422
 30
0.0
 10
11.0640949508
 20
11.6392352989
 30
0.0
 10
11.048968446
 20
11.6412285874
 30
0.0
 10
11.0283161144
 20
11.6435592464
 30
0.0
 10
11.0020034843
 20
11.6458032868
 30
0.0
 10
10.9700031427
 20
11.6474198152
 30
0.0
 10
10.9376923428
 20
11.647960411
 30
0.0
 10
10.9053815428
 20
11.6474198152
 30
0.0
 10
10.8733812012
 20
11.6458032868
 30
0.0
 10
10.8470685711
 20
11.6435592464
 30
0.0
 10
10.8264162395
 20
11.6412285874
 30
0.0
 10
10.8112897347
 20
11.6392352989
 30
0.0
 10
10.7964674932
 20
11.6369909422
 30
0.0
 10
10.7819851179
 20
11.6345008979
 30
0.0
 10
10.7678774444
 20
11.6317711995
 30
0.0
 10
10.7541783751
 20
11.6288084453
 30
0.0
 10
10.7409208222
 20
11.6256197937
 30
0.0
 10
10.7281366211
 20
11.6222129395
 30
0.0
 10
10.7158564442
 20
11.6185960999
 30
0.0
 10
10.7041097163
 20
11.6147780034
 30
0.0
 10
10.6929245471
 20
11.6107678424
 30
0.0
 10
10.6823276613
 20
11.6065752488
 30
0.0
 10
10.672344326
 20
11.6022102502
 30
0.0
 10
10.6629982683
 20
11.5976832507
 30
0.0
 10
10.6543116161
 20
11.5930049657
 30
0.0
 10
10.6463048574
 20
11.5881863501
 30
0.0
 10
10.6389968051
 20
11.5832385159
 30
0.0
 10
10.6324045891
 20
11.578172641
 30
0.0
 10
10.6265436684
 20
11.572999849
 30
0.0
 10
10.6214280167
 20
11.5677311832
 30
0.0
 10
10.6170702493
 20
11.5623771955
 30
0.0
 10
10.6134823551
 20
11.5569493433
 30
0.0
 10
10.6111152274
 20
11.552317753
 30
0.0
 10
10.6096371719
 20
11.5486030189
 30
0.0
 10
10.6087395914
 20
11.5458405825
 30
0.0
 10
10.608040703
 20
11.5430708894
 30
0.0
 10
10.6075411057
 20
11.5402955474
 30
0.0
 10
10.6072411929
 20
11.5375167168
 30
0.0
 10
10.6071744362
 20
11.5356611924
 30
0.0
 10
10.6071744362
 20
11.5347359188
 30
0.0
  0
SPLINE
  5
36F
100
AcDbEntity
  8
0
100
AcDbSpline
 62
9
  6
CONTINUOUS
 70
0
 71
3
 72
71
 73
67
 74
0
 42
0.0000001
 43
0.0000001
 44
0.0000000001
 40
0.0
 40
0.0
 40
0.0
 40
0.0
 40
0.0037550351
 40
0.0075274993
 40
0.011333728
 40
0.0151897756
 40
0.0191112115
 40
0.0231127142
 40
0.0314052738
 40
0.0401660736
 40
0.0494713549
 40
0.0593799966
 40
0.0699355038
 40
0.0811682119
 40
0.0930973441
 40
0.1057327832
 40
0.1190765818
 40
0.133124185
 40
0.1478654038
 40
0.1632851838
 40
0.1793642316
 40
0.1960795625
 40
0.213404934
 40
0.2313112067
 40
0.2497666378
 40
0.2687371701
 40
0.2881866884
 40
0.3080772372
 40
0.3283692157
 40
0.3490215602
 40
0.3699919416
 40
0.4127105138
 40
0.4561690476
 40
0.5
 40
0.5438309524
 40
0.5872894862
 40
0.6300080584
 40
0.6509784398
 40
0.6716307843
 40
0.6919227628
 40
0.7118133116
 40
0.7312628299
 40
0.7502333622
 40
0.7686887933
 40
0.786595066
 40
0.8039204375
 40
0.8206357684
 40
0.8367148162
 40
0.8521345962
 40
0.866875815
 40
0.8809234182
 40
0.8942672168
 40
0.9069026559
 40
0.9188317881
 40
0.9300644962
 40
0.9406200034
 40
0.9505286451
 40
0.9598339264
 40
0.9685947262
 40
0.9768872858
 40
0.9808887885
 40
0.9848102244
 40
0.988666272
 40
0.9924725007
 40
0.9962449649
 40
1.0
 40
1.0
 40
1.0
 40
1.0
 10
11.2701923429
 20
11.5369874713
 30
0.0
 10
11.2701923429
 20
11.5379182936
 30
0.0
 10
11.2701251858
 20
11.5397849455
 30
0.0
 10
11.2698234744
 20
11.5425804405
 30
0.0
 10
11.2693208811
 20
11.5453724261
 30
0.0
 10
11.2686178015
 20
11.5481587288
 30
0.0
 10
11.2677148383
 20
11.5509377314
 30
0.0
 10
11.266227919
 20
11.5546747425
 30
0.0
 10
11.2638465957
 20
11.5593341081
 30
0.0
 10
11.2602371852
 20
11.5647945108
 30
0.0
 10
11.2558532846
 20
11.570180606
 30
0.0
 10
11.2507069547
 20
11.5754808676
 30
0.0
 10
11.2448108864
 20
11.5806846805
 30
0.0
 10
11.2381791373
 20
11.5857809351
 30
0.0
 10
11.2308272592
 20
11.5907584411
 30
0.0
 10
11.2227724844
 20
11.5956059536
 30
0.0
 10
11.214033739
 20
11.600312294
 30
0.0
 10
11.2046316336
 20
11.6048664416
 30
0.0
 10
11.1945884289
 20
11.6092576168
 30
0.0
 10
11.1839279944
 20
11.6134753532
 30
0.0
 10
11.1726757484
 20
11.6175095628
 30
0.0
 10
11.1608585762
 20
11.6213505562
 30
0.0
 10
11.1485047559
 20
11.6249890857
 30
0.0
 10
11.1356438888
 20
11.6284163706
 30
0.0
 10
11.1223068313
 20
11.6316241443
 30
0.0
 10
11.1085256096
 20
11.6346046659
 30
0.0
 10
11.0943333333
 20
11.6373507341
 30
0.0
 10
11.0797641082
 20
11.6398557111
 30
0.0
 10
11.0648529787
 20
11.642113527
 30
0.0
 10
11.0496357612
 20
11.6441187691
 30
0.0
 10
11.028859579
 20
11.6464634049
 30
0.0
 10
11.0023891539
 20
11.6487209027
 30
0.0
 10
10.9701969084
 20
11.6503471254
 30
0.0
 10
10.9376923428
 20
11.6508909631
 30
0.0
 10
10.9051877771
 20
11.6503471254
 30
0.0
 10
10.8729955317
 20
11.6487209027
 30
0.0
 10
10.8465251065
 20
11.6464634049
 30
0.0
 10
10.8257489243
 20
11.6441187691
 30
0.0
 10
10.8105317068
 20
11.642113527
 30
0.0
 10
10.7956205773
 20
11.6398557111
 30
0.0
 10
10.7810513522
 20
11.6373507341
 30
0.0
 10
10.7668590759
 20
11.6346046659
 30
0.0
 10
10.7530778542
 20
11.6316241443
 30
0.0
 10
10.7397407967
 20
11.6284163706
 30
0.0
 10
10.7268799296
 20
11.6249890857
 30
0.0
 10
10.7145261093
 20
11.6213505562
 30
0.0
 10
10.7027089371
 20
11.6175095628
 30
0.0
 10
10.6914566911
 20
11.6134753532
 30
0.0
 10
10.6807962566
 20
11.6092576168
 30
0.0
 10
10.6707530519
 20
11.6048664416
 30
0.0
 10
10.6613509465
 20
11.600312294
 30
0.0
 10
10.6526122011
 20
11.5956059536
 30
0.0
 10
10.6445574264
 20
11.5907584411
 30
0.0
 10
10.6372055482
 20
11.5857809351
 30
0.0
 10
10.6305737991
 20
11.5806846805
 30
0.0
 10
10.6246777308
 20
11.5754808676
 30
0.0
 10
10.6195314009
 20
11.570180606
 30
0.0
 10
10.6151475003
 20
11.5647945108
 30
0.0
 10
10.6115380898
 20
11.5593341081
 30
0.0
 10
10.6091567665
 20
11.5546747425
 30
0.0
 10
10.6076698472
 20
11.5509377314
 30
0.0
 10
10.606766884
 20
11.5481587288
 30
0.0
 10
10.6060638044
 20
11.5453724261
 30
0.0
 10
10.6055612111
 20
11.5425804405
 30
0.0
 10
10.6052594997
 20
11.5397849455
 30
0.0
 10
10.6051923426
 20
11.5379182936
 30
0.0
 10
10.6051923426
 20
11.5369874713
 30
0.0
  0
SPLINE
  5
370
100
AcDbEntity
  8
0
100
AcDbSpline
 62
9
  6
CONTINUOUS
 70
0
 71
3
 72
11
 73
7
 74
0
 42
0.0000001
 43
0.0000001
 44
0.0000000001
 40
0.0
 40
0.0
 40
0.0
 40
0.0
 40
0.2393576934
 40
0.4877967634
 40
0.7423761063
 40
1.0
 40
1.0
 40
1.0
 40
1.0
 10
10.5737871055
 20
4.9334176935
 30
0.0
 10
10.5736679818
 20
4.9328382401
 30
0.0
 10
10.5734599282
 20
4.9316500058
 30
0.0
 10
10.5732386563
 20
4.9298278647
 30
0.0
 10
10.5731047677
 20
4.9279519958
 30
0.0
 10
10.5730749017
 20
4.9266858833
 30
0.0
 10
10.5730749265
 20
4.9260491671
 30
0.0
  0
SPLINE
  5
371
100
AcDbEntity
  8
0
100
AcDbSpline
 62
9
  6
CONTINUOUS
 70
0
 71
3
 72
21
 73
17
 74
0
 42
0.0000001
 43
0.0000001
 44
0.0000000001
 40
0.0
 40
0.0
 40
0.0
 40
0.0
 40
0.1703774367
 40
0.3342217534
 40
0.4122443947
 40
0.4869352281
 40
0.5578227947
 40
0.6245020133
 40
0.686657511
 40
0.7440720786
 40
0.7966720498
 40
0.8445527869
 40
0.8880371539
 40
0.9277459992
 40
0.9646450712
 40
1.0
 40
1.0
 40
1.0
 40
1.0
 10
11.3717225394
 20
4.6401741125
 30
0.0
 10
11.3717000629
 20
4.6411735149
 30
0.0
 10
11.3715810918
 20
4.6431331342
 30
0.0
 10
11.3712411116
 20
4.6455310358
 30
0.0
 10
11.3708551832
 20
4.6473484703
 30
0.0
 10
11.3705200597
 20
4.6486174819
 30
0.0
 10
11.3701377289
 20
4.6498034182
 30
0.0
 10
11.3697114268
 20
4.6508958112
 30
0.0
 10
11.3692450775
 20
4.6518851716
 30
0.0
 10
11.3687424838
 20
4.6527628748
 30
0.0
 10
11.36820791
 20
4.6535214746
 30
0.0
 10
11.3676453327
 20
4.6541544379
 30
0.0
 10
11.3670587353
 20
4.6546561881
 30
0.0
 10
11.3664515507
 20
4.6550214237
 30
0.0
 10
11.3658285342
 20
4.6552441022
 30
0.0
 10
11.365403131
 20
4.6552946624
 30
0.0
 10
11.3651956931
 20
4.6552946624
 30
0.0
  0
SPLINE
  5
372
100
AcDbEntity
  8
0
100
AcDbSpline
 62
9
  6
CONTINUOUS
 70
0
 71
3
 72
67
 73
63
 74
0
 42
0.0000001
 43
0.0000001
 44
0.0000000001
 40
0.0
 40
0.0
 40
0.0
 40
0.0
 40
0.0037550413
 40
0.0075275415
 40
0.0113338329
 40
0.0151899389
 40
0.0231088376
 40
0.0314014919
 40
0.0401624065
 40
0.049467796
 40
0.0593765471
 40
0.0699321749
 40
0.0811650275
 40
0.0930943015
 40
0.1057298777
 40
0.1190738285
 40
0.1331216138
 40
0.1478630154
 40
0.1632829652
 40
0.1793621939
 40
0.1960777355
 40
0.2134033243
 40
0.2313098026
 40
0.2497654432
 40
0.2687362085
 40
0.2881859673
 40
0.3080767518
 40
0.3283689655
 40
0.3699903842
 40
0.4127094655
 40
0.4561685222
 40
0.5
 40
0.5438314778
 40
0.5872905345
 40
0.6300096158
 40
0.6716310345
 40
0.6919232482
 40
0.7118140327
 40
0.7312637915
 40
0.7502345568
 40
0.7686901974
 40
0.7865966757
 40
0.8039222645
 40
0.8206378061
 40
0.8367170348
 40
0.8521369846
 40
0.8668783862
 40
0.8809261715
 40
0.8942701223
 40
0.9069056985
 40
0.9188349725
 40
0.9300678251
 40
0.9406234529
 40
0.950532204
 40
0.9598375935
 40
0.9685985081
 40
0.9768911624
 40
0.9848100611
 40
0.9886661671
 40
0.9924724585
 40
0.9962449587
 40
1.0
 40
1.0
 40
1.0
 40
1.0
 10
11.2076923423
 20
11.2067811758
 30
0.0
 10
11.2076923423
 20
11.2060253278
 30
0.0
 10
11.2076378052
 20
11.2045095568
 30
0.0
 10
11.2073928147
 20
11.2022395507
 30
0.0
 10
11.206984667
 20
11.1999723179
 30
0.0
 10
11.2062169082
 20
11.1969292327
 30
0.0
 10
11.204832564
 20
11.1931212059
 30
0.0
 10
11.2025395123
 20
11.1886354368
 30
0.0
 10
11.1996084344
 20
11.1842009297
 30
0.0
 10
11.1960486127
 20
11.1798274033
 30
0.0
 10
11.1918696372
 20
11.1755233833
 30
0.0
 10
11.1870818589
 20
11.1712977394
 30
0.0
 10
11.1816966694
 20
11.1671594329
 30
0.0
 10
11.1757267247
 20
11.1631175485
 30
0.0
 10
11.1691860138
 20
11.1591812155
 30
0.0
 10
11.1620898934
 20
11.1553595197
 30
0.0
 10
11.1544550932
 20
11.1516614226
 30
0.0
 10
11.1462997055
 20
11.1480956596
 30
0.0
 10
11.1376431183
 20
11.1446707233
 30
0.0
 10
11.1285059607
 20
11.1413948167
 30
0.0
 10
11.1189100564
 20
11.1382758203
 30
0.0
 10
11.1088783776
 20
11.1353212303
 30
0.0
 10
11.098434969
 20
11.1325381668
 30
0.0
 10
11.0876048812
 20
11.1299333503
 30
0.0
 10
11.0764141104
 20
11.1275130794
 30
0.0
 10
11.0648895569
 20
11.1252831998
 30
0.0
 10
11.0530588836
 20
11.1232490598
 30
0.0
 10
11.036777236
 20
11.1207838084
 30
0.0
 10
11.0158649758
 20
11.1182368317
 30
0.0
 10
10.9902282723
 20
11.1160502401
 30
0.0
 10
10.9640869891
 20
11.1147297376
 30
0.0
 10
10.9376923428
 20
11.11428811
 30
0.0
 10
10.9112976964
 20
11.1147297376
 30
0.0
 10
10.8851564132
 20
11.1160502401
 30
0.0
 10
10.8595197097
 20
11.1182368317
 30
0.0
 10
10.8386074495
 20
11.1207838084
 30
0.0
 10
10.8223258019
 20
11.1232490598
 30
0.0
 10
10.8104951286
 20
11.1252831998
 30
0.0
 10
10.7989705751
 20
11.1275130794
 30
0.0
 10
10.7877798043
 20
11.1299333503
 30
0.0
 10
10.7769497165
 20
11.1325381668
 30
0.0
 10
10.7665063079
 20
11.1353212303
 30
0.0
 10
10.7564746291
 20
11.1382758203
 30
0.0
 10
10.7468787248
 20
11.1413948167
 30
0.0
 10
10.7377415672
 20
11.1446707233
 30
0.0
 10
10.7290849801
 20
11.1480956596
 30
0.0
 10
10.7209295923
 20
11.1516614226
 30
0.0
 10
10.7132947921
 20
11.1553595197
 30
0.0
 10
10.7061986718
 20
11.1591812155
 30
0.0
 10
10.6996579608
 20
11.1631175485
 30
0.0
 10
10.6936880161
 20
11.1671594329
 30
0.0
 10
10.6883028266
 20
11.1712977394
 30
0.0
 10
10.6835150483
 20
11.1755233833
 30
0.0
 10
10.6793360728
 20
11.1798274033
 30
0.0
 10
10.6757762511
 20
11.1842009297
 30
0.0
 10
10.6728451732
 20
11.1886354368
 30
0.0
 10
10.6705521215
 20
11.1931212059
 30
0.0
 10
10.6691677773
 20
11.1969292327
 30
0.0
 10
10.6684000185
 20
11.1999723179
 30
0.0
 10
10.6679918708
 20
11.2022395507
 30
0.0
 10
10.6677468803
 20
11.2045095568
 30
0.0
 10
10.6676923432
 20
11.2060253278
 30
0.0
 10
10.6676923432
 20
11.2067811758
 30
0.0
  0
SPLINE
  5
373
100
AcDbEntity
  8
0
100
AcDbSpline
 62
9
  6
CONTINUOUS
 70
0
 71
3
 72
67
 73
63
 74
0
 42
0.0000001
 43
0.0000001
 44
0.0000000001
 40
0.0
 40
0.0
 40
0.0
 40
0.0
 40
0.0037550446
 40
0.0075275534
 40
0.0113338561
 40
0.0151899697
 40
0.0231088716
 40
0.0314015272
 40
0.0401624414
 40
0.0494678294
 40
0.0593765809
 40
0.0699322112
 40
0.0811650665
 40
0.0930943413
 40
0.1057299171
 40
0.1190738674
 40
0.1331216525
 40
0.1478630537
 40
0.163283003
 40
0.1793622314
 40
0.196077772
 40
0.2134033593
 40
0.2313098359
 40
0.2497654751
 40
0.2687362387
 40
0.2881859954
 40
0.3080767777
 40
0.3283689891
 40
0.3699904025
 40
0.412709478
 40
0.4561685284
 40
0.5
 40
0.5438314716
 40
0.587290522
 40
0.6300095975
 40
0.6716310109
 40
0.6919232223
 40
0.7118140046
 40
0.7312637613
 40
0.7502345249
 40
0.7686901641
 40
0.7865966407
 40
0.803922228
 40
0.8206377686
 40
0.836716997
 40
0.8521369463
 40
0.8668783475
 40
0.8809261326
 40
0.8942700829
 40
0.9069056587
 40
0.9188349335
 40
0.9300677888
 40
0.9406234191
 40
0.9505321706
 40
0.9598375586
 40
0.9685984728
 40
0.9768911284
 40
0.9848100303
 40
0.9886661439
 40
0.9924724466
 40
0.9962449554
 40
1.0
 40
1.0
 40
1.0
 40
1.0
 10
11.2230114903
 20
11.2081723223
 30
0.0
 10
11.2230114903
 20
11.2073735886
 30
0.0
 10
11.2229538582
 20
11.2057718138
 30
0.0
 10
11.2226949657
 20
11.2033730084
 30
0.0
 10
11.2222636608
 20
11.2009771322
 30
0.0
 10
11.2214523381
 20
11.1977613857
 30
0.0
 10
11.2199894471
 20
11.1937372988
 30
0.0
 10
11.2175662897
 20
11.1889970187
 30
0.0
 10
11.2144689076
 20
11.1843109098
 30
0.0
 10
11.2107071091
 20
11.1796892415
 30
0.0
 10
11.2062910273
 20
11.1751410227
 30
0.0
 10
11.2012315999
 20
11.1706756266
 30
0.0
 10
11.1955408655
 20
11.1663025232
 30
0.0
 10
11.1892321995
 20
11.1620313126
 30
0.0
 10
11.1823203839
 20
11.1578716425
 30
0.0
 10
11.1748216463
 20
11.1538331142
 30
0.0
 10
11.1667536657
 20
11.1499251972
 30
0.0
 10
11.1581355609
 20
11.1461571221
 30
0.0
 10
11.1489878198
 20
11.1425378639
 30
0.0
 10
11.1393322421
 20
11.1390760914
 30
0.0
 10
11.1291918897
 20
11.1357801316
 30
0.0
 10
11.1185910384
 20
11.132657906
 30
0.0
 10
11.1075550968
 20
11.1297169389
 30
0.0
 10
11.0961105368
 20
11.1269643321
 30
0.0
 10
11.0842848297
 20
11.1244067416
 30
0.0
 10
11.072106402
 20
11.1220503447
 30
0.0
 10
11.0596044863
 20
11.119900793
 30
0.0
 10
11.0423990593
 20
11.11729567
 30
0.0
 10
11.0203002907
 20
11.1146041847
 30
0.0
 10
10.9932090262
 20
11.1122935319
 30
0.0
 10
10.9655845537
 20
11.1108981076
 30
0.0
 10
10.9376923428
 20
11.1104314233
 30
0.0
 10
10.9098001319
 20
11.1108981076
 30
0.0
 10
10.8821756593
 20
11.1122935319
 30
0.0
 10
10.8550843948
 20
11.1146041847
 30
0.0
 10
10.8329856263
 20
11.11729567
 30
0.0
 10
10.8157801992
 20
11.119900793
 30
0.0
 10
10.8032782835
 20
11.1220503447
 30
0.0
 10
10.7910998558
 20
11.1244067416
 30
0.0
 10
10.7792741487
 20
11.1269643321
 30
0.0
 10
10.7678295888
 20
11.1297169389
 30
0.0
 10
10.7567936471
 20
11.132657906
 30
0.0
 10
10.7461927958
 20
11.1357801316
 30
0.0
 10
10.7360524434
 20
11.1390760914
 30
0.0
 10
10.7263968657
 20
11.1425378639
 30
0.0
 10
10.7172491246
 20
11.1461571221
 30
0.0
 10
10.7086310198
 20
11.1499251972
 30
0.0
 10
10.7005630392
 20
11.1538331142
 30
0.0
 10
10.6930643017
 20
11.1578716425
 30
0.0
 10
10.686152486
 20
11.1620313126
 30
0.0
 10
10.67984382
 20
11.1663025232
 30
0.0
 10
10.6741530856
 20
11.1706756266
 30
0.0
 10
10.6690936582
 20
11.1751410227
 30
0.0
 10
10.6646775764
 20
11.1796892415
 30
0.0
 10
10.6609157779
 20
11.1843109098
 30
0.0
 10
10.6578183958
 20
11.1889970187
 30
0.0
 10
10.6553952385
 20
11.1937372988
 30
0.0
 10
10.6539323474
 20
11.1977613857
 30
0.0
 10
10.6531210247
 20
11.2009771322
 30
0.0
 10
10.6526897198
 20
11.2033730084
 30
0.0
 10
10.6524308274
 20
11.2057718138
 30
0.0
 10
10.6523731952
 20
11.2073735886
 30
0.0
 10
10.6523731952
 20
11.2081723223
 30
0.0
  0
SPLINE
  5
374
100
AcDbEntity
  8
0
100
AcDbSpline
 62
9
  6
CONTINUOUS
 70
0
 71
3
 72
13
 73
9
 74
0
 42
0.0000001
 43
0.0000001
 44
0.0000000001
 40
0.0
 40
0.0
 40
0.0
 40
0.0
 40
0.2629104936
 40
0.5198379987
 40
0.6451068814
 40
0.7674894293
 40
0.8861651364
 40
1.0
 40
1.0
 40
1.0
 40
1.0
 10
11.8466407008
 20
4.8435839268
 30
0.0
 10
11.8469312797
 20
4.8508182035
 30
0.0
 10
11.8475621479
 20
4.8651199399
 30
0.0
 10
11.8485026556
 20
4.8828604724
 30
0.0
 10
11.8493457319
 20
4.8967301827
 30
0.0
 10
11.8500146405
 20
4.9067960738
 30
0.0
 10
11.8507242699
 20
4.9165434994
 30
0.0
 10
11.8512355862
 20
4.9229260815
 30
0.0
 10
11.8514999316
 20
4.9260497357
 30
0.0
  0
SPLINE
  5
375
100
AcDbEntity
  8
0
100
AcDbSpline
 62
9
  6
CONTINUOUS
 70
0
 71
3
 72
16
 73
12
 74
0
 42
0.0000001
 43
0.0000001
 44
0.0000000001
 40
0.0
 40
0.0
 40
0.0
 40
0.0
 40
0.121615909
 40
0.2446161075
 40
0.3065502422
 40
0.3687312955
 40
0.4311373138
 40
0.4937491049
 40
0.6194971975
 40
0.7458617912
 40
1.0
 40
1.0
 40
1.0
 40
1.0
 10
11.4868824672
 20
4.9260497071
 30
0.0
 10
11.4886770703
 20
4.9229858618
 30
0.0
 10
11.492057742
 20
4.9166874016
 30
0.0
 10
11.4958023475
 20
4.9085533241
 30
0.0
 10
11.4985658167
 20
4.9018880592
 30
0.0
 10
11.5005332866
 20
4.8968096358
 30
0.0
 10
11.5023968303
 20
4.8916711958
 30
0.0
 10
11.5047532802
 20
4.884738916
 30
0.0
 10
11.5074662027
 20
4.8759574423
 30
0.0
 10
11.5113614583
 20
4.861697406
 30
0.0
 10
11.5138196709
 20
4.8508564701
 30
0.0
 10
11.5152911
 20
4.8435839268
 30
0.0
  0
SPLINE
  5
376
100
AcDbEntity
  8
0
100
AcDbSpline
 62
9
  6
CONTINUOUS
 70
0
 71
3
 72
14
 73
10
 74
0
 42
0.0000001
 43
0.0000001
 44
0.0000000001
 40
0.0
 40
0.0
 40
0.0
 40
0.0
 40
0.1193748409
 40
0.2393388766
 40
0.3604156376
 40
0.4831274701
 40
0.6079898744
 40
0.7354876733
 40
1.0
 40
1.0
 40
1.0
 40
1.0
 10
11.2610588803
 20
11.5263276679
 30
0.0
 10
11.2610590108
 20
11.5254058555
 30
0.0
 10
11.2609913324
 20
11.5235569649
 30
0.0
 10
11.2606868593
 20
11.5207882147
 30
0.0
 10
11.2601797984
 20
11.5180230173
 30
0.0
 10
11.2594706638
 20
11.5152637317
 30
0.0
 10
11.2585599466
 20
11.5125119334
 30
0.0
 10
11.2570599474
 20
11.5088109874
 30
0.0
 10
11.2556573703
 20
11.5061176523
 30
0.0
 10
11.2546161281
 20
11.5043604153
 30
0.0
  0
SPLINE
  5
377
100
AcDbEntity
  8
0
100
AcDbSpline
 62
9
  6
CONTINUOUS
 70
0
 71
3
 72
9
 73
5
 74
0
 42
0.0000001
 43
0.0000001
 44
0.0000000001
 40
0.0
 40
0.0
 40
0.0
 40
0.0
 40
0.241475908
 40
1.0
 40
1.0
 40
1.0
 40
1.0
 10
11.2546161281
 20
11.5043604153
 30
0.0
 10
11.2541999763
 20
11.5036581029
 30
0.0
 10
11.2524130041
 20
11.5007875314
 30
0.0
 10
11.2503838599
 20
11.4980703642
 30
0.0
 10
11.2487451732
 20
11.4960979514
 30
0.0
  0
SPLINE
  5
378
100
AcDbEntity
  8
0
100
AcDbSpline
 62
9
  6
CONTINUOUS
 70
0
 71
3
 72
15
 73
11
 74
0
 42
0.0000001
 43
0.0000001
 44
0.0000000001
 40
0.0
 40
0.0
 40
0.0
 40
0.0
 40
0.1149988531
 40
0.2310433354
 40
0.349120144
 40
0.4701756421
 40
0.5950746623
 40
0.7245832025
 40
0.8593684674
 40
1.0
 40
1.0
 40
1.0
 40
1.0
 10
11.2682102493
 20
11.5347359188
 30
0.0
 10
11.2682102493
 20
11.533428496
 30
0.0
 10
11.2680764205
 20
11.5307998514
 30
0.0
 10
11.2674758603
 20
11.5268700835
 30
0.0
 10
11.2664762022
 20
11.5229512546
 30
0.0
 10
11.2650796007
 20
11.5190492452
 30
0.0
 10
11.263288579
 20
11.5151687507
 30
0.0
 10
11.2611059982
 20
11.5113143456
 30
0.0
 10
11.2585352598
 20
11.5074905779
 30
0.0
 10
11.2566077039
 20
11.5050194467
 30
0.0
 10
11.2555849919
 20
11.5037904827
 30
0.0
  0
SPLINE
  5
379
100
AcDbEntity
  8
0
100
AcDbSpline
 62
9
  6
CONTINUOUS
 70
0
 71
3
 72
15
 73
11
 74
0
 42
0.0000001
 43
0.0000001
 44
0.0000000001
 40
0.0
 40
0.0
 40
0.0
 40
0.0
 40
0.1137577396
 40
0.2287012265
 40
0.3459495102
 40
0.4665647927
 40
0.5915025124
 40
0.7215978856
 40
0.8575648372
 40
1.0
 40
1.0
 40
1.0
 40
1.0
 10
11.2701923429
 20
11.5369874713
 30
0.0
 10
11.2701923429
 20
11.5355766359
 30
0.0
 10
11.270037249
 20
11.532737891
 30
0.0
 10
11.2693414785
 20
11.5284963543
 30
0.0
 10
11.2681837442
 20
11.5242687121
 30
0.0
 10
11.2665669401
 20
11.5200622671
 30
0.0
 10
11.2644945689
 20
11.5158827372
 30
0.0
 10
11.2619703532
 20
11.5117357484
 30
0.0
 10
11.258998842
 20
11.5076267217
 30
0.0
 10
11.2567763664
 20
11.5049801405
 30
0.0
 10
11.2555975065
 20
11.5036645431
 30
0.0
  0
SPLINE
  5
37A
100
AcDbEntity
  8
0
100
AcDbSpline
 62
9
  6
CONTINUOUS
 70
0
 71
3
 72
15
 73
11
 74
0
 42
0.0000001
 43
0.0000001
 44
0.0000000001
 40
0.0
 40
0.0
 40
0.0
 40
0.0
 40
0.1277054056
 40
0.2553718327
 40
0.3825910379
 40
0.5090215738
 40
0.6343125911
 40
0.7581212485
 40
0.8801344733
 40
1.0
 40
1.0
 40
1.0
 40
1.0
 10
11.5152911
 20
4.8435839268
 30
0.0
 10
11.5154905015
 20
4.8399990787
 30
0.0
 10
11.5159919057
 20
4.8328357874
 30
0.0
 10
11.5170435178
 20
4.8221295785
 30
0.0
 10
11.518393199
 20
4.811492785
 30
0.0
 10
11.5200477767
 20
4.8009666416
 30
0.0
 10
11.5220041598
 20
4.7905898992
 30
0.0
 10
11.524257418
 20
4.7804005818
 30
0.0
 10
11.5268009226
 20
4.7704372081
 30
0.0
 10
11.528702591
 20
4.7639065538
 30
0.0
 10
11.5297014238
 20
4.7606880045
 30
0.0
  0
SPLINE
  5
37B
100
AcDbEntity
  8
0
100
AcDbSpline
 62
9
  6
CONTINUOUS
 70
0
 71
3
 72
69
 73
65
 74
0
 42
0.0000001
 43
0.0000001
 44
0.0000000001
 40
0.0
 40
0.0
 40
0.0
 40
0.0
 40
0.0037550318
 40
0.0075275099
 40
0.0113337666
 40
0.0151898376
 40
0.0191112865
 40
0.0231127968
 40
0.0314053854
 40
0.040166222
 40
0.0494715361
 40
0.0593802103
 40
0.0699357528
 40
0.0811685077
 40
0.0930976871
 40
0.1057331668
 40
0.1190770071
 40
0.1331246645
 40
0.1478659469
 40
0.1632857795
 40
0.1793648766
 40
0.1960802663
 40
0.213405712
 40
0.2313120517
 40
0.2497675413
 40
0.2687381369
 40
0.2881877327
 40
0.3080783602
 40
0.3283704072
 40
0.369991468
 40
0.4127101996
 40
0.4561688874
 40
0.5
 40
0.5438311126
 40
0.5872898004
 40
0.630008532
 40
0.6716295928
 40
0.6919216398
 40
0.7118122673
 40
0.7312618631
 40
0.7502324587
 40
0.7686879483
 40
0.786594288
 40
0.8039197337
 40
0.8206351234
 40
0.8367142205
 40
0.8521340531
 40
0.8668753355
 40
0.8809229929
 40
0.8942668332
 40
0.9069023129
 40
0.9188314923
 40
0.9300642472
 40
0.9406197897
 40
0.9505284639
 40
0.959833778
 40
0.9685946146
 40
0.9768872032
 40
0.9808887135
 40
0.9848101624
 40
0.9886662334
 40
0.9924724901
 40
0.9962449682
 40
1.0
 40
1.0
 40
1.0
 40
1.0
 10
11.2414422856
 20
11.2180971851
 30
0.0
 10
11.2414422856
 20
11.2189475189
 30
0.0
 10
11.2413809342
 20
11.2206527644
 30
0.0
 10
11.241105309
 20
11.2232065423
 30
0.0
 10
11.2406461782
 20
11.2257571215
 30
0.0
 10
11.2400038879
 20
11.2283025073
 30
0.0
 10
11.2391790015
 20
11.2308412202
 30
0.0
 10
11.2378206507
 20
11.2342551035
 30
0.0
 10
11.235645234
 20
11.2385115913
 30
0.0
 10
11.2323479112
 20
11.2434998508
 30
0.0
 10
11.2283430698
 20
11.2484202294
 30
0.0
 10
11.2236417285
 20
11.2532621988
 30
0.0
 10
11.2182554743
 20
11.25801606
 30
0.0
 10
11.2121971428
 20
11.2626716559
 30
0.0
 10
11.205480952
 20
11.267218773
 30
0.0
 10
11.198122648
 20
11.2716471415
 30
0.0
 10
11.190139514
 20
11.2759465455
 30
0.0
 10
11.181550372
 20
11.2801069119
 30
0.0
 10
11.1723755609
 20
11.2841183911
 30
0.0
 10
11.1626368967
 20
11.287971438
 30
0.0
 10
11.1523575962
 20
11.2916568285
 30
0.0
 10
11.1415622122
 20
11.2951657079
 30
0.0
 10
11.1302765764
 20
11.298489619
 30
0.0
 10
11.1185277398
 20
11.3016205581
 30
0.0
 10
11.1063438932
 20
11.3045509717
 30
0.0
 10
11.0937542842
 20
11.3072737852
 30
0.0
 10
11.0807891661
 20
11.3097823997
 30
0.0
 10
11.0674796588
 20
11.3120707989
 30
0.0
 10
11.0491628098
 20
11.3148442002
 30
0.0
 10
11.0256365266
 20
11.3177095682
 30
0.0
 10
10.9967952439
 20
11.3201694556
 30
0.0
 10
10.9673863103
 20
11.3216550483
 30
0.0
 10
10.9376923428
 20
11.3221518507
 30
0.0
 10
10.9079983752
 20
11.3216550483
 30
0.0
 10
10.8785894417
 20
11.3201694556
 30
0.0
 10
10.8497481589
 20
11.3177095682
 30
0.0
 10
10.8262218757
 20
11.3148442002
 30
0.0
 10
10.8079050267
 20
11.3120707989
 30
0.0
 10
10.7945955194
 20
11.3097823997
 30
0.0
 10
10.7816304014
 20
11.3072737852
 30
0.0
 10
10.7690407923
 20
11.3045509717
 30
0.0
 10
10.7568569457
 20
11.3016205581
 30
0.0
 10
10.7451081091
 20
11.298489619
 30
0.0
 10
10.7338224733
 20
11.2951657079
 30
0.0
 10
10.7230270893
 20
11.2916568285
 30
0.0
 10
10.7127477888
 20
11.287971438
 30
0.0
 10
10.7030091247
 20
11.2841183911
 30
0.0
 10
10.6938343136
 20
11.2801069119
 30
0.0
 10
10.6852451715
 20
11.2759465455
 30
0.0
 10
10.6772620375
 20
11.2716471415
 30
0.0
 10
10.6699037335
 20
11.267218773
 30
0.0
 10
10.6631875427
 20
11.2626716559
 30
0.0
 10
10.6571292113
 20
11.25801606
 30
0.0
 10
10.651742957
 20
11.2532621988
 30
0.0
 10
10.6470416157
 20
11.2484202294
 30
0.0
 10
10.6430367743
 20
11.2434998508
 30
0.0
 10
10.6397394516
 20
11.2385115913
 30
0.0
 10
10.6375640348
 20
11.2342551035
 30
0.0
 10
10.636205684
 20
11.2308412202
 30
0.0
 10
10.6353807976
 20
11.2283025073
 30
0.0
 10
10.6347385073
 20
11.2257571215
 30
0.0
 10
10.6342793765
 20
11.2232065423
 30
0.0
 10
10.6340037514
 20
11.2206527644
 30
0.0
 10
10.6339423999
 20
11.2189475189
 30
0.0
 10
10.6339423999
 20
11.2180971851
 30
0.0
  0
SPLINE
  5
37C
100
AcDbEntity
  8
0
100
AcDbSpline
 62
9
  6
CONTINUOUS
 70
0
 71
3
 72
67
 73
63
 74
0
 42
0.0000001
 43
0.0000001
 44
0.0000000001
 40
0.0
 40
0.0
 40
0.0
 40
0.0
 40
0.0037550627
 40
0.0075275718
 40
0.0113338598
 40
0.0151899626
 40
0.0231088725
 40
0.0314015293
 40
0.040162438
 40
0.0494678287
 40
0.0593765844
 40
0.0699322138
 40
0.0811650611
 40
0.0930943387
 40
0.1057299223
 40
0.1190738725
 40
0.1331216455
 40
0.1478630492
 40
0.1632830086
 40
0.1793622381
 40
0.1960777653
 40
0.2134033535
 40
0.2313098407
 40
0.2497654821
 40
0.2687362338
 40
0.2881859896
 40
0.3080767809
 40
0.3283689949
 40
0.3699903981
 40
0.4127094813
 40
0.4561685267
 40
0.5
 40
0.5438314733
 40
0.5872905187
 40
0.6300096019
 40
0.6716310051
 40
0.6919232191
 40
0.7118140104
 40
0.7312637662
 40
0.7502345179
 40
0.7686901593
 40
0.7865966465
 40
0.8039222347
 40
0.8206377619
 40
0.8367169914
 40
0.8521369508
 40
0.8668783545
 40
0.8809261275
 40
0.8942700777
 40
0.9069056613
 40
0.9188349389
 40
0.9300677862
 40
0.9406234156
 40
0.9505321713
 40
0.959837562
 40
0.9685984707
 40
0.9768911275
 40
0.9848100374
 40
0.9886661402
 40
0.9924724282
 40
0.9962449373
 40
1.0
 40
1.0
 40
1.0
 40
1.0
 10
11.2264848888
 20
11.4454987647
 30
0.0
 10
11.2264848888
 20
11.4463072258
 30
0.0
 10
11.2264265561
 20
11.4479285041
 30
0.0
 10
11.2261645138
 20
11.4503565132
 30
0.0
 10
11.2257279532
 20
11.4527815496
 30
0.0
 10
11.2249067568
 20
11.4560364406
 30
0.0
 10
11.2234260549
 20
11.4601095147
 30
0.0
 10
11.2209733996
 20
11.4649075027
 30
0.0
 10
11.2178383142
 20
11.469650661
 30
0.0
 10
11.2140307194
 20
11.474328592
 30
0.0
 10
11.2095608725
 20
11.4789321767
 30
0.0
 10
11.204439854
 20
11.4834519325
 30
0.0
 10
11.1986798488
 20
11.4878782794
 30
0.0
 10
11.1922943801
 20
11.492201484
 30
0.0
 10
11.185298417
 20
11.4964117891
 30
0.0
 10
11.1777083923
 20
11.5004994798
 30
0.0
 10
11.1695422008
 20
11.5044549794
 30
0.0
 10
11.16081918
 20
11.5082689235
 30
0.0
 10
11.1515600718
 20
11.5119322368
 30
0.0
 10
11.1417869493
 20
11.5154361496
 30
0.0
 10
11.1315231567
 20
11.5187722432
 30
0.0
 10
11.1207932534
 20
11.5219324767
 30
0.0
 10
11.1096229586
 20
11.5249092406
 30
0.0
 10
11.0980390747
 20
11.5276953534
 30
0.0
 10
11.086069409
 20
11.5302840888
 30
0.0
 10
11.0737427254
 20
11.5326691729
 30
0.0
 10
11.0610886111
 20
11.5348448858
 30
0.0
 10
11.0436737289
 20
11.5374817179
 30
0.0
 10
11.021305938
 20
11.5402059881
 30
0.0
 10
10.9938848711
 20
11.5425447446
 30
0.0
 10
10.9659241061
 20
11.5439571831
 30
0.0
 10
10.9376923428
 20
11.5444295217
 30
0.0
 10
10.9094605794
 20
11.5439571831
 30
0.0
 10
10.8814998144
 20
11.5425447446
 30
0.0
 10
10.8540787475
 20
11.5402059881
 30
0.0
 10
10.8317109566
 20
11.5374817179
 30
0.0
 10
10.8142960744
 20
11.5348448858
 30
0.0
 10
10.8016419602
 20
11.5326691729
 30
0.0
 10
10.7893152765
 20
11.5302840888
 30
0.0
 10
10.7773456108
 20
11.5276953534
 30
0.0
 10
10.7657617269
 20
11.5249092406
 30
0.0
 10
10.7545914321
 20
11.5219324767
 30
0.0
 10
10.7438615288
 20
11.5187722432
 30
0.0
 10
10.7335977362
 20
11.5154361496
 30
0.0
 10
10.7238246138
 20
11.5119322368
 30
0.0
 10
10.7145655055
 20
11.5082689235
 30
0.0
 10
10.7058424847
 20
11.5044549794
 30
0.0
 10
10.6976762932
 20
11.5004994798
 30
0.0
 10
10.6900862685
 20
11.4964117891
 30
0.0
 10
10.6830903054
 20
11.492201484
 30
0.0
 10
10.6767048367
 20
11.4878782794
 30
0.0
 10
10.6709448315
 20
11.4834519325
 30
0.0
 10
10.665823813
 20
11.4789321767
 30
0.0
 10
10.6613539661
 20
11.474328592
 30
0.0
 10
10.6575463713
 20
11.469650661
 30
0.0
 10
10.654411286
 20
11.4649075027
 30
0.0
 10
10.6519586307
 20
11.4601095147
 30
0.0
 10
10.6504779287
 20
11.4560364406
 30
0.0
 10
10.6496567323
 20
11.4527815496
 30
0.0
 10
10.6492201717
 20
11.4503565132
 30
0.0
 10
10.6489581294
 20
11.4479285041
 30
0.0
 10
10.6488997968
 20
11.4463072258
 30
0.0
 10
10.6488997968
 20
11.4454987647
 30
0.0
  0
LINE
  5
37D
100
AcDbEntity
  8
0
100
AcDbLine
 62
9
  6
CONTINUOUS
 10
11.5297014238
 20
4.7606880045
 11
11.5506655839
 21
4.6822680174
  0
LINE
  5
37E
100
AcDbEntity
  8
0
100
AcDbLine
 62
9
  6
CONTINUOUS
 10
11.9073812286
 20
4.6822680174
 11
11.8662791096
 21
4.7606880045
  0
SPLINE
  5
37F
100
AcDbEntity
  8
0
100
AcDbSpline
 62
9
  6
CONTINUOUS
 70
0
 71
3
 72
22
 73
18
 74
0
 42
0.0000001
 43
0.0000001
 44
0.0000000001
 40
0.0
 40
0.0
 40
0.0
 40
0.0
 40
0.0765078412
 40
0.1513135726
 40
0.2242201193
 40
0.2951724403
 40
0.3641184335
 40
0.4309747245
 40
0.5582559968
 40
0.6188374472
 40
0.6774683975
 40
0.7342993
 40
0.7895282876
 40
0.8434001452
 40
0.8962120536
 40
0.9483015152
 40
1.0
 40
1.0
 40
1.0
 40
1.0
 10
11.5506655287
 20
4.6822680174
 30
0.0
 10
11.5509954671
 20
4.6812688509
 30
0.0
 10
11.551694428
 20
4.6793076905
 30
0.0
 10
11.5528694956
 20
4.6764553147
 30
0.0
 10
11.5541552309
 20
4.6737350585
 30
0.0
 10
11.5555532466
 20
4.6711619476
 30
0.0
 10
11.5570598756
 20
4.6687479541
 30
0.0
 10
11.5591659416
 20
4.665803977
 30
0.0
 10
11.5614853265
 20
4.6631591365
 30
0.0
 10
11.5640048613
 20
4.6608863899
 30
0.0
 10
11.5659319994
 20
4.6594157706
 30
0.0
 10
11.5679182973
 20
4.6581585853
 30
0.0
 10
11.5699548198
 20
4.6571210263
 30
0.0
 10
11.5720320309
 20
4.6563082369
 30
0.0
 10
11.5741404127
 20
4.6557244528
 30
0.0
 10
11.5762693428
 20
4.6553731175
 30
0.0
 10
11.57769797
 20
4.6552946589
 30
0.0
 10
11.5784089929
 20
4.6552946624
 30
0.0
  0
SPLINE
  5
380
100
AcDbEntity
  8
0
100
AcDbSpline
 62
9
  6
CONTINUOUS
 70
0
 71
3
 72
15
 73
11
 74
0
 42
0.0000001
 43
0.0000001
 44
0.0000000001
 40
0.0
 40
0.0
 40
0.0
 40
0.0
 40
0.1245474108
 40
0.249153668
 40
0.3738649083
 40
0.498719358
 40
0.6237483902
 40
0.7489714355
 40
0.8743855508
 40
1.0
 40
1.0
 40
1.0
 40
1.0
 10
11.9512561405
 20
4.6552946624
 30
0.0
 10
11.9490085181
 20
4.6552946392
 30
0.0
 10
11.9445060367
 20
4.6556059168
 30
0.0
 10
11.937883435
 20
4.6569978761
 30
0.0
 10
11.9315085297
 20
4.6592888893
 30
0.0
 10
11.9255018493
 20
4.6624362954
 30
0.0
 10
11.919974811
 20
4.6663811916
 30
0.0
 10
11.9150301158
 20
4.6710503099
 30
0.0
 10
11.9107606014
 20
4.6763556803
 30
0.0
 10
11.9084162154
 20
4.6802512029
 30
0.0
 10
11.9073812286
 20
4.6822680174
 30
0.0
  0
SPLINE
  5
381
100
AcDbEntity
  8
0
100
AcDbSpline
 62
9
  6
CONTINUOUS
 70
0
 71
3
 72
43
 73
39
 74
0
 42
0.0000001
 43
0.0000001
 44
0.0000000001
 40
0.0
 40
0.0
 40
0.0
 40
0.0
 40
0.0611530804
 40
0.1223230561
 40
0.1835170889
 40
0.244745111
 40
0.2753762226
 40
0.3060219059
 40
0.336685394
 40
0.3673712006
 40
0.3980852849
 40
0.4288368186
 40
0.4596398616
 40
0.4750678727
 40
0.490519535
 40
0.506001898
 40
0.5215261779
 40
0.5371109099
 40
0.544935407
 40
0.5527885603
 40
0.5686102018
 40
0.5765911527
 40
0.5846209193
 40
0.6008064945
 40
0.6171258779
 40
0.6335335454
 40
0.6499924732
 40
0.6664737705
 40
0.6829548135
 40
0.7158409346
 40
0.7485551987
 40
0.7810299794
 40
0.8132251164
 40
0.8451191369
 40
0.8767015006
 40
0.9079724085
 40
0.9389392119
 40
1.0
 40
1.0
 40
1.0
 40
1.0
 10
10.4854174077
 20
4.8188800778
 30
0.0
 10
10.4863849813
 20
4.8219836699
 30
0.0
 10
10.4883231214
 20
4.8281908625
 30
0.0
 10
10.4912427156
 20
4.8374995884
 30
0.0
 10
10.4941800175
 20
4.8468069222
 30
0.0
 10
10.496647803
 20
4.8545600282
 30
0.0
 10
10.4986393189
 20
4.8607604542
 30
0.0
 10
10.5001438367
 20
4.8654107122
 30
0.0
 10
10.5016611755
 20
4.8700598639
 30
0.0
 10
10.5031946877
 20
4.8747075385
 30
0.0
 10
10.5047484187
 20
4.8793534374
 30
0.0
 10
10.5063290879
 20
4.8839968329
 30
0.0
 10
10.5076759481
 20
4.8878613378
 30
0.0
 10
10.5087800904
 20
4.8909489477
 30
0.0
 10
10.5096258754
 20
4.893263927
 30
0.0
 10
10.51049389
 20
4.8955761539
 30
0.0
 10
10.5113923829
 20
4.8978843284
 30
0.0
 10
10.5121766707
 20
4.8997998971
 30
0.0
 10
10.5128377421
 20
4.9013247663
 30
0.0
 10
10.5135300097
 20
4.9028495164
 30
0.0
 10
10.5142798745
 20
4.9043572682
 30
0.0
 10
10.5151082905
 20
4.9058332335
 30
0.0
 10
10.5159997144
 20
4.9072947249
 30
0.0
 10
10.5172219425
 20
4.9090718402
 30
0.0
 10
10.5188398946
 20
4.9111096175
 30
0.0
 10
10.5205885635
 20
4.9130555729
 30
0.0
 10
10.5224482852
 20
4.9149075538
 30
0.0
 10
10.5244030345
 20
4.916664583
 30
0.0
 10
10.5271152889
 20
4.9188792632
 30
0.0
 10
10.5306766959
 20
4.9214104769
 30
0.0
 10
10.5351610353
 20
4.9240800109
 30
0.0
 10
10.5398003512
 20
4.9263878115
 30
0.0
 10
10.5445500349
 20
4.9283456016
 30
0.0
 10
10.5493742881
 20
4.9299674567
 30
0.0
 10
10.5542450641
 20
4.9312628223
 30
0.0
 10
10.5591380941
 20
4.9322456932
 30
0.0
 10
10.5656322126
 20
4.9331532428
 30
0.0
 10
10.5705303958
 20
4.933417382
 30
0.0
 10
10.5737764097
 20
4.9334176935
 30
0.0
  0
SPLINE
  5
382
100
AcDbEntity
  8
0
100
AcDbSpline
 62
9
  6
CONTINUOUS
 70
0
 71
3
 72
11
 73
7
 74
0
 42
0.0000001
 43
0.0000001
 44
0.0000000001
 40
0.0
 40
0.0
 40
0.0
 40
0.0
 40
0.2420179566
 40
0.4908338912
 40
0.7442725006
 40
1.0
 40
1.0
 40
1.0
 40
1.0
 10
11.4858091091
 20
4.9334176935
 30
0.0
 10
11.4859874656
 20
4.9328418854
 30
0.0
 10
11.4863002736
 20
4.9316584576
 30
0.0
 10
11.4866347878
 20
4.9298334181
 30
0.0
 10
11.4868372373
 20
4.9279547618
 30
0.0
 10
11.4868824884
 20
4.9266861122
 30
0.0
 10
11.4868825101
 20
4.9260491671
 30
0.0
  0
SPLINE
  5
383
100
AcDbEntity
  8
0
100
AcDbSpline
 62
9
  6
CONTINUOUS
 70
0
 71
3
 72
15
 73
11
 74
0
 42
0.0000001
 43
0.0000001
 44
0.0000000001
 40
0.0
 40
0.0
 40
0.0
 40
0.0
 40
0.1253311339
 40
0.2505956695
 40
0.3757717389
 40
0.5008278747
 40
0.6257597062
 40
0.7505804801
 40
0.8753092143
 40
1.0
 40
1.0
 40
1.0
 40
1.0
 10
11.9944694855
 20
4.6401741125
 30
0.0
 10
11.9944143204
 20
4.6411815369
 30
0.0
 10
11.9941131264
 20
4.6431905719
 30
0.0
 10
11.993105485
 20
4.6460610222
 30
0.0
 10
11.9915779893
 20
4.6486906142
 30
0.0
 10
11.9895850161
 20
4.6509837829
 30
0.0
 10
11.9871980266
 20
4.6528588337
 30
0.0
 10
11.9845019623
 20
4.6542482921
 30
0.0
 10
11.9815947969
 20
4.6551025591
 30
0.0
 10
11.9795816926
 20
4.6552946624
 30
0.0
 10
11.9785779139
 20
4.6552946624
 30
0.0
  0
SPLINE
  5
384
100
AcDbEntity
  8
0
100
AcDbSpline
 62
9
  6
CONTINUOUS
 70
0
 71
3
 72
11
 73
7
 74
0
 42
0.0000001
 43
0.0000001
 44
0.0000000001
 40
0.0
 40
0.0
 40
0.0
 40
0.0
 40
0.2489754038
 40
0.4985966131
 40
0.7489102163
 40
1.0
 40
1.0
 40
1.0
 40
1.0
 10
10.478142733
 20
4.7932379141
 30
0.0
 10
10.4786981535
 20
4.7953793254
 30
0.0
 10
10.4798329537
 20
4.7996618989
 30
0.0
 10
10.4816068234
 20
4.8060756882
 30
0.0
 10
10.4834601907
 20
4.812486537
 30
0.0
 10
10.48475339
 20
4.8167501264
 30
0.0
 10
10.4854174077
 20
4.8188800778
 30
0.0
  0
LINE
  5
385
100
AcDbEntity
  8
0
100
AcDbLine
 62
9
  6
CONTINUOUS
 10
10.4531490676
 20
4.6968754317
 11
10.478142733
 21
4.7932379141
  0
SPLINE
  5
386
100
AcDbEntity
  8
0
100
AcDbSpline
 62
9
  6
CONTINUOUS
 70
0
 71
3
 72
11
 73
7
 74
0
 42
0.0000001
 43
0.0000001
 44
0.0000000001
 40
0.0
 40
0.0
 40
0.0
 40
0.0
 40
0.239009737
 40
0.4850649088
 40
0.738764239
 40
1.0
 40
1.0
 40
1.0
 40
1.0
 10
10.4529615943
 20
4.6726194942
 30
0.0
 10
10.4524148895
 20
4.6744958745
 30
0.0
 10
10.4516147559
 20
4.6783998631
 30
0.0
 10
10.4512826494
 20
4.6844504987
 30
0.0
 10
10.451775475
 20
4.6906701707
 30
0.0
 10
10.4526127807
 20
4.6948076991
 30
0.0
 10
10.4531490676
 20
4.6968754317
 30
0.0
  0
SPLINE
  5
387
100
AcDbEntity
  8
0
100
AcDbSpline
 62
9
  6
CONTINUOUS
 70
0
 71
3
 72
12
 73
8
 74
0
 42
0.0000001
 43
0.0000001
 44
0.0000000001
 40
0.0
 40
0.0
 40
0.0
 40
0.0
 40
0.2415090251
 40
0.3647657908
 40
0.4894955127
 40
0.74277768
 40
1.0
 40
1.0
 40
1.0
 40
1.0
 10
10.3821170783
 20
4.6968755446
 30
0.0
 10
10.3815644496
 20
4.6947489653
 30
0.0
 10
10.3805580801
 20
4.6915783973
 30
0.0
 10
10.3788877814
 20
4.6874487044
 30
0.0
 10
10.3769625523
 20
4.6833124502
 30
0.0
 10
10.3741233213
 20
4.6782668737
 30
0.0
 10
10.3714431985
 20
4.6744625055
 30
0.0
 10
10.3700010827
 20
4.6726194942
 30
0.0
  0
LINE
  5
388
100
AcDbEntity
  8
0
100
AcDbLine
 62
9
  6
CONTINUOUS
 10
10.4071687363
 20
4.7932773779
 11
10.3821170783
 21
4.6968755446
  0
SPLINE
  5
389
100
AcDbEntity
  8
0
100
AcDbSpline
 62
9
  6
CONTINUOUS
 70
0
 71
3
 72
28
 73
24
 74
0
 42
0.0000001
 43
0.0000001
 44
0.0000000001
 40
0.0
 40
0.0
 40
0.0
 40
0.0
 40
0.0107819525
 40
0.0223157635
 40
0.0347803347
 40
0.0483192083
 40
0.0630448166
 40
0.0790447104
 40
0.0963847297
 40
0.1151127891
 40
0.1352656385
 40
0.1568717045
 40
0.2045143363
 40
0.2581485289
 40
0.3178040334
 40
0.3834514236
 40
0.4550133626
 40
0.5323693967
 40
0.6153767977
 40
0.7038704142
 40
0.7976430093
 40
0.8964543501
 40
1.0
 40
1.0
 40
1.0
 40
1.0
 10
11.5014915202
 20
4.6921889501
 30
0.0
 10
11.5015663368
 20
4.6920207304
 30
0.0
 10
11.5017486425
 20
4.6916843229
 30
0.0
 10
11.5021004312
 20
4.691204023
 30
0.0
 10
11.5025377881
 20
4.6907337171
 30
0.0
 10
11.5030603833
 20
4.6902733893
 30
0.0
 10
11.5036682204
 20
4.6898228729
 30
0.0
 10
11.5043613221
 20
4.6893821964
 30
0.0
 10
11.5051396555
 20
4.6889514953
 30
0.0
 10
11.5060031048
 20
4.6885310524
 30
0.0
 10
11.5069514801
 20
4.6881211872
 30
0.0
 10
11.5083759471
 20
4.6875713483
 30
0.0
 10
11.5103722639
 20
4.6869203564
 30
0.0
 10
11.5130275369
 20
4.6862088826
 30
0.0
 10
11.5160110237
 20
4.6855460234
 30
0.0
 10
11.519316956
 20
4.6849338263
 30
0.0
 10
11.5229383622
 20
4.6843749237
 30
0.0
 10
11.526867043
 20
4.6838729338
 30
0.0
 10
11.5310934498
 20
4.6834290421
 30
0.0
 10
11.5356068113
 20
4.6830421223
 30
0.0
 10
11.5403954186
 20
4.6827150864
 30
0.0
 10
11.5454453543
 20
4.6824527104
 30
0.0
 10
11.5488983912
 20
4.682323195
 30
0.0
 10
11.5506656206
 20
4.6822680007
 30
0.0
  0
SPLINE
  5
38A
100
AcDbEntity
  8
0
100
AcDbSpline
 62
9
  6
CONTINUOUS
 70
0
 71
3
 72
23
 73
19
 74
0
 42
0.0000001
 43
0.0000001
 44
0.0000000001
 40
0.0
 40
0.0
 40
0.0
 40
0.0
 40
0.0443552547
 40
0.0895717096
 40
0.1362021402
 40
0.1847363106
 40
0.2355858133
 40
0.2890866683
 40
0.3455016089
 40
0.4050256367
 40
0.4677939047
 40
0.5338893463
 40
0.6033509437
 40
0.6761751342
 40
0.7523262158
 40
0.8317465988
 40
0.9143525425
 40
1.0
 40
1.0
 40
1.0
 40
1.0
 10
11.4769015876
 20
4.7866065575
 30
0.0
 10
11.4771833855
 20
4.7857359782
 30
0.0
 10
11.4778667721
 20
4.7840127675
 30
0.0
 10
11.4792246255
 20
4.7815451691
 30
0.0
 10
11.4809158335
 20
4.7791862383
 30
0.0
 10
11.4829342888
 20
4.7769427042
 30
0.0
 10
11.4852735017
 20
4.7748198002
 30
0.0
 10
11.4879265578
 20
4.7728226021
 30
0.0
 10
11.4908860022
 20
4.770955676
 30
0.0
 10
11.4941438297
 20
4.769223371
 30
0.0
 10
11.4976914149
 20
4.7676299074
 30
0.0
 10
11.5015193806
 20
4.7661791249
 30
0.0
 10
11.5056176475
 20
4.7648748222
 30
0.0
 10
11.5099752803
 20
4.7637201788
 30
0.0
 10
11.5145808249
 20
4.7627183264
 30
0.0
 10
11.519422265
 20
4.7618717712
 30
0.0
 10
11.5244862496
 20
4.7611830214
 30
0.0
 10
11.5279407348
 20
4.760836157
 30
0.0
 10
11.5297014238
 20
4.7606880045
 30
0.0
  0
SPLINE
  5
38B
100
AcDbEntity
  8
0
100
AcDbSpline
 62
9
  6
CONTINUOUS
 70
0
 71
3
 72
10
 73
6
 74
0
 42
0.0000001
 43
0.0000001
 44
0.0000000001
 40
0.0
 40
0.0
 40
0.0
 40
0.0
 40
0.2487157568
 40
0.4983624236
 40
1.0
 40
1.0
 40
1.0
 40
1.0
 10
10.4132145092
 20
4.8188124713
 30
0.0
 10
10.4127672662
 20
4.8166832489
 30
0.0
 10
10.4118372999
 20
4.8124238855
 30
0.0
 10
10.4098625166
 20
4.8039018841
 30
0.0
 10
10.4082725045
 20
4.7975244603
 30
0.0
 10
10.4071687363
 20
4.7932773779
 30
0.0
  0
LINE
  5
38C
100
AcDbEntity
  8
0
100
AcDbLine
 62
9
  6
CONTINUOUS
 10
10.623634161
 20
11.4999824048
 11
10.6207733185
 21
11.5043523819
  0
SPLINE
  5
38D
100
AcDbEntity
  8
0
100
AcDbSpline
 62
9
  6
CONTINUOUS
 70
0
 71
3
 72
14
 73
10
 74
0
 42
0.0000001
 43
0.0000001
 44
0.0000000001
 40
0.0
 40
0.0
 40
0.0
 40
0.0
 40
0.2645218716
 40
0.3920214086
 40
0.5168838004
 40
0.6395941484
 40
0.7606682873
 40
0.8806289388
 40
1.0
 40
1.0
 40
1.0
 40
1.0
 10
10.6207733185
 20
11.5043523819
 30
0.0
 10
10.6197313258
 20
11.5061102162
 30
0.0
 10
10.6183277185
 20
11.5088044977
 30
0.0
 10
10.6168265964
 20
11.5125068195
 30
0.0
 10
10.6159152031
 20
11.5152596273
 30
0.0
 10
10.6152055416
 20
11.5180199309
 30
0.0
 10
10.6146981035
 20
11.5207861533
 30
0.0
 10
10.6143934037
 20
11.5235559329
 30
0.0
 10
10.6143256747
 20
11.5254055134
 30
0.0
 10
10.6143258053
 20
11.5263276679
 30
0.0
  0
SPLINE
  5
38E
100
AcDbEntity
  8
0
100
AcDbSpline
 62
9
  6
CONTINUOUS
 70
0
 71
3
 72
41
 73
37
 74
0
 42
0.0000001
 43
0.0000001
 44
0.0000000001
 40
0.0
 40
0.0
 40
0.0
 40
0.0
 40
0.058677039
 40
0.087392092
 40
0.1157082715
 40
0.1436583561
 40
0.1712997199
 40
0.1987124984
 40
0.2260029425
 40
0.2533143662
 40
0.2808364249
 40
0.3088159339
 40
0.323087203
 40
0.3376035564
 40
0.3524214764
 40
0.3676001822
 40
0.3753411599
 40
0.3831827536
 40
0.3991226866
 40
0.415314563
 40
0.4316581406
 40
0.4480967959
 40
0.4646000716
 40
0.4811498472
 40
0.4977351471
 40
0.5309843809
 40
0.5643095962
 40
0.5976896789
 40
0.631111013
 40
0.6645648205
 40
0.6980445203
 40
0.7315454428
 40
0.7985971935
 40
0.8656989678
 40
0.9328366833
 40
1.0
 40
1.0
 40
1.0
 40
1.0
 10
10.3895851151
 20
4.9334176935
 30
0.0
 10
10.3923562742
 20
4.9334175049
 30
0.0
 10
10.3964923383
 20
4.9331696166
 30
0.0
 10
10.4018836916
 20
4.932253759
 30
0.0
 10
10.405780641
 20
4.9312743608
 30
0.0
 10
10.4095314091
 20
4.9299793913
 30
0.0
 10
10.4131067586
 20
4.9283569283
 30
0.0
 10
10.4164731717
 20
4.9263953409
 30
0.0
 10
10.4195891159
 20
4.9240797903
 30
0.0
 10
10.4224037885
 20
4.9213959121
 30
0.0
 10
10.4248576695
 20
4.9183348269
 30
0.0
 10
10.426529634
 20
4.9154787563
 30
0.0
 10
10.4275976894
 20
4.9130168644
 30
0.0
 10
10.4282546008
 20
4.9110621912
 30
0.0
 10
10.4287428043
 20
4.9090144219
 30
0.0
 10
10.4289900706
 20
4.9072463928
 30
0.0
 10
10.4290880395
 20
4.9057964836
 30
0.0
 10
10.4291203294
 20
4.9043076369
 30
0.0
 10
10.4290485115
 20
4.9024196141
 30
0.0
 10
10.4288436518
 20
4.9001389764
 30
0.0
 10
10.4285700989
 20
4.8978420928
 30
0.0
 10
10.4282520893
 20
4.8955362124
 30
0.0
 10
10.4279034593
 20
4.8932249541
 30
0.0
 10
10.4275326663
 20
4.890910153
 30
0.0
 10
10.4270149328
 20
4.8878180248
 30
0.0
 10
10.426334349
 20
4.8839499692
 30
0.0
 10
10.4254823397
 20
4.8793068843
 30
0.0
 10
10.4246037672
 20
4.874660488
 30
0.0
 10
10.423705347
 20
4.8700117115
 30
0.0
 10
10.4227910789
 20
4.8653612341
 30
0.0
 10
10.4218642965
 20
4.8607094042
 30
0.0
 10
10.4206144897
 20
4.8545040198
 30
0.0
 10
10.4190311806
 20
4.8467460565
 30
0.0
 10
10.4171079735
 20
4.8374361756
 30
0.0
 10
10.4151677121
 20
4.8281244541
 30
0.0
 10
10.4138665339
 20
4.8219166762
 30
0.0
 10
10.4132145092
 20
4.8188124713
 30
0.0
  0
SPLINE
  5
38F
100
AcDbEntity
  8
0
100
AcDbSpline
 62
9
  6
CONTINUOUS
 70
0
 71
3
 72
35
 73
31
 74
0
 42
0.0000001
 43
0.0000001
 44
0.0000000001
 40
0.0
 40
0.0
 40
0.0
 40
0.0
 40
0.1588471253
 40
0.317659159
 40
0.3970403282
 40
0.4763915318
 40
0.5556888768
 40
0.595300541
 40
0.6348654633
 40
0.6743376686
 40
0.6940007788
 40
0.7135595011
 40
0.751828987
 40
0.7877997744
 40
0.8208175449
 40
0.8507633266
 40
0.8776555939
 40
0.901552982
 40
0.9225385252
 40
0.9407289429
 40
0.9562572353
 40
0.9630616226
 40
0.9692508777
 40
0.9748463752
 40
0.9798718435
 40
0.9843542362
 40
0.9883256576
 40
0.9918247423
 40
0.9948984687
 40
1.0
 40
1.0
 40
1.0
 40
1.0
 10
9.9609536784
 20
4.8188800778
 30
0.0
 10
9.9641920652
 20
4.8250862026
 30
0.0
 10
9.9706691604
 20
4.8374965401
 30
0.0
 10
9.9787687502
 20
4.8530061094
 30
0.0
 10
9.9852506281
 20
4.865408244
 30
0.0
 10
9.9901122504
 20
4.8747033386
 30
0.0
 10
9.9941650985
 20
4.8824435997
 30
0.0
 10
9.9974083205
 20
4.8886286352
 30
0.0
 10
9.9998392747
 20
4.8932578945
 30
0.0
 10
10.0018650555
 20
4.8971069683
 30
0.0
 10
10.0034846066
 20
4.9001735347
 30
0.0
 10
10.0050838374
 20
4.9031908849
 30
0.0
 10
10.007034473
 20
4.9068353681
 30
0.0
 10
10.0093082914
 20
4.9109793802
 30
0.0
 10
10.0114493946
 20
4.9147774854
 30
0.0
 10
10.0134391001
 20
4.9182013042
 30
0.0
 10
10.0152747205
 20
4.9212493504
 30
0.0
 10
10.0169583439
 20
4.9239273732
 30
0.0
 10
10.0184941819
 20
4.9262445355
 30
0.0
 10
10.0198875635
 20
4.9282123392
 30
0.0
 10
10.0209771387
 20
4.9296282142
 30
0.0
 10
10.0217856922
 20
4.9305908016
 30
0.0
 10
10.022332905
 20
4.9312006646
 30
0.0
 10
10.022848793
 20
4.9317326312
 30
0.0
 10
10.0233341404
 20
4.9321885022
 30
0.0
 10
10.0237898895
 20
4.9325701534
 30
0.0
 10
10.02421676
 20
4.932879478
 30
0.0
 10
10.0246164981
 20
4.9331185944
 30
0.0
 10
10.0250840328
 20
4.9333327276
 30
0.0
 10
10.0254441708
 20
4.9334175226
 30
0.0
 10
10.0256689898
 20
4.9334176935
 30
0.0
  0
LINE
  5
390
100
AcDbEntity
  8
0
100
AcDbLine
 62
9
  6
CONTINUOUS
 10
9.9476088588
 20
4.7932379141
 11
9.9609536784
 21
4.8188800778
  0
LINE
  5
391
100
AcDbEntity
  8
0
100
AcDbLine
 62
9
  6
CONTINUOUS
 10
9.8975737415
 20
4.6968754317
 11
9.9476088588
 21
4.7932379141
  0
LINE
  5
392
100
AcDbEntity
  8
0
100
AcDbLine
 62
9
  6
CONTINUOUS
 10
9.8852703065
 20
4.6726194942
 11
9.8975737415
 21
4.6968754317
  0
SPLINE
  5
393
100
AcDbEntity
  8
0
100
AcDbSpline
 62
9
  6
CONTINUOUS
 70
0
 71
3
 72
23
 73
19
 74
0
 42
0.0000001
 43
0.0000001
 44
0.0000000001
 40
0.0
 40
0.0
 40
0.0
 40
0.0
 40
0.0443551902
 40
0.089571595
 40
0.1362019896
 40
0.1847361365
 40
0.2355856275
 40
0.2890864806
 40
0.3455014267
 40
0.4050254654
 40
0.4677937484
 40
0.5338892079
 40
0.6033508256
 40
0.6761750383
 40
0.7523261432
 40
0.8317465503
 40
0.9143525183
 40
1.0
 40
1.0
 40
1.0
 40
1.0
 10
10.3984830981
 20
4.7866065601
 30
0.0
 10
10.3982013002
 20
4.7857359824
 30
0.0
 10
10.3975179136
 20
4.7840127746
 30
0.0
 10
10.3961600603
 20
4.7815451801
 30
0.0
 10
10.3944688525
 20
4.7791862527
 30
0.0
 10
10.3924503973
 20
4.7769427211
 30
0.0
 10
10.3901111844
 20
4.774819819
 30
0.0
 10
10.3874581283
 20
4.7728226219
 30
0.0
 10
10.384498684
 20
4.7709556964
 30
0.0
 10
10.3812408565
 20
4.7692233912
 30
0.0
 10
10.3776932712
 20
4.7676299269
 30
0.0
 10
10.3738653056
 20
4.7661791433
 30
0.0
 10
10.3697670386
 20
4.7648748389
 30
0.0
 10
10.3654094058
 20
4.7637201932
 30
0.0
 10
10.3608038611
 20
4.762718338
 30
0.0
 10
10.3559624209
 20
4.7618717795
 30
0.0
 10
10.3508984361
 20
4.7611830258
 30
0.0
 10
10.3474439508
 20
4.7608361585
 30
0.0
 10
10.3456832617
 20
4.7606880045
 30
0.0
  0
SPLINE
  5
394
100
AcDbEntity
  8
0
100
AcDbSpline
 62
9
  6
CONTINUOUS
 70
0
 71
3
 72
15
 73
11
 74
0
 42
0.0000001
 43
0.0000001
 44
0.0000000001
 40
0.0
 40
0.0
 40
0.0
 40
0.0
 40
0.140637695
 40
0.2754269767
 40
0.4049374968
 40
0.5298366295
 40
0.6508906168
 40
0.768964605
 40
0.8850053519
 40
1.0
 40
1.0
 40
1.0
 40
1.0
 10
10.6198059394
 20
11.5037829782
 30
0.0
 10
10.6187827316
 20
11.5050122158
 30
0.0
 10
10.6168542393
 20
11.5074839011
 30
0.0
 10
10.6142822296
 20
11.5113085701
 30
0.0
 10
10.6120985655
 20
11.5151638993
 30
0.0
 10
10.610306652
 20
11.519045338
 30
0.0
 10
10.6089093528
 20
11.5229483083
 30
0.0
 10
10.607909194
 20
11.5268681114
 30
0.0
 10
10.6073083323
 20
11.5307988627
 30
0.0
 10
10.6071744362
 20
11.5334281698
 30
0.0
 10
10.6071744362
 20
11.5347359188
 30
0.0
  0
SPLINE
  5
395
100
AcDbEntity
  8
0
100
AcDbSpline
 62
9
  6
CONTINUOUS
 70
0
 71
3
 72
15
 73
11
 74
0
 42
0.0000001
 43
0.0000001
 44
0.0000000001
 40
0.0
 40
0.0
 40
0.0
 40
0.0
 40
0.1424358804
 40
0.2784033045
 40
0.4084989141
 40
0.5334366516
 40
0.6540517597
 40
0.7712997126
 40
0.8862427584
 40
1.0
 40
1.0
 40
1.0
 40
1.0
 10
10.619787955
 20
11.5036636771
 30
0.0
 10
10.6186090338
 20
11.5049793056
 30
0.0
 10
10.6163864423
 20
11.5076259498
 30
0.0
 10
10.6134147733
 20
11.5117350797
 30
0.0
 10
10.6108904229
 20
11.5158821748
 30
0.0
 10
10.6088179407
 20
11.5200618136
 30
0.0
 10
10.6072010498
 20
11.5242683698
 30
0.0
 10
10.606043253
 20
11.5284961251
 30
0.0
 10
10.6053474449
 20
11.532737776
 30
0.0
 10
10.6051923426
 20
11.5355765981
 30
0.0
 10
10.6051923426
 20
11.5369874713
 30
0.0
  0
LINE
  5
396
100
AcDbEntity
  8
0
100
AcDbLine
 62
9
  6
CONTINUOUS
 10
11.9778108869
 20
4.6968755446
 11
11.9901143804
 21
4.6726194942
  0
LINE
  5
397
100
AcDbEntity
  8
0
100
AcDbLine
 62
9
  6
CONTINUOUS
 10
11.9277553354
 20
4.7932773777
 11
11.9778108869
 21
4.6968755446
  0
SPLINE
  5
398
100
AcDbEntity
  8
0
100
AcDbSpline
 62
9
  6
CONTINUOUS
 70
0
 71
3
 72
28
 73
24
 74
0
 42
0.0000001
 43
0.0000001
 44
0.0000000001
 40
0.0
 40
0.0
 40
0.0
 40
0.0
 40
0.2333104765
 40
0.3400276656
 40
0.4390436225
 40
0.5297484559
 40
0.6119325773
 40
0.6854556012
 40
0.7502593814
 40
0.8064485792
 40
0.8542407193
 40
0.8750849651
 40
0.893966514
 40
0.9109543335
 40
0.9261229786
 40
0.9395664177
 40
0.951408748
 40
0.9617970672
 40
0.9709095241
 40
0.9789769301
 40
0.9862930032
 40
0.993189069
 40
1.0
 40
1.0
 40
1.0
 40
1.0
 10
11.9901143727
 20
4.6726194942
 30
0.0
 10
11.9913028065
 20
4.6702268392
 30
0.0
 10
11.9928410891
 20
4.666637503
 30
0.0
 10
11.9944156636
 20
4.6618613037
 30
0.0
 10
11.995300191
 20
4.6585822753
 30
0.0
 10
11.9959475107
 20
4.6555353386
 30
0.0
 10
11.9963863137
 20
4.6527467439
 30
0.0
 10
11.9966453344
 20
4.6502338557
 30
0.0
 10
11.9967517039
 20
4.6480078646
 30
0.0
 10
11.9967314007
 20
4.6460741658
 30
0.0
 10
11.996623553
 20
4.644647533
 30
0.0
 10
11.9964876358
 20
4.6436543901
 30
0.0
 10
11.9963712758
 20
4.6430152486
 30
0.0
 10
11.996237743
 20
4.6424460015
 30
0.0
 10
11.9960889135
 20
4.6419451519
 30
0.0
 10
11.9959263142
 20
4.641510921
 30
0.0
 10
11.9957509541
 20
4.6411413277
 30
0.0
 10
11.9955637334
 20
4.6408341961
 30
0.0
 10
11.9953652546
 20
4.6405873239
 30
0.0
 10
11.9951556701
 20
4.6403987238
 30
0.0
 10
11.9949351877
 20
4.6402667631
 30
0.0
 10
11.9947050237
 20
4.6401899751
 30
0.0
 10
11.9945474748
 20
4.6401741141
 30
0.0
 10
11.9944694855
 20
4.6401741125
 30
0.0
  0
LINE
  5
399
100
AcDbEntity
  8
0
100
AcDbLine
 62
9
  6
CONTINUOUS
 10
11.9144663001
 20
4.8188124508
 11
11.9277553354
 21
4.7932773777
  0
LINE
  5
39A
100
AcDbEntity
  8
0
100
AcDbLine
 62
9
  6
CONTINUOUS
 10
9.9044078619
 20
4.6933342869
 11
9.9544939254
 21
4.7896707947
  0
LINE
  5
39B
100
AcDbEntity
  8
0
100
AcDbLine
 62
9
  6
CONTINUOUS
 10
9.9544939254
 20
4.7896707947
 11
10.0091055759
 21
4.7606880045
  0
LINE
  5
39C
100
AcDbEntity
  8
0
100
AcDbLine
 62
9
  6
CONTINUOUS
 10
9.9044078619
 20
4.6933342869
 11
9.9680033949
 21
4.6822680007
  0
SPLINE
  5
39D
100
AcDbEntity
  8
0
100
AcDbSpline
 62
9
  6
CONTINUOUS
 70
0
 71
3
 72
23
 73
19
 74
0
 42
0.0000001
 43
0.0000001
 44
0.0000000001
 40
0.0
 40
0.0
 40
0.0
 40
0.0
 40
0.0890083825
 40
0.1752081267
 40
0.2583472697
 40
0.3382285608
 40
0.4146675833
 40
0.4874892632
 40
0.5565422346
 40
0.6216987099
 40
0.6828598906
 40
0.7399573616
 40
0.7929650553
 40
0.8419040484
 40
0.8868575639
 40
0.9279916564
 40
0.965576019
 40
1.0
 40
1.0
 40
1.0
 40
1.0
 10
9.966941683
 20
4.8150263487
 30
0.0
 10
9.9689621674
 20
4.8154514847
 30
0.0
 10
9.972931202
 20
4.8163278974
 30
0.0
 10
9.9787545979
 20
4.8177450389
 30
0.0
 10
9.9843395376
 20
4.8192405672
 30
0.0
 10
9.9896686753
 20
4.8208097112
 30
0.0
 10
9.9947261406
 20
4.8224477011
 30
0.0
 10
9.9994966786
 20
4.8241496028
 30
0.0
 10
10.0039658646
 20
4.8259101313
 30
0.0
 10
10.0081202654
 20
4.8277240369
 30
0.0
 10
10.0119475435
 20
4.8295856942
 30
0.0
 10
10.0154363368
 20
4.831489687
 30
0.0
 10
10.0185764831
 20
4.8334303126
 30
0.0
 10
10.0213589071
 20
4.8354021566
 30
0.0
 10
10.023775743
 20
4.8373998076
 30
0.0
 10
10.0258203263
 20
4.8394187502
 30
0.0
 10
10.0274858858
 20
4.8414540157
 30
0.0
 10
10.0283749132
 20
4.8428758018
 30
0.0
 10
10.0287439847
 20
4.8435839268
 30
0.0
  0
SPLINE
  5
39E
100
AcDbEntity
  8
0
100
AcDbSpline
 62
9
  6
CONTINUOUS
 70
0
 71
3
 72
52
 73
48
 74
0
 42
0.0000001
 43
0.0000001
 44
0.0000000001
 40
0.0
 40
0.0
 40
0.0
 40
0.0
 40
0.0799585498
 40
0.1599183645
 40
0.2398777388
 40
0.319834302
 40
0.3598105169
 40
0.3997845763
 40
0.4397557371
 40
0.4797230171
 40
0.5196849709
 40
0.5596399156
 40
0.5995850765
 40
0.6395174581
 40
0.6594776982
 40
0.6794338371
 40
0.6993879492
 40
0.7093657289
 40
0.7193454287
 40
0.7293296126
 40
0.7393203808
 40
0.7592870102
 40
0.7691653185
 40
0.7788329885
 40
0.7882055558
 40
0.797266671
 40
0.814515619
 40
0.8307246424
 40
0.8459871204
 40
0.8603553095
 40
0.8865398249
 40
0.9095048884
 40
0.9198225061
 40
0.9293836683
 40
0.9463024739
 40
0.9537205928
 40
0.9604817953
 40
0.9666104004
 40
0.9721308537
 40
0.9770713474
 40
0.9814669877
 40
0.9853628634
 40
0.9888211268
 40
0.991919698
 40
0.9947478202
 40
0.9974045643
 40
1.0
 40
1.0
 40
1.0
 40
1.0
 10
9.9669416915
 20
4.8150263505
 30
0.0
 10
9.9683062217
 20
4.8181093273
 30
0.0
 10
9.9710335952
 20
4.8242760861
 30
0.0
 10
9.9751184299
 20
4.833528984
 30
0.0
 10
9.9791971977
 20
4.8427844664
 30
0.0
 10
9.9825900931
 20
4.8504998458
 30
0.0
 10
9.9853009296
 20
4.8566733607
 30
0.0
 10
9.9873317216
 20
4.8613041215
 30
0.0
 10
9.989360457
 20
4.8659353723
 30
0.0
 10
9.9913870856
 20
4.8705669885
 30
0.0
 10
9.9934107003
 20
4.875199176
 30
0.0
 10
9.9954323805
 20
4.8798311906
 30
0.0
 10
9.9974505805
 20
4.8844633625
 30
0.0
 10
9.9991311093
 20
4.8883230332
 30
0.0
 10
10.0004748101
 20
4.8914100972
 30
0.0
 10
10.0014826697
 20
4.893724619
 30
0.0
 10
10.0023242392
 20
4.8956524669
 30
0.0
 10
10.003000139
 20
4.8971936418
 30
0.0
 10
10.0035086911
 20
4.8983491746
 30
0.0
 10
10.004021224
 20
4.8995035542
 30
0.0
 10
10.0047109413
 20
4.9010399649
 30
0.0
 10
10.0054185546
 20
4.9025635699
 30
0.0
 10
10.0061595721
 20
4.9040558717
 30
0.0
 10
10.0067239665
 20
4.9051368284
 30
0.0
 10
10.0072908273
 20
4.9061773809
 30
0.0
 10
10.0080277909
 20
4.9074891237
 30
0.0
 10
10.0089290613
 20
4.9090390381
 30
0.0
 10
10.009985602
 20
4.9108008663
 30
0.0
 10
10.0109990183
 20
4.9124467697
 30
0.0
 10
10.0122557502
 20
4.9144366275
 30
0.0
 10
10.0137254736
 20
4.9166758839
 30
0.0
 10
10.0151571484
 20
4.9187349352
 30
0.0
 10
10.0162281525
 20
4.9201898875
 30
0.0
 10
10.0171729446
 20
4.9214206816
 30
0.0
 10
10.018081842
 20
4.9225249108
 30
0.0
 10
10.0189628216
 20
4.9234964231
 30
0.0
 10
10.0195604836
 20
4.9241099287
 30
0.0
 10
10.0201252468
 20
4.9246428984
 30
0.0
 10
10.0206579735
 20
4.9250967813
 30
0.0
 10
10.0211595189
 20
4.9254729194
 30
0.0
 10
10.0216309793
 20
4.925772563
 30
0.0
 10
10.0220739461
 20
4.9259966142
 30
0.0
 10
10.0224896175
 20
4.9261469972
 30
0.0
 10
10.022878902
 20
4.9262265622
 30
0.0
 10
10.0232427013
 20
4.9262379439
 30
0.0
 10
10.0235810485
 20
4.9261815786
 30
0.0
 10
10.0237887527
 20
4.9260993713
 30
0.0
 10
10.0238858287
 20
4.9260488481
 30
0.0
  0
SPLINE
  5
39F
100
AcDbEntity
  8
0
100
AcDbSpline
 62
9
  6
CONTINUOUS
 70
0
 71
3
 72
28
 73
24
 74
0
 42
0.0000001
 43
0.0000001
 44
0.0000000001
 40
0.0
 40
0.0
 40
0.0
 40
0.0
 40
0.1035768556
 40
0.202403826
 40
0.2961773704
 40
0.3846749843
 40
0.4676984684
 40
0.5450685674
 40
0.6166330163
 40
0.6822722231
 40
0.7419163447
 40
0.7955491307
 40
0.8431941767
 40
0.8647958143
 40
0.8849388418
 40
0.9036540544
 40
0.9209811153
 40
0.936971177
 40
0.951690989
 40
0.9652268326
 40
0.9776895642
 40
0.9892210316
 40
1.0
 40
1.0
 40
1.0
 40
1.0
 10
10.3247189859
 20
4.6822679812
 30
0.0
 10
10.3264869357
 20
4.6823233729
 30
0.0
 10
10.3299411133
 20
4.6824540042
 30
0.0
 10
10.3349923577
 20
4.6827172978
 30
0.0
 10
10.3397819826
 20
4.6830421429
 30
0.0
 10
10.3442963268
 20
4.6834277911
 30
0.0
 10
10.3485236438
 20
4.6838731512
 30
0.0
 10
10.3524531415
 20
4.6843765084
 30
0.0
 10
10.3560750478
 20
4.6849356821
 30
0.0
 10
10.3593811423
 20
4.6855473806
 30
0.0
 10
10.3623647484
 20
4.6862096353
 30
0.0
 10
10.3650199394
 20
4.6869219999
 30
0.0
 10
10.3670159778
 20
4.6875743821
 30
0.0
 10
10.3684402226
 20
4.6881246807
 30
0.0
 10
10.3693882462
 20
4.6885344715
 30
0.0
 10
10.3702512434
 20
4.6889546923
 30
0.0
 10
10.3710290943
 20
4.6893852157
 30
0.0
 10
10.3717216866
 20
4.6898259626
 30
0.0
 10
10.3723289994
 20
4.6902767991
 30
0.0
 10
10.3728510598
 20
4.6907375795
 30
0.0
 10
10.3732878363
 20
4.6912083557
 30
0.0
 10
10.3736389938
 20
4.6916890484
 30
0.0
 10
10.3738208155
 20
4.6920256654
 30
0.0
 10
10.3738953725
 20
4.6921939666
 30
0.0
  0
SPLINE
  5
3A0
100
AcDbEntity
  8
0
100
AcDbSpline
 62
9
  6
CONTINUOUS
 70
0
 71
3
 72
27
 73
23
 74
0
 42
0.0000001
 43
0.0000001
 44
0.0000000001
 40
0.0
 40
0.0
 40
0.0
 40
0.0
 40
0.0068114092
 40
0.0137081298
 40
0.0210250865
 40
0.0290935343
 40
0.0382070675
 40
0.0485964535
 40
0.0604397506
 40
0.0738839671
 40
0.0890531676
 40
0.1060416185
 40
0.1249242669
 40
0.1457704875
 40
0.1935696471
 40
0.2497652577
 40
0.3145735652
 40
0.3881077102
 40
0.4703301439
 40
0.5610698523
 40
0.766616062
 40
1.0
 40
1.0
 40
1.0
 40
1.0
 10
9.8809151428
 20
4.6401741125
 30
0.0
 10
9.8808371542
 20
4.6401741144
 30
0.0
 10
9.8806796048
 20
4.6401899823
 30
0.0
 10
9.8804494437
 20
4.6402667926
 30
0.0
 10
9.8802289663
 20
4.6403987793
 30
0.0
 10
9.8800193874
 20
4.6405874028
 30
0.0
 10
9.879820913
 20
4.6408342924
 30
0.0
 10
9.8796336955
 20
4.6411414337
 30
0.0
 10
9.8794583373
 20
4.6415110272
 30
0.0
 10
9.8792957391
 20
4.6419452469
 30
0.0
 10
9.8791469083
 20
4.642446076
 30
0.0
 10
9.8790133721
 20
4.6430153012
 30
0.0
 10
9.8788970107
 20
4.6436544329
 30
0.0
 10
9.8787610983
 20
4.6446476124
 30
0.0
 10
9.87865328
 20
4.6460743098
 30
0.0
 10
9.8786329936
 20
4.648008059
 30
0.0
 10
9.8787393769
 20
4.6502341246
 30
0.0
 10
9.8789984114
 20
4.6527474246
 30
0.0
 10
9.8794375753
 20
4.6555367467
 30
0.0
 10
9.8803390568
 20
4.659777649
 30
0.0
 10
9.882096602
 20
4.6655952651
 30
0.0
 10
9.8840817325
 20
4.6702262094
 30
0.0
 10
9.8852703086
 20
4.6726194942
 30
0.0
  0
SPLINE
  5
3A1
100
AcDbEntity
  8
0
100
AcDbSpline
 62
9
  6
CONTINUOUS
 70
0
 71
3
 72
52
 73
48
 74
0
 42
0.0000001
 43
0.0000001
 44
0.0000000001
 40
0.0
 40
0.0
 40
0.0
 40
0.0
 40
0.0287522064
 40
0.0429544574
 40
0.0570385406
 40
0.0848470676
 40
0.1121971287
 40
0.1391137727
 40
0.1656464119
 40
0.1787969134
 40
0.1918832594
 40
0.2049205053
 40
0.2179249687
 40
0.2439028766
 40
0.2569422842
 40
0.2700545862
 40
0.2832850277
 40
0.2966885683
 40
0.3103454023
 40
0.3243911261
 40
0.3316423049
 40
0.3391084741
 40
0.346846598
 40
0.35487412
 40
0.3631290816
 40
0.3715292703
 40
0.3800157742
 40
0.388540869
 40
0.3970873908
 40
0.4056436049
 40
0.422766399
 40
0.4398885619
 40
0.4570007574
 40
0.4741001703
 40
0.4911875405
 40
0.5082631388
 40
0.52532667
 40
0.5594199768
 40
0.5934745112
 40
0.6274924391
 40
0.6614784925
 40
0.6954352078
 40
0.7293643643
 40
0.7971492127
 40
0.8648444517
 40
0.9324593812
 40
1.0
 40
1.0
 40
1.0
 40
1.0
 10
10.3885023868
 20
4.9260489276
 30
0.0
 10
10.389841368
 20
4.9261496324
 30
0.0
 10
10.3918471072
 20
4.9262400496
 30
0.0
 10
10.3945112468
 20
4.9262289018
 30
0.0
 10
10.3971294631
 20
4.9261289087
 30
0.0
 10
10.4003527925
 20
4.9258303083
 30
0.0
 10
10.4041324817
 20
4.9251658705
 30
0.0
 10
10.4077817737
 20
4.9241863856
 30
0.0
 10
10.4107013883
 20
4.9230976758
 30
0.0
 10
10.4129360525
 20
4.9220561197
 30
0.0
 10
10.4145531329
 20
4.9211883925
 30
0.0
 10
10.4161099619
 20
4.9202292876
 30
0.0
 10
10.4180964978
 20
4.9188289812
 30
0.0
 10
10.4199436391
 20
4.9172370859
 30
0.0
 10
10.4216091551
 20
4.9154590294
 30
0.0
 10
10.4227625235
 20
4.9140238501
 30
0.0
 10
10.4238034537
 20
4.9124843245
 30
0.0
 10
10.4247166898
 20
4.9108360019
 30
0.0
 10
10.4254784114
 20
4.9090703443
 30
0.0
 10
10.4259503619
 20
4.9075022231
 30
0.0
 10
10.426192924
 20
4.906179686
 30
0.0
 10
10.4262918439
 20
4.9051340901
 30
0.0
 10
10.426285798
 20
4.904047209
 30
0.0
 10
10.4261673611
 20
4.9029301822
 30
0.0
 10
10.4259622351
 20
4.9017952578
 30
0.0
 10
10.425701928
 20
4.9006500946
 30
0.0
 10
10.425407081
 20
4.8995004822
 30
0.0
 10
10.425099516
 20
4.898347191
 30
0.0
 10
10.4247838375
 20
4.8971927164
 30
0.0
 10
10.4243597636
 20
4.8956516273
 30
0.0
 10
10.4238286652
 20
4.8937246072
 30
0.0
 10
10.4231970018
 20
4.8914108354
 30
0.0
 10
10.4225736849
 20
4.8890959302
 30
0.0
 10
10.4219590111
 20
4.8867803971
 30
0.0
 10
10.42135214
 20
4.8844645743
 30
0.0
 10
10.4207527185
 20
4.8821485431
 30
0.0
 10
10.4199632826
 20
4.8790613378
 30
0.0
 10
10.4189928095
 20
4.8752019936
 30
0.0
 10
10.4178497998
 20
4.8705696476
 30
0.0
 10
10.4167266934
 20
4.8659375918
 30
0.0
 10
10.4156206462
 20
4.8613061326
 30
0.0
 10
10.4145301955
 20
4.8566752365
 30
0.0
 10
10.4130956272
 20
4.8505037833
 30
0.0
 10
10.411334432
 20
4.84279065
 30
0.0
 10
10.4092648302
 20
4.8335343879
 30
0.0
 10
10.4072348303
 20
4.8242810419
 30
0.0
 10
10.4059047607
 20
4.818110828
 30
0.0
 10
10.405245314
 20
4.8150263037
 30
0.0
  0
SPLINE
  5
3A2
100
AcDbEntity
  8
0
100
AcDbSpline
 62
9
  6
CONTINUOUS
 70
0
 71
3
 72
28
 73
24
 74
0
 42
0.0000001
 43
0.0000001
 44
0.0000000001
 40
0.0
 40
0.0
 40
0.0
 40
0.0
 40
0.0119575149
 40
0.0244459215
 40
0.0376784261
 40
0.0518331196
 40
0.0670537651
 40
0.083453296
 40
0.1011195056
 40
0.1201198298
 40
0.1405033988
 40
0.1623061274
 40
0.2102579024
 40
0.264097752
 40
0.3238450507
 40
0.3894486646
 40
0.4608105741
 40
0.5377905452
 40
0.620216014
 40
0.7078824753
 40
0.800570967
 40
0.8980446652
 40
1.0
 40
1.0
 40
1.0
 40
1.0
 10
10.405245314
 20
4.8150263037
 30
0.0
 10
10.4052592854
 20
4.8152452051
 30
0.0
 10
10.4052533578
 20
4.8156955179
 30
0.0
 10
10.4051465116
 20
4.8163803612
 30
0.0
 10
10.4049424984
 20
4.8170846514
 30
0.0
 10
10.4046419744
 20
4.8178076767
 30
0.0
 10
10.4042455513
 20
4.8185491782
 30
0.0
 10
10.403753792
 20
4.8193089126
 30
0.0
 10
10.4031671034
 20
4.8200865852
 30
0.0
 10
10.4024858714
 20
4.8208817763
 30
0.0
 10
10.4017106274
 20
4.8216940788
 30
0.0
 10
10.4005138668
 20
4.8228357471
 30
0.0
 10
10.3987762709
 20
4.8242956351
 30
0.0
 10
10.3963899733
 20
4.8260548746
 30
0.0
 10
10.3936467228
 20
4.8278679431
 30
0.0
 10
10.3905545042
 20
4.8297295315
 30
0.0
 10
10.3871221246
 20
4.831633889
 30
0.0
 10
10.3833597633
 20
4.8335752651
 30
0.0
 10
10.379278686
 20
4.8355476185
 30
0.0
 10
10.3748911422
 20
4.8375449556
 30
0.0
 10
10.3702101451
 20
4.8395612139
 30
0.0
 10
10.3652502071
 20
4.8415900035
 30
0.0
 10
10.3618413203
 20
4.8429181437
 30
0.0
 10
10.3600935854
 20
4.8435839268
 30
0.0
  0
SPLINE
  5
3A3
100
AcDbEntity
  8
0
100
AcDbSpline
 62
9
  6
CONTINUOUS
 70
0
 71
3
 72
18
 73
14
 74
0
 42
0.0000001
 43
0.0000001
 44
0.0000000001
 40
0.0
 40
0.0
 40
0.0
 40
0.0
 40
0.1728206125
 40
0.2543768988
 40
0.3324051937
 40
0.4774020164
 40
0.6073275569
 40
0.7223785358
 40
0.8238872263
 40
0.8704792379
 40
0.9149247658
 40
0.9578615995
 40
1.0
 40
1.0
 40
1.0
 40
1.0
 10
10.4071584697
 20
4.7932379187
 30
0.0
 10
10.406635574
 20
4.7932277925
 30
0.0
 10
10.4058659183
 20
4.7931884665
 30
0.0
 10
10.4048657203
 20
4.7930790081
 30
0.0
 10
10.4039542363
 20
4.7929405798
 30
0.0
 10
10.4029093513
 20
4.7927104894
 30
0.0
 10
10.4017888789
 20
4.7923304177
 30
0.0
 10
10.4008486208
 20
4.791857497
 30
0.0
 10
10.4002074198
 20
4.7913745442
 30
0.0
 10
10.3998104238
 20
4.790946149
 30
0.0
 10
10.3995745726
 20
4.7906148232
 30
0.0
 10
10.3993936157
 20
4.7902656745
 30
0.0
 10
10.3993097676
 20
4.7900210531
 30
0.0
 10
10.3992776383
 20
4.7898976469
 30
0.0
  0
SPLINE
  5
3A4
100
AcDbEntity
  8
0
100
AcDbSpline
 62
9
  6
CONTINUOUS
 70
0
 71
3
 72
16
 73
12
 74
0
 42
0.0000001
 43
0.0000001
 44
0.0000000001
 40
0.0
 40
0.0
 40
0.0
 40
0.0
 40
0.1683909823
 40
0.3248814184
 40
0.4683049069
 40
0.5981537424
 40
0.714531707
 40
0.8184922408
 40
0.9123543621
 40
0.95669883
 40
1.0
 40
1.0
 40
1.0
 40
1.0
 10
10.4132293892
 20
4.8188800925
 30
0.0
 10
10.4127063074
 20
4.8188419588
 30
0.0
 10
10.4116990384
 20
4.8187355111
 30
0.0
 10
10.4102629119
 20
4.8184715965
 30
0.0
 10
10.4089713403
 20
4.8181120488
 30
0.0
 10
10.4078413783
 20
4.817661579
 30
0.0
 10
10.4068873759
 20
4.8171245802
 30
0.0
 10
10.4061219113
 20
4.8165062414
 30
0.0
 10
10.4056426571
 20
4.8159138901
 30
0.0
 10
10.4053776366
 20
4.8154129384
 30
0.0
 10
10.4052829594
 20
4.8151558132
 30
0.0
 10
10.4052453151
 20
4.8150263077
 30
0.0
  0
SPLINE
  5
3A5
100
AcDbEntity
  8
0
100
AcDbSpline
 62
9
  6
CONTINUOUS
 70
0
 71
3
 72
11
 73
7
 74
0
 42
0.0000001
 43
0.0000001
 44
0.0000000001
 40
0.0
 40
0.0
 40
0.0
 40
0.0
 40
0.2420189136
 40
0.4908351302
 40
0.7442733992
 40
1.0
 40
1.0
 40
1.0
 40
1.0
 10
10.3895756146
 20
4.9334176935
 30
0.0
 10
10.3893972379
 20
4.9328418863
 30
0.0
 10
10.3890843902
 20
4.9316584601
 30
0.0
 10
10.3887498177
 20
4.9298334205
 30
0.0
 10
10.3885473128
 20
4.9279547639
 30
0.0
 10
10.3885020281
 20
4.9266861128
 30
0.0
 10
10.3885019902
 20
4.9260491671
 30
0.0
  0
SPLINE
  5
3A6
100
AcDbEntity
  8
0
100
AcDbSpline
 62
9
  6
CONTINUOUS
 70
0
 71
3
 72
21
 73
17
 74
0
 42
0.0000001
 43
0.0000001
 44
0.0000000001
 40
0.0
 40
0.0
 40
0.0
 40
0.0
 40
0.0048272899
 40
0.0111930561
 40
0.0192652376
 40
0.0291208165
 40
0.0543110836
 40
0.0868803263
 40
0.1267899214
 40
0.1739556736
 40
0.2282374796
 40
0.289461264
 40
0.4319191909
 40
0.5993912092
 40
0.7896617955
 40
1.0
 40
1.0
 40
1.0
 40
1.0
 10
9.9609536784
 20
4.8188800778
 30
0.0
 10
9.9609554977
 20
4.8188687209
 30
0.0
 10
9.9609650479
 20
4.818843357
 30
0.0
 10
9.9609893164
 20
4.8188043037
 30
0.0
 10
9.9610254721
 20
4.8187589575
 30
0.0
 10
9.9610956699
 20
4.8186838699
 30
0.0
 10
9.9612154131
 20
4.818575755
 30
0.0
 10
9.9613967392
 20
4.8184298382
 30
0.0
 10
9.9616255431
 20
4.8182596938
 30
0.0
 10
9.9619010683
 20
4.818065948
 30
0.0
 10
9.9622224857
 20
4.817849312
 30
0.0
 10
9.9627374105
 20
4.8175136792
 30
0.0
 10
9.9634873838
 20
4.817044957
 30
0.0
 10
9.9645083865
 20
4.8164301281
 30
0.0
 10
9.9656767456
 20
4.8157467047
 30
0.0
 10
9.9665055255
 20
4.8152731696
 30
0.0
 10
9.9669416871
 20
4.8150263406
 30
0.0
  0
LINE
  5
3A7
100
AcDbEntity
  8
0
100
AcDbLine
 62
9
  6
CONTINUOUS
 10
10.4679313953
 20
4.6933342869
 11
10.4929567778
 21
4.7896707947
  0
SPLINE
  5
3A8
100
AcDbEntity
  8
0
100
AcDbSpline
 62
9
  6
CONTINUOUS
 70
0
 71
3
 72
15
 73
11
 74
0
 42
0.0000001
 43
0.0000001
 44
0.0000000001
 40
0.0
 40
0.0
 40
0.0
 40
0.0
 40
0.1201926569
 40
0.2443374597
 40
0.3711879481
 40
0.4994384121
 40
0.6277607477
 40
0.7548255307
 40
0.8793230264
 40
1.0
 40
1.0
 40
1.0
 40
1.0
 10
10.4929567778
 20
4.7896707947
 30
0.0
 10
10.4970152485
 20
4.7877018864
 30
0.0
 10
10.5053750799
 20
4.783921704
 30
0.0
 10
10.5183391923
 20
4.7788094558
 30
0.0
 10
10.531813213
 20
4.7742076022
 30
0.0
 10
10.545631017
 20
4.7701732345
 30
0.0
 10
10.5596225027
 20
4.7667559908
 30
0.0
 10
10.5736154379
 20
4.7639979762
 30
0.0
 10
10.5874371217
 20
4.7619329039
 30
0.0
 10
10.5965976366
 20
4.7610175857
 30
0.0
 10
10.601114657
 20
4.7606880045
 30
0.0
  0
SPLINE
  5
3A9
100
AcDbEntity
  8
0
100
AcDbSpline
 62
9
  6
CONTINUOUS
 70
0
 71
3
 72
19
 73
15
 74
0
 42
0.0000001
 43
0.0000001
 44
0.0000000001
 40
0.0
 40
0.0
 40
0.0
 40
0.0
 40
0.1162113482
 40
0.2378636289
 40
0.3636321977
 40
0.4920620474
 40
0.5567917092
 40
0.6215933558
 40
0.6862581502
 40
0.7505733331
 40
0.8143193514
 40
0.8772822588
 40
0.9392539605
 40
1.0
 40
1.0
 40
1.0
 40
1.0
 10
10.4679313953
 20
4.6933342869
 30
0.0
 10
10.4722711713
 20
4.6925882967
 30
0.0
 10
10.4811700534
 20
4.6911541257
 30
0.0
 10
10.4948126877
 20
4.6892183836
 30
0.0
 10
10.5089463668
 20
4.6874631232
 30
0.0
 10
10.520963225
 20
4.6861788208
 30
0.0
 10
10.5306946314
 20
4.6852605949
 30
0.0
 10
10.5380260663
 20
4.6846303031
 30
0.0
 10
10.5453469761
 20
4.684064067
 30
0.0
 10
10.5526326984
 20
4.6835652893
 30
0.0
 10
10.5598580247
 20
4.6831324273
 30
0.0
 10
10.5669981883
 20
4.6827671586
 30
0.0
 10
10.5740279874
 20
4.6824758382
 30
0.0
 10
10.5786757246
 20
4.6823291398
 30
0.0
 10
10.5809766728
 20
4.6822680007
 30
0.0
  0
SPLINE
  5
3AA
100
AcDbEntity
  8
0
100
AcDbSpline
 62
9
  6
CONTINUOUS
 70
0
 71
3
 72
15
 73
11
 74
0
 42
0.0000001
 43
0.0000001
 44
0.0000000001
 40
0.0
 40
0.0
 40
0.0
 40
0.0
 40
0.1154406915
 40
0.2366172727
 40
0.3620792674
 40
0.4903146858
 40
0.6197800151
 40
0.748916386
 40
0.8761653121
 40
1.0
 40
1.0
 40
1.0
 40
1.0
 10
10.4993887018
 20
4.8150263487
 30
0.0
 10
10.5035562965
 20
4.8159152021
 30
0.0
 10
10.5120845815
 20
4.8178030586
 30
0.0
 10
10.5250947649
 20
4.8208664522
 30
0.0
 10
10.5385244758
 20
4.8242042097
 30
0.0
 10
10.5522102953
 20
4.8277759038
 30
0.0
 10
10.56598561
 20
4.8315381396
 30
0.0
 10
10.5796827104
 20
4.8354451484
 30
0.0
 10
10.5931349861
 20
4.8394493364
 30
0.0
 10
10.6019863056
 20
4.8421993184
 30
0.0
 10
10.6063427419
 20
4.8435839268
 30
0.0
  0
SPLINE
  5
3AB
100
AcDbEntity
  8
0
100
AcDbSpline
 62
9
  6
CONTINUOUS
 70
0
 71
3
 72
63
 73
59
 74
0
 42
0.0000001
 43
0.0000001
 44
0.0000000001
 40
0.0
 40
0.0
 40
0.0
 40
0.0
 40
0.0618623648
 40
0.1236825395
 40
0.1854555754
 40
0.2163226174
 40
0.2471751067
 40
0.2780118374
 40
0.3088313517
 40
0.3396314622
 40
0.3704098134
 40
0.4011632631
 40
0.4318875002
 40
0.4472371437
 40
0.4625772646
 40
0.477906985
 40
0.4932254333
 40
0.5085316111
 40
0.5238249256
 40
0.531467276
 40
0.5391073947
 40
0.5467466343
 40
0.5505664645
 40
0.5543869443
 40
0.5582089917
 40
0.5620336663
 40
0.5658619954
 40
0.5696954717
 40
0.5735373391
 40
0.5773914149
 40
0.5851491812
 40
0.5890621258
 40
0.593001789
 40
0.5969691264
 40
0.600963289
 40
0.6090171754
 40
0.6171387544
 40
0.6253064324
 40
0.6335052898
 40
0.6499562644
 40
0.666442581
 40
0.6829324938
 40
0.6994041137
 40
0.7158417046
 40
0.7322332753
 40
0.7485693184
 40
0.764842387
 40
0.78104668
 40
0.7971776789
 40
0.813233265
 40
0.8451091479
 40
0.8766740018
 40
0.9079297783
 40
0.9234462525
 40
0.9388907984
 40
0.9542673093
 40
0.969577856
 40
1.0
 40
1.0
 40
1.0
 40
1.0
 10
10.4993887102
 20
4.8150263505
 30
0.0
 10
10.5000938857
 20
4.8181082836
 30
0.0
 10
10.5014914663
 20
4.8242728697
 30
0.0
 10
10.5035463592
 20
4.8335254792
 30
0.0
 10
10.5052211754
 20
4.8412397531
 30
0.0
 10
10.5065350034
 20
4.8474127893
 30
0.0
 10
10.5075064655
 20
4.8520422081
 30
0.0
 10
10.5084632779
 20
4.8566721979
 30
0.0
 10
10.5094036296
 20
4.8613028295
 30
0.0
 10
10.5103263668
 20
4.8659339617
 30
0.0
 10
10.5112299655
 20
4.8705654311
 30
0.0
 10
10.5121106274
 20
4.8751973714
 30
0.0
 10
10.5128248144
 20
4.8790582831
 30
0.0
 10
10.5133815112
 20
4.8821471889
 30
0.0
 10
10.5137908754
 20
4.8844631956
 30
0.0
 10
10.5141925038
 20
4.8867789381
 30
0.0
 10
10.514585882
 20
4.8890943376
 30
0.0
 10
10.5149703505
 20
4.8914093483
 30
0.0
 10
10.515283436
 20
4.8933385234
 30
0.0
 10
10.5155327265
 20
4.8948811365
 30
0.0
 10
10.5157193723
 20
4.8960376241
 30
0.0
 10
10.5158768714
 20
4.8970009311
 30
0.0
 10
10.5160049143
 20
4.8977712492
 30
0.0
 10
10.5161023786
 20
4.8983488884
 30
0.0
 10
10.5162028232
 20
4.8989262711
 30
0.0
 10
10.5163076489
 20
4.8995032848
 30
0.0
 10
10.5164176067
 20
4.9000799387
 30
0.0
 10
10.5165337324
 20
4.9006562855
 30
0.0
 10
10.5166608007
 20
4.9012317149
 30
0.0
 10
10.5168505973
 20
4.9019983922
 30
0.0
 10
10.5170762069
 20
4.9027599518
 30
0.0
 10
10.5173517458
 20
4.903508933
 30
0.0
 10
10.5175877074
 20
4.9040652984
 30
0.0
 10
10.517853439
 20
4.904612708
 30
0.0
 10
10.518247614
 20
4.9053303697
 30
0.0
 10
10.5188050522
 20
4.90619895
 30
0.0
 10
10.5195499951
 20
4.9071962983
 30
0.0
 10
10.5203544084
 20
4.908155761
 30
0.0
 10
10.5214902237
 20
4.9093904189
 30
0.0
 10
10.5230024022
 20
4.9108536641
 30
0.0
 10
10.5249244176
 20
4.9124948168
 30
0.0
 10
10.5269334305
 20
4.9140297422
 30
0.0
 10
10.5290138975
 20
4.9154615696
 30
0.0
 10
10.5311528378
 20
4.9167947461
 30
0.0
 10
10.5333404036
 20
4.9180323644
 30
0.0
 10
10.5355691848
 20
4.9191757109
 30
0.0
 10
10.5378327165
 20
4.9202259702
 30
0.0
 10
10.5401251153
 20
4.9211846964
 30
0.0
 10
10.5424416651
 20
4.9220523126
 30
0.0
 10
10.5455481531
 20
4.9230880328
 30
0.0
 10
10.549466977
 20
4.9241727788
 30
0.0
 10
10.5542092002
 20
4.9251547969
 30
0.0
 10
10.5581765399
 20
4.9257137754
 30
0.0
 10
10.561343092
 20
4.926007184
 30
0.0
 10
10.5637071391
 20
4.9261528519
 30
0.0
 10
10.5660639116
 20
4.9262283009
 30
0.0
 10
10.5691872567
 20
4.9262398934
 30
0.0
 10
10.5715243796
 20
4.9261507694
 30
0.0
 10
10.5730758098
 20
4.9260488481
 30
0.0
  0
LINE
  5
3AC
100
AcDbEntity
  8
0
100
AcDbLine
 62
9
  6
CONTINUOUS
 10
11.3824279062
 20
4.7896708002
 11
11.4074533094
 21
4.6933344041
  0
SPLINE
  5
3AD
100
AcDbEntity
  8
0
100
AcDbSpline
 62
9
  6
CONTINUOUS
 70
0
 71
3
 72
19
 73
15
 74
0
 42
0.0000001
 43
0.0000001
 44
0.0000000001
 40
0.0
 40
0.0
 40
0.0
 40
0.0
 40
0.1227145827
 40
0.2494248717
 40
0.3137394997
 40
0.3784041653
 40
0.4432058648
 40
0.5079352261
 40
0.5723884439
 40
0.6363667674
 40
0.6996779064
 40
0.7621357129
 40
0.8837884318
 40
1.0
 40
1.0
 40
1.0
 40
1.0
 10
11.2944080655
 20
4.6822679812
 30
0.0
 10
11.2990562541
 20
4.6823919112
 30
0.0
 10
11.3085015446
 20
4.6827418903
 30
0.0
 10
11.3203720149
 20
4.6834001336
 30
0.0
 10
11.3300377969
 20
4.6840642251
 30
0.0
 10
11.3373586305
 20
4.6846310902
 30
0.0
 10
11.3446900764
 20
4.6852609348
 30
0.0
 10
11.3520081334
 20
4.6859501524
 30
0.0
 10
11.3592890643
 20
4.6866981132
 30
0.0
 10
11.366509853
 20
4.6875029626
 30
0.0
 10
11.3736485817
 20
4.688359219
 30
0.0
 10
11.3829473536
 20
4.6895544781
 30
0.0
 10
11.3942146286
 20
4.6911543574
 30
0.0
 10
11.4031135103
 20
4.6925885147
 30
0.0
 10
11.4074533094
 20
4.6933344041
 30
0.0
  0
SPLINE
  5
3AE
100
AcDbEntity
  8
0
100
AcDbSpline
 62
9
  6
CONTINUOUS
 70
0
 71
3
 72
15
 73
11
 74
0
 42
0.0000001
 43
0.0000001
 44
0.0000000001
 40
0.0
 40
0.0
 40
0.0
 40
0.0
 40
0.1201926488
 40
0.2443374509
 40
0.3711879432
 40
0.499438413
 40
0.6277607541
 40
0.75482554
 40
0.8793230343
 40
1.0
 40
1.0
 40
1.0
 40
1.0
 10
11.3824279062
 20
4.7896708002
 30
0.0
 10
11.3783694346
 20
4.787701895
 30
0.0
 10
11.3700096012
 20
4.7839217189
 30
0.0
 10
11.3570454874
 20
4.7788094766
 30
0.0
 10
11.3435714661
 20
4.7742076259
 30
0.0
 10
11.3297536623
 20
4.7701732581
 30
0.0
 10
11.3157621773
 20
4.7667560119
 30
0.0
 10
11.3017692434
 20
4.7639979927
 30
0.0
 10
11.2879475616
 20
4.7619329135
 30
0.0
 10
11.2787870482
 20
4.7610175892
 30
0.0
 10
11.2742700285
 20
4.7606880045
 30
0.0
  0
SPLINE
  5
3AF
100
AcDbEntity
  8
0
100
AcDbSpline
 62
9
  6
CONTINUOUS
 70
0
 71
3
 72
55
 73
51
 74
0
 42
0.0000001
 43
0.0000001
 44
0.0000000001
 40
0.0
 40
0.0
 40
0.0
 40
0.0
 40
0.0304227186
 40
0.0457336307
 40
0.0611105538
 40
0.092068693
 40
0.1233249176
 40
0.1548904264
 40
0.1867667944
 40
0.2189487153
 40
0.2351532428
 40
0.2514265776
 40
0.267762863
 40
0.2841546792
 40
0.3005925183
 40
0.317064362
 40
0.3335545194
 40
0.3500410654
 40
0.3664922146
 40
0.3746911697
 40
0.3828590083
 40
0.390980625
 40
0.3990345323
 40
0.4069940625
 40
0.4148443068
 40
0.4226019531
 40
0.4302983036
 40
0.4379596026
 40
0.4456063433
 40
0.4532468426
 40
0.4608861005
 40
0.4685263901
 40
0.4761687805
 40
0.4914623092
 40
0.5067686447
 40
0.5220872847
 40
0.5374171815
 40
0.5527574989
 40
0.5681073196
 40
0.5988319269
 40
0.6295857449
 40
0.6603644636
 40
0.6911649535
 40
0.72198483
 40
0.7528219267
 40
0.7836747947
 40
0.8145422032
 40
0.8763159808
 40
0.9381368962
 40
1.0
 40
1.0
 40
1.0
 40
1.0
 10
11.3023089001
 20
4.9260489276
 30
0.0
 10
11.3038603354
 20
4.9261508834
 30
0.0
 10
11.3061974546
 20
4.9262402785
 30
0.0
 10
11.3093208516
 20
4.9262286371
 30
0.0
 10
11.3124700752
 20
4.9261274113
 30
0.0
 10
11.3164264848
 20
4.9258236022
 30
0.0
 10
11.3211756187
 20
4.9251552103
 30
0.0
 10
11.3259179082
 20
4.924172382
 30
0.0
 10
11.3306313823
 20
4.9228685616
 30
0.0
 10
11.3345028815
 20
4.9215011307
 30
0.0
 10
11.3375521561
 20
4.9202259249
 30
0.0
 10
11.3398157008
 20
4.9191756358
 30
0.0
 10
11.3420444869
 20
4.9180323058
 30
0.0
 10
11.3442320332
 20
4.9167946406
 30
0.0
 10
11.3463708908
 20
4.9154613352
 30
0.0
 10
11.3484514364
 20
4.9140296219
 30
0.0
 10
11.3504604196
 20
4.9124946544
 30
0.0
 10
11.3523824422
 20
4.9108535163
 30
0.0
 10
11.3538946053
 20
4.9093902593
 30
0.0
 10
11.3550303813
 20
4.9081555659
 30
0.0
 10
11.3558349254
 20
4.9071962332
 30
0.0
 10
11.3565797745
 20
4.9061987499
 30
0.0
 10
11.357246661
 20
4.9051595771
 30
0.0
 10
11.3578103392
 20
4.9040757034
 30
0.0
 10
11.3582515498
 20
4.9029528081
 30
0.0
 10
11.3585889872
 20
4.9018095742
 30
0.0
 10
11.3588570339
 20
4.9006586119
 30
0.0
 10
11.3590788424
 20
4.8995039338
 30
0.0
 10
11.3592836533
 20
4.8983491393
 30
0.0
 10
11.3594764014
 20
4.8971934075
 30
0.0
 10
11.3596651605
 20
4.8960373677
 30
0.0
 10
11.3598522123
 20
4.8948809498
 30
0.0
 10
11.3601011009
 20
4.8933382725
 30
0.0
 10
11.3604145314
 20
4.8914091599
 30
0.0
 10
11.3607987808
 20
4.8890941178
 30
0.0
 10
11.3611922422
 20
4.8867787387
 30
0.0
 10
11.3615938163
 20
4.8844629913
 30
0.0
 10
11.3620032526
 20
4.8821470026
 30
0.0
 10
11.3625598661
 20
4.8790580884
 30
0.0
 10
11.3632741294
 20
4.8751971997
 30
0.0
 10
11.3641547324
 20
4.8705652588
 30
0.0
 10
11.365058367
 20
4.8659338063
 30
0.0
 10
11.3659810625
 20
4.8613026763
 30
0.0
 10
11.3669214464
 20
4.8566720618
 30
0.0
 10
11.3678782501
 20
4.8520420809
 30
0.0
 10
11.3688497039
 20
4.8474126707
 30
0.0
 10
11.3701635327
 20
4.8412396484
 30
0.0
 10
11.3718383409
 20
4.8335253906
 30
0.0
 10
11.3738932351
 20
4.8242728026
 30
0.0
 10
11.3752908128
 20
4.8181082301
 30
0.0
 10
11.3759959862
 20
4.8150263037
 30
0.0
  0
SPLINE
  5
3B0
100
AcDbEntity
  8
0
100
AcDbSpline
 62
9
  6
CONTINUOUS
 70
0
 71
3
 72
15
 73
11
 74
0
 42
0.0000001
 43
0.0000001
 44
0.0000000001
 40
0.0
 40
0.0
 40
0.0
 40
0.0
 40
0.1154407082
 40
0.2366172925
 40
0.3620792808
 40
0.4903146888
 40
0.6197800082
 40
0.748916373
 40
0.8761653001
 40
1.0
 40
1.0
 40
1.0
 40
1.0
 10
11.3759959862
 20
4.8150263037
 30
0.0
 10
11.3718283849
 20
4.8159151338
 30
0.0
 10
11.3633000866
 20
4.8178029427
 30
0.0
 10
11.3502898895
 20
4.820866293
 30
0.0
 10
11.3368601708
 20
4.8242040302
 30
0.0
 10
11.3231743499
 20
4.8277757274
 30
0.0
 10
11.3093990381
 20
4.8315379816
 30
0.0
 10
11.2957019447
 20
4.8354450245
 30
0.0
 10
11.2822496807
 20
4.8394492635
 30
0.0
 10
11.2733983729
 20
4.8421992919
 30
0.0
 10
11.2690419435
 20
4.8435839268
 30
0.0
  0
SPLINE
  5
3B1
100
AcDbEntity
  8
0
100
AcDbSpline
 62
9
  6
CONTINUOUS
 70
0
 71
3
 72
15
 73
11
 74
0
 42
0.0000001
 43
0.0000001
 44
0.0000000001
 40
0.0
 40
0.0
 40
0.0
 40
0.0
 40
0.1173458337
 40
0.2400939997
 40
0.3666605453
 40
0.4954814019
 40
0.6248841044
 40
0.7531821219
 40
0.8787725081
 40
1.0
 40
1.0
 40
1.0
 40
1.0
 10
11.3972419513
 20
4.7932379187
 30
0.0
 10
11.3966419384
 20
4.7932267316
 30
0.0
 10
11.3954147989
 20
4.7931638348
 30
0.0
 10
11.3935497601
 20
4.7929612747
 30
0.0
 10
11.3916401434
 20
4.7926507804
 30
0.0
 10
11.3897154047
 20
4.7922372508
 30
0.0
 10
11.3878049069
 20
4.7917268303
 30
0.0
 10
11.3859377328
 20
4.7911274331
 30
0.0
 10
11.3841427547
 20
4.7904481932
 30
0.0
 10
11.3829872807
 20
4.7899381233
 30
0.0
 10
11.3824279054
 20
4.7896708032
 30
0.0
  0
SPLINE
  5
3B2
100
AcDbEntity
  8
0
100
AcDbSpline
 62
9
  6
CONTINUOUS
 70
0
 71
3
 72
15
 73
11
 74
0
 42
0.0000001
 43
0.0000001
 44
0.0000000001
 40
0.0
 40
0.0
 40
0.0
 40
0.0
 40
0.1159737938
 40
0.2374687066
 40
0.3630426871
 40
0.4912679939
 40
0.6206132103
 40
0.7495233774
 40
0.8765059038
 40
1.0
 40
1.0
 40
1.0
 40
1.0
 10
11.3899680849
 20
4.8188800925
 30
0.0
 10
11.3894061691
 20
4.8188395985
 30
0.0
 10
11.3882578696
 20
4.8187224528
 30
0.0
 10
11.386514373
 20
4.818452636
 30
0.0
 10
11.3847275436
 20
4.8180874538
 30
0.0
 10
11.3829222519
 20
4.8176320643
 30
0.0
 10
11.3811233645
 20
4.8170926023
 30
0.0
 10
11.3793556069
 20
4.8164765849
 30
0.0
 10
11.3776436554
 20
4.8157924978
 30
0.0
 10
11.3765355577
 20
4.8152885217
 30
0.0
 10
11.3759959934
 20
4.8150263077
 30
0.0
  0
SPLINE
  5
3B3
100
AcDbEntity
  8
0
100
AcDbSpline
 62
9
  6
CONTINUOUS
 70
0
 71
3
 72
11
 73
7
 74
0
 42
0.0000001
 43
0.0000001
 44
0.0000000001
 40
0.0
 40
0.0
 40
0.0
 40
0.0
 40
0.2393569286
 40
0.4877957669
 40
0.7423753886
 40
1.0
 40
1.0
 40
1.0
 40
1.0
 10
11.3015976237
 20
4.9334176935
 30
0.0
 10
11.301716724
 20
4.9328382394
 30
0.0
 10
11.3019247318
 20
4.9316500038
 30
0.0
 10
11.3021459372
 20
4.9298278629
 30
0.0
 10
11.3022797627
 20
4.9279519942
 30
0.0
 10
11.3023095905
 20
4.9266858828
 30
0.0
 10
11.3023095471
 20
4.9260491671
 30
0.0
  0
ENDSEC
  0
SECTION
  2
OBJECTS
  0
DICTIONARY
  5
C
100
AcDbDictionary
280
0
281
1
  3
ACAD_GROUP
350
D
  3
ACAD_MLINESTYLE
350
17
  3
ACAD_LAYOUT
350
1A
  3
ACAD_PLOTSETTINGS
350
19
  3
ACAD_PLOTSTYLENAME
350
E
  0
DICTIONARY
  5
D
102
{ACAD_REACTORS
330
C
102
}
100
AcDbDictionary
280
0
281
1
  0
ACDBDICTIONARYWDFLT
  5
E
102
{ACAD_REACTORS
330
C
102
}
100
AcDbDictionary
281
1
  3
Normal
350
F
100
AcDbDictionaryWithDefault
340
F
  0
DICTIONARY
  5
17
102
{ACAD_REACTORS
330
C
102
}
100
AcDbDictionary
280
0
281
1
  3
Standard
350
18
  0
DICTIONARY
  5
19
102
{ACAD_REACTORS
330
C
102
}
100
AcDbDictionary
281
1
  0
DICTIONARY
  5
1A
102
{ACAD_REACTORS
330
C
102
}
100
AcDbDictionary
281
1
  3
Model
350
3B4
  3
Layout1
350
3B5
  0
ACDBPLACEHOLDER
  5
F
102
{ACAD_REACTORS
330
E
102
}
  0
MLINESTYLE
  5
18
102
{ACAD_REACTORS
330
17
102
}
100
AcDbMlineStyle
  2
STANDARD
 70
0
  3

 62
256
 51
90.0
 52
90.0
 71
2
 49
0.5
 62
256
  6
BYLAYER
 49
-0.5
 62
256
  6
BYLAYER
  0
LAYOUT
  5
3B4
102
{ACAD_REACTORS
330
1A
102
}
100
AcDbPlotSettings
  1

  2
none_device
  4
ANSI_C_(22.00_x_17.00_Inches)
  6

 40
0.0
 41
0.0
 42
0.0
 43
0.0
 44
558.8
 45
431.8
 46
0.0
 47
0.0
 48
0.0
 49
0.0
140
0.0
141
0.0
142
1.0
143
1.0
 70
1024
 72
0
 73
0
 74
0
  7

 75
0
147
1.0
148
0.0
149
0.0
100
AcDbLayout
  1
Model
 70
0
 71
0
 10
0.0
 20
0.0
 11
22.0
 21
17.0
 12
0.0
 22
0.0
 32
0.0
 14
0.0
 24
0.0
 34
0.0
 15
0.0
 25
0.0
 35
0.0
146
0.0
 13
0.0
 23
0.0
 33
0.0
 16
1.0
 26
0.0
 36
0.0
 17
0.0
 27
1.0
 37
0.0
 76
0
330
205
345
0
346
0
  0
LAYOUT
  5
3B5
102
{ACAD_REACTORS
330
1A
102
}
100
AcDbPlotSettings
  1

  2
none_device
  4
ANSI_C_(22.00_x_17.00_Inches)
  6

 40
0.0
 41
0.0
 42
0.0
 43
0.0
 44
558.8
 45
431.8
 46
0.0
 47
0.0
 48
0.0
 49
0.0
140
0.0
141
0.0
142
1.0
143
1.0
 70
0
 72
0
 73
0
 74
0
  7

 75
0
147
1.0
148
0.0
149
0.0
100
AcDbLayout
  1
Layout1
 70
0
 71
1
 10
0.0
 20
0.0
 11
22.0
 21
17.0
 12
0.0
 22
0.0
 32
0.0
 14
0.0
 24
0.0
 34
0.0
 15
0.0
 25
0.0
 35
0.0
146
0.0
 13
0.0
 23
0.0
 33
0.0
 16
1.0
 26
0.0
 36
0.0
 17
0.0
 27
1.0
 37
0.0
 76
0
330
206
345
0
346
0
  0
ENDSEC
  0
EOF
