999
DXF file: E:\BT Custom\CADOUTPUT\_RIGHT.dxf
999
Pro/ENGINEER 2018400 by Parametric Technology Corporation
  0
SECTION
  2
HEADER
  9
$ACADVER
  1
AC1018
  9
$DWGCODEPAGE
  3
ANSI_1252
  9
$EXTMAX
 10
22.0
 20
17.0
 30
0.0
  9
$EXTMIN
 10
0.0
 20
0.0
 30
0.0
  9
$LIMMIN
 10
0.0
 20
0.0
  9
$LIMMAX
 10
22.0
 20
17.0
  9
$VIEWCTR
 10
11.0
 20
8.5
  9
$VIEWSIZE
 40
17.0
  9
$CLAYER
  8
0
  9
$LTSCALE
 40
1.21
  9
$CELTYPE
  6
BYLAYER
  9
$DIMSCALE
 40
1.0
  9
$DIMASZ
 40
0.1
  9
$DIMEXO
 40
0.0625
  9
$DIMDLI
 40
0.836
  9
$DIMEXE
 40
0.125
  9
$DIMCEN
 40
0.198
  9
$DIMLFAC
 40
1.0
  9
$DIMBLK
  1
_FILLED
  9
$DIMALT
 70
1
  9
$DIMALTD
 70
2
  9
$DIMALTTD
 70
2
  9
$DIMALTF
 40
25.4
  9
$DIMTXT
 40
0.08
  9
$DIMTOL
 70
1
  9
$DIMLIM
 70
0
  9
$DIMTFAC
 40
1.0
  9
$DIMTP
 40
0.001
  9
$DIMTM
 40
0.001
  9
$DIMGAP
 40
0.09
  9
$DIMDSEP
 70
46
  9
$AUNITS
 70
0
  9
$PDMODE
 70
3
  9
$PDSIZE
 40
0.06
  9
$HANDSEED
  5
34E
  9
$TILEMODE
 70
1
  9
$MEASUREMENT
 70
0
  9
$INSUNITS
 70
1
  0
ENDSEC
  0
SECTION
  2
CLASSES
  0
CLASS
  1
ACDBDICTIONARYWDFLT
  2
AcDbDictionaryWithDefault
  3
AutoCAD 2000
 90
0
 91
1
280
0
281
0
  0
CLASS
  1
ACDBPLACEHOLDER
  2
AcDbPlaceHolder
  3
AutoCAD 2000
 90
0
 91
1
280
0
281
0
  0
CLASS
  1
LAYOUT
  2
AcDbLayout
  3
AutoCAD 2000
 90
0
 91
0
280
0
281
0
  0
ENDSEC
  0
SECTION
  2
TABLES
  0
TABLE
  2
VPORT
  5
8
100
AcDbSymbolTable
 70
2
  0
VPORT
  5
1F4
100
AcDbSymbolTableRecord
100
AcDbViewportTableRecord
  2
*ACTIVE
 70
0
 10
0.0
 20
0.0
 11
1.0
 21
1.0
 12
11.0
 22
8.5
 13
0.0
 23
0.0
 14
1.0
 24
1.0
 15
0.0
 25
0.0
 16
0.0
 26
0.0
 36
1.0
 17
0.0
 27
0.0
 37
0.0
 40
17.0
 41
1.2941176471
 42
50.0
 43
0.0
 44
0.0
 50
0.0
 51
0.0
 71
0
 72
100
 73
1
 74
1
 75
0
 76
0
 77
0
 78
0
  0
ENDTAB
  0
TABLE
  2
LTYPE
  5
5
100
AcDbSymbolTable
 70
6
  0
LTYPE
  5
14
100
AcDbSymbolTableRecord
100
AcDbLinetypeTableRecord
  2
BYBLOCK
 70
0
  3

 72
65
 73
0
 40
0.0
  0
LTYPE
  5
15
100
AcDbSymbolTableRecord
100
AcDbLinetypeTableRecord
  2
BYLAYER
 70
0
  3

 72
65
 73
0
 40
0.0
  0
LTYPE
  5
16
100
AcDbSymbolTableRecord
100
AcDbLinetypeTableRecord
  2
CONTINUOUS
 70
64
  3
Solid line
 72
65
 73
0
 40
0.0
  0
LTYPE
  5
1F5
100
AcDbSymbolTableRecord
100
AcDbLinetypeTableRecord
  2
CENTER
 70
64
  3
____ _ ____ _ ____ _ ____ _ ____ _ ____ _ ____
 72
65
 73
4
 40
0.6
 49
0.375
 74
0
 49
-0.075
 74
0
 49
0.075
 74
0
 49
-0.075
 74
0
  0
LTYPE
  5
1F6
100
AcDbSymbolTableRecord
100
AcDbLinetypeTableRecord
  2
HIDDEN
 70
64
  3
- - - - - - - - - - - - - - - - - - - -
 72
65
 73
2
 40
0.2
 49
0.1
 74
0
 49
-0.1
 74
0
  0
LTYPE
  5
1F7
100
AcDbSymbolTableRecord
100
AcDbLinetypeTableRecord
  2
PHANTOM
 70
64
  3
_____ _ _ _____ _ _ _____ _ _ _____
 72
65
 73
6
 40
0.8
 49
0.45
 74
0
 49
-0.05
 74
0
 49
0.1
 74
0
 49
-0.05
 74
0
 49
0.1
 74
0
 49
-0.05
 74
0
  0
LTYPE
  5
1F8
100
AcDbSymbolTableRecord
100
AcDbLinetypeTableRecord
  2
DOT
 70
64
  3
. . . . . . . . . . . . . . . . . . . .
 72
65
 73
2
 40
0.2
 49
0.1
 74
0
 49
-0.1
 74
0
  0
LTYPE
  5
1F9
100
AcDbSymbolTableRecord
100
AcDbLinetypeTableRecord
  2
DASHED
 70
64
  3
- - - - - - - - - - - - - - - - - - - -
 72
65
 73
2
 40
0.2
 49
0.1
 74
0
 49
-0.1
 74
0
  0
ENDTAB
  0
TABLE
  2
LAYER
  5
2
100
AcDbSymbolTable
 70
36
  0
LAYER
  5
10
100
AcDbSymbolTableRecord
100
AcDbLayerTableRecord
  2
0
 70
0
 62
7
  6
CONTINUOUS
370
-3
390
F
  0
LAYER
  5
1FA
100
AcDbSymbolTableRecord
100
AcDbLayerTableRecord
  2
DEFAULT_1
 70
0
 62
7
  6
CENTER
370
-3
390
F
  0
LAYER
  5
1FB
100
AcDbSymbolTableRecord
100
AcDbLayerTableRecord
  2
DEFAULT_2
 70
0
 62
8
  6
HIDDEN
370
-3
390
F
  0
LAYER
  5
1FC
100
AcDbSymbolTableRecord
100
AcDbLayerTableRecord
  2
DEFAULT_3
 70
0
 62
7
  6
PHANTOM
370
-3
390
F
  0
LAYER
  5
1FD
100
AcDbSymbolTableRecord
100
AcDbLayerTableRecord
  2
ALL_FEATURES
 70
0
 62
7
  6
CONTINUOUS
370
-3
390
F
  0
LAYER
  5
1FE
100
AcDbSymbolTableRecord
100
AcDbLayerTableRecord
  2
AXES_FEATURES
 70
0
 62
7
  6
CONTINUOUS
370
-3
390
F
  0
LAYER
  5
1FF
100
AcDbSymbolTableRecord
100
AcDbLayerTableRecord
  2
DEFAULT_COORDINATE_SYSTEM
 70
0
 62
7
  6
CONTINUOUS
370
-3
390
F
  0
LAYER
  5
200
100
AcDbSymbolTableRecord
100
AcDbLayerTableRecord
  2
DEFAULT_DATUM_AXES
 70
0
 62
7
  6
CONTINUOUS
370
-3
390
F
  0
LAYER
  5
201
100
AcDbSymbolTableRecord
100
AcDbLayerTableRecord
  2
DEFAULT_DATUM_PLANES
 70
0
 62
7
  6
CONTINUOUS
370
-3
390
F
  0
LAYER
  5
202
100
AcDbSymbolTableRecord
100
AcDbLayerTableRecord
  2
DIMENSIONS
 70
0
 62
7
  6
CONTINUOUS
370
-3
390
F
  0
ENDTAB
  0
TABLE
  2
STYLE
  5
3
100
AcDbSymbolTable
 70
1
  0
STYLE
  5
11
100
AcDbSymbolTableRecord
100
AcDbTextStyleTableRecord
  2
STANDARD
 70
0
 40
0.0
 41
0.8
 50
0.0
 71
0
 42
0.2
  3
txt
  4

  0
STYLE
  5
203
100
AcDbSymbolTableRecord
100
AcDbTextStyleTableRecord
  2
TEXTSTYLE_1
 70
0
 40
0.0
 41
0.8
 50
0.0
 71
0
 42
0.2
  3
gdt
  4

  0
ENDTAB
  0
TABLE
  2
VIEW
  5
6
100
AcDbSymbolTable
 70
0
  0
ENDTAB
  0
TABLE
  2
UCS
  5
7
100
AcDbSymbolTable
 70
0
  0
ENDTAB
  0
TABLE
  2
APPID
  5
9
100
AcDbSymbolTable
 70
1
  0
APPID
  5
204
100
AcDbSymbolTableRecord
100
AcDbRegAppTableRecord
  2
ACAD
 70
0
  0
ENDTAB
  0
TABLE
  2
BLOCK_RECORD
  5
1
100
AcDbSymbolTable
 70
0
  0
BLOCK_RECORD
  5
205
100
AcDbSymbolTableRecord
100
AcDbBlockTableRecord
  2
*Model_Space
  0
BLOCK_RECORD
  5
206
100
AcDbSymbolTableRecord
100
AcDbBlockTableRecord
  2
*Paper_Space
  0
BLOCK_RECORD
  5
207
100
AcDbSymbolTableRecord
100
AcDbBlockTableRecord
  2
_FILLED
  0
ENDTAB
  0
TABLE
  2
DIMSTYLE
  5
A
100
AcDbSymbolTable
 70
1
100
AcDbDimStyleTable
 71
0
  0
DIMSTYLE
105
208
100
AcDbSymbolTableRecord
100
AcDbDimStyleTableRecord
  2
STANDARD
 70
0
  3

  4

 40
1.0
 41
0.1
 42
0.0625
 43
0.38
 44
0.125
 45
0.0
 46
0.0
 47
0.001
 48
0.001
140
0.08
141
0.09
142
0.0
143
25.4
144
1.0
145
0.0
146
1.0
147
0.09
 71
1.0
 72
0.0
 73
1
 74
1
 75
0
 76
0
 77
0
 78
4
 79
1
170
1
171
2
172
0
173
0
174
0
175
0
176
0
177
0
178
0
270
2
179
3
271
3
272
3
273
2
274
2
275
0
280
0
281
0
282
0
283
1
284
4
285
0
286
0
287
3
288
0
340
11
278
46
341
207
342
207
343
207
344
207
  0
ENDTAB
  0
ENDSEC
  0
SECTION
  2
BLOCKS
  0
BLOCK
  5
20
100
AcDbEntity
  8
0
100
AcDbBlockBegin
  2
*Model_Space
 70
0
 10
0.0
 20
0.0
 30
0.0
  3
*Model_Space
  1

  0
ENDBLK
  5
21
100
AcDbEntity
  8
0
100
AcDbBlockEnd
  0
BLOCK
  5
1C
100
AcDbEntity
  8
0
100
AcDbBlockBegin
  2
*Paper_Space
 70
0
 10
0.0
 20
0.0
 30
0.0
  3
*Paper_Space
  1

  0
ENDBLK
  5
1D
100
AcDbEntity
  8
0
100
AcDbBlockEnd
  0
BLOCK
  5
209
100
AcDbEntity
  8
0
100
AcDbBlockBegin
  2
_FILLED
 70
64
 10
0.0
 20
0.0
  3
_FILLED
  1

  0
SOLID
  5
20A
100
AcDbEntity
  8
0
  6
BYBLOCK
 62
0
100
AcDbTrace
 10
0.0
 20
0.0
 11
-1.0
 21
0.2
 12
-1.0
 22
-0.2
 13
-1.0
 23
-0.2
  0
ENDBLK
  5
20B
100
AcDbEntity
  8
0
  6
BYBLOCK
 62
0
100
AcDbBlockEnd
  0
ENDSEC
  0
SECTION
  2
ENTITIES
  0
LINE
  5
20C
100
AcDbEntity
  8
0
100
AcDbLine
 62
7
  6
CONTINUOUS
 10
11.6304179548
 20
4.2975169643
 11
13.7554179548
 21
4.2975169643
  0
LINE
  5
20D
100
AcDbEntity
  8
0
100
AcDbLine
 62
9
  6
CONTINUOUS
 10
11.6304179548
 20
4.377999164
 11
13.7554179548
 21
4.377999164
  0
LINE
  5
20E
100
AcDbEntity
  8
0
100
AcDbLine
 62
9
  6
CONTINUOUS
 10
13.7552970146
 20
4.3823964144
 11
13.6625914117
 21
4.3823964144
  0
LINE
  5
20F
100
AcDbEntity
  8
0
100
AcDbLine
 62
9
  6
CONTINUOUS
 10
13.5536359735
 20
4.3823964144
 11
12.8018730659
 21
4.3823964144
  0
LINE
  5
210
100
AcDbEntity
  8
0
100
AcDbLine
 62
9
  6
CONTINUOUS
 10
12.5839622887
 20
4.3823964144
 11
11.8321996091
 21
4.3823964144
  0
LINE
  5
211
100
AcDbEntity
  8
0
100
AcDbLine
 62
9
  6
CONTINUOUS
 10
11.72324427
 20
4.3823964144
 11
11.6305388951
 21
4.3823964144
  0
LINE
  5
212
100
AcDbEntity
  8
0
100
AcDbLine
 62
7
  6
CONTINUOUS
 10
11.737822723
 20
4.3975169639
 11
11.7378259999
 21
4.3975169643
  0
LINE
  5
213
100
AcDbEntity
  8
0
100
AcDbLine
 62
7
  6
CONTINUOUS
 10
13.7393212026
 20
4.3975169643
 11
13.6480096852
 21
4.3975169643
  0
LINE
  5
214
100
AcDbEntity
  8
0
100
AcDbLine
 62
7
  6
CONTINUOUS
 10
13.5406926942
 20
4.3975169643
 11
12.8002346237
 21
4.3975169643
  0
LINE
  5
215
100
AcDbEntity
  8
0
100
AcDbLine
 62
7
  6
CONTINUOUS
 10
12.5856007393
 20
4.3975169643
 11
11.8451428933
 21
4.3975169643
  0
LINE
  5
216
100
AcDbEntity
  8
0
100
AcDbLine
 62
7
  6
CONTINUOUS
 10
11.737826
 20
4.3975169643
 11
11.646514707
 21
4.3975169643
  0
LINE
  5
217
100
AcDbEntity
  8
0
100
AcDbLine
 62
9
  6
CONTINUOUS
 10
13.6282908186
 20
4.4148417961
 11
13.5803935465
 21
4.4148417961
  0
LINE
  5
218
100
AcDbEntity
  8
0
100
AcDbLine
 62
9
  6
CONTINUOUS
 10
11.7575451063
 20
4.4148417961
 11
11.8054423808
 21
4.4148417961
  0
LINE
  5
219
100
AcDbEntity
  8
0
100
AcDbLine
 62
9
  6
CONTINUOUS
 10
12.6450206979
 20
4.4148417961
 11
12.7408152439
 21
4.4148417961
  0
LINE
  5
21A
100
AcDbEntity
  8
0
100
AcDbLine
 62
9
  6
CONTINUOUS
 10
13.6738286816
 20
4.4244903193
 11
13.6235431166
 21
4.4244903193
  0
LINE
  5
21B
100
AcDbEntity
  8
0
100
AcDbLine
 62
9
  6
CONTINUOUS
 10
13.4587179675
 20
4.4244903193
 11
12.8408683472
 21
4.4244903193
  0
LINE
  5
21C
100
AcDbEntity
  8
0
100
AcDbLine
 62
9
  6
CONTINUOUS
 10
12.5449675624
 20
4.4244903193
 11
11.9271179421
 21
4.4244903193
  0
LINE
  5
21D
100
AcDbEntity
  8
0
100
AcDbLine
 62
9
  6
CONTINUOUS
 10
11.762293256
 20
4.4244903193
 11
11.712007228
 21
4.4244903193
  0
LINE
  5
21E
100
AcDbEntity
  8
0
100
AcDbLine
 62
9
  6
CONTINUOUS
 10
13.6331422806
 20
4.5029103064
 11
13.5871401777
 21
4.5029103064
  0
LINE
  5
21F
100
AcDbEntity
  8
0
100
AcDbLine
 62
9
  6
CONTINUOUS
 10
13.4233609921
 20
4.5029103064
 11
12.8403913397
 21
4.5029103064
  0
LINE
  5
220
100
AcDbEntity
  8
0
100
AcDbLine
 62
9
  6
CONTINUOUS
 10
12.54544457
 20
4.5029103064
 11
11.9624749176
 21
4.5029103064
  0
LINE
  5
221
100
AcDbEntity
  8
0
100
AcDbLine
 62
9
  6
CONTINUOUS
 10
11.7986957386
 20
4.5029103064
 11
11.7526936291
 21
4.5029103064
  0
LWPOLYLINE
  5
222
100
AcDbEntity
  8
0
100
AcDbPolyline
 62
7
  6
CONTINUOUS
 90
16
 70
0
 10
13.6480133424
 20
4.3975169638
 10
13.6474808058
 20
4.3975397269
 10
13.6469262794
 20
4.3976221742
 10
13.6463647357
 20
4.397776154
 10
13.6456926514
 20
4.3980473392
 10
13.644849894
 20
4.3984960999
 10
13.6438187384
 20
4.3991762121
 10
13.6426239161
 20
4.4001088836
 10
13.6412936152
 20
4.4012983392
 10
13.6398591165
 20
4.4027280915
 10
13.6383451987
 20
4.404375572
 10
13.6367669728
 20
4.4062166878
 10
13.635132553
 20
4.4082309688
 10
13.6334423925
 20
4.410401968
 10
13.6316940201
 20
4.4127163204
 10
13.6298834389
 20
4.4151621109
  0
LINE
  5
223
100
AcDbEntity
  8
0
100
AcDbLine
 62
9
  6
CONTINUOUS
 10
13.6129179548
 20
4.5858062287
 11
13.551176332
 21
4.5858062287
  0
LINE
  5
224
100
AcDbEntity
  8
0
100
AcDbLine
 62
9
  6
CONTINUOUS
 10
13.4090043152
 20
4.5858062287
 11
12.8350899716
 21
4.5858062287
  0
LINE
  5
225
100
AcDbEntity
  8
0
100
AcDbLine
 62
9
  6
CONTINUOUS
 10
12.550745938
 20
4.5858062287
 11
11.9768315944
 21
4.5858062287
  0
LINE
  5
226
100
AcDbEntity
  8
0
100
AcDbLine
 62
9
  6
CONTINUOUS
 10
11.8346595776
 20
4.5858062287
 11
11.7729179548
 21
4.5858062287
  0
LINE
  5
227
100
AcDbEntity
  8
0
100
AcDbLine
 62
9
  6
CONTINUOUS
 10
11.7729179548
 20
4.668271469
 11
11.8482558275
 21
4.6682720376
  0
LINE
  5
228
100
AcDbEntity
  8
0
100
AcDbLine
 62
9
  6
CONTINUOUS
 10
11.9548189051
 20
4.668272009
 11
12.5863548725
 21
4.6682720376
  0
LINE
  5
229
100
AcDbEntity
  8
0
100
AcDbLine
 62
9
  6
CONTINUOUS
 10
12.7994810292
 20
4.668272009
 11
13.4310169998
 21
4.6682720376
  0
LINE
  5
22A
100
AcDbEntity
  8
0
100
AcDbLine
 62
9
  6
CONTINUOUS
 10
13.537580079
 20
4.668272009
 11
13.6129179548
 21
4.668271469
  0
LINE
  5
22B
100
AcDbEntity
  8
0
100
AcDbLine
 62
9
  6
CONTINUOUS
 10
13.611120237
 20
4.6756399954
 11
13.5359248624
 21
4.6756399954
  0
LINE
  5
22C
100
AcDbEntity
  8
0
100
AcDbLine
 62
9
  6
CONTINUOUS
 10
12.5865752213
 20
4.6756399954
 11
11.9562540446
 21
4.6756399954
  0
LINE
  5
22D
100
AcDbEntity
  8
0
100
AcDbLine
 62
9
  6
CONTINUOUS
 10
11.849911155
 20
4.6756399954
 11
11.7747156727
 21
4.6756399954
  0
LINE
  5
22E
100
AcDbEntity
  8
0
100
AcDbLine
 62
9
  6
CONTINUOUS
 10
12.7992724721
 20
4.6756409716
 11
13.4295745113
 21
4.6756409755
  0
LINE
  5
22F
100
AcDbEntity
  8
0
100
AcDbLine
 62
9
  6
CONTINUOUS
 10
11.7850422036
 20
4.6955436094
 11
13.6007937061
 21
4.6955436094
  0
LINE
  5
230
100
AcDbEntity
  8
0
100
AcDbLine
 62
7
  6
CONTINUOUS
 10
13.5564115743
 20
4.7225169643
 11
11.8294243353
 21
4.7225169643
  0
LINE
  5
231
100
AcDbEntity
  8
0
100
AcDbLine
 62
7
  6
CONTINUOUS
 10
7.7621891259
 20
11.4454900468
 11
7.7616846753
 21
11.4446233883
  0
LINE
  5
232
100
AcDbEntity
  8
0
100
AcDbLine
 62
7
  6
CONTINUOUS
 10
8.0936864029
 20
12.0775673227
 11
7.8645329068
 21
11.4479732667
  0
LINE
  5
233
100
AcDbEntity
  8
0
100
AcDbLine
 62
7
  6
CONTINUOUS
 10
7.7295925376
 20
11.1764611488
 11
7.7390350289
 21
11.2009058327
  0
LINE
  5
234
100
AcDbEntity
  8
0
100
AcDbLine
 62
7
  6
CONTINUOUS
 10
8.2632249119
 20
10.9822348485
 11
8.2717042839
 21
11.0070300791
  0
LINE
  5
235
100
AcDbEntity
  8
0
100
AcDbLine
 62
7
  6
CONTINUOUS
 10
8.5635327133
 20
11.906557251
 11
8.3343792172
 21
11.2769631951
  0
LINE
  5
236
100
AcDbEntity
  8
0
100
AcDbLine
 62
7
  6
CONTINUOUS
 10
8.3691377599
 20
11.1579521005
 11
8.3789182013
 21
11.1639144393
  0
LINE
  5
237
100
AcDbEntity
  8
0
100
AcDbLine
 62
7
  6
CONTINUOUS
 10
8.381600258
 20
11.1654880757
 11
8.3789182014
 21
11.163914439
  0
LINE
  5
238
100
AcDbEntity
  8
0
100
AcDbLine
 62
7
  6
CONTINUOUS
 10
8.4111829189
 20
11.2092756239
 11
8.4110122732
 21
11.2082874703
  0
LINE
  5
239
100
AcDbEntity
  8
0
100
AcDbLine
 62
7
  6
CONTINUOUS
 10
12.4694179548
 20
6.8385169643
 11
12.9164179548
 21
6.8385169643
  0
LINE
  5
23A
100
AcDbEntity
  8
0
100
AcDbLine
 62
9
  6
CONTINUOUS
 10
12.3749179548
 20
6.9330169643
 11
13.0109179548
 21
6.9330169643
  0
LINE
  5
23B
100
AcDbEntity
  8
0
100
AcDbLine
 62
9
  6
CONTINUOUS
 10
12.3749179548
 20
7.0445169643
 11
13.0109179548
 21
7.0445169643
  0
LINE
  5
23C
100
AcDbEntity
  8
0
100
AcDbLine
 62
7
  6
CONTINUOUS
 10
12.3849179548
 20
7.0545169643
 11
13.0009179548
 21
7.0545169643
  0
LINE
  5
23D
100
AcDbEntity
  8
0
100
AcDbLine
 62
9
  6
CONTINUOUS
 10
12.9521866687
 20
7.0647787338
 11
12.4336492409
 21
7.0647787338
  0
LINE
  5
23E
100
AcDbEntity
  8
0
100
AcDbLine
 62
7
  6
CONTINUOUS
 10
13.5879179548
 20
7.0725169643
 11
12.9523893014
 21
7.0725169643
  0
LINE
  5
23F
100
AcDbEntity
  8
0
100
AcDbLine
 62
7
  6
CONTINUOUS
 10
12.4334466082
 20
7.0725169643
 11
11.7979179548
 21
7.0725169643
  0
LINE
  5
240
100
AcDbEntity
  8
0
100
AcDbLine
 62
9
  6
CONTINUOUS
 10
11.7779179548
 20
7.0925169643
 11
12.4329228898
 21
7.0925169643
  0
LINE
  5
241
100
AcDbEntity
  8
0
100
AcDbLine
 62
9
  6
CONTINUOUS
 10
12.9529130199
 20
7.0925169643
 11
13.6079179548
 21
7.0925169643
  0
LINE
  5
242
100
AcDbEntity
  8
0
100
AcDbLine
 62
7
  6
CONTINUOUS
 10
7.7567046655
 20
11.392931471
 11
7.7577477258
 21
11.3900020025
  0
LINE
  5
243
100
AcDbEntity
  8
0
100
AcDbLine
 62
7
  6
CONTINUOUS
 10
7.7614074613
 20
11.3791478396
 11
7.7577477261
 21
11.3900020026
  0
LINE
  5
244
100
AcDbEntity
  8
0
100
AcDbLine
 62
9
  6
CONTINUOUS
 10
12.4302534966
 20
7.1944569787
 11
11.7779179548
 21
7.1944569787
  0
LINE
  5
245
100
AcDbEntity
  8
0
100
AcDbLine
 62
9
  6
CONTINUOUS
 10
12.9555824131
 20
7.1944569787
 11
13.6079179548
 21
7.1944569787
  0
LINE
  5
246
100
AcDbEntity
  8
0
100
AcDbLine
 62
9
  6
CONTINUOUS
 10
12.4269786856
 20
7.3195169643
 11
11.8699179548
 21
7.3195169643
  0
LINE
  5
247
100
AcDbEntity
  8
0
100
AcDbLine
 62
9
  6
CONTINUOUS
 10
12.958857224
 20
7.3195169643
 11
13.5159179548
 21
7.3195169643
  0
LINE
  5
248
100
AcDbEntity
  8
0
100
AcDbLine
 62
9
  6
CONTINUOUS
 10
12.4221081042
 20
7.5055169643
 11
12.0393598037
 21
7.5055169643
  0
LINE
  5
249
100
AcDbEntity
  8
0
100
AcDbLine
 62
9
  6
CONTINUOUS
 10
12.9637278055
 20
7.5055169643
 11
13.346476106
 21
7.5055169643
  0
LINE
  5
24A
100
AcDbEntity
  8
0
100
AcDbLine
 62
9
  6
CONTINUOUS
 10
12.4212177829
 20
7.5395169643
 11
12.0597474079
 21
7.5395169643
  0
LINE
  5
24B
100
AcDbEntity
  8
0
100
AcDbLine
 62
9
  6
CONTINUOUS
 10
12.9646181268
 20
7.5395169643
 11
13.3260885018
 21
7.5395169643
  0
LINE
  5
24C
100
AcDbEntity
  8
0
100
AcDbLine
 62
9
  6
CONTINUOUS
 10
12.420746983
 20
7.5574960861
 11
12.0872141971
 21
7.5574960861
  0
LINE
  5
24D
100
AcDbEntity
  8
0
100
AcDbLine
 62
9
  6
CONTINUOUS
 10
12.9650889267
 20
7.5574960861
 11
13.2986217126
 21
7.5574960861
  0
LINE
  5
24E
100
AcDbEntity
  8
0
100
AcDbLine
 62
9
  6
CONTINUOUS
 10
12.4196809945
 20
7.5982045428
 11
12.1961350351
 21
7.5982045428
  0
LINE
  5
24F
100
AcDbEntity
  8
0
100
AcDbLine
 62
9
  6
CONTINUOUS
 10
12.9661549151
 20
7.5982045428
 11
13.1897008745
 21
7.5982045428
  0
LINE
  5
250
100
AcDbEntity
  8
0
100
AcDbLine
 62
7
  6
CONTINUOUS
 10
12.4195418839
 20
7.6035169643
 11
12.2309178249
 21
7.6035169643
  0
LINE
  5
251
100
AcDbEntity
  8
0
100
AcDbLine
 62
7
  6
CONTINUOUS
 10
12.9662940258
 20
7.6035169643
 11
13.1549180847
 21
7.6035169643
  0
LINE
  5
252
100
AcDbEntity
  8
0
100
AcDbLine
 62
9
  6
CONTINUOUS
 10
12.9869698344
 20
8.3930942424
 11
12.3988660752
 21
8.3930942424
  0
LINE
  5
253
100
AcDbEntity
  8
0
100
AcDbLine
 62
9
  6
CONTINUOUS
 10
13.0289514839
 20
8.5374714663
 11
12.3568844258
 21
8.5374714663
  0
LINE
  5
254
100
AcDbEntity
  8
0
100
AcDbLine
 62
7
  6
CONTINUOUS
 10
13.6298834389
 20
4.4151621109
 11
13.6285941687
 21
4.4169207004
  0
LINE
  5
255
100
AcDbEntity
  8
0
100
AcDbLine
 62
9
  6
CONTINUOUS
 10
13.0804179548
 20
8.7235169643
 11
12.3054179548
 21
8.7235169643
  0
LINE
  5
256
100
AcDbEntity
  8
0
100
AcDbLine
 62
9
  6
CONTINUOUS
 10
12.3054179548
 20
8.7995169643
 11
13.0804179548
 21
8.7995169643
  0
LINE
  5
257
100
AcDbEntity
  8
0
100
AcDbLine
 62
7
  6
CONTINUOUS
 10
12.5054179548
 20
8.8385169643
 11
12.8804179548
 21
8.8385169643
  0
LWPOLYLINE
  5
258
100
AcDbEntity
  8
0
100
AcDbPolyline
 62
7
  6
CONTINUOUS
 90
7
 70
0
 10
13.6285940895
 20
4.4169208088
 10
13.6268356405
 20
4.4193968004
 10
13.6244594632
 20
4.4229865029
 10
13.6221380534
 20
4.4267961685
 10
13.6199024337
 20
4.4307940896
 10
13.6177833306
 20
4.4349431355
 10
13.6162136733
 20
4.4382940188
  0
LINE
  5
259
100
AcDbEntity
  8
0
100
AcDbLine
 62
7
  6
CONTINUOUS
 10
13.6331422806
 20
4.5029103064
 11
13.6738286816
 21
4.4244903193
  0
LINE
  5
25A
100
AcDbEntity
  8
0
100
AcDbLine
 62
7
  6
CONTINUOUS
 10
13.6007937061
 20
4.6955436094
 11
13.611120237
 21
4.6756399954
  0
LINE
  5
25B
100
AcDbEntity
  8
0
100
AcDbLine
 62
7
  6
CONTINUOUS
 10
13.616213684
 20
4.4382940982
 11
13.572223032
 21
4.5360740527
  0
LWPOLYLINE
  5
25C
100
AcDbEntity
  8
0
100
AcDbPolyline
 62
7
  6
CONTINUOUS
 90
4
 70
0
 10
13.572223032
 20
4.5360740527
 10
13.5690368937
 20
4.5432174491
 10
13.5651348062
 20
4.5521363803
 10
13.5617818966
 20
4.5599682104
  0
LINE
  5
25D
100
AcDbEntity
  8
0
100
AcDbLine
 62
7
  6
CONTINUOUS
 10
11.6304179548
 20
4.377999164
 11
11.6304179548
 21
4.2975169643
  0
LINE
  5
25E
100
AcDbEntity
  8
0
100
AcDbLine
 62
7
  6
CONTINUOUS
 10
11.7729179548
 20
4.668271469
 11
11.7729179548
 21
4.5858062287
  0
LINE
  5
25F
100
AcDbEntity
  8
0
100
AcDbLine
 62
7
  6
CONTINUOUS
 10
11.7779179548
 20
7.1944569787
 11
11.7779179548
 21
7.0925169643
  0
LINE
  5
260
100
AcDbEntity
  8
0
100
AcDbLine
 62
7
  6
CONTINUOUS
 10
11.6305388951
 20
4.3823964144
 11
11.6304179548
 21
4.377999164
  0
LINE
  5
261
100
AcDbEntity
  8
0
100
AcDbLine
 62
7
  6
CONTINUOUS
 10
8.2026842062
 20
10.8566580392
 11
7.6952501918
 21
11.0413489163
  0
LINE
  5
262
100
AcDbEntity
  8
0
100
AcDbLine
 62
9
  6
CONTINUOUS
 10
7.6813612374
 20
11.0479795199
 11
8.2175858324
 21
10.8528097284
  0
LINE
  5
263
100
AcDbEntity
  8
0
100
AcDbLine
 62
9
  6
CONTINUOUS
 10
7.6676543097
 20
11.064208086
 11
8.2385174694
 21
10.8564308881
  0
LINE
  5
264
100
AcDbEntity
  8
0
100
AcDbLine
 62
9
  6
CONTINUOUS
 10
7.6707401612
 20
11.1034134715
 11
8.261354306
 21
10.8884475028
  0
LINE
  5
265
100
AcDbEntity
  8
0
100
AcDbLine
 62
9
  6
CONTINUOUS
 10
7.6854992849
 20
11.119815422
 11
8.2605911318
 21
10.9104991077
  0
LINE
  5
266
100
AcDbEntity
  8
0
100
AcDbLine
 62
9
  6
CONTINUOUS
 10
7.7295925376
 20
11.1764611488
 11
8.2632249119
 21
10.9822348485
  0
LINE
  5
267
100
AcDbEntity
  8
0
100
AcDbLine
 62
9
  6
CONTINUOUS
 10
7.7390350307
 20
11.200905832
 11
8.2717042821
 21
11.0070300798
  0
LINE
  5
268
100
AcDbEntity
  8
0
100
AcDbLine
 62
9
  6
CONTINUOUS
 10
7.7644770713
 20
11.2864939345
 11
8.3072295201
 21
11.0889481986
  0
LWPOLYLINE
  5
269
100
AcDbEntity
  8
0
100
AcDbPolyline
 62
7
  6
CONTINUOUS
 90
5
 70
0
 10
13.5617819158
 20
4.559968165
 10
13.5531418964
 20
4.5804212586
 10
13.5453311601
 20
4.599004695
 10
13.5382526096
 20
4.6160102263
 10
13.5331620146
 20
4.6284583235
  0
LINE
  5
26A
100
AcDbEntity
  8
0
100
AcDbLine
 62
7
  6
CONTINUOUS
 10
13.5331619549
 20
4.6284584647
 11
13.5331243851
 21
4.6285516296
  0
LINE
  5
26B
100
AcDbEntity
  8
0
100
AcDbLine
 62
7
  6
CONTINUOUS
 10
11.8879179548
 20
4.7225169643
 11
11.8879179548
 21
7.0725169643
  0
LINE
  5
26C
100
AcDbEntity
  8
0
100
AcDbLine
 62
9
  6
CONTINUOUS
 10
7.7614074613
 20
11.3791478396
 11
8.3691377599
 21
11.1579521005
  0
LINE
  5
26D
100
AcDbEntity
  8
0
100
AcDbLine
 62
9
  6
CONTINUOUS
 10
7.7577477258
 20
11.3900020025
 11
8.3789182014
 21
11.163914439
  0
LINE
  5
26E
100
AcDbEntity
  8
0
100
AcDbLine
 62
9
  6
CONTINUOUS
 10
7.7567046652
 20
11.3929314708
 11
8.3816002582
 21
11.1654880755
  0
LINE
  5
26F
100
AcDbEntity
  8
0
100
AcDbLine
 62
9
  6
CONTINUOUS
 10
7.7616846753
 20
11.4446233883
 11
8.4110122732
 21
11.2082874703
  0
LINE
  5
270
100
AcDbEntity
  8
0
100
AcDbLine
 62
9
  6
CONTINUOUS
 10
7.7621891312
 20
11.4454900437
 11
8.4111829129
 21
11.2092756249
  0
LINE
  5
271
100
AcDbEntity
  8
0
100
AcDbLine
 62
9
  6
CONTINUOUS
 10
7.7752340196
 20
11.4589466777
 11
8.4098397062
 21
11.2279690973
  0
LINE
  5
272
100
AcDbEntity
  8
0
100
AcDbLine
 62
7
  6
CONTINUOUS
 10
7.8208373087
 20
11.4638771638
 11
8.3780748153
 21
11.261059298
  0
LINE
  5
273
100
AcDbEntity
  8
0
100
AcDbLine
 62
7
  6
CONTINUOUS
 10
12.4336492409
 20
7.0647787338
 11
12.3988660752
 21
8.3930942424
  0
LINE
  5
274
100
AcDbEntity
  8
0
100
AcDbLine
 62
7
  6
CONTINUOUS
 10
12.3054179548
 20
8.7235169643
 11
12.3054179548
 21
8.7995169643
  0
LINE
  5
275
100
AcDbEntity
  8
0
100
AcDbLine
 62
7
  6
CONTINUOUS
 10
12.3749179548
 20
6.9330169643
 11
12.3749179548
 21
7.0445169643
  0
LINE
  5
276
100
AcDbEntity
  8
0
100
AcDbLine
 62
7
  6
CONTINUOUS
 10
12.4429179548
 20
8.8373600256
 11
12.4429179548
 21
11.2225169643
  0
LINE
  5
277
100
AcDbEntity
  8
0
100
AcDbLine
 62
7
  6
CONTINUOUS
 10
12.5129179548
 20
6.8385169643
 11
12.5129179548
 21
6.6104910539
  0
LINE
  5
278
100
AcDbEntity
  8
0
100
AcDbLine
 62
7
  6
CONTINUOUS
 10
12.8729179548
 20
6.8385169643
 11
12.8729179548
 21
6.6104910539
  0
LINE
  5
279
100
AcDbEntity
  8
0
100
AcDbLine
 62
7
  6
CONTINUOUS
 10
12.9429179548
 20
8.8373600256
 11
12.9429179548
 21
11.2225169643
  0
LINE
  5
27A
100
AcDbEntity
  8
0
100
AcDbLine
 62
7
  6
CONTINUOUS
 10
12.9521866687
 20
7.0647787338
 11
12.9869698344
 21
8.3930942424
  0
LINE
  5
27B
100
AcDbEntity
  8
0
100
AcDbLine
 62
9
  6
CONTINUOUS
 10
12.4429179548
 20
11.2225169643
 11
12.9429179548
 21
11.2225169643
  0
LINE
  5
27C
100
AcDbEntity
  8
0
100
AcDbLine
 62
9
  6
CONTINUOUS
 10
8.5635327133
 20
11.906557251
 11
8.0936864029
 21
12.0775673227
  0
LINE
  5
27D
100
AcDbEntity
  8
0
100
AcDbLine
 62
7
  6
CONTINUOUS
 10
13.0109179548
 20
6.9330169643
 11
13.0109179548
 21
7.0445169643
  0
LINE
  5
27E
100
AcDbEntity
  8
0
100
AcDbLine
 62
7
  6
CONTINUOUS
 10
13.0804179548
 20
8.7235169643
 11
13.0804179548
 21
8.7995169643
  0
LINE
  5
27F
100
AcDbEntity
  8
0
100
AcDbLine
 62
7
  6
CONTINUOUS
 10
13.7552970146
 20
4.3823964144
 11
13.7554179548
 21
4.377999164
  0
LINE
  5
280
100
AcDbEntity
  8
0
100
AcDbLine
 62
7
  6
CONTINUOUS
 10
13.4979179548
 20
4.7225169643
 11
13.4979179548
 21
7.0725169643
  0
LINE
  5
281
100
AcDbEntity
  8
0
100
AcDbLine
 62
7
  6
CONTINUOUS
 10
13.6079179548
 20
7.1944569787
 11
13.6079179548
 21
7.0925169643
  0
LINE
  5
282
100
AcDbEntity
  8
0
100
AcDbLine
 62
7
  6
CONTINUOUS
 10
13.6129179548
 20
4.668271469
 11
13.6129179548
 21
4.5858062287
  0
LINE
  5
283
100
AcDbEntity
  8
0
100
AcDbLine
 62
7
  6
CONTINUOUS
 10
11.8527115546
 20
4.6285517045
 11
11.8526462453
 21
4.6283897406
  0
LWPOLYLINE
  5
284
100
AcDbEntity
  8
0
100
AcDbPolyline
 62
7
  6
CONTINUOUS
 90
4
 70
0
 10
11.85264617
 20
4.6283895549
 10
11.846978886
 20
4.6145481669
 10
11.8400152736
 20
4.5978359787
 10
11.8324205816
 20
4.579772727
  0
LINE
  5
285
100
AcDbEntity
  8
0
100
AcDbLine
 62
7
  6
CONTINUOUS
 10
11.8324205816
 20
4.579772727
 11
11.8240539771
 21
4.5599681253
  0
LWPOLYLINE
  5
286
100
AcDbEntity
  8
0
100
AcDbPolyline
 62
7
  6
CONTINUOUS
 90
3
 70
0
 10
11.8240540034
 20
4.5599681874
 10
11.8207255028
 20
4.5521927594
 10
11.8168300227
 20
4.5432876072
  0
LINE
  5
287
100
AcDbEntity
  8
0
100
AcDbLine
 62
7
  6
CONTINUOUS
 10
11.8168300227
 20
4.5432876072
 11
11.8129809053
 21
4.5346571557
  0
LINE
  5
288
100
AcDbEntity
  8
0
100
AcDbLine
 62
7
  6
CONTINUOUS
 10
11.8129809773
 20
4.5346573156
 11
11.7696223012
 21
4.4382942271
  0
LWPOLYLINE
  5
289
100
AcDbEntity
  8
0
100
AcDbPolyline
 62
7
  6
CONTINUOUS
 90
7
 70
0
 10
11.76962233
 20
4.4382941565
 10
11.7680917558
 20
4.4350234874
 10
11.7659752785
 20
4.4308722854
 10
11.7637422512
 20
4.4268722171
 10
11.7614235151
 20
4.4230606156
 10
11.7590501994
 20
4.4194692331
 10
11.7572420032
 20
4.4169210389
  0
LINE
  5
28A
100
AcDbEntity
  8
0
100
AcDbLine
 62
7
  6
CONTINUOUS
 10
11.7850422036
 20
4.6955436094
 11
11.7747156727
 21
4.6756399954
  0
LINE
  5
28B
100
AcDbEntity
  8
0
100
AcDbLine
 62
7
  6
CONTINUOUS
 10
11.7526936291
 20
4.5029103064
 11
11.712007228
 21
4.4244903193
  0
LINE
  5
28C
100
AcDbEntity
  8
0
100
AcDbLine
 62
7
  6
CONTINUOUS
 10
13.7554179548
 20
4.377999164
 11
13.7554179548
 21
4.2975169643
  0
LWPOLYLINE
  5
28D
100
AcDbEntity
  8
0
100
AcDbPolyline
 62
7
  6
CONTINUOUS
 90
16
 70
0
 10
11.7572419515
 20
4.4169209683
 10
11.7542141886
 20
4.4128125656
 10
11.7524713639
 20
4.4105028705
 10
11.7507836418
 20
4.4083327786
 10
11.7491478478
 20
4.4063133867
 10
11.747565936
 20
4.4044611716
 10
11.7460492642
 20
4.4028039294
 10
11.7446052679
 20
4.4013582307
 10
11.7432643932
 20
4.400152921
 10
11.742059088
 20
4.3992064087
 10
11.7410187408
 20
4.3985156168
 10
11.7401658079
 20
4.3980578583
 10
11.7394881604
 20
4.3977819104
 10
11.7389226273
 20
4.3976248909
 10
11.7383668771
 20
4.3975408541
 10
11.7378227254
 20
4.3975169639
  0
ARC
  5
28E
100
AcDbEntity
  8
0
100
AcDbCircle
 62
9
  6
CONTINUOUS
 10
10.6579212652
 20
5.0566790039
 40
1.269045015
100
AcDbArc
 50
335.7520473772
 51
336.9286183653
  0
ARC
  5
28F
100
AcDbEntity
  8
0
100
AcDbCircle
 62
7
  6
CONTINUOUS
 10
10.4429179548
 20
11.2225169643
 40
2.5
100
AcDbArc
 50
0.0
 51
160.0
  0
ARC
  5
290
100
AcDbEntity
  8
0
100
AcDbCircle
 62
7
  6
CONTINUOUS
 10
10.4429179548
 20
11.2225169643
 40
2.0
100
AcDbArc
 50
0.0
 51
160.0
  0
ARC
  5
291
100
AcDbEntity
  8
0
100
AcDbCircle
 62
7
  6
CONTINUOUS
 10
8.9698958989
 20
10.7529091122
 40
0.743
100
AcDbArc
 50
153.1103674819
 51
159.9999999124
  0
ARC
  5
292
100
AcDbEntity
  8
0
100
AcDbCircle
 62
7
  6
CONTINUOUS
 10
7.040843413
 20
11.4550267974
 40
0.743
100
AcDbArc
 50
340.0000000876
 51
346.8896325181
  0
ARC
  5
293
100
AcDbEntity
  8
0
100
AcDbCircle
 62
7
  6
CONTINUOUS
 10
8.4668759301
 20
11.0079912714
 40
0.1790000008
100
AcDbArc
 50
123.0946198465
 51
153.1103674819
  0
ARC
  5
294
100
AcDbEntity
  8
0
100
AcDbCircle
 62
7
  6
CONTINUOUS
 10
7.5901427164
 20
11.3270960646
 40
0.1790000008
100
AcDbArc
 50
346.8896325181
 51
16.9053801535
  0
ARC
  5
295
100
AcDbEntity
  8
0
100
AcDbCircle
 62
7
  6
CONTINUOUS
 10
8.3898872549
 20
10.9416682057
 40
0.1330000004
100
AcDbArc
 50
162.2410938151
 51
193.553553377
  0
ARC
  5
296
100
AcDbEntity
  8
0
100
AcDbCircle
 62
7
  6
CONTINUOUS
 10
7.6064878183
 20
11.2268022821
 40
0.1330000004
100
AcDbArc
 50
306.446446623
 51
337.7589061849
  0
ARC
  5
297
100
AcDbEntity
  8
0
100
AcDbCircle
 62
7
  6
CONTINUOUS
 10
8.2300458176
 20
10.9318334489
 40
0.08
100
AcDbArc
 50
250.0
 51
261.0397140499
  0
ARC
  5
298
100
AcDbEntity
  8
0
100
AcDbCircle
 62
7
  6
CONTINUOUS
 10
7.7226118033
 20
11.116524326
 40
0.08
100
AcDbArc
 50
238.9602859501
 51
250.0
  0
ARC
  5
299
100
AcDbEntity
  8
0
100
AcDbCircle
 62
7
  6
CONTINUOUS
 10
8.3489995967
 20
11.2193972249
 40
0.0629999962
100
AcDbArc
 50
301.1627534366
 51
349.8430419522
  0
ARC
  5
29A
100
AcDbEntity
  8
0
100
AcDbCircle
 62
7
  6
CONTINUOUS
 10
7.8163303541
 20
11.4132729739
 40
0.0629999962
100
AcDbArc
 50
150.1569580478
 51
198.8372465634
  0
ARC
  5
29B
100
AcDbEntity
  8
0
100
AcDbCircle
 62
7
  6
CONTINUOUS
 10
8.2071228089
 20
10.8976096308
 40
0.0549999988
100
AcDbArc
 50
350.4107267091
 51
13.553553377
  0
ARC
  5
29C
100
AcDbEntity
  8
0
100
AcDbCircle
 62
7
  6
CONTINUOUS
 10
7.7181732005
 20
11.0755727343
 40
0.0549999988
100
AcDbArc
 50
126.446446623
 51
149.5892732909
  0
ARC
  5
29D
100
AcDbEntity
  8
0
100
AcDbCircle
 62
7
  6
CONTINUOUS
 10
8.360289878
 20
11.2121952416
 40
0.052
100
AcDbArc
 50
17.6585253029
 51
70.0
  0
ARC
  5
29E
100
AcDbEntity
  8
0
100
AcDbCircle
 62
7
  6
CONTINUOUS
 10
7.8030521512
 20
11.4150131876
 40
0.052
100
AcDbArc
 50
70.0
 51
122.3414746971
  0
ARC
  5
29F
100
AcDbEntity
  8
0
100
AcDbCircle
 62
7
  6
CONTINUOUS
 10
8.2169830669
 20
10.8959437918
 40
0.0450000005
100
AcDbArc
 50
298.5902386693
 51
350.4107267091
  0
ARC
  5
2A0
100
AcDbEntity
  8
0
100
AcDbCircle
 62
7
  6
CONTINUOUS
 10
7.709549024
 20
11.0806346792
 40
0.0450000005
100
AcDbArc
 50
149.5892732909
 51
201.4097613307
  0
ARC
  5
2A1
100
AcDbEntity
  8
0
100
AcDbCircle
 62
7
  6
CONTINUOUS
 10
8.3717244535
 20
11.2158353621
 40
0.0400000021
100
AcDbArc
 50
350.561234851
 51
17.6585253029
  0
ARC
  5
2A2
100
AcDbEntity
  8
0
100
AcDbCircle
 62
7
  6
CONTINUOUS
 10
7.7966325825
 20
11.4251516851
 40
0.0400000021
100
AcDbArc
 50
122.3414746971
 51
149.438765149
  0
ARC
  5
2A3
100
AcDbEntity
  8
0
100
AcDbCircle
 62
7
  6
CONTINUOUS
 10
8.2227255763
 20
10.8854070135
 40
0.0329999994
100
AcDbArc
 50
261.0397140499
 51
298.5902386693
  0
ARC
  5
2A4
100
AcDbEntity
  8
0
100
AcDbCircle
 62
7
  6
CONTINUOUS
 10
7.698377096
 20
11.0762542528
 40
0.0329999994
100
AcDbArc
 50
201.4097613307
 51
238.9602859501
  0
ARC
  5
2A5
100
AcDbEntity
  8
0
100
AcDbCircle
 62
9
  6
CONTINUOUS
 10
11.3777560685
 20
4.5326487266
 40
1.2610487221
100
AcDbArc
 50
359.9656681771
 51
1.1177674351
  0
ARC
  5
2A6
100
AcDbEntity
  8
0
100
AcDbCircle
 62
9
  6
CONTINUOUS
 10
12.5210832691
 20
4.0827440343
 40
1.1057083028
100
AcDbArc
 50
24.1693795419
 51
25.6343619057
  0
ARC
  5
2A7
100
AcDbEntity
  8
0
100
AcDbCircle
 62
9
  6
CONTINUOUS
 10
12.8285295225
 20
4.0995398607
 40
1.0657826337
100
AcDbArc
 50
154.3372283699
 51
155.8570949011
  0
ARC
  5
2A8
100
AcDbEntity
  8
0
100
AcDbCircle
 62
9
  6
CONTINUOUS
 10
11.1334983783
 20
4.8628875203
 40
0.8060920219
100
AcDbArc
 50
335.7564556065
 51
337.718262949
  0
ARC
  5
2A9
100
AcDbEntity
  8
0
100
AcDbCircle
 62
9
  6
CONTINUOUS
 10
11.6263800475
 20
4.5911669389
 40
0.2083485058
100
AcDbArc
 50
358.2940148654
 51
358.5256435066
  0
ARC
  5
2AA
100
AcDbEntity
  8
0
100
AcDbCircle
 62
7
  6
CONTINUOUS
 10
11.5929179548
 20
4.5858062287
 40
0.18
100
AcDbArc
 50
332.5785
 51
360.0
  0
ARC
  5
2AB
100
AcDbEntity
  8
0
100
AcDbCircle
 62
7
  6
CONTINUOUS
 10
11.6676250963
 20
4.4475169643
 40
0.05
100
AcDbArc
 50
270.0
 51
332.5785
  0
ARC
  5
2AC
100
AcDbEntity
  8
0
100
AcDbCircle
 62
7
  6
CONTINUOUS
 10
11.8294243353
 20
4.6725169643
 40
0.05
100
AcDbArc
 50
90.0
 51
152.5785
  0
ARC
  5
2AD
100
AcDbEntity
  8
0
100
AcDbCircle
 62
9
  6
CONTINUOUS
 10
11.8072474648
 20
4.5525075201
 40
0.0431303596
100
AcDbArc
 50
50.1176464877
 51
50.5381568967
  0
ARC
  5
2AE
100
AcDbEntity
  8
0
100
AcDbCircle
 62
7
  6
CONTINUOUS
 10
11.646514707
 20
4.3815169643
 40
0.016
100
AcDbArc
 50
90.0
 51
176.849113392
  0
ARC
  5
2AF
100
AcDbEntity
  8
0
100
AcDbCircle
 62
7
  6
CONTINUOUS
 10
11.7889179548
 20
4.668271469
 40
0.016
100
AcDbArc
 50
152.5785
 51
180.0
  0
ARC
  5
2B0
100
AcDbEntity
  8
0
100
AcDbCircle
 62
7
  6
CONTINUOUS
 10
12.6929179548
 20
6.1335169643
 40
0.595
100
AcDbArc
 50
107.6134657481
 51
72.3865342519
  0
ARC
  5
2B1
100
AcDbEntity
  8
0
100
AcDbCircle
 62
9
  6
CONTINUOUS
 10
12.6929179548
 20
6.1335169643
 40
0.5879659807
100
AcDbArc
 50
107.8300752051
 51
72.1699247949
  0
ARC
  5
2B2
100
AcDbEntity
  8
0
100
AcDbCircle
 62
7
  6
CONTINUOUS
 10
12.3408897588
 20
7.0448239595
 40
0.572
100
AcDbArc
 50
104.659117346
 51
116.3266895349
  0
CIRCLE
  5
2B3
100
AcDbEntity
  8
0
100
AcDbCircle
 62
7
  6
CONTINUOUS
 10
12.6929179548
 20
6.1335169643
 40
0.51
  0
CIRCLE
  5
2B4
100
AcDbEntity
  8
0
100
AcDbCircle
 62
9
  6
CONTINUOUS
 10
12.6929179548
 20
6.1335169643
 40
0.46
  0
ARC
  5
2B5
100
AcDbEntity
  8
0
100
AcDbCircle
 62
7
  6
CONTINUOUS
 10
11.7957881838
 20
7.5572264026
 40
0.249
100
AcDbArc
 50
287.32010763
 51
348.0142490041
  0
ARC
  5
2B6
100
AcDbEntity
  8
0
100
AcDbCircle
 62
7
  6
CONTINUOUS
 10
12.2389034762
 20
7.4347057341
 40
0.169
100
AcDbArc
 50
92.7083260498
 51
104.659117346
  0
ARC
  5
2B7
100
AcDbEntity
  8
0
100
AcDbCircle
 62
7
  6
CONTINUOUS
 10
12.1479721551
 20
7.4347057341
 40
0.137
100
AcDbArc
 50
116.3266895349
 51
130.0889620649
  0
ARC
  5
2B8
100
AcDbEntity
  8
0
100
AcDbCircle
 62
7
  6
CONTINUOUS
 10
11.9089179548
 20
7.1944569787
 40
0.131
100
AcDbArc
 50
107.32010763
 51
180.0
  0
ARC
  5
2B9
100
AcDbEntity
  8
0
100
AcDbCircle
 62
7
  6
CONTINUOUS
 10
12.4694179548
 20
6.9330169643
 40
0.0945
100
AcDbArc
 50
180.0
 51
270.0
  0
ARC
  5
2BA
100
AcDbEntity
  8
0
100
AcDbCircle
 62
7
  6
CONTINUOUS
 10
12.0990299595
 20
7.4928491903
 40
0.061
100
AcDbArc
 50
130.0889620649
 51
168.0142490041
  0
ARC
  5
2BB
100
AcDbEntity
  8
0
100
AcDbCircle
 62
7
  6
CONTINUOUS
 10
11.7979179548
 20
7.0925169643
 40
0.02
100
AcDbArc
 50
180.0
 51
270.0
  0
ARC
  5
2BC
100
AcDbEntity
  8
0
100
AcDbCircle
 62
7
  6
CONTINUOUS
 10
12.4236526677
 20
7.0645169643
 40
0.01
100
AcDbArc
 50
270.0000000001
 51
1.5000000001
  0
ARC
  5
2BD
100
AcDbEntity
  8
0
100
AcDbCircle
 62
7
  6
CONTINUOUS
 10
12.3849179548
 20
7.0445169643
 40
0.01
100
AcDbArc
 50
90.0
 51
180.0
  0
ARC
  5
2BE
100
AcDbEntity
  8
0
100
AcDbCircle
 62
9
  6
CONTINUOUS
 10
13.971223744
 20
4.5329842987
 40
1.2241921968
100
AcDbArc
 50
178.8642832614
 51
180.0510714367
  0
ARC
  5
2BF
100
AcDbEntity
  8
0
100
AcDbCircle
 62
9
  6
CONTINUOUS
 10
14.6854321285
 20
5.0380394284
 40
1.2226546763
100
AcDbArc
 50
203.0479052637
 51
204.271155311
  0
ARC
  5
2C0
100
AcDbEntity
  8
0
100
AcDbCircle
 62
9
  6
CONTINUOUS
 10
14.2544497141
 20
4.8637971715
 40
0.808391571
100
AcDbArc
 50
202.2846373521
 51
204.2408599722
  0
ARC
  5
2C1
100
AcDbEntity
  8
0
100
AcDbCircle
 62
9
  6
CONTINUOUS
 10
13.7594560162
 20
4.5911669455
 40
0.20834866
100
AcDbArc
 50
181.474357202
 51
181.7060671131
  0
ARC
  5
2C2
100
AcDbEntity
  8
0
100
AcDbCircle
 62
7
  6
CONTINUOUS
 10
13.7929179548
 20
4.5858062287
 40
0.18
100
AcDbArc
 50
180.0
 51
207.4215
  0
ARC
  5
2C3
100
AcDbEntity
  8
0
100
AcDbCircle
 62
7
  6
CONTINUOUS
 10
13.7182108134
 20
4.4475169643
 40
0.05
100
AcDbArc
 50
207.4215
 51
270.0
  0
ARC
  5
2C4
100
AcDbEntity
  8
0
100
AcDbCircle
 62
7
  6
CONTINUOUS
 10
13.5564115743
 20
4.6725169643
 40
0.05
100
AcDbArc
 50
27.4215
 51
90.0
  0
ARC
  5
2C5
100
AcDbEntity
  8
0
100
AcDbCircle
 62
9
  6
CONTINUOUS
 10
13.5785876153
 20
4.5525078377
 40
0.0431295872
100
AcDbArc
 50
129.4612604679
 51
129.8817949685
  0
ARC
  5
2C6
100
AcDbEntity
  8
0
100
AcDbCircle
 62
7
  6
CONTINUOUS
 10
13.7393212026
 20
4.3815169643
 40
0.016
100
AcDbArc
 50
3.150886608
 51
90.0
  0
ARC
  5
2C7
100
AcDbEntity
  8
0
100
AcDbCircle
 62
7
  6
CONTINUOUS
 10
13.5969179548
 20
4.668271469
 40
0.016
100
AcDbArc
 50
0.0
 51
27.4215
  0
ARC
  5
2C8
100
AcDbEntity
  8
0
100
AcDbCircle
 62
7
  6
CONTINUOUS
 10
13.0449461508
 20
7.0448239595
 40
0.572
100
AcDbArc
 50
63.6733104651
 51
75.340882654
  0
ARC
  5
2C9
100
AcDbEntity
  8
0
100
AcDbCircle
 62
7
  6
CONTINUOUS
 10
13.5900477258
 20
7.5572264026
 40
0.249
100
AcDbArc
 50
191.9857509959
 51
252.67989237
  0
ARC
  5
2CA
100
AcDbEntity
  8
0
100
AcDbCircle
 62
7
  6
CONTINUOUS
 10
13.1469324334
 20
7.4347057341
 40
0.169
100
AcDbArc
 50
75.340882654
 51
87.2916739502
  0
ARC
  5
2CB
100
AcDbEntity
  8
0
100
AcDbCircle
 62
7
  6
CONTINUOUS
 10
13.2378637546
 20
7.4347057341
 40
0.137
100
AcDbArc
 50
49.9110379351
 51
63.6733104651
  0
ARC
  5
2CC
100
AcDbEntity
  8
0
100
AcDbCircle
 62
7
  6
CONTINUOUS
 10
13.4769179548
 20
7.1944569787
 40
0.131
100
AcDbArc
 50
0.0
 51
72.67989237
  0
ARC
  5
2CD
100
AcDbEntity
  8
0
100
AcDbCircle
 62
7
  6
CONTINUOUS
 10
12.9164179548
 20
6.9330169643
 40
0.0945
100
AcDbArc
 50
270.0
 51
360.0
  0
ARC
  5
2CE
100
AcDbEntity
  8
0
100
AcDbCircle
 62
7
  6
CONTINUOUS
 10
13.2868059501
 20
7.4928491903
 40
0.061
100
AcDbArc
 50
11.9857509959
 51
49.9110379351
  0
ARC
  5
2CF
100
AcDbEntity
  8
0
100
AcDbCircle
 62
7
  6
CONTINUOUS
 10
13.5879179548
 20
7.0925169643
 40
0.02
100
AcDbArc
 50
270.0
 51
360.0
  0
ARC
  5
2D0
100
AcDbEntity
  8
0
100
AcDbCircle
 62
7
  6
CONTINUOUS
 10
12.962183242
 20
7.0645169643
 40
0.01
100
AcDbArc
 50
178.4999999999
 51
269.9999999999
  0
ARC
  5
2D1
100
AcDbEntity
  8
0
100
AcDbCircle
 62
7
  6
CONTINUOUS
 10
13.0009179548
 20
7.0445169643
 40
0.01
100
AcDbArc
 50
0.0
 51
90.0
  0
ARC
  5
2D2
100
AcDbEntity
  8
0
100
AcDbCircle
 62
7
  6
CONTINUOUS
 10
12.6674179548
 20
8.7235169643
 40
0.362
100
AcDbArc
 50
180.0
 51
210.9264851226
  0
ARC
  5
2D3
100
AcDbEntity
  8
0
100
AcDbCircle
 62
7
  6
CONTINUOUS
 10
12.7184179548
 20
8.7235169643
 40
0.362
100
AcDbArc
 50
329.0735148774
 51
360.0
  0
ARC
  5
2D4
100
AcDbEntity
  8
0
100
AcDbCircle
 62
7
  6
CONTINUOUS
 10
12.102967507
 20
8.3853458657
 40
0.296
100
AcDbArc
 50
1.5
 51
30.9264851226
  0
ARC
  5
2D5
100
AcDbEntity
  8
0
100
AcDbCircle
 62
7
  6
CONTINUOUS
 10
13.2828684026
 20
8.3853458657
 40
0.296
100
AcDbArc
 50
149.0735148774
 51
178.5
  0
SPLINE
  5
2D6
100
AcDbEntity
  8
0
100
AcDbSpline
 62
7
  6
CONTINUOUS
 70
0
 71
3
 72
35
 73
31
 74
0
 42
0.0000001
 43
0.0000001
 44
0.0000000001
 40
0.0
 40
0.0
 40
0.0
 40
0.0
 40
0.1396423953
 40
0.208573921
 40
0.276830844
 40
0.3443426864
 40
0.411020484
 40
0.4767637243
 40
0.5414351009
 40
0.6048835947
 40
0.6669049869
 40
0.6973045968
 40
0.7272445346
 40
0.7566825237
 40
0.7855670365
 40
0.8138459232
 40
0.8414517316
 40
0.8683337907
 40
0.8944512287
 40
0.9198345198
 40
0.9323228207
 40
0.9447619699
 40
0.951007136
 40
0.9573042924
 40
0.9636955683
 40
0.9702359503
 40
0.9769979483
 40
0.9840929093
 40
0.9916776348
 40
1.0
 40
1.0
 40
1.0
 40
1.0
 10
12.8804179548
 20
8.8385169643
 30
0.0
 10
12.8902993552
 20
8.8385169643
 30
0.0
 10
12.9050589932
 20
8.8384111797
 30
0.0
 10
12.9246441664
 20
8.8380041176
 30
0.0
 10
12.939122486
 20
8.8375532256
 30
0.0
 10
12.9534352775
 20
8.8369395873
 30
0.0
 10
12.9675608434
 20
8.8361397811
 30
0.0
 10
12.9814716935
 20
8.8351308937
 30
0.0
 10
12.9951332195
 20
8.8338740823
 30
0.0
 10
13.0085006788
 20
8.8323314916
 30
0.0
 10
13.019418392
 20
8.8307477665
 30
0.0
 10
13.0279488963
 20
8.8292610622
 30
0.0
 10
13.0341822819
 20
8.828031728
 30
0.0
 10
13.0402776995
 20
8.8266663488
 30
0.0
 10
13.0462143802
 20
8.825142151
 30
0.0
 10
13.0519673891
 20
8.8234377193
 30
0.0
 10
13.057501052
 20
8.8215116253
 30
0.0
 10
13.0627735039
 20
8.8193241492
 30
0.0
 10
13.0677222926
 20
8.816805305
 30
0.0
 10
13.0715292999
 20
8.8143272852
 30
0.0
 10
13.0742711391
 20
8.8120501801
 30
0.0
 10
13.0758279559
 20
8.8104810422
 30
0.0
 10
13.0769621567
 20
8.8091238511
 30
0.0
 10
13.0777515809
 20
8.8080399074
 30
0.0
 10
13.0784680637
 20
8.8068814716
 30
0.0
 10
13.0791015475
 20
8.8056383564
 30
0.0
 10
13.0796423372
 20
8.8042978637
 30
0.0
 10
13.0800674837
 20
8.8028385592
 30
0.0
 10
13.0803542656
 20
8.8012329802
 30
0.0
 10
13.0804179548
 20
8.800105873
 30
0.0
 10
13.0804179548
 20
8.7995169643
 30
0.0
  0
SPLINE
  5
2D7
100
AcDbEntity
  8
0
100
AcDbSpline
 62
7
  6
CONTINUOUS
 70
0
 71
3
 72
35
 73
31
 74
0
 42
0.0000001
 43
0.0000001
 44
0.0000000001
 40
0.0
 40
0.0
 40
0.0
 40
0.0
 40
0.1396423953
 40
0.208573921
 40
0.276830844
 40
0.3443426864
 40
0.411020484
 40
0.4767637243
 40
0.5414351009
 40
0.6048835947
 40
0.6669049869
 40
0.6973045968
 40
0.7272445346
 40
0.7566825237
 40
0.7855670365
 40
0.8138459232
 40
0.8414517316
 40
0.8683337907
 40
0.8944512287
 40
0.9198345198
 40
0.9323228207
 40
0.9447619699
 40
0.951007136
 40
0.9573042924
 40
0.9636955683
 40
0.9702359503
 40
0.9769979483
 40
0.9840929093
 40
0.9916776348
 40
1.0
 40
1.0
 40
1.0
 40
1.0
 10
12.5054179548
 20
8.8385169643
 30
0.0
 10
12.4955365545
 20
8.8385169643
 30
0.0
 10
12.4807769165
 20
8.8384111797
 30
0.0
 10
12.4611917433
 20
8.8380041176
 30
0.0
 10
12.4467134237
 20
8.8375532256
 30
0.0
 10
12.4324006322
 20
8.8369395873
 30
0.0
 10
12.4182750662
 20
8.8361397811
 30
0.0
 10
12.4043642161
 20
8.8351308937
 30
0.0
 10
12.3907026902
 20
8.8338740823
 30
0.0
 10
12.3773352308
 20
8.8323314916
 30
0.0
 10
12.3664175176
 20
8.8307477665
 30
0.0
 10
12.3578870134
 20
8.8292610622
 30
0.0
 10
12.3516536278
 20
8.828031728
 30
0.0
 10
12.3455582101
 20
8.8266663488
 30
0.0
 10
12.3396215295
 20
8.825142151
 30
0.0
 10
12.3338685206
 20
8.8234377193
 30
0.0
 10
12.3283348577
 20
8.8215116253
 30
0.0
 10
12.3230624057
 20
8.8193241492
 30
0.0
 10
12.3181136171
 20
8.816805305
 30
0.0
 10
12.3143066098
 20
8.8143272852
 30
0.0
 10
12.3115647705
 20
8.8120501801
 30
0.0
 10
12.3100079538
 20
8.8104810422
 30
0.0
 10
12.308873753
 20
8.8091238511
 30
0.0
 10
12.3080843288
 20
8.8080399074
 30
0.0
 10
12.307367846
 20
8.8068814716
 30
0.0
 10
12.3067343622
 20
8.8056383564
 30
0.0
 10
12.3061935724
 20
8.8042978637
 30
0.0
 10
12.305768426
 20
8.8028385592
 30
0.0
 10
12.305481644
 20
8.8012329802
 30
0.0
 10
12.3054179548
 20
8.800105873
 30
0.0
 10
12.3054179548
 20
8.7995169643
 30
0.0
  0
LINE
  5
2D8
100
AcDbEntity
  8
0
100
AcDbLine
 62
9
  6
CONTINUOUS
 10
13.5298640097
 20
4.5354602206
 11
13.5731818693
 21
4.4390978465
  0
SPLINE
  5
2D9
100
AcDbEntity
  8
0
100
AcDbSpline
 62
9
  6
CONTINUOUS
 70
0
 71
3
 72
38
 73
34
 74
0
 42
0.0000001
 43
0.0000001
 44
0.0000000001
 40
0.0
 40
0.0
 40
0.0
 40
0.0
 40
0.0209383594
 40
0.042545432
 40
0.0649324349
 40
0.0882226461
 40
0.1379393937
 40
0.1645912468
 40
0.1925348404
 40
0.2218265372
 40
0.2524840118
 40
0.284475375
 40
0.3009451986
 40
0.3176999675
 40
0.3346996428
 40
0.3518871701
 40
0.3605236606
 40
0.3691697865
 40
0.3864584049
 40
0.4037071433
 40
0.4209072084
 40
0.4380734753
 40
0.4552137882
 40
0.4894358446
 40
0.5236022389
 40
0.5577292905
 40
0.5918268746
 40
0.6259015745
 40
0.6599579787
 40
0.728028741
 40
0.7960580104
 40
0.8640578423
 40
1.0
 40
1.0
 40
1.0
 40
1.0
 10
13.4295745113
 20
4.6756409755
 30
0.0
 10
13.4306355149
 20
4.6756408816
 30
0.0
 10
13.4327923825
 20
4.6755507768
 30
0.0
 10
13.436061088
 20
4.6751461344
 30
0.0
 10
13.4394041123
 20
4.6744571972
 30
0.0
 10
13.4440506609
 20
4.6731098436
 30
0.0
 10
13.4487222134
 20
4.6711334109
 30
0.0
 10
13.4533486321
 20
4.6685710305
 30
0.0
 10
13.4569172239
 20
4.6662545138
 30
0.0
 10
13.4604799077
 20
4.6635761734
 30
0.0
 10
13.4640080324
 20
4.6605282165
 30
0.0
 10
13.466858265
 20
4.6577036802
 30
0.0
 10
13.469079218
 20
4.6552557809
 30
0.0
 10
13.4707185223
 20
4.6533082308
 30
0.0
 10
13.4723027044
 20
4.651269244
 30
0.0
 10
13.4735602385
 20
4.6494998889
 30
0.0
 10
13.4745268007
 20
4.6480448737
 30
0.0
 10
13.4754651494
 20
4.6465654069
 30
0.0
 10
13.476583045
 20
4.6446837949
 30
0.0
 10
13.4778666193
 20
4.6423976801
 30
0.0
 10
13.4791105575
 20
4.6400968767
 30
0.0
 10
13.4803308548
 20
4.6377897172
 30
0.0
 10
13.4819339858
 20
4.6347093625
 30
0.0
 10
13.4839070505
 20
4.630850507
 30
0.0
 10
13.4862449596
 20
4.6262115789
 30
0.0
 10
13.4885614508
 20
4.6215689713
 30
0.0
 10
13.4908622878
 20
4.6169237766
 30
0.0
 10
13.493151175
 20
4.6122766743
 30
0.0
 10
13.4961897722
 20
4.6060798455
 30
0.0
 10
13.4999695223
 20
4.5983301671
 30
0.0
 10
13.5044854364
 20
4.5890258851
 30
0.0
 10
13.5104861125
 20
4.5766193406
 30
0.0
 10
13.5149721207
 20
4.5673094809
 30
0.0
 10
13.5179593616
 20
4.5611023372
 30
0.0
  0
SPLINE
  5
2DA
100
AcDbEntity
  8
0
100
AcDbSpline
 62
9
  6
CONTINUOUS
 70
0
 71
3
 72
41
 73
37
 74
0
 42
0.0000001
 43
0.0000001
 44
0.0000000001
 40
0.0
 40
0.0
 40
0.0
 40
0.0
 40
0.0410144527
 40
0.0606679816
 40
0.0798348365
 40
0.0986002355
 40
0.117075387
 40
0.1353896442
 40
0.1536839002
 40
0.1721133177
 40
0.1908414363
 40
0.2100412918
 40
0.2299014432
 40
0.2506180325
 40
0.2723902189
 40
0.295390669
 40
0.319777435
 40
0.3457066364
 40
0.3733297756
 40
0.4343346411
 40
0.4681741713
 40
0.5045853499
 40
0.5440361761
 40
0.5651586802
 40
0.5873974033
 40
0.6108620527
 40
0.6354698466
 40
0.6608520119
 40
0.6866465947
 40
0.712646478
 40
0.7387270241
 40
0.7909824649
 40
0.8432653612
 40
0.8955377284
 40
0.9477837422
 40
1.0
 40
1.0
 40
1.0
 40
1.0
 10
11.8482565495
 20
4.6682712295
 30
0.0
 10
11.8489271657
 20
4.6683733389
 30
0.0
 10
11.8499300645
 20
4.6684668966
 30
0.0
 10
11.8512512736
 20
4.668447462
 30
0.0
 10
11.852200783
 20
4.668360419
 30
0.0
 10
11.853120502
 20
4.6681969197
 30
0.0
 10
11.8540078329
 20
4.6679530634
 30
0.0
 10
11.8548598865
 20
4.667626322
 30
0.0
 10
11.8556738469
 20
4.6672152168
 30
0.0
 10
11.8564466658
 20
4.6667183249
 30
0.0
 10
11.8571756838
 20
4.6661348671
 30
0.0
 10
11.8578581288
 20
4.6654633657
 30
0.0
 10
11.8584904553
 20
4.664701239
 30
0.0
 10
11.8590687953
 20
4.6638455347
 30
0.0
 10
11.8595879998
 20
4.6628931883
 30
0.0
 10
11.8600443262
 20
4.6618427686
 30
0.0
 10
11.8604335622
 20
4.6606929689
 30
0.0
 10
11.8607508523
 20
4.6594422818
 30
0.0
 10
11.8610821062
 20
4.6575754224
 30
0.0
 10
11.861222821
 20
4.655547674
 30
0.0
 10
11.8611723499
 20
4.6533765021
 30
0.0
 10
11.8610154461
 20
4.6515676134
 30
0.0
 10
11.8607726116
 20
4.6499806888
 30
0.0
 10
11.8604928159
 20
4.6486396347
 30
0.0
 10
11.8602240732
 20
4.6475672243
 30
0.0
 10
11.8598935317
 20
4.6464519243
 30
0.0
 10
11.8595003457
 20
4.6453021408
 30
0.0
 10
11.8590594818
 20
4.6441287063
 30
0.0
 10
11.8585898804
 20
4.6429417555
 30
0.0
 10
11.8581045909
 20
4.6417486808
 30
0.0
 10
11.857449409
 20
4.640152268
 30
0.0
 10
11.8566254742
 20
4.6381552309
 30
0.0
 10
11.8556395632
 20
4.6357564122
 30
0.0
 10
11.8546581822
 20
4.6333559041
 30
0.0
 10
11.8536821409
 20
4.6309544098
 30
0.0
 10
11.8530345707
 20
4.6293526379
 30
0.0
 10
11.8527115555
 20
4.628551707
 30
0.0
  0
SPLINE
  5
2DB
100
AcDbEntity
  8
0
100
AcDbSpline
 62
9
  6
CONTINUOUS
 70
0
 71
3
 72
15
 73
11
 74
0
 42
0.0000001
 43
0.0000001
 44
0.0000000001
 40
0.0
 40
0.0
 40
0.0
 40
0.0
 40
0.1736341686
 40
0.3313663835
 40
0.4735232387
 40
0.600806938
 40
0.7145736842
 40
0.8168947687
 40
0.9107291515
 40
1.0
 40
1.0
 40
1.0
 40
1.0
 10
11.8149891158
 20
4.5354602206
 30
0.0
 10
11.8148581225
 20
4.5354556501
 30
0.0
 10
11.8146082747
 20
4.5354402235
 30
0.0
 10
11.814253474
 20
4.5353942516
 30
0.0
 10
11.8139377126
 20
4.5353266838
 30
0.0
 10
11.8136618945
 20
4.535237435
 30
0.0
 10
11.8134266647
 20
4.5351265169
 30
0.0
 10
11.8132326132
 20
4.5349936041
 30
0.0
 10
11.8130810034
 20
4.5348383168
 30
0.0
 10
11.8130086692
 20
4.5347187519
 30
0.0
 10
11.8129810073
 20
4.5346573021
 30
0.0
  0
SPLINE
  5
2DC
100
AcDbEntity
  8
0
100
AcDbSpline
 62
9
  6
CONTINUOUS
 70
0
 71
3
 72
14
 73
10
 74
0
 42
0.0000001
 43
0.0000001
 44
0.0000000001
 40
0.0
 40
0.0
 40
0.0
 40
0.0
 40
0.3168736079
 40
0.4555844683
 40
0.5819985563
 40
0.6974566481
 40
0.8038401282
 40
0.9036551841
 40
1.0
 40
1.0
 40
1.0
 40
1.0
 10
11.8261987785
 20
4.5611023944
 30
0.0
 10
11.8259334928
 20
4.5610685028
 30
0.0
 10
11.825553415
 20
4.560998606
 30
0.0
 10
11.8250858829
 20
4.5608458263
 30
0.0
 10
11.8247920342
 20
4.560714329
 30
0.0
 10
11.8245401344
 20
4.5605611036
 30
0.0
 10
11.824331044
 20
4.5603860357
 30
0.0
 10
11.82416604
 20
4.5601893227
 30
0.0
 10
11.8240857157
 20
4.5600430639
 30
0.0
 10
11.8240540142
 20
4.5599681828
 30
0.0
  0
SPLINE
  5
2DD
100
AcDbEntity
  8
0
100
AcDbSpline
 62
9
  6
CONTINUOUS
 70
0
 71
3
 72
9
 73
5
 74
0
 42
0.0000001
 43
0.0000001
 44
0.0000000001
 40
0.0
 40
0.0
 40
0.0
 40
0.0
 40
0.4978349001
 40
1.0
 40
1.0
 40
1.0
 40
1.0
 10
11.8499064618
 20
4.6756399954
 30
0.0
 10
11.8493642174
 20
4.6745017286
 30
0.0
 10
11.8485340123
 20
4.6720836414
 30
0.0
 10
11.8482557554
 20
4.669543261
 30
0.0
 10
11.848255718
 20
4.668271469
 30
0.0
  0
SPLINE
  5
2DE
100
AcDbEntity
  8
0
100
AcDbSpline
 62
9
  6
CONTINUOUS
 70
0
 71
3
 72
46
 73
42
 74
0
 42
0.0000001
 43
0.0000001
 44
0.0000000001
 40
0.0
 40
0.0
 40
0.0
 40
0.0
 40
0.0605457682
 40
0.1210894429
 40
0.1816307391
 40
0.2421692981
 40
0.272437433
 40
0.3027047143
 40
0.3329710713
 40
0.3632364468
 40
0.3935007901
 40
0.4237641444
 40
0.454026641
 40
0.4691578713
 40
0.4842895369
 40
0.4994218893
 40
0.5069885044
 40
0.5145557091
 40
0.5221238697
 40
0.5296940139
 40
0.5372681256
 40
0.5448468898
 40
0.5524301909
 40
0.5600228561
 40
0.5676323633
 40
0.5752604867
 40
0.5829092019
 40
0.5905822035
 40
0.6060086518
 40
0.6215446365
 40
0.6371898202
 40
0.6687824324
 40
0.6847369404
 40
0.7007831552
 40
0.7331258934
 40
0.765780124
 40
0.7987025114
 40
0.8318578963
 40
0.8652114677
 40
0.932367136
 40
1.0
 40
1.0
 40
1.0
 40
1.0
 10
12.7345961747
 20
4.5611023797
 30
0.0
 10
12.7347783891
 20
4.5642052564
 30
0.0
 10
12.7351460669
 20
4.5704107123
 30
0.0
 10
12.7357118187
 20
4.5797178683
 30
0.0
 10
12.7362975809
 20
4.5890234187
 30
0.0
 10
12.7368088365
 20
4.5967763115
 30
0.0
 10
12.7372377389
 20
4.6029770442
 30
0.0
 10
12.7375714197
 20
4.6076265592
 30
0.0
 10
12.7379198112
 20
4.6122748564
 30
0.0
 10
12.7382865461
 20
4.6169215959
 30
0.0
 10
12.7386764564
 20
4.6215663054
 30
0.0
 10
12.7390969509
 20
4.6262082096
 30
0.0
 10
12.7394821934
 20
4.6300731356
 30
0.0
 10
12.7398214028
 20
4.63316177
 30
0.0
 10
12.7400955903
 20
4.63547606
 30
0.0
 10
12.7403453783
 20
4.6374020959
 30
0.0
 10
12.7405630505
 20
4.6389405555
 30
0.0
 10
12.7407362132
 20
4.6400930835
 30
0.0
 10
12.7409225363
 20
4.6412437556
 30
0.0
 10
12.7411257002
 20
4.6423919505
 30
0.0
 10
12.7413487753
 20
4.6435370179
 30
0.0
 10
12.7415969009
 20
4.6446776703
 30
0.0
 10
12.7418794194
 20
4.6458113745
 30
0.0
 10
12.7422051424
 20
4.6469351997
 30
0.0
 10
12.7425817064
 20
4.6480455277
 30
0.0
 10
12.743009793
 20
4.6491401207
 30
0.0
 10
12.7434906702
 20
4.6502162125
 30
0.0
 10
12.7442047307
 20
4.6516245847
 30
0.0
 10
12.7452236909
 20
4.6533294513
 30
0.0
 10
12.7466154822
 20
4.6552785748
 30
0.0
 10
12.7486772769
 20
4.6577582588
 30
0.0
 10
12.7509977387
 20
4.6600393552
 30
0.0
 10
12.7535118315
 20
4.662123585
 30
0.0
 10
12.7561636453
 20
4.6640954683
 30
0.0
 10
12.7596841987
 20
4.6663251751
 30
0.0
 10
12.7641579008
 20
4.6686301362
 30
0.0
 10
12.7688395234
 20
4.6705854803
 30
0.0
 10
12.773685436
 20
4.6722031379
 30
0.0
 10
12.7803310389
 20
4.6739302698
 30
0.0
 10
12.7888754851
 20
4.6753001148
 30
0.0
 10
12.7958004214
 20
4.6756406697
 30
0.0
 10
12.7992724721
 20
4.6756409716
 30
0.0
  0
SPLINE
  5
2DF
100
AcDbEntity
  8
0
100
AcDbSpline
 62
9
  6
CONTINUOUS
 70
0
 71
3
 72
11
 73
7
 74
0
 42
0.0000001
 43
0.0000001
 44
0.0000000001
 40
0.0
 40
0.0
 40
0.0
 40
0.0
 40
0.2500660665
 40
0.5000847276
 40
0.7500612406
 40
1.0
 40
1.0
 40
1.0
 40
1.0
 10
12.733900739
 20
4.535460216
 30
0.0
 10
12.7339001011
 20
4.5375986949
 30
0.0
 10
12.7339258033
 20
4.5418753062
 30
0.0
 10
12.7340481315
 20
4.5482885961
 30
0.0
 10
12.7342608511
 20
4.5546984625
 30
0.0
 10
12.7344708883
 20
4.5589686645
 30
0.0
 10
12.7345961747
 20
4.5611023797
 30
0.0
  0
LINE
  5
2E0
100
AcDbEntity
  8
0
100
AcDbLine
 62
9
  6
CONTINUOUS
 10
12.7339283286
 20
4.4390977336
 11
12.733900739
 21
4.535460216
  0
LINE
  5
2E1
100
AcDbEntity
  8
0
100
AcDbLine
 62
9
  6
CONTINUOUS
 10
11.8251342722
 20
4.4355565888
 11
11.8684998858
 21
4.5318930966
  0
SPLINE
  5
2E2
100
AcDbEntity
  8
0
100
AcDbSpline
 62
9
  6
CONTINUOUS
 70
0
 71
3
 72
19
 73
15
 74
0
 42
0.0000001
 43
0.0000001
 44
0.0000000001
 40
0.0
 40
0.0
 40
0.0
 40
0.0
 40
0.1455309135
 40
0.2882993957
 40
0.426649228
 40
0.558979572
 40
0.6224154133
 40
0.6837902772
 40
0.7429356247
 40
0.7996906822
 40
0.8539044001
 40
0.9054418405
 40
0.9541818717
 40
1.0
 40
1.0
 40
1.0
 40
1.0
 10
11.8684998858
 20
4.5318930966
 30
0.0
 10
11.8728839948
 20
4.529973681
 30
0.0
 10
11.8816180076
 20
4.5262820406
 30
0.0
 10
11.8946824078
 20
4.521160943
 30
0.0
 10
11.9074751919
 20
4.5165502481
 30
0.0
 10
11.9179201973
 20
4.513133589
 30
0.0
 10
11.9260212807
 20
4.5107073624
 30
0.0
 10
11.931846561
 20
4.5090743266
 30
0.0
 10
11.9374890887
 20
4.5076070726
 30
0.0
 10
11.9429314255
 20
4.5063101578
 30
0.0
 10
11.9481567755
 20
4.5051874747
 30
0.0
 10
11.953149226
 20
4.5042423936
 30
0.0
 10
11.9578930783
 20
4.5034779135
 30
0.0
 10
11.9609774497
 20
4.5030773571
 30
0.0
 10
11.9624749176
 20
4.5029103064
 30
0.0
  0
SPLINE
  5
2E3
100
AcDbEntity
  8
0
100
AcDbSpline
 62
9
  6
CONTINUOUS
 70
0
 71
3
 72
18
 73
14
 74
0
 42
0.0000001
 43
0.0000001
 44
0.0000000001
 40
0.0
 40
0.0
 40
0.0
 40
0.0
 40
0.1432581509
 40
0.2847565307
 40
0.4227881644
 40
0.5556000647
 40
0.6194963422
 40
0.6814254168
 40
0.7411738662
 40
0.7985299521
 40
0.8532806611
 40
0.9052294663
 40
1.0
 40
1.0
 40
1.0
 40
1.0
 10
11.8251342722
 20
4.4355565888
 30
0.0
 10
11.829981012
 20
4.4348323415
 30
0.0
 10
11.8396213561
 20
4.4334351422
 30
0.0
 10
11.8539534421
 20
4.4314944876
 30
0.0
 10
11.8679488016
 20
4.4297347472
 30
0.0
 10
11.8793248812
 20
4.4284270718
 30
0.0
 10
11.8881229692
 20
4.4274936095
 30
0.0
 10
11.894439667
 20
4.4268627195
 30
0.0
 10
11.9005377836
 20
4.4262958195
 30
0.0
 10
11.9063953809
 20
4.4257963655
 30
0.0
 10
11.9119906689
 20
4.4253627705
 30
0.0
 10
11.9188662478
 20
4.4248889204
 30
0.0
 10
11.9238785921
 20
4.4246200255
 30
0.0
 10
11.9271178917
 20
4.4244903026
 30
0.0
  0
SPLINE
  5
2E4
100
AcDbEntity
  8
0
100
AcDbSpline
 62
9
  6
CONTINUOUS
 70
0
 71
3
 72
18
 73
14
 74
0
 42
0.0000001
 43
0.0000001
 44
0.0000000001
 40
0.0
 40
0.0
 40
0.0
 40
0.0
 40
0.1408128325
 40
0.2801671503
 40
0.4164592699
 40
0.5481196071
 40
0.6736496832
 40
0.7336738354
 40
0.791645693
 40
0.8474061496
 40
0.900809756
 40
0.9517219142
 40
1.0
 40
1.0
 40
1.0
 40
1.0
 10
11.879400075
 20
4.5572486506
 30
0.0
 10
11.8840988608
 20
4.5581106657
 30
0.0
 10
11.8934273078
 20
4.5599395673
 30
0.0
 10
11.9072225987
 20
4.5629974494
 30
0.0
 10
11.920634884
 20
4.5663289108
 30
0.0
 10
11.9335011757
 20
4.569893271
 30
0.0
 10
11.9437864293
 20
4.5730666575
 30
0.0
 10
11.9516188296
 20
4.575696717
 30
0.0
 10
11.9571738573
 20
4.5776702211
 30
0.0
 10
11.9624808435
 20
4.5796680871
 30
0.0
 10
11.9675238753
 20
4.5816843173
 30
0.0
 10
11.9722873123
 20
4.5837126873
 30
0.0
 10
11.9753505714
 20
4.5851067908
 30
0.0
 10
11.9768315944
 20
4.5858062287
 30
0.0
  0
SPLINE
  5
2E5
100
AcDbEntity
  8
0
100
AcDbSpline
 62
9
  6
CONTINUOUS
 70
0
 71
3
 72
57
 73
53
 74
0
 42
0.0000001
 43
0.0000001
 44
0.0000000001
 40
0.0
 40
0.0
 40
0.0
 40
0.0
 40
0.0684197384
 40
0.1367888918
 40
0.2051012177
 40
0.2733480375
 40
0.3074433168
 40
0.3415171342
 40
0.375567037
 40
0.4095900025
 40
0.4435815849
 40
0.4775371224
 40
0.5114491802
 40
0.5283866502
 40
0.5453105501
 40
0.5622196936
 40
0.5791144583
 40
0.5875580917
 40
0.5960005014
 40
0.6044443645
 40
0.6128929133
 40
0.6171215776
 40
0.621355427
 40
0.6255957186
 40
0.6298443708
 40
0.6341057988
 40
0.6383840094
 40
0.6469974523
 40
0.6556848209
 40
0.6644068236
 40
0.6731043108
 40
0.6817375434
 40
0.6902886692
 40
0.6987512064
 40
0.7154022101
 40
0.7316850365
 40
0.7475972208
 40
0.7631381107
 40
0.7783126104
 40
0.8075776302
 40
0.8216830012
 40
0.8354449506
 40
0.8488723634
 40
0.8619794762
 40
0.8872949742
 40
0.9115140068
 40
0.9347534306
 40
0.9460495163
 40
0.9571532521
 40
0.9680844986
 40
0.9788607025
 40
1.0
 40
1.0
 40
1.0
 40
1.0
 10
11.8794000848
 20
4.5572486524
 30
0.0
 10
11.8805947384
 20
4.5603305214
 30
0.0
 10
11.8829756464
 20
4.5664948984
 30
0.0
 10
11.8865203402
 20
4.5757474714
 30
0.0
 10
11.8900351682
 20
4.5850024987
 30
0.0
 10
11.8929364144
 20
4.5927193701
 30
0.0
 10
11.8952386437
 20
4.59889433
 30
0.0
 10
11.8969540024
 20
4.6035249659
 30
0.0
 10
11.8986579967
 20
4.6081560734
 30
0.0
 10
11.900349702
 20
4.6127874571
 30
0.0
 10
11.9020264225
 20
4.6174194394
 30
0.0
 10
11.9036882683
 20
4.6220510894
 30
0.0
 10
11.9050575991
 20
4.625912366
 30
0.0
 10
11.9061434194
 20
4.6290011666
 30
0.0
 10
11.9069525484
 20
4.6313165541
 30
0.0
 10
11.9077563205
 20
4.6336316231
 30
0.0
 10
11.9084220774
 20
4.6355609389
 30
0.0
 10
11.9089546673
 20
4.6371035159
 30
0.0
 10
11.9093542703
 20
4.6382601026
 30
0.0
 10
11.9097561982
 20
4.6394161345
 30
0.0
 10
11.9100935869
 20
4.64037909
 30
0.0
 10
11.9103675988
 20
4.6411487332
 30
0.0
 10
11.9105765045
 20
4.6417257489
 30
0.0
 10
11.9107891771
 20
4.6423024165
 30
0.0
 10
11.9110063576
 20
4.6428788296
 30
0.0
 10
11.91123133
 20
4.6434542344
 30
0.0
 10
11.9115460253
 20
4.6442208358
 30
0.0
 10
11.9119702615
 20
4.6451735132
 30
0.0
 10
11.9125451622
 20
4.6462924456
 30
0.0
 10
11.9131952612
 20
4.6473742426
 30
0.0
 10
11.9139067732
 20
4.6484131143
 30
0.0
 10
11.9146604958
 20
4.6494111702
 30
0.0
 10
11.9154439045
 20
4.6503713588
 30
0.0
 10
11.9165109829
 20
4.6515989183
 30
0.0
 10
11.9178828819
 20
4.6530552106
 30
0.0
 10
11.9195771188
 20
4.6546986948
 30
0.0
 10
11.9212974749
 20
4.6562353434
 30
0.0
 10
11.9230357925
 20
4.6576688449
 30
0.0
 10
11.9253397536
 20
4.6594268817
 30
0.0
 10
11.9276812485
 20
4.661018825
 30
0.0
 10
11.9300490593
 20
4.6624380118
 30
0.0
 10
11.9317985013
 20
4.6633978231
 30
0.0
 10
11.9335411809
 20
4.6642666068
 30
0.0
 10
11.9358259581
 20
4.6652945116
 30
0.0
 10
11.9386561767
 20
4.6663754193
 30
0.0
 10
11.9420337983
 20
4.6673641617
 30
0.0
 10
11.944818738
 20
4.6679320206
 30
0.0
 10
11.9470041547
 20
4.6682283508
 30
0.0
 10
11.9486082276
 20
4.6683745461
 30
0.0
 10
11.9501920151
 20
4.6684503988
 30
0.0
 10
11.9522622772
 20
4.6684623808
 30
0.0
 10
11.9538040106
 20
4.6683738059
 30
0.0
 10
11.9548200646
 20
4.66827115
 30
0.0
  0
LINE
  5
2E6
100
AcDbEntity
  8
0
100
AcDbLine
 62
9
  6
CONTINUOUS
 10
12.6388044801
 20
4.5318931021
 11
12.6387841396
 21
4.435556706
  0
SPLINE
  5
2E7
100
AcDbEntity
  8
0
100
AcDbSpline
 62
9
  6
CONTINUOUS
 70
0
 71
3
 72
21
 73
17
 74
0
 42
0.0000001
 43
0.0000001
 44
0.0000000001
 40
0.0
 40
0.0
 40
0.0
 40
0.0
 40
0.1525278023
 40
0.300499819
 40
0.372181084
 40
0.4420230684
 40
0.5098144648
 40
0.5753562906
 40
0.6384705371
 40
0.6989897294
 40
0.7567561894
 40
0.8116294484
 40
0.8634884179
 40
0.912230315
 40
0.9577642417
 40
1.0
 40
1.0
 40
1.0
 40
1.0
 10
12.5449675408
 20
4.4244902831
 30
0.0
 10
12.5497801348
 20
4.4246103523
 30
0.0
 10
12.5592594393
 20
4.4249438511
 30
0.0
 10
12.5709886249
 20
4.4256051193
 30
0.0
 10
12.5801010607
 20
4.4262781437
 30
0.0
 10
12.5866833666
 20
4.4268438506
 30
0.0
 10
12.5930652782
 20
4.4274724857
 30
0.0
 10
12.599227469
 20
4.4281604533
 30
0.0
 10
12.6051515946
 20
4.4289070075
 30
0.0
 10
12.6108205567
 20
4.4297103057
 30
0.0
 10
12.6162188373
 20
4.4305649143
 30
0.0
 10
12.6213320235
 20
4.4314674055
 30
0.0
 10
12.6261468644
 20
4.4324162316
 30
0.0
 10
12.6306516875
 20
4.4334082174
 30
0.0
 10
12.6348354804
 20
4.4344396174
 30
0.0
 10
12.6375057274
 20
4.4351789787
 30
0.0
 10
12.6387841396
 20
4.435556706
 30
0.0
  0
SPLINE
  5
2E8
100
AcDbEntity
  8
0
100
AcDbSpline
 62
9
  6
CONTINUOUS
 70
0
 71
3
 72
19
 73
15
 74
0
 42
0.0000001
 43
0.0000001
 44
0.0000000001
 40
0.0
 40
0.0
 40
0.0
 40
0.0
 40
0.0486999019
 40
0.099582703
 40
0.1526199893
 40
0.2077797495
 40
0.2650082796
 40
0.3242289115
 40
0.3853497143
 40
0.4482660077
 40
0.5789831883
 40
0.7153318032
 40
0.8561033808
 40
1.0
 40
1.0
 40
1.0
 40
1.0
 10
12.6388044801
 20
4.5318931021
 30
0.0
 10
12.6375352943
 20
4.5309062979
 30
0.0
 10
12.6348767251
 20
4.5289688568
 30
0.0
 10
12.6306445908
 20
4.5262310542
 30
0.0
 10
12.6260934704
 20
4.5236064923
 30
0.0
 10
12.6212378903
 20
4.5211032662
 30
0.0
 10
12.6160925295
 20
4.5187288267
 30
0.0
 10
12.6106731533
 20
4.516490534
 30
0.0
 10
12.6049964458
 20
4.514395138
 30
0.0
 10
12.5970060474
 20
4.5117673402
 30
0.0
 10
12.5864887143
 20
4.5088979782
 30
0.0
 10
12.5732994063
 20
4.5061572301
 30
0.0
 10
12.5595454938
 20
4.5041099195
 30
0.0
 10
12.5501840192
 20
4.5032311024
 30
0.0
 10
12.54544457
 20
4.5029103064
 30
0.0
  0
SPLINE
  5
2E9
100
AcDbEntity
  8
0
100
AcDbSpline
 62
9
  6
CONTINUOUS
 70
0
 71
3
 72
56
 73
52
 74
0
 42
0.0000001
 43
0.0000001
 44
0.0000000001
 40
0.0
 40
0.0
 40
0.0
 40
0.0
 40
0.0332905392
 40
0.049904483
 40
0.066491165
 40
0.099565907
 40
0.1324960464
 40
0.1652500742
 40
0.1977965385
 40
0.2300987915
 40
0.2461483035
 40
0.2621202883
 40
0.2780087646
 40
0.2938077533
 40
0.3095109801
 40
0.3251114588
 40
0.3406015525
 40
0.3559734592
 40
0.3712196004
 40
0.3787964993
 40
0.3863419783
 40
0.3938593951
 40
0.4013580966
 40
0.4051079461
 40
0.4088617975
 40
0.4126237166
 40
0.4163959544
 40
0.4239732816
 40
0.4315926825
 40
0.4392440002
 40
0.4469118922
 40
0.4545905914
 40
0.4622752676
 40
0.4699636114
 40
0.4776545308
 40
0.4930402036
 40
0.5084270443
 40
0.5238128725
 40
0.5391976325
 40
0.5545810621
 40
0.5699624513
 40
0.600718745
 40
0.6314682985
 40
0.6622100697
 40
0.6929453901
 40
0.7236745505
 40
0.7543974346
 40
0.8158271036
 40
0.8772361298
 40
0.9386267744
 40
1.0
 40
1.0
 40
1.0
 40
1.0
 10
12.5863544535
 20
4.6682712295
 30
0.0
 10
12.588023918
 20
4.6683726433
 30
0.0
 10
12.5905309821
 20
4.6684624722
 30
0.0
 10
12.5938718283
 20
4.6684510632
 30
0.0
 10
12.597200377
 20
4.668350445
 30
0.0
 10
12.6013415254
 20
4.6680494321
 30
0.0
 10
12.60626173
 20
4.6673837475
 30
0.0
 10
12.611102428
 20
4.6664038593
 30
0.0
 10
12.6158345859
 20
4.6651033627
 30
0.0
 10
12.6196661284
 20
4.6637330302
 30
0.0
 10
12.622634359
 20
4.6624527892
 30
0.0
 10
12.6248012996
 20
4.66140293
 30
0.0
 10
12.6269063775
 20
4.660259993
 30
0.0
 10
12.6289417299
 20
4.659022656
 30
0.0
 10
12.6308984023
 20
4.6576896081
 30
0.0
 10
12.6327649584
 20
4.6562580373
 30
0.0
 10
12.6345257535
 20
4.6547228869
 30
0.0
 10
12.6361627988
 20
4.6530810874
 30
0.0
 10
12.63740506
 20
4.6516146178
 30
0.0
 10
12.6383000115
 20
4.6503780747
 30
0.0
 10
12.638910932
 20
4.6494176176
 30
0.0
 10
12.639448265
 20
4.648418234
 30
0.0
 10
12.6398181409
 20
4.6475490164
 30
0.0
 10
12.6400540128
 20
4.6468327261
 30
0.0
 10
12.6401981674
 20
4.6462850178
 30
0.0
 10
12.6403087714
 20
4.6457284458
 30
0.0
 10
12.6404142417
 20
4.6449762434
 30
0.0
 10
12.6404772285
 20
4.6440241411
 30
0.0
 10
12.6404807777
 20
4.6428758419
 30
0.0
 10
12.6404379526
 20
4.6417240389
 30
0.0
 10
12.6403784338
 20
4.6405701368
 30
0.0
 10
12.640307308
 20
4.6394152023
 30
0.0
 10
12.6402326439
 20
4.6382594781
 30
0.0
 10
12.6401567323
 20
4.6371032167
 30
0.0
 10
12.6400555589
 20
4.6355608781
 30
0.0
 10
12.6399324941
 20
4.6336323647
 30
0.0
 10
12.6397944538
 20
4.6313174387
 30
0.0
 10
12.6396667546
 20
4.6290019661
 30
0.0
 10
12.6395482353
 20
4.6266861784
 30
0.0
 10
12.6394385526
 20
4.6243701786
 30
0.0
 10
12.6393039219
 20
4.6212822383
 30
0.0
 10
12.6391558043
 20
4.6174221778
 30
0.0
 10
12.6390043528
 20
4.6127900407
 30
0.0
 10
12.6388777128
 20
4.6081582156
 30
0.0
 10
12.638771895
 20
4.6035268986
 30
0.0
 10
12.6386852862
 20
4.5988961325
 30
0.0
 10
12.6385933491
 20
4.5927231348
 30
0.0
 10
12.6385180198
 20
4.5850083933
 30
0.0
 10
12.6384833478
 20
4.5757525891
 30
0.0
 10
12.6384978185
 20
4.5664995757
 30
0.0
 10
12.6385375129
 20
4.5603319272
 30
0.0
 10
12.638564246
 20
4.5572486056
 30
0.0
  0
SPLINE
  5
2EA
100
AcDbEntity
  8
0
100
AcDbSpline
 62
9
  6
CONTINUOUS
 70
0
 71
3
 72
16
 73
12
 74
0
 42
0.0000001
 43
0.0000001
 44
0.0000000001
 40
0.0
 40
0.0
 40
0.0
 40
0.0
 40
0.0417792253
 40
0.0871058053
 40
0.187811049
 40
0.3009071505
 40
0.4250247949
 40
0.5586603868
 40
0.7001937966
 40
0.847902925
 40
1.0
 40
1.0
 40
1.0
 40
1.0
 10
12.638564246
 20
4.5572486056
 30
0.0
 10
12.6373597204
 20
4.5576996939
 30
0.0
 10
12.634843932
 20
4.558628273
 30
0.0
 10
12.6294044611
 20
4.5605888479
 30
0.0
 10
12.6218724672
 20
4.5632182048
 30
0.0
 10
12.6120167741
 20
4.5665490843
 30
0.0
 10
12.6011711495
 20
4.5701160346
 30
0.0
 10
12.5894675413
 20
4.5738754036
 30
0.0
 10
12.5770483699
 20
4.5777811252
 30
0.0
 10
12.5640646715
 20
4.5817855558
 30
0.0
 10
12.555230801
 20
4.5844602673
 30
0.0
 10
12.550745938
 20
4.5858062287
 30
0.0
  0
SPLINE
  5
2EB
100
AcDbEntity
  8
0
100
AcDbSpline
 62
9
  6
CONTINUOUS
 70
0
 71
3
 72
15
 73
11
 74
0
 42
0.0000001
 43
0.0000001
 44
0.0000000001
 40
0.0
 40
0.0
 40
0.0
 40
0.0
 40
0.1432388597
 40
0.2842748419
 40
0.4213521744
 40
0.552958797
 40
0.6776680427
 40
0.7942769342
 40
0.9019146966
 40
1.0
 40
1.0
 40
1.0
 40
1.0
 10
12.6519351707
 20
4.5354602206
 30
0.0
 10
12.6512760353
 20
4.5354493758
 30
0.0
 10
12.6499681944
 20
4.5353905818
 30
0.0
 10
12.6480382107
 20
4.5351911497
 30
0.0
 10
12.6461765506
 20
4.5348836424
 30
0.0
 10
12.6444117971
 20
4.5344730262
 30
0.0
 10
12.6427706035
 20
4.533965402
 30
0.0
 10
12.6412774386
 20
4.5333685241
 30
0.0
 10
12.6399550586
 20
4.5326912672
 30
0.0
 10
12.6391626369
 20
4.5321678771
 30
0.0
 10
12.6388044801
 20
4.5318931051
 30
0.0
  0
SPLINE
  5
2EC
100
AcDbEntity
  8
0
100
AcDbSpline
 62
9
  6
CONTINUOUS
 70
0
 71
3
 72
15
 73
11
 74
0
 42
0.0000001
 43
0.0000001
 44
0.0000000001
 40
0.0
 40
0.0
 40
0.0
 40
0.0
 40
0.1403206379
 40
0.279006338
 40
0.4144922393
 40
0.545411844
 40
0.6704509601
 40
0.7884608341
 40
0.8985458908
 40
1.0
 40
1.0
 40
1.0
 40
1.0
 10
12.6512406489
 20
4.5611023944
 30
0.0
 10
12.6506146623
 20
4.5610631011
 30
0.0
 10
12.6493718318
 20
4.5609511787
 30
0.0
 10
12.6475375505
 20
4.5606838936
 30
0.0
 10
12.6457624957
 20
4.5603210824
 30
0.0
 10
12.6440712877
 20
4.5598679715
 30
0.0
 10
12.6424870354
 20
4.5593306658
 30
0.0
 10
12.641031172
 20
4.5587166055
 30
0.0
 10
12.639723817
 20
4.5580341266
 30
0.0
 10
12.6389292126
 20
4.5575177851
 30
0.0
 10
12.6385642508
 20
4.5572486096
 30
0.0
  0
LINE
  5
2ED
100
AcDbEntity
  8
0
100
AcDbLine
 62
9
  6
CONTINUOUS
 10
12.5865634262
 20
4.6756399954
 11
12.586354598
 21
4.668271469
  0
SPLINE
  5
2EE
100
AcDbEntity
  8
0
100
AcDbSpline
 62
9
  6
CONTINUOUS
 70
0
 71
3
 72
14
 73
10
 74
0
 42
0.0000001
 43
0.0000001
 44
0.0000000001
 40
0.0
 40
0.0
 40
0.0
 40
0.0
 40
0.086353657
 40
0.1865451555
 40
0.2994215043
 40
0.4236405431
 40
0.5576181881
 40
0.6995937984
 40
1.0
 40
1.0
 40
1.0
 40
1.0
 10
11.8678765685
 20
4.5611023797
 30
0.0
 10
11.8682247022
 20
4.5610594043
 30
0.0
 10
11.8689726612
 20
4.5609331978
 30
0.0
 10
11.8701585385
 20
4.5606610496
 30
0.0
 10
11.8714790223
 20
4.5602942051
 30
0.0
 10
11.8729157965
 20
4.5598375394
 30
0.0
 10
11.8744490972
 20
4.5592970371
 30
0.0
 10
11.876635199
 20
4.5584584574
 30
0.0
 10
11.8782884724
 20
4.5577520321
 30
0.0
 10
11.8794000809
 20
4.5572486425
 30
0.0
  0
SPLINE
  5
2EF
100
AcDbEntity
  8
0
100
AcDbSpline
 62
9
  6
CONTINUOUS
 70
0
 71
3
 72
15
 73
11
 74
0
 42
0.0000001
 43
0.0000001
 44
0.0000000001
 40
0.0
 40
0.0
 40
0.0
 40
0.0
 40
0.0872962263
 40
0.188307949
 40
0.3018615346
 40
0.426542319
 40
0.5606505736
 40
0.7022845785
 40
0.8494739326
 40
1.0
 40
1.0
 40
1.0
 40
1.0
 10
11.8559718979
 20
4.535460216
 30
0.0
 10
11.8563524808
 20
4.535448366
 30
0.0
 10
11.8571721058
 20
4.5353783714
 30
0.0
 10
11.8584732539
 20
4.5351723053
 30
0.0
 10
11.8599201487
 20
4.534859205
 30
0.0
 10
11.8614906296
 20
4.5344436287
 30
0.0
 10
11.8631608197
 20
4.533931491
 30
0.0
 10
11.8649052635
 20
4.5333305067
 30
0.0
 10
11.8666969223
 20
4.5326497566
 30
0.0
 10
11.8678969105
 20
4.5321528946
 30
0.0
 10
11.8684998841
 20
4.531893093
 30
0.0
  0
SPLINE
  5
2F0
100
AcDbEntity
  8
0
100
AcDbSpline
 62
9
  6
CONTINUOUS
 70
0
 71
3
 72
15
 73
11
 74
0
 42
0.0000001
 43
0.0000001
 44
0.0000000001
 40
0.0
 40
0.0
 40
0.0
 40
0.0
 40
0.087213322
 40
0.1881446491
 40
0.3016310257
 40
0.4262681693
 40
0.5603671257
 40
0.7020369367
 40
0.8493173762
 40
1.0
 40
1.0
 40
1.0
 40
1.0
 10
11.81265401
 20
4.4390977336
 30
0.0
 10
11.8130327028
 20
4.4390864595
 30
0.0
 10
11.8138483817
 20
4.4390178163
 30
0.0
 10
11.8151434792
 20
4.4388141477
 30
0.0
 10
11.8165839938
 20
4.4385039182
 30
0.0
 10
11.818147976
 20
4.4380916182
 30
0.0
 10
11.8198117702
 20
4.4375830818
 30
0.0
 10
11.8215501468
 20
4.4369859293
 30
0.0
 10
11.8233362971
 20
4.4363091364
 30
0.0
 10
11.8245328745
 20
4.4358150181
 30
0.0
 10
11.8251342783
 20
4.4355565949
 30
0.0
  0
SPLINE
  5
2F1
100
AcDbEntity
  8
0
100
AcDbSpline
 62
9
  6
CONTINUOUS
 70
0
 71
3
 72
17
 73
13
 74
0
 42
0.0000001
 43
0.0000001
 44
0.0000000001
 40
0.0
 40
0.0
 40
0.0
 40
0.0
 40
0.1238678196
 40
0.2482978082
 40
0.3734165775
 40
0.4993454071
 40
0.6260954287
 40
0.7532493271
 40
0.8166029004
 40
0.8792809953
 40
0.9406694683
 40
1.0
 40
1.0
 40
1.0
 40
1.0
 10
12.8002346273
 20
4.3975169643
 30
0.0
 10
12.797979061
 20
4.3975169664
 30
0.0
 10
12.7934562688
 20
4.3976302152
 30
0.0
 10
12.7866785819
 20
4.3982467513
 30
0.0
 10
12.7799335283
 20
4.3994198691
 30
0.0
 10
12.7732910142
 20
4.4012604582
 30
0.0
 10
12.7668697407
 20
4.4038775184
 30
0.0
 10
12.7618525666
 20
4.4067929751
 30
0.0
 10
12.758186823
 20
4.4095979692
 30
0.0
 10
12.7556783272
 20
4.4119206174
 30
0.0
 10
12.7534739995
 20
4.4144376119
 30
0.0
 10
12.7522223976
 20
4.4162527929
 30
0.0
 10
12.7516693249
 20
4.4171808689
 30
0.0
  0
SPLINE
  5
2F2
100
AcDbEntity
  8
0
100
AcDbSpline
 62
9
  6
CONTINUOUS
 70
0
 71
3
 72
11
 73
7
 74
0
 42
0.0000001
 43
0.0000001
 44
0.0000000001
 40
0.0
 40
0.0
 40
0.0
 40
0.0
 40
0.2562316978
 40
0.5074351421
 40
0.7549078328
 40
1.0
 40
1.0
 40
1.0
 40
1.0
 10
12.7516693249
 20
4.4171808689
 30
0.0
 10
12.7508299563
 20
4.4185895673
 30
0.0
 10
12.7493720306
 20
4.4215073366
 30
0.0
 10
12.7478732959
 20
4.4261180236
 30
0.0
 10
12.7470737518
 20
4.4308265003
 30
0.0
 10
12.7469884099
 20
4.4339893076
 30
0.0
 10
12.7470518181
 20
4.4355565438
 30
0.0
  0
SPLINE
  5
2F3
100
AcDbEntity
  8
0
100
AcDbSpline
 62
9
  6
CONTINUOUS
 70
0
 71
3
 72
13
 73
9
 74
0
 42
0.0000001
 43
0.0000001
 44
0.0000000001
 40
0.0
 40
0.0
 40
0.0
 40
0.0
 40
0.2673444819
 40
0.5253098994
 40
0.6497491803
 40
0.7706113621
 40
0.8875066631
 40
1.0
 40
1.0
 40
1.0
 40
1.0
 10
13.5607012847
 20
4.4355566257
 30
0.0
 10
13.5615280982
 20
4.4340141681
 30
0.0
 10
13.5630619804
 20
4.4309335172
 30
0.0
 10
13.5646938955
 20
4.4270010487
 30
0.0
 10
13.5657699273
 20
4.4238863282
 30
0.0
 10
13.5664453212
 20
4.4216126442
 30
0.0
 10
13.566991421
 20
4.4193848873
 30
0.0
 10
13.567270463
 20
4.4179084305
 30
0.0
 10
13.5673848802
 20
4.4171809721
 30
0.0
  0
SPLINE
  5
2F4
100
AcDbEntity
  8
0
100
AcDbSpline
 62
9
  6
CONTINUOUS
 70
0
 71
3
 72
21
 73
17
 74
0
 42
0.0000001
 43
0.0000001
 44
0.0000000001
 40
0.0
 40
0.0
 40
0.0
 40
0.0
 40
0.0707633939
 40
0.1380278099
 40
0.2025654762
 40
0.2340988578
 40
0.2652455098
 40
0.3266262998
 40
0.3872640537
 40
0.4475398883
 40
0.5077224854
 40
0.6283641224
 40
0.7503300255
 40
0.8120042589
 40
0.8741775018
 40
1.0
 40
1.0
 40
1.0
 40
1.0
 10
13.5673848802
 20
4.4171809721
 30
0.0
 10
13.5675233712
 20
4.4162985812
 30
0.0
 10
13.5676367503
 20
4.4145480023
 30
0.0
 10
13.5673259213
 20
4.4119963284
 30
0.0
 10
13.5667035697
 20
4.4100182106
 30
0.0
 10
13.5660251246
 20
4.4085610645
 30
0.0
 10
13.5652485661
 20
4.4071994724
 30
0.0
 10
13.5640977029
 20
4.4056364144
 30
0.0
 10
13.5624835876
 20
4.4039875094
 30
0.0
 10
13.5606888526
 20
4.4025631281
 30
0.0
 10
13.5581058356
 20
4.4009444418
 30
0.0
 10
13.554582925
 20
4.3994060266
 30
0.0
 10
13.5508541826
 20
4.3984357563
 30
0.0
 10
13.5477907052
 20
4.3979355751
 30
0.0
 10
13.5446559803
 20
4.3975993754
 30
0.0
 10
13.5422808521
 20
4.3975169661
 30
0.0
 10
13.5406926899
 20
4.3975169643
 30
0.0
  0
SPLINE
  5
2F5
100
AcDbEntity
  8
0
100
AcDbSpline
 62
9
  6
CONTINUOUS
 70
0
 71
3
 72
15
 73
11
 74
0
 42
0.0000001
 43
0.0000001
 44
0.0000000001
 40
0.0
 40
0.0
 40
0.0
 40
0.0
 40
0.1546677357
 40
0.3034117214
 40
0.4446234483
 40
0.576990912
 40
0.6993572358
 40
0.8108650375
 40
0.9110744675
 40
1.0
 40
1.0
 40
1.0
 40
1.0
 10
12.7408152439
 20
4.4148417961
 30
0.0
 10
12.7413411466
 20
4.4150887952
 30
0.0
 10
12.7423842527
 20
4.4155494827
 30
0.0
 10
12.7439447352
 20
4.4161470532
 30
0.0
 10
12.7454560849
 20
4.4166324149
 30
0.0
 10
12.7468985894
 20
4.4169994654
 30
0.0
 10
12.748253917
 20
4.4172435399
 30
0.0
 10
12.7495052136
 20
4.4173617244
 30
0.0
 10
12.7506366952
 20
4.4173523788
 30
0.0
 10
12.7513436461
 20
4.4172551384
 30
0.0
 10
12.7516693352
 20
4.4171808508
 30
0.0
  0
SPLINE
  5
2F6
100
AcDbEntity
  8
0
100
AcDbSpline
 62
9
  6
CONTINUOUS
 70
0
 71
3
 72
25
 73
21
 74
0
 42
0.0000001
 43
0.0000001
 44
0.0000000001
 40
0.0
 40
0.0
 40
0.0
 40
0.0
 40
0.1945719619
 40
0.3802192281
 40
0.46764
 40
0.5504134745
 40
0.6278137963
 40
0.6991639746
 40
0.7638544543
 40
0.8213318805
 40
0.8711336031
 40
0.9128835916
 40
0.9306600243
 40
0.9463425224
 40
0.9599362651
 40
0.9714682485
 40
0.9810029899
 40
0.9886859899
 40
0.9948199255
 40
1.0
 40
1.0
 40
1.0
 40
1.0
 10
12.8018730659
 20
4.3823964144
 30
0.0
 10
12.8018674329
 20
4.3833942797
 30
0.0
 10
12.8018377858
 20
4.3853441857
 30
0.0
 10
12.8017527877
 20
4.3877412201
 30
0.0
 10
12.8016557552
 20
4.3895636484
 30
0.0
 10
12.8015718639
 20
4.3908307271
 30
0.0
 10
12.8014762342
 20
4.3920143105
 30
0.0
 10
12.8013697321
 20
4.393103832
 30
0.0
 10
12.801253439
 20
4.3940895481
 30
0.0
 10
12.8011284925
 20
4.3949627408
 30
0.0
 10
12.8009961627
 20
4.395715645
 30
0.0
 10
12.8008754951
 20
4.3962635303
 30
0.0
 10
12.8007735815
 20
4.3966356263
 30
0.0
 10
12.8007001956
 20
4.3968656024
 30
0.0
 10
12.8006259365
 20
4.397061416
 30
0.0
 10
12.8005509641
 20
4.3972228164
 30
0.0
 10
12.8004753301
 20
4.3973498264
 30
0.0
 10
12.8003986483
 20
4.397442664
 30
0.0
 10
12.8003195503
 20
4.3975020079
 30
0.0
 10
12.8002611905
 20
4.3975169643
 30
0.0
 10
12.800234624
 20
4.3975169643
 30
0.0
  0
SPLINE
  5
2F7
100
AcDbEntity
  8
0
100
AcDbSpline
 62
9
  6
CONTINUOUS
 70
0
 71
3
 72
14
 73
10
 74
0
 42
0.0000001
 43
0.0000001
 44
0.0000000001
 40
0.0
 40
0.0
 40
0.0
 40
0.0
 40
0.1085113371
 40
0.2229917024
 40
0.3430076486
 40
0.4679926408
 40
0.5971613671
 40
0.7295884742
 40
1.0
 40
1.0
 40
1.0
 40
1.0
 10
13.5803935465
 20
4.4148417959
 30
0.0
 10
13.5799812047
 20
4.4150998287
 30
0.0
 10
13.5791016823
 20
4.4155798827
 30
0.0
 10
13.5776810848
 20
4.4161741527
 30
0.0
 10
13.5761407814
 20
4.4166550927
 30
0.0
 10
13.5745010444
 20
4.4170167074
 30
0.0
 10
13.5727826329
 20
4.4172543627
 30
0.0
 10
13.5704009353
 20
4.4174030131
 30
0.0
 10
13.5685890731
 20
4.4173196276
 30
0.0
 10
13.5673848741
 20
4.4171808422
 30
0.0
  0
SPLINE
  5
2F8
100
AcDbEntity
  8
0
100
AcDbSpline
 62
9
  6
CONTINUOUS
 70
0
 71
3
 72
15
 73
11
 74
0
 42
0.0000001
 43
0.0000001
 44
0.0000000001
 40
0.0
 40
0.0
 40
0.0
 40
0.0
 40
0.0872131377
 40
0.1881444712
 40
0.3016309862
 40
0.4262683296
 40
0.5603674692
 40
0.7020373576
 40
0.8493177174
 40
1.0
 40
1.0
 40
1.0
 40
1.0
 10
13.5731818279
 20
4.4390978211
 30
0.0
 10
13.5728031277
 20
4.4390865478
 30
0.0
 10
13.571987432
 20
4.439017905
 30
0.0
 10
13.5706923065
 20
4.4388142341
 30
0.0
 10
13.5692517591
 20
4.4385039994
 30
0.0
 10
13.5676877409
 20
4.4380916911
 30
0.0
 10
13.5660239089
 20
4.4375831437
 30
0.0
 10
13.5642854944
 20
4.4369859777
 30
0.0
 10
13.5624993079
 20
4.4363091691
 30
0.0
 10
13.5613027073
 20
4.4358150389
 30
0.0
 10
13.5607012925
 20
4.4355566094
 30
0.0
  0
SPLINE
  5
2F9
100
AcDbEntity
  8
0
100
AcDbSpline
 62
9
  6
CONTINUOUS
 70
0
 71
3
 72
15
 73
11
 74
0
 42
0.0000001
 43
0.0000001
 44
0.0000000001
 40
0.0
 40
0.0
 40
0.0
 40
0.0
 40
0.1746176301
 40
0.3330350059
 40
0.4755705101
 40
0.6029466389
 40
0.716528657
 40
0.818392166
 40
0.9115465386
 40
1.0
 40
1.0
 40
1.0
 40
1.0
 10
13.6282908183
 20
4.4148417964
 30
0.0
 10
13.6283508716
 20
4.4149549161
 30
0.0
 10
13.6284597468
 20
4.4151737648
 30
0.0
 10
13.6285941515
 20
4.4154959587
 30
0.0
 10
13.6286912793
 20
4.4157951727
 30
0.0
 10
13.6287506657
 20
4.4160707161
 30
0.0
 10
13.6287720464
 20
4.4163220902
 30
0.0
 10
13.6287547789
 20
4.416549004
 30
0.0
 10
13.628697957
 20
4.4167506044
 30
0.0
 10
13.6286324542
 20
4.4168683261
 30
0.0
 10
13.6285941621
 20
4.4169206956
 30
0.0
  0
SPLINE
  5
2FA
100
AcDbEntity
  8
0
100
AcDbSpline
 62
9
  6
CONTINUOUS
 70
0
 71
3
 72
18
 73
14
 74
0
 42
0.0000001
 43
0.0000001
 44
0.0000000001
 40
0.0
 40
0.0
 40
0.0
 40
0.0
 40
0.1305540027
 40
0.1955707339
 40
0.2602544262
 40
0.3882431128
 40
0.5142227396
 40
0.5764751409
 40
0.6381975656
 40
0.6994215803
 40
0.7601953117
 40
0.8805088311
 40
1.0
 40
1.0
 40
1.0
 40
1.0
 10
13.6625914117
 20
4.3823964144
 30
0.0
 10
13.6625408783
 20
4.383402156
 30
0.0
 10
13.6623343855
 20
4.3849065458
 30
0.0
 10
13.6618033016
 20
4.386844401
 30
0.0
 10
13.66111087
 20
4.3887100119
 30
0.0
 10
13.6599512509
 20
4.3908930257
 30
0.0
 10
13.6584237856
 20
4.3928141615
 30
0.0
 10
13.6570197836
 20
4.3941391735
 30
0.0
 10
13.6558894537
 20
4.3950164371
 30
0.0
 10
13.654688218
 20
4.3957727372
 30
0.0
 10
13.6530130362
 20
4.3966075418
 30
0.0
 10
13.6507900357
 20
4.3973228364
 30
0.0
 10
13.6489350239
 20
4.3975167096
 30
0.0
 10
13.6480133454
 20
4.3975169638
 30
0.0
  0
SPLINE
  5
2FB
100
AcDbEntity
  8
0
100
AcDbSpline
 62
9
  6
CONTINUOUS
 70
0
 71
3
 72
11
 73
7
 74
0
 42
0.0000001
 43
0.0000001
 44
0.0000000001
 40
0.0
 40
0.0
 40
0.0
 40
0.0
 40
0.2541841177
 40
0.5049540723
 40
0.7532295856
 40
1.0
 40
1.0
 40
1.0
 40
1.0
 10
12.7408152439
 20
4.4148417961
 30
0.0
 10
12.7396757244
 20
4.4166797407
 30
0.0
 10
12.7376647141
 20
4.4204950133
 30
0.0
 10
12.7354972296
 20
4.4265474117
 30
0.0
 10
12.7342106461
 20
4.4327810211
 30
0.0
 10
12.7339289336
 20
4.4369982755
 30
0.0
 10
12.7339283286
 20
4.4390977336
 30
0.0
  0
SPLINE
  5
2FC
100
AcDbEntity
  8
0
100
AcDbSpline
 62
9
  6
CONTINUOUS
 70
0
 71
3
 72
14
 73
10
 74
0
 42
0.0000001
 43
0.0000001
 44
0.0000000001
 40
0.0
 40
0.0
 40
0.0
 40
0.0
 40
0.1124135953
 40
0.2291773622
 40
0.3499005067
 40
0.474232544
 40
0.6018107198
 40
0.7322533668
 40
1.0
 40
1.0
 40
1.0
 40
1.0
 10
11.8054423808
 20
4.4148417961
 30
0.0
 10
11.8055514345
 20
4.4157872622
 30
0.0
 10
11.8058255831
 20
4.4177090773
 30
0.0
 10
11.8063828682
 20
4.4206195351
 30
0.0
 10
11.8070894278
 20
4.4236011619
 30
0.0
 10
11.807939374
 20
4.4266401591
 30
0.0
 10
11.8089268839
 20
4.4297237709
 30
0.0
 10
11.8104306531
 20
4.4339140763
 30
0.0
 10
11.8117246165
 20
4.4370301756
 30
0.0
 10
11.81265401
 20
4.4390977336
 30
0.0
  0
SPLINE
  5
2FD
100
AcDbEntity
  8
0
100
AcDbSpline
 62
9
  6
CONTINUOUS
 70
0
 71
3
 72
20
 73
16
 74
0
 42
0.0000001
 43
0.0000001
 44
0.0000000001
 40
0.0
 40
0.0
 40
0.0
 40
0.0
 40
0.0587350521
 40
0.1189535022
 40
0.1802852717
 40
0.242435579
 40
0.305136657
 40
0.3681781814
 40
0.4314060793
 40
0.494717154
 40
0.5580430307
 40
0.6213467896
 40
0.7477515131
 40
0.8739662126
 40
1.0
 40
1.0
 40
1.0
 40
1.0
 10
12.6450205272
 20
4.4148417961
 30
0.0
 10
12.6443831063
 20
4.4135660338
 30
0.0
 10
12.6429685627
 20
4.4110426494
 30
0.0
 10
12.6405115964
 20
4.4074141165
 30
0.0
 10
12.6377131349
 20
4.4039342798
 30
0.0
 10
12.6345977771
 20
4.400651418
 30
0.0
 10
12.6311943917
 20
4.3976059313
 30
0.0
 10
12.627544878
 20
4.3948175647
 30
0.0
 10
12.6236826991
 20
4.3923050431
 30
0.0
 10
12.6196394656
 20
4.3900818715
 30
0.0
 10
12.6154462317
 20
4.3881524176
 30
0.0
 10
12.6096976171
 20
4.3859728435
 30
0.0
 10
12.6022687645
 20
4.3839719479
 30
0.0
 10
12.5931523227
 20
4.3826499602
 30
0.0
 10
12.5870225023
 20
4.382396421
 30
0.0
 10
12.5839622887
 20
4.3823964144
 30
0.0
  0
SPLINE
  5
2FE
100
AcDbEntity
  8
0
100
AcDbSpline
 62
9
  6
CONTINUOUS
 70
0
 71
3
 72
11
 73
7
 74
0
 42
0.0000001
 43
0.0000001
 44
0.0000000001
 40
0.0
 40
0.0
 40
0.0
 40
0.0
 40
0.2481307025
 40
0.4996935305
 40
0.7515012946
 40
1.0
 40
1.0
 40
1.0
 40
1.0
 10
11.7716437049
 20
4.4390978465
 30
0.0
 10
11.7706901647
 20
4.4369779471
 30
0.0
 10
11.7686592484
 20
4.43275768
 30
0.0
 10
11.7652850176
 20
4.4265755203
 30
0.0
 10
11.7615925539
 20
4.4205738263
 30
0.0
 10
11.7589241914
 20
4.4167172628
 30
0.0
 10
11.7575451063
 20
4.4148417961
 30
0.0
  0
SPLINE
  5
2FF
100
AcDbEntity
  8
0
100
AcDbSpline
 62
9
  6
CONTINUOUS
 70
0
 71
3
 72
40
 73
36
 74
0
 42
0.0000001
 43
0.0000001
 44
0.0000000001
 40
0.0
 40
0.0
 40
0.0
 40
0.0
 40
0.1044625165
 40
0.1567354205
 40
0.209018634
 40
0.2612745754
 40
0.2873546486
 40
0.3133530888
 40
0.3391518878
 40
0.3645301337
 40
0.3891360449
 40
0.4126041965
 40
0.4348412415
 40
0.4559638709
 40
0.495415757
 40
0.5318271385
 40
0.5656669754
 40
0.6266726424
 40
0.6542944338
 40
0.6802234035
 40
0.7046101859
 40
0.7276110556
 40
0.7493842497
 40
0.7700988835
 40
0.7899587011
 40
0.8091602742
 40
0.8278874857
 40
0.8463154741
 40
0.8646103438
 40
0.8829259132
 40
0.9014013881
 40
0.920166115
 40
0.9393327745
 40
0.958986494
 40
1.0
 40
1.0
 40
1.0
 40
1.0
 10
13.5331243854
 20
4.6285516319
 30
0.0
 10
13.5324781685
 20
4.630153956
 30
0.0
 10
13.531504565
 20
4.6325564641
 30
0.0
 10
13.5301963556
 20
4.6357563791
 30
0.0
 10
13.5292104297
 20
4.6381552199
 30
0.0
 10
13.528386483
 20
4.6401522608
 30
0.0
 10
13.5277312865
 20
4.6417486455
 30
0.0
 10
13.5272462122
 20
4.6429418489
 30
0.0
 10
13.5267762026
 20
4.6441286203
 30
0.0
 10
13.526335619
 20
4.6453021374
 30
0.0
 10
13.5259425188
 20
4.6464519055
 30
0.0
 10
13.5256117714
 20
4.6475671468
 30
0.0
 10
13.5253431447
 20
4.6486396229
 30
0.0
 10
13.5250633185
 20
4.6499806617
 30
0.0
 10
13.5248204539
 20
4.6515676088
 30
0.0
 10
13.524663551
 20
4.6533765263
 30
0.0
 10
13.5246130794
 20
4.6555477206
 30
0.0
 10
13.5247537356
 20
4.6575754772
 30
0.0
 10
13.5250850862
 20
4.6594423093
 30
0.0
 10
13.5254023686
 20
4.6606929715
 30
0.0
 10
13.5257916005
 20
4.6618427795
 30
0.0
 10
13.5262479448
 20
4.6628932152
 30
0.0
 10
13.526767046
 20
4.6638456121
 30
0.0
 10
13.5273454956
 20
4.6647012282
 30
0.0
 10
13.5279779079
 20
4.6654632575
 30
0.0
 10
13.5286601725
 20
4.6661349538
 30
0.0
 10
13.5293892529
 20
4.6667183415
 30
0.0
 10
13.5301621633
 20
4.6672150299
 30
0.0
 10
13.5309760723
 20
4.6676262306
 30
0.0
 10
13.5318280452
 20
4.6679532873
 30
0.0
 10
13.5327153686
 20
4.6681972838
 30
0.0
 10
13.5336351441
 20
4.6683604748
 30
0.0
 10
13.5345846732
 20
4.6684471369
 30
0.0
 10
13.535905856
 20
4.6684664975
 30
0.0
 10
13.5369087688
 20
4.668373226
 30
0.0
 10
13.5375793751
 20
4.66827115
 30
0.0
  0
SPLINE
  5
300
100
AcDbEntity
  8
0
100
AcDbSpline
 62
9
  6
CONTINUOUS
 70
0
 71
3
 72
15
 73
11
 74
0
 42
0.0000001
 43
0.0000001
 44
0.0000000001
 40
0.0
 40
0.0
 40
0.0
 40
0.0
 40
0.1746184121
 40
0.3330370652
 40
0.4755741715
 40
0.602951969
 40
0.716535213
 40
0.8183987872
 40
0.9115512281
 40
1.0
 40
1.0
 40
1.0
 40
1.0
 10
11.7575450712
 20
4.4148418617
 30
0.0
 10
11.7574850349
 20
4.4149550005
 30
0.0
 10
11.7573761916
 20
4.4151738842
 30
0.0
 10
11.7572418309
 20
4.4154961236
 30
0.0
 10
11.757144741
 20
4.4157953745
 30
0.0
 10
11.7570853865
 20
4.4160709466
 30
0.0
 10
11.7570640317
 20
4.4163223411
 30
0.0
 10
11.7570813191
 20
4.4165492672
 30
0.0
 10
11.7571381544
 20
4.4167508725
 30
0.0
 10
11.7572036634
 20
4.4168685948
 30
0.0
 10
11.7572419581
 20
4.4169209634
 30
0.0
  0
SPLINE
  5
301
100
AcDbEntity
  8
0
100
AcDbSpline
 62
9
  6
CONTINUOUS
 70
0
 71
3
 72
15
 73
11
 74
0
 42
0.0000001
 43
0.0000001
 44
0.0000000001
 40
0.0
 40
0.0
 40
0.0
 40
0.0
 40
0.1737995889
 40
0.3316558832
 40
0.4738885979
 40
0.6011962493
 40
0.7149339357
 40
0.8171732369
 40
0.9108815886
 40
1.0
 40
1.0
 40
1.0
 40
1.0
 10
11.7716437483
 20
4.4390978211
 30
0.0
 10
11.7715118497
 20
4.4390934449
 30
0.0
 10
11.7712602836
 20
4.4390783559
 30
0.0
 10
11.7709030322
 20
4.4390327403
 30
0.0
 10
11.7705851128
 20
4.4389653549
 30
0.0
 10
11.7703074407
 20
4.4388761147
 30
0.0
 10
11.7700706648
 20
4.4387650357
 30
0.0
 10
11.7698753812
 20
4.438631781
 30
0.0
 10
11.7697228666
 20
4.438475962
 30
0.0
 10
11.7696501548
 20
4.4383558992
 30
0.0
 10
11.7696223799
 20
4.4382941917
 30
0.0
  0
SPLINE
  5
302
100
AcDbEntity
  8
0
100
AcDbSpline
 62
9
  6
CONTINUOUS
 70
0
 71
3
 72
14
 73
10
 74
0
 42
0.0000001
 43
0.0000001
 44
0.0000000001
 40
0.0
 40
0.0
 40
0.0
 40
0.0
 40
0.1085070854
 40
0.2229854129
 40
0.343000953
 40
0.4679866729
 40
0.5971567979
 40
0.7295855738
 40
1.0
 40
1.0
 40
1.0
 40
1.0
 10
11.8054423808
 20
4.4148417963
 30
0.0
 10
11.8058547245
 20
4.4150997875
 30
0.0
 10
11.8067342499
 20
4.4155797691
 30
0.0
 10
11.808154841
 20
4.4161739623
 30
0.0
 10
11.8096951434
 20
4.4166548608
 30
0.0
 10
11.8113348843
 20
4.4170164675
 30
0.0
 10
11.813053304
 20
4.4172541456
 30
0.0
 10
11.8154350165
 20
4.4174028627
 30
0.0
 10
11.8172468954
 20
4.4173195667
 30
0.0
 10
11.818451112
 20
4.4171808508
 30
0.0
  0
SPLINE
  5
303
100
AcDbEntity
  8
0
100
AcDbSpline
 62
9
  6
CONTINUOUS
 70
0
 71
3
 72
19
 73
15
 74
0
 42
0.0000001
 43
0.0000001
 44
0.0000000001
 40
0.0
 40
0.0
 40
0.0
 40
0.0
 40
0.1376262884
 40
0.2731192253
 40
0.3396787294
 40
0.4052128361
 40
0.5326739518
 40
0.6552019126
 40
0.7147524076
 40
0.7732337267
 40
0.8307890315
 40
0.8876177029
 40
0.9439573747
 40
1.0
 40
1.0
 40
1.0
 40
1.0
 10
11.8321996091
 20
4.3823964144
 30
0.0
 10
11.8322443957
 20
4.383400603
 30
0.0
 10
11.8324858062
 20
4.3853898905
 30
0.0
 10
11.8331669537
 20
4.3877869289
 30
0.0
 10
11.833928284
 20
4.3895891867
 30
0.0
 10
11.8348107761
 20
4.3912690966
 30
0.0
 10
11.8361430173
 20
4.3931652788
 30
0.0
 10
11.8377757847
 20
4.3947515992
 30
0.0
 10
11.8392107602
 20
4.3957702225
 30
0.0
 10
11.8403310571
 20
4.3963995964
 30
0.0
 10
11.8414949894
 20
4.3968953727
 30
0.0
 10
11.8426923924
 20
4.3972529875
 30
0.0
 10
11.8439119717
 20
4.3974686677
 30
0.0
 10
11.8447335728
 20
4.3975169643
 30
0.0
 10
11.8451428936
 20
4.3975169643
 30
0.0
  0
SPLINE
  5
304
100
AcDbEntity
  8
0
100
AcDbSpline
 62
9
  6
CONTINUOUS
 70
0
 71
3
 72
15
 73
11
 74
0
 42
0.0000001
 43
0.0000001
 44
0.0000000001
 40
0.0
 40
0.0
 40
0.0
 40
0.0
 40
0.1546643895
 40
0.3034051762
 40
0.4446142568
 40
0.5769800181
 40
0.6993459826
 40
0.8108551718
 40
0.911068215
 40
1.0
 40
1.0
 40
1.0
 40
1.0
 10
12.6450205577
 20
4.4148418617
 30
0.0
 10
12.6444946906
 20
4.4150888985
 30
0.0
 10
12.6434516462
 20
4.4155496488
 30
0.0
 10
12.6418912348
 20
4.4161472808
 30
0.0
 10
12.640379934
 20
4.416632672
 30
0.0
 10
12.6389374562
 20
4.416999721
 30
0.0
 10
12.6375821338
 20
4.4172437663
 30
0.0
 10
12.6363308215
 20
4.417361897
 30
0.0
 10
12.6351993041
 20
4.4173524737
 30
0.0
 10
12.6344923289
 20
4.4172551649
 30
0.0
 10
12.6341666259
 20
4.4171808422
 30
0.0
  0
SPLINE
  5
305
100
AcDbEntity
  8
0
100
AcDbSpline
 62
9
  6
CONTINUOUS
 70
0
 71
3
 72
15
 73
11
 74
0
 42
0.0000001
 43
0.0000001
 44
0.0000000001
 40
0.0
 40
0.0
 40
0.0
 40
0.0
 40
0.1430681166
 40
0.2839700548
 40
0.4209595846
 40
0.552531562
 40
0.6772640884
 40
0.7939553916
 40
0.9017311019
 40
1.0
 40
1.0
 40
1.0
 40
1.0
 10
12.6519076213
 20
4.4390978211
 30
0.0
 10
12.6512500282
 20
4.4390875031
 30
0.0
 10
12.6499450631
 20
4.4390299301
 30
0.0
 10
12.6480189237
 20
4.4388328656
 30
0.0
 10
12.6461602229
 20
4.4385281969
 30
0.0
 10
12.6443973598
 20
4.4381208211
 30
0.0
 10
12.6427568312
 20
4.4376167615
 30
0.0
 10
12.6412629844
 20
4.4370236847
 30
0.0
 10
12.6399384794
 20
4.4363503708
 30
0.0
 10
12.6391437322
 20
4.4358299193
 30
0.0
 10
12.6387840568
 20
4.4355566094
 30
0.0
  0
SPLINE
  5
306
100
AcDbEntity
  8
0
100
AcDbSpline
 62
9
  6
CONTINUOUS
 70
0
 71
3
 72
20
 73
16
 74
0
 42
0.0000001
 43
0.0000001
 44
0.0000000001
 40
0.0
 40
0.0
 40
0.0
 40
0.0
 40
0.1258200717
 40
0.2496210101
 40
0.3715824499
 40
0.4320727416
 40
0.4923388725
 40
0.5525185742
 40
0.6127925376
 40
0.6734323246
 40
0.7348038312
 40
0.7974290484
 40
0.8619770957
 40
0.9292398319
 40
1.0
 40
1.0
 40
1.0
 40
1.0
 10
11.8451428986
 20
4.3975169643
 30
0.0
 10
11.843554749
 20
4.3975169664
 30
0.0
 10
11.8404016748
 20
4.3976264417
 30
0.0
 10
11.83574288
 20
4.3982374739
 30
0.0
 10
11.8319879794
 20
4.3992150705
 30
0.0
 10
11.8291317954
 20
4.4003322834
 30
0.0
 10
11.8270833361
 20
4.4013496973
 30
0.0
 10
11.825146928
 20
4.4025632607
 30
0.0
 10
11.8233524346
 20
4.4039876783
 30
0.0
 10
11.8217379637
 20
4.4056364543
 30
0.0
 10
11.8203515235
 20
4.4075203878
 30
0.0
 10
11.8192517795
 20
4.409642916
 30
0.0
 10
11.8185082322
 20
4.4119958597
 30
0.0
 10
11.818197637
 20
4.4145482113
 30
0.0
 10
11.8183125263
 20
4.4162985245
 30
0.0
 10
11.8184511161
 20
4.4171808689
 30
0.0
  0
SPLINE
  5
307
100
AcDbEntity
  8
0
100
AcDbSpline
 62
9
  6
CONTINUOUS
 70
0
 71
3
 72
13
 73
9
 74
0
 42
0.0000001
 43
0.0000001
 44
0.0000000001
 40
0.0
 40
0.0
 40
0.0
 40
0.0
 40
0.112492961
 40
0.2293886582
 40
0.3502508045
 40
0.4746896649
 40
0.7326553939
 40
1.0
 40
1.0
 40
1.0
 40
1.0
 10
11.8184511161
 20
4.4171808689
 30
0.0
 10
11.8185655009
 20
4.4179083267
 30
0.0
 10
11.8188445767
 20
4.4193847731
 30
0.0
 10
11.8193907307
 20
4.4216125033
 30
0.0
 10
11.8200659838
 20
4.4238862158
 30
0.0
 10
11.8211418638
 20
4.4270009757
 30
0.0
 10
11.8227739311
 20
4.4309333658
 30
0.0
 10
11.8243077293
 20
4.4340140339
 30
0.0
 10
11.8251344306
 20
4.4355565438
 30
0.0
  0
SPLINE
  5
308
100
AcDbEntity
  8
0
100
AcDbSpline
 62
9
  6
CONTINUOUS
 70
0
 71
3
 72
11
 73
7
 74
0
 42
0.0000001
 43
0.0000001
 44
0.0000000001
 40
0.0
 40
0.0
 40
0.0
 40
0.0
 40
0.2450902706
 40
0.4925656604
 40
0.7437662714
 40
1.0
 40
1.0
 40
1.0
 40
1.0
 10
12.6387840566
 20
4.4355566257
 30
0.0
 10
12.6388475229
 20
4.4339894087
 30
0.0
 10
12.6387622127
 20
4.4308265944
 30
0.0
 10
12.6379625842
 20
4.4261181701
 30
0.0
 10
12.6364640547
 20
4.4215074158
 30
0.0
 10
12.6350060535
 20
4.4185896976
 30
0.0
 10
12.6341667147
 20
4.4171809721
 30
0.0
  0
SPLINE
  5
309
100
AcDbEntity
  8
0
100
AcDbSpline
 62
9
  6
CONTINUOUS
 70
0
 71
3
 72
18
 73
14
 74
0
 42
0.0000001
 43
0.0000001
 44
0.0000000001
 40
0.0
 40
0.0
 40
0.0
 40
0.0
 40
0.0593337744
 40
0.1207167723
 40
0.1833820844
 40
0.2467285438
 40
0.3103400191
 40
0.373964888
 40
0.5007021928
 40
0.626618498
 40
0.7517255486
 40
0.8761442115
 40
1.0
 40
1.0
 40
1.0
 40
1.0
 10
12.6341667147
 20
4.4171809721
 30
0.0
 10
12.6336134985
 20
4.4162527787
 30
0.0
 10
12.6323613677
 20
4.4144377218
 30
0.0
 10
12.6301569422
 20
4.4119207361
 30
0.0
 10
12.6276492854
 20
4.4095974787
 30
0.0
 10
12.6249029951
 20
4.4074964103
 30
0.0
 10
12.6219747287
 20
4.4056260567
 30
0.0
 10
12.6178941713
 20
4.4034406854
 30
0.0
 10
12.6125439633
 20
4.4012600933
 30
0.0
 10
12.6059022697
 20
4.3994198975
 30
0.0
 10
12.5991568976
 20
4.3982466889
 30
0.0
 10
12.5923791882
 20
4.3976301629
 30
0.0
 10
12.587856324
 20
4.3975169661
 30
0.0
 10
12.5856007363
 20
4.3975169643
 30
0.0
  0
LINE
  5
30A
100
AcDbEntity
  8
0
100
AcDbLine
 62
9
  6
CONTINUOUS
 10
11.8150068725
 20
4.5354996798
 11
11.8143507609
 21
4.5340411403
  0
LINE
  5
30B
100
AcDbEntity
  8
0
100
AcDbLine
 62
9
  6
CONTINUOUS
 10
11.8143507609
 20
4.5340411403
 11
11.7716437049
 21
4.4390978465
  0
SPLINE
  5
30C
100
AcDbEntity
  8
0
100
AcDbSpline
 62
9
  6
CONTINUOUS
 70
0
 71
3
 72
22
 73
18
 74
0
 42
0.0000001
 43
0.0000001
 44
0.0000000001
 40
0.0
 40
0.0
 40
0.0
 40
0.0
 40
0.0921233153
 40
0.1817267894
 40
0.2679402175
 40
0.3500423315
 40
0.4274766461
 40
0.4999949546
 40
0.5674987954
 40
0.6300379976
 40
0.6878360313
 40
0.741248032
 40
0.8367598604
 40
0.8801518722
 40
0.9214369835
 40
0.9612160446
 40
1.0
 40
1.0
 40
1.0
 40
1.0
 10
11.7575450276
 20
4.4148417961
 30
0.0
 10
11.7566989171
 20
4.4135974706
 30
0.0
 10
11.7550342062
 20
4.4111398892
 30
0.0
 10
11.7525812954
 20
4.4075153497
 30
0.0
 10
11.750200597
 20
4.4040396051
 30
0.0
 10
11.7478878424
 20
4.4007584954
 30
0.0
 10
11.7456350717
 20
4.3977096843
 30
0.0
 10
11.7434395008
 20
4.3949167483
 30
0.0
 10
11.741292962
 20
4.39239742
 30
0.0
 10
11.7391867525
 20
4.3901643393
 30
0.0
 10
11.7371133216
 20
4.3882226006
 30
0.0
 10
11.7344840099
 20
4.3861017482
 30
0.0
 10
11.7317907061
 20
4.3844386765
 30
0.0
 10
11.7290598314
 20
4.3833264462
 30
0.0
 10
11.7270985677
 20
4.382774641
 30
0.0
 10
11.7251621067
 20
4.3824619919
 30
0.0
 10
11.7238777671
 20
4.3823964177
 30
0.0
 10
11.72324427
 20
4.3823964144
 30
0.0
  0
SPLINE
  5
30D
100
AcDbEntity
  8
0
100
AcDbSpline
 62
9
  6
CONTINUOUS
 70
0
 71
3
 72
26
 73
22
 74
0
 42
0.0000001
 43
0.0000001
 44
0.0000000001
 40
0.0
 40
0.0
 40
0.0
 40
0.0
 40
0.055509823
 40
0.1107038618
 40
0.1658130432
 40
0.2210972896
 40
0.2768728533
 40
0.3334387844
 40
0.3911127569
 40
0.4501764279
 40
0.5109072901
 40
0.5735592745
 40
0.6383509566
 40
0.7054760079
 40
0.7399822139
 40
0.7751317168
 40
0.8109392006
 40
0.8474214873
 40
0.8845773215
 40
0.9224013318
 40
1.0
 40
1.0
 40
1.0
 40
1.0
 10
11.8321996091
 20
4.3823964144
 30
0.0
 10
11.8313021812
 20
4.3823964182
 30
0.0
 10
11.8295115843
 20
4.3824590984
 30
0.0
 10
11.8268454631
 20
4.3827667201
 30
0.0
 10
11.8242203071
 20
4.3833109721
 30
0.0
 10
11.821650631
 20
4.384109718
 30
0.0
 10
11.8191549508
 20
4.3851789445
 30
0.0
 10
11.8167551936
 20
4.3865305551
 30
0.0
 10
11.8144781823
 20
4.3881734245
 30
0.0
 10
11.8123536723
 20
4.390111206
 30
0.0
 10
11.8104155589
 20
4.3923436785
 30
0.0
 10
11.8087021871
 20
4.394866255
 30
0.0
 10
11.8072535157
 20
4.3976666721
 30
0.0
 10
11.8063098689
 20
4.4001938652
 30
0.0
 10
11.8057243396
 20
4.402327392
 30
0.0
 10
11.8053727756
 20
4.4039968886
 30
0.0
 10
11.8051180344
 20
4.4057161477
 30
0.0
 10
11.804965173
 20
4.4074799964
 30
0.0
 10
11.8049167443
 20
4.4092824899
 30
0.0
 10
11.8049954281
 20
4.411748929
 30
0.0
 10
11.8052200567
 20
4.4136071192
 30
0.0
 10
11.8054424066
 20
4.4148417961
 30
0.0
  0
LINE
  5
30E
100
AcDbEntity
  8
0
100
AcDbLine
 62
9
  6
CONTINUOUS
 10
11.8261698354
 20
4.5610347732
 11
11.8254640301
 21
4.5593689334
  0
SPLINE
  5
30F
100
AcDbEntity
  8
0
100
AcDbSpline
 62
9
  6
CONTINUOUS
 70
0
 71
3
 72
22
 73
18
 74
0
 42
0.0000001
 43
0.0000001
 44
0.0000000001
 40
0.0
 40
0.0
 40
0.0
 40
0.0
 40
0.1260347317
 40
0.2522475657
 40
0.3786471663
 40
0.4419486902
 40
0.5052724217
 40
0.5685818181
 40
0.6318090035
 40
0.6948468736
 40
0.7575448522
 40
0.8196972145
 40
0.8504899161
 40
0.8810401587
 40
0.911312231
 40
0.9412681519
 40
1.0
 40
1.0
 40
1.0
 40
1.0
 10
12.8018730659
 20
4.3823964144
 30
0.0
 10
12.7988127609
 20
4.3823964221
 30
0.0
 10
12.7926828263
 20
4.3826501097
 30
0.0
 10
12.7835663537
 20
4.3839721796
 30
0.0
 10
12.7761374943
 20
4.3859728879
 30
0.0
 10
12.7703890446
 20
4.3881526477
 30
0.0
 10
12.7661959098
 20
4.3900822051
 30
0.0
 10
12.7621526946
 20
4.3923053904
 30
0.0
 10
12.758290496
 20
4.3948177939
 30
0.0
 10
12.7546418046
 20
4.397607314
 30
0.0
 10
12.7512406106
 20
4.4006548427
 30
0.0
 10
12.7486326301
 20
4.40339625
 30
0.0
 10
12.7467035649
 20
4.4056929833
 30
0.0
 10
12.7453452917
 20
4.4074555515
 30
0.0
 10
12.7440735153
 20
4.4092567433
 30
0.0
 10
12.742506758
 20
4.4116840058
 30
0.0
 10
12.7414530253
 20
4.4135662653
 30
0.0
 10
12.7408152439
 20
4.4148417961
 30
0.0
  0
SPLINE
  5
310
100
AcDbEntity
  8
0
100
AcDbSpline
 62
9
  6
CONTINUOUS
 70
0
 71
3
 72
15
 73
11
 74
0
 42
0.0000001
 43
0.0000001
 44
0.0000000001
 40
0.0
 40
0.0
 40
0.0
 40
0.0
 40
0.2607498147
 40
0.3893588253
 40
0.5164194215
 40
0.6415782034
 40
0.7032990846
 40
0.7643568358
 40
0.8841165598
 40
1.0
 40
1.0
 40
1.0
 40
1.0
 10
11.8346595776
 20
4.5858062287
 30
0.0
 10
11.8353376272
 20
4.5930484914
 30
0.0
 10
11.8364751507
 20
4.6038521419
 30
0.0
 10
11.8383083068
 20
4.6181417216
 30
0.0
 10
11.839844746
 20
4.628654325
 30
0.0
 10
11.8412877371
 20
4.6372931965
 30
0.0
 10
11.8425529394
 20
4.6440931972
 30
0.0
 10
11.8438799923
 20
4.6507278671
 30
0.0
 10
11.8456848911
 20
4.6588069674
 30
0.0
 10
11.8473574289
 20
4.6651666722
 30
0.0
 10
11.8482558275
 20
4.6682720376
 30
0.0
  0
SPLINE
  5
311
100
AcDbEntity
  8
0
100
AcDbSpline
 62
9
  6
CONTINUOUS
 70
0
 71
3
 72
23
 73
19
 74
0
 42
0.0000001
 43
0.0000001
 44
0.0000000001
 40
0.0
 40
0.0
 40
0.0
 40
0.0
 40
0.0775925203
 40
0.1525196681
 40
0.2248094441
 40
0.2944785007
 40
0.3615984616
 40
0.426384488
 40
0.4890390052
 40
0.5497768629
 40
0.6088459696
 40
0.6665246642
 40
0.7230960329
 40
0.7788759113
 40
0.8341664593
 40
0.8892816338
 40
0.9444830299
 40
1.0
 40
1.0
 40
1.0
 40
1.0
 10
13.5803935465
 20
4.4148417961
 30
0.0
 10
13.5806161547
 20
4.4136073851
 30
0.0
 10
13.5809118793
 20
4.4111528228
 30
0.0
 10
13.5809227289
 20
4.4075107717
 30
0.0
 10
13.5805188629
 20
4.4040195694
 30
0.0
 10
13.5797278432
 20
4.4007249594
 30
0.0
 10
13.5785830627
 20
4.3976655533
 30
0.0
 10
13.5771334847
 20
4.3948659953
 30
0.0
 10
13.5754202387
 20
4.3923436713
 30
0.0
 10
13.5734822207
 20
4.3901111425
 30
0.0
 10
13.5713576964
 20
4.3881733539
 30
0.0
 10
13.5690806088
 20
4.386530605
 30
0.0
 10
13.5666808855
 20
4.3851789877
 30
0.0
 10
13.5641852221
 20
4.3841097049
 30
0.0
 10
13.5616155477
 20
4.3833108798
 30
0.0
 10
13.5589903052
 20
4.3827666886
 30
0.0
 10
13.5563240976
 20
4.3824591195
 30
0.0
 10
13.5545334336
 20
4.3823964177
 30
0.0
 10
13.5536359735
 20
4.3823964144
 30
0.0
  0
SPLINE
  5
312
100
AcDbEntity
  8
0
100
AcDbSpline
 62
9
  6
CONTINUOUS
 70
0
 71
3
 72
22
 73
18
 74
0
 42
0.0000001
 43
0.0000001
 44
0.0000000001
 40
0.0
 40
0.0
 40
0.0
 40
0.0
 40
0.0387841286
 40
0.0785635049
 40
0.1198489184
 40
0.1632409999
 40
0.2587526244
 40
0.3121661747
 40
0.3699652959
 40
0.4325044991
 40
0.500011522
 40
0.5725447856
 40
0.6499924587
 40
0.7320608004
 40
0.8182542138
 40
0.9078723052
 40
1.0
 40
1.0
 40
1.0
 40
1.0
 10
13.6625914117
 20
4.3823964144
 30
0.0
 10
13.6619579149
 20
4.3823964183
 30
0.0
 10
13.6606735735
 20
4.3824620178
 30
0.0
 10
13.6587371188
 20
4.3827747238
 30
0.0
 10
13.6567758631
 20
4.3833265591
 30
0.0
 10
13.6540449996
 20
4.3844387747
 30
0.0
 10
13.6513516261
 20
4.3861017643
 30
0.0
 10
13.6487224024
 20
4.3882227683
 30
0.0
 10
13.6466489876
 20
4.390164562
 30
0.0
 10
13.6445427149
 20
4.3923976567
 30
0.0
 10
13.6423959809
 20
4.3949171937
 30
0.0
 10
13.6402007612
 20
4.3977110586
 30
0.0
 10
13.6379492354
 20
4.4007606277
 30
0.0
 10
13.6356342688
 20
4.4040393263
 30
0.0
 10
13.6332529048
 20
4.4075138344
 30
0.0
 10
13.6308015661
 20
4.4111393903
 30
0.0
 10
13.6291370904
 20
4.4135974898
 30
0.0
 10
13.6282908375
 20
4.4148417961
 30
0.0
  0
SPLINE
  5
313
100
AcDbEntity
  8
0
100
AcDbSpline
 62
9
  6
CONTINUOUS
 70
0
 71
3
 72
11
 73
7
 74
0
 42
0.0000001
 43
0.0000001
 44
0.0000000001
 40
0.0
 40
0.0
 40
0.0
 40
0.0
 40
0.2467698915
 40
0.4950463312
 40
0.7458157788
 40
1.0
 40
1.0
 40
1.0
 40
1.0
 10
12.6519076194
 20
4.4390978465
 30
0.0
 10
12.6519069914
 20
4.4369983791
 30
0.0
 10
12.6516259671
 20
4.4327810172
 30
0.0
 10
12.6503383305
 20
4.4265475833
 30
0.0
 10
12.6481716468
 20
4.4204948726
 30
0.0
 10
12.6461601802
 20
4.4166797815
 30
0.0
 10
12.6450206979
 20
4.4148417961
 30
0.0
  0
LINE
  5
314
100
AcDbEntity
  8
0
100
AcDbLine
 62
9
  6
CONTINUOUS
 10
12.6519351961
 20
4.5354996796
 11
12.6519076194
 21
4.4390978465
  0
SPLINE
  5
315
100
AcDbEntity
  8
0
100
AcDbSpline
 62
9
  6
CONTINUOUS
 70
0
 71
3
 72
11
 73
7
 74
0
 42
0.0000001
 43
0.0000001
 44
0.0000000001
 40
0.0
 40
0.0
 40
0.0
 40
0.0
 40
0.2499389122
 40
0.4999157489
 40
0.7499341428
 40
1.0
 40
1.0
 40
1.0
 40
1.0
 10
12.65124382
 20
4.5610347527
 30
0.0
 10
12.6513685854
 20
4.5589099527
 30
0.0
 10
12.6515766466
 20
4.554657532
 30
0.0
 10
12.6517877642
 20
4.5482744351
 30
0.0
 10
12.6519099889
 20
4.5418879565
 30
0.0
 10
12.6519358331
 20
4.5376292204
 30
0.0
 10
12.6519351961
 20
4.5354996796
 30
0.0
  0
SPLINE
  5
316
100
AcDbEntity
  8
0
100
AcDbSpline
 62
9
  6
CONTINUOUS
 70
0
 71
3
 72
42
 73
38
 74
0
 42
0.0000001
 43
0.0000001
 44
0.0000000001
 40
0.0
 40
0.0
 40
0.0
 40
0.0
 40
0.0676316541
 40
0.1012913244
 40
0.1348098591
 40
0.1681580533
 40
0.2013061642
 40
0.2342215405
 40
0.2668659597
 40
0.2991973138
 40
0.331173429
 40
0.3627524877
 40
0.3783904838
 40
0.3939183081
 40
0.4093359975
 40
0.4246500694
 40
0.4322749427
 40
0.4398817478
 40
0.4474750551
 40
0.455058465
 40
0.4702082045
 40
0.485348475
 40
0.5004849415
 40
0.5156198134
 40
0.5307540332
 40
0.5458880483
 40
0.5761561588
 40
0.606425134
 40
0.6366951478
 40
0.666966204
 40
0.6972382543
 40
0.7275112299
 40
0.7577850636
 40
0.8183350275
 40
0.8788877341
 40
0.9394428209
 40
1.0
 40
1.0
 40
1.0
 40
1.0
 10
12.5865752213
 20
4.6756399954
 30
0.0
 10
12.5900485154
 20
4.6756398045
 30
0.0
 10
12.5952567585
 20
4.6753841948
 30
0.0
 10
12.602122525
 20
4.6744719336
 30
0.0
 10
12.6071947788
 20
4.6734920512
 30
0.0
 10
12.6121692105
 20
4.6721978166
 30
0.0
 10
12.6170152328
 20
4.6705778643
 30
0.0
 10
12.6216970457
 20
4.6686213456
 30
0.0
 10
12.6261705642
 20
4.6663146064
 30
0.0
 10
12.6303819074
 20
4.6636444905
 30
0.0
 10
12.6342659074
 20
4.6606033063
 30
0.0
 10
12.6371730444
 20
4.6577427513
 30
0.0
 10
12.6392333061
 20
4.6552620472
 30
0.0
 10
12.6406236091
 20
4.6533121297
 30
0.0
 10
12.6418415287
 20
4.6512690216
 30
0.0
 10
12.6426928569
 20
4.64948899
 30
0.0
 10
12.6432637219
 20
4.6480272527
 30
0.0
 10
12.6436367864
 20
4.646915544
 30
0.0
 10
12.6439612822
 20
4.6457910487
 30
0.0
 10
12.6443372878
 20
4.6442793784
 30
0.0
 10
12.6447238701
 20
4.6423723524
 30
0.0
 10
12.6451091292
 20
4.6400712547
 30
0.0
 10
12.6454438099
 20
4.6377630922
 30
0.0
 10
12.6457433899
 20
4.6354505087
 30
0.0
 10
12.64601754
 20
4.6331349205
 30
0.0
 10
12.6463566713
 20
4.6300445377
 30
0.0
 10
12.6467417869
 20
4.6261774076
 30
0.0
 10
12.6471624072
 20
4.6215328838
 30
0.0
 10
12.6475522644
 20
4.6168855361
 30
0.0
 10
12.6479190911
 20
4.6122361678
 30
0.0
 10
12.6482674741
 20
4.6075852331
 30
0.0
 10
12.6486012784
 20
4.60293309
 30
0.0
 10
12.6490302623
 20
4.5967288465
 30
0.0
 10
12.6495416794
 20
4.588971569
 30
0.0
 10
12.6501276263
 20
4.5796607559
 30
0.0
 10
12.6506935309
 20
4.5703483354
 30
0.0
 10
12.651061503
 20
4.5641393812
 30
0.0
 10
12.65124382
 20
4.5610347527
 30
0.0
  0
SPLINE
  5
317
100
AcDbEntity
  8
0
100
AcDbSpline
 62
9
  6
CONTINUOUS
 70
0
 71
3
 72
18
 73
14
 74
0
 42
0.0000001
 43
0.0000001
 44
0.0000000001
 40
0.0
 40
0.0
 40
0.0
 40
0.0
 40
0.1305540949
 40
0.1955708657
 40
0.2602545897
 40
0.3882433001
 40
0.5142229015
 40
0.5764752769
 40
0.6381976693
 40
0.6994216488
 40
0.7601953464
 40
0.8805088239
 40
1.0
 40
1.0
 40
1.0
 40
1.0
 10
11.72324427
 20
4.3823964144
 30
0.0
 10
11.7232948046
 20
4.3834021733
 30
0.0
 10
11.7235013036
 20
4.3849065891
 30
0.0
 10
11.7240324044
 20
4.3868444756
 30
0.0
 10
11.7247248582
 20
4.3887101143
 30
0.0
 10
11.7258845142
 20
4.3908931557
 30
0.0
 10
11.7274120269
 20
4.3928143062
 30
0.0
 10
11.7288160706
 20
4.3941393199
 30
0.0
 10
11.7299464328
 20
4.3950165795
 30
0.0
 10
11.7311477015
 20
4.39577287
 30
0.0
 10
11.7328229271
 20
4.3966076546
 30
0.0
 10
11.735045981
 20
4.3973229097
 30
0.0
 10
11.7369010291
 20
4.3975167363
 30
0.0
 10
11.737822723
 20
4.3975169639
 30
0.0
  0
SPLINE
  5
318
100
AcDbEntity
  8
0
100
AcDbSpline
 62
9
  6
CONTINUOUS
 70
0
 71
3
 72
16
 73
12
 74
0
 42
0.0000001
 43
0.0000001
 44
0.0000000001
 40
0.0
 40
0.0
 40
0.0
 40
0.0
 40
0.2501153053
 40
0.3751606596
 40
0.5001780343
 40
0.5626839177
 40
0.625181356
 40
0.6876718956
 40
0.7501572752
 40
0.8750988557
 40
1.0
 40
1.0
 40
1.0
 40
1.0
 10
12.550745938
 20
4.5858062287
 30
0.0
 10
12.5526191375
 20
4.5931000732
 30
0.0
 10
12.5557434153
 20
4.6039653656
 30
0.0
 10
12.5606540683
 20
4.6182044368
 30
0.0
 10
12.5640668458
 20
4.6269780175
 30
0.0
 10
12.5670227086
 20
4.6339016801
 30
0.0
 10
12.5693597897
 20
4.6390409067
 30
0.0
 10
12.5718231839
 20
4.6441202131
 30
0.0
 10
12.5752851339
 20
4.6508019615
 30
0.0
 10
12.5799697097
 20
4.6589624683
 30
0.0
 10
12.58414717
 20
4.6652277235
 30
0.0
 10
12.5863548725
 20
4.6682720376
 30
0.0
  0
SPLINE
  5
319
100
AcDbEntity
  8
0
100
AcDbSpline
 62
9
  6
CONTINUOUS
 70
0
 71
3
 72
15
 73
11
 74
0
 42
0.0000001
 43
0.0000001
 44
0.0000000001
 40
0.0
 40
0.0
 40
0.0
 40
0.0
 40
0.1181927983
 40
0.2393352875
 40
0.3007930512
 40
0.3627442258
 40
0.4879131025
 40
0.6144708716
 40
0.7421474436
 40
1.0
 40
1.0
 40
1.0
 40
1.0
 10
11.9548189051
 20
4.668272009
 30
0.0
 10
11.9561657658
 20
4.6651821751
 30
0.0
 10
11.9587133904
 20
4.6588462287
 30
0.0
 10
11.9615457698
 20
4.6507468042
 30
0.0
 10
11.9636590402
 20
4.6441002357
 30
0.0
 10
11.9656885909
 20
4.6373076961
 30
0.0
 10
11.9680401347
 20
4.6286752956
 30
0.0
 10
11.9705909887
 20
4.6181591806
 30
0.0
 10
11.9736799309
 20
4.6038847894
 30
0.0
 10
11.9756472242
 20
4.593063666
 30
0.0
 10
11.9768315944
 20
4.5858062287
 30
0.0
  0
SPLINE
  5
31A
100
AcDbEntity
  8
0
100
AcDbSpline
 62
9
  6
CONTINUOUS
 70
0
 71
3
 72
15
 73
11
 74
0
 42
0.0000001
 43
0.0000001
 44
0.0000000001
 40
0.0
 40
0.0
 40
0.0
 40
0.0
 40
0.2373185957
 40
0.3602942855
 40
0.4855497978
 40
0.6126198202
 40
0.7410332585
 40
0.8056018874
 40
0.8703325786
 40
1.0
 40
1.0
 40
1.0
 40
1.0
 10
12.54544457
 20
4.5029103064
 30
0.0
 10
12.545842076
 20
4.5094692768
 30
0.0
 10
12.5464494558
 20
4.5194267932
 30
0.0
 10
12.5472777516
 20
4.5328454175
 30
0.0
 10
12.5479252035
 20
4.5432167711
 30
0.0
 10
12.5485911748
 20
4.5537378207
 30
0.0
 10
12.5491618884
 20
4.5625812039
 30
0.0
 10
12.549634354
 20
4.569701237
 30
0.0
 10
12.5501191878
 20
4.5768552391
 30
0.0
 10
12.5504930749
 20
4.582224843
 30
0.0
 10
12.550745938
 20
4.5858062287
 30
0.0
  0
SPLINE
  5
31B
100
AcDbEntity
  8
0
100
AcDbSpline
 62
9
  6
CONTINUOUS
 70
0
 71
3
 72
14
 73
10
 74
0
 42
0.0000001
 43
0.0000001
 44
0.0000000001
 40
0.0
 40
0.0
 40
0.0
 40
0.0
 40
0.1267485065
 40
0.2532202212
 40
0.3792789835
 40
0.5048333031
 40
0.6297800305
 40
0.7540252896
 40
1.0
 40
1.0
 40
1.0
 40
1.0
 10
11.9768315944
 20
4.5858062287
 30
0.0
 10
11.9769921574
 20
4.5822275962
 30
0.0
 10
11.9771221938
 20
4.5750680592
 30
0.0
 10
11.9767363747
 20
4.5643505717
 30
0.0
 10
11.9757696576
 20
4.5537033663
 30
0.0
 10
11.9742341477
 20
4.5431670803
 30
0.0
 10
11.9721372717
 20
4.532779521
 30
0.0
 10
11.9686175519
 20
4.5192299988
 30
0.0
 10
11.9651467516
 20
4.5093282301
 30
0.0
 10
11.9624749176
 20
4.5029103064
 30
0.0
  0
LINE
  5
31C
100
AcDbEntity
  8
0
100
AcDbLine
 62
9
  6
CONTINUOUS
 10
11.9624749176
 20
4.5029103064
 11
11.9271179421
 21
4.4244903193
  0
LINE
  5
31D
100
AcDbEntity
  8
0
100
AcDbLine
 62
9
  6
CONTINUOUS
 10
12.5449675624
 20
4.4244903193
 11
12.54544457
 21
4.5029103064
  0
SPLINE
  5
31E
100
AcDbEntity
  8
0
100
AcDbSpline
 62
9
  6
CONTINUOUS
 70
0
 71
3
 72
23
 73
19
 74
0
 42
0.0000001
 43
0.0000001
 44
0.0000000001
 40
0.0
 40
0.0
 40
0.0
 40
0.0
 40
0.0695897503
 40
0.1383373495
 40
0.2061466625
 40
0.2729268988
 40
0.3386196889
 40
0.4032188759
 40
0.4667312016
 40
0.5291753544
 40
0.5905962022
 40
0.6510609287
 40
0.7106581602
 40
0.7694951752
 40
0.8276961963
 40
0.8854097057
 40
0.9427993025
 40
1.0
 40
1.0
 40
1.0
 40
1.0
 10
11.9271178978
 20
4.4244903193
 30
0.0
 10
11.9267162303
 20
4.4234867752
 30
0.0
 10
11.9258585157
 20
4.4215148985
 30
0.0
 10
11.9244025754
 20
4.4186607
 30
0.0
 10
11.9227912405
 20
4.4159417113
 30
0.0
 10
11.9210383513
 20
4.4133690354
 30
0.0
 10
11.919153734
 20
4.4109539996
 30
0.0
 10
11.9171443892
 20
4.4087091948
 30
0.0
 10
11.915019668
 20
4.406644894
 30
0.0
 10
11.9127894871
 20
4.4047706638
 30
0.0
 10
11.9104643035
 20
4.4030951983
 30
0.0
 10
11.9080546725
 20
4.4016266652
 30
0.0
 10
11.9055719016
 20
4.4003718508
 30
0.0
 10
11.9030275286
 20
4.3993368783
 30
0.0
 10
11.9004334925
 20
4.3985265957
 30
0.0
 10
11.8978016939
 20
4.3979449362
 30
0.0
 10
11.8951450244
 20
4.397595028
 30
0.0
 10
11.8933641166
 20
4.3975169608
 30
0.0
 10
11.8924756138
 20
4.3975169643
 30
0.0
  0
SPLINE
  5
31F
100
AcDbEntity
  8
0
100
AcDbSpline
 62
9
  6
CONTINUOUS
 70
0
 71
3
 72
27
 73
23
 74
0
 42
0.0000001
 43
0.0000001
 44
0.0000000001
 40
0.0
 40
0.0
 40
0.0
 40
0.0
 40
0.0091182272
 40
0.0186667482
 40
0.0290218698
 40
0.0404785849
 40
0.053253868
 40
0.0675006282
 40
0.0833244705
 40
0.1007969772
 40
0.1199605107
 40
0.140839634
 40
0.1877826831
 40
0.2416298154
 40
0.3022747271
 40
0.3695303753
 40
0.4431582106
 40
0.5228681233
 40
0.6083331571
 40
0.6991865849
 40
0.7950397438
 40
1.0
 40
1.0
 40
1.0
 40
1.0
 10
12.5382734486
 20
4.3975169643
 30
0.0
 10
12.5383602032
 20
4.3975169585
 30
0.0
 10
12.5385383905
 20
4.3975375114
 30
0.0
 10
12.5388010554
 20
4.3976284284
 30
0.0
 10
12.5390609294
 20
4.3977780622
 30
0.0
 10
12.539317901
 20
4.3979853212
 30
0.0
 10
12.5395723587
 20
4.3982495936
 30
0.0
 10
12.5398246425
 20
4.3985704901
 30
0.0
 10
12.5400748822
 20
4.3989477858
 30
0.0
 10
12.5403230388
 20
4.3993811844
 30
0.0
 10
12.5405689431
 20
4.399870295
 30
0.0
 10
12.540906719
 20
4.4006260998
 30
0.0
 10
12.5413156415
 20
4.4017101363
 30
0.0
 10
12.5417760075
 20
4.4031760548
 30
0.0
 10
12.5422209136
 20
4.404847545
 30
0.0
 10
12.5426483041
 20
4.4067170552
 30
0.0
 10
12.5430559539
 20
4.4087761604
 30
0.0
 10
12.543441713
 20
4.4110154436
 30
0.0
 10
12.5438036915
 20
4.4134245167
 30
0.0
 10
12.5441411941
 20
4.4159921179
 30
0.0
 10
12.5445644747
 20
4.4196946164
 30
0.0
 10
12.544819068
 20
4.4225459059
 30
0.0
 10
12.5449675624
 20
4.4244903193
 30
0.0
  0
SPLINE
  5
320
100
AcDbEntity
  8
0
100
AcDbSpline
 62
9
  6
CONTINUOUS
 70
0
 71
3
 72
15
 73
11
 74
0
 42
0.0000001
 43
0.0000001
 44
0.0000000001
 40
0.0
 40
0.0
 40
0.0
 40
0.0
 40
0.2578526217
 40
0.3855292527
 40
0.512087024
 40
0.6372558521
 40
0.6992070216
 40
0.760664792
 40
0.8818071476
 40
1.0
 40
1.0
 40
1.0
 40
1.0
 10
13.4090043152
 20
4.5858062287
 30
0.0
 10
13.4101886948
 20
4.593063669
 30
0.0
 10
13.4121559636
 20
4.6038848037
 30
0.0
 10
13.4152448861
 20
4.6181592083
 30
0.0
 10
13.4177957401
 20
4.6286753277
 30
0.0
 10
13.4201472975
 20
4.6373077261
 30
0.0
 10
13.422176852
 20
4.6441002657
 30
0.0
 10
13.4242901174
 20
4.6507468342
 30
0.0
 10
13.4271225185
 20
4.6588462538
 30
0.0
 10
13.4296701826
 20
4.6651821818
 30
0.0
 10
13.4310169998
 20
4.6682720376
 30
0.0
  0
SPLINE
  5
321
100
AcDbEntity
  8
0
100
AcDbSpline
 62
9
  6
CONTINUOUS
 70
0
 71
3
 72
16
 73
12
 74
0
 42
0.0000001
 43
0.0000001
 44
0.0000000001
 40
0.0
 40
0.0
 40
0.0
 40
0.0
 40
0.1249011368
 40
0.2498427507
 40
0.3123281161
 40
0.3748186447
 40
0.4373160825
 40
0.499821971
 40
0.6248393477
 40
0.7498846955
 40
1.0
 40
1.0
 40
1.0
 40
1.0
 10
12.7994810292
 20
4.668272009
 30
0.0
 10
12.8016887775
 20
4.6652277301
 30
0.0
 10
12.8058661985
 20
4.6589624456
 30
0.0
 10
12.8105507448
 20
4.6508019283
 30
0.0
 10
12.8140126972
 20
4.6441201836
 30
0.0
 10
12.8164760857
 20
4.6390408774
 30
0.0
 10
12.8188131576
 20
4.6339016488
 30
0.0
 10
12.8217690088
 20
4.6269779839
 30
0.0
 10
12.8251817865
 20
4.6182044071
 30
0.0
 10
12.8300924692
 20
4.6039653523
 30
0.0
 10
12.833216788
 20
4.5931000747
 30
0.0
 10
12.8350899716
 20
4.5858062287
 30
0.0
  0
SPLINE
  5
322
100
AcDbEntity
  8
0
100
AcDbSpline
 62
9
  6
CONTINUOUS
 70
0
 71
3
 72
9
 73
5
 74
0
 42
0.0000001
 43
0.0000001
 44
0.0000000001
 40
0.0
 40
0.0
 40
0.0
 40
0.0
 40
0.4950134596
 40
1.0
 40
1.0
 40
1.0
 40
1.0
 10
11.9562610188
 20
4.6756399954
 30
0.0
 10
11.9557826544
 20
4.6744906799
 30
0.0
 10
11.9550587853
 20
4.67206219
 30
0.0
 10
11.9548189048
 20
4.669541443
 30
0.0
 10
11.9548189371
 20
4.668271469
 30
0.0
  0
SPLINE
  5
323
100
AcDbEntity
  8
0
100
AcDbSpline
 62
9
  6
CONTINUOUS
 70
0
 71
3
 72
25
 73
21
 74
0
 42
0.0000001
 43
0.0000001
 44
0.0000000001
 40
0.0
 40
0.0
 40
0.0
 40
0.0
 40
0.1945719555
 40
0.3802192178
 40
0.4676399887
 40
0.5504134629
 40
0.6278137849
 40
0.6991639641
 40
0.7638544452
 40
0.8213318733
 40
0.8711335982
 40
0.9128835894
 40
0.9306600234
 40
0.9463425229
 40
0.9599362669
 40
0.9714682513
 40
0.9810029935
 40
0.9886859936
 40
0.9948199283
 40
1.0
 40
1.0
 40
1.0
 40
1.0
 10
12.5839622887
 20
4.3823964144
 30
0.0
 10
12.5839679224
 20
4.3833942797
 30
0.0
 10
12.5839975707
 20
4.3853441857
 30
0.0
 10
12.5840825701
 20
4.3877412201
 30
0.0
 10
12.5841796038
 20
4.3895636484
 30
0.0
 10
12.5842634958
 20
4.3908307271
 30
0.0
 10
12.5843591262
 20
4.3920143105
 30
0.0
 10
12.5844656288
 20
4.393103832
 30
0.0
 10
12.5845819225
 20
4.3940895481
 30
0.0
 10
12.5847068695
 20
4.3949627409
 30
0.0
 10
12.5848391996
 20
4.395715645
 30
0.0
 10
12.5849598675
 20
4.3962635303
 30
0.0
 10
12.5850617813
 20
4.3966356263
 30
0.0
 10
12.5851351673
 20
4.3968656024
 30
0.0
 10
12.5852094264
 20
4.397061416
 30
0.0
 10
12.5852843989
 20
4.3972228164
 30
0.0
 10
12.585360033
 20
4.3973498264
 30
0.0
 10
12.5854367148
 20
4.397442664
 30
0.0
 10
12.5855158128
 20
4.3975020079
 30
0.0
 10
12.5855741725
 20
4.3975169643
 30
0.0
 10
12.585600739
 20
4.3975169643
 30
0.0
  0
LINE
  5
324
100
AcDbEntity
  8
0
100
AcDbLine
 62
9
  6
CONTINUOUS
 10
12.7470518091
 20
4.4355565888
 11
12.7470314295
 21
4.5318930966
  0
SPLINE
  5
325
100
AcDbEntity
  8
0
100
AcDbSpline
 62
9
  6
CONTINUOUS
 70
0
 71
3
 72
19
 73
15
 74
0
 42
0.0000001
 43
0.0000001
 44
0.0000000001
 40
0.0
 40
0.0
 40
0.0
 40
0.0
 40
0.0486999266
 40
0.0995827481
 40
0.1526200485
 40
0.2077798176
 40
0.2650083521
 40
0.3242289847
 40
0.385349785
 40
0.4482660736
 40
0.5789832402
 40
0.7153318379
 40
0.8561033973
 40
1.0
 40
1.0
 40
1.0
 40
1.0
 10
12.7470314295
 20
4.5318930966
 30
0.0
 10
12.7483006154
 20
4.5309062909
 30
0.0
 10
12.7509591844
 20
4.5289688466
 30
0.0
 10
12.7551913186
 20
4.5262310398
 30
0.0
 10
12.759742439
 20
4.5236064745
 30
0.0
 10
12.7645980192
 20
4.5211032457
 30
0.0
 10
12.7697433799
 20
4.5187288044
 30
0.0
 10
12.7751627562
 20
4.5164905107
 30
0.0
 10
12.7808394637
 20
4.5143951144
 30
0.0
 10
12.7888298621
 20
4.5117673172
 30
0.0
 10
12.7993471952
 20
4.5088979573
 30
0.0
 10
12.8125365033
 20
4.5061572138
 30
0.0
 10
12.8262904159
 20
4.5041099101
 30
0.0
 10
12.8356518905
 20
4.503231099
 30
0.0
 10
12.8403913397
 20
4.5029103064
 30
0.0
  0
SPLINE
  5
326
100
AcDbEntity
  8
0
100
AcDbSpline
 62
9
  6
CONTINUOUS
 70
0
 71
3
 72
23
 73
19
 74
0
 42
0.0000001
 43
0.0000001
 44
0.0000000001
 40
0.0
 40
0.0
 40
0.0
 40
0.0
 40
0.0422361356
 40
0.0877688213
 40
0.1365084325
 40
0.1883678677
 40
0.2432440399
 40
0.3010096568
 40
0.3615252043
 40
0.4246394204
 40
0.4901836968
 40
0.5579758636
 40
0.6278161483
 40
0.6994947568
 40
0.7727898236
 40
0.847471965
 40
0.9233022279
 40
1.0
 40
1.0
 40
1.0
 40
1.0
 10
12.7470518091
 20
4.4355565888
 30
0.0
 10
12.7483302239
 20
4.435178812
 30
0.0
 10
12.7510004254
 20
4.4344393494
 30
0.0
 10
12.7551841845
 20
4.4334081434
 30
0.0
 10
12.7596890814
 20
4.4324168714
 30
0.0
 10
12.7645039338
 20
4.4314678917
 30
0.0
 10
12.7696169986
 20
4.4305641426
 30
0.0
 10
12.7750153034
 20
4.4297098052
 30
0.0
 10
12.78068436
 20
4.4289080694
 30
0.0
 10
12.7866084335
 20
4.4281613246
 30
0.0
 10
12.7927706123
 20
4.4274721487
 30
0.0
 10
12.7991525563
 20
4.4268430717
 30
0.0
 10
12.8057348296
 20
4.4262780208
 30
0.0
 10
12.8124966877
 20
4.4257803385
 30
0.0
 10
12.8194161737
 20
4.4253485153
 30
0.0
 10
12.8264707725
 20
4.4249843497
 30
0.0
 10
12.833636283
 20
4.4246941631
 30
0.0
 10
12.8384483539
 20
4.4245504804
 30
0.0
 10
12.8408683538
 20
4.4244903026
 30
0.0
  0
SPLINE
  5
327
100
AcDbEntity
  8
0
100
AcDbSpline
 62
9
  6
CONTINUOUS
 70
0
 71
3
 72
16
 73
12
 74
0
 42
0.0000001
 43
0.0000001
 44
0.0000000001
 40
0.0
 40
0.0
 40
0.0
 40
0.0
 40
0.0417792554
 40
0.0871058593
 40
0.1878111306
 40
0.3009072392
 40
0.4250248766
 40
0.5586604533
 40
0.7001938428
 40
0.8479029481
 40
1.0
 40
1.0
 40
1.0
 40
1.0
 10
12.7472716594
 20
4.5572486506
 30
0.0
 10
12.7484761816
 20
4.5576997506
 30
0.0
 10
12.7509919628
 20
4.5586283536
 30
0.0
 10
12.7564314206
 20
4.5605889715
 30
0.0
 10
12.7639634035
 20
4.5632183648
 30
0.0
 10
12.7738190906
 20
4.5665492637
 30
0.0
 10
12.7846647155
 20
4.5701162106
 30
0.0
 10
12.7963683279
 20
4.5738755608
 30
0.0
 10
12.8087875077
 20
4.577781248
 30
0.0
 10
12.8217712194
 20
4.5817856272
 30
0.0
 10
12.8306051018
 20
4.5844602931
 30
0.0
 10
12.8350899716
 20
4.5858062287
 30
0.0
  0
SPLINE
  5
328
100
AcDbEntity
  8
0
100
AcDbSpline
 62
9
  6
CONTINUOUS
 70
0
 71
3
 72
62
 73
58
 74
0
 42
0.0000001
 43
0.0000001
 44
0.0000000001
 40
0.0
 40
0.0
 40
0.0
 40
0.0
 40
0.0613727075
 40
0.1227628352
 40
0.1841713372
 40
0.2456004729
 40
0.2763231001
 40
0.3070520284
 40
0.3377870568
 40
0.3685285814
 40
0.3992778506
 40
0.4300339103
 40
0.4454151361
 40
0.4607984659
 40
0.4761830884
 40
0.4915687939
 40
0.5069554379
 40
0.5223410722
 40
0.5300317899
 40
0.5377202576
 40
0.5454046985
 40
0.5492449993
 40
0.5530835639
 40
0.5569193077
 40
0.5607513107
 40
0.5645792447
 40
0.5684022172
 40
0.5722174716
 40
0.5760230109
 40
0.5835997197
 40
0.5873717012
 40
0.5911334274
 40
0.5948873417
 40
0.5986371317
 40
0.6061357553
 40
0.61365312
 40
0.6211985152
 40
0.6287753532
 40
0.6440213926
 40
0.6593931466
 40
0.6748830764
 40
0.6904833931
 40
0.706186489
 40
0.7219853282
 40
0.7378736263
 40
0.7538454062
 40
0.7698947224
 40
0.7860156969
 40
0.802203023
 40
0.8347490534
 40
0.8675025872
 40
0.9004322382
 40
0.9169546141
 40
0.9335099964
 40
0.9500963839
 40
0.9667100401
 40
1.0
 40
1.0
 40
1.0
 40
1.0
 10
12.7472716642
 20
4.5572486524
 30
0.0
 10
12.7472983977
 20
4.5603319809
 30
0.0
 10
12.7473380927
 20
4.5664996432
 30
0.0
 10
12.7473525586
 20
4.575752677
 30
0.0
 10
12.7473178887
 20
4.585008501
 30
0.0
 10
12.7472425577
 20
4.5927232588
 30
0.0
 10
12.7471506294
 20
4.5988962712
 30
0.0
 10
12.7470639942
 20
4.603527047
 30
0.0
 10
12.7469582056
 20
4.6081583755
 30
0.0
 10
12.7468315346
 20
4.6127902078
 30
0.0
 10
12.7466801318
 20
4.6174223577
 30
0.0
 10
12.7465319447
 20
4.6212824224
 30
0.0
 10
12.7463973885
 20
4.624370374
 30
0.0
 10
12.746287637
 20
4.6266863751
 30
0.0
 10
12.7461691689
 20
4.6290021722
 30
0.0
 10
12.7460413891
 20
4.6313176418
 30
0.0
 10
12.745903554
 20
4.6336325873
 30
0.0
 10
12.7457801633
 20
4.6355610784
 30
0.0
 10
12.7456793698
 20
4.6371034527
 30
0.0
 10
12.7456030694
 20
4.6382596844
 30
0.0
 10
12.7455410343
 20
4.6392229866
 30
0.0
 10
12.7454932462
 20
4.6399933786
 30
0.0
 10
12.7454587428
 20
4.6405708587
 30
0.0
 10
12.7454271223
 20
4.6411480891
 30
0.0
 10
12.7453997926
 20
4.6417250064
 30
0.0
 10
12.7453775761
 20
4.6423015034
 30
0.0
 10
12.7453615613
 20
4.6428773701
 30
0.0
 10
12.7453566345
 20
4.6434523678
 30
0.0
 10
12.7453705566
 20
4.644215808
 30
0.0
 10
12.7454215256
 20
4.6449764811
 30
0.0
 10
12.7455274985
 20
4.6457285509
 30
0.0
 10
12.7456382019
 20
4.6462850821
 30
0.0
 10
12.7457819994
 20
4.6468328768
 30
0.0
 10
12.7460176923
 20
4.6475492401
 30
0.0
 10
12.7463877734
 20
4.6484183804
 30
0.0
 10
12.7469251954
 20
4.6494177045
 30
0.0
 10
12.7475359625
 20
4.6503782623
 30
0.0
 10
12.7484309614
 20
4.6516147809
 30
0.0
 10
12.7496732425
 20
4.6530812341
 30
0.0
 10
12.75131028
 20
4.6547230499
 30
0.0
 10
12.7530711109
 20
4.6562581563
 30
0.0
 10
12.75493758
 20
4.6576898459
 30
0.0
 10
12.7568943521
 20
4.6590227597
 30
0.0
 10
12.7589297297
 20
4.6602600503
 30
0.0
 10
12.7610348035
 20
4.6614030059
 30
0.0
 10
12.7632017316
 20
4.6624528309
 30
0.0
 10
12.7654233343
 20
4.6634111019
 30
0.0
 10
12.7676936413
 20
4.664278232
 30
0.0
 10
12.7707825117
 20
4.6653176557
 30
0.0
 10
12.7747337181
 20
4.6664042674
 30
0.0
 10
12.7795743083
 20
4.6673833224
 30
0.0
 10
12.7836700496
 20
4.6679381061
 30
0.0
 10
12.7869738758
 20
4.6682300883
 30
0.0
 10
12.7894651948
 20
4.6683754956
 30
0.0
 10
12.7919641681
 20
4.6684507248
 30
0.0
 10
12.7953049636
 20
4.6684620887
 30
0.0
 10
12.7978120294
 20
4.6683725298
 30
0.0
 10
12.7994814848
 20
4.66827115
 30
0.0
  0
LINE
  5
329
100
AcDbEntity
  8
0
100
AcDbLine
 62
9
  6
CONTINUOUS
 10
13.5173360214
 20
4.5318931021
 11
13.5607016317
 21
4.435556706
  0
SPLINE
  5
32A
100
AcDbEntity
  8
0
100
AcDbSpline
 62
9
  6
CONTINUOUS
 70
0
 71
3
 72
19
 73
15
 74
0
 42
0.0000001
 43
0.0000001
 44
0.0000000001
 40
0.0
 40
0.0
 40
0.0
 40
0.0
 40
0.0457959635
 40
0.0947678147
 40
0.2014735877
 40
0.3185730763
 40
0.3805029318
 40
0.4444005621
 40
0.5100439528
 40
0.5772116075
 40
0.6456850661
 40
0.7152437923
 40
0.8567419479
 40
1.0
 40
1.0
 40
1.0
 40
1.0
 10
13.4587181246
 20
4.4244902831
 30
0.0
 10
13.4602834417
 20
4.4245531941
 30
0.0
 10
13.4635217555
 20
4.4247056791
 30
0.0
 10
13.4704020987
 20
4.4251077902
 30
0.0
 10
13.4797085558
 20
4.4257934888
 30
0.0
 10
13.489444017
 20
4.4266686895
 30
0.0
 10
13.497712985
 20
4.4274939367
 30
0.0
 10
13.5042264122
 20
4.4281836836
 30
0.0
 10
13.5109136667
 20
4.4289322142
 30
0.0
 10
13.51775194
 20
4.4297376338
 30
0.0
 10
13.5247189252
 20
4.4305944282
 30
0.0
 10
13.5342037893
 20
4.4318078113
 30
0.0
 10
13.5462145544
 20
4.4334354218
 30
0.0
 10
13.5558548815
 20
4.434832563
 30
0.0
 10
13.5607016317
 20
4.435556706
 30
0.0
  0
SPLINE
  5
32B
100
AcDbEntity
  8
0
100
AcDbSpline
 62
9
  6
CONTINUOUS
 70
0
 71
3
 72
19
 73
15
 74
0
 42
0.0000001
 43
0.0000001
 44
0.0000000001
 40
0.0
 40
0.0
 40
0.0
 40
0.0
 40
0.1455309237
 40
0.2882994169
 40
0.4266492589
 40
0.5589796095
 40
0.6224154525
 40
0.683790317
 40
0.7429356635
 40
0.7996907182
 40
0.8539044313
 40
0.9054418644
 40
0.9541818854
 40
1.0
 40
1.0
 40
1.0
 40
1.0
 10
13.5173360214
 20
4.5318931021
 30
0.0
 10
13.5129519109
 20
4.5299736895
 30
0.0
 10
13.5042178952
 20
4.5262820555
 30
0.0
 10
13.4911534924
 20
4.5211609638
 30
0.0
 10
13.4783607071
 20
4.5165502718
 30
0.0
 10
13.4679157017
 20
4.5131336126
 30
0.0
 10
13.4598146188
 20
4.5107073848
 30
0.0
 10
13.4539893393
 20
4.5090743475
 30
0.0
 10
13.4483468125
 20
4.5076070914
 30
0.0
 10
13.4429044769
 20
4.506310174
 30
0.0
 10
13.4376791284
 20
4.5051874877
 30
0.0
 10
13.4326866796
 20
4.5042424029
 30
0.0
 10
13.4279428293
 20
4.5034779186
 30
0.0
 10
13.4248584592
 20
4.5030773589
 30
0.0
 10
13.4233609921
 20
4.5029103064
 30
0.0
  0
SPLINE
  5
32C
100
AcDbEntity
  8
0
100
AcDbSpline
 62
9
  6
CONTINUOUS
 70
0
 71
3
 72
50
 73
46
 74
0
 42
0.0000001
 43
0.0000001
 44
0.0000000001
 40
0.0
 40
0.0
 40
0.0
 40
0.0
 40
0.0211397014
 40
0.0428430368
 40
0.0652382631
 40
0.088477654
 40
0.1126975138
 40
0.1380131777
 40
0.1645434462
 40
0.1783055082
 40
0.1924111348
 40
0.2216767462
 40
0.2368516932
 40
0.2523927059
 40
0.2683051728
 40
0.2845882567
 40
0.3012395206
 40
0.30970217
 40
0.3182533382
 40
0.3268867273
 40
0.3355843631
 40
0.3443066283
 40
0.3529940375
 40
0.3616073304
 40
0.3701481689
 40
0.3786363301
 40
0.3870988558
 40
0.3955477529
 40
0.4039915484
 40
0.4208778744
 40
0.4377729544
 40
0.4546822499
 40
0.4716063875
 40
0.4885440676
 40
0.5224565782
 40
0.5564125807
 40
0.5904045973
 40
0.6244280173
 40
0.6584783631
 40
0.6925526367
 40
0.726648363
 40
0.7948960811
 40
0.8632093064
 40
0.9315793619
 40
1.0
 40
1.0
 40
1.0
 40
1.0
 10
13.4310158588
 20
4.6682712295
 30
0.0
 10
13.4320319131
 20
4.6683739206
 30
0.0
 10
13.4341011216
 20
4.6684929938
 30
0.0
 10
13.437255126
 20
4.6684071125
 30
0.0
 10
13.4404914588
 20
4.6680390232
 30
0.0
 10
13.4438022216
 20
4.667364533
 30
0.0
 10
13.4471798301
 20
4.6663750516
 30
0.0
 10
13.4506163884
 20
4.6650634462
 30
0.0
 10
13.4534825619
 20
4.6637022245
 30
0.0
 10
13.455786992
 20
4.6624379627
 30
0.0
 10
13.4581548245
 20
4.6610187424
 30
0.0
 10
13.4604963339
 20
4.6594268048
 30
0.0
 10
13.4628002039
 20
4.6576686282
 30
0.0
 10
13.4645386001
 20
4.6562352138
 30
0.0
 10
13.4662589266
 20
4.6546985346
 30
0.0
 10
13.4679531754
 20
4.6530550606
 30
0.0
 10
13.4693250622
 20
4.6515987552
 30
0.0
 10
13.470392113
 20
4.6503711798
 30
0.0
 10
13.4711756106
 20
4.6494110702
 30
0.0
 10
13.4719292927
 20
4.6484129784
 30
0.0
 10
13.4726406064
 20
4.6473739738
 30
0.0
 10
13.4732911891
 20
4.6462924663
 30
0.0
 10
13.4738657518
 20
4.6451733403
 30
0.0
 10
13.4743731269
 20
4.6440322478
 30
0.0
 10
13.4748332514
 20
4.6428819123
 30
0.0
 10
13.475260451
 20
4.6417268578
 30
0.0
 10
13.4756748045
 20
4.6405719112
 30
0.0
 10
13.4760799018
 20
4.6394159539
 30
0.0
 10
13.4766154272
 20
4.637874512
 30
0.0
 10
13.4772806828
 20
4.6359461969
 30
0.0
 10
13.4780797824
 20
4.6336314491
 30
0.0
 10
13.4788833934
 20
4.6313163278
 30
0.0
 10
13.4796925767
 20
4.6290009684
 30
0.0
 10
13.480778364
 20
4.6259121634
 30
0.0
 10
13.4821477
 20
4.6220508975
 30
0.0
 10
13.4838095733
 20
4.6174192684
 30
0.0
 10
13.485486255
 20
4.6127872829
 30
0.0
 10
13.487177986
 20
4.6081559207
 30
0.0
 10
13.4888819405
 20
4.6035248096
 30
0.0
 10
13.4905973268
 20
4.5988941953
 30
0.0
 10
13.4928995435
 20
4.5927192459
 30
0.0
 10
13.4958007808
 20
4.5850023905
 30
0.0
 10
13.4993155992
 20
4.5757473826
 30
0.0
 10
13.502860289
 20
4.5664948313
 30
0.0
 10
13.5052411929
 20
4.5603304681
 30
0.0
 10
13.5064358432
 20
4.5572486056
 30
0.0
  0
SPLINE
  5
32D
100
AcDbEntity
  8
0
100
AcDbSpline
 62
9
  6
CONTINUOUS
 70
0
 71
3
 72
18
 73
14
 74
0
 42
0.0000001
 43
0.0000001
 44
0.0000000001
 40
0.0
 40
0.0
 40
0.0
 40
0.0
 40
0.1408127832
 40
0.2801670446
 40
0.4164591124
 40
0.5481194132
 40
0.6736494748
 40
0.7336736308
 40
0.7916455018
 40
0.8474059831
 40
0.900809628
 40
0.9517218407
 40
1.0
 40
1.0
 40
1.0
 40
1.0
 10
13.5064358432
 20
4.5572486056
 30
0.0
 10
13.5017370528
 20
4.5581105981
 30
0.0
 10
13.4924085959
 20
4.5599394533
 30
0.0
 10
13.4786132939
 20
4.5629972912
 30
0.0
 10
13.4652010017
 20
4.5663287319
 30
0.0
 10
13.4523347079
 20
4.5698930945
 30
0.0
 10
13.4420494554
 20
4.5730664962
 30
0.0
 10
13.4342170577
 20
4.575696576
 30
0.0
 10
13.4286620324
 20
4.5776700993
 30
0.0
 10
13.4233550496
 20
4.5796679888
 30
0.0
 10
13.4183120219
 20
4.5816842469
 30
0.0
 10
13.4135485899
 20
4.5837126491
 30
0.0
 10
13.4104853355
 20
4.5851067775
 30
0.0
 10
13.4090043152
 20
4.5858062287
 30
0.0
  0
SPLINE
  5
32E
100
AcDbEntity
  8
0
100
AcDbSpline
 62
9
  6
CONTINUOUS
 70
0
 71
3
 72
15
 73
11
 74
0
 42
0.0000001
 43
0.0000001
 44
0.0000000001
 40
0.0
 40
0.0
 40
0.0
 40
0.0
 40
0.0872962638
 40
0.1883080092
 40
0.3018616051
 40
0.4265423891
 40
0.5606506343
 40
0.7022846228
 40
0.8494739558
 40
1.0
 40
1.0
 40
1.0
 40
1.0
 10
13.5298640097
 20
4.5354602206
 30
0.0
 10
13.5294834265
 20
4.5354483713
 30
0.0
 10
13.528663801
 20
4.535378378
 30
0.0
 10
13.5273626521
 20
4.5351723135
 30
0.0
 10
13.5259157567
 20
4.5348592147
 30
0.0
 10
13.5243452751
 20
4.5344436397
 30
0.0
 10
13.5226750846
 20
4.5339315029
 30
0.0
 10
13.5209306405
 20
4.5333305192
 30
0.0
 10
13.5191389816
 20
4.5326497692
 30
0.0
 10
13.5179389936
 20
4.5321529069
 30
0.0
 10
13.5173360201
 20
4.5318931051
 30
0.0
  0
SPLINE
  5
32F
100
AcDbEntity
  8
0
100
AcDbSpline
 62
9
  6
CONTINUOUS
 70
0
 71
3
 72
14
 73
10
 74
0
 42
0.0000001
 43
0.0000001
 44
0.0000000001
 40
0.0
 40
0.0
 40
0.0
 40
0.0
 40
0.0863537143
 40
0.1865452509
 40
0.2994216188
 40
0.4236406575
 40
0.5576182864
 40
0.6995938691
 40
1.0
 40
1.0
 40
1.0
 40
1.0
 10
13.5179593615
 20
4.5611023372
 30
0.0
 10
13.5176112277
 20
4.5610593628
 30
0.0
 10
13.5168632681
 20
4.5609331583
 30
0.0
 10
13.51567739
 20
4.560661013
 30
0.0
 10
13.5143569056
 20
4.5602941713
 30
0.0
 10
13.512920131
 20
4.559837508
 30
0.0
 10
13.5113868305
 20
4.5592970073
 30
0.0
 10
13.5092007295
 20
4.5584584284
 30
0.0
 10
13.5075474578
 20
4.5577520014
 30
0.0
 10
13.5064358509
 20
4.5572486096
 30
0.0
  0
SPLINE
  5
330
100
AcDbEntity
  8
0
100
AcDbSpline
 62
9
  6
CONTINUOUS
 70
0
 71
3
 72
9
 73
5
 74
0
 42
0.0000001
 43
0.0000001
 44
0.0000000001
 40
0.0
 40
0.0
 40
0.0
 40
0.0
 40
0.4950110224
 40
1.0
 40
1.0
 40
1.0
 40
1.0
 10
13.4295745113
 20
4.6756409755
 30
0.0
 10
13.4300529812
 20
4.6744915276
 30
0.0
 10
13.4307769971
 20
4.6720627165
 30
0.0
 10
13.4310168911
 20
4.6695416214
 30
0.0
 10
13.4310168349
 20
4.668271469
 30
0.0
  0
SPLINE
  5
331
100
AcDbEntity
  8
0
100
AcDbSpline
 62
9
  6
CONTINUOUS
 70
0
 71
3
 72
15
 73
11
 74
0
 42
0.0000001
 43
0.0000001
 44
0.0000000001
 40
0.0
 40
0.0
 40
0.0
 40
0.0
 40
0.1403213012
 40
0.2790071296
 40
0.4144928302
 40
0.5454120451
 40
0.6704507707
 40
0.7884604086
 40
0.8985455018
 40
1.0
 40
1.0
 40
1.0
 40
1.0
 10
12.7345961747
 20
4.5611023797
 30
0.0
 10
12.7352221208
 20
4.5610630715
 30
0.0
 10
12.7364648675
 20
4.5609511239
 30
0.0
 10
12.7382990206
 20
4.5606838134
 30
0.0
 10
12.7400739453
 20
4.56032099
 30
0.0
 10
12.7417650259
 20
4.5598678799
 30
0.0
 10
12.7433491581
 20
4.5593305875
 30
0.0
 10
12.7448049127
 20
4.5587165522
 30
0.0
 10
12.7461121742
 20
4.558034109
 30
0.0
 10
12.746906725
 20
4.5575178
 30
0.0
 10
12.7472716641
 20
4.5572486425
 30
0.0
  0
SPLINE
  5
332
100
AcDbEntity
  8
0
100
AcDbSpline
 62
9
  6
CONTINUOUS
 70
0
 71
3
 72
15
 73
11
 74
0
 42
0.0000001
 43
0.0000001
 44
0.0000000001
 40
0.0
 40
0.0
 40
0.0
 40
0.0
 40
0.1432388799
 40
0.2842748892
 40
0.4213522172
 40
0.5529588416
 40
0.6776680887
 40
0.7942769774
 40
0.901914725
 40
1.0
 40
1.0
 40
1.0
 40
1.0
 10
12.733900739
 20
4.535460216
 30
0.0
 10
12.7345598745
 20
4.5354493706
 30
0.0
 10
12.7358677157
 20
4.5353905754
 30
0.0
 10
12.7377976995
 20
4.5351911416
 30
0.0
 10
12.7396593596
 20
4.5348836327
 30
0.0
 10
12.741424113
 20
4.5344730152
 30
0.0
 10
12.7430653064
 20
4.53396539
 30
0.0
 10
12.7445584711
 20
4.5333685115
 30
0.0
 10
12.7458808509
 20
4.5326912546
 30
0.0
 10
12.7466732727
 20
4.5321678648
 30
0.0
 10
12.7470314295
 20
4.531893093
 30
0.0
  0
SPLINE
  5
333
100
AcDbEntity
  8
0
100
AcDbSpline
 62
9
  6
CONTINUOUS
 70
0
 71
3
 72
15
 73
11
 74
0
 42
0.0000001
 43
0.0000001
 44
0.0000000001
 40
0.0
 40
0.0
 40
0.0
 40
0.0
 40
0.1430673026
 40
0.2839685403
 40
0.4209575616
 40
0.5525292911
 40
0.6772618837
 40
0.7939536022
 40
0.9017300569
 40
1.0
 40
1.0
 40
1.0
 40
1.0
 10
12.7339283286
 20
4.4390977336
 30
0.0
 10
12.7345859108
 20
4.4390874148
 30
0.0
 10
12.7358908549
 20
4.4390298411
 30
0.0
 10
12.7378169641
 20
4.4388327785
 30
0.0
 10
12.7396756384
 20
4.4385281149
 30
0.0
 10
12.7414384801
 20
4.4381207471
 30
0.0
 10
12.7430789937
 20
4.4376166983
 30
0.0
 10
12.7445728331
 20
4.4370236348
 30
0.0
 10
12.7458973393
 20
4.4363503364
 30
0.0
 10
12.7466920923
 20
4.4358298979
 30
0.0
 10
12.7470517729
 20
4.4355565949
 30
0.0
  0
SPLINE
  5
334
100
AcDbEntity
  8
0
100
AcDbSpline
 62
9
  6
CONTINUOUS
 70
0
 71
3
 72
14
 73
10
 74
0
 42
0.0000001
 43
0.0000001
 44
0.0000000001
 40
0.0
 40
0.0
 40
0.0
 40
0.0
 40
0.2459747118
 40
0.3702199705
 40
0.4951666967
 40
0.6207210158
 40
0.7467797786
 40
0.8732514934
 40
1.0
 40
1.0
 40
1.0
 40
1.0
 10
13.4233609921
 20
4.5029103064
 30
0.0
 10
13.4206891576
 20
4.5093282299
 30
0.0
 10
13.4172183576
 20
4.5192299988
 30
0.0
 10
13.4136986378
 20
4.532779521
 30
0.0
 10
13.4116017623
 20
4.5431670803
 30
0.0
 10
13.4100662528
 20
4.5537033663
 30
0.0
 10
13.4090995351
 20
4.5643505717
 30
0.0
 10
13.4087137158
 20
4.5750680592
 30
0.0
 10
13.4088437524
 20
4.5822275962
 30
0.0
 10
13.4090043152
 20
4.5858062287
 30
0.0
  0
SPLINE
  5
335
100
AcDbEntity
  8
0
100
AcDbSpline
 62
9
  6
CONTINUOUS
 70
0
 71
3
 72
15
 73
11
 74
0
 42
0.0000001
 43
0.0000001
 44
0.0000000001
 40
0.0
 40
0.0
 40
0.0
 40
0.0
 40
0.1296674215
 40
0.1943981127
 40
0.2589667418
 40
0.3873801804
 40
0.5144502027
 40
0.6397057148
 40
0.7626814045
 40
1.0
 40
1.0
 40
1.0
 40
1.0
 10
12.8350899716
 20
4.5858062287
 30
0.0
 10
12.8353428348
 20
4.582224843
 30
0.0
 10
12.8357167219
 20
4.5768552391
 30
0.0
 10
12.8362015558
 20
4.569701237
 30
0.0
 10
12.8366740217
 20
4.5625812039
 30
0.0
 10
12.8372447359
 20
4.5537378207
 30
0.0
 10
12.8379107068
 20
4.5432167711
 30
0.0
 10
12.8385581578
 20
4.5328454174
 30
0.0
 10
12.8393864536
 20
4.5194267932
 30
0.0
 10
12.8399938327
 20
4.5094692768
 30
0.0
 10
12.8403913397
 20
4.5029103064
 30
0.0
  0
LINE
  5
336
100
AcDbEntity
  8
0
100
AcDbLine
 62
9
  6
CONTINUOUS
 10
12.8403913397
 20
4.5029103064
 11
12.8408683472
 21
4.4244903193
  0
LINE
  5
337
100
AcDbEntity
  8
0
100
AcDbLine
 62
9
  6
CONTINUOUS
 10
13.4587179675
 20
4.4244903193
 11
13.4233609921
 21
4.5029103064
  0
SPLINE
  5
338
100
AcDbEntity
  8
0
100
AcDbSpline
 62
9
  6
CONTINUOUS
 70
0
 71
3
 72
28
 73
24
 74
0
 42
0.0000001
 43
0.0000001
 44
0.0000000001
 40
0.0
 40
0.0
 40
0.0
 40
0.0
 40
0.1046217365
 40
0.2051237556
 40
0.3009964637
 40
0.391858694
 40
0.4773420642
 40
0.5570683755
 40
0.6307063066
 40
0.6979693309
 40
0.7586189323
 40
0.8124662795
 40
0.8594037715
 40
0.8802778263
 40
0.8994352062
 40
0.9169009971
 40
0.9327175921
 40
0.9469542897
 40
0.9597131121
 40
0.9711423738
 40
0.981456075
 40
0.9909491562
 40
1.0
 40
1.0
 40
1.0
 40
1.0
 10
12.8408682772
 20
4.4244903193
 30
0.0
 10
12.8409533972
 20
4.4234988094
 30
0.0
 10
12.8411306898
 20
4.4215557089
 30
0.0
 10
12.8414207911
 20
4.4187073344
 30
0.0
 10
12.8417278985
 20
4.415992382
 30
0.0
 10
12.8420613308
 20
4.4134244593
 30
0.0
 10
12.8424233381
 20
4.4110155928
 30
0.0
 10
12.8428084546
 20
4.4087763737
 30
0.0
 10
12.8432146369
 20
4.406717205
 30
0.0
 10
12.8436407565
 20
4.4048476946
 30
0.0
 10
12.8440844605
 20
4.4031762282
 30
0.0
 10
12.8445435157
 20
4.4017103252
 30
0.0
 10
12.8449512057
 20
4.4006262562
 30
0.0
 10
12.8452879554
 20
4.3998704031
 30
0.0
 10
12.8455331376
 20
4.3993812793
 30
0.0
 10
12.8457806331
 20
4.3989478705
 30
0.0
 10
12.8460302792
 20
4.3985705962
 30
0.0
 10
12.8462819071
 20
4.3982497314
 30
0.0
 10
12.846535516
 20
4.3979854978
 30
0.0
 10
12.8467913224
 20
4.3977782432
 30
0.0
 10
12.8470497054
 20
4.3976285631
 30
0.0
 10
12.8473106164
 20
4.39753757
 30
0.0
 10
12.8474875888
 20
4.3975169625
 30
0.0
 10
12.84757368
 20
4.3975169643
 30
0.0
  0
SPLINE
  5
339
100
AcDbEntity
  8
0
100
AcDbSpline
 62
9
  6
CONTINUOUS
 70
0
 71
3
 72
21
 73
17
 74
0
 42
0.0000001
 43
0.0000001
 44
0.0000000001
 40
0.0
 40
0.0
 40
0.0
 40
0.0
 40
0.0571606426
 40
0.1145264547
 40
0.1722314507
 40
0.2304272388
 40
0.2892569275
 40
0.3488478777
 40
0.409308626
 40
0.4707274244
 40
0.5331698568
 40
0.5966812387
 40
0.6612863587
 40
0.7269856
 40
0.8615004388
 40
1.0
 40
1.0
 40
1.0
 40
1.0
 10
13.493367699
 20
4.3975169643
 30
0.0
 10
13.4924799816
 20
4.3975169527
 30
0.0
 10
13.4907003918
 20
4.3975950358
 30
0.0
 10
13.4880453566
 20
4.3979449618
 30
0.0
 10
13.4854146495
 20
4.3985265531
 30
0.0
 10
13.4828214585
 20
4.3993367767
 30
0.0
 10
13.4802779514
 20
4.4003717683
 30
0.0
 10
13.4777960615
 20
4.4016265865
 30
0.0
 10
13.4753872556
 20
4.4030951094
 30
0.0
 10
13.4730628496
 20
4.4047705453
 30
0.0
 10
13.4708334513
 20
4.4066447718
 30
0.0
 10
13.4687095413
 20
4.408709176
 30
0.0
 10
13.4667006764
 20
4.4109539663
 30
0.0
 10
13.4641686806
 20
4.4141982516
 30
0.0
 10
13.4613485259
 20
4.4186562022
 30
0.0
 10
13.4595275126
 20
4.4224975497
 30
0.0
 10
13.4587179675
 20
4.4244903193
 30
0.0
  0
SPLINE
  5
33A
100
AcDbEntity
  8
0
100
AcDbSpline
 62
9
  6
CONTINUOUS
 70
0
 71
3
 72
31
 73
27
 74
0
 42
0.0000001
 43
0.0000001
 44
0.0000000001
 40
0.0
 40
0.0
 40
0.0
 40
0.0
 40
0.0395456289
 40
0.0776451245
 40
0.0964135225
 40
0.1151453892
 40
0.1339770872
 40
0.1530593028
 40
0.1725519514
 40
0.1926180375
 40
0.2350785604
 40
0.2817748501
 40
0.3339439642
 40
0.3927037405
 40
0.4590838141
 40
0.4954604255
 40
0.534109267
 40
0.5751238813
 40
0.6185039399
 40
0.6639538858
 40
0.7107748266
 40
0.7583367435
 40
0.8063018337
 40
0.8545164418
 40
0.9028987153
 40
1.0
 40
1.0
 40
1.0
 40
1.0
 10
11.849911155
 20
4.6756399954
 30
0.0
 10
11.8506594678
 20
4.6756398923
 30
0.0
 10
11.8521313811
 20
4.6755421547
 30
0.0
 10
11.8539188973
 20
4.675133
 30
0.0
 10
11.8552597612
 20
4.6746293853
 30
0.0
 10
11.8562202959
 20
4.6741634774
 30
0.0
 10
11.8571369885
 20
4.6736046944
 30
0.0
 10
11.8580060999
 20
4.6729501159
 30
0.0
 10
11.8588240223
 20
4.6721975639
 30
0.0
 10
11.8598611283
 20
4.6710401189
 30
0.0
 10
11.8610130428
 20
4.6693091065
 30
0.0
 10
11.8620939104
 20
4.6668503675
 30
0.0
 10
11.8628605901
 20
4.6639567959
 30
0.0
 10
11.8632693201
 20
4.6606174182
 30
0.0
 10
11.8632659317
 20
4.6575534839
 30
0.0
 10
11.863040418
 20
4.6548861724
 30
0.0
 10
11.8627325316
 20
4.6527108208
 30
0.0
 10
11.8622780548
 20
4.6504260828
 30
0.0
 10
11.8616658775
 20
4.6480452765
 30
0.0
 10
11.8609010617
 20
4.6455941327
 30
0.0
 10
11.8600278012
 20
4.6430960935
 30
0.0
 10
11.8590922371
 20
4.6405700881
 30
0.0
 10
11.858120659
 20
4.6380295085
 30
0.0
 10
11.8571257013
 20
4.6354813386
 30
0.0
 10
11.855776118
 20
4.6320735307
 30
0.0
 10
11.8547486702
 20
4.6295194737
 30
0.0
 10
11.8540592569
 20
4.6278162885
 30
0.0
  0
SPLINE
  5
33B
100
AcDbEntity
  8
0
100
AcDbSpline
 62
9
  6
CONTINUOUS
 70
0
 71
3
 72
13
 73
9
 74
0
 42
0.0000001
 43
0.0000001
 44
0.0000000001
 40
0.0
 40
0.0
 40
0.0
 40
0.0
 40
0.1243626919
 40
0.2490637365
 40
0.373974278
 40
0.4990260723
 40
0.749403101
 40
1.0
 40
1.0
 40
1.0
 40
1.0
 10
11.8540592569
 20
4.6278162885
 30
0.0
 10
11.8529335952
 20
4.625035358
 30
0.0
 10
11.8506596766
 20
4.619473838
 30
0.0
 10
11.8472126793
 20
4.6111365813
 30
0.0
 10
11.8437381008
 20
4.6027927718
 30
0.0
 10
11.8390786116
 20
4.5916582487
 30
0.0
 10
11.8332229936
 20
4.577737466
 30
0.0
 10
11.8285227919
 20
4.5666034524
 30
0.0
 10
11.8261698354
 20
4.5610347732
 30
0.0
  0
SPLINE
  5
33C
100
AcDbEntity
  8
0
100
AcDbSpline
 62
9
  6
CONTINUOUS
 70
0
 71
3
 72
14
 73
10
 74
0
 42
0.0000001
 43
0.0000001
 44
0.0000000001
 40
0.0
 40
0.0
 40
0.0
 40
0.0
 40
0.316864248
 40
0.4555727072
 40
0.5819861207
 40
0.6974452716
 40
0.8038314191
 40
0.903650439
 40
1.0
 40
1.0
 40
1.0
 40
1.0
 10
13.559637561
 20
4.5611023797
 30
0.0
 10
13.5599027913
 20
4.5610684771
 30
0.0
 10
13.5602827896
 20
4.5609985674
 30
0.0
 10
13.5607502208
 20
4.5608457829
 30
0.0
 10
13.5610440081
 20
4.5607142872
 30
0.0
 10
13.5612958564
 20
4.5605610691
 30
0.0
 10
13.5615049052
 20
4.5603860141
 30
0.0
 10
13.561669878
 20
4.56018932
 30
0.0
 10
13.5617501887
 20
4.5600430781
 30
0.0
 10
13.5617818857
 20
4.5599682058
 30
0.0
  0
SPLINE
  5
33D
100
AcDbEntity
  8
0
100
AcDbSpline
 62
9
  6
CONTINUOUS
 70
0
 71
3
 72
15
 73
11
 74
0
 42
0.0000001
 43
0.0000001
 44
0.0000000001
 40
0.0
 40
0.0
 40
0.0
 40
0.0
 40
0.173634003
 40
0.3313661225
 40
0.4735229538
 40
0.6008066643
 40
0.7145734363
 40
0.8168945818
 40
0.9107290554
 40
1.0
 40
1.0
 40
1.0
 40
1.0
 10
13.5708467959
 20
4.535460216
 30
0.0
 10
13.5709777894
 20
4.5354556452
 30
0.0
 10
13.5712276374
 20
4.5354402181
 30
0.0
 10
13.5715824385
 20
4.5353942454
 30
0.0
 10
13.5718982003
 20
4.5353266769
 30
0.0
 10
13.5721740187
 20
4.5352374273
 30
0.0
 10
13.5724092488
 20
4.5351265085
 30
0.0
 10
13.5726033006
 20
4.534993595
 30
0.0
 10
13.5727549106
 20
4.5348383071
 30
0.0
 10
13.572827245
 20
4.5347187418
 30
0.0
 10
13.5728549069
 20
4.5346572918
 30
0.0
  0
SPLINE
  5
33E
100
AcDbEntity
  8
0
100
AcDbSpline
 62
9
  6
CONTINUOUS
 70
0
 71
3
 72
15
 73
11
 74
0
 42
0.0000001
 43
0.0000001
 44
0.0000000001
 40
0.0
 40
0.0
 40
0.0
 40
0.0
 40
0.1737988784
 40
0.3316546503
 40
0.4738870449
 40
0.6011945953
 40
0.7149324075
 40
0.8171720528
 40
0.9108809366
 40
1.0
 40
1.0
 40
1.0
 40
1.0
 10
13.6141922734
 20
4.4390977336
 30
0.0
 10
13.6143241726
 20
4.439093357
 30
0.0
 10
13.61457574
 20
4.439078267
 30
0.0
 10
13.6149329933
 20
4.4390326496
 30
0.0
 10
13.6152509146
 20
4.4389652622
 30
0.0
 10
13.6155285886
 20
4.4388760197
 30
0.0
 10
13.6157653662
 20
4.4387649381
 30
0.0
 10
13.6159606514
 20
4.4386316806
 30
0.0
 10
13.6161131676
 20
4.4384758587
 30
0.0
 10
13.6161858803
 20
4.4383557939
 30
0.0
 10
13.6162136556
 20
4.4382940854
 30
0.0
  0
LINE
  5
33F
100
AcDbEntity
  8
0
100
AcDbLine
 62
9
  6
CONTINUOUS
 10
12.7992724721
 20
4.6756409715
 11
12.7994810824
 21
4.668271469
  0
SPLINE
  5
340
100
AcDbEntity
  8
0
100
AcDbSpline
 62
9
  6
CONTINUOUS
 70
0
 71
3
 72
19
 73
15
 74
0
 42
0.0000001
 43
0.0000001
 44
0.0000000001
 40
0.0
 40
0.0
 40
0.0
 40
0.0
 40
0.1376262962
 40
0.2731192341
 40
0.3396787366
 40
0.4052128406
 40
0.5326739491
 40
0.6552019027
 40
0.7147523951
 40
0.7732337129
 40
0.8307890178
 40
0.8876176914
 40
0.9439573677
 40
1.0
 40
1.0
 40
1.0
 40
1.0
 10
13.5536359735
 20
4.3823964144
 30
0.0
 10
13.5535911873
 20
4.3834006029
 30
0.0
 10
13.5533497775
 20
4.3853898904
 30
0.0
 10
13.5526686309
 20
4.3877869288
 30
0.0
 10
13.5519073011
 20
4.3895891867
 30
0.0
 10
13.5510248096
 20
4.3912690966
 30
0.0
 10
13.549692569
 20
4.3931652788
 30
0.0
 10
13.5480598021
 20
4.3947515992
 30
0.0
 10
13.5466248269
 20
4.3957702225
 30
0.0
 10
13.5455045302
 20
4.3963995964
 30
0.0
 10
13.544340598
 20
4.3968953727
 30
0.0
 10
13.5431431951
 20
4.3972529875
 30
0.0
 10
13.5419236158
 20
4.3974686677
 30
0.0
 10
13.5411020148
 20
4.3975169643
 30
0.0
 10
13.5406926939
 20
4.3975169643
 30
0.0
  0
SPLINE
  5
341
100
AcDbEntity
  8
0
100
AcDbSpline
 62
9
  6
CONTINUOUS
 70
0
 71
3
 72
15
 73
11
 74
0
 42
0.0000001
 43
0.0000001
 44
0.0000000001
 40
0.0
 40
0.0
 40
0.0
 40
0.0
 40
0.1158833471
 40
0.2356432787
 40
0.2967010173
 40
0.3584219059
 40
0.4835807599
 40
0.6106413541
 40
0.7392502815
 40
1.0
 40
1.0
 40
1.0
 40
1.0
 10
13.537580079
 20
4.668272009
 30
0.0
 10
13.5384784945
 20
4.6651666524
 30
0.0
 10
13.5401510167
 20
4.6588069417
 30
0.0
 10
13.5419559068
 20
4.6507278401
 30
0.0
 10
13.5432829596
 20
4.6440931667
 30
0.0
 10
13.5445481581
 20
4.6372931658
 30
0.0
 10
13.5459911423
 20
4.6286542941
 30
0.0
 10
13.5475275821
 20
4.6181416949
 30
0.0
 10
13.5493607498
 20
4.603852127
 30
0.0
 10
13.5504982901
 20
4.5930484869
 30
0.0
 10
13.551176332
 20
4.5858062287
 30
0.0
  0
SPLINE
  5
342
100
AcDbEntity
  8
0
100
AcDbSpline
 62
9
  6
CONTINUOUS
 70
0
 71
3
 72
37
 73
33
 74
0
 42
0.0000001
 43
0.0000001
 44
0.0000000001
 40
0.0
 40
0.0
 40
0.0
 40
0.0
 40
0.1359576861
 40
0.2039652704
 40
0.272002313
 40
0.3400808663
 40
0.3741411368
 40
0.4082197456
 40
0.4423211716
 40
0.476452122
 40
0.5106223284
 40
0.5448480692
 40
0.5619899071
 40
0.5791581056
 40
0.5963604446
 40
0.6136056385
 40
0.6308918884
 40
0.6481716899
 40
0.6653512944
 40
0.6823439254
 40
0.7155479432
 40
0.7475255441
 40
0.7781706816
 40
0.8074534295
 40
0.8353898048
 40
0.8620362362
 40
0.887471338
 40
0.9117817082
 40
0.9350717284
 40
0.9574562829
 40
0.9790607608
 40
1.0
 40
1.0
 40
1.0
 40
1.0
 10
11.8678765685
 20
4.5611023797
 30
0.0
 10
11.8708640864
 20
4.5673100988
 30
0.0
 10
11.8753505168
 20
4.5766208177
 30
0.0
 10
11.8813517424
 20
4.589028515
 30
0.0
 10
11.8858680767
 20
4.598333659
 30
0.0
 10
11.8896482129
 20
4.6060840381
 30
0.0
 10
11.8926870697
 20
4.6122814527
 30
0.0
 10
11.8949762128
 20
4.6169289609
 30
0.0
 10
11.897277232
 20
4.6215745996
 30
0.0
 10
11.8995940041
 20
4.6262175965
 30
0.0
 10
11.9019321172
 20
4.630856943
 30
0.0
 10
11.9039054237
 20
4.6347160847
 30
0.0
 10
11.9055086441
 20
4.6377967138
 30
0.0
 10
11.9067290473
 20
4.6401040906
 30
0.0
 10
11.9079741968
 20
4.6424041957
 30
0.0
 10
11.9092561022
 20
4.6446909955
 30
0.0
 10
11.9105985834
 20
4.6469476822
 30
0.0
 10
11.9120244871
 20
4.649149039
 30
0.0
 10
11.9135371006
 20
4.6512735933
 30
0.0
 10
11.9156320544
 20
4.6539703267
 30
0.0
 10
11.9183762427
 20
4.6571076739
 30
0.0
 10
11.9218279518
 20
4.6605281937
 30
0.0
 10
11.9253547206
 20
4.6635750134
 30
0.0
 10
11.9289160578
 20
4.6662526719
 30
0.0
 10
11.9324831596
 20
4.6685687062
 30
0.0
 10
11.9360331619
 20
4.6705346669
 30
0.0
 10
11.9395483517
 20
4.672163799
 30
0.0
 10
11.9430161695
 20
4.6734663636
 30
0.0
 10
11.9464253845
 20
4.6744555955
 30
0.0
 10
11.9497678381
 20
4.6751449444
 30
0.0
 10
11.953036305
 20
4.6755495494
 30
0.0
 10
11.9551930193
 20
4.6756398388
 30
0.0
 10
11.9562540446
 20
4.6756399954
 30
0.0
  0
LINE
  5
343
100
AcDbEntity
  8
0
100
AcDbLine
 62
9
  6
CONTINUOUS
 10
11.81265401
 20
4.4390977336
 11
11.8559718979
 21
4.535460216
  0
SPLINE
  5
344
100
AcDbEntity
  8
0
100
AcDbSpline
 62
9
  6
CONTINUOUS
 70
0
 71
3
 72
9
 73
5
 74
0
 42
0.0000001
 43
0.0000001
 44
0.0000000001
 40
0.0
 40
0.0
 40
0.0
 40
0.0
 40
0.4978340354
 40
1.0
 40
1.0
 40
1.0
 40
1.0
 10
13.5359294668
 20
4.6756399954
 30
0.0
 10
13.5364716921
 20
4.6745017265
 30
0.0
 10
13.5373018584
 20
4.6720836347
 30
0.0
 10
13.5375800787
 20
4.6695432591
 30
0.0
 10
13.5375801002
 20
4.668271469
 30
0.0
  0
SPLINE
  5
345
100
AcDbEntity
  8
0
100
AcDbSpline
 62
9
  6
CONTINUOUS
 70
0
 71
3
 72
13
 73
9
 74
0
 42
0.0000001
 43
0.0000001
 44
0.0000000001
 40
0.0
 40
0.0
 40
0.0
 40
0.0
 40
0.2505831616
 40
0.5009490594
 40
0.6259978325
 40
0.7509087424
 40
0.8756165447
 40
1.0
 40
1.0
 40
1.0
 40
1.0
 10
13.559637561
 20
4.5611023797
 30
0.0
 10
13.5573071064
 20
4.5666178021
 30
0.0
 10
13.5526517983
 20
4.5776453779
 30
0.0
 10
13.5468519291
 20
4.5914330884
 30
0.0
 10
13.5422363281
 20
4.6024611972
 30
0.0
 10
13.5387940121
 20
4.6107254446
 30
0.0
 10
13.5353782043
 20
4.6189834837
 30
0.0
 10
13.5331239643
 20
4.6244920292
 30
0.0
 10
13.5320074804
 20
4.627246432
 30
0.0
  0
SPLINE
  5
346
100
AcDbEntity
  8
0
100
AcDbSpline
 62
9
  6
CONTINUOUS
 70
0
 71
3
 72
33
 73
29
 74
0
 42
0.0000001
 43
0.0000001
 44
0.0000000001
 40
0.0
 40
0.0
 40
0.0
 40
0.0
 40
0.0967654786
 40
0.1449890724
 40
0.1930554673
 40
0.2408918196
 40
0.2883595544
 40
0.3118769441
 40
0.3351732573
 40
0.3807301571
 40
0.4243124505
 40
0.465544649
 40
0.5043902096
 40
0.5409434315
 40
0.575315621
 40
0.6076342922
 40
0.6665884099
 40
0.7188731663
 40
0.7656098773
 40
0.8080457953
 40
0.8280777429
 40
0.8475238016
 40
0.8665501008
 40
0.8853174861
 40
0.903978102
 40
0.9226718632
 40
0.9606158211
 40
1.0
 40
1.0
 40
1.0
 40
1.0
 10
13.5320074804
 20
4.627246432
 30
0.0
 10
13.5313121579
 20
4.6289618156
 30
0.0
 10
13.5302756249
 20
4.6315342352
 30
0.0
 10
13.5289130426
 20
4.6349664689
 30
0.0
 10
13.5279075551
 20
4.6375334612
 30
0.0
 10
13.5269239062
 20
4.6400934261
 30
0.0
 10
13.5261295937
 20
4.6422230261
 30
0.0
 10
13.5255205518
 20
4.6439205461
 30
0.0
 10
13.5249428958
 20
4.6455903503
 30
0.0
 10
13.524288008
 20
4.6476395593
 30
0.0
 10
13.5236449841
 20
4.6500502321
 30
0.0
 10
13.5231627956
 20
4.6523672396
 30
0.0
 10
13.5228317548
 20
4.6545746765
 30
0.0
 10
13.522637616
 20
4.656666512
 30
0.0
 10
13.5225688094
 20
4.6586414092
 30
0.0
 10
13.5226277577
 20
4.6610450831
 30
0.0
 10
13.5229414749
 20
4.6637812829
 30
0.0
 10
13.5236955355
 20
4.6667185074
 30
0.0
 10
13.5247705953
 20
4.6692144144
 30
0.0
 10
13.5259224603
 20
4.6709721841
 30
0.0
 10
13.5269621063
 20
4.6721473089
 30
0.0
 10
13.5277828431
 20
4.6729107651
 30
0.0
 10
13.5286554088
 20
4.6735750621
 30
0.0
 10
13.5295761878
 20
4.6741425048
 30
0.0
 10
13.530541774
 20
4.6746154207
 30
0.0
 10
13.5318906201
 20
4.6751257152
 30
0.0
 10
13.5336897042
 20
4.6755401783
 30
0.0
 10
13.5351715139
 20
4.6756398279
 30
0.0
 10
13.5359248624
 20
4.6756399954
 30
0.0
  0
LINE
  5
347
100
AcDbEntity
  8
0
100
AcDbLine
 62
9
  6
CONTINUOUS
 10
13.5603719391
 20
4.5593691605
 11
13.559637561
 21
4.5611023797
  0
LINE
  5
348
100
AcDbEntity
  8
0
100
AcDbLine
 62
9
  6
CONTINUOUS
 10
13.6141922734
 20
4.4390977336
 11
13.5714851585
 21
4.5340411326
  0
LINE
  5
349
100
AcDbEntity
  8
0
100
AcDbLine
 62
9
  6
CONTINUOUS
 10
13.5714851585
 20
4.5340411326
 11
13.5708467959
 21
4.535460216
  0
SPLINE
  5
34A
100
AcDbEntity
  8
0
100
AcDbSpline
 62
9
  6
CONTINUOUS
 70
0
 71
3
 72
11
 73
7
 74
0
 42
0.0000001
 43
0.0000001
 44
0.0000000001
 40
0.0
 40
0.0
 40
0.0
 40
0.0
 40
0.2484994017
 40
0.5003057205
 40
0.7518674868
 40
1.0
 40
1.0
 40
1.0
 40
1.0
 10
13.6282908186
 20
4.4148417961
 30
0.0
 10
13.6269117222
 20
4.4167172489
 30
0.0
 10
13.6242435429
 20
4.4205738984
 30
0.0
 10
13.6205507971
 20
4.4265753635
 30
0.0
 10
13.6171769773
 20
4.432757702
 30
0.0
 10
13.6151458096
 20
4.4369778259
 30
0.0
 10
13.6141922734
 20
4.4390977336
 30
0.0
  0
SPLINE
  5
34B
100
AcDbEntity
  8
0
100
AcDbSpline
 62
9
  6
CONTINUOUS
 70
0
 71
3
 72
13
 73
9
 74
0
 42
0.0000001
 43
0.0000001
 44
0.0000000001
 40
0.0
 40
0.0
 40
0.0
 40
0.0
 40
0.267762363
 40
0.5257487423
 40
0.6500867378
 40
0.770816345
 40
0.8875829061
 40
1.0
 40
1.0
 40
1.0
 40
1.0
 10
13.5731818693
 20
4.4390978465
 30
0.0
 10
13.5741112737
 20
4.4370302306
 30
0.0
 10
13.5758195926
 20
4.4329167278
 30
0.0
 10
13.5775989199
 20
4.4277035504
 30
0.0
 10
13.5787465008
 20
4.4236011916
 30
0.0
 10
13.5794531959
 20
4.4206195515
 30
0.0
 10
13.5800103936
 20
4.4177090693
 30
0.0
 10
13.580284472
 20
4.4157872575
 30
0.0
 10
13.5803935465
 20
4.4148417961
 30
0.0
  0
ENDSEC
  0
SECTION
  2
OBJECTS
  0
DICTIONARY
  5
C
100
AcDbDictionary
280
0
281
1
  3
ACAD_GROUP
350
D
  3
ACAD_MLINESTYLE
350
17
  3
ACAD_LAYOUT
350
1A
  3
ACAD_PLOTSETTINGS
350
19
  3
ACAD_PLOTSTYLENAME
350
E
  0
DICTIONARY
  5
D
102
{ACAD_REACTORS
330
C
102
}
100
AcDbDictionary
280
0
281
1
  0
ACDBDICTIONARYWDFLT
  5
E
102
{ACAD_REACTORS
330
C
102
}
100
AcDbDictionary
281
1
  3
Normal
350
F
100
AcDbDictionaryWithDefault
340
F
  0
DICTIONARY
  5
17
102
{ACAD_REACTORS
330
C
102
}
100
AcDbDictionary
280
0
281
1
  3
Standard
350
18
  0
DICTIONARY
  5
19
102
{ACAD_REACTORS
330
C
102
}
100
AcDbDictionary
281
1
  0
DICTIONARY
  5
1A
102
{ACAD_REACTORS
330
C
102
}
100
AcDbDictionary
281
1
  3
Model
350
34C
  3
Layout1
350
34D
  0
ACDBPLACEHOLDER
  5
F
102
{ACAD_REACTORS
330
E
102
}
  0
MLINESTYLE
  5
18
102
{ACAD_REACTORS
330
17
102
}
100
AcDbMlineStyle
  2
STANDARD
 70
0
  3

 62
256
 51
90.0
 52
90.0
 71
2
 49
0.5
 62
256
  6
BYLAYER
 49
-0.5
 62
256
  6
BYLAYER
  0
LAYOUT
  5
34C
102
{ACAD_REACTORS
330
1A
102
}
100
AcDbPlotSettings
  1

  2
none_device
  4
ANSI_C_(22.00_x_17.00_Inches)
  6

 40
0.0
 41
0.0
 42
0.0
 43
0.0
 44
558.8
 45
431.8
 46
0.0
 47
0.0
 48
0.0
 49
0.0
140
0.0
141
0.0
142
1.0
143
1.0
 70
1024
 72
0
 73
0
 74
0
  7

 75
0
147
1.0
148
0.0
149
0.0
100
AcDbLayout
  1
Model
 70
0
 71
0
 10
0.0
 20
0.0
 11
22.0
 21
17.0
 12
0.0
 22
0.0
 32
0.0
 14
0.0
 24
0.0
 34
0.0
 15
0.0
 25
0.0
 35
0.0
146
0.0
 13
0.0
 23
0.0
 33
0.0
 16
1.0
 26
0.0
 36
0.0
 17
0.0
 27
1.0
 37
0.0
 76
0
330
205
345
0
346
0
  0
LAYOUT
  5
34D
102
{ACAD_REACTORS
330
1A
102
}
100
AcDbPlotSettings
  1

  2
none_device
  4
ANSI_C_(22.00_x_17.00_Inches)
  6

 40
0.0
 41
0.0
 42
0.0
 43
0.0
 44
558.8
 45
431.8
 46
0.0
 47
0.0
 48
0.0
 49
0.0
140
0.0
141
0.0
142
1.0
143
1.0
 70
0
 72
0
 73
0
 74
0
  7

 75
0
147
1.0
148
0.0
149
0.0
100
AcDbLayout
  1
Layout1
 70
0
 71
1
 10
0.0
 20
0.0
 11
22.0
 21
17.0
 12
0.0
 22
0.0
 32
0.0
 14
0.0
 24
0.0
 34
0.0
 15
0.0
 25
0.0
 35
0.0
146
0.0
 13
0.0
 23
0.0
 33
0.0
 16
1.0
 26
0.0
 36
0.0
 17
0.0
 27
1.0
 37
0.0
 76
0
330
206
345
0
346
0
  0
ENDSEC
  0
EOF
