999
DXF file: E:\BT Custom\CADOUTPUT\_TOP.dxf
999
Pro/ENGINEER 2018400 by Parametric Technology Corporation
  0
SECTION
  2
HEADER
  9
$ACADVER
  1
AC1018
  9
$DWGCODEPAGE
  3
ANSI_1252
  9
$EXTMAX
 10
22.0
 20
17.0
 30
0.0
  9
$EXTMIN
 10
0.0
 20
0.0
 30
0.0
  9
$LIMMIN
 10
0.0
 20
0.0
  9
$LIMMAX
 10
22.0
 20
17.0
  9
$VIEWCTR
 10
11.0
 20
8.5
  9
$VIEWSIZE
 40
17.0
  9
$CLAYER
  8
0
  9
$LTSCALE
 40
1.21
  9
$CELTYPE
  6
BYLAYER
  9
$DIMSCALE
 40
1.0
  9
$DIMASZ
 40
0.1
  9
$DIMEXO
 40
0.0625
  9
$DIMDLI
 40
0.836
  9
$DIMEXE
 40
0.125
  9
$DIMCEN
 40
0.198
  9
$DIMLFAC
 40
1.0
  9
$DIMBLK
  1
_FILLED
  9
$DIMALT
 70
1
  9
$DIMALTD
 70
2
  9
$DIMALTTD
 70
2
  9
$DIMALTF
 40
25.4
  9
$DIMTXT
 40
0.08
  9
$DIMTOL
 70
1
  9
$DIMLIM
 70
0
  9
$DIMTFAC
 40
1.0
  9
$DIMTP
 40
0.001
  9
$DIMTM
 40
0.001
  9
$DIMGAP
 40
0.09
  9
$DIMDSEP
 70
46
  9
$AUNITS
 70
0
  9
$PDMODE
 70
3
  9
$PDSIZE
 40
0.06
  9
$HANDSEED
  5
374
  9
$TILEMODE
 70
1
  9
$MEASUREMENT
 70
0
  9
$INSUNITS
 70
1
  0
ENDSEC
  0
SECTION
  2
CLASSES
  0
CLASS
  1
ACDBDICTIONARYWDFLT
  2
AcDbDictionaryWithDefault
  3
AutoCAD 2000
 90
0
 91
1
280
0
281
0
  0
CLASS
  1
ACDBPLACEHOLDER
  2
AcDbPlaceHolder
  3
AutoCAD 2000
 90
0
 91
1
280
0
281
0
  0
CLASS
  1
LAYOUT
  2
AcDbLayout
  3
AutoCAD 2000
 90
0
 91
0
280
0
281
0
  0
ENDSEC
  0
SECTION
  2
TABLES
  0
TABLE
  2
VPORT
  5
8
100
AcDbSymbolTable
 70
2
  0
VPORT
  5
1F4
100
AcDbSymbolTableRecord
100
AcDbViewportTableRecord
  2
*ACTIVE
 70
0
 10
0.0
 20
0.0
 11
1.0
 21
1.0
 12
11.0
 22
8.5
 13
0.0
 23
0.0
 14
1.0
 24
1.0
 15
0.0
 25
0.0
 16
0.0
 26
0.0
 36
1.0
 17
0.0
 27
0.0
 37
0.0
 40
17.0
 41
1.2941176471
 42
50.0
 43
0.0
 44
0.0
 50
0.0
 51
0.0
 71
0
 72
100
 73
1
 74
1
 75
0
 76
0
 77
0
 78
0
  0
ENDTAB
  0
TABLE
  2
LTYPE
  5
5
100
AcDbSymbolTable
 70
6
  0
LTYPE
  5
14
100
AcDbSymbolTableRecord
100
AcDbLinetypeTableRecord
  2
BYBLOCK
 70
0
  3

 72
65
 73
0
 40
0.0
  0
LTYPE
  5
15
100
AcDbSymbolTableRecord
100
AcDbLinetypeTableRecord
  2
BYLAYER
 70
0
  3

 72
65
 73
0
 40
0.0
  0
LTYPE
  5
16
100
AcDbSymbolTableRecord
100
AcDbLinetypeTableRecord
  2
CONTINUOUS
 70
64
  3
Solid line
 72
65
 73
0
 40
0.0
  0
LTYPE
  5
1F5
100
AcDbSymbolTableRecord
100
AcDbLinetypeTableRecord
  2
CENTER
 70
64
  3
____ _ ____ _ ____ _ ____ _ ____ _ ____ _ ____
 72
65
 73
4
 40
0.6
 49
0.375
 74
0
 49
-0.075
 74
0
 49
0.075
 74
0
 49
-0.075
 74
0
  0
LTYPE
  5
1F6
100
AcDbSymbolTableRecord
100
AcDbLinetypeTableRecord
  2
HIDDEN
 70
64
  3
- - - - - - - - - - - - - - - - - - - -
 72
65
 73
2
 40
0.2
 49
0.1
 74
0
 49
-0.1
 74
0
  0
LTYPE
  5
1F7
100
AcDbSymbolTableRecord
100
AcDbLinetypeTableRecord
  2
PHANTOM
 70
64
  3
_____ _ _ _____ _ _ _____ _ _ _____
 72
65
 73
6
 40
0.8
 49
0.45
 74
0
 49
-0.05
 74
0
 49
0.1
 74
0
 49
-0.05
 74
0
 49
0.1
 74
0
 49
-0.05
 74
0
  0
LTYPE
  5
1F8
100
AcDbSymbolTableRecord
100
AcDbLinetypeTableRecord
  2
DOT
 70
64
  3
. . . . . . . . . . . . . . . . . . . .
 72
65
 73
2
 40
0.2
 49
0.1
 74
0
 49
-0.1
 74
0
  0
LTYPE
  5
1F9
100
AcDbSymbolTableRecord
100
AcDbLinetypeTableRecord
  2
DASHED
 70
64
  3
- - - - - - - - - - - - - - - - - - - -
 72
65
 73
2
 40
0.2
 49
0.1
 74
0
 49
-0.1
 74
0
  0
ENDTAB
  0
TABLE
  2
LAYER
  5
2
100
AcDbSymbolTable
 70
36
  0
LAYER
  5
10
100
AcDbSymbolTableRecord
100
AcDbLayerTableRecord
  2
0
 70
0
 62
7
  6
CONTINUOUS
370
-3
390
F
  0
LAYER
  5
1FA
100
AcDbSymbolTableRecord
100
AcDbLayerTableRecord
  2
DEFAULT_1
 70
0
 62
7
  6
CENTER
370
-3
390
F
  0
LAYER
  5
1FB
100
AcDbSymbolTableRecord
100
AcDbLayerTableRecord
  2
DEFAULT_2
 70
0
 62
8
  6
HIDDEN
370
-3
390
F
  0
LAYER
  5
1FC
100
AcDbSymbolTableRecord
100
AcDbLayerTableRecord
  2
DEFAULT_3
 70
0
 62
7
  6
PHANTOM
370
-3
390
F
  0
LAYER
  5
1FD
100
AcDbSymbolTableRecord
100
AcDbLayerTableRecord
  2
ALL_FEATURES
 70
0
 62
7
  6
CONTINUOUS
370
-3
390
F
  0
LAYER
  5
1FE
100
AcDbSymbolTableRecord
100
AcDbLayerTableRecord
  2
AXES_FEATURES
 70
0
 62
7
  6
CONTINUOUS
370
-3
390
F
  0
LAYER
  5
1FF
100
AcDbSymbolTableRecord
100
AcDbLayerTableRecord
  2
DEFAULT_COORDINATE_SYSTEM
 70
0
 62
7
  6
CONTINUOUS
370
-3
390
F
  0
LAYER
  5
200
100
AcDbSymbolTableRecord
100
AcDbLayerTableRecord
  2
DEFAULT_DATUM_AXES
 70
0
 62
7
  6
CONTINUOUS
370
-3
390
F
  0
LAYER
  5
201
100
AcDbSymbolTableRecord
100
AcDbLayerTableRecord
  2
DEFAULT_DATUM_PLANES
 70
0
 62
7
  6
CONTINUOUS
370
-3
390
F
  0
LAYER
  5
202
100
AcDbSymbolTableRecord
100
AcDbLayerTableRecord
  2
DIMENSIONS
 70
0
 62
7
  6
CONTINUOUS
370
-3
390
F
  0
ENDTAB
  0
TABLE
  2
STYLE
  5
3
100
AcDbSymbolTable
 70
1
  0
STYLE
  5
11
100
AcDbSymbolTableRecord
100
AcDbTextStyleTableRecord
  2
STANDARD
 70
0
 40
0.0
 41
0.8
 50
0.0
 71
0
 42
0.2
  3
txt
  4

  0
STYLE
  5
203
100
AcDbSymbolTableRecord
100
AcDbTextStyleTableRecord
  2
TEXTSTYLE_1
 70
0
 40
0.0
 41
0.8
 50
0.0
 71
0
 42
0.2
  3
gdt
  4

  0
ENDTAB
  0
TABLE
  2
VIEW
  5
6
100
AcDbSymbolTable
 70
0
  0
ENDTAB
  0
TABLE
  2
UCS
  5
7
100
AcDbSymbolTable
 70
0
  0
ENDTAB
  0
TABLE
  2
APPID
  5
9
100
AcDbSymbolTable
 70
1
  0
APPID
  5
204
100
AcDbSymbolTableRecord
100
AcDbRegAppTableRecord
  2
ACAD
 70
0
  0
ENDTAB
  0
TABLE
  2
BLOCK_RECORD
  5
1
100
AcDbSymbolTable
 70
0
  0
BLOCK_RECORD
  5
205
100
AcDbSymbolTableRecord
100
AcDbBlockTableRecord
  2
*Model_Space
  0
BLOCK_RECORD
  5
206
100
AcDbSymbolTableRecord
100
AcDbBlockTableRecord
  2
*Paper_Space
  0
BLOCK_RECORD
  5
207
100
AcDbSymbolTableRecord
100
AcDbBlockTableRecord
  2
_FILLED
  0
ENDTAB
  0
TABLE
  2
DIMSTYLE
  5
A
100
AcDbSymbolTable
 70
1
100
AcDbDimStyleTable
 71
0
  0
DIMSTYLE
105
208
100
AcDbSymbolTableRecord
100
AcDbDimStyleTableRecord
  2
STANDARD
 70
0
  3

  4

 40
1.0
 41
0.1
 42
0.0625
 43
0.38
 44
0.125
 45
0.0
 46
0.0
 47
0.001
 48
0.001
140
0.08
141
0.09
142
0.0
143
25.4
144
1.0
145
0.0
146
1.0
147
0.09
 71
1.0
 72
0.0
 73
1
 74
1
 75
0
 76
0
 77
0
 78
4
 79
1
170
1
171
2
172
0
173
0
174
0
175
0
176
0
177
0
178
0
270
2
179
3
271
3
272
3
273
2
274
2
275
0
280
0
281
0
282
0
283
1
284
4
285
0
286
0
287
3
288
0
340
11
278
46
341
207
342
207
343
207
344
207
  0
ENDTAB
  0
ENDSEC
  0
SECTION
  2
BLOCKS
  0
BLOCK
  5
20
100
AcDbEntity
  8
0
100
AcDbBlockBegin
  2
*Model_Space
 70
0
 10
0.0
 20
0.0
 30
0.0
  3
*Model_Space
  1

  0
ENDBLK
  5
21
100
AcDbEntity
  8
0
100
AcDbBlockEnd
  0
BLOCK
  5
1C
100
AcDbEntity
  8
0
100
AcDbBlockBegin
  2
*Paper_Space
 70
0
 10
0.0
 20
0.0
 30
0.0
  3
*Paper_Space
  1

  0
ENDBLK
  5
1D
100
AcDbEntity
  8
0
100
AcDbBlockEnd
  0
BLOCK
  5
209
100
AcDbEntity
  8
0
100
AcDbBlockBegin
  2
_FILLED
 70
64
 10
0.0
 20
0.0
  3
_FILLED
  1

  0
SOLID
  5
20A
100
AcDbEntity
  8
0
  6
BYBLOCK
 62
0
100
AcDbTrace
 10
0.0
 20
0.0
 11
-1.0
 21
0.2
 12
-1.0
 22
-0.2
 13
-1.0
 23
-0.2
  0
ENDBLK
  5
20B
100
AcDbEntity
  8
0
  6
BYBLOCK
 62
0
100
AcDbBlockEnd
  0
ENDSEC
  0
SECTION
  2
ENTITIES
  0
LINE
  5
20C
100
AcDbEntity
  8
0
100
AcDbLine
 62
7
  6
CONTINUOUS
 10
8.4273183383
 20
9.9252663261
 11
8.4273183383
 21
9.0052664415
  0
LINE
  5
20D
100
AcDbEntity
  8
0
100
AcDbLine
 62
7
  6
CONTINUOUS
 10
8.5273183383
 20
9.9252663261
 11
8.5273183383
 21
9.670714909
  0
LINE
  5
20E
100
AcDbEntity
  8
0
100
AcDbLine
 62
7
  6
CONTINUOUS
 10
8.5273183383
 20
9.2598177432
 11
8.5273183383
 21
9.0052664415
  0
LINE
  5
20F
100
AcDbEntity
  8
0
100
AcDbLine
 62
9
  6
CONTINUOUS
 10
9.262717258
 20
9.0152663261
 11
9.262717258
 21
9.9152663261
  0
LINE
  5
210
100
AcDbEntity
  8
0
100
AcDbLine
 62
9
  6
CONTINUOUS
 10
9.3072418298
 20
8.9880163261
 11
9.3072418298
 21
9.9425163261
  0
LINE
  5
211
100
AcDbEntity
  8
0
100
AcDbLine
 62
9
  6
CONTINUOUS
 10
9.3539927785
 20
8.9608159182
 11
9.3539927785
 21
9.969716734
  0
LINE
  5
212
100
AcDbEntity
  8
0
100
AcDbLine
 62
9
  6
CONTINUOUS
 10
9.77460674
 20
8.8773003454
 11
9.77460674
 21
10.0532323068
  0
LINE
  5
213
100
AcDbEntity
  8
0
100
AcDbLine
 62
9
  6
CONTINUOUS
 10
9.8063183383
 20
8.8702663261
 11
9.8063183383
 21
10.0602663261
  0
LINE
  5
214
100
AcDbEntity
  8
0
100
AcDbLine
 62
7
  6
CONTINUOUS
 10
9.8973183383
 20
8.8702663261
 11
9.8973183383
 21
10.0602663261
  0
LINE
  5
215
100
AcDbEntity
  8
0
100
AcDbLine
 62
9
  6
CONTINUOUS
 10
11.6700652844
 20
10.3259843448
 11
11.660700559
 21
10.3130410652
  0
LINE
  5
216
100
AcDbEntity
  8
0
100
AcDbLine
 62
9
  6
CONTINUOUS
 10
10.4245713922
 20
8.6045483074
 11
10.4339361175
 21
8.617491587
  0
LINE
  5
217
100
AcDbEntity
  8
0
100
AcDbLine
 62
9
  6
CONTINUOUS
 10
11.5954347628
 20
10.2019228826
 11
11.5965086908
 21
10.2033652061
  0
LINE
  5
218
100
AcDbEntity
  8
0
100
AcDbLine
 62
9
  6
CONTINUOUS
 10
10.4992016101
 20
8.7286093617
 11
10.4981279858
 21
8.7271674461
  0
LINE
  5
219
100
AcDbEntity
  8
0
100
AcDbLine
 62
9
  6
CONTINUOUS
 10
11.343895056
 20
5.0252558866
 11
11.3438932107
 21
5.0252587938
  0
LINE
  5
21A
100
AcDbEntity
  8
0
100
AcDbLine
 62
9
  6
CONTINUOUS
 10
10.683413101
 20
8.6222548142
 11
10.6827009221
 21
8.6206041807
  0
LINE
  5
21B
100
AcDbEntity
  8
0
100
AcDbLine
 62
9
  6
CONTINUOUS
 10
11.4112235755
 20
10.308277838
 11
11.4119357545
 21
10.3099284715
  0
LINE
  5
21C
100
AcDbEntity
  8
0
100
AcDbLine
 62
9
  6
CONTINUOUS
 10
11.4813490442
 20
10.434939783
 11
11.4748221903
 21
10.4203580566
  0
LINE
  5
21D
100
AcDbEntity
  8
0
100
AcDbLine
 62
9
  6
CONTINUOUS
 10
10.6132876324
 20
8.4955928692
 11
10.6198144863
 21
8.5101745957
  0
LINE
  5
21E
100
AcDbEntity
  8
0
100
AcDbLine
 62
7
  6
CONTINUOUS
 10
10.7973183383
 20
9.4652663261
 11
10.7973183383
 21
4.8718044333
  0
LINE
  5
21F
100
AcDbEntity
  8
0
100
AcDbLine
 62
7
  6
CONTINUOUS
 10
11.2973183383
 20
9.4652663261
 11
11.2973183383
 21
4.8718044333
  0
LINE
  5
220
100
AcDbEntity
  8
0
100
AcDbLine
 62
9
  6
CONTINUOUS
 10
10.6132881416
 20
10.4349400109
 11
10.6198149879
 21
10.4203582811
  0
LINE
  5
221
100
AcDbEntity
  8
0
100
AcDbLine
 62
9
  6
CONTINUOUS
 10
11.4813485349
 20
8.4955926413
 11
11.4748216887
 21
8.5101743711
  0
LINE
  5
222
100
AcDbEntity
  8
0
100
AcDbLine
 62
9
  6
CONTINUOUS
 10
10.6834130573
 20
10.3082778192
 11
10.6827011339
 21
10.3099285629
  0
LINE
  5
223
100
AcDbEntity
  8
0
100
AcDbLine
 62
9
  6
CONTINUOUS
 10
11.4112236193
 20
8.622254833
 11
11.4119355426
 21
8.6206040893
  0
LINE
  5
224
100
AcDbEntity
  8
0
100
AcDbLine
 62
9
  6
CONTINUOUS
 10
10.7507434659
 20
5.0252587938
 11
10.7507415536
 21
5.025255781
  0
LINE
  5
225
100
AcDbEntity
  8
0
100
AcDbLine
 62
7
  6
CONTINUOUS
 10
12.1973183383
 20
8.8702662111
 11
12.1973183383
 21
10.0602664411
  0
LINE
  5
226
100
AcDbEntity
  8
0
100
AcDbLine
 62
9
  6
CONTINUOUS
 10
12.2883183383
 20
8.8702663261
 11
12.2883183383
 21
10.0602663261
  0
LINE
  5
227
100
AcDbEntity
  8
0
100
AcDbLine
 62
9
  6
CONTINUOUS
 10
12.3200299365
 20
8.8773003454
 11
12.3200299365
 21
10.0532323068
  0
LINE
  5
228
100
AcDbEntity
  8
0
100
AcDbLine
 62
9
  6
CONTINUOUS
 10
11.5954351047
 20
8.7286093901
 11
11.5965085057
 21
8.7271673083
  0
LINE
  5
229
100
AcDbEntity
  8
0
100
AcDbLine
 62
9
  6
CONTINUOUS
 10
10.4992015719
 20
10.2019232621
 11
10.4981281709
 21
10.2033653439
  0
LINE
  5
22A
100
AcDbEntity
  8
0
100
AcDbLine
 62
9
  6
CONTINUOUS
 10
10.4245718442
 20
10.3259846719
 11
10.4339365628
 21
10.3130413874
  0
LINE
  5
22B
100
AcDbEntity
  8
0
100
AcDbLine
 62
9
  6
CONTINUOUS
 10
11.6700648324
 20
8.6045479803
 11
11.6607001138
 21
8.6174912649
  0
LINE
  5
22C
100
AcDbEntity
  8
0
100
AcDbLine
 62
7
  6
CONTINUOUS
 10
12.2883183383
 20
8.8702663261
 11
12.1973183383
 21
8.8702663261
  0
LINE
  5
22D
100
AcDbEntity
  8
0
100
AcDbLine
 62
7
  6
CONTINUOUS
 10
9.8063183383
 20
8.8702663261
 11
9.8973183383
 21
8.8702663261
  0
LINE
  5
22E
100
AcDbEntity
  8
0
100
AcDbLine
 62
7
  6
CONTINUOUS
 10
12.1973183383
 20
8.9802663261
 11
11.8228947753
 21
8.9802663261
  0
LINE
  5
22F
100
AcDbEntity
  8
0
100
AcDbLine
 62
7
  6
CONTINUOUS
 10
9.8973183383
 20
8.9802663261
 11
10.2717419013
 21
8.9802663261
  0
LINE
  5
230
100
AcDbEntity
  8
0
100
AcDbLine
 62
7
  6
CONTINUOUS
 10
13.5673183383
 20
9.0152663261
 11
12.8319194186
 21
9.0152663261
  0
LINE
  5
231
100
AcDbEntity
  8
0
100
AcDbLine
 62
7
  6
CONTINUOUS
 10
8.5273183383
 20
9.0152663261
 11
9.262717258
 21
9.0152663261
  0
LINE
  5
232
100
AcDbEntity
  8
0
100
AcDbLine
 62
9
  6
CONTINUOUS
 10
12.7406438981
 20
8.9608159182
 11
12.7406438981
 21
9.969716734
  0
LINE
  5
233
100
AcDbEntity
  8
0
100
AcDbLine
 62
9
  6
CONTINUOUS
 10
12.7873948467
 20
8.9880163261
 11
12.7873948467
 21
9.9425163261
  0
LINE
  5
234
100
AcDbEntity
  8
0
100
AcDbLine
 62
9
  6
CONTINUOUS
 10
12.8319194186
 20
9.0152663261
 11
12.8319194186
 21
9.9152663261
  0
LINE
  5
235
100
AcDbEntity
  8
0
100
AcDbLine
 62
7
  6
CONTINUOUS
 10
13.5673183383
 20
9.9152663261
 11
12.8319194186
 21
9.9152663261
  0
LINE
  5
236
100
AcDbEntity
  8
0
100
AcDbLine
 62
7
  6
CONTINUOUS
 10
8.5273183383
 20
9.9152663261
 11
9.262717258
 21
9.9152663261
  0
LINE
  5
237
100
AcDbEntity
  8
0
100
AcDbLine
 62
7
  6
CONTINUOUS
 10
13.5673183383
 20
9.2598177432
 11
13.5673183383
 21
9.0052663261
  0
LINE
  5
238
100
AcDbEntity
  8
0
100
AcDbLine
 62
7
  6
CONTINUOUS
 10
13.5673183383
 20
9.670714909
 11
13.5673183383
 21
9.9252663261
  0
LINE
  5
239
100
AcDbEntity
  8
0
100
AcDbLine
 62
7
  6
CONTINUOUS
 10
13.6673183383
 20
9.0052663261
 11
13.6673183383
 21
9.9252663261
  0
LINE
  5
23A
100
AcDbEntity
  8
0
100
AcDbLine
 62
7
  6
CONTINUOUS
 10
12.1973183383
 20
9.9502663261
 11
11.8228947753
 21
9.9502663261
  0
LINE
  5
23B
100
AcDbEntity
  8
0
100
AcDbLine
 62
7
  6
CONTINUOUS
 10
9.8973183383
 20
9.9502663261
 11
10.2717419013
 21
9.9502663261
  0
LINE
  5
23C
100
AcDbEntity
  8
0
100
AcDbLine
 62
7
  6
CONTINUOUS
 10
12.2883183383
 20
10.0602663261
 11
12.1973183383
 21
10.0602663261
  0
LINE
  5
23D
100
AcDbEntity
  8
0
100
AcDbLine
 62
7
  6
CONTINUOUS
 10
9.8063183383
 20
10.0602663261
 11
9.8973183383
 21
10.0602663261
  0
ARC
  5
23E
100
AcDbEntity
  8
0
100
AcDbCircle
 62
7
  6
CONTINUOUS
 10
11.0292733125
 20
4.848191925
 40
0.3300496308
100
AcDbArc
 50
134.6753963111
 51
147.5550819146
  0
ARC
  5
23F
100
AcDbEntity
  8
0
100
AcDbCircle
 62
7
  6
CONTINUOUS
 10
11.026810815
 20
4.8500217785
 40
0.3269880459
100
AcDbArc
 50
147.5948061359
 51
149.8225824663
  0
ARC
  5
240
100
AcDbEntity
  8
0
100
AcDbCircle
 62
9
  6
CONTINUOUS
 10
11.0210330533
 20
4.8536946705
 40
0.3201416942
100
AcDbArc
 50
147.5956315362
 51
149.871403028
  0
ARC
  5
241
100
AcDbEntity
  8
0
100
AcDbCircle
 62
9
  6
CONTINUOUS
 10
11.0198096716
 20
4.8544166939
 40
0.3187211761
100
AcDbArc
 50
149.8732746764
 51
150.1803162877
  0
ARC
  5
242
100
AcDbEntity
  8
0
100
AcDbCircle
 62
9
  6
CONTINUOUS
 10
11.0196124103
 20
4.8545298866
 40
0.3184937457
100
AcDbArc
 50
150.1803365835
 51
150.3298073647
  0
ARC
  5
243
100
AcDbEntity
  8
0
100
AcDbCircle
 62
9
  6
CONTINUOUS
 10
11.0189569565
 20
4.8545542782
 40
0.3179201326
100
AcDbArc
 50
150.0917920784
 51
152.8356836719
  0
ARC
  5
244
100
AcDbEntity
  8
0
100
AcDbCircle
 62
9
  6
CONTINUOUS
 10
11.0188476461
 20
4.8549612553
 40
0.31761572
100
AcDbArc
 50
150.3291305561
 51
152.9434768833
  0
ARC
  5
245
100
AcDbEntity
  8
0
100
AcDbCircle
 62
9
  6
CONTINUOUS
 10
11.0173095867
 20
4.8554126411
 40
0.3160625861
100
AcDbArc
 50
152.8377846396
 51
154.3206499283
  0
ARC
  5
246
100
AcDbEntity
  8
0
100
AcDbCircle
 62
7
  6
CONTINUOUS
 10
11.0140719015
 20
4.8550131679
 40
0.3131809434
100
AcDbArc
 50
179.3211741044
 51
179.999967303
  0
ARC
  5
247
100
AcDbEntity
  8
0
100
AcDbCircle
 62
7
  6
CONTINUOUS
 10
9.3940675611
 20
8.0617085766
 40
0.9
100
AcDbArc
 50
64.9871628475
 51
92.5520837091
  0
ARC
  5
248
100
AcDbEntity
  8
0
100
AcDbCircle
 62
7
  6
CONTINUOUS
 10
9.3940675611
 20
10.8688240756
 40
0.9
100
AcDbArc
 50
267.4479162909
 51
295.0128371525
  0
CIRCLE
  5
249
100
AcDbEntity
  8
0
100
AcDbCircle
 62
7
  6
CONTINUOUS
 10
8.8558183383
 20
9.4652663261
 40
0.3875
  0
CIRCLE
  5
24A
100
AcDbEntity
  8
0
100
AcDbCircle
 62
9
  6
CONTINUOUS
 10
8.8558183383
 20
9.4652663261
 40
0.1875
  0
ARC
  5
24B
100
AcDbEntity
  8
0
100
AcDbCircle
 62
7
  6
CONTINUOUS
 10
9.8063183383
 20
8.9452663261
 40
0.075
100
AcDbArc
 50
244.9871628475
 51
270.0
  0
ARC
  5
24C
100
AcDbEntity
  8
0
100
AcDbCircle
 62
7
  6
CONTINUOUS
 10
9.8063183383
 20
9.9852663261
 40
0.075
100
AcDbArc
 50
90.0
 51
115.0128371525
  0
ARC
  5
24D
100
AcDbEntity
  8
0
100
AcDbCircle
 62
7
  6
CONTINUOUS
 10
9.262717258
 20
8.9652663261
 40
0.05
100
AcDbArc
 50
27.0649342288
 51
90.0
  0
ARC
  5
24E
100
AcDbEntity
  8
0
100
AcDbCircle
 62
7
  6
CONTINUOUS
 10
9.262717258
 20
9.9652663261
 40
0.05
100
AcDbArc
 50
270.0
 51
332.9350657712
  0
ARC
  5
24F
100
AcDbEntity
  8
0
100
AcDbCircle
 62
7
  6
CONTINUOUS
 10
9.3517664017
 20
9.0107663261
 40
0.05
100
AcDbArc
 50
207.0649342288
 51
272.5520837091
  0
ARC
  5
250
100
AcDbEntity
  8
0
100
AcDbCircle
 62
7
  6
CONTINUOUS
 10
9.3517664017
 20
9.9197663261
 40
0.05
100
AcDbArc
 50
87.4479162909
 51
152.9350657712
  0
ARC
  5
251
100
AcDbEntity
  8
0
100
AcDbCircle
 62
7
  6
CONTINUOUS
 10
8.4773183383
 20
9.0052663261
 40
0.05
100
AcDbArc
 50
180.0
 51
360.0
  0
ARC
  5
252
100
AcDbEntity
  8
0
100
AcDbCircle
 62
7
  6
CONTINUOUS
 10
8.4773183383
 20
9.9252663261
 40
0.05
100
AcDbArc
 50
0.0
 51
180.0
  0
ARC
  5
253
100
AcDbEntity
  8
0
100
AcDbCircle
 62
7
  6
CONTINUOUS
 10
11.0653633046
 20
4.8481918804
 40
0.3300497051
100
AcDbArc
 50
32.4449190661
 51
45.3247518241
  0
ARC
  5
254
100
AcDbEntity
  8
0
100
AcDbCircle
 62
7
  6
CONTINUOUS
 10
11.0675751437
 20
4.8498693915
 40
0.3272813866
100
AcDbArc
 50
30.1784053305
 51
32.4042173872
  0
ARC
  5
255
100
AcDbEntity
  8
0
100
AcDbCircle
 62
9
  6
CONTINUOUS
 10
11.0739037711
 20
4.853876923
 40
0.3197906159
100
AcDbArc
 50
30.1273366755
 51
32.4056402379
  0
ARC
  5
256
100
AcDbEntity
  8
0
100
AcDbCircle
 62
9
  6
CONTINUOUS
 10
11.0748256018
 20
4.8544158829
 40
0.3187227968
100
AcDbArc
 50
29.8228989668
 51
30.1267138785
  0
ARC
  5
257
100
AcDbEntity
  8
0
100
AcDbCircle
 62
9
  6
CONTINUOUS
 10
11.0750246343
 20
4.8545300986
 40
0.318493321
100
AcDbArc
 50
29.6651833518
 51
29.822879753
  0
ARC
  5
258
100
AcDbEntity
  8
0
100
AcDbCircle
 62
9
  6
CONTINUOUS
 10
11.0760010605
 20
4.8547290212
 40
0.317554457
100
AcDbArc
 50
27.1499804411
 51
29.9065193433
  0
ARC
  5
259
100
AcDbEntity
  8
0
100
AcDbCircle
 62
9
  6
CONTINUOUS
 10
11.076100774
 20
4.8551295558
 40
0.3172615388
100
AcDbArc
 50
27.0423087659
 51
29.6673011642
  0
ARC
  5
25A
100
AcDbEntity
  8
0
100
AcDbCircle
 62
9
  6
CONTINUOUS
 10
11.0775324758
 20
4.8555146569
 40
0.3158332783
100
AcDbArc
 50
25.6673501348
 51
27.149934521
  0
ARC
  5
25B
100
AcDbEntity
  8
0
100
AcDbCircle
 62
7
  6
CONTINUOUS
 10
11.0805647772
 20
4.8550131679
 40
0.3131809414
100
AcDbArc
 50
0.0000327017
 51
0.6788252559
  0
ARC
  5
25C
100
AcDbEntity
  8
0
100
AcDbCircle
 62
7
  6
CONTINUOUS
 10
12.2883183383
 20
8.9452663261
 40
0.075
100
AcDbArc
 50
270.0
 51
295.0128371525
  0
ARC
  5
25D
100
AcDbEntity
  8
0
100
AcDbCircle
 62
7
  6
CONTINUOUS
 10
11.0473183383
 20
9.4652663261
 40
1.0625
100
AcDbArc
 50
207.1739149038
 51
256.3865909824
  0
ARC
  5
25E
100
AcDbEntity
  8
0
100
AcDbCircle
 62
7
  6
CONTINUOUS
 10
11.0473183383
 20
9.4652663261
 40
1.0625
100
AcDbArc
 50
283.6134090176
 51
332.8260850964
  0
ARC
  5
25F
100
AcDbEntity
  8
0
100
AcDbCircle
 62
7
  6
CONTINUOUS
 10
11.0473183383
 20
9.4652663261
 40
1.0625
100
AcDbArc
 50
27.1739149038
 51
152.8260850964
  0
ARC
  5
260
100
AcDbEntity
  8
0
100
AcDbCircle
 62
9
  6
CONTINUOUS
 10
11.0473183383
 20
9.4652663261
 40
1.0623790598
100
AcDbArc
 50
305.8864710881
 51
332.829062649
  0
ARC
  5
261
100
AcDbEntity
  8
0
100
AcDbCircle
 62
9
  6
CONTINUOUS
 10
11.0473183383
 20
9.4652663261
 40
1.0623790598
100
AcDbArc
 50
207.1709376546
 51
234.1134988218
  0
ARC
  5
262
100
AcDbEntity
  8
0
100
AcDbCircle
 62
9
  6
CONTINUOUS
 10
11.0473183383
 20
9.4652663261
 40
1.0623790598
100
AcDbArc
 50
283.6116128175
 51
294.1134988218
  0
ARC
  5
263
100
AcDbEntity
  8
0
100
AcDbCircle
 62
9
  6
CONTINUOUS
 10
11.0473183383
 20
9.4652663261
 40
1.0623790598
100
AcDbArc
 50
245.8864710881
 51
256.388386999
  0
ARC
  5
264
100
AcDbEntity
  8
0
100
AcDbCircle
 62
9
  6
CONTINUOUS
 10
11.0473183383
 20
9.4652663261
 40
1.0623790598
100
AcDbArc
 50
125.8864710881
 51
152.829062649
  0
ARC
  5
265
100
AcDbEntity
  8
0
100
AcDbCircle
 62
9
  6
CONTINUOUS
 10
11.0473183383
 20
9.4652663261
 40
1.0623790598
100
AcDbArc
 50
27.1709376546
 51
54.1134988217
  0
ARC
  5
266
100
AcDbEntity
  8
0
100
AcDbCircle
 62
9
  6
CONTINUOUS
 10
11.0473183383
 20
9.4652663261
 40
1.0623790598
100
AcDbArc
 50
65.8864710881
 51
114.1134988218
  0
ARC
  5
267
100
AcDbEntity
  8
0
100
AcDbCircle
 62
9
  6
CONTINUOUS
 10
11.0473183383
 20
9.4652663261
 40
1.0535114108
100
AcDbArc
 50
237.3941839247
 51
242.6058178617
  0
ARC
  5
268
100
AcDbEntity
  8
0
100
AcDbCircle
 62
9
  6
CONTINUOUS
 10
11.0473183383
 20
9.4652663261
 40
1.0535114108
100
AcDbArc
 50
117.3941839241
 51
122.6058178581
  0
ARC
  5
269
100
AcDbEntity
  8
0
100
AcDbCircle
 62
9
  6
CONTINUOUS
 10
11.0473183383
 20
9.4652663261
 40
1.0535114108
100
AcDbArc
 50
57.3941839189
 51
62.6058178657
  0
ARC
  5
26A
100
AcDbEntity
  8
0
100
AcDbCircle
 62
9
  6
CONTINUOUS
 10
11.0473183383
 20
9.4652663261
 40
1.0535114108
100
AcDbArc
 50
297.3941839241
 51
302.605817858
  0
ARC
  5
26B
100
AcDbEntity
  8
0
100
AcDbCircle
 62
9
  6
CONTINUOUS
 10
11.0473183383
 20
9.4652663261
 40
1.0464032478
100
AcDbArc
 50
125.8864710673
 51
152.3755916008
  0
ARC
  5
26C
100
AcDbEntity
  8
0
100
AcDbCircle
 62
9
  6
CONTINUOUS
 10
11.0473183383
 20
9.4652663261
 40
1.0464032478
100
AcDbArc
 50
207.6244084964
 51
234.1134988413
  0
ARC
  5
26D
100
AcDbEntity
  8
0
100
AcDbCircle
 62
9
  6
CONTINUOUS
 10
11.0473183383
 20
9.4652663261
 40
1.0464032478
100
AcDbArc
 50
283.822624928
 51
294.1134988413
  0
ARC
  5
26E
100
AcDbEntity
  8
0
100
AcDbCircle
 62
9
  6
CONTINUOUS
 10
11.0473183383
 20
9.4652663261
 40
1.0464032478
100
AcDbArc
 50
245.8864710673
 51
256.177375245
  0
ARC
  5
26F
100
AcDbEntity
  8
0
100
AcDbCircle
 62
9
  6
CONTINUOUS
 10
11.0473183383
 20
9.4652663261
 40
1.0464032478
100
AcDbArc
 50
305.8864710673
 51
332.3755916008
  0
ARC
  5
270
100
AcDbEntity
  8
0
100
AcDbCircle
 62
9
  6
CONTINUOUS
 10
11.0473183383
 20
9.4652663261
 40
1.0464032478
100
AcDbArc
 50
27.6244084964
 51
54.1134988413
  0
ARC
  5
271
100
AcDbEntity
  8
0
100
AcDbCircle
 62
9
  6
CONTINUOUS
 10
11.0473183383
 20
9.4652663261
 40
1.0464032478
100
AcDbArc
 50
65.8864710673
 51
114.1134988413
  0
ARC
  5
272
100
AcDbEntity
  8
0
100
AcDbCircle
 62
9
  6
CONTINUOUS
 10
11.0473183383
 20
9.4652663261
 40
1.0252928585
100
AcDbArc
 50
128.6758571655
 51
151.753584753
  0
ARC
  5
273
100
AcDbEntity
  8
0
100
AcDbCircle
 62
9
  6
CONTINUOUS
 10
11.0473183383
 20
9.4652663261
 40
1.0252928585
100
AcDbArc
 50
208.2464183135
 51
231.3255392059
  0
ARC
  5
274
100
AcDbEntity
  8
0
100
AcDbCircle
 62
9
  6
CONTINUOUS
 10
11.0473183383
 20
9.4652663261
 40
1.0252928585
100
AcDbArc
 50
284.1138431078
 51
291.3255392059
  0
ARC
  5
275
100
AcDbEntity
  8
0
100
AcDbCircle
 62
9
  6
CONTINUOUS
 10
11.0473183383
 20
9.4652663261
 40
1.0252928585
100
AcDbArc
 50
248.6758571655
 51
255.8861636656
  0
ARC
  5
276
100
AcDbEntity
  8
0
100
AcDbCircle
 62
9
  6
CONTINUOUS
 10
11.0473183383
 20
9.4652663261
 40
1.0252928585
100
AcDbArc
 50
308.6758571655
 51
331.753584753
  0
ARC
  5
277
100
AcDbEntity
  8
0
100
AcDbCircle
 62
9
  6
CONTINUOUS
 10
11.0473183383
 20
9.4652663261
 40
1.0252928585
100
AcDbArc
 50
28.2464183135
 51
51.3255392059
  0
ARC
  5
278
100
AcDbEntity
  8
0
100
AcDbCircle
 62
9
  6
CONTINUOUS
 10
11.0473183383
 20
9.4652663261
 40
1.0252928585
100
AcDbArc
 50
68.6758571655
 51
111.3255392059
  0
ARC
  5
279
100
AcDbEntity
  8
0
100
AcDbCircle
 62
9
  6
CONTINUOUS
 10
11.0473183383
 20
9.4652663261
 40
0.9809107268
100
AcDbArc
 50
128.6750073097
 51
150.3617046916
  0
ARC
  5
27A
100
AcDbEntity
  8
0
100
AcDbCircle
 62
9
  6
CONTINUOUS
 10
11.0473183383
 20
9.4652663261
 40
0.9809107268
100
AcDbArc
 50
209.6382952394
 51
231.3249926831
  0
ARC
  5
27B
100
AcDbEntity
  8
0
100
AcDbCircle
 62
9
  6
CONTINUOUS
 10
11.0473183383
 20
9.4652663261
 40
0.9809107268
100
AcDbArc
 50
284.7696208862
 51
291.3249926831
  0
ARC
  5
27C
100
AcDbEntity
  8
0
100
AcDbCircle
 62
9
  6
CONTINUOUS
 10
11.0473183383
 20
9.4652663261
 40
0.9809107268
100
AcDbArc
 50
248.6750073097
 51
255.2303790874
  0
ARC
  5
27D
100
AcDbEntity
  8
0
100
AcDbCircle
 62
9
  6
CONTINUOUS
 10
11.0473183383
 20
9.4652663261
 40
0.9809107268
100
AcDbArc
 50
308.6750073097
 51
330.3617046916
  0
ARC
  5
27E
100
AcDbEntity
  8
0
100
AcDbCircle
 62
9
  6
CONTINUOUS
 10
11.0473183383
 20
9.4652663261
 40
0.9809107268
100
AcDbArc
 50
29.6382952394
 51
51.3249926831
  0
ARC
  5
27F
100
AcDbEntity
  8
0
100
AcDbCircle
 62
9
  6
CONTINUOUS
 10
11.0473183383
 20
9.4652663261
 40
0.9809107268
100
AcDbArc
 50
68.6750073097
 51
111.3249926831
  0
ARC
  5
280
100
AcDbEntity
  8
0
100
AcDbCircle
 62
9
  6
CONTINUOUS
 10
11.0473183383
 20
9.4652663261
 40
0.9402243258
100
AcDbArc
 50
129.0240565755
 51
148.9329571135
  0
ARC
  5
281
100
AcDbEntity
  8
0
100
AcDbCircle
 62
9
  6
CONTINUOUS
 10
11.0473183383
 20
9.4652663261
 40
0.9402243258
100
AcDbArc
 50
211.0670428865
 51
230.9759434246
  0
ARC
  5
282
100
AcDbEntity
  8
0
100
AcDbCircle
 62
9
  6
CONTINUOUS
 10
11.0473183383
 20
9.4652663261
 40
0.9402243258
100
AcDbArc
 50
285.4273063546
 51
290.9759434246
  0
ARC
  5
283
100
AcDbEntity
  8
0
100
AcDbCircle
 62
9
  6
CONTINUOUS
 10
11.0473183383
 20
9.4652663261
 40
0.9402243258
100
AcDbArc
 50
249.0240565755
 51
254.5726936454
  0
ARC
  5
284
100
AcDbEntity
  8
0
100
AcDbCircle
 62
9
  6
CONTINUOUS
 10
11.0473183383
 20
9.4652663261
 40
0.9402243258
100
AcDbArc
 50
309.0240565755
 51
328.9329571135
  0
ARC
  5
285
100
AcDbEntity
  8
0
100
AcDbCircle
 62
9
  6
CONTINUOUS
 10
11.0473183383
 20
9.4652663261
 40
0.9402243258
100
AcDbArc
 50
31.0670428865
 51
50.9759434246
  0
ARC
  5
286
100
AcDbEntity
  8
0
100
AcDbCircle
 62
9
  6
CONTINUOUS
 10
11.0473183383
 20
9.4652663261
 40
0.9402243258
100
AcDbArc
 50
69.0240565755
 51
110.9759434246
  0
ARC
  5
287
100
AcDbEntity
  8
0
100
AcDbCircle
 62
7
  6
CONTINUOUS
 10
11.0473183383
 20
9.4652663261
 40
0.92
100
AcDbArc
 50
31.8150862012
 51
53.3485319736
  0
ARC
  5
288
100
AcDbEntity
  8
0
100
AcDbCircle
 62
7
  6
CONTINUOUS
 10
11.0473183383
 20
9.4652663261
 40
0.92
100
AcDbArc
 50
66.6514675259
 51
113.3485319736
  0
ARC
  5
289
100
AcDbEntity
  8
0
100
AcDbCircle
 62
7
  6
CONTINUOUS
 10
11.0473183383
 20
9.4652663261
 40
0.92
100
AcDbArc
 50
126.6514675259
 51
148.1849137911
  0
ARC
  5
28A
100
AcDbEntity
  8
0
100
AcDbCircle
 62
7
  6
CONTINUOUS
 10
11.0473183383
 20
9.4652663261
 40
0.92
100
AcDbArc
 50
211.8150862012
 51
233.3485319736
  0
ARC
  5
28B
100
AcDbEntity
  8
0
100
AcDbCircle
 62
7
  6
CONTINUOUS
 10
11.0473183383
 20
9.4652663261
 40
0.92
100
AcDbArc
 50
285.7707047122
 51
293.3485319736
  0
ARC
  5
28C
100
AcDbEntity
  8
0
100
AcDbCircle
 62
7
  6
CONTINUOUS
 10
11.0473183383
 20
9.4652663261
 40
0.92
100
AcDbArc
 50
246.6514675259
 51
254.2292953521
  0
ARC
  5
28D
100
AcDbEntity
  8
0
100
AcDbCircle
 62
7
  6
CONTINUOUS
 10
11.0473183383
 20
9.4652663261
 40
0.92
100
AcDbArc
 50
306.6514675259
 51
328.1849137911
  0
ARC
  5
28E
100
AcDbEntity
  8
0
100
AcDbCircle
 62
9
  6
CONTINUOUS
 10
11.0473183383
 20
9.4652663261
 40
0.9182022822
100
AcDbArc
 50
211.8860897253
 51
233.349291327
  0
ARC
  5
28F
100
AcDbEntity
  8
0
100
AcDbCircle
 62
9
  6
CONTINUOUS
 10
11.0473183383
 20
9.4652663261
 40
0.9182022822
100
AcDbArc
 50
126.6507252596
 51
148.1139099686
  0
ARC
  5
290
100
AcDbEntity
  8
0
100
AcDbCircle
 62
9
  6
CONTINUOUS
 10
11.0473183383
 20
9.4652663261
 40
0.9182022822
100
AcDbArc
 50
66.6507256385
 51
113.3492893406
  0
ARC
  5
291
100
AcDbEntity
  8
0
100
AcDbCircle
 62
9
  6
CONTINUOUS
 10
11.0473183383
 20
9.4652663261
 40
0.9182022822
100
AcDbArc
 50
31.8860902885
 51
53.3485524026
  0
ARC
  5
292
100
AcDbEntity
  8
0
100
AcDbCircle
 62
9
  6
CONTINUOUS
 10
11.0473183383
 20
9.4652663261
 40
0.9182022822
100
AcDbArc
 50
306.6507215395
 51
328.113909974
  0
ARC
  5
293
100
AcDbEntity
  8
0
100
AcDbCircle
 62
9
  6
CONTINUOUS
 10
11.0473183383
 20
9.4652663261
 40
0.9182022822
100
AcDbArc
 50
285.8021839079
 51
293.349291327
  0
ARC
  5
294
100
AcDbEntity
  8
0
100
AcDbCircle
 62
9
  6
CONTINUOUS
 10
11.0473183383
 20
9.4652663261
 40
0.9182022822
100
AcDbArc
 50
246.6507236304
 51
254.1978162474
  0
ARC
  5
295
100
AcDbEntity
  8
0
100
AcDbCircle
 62
7
  6
CONTINUOUS
 10
11.0473183383
 20
9.4652663261
 40
0.915
100
AcDbArc
 50
285.8596466896
 51
254.1403533104
  0
ARC
  5
296
100
AcDbEntity
  8
0
100
AcDbCircle
 62
9
  6
CONTINUOUS
 10
11.0473183383
 20
9.4652663261
 40
0.823
100
AcDbArc
 50
287.6887349667
 51
252.3112650333
  0
ARC
  5
297
100
AcDbEntity
  8
0
100
AcDbCircle
 62
9
  6
CONTINUOUS
 10
11.0473183383
 20
9.4652663261
 40
0.6535581512
100
AcDbArc
 50
292.4935655047
 51
247.5064344953
  0
ARC
  5
298
100
AcDbEntity
  8
0
100
AcDbCircle
 62
9
  6
CONTINUOUS
 10
11.0473183383
 20
9.4652663261
 40
0.633170547
100
AcDbArc
 50
293.2598021213
 51
246.7401978787
  0
ARC
  5
299
100
AcDbEntity
  8
0
100
AcDbCircle
 62
9
  6
CONTINUOUS
 10
11.0473183383
 20
9.4652663261
 40
0.6057037577
100
AcDbArc
 50
294.381816088
 51
245.618183912
  0
ARC
  5
29A
100
AcDbEntity
  8
0
100
AcDbCircle
 62
9
  6
CONTINUOUS
 10
11.0473183383
 20
9.4652663261
 40
0.4967829197
100
AcDbArc
 50
300.2271759843
 51
239.7728240158
  0
ARC
  5
29B
100
AcDbEntity
  8
0
100
AcDbCircle
 62
7
  6
CONTINUOUS
 10
11.0473183383
 20
9.4652663261
 40
0.462
100
AcDbArc
 50
302.7754735381
 51
237.2245264619
  0
ARC
  5
29C
100
AcDbEntity
  8
0
100
AcDbCircle
 62
7
  6
CONTINUOUS
 10
11.0473183383
 20
9.4652663261
 40
0.25
100
AcDbArc
 50
0.0
 51
180.0
  0
ARC
  5
29D
100
AcDbEntity
  8
0
100
AcDbCircle
 62
7
  6
CONTINUOUS
 10
12.2883183383
 20
9.9852663261
 40
0.075
100
AcDbArc
 50
64.9871628475
 51
90.0
  0
ARC
  5
29E
100
AcDbEntity
  8
0
100
AcDbCircle
 62
7
  6
CONTINUOUS
 10
12.7005691154
 20
8.0617085766
 40
0.9
100
AcDbArc
 50
87.4479162909
 51
115.0128371525
  0
ARC
  5
29F
100
AcDbEntity
  8
0
100
AcDbCircle
 62
7
  6
CONTINUOUS
 10
12.8319194186
 20
8.9652663261
 40
0.05
100
AcDbArc
 50
90.0
 51
152.9350657712
  0
ARC
  5
2A0
100
AcDbEntity
  8
0
100
AcDbCircle
 62
7
  6
CONTINUOUS
 10
12.7428702749
 20
9.0107663261
 40
0.05
100
AcDbArc
 50
267.4479162909
 51
332.9350657712
  0
ARC
  5
2A1
100
AcDbEntity
  8
0
100
AcDbCircle
 62
7
  6
CONTINUOUS
 10
13.6173183383
 20
9.0052663261
 40
0.05
100
AcDbArc
 50
180.0
 51
360.0
  0
ARC
  5
2A2
100
AcDbEntity
  8
0
100
AcDbCircle
 62
7
  6
CONTINUOUS
 10
12.7005691154
 20
10.8688240756
 40
0.9
100
AcDbArc
 50
244.9871628475
 51
272.5520837091
  0
CIRCLE
  5
2A3
100
AcDbEntity
  8
0
100
AcDbCircle
 62
7
  6
CONTINUOUS
 10
13.2388183383
 20
9.4652663261
 40
0.3875
  0
CIRCLE
  5
2A4
100
AcDbEntity
  8
0
100
AcDbCircle
 62
9
  6
CONTINUOUS
 10
13.2388183383
 20
9.4652663261
 40
0.1875
  0
ARC
  5
2A5
100
AcDbEntity
  8
0
100
AcDbCircle
 62
7
  6
CONTINUOUS
 10
12.8319194186
 20
9.9652663261
 40
0.05
100
AcDbArc
 50
207.0649342288
 51
270.0
  0
ARC
  5
2A6
100
AcDbEntity
  8
0
100
AcDbCircle
 62
7
  6
CONTINUOUS
 10
12.7428702749
 20
9.9197663261
 40
0.05
100
AcDbArc
 50
27.0649342288
 51
92.5520837091
  0
ARC
  5
2A7
100
AcDbEntity
  8
0
100
AcDbCircle
 62
7
  6
CONTINUOUS
 10
13.6173183383
 20
9.9252663261
 40
0.05
100
AcDbArc
 50
0.0
 51
180.0
  0
SPLINE
  5
2A8
100
AcDbEntity
  8
0
100
AcDbSpline
 62
7
  6
CONTINUOUS
 70
0
 71
3
 72
53
 73
49
 74
0
 42
0.0000001
 43
0.0000001
 44
0.0000000001
 40
0.0
 40
0.0
 40
0.0
 40
0.0
 40
0.0152690718
 40
0.030545097
 40
0.0458313271
 40
0.061130469
 40
0.0764453472
 40
0.091778591
 40
0.1071326788
 40
0.1225099145
 40
0.1379123904
 40
0.1533419812
 40
0.1688003309
 40
0.1842888308
 40
0.1998086013
 40
0.2153604848
 40
0.246553891
 40
0.2778788727
 40
0.3093317304
 40
0.3409042145
 40
0.372583765
 40
0.4043540006
 40
0.4361952582
 40
0.4680853382
 40
0.5000002708
 40
0.5319151986
 40
0.5638052647
 40
0.5956464991
 40
0.6274167039
 40
0.6590962161
 40
0.6906686566
 40
0.7221214663
 40
0.7534463976
 40
0.7846397525
 40
0.8001916108
 40
0.8157113565
 40
0.8311998323
 40
0.8466581588
 40
0.8620877276
 40
0.8774901829
 40
0.8928673995
 40
0.9082214699
 40
0.9235546981
 40
0.9388695629
 40
0.9541686932
 40
0.9694549141
 40
0.9847309325
 40
1.0
 40
1.0
 40
1.0
 40
1.0
 10
11.3616967667
 20
4.7168530962
 30
0.0
 10
11.3613847002
 20
4.7121480508
 30
0.0
 10
11.3605254258
 20
4.7027497114
 30
0.0
 10
11.3585354122
 20
4.6887310942
 30
0.0
 10
11.3558488458
 20
4.6748193351
 30
0.0
 10
11.3524721543
 20
4.6610465555
 30
0.0
 10
11.3484134559
 20
4.6474439656
 30
0.0
 10
11.3436824828
 20
4.6340423849
 30
0.0
 10
11.3382905286
 20
4.6208720339
 30
0.0
 10
11.3322503917
 20
4.6079625024
 30
0.0
 10
11.3255763116
 20
4.5953426752
 30
0.0
 10
11.3182840014
 20
4.5830406404
 30
0.0
 10
11.3103904992
 20
4.5710836177
 30
0.0
 10
11.3019142356
 20
4.559498031
 30
0.0
 10
11.2928744744
 20
4.5483090383
 30
0.0
 10
11.2800877647
 20
4.5339399501
 30
0.0
 10
11.2627920964
 20
4.5170870758
 30
0.0
 10
11.2401698228
 20
4.4988446859
 30
0.0
 10
11.2158566654
 20
4.4827115479
 30
0.0
 10
11.1900703917
 20
4.4688255848
 30
0.0
 10
11.1630388343
 20
4.4573029861
 30
0.0
 10
11.1349995927
 20
4.448240273
 30
0.0
 10
11.1061978882
 20
4.4417127133
 30
0.0
 10
11.0768846557
 20
4.4377746146
 30
0.0
 10
11.0473147202
 20
4.4364584532
 30
0.0
 10
11.0177448177
 20
4.4377752573
 30
0.0
 10
10.9884316838
 20
4.4417139935
 30
0.0
 10
10.9596301421
 20
4.4482421765
 30
0.0
 10
10.9315911269
 20
4.4573054976
 30
0.0
 10
10.9045598549
 20
4.4688286773
 30
0.0
 10
10.8787739258
 20
4.4827151958
 30
0.0
 10
10.8544611647
 20
4.4988488519
 30
0.0
 10
10.8318393394
 20
4.5170917243
 30
0.0
 10
10.8145440818
 20
4.533944964
 30
0.0
 10
10.8017577211
 20
4.5483143209
 30
0.0
 10
10.7927182323
 20
4.5595035043
 30
0.0
 10
10.7842422489
 20
4.5710892684
 30
0.0
 10
10.7763490348
 20
4.5830464557
 30
0.0
 10
10.7690570206
 20
4.5953486424
 30
0.0
 10
10.7623832442
 20
4.6079686086
 30
0.0
 10
10.7563434167
 20
4.6208782654
 30
0.0
 10
10.7509517774
 20
4.6340487279
 30
0.0
 10
10.7462211243
 20
4.6474504063
 30
0.0
 10
10.7421627504
 20
4.66105308
 30
0.0
 10
10.7387863867
 20
4.6748259292
 30
0.0
 10
10.7361001511
 20
4.6887377434
 30
0.0
 10
10.7341104707
 20
4.7027564016
 30
0.0
 10
10.7332514194
 20
4.712154758
 30
0.0
 10
10.7329394648
 20
4.7168598094
 30
0.0
  0
LINE
  5
2A9
100
AcDbEntity
  8
0
100
AcDbLine
 62
7
  6
CONTINUOUS
 10
11.3504982276
 20
5.0143918356
 11
11.3508442051
 21
5.0137953842
  0
LINE
  5
2AA
100
AcDbEntity
  8
0
100
AcDbLine
 62
7
  6
CONTINUOUS
 10
10.7437890818
 20
5.0137895262
 11
10.7441384798
 21
5.0143918886
  0
LINE
  5
2AB
100
AcDbEntity
  8
0
100
AcDbLine
 62
7
  6
CONTINUOUS
 10
11.3504977285
 20
5.01439267
 11
11.3508442164
 21
5.0137953553
  0
LINE
  5
2AC
100
AcDbEntity
  8
0
100
AcDbLine
 62
7
  6
CONTINUOUS
 10
11.3508442164
 20
5.0137953553
 11
11.3510362429
 21
5.0134630531
  0
SPLINE
  5
2AD
100
AcDbEntity
  8
0
100
AcDbSpline
 62
7
  6
CONTINUOUS
 70
0
 71
3
 72
15
 73
11
 74
0
 42
0.0000001
 43
0.0000001
 44
0.0000000001
 40
0.0
 40
0.0
 40
0.0
 40
0.0
 40
0.1256271773
 40
0.2510158686
 40
0.3761923788
 40
0.5011860709
 40
0.6260287074
 40
0.7507545496
 40
0.8753979451
 40
1.0
 40
1.0
 40
1.0
 40
1.0
 10
11.3510362429
 20
5.0134630531
 30
0.0
 10
11.3544252335
 20
5.0075903926
 30
0.0
 10
11.3608308541
 20
4.9956405365
 30
0.0
 10
11.3692813581
 20
4.9771645648
 30
0.0
 10
11.3765323325
 20
4.9582213508
 30
0.0
 10
11.3825540238
 20
4.9388832504
 30
0.0
 10
11.387322159
 20
4.9192234901
 30
0.0
 10
11.3908171983
 20
4.8993168964
 30
0.0
 10
11.393024942
 20
4.879240638
 30
0.0
 10
11.393632452
 20
4.8657910381
 30
0.0
 10
11.3937194868
 20
4.8590665607
 30
0.0
  0
LINE
  5
2AE
100
AcDbEntity
  8
0
100
AcDbLine
 62
7
  6
CONTINUOUS
 10
11.3937194868
 20
4.8590665607
 11
11.3937237384
 21
4.8587235661
  0
LINE
  5
2AF
100
AcDbEntity
  8
0
100
AcDbLine
 62
7
  6
CONTINUOUS
 10
10.7009129383
 20
4.8587235697
 11
10.7009171898
 21
4.859066565
  0
SPLINE
  5
2B0
100
AcDbEntity
  8
0
100
AcDbSpline
 62
7
  6
CONTINUOUS
 70
0
 71
3
 72
15
 73
11
 74
0
 42
0.0000001
 43
0.0000001
 44
0.0000000001
 40
0.0
 40
0.0
 40
0.0
 40
0.0
 40
0.1246020144
 40
0.2492453838
 40
0.3739712116
 40
0.4988138454
 40
0.6238075451
 40
0.7489840725
 40
0.8743727896
 40
1.0
 40
1.0
 40
1.0
 40
1.0
 10
10.7009171898
 20
4.859066565
 30
0.0
 10
10.7010042247
 20
4.8657910403
 30
0.0
 10
10.7016117346
 20
4.8792406366
 30
0.0
 10
10.7038194776
 20
4.8993168907
 30
0.0
 10
10.707314516
 20
4.9192234823
 30
0.0
 10
10.7120826505
 20
4.9388832423
 30
0.0
 10
10.7181043417
 20
4.9582213441
 30
0.0
 10
10.7253553166
 20
4.977164561
 30
0.0
 10
10.7338058225
 20
4.9956405364
 30
0.0
 10
10.740211444
 20
5.0075903957
 30
0.0
 10
10.743600436
 20
5.0134630575
 30
0.0
  0
LINE
  5
2B1
100
AcDbEntity
  8
0
100
AcDbLine
 62
7
  6
CONTINUOUS
 10
10.743600436
 20
5.0134630575
 11
10.743789071
 21
5.0137894984
  0
LINE
  5
2B2
100
AcDbEntity
  8
0
100
AcDbLine
 62
7
  6
CONTINUOUS
 10
10.743789071
 20
5.0137894984
 11
10.744138979
 21
5.0143927234
  0
SPLINE
  5
2B3
100
AcDbEntity
  8
0
100
AcDbSpline
 62
7
  6
CONTINUOUS
 70
0
 71
3
 72
63
 73
59
 74
0
 42
0.0000001
 43
0.0000001
 44
0.0000000001
 40
0.0
 40
0.0
 40
0.0
 40
0.0
 40
0.0153108857
 40
0.0306251001
 40
0.0459449368
 40
0.0612737504
 40
0.0766141876
 40
0.0919690157
 40
0.1073408137
 40
0.1227320201
 40
0.1381448999
 40
0.1535815136
 40
0.1690437003
 40
0.1845330666
 40
0.2000509721
 40
0.2155984949
 40
0.2311764315
 40
0.246785298
 40
0.2624253147
 40
0.278096386
 40
0.2937981194
 40
0.3095298296
 40
0.3252905354
 40
0.341078962
 40
0.3568935605
 40
0.3727325269
 40
0.4044663886
 40
0.4362704458
 40
0.4681229309
 40
0.5000001236
 40
0.5318773139
 40
0.5637297926
 40
0.5955338388
 40
0.6272676858
 40
0.6431066435
 40
0.6589212326
 40
0.6747096492
 40
0.6904703441
 40
0.7062020432
 40
0.721903765
 40
0.7375748244
 40
0.753214829
 40
0.7688236835
 40
0.784401608
 40
0.7999491188
 40
0.8154670128
 40
0.8309563679
 40
0.8464185439
 40
0.8618551474
 40
0.8772680179
 40
0.8926592158
 40
0.9080310063
 40
0.9233858279
 40
0.9387262595
 40
0.9540550687
 40
0.9693749024
 40
0.9846891148
 40
1.0
 40
1.0
 40
1.0
 40
1.0
 10
11.3937457186
 20
4.8550133466
 30
0.0
 10
11.3937457186
 20
4.8495957789
 30
0.0
 10
11.3934644558
 20
4.8387573628
 30
0.0
 10
11.3922000697
 20
4.8225426047
 30
0.0
 10
11.3900964083
 20
4.8064084085
 30
0.0
 10
11.3871592233
 20
4.7903956616
 30
0.0
 10
11.3833962107
 20
4.7745438993
 30
0.0
 10
11.3788173676
 20
4.7588924674
 30
0.0
 10
11.3734347431
 20
4.7434799544
 30
0.0
 10
11.3672624689
 20
4.7283442045
 30
0.0
 10
11.3603166467
 20
4.7135221867
 30
0.0
 10
11.3526152848
 20
4.6990499068
 30
0.0
 10
11.3441782216
 20
4.6849623179
 30
0.0
 10
11.3350270432
 20
4.6712932369
 30
0.0
 10
11.3251850255
 20
4.65807526
 30
0.0
 10
11.3146770293
 20
4.6453397115
 30
0.0
 10
11.3035294126
 20
4.6331165899
 30
0.0
 10
11.2917699468
 20
4.6214345118
 30
0.0
 10
11.2794277336
 20
4.6103206747
 30
0.0
 10
11.2665331427
 20
4.5998008002
 30
0.0
 10
11.2531177183
 20
4.5898990986
 30
0.0
 10
11.2392140978
 20
4.5806382533
 30
0.0
 10
11.2248558887
 20
4.572039374
 30
0.0
 10
11.210077788
 20
4.5641220352
 30
0.0
 10
11.1949147712
 20
4.5569040218
 30
0.0
 10
11.1742236026
 20
4.5482300888
 30
0.0
 10
11.1475752416
 20
4.5392157195
 30
0.0
 10
11.1146841419
 20
4.53142746
 30
0.0
 10
11.0811596152
 20
4.5267263234
 30
0.0
 10
11.0473182076
 20
4.5251547225
 30
0.0
 10
11.0134768038
 20
4.5267263495
 30
0.0
 10
10.9799522865
 20
4.5314275037
 30
0.0
 10
10.9470612046
 20
4.539215789
 30
0.0
 10
10.9204128603
 20
4.5482301687
 30
0.0
 10
10.8997217072
 20
4.5569041091
 30
0.0
 10
10.8845587039
 20
4.5641221277
 30
0.0
 10
10.8697806183
 20
4.5720394719
 30
0.0
 10
10.8554224234
 20
4.5806383527
 30
0.0
 10
10.841518817
 20
4.5898991977
 30
0.0
 10
10.8281034067
 20
4.5998008978
 30
0.0
 10
10.8152088303
 20
4.6103207702
 30
0.0
 10
10.8028666324
 20
4.6214346053
 30
0.0
 10
10.7911071801
 20
4.6331166787
 30
0.0
 10
10.7799595757
 20
4.6453397943
 30
0.0
 10
10.7694515911
 20
4.6580753359
 30
0.0
 10
10.7596095842
 20
4.6712933056
 30
0.0
 10
10.7504584164
 20
4.6849623794
 30
0.0
 10
10.7420213622
 20
4.6990499605
 30
0.0
 10
10.7343200076
 20
4.713522232
 30
0.0
 10
10.7273741913
 20
4.7283442418
 30
0.0
 10
10.7212019222
 20
4.743479984
 30
0.0
 10
10.7158193018
 20
4.75889249
 30
0.0
 10
10.7112404618
 20
4.7745439156
 30
0.0
 10
10.7074774512
 20
4.7903956723
 30
0.0
 10
10.7045402674
 20
4.8064084148
 30
0.0
 10
10.7024366066
 20
4.8225426077
 30
0.0
 10
10.7011722208
 20
4.8387573638
 30
0.0
 10
10.7008909581
 20
4.8495957791
 30
0.0
 10
10.7008909581
 20
4.8550133466
 30
0.0
  0
SPLINE
  5
2B4
100
AcDbEntity
  8
0
100
AcDbSpline
 62
9
  6
CONTINUOUS
 70
0
 71
3
 72
27
 73
23
 74
0
 42
0.0000001
 43
0.0000001
 44
0.0000000001
 40
0.0
 40
0.0
 40
0.0
 40
0.0
 40
0.0090273587
 40
0.0181040584
 40
0.0276305105
 40
0.0379555962
 40
0.0493557202
 40
0.0620377511
 40
0.0761529744
 40
0.0918131203
 40
0.1090999676
 40
0.1280728057
 40
0.171231685
 40
0.2215286338
 40
0.2790719894
 40
0.3439038456
 40
0.4160356763
 40
0.4954526977
 40
0.5821182566
 40
0.675986478
 40
0.77699164
 40
1.0
 40
1.0
 40
1.0
 40
1.0
 10
10.469719581
 20
10.1813526865
 30
0.0
 10
10.4696704855
 20
10.1813130849
 30
0.0
 10
10.4695633206
 20
10.1812436993
 30
0.0
 10
10.4693808688
 20
10.1811762887
 30
0.0
 10
10.4691796129
 20
10.18114665
 30
0.0
 10
10.4689603998
 20
10.181154215
 30
0.0
 10
10.4687233395
 20
10.1811983595
 30
0.0
 10
10.468468299
 20
10.1812787787
 30
0.0
 10
10.4681951243
 20
10.1813954389
 30
0.0
 10
10.467903632
 20
10.1815482325
 30
0.0
 10
10.4675935891
 20
10.1817369866
 30
0.0
 10
10.4671352913
 20
10.1820502352
 30
0.0
 10
10.4665172709
 20
10.1825364939
 30
0.0
 10
10.4657283386
 20
10.1832376211
 30
0.0
 10
10.4648631731
 20
10.1840790162
 30
0.0
 10
10.4639222776
 20
10.1850600143
 30
0.0
 10
10.4629062265
 20
10.1861798305
 30
0.0
 10
10.4618157077
 20
10.1874374491
 30
0.0
 10
10.4606514743
 20
10.1888317203
 30
0.0
 10
10.4594143731
 20
10.1903613243
 30
0.0
 10
10.4576087704
 20
10.1926560382
 30
0.0
 10
10.4562405461
 20
10.1944600635
 30
0.0
 10
10.4553092572
 20
10.1957093634
 30
0.0
  0
LINE
  5
2B5
100
AcDbEntity
  8
0
100
AcDbLine
 62
9
  6
CONTINUOUS
 10
10.4553092572
 20
10.1957093634
 11
10.4343450971
 21
10.2310663389
  0
LINE
  5
2B6
100
AcDbEntity
  8
0
100
AcDbLine
 62
9
  6
CONTINUOUS
 10
10.4343451523
 20
10.2310663831
 11
10.4066016882
 21
10.2657086671
  0
SPLINE
  5
2B7
100
AcDbEntity
  8
0
100
AcDbSpline
 62
9
  6
CONTINUOUS
 70
0
 71
3
 72
16
 73
12
 74
0
 42
0.0000001
 43
0.0000001
 44
0.0000000001
 40
0.0
 40
0.0
 40
0.0
 40
0.0
 40
0.1249903058
 40
0.2500045119
 40
0.3749972349
 40
0.4375114379
 40
0.500026149
 40
0.6250246755
 40
0.7500136421
 40
0.8750156948
 40
1.0
 40
1.0
 40
1.0
 40
1.0
 10
10.433936563
 20
10.3130413876
 30
0.0
 10
10.4335288401
 20
10.3107505276
 30
0.0
 10
10.4325284325
 20
10.3061988827
 30
0.0
 10
10.4304693319
 20
10.2995204108
 30
0.0
 10
10.4282844386
 20
10.2941195765
 30
0.0
 10
10.4262576289
 20
10.289928082
 30
0.0
 10
10.4240463109
 20
10.2858308114
 30
0.0
 10
10.4209381106
 20
10.2809027039
 30
0.0
 10
10.4166765216
 20
10.2753606008
 30
0.0
 10
10.4119087652
 20
10.2702477929
 30
0.0
 10
10.408415271
 20
10.2671600447
 30
0.0
 10
10.4065987876
 20
10.2657060346
 30
0.0
  0
SPLINE
  5
2B8
100
AcDbEntity
  8
0
100
AcDbSpline
 62
9
  6
CONTINUOUS
 70
0
 71
3
 72
11
 73
7
 74
0
 42
0.0000001
 43
0.0000001
 44
0.0000000001
 40
0.0
 40
0.0
 40
0.0
 40
0.0
 40
0.2493125944
 40
0.4989562824
 40
0.7491029583
 40
1.0
 40
1.0
 40
1.0
 40
1.0
 10
10.5877687285
 20
8.587337485
 30
0.0
 10
10.5883237007
 20
8.5883000017
 30
0.0
 10
10.5894578515
 20
8.5902128938
 30
0.0
 10
10.5912321241
 20
8.5930411311
 30
0.0
 10
10.5930860525
 20
8.5958263537
 30
0.0
 10
10.594379575
 20
8.5976469952
 30
0.0
 10
10.5950434033
 20
8.59854672
 30
0.0
  0
LINE
  5
2B9
100
AcDbEntity
  8
0
100
AcDbLine
 62
9
  6
CONTINUOUS
 10
10.5627750631
 20
8.5439920076
 11
10.5877687285
 21
8.587337485
  0
SPLINE
  5
2BA
100
AcDbEntity
  8
0
100
AcDbSpline
 62
9
  6
CONTINUOUS
 70
0
 71
3
 72
15
 73
11
 74
0
 42
0.0000001
 43
0.0000001
 44
0.0000000001
 40
0.0
 40
0.0
 40
0.0
 40
0.0
 40
0.1463842429
 40
0.2847962596
 40
0.4158529002
 40
0.5404866832
 40
0.6598398285
 40
0.7752570988
 40
0.8881655355
 40
1.0
 40
1.0
 40
1.0
 40
1.0
 10
10.5625875898
 20
8.5298934624
 30
0.0
 10
10.5623252232
 20
8.5305556256
 30
0.0
 10
10.5618657429
 20
8.5318650335
 30
0.0
 10
10.5613689207
 20
8.5338294381
 30
0.0
 10
10.561084131
 20
8.535729197
 30
0.0
 10
10.5610096955
 20
8.5375563577
 30
0.0
 10
10.5611435637
 20
8.5393041942
 30
0.0
 10
10.5614811499
 20
8.5409665036
 30
0.0
 10
10.5620172541
 20
8.5425370352
 30
0.0
 10
10.5625032537
 20
8.5435206159
 30
0.0
 10
10.5627750631
 20
8.5439920076
 30
0.0
  0
SPLINE
  5
2BB
100
AcDbEntity
  8
0
100
AcDbSpline
 62
9
  6
CONTINUOUS
 70
0
 71
3
 72
27
 73
23
 74
0
 42
0.0000001
 43
0.0000001
 44
0.0000000001
 40
0.0
 40
0.0
 40
0.0
 40
0.0
 40
0.2230083632
 40
0.324013527
 40
0.41788175
 40
0.50454731
 40
0.5839643325
 40
0.6560961646
 40
0.7209280228
 40
0.7784713806
 40
0.8287683303
 40
0.8719272079
 40
0.8909000442
 40
0.9081868891
 40
0.9238470327
 40
0.9379622541
 40
0.950644284
 40
0.9620444078
 40
0.9723694937
 40
0.9818959457
 40
0.9909726444
 40
1.0
 40
1.0
 40
1.0
 40
1.0
 10
10.4553092572
 20
8.7348232888
 30
0.0
 10
10.4562405458
 20
8.736072589
 30
0.0
 10
10.4576087699
 20
8.7378766144
 30
0.0
 10
10.4594143728
 20
8.7401713281
 30
0.0
 10
10.460651474
 20
8.7417009321
 30
0.0
 10
10.4618157075
 20
8.7430952033
 30
0.0
 10
10.4629062264
 20
8.7443528218
 30
0.0
 10
10.4639222777
 20
8.7454726379
 30
0.0
 10
10.4648631735
 20
8.7464536356
 30
0.0
 10
10.4657283392
 20
8.7472950305
 30
0.0
 10
10.4665172715
 20
8.7479961578
 30
0.0
 10
10.4671352918
 20
8.7484824165
 30
0.0
 10
10.4675935894
 20
8.7487956653
 30
0.0
 10
10.4679036323
 20
8.7489844195
 30
0.0
 10
10.4681951245
 20
8.7491372132
 30
0.0
 10
10.4684682991
 20
8.7492538734
 30
0.0
 10
10.4687233396
 20
8.7493342927
 30
0.0
 10
10.4689603999
 20
8.7493784371
 30
0.0
 10
10.4691796129
 20
8.7493860022
 30
0.0
 10
10.4693808689
 20
8.7493563635
 30
0.0
 10
10.4695633206
 20
8.7492889529
 30
0.0
 10
10.4696704855
 20
8.7492195673
 30
0.0
 10
10.469719581
 20
8.7491799657
 30
0.0
  0
LINE
  5
2BC
100
AcDbEntity
  8
0
100
AcDbLine
 62
9
  6
CONTINUOUS
 10
10.434345097
 20
8.6994663134
 11
10.4553092572
 21
8.7348232888
  0
LINE
  5
2BD
100
AcDbEntity
  8
0
100
AcDbLine
 62
9
  6
CONTINUOUS
 10
10.4066103685
 20
8.664816582
 11
10.434345097
 21
8.6994663134
  0
SPLINE
  5
2BE
100
AcDbEntity
  8
0
100
AcDbSpline
 62
9
  6
CONTINUOUS
 70
0
 71
3
 72
16
 73
12
 74
0
 42
0.0000001
 43
0.0000001
 44
0.0000000001
 40
0.0
 40
0.0
 40
0.0
 40
0.0
 40
0.1249849642
 40
0.2499870932
 40
0.3749777803
 40
0.4999753409
 40
0.5624895045
 40
0.6250040098
 40
0.7499973835
 40
0.8750095937
 40
1.0
 40
1.0
 40
1.0
 40
1.0
 10
10.4066176656
 20
8.6648102158
 30
0.0
 10
10.4084334142
 20
8.6633569637
 30
0.0
 10
10.4119250775
 20
8.6602702149
 30
0.0
 10
10.4166882646
 20
8.6551574114
 30
0.0
 10
10.4209464998
 20
8.649616842
 30
0.0
 10
10.424053398
 20
8.644691025
 30
0.0
 10
10.4262625662
 20
8.6405950125
 30
0.0
 10
10.4282872817
 20
8.6364048655
 30
0.0
 10
10.4304711521
 20
8.6310065429
 30
0.0
 10
10.4325291345
 20
8.624331036
 30
0.0
 10
10.433528367
 20
8.6197813672
 30
0.0
 10
10.4339361178
 20
8.6174915868
 30
0.0
  0
SPLINE
  5
2BF
100
AcDbEntity
  8
0
100
AcDbSpline
 62
9
  6
CONTINUOUS
 70
0
 71
3
 72
15
 73
11
 74
0
 42
0.0000001
 43
0.0000001
 44
0.0000000001
 40
0.0
 40
0.0
 40
0.0
 40
0.0
 40
0.1118339946
 40
0.2247401204
 40
0.3401588386
 40
0.4595168656
 40
0.5841484963
 40
0.7151989086
 40
0.8536129068
 40
1.0
 40
1.0
 40
1.0
 40
1.0
 10
10.4917430739
 20
8.5850024116
 30
0.0
 10
10.49147073
 20
8.5845313251
 30
0.0
 10
10.490862063
 20
8.5836185714
 30
0.0
 10
10.4897701753
 20
8.5823688341
 30
0.0
 10
10.4884991593
 20
8.5812454753
 30
0.0
 10
10.4870522387
 20
8.5802558496
 30
0.0
 10
10.4854327434
 20
8.5794065876
 30
0.0
 10
10.4836451907
 20
8.5787031434
 30
0.0
 10
10.4816954934
 20
8.5781513428
 30
0.0
 10
10.4803317288
 20
8.5778946262
 30
0.0
 10
10.4796270782
 20
8.5777907344
 30
0.0
  0
LINE
  5
2C0
100
AcDbEntity
  8
0
100
AcDbLine
 62
9
  6
CONTINUOUS
 10
10.5167947318
 20
8.6283380025
 11
10.4917430739
 21
8.5850024116
  0
SPLINE
  5
2C1
100
AcDbEntity
  8
0
100
AcDbSpline
 62
9
  6
CONTINUOUS
 70
0
 71
3
 72
11
 73
7
 74
0
 42
0.0000001
 43
0.0000001
 44
0.0000000001
 40
0.0
 40
0.0
 40
0.0
 40
0.0
 40
0.2508918596
 40
0.5010368497
 40
0.7506840439
 40
1.0
 40
1.0
 40
1.0
 40
1.0
 10
10.5228405047
 20
8.6401923425
 30
0.0
 10
10.5223951191
 20
8.6391719003
 30
0.0
 10
10.5214680727
 20
8.6371503333
 30
0.0
 10
10.5199885574
 20
8.634165077
 30
0.0
 10
10.5184332622
 20
8.6312265453
 30
0.0
 10
10.5173484894
 20
8.6292958641
 30
0.0
 10
10.5167947318
 20
8.6283380025
 30
0.0
  0
SPLINE
  5
2C2
100
AcDbEntity
  8
0
100
AcDbSpline
 62
9
  6
CONTINUOUS
 70
0
 71
3
 72
45
 73
41
 74
0
 42
0.0000001
 43
0.0000001
 44
0.0000000001
 40
0.0
 40
0.0
 40
0.0
 40
0.0
 40
0.0977937118
 40
0.1463504752
 40
0.1944605453
 40
0.2419194744
 40
0.2884980832
 40
0.33393387
 40
0.3779130188
 40
0.4200650825
 40
0.4403281207
 40
0.4599697798
 40
0.4789240015
 40
0.4971181928
 40
0.5144724845
 40
0.5309030914
 40
0.5463281993
 40
0.5536468824
 40
0.5606994735
 40
0.5674931317
 40
0.5740507901
 40
0.5804133921
 40
0.5866228084
 40
0.5987351594
 40
0.6106130795
 40
0.6223605998
 40
0.6340272249
 40
0.6456396052
 40
0.6572128519
 40
0.6802772795
 40
0.7032674323
 40
0.7262068365
 40
0.7491096492
 40
0.7719845822
 40
0.7948378286
 40
0.8176736358
 40
0.8633048378
 40
0.9088960606
 40
0.9544585046
 40
1.0
 40
1.0
 40
1.0
 40
1.0
 10
10.4992111106
 20
8.7286022928
 30
0.0
 10
10.5020201623
 20
8.7265120559
 30
0.0
 10
10.5061640062
 20
8.723301555
 30
0.0
 10
10.511519333
 20
8.7188514479
 30
0.0
 10
10.515405568
 20
8.7154555517
 30
0.0
 10
10.5191435832
 20
8.7120005197
 30
0.0
 10
10.522704189
 20
8.7084979314
 30
0.0
 10
10.5260537518
 20
8.7049623526
 30
0.0
 10
10.5291509489
 20
8.7014111269
 30
0.0
 10
10.5315116522
 20
8.6984186811
 30
0.0
 10
10.5332230699
 20
8.696030076
 30
0.0
 10
10.5343909653
 20
8.694275334
 30
0.0
 10
10.535450436
 20
8.6925391501
 30
0.0
 10
10.5363902437
 20
8.6908280549
 30
0.0
 10
10.5371972368
 20
8.6891498286
 30
0.0
 10
10.5378561708
 20
8.6875142528
 30
0.0
 10
10.5382743429
 20
8.686173109
 30
0.0
 10
10.5385116526
 20
8.6851325053
 30
0.0
 10
10.5386374944
 20
8.6843847639
 30
0.0
 10
10.5387128936
 20
8.6836575823
 30
0.0
 10
10.5387380721
 20
8.6829516742
 30
0.0
 10
10.5387189046
 20
8.6822665938
 30
0.0
 10
10.5386429184
 20
8.6813856566
 30
0.0
 10
10.5384733173
 20
8.6803165414
 30
0.0
 10
10.5381985814
 20
8.6790664524
 30
0.0
 10
10.537879901
 20
8.6778434609
 30
0.0
 10
10.537530794
 20
8.6766388345
 30
0.0
 10
10.5371597084
 20
8.6754473703
 30
0.0
 10
10.5366427311
 20
8.6738741478
 30
0.0
 10
10.5359626236
 20
8.6719259782
 30
0.0
 10
10.5351099978
 20
8.6696074511
 30
0.0
 10
10.5342310134
 20
8.6673050032
 30
0.0
 10
10.5333323333
 20
8.6650146257
 30
0.0
 10
10.5324178637
 20
8.662733839
 30
0.0
 10
10.5314909421
 20
8.6604606819
 30
0.0
 10
10.5302416729
 20
8.657439111
 30
0.0
 10
10.5286587156
 20
8.6536746057
 30
0.0
 10
10.5267350921
 20
8.6491707368
 30
0.0
 10
10.5247945205
 20
8.6446776496
 30
0.0
 10
10.5234927514
 20
8.6416867752
 30
0.0
 10
10.5228405047
 20
8.6401923425
 30
0.0
  0
SPLINE
  5
2C3
100
AcDbEntity
  8
0
100
AcDbSpline
 62
9
  6
CONTINUOUS
 70
0
 71
3
 72
27
 73
23
 74
0
 42
0.0000001
 43
0.0000001
 44
0.0000000001
 40
0.0
 40
0.0
 40
0.0
 40
0.0
 40
0.2230083632
 40
0.324013527
 40
0.41788175
 40
0.50454731
 40
0.5839643325
 40
0.6560961646
 40
0.7209280228
 40
0.7784713806
 40
0.8287683303
 40
0.8719272079
 40
0.8909000442
 40
0.9081868891
 40
0.9238470327
 40
0.9379622541
 40
0.950644284
 40
0.9620444078
 40
0.9723694937
 40
0.9818959457
 40
0.9909726444
 40
1.0
 40
1.0
 40
1.0
 40
1.0
 10
11.3838960241
 20
8.587349904
 30
0.0
 10
11.3832797427
 20
8.5887810736
 30
0.0
 10
11.3824015229
 20
8.5908680032
 30
0.0
 10
11.3813170439
 20
8.593579058
 30
0.0
 10
11.3806109186
 20
8.5954152211
 30
0.0
 10
11.3799855611
 20
8.5971206124
 30
0.0
 10
11.379441691
 20
8.5986938388
 30
0.0
 10
11.3789799275
 20
8.600133673
 30
0.0
 10
11.3786008064
 20
8.6014390116
 30
0.0
 10
11.3783047199
 20
8.6026089645
 30
0.0
 10
11.3780919921
 20
8.6036427636
 30
0.0
 10
11.3779798898
 20
8.6044211142
 30
0.0
 10
11.3779377572
 20
8.604974636
 30
0.0
 10
11.3779293127
 20
8.6053375181
 30
0.0
 10
11.3779427356
 20
8.6056663546
 30
0.0
 10
11.3779782922
 20
8.6059612609
 30
0.0
 10
11.3780361672
 20
8.606222342
 30
0.0
 10
11.3781164672
 20
8.6064497145
 30
0.0
 10
11.3782195222
 20
8.6066433411
 30
0.0
 10
11.378345818
 20
8.6068028145
 30
0.0
 10
11.3784954232
 20
8.606927117
 30
0.0
 10
11.3786090953
 20
8.6069852317
 30
0.0
 10
11.378667939
 20
8.6070079489
 30
0.0
  0
SPLINE
  5
2C4
100
AcDbEntity
  8
0
100
AcDbSpline
 62
9
  6
CONTINUOUS
 70
0
 71
3
 72
27
 73
23
 74
0
 42
0.0000001
 43
0.0000001
 44
0.0000000001
 40
0.0
 40
0.0
 40
0.0
 40
0.0
 40
0.0090273587
 40
0.0181040584
 40
0.0276305105
 40
0.0379555962
 40
0.0493557202
 40
0.0620377511
 40
0.0761529744
 40
0.0918131203
 40
0.1090999676
 40
0.1280728057
 40
0.171231685
 40
0.2215286338
 40
0.2790719894
 40
0.3439038456
 40
0.4160356763
 40
0.4954526977
 40
0.5821182566
 40
0.675986478
 40
0.77699164
 40
1.0
 40
1.0
 40
1.0
 40
1.0
 10
10.7159687375
 20
8.6070079489
 30
0.0
 10
10.7160275812
 20
8.6069852317
 30
0.0
 10
10.7161412534
 20
8.606927117
 30
0.0
 10
10.7162908586
 20
8.6068028145
 30
0.0
 10
10.7164171545
 20
8.606643341
 30
0.0
 10
10.7165202094
 20
8.6064497145
 30
0.0
 10
10.7166005094
 20
8.606222342
 30
0.0
 10
10.7166583845
 20
8.6059612608
 30
0.0
 10
10.7166939412
 20
8.6056663545
 30
0.0
 10
10.7167073642
 20
8.605337518
 30
0.0
 10
10.7166989199
 20
8.6049746358
 30
0.0
 10
10.7166567874
 20
8.604421114
 30
0.0
 10
10.7165446853
 20
8.6036427633
 30
0.0
 10
10.7163319575
 20
8.6026089642
 30
0.0
 10
10.7160358707
 20
8.6014390114
 30
0.0
 10
10.7156567492
 20
8.600133673
 30
0.0
 10
10.7151949854
 20
8.5986938388
 30
0.0
 10
10.7146511152
 20
8.5971206125
 30
0.0
 10
10.7140257576
 20
8.5954152212
 30
0.0
 10
10.7133196322
 20
8.5935790582
 30
0.0
 10
10.7122351531
 20
8.5908680034
 30
0.0
 10
10.7113569335
 20
8.5887810738
 30
0.0
 10
10.7107406525
 20
8.587349904
 30
0.0
  0
LINE
  5
2C5
100
AcDbEntity
  8
0
100
AcDbLine
 62
9
  6
CONTINUOUS
 10
10.7107406525
 20
8.587349904
 11
10.6906026936
 21
8.551515921
  0
LINE
  5
2C6
100
AcDbEntity
  8
0
100
AcDbLine
 62
9
  6
CONTINUOUS
 10
11.4040339828
 20
8.551515921
 11
11.3838960241
 21
8.587349904
  0
LINE
  5
2C7
100
AcDbEntity
  8
0
100
AcDbLine
 62
9
  6
CONTINUOUS
 10
10.6906026277
 20
8.5515159467
 11
10.6744732617
 21
8.5101682599
  0
LINE
  5
2C8
100
AcDbEntity
  8
0
100
AcDbLine
 62
9
  6
CONTINUOUS
 10
11.4201741662
 20
8.5101720758
 11
11.4040339828
 21
8.551515921
  0
SPLINE
  5
2C9
100
AcDbEntity
  8
0
100
AcDbSpline
 62
9
  6
CONTINUOUS
 70
0
 71
3
 72
16
 73
12
 74
0
 42
0.0000001
 43
0.0000001
 44
0.0000000001
 40
0.0
 40
0.0
 40
0.0
 40
0.0
 40
0.1249903058
 40
0.2500045119
 40
0.3749972349
 40
0.4375114379
 40
0.500026149
 40
0.6250246755
 40
0.7500136421
 40
0.8750156948
 40
1.0
 40
1.0
 40
1.0
 40
1.0
 10
10.619814486
 20
8.5101745958
 30
0.0
 10
10.6220022903
 20
8.5109669274
 30
0.0
 10
10.6264443343
 20
8.5123763714
 30
0.0
 10
10.6332576109
 20
8.513932374
 30
0.0
 10
10.6390273173
 20
8.514740618
 30
0.0
 10
10.6436706629
 20
8.5150810966
 30
0.0
 10
10.6483246623
 20
8.5152146743
 30
0.0
 10
10.6541466287
 20
8.5149869476
 30
0.0
 10
10.6610770253
 20
8.5140673548
 30
0.0
 10
10.667888725
 20
8.5124947606
 30
0.0
 10
10.6723095405
 20
8.51101318
 30
0.0
 10
10.6744769919
 20
8.5101670642
 30
0.0
  0
SPLINE
  5
2CA
100
AcDbEntity
  8
0
100
AcDbSpline
 62
9
  6
CONTINUOUS
 70
0
 71
3
 72
16
 73
12
 74
0
 42
0.0000001
 43
0.0000001
 44
0.0000000001
 40
0.0
 40
0.0
 40
0.0
 40
0.0
 40
0.1249849642
 40
0.2499870932
 40
0.3749777803
 40
0.4999753409
 40
0.5624895045
 40
0.6250040098
 40
0.7499973835
 40
0.8750095937
 40
1.0
 40
1.0
 40
1.0
 40
1.0
 10
11.4201833281
 20
8.5101752122
 30
0.0
 10
11.4223497556
 20
8.5110210705
 30
0.0
 10
11.4267687901
 20
8.5125015653
 30
0.0
 10
11.4335782014
 20
8.5140702046
 30
0.0
 10
11.4405055928
 20
8.5149876597
 30
0.0
 10
11.4463249246
 20
8.5152154039
 30
0.0
 10
11.4509767596
 20
8.5150805935
 30
0.0
 10
11.4556178911
 20
8.514738975
 30
0.0
 10
11.4613849108
 20
8.5139311011
 30
0.0
 10
11.4681950606
 20
8.5123756126
 30
0.0
 10
11.4726348055
 20
8.5109661389
 30
0.0
 10
11.474821689
 20
8.5101743713
 30
0.0
  0
SPLINE
  5
2CB
100
AcDbEntity
  8
0
100
AcDbSpline
 62
9
  6
CONTINUOUS
 70
0
 71
3
 72
27
 73
23
 74
0
 42
0.0000001
 43
0.0000001
 44
0.0000000001
 40
0.0
 40
0.0
 40
0.0
 40
0.0
 40
0.0090273587
 40
0.0181040584
 40
0.0276305105
 40
0.0379555962
 40
0.0493557202
 40
0.0620377511
 40
0.0761529744
 40
0.0918131203
 40
0.1090999676
 40
0.1280728057
 40
0.171231685
 40
0.2215286338
 40
0.2790719894
 40
0.3439038456
 40
0.4160356763
 40
0.4954526977
 40
0.5821182566
 40
0.675986478
 40
0.77699164
 40
1.0
 40
1.0
 40
1.0
 40
1.0
 10
11.6249170956
 20
8.7491799657
 30
0.0
 10
11.6249661911
 20
8.7492195673
 30
0.0
 10
11.625073356
 20
8.7492889529
 30
0.0
 10
11.6252558077
 20
8.7493563635
 30
0.0
 10
11.6254570637
 20
8.7493860022
 30
0.0
 10
11.6256762767
 20
8.7493784372
 30
0.0
 10
11.6259133371
 20
8.7493342927
 30
0.0
 10
11.6261683775
 20
8.7492538735
 30
0.0
 10
11.6264415522
 20
8.7491372133
 30
0.0
 10
11.6267330445
 20
8.7489844197
 30
0.0
 10
11.6270430875
 20
8.7487956656
 30
0.0
 10
11.6275013853
 20
8.748482417
 30
0.0
 10
11.6281194057
 20
8.7479961584
 30
0.0
 10
11.628908338
 20
8.7472950311
 30
0.0
 10
11.6297735035
 20
8.746453636
 30
0.0
 10
11.630714399
 20
8.7454726379
 30
0.0
 10
11.6317304501
 20
8.7443528217
 30
0.0
 10
11.6328209689
 20
8.7430952031
 30
0.0
 10
11.6339852023
 20
8.7417009319
 30
0.0
 10
11.6352223034
 20
8.7401713279
 30
0.0
 10
11.6370279061
 20
8.737876614
 30
0.0
 10
11.6383961305
 20
8.7360725887
 30
0.0
 10
11.6393274193
 20
8.7348232888
 30
0.0
  0
LINE
  5
2CC
100
AcDbEntity
  8
0
100
AcDbLine
 62
9
  6
CONTINUOUS
 10
11.6393274193
 20
8.7348232888
 11
11.6602915795
 21
8.6994663133
  0
LINE
  5
2CD
100
AcDbEntity
  8
0
100
AcDbLine
 62
9
  6
CONTINUOUS
 10
11.6602915242
 20
8.6994662691
 11
11.6880349884
 21
8.6648239851
  0
SPLINE
  5
2CE
100
AcDbEntity
  8
0
100
AcDbSpline
 62
9
  6
CONTINUOUS
 70
0
 71
3
 72
16
 73
12
 74
0
 42
0.0000001
 43
0.0000001
 44
0.0000000001
 40
0.0
 40
0.0
 40
0.0
 40
0.0
 40
0.1249903058
 40
0.2500045119
 40
0.3749972349
 40
0.4375114379
 40
0.500026149
 40
0.6250246755
 40
0.7500136421
 40
0.8750156948
 40
1.0
 40
1.0
 40
1.0
 40
1.0
 10
11.6607001135
 20
8.6174912646
 30
0.0
 10
11.6611078364
 20
8.6197821246
 30
0.0
 10
11.662108244
 20
8.6243337695
 30
0.0
 10
11.6641673446
 20
8.6310122414
 30
0.0
 10
11.666352238
 20
8.6364130757
 30
0.0
 10
11.6683790477
 20
8.6406045702
 30
0.0
 10
11.6705903657
 20
8.6447018408
 30
0.0
 10
11.673698566
 20
8.6496299483
 30
0.0
 10
11.677960155
 20
8.6551720514
 30
0.0
 10
11.6827279114
 20
8.6602848593
 30
0.0
 10
11.6862214055
 20
8.6633726076
 30
0.0
 10
11.688037889
 20
8.6648266176
 30
0.0
  0
LINE
  5
2CF
100
AcDbEntity
  8
0
100
AcDbLine
 62
9
  6
CONTINUOUS
 10
11.5857811893
 20
10.2896843927
 11
11.6108418233
 21
10.333050003
  0
SPLINE
  5
2D0
100
AcDbEntity
  8
0
100
AcDbSpline
 62
9
  6
CONTINUOUS
 70
0
 71
3
 72
18
 73
14
 74
0
 42
0.0000001
 43
0.0000001
 44
0.0000000001
 40
0.0
 40
0.0
 40
0.0
 40
0.0
 40
0.1255394346
 40
0.2509687205
 40
0.3136581415
 40
0.3763061635
 40
0.4389100006
 40
0.5014676758
 40
0.6263849709
 40
0.6887927187
 40
0.7511505449
 40
0.8756679301
 40
1.0
 40
1.0
 40
1.0
 40
1.0
 10
11.6602916952
 20
10.2310664959
 30
0.0
 10
11.6564224732
 20
10.234082795
 30
0.0
 10
11.6490339644
 20
10.2405719433
 30
0.0
 10
11.640808941
 20
10.2496987321
 30
0.0
 10
11.6348996407
 20
10.25752223
 30
0.0
 10
11.630814468
 20
10.2636308832
 30
0.0
 10
11.6270877471
 20
10.2699587058
 30
0.0
 10
11.6226137006
 20
10.278651874
 30
0.0
 10
11.618885463
 20
10.2877039607
 30
0.0
 10
11.6159362585
 20
10.2970091616
 30
0.0
 10
11.6135109022
 20
10.3064489644
 30
0.0
 10
11.6114608513
 20
10.3184622667
 30
0.0
 10
11.6108736277
 20
10.3281912797
 30
0.0
 10
11.6108418233
 20
10.333050003
 30
0.0
  0
LINE
  5
2D1
100
AcDbEntity
  8
0
100
AcDbLine
 62
9
  6
CONTINUOUS
 10
11.5797653671
 20
10.2787842244
 11
11.5857811893
 21
10.2896843927
  0
SPLINE
  5
2D2
100
AcDbEntity
  8
0
100
AcDbSpline
 62
9
  6
CONTINUOUS
 70
0
 71
3
 72
18
 73
14
 74
0
 42
0.0000001
 43
0.0000001
 44
0.0000000001
 40
0.0
 40
0.0
 40
0.0
 40
0.0
 40
0.1197196224
 40
0.2410539742
 40
0.3023675641
 40
0.3640932215
 40
0.4262226278
 40
0.4887437075
 40
0.6148441161
 40
0.742252184
 40
0.8063897769
 40
0.8707598676
 40
1.0
 40
1.0
 40
1.0
 40
1.0
 10
11.5857811893
 20
10.2896843927
 30
0.0
 10
11.5861042965
 20
10.2852494558
 30
0.0
 10
11.5872833427
 20
10.2763505919
 30
0.0
 10
11.5900253864
 20
10.2654345198
 30
0.0
 10
11.5929607336
 20
10.2568415213
 30
0.0
 10
11.5955387677
 20
10.2504615466
 30
0.0
 10
11.5984771986
 20
10.2441898719
 30
0.0
 10
11.6028752624
 20
10.2359759704
 30
0.0
 10
11.6092313765
 20
10.2260804099
 30
0.0
 10
11.6166100295
 20
10.216846626
 30
0.0
 10
11.6230914892
 20
10.2098887719
 30
0.0
 10
11.6299625451
 20
10.2032183697
 30
0.0
 10
11.6354950691
 20
10.1986000453
 30
0.0
 10
11.6393274193
 20
10.1957093634
 30
0.0
  0
SPLINE
  5
2D3
100
AcDbEntity
  8
0
100
AcDbSpline
 62
9
  6
CONTINUOUS
 70
0
 71
3
 72
55
 73
51
 74
0
 42
0.0000001
 43
0.0000001
 44
0.0000000001
 40
0.0
 40
0.0
 40
0.0
 40
0.0
 40
0.0520783416
 40
0.1041867932
 40
0.156158288
 40
0.2078093288
 40
0.2589223296
 40
0.3092586102
 40
0.3585163134
 40
0.3826262737
 40
0.4063259996
 40
0.4295630032
 40
0.4522797315
 40
0.4744110969
 40
0.4958745533
 40
0.5165642972
 40
0.5363564147
 40
0.5458643356
 40
0.5550733038
 40
0.5639411091
 40
0.5724065347
 40
0.5803828529
 40
0.5877654127
 40
0.5944631236
 40
0.5975639546
 40
0.6005287545
 40
0.6061778703
 40
0.6116260248
 40
0.6169794952
 40
0.6222956027
 40
0.6275882958
 40
0.6328666019
 40
0.6381340754
 40
0.6433924406
 40
0.653889077
 40
0.6643685188
 40
0.674838041
 40
0.6852997082
 40
0.7062097678
 40
0.7271182652
 40
0.7480280186
 40
0.768948118
 40
0.7898785292
 40
0.810821354
 40
0.8317794258
 40
0.8527517689
 40
0.8737388131
 40
0.9157618146
 40
0.9578482057
 40
1.0
 40
1.0
 40
1.0
 40
1.0
 10
11.5965082942
 20
10.2033642301
 30
0.0
 10
11.5951565786
 20
10.2043701075
 30
0.0
 10
11.592472356
 20
10.2064094831
 30
0.0
 10
11.5885138609
 20
10.2095494412
 30
0.0
 10
11.5846378272
 20
10.2127692085
 30
0.0
 10
11.5808678992
 20
10.2160640044
 30
0.0
 10
11.5772302288
 20
10.2194270173
 30
0.0
 10
11.5737534354
 20
10.2228466821
 30
0.0
 10
11.5709994419
 20
10.2257522421
 30
0.0
 10
11.5689119196
 20
10.2280987603
 30
0.0
 10
11.5674234947
 20
10.2298506675
 30
0.0
 10
11.5660076017
 20
10.2316041725
 30
0.0
 10
11.5646714258
 20
10.2333558192
 30
0.0
 10
11.563423236
 20
10.2351012118
 30
0.0
 10
11.5622733022
 20
10.2368348382
 30
0.0
 10
11.5612353294
 20
10.2385499713
 30
0.0
 10
11.5604668399
 20
10.2399741529
 30
0.0
 10
11.5599279759
 20
10.2410977323
 30
0.0
 10
11.5595716416
 20
10.2419162236
 30
0.0
 10
11.5592632629
 20
10.2427180215
 30
0.0
 10
11.5590107759
 20
10.2434974984
 30
0.0
 10
11.5588257887
 20
10.244246682
 30
0.0
 10
11.5587225873
 20
10.244954246
 30
0.0
 10
11.5587210146
 20
10.2455131403
 30
0.0
 10
11.5587807912
 20
10.2459223913
 30
0.0
 10
11.5588721427
 20
10.2462908026
 30
0.0
 10
11.5590419449
 20
10.2467152415
 30
0.0
 10
11.5593048144
 20
10.2471791943
 30
0.0
 10
11.5596019641
 20
10.2476080953
 30
0.0
 10
11.5599100631
 20
10.2480225815
 30
0.0
 10
11.5602262569
 20
10.2484278617
 30
0.0
 10
11.5605444213
 20
10.2488295448
 30
0.0
 10
11.5608630014
 20
10.2492294877
 30
0.0
 10
11.5612868734
 20
10.2497614021
 30
0.0
 10
11.5618133616
 20
10.2504271648
 30
0.0
 10
11.5624369515
 20
10.251231041
 30
0.0
 10
11.5630516478
 20
10.2520403159
 30
0.0
 10
11.5638607525
 20
10.2531256311
 30
0.0
 10
11.5648537607
 20
10.2544950188
 30
0.0
 10
11.5660185085
 20
10.2561570653
 30
0.0
 10
11.5671618132
 20
10.2578343103
 30
0.0
 10
11.568284766
 20
10.2595260889
 30
0.0
 10
11.5693908339
 20
10.2612302156
 30
0.0
 10
11.5704813303
 20
10.2629458009
 30
0.0
 10
11.5715575546
 20
10.2646719672
 30
0.0
 10
11.5726209894
 20
10.2664077164
 30
0.0
 10
11.5740235007
 20
10.2687349
 30
0.0
 10
11.5757485871
 20
10.2716651431
 30
0.0
 10
11.577778539
 20
10.27521014
 30
0.0
 10
11.5791067525
 20
10.2775900411
 30
0.0
 10
11.579765367
 20
10.2787842145
 30
0.0
  0
SPLINE
  5
2D4
100
AcDbEntity
  8
0
100
AcDbSpline
 62
9
  6
CONTINUOUS
 70
0
 71
3
 72
15
 73
11
 74
0
 42
0.0000001
 43
0.0000001
 44
0.0000000001
 40
0.0
 40
0.0
 40
0.0
 40
0.0
 40
0.1267222508
 40
0.252854672
 40
0.3784173061
 40
0.5034501503
 40
0.6280233824
 40
0.7522303364
 40
0.8761793803
 40
1.0
 40
1.0
 40
1.0
 40
1.0
 10
11.579765367
 20
10.2787842145
 30
0.0
 10
11.5797104303
 20
10.2740922681
 30
0.0
 10
11.5801123761
 20
10.2647159024
 30
0.0
 10
11.5822561874
 20
10.2508411031
 30
0.0
 10
11.5859135833
 20
10.2373490516
 30
0.0
 10
11.5910407919
 20
10.2244064025
 30
0.0
 10
11.5975754308
 20
10.2121706848
 30
0.0
 10
11.6054387458
 20
10.2007912782
 30
0.0
 10
11.6145330191
 20
10.1904085499
 30
0.0
 10
11.6213484741
 20
10.184231154
 30
0.0
 10
11.6249170956
 20
10.1813526865
 30
0.0
  0
SPLINE
  5
2D5
100
AcDbEntity
  8
0
100
AcDbSpline
 62
9
  6
CONTINUOUS
 70
0
 71
3
 72
15
 73
11
 74
0
 42
0.0000001
 43
0.0000001
 44
0.0000000001
 40
0.0
 40
0.0
 40
0.0
 40
0.0
 40
0.1290071803
 40
0.2575197178
 40
0.3850753294
 40
0.5113845543
 40
0.6361648985
 40
0.7592214454
 40
0.8805146998
 40
1.0
 40
1.0
 40
1.0
 40
1.0
 10
11.5778522113
 20
10.3022123809
 30
0.0
 10
11.5784135885
 20
10.3018632062
 30
0.0
 10
11.5794967312
 20
10.3011037729
 30
0.0
 10
11.5809805346
 20
10.2997969433
 30
0.0
 10
11.5822998904
 20
10.2983424352
 30
0.0
 10
11.5834343938
 20
10.2967629676
 30
0.0
 10
11.5843664265
 20
10.2950823173
 30
0.0
 10
11.5850818182
 20
10.2933260738
 30
0.0
 10
11.5855688788
 20
10.291521533
 30
0.0
 10
11.5857377288
 20
10.290295162
 30
0.0
 10
11.5857811885
 20
10.2896843913
 30
0.0
  0
SPLINE
  5
2D6
100
AcDbEntity
  8
0
100
AcDbSpline
 62
9
  6
CONTINUOUS
 70
0
 71
3
 72
15
 73
11
 74
0
 42
0.0000001
 43
0.0000001
 44
0.0000000001
 40
0.0
 40
0.0
 40
0.0
 40
0.0
 40
0.129516165
 40
0.2582623628
 40
0.3858434499
 40
0.5120317249
 40
0.6366137165
 40
0.759460598
 40
0.8805864236
 40
1.0
 40
1.0
 40
1.0
 40
1.0
 10
11.5717820766
 20
10.2903077328
 30
0.0
 10
11.5723209167
 20
10.2899893631
 30
0.0
 10
11.5733630139
 20
10.2892977316
 30
0.0
 10
11.5748017361
 20
10.2881064808
 30
0.0
 10
11.576093464
 20
10.2867791755
 30
0.0
 10
11.5772201409
 20
10.285334516
 30
0.0
 10
11.578165996
 20
10.2837921107
 30
0.0
 10
11.5789180343
 20
10.2821731506
 30
0.0
 10
11.5794652237
 20
10.2805003413
 30
0.0
 10
11.579690057
 20
10.2793563335
 30
0.0
 10
11.5797653659
 20
10.2787842222
 30
0.0
  0
LINE
  5
2D7
100
AcDbEntity
  8
0
100
AcDbLine
 62
9
  6
CONTINUOUS
 10
11.5170792857
 20
10.387183863
 11
11.4920539032
 21
10.3437978699
  0
SPLINE
  5
2D8
100
AcDbEntity
  8
0
100
AcDbSpline
 62
9
  6
CONTINUOUS
 70
0
 71
3
 72
18
 73
14
 74
0
 42
0.0000001
 43
0.0000001
 44
0.0000000001
 40
0.0
 40
0.0
 40
0.0
 40
0.0
 40
0.1197195929
 40
0.2410539281
 40
0.3023675143
 40
0.3640931707
 40
0.4262225783
 40
0.4887436609
 40
0.614844079
 40
0.7422521592
 40
0.8063897586
 40
0.8707598558
 40
1.0
 40
1.0
 40
1.0
 40
1.0
 10
11.4920539032
 20
10.3437978699
 30
0.0
 10
11.4880515823
 20
10.3418602218
 30
0.0
 10
11.479755418
 20
10.3384318765
 30
0.0
 10
11.4689308021
 20
10.3353485224
 30
0.0
 10
11.4600213744
 20
10.3335941095
 30
0.0
 10
11.4532071375
 20
10.3326367657
 30
0.0
 10
11.4463064926
 20
10.3320456842
 30
0.0
 10
11.4369940131
 20
10.3317475683
 30
0.0
 10
11.4252461487
 20
10.3323043434
 30
0.0
 10
11.4135601299
 20
10.3340775506
 30
0.0
 10
11.4042937206
 20
10.3362117304
 30
0.0
 10
11.3950814535
 20
10.338827036
 30
0.0
 10
11.3883156041
 20
10.341309178
 30
0.0
 10
11.3838960241
 20
10.3431827482
 30
0.0
  0
SPLINE
  5
2D9
100
AcDbEntity
  8
0
100
AcDbSpline
 62
9
  6
CONTINUOUS
 70
0
 71
3
 72
18
 73
14
 74
0
 42
0.0000001
 43
0.0000001
 44
0.0000000001
 40
0.0
 40
0.0
 40
0.0
 40
0.0
 40
0.124331933
 40
0.24884941
 40
0.3735663411
 40
0.4360248656
 40
0.4985335315
 40
0.5610904438
 40
0.6236937945
 40
0.748980301
 40
0.8117038507
 40
0.8744605665
 40
1.0
 40
1.0
 40
1.0
 40
1.0
 10
11.5170792857
 20
10.387183863
 30
0.0
 10
11.5128555736
 20
10.3847820825
 30
0.0
 10
11.5041356946
 20
10.3804259516
 30
0.0
 10
11.4904200284
 20
10.3753470126
 30
0.0
 10
11.4785746476
 20
10.372391921
 30
0.0
 10
11.4689390129
 20
10.3708280426
 30
0.0
 10
11.4616468509
 20
10.3700613845
 30
0.0
 10
11.4543172107
 20
10.3697076031
 30
0.0
 10
11.4445262619
 20
10.3697924913
 30
0.0
 10
11.4347503993
 20
10.3707175058
 30
0.0
 10
11.4251062394
 20
10.3724832864
 30
0.0
 10
11.4155718824
 20
10.3748083411
 30
0.0
 10
11.4085812044
 20
10.3771750255
 30
0.0
 10
11.4040340082
 20
10.3790167882
 30
0.0
  0
LINE
  5
2DA
100
AcDbEntity
  8
0
100
AcDbLine
 62
9
  6
CONTINUOUS
 10
11.4920539032
 20
10.3437978699
 11
11.4856219792
 21
10.3331379105
  0
SPLINE
  5
2DB
100
AcDbEntity
  8
0
100
AcDbSpline
 62
9
  6
CONTINUOUS
 70
0
 71
3
 72
15
 73
11
 74
0
 42
0.0000001
 43
0.0000001
 44
0.0000000001
 40
0.0
 40
0.0
 40
0.0
 40
0.0
 40
0.1267221101
 40
0.252854417
 40
0.3784169801
 40
0.5034498015
 40
0.6280230529
 40
0.7522300688
 40
0.876179222
 40
1.0
 40
1.0
 40
1.0
 40
1.0
 10
11.4856219792
 20
10.3331379105
 30
0.0
 10
11.4815861094
 20
10.3307443591
 30
0.0
 10
11.4732649777
 20
10.3264042676
 30
0.0
 10
11.4601771563
 20
10.3213234602
 30
0.0
 10
11.4466640061
 20
10.317744832
 30
0.0
 10
11.4328917406
 20
10.3157138023
 30
0.0
 10
11.4190279757
 20
10.3152551097
 30
0.0
 10
11.4052414555
 20
10.3163752413
 30
0.0
 10
11.3917026003
 20
10.3190597546
 30
0.0
 10
11.3829450815
 20
10.321873418
 30
0.0
 10
11.3786679391
 20
10.3235247033
 30
0.0
  0
SPLINE
  5
2DC
100
AcDbEntity
  8
0
100
AcDbSpline
 62
9
  6
CONTINUOUS
 70
0
 71
3
 72
57
 73
53
 74
0
 42
0.0000001
 43
0.0000001
 44
0.0000000001
 40
0.0
 40
0.0
 40
0.0
 40
0.0
 40
0.0421517718
 40
0.0842381347
 40
0.1262611331
 40
0.1472481571
 40
0.1682205484
 40
0.1891786005
 40
0.2101213219
 40
0.2310518299
 40
0.2519718749
 40
0.2728816958
 40
0.293790103
 40
0.3147001657
 40
0.3356311257
 40
0.3461107205
 40
0.3566071446
 40
0.3618657992
 40
0.3671329052
 40
0.3724114786
 40
0.3777038551
 40
0.3803579906
 40
0.3830202551
 40
0.3856918881
 40
0.3883757739
 40
0.3910815741
 40
0.3938226595
 40
0.3994737618
 40
0.4024401642
 40
0.4055412283
 40
0.4122364585
 40
0.4196197366
 40
0.4275966096
 40
0.4360613666
 40
0.4449291609
 40
0.4541383605
 40
0.4636462572
 40
0.4834383412
 40
0.5041280745
 40
0.5255911378
 40
0.547722941
 40
0.5704399066
 40
0.5936768401
 40
0.6173764771
 40
0.641486112
 40
0.6907440915
 40
0.7410796379
 40
0.7921927832
 40
0.8438429583
 40
0.8958140196
 40
0.9479220178
 40
1.0
 40
1.0
 40
1.0
 40
1.0
 10
11.4856219709
 20
10.3331379055
 30
0.0
 10
11.4849170919
 20
10.3319704397
 30
0.0
 10
11.4835201406
 20
10.3296302184
 30
0.0
 10
11.4814650591
 20
10.3260997201
 30
0.0
 10
11.4797899323
 20
10.3231406248
 30
0.0
 10
11.4784757846
 20
10.3207624157
 30
0.0
 10
11.477504295
 20
10.3189735756
 30
0.0
 10
11.4765474958
 20
10.3171784556
 30
0.0
 10
11.4756070257
 20
10.3153762491
 30
0.0
 10
11.4746842147
 20
10.3135663136
 30
0.0
 10
11.4737805882
 20
10.3117478984
 30
0.0
 10
11.472899674
 20
10.3099191579
 30
0.0
 10
11.4720426841
 20
10.3080794182
 30
0.0
 10
11.4712152834
 20
10.3062254101
 30
0.0
 10
11.4705524241
 20
10.3046677237
 30
0.0
 10
11.4700398695
 20
10.3034124791
 30
0.0
 10
11.4697268725
 20
10.3026235053
 30
0.0
 10
11.4694777738
 20
10.3019906233
 30
0.0
 10
11.4692911187
 20
10.3015145826
 30
0.0
 10
11.4691019675
 20
10.3010383569
 30
0.0
 10
11.468941516
 20
10.3006416869
 30
0.0
 10
11.4688077451
 20
10.3003255845
 30
0.0
 10
11.4687028928
 20
10.300089352
 30
0.0
 10
11.4685929017
 20
10.2998544019
 30
0.0
 10
11.4684766009
 20
10.2996209133
 30
0.0
 10
11.4683492128
 20
10.299390597
 30
0.0
 10
11.4681574355
 20
10.2990869089
 30
0.0
 10
11.4679285086
 20
10.2987969959
 30
0.0
 10
11.4676547523
 20
10.2985339406
 30
0.0
 10
11.4673302098
 20
10.298277607
 30
0.0
 10
11.4668457045
 20
10.2979991052
 30
0.0
 10
11.4661812348
 20
10.297734968
 30
0.0
 10
11.4654399213
 20
10.2975205964
 30
0.0
 10
11.4646386476
 20
10.2973494278
 30
0.0
 10
11.4637900894
 20
10.297215615
 30
0.0
 10
11.4629030771
 20
10.297114987
 30
0.0
 10
11.4616605887
 20
10.2970198598
 30
0.0
 10
11.4600429639
 20
10.2969733049
 30
0.0
 10
11.4580386389
 20
10.297014669
 30
0.0
 10
11.4559622981
 20
10.2971436842
 30
0.0
 10
11.4538266397
 20
10.2973520145
 30
0.0
 10
11.4516415587
 20
10.2976333701
 30
0.0
 10
11.4494150234
 20
10.297982814
 30
0.0
 10
11.4471536259
 20
10.2983958792
 30
0.0
 10
11.4440777111
 20
10.2990304408
 30
0.0
 10
11.440184458
 20
10.2999627594
 30
0.0
 10
11.4354845272
 20
10.3012638611
 30
0.0
 10
11.4307532869
 20
10.3027327139
 30
0.0
 10
11.4260149484
 20
10.3043500982
 30
0.0
 10
11.421288581
 20
10.306096969
 30
0.0
 10
11.4165900977
 20
10.3079551916
 30
0.0
 10
11.413481843
 20
10.3092600803
 30
0.0
 10
11.4119348712
 20
10.3099277463
 30
0.0
  0
LINE
  5
2DD
100
AcDbEntity
  8
0
100
AcDbLine
 62
9
  6
CONTINUOUS
 10
10.6025827748
 20
10.3437978674
 11
10.5775573716
 21
10.3871838182
  0
SPLINE
  5
2DE
100
AcDbEntity
  8
0
100
AcDbSpline
 62
9
  6
CONTINUOUS
 70
0
 71
3
 72
18
 73
14
 74
0
 42
0.0000001
 43
0.0000001
 44
0.0000000001
 40
0.0
 40
0.0
 40
0.0
 40
0.0
 40
0.1255394346
 40
0.2509687205
 40
0.3136581415
 40
0.3763061635
 40
0.4389100006
 40
0.5014676758
 40
0.6263849709
 40
0.6887927187
 40
0.7511505449
 40
0.8756679301
 40
1.0
 40
1.0
 40
1.0
 40
1.0
 10
10.6906026155
 20
10.3790169099
 30
0.0
 10
10.6860558128
 20
10.3771742149
 30
0.0
 10
10.6767417912
 20
10.3740201528
 30
0.0
 10
10.6647252485
 20
10.371460468
 30
0.0
 10
10.6549952504
 20
10.3702546128
 30
0.0
 10
10.6476624152
 20
10.369771076
 30
0.0
 10
10.6403189997
 20
10.3697075523
 30
0.0
 10
10.6305534719
 20
10.3701794985
 30
0.0
 10
10.6208500161
 20
10.3714767934
 30
0.0
 10
10.6113168734
 20
10.3735753078
 30
0.0
 10
10.6019290863
 20
10.376194789
 30
0.0
 10
10.5905002358
 20
10.380426044
 30
0.0
 10
10.5817810516
 20
10.384782
 30
0.0
 10
10.5775573716
 20
10.3871838182
 30
0.0
  0
LINE
  5
2DF
100
AcDbEntity
  8
0
100
AcDbLine
 62
9
  6
CONTINUOUS
 10
10.6090146863
 20
10.3331379284
 11
10.6025827748
 21
10.3437978674
  0
SPLINE
  5
2E0
100
AcDbEntity
  8
0
100
AcDbSpline
 62
9
  6
CONTINUOUS
 70
0
 71
3
 72
18
 73
14
 74
0
 42
0.0000001
 43
0.0000001
 44
0.0000000001
 40
0.0
 40
0.0
 40
0.0
 40
0.0
 40
0.1197196224
 40
0.2410539742
 40
0.3023675641
 40
0.3640932215
 40
0.4262226278
 40
0.4887437075
 40
0.6148441161
 40
0.742252184
 40
0.8063897769
 40
0.8707598676
 40
1.0
 40
1.0
 40
1.0
 40
1.0
 10
10.6025827748
 20
10.3437978674
 30
0.0
 10
10.6065850964
 20
10.341860218
 30
0.0
 10
10.6148812617
 20
10.33843187
 30
0.0
 10
10.6257058793
 20
10.3353485134
 30
0.0
 10
10.6346153079
 20
10.3335940994
 30
0.0
 10
10.6414295451
 20
10.3326367551
 30
0.0
 10
10.6483301902
 20
10.3320456735
 30
0.0
 10
10.6576426695
 20
10.3317475578
 30
0.0
 10
10.6693905333
 20
10.3323043338
 30
0.0
 10
10.6810765512
 20
10.3340775428
 30
0.0
 10
10.6903429594
 20
10.3362117245
 30
0.0
 10
10.6995552252
 20
10.3388270324
 30
0.0
 10
10.7063210735
 20
10.3413091765
 30
0.0
 10
10.7107406525
 20
10.3431827482
 30
0.0
  0
SPLINE
  5
2E1
100
AcDbEntity
  8
0
100
AcDbSpline
 62
9
  6
CONTINUOUS
 70
0
 71
3
 72
55
 73
51
 74
0
 42
0.0000001
 43
0.0000001
 44
0.0000000001
 40
0.0
 40
0.0
 40
0.0
 40
0.0
 40
0.0520783416
 40
0.1041867932
 40
0.156158288
 40
0.2078093288
 40
0.2589223296
 40
0.3092586102
 40
0.3585163134
 40
0.3826262737
 40
0.4063259996
 40
0.4295630032
 40
0.4522797315
 40
0.4744110969
 40
0.4958745533
 40
0.5165642972
 40
0.5363564147
 40
0.5458643356
 40
0.5550733038
 40
0.5639411091
 40
0.5724065347
 40
0.5803828529
 40
0.5877654127
 40
0.5944631236
 40
0.5975639546
 40
0.6005287545
 40
0.6061778703
 40
0.6116260248
 40
0.6169794952
 40
0.6222956027
 40
0.6275882958
 40
0.6328666019
 40
0.6381340754
 40
0.6433924406
 40
0.653889077
 40
0.6643685188
 40
0.674838041
 40
0.6852997082
 40
0.7062097678
 40
0.7271182652
 40
0.7480280186
 40
0.768948118
 40
0.7898785292
 40
0.810821354
 40
0.8317794258
 40
0.8527517689
 40
0.8737388131
 40
0.9157618146
 40
0.9578482057
 40
1.0
 40
1.0
 40
1.0
 40
1.0
 10
10.6827017809
 20
10.3099277315
 30
0.0
 10
10.6811548078
 20
10.3092600501
 30
0.0
 10
10.6780465453
 20
10.3079551329
 30
0.0
 10
10.6733480143
 20
10.3060969547
 30
0.0
 10
10.6686215972
 20
10.3043500947
 30
0.0
 10
10.6638832563
 20
10.3027326392
 30
0.0
 10
10.6591519664
 20
10.3012638306
 30
0.0
 10
10.6544520532
 20
10.2999626717
 30
0.0
 10
10.6505587676
 20
10.2990304233
 30
0.0
 10
10.6474828621
 20
10.2983958351
 30
0.0
 10
10.6452214535
 20
10.2979827749
 30
0.0
 10
10.6429949271
 20
10.2976333281
 30
0.0
 10
10.6408098686
 20
10.2973519891
 30
0.0
 10
10.6386742194
 20
10.2971437214
 30
0.0
 10
10.636597888
 20
10.2970146627
 30
0.0
 10
10.6345935528
 20
10.2969733185
 30
0.0
 10
10.6329759306
 20
10.2970198778
 30
0.0
 10
10.6317334503
 20
10.2971149976
 30
0.0
 10
10.6308464489
 20
10.2972156487
 30
0.0
 10
10.6299978822
 20
10.2973494839
 30
0.0
 10
10.6291965919
 20
10.2975205621
 30
0.0
 10
10.6284552862
 20
10.2977349504
 30
0.0
 10
10.6277909171
 20
10.2979993573
 30
0.0
 10
10.6273061141
 20
10.2982774425
 30
0.0
 10
10.6269815807
 20
10.298533836
 30
0.0
 10
10.6267082028
 20
10.2987971544
 30
0.0
 10
10.6264255291
 20
10.2991564268
 30
0.0
 10
10.6261551689
 20
10.2996160549
 30
0.0
 10
10.6259323046
 20
10.3000878446
 30
0.0
 10
10.6257273986
 20
10.3005619092
 30
0.0
 10
10.6255345125
 20
10.3010383813
 30
0.0
 10
10.6253457269
 20
10.3015147613
 30
0.0
 10
10.6251586563
 20
10.3019906311
 30
0.0
 10
10.6249099409
 20
10.3026236723
 30
0.0
 10
10.6245966176
 20
10.3034125058
 30
0.0
 10
10.6242122354
 20
10.3043544886
 30
0.0
 10
10.6238187308
 20
10.3052914686
 30
0.0
 10
10.6232833727
 20
10.3065348315
 30
0.0
 10
10.6225939522
 20
10.3080794956
 30
0.0
 10
10.6217369517
 20
10.30991922
 30
0.0
 10
10.6208560672
 20
10.3117479734
 30
0.0
 10
10.6199524203
 20
10.3135663684
 30
0.0
 10
10.6190296373
 20
10.3153763147
 30
0.0
 10
10.6180891451
 20
10.3171785049
 30
0.0
 10
10.6171323533
 20
10.3189736256
 30
0.0
 10
10.6161608678
 20
10.3207624618
 30
0.0
 10
10.6148467234
 20
10.323140664
 30
0.0
 10
10.6131716016
 20
10.3260997542
 30
0.0
 10
10.6111165202
 20
10.3296302426
 30
0.0
 10
10.6097195721
 20
10.3319704597
 30
0.0
 10
10.6090146949
 20
10.3331379234
 30
0.0
  0
SPLINE
  5
2E2
100
AcDbEntity
  8
0
100
AcDbSpline
 62
9
  6
CONTINUOUS
 70
0
 71
3
 72
15
 73
11
 74
0
 42
0.0000001
 43
0.0000001
 44
0.0000000001
 40
0.0
 40
0.0
 40
0.0
 40
0.0
 40
0.1267222508
 40
0.252854672
 40
0.3784173061
 40
0.5034501503
 40
0.6280233824
 40
0.7522303364
 40
0.8761793803
 40
1.0
 40
1.0
 40
1.0
 40
1.0
 10
10.6090146949
 20
10.3331379234
 30
0.0
 10
10.6130505713
 20
10.3307443735
 30
0.0
 10
10.6213717151
 20
10.326404286
 30
0.0
 10
10.6344595494
 20
10.3213234813
 30
0.0
 10
10.6479727067
 20
10.3177448534
 30
0.0
 10
10.6617449739
 20
10.3157138218
 30
0.0
 10
10.6756087357
 20
10.3152551262
 30
0.0
 10
10.6893952484
 20
10.3163752534
 30
0.0
 10
10.7029340915
 20
10.319059761
 30
0.0
 10
10.7116916008
 20
10.3218734202
 30
0.0
 10
10.7159687375
 20
10.3235247033
 30
0.0
  0
SPLINE
  5
2E3
100
AcDbEntity
  8
0
100
AcDbSpline
 62
9
  6
CONTINUOUS
 70
0
 71
3
 72
15
 73
11
 74
0
 42
0.0000001
 43
0.0000001
 44
0.0000000001
 40
0.0
 40
0.0
 40
0.0
 40
0.0
 40
0.1290071566
 40
0.2575196703
 40
0.3850752913
 40
0.5113845233
 40
0.6361648757
 40
0.7592214313
 40
0.8805146961
 40
1.0
 40
1.0
 40
1.0
 40
1.0
 10
10.5877687297
 20
10.3431951651
 30
0.0
 10
10.5883518124
 20
10.3435067446
 30
0.0
 10
10.5895510721
 20
10.344065057
 30
0.0
 10
10.5914247212
 20
10.3446966536
 30
0.0
 10
10.59334404
 20
10.3451119952
 30
0.0
 10
10.5952791509
 20
10.3453047703
 30
0.0
 10
10.5972006532
 20
10.3452716091
 30
0.0
 10
10.5990793007
 20
10.3450130348
 30
0.0
 10
10.6008856093
 20
10.3445325712
 30
0.0
 10
10.6020321028
 20
10.3440656141
 30
0.0
 10
10.6025827756
 20
10.343797866
 30
0.0
  0
SPLINE
  5
2E4
100
AcDbEntity
  8
0
100
AcDbSpline
 62
9
  6
CONTINUOUS
 70
0
 71
3
 72
15
 73
11
 74
0
 42
0.0000001
 43
0.0000001
 44
0.0000000001
 40
0.0
 40
0.0
 40
0.0
 40
0.0
 40
0.1295161623
 40
0.2582624503
 40
0.3858436476
 40
0.5120320397
 40
0.6366140971
 40
0.7594609575
 40
0.8805866581
 40
1.0
 40
1.0
 40
1.0
 40
1.0
 10
10.5950425961
 20
10.3319855024
 30
0.0
 10
10.595587751
 20
10.3322930137
 30
0.0
 10
10.5967078145
 20
10.3328497693
 30
0.0
 10
10.598458913
 20
10.3335002286
 30
0.0
 10
10.6002543552
 20
10.333955339
 30
0.0
 10
10.6020689135
 20
10.3342088111
 30
0.0
 10
10.6038777168
 20
10.3342567898
 30
0.0
 10
10.6056559111
 20
10.3340986157
 30
0.0
 10
10.6073783119
 20
10.3337360875
 30
0.0
 10
10.6084815378
 20
10.3333587759
 30
0.0
 10
10.6090146877
 20
10.3331379262
 30
0.0
  0
SPLINE
  5
2E5
100
AcDbEntity
  8
0
100
AcDbSpline
 62
9
  6
CONTINUOUS
 70
0
 71
3
 72
15
 73
11
 74
0
 42
0.0000001
 43
0.0000001
 44
0.0000000001
 40
0.0
 40
0.0
 40
0.0
 40
0.0
 40
0.1295161537
 40
0.258262329
 40
0.385843385
 40
0.5120316277
 40
0.6366135955
 40
0.7594604741
 40
0.8805863355
 40
1.0
 40
1.0
 40
1.0
 40
1.0
 10
11.4995932733
 20
10.3319859322
 30
0.0
 10
11.4990481371
 20
10.332293397
 30
0.0
 10
11.4979281182
 20
10.3328500649
 30
0.0
 10
11.4961771037
 20
10.3335004108
 30
0.0
 10
11.4943817598
 20
10.3339554284
 30
0.0
 10
11.4925673094
 20
10.3342088302
 30
0.0
 10
11.4907586193
 20
10.3342567623
 30
0.0
 10
11.488980539
 20
10.3340985661
 30
0.0
 10
11.487258248
 20
10.3337360402
 30
0.0
 10
11.4861550909
 20
10.3333587462
 30
0.0
 10
11.4856219731
 20
10.3331379093
 30
0.0
  0
SPLINE
  5
2E6
100
AcDbEntity
  8
0
100
AcDbSpline
 62
9
  6
CONTINUOUS
 70
0
 71
3
 72
15
 73
11
 74
0
 42
0.0000001
 43
0.0000001
 44
0.0000000001
 40
0.0
 40
0.0
 40
0.0
 40
0.0
 40
0.1290071841
 40
0.2575197194
 40
0.3850753241
 40
0.51138454
 40
0.6361648761
 40
0.7592214196
 40
0.88051468
 40
1.0
 40
1.0
 40
1.0
 40
1.0
 10
11.5068679481
 20
10.3431951672
 30
0.0
 10
11.5062848654
 20
10.343506747
 30
0.0
 10
11.5050856058
 20
10.34406506
 30
0.0
 10
11.503211957
 20
10.3446966574
 30
0.0
 10
11.5012926385
 20
10.3451119997
 30
0.0
 10
11.4993575281
 20
10.3453047752
 30
0.0
 10
11.4974360261
 20
10.3452716145
 30
0.0
 10
11.4955573789
 20
10.3450130404
 30
0.0
 10
11.4937510704
 20
10.3445325769
 30
0.0
 10
11.492604577
 20
10.3440656196
 30
0.0
 10
11.4920539042
 20
10.3437978715
 30
0.0
  0
SPLINE
  5
2E7
100
AcDbEntity
  8
0
100
AcDbSpline
 62
9
  6
CONTINUOUS
 70
0
 71
3
 72
15
 73
11
 74
0
 42
0.0000001
 43
0.0000001
 44
0.0000000001
 40
0.0
 40
0.0
 40
0.0
 40
0.0
 40
0.1289771275
 40
0.2574673141
 40
0.3850100988
 40
0.511316456
 40
0.6361037183
 40
0.7591757327
 40
0.8804904101
 40
1.0
 40
1.0
 40
1.0
 40
1.0
 10
11.5318616134
 20
10.3865406446
 30
0.0
 10
11.5312804645
 20
10.3868523628
 30
0.0
 10
11.5300851095
 20
10.3874113392
 30
0.0
 10
11.5282172689
 20
10.3880451315
 30
0.0
 10
11.5263034381
 20
10.3884639071
 30
0.0
 10
11.5243732608
 20
10.3886613333
 30
0.0
 10
11.5224559147
 20
10.3886339908
 30
0.0
 10
11.5205804359
 20
10.3883823138
 30
0.0
 10
11.518776107
 20
10.3879097049
 30
0.0
 10
11.5176300365
 20
10.387448567
 30
0.0
 10
11.5170793031
 20
10.3871838207
 30
0.0
  0
LINE
  5
2E8
100
AcDbEntity
  8
0
100
AcDbLine
 62
9
  6
CONTINUOUS
 10
10.4837948048
 20
10.3330500087
 11
10.5088554858
 21
10.2896843951
  0
SPLINE
  5
2E9
100
AcDbEntity
  8
0
100
AcDbSpline
 62
9
  6
CONTINUOUS
 70
0
 71
3
 72
18
 73
14
 74
0
 42
0.0000001
 43
0.0000001
 44
0.0000000001
 40
0.0
 40
0.0
 40
0.0
 40
0.0
 40
0.1197195929
 40
0.2410539281
 40
0.3023675143
 40
0.3640931707
 40
0.4262225783
 40
0.4887436609
 40
0.614844079
 40
0.7422521592
 40
0.8063897586
 40
0.8707598558
 40
1.0
 40
1.0
 40
1.0
 40
1.0
 10
10.5088554858
 20
10.2896843951
 30
0.0
 10
10.5085323778
 20
10.2852494595
 30
0.0
 10
10.5073533298
 20
10.2763505979
 30
0.0
 10
10.5046112849
 20
10.2654345285
 30
0.0
 10
10.5016759371
 20
10.2568415313
 30
0.0
 10
10.4990979027
 20
10.2504615571
 30
0.0
 10
10.4961594718
 20
10.2441898826
 30
0.0
 10
10.491761408
 20
10.2359759808
 30
0.0
 10
10.4854052944
 20
10.2260804193
 30
0.0
 10
10.4780266425
 20
10.2168466338
 30
0.0
 10
10.471545184
 20
10.2098887778
 30
0.0
 10
10.4646741294
 20
10.2032183733
 30
0.0
 10
10.4591416066
 20
10.1986000468
 30
0.0
 10
10.4553092572
 20
10.1957093634
 30
0.0
  0
SPLINE
  5
2EA
100
AcDbEntity
  8
0
100
AcDbSpline
 62
9
  6
CONTINUOUS
 70
0
 71
3
 72
18
 73
14
 74
0
 42
0.0000001
 43
0.0000001
 44
0.0000000001
 40
0.0
 40
0.0
 40
0.0
 40
0.0
 40
0.124331933
 40
0.24884941
 40
0.3735663411
 40
0.4360248656
 40
0.4985335315
 40
0.5610904438
 40
0.6236937945
 40
0.748980301
 40
0.8117038507
 40
0.8744605665
 40
1.0
 40
1.0
 40
1.0
 40
1.0
 10
10.4837948048
 20
10.3330500087
 30
0.0
 10
10.4837629517
 20
10.3281912765
 30
0.0
 10
10.4831755323
 20
10.3184615743
 30
0.0
 10
10.4807161894
 20
10.3040439894
 30
0.0
 10
10.4773526833
 20
10.2923080429
 30
0.0
 10
10.4738892244
 20
10.2831813993
 30
0.0
 10
10.4709070888
 20
10.2764828728
 30
0.0
 10
10.4675486524
 20
10.2699583275
 30
0.0
 10
10.4625796627
 20
10.2615215611
 30
0.0
 10
10.4568906453
 20
10.253517923
 30
0.0
 10
10.4505393545
 20
10.2460487258
 30
0.0
 10
10.4437586196
 20
10.2389542579
 30
0.0
 10
10.4382136718
 20
10.2340834953
 30
0.0
 10
10.4343450604
 20
10.2310663892
 30
0.0
  0
LINE
  5
2EB
100
AcDbEntity
  8
0
100
AcDbLine
 62
9
  6
CONTINUOUS
 10
10.5088554858
 20
10.2896843952
 11
10.5148713195
 21
10.2787842059
  0
SPLINE
  5
2EC
100
AcDbEntity
  8
0
100
AcDbSpline
 62
9
  6
CONTINUOUS
 70
0
 71
3
 72
15
 73
11
 74
0
 42
0.0000001
 43
0.0000001
 44
0.0000000001
 40
0.0
 40
0.0
 40
0.0
 40
0.0
 40
0.1267221101
 40
0.252854417
 40
0.3784169801
 40
0.5034498015
 40
0.6280230529
 40
0.7522300688
 40
0.876179222
 40
1.0
 40
1.0
 40
1.0
 40
1.0
 10
10.5148713195
 20
10.2787842059
 30
0.0
 10
10.5149262608
 20
10.2740922645
 30
0.0
 10
10.5145243245
 20
10.2647159073
 30
0.0
 10
10.5123805221
 20
10.2508411178
 30
0.0
 10
10.5087231299
 20
10.2373490723
 30
0.0
 10
10.5035959205
 20
10.2244064256
 30
0.0
 10
10.4970612774
 20
10.2121707068
 30
0.0
 10
10.489197955
 20
10.2007912958
 30
0.0
 10
10.4801036707
 20
10.1904085599
 30
0.0
 10
10.4732882072
 20
10.1842311579
 30
0.0
 10
10.469719581
 20
10.1813526865
 30
0.0
  0
SPLINE
  5
2ED
100
AcDbEntity
  8
0
100
AcDbSpline
 62
9
  6
CONTINUOUS
 70
0
 71
3
 72
57
 73
53
 74
0
 42
0.0000001
 43
0.0000001
 44
0.0000000001
 40
0.0
 40
0.0
 40
0.0
 40
0.0
 40
0.0421517718
 40
0.0842381347
 40
0.1262611331
 40
0.1472481571
 40
0.1682205484
 40
0.1891786005
 40
0.2101213219
 40
0.2310518299
 40
0.2519718749
 40
0.2728816958
 40
0.293790103
 40
0.3147001657
 40
0.3356311257
 40
0.3461107205
 40
0.3566071446
 40
0.3618657992
 40
0.3671329052
 40
0.3724114786
 40
0.3777038551
 40
0.3803579906
 40
0.3830202551
 40
0.3856918881
 40
0.3883757739
 40
0.3910815741
 40
0.3938226595
 40
0.3994737618
 40
0.4024401642
 40
0.4055412283
 40
0.4122364585
 40
0.4196197366
 40
0.4275966096
 40
0.4360613666
 40
0.4449291609
 40
0.4541383605
 40
0.4636462572
 40
0.4834383412
 40
0.5041280745
 40
0.5255911378
 40
0.547722941
 40
0.5704399066
 40
0.5936768401
 40
0.6173764771
 40
0.641486112
 40
0.6907440915
 40
0.7410796379
 40
0.7921927832
 40
0.8438429583
 40
0.8958140196
 40
0.9479220178
 40
1.0
 40
1.0
 40
1.0
 40
1.0
 10
10.5148713196
 20
10.2787841962
 30
0.0
 10
10.5155299351
 20
10.2775900202
 30
0.0
 10
10.5168581506
 20
10.2752101142
 30
0.0
 10
10.5188881111
 20
10.2716651123
 30
0.0
 10
10.5206131993
 20
10.2687348623
 30
0.0
 10
10.522015715
 20
10.2664076724
 30
0.0
 10
10.5230791512
 20
10.2646719177
 30
0.0
 10
10.5241553711
 20
10.2629457453
 30
0.0
 10
10.5252458926
 20
10.261230171
 30
0.0
 10
10.5263519373
 20
10.2595260256
 30
0.0
 10
10.5274749178
 20
10.2578342545
 30
0.0
 10
10.5286181964
 20
10.2561569901
 30
0.0
 10
10.5297829628
 20
10.2544949453
 30
0.0
 10
10.5309748806
 20
10.2528513911
 30
0.0
 10
10.5319924469
 20
10.251498495
 30
0.0
 10
10.5328232433
 20
10.2504269874
 30
0.0
 10
10.5333500161
 20
10.2497614372
 30
0.0
 10
10.5337735587
 20
10.2492292703
 30
0.0
 10
10.5340924945
 20
10.248829602
 30
0.0
 10
10.5344103424
 20
10.2484276793
 30
0.0
 10
10.534673643
 20
10.2480903892
 30
0.0
 10
10.5348805102
 20
10.247816489
 30
0.0
 10
10.5350326675
 20
10.2476075681
 30
0.0
 10
10.5351811446
 20
10.2473948379
 30
0.0
 10
10.5353252014
 20
10.2471773741
 30
0.0
 10
10.5354609671
 20
10.2469518947
 30
0.0
 10
10.53562808
 20
10.2466339666
 30
0.0
 10
10.5357646886
 20
10.2462907535
 30
0.0
 10
10.535855623
 20
10.2459221461
 30
0.0
 10
10.5359153432
 20
10.2455129172
 30
0.0
 10
10.5359142801
 20
10.2449540724
 30
0.0
 10
10.5358107948
 20
10.2442465561
 30
0.0
 10
10.5356257893
 20
10.243497374
 30
0.0
 10
10.5353733888
 20
10.2427178663
 30
0.0
 10
10.535064995
 20
10.241916087
 30
0.0
 10
10.5347086352
 20
10.2410975978
 30
0.0
 10
10.5341697737
 20
10.2399740077
 30
0.0
 10
10.5334012789
 20
10.238549826
 30
0.0
 10
10.5323632941
 20
10.2368347117
 30
0.0
 10
10.5312133932
 20
10.2351010555
 30
0.0
 10
10.5299651448
 20
10.2333556862
 30
0.0
 10
10.5286289432
 20
10.2316040283
 30
0.0
 10
10.5272130482
 20
10.2298505141
 30
0.0
 10
10.5257246245
 20
10.2280986191
 30
0.0
 10
10.5236371206
 20
10.2257520795
 30
0.0
 10
10.5208830824
 20
10.2228465828
 30
0.0
 10
10.5174063299
 20
10.2194268741
 30
0.0
 10
10.5137686459
 20
10.2160639262
 30
0.0
 10
10.5099987807
 20
10.2127690968
 30
0.0
 10
10.5061227627
 20
10.209549378
 30
0.0
 10
10.502164253
 20
10.2064094834
 30
0.0
 10
10.4994800588
 20
10.2043701002
 30
0.0
 10
10.4981283572
 20
10.2033642164
 30
0.0
  0
SPLINE
  5
2EE
100
AcDbEntity
  8
0
100
AcDbSpline
 62
9
  6
CONTINUOUS
 70
0
 71
3
 72
15
 73
11
 74
0
 42
0.0000001
 43
0.0000001
 44
0.0000000001
 40
0.0
 40
0.0
 40
0.0
 40
0.0
 40
0.1295161537
 40
0.258262329
 40
0.385843385
 40
0.5120316277
 40
0.6366135955
 40
0.7594604741
 40
0.8805863355
 40
1.0
 40
1.0
 40
1.0
 40
1.0
 10
10.5228546089
 20
10.2903077124
 30
0.0
 10
10.5223157685
 20
10.289989343
 30
0.0
 10
10.5212736705
 20
10.2892977121
 30
0.0
 10
10.5198349473
 20
10.288106462
 30
0.0
 10
10.5185432184
 20
10.2867791574
 30
0.0
 10
10.5174165409
 20
10.2853344982
 30
0.0
 10
10.5164706854
 20
10.2837920927
 30
0.0
 10
10.5157186472
 20
10.2821731318
 30
0.0
 10
10.5151714583
 20
10.2805003211
 30
0.0
 10
10.5149466259
 20
10.279356312
 30
0.0
 10
10.5148713175
 20
10.2787842
 30
0.0
  0
SPLINE
  5
2EF
100
AcDbEntity
  8
0
100
AcDbSpline
 62
9
  6
CONTINUOUS
 70
0
 71
3
 72
15
 73
11
 74
0
 42
0.0000001
 43
0.0000001
 44
0.0000000001
 40
0.0
 40
0.0
 40
0.0
 40
0.0
 40
0.1290071841
 40
0.2575197194
 40
0.3850753241
 40
0.51138454
 40
0.6361648761
 40
0.7592214196
 40
0.88051468
 40
1.0
 40
1.0
 40
1.0
 40
1.0
 10
10.5167844641
 20
10.302212383
 30
0.0
 10
10.5162230867
 20
10.3018632085
 30
0.0
 10
10.5151399437
 20
10.3011037758
 30
0.0
 10
10.5136561399
 20
10.299796947
 30
0.0
 10
10.5123367837
 20
10.2983424396
 30
0.0
 10
10.5112022799
 20
10.2967629725
 30
0.0
 10
10.510270247
 20
10.2950823226
 30
0.0
 10
10.5095548551
 20
10.2933260794
 30
0.0
 10
10.5090677945
 20
10.2915215386
 30
0.0
 10
10.5088989446
 20
10.2902951675
 30
0.0
 10
10.5088554849
 20
10.2896843968
 30
0.0
  0
SPLINE
  5
2F0
100
AcDbEntity
  8
0
100
AcDbSpline
 62
9
  6
CONTINUOUS
 70
0
 71
3
 72
15
 73
11
 74
0
 42
0.0000001
 43
0.0000001
 44
0.0000000001
 40
0.0
 40
0.0
 40
0.0
 40
0.0
 40
0.1289771275
 40
0.2574673141
 40
0.3850100988
 40
0.511316456
 40
0.6361037183
 40
0.7591757327
 40
0.8804904101
 40
1.0
 40
1.0
 40
1.0
 40
1.0
 10
10.4917430122
 20
10.3455302709
 30
0.0
 10
10.4911824819
 20
10.3451828402
 30
0.0
 10
10.4901007166
 20
10.3444271207
 30
0.0
 10
10.488617916
 20
10.3431264194
 30
0.0
 10
10.4872983304
 20
10.3416783811
 30
0.0
 10
10.4861622656
 20
10.3401055116
 30
0.0
 10
10.4852272718
 20
10.3384313699
 30
0.0
 10
10.4845074911
 20
10.3366813191
 30
0.0
 10
10.4840146179
 20
10.33488242
 30
0.0
 10
10.4838409398
 20
10.3336593249
 30
0.0
 10
10.4837948502
 20
10.3330500026
 30
0.0
  0
LINE
  5
2F1
100
AcDbEntity
  8
0
100
AcDbLine
 62
9
  6
CONTINUOUS
 10
10.5088554872
 20
8.6408482595
 11
10.4837948533
 21
8.5974826492
  0
SPLINE
  5
2F2
100
AcDbEntity
  8
0
100
AcDbSpline
 62
9
  6
CONTINUOUS
 70
0
 71
3
 72
18
 73
14
 74
0
 42
0.0000001
 43
0.0000001
 44
0.0000000001
 40
0.0
 40
0.0
 40
0.0
 40
0.0
 40
0.1255394346
 40
0.2509687205
 40
0.3136581415
 40
0.3763061635
 40
0.4389100006
 40
0.5014676758
 40
0.6263849709
 40
0.6887927187
 40
0.7511505449
 40
0.8756679301
 40
1.0
 40
1.0
 40
1.0
 40
1.0
 10
10.4343449814
 20
8.6994661563
 30
0.0
 10
10.4382142034
 20
8.6964498572
 30
0.0
 10
10.4456027121
 20
8.6899607089
 30
0.0
 10
10.4538277355
 20
8.6808339201
 30
0.0
 10
10.4597370359
 20
8.6730104222
 30
0.0
 10
10.4638222086
 20
8.666901769
 30
0.0
 10
10.4675489294
 20
8.6605739464
 30
0.0
 10
10.4720229759
 20
8.6518807782
 30
0.0
 10
10.4757512135
 20
8.6428286915
 30
0.0
 10
10.4787004181
 20
8.6335234906
 30
0.0
 10
10.4811257744
 20
8.6240836878
 30
0.0
 10
10.4831758253
 20
8.6120703855
 30
0.0
 10
10.4837630488
 20
8.6023413725
 30
0.0
 10
10.4837948533
 20
8.5974826492
 30
0.0
  0
LINE
  5
2F3
100
AcDbEntity
  8
0
100
AcDbLine
 62
9
  6
CONTINUOUS
 10
10.5148713094
 20
8.6517484278
 11
10.5088554872
 21
8.6408482595
  0
SPLINE
  5
2F4
100
AcDbEntity
  8
0
100
AcDbSpline
 62
9
  6
CONTINUOUS
 70
0
 71
3
 72
18
 73
14
 74
0
 42
0.0000001
 43
0.0000001
 44
0.0000000001
 40
0.0
 40
0.0
 40
0.0
 40
0.0
 40
0.1197196224
 40
0.2410539742
 40
0.3023675641
 40
0.3640932215
 40
0.4262226278
 40
0.4887437075
 40
0.6148441161
 40
0.742252184
 40
0.8063897769
 40
0.8707598676
 40
1.0
 40
1.0
 40
1.0
 40
1.0
 10
10.5088554872
 20
8.6408482595
 30
0.0
 10
10.50853238
 20
8.6452831964
 30
0.0
 10
10.5073533339
 20
8.6541820603
 30
0.0
 10
10.5046112902
 20
8.6650981324
 30
0.0
 10
10.501675943
 20
8.6736911309
 30
0.0
 10
10.4990979088
 20
8.6800711056
 30
0.0
 10
10.496159478
 20
8.6863427803
 30
0.0
 10
10.4917614141
 20
8.6945566818
 30
0.0
 10
10.4854053
 20
8.7044522423
 30
0.0
 10
10.478026647
 20
8.7136860262
 30
0.0
 10
10.4715451874
 20
8.7206438803
 30
0.0
 10
10.4646741314
 20
8.7273142825
 30
0.0
 10
10.4591416074
 20
8.7319326069
 30
0.0
 10
10.4553092572
 20
8.7348232888
 30
0.0
  0
SPLINE
  5
2F5
100
AcDbEntity
  8
0
100
AcDbSpline
 62
9
  6
CONTINUOUS
 70
0
 71
3
 72
55
 73
51
 74
0
 42
0.0000001
 43
0.0000001
 44
0.0000000001
 40
0.0
 40
0.0
 40
0.0
 40
0.0
 40
0.0520783416
 40
0.1041867932
 40
0.156158288
 40
0.2078093288
 40
0.2589223296
 40
0.3092586102
 40
0.3585163134
 40
0.3826262737
 40
0.4063259996
 40
0.4295630032
 40
0.4522797315
 40
0.4744110969
 40
0.4958745533
 40
0.5165642972
 40
0.5363564147
 40
0.5458643356
 40
0.5550733038
 40
0.5639411091
 40
0.5724065347
 40
0.5803828529
 40
0.5877654127
 40
0.5944631236
 40
0.5975639546
 40
0.6005287545
 40
0.6061778703
 40
0.6116260248
 40
0.6169794952
 40
0.6222956027
 40
0.6275882958
 40
0.6328666019
 40
0.6381340754
 40
0.6433924406
 40
0.653889077
 40
0.6643685188
 40
0.674838041
 40
0.6852997082
 40
0.7062097678
 40
0.7271182652
 40
0.7480280186
 40
0.768948118
 40
0.7898785292
 40
0.810821354
 40
0.8317794258
 40
0.8527517689
 40
0.8737388131
 40
0.9157618146
 40
0.9578482057
 40
1.0
 40
1.0
 40
1.0
 40
1.0
 10
10.4981283823
 20
8.7271684221
 30
0.0
 10
10.499480098
 20
8.7261625447
 30
0.0
 10
10.5021643206
 20
8.7241231691
 30
0.0
 10
10.5061228156
 20
8.720983211
 30
0.0
 10
10.5099988493
 20
8.7177634437
 30
0.0
 10
10.5137687773
 20
8.7144686479
 30
0.0
 10
10.5174064478
 20
8.7111056349
 30
0.0
 10
10.5208832411
 20
8.7076859701
 30
0.0
 10
10.5236372347
 20
8.7047804101
 30
0.0
 10
10.5257247569
 20
8.7024338919
 30
0.0
 10
10.5272131819
 20
8.7006819847
 30
0.0
 10
10.5286290749
 20
8.6989284797
 30
0.0
 10
10.5299652508
 20
8.697176833
 30
0.0
 10
10.5312134405
 20
8.6954314404
 30
0.0
 10
10.5323633744
 20
8.693697814
 30
0.0
 10
10.5334013471
 20
8.6919826809
 30
0.0
 10
10.5341698367
 20
8.6905584994
 30
0.0
 10
10.5347087007
 20
8.6894349199
 30
0.0
 10
10.5350650349
 20
8.6886164286
 30
0.0
 10
10.5353734136
 20
8.6878146307
 30
0.0
 10
10.5356259007
 20
8.6870351538
 30
0.0
 10
10.5358108878
 20
8.6862859702
 30
0.0
 10
10.5359140893
 20
8.6855784062
 30
0.0
 10
10.535915662
 20
8.6850195119
 30
0.0
 10
10.5358558854
 20
8.6846102609
 30
0.0
 10
10.5357645339
 20
8.6842418496
 30
0.0
 10
10.5355947317
 20
8.6838174107
 30
0.0
 10
10.5353318622
 20
8.6833534579
 30
0.0
 10
10.5350347125
 20
8.6829245569
 30
0.0
 10
10.5347266135
 20
8.6825100707
 30
0.0
 10
10.5344104196
 20
8.6821047905
 30
0.0
 10
10.5340922552
 20
8.6817031074
 30
0.0
 10
10.5337736752
 20
8.6813031645
 30
0.0
 10
10.5333498032
 20
8.6807712501
 30
0.0
 10
10.5328233149
 20
8.6801054874
 30
0.0
 10
10.532199725
 20
8.6793016112
 30
0.0
 10
10.5315850288
 20
8.6784923363
 30
0.0
 10
10.530775924
 20
8.6774070211
 30
0.0
 10
10.5297829159
 20
8.6760376334
 30
0.0
 10
10.5286181681
 20
8.6743755869
 30
0.0
 10
10.5274748634
 20
8.6726983419
 30
0.0
 10
10.5263519106
 20
8.6710065633
 30
0.0
 10
10.5252458427
 20
8.6693024366
 30
0.0
 10
10.5241553462
 20
8.6675868513
 30
0.0
 10
10.523079122
 20
8.665860685
 30
0.0
 10
10.5220156871
 20
8.6641249358
 30
0.0
 10
10.5206131759
 20
8.6617977522
 30
0.0
 10
10.5188880894
 20
8.6588675091
 30
0.0
 10
10.5168581375
 20
8.6553225122
 30
0.0
 10
10.5155299241
 20
8.6529426111
 30
0.0
 10
10.5148713096
 20
8.6517484377
 30
0.0
  0
SPLINE
  5
2F6
100
AcDbEntity
  8
0
100
AcDbSpline
 62
9
  6
CONTINUOUS
 70
0
 71
3
 72
15
 73
11
 74
0
 42
0.0000001
 43
0.0000001
 44
0.0000000001
 40
0.0
 40
0.0
 40
0.0
 40
0.0
 40
0.1267222508
 40
0.252854672
 40
0.3784173061
 40
0.5034501503
 40
0.6280233824
 40
0.7522303364
 40
0.8761793803
 40
1.0
 40
1.0
 40
1.0
 40
1.0
 10
10.5148713096
 20
8.6517484377
 30
0.0
 10
10.5149262463
 20
8.6564403841
 30
0.0
 10
10.5145243004
 20
8.6658167498
 30
0.0
 10
10.5123804892
 20
8.6796915491
 30
0.0
 10
10.5087230933
 20
8.6931836006
 30
0.0
 10
10.5035958846
 20
8.7061262497
 30
0.0
 10
10.4970612458
 20
8.7183619674
 30
0.0
 10
10.4891979308
 20
8.729741374
 30
0.0
 10
10.4801036575
 20
8.7401241023
 30
0.0
 10
10.4732882024
 20
8.7463014982
 30
0.0
 10
10.469719581
 20
8.7491799657
 30
0.0
  0
SPLINE
  5
2F7
100
AcDbEntity
  8
0
100
AcDbSpline
 62
9
  6
CONTINUOUS
 70
0
 71
3
 72
15
 73
11
 74
0
 42
0.0000001
 43
0.0000001
 44
0.0000000001
 40
0.0
 40
0.0
 40
0.0
 40
0.0
 40
0.1290071566
 40
0.2575196703
 40
0.3850752913
 40
0.5113845233
 40
0.6361648757
 40
0.7592214313
 40
0.8805146961
 40
1.0
 40
1.0
 40
1.0
 40
1.0
 10
10.5167844653
 20
8.6283202713
 30
0.0
 10
10.5162230881
 20
8.6286694459
 30
0.0
 10
10.5151399456
 20
8.6294288791
 30
0.0
 10
10.5136561424
 20
8.6307357086
 30
0.0
 10
10.5123367866
 20
8.6321902165
 30
0.0
 10
10.511202283
 20
8.6337696842
 30
0.0
 10
10.5102702503
 20
8.6354503346
 30
0.0
 10
10.5095548584
 20
8.6372065782
 30
0.0
 10
10.5090677978
 20
8.6390111192
 30
0.0
 10
10.5088989478
 20
8.6402374902
 30
0.0
 10
10.508855488
 20
8.6408482609
 30
0.0
  0
SPLINE
  5
2F8
100
AcDbEntity
  8
0
100
AcDbSpline
 62
9
  6
CONTINUOUS
 70
0
 71
3
 72
15
 73
11
 74
0
 42
0.0000001
 43
0.0000001
 44
0.0000000001
 40
0.0
 40
0.0
 40
0.0
 40
0.0
 40
0.1295161623
 40
0.2582624503
 40
0.3858436476
 40
0.5120320397
 40
0.6366140971
 40
0.7594609575
 40
0.8805866581
 40
1.0
 40
1.0
 40
1.0
 40
1.0
 10
10.5228553848
 20
8.6402244557
 30
0.0
 10
10.5223164947
 20
8.6405428181
 30
0.0
 10
10.5212742985
 20
8.6412344437
 30
0.0
 10
10.5198354349
 20
8.6424257098
 30
0.0
 10
10.5185435767
 20
8.6437530532
 30
0.0
 10
10.5174167843
 20
8.6451977707
 30
0.0
 10
10.5164708318
 20
8.646740251
 30
0.0
 10
10.5157187175
 20
8.6483592995
 30
0.0
 10
10.5151714757
 20
8.6500322064
 30
0.0
 10
10.5149466242
 20
8.6511762839
 30
0.0
 10
10.5148713107
 20
8.65174843
 30
0.0
  0
LINE
  5
2F9
100
AcDbEntity
  8
0
100
AcDbLine
 62
9
  6
CONTINUOUS
 10
10.5775573909
 20
8.5433487892
 11
10.6025827734
 21
8.5867347823
  0
SPLINE
  5
2FA
100
AcDbEntity
  8
0
100
AcDbSpline
 62
9
  6
CONTINUOUS
 70
0
 71
3
 72
18
 73
14
 74
0
 42
0.0000001
 43
0.0000001
 44
0.0000000001
 40
0.0
 40
0.0
 40
0.0
 40
0.0
 40
0.1197195929
 40
0.2410539281
 40
0.3023675143
 40
0.3640931707
 40
0.4262225783
 40
0.4887436609
 40
0.614844079
 40
0.7422521592
 40
0.8063897586
 40
0.8707598558
 40
1.0
 40
1.0
 40
1.0
 40
1.0
 10
10.6025827734
 20
8.5867347823
 30
0.0
 10
10.6065850943
 20
8.5886724304
 30
0.0
 10
10.6148812585
 20
8.5921007757
 30
0.0
 10
10.6257058744
 20
8.5951841299
 30
0.0
 10
10.6346153021
 20
8.5969385427
 30
0.0
 10
10.6414295391
 20
8.5978958865
 30
0.0
 10
10.648330184
 20
8.598486968
 30
0.0
 10
10.6576426635
 20
8.5987850839
 30
0.0
 10
10.6693905279
 20
8.5982283088
 30
0.0
 10
10.6810765467
 20
8.5964551016
 30
0.0
 10
10.690342956
 20
8.5943209218
 30
0.0
 10
10.699555223
 20
8.5917056162
 30
0.0
 10
10.7063210725
 20
8.5892234742
 30
0.0
 10
10.7107406525
 20
8.587349904
 30
0.0
  0
SPLINE
  5
2FB
100
AcDbEntity
  8
0
100
AcDbSpline
 62
9
  6
CONTINUOUS
 70
0
 71
3
 72
18
 73
14
 74
0
 42
0.0000001
 43
0.0000001
 44
0.0000000001
 40
0.0
 40
0.0
 40
0.0
 40
0.0
 40
0.124331933
 40
0.24884941
 40
0.3735663411
 40
0.4360248656
 40
0.4985335315
 40
0.5610904438
 40
0.6236937945
 40
0.748980301
 40
0.8117038507
 40
0.8744605665
 40
1.0
 40
1.0
 40
1.0
 40
1.0
 10
10.5775573909
 20
8.5433487892
 30
0.0
 10
10.5817811029
 20
8.5457505697
 30
0.0
 10
10.5905009819
 20
8.5501067006
 30
0.0
 10
10.6042166482
 20
8.5551856396
 30
0.0
 10
10.616062029
 20
8.5581407312
 30
0.0
 10
10.6256976637
 20
8.5597046096
 30
0.0
 10
10.6329898256
 20
8.5604712677
 30
0.0
 10
10.6403194659
 20
8.5608250491
 30
0.0
 10
10.6501104147
 20
8.5607401609
 30
0.0
 10
10.6598862772
 20
8.5598151464
 30
0.0
 10
10.6695304372
 20
8.5580493658
 30
0.0
 10
10.6790647942
 20
8.5557243111
 30
0.0
 10
10.6860554722
 20
8.5533576268
 30
0.0
 10
10.6906026683
 20
8.551515864
 30
0.0
  0
LINE
  5
2FC
100
AcDbEntity
  8
0
100
AcDbLine
 62
9
  6
CONTINUOUS
 10
10.6025827734
 20
8.5867347823
 11
10.6090146974
 21
8.5973947417
  0
SPLINE
  5
2FD
100
AcDbEntity
  8
0
100
AcDbSpline
 62
9
  6
CONTINUOUS
 70
0
 71
3
 72
15
 73
11
 74
0
 42
0.0000001
 43
0.0000001
 44
0.0000000001
 40
0.0
 40
0.0
 40
0.0
 40
0.0
 40
0.1267221101
 40
0.252854417
 40
0.3784169801
 40
0.5034498015
 40
0.6280230529
 40
0.7522300688
 40
0.876179222
 40
1.0
 40
1.0
 40
1.0
 40
1.0
 10
10.6090146974
 20
8.5973947417
 30
0.0
 10
10.6130505672
 20
8.5997882931
 30
0.0
 10
10.6213716988
 20
8.6041283846
 30
0.0
 10
10.6344595202
 20
8.609209192
 30
0.0
 10
10.6479726705
 20
8.6127878202
 30
0.0
 10
10.661744936
 20
8.6148188499
 30
0.0
 10
10.6756087008
 20
8.6152775425
 30
0.0
 10
10.689395221
 20
8.6141574109
 30
0.0
 10
10.7029340762
 20
8.6114728976
 30
0.0
 10
10.7116915951
 20
8.6086592342
 30
0.0
 10
10.7159687375
 20
8.6070079489
 30
0.0
  0
SPLINE
  5
2FE
100
AcDbEntity
  8
0
100
AcDbSpline
 62
9
  6
CONTINUOUS
 70
0
 71
3
 72
57
 73
53
 74
0
 42
0.0000001
 43
0.0000001
 44
0.0000000001
 40
0.0
 40
0.0
 40
0.0
 40
0.0
 40
0.0421517718
 40
0.0842381347
 40
0.1262611331
 40
0.1472481571
 40
0.1682205484
 40
0.1891786005
 40
0.2101213219
 40
0.2310518299
 40
0.2519718749
 40
0.2728816958
 40
0.293790103
 40
0.3147001657
 40
0.3356311257
 40
0.3461107205
 40
0.3566071446
 40
0.3618657992
 40
0.3671329052
 40
0.3724114786
 40
0.3777038551
 40
0.3803579906
 40
0.3830202551
 40
0.3856918881
 40
0.3883757739
 40
0.3910815741
 40
0.3938226595
 40
0.3994737618
 40
0.4024401642
 40
0.4055412283
 40
0.4122364585
 40
0.4196197366
 40
0.4275966096
 40
0.4360613666
 40
0.4449291609
 40
0.4541383605
 40
0.4636462572
 40
0.4834383412
 40
0.5041280745
 40
0.5255911378
 40
0.547722941
 40
0.5704399066
 40
0.5936768401
 40
0.6173764771
 40
0.641486112
 40
0.6907440915
 40
0.7410796379
 40
0.7921927832
 40
0.8438429583
 40
0.8958140196
 40
0.9479220178
 40
1.0
 40
1.0
 40
1.0
 40
1.0
 10
10.6090147057
 20
8.5973947467
 30
0.0
 10
10.6097195846
 20
8.5985622125
 30
0.0
 10
10.6111165359
 20
8.6009024338
 30
0.0
 10
10.6131716174
 20
8.6044329321
 30
0.0
 10
10.6148467443
 20
8.6073920274
 30
0.0
 10
10.616160892
 20
8.6097702365
 30
0.0
 10
10.6171323815
 20
8.6115590767
 30
0.0
 10
10.6180891808
 20
8.6133541966
 30
0.0
 10
10.6190296509
 20
8.6151564031
 30
0.0
 10
10.6199524618
 20
8.6169663386
 30
0.0
 10
10.6208560883
 20
8.6187847538
 30
0.0
 10
10.6217370026
 20
8.6206134943
 30
0.0
 10
10.6225939925
 20
8.622453234
 30
0.0
 10
10.6234213932
 20
8.6243072421
 30
0.0
 10
10.6240842524
 20
8.6258649285
 30
0.0
 10
10.6245968071
 20
8.6271201731
 30
0.0
 10
10.624909804
 20
8.6279091469
 30
0.0
 10
10.6251589028
 20
8.6285420289
 30
0.0
 10
10.6253455578
 20
8.6290180696
 30
0.0
 10
10.6255347091
 20
8.6294942953
 30
0.0
 10
10.6256951606
 20
8.6298909653
 30
0.0
 10
10.6258289315
 20
8.6302070677
 30
0.0
 10
10.6259337837
 20
8.6304433002
 30
0.0
 10
10.6260437749
 20
8.6306782503
 30
0.0
 10
10.6261600757
 20
8.630911739
 30
0.0
 10
10.6262874638
 20
8.6311420552
 30
0.0
 10
10.6264792411
 20
8.6314457433
 30
0.0
 10
10.626708168
 20
8.6317356563
 30
0.0
 10
10.6269819242
 20
8.6319987116
 30
0.0
 10
10.6273064667
 20
8.6322550452
 30
0.0
 10
10.6277909721
 20
8.632533547
 30
0.0
 10
10.6284554418
 20
8.6327976842
 30
0.0
 10
10.6291967553
 20
8.6330120558
 30
0.0
 10
10.629998029
 20
8.6331832244
 30
0.0
 10
10.6308465871
 20
8.6333170372
 30
0.0
 10
10.6317335995
 20
8.6334176652
 30
0.0
 10
10.6329760878
 20
8.6335127924
 30
0.0
 10
10.6345937127
 20
8.6335593473
 30
0.0
 10
10.6365980377
 20
8.6335179832
 30
0.0
 10
10.6386743784
 20
8.633388968
 30
0.0
 10
10.6408100368
 20
8.6331806378
 30
0.0
 10
10.6429951178
 20
8.6328992822
 30
0.0
 10
10.6452216531
 20
8.6325498382
 30
0.0
 10
10.6474830506
 20
8.632136773
 30
0.0
 10
10.6505589654
 20
8.6315022114
 30
0.0
 10
10.6544522185
 20
8.6305698928
 30
0.0
 10
10.6591521494
 20
8.6292687911
 30
0.0
 10
10.6638833897
 20
8.6277999383
 30
0.0
 10
10.6686217282
 20
8.626182554
 30
0.0
 10
10.6733480955
 20
8.6244356832
 30
0.0
 10
10.6780465789
 20
8.6225774606
 30
0.0
 10
10.6811548336
 20
8.6212725719
 30
0.0
 10
10.6827018054
 20
8.6206049059
 30
0.0
  0
LINE
  5
2FF
100
AcDbEntity
  8
0
100
AcDbLine
 62
9
  6
CONTINUOUS
 10
11.4920539018
 20
8.5867347848
 11
11.517079305
 21
8.543348834
  0
SPLINE
  5
300
100
AcDbEntity
  8
0
100
AcDbSpline
 62
9
  6
CONTINUOUS
 70
0
 71
3
 72
18
 73
14
 74
0
 42
0.0000001
 43
0.0000001
 44
0.0000000001
 40
0.0
 40
0.0
 40
0.0
 40
0.0
 40
0.1255394346
 40
0.2509687205
 40
0.3136581415
 40
0.3763061635
 40
0.4389100006
 40
0.5014676758
 40
0.6263849709
 40
0.6887927187
 40
0.7511505449
 40
0.8756679301
 40
1.0
 40
1.0
 40
1.0
 40
1.0
 10
11.4040340611
 20
8.5515157423
 30
0.0
 10
11.4085808637
 20
8.5533584373
 30
0.0
 10
11.4178948854
 20
8.5565124994
 30
0.0
 10
11.4299114281
 20
8.5590721842
 30
0.0
 10
11.4396414262
 20
8.5602780395
 30
0.0
 10
11.4469742614
 20
8.5607615762
 30
0.0
 10
11.4543176769
 20
8.5608250999
 30
0.0
 10
11.4640832047
 20
8.5603531537
 30
0.0
 10
11.4737866605
 20
8.5590558588
 30
0.0
 10
11.4833198032
 20
8.5569573444
 30
0.0
 10
11.4927075903
 20
8.5543378632
 30
0.0
 10
11.5041364407
 20
8.5501066082
 30
0.0
 10
11.512855625
 20
8.5457506522
 30
0.0
 10
11.517079305
 20
8.543348834
 30
0.0
  0
LINE
  5
301
100
AcDbEntity
  8
0
100
AcDbLine
 62
9
  6
CONTINUOUS
 10
11.4856219902
 20
8.5973947238
 11
11.4920539018
 21
8.5867347848
  0
SPLINE
  5
302
100
AcDbEntity
  8
0
100
AcDbSpline
 62
9
  6
CONTINUOUS
 70
0
 71
3
 72
18
 73
14
 74
0
 42
0.0000001
 43
0.0000001
 44
0.0000000001
 40
0.0
 40
0.0
 40
0.0
 40
0.0
 40
0.1197196224
 40
0.2410539742
 40
0.3023675641
 40
0.3640932215
 40
0.4262226278
 40
0.4887437075
 40
0.6148441161
 40
0.742252184
 40
0.8063897769
 40
0.8707598676
 40
1.0
 40
1.0
 40
1.0
 40
1.0
 10
11.4920539018
 20
8.5867347848
 30
0.0
 10
11.4880515801
 20
8.5886724342
 30
0.0
 10
11.4797554148
 20
8.5921007823
 30
0.0
 10
11.4689307973
 20
8.5951841388
 30
0.0
 10
11.4600213687
 20
8.5969385528
 30
0.0
 10
11.4532071314
 20
8.5978958971
 30
0.0
 10
11.4463064864
 20
8.5984869787
 30
0.0
 10
11.4369940071
 20
8.5987850944
 30
0.0
 10
11.4252461432
 20
8.5982283184
 30
0.0
 10
11.4135601253
 20
8.5964551094
 30
0.0
 10
11.4042937171
 20
8.5943209277
 30
0.0
 10
11.3950814514
 20
8.5917056198
 30
0.0
 10
11.3883156031
 20
8.5892234757
 30
0.0
 10
11.3838960241
 20
8.587349904
 30
0.0
  0
SPLINE
  5
303
100
AcDbEntity
  8
0
100
AcDbSpline
 62
9
  6
CONTINUOUS
 70
0
 71
3
 72
55
 73
51
 74
0
 42
0.0000001
 43
0.0000001
 44
0.0000000001
 40
0.0
 40
0.0
 40
0.0
 40
0.0
 40
0.0520783416
 40
0.1041867932
 40
0.156158288
 40
0.2078093288
 40
0.2589223296
 40
0.3092586102
 40
0.3585163134
 40
0.3826262737
 40
0.4063259996
 40
0.4295630032
 40
0.4522797315
 40
0.4744110969
 40
0.4958745533
 40
0.5165642972
 40
0.5363564147
 40
0.5458643356
 40
0.5550733038
 40
0.5639411091
 40
0.5724065347
 40
0.5803828529
 40
0.5877654127
 40
0.5944631236
 40
0.5975639546
 40
0.6005287545
 40
0.6061778703
 40
0.6116260248
 40
0.6169794952
 40
0.6222956027
 40
0.6275882958
 40
0.6328666019
 40
0.6381340754
 40
0.6433924406
 40
0.653889077
 40
0.6643685188
 40
0.674838041
 40
0.6852997082
 40
0.7062097678
 40
0.7271182652
 40
0.7480280186
 40
0.768948118
 40
0.7898785292
 40
0.810821354
 40
0.8317794258
 40
0.8527517689
 40
0.8737388131
 40
0.9157618146
 40
0.9578482057
 40
1.0
 40
1.0
 40
1.0
 40
1.0
 10
11.4119348957
 20
8.6206049207
 30
0.0
 10
11.4134818688
 20
8.6212726021
 30
0.0
 10
11.4165901312
 20
8.6225775193
 30
0.0
 10
11.4212886622
 20
8.6244356975
 30
0.0
 10
11.4260150793
 20
8.6261825576
 30
0.0
 10
11.4307534203
 20
8.627800013
 30
0.0
 10
11.4354847102
 20
8.6292688216
 30
0.0
 10
11.4401846234
 20
8.6305699805
 30
0.0
 10
11.444077909
 20
8.6315022289
 30
0.0
 10
11.4471538145
 20
8.6321368171
 30
0.0
 10
11.4494152231
 20
8.6325498773
 30
0.0
 10
11.4516417494
 20
8.6328993241
 30
0.0
 10
11.453826808
 20
8.6331806631
 30
0.0
 10
11.4559624572
 20
8.6333889308
 30
0.0
 10
11.4580387885
 20
8.6335179895
 30
0.0
 10
11.4600431237
 20
8.6335593337
 30
0.0
 10
11.461660746
 20
8.6335127744
 30
0.0
 10
11.4629032263
 20
8.6334176546
 30
0.0
 10
11.4637902277
 20
8.6333170035
 30
0.0
 10
11.4646387944
 20
8.6331831683
 30
0.0
 10
11.4654400847
 20
8.6330120901
 30
0.0
 10
11.4661813904
 20
8.6327977018
 30
0.0
 10
11.4668457595
 20
8.6325332949
 30
0.0
 10
11.4673305625
 20
8.6322552097
 30
0.0
 10
11.4676550959
 20
8.6319988162
 30
0.0
 10
11.4679284737
 20
8.6317354978
 30
0.0
 10
11.4682111474
 20
8.6313762254
 30
0.0
 10
11.4684815077
 20
8.6309165973
 30
0.0
 10
11.4687043719
 20
8.6304448076
 30
0.0
 10
11.468909278
 20
8.629970743
 30
0.0
 10
11.4691021641
 20
8.629494271
 30
0.0
 10
11.4692909496
 20
8.6290178909
 30
0.0
 10
11.4694780203
 20
8.6285420211
 30
0.0
 10
11.4697267357
 20
8.62790898
 30
0.0
 10
11.470040059
 20
8.6271201464
 30
0.0
 10
11.4704244412
 20
8.6261781636
 30
0.0
 10
11.4708179457
 20
8.6252411836
 30
0.0
 10
11.4713533039
 20
8.6239978207
 30
0.0
 10
11.4720427244
 20
8.6224531566
 30
0.0
 10
11.4728997249
 20
8.6206134322
 30
0.0
 10
11.4737806093
 20
8.6187846788
 30
0.0
 10
11.4746842562
 20
8.6169662838
 30
0.0
 10
11.4756070393
 20
8.6151563375
 30
0.0
 10
11.4765475315
 20
8.6133541473
 30
0.0
 10
11.4775043233
 20
8.6115590266
 30
0.0
 10
11.4784758087
 20
8.6097701904
 30
0.0
 10
11.4797899532
 20
8.6073919882
 30
0.0
 10
11.481465075
 20
8.604432898
 30
0.0
 10
11.4835201564
 20
8.6009024096
 30
0.0
 10
11.4849171045
 20
8.5985621925
 30
0.0
 10
11.4856219817
 20
8.5973947289
 30
0.0
  0
SPLINE
  5
304
100
AcDbEntity
  8
0
100
AcDbSpline
 62
9
  6
CONTINUOUS
 70
0
 71
3
 72
15
 73
11
 74
0
 42
0.0000001
 43
0.0000001
 44
0.0000000001
 40
0.0
 40
0.0
 40
0.0
 40
0.0
 40
0.1267222508
 40
0.252854672
 40
0.3784173061
 40
0.5034501503
 40
0.6280233824
 40
0.7522303364
 40
0.8761793803
 40
1.0
 40
1.0
 40
1.0
 40
1.0
 10
11.4856219817
 20
8.5973947289
 30
0.0
 10
11.4815861053
 20
8.5997882787
 30
0.0
 10
11.4732649615
 20
8.6041283662
 30
0.0
 10
11.4601771272
 20
8.6092091709
 30
0.0
 10
11.4466639698
 20
8.6127877988
 30
0.0
 10
11.4328917027
 20
8.6148188304
 30
0.0
 10
11.4190279409
 20
8.615277526
 30
0.0
 10
11.4052414282
 20
8.6141573988
 30
0.0
 10
11.3917025851
 20
8.6114728912
 30
0.0
 10
11.3829450758
 20
8.608659232
 30
0.0
 10
11.3786679391
 20
8.6070079489
 30
0.0
  0
SPLINE
  5
305
100
AcDbEntity
  8
0
100
AcDbSpline
 62
9
  6
CONTINUOUS
 70
0
 71
3
 72
15
 73
11
 74
0
 42
0.0000001
 43
0.0000001
 44
0.0000000001
 40
0.0
 40
0.0
 40
0.0
 40
0.0
 40
0.1290071566
 40
0.2575196703
 40
0.3850752913
 40
0.5113845233
 40
0.6361648757
 40
0.7592214313
 40
0.8805146961
 40
1.0
 40
1.0
 40
1.0
 40
1.0
 10
11.5068679469
 20
8.5873374871
 30
0.0
 10
11.5062848641
 20
8.5870259076
 30
0.0
 10
11.5050856045
 20
8.5864675952
 30
0.0
 10
11.5032119554
 20
8.5858359986
 30
0.0
 10
11.5012926366
 20
8.585420657
 30
0.0
 10
11.4993575257
 20
8.5852278819
 30
0.0
 10
11.4974360234
 20
8.5852610431
 30
0.0
 10
11.4955573759
 20
8.5855196174
 30
0.0
 10
11.4937510673
 20
8.586000081
 30
0.0
 10
11.4926045738
 20
8.5864670381
 30
0.0
 10
11.492053901
 20
8.5867347862
 30
0.0
  0
SPLINE
  5
306
100
AcDbEntity
  8
0
100
AcDbSpline
 62
9
  6
CONTINUOUS
 70
0
 71
3
 72
15
 73
11
 74
0
 42
0.0000001
 43
0.0000001
 44
0.0000000001
 40
0.0
 40
0.0
 40
0.0
 40
0.0
 40
0.1295161623
 40
0.2582624503
 40
0.3858436476
 40
0.5120320397
 40
0.6366140971
 40
0.7594609575
 40
0.8805866581
 40
1.0
 40
1.0
 40
1.0
 40
1.0
 10
11.4995940805
 20
8.5985471498
 30
0.0
 10
11.4990489255
 20
8.5982396385
 30
0.0
 10
11.497928862
 20
8.5976828829
 30
0.0
 10
11.4961777636
 20
8.5970324236
 30
0.0
 10
11.4943823214
 20
8.5965773133
 30
0.0
 10
11.4925677631
 20
8.5963238411
 30
0.0
 10
11.4907589597
 20
8.5962758624
 30
0.0
 10
11.4889807655
 20
8.5964340366
 30
0.0
 10
11.4872583647
 20
8.5967965647
 30
0.0
 10
11.4861551387
 20
8.5971738764
 30
0.0
 10
11.4856219889
 20
8.597394726
 30
0.0
  0
SPLINE
  5
307
100
AcDbEntity
  8
0
100
AcDbSpline
 62
9
  6
CONTINUOUS
 70
0
 71
3
 72
15
 73
11
 74
0
 42
0.0000001
 43
0.0000001
 44
0.0000000001
 40
0.0
 40
0.0
 40
0.0
 40
0.0
 40
0.1295161537
 40
0.258262329
 40
0.385843385
 40
0.5120316277
 40
0.6366135955
 40
0.7594604741
 40
0.8805863355
 40
1.0
 40
1.0
 40
1.0
 40
1.0
 10
10.5950434033
 20
8.59854672
 30
0.0
 10
10.5955885395
 20
8.5982392552
 30
0.0
 10
10.5967085584
 20
8.5976825873
 30
0.0
 10
10.5984595728
 20
8.5970322414
 30
0.0
 10
10.6002549168
 20
8.5965772238
 30
0.0
 10
10.6020693672
 20
8.596323822
 30
0.0
 10
10.6038780572
 20
8.5962758899
 30
0.0
 10
10.6056561376
 20
8.5964340861
 30
0.0
 10
10.6073784286
 20
8.596796612
 30
0.0
 10
10.6084815857
 20
8.597173906
 30
0.0
 10
10.6090147034
 20
8.5973947429
 30
0.0
  0
SPLINE
  5
308
100
AcDbEntity
  8
0
100
AcDbSpline
 62
9
  6
CONTINUOUS
 70
0
 71
3
 72
15
 73
11
 74
0
 42
0.0000001
 43
0.0000001
 44
0.0000000001
 40
0.0
 40
0.0
 40
0.0
 40
0.0
 40
0.1290071841
 40
0.2575197194
 40
0.3850753241
 40
0.51138454
 40
0.6361648761
 40
0.7592214196
 40
0.88051468
 40
1.0
 40
1.0
 40
1.0
 40
1.0
 10
10.5877687285
 20
8.587337485
 30
0.0
 10
10.5883518112
 20
8.5870259052
 30
0.0
 10
10.5895510707
 20
8.5864675922
 30
0.0
 10
10.5914247196
 20
8.5858359948
 30
0.0
 10
10.593344038
 20
8.5854206526
 30
0.0
 10
10.5952791485
 20
8.585227877
 30
0.0
 10
10.5972006505
 20
8.5852610377
 30
0.0
 10
10.5990792977
 20
8.5855196118
 30
0.0
 10
10.6008856061
 20
8.5860000753
 30
0.0
 10
10.6020320996
 20
8.5864670326
 30
0.0
 10
10.6025827724
 20
8.5867347807
 30
0.0
  0
SPLINE
  5
309
100
AcDbEntity
  8
0
100
AcDbSpline
 62
9
  6
CONTINUOUS
 70
0
 71
3
 72
15
 73
11
 74
0
 42
0.0000001
 43
0.0000001
 44
0.0000000001
 40
0.0
 40
0.0
 40
0.0
 40
0.0
 40
0.1289771275
 40
0.2574673141
 40
0.3850100988
 40
0.511316456
 40
0.6361037183
 40
0.7591757327
 40
0.8804904101
 40
1.0
 40
1.0
 40
1.0
 40
1.0
 10
10.5627750631
 20
8.5439920076
 30
0.0
 10
10.5633562121
 20
8.5436802895
 30
0.0
 10
10.564551567
 20
8.543121313
 30
0.0
 10
10.5664194076
 20
8.5424875207
 30
0.0
 10
10.5683332384
 20
8.5420687451
 30
0.0
 10
10.5702634157
 20
8.5418713189
 30
0.0
 10
10.5721807619
 20
8.5418986614
 30
0.0
 10
10.5740562407
 20
8.5421503384
 30
0.0
 10
10.5758605696
 20
8.5426229473
 30
0.0
 10
10.5770066401
 20
8.5430840852
 30
0.0
 10
10.5775573734
 20
8.5433488315
 30
0.0
  0
LINE
  5
30A
100
AcDbEntity
  8
0
100
AcDbLine
 62
9
  6
CONTINUOUS
 10
11.6108418717
 20
8.5974826435
 11
11.5857811908
 21
8.6408482571
  0
SPLINE
  5
30B
100
AcDbEntity
  8
0
100
AcDbSpline
 62
9
  6
CONTINUOUS
 70
0
 71
3
 72
18
 73
14
 74
0
 42
0.0000001
 43
0.0000001
 44
0.0000000001
 40
0.0
 40
0.0
 40
0.0
 40
0.0
 40
0.1197195929
 40
0.2410539281
 40
0.3023675143
 40
0.3640931707
 40
0.4262225783
 40
0.4887436609
 40
0.614844079
 40
0.7422521592
 40
0.8063897586
 40
0.8707598558
 40
1.0
 40
1.0
 40
1.0
 40
1.0
 10
11.5857811908
 20
8.6408482571
 30
0.0
 10
11.5861042988
 20
8.6452831927
 30
0.0
 10
11.5872833467
 20
8.6541820543
 30
0.0
 10
11.5900253917
 20
8.6650981237
 30
0.0
 10
11.5929607394
 20
8.6736911209
 30
0.0
 10
11.5955387739
 20
8.6800710951
 30
0.0
 10
11.5984772048
 20
8.6863427696
 30
0.0
 10
11.6028752685
 20
8.6945566714
 30
0.0
 10
11.6092313821
 20
8.7044522329
 30
0.0
 10
11.616610034
 20
8.7136860184
 30
0.0
 10
11.6230914926
 20
8.7206438744
 30
0.0
 10
11.6299625472
 20
8.7273142789
 30
0.0
 10
11.63549507
 20
8.7319326054
 30
0.0
 10
11.6393274194
 20
8.7348232888
 30
0.0
  0
SPLINE
  5
30C
100
AcDbEntity
  8
0
100
AcDbSpline
 62
9
  6
CONTINUOUS
 70
0
 71
3
 72
18
 73
14
 74
0
 42
0.0000001
 43
0.0000001
 44
0.0000000001
 40
0.0
 40
0.0
 40
0.0
 40
0.0
 40
0.124331933
 40
0.24884941
 40
0.3735663411
 40
0.4360248656
 40
0.4985335315
 40
0.5610904438
 40
0.6236937945
 40
0.748980301
 40
0.8117038507
 40
0.8744605665
 40
1.0
 40
1.0
 40
1.0
 40
1.0
 10
11.6108418717
 20
8.5974826435
 30
0.0
 10
11.6108737249
 20
8.6023413757
 30
0.0
 10
11.6114611443
 20
8.6120710779
 30
0.0
 10
11.6139204872
 20
8.6264886628
 30
0.0
 10
11.6172839932
 20
8.6382246093
 30
0.0
 10
11.6207474522
 20
8.6473512529
 30
0.0
 10
11.6237295878
 20
8.6540497794
 30
0.0
 10
11.6270880242
 20
8.6605743248
 30
0.0
 10
11.6320570139
 20
8.6690110911
 30
0.0
 10
11.6377460312
 20
8.6770147292
 30
0.0
 10
11.6440973221
 20
8.6844839264
 30
0.0
 10
11.650878057
 20
8.6915783944
 30
0.0
 10
11.6564230048
 20
8.6964491569
 30
0.0
 10
11.6602916162
 20
8.699466263
 30
0.0
  0
LINE
  5
30D
100
AcDbEntity
  8
0
100
AcDbLine
 62
9
  6
CONTINUOUS
 10
11.5857811908
 20
8.640848257
 11
11.5797653571
 21
8.6517484463
  0
SPLINE
  5
30E
100
AcDbEntity
  8
0
100
AcDbSpline
 62
9
  6
CONTINUOUS
 70
0
 71
3
 72
15
 73
11
 74
0
 42
0.0000001
 43
0.0000001
 44
0.0000000001
 40
0.0
 40
0.0
 40
0.0
 40
0.0
 40
0.1267221101
 40
0.252854417
 40
0.3784169801
 40
0.5034498015
 40
0.6280230529
 40
0.7522300688
 40
0.876179222
 40
1.0
 40
1.0
 40
1.0
 40
1.0
 10
11.5797653571
 20
8.6517484463
 30
0.0
 10
11.5797104158
 20
8.6564403878
 30
0.0
 10
11.580112352
 20
8.665816745
 30
0.0
 10
11.5822561545
 20
8.6796915344
 30
0.0
 10
11.5859135466
 20
8.6931835799
 30
0.0
 10
11.5910407561
 20
8.7061262266
 30
0.0
 10
11.5975753991
 20
8.7183619454
 30
0.0
 10
11.6054387216
 20
8.7297413564
 30
0.0
 10
11.6145330059
 20
8.7401240923
 30
0.0
 10
11.6213484693
 20
8.7463014943
 30
0.0
 10
11.6249170956
 20
8.7491799657
 30
0.0
  0
SPLINE
  5
30F
100
AcDbEntity
  8
0
100
AcDbSpline
 62
9
  6
CONTINUOUS
 70
0
 71
3
 72
57
 73
53
 74
0
 42
0.0000001
 43
0.0000001
 44
0.0000000001
 40
0.0
 40
0.0
 40
0.0
 40
0.0
 40
0.0421517718
 40
0.0842381347
 40
0.1262611331
 40
0.1472481571
 40
0.1682205484
 40
0.1891786005
 40
0.2101213219
 40
0.2310518299
 40
0.2519718749
 40
0.2728816958
 40
0.293790103
 40
0.3147001657
 40
0.3356311257
 40
0.3461107205
 40
0.3566071446
 40
0.3618657992
 40
0.3671329052
 40
0.3724114786
 40
0.3777038551
 40
0.3803579906
 40
0.3830202551
 40
0.3856918881
 40
0.3883757739
 40
0.3910815741
 40
0.3938226595
 40
0.3994737618
 40
0.4024401642
 40
0.4055412283
 40
0.4122364585
 40
0.4196197366
 40
0.4275966096
 40
0.4360613666
 40
0.4449291609
 40
0.4541383605
 40
0.4636462572
 40
0.4834383412
 40
0.5041280745
 40
0.5255911378
 40
0.547722941
 40
0.5704399066
 40
0.5936768401
 40
0.6173764771
 40
0.641486112
 40
0.6907440915
 40
0.7410796379
 40
0.7921927832
 40
0.8438429583
 40
0.8958140196
 40
0.9479220178
 40
1.0
 40
1.0
 40
1.0
 40
1.0
 10
11.579765357
 20
8.651748456
 30
0.0
 10
11.5791067414
 20
8.652942632
 30
0.0
 10
11.5777785259
 20
8.655322538
 30
0.0
 10
11.5757485655
 20
8.6588675399
 30
0.0
 10
11.5740234772
 20
8.6617977899
 30
0.0
 10
11.5726209615
 20
8.6641249798
 30
0.0
 10
11.5715575253
 20
8.6658607345
 30
0.0
 10
11.5704813055
 20
8.6675869069
 30
0.0
 10
11.5693907839
 20
8.6693024812
 30
0.0
 10
11.5682847392
 20
8.6710066266
 30
0.0
 10
11.5671617588
 20
8.6726983977
 30
0.0
 10
11.5660184802
 20
8.6743756621
 30
0.0
 10
11.5648537138
 20
8.6760377069
 30
0.0
 10
11.563661796
 20
8.6776812611
 30
0.0
 10
11.5626442297
 20
8.6790341572
 30
0.0
 10
11.5618134333
 20
8.6801056648
 30
0.0
 10
11.5612866604
 20
8.680771215
 30
0.0
 10
11.5608631178
 20
8.6813033819
 30
0.0
 10
11.5605441821
 20
8.6817030503
 30
0.0
 10
11.5602263342
 20
8.6821049729
 30
0.0
 10
11.5599630336
 20
8.682442263
 30
0.0
 10
11.5597561664
 20
8.6827161632
 30
0.0
 10
11.5596040091
 20
8.6829250841
 30
0.0
 10
11.559455532
 20
8.6831378143
 30
0.0
 10
11.5593114752
 20
8.6833552781
 30
0.0
 10
11.5591757095
 20
8.6835807576
 30
0.0
 10
11.5590085966
 20
8.6838986856
 30
0.0
 10
11.558871988
 20
8.6842418987
 30
0.0
 10
11.5587810535
 20
8.6846105061
 30
0.0
 10
11.5587213334
 20
8.685019735
 30
0.0
 10
11.5587223964
 20
8.6855785798
 30
0.0
 10
11.5588258818
 20
8.6862860961
 30
0.0
 10
11.5590108873
 20
8.6870352782
 30
0.0
 10
11.5592632878
 20
8.6878147859
 30
0.0
 10
11.5595716815
 20
8.6886165652
 30
0.0
 10
11.5599280413
 20
8.6894350544
 30
0.0
 10
11.5604669029
 20
8.6905586445
 30
0.0
 10
11.5612353977
 20
8.6919828262
 30
0.0
 10
11.5622733825
 20
8.6936979405
 30
0.0
 10
11.5634232833
 20
8.6954315967
 30
0.0
 10
11.5646715318
 20
8.697176966
 30
0.0
 10
11.5660077334
 20
8.6989286239
 30
0.0
 10
11.5674236284
 20
8.7006821381
 30
0.0
 10
11.5689120521
 20
8.7024340331
 30
0.0
 10
11.5709995559
 20
8.7047805727
 30
0.0
 10
11.5737535941
 20
8.7076860695
 30
0.0
 10
11.5772303467
 20
8.7111057781
 30
0.0
 10
11.5808680307
 20
8.714468726
 30
0.0
 10
11.5846378958
 20
8.7177635554
 30
0.0
 10
11.5885139139
 20
8.7209832742
 30
0.0
 10
11.5924724236
 20
8.7241231688
 30
0.0
 10
11.5951566177
 20
8.726162552
 30
0.0
 10
11.5965083193
 20
8.7271684358
 30
0.0
  0
SPLINE
  5
310
100
AcDbEntity
  8
0
100
AcDbSpline
 62
9
  6
CONTINUOUS
 70
0
 71
3
 72
15
 73
11
 74
0
 42
0.0000001
 43
0.0000001
 44
0.0000000001
 40
0.0
 40
0.0
 40
0.0
 40
0.0
 40
0.1295161537
 40
0.258262329
 40
0.385843385
 40
0.5120316277
 40
0.6366135955
 40
0.7594604741
 40
0.8805863355
 40
1.0
 40
1.0
 40
1.0
 40
1.0
 10
11.5717820676
 20
8.6402249398
 30
0.0
 10
11.5723209081
 20
8.6405433092
 30
0.0
 10
11.573363006
 20
8.6412349402
 30
0.0
 10
11.5748017293
 20
8.6424261902
 30
0.0
 10
11.5760934581
 20
8.6437534948
 30
0.0
 10
11.5772201357
 20
8.645198154
 30
0.0
 10
11.5781659912
 20
8.6467405595
 30
0.0
 10
11.5789180294
 20
8.6483595204
 30
0.0
 10
11.5794652183
 20
8.6500323312
 30
0.0
 10
11.5796900507
 20
8.6511763402
 30
0.0
 10
11.5797653591
 20
8.6517484522
 30
0.0
  0
SPLINE
  5
311
100
AcDbEntity
  8
0
100
AcDbSpline
 62
9
  6
CONTINUOUS
 70
0
 71
3
 72
15
 73
11
 74
0
 42
0.0000001
 43
0.0000001
 44
0.0000000001
 40
0.0
 40
0.0
 40
0.0
 40
0.0
 40
0.1290071841
 40
0.2575197194
 40
0.3850753241
 40
0.51138454
 40
0.6361648761
 40
0.7592214196
 40
0.88051468
 40
1.0
 40
1.0
 40
1.0
 40
1.0
 10
11.5778522125
 20
8.6283202692
 30
0.0
 10
11.5784135899
 20
8.6286694437
 30
0.0
 10
11.5794967328
 20
8.6294288764
 30
0.0
 10
11.5809805367
 20
8.6307357052
 30
0.0
 10
11.5822998929
 20
8.6321902127
 30
0.0
 10
11.5834343966
 20
8.6337696797
 30
0.0
 10
11.5843664296
 20
8.6354503296
 30
0.0
 10
11.5850818215
 20
8.6372065728
 30
0.0
 10
11.5855688821
 20
8.6390111136
 30
0.0
 10
11.585737732
 20
8.6402374847
 30
0.0
 10
11.5857811917
 20
8.6408482554
 30
0.0
  0
SPLINE
  5
312
100
AcDbEntity
  8
0
100
AcDbSpline
 62
9
  6
CONTINUOUS
 70
0
 71
3
 72
15
 73
11
 74
0
 42
0.0000001
 43
0.0000001
 44
0.0000000001
 40
0.0
 40
0.0
 40
0.0
 40
0.0
 40
0.1289771275
 40
0.2574673141
 40
0.3850100988
 40
0.511316456
 40
0.6361037183
 40
0.7591757327
 40
0.8804904101
 40
1.0
 40
1.0
 40
1.0
 40
1.0
 10
11.6028936644
 20
8.5850023813
 30
0.0
 10
11.6034541947
 20
8.585349812
 30
0.0
 10
11.60453596
 20
8.5861055315
 30
0.0
 10
11.6060187605
 20
8.5874062328
 30
0.0
 10
11.6073383462
 20
8.5888542711
 30
0.0
 10
11.608474411
 20
8.5904271406
 30
0.0
 10
11.6094094048
 20
8.5921012823
 30
0.0
 10
11.6101291855
 20
8.5938513331
 30
0.0
 10
11.6106220586
 20
8.5956502322
 30
0.0
 10
11.6107957367
 20
8.5968733273
 30
0.0
 10
11.6108418264
 20
8.5974826496
 30
0.0
  0
SPLINE
  5
313
100
AcDbEntity
  8
0
100
AcDbSpline
 62
9
  6
CONTINUOUS
 70
0
 71
3
 72
14
 73
10
 74
0
 42
0.0000001
 43
0.0000001
 44
0.0000000001
 40
0.0
 40
0.0
 40
0.0
 40
0.0
 40
0.1180918939
 40
0.2356940037
 40
0.3539807734
 40
0.4742401551
 40
0.5978097267
 40
0.7259592835
 40
1.0
 40
1.0
 40
1.0
 40
1.0
 10
11.6108417189
 20
10.333049656
 30
0.0
 10
11.6110458439
 20
10.3334661394
 30
0.0
 10
11.6115000916
 20
10.3342754793
 30
0.0
 10
11.6123200749
 20
10.3354021656
 30
0.0
 10
11.6132766753
 20
10.336427578
 30
0.0
 10
11.6143691372
 20
10.3373436401
 30
0.0
 10
11.6155965239
 20
10.3381427116
 30
0.0
 10
11.6174492774
 20
10.3390625245
 30
0.0
 10
11.6189771233
 20
10.3395201825
 30
0.0
 10
11.6200321417
 20
10.3397332515
 30
0.0
  0
SPLINE
  5
314
100
AcDbEntity
  8
0
100
AcDbSpline
 62
9
  6
CONTINUOUS
 70
0
 71
3
 72
26
 73
22
 74
0
 42
0.0000001
 43
0.0000001
 44
0.0000000001
 40
0.0
 40
0.0
 40
0.0
 40
0.0
 40
0.0219771398
 40
0.0446507155
 40
0.0681599236
 40
0.0925999245
 40
0.1180142686
 40
0.1444028068
 40
0.1717278966
 40
0.1999390764
 40
0.2289709926
 40
0.2587473159
 40
0.3202654762
 40
0.3839686317
 40
0.4493959
 40
0.5161504937
 40
0.5839107174
 40
0.6524142429
 40
0.7214473093
 40
0.8604606519
 40
1.0
 40
1.0
 40
1.0
 40
1.0
 10
11.6200321417
 20
10.3397332515
 30
0.0
 10
11.6203897702
 20
10.3398053205
 30
0.0
 10
11.621126684
 20
10.3399037845
 30
0.0
 10
11.6222601073
 20
10.339921831
 30
0.0
 10
11.6234298227
 20
10.3398194657
 30
0.0
 10
11.6246299371
 20
10.3396043406
 30
0.0
 10
11.6258554876
 20
10.3392839638
 30
0.0
 10
11.6271019224
 20
10.3388669028
 30
0.0
 10
11.628365105
 20
10.3383613656
 30
0.0
 10
11.629641582
 20
10.3377759941
 30
0.0
 10
11.6309287361
 20
10.3371195861
 30
0.0
 10
11.6326752654
 20
10.3361497438
 30
0.0
 10
11.6348654902
 20
10.3347968975
 30
0.0
 10
11.6374790969
 20
10.333010975
 30
0.0
 10
11.6400976276
 20
10.3310822059
 30
0.0
 10
11.6427148904
 20
10.329040651
 30
0.0
 10
11.6453258504
 20
10.3269094956
 30
0.0
 10
11.6479267423
 20
10.3247071783
 30
0.0
 10
11.6513854048
 20
10.3216883427
 30
0.0
 10
11.6556599729
 20
10.3178120513
 30
0.0
 10
11.6590257994
 20
10.314641246
 30
0.0
 10
11.6607005598
 20
10.3130410612
 30
0.0
  0
SPLINE
  5
315
100
AcDbEntity
  8
0
100
AcDbSpline
 62
9
  6
CONTINUOUS
 70
0
 71
3
 72
11
 73
7
 74
0
 42
0.0000001
 43
0.0000001
 44
0.0000000001
 40
0.0
 40
0.0
 40
0.0
 40
0.0
 40
0.2395252304
 40
0.4888216714
 40
0.7439336185
 40
1.0
 40
1.0
 40
1.0
 40
1.0
 10
11.6150095986
 20
10.3527419178
 30
0.0
 10
11.6157980559
 20
10.3519212856
 30
0.0
 10
11.6172249268
 20
10.3500640749
 30
0.0
 10
11.6187996962
 20
10.3468774484
 30
0.0
 10
11.619788648
 20
10.3433825269
 30
0.0
 10
11.6200251279
 20
10.34094984
 30
0.0
 10
11.6200322406
 20
10.3397332454
 30
0.0
  0
SPLINE
  5
316
100
AcDbEntity
  8
0
100
AcDbSpline
 62
9
  6
CONTINUOUS
 70
0
 71
3
 72
15
 73
11
 74
0
 42
0.0000001
 43
0.0000001
 44
0.0000000001
 40
0.0
 40
0.0
 40
0.0
 40
0.0
 40
0.1289771792
 40
0.2574674178
 40
0.3850102462
 40
0.5113166279
 40
0.6361038867
 40
0.7591758602
 40
0.8804904843
 40
1.0
 40
1.0
 40
1.0
 40
1.0
 10
11.6028935765
 20
10.3455301992
 30
0.0
 10
11.6034541159
 20
10.3451827623
 30
0.0
 10
11.6045358978
 20
10.3444270279
 30
0.0
 10
11.6060187174
 20
10.3431262982
 30
0.0
 10
11.607338315
 20
10.3416782266
 30
0.0
 10
11.6084743838
 20
10.3401053205
 30
0.0
 10
11.6094093728
 20
10.3384311403
 30
0.0
 10
11.6101291398
 20
10.3366810509
 30
0.0
 10
11.6106219896
 20
10.3348821146
 30
0.0
 10
11.610795646
 20
10.3336589965
 30
0.0
 10
11.6108417231
 20
10.3330496638
 30
0.0
  0
SPLINE
  5
317
100
AcDbEntity
  8
0
100
AcDbSpline
 62
9
  6
CONTINUOUS
 70
0
 71
3
 72
11
 73
7
 74
0
 42
0.0000001
 43
0.0000001
 44
0.0000000001
 40
0.0
 40
0.0
 40
0.0
 40
0.0
 40
0.239528924
 40
0.4888247185
 40
0.7439346358
 40
1.0
 40
1.0
 40
1.0
 40
1.0
 10
11.5320490868
 20
10.4006391896
 30
0.0
 10
11.5309441559
 20
10.4009117619
 30
0.0
 10
11.5286222978
 20
10.4012189591
 30
0.0
 10
11.5250751652
 20
10.4009894648
 30
0.0
 10
11.5215539918
 20
10.4000983897
 30
0.0
 10
11.5193290145
 20
10.3990867433
 30
0.0
 10
11.5182718801
 20
10.3984845493
 30
0.0
  0
SPLINE
  5
318
100
AcDbEntity
  8
0
100
AcDbSpline
 62
9
  6
CONTINUOUS
 70
0
 71
3
 72
11
 73
7
 74
0
 42
0.0000001
 43
0.0000001
 44
0.0000000001
 40
0.0
 40
0.0
 40
0.0
 40
0.0
 40
0.2395254795
 40
0.4888219689
 40
0.7439337993
 40
1.0
 40
1.0
 40
1.0
 40
1.0
 10
10.5625877026
 20
10.4006392098
 30
0.0
 10
10.5636926121
 20
10.4009117049
 30
0.0
 10
10.5660144187
 20
10.4012187849
 30
0.0
 10
10.569561466
 20
10.4009892464
 30
0.0
 10
10.5730825926
 20
10.4000982422
 30
0.0
 10
10.5753075759
 20
10.3990867053
 30
0.0
 10
10.5763647226
 20
10.3984845743
 30
0.0
  0
SPLINE
  5
319
100
AcDbEntity
  8
0
100
AcDbSpline
 62
9
  6
CONTINUOUS
 70
0
 71
3
 72
15
 73
11
 74
0
 42
0.0000001
 43
0.0000001
 44
0.0000000001
 40
0.0
 40
0.0
 40
0.0
 40
0.0
 40
0.1289771792
 40
0.2574674178
 40
0.3850102462
 40
0.5113166279
 40
0.6361038867
 40
0.7591758601
 40
0.8804904843
 40
1.0
 40
1.0
 40
1.0
 40
1.0
 10
10.5627750813
 20
10.3865405327
 30
0.0
 10
10.5633562402
 20
10.3868522556
 30
0.0
 10
10.5645516163
 20
10.387411239
 30
0.0
 10
10.566419491
 20
10.3880450336
 30
0.0
 10
10.5683333566
 20
10.3884638028
 30
0.0
 10
10.5702635677
 20
10.3886612142
 30
0.0
 10
10.5721809448
 20
10.3886338484
 30
0.0
 10
10.5740564502
 20
10.3883821401
 30
0.0
 10
10.5758607996
 20
10.3879094924
 30
0.0
 10
10.5770068791
 20
10.3874483242
 30
0.0
 10
10.5775576153
 20
10.3871835618
 30
0.0
  0
SPLINE
  5
31A
100
AcDbEntity
  8
0
100
AcDbSpline
 62
9
  6
CONTINUOUS
 70
0
 71
3
 72
26
 73
22
 74
0
 42
0.0000001
 43
0.0000001
 44
0.0000000001
 40
0.0
 40
0.0
 40
0.0
 40
0.0
 40
0.1395390235
 40
0.278551839
 40
0.3475843702
 40
0.4160873055
 40
0.4838474782
 40
0.5506018536
 40
0.6160284629
 40
0.6797313967
 40
0.7412506737
 40
0.7710260814
 40
0.8000556966
 40
0.8282655246
 40
0.8555918269
 40
0.88198286
 40
0.9073983448
 40
0.9318384829
 40
0.9553477494
 40
0.9780218271
 40
1.0
 40
1.0
 40
1.0
 40
1.0
 10
11.4748221854
 20
10.4203580548
 30
0.0
 10
11.4770453608
 20
10.419707821
 30
0.0
 10
11.4814741896
 20
10.4183782217
 30
0.0
 10
11.4869684544
 20
10.4166147385
 30
0.0
 10
11.4913121264
 20
10.4151289085
 30
0.0
 10
11.4945197549
 20
10.413977534
 30
0.0
 10
11.4976708225
 20
10.412781939
 30
0.0
 10
11.5007474674
 20
10.4115361424
 30
0.0
 10
11.5037270142
 20
10.4102327198
 30
0.0
 10
11.5065803657
 20
10.4088620698
 30
0.0
 10
11.5088472269
 20
10.4076420183
 30
0.0
 10
11.5105602786
 20
10.40661428
 30
0.0
 10
11.5117719095
 20
10.4058272901
 30
0.0
 10
11.5129166917
 20
10.4050140437
 30
0.0
 10
11.5139862133
 20
10.4041730042
 30
0.0
 10
11.5149714809
 20
10.4033029841
 30
0.0
 10
11.5158626348
 20
10.4024026327
 30
0.0
 10
11.5166492481
 20
10.4014710284
 30
0.0
 10
11.5173224405
 20
10.4005089574
 30
0.0
 10
11.5178727601
 20
10.3995179035
 30
0.0
 10
11.5181555316
 20
10.3988303165
 30
0.0
 10
11.5182718837
 20
10.3984845349
 30
0.0
  0
SPLINE
  5
31B
100
AcDbEntity
  8
0
100
AcDbSpline
 62
9
  6
CONTINUOUS
 70
0
 71
3
 72
14
 73
10
 74
0
 42
0.0000001
 43
0.0000001
 44
0.0000000001
 40
0.0
 40
0.0
 40
0.0
 40
0.0
 40
0.2740459539
 40
0.4021943964
 40
0.5257618683
 40
0.6460232514
 40
0.7643134112
 40
0.8819151723
 40
1.0
 40
1.0
 40
1.0
 40
1.0
 10
11.5182718837
 20
10.3984845349
 30
0.0
 10
11.5186149306
 20
10.3974643419
 30
0.0
 10
11.5189823516
 20
10.3959123292
 30
0.0
 10
11.519112325
 20
10.3938479333
 30
0.0
 10
11.5190341124
 20
10.3923854629
 30
0.0
 10
11.5187869845
 20
10.3909813398
 30
0.0
 10
11.5183772169
 20
10.3896402049
 30
0.0
 10
11.5178115005
 20
10.3883667621
 30
0.0
 10
11.5173377723
 20
10.3875687183
 30
0.0
 10
11.5170791891
 20
10.3871837136
 30
0.0
  0
SPLINE
  5
31C
100
AcDbEntity
  8
0
100
AcDbSpline
 62
9
  6
CONTINUOUS
 70
0
 71
3
 72
14
 73
10
 74
0
 42
0.0000001
 43
0.0000001
 44
0.0000000001
 40
0.0
 40
0.0
 40
0.0
 40
0.0
 40
0.1180918939
 40
0.2356940037
 40
0.3539807734
 40
0.4742401551
 40
0.5978097267
 40
0.7259592835
 40
1.0
 40
1.0
 40
1.0
 40
1.0
 10
10.5775576199
 20
10.3871835542
 30
0.0
 10
10.5772989972
 20
10.3875685734
 30
0.0
 10
10.5768252121
 20
10.3883666334
 30
0.0
 10
10.5762594648
 20
10.389640103
 30
0.0
 10
10.5758497319
 20
10.3909812494
 30
0.0
 10
10.5756026298
 20
10.3923853801
 30
0.0
 10
10.5755243069
 20
10.393847864
 30
0.0
 10
10.5756541023
 20
10.3959123021
 30
0.0
 10
10.5760216818
 20
10.3974642844
 30
0.0
 10
10.5763646678
 20
10.3984844917
 30
0.0
  0
SPLINE
  5
31D
100
AcDbEntity
  8
0
100
AcDbSpline
 62
9
  6
CONTINUOUS
 70
0
 71
3
 72
26
 73
22
 74
0
 42
0.0000001
 43
0.0000001
 44
0.0000000001
 40
0.0
 40
0.0
 40
0.0
 40
0.0
 40
0.0219771398
 40
0.0446507155
 40
0.0681599236
 40
0.0925999245
 40
0.1180142686
 40
0.1444028068
 40
0.1717278966
 40
0.1999390764
 40
0.2289709926
 40
0.2587473159
 40
0.3202654762
 40
0.3839686317
 40
0.4493959
 40
0.5161504937
 40
0.5839107174
 40
0.6524142429
 40
0.7214473093
 40
0.8604606519
 40
1.0
 40
1.0
 40
1.0
 40
1.0
 10
10.5763646678
 20
10.3984844917
 30
0.0
 10
10.5764810685
 20
10.3988302415
 30
0.0
 10
10.5767642531
 20
10.3995176596
 30
0.0
 10
10.577315336
 20
10.4005082563
 30
0.0
 10
10.5779888446
 20
10.4014700769
 30
0.0
 10
10.5787752057
 20
10.4024018438
 30
0.0
 10
10.5796654353
 20
10.4033030132
 30
0.0
 10
10.5806498382
 20
10.404173927
 30
0.0
 10
10.5817192375
 20
10.4050151066
 30
0.0
 10
10.5828644226
 20
10.4058278824
 30
0.0
 10
10.5840764657
 20
10.4066143865
 30
0.0
 10
10.5857896384
 20
10.4076420041
 30
0.0
 10
10.58805635
 20
10.4088623713
 30
0.0
 10
10.5909098076
 20
10.4102328598
 30
0.0
 10
10.593889436
 20
10.4115361894
 30
0.0
 10
10.5969661059
 20
10.412782028
 30
0.0
 10
10.6001172206
 20
10.413977608
 30
0.0
 10
10.6033249293
 20
10.4151288878
 30
0.0
 10
10.6076686488
 20
10.4166147596
 30
0.0
 10
10.6131628997
 20
10.4183784985
 30
0.0
 10
10.6175918109
 20
10.4197079871
 30
0.0
 10
10.6198149918
 20
10.4203582797
 30
0.0
  0
SPLINE
  5
31E
100
AcDbEntity
  8
0
100
AcDbSpline
 62
9
  6
CONTINUOUS
 70
0
 71
3
 72
11
 73
7
 74
0
 42
0.0000001
 43
0.0000001
 44
0.0000000001
 40
0.0
 40
0.0
 40
0.0
 40
0.0
 40
0.239528924
 40
0.4888247182
 40
0.7439346357
 40
1.0
 40
1.0
 40
1.0
 40
1.0
 10
10.4796270508
 20
10.3527419001
 30
0.0
 10
10.4788385308
 20
10.3519212881
 30
0.0
 10
10.4774115611
 20
10.3500640985
 30
0.0
 10
10.4758367427
 20
10.3468774444
 30
0.0
 10
10.4748478497
 20
10.3433824813
 30
0.0
 10
10.4746114725
 20
10.3409497712
 30
0.0
 10
10.4746044207
 20
10.3397331689
 30
0.0
  0
SPLINE
  5
31F
100
AcDbEntity
  8
0
100
AcDbSpline
 62
9
  6
CONTINUOUS
 70
0
 71
3
 72
26
 73
22
 74
0
 42
0.0000001
 43
0.0000001
 44
0.0000000001
 40
0.0
 40
0.0
 40
0.0
 40
0.0
 40
0.1395390235
 40
0.278551839
 40
0.3475843702
 40
0.4160873055
 40
0.4838474782
 40
0.5506018536
 40
0.6160284629
 40
0.6797313967
 40
0.7412506737
 40
0.7710260814
 40
0.8000556966
 40
0.8282655246
 40
0.8555918269
 40
0.88198286
 40
0.9073983448
 40
0.9318384829
 40
0.9553477494
 40
0.9780218271
 40
1.0
 40
1.0
 40
1.0
 40
1.0
 10
10.4339365619
 20
10.3130413823
 30
0.0
 10
10.4356112686
 20
10.3146415918
 30
0.0
 10
10.4389771497
 20
10.3178122704
 30
0.0
 10
10.4432515034
 20
10.3216887016
 30
0.0
 10
10.4467101059
 20
10.3247075169
 30
0.0
 10
10.4493110397
 20
10.3269097175
 30
0.0
 10
10.4519219891
 20
10.3290408245
 30
0.0
 10
10.4545392031
 20
10.3310823789
 30
0.0
 10
10.4571577736
 20
10.3330110308
 30
0.0
 10
10.4597714671
 20
10.3347967807
 30
0.0
 10
10.4619614933
 20
10.3361499143
 30
0.0
 10
10.4637080665
 20
10.3371195915
 30
0.0
 10
10.4649954353
 20
10.3377753996
 30
0.0
 10
10.4662721184
 20
10.3383601869
 30
0.0
 10
10.4675352408
 20
10.3388659001
 30
0.0
 10
10.4687813341
 20
10.3392841568
 30
0.0
 10
10.4700066382
 20
10.339605743
 30
0.0
 10
10.4712067379
 20
10.339821168
 30
0.0
 10
10.4723765119
 20
10.3399231341
 30
0.0
 10
10.4735099497
 20
10.339904198
 30
0.0
 10
10.4742468032
 20
10.3398052917
 30
0.0
 10
10.4746044349
 20
10.3397331648
 30
0.0
  0
SPLINE
  5
320
100
AcDbEntity
  8
0
100
AcDbSpline
 62
9
  6
CONTINUOUS
 70
0
 71
3
 72
14
 73
10
 74
0
 42
0.0000001
 43
0.0000001
 44
0.0000000001
 40
0.0
 40
0.0
 40
0.0
 40
0.0
 40
0.2740459539
 40
0.4021943964
 40
0.5257618683
 40
0.6460232514
 40
0.7643134112
 40
0.8819151723
 40
1.0
 40
1.0
 40
1.0
 40
1.0
 10
10.4746044349
 20
10.3397331648
 30
0.0
 10
10.4756594714
 20
10.3395201557
 30
0.0
 10
10.4771872643
 20
10.3390623453
 30
0.0
 10
10.4790400703
 20
10.3381427076
 30
0.0
 10
10.4802675005
 20
10.3373437382
 30
0.0
 10
10.4813599429
 20
10.3364276577
 30
0.0
 10
10.482316516
 20
10.3354022211
 30
0.0
 10
10.4831364915
 20
10.3342755749
 30
0.0
 10
10.4835907537
 20
10.3334662923
 30
0.0
 10
10.4837948859
 20
10.3330498504
 30
0.0
  0
SPLINE
  5
321
100
AcDbEntity
  8
0
100
AcDbSpline
 62
9
  6
CONTINUOUS
 70
0
 71
3
 72
11
 73
7
 74
0
 42
0.0000001
 43
0.0000001
 44
0.0000000001
 40
0.0
 40
0.0
 40
0.0
 40
0.0
 40
0.2395254538
 40
0.4888219382
 40
0.7439337807
 40
1.0
 40
1.0
 40
1.0
 40
1.0
 10
10.4796269872
 20
8.5777908289
 30
0.0
 10
10.4788385433
 20
8.578611461
 30
0.0
 10
10.4774116979
 20
8.5804686653
 30
0.0
 10
10.4758369572
 20
8.5836552701
 30
0.0
 10
10.474848024
 20
8.5871501608
 30
0.0
 10
10.4746115486
 20
8.5895828241
 30
0.0
 10
10.4746044359
 20
8.5907994068
 30
0.0
  0
SPLINE
  5
322
100
AcDbEntity
  8
0
100
AcDbSpline
 62
9
  6
CONTINUOUS
 70
0
 71
3
 72
15
 73
11
 74
0
 42
0.0000001
 43
0.0000001
 44
0.0000000001
 40
0.0
 40
0.0
 40
0.0
 40
0.0
 40
0.1289771792
 40
0.2574674178
 40
0.3850102462
 40
0.5113166279
 40
0.6361038867
 40
0.7591758601
 40
0.8804904843
 40
1.0
 40
1.0
 40
1.0
 40
1.0
 10
10.4917431
 20
8.585002453
 30
0.0
 10
10.4911825607
 20
8.5853498899
 30
0.0
 10
10.4901007787
 20
8.5861056243
 30
0.0
 10
10.4886179592
 20
8.587406354
 30
0.0
 10
10.4872983615
 20
8.5888544256
 30
0.0
 10
10.4861622928
 20
8.5904273317
 30
0.0
 10
10.4852273037
 20
8.5921015119
 30
0.0
 10
10.4845075368
 20
8.5938516013
 30
0.0
 10
10.4840146869
 20
8.5956505376
 30
0.0
 10
10.4838410306
 20
8.5968736557
 30
0.0
 10
10.4837949535
 20
8.5974829884
 30
0.0
  0
SPLINE
  5
323
100
AcDbEntity
  8
0
100
AcDbSpline
 62
9
  6
CONTINUOUS
 70
0
 71
3
 72
14
 73
10
 74
0
 42
0.0000001
 43
0.0000001
 44
0.0000000001
 40
0.0
 40
0.0
 40
0.0
 40
0.0
 40
0.1180918939
 40
0.2356940037
 40
0.3539807734
 40
0.4742401551
 40
0.5978097267
 40
0.7259592835
 40
1.0
 40
1.0
 40
1.0
 40
1.0
 10
10.4837949577
 20
8.5974829962
 30
0.0
 10
10.4835908327
 20
8.5970665128
 30
0.0
 10
10.483136585
 20
8.5962571729
 30
0.0
 10
10.4823166017
 20
8.5951304866
 30
0.0
 10
10.4813600013
 20
8.5941050742
 30
0.0
 10
10.4802675394
 20
8.5931890122
 30
0.0
 10
10.4790401527
 20
8.5923899406
 30
0.0
 10
10.4771873992
 20
8.5914701277
 30
0.0
 10
10.4756595533
 20
8.5910124697
 30
0.0
 10
10.4746045348
 20
8.5907994007
 30
0.0
  0
SPLINE
  5
324
100
AcDbEntity
  8
0
100
AcDbSpline
 62
9
  6
CONTINUOUS
 70
0
 71
3
 72
26
 73
22
 74
0
 42
0.0000001
 43
0.0000001
 44
0.0000000001
 40
0.0
 40
0.0
 40
0.0
 40
0.0
 40
0.0219771398
 40
0.0446507155
 40
0.0681599236
 40
0.0925999245
 40
0.1180142686
 40
0.1444028068
 40
0.1717278966
 40
0.1999390764
 40
0.2289709926
 40
0.2587473159
 40
0.3202654762
 40
0.3839686317
 40
0.4493959
 40
0.5161504937
 40
0.5839107174
 40
0.6524142429
 40
0.7214473093
 40
0.8604606519
 40
1.0
 40
1.0
 40
1.0
 40
1.0
 10
10.4746045348
 20
8.5907994007
 30
0.0
 10
10.4742469064
 20
8.5907273317
 30
0.0
 10
10.4735099926
 20
8.5906288677
 30
0.0
 10
10.4723765692
 20
8.5906108212
 30
0.0
 10
10.4712068538
 20
8.5907131865
 30
0.0
 10
10.4700067395
 20
8.5909283116
 30
0.0
 10
10.468781189
 20
8.5912486884
 30
0.0
 10
10.4675347542
 20
8.5916657494
 30
0.0
 10
10.4662715716
 20
8.5921712866
 30
0.0
 10
10.4649950946
 20
8.5927566581
 30
0.0
 10
10.4637079404
 20
8.5934130661
 30
0.0
 10
10.4619614111
 20
8.5943829085
 30
0.0
 10
10.4597711864
 20
8.5957357547
 30
0.0
 10
10.4571575797
 20
8.5975216772
 30
0.0
 10
10.454539049
 20
8.5994504463
 30
0.0
 10
10.4519217861
 20
8.6014920013
 30
0.0
 10
10.4493108261
 20
8.6036231566
 30
0.0
 10
10.4467099343
 20
8.6058254739
 30
0.0
 10
10.4432512717
 20
8.6088443095
 30
0.0
 10
10.4389767036
 20
8.6127206009
 30
0.0
 10
10.4356108771
 20
8.6158914062
 30
0.0
 10
10.4339361168
 20
8.617491591
 30
0.0
  0
SPLINE
  5
325
100
AcDbEntity
  8
0
100
AcDbSpline
 62
9
  6
CONTINUOUS
 70
0
 71
3
 72
11
 73
7
 74
0
 42
0.0000001
 43
0.0000001
 44
0.0000000001
 40
0.0
 40
0.0
 40
0.0
 40
0.0
 40
0.239528924
 40
0.4888247183
 40
0.7439346358
 40
1.0
 40
1.0
 40
1.0
 40
1.0
 10
10.5625875897
 20
8.5298934626
 30
0.0
 10
10.5636925206
 20
8.5296208903
 30
0.0
 10
10.5660143788
 20
8.5293136931
 30
0.0
 10
10.5695615114
 20
8.5295431874
 30
0.0
 10
10.5730826847
 20
8.5304342625
 30
0.0
 10
10.5753076621
 20
8.5314459089
 30
0.0
 10
10.5763647964
 20
8.532048103
 30
0.0
  0
SPLINE
  5
326
100
AcDbEntity
  8
0
100
AcDbSpline
 62
9
  6
CONTINUOUS
 70
0
 71
3
 72
11
 73
7
 74
0
 42
0.0000001
 43
0.0000001
 44
0.0000000001
 40
0.0
 40
0.0
 40
0.0
 40
0.0
 40
0.2395254791
 40
0.4888219684
 40
0.743933799
 40
1.0
 40
1.0
 40
1.0
 40
1.0
 10
11.5320489742
 20
8.5298934424
 30
0.0
 10
11.5309440647
 20
8.5296209473
 30
0.0
 10
11.5286222581
 20
8.5293138673
 30
0.0
 10
11.5250752107
 20
8.5295434058
 30
0.0
 10
11.5215540841
 20
8.5304344099
 30
0.0
 10
11.5193291007
 20
8.5314459469
 30
0.0
 10
11.518271954
 20
8.5320480779
 30
0.0
  0
SPLINE
  5
327
100
AcDbEntity
  8
0
100
AcDbSpline
 62
9
  6
CONTINUOUS
 70
0
 71
3
 72
15
 73
11
 74
0
 42
0.0000001
 43
0.0000001
 44
0.0000000001
 40
0.0
 40
0.0
 40
0.0
 40
0.0
 40
0.1289771792
 40
0.2574674178
 40
0.3850102462
 40
0.5113166279
 40
0.6361038867
 40
0.7591758601
 40
0.8804904843
 40
1.0
 40
1.0
 40
1.0
 40
1.0
 10
11.5318615953
 20
8.5439921195
 30
0.0
 10
11.5312804364
 20
8.5436803966
 30
0.0
 10
11.5300850603
 20
8.5431214132
 30
0.0
 10
11.5282171855
 20
8.5424876187
 30
0.0
 10
11.5263033199
 20
8.5420688494
 30
0.0
 10
11.5243731089
 20
8.541871438
 30
0.0
 10
11.5224557318
 20
8.5418988039
 30
0.0
 10
11.5205802264
 20
8.5421505121
 30
0.0
 10
11.5187758769
 20
8.5426231598
 30
0.0
 10
11.5176297975
 20
8.543084328
 30
0.0
 10
11.5170790613
 20
8.5433490904
 30
0.0
  0
SPLINE
  5
328
100
AcDbEntity
  8
0
100
AcDbSpline
 62
9
  6
CONTINUOUS
 70
0
 71
3
 72
26
 73
22
 74
0
 42
0.0000001
 43
0.0000001
 44
0.0000000001
 40
0.0
 40
0.0
 40
0.0
 40
0.0
 40
0.1395390235
 40
0.278551839
 40
0.3475843702
 40
0.4160873055
 40
0.4838474782
 40
0.5506018536
 40
0.6160284629
 40
0.6797313967
 40
0.7412506737
 40
0.7710260814
 40
0.8000556966
 40
0.8282655246
 40
0.8555918269
 40
0.88198286
 40
0.9073983448
 40
0.9318384829
 40
0.9553477494
 40
0.9780218271
 40
1.0
 40
1.0
 40
1.0
 40
1.0
 10
10.6198144911
 20
8.5101745974
 30
0.0
 10
10.6175913157
 20
8.5108248312
 30
0.0
 10
10.613162487
 20
8.5121544305
 30
0.0
 10
10.6076682222
 20
8.5139179137
 30
0.0
 10
10.6033245502
 20
8.5154037437
 30
0.0
 10
10.6001169217
 20
8.5165551182
 30
0.0
 10
10.5969658541
 20
8.5177507132
 30
0.0
 10
10.5938892091
 20
8.5189965098
 30
0.0
 10
10.5909096624
 20
8.5202999325
 30
0.0
 10
10.5880563108
 20
8.5216705825
 30
0.0
 10
10.5857894496
 20
8.5228906339
 30
0.0
 10
10.584076398
 20
8.5239183722
 30
0.0
 10
10.582864767
 20
8.5247053621
 30
0.0
 10
10.5817199849
 20
8.5255186085
 30
0.0
 10
10.5806504632
 20
8.526359648
 30
0.0
 10
10.5796651957
 20
8.5272296681
 30
0.0
 10
10.5787740418
 20
8.5281300195
 30
0.0
 10
10.5779874284
 20
8.5290616238
 30
0.0
 10
10.5773142361
 20
8.5300236948
 30
0.0
 10
10.5767639164
 20
8.5310147487
 30
0.0
 10
10.576481145
 20
8.5317023358
 30
0.0
 10
10.5763647929
 20
8.5320481173
 30
0.0
  0
SPLINE
  5
329
100
AcDbEntity
  8
0
100
AcDbSpline
 62
9
  6
CONTINUOUS
 70
0
 71
3
 72
14
 73
10
 74
0
 42
0.0000001
 43
0.0000001
 44
0.0000000001
 40
0.0
 40
0.0
 40
0.0
 40
0.0
 40
0.2740459539
 40
0.4021943964
 40
0.5257618683
 40
0.6460232514
 40
0.7643134112
 40
0.8819151723
 40
1.0
 40
1.0
 40
1.0
 40
1.0
 10
10.5763647929
 20
8.5320481173
 30
0.0
 10
10.5760217459
 20
8.5330683103
 30
0.0
 10
10.5756543249
 20
8.534620323
 30
0.0
 10
10.5755243516
 20
8.5366847189
 30
0.0
 10
10.5756025642
 20
8.5381471893
 30
0.0
 10
10.575849692
 20
8.5395513124
 30
0.0
 10
10.5762594596
 20
8.5408924473
 30
0.0
 10
10.5768251761
 20
8.5421658901
 30
0.0
 10
10.5772989043
 20
8.5429639339
 30
0.0
 10
10.5775574875
 20
8.5433489386
 30
0.0
  0
SPLINE
  5
32A
100
AcDbEntity
  8
0
100
AcDbSpline
 62
9
  6
CONTINUOUS
 70
0
 71
3
 72
14
 73
10
 74
0
 42
0.0000001
 43
0.0000001
 44
0.0000000001
 40
0.0
 40
0.0
 40
0.0
 40
0.0
 40
0.1180918939
 40
0.2356940037
 40
0.3539807734
 40
0.4742401551
 40
0.5978097267
 40
0.7259592835
 40
1.0
 40
1.0
 40
1.0
 40
1.0
 10
11.5170790566
 20
8.543349098
 30
0.0
 10
11.5173376794
 20
8.5429640788
 30
0.0
 10
11.5178114644
 20
8.5421660188
 30
0.0
 10
11.5183772117
 20
8.5408925492
 30
0.0
 10
11.5187869447
 20
8.5395514028
 30
0.0
 10
11.5190340468
 20
8.5381472721
 30
0.0
 10
11.5191123697
 20
8.5366847882
 30
0.0
 10
11.5189825743
 20
8.5346203501
 30
0.0
 10
11.5186149948
 20
8.5330683678
 30
0.0
 10
11.5182720087
 20
8.5320481605
 30
0.0
  0
SPLINE
  5
32B
100
AcDbEntity
  8
0
100
AcDbSpline
 62
9
  6
CONTINUOUS
 70
0
 71
3
 72
26
 73
22
 74
0
 42
0.0000001
 43
0.0000001
 44
0.0000000001
 40
0.0
 40
0.0
 40
0.0
 40
0.0
 40
0.0219771398
 40
0.0446507155
 40
0.0681599236
 40
0.0925999245
 40
0.1180142685
 40
0.1444028068
 40
0.1717278966
 40
0.1999390764
 40
0.2289709926
 40
0.2587473159
 40
0.3202654762
 40
0.3839686317
 40
0.4493959
 40
0.5161504937
 40
0.5839107174
 40
0.6524142429
 40
0.7214473093
 40
0.8604606519
 40
1.0
 40
1.0
 40
1.0
 40
1.0
 10
11.5182720087
 20
8.5320481605
 30
0.0
 10
11.5181556081
 20
8.5317024107
 30
0.0
 10
11.5178724235
 20
8.5310149926
 30
0.0
 10
11.5173213406
 20
8.530024396
 30
0.0
 10
11.5166478319
 20
8.5290625753
 30
0.0
 10
11.5158614709
 20
8.5281308084
 30
0.0
 10
11.5149712412
 20
8.527229639
 30
0.0
 10
11.5139868384
 20
8.5263587252
 30
0.0
 10
11.5129174391
 20
8.5255175456
 30
0.0
 10
11.511772254
 20
8.5247047698
 30
0.0
 10
11.5105602109
 20
8.5239182657
 30
0.0
 10
11.5088470381
 20
8.5228906481
 30
0.0
 10
11.5065803266
 20
8.5216702809
 30
0.0
 10
11.503726869
 20
8.5202997924
 30
0.0
 10
11.5007472406
 20
8.5189964628
 30
0.0
 10
11.4976705707
 20
8.5177506242
 30
0.0
 10
11.494519456
 20
8.5165550442
 30
0.0
 10
11.4913117473
 20
8.5154037644
 30
0.0
 10
11.4869680277
 20
8.5139178926
 30
0.0
 10
11.4814737768
 20
8.5121541537
 30
0.0
 10
11.4770448657
 20
8.5108246651
 30
0.0
 10
11.4748216848
 20
8.5101743725
 30
0.0
  0
SPLINE
  5
32C
100
AcDbEntity
  8
0
100
AcDbSpline
 62
9
  6
CONTINUOUS
 70
0
 71
3
 72
11
 73
7
 74
0
 42
0.0000001
 43
0.0000001
 44
0.0000000001
 40
0.0
 40
0.0
 40
0.0
 40
0.0
 40
0.239528924
 40
0.4888247182
 40
0.7439346357
 40
1.0
 40
1.0
 40
1.0
 40
1.0
 10
11.6150096258
 20
8.5777907521
 30
0.0
 10
11.6157981458
 20
8.5786113641
 30
0.0
 10
11.6172251154
 20
8.5804685537
 30
0.0
 10
11.6187999339
 20
8.5836552078
 30
0.0
 10
11.6197888269
 20
8.5871501709
 30
0.0
 10
11.6200252041
 20
8.589582881
 30
0.0
 10
11.6200322559
 20
8.5907994833
 30
0.0
  0
SPLINE
  5
32D
100
AcDbEntity
  8
0
100
AcDbSpline
 62
9
  6
CONTINUOUS
 70
0
 71
3
 72
26
 73
22
 74
0
 42
0.0000001
 43
0.0000001
 44
0.0000000001
 40
0.0
 40
0.0
 40
0.0
 40
0.0
 40
0.1395390235
 40
0.278551839
 40
0.3475843702
 40
0.4160873055
 40
0.4838474782
 40
0.5506018536
 40
0.6160284629
 40
0.6797313967
 40
0.7412506737
 40
0.7710260814
 40
0.8000556966
 40
0.8282655246
 40
0.8555918269
 40
0.88198286
 40
0.9073983448
 40
0.9318384829
 40
0.9553477494
 40
0.9780218271
 40
1.0
 40
1.0
 40
1.0
 40
1.0
 10
11.6607001147
 20
8.6174912699
 30
0.0
 10
11.659025408
 20
8.6158910604
 30
0.0
 10
11.6556595269
 20
8.6127203818
 30
0.0
 10
11.6513851732
 20
8.6088439506
 30
0.0
 10
11.6479265707
 20
8.6058251353
 30
0.0
 10
11.6453256369
 20
8.6036229347
 30
0.0
 10
11.6427146874
 20
8.6014918277
 30
0.0
 10
11.6400974735
 20
8.5994502733
 30
0.0
 10
11.637478903
 20
8.5975216214
 30
0.0
 10
11.6348652095
 20
8.5957358715
 30
0.0
 10
11.6326751833
 20
8.5943827379
 30
0.0
 10
11.63092861
 20
8.5934130607
 30
0.0
 10
11.6296412413
 20
8.5927572526
 30
0.0
 10
11.6283645582
 20
8.5921724653
 30
0.0
 10
11.6271014358
 20
8.5916667521
 30
0.0
 10
11.6258553424
 20
8.5912484955
 30
0.0
 10
11.6246300384
 20
8.5909269092
 30
0.0
 10
11.6234299387
 20
8.5907114842
 30
0.0
 10
11.6222601646
 20
8.5906095181
 30
0.0
 10
11.6211267269
 20
8.5906284542
 30
0.0
 10
11.6203898733
 20
8.5907273605
 30
0.0
 10
11.6200322417
 20
8.5907994874
 30
0.0
  0
SPLINE
  5
32E
100
AcDbEntity
  8
0
100
AcDbSpline
 62
9
  6
CONTINUOUS
 70
0
 71
3
 72
14
 73
10
 74
0
 42
0.0000001
 43
0.0000001
 44
0.0000000001
 40
0.0
 40
0.0
 40
0.0
 40
0.0
 40
0.2740459539
 40
0.4021943964
 40
0.5257618683
 40
0.6460232514
 40
0.7643134112
 40
0.8819151723
 40
1.0
 40
1.0
 40
1.0
 40
1.0
 10
11.6200322417
 20
8.5907994874
 30
0.0
 10
11.6189772052
 20
8.5910124965
 30
0.0
 10
11.6174494122
 20
8.5914703069
 30
0.0
 10
11.6155966063
 20
8.5923899446
 30
0.0
 10
11.614369176
 20
8.593188914
 30
0.0
 10
11.6132767337
 20
8.5941049945
 30
0.0
 10
11.6123201606
 20
8.5951304311
 30
0.0
 10
11.611500185
 20
8.5962570773
 30
0.0
 10
11.6110459229
 20
8.5970663599
 30
0.0
 10
11.6108417906
 20
8.5974828018
 30
0.0
  0
SPLINE
  5
32F
100
AcDbEntity
  8
0
100
AcDbSpline
 62
9
  6
CONTINUOUS
 70
0
 71
3
 72
45
 73
41
 74
0
 42
0.0000001
 43
0.0000001
 44
0.0000000001
 40
0.0
 40
0.0
 40
0.0
 40
0.0
 40
0.0455358576
 40
0.091092847
 40
0.1366786423
 40
0.1823044765
 40
0.2051376318
 40
0.2279882489
 40
0.250860596
 40
0.2737608767
 40
0.2966978208
 40
0.319685622
 40
0.3427479519
 40
0.35432025
 40
0.3659318134
 40
0.3775979904
 40
0.3893455082
 40
0.4012247096
 40
0.4072432757
 40
0.4133407758
 40
0.4195518796
 40
0.4259186288
 40
0.4324829349
 40
0.4392829793
 40
0.4536556081
 40
0.4690906469
 40
0.485529666
 40
0.5028903258
 40
0.521090184
 40
0.5400487208
 40
0.5596938007
 40
0.5799596781
 40
0.6221148155
 40
0.6660943275
 40
0.7115290622
 40
0.7581045881
 40
0.8055603263
 40
0.8536649001
 40
0.9022169297
 40
1.0
 40
1.0
 40
1.0
 40
1.0
 10
10.5228546089
 20
10.2903077124
 30
0.0
 10
10.5235065582
 20
10.2888139606
 30
0.0
 10
10.5248078225
 20
10.2858244803
 30
0.0
 10
10.5267473434
 20
10.281333353
 30
0.0
 10
10.5286699896
 20
10.2768314671
 30
0.0
 10
10.530252089
 20
10.2730685936
 30
0.0
 10
10.5315006528
 20
10.270048318
 30
0.0
 10
10.5324270419
 20
10.267776128
 30
0.0
 10
10.5333409558
 20
10.2654962959
 30
0.0
 10
10.5342390617
 20
10.2632068618
 30
0.0
 10
10.5351174412
 20
10.26090534
 30
0.0
 10
10.5359694473
 20
10.2585877217
 30
0.0
 10
10.5366489302
 20
10.2566402639
 30
0.0
 10
10.5371653791
 20
10.2550675908
 30
0.0
 10
10.5375360618
 20
10.2538765212
 30
0.0
 10
10.5378845895
 20
10.2526721914
 30
0.0
 10
10.5382026355
 20
10.2514494936
 30
0.0
 10
10.5384297532
 20
10.2504125192
 30
0.0
 10
10.538575903
 20
10.2495660554
 30
0.0
 10
10.5386635472
 20
10.248915768
 30
0.0
 10
10.5387202836
 20
10.2482494196
 30
0.0
 10
10.5387383446
 20
10.2475640818
 30
0.0
 10
10.5387113
 20
10.246857848
 30
0.0
 10
10.5386070709
 20
10.2458699118
 30
0.0
 10
10.5383451724
 20
10.2445827792
 30
0.0
 10
10.5378498484
 20
10.2430011354
 30
0.0
 10
10.5371895678
 20
10.2413656456
 30
0.0
 10
10.5363816101
 20
10.2396878032
 30
0.0
 10
10.5354409518
 20
10.2379772374
 30
0.0
 10
10.5343809474
 20
10.236241616
 30
0.0
 10
10.5332126691
 20
10.2344875142
 30
0.0
 10
10.5315009445
 20
10.2320999203
 30
0.0
 10
10.5291402895
 20
10.2291087713
 30
0.0
 10
10.52604357
 20
10.225559092
 30
0.0
 10
10.5226947443
 20
10.2220252341
 30
0.0
 10
10.519135339
 20
10.2185241611
 30
0.0
 10
10.5153984226
 20
10.2150710577
 30
0.0
 10
10.5115141247
 20
10.211676279
 30
0.0
 10
10.5061605656
 20
10.2072288222
 30
0.0
 10
10.5020186817
 20
10.2040195558
 30
0.0
 10
10.4992108974
 20
10.2019302007
 30
0.0
  0
SPLINE
  5
330
100
AcDbEntity
  8
0
100
AcDbSpline
 62
9
  6
CONTINUOUS
 70
0
 71
3
 72
11
 73
7
 74
0
 42
0.0000001
 43
0.0000001
 44
0.0000000001
 40
0.0
 40
0.0
 40
0.0
 40
0.0
 40
0.2493125944
 40
0.4989562824
 40
0.7491029583
 40
1.0
 40
1.0
 40
1.0
 40
1.0
 10
10.5167844641
 20
10.302212383
 30
0.0
 10
10.5173405419
 20
10.3012505046
 30
0.0
 10
10.5184300796
 20
10.2993118552
 30
0.0
 10
10.5199922687
 20
10.2963611714
 30
0.0
 10
10.521477378
 20
10.293363011
 30
0.0
 10
10.5224073385
 20
10.2913324669
 30
0.0
 10
10.5228546089
 20
10.2903077124
 30
0.0
  0
LINE
  5
331
100
AcDbEntity
  8
0
100
AcDbLine
 62
9
  6
CONTINUOUS
 10
10.4917430122
 20
10.3455302709
 11
10.5167844641
 21
10.302212383
  0
SPLINE
  5
332
100
AcDbEntity
  8
0
100
AcDbSpline
 62
9
  6
CONTINUOUS
 70
0
 71
3
 72
15
 73
11
 74
0
 42
0.0000001
 43
0.0000001
 44
0.0000000001
 40
0.0
 40
0.0
 40
0.0
 40
0.0
 40
0.1463842423
 40
0.2847962581
 40
0.4158528988
 40
0.5404866822
 40
0.6598398278
 40
0.7752570983
 40
0.8881655353
 40
1.0
 40
1.0
 40
1.0
 40
1.0
 10
10.4796270506
 20
10.3527419001
 30
0.0
 10
10.480331684
 20
10.3526380347
 30
0.0
 10
10.4816954047
 20
10.3523812524
 30
0.0
 10
10.48364504
 20
10.3518293107
 30
0.0
 10
10.4854326743
 20
10.3511260663
 30
0.0
 10
10.4870522597
 20
10.350276949
 30
0.0
 10
10.4884989964
 20
10.3492870975
 30
0.0
 10
10.4897698055
 20
10.3481635846
 30
0.0
 10
10.4908618736
 20
10.346914039
 30
0.0
 10
10.4914706797
 20
10.3460013605
 30
0.0
 10
10.4917430122
 20
10.3455302709
 30
0.0
  0
SPLINE
  5
333
100
AcDbEntity
  8
0
100
AcDbSpline
 62
7
  6
CONTINUOUS
 70
0
 71
3
 72
30
 73
26
 74
0
 42
0.0000001
 43
0.0000001
 44
0.0000000001
 40
0.0
 40
0.0
 40
0.0
 40
0.0
 40
0.0644098537
 40
0.1287468877
 40
0.1929426262
 40
0.2569321527
 40
0.3206582359
 40
0.3840731599
 40
0.4471405336
 40
0.5098368487
 40
0.5721525553
 40
0.6031782799
 40
0.6341119777
 40
0.6649565694
 40
0.6957158646
 40
0.7263945243
 40
0.7569980232
 40
0.7875326097
 40
0.8180052404
 40
0.8484235075
 40
0.8787955687
 40
0.9091300698
 40
0.9394360509
 40
0.969722848
 40
1.0
 40
1.0
 40
1.0
 40
1.0
 10
11.0473183383
 20
4.6368812781
 30
0.0
 10
11.0391414991
 20
4.6368812781
 30
0.0
 10
11.0227870172
 20
4.63763565
 30
0.0
 10
10.9984943307
 20
4.6410201339
 30
0.0
 10
10.9746683864
 20
4.6466250266
 30
0.0
 10
10.9515407078
 20
4.6543967388
 30
0.0
 10
10.9293329221
 20
4.6642611161
 30
0.0
 10
10.9082588707
 20
4.6761236811
 30
0.0
 10
10.8885211573
 20
4.689871347
 30
0.0
 10
10.8703109791
 20
4.7053711944
 30
0.0
 10
10.8565306887
 20
4.7196503187
 30
0.0
 10
10.8464467934
 20
4.7317907649
 30
0.0
 10
10.8393772524
 20
4.7412218879
 30
0.0
 10
10.8328088137
 20
4.7509675676
 30
0.0
 10
10.8267570517
 20
4.7610045783
 30
0.0
 10
10.8212366682
 20
4.7713086917
 30
0.0
 10
10.8162609792
 20
4.7818551016
 30
0.0
 10
10.8118419748
 20
4.7926183763
 30
0.0
 10
10.8079903256
 20
4.8035725804
 30
0.0
 10
10.8047153695
 20
4.8146913183
 30
0.0
 10
10.8020250079
 20
4.8259477876
 30
0.0
 10
10.7999257173
 20
4.8373148139
 30
0.0
 10
10.7984225775
 20
4.8487651025
 30
0.0
 10
10.7975192581
 20
4.860270631
 30
0.0
 10
10.7973183513
 20
4.867960745
 30
0.0
 10
10.7973183513
 20
4.8718044333
 30
0.0
  0
SPLINE
  5
334
100
AcDbEntity
  8
0
100
AcDbSpline
 62
9
  6
CONTINUOUS
 70
0
 71
3
 72
30
 73
26
 74
0
 42
0.0000001
 43
0.0000001
 44
0.0000000001
 40
0.0
 40
0.0
 40
0.0
 40
0.0
 40
0.0644098537
 40
0.1287468877
 40
0.1929426262
 40
0.2569321527
 40
0.3206582359
 40
0.3840731599
 40
0.4471405336
 40
0.5098368487
 40
0.5721525553
 40
0.6031782799
 40
0.6341119777
 40
0.6649565694
 40
0.6957158646
 40
0.7263945243
 40
0.7569980232
 40
0.7875326097
 40
0.8180052404
 40
0.8484235075
 40
0.8787955687
 40
0.9091300698
 40
0.9394360509
 40
0.969722848
 40
1.0
 40
1.0
 40
1.0
 40
1.0
 10
11.0473183383
 20
4.8660347741
 30
0.0
 10
11.0391414991
 20
4.8660347741
 30
0.0
 10
11.0227870172
 20
4.8667891461
 30
0.0
 10
10.9984943307
 20
4.87017363
 30
0.0
 10
10.9746683864
 20
4.8757785226
 30
0.0
 10
10.9515407078
 20
4.8835502349
 30
0.0
 10
10.9293329221
 20
4.8934146121
 30
0.0
 10
10.9082588707
 20
4.9052771771
 30
0.0
 10
10.8885211573
 20
4.9190248431
 30
0.0
 10
10.8703109791
 20
4.9345246904
 30
0.0
 10
10.8565306887
 20
4.9488038148
 30
0.0
 10
10.8464467934
 20
4.9609442609
 30
0.0
 10
10.8393772524
 20
4.9703753839
 30
0.0
 10
10.8328088137
 20
4.9801210636
 30
0.0
 10
10.8267570517
 20
4.9901580744
 30
0.0
 10
10.8212366682
 20
5.0004621877
 30
0.0
 10
10.8162609792
 20
5.0110085977
 30
0.0
 10
10.8118419748
 20
5.0217718723
 30
0.0
 10
10.8079903256
 20
5.0327260764
 30
0.0
 10
10.8047153695
 20
5.0438448143
 30
0.0
 10
10.8020250079
 20
5.0551012837
 30
0.0
 10
10.7999257173
 20
5.0664683099
 30
0.0
 10
10.7984225775
 20
5.0779185985
 30
0.0
 10
10.7975192581
 20
5.0894241271
 30
0.0
 10
10.7973183513
 20
5.097114241
 30
0.0
 10
10.7973183513
 20
5.1009579293
 30
0.0
  0
SPLINE
  5
335
100
AcDbEntity
  8
0
100
AcDbSpline
 62
9
  6
CONTINUOUS
 70
0
 71
3
 72
15
 73
11
 74
0
 42
0.0000001
 43
0.0000001
 44
0.0000000001
 40
0.0
 40
0.0
 40
0.0
 40
0.0
 40
0.1118339945
 40
0.2247401203
 40
0.3401588385
 40
0.4595168655
 40
0.5841484961
 40
0.7151989084
 40
0.8536129067
 40
1.0
 40
1.0
 40
1.0
 40
1.0
 10
10.5627750585
 20
10.386540576
 30
0.0
 10
10.5625032576
 20
10.3870119761
 30
0.0
 10
10.5620171231
 20
10.387995474
 30
0.0
 10
10.5614807628
 20
10.3895659451
 30
0.0
 10
10.5611434135
 20
10.3912283566
 30
0.0
 10
10.5610098328
 20
10.3929762395
 30
0.0
 10
10.561084098
 20
10.3948033946
 30
0.0
 10
10.5613686737
 20
10.3967031827
 30
0.0
 10
10.5618656491
 20
10.3986675704
 30
0.0
 10
10.5623252083
 20
10.3999769834
 30
0.0
 10
10.5625875607
 20
10.4006391747
 30
0.0
  0
LINE
  5
336
100
AcDbEntity
  8
0
100
AcDbLine
 62
9
  6
CONTINUOUS
 10
10.5877789522
 20
10.3431774083
 11
10.5627750585
 21
10.386540576
  0
SPLINE
  5
337
100
AcDbEntity
  8
0
100
AcDbSpline
 62
9
  6
CONTINUOUS
 70
0
 71
3
 72
55
 73
51
 74
0
 42
0.0000001
 43
0.0000001
 44
0.0000000001
 40
0.0
 40
0.0
 40
0.0
 40
0.0
 40
0.0151224525
 40
0.0302568479
 40
0.0454071892
 40
0.0605773672
 40
0.0757712151
 40
0.0909922718
 40
0.1062438395
 40
0.1215289393
 40
0.1368502818
 40
0.1522102455
 40
0.1676108561
 40
0.1830537753
 40
0.214062717
 40
0.2452513857
 40
0.2609173159
 40
0.2766274152
 40
0.2923806465
 40
0.3081756117
 40
0.3398753992
 40
0.3717170589
 40
0.4036780994
 40
0.4357321702
 40
0.4678499513
 40
0.5000000975
 40
0.532150242
 40
0.5642680183
 40
0.5963220811
 40
0.6282831107
 40
0.6601247572
 40
0.6918245293
 40
0.7076194863
 40
0.723372709
 40
0.7390827995
 40
0.7547487206
 40
0.7859373711
 40
0.8169462947
 40
0.8323892053
 40
0.8477898075
 40
0.8631497631
 40
0.878471098
 40
0.8937561908
 40
0.909007752
 40
0.9242288029
 40
0.9394226456
 40
0.9545928192
 40
0.9697431568
 40
0.9848775494
 40
1.0
 40
1.0
 40
1.0
 40
1.0
 10
11.3605301043
 20
4.7143048074
 30
0.0
 10
11.3601323532
 20
4.7097384893
 30
0.0
 10
11.3591102329
 20
4.7006203391
 30
0.0
 10
11.3569023524
 20
4.6870303028
 30
0.0
 10
11.3540239865
 20
4.6735511905
 30
0.0
 10
11.350481415
 20
4.6602126922
 30
0.0
 10
11.3462823391
 20
4.6470435935
 30
0.0
 10
11.3414358299
 20
4.6340724595
 30
0.0
 10
11.3359524387
 20
4.6213273712
 30
0.0
 10
11.3298440779
 20
4.6088359327
 30
0.0
 10
11.3231239672
 20
4.5966251803
 30
0.0
 10
11.3158067304
 20
4.5847216353
 30
0.0
 10
11.3079080139
 20
4.5731507925
 30
0.0
 10
11.2966107429
 20
4.5581821441
 30
0.0
 10
11.281112668
 20
4.540424002
 30
0.0
 10
11.2639754833
 20
4.5241451717
 30
0.0
 10
11.2493520393
 20
4.5120631954
 30
0.0
 10
11.2379292588
 20
4.5034768673
 30
0.0
 10
11.2260938948
 20
4.4953993028
 30
0.0
 10
11.2097806279
 20
4.4853200516
 30
0.0
 10
11.1884818201
 20
4.4740808894
 30
0.0
 10
11.1617406588
 20
4.4629008948
 30
0.0
 10
11.1340103058
 20
4.4541036321
 30
0.0
 10
11.1055317149
 20
4.4477654482
 30
0.0
 10
11.076550453
 20
4.4439406999
 30
0.0
 10
11.0473168576
 20
4.4426621695
 30
0.0
 10
11.018083275
 20
4.4439409584
 30
0.0
 10
10.9891020513
 20
4.4477659629
 30
0.0
 10
10.9606235239
 20
4.4541043987
 30
0.0
 10
10.9328932588
 20
4.4629019066
 30
0.0
 10
10.9061522094
 20
4.4740821378
 30
0.0
 10
10.8848535136
 20
4.4853214887
 30
0.0
 10
10.8685403475
 20
4.4954008843
 30
0.0
 10
10.8567050644
 20
4.5034785536
 30
0.0
 10
10.8452823699
 20
4.5120649827
 30
0.0
 10
10.8306590468
 20
4.5241470884
 30
0.0
 10
10.8135220252
 20
4.5404260704
 30
0.0
 10
10.7980241281
 20
4.5581843497
 30
0.0
 10
10.7867270071
 20
4.573153098
 30
0.0
 10
10.7788284065
 20
4.5847240107
 30
0.0
 10
10.7715112889
 20
4.5966276204
 30
0.0
 10
10.7647913006
 20
4.6088384323
 30
0.0
 10
10.758683065
 20
4.6213299249
 30
0.0
 10
10.7531998014
 20
4.6340750617
 30
0.0
 10
10.7483534221
 20
4.6470462387
 30
0.0
 10
10.7441544782
 20
4.6602153745
 30
0.0
 10
10.7406120404
 20
4.6735539042
 30
0.0
 10
10.7377338095
 20
4.6870330419
 30
0.0
 10
10.7355260652
 20
4.7006230978
 30
0.0
 10
10.7345040363
 20
4.7097412568
 30
0.0
 10
10.7341063309
 20
4.7143075783
 30
0.0
  0
SPLINE
  5
338
100
AcDbEntity
  8
0
100
AcDbSpline
 62
9
  6
CONTINUOUS
 70
0
 71
3
 72
47
 73
43
 74
0
 42
0.0000001
 43
0.0000001
 44
0.0000000001
 40
0.0
 40
0.0
 40
0.0
 40
0.0
 40
0.0151186073
 40
0.0302564093
 40
0.045416662
 40
0.0606023783
 40
0.0910535589
 40
0.1216375633
 40
0.1369881984
 40
0.1523775149
 40
0.1678067371
 40
0.1832767883
 40
0.2143342334
 40
0.2455583823
 40
0.2769454329
 40
0.3084868316
 40
0.3401695821
 40
0.3719766826
 40
0.4038876486
 40
0.4358791131
 40
0.4679254977
 40
0.4999997242
 40
0.5320739548
 40
0.5641203518
 40
0.5961118364
 40
0.6280228298
 40
0.6598299642
 40
0.6915127541
 40
0.7230541967
 40
0.7544412944
 40
0.7856654922
 40
0.8167229867
 40
0.8321930623
 40
0.8476223084
 40
0.8630116481
 40
0.8783623057
 40
0.9089463518
 40
0.9393975689
 40
0.9545833011
 40
0.969743568
 40
0.9848813823
 40
1.0
 40
1.0
 40
1.0
 40
1.0
 10
11.3478825153
 20
4.691435562
 30
0.0
 10
11.3470555
 20
4.6873676519
 30
0.0
 10
11.3452137521
 20
4.6792633357
 30
0.0
 10
11.3418972971
 20
4.6672381427
 30
0.0
 10
11.3380312432
 20
4.6553583319
 30
0.0
 10
11.3321491631
 20
4.639730778
 30
0.0
 10
11.3234529237
 20
4.6206618086
 30
0.0
 10
11.3130604112
 20
4.6024102788
 30
0.0
 10
11.303771588
 20
4.5883609989
 30
0.0
 10
11.2963171827
 20
4.5781024233
 30
0.0
 10
11.2883984142
 20
4.5681559992
 30
0.0
 10
11.2772279119
 20
4.5553199894
 30
0.0
 10
11.2621706438
 20
4.5401451301
 30
0.0
 10
11.2425288862
 20
4.5234949214
 30
0.0
 10
11.2214328004
 20
4.5084992269
 30
0.0
 10
11.1990406032
 20
4.4952704106
 30
0.0
 10
11.1755190559
 20
4.4839062784
 30
0.0
 10
11.1510434486
 20
4.4744912016
 30
0.0
 10
11.1257960214
 20
4.4670949771
 30
0.0
 10
11.0999647279
 20
4.4617723489
 30
0.0
 10
11.0737417704
 20
4.4585627973
 30
0.0
 10
11.0473222473
 20
4.4574901079
 30
0.0
 10
11.0209026953
 20
4.4585621638
 30
0.0
 10
10.9946796507
 20
4.4617710866
 30
0.0
 10
10.9688482128
 20
4.4670930953
 30
0.0
 10
10.9436005851
 20
4.4744887144
 30
0.0
 10
10.9191247224
 20
4.483903204
 30
0.0
 10
10.8956028669
 20
4.495266772
 30
0.0
 10
10.8732103108
 20
4.508495051
 30
0.0
 10
10.8521138181
 20
4.523490239
 30
0.0
 10
10.8324716087
 20
4.5401399762
 30
0.0
 10
10.8174139286
 20
4.555314474
 30
0.0
 10
10.8062430777
 20
4.5681502158
 30
0.0
 10
10.7983240389
 20
4.5780964499
 30
0.0
 10
10.790869355
 20
4.5883548467
 30
0.0
 10
10.7815801504
 20
4.6024039032
 30
0.0
 10
10.7711871426
 20
4.6206551825
 30
0.0
 10
10.7624903847
 20
4.6397239438
 30
0.0
 10
10.7566078797
 20
4.6553513573
 30
0.0
 10
10.7527415031
 20
4.6672310753
 30
0.0
 10
10.7494247214
 20
4.6792561886
 30
0.0
 10
10.7475827531
 20
4.6873604612
 30
0.0
 10
10.7467556273
 20
4.6914283517
 30
0.0
  0
SPLINE
  5
339
100
AcDbEntity
  8
0
100
AcDbSpline
 62
9
  6
CONTINUOUS
 70
0
 71
3
 72
37
 73
33
 74
0
 42
0.0000001
 43
0.0000001
 44
0.0000000001
 40
0.0
 40
0.0
 40
0.0
 40
0.0
 40
0.0305818725
 40
0.0612701744
 40
0.0920651364
 40
0.1229656608
 40
0.15396935
 40
0.1850725496
 40
0.2162704039
 40
0.2475569248
 40
0.278925072
 40
0.3103668438
 40
0.3418733772
 40
0.3734350583
 40
0.4050416376
 40
0.4366823499
 40
0.4999994244
 40
0.5633165221
 40
0.5949572631
 40
0.626563882
 40
0.6581256134
 40
0.689632207
 40
0.7210740483
 40
0.7524422736
 40
0.78372888
 40
0.8149268264
 40
0.8460301235
 40
0.8770339145
 40
0.9079345438
 40
0.9387296124
 40
0.9694180214
 40
1.0
 40
1.0
 40
1.0
 40
1.0
 10
11.2687464787
 20
4.6017363766
 30
0.0
 10
11.265429358
 20
4.5978531401
 30
0.0
 10
11.2585616501
 20
4.5902596859
 30
0.0
 10
11.2476193339
 20
4.5794484148
 30
0.0
 10
11.2360512266
 20
4.569228346
 30
0.0
 10
11.22389391
 20
4.5596318559
 30
0.0
 10
11.211185275
 20
4.5506887334
 30
0.0
 10
11.1979650643
 20
4.5424268974
 30
0.0
 10
11.1842745703
 20
4.5348720939
 30
0.0
 10
11.1701565561
 20
4.5280478755
 30
0.0
 10
11.155655106
 20
4.5219755138
 30
0.0
 10
11.140815508
 20
4.5166739396
 30
0.0
 10
11.1256840578
 20
4.5121596676
 30
0.0
 10
11.1103081318
 20
4.5084467619
 30
0.0
 10
11.0947352055
 20
4.5055467751
 30
0.0
 10
11.0737733172
 20
4.5027757701
 30
0.0
 10
11.0473263067
 20
4.5013846946
 30
0.0
 10
11.0208792182
 20
4.5027743779
 30
0.0
 10
10.9999171686
 20
4.5055442785
 30
0.0
 10
10.9843440695
 20
4.5084434451
 30
0.0
 10
10.9689679221
 20
4.512155541
 30
0.0
 10
10.9538362029
 20
4.5166690161
 30
0.0
 10
10.938996289
 20
4.5219698087
 30
0.0
 10
10.9244944769
 20
4.5280414067
 30
0.0
 10
10.9103760559
 20
4.5348648814
 30
0.0
 10
10.8966851115
 20
4.5424189638
 30
0.0
 10
10.8834644083
 20
4.5506801034
 30
0.0
 10
10.8707552402
 20
4.5596225563
 30
0.0
 10
10.8585973515
 20
4.5692184059
 30
0.0
 10
10.8470286349
 20
4.5794378652
 30
0.0
 10
10.836085674
 20
4.5902485598
 30
0.0
 10
10.8292175132
 20
4.5978416522
 30
0.0
 10
10.8259001608
 20
4.601724714
 30
0.0
  0
SPLINE
  5
33A
100
AcDbEntity
  8
0
100
AcDbSpline
 62
9
  6
CONTINUOUS
 70
0
 71
3
 72
11
 73
7
 74
0
 42
0.0000001
 43
0.0000001
 44
0.0000000001
 40
0.0
 40
0.0
 40
0.0
 40
0.0
 40
0.2508918598
 40
0.5010368502
 40
0.7506840443
 40
1.0
 40
1.0
 40
1.0
 40
1.0
 10
10.5950222312
 20
10.3320144371
 30
0.0
 10
10.5943611946
 20
10.3329103741
 30
0.0
 10
10.5930739884
 20
10.3347240047
 30
0.0
 10
10.5912284367
 20
10.3374979327
 30
0.0
 10
10.5894612397
 20
10.3403141258
 30
0.0
 10
10.5883316062
 20
10.3422189087
 30
0.0
 10
10.5877789522
 20
10.3431774083
 30
0.0
  0
SPLINE
  5
33B
100
AcDbEntity
  8
0
100
AcDbSpline
 62
9
  6
CONTINUOUS
 70
0
 71
3
 72
45
 73
41
 74
0
 42
0.0000001
 43
0.0000001
 44
0.0000000001
 40
0.0
 40
0.0
 40
0.0
 40
0.0
 40
0.0977937478
 40
0.1463505249
 40
0.1944606116
 40
0.2419195552
 40
0.2884981785
 40
0.3339339716
 40
0.377913131
 40
0.4200652078
 40
0.440328245
 40
0.4599699056
 40
0.4789241281
 40
0.4971183045
 40
0.51447259
 40
0.5309031953
 40
0.5463282879
 40
0.5536469656
 40
0.5606995557
 40
0.5674932022
 40
0.5740508558
 40
0.5804134549
 40
0.5866228919
 40
0.5987352193
 40
0.6106131417
 40
0.6223606587
 40
0.6340272828
 40
0.6456396641
 40
0.6572129092
 40
0.6802773319
 40
0.703267482
 40
0.7262068821
 40
0.7491096913
 40
0.7719846204
 40
0.7948378632
 40
0.8176736664
 40
0.8633048606
 40
0.9088960759
 40
0.9544585121
 40
1.0
 40
1.0
 40
1.0
 40
1.0
 10
10.6834022144
 20
10.3082731385
 30
0.0
 10
10.6801874885
 20
10.3068855461
 30
0.0
 10
10.6753351893
 20
10.3049021198
 30
0.0
 10
10.6688036166
 20
10.302489323
 30
0.0
 10
10.6639195643
 20
10.3008216916
 30
0.0
 10
10.6590584088
 20
10.2993119901
 30
0.0
 10
10.6542447738
 20
10.297979707
 30
0.0
 10
10.6495080892
 20
10.2968466899
 30
0.0
 10
10.6448840372
 20
10.2959400502
 30
0.0
 10
10.64111215
 20
10.295391843
 30
0.0
 10
10.6381878474
 20
10.2951040147
 30
0.0
 10
10.6360842481
 20
10.2949699582
 30
0.0
 10
10.6340509335
 20
10.2949205197
 30
0.0
 10
10.6320991781
 20
10.2949621713
 30
0.0
 10
10.6302422953
 20
10.2951024073
 30
0.0
 10
10.6284963783
 20
10.2953495395
 30
0.0
 10
10.6271258282
 20
10.295657964
 30
0.0
 10
10.6261059846
 20
10.2959727493
 30
0.0
 10
10.6253955002
 20
10.2962376351
 30
0.0
 10
10.6247280441
 20
10.2965359299
 30
0.0
 10
10.6241041207
 20
10.2968670779
 30
0.0
 10
10.6235204072
 20
10.2972262182
 30
0.0
 10
10.622795479
 20
10.2977324824
 30
0.0
 10
10.6219544072
 20
10.2984139303
 30
0.0
 10
10.6210091618
 20
10.2992768966
 30
0.0
 10
10.620109362
 20
10.3001643799
 30
0.0
 10
10.6192406776
 20
10.3010690279
 30
0.0
 10
10.6183943804
 20
10.3019861284
 30
0.0
 10
10.6172904185
 20
10.3032204553
 30
0.0
 10
10.6159433085
 20
10.3047835311
 30
0.0
 10
10.6143617169
 20
10.3066811894
 30
0.0
 10
10.6128072311
 20
10.3085936367
 30
0.0
 10
10.6112730457
 20
10.3105171049
 30
0.0
 10
10.6097550612
 20
10.3124494524
 30
0.0
 10
10.60824991
 20
10.3143887685
 30
0.0
 10
10.6062577875
 20
10.3169814529
 30
0.0
 10
10.6037891089
 20
10.3202345869
 30
0.0
 10
10.6008504554
 20
10.3241524282
 30
0.0
 10
10.5979296136
 20
10.3280795562
 30
0.0
 10
10.5959903246
 20
10.3307023585
 30
0.0
 10
10.5950222312
 20
10.3320144371
 30
0.0
  0
SPLINE
  5
33C
100
AcDbEntity
  8
0
100
AcDbSpline
 62
9
  6
CONTINUOUS
 70
0
 71
3
 72
45
 73
41
 74
0
 42
0.0000001
 43
0.0000001
 44
0.0000000001
 40
0.0
 40
0.0
 40
0.0
 40
0.0
 40
0.0455358562
 40
0.0910928443
 40
0.1366786384
 40
0.1823044712
 40
0.2051376258
 40
0.2279882423
 40
0.2508605887
 40
0.2737608687
 40
0.2966978122
 40
0.3196856128
 40
0.342747942
 40
0.35432024
 40
0.3659318029
 40
0.3775979791
 40
0.3893454966
 40
0.4012246981
 40
0.4072432655
 40
0.4133407662
 40
0.4195518664
 40
0.4259186143
 40
0.4324829203
 40
0.4392829623
 40
0.4536555885
 40
0.4690906279
 40
0.4855296424
 40
0.5028903016
 40
0.5210901594
 40
0.540048693
 40
0.5596937746
 40
0.5799596521
 40
0.6221147913
 40
0.6660943055
 40
0.7115290415
 40
0.7581045703
 40
0.8055603118
 40
0.8536648888
 40
0.9022169222
 40
1.0
 40
1.0
 40
1.0
 40
1.0
 10
11.4995932733
 20
10.3319859322
 30
0.0
 10
11.4986256209
 20
10.3306744517
 30
0.0
 10
11.4966872871
 20
10.3280527835
 30
0.0
 10
11.4937676172
 20
10.3241275454
 30
0.0
 10
11.4908301926
 20
10.3202115419
 30
0.0
 10
11.4883624983
 20
10.3169599668
 30
0.0
 10
11.4863711447
 20
10.314368541
 30
0.0
 10
11.4848665648
 20
10.3124301694
 30
0.0
 10
11.4833491293
 20
10.3104987806
 30
0.0
 10
11.4818154742
 20
10.308576281
 30
0.0
 10
11.4802614875
 20
10.3066648211
 30
0.0
 10
11.4786803741
 20
10.304768153
 30
0.0
 10
11.4773335676
 20
10.3032059745
 30
0.0
 10
11.4762298171
 20
10.3019723802
 30
0.0
 10
11.4753836619
 20
10.3010558247
 30
0.0
 10
11.4745149458
 20
10.3001518258
 30
0.0
 10
11.4736150812
 20
10.2992650411
 30
0.0
 10
11.472830594
 20
10.298549864
 30
0.0
 10
11.472170609
 20
10.2980000633
 30
0.0
 10
11.4716512653
 20
10.297599018
 30
0.0
 10
11.4711025597
 20
10.2972167076
 30
0.0
 10
11.4705180702
 20
10.2968583977
 30
0.0
 10
11.4698929315
 20
10.2965287024
 30
0.0
 10
11.4689852394
 20
10.296124999
 30
0.0
 10
11.4677396006
 20
10.2957082436
 30
0.0
 10
11.4661221948
 20
10.2953463858
 30
0.0
 10
11.4643756791
 20
10.2951004599
 30
0.0
 10
11.4625186461
 20
10.294961251
 30
0.0
 10
11.4605669236
 20
10.2949206024
 30
0.0
 10
11.458533829
 20
10.2949707818
 30
0.0
 10
11.4564305931
 20
10.2951054901
 30
0.0
 10
11.4535070136
 20
10.29539409
 30
0.0
 10
11.4497362747
 20
10.2959429028
 30
0.0
 10
11.4451138021
 20
10.2968499013
 30
0.0
 10
11.440378978
 20
10.2979831403
 30
0.0
 10
11.4355672568
 20
10.2993151397
 30
0.0
 10
11.4307083227
 20
10.3008248527
 30
0.0
 10
11.4258262086
 20
10.3024913642
 30
0.0
 10
11.4192978177
 20
10.3049039547
 30
0.0
 10
11.4144475689
 20
10.3068862984
 30
0.0
 10
11.4112342417
 20
10.3082732337
 30
0.0
  0
SPLINE
  5
33D
100
AcDbEntity
  8
0
100
AcDbSpline
 62
9
  6
CONTINUOUS
 70
0
 71
3
 72
61
 73
57
 74
0
 42
0.0000001
 43
0.0000001
 44
0.0000000001
 40
0.0
 40
0.0
 40
0.0
 40
0.0
 40
0.0151373164
 40
0.0302798236
 40
0.0454315892
 40
0.0605977538
 40
0.0757826601
 40
0.090990671
 40
0.1062258635
 40
0.1214920305
 40
0.1367926519
 40
0.1521308499
 40
0.1675093637
 40
0.1829305232
 40
0.1983962314
 40
0.2139079481
 40
0.2294666794
 40
0.2450729703
 40
0.2607269043
 40
0.2764281086
 40
0.2921757612
 40
0.3079686017
 40
0.3238049461
 40
0.3396827065
 40
0.3715433988
 40
0.403535799
 40
0.4356312996
 40
0.4677976267
 40
0.5
 40
0.5322023733
 40
0.5643687004
 40
0.596464201
 40
0.6284566012
 40
0.6603172935
 40
0.6761950539
 40
0.6920313983
 40
0.7078242388
 40
0.7235718914
 40
0.7392730957
 40
0.7549270297
 40
0.7705333206
 40
0.7860920519
 40
0.8016037686
 40
0.8170694768
 40
0.8324906363
 40
0.8478691501
 40
0.8632073481
 40
0.8785079695
 40
0.8937741365
 40
0.909009329
 40
0.9242173399
 40
0.9394022462
 40
0.9545684108
 40
0.9697201764
 40
0.9848626836
 40
1.0
 40
1.0
 40
1.0
 40
1.0
 10
11.392818336
 20
4.8586968468
 30
0.0
 10
11.3928184579
 20
4.8533849198
 30
0.0
 10
11.392540662
 20
4.8427571515
 30
0.0
 10
11.3912922527
 20
4.8268565271
 30
0.0
 10
11.3892149415
 20
4.8110321705
 30
0.0
 10
11.3863137363
 20
4.7953229656
 30
0.0
 10
11.3825956459
 20
4.7797665174
 30
0.0
 10
11.3780696416
 20
4.764400428
 30
0.0
 10
11.3727466761
 20
4.7492617137
 30
0.0
 10
11.3666396126
 20
4.7343868667
 30
0.0
 10
11.3597632014
 20
4.7198117344
 30
0.0
 10
11.352134036
 20
4.7055714413
 30
0.0
 10
11.3437705246
 20
4.6917003026
 30
0.0
 10
11.3346928701
 20
4.6782317226
 30
0.0
 10
11.3249229823
 20
4.6651981346
 30
0.0
 10
11.3144844305
 20
4.6526309219
 30
0.0
 10
11.3034023832
 20
4.6405603473
 30
0.0
 10
11.2917035598
 20
4.6290154741
 30
0.0
 10
11.2794161782
 20
4.6180240747
 30
0.0
 10
11.2665698694
 20
4.6076125977
 30
0.0
 10
11.2531955617
 20
4.5978060812
 30
0.0
 10
11.2393255942
 20
4.5886281734
 30
0.0
 10
11.2249929389
 20
4.5801007859
 30
0.0
 10
11.2052933056
 20
4.5696154255
 30
0.0
 10
11.1796821981
 20
4.5582389342
 30
0.0
 10
11.1477206781
 20
4.5474990203
 30
0.0
 10
11.1147934906
 20
4.5397529128
 30
0.0
 10
11.08121872
 20
4.5350755864
 30
0.0
 10
11.0473183383
 20
4.533511503
 30
0.0
 10
11.0134179566
 20
4.5350755864
 30
0.0
 10
10.9798431861
 20
4.5397529128
 30
0.0
 10
10.9469159985
 20
4.5474990203
 30
0.0
 10
10.9149544785
 20
4.5582389342
 30
0.0
 10
10.889343371
 20
4.5696154255
 30
0.0
 10
10.8696437377
 20
4.5801007859
 30
0.0
 10
10.8553110824
 20
4.5886281734
 30
0.0
 10
10.8414411149
 20
4.5978060812
 30
0.0
 10
10.8280668072
 20
4.6076125977
 30
0.0
 10
10.8152204984
 20
4.6180240747
 30
0.0
 10
10.8029331168
 20
4.6290154741
 30
0.0
 10
10.7912342934
 20
4.6405603473
 30
0.0
 10
10.7801522462
 20
4.6526309219
 30
0.0
 10
10.7697136943
 20
4.6651981346
 30
0.0
 10
10.7599438066
 20
4.6782317226
 30
0.0
 10
10.750866152
 20
4.6917003026
 30
0.0
 10
10.7425026406
 20
4.7055714413
 30
0.0
 10
10.7348734752
 20
4.7198117344
 30
0.0
 10
10.727997064
 20
4.7343868667
 30
0.0
 10
10.7218900005
 20
4.7492617137
 30
0.0
 10
10.716567035
 20
4.764400428
 30
0.0
 10
10.7120410307
 20
4.7797665174
 30
0.0
 10
10.7083229403
 20
4.7953229656
 30
0.0
 10
10.7054217351
 20
4.8110321705
 30
0.0
 10
10.7033444239
 20
4.8268565271
 30
0.0
 10
10.7020960146
 20
4.8427571515
 30
0.0
 10
10.7018182187
 20
4.8533849198
 30
0.0
 10
10.7018183406
 20
4.8586968468
 30
0.0
  0
SPLINE
  5
33E
100
AcDbEntity
  8
0
100
AcDbSpline
 62
9
  6
CONTINUOUS
 70
0
 71
3
 72
61
 73
57
 74
0
 42
0.0000001
 43
0.0000001
 44
0.0000000001
 40
0.0
 40
0.0
 40
0.0
 40
0.0
 40
0.0151372583
 40
0.0302798507
 40
0.0454315778
 40
0.0605977537
 40
0.0757826583
 40
0.0909906689
 40
0.1062258618
 40
0.1214920288
 40
0.1367926503
 40
0.1521308484
 40
0.1675093622
 40
0.1829305218
 40
0.19839623
 40
0.2139079468
 40
0.2294666782
 40
0.2450729692
 40
0.2607269033
 40
0.2764281076
 40
0.2921757602
 40
0.3079686008
 40
0.3238049453
 40
0.3396827058
 40
0.3715433983
 40
0.4035357985
 40
0.4356312993
 40
0.4677976266
 40
0.5
 40
0.5322023734
 40
0.5643687007
 40
0.5964642015
 40
0.6284566017
 40
0.6603172942
 40
0.6761950547
 40
0.6920313992
 40
0.7078242398
 40
0.7235718924
 40
0.7392730967
 40
0.7549270308
 40
0.7705333218
 40
0.7860920532
 40
0.80160377
 40
0.8170694782
 40
0.8324906378
 40
0.8478691516
 40
0.8632073497
 40
0.8785079712
 40
0.8937741382
 40
0.9090093311
 40
0.9242173417
 40
0.9394022463
 40
0.9545684222
 40
0.9697201493
 40
0.9848627417
 40
1.0
 40
1.0
 40
1.0
 40
1.0
 10
11.3926407168
 20
4.8590343933
 30
0.0
 10
11.3926407168
 20
4.8537252176
 30
0.0
 10
11.392363168
 20
4.8431029069
 30
0.0
 10
11.3911154591
 20
4.827210451
 30
0.0
 10
11.3890391499
 20
4.8113942187
 30
0.0
 10
11.3861394696
 20
4.7956930946
 30
0.0
 10
11.3824232792
 20
4.7801446427
 30
0.0
 10
11.3778996041
 20
4.7647864533
 30
0.0
 10
11.3725793753
 20
4.7496555216
 30
0.0
 10
11.366475451
 20
4.7347883218
 30
0.0
 10
11.3596025751
 20
4.7202206824
 30
0.0
 10
11.3519773317
 20
4.7059877102
 30
0.0
 10
11.34361812
 20
4.6921237025
 30
0.0
 10
11.3345451322
 20
4.6786620467
 30
0.0
 10
11.3247802671
 20
4.6656351592
 30
0.0
 10
11.3143470817
 20
4.6530744073
 30
0.0
 10
11.3032707317
 20
4.6410100381
 30
0.0
 10
11.2915779226
 20
4.6294711
 30
0.0
 10
11.2792968578
 20
4.6184853513
 30
0.0
 10
11.2664571532
 20
4.6080792267
 30
0.0
 10
11.2530897212
 20
4.5982777518
 30
0.0
 10
11.2392268842
 20
4.5891045622
 30
0.0
 10
11.2249015973
 20
4.5805815586
 30
0.0
 10
11.2052120915
 20
4.5701015887
 30
0.0
 10
11.1796141505
 20
4.558730946
 30
0.0
 10
11.1476690618
 20
4.5479965534
 30
0.0
 10
11.1147588019
 20
4.5402544282
 30
0.0
 10
11.0812012919
 20
4.5355795063
 30
0.0
 10
11.0473183383
 20
4.534016227
 30
0.0
 10
11.0134353847
 20
4.5355795063
 30
0.0
 10
10.9798778747
 20
4.5402544282
 30
0.0
 10
10.9469676148
 20
4.5479965534
 30
0.0
 10
10.9150225261
 20
4.558730946
 30
0.0
 10
10.8894245851
 20
4.5701015887
 30
0.0
 10
10.8697350793
 20
4.5805815586
 30
0.0
 10
10.8554097924
 20
4.5891045622
 30
0.0
 10
10.8415469554
 20
4.5982777518
 30
0.0
 10
10.8281795234
 20
4.6080792267
 30
0.0
 10
10.8153398188
 20
4.6184853513
 30
0.0
 10
10.803058754
 20
4.6294711
 30
0.0
 10
10.7913659449
 20
4.6410100381
 30
0.0
 10
10.7802895949
 20
4.6530744073
 30
0.0
 10
10.7698564095
 20
4.6656351592
 30
0.0
 10
10.7600915444
 20
4.6786620467
 30
0.0
 10
10.7510185567
 20
4.6921237025
 30
0.0
 10
10.7426593449
 20
4.7059877102
 30
0.0
 10
10.7350341015
 20
4.7202206824
 30
0.0
 10
10.7281612256
 20
4.7347883218
 30
0.0
 10
10.7220573014
 20
4.7496555216
 30
0.0
 10
10.7167370726
 20
4.7647864533
 30
0.0
 10
10.7122133974
 20
4.7801446427
 30
0.0
 10
10.708497207
 20
4.7956930946
 30
0.0
 10
10.7055975267
 20
4.8113942187
 30
0.0
 10
10.7035212175
 20
4.827210451
 30
0.0
 10
10.7022735086
 20
4.8431029069
 30
0.0
 10
10.7019959598
 20
4.8537252176
 30
0.0
 10
10.7019959598
 20
4.8590343933
 30
0.0
  0
SPLINE
  5
33F
100
AcDbEntity
  8
0
100
AcDbSpline
 62
9
  6
CONTINUOUS
 70
0
 71
3
 72
57
 73
53
 74
0
 42
0.0000001
 43
0.0000001
 44
0.0000000001
 40
0.0
 40
0.0
 40
0.0
 40
0.0
 40
0.0151377209
 40
0.0302809226
 40
0.0454331653
 40
0.0605998917
 40
0.0757853581
 40
0.090993919
 40
0.1062296658
 40
0.1214963854
 40
0.1367975622
 40
0.1521363181
 40
0.1675153904
 40
0.1829371103
 40
0.1984033814
 40
0.2139156629
 40
0.229474959
 40
0.2450818156
 40
0.2607363186
 40
0.2764380951
 40
0.3079706031
 40
0.3396768786
 40
0.3715387297
 40
0.403532292
 40
0.4356289599
 40
0.467796456
 40
0.5
 40
0.532203544
 40
0.5643710401
 40
0.596467708
 40
0.6284612703
 40
0.6603231214
 40
0.6920293969
 40
0.7235619049
 40
0.7392636814
 40
0.7549181844
 40
0.770525041
 40
0.7860843371
 40
0.8015966186
 40
0.8170628897
 40
0.8324846096
 40
0.8478636819
 40
0.8632024378
 40
0.8785036146
 40
0.8937703342
 40
0.909006081
 40
0.9242146419
 40
0.9394001083
 40
0.9545668347
 40
0.9697190774
 40
0.9848622791
 40
1.0
 40
1.0
 40
1.0
 40
1.0
 10
11.3438183398
 20
4.8718044333
 30
0.0
 10
11.3438183398
 20
4.8672459054
 30
0.0
 10
11.3435800251
 20
4.8581254065
 30
0.0
 10
11.3425087337
 20
4.8444798747
 30
0.0
 10
11.3407259747
 20
4.8308997651
 30
0.0
 10
11.3382362672
 20
4.8174185021
 30
0.0
 10
11.3350454723
 20
4.8040683195
 30
0.0
 10
11.3311613588
 20
4.7908814996
 30
0.0
 10
11.3265933248
 20
4.777889806
 30
0.0
 10
11.3213523972
 20
4.7651245553
 30
0.0
 10
11.3154512182
 20
4.752616519
 30
0.0
 10
11.3089040327
 20
4.7403958396
 30
0.0
 10
11.3017266691
 20
4.7284919485
 30
0.0
 10
11.2939364524
 20
4.716933518
 30
0.0
 10
11.2855521673
 20
4.7057483909
 30
0.0
 10
11.2765940352
 20
4.6949635164
 30
0.0
 10
11.2670836598
 20
4.6846048273
 30
0.0
 10
11.2570440737
 20
4.674697312
 30
0.0
 10
11.2464991205
 20
4.6652645995
 30
0.0
 10
11.2317816387
 20
4.653336408
 30
0.0
 10
11.2122422526
 20
4.6397265583
 30
0.0
 10
11.1872492296
 20
4.6256581866
 30
0.0
 10
11.160910598
 20
4.613958898
 30
0.0
 10
11.1334811018
 20
4.6047416381
 30
0.0
 10
11.1052239871
 20
4.5980942654
 30
0.0
 10
11.0764108431
 20
4.5940802396
 30
0.0
 10
11.0473183383
 20
4.592738003
 30
0.0
 10
11.0182258336
 20
4.5940802396
 30
0.0
 10
10.9894126895
 20
4.5980942654
 30
0.0
 10
10.9611555748
 20
4.6047416381
 30
0.0
 10
10.9337260786
 20
4.613958898
 30
0.0
 10
10.9073874471
 20
4.6256581866
 30
0.0
 10
10.882394424
 20
4.6397265583
 30
0.0
 10
10.8628550379
 20
4.653336408
 30
0.0
 10
10.8481375561
 20
4.6652645995
 30
0.0
 10
10.8375926029
 20
4.674697312
 30
0.0
 10
10.8275530168
 20
4.6846048273
 30
0.0
 10
10.8180426414
 20
4.6949635164
 30
0.0
 10
10.8090845093
 20
4.7057483909
 30
0.0
 10
10.8007002242
 20
4.716933518
 30
0.0
 10
10.7929100075
 20
4.7284919485
 30
0.0
 10
10.7857326439
 20
4.7403958396
 30
0.0
 10
10.7791854584
 20
4.752616519
 30
0.0
 10
10.7732842794
 20
4.7651245553
 30
0.0
 10
10.7680433518
 20
4.777889806
 30
0.0
 10
10.7634753178
 20
4.7908814996
 30
0.0
 10
10.7595912043
 20
4.8040683195
 30
0.0
 10
10.7564004094
 20
4.8174185021
 30
0.0
 10
10.7539107019
 20
4.8308997651
 30
0.0
 10
10.7521279429
 20
4.8444798747
 30
0.0
 10
10.7510566515
 20
4.8581254065
 30
0.0
 10
10.7508183368
 20
4.8672459054
 30
0.0
 10
10.7508183368
 20
4.8718044333
 30
0.0
  0
SPLINE
  5
340
100
AcDbEntity
  8
0
100
AcDbSpline
 62
9
  6
CONTINUOUS
 70
0
 71
3
 72
61
 73
57
 74
0
 42
0.0000001
 43
0.0000001
 44
0.0000000001
 40
0.0
 40
0.0
 40
0.0
 40
0.0
 40
0.0151372277
 40
0.0302798644
 40
0.0454315757
 40
0.0605977523
 40
0.07578266
 40
0.0909906685
 40
0.1062258617
 40
0.1214920285
 40
0.1367926504
 40
0.152130849
 40
0.1675093623
 40
0.1829305213
 40
0.1983962296
 40
0.2139079472
 40
0.229466679
 40
0.2450729692
 40
0.2607269025
 40
0.2764281073
 40
0.2921757611
 40
0.3079686016
 40
0.323804945
 40
0.339682705
 40
0.3715433989
 40
0.4035357979
 40
0.4356312996
 40
0.4677976264
 40
0.5
 40
0.5322023736
 40
0.5643687004
 40
0.5964642021
 40
0.6284566011
 40
0.660317295
 40
0.676195055
 40
0.6920313984
 40
0.7078242389
 40
0.7235718927
 40
0.7392730975
 40
0.7549270308
 40
0.770533321
 40
0.7860920528
 40
0.8016037704
 40
0.8170694787
 40
0.8324906377
 40
0.847869151
 40
0.8632073496
 40
0.8785079715
 40
0.8937741383
 40
0.9090093315
 40
0.92421734
 40
0.9394022477
 40
0.9545684243
 40
0.9697201356
 40
0.9848627723
 40
1.0
 40
1.0
 40
1.0
 40
1.0
 10
11.3849849713
 20
4.8648852342
 30
0.0
 10
11.3849849713
 20
4.8596937725
 30
0.0
 10
11.384713571
 20
4.8493069525
 30
0.0
 10
11.3834935308
 20
4.8337668301
 30
0.0
 10
11.3814632488
 20
4.8183012318
 30
0.0
 10
11.3786278591
 20
4.8029482026
 30
0.0
 10
11.3749940518
 20
4.7877444579
 30
0.0
 10
11.3705706611
 20
4.7727267583
 30
0.0
 10
11.3653683852
 20
4.7579312765
 30
0.0
 10
11.3593997891
 20
4.743393678
 30
0.0
 10
11.3526792861
 20
4.7291489995
 30
0.0
 10
11.3452230812
 20
4.7152315764
 30
0.0
 10
11.3370491918
 20
4.7016749324
 30
0.0
 10
11.3281773572
 20
4.6885117157
 30
0.0
 10
11.3186289848
 20
4.6757736268
 30
0.0
 10
11.3084270978
 20
4.663491347
 30
0.0
 10
11.2975962967
 20
4.6516944542
 30
0.0
 10
11.2861627189
 20
4.6404113302
 30
0.0
 10
11.2741539314
 20
4.6296691258
 30
0.0
 10
11.2615988867
 20
4.6194936958
 30
0.0
 10
11.2485277997
 20
4.6099095289
 30
0.0
 10
11.2349722924
 20
4.6009397192
 30
0.0
 10
11.2209646
 20
4.5926056627
 30
0.0
 10
11.2017116182
 20
4.5823580116
 30
0.0
 10
11.1766811673
 20
4.5712394806
 30
0.0
 10
11.1454443007
 20
4.5607430606
 30
0.0
 10
11.1132636596
 20
4.5531725556
 30
0.0
 10
11.0804501096
 20
4.5486013228
 30
0.0
 10
11.0473183383
 20
4.5470726396
 30
0.0
 10
11.014186567
 20
4.5486013228
 30
0.0
 10
10.981373017
 20
4.5531725556
 30
0.0
 10
10.9491923759
 20
4.5607430606
 30
0.0
 10
10.9179555093
 20
4.5712394806
 30
0.0
 10
10.8929250584
 20
4.5823580116
 30
0.0
 10
10.8736720766
 20
4.5926056627
 30
0.0
 10
10.8596643842
 20
4.6009397192
 30
0.0
 10
10.8461088769
 20
4.6099095289
 30
0.0
 10
10.8330377899
 20
4.6194936958
 30
0.0
 10
10.8204827453
 20
4.6296691258
 30
0.0
 10
10.8084739577
 20
4.6404113302
 30
0.0
 10
10.7970403799
 20
4.6516944542
 30
0.0
 10
10.7862095788
 20
4.663491347
 30
0.0
 10
10.7760076918
 20
4.6757736268
 30
0.0
 10
10.7664593194
 20
4.6885117157
 30
0.0
 10
10.7575874848
 20
4.7016749324
 30
0.0
 10
10.7494135955
 20
4.7152315764
 30
0.0
 10
10.7419573905
 20
4.7291489995
 30
0.0
 10
10.7352368875
 20
4.743393678
 30
0.0
 10
10.7292682914
 20
4.7579312765
 30
0.0
 10
10.7240660155
 20
4.7727267583
 30
0.0
 10
10.7196426248
 20
4.7877444579
 30
0.0
 10
10.7160088175
 20
4.8029482026
 30
0.0
 10
10.7131734278
 20
4.8183012318
 30
0.0
 10
10.7111431458
 20
4.8337668301
 30
0.0
 10
10.7099231056
 20
4.8493069525
 30
0.0
 10
10.7096517053
 20
4.8596937725
 30
0.0
 10
10.7096517053
 20
4.8648852342
 30
0.0
  0
SPLINE
  5
341
100
AcDbEntity
  8
0
100
AcDbSpline
 62
9
  6
CONTINUOUS
 70
0
 71
3
 72
11
 73
7
 74
0
 42
0.0000001
 43
0.0000001
 44
0.0000000001
 40
0.0
 40
0.0
 40
0.0
 40
0.0
 40
0.2493125944
 40
0.4989562824
 40
0.7491029583
 40
1.0
 40
1.0
 40
1.0
 40
1.0
 10
11.5068679481
 20
10.3431951672
 30
0.0
 10
11.5063129758
 20
10.3422326505
 30
0.0
 10
11.505178825
 20
10.3403197584
 30
0.0
 10
11.5034045524
 20
10.3374915211
 30
0.0
 10
11.501550624
 20
10.3347062985
 30
0.0
 10
11.5002571015
 20
10.332885657
 30
0.0
 10
11.4995932733
 20
10.3319859322
 30
0.0
  0
LINE
  5
342
100
AcDbEntity
  8
0
100
AcDbLine
 62
9
  6
CONTINUOUS
 10
11.5318616134
 20
10.3865406446
 11
11.5068679481
 21
10.3431951672
  0
SPLINE
  5
343
100
AcDbEntity
  8
0
100
AcDbSpline
 62
9
  6
CONTINUOUS
 70
0
 71
3
 72
15
 73
11
 74
0
 42
0.0000001
 43
0.0000001
 44
0.0000000001
 40
0.0
 40
0.0
 40
0.0
 40
0.0
 40
0.1463842436
 40
0.2847962612
 40
0.4158529017
 40
0.5404866842
 40
0.6598398293
 40
0.7752570993
 40
0.8881655358
 40
1.0
 40
1.0
 40
1.0
 40
1.0
 10
11.5320490867
 20
10.4006391898
 30
0.0
 10
11.5323114533
 20
10.3999770267
 30
0.0
 10
11.5327709336
 20
10.3986676188
 30
0.0
 10
11.5332677558
 20
10.3967032141
 30
0.0
 10
11.5335525456
 20
10.3948034552
 30
0.0
 10
11.5336269811
 20
10.3929762945
 30
0.0
 10
11.5334931129
 20
10.391228458
 30
0.0
 10
11.5331555267
 20
10.3895661486
 30
0.0
 10
11.5326194225
 20
10.387995617
 30
0.0
 10
11.5321334228
 20
10.3870120363
 30
0.0
 10
11.5318616134
 20
10.3865406446
 30
0.0
  0
SPLINE
  5
344
100
AcDbEntity
  8
0
100
AcDbSpline
 62
9
  6
CONTINUOUS
 70
0
 71
3
 72
15
 73
11
 74
0
 42
0.0000001
 43
0.0000001
 44
0.0000000001
 40
0.0
 40
0.0
 40
0.0
 40
0.0
 40
0.1118347492
 40
0.2247421432
 40
0.3401612511
 40
0.4595186007
 40
0.5841487205
 40
0.7151982499
 40
0.8536125696
 40
1.0
 40
1.0
 40
1.0
 40
1.0
 10
11.6028936027
 20
10.3455302406
 30
0.0
 10
11.6031659484
 20
10.3460013303
 30
0.0
 10
11.603774626
 20
10.3469140889
 30
0.0
 10
11.6048665204
 20
10.3481638354
 30
0.0
 10
11.6061375399
 20
10.349287198
 30
0.0
 10
11.6075844579
 20
10.3502768117
 30
0.0
 10
11.6092039375
 20
10.3511260708
 30
0.0
 10
11.6109914822
 20
10.3518295085
 30
0.0
 10
11.6129411788
 20
10.3523813067
 30
0.0
 10
11.6143049462
 20
10.3526380257
 30
0.0
 10
11.6150095984
 20
10.3527419177
 30
0.0
  0
LINE
  5
345
100
AcDbEntity
  8
0
100
AcDbLine
 62
9
  6
CONTINUOUS
 10
11.5778522113
 20
10.3022123809
 11
11.6028936027
 21
10.3455302406
  0
SPLINE
  5
346
100
AcDbEntity
  8
0
100
AcDbSpline
 62
9
  6
CONTINUOUS
 70
0
 71
3
 72
15
 73
11
 74
0
 42
0.0000001
 43
0.0000001
 44
0.0000000001
 40
0.0
 40
0.0
 40
0.0
 40
0.0
 40
0.1245306104
 40
0.249110852
 40
0.3737799242
 40
0.4985869264
 40
0.6235727921
 40
0.7487788622
 40
0.8742429586
 40
1.0
 40
1.0
 40
1.0
 40
1.0
 10
11.392818336
 20
4.8586968468
 30
0.0
 10
11.3928184677
 20
4.8644343851
 30
0.0
 10
11.3924943174
 20
4.8759143835
 30
0.0
 10
11.3910379367
 20
4.8930826792
 30
0.0
 10
11.3886150802
 20
4.9101548536
 30
0.0
 10
11.3852327208
 20
4.9270819879
 30
0.0
 10
11.3809003395
 20
4.9438167488
 30
0.0
 10
11.375630117
 20
4.960312113
 30
0.0
 10
11.3694371984
 20
4.9765210982
 30
0.0
 10
11.3647102317
 20
4.9870941112
 30
0.0
 10
11.3622005879
 20
4.992316432
 30
0.0
  0
LINE
  5
347
100
AcDbEntity
  8
0
100
AcDbLine
 62
9
  6
CONTINUOUS
 10
11.3512699735
 20
5.0130573469
 11
11.3510361101
 21
5.0134632885
  0
SPLINE
  5
348
100
AcDbEntity
  8
0
100
AcDbSpline
 62
9
  6
CONTINUOUS
 70
0
 71
3
 72
15
 73
11
 74
0
 42
0.0000001
 43
0.0000001
 44
0.0000000001
 40
0.0
 40
0.0
 40
0.0
 40
0.0
 40
0.1244815074
 40
0.2490159726
 40
0.3736510558
 40
0.4984381879
 40
0.6234236402
 40
0.7486522871
 40
0.8741652547
 40
1.0
 40
1.0
 40
1.0
 40
1.0
 10
11.3926407168
 20
4.8590343933
 30
0.0
 10
11.3926407168
 20
4.8650808709
 30
0.0
 10
11.392280685
 20
4.8771794837
 30
0.0
 10
11.3906624338
 20
4.895266873
 30
0.0
 10
11.3879709132
 20
4.9132415901
 30
0.0
 10
11.3842146771
 20
4.9310464988
 30
0.0
 10
11.3794054507
 20
4.94862614
 30
0.0
 10
11.3735582714
 20
4.965925641
 30
0.0
 10
11.3666918076
 20
4.9828902074
 30
0.0
 10
11.3614552736
 20
4.9939279774
 30
0.0
 10
11.3586764394
 20
4.9993719812
 30
0.0
  0
SPLINE
  5
349
100
AcDbEntity
  8
0
100
AcDbSpline
 62
9
  6
CONTINUOUS
 70
0
 71
3
 72
15
 73
11
 74
0
 42
0.0000001
 43
0.0000001
 44
0.0000000001
 40
0.0
 40
0.0
 40
0.0
 40
0.0
 40
0.1241909314
 40
0.2484632308
 40
0.3728993665
 40
0.49757497
 40
0.6225621103
 40
0.747925619
 40
0.8737223866
 40
1.0
 40
1.0
 40
1.0
 40
1.0
 10
11.3438183398
 20
4.8718044333
 30
0.0
 10
11.3438183398
 20
4.8783887524
 30
0.0
 10
11.3433208733
 20
4.8915671089
 30
0.0
 10
11.3410862197
 20
4.9112286068
 30
0.0
 10
11.3373744335
 20
4.9306927038
 30
0.0
 10
11.3322041889
 20
4.9498599858
 30
0.0
 10
11.325601742
 20
4.9686342521
 30
0.0
 10
11.3176002268
 20
4.9869212553
 30
0.0
 10
11.3082408513
 20
5.0046279253
 30
0.0
 10
11.3011398091
 20
5.0159662433
 30
0.0
 10
11.2973828958
 20
5.0215077196
 30
0.0
  0
SPLINE
  5
34A
100
AcDbEntity
  8
0
100
AcDbSpline
 62
9
  6
CONTINUOUS
 70
0
 71
3
 72
15
 73
11
 74
0
 42
0.0000001
 43
0.0000001
 44
0.0000000001
 40
0.0
 40
0.0
 40
0.0
 40
0.0
 40
0.1262776134
 40
0.252074381
 40
0.3774378897
 40
0.50242503
 40
0.6271006335
 40
0.7515367692
 40
0.8758090686
 40
1.0
 40
1.0
 40
1.0
 40
1.0
 10
10.7972537807
 20
5.0215077196
 30
0.0
 10
10.7934968674
 20
5.0159662432
 30
0.0
 10
10.7863958253
 20
5.0046279252
 30
0.0
 10
10.7770364498
 20
4.9869212553
 30
0.0
 10
10.7690349346
 20
4.9686342521
 30
0.0
 10
10.7624324877
 20
4.9498599858
 30
0.0
 10
10.7572622431
 20
4.9306927037
 30
0.0
 10
10.7535504569
 20
4.9112286068
 30
0.0
 10
10.7513158033
 20
4.8915671089
 30
0.0
 10
10.7508183368
 20
4.8783887524
 30
0.0
 10
10.7508183368
 20
4.8718044333
 30
0.0
  0
SPLINE
  5
34B
100
AcDbEntity
  8
0
100
AcDbSpline
 62
9
  6
CONTINUOUS
 70
0
 71
3
 72
23
 73
19
 74
0
 42
0.0000001
 43
0.0000001
 44
0.0000000001
 40
0.0
 40
0.0
 40
0.0
 40
0.0
 40
0.0618427297
 40
0.1237059145
 40
0.1856010069
 40
0.2475483209
 40
0.309563313
 40
0.3716617034
 40
0.433858623
 40
0.4961680847
 40
0.5586031477
 40
0.6211757227
 40
0.6838964834
 40
0.7467747789
 40
0.8098185462
 40
0.8730342699
 40
0.9364269386
 40
1.0
 40
1.0
 40
1.0
 40
1.0
 10
11.3849849713
 20
4.8648852342
 30
0.0
 10
11.3849849713
 20
4.8697550429
 30
0.0
 10
11.3847461672
 20
4.879497956
 30
0.0
 10
11.3836726082
 20
4.8940792067
 30
0.0
 10
11.3818857179
 20
4.9085989735
 30
0.0
 10
11.3793894996
 20
4.9230257581
 30
0.0
 10
11.3761891214
 20
4.9373292562
 30
0.0
 10
11.3722914485
 20
4.9514790359
 30
0.0
 10
11.3677047795
 20
4.9654451031
 30
0.0
 10
11.3624388163
 20
4.9791978269
 30
0.0
 10
11.3565047559
 20
4.9927080376
 30
0.0
 10
11.3499152328
 20
5.0059471017
 30
0.0
 10
11.3426842393
 20
5.0188869494
 30
0.0
 10
11.3348270931
 20
5.0315001366
 30
0.0
 10
11.326360519
 20
5.0437599184
 30
0.0
 10
11.317302427
 20
5.055640405
 30
0.0
 10
11.3076723314
 20
5.0671161234
 30
0.0
 10
11.3008934888
 20
5.0744707442
 30
0.0
 10
11.2974166479
 20
5.0780724454
 30
0.0
  0
SPLINE
  5
34C
100
AcDbEntity
  8
0
100
AcDbSpline
 62
9
  6
CONTINUOUS
 70
0
 71
3
 72
23
 73
19
 74
0
 42
0.0000001
 43
0.0000001
 44
0.0000000001
 40
0.0
 40
0.0
 40
0.0
 40
0.0
 40
0.0635730614
 40
0.1269657301
 40
0.1901814538
 40
0.2532252211
 40
0.3161035166
 40
0.3788242773
 40
0.4413968523
 40
0.5038319153
 40
0.566141377
 40
0.6283382966
 40
0.690436687
 40
0.7524516791
 40
0.8143989931
 40
0.8762940855
 40
0.9381572703
 40
1.0
 40
1.0
 40
1.0
 40
1.0
 10
10.7972200287
 20
5.0780724454
 30
0.0
 10
10.7937431878
 20
5.0744707442
 30
0.0
 10
10.7869643452
 20
5.0671161234
 30
0.0
 10
10.7773342496
 20
5.0556404049
 30
0.0
 10
10.7682761576
 20
5.0437599184
 30
0.0
 10
10.7598095835
 20
5.0315001366
 30
0.0
 10
10.7519524373
 20
5.0188869494
 30
0.0
 10
10.7447214438
 20
5.0059471016
 30
0.0
 10
10.7381319207
 20
4.9927080376
 30
0.0
 10
10.7321978603
 20
4.9791978269
 30
0.0
 10
10.7269318971
 20
4.9654451031
 30
0.0
 10
10.7223452281
 20
4.9514790359
 30
0.0
 10
10.7184475552
 20
4.9373292562
 30
0.0
 10
10.715247177
 20
4.9230257581
 30
0.0
 10
10.7127509587
 20
4.9085989735
 30
0.0
 10
10.7109640684
 20
4.8940792067
 30
0.0
 10
10.7098905094
 20
4.879497956
 30
0.0
 10
10.7096517053
 20
4.8697550429
 30
0.0
 10
10.7096517053
 20
4.8648852342
 30
0.0
  0
SPLINE
  5
34D
100
AcDbEntity
  8
0
100
AcDbSpline
 62
9
  6
CONTINUOUS
 70
0
 71
3
 72
11
 73
7
 74
0
 42
0.0000001
 43
0.0000001
 44
0.0000000001
 40
0.0
 40
0.0
 40
0.0
 40
0.0
 40
0.2508968842
 40
0.5010435857
 40
0.7506874022
 40
1.0
 40
1.0
 40
1.0
 40
1.0
 10
11.5717820766
 20
10.2903077328
 30
0.0
 10
11.5722293432
 20
10.2913324859
 30
0.0
 10
11.5731593356
 20
10.2933630102
 30
0.0
 10
11.5746444312
 20
10.2963611692
 30
0.0
 10
11.5762065894
 20
10.2993118632
 30
0.0
 10
11.5772961333
 20
10.3012505052
 30
0.0
 10
11.5778522113
 20
10.3022123809
 30
0.0
  0
SPLINE
  5
34E
100
AcDbEntity
  8
0
100
AcDbSpline
 62
9
  6
CONTINUOUS
 70
0
 71
3
 72
43
 73
39
 74
0
 42
0.0000001
 43
0.0000001
 44
0.0000000001
 40
0.0
 40
0.0
 40
0.0
 40
0.0
 40
0.0977807082
 40
0.1463383145
 40
0.1944441106
 40
0.2419051861
 40
0.2884905132
 40
0.3339326787
 40
0.377923423
 40
0.420091523
 40
0.4403628719
 40
0.4600160184
 40
0.4789803391
 40
0.4971850483
 40
0.5145505063
 40
0.5309959354
 40
0.5464337534
 40
0.560803887
 40
0.5676056231
 40
0.5741688597
 40
0.586738611
 40
0.5928403598
 40
0.5988604828
 40
0.610733936
 40
0.6224781957
 40
0.6341423192
 40
0.6573209179
 40
0.6803785887
 40
0.7033617062
 40
0.7262940823
 40
0.7491897178
 40
0.7720574959
 40
0.7949035047
 40
0.8177320721
 40
0.8633487452
 40
0.9089254168
 40
0.9544732663
 40
1.0
 40
1.0
 40
1.0
 40
1.0
 10
11.5954347628
 20
10.2019228826
 30
0.0
 10
11.5926267415
 20
10.204012377
 30
0.0
 10
11.5884844433
 20
10.2072221672
 30
0.0
 10
11.5831299839
 20
10.2116698962
 30
0.0
 10
11.5792447669
 20
10.2150650922
 30
0.0
 10
11.5755071036
 20
10.2185190085
 30
0.0
 10
11.5719462009
 20
10.2220204414
 30
0.0
 10
11.5685964684
 20
10.2255555389
 30
0.0
 10
11.5654985151
 20
10.2291062701
 30
0.0
 10
11.5631367198
 20
10.2320983802
 30
0.0
 10
11.5614243776
 20
10.2344870676
 30
0.0
 10
11.5602554782
 20
10.236241844
 30
0.0
 10
11.5591950426
 20
10.2379782363
 30
0.0
 10
11.5582542353
 20
10.2396895768
 30
0.0
 10
11.5574460412
 20
10.2413681598
 30
0.0
 10
11.556785532
 20
10.2430042642
 30
0.0
 10
11.5562899247
 20
10.2445863259
 30
0.0
 10
11.5560297714
 20
10.2458739932
 30
0.0
 10
11.5559252744
 20
10.2468619248
 30
0.0
 10
11.5558895679
 20
10.2477902634
 30
0.0
 10
11.5559442485
 20
10.2486942694
 30
0.0
 10
11.5560608906
 20
10.2495704839
 30
0.0
 10
11.556205885
 20
10.2504173021
 30
0.0
 10
11.556435324
 20
10.2514536139
 30
0.0
 10
11.556753282
 20
10.2526760287
 30
0.0
 10
11.5572169625
 20
10.2542780555
 30
0.0
 10
11.557852109
 20
10.256251331
 30
0.0
 10
11.5586683059
 20
10.2585909401
 30
0.0
 10
11.5595203862
 20
10.2609082891
 30
0.0
 10
11.5603986154
 20
10.2632095999
 30
0.0
 10
11.5612967304
 20
10.2654987722
 30
0.0
 10
11.5622105137
 20
10.2677783936
 30
0.0
 10
11.563136859
 20
10.2700503406
 30
0.0
 10
11.5643853045
 20
10.2730703155
 30
0.0
 10
11.565967275
 20
10.2768328078
 30
0.0
 10
11.5678897092
 20
10.2813342611
 30
0.0
 10
11.5698290604
 20
10.2858249387
 30
0.0
 10
11.5711301913
 20
10.2888141277
 30
0.0
 10
11.5717820766
 20
10.2903077328
 30
0.0
  0
SPLINE
  5
34F
100
AcDbEntity
  8
0
100
AcDbSpline
 62
9
  6
CONTINUOUS
 70
0
 71
3
 72
21
 73
17
 74
0
 42
0.0000001
 43
0.0000001
 44
0.0000000001
 40
0.0
 40
0.0
 40
0.0
 40
0.0
 40
0.043197485
 40
0.0885924715
 40
0.1369119715
 40
0.188651573
 40
0.2439584738
 40
0.3026524914
 40
0.3644525931
 40
0.429018437
 40
0.4959527852
 40
0.5648566609
 40
0.6353397585
 40
0.707039604
 40
0.8528024217
 40
1.0
 40
1.0
 40
1.0
 40
1.0
 10
10.4796269489
 20
8.5777908171
 30
0.0
 10
10.478755667
 20
8.5775601098
 30
0.0
 10
10.4769194202
 20
8.577262255
 30
0.0
 10
10.4740529505
 20
8.5772715084
 30
0.0
 10
10.4710400669
 20
8.5776977538
 30
0.0
 10
10.4678958901
 20
8.5785080997
 30
0.0
 10
10.4646329072
 20
8.5796636649
 30
0.0
 10
10.4612635493
 20
8.5811188093
 30
0.0
 10
10.4578021654
 20
8.582832992
 30
0.0
 10
10.4542622146
 20
8.5847673984
 30
0.0
 10
10.4506561263
 20
8.5868850548
 30
0.0
 10
10.4469968836
 20
8.5891531917
 30
0.0
 10
10.443296304
 20
8.591541749
 30
0.0
 10
10.4382960109
 20
8.5948725638
 30
0.0
 10
10.4320352332
 20
8.5991969905
 30
0.0
 10
10.4270596599
 20
8.6027479927
 30
0.0
 10
10.4245713922
 20
8.6045483074
 30
0.0
  0
SPLINE
  5
350
100
AcDbEntity
  8
0
100
AcDbSpline
 62
9
  6
CONTINUOUS
 70
0
 71
3
 72
23
 73
19
 74
0
 42
0.0000001
 43
0.0000001
 44
0.0000000001
 40
0.0
 40
0.0
 40
0.0
 40
0.0
 40
0.1471887378
 40
0.2929427602
 40
0.3646384732
 40
0.4351173079
 40
0.50401638
 40
0.5709460703
 40
0.6355081651
 40
0.6973041766
 40
0.7559799991
 40
0.8112705633
 40
0.8376081639
 40
0.8630671559
 40
0.9114064747
 40
0.9567745729
 40
0.9786090336
 40
1.0
 40
1.0
 40
1.0
 40
1.0
 10
10.6132876324
 20
8.4955928692
 30
0.0
 10
10.6104843909
 20
8.496847614
 30
0.0
 10
10.6049213673
 20
8.4993810817
 30
0.0
 10
10.5980459394
 20
8.5026408602
 30
0.0
 10
10.5926612372
 20
8.5053058232
 30
0.0
 10
10.588742418
 20
8.5073163283
 30
0.0
 10
10.5849485817
 20
8.5093512579
 30
0.0
 10
10.5813116335
 20
8.5114153944
 30
0.0
 10
10.5778664617
 20
8.5135138727
 30
0.0
 10
10.5746514419
 20
8.515654215
 30
0.0
 10
10.571707388
 20
8.5178444842
 30
0.0
 10
10.5694793392
 20
8.5197486602
 30
0.0
 10
10.5678804498
 20
8.5213107774
 30
0.0
 10
10.5664597233
 20
8.5228437882
 30
0.0
 10
10.5649217534
 20
8.5248058416
 30
0.0
 10
10.5637063805
 20
8.5268999275
 30
0.0
 10
10.5629828745
 20
8.5286031303
 30
0.0
 10
10.562704615
 20
8.5294627005
 30
0.0
 10
10.5625876297
 20
8.5298934417
 30
0.0
  0
SPLINE
  5
351
100
AcDbEntity
  8
0
100
AcDbSpline
 62
9
  6
CONTINUOUS
 70
0
 71
3
 72
21
 73
17
 74
0
 42
0.0000001
 43
0.0000001
 44
0.0000000001
 40
0.0
 40
0.0
 40
0.0
 40
0.0
 40
0.0431973834
 40
0.0885923277
 40
0.1369118662
 40
0.188651468
 40
0.2439583792
 40
0.3026524081
 40
0.3644525186
 40
0.4290183718
 40
0.4959527288
 40
0.564856613
 40
0.6353397189
 40
0.7070395724
 40
0.8528024061
 40
1.0
 40
1.0
 40
1.0
 40
1.0
 10
11.5320489642
 20
8.5298933989
 30
0.0
 10
11.5318131223
 20
8.5290234952
 30
0.0
 10
11.5311529614
 20
8.5272843305
 30
0.0
 10
11.5297117134
 20
8.5248065235
 30
0.0
 10
11.5278361305
 20
8.5224104151
 30
0.0
 10
11.5255622623
 20
8.5200926501
 30
0.0
 10
11.5229300218
 20
8.5178446073
 30
0.0
 10
11.5199851509
 20
8.5156542302
 30
0.0
 10
11.5167699332
 20
8.5135136754
 30
0.0
 10
11.5133247129
 20
8.5114151915
 30
0.0
 10
11.5096877248
 20
8.5093510559
 30
0.0
 10
11.5058938395
 20
8.5073161274
 30
0.0
 10
11.5019749988
 20
8.5053056104
 30
0.0
 10
11.4965902825
 20
8.5026406372
 30
0.0
 10
11.489714831
 20
8.4993808584
 30
0.0
 10
11.4841517867
 20
8.4968473869
 30
0.0
 10
11.4813485349
 20
8.4955926413
 30
0.0
  0
SPLINE
  5
352
100
AcDbEntity
  8
0
100
AcDbSpline
 62
9
  6
CONTINUOUS
 70
0
 71
3
 72
23
 73
19
 74
0
 42
0.0000001
 43
0.0000001
 44
0.0000000001
 40
0.0
 40
0.0
 40
0.0
 40
0.0
 40
0.1471887676
 40
0.2929428113
 40
0.3646385212
 40
0.435117355
 40
0.5040164219
 40
0.570946105
 40
0.6355081961
 40
0.6973042057
 40
0.7559800295
 40
0.8112705944
 40
0.8376081923
 40
0.8630671827
 40
0.9114065092
 40
0.9567745928
 40
0.9786090393
 40
1.0
 40
1.0
 40
1.0
 40
1.0
 10
11.6700648324
 20
8.6045479803
 30
0.0
 10
11.6675765704
 20
8.6027476741
 30
0.0
 10
11.6626010105
 20
8.5991966877
 30
0.0
 10
11.656340245
 20
8.5948722811
 30
0.0
 10
11.651339968
 20
8.591541474
 30
0.0
 10
11.6476394103
 20
8.5891529296
 30
0.0
 10
11.6439801917
 20
8.586884836
 30
0.0
 10
11.6403741233
 20
8.5847672152
 30
0.0
 10
11.6368342022
 20
8.5828328482
 30
0.0
 10
11.6333731017
 20
8.5811187306
 30
0.0
 10
11.6300042461
 20
8.5796642398
 30
0.0
 10
11.6272411571
 20
8.5786867809
 30
0.0
 10
11.6250888794
 20
8.5780831608
 30
0.0
 10
11.6230508897
 20
8.5776192812
 30
0.0
 10
11.6205827171
 20
8.5772683862
 30
0.0
 10
11.6181614995
 20
8.5772628856
 30
0.0
 10
11.6163247305
 20
8.5774879138
 30
0.0
 10
11.6154411917
 20
8.5776767196
 30
0.0
 10
11.6150096664
 20
8.5777907779
 30
0.0
  0
SPLINE
  5
353
100
AcDbEntity
  8
0
100
AcDbSpline
 62
9
  6
CONTINUOUS
 70
0
 71
3
 72
21
 73
17
 74
0
 42
0.0000001
 43
0.0000001
 44
0.0000000001
 40
0.0
 40
0.0
 40
0.0
 40
0.0
 40
0.0431980535
 40
0.0885927436
 40
0.1369110391
 40
0.1886496811
 40
0.2439558363
 40
0.3026490378
 40
0.3644495881
 40
0.429015093
 40
0.495948677
 40
0.5648520967
 40
0.6353346763
 40
0.7070332355
 40
0.8527977869
 40
1.0
 40
1.0
 40
1.0
 40
1.0
 10
11.6150095984
 20
10.3527419177
 30
0.0
 10
11.6158808934
 20
10.3529726283
 30
0.0
 10
11.6177171679
 20
10.3532703901
 30
0.0
 10
11.620583614
 20
10.3532611182
 30
0.0
 10
11.6235964616
 20
10.3528349386
 30
0.0
 10
11.6267405887
 20
10.3520246141
 30
0.0
 10
11.6300035336
 20
10.3508690827
 30
0.0
 10
11.6333728888
 20
10.349413972
 30
0.0
 10
11.6368342586
 20
10.3476997772
 30
0.0
 10
11.6403742087
 20
10.3457653835
 30
0.0
 10
11.6439802903
 20
10.3436477645
 30
0.0
 10
11.6476395154
 20
10.3413796521
 30
0.0
 10
11.6513400465
 20
10.338991092
 30
0.0
 10
11.6563403811
 20
10.3356603223
 30
0.0
 10
11.6626012468
 20
10.3313358105
 30
0.0
 10
11.6675769337
 20
10.3277847195
 30
0.0
 10
11.6700652844
 20
10.3259843448
 30
0.0
  0
SPLINE
  5
354
100
AcDbEntity
  8
0
100
AcDbSpline
 62
9
  6
CONTINUOUS
 70
0
 71
3
 72
23
 73
19
 74
0
 42
0.0000001
 43
0.0000001
 44
0.0000000001
 40
0.0
 40
0.0
 40
0.0
 40
0.0
 40
0.1471887117
 40
0.292942715
 40
0.3646384301
 40
0.435117265
 40
0.5040163409
 40
0.5709460367
 40
0.635508134
 40
0.6973041464
 40
0.7559799673
 40
0.8112705302
 40
0.8376081331
 40
0.8630671263
 40
0.911406436
 40
0.9567745492
 40
0.9786090266
 40
1.0
 40
1.0
 40
1.0
 40
1.0
 10
11.4813490442
 20
10.434939783
 30
0.0
 10
11.4841522852
 20
10.4336850384
 30
0.0
 10
11.4897153083
 20
10.4311515709
 30
0.0
 10
11.4965907356
 20
10.4278917926
 30
0.0
 10
11.5019754379
 20
10.4252268299
 30
0.0
 10
11.5058942573
 20
10.4232163245
 30
0.0
 10
11.509688094
 20
10.4211813948
 30
0.0
 10
11.5133250426
 20
10.4191172581
 30
0.0
 10
11.5167702147
 20
10.4170187796
 30
0.0
 10
11.5199852347
 20
10.4148784373
 30
0.0
 10
11.5229292887
 20
10.4126881679
 30
0.0
 10
11.5251573375
 20
10.4107839918
 30
0.0
 10
11.526756227
 20
10.4092218746
 30
0.0
 10
11.5281769537
 20
10.4076888639
 30
0.0
 10
11.5297149232
 20
10.4057268097
 30
0.0
 10
11.5309302964
 20
10.4036327236
 30
0.0
 10
11.5316538046
 20
10.4019295207
 30
0.0
 10
11.5319320648
 20
10.4010699501
 30
0.0
 10
11.5320490501
 20
10.4006392088
 30
0.0
  0
SPLINE
  5
355
100
AcDbEntity
  8
0
100
AcDbSpline
 62
9
  6
CONTINUOUS
 70
0
 71
3
 72
21
 73
17
 74
0
 42
0.0000001
 43
0.0000001
 44
0.0000000001
 40
0.0
 40
0.0
 40
0.0
 40
0.0
 40
0.0431973874
 40
0.0885923409
 40
0.1369118862
 40
0.1886514961
 40
0.2439584104
 40
0.3026524447
 40
0.3644525497
 40
0.4290184067
 40
0.4959527741
 40
0.564856664
 40
0.635339771
 40
0.7070396283
 40
0.852802438
 40
1.0
 40
1.0
 40
1.0
 40
1.0
 10
10.5625877126
 20
10.4006392534
 30
0.0
 10
10.5628235545
 20
10.4015091572
 30
0.0
 10
10.5634837155
 20
10.4032483222
 30
0.0
 10
10.5649249636
 20
10.4057261296
 30
0.0
 10
10.566800547
 20
10.4081222383
 30
0.0
 10
10.5690744156
 20
10.4104400033
 30
0.0
 10
10.5717066564
 20
10.4126880462
 30
0.0
 10
10.5746515276
 20
10.4148784231
 30
0.0
 10
10.5778667452
 20
10.4170189781
 30
0.0
 10
10.5813119657
 20
10.4191174621
 30
0.0
 10
10.5849489543
 20
10.4211815976
 30
0.0
 10
10.5887428399
 20
10.4232165262
 30
0.0
 10
10.5926616807
 20
10.4252270435
 30
0.0
 10
10.5980463968
 20
10.4278920161
 30
0.0
 10
10.6049218473
 20
10.4311517946
 30
0.0
 10
10.6104848904
 20
10.4336852656
 30
0.0
 10
10.6132881416
 20
10.4349400109
 30
0.0
  0
SPLINE
  5
356
100
AcDbEntity
  8
0
100
AcDbSpline
 62
9
  6
CONTINUOUS
 70
0
 71
3
 72
23
 73
19
 74
0
 42
0.0000001
 43
0.0000001
 44
0.0000000001
 40
0.0
 40
0.0
 40
0.0
 40
0.0
 40
0.1471887212
 40
0.2929427331
 40
0.3646384507
 40
0.4351172885
 40
0.5040163667
 40
0.5709460648
 40
0.635508165
 40
0.6973041803
 40
0.7559800054
 40
0.8112705721
 40
0.8376081745
 40
0.8630671678
 40
0.9114064923
 40
0.9567745887
 40
0.9786090388
 40
1.0
 40
1.0
 40
1.0
 40
1.0
 10
10.4245718442
 20
10.3259846719
 30
0.0
 10
10.4270601054
 20
10.3277849775
 30
0.0
 10
10.432035664
 20
10.331335963
 30
0.0
 10
10.4382964284
 20
10.3356603685
 30
0.0
 10
10.4432967047
 20
10.3389911759
 30
0.0
 10
10.446997263
 20
10.3413797204
 30
0.0
 10
10.450656482
 20
10.3436478144
 30
0.0
 10
10.4542625509
 20
10.3457654359
 30
0.0
 10
10.4578024726
 20
10.3476998031
 30
0.0
 10
10.4612635733
 20
10.3494139209
 30
0.0
 10
10.4646324291
 20
10.3508684118
 30
0.0
 10
10.4673955183
 20
10.3518458708
 30
0.0
 10
10.4695477961
 20
10.3524494911
 30
0.0
 10
10.4715857858
 20
10.3529133711
 30
0.0
 10
10.4740539588
 20
10.3532642656
 30
0.0
 10
10.4764751767
 20
10.3532697667
 30
0.0
 10
10.478311946
 20
10.3530447385
 30
0.0
 10
10.4791954849
 20
10.3528559327
 30
0.0
 10
10.4796270102
 20
10.3527418743
 30
0.0
  0
SPLINE
  5
357
100
AcDbEntity
  8
0
100
AcDbSpline
 62
9
  6
CONTINUOUS
 70
0
 71
3
 72
42
 73
38
 74
0
 42
0.0000001
 43
0.0000001
 44
0.0000000001
 40
0.0
 40
0.0
 40
0.0
 40
0.0
 40
0.0455362936
 40
0.0910937197
 40
0.1366799533
 40
0.1823062212
 40
0.205139593
 40
0.2279904331
 40
0.2508629963
 40
0.2737634941
 40
0.2967006522
 40
0.3196886899
 40
0.3427512054
 40
0.3543236402
 40
0.3659353712
 40
0.3776015841
 40
0.3893491206
 40
0.4012281006
 40
0.4133425538
 40
0.4259163264
 40
0.4392702497
 40
0.4536454111
 40
0.4690808407
 40
0.4855196664
 40
0.5028809852
 40
0.5210809115
 40
0.5400395066
 40
0.5596851297
 40
0.579951069
 40
0.622106841
 40
0.6660870826
 40
0.7115224865
 40
0.7580990583
 40
0.8055557766
 40
0.8536613613
 40
0.902214559
 40
1.0
 40
1.0
 40
1.0
 40
1.0
 10
11.5717820676
 20
8.6402249398
 30
0.0
 10
11.571130122
 20
8.6417186833
 30
0.0
 10
11.5698288646
 20
8.6447081471
 30
0.0
 10
11.567889354
 20
8.6491992495
 30
0.0
 10
11.5659667207
 20
8.6537011116
 30
0.0
 10
11.5643846281
 20
8.6574639634
 30
0.0
 10
11.5631360665
 20
8.6604842203
 30
0.0
 10
11.5622096888
 20
8.6627564004
 30
0.0
 10
11.5612957746
 20
8.6650362177
 30
0.0
 10
11.5603976758
 20
8.6673256395
 30
0.0
 10
11.5595192875
 20
8.669627144
 30
0.0
 10
11.5586673151
 20
8.6719447589
 30
0.0
 10
11.5579877973
 20
8.6738921932
 30
0.0
 10
11.5574713638
 20
8.6754648628
 30
0.0
 10
11.5571007308
 20
8.676655944
 30
0.0
 10
11.5567521651
 20
8.6778602384
 30
0.0
 10
11.5564340318
 20
8.6790829335
 30
0.0
 10
11.5561604285
 20
8.6803329954
 30
0.0
 10
11.5559556624
 20
8.68162691
 30
0.0
 10
11.5558756228
 20
8.6829893282
 30
0.0
 10
11.5559814327
 20
8.684432406
 30
0.0
 10
11.5562917504
 20
8.6859493887
 30
0.0
 10
11.5567866742
 20
8.687531288
 30
0.0
 10
11.5574469599
 20
8.6891667763
 30
0.0
 10
11.5582549797
 20
8.6908445797
 30
0.0
 10
11.5591955836
 20
8.6925551713
 30
0.0
 10
11.5602555449
 20
8.6942908135
 30
0.0
 10
11.5614238754
 20
8.6960448705
 30
0.0
 10
11.5631355288
 20
8.6984325143
 30
0.0
 10
11.5654961978
 20
8.7014236478
 30
0.0
 10
11.5685929248
 20
8.7049733198
 30
0.0
 10
11.5719416978
 20
8.7085072481
 30
0.0
 10
11.5755011648
 20
8.7120082892
 30
0.0
 10
11.5792380737
 20
8.7154614466
 30
0.0
 10
11.5831223949
 20
8.7188562532
 30
0.0
 10
11.5884760183
 20
8.7233037226
 30
0.0
 10
11.5926179213
 20
8.7265130418
 30
0.0
 10
11.5954257314
 20
8.7286024159
 30
0.0
  0
SPLINE
  5
358
100
AcDbEntity
  8
0
100
AcDbSpline
 62
9
  6
CONTINUOUS
 70
0
 71
3
 72
11
 73
7
 74
0
 42
0.0000001
 43
0.0000001
 44
0.0000000001
 40
0.0
 40
0.0
 40
0.0
 40
0.0
 40
0.2493125944
 40
0.4989562824
 40
0.7491029583
 40
1.0
 40
1.0
 40
1.0
 40
1.0
 10
11.5778522125
 20
8.6283202692
 30
0.0
 10
11.5772961347
 20
8.6292821476
 30
0.0
 10
11.5762065969
 20
8.631220797
 30
0.0
 10
11.5746444079
 20
8.6341714808
 30
0.0
 10
11.5731592986
 20
8.6371696412
 30
0.0
 10
11.5722293381
 20
8.6392001853
 30
0.0
 10
11.5717820676
 20
8.6402249398
 30
0.0
  0
LINE
  5
359
100
AcDbEntity
  8
0
100
AcDbLine
 62
9
  6
CONTINUOUS
 10
11.6028936644
 20
8.5850023813
 11
11.5778522125
 21
8.6283202692
  0
SPLINE
  5
35A
100
AcDbEntity
  8
0
100
AcDbSpline
 62
9
  6
CONTINUOUS
 70
0
 71
3
 72
27
 73
23
 74
0
 42
0.0000001
 43
0.0000001
 44
0.0000000001
 40
0.0
 40
0.0
 40
0.0
 40
0.0
 40
0.2230083632
 40
0.324013527
 40
0.41788175
 40
0.50454731
 40
0.5839643325
 40
0.6560961646
 40
0.7209280228
 40
0.7784713806
 40
0.8287683303
 40
0.8719272079
 40
0.8909000442
 40
0.9081868891
 40
0.9238470327
 40
0.9379622541
 40
0.950644284
 40
0.9620444078
 40
0.9723694937
 40
0.9818959457
 40
0.9909726444
 40
1.0
 40
1.0
 40
1.0
 40
1.0
 10
11.6393274193
 20
10.1957093634
 30
0.0
 10
11.6383961308
 20
10.1944600632
 30
0.0
 10
11.6370279066
 20
10.1926560378
 30
0.0
 10
11.6352223038
 20
10.1903613241
 30
0.0
 10
11.6339852026
 20
10.1888317201
 30
0.0
 10
11.6328209691
 20
10.1874374489
 30
0.0
 10
11.6317304502
 20
10.1861798304
 30
0.0
 10
11.6307143989
 20
10.1850600144
 30
0.0
 10
11.6297735031
 20
10.1840790166
 30
0.0
 10
11.6289083374
 20
10.1832376217
 30
0.0
 10
11.628119405
 20
10.1825364944
 30
0.0
 10
11.6275013847
 20
10.1820502357
 30
0.0
 10
11.6270430871
 20
10.1817369869
 30
0.0
 10
11.6267330443
 20
10.1815482327
 30
0.0
 10
11.6264415521
 20
10.181395439
 30
0.0
 10
11.6261683774
 20
10.1812787788
 30
0.0
 10
11.625913337
 20
10.1811983595
 30
0.0
 10
11.6256762767
 20
10.1811542151
 30
0.0
 10
11.6254570637
 20
10.18114665
 30
0.0
 10
11.6252558077
 20
10.1811762887
 30
0.0
 10
11.625073356
 20
10.1812436993
 30
0.0
 10
11.6249661911
 20
10.1813130849
 30
0.0
 10
11.6249170956
 20
10.1813526865
 30
0.0
  0
SPLINE
  5
35B
100
AcDbEntity
  8
0
100
AcDbSpline
 62
9
  6
CONTINUOUS
 70
0
 71
3
 72
15
 73
11
 74
0
 42
0.0000001
 43
0.0000001
 44
0.0000000001
 40
0.0
 40
0.0
 40
0.0
 40
0.0
 40
0.1258354824
 40
0.2513489149
 40
0.3765777774
 40
0.5015632266
 40
0.6263501712
 40
0.7509849289
 40
0.8755189635
 40
1.0
 40
1.0
 40
1.0
 40
1.0
 10
10.735992355
 20
4.9994348858
 30
0.0
 10
10.7332109423
 20
4.9939888334
 30
0.0
 10
10.7279695238
 20
4.9829467566
 30
0.0
 10
10.7210965991
 20
4.9659751557
 30
0.0
 10
10.7152438817
 20
4.9486681426
 30
0.0
 10
10.710430076
 20
4.9310805882
 30
0.0
 10
10.7066702476
 20
4.9132674426
 30
0.0
 10
10.7039761451
 20
4.8952842443
 30
0.0
 10
10.7023563381
 20
4.8771882111
 30
0.0
 10
10.7019959598
 20
4.8650837774
 30
0.0
 10
10.7019959598
 20
4.8590343933
 30
0.0
  0
LINE
  5
35C
100
AcDbEntity
  8
0
100
AcDbLine
 62
9
  6
CONTINUOUS
 10
10.7436005665
 20
5.0134632885
 11
10.7433757329
 21
5.0130730466
  0
SPLINE
  5
35D
100
AcDbEntity
  8
0
100
AcDbSpline
 62
9
  6
CONTINUOUS
 70
0
 71
3
 72
15
 73
11
 74
0
 42
0.0000001
 43
0.0000001
 44
0.0000000001
 40
0.0
 40
0.0
 40
0.0
 40
0.0
 40
0.1257576783
 40
0.2512221742
 40
0.3764284282
 40
0.5014142894
 40
0.6262211292
 40
0.7508899223
 40
0.8754697917
 40
1.0
 40
1.0
 40
1.0
 40
1.0
 10
10.7324634727
 20
4.9923734006
 30
0.0
 10
10.7299516218
 20
4.9871491694
 30
0.0
 10
10.7252204794
 20
4.9765721652
 30
0.0
 10
10.7190220465
 20
4.9603567276
 30
0.0
 10
10.7137471036
 20
4.943854525
 30
0.0
 10
10.7094108232
 20
4.9271126019
 30
0.0
 10
10.706025408
 20
4.9101780442
 30
0.0
 10
10.7036003563
 20
4.8930982495
 30
0.0
 10
10.7021426537
 20
4.8759222022
 30
0.0
 10
10.7018182089
 20
4.8644369894
 30
0.0
 10
10.7018183406
 20
4.8586968468
 30
0.0
  0
LINE
  5
35E
100
AcDbEntity
  8
0
100
AcDbLine
 62
9
  6
CONTINUOUS
 10
11.6602915796
 20
10.2310663388
 11
11.6393274193
 21
10.1957093634
  0
LINE
  5
35F
100
AcDbEntity
  8
0
100
AcDbLine
 62
9
  6
CONTINUOUS
 10
11.6880263081
 20
10.2657160702
 11
11.6602915796
 21
10.2310663388
  0
SPLINE
  5
360
100
AcDbEntity
  8
0
100
AcDbSpline
 62
9
  6
CONTINUOUS
 70
0
 71
3
 72
16
 73
12
 74
0
 42
0.0000001
 43
0.0000001
 44
0.0000000001
 40
0.0
 40
0.0
 40
0.0
 40
0.0
 40
0.1249849642
 40
0.2499870932
 40
0.3749777803
 40
0.4999753409
 40
0.5624895045
 40
0.6250040098
 40
0.7499973835
 40
0.8750095937
 40
1.0
 40
1.0
 40
1.0
 40
1.0
 10
11.6880190109
 20
10.2657224364
 30
0.0
 10
11.6862032624
 20
10.2671756885
 30
0.0
 10
11.682711599
 20
10.2702624373
 30
0.0
 10
11.6779484119
 20
10.2753752408
 30
0.0
 10
11.6736901768
 20
10.2809158102
 30
0.0
 10
11.6705832786
 20
10.2858416272
 30
0.0
 10
11.6683741104
 20
10.2899376397
 30
0.0
 10
11.6663493949
 20
10.2941277867
 30
0.0
 10
11.6641655244
 20
10.2995261093
 30
0.0
 10
11.662107542
 20
10.3062016162
 30
0.0
 10
11.6611083096
 20
10.310751285
 30
0.0
 10
11.6607005588
 20
10.3130410655
 30
0.0
  0
SPLINE
  5
361
100
AcDbEntity
  8
0
100
AcDbSpline
 62
9
  6
CONTINUOUS
 70
0
 71
3
 72
15
 73
11
 74
0
 42
0.0000001
 43
0.0000001
 44
0.0000000001
 40
0.0
 40
0.0
 40
0.0
 40
0.0
 40
0.1463842423
 40
0.2847962581
 40
0.4158528988
 40
0.5404866822
 40
0.6598398278
 40
0.7752570983
 40
0.8881655353
 40
1.0
 40
1.0
 40
1.0
 40
1.0
 10
11.615009626
 20
8.5777907521
 30
0.0
 10
11.6143049925
 20
8.5778946175
 30
0.0
 10
11.6129412719
 20
8.5781513998
 30
0.0
 10
11.6109916365
 20
8.5787033416
 30
0.0
 10
11.6092040022
 20
8.5794065859
 30
0.0
 10
11.6075844169
 20
8.5802557032
 30
0.0
 10
11.6061376801
 20
8.5812455547
 30
0.0
 10
11.6048668711
 20
8.5823690676
 30
0.0
 10
11.6037748029
 20
8.5836186132
 30
0.0
 10
11.6031659968
 20
8.5845312917
 30
0.0
 10
11.6028936644
 20
8.5850023813
 30
0.0
  0
SPLINE
  5
362
100
AcDbEntity
  8
0
100
AcDbSpline
 62
9
  6
CONTINUOUS
 70
0
 71
3
 72
15
 73
11
 74
0
 42
0.0000001
 43
0.0000001
 44
0.0000000001
 40
0.0
 40
0.0
 40
0.0
 40
0.0
 40
0.1118339945
 40
0.2247401203
 40
0.3401588385
 40
0.4595168655
 40
0.5841484961
 40
0.7151989084
 40
0.8536129067
 40
1.0
 40
1.0
 40
1.0
 40
1.0
 10
11.5318616181
 20
8.5439920762
 30
0.0
 10
11.532133419
 20
8.5435206761
 30
0.0
 10
11.5326195534
 20
8.5425371782
 30
0.0
 10
11.5331559138
 20
8.5409667071
 30
0.0
 10
11.533493263
 20
8.5393042956
 30
0.0
 10
11.5336268438
 20
8.5375564127
 30
0.0
 10
11.5335525786
 20
8.5357292576
 30
0.0
 10
11.5332680028
 20
8.5338294695
 30
0.0
 10
11.5327710275
 20
8.5318650818
 30
0.0
 10
11.5323114683
 20
8.5305556688
 30
0.0
 10
11.5320491159
 20
8.5298934775
 30
0.0
  0
SPLINE
  5
363
100
AcDbEntity
  8
0
100
AcDbSpline
 62
9
  6
CONTINUOUS
 70
0
 71
3
 72
23
 73
19
 74
0
 42
0.0000001
 43
0.0000001
 44
0.0000000001
 40
0.0
 40
0.0
 40
0.0
 40
0.0
 40
0.0616059178
 40
0.1235386446
 40
0.1857730741
 40
0.248274604
 40
0.311000318
 40
0.3739004163
 40
0.4369197893
 40
0.4999997148
 40
0.5630796509
 40
0.626099055
 40
0.6889992042
 40
0.7517249874
 40
0.8142266024
 40
0.8764611305
 40
0.9383939663
 40
1.0
 40
1.0
 40
1.0
 40
1.0
 10
11.2356717253
 20
4.5787025661
 30
0.0
 10
11.2292418598
 20
4.5733290115
 30
0.0
 10
11.2158538587
 20
4.5631299277
 30
0.0
 10
11.1944444129
 20
4.5496489039
 30
0.0
 10
11.1718217843
 20
4.5380480178
 30
0.0
 10
11.1481745382
 20
4.5284242044
 30
0.0
 10
11.123696991
 20
4.52085579
 30
0.0
 10
11.0985908422
 20
4.5154049877
 30
0.0
 10
11.0730627374
 20
4.5121163986
 30
0.0
 10
11.0473227842
 20
4.5110169172
 30
0.0
 10
11.0215827945
 20
4.5121156408
 30
0.0
 10
10.9960545803
 20
4.5154034784
 30
0.0
 10
10.97094825
 20
4.5208535414
 30
0.0
 10
10.9464704508
 20
4.528421235
 30
0.0
 10
10.9228228843
 20
4.538044352
 30
0.0
 10
10.9001998693
 20
4.5496445716
 30
0.0
 10
10.8787899746
 20
4.5631249647
 30
0.0
 10
10.8654016343
 20
4.5733236534
 30
0.0
 10
10.8589715898
 20
4.5786970183
 30
0.0
  0
LINE
  5
364
100
AcDbEntity
  8
0
100
AcDbLine
 62
9
  6
CONTINUOUS
 10
11.5068577244
 20
8.5873552438
 11
11.5318616181
 21
8.5439920762
  0
SPLINE
  5
365
100
AcDbEntity
  8
0
100
AcDbSpline
 62
7
  6
CONTINUOUS
 70
0
 71
3
 72
30
 73
26
 74
0
 42
0.0000001
 43
0.0000001
 44
0.0000000001
 40
0.0
 40
0.0
 40
0.0
 40
0.0
 40
0.030277152
 40
0.0605639491
 40
0.0908699302
 40
0.1212044313
 40
0.1515764925
 40
0.1819947596
 40
0.2124673903
 40
0.2430019768
 40
0.2736054757
 40
0.3042841354
 40
0.3350434306
 40
0.3658880223
 40
0.3968217201
 40
0.4278474447
 40
0.4901631513
 40
0.5528594664
 40
0.6159268401
 40
0.6793417641
 40
0.7430678473
 40
0.8070573738
 40
0.8712531123
 40
0.9355901463
 40
1.0
 40
1.0
 40
1.0
 40
1.0
 10
11.2973183253
 20
4.8718044333
 30
0.0
 10
11.2973183253
 20
4.867960745
 30
0.0
 10
11.2971174185
 20
4.860270631
 30
0.0
 10
11.296214099
 20
4.8487651025
 30
0.0
 10
11.2947109592
 20
4.8373148139
 30
0.0
 10
11.2926116687
 20
4.8259477876
 30
0.0
 10
11.2899213071
 20
4.8146913183
 30
0.0
 10
11.286646351
 20
4.8035725804
 30
0.0
 10
11.2827947018
 20
4.7926183763
 30
0.0
 10
11.2783756973
 20
4.7818551016
 30
0.0
 10
11.2734000084
 20
4.7713086917
 30
0.0
 10
11.2678796249
 20
4.7610045783
 30
0.0
 10
11.2618278628
 20
4.7509675676
 30
0.0
 10
11.2552594242
 20
4.7412218879
 30
0.0
 10
11.2481898831
 20
4.7317907649
 30
0.0
 10
11.2381059879
 20
4.7196503187
 30
0.0
 10
11.2243256975
 20
4.7053711944
 30
0.0
 10
11.2061155193
 20
4.689871347
 30
0.0
 10
11.1863778059
 20
4.6761236811
 30
0.0
 10
11.1653037545
 20
4.6642611161
 30
0.0
 10
11.1430959688
 20
4.6543967388
 30
0.0
 10
11.1199682901
 20
4.6466250266
 30
0.0
 10
11.0961423459
 20
4.6410201339
 30
0.0
 10
11.0718496594
 20
4.63763565
 30
0.0
 10
11.0554951774
 20
4.6368812781
 30
0.0
 10
11.0473183383
 20
4.6368812781
 30
0.0
  0
SPLINE
  5
366
100
AcDbEntity
  8
0
100
AcDbSpline
 62
9
  6
CONTINUOUS
 70
0
 71
3
 72
27
 73
23
 74
0
 42
0.0000001
 43
0.0000001
 44
0.0000000001
 40
0.0
 40
0.0
 40
0.0
 40
0.0
 40
0.2230083632
 40
0.324013527
 40
0.41788175
 40
0.50454731
 40
0.5839643325
 40
0.6560961646
 40
0.7209280228
 40
0.7784713806
 40
0.8287683303
 40
0.8719272079
 40
0.8909000442
 40
0.9081868891
 40
0.9238470327
 40
0.9379622541
 40
0.950644284
 40
0.9620444078
 40
0.9723694937
 40
0.9818959457
 40
0.9909726444
 40
1.0
 40
1.0
 40
1.0
 40
1.0
 10
10.7107406525
 20
10.3431827482
 30
0.0
 10
10.7113569339
 20
10.3417515786
 30
0.0
 10
10.7122351536
 20
10.339664649
 30
0.0
 10
10.7133196326
 20
10.3369535942
 30
0.0
 10
10.7140257579
 20
10.3351174311
 30
0.0
 10
10.7146511154
 20
10.3334120398
 30
0.0
 10
10.7151949856
 20
10.3318388134
 30
0.0
 10
10.7156567491
 20
10.3303989792
 30
0.0
 10
10.7160358702
 20
10.3290936406
 30
0.0
 10
10.7163319567
 20
10.3279236877
 30
0.0
 10
10.7165446845
 20
10.3268898886
 30
0.0
 10
10.7166567868
 20
10.326111538
 30
0.0
 10
10.7166989194
 20
10.3255580162
 30
0.0
 10
10.7167073638
 20
10.3251951341
 30
0.0
 10
10.716693941
 20
10.3248662976
 30
0.0
 10
10.7166583844
 20
10.3245713913
 30
0.0
 10
10.7166005093
 20
10.3243103102
 30
0.0
 10
10.7165202094
 20
10.3240829377
 30
0.0
 10
10.7164171544
 20
10.3238893111
 30
0.0
 10
10.7162908585
 20
10.3237298377
 30
0.0
 10
10.7161412534
 20
10.3236055352
 30
0.0
 10
10.7160275813
 20
10.3235474205
 30
0.0
 10
10.7159687375
 20
10.3235247033
 30
0.0
  0
SPLINE
  5
367
100
AcDbEntity
  8
0
100
AcDbSpline
 62
9
  6
CONTINUOUS
 70
0
 71
3
 72
27
 73
23
 74
0
 42
0.0000001
 43
0.0000001
 44
0.0000000001
 40
0.0
 40
0.0
 40
0.0
 40
0.0
 40
0.0090273587
 40
0.0181040584
 40
0.0276305105
 40
0.0379555962
 40
0.0493557202
 40
0.0620377511
 40
0.0761529744
 40
0.0918131203
 40
0.1090999676
 40
0.1280728057
 40
0.171231685
 40
0.2215286338
 40
0.2790719894
 40
0.3439038456
 40
0.4160356763
 40
0.4954526977
 40
0.5821182566
 40
0.675986478
 40
0.77699164
 40
1.0
 40
1.0
 40
1.0
 40
1.0
 10
11.3786679391
 20
10.3235247033
 30
0.0
 10
11.3786090953
 20
10.3235474205
 30
0.0
 10
11.3784954232
 20
10.3236055352
 30
0.0
 10
11.378345818
 20
10.3237298377
 30
0.0
 10
11.3782195221
 20
10.3238893112
 30
0.0
 10
11.3781164671
 20
10.3240829377
 30
0.0
 10
11.3780361672
 20
10.3243103102
 30
0.0
 10
11.3779782921
 20
10.3245713914
 30
0.0
 10
11.3779427354
 20
10.3248662977
 30
0.0
 10
11.3779293124
 20
10.3251951342
 30
0.0
 10
11.3779377567
 20
10.3255580164
 30
0.0
 10
11.3779798891
 20
10.3261115382
 30
0.0
 10
11.3780919912
 20
10.3268898889
 30
0.0
 10
11.3783047191
 20
10.327923688
 30
0.0
 10
11.3786008059
 20
10.3290936408
 30
0.0
 10
11.3789799274
 20
10.3303989792
 30
0.0
 10
11.3794416911
 20
10.3318388134
 30
0.0
 10
11.3799855614
 20
10.3334120397
 30
0.0
 10
11.380610919
 20
10.335117431
 30
0.0
 10
11.3813170443
 20
10.336953594
 30
0.0
 10
11.3824015235
 20
10.3396646488
 30
0.0
 10
11.3832797431
 20
10.3417515784
 30
0.0
 10
11.383896024
 20
10.3431827482
 30
0.0
  0
LINE
  5
368
100
AcDbEntity
  8
0
100
AcDbLine
 62
9
  6
CONTINUOUS
 10
11.383896024
 20
10.3431827482
 11
11.404033983
 21
10.3790167312
  0
LINE
  5
369
100
AcDbEntity
  8
0
100
AcDbLine
 62
9
  6
CONTINUOUS
 10
10.6906026937
 20
10.3790167312
 11
10.7107406525
 21
10.3431827482
  0
LINE
  5
36A
100
AcDbEntity
  8
0
100
AcDbLine
 62
9
  6
CONTINUOUS
 10
11.4040340489
 20
10.3790167055
 11
11.4201634148
 21
10.4203643923
  0
LINE
  5
36B
100
AcDbEntity
  8
0
100
AcDbLine
 62
9
  6
CONTINUOUS
 10
10.6744625103
 20
10.4203605764
 11
10.6906026937
 21
10.3790167312
  0
SPLINE
  5
36C
100
AcDbEntity
  8
0
100
AcDbSpline
 62
9
  6
CONTINUOUS
 70
0
 71
3
 72
16
 73
12
 74
0
 42
0.0000001
 43
0.0000001
 44
0.0000000001
 40
0.0
 40
0.0
 40
0.0
 40
0.0
 40
0.1249903058
 40
0.2500045119
 40
0.3749972349
 40
0.4375114379
 40
0.500026149
 40
0.6250246755
 40
0.7500136421
 40
0.8750156948
 40
1.0
 40
1.0
 40
1.0
 40
1.0
 10
11.4748221906
 20
10.4203580564
 30
0.0
 10
11.4726343862
 20
10.4195657248
 30
0.0
 10
11.4681923423
 20
10.4181562808
 30
0.0
 10
11.4613790656
 20
10.4166002782
 30
0.0
 10
11.4556093593
 20
10.4157920342
 30
0.0
 10
11.4509660137
 20
10.4154515556
 30
0.0
 10
11.4463120143
 20
10.4153179779
 30
0.0
 10
11.4404900479
 20
10.4155457046
 30
0.0
 10
11.4335596512
 20
10.4164652974
 30
0.0
 10
11.4267479515
 20
10.4180378916
 30
0.0
 10
11.4223271361
 20
10.4195194722
 30
0.0
 10
11.4201596847
 20
10.420365588
 30
0.0
  0
SPLINE
  5
36D
100
AcDbEntity
  8
0
100
AcDbSpline
 62
9
  6
CONTINUOUS
 70
0
 71
3
 72
30
 73
26
 74
0
 42
0.0000001
 43
0.0000001
 44
0.0000000001
 40
0.0
 40
0.0
 40
0.0
 40
0.0
 40
0.030277152
 40
0.0605639491
 40
0.0908699302
 40
0.1212044313
 40
0.1515764925
 40
0.1819947596
 40
0.2124673903
 40
0.2430019768
 40
0.2736054757
 40
0.3042841354
 40
0.3350434306
 40
0.3658880223
 40
0.3968217201
 40
0.4278474447
 40
0.4901631513
 40
0.5528594664
 40
0.6159268401
 40
0.6793417641
 40
0.7430678473
 40
0.8070573738
 40
0.8712531123
 40
0.9355901463
 40
1.0
 40
1.0
 40
1.0
 40
1.0
 10
11.2973183253
 20
5.1009579293
 30
0.0
 10
11.2973183253
 20
5.097114241
 30
0.0
 10
11.2971174185
 20
5.0894241271
 30
0.0
 10
11.296214099
 20
5.0779185985
 30
0.0
 10
11.2947109592
 20
5.0664683099
 30
0.0
 10
11.2926116687
 20
5.0551012837
 30
0.0
 10
11.2899213071
 20
5.0438448143
 30
0.0
 10
11.286646351
 20
5.0327260764
 30
0.0
 10
11.2827947018
 20
5.0217718723
 30
0.0
 10
11.2783756973
 20
5.0110085977
 30
0.0
 10
11.2734000084
 20
5.0004621877
 30
0.0
 10
11.2678796249
 20
4.9901580744
 30
0.0
 10
11.2618278628
 20
4.9801210636
 30
0.0
 10
11.2552594242
 20
4.9703753839
 30
0.0
 10
11.2481898831
 20
4.9609442609
 30
0.0
 10
11.2381059879
 20
4.9488038148
 30
0.0
 10
11.2243256975
 20
4.9345246904
 30
0.0
 10
11.2061155193
 20
4.9190248431
 30
0.0
 10
11.1863778059
 20
4.9052771771
 30
0.0
 10
11.1653037545
 20
4.8934146121
 30
0.0
 10
11.1430959688
 20
4.8835502349
 30
0.0
 10
11.1199682901
 20
4.8757785226
 30
0.0
 10
11.0961423459
 20
4.87017363
 30
0.0
 10
11.0718496594
 20
4.8667891461
 30
0.0
 10
11.0554951774
 20
4.8660347741
 30
0.0
 10
11.0473183383
 20
4.8660347741
 30
0.0
  0
SPLINE
  5
36E
100
AcDbEntity
  8
0
100
AcDbSpline
 62
9
  6
CONTINUOUS
 70
0
 71
3
 72
16
 73
12
 74
0
 42
0.0000001
 43
0.0000001
 44
0.0000000001
 40
0.0
 40
0.0
 40
0.0
 40
0.0
 40
0.1249849642
 40
0.2499870932
 40
0.3749777803
 40
0.4999753409
 40
0.5624895045
 40
0.6250040098
 40
0.7499973835
 40
0.8750095937
 40
1.0
 40
1.0
 40
1.0
 40
1.0
 10
10.6744533485
 20
10.42035744
 30
0.0
 10
10.672286921
 20
10.4195115817
 30
0.0
 10
10.6678678864
 20
10.4180310869
 30
0.0
 10
10.6610584751
 20
10.4164624476
 30
0.0
 10
10.6541310837
 20
10.4155449925
 30
0.0
 10
10.648311752
 20
10.4153172483
 30
0.0
 10
10.6436599169
 20
10.4154520587
 30
0.0
 10
10.6390187855
 20
10.4157936772
 30
0.0
 10
10.6332517658
 20
10.4166015511
 30
0.0
 10
10.626441616
 20
10.4181570396
 30
0.0
 10
10.6220018711
 20
10.4195665133
 30
0.0
 10
10.6198149876
 20
10.4203582809
 30
0.0
  0
SPLINE
  5
36F
100
AcDbEntity
  8
0
100
AcDbSpline
 62
9
  6
CONTINUOUS
 70
0
 71
3
 72
11
 73
7
 74
0
 42
0.0000001
 43
0.0000001
 44
0.0000000001
 40
0.0
 40
0.0
 40
0.0
 40
0.0
 40
0.2508918596
 40
0.5010368497
 40
0.7506840439
 40
1.0
 40
1.0
 40
1.0
 40
1.0
 10
11.4996144513
 20
8.5985182067
 30
0.0
 10
11.5002754874
 20
8.5976222703
 30
0.0
 10
11.5015626925
 20
8.5958086411
 30
0.0
 10
11.5034082427
 20
8.5930347151
 30
0.0
 10
11.5051754382
 20
8.5902185241
 30
0.0
 10
11.5063050708
 20
8.5883137427
 30
0.0
 10
11.5068577244
 20
8.5873552438
 30
0.0
  0
SPLINE
  5
370
100
AcDbEntity
  8
0
100
AcDbSpline
 62
9
  6
CONTINUOUS
 70
0
 71
3
 72
45
 73
41
 74
0
 42
0.0000001
 43
0.0000001
 44
0.0000000001
 40
0.0
 40
0.0
 40
0.0
 40
0.0
 40
0.0977937118
 40
0.1463504752
 40
0.1944605453
 40
0.2419194744
 40
0.2884980832
 40
0.33393387
 40
0.3779130188
 40
0.4200650825
 40
0.4403281207
 40
0.4599697798
 40
0.4789240015
 40
0.4971181928
 40
0.5144724845
 40
0.5309030914
 40
0.5463281993
 40
0.5536468824
 40
0.5606994735
 40
0.5674931317
 40
0.5740507901
 40
0.5804133921
 40
0.5866228084
 40
0.5987351594
 40
0.6106130795
 40
0.6223605998
 40
0.6340272249
 40
0.6456396052
 40
0.6572128519
 40
0.6802772795
 40
0.7032674323
 40
0.7262068365
 40
0.7491096492
 40
0.7719845822
 40
0.7948378286
 40
0.8176736358
 40
0.8633048378
 40
0.9088960606
 40
0.9544585046
 40
1.0
 40
1.0
 40
1.0
 40
1.0
 10
11.4112344913
 20
8.6222595263
 30
0.0
 10
11.4144492155
 20
8.623647118
 30
0.0
 10
11.4193015127
 20
8.6256305416
 30
0.0
 10
11.4258330819
 20
8.6280433371
 30
0.0
 10
11.4307171318
 20
8.6297109672
 30
0.0
 10
11.4355782849
 20
8.6312206674
 30
0.0
 10
11.4403919182
 20
8.6325529483
 30
0.0
 10
11.4451286007
 20
8.6336859654
 30
0.0
 10
11.4497526509
 20
8.6345926039
 30
0.0
 10
11.4535245366
 20
8.63514081
 30
0.0
 10
11.4564488382
 20
8.6354286387
 30
0.0
 10
11.458552437
 20
8.6355626947
 30
0.0
 10
11.4605857518
 20
8.6356121313
 30
0.0
 10
11.4625375075
 20
8.6355704811
 30
0.0
 10
11.4643943907
 20
8.6354302444
 30
0.0
 10
11.4661403079
 20
8.6351831101
 30
0.0
 10
11.4675108585
 20
8.6348746859
 30
0.0
 10
11.4685307026
 20
8.6345599003
 30
0.0
 10
11.4692411865
 20
8.6342950118
 30
0.0
 10
11.4699086439
 20
8.6339967186
 30
0.0
 10
11.4705325675
 20
8.6336655697
 30
0.0
 10
11.4711162808
 20
8.63330643
 30
0.0
 10
11.4718412017
 20
8.6328001555
 30
0.0
 10
11.472682282
 20
8.632118719
 30
0.0
 10
11.4736275229
 20
8.6312557462
 30
0.0
 10
11.4745273244
 20
8.6303682652
 30
0.0
 10
11.475396008
 20
8.6294636164
 30
0.0
 10
11.4762423035
 20
8.6285465148
 30
0.0
 10
11.4773462655
 20
8.6273121881
 30
0.0
 10
11.4786933761
 20
8.6257491129
 30
0.0
 10
11.4802749665
 20
8.6238514538
 30
0.0
 10
11.4818294528
 20
8.621939007
 30
0.0
 10
11.4833636377
 20
8.6200155384
 30
0.0
 10
11.4848816222
 20
8.6180831911
 30
0.0
 10
11.4863867732
 20
8.616143875
 30
0.0
 10
11.4883788957
 20
8.6135511906
 30
0.0
 10
11.4908475743
 20
8.6102980567
 30
0.0
 10
11.4937862275
 20
8.6063802155
 30
0.0
 10
11.4967070693
 20
8.6024530876
 30
0.0
 10
11.498646358
 20
8.5998302852
 30
0.0
 10
11.4996144513
 20
8.5985182067
 30
0.0
  0
SPLINE
  5
371
100
AcDbEntity
  8
0
100
AcDbSpline
 62
9
  6
CONTINUOUS
 70
0
 71
3
 72
45
 73
41
 74
0
 42
0.0000001
 43
0.0000001
 44
0.0000000001
 40
0.0
 40
0.0
 40
0.0
 40
0.0
 40
0.0455358633
 40
0.0910928584
 40
0.1366786594
 40
0.1823044993
 40
0.2051376575
 40
0.2279882772
 40
0.2508606273
 40
0.2737609111
 40
0.2966978577
 40
0.3196856616
 40
0.3427479942
 40
0.3543202931
 40
0.3659318587
 40
0.3775980387
 40
0.3893455577
 40
0.4012247585
 40
0.4072433194
 40
0.4133408167
 40
0.4195519362
 40
0.4259186913
 40
0.4324829974
 40
0.4392830522
 40
0.4536556924
 40
0.4690907285
 40
0.485529767
 40
0.5028904298
 40
0.5210902892
 40
0.5400488405
 40
0.5596939134
 40
0.5799597898
 40
0.6221149192
 40
0.6660944224
 40
0.7115291509
 40
0.7581046643
 40
0.8055603884
 40
0.8536649487
 40
0.9022169618
 40
1.0
 40
1.0
 40
1.0
 40
1.0
 10
10.5950434033
 20
8.59854672
 30
0.0
 10
10.5960110555
 20
8.5998582003
 30
0.0
 10
10.597949389
 20
8.6024798681
 30
0.0
 10
10.6008690585
 20
8.6064051057
 30
0.0
 10
10.6038064826
 20
8.6103211087
 30
0.0
 10
10.6062741766
 20
8.6135726833
 30
0.0
 10
10.60826553
 20
8.6161641086
 30
0.0
 10
10.6097701094
 20
8.6181024801
 30
0.0
 10
10.6112875448
 20
8.6200338685
 30
0.0
 10
10.6128212
 20
8.6219563677
 30
0.0
 10
10.6143751861
 20
8.6238678276
 30
0.0
 10
10.6159562991
 20
8.6257644955
 30
0.0
 10
10.6173031056
 20
8.6273266735
 30
0.0
 10
10.6184068553
 20
8.6285602683
 30
0.0
 10
10.6192530106
 20
8.6294768235
 30
0.0
 10
10.6201217278
 20
8.6303808213
 30
0.0
 10
10.6210215914
 20
8.6312676066
 30
0.0
 10
10.621806079
 20
8.6319827824
 30
0.0
 10
10.6224660599
 20
8.6325325869
 30
0.0
 10
10.6229854022
 20
8.6329336345
 30
0.0
 10
10.6235341121
 20
8.6333159398
 30
0.0
 10
10.6241186015
 20
8.6336742511
 30
0.0
 10
10.6247437399
 20
8.6340039481
 30
0.0
 10
10.6256514336
 20
8.6344076497
 30
0.0
 10
10.6268970723
 20
8.634824406
 30
0.0
 10
10.6285144779
 20
8.6351862685
 30
0.0
 10
10.6302609947
 20
8.6354321902
 30
0.0
 10
10.6321180279
 20
8.6355714012
 30
0.0
 10
10.6340697507
 20
8.6356120516
 30
0.0
 10
10.6361028449
 20
8.6355618687
 30
0.0
 10
10.6382060806
 20
8.6354271634
 30
0.0
 10
10.6411296585
 20
8.6351385625
 30
0.0
 10
10.6449003955
 20
8.6345897503
 30
0.0
 10
10.649522866
 20
8.6336827536
 30
0.0
 10
10.6542576871
 20
8.6325495136
 30
0.0
 10
10.6590694061
 20
8.6312175172
 30
0.0
 10
10.663928337
 20
8.6297078049
 30
0.0
 10
10.6688104479
 20
8.6280412947
 30
0.0
 10
10.6753388349
 20
8.6256287077
 30
0.0
 10
10.6801890804
 20
8.6236463656
 30
0.0
 10
10.6834024053
 20
8.6222594313
 30
0.0
  0
ENDSEC
  0
SECTION
  2
OBJECTS
  0
DICTIONARY
  5
C
100
AcDbDictionary
280
0
281
1
  3
ACAD_GROUP
350
D
  3
ACAD_MLINESTYLE
350
17
  3
ACAD_LAYOUT
350
1A
  3
ACAD_PLOTSETTINGS
350
19
  3
ACAD_PLOTSTYLENAME
350
E
  0
DICTIONARY
  5
D
102
{ACAD_REACTORS
330
C
102
}
100
AcDbDictionary
280
0
281
1
  0
ACDBDICTIONARYWDFLT
  5
E
102
{ACAD_REACTORS
330
C
102
}
100
AcDbDictionary
281
1
  3
Normal
350
F
100
AcDbDictionaryWithDefault
340
F
  0
DICTIONARY
  5
17
102
{ACAD_REACTORS
330
C
102
}
100
AcDbDictionary
280
0
281
1
  3
Standard
350
18
  0
DICTIONARY
  5
19
102
{ACAD_REACTORS
330
C
102
}
100
AcDbDictionary
281
1
  0
DICTIONARY
  5
1A
102
{ACAD_REACTORS
330
C
102
}
100
AcDbDictionary
281
1
  3
Model
350
372
  3
Layout1
350
373
  0
ACDBPLACEHOLDER
  5
F
102
{ACAD_REACTORS
330
E
102
}
  0
MLINESTYLE
  5
18
102
{ACAD_REACTORS
330
17
102
}
100
AcDbMlineStyle
  2
STANDARD
 70
0
  3

 62
256
 51
90.0
 52
90.0
 71
2
 49
0.5
 62
256
  6
BYLAYER
 49
-0.5
 62
256
  6
BYLAYER
  0
LAYOUT
  5
372
102
{ACAD_REACTORS
330
1A
102
}
100
AcDbPlotSettings
  1

  2
none_device
  4
ANSI_C_(22.00_x_17.00_Inches)
  6

 40
0.0
 41
0.0
 42
0.0
 43
0.0
 44
558.8
 45
431.8
 46
0.0
 47
0.0
 48
0.0
 49
0.0
140
0.0
141
0.0
142
1.0
143
1.0
 70
1024
 72
0
 73
0
 74
0
  7

 75
0
147
1.0
148
0.0
149
0.0
100
AcDbLayout
  1
Model
 70
0
 71
0
 10
0.0
 20
0.0
 11
22.0
 21
17.0
 12
0.0
 22
0.0
 32
0.0
 14
0.0
 24
0.0
 34
0.0
 15
0.0
 25
0.0
 35
0.0
146
0.0
 13
0.0
 23
0.0
 33
0.0
 16
1.0
 26
0.0
 36
0.0
 17
0.0
 27
1.0
 37
0.0
 76
0
330
205
345
0
346
0
  0
LAYOUT
  5
373
102
{ACAD_REACTORS
330
1A
102
}
100
AcDbPlotSettings
  1

  2
none_device
  4
ANSI_C_(22.00_x_17.00_Inches)
  6

 40
0.0
 41
0.0
 42
0.0
 43
0.0
 44
558.8
 45
431.8
 46
0.0
 47
0.0
 48
0.0
 49
0.0
140
0.0
141
0.0
142
1.0
143
1.0
 70
0
 72
0
 73
0
 74
0
  7

 75
0
147
1.0
148
0.0
149
0.0
100
AcDbLayout
  1
Layout1
 70
0
 71
1
 10
0.0
 20
0.0
 11
22.0
 21
17.0
 12
0.0
 22
0.0
 32
0.0
 14
0.0
 24
0.0
 34
0.0
 15
0.0
 25
0.0
 35
0.0
146
0.0
 13
0.0
 23
0.0
 33
0.0
 16
1.0
 26
0.0
 36
0.0
 17
0.0
 27
1.0
 37
0.0
 76
0
330
206
345
0
346
0
  0
ENDSEC
  0
EOF
