999
DXF file: E:\BT Custom\CADOUTPUT\_FRONT.dxf
999
Pro/ENGINEER 2018400 by Parametric Technology Corporation
  0
SECTION
  2
HEADER
  9
$ACADVER
  1
AC1018
  9
$DWGCODEPAGE
  3
ANSI_1252
  9
$EXTMAX
 10
22.0
 20
17.0
 30
0.0
  9
$EXTMIN
 10
0.0
 20
0.0
 30
0.0
  9
$LIMMIN
 10
0.0
 20
0.0
  9
$LIMMAX
 10
22.0
 20
17.0
  9
$VIEWCTR
 10
11.0
 20
8.5
  9
$VIEWSIZE
 40
17.0
  9
$CLAYER
  8
0
  9
$LTSCALE
 40
1.21
  9
$CELTYPE
  6
BYLAYER
  9
$DIMSCALE
 40
1.0
  9
$DIMASZ
 40
0.1
  9
$DIMEXO
 40
0.0625
  9
$DIMDLI
 40
0.836
  9
$DIMEXE
 40
0.125
  9
$DIMCEN
 40
0.198
  9
$DIMLFAC
 40
1.0
  9
$DIMBLK
  1
_FILLED
  9
$DIMALT
 70
1
  9
$DIMALTD
 70
2
  9
$DIMALTTD
 70
2
  9
$DIMALTF
 40
25.4
  9
$DIMTXT
 40
0.08
  9
$DIMTOL
 70
1
  9
$DIMLIM
 70
0
  9
$DIMTFAC
 40
1.0
  9
$DIMTP
 40
0.001
  9
$DIMTM
 40
0.001
  9
$DIMGAP
 40
0.09
  9
$DIMDSEP
 70
46
  9
$AUNITS
 70
0
  9
$PDMODE
 70
3
  9
$PDSIZE
 40
0.06
  9
$HANDSEED
  5
37B
  9
$TILEMODE
 70
1
  9
$MEASUREMENT
 70
0
  9
$INSUNITS
 70
1
  0
ENDSEC
  0
SECTION
  2
CLASSES
  0
CLASS
  1
ACDBDICTIONARYWDFLT
  2
AcDbDictionaryWithDefault
  3
AutoCAD 2000
 90
0
 91
1
280
0
281
0
  0
CLASS
  1
ACDBPLACEHOLDER
  2
AcDbPlaceHolder
  3
AutoCAD 2000
 90
0
 91
1
280
0
281
0
  0
CLASS
  1
LAYOUT
  2
AcDbLayout
  3
AutoCAD 2000
 90
0
 91
0
280
0
281
0
  0
ENDSEC
  0
SECTION
  2
TABLES
  0
TABLE
  2
VPORT
  5
8
100
AcDbSymbolTable
 70
2
  0
VPORT
  5
1F4
100
AcDbSymbolTableRecord
100
AcDbViewportTableRecord
  2
*ACTIVE
 70
0
 10
0.0
 20
0.0
 11
1.0
 21
1.0
 12
11.0
 22
8.5
 13
0.0
 23
0.0
 14
1.0
 24
1.0
 15
0.0
 25
0.0
 16
0.0
 26
0.0
 36
1.0
 17
0.0
 27
0.0
 37
0.0
 40
17.0
 41
1.2941176471
 42
50.0
 43
0.0
 44
0.0
 50
0.0
 51
0.0
 71
0
 72
100
 73
1
 74
1
 75
0
 76
0
 77
0
 78
0
  0
ENDTAB
  0
TABLE
  2
LTYPE
  5
5
100
AcDbSymbolTable
 70
6
  0
LTYPE
  5
14
100
AcDbSymbolTableRecord
100
AcDbLinetypeTableRecord
  2
BYBLOCK
 70
0
  3

 72
65
 73
0
 40
0.0
  0
LTYPE
  5
15
100
AcDbSymbolTableRecord
100
AcDbLinetypeTableRecord
  2
BYLAYER
 70
0
  3

 72
65
 73
0
 40
0.0
  0
LTYPE
  5
16
100
AcDbSymbolTableRecord
100
AcDbLinetypeTableRecord
  2
CONTINUOUS
 70
64
  3
Solid line
 72
65
 73
0
 40
0.0
  0
LTYPE
  5
1F5
100
AcDbSymbolTableRecord
100
AcDbLinetypeTableRecord
  2
CENTER
 70
64
  3
____ _ ____ _ ____ _ ____ _ ____ _ ____ _ ____
 72
65
 73
4
 40
0.6
 49
0.375
 74
0
 49
-0.075
 74
0
 49
0.075
 74
0
 49
-0.075
 74
0
  0
LTYPE
  5
1F6
100
AcDbSymbolTableRecord
100
AcDbLinetypeTableRecord
  2
HIDDEN
 70
64
  3
- - - - - - - - - - - - - - - - - - - -
 72
65
 73
2
 40
0.2
 49
0.1
 74
0
 49
-0.1
 74
0
  0
LTYPE
  5
1F7
100
AcDbSymbolTableRecord
100
AcDbLinetypeTableRecord
  2
PHANTOM
 70
64
  3
_____ _ _ _____ _ _ _____ _ _ _____
 72
65
 73
6
 40
0.8
 49
0.45
 74
0
 49
-0.05
 74
0
 49
0.1
 74
0
 49
-0.05
 74
0
 49
0.1
 74
0
 49
-0.05
 74
0
  0
LTYPE
  5
1F8
100
AcDbSymbolTableRecord
100
AcDbLinetypeTableRecord
  2
DOT
 70
64
  3
. . . . . . . . . . . . . . . . . . . .
 72
65
 73
2
 40
0.2
 49
0.1
 74
0
 49
-0.1
 74
0
  0
LTYPE
  5
1F9
100
AcDbSymbolTableRecord
100
AcDbLinetypeTableRecord
  2
DASHED
 70
64
  3
- - - - - - - - - - - - - - - - - - - -
 72
65
 73
2
 40
0.2
 49
0.1
 74
0
 49
-0.1
 74
0
  0
ENDTAB
  0
TABLE
  2
LAYER
  5
2
100
AcDbSymbolTable
 70
36
  0
LAYER
  5
10
100
AcDbSymbolTableRecord
100
AcDbLayerTableRecord
  2
0
 70
0
 62
7
  6
CONTINUOUS
370
-3
390
F
  0
LAYER
  5
1FA
100
AcDbSymbolTableRecord
100
AcDbLayerTableRecord
  2
DEFAULT_1
 70
0
 62
7
  6
CENTER
370
-3
390
F
  0
LAYER
  5
1FB
100
AcDbSymbolTableRecord
100
AcDbLayerTableRecord
  2
DEFAULT_2
 70
0
 62
8
  6
HIDDEN
370
-3
390
F
  0
LAYER
  5
1FC
100
AcDbSymbolTableRecord
100
AcDbLayerTableRecord
  2
DEFAULT_3
 70
0
 62
7
  6
PHANTOM
370
-3
390
F
  0
LAYER
  5
1FD
100
AcDbSymbolTableRecord
100
AcDbLayerTableRecord
  2
ALL_FEATURES
 70
0
 62
7
  6
CONTINUOUS
370
-3
390
F
  0
LAYER
  5
1FE
100
AcDbSymbolTableRecord
100
AcDbLayerTableRecord
  2
AXES_FEATURES
 70
0
 62
7
  6
CONTINUOUS
370
-3
390
F
  0
LAYER
  5
1FF
100
AcDbSymbolTableRecord
100
AcDbLayerTableRecord
  2
DEFAULT_COORDINATE_SYSTEM
 70
0
 62
7
  6
CONTINUOUS
370
-3
390
F
  0
LAYER
  5
200
100
AcDbSymbolTableRecord
100
AcDbLayerTableRecord
  2
DEFAULT_DATUM_AXES
 70
0
 62
7
  6
CONTINUOUS
370
-3
390
F
  0
LAYER
  5
201
100
AcDbSymbolTableRecord
100
AcDbLayerTableRecord
  2
DEFAULT_DATUM_PLANES
 70
0
 62
7
  6
CONTINUOUS
370
-3
390
F
  0
LAYER
  5
202
100
AcDbSymbolTableRecord
100
AcDbLayerTableRecord
  2
DIMENSIONS
 70
0
 62
7
  6
CONTINUOUS
370
-3
390
F
  0
ENDTAB
  0
TABLE
  2
STYLE
  5
3
100
AcDbSymbolTable
 70
1
  0
STYLE
  5
11
100
AcDbSymbolTableRecord
100
AcDbTextStyleTableRecord
  2
STANDARD
 70
0
 40
0.0
 41
0.8
 50
0.0
 71
0
 42
0.2
  3
txt
  4

  0
STYLE
  5
203
100
AcDbSymbolTableRecord
100
AcDbTextStyleTableRecord
  2
TEXTSTYLE_1
 70
0
 40
0.0
 41
0.8
 50
0.0
 71
0
 42
0.2
  3
gdt
  4

  0
ENDTAB
  0
TABLE
  2
VIEW
  5
6
100
AcDbSymbolTable
 70
0
  0
ENDTAB
  0
TABLE
  2
UCS
  5
7
100
AcDbSymbolTable
 70
0
  0
ENDTAB
  0
TABLE
  2
APPID
  5
9
100
AcDbSymbolTable
 70
1
  0
APPID
  5
204
100
AcDbSymbolTableRecord
100
AcDbRegAppTableRecord
  2
ACAD
 70
0
  0
ENDTAB
  0
TABLE
  2
BLOCK_RECORD
  5
1
100
AcDbSymbolTable
 70
0
  0
BLOCK_RECORD
  5
205
100
AcDbSymbolTableRecord
100
AcDbBlockTableRecord
  2
*Model_Space
  0
BLOCK_RECORD
  5
206
100
AcDbSymbolTableRecord
100
AcDbBlockTableRecord
  2
*Paper_Space
  0
BLOCK_RECORD
  5
207
100
AcDbSymbolTableRecord
100
AcDbBlockTableRecord
  2
_FILLED
  0
ENDTAB
  0
TABLE
  2
DIMSTYLE
  5
A
100
AcDbSymbolTable
 70
1
100
AcDbDimStyleTable
 71
0
  0
DIMSTYLE
105
208
100
AcDbSymbolTableRecord
100
AcDbDimStyleTableRecord
  2
STANDARD
 70
0
  3

  4

 40
1.0
 41
0.1
 42
0.0625
 43
0.38
 44
0.125
 45
0.0
 46
0.0
 47
0.001
 48
0.001
140
0.08
141
0.09
142
0.0
143
25.4
144
1.0
145
0.0
146
1.0
147
0.09
 71
1.0
 72
0.0
 73
1
 74
1
 75
0
 76
0
 77
0
 78
4
 79
1
170
1
171
2
172
0
173
0
174
0
175
0
176
0
177
0
178
0
270
2
179
3
271
3
272
3
273
2
274
2
275
0
280
0
281
0
282
0
283
1
284
4
285
0
286
0
287
3
288
0
340
11
278
46
341
207
342
207
343
207
344
207
  0
ENDTAB
  0
ENDSEC
  0
SECTION
  2
BLOCKS
  0
BLOCK
  5
20
100
AcDbEntity
  8
0
100
AcDbBlockBegin
  2
*Model_Space
 70
0
 10
0.0
 20
0.0
 30
0.0
  3
*Model_Space
  1

  0
ENDBLK
  5
21
100
AcDbEntity
  8
0
100
AcDbBlockEnd
  0
BLOCK
  5
1C
100
AcDbEntity
  8
0
100
AcDbBlockBegin
  2
*Paper_Space
 70
0
 10
0.0
 20
0.0
 30
0.0
  3
*Paper_Space
  1

  0
ENDBLK
  5
1D
100
AcDbEntity
  8
0
100
AcDbBlockEnd
  0
BLOCK
  5
209
100
AcDbEntity
  8
0
100
AcDbBlockBegin
  2
_FILLED
 70
64
 10
0.0
 20
0.0
  3
_FILLED
  1

  0
SOLID
  5
20A
100
AcDbEntity
  8
0
  6
BYBLOCK
 62
0
100
AcDbTrace
 10
0.0
 20
0.0
 11
-1.0
 21
0.2
 12
-1.0
 22
-0.2
 13
-1.0
 23
-0.2
  0
ENDBLK
  5
20B
100
AcDbEntity
  8
0
  6
BYBLOCK
 62
0
100
AcDbBlockEnd
  0
ENDSEC
  0
SECTION
  2
ENTITIES
  0
LINE
  5
20C
100
AcDbEntity
  8
0
100
AcDbLine
 62
7
  6
CONTINUOUS
 10
12.7914423427
 20
4.5552946624
 11
10.6664423427
 21
4.5552946624
  0
LINE
  5
20D
100
AcDbEntity
  8
0
100
AcDbLine
 62
9
  6
CONTINUOUS
 10
10.6664423427
 20
4.6357768621
 11
12.7914423427
 21
4.6357768621
  0
LINE
  5
20E
100
AcDbEntity
  8
0
100
AcDbLine
 62
9
  6
CONTINUOUS
 10
12.7857194855
 20
4.6401741125
 11
12.3516888368
 21
4.6401741125
  0
LINE
  5
20F
100
AcDbEntity
  8
0
100
AcDbLine
 62
9
  6
CONTINUOUS
 10
12.1629725394
 20
4.6401741125
 11
11.2949116368
 21
4.6401741125
  0
LINE
  5
210
100
AcDbEntity
  8
0
100
AcDbLine
 62
9
  6
CONTINUOUS
 10
11.1061953966
 20
4.6401741125
 11
10.6721651428
 21
4.6401741125
  0
LINE
  5
211
100
AcDbEntity
  8
0
100
AcDbLine
 62
7
  6
CONTINUOUS
 10
12.7698279139
 20
4.6552946624
 11
12.342324118
 21
4.6552946624
  0
LINE
  5
212
100
AcDbEntity
  8
0
100
AcDbLine
 62
7
  6
CONTINUOUS
 10
12.1564456935
 20
4.6552946624
 11
11.3014384904
 21
4.6552946624
  0
LINE
  5
213
100
AcDbEntity
  8
0
100
AcDbLine
 62
7
  6
CONTINUOUS
 10
11.1155601223
 20
4.6552946624
 11
10.6880567152
 21
4.6552946624
  0
LINE
  5
214
100
AcDbEntity
  8
0
100
AcDbLine
 62
9
  6
CONTINUOUS
 10
10.675430932
 20
4.6726194942
 11
10.6765203065
 21
4.6726194942
  0
LINE
  5
215
100
AcDbEntity
  8
0
100
AcDbLine
 62
9
  6
CONTINUOUS
 10
11.1612510827
 20
4.6726194942
 11
11.2442115943
 21
4.6726194942
  0
LINE
  5
216
100
AcDbEntity
  8
0
100
AcDbLine
 62
9
  6
CONTINUOUS
 10
12.2136731203
 20
4.6726194942
 11
12.2966336304
 21
4.6726194942
  0
LINE
  5
217
100
AcDbEntity
  8
0
100
AcDbLine
 62
9
  6
CONTINUOUS
 10
12.7813643804
 20
4.6726194942
 11
12.7824537535
 21
4.6726194942
  0
LINE
  5
218
100
AcDbEntity
  8
0
100
AcDbLine
 62
9
  6
CONTINUOUS
 10
12.6986312286
 20
4.6822680174
 11
12.3419155839
 21
4.6822680174
  0
LINE
  5
219
100
AcDbEntity
  8
0
100
AcDbLine
 62
9
  6
CONTINUOUS
 10
12.0856579873
 20
4.6822680174
 11
11.3722266981
 21
4.6822680174
  0
LINE
  5
21A
100
AcDbEntity
  8
0
100
AcDbLine
 62
9
  6
CONTINUOUS
 10
11.1159691014
 20
4.6822680174
 11
10.7592534569
 21
4.6822680174
  0
LINE
  5
21B
100
AcDbEntity
  8
0
100
AcDbLine
 62
9
  6
CONTINUOUS
 10
12.6575291096
 20
4.7606880045
 11
12.3209514238
 21
4.7606880045
  0
LINE
  5
21C
100
AcDbEntity
  8
0
100
AcDbLine
 62
9
  6
CONTINUOUS
 10
12.0655200285
 20
4.7606880045
 11
11.392364657
 21
4.7606880045
  0
LINE
  5
21D
100
AcDbEntity
  8
0
100
AcDbLine
 62
9
  6
CONTINUOUS
 10
11.1369332617
 20
4.7606880045
 11
10.8003555759
 21
4.7606880045
  0
LINE
  5
21E
100
AcDbEntity
  8
0
100
AcDbLine
 62
9
  6
CONTINUOUS
 10
12.6378907008
 20
4.8435839268
 11
12.3065411
 21
4.8435839268
  0
LINE
  5
21F
100
AcDbEntity
  8
0
100
AcDbLine
 62
9
  6
CONTINUOUS
 10
12.0602919435
 20
4.8435839268
 11
11.3975927419
 21
4.8435839268
  0
LINE
  5
220
100
AcDbEntity
  8
0
100
AcDbLine
 62
9
  6
CONTINUOUS
 10
11.1513435854
 20
4.8435839268
 11
10.8199939847
 21
4.8435839268
  0
LINE
  5
221
100
AcDbEntity
  8
0
100
AcDbLine
 62
9
  6
CONTINUOUS
 10
10.8151347529
 20
4.9260497071
 11
11.1797522119
 21
4.9260497357
  0
LINE
  5
222
100
AcDbEntity
  8
0
100
AcDbLine
 62
9
  6
CONTINUOUS
 10
11.3643248774
 20
4.9260497071
 11
12.0935598007
 21
4.9260497357
  0
LINE
  5
223
100
AcDbEntity
  8
0
100
AcDbLine
 62
9
  6
CONTINUOUS
 10
12.2781324672
 20
4.9260497071
 11
12.6427499316
 21
4.9260497357
  0
LINE
  5
224
100
AcDbEntity
  8
0
100
AcDbLine
 62
9
  6
CONTINUOUS
 10
12.6409657273
 20
4.9334176935
 11
12.2770497358
 21
4.9334176935
  0
LINE
  5
225
100
AcDbEntity
  8
0
100
AcDbLine
 62
9
  6
CONTINUOUS
 10
12.0928584958
 20
4.9334176935
 11
11.3650264097
 21
4.9334176935
  0
LINE
  5
226
100
AcDbEntity
  8
0
100
AcDbLine
 62
9
  6
CONTINUOUS
 10
11.1808351151
 20
4.9334176935
 11
10.8169189898
 21
4.9334176935
  0
LINE
  5
227
100
AcDbEntity
  8
0
100
AcDbLine
 62
9
  6
CONTINUOUS
 10
10.8210665915
 20
4.9533213075
 11
12.636818094
 21
4.9533213075
  0
LINE
  5
228
100
AcDbEntity
  8
0
100
AcDbLine
 62
7
  6
CONTINUOUS
 10
10.8654487232
 20
4.9802946624
 11
12.5924359623
 21
4.9802946624
  0
LINE
  5
229
100
AcDbEntity
  8
0
100
AcDbLine
 62
9
  6
CONTINUOUS
 10
10.6888237415
 20
4.6968754317
 11
10.6956578898
 21
4.693334293
  0
LINE
  5
22A
100
AcDbEntity
  8
0
100
AcDbLine
 62
9
  6
CONTINUOUS
 10
10.7388588588
 20
4.7932379141
 11
10.7457439234
 21
4.7896707911
  0
LINE
  5
22B
100
AcDbEntity
  8
0
100
AcDbLine
 62
7
  6
CONTINUOUS
 10
12.32466593
 20
4.658020505
 11
12.3246637164
 21
4.6580212676
  0
LINE
  5
22C
100
AcDbEntity
  8
0
100
AcDbLine
 62
7
  6
CONTINUOUS
 10
12.3246646696
 20
4.6580209834
 11
12.3226803619
 21
4.6587565145
  0
LWPOLYLINE
  5
22D
100
AcDbEntity
  8
0
100
AcDbPolyline
 62
7
  6
CONTINUOUS
 90
3
 70
0
 10
12.3226803619
 20
4.6587565145
 10
12.3200778141
 20
4.6598863853
 10
12.317549062
 20
4.6611780688
  0
LINE
  5
22E
100
AcDbEntity
  8
0
100
AcDbLine
 62
7
  6
CONTINUOUS
 10
10.4629423427
 20
5.7962946624
 11
10.5539423427
 21
5.7962946624
  0
LINE
  5
22F
100
AcDbEntity
  8
0
100
AcDbLine
 62
7
  6
CONTINUOUS
 10
10.9331695229
 20
5.9062946624
 11
10.5539423427
 21
5.9062946624
  0
LINE
  5
230
100
AcDbEntity
  8
0
100
AcDbLine
 62
7
  6
CONTINUOUS
 10
9.1839423427
 20
5.9412946624
 11
9.9193412624
 21
5.9412946624
  0
LWPOLYLINE
  5
231
100
AcDbEntity
  8
0
100
AcDbPolyline
 62
7
  6
CONTINUOUS
 90
3
 70
0
 10
12.317549062
 20
4.6611780688
 10
12.3150972078
 20
4.6626281426
 10
12.3127279076
 20
4.6642308238
  0
LINE
  5
232
100
AcDbEntity
  8
0
100
AcDbLine
 62
7
  6
CONTINUOUS
 10
12.3127279076
 20
4.6642308238
 11
12.3104531528
 21
4.6659721024
  0
LINE
  5
233
100
AcDbEntity
  8
0
100
AcDbLine
 62
7
  6
CONTINUOUS
 10
9.1839423427
 20
6.8412946624
 11
9.3249423427
 21
6.8412946624
  0
LINE
  5
234
100
AcDbEntity
  8
0
100
AcDbLine
 62
7
  6
CONTINUOUS
 10
9.6999423427
 20
6.8412946624
 11
9.9193412624
 21
6.8412946624
  0
LINE
  5
235
100
AcDbEntity
  8
0
100
AcDbLine
 62
7
  6
CONTINUOUS
 10
10.9331695225
 20
6.8762946624
 11
10.5539423427
 21
6.8762946624
  0
LINE
  5
236
100
AcDbEntity
  8
0
100
AcDbLine
 62
7
  6
CONTINUOUS
 10
12.3104531528
 20
4.6659721024
 11
12.3082907978
 21
4.6678294106
  0
LWPOLYLINE
  5
237
100
AcDbEntity
  8
0
100
AcDbPolyline
 62
7
  6
CONTINUOUS
 90
4
 70
0
 10
12.3082907978
 20
4.6678294106
 10
12.3062594581
 20
4.6697720014
 10
12.3043783959
 20
4.6717620145
 10
12.3026649155
 20
4.6737532357
  0
LINE
  5
238
100
AcDbEntity
  8
0
100
AcDbLine
 62
7
  6
CONTINUOUS
 10
10.4629423427
 20
6.9862946624
 11
10.5539423427
 21
6.9862946624
  0
LINE
  5
239
100
AcDbEntity
  8
0
100
AcDbLine
 62
7
  6
CONTINUOUS
 10
9.2889423427
 20
7.0962946624
 11
9.7359423427
 21
7.0962946624
  0
LINE
  5
23A
100
AcDbEntity
  8
0
100
AcDbLine
 62
9
  6
CONTINUOUS
 10
9.1944423427
 20
7.1907946624
 11
9.8304423427
 21
7.1907946624
  0
LINE
  5
23B
100
AcDbEntity
  8
0
100
AcDbLine
 62
7
  6
CONTINUOUS
 10
9.2531736288
 20
7.3225564319
 11
9.2183904631
 21
8.6508719405
  0
LINE
  5
23C
100
AcDbEntity
  8
0
100
AcDbLine
 62
7
  6
CONTINUOUS
 10
9.0839423427
 20
6.8512946624
 11
9.0839423427
 21
5.9312946624
  0
LINE
  5
23D
100
AcDbEntity
  8
0
100
AcDbLine
 62
7
  6
CONTINUOUS
 10
9.1249423427
 20
8.9812946624
 11
9.1249423427
 21
9.0572946624
  0
LINE
  5
23E
100
AcDbEntity
  8
0
100
AcDbLine
 62
7
  6
CONTINUOUS
 10
9.1839423427
 20
6.8512946624
 11
9.1839423427
 21
5.9312946624
  0
LINE
  5
23F
100
AcDbEntity
  8
0
100
AcDbLine
 62
7
  6
CONTINUOUS
 10
9.1944423427
 20
7.1907946624
 11
9.1944423427
 21
7.3022946624
  0
LINE
  5
240
100
AcDbEntity
  8
0
100
AcDbLine
 62
9
  6
CONTINUOUS
 10
9.1944423427
 20
7.3022946624
 11
9.8304423427
 21
7.3022946624
  0
LINE
  5
241
100
AcDbEntity
  8
0
100
AcDbLine
 62
7
  6
CONTINUOUS
 10
9.2044423427
 20
7.3122946624
 11
9.8204423427
 21
7.3122946624
  0
LINE
  5
242
100
AcDbEntity
  8
0
100
AcDbLine
 62
9
  6
CONTINUOUS
 10
9.7717110566
 20
7.3225564319
 11
9.2531736288
 21
7.3225564319
  0
LINE
  5
243
100
AcDbEntity
  8
0
100
AcDbLine
 62
7
  6
CONTINUOUS
 10
10.8339423427
 20
7.3302946624
 11
12.6239423427
 21
7.3302946624
  0
LINE
  5
244
100
AcDbEntity
  8
0
100
AcDbLine
 62
9
  6
CONTINUOUS
 10
10.8139423427
 20
7.3502946624
 11
12.6439423427
 21
7.3502946624
  0
LINE
  5
245
100
AcDbEntity
  8
0
100
AcDbLine
 62
9
  6
CONTINUOUS
 10
12.6439423427
 20
7.4522346768
 11
10.8139423427
 21
7.4522346768
  0
LINE
  5
246
100
AcDbEntity
  8
0
100
AcDbLine
 62
9
  6
CONTINUOUS
 10
12.5519423427
 20
7.5772946624
 11
10.9059423427
 21
7.5772946624
  0
LINE
  5
247
100
AcDbEntity
  8
0
100
AcDbLine
 62
7
  6
CONTINUOUS
 10
12.3026649155
 20
4.6737532357
 11
12.3016229355
 21
4.6750577192
  0
LINE
  5
248
100
AcDbEntity
  8
0
100
AcDbLine
 62
7
  6
CONTINUOUS
 10
9.3324423427
 20
6.8382235051
 11
9.3324423427
 21
7.0962946624
  0
LINE
  5
249
100
AcDbEntity
  8
0
100
AcDbLine
 62
9
  6
CONTINUOUS
 10
12.3825004939
 20
7.7632946624
 11
11.0753841916
 21
7.7632946624
  0
LINE
  5
24A
100
AcDbEntity
  8
0
100
AcDbLine
 62
9
  6
CONTINUOUS
 10
12.3621128897
 20
7.7972946624
 11
11.0957717958
 21
7.7972946624
  0
LINE
  5
24B
100
AcDbEntity
  8
0
100
AcDbLine
 62
9
  6
CONTINUOUS
 10
12.3346461005
 20
7.8152737842
 11
11.123238585
 21
7.8152737842
  0
LINE
  5
24C
100
AcDbEntity
  8
0
100
AcDbLine
 62
9
  6
CONTINUOUS
 10
12.2257252624
 20
7.8559822409
 11
11.232159423
 21
7.8559822409
  0
LINE
  5
24D
100
AcDbEntity
  8
0
100
AcDbLine
 62
7
  6
CONTINUOUS
 10
12.1909423427
 20
7.8612946624
 11
11.2669423427
 21
7.8612946624
  0
LWPOLYLINE
  5
24E
100
AcDbEntity
  8
0
100
AcDbPolyline
 62
7
  6
CONTINUOUS
 90
7
 70
0
 10
12.3016229082
 20
4.6750577544
 10
12.3000305739
 20
4.6772196681
 10
12.2979993749
 20
4.6803529327
 10
12.2961738811
 20
4.6836607995
 10
12.2945860825
 20
4.6871122599
 10
12.2932638985
 20
4.6906719796
 10
12.2924223332
 20
4.6935339996
  0
LINE
  5
24F
100
AcDbEntity
  8
0
100
AcDbLine
 62
7
  6
CONTINUOUS
 10
9.6924423427
 20
6.838223506
 11
9.6924423427
 21
7.0962946624
  0
LINE
  5
250
100
AcDbEntity
  8
0
100
AcDbLine
 62
7
  6
CONTINUOUS
 10
9.8304423427
 20
7.1907946624
 11
9.8304423427
 21
7.3022946624
  0
LINE
  5
251
100
AcDbEntity
  8
0
100
AcDbLine
 62
7
  6
CONTINUOUS
 10
9.8999423427
 20
8.9812946624
 11
9.8999423427
 21
9.0572946624
  0
LINE
  5
252
100
AcDbEntity
  8
0
100
AcDbLine
 62
9
  6
CONTINUOUS
 10
9.9193412624
 20
5.9412946624
 11
9.9193412624
 21
6.8412946624
  0
LINE
  5
253
100
AcDbEntity
  8
0
100
AcDbLine
 62
9
  6
CONTINUOUS
 10
9.9638658343
 20
5.9140446624
 11
9.9638658343
 21
6.8685446624
  0
LINE
  5
254
100
AcDbEntity
  8
0
100
AcDbLine
 62
7
  6
CONTINUOUS
 10
9.7717110566
 20
7.3225564319
 11
9.8064942224
 21
8.6508719405
  0
LINE
  5
255
100
AcDbEntity
  8
0
100
AcDbLine
 62
7
  6
CONTINUOUS
 10
11.4048975945
 20
11.6337072529
 11
11.4048320321
 21
11.6336306199
  0
LINE
  5
256
100
AcDbEntity
  8
0
100
AcDbLine
 62
9
  6
CONTINUOUS
 10
10.010616783
 20
5.8868442546
 11
10.010616783
 21
6.8957450703
  0
LINE
  5
257
100
AcDbEntity
  8
0
100
AcDbLine
 62
9
  6
CONTINUOUS
 10
11.4319934073
 20
11.2982012428
 11
11.4319919884
 21
11.298199292
  0
LINE
  5
258
100
AcDbEntity
  8
0
100
AcDbLine
 62
7
  6
CONTINUOUS
 10
12.0432563785
 20
11.4997748789
 11
12.0468467387
 21
11.5036636765
  0
LINE
  5
259
100
AcDbEntity
  8
0
100
AcDbLine
 62
9
  6
CONTINUOUS
 10
12.0432563785
 20
11.4997748789
 11
12.0432508045
 21
11.4997690175
  0
LINE
  5
25A
100
AcDbEntity
  8
0
100
AcDbLine
 62
9
  6
CONTINUOUS
 10
10.4312307445
 20
5.8033286817
 11
10.4312307445
 21
6.9792606432
  0
LINE
  5
25B
100
AcDbEntity
  8
0
100
AcDbLine
 62
9
  6
CONTINUOUS
 10
10.4629423427
 20
5.7962946624
 11
10.4629423427
 21
6.9862946624
  0
LINE
  5
25C
100
AcDbEntity
  8
0
100
AcDbLine
 62
7
  6
CONTINUOUS
 10
10.5539423427
 20
6.9862946624
 11
10.5539423427
 21
5.7962946624
  0
LINE
  5
25D
100
AcDbEntity
  8
0
100
AcDbLine
 62
7
  6
CONTINUOUS
 10
12.016658309
 20
11.1847900587
 11
12.0165585431
 21
11.1846894162
  0
LINE
  5
25E
100
AcDbEntity
  8
0
100
AcDbLine
 62
9
  6
CONTINUOUS
 10
9.2183904631
 20
8.6508719405
 11
9.8064942224
 21
8.6508719405
  0
LINE
  5
25F
100
AcDbEntity
  8
0
100
AcDbLine
 62
9
  6
CONTINUOUS
 10
9.1764088137
 20
8.7952491644
 11
9.8484758718
 21
8.7952491644
  0
LINE
  5
260
100
AcDbEntity
  8
0
100
AcDbLine
 62
7
  6
CONTINUOUS
 10
12.7824537535
 20
4.6726194942
 11
12.636818094
 21
4.9533213075
  0
LINE
  5
261
100
AcDbEntity
  8
0
100
AcDbLine
 62
7
  6
CONTINUOUS
 10
10.6664423427
 20
4.5552946624
 11
10.6664423427
 21
4.6357768621
  0
LINE
  5
262
100
AcDbEntity
  8
0
100
AcDbLine
 62
7
  6
CONTINUOUS
 10
10.8139423427
 20
7.3502946624
 11
10.8139423427
 21
7.4522346768
  0
LINE
  5
263
100
AcDbEntity
  8
0
100
AcDbLine
 62
7
  6
CONTINUOUS
 10
10.9239423427
 20
4.9802946624
 11
10.9239423427
 21
5.8912946624
  0
LINE
  5
264
100
AcDbEntity
  8
0
100
AcDbLine
 62
7
  6
CONTINUOUS
 10
10.9239423427
 20
6.8912946624
 11
10.9239423427
 21
7.3302946624
  0
LINE
  5
265
100
AcDbEntity
  8
0
100
AcDbLine
 62
7
  6
CONTINUOUS
 10
11.3844156297
 20
11.5931735422
 11
11.3841319504
 21
11.5916954569
  0
LINE
  5
266
100
AcDbEntity
  8
0
100
AcDbLine
 62
9
  6
CONTINUOUS
 10
9.1249423427
 20
8.9812946624
 11
9.8999423427
 21
8.9812946624
  0
LINE
  5
267
100
AcDbEntity
  8
0
100
AcDbLine
 62
9
  6
CONTINUOUS
 10
9.1249423427
 20
9.0572946624
 11
9.8999423427
 21
9.0572946624
  0
LINE
  5
268
100
AcDbEntity
  8
0
100
AcDbLine
 62
7
  6
CONTINUOUS
 10
9.3249423427
 20
9.0962946624
 11
9.6999423427
 21
9.0962946624
  0
LINE
  5
269
100
AcDbEntity
  8
0
100
AcDbLine
 62
7
  6
CONTINUOUS
 10
12.2924223241
 20
4.6935342031
 11
12.2673570799
 21
4.7898976421
  0
LWPOLYLINE
  5
26A
100
AcDbEntity
  8
0
100
AcDbPolyline
 62
7
  6
CONTINUOUS
 90
3
 70
0
 10
12.2673571632
 20
4.7898973216
 10
12.2655341637
 20
4.7970734103
 10
12.2637183564
 20
4.8046081959
  0
LINE
  5
26B
100
AcDbEntity
  8
0
100
AcDbLine
 62
7
  6
CONTINUOUS
 10
12.2637183564
 20
4.8046081959
 11
12.2630333954
 21
4.8075745704
  0
LINE
  5
26C
100
AcDbEntity
  8
0
100
AcDbLine
 62
9
  6
CONTINUOUS
 10
12.2630333954
 20
4.8075745704
 11
12.2613893616
 21
4.8150263487
  0
LINE
  5
26D
100
AcDbEntity
  8
0
100
AcDbLine
 62
9
  6
CONTINUOUS
 10
11.4404292089
 20
11.4411548904
 11
11.4401497968
 21
11.4454987647
  0
LINE
  5
26E
100
AcDbEntity
  8
0
100
AcDbLine
 62
7
  6
CONTINUOUS
 10
11.4789423427
 20
13.7298715959
 11
11.4789423427
 21
11.6833385224
  0
LINE
  5
26F
100
AcDbEntity
  8
0
100
AcDbLine
 62
7
  6
CONTINUOUS
 10
11.4789423427
 20
7.8612946624
 11
11.4789423427
 21
11.1579012173
  0
LINE
  5
270
100
AcDbEntity
  8
0
100
AcDbLine
 62
7
  6
CONTINUOUS
 10
11.4450312714
 20
11.3385084563
 11
11.4455149521
 21
11.361745653
  0
LINE
  5
271
100
AcDbEntity
  8
0
100
AcDbLine
 62
7
  6
CONTINUOUS
 10
11.9789423427
 20
13.7298715959
 11
11.9789423427
 21
11.6833751945
  0
LINE
  5
272
100
AcDbEntity
  8
0
100
AcDbLine
 62
7
  6
CONTINUOUS
 10
11.9789423427
 20
7.8612946624
 11
11.9789423427
 21
11.1578957949
  0
LINE
  5
273
100
AcDbEntity
  8
0
100
AcDbLine
 62
9
  6
CONTINUOUS
 10
12.0177348888
 20
11.4454987647
 11
12.0174554766
 21
11.4411548904
  0
LINE
  5
274
100
AcDbEntity
  8
0
100
AcDbLine
 62
7
  6
CONTINUOUS
 10
12.0123697334
 20
11.361745653
 11
12.0128534169
 21
11.3385083911
  0
LINE
  5
275
100
AcDbEntity
  8
0
100
AcDbLine
 62
9
  6
CONTINUOUS
 10
11.1964953139
 20
4.8150263019
 11
11.1948513596
 21
4.8075748757
  0
LWPOLYLINE
  5
276
100
AcDbEntity
  8
0
100
AcDbPolyline
 62
7
  6
CONTINUOUS
 90
4
 70
0
 10
11.1948513596
 20
4.8075748757
 10
11.1941721149
 20
4.8046329056
 10
11.1923633022
 20
4.797124979
 10
11.1905275316
 20
4.7898973575
  0
LINE
  5
277
100
AcDbEntity
  8
0
100
AcDbLine
 62
7
  6
CONTINUOUS
 10
11.1744990953
 20
4.728278916
 11
11.1654623614
 21
4.6935342031
  0
LINE
  5
278
100
AcDbEntity
  8
0
100
AcDbLine
 62
7
  6
CONTINUOUS
 10
11.1905276088
 20
4.7898976545
 11
11.1654624326
 21
4.6935343542
  0
LINE
  5
279
100
AcDbEntity
  8
0
100
AcDbLine
 62
7
  6
CONTINUOUS
 10
12.5339423427
 20
4.9802946624
 11
12.5339423427
 21
7.3302946624
  0
LINE
  5
27A
100
AcDbEntity
  8
0
100
AcDbLine
 62
7
  6
CONTINUOUS
 10
12.6439423427
 20
7.3502946624
 11
12.6439423427
 21
7.4522346768
  0
LWPOLYLINE
  5
27B
100
AcDbEntity
  8
0
100
AcDbPolyline
 62
7
  6
CONTINUOUS
 90
7
 70
0
 10
11.1654624581
 20
4.6935342328
 10
11.1646420064
 20
4.6907362053
 10
11.1633238856
 20
4.6871731258
 10
11.1617404436
 20
4.6837195564
 10
11.1599204012
 20
4.6804114586
 10
11.1578961205
 20
4.6772797642
 10
11.1562618401
 20
4.675057801
  0
LINE
  5
27C
100
AcDbEntity
  8
0
100
AcDbLine
 62
7
  6
CONTINUOUS
 10
11.4413260781
 20
11.184689481
 11
11.441225468
 21
11.1847909768
  0
LINE
  5
27D
100
AcDbEntity
  8
0
100
AcDbLine
 62
7
  6
CONTINUOUS
 10
12.0737527351
 20
11.5916954569
 11
12.0734691916
 21
11.5931728592
  0
LINE
  5
27E
100
AcDbEntity
  8
0
100
AcDbLine
 62
7
  6
CONTINUOUS
 10
12.7914423427
 20
4.5552946624
 11
12.7914423427
 21
4.6357768621
  0
LINE
  5
27F
100
AcDbEntity
  8
0
100
AcDbLine
 62
7
  6
CONTINUOUS
 10
10.675430932
 20
4.6726194942
 11
10.8210665915
 21
4.9533213075
  0
LINE
  5
280
100
AcDbEntity
  8
0
100
AcDbLine
 62
9
  6
CONTINUOUS
 10
11.4146341619
 20
11.4997687221
 11
11.4146217487
 21
11.499781777
  0
LINE
  5
281
100
AcDbEntity
  8
0
100
AcDbLine
 62
7
  6
CONTINUOUS
 10
11.4110379469
 20
11.5036636765
 11
11.4146217487
 21
11.499781777
  0
LINE
  5
282
100
AcDbEntity
  8
0
100
AcDbLine
 62
7
  6
CONTINUOUS
 10
12.0530517345
 20
11.6336316954
 11
12.0529871623
 21
11.6337071697
  0
LINE
  5
283
100
AcDbEntity
  8
0
100
AcDbLine
 62
9
  6
CONTINUOUS
 10
12.025893266
 20
11.2981985098
 11
12.0258908627
 21
11.2982018141
  0
LWPOLYLINE
  5
284
100
AcDbEntity
  8
0
100
AcDbPolyline
 62
7
  6
CONTINUOUS
 90
10
 70
0
 10
11.1562618096
 20
4.6750577617
 10
11.1552674043
 20
4.6738115119
 10
11.1535569451
 20
4.6718193608
 10
11.1516778676
 20
4.6698258117
 10
11.1496486361
 20
4.6678790301
 10
11.1474881282
 20
4.6660184905
 10
11.1452139858
 20
4.6642721038
 10
11.1428459115
 20
4.6626652462
 10
11.1403944119
 20
4.6612105808
 10
11.1378659564
 20
4.6599143241
  0
LINE
  5
285
100
AcDbEntity
  8
0
100
AcDbLine
 62
7
  6
CONTINUOUS
 10
11.1378659564
 20
4.6599143241
 11
11.1352043236
 21
4.6587565145
  0
LINE
  5
286
100
AcDbEntity
  8
0
100
AcDbLine
 62
7
  6
CONTINUOUS
 10
11.1352638829
 20
4.6587801908
 11
11.1332249184
 21
4.6580226525
  0
LINE
  5
287
100
AcDbEntity
  8
0
100
AcDbLine
 62
7
  6
CONTINUOUS
 10
11.133223634
 20
4.6580222018
 11
11.1332201312
 21
4.658020995
  0
LINE
  5
288
100
AcDbEntity
  8
0
100
AcDbLine
 62
9
  6
CONTINUOUS
 10
12.7190258243
 20
4.7932379187
 11
12.7121407557
 21
4.7896708032
  0
LINE
  5
289
100
AcDbEntity
  8
0
100
AcDbLine
 62
9
  6
CONTINUOUS
 10
12.769060838
 20
4.6968755192
 11
12.7622264505
 21
4.6933343075
  0
ARC
  5
28A
100
AcDbEntity
  8
0
100
AcDbCircle
 62
9
  6
CONTINUOUS
 10
8.9168997725
 20
5.4036649092
 40
2.4456354854
100
AcDbArc
 50
345.4599240873
 51
346.0727653103
  0
ARC
  5
28B
100
AcDbEntity
  8
0
100
AcDbCircle
 62
7
  6
CONTINUOUS
 10
10.0506915656
 20
4.9877369129
 40
0.9
100
AcDbArc
 50
64.9871628475
 51
92.5520837091
  0
ARC
  5
28C
100
AcDbEntity
  8
0
100
AcDbCircle
 62
7
  6
CONTINUOUS
 10
10.0506915656
 20
7.7948524119
 40
0.9
100
AcDbArc
 50
267.4479162909
 51
295.0128371525
  0
ARC
  5
28D
100
AcDbEntity
  8
0
100
AcDbCircle
 62
9
  6
CONTINUOUS
 10
10.2155918881
 20
5.0656892874
 40
0.5977008687
100
AcDbArc
 50
332.4966999931
 51
335.2046437994
  0
ARC
  5
28E
100
AcDbEntity
  8
0
100
AcDbCircle
 62
7
  6
CONTINUOUS
 10
11.3769141467
 20
7.3026016576
 40
0.572
100
AcDbArc
 50
104.659117346
 51
116.3266895349
  0
ARC
  5
28F
100
AcDbEntity
  8
0
100
AcDbCircle
 62
7
  6
CONTINUOUS
 10
9.5379423427
 20
8.9812946624
 40
0.362
100
AcDbArc
 50
329.0735148774
 51
360.0
  0
ARC
  5
290
100
AcDbEntity
  8
0
100
AcDbCircle
 62
7
  6
CONTINUOUS
 10
9.4869423427
 20
8.9812946624
 40
0.362
100
AcDbArc
 50
180.0
 51
210.9264851226
  0
ARC
  5
291
100
AcDbEntity
  8
0
100
AcDbCircle
 62
7
  6
CONTINUOUS
 10
10.1023927905
 20
8.6431235638
 40
0.296
100
AcDbArc
 50
149.0735148774
 51
178.5
  0
ARC
  5
292
100
AcDbEntity
  8
0
100
AcDbCircle
 62
7
  6
CONTINUOUS
 10
8.9224918949
 20
8.6431235638
 40
0.296
100
AcDbArc
 50
1.5
 51
30.9264851226
  0
ARC
  5
293
100
AcDbEntity
  8
0
100
AcDbCircle
 62
7
  6
CONTINUOUS
 10
10.8318125717
 20
7.8150041007
 40
0.249
100
AcDbArc
 50
287.32010763
 51
348.0142490041
  0
ARC
  5
294
100
AcDbEntity
  8
0
100
AcDbCircle
 62
9
  6
CONTINUOUS
 10
10.6434515997
 20
4.8416363858
 40
0.1765538229
100
AcDbArc
 50
332.7103237683
 51
0.6320371984
  0
ARC
  5
295
100
AcDbEntity
  8
0
100
AcDbCircle
 62
7
  6
CONTINUOUS
 10
11.2749278641
 20
7.6924834322
 40
0.169
100
AcDbArc
 50
92.7083260498
 51
104.659117346
  0
ARC
  5
296
100
AcDbEntity
  8
0
100
AcDbCircle
 62
7
  6
CONTINUOUS
 10
11.183996543
 20
7.6924834322
 40
0.137
100
AcDbArc
 50
116.3266895349
 51
130.0889620649
  0
ARC
  5
297
100
AcDbEntity
  8
0
100
AcDbCircle
 62
7
  6
CONTINUOUS
 10
10.9449423427
 20
7.4522346768
 40
0.131
100
AcDbArc
 50
107.32010763
 51
180.0
  0
ARC
  5
298
100
AcDbEntity
  8
0
100
AcDbCircle
 62
7
  6
CONTINUOUS
 10
9.7359423427
 20
7.1907946624
 40
0.0945
100
AcDbArc
 50
270.0
 51
360.0
  0
ARC
  5
299
100
AcDbEntity
  8
0
100
AcDbCircle
 62
7
  6
CONTINUOUS
 10
9.2889423427
 20
7.1907946624
 40
0.0945
100
AcDbArc
 50
180.0
 51
270.0
  0
ARC
  5
29A
100
AcDbEntity
  8
0
100
AcDbCircle
 62
7
  6
CONTINUOUS
 10
10.7464423427
 20
4.6357768621
 40
0.08
100
AcDbArc
 50
152.5785
 51
180.0
  0
ARC
  5
29B
100
AcDbEntity
  8
0
100
AcDbCircle
 62
7
  6
CONTINUOUS
 10
10.4629423427
 20
5.8712946624
 40
0.075
100
AcDbArc
 50
244.9871628475
 51
270.0
  0
ARC
  5
29C
100
AcDbEntity
  8
0
100
AcDbCircle
 62
7
  6
CONTINUOUS
 10
10.4629423427
 20
6.9112946624
 40
0.075
100
AcDbArc
 50
90.0
 51
115.0128371525
  0
ARC
  5
29D
100
AcDbEntity
  8
0
100
AcDbCircle
 62
7
  6
CONTINUOUS
 10
11.1350543474
 20
7.7506268884
 40
0.061
100
AcDbArc
 50
130.0889620649
 51
168.0142490041
  0
ARC
  5
29E
100
AcDbEntity
  8
0
100
AcDbCircle
 62
7
  6
CONTINUOUS
 10
10.8654487232
 20
4.9302946624
 40
0.05
100
AcDbArc
 50
90.0
 51
152.5785
  0
ARC
  5
29F
100
AcDbEntity
  8
0
100
AcDbCircle
 62
7
  6
CONTINUOUS
 10
9.1339423427
 20
5.9312946624
 40
0.05
100
AcDbArc
 50
180.0
 51
360.0
  0
ARC
  5
2A0
100
AcDbEntity
  8
0
100
AcDbCircle
 62
7
  6
CONTINUOUS
 10
9.1339423427
 20
6.8512946624
 40
0.05
100
AcDbArc
 50
0.0
 51
180.0
  0
ARC
  5
2A1
100
AcDbEntity
  8
0
100
AcDbCircle
 62
7
  6
CONTINUOUS
 10
9.9193412624
 20
6.8912946624
 40
0.05
100
AcDbArc
 50
270.0
 51
332.9350657712
  0
ARC
  5
2A2
100
AcDbEntity
  8
0
100
AcDbCircle
 62
7
  6
CONTINUOUS
 10
9.9193412624
 20
5.8912946624
 40
0.05
100
AcDbArc
 50
27.0649342288
 51
90.0
  0
ARC
  5
2A3
100
AcDbEntity
  8
0
100
AcDbCircle
 62
7
  6
CONTINUOUS
 10
10.0083904062
 20
6.8457946624
 40
0.05
100
AcDbArc
 50
87.4479162909
 51
152.9350657712
  0
ARC
  5
2A4
100
AcDbEntity
  8
0
100
AcDbCircle
 62
7
  6
CONTINUOUS
 10
10.0083904062
 20
5.9367946624
 40
0.05
100
AcDbArc
 50
207.0649342288
 51
272.5520837091
  0
ARC
  5
2A5
100
AcDbEntity
  8
0
100
AcDbCircle
 62
9
  6
CONTINUOUS
 10
11.1694666056
 20
4.7931669539
 40
0.0213018658
100
AcDbArc
 50
342.0628997532
 51
345.4009074575
  0
ARC
  5
2A6
100
AcDbEntity
  8
0
100
AcDbCircle
 62
7
  6
CONTINUOUS
 10
10.8339423427
 20
7.3502946624
 40
0.02
100
AcDbArc
 50
180.0
 51
270.0
  0
ARC
  5
2A7
100
AcDbEntity
  8
0
100
AcDbCircle
 62
9
  6
CONTINUOUS
 10
10.8312213074
 20
4.9260515991
 40
0.0160865485
100
AcDbArc
 50
152.7480630792
 51
180.0086622561
  0
ARC
  5
2A8
100
AcDbEntity
  8
0
100
AcDbCircle
 62
7
  6
CONTINUOUS
 10
9.2431770556
 20
7.3222946624
 40
0.01
100
AcDbArc
 50
270.0
 51
1.5
  0
ARC
  5
2A9
100
AcDbEntity
  8
0
100
AcDbCircle
 62
7
  6
CONTINUOUS
 10
9.7817076299
 20
7.3222946624
 40
0.01
100
AcDbArc
 50
178.5
 51
270.0
  0
ARC
  5
2AA
100
AcDbEntity
  8
0
100
AcDbCircle
 62
7
  6
CONTINUOUS
 10
9.2044423427
 20
7.3022946624
 40
0.01
100
AcDbArc
 50
90.0
 51
180.0
  0
ARC
  5
2AB
100
AcDbEntity
  8
0
100
AcDbCircle
 62
7
  6
CONTINUOUS
 10
9.8204423427
 20
7.3022946624
 40
0.01
100
AcDbArc
 50
0.0
 51
90.0
  0
ARC
  5
2AC
100
AcDbEntity
  8
0
100
AcDbCircle
 62
7
  6
CONTINUOUS
 10
10.8233475326
 20
11.361766411
 40
0.6221674217
100
AcDbArc
 50
359.9980884661
 51
7.3309299163
  0
ARC
  5
2AD
100
AcDbEntity
  8
0
100
AcDbCircle
 62
7
  6
CONTINUOUS
 10
11.4790829088
 20
11.5740971174
 40
0.0965679475
100
AcDbArc
 50
169.5013185422
 51
179.9906966605
  0
ARC
  5
2AE
100
AcDbEntity
  8
0
100
AcDbCircle
 62
9
  6
CONTINUOUS
 10
11.4742495077
 20
11.5565106243
 40
0.0823020763
100
AcDbArc
 50
219.8411948652
 51
223.5728265963
  0
ARC
  5
2AF
100
AcDbEntity
  8
0
100
AcDbCircle
 62
7
  6
CONTINUOUS
 10
11.4909606427
 20
11.2460496631
 40
0.0770183172
100
AcDbArc
 50
168.8883762325
 51
179.9871520175
  0
ARC
  5
2B0
100
AcDbEntity
  8
0
100
AcDbCircle
 62
9
  6
CONTINUOUS
 10
11.4725409454
 20
11.5415207323
 40
0.0710634093
100
AcDbArc
 50
216.9299780216
 51
219.7305419869
  0
ARC
  5
2B1
100
AcDbEntity
  8
0
100
AcDbCircle
 62
9
  6
CONTINUOUS
 10
11.4685766056
 20
11.5384946094
 40
0.0660762325
100
AcDbArc
 50
215.650897672
 51
216.8978384956
  0
ARC
  5
2B2
100
AcDbEntity
  8
0
100
AcDbCircle
 62
9
  6
CONTINUOUS
 10
11.4261168457
 20
11.5839246846
 40
0.0426979676
100
AcDbArc
 50
167.5258181763
 51
169.5140536949
  0
ARC
  5
2B3
100
AcDbEntity
  8
0
100
AcDbCircle
 62
9
  6
CONTINUOUS
 10
14.4680301582
 20
5.3851446315
 40
2.3703672948
100
AcDbArc
 50
193.9171711591
 51
194.5494711981
  0
ARC
  5
2B4
100
AcDbEntity
  8
0
100
AcDbCircle
 62
9
  6
CONTINUOUS
 10
13.2484864466
 20
5.0687305604
 40
0.6046000083
100
AcDbArc
 50
204.8108477297
 51
207.4878843154
  0
ARC
  5
2B5
100
AcDbEntity
  8
0
100
AcDbCircle
 62
7
  6
CONTINUOUS
 10
12.0809705387
 20
7.3026016576
 40
0.572
100
AcDbArc
 50
63.6733104651
 51
75.340882654
  0
ARC
  5
2B6
100
AcDbEntity
  8
0
100
AcDbCircle
 62
7
  6
CONTINUOUS
 10
12.6260721137
 20
7.8150041007
 40
0.249
100
AcDbArc
 50
191.9857509959
 51
252.67989237
  0
ARC
  5
2B7
100
AcDbEntity
  8
0
100
AcDbCircle
 62
9
  6
CONTINUOUS
 10
12.8144330885
 20
4.8416363863
 40
0.1765538256
100
AcDbArc
 50
179.3679629737
 51
207.2896759635
  0
ARC
  5
2B8
100
AcDbEntity
  8
0
100
AcDbCircle
 62
7
  6
CONTINUOUS
 10
12.1829568213
 20
7.6924834322
 40
0.169
100
AcDbArc
 50
75.340882654
 51
87.2916739502
  0
ARC
  5
2B9
100
AcDbEntity
  8
0
100
AcDbCircle
 62
7
  6
CONTINUOUS
 10
12.2738881425
 20
7.6924834322
 40
0.137
100
AcDbArc
 50
49.9110379351
 51
63.6733104651
  0
ARC
  5
2BA
100
AcDbEntity
  8
0
100
AcDbCircle
 62
7
  6
CONTINUOUS
 10
12.5129423427
 20
7.4522346768
 40
0.131
100
AcDbArc
 50
0.0
 51
72.67989237
  0
ARC
  5
2BB
100
AcDbEntity
  8
0
100
AcDbCircle
 62
7
  6
CONTINUOUS
 10
12.7114423427
 20
4.6357768621
 40
0.08
100
AcDbArc
 50
0.0
 51
27.4215
  0
ARC
  5
2BC
100
AcDbEntity
  8
0
100
AcDbCircle
 62
7
  6
CONTINUOUS
 10
12.322830338
 20
7.7506268884
 40
0.061
100
AcDbArc
 50
11.9857509959
 51
49.9110379351
  0
ARC
  5
2BD
100
AcDbEntity
  8
0
100
AcDbCircle
 62
7
  6
CONTINUOUS
 10
12.3438080916
 20
4.7070952484
 40
0.0529703349
100
AcDbArc
 50
227.518380478
 51
227.9866207799
  0
ARC
  5
2BE
100
AcDbEntity
  8
0
100
AcDbCircle
 62
7
  6
CONTINUOUS
 10
12.3429562985
 20
4.706137033
 40
0.0516882839
100
AcDbArc
 50
227.9772375101
 51
230.3266865816
  0
ARC
  5
2BF
100
AcDbEntity
  8
0
100
AcDbCircle
 62
7
  6
CONTINUOUS
 10
12.3421914131
 20
4.7052102917
 40
0.050486664
100
AcDbArc
 50
230.3233836566
 51
232.3549540012
  0
ARC
  5
2C0
100
AcDbEntity
  8
0
100
AcDbCircle
 62
7
  6
CONTINUOUS
 10
12.5924359623
 20
4.9302946624
 40
0.05
100
AcDbArc
 50
27.4215
 51
90.0
  0
ARC
  5
2C1
100
AcDbEntity
  8
0
100
AcDbCircle
 62
7
  6
CONTINUOUS
 10
12.3414458503
 20
4.7042382018
 40
0.049261588
100
AcDbArc
 50
232.3510257661
 51
234.2585759638
  0
ARC
  5
2C2
100
AcDbEntity
  8
0
100
AcDbCircle
 62
7
  6
CONTINUOUS
 10
12.3405855385
 20
4.703016653
 40
0.0477675741
100
AcDbArc
 50
234.2402730299
 51
238.5623374651
  0
ARC
  5
2C3
100
AcDbEntity
  8
0
100
AcDbCircle
 62
7
  6
CONTINUOUS
 10
12.3400462456
 20
4.7021418963
 40
0.0467399454
100
AcDbArc
 50
238.5670958241
 51
239.9542484639
  0
ARC
  5
2C4
100
AcDbEntity
  8
0
100
AcDbCircle
 62
7
  6
CONTINUOUS
 10
12.339645209
 20
4.7014273724
 40
0.0459206407
100
AcDbArc
 50
239.9410123778
 51
245.1183963042
  0
ARC
  5
2C5
100
AcDbEntity
  8
0
100
AcDbCircle
 62
7
  6
CONTINUOUS
 10
12.3395481225
 20
4.7012366862
 40
0.0457068728
100
AcDbArc
 50
245.9450673374
 51
250.9929422773
  0
ARC
  5
2C6
100
AcDbEntity
  8
0
100
AcDbCircle
 62
7
  6
CONTINUOUS
 10
12.3395138343
 20
4.7011500599
 40
0.0456137934
100
AcDbArc
 50
245.1215399217
 51
245.9400435792
  0
ARC
  5
2C7
100
AcDbEntity
  8
0
100
AcDbCircle
 62
9
  6
CONTINUOUS
 10
12.2884181475
 20
4.7931669624
 40
0.0213019334
100
AcDbArc
 50
194.5990904881
 51
197.937072895
  0
ARC
  5
2C8
100
AcDbEntity
  8
0
100
AcDbCircle
 62
7
  6
CONTINUOUS
 10
12.6239423427
 20
7.3502946624
 40
0.02
100
AcDbArc
 50
270.0
 51
360.0
  0
ARC
  5
2C9
100
AcDbEntity
  8
0
100
AcDbCircle
 62
9
  6
CONTINUOUS
 10
12.6266633544
 20
4.9260516625
 40
0.0160865454
100
AcDbArc
 50
359.9911121764
 51
27.2516888201
  0
ARC
  5
2CA
100
AcDbEntity
  8
0
100
AcDbCircle
 62
7
  6
CONTINUOUS
 10
12.6345361758
 20
11.3617664623
 40
0.6221664446
100
AcDbArc
 50
172.6690650062
 51
180.0019162637
  0
ARC
  5
2CB
100
AcDbEntity
  8
0
100
AcDbCircle
 62
7
  6
CONTINUOUS
 10
11.7289423427
 20
13.7302946624
 40
0.25
100
AcDbArc
 50
0.0
 51
180.0
  0
ARC
  5
2CC
100
AcDbEntity
  8
0
100
AcDbCircle
 62
7
  6
CONTINUOUS
 10
11.978806467
 20
11.5740974169
 40
0.0965632572
100
AcDbArc
 50
0.0091260769
 51
10.4986742594
  0
ARC
  5
2CD
100
AcDbEntity
  8
0
100
AcDbCircle
 62
9
  6
CONTINUOUS
 10
11.9850695425
 20
11.5552320715
 40
0.0803816403
100
AcDbArc
 50
316.3759366412
 51
320.2074075258
  0
ARC
  5
2CE
100
AcDbEntity
  8
0
100
AcDbCircle
 62
7
  6
CONTINUOUS
 10
11.9669283189
 20
11.2460499546
 40
0.077014041
100
AcDbArc
 50
0.0126318045
 51
11.1116793707
  0
ARC
  5
2CF
100
AcDbEntity
  8
0
100
AcDbCircle
 62
9
  6
CONTINUOUS
 10
12.0318981091
 20
11.583951141
 40
0.0425650591
100
AcDbArc
 50
10.4828418795
 51
12.477286249
  0
SPLINE
  5
2D0
100
AcDbEntity
  8
0
100
AcDbSpline
 62
7
  6
CONTINUOUS
 70
0
 71
3
 72
35
 73
31
 74
0
 42
0.0000001
 43
0.0000001
 44
0.0000000001
 40
0.0
 40
0.0
 40
0.0
 40
0.0
 40
0.0083223652
 40
0.0159070907
 40
0.0230020517
 40
0.0297640497
 40
0.0363044317
 40
0.0426957076
 40
0.048992864
 40
0.0552380301
 40
0.0676771793
 40
0.0801654802
 40
0.1055487713
 40
0.1316662093
 40
0.1585482684
 40
0.1861540768
 40
0.2144329635
 40
0.2433174763
 40
0.2727554654
 40
0.3026954032
 40
0.3330950131
 40
0.3951164053
 40
0.4585648991
 40
0.5232362757
 40
0.588979516
 40
0.6556573136
 40
0.723169156
 40
0.791426079
 40
0.8603576047
 40
1.0
 40
1.0
 40
1.0
 40
1.0
 10
9.1249423427
 20
9.0572946624
 30
0.0
 10
9.1249423427
 20
9.0578835711
 30
0.0
 10
9.125006032
 20
9.0590106782
 30
0.0
 10
9.1252928139
 20
9.0606162573
 30
0.0
 10
9.1257179603
 20
9.0620755618
 30
0.0
 10
9.1262587501
 20
9.0634160545
 30
0.0
 10
9.1268922339
 20
9.0646591697
 30
0.0
 10
9.1276087167
 20
9.0658176055
 30
0.0
 10
9.1283981409
 20
9.0669015492
 30
0.0
 10
9.1295323417
 20
9.0682587403
 30
0.0
 10
9.1310891585
 20
9.0698278782
 30
0.0
 10
9.1338309977
 20
9.0721049833
 30
0.0
 10
9.137638005
 20
9.0745830031
 30
0.0
 10
9.1425867936
 20
9.0771018473
 30
0.0
 10
9.1478592456
 20
9.0792893234
 30
0.0
 10
9.1533929085
 20
9.0812154174
 30
0.0
 10
9.1591459174
 20
9.0829198491
 30
0.0
 10
9.165082598
 20
9.0844440469
 30
0.0
 10
9.1711780157
 20
9.0858094261
 30
0.0
 10
9.1774114013
 20
9.0870387603
 30
0.0
 10
9.1859419055
 20
9.0885254646
 30
0.0
 10
9.1968596187
 20
9.0901091897
 30
0.0
 10
9.2102270781
 20
9.0916517804
 30
0.0
 10
9.223888604
 20
9.0929085918
 30
0.0
 10
9.2377994541
 20
9.0939174792
 30
0.0
 10
9.2519250201
 20
9.0947172854
 30
0.0
 10
9.2662378116
 20
9.0953309237
 30
0.0
 10
9.2807161312
 20
9.0957818157
 30
0.0
 10
9.3003013044
 20
9.0961888778
 30
0.0
 10
9.3150609424
 20
9.0962946624
 30
0.0
 10
9.3249423427
 20
9.0962946624
 30
0.0
  0
SPLINE
  5
2D1
100
AcDbEntity
  8
0
100
AcDbSpline
 62
7
  6
CONTINUOUS
 70
0
 71
3
 72
35
 73
31
 74
0
 42
0.0000001
 43
0.0000001
 44
0.0000000001
 40
0.0
 40
0.0
 40
0.0
 40
0.0
 40
0.0083223652
 40
0.0159070907
 40
0.0230020517
 40
0.0297640497
 40
0.0363044317
 40
0.0426957076
 40
0.048992864
 40
0.0552380301
 40
0.0676771793
 40
0.0801654802
 40
0.1055487713
 40
0.1316662093
 40
0.1585482684
 40
0.1861540768
 40
0.2144329635
 40
0.2433174763
 40
0.2727554654
 40
0.3026954032
 40
0.3330950131
 40
0.3951164053
 40
0.4585648991
 40
0.5232362757
 40
0.588979516
 40
0.6556573136
 40
0.723169156
 40
0.791426079
 40
0.8603576047
 40
1.0
 40
1.0
 40
1.0
 40
1.0
 10
9.8999423427
 20
9.0572946624
 30
0.0
 10
9.8999423427
 20
9.0578835711
 30
0.0
 10
9.8998786535
 20
9.0590106782
 30
0.0
 10
9.8995918716
 20
9.0606162573
 30
0.0
 10
9.8991667251
 20
9.0620755618
 30
0.0
 10
9.8986259354
 20
9.0634160545
 30
0.0
 10
9.8979924516
 20
9.0646591697
 30
0.0
 10
9.8972759688
 20
9.0658176055
 30
0.0
 10
9.8964865446
 20
9.0669015492
 30
0.0
 10
9.8953523438
 20
9.0682587403
 30
0.0
 10
9.893795527
 20
9.0698278782
 30
0.0
 10
9.8910536878
 20
9.0721049833
 30
0.0
 10
9.8872466805
 20
9.0745830031
 30
0.0
 10
9.8822978918
 20
9.0771018473
 30
0.0
 10
9.8770254399
 20
9.0792893234
 30
0.0
 10
9.871491777
 20
9.0812154174
 30
0.0
 10
9.8657387681
 20
9.0829198491
 30
0.0
 10
9.8598020874
 20
9.0844440469
 30
0.0
 10
9.8537066698
 20
9.0858094261
 30
0.0
 10
9.8474732842
 20
9.0870387603
 30
0.0
 10
9.8389427799
 20
9.0885254646
 30
0.0
 10
9.8280250667
 20
9.0901091897
 30
0.0
 10
9.8146576074
 20
9.0916517804
 30
0.0
 10
9.8009960814
 20
9.0929085918
 30
0.0
 10
9.7870852313
 20
9.0939174792
 30
0.0
 10
9.7729596654
 20
9.0947172854
 30
0.0
 10
9.7586468739
 20
9.0953309237
 30
0.0
 10
9.7441685543
 20
9.0957818157
 30
0.0
 10
9.7245833811
 20
9.0961888778
 30
0.0
 10
9.7098237431
 20
9.0962946624
 30
0.0
 10
9.6999423427
 20
9.0962946624
 30
0.0
  0
SPLINE
  5
2D2
100
AcDbEntity
  8
0
100
AcDbSpline
 62
7
  6
CONTINUOUS
 70
0
 71
3
 72
16
 73
12
 74
0
 42
0.0000001
 43
0.0000001
 44
0.0000000001
 40
0.0
 40
0.0
 40
0.0
 40
0.0
 40
0.0833493698
 40
0.1826802815
 40
0.2959820599
 40
0.4211346905
 40
0.5560353949
 40
0.6265285599
 40
0.6987279257
 40
0.8472541571
 40
1.0
 40
1.0
 40
1.0
 40
1.0
 10
12.0399952099
 20
11.4960979524
 30
0.0
 10
12.0389275627
 20
11.494812874
 30
0.0
 10
12.0366838459
 20
11.4919153715
 30
0.0
 10
12.0333588424
 20
11.4869967902
 30
0.0
 10
12.0299496181
 20
11.4811406232
 30
0.0
 10
12.0266397139
 20
11.4744217847
 30
0.0
 10
12.024140457
 20
11.4682787421
 30
0.0
 10
12.0223231178
 20
11.4630184949
 30
0.0
 10
12.0206214122
 20
11.4574333717
 30
0.0
 10
12.0188406729
 20
11.4501547558
 30
0.0
 10
12.0178463271
 20
11.4441915935
 30
0.0
 10
12.0174554766
 20
11.4411548904
 30
0.0
  0
SPLINE
  5
2D3
100
AcDbEntity
  8
0
100
AcDbSpline
 62
7
  6
CONTINUOUS
 70
0
 71
3
 72
16
 73
12
 74
0
 42
0.0000001
 43
0.0000001
 44
0.0000000001
 40
0.0
 40
0.0
 40
0.0
 40
0.0
 40
0.1527527456
 40
0.301260447
 40
0.3734635442
 40
0.4439589651
 40
0.5788581075
 40
0.7040117284
 40
0.8173159414
 40
0.9166481238
 40
1.0
 40
1.0
 40
1.0
 40
1.0
 10
11.4404292089
 20
11.4411548904
 30
0.0
 10
11.4400383436
 20
11.4441917086
 30
0.0
 10
11.439044163
 20
11.4501546256
 30
0.0
 10
11.4372631926
 20
11.4574329591
 30
0.0
 10
11.4355618066
 20
11.4630178712
 30
0.0
 10
11.4337444144
 20
11.4682781532
 30
0.0
 10
11.431245253
 20
11.4744212149
 30
0.0
 10
11.4279354219
 20
11.4811400729
 30
0.0
 10
11.4245262023
 20
11.4869962942
 30
0.0
 10
11.4212011846
 20
11.491914965
 30
0.0
 10
11.4189574348
 20
11.4948125034
 30
0.0
 10
11.4178897769
 20
11.4960976225
 30
0.0
  0
SPLINE
  5
2D4
100
AcDbEntity
  8
0
100
AcDbSpline
 62
7
  6
CONTINUOUS
 70
0
 71
3
 72
17
 73
13
 74
0
 42
0.0000001
 43
0.0000001
 44
0.0000000001
 40
0.0
 40
0.0
 40
0.0
 40
0.0
 40
0.1225795362
 40
0.2452106382
 40
0.3684265707
 40
0.4926207803
 40
0.6179918835
 40
0.744513748
 40
0.8081805201
 40
0.8720057886
 40
0.9359176809
 40
1.0
 40
1.0
 40
1.0
 40
1.0
 10
12.016675601
 20
11.1848073814
 30
0.0
 10
12.0186532761
 20
11.1868058553
 30
0.0
 10
12.0224703683
 20
11.1909448156
 30
0.0
 10
12.0277045049
 20
11.1975907652
 30
0.0
 10
12.0323746267
 20
11.2046915661
 30
0.0
 10
12.0363964196
 20
11.2122522857
 30
0.0
 10
12.039672753
 20
11.2202482658
 30
0.0
 10
12.0416963417
 20
11.2272139896
 30
0.0
 10
12.0428512694
 20
11.232927258
 30
0.0
 10
12.0434787124
 20
11.2372749143
 30
0.0
 10
12.0438579129
 20
11.2416605735
 30
0.0
 10
12.043942358
 20
11.2445970808
 30
0.0
 10
12.043942358
 20
11.2460669336
 30
0.0
  0
SPLINE
  5
2D5
100
AcDbEntity
  8
0
100
AcDbSpline
 62
7
  6
CONTINUOUS
 70
0
 71
3
 72
15
 73
11
 74
0
 42
0.0000001
 43
0.0000001
 44
0.0000000001
 40
0.0
 40
0.0
 40
0.0
 40
0.0
 40
0.1450511669
 40
0.282752619
 40
0.4137257235
 40
0.5387410987
 40
0.658725195
 40
0.7747614437
 40
0.8880805418
 40
1.0
 40
1.0
 40
1.0
 40
1.0
 10
11.4412254692
 20
11.1847909769
 30
0.0
 10
11.4399357199
 20
11.1860942841
 30
0.0
 10
11.4375034268
 20
11.1887180669
 30
0.0
 10
11.4342398805
 20
11.1928113779
 30
0.0
 10
11.431465381
 20
11.1969504127
 30
0.0
 10
11.4291856828
 20
11.2011288389
 30
0.0
 10
11.427405776
 20
11.2053401307
 30
0.0
 10
11.4261303726
 20
11.2095775488
 30
0.0
 10
11.4253634521
 20
11.2138323155
 30
0.0
 10
11.4251923999
 20
11.2166824104
 30
0.0
 10
11.4251923999
 20
11.2180971851
 30
0.0
  0
SPLINE
  5
2D6
100
AcDbEntity
  8
0
100
AcDbSpline
 62
7
  6
CONTINUOUS
 70
0
 71
3
 72
17
 73
13
 74
0
 42
0.0000001
 43
0.0000001
 44
0.0000000001
 40
0.0
 40
0.0
 40
0.0
 40
0.0
 40
0.0640848395
 40
0.1279929354
 40
0.1918162074
 40
0.2554837841
 40
0.3820061392
 40
0.5073771657
 40
0.6315712889
 40
0.7547868237
 40
0.8774187788
 40
1.0
 40
1.0
 40
1.0
 40
1.0
 10
11.4139423275
 20
11.2460669336
 30
0.0
 10
11.4139423275
 20
11.2445970594
 30
0.0
 10
11.4140267508
 20
11.2416606536
 30
0.0
 10
11.4144059428
 20
11.2372751776
 30
0.0
 10
11.4150333711
 20
11.2329277459
 30
0.0
 10
11.4161881778
 20
11.2272146176
 30
0.0
 10
11.4182116632
 20
11.220249019
 30
0.0
 10
11.4214878605
 20
11.2122532084
 30
0.0
 10
11.4255094462
 20
11.2046926329
 30
0.0
 10
11.4301793564
 20
11.197591941
 30
0.0
 10
11.4354131971
 20
11.1909459521
 30
0.0
 10
11.4392303316
 20
11.1868071438
 30
0.0
 10
11.4412079175
 20
11.1848086251
 30
0.0
  0
SPLINE
  5
2D7
100
AcDbEntity
  8
0
100
AcDbSpline
 62
7
  6
CONTINUOUS
 70
0
 71
3
 72
17
 73
13
 74
0
 42
0.0000001
 43
0.0000001
 44
0.0000000001
 40
0.0
 40
0.0
 40
0.0
 40
0.0
 40
0.1208407632
 40
0.2426721455
 40
0.3657848832
 40
0.4903189137
 40
0.6162472085
 40
0.7433849091
 40
0.8073446404
 40
0.8714570647
 40
0.9356567107
 40
1.0
 40
1.0
 40
1.0
 40
1.0
 10
12.0468434702
 20
11.5036599541
 30
0.0
 10
12.048933394
 20
11.505991995
 30
0.0
 10
12.0529666411
 20
11.5108255094
 30
0.0
 10
12.0584714717
 20
11.5185540592
 30
0.0
 10
12.0633703767
 20
11.526794245
 30
0.0
 10
12.0675700846
 20
11.5355316717
 30
0.0
 10
12.0709719547
 20
11.5447220385
 30
0.0
 10
12.073060817
 20
11.552682976
 30
0.0
 10
12.0742497201
 20
11.5591911818
 30
0.0
 10
12.0748942014
 20
11.5641342215
 30
0.0
 10
12.0752831249
 20
11.5691136591
 30
0.0
 10
12.075369723
 20
11.5724453964
 30
0.0
 10
12.075369723
 20
11.5741127975
 30
0.0
  0
SPLINE
  5
2D8
100
AcDbEntity
  8
0
100
AcDbSpline
 62
7
  6
CONTINUOUS
 70
0
 71
3
 72
17
 73
13
 74
0
 42
0.0000001
 43
0.0000001
 44
0.0000000001
 40
0.0
 40
0.0
 40
0.0
 40
0.0
 40
0.0643459923
 40
0.128541858
 40
0.1926522212
 40
0.2566127548
 40
0.3837511081
 40
0.5096795126
 40
0.6342135178
 40
0.7573257373
 40
0.8791573775
 40
1.0
 40
1.0
 40
1.0
 40
1.0
 10
11.3825149625
 20
11.5741127975
 30
0.0
 10
11.3825149625
 20
11.5724451573
 30
0.0
 10
11.3826015602
 20
11.5691131094
 30
0.0
 10
11.3829905727
 20
11.5641332511
 30
0.0
 10
11.3836352038
 20
11.5591898534
 30
0.0
 10
11.3848242811
 20
11.5526810135
 30
0.0
 10
11.3869135585
 20
11.5447192746
 30
0.0
 10
11.3903161006
 20
11.5355280744
 30
0.0
 10
11.3945166091
 20
11.5267899504
 30
0.0
 10
11.3994164138
 20
11.518549181
 30
0.0
 10
11.4049221434
 20
11.5108200304
 30
0.0
 10
11.4089562205
 20
11.5059863088
 30
0.0
 10
11.4110464668
 20
11.5036540659
 30
0.0
  0
LINE
  5
2D9
100
AcDbEntity
  8
0
100
AcDbLine
 62
7
  6
CONTINUOUS
 10
12.043250528
 20
11.4997687987
 11
12.039995185
 21
11.4960979492
  0
LINE
  5
2DA
100
AcDbEntity
  8
0
100
AcDbLine
 62
7
  6
CONTINUOUS
 10
11.4178895005
 20
11.4960979492
 11
11.4146342734
 21
11.4997686431
  0
SPLINE
  5
2DB
100
AcDbEntity
  8
0
100
AcDbSpline
 62
7
  6
CONTINUOUS
 70
0
 71
3
 72
50
 73
46
 74
0
 42
0.0000001
 43
0.0000001
 44
0.0000000001
 40
0.0
 40
0.0
 40
0.0
 40
0.0
 40
0.0225847059
 40
0.0341762529
 40
0.0460123454
 40
0.0581237392
 40
0.0705353842
 40
0.0832673163
 40
0.0963355002
 40
0.1097511249
 40
0.1235218012
 40
0.1376511408
 40
0.1521399247
 40
0.1669856708
 40
0.1821835067
 40
0.2136024076
 40
0.2463158046
 40
0.2802134553
 40
0.3151629084
 40
0.3510138911
 40
0.3876020615
 40
0.4247522444
 40
0.4622813856
 40
0.5000012699
 40
0.5377211507
 40
0.5752502821
 40
0.6124004517
 40
0.6489886002
 40
0.6848395534
 40
0.7197889682
 40
0.7536865803
 40
0.7863999373
 40
0.817818795
 40
0.8478604273
 40
0.86234917
 40
0.8764784864
 40
0.8902491309
 40
0.903664725
 40
0.9167328765
 40
0.9294647475
 40
0.9418763864
 40
0.9539877742
 40
0.9658236625
 40
0.9774151297
 40
1.0
 40
1.0
 40
1.0
 40
1.0
 10
11.4413445459
 20
11.1846708583
 30
0.0
 10
11.4445596938
 20
11.181432886
 30
0.0
 10
11.4497322394
 20
11.1768300979
 30
0.0
 10
11.4571265333
 20
11.1711927227
 30
0.0
 10
11.4630359069
 20
11.1671089032
 30
0.0
 10
11.4692538002
 20
11.1631933812
 30
0.0
 10
11.4757773699
 20
11.1594347343
 30
0.0
 10
11.4826033045
 20
11.1558243186
 30
0.0
 10
11.4897283209
 20
11.1523553495
 30
0.0
 10
11.4971488139
 20
11.1490231367
 30
0.0
 10
11.5048602466
 20
11.1458242412
 30
0.0
 10
11.5128574533
 20
11.1427567778
 30
0.0
 10
11.5211341655
 20
11.1398195981
 30
0.0
 10
11.5296833793
 20
11.1370125383
 30
0.0
 10
11.5415664505
 20
11.1334039575
 30
0.0
 10
11.5570493889
 20
11.1292406736
 30
0.0
 10
11.5763634898
 20
11.1248337586
 30
0.0
 10
11.5965211412
 20
11.1209757247
 30
0.0
 10
11.6174200411
 20
11.1176810407
 30
0.0
 10
11.6389495729
 20
11.1149636918
 30
0.0
 10
11.6609919025
 20
11.1128361729
 30
0.0
 10
11.6834236428
 20
11.1113088006
 30
0.0
 10
11.7061172598
 20
11.1103892393
 30
0.0
 10
11.7289424926
 20
11.1100821931
 30
0.0
 10
11.7517677233
 20
11.1103892483
 30
0.0
 10
11.7744613347
 20
11.1113088175
 30
0.0
 10
11.796893065
 20
11.1128361952
 30
0.0
 10
11.8189353825
 20
11.1149637209
 30
0.0
 10
11.8404648896
 20
11.117681076
 30
0.0
 10
11.8613637869
 20
11.1209757651
 30
0.0
 10
11.8815213427
 20
11.1248338013
 30
0.0
 10
11.9008356692
 20
11.1292407194
 30
0.0
 10
11.9192147856
 20
11.1341830087
 30
0.0
 10
11.9338569844
 20
11.1387928614
 30
0.0
 10
11.9450273147
 20
11.1427567897
 30
0.0
 10
11.9530245184
 20
11.1458242762
 30
0.0
 10
11.9607359282
 20
11.1490231645
 30
0.0
 10
11.9681564083
 20
11.1523553639
 30
0.0
 10
11.9752813927
 20
11.1558243398
 30
0.0
 10
11.9821073238
 20
11.1594347197
 30
0.0
 10
11.9886308637
 20
11.1631933889
 30
0.0
 10
11.9948487282
 20
11.1671088738
 30
0.0
 10
12.0007580578
 20
11.1711926538
 30
0.0
 10
12.0081523491
 20
11.1768299929
 30
0.0
 10
12.0133248997
 20
11.1814328017
 30
0.0
 10
12.0165400752
 20
11.1846707935
 30
0.0
  0
SPLINE
  5
2DC
100
AcDbEntity
  8
0
100
AcDbSpline
 62
7
  6
CONTINUOUS
 70
0
 71
3
 72
57
 73
53
 74
0
 42
0.0000001
 43
0.0000001
 44
0.0000000001
 40
0.0
 40
0.0
 40
0.0
 40
0.0
 40
0.0088048995
 40
0.0180781543
 40
0.0278416732
 40
0.0381112716
 40
0.0488975645
 40
0.0602065549
 40
0.0720403099
 40
0.0843975079
 40
0.0972737469
 40
0.1106620204
 40
0.1245529882
 40
0.1389351551
 40
0.1537952062
 40
0.1691181119
 40
0.1848872769
 40
0.2010847674
 40
0.2176913355
 40
0.2346865755
 40
0.2697549979
 40
0.3061088381
 40
0.3435525894
 40
0.3818803895
 40
0.4208782263
 40
0.460326064
 40
0.4999998946
 40
0.5396737262
 40
0.5791215671
 40
0.6181194092
 40
0.6564472166
 40
0.693890977
 40
0.7302448284
 40
0.7653132637
 40
0.7823085107
 40
0.7989150863
 40
0.8151125846
 40
0.8308817578
 40
0.8462046721
 40
0.8610647319
 40
0.8754469079
 40
0.889337885
 40
0.9027261679
 40
0.9156024166
 40
0.9279596243
 40
0.9397933892
 40
0.9511023894
 40
0.961888692
 40
0.9721583
 40
0.9819218283
 40
0.991195092
 40
1.0
 40
1.0
 40
1.0
 40
1.0
 10
12.0529871485
 20
11.6337071683
 30
0.0
 10
12.0516824744
 20
11.6352301956
 30
0.0
 10
12.0488851766
 20
11.6382571462
 30
0.0
 10
12.0442797639
 20
11.6426219879
 30
0.0
 10
12.039167032
 20
11.6469189019
 30
0.0
 10
12.0335554652
 20
11.6511411196
 30
0.0
 10
12.0274538378
 20
11.6552822626
 30
0.0
 10
12.0208718632
 20
11.6593359217
 30
0.0
 10
12.0138199795
 20
11.6632957737
 30
0.0
 10
12.0063093806
 20
11.6671555218
 30
0.0
 10
11.9983520551
 20
11.6709090734
 30
0.0
 10
11.989960706
 20
11.6745504232
 30
0.0
 10
11.9811487512
 20
11.6780737085
 30
0.0
 10
11.9719303266
 20
11.6814733078
 30
0.0
 10
11.9623202162
 20
11.6847437208
 30
0.0
 10
11.9523338571
 20
11.6878796679
 30
0.0
 10
11.9419873104
 20
11.6908761207
 30
0.0
 10
11.931297222
 20
11.6937281955
 30
0.0
 10
11.9202807743
 20
11.6964313322
 30
0.0
 10
11.905021329
 20
11.699866853
 30
0.0
 10
11.8852551401
 20
11.7037444455
 30
0.0
 10
11.8607716039
 20
11.7076936971
 30
0.0
 10
11.8354391698
 20
11.7109605726
 30
0.0
 10
11.8094210344
 20
11.7135238091
 30
0.0
 10
11.7828845712
 20
11.7153667067
 30
0.0
 10
11.7560006683
 20
11.7164772754
 30
0.0
 10
11.7289424694
 20
11.7168482772
 30
0.0
 10
11.7018842696
 20
11.7164772824
 30
0.0
 10
11.6750003642
 20
11.7153667206
 30
0.0
 10
11.648463897
 20
11.7135238297
 30
0.0
 10
11.6224457559
 20
11.7109605999
 30
0.0
 10
11.5971133147
 20
11.7076937309
 30
0.0
 10
11.5726297698
 20
11.7037444855
 30
0.0
 10
11.5528635727
 20
11.6998668982
 30
0.0
 10
11.5376041201
 20
11.6964313813
 30
0.0
 10
11.5265876665
 20
11.6937282474
 30
0.0
 10
11.5158975718
 20
11.6908761754
 30
0.0
 10
11.5055510185
 20
11.6878797252
 30
0.0
 10
11.4955646525
 20
11.6847437807
 30
0.0
 10
11.485954535
 20
11.6814733702
 30
0.0
 10
11.4767361029
 20
11.6780737732
 30
0.0
 10
11.4679241403
 20
11.6745504902
 30
0.0
 10
11.4595327832
 20
11.6709091426
 30
0.0
 10
11.4515754495
 20
11.667155593
 30
0.0
 10
11.4440648422
 20
11.6632958469
 30
0.0
 10
11.4370129498
 20
11.6593359966
 30
0.0
 10
11.4304309663
 20
11.6552823392
 30
0.0
 10
11.4243293298
 20
11.6511411978
 30
0.0
 10
11.4187177538
 20
11.6469189816
 30
0.0
 10
11.4136050125
 20
11.6426220689
 30
0.0
 10
11.4089995902
 20
11.6382572284
 30
0.0
 10
11.4062022858
 20
11.6352302785
 30
0.0
 10
11.4048976083
 20
11.6337072515
 30
0.0
  0
SPLINE
  5
2DD
100
AcDbEntity
  8
0
100
AcDbSpline
 62
7
  6
CONTINUOUS
 70
0
 71
3
 72
54
 73
50
 74
0
 42
0.0000001
 43
0.0000001
 44
0.0000000001
 40
0.0
 40
0.0
 40
0.0
 40
0.0
 40
0.0120312156
 40
0.0180471109
 40
0.024079415
 40
0.0362134251
 40
0.0484686532
 40
0.060887679
 40
0.073511797
 40
0.0863743336
 40
0.0995032272
 40
0.1129217403
 40
0.1266478687
 40
0.1406948547
 40
0.1550712972
 40
0.1697821856
 40
0.1848284452
 40
0.2159139254
 40
0.2482788432
 40
0.2818338593
 40
0.3164589792
 40
0.3520097595
 40
0.3883225588
 40
0.4252191219
 40
0.4625106046
 40
0.5000012417
 40
0.5374918726
 40
0.5747833424
 40
0.6116798778
 40
0.6479926351
 40
0.6835433637
 40
0.7181684413
 40
0.7517233869
 40
0.7840882205
 40
0.815173605
 40
0.8302198455
 40
0.8449306727
 40
0.8593070733
 40
0.8733540153
 40
0.8870800606
 40
0.9004985675
 40
0.9136273654
 40
0.926489795
 40
0.9391138871
 40
0.9515330663
 40
0.9637877844
 40
0.9759211929
 40
0.9879703093
 40
1.0
 40
1.0
 40
1.0
 40
1.0
 10
12.0529723606
 20
11.633724458
 30
0.0
 10
12.0511729752
 20
11.6358249982
 30
0.0
 10
12.0483660506
 20
11.6388854879
 30
0.0
 10
12.0444359735
 20
11.6427847054
 30
0.0
 10
12.0403741191
 20
11.6465814789
 30
0.0
 10
12.035061336
 20
11.6511355062
 30
0.0
 10
12.0283543798
 20
11.6563006606
 30
0.0
 10
12.0213142773
 20
11.6612009282
 30
0.0
 10
12.0139481816
 20
11.6658616657
 30
0.0
 10
12.0062583003
 20
11.6703016338
 30
0.0
 10
11.9982472676
 20
11.674537442
 30
0.0
 10
11.9899167191
 20
11.6785814373
 30
0.0
 10
11.9812689192
 20
11.6824437063
 30
0.0
 10
11.9723068659
 20
11.6861315202
 30
0.0
 10
11.9630346158
 20
11.6896500328
 30
0.0
 10
11.9534575612
 20
11.6930029827
 30
0.0
 10
11.9401461852
 20
11.6973019585
 30
0.0
 10
11.9227852328
 20
11.702249094
 30
0.0
 10
11.9010993894
 20
11.7074731573
 30
0.0
 10
11.8784352294
 20
11.7120391467
 30
0.0
 10
11.8549041828
 20
11.7159346137
 30
0.0
 10
11.8306307279
 20
11.7191457008
 30
0.0
 10
11.8057505338
 20
11.7216590637
 30
0.0
 10
11.7804078753
 20
11.7234632011
 30
0.0
 10
11.754753413
 20
11.7245493318
 30
0.0
 10
11.7289420067
 20
11.7249119844
 30
0.0
 10
11.7031306037
 20
11.7245493103
 30
0.0
 10
11.6774761528
 20
11.7234631649
 30
0.0
 10
11.6521335145
 20
11.7216590105
 30
0.0
 10
11.6272533503
 20
11.7191456292
 30
0.0
 10
11.602979929
 20
11.7159345267
 30
0.0
 10
11.5794489225
 20
11.7120390492
 30
0.0
 10
11.5567848106
 20
11.7074730502
 30
0.0
 10
11.5350990279
 20
11.7022489815
 30
0.0
 10
11.5177381216
 20
11.6973018505
 30
0.0
 10
11.5044267905
 20
11.693002867
 30
0.0
 10
11.4948497651
 20
11.6896499197
 30
0.0
 10
11.4855775447
 20
11.6861314229
 30
0.0
 10
11.476615545
 20
11.6824435827
 30
0.0
 10
11.4679677499
 20
11.6785813759
 30
0.0
 10
11.4596372813
 20
11.6745373153
 30
0.0
 10
11.4516262503
 20
11.670301605
 30
0.0
 10
11.4439364529
 20
11.6658616014
 30
0.0
 10
11.4365703082
 20
11.6612009166
 30
0.0
 10
11.4295303874
 20
11.6563005893
 30
0.0
 10
11.4228234289
 20
11.6511356469
 30
0.0
 10
11.4164603983
 20
11.6456812279
 30
0.0
 10
11.4104565246
 20
11.639907617
 30
0.0
 10
11.4067115571
 20
11.6358248122
 30
0.0
 10
11.4049123963
 20
11.6337245412
 30
0.0
  0
SPLINE
  5
2DE
100
AcDbEntity
  8
0
100
AcDbSpline
 62
7
  6
CONTINUOUS
 70
0
 71
3
 72
14
 73
10
 74
0
 42
0.0000001
 43
0.0000001
 44
0.0000000001
 40
0.0
 40
0.0
 40
0.0
 40
0.0
 40
0.2484688087
 40
0.3727047022
 40
0.4971987021
 40
0.6221259186
 40
0.7475756187
 40
0.8734386339
 40
1.0
 40
1.0
 40
1.0
 40
1.0
 10
11.4048165144
 20
11.6336125886
 30
0.0
 10
11.4023533066
 20
11.6307298629
 30
0.0
 10
11.3988740331
 20
11.6262117214
 30
0.0
 10
11.3947796741
 20
11.6198197133
 30
0.0
 10
11.3920005996
 20
11.6148360274
 30
0.0
 10
11.3895403589
 20
11.6096668107
 30
0.0
 10
11.3874267192
 20
11.6043234212
 30
0.0
 10
11.3856850727
 20
11.5988212639
 30
0.0
 10
11.3847927076
 20
11.5950696257
 30
0.0
 10
11.3844159908
 20
11.5931753267
 30
0.0
  0
SPLINE
  5
2DF
100
AcDbEntity
  8
0
100
AcDbSpline
 62
7
  6
CONTINUOUS
 70
0
 71
3
 72
13
 73
9
 74
0
 42
0.0000001
 43
0.0000001
 44
0.0000000001
 40
0.0
 40
0.0
 40
0.0
 40
0.0
 40
0.1265861826
 40
0.2524477985
 40
0.3779139523
 40
0.5028596152
 40
0.7515005185
 40
1.0
 40
1.0
 40
1.0
 40
1.0
 10
12.0734686948
 20
11.5931753267
 30
0.0
 10
12.0730919319
 20
11.5950698571
 30
0.0
 10
12.0721996073
 20
11.598821589
 30
0.0
 10
12.0704577601
 20
11.6043238446
 30
0.0
 10
12.0683440133
 20
11.6096673981
 30
0.0
 10
12.0650694045
 20
11.6165480669
 30
0.0
 10
12.0601693826
 20
11.624707973
 30
0.0
 10
12.0555303074
 20
11.6307312207
 30
0.0
 10
12.0530669485
 20
11.6336140643
 30
0.0
  0
SPLINE
  5
2E0
100
AcDbEntity
  8
0
100
AcDbSpline
 62
7
  6
CONTINUOUS
 70
0
 71
3
 72
17
 73
13
 74
0
 42
0.0000001
 43
0.0000001
 44
0.0000000001
 40
0.0
 40
0.0
 40
0.0
 40
0.0
 40
0.0817361399
 40
0.1801973281
 40
0.2933599183
 40
0.4189866045
 40
0.4857574467
 40
0.5547805774
 40
0.6984187051
 40
0.7724142432
 40
0.8474418635
 40
1.0
 40
1.0
 40
1.0
 40
1.0
 10
11.4319917696
 20
11.2981990201
 30
0.0
 10
11.4326799241
 20
11.2991451709
 30
0.0
 10
11.4341230212
 20
11.3012855596
 30
0.0
 10
11.4362353186
 20
11.3049182655
 30
0.0
 10
11.4383675457
 20
11.3092535946
 30
0.0
 10
11.4400119297
 20
11.3133109634
 30
0.0
 10
11.4412259148
 20
11.316851222
 30
0.0
 10
11.4423809114
 20
11.3206813313
 30
0.0
 10
11.4433366764
 20
11.3246764526
 30
0.0
 10
11.4440791414
 20
11.3288000279
 30
0.0
 10
11.4446780562
 20
11.3330758133
 30
0.0
 10
11.4449404153
 20
11.3363271878
 30
0.0
 10
11.4450312864
 20
11.338508954
 30
0.0
  0
SPLINE
  5
2E1
100
AcDbEntity
  8
0
100
AcDbSpline
 62
7
  6
CONTINUOUS
 70
0
 71
3
 72
17
 73
13
 74
0
 42
0.0000001
 43
0.0000001
 44
0.0000000001
 40
0.0
 40
0.0
 40
0.0
 40
0.0
 40
0.1525744414
 40
0.2275874536
 40
0.3015688777
 40
0.4452074929
 40
0.5142334752
 40
0.5810039863
 40
0.7066265245
 40
0.8197923666
 40
0.9182590652
 40
1.0
 40
1.0
 40
1.0
 40
1.0
 10
12.0128533991
 20
11.338508954
 30
0.0
 10
12.0129442791
 20
11.3363269733
 30
0.0
 10
12.0132066574
 20
11.3330756053
 30
0.0
 10
12.0138054873
 20
11.3288000232
 30
0.0
 10
12.0145480278
 20
11.3246769091
 30
0.0
 10
12.0155036043
 20
11.3206819425
 30
0.0
 10
12.0166585623
 20
11.3168518104
 30
0.0
 10
12.0178725439
 20
11.3133116079
 30
0.0
 10
12.0195169908
 20
11.3092543278
 30
0.0
 10
12.0216490432
 20
11.3049188908
 30
0.0
 10
12.0237613176
 20
11.3012859813
 30
0.0
 10
12.025204525
 20
11.2991455171
 30
0.0
 10
12.0258926864
 20
11.2981992988
 30
0.0
  0
SPLINE
  5
2E2
100
AcDbEntity
  8
0
100
AcDbSpline
 62
7
  6
CONTINUOUS
 70
0
 71
3
 72
12
 73
8
 74
0
 42
0.0000001
 43
0.0000001
 44
0.0000000001
 40
0.0
 40
0.0
 40
0.0
 40
0.0
 40
0.2453048717
 40
0.4937013603
 40
0.74538195
 40
0.8723052862
 40
1.0
 40
1.0
 40
1.0
 40
1.0
 10
11.431994254
 20
11.2982024613
 30
0.0
 10
11.4300151677
 20
11.2954815492
 30
0.0
 10
11.4262866138
 20
11.2898138391
 30
0.0
 10
11.4215576966
 20
11.280729681
 30
0.0
 10
11.4184399316
 20
11.2726929491
 30
0.0
 10
11.4164985881
 20
11.2660222913
 30
0.0
 10
11.4157233596
 20
11.2626144725
 30
0.0
 10
11.4153865589
 20
11.2608957312
 30
0.0
  0
SPLINE
  5
2E3
100
AcDbEntity
  8
0
100
AcDbSpline
 62
7
  6
CONTINUOUS
 70
0
 71
3
 72
12
 73
8
 74
0
 42
0.0000001
 43
0.0000001
 44
0.0000000001
 40
0.0
 40
0.0
 40
0.0
 40
0.0
 40
0.1277123081
 40
0.2546106665
 40
0.506296504
 40
0.7546919334
 40
1.0
 40
1.0
 40
1.0
 40
1.0
 10
12.0424981266
 20
11.2608957312
 30
0.0
 10
12.0421612702
 20
11.2626147571
 30
0.0
 10
12.0413861216
 20
11.2660225924
 30
0.0
 10
12.0394445116
 20
11.2726933428
 30
0.0
 10
12.0363268899
 20
11.2807300731
 30
0.0
 10
12.0315976776
 20
11.2898145256
 30
0.0
 10
12.0278689309
 20
11.2954823633
 30
0.0
 10
12.0258897646
 20
11.2982033869
 30
0.0
  0
SPLINE
  5
2E4
100
AcDbEntity
  8
0
100
AcDbSpline
 62
7
  6
CONTINUOUS
 70
0
 71
3
 72
9
 73
5
 74
0
 42
0.0000001
 43
0.0000001
 44
0.0000000001
 40
0.0
 40
0.0
 40
0.0
 40
0.0
 40
0.2469387256
 40
1.0
 40
1.0
 40
1.0
 40
1.0
 10
12.3080343824
 20
4.6680299427
 30
0.0
 10
12.3074623173
 20
4.6685538011
 30
0.0
 10
12.3051922632
 20
4.6707256766
 30
0.0
 10
12.3031097337
 20
4.6730922752
 30
0.0
 10
12.3016562461
 20
4.674958567
 30
0.0
  0
SPLINE
  5
2E5
100
AcDbEntity
  8
0
100
AcDbSpline
 62
7
  6
CONTINUOUS
 70
0
 71
3
 72
11
 73
7
 74
0
 42
0.0000001
 43
0.0000001
 44
0.0000000001
 40
0.0
 40
0.0
 40
0.0
 40
0.0
 40
0.2419906922
 40
0.4881107567
 40
0.74003415
 40
1.0
 40
1.0
 40
1.0
 40
1.0
 10
12.3423241192
 20
4.6552946624
 30
0.0
 10
12.340876377
 20
4.6552946642
 30
0.0
 10
12.337955106
 20
4.6553796437
 30
0.0
 10
12.3335458277
 20
4.6558263853
 30
0.0
 10
12.3290830377
 20
4.6566638626
 30
0.0
 10
12.3261347935
 20
4.6575145171
 30
0.0
 10
12.3246643125
 20
4.658021059
 30
0.0
  0
SPLINE
  5
2E6
100
AcDbEntity
  8
0
100
AcDbSpline
 62
7
  6
CONTINUOUS
 70
0
 71
3
 72
41
 73
37
 74
0
 42
0.0000001
 43
0.0000001
 44
0.0000000001
 40
0.0
 40
0.0
 40
0.0
 40
0.0
 40
0.0110981198
 40
0.0431377589
 40
0.0930387
 40
0.1235594912
 40
0.1572239854
 40
0.1936542725
 40
0.2325144964
 40
0.2735035522
 40
0.3163405367
 40
0.338366997
 40
0.3607485007
 40
0.3834450696
 40
0.4064134165
 40
0.4296063282
 40
0.4529723941
 40
0.4764563309
 40
0.5000000018
 40
0.5235436723
 40
0.5470276088
 40
0.5703936749
 40
0.5935865853
 40
0.6165549327
 40
0.639251502
 40
0.6616330052
 40
0.683659466
 40
0.7264964497
 40
0.7674855053
 40
0.8063457281
 40
0.8427760151
 40
0.8764405089
 40
0.9069613
 40
0.9568622412
 40
0.9889018803
 40
1.0
 40
1.0
 40
1.0
 40
1.0
 10
10.9239423427
 20
6.8912946624
 30
0.0
 10
10.9260364891
 20
6.8879230657
 30
0.0
 10
10.9341399113
 20
6.8747952159
 30
0.0
 10
10.9512997545
 20
6.8462863765
 30
0.0
 10
10.9712316446
 20
6.8113446781
 30
0.0
 10
10.9904888551
 20
6.7753713532
 30
0.0
 10
11.0067175459
 20
6.7432510233
 30
0.0
 10
11.0232854693
 20
6.7079761454
 30
0.0
 10
11.0396554795
 20
6.669737729
 30
0.0
 10
11.0552463236
 20
6.6287097623
 30
0.0
 10
11.066951762
 20
6.5926880342
 30
0.0
 10
11.0753255185
 20
6.5626271394
 30
0.0
 10
11.0810532533
 20
6.5393178072
 30
0.0
 10
11.0860837512
 20
6.5155032884
 30
0.0
 10
11.0903346546
 20
6.4912420335
 30
0.0
 10
11.0937304304
 20
6.4666041298
 30
0.0
 10
11.0962064122
 20
6.4416710912
 30
0.0
 10
11.0977129731
 20
6.4165347443
 30
0.0
 10
11.0982187339
 20
6.3912946607
 30
0.0
 10
11.0977129731
 20
6.3660545771
 30
0.0
 10
11.0962064119
 20
6.3409182304
 30
0.0
 10
11.0937304301
 20
6.3159851923
 30
0.0
 10
11.0903346543
 20
6.2913472888
 30
0.0
 10
11.0860837506
 20
6.2670860342
 30
0.0
 10
11.0810532529
 20
6.2432715151
 30
0.0
 10
11.0753255178
 20
6.2199621829
 30
0.0
 10
11.0669517613
 20
6.1899012884
 30
0.0
 10
11.0552463228
 20
6.1538795604
 30
0.0
 10
11.0396554789
 20
6.1128515945
 30
0.0
 10
11.0232854689
 20
6.0746131785
 30
0.0
 10
11.0067175456
 20
6.0393383012
 30
0.0
 10
10.990488855
 20
6.0072179715
 30
0.0
 10
10.9712316445
 20
5.9712446468
 30
0.0
 10
10.9512997545
 20
5.9363029484
 30
0.0
 10
10.9341399112
 20
5.9077941089
 30
0.0
 10
10.9260364891
 20
5.8946662591
 30
0.0
 10
10.9239423427
 20
5.8912946624
 30
0.0
  0
SPLINE
  5
2E7
100
AcDbEntity
  8
0
100
AcDbSpline
 62
7
  6
CONTINUOUS
 70
0
 71
3
 72
15
 73
11
 74
0
 42
0.0000001
 43
0.0000001
 44
0.0000000001
 40
0.0
 40
0.0
 40
0.0
 40
0.0
 40
0.1119188589
 40
0.2252374283
 40
0.3412732846
 40
0.4612571793
 40
0.5862725837
 40
0.7172459761
 40
0.8549479905
 40
1.0
 40
1.0
 40
1.0
 40
1.0
 10
12.0326922856
 20
11.2180971851
 30
0.0
 10
12.0326922856
 20
11.2166823699
 30
0.0
 10
12.0325212235
 20
11.213832192
 30
0.0
 10
12.0317542587
 20
11.2095773029
 30
0.0
 10
12.0304787818
 20
11.205339764
 30
0.0
 10
12.0286987729
 20
11.2011283538
 30
0.0
 10
12.0264189445
 20
11.1969498122
 30
0.0
 10
12.0236442873
 20
11.1928106654
 30
0.0
 10
12.0203805565
 20
11.1887172462
 30
0.0
 10
12.0179481285
 20
11.1860933981
 30
0.0
 10
12.0166583077
 20
11.1847900588
 30
0.0
  0
SPLINE
  5
2E8
100
AcDbEntity
  8
0
100
AcDbSpline
 62
7
  6
CONTINUOUS
 70
0
 71
3
 72
27
 73
23
 74
0
 42
0.0000001
 43
0.0000001
 44
0.0000000001
 40
0.0
 40
0.0
 40
0.0
 40
0.0
 40
0.0404405501
 40
0.0883643011
 40
0.1514299988
 40
0.2269022062
 40
0.2684596962
 40
0.312110456
 40
0.3574948086
 40
0.4042243311
 40
0.4518768607
 40
0.4999999969
 40
0.5481231422
 40
0.5957756643
 40
0.6425051911
 40
0.6878895409
 40
0.731540302
 40
0.7730977908
 40
0.8485700009
 40
0.9116356999
 40
0.9595594499
 40
1.0
 40
1.0
 40
1.0
 40
1.0
 10
9.6999423427
 20
6.8412946624
 30
0.0
 10
9.6951347284
 20
6.8392915324
 30
0.0
 10
9.6845800412
 20
6.8350327673
 30
0.0
 10
9.6663056452
 20
6.8282139182
 30
0.0
 10
9.6435144401
 20
6.8206267882
 30
0.0
 10
9.6211607866
 20
6.8143877613
 30
0.0
 10
9.6009907445
 20
6.8097465865
 30
0.0
 10
9.5844739654
 20
6.8065529282
 30
0.0
 10
9.5671876401
 20
6.8038947434
 30
0.0
 10
9.549293321
 20
6.8018949909
 30
0.0
 10
9.5309764063
 20
6.8006520503
 30
0.0
 10
9.5124423428
 20
6.8002303732
 30
0.0
 10
9.4939082802
 20
6.8006520502
 30
0.0
 10
9.4755913648
 20
6.8018949911
 30
0.0
 10
9.4576970464
 20
6.8038947432
 30
0.0
 10
9.4404107208
 20
6.8065529282
 30
0.0
 10
9.4238939419
 20
6.8097465862
 30
0.0
 10
9.4037238995
 20
6.8143877612
 30
0.0
 10
9.3813702456
 20
6.8206267881
 30
0.0
 10
9.3585790402
 20
6.8282139182
 30
0.0
 10
9.3403046442
 20
6.8350327673
 30
0.0
 10
9.3297499571
 20
6.8392915324
 30
0.0
 10
9.3249423427
 20
6.8412946624
 30
0.0
  0
SPLINE
  5
2E9
100
AcDbEntity
  8
0
100
AcDbSpline
 62
9
  6
CONTINUOUS
 70
0
 71
3
 72
12
 73
8
 74
0
 42
0.0000001
 43
0.0000001
 44
0.0000000001
 40
0.0
 40
0.0
 40
0.0
 40
0.0
 40
0.2415090251
 40
0.3647657908
 40
0.4894955127
 40
0.74277768
 40
1.0
 40
1.0
 40
1.0
 40
1.0
 10
11.1733670783
 20
4.6968755446
 30
0.0
 10
11.1728144496
 20
4.6947489653
 30
0.0
 10
11.1718080801
 20
4.6915783973
 30
0.0
 10
11.1701377814
 20
4.6874487044
 30
0.0
 10
11.1682125523
 20
4.6833124502
 30
0.0
 10
11.1653733213
 20
4.6782668737
 30
0.0
 10
11.1626931985
 20
4.6744625055
 30
0.0
 10
11.1612510827
 20
4.6726194942
 30
0.0
  0
SPLINE
  5
2EA
100
AcDbEntity
  8
0
100
AcDbSpline
 62
9
  6
CONTINUOUS
 70
0
 71
3
 72
57
 73
53
 74
0
 42
0.0000001
 43
0.0000001
 44
0.0000000001
 40
0.0
 40
0.0
 40
0.0
 40
0.0
 40
0.0084841183
 40
0.0174286513
 40
0.0268646368
 40
0.0368153513
 40
0.0472973748
 40
0.0583215567
 40
0.0698936932
 40
0.0820153131
 40
0.0946842478
 40
0.1078949999
 40
0.1216392644
 40
0.1359062119
 40
0.1506827014
 40
0.1659536339
 40
0.1817020733
 40
0.1979094064
 40
0.2145555863
 40
0.2316191733
 40
0.2669052613
 40
0.3035751882
 40
0.3414199398
 40
0.3802184978
 40
0.4197404742
 40
0.4597485486
 40
0.5000008059
 40
0.5402530549
 40
0.5802611044
 40
0.6197830397
 40
0.6585815408
 40
0.69642622
 40
0.73309606
 40
0.7683820474
 40
0.7854455793
 40
0.8020917011
 40
0.8182989733
 40
0.8340473491
 40
0.8493182156
 40
0.864094637
 40
0.8783615145
 40
0.8921057073
 40
0.9053163863
 40
0.9179852471
 40
0.9301067925
 40
0.9416788545
 40
0.9527029624
 40
0.9631849129
 40
0.9731355563
 40
0.9825714734
 40
0.9915159416
 40
1.0
 40
1.0
 40
1.0
 40
1.0
 10
12.0258908588
 20
11.2982018132
 30
0.0
 10
12.0248431274
 20
11.2996422253
 30
0.0
 10
12.0225623388
 20
11.3025093368
 30
0.0
 10
12.0187242087
 20
11.3066480319
 30
0.0
 10
12.0143895842
 20
11.3107270339
 30
0.0
 10
12.0095662838
 20
11.3147395688
 30
0.0
 10
12.0042623949
 20
11.3186794036
 30
0.0
 10
11.9984868602
 20
11.3225400712
 30
0.0
 10
11.9922494317
 20
11.3263152632
 30
0.0
 10
11.9855606397
 20
11.3299986835
 30
0.0
 10
11.9784317895
 20
11.3335841035
 30
0.0
 10
11.9708749975
 20
11.3370654919
 30
0.0
 10
11.9629031091
 20
11.3404369087
 30
0.0
 10
11.9545297028
 20
11.343692575
 30
0.0
 10
11.945769084
 20
11.3468269524
 30
0.0
 10
11.936636219
 20
11.3498346381
 30
0.0
 10
11.9271467314
 20
11.3527104608
 30
0.0
 10
11.9173168866
 20
11.355449495
 30
0.0
 10
11.9071634944
 20
11.3580470335
 30
0.0
 10
11.8930598497
 20
11.3613525892
 30
0.0
 10
11.8747427549
 20
11.3650851507
 30
0.0
 10
11.8520025301
 20
11.3688873975
 30
0.0
 10
11.8284184999
 20
11.3720349432
 30
0.0
 10
11.8041524407
 20
11.3745059872
 30
0.0
 10
11.779370562
 20
11.3762833709
 30
0.0
 10
11.7542427984
 20
11.3773547435
 30
0.0
 10
11.7289414837
 20
11.3777126762
 30
0.0
 10
11.7036401749
 20
11.377354695
 30
0.0
 10
11.678512429
 20
11.3762832742
 30
0.0
 10
11.6537305795
 20
11.374505843
 30
0.0
 10
11.629464561
 20
11.3720347524
 30
0.0
 10
11.6058805826
 20
11.3688871616
 30
0.0
 10
11.5831404204
 20
11.3650848712
 30
0.0
 10
11.5648233848
 20
11.3613522741
 30
0.0
 10
11.5507197926
 20
11.3580466909
 30
0.0
 10
11.5405664431
 20
11.3554491329
 30
0.0
 10
11.5307366434
 20
11.3527100799
 30
0.0
 10
11.5212472031
 20
11.3498342389
 30
0.0
 10
11.5121143875
 20
11.3468265357
 30
0.0
 10
11.5033538203
 20
11.3436921414
 30
0.0
 10
11.4949804675
 20
11.3404364591
 30
0.0
 10
11.4870086344
 20
11.3370650269
 30
0.0
 10
11.4794518996
 20
11.3335836241
 30
0.0
 10
11.4723231083
 20
11.3299981903
 30
0.0
 10
11.4656343768
 20
11.3263147572
 30
0.0
 10
11.4593970103
 20
11.3225395532
 30
0.0
 10
11.4536215389
 20
11.3186788744
 30
0.0
 10
11.4483177146
 20
11.3147390292
 30
0.0
 10
11.44349448
 20
11.3107264849
 30
0.0
 10
11.4391599223
 20
11.3066474744
 30
0.0
 10
11.43532186
 20
11.3025087715
 30
0.0
 10
11.4330411187
 20
11.2996416557
 30
0.0
 10
11.4319934112
 20
11.2982012419
 30
0.0
  0
SPLINE
  5
2EB
100
AcDbEntity
  8
0
100
AcDbSpline
 62
9
  6
CONTINUOUS
 70
0
 71
3
 72
63
 73
59
 74
0
 42
0.0000001
 43
0.0000001
 44
0.0000000001
 40
0.0
 40
0.0
 40
0.0
 40
0.0
 40
0.0075595317
 40
0.015399039
 40
0.0236147011
 40
0.0322869612
 40
0.0414806993
 40
0.0512461546
 40
0.0616206529
 40
0.0726304312
 40
0.084292312
 40
0.0966151285
 40
0.1096009762
 40
0.1232462353
 40
0.1375423765
 40
0.1524765839
 40
0.1680323272
 40
0.184189824
 40
0.2009264007
 40
0.2182167737
 40
0.2360333518
 40
0.2543464845
 40
0.2731246608
 40
0.2923346735
 40
0.3119418213
 40
0.3319100776
 40
0.3727784132
 40
0.4146319829
 40
0.4571491045
 40
0.5
 40
0.5428508955
 40
0.5853680171
 40
0.6272215868
 40
0.6680899224
 40
0.6880581787
 40
0.7076653265
 40
0.7268753392
 40
0.7456535155
 40
0.7639666482
 40
0.7817832263
 40
0.7990735993
 40
0.815810176
 40
0.8319676728
 40
0.8475234161
 40
0.8624576235
 40
0.8767537647
 40
0.8903990238
 40
0.9033848715
 40
0.915707688
 40
0.9273695688
 40
0.9383793471
 40
0.9487538454
 40
0.9585193007
 40
0.9677130388
 40
0.9763852989
 40
0.984600961
 40
0.9924404683
 40
1.0
 40
1.0
 40
1.0
 40
1.0
 10
12.0424981292
 20
11.2608957313
 30
0.0
 10
12.0421645633
 20
11.2625980001
 30
0.0
 10
12.0412494963
 20
11.2660232057
 30
0.0
 10
12.0392005641
 20
11.2710530033
 30
0.0
 10
12.0364643052
 20
11.2760368935
 30
0.0
 10
12.0330496926
 20
11.2809636279
 30
0.0
 10
12.0289659497
 20
11.2858243098
 30
0.0
 10
12.0242229361
 20
11.2906097714
 30
0.0
 10
12.0188313396
 20
11.295310909
 30
0.0
 10
12.0128029156
 20
11.2999184387
 30
0.0
 10
12.0061506465
 20
11.304422981
 30
0.0
 10
11.9988888605
 20
11.3088151638
 30
0.0
 10
11.9910332307
 20
11.3130856765
 30
0.0
 10
11.9826007608
 20
11.3172253375
 30
0.0
 10
11.9736097663
 20
11.3212251517
 30
0.0
 10
11.964079855
 20
11.3250763946
 30
0.0
 10
11.9540318626
 20
11.328770622
 30
0.0
 10
11.9434877935
 20
11.3322997009
 30
0.0
 10
11.9324707754
 20
11.3356558354
 30
0.0
 10
11.9210050158
 20
11.3388316225
 30
0.0
 10
11.9091157323
 20
11.3418200448
 30
0.0
 10
11.8968290878
 20
11.3446144867
 30
0.0
 10
11.8841721322
 20
11.3472087534
 30
0.0
 10
11.8711727653
 20
11.3495971012
 30
0.0
 10
11.8578595985
 20
11.3517742804
 30
0.0
 10
11.8395887645
 20
11.3544093315
 30
0.0
 10
11.8161772779
 20
11.3571309717
 30
0.0
 10
11.7875292494
 20
11.3594671865
 30
0.0
 10
11.7583652789
 20
11.3608772744
 30
0.0
 10
11.7289423428
 20
11.3613487308
 30
0.0
 10
11.6995194066
 20
11.3608772744
 30
0.0
 10
11.6703554362
 20
11.3594671865
 30
0.0
 10
11.6417074076
 20
11.3571309717
 30
0.0
 10
11.6182959211
 20
11.3544093315
 30
0.0
 10
11.600025087
 20
11.3517742804
 30
0.0
 10
11.5867119203
 20
11.3495971012
 30
0.0
 10
11.5737125534
 20
11.3472087534
 30
0.0
 10
11.5610555977
 20
11.3446144867
 30
0.0
 10
11.5487689532
 20
11.3418200448
 30
0.0
 10
11.5368796697
 20
11.3388316225
 30
0.0
 10
11.5254139101
 20
11.3356558354
 30
0.0
 10
11.514396892
 20
11.3322997009
 30
0.0
 10
11.503852823
 20
11.328770622
 30
0.0
 10
11.4938048305
 20
11.3250763946
 30
0.0
 10
11.4842749192
 20
11.3212251517
 30
0.0
 10
11.4752839247
 20
11.3172253375
 30
0.0
 10
11.4668514548
 20
11.3130856765
 30
0.0
 10
11.458995825
 20
11.3088151638
 30
0.0
 10
11.451734039
 20
11.304422981
 30
0.0
 10
11.4450817699
 20
11.2999184387
 30
0.0
 10
11.4390533459
 20
11.295310909
 30
0.0
 10
11.4336617494
 20
11.2906097714
 30
0.0
 10
11.4289187358
 20
11.2858243098
 30
0.0
 10
11.4248349929
 20
11.2809636279
 30
0.0
 10
11.4214203803
 20
11.2760368935
 30
0.0
 10
11.4186841214
 20
11.2710530033
 30
0.0
 10
11.4166351892
 20
11.2660232057
 30
0.0
 10
11.4157201222
 20
11.2625980001
 30
0.0
 10
11.4153865563
 20
11.2608957313
 30
0.0
  0
LINE
  5
2EC
100
AcDbEntity
  8
0
100
AcDbLine
 62
9
  6
CONTINUOUS
 10
11.1984187363
 20
4.7932773779
 11
11.1733670783
 21
4.6968755446
  0
SPLINE
  5
2ED
100
AcDbEntity
  8
0
100
AcDbSpline
 62
9
  6
CONTINUOUS
 70
0
 71
3
 72
10
 73
6
 74
0
 42
0.0000001
 43
0.0000001
 44
0.0000000001
 40
0.0
 40
0.0
 40
0.0
 40
0.0
 40
0.2487157568
 40
0.4983624236
 40
1.0
 40
1.0
 40
1.0
 40
1.0
 10
11.2044645092
 20
4.8188124713
 30
0.0
 10
11.2040172662
 20
4.8166832489
 30
0.0
 10
11.2030872999
 20
4.8124238855
 30
0.0
 10
11.2011125166
 20
4.8039018841
 30
0.0
 10
11.1995225045
 20
4.7975244603
 30
0.0
 10
11.1984187363
 20
4.7932773779
 30
0.0
  0
SPLINE
  5
2EE
100
AcDbEntity
  8
0
100
AcDbSpline
 62
9
  6
CONTINUOUS
 70
0
 71
3
 72
41
 73
37
 74
0
 42
0.0000001
 43
0.0000001
 44
0.0000000001
 40
0.0
 40
0.0
 40
0.0
 40
0.0
 40
0.058677039
 40
0.087392092
 40
0.1157082715
 40
0.1436583561
 40
0.1712997199
 40
0.1987124984
 40
0.2260029425
 40
0.2533143662
 40
0.2808364249
 40
0.3088159339
 40
0.323087203
 40
0.3376035564
 40
0.3524214764
 40
0.3676001822
 40
0.3753411599
 40
0.3831827536
 40
0.3991226866
 40
0.415314563
 40
0.4316581406
 40
0.4480967959
 40
0.4646000716
 40
0.4811498472
 40
0.4977351471
 40
0.5309843809
 40
0.5643095962
 40
0.5976896789
 40
0.631111013
 40
0.6645648205
 40
0.6980445203
 40
0.7315454428
 40
0.7985971935
 40
0.8656989678
 40
0.9328366833
 40
1.0
 40
1.0
 40
1.0
 40
1.0
 10
11.1808351151
 20
4.9334176935
 30
0.0
 10
11.1836062742
 20
4.9334175049
 30
0.0
 10
11.1877423383
 20
4.9331696166
 30
0.0
 10
11.1931336916
 20
4.932253759
 30
0.0
 10
11.197030641
 20
4.9312743608
 30
0.0
 10
11.2007814091
 20
4.9299793913
 30
0.0
 10
11.2043567586
 20
4.9283569283
 30
0.0
 10
11.2077231717
 20
4.9263953409
 30
0.0
 10
11.2108391159
 20
4.9240797903
 30
0.0
 10
11.2136537885
 20
4.9213959121
 30
0.0
 10
11.2161076695
 20
4.9183348269
 30
0.0
 10
11.217779634
 20
4.9154787563
 30
0.0
 10
11.2188476894
 20
4.9130168644
 30
0.0
 10
11.2195046008
 20
4.9110621912
 30
0.0
 10
11.2199928043
 20
4.9090144219
 30
0.0
 10
11.2202400706
 20
4.9072463928
 30
0.0
 10
11.2203380395
 20
4.9057964836
 30
0.0
 10
11.2203703294
 20
4.9043076369
 30
0.0
 10
11.2202985115
 20
4.9024196141
 30
0.0
 10
11.2200936518
 20
4.9001389764
 30
0.0
 10
11.2198200989
 20
4.8978420928
 30
0.0
 10
11.2195020893
 20
4.8955362124
 30
0.0
 10
11.2191534593
 20
4.8932249541
 30
0.0
 10
11.2187826663
 20
4.890910153
 30
0.0
 10
11.2182649328
 20
4.8878180248
 30
0.0
 10
11.217584349
 20
4.8839499692
 30
0.0
 10
11.2167323397
 20
4.8793068843
 30
0.0
 10
11.2158537672
 20
4.874660488
 30
0.0
 10
11.214955347
 20
4.8700117115
 30
0.0
 10
11.2140410789
 20
4.8653612341
 30
0.0
 10
11.2131142965
 20
4.8607094042
 30
0.0
 10
11.2118644897
 20
4.8545040198
 30
0.0
 10
11.2102811806
 20
4.8467460565
 30
0.0
 10
11.2083579735
 20
4.8374361756
 30
0.0
 10
11.2064177121
 20
4.8281244541
 30
0.0
 10
11.2051165339
 20
4.8219166762
 30
0.0
 10
11.2044645092
 20
4.8188124713
 30
0.0
  0
SPLINE
  5
2EF
100
AcDbEntity
  8
0
100
AcDbSpline
 62
9
  6
CONTINUOUS
 70
0
 71
3
 72
35
 73
31
 74
0
 42
0.0000001
 43
0.0000001
 44
0.0000000001
 40
0.0
 40
0.0
 40
0.0
 40
0.0
 40
0.1588471253
 40
0.317659159
 40
0.3970403282
 40
0.4763915318
 40
0.5556888768
 40
0.595300541
 40
0.6348654633
 40
0.6743376686
 40
0.6940007788
 40
0.7135595011
 40
0.751828987
 40
0.7877997744
 40
0.8208175449
 40
0.8507633266
 40
0.8776555939
 40
0.901552982
 40
0.9225385252
 40
0.9407289429
 40
0.9562572353
 40
0.9630616226
 40
0.9692508777
 40
0.9748463752
 40
0.9798718435
 40
0.9843542362
 40
0.9883256576
 40
0.9918247423
 40
0.9948984687
 40
1.0
 40
1.0
 40
1.0
 40
1.0
 10
10.7522036784
 20
4.8188800778
 30
0.0
 10
10.7554420652
 20
4.8250862026
 30
0.0
 10
10.7619191604
 20
4.8374965401
 30
0.0
 10
10.7700187502
 20
4.8530061094
 30
0.0
 10
10.7765006281
 20
4.865408244
 30
0.0
 10
10.7813622504
 20
4.8747033386
 30
0.0
 10
10.7854150985
 20
4.8824435997
 30
0.0
 10
10.7886583205
 20
4.8886286352
 30
0.0
 10
10.7910892747
 20
4.8932578945
 30
0.0
 10
10.7931150555
 20
4.8971069683
 30
0.0
 10
10.7947346066
 20
4.9001735347
 30
0.0
 10
10.7963338374
 20
4.9031908849
 30
0.0
 10
10.798284473
 20
4.9068353681
 30
0.0
 10
10.8005582914
 20
4.9109793802
 30
0.0
 10
10.8026993946
 20
4.9147774854
 30
0.0
 10
10.8046891001
 20
4.9182013042
 30
0.0
 10
10.8065247205
 20
4.9212493504
 30
0.0
 10
10.8082083439
 20
4.9239273732
 30
0.0
 10
10.8097441819
 20
4.9262445355
 30
0.0
 10
10.8111375635
 20
4.9282123392
 30
0.0
 10
10.8122271387
 20
4.9296282142
 30
0.0
 10
10.8130356922
 20
4.9305908016
 30
0.0
 10
10.813582905
 20
4.9312006646
 30
0.0
 10
10.814098793
 20
4.9317326312
 30
0.0
 10
10.8145841404
 20
4.9321885022
 30
0.0
 10
10.8150398895
 20
4.9325701534
 30
0.0
 10
10.81546676
 20
4.932879478
 30
0.0
 10
10.8158664981
 20
4.9331185944
 30
0.0
 10
10.8163340328
 20
4.9333327276
 30
0.0
 10
10.8166941708
 20
4.9334175226
 30
0.0
 10
10.8169189898
 20
4.9334176935
 30
0.0
  0
SPLINE
  5
2F0
100
AcDbEntity
  8
0
100
AcDbSpline
 62
9
  6
CONTINUOUS
 70
0
 71
3
 72
37
 73
33
 74
0
 42
0.0000001
 43
0.0000001
 44
0.0000000001
 40
0.0
 40
0.0
 40
0.0
 40
0.0
 40
0.007510694
 40
0.0150554097
 40
0.0226676308
 40
0.0303797862
 40
0.0462177855
 40
0.0628030748
 40
0.0803248718
 40
0.098935641
 40
0.1187531728
 40
0.1398644479
 40
0.1623301209
 40
0.1861886639
 40
0.2114598488
 40
0.2381477566
 40
0.2662432894
 40
0.2957260948
 40
0.3265660206
 40
0.3587244772
 40
0.3921555296
 40
0.4268067126
 40
0.4626196833
 40
0.4995309574
 40
0.5374724677
 40
0.5763719892
 40
0.6161535627
 40
0.6567379795
 40
0.7399808149
 40
0.8254189702
 40
0.91233657
 40
1.0
 40
1.0
 40
1.0
 40
1.0
 10
11.9789423297
 20
12.2498399849
 30
0.0
 10
11.9789423297
 20
12.2505399012
 30
0.0
 10
11.9788918748
 20
12.2519434249
 30
0.0
 10
11.9786650028
 20
12.2540452782
 30
0.0
 10
11.9782870562
 20
12.256144494
 30
0.0
 10
11.9775762162
 20
12.2589621559
 30
0.0
 10
11.9762943996
 20
12.2624881171
 30
0.0
 10
11.9741711755
 20
12.2666416063
 30
0.0
 10
11.9714572345
 20
12.2707476369
 30
0.0
 10
11.9681611102
 20
12.2747972038
 30
0.0
 10
11.9642916707
 20
12.2787823958
 30
0.0
 10
11.959858537
 20
12.282695024
 30
0.0
 10
11.9548722616
 20
12.286526801
 30
0.0
 10
11.9493445351
 20
12.2902692867
 30
0.0
 10
11.9432883119
 20
12.2939140299
 30
0.0
 10
11.9367178281
 20
12.2974526332
 30
0.0
 10
11.9296485769
 20
12.3008768078
 30
0.0
 10
11.9220972913
 20
12.3041784373
 30
0.0
 10
11.9140819273
 20
12.3073496675
 30
0.0
 10
11.9056215962
 20
12.3103829123
 30
0.0
 10
11.896736505
 20
12.3132708806
 30
0.0
 10
11.8874479132
 20
12.3160066079
 30
0.0
 10
11.8777780879
 20
12.3185835135
 30
0.0
 10
11.86775023
 20
12.3209953803
 30
0.0
 10
11.8573884087
 20
12.3232363778
 30
0.0
 10
11.8467175261
 20
12.3253010772
 30
0.0
 10
11.8357631989
 20
12.3271845366
 30
0.0
 10
11.8206875986
 20
12.3294671792
 30
0.0
 10
11.8013244102
 20
12.3318254903
 30
0.0
 10
11.7775867112
 20
12.3338501046
 30
0.0
 10
11.7533820483
 20
12.335072805
 30
0.0
 10
11.7371116357
 20
12.3353450207
 30
0.0
 10
11.7289423427
 20
12.3353450207
 30
0.0
  0
LINE
  5
2F1
100
AcDbEntity
  8
0
100
AcDbLine
 62
9
  6
CONTINUOUS
 10
10.7388588588
 20
4.7932379141
 11
10.7522036784
 21
4.8188800778
  0
LINE
  5
2F2
100
AcDbEntity
  8
0
100
AcDbLine
 62
9
  6
CONTINUOUS
 10
10.6888237415
 20
4.6968754317
 11
10.7388588588
 21
4.7932379141
  0
LINE
  5
2F3
100
AcDbEntity
  8
0
100
AcDbLine
 62
9
  6
CONTINUOUS
 10
10.6765203065
 20
4.6726194942
 11
10.6888237415
 21
4.6968754317
  0
SPLINE
  5
2F4
100
AcDbEntity
  8
0
100
AcDbSpline
 62
9
  6
CONTINUOUS
 70
0
 71
3
 72
15
 73
11
 74
0
 42
0.0000001
 43
0.0000001
 44
0.0000000001
 40
0.0
 40
0.0
 40
0.0
 40
0.0
 40
0.1406378265
 40
0.2754271939
 40
0.4049377562
 40
0.5298368913
 40
0.6508908464
 40
0.7689647744
 40
0.8850054416
 40
1.0
 40
1.0
 40
1.0
 40
1.0
 10
11.4110560727
 20
11.5037828181
 30
0.0
 10
11.4100328543
 20
11.5050120616
 30
0.0
 10
11.408104342
 20
11.5074837586
 30
0.0
 10
11.4055323052
 20
11.5113084469
 30
0.0
 10
11.4033486179
 20
11.5151637958
 30
0.0
 10
11.4015566855
 20
11.5190452546
 30
0.0
 10
11.4001593713
 20
11.5229482454
 30
0.0
 10
11.3991592019
 20
11.5268680693
 30
0.0
 10
11.3985583337
 20
11.5307988416
 30
0.0
 10
11.3984244362
 20
11.5334281629
 30
0.0
 10
11.3984244362
 20
11.5347359188
 30
0.0
  0
SPLINE
  5
2F5
100
AcDbEntity
  8
0
100
AcDbSpline
 62
9
  6
CONTINUOUS
 70
0
 71
3
 72
15
 73
11
 74
0
 42
0.0000001
 43
0.0000001
 44
0.0000000001
 40
0.0
 40
0.0
 40
0.0
 40
0.0
 40
0.1424358804
 40
0.2784033045
 40
0.4084989141
 40
0.5334366516
 40
0.6540517597
 40
0.7712997126
 40
0.8862427584
 40
1.0
 40
1.0
 40
1.0
 40
1.0
 10
11.411037955
 20
11.5036636771
 30
0.0
 10
11.4098590338
 20
11.5049793056
 30
0.0
 10
11.4076364423
 20
11.5076259498
 30
0.0
 10
11.4046647733
 20
11.5117350797
 30
0.0
 10
11.4021404229
 20
11.5158821748
 30
0.0
 10
11.4000679407
 20
11.5200618136
 30
0.0
 10
11.3984510498
 20
11.5242683698
 30
0.0
 10
11.397293253
 20
11.5284961251
 30
0.0
 10
11.3965974449
 20
11.532737776
 30
0.0
 10
11.3964423426
 20
11.5355765981
 30
0.0
 10
11.3964423426
 20
11.5369874713
 30
0.0
  0
LINE
  5
2F6
100
AcDbEntity
  8
0
100
AcDbLine
 62
9
  6
CONTINUOUS
 10
12.7690608869
 20
4.6968755446
 11
12.7813643804
 21
4.6726194942
  0
SPLINE
  5
2F7
100
AcDbEntity
  8
0
100
AcDbSpline
 62
9
  6
CONTINUOUS
 70
0
 71
3
 72
11
 73
7
 74
0
 42
0.0000001
 43
0.0000001
 44
0.0000000001
 40
0.0
 40
0.0
 40
0.0
 40
0.0
 40
0.2599631069
 40
0.5118887701
 40
0.7580111966
 40
1.0
 40
1.0
 40
1.0
 40
1.0
 10
11.1332218639
 20
4.6580215907
 30
0.0
 10
11.131751251
 20
4.657514943
 30
0.0
 10
11.1288027037
 20
4.6566640941
 30
0.0
 10
11.1243394118
 20
4.6558264416
 30
0.0
 10
11.1199296204
 20
4.655379617
 30
0.0
 10
11.1170080156
 20
4.655294664
 30
0.0
 10
11.1155601213
 20
4.6552946624
 30
0.0
  0
LINE
  5
2F8
100
AcDbEntity
  8
0
100
AcDbLine
 62
9
  6
CONTINUOUS
 10
12.7190053354
 20
4.7932773777
 11
12.7690608869
 21
4.6968755446
  0
LINE
  5
2F9
100
AcDbEntity
  8
0
100
AcDbLine
 62
9
  6
CONTINUOUS
 10
12.7057163001
 20
4.8188124508
 11
12.7190053354
 21
4.7932773777
  0
SPLINE
  5
2FA
100
AcDbEntity
  8
0
100
AcDbSpline
 62
9
  6
CONTINUOUS
 70
0
 71
3
 72
35
 73
31
 74
0
 42
0.0000001
 43
0.0000001
 44
0.0000000001
 40
0.0
 40
0.0
 40
0.0
 40
0.0
 40
0.005099344
 40
0.0081729786
 40
0.011674279
 40
0.0156488773
 40
0.0201329217
 40
0.0251574683
 40
0.0307519989
 40
0.036942876
 40
0.0437505492
 40
0.0592828602
 40
0.0774794028
 40
0.0984716259
 40
0.1223771001
 40
0.1492790242
 40
0.1792357307
 40
0.2122652105
 40
0.2482459501
 40
0.2865222852
 40
0.3060798239
 40
0.3257418093
 40
0.3652101801
 40
0.4047707194
 40
0.4443778555
 40
0.5236658789
 40
0.6030076252
 40
0.6823792664
 40
0.8411721451
 40
1.0
 40
1.0
 40
1.0
 40
1.0
 10
12.6409657273
 20
4.9334176935
 30
0.0
 10
12.6411905797
 20
4.9334175875
 30
0.0
 10
12.6415508862
 20
4.9333330026
 30
0.0
 10
12.6420186689
 20
4.9331186607
 30
0.0
 10
12.6424186897
 20
4.9328790335
 30
0.0
 10
12.6428458835
 20
4.9325691125
 30
0.0
 10
12.6433019378
 20
4.9321870296
 30
0.0
 10
12.6437875801
 20
4.9317309282
 30
0.0
 10
12.6443037571
 20
4.93119866
 30
0.0
 10
12.6448512981
 20
4.9305882208
 30
0.0
 10
12.6456603748
 20
4.9296246121
 30
0.0
 10
12.6467508346
 20
4.9282073717
 30
0.0
 10
12.648145202
 20
4.9262376492
 30
0.0
 10
12.6496822389
 20
4.9239182525
 30
0.0
 10
12.6513671809
 20
4.9212376289
 30
0.0
 10
12.6532042824
 20
4.9181866015
 30
0.0
 10
12.6551956213
 20
4.9147594408
 30
0.0
 10
12.6573384143
 20
4.9109577494
 30
0.0
 10
12.6596139524
 20
4.9068101338
 30
0.0
 10
12.6615657633
 20
4.903162792
 30
0.0
 10
12.6631659847
 20
4.9001435089
 30
0.0
 10
12.6647862677
 20
4.8970753711
 30
0.0
 10
12.6668130033
 20
4.8932244277
 30
0.0
 10
12.6692450739
 20
4.8885929797
 30
0.0
 10
12.6724897705
 20
4.8824050725
 30
0.0
 10
12.6765444637
 20
4.8746612437
 30
0.0
 10
12.6814082974
 20
4.8653618799
 30
0.0
 10
12.6878931224
 20
4.8529540672
 30
0.0
 10
12.6959963941
 20
4.8374374099
 30
0.0
 10
12.7024764379
 20
4.8250214059
 30
0.0
 10
12.7057163001
 20
4.8188124508
 30
0.0
  0
LINE
  5
2FB
100
AcDbEntity
  8
0
100
AcDbLine
 62
9
  6
CONTINUOUS
 10
10.6956578619
 20
4.6933342869
 11
10.7457439254
 21
4.7896707947
  0
LINE
  5
2FC
100
AcDbEntity
  8
0
100
AcDbLine
 62
9
  6
CONTINUOUS
 10
10.7457439254
 20
4.7896707947
 11
10.8003555759
 21
4.7606880045
  0
LINE
  5
2FD
100
AcDbEntity
  8
0
100
AcDbLine
 62
9
  6
CONTINUOUS
 10
10.6956578619
 20
4.6933342869
 11
10.7592533949
 21
4.6822680007
  0
SPLINE
  5
2FE
100
AcDbEntity
  8
0
100
AcDbSpline
 62
9
  6
CONTINUOUS
 70
0
 71
3
 72
23
 73
19
 74
0
 42
0.0000001
 43
0.0000001
 44
0.0000000001
 40
0.0
 40
0.0
 40
0.0
 40
0.0
 40
0.0890083825
 40
0.1752081267
 40
0.2583472697
 40
0.3382285608
 40
0.4146675833
 40
0.4874892632
 40
0.5565422346
 40
0.6216987099
 40
0.6828598906
 40
0.7399573616
 40
0.7929650553
 40
0.8419040484
 40
0.8868575639
 40
0.9279916564
 40
0.965576019
 40
1.0
 40
1.0
 40
1.0
 40
1.0
 10
10.758191683
 20
4.8150263487
 30
0.0
 10
10.7602121674
 20
4.8154514847
 30
0.0
 10
10.764181202
 20
4.8163278974
 30
0.0
 10
10.7700045979
 20
4.8177450389
 30
0.0
 10
10.7755895376
 20
4.8192405672
 30
0.0
 10
10.7809186753
 20
4.8208097112
 30
0.0
 10
10.7859761406
 20
4.8224477011
 30
0.0
 10
10.7907466786
 20
4.8241496028
 30
0.0
 10
10.7952158646
 20
4.8259101313
 30
0.0
 10
10.7993702654
 20
4.8277240369
 30
0.0
 10
10.8031975435
 20
4.8295856942
 30
0.0
 10
10.8066863368
 20
4.831489687
 30
0.0
 10
10.8098264831
 20
4.8334303126
 30
0.0
 10
10.8126089071
 20
4.8354021566
 30
0.0
 10
10.815025743
 20
4.8373998076
 30
0.0
 10
10.8170703263
 20
4.8394187502
 30
0.0
 10
10.8187358858
 20
4.8414540157
 30
0.0
 10
10.8196249132
 20
4.8428758018
 30
0.0
 10
10.8199939847
 20
4.8435839268
 30
0.0
  0
SPLINE
  5
2FF
100
AcDbEntity
  8
0
100
AcDbSpline
 62
9
  6
CONTINUOUS
 70
0
 71
3
 72
52
 73
48
 74
0
 42
0.0000001
 43
0.0000001
 44
0.0000000001
 40
0.0
 40
0.0
 40
0.0
 40
0.0
 40
0.0799585498
 40
0.1599183645
 40
0.2398777388
 40
0.319834302
 40
0.3598105169
 40
0.3997845763
 40
0.4397557371
 40
0.4797230171
 40
0.5196849709
 40
0.5596399156
 40
0.5995850765
 40
0.6395174581
 40
0.6594776982
 40
0.6794338371
 40
0.6993879492
 40
0.7093657289
 40
0.7193454287
 40
0.7293296126
 40
0.7393203808
 40
0.7592870102
 40
0.7691653185
 40
0.7788329885
 40
0.7882055558
 40
0.797266671
 40
0.814515619
 40
0.8307246424
 40
0.8459871204
 40
0.8603553095
 40
0.8865398249
 40
0.9095048884
 40
0.9198225061
 40
0.9293836683
 40
0.9463024739
 40
0.9537205928
 40
0.9604817953
 40
0.9666104004
 40
0.9721308537
 40
0.9770713474
 40
0.9814669877
 40
0.9853628634
 40
0.9888211268
 40
0.991919698
 40
0.9947478202
 40
0.9974045643
 40
1.0
 40
1.0
 40
1.0
 40
1.0
 10
10.7581916915
 20
4.8150263505
 30
0.0
 10
10.7595562217
 20
4.8181093273
 30
0.0
 10
10.7622835952
 20
4.8242760861
 30
0.0
 10
10.7663684299
 20
4.833528984
 30
0.0
 10
10.7704471977
 20
4.8427844664
 30
0.0
 10
10.7738400931
 20
4.8504998458
 30
0.0
 10
10.7765509296
 20
4.8566733607
 30
0.0
 10
10.7785817216
 20
4.8613041215
 30
0.0
 10
10.780610457
 20
4.8659353723
 30
0.0
 10
10.7826370856
 20
4.8705669885
 30
0.0
 10
10.7846607003
 20
4.875199176
 30
0.0
 10
10.7866823805
 20
4.8798311906
 30
0.0
 10
10.7887005805
 20
4.8844633625
 30
0.0
 10
10.7903811093
 20
4.8883230332
 30
0.0
 10
10.7917248101
 20
4.8914100972
 30
0.0
 10
10.7927326697
 20
4.893724619
 30
0.0
 10
10.7935742392
 20
4.8956524669
 30
0.0
 10
10.794250139
 20
4.8971936418
 30
0.0
 10
10.7947586911
 20
4.8983491746
 30
0.0
 10
10.795271224
 20
4.8995035542
 30
0.0
 10
10.7959609413
 20
4.9010399649
 30
0.0
 10
10.7966685546
 20
4.9025635699
 30
0.0
 10
10.7974095721
 20
4.9040558717
 30
0.0
 10
10.7979739665
 20
4.9051368284
 30
0.0
 10
10.7985408273
 20
4.9061773809
 30
0.0
 10
10.7992777909
 20
4.9074891237
 30
0.0
 10
10.8001790613
 20
4.9090390381
 30
0.0
 10
10.801235602
 20
4.9108008663
 30
0.0
 10
10.8022490183
 20
4.9124467697
 30
0.0
 10
10.8035057502
 20
4.9144366275
 30
0.0
 10
10.8049754736
 20
4.9166758839
 30
0.0
 10
10.8064071484
 20
4.9187349352
 30
0.0
 10
10.8074781525
 20
4.9201898875
 30
0.0
 10
10.8084229446
 20
4.9214206816
 30
0.0
 10
10.809331842
 20
4.9225249108
 30
0.0
 10
10.8102128216
 20
4.9234964231
 30
0.0
 10
10.8108104836
 20
4.9241099287
 30
0.0
 10
10.8113752468
 20
4.9246428984
 30
0.0
 10
10.8119079735
 20
4.9250967813
 30
0.0
 10
10.8124095189
 20
4.9254729194
 30
0.0
 10
10.8128809793
 20
4.925772563
 30
0.0
 10
10.8133239461
 20
4.9259966142
 30
0.0
 10
10.8137396175
 20
4.9261469972
 30
0.0
 10
10.814128902
 20
4.9262265622
 30
0.0
 10
10.8144927013
 20
4.9262379439
 30
0.0
 10
10.8148310485
 20
4.9261815786
 30
0.0
 10
10.8150387527
 20
4.9260993713
 30
0.0
 10
10.8151358287
 20
4.9260488481
 30
0.0
  0
SPLINE
  5
300
100
AcDbEntity
  8
0
100
AcDbSpline
 62
9
  6
CONTINUOUS
 70
0
 71
3
 72
28
 73
24
 74
0
 42
0.0000001
 43
0.0000001
 44
0.0000000001
 40
0.0
 40
0.0
 40
0.0
 40
0.0
 40
0.1035768556
 40
0.202403826
 40
0.2961773704
 40
0.3846749843
 40
0.4676984684
 40
0.5450685674
 40
0.6166330163
 40
0.6822722231
 40
0.7419163447
 40
0.7955491307
 40
0.8431941767
 40
0.8647958143
 40
0.8849388418
 40
0.9036540544
 40
0.9209811153
 40
0.936971177
 40
0.951690989
 40
0.9652268326
 40
0.9776895642
 40
0.9892210316
 40
1.0
 40
1.0
 40
1.0
 40
1.0
 10
11.1159689859
 20
4.6822679812
 30
0.0
 10
11.1177369357
 20
4.6823233729
 30
0.0
 10
11.1211911133
 20
4.6824540042
 30
0.0
 10
11.1262423577
 20
4.6827172978
 30
0.0
 10
11.1310319826
 20
4.6830421429
 30
0.0
 10
11.1355463268
 20
4.6834277911
 30
0.0
 10
11.1397736438
 20
4.6838731512
 30
0.0
 10
11.1437031415
 20
4.6843765084
 30
0.0
 10
11.1473250478
 20
4.6849356821
 30
0.0
 10
11.1506311423
 20
4.6855473806
 30
0.0
 10
11.1536147484
 20
4.6862096353
 30
0.0
 10
11.1562699394
 20
4.6869219999
 30
0.0
 10
11.1582659778
 20
4.6875743821
 30
0.0
 10
11.1596902226
 20
4.6881246807
 30
0.0
 10
11.1606382462
 20
4.6885344715
 30
0.0
 10
11.1615012434
 20
4.6889546923
 30
0.0
 10
11.1622790943
 20
4.6893852157
 30
0.0
 10
11.1629716866
 20
4.6898259626
 30
0.0
 10
11.1635789994
 20
4.6902767991
 30
0.0
 10
11.1641010598
 20
4.6907375795
 30
0.0
 10
11.1645378363
 20
4.6912083557
 30
0.0
 10
11.1648889938
 20
4.6916890484
 30
0.0
 10
11.1650708155
 20
4.6920256654
 30
0.0
 10
11.1651453725
 20
4.6921939666
 30
0.0
  0
SPLINE
  5
301
100
AcDbEntity
  8
0
100
AcDbSpline
 62
9
  6
CONTINUOUS
 70
0
 71
3
 72
52
 73
48
 74
0
 42
0.0000001
 43
0.0000001
 44
0.0000000001
 40
0.0
 40
0.0
 40
0.0
 40
0.0
 40
0.0287522064
 40
0.0429544574
 40
0.0570385406
 40
0.0848470676
 40
0.1121971287
 40
0.1391137727
 40
0.1656464119
 40
0.1787969134
 40
0.1918832594
 40
0.2049205053
 40
0.2179249687
 40
0.2439028766
 40
0.2569422842
 40
0.2700545862
 40
0.2832850277
 40
0.2966885683
 40
0.3103454023
 40
0.3243911261
 40
0.3316423049
 40
0.3391084741
 40
0.346846598
 40
0.35487412
 40
0.3631290816
 40
0.3715292703
 40
0.3800157742
 40
0.388540869
 40
0.3970873908
 40
0.4056436049
 40
0.422766399
 40
0.4398885619
 40
0.4570007574
 40
0.4741001703
 40
0.4911875405
 40
0.5082631388
 40
0.52532667
 40
0.5594199768
 40
0.5934745112
 40
0.6274924391
 40
0.6614784925
 40
0.6954352078
 40
0.7293643643
 40
0.7971492127
 40
0.8648444517
 40
0.9324593812
 40
1.0
 40
1.0
 40
1.0
 40
1.0
 10
11.1797523868
 20
4.9260489276
 30
0.0
 10
11.181091368
 20
4.9261496324
 30
0.0
 10
11.1830971072
 20
4.9262400496
 30
0.0
 10
11.1857612468
 20
4.9262289018
 30
0.0
 10
11.1883794631
 20
4.9261289087
 30
0.0
 10
11.1916027925
 20
4.9258303083
 30
0.0
 10
11.1953824817
 20
4.9251658705
 30
0.0
 10
11.1990317737
 20
4.9241863856
 30
0.0
 10
11.2019513883
 20
4.9230976758
 30
0.0
 10
11.2041860525
 20
4.9220561197
 30
0.0
 10
11.2058031329
 20
4.9211883925
 30
0.0
 10
11.2073599619
 20
4.9202292876
 30
0.0
 10
11.2093464978
 20
4.9188289812
 30
0.0
 10
11.2111936391
 20
4.9172370859
 30
0.0
 10
11.2128591551
 20
4.9154590294
 30
0.0
 10
11.2140125235
 20
4.9140238501
 30
0.0
 10
11.2150534537
 20
4.9124843245
 30
0.0
 10
11.2159666898
 20
4.9108360019
 30
0.0
 10
11.2167284114
 20
4.9090703443
 30
0.0
 10
11.2172003619
 20
4.9075022231
 30
0.0
 10
11.217442924
 20
4.906179686
 30
0.0
 10
11.2175418439
 20
4.9051340901
 30
0.0
 10
11.217535798
 20
4.904047209
 30
0.0
 10
11.2174173611
 20
4.9029301822
 30
0.0
 10
11.2172122351
 20
4.9017952578
 30
0.0
 10
11.216951928
 20
4.9006500946
 30
0.0
 10
11.216657081
 20
4.8995004822
 30
0.0
 10
11.216349516
 20
4.898347191
 30
0.0
 10
11.2160338375
 20
4.8971927164
 30
0.0
 10
11.2156097636
 20
4.8956516273
 30
0.0
 10
11.2150786652
 20
4.8937246072
 30
0.0
 10
11.2144470018
 20
4.8914108354
 30
0.0
 10
11.2138236849
 20
4.8890959302
 30
0.0
 10
11.2132090111
 20
4.8867803971
 30
0.0
 10
11.21260214
 20
4.8844645743
 30
0.0
 10
11.2120027185
 20
4.8821485431
 30
0.0
 10
11.2112132826
 20
4.8790613378
 30
0.0
 10
11.2102428095
 20
4.8752019936
 30
0.0
 10
11.2090997998
 20
4.8705696476
 30
0.0
 10
11.2079766934
 20
4.8659375918
 30
0.0
 10
11.2068706462
 20
4.8613061326
 30
0.0
 10
11.2057801955
 20
4.8566752365
 30
0.0
 10
11.2043456272
 20
4.8505037833
 30
0.0
 10
11.202584432
 20
4.84279065
 30
0.0
 10
11.2005148302
 20
4.8335343879
 30
0.0
 10
11.1984848303
 20
4.8242810419
 30
0.0
 10
11.1971547607
 20
4.818110828
 30
0.0
 10
11.196495314
 20
4.8150263037
 30
0.0
  0
SPLINE
  5
302
100
AcDbEntity
  8
0
100
AcDbSpline
 62
9
  6
CONTINUOUS
 70
0
 71
3
 72
28
 73
24
 74
0
 42
0.0000001
 43
0.0000001
 44
0.0000000001
 40
0.0
 40
0.0
 40
0.0
 40
0.0
 40
0.0119575149
 40
0.0244459215
 40
0.0376784261
 40
0.0518331196
 40
0.0670537651
 40
0.083453296
 40
0.1011195056
 40
0.1201198298
 40
0.1405033988
 40
0.1623061274
 40
0.2102579024
 40
0.264097752
 40
0.3238450507
 40
0.3894486646
 40
0.4608105741
 40
0.5377905452
 40
0.620216014
 40
0.7078824753
 40
0.800570967
 40
0.8980446652
 40
1.0
 40
1.0
 40
1.0
 40
1.0
 10
11.196495314
 20
4.8150263037
 30
0.0
 10
11.1965092854
 20
4.8152452051
 30
0.0
 10
11.1965033578
 20
4.8156955179
 30
0.0
 10
11.1963965116
 20
4.8163803612
 30
0.0
 10
11.1961924984
 20
4.8170846514
 30
0.0
 10
11.1958919744
 20
4.8178076767
 30
0.0
 10
11.1954955513
 20
4.8185491782
 30
0.0
 10
11.195003792
 20
4.8193089126
 30
0.0
 10
11.1944171034
 20
4.8200865852
 30
0.0
 10
11.1937358714
 20
4.8208817763
 30
0.0
 10
11.1929606274
 20
4.8216940788
 30
0.0
 10
11.1917638668
 20
4.8228357471
 30
0.0
 10
11.1900262709
 20
4.8242956351
 30
0.0
 10
11.1876399733
 20
4.8260548746
 30
0.0
 10
11.1848967228
 20
4.8278679431
 30
0.0
 10
11.1818045042
 20
4.8297295315
 30
0.0
 10
11.1783721246
 20
4.831633889
 30
0.0
 10
11.1746097633
 20
4.8335752651
 30
0.0
 10
11.170528686
 20
4.8355476185
 30
0.0
 10
11.1661411422
 20
4.8375449556
 30
0.0
 10
11.1614601451
 20
4.8395612139
 30
0.0
 10
11.1565002071
 20
4.8415900035
 30
0.0
 10
11.1530913203
 20
4.8429181437
 30
0.0
 10
11.1513435854
 20
4.8435839268
 30
0.0
  0
SPLINE
  5
303
100
AcDbEntity
  8
0
100
AcDbSpline
 62
9
  6
CONTINUOUS
 70
0
 71
3
 72
18
 73
14
 74
0
 42
0.0000001
 43
0.0000001
 44
0.0000000001
 40
0.0
 40
0.0
 40
0.0
 40
0.0
 40
0.1728206125
 40
0.2543768988
 40
0.3324051937
 40
0.4774020164
 40
0.6073275569
 40
0.7223785358
 40
0.8238872263
 40
0.8704792379
 40
0.9149247658
 40
0.9578615995
 40
1.0
 40
1.0
 40
1.0
 40
1.0
 10
11.1984084697
 20
4.7932379187
 30
0.0
 10
11.197885574
 20
4.7932277925
 30
0.0
 10
11.1971159183
 20
4.7931884665
 30
0.0
 10
11.1961157203
 20
4.7930790081
 30
0.0
 10
11.1952042363
 20
4.7929405798
 30
0.0
 10
11.1941593513
 20
4.7927104894
 30
0.0
 10
11.1930388789
 20
4.7923304177
 30
0.0
 10
11.1920986208
 20
4.791857497
 30
0.0
 10
11.1914574198
 20
4.7913745442
 30
0.0
 10
11.1910604238
 20
4.790946149
 30
0.0
 10
11.1908245726
 20
4.7906148232
 30
0.0
 10
11.1906436157
 20
4.7902656745
 30
0.0
 10
11.1905597676
 20
4.7900210531
 30
0.0
 10
11.1905276383
 20
4.7898976469
 30
0.0
  0
SPLINE
  5
304
100
AcDbEntity
  8
0
100
AcDbSpline
 62
9
  6
CONTINUOUS
 70
0
 71
3
 72
16
 73
12
 74
0
 42
0.0000001
 43
0.0000001
 44
0.0000000001
 40
0.0
 40
0.0
 40
0.0
 40
0.0
 40
0.1683909823
 40
0.3248814184
 40
0.4683049069
 40
0.5981537424
 40
0.714531707
 40
0.8184922408
 40
0.9123543621
 40
0.95669883
 40
1.0
 40
1.0
 40
1.0
 40
1.0
 10
11.2044793892
 20
4.8188800925
 30
0.0
 10
11.2039563074
 20
4.8188419588
 30
0.0
 10
11.2029490384
 20
4.8187355111
 30
0.0
 10
11.2015129119
 20
4.8184715965
 30
0.0
 10
11.2002213403
 20
4.8181120488
 30
0.0
 10
11.1990913783
 20
4.817661579
 30
0.0
 10
11.1981373759
 20
4.8171245802
 30
0.0
 10
11.1973719113
 20
4.8165062414
 30
0.0
 10
11.1968926571
 20
4.8159138901
 30
0.0
 10
11.1966276366
 20
4.8154129384
 30
0.0
 10
11.1965329594
 20
4.8151558132
 30
0.0
 10
11.1964953151
 20
4.8150263077
 30
0.0
  0
SPLINE
  5
305
100
AcDbEntity
  8
0
100
AcDbSpline
 62
9
  6
CONTINUOUS
 70
0
 71
3
 72
11
 73
7
 74
0
 42
0.0000001
 43
0.0000001
 44
0.0000000001
 40
0.0
 40
0.0
 40
0.0
 40
0.0
 40
0.2420189136
 40
0.4908351302
 40
0.7442733992
 40
1.0
 40
1.0
 40
1.0
 40
1.0
 10
11.1808256146
 20
4.9334176935
 30
0.0
 10
11.1806472379
 20
4.9328418863
 30
0.0
 10
11.1803343902
 20
4.9316584601
 30
0.0
 10
11.1799998177
 20
4.9298334205
 30
0.0
 10
11.1797973128
 20
4.9279547639
 30
0.0
 10
11.1797520281
 20
4.9266861128
 30
0.0
 10
11.1797519902
 20
4.9260491671
 30
0.0
  0
SPLINE
  5
306
100
AcDbEntity
  8
0
100
AcDbSpline
 62
9
  6
CONTINUOUS
 70
0
 71
3
 72
21
 73
17
 74
0
 42
0.0000001
 43
0.0000001
 44
0.0000000001
 40
0.0
 40
0.0
 40
0.0
 40
0.0
 40
0.0048272899
 40
0.0111930561
 40
0.0192652376
 40
0.0291208165
 40
0.0543110836
 40
0.0868803263
 40
0.1267899214
 40
0.1739556736
 40
0.2282374796
 40
0.289461264
 40
0.4319191909
 40
0.5993912092
 40
0.7896617955
 40
1.0
 40
1.0
 40
1.0
 40
1.0
 10
10.7522036784
 20
4.8188800778
 30
0.0
 10
10.7522054977
 20
4.8188687209
 30
0.0
 10
10.7522150479
 20
4.818843357
 30
0.0
 10
10.7522393164
 20
4.8188043037
 30
0.0
 10
10.7522754721
 20
4.8187589575
 30
0.0
 10
10.7523456699
 20
4.8186838699
 30
0.0
 10
10.7524654131
 20
4.818575755
 30
0.0
 10
10.7526467392
 20
4.8184298382
 30
0.0
 10
10.7528755431
 20
4.8182596938
 30
0.0
 10
10.7531510683
 20
4.818065948
 30
0.0
 10
10.7534724857
 20
4.817849312
 30
0.0
 10
10.7539874105
 20
4.8175136792
 30
0.0
 10
10.7547373838
 20
4.817044957
 30
0.0
 10
10.7557583865
 20
4.8164301281
 30
0.0
 10
10.7569267456
 20
4.8157467047
 30
0.0
 10
10.7577555255
 20
4.8152731696
 30
0.0
 10
10.7581916871
 20
4.8150263406
 30
0.0
  0
LINE
  5
307
100
AcDbEntity
  8
0
100
AcDbLine
 62
9
  6
CONTINUOUS
 10
11.2591813953
 20
4.6933342869
 11
11.2842067778
 21
4.7896707947
  0
SPLINE
  5
308
100
AcDbEntity
  8
0
100
AcDbSpline
 62
9
  6
CONTINUOUS
 70
0
 71
3
 72
15
 73
11
 74
0
 42
0.0000001
 43
0.0000001
 44
0.0000000001
 40
0.0
 40
0.0
 40
0.0
 40
0.0
 40
0.1201926569
 40
0.2443374597
 40
0.3711879481
 40
0.4994384121
 40
0.6277607477
 40
0.7548255307
 40
0.8793230264
 40
1.0
 40
1.0
 40
1.0
 40
1.0
 10
11.2842067778
 20
4.7896707947
 30
0.0
 10
11.2882652485
 20
4.7877018864
 30
0.0
 10
11.2966250799
 20
4.783921704
 30
0.0
 10
11.3095891923
 20
4.7788094558
 30
0.0
 10
11.323063213
 20
4.7742076022
 30
0.0
 10
11.336881017
 20
4.7701732345
 30
0.0
 10
11.3508725027
 20
4.7667559908
 30
0.0
 10
11.3648654379
 20
4.7639979762
 30
0.0
 10
11.3786871217
 20
4.7619329039
 30
0.0
 10
11.3878476366
 20
4.7610175857
 30
0.0
 10
11.392364657
 20
4.7606880045
 30
0.0
  0
SPLINE
  5
309
100
AcDbEntity
  8
0
100
AcDbSpline
 62
9
  6
CONTINUOUS
 70
0
 71
3
 72
19
 73
15
 74
0
 42
0.0000001
 43
0.0000001
 44
0.0000000001
 40
0.0
 40
0.0
 40
0.0
 40
0.0
 40
0.1162113482
 40
0.2378636289
 40
0.3636321977
 40
0.4920620474
 40
0.5567917092
 40
0.6215933558
 40
0.6862581502
 40
0.7505733331
 40
0.8143193514
 40
0.8772822588
 40
0.9392539605
 40
1.0
 40
1.0
 40
1.0
 40
1.0
 10
11.2591813953
 20
4.6933342869
 30
0.0
 10
11.2635211713
 20
4.6925882967
 30
0.0
 10
11.2724200534
 20
4.6911541257
 30
0.0
 10
11.2860626877
 20
4.6892183836
 30
0.0
 10
11.3001963668
 20
4.6874631232
 30
0.0
 10
11.312213225
 20
4.6861788208
 30
0.0
 10
11.3219446314
 20
4.6852605949
 30
0.0
 10
11.3292760663
 20
4.6846303031
 30
0.0
 10
11.3365969761
 20
4.684064067
 30
0.0
 10
11.3438826984
 20
4.6835652893
 30
0.0
 10
11.3511080247
 20
4.6831324273
 30
0.0
 10
11.3582481883
 20
4.6827671586
 30
0.0
 10
11.3652779874
 20
4.6824758382
 30
0.0
 10
11.3699257246
 20
4.6823291398
 30
0.0
 10
11.3722266728
 20
4.6822680007
 30
0.0
  0
SPLINE
  5
30A
100
AcDbEntity
  8
0
100
AcDbSpline
 62
9
  6
CONTINUOUS
 70
0
 71
3
 72
15
 73
11
 74
0
 42
0.0000001
 43
0.0000001
 44
0.0000000001
 40
0.0
 40
0.0
 40
0.0
 40
0.0
 40
0.1154406915
 40
0.2366172727
 40
0.3620792674
 40
0.4903146858
 40
0.6197800151
 40
0.748916386
 40
0.8761653121
 40
1.0
 40
1.0
 40
1.0
 40
1.0
 10
11.2906387018
 20
4.8150263487
 30
0.0
 10
11.2948062965
 20
4.8159152021
 30
0.0
 10
11.3033345815
 20
4.8178030586
 30
0.0
 10
11.3163447649
 20
4.8208664522
 30
0.0
 10
11.3297744758
 20
4.8242042097
 30
0.0
 10
11.3434602953
 20
4.8277759038
 30
0.0
 10
11.35723561
 20
4.8315381396
 30
0.0
 10
11.3709327104
 20
4.8354451484
 30
0.0
 10
11.3843849861
 20
4.8394493364
 30
0.0
 10
11.3932363056
 20
4.8421993184
 30
0.0
 10
11.3975927419
 20
4.8435839268
 30
0.0
  0
SPLINE
  5
30B
100
AcDbEntity
  8
0
100
AcDbSpline
 62
9
  6
CONTINUOUS
 70
0
 71
3
 72
63
 73
59
 74
0
 42
0.0000001
 43
0.0000001
 44
0.0000000001
 40
0.0
 40
0.0
 40
0.0
 40
0.0
 40
0.0618623648
 40
0.1236825395
 40
0.1854555754
 40
0.2163226174
 40
0.2471751067
 40
0.2780118374
 40
0.3088313517
 40
0.3396314622
 40
0.3704098134
 40
0.4011632631
 40
0.4318875002
 40
0.4472371437
 40
0.4625772646
 40
0.477906985
 40
0.4932254333
 40
0.5085316111
 40
0.5238249256
 40
0.531467276
 40
0.5391073947
 40
0.5467466343
 40
0.5505664645
 40
0.5543869443
 40
0.5582089917
 40
0.5620336663
 40
0.5658619954
 40
0.5696954717
 40
0.5735373391
 40
0.5773914149
 40
0.5851491812
 40
0.5890621258
 40
0.593001789
 40
0.5969691264
 40
0.600963289
 40
0.6090171754
 40
0.6171387544
 40
0.6253064324
 40
0.6335052898
 40
0.6499562644
 40
0.666442581
 40
0.6829324938
 40
0.6994041137
 40
0.7158417046
 40
0.7322332753
 40
0.7485693184
 40
0.764842387
 40
0.78104668
 40
0.7971776789
 40
0.813233265
 40
0.8451091479
 40
0.8766740018
 40
0.9079297783
 40
0.9234462525
 40
0.9388907984
 40
0.9542673093
 40
0.969577856
 40
1.0
 40
1.0
 40
1.0
 40
1.0
 10
11.2906387102
 20
4.8150263505
 30
0.0
 10
11.2913438857
 20
4.8181082836
 30
0.0
 10
11.2927414663
 20
4.8242728697
 30
0.0
 10
11.2947963592
 20
4.8335254792
 30
0.0
 10
11.2964711754
 20
4.8412397531
 30
0.0
 10
11.2977850034
 20
4.8474127893
 30
0.0
 10
11.2987564655
 20
4.8520422081
 30
0.0
 10
11.2997132779
 20
4.8566721979
 30
0.0
 10
11.3006536296
 20
4.8613028295
 30
0.0
 10
11.3015763668
 20
4.8659339617
 30
0.0
 10
11.3024799655
 20
4.8705654311
 30
0.0
 10
11.3033606274
 20
4.8751973714
 30
0.0
 10
11.3040748144
 20
4.8790582831
 30
0.0
 10
11.3046315112
 20
4.8821471889
 30
0.0
 10
11.3050408754
 20
4.8844631956
 30
0.0
 10
11.3054425038
 20
4.8867789381
 30
0.0
 10
11.305835882
 20
4.8890943376
 30
0.0
 10
11.3062203505
 20
4.8914093483
 30
0.0
 10
11.306533436
 20
4.8933385234
 30
0.0
 10
11.3067827265
 20
4.8948811365
 30
0.0
 10
11.3069693723
 20
4.8960376241
 30
0.0
 10
11.3071268714
 20
4.8970009311
 30
0.0
 10
11.3072549143
 20
4.8977712492
 30
0.0
 10
11.3073523786
 20
4.8983488884
 30
0.0
 10
11.3074528232
 20
4.8989262711
 30
0.0
 10
11.3075576489
 20
4.8995032848
 30
0.0
 10
11.3076676067
 20
4.9000799387
 30
0.0
 10
11.3077837324
 20
4.9006562855
 30
0.0
 10
11.3079108007
 20
4.9012317149
 30
0.0
 10
11.3081005973
 20
4.9019983922
 30
0.0
 10
11.3083262069
 20
4.9027599518
 30
0.0
 10
11.3086017458
 20
4.903508933
 30
0.0
 10
11.3088377074
 20
4.9040652984
 30
0.0
 10
11.309103439
 20
4.904612708
 30
0.0
 10
11.309497614
 20
4.9053303697
 30
0.0
 10
11.3100550522
 20
4.90619895
 30
0.0
 10
11.3107999951
 20
4.9071962983
 30
0.0
 10
11.3116044084
 20
4.908155761
 30
0.0
 10
11.3127402237
 20
4.9093904189
 30
0.0
 10
11.3142524022
 20
4.9108536641
 30
0.0
 10
11.3161744176
 20
4.9124948168
 30
0.0
 10
11.3181834305
 20
4.9140297422
 30
0.0
 10
11.3202638975
 20
4.9154615696
 30
0.0
 10
11.3224028378
 20
4.9167947461
 30
0.0
 10
11.3245904036
 20
4.9180323644
 30
0.0
 10
11.3268191848
 20
4.9191757109
 30
0.0
 10
11.3290827165
 20
4.9202259702
 30
0.0
 10
11.3313751153
 20
4.9211846964
 30
0.0
 10
11.3336916651
 20
4.9220523126
 30
0.0
 10
11.3367981531
 20
4.9230880328
 30
0.0
 10
11.340716977
 20
4.9241727788
 30
0.0
 10
11.3454592002
 20
4.9251547969
 30
0.0
 10
11.3494265399
 20
4.9257137754
 30
0.0
 10
11.352593092
 20
4.926007184
 30
0.0
 10
11.3549571391
 20
4.9261528519
 30
0.0
 10
11.3573139116
 20
4.9262283009
 30
0.0
 10
11.3604372567
 20
4.9262398934
 30
0.0
 10
11.3627743796
 20
4.9261507694
 30
0.0
 10
11.3643258098
 20
4.9260488481
 30
0.0
  0
LINE
  5
30C
100
AcDbEntity
  8
0
100
AcDbLine
 62
9
  6
CONTINUOUS
 10
12.1736779062
 20
4.7896708002
 11
12.1987033094
 21
4.6933344041
  0
SPLINE
  5
30D
100
AcDbEntity
  8
0
100
AcDbSpline
 62
9
  6
CONTINUOUS
 70
0
 71
3
 72
19
 73
15
 74
0
 42
0.0000001
 43
0.0000001
 44
0.0000000001
 40
0.0
 40
0.0
 40
0.0
 40
0.0
 40
0.1227145827
 40
0.2494248717
 40
0.3137394997
 40
0.3784041653
 40
0.4432058648
 40
0.5079352261
 40
0.5723884439
 40
0.6363667674
 40
0.6996779064
 40
0.7621357129
 40
0.8837884318
 40
1.0
 40
1.0
 40
1.0
 40
1.0
 10
12.0856580655
 20
4.6822679812
 30
0.0
 10
12.0903062541
 20
4.6823919112
 30
0.0
 10
12.0997515446
 20
4.6827418903
 30
0.0
 10
12.1116220149
 20
4.6834001336
 30
0.0
 10
12.1212877969
 20
4.6840642251
 30
0.0
 10
12.1286086305
 20
4.6846310902
 30
0.0
 10
12.1359400764
 20
4.6852609348
 30
0.0
 10
12.1432581334
 20
4.6859501524
 30
0.0
 10
12.1505390643
 20
4.6866981132
 30
0.0
 10
12.157759853
 20
4.6875029626
 30
0.0
 10
12.1648985817
 20
4.688359219
 30
0.0
 10
12.1741973536
 20
4.6895544781
 30
0.0
 10
12.1854646286
 20
4.6911543574
 30
0.0
 10
12.1943635103
 20
4.6925885147
 30
0.0
 10
12.1987033094
 20
4.6933344041
 30
0.0
  0
SPLINE
  5
30E
100
AcDbEntity
  8
0
100
AcDbSpline
 62
9
  6
CONTINUOUS
 70
0
 71
3
 72
15
 73
11
 74
0
 42
0.0000001
 43
0.0000001
 44
0.0000000001
 40
0.0
 40
0.0
 40
0.0
 40
0.0
 40
0.1201926488
 40
0.2443374509
 40
0.3711879432
 40
0.499438413
 40
0.6277607541
 40
0.75482554
 40
0.8793230343
 40
1.0
 40
1.0
 40
1.0
 40
1.0
 10
12.1736779062
 20
4.7896708002
 30
0.0
 10
12.1696194346
 20
4.787701895
 30
0.0
 10
12.1612596012
 20
4.7839217189
 30
0.0
 10
12.1482954874
 20
4.7788094766
 30
0.0
 10
12.1348214661
 20
4.7742076259
 30
0.0
 10
12.1210036623
 20
4.7701732581
 30
0.0
 10
12.1070121773
 20
4.7667560119
 30
0.0
 10
12.0930192434
 20
4.7639979927
 30
0.0
 10
12.0791975616
 20
4.7619329135
 30
0.0
 10
12.0700370482
 20
4.7610175892
 30
0.0
 10
12.0655200285
 20
4.7606880045
 30
0.0
  0
SPLINE
  5
30F
100
AcDbEntity
  8
0
100
AcDbSpline
 62
9
  6
CONTINUOUS
 70
0
 71
3
 72
55
 73
51
 74
0
 42
0.0000001
 43
0.0000001
 44
0.0000000001
 40
0.0
 40
0.0
 40
0.0
 40
0.0
 40
0.0304227186
 40
0.0457336307
 40
0.0611105538
 40
0.092068693
 40
0.1233249176
 40
0.1548904264
 40
0.1867667944
 40
0.2189487153
 40
0.2351532428
 40
0.2514265776
 40
0.267762863
 40
0.2841546792
 40
0.3005925183
 40
0.317064362
 40
0.3335545194
 40
0.3500410654
 40
0.3664922146
 40
0.3746911697
 40
0.3828590083
 40
0.390980625
 40
0.3990345323
 40
0.4069940625
 40
0.4148443068
 40
0.4226019531
 40
0.4302983036
 40
0.4379596026
 40
0.4456063433
 40
0.4532468426
 40
0.4608861005
 40
0.4685263901
 40
0.4761687805
 40
0.4914623092
 40
0.5067686447
 40
0.5220872847
 40
0.5374171815
 40
0.5527574989
 40
0.5681073196
 40
0.5988319269
 40
0.6295857449
 40
0.6603644636
 40
0.6911649535
 40
0.72198483
 40
0.7528219267
 40
0.7836747947
 40
0.8145422032
 40
0.8763159808
 40
0.9381368962
 40
1.0
 40
1.0
 40
1.0
 40
1.0
 10
12.0935589001
 20
4.9260489276
 30
0.0
 10
12.0951103354
 20
4.9261508834
 30
0.0
 10
12.0974474546
 20
4.9262402785
 30
0.0
 10
12.1005708516
 20
4.9262286371
 30
0.0
 10
12.1037200752
 20
4.9261274113
 30
0.0
 10
12.1076764848
 20
4.9258236022
 30
0.0
 10
12.1124256187
 20
4.9251552103
 30
0.0
 10
12.1171679082
 20
4.924172382
 30
0.0
 10
12.1218813823
 20
4.9228685616
 30
0.0
 10
12.1257528815
 20
4.9215011307
 30
0.0
 10
12.1288021561
 20
4.9202259249
 30
0.0
 10
12.1310657008
 20
4.9191756358
 30
0.0
 10
12.1332944869
 20
4.9180323058
 30
0.0
 10
12.1354820332
 20
4.9167946406
 30
0.0
 10
12.1376208908
 20
4.9154613352
 30
0.0
 10
12.1397014364
 20
4.9140296219
 30
0.0
 10
12.1417104196
 20
4.9124946544
 30
0.0
 10
12.1436324422
 20
4.9108535163
 30
0.0
 10
12.1451446053
 20
4.9093902593
 30
0.0
 10
12.1462803813
 20
4.9081555659
 30
0.0
 10
12.1470849254
 20
4.9071962332
 30
0.0
 10
12.1478297745
 20
4.9061987499
 30
0.0
 10
12.148496661
 20
4.9051595771
 30
0.0
 10
12.1490603392
 20
4.9040757034
 30
0.0
 10
12.1495015498
 20
4.9029528081
 30
0.0
 10
12.1498389872
 20
4.9018095742
 30
0.0
 10
12.1501070339
 20
4.9006586119
 30
0.0
 10
12.1503288424
 20
4.8995039338
 30
0.0
 10
12.1505336533
 20
4.8983491393
 30
0.0
 10
12.1507264014
 20
4.8971934075
 30
0.0
 10
12.1509151605
 20
4.8960373677
 30
0.0
 10
12.1511022123
 20
4.8948809498
 30
0.0
 10
12.1513511009
 20
4.8933382725
 30
0.0
 10
12.1516645314
 20
4.8914091599
 30
0.0
 10
12.1520487808
 20
4.8890941178
 30
0.0
 10
12.1524422422
 20
4.8867787387
 30
0.0
 10
12.1528438163
 20
4.8844629913
 30
0.0
 10
12.1532532526
 20
4.8821470026
 30
0.0
 10
12.1538098661
 20
4.8790580884
 30
0.0
 10
12.1545241294
 20
4.8751971997
 30
0.0
 10
12.1554047324
 20
4.8705652588
 30
0.0
 10
12.156308367
 20
4.8659338063
 30
0.0
 10
12.1572310625
 20
4.8613026763
 30
0.0
 10
12.1581714464
 20
4.8566720618
 30
0.0
 10
12.1591282501
 20
4.8520420809
 30
0.0
 10
12.1600997039
 20
4.8474126707
 30
0.0
 10
12.1614135327
 20
4.8412396484
 30
0.0
 10
12.1630883409
 20
4.8335253906
 30
0.0
 10
12.1651432351
 20
4.8242728026
 30
0.0
 10
12.1665408128
 20
4.8181082301
 30
0.0
 10
12.1672459862
 20
4.8150263037
 30
0.0
  0
SPLINE
  5
310
100
AcDbEntity
  8
0
100
AcDbSpline
 62
9
  6
CONTINUOUS
 70
0
 71
3
 72
15
 73
11
 74
0
 42
0.0000001
 43
0.0000001
 44
0.0000000001
 40
0.0
 40
0.0
 40
0.0
 40
0.0
 40
0.1154407082
 40
0.2366172925
 40
0.3620792808
 40
0.4903146888
 40
0.6197800082
 40
0.748916373
 40
0.8761653001
 40
1.0
 40
1.0
 40
1.0
 40
1.0
 10
12.1672459862
 20
4.8150263037
 30
0.0
 10
12.1630783849
 20
4.8159151338
 30
0.0
 10
12.1545500866
 20
4.8178029427
 30
0.0
 10
12.1415398895
 20
4.820866293
 30
0.0
 10
12.1281101708
 20
4.8242040302
 30
0.0
 10
12.1144243499
 20
4.8277757274
 30
0.0
 10
12.1006490381
 20
4.8315379816
 30
0.0
 10
12.0869519447
 20
4.8354450245
 30
0.0
 10
12.0734996807
 20
4.8394492635
 30
0.0
 10
12.0646483729
 20
4.8421992919
 30
0.0
 10
12.0602919435
 20
4.8435839268
 30
0.0
  0
SPLINE
  5
311
100
AcDbEntity
  8
0
100
AcDbSpline
 62
9
  6
CONTINUOUS
 70
0
 71
3
 72
15
 73
11
 74
0
 42
0.0000001
 43
0.0000001
 44
0.0000000001
 40
0.0
 40
0.0
 40
0.0
 40
0.0
 40
0.1173458337
 40
0.2400939997
 40
0.3666605453
 40
0.4954814019
 40
0.6248841044
 40
0.7531821219
 40
0.8787725081
 40
1.0
 40
1.0
 40
1.0
 40
1.0
 10
12.1884919513
 20
4.7932379187
 30
0.0
 10
12.1878919384
 20
4.7932267316
 30
0.0
 10
12.1866647989
 20
4.7931638348
 30
0.0
 10
12.1847997601
 20
4.7929612747
 30
0.0
 10
12.1828901434
 20
4.7926507804
 30
0.0
 10
12.1809654047
 20
4.7922372508
 30
0.0
 10
12.1790549069
 20
4.7917268303
 30
0.0
 10
12.1771877328
 20
4.7911274331
 30
0.0
 10
12.1753927547
 20
4.7904481932
 30
0.0
 10
12.1742372807
 20
4.7899381233
 30
0.0
 10
12.1736779054
 20
4.7896708032
 30
0.0
  0
SPLINE
  5
312
100
AcDbEntity
  8
0
100
AcDbSpline
 62
9
  6
CONTINUOUS
 70
0
 71
3
 72
15
 73
11
 74
0
 42
0.0000001
 43
0.0000001
 44
0.0000000001
 40
0.0
 40
0.0
 40
0.0
 40
0.0
 40
0.1159737938
 40
0.2374687066
 40
0.3630426871
 40
0.4912679939
 40
0.6206132103
 40
0.7495233774
 40
0.8765059038
 40
1.0
 40
1.0
 40
1.0
 40
1.0
 10
12.1812180849
 20
4.8188800925
 30
0.0
 10
12.1806561691
 20
4.8188395985
 30
0.0
 10
12.1795078696
 20
4.8187224528
 30
0.0
 10
12.177764373
 20
4.818452636
 30
0.0
 10
12.1759775436
 20
4.8180874538
 30
0.0
 10
12.1741722519
 20
4.8176320643
 30
0.0
 10
12.1723733645
 20
4.8170926023
 30
0.0
 10
12.1706056069
 20
4.8164765849
 30
0.0
 10
12.1688936554
 20
4.8157924978
 30
0.0
 10
12.1677855577
 20
4.8152885217
 30
0.0
 10
12.1672459934
 20
4.8150263077
 30
0.0
  0
SPLINE
  5
313
100
AcDbEntity
  8
0
100
AcDbSpline
 62
9
  6
CONTINUOUS
 70
0
 71
3
 72
11
 73
7
 74
0
 42
0.0000001
 43
0.0000001
 44
0.0000000001
 40
0.0
 40
0.0
 40
0.0
 40
0.0
 40
0.2393569286
 40
0.4877957669
 40
0.7423753886
 40
1.0
 40
1.0
 40
1.0
 40
1.0
 10
12.0928476237
 20
4.9334176935
 30
0.0
 10
12.092966724
 20
4.9328382394
 30
0.0
 10
12.0931747318
 20
4.9316500038
 30
0.0
 10
12.0933959372
 20
4.9298278629
 30
0.0
 10
12.0935297627
 20
4.9279519942
 30
0.0
 10
12.0935595905
 20
4.9266858828
 30
0.0
 10
12.0935595471
 20
4.9260491671
 30
0.0
  0
SPLINE
  5
314
100
AcDbEntity
  8
0
100
AcDbSpline
 62
9
  6
CONTINUOUS
 70
0
 71
3
 72
15
 73
11
 74
0
 42
0.0000001
 43
0.0000001
 44
0.0000000001
 40
0.0
 40
0.0
 40
0.0
 40
0.0
 40
0.1159758681
 40
0.2374719508
 40
0.3630463426
 40
0.4912714278
 40
0.6206159789
 40
0.7495252269
 40
0.8765067682
 40
1.0
 40
1.0
 40
1.0
 40
1.0
 10
11.2766674077
 20
4.8188800778
 30
0.0
 10
11.2772293018
 20
4.8188395685
 30
0.0
 10
11.2783775514
 20
4.8187223977
 30
0.0
 10
11.2801209649
 20
4.818452556
 30
0.0
 10
11.2819076974
 20
4.8180873621
 30
0.0
 10
11.2837128825
 20
4.8176319737
 30
0.0
 10
11.2855116582
 20
4.8170925255
 30
0.0
 10
11.2872793036
 20
4.8164765333
 30
0.0
 10
11.2889911469
 20
4.8157924823
 30
0.0
 10
11.2900991762
 20
4.8152885373
 30
0.0
 10
11.2906387079
 20
4.8150263406
 30
0.0
  0
SPLINE
  5
315
100
AcDbEntity
  8
0
100
AcDbSpline
 62
9
  6
CONTINUOUS
 70
0
 71
3
 72
15
 73
11
 74
0
 42
0.0000001
 43
0.0000001
 44
0.0000000001
 40
0.0
 40
0.0
 40
0.0
 40
0.0
 40
0.1173458392
 40
0.2400940181
 40
0.3666605533
 40
0.4954814071
 40
0.624884109
 40
0.7531821268
 40
0.8787725099
 40
1.0
 40
1.0
 40
1.0
 40
1.0
 10
11.269392733
 20
4.7932379141
 30
0.0
 10
11.2699927458
 20
4.7932267264
 30
0.0
 10
11.2712198853
 20
4.7931638283
 30
0.0
 10
11.2730849239
 20
4.7929612666
 30
0.0
 10
11.2749945402
 20
4.7926507706
 30
0.0
 10
11.2769192784
 20
4.7922372397
 30
0.0
 10
11.2788297758
 20
4.7917268183
 30
0.0
 10
11.2806969496
 20
4.7911274205
 30
0.0
 10
11.2824919275
 20
4.7904481806
 30
0.0
 10
11.2836474015
 20
4.789938111
 30
0.0
 10
11.2842067768
 20
4.7896707911
 30
0.0
  0
SPLINE
  5
316
100
AcDbEntity
  8
0
100
AcDbSpline
 62
9
  6
CONTINUOUS
 70
0
 71
3
 72
15
 73
11
 74
0
 42
0.0000001
 43
0.0000001
 44
0.0000000001
 40
0.0
 40
0.0
 40
0.0
 40
0.0
 40
0.1172447529
 40
0.2399021804
 40
0.3663983519
 40
0.4951785434
 40
0.6245794883
 40
0.7529229938
 40
0.8786130201
 40
1.0
 40
1.0
 40
1.0
 40
1.0
 10
11.2443990676
 20
4.6968754317
 30
0.0
 10
11.2449970992
 20
4.6968647878
 30
0.0
 10
11.246220297
 20
4.6968031671
 30
0.0
 10
11.2480796078
 20
4.6966029974
 30
0.0
 10
11.2499838248
 20
4.6962953672
 30
0.0
 10
11.2519037227
 20
4.6958851062
 30
0.0
 10
11.2538101593
 20
4.6953782786
 30
0.0
 10
11.255674258
 20
4.6947827031
 30
0.0
 10
11.257467338
 20
4.6941074094
 30
0.0
 10
11.2586221056
 20
4.6936001783
 30
0.0
 10
11.2591813779
 20
4.693334293
 30
0.0
  0
SPLINE
  5
317
100
AcDbEntity
  8
0
100
AcDbSpline
 62
9
  6
CONTINUOUS
 70
0
 71
3
 72
28
 73
24
 74
0
 42
0.0000001
 43
0.0000001
 44
0.0000000001
 40
0.0
 40
0.0
 40
0.0
 40
0.0
 40
0.2333104765
 40
0.3400276656
 40
0.4390436225
 40
0.5297484559
 40
0.6119325773
 40
0.6854556012
 40
0.7502593814
 40
0.8064485792
 40
0.8542407193
 40
0.8750849651
 40
0.893966514
 40
0.9109543335
 40
0.9261229786
 40
0.9395664177
 40
0.951408748
 40
0.9617970672
 40
0.9709095241
 40
0.9789769301
 40
0.9862930032
 40
0.993189069
 40
1.0
 40
1.0
 40
1.0
 40
1.0
 10
12.7813643727
 20
4.6726194942
 30
0.0
 10
12.7825528065
 20
4.6702268392
 30
0.0
 10
12.7840910891
 20
4.666637503
 30
0.0
 10
12.7856656636
 20
4.6618613037
 30
0.0
 10
12.786550191
 20
4.6585822753
 30
0.0
 10
12.7871975107
 20
4.6555353386
 30
0.0
 10
12.7876363137
 20
4.6527467439
 30
0.0
 10
12.7878953344
 20
4.6502338557
 30
0.0
 10
12.7880017039
 20
4.6480078646
 30
0.0
 10
12.7879814007
 20
4.6460741658
 30
0.0
 10
12.787873553
 20
4.644647533
 30
0.0
 10
12.7877376358
 20
4.6436543901
 30
0.0
 10
12.7876212758
 20
4.6430152486
 30
0.0
 10
12.787487743
 20
4.6424460015
 30
0.0
 10
12.7873389135
 20
4.6419451519
 30
0.0
 10
12.7871763142
 20
4.641510921
 30
0.0
 10
12.7870009541
 20
4.6411413277
 30
0.0
 10
12.7868137334
 20
4.6408341961
 30
0.0
 10
12.7866152546
 20
4.6405873239
 30
0.0
 10
12.7864056701
 20
4.6403987238
 30
0.0
 10
12.7861851877
 20
4.6402667631
 30
0.0
 10
12.7859550237
 20
4.6401899751
 30
0.0
 10
12.7857974748
 20
4.6401741141
 30
0.0
 10
12.7857194855
 20
4.6401741125
 30
0.0
  0
SPLINE
  5
318
100
AcDbEntity
  8
0
100
AcDbSpline
 62
9
  6
CONTINUOUS
 70
0
 71
3
 72
28
 73
24
 74
0
 42
0.0000001
 43
0.0000001
 44
0.0000000001
 40
0.0
 40
0.0
 40
0.0
 40
0.0
 40
0.0119578096
 40
0.024446495
 40
0.0376792499
 40
0.0518341563
 40
0.0670549755
 40
0.0834546447
 40
0.1011209615
 40
0.1201213653
 40
0.1405049895
 40
0.1623077513
 40
0.2102595356
 40
0.2640993356
 40
0.3238465429
 40
0.3894500348
 40
0.4608117984
 40
0.5377916029
 40
0.6202168868
 40
0.7078831475
 40
0.8005714255
 40
0.8980448988
 40
1.0
 40
1.0
 40
1.0
 40
1.0
 10
12.2613893616
 20
4.8150263487
 30
0.0
 10
12.261375389
 20
4.8152452557
 30
0.0
 10
12.2613813141
 20
4.8156955795
 30
0.0
 10
12.2614881567
 20
4.8163804395
 30
0.0
 10
12.2616921662
 20
4.8170847457
 30
0.0
 10
12.261992687
 20
4.8178077861
 30
0.0
 10
12.2623891073
 20
4.8185493012
 30
0.0
 10
12.2628808641
 20
4.8193090476
 30
0.0
 10
12.2634675507
 20
4.8200867307
 30
0.0
 10
12.2641487809
 20
4.8208819309
 30
0.0
 10
12.2649240234
 20
4.821694241
 30
0.0
 10
12.2661207819
 20
4.8228359169
 30
0.0
 10
12.2678583764
 20
4.8242958108
 30
0.0
 10
12.2702446743
 20
4.8260550519
 30
0.0
 10
12.2729879258
 20
4.8278681171
 30
0.0
 10
12.2760801462
 20
4.8297296981
 30
0.0
 10
12.2795125282
 20
4.8316340444
 30
0.0
 10
12.2832748928
 20
4.8335754054
 30
0.0
 10
12.2873559741
 20
4.8355477394
 30
0.0
 10
12.2917435229
 20
4.8375450529
 30
0.0
 10
12.2964245259
 20
4.8395612832
 30
0.0
 10
12.3013844707
 20
4.8415900404
 30
0.0
 10
12.3047933625
 20
4.8429181565
 30
0.0
 10
12.3065411
 20
4.8435839268
 30
0.0
  0
SPLINE
  5
319
100
AcDbEntity
  8
0
100
AcDbSpline
 62
9
  6
CONTINUOUS
 70
0
 71
3
 72
54
 73
50
 74
0
 42
0.0000001
 43
0.0000001
 44
0.0000000001
 40
0.0
 40
0.0
 40
0.0
 40
0.0
 40
0.0675415487
 40
0.1351574138
 40
0.2028535795
 40
0.2706393467
 40
0.3045689715
 40
0.33852619
 40
0.3725126733
 40
0.4065310885
 40
0.440586056
 40
0.4746798729
 40
0.4917435842
 40
0.5088194732
 40
0.5259070616
 40
0.5430067279
 40
0.5601190407
 40
0.577241598
 40
0.5943647309
 40
0.6029207413
 40
0.6114678225
 40
0.6199927918
 40
0.6242418384
 40
0.6284783479
 40
0.6368808179
 40
0.6451345305
 40
0.6531610749
 40
0.6570688972
 40
0.6609026544
 40
0.6683686552
 40
0.6756197467
 40
0.6896658659
 40
0.7033228403
 40
0.7167265441
 40
0.7299571258
 40
0.7560901775
 40
0.7820683211
 40
0.7950728984
 40
0.8081103515
 40
0.8211967785
 40
0.8343472874
 40
0.8608803112
 40
0.8877970045
 40
0.9151473687
 40
0.9289958416
 40
0.9429611869
 40
0.9570453888
 40
0.97124776
 40
1.0
 40
1.0
 40
1.0
 40
1.0
 10
12.2613893614
 20
4.8150263505
 30
0.0
 10
12.2607299133
 20
4.8181108816
 30
0.0
 10
12.2593998419
 20
4.8242811098
 30
0.0
 10
12.2573698345
 20
4.8335344756
 30
0.0
 10
12.2553002296
 20
4.8427907579
 30
0.0
 10
12.2535390273
 20
4.8505039068
 30
0.0
 10
12.2521044607
 20
4.856675376
 30
0.0
 10
12.2510139986
 20
4.8613062802
 30
0.0
 10
12.2499079578
 20
4.8659377526
 30
0.0
 10
12.2487848362
 20
4.870569813
 30
0.0
 10
12.2476418481
 20
4.8752021765
 30
0.0
 10
12.2466713363
 20
4.8790615176
 30
0.0
 10
12.2458819403
 20
4.8821487424
 30
0.0
 10
12.2452824774
 20
4.8844647676
 30
0.0
 10
12.2446756328
 20
4.8867806056
 30
0.0
 10
12.2440609232
 20
4.8890961291
 30
0.0
 10
12.2434376765
 20
4.8914110614
 30
0.0
 10
12.2428059676
 20
4.8937248337
 30
0.0
 10
12.242274718
 20
4.895651813
 30
0.0
 10
12.2418508887
 20
4.8971929856
 30
0.0
 10
12.2415350754
 20
4.898347415
 30
0.0
 10
12.2412780838
 20
4.8993094045
 30
0.0
 10
12.2410800798
 20
4.9000787438
 30
0.0
 10
12.240889007
 20
4.9008439311
 30
0.0
 10
12.2406717079
 20
4.9017953468
 30
0.0
 10
12.2404672398
 20
4.9029303725
 30
0.0
 10
12.2403683144
 20
4.9038693108
 30
0.0
 10
12.2403456056
 20
4.9046056508
 30
0.0
 10
12.2403600585
 20
4.9053159753
 30
0.0
 10
12.2404417879
 20
4.9061798747
 30
0.0
 10
12.2406844953
 20
4.9075023259
 30
0.0
 10
12.2411562517
 20
4.9090705286
 30
0.0
 10
12.2419180794
 20
4.9108361354
 30
0.0
 10
12.2428313064
 20
4.9124845305
 30
0.0
 10
12.2442131793
 20
4.9145280654
 30
0.0
 10
12.2462274176
 20
4.9168375456
 30
0.0
 10
12.2485381759
 20
4.9188289305
 30
0.0
 10
12.2505248984
 20
4.9202293598
 30
0.0
 10
12.2520816438
 20
4.9211885046
 30
0.0
 10
12.2536987189
 20
4.9220562686
 30
0.0
 10
12.2559335349
 20
4.9230974497
 30
0.0
 10
12.2588529546
 20
4.9241867192
 30
0.0
 10
12.2625023374
 20
4.9251654626
 30
0.0
 10
12.2656393113
 20
4.9257175565
 30
0.0
 10
12.2681995781
 20
4.9260083688
 30
0.0
 10
12.2701513382
 20
4.9261535573
 30
0.0
 10
12.272123523
 20
4.9262285623
 30
0.0
 10
12.2747876063
 20
4.9262396673
 30
0.0
 10
12.276793354
 20
4.9261495193
 30
0.0
 10
12.2781323238
 20
4.9260488481
 30
0.0
  0
LINE
  5
31A
100
AcDbEntity
  8
0
100
AcDbLine
 62
9
  6
CONTINUOUS
 10
12.7121407573
 20
4.7896708002
 11
12.7622267944
 21
4.6933344041
  0
LINE
  5
31B
100
AcDbEntity
  8
0
100
AcDbLine
 62
9
  6
CONTINUOUS
 10
12.6986314224
 20
4.6822679812
 11
12.7622267944
 21
4.6933344041
  0
LINE
  5
31C
100
AcDbEntity
  8
0
100
AcDbLine
 62
9
  6
CONTINUOUS
 10
12.7121407573
 20
4.7896708002
 11
12.6575291096
 21
4.7606880045
  0
SPLINE
  5
31D
100
AcDbEntity
  8
0
100
AcDbSpline
 62
9
  6
CONTINUOUS
 70
0
 71
3
 72
52
 73
48
 74
0
 42
0.0000001
 43
0.0000001
 44
0.0000000001
 40
0.0
 40
0.0
 40
0.0
 40
0.0
 40
0.00259567
 40
0.0052525744
 40
0.0080808331
 40
0.0111800435
 40
0.014639156
 40
0.0185349802
 40
0.0229295481
 40
0.0278692133
 40
0.0333902334
 40
0.0395196641
 40
0.0462802573
 40
0.0536979809
 40
0.070617992
 40
0.0801787996
 40
0.0904964514
 40
0.1134618454
 40
0.1396465496
 40
0.154014788
 40
0.1692772597
 40
0.1854863627
 40
0.202734918
 40
0.2117962498
 40
0.2211690719
 40
0.2308360746
 40
0.2407149835
 40
0.2506880852
 40
0.2606826208
 40
0.2706730837
 40
0.2806572621
 40
0.3006146574
 40
0.3205687105
 40
0.3405248106
 40
0.3604849484
 40
0.4004171805
 40
0.440362193
 40
0.4803169929
 40
0.5202787919
 40
0.5602459232
 40
0.6002169318
 40
0.6401908419
 40
0.6801669056
 40
0.7601231668
 40
0.8400822395
 40
0.9200417522
 40
1.0
 40
1.0
 40
1.0
 40
1.0
 10
12.6427488561
 20
4.9260489276
 30
0.0
 10
12.6428459327
 20
4.9260994714
 30
0.0
 10
12.6430536093
 20
4.926181776
 30
0.0
 10
12.6433919576
 20
4.9262383211
 30
0.0
 10
12.6437558151
 20
4.9262268955
 30
0.0
 10
12.6441451037
 20
4.9261469678
 30
0.0
 10
12.6445607208
 20
4.9259962947
 30
0.0
 10
12.6450036975
 20
4.9257723135
 30
0.0
 10
12.6454752277
 20
4.9254729311
 30
0.0
 10
12.6459768158
 20
4.925096932
 30
0.0
 10
12.6465094773
 20
4.9246429292
 30
0.0
 10
12.6470741669
 20
4.9241098363
 30
0.0
 10
12.6476719113
 20
4.9234964223
 30
0.0
 10
12.6485529632
 20
4.9225249568
 30
0.0
 10
12.6494617256
 20
4.9214205885
 30
0.0
 10
12.6504066197
 20
4.9201898243
 30
0.0
 10
12.651477601
 20
4.9187348498
 30
0.0
 10
12.6529092776
 20
4.9166757677
 30
0.0
 10
12.6543790172
 20
4.9144364878
 30
0.0
 10
12.6556357536
 20
4.912446617
 30
0.0
 10
12.6566491822
 20
4.9108007114
 30
0.0
 10
12.6577056943
 20
4.9090388781
 30
0.0
 10
12.6586070109
 20
4.9074889923
 30
0.0
 10
12.6593439607
 20
4.9061772343
 30
0.0
 10
12.659910736
 20
4.9051366438
 30
0.0
 10
12.6604753347
 20
4.9040557828
 30
0.0
 10
12.6610287907
 20
4.90294084
 30
0.0
 10
12.6615686441
 20
4.9018039822
 30
0.0
 10
12.6620963759
 20
4.9006562899
 30
0.0
 10
12.6626134905
 20
4.8995032799
 30
0.0
 10
12.6632967055
 20
4.8979643866
 30
0.0
 10
12.6641419595
 20
4.8960377914
 30
0.0
 10
12.6651521484
 20
4.8937244172
 30
0.0
 10
12.6661599907
 20
4.891409892
 30
0.0
 10
12.6675036502
 20
4.8883228179
 30
0.0
 10
12.669184196
 20
4.8844631656
 30
0.0
 10
12.6712023785
 20
4.8798309977
 30
0.0
 10
12.6732240774
 20
4.8751990032
 30
0.0
 10
12.6752476649
 20
4.8705668157
 30
0.0
 10
12.6772743087
 20
4.8659352185
 30
0.0
 10
12.6793030135
 20
4.8613039663
 30
0.0
 10
12.681333823
 20
4.8566732252
 30
0.0
 10
12.6840446495
 20
4.850499722
 30
0.0
 10
12.6874375339
 20
4.842784358
 30
0.0
 10
12.6915162918
 20
4.8335288955
 30
0.0
 10
12.6956011192
 20
4.8242760186
 30
0.0
 10
12.6983284883
 20
4.818109274
 30
0.0
 10
12.6996930149
 20
4.8150263037
 30
0.0
  0
SPLINE
  5
31E
100
AcDbEntity
  8
0
100
AcDbSpline
 62
9
  6
CONTINUOUS
 70
0
 71
3
 72
23
 73
19
 74
0
 42
0.0000001
 43
0.0000001
 44
0.0000000001
 40
0.0
 40
0.0
 40
0.0
 40
0.0
 40
0.0890081906
 40
0.1752077439
 40
0.2583467077
 40
0.3382278351
 40
0.4146667134
 40
0.4874882737
 40
0.556541153
 40
0.6216975645
 40
0.6828587116
 40
0.7399561821
 40
0.7929639155
 40
0.8419029971
 40
0.8868566593
 40
0.9279909679
 40
0.9655756283
 40
1.0
 40
1.0
 40
1.0
 40
1.0
 10
12.6996930149
 20
4.8150263037
 30
0.0
 10
12.6976725297
 20
4.8154514286
 30
0.0
 10
12.6937034932
 20
4.8163278186
 30
0.0
 10
12.6878800941
 20
4.8177449284
 30
0.0
 10
12.6822951518
 20
4.8192404315
 30
0.0
 10
12.6769660119
 20
4.8208095561
 30
0.0
 10
12.6719085445
 20
4.8224475324
 30
0.0
 10
12.6671380049
 20
4.8241494268
 30
0.0
 10
12.6626688178
 20
4.8259099538
 30
0.0
 10
12.658514416
 20
4.8277238625
 30
0.0
 10
12.6546871371
 20
4.8295855272
 30
0.0
 10
12.6511983432
 20
4.8314895311
 30
0.0
 10
12.6480581966
 20
4.833430172
 30
0.0
 10
12.6452757724
 20
4.8354020355
 30
0.0
 10
12.6428589367
 20
4.8373997104
 30
0.0
 10
12.6408143539
 20
4.8394186815
 30
0.0
 10
12.6391487955
 20
4.84145398
 30
0.0
 10
12.6382597709
 20
4.8428757896
 30
0.0
 10
12.6378907008
 20
4.8435839268
 30
0.0
  0
SPLINE
  5
31F
100
AcDbEntity
  8
0
100
AcDbSpline
 62
9
  6
CONTINUOUS
 70
0
 71
3
 72
21
 73
17
 74
0
 42
0.0000001
 43
0.0000001
 44
0.0000000001
 40
0.0
 40
0.0
 40
0.0
 40
0.0
 40
0.0048248209
 40
0.0111878379
 40
0.0192572726
 40
0.0291102203
 40
0.0542957484
 40
0.0868610872
 40
0.126767668
 40
0.1739313137
 40
0.2282119206
 40
0.2894353997
 40
0.4318953107
 40
0.5993725464
 40
0.7896512397
 40
1.0
 40
1.0
 40
1.0
 40
1.0
 10
12.7056810384
 20
4.8188800925
 30
0.0
 10
12.7056792281
 20
4.8188687401
 30
0.0
 10
12.7056696939
 20
4.8188433824
 30
0.0
 10
12.705645445
 20
4.8188043387
 30
0.0
 10
12.7056093081
 20
4.8187590016
 30
0.0
 10
12.7055391337
 20
4.818683924
 30
0.0
 10
12.7054194148
 20
4.8185758203
 30
0.0
 10
12.7052381132
 20
4.8184299148
 30
0.0
 10
12.7050093277
 20
4.8182597783
 30
0.0
 10
12.7047338148
 20
4.818066037
 30
0.0
 10
12.7044124038
 20
4.8178494022
 30
0.0
 10
12.703897476
 20
4.817513764
 30
0.0
 10
12.7031474847
 20
4.8170450279
 30
0.0
 10
12.7021264449
 20
4.816430174
 30
0.0
 10
12.7009580299
 20
4.8157467146
 30
0.0
 10
12.7001292068
 20
4.8152731521
 30
0.0
 10
12.699693021
 20
4.8150263077
 30
0.0
  0
SPLINE
  5
320
100
AcDbEntity
  8
0
100
AcDbSpline
 62
9
  6
CONTINUOUS
 70
0
 71
3
 72
16
 73
12
 74
0
 42
0.0000001
 43
0.0000001
 44
0.0000000001
 40
0.0
 40
0.0
 40
0.0
 40
0.0
 40
0.1683899221
 40
0.3248792175
 40
0.4683017796
 40
0.5981500765
 40
0.7145280848
 40
0.8184893295
 40
0.9123527545
 40
0.9566980098
 40
1.0
 40
1.0
 40
1.0
 40
1.0
 10
12.2534060721
 20
4.8188800778
 30
0.0
 10
12.2539291055
 20
4.8188419295
 30
0.0
 10
12.2549362797
 20
4.8187354571
 30
0.0
 10
12.2563722672
 20
4.8184715165
 30
0.0
 10
12.2576637103
 20
4.8181119559
 30
0.0
 10
12.2587935578
 20
4.8176614861
 30
0.0
 10
12.2597474628
 20
4.8171244999
 30
0.0
 10
12.2605128494
 20
4.8165061858
 30
0.0
 10
12.2609920554
 20
4.8159138671
 30
0.0
 10
12.2612570519
 20
4.8154129464
 30
0.0
 10
12.2613517218
 20
4.8151558376
 30
0.0
 10
12.2613893636
 20
4.8150263406
 30
0.0
  0
SPLINE
  5
321
100
AcDbEntity
  8
0
100
AcDbSpline
 62
9
  6
CONTINUOUS
 70
0
 71
3
 72
18
 73
14
 74
0
 42
0.0000001
 43
0.0000001
 44
0.0000000001
 40
0.0
 40
0.0
 40
0.0
 40
0.0
 40
0.1728206288
 40
0.25437694
 40
0.332405247
 40
0.4774020725
 40
0.607327627
 40
0.7223786237
 40
0.8238873208
 40
0.8704793253
 40
0.9149248359
 40
0.9578616407
 40
1.0
 40
1.0
 40
1.0
 40
1.0
 10
12.2594762169
 20
4.7932379141
 30
0.0
 10
12.2599991129
 20
4.7932277873
 30
0.0
 10
12.260768769
 20
4.7931884604
 30
0.0
 10
12.2617689675
 20
4.7930790009
 30
0.0
 10
12.2626804519
 20
4.7929405716
 30
0.0
 10
12.2637253372
 20
4.7927104798
 30
0.0
 10
12.2648458097
 20
4.7923304068
 30
0.0
 10
12.265786068
 20
4.7918574852
 30
0.0
 10
12.266427269
 20
4.7913745318
 30
0.0
 10
12.266824265
 20
4.7909461364
 30
0.0
 10
12.2670601162
 20
4.7906148106
 30
0.0
 10
12.267241073
 20
4.7902656619
 30
0.0
 10
12.2673249211
 20
4.7900210407
 30
0.0
 10
12.2673570504
 20
4.7898976345
 30
0.0
  0
SPLINE
  5
322
100
AcDbEntity
  8
0
100
AcDbSpline
 62
9
  6
CONTINUOUS
 70
0
 71
3
 72
18
 73
14
 74
0
 42
0.0000001
 43
0.0000001
 44
0.0000000001
 40
0.0
 40
0.0
 40
0.0
 40
0.0
 40
0.1728577799
 40
0.2544341393
 40
0.3324824304
 40
0.477514978
 40
0.6074629637
 40
0.72251539
 40
0.8240002074
 40
0.8705714221
 40
0.9149908206
 40
0.957896639
 40
1.0
 40
1.0
 40
1.0
 40
1.0
 10
12.2845176689
 20
4.6968754317
 30
0.0
 10
12.2850420684
 20
4.696865755
 30
0.0
 10
12.2858139675
 20
4.6968270228
 30
0.0
 10
12.2868171432
 20
4.696718179
 30
0.0
 10
12.2877313935
 20
4.6965802086
 30
0.0
 10
12.2887794913
 20
4.6963504613
 30
0.0
 10
12.2899034703
 20
4.6959704321
 30
0.0
 10
12.2908466812
 20
4.6954971911
 30
0.0
 10
12.2914899202
 20
4.6950136233
 30
0.0
 10
12.291888141
 20
4.6945845472
 30
0.0
 10
12.2921246594
 20
4.6942526635
 30
0.0
 10
12.2923060902
 20
4.6939029018
 30
0.0
 10
12.2923901208
 20
4.6936578285
 30
0.0
 10
12.2924222999
 20
4.6935341968
 30
0.0
  0
SPLINE
  5
323
100
AcDbEntity
  8
0
100
AcDbSpline
 62
9
  6
CONTINUOUS
 70
0
 71
3
 72
27
 73
23
 74
0
 42
0.0000001
 43
0.0000001
 44
0.0000000001
 40
0.0
 40
0.0
 40
0.0
 40
0.0
 40
0.0068114092
 40
0.0137081298
 40
0.0210250865
 40
0.0290935343
 40
0.0382070675
 40
0.0485964535
 40
0.0604397506
 40
0.0738839671
 40
0.0890531676
 40
0.1060416185
 40
0.1249242669
 40
0.1457704875
 40
0.1935696471
 40
0.2497652577
 40
0.3145735652
 40
0.3881077102
 40
0.4703301439
 40
0.5610698523
 40
0.766616062
 40
1.0
 40
1.0
 40
1.0
 40
1.0
 10
10.6721651428
 20
4.6401741125
 30
0.0
 10
10.6720871542
 20
4.6401741144
 30
0.0
 10
10.6719296048
 20
4.6401899823
 30
0.0
 10
10.6716994437
 20
4.6402667926
 30
0.0
 10
10.6714789663
 20
4.6403987793
 30
0.0
 10
10.6712693874
 20
4.6405874028
 30
0.0
 10
10.671070913
 20
4.6408342924
 30
0.0
 10
10.6708836955
 20
4.6411414337
 30
0.0
 10
10.6707083373
 20
4.6415110272
 30
0.0
 10
10.6705457391
 20
4.6419452469
 30
0.0
 10
10.6703969083
 20
4.642446076
 30
0.0
 10
10.6702633721
 20
4.6430153012
 30
0.0
 10
10.6701470107
 20
4.6436544329
 30
0.0
 10
10.6700110983
 20
4.6446476124
 30
0.0
 10
10.66990328
 20
4.6460743098
 30
0.0
 10
10.6698829936
 20
4.648008059
 30
0.0
 10
10.6699893769
 20
4.6502341246
 30
0.0
 10
10.6702484114
 20
4.6527474246
 30
0.0
 10
10.6706875753
 20
4.6555367467
 30
0.0
 10
10.6715890568
 20
4.659777649
 30
0.0
 10
10.673346602
 20
4.6655952651
 30
0.0
 10
10.6753317325
 20
4.6702262094
 30
0.0
 10
10.6765203086
 20
4.6726194942
 30
0.0
  0
SPLINE
  5
324
100
AcDbEntity
  8
0
100
AcDbSpline
 62
9
  6
CONTINUOUS
 70
0
 71
3
 72
22
 73
18
 74
0
 42
0.0000001
 43
0.0000001
 44
0.0000000001
 40
0.0
 40
0.0
 40
0.0
 40
0.0
 40
0.068753412
 40
0.1378483087
 40
0.20666529
 40
0.2747305311
 40
0.3416734327
 40
0.4072836825
 40
0.4714628801
 40
0.5342090253
 40
0.5955995957
 40
0.6557655189
 40
0.7148651272
 40
0.7730718955
 40
0.8305516367
 40
0.8874631468
 40
1.0
 40
1.0
 40
1.0
 40
1.0
 10
11.1612509533
 20
4.6726194942
 30
0.0
 10
11.1603897006
 20
4.6713549001
 30
0.0
 10
11.1586063414
 20
4.6688575156
 30
0.0
 10
11.155774765
 20
4.6652316807
 30
0.0
 10
11.1527867841
 20
4.6617531867
 30
0.0
 10
11.1496541746
 20
4.6584696159
 30
0.0
 10
11.146389112
 20
4.6554209511
 30
0.0
 10
11.1430136865
 20
4.6526284965
 30
0.0
 10
11.1395427847
 20
4.6501110995
 30
0.0
 10
11.135989907
 20
4.6478824763
 30
0.0
 10
11.1323696712
 20
4.6459477545
 30
0.0
 10
11.1286956648
 20
4.6443071234
 30
0.0
 10
11.124980489
 20
4.6429573918
 30
0.0
 10
11.1212371878
 20
4.6418890866
 30
0.0
 10
11.117476973
 20
4.6410909215
 30
0.0
 10
11.1124763077
 20
4.6403676553
 30
0.0
 10
11.108699758
 20
4.6401741191
 30
0.0
 10
11.1061953966
 20
4.6401741125
 30
0.0
  0
SPLINE
  5
325
100
AcDbEntity
  8
0
100
AcDbSpline
 62
9
  6
CONTINUOUS
 70
0
 71
3
 72
21
 73
17
 74
0
 42
0.0000001
 43
0.0000001
 44
0.0000000001
 40
0.0
 40
0.0
 40
0.0
 40
0.0
 40
0.1286592002
 40
0.2566265173
 40
0.3839098215
 40
0.5103755127
 40
0.5732632208
 40
0.6358098185
 40
0.6979413412
 40
0.7595825729
 40
0.8206591503
 40
0.8509738688
 40
0.8811250265
 40
0.9111100843
 40
0.9409268744
 40
1.0
 40
1.0
 40
1.0
 40
1.0
 10
11.2949116368
 20
4.6401741125
 30
0.0
 10
11.2921137801
 20
4.6401741202
 30
0.0
 10
11.2865277514
 20
4.6404248185
 30
0.0
 10
11.2782627559
 20
4.6417439255
 30
0.0
 10
11.2702862501
 20
4.644138581
 30
0.0
 10
11.2640378164
 20
4.6471097952
 30
0.0
 10
11.2594264422
 20
4.6500779715
 30
0.0
 10
11.2562055799
 20
4.6525904625
 30
0.0
 10
11.2532590496
 20
4.6553811351
 30
0.0
 10
11.2506301863
 20
4.6584314568
 30
0.0
 10
11.2487353708
 20
4.6611762876
 30
0.0
 10
11.2474243917
 20
4.6634728092
 30
0.0
 10
11.2465508194
 20
4.6652364431
 30
0.0
 10
11.2457875112
 20
4.6670388925
 30
0.0
 10
11.2449233031
 20
4.6694762423
 30
0.0
 10
11.2444449678
 20
4.6713562431
 30
0.0
 10
11.2442116342
 20
4.6726194942
 30
0.0
  0
SPLINE
  5
326
100
AcDbEntity
  8
0
100
AcDbSpline
 62
9
  6
CONTINUOUS
 70
0
 71
3
 72
20
 73
16
 74
0
 42
0.0000001
 43
0.0000001
 44
0.0000000001
 40
0.0
 40
0.0
 40
0.0
 40
0.0
 40
0.0590672253
 40
0.1188331145
 40
0.1792762459
 40
0.2403540011
 40
0.3019913442
 40
0.364120052
 40
0.4266622592
 40
0.4895469155
 40
0.5527110625
 40
0.6161091478
 40
0.7433862222
 40
0.8713471968
 40
1.0
 40
1.0
 40
1.0
 40
1.0
 10
12.2136729686
 20
4.6726194942
 30
0.0
 10
12.2134400845
 20
4.6713562215
 30
0.0
 10
12.2127992306
 20
4.6688439322
 30
0.0
 10
12.21137794
 20
4.6652041533
 30
0.0
 10
12.2095205303
 20
4.6617165232
 30
0.0
 10
12.2072575794
 20
4.6584284959
 30
0.0
 10
12.2046261221
 20
4.6553797798
 30
0.0
 10
12.2016786794
 20
4.652590309
 30
0.0
 10
12.1984580459
 20
4.6500777917
 30
0.0
 10
12.1950048656
 20
4.6478552035
 30
0.0
 10
12.191358729
 20
4.6459264967
 30
0.0
 10
12.186282658
 20
4.6437442158
 30
0.0
 10
12.179620638
 20
4.6417433596
 30
0.0
 10
12.1713567001
 20
4.6404248484
 30
0.0
 10
12.1657704051
 20
4.6401741191
 30
0.0
 10
12.1629725394
 20
4.6401741125
 30
0.0
  0
SPLINE
  5
327
100
AcDbEntity
  8
0
100
AcDbSpline
 62
9
  6
CONTINUOUS
 70
0
 71
3
 72
24
 73
20
 74
0
 42
0.0000001
 43
0.0000001
 44
0.0000000001
 40
0.0
 40
0.0
 40
0.0
 40
0.0
 40
0.1125361725
 40
0.1694473355
 40
0.2269266588
 40
0.2851329181
 40
0.3442320873
 40
0.4043979238
 40
0.4657882233
 40
0.5285338905
 40
0.5927141459
 40
0.6583264065
 40
0.7252715122
 40
0.7933318019
 40
0.82767366
 40
0.8621495189
 40
0.8966971026
 40
0.9312487996
 40
1.0
 40
1.0
 40
1.0
 40
1.0
 10
12.3516888368
 20
4.6401741125
 30
0.0
 10
12.34918448
 20
4.6401741202
 30
0.0
 10
12.3454079394
 20
4.6403677281
 30
0.0
 10
12.3404072924
 20
4.641091035
 30
0.0
 10
12.3366470903
 20
4.6418891962
 30
0.0
 10
12.3329037857
 20
4.6429574348
 30
0.0
 10
12.329188605
 20
4.6443071454
 30
0.0
 10
12.3255146642
 20
4.6459479254
 30
0.0
 10
12.3218944693
 20
4.6478827144
 30
0.0
 10
12.3183415574
 20
4.6501113237
 30
0.0
 10
12.3148705495
 20
4.6526287121
 30
0.0
 10
12.311495779
 20
4.6554222762
 30
0.0
 10
12.3082324706
 20
4.6584726416
 30
0.0
 10
12.3056267963
 20
4.6611980756
 30
0.0
 10
12.3036097208
 20
4.6634809438
 30
0.0
 10
12.3021309902
 20
4.6652432541
 30
0.0
 10
12.3006919441
 20
4.6670440572
 30
0.0
 10
12.2988308566
 20
4.6694829327
 30
0.0
 10
12.297495148
 20
4.6713551047
 30
0.0
 10
12.2966336708
 20
4.6726194942
 30
0.0
  0
SPLINE
  5
328
100
AcDbEntity
  8
0
100
AcDbSpline
 62
9
  6
CONTINUOUS
 70
0
 71
3
 72
40
 73
36
 74
0
 42
0.0000001
 43
0.0000001
 44
0.0000000001
 40
0.0
 40
0.0
 40
0.0
 40
0.0
 40
0.0671661171
 40
0.1343063586
 40
0.2014106181
 40
0.2684647794
 40
0.3019668669
 40
0.3354476965
 40
0.3689025918
 40
0.4023249535
 40
0.4357059933
 40
0.4690320367
 40
0.5022819188
 40
0.5188674267
 40
0.5354172891
 40
0.551920487
 40
0.5683588015
 40
0.584701379
 40
0.6008917788
 40
0.6168281909
 40
0.6324035067
 40
0.6475788673
 40
0.6623937977
 40
0.6769080617
 40
0.6911778527
 40
0.7191560452
 40
0.7466783061
 40
0.7739910184
 40
0.8012832185
 40
0.8286982809
 40
0.8563419257
 40
0.8842948336
 40
0.9412867248
 40
0.9704294094
 40
1.0
 40
1.0
 40
1.0
 40
1.0
 10
12.2534060721
 20
4.8188800778
 30
0.0
 10
12.2527543472
 20
4.8219828544
 30
0.0
 10
12.2514536922
 20
4.8281877471
 30
0.0
 10
12.2495144807
 20
4.8374951888
 30
0.0
 10
12.2475922664
 20
4.8468007616
 30
0.0
 10
12.2460098215
 20
4.8545551384
 30
0.0
 10
12.2447607218
 20
4.8607576516
 30
0.0
 10
12.2438344834
 20
4.8654073259
 30
0.0
 10
12.2429207713
 20
4.870055645
 30
0.0
 10
12.2420229323
 20
4.8747022618
 30
0.0
 10
12.2411449577
 20
4.8793464916
 30
0.0
 10
12.2402936025
 20
4.8839874051
 30
0.0
 10
12.2396136089
 20
4.8878536447
 30
0.0
 10
12.2390964173
 20
4.8909443136
 30
0.0
 10
12.2387260798
 20
4.8932580074
 30
0.0
 10
12.2383779849
 20
4.8955681428
 30
0.0
 10
12.2380605608
 20
4.8978728644
 30
0.0
 10
12.2377880128
 20
4.900168547
 30
0.0
 10
12.2375841369
 20
4.9024479067
 30
0.0
 10
12.2375001299
 20
4.90469968
 30
0.0
 10
12.2375952446
 20
4.9069045197
 30
0.0
 10
12.2378962765
 20
4.9090376889
 30
0.0
 10
12.238386308
 20
4.9110835526
 30
0.0
 10
12.2390445059
 20
4.9130363579
 30
0.0
 10
12.240114013
 20
4.915495897
 30
0.0
 10
12.2417869952
 20
4.9183492722
 30
0.0
 10
12.2442415369
 20
4.9214072985
 30
0.0
 10
12.2470561542
 20
4.9240885881
 30
0.0
 10
12.2501716195
 20
4.9264019486
 30
0.0
 10
12.2535371665
 20
4.9283616026
 30
0.0
 10
12.257111536
 20
4.9299827543
 30
0.0
 10
12.2621415066
 20
4.9317175964
 30
0.0
 10
12.2674425795
 20
4.9328080268
 30
0.0
 10
12.2728812133
 20
4.9333330854
 30
0.0
 10
12.2756538969
 20
4.9334175402
 30
0.0
 10
12.2770497358
 20
4.9334176935
 30
0.0
  0
SPLINE
  5
329
100
AcDbEntity
  8
0
100
AcDbSpline
 62
9
  6
CONTINUOUS
 70
0
 71
3
 72
11
 73
7
 74
0
 42
0.0000001
 43
0.0000001
 44
0.0000000001
 40
0.0
 40
0.0
 40
0.0
 40
0.0
 40
0.2511968918
 40
0.5016504867
 40
0.7512918268
 40
1.0
 40
1.0
 40
1.0
 40
1.0
 10
12.2594762169
 20
4.7932379141
 30
0.0
 10
12.258921185
 20
4.7953735725
 30
0.0
 10
12.2578340281
 20
4.7996441308
 30
0.0
 10
12.2562724126
 20
4.8060564574
 30
0.0
 10
12.254788143
 20
4.8124647077
 30
0.0
 10
12.2538551782
 20
4.8167419949
 30
0.0
 10
12.2534060721
 20
4.8188800778
 30
0.0
  0
LINE
  5
32A
100
AcDbEntity
  8
0
100
AcDbLine
 62
9
  6
CONTINUOUS
 10
12.2845176689
 20
4.6968754317
 11
12.2594762169
 21
4.7932379141
  0
SPLINE
  5
32B
100
AcDbEntity
  8
0
100
AcDbSpline
 62
9
  6
CONTINUOUS
 70
0
 71
3
 72
12
 73
8
 74
0
 42
0.0000001
 43
0.0000001
 44
0.0000000001
 40
0.0
 40
0.0
 40
0.0
 40
0.0
 40
0.2572216269
 40
0.384504044
 40
0.510586257
 40
0.7584883082
 40
1.0
 40
1.0
 40
1.0
 40
1.0
 10
12.2966336304
 20
4.6726194942
 30
0.0
 10
12.2951914962
 20
4.6744624673
 30
0.0
 10
12.2931725814
 20
4.6773288519
 30
0.0
 10
12.2907933461
 20
4.6813201407
 30
0.0
 10
12.2886592801
 20
4.6853524881
 30
0.0
 10
12.2864206418
 20
4.6904961883
 30
0.0
 10
12.2850702839
 20
4.6947488359
 30
0.0
 10
12.2845176689
 20
4.6968754317
 30
0.0
  0
SPLINE
  5
32C
100
AcDbEntity
  8
0
100
AcDbSpline
 62
9
  6
CONTINUOUS
 70
0
 71
3
 72
28
 73
24
 74
0
 42
0.0000001
 43
0.0000001
 44
0.0000000001
 40
0.0
 40
0.0
 40
0.0
 40
0.0
 40
0.0107819525
 40
0.0223157635
 40
0.0347803347
 40
0.0483192083
 40
0.0630448166
 40
0.0790447104
 40
0.0963847297
 40
0.1151127891
 40
0.1352656385
 40
0.1568717045
 40
0.2045143363
 40
0.2581485289
 40
0.3178040334
 40
0.3834514236
 40
0.4550133626
 40
0.5323693967
 40
0.6153767977
 40
0.7038704142
 40
0.7976430093
 40
0.8964543501
 40
1.0
 40
1.0
 40
1.0
 40
1.0
 10
12.2927415202
 20
4.6921889501
 30
0.0
 10
12.2928163368
 20
4.6920207304
 30
0.0
 10
12.2929986425
 20
4.6916843229
 30
0.0
 10
12.2933504312
 20
4.691204023
 30
0.0
 10
12.2937877881
 20
4.6907337171
 30
0.0
 10
12.2943103833
 20
4.6902733893
 30
0.0
 10
12.2949182204
 20
4.6898228729
 30
0.0
 10
12.2956113221
 20
4.6893821964
 30
0.0
 10
12.2963896555
 20
4.6889514953
 30
0.0
 10
12.2972531048
 20
4.6885310524
 30
0.0
 10
12.2982014801
 20
4.6881211872
 30
0.0
 10
12.2996259471
 20
4.6875713483
 30
0.0
 10
12.3016222639
 20
4.6869203564
 30
0.0
 10
12.3042775369
 20
4.6862088826
 30
0.0
 10
12.3072610237
 20
4.6855460234
 30
0.0
 10
12.310566956
 20
4.6849338263
 30
0.0
 10
12.3141883622
 20
4.6843749237
 30
0.0
 10
12.318117043
 20
4.6838729338
 30
0.0
 10
12.3223434498
 20
4.6834290421
 30
0.0
 10
12.3268568113
 20
4.6830421223
 30
0.0
 10
12.3316454186
 20
4.6827150864
 30
0.0
 10
12.3366953543
 20
4.6824527104
 30
0.0
 10
12.3401483912
 20
4.682323195
 30
0.0
 10
12.3419156206
 20
4.6822680007
 30
0.0
  0
SPLINE
  5
32D
100
AcDbEntity
  8
0
100
AcDbSpline
 62
9
  6
CONTINUOUS
 70
0
 71
3
 72
23
 73
19
 74
0
 42
0.0000001
 43
0.0000001
 44
0.0000000001
 40
0.0
 40
0.0
 40
0.0
 40
0.0
 40
0.0443552547
 40
0.0895717096
 40
0.1362021402
 40
0.1847363106
 40
0.2355858133
 40
0.2890866683
 40
0.3455016089
 40
0.4050256367
 40
0.4677939047
 40
0.5338893463
 40
0.6033509437
 40
0.6761751342
 40
0.7523262158
 40
0.8317465988
 40
0.9143525425
 40
1.0
 40
1.0
 40
1.0
 40
1.0
 10
12.2681515876
 20
4.7866065575
 30
0.0
 10
12.2684333855
 20
4.7857359782
 30
0.0
 10
12.2691167721
 20
4.7840127675
 30
0.0
 10
12.2704746255
 20
4.7815451691
 30
0.0
 10
12.2721658335
 20
4.7791862383
 30
0.0
 10
12.2741842888
 20
4.7769427042
 30
0.0
 10
12.2765235017
 20
4.7748198002
 30
0.0
 10
12.2791765578
 20
4.7728226021
 30
0.0
 10
12.2821360022
 20
4.770955676
 30
0.0
 10
12.2853938297
 20
4.769223371
 30
0.0
 10
12.2889414149
 20
4.7676299074
 30
0.0
 10
12.2927693806
 20
4.7661791249
 30
0.0
 10
12.2968676475
 20
4.7648748222
 30
0.0
 10
12.3012252803
 20
4.7637201788
 30
0.0
 10
12.3058308249
 20
4.7627183264
 30
0.0
 10
12.310672265
 20
4.7618717712
 30
0.0
 10
12.3157362496
 20
4.7611830214
 30
0.0
 10
12.3191907348
 20
4.760836157
 30
0.0
 10
12.3209514238
 20
4.7606880045
 30
0.0
  0
SPLINE
  5
32E
100
AcDbEntity
  8
0
100
AcDbSpline
 62
9
  6
CONTINUOUS
 70
0
 71
3
 72
16
 73
12
 74
0
 42
0.0000001
 43
0.0000001
 44
0.0000000001
 40
0.0
 40
0.0
 40
0.0
 40
0.0
 40
0.2541382478
 40
0.3805028784
 40
0.5062509699
 40
0.5688627426
 40
0.6312687473
 40
0.6934498054
 40
0.7553839556
 40
0.8783840486
 40
1.0
 40
1.0
 40
1.0
 40
1.0
 10
11.1513435854
 20
4.8435839268
 30
0.0
 10
11.1528150284
 20
4.8508564711
 30
0.0
 10
11.1552732076
 20
4.8616974199
 30
0.0
 10
11.159168439
 20
4.8759574708
 30
0.0
 10
11.1618813612
 20
4.8847389486
 30
0.0
 10
11.1642378202
 20
4.891671227
 30
0.0
 10
11.1661013713
 20
4.8968096655
 30
0.0
 10
11.1680688462
 20
4.9018880891
 30
0.0
 10
11.1708323136
 20
4.9085533546
 30
0.0
 10
11.1745769415
 20
4.9166874258
 30
0.0
 10
11.1779576465
 20
4.9229858653
 30
0.0
 10
11.1797522119
 20
4.9260497357
 30
0.0
  0
SPLINE
  5
32F
100
AcDbEntity
  8
0
100
AcDbSpline
 62
9
  6
CONTINUOUS
 70
0
 71
3
 72
13
 73
9
 74
0
 42
0.0000001
 43
0.0000001
 44
0.0000000001
 40
0.0
 40
0.0
 40
0.0
 40
0.0
 40
0.1138347614
 40
0.2325106951
 40
0.3548932481
 40
0.4801622127
 40
0.7370896178
 40
1.0
 40
1.0
 40
1.0
 40
1.0
 10
10.8151347529
 20
4.9260497071
 30
0.0
 10
10.8153991175
 20
4.9229260585
 30
0.0
 10
10.8159104154
 20
4.9165434736
 30
0.0
 10
10.8166200368
 20
4.9067960473
 30
0.0
 10
10.8172889515
 20
4.8967301514
 30
0.0
 10
10.8181320192
 20
4.8828604458
 30
0.0
 10
10.8190725327
 20
4.8651199234
 30
0.0
 10
10.8197034069
 20
4.8508181979
 30
0.0
 10
10.8199939847
 20
4.8435839268
 30
0.0
  0
SPLINE
  5
330
100
AcDbEntity
  8
0
100
AcDbSpline
 62
9
  6
CONTINUOUS
 70
0
 71
3
 72
15
 73
11
 74
0
 42
0.0000001
 43
0.0000001
 44
0.0000000001
 40
0.0
 40
0.0
 40
0.0
 40
0.0
 40
0.094067869
 40
0.1934385792
 40
0.3009617917
 40
0.4185870527
 40
0.5473215512
 40
0.6874130075
 40
0.8385914471
 40
1.0
 40
1.0
 40
1.0
 40
1.0
 10
10.6765203067
 20
4.6726194944
 30
0.0
 10
10.6766770058
 20
4.6728737664
 30
0.0
 10
10.677064019
 20
4.6733590163
 30
0.0
 10
10.6778145982
 20
4.6739607898
 30
0.0
 10
10.6787311052
 20
4.6744432674
 30
0.0
 10
10.6797997893
 20
4.6748028322
 30
0.0
 10
10.6810073381
 20
4.6750369876
 30
0.0
 10
10.6823389573
 20
4.6751439706
 30
0.0
 10
10.683777911
 20
4.6751227015
 30
0.0
 10
10.6847668928
 20
4.6750263446
 30
0.0
 10
10.6852748833
 20
4.6749585489
 30
0.0
  0
SPLINE
  5
331
100
AcDbEntity
  8
0
100
AcDbSpline
 62
9
  6
CONTINUOUS
 70
0
 71
3
 72
15
 73
11
 74
0
 42
0.0000001
 43
0.0000001
 44
0.0000000001
 40
0.0
 40
0.0
 40
0.0
 40
0.0
 40
0.1253311328
 40
0.2505956685
 40
0.3757717391
 40
0.5008278762
 40
0.6257597088
 40
0.7505804831
 40
0.8753092166
 40
1.0
 40
1.0
 40
1.0
 40
1.0
 10
10.6721651428
 20
4.6401741125
 30
0.0
 10
10.672220308
 20
4.6411815369
 30
0.0
 10
10.672521502
 20
4.6431905719
 30
0.0
 10
10.6735291436
 20
4.6460610222
 30
0.0
 10
10.6750566395
 20
4.6486906142
 30
0.0
 10
10.6770496128
 20
4.6509837829
 30
0.0
 10
10.6794366024
 20
4.6528588337
 30
0.0
 10
10.6821326668
 20
4.6542482921
 30
0.0
 10
10.6850398322
 20
4.6551025591
 30
0.0
 10
10.6870529365
 20
4.6552946624
 30
0.0
 10
10.6880567152
 20
4.6552946624
 30
0.0
  0
SPLINE
  5
332
100
AcDbEntity
  8
0
100
AcDbSpline
 62
9
  6
CONTINUOUS
 70
0
 71
3
 72
22
 73
18
 74
0
 42
0.0000001
 43
0.0000001
 44
0.0000000001
 40
0.0
 40
0.0
 40
0.0
 40
0.0
 40
0.2155269336
 40
0.4080040815
 40
0.5752394405
 40
0.6488707085
 40
0.7156077009
 40
0.7752954496
 40
0.8278221212
 40
0.8731390885
 40
0.9112521181
 40
0.9422923866
 40
0.966625225
 40
0.9765360947
 40
0.9851769357
 40
0.9928542471
 40
1.0
 40
1.0
 40
1.0
 40
1.0
 10
11.1612509917
 20
4.6726195531
 30
0.0
 10
11.1609104173
 20
4.672841372
 30
0.0
 10
11.1602621916
 20
4.6732559714
 30
0.0
 10
11.15933607
 20
4.6738209905
 30
0.0
 10
11.1586271067
 20
4.6742277529
 30
0.0
 10
11.1581157666
 20
4.6745017402
 30
0.0
 10
11.1577792444
 20
4.6746723642
 30
0.0
 10
11.1574740887
 20
4.6748165829
 30
0.0
 10
11.1572011282
 20
4.674934033
 30
0.0
 10
11.1569611278
 20
4.6750245095
 30
0.0
 10
11.1567545437
 20
4.6750879647
 30
0.0
 10
11.1565818269
 20
4.6751243495
 30
0.0
 10
11.1564581411
 20
4.675133097
 30
0.0
 10
11.1563775888
 20
4.6751233808
 30
0.0
 10
11.1563298326
 20
4.6751094182
 30
0.0
 10
11.1562906078
 20
4.675088078
 30
0.0
 10
11.156270141
 20
4.6750684138
 30
0.0
 10
11.1562618765
 20
4.6750577702
 30
0.0
  0
SPLINE
  5
333
100
AcDbEntity
  8
0
100
AcDbSpline
 62
9
  6
CONTINUOUS
 70
0
 71
3
 72
18
 73
14
 74
0
 42
0.0000001
 43
0.0000001
 44
0.0000000001
 40
0.0
 40
0.0
 40
0.0
 40
0.0
 40
0.1728589871
 40
0.2544357983
 40
0.3324844291
 40
0.4775173056
 40
0.6074651583
 40
0.7225170508
 40
0.8240010914
 40
0.870571924
 40
0.9149910112
 40
0.9578966461
 40
1.0
 40
1.0
 40
1.0
 40
1.0
 10
11.1733671045
 20
4.6968755192
 30
0.0
 10
11.1728426988
 20
4.6968658433
 30
0.0
 10
11.172070791
 20
4.6968271119
 30
0.0
 10
11.1710676045
 20
4.696718268
 30
0.0
 10
11.1701533465
 20
4.696580297
 30
0.0
 10
11.1691052422
 20
4.6963505479
 30
0.0
 10
11.1679812598
 20
4.6959705141
 30
0.0
 10
11.1670380515
 20
4.6954972661
 30
0.0
 10
11.16639482
 20
4.6950136898
 30
0.0
 10
11.1659966095
 20
4.6945846062
 30
0.0
 10
11.1657601007
 20
4.6942527166
 30
0.0
 10
11.1655786813
 20
4.6939029486
 30
0.0
 10
11.1654946596
 20
4.6936578715
 30
0.0
 10
11.1654624852
 20
4.6935342379
 30
0.0
  0
SPLINE
  5
334
100
AcDbEntity
  8
0
100
AcDbSpline
 62
9
  6
CONTINUOUS
 70
0
 71
3
 72
23
 73
19
 74
0
 42
0.0000001
 43
0.0000001
 44
0.0000000001
 40
0.0
 40
0.0
 40
0.0
 40
0.0
 40
0.0345764493
 40
0.0684300711
 40
0.1020877046
 40
0.1363145609
 40
0.1721138742
 40
0.2106252315
 40
0.2530598071
 40
0.3006350758
 40
0.3545539523
 40
0.4159977918
 40
0.4861525907
 40
0.5661560525
 40
0.657050013
 40
0.7596255781
 40
0.8741556442
 40
1.0
 40
1.0
 40
1.0
 40
1.0
 10
10.6880567192
 20
4.6552946624
 30
0.0
 10
10.6877862091
 20
4.6552946634
 30
0.0
 10
10.6872501977
 20
4.6553216982
 30
0.0
 10
10.6864614783
 20
4.6554620609
 30
0.0
 10
10.6857038735
 20
4.6557168178
 30
0.0
 10
10.6849850207
 20
4.6561012338
 30
0.0
 10
10.6843141805
 20
4.656628958
 30
0.0
 10
10.6837021379
 20
4.6573128262
 30
0.0
 10
10.6831607801
 20
4.658165033
 30
0.0
 10
10.6827040033
 20
4.6591983909
 30
0.0
 10
10.6823493318
 20
4.6604264432
 30
0.0
 10
10.6821194751
 20
4.6618628719
 30
0.0
 10
10.6820424643
 20
4.6635197821
 30
0.0
 10
10.6821527409
 20
4.6654057005
 30
0.0
 10
10.6824894008
 20
4.6675219862
 30
0.0
 10
10.6830959741
 20
4.6698579083
 30
0.0
 10
10.6840150264
 20
4.6723825986
 30
0.0
 10
10.6848169478
 20
4.6740870054
 30
0.0
 10
10.6852748939
 20
4.674958567
 30
0.0
  0
SPLINE
  5
335
100
AcDbEntity
  8
0
100
AcDbSpline
 62
9
  6
CONTINUOUS
 70
0
 71
3
 72
11
 73
7
 74
0
 42
0.0000001
 43
0.0000001
 44
0.0000000001
 40
0.0
 40
0.0
 40
0.0
 40
0.0
 40
0.2367510924
 40
0.4855394835
 40
0.741416837
 40
1.0
 40
1.0
 40
1.0
 40
1.0
 10
10.6852748939
 20
4.674958567
 30
0.0
 10
10.6860498884
 20
4.6764331279
 30
0.0
 10
10.6876709449
 20
4.6794406096
 30
0.0
 10
10.6902142109
 20
4.6839955396
 30
0.0
 10
10.6928901951
 20
4.6886518144
 30
0.0
 10
10.6947271303
 20
4.6917709964
 30
0.0
 10
10.6956580395
 20
4.6933342419
 30
0.0
  0
SPLINE
  5
336
100
AcDbEntity
  8
0
100
AcDbSpline
 62
9
  6
CONTINUOUS
 70
0
 71
3
 72
15
 73
11
 74
0
 42
0.0000001
 43
0.0000001
 44
0.0000000001
 40
0.0
 40
0.0
 40
0.0
 40
0.0
 40
0.1198655254
 40
0.2418787509
 40
0.3656874088
 40
0.4909784269
 40
0.617408963
 40
0.7446281677
 40
0.8722945945
 40
1.0
 40
1.0
 40
1.0
 40
1.0
 10
11.1369332617
 20
4.7606880045
 30
0.0
 10
11.1379320942
 20
4.7639065539
 30
0.0
 10
11.1398337624
 20
4.7704372082
 30
0.0
 10
11.1423772673
 20
4.7804005818
 30
0.0
 10
11.1446305255
 20
4.7905898993
 30
0.0
 10
11.1465869092
 20
4.8009666416
 30
0.0
 10
11.1482414873
 20
4.8114927849
 30
0.0
 10
11.1495911679
 20
4.8221295785
 30
0.0
 10
11.1506427798
 20
4.8328357874
 30
0.0
 10
11.151144184
 20
4.8399990787
 30
0.0
 10
11.1513435854
 20
4.8435839268
 30
0.0
  0
SPLINE
  5
337
100
AcDbEntity
  8
0
100
AcDbSpline
 62
9
  6
CONTINUOUS
 70
0
 71
3
 72
14
 73
10
 74
0
 42
0.0000001
 43
0.0000001
 44
0.0000000001
 40
0.0
 40
0.0
 40
0.0
 40
0.0
 40
0.2561625463
 40
0.3854760918
 40
0.5140802807
 40
0.640852896
 40
0.7647228343
 40
0.8847462294
 40
1.0
 40
1.0
 40
1.0
 40
1.0
 10
11.2442115942
 20
4.6726194944
 30
0.0
 10
11.245307078
 20
4.6731285372
 30
0.0
 10
11.2470114679
 20
4.6737808877
 30
0.0
 10
11.2493502992
 20
4.6744227494
 30
0.0
 10
11.2511289199
 20
4.6747870225
 30
0.0
 10
11.2529024277
 20
4.6750275816
 30
0.0
 10
11.2546481808
 20
4.6751414931
 30
0.0
 10
11.2563432634
 20
4.6751270869
 30
0.0
 10
11.2574500162
 20
4.6750299747
 30
0.0
 10
11.2579888009
 20
4.6749585489
 30
0.0
  0
SPLINE
  5
338
100
AcDbEntity
  8
0
100
AcDbSpline
 62
9
  6
CONTINUOUS
 70
0
 71
3
 72
21
 73
17
 74
0
 42
0.0000001
 43
0.0000001
 44
0.0000000001
 40
0.0
 40
0.0
 40
0.0
 40
0.0
 40
0.1703774221
 40
0.3342217317
 40
0.4122443721
 40
0.4869352064
 40
0.5578227753
 40
0.6245019975
 40
0.6866574998
 40
0.7440720726
 40
0.7966720491
 40
0.8445527911
 40
0.8880371618
 40
0.9277460085
 40
0.9646450783
 40
1.0
 40
1.0
 40
1.0
 40
1.0
 10
11.2949116368
 20
4.6401741125
 30
0.0
 10
11.2949341139
 20
4.6411735149
 30
0.0
 10
11.2950530861
 20
4.6431331342
 30
0.0
 10
11.2953930676
 20
4.6455310359
 30
0.0
 10
11.2957789969
 20
4.6473484704
 30
0.0
 10
11.2961141211
 20
4.6486174819
 30
0.0
 10
11.2964964525
 20
4.6498034182
 30
0.0
 10
11.2969227552
 20
4.6508958112
 30
0.0
 10
11.297389105
 20
4.6518851716
 30
0.0
 10
11.2978916992
 20
4.6527628748
 30
0.0
 10
11.2984262733
 20
4.6535214746
 30
0.0
 10
11.2989888509
 20
4.6541544379
 30
0.0
 10
11.2995754485
 20
4.654656188
 30
0.0
 10
11.3001826332
 20
4.6550214237
 30
0.0
 10
11.3008056497
 20
4.6552441022
 30
0.0
 10
11.3012310529
 20
4.6552946624
 30
0.0
 10
11.3014384908
 20
4.6552946624
 30
0.0
  0
SPLINE
  5
339
100
AcDbEntity
  8
0
100
AcDbSpline
 62
9
  6
CONTINUOUS
 70
0
 71
3
 72
14
 73
10
 74
0
 42
0.0000001
 43
0.0000001
 44
0.0000000001
 40
0.0
 40
0.0
 40
0.0
 40
0.0
 40
0.2561622793
 40
0.3854749092
 40
0.5140781349
 40
0.6408500866
 40
0.7647199715
 40
0.8847442232
 40
1.0
 40
1.0
 40
1.0
 40
1.0
 10
12.2136729786
 20
4.6726195598
 30
0.0
 10
12.2125775411
 20
4.6731286764
 30
0.0
 10
12.2108731976
 20
4.6737811042
 30
0.0
 10
12.2085344071
 20
4.6744230054
 30
0.0
 10
12.2067558122
 20
4.6747872764
 30
0.0
 10
12.2049823221
 20
4.6750278056
 30
0.0
 10
12.2032365781
 20
4.6751416626
 30
0.0
 10
12.2015414958
 20
4.6751271791
 30
0.0
 10
12.2004347437
 20
4.675030001
 30
0.0
 10
12.1998959584
 20
4.6749585403
 30
0.0
  0
SPLINE
  5
33A
100
AcDbEntity
  8
0
100
AcDbSpline
 62
9
  6
CONTINUOUS
 70
0
 71
3
 72
15
 73
11
 74
0
 42
0.0000001
 43
0.0000001
 44
0.0000000001
 40
0.0
 40
0.0
 40
0.0
 40
0.0
 40
0.1172449697
 40
0.2399026942
 40
0.3663991709
 40
0.4951796013
 40
0.6245806452
 40
0.7529240359
 40
0.8786136986
 40
1.0
 40
1.0
 40
1.0
 40
1.0
 10
12.2134855997
 20
4.6968755192
 30
0.0
 10
12.2128875575
 20
4.6968648761
 30
0.0
 10
12.2116643379
 20
4.696803256
 30
0.0
 10
12.2098049936
 20
4.6966030842
 30
0.0
 10
12.2079007424
 20
4.6962954488
 30
0.0
 10
12.2059808114
 20
4.6958851797
 30
0.0
 10
12.2040743444
 20
4.6953783411
 30
0.0
 10
12.2022102198
 20
4.6947827522
 30
0.0
 10
12.2004171199
 20
4.6941074429
 30
0.0
 10
12.1992623418
 20
4.6936001994
 30
0.0
 10
12.1987030657
 20
4.6933343075
 30
0.0
  0
SPLINE
  5
33B
100
AcDbEntity
  8
0
100
AcDbSpline
 62
9
  6
CONTINUOUS
 70
0
 71
3
 72
20
 73
16
 74
0
 42
0.0000001
 43
0.0000001
 44
0.0000000001
 40
0.0
 40
0.0
 40
0.0
 40
0.0
 40
0.1309439339
 40
0.2611611255
 40
0.3904226831
 40
0.4546202339
 40
0.5184386087
 40
0.5817965777
 40
0.6445809228
 40
0.7066596412
 40
0.7678521566
 40
0.8279616829
 40
0.8867732614
 40
0.9441173103
 40
1.0
 40
1.0
 40
1.0
 40
1.0
 10
11.3014384956
 20
4.6552946624
 30
0.0
 10
11.2992196527
 20
4.6552946645
 30
0.0
 10
11.294792711
 20
4.6554061649
 30
0.0
 10
11.2881996184
 20
4.6560189893
 30
0.0
 10
11.2827925211
 20
4.6569937713
 30
0.0
 10
11.27857586
 20
4.6581090481
 30
0.0
 10
11.2754937544
 20
4.6591242987
 30
0.0
 10
11.2725080153
 20
4.6603341598
 30
0.0
 10
11.2696474822
 20
4.6617523935
 30
0.0
 10
11.2669491556
 20
4.663391372
 30
0.0
 10
11.2644596399
 20
4.6652605939
 30
0.0
 10
11.2622368959
 20
4.6673630135
 30
0.0
 10
11.2603503992
 20
4.6696921986
 30
0.0
 10
11.2588816022
 20
4.6722247665
 30
0.0
 10
11.2582213797
 20
4.6740406431
 30
0.0
 10
11.2579887973
 20
4.674958567
 30
0.0
  0
SPLINE
  5
33C
100
AcDbEntity
  8
0
100
AcDbSpline
 62
9
  6
CONTINUOUS
 70
0
 71
3
 72
11
 73
7
 74
0
 42
0.0000001
 43
0.0000001
 44
0.0000000001
 40
0.0
 40
0.0
 40
0.0
 40
0.0
 40
0.2391680152
 40
0.4851189448
 40
0.738722886
 40
1.0
 40
1.0
 40
1.0
 40
1.0
 10
11.2579887973
 20
4.674958567
 30
0.0
 10
11.2576238447
 20
4.6763997551
 30
0.0
 10
11.2571458009
 20
4.6793944382
 30
0.0
 10
11.2571507625
 20
4.6840025473
 30
0.0
 10
11.2578226479
 20
4.6886977557
 30
0.0
 10
11.258668661
 20
4.6917932237
 30
0.0
 10
11.2591814919
 20
4.6933342419
 30
0.0
  0
SPLINE
  5
33D
100
AcDbEntity
  8
0
100
AcDbSpline
 62
9
  6
CONTINUOUS
 70
0
 71
3
 72
11
 73
7
 74
0
 42
0.0000001
 43
0.0000001
 44
0.0000000001
 40
0.0
 40
0.0
 40
0.0
 40
0.0
 40
0.2612762126
 40
0.5148815637
 40
0.7608305981
 40
1.0
 40
1.0
 40
1.0
 40
1.0
 10
12.1987030611
 20
4.6933343238
 30
0.0
 10
12.1992159934
 20
4.6917933444
 30
0.0
 10
12.2000620842
 20
4.6886978737
 30
0.0
 10
12.2007337758
 20
4.6840026644
 30
0.0
 10
12.2007391339
 20
4.679394539
 30
0.0
 10
12.2002609078
 20
4.6763998826
 30
0.0
 10
12.1998960132
 20
4.6749586701
 30
0.0
  0
SPLINE
  5
33E
100
AcDbEntity
  8
0
100
AcDbSpline
 62
9
  6
CONTINUOUS
 70
0
 71
3
 72
20
 73
16
 74
0
 42
0.0000001
 43
0.0000001
 44
0.0000000001
 40
0.0
 40
0.0
 40
0.0
 40
0.0
 40
0.0558929273
 40
0.1132375658
 40
0.1720323299
 40
0.2321423171
 40
0.2933412337
 40
0.3554176466
 40
0.4182022432
 40
0.481561084
 40
0.5453794427
 40
0.6095770673
 40
0.7388397476
 40
0.8690561493
 40
1.0
 40
1.0
 40
1.0
 40
1.0
 10
12.1998960132
 20
4.6749586701
 30
0.0
 10
12.1996632866
 20
4.6740405945
 30
0.0
 10
12.1990018639
 20
4.672224898
 30
0.0
 10
12.1975330794
 20
4.669692624
 30
0.0
 10
12.1956484948
 20
4.6673621602
 30
0.0
 10
12.1934252847
 20
4.6652602932
 30
0.0
 10
12.1909354054
 20
4.6633914612
 30
0.0
 10
12.1882371321
 20
4.6617521955
 30
0.0
 10
12.1853765226
 20
4.6603340738
 30
0.0
 10
12.1823907182
 20
4.6591242542
 30
0.0
 10
12.1793085662
 20
4.6581089948
 30
0.0
 10
12.1750918408
 20
4.6569937194
 30
0.0
 10
12.1696846809
 20
4.6560189588
 30
0.0
 10
12.1630915228
 20
4.6554061017
 30
0.0
 10
12.1586645518
 20
4.6552946642
 30
0.0
 10
12.1564456893
 20
4.6552946624
 30
0.0
  0
SPLINE
  5
33F
100
AcDbEntity
  8
0
100
AcDbSpline
 62
9
  6
CONTINUOUS
 70
0
 71
3
 72
22
 73
18
 74
0
 42
0.0000001
 43
0.0000001
 44
0.0000000001
 40
0.0
 40
0.0
 40
0.0
 40
0.0
 40
0.2155334689
 40
0.4080165044
 40
0.5752567871
 40
0.6488900416
 40
0.7156286342
 40
0.7753175263
 40
0.8278447876
 40
0.8731616644
 40
0.9112737344
 40
0.9423118621
 40
0.9666408575
 40
0.976548906
 40
0.9851861909
 40
0.992859182
 40
1.0
 40
1.0
 40
1.0
 40
1.0
 10
12.2966336302
 20
4.6726194944
 30
0.0
 10
12.2969742414
 20
4.6728412781
 30
0.0
 10
12.2976225311
 20
4.6732558178
 30
0.0
 10
12.2985487274
 20
4.6738207731
 30
0.0
 10
12.299257734
 20
4.6742275048
 30
0.0
 10
12.2997690958
 20
4.6745014832
 30
0.0
 10
12.300105627
 20
4.6746721072
 30
0.0
 10
12.3004107859
 20
4.6748163323
 30
0.0
 10
12.3006837438
 20
4.6749337946
 30
0.0
 10
12.3009237358
 20
4.675024289
 30
0.0
 10
12.3011303057
 20
4.6750877675
 30
0.0
 10
12.3013030024
 20
4.6751241805
 30
0.0
 10
12.3014266683
 20
4.6751329591
 30
0.0
 10
12.3015072042
 20
4.6751232705
 30
0.0
 10
12.3015549454
 20
4.6751093291
 30
0.0
 10
12.3015941549
 20
4.6750880113
 30
0.0
 10
12.3016146117
 20
4.6750683615
 30
0.0
 10
12.3016228706
 20
4.6750577253
 30
0.0
  0
SPLINE
  5
340
100
AcDbEntity
  8
0
100
AcDbSpline
 62
9
  6
CONTINUOUS
 70
0
 71
3
 72
18
 73
14
 74
0
 42
0.0000001
 43
0.0000001
 44
0.0000000001
 40
0.0
 40
0.0
 40
0.0
 40
0.0
 40
0.1550746382
 40
0.3055004375
 40
0.4480787042
 40
0.5802446124
 40
0.7004762858
 40
0.7561147574
 40
0.8089102874
 40
0.8591694584
 40
0.9073566925
 40
0.9540789947
 40
1.0
 40
1.0
 40
1.0
 40
1.0
 10
12.3516888368
 20
4.6401741125
 30
0.0
 10
12.3516565321
 20
4.6411752469
 30
0.0
 10
12.3514843806
 20
4.6431459169
 30
0.0
 10
12.3509038855
 20
4.645987883
 30
0.0
 10
12.3500227567
 20
4.6485975804
 30
0.0
 10
12.3488707425
 20
4.6508842186
 30
0.0
 10
12.3476839519
 20
4.6524975451
 30
0.0
 10
12.3466297708
 20
4.6535359793
 30
0.0
 10
12.3458194229
 20
4.6541678714
 30
0.0
 10
12.3449761529
 20
4.6546668012
 30
0.0
 10
12.3441069574
 20
4.6550275832
 30
0.0
 10
12.3432202046
 20
4.6552456688
 30
0.0
 10
12.3426207304
 20
4.6552946624
 30
0.0
 10
12.3423241183
 20
4.6552946624
 30
0.0
  0
SPLINE
  5
341
100
AcDbEntity
  8
0
100
AcDbSpline
 62
9
  6
CONTINUOUS
 70
0
 71
3
 72
15
 73
11
 74
0
 42
0.0000001
 43
0.0000001
 44
0.0000000001
 40
0.0
 40
0.0
 40
0.0
 40
0.0
 40
0.0940799082
 40
0.1934578059
 40
0.3009838723
 40
0.4186084393
 40
0.5473396244
 40
0.6874259861
 40
0.8385982
 40
1.0
 40
1.0
 40
1.0
 40
1.0
 10
12.78136434
 20
4.6726195598
 30
0.0
 10
12.7812076198
 20
4.6728738635
 30
0.0
 10
12.7808205782
 20
4.6733591675
 30
0.0
 10
12.780069962
 20
4.6739610074
 30
0.0
 10
12.7791534379
 20
4.6744435175
 30
0.0
 10
12.7780847568
 20
4.6748030821
 30
0.0
 10
12.7768772313
 20
4.675037208
 30
0.0
 10
12.7755456542
 20
4.6751441363
 30
0.0
 10
12.774106759
 20
4.6751227895
 30
0.0
 10
12.7731178249
 20
4.6750263695
 30
0.0
 10
12.7726098608
 20
4.6749585403
 30
0.0
  0
LINE
  5
342
100
AcDbEntity
  8
0
100
AcDbLine
 62
9
  6
CONTINUOUS
 10
10.8003555759
 20
4.7606880045
 11
10.7592534569
 21
4.6822680174
  0
SPLINE
  5
343
100
AcDbEntity
  8
0
100
AcDbSpline
 62
9
  6
CONTINUOUS
 70
0
 71
3
 72
11
 73
7
 74
0
 42
0.0000001
 43
0.0000001
 44
0.0000000001
 40
0.0
 40
0.0
 40
0.0
 40
0.0
 40
0.2585830352
 40
0.5144598626
 40
0.7632495088
 40
1.0
 40
1.0
 40
1.0
 40
1.0
 10
12.7622264417
 20
4.6933343238
 30
0.0
 10
12.7631574508
 20
4.6917711292
 30
0.0
 10
12.7649944533
 20
4.6886519711
 30
0.0
 10
12.767670291
 20
4.683995581
 30
0.0
 10
12.7702138751
 20
4.6794407992
 30
0.0
 10
12.771834783
 20
4.6764332143
 30
0.0
 10
12.7726098166
 20
4.6749586701
 30
0.0
  0
SPLINE
  5
344
100
AcDbEntity
  8
0
100
AcDbSpline
 62
9
  6
CONTINUOUS
 70
0
 71
3
 72
24
 73
20
 74
0
 42
0.0000001
 43
0.0000001
 44
0.0000000001
 40
0.0
 40
0.0
 40
0.0
 40
0.0
 40
0.1258273711
 40
0.2403546932
 40
0.3429581053
 40
0.4338445028
 40
0.4751550282
 40
0.5138641036
 40
0.5840170091
 40
0.6454584294
 40
0.6993757739
 40
0.7469495819
 40
0.7893836965
 40
0.8278962643
 40
0.8636946142
 40
0.8979173271
 40
0.9315718199
 40
0.965425177
 40
1.0
 40
1.0
 40
1.0
 40
1.0
 10
12.7726098166
 20
4.6749586701
 30
0.0
 10
12.7730676507
 20
4.6740871676
 30
0.0
 10
12.7738684977
 20
4.6723823302
 30
0.0
 10
12.7747869845
 20
4.6698573901
 30
0.0
 10
12.7753966372
 20
4.6675221783
 30
0.0
 10
12.7756854356
 20
4.6657046422
 30
0.0
 10
12.7757923421
 20
4.6643712611
 30
0.0
 10
12.7758271555
 20
4.6631964804
 30
0.0
 10
12.7757654191
 20
4.661862714
 30
0.0
 10
12.7755354275
 20
4.6604263474
 30
0.0
 10
12.7751806088
 20
4.6591983394
 30
0.0
 10
12.7747238514
 20
4.6581649734
 30
0.0
 10
12.7741824538
 20
4.657312756
 30
0.0
 10
12.7735703198
 20
4.656628938
 30
0.0
 10
12.7728994958
 20
4.6561012141
 30
0.0
 10
12.7721807114
 20
4.6557167566
 30
0.0
 10
12.7714231383
 20
4.6554620062
 30
0.0
 10
12.7706344272
 20
4.6553216886
 30
0.0
 10
12.7700984159
 20
4.6552946633
 30
0.0
 10
12.7698279107
 20
4.6552946624
 30
0.0
  0
SPLINE
  5
345
100
AcDbEntity
  8
0
100
AcDbSpline
 62
9
  6
CONTINUOUS
 70
0
 71
3
 72
23
 73
19
 74
0
 42
0.0000001
 43
0.0000001
 44
0.0000000001
 40
0.0
 40
0.0
 40
0.0
 40
0.0
 40
0.0443551902
 40
0.089571595
 40
0.1362019896
 40
0.1847361365
 40
0.2355856275
 40
0.2890864806
 40
0.3455014267
 40
0.4050254654
 40
0.4677937484
 40
0.5338892079
 40
0.6033508256
 40
0.6761750383
 40
0.7523261432
 40
0.8317465503
 40
0.9143525183
 40
1.0
 40
1.0
 40
1.0
 40
1.0
 10
11.1897330981
 20
4.7866065601
 30
0.0
 10
11.1894513002
 20
4.7857359824
 30
0.0
 10
11.1887679136
 20
4.7840127746
 30
0.0
 10
11.1874100603
 20
4.7815451801
 30
0.0
 10
11.1857188525
 20
4.7791862527
 30
0.0
 10
11.1837003973
 20
4.7769427211
 30
0.0
 10
11.1813611844
 20
4.774819819
 30
0.0
 10
11.1787081283
 20
4.7728226219
 30
0.0
 10
11.175748684
 20
4.7709556964
 30
0.0
 10
11.1724908565
 20
4.7692233912
 30
0.0
 10
11.1689432712
 20
4.7676299269
 30
0.0
 10
11.1651153056
 20
4.7661791433
 30
0.0
 10
11.1610170386
 20
4.7648748389
 30
0.0
 10
11.1566594058
 20
4.7637201932
 30
0.0
 10
11.1520538611
 20
4.762718338
 30
0.0
 10
11.1472124209
 20
4.7618717795
 30
0.0
 10
11.1421484361
 20
4.7611830258
 30
0.0
 10
11.1386939508
 20
4.7608361585
 30
0.0
 10
11.1369332617
 20
4.7606880045
 30
0.0
  0
LINE
  5
346
100
AcDbEntity
  8
0
100
AcDbLine
 62
9
  6
CONTINUOUS
 10
11.1159691014
 20
4.6822680174
 11
11.1369332617
 21
4.7606880045
  0
SPLINE
  5
347
100
AcDbEntity
  8
0
100
AcDbSpline
 62
9
  6
CONTINUOUS
 70
0
 71
3
 72
16
 73
12
 74
0
 42
0.0000001
 43
0.0000001
 44
0.0000000001
 40
0.0
 40
0.0
 40
0.0
 40
0.0
 40
0.1255528866
 40
0.2509651873
 40
0.3136343634
 40
0.3762544598
 40
0.5012798367
 40
0.6261310128
 40
0.7508403177
 40
0.8754444249
 40
1.0
 40
1.0
 40
1.0
 40
1.0
 10
10.7592534462
 20
4.6822680174
 30
0.0
 10
10.7582212012
 20
4.6802508609
 30
0.0
 10
10.7558799184
 20
4.6763545408
 30
0.0
 10
10.7523181588
 20
4.671931867
 30
0.0
 10
10.7491339297
 20
4.6687130535
 30
0.0
 10
10.7457427657
 20
4.6657237695
 30
0.0
 10
10.7411366569
 20
4.662436141
 30
0.0
 10
10.7351299929
 20
4.6592890519
 30
0.0
 10
10.7287546082
 20
4.6569979453
 30
0.0
 10
10.7221314758
 20
4.655605917
 30
0.0
 10
10.7176285494
 20
4.6552946553
 30
0.0
 10
10.7153806161
 20
4.6552946624
 30
0.0
  0
SPLINE
  5
348
100
AcDbEntity
  8
0
100
AcDbSpline
 62
9
  6
CONTINUOUS
 70
0
 71
3
 72
20
 73
16
 74
0
 42
0.0000001
 43
0.0000001
 44
0.0000000001
 40
0.0
 40
0.0
 40
0.0
 40
0.0
 40
0.0517712561
 40
0.1039102273
 40
0.1567500673
 40
0.2106452239
 40
0.2659001789
 40
0.3227554545
 40
0.4419071553
 40
0.5045551589
 40
0.5693063693
 40
0.7050581372
 40
0.7760413154
 40
0.8489593398
 40
1.0
 40
1.0
 40
1.0
 40
1.0
 10
11.0882343729
 20
4.6552946624
 30
0.0
 10
11.0889463846
 20
4.6552946508
 30
0.0
 10
11.0903766711
 20
4.6553730426
 30
0.0
 10
11.0925076745
 20
4.6557242963
 30
0.0
 10
11.0946174513
 20
4.6563081415
 30
0.0
 10
11.0966957193
 20
4.6571209566
 30
0.0
 10
11.0987334489
 20
4.6581585223
 30
0.0
 10
11.1014245782
 20
4.6598606844
 30
0.0
 10
11.1039542676
 20
4.6619797273
 30
0.0
 10
11.106292347
 20
4.6644382293
 30
0.0
 10
11.1085936291
 20
4.6672351263
 30
0.0
 10
11.1106653123
 20
4.6703555915
 30
0.0
 10
11.1125053463
 20
4.6737345662
 30
0.0
 10
11.1142425328
 20
4.6774020544
 30
0.0
 10
11.1153311115
 20
4.6802911494
 30
0.0
 10
11.1159691014
 20
4.6822680174
 30
0.0
  0
SPLINE
  5
349
100
AcDbEntity
  8
0
100
AcDbSpline
 62
9
  6
CONTINUOUS
 70
0
 71
3
 72
11
 73
7
 74
0
 42
0.0000001
 43
0.0000001
 44
0.0000000001
 40
0.0
 40
0.0
 40
0.0
 40
0.0
 40
0.2612381048
 40
0.5149337023
 40
0.7609916889
 40
1.0
 40
1.0
 40
1.0
 40
1.0
 10
12.2134856225
 20
4.6968755446
 30
0.0
 10
12.2140218973
 20
4.6948077744
 30
0.0
 10
12.214859821
 20
4.6906703249
 30
0.0
 10
12.2153516846
 20
4.6844505348
 30
0.0
 10
12.2150203769
 20
4.678399842
 30
0.0
 10
12.214219769
 20
4.6744958921
 30
0.0
 10
12.2136731203
 20
4.6726194942
 30
0.0
  0
LINE
  5
34A
100
AcDbEntity
  8
0
100
AcDbLine
 62
9
  6
CONTINUOUS
 10
12.1884817289
 20
4.7932773779
 11
12.2134856225
 21
4.6968755446
  0
SPLINE
  5
34B
100
AcDbEntity
  8
0
100
AcDbSpline
 62
9
  6
CONTINUOUS
 70
0
 71
3
 72
18
 73
14
 74
0
 42
0.0000001
 43
0.0000001
 44
0.0000000001
 40
0.0
 40
0.0
 40
0.0
 40
0.0
 40
0.1550746253
 40
0.3055004199
 40
0.4480786892
 40
0.5802446054
 40
0.7004762888
 40
0.756114765
 40
0.8089102986
 40
0.8591694713
 40
0.9073567046
 40
0.9540790028
 40
1.0
 40
1.0
 40
1.0
 40
1.0
 10
11.1061953966
 20
4.6401741125
 30
0.0
 10
11.1062277019
 20
4.6411752469
 30
0.0
 10
11.1063998543
 20
4.6431459169
 30
0.0
 10
11.1069803508
 20
4.645987883
 30
0.0
 10
11.1078614808
 20
4.6485975805
 30
0.0
 10
11.1090134961
 20
4.6508842186
 30
0.0
 10
11.1102002874
 20
4.6524975451
 30
0.0
 10
11.111254469
 20
4.6535359793
 30
0.0
 10
11.1120648171
 20
4.6541678714
 30
0.0
 10
11.1129080872
 20
4.6546668011
 30
0.0
 10
11.1137772829
 20
4.6550275831
 30
0.0
 10
11.1146640357
 20
4.6552456688
 30
0.0
 10
11.1152635098
 20
4.6552946624
 30
0.0
 10
11.115560122
 20
4.6552946624
 30
0.0
  0
SPLINE
  5
34C
100
AcDbEntity
  8
0
100
AcDbSpline
 62
9
  6
CONTINUOUS
 70
0
 71
3
 72
16
 73
12
 74
0
 42
0.0000001
 43
0.0000001
 44
0.0000000001
 40
0.0
 40
0.0
 40
0.0
 40
0.0
 40
0.2517332206
 40
0.3773439395
 40
0.5027042068
 40
0.5652786813
 40
0.6277633273
 40
0.6901484496
 40
0.7524225008
 40
0.8765570566
 40
1.0
 40
1.0
 40
1.0
 40
1.0
 10
12.0602919435
 20
4.8435839268
 30
0.0
 10
12.0620589329
 20
4.8508706179
 30
0.0
 10
12.0650014482
 20
4.8617269194
 30
0.0
 10
12.0696181514
 20
4.8759727796
 30
0.0
 10
12.0728185173
 20
4.8847490656
 30
0.0
 10
12.0755856608
 20
4.8916760176
 30
0.0
 10
12.0777692952
 20
4.8968148175
 30
0.0
 10
12.0800676108
 20
4.9018936285
 30
0.0
 10
12.0832893343
 20
4.9085676902
 30
0.0
 10
12.087635421
 20
4.9167149467
 30
0.0
 10
12.0915125362
 20
4.9229956915
 30
0.0
 10
12.0935598007
 20
4.9260497357
 30
0.0
  0
SPLINE
  5
34D
100
AcDbEntity
  8
0
100
AcDbSpline
 62
9
  6
CONTINUOUS
 70
0
 71
3
 72
16
 73
12
 74
0
 42
0.0000001
 43
0.0000001
 44
0.0000000001
 40
0.0
 40
0.0
 40
0.0
 40
0.0
 40
0.1234429322
 40
0.2475775319
 40
0.309851573
 40
0.3722366887
 40
0.4347213385
 40
0.497295821
 40
0.6226560889
 40
0.7482667916
 40
1.0
 40
1.0
 40
1.0
 40
1.0
 10
11.3643248774
 20
4.9260497071
 30
0.0
 10
11.3663721903
 20
4.9229956974
 30
0.0
 10
11.3702492634
 20
4.9167149235
 30
0.0
 10
11.3745953208
 20
4.9085676572
 30
0.0
 10
11.377817048
 20
4.9018935989
 30
0.0
 10
11.3801153587
 20
4.8968147882
 30
0.0
 10
11.3822989843
 20
4.8916759865
 30
0.0
 10
11.3850661165
 20
4.8847490323
 30
0.0
 10
11.3882664825
 20
4.8759727502
 30
0.0
 10
11.3928832138
 20
4.861726906
 30
0.0
 10
11.3958257669
 20
4.8508706184
 30
0.0
 10
11.3975927419
 20
4.8435839268
 30
0.0
  0
SPLINE
  5
34E
100
AcDbEntity
  8
0
100
AcDbSpline
 62
9
  6
CONTINUOUS
 70
0
 71
3
 72
16
 73
12
 74
0
 42
0.0000001
 43
0.0000001
 44
0.0000000001
 40
0.0
 40
0.0
 40
0.0
 40
0.0
 40
0.1185158363
 40
0.2395371433
 40
0.362728192
 40
0.4877882273
 40
0.6143862818
 40
0.7421812078
 40
0.8064275985
 40
0.8708484479
 40
1.0
 40
1.0
 40
1.0
 40
1.0
 10
12.0655200285
 20
4.7606880045
 30
0.0
 10
12.0648580083
 20
4.7639116255
 30
0.0
 10
12.0636425906
 20
4.7704527788
 30
0.0
 10
12.0621561324
 20
4.7804165281
 30
0.0
 10
12.0609927923
 20
4.7906061281
 30
0.0
 10
12.060158862
 20
4.800983226
 30
0.0
 10
12.0596588766
 20
4.8115096538
 30
0.0
 10
12.0595254443
 20
4.8203581912
 30
0.0
 10
12.0595938106
 20
4.8274794896
 30
0.0
 10
12.0597812545
 20
4.834636274
 30
0.0
 10
12.0600533875
 20
4.8400056449
 30
0.0
 10
12.0602919435
 20
4.8435839268
 30
0.0
  0
SPLINE
  5
34F
100
AcDbEntity
  8
0
100
AcDbSpline
 62
9
  6
CONTINUOUS
 70
0
 71
3
 72
16
 73
12
 74
0
 42
0.0000001
 43
0.0000001
 44
0.0000000001
 40
0.0
 40
0.0
 40
0.0
 40
0.0
 40
0.129151552
 40
0.1935724015
 40
0.2578187922
 40
0.3856137181
 40
0.5122117729
 40
0.637271809
 40
0.7604628579
 40
0.8814841649
 40
1.0
 40
1.0
 40
1.0
 40
1.0
 10
11.3975927419
 20
4.8435839268
 30
0.0
 10
11.397831298
 20
4.8400056449
 30
0.0
 10
11.398103431
 20
4.834636274
 30
0.0
 10
11.398290875
 20
4.8274794896
 30
0.0
 10
11.3983592415
 20
4.8203581912
 30
0.0
 10
11.3982258098
 20
4.8115096538
 30
0.0
 10
11.397725824
 20
4.8009832259
 30
0.0
 10
11.396891893
 20
4.7906061281
 30
0.0
 10
11.3957285528
 20
4.7804165281
 30
0.0
 10
11.3942420943
 20
4.7704527788
 30
0.0
 10
11.3930266768
 20
4.7639116256
 30
0.0
 10
11.392364657
 20
4.7606880045
 30
0.0
  0
SPLINE
  5
350
100
AcDbEntity
  8
0
100
AcDbSpline
 62
9
  6
CONTINUOUS
 70
0
 71
3
 72
37
 73
33
 74
0
 42
0.0000001
 43
0.0000001
 44
0.0000000001
 40
0.0
 40
0.0
 40
0.0
 40
0.0
 40
0.08766343
 40
0.1745810298
 40
0.2600191851
 40
0.3432620205
 40
0.3838464373
 40
0.4236280108
 40
0.4625275323
 40
0.5004690426
 40
0.5373803167
 40
0.5731932874
 40
0.6078444704
 40
0.6412755228
 40
0.6734339794
 40
0.7042739052
 40
0.7337567106
 40
0.7618522434
 40
0.7885401512
 40
0.8138113361
 40
0.8376698791
 40
0.8601355521
 40
0.8812468272
 40
0.901064359
 40
0.9196751282
 40
0.9371969252
 40
0.9537822145
 40
0.9696202138
 40
0.9773323692
 40
0.9849445903
 40
0.992489306
 40
1.0
 40
1.0
 40
1.0
 40
1.0
 10
11.7289423427
 20
12.3353450207
 30
0.0
 10
11.7207730498
 20
12.3353450207
 30
0.0
 10
11.7045026371
 20
12.335072805
 30
0.0
 10
11.6802979743
 20
12.3338501046
 30
0.0
 10
11.6565602753
 20
12.3318254903
 30
0.0
 10
11.6371970868
 20
12.3294671792
 30
0.0
 10
11.6221214866
 20
12.3271845366
 30
0.0
 10
11.6111671594
 20
12.3253010772
 30
0.0
 10
11.6004962767
 20
12.3232363778
 30
0.0
 10
11.5901344555
 20
12.3209953803
 30
0.0
 10
11.5801065976
 20
12.3185835135
 30
0.0
 10
11.5704367723
 20
12.3160066079
 30
0.0
 10
11.5611481805
 20
12.3132708806
 30
0.0
 10
11.5522630893
 20
12.3103829123
 30
0.0
 10
11.5438027582
 20
12.3073496675
 30
0.0
 10
11.5357873942
 20
12.3041784373
 30
0.0
 10
11.5282361086
 20
12.3008768078
 30
0.0
 10
11.5211668574
 20
12.2974526332
 30
0.0
 10
11.5145963736
 20
12.2939140299
 30
0.0
 10
11.5085401503
 20
12.2902692867
 30
0.0
 10
11.5030124239
 20
12.286526801
 30
0.0
 10
11.4980261485
 20
12.282695024
 30
0.0
 10
11.4935930148
 20
12.2787823958
 30
0.0
 10
11.4897235753
 20
12.2747972038
 30
0.0
 10
11.486427451
 20
12.2707476369
 30
0.0
 10
11.4837135099
 20
12.2666416063
 30
0.0
 10
11.4815902859
 20
12.2624881171
 30
0.0
 10
11.4803084693
 20
12.2589621559
 30
0.0
 10
11.4795976292
 20
12.256144494
 30
0.0
 10
11.4792196827
 20
12.2540452782
 30
0.0
 10
11.4789928107
 20
12.2519434249
 30
0.0
 10
11.4789423557
 20
12.2505399012
 30
0.0
 10
11.4789423557
 20
12.2498399849
 30
0.0
  0
SPLINE
  5
351
100
AcDbEntity
  8
0
100
AcDbSpline
 62
9
  6
CONTINUOUS
 70
0
 71
3
 72
67
 73
63
 74
0
 42
0.0000001
 43
0.0000001
 44
0.0000000001
 40
0.0
 40
0.0
 40
0.0
 40
0.0
 40
0.0037550413
 40
0.0075275415
 40
0.0113338329
 40
0.0151899389
 40
0.0231088376
 40
0.0314014919
 40
0.0401624065
 40
0.049467796
 40
0.0593765471
 40
0.0699321749
 40
0.0811650275
 40
0.0930943015
 40
0.1057298777
 40
0.1190738285
 40
0.1331216138
 40
0.1478630154
 40
0.1632829652
 40
0.1793621939
 40
0.1960777355
 40
0.2134033243
 40
0.2313098026
 40
0.2497654432
 40
0.2687362085
 40
0.2881859673
 40
0.3080767518
 40
0.3283689655
 40
0.3699903842
 40
0.4127094655
 40
0.4561685222
 40
0.5
 40
0.5438314778
 40
0.5872905345
 40
0.6300096158
 40
0.6716310345
 40
0.6919232482
 40
0.7118140327
 40
0.7312637915
 40
0.7502345568
 40
0.7686901974
 40
0.7865966757
 40
0.8039222645
 40
0.8206378061
 40
0.8367170348
 40
0.8521369846
 40
0.8668783862
 40
0.8809261715
 40
0.8942701223
 40
0.9069056985
 40
0.9188349725
 40
0.9300678251
 40
0.9406234529
 40
0.950532204
 40
0.9598375935
 40
0.9685985081
 40
0.9768911624
 40
0.9848100611
 40
0.9886661671
 40
0.9924724585
 40
0.9962449587
 40
1.0
 40
1.0
 40
1.0
 40
1.0
 10
11.9989423423
 20
11.2067811758
 30
0.0
 10
11.9989423423
 20
11.2075370239
 30
0.0
 10
11.9988878052
 20
11.2090527949
 30
0.0
 10
11.9986428147
 20
11.2113228009
 30
0.0
 10
11.998234667
 20
11.2135900338
 30
0.0
 10
11.9974669082
 20
11.2166331189
 30
0.0
 10
11.996082564
 20
11.2204411458
 30
0.0
 10
11.9937895123
 20
11.2249269149
 30
0.0
 10
11.9908584344
 20
11.229361422
 30
0.0
 10
11.9872986127
 20
11.2337349484
 30
0.0
 10
11.9831196372
 20
11.2380389684
 30
0.0
 10
11.9783318589
 20
11.2422646123
 30
0.0
 10
11.9729466694
 20
11.2464029188
 30
0.0
 10
11.9669767247
 20
11.2504448032
 30
0.0
 10
11.9604360138
 20
11.2543811361
 30
0.0
 10
11.9533398934
 20
11.258202832
 30
0.0
 10
11.9457050932
 20
11.2619009291
 30
0.0
 10
11.9375497055
 20
11.2654666921
 30
0.0
 10
11.9288931183
 20
11.2688916284
 30
0.0
 10
11.9197559607
 20
11.272167535
 30
0.0
 10
11.9101600564
 20
11.2752865313
 30
0.0
 10
11.9001283776
 20
11.2782411214
 30
0.0
 10
11.889684969
 20
11.2810241849
 30
0.0
 10
11.8788548812
 20
11.2836290014
 30
0.0
 10
11.8676641104
 20
11.2860492723
 30
0.0
 10
11.8561395569
 20
11.2882791519
 30
0.0
 10
11.8443088836
 20
11.2903132919
 30
0.0
 10
11.828027236
 20
11.2927785433
 30
0.0
 10
11.8071149758
 20
11.29532552
 30
0.0
 10
11.7814782723
 20
11.2975121116
 30
0.0
 10
11.7553369891
 20
11.2988326141
 30
0.0
 10
11.7289423428
 20
11.2992742417
 30
0.0
 10
11.7025476964
 20
11.2988326141
 30
0.0
 10
11.6764064132
 20
11.2975121116
 30
0.0
 10
11.6507697097
 20
11.29532552
 30
0.0
 10
11.6298574495
 20
11.2927785433
 30
0.0
 10
11.6135758019
 20
11.2903132919
 30
0.0
 10
11.6017451286
 20
11.2882791519
 30
0.0
 10
11.5902205751
 20
11.2860492723
 30
0.0
 10
11.5790298043
 20
11.2836290014
 30
0.0
 10
11.5681997165
 20
11.2810241849
 30
0.0
 10
11.5577563079
 20
11.2782411214
 30
0.0
 10
11.5477246291
 20
11.2752865313
 30
0.0
 10
11.5381287248
 20
11.272167535
 30
0.0
 10
11.5289915672
 20
11.2688916284
 30
0.0
 10
11.5203349801
 20
11.2654666921
 30
0.0
 10
11.5121795923
 20
11.2619009291
 30
0.0
 10
11.5045447921
 20
11.258202832
 30
0.0
 10
11.4974486718
 20
11.2543811361
 30
0.0
 10
11.4909079608
 20
11.2504448032
 30
0.0
 10
11.4849380161
 20
11.2464029188
 30
0.0
 10
11.4795528266
 20
11.2422646123
 30
0.0
 10
11.4747650483
 20
11.2380389684
 30
0.0
 10
11.4705860728
 20
11.2337349484
 30
0.0
 10
11.4670262511
 20
11.229361422
 30
0.0
 10
11.4640951732
 20
11.2249269149
 30
0.0
 10
11.4618021215
 20
11.2204411458
 30
0.0
 10
11.4604177773
 20
11.2166331189
 30
0.0
 10
11.4596500185
 20
11.2135900338
 30
0.0
 10
11.4592418708
 20
11.2113228009
 30
0.0
 10
11.4589968803
 20
11.2090527949
 30
0.0
 10
11.4589423432
 20
11.2075370239
 30
0.0
 10
11.4589423432
 20
11.2067811758
 30
0.0
  0
SPLINE
  5
352
100
AcDbEntity
  8
0
100
AcDbSpline
 62
9
  6
CONTINUOUS
 70
0
 71
3
 72
67
 73
63
 74
0
 42
0.0000001
 43
0.0000001
 44
0.0000000001
 40
0.0
 40
0.0
 40
0.0
 40
0.0
 40
0.0037550446
 40
0.0075275534
 40
0.0113338561
 40
0.0151899697
 40
0.0231088716
 40
0.0314015272
 40
0.0401624414
 40
0.0494678294
 40
0.0593765809
 40
0.0699322112
 40
0.0811650665
 40
0.0930943413
 40
0.1057299171
 40
0.1190738674
 40
0.1331216525
 40
0.1478630537
 40
0.163283003
 40
0.1793622314
 40
0.196077772
 40
0.2134033593
 40
0.2313098359
 40
0.2497654751
 40
0.2687362387
 40
0.2881859954
 40
0.3080767777
 40
0.3283689891
 40
0.3699904025
 40
0.412709478
 40
0.4561685284
 40
0.5
 40
0.5438314716
 40
0.587290522
 40
0.6300095975
 40
0.6716310109
 40
0.6919232223
 40
0.7118140046
 40
0.7312637613
 40
0.7502345249
 40
0.7686901641
 40
0.7865966407
 40
0.803922228
 40
0.8206377686
 40
0.836716997
 40
0.8521369463
 40
0.8668783475
 40
0.8809261326
 40
0.8942700829
 40
0.9069056587
 40
0.9188349335
 40
0.9300677888
 40
0.9406234191
 40
0.9505321706
 40
0.9598375586
 40
0.9685984728
 40
0.9768911284
 40
0.9848100303
 40
0.9886661439
 40
0.9924724466
 40
0.9962449554
 40
1.0
 40
1.0
 40
1.0
 40
1.0
 10
12.0142614903
 20
11.2081723223
 30
0.0
 10
12.0142614903
 20
11.208971056
 30
0.0
 10
12.0142038582
 20
11.2105728308
 30
0.0
 10
12.0139449657
 20
11.2129716362
 30
0.0
 10
12.0135136608
 20
11.2153675123
 30
0.0
 10
12.0127023381
 20
11.2185832589
 30
0.0
 10
12.0112394471
 20
11.2226073458
 30
0.0
 10
12.0088162897
 20
11.2273476258
 30
0.0
 10
12.0057189076
 20
11.2320337347
 30
0.0
 10
12.0019571091
 20
11.236655403
 30
0.0
 10
11.9975410273
 20
11.2412036219
 30
0.0
 10
11.9924815999
 20
11.245669018
 30
0.0
 10
11.9867908655
 20
11.2500421214
 30
0.0
 10
11.9804821995
 20
11.2543133319
 30
0.0
 10
11.9735703839
 20
11.258473002
 30
0.0
 10
11.9660716463
 20
11.2625115303
 30
0.0
 10
11.9580036657
 20
11.2664194473
 30
0.0
 10
11.9493855609
 20
11.2701875224
 30
0.0
 10
11.9402378198
 20
11.2738067806
 30
0.0
 10
11.9305822421
 20
11.2772685532
 30
0.0
 10
11.9204418897
 20
11.280564513
 30
0.0
 10
11.9098410384
 20
11.2836867386
 30
0.0
 10
11.8988050968
 20
11.2866277057
 30
0.0
 10
11.8873605368
 20
11.2893803124
 30
0.0
 10
11.8755348297
 20
11.2919379029
 30
0.0
 10
11.863356402
 20
11.2942942999
 30
0.0
 10
11.8508544863
 20
11.2964438515
 30
0.0
 10
11.8336490593
 20
11.2990489746
 30
0.0
 10
11.8115502907
 20
11.3017404598
 30
0.0
 10
11.7844590262
 20
11.3040511127
 30
0.0
 10
11.7568345537
 20
11.3054465369
 30
0.0
 10
11.7289423428
 20
11.3059132213
 30
0.0
 10
11.7010501319
 20
11.3054465369
 30
0.0
 10
11.6734256593
 20
11.3040511127
 30
0.0
 10
11.6463343948
 20
11.3017404598
 30
0.0
 10
11.6242356263
 20
11.2990489746
 30
0.0
 10
11.6070301992
 20
11.2964438515
 30
0.0
 10
11.5945282835
 20
11.2942942999
 30
0.0
 10
11.5823498558
 20
11.2919379029
 30
0.0
 10
11.5705241487
 20
11.2893803124
 30
0.0
 10
11.5590795888
 20
11.2866277057
 30
0.0
 10
11.5480436471
 20
11.2836867386
 30
0.0
 10
11.5374427958
 20
11.280564513
 30
0.0
 10
11.5273024434
 20
11.2772685532
 30
0.0
 10
11.5176468657
 20
11.2738067806
 30
0.0
 10
11.5084991246
 20
11.2701875224
 30
0.0
 10
11.4998810198
 20
11.2664194473
 30
0.0
 10
11.4918130392
 20
11.2625115303
 30
0.0
 10
11.4843143017
 20
11.258473002
 30
0.0
 10
11.477402486
 20
11.2543133319
 30
0.0
 10
11.47109382
 20
11.2500421214
 30
0.0
 10
11.4654030856
 20
11.245669018
 30
0.0
 10
11.4603436582
 20
11.2412036219
 30
0.0
 10
11.4559275764
 20
11.236655403
 30
0.0
 10
11.4521657779
 20
11.2320337347
 30
0.0
 10
11.4490683958
 20
11.2273476258
 30
0.0
 10
11.4466452385
 20
11.2226073458
 30
0.0
 10
11.4451823474
 20
11.2185832589
 30
0.0
 10
11.4443710247
 20
11.2153675123
 30
0.0
 10
11.4439397198
 20
11.2129716362
 30
0.0
 10
11.4436808274
 20
11.2105728308
 30
0.0
 10
11.4436231952
 20
11.208971056
 30
0.0
 10
11.4436231952
 20
11.2081723223
 30
0.0
  0
LINE
  5
353
100
AcDbEntity
  8
0
100
AcDbLine
 62
9
  6
CONTINUOUS
 10
11.392364657
 20
4.7606880045
 11
11.3722266981
 21
4.6822680174
  0
SPLINE
  5
354
100
AcDbEntity
  8
0
100
AcDbSpline
 62
9
  6
CONTINUOUS
 70
0
 71
3
 72
67
 73
63
 74
0
 42
0.0000001
 43
0.0000001
 44
0.0000000001
 40
0.0
 40
0.0
 40
0.0
 40
0.0
 40
0.0037550446
 40
0.0075275534
 40
0.0113338561
 40
0.0151899697
 40
0.0231088716
 40
0.0314015272
 40
0.0401624414
 40
0.0494678294
 40
0.0593765809
 40
0.0699322112
 40
0.0811650665
 40
0.0930943413
 40
0.1057299171
 40
0.1190738674
 40
0.1331216525
 40
0.1478630537
 40
0.163283003
 40
0.1793622314
 40
0.196077772
 40
0.2134033593
 40
0.2313098359
 40
0.2497654751
 40
0.2687362387
 40
0.2881859954
 40
0.3080767777
 40
0.3283689891
 40
0.3699904025
 40
0.412709478
 40
0.4561685284
 40
0.5
 40
0.5438314716
 40
0.587290522
 40
0.6300095975
 40
0.6716310109
 40
0.6919232223
 40
0.7118140046
 40
0.7312637613
 40
0.7502345249
 40
0.7686901641
 40
0.7865966407
 40
0.803922228
 40
0.8206377686
 40
0.836716997
 40
0.8521369463
 40
0.8668783475
 40
0.8809261326
 40
0.8942700829
 40
0.9069056587
 40
0.9188349335
 40
0.9300677888
 40
0.9406234191
 40
0.9505321706
 40
0.9598375586
 40
0.9685984728
 40
0.9768911284
 40
0.9848100303
 40
0.9886661439
 40
0.9924724466
 40
0.9962449554
 40
1.0
 40
1.0
 40
1.0
 40
1.0
 10
12.0123697315
 20
11.361745654
 30
0.0
 10
12.0123697315
 20
11.3625390918
 30
0.0
 10
12.0123124815
 20
11.3641302463
 30
0.0
 10
12.0120553056
 20
11.3665131469
 30
0.0
 10
12.0116268604
 20
11.3688931376
 30
0.0
 10
12.010820917
 20
11.3720875627
 30
0.0
 10
12.0093677254
 20
11.3760849686
 30
0.0
 10
12.0069606344
 20
11.380793819
 30
0.0
 10
12.0038837889
 20
11.3854488575
 30
0.0
 10
12.0001469323
 20
11.3900398826
 30
0.0
 10
11.9957601306
 20
11.3945579453
 30
0.0
 10
11.9907342488
 20
11.3989937344
 30
0.0
 10
11.9850812459
 20
11.4033378427
 30
0.0
 10
11.9788144084
 20
11.4075807337
 30
0.0
 10
11.9719484203
 20
11.4117128238
 30
0.0
 10
11.9644994019
 20
11.4157245754
 30
0.0
 10
11.9564849146
 20
11.4196065816
 30
0.0
 10
11.9479239506
 20
11.4233496732
 30
0.0
 10
11.9388368621
 20
11.4269449345
 30
0.0
 10
11.9292453039
 20
11.4303837544
 30
0.0
 10
11.9191721854
 20
11.4336578609
 30
0.0
 10
11.9086416212
 20
11.4367593851
 30
0.0
 10
11.8976788514
 20
11.4396808527
 30
0.0
 10
11.8863101726
 20
11.4424152087
 30
0.0
 10
11.8745628738
 20
11.4449558415
 30
0.0
 10
11.8624651931
 20
11.4472966149
 30
0.0
 10
11.8500461691
 20
11.4494319143
 30
0.0
 10
11.8329548196
 20
11.4520197645
 30
0.0
 10
11.8110025731
 20
11.4546934043
 30
0.0
 10
11.7840909325
 20
11.4569887368
 30
0.0
 10
11.7566496192
 20
11.4583749089
 30
0.0
 10
11.7289423428
 20
11.458838499
 30
0.0
 10
11.7012350663
 20
11.4583749089
 30
0.0
 10
11.673793753
 20
11.4569887368
 30
0.0
 10
11.6468821124
 20
11.4546934043
 30
0.0
 10
11.6249298659
 20
11.4520197645
 30
0.0
 10
11.6078385164
 20
11.4494319143
 30
0.0
 10
11.5954194924
 20
11.4472966149
 30
0.0
 10
11.5833218117
 20
11.4449558415
 30
0.0
 10
11.5715745129
 20
11.4424152087
 30
0.0
 10
11.5602058341
 20
11.4396808527
 30
0.0
 10
11.5492430644
 20
11.4367593851
 30
0.0
 10
11.5387125001
 20
11.4336578609
 30
0.0
 10
11.5286393816
 20
11.4303837544
 30
0.0
 10
11.5190478234
 20
11.4269449345
 30
0.0
 10
11.5099607349
 20
11.4233496732
 30
0.0
 10
11.5013997709
 20
11.4196065816
 30
0.0
 10
11.4933852836
 20
11.4157245754
 30
0.0
 10
11.4859362652
 20
11.4117128238
 30
0.0
 10
11.4790702771
 20
11.4075807337
 30
0.0
 10
11.4728034396
 20
11.4033378427
 30
0.0
 10
11.4671504367
 20
11.3989937344
 30
0.0
 10
11.4621245549
 20
11.3945579453
 30
0.0
 10
11.4577377532
 20
11.3900398826
 30
0.0
 10
11.4540008966
 20
11.3854488575
 30
0.0
 10
11.4509240511
 20
11.380793819
 30
0.0
 10
11.4485169601
 20
11.3760849686
 30
0.0
 10
11.4470637685
 20
11.3720875627
 30
0.0
 10
11.4462578251
 20
11.3688931376
 30
0.0
 10
11.44582938
 20
11.3665131469
 30
0.0
 10
11.445572204
 20
11.3641302463
 30
0.0
 10
11.445514954
 20
11.3625390918
 30
0.0
 10
11.445514954
 20
11.361745654
 30
0.0
  0
SPLINE
  5
355
100
AcDbEntity
  8
0
100
AcDbSpline
 62
9
  6
CONTINUOUS
 70
0
 71
3
 72
71
 73
67
 74
0
 42
0.0000001
 43
0.0000001
 44
0.0000000001
 40
0.0
 40
0.0
 40
0.0
 40
0.0
 40
0.0037553158
 40
0.0075276304
 40
0.0113337063
 40
0.0151897465
 40
0.0191112245
 40
0.023112744
 40
0.0314052906
 40
0.040166091
 40
0.0494713724
 40
0.0593800136
 40
0.0699355204
 40
0.081168228
 40
0.0930973598
 40
0.1057327984
 40
0.1190765965
 40
0.1331241991
 40
0.1478654174
 40
0.1632851967
 40
0.1793642439
 40
0.1960795742
 40
0.213404945
 40
0.231311217
 40
0.2497666474
 40
0.268737179
 40
0.2881866965
 40
0.3080772446
 40
0.3283692223
 40
0.349021566
 40
0.3699919466
 40
0.4127105172
 40
0.4561690493
 40
0.5
 40
0.5438309507
 40
0.5872894828
 40
0.6300080534
 40
0.650978434
 40
0.6716307777
 40
0.6919227554
 40
0.7118133035
 40
0.731262821
 40
0.7502333526
 40
0.768688783
 40
0.786595055
 40
0.8039204258
 40
0.8206357561
 40
0.8367148033
 40
0.8521345826
 40
0.8668758009
 40
0.8809234035
 40
0.8942672016
 40
0.9069026402
 40
0.918831772
 40
0.9300644796
 40
0.9406199864
 40
0.9505286276
 40
0.959833909
 40
0.9685947094
 40
0.976887256
 40
0.9808887755
 40
0.9848102535
 40
0.9886662937
 40
0.9924723696
 40
0.9962446842
 40
1.0
 40
1.0
 40
1.0
 40
1.0
 10
12.0523088803
 20
11.5263276679
 30
0.0
 10
12.0523090084
 20
11.5272329891
 30
0.0
 10
12.0522437941
 20
11.5290484092
 30
0.0
 10
12.0519502134
 20
11.5317670955
 30
0.0
 10
12.0514612884
 20
11.5344822841
 30
0.0
 10
12.0507775418
 20
11.5371920224
 30
0.0
 10
12.0498994366
 20
11.5398947196
 30
0.0
 10
12.0484533809
 20
11.5435291001
 30
0.0
 10
12.0461374307
 20
11.548060459
 30
0.0
 10
12.0426271843
 20
11.5533708752
 30
0.0
 10
12.0383637031
 20
11.5586090194
 30
0.0
 10
12.033358737
 20
11.5637636865
 30
0.0
 10
12.027624629
 20
11.5688245564
 30
0.0
 10
12.0211750475
 20
11.5737808213
 30
0.0
 10
12.0140251186
 20
11.5786216001
 30
0.0
 10
12.006191601
 20
11.5833359559
 30
0.0
 10
11.9976929006
 20
11.5879130175
 30
0.0
 10
11.9885490622
 20
11.592342067
 30
0.0
 10
11.978781735
 20
11.5966126207
 30
0.0
 10
11.9684141325
 20
11.6007144999
 30
0.0
 10
11.9574709752
 20
11.6046378936
 30
0.0
 10
11.9459784096
 20
11.6083733784
 30
0.0
 10
11.9339639371
 20
11.611911961
 30
0.0
 10
11.9214563459
 20
11.6152451016
 30
0.0
 10
11.9084856449
 20
11.6183647607
 30
0.0
 10
11.8950829804
 20
11.6212634102
 30
0.0
 10
11.8812805526
 20
11.6239340466
 30
0.0
 10
11.8671115304
 20
11.6263702142
 30
0.0
 10
11.8526099956
 20
11.62856601
 30
0.0
 10
11.8378107808
 20
11.63051617
 30
0.0
 10
11.8176053008
 20
11.6327964009
 30
0.0
 10
11.7918619933
 20
11.6349918873
 30
0.0
 10
11.7605540385
 20
11.6365734391
 30
0.0
 10
11.7289423428
 20
11.6371023381
 30
0.0
 10
11.697330647
 20
11.6365734391
 30
0.0
 10
11.6660226922
 20
11.6349918873
 30
0.0
 10
11.6402793848
 20
11.6327964009
 30
0.0
 10
11.6200739047
 20
11.63051617
 30
0.0
 10
11.6052746899
 20
11.62856601
 30
0.0
 10
11.5907731551
 20
11.6263702142
 30
0.0
 10
11.576604133
 20
11.6239340466
 30
0.0
 10
11.5628017052
 20
11.6212634102
 30
0.0
 10
11.5493990407
 20
11.6183647607
 30
0.0
 10
11.5364283396
 20
11.6152451016
 30
0.0
 10
11.5239207484
 20
11.611911961
 30
0.0
 10
11.5119062759
 20
11.6083733784
 30
0.0
 10
11.5004137103
 20
11.6046378936
 30
0.0
 10
11.489470553
 20
11.6007144999
 30
0.0
 10
11.4791029506
 20
11.5966126207
 30
0.0
 10
11.4693356233
 20
11.592342067
 30
0.0
 10
11.4601917849
 20
11.5879130175
 30
0.0
 10
11.4516930846
 20
11.5833359559
 30
0.0
 10
11.4438595669
 20
11.5786216001
 30
0.0
 10
11.436709638
 20
11.5737808213
 30
0.0
 10
11.4302600565
 20
11.5688245564
 30
0.0
 10
11.4245259485
 20
11.5637636865
 30
0.0
 10
11.4195209824
 20
11.5586090194
 30
0.0
 10
11.4152575012
 20
11.5533708752
 30
0.0
 10
11.4117472548
 20
11.548060459
 30
0.0
 10
11.4094313046
 20
11.5435291001
 30
0.0
 10
11.407985249
 20
11.5398947196
 30
0.0
 10
11.4071071438
 20
11.5371920224
 30
0.0
 10
11.4064233971
 20
11.5344822841
 30
0.0
 10
11.4059344721
 20
11.5317670955
 30
0.0
 10
11.4056408914
 20
11.5290484092
 30
0.0
 10
11.4055756771
 20
11.5272329891
 30
0.0
 10
11.4055758053
 20
11.5263276679
 30
0.0
  0
SPLINE
  5
356
100
AcDbEntity
  8
0
100
AcDbSpline
 62
9
  6
CONTINUOUS
 70
0
 71
3
 72
71
 73
67
 74
0
 42
0.0000001
 43
0.0000001
 44
0.0000000001
 40
0.0
 40
0.0
 40
0.0
 40
0.0
 40
0.0037550351
 40
0.0075274993
 40
0.011333728
 40
0.0151897756
 40
0.0191112116
 40
0.0231127143
 40
0.0314052738
 40
0.0401660736
 40
0.0494713549
 40
0.0593799967
 40
0.0699355038
 40
0.0811682119
 40
0.0930973441
 40
0.1057327833
 40
0.1190765818
 40
0.133124185
 40
0.1478654038
 40
0.1632851838
 40
0.1793642316
 40
0.1960795625
 40
0.213404934
 40
0.2313112067
 40
0.2497666378
 40
0.2687371701
 40
0.2881866884
 40
0.3080772373
 40
0.3283692157
 40
0.3490215602
 40
0.3699919416
 40
0.4127105138
 40
0.4561690476
 40
0.5
 40
0.5438309524
 40
0.5872894862
 40
0.6300080584
 40
0.6509784398
 40
0.6716307843
 40
0.6919227627
 40
0.7118133116
 40
0.7312628299
 40
0.7502333622
 40
0.7686887933
 40
0.786595066
 40
0.8039204375
 40
0.8206357684
 40
0.8367148162
 40
0.8521345962
 40
0.866875815
 40
0.8809234182
 40
0.8942672167
 40
0.9069026559
 40
0.9188317881
 40
0.9300644962
 40
0.9406200033
 40
0.9505286451
 40
0.9598339264
 40
0.9685947262
 40
0.9768872857
 40
0.9808887884
 40
0.9848102244
 40
0.988666272
 40
0.9924725007
 40
0.9962449649
 40
1.0
 40
1.0
 40
1.0
 40
1.0
 10
12.0594602493
 20
11.5347359188
 30
0.0
 10
12.0594602493
 20
11.5356611924
 30
0.0
 10
12.0593934926
 20
11.5375167168
 30
0.0
 10
12.0590935798
 20
11.5402955474
 30
0.0
 10
12.0585939825
 20
11.5430708894
 30
0.0
 10
12.0578950941
 20
11.5458405825
 30
0.0
 10
12.0569975137
 20
11.5486030189
 30
0.0
 10
12.0555194581
 20
11.552317753
 30
0.0
 10
12.0531523304
 20
11.5569493433
 30
0.0
 10
12.0495644362
 20
11.5623771955
 30
0.0
 10
12.0452066689
 20
11.5677311832
 30
0.0
 10
12.0400910171
 20
11.572999849
 30
0.0
 10
12.0342300964
 20
11.578172641
 30
0.0
 10
12.0276378804
 20
11.5832385159
 30
0.0
 10
12.0203298281
 20
11.5881863501
 30
0.0
 10
12.0123230694
 20
11.5930049657
 30
0.0
 10
12.0036364172
 20
11.5976832507
 30
0.0
 10
11.9942903595
 20
11.6022102502
 30
0.0
 10
11.9843070242
 20
11.6065752488
 30
0.0
 10
11.9737101385
 20
11.6107678424
 30
0.0
 10
11.9625249692
 20
11.6147780034
 30
0.0
 10
11.9507782413
 20
11.6185960999
 30
0.0
 10
11.9384980644
 20
11.6222129395
 30
0.0
 10
11.9257138633
 20
11.6256197937
 30
0.0
 10
11.9124563104
 20
11.6288084453
 30
0.0
 10
11.8987572411
 20
11.6317711995
 30
0.0
 10
11.8846495676
 20
11.6345008979
 30
0.0
 10
11.8701671923
 20
11.6369909422
 30
0.0
 10
11.8553449508
 20
11.6392352989
 30
0.0
 10
11.840218446
 20
11.6412285874
 30
0.0
 10
11.8195661144
 20
11.6435592464
 30
0.0
 10
11.7932534843
 20
11.6458032868
 30
0.0
 10
11.7612531427
 20
11.6474198152
 30
0.0
 10
11.7289423428
 20
11.647960411
 30
0.0
 10
11.6966315428
 20
11.6474198152
 30
0.0
 10
11.6646312012
 20
11.6458032868
 30
0.0
 10
11.6383185711
 20
11.6435592464
 30
0.0
 10
11.6176662395
 20
11.6412285874
 30
0.0
 10
11.6025397347
 20
11.6392352989
 30
0.0
 10
11.5877174932
 20
11.6369909422
 30
0.0
 10
11.5732351179
 20
11.6345008979
 30
0.0
 10
11.5591274444
 20
11.6317711995
 30
0.0
 10
11.5454283751
 20
11.6288084453
 30
0.0
 10
11.5321708222
 20
11.6256197937
 30
0.0
 10
11.5193866211
 20
11.6222129395
 30
0.0
 10
11.5071064442
 20
11.6185960999
 30
0.0
 10
11.4953597163
 20
11.6147780034
 30
0.0
 10
11.4841745471
 20
11.6107678424
 30
0.0
 10
11.4735776613
 20
11.6065752488
 30
0.0
 10
11.463594326
 20
11.6022102502
 30
0.0
 10
11.4542482683
 20
11.5976832507
 30
0.0
 10
11.4455616161
 20
11.5930049657
 30
0.0
 10
11.4375548574
 20
11.5881863501
 30
0.0
 10
11.4302468051
 20
11.5832385159
 30
0.0
 10
11.4236545891
 20
11.578172641
 30
0.0
 10
11.4177936684
 20
11.572999849
 30
0.0
 10
11.4126780167
 20
11.5677311832
 30
0.0
 10
11.4083202493
 20
11.5623771955
 30
0.0
 10
11.4047323551
 20
11.5569493433
 30
0.0
 10
11.4023652274
 20
11.552317753
 30
0.0
 10
11.4008871719
 20
11.5486030189
 30
0.0
 10
11.3999895914
 20
11.5458405825
 30
0.0
 10
11.399290703
 20
11.5430708894
 30
0.0
 10
11.3987911057
 20
11.5402955474
 30
0.0
 10
11.3984911929
 20
11.5375167168
 30
0.0
 10
11.3984244362
 20
11.5356611924
 30
0.0
 10
11.3984244362
 20
11.5347359188
 30
0.0
  0
SPLINE
  5
357
100
AcDbEntity
  8
0
100
AcDbSpline
 62
9
  6
CONTINUOUS
 70
0
 71
3
 72
71
 73
67
 74
0
 42
0.0000001
 43
0.0000001
 44
0.0000000001
 40
0.0
 40
0.0
 40
0.0
 40
0.0
 40
0.0037550351
 40
0.0075274993
 40
0.011333728
 40
0.0151897756
 40
0.0191112115
 40
0.0231127142
 40
0.0314052738
 40
0.0401660736
 40
0.0494713549
 40
0.0593799966
 40
0.0699355038
 40
0.0811682119
 40
0.0930973441
 40
0.1057327832
 40
0.1190765818
 40
0.133124185
 40
0.1478654038
 40
0.1632851838
 40
0.1793642316
 40
0.1960795625
 40
0.213404934
 40
0.2313112067
 40
0.2497666378
 40
0.2687371701
 40
0.2881866884
 40
0.3080772372
 40
0.3283692157
 40
0.3490215602
 40
0.3699919416
 40
0.4127105138
 40
0.4561690476
 40
0.5
 40
0.5438309524
 40
0.5872894862
 40
0.6300080584
 40
0.6509784398
 40
0.6716307843
 40
0.6919227628
 40
0.7118133116
 40
0.7312628299
 40
0.7502333622
 40
0.7686887933
 40
0.786595066
 40
0.8039204375
 40
0.8206357684
 40
0.8367148162
 40
0.8521345962
 40
0.866875815
 40
0.8809234182
 40
0.8942672168
 40
0.9069026559
 40
0.9188317881
 40
0.9300644962
 40
0.9406200034
 40
0.9505286451
 40
0.9598339264
 40
0.9685947262
 40
0.9768872858
 40
0.9808887885
 40
0.9848102244
 40
0.988666272
 40
0.9924725007
 40
0.9962449649
 40
1.0
 40
1.0
 40
1.0
 40
1.0
 10
12.0614423429
 20
11.5369874713
 30
0.0
 10
12.0614423429
 20
11.5379182936
 30
0.0
 10
12.0613751858
 20
11.5397849455
 30
0.0
 10
12.0610734744
 20
11.5425804405
 30
0.0
 10
12.0605708811
 20
11.5453724261
 30
0.0
 10
12.0598678015
 20
11.5481587288
 30
0.0
 10
12.0589648383
 20
11.5509377314
 30
0.0
 10
12.057477919
 20
11.5546747425
 30
0.0
 10
12.0550965957
 20
11.5593341081
 30
0.0
 10
12.0514871852
 20
11.5647945108
 30
0.0
 10
12.0471032846
 20
11.570180606
 30
0.0
 10
12.0419569547
 20
11.5754808676
 30
0.0
 10
12.0360608864
 20
11.5806846805
 30
0.0
 10
12.0294291373
 20
11.5857809351
 30
0.0
 10
12.0220772592
 20
11.5907584411
 30
0.0
 10
12.0140224844
 20
11.5956059536
 30
0.0
 10
12.005283739
 20
11.600312294
 30
0.0
 10
11.9958816336
 20
11.6048664416
 30
0.0
 10
11.9858384289
 20
11.6092576168
 30
0.0
 10
11.9751779944
 20
11.6134753532
 30
0.0
 10
11.9639257484
 20
11.6175095628
 30
0.0
 10
11.9521085762
 20
11.6213505562
 30
0.0
 10
11.9397547559
 20
11.6249890857
 30
0.0
 10
11.9268938888
 20
11.6284163706
 30
0.0
 10
11.9135568313
 20
11.6316241443
 30
0.0
 10
11.8997756096
 20
11.6346046659
 30
0.0
 10
11.8855833333
 20
11.6373507341
 30
0.0
 10
11.8710141082
 20
11.6398557111
 30
0.0
 10
11.8561029787
 20
11.642113527
 30
0.0
 10
11.8408857612
 20
11.6441187691
 30
0.0
 10
11.820109579
 20
11.6464634049
 30
0.0
 10
11.7936391539
 20
11.6487209027
 30
0.0
 10
11.7614469084
 20
11.6503471254
 30
0.0
 10
11.7289423428
 20
11.6508909631
 30
0.0
 10
11.6964377771
 20
11.6503471254
 30
0.0
 10
11.6642455317
 20
11.6487209027
 30
0.0
 10
11.6377751065
 20
11.6464634049
 30
0.0
 10
11.6169989243
 20
11.6441187691
 30
0.0
 10
11.6017817068
 20
11.642113527
 30
0.0
 10
11.5868705773
 20
11.6398557111
 30
0.0
 10
11.5723013522
 20
11.6373507341
 30
0.0
 10
11.5581090759
 20
11.6346046659
 30
0.0
 10
11.5443278542
 20
11.6316241443
 30
0.0
 10
11.5309907967
 20
11.6284163706
 30
0.0
 10
11.5181299296
 20
11.6249890857
 30
0.0
 10
11.5057761093
 20
11.6213505562
 30
0.0
 10
11.4939589371
 20
11.6175095628
 30
0.0
 10
11.4827066911
 20
11.6134753532
 30
0.0
 10
11.4720462566
 20
11.6092576168
 30
0.0
 10
11.4620030519
 20
11.6048664416
 30
0.0
 10
11.4526009465
 20
11.600312294
 30
0.0
 10
11.4438622011
 20
11.5956059536
 30
0.0
 10
11.4358074264
 20
11.5907584411
 30
0.0
 10
11.4284555482
 20
11.5857809351
 30
0.0
 10
11.4218237991
 20
11.5806846805
 30
0.0
 10
11.4159277308
 20
11.5754808676
 30
0.0
 10
11.4107814009
 20
11.570180606
 30
0.0
 10
11.4063975003
 20
11.5647945108
 30
0.0
 10
11.4027880898
 20
11.5593341081
 30
0.0
 10
11.4004067665
 20
11.5546747425
 30
0.0
 10
11.3989198472
 20
11.5509377314
 30
0.0
 10
11.398016884
 20
11.5481587288
 30
0.0
 10
11.3973138044
 20
11.5453724261
 30
0.0
 10
11.3968112111
 20
11.5425804405
 30
0.0
 10
11.3965094997
 20
11.5397849455
 30
0.0
 10
11.3964423426
 20
11.5379182936
 30
0.0
 10
11.3964423426
 20
11.5369874713
 30
0.0
  0
SPLINE
  5
358
100
AcDbEntity
  8
0
100
AcDbSpline
 62
9
  6
CONTINUOUS
 70
0
 71
3
 72
67
 73
63
 74
0
 42
0.0000001
 43
0.0000001
 44
0.0000000001
 40
0.0
 40
0.0
 40
0.0
 40
0.0
 40
0.0037550413
 40
0.0075275415
 40
0.0113338329
 40
0.0151899389
 40
0.0231088376
 40
0.0314014919
 40
0.0401624065
 40
0.049467796
 40
0.0593765471
 40
0.0699321749
 40
0.0811650275
 40
0.0930943015
 40
0.1057298777
 40
0.1190738285
 40
0.1331216138
 40
0.1478630154
 40
0.1632829652
 40
0.1793621939
 40
0.1960777355
 40
0.2134033243
 40
0.2313098026
 40
0.2497654432
 40
0.2687362085
 40
0.2881859673
 40
0.3080767518
 40
0.3283689655
 40
0.3699903842
 40
0.4127094655
 40
0.4561685222
 40
0.5
 40
0.5438314778
 40
0.5872905345
 40
0.6300096158
 40
0.6716310345
 40
0.6919232482
 40
0.7118140327
 40
0.7312637915
 40
0.7502345568
 40
0.7686901974
 40
0.7865966757
 40
0.8039222645
 40
0.8206378061
 40
0.8367170348
 40
0.8521369846
 40
0.8668783862
 40
0.8809261715
 40
0.8942701223
 40
0.9069056985
 40
0.9188349725
 40
0.9300678251
 40
0.9406234529
 40
0.950532204
 40
0.9598375935
 40
0.9685985081
 40
0.9768911624
 40
0.9848100611
 40
0.9886661671
 40
0.9924724585
 40
0.9962449587
 40
1.0
 40
1.0
 40
1.0
 40
1.0
 10
11.9989423423
 20
11.2067811758
 30
0.0
 10
11.9989423423
 20
11.2060253278
 30
0.0
 10
11.9988878052
 20
11.2045095568
 30
0.0
 10
11.9986428147
 20
11.2022395507
 30
0.0
 10
11.998234667
 20
11.1999723179
 30
0.0
 10
11.9974669082
 20
11.1969292327
 30
0.0
 10
11.996082564
 20
11.1931212059
 30
0.0
 10
11.9937895123
 20
11.1886354368
 30
0.0
 10
11.9908584344
 20
11.1842009297
 30
0.0
 10
11.9872986127
 20
11.1798274033
 30
0.0
 10
11.9831196372
 20
11.1755233833
 30
0.0
 10
11.9783318589
 20
11.1712977394
 30
0.0
 10
11.9729466694
 20
11.1671594329
 30
0.0
 10
11.9669767247
 20
11.1631175485
 30
0.0
 10
11.9604360138
 20
11.1591812155
 30
0.0
 10
11.9533398934
 20
11.1553595197
 30
0.0
 10
11.9457050932
 20
11.1516614226
 30
0.0
 10
11.9375497055
 20
11.1480956596
 30
0.0
 10
11.9288931183
 20
11.1446707233
 30
0.0
 10
11.9197559607
 20
11.1413948167
 30
0.0
 10
11.9101600564
 20
11.1382758203
 30
0.0
 10
11.9001283776
 20
11.1353212303
 30
0.0
 10
11.889684969
 20
11.1325381668
 30
0.0
 10
11.8788548812
 20
11.1299333503
 30
0.0
 10
11.8676641104
 20
11.1275130794
 30
0.0
 10
11.8561395569
 20
11.1252831998
 30
0.0
 10
11.8443088836
 20
11.1232490598
 30
0.0
 10
11.828027236
 20
11.1207838084
 30
0.0
 10
11.8071149758
 20
11.1182368317
 30
0.0
 10
11.7814782723
 20
11.1160502401
 30
0.0
 10
11.7553369891
 20
11.1147297376
 30
0.0
 10
11.7289423428
 20
11.11428811
 30
0.0
 10
11.7025476964
 20
11.1147297376
 30
0.0
 10
11.6764064132
 20
11.1160502401
 30
0.0
 10
11.6507697097
 20
11.1182368317
 30
0.0
 10
11.6298574495
 20
11.1207838084
 30
0.0
 10
11.6135758019
 20
11.1232490598
 30
0.0
 10
11.6017451286
 20
11.1252831998
 30
0.0
 10
11.5902205751
 20
11.1275130794
 30
0.0
 10
11.5790298043
 20
11.1299333503
 30
0.0
 10
11.5681997165
 20
11.1325381668
 30
0.0
 10
11.5577563079
 20
11.1353212303
 30
0.0
 10
11.5477246291
 20
11.1382758203
 30
0.0
 10
11.5381287248
 20
11.1413948167
 30
0.0
 10
11.5289915672
 20
11.1446707233
 30
0.0
 10
11.5203349801
 20
11.1480956596
 30
0.0
 10
11.5121795923
 20
11.1516614226
 30
0.0
 10
11.5045447921
 20
11.1553595197
 30
0.0
 10
11.4974486718
 20
11.1591812155
 30
0.0
 10
11.4909079608
 20
11.1631175485
 30
0.0
 10
11.4849380161
 20
11.1671594329
 30
0.0
 10
11.4795528266
 20
11.1712977394
 30
0.0
 10
11.4747650483
 20
11.1755233833
 30
0.0
 10
11.4705860728
 20
11.1798274033
 30
0.0
 10
11.4670262511
 20
11.1842009297
 30
0.0
 10
11.4640951732
 20
11.1886354368
 30
0.0
 10
11.4618021215
 20
11.1931212059
 30
0.0
 10
11.4604177773
 20
11.1969292327
 30
0.0
 10
11.4596500185
 20
11.1999723179
 30
0.0
 10
11.4592418708
 20
11.2022395507
 30
0.0
 10
11.4589968803
 20
11.2045095568
 30
0.0
 10
11.4589423432
 20
11.2060253278
 30
0.0
 10
11.4589423432
 20
11.2067811758
 30
0.0
  0
SPLINE
  5
359
100
AcDbEntity
  8
0
100
AcDbSpline
 62
9
  6
CONTINUOUS
 70
0
 71
3
 72
67
 73
63
 74
0
 42
0.0000001
 43
0.0000001
 44
0.0000000001
 40
0.0
 40
0.0
 40
0.0
 40
0.0
 40
0.0037550446
 40
0.0075275534
 40
0.0113338561
 40
0.0151899697
 40
0.0231088716
 40
0.0314015272
 40
0.0401624414
 40
0.0494678294
 40
0.0593765809
 40
0.0699322112
 40
0.0811650665
 40
0.0930943413
 40
0.1057299171
 40
0.1190738674
 40
0.1331216525
 40
0.1478630537
 40
0.163283003
 40
0.1793622314
 40
0.196077772
 40
0.2134033593
 40
0.2313098359
 40
0.2497654751
 40
0.2687362387
 40
0.2881859954
 40
0.3080767777
 40
0.3283689891
 40
0.3699904025
 40
0.412709478
 40
0.4561685284
 40
0.5
 40
0.5438314716
 40
0.587290522
 40
0.6300095975
 40
0.6716310109
 40
0.6919232223
 40
0.7118140046
 40
0.7312637613
 40
0.7502345249
 40
0.7686901641
 40
0.7865966407
 40
0.803922228
 40
0.8206377686
 40
0.836716997
 40
0.8521369463
 40
0.8668783475
 40
0.8809261326
 40
0.8942700829
 40
0.9069056587
 40
0.9188349335
 40
0.9300677888
 40
0.9406234191
 40
0.9505321706
 40
0.9598375586
 40
0.9685984728
 40
0.9768911284
 40
0.9848100303
 40
0.9886661439
 40
0.9924724466
 40
0.9962449554
 40
1.0
 40
1.0
 40
1.0
 40
1.0
 10
12.0142614903
 20
11.2081723223
 30
0.0
 10
12.0142614903
 20
11.2073735886
 30
0.0
 10
12.0142038582
 20
11.2057718138
 30
0.0
 10
12.0139449657
 20
11.2033730084
 30
0.0
 10
12.0135136608
 20
11.2009771322
 30
0.0
 10
12.0127023381
 20
11.1977613857
 30
0.0
 10
12.0112394471
 20
11.1937372988
 30
0.0
 10
12.0088162897
 20
11.1889970187
 30
0.0
 10
12.0057189076
 20
11.1843109098
 30
0.0
 10
12.0019571091
 20
11.1796892415
 30
0.0
 10
11.9975410273
 20
11.1751410227
 30
0.0
 10
11.9924815999
 20
11.1706756266
 30
0.0
 10
11.9867908655
 20
11.1663025232
 30
0.0
 10
11.9804821995
 20
11.1620313126
 30
0.0
 10
11.9735703839
 20
11.1578716425
 30
0.0
 10
11.9660716463
 20
11.1538331142
 30
0.0
 10
11.9580036657
 20
11.1499251972
 30
0.0
 10
11.9493855609
 20
11.1461571221
 30
0.0
 10
11.9402378198
 20
11.1425378639
 30
0.0
 10
11.9305822421
 20
11.1390760914
 30
0.0
 10
11.9204418897
 20
11.1357801316
 30
0.0
 10
11.9098410384
 20
11.132657906
 30
0.0
 10
11.8988050968
 20
11.1297169389
 30
0.0
 10
11.8873605368
 20
11.1269643321
 30
0.0
 10
11.8755348297
 20
11.1244067416
 30
0.0
 10
11.863356402
 20
11.1220503447
 30
0.0
 10
11.8508544863
 20
11.119900793
 30
0.0
 10
11.8336490593
 20
11.11729567
 30
0.0
 10
11.8115502907
 20
11.1146041847
 30
0.0
 10
11.7844590262
 20
11.1122935319
 30
0.0
 10
11.7568345537
 20
11.1108981076
 30
0.0
 10
11.7289423428
 20
11.1104314233
 30
0.0
 10
11.7010501319
 20
11.1108981076
 30
0.0
 10
11.6734256593
 20
11.1122935319
 30
0.0
 10
11.6463343948
 20
11.1146041847
 30
0.0
 10
11.6242356263
 20
11.11729567
 30
0.0
 10
11.6070301992
 20
11.119900793
 30
0.0
 10
11.5945282835
 20
11.1220503447
 30
0.0
 10
11.5823498558
 20
11.1244067416
 30
0.0
 10
11.5705241487
 20
11.1269643321
 30
0.0
 10
11.5590795888
 20
11.1297169389
 30
0.0
 10
11.5480436471
 20
11.132657906
 30
0.0
 10
11.5374427958
 20
11.1357801316
 30
0.0
 10
11.5273024434
 20
11.1390760914
 30
0.0
 10
11.5176468657
 20
11.1425378639
 30
0.0
 10
11.5084991246
 20
11.1461571221
 30
0.0
 10
11.4998810198
 20
11.1499251972
 30
0.0
 10
11.4918130392
 20
11.1538331142
 30
0.0
 10
11.4843143017
 20
11.1578716425
 30
0.0
 10
11.477402486
 20
11.1620313126
 30
0.0
 10
11.47109382
 20
11.1663025232
 30
0.0
 10
11.4654030856
 20
11.1706756266
 30
0.0
 10
11.4603436582
 20
11.1751410227
 30
0.0
 10
11.4559275764
 20
11.1796892415
 30
0.0
 10
11.4521657779
 20
11.1843109098
 30
0.0
 10
11.4490683958
 20
11.1889970187
 30
0.0
 10
11.4466452385
 20
11.1937372988
 30
0.0
 10
11.4451823474
 20
11.1977613857
 30
0.0
 10
11.4443710247
 20
11.2009771322
 30
0.0
 10
11.4439397198
 20
11.2033730084
 30
0.0
 10
11.4436808274
 20
11.2057718138
 30
0.0
 10
11.4436231952
 20
11.2073735886
 30
0.0
 10
11.4436231952
 20
11.2081723223
 30
0.0
  0
SPLINE
  5
35A
100
AcDbEntity
  8
0
100
AcDbSpline
 62
9
  6
CONTINUOUS
 70
0
 71
3
 72
14
 73
10
 74
0
 42
0.0000001
 43
0.0000001
 44
0.0000000001
 40
0.0
 40
0.0
 40
0.0
 40
0.0
 40
0.119373051
 40
0.2393354842
 40
0.3604110035
 40
0.4831221331
 40
0.6079845314
 40
0.7354831534
 40
1.0
 40
1.0
 40
1.0
 40
1.0
 10
12.0523088803
 20
11.5263276679
 30
0.0
 10
12.0523090108
 20
11.5254056935
 30
0.0
 10
12.0522413084
 20
11.5235564761
 30
0.0
 10
12.051936728
 20
11.5207872385
 30
0.0
 10
12.0514294885
 20
11.5180215557
 30
0.0
 10
12.0507201044
 20
11.515261788
 30
0.0
 10
12.0498090671
 20
11.5125095116
 30
0.0
 10
12.0483085361
 20
11.5088079141
 30
0.0
 10
12.0469054712
 20
11.5061141308
 30
0.0
 10
12.0458638736
 20
11.5043566109
 30
0.0
  0
SPLINE
  5
35B
100
AcDbEntity
  8
0
100
AcDbSpline
 62
9
  6
CONTINUOUS
 70
0
 71
3
 72
9
 73
5
 74
0
 42
0.0000001
 43
0.0000001
 44
0.0000000001
 40
0.0
 40
0.0
 40
0.0
 40
0.0
 40
0.241479422
 40
1.0
 40
1.0
 40
1.0
 40
1.0
 10
12.0458638736
 20
11.5043566109
 30
0.0
 10
12.0454478415
 20
11.5036546269
 30
0.0
 10
12.0436614549
 20
11.5007854261
 30
0.0
 10
12.0416331389
 20
11.4980694963
 30
0.0
 10
12.0399951732
 20
11.4960979514
 30
0.0
  0
SPLINE
  5
35C
100
AcDbEntity
  8
0
100
AcDbSpline
 62
9
  6
CONTINUOUS
 70
0
 71
3
 72
15
 73
11
 74
0
 42
0.0000001
 43
0.0000001
 44
0.0000000001
 40
0.0
 40
0.0
 40
0.0
 40
0.0
 40
0.1149968953
 40
0.2310396383
 40
0.3491151337
 40
0.4701699284
 40
0.5950690009
 40
0.724578463
 40
0.8593655981
 40
1.0
 40
1.0
 40
1.0
 40
1.0
 10
12.0594602493
 20
11.5347359188
 30
0.0
 10
12.0594602493
 20
11.5334283441
 30
0.0
 10
12.0593263892
 20
11.5307993911
 30
0.0
 10
12.0587256886
 20
11.5268691652
 30
0.0
 10
12.0577257974
 20
11.5229498828
 30
0.0
 10
12.056328871
 20
11.5190474259
 30
0.0
 10
12.0545374342
 20
11.5151664918
 30
0.0
 10
12.052354349
 20
11.5113116564
 30
0.0
 10
12.0497830187
 20
11.5074874691
 30
0.0
 10
12.0478550268
 20
11.5050160799
 30
0.0
 10
12.0468320839
 20
11.5037869885
 30
0.0
  0
SPLINE
  5
35D
100
AcDbEntity
  8
0
100
AcDbSpline
 62
9
  6
CONTINUOUS
 70
0
 71
3
 72
15
 73
11
 74
0
 42
0.0000001
 43
0.0000001
 44
0.0000000001
 40
0.0
 40
0.0
 40
0.0
 40
0.0
 40
0.1137572416
 40
0.2287002874
 40
0.3459482403
 40
0.4665633484
 40
0.5915010859
 40
0.7215966955
 40
0.8575641196
 40
1.0
 40
1.0
 40
1.0
 40
1.0
 10
12.0614423429
 20
11.5369874713
 30
0.0
 10
12.0614423429
 20
11.5355765981
 30
0.0
 10
12.0612872406
 20
11.532737776
 30
0.0
 10
12.0605914325
 20
11.5284961251
 30
0.0
 10
12.0594336357
 20
11.5242683698
 30
0.0
 10
12.0578167448
 20
11.5200618136
 30
0.0
 10
12.0557442626
 20
11.5158821748
 30
0.0
 10
12.0532199122
 20
11.5117350797
 30
0.0
 10
12.0502482432
 20
11.5076259498
 30
0.0
 10
12.0480256517
 20
11.5049793056
 30
0.0
 10
12.0468467306
 20
11.5036636771
 30
0.0
  0
SPLINE
  5
35E
100
AcDbEntity
  8
0
100
AcDbSpline
 62
9
  6
CONTINUOUS
 70
0
 71
3
 72
69
 73
65
 74
0
 42
0.0000001
 43
0.0000001
 44
0.0000000001
 40
0.0
 40
0.0
 40
0.0
 40
0.0
 40
0.0037550318
 40
0.0075275099
 40
0.0113337666
 40
0.0151898376
 40
0.0191112865
 40
0.0231127968
 40
0.0314053854
 40
0.040166222
 40
0.0494715361
 40
0.0593802103
 40
0.0699357528
 40
0.0811685077
 40
0.0930976871
 40
0.1057331668
 40
0.1190770071
 40
0.1331246645
 40
0.1478659469
 40
0.1632857795
 40
0.1793648766
 40
0.1960802663
 40
0.213405712
 40
0.2313120517
 40
0.2497675413
 40
0.2687381369
 40
0.2881877327
 40
0.3080783602
 40
0.3283704072
 40
0.369991468
 40
0.4127101996
 40
0.4561688874
 40
0.5
 40
0.5438311126
 40
0.5872898004
 40
0.630008532
 40
0.6716295928
 40
0.6919216398
 40
0.7118122673
 40
0.7312618631
 40
0.7502324587
 40
0.7686879483
 40
0.786594288
 40
0.8039197337
 40
0.8206351234
 40
0.8367142205
 40
0.8521340531
 40
0.8668753355
 40
0.8809229929
 40
0.8942668332
 40
0.9069023129
 40
0.9188314923
 40
0.9300642472
 40
0.9406197897
 40
0.9505284639
 40
0.959833778
 40
0.9685946146
 40
0.9768872032
 40
0.9808887135
 40
0.9848101624
 40
0.9886662334
 40
0.9924724901
 40
0.9962449682
 40
1.0
 40
1.0
 40
1.0
 40
1.0
 10
12.0326922856
 20
11.2180971851
 30
0.0
 10
12.0326922856
 20
11.2189475189
 30
0.0
 10
12.0326309342
 20
11.2206527644
 30
0.0
 10
12.032355309
 20
11.2232065423
 30
0.0
 10
12.0318961782
 20
11.2257571215
 30
0.0
 10
12.0312538879
 20
11.2283025073
 30
0.0
 10
12.0304290015
 20
11.2308412202
 30
0.0
 10
12.0290706507
 20
11.2342551035
 30
0.0
 10
12.026895234
 20
11.2385115913
 30
0.0
 10
12.0235979112
 20
11.2434998508
 30
0.0
 10
12.0195930698
 20
11.2484202294
 30
0.0
 10
12.0148917285
 20
11.2532621988
 30
0.0
 10
12.0095054743
 20
11.25801606
 30
0.0
 10
12.0034471428
 20
11.2626716559
 30
0.0
 10
11.996730952
 20
11.267218773
 30
0.0
 10
11.989372648
 20
11.2716471415
 30
0.0
 10
11.981389514
 20
11.2759465455
 30
0.0
 10
11.972800372
 20
11.2801069119
 30
0.0
 10
11.9636255609
 20
11.2841183911
 30
0.0
 10
11.9538868967
 20
11.287971438
 30
0.0
 10
11.9436075962
 20
11.2916568285
 30
0.0
 10
11.9328122122
 20
11.2951657079
 30
0.0
 10
11.9215265764
 20
11.298489619
 30
0.0
 10
11.9097777398
 20
11.3016205581
 30
0.0
 10
11.8975938932
 20
11.3045509717
 30
0.0
 10
11.8850042842
 20
11.3072737852
 30
0.0
 10
11.8720391661
 20
11.3097823997
 30
0.0
 10
11.8587296588
 20
11.3120707989
 30
0.0
 10
11.8404128098
 20
11.3148442002
 30
0.0
 10
11.8168865266
 20
11.3177095682
 30
0.0
 10
11.7880452439
 20
11.3201694556
 30
0.0
 10
11.7586363103
 20
11.3216550483
 30
0.0
 10
11.7289423428
 20
11.3221518507
 30
0.0
 10
11.6992483752
 20
11.3216550483
 30
0.0
 10
11.6698394417
 20
11.3201694556
 30
0.0
 10
11.6409981589
 20
11.3177095682
 30
0.0
 10
11.6174718757
 20
11.3148442002
 30
0.0
 10
11.5991550267
 20
11.3120707989
 30
0.0
 10
11.5858455194
 20
11.3097823997
 30
0.0
 10
11.5728804014
 20
11.3072737852
 30
0.0
 10
11.5602907923
 20
11.3045509717
 30
0.0
 10
11.5481069457
 20
11.3016205581
 30
0.0
 10
11.5363581091
 20
11.298489619
 30
0.0
 10
11.5250724733
 20
11.2951657079
 30
0.0
 10
11.5142770893
 20
11.2916568285
 30
0.0
 10
11.5039977888
 20
11.287971438
 30
0.0
 10
11.4942591247
 20
11.2841183911
 30
0.0
 10
11.4850843136
 20
11.2801069119
 30
0.0
 10
11.4764951715
 20
11.2759465455
 30
0.0
 10
11.4685120375
 20
11.2716471415
 30
0.0
 10
11.4611537335
 20
11.267218773
 30
0.0
 10
11.4544375427
 20
11.2626716559
 30
0.0
 10
11.4483792113
 20
11.25801606
 30
0.0
 10
11.442992957
 20
11.2532621988
 30
0.0
 10
11.4382916157
 20
11.2484202294
 30
0.0
 10
11.4342867743
 20
11.2434998508
 30
0.0
 10
11.4309894516
 20
11.2385115913
 30
0.0
 10
11.4288140348
 20
11.2342551035
 30
0.0
 10
11.427455684
 20
11.2308412202
 30
0.0
 10
11.4266307976
 20
11.2283025073
 30
0.0
 10
11.4259885073
 20
11.2257571215
 30
0.0
 10
11.4255293765
 20
11.2232065423
 30
0.0
 10
11.4252537514
 20
11.2206527644
 30
0.0
 10
11.4251923999
 20
11.2189475189
 30
0.0
 10
11.4251923999
 20
11.2180971851
 30
0.0
  0
SPLINE
  5
35F
100
AcDbEntity
  8
0
100
AcDbSpline
 62
9
  6
CONTINUOUS
 70
0
 71
3
 72
67
 73
63
 74
0
 42
0.0000001
 43
0.0000001
 44
0.0000000001
 40
0.0
 40
0.0
 40
0.0
 40
0.0
 40
0.0037550627
 40
0.0075275718
 40
0.0113338598
 40
0.0151899626
 40
0.0231088725
 40
0.0314015293
 40
0.040162438
 40
0.0494678287
 40
0.0593765844
 40
0.0699322138
 40
0.0811650611
 40
0.0930943387
 40
0.1057299223
 40
0.1190738725
 40
0.1331216455
 40
0.1478630492
 40
0.1632830086
 40
0.1793622381
 40
0.1960777653
 40
0.2134033535
 40
0.2313098407
 40
0.2497654821
 40
0.2687362338
 40
0.2881859896
 40
0.3080767809
 40
0.3283689949
 40
0.3699903981
 40
0.4127094813
 40
0.4561685267
 40
0.5
 40
0.5438314733
 40
0.5872905187
 40
0.6300096019
 40
0.6716310051
 40
0.6919232191
 40
0.7118140104
 40
0.7312637662
 40
0.7502345179
 40
0.7686901593
 40
0.7865966465
 40
0.8039222347
 40
0.8206377619
 40
0.8367169914
 40
0.8521369508
 40
0.8668783545
 40
0.8809261275
 40
0.8942700777
 40
0.9069056613
 40
0.9188349389
 40
0.9300677862
 40
0.9406234156
 40
0.9505321713
 40
0.959837562
 40
0.9685984707
 40
0.9768911275
 40
0.9848100374
 40
0.9886661402
 40
0.9924724282
 40
0.9962449373
 40
1.0
 40
1.0
 40
1.0
 40
1.0
 10
12.0177348888
 20
11.4454987647
 30
0.0
 10
12.0177348888
 20
11.4463072258
 30
0.0
 10
12.0176765561
 20
11.4479285041
 30
0.0
 10
12.0174145138
 20
11.4503565132
 30
0.0
 10
12.0169779532
 20
11.4527815496
 30
0.0
 10
12.0161567568
 20
11.4560364406
 30
0.0
 10
12.0146760549
 20
11.4601095147
 30
0.0
 10
12.0122233996
 20
11.4649075027
 30
0.0
 10
12.0090883142
 20
11.469650661
 30
0.0
 10
12.0052807194
 20
11.474328592
 30
0.0
 10
12.0008108725
 20
11.4789321767
 30
0.0
 10
11.995689854
 20
11.4834519325
 30
0.0
 10
11.9899298488
 20
11.4878782794
 30
0.0
 10
11.9835443801
 20
11.492201484
 30
0.0
 10
11.976548417
 20
11.4964117891
 30
0.0
 10
11.9689583923
 20
11.5004994798
 30
0.0
 10
11.9607922008
 20
11.5044549794
 30
0.0
 10
11.95206918
 20
11.5082689235
 30
0.0
 10
11.9428100718
 20
11.5119322368
 30
0.0
 10
11.9330369493
 20
11.5154361496
 30
0.0
 10
11.9227731567
 20
11.5187722432
 30
0.0
 10
11.9120432534
 20
11.5219324767
 30
0.0
 10
11.9008729586
 20
11.5249092406
 30
0.0
 10
11.8892890747
 20
11.5276953534
 30
0.0
 10
11.877319409
 20
11.5302840888
 30
0.0
 10
11.8649927254
 20
11.5326691729
 30
0.0
 10
11.8523386111
 20
11.5348448858
 30
0.0
 10
11.8349237289
 20
11.5374817179
 30
0.0
 10
11.812555938
 20
11.5402059881
 30
0.0
 10
11.7851348711
 20
11.5425447446
 30
0.0
 10
11.7571741061
 20
11.5439571831
 30
0.0
 10
11.7289423428
 20
11.5444295217
 30
0.0
 10
11.7007105794
 20
11.5439571831
 30
0.0
 10
11.6727498144
 20
11.5425447446
 30
0.0
 10
11.6453287475
 20
11.5402059881
 30
0.0
 10
11.6229609566
 20
11.5374817179
 30
0.0
 10
11.6055460744
 20
11.5348448858
 30
0.0
 10
11.5928919602
 20
11.5326691729
 30
0.0
 10
11.5805652765
 20
11.5302840888
 30
0.0
 10
11.5685956108
 20
11.5276953534
 30
0.0
 10
11.5570117269
 20
11.5249092406
 30
0.0
 10
11.5458414321
 20
11.5219324767
 30
0.0
 10
11.5351115288
 20
11.5187722432
 30
0.0
 10
11.5248477362
 20
11.5154361496
 30
0.0
 10
11.5150746138
 20
11.5119322368
 30
0.0
 10
11.5058155055
 20
11.5082689235
 30
0.0
 10
11.4970924847
 20
11.5044549794
 30
0.0
 10
11.4889262932
 20
11.5004994798
 30
0.0
 10
11.4813362685
 20
11.4964117891
 30
0.0
 10
11.4743403054
 20
11.492201484
 30
0.0
 10
11.4679548367
 20
11.4878782794
 30
0.0
 10
11.4621948315
 20
11.4834519325
 30
0.0
 10
11.457073813
 20
11.4789321767
 30
0.0
 10
11.4526039661
 20
11.474328592
 30
0.0
 10
11.4487963713
 20
11.469650661
 30
0.0
 10
11.445661286
 20
11.4649075027
 30
0.0
 10
11.4432086307
 20
11.4601095147
 30
0.0
 10
11.4417279287
 20
11.4560364406
 30
0.0
 10
11.4409067323
 20
11.4527815496
 30
0.0
 10
11.4404701717
 20
11.4503565132
 30
0.0
 10
11.4402081294
 20
11.4479285041
 30
0.0
 10
11.4401497968
 20
11.4463072258
 30
0.0
 10
11.4401497968
 20
11.4454987647
 30
0.0
  0
LINE
  5
360
100
AcDbEntity
  8
0
100
AcDbLine
 62
9
  6
CONTINUOUS
 10
12.0856579873
 20
4.6822680174
 11
12.0655200285
 21
4.7606880045
  0
SPLINE
  5
361
100
AcDbEntity
  8
0
100
AcDbSpline
 62
9
  6
CONTINUOUS
 70
0
 71
3
 72
22
 73
18
 74
0
 42
0.0000001
 43
0.0000001
 44
0.0000000001
 40
0.0
 40
0.0
 40
0.0
 40
0.0
 40
0.1787586637
 40
0.2633154823
 40
0.344215587
 40
0.4211868957
 40
0.4940316225
 40
0.5625923571
 40
0.626754158
 40
0.6864771512
 40
0.7418019938
 40
0.7928743235
 40
0.8399651512
 40
0.8835045222
 40
0.9241142487
 40
0.9626186318
 40
1.0
 40
1.0
 40
1.0
 40
1.0
 10
11.3722266321
 20
4.6822680174
 30
0.0
 10
11.3718717076
 20
4.6803127152
 30
0.0
 10
11.371258528
 20
4.6774469671
 30
0.0
 10
11.3702397754
 20
4.6737576623
 30
0.0
 10
11.3694239285
 20
4.6711883142
 30
0.0
 10
11.3685493122
 20
4.6687763433
 30
0.0
 10
11.3676166092
 20
4.666533917
 30
0.0
 10
11.3666301314
 20
4.6644712375
 30
0.0
 10
11.3655948566
 20
4.6625974037
 30
0.0
 10
11.3645154186
 20
4.6609208424
 30
0.0
 10
11.363396136
 20
4.6594491876
 30
0.0
 10
11.3622416811
 20
4.658188933
 30
0.0
 10
11.3610563102
 20
4.6571459926
 30
0.0
 10
11.3598442839
 20
4.6563257307
 30
0.0
 10
11.358609649
 20
4.6557335381
 30
0.0
 10
11.3573584508
 20
4.6553752409
 30
0.0
 10
11.3565128336
 20
4.6552946589
 30
0.0
 10
11.3560972662
 20
4.6552946624
 30
0.0
  0
SPLINE
  5
362
100
AcDbEntity
  8
0
100
AcDbSpline
 62
9
  6
CONTINUOUS
 70
0
 71
3
 72
23
 73
19
 74
0
 42
0.0000001
 43
0.0000001
 44
0.0000000001
 40
0.0
 40
0.0
 40
0.0
 40
0.0
 40
0.0372831764
 40
0.0757251577
 40
0.1163053931
 40
0.1598237787
 40
0.2068924759
 40
0.2579469615
 40
0.3132597187
 40
0.3729752878
 40
0.437131758
 40
0.5056896145
 40
0.5785410671
 40
0.6555205513
 40
0.7364085405
 40
0.8209730193
 40
0.9089580087
 40
1.0
 40
1.0
 40
1.0
 40
1.0
 10
12.1017981707
 20
4.6552946624
 30
0.0
 10
12.1013837748
 20
4.6552946507
 30
0.0
 10
12.1005401069
 20
4.6553753344
 30
0.0
 10
12.099291411
 20
4.6557337286
 30
0.0
 10
12.0980583955
 20
4.6563257482
 30
0.0
 10
12.0968476033
 20
4.6571459061
 30
0.0
 10
12.0956635941
 20
4.658188914
 30
0.0
 10
12.0945104942
 20
4.659449171
 30
0.0
 10
12.0933924604
 20
4.6609208015
 30
0.0
 10
12.0923141735
 20
4.6625973154
 30
0.0
 10
12.0912800889
 20
4.6644711403
 30
0.0
 10
12.0902949423
 20
4.6665339459
 30
0.0
 10
12.0893628968
 20
4.6687762567
 30
0.0
 10
12.0884883499
 20
4.671187795
 30
0.0
 10
12.0876761302
 20
4.6737578005
 30
0.0
 10
12.0869291153
 20
4.6764744822
 30
0.0
 10
12.0862484174
 20
4.6793245887
 30
0.0
 10
12.0858473051
 20
4.6812739692
 30
0.0
 10
12.0856579873
 20
4.6822680174
 30
0.0
  0
SPLINE
  5
363
100
AcDbEntity
  8
0
100
AcDbSpline
 62
9
  6
CONTINUOUS
 70
0
 71
3
 72
10
 73
6
 74
0
 42
0.0000001
 43
0.0000001
 44
0.0000000001
 40
0.0
 40
0.0
 40
0.0
 40
0.0
 40
0.2510866995
 40
0.5013992479
 40
1.0
 40
1.0
 40
1.0
 40
1.0
 10
12.1812384558
 20
4.8188124713
 30
0.0
 10
12.1818996825
 20
4.8166914802
 30
0.0
 10
12.1831865785
 20
4.8124455306
 30
0.0
 10
12.1856430882
 20
4.8039449988
 30
0.0
 10
12.1873741062
 20
4.7975478047
 30
0.0
 10
12.1884817289
 20
4.7932773779
 30
0.0
  0
SPLINE
  5
364
100
AcDbEntity
  8
0
100
AcDbSpline
 62
9
  6
CONTINUOUS
 70
0
 71
3
 72
43
 73
39
 74
0
 42
0.0000001
 43
0.0000001
 44
0.0000000001
 40
0.0
 40
0.0
 40
0.0
 40
0.0
 40
0.0304028437
 40
0.0610832392
 40
0.0920507499
 40
0.1233211578
 40
0.1549039131
 40
0.1867983576
 40
0.218993988
 40
0.25146928
 40
0.2841838782
 40
0.3170701872
 40
0.3500230144
 40
0.3664815837
 40
0.3828884948
 40
0.3992066233
 40
0.4153910026
 40
0.4234190806
 40
0.431398557
 40
0.4393308396
 40
0.4472196876
 40
0.4628955215
 40
0.4784790659
 40
0.4940025871
 40
0.5094843806
 40
0.5249356514
 40
0.5403633363
 40
0.5711658213
 40
0.6019169495
 40
0.6326306958
 40
0.6633162122
 40
0.6939794494
 40
0.7246249166
 40
0.7552558299
 40
0.8164835113
 40
0.8776772598
 40
0.9388469771
 40
1.0
 40
1.0
 40
1.0
 40
1.0
 10
12.0928584958
 20
4.9334176935
 30
0.0
 10
12.0944754618
 20
4.9334175974
 30
0.0
 10
12.0977248594
 20
4.9333305266
 30
0.0
 10
12.1026065618
 20
4.932929403
 30
0.0
 10
12.1075034357
 20
4.9322438842
 30
0.0
 10
12.1123986456
 20
4.9312612363
 30
0.0
 10
12.1172714117
 20
4.929963996
 30
0.0
 10
12.1220977406
 20
4.9283408858
 30
0.0
 10
12.1268492332
 20
4.9263810189
 30
0.0
 10
12.1314901452
 20
4.9240711123
 30
0.0
 10
12.1359760429
 20
4.9213988538
 30
0.0
 10
12.1402520789
 20
4.918357177
 30
0.0
 10
12.1435846278
 20
4.9155082166
 30
0.0
 10
12.1460648928
 20
4.9130359511
 30
0.0
 10
12.1478131085
 20
4.9110880736
 30
0.0
 10
12.1494299474
 20
4.9090481458
 30
0.0
 10
12.1506518921
 20
4.9072698929
 30
0.0
 10
12.151542127
 20
4.9058070218
 30
0.0
 10
12.1521638541
 20
4.9046955965
 30
0.0
 10
12.1527456037
 20
4.9035711498
 30
0.0
 10
12.15347274
 20
4.9020618356
 30
0.0
 10
12.1543126001
 20
4.9001560977
 30
0.0
 10
12.15525475
 20
4.8978530902
 30
0.0
 10
12.1561531492
 20
4.8955437826
 30
0.0
 10
12.1570211458
 20
4.8932304465
 30
0.0
 10
12.157867074
 20
4.8909143902
 30
0.0
 10
12.1589714288
 20
4.8878253353
 30
0.0
 10
12.1603185912
 20
4.8839590253
 30
0.0
 10
12.1618997412
 20
4.8793134958
 30
0.0
 10
12.1634539728
 20
4.8746654585
 30
0.0
 10
12.1649880151
 20
4.8700156497
 30
0.0
 10
12.1665059032
 20
4.8653643656
 30
0.0
 10
12.168010993
 20
4.8607119791
 30
0.0
 10
12.1700032777
 20
4.8545087122
 30
0.0
 10
12.1724720477
 20
4.8467520582
 30
0.0
 10
12.1754105792
 20
4.8374404785
 30
0.0
 10
12.1783313446
 20
4.8281274747
 30
0.0
 10
12.1802704409
 20
4.8219174809
 30
0.0
 10
12.1812384558
 20
4.8188124713
 30
0.0
  0
SPLINE
  5
365
100
AcDbEntity
  8
0
100
AcDbSpline
 62
9
  6
CONTINUOUS
 70
0
 71
3
 72
11
 73
7
 74
0
 42
0.0000001
 43
0.0000001
 44
0.0000000001
 40
0.0
 40
0.0
 40
0.0
 40
0.0
 40
0.2393576934
 40
0.4877967634
 40
0.7423761063
 40
1.0
 40
1.0
 40
1.0
 40
1.0
 10
11.3650371055
 20
4.9334176935
 30
0.0
 10
11.3649179818
 20
4.9328382401
 30
0.0
 10
11.3647099282
 20
4.9316500058
 30
0.0
 10
11.3644886563
 20
4.9298278647
 30
0.0
 10
11.3643547677
 20
4.9279519958
 30
0.0
 10
11.3643249017
 20
4.9266858833
 30
0.0
 10
11.3643249265
 20
4.9260491671
 30
0.0
  0
SPLINE
  5
366
100
AcDbEntity
  8
0
100
AcDbSpline
 62
9
  6
CONTINUOUS
 70
0
 71
3
 72
21
 73
17
 74
0
 42
0.0000001
 43
0.0000001
 44
0.0000000001
 40
0.0
 40
0.0
 40
0.0
 40
0.0
 40
0.1703774367
 40
0.3342217534
 40
0.4122443947
 40
0.4869352281
 40
0.5578227947
 40
0.6245020133
 40
0.686657511
 40
0.7440720786
 40
0.7966720498
 40
0.8445527869
 40
0.8880371539
 40
0.9277459992
 40
0.9646450712
 40
1.0
 40
1.0
 40
1.0
 40
1.0
 10
12.1629725394
 20
4.6401741125
 30
0.0
 10
12.1629500629
 20
4.6411735149
 30
0.0
 10
12.1628310918
 20
4.6431331342
 30
0.0
 10
12.1624911116
 20
4.6455310358
 30
0.0
 10
12.1621051832
 20
4.6473484703
 30
0.0
 10
12.1617700597
 20
4.6486174819
 30
0.0
 10
12.1613877289
 20
4.6498034182
 30
0.0
 10
12.1609614268
 20
4.6508958112
 30
0.0
 10
12.1604950775
 20
4.6518851716
 30
0.0
 10
12.1599924838
 20
4.6527628748
 30
0.0
 10
12.15945791
 20
4.6535214746
 30
0.0
 10
12.1588953327
 20
4.6541544379
 30
0.0
 10
12.1583087353
 20
4.6546561881
 30
0.0
 10
12.1577015507
 20
4.6550214237
 30
0.0
 10
12.1570785342
 20
4.6552441022
 30
0.0
 10
12.156653131
 20
4.6552946624
 30
0.0
 10
12.1564456931
 20
4.6552946624
 30
0.0
  0
SPLINE
  5
367
100
AcDbEntity
  8
0
100
AcDbSpline
 62
9
  6
CONTINUOUS
 70
0
 71
3
 72
13
 73
9
 74
0
 42
0.0000001
 43
0.0000001
 44
0.0000000001
 40
0.0
 40
0.0
 40
0.0
 40
0.0
 40
0.2629104936
 40
0.5198379987
 40
0.6451068814
 40
0.7674894293
 40
0.8861651364
 40
1.0
 40
1.0
 40
1.0
 40
1.0
 10
12.6378907008
 20
4.8435839268
 30
0.0
 10
12.6381812797
 20
4.8508182035
 30
0.0
 10
12.6388121479
 20
4.8651199399
 30
0.0
 10
12.6397526556
 20
4.8828604724
 30
0.0
 10
12.6405957319
 20
4.8967301827
 30
0.0
 10
12.6412646405
 20
4.9067960738
 30
0.0
 10
12.6419742699
 20
4.9165434994
 30
0.0
 10
12.6424855862
 20
4.9229260815
 30
0.0
 10
12.6427499316
 20
4.9260497357
 30
0.0
  0
SPLINE
  5
368
100
AcDbEntity
  8
0
100
AcDbSpline
 62
9
  6
CONTINUOUS
 70
0
 71
3
 72
16
 73
12
 74
0
 42
0.0000001
 43
0.0000001
 44
0.0000000001
 40
0.0
 40
0.0
 40
0.0
 40
0.0
 40
0.121615909
 40
0.2446161075
 40
0.3065502422
 40
0.3687312955
 40
0.4311373138
 40
0.4937491049
 40
0.6194971975
 40
0.7458617912
 40
1.0
 40
1.0
 40
1.0
 40
1.0
 10
12.2781324672
 20
4.9260497071
 30
0.0
 10
12.2799270703
 20
4.9229858618
 30
0.0
 10
12.283307742
 20
4.9166874016
 30
0.0
 10
12.2870523475
 20
4.9085533241
 30
0.0
 10
12.2898158167
 20
4.9018880592
 30
0.0
 10
12.2917832866
 20
4.8968096358
 30
0.0
 10
12.2936468303
 20
4.8916711958
 30
0.0
 10
12.2960032802
 20
4.884738916
 30
0.0
 10
12.2987162027
 20
4.8759574423
 30
0.0
 10
12.3026114583
 20
4.861697406
 30
0.0
 10
12.3050696709
 20
4.8508564701
 30
0.0
 10
12.3065411
 20
4.8435839268
 30
0.0
  0
SPLINE
  5
369
100
AcDbEntity
  8
0
100
AcDbSpline
 62
9
  6
CONTINUOUS
 70
0
 71
3
 72
15
 73
11
 74
0
 42
0.0000001
 43
0.0000001
 44
0.0000000001
 40
0.0
 40
0.0
 40
0.0
 40
0.0
 40
0.1277054056
 40
0.2553718327
 40
0.3825910379
 40
0.5090215738
 40
0.6343125911
 40
0.7581212485
 40
0.8801344733
 40
1.0
 40
1.0
 40
1.0
 40
1.0
 10
12.3065411
 20
4.8435839268
 30
0.0
 10
12.3067405015
 20
4.8399990787
 30
0.0
 10
12.3072419057
 20
4.8328357874
 30
0.0
 10
12.3082935178
 20
4.8221295785
 30
0.0
 10
12.309643199
 20
4.811492785
 30
0.0
 10
12.3112977767
 20
4.8009666416
 30
0.0
 10
12.3132541598
 20
4.7905898992
 30
0.0
 10
12.315507418
 20
4.7804005818
 30
0.0
 10
12.3180509226
 20
4.7704372081
 30
0.0
 10
12.319952591
 20
4.7639065538
 30
0.0
 10
12.3209514238
 20
4.7606880045
 30
0.0
  0
LINE
  5
36A
100
AcDbEntity
  8
0
100
AcDbLine
 62
9
  6
CONTINUOUS
 10
12.3209514238
 20
4.7606880045
 11
12.3419155839
 21
4.6822680174
  0
LINE
  5
36B
100
AcDbEntity
  8
0
100
AcDbLine
 62
9
  6
CONTINUOUS
 10
12.6986312286
 20
4.6822680174
 11
12.6575291096
 21
4.7606880045
  0
SPLINE
  5
36C
100
AcDbEntity
  8
0
100
AcDbSpline
 62
9
  6
CONTINUOUS
 70
0
 71
3
 72
22
 73
18
 74
0
 42
0.0000001
 43
0.0000001
 44
0.0000000001
 40
0.0
 40
0.0
 40
0.0
 40
0.0
 40
0.0765078412
 40
0.1513135726
 40
0.2242201193
 40
0.2951724403
 40
0.3641184335
 40
0.4309747245
 40
0.5582559968
 40
0.6188374472
 40
0.6774683975
 40
0.7342993
 40
0.7895282876
 40
0.8434001452
 40
0.8962120536
 40
0.9483015152
 40
1.0
 40
1.0
 40
1.0
 40
1.0
 10
12.3419155287
 20
4.6822680174
 30
0.0
 10
12.3422454671
 20
4.6812688509
 30
0.0
 10
12.342944428
 20
4.6793076905
 30
0.0
 10
12.3441194956
 20
4.6764553147
 30
0.0
 10
12.3454052309
 20
4.6737350585
 30
0.0
 10
12.3468032466
 20
4.6711619476
 30
0.0
 10
12.3483098756
 20
4.6687479541
 30
0.0
 10
12.3504159416
 20
4.665803977
 30
0.0
 10
12.3527353265
 20
4.6631591365
 30
0.0
 10
12.3552548613
 20
4.6608863899
 30
0.0
 10
12.3571819994
 20
4.6594157706
 30
0.0
 10
12.3591682973
 20
4.6581585853
 30
0.0
 10
12.3612048198
 20
4.6571210263
 30
0.0
 10
12.3632820309
 20
4.6563082369
 30
0.0
 10
12.3653904127
 20
4.6557244528
 30
0.0
 10
12.3675193428
 20
4.6553731175
 30
0.0
 10
12.36894797
 20
4.6552946589
 30
0.0
 10
12.3696589929
 20
4.6552946624
 30
0.0
  0
SPLINE
  5
36D
100
AcDbEntity
  8
0
100
AcDbSpline
 62
9
  6
CONTINUOUS
 70
0
 71
3
 72
15
 73
11
 74
0
 42
0.0000001
 43
0.0000001
 44
0.0000000001
 40
0.0
 40
0.0
 40
0.0
 40
0.0
 40
0.1245474108
 40
0.249153668
 40
0.3738649083
 40
0.498719358
 40
0.6237483902
 40
0.7489714355
 40
0.8743855508
 40
1.0
 40
1.0
 40
1.0
 40
1.0
 10
12.7425061405
 20
4.6552946624
 30
0.0
 10
12.7402585181
 20
4.6552946392
 30
0.0
 10
12.7357560367
 20
4.6556059168
 30
0.0
 10
12.729133435
 20
4.6569978761
 30
0.0
 10
12.7227585297
 20
4.6592888893
 30
0.0
 10
12.7167518493
 20
4.6624362954
 30
0.0
 10
12.711224811
 20
4.6663811916
 30
0.0
 10
12.7062801158
 20
4.6710503099
 30
0.0
 10
12.7020106014
 20
4.6763556803
 30
0.0
 10
12.6996662154
 20
4.6802512029
 30
0.0
 10
12.6986312286
 20
4.6822680174
 30
0.0
  0
SPLINE
  5
36E
100
AcDbEntity
  8
0
100
AcDbSpline
 62
9
  6
CONTINUOUS
 70
0
 71
3
 72
43
 73
39
 74
0
 42
0.0000001
 43
0.0000001
 44
0.0000000001
 40
0.0
 40
0.0
 40
0.0
 40
0.0
 40
0.0611530804
 40
0.1223230561
 40
0.1835170889
 40
0.244745111
 40
0.2753762226
 40
0.3060219059
 40
0.336685394
 40
0.3673712006
 40
0.3980852849
 40
0.4288368186
 40
0.4596398616
 40
0.4750678727
 40
0.490519535
 40
0.506001898
 40
0.5215261779
 40
0.5371109099
 40
0.544935407
 40
0.5527885603
 40
0.5686102018
 40
0.5765911527
 40
0.5846209193
 40
0.6008064945
 40
0.6171258779
 40
0.6335335454
 40
0.6499924732
 40
0.6664737705
 40
0.6829548135
 40
0.7158409346
 40
0.7485551987
 40
0.7810299794
 40
0.8132251164
 40
0.8451191369
 40
0.8767015006
 40
0.9079724085
 40
0.9389392119
 40
1.0
 40
1.0
 40
1.0
 40
1.0
 10
11.2766674077
 20
4.8188800778
 30
0.0
 10
11.2776349813
 20
4.8219836699
 30
0.0
 10
11.2795731214
 20
4.8281908625
 30
0.0
 10
11.2824927156
 20
4.8374995884
 30
0.0
 10
11.2854300175
 20
4.8468069222
 30
0.0
 10
11.287897803
 20
4.8545600282
 30
0.0
 10
11.2898893189
 20
4.8607604542
 30
0.0
 10
11.2913938367
 20
4.8654107122
 30
0.0
 10
11.2929111755
 20
4.8700598639
 30
0.0
 10
11.2944446877
 20
4.8747075385
 30
0.0
 10
11.2959984187
 20
4.8793534374
 30
0.0
 10
11.2975790879
 20
4.8839968329
 30
0.0
 10
11.2989259481
 20
4.8878613378
 30
0.0
 10
11.3000300904
 20
4.8909489477
 30
0.0
 10
11.3008758754
 20
4.893263927
 30
0.0
 10
11.30174389
 20
4.8955761539
 30
0.0
 10
11.3026423829
 20
4.8978843284
 30
0.0
 10
11.3034266707
 20
4.8997998971
 30
0.0
 10
11.3040877421
 20
4.9013247663
 30
0.0
 10
11.3047800097
 20
4.9028495164
 30
0.0
 10
11.3055298745
 20
4.9043572682
 30
0.0
 10
11.3063582905
 20
4.9058332335
 30
0.0
 10
11.3072497144
 20
4.9072947249
 30
0.0
 10
11.3084719425
 20
4.9090718402
 30
0.0
 10
11.3100898946
 20
4.9111096175
 30
0.0
 10
11.3118385635
 20
4.9130555729
 30
0.0
 10
11.3136982852
 20
4.9149075538
 30
0.0
 10
11.3156530345
 20
4.916664583
 30
0.0
 10
11.3183652889
 20
4.9188792632
 30
0.0
 10
11.3219266959
 20
4.9214104769
 30
0.0
 10
11.3264110353
 20
4.9240800109
 30
0.0
 10
11.3310503512
 20
4.9263878115
 30
0.0
 10
11.3358000349
 20
4.9283456016
 30
0.0
 10
11.3406242881
 20
4.9299674567
 30
0.0
 10
11.3454950641
 20
4.9312628223
 30
0.0
 10
11.3503880941
 20
4.9322456932
 30
0.0
 10
11.3568822126
 20
4.9331532428
 30
0.0
 10
11.3617803958
 20
4.933417382
 30
0.0
 10
11.3650264097
 20
4.9334176935
 30
0.0
  0
SPLINE
  5
36F
100
AcDbEntity
  8
0
100
AcDbSpline
 62
9
  6
CONTINUOUS
 70
0
 71
3
 72
11
 73
7
 74
0
 42
0.0000001
 43
0.0000001
 44
0.0000000001
 40
0.0
 40
0.0
 40
0.0
 40
0.0
 40
0.2489754038
 40
0.4985966131
 40
0.7489102163
 40
1.0
 40
1.0
 40
1.0
 40
1.0
 10
11.269392733
 20
4.7932379141
 30
0.0
 10
11.2699481535
 20
4.7953793254
 30
0.0
 10
11.2710829537
 20
4.7996618989
 30
0.0
 10
11.2728568234
 20
4.8060756882
 30
0.0
 10
11.2747101907
 20
4.812486537
 30
0.0
 10
11.27600339
 20
4.8167501264
 30
0.0
 10
11.2766674077
 20
4.8188800778
 30
0.0
  0
SPLINE
  5
370
100
AcDbEntity
  8
0
100
AcDbSpline
 62
9
  6
CONTINUOUS
 70
0
 71
3
 72
11
 73
7
 74
0
 42
0.0000001
 43
0.0000001
 44
0.0000000001
 40
0.0
 40
0.0
 40
0.0
 40
0.0
 40
0.2420179566
 40
0.4908338912
 40
0.7442725006
 40
1.0
 40
1.0
 40
1.0
 40
1.0
 10
12.2770591091
 20
4.9334176935
 30
0.0
 10
12.2772374656
 20
4.9328418854
 30
0.0
 10
12.2775502736
 20
4.9316584576
 30
0.0
 10
12.2778847878
 20
4.9298334181
 30
0.0
 10
12.2780872373
 20
4.9279547618
 30
0.0
 10
12.2781324884
 20
4.9266861122
 30
0.0
 10
12.2781325101
 20
4.9260491671
 30
0.0
  0
SPLINE
  5
371
100
AcDbEntity
  8
0
100
AcDbSpline
 62
9
  6
CONTINUOUS
 70
0
 71
3
 72
15
 73
11
 74
0
 42
0.0000001
 43
0.0000001
 44
0.0000000001
 40
0.0
 40
0.0
 40
0.0
 40
0.0
 40
0.1253311339
 40
0.2505956695
 40
0.3757717389
 40
0.5008278747
 40
0.6257597062
 40
0.7505804801
 40
0.8753092143
 40
1.0
 40
1.0
 40
1.0
 40
1.0
 10
12.7857194855
 20
4.6401741125
 30
0.0
 10
12.7856643204
 20
4.6411815369
 30
0.0
 10
12.7853631264
 20
4.6431905719
 30
0.0
 10
12.784355485
 20
4.6460610222
 30
0.0
 10
12.7828279893
 20
4.6486906142
 30
0.0
 10
12.7808350161
 20
4.6509837829
 30
0.0
 10
12.7784480266
 20
4.6528588337
 30
0.0
 10
12.7757519623
 20
4.6542482921
 30
0.0
 10
12.7728447969
 20
4.6551025591
 30
0.0
 10
12.7708316926
 20
4.6552946624
 30
0.0
 10
12.7698279139
 20
4.6552946624
 30
0.0
  0
LINE
  5
372
100
AcDbEntity
  8
0
100
AcDbLine
 62
9
  6
CONTINUOUS
 10
11.2443990676
 20
4.6968754317
 11
11.269392733
 21
4.7932379141
  0
SPLINE
  5
373
100
AcDbEntity
  8
0
100
AcDbSpline
 62
9
  6
CONTINUOUS
 70
0
 71
3
 72
63
 73
59
 74
0
 42
0.0000001
 43
0.0000001
 44
0.0000000001
 40
0.0
 40
0.0
 40
0.0
 40
0.0
 40
0.0075616457
 40
0.0154051241
 40
0.0236261127
 40
0.0323046259
 40
0.0415051434
 40
0.051277581
 40
0.0616589936
 40
0.0726753941
 40
0.0843434305
 40
0.0966718289
 40
0.1096625871
 40
0.1233120037
 40
0.1376114935
 40
0.1525482357
 40
0.1681056838
 40
0.1842640375
 40
0.2010006222
 40
0.2182901959
 40
0.2361051933
 40
0.2544159797
 40
0.2731910739
 40
0.2923973324
 40
0.3120001047
 40
0.3319634015
 40
0.3728202934
 40
0.4146608228
 40
0.4571637983
 40
0.5
 40
0.5428362017
 40
0.5853391772
 40
0.6271797066
 40
0.6680365985
 40
0.6879998953
 40
0.7076026676
 40
0.7268089261
 40
0.7455840203
 40
0.7638948067
 40
0.7817098041
 40
0.7989993778
 40
0.8157359625
 40
0.8318943162
 40
0.8474517643
 40
0.8623885065
 40
0.8766879963
 40
0.8903374129
 40
0.9033281711
 40
0.9156565695
 40
0.9273246059
 40
0.9383410064
 40
0.948722419
 40
0.9584948566
 40
0.9676953741
 40
0.9763738873
 40
0.9845948759
 40
0.9924383543
 40
1.0
 40
1.0
 40
1.0
 40
1.0
 10
12.0734686982
 20
11.5931753268
 30
0.0
 10
12.0730969308
 20
11.5950447574
 30
0.0
 10
12.0720811941
 20
11.5988060585
 30
0.0
 10
12.0698160036
 20
11.6043284329
 30
0.0
 10
12.0667967151
 20
11.6098002091
 30
0.0
 10
12.0630331995
 20
11.6152090738
 30
0.0
 10
12.0585355796
 20
11.6205452858
 30
0.0
 10
12.0533146616
 20
11.6257987733
 30
0.0
 10
12.0473821925
 20
11.6309595537
 30
0.0
 10
12.0407510923
 20
11.636017443
 30
0.0
 10
12.0334356274
 20
11.6409621642
 30
0.0
 10
12.0254515164
 20
11.645783418
 30
0.0
 10
12.0168159745
 20
11.6504710016
 30
0.0
 10
12.0075476788
 20
11.6550148513
 30
0.0
 10
11.9976667392
 20
11.659405118
 30
0.0
 10
11.9871946625
 20
11.6636322143
 30
0.0
 10
11.976154316
 20
11.6676868889
 30
0.0
 10
11.9645698556
 20
11.6715602328
 30
0.0
 10
11.9524666612
 20
11.6752437126
 30
0.0
 10
11.9398712814
 20
11.6787291923
 30
0.0
 10
11.9268113806
 20
11.6820089812
 30
0.0
 10
11.9133156687
 20
11.6850758373
 30
0.0
 10
11.8994138213
 20
11.6879229827
 30
0.0
 10
11.8851364342
 20
11.6905441025
 30
0.0
 10
11.870514888
 20
11.6929334392
 30
0.0
 10
11.8504492591
 20
11.6958252112
 30
0.0
 10
11.8247388815
 20
11.6988120239
 30
0.0
 10
11.7932785891
 20
11.7013758087
 30
0.0
 10
11.7612524682
 20
11.7029232841
 30
0.0
 10
11.7289423428
 20
11.7034406365
 30
0.0
 10
11.6966322174
 20
11.7029232841
 30
0.0
 10
11.6646060964
 20
11.7013758087
 30
0.0
 10
11.633145804
 20
11.6988120239
 30
0.0
 10
11.6074354264
 20
11.6958252112
 30
0.0
 10
11.5873697975
 20
11.6929334392
 30
0.0
 10
11.5727482513
 20
11.6905441025
 30
0.0
 10
11.5584708642
 20
11.6879229827
 30
0.0
 10
11.5445690168
 20
11.6850758373
 30
0.0
 10
11.5310733049
 20
11.6820089812
 30
0.0
 10
11.5180134042
 20
11.6787291923
 30
0.0
 10
11.5054180243
 20
11.6752437126
 30
0.0
 10
11.4933148299
 20
11.6715602328
 30
0.0
 10
11.4817303695
 20
11.6676868889
 30
0.0
 10
11.470690023
 20
11.6636322143
 30
0.0
 10
11.4602179463
 20
11.659405118
 30
0.0
 10
11.4503370067
 20
11.6550148513
 30
0.0
 10
11.441068711
 20
11.6504710016
 30
0.0
 10
11.4324331691
 20
11.645783418
 30
0.0
 10
11.4244490582
 20
11.6409621642
 30
0.0
 10
11.4171335932
 20
11.636017443
 30
0.0
 10
11.410502493
 20
11.6309595537
 30
0.0
 10
11.4045700239
 20
11.6257987733
 30
0.0
 10
11.3993491059
 20
11.6205452858
 30
0.0
 10
11.3948514861
 20
11.6152090738
 30
0.0
 10
11.3910879704
 20
11.6098002091
 30
0.0
 10
11.3880686819
 20
11.6043284329
 30
0.0
 10
11.3858034914
 20
11.5988060585
 30
0.0
 10
11.3847877547
 20
11.5950447574
 30
0.0
 10
11.3844159873
 20
11.5931753268
 30
0.0
  0
SPLINE
  5
374
100
AcDbEntity
  8
0
100
AcDbSpline
 62
9
  6
CONTINUOUS
 70
0
 71
3
 72
63
 73
59
 74
0
 42
0.0000001
 43
0.0000001
 44
0.0000000001
 40
0.0
 40
0.0
 40
0.0
 40
0.0
 40
0.0075792625
 40
0.0154541915
 40
0.0237168324
 40
0.0324437774
 40
0.0416965804
 40
0.0515226443
 40
0.0619569934
 40
0.0730240217
 40
0.0847391177
 40
0.0971100573
 40
0.1101381305
 40
0.1238191155
 40
0.13814407
 40
0.153099956
 40
0.168670125
 40
0.1848347578
 40
0.2015712412
 40
0.2188544667
 40
0.2366570672
 40
0.2549496499
 40
0.2737010218
 40
0.2928783698
 40
0.3124474127
 40
0.3323725576
 40
0.3731416207
 40
0.4148820186
 40
0.4572765075
 40
0.5
 40
0.5427234925
 40
0.5851179814
 40
0.6268583793
 40
0.6676274424
 40
0.6875525873
 40
0.7071216302
 40
0.7262989782
 40
0.7450503501
 40
0.7633429328
 40
0.7811455333
 40
0.7984287588
 40
0.8151652422
 40
0.831329875
 40
0.846900044
 40
0.86185593
 40
0.8761808845
 40
0.8898618695
 40
0.9028899427
 40
0.9152608823
 40
0.9269759783
 40
0.9380430066
 40
0.9484773557
 40
0.9583034196
 40
0.9675562226
 40
0.9762831676
 40
0.9845458085
 40
0.9924207375
 40
1.0
 40
1.0
 40
1.0
 40
1.0
 10
12.0734578552
 20
11.5931474311
 30
0.0
 10
12.0730460295
 20
11.5950092723
 30
0.0
 10
12.0719518701
 20
11.5987532961
 30
0.0
 10
12.0695809951
 20
11.6042431203
 30
0.0
 10
12.0664646438
 20
11.6096812319
 30
0.0
 10
12.0626126134
 20
11.6150556083
 30
0.0
 10
12.0580349698
 20
11.6203567051
 30
0.0
 10
12.0527424281
 20
11.625574565
 30
0.0
 10
12.0467467135
 20
11.6306993187
 30
0.0
 10
12.0400607285
 20
11.6357209063
 30
0.0
 10
12.0326987115
 20
11.6406291884
 30
0.0
 10
12.0246763233
 20
11.6454140101
 30
0.0
 10
12.0160106937
 20
11.6500653224
 30
0.0
 10
12.0067203916
 20
11.6545732309
 30
0.0
 10
11.996825384
 20
11.658928055
 30
0.0
 10
11.9863469982
 20
11.6631203742
 30
0.0
 10
11.9753078884
 20
11.6671410963
 30
0.0
 10
11.9637319722
 20
11.6709814782
 30
0.0
 10
11.9516443617
 20
11.674633144
 30
0.0
 10
11.9390713071
 20
11.6780881092
 30
0.0
 10
11.9260401461
 20
11.681338822
 30
0.0
 10
11.9125792394
 20
11.6843781799
 30
0.0
 10
11.898717891
 20
11.6871995339
 30
0.0
 10
11.8844863013
 20
11.689796691
 30
0.0
 10
11.8699154348
 20
11.6921639997
 30
0.0
 10
11.8499254932
 20
11.6950286847
 30
0.0
 10
11.8243187957
 20
11.6979874296
 30
0.0
 10
11.7929917038
 20
11.7005270812
 30
0.0
 10
11.7611069659
 20
11.7020598978
 30
0.0
 10
11.7289423428
 20
11.7025723334
 30
0.0
 10
11.6967777197
 20
11.7020598978
 30
0.0
 10
11.6648929817
 20
11.7005270812
 30
0.0
 10
11.6335658898
 20
11.6979874296
 30
0.0
 10
11.6079591923
 20
11.6950286847
 30
0.0
 10
11.5879692507
 20
11.6921639997
 30
0.0
 10
11.5733983842
 20
11.689796691
 30
0.0
 10
11.5591667946
 20
11.6871995339
 30
0.0
 10
11.5453054461
 20
11.6843781799
 30
0.0
 10
11.5318445395
 20
11.681338822
 30
0.0
 10
11.5188133784
 20
11.6780881092
 30
0.0
 10
11.5062403238
 20
11.674633144
 30
0.0
 10
11.4941527133
 20
11.6709814782
 30
0.0
 10
11.4825767971
 20
11.6671410963
 30
0.0
 10
11.4715376873
 20
11.6631203742
 30
0.0
 10
11.4610593016
 20
11.658928055
 30
0.0
 10
11.4511642939
 20
11.6545732309
 30
0.0
 10
11.4418739918
 20
11.6500653224
 30
0.0
 10
11.4332083622
 20
11.6454140101
 30
0.0
 10
11.425185974
 20
11.6406291884
 30
0.0
 10
11.417823957
 20
11.6357209063
 30
0.0
 10
11.411137972
 20
11.6306993187
 30
0.0
 10
11.4051422574
 20
11.625574565
 30
0.0
 10
11.3998497157
 20
11.6203567051
 30
0.0
 10
11.3952720721
 20
11.6150556083
 30
0.0
 10
11.3914200417
 20
11.6096812319
 30
0.0
 10
11.3883036904
 20
11.6042431203
 30
0.0
 10
11.3859328154
 20
11.5987532961
 30
0.0
 10
11.384838656
 20
11.5950092723
 30
0.0
 10
11.3844268303
 20
11.5931474311
 30
0.0
  0
SPLINE
  5
375
100
AcDbEntity
  8
0
100
AcDbSpline
 62
9
  6
CONTINUOUS
 70
0
 71
3
 72
11
 73
7
 74
0
 42
0.0000001
 43
0.0000001
 44
0.0000000001
 40
0.0
 40
0.0
 40
0.0
 40
0.0
 40
0.239009737
 40
0.4850649088
 40
0.738764239
 40
1.0
 40
1.0
 40
1.0
 40
1.0
 10
11.2442115943
 20
4.6726194942
 30
0.0
 10
11.2436648895
 20
4.6744958745
 30
0.0
 10
11.2428647559
 20
4.6783998631
 30
0.0
 10
11.2425326494
 20
4.6844504987
 30
0.0
 10
11.243025475
 20
4.6906701707
 30
0.0
 10
11.2438627807
 20
4.6948076991
 30
0.0
 10
11.2443990676
 20
4.6968754317
 30
0.0
  0
LINE
  5
376
100
AcDbEntity
  8
0
100
AcDbLine
 62
9
  6
CONTINUOUS
 10
11.414884161
 20
11.4999824048
 11
11.4120234218
 21
11.5043522076
  0
SPLINE
  5
377
100
AcDbEntity
  8
0
100
AcDbSpline
 62
9
  6
CONTINUOUS
 70
0
 71
3
 72
14
 73
10
 74
0
 42
0.0000001
 43
0.0000001
 44
0.0000000001
 40
0.0
 40
0.0
 40
0.0
 40
0.0
 40
0.2645220787
 40
0.3920216535
 40
0.516884045
 40
0.6395943608
 40
0.7606684428
 40
0.8806290208
 40
1.0
 40
1.0
 40
1.0
 40
1.0
 10
11.4120234218
 20
11.5043522076
 30
0.0
 10
11.4109814128
 20
11.5061100549
 30
0.0
 10
11.4095777832
 20
11.5088043569
 30
0.0
 10
11.4080766367
 20
11.5125067085
 30
0.0
 10
11.4071652288
 20
11.5152595383
 30
0.0
 10
11.4064555558
 20
11.518019864
 30
0.0
 10
11.4059481095
 20
11.5207861085
 30
0.0
 10
11.4056434048
 20
11.5235559105
 30
0.0
 10
11.4055756747
 20
11.525405506
 30
0.0
 10
11.4055758053
 20
11.5263276679
 30
0.0
  0
SPLINE
  5
378
100
AcDbEntity
  8
0
100
AcDbSpline
 62
9
  6
CONTINUOUS
 70
0
 71
3
 72
67
 73
63
 74
0
 42
0.0000001
 43
0.0000001
 44
0.0000000001
 40
0.0
 40
0.0
 40
0.0
 40
0.0
 40
0.0037452633
 40
0.0075169964
 40
0.0113309702
 40
0.0152026481
 40
0.0231733145
 40
0.0315388823
 40
0.0403870477
 40
0.0497879635
 40
0.0597953573
 40
0.0704485729
 40
0.0817746854
 40
0.0937903948
 40
0.1065036741
 40
0.1199151897
 40
0.1340194162
 40
0.1488054924
 40
0.1642579485
 40
0.1803573376
 40
0.1970807159
 40
0.2144020062
 40
0.2322923549
 40
0.2507204596
 40
0.2696528187
 40
0.2890539287
 40
0.308886517
 40
0.3291117545
 40
0.3705763101
 40
0.4131140122
 40
0.4563750138
 40
0.5
 40
0.5436249862
 40
0.5868859878
 40
0.6294236899
 40
0.6708882455
 40
0.691113483
 40
0.7109460713
 40
0.7303471813
 40
0.7492795404
 40
0.7677076451
 40
0.7855979938
 40
0.8029192841
 40
0.8196426624
 40
0.8357420515
 40
0.8511945076
 40
0.8659805838
 40
0.8800848103
 40
0.8934963259
 40
0.9062096052
 40
0.9182253146
 40
0.9295514271
 40
0.9402046427
 40
0.9502120365
 40
0.9596129523
 40
0.9684611177
 40
0.9768266855
 40
0.9847973519
 40
0.9886690298
 40
0.9924830036
 40
0.9962547367
 40
1.0
 40
1.0
 40
1.0
 40
1.0
 10
12.0128533804
 20
11.3385089537
 30
0.0
 10
12.0128205211
 20
11.3392976206
 30
0.0
 10
12.0126981416
 20
11.3408787421
 30
0.0
 10
12.0123465083
 20
11.3432426773
 30
0.0
 10
12.0118265166
 20
11.3456027925
 30
0.0
 10
12.0109008128
 20
11.3487721965
 30
0.0
 10
12.0093049781
 20
11.3527342357
 30
0.0
 10
12.00674323
 20
11.3573955008
 30
0.0
 10
12.0035249604
 20
11.3620015343
 30
0.0
 10
11.9996597461
 20
11.366542493
 30
0.0
 10
11.9951575345
 20
11.3710096284
 30
0.0
 10
11.9900291542
 20
11.3753938076
 30
0.0
 10
11.9842865289
 20
11.3796858071
 30
0.0
 10
11.9779428859
 20
11.383876279
 30
0.0
 10
11.9710128434
 20
11.3879558871
 30
0.0
 10
11.9635124038
 20
11.3919153505
 30
0.0
 10
11.9554589484
 20
11.395745529
 30
0.0
 10
11.9468712263
 20
11.399437509
 30
0.0
 10
11.9377693055
 20
11.402982656
 30
0.0
 10
11.9281745012
 20
11.4063726288
 30
0.0
 10
11.9181093243
 20
11.4095994156
 30
0.0
 10
11.9075974387
 20
11.4126553903
 30
0.0
 10
11.8966635941
 20
11.4155333274
 30
0.0
 10
11.8853335511
 20
11.4182264043
 30
0.0
 10
11.8736340172
 20
11.4207282249
 30
0.0
 10
11.8615926088
 20
11.4230328503
 30
0.0
 10
11.8492377113
 20
11.4251348575
 30
0.0
 10
11.8322449276
 20
11.4276816181
 30
0.0
 10
11.8104305464
 20
11.4303126441
 30
0.0
 10
11.7836985416
 20
11.432571325
 30
0.0
 10
11.7564500917
 20
11.4339352002
 30
0.0
 10
11.7289423428
 20
11.4343913062
 30
0.0
 10
11.7014345938
 20
11.4339352002
 30
0.0
 10
11.6741861439
 20
11.432571325
 30
0.0
 10
11.6474541391
 20
11.4303126441
 30
0.0
 10
11.6256397579
 20
11.4276816181
 30
0.0
 10
11.6086469742
 20
11.4251348575
 30
0.0
 10
11.5962920768
 20
11.4230328503
 30
0.0
 10
11.5842506683
 20
11.4207282249
 30
0.0
 10
11.5725511344
 20
11.4182264043
 30
0.0
 10
11.5612210914
 20
11.4155333274
 30
0.0
 10
11.5502872468
 20
11.4126553903
 30
0.0
 10
11.5397753612
 20
11.4095994156
 30
0.0
 10
11.5297101844
 20
11.4063726288
 30
0.0
 10
11.5201153801
 20
11.402982656
 30
0.0
 10
11.5110134592
 20
11.399437509
 30
0.0
 10
11.5024257371
 20
11.395745529
 30
0.0
 10
11.4943722817
 20
11.3919153505
 30
0.0
 10
11.4868718421
 20
11.3879558871
 30
0.0
 10
11.4799417996
 20
11.383876279
 30
0.0
 10
11.4735981566
 20
11.3796858071
 30
0.0
 10
11.4678555313
 20
11.3753938076
 30
0.0
 10
11.462727151
 20
11.3710096284
 30
0.0
 10
11.4582249394
 20
11.366542493
 30
0.0
 10
11.4543597251
 20
11.3620015343
 30
0.0
 10
11.4511414556
 20
11.3573955008
 30
0.0
 10
11.4485797074
 20
11.3527342357
 30
0.0
 10
11.4469838727
 20
11.3487721965
 30
0.0
 10
11.4460581689
 20
11.3456027925
 30
0.0
 10
11.4455381772
 20
11.3432426773
 30
0.0
 10
11.4451865439
 20
11.3408787421
 30
0.0
 10
11.4450641644
 20
11.3392976206
 30
0.0
 10
11.4450313051
 20
11.3385089537
 30
0.0
  0
ENDSEC
  0
SECTION
  2
OBJECTS
  0
DICTIONARY
  5
C
100
AcDbDictionary
280
0
281
1
  3
ACAD_GROUP
350
D
  3
ACAD_MLINESTYLE
350
17
  3
ACAD_LAYOUT
350
1A
  3
ACAD_PLOTSETTINGS
350
19
  3
ACAD_PLOTSTYLENAME
350
E
  0
DICTIONARY
  5
D
102
{ACAD_REACTORS
330
C
102
}
100
AcDbDictionary
280
0
281
1
  0
ACDBDICTIONARYWDFLT
  5
E
102
{ACAD_REACTORS
330
C
102
}
100
AcDbDictionary
281
1
  3
Normal
350
F
100
AcDbDictionaryWithDefault
340
F
  0
DICTIONARY
  5
17
102
{ACAD_REACTORS
330
C
102
}
100
AcDbDictionary
280
0
281
1
  3
Standard
350
18
  0
DICTIONARY
  5
19
102
{ACAD_REACTORS
330
C
102
}
100
AcDbDictionary
281
1
  0
DICTIONARY
  5
1A
102
{ACAD_REACTORS
330
C
102
}
100
AcDbDictionary
281
1
  3
Model
350
379
  3
Layout1
350
37A
  0
ACDBPLACEHOLDER
  5
F
102
{ACAD_REACTORS
330
E
102
}
  0
MLINESTYLE
  5
18
102
{ACAD_REACTORS
330
17
102
}
100
AcDbMlineStyle
  2
STANDARD
 70
0
  3

 62
256
 51
90.0
 52
90.0
 71
2
 49
0.5
 62
256
  6
BYLAYER
 49
-0.5
 62
256
  6
BYLAYER
  0
LAYOUT
  5
379
102
{ACAD_REACTORS
330
1A
102
}
100
AcDbPlotSettings
  1

  2
none_device
  4
ANSI_C_(22.00_x_17.00_Inches)
  6

 40
0.0
 41
0.0
 42
0.0
 43
0.0
 44
558.8
 45
431.8
 46
0.0
 47
0.0
 48
0.0
 49
0.0
140
0.0
141
0.0
142
1.0
143
1.0
 70
1024
 72
0
 73
0
 74
0
  7

 75
0
147
1.0
148
0.0
149
0.0
100
AcDbLayout
  1
Model
 70
0
 71
0
 10
0.0
 20
0.0
 11
22.0
 21
17.0
 12
0.0
 22
0.0
 32
0.0
 14
0.0
 24
0.0
 34
0.0
 15
0.0
 25
0.0
 35
0.0
146
0.0
 13
0.0
 23
0.0
 33
0.0
 16
1.0
 26
0.0
 36
0.0
 17
0.0
 27
1.0
 37
0.0
 76
0
330
205
345
0
346
0
  0
LAYOUT
  5
37A
102
{ACAD_REACTORS
330
1A
102
}
100
AcDbPlotSettings
  1

  2
none_device
  4
ANSI_C_(22.00_x_17.00_Inches)
  6

 40
0.0
 41
0.0
 42
0.0
 43
0.0
 44
558.8
 45
431.8
 46
0.0
 47
0.0
 48
0.0
 49
0.0
140
0.0
141
0.0
142
1.0
143
1.0
 70
0
 72
0
 73
0
 74
0
  7

 75
0
147
1.0
148
0.0
149
0.0
100
AcDbLayout
  1
Layout1
 70
0
 71
1
 10
0.0
 20
0.0
 11
22.0
 21
17.0
 12
0.0
 22
0.0
 32
0.0
 14
0.0
 24
0.0
 34
0.0
 15
0.0
 25
0.0
 35
0.0
146
0.0
 13
0.0
 23
0.0
 33
0.0
 16
1.0
 26
0.0
 36
0.0
 17
0.0
 27
1.0
 37
0.0
 76
0
330
206
345
0
346
0
  0
ENDSEC
  0
EOF
