999
DXF file: E:\BT Custom\CADOUTPUT\_FRONT.dxf
999
Pro/ENGINEER 2018400 by Parametric Technology Corporation
  0
SECTION
  2
HEADER
  9
$ACADVER
  1
AC1018
  9
$DWGCODEPAGE
  3
ANSI_1252
  9
$EXTMAX
 10
22.0
 20
17.0
 30
0.0
  9
$EXTMIN
 10
0.0
 20
0.0
 30
0.0
  9
$LIMMIN
 10
0.0
 20
0.0
  9
$LIMMAX
 10
22.0
 20
17.0
  9
$VIEWCTR
 10
11.0
 20
8.5
  9
$VIEWSIZE
 40
17.0
  9
$CLAYER
  8
0
  9
$LTSCALE
 40
1.21
  9
$CELTYPE
  6
BYLAYER
  9
$DIMSCALE
 40
1.0
  9
$DIMASZ
 40
0.1
  9
$DIMEXO
 40
0.0625
  9
$DIMDLI
 40
0.836
  9
$DIMEXE
 40
0.125
  9
$DIMCEN
 40
0.198
  9
$DIMLFAC
 40
1.0
  9
$DIMBLK
  1
_FILLED
  9
$DIMALT
 70
1
  9
$DIMALTD
 70
2
  9
$DIMALTTD
 70
2
  9
$DIMALTF
 40
25.4
  9
$DIMTXT
 40
0.08
  9
$DIMTOL
 70
1
  9
$DIMLIM
 70
0
  9
$DIMTFAC
 40
1.0
  9
$DIMTP
 40
0.001
  9
$DIMTM
 40
0.001
  9
$DIMGAP
 40
0.09
  9
$DIMDSEP
 70
46
  9
$AUNITS
 70
0
  9
$PDMODE
 70
3
  9
$PDSIZE
 40
0.06
  9
$HANDSEED
  5
36C
  9
$TILEMODE
 70
1
  9
$MEASUREMENT
 70
0
  9
$INSUNITS
 70
1
  0
ENDSEC
  0
SECTION
  2
CLASSES
  0
CLASS
  1
ACDBDICTIONARYWDFLT
  2
AcDbDictionaryWithDefault
  3
AutoCAD 2000
 90
0
 91
1
280
0
281
0
  0
CLASS
  1
ACDBPLACEHOLDER
  2
AcDbPlaceHolder
  3
AutoCAD 2000
 90
0
 91
1
280
0
281
0
  0
CLASS
  1
LAYOUT
  2
AcDbLayout
  3
AutoCAD 2000
 90
0
 91
0
280
0
281
0
  0
ENDSEC
  0
SECTION
  2
TABLES
  0
TABLE
  2
VPORT
  5
8
100
AcDbSymbolTable
 70
2
  0
VPORT
  5
1F4
100
AcDbSymbolTableRecord
100
AcDbViewportTableRecord
  2
*ACTIVE
 70
0
 10
0.0
 20
0.0
 11
1.0
 21
1.0
 12
11.0
 22
8.5
 13
0.0
 23
0.0
 14
1.0
 24
1.0
 15
0.0
 25
0.0
 16
0.0
 26
0.0
 36
1.0
 17
0.0
 27
0.0
 37
0.0
 40
17.0
 41
1.2941176471
 42
50.0
 43
0.0
 44
0.0
 50
0.0
 51
0.0
 71
0
 72
100
 73
1
 74
1
 75
0
 76
0
 77
0
 78
0
  0
ENDTAB
  0
TABLE
  2
LTYPE
  5
5
100
AcDbSymbolTable
 70
6
  0
LTYPE
  5
14
100
AcDbSymbolTableRecord
100
AcDbLinetypeTableRecord
  2
BYBLOCK
 70
0
  3

 72
65
 73
0
 40
0.0
  0
LTYPE
  5
15
100
AcDbSymbolTableRecord
100
AcDbLinetypeTableRecord
  2
BYLAYER
 70
0
  3

 72
65
 73
0
 40
0.0
  0
LTYPE
  5
16
100
AcDbSymbolTableRecord
100
AcDbLinetypeTableRecord
  2
CONTINUOUS
 70
64
  3
Solid line
 72
65
 73
0
 40
0.0
  0
LTYPE
  5
1F5
100
AcDbSymbolTableRecord
100
AcDbLinetypeTableRecord
  2
CENTER
 70
64
  3
____ _ ____ _ ____ _ ____ _ ____ _ ____ _ ____
 72
65
 73
4
 40
0.6
 49
0.375
 74
0
 49
-0.075
 74
0
 49
0.075
 74
0
 49
-0.075
 74
0
  0
LTYPE
  5
1F6
100
AcDbSymbolTableRecord
100
AcDbLinetypeTableRecord
  2
HIDDEN
 70
64
  3
- - - - - - - - - - - - - - - - - - - -
 72
65
 73
2
 40
0.2
 49
0.1
 74
0
 49
-0.1
 74
0
  0
LTYPE
  5
1F7
100
AcDbSymbolTableRecord
100
AcDbLinetypeTableRecord
  2
PHANTOM
 70
64
  3
_____ _ _ _____ _ _ _____ _ _ _____
 72
65
 73
6
 40
0.8
 49
0.45
 74
0
 49
-0.05
 74
0
 49
0.1
 74
0
 49
-0.05
 74
0
 49
0.1
 74
0
 49
-0.05
 74
0
  0
LTYPE
  5
1F8
100
AcDbSymbolTableRecord
100
AcDbLinetypeTableRecord
  2
DOT
 70
64
  3
. . . . . . . . . . . . . . . . . . . .
 72
65
 73
2
 40
0.2
 49
0.1
 74
0
 49
-0.1
 74
0
  0
LTYPE
  5
1F9
100
AcDbSymbolTableRecord
100
AcDbLinetypeTableRecord
  2
DASHED
 70
64
  3
- - - - - - - - - - - - - - - - - - - -
 72
65
 73
2
 40
0.2
 49
0.1
 74
0
 49
-0.1
 74
0
  0
ENDTAB
  0
TABLE
  2
LAYER
  5
2
100
AcDbSymbolTable
 70
36
  0
LAYER
  5
10
100
AcDbSymbolTableRecord
100
AcDbLayerTableRecord
  2
0
 70
0
 62
7
  6
CONTINUOUS
370
-3
390
F
  0
LAYER
  5
1FA
100
AcDbSymbolTableRecord
100
AcDbLayerTableRecord
  2
DEFAULT_1
 70
0
 62
7
  6
CENTER
370
-3
390
F
  0
LAYER
  5
1FB
100
AcDbSymbolTableRecord
100
AcDbLayerTableRecord
  2
DEFAULT_2
 70
0
 62
8
  6
HIDDEN
370
-3
390
F
  0
LAYER
  5
1FC
100
AcDbSymbolTableRecord
100
AcDbLayerTableRecord
  2
DEFAULT_3
 70
0
 62
7
  6
PHANTOM
370
-3
390
F
  0
LAYER
  5
1FD
100
AcDbSymbolTableRecord
100
AcDbLayerTableRecord
  2
ALL_FEATURES
 70
0
 62
7
  6
CONTINUOUS
370
-3
390
F
  0
LAYER
  5
1FE
100
AcDbSymbolTableRecord
100
AcDbLayerTableRecord
  2
AXES_FEATURES
 70
0
 62
7
  6
CONTINUOUS
370
-3
390
F
  0
LAYER
  5
1FF
100
AcDbSymbolTableRecord
100
AcDbLayerTableRecord
  2
DEFAULT_COORDINATE_SYSTEM
 70
0
 62
7
  6
CONTINUOUS
370
-3
390
F
  0
LAYER
  5
200
100
AcDbSymbolTableRecord
100
AcDbLayerTableRecord
  2
DEFAULT_DATUM_AXES
 70
0
 62
7
  6
CONTINUOUS
370
-3
390
F
  0
LAYER
  5
201
100
AcDbSymbolTableRecord
100
AcDbLayerTableRecord
  2
DEFAULT_DATUM_PLANES
 70
0
 62
7
  6
CONTINUOUS
370
-3
390
F
  0
LAYER
  5
202
100
AcDbSymbolTableRecord
100
AcDbLayerTableRecord
  2
DIMENSIONS
 70
0
 62
7
  6
CONTINUOUS
370
-3
390
F
  0
ENDTAB
  0
TABLE
  2
STYLE
  5
3
100
AcDbSymbolTable
 70
1
  0
STYLE
  5
11
100
AcDbSymbolTableRecord
100
AcDbTextStyleTableRecord
  2
STANDARD
 70
0
 40
0.0
 41
0.8
 50
0.0
 71
0
 42
0.2
  3
txt
  4

  0
STYLE
  5
203
100
AcDbSymbolTableRecord
100
AcDbTextStyleTableRecord
  2
TEXTSTYLE_1
 70
0
 40
0.0
 41
0.8
 50
0.0
 71
0
 42
0.2
  3
gdt
  4

  0
ENDTAB
  0
TABLE
  2
VIEW
  5
6
100
AcDbSymbolTable
 70
0
  0
ENDTAB
  0
TABLE
  2
UCS
  5
7
100
AcDbSymbolTable
 70
0
  0
ENDTAB
  0
TABLE
  2
APPID
  5
9
100
AcDbSymbolTable
 70
1
  0
APPID
  5
204
100
AcDbSymbolTableRecord
100
AcDbRegAppTableRecord
  2
ACAD
 70
0
  0
ENDTAB
  0
TABLE
  2
BLOCK_RECORD
  5
1
100
AcDbSymbolTable
 70
0
  0
BLOCK_RECORD
  5
205
100
AcDbSymbolTableRecord
100
AcDbBlockTableRecord
  2
*Model_Space
  0
BLOCK_RECORD
  5
206
100
AcDbSymbolTableRecord
100
AcDbBlockTableRecord
  2
*Paper_Space
  0
BLOCK_RECORD
  5
207
100
AcDbSymbolTableRecord
100
AcDbBlockTableRecord
  2
_FILLED
  0
ENDTAB
  0
TABLE
  2
DIMSTYLE
  5
A
100
AcDbSymbolTable
 70
1
100
AcDbDimStyleTable
 71
0
  0
DIMSTYLE
105
208
100
AcDbSymbolTableRecord
100
AcDbDimStyleTableRecord
  2
STANDARD
 70
0
  3

  4

 40
1.0
 41
0.1
 42
0.0625
 43
0.38
 44
0.125
 45
0.0
 46
0.0
 47
0.001
 48
0.001
140
0.08
141
0.09
142
0.0
143
25.4
144
1.0
145
0.0
146
1.0
147
0.09
 71
1.0
 72
0.0
 73
1
 74
1
 75
0
 76
0
 77
0
 78
4
 79
1
170
1
171
2
172
0
173
0
174
0
175
0
176
0
177
0
178
0
270
2
179
3
271
3
272
3
273
2
274
2
275
0
280
0
281
0
282
0
283
1
284
4
285
0
286
0
287
3
288
0
340
11
278
46
341
207
342
207
343
207
344
207
  0
ENDTAB
  0
ENDSEC
  0
SECTION
  2
BLOCKS
  0
BLOCK
  5
20
100
AcDbEntity
  8
0
100
AcDbBlockBegin
  2
*Model_Space
 70
0
 10
0.0
 20
0.0
 30
0.0
  3
*Model_Space
  1

  0
ENDBLK
  5
21
100
AcDbEntity
  8
0
100
AcDbBlockEnd
  0
BLOCK
  5
1C
100
AcDbEntity
  8
0
100
AcDbBlockBegin
  2
*Paper_Space
 70
0
 10
0.0
 20
0.0
 30
0.0
  3
*Paper_Space
  1

  0
ENDBLK
  5
1D
100
AcDbEntity
  8
0
100
AcDbBlockEnd
  0
BLOCK
  5
209
100
AcDbEntity
  8
0
100
AcDbBlockBegin
  2
_FILLED
 70
64
 10
0.0
 20
0.0
  3
_FILLED
  1

  0
SOLID
  5
20A
100
AcDbEntity
  8
0
  6
BYBLOCK
 62
0
100
AcDbTrace
 10
0.0
 20
0.0
 11
-1.0
 21
0.2
 12
-1.0
 22
-0.2
 13
-1.0
 23
-0.2
  0
ENDBLK
  5
20B
100
AcDbEntity
  8
0
  6
BYBLOCK
 62
0
100
AcDbBlockEnd
  0
ENDSEC
  0
SECTION
  2
ENTITIES
  0
LINE
  5
20C
100
AcDbEntity
  8
0
100
AcDbLine
 62
7
  6
CONTINUOUS
 10
11.2089423427
 20
4.5812187254
 11
9.0839423427
 21
4.5812187254
  0
LINE
  5
20D
100
AcDbEntity
  8
0
100
AcDbLine
 62
9
  6
CONTINUOUS
 10
9.1063237415
 20
4.7227994947
 11
9.1131578898
 21
4.719258356
  0
LINE
  5
20E
100
AcDbEntity
  8
0
100
AcDbLine
 62
9
  6
CONTINUOUS
 10
9.1563588588
 20
4.8191619771
 11
9.1632439234
 21
4.815594854
  0
LINE
  5
20F
100
AcDbEntity
  8
0
100
AcDbLine
 62
9
  6
CONTINUOUS
 10
9.0839423427
 20
4.661700925
 11
11.2089423427
 21
4.661700925
  0
LINE
  5
210
100
AcDbEntity
  8
0
100
AcDbLine
 62
9
  6
CONTINUOUS
 10
11.2032194855
 20
4.6660981755
 11
10.7691888368
 21
4.6660981755
  0
LINE
  5
211
100
AcDbEntity
  8
0
100
AcDbLine
 62
9
  6
CONTINUOUS
 10
10.5804725394
 20
4.6660981755
 11
9.7124116368
 21
4.6660981755
  0
LINE
  5
212
100
AcDbEntity
  8
0
100
AcDbLine
 62
9
  6
CONTINUOUS
 10
9.5236953966
 20
4.6660981755
 11
9.0896651428
 21
4.6660981755
  0
LINE
  5
213
100
AcDbEntity
  8
0
100
AcDbLine
 62
7
  6
CONTINUOUS
 10
11.1873279139
 20
4.6812187254
 11
10.759824118
 21
4.6812187254
  0
LINE
  5
214
100
AcDbEntity
  8
0
100
AcDbLine
 62
7
  6
CONTINUOUS
 10
10.5739456935
 20
4.6812187254
 11
9.7189384904
 21
4.6812187254
  0
LINE
  5
215
100
AcDbEntity
  8
0
100
AcDbLine
 62
7
  6
CONTINUOUS
 10
9.5330601223
 20
4.6812187254
 11
9.1055567152
 21
4.6812187254
  0
LINE
  5
216
100
AcDbEntity
  8
0
100
AcDbLine
 62
9
  6
CONTINUOUS
 10
9.092930932
 20
4.6985435571
 11
9.0940203065
 21
4.6985435571
  0
LINE
  5
217
100
AcDbEntity
  8
0
100
AcDbLine
 62
9
  6
CONTINUOUS
 10
9.5787510827
 20
4.6985435571
 11
9.6617115943
 21
4.6985435571
  0
LINE
  5
218
100
AcDbEntity
  8
0
100
AcDbLine
 62
9
  6
CONTINUOUS
 10
10.6311731203
 20
4.6985435571
 11
10.7141336304
 21
4.6985435571
  0
LINE
  5
219
100
AcDbEntity
  8
0
100
AcDbLine
 62
9
  6
CONTINUOUS
 10
11.1988643804
 20
4.6985435571
 11
11.1999537535
 21
4.6985435571
  0
LINE
  5
21A
100
AcDbEntity
  8
0
100
AcDbLine
 62
9
  6
CONTINUOUS
 10
11.1161312286
 20
4.7081920803
 11
10.7594155839
 21
4.7081920803
  0
LINE
  5
21B
100
AcDbEntity
  8
0
100
AcDbLine
 62
9
  6
CONTINUOUS
 10
10.5031579873
 20
4.7081920803
 11
9.7897266981
 21
4.7081920803
  0
LINE
  5
21C
100
AcDbEntity
  8
0
100
AcDbLine
 62
9
  6
CONTINUOUS
 10
9.5334691014
 20
4.7081920803
 11
9.1767534569
 21
4.7081920803
  0
LINE
  5
21D
100
AcDbEntity
  8
0
100
AcDbLine
 62
9
  6
CONTINUOUS
 10
11.0750291096
 20
4.7866120675
 11
10.7384514238
 21
4.7866120675
  0
LINE
  5
21E
100
AcDbEntity
  8
0
100
AcDbLine
 62
9
  6
CONTINUOUS
 10
10.4830200285
 20
4.7866120675
 11
9.809864657
 21
4.7866120675
  0
LINE
  5
21F
100
AcDbEntity
  8
0
100
AcDbLine
 62
9
  6
CONTINUOUS
 10
9.5544332617
 20
4.7866120675
 11
9.2178555759
 21
4.7866120675
  0
LINE
  5
220
100
AcDbEntity
  8
0
100
AcDbLine
 62
9
  6
CONTINUOUS
 10
11.0553907008
 20
4.8695079897
 11
10.7240411
 21
4.8695079897
  0
LINE
  5
221
100
AcDbEntity
  8
0
100
AcDbLine
 62
9
  6
CONTINUOUS
 10
10.4777919435
 20
4.8695079897
 11
9.8150927419
 21
4.8695079897
  0
LINE
  5
222
100
AcDbEntity
  8
0
100
AcDbLine
 62
9
  6
CONTINUOUS
 10
9.5688435854
 20
4.8695079897
 11
9.2374939847
 21
4.8695079897
  0
LINE
  5
223
100
AcDbEntity
  8
0
100
AcDbLine
 62
7
  6
CONTINUOUS
 10
10.7421636377
 20
4.6839453577
 11
10.7421605752
 21
4.6839464128
  0
LWPOLYLINE
  5
224
100
AcDbEntity
  8
0
100
AcDbPolyline
 62
7
  6
CONTINUOUS
 90
10
 70
0
 10
10.7421598631
 20
4.6839467026
 10
10.7394794325
 20
4.6849659046
 10
10.7362992444
 20
4.6864386901
 10
10.7332313385
 20
4.6881575735
 10
10.7302851498
 20
4.6901137019
 10
10.7274807632
 20
4.692284424
 10
10.7248517279
 20
4.6946264182
 10
10.7224340411
 20
4.6970779006
 10
10.7202630796
 20
4.6995582354
 10
10.719122948
 20
4.7009817661
  0
LINE
  5
225
100
AcDbEntity
  8
0
100
AcDbLine
 62
9
  6
CONTINUOUS
 10
9.2326347529
 20
4.9519737701
 11
9.5972522119
 21
4.9519737986
  0
LINE
  5
226
100
AcDbEntity
  8
0
100
AcDbLine
 62
9
  6
CONTINUOUS
 10
9.7818248774
 20
4.9519737701
 11
10.5110598007
 21
4.9519737986
  0
LINE
  5
227
100
AcDbEntity
  8
0
100
AcDbLine
 62
9
  6
CONTINUOUS
 10
10.6956324672
 20
4.9519737701
 11
11.0602499316
 21
4.9519737986
  0
LINE
  5
228
100
AcDbEntity
  8
0
100
AcDbLine
 62
9
  6
CONTINUOUS
 10
11.0584657273
 20
4.9593417565
 11
10.6945497358
 21
4.9593417565
  0
LINE
  5
229
100
AcDbEntity
  8
0
100
AcDbLine
 62
9
  6
CONTINUOUS
 10
10.5103584958
 20
4.9593417565
 11
9.7825264097
 21
4.9593417565
  0
LINE
  5
22A
100
AcDbEntity
  8
0
100
AcDbLine
 62
9
  6
CONTINUOUS
 10
9.5983351151
 20
4.9593417565
 11
9.2344189898
 21
4.9593417565
  0
LINE
  5
22B
100
AcDbEntity
  8
0
100
AcDbLine
 62
9
  6
CONTINUOUS
 10
9.2385665915
 20
4.9792453705
 11
11.054318094
 21
4.9792453705
  0
LINE
  5
22C
100
AcDbEntity
  8
0
100
AcDbLine
 62
7
  6
CONTINUOUS
 10
9.2829487232
 20
5.0062187254
 11
11.0099359623
 21
5.0062187254
  0
LINE
  5
22D
100
AcDbEntity
  8
0
100
AcDbLine
 62
7
  6
CONTINUOUS
 10
11.4124423427
 20
5.7702187254
 11
11.3214423427
 21
5.7702187254
  0
LINE
  5
22E
100
AcDbEntity
  8
0
100
AcDbLine
 62
7
  6
CONTINUOUS
 10
10.9422167518
 20
5.8802187254
 11
11.3214423427
 21
5.8802187254
  0
LINE
  5
22F
100
AcDbEntity
  8
0
100
AcDbLine
 62
7
  6
CONTINUOUS
 10
12.6914423427
 20
5.9152187254
 11
11.9560434231
 21
5.9152187254
  0
LWPOLYLINE
  5
230
100
AcDbEntity
  8
0
100
AcDbPolyline
 62
7
  6
CONTINUOUS
 90
6
 70
0
 10
10.719122889
 20
4.7009818422
 10
10.7173109714
 20
4.7034603871
 10
10.7148220371
 20
4.707439843
 10
10.7126748423
 20
4.7116760068
 10
10.7109286409
 20
4.7161028924
 10
10.7099223966
 20
4.7194578186
  0
LINE
  5
231
100
AcDbEntity
  8
0
100
AcDbLine
 62
7
  6
CONTINUOUS
 10
12.6914423427
 20
6.8152187254
 11
12.5504423427
 21
6.8152187254
  0
LINE
  5
232
100
AcDbEntity
  8
0
100
AcDbLine
 62
7
  6
CONTINUOUS
 10
12.1754423427
 20
6.8152187254
 11
11.9560434231
 21
6.8152187254
  0
LINE
  5
233
100
AcDbEntity
  8
0
100
AcDbLine
 62
7
  6
CONTINUOUS
 10
10.9422167523
 20
6.8502187254
 11
11.3214423427
 21
6.8502187254
  0
LINE
  5
234
100
AcDbEntity
  8
0
100
AcDbLine
 62
7
  6
CONTINUOUS
 10
12.1394426164
 20
6.9452187254
 11
12.5864420691
 21
6.9452187254
  0
LINE
  5
235
100
AcDbEntity
  8
0
100
AcDbLine
 62
7
  6
CONTINUOUS
 10
11.4124423427
 20
6.9602187254
 11
11.3214423427
 21
6.9602187254
  0
LINE
  5
236
100
AcDbEntity
  8
0
100
AcDbLine
 62
9
  6
CONTINUOUS
 10
12.0449423427
 20
7.0397187254
 11
12.6809423427
 21
7.0397187254
  0
LINE
  5
237
100
AcDbEntity
  8
0
100
AcDbLine
 62
9
  6
CONTINUOUS
 10
12.0449423427
 20
7.1512187254
 11
12.6809423427
 21
7.1512187254
  0
LINE
  5
238
100
AcDbEntity
  8
0
100
AcDbLine
 62
7
  6
CONTINUOUS
 10
12.0549423427
 20
7.1612187254
 11
12.6709423427
 21
7.1612187254
  0
LINE
  5
239
100
AcDbEntity
  8
0
100
AcDbLine
 62
9
  6
CONTINUOUS
 10
12.6222110566
 20
7.1714804949
 11
12.1036736288
 21
7.1714804949
  0
LINE
  5
23A
100
AcDbEntity
  8
0
100
AcDbLine
 62
7
  6
CONTINUOUS
 10
9.0839423427
 20
4.5812187254
 11
9.0839423427
 21
4.661700925
  0
LINE
  5
23B
100
AcDbEntity
  8
0
100
AcDbLine
 62
7
  6
CONTINUOUS
 10
9.2314423427
 20
7.3242187254
 11
9.2314423427
 21
7.4261587398
  0
LINE
  5
23C
100
AcDbEntity
  8
0
100
AcDbLine
 62
9
  6
CONTINUOUS
 10
10.457497299
 20
11.4700245568
 11
10.457495185
 21
11.4700220121
  0
LINE
  5
23D
100
AcDbEntity
  8
0
100
AcDbLine
 62
7
  6
CONTINUOUS
 10
10.4607523293
 20
11.4736946841
 11
10.457495185
 21
11.4700220121
  0
LINE
  5
23E
100
AcDbEntity
  8
0
100
AcDbLine
 62
7
  6
CONTINUOUS
 10
10.4607549124
 20
11.4736974014
 11
10.4643359985
 21
11.477575755
  0
LINE
  5
23F
100
AcDbEntity
  8
0
100
AcDbLine
 62
9
  6
CONTINUOUS
 10
10.4607592629
 20
11.4737019754
 11
10.4607479793
 21
11.4736901099
  0
LINE
  5
240
100
AcDbEntity
  8
0
100
AcDbLine
 62
7
  6
CONTINUOUS
 10
10.434163299
 20
11.1587191644
 11
10.4340583955
 21
11.1586133306
  0
LINE
  5
241
100
AcDbEntity
  8
0
100
AcDbLine
 62
7
  6
CONTINUOUS
 10
9.2514423427
 20
7.3042187254
 11
11.0414423427
 21
7.3042187254
  0
LINE
  5
242
100
AcDbEntity
  8
0
100
AcDbLine
 62
9
  6
CONTINUOUS
 10
9.2314423427
 20
7.3242187254
 11
11.0614423427
 21
7.3242187254
  0
LINE
  5
243
100
AcDbEntity
  8
0
100
AcDbLine
 62
9
  6
CONTINUOUS
 10
11.0614423427
 20
7.4261587398
 11
9.2314423427
 21
7.4261587398
  0
LINE
  5
244
100
AcDbEntity
  8
0
100
AcDbLine
 62
9
  6
CONTINUOUS
 10
10.9694423427
 20
7.5512187254
 11
9.3234423427
 21
7.5512187254
  0
LINE
  5
245
100
AcDbEntity
  8
0
100
AcDbLine
 62
7
  6
CONTINUOUS
 10
11.1999537535
 20
4.6985435571
 11
11.054318094
 21
4.9792453705
  0
LINE
  5
246
100
AcDbEntity
  8
0
100
AcDbLine
 62
7
  6
CONTINUOUS
 10
9.3414423427
 20
5.0062187254
 11
9.3414423427
 21
7.3042187254
  0
LINE
  5
247
100
AcDbEntity
  8
0
100
AcDbLine
 62
7
  6
CONTINUOUS
 10
9.8019153946
 20
11.5670964228
 11
9.8016319504
 21
11.5656195198
  0
LINE
  5
248
100
AcDbEntity
  8
0
100
AcDbLine
 62
9
  6
CONTINUOUS
 10
10.8000004939
 20
7.7372187254
 11
9.4928841916
 21
7.7372187254
  0
LINE
  5
249
100
AcDbEntity
  8
0
100
AcDbLine
 62
9
  6
CONTINUOUS
 10
10.7796128897
 20
7.7712187254
 11
9.5132717958
 21
7.7712187254
  0
LINE
  5
24A
100
AcDbEntity
  8
0
100
AcDbLine
 62
9
  6
CONTINUOUS
 10
10.7521461005
 20
7.7891978472
 11
9.540738585
 21
7.7891978472
  0
LINE
  5
24B
100
AcDbEntity
  8
0
100
AcDbLine
 62
9
  6
CONTINUOUS
 10
10.6432252624
 20
7.8299063039
 11
9.649659423
 21
7.8299063039
  0
LINE
  5
24C
100
AcDbEntity
  8
0
100
AcDbLine
 62
7
  6
CONTINUOUS
 10
10.6084423427
 20
7.8352187254
 11
9.6844423427
 21
7.8352187254
  0
LINE
  5
24D
100
AcDbEntity
  8
0
100
AcDbLine
 62
7
  6
CONTINUOUS
 10
10.709922324
 20
4.7194582663
 11
10.6848570799
 21
4.815821705
  0
LWPOLYLINE
  5
24E
100
AcDbEntity
  8
0
100
AcDbPolyline
 62
7
  6
CONTINUOUS
 90
3
 70
0
 10
10.6848572237
 20
4.8158211519
 10
10.6829317596
 20
4.8234112741
 10
10.6809338331
 20
4.8317550947
  0
LINE
  5
24F
100
AcDbEntity
  8
0
100
AcDbLine
 62
7
  6
CONTINUOUS
 10
9.8964423427
 20
13.7041301235
 11
9.8964423427
 21
11.6572067672
  0
LINE
  5
250
100
AcDbEntity
  8
0
100
AcDbLine
 62
7
  6
CONTINUOUS
 10
9.8964423427
 20
7.8352187254
 11
9.8964423427
 21
11.131769172
  0
LINE
  5
251
100
AcDbEntity
  8
0
100
AcDbLine
 62
7
  6
CONTINUOUS
 10
9.8625312401
 20
11.3124317673
 11
9.8630149521
 21
11.335669716
  0
LINE
  5
252
100
AcDbEntity
  8
0
100
AcDbLine
 62
7
  6
CONTINUOUS
 10
10.6809338331
 20
4.8317550947
 11
10.6805326498
 21
4.8335019059
  0
LINE
  5
253
100
AcDbEntity
  8
0
100
AcDbLine
 62
9
  6
CONTINUOUS
 10
10.6805326498
 20
4.8335019059
 11
10.6788893616
 21
4.8409504117
  0
LINE
  5
254
100
AcDbEntity
  8
0
100
AcDbLine
 62
9
  6
CONTINUOUS
 10
9.8579291563
 20
11.4150793622
 11
9.8576497968
 21
11.4194228276
  0
LINE
  5
255
100
AcDbEntity
  8
0
100
AcDbLine
 62
9
  6
CONTINUOUS
 10
10.4352348888
 20
11.4194228276
 11
10.4349555101
 21
11.4150792138
  0
LINE
  5
256
100
AcDbEntity
  8
0
100
AcDbLine
 62
9
  6
CONTINUOUS
 10
12.0688904631
 20
8.4997960034
 11
12.6569942224
 21
8.4997960034
  0
LINE
  5
257
100
AcDbEntity
  8
0
100
AcDbLine
 62
7
  6
CONTINUOUS
 10
10.4298697334
 20
11.335669716
 11
10.4303534532
 21
11.312431581
  0
LINE
  5
258
100
AcDbEntity
  8
0
100
AcDbLine
 62
7
  6
CONTINUOUS
 10
10.3964423427
 20
13.7041301235
 11
10.3964423427
 21
11.6571692197
  0
LINE
  5
259
100
AcDbEntity
  8
0
100
AcDbLine
 62
7
  6
CONTINUOUS
 10
10.3964423427
 20
7.8352187254
 11
10.3964423427
 21
11.1317491787
  0
LINE
  5
25A
100
AcDbEntity
  8
0
100
AcDbLine
 62
9
  6
CONTINUOUS
 10
9.6139953139
 20
4.8409503649
 11
9.6123520957
 21
4.8335021692
  0
LWPOLYLINE
  5
25B
100
AcDbEntity
  8
0
100
AcDbPolyline
 62
7
  6
CONTINUOUS
 90
4
 70
0
 10
9.6123520957
 20
4.8335021692
 10
9.6119599099
 20
4.8317942341
 10
9.6099729348
 20
4.8234922646
 10
9.6080274745
 20
4.815821201
  0
LINE
  5
25C
100
AcDbEntity
  8
0
100
AcDbLine
 62
9
  6
CONTINUOUS
 10
12.0269088137
 20
8.6441732274
 11
12.6989758718
 21
8.6441732274
  0
LINE
  5
25D
100
AcDbEntity
  8
0
100
AcDbLine
 62
9
  6
CONTINUOUS
 10
11.9754423427
 20
8.8302187254
 11
12.7504423427
 21
8.8302187254
  0
LINE
  5
25E
100
AcDbEntity
  8
0
100
AcDbLine
 62
9
  6
CONTINUOUS
 10
11.9754423427
 20
8.9062187254
 11
12.7504423427
 21
8.9062187254
  0
LINE
  5
25F
100
AcDbEntity
  8
0
100
AcDbLine
 62
7
  6
CONTINUOUS
 10
12.1754423427
 20
8.9452187254
 11
12.5504423427
 21
8.9452187254
  0
LINE
  5
260
100
AcDbEntity
  8
0
100
AcDbLine
 62
7
  6
CONTINUOUS
 10
10.9514423427
 20
5.0062187254
 11
10.9514423427
 21
5.8652187254
  0
LINE
  5
261
100
AcDbEntity
  8
0
100
AcDbLine
 62
7
  6
CONTINUOUS
 10
10.9514423427
 20
6.8652187254
 11
10.9514423427
 21
7.3042187254
  0
LINE
  5
262
100
AcDbEntity
  8
0
100
AcDbLine
 62
7
  6
CONTINUOUS
 10
9.6080276088
 20
4.8158217174
 11
9.5829624327
 21
4.7194584175
  0
LWPOLYLINE
  5
263
100
AcDbEntity
  8
0
100
AcDbPolyline
 62
7
  6
CONTINUOUS
 90
6
 70
0
 10
9.582962419
 20
4.7194581454
 10
9.5819904432
 20
4.7162037881
 10
9.5802531275
 20
4.7117724733
 10
9.5781158154
 20
4.7075341138
 10
9.5756388427
 20
4.7035551088
 10
9.5737618594
 20
4.7009818889
  0
LINE
  5
264
100
AcDbEntity
  8
0
100
AcDbLine
 62
7
  6
CONTINUOUS
 10
10.4912527351
 20
11.5656195198
 11
10.49096953
 21
11.5670952201
  0
LINE
  5
265
100
AcDbEntity
  8
0
100
AcDbLine
 62
7
  6
CONTINUOUS
 10
11.0614423427
 20
7.3242187254
 11
11.0614423427
 21
7.4261587398
  0
LINE
  5
266
100
AcDbEntity
  8
0
100
AcDbLine
 62
7
  6
CONTINUOUS
 10
11.2089423427
 20
4.5812187254
 11
11.2089423427
 21
4.661700925
  0
LINE
  5
267
100
AcDbEntity
  8
0
100
AcDbLine
 62
7
  6
CONTINUOUS
 10
11.3214423427
 20
6.9602187254
 11
11.3214423427
 21
5.7702187254
  0
LINE
  5
268
100
AcDbEntity
  8
0
100
AcDbLine
 62
9
  6
CONTINUOUS
 10
11.4124423427
 20
5.7702187254
 11
11.4124423427
 21
6.9602187254
  0
LINE
  5
269
100
AcDbEntity
  8
0
100
AcDbLine
 62
9
  6
CONTINUOUS
 10
11.444153941
 20
5.7772527447
 11
11.444153941
 21
6.9531847061
  0
LINE
  5
26A
100
AcDbEntity
  8
0
100
AcDbLine
 62
7
  6
CONTINUOUS
 10
9.092930932
 20
4.6985435571
 11
9.2385665915
 21
4.9792453705
  0
LINE
  5
26B
100
AcDbEntity
  8
0
100
AcDbLine
 62
7
  6
CONTINUOUS
 10
9.8588262163
 20
11.1586134048
 11
9.8587236454
 21
11.1587168815
  0
LINE
  5
26C
100
AcDbEntity
  8
0
100
AcDbLine
 62
7
  6
CONTINUOUS
 10
9.8285486591
 20
11.4775757862
 11
9.8321241102
 21
11.4737033581
  0
LINE
  5
26D
100
AcDbEntity
  8
0
100
AcDbLine
 62
9
  6
CONTINUOUS
 10
9.8285428858
 20
11.4775822278
 11
9.828524033
 21
11.4776032701
  0
LINE
  5
26E
100
AcDbEntity
  8
0
100
AcDbLine
 62
7
  6
CONTINUOUS
 10
9.8353895005
 20
11.4700220121
 11
9.8321324873
 21
11.4736945462
  0
LINE
  5
26F
100
AcDbEntity
  8
0
100
AcDbLine
 62
9
  6
CONTINUOUS
 10
11.8647679025
 20
5.8607683175
 11
11.8647679025
 21
6.8696691333
  0
LINE
  5
270
100
AcDbEntity
  8
0
100
AcDbLine
 62
9
  6
CONTINUOUS
 10
11.9115188512
 20
5.8879687254
 11
11.9115188512
 21
6.8424687254
  0
LINE
  5
271
100
AcDbEntity
  8
0
100
AcDbLine
 62
9
  6
CONTINUOUS
 10
11.9560434231
 20
5.9152187254
 11
11.9560434231
 21
6.8152187254
  0
LINE
  5
272
100
AcDbEntity
  8
0
100
AcDbLine
 62
7
  6
CONTINUOUS
 10
11.9754423427
 20
8.8302187254
 11
11.9754423427
 21
8.9062187254
  0
LINE
  5
273
100
AcDbEntity
  8
0
100
AcDbLine
 62
9
  6
CONTINUOUS
 10
9.8321368373
 20
11.473689972
 11
9.8321197597
 21
11.4737079322
  0
LINE
  5
274
100
AcDbEntity
  8
0
100
AcDbLine
 62
9
  6
CONTINUOUS
 10
10.443392352
 20
11.2721238295
 11
10.4433902138
 21
11.2721267691
  0
LINE
  5
275
100
AcDbEntity
  8
0
100
AcDbLine
 62
7
  6
CONTINUOUS
 10
12.1036736288
 20
7.1714804949
 11
12.0688904631
 21
8.4997960034
  0
LINE
  5
276
100
AcDbEntity
  8
0
100
AcDbLine
 62
7
  6
CONTINUOUS
 10
12.0449423427
 20
7.0397187254
 11
12.0449423427
 21
7.1512187254
  0
LINE
  5
277
100
AcDbEntity
  8
0
100
AcDbLine
 62
7
  6
CONTINUOUS
 10
12.1829423427
 20
6.9452187254
 11
12.1829423427
 21
6.8121501931
  0
LINE
  5
278
100
AcDbEntity
  8
0
100
AcDbLine
 62
7
  6
CONTINUOUS
 10
12.5429423427
 20
6.9452187254
 11
12.5429423427
 21
6.812150194
  0
LINE
  5
279
100
AcDbEntity
  8
0
100
AcDbLine
 62
7
  6
CONTINUOUS
 10
12.6809423427
 20
7.0397187254
 11
12.6809423427
 21
7.1512187254
  0
LINE
  5
27A
100
AcDbEntity
  8
0
100
AcDbLine
 62
7
  6
CONTINUOUS
 10
12.6914423427
 20
6.8252187254
 11
12.6914423427
 21
5.9052187254
  0
LINE
  5
27B
100
AcDbEntity
  8
0
100
AcDbLine
 62
7
  6
CONTINUOUS
 10
12.7504423427
 20
8.8302187254
 11
12.7504423427
 21
8.9062187254
  0
LINE
  5
27C
100
AcDbEntity
  8
0
100
AcDbLine
 62
7
  6
CONTINUOUS
 10
12.7914423427
 20
6.8252187254
 11
12.7914423427
 21
5.9052187254
  0
LINE
  5
27D
100
AcDbEntity
  8
0
100
AcDbLine
 62
7
  6
CONTINUOUS
 10
12.6222110566
 20
7.1714804949
 11
12.6569942224
 21
8.4997960034
  0
LWPOLYLINE
  5
27E
100
AcDbEntity
  8
0
100
AcDbPolyline
 62
7
  6
CONTINUOUS
 90
10
 70
0
 10
9.5737617913
 20
4.700981801
 10
9.5726957502
 20
4.6996484094
 10
9.5705300402
 20
4.6971648578
 10
9.5681161804
 20
4.6947058115
 10
9.5654909895
 20
4.6923573348
 10
9.5626881305
 20
4.6901774869
 10
9.5597438674
 20
4.6882131244
 10
9.5566766736
 20
4.686485478
 10
9.5534972623
 20
4.6850043435
 10
9.5507281217
 20
4.6839478195
  0
LINE
  5
27F
100
AcDbEntity
  8
0
100
AcDbLine
 62
9
  6
CONTINUOUS
 10
11.1365258243
 20
4.8191619817
 11
11.1296407557
 21
4.8155948661
  0
LINE
  5
280
100
AcDbEntity
  8
0
100
AcDbLine
 62
7
  6
CONTINUOUS
 10
9.5507271119
 20
4.6839474634
 11
9.5507199334
 21
4.6839449898
  0
LINE
  5
281
100
AcDbEntity
  8
0
100
AcDbLine
 62
9
  6
CONTINUOUS
 10
11.186560838
 20
4.7227995822
 11
11.1797264505
 21
4.7192583705
  0
ARC
  5
282
100
AcDbEntity
  8
0
100
AcDbCircle
 62
9
  6
CONTINUOUS
 10
-1.3808471362
 20
-1.6788892478
 40
14.1035206773
100
AcDbArc
 50
27.4350269093
 51
27.5519708435
  0
ARC
  5
283
100
AcDbEntity
  8
0
100
AcDbCircle
 62
9
  6
CONTINUOUS
 10
7.3341223199
 20
5.4296592771
 40
2.4459217045
100
AcDbArc
 50
345.4599616419
 51
346.0727311506
  0
ARC
  5
284
100
AcDbEntity
  8
0
100
AcDbCircle
 62
9
  6
CONTINUOUS
 10
12.8853970278
 20
5.4110347488
 40
2.3702299057
100
AcDbArc
 50
193.9171487065
 51
194.5494853964
  0
ARC
  5
285
100
AcDbEntity
  8
0
100
AcDbCircle
 62
7
  6
CONTINUOUS
 10
11.8246931199
 20
4.9616609759
 40
0.9
100
AcDbArc
 50
87.4479162909
 51
115.0128371525
  0
ARC
  5
286
100
AcDbEntity
  8
0
100
AcDbCircle
 62
9
  6
CONTINUOUS
 10
8.6240418413
 20
5.0960376455
 40
0.607772198
100
AcDbArc
 50
332.5207420252
 51
335.1838068317
  0
ARC
  5
287
100
AcDbEntity
  8
0
100
AcDbCircle
 62
9
  6
CONTINUOUS
 10
11.6568673062
 20
5.0901585271
 40
0.5944350591
100
AcDbArc
 50
204.7863183982
 51
207.5091390775
  0
ARC
  5
288
100
AcDbEntity
  8
0
100
AcDbCircle
 62
9
  6
CONTINUOUS
 10
9.0609564496
 20
4.8675580961
 40
0.1765486931
100
AcDbArc
 50
332.710280664
 51
0.6328180241
  0
ARC
  5
289
100
AcDbEntity
  8
0
100
AcDbCircle
 62
9
  6
CONTINUOUS
 10
11.2319282307
 20
4.867558095
 40
0.1765486881
100
AcDbArc
 50
179.367181592
 51
207.2897197811
  0
ARC
  5
28A
100
AcDbEntity
  8
0
100
AcDbCircle
 62
7
  6
CONTINUOUS
 10
9.1639423427
 20
4.661700925
 40
0.08
100
AcDbArc
 50
152.5785
 51
180.0
  0
ARC
  5
28B
100
AcDbEntity
  8
0
100
AcDbCircle
 62
7
  6
CONTINUOUS
 10
11.1289423427
 20
4.661700925
 40
0.08
100
AcDbArc
 50
0.0
 51
27.4215
  0
ARC
  5
28C
100
AcDbEntity
  8
0
100
AcDbCircle
 62
7
  6
CONTINUOUS
 10
11.4124423427
 20
5.8452187254
 40
0.075
100
AcDbArc
 50
270.0
 51
295.0128371525
  0
ARC
  5
28D
100
AcDbEntity
  8
0
100
AcDbCircle
 62
7
  6
CONTINUOUS
 10
9.2829487232
 20
4.9562187254
 40
0.05
100
AcDbArc
 50
90.0
 51
152.5785
  0
ARC
  5
28E
100
AcDbEntity
  8
0
100
AcDbCircle
 62
7
  6
CONTINUOUS
 10
11.0099359623
 20
4.9562187254
 40
0.05
100
AcDbArc
 50
27.4215
 51
90.0
  0
ARC
  5
28F
100
AcDbEntity
  8
0
100
AcDbCircle
 62
7
  6
CONTINUOUS
 10
12.7414423427
 20
5.9052187254
 40
0.05
100
AcDbArc
 50
180.0
 51
360.0
  0
ARC
  5
290
100
AcDbEntity
  8
0
100
AcDbCircle
 62
7
  6
CONTINUOUS
 10
11.9560434231
 20
5.8652187254
 40
0.05
100
AcDbArc
 50
90.0
 51
152.9350657712
  0
ARC
  5
291
100
AcDbEntity
  8
0
100
AcDbCircle
 62
7
  6
CONTINUOUS
 10
11.8669942793
 20
5.9107187254
 40
0.05
100
AcDbArc
 50
267.4479162909
 51
332.9350657712
  0
ARC
  5
292
100
AcDbEntity
  8
0
100
AcDbCircle
 62
9
  6
CONTINUOUS
 10
10.7059013221
 20
4.8190874087
 40
0.0212846751
100
AcDbArc
 50
194.6010836658
 51
196.9028702687
  0
ARC
  5
293
100
AcDbEntity
  8
0
100
AcDbCircle
 62
9
  6
CONTINUOUS
 10
9.586983431
 20
4.8190874001
 40
0.0212846075
100
AcDbArc
 50
343.0971098461
 51
345.3989140902
  0
ARC
  5
294
100
AcDbEntity
  8
0
100
AcDbCircle
 62
9
  6
CONTINUOUS
 10
9.2487213074
 20
4.9519756621
 40
0.0160865485
100
AcDbArc
 50
152.7480630792
 51
180.0086622561
  0
ARC
  5
295
100
AcDbEntity
  8
0
100
AcDbCircle
 62
9
  6
CONTINUOUS
 10
11.0441633544
 20
4.9519757254
 40
0.0160865454
100
AcDbArc
 50
359.9911121764
 51
27.2516888201
  0
ARC
  5
296
100
AcDbEntity
  8
0
100
AcDbCircle
 62
7
  6
CONTINUOUS
 10
10.4984705387
 20
7.2765257206
 40
0.572
100
AcDbArc
 50
63.6733104651
 51
75.340882654
  0
ARC
  5
297
100
AcDbEntity
  8
0
100
AcDbCircle
 62
7
  6
CONTINUOUS
 10
9.7944141467
 20
7.2765257206
 40
0.572
100
AcDbArc
 50
104.659117346
 51
116.3266895349
  0
ARC
  5
298
100
AcDbEntity
  8
0
100
AcDbCircle
 62
7
  6
CONTINUOUS
 10
11.0435721137
 20
7.7889281637
 40
0.249
100
AcDbArc
 50
191.9857509959
 51
252.67989237
  0
ARC
  5
299
100
AcDbEntity
  8
0
100
AcDbCircle
 62
7
  6
CONTINUOUS
 10
9.2493125717
 20
7.7889281637
 40
0.249
100
AcDbArc
 50
287.32010763
 51
348.0142490041
  0
ARC
  5
29A
100
AcDbEntity
  8
0
100
AcDbCircle
 62
7
  6
CONTINUOUS
 10
9.6924278641
 20
7.6664074952
 40
0.169
100
AcDbArc
 50
92.7083260498
 51
104.659117346
  0
ARC
  5
29B
100
AcDbEntity
  8
0
100
AcDbCircle
 62
7
  6
CONTINUOUS
 10
10.6004568213
 20
7.6664074952
 40
0.169
100
AcDbArc
 50
75.340882654
 51
87.2916739502
  0
ARC
  5
29C
100
AcDbEntity
  8
0
100
AcDbCircle
 62
7
  6
CONTINUOUS
 10
10.6913881425
 20
7.6664074952
 40
0.137
100
AcDbArc
 50
49.9110379351
 51
63.6733104651
  0
ARC
  5
29D
100
AcDbEntity
  8
0
100
AcDbCircle
 62
7
  6
CONTINUOUS
 10
9.601496543
 20
7.6664074952
 40
0.137
100
AcDbArc
 50
116.3266895349
 51
130.0889620649
  0
ARC
  5
29E
100
AcDbEntity
  8
0
100
AcDbCircle
 62
7
  6
CONTINUOUS
 10
10.9304423427
 20
7.4261587398
 40
0.131
100
AcDbArc
 50
0.0
 51
72.67989237
  0
ARC
  5
29F
100
AcDbEntity
  8
0
100
AcDbCircle
 62
7
  6
CONTINUOUS
 10
9.3624423427
 20
7.4261587398
 40
0.131
100
AcDbArc
 50
107.32010763
 51
180.0
  0
ARC
  5
2A0
100
AcDbEntity
  8
0
100
AcDbCircle
 62
7
  6
CONTINUOUS
 10
10.740330338
 20
7.7245509514
 40
0.061
100
AcDbArc
 50
11.9857509959
 51
49.9110379351
  0
ARC
  5
2A1
100
AcDbEntity
  8
0
100
AcDbCircle
 62
7
  6
CONTINUOUS
 10
9.5525543474
 20
7.7245509514
 40
0.061
100
AcDbArc
 50
130.0889620649
 51
168.0142490041
  0
ARC
  5
2A2
100
AcDbEntity
  8
0
100
AcDbCircle
 62
7
  6
CONTINUOUS
 10
9.2514423427
 20
7.3242187254
 40
0.02
100
AcDbArc
 50
180.0
 51
270.0
  0
ARC
  5
2A3
100
AcDbEntity
  8
0
100
AcDbCircle
 62
7
  6
CONTINUOUS
 10
11.0414423427
 20
7.3242187254
 40
0.02
100
AcDbArc
 50
270.0
 51
360.0
  0
ARC
  5
2A4
100
AcDbEntity
  8
0
100
AcDbCircle
 62
7
  6
CONTINUOUS
 10
11.0520322091
 20
11.3356907435
 40
0.622162478
100
AcDbArc
 50
172.6690661548
 51
180.0019363728
  0
ARC
  5
2A5
100
AcDbEntity
  8
0
100
AcDbCircle
 62
7
  6
CONTINUOUS
 10
9.2408577113
 20
11.3356909349
 40
0.6221572431
100
AcDbArc
 50
359.9980459897
 51
7.3309673424
  0
ARC
  5
2A6
100
AcDbEntity
  8
0
100
AcDbCircle
 62
7
  6
CONTINUOUS
 10
10.1464423427
 20
13.7042187254
 40
0.25
100
AcDbArc
 50
0.0
 51
180.0
  0
ARC
  5
2A7
100
AcDbEntity
  8
0
100
AcDbCircle
 62
7
  6
CONTINUOUS
 10
9.7361346536
 20
11.3994029922
 40
0.1227992242
100
AcDbArc
 50
7.3341170078
 51
9.3808617918
  0
ARC
  5
2A8
100
AcDbEntity
  8
0
100
AcDbCircle
 62
7
  6
CONTINUOUS
 10
10.5566906219
 20
11.3994104023
 40
0.1227393543
100
AcDbArc
 50
170.6204574292
 51
172.6657735269
  0
ARC
  5
2A9
100
AcDbEntity
  8
0
100
AcDbCircle
 62
7
  6
CONTINUOUS
 10
9.8965071039
 20
11.5480260916
 40
0.096492142
100
AcDbArc
 50
169.4950477777
 51
179.9936056041
  0
ARC
  5
2AA
100
AcDbEntity
  8
0
100
AcDbCircle
 62
7
  6
CONTINUOUS
 10
10.3963939882
 20
11.548027255
 40
0.0964757353
100
AcDbArc
 50
0.0057045372
 51
10.5058744696
  0
ARC
  5
2AB
100
AcDbEntity
  8
0
100
AcDbCircle
 62
9
  6
CONTINUOUS
 10
9.8916833017
 20
11.5303733979
 40
0.0822118638
100
AcDbArc
 50
219.7772823919
 51
223.5716720154
  0
ARC
  5
2AC
100
AcDbEntity
  8
0
100
AcDbCircle
 62
9
  6
CONTINUOUS
 10
10.40263776
 20
11.5290947019
 40
0.0802898701
100
AcDbArc
 50
316.3770719541
 51
320.2581624344
  0
ARC
  5
2AD
100
AcDbEntity
  8
0
100
AcDbCircle
 62
7
  6
CONTINUOUS
 10
9.9083820036
 20
11.2199793003
 40
0.076939677
100
AcDbArc
 50
168.8791297224
 51
179.9912899703
  0
ARC
  5
2AE
100
AcDbEntity
  8
0
100
AcDbCircle
 62
7
  6
CONTINUOUS
 10
10.3845161665
 20
11.2199803379
 40
0.0769261923
100
AcDbArc
 50
0.0079387354
 51
11.1218837022
  0
ARC
  5
2AF
100
AcDbEntity
  8
0
100
AcDbCircle
 62
9
  6
CONTINUOUS
 10
9.8891194313
 20
11.514697243
 40
0.0698768819
100
AcDbArc
 50
215.7149301749
 51
219.7410510977
  0
ARC
  5
2B0
100
AcDbEntity
  8
0
100
AcDbCircle
 62
9
  6
CONTINUOUS
 10
10.4050111539
 20
11.513733354
 40
0.0683026463
100
AcDbArc
 50
320.2135239495
 51
324.3316205286
  0
ARC
  5
2B1
100
AcDbEntity
  8
0
100
AcDbCircle
 62
9
  6
CONTINUOUS
 10
9.8844440887
 20
11.5112402354
 40
0.0640628335
100
AcDbArc
 50
215.0678657659
 51
215.6455192238
  0
ARC
  5
2B2
100
AcDbEntity
  8
0
100
AcDbCircle
 62
9
  6
CONTINUOUS
 10
10.4085980972
 20
11.5111284852
 40
0.0638697181
100
AcDbArc
 50
324.3537676813
 51
324.9330071705
  0
ARC
  5
2B3
100
AcDbEntity
  8
0
100
AcDbCircle
 62
9
  6
CONTINUOUS
 10
9.881196154
 20
11.5089883147
 40
0.0601106612
100
AcDbArc
 50
210.6905836512
 51
215.0897455215
  0
ARC
  5
2B4
100
AcDbEntity
  8
0
100
AcDbCircle
 62
9
  6
CONTINUOUS
 10
10.4127250783
 20
11.5083180826
 40
0.0588772344
100
AcDbArc
 50
324.8640800496
 51
329.3418104275
  0
ARC
  5
2B5
100
AcDbEntity
  8
0
100
AcDbCircle
 62
9
  6
CONTINUOUS
 10
9.8436601531
 20
11.5578407704
 40
0.042741969
100
AcDbArc
 50
167.3474999668
 51
169.5136097523
  0
ARC
  5
2B6
100
AcDbEntity
  8
0
100
AcDbCircle
 62
9
  6
CONTINUOUS
 10
10.4493614374
 20
11.5578687969
 40
0.0426022498
100
AcDbArc
 50
10.4828136377
 51
12.6560524476
  0
ARC
  5
2B7
100
AcDbEntity
  8
0
100
AcDbCircle
 62
7
  6
CONTINUOUS
 10
11.8246931199
 20
7.7687764749
 40
0.9
100
AcDbArc
 50
244.9871628475
 51
272.5520837091
  0
ARC
  5
2B8
100
AcDbEntity
  8
0
100
AcDbCircle
 62
7
  6
CONTINUOUS
 10
12.3884423427
 20
8.8302187254
 40
0.362
100
AcDbArc
 50
329.0735148774
 51
360.0
  0
ARC
  5
2B9
100
AcDbEntity
  8
0
100
AcDbCircle
 62
7
  6
CONTINUOUS
 10
12.3374423427
 20
8.8302187254
 40
0.362
100
AcDbArc
 50
180.0
 51
210.9264851226
  0
ARC
  5
2BA
100
AcDbEntity
  8
0
100
AcDbCircle
 62
7
  6
CONTINUOUS
 10
12.9528927905
 20
8.4920476267
 40
0.296
100
AcDbArc
 50
149.0735148774
 51
178.5
  0
ARC
  5
2BB
100
AcDbEntity
  8
0
100
AcDbCircle
 62
7
  6
CONTINUOUS
 10
11.7729918949
 20
8.4920476267
 40
0.296
100
AcDbArc
 50
1.5
 51
30.9264851226
  0
ARC
  5
2BC
100
AcDbEntity
  8
0
100
AcDbCircle
 62
7
  6
CONTINUOUS
 10
12.5864423427
 20
7.0397187254
 40
0.0945
100
AcDbArc
 50
270.0
 51
360.0
  0
ARC
  5
2BD
100
AcDbEntity
  8
0
100
AcDbCircle
 62
7
  6
CONTINUOUS
 10
12.1394423427
 20
7.0397187254
 40
0.0945
100
AcDbArc
 50
180.0
 51
270.0
  0
ARC
  5
2BE
100
AcDbEntity
  8
0
100
AcDbCircle
 62
7
  6
CONTINUOUS
 10
11.4124423427
 20
6.8852187254
 40
0.075
100
AcDbArc
 50
64.9871628475
 51
90.0
  0
ARC
  5
2BF
100
AcDbEntity
  8
0
100
AcDbCircle
 62
7
  6
CONTINUOUS
 10
12.7414423427
 20
6.8252187254
 40
0.05
100
AcDbArc
 50
0.0
 51
180.0
  0
ARC
  5
2C0
100
AcDbEntity
  8
0
100
AcDbCircle
 62
7
  6
CONTINUOUS
 10
11.9560434231
 20
6.8652187254
 40
0.05
100
AcDbArc
 50
207.0649342288
 51
270.0
  0
ARC
  5
2C1
100
AcDbEntity
  8
0
100
AcDbCircle
 62
7
  6
CONTINUOUS
 10
11.8669942793
 20
6.8197187254
 40
0.05
100
AcDbArc
 50
27.0649342288
 51
92.5520837091
  0
ARC
  5
2C2
100
AcDbEntity
  8
0
100
AcDbCircle
 62
7
  6
CONTINUOUS
 10
12.0936770556
 20
7.1712187254
 40
0.01
100
AcDbArc
 50
270.0
 51
1.5
  0
ARC
  5
2C3
100
AcDbEntity
  8
0
100
AcDbCircle
 62
7
  6
CONTINUOUS
 10
12.6322076299
 20
7.1712187254
 40
0.01
100
AcDbArc
 50
178.5
 51
270.0
  0
ARC
  5
2C4
100
AcDbEntity
  8
0
100
AcDbCircle
 62
7
  6
CONTINUOUS
 10
12.0549423427
 20
7.1512187254
 40
0.01
100
AcDbArc
 50
90.0
 51
180.0
  0
ARC
  5
2C5
100
AcDbEntity
  8
0
100
AcDbCircle
 62
7
  6
CONTINUOUS
 10
12.6709423427
 20
7.1512187254
 40
0.01
100
AcDbArc
 50
0.0
 51
90.0
  0
SPLINE
  5
2C6
100
AcDbEntity
  8
0
100
AcDbSpline
 62
7
  6
CONTINUOUS
 70
0
 71
3
 72
34
 73
30
 74
0
 42
0.0000001
 43
0.0000001
 44
0.0000000001
 40
0.0
 40
0.0
 40
0.0
 40
0.0
 40
0.0083224138
 40
0.0159071862
 40
0.0230021952
 40
0.0297642296
 40
0.0363046336
 40
0.0426959346
 40
0.0552314219
 40
0.0676706492
 40
0.0801590665
 40
0.1055425103
 40
0.1316558385
 40
0.1585433773
 40
0.1861514179
 40
0.214428209
 40
0.2433122468
 40
0.2727510957
 40
0.3026914042
 40
0.3330910002
 40
0.3951127656
 40
0.4585616412
 40
0.5232333956
 40
0.588977043
 40
0.6556552449
 40
0.7231674904
 40
0.7914248232
 40
0.8603567645
 40
1.0
 40
1.0
 40
1.0
 40
1.0
 10
11.9754423427
 20
8.9062187254
 30
0.0
 10
11.9754423427
 20
8.906807634
 30
0.0
 10
11.9755060326
 20
8.9079347411
 30
0.0
 10
11.9757928138
 20
8.9095403203
 30
0.0
 10
11.9762179604
 20
8.910999626
 30
0.0
 10
11.976758739
 20
8.9123401175
 30
0.0
 10
11.9773922733
 20
8.9135832254
 30
0.0
 10
11.9783410239
 20
8.9151174689
 30
0.0
 10
11.979718575
 20
8.9168669893
 30
0.0
 10
11.981588965
 20
8.9187518164
 30
0.0
 10
11.9843310467
 20
8.9210292352
 30
0.0
 10
11.9881382656
 20
8.9235057673
 30
0.0
 10
11.9930844744
 20
8.926030073
 30
0.0
 10
11.9983594388
 20
8.9282124531
 30
0.0
 10
12.0038933794
 20
8.9301384132
 30
0.0
 10
12.0096459676
 20
8.9318441569
 30
0.0
 10
12.0155824832
 20
8.933368394
 30
0.0
 10
12.0216779948
 20
8.9347334255
 30
0.0
 10
12.0279114284
 20
8.9359627485
 30
0.0
 10
12.0364419116
 20
8.9374495754
 30
0.0
 10
12.0473596214
 20
8.939033237
 30
0.0
 10
12.0607270767
 20
8.9405758465
 30
0.0
 10
12.074388603
 20
8.9418326584
 30
0.0
 10
12.0882994536
 20
8.9428415415
 30
0.0
 10
12.1024250203
 20
8.9436413474
 30
0.0
 10
12.1167378118
 20
8.9442549869
 30
0.0
 10
12.1312161311
 20
8.9447058789
 30
0.0
 10
12.1508013043
 20
8.9451129406
 30
0.0
 10
12.1655609424
 20
8.9452187254
 30
0.0
 10
12.1754423427
 20
8.9452187254
 30
0.0
  0
SPLINE
  5
2C7
100
AcDbEntity
  8
0
100
AcDbSpline
 62
7
  6
CONTINUOUS
 70
0
 71
3
 72
34
 73
30
 74
0
 42
0.0000001
 43
0.0000001
 44
0.0000000001
 40
0.0
 40
0.0
 40
0.0
 40
0.0
 40
0.0083224138
 40
0.0159071862
 40
0.0230021952
 40
0.0297642296
 40
0.0363046336
 40
0.0426959346
 40
0.0552314219
 40
0.0676706492
 40
0.0801590665
 40
0.1055425103
 40
0.1316558385
 40
0.1585433773
 40
0.1861514179
 40
0.214428209
 40
0.2433122468
 40
0.2727510957
 40
0.3026914042
 40
0.3330910002
 40
0.3951127656
 40
0.4585616412
 40
0.5232333956
 40
0.588977043
 40
0.6556552449
 40
0.7231674904
 40
0.7914248232
 40
0.8603567645
 40
1.0
 40
1.0
 40
1.0
 40
1.0
 10
12.7504423427
 20
8.9062187254
 30
0.0
 10
12.7504423427
 20
8.906807634
 30
0.0
 10
12.7503786529
 20
8.9079347411
 30
0.0
 10
12.7500918717
 20
8.9095403203
 30
0.0
 10
12.7496667251
 20
8.910999626
 30
0.0
 10
12.7491259464
 20
8.9123401175
 30
0.0
 10
12.7484924122
 20
8.9135832254
 30
0.0
 10
12.7475436616
 20
8.9151174689
 30
0.0
 10
12.7461661105
 20
8.9168669893
 30
0.0
 10
12.7442957205
 20
8.9187518164
 30
0.0
 10
12.7415536388
 20
8.9210292352
 30
0.0
 10
12.7377464199
 20
8.9235057673
 30
0.0
 10
12.7328002111
 20
8.926030073
 30
0.0
 10
12.7275252467
 20
8.9282124531
 30
0.0
 10
12.721991306
 20
8.9301384132
 30
0.0
 10
12.7162387179
 20
8.9318441569
 30
0.0
 10
12.7103022023
 20
8.933368394
 30
0.0
 10
12.7042066907
 20
8.9347334255
 30
0.0
 10
12.697973257
 20
8.9359627485
 30
0.0
 10
12.6894427739
 20
8.9374495754
 30
0.0
 10
12.6785250641
 20
8.939033237
 30
0.0
 10
12.6651576088
 20
8.9405758465
 30
0.0
 10
12.6514960824
 20
8.9418326584
 30
0.0
 10
12.6375852319
 20
8.9428415415
 30
0.0
 10
12.6234596651
 20
8.9436413474
 30
0.0
 10
12.6091468737
 20
8.9442549869
 30
0.0
 10
12.5946685544
 20
8.9447058789
 30
0.0
 10
12.5750833812
 20
8.9451129406
 30
0.0
 10
12.5603237431
 20
8.9452187254
 30
0.0
 10
12.5504423427
 20
8.9452187254
 30
0.0
  0
SPLINE
  5
2C8
100
AcDbEntity
  8
0
100
AcDbSpline
 62
7
  6
CONTINUOUS
 70
0
 71
3
 72
14
 73
10
 74
0
 42
0.0000001
 43
0.0000001
 44
0.0000000001
 40
0.0
 40
0.0
 40
0.0
 40
0.0
 40
0.0840948666
 40
0.1835577325
 40
0.2965935931
 40
0.4213022736
 40
0.6980724057
 40
0.8467294068
 40
1.0
 40
1.0
 40
1.0
 40
1.0
 10
10.4574940385
 20
11.4700206218
 30
0.0
 10
10.4564955156
 20
11.4688187247
 30
0.0
 10
10.4544000529
 20
11.4661246455
 30
0.0
 10
10.4512841894
 20
11.4615750357
 30
0.0
 10
10.4480738232
 20
11.4561889555
 30
0.0
 10
10.4437208673
 20
11.4476712323
 30
0.0
 10
10.4400182752
 20
11.438102204
 30
0.0
 10
10.4371635104
 20
11.4277293621
 30
0.0
 10
10.4360563836
 20
11.4222235269
 30
0.0
 10
10.4355922419
 20
11.4194136886
 30
0.0
  0
SPLINE
  5
2C9
100
AcDbEntity
  8
0
100
AcDbSpline
 62
7
  6
CONTINUOUS
 70
0
 71
3
 72
14
 73
10
 74
0
 42
0.0000001
 43
0.0000001
 44
0.0000000001
 40
0.0
 40
0.0
 40
0.0
 40
0.0
 40
0.1532469656
 40
0.3018806728
 40
0.5786744728
 40
0.7033848445
 40
0.8164320143
 40
0.915903759
 40
1.0
 40
1.0
 40
1.0
 40
1.0
 10
9.8572916422
 20
11.4194188253
 30
0.0
 10
9.8568275288
 20
11.4222279791
 30
0.0
 10
9.8557205379
 20
11.4277324792
 30
0.0
 10
9.8528652843
 20
11.438103763
 30
0.0
 10
9.8491637518
 20
11.4476723463
 30
0.0
 10
9.8448099443
 20
11.4561894811
 30
0.0
 10
9.8416002979
 20
11.4615758356
 30
0.0
 10
9.8384842257
 20
11.466125247
 30
0.0
 10
9.8363886967
 20
11.4688191386
 30
0.0
 10
9.835390276
 20
11.4700209818
 30
0.0
  0
SPLINE
  5
2CA
100
AcDbEntity
  8
0
100
AcDbSpline
 62
7
  6
CONTINUOUS
 70
0
 71
3
 72
16
 73
12
 74
0
 42
0.0000001
 43
0.0000001
 44
0.0000000001
 40
0.0
 40
0.0
 40
0.0
 40
0.0
 40
0.1225870565
 40
0.2452239049
 40
0.368443144
 40
0.4926496498
 40
0.6180182946
 40
0.6811746497
 40
0.7446214526
 40
0.8720112247
 40
1.0
 40
1.0
 40
1.0
 40
1.0
 10
10.4341822938
 20
11.1587383507
 30
0.0
 10
10.4361595837
 20
11.1607366721
 30
0.0
 10
10.4399760122
 20
11.1648751737
 30
0.0
 10
10.4452086343
 20
11.1715206487
 30
0.0
 10
10.4498777156
 20
11.1786208692
 30
0.0
 10
10.4538981079
 20
11.1861802152
 30
0.0
 10
10.4566221456
 20
11.1928295073
 30
0.0
 10
10.4583825825
 20
11.1983357432
 30
0.0
 10
10.4598515747
 20
11.2039747826
 30
0.0
 10
10.4611053405
 20
11.2111940947
 30
0.0
 10
10.461442358
 20
11.2170559009
 30
0.0
 10
10.461442358
 20
11.2199909966
 30
0.0
  0
SPLINE
  5
2CB
100
AcDbEntity
  8
0
100
AcDbSpline
 62
7
  6
CONTINUOUS
 70
0
 71
3
 72
15
 73
11
 74
0
 42
0.0000001
 43
0.0000001
 44
0.0000000001
 40
0.0
 40
0.0
 40
0.0
 40
0.0
 40
0.1450492468
 40
0.2827498448
 40
0.4137226425
 40
0.538737767
 40
0.658720194
 40
0.7747600411
 40
0.8880841285
 40
1.0
 40
1.0
 40
1.0
 40
1.0
 10
9.8587236544
 20
11.1587168826
 30
0.0
 10
9.8574340451
 20
11.1600201179
 30
0.0
 10
9.8550020369
 20
11.1626437822
 30
0.0
 10
9.8517388246
 20
11.1667368549
 30
0.0
 10
9.8489647119
 20
11.1708757144
 30
0.0
 10
9.8466852012
 20
11.1750538399
 30
0.0
 10
9.8449055413
 20
11.1792649193
 30
0.0
 10
9.8436302243
 20
11.1835021408
 30
0.0
 10
9.8428634995
 20
11.1877567048
 30
0.0
 10
9.8426923999
 20
11.1906066154
 30
0.0
 10
9.8426923999
 20
11.1920212481
 30
0.0
  0
SPLINE
  5
2CC
100
AcDbEntity
  8
0
100
AcDbSpline
 62
7
  6
CONTINUOUS
 70
0
 71
3
 72
16
 73
12
 74
0
 42
0.0000001
 43
0.0000001
 44
0.0000000001
 40
0.0
 40
0.0
 40
0.0
 40
0.0
 40
0.1279913991
 40
0.2553736031
 40
0.3188231722
 40
0.3819811941
 40
0.507350664
 40
0.6315562532
 40
0.7547759828
 40
0.877417226
 40
1.0
 40
1.0
 40
1.0
 40
1.0
 10
9.8314423275
 20
11.2199909966
 30
0.0
 10
9.8314423275
 20
11.2170556614
 30
0.0
 10
9.8317792874
 20
11.2111935957
 30
0.0
 10
9.8330334193
 20
11.2039739469
 30
0.0
 10
9.8345024198
 20
11.1983346179
 30
0.0
 10
9.8362630813
 20
11.1928279551
 30
0.0
 10
9.8389874011
 20
11.1861782552
 30
0.0
 10
9.8430084383
 20
11.1786186592
 30
0.0
 10
9.8476778111
 20
11.1715178908
 30
0.0
 10
9.852911277
 20
11.1648724121
 30
0.0
 10
9.8567277874
 20
11.1607335146
 30
0.0
 10
9.8587052807
 20
11.158735291
 30
0.0
  0
SPLINE
  5
2CD
100
AcDbEntity
  8
0
100
AcDbSpline
 62
7
  6
CONTINUOUS
 70
0
 71
3
 72
16
 73
12
 74
0
 42
0.0000001
 43
0.0000001
 44
0.0000000001
 40
0.0
 40
0.0
 40
0.0
 40
0.0
 40
0.120849327
 40
0.2426836561
 40
0.3658004237
 40
0.4903440747
 40
0.6162703834
 40
0.6797294356
 40
0.7434733736
 40
0.871463581
 40
1.0
 40
1.0
 40
1.0
 40
1.0
 10
10.4643545977
 20
11.4775964263
 30
0.0
 10
10.4664437227
 20
11.4799283869
 30
0.0
 10
10.4704757579
 20
11.4847611713
 30
0.0
 10
10.4759782582
 20
11.4924888114
 30
0.0
 10
10.480875461
 20
11.5007277425
 30
0.0
 10
10.4850730308
 20
11.5094632151
 30
0.0
 10
10.4879004731
 20
11.5171035202
 30
0.0
 10
10.4897211726
 20
11.5234060822
 30
0.0
 10
10.4912367399
 20
11.5298439334
 30
0.0
 10
10.4925242283
 20
11.5380559403
 30
0.0
 10
10.492869723
 20
11.544706816
 30
0.0
 10
10.492869723
 20
11.5480368605
 30
0.0
  0
SPLINE
  5
2CE
100
AcDbEntity
  8
0
100
AcDbSpline
 62
7
  6
CONTINUOUS
 70
0
 71
3
 72
16
 73
12
 74
0
 42
0.0000001
 43
0.0000001
 44
0.0000000001
 40
0.0
 40
0.0
 40
0.0
 40
0.0
 40
0.1285367449
 40
0.2565171537
 40
0.320263058
 40
0.3837234004
 40
0.5096496557
 40
0.6341945788
 40
0.7573116454
 40
0.8791510944
 40
1.0
 40
1.0
 40
1.0
 40
1.0
 10
9.8000149625
 20
11.5480368605
 30
0.0
 10
9.8000149625
 20
11.5447077149
 30
0.0
 10
9.8003601495
 20
11.5380588858
 30
0.0
 10
9.801647126
 20
11.5298493018
 30
0.0
 10
9.8031616561
 20
11.5234132353
 30
0.0
 10
9.8049813678
 20
11.5171121619
 30
0.0
 10
9.8078072681
 20
11.5094735862
 30
0.0
 10
9.8120028328
 20
11.500740044
 30
0.0
 10
9.8168975496
 20
11.4925024804
 30
0.0
 10
9.8223974852
 20
11.4847760308
 30
0.0
 10
9.826427718
 20
11.4799438101
 30
0.0
 10
9.828516004
 20
11.4776122577
 30
0.0
  0
SPLINE
  5
2CF
100
AcDbEntity
  8
0
100
AcDbSpline
 62
7
  6
CONTINUOUS
 70
0
 71
3
 72
45
 73
41
 74
0
 42
0.0000001
 43
0.0000001
 44
0.0000000001
 40
0.0
 40
0.0
 40
0.0
 40
0.0
 40
0.0225843179
 40
0.0460072882
 40
0.0581182461
 40
0.0705300621
 40
0.0832624542
 40
0.0963309464
 40
0.1097466373
 40
0.1235176065
 40
0.1521339675
 40
0.1821762133
 40
0.2135957158
 40
0.2463097451
 40
0.2802080665
 40
0.3151582365
 40
0.3510099735
 40
0.3875989207
 40
0.4247498957
 40
0.4622798368
 40
0.5000005271
 40
0.5377212118
 40
0.5752511367
 40
0.6124020852
 40
0.648990995
 40
0.6848426842
 40
0.7197927976
 40
0.7536910552
 40
0.7864050109
 40
0.8178244336
 40
0.847866592
 40
0.8764828705
 40
0.8902537862
 40
0.9036694259
 40
0.9167378285
 40
0.9294702357
 40
0.9418820224
 40
0.9539927865
 40
0.9774157406
 40
1.0
 40
1.0
 40
1.0
 40
1.0
 10
9.8588446841
 20
11.158594782
 30
0.0
 10
9.862059717
 20
11.1553569341
 30
0.0
 10
9.8690212433
 20
11.1491626625
 30
0.0
 10
9.8785549901
 20
11.1422802016
 30
0.0
 10
9.8867539129
 20
11.137117466
 30
0.0
 10
9.8932773936
 20
11.1333586913
 30
0.0
 10
9.9001033998
 20
11.1297483869
 30
0.0
 10
9.907228358
 20
11.1262792758
 30
0.0
 10
9.9146489066
 20
11.1229471799
 30
0.0
 10
9.9250640347
 20
11.1186267975
 30
0.0
 10
9.9388051305
 20
11.1135743072
 30
0.0
 10
9.9561697926
 20
11.1081070449
 30
0.0
 10
9.9745492335
 20
11.1031647456
 30
0.0
 10
9.9938634868
 20
11.0987578333
 30
0.0
 10
10.0140210908
 20
11.0948997946
 30
0.0
 10
10.0349200143
 20
11.0916051056
 30
0.0
 10
10.0564495641
 20
11.088887753
 30
0.0
 10
10.0784919232
 20
11.0867602337
 30
0.0
 10
10.1009236939
 20
11.085232861
 30
0.0
 10
10.123617343
 20
11.0843132971
 30
0.0
 10
10.146442608
 20
11.0840062515
 30
0.0
 10
10.1692678695
 20
11.0843133118
 30
0.0
 10
10.1919615082
 20
11.0852328899
 30
0.0
 10
10.2143932619
 20
11.086760276
 30
0.0
 10
10.2364355971
 20
11.0888878074
 30
0.0
 10
10.2579651167
 20
11.0916051703
 30
0.0
 10
10.2788640045
 20
11.0948998675
 30
0.0
 10
10.2990215675
 20
11.0987579118
 30
0.0
 10
10.3183357753
 20
11.1031648261
 30
0.0
 10
10.336715166
 20
11.1081071244
 30
0.0
 10
10.3540797772
 20
11.1135743804
 30
0.0
 10
10.3678208272
 20
11.1186268646
 30
0.0
 10
10.3782359167
 20
11.1229472417
 30
0.0
 10
10.385656426
 20
11.1262793284
 30
0.0
 10
10.3927813733
 20
11.129748405
 30
0.0
 10
10.3996073348
 20
11.1333587487
 30
0.0
 10
10.406130794
 20
11.1371174759
 30
0.0
 10
10.4143296652
 20
11.1422802036
 30
0.0
 10
10.4238633774
 20
11.1491626177
 30
0.0
 10
10.4308248982
 20
11.155356873
 30
0.0
 10
10.4340399276
 20
11.1585947078
 30
0.0
  0
SPLINE
  5
2D0
100
AcDbEntity
  8
0
100
AcDbSpline
 62
7
  6
CONTINUOUS
 70
0
 71
3
 72
48
 73
44
 74
0
 42
0.0000001
 43
0.0000001
 44
0.0000000001
 40
0.0
 40
0.0
 40
0.0
 40
0.0
 40
0.0120406946
 40
0.0240812206
 40
0.0362094764
 40
0.0484681926
 40
0.0608891628
 40
0.0735115757
 40
0.0863727151
 40
0.0995009603
 40
0.1129189477
 40
0.1266443735
 40
0.1406903791
 40
0.155066351
 40
0.1848202685
 40
0.215905213
 40
0.2482702076
 40
0.2818259106
 40
0.3164522619
 40
0.3520047595
 40
0.3883197134
 40
0.4252187731
 40
0.4625129657
 40
0.5000064262
 40
0.5374998766
 40
0.5747940381
 40
0.6116930444
 40
0.6480079298
 40
0.6835603394
 40
0.7181865814
 40
0.7517421623
 40
0.7841070261
 40
0.8151918282
 40
0.8449455826
 40
0.873364695
 40
0.9005043454
 40
0.92648921
 40
0.9391117286
 40
0.9515319297
 40
0.9637894679
 40
0.9759187036
 40
0.987962861
 40
1.0
 40
1.0
 40
1.0
 40
1.0
 10
10.4705147488
 20
11.6075990119
 30
0.0
 10
10.4687147502
 20
11.6097025251
 30
0.0
 10
10.464971502
 20
11.6137889995
 30
0.0
 10
10.4589684969
 20
11.6195647081
 30
0.0
 10
10.4526084746
 20
11.6250213981
 30
0.0
 10
10.4459017588
 20
11.6301892866
 30
0.0
 10
10.438862268
 20
11.6350944921
 30
0.0
 10
10.4314956947
 20
11.6397568551
 30
0.0
 10
10.4238064251
 20
11.6441991858
 30
0.0
 10
10.4157954181
 20
11.6484371489
 30
0.0
 10
10.4074645895
 20
11.6524832407
 30
0.0
 10
10.3988164823
 20
11.6563475778
 30
0.0
 10
10.3898537715
 20
11.6600369807
 30
0.0
 10
10.3773468252
 20
11.6647849954
 30
0.0
 10
10.3609425611
 20
11.670285518
 30
0.0
 10
10.3403269707
 20
11.6761623389
 30
0.0
 10
10.3186373703
 20
11.681388897
 30
0.0
 10
10.2959691973
 20
11.6859570547
 30
0.0
 10
10.2724334078
 20
11.6898543908
 30
0.0
 10
10.2481547138
 20
11.6930670296
 30
0.0
 10
10.2232688259
 20
11.6955816118
 30
0.0
 10
10.197920132
 20
11.6973866216
 30
0.0
 10
10.1722594033
 20
11.6984732778
 30
0.0
 10
10.1464416181
 20
11.6988361027
 30
0.0
 10
10.1206238406
 20
11.6984732369
 30
0.0
 10
10.0949631354
 20
11.6973865407
 30
0.0
 10
10.0696144794
 20
11.6955814926
 30
0.0
 10
10.0447286442
 20
11.6930668743
 30
0.0
 10
10.0204500141
 20
11.6898542028
 30
0.0
 10
9.9969143112
 20
11.6859568384
 30
0.0
 10
9.9742462016
 20
11.6813886556
 30
0.0
 10
9.9525567924
 20
11.6761620822
 30
0.0
 10
9.9319409827
 20
11.6702852362
 30
0.0
 10
9.9124751544
 20
11.6637577413
 30
0.0
 10
9.8942147902
 20
11.6565644956
 30
0.0
 10
9.8771962122
 20
11.6486678584
 30
0.0
 10
9.8639388825
 20
11.6413705336
 30
0.0
 10
9.8540221769
 20
11.6350942095
 30
0.0
 10
9.8469829153
 20
11.6301893007
 30
0.0
 10
9.8402763071
 20
11.6250216659
 30
0.0
 10
9.8339157148
 20
11.6195644062
 30
0.0
 10
9.8279128363
 20
11.6137882255
 30
0.0
 10
9.8241694037
 20
11.609701904
 30
0.0
 10
9.8223699367
 20
11.6075990119
 30
0.0
  0
SPLINE
  5
2D1
100
AcDbEntity
  8
0
100
AcDbSpline
 62
7
  6
CONTINUOUS
 70
0
 71
3
 72
14
 73
10
 74
0
 42
0.0000001
 43
0.0000001
 44
0.0000000001
 40
0.0
 40
0.0
 40
0.0
 40
0.0
 40
0.2484540276
 40
0.3726889523
 40
0.4971971477
 40
0.6221744169
 40
0.7475514758
 40
0.8733299656
 40
1.0
 40
1.0
 40
1.0
 40
1.0
 10
9.8223140616
 20
11.6075336587
 30
0.0
 10
9.8198513091
 20
11.6046512616
 30
0.0
 10
9.8163726651
 20
11.6001335737
 30
0.0
 10
9.8122783331
 20
11.5937423369
 30
0.0
 10
9.8094994398
 20
11.5887579604
 30
0.0
 10
9.8070405418
 20
11.5835888152
 30
0.0
 10
9.804926514
 20
11.5782478823
 30
0.0
 10
9.803185242
 20
11.5727468628
 30
0.0
 10
9.8022929993
 20
11.5689951551
 30
0.0
 10
9.8019159908
 20
11.5670993897
 30
0.0
  0
SPLINE
  5
2D2
100
AcDbEntity
  8
0
100
AcDbSpline
 62
7
  6
CONTINUOUS
 70
0
 71
3
 72
14
 73
10
 74
0
 42
0.0000001
 43
0.0000001
 44
0.0000000001
 40
0.0
 40
0.0
 40
0.0
 40
0.0
 40
0.1266965457
 40
0.2524468227
 40
0.3778136097
 40
0.502799975
 40
0.627314172
 40
0.751548563
 40
1.0
 40
1.0
 40
1.0
 40
1.0
 10
10.4909686948
 20
11.5670993897
 30
0.0
 10
10.4905915904
 20
11.5689956371
 30
0.0
 10
10.4896994313
 20
11.5727475193
 30
0.0
 10
10.4879579138
 20
11.5782485472
 30
0.0
 10
10.4858437924
 20
11.5835892318
 30
0.0
 10
10.4833848196
 20
11.5887587033
 30
0.0
 10
10.4806057722
 20
11.5937435473
 30
0.0
 10
10.4765110218
 20
11.6001349758
 30
0.0
 10
10.4730322044
 20
11.6046527883
 30
0.0
 10
10.4705693062
 20
11.6075352329
 30
0.0
  0
SPLINE
  5
2D3
100
AcDbEntity
  8
0
100
AcDbSpline
 62
7
  6
CONTINUOUS
 70
0
 71
3
 72
17
 73
13
 74
0
 42
0.0000001
 43
0.0000001
 44
0.0000000001
 40
0.0
 40
0.0
 40
0.0
 40
0.0
 40
0.0817622584
 40
0.180250039
 40
0.2351588308
 40
0.2934599644
 40
0.4191019721
 40
0.4858964231
 40
0.5549616862
 40
0.6259804124
 40
0.6986170527
 40
1.0
 40
1.0
 40
1.0
 40
1.0
 10
9.8494927362
 20
11.2721244012
 30
0.0
 10
9.8501809247
 20
11.2730706256
 30
0.0
 10
9.8516238881
 20
11.275211176
 30
0.0
 10
9.8533168448
 20
11.2781225836
 30
0.0
 10
9.8547053673
 20
11.2808156377
 30
0.0
 10
9.8561637301
 20
11.2839075375
 30
0.0
 10
9.8575121775
 20
11.2872367467
 30
0.0
 10
9.8587268859
 20
11.2907768854
 30
0.0
 10
9.8595805993
 20
11.2936123121
 30
0.0
 10
9.8603474055
 20
11.2965590974
 30
0.0
 10
9.8617171054
 20
11.3027787146
 30
0.0
 10
9.8623518132
 20
11.3081239594
 30
0.0
 10
9.8625312864
 20
11.3124330169
 30
0.0
  0
SPLINE
  5
2D4
100
AcDbEntity
  8
0
100
AcDbSpline
 62
7
  6
CONTINUOUS
 70
0
 71
3
 72
17
 73
13
 74
0
 42
0.0000001
 43
0.0000001
 44
0.0000000001
 40
0.0
 40
0.0
 40
0.0
 40
0.0
 40
0.1527196218
 40
0.3015517496
 40
0.3741533844
 40
0.4451552229
 40
0.5142188598
 40
0.5810101629
 40
0.7066294051
 40
0.8197829362
 40
0.9182585303
 40
1.0
 40
1.0
 40
1.0
 40
1.0
 10
10.4303533991
 20
11.3124330169
 30
0.0
 10
10.4304443668
 20
11.3102489306
 30
0.0
 10
10.4307922727
 20
11.3059415731
 30
0.0
 10
10.4316367595
 20
11.3006473855
 30
0.0
 10
10.4325375557
 20
11.2965587164
 30
0.0
 10
10.4333046507
 20
11.293612152
 30
0.0
 10
10.4341580884
 20
11.2907761509
 30
0.0
 10
10.4353728799
 20
11.2872353797
 30
0.0
 10
10.4370166908
 20
11.2831776651
 30
0.0
 10
10.4391498918
 20
11.2788428411
 30
0.0
 10
10.4412613774
 20
11.2752094657
 30
0.0
 10
10.442704983
 20
11.2730690528
 30
0.0
 10
10.443393128
 20
11.2721227936
 30
0.0
  0
SPLINE
  5
2D5
100
AcDbEntity
  8
0
100
AcDbSpline
 62
7
  6
CONTINUOUS
 70
0
 71
3
 72
14
 73
10
 74
0
 42
0.0000001
 43
0.0000001
 44
0.0000000001
 40
0.0
 40
0.0
 40
0.0
 40
0.0
 40
0.245242004
 40
0.3690489147
 40
0.4937063502
 40
0.6192002419
 40
0.7453885776
 40
0.8722465231
 40
1.0
 40
1.0
 40
1.0
 40
1.0
 10
9.849492671
 20
11.272124225
 30
0.0
 10
9.8475138982
 20
11.2694036535
 30
0.0
 10
9.8447259197
 20
11.2651653799
 30
0.0
 10
9.8414442219
 20
11.2592387033
 30
0.0
 10
9.8391995887
 20
11.2546231656
 30
0.0
 10
9.8371988467
 20
11.2498614125
 30
0.0
 10
9.8354592129
 20
11.2449658321
 30
0.0
 10
9.833998812
 20
11.2399475642
 30
0.0
 10
9.8332235549
 20
11.2365395321
 30
0.0
 10
9.8328865589
 20
11.2348197942
 30
0.0
  0
SPLINE
  5
2D6
100
AcDbEntity
  8
0
100
AcDbSpline
 62
7
  6
CONTINUOUS
 70
0
 71
3
 72
14
 73
10
 74
0
 42
0.0000001
 43
0.0000001
 44
0.0000000001
 40
0.0
 40
0.0
 40
0.0
 40
0.0
 40
0.1277968462
 40
0.2546164525
 40
0.3807811663
 40
0.506281749
 40
0.6309526089
 40
0.7547606754
 40
1.0
 40
1.0
 40
1.0
 40
1.0
 10
10.4599981266
 20
11.2348197942
 30
0.0
 10
10.459660974
 20
11.2365403313
 30
0.0
 10
10.4588857281
 20
11.2399488879
 30
0.0
 10
10.457424987
 20
11.2449674788
 30
0.0
 10
10.4556851117
 20
11.2498628556
 30
0.0
 10
10.4536840707
 20
11.2546251265
 30
0.0
 10
10.4514391106
 20
11.2592415472
 30
0.0
 10
10.4481566465
 20
11.2651689611
 30
0.0
 10
10.445368122
 20
11.2694076088
 30
0.0
 10
10.4433889914
 20
11.2721283952
 30
0.0
  0
SPLINE
  5
2D7
100
AcDbEntity
  8
0
100
AcDbSpline
 62
7
  6
CONTINUOUS
 70
0
 71
3
 72
13
 73
9
 74
0
 42
0.0000001
 43
0.0000001
 44
0.0000000001
 40
0.0
 40
0.0
 40
0.0
 40
0.0
 40
0.1107270866
 40
0.2250260733
 40
0.343491754
 40
0.4666406937
 40
0.7272355503
 40
1.0
 40
1.0
 40
1.0
 40
1.0
 10
10.7421592491
 20
4.6839468208
 30
0.0
 10
10.7411488721
 20
4.6842950099
 30
0.0
 10
10.73911952
 20
4.6850746292
 30
0.0
 10
10.7361151934
 20
4.6864828747
 30
0.0
 10
10.7331175448
 20
4.688167114
 30
0.0
 10
10.72907652
 20
4.6908509989
 30
0.0
 10
10.7242124824
 20
4.6949495487
 30
0.0
 10
10.7207738445
 20
4.6988056184
 30
0.0
 10
10.7191562461
 20
4.70088263
 30
0.0
  0
SPLINE
  5
2D8
100
AcDbEntity
  8
0
100
AcDbSpline
 62
7
  6
CONTINUOUS
 70
0
 71
3
 72
11
 73
7
 74
0
 42
0.0000001
 43
0.0000001
 44
0.0000000001
 40
0.0
 40
0.0
 40
0.0
 40
0.0
 40
0.241975743
 40
0.488095926
 40
0.7400261768
 40
1.0
 40
1.0
 40
1.0
 40
1.0
 10
10.7598241192
 20
4.6812187254
 30
0.0
 10
10.7583762961
 20
4.6812187272
 30
0.0
 10
10.7554547712
 20
4.6813037275
 30
0.0
 10
10.7510450206
 20
4.6817505333
 30
0.0
 10
10.7465816447
 20
4.6825882628
 30
0.0
 10
10.7436329739
 20
4.6834390715
 30
0.0
 10
10.7421623025
 20
4.6839457686
 30
0.0
  0
SPLINE
  5
2D9
100
AcDbEntity
  8
0
100
AcDbSpline
 62
7
  6
CONTINUOUS
 70
0
 71
3
 72
41
 73
37
 74
0
 42
0.0000001
 43
0.0000001
 44
0.0000000001
 40
0.0
 40
0.0
 40
0.0
 40
0.0
 40
0.0110984794
 40
0.0431385333
 40
0.0930398632
 40
0.1235607382
 40
0.157225235
 40
0.1936554699
 40
0.2325156536
 40
0.2735047215
 40
0.31634184
 40
0.3607448341
 40
0.3834418198
 40
0.4064105095
 40
0.4296037453
 40
0.4529703167
 40
0.4647018571
 40
0.4764558181
 40
0.5000000022
 40
0.5235441854
 40
0.5352981461
 40
0.5470296865
 40
0.5703962584
 40
0.5935894933
 40
0.6165581827
 40
0.6392551688
 40
0.6836581629
 40
0.7264952809
 40
0.7674843479
 40
0.8063445308
 40
0.8427747653
 40
0.876439262
 40
0.9069601369
 40
0.9568614668
 40
0.9889015207
 40
1.0
 40
1.0
 40
1.0
 40
1.0
 10
10.9514423427
 20
5.8652187254
 30
0.0
 10
10.9493481261
 20
5.8685903918
 30
0.0
 10
10.9412445869
 20
5.8817183466
 30
0.0
 10
10.9240847929
 20
5.9102273841
 30
0.0
 10
10.9041527941
 20
5.9451690044
 30
0.0
 10
10.8848957059
 20
5.9811422139
 30
0.0
 10
10.868667115
 20
6.0132622634
 30
0.0
 10
10.8520992735
 20
6.0485368502
 30
0.0
 10
10.8357294927
 20
6.086774732
 30
0.0
 10
10.8201385816
 20
6.1278032582
 30
0.0
 10
10.8059593647
 20
6.1714359581
 30
0.0
 10
10.7959593984
 20
6.2094879654
 30
0.0
 10
10.7893012326
 20
6.2410087285
 30
0.0
 10
10.7850504102
 20
6.2652703787
 30
0.0
 10
10.7816541673
 20
6.2899082513
 30
0.0
 10
10.7795941909
 20
6.310658472
 30
0.0
 10
10.778426907
 20
6.3273742755
 30
0.0
 10
10.7775880497
 20
6.3441733942
 30
0.0
 10
10.7771654935
 20
6.3652187275
 30
0.0
 10
10.7775880497
 20
6.3862640606
 30
0.0
 10
10.7784269072
 20
6.4030631789
 30
0.0
 10
10.7795941912
 20
6.4197789824
 30
0.0
 10
10.7816541676
 20
6.4405292029
 30
0.0
 10
10.7850504106
 20
6.4651670752
 30
0.0
 10
10.7893012331
 20
6.4894287252
 30
0.0
 10
10.7959593991
 20
6.5209494883
 30
0.0
 10
10.8059593655
 20
6.5590014955
 30
0.0
 10
10.8201385825
 20
6.6026341949
 30
0.0
 10
10.8357294934
 20
6.6436627203
 30
0.0
 10
10.8520992739
 20
6.6819006014
 30
0.0
 10
10.8686671151
 20
6.7171751878
 30
0.0
 10
10.884895706
 20
6.7492952371
 30
0.0
 10
10.9041527942
 20
6.7852684465
 30
0.0
 10
10.924084793
 20
6.8202100668
 30
0.0
 10
10.941244587
 20
6.8487191043
 30
0.0
 10
10.9493481261
 20
6.861847059
 30
0.0
 10
10.9514423427
 20
6.8652187254
 30
0.0
  0
SPLINE
  5
2DA
100
AcDbEntity
  8
0
100
AcDbSpline
 62
7
  6
CONTINUOUS
 70
0
 71
3
 72
15
 73
11
 74
0
 42
0.0000001
 43
0.0000001
 44
0.0000000001
 40
0.0
 40
0.0
 40
0.0
 40
0.0
 40
0.1119173614
 40
0.2252427629
 40
0.3412835867
 40
0.4612665155
 40
0.5862815669
 40
0.7172536483
 40
0.8549528488
 40
1.0
 40
1.0
 40
1.0
 40
1.0
 10
10.4501922856
 20
11.1920212481
 30
0.0
 10
10.4501922856
 20
11.1906067163
 30
0.0
 10
10.4500212107
 20
11.1877570117
 30
0.0
 10
10.449254596
 20
11.1835027523
 30
0.0
 10
10.4479794618
 20
11.1792658311
 30
0.0
 10
10.4462000557
 20
11.1750550459
 30
0.0
 10
10.4439208686
 20
11.1708772075
 30
0.0
 10
10.441147148
 20
11.1667386266
 30
0.0
 10
10.4378843946
 20
11.1626458229
 30
0.0
 10
10.4354527218
 20
11.160022321
 30
0.0
 10
10.4341632901
 20
11.1587191655
 30
0.0
  0
SPLINE
  5
2DB
100
AcDbEntity
  8
0
100
AcDbSpline
 62
7
  6
CONTINUOUS
 70
0
 71
3
 72
25
 73
21
 74
0
 42
0.0000001
 43
0.0000001
 44
0.0000000001
 40
0.0
 40
0.0
 40
0.0
 40
0.0
 40
0.0404422488
 40
0.1514176315
 40
0.2268921824
 40
0.2684510037
 40
0.3121032606
 40
0.3574892655
 40
0.4042205189
 40
0.4518749237
 40
0.4999999952
 40
0.5481250811
 40
0.5957794749
 40
0.6425107335
 40
0.6878967358
 40
0.7315489913
 40
0.7731078138
 40
0.8485823677
 40
0.9595577511
 40
1.0
 40
1.0
 40
1.0
 40
1.0
 10
12.5504423427
 20
6.8152187254
 30
0.0
 10
12.5456354635
 20
6.8132159068
 30
0.0
 10
12.5275494131
 20
6.8059182007
 30
0.0
 10
12.4999593277
 20
6.7962101162
 30
0.0
 10
12.4716610358
 20
6.7883118967
 30
0.0
 10
12.4514908859
 20
6.7836706829
 30
0.0
 10
12.434974164
 20
6.7804770433
 30
0.0
 10
12.4176878161
 20
6.7778188811
 30
0.0
 10
12.3997934668
 20
6.775819075
 30
0.0
 10
12.3814764878
 20
6.7745761576
 30
0.0
 10
12.3629423427
 20
6.7741543761
 30
0.0
 10
12.344408199
 20
6.774576157
 30
0.0
 10
12.3260912191
 20
6.7758190758
 30
0.0
 10
12.3081968707
 20
6.7778188802
 30
0.0
 10
12.2909105228
 20
6.7804770435
 30
0.0
 10
12.2743938011
 20
6.7836706824
 30
0.0
 10
12.2542236509
 20
6.7883118965
 30
0.0
 10
12.2259253584
 20
6.796210116
 30
0.0
 10
12.1983352725
 20
6.8059182006
 30
0.0
 10
12.180249222
 20
6.8132159068
 30
0.0
 10
12.1754423427
 20
6.8152187254
 30
0.0
  0
SPLINE
  5
2DC
100
AcDbEntity
  8
0
100
AcDbSpline
 62
9
  6
CONTINUOUS
 70
0
 71
3
 72
59
 73
55
 74
0
 42
0.0000001
 43
0.0000001
 44
0.0000000001
 40
0.0
 40
0.0
 40
0.0
 40
0.0
 40
0.0075825777
 40
0.0154620624
 40
0.0237309871
 40
0.0324652631
 40
0.0417258159
 40
0.0515598561
 40
0.062002045
 40
0.0730765632
 40
0.0847986553
 40
0.0971758687
 40
0.1102094857
 40
0.1238951642
 40
0.1382239085
 40
0.15318269
 40
0.1687547685
 40
0.1849204068
 40
0.2016569658
 40
0.2189393263
 40
0.2367402107
 40
0.2550302039
 40
0.2929494663
 40
0.3324315917
 40
0.3731880018
 40
0.4149139514
 40
0.4572927843
 40
0.5
 40
0.5427072157
 40
0.5850860486
 40
0.6268119982
 40
0.6675684083
 40
0.7070505337
 40
0.7449697961
 40
0.7632597893
 40
0.7810606737
 40
0.7983430342
 40
0.8150795932
 40
0.8312452315
 40
0.84681731
 40
0.8617760915
 40
0.8761048358
 40
0.8897905143
 40
0.9028241313
 40
0.9152013447
 40
0.9269234368
 40
0.937997955
 40
0.9484401439
 40
0.9582741841
 40
0.9675347369
 40
0.9762690129
 40
0.9845379376
 40
0.9924174223
 40
1.0
 40
1.0
 40
1.0
 40
1.0
 10
10.4909285754
 20
11.5672028593
 30
0.0
 10
10.4905109339
 20
11.5690635484
 30
0.0
 10
10.4894053923
 20
11.5728047663
 30
0.0
 10
10.4870191969
 20
11.5782893832
 30
0.0
 10
10.4838889776
 20
11.5837220912
 30
0.0
 10
10.4800243257
 20
11.5890909889
 30
0.0
 10
10.475435369
 20
11.5943865371
 30
0.0
 10
10.4701327789
 20
11.5995987311
 30
0.0
 10
10.4641283323
 20
11.6047178167
 30
0.0
 10
10.4574348776
 20
11.6097336984
 30
0.0
 10
10.4500666363
 20
11.6146362127
 30
0.0
 10
10.4420393308
 20
11.6194153583
 30
0.0
 10
10.4333700036
 20
11.6240609697
 30
0.0
 10
10.4240772408
 20
11.6285632571
 30
0.0
 10
10.4141809838
 20
11.6329125634
 30
0.0
 10
10.403702517
 20
11.6370994284
 30
0.0
 10
10.3926644919
 20
11.6411148951
 30
0.0
 10
10.3810907564
 20
11.6449501357
 30
0.0
 10
10.3690063917
 20
11.6485968461
 30
0.0
 10
10.3564376237
 20
11.6520470884
 30
0.0
 10
10.3434116817
 20
11.6552933045
 30
0.0
 10
10.3252534087
 20
11.6593892695
 30
0.0
 10
10.3016119048
 20
11.6639282268
 30
0.0
 10
10.2722273297
 20
11.6683991142
 30
0.0
 10
10.241749945
 20
11.6719180056
 30
0.0
 10
10.210444643
 20
11.6744539186
 30
0.0
 10
10.1785831521
 20
11.675984455
 30
0.0
 10
10.1464423428
 20
11.676496138
 30
0.0
 10
10.1143015334
 20
11.675984455
 30
0.0
 10
10.0824400426
 20
11.6744539186
 30
0.0
 10
10.0511347405
 20
11.6719180056
 30
0.0
 10
10.0206573558
 20
11.6683991142
 30
0.0
 10
9.9912727807
 20
11.6639282268
 30
0.0
 10
9.9676312768
 20
11.6593892695
 30
0.0
 10
9.9494730038
 20
11.6552933045
 30
0.0
 10
9.9364470619
 20
11.6520470884
 30
0.0
 10
9.9238782938
 20
11.6485968461
 30
0.0
 10
9.9117939291
 20
11.6449501357
 30
0.0
 10
9.9002201936
 20
11.6411148951
 30
0.0
 10
9.8891821685
 20
11.6370994284
 30
0.0
 10
9.8787037018
 20
11.6329125634
 30
0.0
 10
9.8688074447
 20
11.6285632571
 30
0.0
 10
9.859514682
 20
11.6240609697
 30
0.0
 10
9.8508453548
 20
11.6194153583
 30
0.0
 10
9.8428180492
 20
11.6146362127
 30
0.0
 10
9.8354498079
 20
11.6097336984
 30
0.0
 10
9.8287563532
 20
11.6047178167
 30
0.0
 10
9.8227519066
 20
11.5995987311
 30
0.0
 10
9.8174493165
 20
11.5943865371
 30
0.0
 10
9.8128603599
 20
11.5890909889
 30
0.0
 10
9.8089957079
 20
11.5837220912
 30
0.0
 10
9.8058654886
 20
11.5782893832
 30
0.0
 10
9.8034792932
 20
11.5728047663
 30
0.0
 10
9.8023737516
 20
11.5690635484
 30
0.0
 10
9.8019561101
 20
11.5672028593
 30
0.0
  0
SPLINE
  5
2DD
100
AcDbEntity
  8
0
100
AcDbSpline
 62
9
  6
CONTINUOUS
 70
0
 71
3
 72
59
 73
55
 74
0
 42
0.0000001
 43
0.0000001
 44
0.0000000001
 40
0.0
 40
0.0
 40
0.0
 40
0.0
 40
0.0075124953
 40
0.0151943247
 40
0.0231651134
 40
0.0315308755
 40
0.0403793044
 40
0.0497804632
 40
0.0597881312
 40
0.0704416145
 40
0.0817680604
 40
0.0937840628
 40
0.1064976765
 40
0.1199095744
 40
0.1340141423
 40
0.1488006249
 40
0.164253474
 40
0.1803532881
 40
0.1970771182
 40
0.2143988256
 40
0.2322896627
 40
0.2507182439
 40
0.2890504686
 40
0.3291073721
 40
0.3705729802
 40
0.4131117794
 40
0.4563738928
 40
0.5
 40
0.5436261072
 40
0.5868882206
 40
0.6294270198
 40
0.6708926279
 40
0.7109495314
 40
0.7492817561
 40
0.7677103373
 40
0.7856011744
 40
0.8029228818
 40
0.8196467119
 40
0.835746526
 40
0.8511993751
 40
0.8659858577
 40
0.8800904256
 40
0.8935023235
 40
0.9062159372
 40
0.9182319396
 40
0.9295583855
 40
0.9402118688
 40
0.9502195368
 40
0.9596206956
 40
0.9684691245
 40
0.9768348866
 40
0.9848056753
 40
0.9924875047
 40
1.0
 40
1.0
 40
1.0
 40
1.0
 10
10.4303533717
 20
11.3124330166
 30
0.0
 10
10.4302874447
 20
11.3140149341
 30
0.0
 10
10.4299239986
 20
11.3172091881
 30
0.0
 10
10.4287014662
 20
11.3219503665
 30
0.0
 10
10.4268050094
 20
11.3266581575
 30
0.0
 10
10.4242431037
 20
11.331319704
 30
0.0
 10
10.4210249027
 20
11.3359256644
 30
0.0
 10
10.4171596666
 20
11.3404666538
 30
0.0
 10
10.4126574316
 20
11.3449337499
 30
0.0
 10
10.4075290683
 20
11.3493179629
 30
0.0
 10
10.4017864092
 20
11.3536099159
 30
0.0
 10
10.3954427812
 20
11.3578004118
 30
0.0
 10
10.388512735
 20
11.3618800174
 30
0.0
 10
10.381012279
 20
11.3658394466
 30
0.0
 10
10.3729588353
 20
11.3696696562
 30
0.0
 10
10.3643711063
 20
11.3733616052
 30
0.0
 10
10.3552691896
 20
11.3769067627
 30
0.0
 10
10.3456743846
 20
11.3802967306
 30
0.0
 10
10.3356092049
 20
11.3835234941
 30
0.0
 10
10.3250973378
 20
11.3865794911
 30
0.0
 10
10.3141634682
 20
11.3894574359
 30
0.0
 10
10.2988555124
 20
11.3930958655
 30
0.0
 10
10.2788463691
 20
11.3971301542
 30
0.0
 10
10.2538948486
 20
11.4011050171
 30
0.0
 10
10.2279306212
 20
11.4042367419
 30
0.0
 10
10.2011984682
 20
11.4064953806
 30
0.0
 10
10.1739500818
 20
11.4078592664
 30
0.0
 10
10.1464423428
 20
11.4083153516
 30
0.0
 10
10.1189346037
 20
11.4078592664
 30
0.0
 10
10.0916862173
 20
11.4064953806
 30
0.0
 10
10.0649540644
 20
11.4042367419
 30
0.0
 10
10.0389898369
 20
11.4011050171
 30
0.0
 10
10.0140383164
 20
11.3971301542
 30
0.0
 10
9.9940291731
 20
11.3930958655
 30
0.0
 10
9.9787212173
 20
11.3894574359
 30
0.0
 10
9.9677873477
 20
11.3865794911
 30
0.0
 10
9.9572754806
 20
11.3835234941
 30
0.0
 10
9.9472103009
 20
11.3802967306
 30
0.0
 10
9.9376154959
 20
11.3769067627
 30
0.0
 10
9.9285135792
 20
11.3733616052
 30
0.0
 10
9.9199258502
 20
11.3696696562
 30
0.0
 10
9.9118724066
 20
11.3658394466
 30
0.0
 10
9.9043719505
 20
11.3618800174
 30
0.0
 10
9.8974419043
 20
11.3578004118
 30
0.0
 10
9.8910982763
 20
11.3536099159
 30
0.0
 10
9.8853556172
 20
11.3493179629
 30
0.0
 10
9.880227254
 20
11.3449337499
 30
0.0
 10
9.875725019
 20
11.3404666538
 30
0.0
 10
9.8718597828
 20
11.3359256644
 30
0.0
 10
9.8686415819
 20
11.331319704
 30
0.0
 10
9.8660796761
 20
11.3266581575
 30
0.0
 10
9.8641832193
 20
11.3219503665
 30
0.0
 10
9.8629606869
 20
11.3172091881
 30
0.0
 10
9.8625972409
 20
11.3140149341
 30
0.0
 10
9.8625313138
 20
11.3124330166
 30
0.0
  0
SPLINE
  5
2DE
100
AcDbEntity
  8
0
100
AcDbSpline
 62
9
  6
CONTINUOUS
 70
0
 71
3
 72
13
 73
9
 74
0
 42
0.0000001
 43
0.0000001
 44
0.0000000001
 40
0.0
 40
0.0
 40
0.0
 40
0.0
 40
0.2645166393
 40
0.5167707894
 40
0.6395131186
 40
0.7606212233
 40
0.8806077249
 40
1.0
 40
1.0
 40
1.0
 40
1.0
 10
9.8295048225
 20
11.4783077372
 30
0.0
 10
9.8284657764
 20
11.4800632286
 30
0.0
 10
9.8266212812
 20
11.4836079293
 30
0.0
 10
9.824904927
 20
11.4882476639
 30
0.0
 10
9.8239529592
 20
11.491956074
 30
0.0
 10
9.8234469686
 20
11.4947184658
 30
0.0
 10
9.8231431892
 20
11.4974841846
 30
0.0
 10
9.8230756749
 20
11.4993309819
 30
0.0
 10
9.8230758053
 20
11.5002517309
 30
0.0
  0
SPLINE
  5
2DF
100
AcDbEntity
  8
0
100
AcDbSpline
 62
9
  6
CONTINUOUS
 70
0
 71
3
 72
53
 73
49
 74
0
 42
0.0000001
 43
0.0000001
 44
0.0000000001
 40
0.0
 40
0.0
 40
0.0
 40
0.0
 40
0.0084842965
 40
0.0174289932
 40
0.0268651715
 40
0.0368160678
 40
0.0472983104
 40
0.058322691
 40
0.0698950371
 40
0.0820168983
 40
0.0946860296
 40
0.1078970332
 40
0.1216415122
 40
0.1359087067
 40
0.1506854113
 40
0.165956609
 40
0.1979108223
 40
0.2316193194
 40
0.2669058707
 40
0.3035762513
 40
0.3414214324
 40
0.3802204068
 40
0.4197427826
 40
0.4597512286
 40
0.50000383
 40
0.540256392
 40
0.5802647201
 40
0.6197869007
 40
0.6585856043
 40
0.6964304417
 40
0.7331004092
 40
0.7683864823
 40
0.8020944412
 40
0.8340480628
 40
0.849318947
 40
0.8640953277
 40
0.8783621892
 40
0.8921063276
 40
0.9053169841
 40
0.9179857641
 40
0.9301072713
 40
0.9416792632
 40
0.9527032919
 40
0.963185188
 40
0.9731357463
 40
0.9825715996
 40
0.9915159885
 40
1.0
 40
1.0
 40
1.0
 40
1.0
 10
10.4433902126
 20
11.2721267681
 30
0.0
 10
10.442342429
 20
11.2735671734
 30
0.0
 10
10.4400615693
 20
11.2764342867
 30
0.0
 10
10.436223325
 20
11.2805729777
 30
0.0
 10
10.4318885825
 20
11.2846519589
 30
0.0
 10
10.4270651845
 20
11.2886645045
 30
0.0
 10
10.4217611709
 20
11.2926043075
 30
0.0
 10
10.4159855334
 20
11.2964649717
 30
0.0
 10
10.4097479999
 20
11.3002401588
 30
0.0
 10
10.4030590884
 20
11.3039235348
 30
0.0
 10
10.3959301466
 20
11.3075089739
 30
0.0
 10
10.3883732394
 20
11.3109903083
 30
0.0
 10
10.3804012545
 20
11.3143617339
 30
0.0
 10
10.3720277471
 20
11.3176173431
 30
0.0
 10
10.3632670191
 20
11.3207517631
 30
0.0
 10
10.3509023476
 20
11.3248234727
 30
0.0
 10
10.3345754852
 20
11.3295512316
 30
0.0
 10
10.3139817578
 20
11.3345792684
 30
0.0
 10
10.2922402131
 20
11.3390097133
 30
0.0
 10
10.2694996937
 20
11.3428118684
 30
0.0
 10
10.2459155864
 20
11.3459593503
 30
0.0
 10
10.2216494115
 20
11.3484303145
 30
0.0
 10
10.1968674498
 20
11.3502076093
 30
0.0
 10
10.1717396193
 20
11.3512788983
 30
0.0
 10
10.1464382601
 20
11.3516367457
 30
0.0
 10
10.1211369289
 20
11.3512786676
 30
0.0
 10
10.0960091822
 20
11.3502071496
 30
0.0
 10
10.0712273595
 20
11.3484296289
 30
0.0
 10
10.0469613779
 20
11.3459584436
 30
0.0
 10
10.0233775169
 20
11.342810747
 30
0.0
 10
10.0006372948
 20
11.3390083848
 30
0.0
 10
9.9788960964
 20
11.3345777421
 30
0.0
 10
9.958302762
 20
11.3295495181
 30
0.0
 10
9.9419762585
 20
11.3248216078
 30
0.0
 10
9.9296118967
 20
11.3207497825
 30
0.0
 10
9.9208514136
 20
11.3176152826
 30
0.0
 10
9.9124781606
 20
11.314359597
 30
0.0
 10
9.9045064389
 20
11.3109880986
 30
0.0
 10
9.8969498036
 20
11.3075066951
 30
0.0
 10
9.8898211416
 20
11.3039211911
 30
0.0
 10
9.8831325176
 20
11.3002377538
 30
0.0
 10
9.8768952786
 20
11.2964625095
 30
0.0
 10
9.8711199421
 20
11.2926017922
 30
0.0
 10
9.8658162355
 20
11.2886619404
 30
0.0
 10
9.8609931501
 20
11.2846493498
 30
0.0
 10
9.8566587252
 20
11.2805703279
 30
0.0
 10
9.8528208031
 20
11.2764316002
 30
0.0
 10
9.8505401681
 20
11.2735644666
 30
0.0
 10
9.8494924979
 20
11.2721240529
 30
0.0
  0
SPLINE
  5
2E0
100
AcDbEntity
  8
0
100
AcDbSpline
 62
9
  6
CONTINUOUS
 70
0
 71
3
 72
11
 73
7
 74
0
 42
0.0000001
 43
0.0000001
 44
0.0000000001
 40
0.0
 40
0.0
 40
0.0
 40
0.0
 40
0.2415287592
 40
0.4894537986
 40
0.742756662
 40
1.0
 40
1.0
 40
1.0
 40
1.0
 10
9.5908670783
 20
4.7227996076
 30
0.0
 10
9.5903144496
 20
4.7206730283
 30
0.0
 10
9.5889645426
 20
4.7164200239
 30
0.0
 10
9.5862627707
 20
4.7102143101
 30
0.0
 10
9.5828734159
 20
4.7041911024
 30
0.0
 10
9.5801931985
 20
4.7003865685
 30
0.0
 10
9.5787510827
 20
4.6985435571
 30
0.0
  0
LINE
  5
2E1
100
AcDbEntity
  8
0
100
AcDbLine
 62
9
  6
CONTINUOUS
 10
9.6159187363
 20
4.8192014408
 11
9.5908670783
 21
4.7227996076
  0
SPLINE
  5
2E2
100
AcDbEntity
  8
0
100
AcDbSpline
 62
9
  6
CONTINUOUS
 70
0
 71
3
 72
10
 73
6
 74
0
 42
0.0000001
 43
0.0000001
 44
0.0000000001
 40
0.0
 40
0.0
 40
0.0
 40
0.0
 40
0.2487157148
 40
0.4983625234
 40
1.0
 40
1.0
 40
1.0
 40
1.0
 10
9.6219645092
 20
4.8447365343
 30
0.0
 10
9.6215172662
 20
4.8426073123
 30
0.0
 10
9.620587311
 20
4.8383479455
 30
0.0
 10
9.6186125079
 20
4.8298259486
 30
0.0
 10
9.6170225043
 20
4.8234485224
 30
0.0
 10
9.6159187363
 20
4.8192014408
 30
0.0
  0
SPLINE
  5
2E3
100
AcDbEntity
  8
0
100
AcDbSpline
 62
9
  6
CONTINUOUS
 70
0
 71
3
 72
39
 73
35
 74
0
 42
0.0000001
 43
0.0000001
 44
0.0000000001
 40
0.0
 40
0.0
 40
0.0
 40
0.0
 40
0.0586804553
 40
0.0873973292
 40
0.1157151094
 40
0.1436672188
 40
0.1713105683
 40
0.198725359
 40
0.2260179684
 40
0.2533320344
 40
0.2808569569
 40
0.3088387053
 40
0.3376010089
 40
0.3524190703
 40
0.367598033
 40
0.3753393959
 40
0.383181179
 40
0.3991210179
 40
0.4153132546
 40
0.4316569041
 40
0.4480956628
 40
0.4645990052
 40
0.4977340175
 40
0.5309833657
 40
0.5643086821
 40
0.5976888363
 40
0.6311102658
 40
0.6645641262
 40
0.6980439148
 40
0.7315449063
 40
0.7985968058
 40
0.8656987071
 40
0.9328365479
 40
1.0
 40
1.0
 40
1.0
 40
1.0
 10
9.5983351151
 20
4.9593417565
 30
0.0
 10
9.6011063625
 20
4.9593415679
 30
0.0
 10
9.6052425546
 20
4.9590936657
 30
0.0
 10
9.6106341196
 20
4.9581778979
 30
0.0
 10
9.6145311049
 20
4.9571980473
 30
0.0
 10
9.6182821111
 20
4.9559032883
 30
0.0
 10
9.6218575438
 20
4.9542805466
 30
0.0
 10
9.6252241135
 20
4.9523188719
 30
0.0
 10
9.6283401045
 20
4.9500029543
 30
0.0
 10
9.6311548627
 20
4.9473189864
 30
0.0
 10
9.6336088081
 20
4.944256888
 30
0.0
 10
9.6356272203
 20
4.9408096391
 30
0.0
 10
9.6368491976
 20
4.9376392079
 30
0.0
 10
9.6374931363
 20
4.9349365517
 30
0.0
 10
9.6377404151
 20
4.9331684271
 30
0.0
 10
9.6378379722
 20
4.9317185017
 30
0.0
 10
9.6378702412
 20
4.9302296737
 30
0.0
 10
9.6377985348
 20
4.9283416711
 30
0.0
 10
9.6375933518
 20
4.9260611051
 30
0.0
 10
9.6373198672
 20
4.9237642524
 30
0.0
 10
9.6370018147
 20
4.9214584265
 30
0.0
 10
9.6365362956
 20
4.9183727254
 30
0.0
 10
9.6358999579
 20
4.9145101777
 30
0.0
 10
9.6350841017
 20
4.9098724503
 30
0.0
 10
9.6342320501
 20
4.9052294779
 30
0.0
 10
9.6333535219
 20
4.9005831894
 30
0.0
 10
9.6324550926
 20
4.8959345305
 30
0.0
 10
9.6315408705
 20
4.8912841601
 30
0.0
 10
9.6306140881
 20
4.8866324474
 30
0.0
 10
9.6293643179
 20
4.8804272112
 30
0.0
 10
9.6277810323
 20
4.8726694394
 30
0.0
 10
9.6258578785
 20
4.863359784
 30
0.0
 10
9.6239176685
 20
4.8540482891
 30
0.0
 10
9.6226165181
 20
4.8478406636
 30
0.0
 10
9.6219645092
 20
4.8447365343
 30
0.0
  0
SPLINE
  5
2E4
100
AcDbEntity
  8
0
100
AcDbSpline
 62
9
  6
CONTINUOUS
 70
0
 71
3
 72
33
 73
29
 74
0
 42
0.0000001
 43
0.0000001
 44
0.0000000001
 40
0.0
 40
0.0
 40
0.0
 40
0.0
 40
0.0150462325
 40
0.0303619219
 40
0.0462003496
 40
0.0627861035
 40
0.0803083506
 40
0.0989196887
 40
0.1187376965
 40
0.1398495706
 40
0.1623158937
 40
0.1861750319
 40
0.2114469541
 40
0.23813554
 40
0.2662318977
 40
0.2957154964
 40
0.3265562118
 40
0.3587156174
 40
0.3921475401
 40
0.4267996938
 40
0.4626136267
 40
0.4995259041
 40
0.5763644108
 40
0.6567286125
 40
0.7399736467
 40
0.8254144526
 40
0.9123339194
 40
1.0
 40
1.0
 40
1.0
 40
1.0
 10
10.3964423427
 20
12.2237640479
 30
0.0
 10
10.3964423427
 20
12.2251661573
 30
0.0
 10
10.3962371715
 20
12.2279995468
 30
0.0
 10
10.3953189061
 20
12.232219159
 30
0.0
 10
10.393794434
 20
12.236411931
 30
0.0
 10
10.3916711439
 20
12.2405657322
 30
0.0
 10
10.3889572503
 20
12.2446716962
 30
0.0
 10
10.3856610748
 20
12.2487212485
 30
0.0
 10
10.3817916777
 20
12.2527064716
 30
0.0
 10
10.3773585293
 20
12.256619088
 30
0.0
 10
10.3723722431
 20
12.2604508474
 30
0.0
 10
10.3668445352
 20
12.2641933655
 30
0.0
 10
10.3607882985
 20
12.267838075
 30
0.0
 10
10.3542178275
 20
12.2713767108
 30
0.0
 10
10.3471485638
 20
12.2748008592
 30
0.0
 10
10.3395972818
 20
12.2781024917
 30
0.0
 10
10.3315819267
 20
12.2812737466
 30
0.0
 10
10.3231215864
 20
12.2843069559
 30
0.0
 10
10.3142364982
 20
12.2871949531
 30
0.0
 10
10.3049479107
 20
12.2899306551
 30
0.0
 10
10.2952780666
 20
12.2925076045
 30
0.0
 10
10.2817259048
 20
12.2957669638
 30
0.0
 10
10.2639952027
 20
12.2993814495
 30
0.0
 10
10.2418677639
 20
12.3029428884
 30
0.0
 10
10.2188245085
 20
12.3057495779
 30
0.0
 10
10.1950866805
 20
12.3077741375
 30
0.0
 10
10.1708820577
 20
12.3089968812
 30
0.0
 10
10.1546116591
 20
12.3092690837
 30
0.0
 10
10.1464423427
 20
12.3092690837
 30
0.0
  0
SPLINE
  5
2E5
100
AcDbEntity
  8
0
100
AcDbSpline
 62
9
  6
CONTINUOUS
 70
0
 71
3
 72
33
 73
29
 74
0
 42
0.0000001
 43
0.0000001
 44
0.0000000001
 40
0.0
 40
0.0
 40
0.0
 40
0.0
 40
0.1588480894
 40
0.3176610921
 40
0.3970427505
 40
0.4763944437
 40
0.5556922788
 40
0.5953042202
 40
0.6348693848
 40
0.6743418496
 40
0.7135633804
 40
0.7518341683
 40
0.787804287
 40
0.8208216014
 40
0.8507673185
 40
0.8776597109
 40
0.9015566409
 40
0.9225420486
 40
0.9407320302
 40
0.9562600782
 40
0.9692516672
 40
0.9748468267
 40
0.9798721077
 40
0.9843545932
 40
0.9883261427
 40
0.9918251553
 40
0.994898665
 40
1.0
 40
1.0
 40
1.0
 40
1.0
 10
9.1697036784
 20
4.8448041408
 30
0.0
 10
9.1729420793
 20
4.8510102927
 30
0.0
 10
9.179419203
 20
4.8634206846
 30
0.0
 10
9.1875188288
 20
4.878930322
 30
0.0
 10
9.1940007342
 20
4.8913325122
 30
0.0
 10
9.1988623808
 20
4.900627647
 30
0.0
 10
9.2029152403
 20
4.9083679479
 30
0.0
 10
9.2061584954
 20
4.9145530029
 30
0.0
 10
9.2085894036
 20
4.9191823151
 30
0.0
 10
9.2110168425
 20
4.9237940149
 30
0.0
 10
9.213425339
 20
4.9283512174
 30
0.0
 10
9.2157845989
 20
4.9327598519
 30
0.0
 10
9.2180585135
 20
4.9369038131
 30
0.0
 10
9.2201995776
 20
4.9407018705
 30
0.0
 10
9.22218928
 20
4.9441256646
 30
0.0
 10
9.2240248856
 20
4.9471736879
 30
0.0
 10
9.2257085054
 20
4.949851696
 30
0.0
 10
9.2272443287
 20
4.9521687659
 30
0.0
 10
9.2286376566
 20
4.9541366835
 30
0.0
 10
9.2298936991
 20
4.9557682533
 30
0.0
 10
9.2308743029
 20
4.9569094702
 30
0.0
 10
9.2315988414
 20
4.9576567583
 30
0.0
 10
9.232084199
 20
4.9581125917
 30
0.0
 10
9.2325399388
 20
4.958494253
 30
0.0
 10
9.2329668051
 20
4.9588035935
 30
0.0
 10
9.233366534
 20
4.9590427106
 30
0.0
 10
9.233834058
 20
4.9592568177
 30
0.0
 10
9.2341941798
 20
4.9593415856
 30
0.0
 10
9.2344189898
 20
4.9593417565
 30
0.0
  0
SPLINE
  5
2E6
100
AcDbEntity
  8
0
100
AcDbSpline
 62
9
  6
CONTINUOUS
 70
0
 71
3
 72
59
 73
55
 74
0
 42
0.0000001
 43
0.0000001
 44
0.0000000001
 40
0.0
 40
0.0
 40
0.0
 40
0.0
 40
0.0075598929
 40
0.0153993841
 40
0.0236151481
 40
0.0322875738
 40
0.0414814395
 40
0.0512470499
 40
0.0616216791
 40
0.0726316431
 40
0.0842936602
 40
0.0966166158
 40
0.1096026344
 40
0.1232480177
 40
0.1375443191
 40
0.1524786441
 40
0.168034519
 40
0.1841921634
 40
0.2009288312
 40
0.2182193365
 40
0.2360360173
 40
0.2543492595
 40
0.2923356348
 40
0.3319094676
 40
0.3727779688
 40
0.4146316956
 40
0.4571489583
 40
0.4999999968
 40
0.5428510354
 40
0.5853682982
 40
0.6272220251
 40
0.6680905267
 40
0.7076643598
 40
0.7456507355
 40
0.7639639779
 40
0.7817806589
 40
0.7990711645
 40
0.8158078325
 40
0.8319654772
 40
0.8475213524
 40
0.8624556776
 40
0.8767519793
 40
0.8903973629
 40
0.9033833818
 40
0.9157063377
 40
0.9273683551
 40
0.9383783194
 40
0.9487529489
 40
0.9585185596
 40
0.9677124255
 40
0.9763848514
 40
0.9846006157
 40
0.992440107
 40
1.0
 40
1.0
 40
1.0
 40
1.0
 10
10.4599978887
 20
11.2348208649
 30
0.0
 10
10.4596642979
 20
11.2365231944
 30
0.0
 10
10.4587491
 20
11.2399484106
 30
0.0
 10
10.4567000509
 20
11.2449782073
 30
0.0
 10
10.4539636053
 20
11.249961992
 30
0.0
 10
10.4505489146
 20
11.2548886996
 30
0.0
 10
10.4464650677
 20
11.2597493429
 30
0.0
 10
10.4417219425
 20
11.2645347231
 30
0.0
 10
10.4363302962
 20
11.2692358514
 30
0.0
 10
10.4303017702
 20
11.273843286
 30
0.0
 10
10.4236494585
 20
11.2783477972
 30
0.0
 10
10.4163876333
 20
11.2827399393
 30
0.0
 10
10.408531956
 20
11.2870103712
 30
0.0
 10
10.4000994726
 20
11.2911500128
 30
0.0
 10
10.3911084572
 20
11.2951497477
 30
0.0
 10
10.3815785523
 20
11.299000961
 30
0.0
 10
10.3715305677
 20
11.3026951427
 30
0.0
 10
10.3609865109
 20
11.3062241471
 30
0.0
 10
10.3499695287
 20
11.309580275
 30
0.0
 10
10.3385038108
 20
11.3127559833
 30
0.0
 10
10.3266145502
 20
11.3157444149
 30
0.0
 10
10.3100299699
 20
11.319516161
 30
0.0
 10
10.2884244946
 20
11.3236962676
 30
0.0
 10
10.2615571702
 20
11.3278138126
 30
0.0
 10
10.2336767803
 20
11.3310551105
 30
0.0
 10
10.2050287877
 20
11.3333912542
 30
0.0
 10
10.1758650737
 20
11.334801348
 30
0.0
 10
10.1464423461
 20
11.3352727883
 30
0.0
 10
10.1170196185
 20
11.3348013483
 30
0.0
 10
10.0878559044
 20
11.3333912546
 30
0.0
 10
10.0592079116
 20
11.3310551111
 30
0.0
 10
10.0313275215
 20
11.3278138134
 30
0.0
 10
10.0044601968
 20
11.3236962686
 30
0.0
 10
9.9828547213
 20
11.3195161622
 30
0.0
 10
9.9662701408
 20
11.3157444163
 30
0.0
 10
9.95438088
 20
11.3127559847
 30
0.0
 10
9.942915162
 20
11.3095802765
 30
0.0
 10
9.9318981795
 20
11.3062241487
 30
0.0
 10
9.9213541225
 20
11.3026951443
 30
0.0
 10
9.9113061377
 20
11.2990009627
 30
0.0
 10
9.9017762325
 20
11.2951497494
 30
0.0
 10
9.8927852169
 20
11.2911500146
 30
0.0
 10
9.8843527332
 20
11.2870103732
 30
0.0
 10
9.8764970556
 20
11.2827399413
 30
0.0
 10
9.8692352302
 20
11.2783477992
 30
0.0
 10
9.8625829182
 20
11.2738432881
 30
0.0
 10
9.8565543919
 20
11.2692358536
 30
0.0
 10
9.8511627453
 20
11.2645347252
 30
0.0
 10
9.8464196198
 20
11.2597493451
 30
0.0
 10
9.8423357726
 20
11.2548887018
 30
0.0
 10
9.8389210816
 20
11.2499619942
 30
0.0
 10
9.8361846357
 20
11.2449782096
 30
0.0
 10
9.8341355863
 20
11.2399484128
 30
0.0
 10
9.8332203881
 20
11.2365231967
 30
0.0
 10
9.8328867972
 20
11.2348208672
 30
0.0
  0
LINE
  5
2E7
100
AcDbEntity
  8
0
100
AcDbLine
 62
9
  6
CONTINUOUS
 10
9.1563588588
 20
4.8191619771
 11
9.1697036784
 21
4.8448041408
  0
LINE
  5
2E8
100
AcDbEntity
  8
0
100
AcDbLine
 62
9
  6
CONTINUOUS
 10
9.1063237415
 20
4.7227994947
 11
9.1563588588
 21
4.8191619771
  0
SPLINE
  5
2E9
100
AcDbEntity
  8
0
100
AcDbSpline
 62
9
  6
CONTINUOUS
 70
0
 71
3
 72
14
 73
10
 74
0
 42
0.0000001
 43
0.0000001
 44
0.0000000001
 40
0.0
 40
0.0
 40
0.0
 40
0.0
 40
0.1424565763
 40
0.2784486004
 40
0.5332991461
 40
0.653944672
 40
0.7712306566
 40
0.8862124727
 40
1.0
 40
1.0
 40
1.0
 40
1.0
 10
9.8285240448
 20
11.4776032714
 30
0.0
 10
9.8273462294
 20
11.4789183429
 30
0.0
 10
9.825125482
 20
11.4815643468
 30
0.0
 10
9.8212516244
 20
11.4869228147
 30
0.0
 10
9.8181419775
 20
11.4924899508
 30
0.0
 10
9.8159492158
 20
11.4981984119
 30
0.0
 10
9.8147923804
 20
11.5024244048
 30
0.0
 10
9.8140973661
 20
11.5066639938
 30
0.0
 10
9.8139423426
 20
11.5095014111
 30
0.0
 10
9.8139423426
 20
11.5109115342
 30
0.0
  0
LINE
  5
2EA
100
AcDbEntity
  8
0
100
AcDbLine
 62
9
  6
CONTINUOUS
 10
9.0940203065
 20
4.6985435571
 11
9.1063237415
 21
4.7227994947
  0
SPLINE
  5
2EB
100
AcDbEntity
  8
0
100
AcDbSpline
 62
9
  6
CONTINUOUS
 70
0
 71
3
 72
11
 73
7
 74
0
 42
0.0000001
 43
0.0000001
 44
0.0000000001
 40
0.0
 40
0.0
 40
0.0
 40
0.0
 40
0.2599683889
 40
0.5118986402
 40
0.7580203835
 40
1.0
 40
1.0
 40
1.0
 40
1.0
 10
9.5507217037
 20
4.6839455513
 30
0.0
 10
9.5492510768
 20
4.6834388956
 30
0.0
 10
9.5463024733
 20
4.6825881414
 30
0.0
 10
9.5418391837
 20
4.6817504424
 30
0.0
 10
9.5374294601
 20
4.68130369
 30
0.0
 10
9.5345079459
 20
4.6812187269
 30
0.0
 10
9.5330601213
 20
4.6812187254
 30
0.0
  0
LINE
  5
2EC
100
AcDbEntity
  8
0
100
AcDbLine
 62
9
  6
CONTINUOUS
 10
9.1131578619
 20
4.7192583499
 11
9.1632439254
 21
4.8155948576
  0
LINE
  5
2ED
100
AcDbEntity
  8
0
100
AcDbLine
 62
9
  6
CONTINUOUS
 10
9.1632439254
 20
4.8155948576
 11
9.2178555759
 21
4.7866120675
  0
LINE
  5
2EE
100
AcDbEntity
  8
0
100
AcDbLine
 62
9
  6
CONTINUOUS
 10
9.1131578619
 20
4.7192583499
 11
9.1767533949
 21
4.7081920637
  0
SPLINE
  5
2EF
100
AcDbEntity
  8
0
100
AcDbSpline
 62
9
  6
CONTINUOUS
 70
0
 71
3
 72
22
 73
18
 74
0
 42
0.0000001
 43
0.0000001
 44
0.0000000001
 40
0.0
 40
0.0
 40
0.0
 40
0.0
 40
0.1751927331
 40
0.2583436958
 40
0.3382255435
 40
0.4146605836
 40
0.4874823887
 40
0.5565379663
 40
0.6216948221
 40
0.6828568535
 40
0.7399547186
 40
0.79296323
 40
0.8419010553
 40
0.8868548287
 40
0.9279935046
 40
0.9655802265
 40
1.0
 40
1.0
 40
1.0
 40
1.0
 10
9.175691683
 20
4.8409504117
 30
0.0
 10
9.1796685052
 20
4.8417871857
 30
0.0
 10
9.1855101993
 20
4.8431352221
 30
0.0
 10
9.1930895283
 20
4.8451645919
 30
0.0
 10
9.1984188231
 20
4.8467338039
 30
0.0
 10
9.2034761455
 20
4.8483717821
 30
0.0
 10
9.2082465933
 20
4.8500736961
 30
0.0
 10
9.2127158309
 20
4.8518341549
 30
0.0
 10
9.2168702494
 20
4.8536481241
 30
0.0
 10
9.220697547
 20
4.8555097282
 30
0.0
 10
9.2241863004
 20
4.8574138088
 30
0.0
 10
9.2273264323
 20
4.8593543815
 30
0.0
 10
9.2301088674
 20
4.8613261471
 30
0.0
 10
9.2325257413
 20
4.863323836
 30
0.0
 10
9.2345703809
 20
4.8653429258
 30
0.0
 10
9.2362358593
 20
4.8673782927
 30
0.0
 10
9.2371249622
 20
4.8687999586
 30
0.0
 10
9.2374939847
 20
4.8695079898
 30
0.0
  0
SPLINE
  5
2F0
100
AcDbEntity
  8
0
100
AcDbSpline
 62
9
  6
CONTINUOUS
 70
0
 71
3
 72
47
 73
43
 74
0
 42
0.0000001
 43
0.0000001
 44
0.0000000001
 40
0.0
 40
0.0
 40
0.0
 40
0.0
 40
0.0799579852
 40
0.1599172356
 40
0.2398760462
 40
0.3198320461
 40
0.3997817569
 40
0.4397526362
 40
0.4797196375
 40
0.5196813064
 40
0.5596359817
 40
0.5995808554
 40
0.6395129687
 40
0.6594730494
 40
0.6794290766
 40
0.6993830473
 40
0.7193404505
 40
0.7393151825
 40
0.7592827912
 40
0.7691620912
 40
0.7788315992
 40
0.7882056203
 40
0.7972675669
 40
0.8145176248
 40
0.8307272085
 40
0.8459900532
 40
0.8603583998
 40
0.8865433654
 40
0.9095087512
 40
0.9293864709
 40
0.9463056537
 40
0.9604822438
 40
0.9666107224
 40
0.9721312128
 40
0.9770716628
 40
0.9814672497
 40
0.9853631524
 40
0.9888213848
 40
0.9919198658
 40
0.9947479143
 40
0.9974046088
 40
1.0
 40
1.0
 40
1.0
 40
1.0
 10
9.1756916915
 20
4.8409504135
 30
0.0
 10
9.1770562074
 20
4.8440333581
 30
0.0
 10
9.1797835505
 20
4.8502000534
 30
0.0
 10
9.1838683512
 20
4.8594528511
 30
0.0
 10
9.1879470518
 20
4.868708248
 30
0.0
 10
9.1920184973
 20
4.8779663993
 30
0.0
 10
9.1954052345
 20
4.8856837365
 30
0.0
 10
9.1981102114
 20
4.8918589103
 30
0.0
 10
9.2001368422
 20
4.896490468
 30
0.0
 10
9.2021604071
 20
4.9011226203
 30
0.0
 10
9.2041821082
 20
4.9057545685
 30
0.0
 10
9.2062002368
 20
4.910386715
 30
0.0
 10
9.2078807939
 20
4.9142463251
 30
0.0
 10
9.209224444
 20
4.9173333738
 30
0.0
 10
9.210232307
 20
4.9196478665
 30
0.0
 10
9.2112423057
 20
4.9219613034
 30
0.0
 10
9.212257404
 20
4.9242733793
 30
0.0
 10
9.2132836632
 20
4.9265811394
 30
0.0
 10
9.2141681299
 20
4.9284868954
 30
0.0
 10
9.2149092952
 20
4.9299793011
 30
0.0
 10
9.2154736792
 20
4.9310604611
 30
0.0
 10
9.2160406607
 20
4.9321011423
 30
0.0
 10
9.2167776893
 20
4.9334130064
 30
0.0
 10
9.2176789989
 20
4.9349630134
 30
0.0
 10
9.2187355877
 20
4.9367249044
 30
0.0
 10
9.2197490203
 20
4.9383708453
 30
0.0
 10
9.2210057979
 20
4.9403607072
 30
0.0
 10
9.2224754597
 20
4.9426000791
 30
0.0
 10
9.2241375397
 20
4.9449898787
 30
0.0
 10
9.2256465926
 20
4.9470088157
 30
0.0
 10
9.2270131273
 20
4.9486688668
 30
0.0
 10
9.2280831611
 20
4.9498192722
 30
0.0
 10
9.2288752907
 20
4.9505670055
 30
0.0
 10
9.2294080212
 20
4.9510208762
 30
0.0
 10
9.22990956
 20
4.9513970145
 30
0.0
 10
9.23038102
 20
4.9516966489
 30
0.0
 10
9.2308239728
 20
4.951920718
 30
0.0
 10
9.2312396421
 20
4.9520710958
 30
0.0
 10
9.2316289243
 20
4.9521506287
 30
0.0
 10
9.2319927124
 20
4.9521619856
 30
0.0
 10
9.2323310518
 20
4.9521056331
 30
0.0
 10
9.2325387547
 20
4.9520234333
 30
0.0
 10
9.2326358287
 20
4.9519729111
 30
0.0
  0
SPLINE
  5
2F1
100
AcDbEntity
  8
0
100
AcDbSpline
 62
9
  6
CONTINUOUS
 70
0
 71
3
 72
26
 73
22
 74
0
 42
0.0000001
 43
0.0000001
 44
0.0000000001
 40
0.0
 40
0.0
 40
0.0
 40
0.0
 40
0.2035320795
 40
0.2977710723
 40
0.386630832
 40
0.4699224249
 40
0.547472255
 40
0.6191270326
 40
0.6847545898
 40
0.7442926638
 40
0.7977231115
 40
0.8450794507
 40
0.8864643037
 40
0.9049799437
 40
0.9220946361
 40
0.9378653931
 40
0.9523655078
 40
0.965689721
 40
0.9779603528
 40
0.9893327657
 40
1.0
 40
1.0
 40
1.0
 40
1.0
 10
9.5334689859
 20
4.7081920442
 30
0.0
 10
9.5369535381
 20
4.7083012189
 30
0.0
 10
9.5420500421
 20
4.70852548
 30
0.0
 10
9.5486574752
 20
4.7089759319
 30
0.0
 10
9.5532039554
 20
4.7093665159
 30
0.0
 10
9.5574574714
 20
4.7098179913
 30
0.0
 10
9.5614073069
 20
4.7103292013
 30
0.0
 10
9.5650435861
 20
4.7108967015
 30
0.0
 10
9.5683578577
 20
4.7115175149
 30
0.0
 10
9.5713430379
 20
4.7121897432
 30
0.0
 10
9.5739937155
 20
4.7129121157
 30
0.0
 10
9.5763053759
 20
4.713682388
 30
0.0
 10
9.5780055044
 20
4.7143848546
 30
0.0
 10
9.5791855666
 20
4.7149757037
 30
0.0
 10
9.5799505243
 20
4.7154126462
 30
0.0
 10
9.5806286982
 20
4.7158597648
 30
0.0
 10
9.5812200892
 20
4.7163170472
 30
0.0
 10
9.5817246583
 20
4.71678452
 30
0.0
 10
9.5821422453
 20
4.7172623717
 30
0.0
 10
9.5824725979
 20
4.71775036
 30
0.0
 10
9.5826386113
 20
4.7180912999
 30
0.0
 10
9.5827050563
 20
4.7182615073
 30
0.0
  0
SPLINE
  5
2F2
100
AcDbEntity
  8
0
100
AcDbSpline
 62
9
  6
CONTINUOUS
 70
0
 71
3
 72
45
 73
41
 74
0
 42
0.0000001
 43
0.0000001
 44
0.0000000001
 40
0.0
 40
0.0
 40
0.0
 40
0.0
 40
0.0287534893
 40
0.0570369106
 40
0.0848467971
 40
0.112198344
 40
0.1391165182
 40
0.165650734
 40
0.1918789377
 40
0.204917027
 40
0.2179223975
 40
0.243902097
 40
0.2700368651
 40
0.2966463683
 40
0.3103043956
 40
0.3243517709
 40
0.3316040553
 40
0.3390717765
 40
0.346812128
 40
0.3548407854
 40
0.3630966026
 40
0.3714987339
 40
0.3799841626
 40
0.3885108187
 40
0.4056140973
 40
0.4227377961
 40
0.4398609039
 40
0.4569738864
 40
0.4740741405
 40
0.4911622992
 40
0.5253031481
 40
0.5593981737
 40
0.5934543524
 40
0.6274739986
 40
0.6614617592
 40
0.7293509025
 40
0.7971391273
 40
0.8648377357
 40
0.9324560219
 40
1.0
 40
1.0
 40
1.0
 40
1.0
 10
9.5972523868
 20
4.9519729905
 30
0.0
 10
9.5985913473
 20
4.9520736938
 30
0.0
 10
9.6012542252
 20
4.9521934719
 30
0.0
 10
9.605218571
 20
4.9521140376
 30
0.0
 10
9.6091025947
 20
4.9517544401
 30
0.0
 10
9.6128822576
 20
4.9510899973
 30
0.0
 10
9.6165317353
 20
4.950110357
 30
0.0
 10
9.6200238289
 20
4.9488086093
 30
0.0
 10
9.6227802932
 20
4.9474345704
 30
0.0
 10
9.6248597711
 20
4.9461534834
 30
0.0
 10
9.6268464916
 20
4.9447530718
 30
0.0
 10
9.6291576352
 20
4.9427611702
 30
0.0
 10
9.6315825347
 20
4.9399807088
 30
0.0
 10
9.6332220211
 20
4.9373267907
 30
0.0
 10
9.6342284682
 20
4.9349944544
 30
0.0
 10
9.6347004176
 20
4.9334261354
 30
0.0
 10
9.634942965
 20
4.9321034931
 30
0.0
 10
9.6350420001
 20
4.9310577304
 30
0.0
 10
9.6350355612
 20
4.9299706826
 30
0.0
 10
9.6349171653
 20
4.9288535451
 30
0.0
 10
9.6347124318
 20
4.927718413
 30
0.0
 10
9.6344510269
 20
4.9265734954
 30
0.0
 10
9.6341575575
 20
4.9254234945
 30
0.0
 10
9.6337456089
 20
4.9238845299
 30
0.0
 10
9.6332154268
 20
4.9219596757
 30
0.0
 10
9.6325785087
 20
4.9196478434
 30
0.0
 10
9.6319467389
 20
4.9173341214
 30
0.0
 10
9.6313234949
 20
4.9150192216
 30
0.0
 10
9.6307088108
 20
4.9127037232
 30
0.0
 10
9.6298999694
 20
4.909617068
 30
0.0
 10
9.62890755
 20
4.9057581158
 30
0.0
 10
9.6277426612
 20
4.9011254331
 30
0.0
 10
9.6265996624
 20
4.8964931345
 30
0.0
 10
9.625476563
 20
4.8918611281
 30
0.0
 10
9.6240024865
 20
4.8856885372
 30
0.0
 10
9.6221985726
 20
4.8779734843
 30
0.0
 10
9.6200843613
 20
4.8687144283
 30
0.0
 10
9.6180147889
 20
4.8594582582
 30
0.0
 10
9.6159848094
 20
4.850205009
 30
0.0
 10
9.6146547538
 20
4.844034859
 30
0.0
 10
9.613995314
 20
4.8409503667
 30
0.0
  0
SPLINE
  5
2F3
100
AcDbEntity
  8
0
100
AcDbSpline
 62
9
  6
CONTINUOUS
 70
0
 71
3
 72
24
 73
20
 74
0
 42
0.0000001
 43
0.0000001
 44
0.0000000001
 40
0.0
 40
0.0
 40
0.0
 40
0.0
 40
0.0119559508
 40
0.0244443016
 40
0.0376779375
 40
0.0518343742
 40
0.0834315339
 40
0.1200824328
 40
0.1622588313
 40
0.2102142041
 40
0.2640568763
 40
0.3238084047
 40
0.3894158791
 40
0.4607848108
 40
0.5377689581
 40
0.6201943132
 40
0.707866203
 40
0.8005732808
 40
1.0
 40
1.0
 40
1.0
 40
1.0
 10
9.613995314
 20
4.8409503667
 30
0.0
 10
9.6140092827
 20
4.8411692252
 30
0.0
 10
9.6140033276
 20
4.8416194812
 30
0.0
 10
9.6138964304
 20
4.8423042568
 30
0.0
 10
9.6136924251
 20
4.8430085633
 30
0.0
 10
9.6132764021
 20
4.8440094055
 30
0.0
 10
9.6124902963
 20
4.8453099429
 30
0.0
 10
9.6112057391
 20
4.8468816133
 30
0.0
 10
9.6095498213
 20
4.848519278
 30
0.0
 10
9.607526352
 20
4.8502196293
 30
0.0
 10
9.6051399311
 20
4.8519789773
 30
0.0
 10
9.6023967184
 20
4.8537919857
 30
0.0
 10
9.5993044692
 20
4.855653635
 30
0.0
 10
9.5958720442
 20
4.8575579434
 30
0.0
 10
9.5921097616
 20
4.8594993171
 30
0.0
 10
9.5880288068
 20
4.8614716355
 30
0.0
 10
9.5836411451
 20
4.8634690534
 30
0.0
 10
9.5772424014
 20
4.8662249747
 30
0.0
 10
9.5722619678
 20
4.8682057892
 30
0.0
 10
9.5688435854
 20
4.8695079898
 30
0.0
  0
SPLINE
  5
2F4
100
AcDbEntity
  8
0
100
AcDbSpline
 62
9
  6
CONTINUOUS
 70
0
 71
3
 72
16
 73
12
 74
0
 42
0.0000001
 43
0.0000001
 44
0.0000000001
 40
0.0
 40
0.0
 40
0.0
 40
0.0
 40
0.1728161436
 40
0.3324454496
 40
0.4774778922
 40
0.6074141165
 40
0.7224971968
 40
0.8240234385
 40
0.914910046
 40
0.9578600878
 40
1.0
 40
1.0
 40
1.0
 40
1.0
 10
9.6159084697
 20
4.8191619817
 30
0.0
 10
9.6153857054
 20
4.819151858
 30
0.0
 10
9.6143802336
 20
4.8191003801
 30
0.0
 10
9.6129456166
 20
4.8189178045
 30
0.0
 10
9.6116593631
 20
4.8186346008
 30
0.0
 10
9.6105390532
 20
4.8182544642
 30
0.0
 10
9.6095984998
 20
4.8177813657
 30
0.0
 10
9.6088501862
 20
4.8172184313
 30
0.0
 10
9.6083893463
 20
4.8166639171
 30
0.0
 10
9.6081437156
 20
4.8161896793
 30
0.0
 10
9.6080597959
 20
4.8159450837
 30
0.0
 10
9.6080276557
 20
4.8158217052
 30
0.0
  0
SPLINE
  5
2F5
100
AcDbEntity
  8
0
100
AcDbSpline
 62
9
  6
CONTINUOUS
 70
0
 71
3
 72
15
 73
11
 74
0
 42
0.0000001
 43
0.0000001
 44
0.0000000001
 40
0.0
 40
0.0
 40
0.0
 40
0.0
 40
0.1683903447
 40
0.3249509742
 40
0.4684039921
 40
0.5982648708
 40
0.7146691419
 40
0.8186504873
 40
0.9125467
 40
1.0
 40
1.0
 40
1.0
 40
1.0
 10
9.6219793892
 20
4.8448041555
 30
0.0
 10
9.6214564122
 20
4.8447660294
 30
0.0
 10
9.6204491338
 20
4.8446595146
 30
0.0
 10
9.6190129719
 20
4.8443956896
 30
0.0
 10
9.6177212984
 20
4.8440361772
 30
0.0
 10
9.616591431
 20
4.8435854834
 30
0.0
 10
9.6156374087
 20
4.8430488259
 30
0.0
 10
9.6148717511
 20
4.8424299479
 30
0.0
 10
9.61430775
 20
4.8417336179
 30
0.0
 10
9.6140713286
 20
4.8412118752
 30
0.0
 10
9.6139953151
 20
4.8409503707
 30
0.0
  0
SPLINE
  5
2F6
100
AcDbEntity
  8
0
100
AcDbSpline
 62
9
  6
CONTINUOUS
 70
0
 71
3
 72
9
 73
5
 74
0
 42
0.0000001
 43
0.0000001
 44
0.0000000001
 40
0.0
 40
0.0
 40
0.0
 40
0.0
 40
0.4908093807
 40
1.0
 40
1.0
 40
1.0
 40
1.0
 10
9.5983256146
 20
4.9593417565
 30
0.0
 10
9.5979641237
 20
4.958174849
 30
0.0
 10
9.5974275045
 20
4.9557327156
 30
0.0
 10
9.5972520657
 20
4.9532405979
 30
0.0
 10
9.5972519902
 20
4.9519732301
 30
0.0
  0
SPLINE
  5
2F7
100
AcDbEntity
  8
0
100
AcDbSpline
 62
9
  6
CONTINUOUS
 70
0
 71
3
 72
20
 73
16
 74
0
 42
0.0000001
 43
0.0000001
 44
0.0000000001
 40
0.0
 40
0.0
 40
0.0
 40
0.0
 40
0.0048263413
 40
0.0111926981
 40
0.0291076254
 40
0.0542948216
 40
0.0868655951
 40
0.1267811922
 40
0.1739420919
 40
0.2282277235
 40
0.2894619393
 40
0.4319006
 40
0.5993770846
 40
0.7897017258
 40
1.0
 40
1.0
 40
1.0
 40
1.0
 10
9.1697036784
 20
4.8448041408
 30
0.0
 10
9.1697054973
 20
4.8447927863
 30
0.0
 10
9.1697150429
 20
4.8447674202
 30
0.0
 10
9.1697518272
 20
4.844708475
 30
0.0
 10
9.1698317823
 20
4.8446208977
 30
0.0
 10
9.1699652699
 20
4.8444997907
 30
0.0
 10
9.1701467967
 20
4.8443539
 30
0.0
 10
9.170375535
 20
4.8441837488
 30
0.0
 10
9.1706510847
 20
4.8439899956
 30
0.0
 10
9.1709725136
 20
4.8437733582
 30
0.0
 10
9.1714874318
 20
4.8434377508
 30
0.0
 10
9.172237367
 20
4.8429690171
 30
0.0
 10
9.1732584395
 20
4.8423541582
 30
0.0
 10
9.1744268234
 20
4.8416707331
 30
0.0
 10
9.1752556153
 20
4.8411971818
 30
0.0
 10
9.1756916871
 20
4.8409504035
 30
0.0
  0
LINE
  5
2F8
100
AcDbEntity
  8
0
100
AcDbLine
 62
9
  6
CONTINUOUS
 10
9.6766813953
 20
4.7192583499
 11
9.7017067778
 21
4.8155948576
  0
SPLINE
  5
2F9
100
AcDbEntity
  8
0
100
AcDbSpline
 62
9
  6
CONTINUOUS
 70
0
 71
3
 72
15
 73
11
 74
0
 42
0.0000001
 43
0.0000001
 44
0.0000000001
 40
0.0
 40
0.0
 40
0.0
 40
0.0
 40
0.1201880241
 40
0.2443400428
 40
0.3711871505
 40
0.4994384131
 40
0.6277615545
 40
0.7548229382
 40
0.8793276817
 40
1.0
 40
1.0
 40
1.0
 40
1.0
 10
9.7017067778
 20
4.8155948576
 30
0.0
 10
9.7057650919
 20
4.8136260254
 30
0.0
 10
9.7141250349
 20
4.8098458602
 30
0.0
 10
9.7270890699
 20
4.8047334952
 30
0.0
 10
9.7405633012
 20
4.8001317224
 30
0.0
 10
9.7543810104
 20
4.7960972716
 30
0.0
 10
9.7683724549
 20
4.7926801473
 30
0.0
 10
9.7823655329
 20
4.7899219575
 30
0.0
 10
9.7961872078
 20
4.7878570248
 30
0.0
 10
9.805347811
 20
4.786941636
 30
0.0
 10
9.809864657
 20
4.7866120675
 30
0.0
  0
SPLINE
  5
2FA
100
AcDbEntity
  8
0
100
AcDbSpline
 62
9
  6
CONTINUOUS
 70
0
 71
3
 72
14
 73
10
 74
0
 42
0.0000001
 43
0.0000001
 44
0.0000000001
 40
0.0
 40
0.0
 40
0.0
 40
0.0
 40
0.1162069954
 40
0.237869417
 40
0.3636354105
 40
0.4920685006
 40
0.6216016355
 40
0.7505791985
 40
1.0
 40
1.0
 40
1.0
 40
1.0
 10
9.6766813953
 20
4.7192583499
 30
0.0
 10
9.6810209388
 20
4.7185123996
 30
0.0
 10
9.6899199294
 20
4.717078457
 30
0.0
 10
9.7035623625
 20
4.7151420031
 30
0.0
 10
9.7176964229
 20
4.7133882069
 30
0.0
 10
9.7321544808
 20
4.7118409333
 30
0.0
 10
9.7467577817
 20
4.7105252557
 30
0.0
 10
9.7659530467
 20
4.7091226913
 30
0.0
 10
9.7802792244
 20
4.7084430945
 30
0.0
 10
9.7897266728
 20
4.7081920637
 30
0.0
  0
SPLINE
  5
2FB
100
AcDbEntity
  8
0
100
AcDbSpline
 62
9
  6
CONTINUOUS
 70
0
 71
3
 72
15
 73
11
 74
0
 42
0.0000001
 43
0.0000001
 44
0.0000000001
 40
0.0
 40
0.0
 40
0.0
 40
0.0
 40
0.1154363637
 40
0.2366197318
 40
0.3620785622
 40
0.4903147035
 40
0.6197808776
 40
0.7489137696
 40
0.8761700273
 40
1.0
 40
1.0
 40
1.0
 40
1.0
 10
9.7081387018
 20
4.8409504117
 30
0.0
 10
9.7123061404
 20
4.841839231
 30
0.0
 10
9.7208345105
 20
4.8437271225
 30
0.0
 10
9.7338446762
 20
4.8467904776
 30
0.0
 10
9.7472745343
 20
4.8501283081
 30
0.0
 10
9.7609603032
 20
4.8536999623
 30
0.0
 10
9.774735543
 20
4.8574622044
 30
0.0
 10
9.7884328197
 20
4.8613692269
 30
0.0
 10
9.8018850554
 20
4.8653734378
 30
0.0
 10
9.8107364715
 20
4.8681234341
 30
0.0
 10
9.8150927419
 20
4.8695079898
 30
0.0
  0
SPLINE
  5
2FC
100
AcDbEntity
  8
0
100
AcDbSpline
 62
9
  6
CONTINUOUS
 70
0
 71
3
 72
49
 73
45
 74
0
 42
0.0000001
 43
0.0000001
 44
0.0000000001
 40
0.0
 40
0.0
 40
0.0
 40
0.0
 40
0.0618631869
 40
0.1236841827
 40
0.1854580425
 40
0.2471783349
 40
0.2780154768
 40
0.3088353962
 40
0.3396359264
 40
0.3704146921
 40
0.4011685508
 40
0.431893207
 40
0.4625833466
 40
0.477913269
 40
0.493231932
 40
0.5085382937
 40
0.5238318428
 40
0.5391145216
 40
0.5543943368
 40
0.5620408917
 40
0.5697029252
 40
0.5773984611
 40
0.5851568881
 40
0.5930081132
 40
0.6009683107
 40
0.6090236572
 40
0.617146178
 40
0.6253145054
 40
0.6335139221
 40
0.6499658421
 40
0.6664529574
 40
0.682943551
 40
0.6994158467
 40
0.7158539828
 40
0.7322461205
 40
0.7485826561
 40
0.781055043
 40
0.8132372158
 40
0.845113809
 40
0.8766793058
 40
0.9079356133
 40
0.9388934063
 40
0.96957758
 40
1.0
 40
1.0
 40
1.0
 40
1.0
 10
9.7081387102
 20
4.8409504135
 30
0.0
 10
9.7088438784
 20
4.8440323144
 30
0.0
 10
9.7102414415
 20
4.8501968364
 30
0.0
 10
9.712296326
 20
4.8594493486
 30
0.0
 10
9.7143056194
 20
4.8687044032
 30
0.0
 10
9.7159371215
 20
4.8764210367
 30
0.0
 10
9.7172131837
 20
4.8825958273
 30
0.0
 10
9.7181535497
 20
4.8872264064
 30
0.0
 10
9.7190762499
 20
4.8918574962
 30
0.0
 10
9.7199798806
 20
4.8964889101
 30
0.0
 10
9.7208604421
 20
4.9011208208
 30
0.0
 10
9.7217174422
 20
4.9057525482
 30
0.0
 10
9.7224066988
 20
4.9096136144
 30
0.0
 10
9.7229423831
 20
4.912702253
 30
0.0
 10
9.7233357872
 20
4.9150176232
 30
0.0
 10
9.7237201099
 20
4.9173326337
 30
0.0
 10
9.7240960182
 20
4.9196471617
 30
0.0
 10
9.7244687623
 20
4.9219608135
 30
0.0
 10
9.7247837205
 20
4.9238879669
 30
0.0
 10
9.7250547559
 20
4.9254275658
 30
0.0
 10
9.7252792416
 20
4.9265816688
 30
0.0
 10
9.7255441953
 20
4.9277333664
 30
0.0
 10
9.7258830999
 20
4.9288762847
 30
0.0
 10
9.72632473
 20
4.9299990452
 30
0.0
 10
9.7268875015
 20
4.931083567
 30
0.0
 10
9.727554865
 20
4.9321226374
 30
0.0
 10
9.7282998285
 20
4.933120178
 30
0.0
 10
9.729104293
 20
4.9340796899
 30
0.0
 10
9.7302401257
 20
4.9353144318
 30
0.0
 10
9.7317523765
 20
4.9367776987
 30
0.0
 10
9.733674431
 20
4.9384189066
 30
0.0
 10
9.7356835348
 20
4.9399537905
 30
0.0
 10
9.7377639337
 20
4.9413857885
 30
0.0
 10
9.7399029819
 20
4.942718839
 30
0.0
 10
9.7420905686
 20
4.9439565263
 30
0.0
 10
9.7450560508
 20
4.9454776968
 30
0.0
 10
9.7488479624
 20
4.9471483497
 30
0.0
 10
9.7535036385
 20
4.9487925433
 30
0.0
 10
9.7582171469
 20
4.9500967899
 30
0.0
 10
9.7629594916
 20
4.9510788751
 30
0.0
 10
9.7677084913
 20
4.9517482106
 30
0.0
 10
9.7724452437
 20
4.9521112795
 30
0.0
 10
9.7771519242
 20
4.9521936057
 30
0.0
 10
9.7802744024
 20
4.9520748309
 30
0.0
 10
9.7818258098
 20
4.9519729111
 30
0.0
  0
LINE
  5
2FD
100
AcDbEntity
  8
0
100
AcDbLine
 62
9
  6
CONTINUOUS
 10
10.5911779062
 20
4.8155948631
 11
10.6162033094
 21
4.719258467
  0
SPLINE
  5
2FE
100
AcDbEntity
  8
0
100
AcDbSpline
 62
9
  6
CONTINUOUS
 70
0
 71
3
 72
15
 73
11
 74
0
 42
0.0000001
 43
0.0000001
 44
0.0000000001
 40
0.0
 40
0.0
 40
0.0
 40
0.0
 40
0.1227124747
 40
0.2494321524
 40
0.3784094943
 40
0.443212934
 40
0.5079429727
 40
0.6363755585
 40
0.7621414512
 40
1.0
 40
1.0
 40
1.0
 40
1.0
 10
10.5031580655
 20
4.7081920442
 30
0.0
 10
10.5078061083
 20
4.7083159703
 30
0.0
 10
10.5172515228
 20
4.7086667369
 30
0.0
 10
10.5315686069
 20
4.7094592603
 30
0.0
 10
10.5436808949
 20
4.7103466213
 30
0.0
 10
10.5534402535
 20
4.7111851676
 30
0.0
 10
10.5631718405
 20
4.7121018867
 30
0.0
 10
10.5751885202
 20
4.7133872845
 30
0.0
 10
10.5936913071
 20
4.7156850924
 30
0.0
 10
10.6073208575
 20
4.7177318234
 30
0.0
 10
10.6162033094
 20
4.719258467
 30
0.0
  0
SPLINE
  5
2FF
100
AcDbEntity
  8
0
100
AcDbSpline
 62
9
  6
CONTINUOUS
 70
0
 71
3
 72
15
 73
11
 74
0
 42
0.0000001
 43
0.0000001
 44
0.0000000001
 40
0.0
 40
0.0
 40
0.0
 40
0.0
 40
0.1201880161
 40
0.244340034
 40
0.3711871456
 40
0.499438414
 40
0.6277615608
 40
0.7548229475
 40
0.8793276896
 40
1.0
 40
1.0
 40
1.0
 40
1.0
 10
10.5911779062
 20
4.8155948631
 30
0.0
 10
10.5871195913
 20
4.8136260338
 30
0.0
 10
10.5787596463
 20
4.809845875
 30
0.0
 10
10.5657956097
 20
4.8047335161
 30
0.0
 10
10.5523213779
 20
4.8001317461
 30
0.0
 10
10.5385036688
 20
4.7960972951
 30
0.0
 10
10.5245122251
 20
4.7926801684
 30
0.0
 10
10.5105191484
 20
4.789921974
 30
0.0
 10
10.4966974755
 20
4.7878570344
 30
0.0
 10
10.4875368737
 20
4.7869416394
 30
0.0
 10
10.4830200285
 20
4.7866120675
 30
0.0
  0
SPLINE
  5
300
100
AcDbEntity
  8
0
100
AcDbSpline
 62
9
  6
CONTINUOUS
 70
0
 71
3
 72
52
 73
48
 74
0
 42
0.0000001
 43
0.0000001
 44
0.0000000001
 40
0.0
 40
0.0
 40
0.0
 40
0.0
 40
0.0304223785
 40
0.0611066509
 40
0.0920645944
 40
0.1233207148
 40
0.1548862269
 40
0.1867626841
 40
0.2189448743
 40
0.2514171007
 40
0.2677535607
 40
0.2841456188
 40
0.3005837023
 40
0.3170559095
 40
0.3335463967
 40
0.3500333855
 40
0.3664851947
 40
0.3746845199
 40
0.3828529071
 40
0.3909753079
 40
0.3990304881
 40
0.4030250687
 40
0.4069933523
 40
0.4109336827
 40
0.4148467268
 40
0.4226051897
 40
0.4303012238
 40
0.437963212
 40
0.4456095717
 40
0.4608892975
 40
0.4761718752
 40
0.491465297
 40
0.5067715654
 40
0.5220901168
 40
0.5374199366
 40
0.5527601598
 40
0.5681098953
 40
0.5988343359
 40
0.6295879659
 40
0.6603665112
 40
0.6911668276
 40
0.7219865208
 40
0.7528234357
 40
0.8145432899
 40
0.8763167088
 40
0.93813726
 40
1.0
 40
1.0
 40
1.0
 40
1.0
 10
10.5110589001
 20
4.9519729905
 30
0.0
 10
10.5126103111
 20
4.9520749448
 30
0.0
 10
10.5157327955
 20
4.9521941364
 30
0.0
 10
10.5204395222
 20
4.9521112617
 30
0.0
 10
10.5251762366
 20
4.9517477426
 30
0.0
 10
10.5299253972
 20
4.951079302
 30
0.0
 10
10.5346676028
 20
4.9500964794
 30
0.0
 10
10.5393812781
 20
4.9487927929
 30
0.0
 10
10.5440368151
 20
4.947148138
 30
0.0
 10
10.5478287991
 20
4.9454776565
 30
0.0
 10
10.5507942853
 20
4.943956484
 30
0.0
 10
10.5529818455
 20
4.9427187462
 30
0.0
 10
10.5551208714
 20
4.941385656
 30
0.0
 10
10.5572012436
 20
4.9399536236
 30
0.0
 10
10.5592104151
 20
4.9384188306
 30
0.0
 10
10.5611323884
 20
4.9367775371
 30
0.0
 10
10.5626446876
 20
4.9353143245
 30
0.0
 10
10.5637804604
 20
4.9340795332
 30
0.0
 10
10.564585069
 20
4.9331201316
 30
0.0
 10
10.5653299852
 20
4.9321226037
 30
0.0
 10
10.5658873788
 20
4.9312538705
 30
0.0
 10
10.5662816547
 20
4.9305361258
 30
0.0
 10
10.5665474596
 20
4.9299886542
 30
0.0
 10
10.5667836793
 20
4.9294323071
 30
0.0
 10
10.567058432
 20
4.928682962
 30
0.0
 10
10.5673398576
 20
4.9277329804
 30
0.0
 10
10.5676061099
 20
4.9265815917
 30
0.0
 10
10.567830091
 20
4.9254273457
 30
0.0
 10
10.5681008642
 20
4.9238877204
 30
0.0
 10
10.5684159738
 20
4.9219605982
 30
0.0
 10
10.5687887181
 20
4.9196469518
 30
0.0
 10
10.5691645787
 20
4.9173324204
 30
0.0
 10
10.5695489361
 20
4.9150174209
 30
0.0
 10
10.5699423492
 20
4.9127020561
 30
0.0
 10
10.570344016
 20
4.9103863492
 30
0.0
 10
10.5707532998
 20
4.9080703575
 30
0.0
 10
10.5713100378
 20
4.9049814978
 30
0.0
 10
10.57202421
 20
4.9011206332
 30
0.0
 10
10.5729048689
 20
4.8964887517
 30
0.0
 10
10.5738084646
 20
4.8918573411
 30
0.0
 10
10.5747311436
 20
4.8872262569
 30
0.0
 10
10.5756715416
 20
4.8825956947
 30
0.0
 10
10.5769475909
 20
4.8764209153
 30
0.0
 10
10.5785790881
 20
4.8687042975
 30
0.0
 10
10.5805883732
 20
4.8594492613
 30
0.0
 10
10.5826432599
 20
4.85019677
 30
0.0
 10
10.5840408201
 20
4.8440322612
 30
0.0
 10
10.5847459862
 20
4.8409503667
 30
0.0
  0
SPLINE
  5
301
100
AcDbEntity
  8
0
100
AcDbSpline
 62
9
  6
CONTINUOUS
 70
0
 71
3
 72
15
 73
11
 74
0
 42
0.0000001
 43
0.0000001
 44
0.0000000001
 40
0.0
 40
0.0
 40
0.0
 40
0.0
 40
0.1154363803
 40
0.2366197516
 40
0.3620785756
 40
0.4903147064
 40
0.6197808707
 40
0.7489137566
 40
0.8761700154
 40
1.0
 40
1.0
 40
1.0
 40
1.0
 10
10.5847459862
 20
4.8409503667
 30
0.0
 10
10.5805785412
 20
4.8418391634
 30
0.0
 10
10.5720501578
 20
4.8437270072
 30
0.0
 10
10.559039978
 20
4.8467903179
 30
0.0
 10
10.5456101125
 20
4.8501281291
 30
0.0
 10
10.5319243419
 20
4.8536997855
 30
0.0
 10
10.5181491052
 20
4.8574620466
 30
0.0
 10
10.5044518353
 20
4.8613691029
 30
0.0
 10
10.4909996113
 20
4.8653733649
 30
0.0
 10
10.482148207
 20
4.8681234076
 30
0.0
 10
10.4777919435
 20
4.8695079898
 30
0.0
  0
SPLINE
  5
302
100
AcDbEntity
  8
0
100
AcDbSpline
 62
9
  6
CONTINUOUS
 70
0
 71
3
 72
13
 73
9
 74
0
 42
0.0000001
 43
0.0000001
 44
0.0000000001
 40
0.0
 40
0.0
 40
0.0
 40
0.0
 40
0.1173427768
 40
0.2401371359
 40
0.4954798302
 40
0.7531376699
 40
0.8787759949
 40
1.0
 40
1.0
 40
1.0
 40
1.0
 10
10.6059919513
 20
4.8191619817
 30
0.0
 10
10.605392052
 20
4.8191507967
 30
0.0
 10
10.6041648738
 20
4.8190878546
 30
0.0
 10
10.6016451331
 20
4.8188141661
 30
0.0
 10
10.5984456493
 20
4.8182051366
 30
0.0
 10
10.5953063755
 20
4.8172855391
 30
0.0
 10
10.5928927053
 20
4.8163721814
 30
0.0
 10
10.5917371733
 20
4.815862135
 30
0.0
 10
10.5911779054
 20
4.8155948661
 30
0.0
  0
SPLINE
  5
303
100
AcDbEntity
  8
0
100
AcDbSpline
 62
9
  6
CONTINUOUS
 70
0
 71
3
 72
12
 73
8
 74
0
 42
0.0000001
 43
0.0000001
 44
0.0000000001
 40
0.0
 40
0.0
 40
0.0
 40
0.0
 40
0.1159771593
 40
0.2375196246
 40
0.491299646
 40
0.7495387366
 40
1.0
 40
1.0
 40
1.0
 40
1.0
 10
10.5987180849
 20
4.8448041555
 30
0.0
 10
10.5981562648
 20
4.8447636684
 30
0.0
 10
10.597007931
 20
4.8446464887
 30
0.0
 10
10.5946490883
 20
4.8442814058
 30
0.0
 10
10.5916456131
 20
4.8435904907
 30
0.0
 10
10.5881184774
 20
4.8424488412
 30
0.0
 10
10.5858400782
 20
4.8414820668
 30
0.0
 10
10.5847459934
 20
4.8409503707
 30
0.0
  0
SPLINE
  5
304
100
AcDbEntity
  8
0
100
AcDbSpline
 62
9
  6
CONTINUOUS
 70
0
 71
3
 72
10
 73
6
 74
0
 42
0.0000001
 43
0.0000001
 44
0.0000000001
 40
0.0
 40
0.0
 40
0.0
 40
0.0
 40
0.2393922623
 40
0.4878677749
 40
1.0
 40
1.0
 40
1.0
 40
1.0
 10
10.5103476237
 20
4.9593417565
 30
0.0
 10
10.510466724
 20
4.9587623023
 30
0.0
 10
10.5106747601
 20
4.9575740198
 30
0.0
 10
10.5109725075
 20
4.9551202047
 30
0.0
 10
10.5110596333
 20
4.9532387711
 30
0.0
 10
10.5110595471
 20
4.9519732301
 30
0.0
  0
SPLINE
  5
305
100
AcDbEntity
  8
0
100
AcDbSpline
 62
9
  6
CONTINUOUS
 70
0
 71
3
 72
12
 73
8
 74
0
 42
0.0000001
 43
0.0000001
 44
0.0000000001
 40
0.0
 40
0.0
 40
0.0
 40
0.0
 40
0.1159792327
 40
0.2375228551
 40
0.4913030766
 40
0.7495405811
 40
1.0
 40
1.0
 40
1.0
 40
1.0
 10
9.6941674077
 20
4.8448041408
 30
0.0
 10
9.6947292061
 20
4.8447636383
 30
0.0
 10
9.6958774899
 20
4.8446464335
 30
0.0
 10
9.6982362131
 20
4.8442813181
 30
0.0
 10
9.7012395132
 20
4.8435903969
 30
0.0
 10
9.704766432
 20
4.8424487844
 30
0.0
 10
9.7070446895
 20
4.8414820647
 30
0.0
 10
9.7081387079
 20
4.8409504035
 30
0.0
  0
SPLINE
  5
306
100
AcDbEntity
  8
0
100
AcDbSpline
 62
9
  6
CONTINUOUS
 70
0
 71
3
 72
13
 73
9
 74
0
 42
0.0000001
 43
0.0000001
 44
0.0000000001
 40
0.0
 40
0.0
 40
0.0
 40
0.0
 40
0.1173427849
 40
0.240137171
 40
0.4954798478
 40
0.7531376808
 40
0.8787759976
 40
1.0
 40
1.0
 40
1.0
 40
1.0
 10
9.686892733
 20
4.8191619771
 30
0.0
 10
9.6874926323
 20
4.8191507915
 30
0.0
 10
9.6887198105
 20
4.819087848
 30
0.0
 10
9.6912395509
 20
4.8188141574
 30
0.0
 10
9.694439034
 20
4.8182051253
 30
0.0
 10
9.6975783071
 20
4.8172855265
 30
0.0
 10
9.699991977
 20
4.8163721688
 30
0.0
 10
9.7011475089
 20
4.8158621227
 30
0.0
 10
9.7017067768
 20
4.815594854
 30
0.0
  0
SPLINE
  5
307
100
AcDbEntity
  8
0
100
AcDbSpline
 62
9
  6
CONTINUOUS
 70
0
 71
3
 72
13
 73
9
 74
0
 42
0.0000001
 43
0.0000001
 44
0.0000000001
 40
0.0
 40
0.0
 40
0.0
 40
0.0
 40
0.117241719
 40
0.2399450818
 40
0.4951768924
 40
0.7528787275
 40
0.8786165158
 40
1.0
 40
1.0
 40
1.0
 40
1.0
 10
9.6618990676
 20
4.7227994947
 30
0.0
 10
9.6624969867
 20
4.7227888528
 30
0.0
 10
9.6637202229
 20
4.7227271874
 30
0.0
 10
9.6662324881
 20
4.7224566995
 30
0.0
 10
9.6694239326
 20
4.7218526587
 30
0.0
 10
9.6725567773
 20
4.7209392589
 30
0.0
 10
9.6749673874
 20
4.7200313983
 30
0.0
 10
9.6761222125
 20
4.7195241904
 30
0.0
 10
9.6766813779
 20
4.719258356
 30
0.0
  0
LINE
  5
308
100
AcDbEntity
  8
0
100
AcDbLine
 62
9
  6
CONTINUOUS
 10
11.1865608869
 20
4.7227996076
 11
11.1988643804
 21
4.6985435571
  0
LINE
  5
309
100
AcDbEntity
  8
0
100
AcDbLine
 62
9
  6
CONTINUOUS
 10
11.1365053354
 20
4.8192014407
 11
11.1865608869
 21
4.7227996076
  0
SPLINE
  5
30A
100
AcDbEntity
  8
0
100
AcDbSpline
 62
9
  6
CONTINUOUS
 70
0
 71
3
 72
14
 73
10
 74
0
 42
0.0000001
 43
0.0000001
 44
0.0000000001
 40
0.0
 40
0.0
 40
0.0
 40
0.0
 40
0.2752130335
 40
0.4047280402
 40
0.5296454163
 40
0.650733432
 40
0.768857769
 40
0.8849543649
 40
1.0
 40
1.0
 40
1.0
 40
1.0
 10
9.8285004208
 20
11.4777738342
 30
0.0
 10
9.8265063079
 20
11.4801750854
 30
0.0
 10
9.8237846342
 20
11.4838968667
 30
0.0
 10
9.8208268203
 20
11.4891309789
 30
0.0
 10
9.8190426896
 20
11.4930041764
 30
0.0
 10
9.8176516175
 20
11.4968985749
 30
0.0
 10
9.8166559178
 20
11.5008098154
 30
0.0
 10
9.8160577856
 20
11.5047318348
 30
0.0
 10
9.8159244362
 20
11.507355205
 30
0.0
 10
9.8159244362
 20
11.5086599818
 30
0.0
  0
SPLINE
  5
30B
100
AcDbEntity
  8
0
100
AcDbSpline
 62
9
  6
CONTINUOUS
 70
0
 71
3
 72
24
 73
20
 74
0
 42
0.0000001
 43
0.0000001
 44
0.0000000001
 40
0.0
 40
0.0
 40
0.0
 40
0.0
 40
0.0119562379
 40
0.0244448634
 40
0.0376787494
 40
0.0518354033
 40
0.0834328827
 40
0.1200839677
 40
0.1622604512
 40
0.2102158329
 40
0.2640584573
 40
0.3238098951
 40
0.3894172472
 40
0.4607860329
 40
0.537770014
 40
0.6201951848
 40
0.7078668744
 40
0.8005737387
 40
1.0
 40
1.0
 40
1.0
 40
1.0
 10
10.6788893616
 20
4.8409504117
 30
0.0
 10
10.6788753917
 20
4.8411692756
 30
0.0
 10
10.6788813444
 20
4.8416195425
 30
0.0
 10
10.678988238
 20
4.8423043345
 30
0.0
 10
10.6791922397
 20
4.8430086571
 30
0.0
 10
10.6796082573
 20
4.8440095186
 30
0.0
 10
10.6803943572
 20
4.8453100774
 30
0.0
 10
10.6816789112
 20
4.846881768
 30
0.0
 10
10.683334827
 20
4.8485194461
 30
0.0
 10
10.6853582953
 20
4.8502198048
 30
0.0
 10
10.6877447164
 20
4.8519791547
 30
0.0
 10
10.6904879302
 20
4.8537921599
 30
0.0
 10
10.6935801812
 20
4.8556538017
 30
0.0
 10
10.6970126087
 20
4.8575580987
 30
0.0
 10
10.7007748945
 20
4.8594994574
 30
0.0
 10
10.7048558534
 20
4.8614717565
 30
0.0
 10
10.70924352
 20
4.8634691507
 30
0.0
 10
10.7156422717
 20
4.8662250338
 30
0.0
 10
10.7206227125
 20
4.8682058142
 30
0.0
 10
10.7240411
 20
4.8695079898
 30
0.0
  0
SPLINE
  5
30C
100
AcDbEntity
  8
0
100
AcDbSpline
 62
9
  6
CONTINUOUS
 70
0
 71
3
 72
46
 73
42
 74
0
 42
0.0000001
 43
0.0000001
 44
0.0000000001
 40
0.0
 40
0.0
 40
0.0
 40
0.0
 40
0.0675434405
 40
0.1351611949
 40
0.2028592563
 40
0.2706469249
 40
0.3385355707
 40
0.372523028
 40
0.4065423827
 40
0.4405983421
 40
0.474693044
 40
0.5088336383
 40
0.5259216328
 40
0.5430217893
 40
0.5601346632
 40
0.57725759
 40
0.5943811981
 40
0.6114843879
 40
0.6200105713
 40
0.6284954846
 40
0.6368990407
 40
0.6451535925
 40
0.6531812735
 40
0.6609222946
 40
0.6683896792
 40
0.675641683
 40
0.6896891498
 40
0.7033470889
 40
0.7299564242
 40
0.7560908305
 40
0.7820702259
 40
0.7950754593
 40
0.8081134639
 40
0.8212004231
 40
0.8343515896
 40
0.8608856026
 40
0.8878032719
 40
0.9151545491
 40
0.9429639385
 40
0.9712470698
 40
1.0
 40
1.0
 40
1.0
 40
1.0
 10
10.6788893614
 20
4.8409504135
 30
0.0
 10
10.6782299202
 20
4.8440349124
 30
0.0
 10
10.676899863
 20
4.8502050762
 30
0.0
 10
10.6748698762
 20
4.8594583446
 30
0.0
 10
10.6728002991
 20
4.8687145336
 30
0.0
 10
10.6706860854
 20
4.8779736109
 30
0.0
 10
10.6688821601
 20
4.8856886784
 30
0.0
 10
10.6674080836
 20
4.8918612827
 30
0.0
 10
10.6662849908
 20
4.8964933012
 30
0.0
 10
10.6651419719
 20
4.9011256044
 30
0.0
 10
10.6639771001
 20
4.9057583028
 30
0.0
 10
10.6629846676
 20
4.9096172574
 30
0.0
 10
10.662175832
 20
4.9127039225
 30
0.0
 10
10.6615611399
 20
4.9150194259
 30
0.0
 10
10.6609378689
 20
4.9173343249
 30
0.0
 10
10.6603061282
 20
4.9196480614
 30
0.0
 10
10.6596692086
 20
4.9219599015
 30
0.0
 10
10.6591389336
 20
4.923884718
 30
0.0
 10
10.6587271448
 20
4.9254236942
 30
0.0
 10
10.6584340601
 20
4.9265738177
 30
0.0
 10
10.6581716607
 20
4.9277185058
 30
0.0
 10
10.6579674607
 20
4.9288537319
 30
0.0
 10
10.6578494557
 20
4.9299708168
 30
0.0
 10
10.6578424936
 20
4.9310578436
 30
0.0
 10
10.6579417851
 20
4.932103612
 30
0.0
 10
10.6581844267
 20
4.9334262119
 30
0.0
 10
10.6586562062
 20
4.9349945864
 30
0.0
 10
10.6596627164
 20
4.937326922
 30
0.0
 10
10.6613021632
 20
4.9399808649
 30
0.0
 10
10.6637271428
 20
4.9427612534
 30
0.0
 10
10.6660383168
 20
4.9447531359
 30
0.0
 10
10.6680250074
 20
4.946153513
 30
0.0
 10
10.6695817901
 20
4.9471126518
 30
0.0
 10
10.6711989134
 20
4.9479803329
 30
0.0
 10
10.6734336496
 20
4.9490217101
 30
0.0
 10
10.6763531333
 20
4.950110792
 30
0.0
 10
10.6800025751
 20
4.9510895367
 30
0.0
 10
10.6837821017
 20
4.9517549258
 30
0.0
 10
10.6876661827
 20
4.9521140414
 30
0.0
 10
10.6916304939
 20
4.9521929439
 30
0.0
 10
10.6942933733
 20
4.9520735808
 30
0.0
 10
10.6956323238
 20
4.9519729111
 30
0.0
  0
LINE
  5
30D
100
AcDbEntity
  8
0
100
AcDbLine
 62
9
  6
CONTINUOUS
 10
11.1296407573
 20
4.8155948631
 11
11.1797267944
 21
4.719258467
  0
LINE
  5
30E
100
AcDbEntity
  8
0
100
AcDbLine
 62
9
  6
CONTINUOUS
 10
11.1161314224
 20
4.7081920442
 11
11.1797267944
 21
4.719258467
  0
LINE
  5
30F
100
AcDbEntity
  8
0
100
AcDbLine
 62
9
  6
CONTINUOUS
 10
11.1296407573
 20
4.8155948631
 11
11.0750291096
 21
4.7866120675
  0
SPLINE
  5
310
100
AcDbEntity
  8
0
100
AcDbSpline
 62
9
  6
CONTINUOUS
 70
0
 71
3
 72
47
 73
43
 74
0
 42
0.0000001
 43
0.0000001
 44
0.0000000001
 40
0.0
 40
0.0
 40
0.0
 40
0.0
 40
0.0025956229
 40
0.0052524723
 40
0.0080806488
 40
0.0111797531
 40
0.014638821
 40
0.0185346712
 40
0.0229291918
 40
0.0278688036
 40
0.0333898252
 40
0.039519142
 40
0.0536946832
 40
0.0706150873
 40
0.0904924583
 40
0.1134580862
 40
0.1396434517
 40
0.1540115059
 40
0.169274547
 40
0.1854840547
 40
0.2027337105
 40
0.2117959331
 40
0.2211702231
 40
0.2308391583
 40
0.2407189545
 40
0.2606871687
 40
0.2806618908
 40
0.3006192358
 40
0.3205731491
 40
0.3405290977
 40
0.3604891231
 40
0.40042111
 40
0.4403658546
 40
0.4803203943
 40
0.5202819357
 40
0.5602488048
 40
0.6002195522
 40
0.6801690027
 40
0.7601247402
 40
0.8400832889
 40
0.9200422771
 40
1.0
 40
1.0
 40
1.0
 40
1.0
 10
11.0602488561
 20
4.9519729905
 30
0.0
 10
11.0603459306
 20
4.9520235333
 30
0.0
 10
11.0605536059
 20
4.9521058295
 30
0.0
 10
11.060891946
 20
4.9521623596
 30
0.0
 10
11.0612557905
 20
4.9521509562
 30
0.0
 10
11.0616450759
 20
4.9520710665
 30
0.0
 10
11.0620606917
 20
4.9519204048
 30
0.0
 10
11.062503654
 20
4.9516964054
 30
0.0
 10
11.0629751808
 20
4.9513970285
 30
0.0
 10
11.0634767611
 20
4.9510210309
 30
0.0
 10
11.0640094279
 20
4.9505670446
 30
0.0
 10
11.0648014394
 20
4.9498191718
 30
0.0
 10
11.0658717375
 20
4.948668956
 30
0.0
 10
11.0672380423
 20
4.94700871
 30
0.0
 10
11.0687472436
 20
4.9449898318
 30
0.0
 10
11.0704092809
 20
4.9425999772
 30
0.0
 10
11.0718789266
 20
4.940360576
 30
0.0
 10
11.0731357555
 20
4.9383707279
 30
0.0
 10
11.0741491591
 20
4.9367247749
 30
0.0
 10
11.0752057438
 20
4.9349628929
 30
0.0
 10
11.076107095
 20
4.9334129175
 30
0.0
 10
11.0768441067
 20
4.9321010341
 30
0.0
 10
11.0774110082
 20
4.9310603107
 30
0.0
 10
11.0779755798
 20
4.9299792368
 30
0.0
 10
11.0787165019
 20
4.9284866827
 30
0.0
 10
11.0796012998
 20
4.9265810312
 30
0.0
 10
11.0806273128
 20
4.92427313
 30
0.0
 10
11.0816424818
 20
4.9219610891
 30
0.0
 10
11.082652475
 20
4.9196476551
 30
0.0
 10
11.0836603243
 20
4.9173331622
 30
0.0
 10
11.0850039824
 20
4.9142461247
 30
0.0
 10
11.08668453
 20
4.9103865194
 30
0.0
 10
11.0887026707
 20
4.9057543898
 30
0.0
 10
11.0907243367
 20
4.901122438
 30
0.0
 10
11.092747928
 20
4.8964903089
 30
0.0
 10
11.094774543
 20
4.891858756
 30
0.0
 10
11.0974794983
 20
4.8856835883
 30
0.0
 10
11.1008662557
 20
4.8779662795
 30
0.0
 10
11.1049376775
 20
4.868708141
 30
0.0
 10
11.1090163696
 20
4.8594527638
 30
0.0
 10
11.1131011637
 20
4.8501999867
 30
0.0
 10
11.1158285024
 20
4.8440333051
 30
0.0
 10
11.1171930149
 20
4.8409503667
 30
0.0
  0
SPLINE
  5
311
100
AcDbEntity
  8
0
100
AcDbSpline
 62
9
  6
CONTINUOUS
 70
0
 71
3
 72
22
 73
18
 74
0
 42
0.0000001
 43
0.0000001
 44
0.0000000001
 40
0.0
 40
0.0
 40
0.0
 40
0.0
 40
0.1751923511
 40
0.2583431326
 40
0.3382248168
 40
0.4146597139
 40
0.4874813996
 40
0.5565368842
 40
0.6216936759
 40
0.6828556742
 40
0.7399535393
 40
0.7929620903
 40
0.8419000037
 40
0.8868539239
 40
0.9279928162
 40
0.9655798359
 40
1.0
 40
1.0
 40
1.0
 40
1.0
 10
11.1171930149
 20
4.8409503667
 30
0.0
 10
11.1132161913
 20
4.8417871194
 30
0.0
 10
11.1073744938
 20
4.8431351214
 30
0.0
 10
11.099795161
 20
4.8451644558
 30
0.0
 10
11.0944658641
 20
4.8467336485
 30
0.0
 10
11.0894085397
 20
4.8483716135
 30
0.0
 10
11.0846380903
 20
4.8500735203
 30
0.0
 10
11.0801688515
 20
4.8518339773
 30
0.0
 10
11.0760144319
 20
4.8536479496
 30
0.0
 10
11.0721871336
 20
4.8555095612
 30
0.0
 10
11.0686983796
 20
4.8574136531
 30
0.0
 10
11.0655582474
 20
4.859354241
 30
0.0
 10
11.0627758122
 20
4.861326026
 30
0.0
 10
11.0603589385
 20
4.8633237388
 30
0.0
 10
11.0583142994
 20
4.865342857
 30
0.0
 10
11.056648822
 20
4.867378257
 30
0.0
 10
11.055759722
 20
4.8687999464
 30
0.0
 10
11.0553907008
 20
4.8695079898
 30
0.0
  0
SPLINE
  5
312
100
AcDbEntity
  8
0
100
AcDbSpline
 62
9
  6
CONTINUOUS
 70
0
 71
3
 72
20
 73
16
 74
0
 42
0.0000001
 43
0.0000001
 44
0.0000000001
 40
0.0
 40
0.0
 40
0.0
 40
0.0
 40
0.004823871
 40
0.0111874785
 40
0.0290970122
 40
0.0542794712
 40
0.0868463396
 40
0.1267589232
 40
0.173917716
 40
0.2282021492
 40
0.289436063
 40
0.4318767079
 40
0.5993584149
 40
0.7896911735
 40
1.0
 40
1.0
 40
1.0
 40
1.0
 10
11.1231810384
 20
4.8448041555
 30
0.0
 10
11.1231792285
 20
4.8447928055
 30
0.0
 10
11.1231696988
 20
4.8447674456
 30
0.0
 10
11.1231329423
 20
4.8447085121
 30
0.0
 10
11.1230530154
 20
4.8446209482
 30
0.0
 10
11.1229195583
 20
4.844499856
 30
0.0
 10
11.1227380556
 20
4.8443539766
 30
0.0
 10
11.1225093359
 20
4.8441838333
 30
0.0
 10
11.1222337985
 20
4.8439900846
 30
0.0
 10
11.121912376
 20
4.8437734483
 30
0.0
 10
11.1213974547
 20
4.8434378356
 30
0.0
 10
11.1206475016
 20
4.842969088
 30
0.0
 10
11.1196263918
 20
4.842354204
 30
0.0
 10
11.1184579521
 20
4.8416707429
 30
0.0
 10
11.117629117
 20
4.8411971642
 30
0.0
 10
11.117193021
 20
4.8409503707
 30
0.0
  0
SPLINE
  5
313
100
AcDbEntity
  8
0
100
AcDbSpline
 62
9
  6
CONTINUOUS
 70
0
 71
3
 72
15
 73
11
 74
0
 42
0.0000001
 43
0.0000001
 44
0.0000000001
 40
0.0
 40
0.0
 40
0.0
 40
0.0
 40
0.1683892892
 40
0.3249487577
 40
0.4684008473
 40
0.5982611961
 40
0.7146655051
 40
0.8186475593
 40
0.9125450709
 40
1.0
 40
1.0
 40
1.0
 40
1.0
 10
10.6709060721
 20
4.8448041408
 30
0.0
 10
10.6714290007
 20
4.8447660001
 30
0.0
 10
10.6724361843
 20
4.8446594605
 30
0.0
 10
10.6738722072
 20
4.8443956095
 30
0.0
 10
10.6751637521
 20
4.8440360843
 30
0.0
 10
10.6762935052
 20
4.8435853905
 30
0.0
 10
10.67724743
 20
4.8430487454
 30
0.0
 10
10.6780130096
 20
4.8424298924
 30
0.0
 10
10.6785769547
 20
4.8417335998
 30
0.0
 10
10.6788133552
 20
4.8412118911
 30
0.0
 10
10.6788893636
 20
4.8409504035
 30
0.0
  0
SPLINE
  5
314
100
AcDbEntity
  8
0
100
AcDbSpline
 62
9
  6
CONTINUOUS
 70
0
 71
3
 72
16
 73
12
 74
0
 42
0.0000001
 43
0.0000001
 44
0.0000000001
 40
0.0
 40
0.0
 40
0.0
 40
0.0
 40
0.1728161604
 40
0.3324455225
 40
0.4774779725
 40
0.6074141998
 40
0.7224972939
 40
0.8240235385
 40
0.914910117
 40
0.9578601289
 40
1.0
 40
1.0
 40
1.0
 40
1.0
 10
10.6769762169
 20
4.8191619771
 30
0.0
 10
10.6774989815
 20
4.8191518528
 30
0.0
 10
10.6785044539
 20
4.8191003737
 30
0.0
 10
10.6799390716
 20
4.8189177966
 30
0.0
 10
10.6812253254
 20
4.8186345912
 30
0.0
 10
10.6823456355
 20
4.8182544533
 30
0.0
 10
10.683286189
 20
4.8177813538
 30
0.0
 10
10.6840345025
 20
4.8172184188
 30
0.0
 10
10.6844953424
 20
4.8166639045
 30
0.0
 10
10.6847409732
 20
4.8161896667
 30
0.0
 10
10.6848248928
 20
4.8159450712
 30
0.0
 10
10.684857033
 20
4.8158216928
 30
0.0
  0
SPLINE
  5
315
100
AcDbEntity
  8
0
100
AcDbSpline
 62
9
  6
CONTINUOUS
 70
0
 71
3
 72
16
 73
12
 74
0
 42
0.0000001
 43
0.0000001
 44
0.0000000001
 40
0.0
 40
0.0
 40
0.0
 40
0.0
 40
0.1728540913
 40
0.3325235342
 40
0.4775915597
 40
0.6075505397
 40
0.7226350864
 40
0.8241380361
 40
0.9149774014
 40
0.9578958362
 40
1.0
 40
1.0
 40
1.0
 40
1.0
 10
10.7020176689
 20
4.7227994947
 30
0.0
 10
10.7025419388
 20
4.7227898204
 30
0.0
 10
10.703550351
 20
4.7227391179
 30
0.0
 10
10.7049892703
 20
4.7225573532
 30
0.0
 10
10.7062794851
 20
4.7222745725
 30
0.0
 10
10.7074033008
 20
4.7218944757
 30
0.0
 10
10.7083468087
 20
4.7214210535
 30
0.0
 10
10.7090974598
 20
4.7208574466
 30
0.0
 10
10.7095597001
 20
4.7203019977
 30
0.0
 10
10.7098059977
 20
4.7198269027
 30
0.0
 10
10.709890098
 20
4.7195818585
 30
0.0
 10
10.709922286
 20
4.7194582564
 30
0.0
  0
SPLINE
  5
316
100
AcDbEntity
  8
0
100
AcDbSpline
 62
9
  6
CONTINUOUS
 70
0
 71
3
 72
33
 73
29
 74
0
 42
0.0000001
 43
0.0000001
 44
0.0000000001
 40
0.0
 40
0.0
 40
0.0
 40
0.0
 40
0.0050997525
 40
0.0081735166
 40
0.011674398
 40
0.0156485729
 40
0.0201333298
 40
0.0251596796
 40
0.030755313
 40
0.0437519529
 40
0.0592863559
 40
0.0774846001
 40
0.0984793156
 40
0.1223879595
 40
0.1492937786
 40
0.1792538443
 40
0.2122848472
 40
0.2482675775
 40
0.2865425898
 40
0.3257615608
 40
0.3652288593
 40
0.4047883114
 40
0.4443943055
 40
0.5236800217
 40
0.6030194205
 40
0.6823887094
 40
0.8411768712
 40
1.0
 40
1.0
 40
1.0
 40
1.0
 10
11.0584657273
 20
4.9593417565
 30
0.0
 10
11.0586905973
 20
4.9593416505
 30
0.0
 10
11.0590509135
 20
4.9592569888
 30
0.0
 10
11.0595187016
 20
4.9590426637
 30
0.0
 10
11.0599187337
 20
4.9588031183
 30
0.0
 10
11.0603459536
 20
4.9584932411
 30
0.0
 10
11.0608020475
 20
4.9581110615
 30
0.0
 10
11.0612877513
 20
4.9576547918
 30
0.0
 10
11.0620128631
 20
4.9569068164
 30
0.0
 10
11.0629941438
 20
4.9557643415
 30
0.0
 10
11.0642512479
 20
4.9541309984
 30
0.0
 10
11.065645732
 20
4.9521609
 30
0.0
 10
11.0671829258
 20
4.9498412654
 30
0.0
 10
11.0688680625
 20
4.9471602597
 30
0.0
 10
11.0707053685
 20
4.9441088308
 30
0.0
 10
11.0726968682
 20
4.9406813229
 30
0.0
 10
11.0748397792
 20
4.93687936
 30
0.0
 10
11.0771153269
 20
4.9327316478
 30
0.0
 10
11.0794760495
 20
4.9283198092
 30
0.0
 10
11.08188574
 20
4.9237600472
 30
0.0
 10
11.0843142722
 20
4.9191461933
 30
0.0
 10
11.0867462082
 20
4.9145148499
 30
0.0
 10
11.0899908258
 20
4.9083271415
 30
0.0
 10
11.0940453806
 20
4.9005835469
 30
0.0
 10
11.0989090657
 20
4.8912844756
 30
0.0
 10
11.1053936846
 20
4.8788770527
 30
0.0
 10
11.113496701
 20
4.8633608849
 30
0.0
 10
11.1199765402
 20
4.8509452727
 30
0.0
 10
11.1232163001
 20
4.8447365138
 30
0.0
  0
SPLINE
  5
317
100
AcDbEntity
  8
0
100
AcDbSpline
 62
9
  6
CONTINUOUS
 70
0
 71
3
 72
26
 73
22
 74
0
 42
0.0000001
 43
0.0000001
 44
0.0000000001
 40
0.0
 40
0.0
 40
0.0
 40
0.0
 40
0.2333498338
 40
0.4390036844
 40
0.5297498175
 40
0.6119414425
 40
0.6854581778
 40
0.7502644741
 40
0.8064635247
 40
0.8542453956
 40
0.893970444
 40
0.9109510297
 40
0.9261158569
 40
0.9395656362
 40
0.9514154085
 40
0.9618014887
 40
0.9709058622
 40
0.9789717621
 40
0.9862903078
 40
0.9931890482
 40
1.0
 40
1.0
 40
1.0
 40
1.0
 10
11.1988643727
 20
4.6985435571
 30
0.0
 10
11.2000529005
 20
4.6961507129
 30
0.0
 10
11.202037662
 20
4.6915187647
 30
0.0
 10
11.2037962615
 20
4.6857005782
 30
0.0
 10
11.2046976761
 20
4.6814587162
 30
0.0
 10
11.20513658
 20
4.6786698683
 30
0.0
 10
11.2053953221
 20
4.6761571333
 30
0.0
 10
11.2055018536
 20
4.6739313188
 30
0.0
 10
11.205481331
 20
4.6719976443
 30
0.0
 10
11.2053573162
 20
4.6703557425
 30
0.0
 10
11.2051753771
 20
4.6691715286
 30
0.0
 10
11.2049878349
 20
4.6683699091
 30
0.0
 10
11.2048391223
 20
4.6678691202
 30
0.0
 10
11.204676376
 20
4.6674348633
 30
0.0
 10
11.2045008459
 20
4.6670652471
 30
0.0
 10
11.204313632
 20
4.6667581896
 30
0.0
 10
11.2041152113
 20
4.6665114796
 30
0.0
 10
11.2039056734
 20
4.6663229915
 30
0.0
 10
11.2036851965
 20
4.666190997
 30
0.0
 10
11.2034550332
 20
4.6661140975
 30
0.0
 10
11.2032974681
 20
4.6660981771
 30
0.0
 10
11.2032194855
 20
4.6660981755
 30
0.0
  0
SPLINE
  5
318
100
AcDbEntity
  8
0
100
AcDbSpline
 62
9
  6
CONTINUOUS
 70
0
 71
3
 72
26
 73
22
 74
0
 42
0.0000001
 43
0.0000001
 44
0.0000000001
 40
0.0
 40
0.0
 40
0.0
 40
0.0
 40
0.0068108862
 40
0.0137097669
 40
0.0210287121
 40
0.0290951544
 40
0.0381999854
 40
0.0485862082
 40
0.0604358897
 40
0.0738855383
 40
0.0890504283
 40
0.1060315309
 40
0.1457594246
 40
0.1935423739
 40
0.24973579
 40
0.3145422184
 40
0.3880833794
 40
0.4703024763
 40
0.5610415835
 40
0.7666128368
 40
1.0
 40
1.0
 40
1.0
 40
1.0
 10
9.0896651428
 20
4.6660981755
 30
0.0
 10
9.0895871611
 20
4.6660981774
 30
0.0
 10
9.0894295953
 20
4.6661141067
 30
0.0
 10
9.089199436
 20
4.6661910355
 30
0.0
 10
9.0889789659
 20
4.666323064
 30
0.0
 10
9.088769435
 20
4.6665115817
 30
0.0
 10
9.0885710195
 20
4.6667583109
 30
0.0
 10
9.0883838058
 20
4.6670653738
 30
0.0
 10
9.0882082727
 20
4.6674349864
 30
0.0
 10
9.0880455244
 20
4.6678692395
 30
0.0
 10
9.0878968134
 20
4.6683700331
 30
0.0
 10
9.0877092813
 20
4.6691716934
 30
0.0
 10
9.0875273876
 20
4.6703559629
 30
0.0
 10
9.0874033847
 20
4.6719978395
 30
0.0
 10
9.0873827833
 20
4.6739314572
 30
0.0
 10
9.0874893244
 20
4.6761574866
 30
0.0
 10
9.0877483418
 20
4.6786707872
 30
0.0
 10
9.088187457
 20
4.6814601139
 30
0.0
 10
9.0890888043
 20
4.6857012424
 30
0.0
 10
9.0908466219
 20
4.6915190371
 30
0.0
 10
9.0928317303
 20
4.696150268
 30
0.0
 10
9.0940203086
 20
4.6985435571
 30
0.0
  0
SPLINE
  5
319
100
AcDbEntity
  8
0
100
AcDbSpline
 62
9
  6
CONTINUOUS
 70
0
 71
3
 72
21
 73
17
 74
0
 42
0.0000001
 43
0.0000001
 44
0.0000000001
 40
0.0
 40
0.0
 40
0.0
 40
0.0
 40
0.0687482429
 40
0.1378701461
 40
0.206693963
 40
0.2747559337
 40
0.4072682462
 40
0.4714512237
 40
0.534200192
 40
0.5955963427
 40
0.6557636298
 40
0.7148664665
 40
0.7730714319
 40
0.830556921
 40
0.8874714778
 40
1.0
 40
1.0
 40
1.0
 40
1.0
 10
9.5787509533
 20
4.6985435571
 30
0.0
 10
9.5778898178
 20
4.6972791352
 30
0.0
 10
9.5761064644
 20
4.6947813434
 30
0.0
 10
9.5732740881
 20
4.6911558024
 30
0.0
 10
9.5702870778
 20
4.6876755858
 30
0.0
 10
9.5661451798
 20
4.6833391767
 30
0.0
 10
9.561718553
 20
4.6794254133
 30
0.0
 10
9.5570416683
 20
4.6760346634
 30
0.0
 10
9.5534886613
 20
4.6738060253
 30
0.0
 10
9.5498686714
 20
4.6718709257
 30
0.0
 10
9.5461942811
 20
4.6702312091
 30
0.0
 10
9.5424795138
 20
4.6688808791
 30
0.0
 10
9.5387360578
 20
4.6678134015
 30
0.0
 10
9.5349760849
 20
4.6670144889
 30
0.0
 10
9.5299755461
 20
4.666292332
 30
0.0
 10
9.52619942
 20
4.6660981821
 30
0.0
 10
9.5236953966
 20
4.6660981755
 30
0.0
  0
SPLINE
  5
31A
100
AcDbEntity
  8
0
100
AcDbSpline
 62
9
  6
CONTINUOUS
 70
0
 71
3
 72
22
 73
18
 74
0
 42
0.0000001
 43
0.0000001
 44
0.0000000001
 40
0.0
 40
0.0
 40
0.0
 40
0.0
 40
0.1286191745
 40
0.1927039301
 40
0.256628184
 40
0.3203752438
 40
0.3839602323
 40
0.4473453797
 40
0.5105045335
 40
0.5733789454
 40
0.6359141193
 40
0.6980353849
 40
0.7596726798
 40
0.8207326565
 40
0.8811673682
 40
0.940943054
 40
1.0
 40
1.0
 40
1.0
 40
1.0
 10
9.7124116368
 20
4.6660981755
 30
0.0
 10
9.7096141187
 20
4.6660981831
 30
0.0
 10
9.7054173232
 20
4.6662873503
 30
0.0
 10
9.6998799196
 20
4.6670105349
 30
0.0
 10
9.6957827588
 20
4.6678065105
 30
0.0
 10
9.6917578042
 20
4.6688703647
 30
0.0
 10
9.6878299213
 20
4.67021586
 30
0.0
 10
9.6840265634
 20
4.6718501161
 30
0.0
 10
9.6803805843
 20
4.6737787516
 30
0.0
 10
9.6769271952
 20
4.676001232
 30
0.0
 10
9.6737067733
 20
4.6785140572
 30
0.0
 10
9.6707598937
 20
4.6813045998
 30
0.0
 10
9.6681301401
 20
4.6843545513
 30
0.0
 10
9.6658627422
 20
4.6876393799
 30
0.0
 10
9.6640040001
 20
4.6911266882
 30
0.0
 10
9.6625832624
 20
4.6947672254
 30
0.0
 10
9.6619449483
 20
4.697280412
 30
0.0
 10
9.6617116342
 20
4.6985435571
 30
0.0
  0
SPLINE
  5
31B
100
AcDbEntity
  8
0
100
AcDbSpline
 62
9
  6
CONTINUOUS
 70
0
 71
3
 72
25
 73
21
 74
0
 42
0.0000001
 43
0.0000001
 44
0.0000000001
 40
0.0
 40
0.0
 40
0.0
 40
0.0
 40
0.0106678938
 40
0.0220427215
 40
0.0343180946
 40
0.0476495758
 40
0.0621583621
 40
0.0779378807
 40
0.0950603377
 40
0.1135818455
 40
0.1549723243
 40
0.2023333138
 40
0.2557748654
 40
0.3153265428
 40
0.3809579975
 40
0.4526024347
 40
0.5301393045
 40
0.6134262981
 40
0.7965127072
 40
1.0
 40
1.0
 40
1.0
 40
1.0
 10
10.7101813846
 20
4.7182570605
 30
0.0
 10
10.710248066
 20
4.7180869536
 30
0.0
 10
10.7104145417
 20
4.7177462274
 30
0.0
 10
10.710745507
 20
4.7172585712
 30
0.0
 10
10.7111636729
 20
4.7167809914
 30
0.0
 10
10.711668781
 20
4.7163136905
 30
0.0
 10
10.7122606799
 20
4.7158565037
 30
0.0
 10
10.7129393198
 20
4.7154094621
 30
0.0
 10
10.7137046825
 20
4.7149726383
 30
0.0
 10
10.7148851322
 20
4.7143821265
 30
0.0
 10
10.7165856677
 20
4.7136804088
 30
0.0
 10
10.7188976971
 20
4.7129109257
 30
0.0
 10
10.7215485577
 20
4.7121884495
 30
0.0
 10
10.7245337506
 20
4.7115154804
 30
0.0
 10
10.7278477998
 20
4.710894616
 30
0.0
 10
10.731483591
 20
4.7103285581
 30
0.0
 10
10.7354326947
 20
4.7098186664
 30
0.0
 10
10.741290307
 20
4.7091963293
 30
0.0
 10
10.7493166772
 20
4.7085902207
 30
0.0
 10
10.7559321829
 20
4.7083008587
 30
0.0
 10
10.7594156206
 20
4.7081920637
 30
0.0
  0
SPLINE
  5
31C
100
AcDbEntity
  8
0
100
AcDbSpline
 62
9
  6
CONTINUOUS
 70
0
 71
3
 72
15
 73
11
 74
0
 42
0.0000001
 43
0.0000001
 44
0.0000000001
 40
0.0
 40
0.0
 40
0.0
 40
0.0
 40
0.0940526079
 40
0.1934400902
 40
0.3009638972
 40
0.4185911837
 40
0.5473145908
 40
0.6874074383
 40
0.8386213736
 40
1.0
 40
1.0
 40
1.0
 40
1.0
 10
9.0940203067
 20
4.6985435574
 30
0.0
 10
9.0941769801
 20
4.6987977877
 30
0.0
 10
9.0945640772
 20
4.6992829673
 30
0.0
 10
9.0953145409
 20
4.6998848747
 30
0.0
 10
9.096231118
 20
4.700367392
 30
0.0
 10
9.0972998253
 20
4.70072677
 30
0.0
 10
9.0985073047
 20
4.7009611083
 30
0.0
 10
9.0998390179
 20
4.7010680558
 30
0.0
 10
9.1012779847
 20
4.7010466869
 30
0.0
 10
9.1022669879
 20
4.7009503949
 30
0.0
 10
9.1027748833
 20
4.7008826119
 30
0.0
  0
SPLINE
  5
31D
100
AcDbEntity
  8
0
100
AcDbSpline
 62
9
  6
CONTINUOUS
 70
0
 71
3
 72
15
 73
11
 74
0
 42
0.0000001
 43
0.0000001
 44
0.0000000001
 40
0.0
 40
0.0
 40
0.0
 40
0.0
 40
0.1253172497
 40
0.2506032713
 40
0.3757698058
 40
0.5008278773
 40
0.625761611
 40
0.7505729296
 40
0.8753230241
 40
1.0
 40
1.0
 40
1.0
 40
1.0
 10
9.0896651428
 20
4.6660981755
 30
0.0
 10
9.0897203017
 20
4.667105486
 30
0.0
 10
9.0900216491
 20
4.6691145359
 30
0.0
 10
9.0910289756
 20
4.6719850907
 30
0.0
 10
9.0925568251
 20
4.6746145966
 30
0.0
 10
9.0945495734
 20
4.6769078868
 30
0.0
 10
9.0969366735
 20
4.6787827068
 30
0.0
 10
9.0996326692
 20
4.6801725234
 30
0.0
 10
9.1025399231
 20
4.6810264694
 30
0.0
 10
9.10455305
 20
4.6812187254
 30
0.0
 10
9.1055567152
 20
4.6812187254
 30
0.0
  0
SPLINE
  5
31E
100
AcDbEntity
  8
0
100
AcDbSpline
 62
9
  6
CONTINUOUS
 70
0
 71
3
 72
20
 73
16
 74
0
 42
0.0000001
 43
0.0000001
 44
0.0000000001
 40
0.0
 40
0.0
 40
0.0
 40
0.0
 40
0.2155020076
 40
0.408050981
 40
0.5753133911
 40
0.7156705401
 40
0.7753645096
 40
0.8279120227
 40
0.8732360396
 40
0.9113532706
 40
0.9424055809
 40
0.9667442298
 40
0.9766554873
 40
0.9852982632
 40
1.0
 40
1.0
 40
1.0
 40
1.0
 10
9.5787509917
 20
4.6985436161
 30
0.0
 10
9.5784105066
 20
4.6987653771
 30
0.0
 10
9.5777622907
 20
4.699179934
 30
0.0
 10
9.5768362093
 20
4.69974503
 30
0.0
 10
9.5760180115
 20
4.7002142629
 30
0.0
 10
9.5754048925
 20
4.7005369744
 30
0.0
 10
9.5749742344
 20
4.7007405573
 30
0.0
 10
9.5747012677
 20
4.7008580457
 30
0.0
 10
9.5744612478
 20
4.7009485399
 30
0.0
 10
9.5742546574
 20
4.7010120036
 30
0.0
 10
9.5740819131
 20
4.7010483886
 30
0.0
 10
9.5739582518
 20
4.7010572123
 30
0.0
 10
9.5738776287
 20
4.701047351
 30
0.0
 10
9.5738173039
 20
4.7010299731
 30
0.0
 10
9.5737789442
 20
4.7010037155
 30
0.0
 10
9.5737619261
 20
4.7009818337
 30
0.0
  0
SPLINE
  5
31F
100
AcDbEntity
  8
0
100
AcDbSpline
 62
9
  6
CONTINUOUS
 70
0
 71
3
 72
16
 73
12
 74
0
 42
0.0000001
 43
0.0000001
 44
0.0000000001
 40
0.0
 40
0.0
 40
0.0
 40
0.0
 40
0.1728553463
 40
0.332525612
 40
0.4775939772
 40
0.607552816
 40
0.7226368033
 40
0.8241389438
 40
0.9149775855
 40
0.9578958366
 40
1.0
 40
1.0
 40
1.0
 40
1.0
 10
9.5908671045
 20
4.7227995822
 30
0.0
 10
9.590342828
 20
4.7227899087
 30
0.0
 10
9.589334404
 20
4.7227392072
 30
0.0
 10
9.5878954696
 20
4.7225574418
 30
0.0
 10
9.586605245
 20
4.7222746583
 30
0.0
 10
9.5854814256
 20
4.7218945561
 30
0.0
 10
9.5845379201
 20
4.7214211262
 30
0.0
 10
9.5837872781
 20
4.7208575087
 30
0.0
 10
9.5833250526
 20
4.7203020482
 30
0.0
 10
9.5830787716
 20
4.7198269445
 30
0.0
 10
9.5829946808
 20
4.7195818961
 30
0.0
 10
9.5829624977
 20
4.719458292
 30
0.0
  0
SPLINE
  5
320
100
AcDbEntity
  8
0
100
AcDbSpline
 62
9
  6
CONTINUOUS
 70
0
 71
3
 72
21
 73
17
 74
0
 42
0.0000001
 43
0.0000001
 44
0.0000000001
 40
0.0
 40
0.0
 40
0.0
 40
0.0
 40
0.0683061237
 40
0.1019688629
 40
0.1362150918
 40
0.1720151839
 40
0.2105320662
 40
0.2529755777
 40
0.3005540361
 40
0.3544836759
 40
0.4159370969
 40
0.4861114563
 40
0.5661403675
 40
0.7594816544
 40
0.8740945438
 40
1.0
 40
1.0
 40
1.0
 40
1.0
 10
9.1055567192
 20
4.6812187254
 30
0.0
 10
9.105022513
 20
4.6812187274
 30
0.0
 10
9.1042177035
 20
4.6812997302
 30
0.0
 10
9.1032043585
 20
4.6816408338
 30
0.0
 10
9.1024852428
 20
4.6820247881
 30
0.0
 10
9.10181459
 20
4.6825525863
 30
0.0
 10
9.1012026013
 20
4.6832361777
 30
0.0
 10
9.1006608187
 20
4.6840878893
 30
0.0
 10
9.1002045312
 20
4.6851212202
 30
0.0
 10
9.0998491532
 20
4.686348782
 30
0.0
 10
9.0996198807
 20
4.6877851067
 30
0.0
 10
9.0995422639
 20
4.6894418867
 30
0.0
 10
9.0996994379
 20
4.6921281663
 30
0.0
 10
9.1003543616
 20
4.6951145213
 30
0.0
 10
9.101514248
 20
4.6983058698
 30
0.0
 10
9.1023168877
 20
4.7000109539
 30
0.0
 10
9.1027748939
 20
4.70088263
 30
0.0
  0
SPLINE
  5
321
100
AcDbEntity
  8
0
100
AcDbSpline
 62
9
  6
CONTINUOUS
 70
0
 71
3
 72
11
 73
7
 74
0
 42
0.0000001
 43
0.0000001
 44
0.0000000001
 40
0.0
 40
0.0
 40
0.0
 40
0.0
 40
0.2367290099
 40
0.4855438689
 40
0.7414525383
 40
1.0
 40
1.0
 40
1.0
 40
1.0
 10
9.1027748939
 20
4.70088263
 30
0.0
 10
9.1035498162
 20
4.7023570535
 30
0.0
 10
9.1051707177
 20
4.7053646545
 30
0.0
 10
9.1077143051
 20
4.7099196946
 30
0.0
 10
9.1103902833
 20
4.7145761516
 30
0.0
 10
9.1122272588
 20
4.7176952751
 30
0.0
 10
9.1131580395
 20
4.7192583049
 30
0.0
  0
SPLINE
  5
322
100
AcDbEntity
  8
0
100
AcDbSpline
 62
9
  6
CONTINUOUS
 70
0
 71
3
 72
23
 73
19
 74
0
 42
0.0000001
 43
0.0000001
 44
0.0000000001
 40
0.0
 40
0.0
 40
0.0
 40
0.0
 40
0.0443987803
 40
0.0895952718
 40
0.1361508363
 40
0.1845752845
 40
0.2353036852
 40
0.2886838896
 40
0.3449912717
 40
0.4044293982
 40
0.4671413622
 40
0.5332164981
 40
0.6026902967
 40
0.675564709
 40
0.7518111883
 40
0.8313770751
 40
0.9141593288
 40
1.0
 40
1.0
 40
1.0
 40
1.0
 10
10.6855361658
 20
4.8128988867
 30
0.0
 10
10.6858041302
 20
4.8120170485
 30
0.0
 10
10.6864615255
 20
4.8102707495
 30
0.0
 10
10.6877880939
 20
4.8077672824
 30
0.0
 10
10.6894548585
 20
4.8053738772
 30
0.0
 10
10.6914552231
 20
4.8030973295
 30
0.0
 10
10.6937829205
 20
4.8009432859
 30
0.0
 10
10.6964304449
 20
4.7989163605
 30
0.0
 10
10.6993906136
 20
4.7970218614
 30
0.0
 10
10.7026550552
 20
4.7952640082
 30
0.0
 10
10.7062150142
 20
4.7936470989
 30
0.0
 10
10.7100609363
 20
4.7921754229
 30
0.0
 10
10.7141822662
 20
4.790852276
 30
0.0
 10
10.7185681133
 20
4.7896815766
 30
0.0
 10
10.7232069351
 20
4.7886660527
 30
0.0
 10
10.7280863761
 20
4.7878086816
 30
0.0
 10
10.7331921844
 20
4.7871118186
 30
0.0
 10
10.7366757742
 20
4.7867614788
 30
0.0
 10
10.7384514238
 20
4.7866120675
 30
0.0
  0
SPLINE
  5
323
100
AcDbEntity
  8
0
100
AcDbSpline
 62
9
  6
CONTINUOUS
 70
0
 71
3
 72
12
 73
8
 74
0
 42
0.0000001
 43
0.0000001
 44
0.0000000001
 40
0.0
 40
0.0
 40
0.0
 40
0.0
 40
0.2562421241
 40
0.5140901328
 40
0.7646501673
 40
0.8847309287
 40
1.0
 40
1.0
 40
1.0
 40
1.0
 10
9.6617115942
 20
4.6985435574
 30
0.0
 10
9.662807095
 20
4.6990526081
 30
0.0
 10
9.665078631
 20
4.6999219748
 30
0.0
 10
9.6685928346
 20
4.7007651181
 30
0.0
 10
9.6715508635
 20
4.7010706021
 30
0.0
 10
9.6738432897
 20
4.701051087
 30
0.0
 10
9.6749501037
 20
4.7009540261
 30
0.0
 10
9.6754888009
 20
4.7008826119
 30
0.0
  0
SPLINE
  5
324
100
AcDbEntity
  8
0
100
AcDbSpline
 62
9
  6
CONTINUOUS
 70
0
 71
3
 72
20
 73
16
 74
0
 42
0.0000001
 43
0.0000001
 44
0.0000000001
 40
0.0
 40
0.0
 40
0.0
 40
0.0
 40
0.1703661695
 40
0.334248199
 40
0.4869076924
 40
0.5578037217
 40
0.6244852523
 40
0.6866446899
 40
0.7440604978
 40
0.7966642827
 40
0.8445429092
 40
0.8880290534
 40
0.9277512685
 40
0.9646585107
 40
1.0
 40
1.0
 40
1.0
 40
1.0
 10
9.7124116368
 20
4.6660981755
 30
0.0
 10
9.7124341113
 20
4.667097463
 30
0.0
 10
9.7125531246
 20
4.6690573026
 30
0.0
 10
9.7129546392
 20
4.6718886648
 30
0.0
 10
9.7134738961
 20
4.6741058961
 30
0.0
 10
9.7139963941
 20
4.6757274546
 30
0.0
 10
9.7144227935
 20
4.6768198556
 30
0.0
 10
9.7148890668
 20
4.6778092392
 30
0.0
 10
9.7153917705
 20
4.6786868858
 30
0.0
 10
9.7159262864
 20
4.6794454845
 30
0.0
 10
9.716488784
 20
4.680078494
 30
0.0
 10
9.7170754157
 20
4.6805802681
 30
0.0
 10
9.717682747
 20
4.6809454847
 30
0.0
 10
9.718305814
 20
4.6811680106
 30
0.0
 10
9.7187311419
 20
4.6812187254
 30
0.0
 10
9.7189384908
 20
4.6812187254
 30
0.0
  0
SPLINE
  5
325
100
AcDbEntity
  8
0
100
AcDbSpline
 62
9
  6
CONTINUOUS
 70
0
 71
3
 72
12
 73
8
 74
0
 42
0.0000001
 43
0.0000001
 44
0.0000000001
 40
0.0
 40
0.0
 40
0.0
 40
0.0
 40
0.256241888
 40
0.51408798
 40
0.7646472667
 40
0.8847289132
 40
1.0
 40
1.0
 40
1.0
 40
1.0
 10
10.6311729786
 20
4.6985436228
 30
0.0
 10
10.6300775244
 20
4.6990527477
 30
0.0
 10
10.6278060533
 20
4.6999222158
 30
0.0
 10
10.6242918956
 20
4.7007653873
 30
0.0
 10
10.621333887
 20
4.7010707992
 30
0.0
 10
10.6190414695
 20
4.7010511786
 30
0.0
 10
10.6179346562
 20
4.7009540521
 30
0.0
 10
10.6173959584
 20
4.7008826033
 30
0.0
  0
SPLINE
  5
326
100
AcDbEntity
  8
0
100
AcDbSpline
 62
9
  6
CONTINUOUS
 70
0
 71
3
 72
13
 73
9
 74
0
 42
0.0000001
 43
0.0000001
 44
0.0000000001
 40
0.0
 40
0.0
 40
0.0
 40
0.0
 40
0.1172419354
 40
0.2399455945
 40
0.495177947
 40
0.7528797595
 40
0.8786171941
 40
1.0
 40
1.0
 40
1.0
 40
1.0
 10
10.6309855997
 20
4.7227995822
 30
0.0
 10
10.6303876701
 20
4.7227889411
 30
0.0
 10
10.629164412
 20
4.7227272763
 30
0.0
 10
10.6266521018
 20
4.7224567855
 30
0.0
 10
10.6234606031
 20
4.7218527341
 30
0.0
 10
10.6203277098
 20
4.7209393143
 30
0.0
 10
10.6179170705
 20
4.7200314318
 30
0.0
 10
10.6167622349
 20
4.7195242115
 30
0.0
 10
10.6162030657
 20
4.7192583705
 30
0.0
  0
SPLINE
  5
327
100
AcDbEntity
  8
0
100
AcDbSpline
 62
9
  6
CONTINUOUS
 70
0
 71
3
 72
18
 73
14
 74
0
 42
0.0000001
 43
0.0000001
 44
0.0000000001
 40
0.0
 40
0.0
 40
0.0
 40
0.0
 40
0.1309362499
 40
0.2611612276
 40
0.3904199306
 40
0.5183837421
 40
0.644451617
 40
0.706546946
 40
0.7677559035
 40
0.8278924457
 40
0.8867167027
 40
0.9441016259
 40
1.0
 40
1.0
 40
1.0
 40
1.0
 10
9.7189384956
 20
4.6812187254
 30
0.0
 10
9.7167201115
 20
4.6812187274
 30
0.0
 10
9.7122939037
 20
4.6813302218
 30
0.0
 10
9.7057014711
 20
4.6819426962
 30
0.0
 10
9.6992312196
 20
4.6831091727
 30
0.0
 10
9.6929854676
 20
4.6849373329
 30
0.0
 10
9.688068232
 20
4.6871178154
 30
0.0
 10
9.6844521115
 20
4.6893132942
 30
0.0
 10
9.681962007
 20
4.6911827648
 30
0.0
 10
9.6797382781
 20
4.6932849146
 30
0.0
 10
9.6778519232
 20
4.6956153775
 30
0.0
 10
9.6763817712
 20
4.6981479844
 30
0.0
 10
9.6757214105
 20
4.6999645844
 30
0.0
 10
9.6754887973
 20
4.70088263
 30
0.0
  0
SPLINE
  5
328
100
AcDbEntity
  8
0
100
AcDbSpline
 62
9
  6
CONTINUOUS
 70
0
 71
3
 72
11
 73
7
 74
0
 42
0.0000001
 43
0.0000001
 44
0.0000000001
 40
0.0
 40
0.0
 40
0.0
 40
0.0
 40
0.2391484052
 40
0.4851235153
 40
0.7387607672
 40
1.0
 40
1.0
 40
1.0
 40
1.0
 10
9.6754887973
 20
4.70088263
 30
0.0
 10
9.6751238749
 20
4.7023236989
 30
0.0
 10
9.6746459731
 20
4.7053184128
 30
0.0
 10
9.6746505174
 20
4.7099267697
 30
0.0
 10
9.6753229701
 20
4.7146220278
 30
0.0
 10
9.6761687357
 20
4.7177175112
 30
0.0
 10
9.6766814919
 20
4.7192583049
 30
0.0
  0
SPLINE
  5
329
100
AcDbEntity
  8
0
100
AcDbSpline
 62
9
  6
CONTINUOUS
 70
0
 71
3
 72
11
 73
7
 74
0
 42
0.0000001
 43
0.0000001
 44
0.0000000001
 40
0.0
 40
0.0
 40
0.0
 40
0.0
 40
0.2612389362
 40
0.5148773703
 40
0.760850841
 40
1.0
 40
1.0
 40
1.0
 40
1.0
 10
10.6162030611
 20
4.7192583868
 30
0.0
 10
10.6167159196
 20
4.7177176293
 30
0.0
 10
10.6175616089
 20
4.7146221099
 30
0.0
 10
10.6182341329
 20
4.7099268844
 30
0.0
 10
10.6182388518
 20
4.7053185134
 30
0.0
 10
10.6177608764
 20
4.7023238216
 30
0.0
 10
10.6173960132
 20
4.7008827331
 30
0.0
  0
SPLINE
  5
32A
100
AcDbEntity
  8
0
100
AcDbSpline
 62
9
  6
CONTINUOUS
 70
0
 71
3
 72
17
 73
13
 74
0
 42
0.0000001
 43
0.0000001
 44
0.0000000001
 40
0.0
 40
0.0
 40
0.0
 40
0.0
 40
0.0559180902
 40
0.1133119091
 40
0.1721318468
 40
0.23227877
 40
0.3554529728
 40
0.481539245
 40
0.6095219718
 40
0.7387994163
 40
0.8690439609
 40
1.0
 40
1.0
 40
1.0
 40
1.0
 10
10.6173960132
 20
4.7008827331
 30
0.0
 10
10.6171632512
 20
4.6999645178
 30
0.0
 10
10.6165012951
 20
4.6981482663
 30
0.0
 10
10.6150321137
 20
4.6956153388
 30
0.0
 10
10.6131467509
 20
4.6932840148
 30
0.0
 10
10.6101582372
 20
4.6904603649
 30
0.0
 10
10.6057618746
 20
4.6875365149
 30
0.0
 10
10.5999000856
 20
4.6849378916
 30
0.0
 10
10.5936528231
 20
4.6831089849
 30
0.0
 10
10.5871829286
 20
4.6819426875
 30
0.0
 10
10.5805903266
 20
4.6813301657
 30
0.0
 10
10.5761640972
 20
4.6812187272
 30
0.0
 10
10.5739456893
 20
4.6812187254
 30
0.0
  0
SPLINE
  5
32B
100
AcDbEntity
  8
0
100
AcDbSpline
 62
9
  6
CONTINUOUS
 70
0
 71
3
 72
20
 73
16
 74
0
 42
0.0000001
 43
0.0000001
 44
0.0000000001
 40
0.0
 40
0.0
 40
0.0
 40
0.0
 40
0.2155085506
 40
0.4080634224
 40
0.5753307678
 40
0.7156915299
 40
0.7753866457
 40
0.8279347588
 40
0.8732587015
 40
0.9113749835
 40
0.9424251534
 40
0.9667599409
 40
0.9766683608
 40
0.9853075708
 40
1.0
 40
1.0
 40
1.0
 40
1.0
 10
10.7141336302
 20
4.6985435574
 30
0.0
 10
10.7144741521
 20
4.698765283
 30
0.0
 10
10.7151224322
 20
4.69917978
 30
0.0
 10
10.7160485879
 20
4.6997448126
 30
0.0
 10
10.716866835
 20
4.7002140099
 30
0.0
 10
10.7174799763
 20
4.7005367142
 30
0.0
 10
10.71791064
 20
4.7007403066
 30
0.0
 10
10.7181836041
 20
4.7008578072
 30
0.0
 10
10.7184236156
 20
4.7009483193
 30
0.0
 10
10.718630192
 20
4.7010118062
 30
0.0
 10
10.7188029161
 20
4.7010482194
 30
0.0
 10
10.7189265573
 20
4.7010570745
 30
0.0
 10
10.7190071641
 20
4.7010472409
 30
0.0
 10
10.7190674656
 20
4.7010298914
 30
0.0
 10
10.7191058132
 20
4.7010036569
 30
0.0
 10
10.7191228206
 20
4.7009817891
 30
0.0
  0
SPLINE
  5
32C
100
AcDbEntity
  8
0
100
AcDbSpline
 62
9
  6
CONTINUOUS
 70
0
 71
3
 72
18
 73
14
 74
0
 42
0.0000001
 43
0.0000001
 44
0.0000000001
 40
0.0
 40
0.0
 40
0.0
 40
0.0
 40
0.1550573158
 40
0.3055103937
 40
0.4480755605
 40
0.5802450109
 40
0.7004770312
 40
0.7561163061
 40
0.8089055976
 40
0.8591645749
 40
0.9073673901
 40
0.954098942
 40
1.0
 40
1.0
 40
1.0
 40
1.0
 10
10.7691888368
 20
4.6660981755
 30
0.0
 10
10.7691565358
 20
4.6670991952
 30
0.0
 10
10.7689842853
 20
4.669069907
 30
0.0
 10
10.7684040029
 20
4.6719118974
 30
0.0
 10
10.7675226246
 20
4.6745216185
 30
0.0
 10
10.7663707896
 20
4.676808273
 30
0.0
 10
10.7651838733
 20
4.6784215433
 30
0.0
 10
10.7641297578
 20
4.6794599808
 30
0.0
 10
10.7633195088
 20
4.6800919383
 30
0.0
 10
10.7624761806
 20
4.6805908888
 30
0.0
 10
10.7616067926
 20
4.6809516395
 30
0.0
 10
10.7607199875
 20
4.6811695754
 30
0.0
 10
10.7601206007
 20
4.6812187254
 30
0.0
 10
10.7598241183
 20
4.6812187254
 30
0.0
  0
SPLINE
  5
32D
100
AcDbEntity
  8
0
100
AcDbSpline
 62
9
  6
CONTINUOUS
 70
0
 71
3
 72
15
 73
11
 74
0
 42
0.0000001
 43
0.0000001
 44
0.0000000001
 40
0.0
 40
0.0
 40
0.0
 40
0.0
 40
0.0940646732
 40
0.1934593101
 40
0.3009859685
 40
0.4186125652
 40
0.5473326657
 40
0.6874204198
 40
0.8386281103
 40
1.0
 40
1.0
 40
1.0
 40
1.0
 10
11.19886434
 20
4.6985436228
 30
0.0
 10
11.1987076455
 20
4.6987978849
 30
0.0
 10
11.1983205201
 20
4.6992831187
 30
0.0
 10
11.1975700192
 20
4.6998850922
 30
0.0
 10
11.1966534251
 20
4.7003676421
 30
0.0
 10
11.1955847208
 20
4.7007270199
 30
0.0
 10
11.1943772648
 20
4.7009613287
 30
0.0
 10
11.1930455936
 20
4.7010682217
 30
0.0
 10
11.1916066854
 20
4.7010467743
 30
0.0
 10
11.19061773
 20
4.7009504195
 30
0.0
 10
11.1901098608
 20
4.7008826033
 30
0.0
  0
SPLINE
  5
32E
100
AcDbEntity
  8
0
100
AcDbSpline
 62
9
  6
CONTINUOUS
 70
0
 71
3
 72
22
 73
18
 74
0
 42
0.0000001
 43
0.0000001
 44
0.0000000001
 40
0.0
 40
0.0
 40
0.0
 40
0.0
 40
0.0590511
 40
0.118827835
 40
0.1792655597
 40
0.2403280082
 40
0.3019669387
 40
0.3640868648
 40
0.4266218742
 40
0.4894961854
 40
0.5526545966
 40
0.6160395879
 40
0.6796250375
 40
0.7433722514
 40
0.8072962729
 40
0.8713808495
 40
1.0
 40
1.0
 40
1.0
 40
1.0
 10
10.6311729686
 20
4.6985435571
 30
0.0
 10
10.6309401149
 20
4.6972804498
 30
0.0
 10
10.6302994302
 20
4.69476781
 30
0.0
 10
10.6288771224
 20
4.6911281777
 30
0.0
 10
10.6270215571
 20
4.6876390786
 30
0.0
 10
10.6247557116
 20
4.6843528451
 30
0.0
 10
10.6221260273
 20
4.6813026465
 30
0.0
 10
10.6191780621
 20
4.6785131722
 30
0.0
 10
10.6159569277
 20
4.6760013508
 30
0.0
 10
10.6125036798
 20
4.6737787049
 30
0.0
 10
10.6088578475
 20
4.6718497698
 30
0.0
 10
10.6050544295
 20
4.6702156061
 30
0.0
 10
10.6011264699
 20
4.6688702492
 30
0.0
 10
10.5971014867
 20
4.6678063995
 30
0.0
 10
10.5930043153
 20
4.6670103965
 30
0.0
 10
10.5874668857
 20
4.6662872498
 30
0.0
 10
10.5832700709
 20
4.666098182
 30
0.0
 10
10.5804725394
 20
4.6660981755
 30
0.0
  0
SPLINE
  5
32F
100
AcDbEntity
  8
0
100
AcDbSpline
 62
9
  6
CONTINUOUS
 70
0
 71
3
 72
21
 73
17
 74
0
 42
0.0000001
 43
0.0000001
 44
0.0000000001
 40
0.0
 40
0.0
 40
0.0
 40
0.0
 40
0.11252887
 40
0.1694437409
 40
0.226929484
 40
0.2851345139
 40
0.3442374128
 40
0.4044050256
 40
0.4658013218
 40
0.5285505641
 40
0.5927361495
 40
0.7252514318
 40
0.7933111051
 40
0.8621339854
 40
0.9312522272
 40
1.0
 40
1.0
 40
1.0
 40
1.0
 10
10.7691888368
 20
4.6660981755
 30
0.0
 10
10.7666848212
 20
4.6660981832
 30
0.0
 10
10.7629087073
 20
4.6662924348
 30
0.0
 10
10.7579081873
 20
4.6670146262
 30
0.0
 10
10.7541482194
 20
4.667813514
 30
0.0
 10
10.7504047794
 20
4.6688809993
 30
0.0
 10
10.746690073
 20
4.6702314615
 30
0.0
 10
10.7430157394
 20
4.671871257
 30
0.0
 10
10.7393956209
 20
4.6738060796
 30
0.0
 10
10.7358424586
 20
4.6760345855
 30
0.0
 10
10.731166383
 20
4.6794266731
 30
0.0
 10
10.7267406194
 20
4.683341265
 30
0.0
 10
10.7225970174
 20
4.6876759166
 30
0.0
 10
10.7196079777
 20
4.6911541887
 30
0.0
 10
10.7167767137
 20
4.694780511
 30
0.0
 10
10.7149950436
 20
4.6972793209
 30
0.0
 10
10.7141336708
 20
4.6985435571
 30
0.0
  0
SPLINE
  5
330
100
AcDbEntity
  8
0
100
AcDbSpline
 62
9
  6
CONTINUOUS
 70
0
 71
3
 72
11
 73
7
 74
0
 42
0.0000001
 43
0.0000001
 44
0.0000000001
 40
0.0
 40
0.0
 40
0.0
 40
0.0
 40
0.2585470383
 40
0.5144564321
 40
0.7632709351
 40
1.0
 40
1.0
 40
1.0
 40
1.0
 10
11.1797264417
 20
4.7192583868
 30
0.0
 10
11.1806573212
 20
4.7176954097
 30
0.0
 10
11.1824942482
 20
4.7145762351
 30
0.0
 10
11.1851702792
 20
4.7099197826
 30
0.0
 10
11.1877140201
 20
4.7053647966
 30
0.0
 10
11.1893348531
 20
4.7023571439
 30
0.0
 10
11.1901098166
 20
4.7008827331
 30
0.0
  0
SPLINE
  5
331
100
AcDbEntity
  8
0
100
AcDbSpline
 62
9
  6
CONTINUOUS
 70
0
 71
3
 72
22
 73
18
 74
0
 42
0.0000001
 43
0.0000001
 44
0.0000000001
 40
0.0
 40
0.0
 40
0.0
 40
0.0
 40
0.1258609469
 40
0.2404672356
 40
0.3430933904
 40
0.4340028412
 40
0.5140096346
 40
0.5841645934
 40
0.6456023372
 40
0.6995190979
 40
0.7470868686
 40
0.7895208869
 40
0.8280287933
 40
0.863820849
 40
0.8980587971
 40
0.9317127775
 40
1.0
 40
1.0
 40
1.0
 40
1.0
 10
11.1901098166
 20
4.7008827331
 30
0.0
 10
11.1905677028
 20
4.7000111313
 30
0.0
 10
11.191368732
 20
4.698305705
 30
0.0
 10
11.1922873506
 20
4.69578019
 30
0.0
 10
11.1928974439
 20
4.6934442899
 30
0.0
 10
11.1932326149
 20
4.6913274086
 30
0.0
 10
11.1933424407
 20
4.6894415741
 30
0.0
 10
11.1932649207
 20
4.6877849463
 30
0.0
 10
11.1930355751
 20
4.68634865
 30
0.0
 10
11.1926801071
 20
4.6851211327
 30
0.0
 10
11.1922237318
 20
4.6840878394
 30
0.0
 10
11.1916819106
 20
4.683236153
 30
0.0
 10
11.1910699334
 20
4.6825525491
 30
0.0
 10
11.1903992864
 20
4.6820247472
 30
0.0
 10
11.189680186
 20
4.681640784
 30
0.0
 10
11.1886668693
 20
4.6812997033
 30
0.0
 10
11.187862092
 20
4.6812187271
 30
0.0
 10
11.1873279107
 20
4.6812187254
 30
0.0
  0
SPLINE
  5
332
100
AcDbEntity
  8
0
100
AcDbSpline
 62
9
  6
CONTINUOUS
 70
0
 71
3
 72
16
 73
12
 74
0
 42
0.0000001
 43
0.0000001
 44
0.0000000001
 40
0.0
 40
0.0
 40
0.0
 40
0.0
 40
0.2541196673
 40
0.3804861653
 40
0.5062314268
 40
0.5688359301
 40
0.6312425538
 40
0.755349056
 40
0.8170169045
 40
0.8783893053
 40
1.0
 40
1.0
 40
1.0
 40
1.0
 10
9.5688435854
 20
4.8695079897
 30
0.0
 10
9.5703149255
 20
4.8767800259
 30
0.0
 10
9.5727730711
 20
4.8876205222
 30
0.0
 10
9.5766682637
 20
4.9018800351
 30
0.0
 10
9.5793804475
 20
4.9106615107
 30
0.0
 10
9.5817376227
 20
4.9175933261
 30
0.0
 10
9.5842162526
 20
4.924431662
 30
0.0
 10
9.5869074317
 20
4.931162822
 30
0.0
 10
9.5898426157
 20
4.9377556191
 30
0.0
 10
9.5929284455
 20
4.9441981591
 30
0.0
 10
9.5954577183
 20
4.9489100508
 30
0.0
 10
9.5972522119
 20
4.9519737986
 30
0.0
  0
SPLINE
  5
333
100
AcDbEntity
  8
0
100
AcDbSpline
 62
9
  6
CONTINUOUS
 70
0
 71
3
 72
12
 73
8
 74
0
 42
0.0000001
 43
0.0000001
 44
0.0000000001
 40
0.0
 40
0.0
 40
0.0
 40
0.0
 40
0.1138313604
 40
0.2325342656
 40
0.4801787972
 40
0.7371076878
 40
1.0
 40
1.0
 40
1.0
 40
1.0
 10
9.2326347529
 20
4.9519737701
 30
0.0
 10
9.2328991094
 20
4.948850218
 30
0.0
 10
9.2334104841
 20
4.942466993
 30
0.0
 10
9.2343704335
 20
4.9292785066
 30
0.0
 10
9.235453513
 20
4.9121483387
 30
0.0
 10
9.2365725693
 20
4.8910430275
 30
0.0
 10
9.2372034271
 20
4.8767417564
 30
0.0
 10
9.2374939847
 20
4.8695079897
 30
0.0
  0
SPLINE
  5
334
100
AcDbEntity
  8
0
100
AcDbSpline
 62
9
  6
CONTINUOUS
 70
0
 71
3
 72
12
 73
8
 74
0
 42
0.0000001
 43
0.0000001
 44
0.0000000001
 40
0.0
 40
0.0
 40
0.0
 40
0.0
 40
0.1198616988
 40
0.2418959431
 40
0.4909881726
 40
0.7446352631
 40
1.0
 40
1.0
 40
1.0
 40
1.0
 10
9.5544332617
 20
4.7866120675
 30
0.0
 10
9.5554319788
 20
4.789830245
 30
0.0
 10
9.5573334952
 20
4.7963609186
 30
0.0
 10
9.5607483318
 20
4.8097366462
 30
0.0
 10
9.5642616625
 20
4.8269587305
 30
0.0
 10
9.5672470275
 20
4.8480719096
 30
0.0
 10
9.5684448879
 20
4.8623401862
 30
0.0
 10
9.5688435854
 20
4.8695079897
 30
0.0
  0
LINE
  5
335
100
AcDbEntity
  8
0
100
AcDbLine
 62
9
  6
CONTINUOUS
 10
9.2178555759
 20
4.7866120675
 11
9.1767534569
 21
4.7081920803
  0
LINE
  5
336
100
AcDbEntity
  8
0
100
AcDbLine
 62
9
  6
CONTINUOUS
 10
9.5334691014
 20
4.7081920803
 11
9.5544332617
 21
4.7866120675
  0
SPLINE
  5
337
100
AcDbEntity
  8
0
100
AcDbSpline
 62
9
  6
CONTINUOUS
 70
0
 71
3
 72
23
 73
19
 74
0
 42
0.0000001
 43
0.0000001
 44
0.0000000001
 40
0.0
 40
0.0
 40
0.0
 40
0.0
 40
0.0443987142
 40
0.0895951524
 40
0.136150679
 40
0.184575103
 40
0.235303491
 40
0.2886836923
 40
0.3449910791
 40
0.4044292165
 40
0.4671411958
 40
0.5332163502
 40
0.60269017
 40
0.6755646055
 40
0.7518111097
 40
0.8313770223
 40
0.9141593023
 40
1.0
 40
1.0
 40
1.0
 40
1.0
 10
9.6073485205
 20
4.8128988907
 30
0.0
 10
9.6070805562
 20
4.812017054
 30
0.0
 10
9.6064231611
 20
4.8102707578
 30
0.0
 10
9.6050965929
 20
4.8077672947
 30
0.0
 10
9.6034298286
 20
4.8053738928
 30
0.0
 10
9.6014294642
 20
4.8030973475
 30
0.0
 10
9.599101767
 20
4.8009433056
 30
0.0
 10
9.5964542426
 20
4.7989163812
 30
0.0
 10
9.593494074
 20
4.7970218826
 30
0.0
 10
9.5902296324
 20
4.7952640292
 30
0.0
 10
9.5866696733
 20
4.7936471191
 30
0.0
 10
9.5828237511
 20
4.7921754418
 30
0.0
 10
9.578702421
 20
4.7908522931
 30
0.0
 10
9.5743165737
 20
4.7896815913
 30
0.0
 10
9.5696777516
 20
4.7886660645
 30
0.0
 10
9.5647983103
 20
4.78780869
 30
0.0
 10
9.5596925016
 20
4.7871118231
 30
0.0
 10
9.5562089114
 20
4.7867614804
 30
0.0
 10
9.5544332617
 20
4.7866120675
 30
0.0
  0
SPLINE
  5
338
100
AcDbEntity
  8
0
100
AcDbSpline
 62
9
  6
CONTINUOUS
 70
0
 71
3
 72
17
 73
13
 74
0
 42
0.0000001
 43
0.0000001
 44
0.0000000001
 40
0.0
 40
0.0
 40
0.0
 40
0.0
 40
0.1255413133
 40
0.1883080062
 40
0.251020091
 40
0.3762259258
 40
0.5012418425
 40
0.5637202053
 40
0.6261594744
 40
0.7508544124
 40
0.8754608384
 40
1.0
 40
1.0
 40
1.0
 40
1.0
 10
9.1767534462
 20
4.7081920803
 30
0.0
 10
9.175720751
 20
4.7061752046
 30
0.0
 10
9.1739626431
 20
4.7032503123
 30
0.0
 10
9.171242267
 20
4.6996241353
 30
0.0
 10
9.1682845361
 20
4.6961959061
 30
0.0
 10
9.1641643457
 20
4.6923054337
 30
0.0
 10
9.1595550324
 20
4.6890159574
 30
0.0
 10
9.1556305974
 20
4.6867851377
 30
0.0
 10
9.1515675562
 20
4.6848316635
 30
0.0
 10
9.1462542484
 20
4.6829216655
 30
0.0
 10
9.1396314844
 20
4.6815301682
 30
0.0
 10
9.135128416
 20
4.6812187183
 30
0.0
 10
9.1328806161
 20
4.6812187254
 30
0.0
  0
SPLINE
  5
339
100
AcDbEntity
  8
0
100
AcDbSpline
 62
9
  6
CONTINUOUS
 70
0
 71
3
 72
18
 73
14
 74
0
 42
0.0000001
 43
0.0000001
 44
0.0000000001
 40
0.0
 40
0.0
 40
0.0
 40
0.0
 40
0.0517574383
 40
0.103910518
 40
0.1567753868
 40
0.2106803777
 40
0.2659364048
 40
0.3227991002
 40
0.4419700989
 40
0.569304347
 40
0.7050735334
 40
0.8489407487
 40
1.0
 40
1.0
 40
1.0
 40
1.0
 10
9.5057343729
 20
4.6812187254
 30
0.0
 10
9.5064460933
 20
4.6812187138
 30
0.0
 10
9.5078761703
 20
4.681297261
 30
0.0
 10
9.5100072211
 20
4.6816484079
 30
0.0
 10
9.5121174074
 20
4.6822321377
 30
0.0
 10
9.5141958812
 20
4.6830449618
 30
0.0
 10
9.5162334291
 20
4.6840826544
 30
0.0
 10
9.5189245926
 20
4.6857849492
 30
0.0
 10
9.5221387855
 20
4.6884770207
 30
0.0
 10
9.5256166112
 20
4.6924415589
 30
0.0
 10
9.5287211231
 20
4.6971158085
 30
0.0
 10
9.5313969144
 20
4.7024128123
 30
0.0
 10
9.5328304096
 20
4.7062154811
 30
0.0
 10
9.5334691014
 20
4.7081920803
 30
0.0
  0
SPLINE
  5
33A
100
AcDbEntity
  8
0
100
AcDbSpline
 62
9
  6
CONTINUOUS
 70
0
 71
3
 72
39
 73
35
 74
0
 42
0.0000001
 43
0.0000001
 44
0.0000000001
 40
0.0
 40
0.0
 40
0.0
 40
0.0
 40
0.1343071207
 40
0.2014117706
 40
0.2684663359
 40
0.3019686172
 40
0.3354496631
 40
0.3689047317
 40
0.402327308
 40
0.4357085275
 40
0.4690347718
 40
0.5022848576
 40
0.5354202547
 40
0.55192353
 40
0.5683618926
 40
0.5847044616
 40
0.600894571
 40
0.616831966
 40
0.6246711988
 40
0.6324097435
 40
0.6475848533
 40
0.6623998806
 40
0.676913804
 40
0.6911835426
 40
0.7191615286
 40
0.7466837218
 40
0.7739962006
 40
0.8012882152
 40
0.8287029144
 40
0.8563461041
 40
0.8842983626
 40
0.9412887235
 40
0.9704299323
 40
1.0
 40
1.0
 40
1.0
 40
1.0
 10
10.6709060721
 20
4.8448041408
 30
0.0
 10
10.669602861
 20
4.8510085571
 30
0.0
 10
10.6676558577
 20
4.8603144749
 30
0.0
 10
10.6650922111
 20
4.8727250936
 30
0.0
 10
10.6635097467
 20
4.8804795445
 30
0.0
 10
10.6622606461
 20
4.886682121
 30
0.0
 10
10.6613343767
 20
4.8913318354
 30
0.0
 10
10.6604206865
 20
4.8959802058
 30
0.0
 10
10.6595228123
 20
4.9006268619
 30
0.0
 10
10.6586448644
 20
4.9052711412
 30
0.0
 10
10.6577934524
 20
4.9099120984
 30
0.0
 10
10.6569783018
 20
4.9145477932
 30
0.0
 10
10.6563426574
 20
4.9184086349
 30
0.0
 10
10.6558778382
 20
4.9214929506
 30
0.0
 10
10.6555604757
 20
4.9237976883
 30
0.0
 10
10.655287849
 20
4.9260933834
 30
0.0
 10
10.655084478
 20
4.9283727507
 30
0.0
 10
10.6550136432
 20
4.9302595769
 30
0.0
 10
10.6550477884
 20
4.9317473045
 30
0.0
 10
10.655147658
 20
4.933195957
 30
0.0
 10
10.6553964808
 20
4.9349624241
 30
0.0
 10
10.6558863065
 20
4.9370083071
 30
0.0
 10
10.6565448833
 20
4.938960985
 30
0.0
 10
10.6576142115
 20
4.9414205724
 30
0.0
 10
10.659287472
 20
4.9442737955
 30
0.0
 10
10.66174191
 20
4.9473318787
 30
0.0
 10
10.6645566711
 20
4.950013012
 30
0.0
 10
10.6676720746
 20
4.9523264175
 30
0.0
 10
10.6710377286
 20
4.9542858239
 30
0.0
 10
10.6746119931
 20
4.9559070623
 30
0.0
 10
10.6796419238
 20
4.9576417156
 30
0.0
 10
10.6849428185
 20
4.9587322003
 30
0.0
 10
10.6903813167
 20
4.9592571967
 30
0.0
 10
10.6931539163
 20
4.9593416032
 30
0.0
 10
10.6945497358
 20
4.9593417565
 30
0.0
  0
SPLINE
  5
33B
100
AcDbEntity
  8
0
100
AcDbSpline
 62
9
  6
CONTINUOUS
 70
0
 71
3
 72
10
 73
6
 74
0
 42
0.0000001
 43
0.0000001
 44
0.0000000001
 40
0.0
 40
0.0
 40
0.0
 40
0.0
 40
0.5016469543
 40
0.7512900942
 40
1.0
 40
1.0
 40
1.0
 40
1.0
 10
10.6769762169
 20
4.8191619771
 30
0.0
 10
10.6758678109
 20
4.8234269151
 30
0.0
 10
10.6742704316
 20
4.8298309072
 30
0.0
 10
10.6722881203
 20
4.8383887556
 30
0.0
 10
10.6713551783
 20
4.8426660577
 30
0.0
 10
10.6709060721
 20
4.8448041408
 30
0.0
  0
LINE
  5
33C
100
AcDbEntity
  8
0
100
AcDbLine
 62
9
  6
CONTINUOUS
 10
10.7020176689
 20
4.7227994947
 11
10.6769762169
 21
4.8191619771
  0
SPLINE
  5
33D
100
AcDbEntity
  8
0
100
AcDbSpline
 62
9
  6
CONTINUOUS
 70
0
 71
3
 72
33
 73
29
 74
0
 42
0.0000001
 43
0.0000001
 44
0.0000000001
 40
0.0
 40
0.0
 40
0.0
 40
0.0
 40
0.0876660806
 40
0.1745855474
 40
0.2600263533
 40
0.3432713875
 40
0.4236355892
 40
0.5004740959
 40
0.5373863733
 40
0.5732003062
 40
0.6078524599
 40
0.6412843826
 40
0.6734437882
 40
0.7042845036
 40
0.7337681023
 40
0.76186446
 40
0.7885530459
 40
0.8138249681
 40
0.8376841063
 40
0.8601504294
 40
0.8812623035
 40
0.9010803113
 40
0.9196916494
 40
0.9372138965
 40
0.9537996504
 40
0.9696380781
 40
0.9849537675
 40
1.0
 40
1.0
 40
1.0
 40
1.0
 10
10.1464423427
 20
12.3092690837
 30
0.0
 10
10.1382730264
 20
12.3092690837
 30
0.0
 10
10.1220026278
 20
12.3089968812
 30
0.0
 10
10.0977980049
 20
12.3077741375
 30
0.0
 10
10.074060177
 20
12.3057495779
 30
0.0
 10
10.0510169216
 20
12.3029428884
 30
0.0
 10
10.0288894828
 20
12.2993814495
 30
0.0
 10
10.0111587807
 20
12.2957669638
 30
0.0
 10
9.9976066188
 20
12.2925076045
 30
0.0
 10
9.9879367748
 20
12.2899306551
 30
0.0
 10
9.9786481873
 20
12.2871949531
 30
0.0
 10
9.9697630991
 20
12.2843069559
 30
0.0
 10
9.9613027588
 20
12.2812737466
 30
0.0
 10
9.9532874037
 20
12.2781024917
 30
0.0
 10
9.9457361216
 20
12.2748008592
 30
0.0
 10
9.9386668579
 20
12.2713767108
 30
0.0
 10
9.932096387
 20
12.267838075
 30
0.0
 10
9.9260401502
 20
12.2641933655
 30
0.0
 10
9.9205124424
 20
12.2604508474
 30
0.0
 10
9.9155261562
 20
12.256619088
 30
0.0
 10
9.9110930077
 20
12.2527064716
 30
0.0
 10
9.9072236107
 20
12.2487212485
 30
0.0
 10
9.9039274352
 20
12.2446716962
 30
0.0
 10
9.9012135416
 20
12.2405657322
 30
0.0
 10
9.8990902515
 20
12.236411931
 30
0.0
 10
9.8975657794
 20
12.232219159
 30
0.0
 10
9.8966475139
 20
12.2279995468
 30
0.0
 10
9.8964423427
 20
12.2251661573
 30
0.0
 10
9.8964423427
 20
12.2237640479
 30
0.0
  0
SPLINE
  5
33E
100
AcDbEntity
  8
0
100
AcDbSpline
 62
9
  6
CONTINUOUS
 70
0
 71
3
 72
61
 73
57
 74
0
 42
0.0000001
 43
0.0000001
 44
0.0000000001
 40
0.0
 40
0.0
 40
0.0
 40
0.0
 40
0.0075225775
 40
0.01518096
 40
0.0231000719
 40
0.0313928111
 40
0.0401539299
 40
0.0494595668
 40
0.0593685163
 40
0.0699244005
 40
0.0811575092
 40
0.0930870203
 40
0.1057229237
 40
0.1190671569
 40
0.133115271
 40
0.1478570037
 40
0.1632772901
 40
0.1793569204
 40
0.1960728066
 40
0.2133988054
 40
0.2313056925
 40
0.2497617484
 40
0.268732959
 40
0.2881831355
 40
0.3283650541
 40
0.3699874215
 40
0.4127074801
 40
0.4561675218
 40
0.5
 40
0.5438324782
 40
0.5872925199
 40
0.6300125785
 40
0.6716349459
 40
0.7118168645
 40
0.731267041
 40
0.7502382516
 40
0.7686943075
 40
0.7866011946
 40
0.8039271934
 40
0.8206430796
 40
0.8367227099
 40
0.8521429963
 40
0.866884729
 40
0.8809328431
 40
0.8942770763
 40
0.9069129797
 40
0.9188424908
 40
0.9300755995
 40
0.9406314837
 40
0.9505404332
 40
0.9598460701
 40
0.9686071889
 40
0.9768999281
 40
0.98481904
 40
0.9924774225
 40
1.0
 40
1.0
 40
1.0
 40
1.0
 10
10.4164423423
 20
11.1807052388
 30
0.0
 10
10.4164423423
 20
11.1822194155
 30
0.0
 10
10.4162206908
 20
11.1852794803
 30
0.0
 10
10.4152291066
 20
11.1898366918
 30
0.0
 10
10.4135826164
 20
11.1943649588
 30
0.0
 10
10.411289439
 20
11.1988510182
 30
0.0
 10
10.408358471
 20
11.2032854702
 30
0.0
 10
10.404798598
 20
11.2076589953
 30
0.0
 10
10.4006196453
 20
11.2119630312
 30
0.0
 10
10.3958318515
 20
11.21618866
 30
0.0
 10
10.3904466648
 20
11.2203269605
 30
0.0
 10
10.3844767425
 20
11.2243688817
 30
0.0
 10
10.3779360077
 20
11.2283051691
 30
0.0
 10
10.3708398994
 20
11.2321268972
 30
0.0
 10
10.3632050952
 20
11.2358249799
 30
0.0
 10
10.3550497105
 20
11.2393907434
 30
0.0
 10
10.3463931275
 20
11.2428157007
 30
0.0
 10
10.3372559594
 20
11.2460915682
 30
0.0
 10
10.3276600648
 20
11.2492106038
 30
0.0
 10
10.3176283841
 20
11.2521651736
 30
0.0
 10
10.3071849723
 20
11.2549482406
 30
0.0
 10
10.2963548906
 20
11.2575530601
 30
0.0
 10
10.2851640961
 20
11.2599733389
 30
0.0
 10
10.2696295448
 20
11.2629790225
 30
0.0
 10
10.2495015803
 20
11.2662183455
 30
0.0
 10
10.2246151725
 20
11.2692496115
 30
0.0
 10
10.1989782183
 20
11.2714361502
 30
0.0
 10
10.1728370031
 20
11.2727566845
 30
0.0
 10
10.1464423428
 20
11.2731983009
 30
0.0
 10
10.1200476824
 20
11.2727566845
 30
0.0
 10
10.0939064673
 20
11.2714361502
 30
0.0
 10
10.068269513
 20
11.2692496115
 30
0.0
 10
10.0433831052
 20
11.2662183455
 30
0.0
 10
10.0232551407
 20
11.2629790225
 30
0.0
 10
10.0077205894
 20
11.2599733389
 30
0.0
 10
9.9965297949
 20
11.2575530601
 30
0.0
 10
9.9856997132
 20
11.2549482406
 30
0.0
 10
9.9752563014
 20
11.2521651736
 30
0.0
 10
9.9652246207
 20
11.2492106038
 30
0.0
 10
9.9556287261
 20
11.2460915682
 30
0.0
 10
9.946491558
 20
11.2428157007
 30
0.0
 10
9.937834975
 20
11.2393907434
 30
0.0
 10
9.9296795903
 20
11.2358249799
 30
0.0
 10
9.9220447861
 20
11.2321268972
 30
0.0
 10
9.9149486778
 20
11.2283051691
 30
0.0
 10
9.9084079431
 20
11.2243688817
 30
0.0
 10
9.9024380207
 20
11.2203269605
 30
0.0
 10
9.897052834
 20
11.21618866
 30
0.0
 10
9.8922650402
 20
11.2119630312
 30
0.0
 10
9.8880860875
 20
11.2076589953
 30
0.0
 10
9.8845262145
 20
11.2032854702
 30
0.0
 10
9.8815952465
 20
11.1988510182
 30
0.0
 10
9.8793020691
 20
11.1943649588
 30
0.0
 10
9.8776555789
 20
11.1898366918
 30
0.0
 10
9.8766639947
 20
11.1852794803
 30
0.0
 10
9.8764423432
 20
11.1822194155
 30
0.0
 10
9.8764423432
 20
11.1807052388
 30
0.0
  0
SPLINE
  5
33F
100
AcDbEntity
  8
0
100
AcDbSpline
 62
9
  6
CONTINUOUS
 70
0
 71
3
 72
61
 73
57
 74
0
 42
0.0000001
 43
0.0000001
 44
0.0000000001
 40
0.0
 40
0.0
 40
0.0
 40
0.0
 40
0.0075226437
 40
0.0151810088
 40
0.023100109
 40
0.0313928716
 40
0.0401539905
 40
0.0494596137
 40
0.0593685804
 40
0.0699244479
 40
0.0811575761
 40
0.0930870871
 40
0.1057229766
 40
0.1190672375
 40
0.133115314
 40
0.1478570728
 40
0.1632773548
 40
0.1793569669
 40
0.1960728861
 40
0.213398841
 40
0.2313057547
 40
0.2497618028
 40
0.2687329948
 40
0.2881831991
 40
0.3283650984
 40
0.3699874428
 40
0.4127074916
 40
0.4561675308
 40
0.5
 40
0.5438324692
 40
0.5872925084
 40
0.6300125572
 40
0.6716349016
 40
0.7118168009
 40
0.7312670052
 40
0.7502381972
 40
0.7686942453
 40
0.786601159
 40
0.8039271139
 40
0.8206430331
 40
0.8367226452
 40
0.8521429272
 40
0.866884686
 40
0.8809327625
 40
0.8942770234
 40
0.9069129129
 40
0.9188424239
 40
0.9300755521
 40
0.9406314196
 40
0.9505403863
 40
0.9598460095
 40
0.9686071284
 40
0.976899891
 40
0.9848189912
 40
0.9924773563
 40
1.0
 40
1.0
 40
1.0
 40
1.0
 10
10.4317614903
 20
11.1820963852
 30
0.0
 10
10.4317614903
 20
11.1836964867
 30
0.0
 10
10.431527272
 20
11.186930184
 30
0.0
 10
10.4304794046
 20
11.1917459642
 30
0.0
 10
10.4287394998
 20
11.196531153
 30
0.0
 10
10.4263162094
 20
11.2012717425
 30
0.0
 10
10.4232189374
 20
11.2059577911
 30
0.0
 10
10.4194570939
 20
11.2105794679
 30
0.0
 10
10.4150410153
 20
11.2151276785
 30
0.0
 10
10.409981595
 20
11.2195930892
 30
0.0
 10
10.404290846
 20
11.223966164
 30
0.0
 10
10.3979822051
 20
11.2282374147
 30
0.0
 10
10.3910703718
 20
11.2323970565
 30
0.0
 10
10.3835716318
 20
11.2364355799
 30
0.0
 10
10.3755036643
 20
11.2403435255
 30
0.0
 10
10.3668855515
 20
11.2441115694
 30
0.0
 10
10.357737816
 20
11.2477308533
 30
0.0
 10
10.3480822319
 20
11.251192608
 30
0.0
 10
10.3379418813
 20
11.2544885645
 30
0.0
 10
10.3273410383
 20
11.257610818
 30
0.0
 10
10.316305088
 20
11.2605517542
 30
0.0
 10
10.3048605349
 20
11.2633043685
 30
0.0
 10
10.2930348058
 20
11.2658619897
 30
0.0
 10
10.2766188546
 20
11.2690381624
 30
0.0
 10
10.2553488864
 20
11.272461305
 30
0.0
 10
10.229050495
 20
11.2756645628
 30
0.0
 10
10.2019589695
 20
11.2779751635
 30
0.0
 10
10.1743345682
 20
11.279370604
 30
0.0
 10
10.1464423428
 20
11.2798372661
 30
0.0
 10
10.1185501173
 20
11.279370604
 30
0.0
 10
10.0909257161
 20
11.2779751635
 30
0.0
 10
10.0638341905
 20
11.2756645628
 30
0.0
 10
10.0375357991
 20
11.272461305
 30
0.0
 10
10.0162658309
 20
11.2690381624
 30
0.0
 10
9.9998498798
 20
11.2658619897
 30
0.0
 10
9.9880241506
 20
11.2633043685
 30
0.0
 10
9.9765795975
 20
11.2605517542
 30
0.0
 10
9.9655436473
 20
11.257610818
 30
0.0
 10
9.9549428042
 20
11.2544885645
 30
0.0
 10
9.9448024536
 20
11.251192608
 30
0.0
 10
9.9351468696
 20
11.2477308533
 30
0.0
 10
9.925999134
 20
11.2441115694
 30
0.0
 10
9.9173810212
 20
11.2403435255
 30
0.0
 10
9.9093130537
 20
11.2364355799
 30
0.0
 10
9.9018143137
 20
11.2323970565
 30
0.0
 10
9.8949024804
 20
11.2282374147
 30
0.0
 10
9.8885938395
 20
11.223966164
 30
0.0
 10
9.8829030905
 20
11.2195930892
 30
0.0
 10
9.8778436702
 20
11.2151276785
 30
0.0
 10
9.8734275917
 20
11.2105794679
 30
0.0
 10
9.8696657481
 20
11.2059577911
 30
0.0
 10
9.8665684761
 20
11.2012717425
 30
0.0
 10
9.8641451857
 20
11.196531153
 30
0.0
 10
9.8624052809
 20
11.1917459642
 30
0.0
 10
9.8613574136
 20
11.186930184
 30
0.0
 10
9.8611231952
 20
11.1836964867
 30
0.0
 10
9.8611231952
 20
11.1820963852
 30
0.0
  0
SPLINE
  5
340
100
AcDbEntity
  8
0
100
AcDbSpline
 62
9
  6
CONTINUOUS
 70
0
 71
3
 72
18
 73
14
 74
0
 42
0.0000001
 43
0.0000001
 44
0.0000000001
 40
0.0
 40
0.0
 40
0.0
 40
0.0
 40
0.1550573029
 40
0.3055103761
 40
0.4480755456
 40
0.5802450038
 40
0.7004770342
 40
0.7561163137
 40
0.8089056087
 40
0.8591645878
 40
0.9073674023
 40
0.9540989501
 40
1.0
 40
1.0
 40
1.0
 40
1.0
 10
9.5236953966
 20
4.6660981755
 30
0.0
 10
9.5237276982
 20
4.6670991952
 30
0.0
 10
9.5238999497
 20
4.6690699071
 30
0.0
 10
9.5244802334
 20
4.6719118974
 30
0.0
 10
9.525361613
 20
4.6745216185
 30
0.0
 10
9.526513449
 20
4.676808273
 30
0.0
 10
9.527700366
 20
4.6784215433
 30
0.0
 10
9.5287544819
 20
4.6794599808
 30
0.0
 10
9.5295647311
 20
4.6800919382
 30
0.0
 10
9.5304080596
 20
4.6805908888
 30
0.0
 10
9.5312774477
 20
4.6809516395
 30
0.0
 10
9.5321642528
 20
4.6811695754
 30
0.0
 10
9.5327636395
 20
4.6812187254
 30
0.0
 10
9.533060122
 20
4.6812187254
 30
0.0
  0
SPLINE
  5
341
100
AcDbEntity
  8
0
100
AcDbSpline
 62
9
  6
CONTINUOUS
 70
0
 71
3
 72
16
 73
12
 74
0
 42
0.0000001
 43
0.0000001
 44
0.0000000001
 40
0.0
 40
0.0
 40
0.0
 40
0.0
 40
0.251714979
 40
0.3773274274
 40
0.5026846673
 40
0.5652520364
 40
0.627736909
 40
0.7523865905
 40
0.8145424862
 40
0.8765625805
 40
1.0
 40
1.0
 40
1.0
 40
1.0
 10
10.4777919435
 20
4.8695079897
 30
0.0
 10
10.4795588105
 20
4.876794176
 30
0.0
 10
10.4825013293
 20
4.8876500071
 30
0.0
 10
10.487117917
 20
4.9018953346
 30
0.0
 10
10.490317517
 20
4.9106716542
 30
0.0
 10
10.4930853594
 20
4.9175980891
 30
0.0
 10
10.4959929391
 20
4.924444027
 30
0.0
 10
10.4991332889
 20
4.93117644
 30
0.0
 10
10.5025349921
 20
4.937762008
 30
0.0
 10
10.5061079144
 20
4.9442146257
 30
0.0
 10
10.5090126214
 20
4.9489198815
 30
0.0
 10
10.5110598007
 20
4.9519737986
 30
0.0
  0
SPLINE
  5
342
100
AcDbEntity
  8
0
100
AcDbSpline
 62
9
  6
CONTINUOUS
 70
0
 71
3
 72
59
 73
55
 74
0
 42
0.0000001
 43
0.0000001
 44
0.0000000001
 40
0.0
 40
0.0
 40
0.0
 40
0.0
 40
0.0075226783
 40
0.0151810787
 40
0.0231002155
 40
0.0313930163
 40
0.0401541756
 40
0.0494598417
 40
0.0593688541
 40
0.0699247702
 40
0.0811579501
 40
0.0930875161
 40
0.1057234639
 40
0.1190677863
 40
0.1331159275
 40
0.1478577543
 40
0.1632781074
 40
0.1793577936
 40
0.1960737899
 40
0.2133998246
 40
0.2313068208
 40
0.249762954
 40
0.2881822227
 40
0.3283643073
 40
0.3699868436
 40
0.4127070893
 40
0.4561673288
 40
0.5
 40
0.5438326712
 40
0.5872929107
 40
0.6300131564
 40
0.6716356927
 40
0.7118177773
 40
0.750237046
 40
0.7686931792
 40
0.7866001754
 40
0.8039262101
 40
0.8206422064
 40
0.8367218926
 40
0.8521422457
 40
0.8668840725
 40
0.8809322137
 40
0.8942765361
 40
0.9069124839
 40
0.9188420499
 40
0.9300752298
 40
0.9406311459
 40
0.9505401583
 40
0.9598458244
 40
0.9686069837
 40
0.9768997845
 40
0.9848189213
 40
0.9924773217
 40
1.0
 40
1.0
 40
1.0
 40
1.0
 10
10.4298697315
 20
11.3356697169
 30
0.0
 10
10.4298697315
 20
11.3372592092
 30
0.0
 10
10.4296370661
 20
11.3404714661
 30
0.0
 10
10.4285961465
 20
11.345255316
 30
0.0
 10
10.4268677778
 20
11.3500087775
 30
0.0
 10
10.4244605546
 20
11.3547179354
 30
0.0
 10
10.4213838185
 20
11.3593729139
 30
0.0
 10
10.4176469172
 20
11.3639639475
 30
0.0
 10
10.4132601187
 20
11.368482002
 30
0.0
 10
10.408234244
 20
11.3729178056
 30
0.0
 10
10.4025812265
 20
11.3772618855
 30
0.0
 10
10.396314414
 20
11.3815048164
 30
0.0
 10
10.3894484083
 20
11.3856368784
 30
0.0
 10
10.3819993874
 20
11.3896486251
 30
0.0
 10
10.3739849132
 20
11.3935306597
 30
0.0
 10
10.3654239413
 20
11.3972737202
 30
0.0
 10
10.3563368581
 20
11.4008690073
 30
0.0
 10
10.3467452941
 20
11.4043078088
 30
0.0
 10
10.3366721758
 20
11.4075819145
 30
0.0
 10
10.3261416256
 20
11.4106834565
 30
0.0
 10
10.3151788248
 20
11.4136049324
 30
0.0
 10
10.2998146056
 20
11.4173001169
 30
0.0
 10
10.2797131345
 20
11.4213978707
 30
0.0
 10
10.2546270497
 20
11.4254355264
 30
0.0
 10
10.2285027064
 20
11.4286174963
 30
0.0
 10
10.2015908953
 20
11.4309127907
 30
0.0
 10
10.1741496288
 20
11.4322989751
 30
0.0
 10
10.1464423428
 20
11.4327625444
 30
0.0
 10
10.1187350567
 20
11.4322989751
 30
0.0
 10
10.0912937902
 20
11.4309127907
 30
0.0
 10
10.0643819791
 20
11.4286174963
 30
0.0
 10
10.0382576359
 20
11.4254355264
 30
0.0
 10
10.0131715511
 20
11.4213978707
 30
0.0
 10
9.9930700799
 20
11.4173001169
 30
0.0
 10
9.9777058607
 20
11.4136049324
 30
0.0
 10
9.9667430599
 20
11.4106834565
 30
0.0
 10
9.9562125097
 20
11.4075819145
 30
0.0
 10
9.9461393914
 20
11.4043078088
 30
0.0
 10
9.9365478274
 20
11.4008690073
 30
0.0
 10
9.9274607442
 20
11.3972737202
 30
0.0
 10
9.9188997723
 20
11.3935306597
 30
0.0
 10
9.9108852981
 20
11.3896486251
 30
0.0
 10
9.9034362772
 20
11.3856368784
 30
0.0
 10
9.8965702715
 20
11.3815048164
 30
0.0
 10
9.890303459
 20
11.3772618855
 30
0.0
 10
9.8846504415
 20
11.3729178056
 30
0.0
 10
9.8796245669
 20
11.368482002
 30
0.0
 10
9.8752377683
 20
11.3639639475
 30
0.0
 10
9.871500867
 20
11.3593729139
 30
0.0
 10
9.8684241309
 20
11.3547179354
 30
0.0
 10
9.8660169077
 20
11.3500087775
 30
0.0
 10
9.8642885391
 20
11.345255316
 30
0.0
 10
9.8632476194
 20
11.3404714661
 30
0.0
 10
9.863014954
 20
11.3372592092
 30
0.0
 10
9.863014954
 20
11.3356697169
 30
0.0
  0
SPLINE
  5
343
100
AcDbEntity
  8
0
100
AcDbSpline
 62
9
  6
CONTINUOUS
 70
0
 71
3
 72
67
 73
63
 74
0
 42
0.0000001
 43
0.0000001
 44
0.0000000001
 40
0.0
 40
0.0
 40
0.0
 40
0.0
 40
0.0037551718
 40
0.0075275662
 40
0.0113337965
 40
0.0151899549
 40
0.0231088837
 40
0.0314014869
 40
0.0357197944
 40
0.0401654191
 40
0.0494707955
 40
0.059379533
 40
0.0699351264
 40
0.0811679757
 40
0.0930972086
 40
0.1057327548
 40
0.1190767075
 40
0.1331244307
 40
0.1478658071
 40
0.1632857374
 40
0.1793649157
 40
0.1960804368
 40
0.2134059733
 40
0.2313124108
 40
0.2497680333
 40
0.2687387332
 40
0.2881884545
 40
0.3283693477
 40
0.3699906742
 40
0.412709668
 40
0.4561686212
 40
0.5
 40
0.5438313788
 40
0.587290332
 40
0.6300093258
 40
0.6716306523
 40
0.7118115455
 40
0.7312612668
 40
0.7502319667
 40
0.7686875892
 40
0.7865940267
 40
0.8039195632
 40
0.8206350843
 40
0.8367142626
 40
0.8521341929
 40
0.8668755693
 40
0.8809232925
 40
0.8942672452
 40
0.9069027914
 40
0.9188320243
 40
0.9300648736
 40
0.940620467
 40
0.9505292045
 40
0.9598345809
 40
0.9642802056
 40
0.9685985131
 40
0.9768911163
 40
0.9848100451
 40
0.9886662035
 40
0.9924724338
 40
0.9962448282
 40
1.0
 40
1.0
 40
1.0
 40
1.0
 10
10.4698088803
 20
11.5002517309
 30
0.0
 10
10.4698090084
 20
11.5011570085
 30
0.0
 10
10.4697438079
 20
11.5029723984
 30
0.0
 10
10.469450286
 20
11.5056910693
 30
0.0
 10
10.468961336
 20
11.5084063786
 30
0.0
 10
10.4680417099
 20
11.5120509454
 30
0.0
 10
10.4663839776
 20
11.516611536
 30
0.0
 10
10.4641258151
 20
11.5210287795
 30
0.0
 10
10.4619581732
 20
11.5245247802
 30
0.0
 10
10.4594699239
 20
11.5281024544
 30
0.0
 10
10.4558635448
 20
11.5325332636
 30
0.0
 10
10.4508587654
 20
11.5376876849
 30
0.0
 10
10.4451246233
 20
11.5427486551
 30
0.0
 10
10.4386750267
 20
11.547704859
 30
0.0
 10
10.4315251079
 20
11.5525456627
 30
0.0
 10
10.4236916019
 20
11.557260032
 30
0.0
 10
10.4151928874
 20
11.5618370631
 30
0.0
 10
10.4060490572
 20
11.5662661394
 30
0.0
 10
10.396281723
 20
11.5705366766
 30
0.0
 10
10.3859141226
 20
11.5746385504
 30
0.0
 10
10.3749709757
 20
11.5785619739
 30
0.0
 10
10.3634784008
 20
11.5822974281
 30
0.0
 10
10.3514639283
 20
11.5858360177
 30
0.0
 10
10.3389563389
 20
11.5891691723
 30
0.0
 10
10.3259856447
 20
11.5922888015
 30
0.0
 10
10.3125829549
 20
11.5951875122
 30
0.0
 10
10.2939779369
 20
11.5987872201
 30
0.0
 10
10.2698716131
 20
11.6026668568
 30
0.0
 10
10.2400663167
 20
11.6062972463
 30
0.0
 10
10.2093621242
 20
11.6089159573
 30
0.0
 10
10.1780540023
 20
11.610497497
 30
0.0
 10
10.1464423428
 20
11.6110264037
 30
0.0
 10
10.1148306832
 20
11.610497497
 30
0.0
 10
10.0835225614
 20
11.6089159573
 30
0.0
 10
10.0528183688
 20
11.6062972463
 30
0.0
 10
10.0230130724
 20
11.6026668568
 30
0.0
 10
9.9989067486
 20
11.5987872201
 30
0.0
 10
9.9803017306
 20
11.5951875122
 30
0.0
 10
9.9668990408
 20
11.5922888015
 30
0.0
 10
9.9539283466
 20
11.5891691723
 30
0.0
 10
9.9414207572
 20
11.5858360177
 30
0.0
 10
9.9294062848
 20
11.5822974281
 30
0.0
 10
9.9179137098
 20
11.5785619739
 30
0.0
 10
9.9069705629
 20
11.5746385504
 30
0.0
 10
9.8966029625
 20
11.5705366766
 30
0.0
 10
9.8868356284
 20
11.5662661394
 30
0.0
 10
9.8776917981
 20
11.5618370631
 30
0.0
 10
9.8691930837
 20
11.557260032
 30
0.0
 10
9.8613595776
 20
11.5525456627
 30
0.0
 10
9.8542096588
 20
11.547704859
 30
0.0
 10
9.8477600623
 20
11.5427486551
 30
0.0
 10
9.8420259201
 20
11.5376876849
 30
0.0
 10
9.8370211407
 20
11.5325332636
 30
0.0
 10
9.8334147616
 20
11.5281024544
 30
0.0
 10
9.8309265123
 20
11.5245247802
 30
0.0
 10
9.8287588704
 20
11.5210287795
 30
0.0
 10
9.8265007079
 20
11.516611536
 30
0.0
 10
9.8248429756
 20
11.5120509454
 30
0.0
 10
9.8239233496
 20
11.5084063786
 30
0.0
 10
9.8234343995
 20
11.5056910693
 30
0.0
 10
9.8231408776
 20
11.5029723984
 30
0.0
 10
9.8230756771
 20
11.5011570085
 30
0.0
 10
9.8230758053
 20
11.5002517309
 30
0.0
  0
SPLINE
  5
344
100
AcDbEntity
  8
0
100
AcDbSpline
 62
9
  6
CONTINUOUS
 70
0
 71
3
 72
61
 73
57
 74
0
 42
0.0000001
 43
0.0000001
 44
0.0000000001
 40
0.0
 40
0.0
 40
0.0
 40
0.0
 40
0.0075226898
 40
0.0151810094
 40
0.0231000915
 40
0.031392876
 40
0.0401539978
 40
0.0494596052
 40
0.0593685879
 40
0.0699244436
 40
0.081157572
 40
0.0930871013
 40
0.1057229613
 40
0.1190672454
 40
0.1331153176
 40
0.1478570602
 40
0.1632773735
 40
0.1793569512
 40
0.1960728875
 40
0.2133988544
 40
0.2313057367
 40
0.2497618175
 40
0.2687329887
 40
0.2881831931
 40
0.3283650844
 40
0.3699874448
 40
0.4127074998
 40
0.4561675325
 40
0.5
 40
0.5438324675
 40
0.5872925002
 40
0.6300125552
 40
0.6716349156
 40
0.7118168069
 40
0.7312670113
 40
0.7502381825
 40
0.7686942633
 40
0.7866011456
 40
0.8039271125
 40
0.8206430488
 40
0.8367226265
 40
0.8521429398
 40
0.8668846824
 40
0.8809327546
 40
0.8942770387
 40
0.9069128987
 40
0.918842428
 40
0.9300755564
 40
0.9406314121
 40
0.9505403948
 40
0.9598460022
 40
0.968607124
 40
0.9768999085
 40
0.9848189906
 40
0.9924773102
 40
1.0
 40
1.0
 40
1.0
 40
1.0
 10
10.4769602493
 20
11.5086599818
 30
0.0
 10
10.4769602493
 20
11.5105135743
 30
0.0
 10
10.4766889428
 20
11.514259539
 30
0.0
 10
10.4754750528
 20
11.5198382006
 30
0.0
 10
10.4734595328
 20
11.5253814253
 30
0.0
 10
10.4706523642
 20
11.5308730009
 30
0.0
 10
10.4670644218
 20
11.5363013793
 30
0.0
 10
10.462706668
 20
11.5416552164
 30
0.0
 10
10.4575909963
 20
11.5469239069
 30
0.0
 10
10.4517301052
 20
11.5520967225
 30
0.0
 10
10.4451378552
 20
11.5571625587
 30
0.0
 10
10.4378298183
 20
11.5621104109
 30
0.0
 10
10.42982307
 20
11.5669290426
 30
0.0
 10
10.4211364038
 20
11.5716072957
 30
0.0
 10
10.4117903543
 20
11.5761343228
 30
0.0
 10
10.401807012
 20
11.5804993045
 30
0.0
 10
10.3912101283
 20
11.5846918928
 30
0.0
 10
10.3800249698
 20
11.5887020842
 30
0.0
 10
10.3682782323
 20
11.5925201493
 30
0.0
 10
10.3559980554
 20
11.596136996
 30
0.0
 10
10.3432138561
 20
11.5995438646
 30
0.0
 10
10.3299563102
 20
11.6027324855
 30
0.0
 10
10.3162572151
 20
11.6056953023
 30
0.0
 10
10.2972407404
 20
11.609374619
 30
0.0
 10
10.2726012964
 20
11.6133400553
 30
0.0
 10
10.242136845
 20
11.6170507322
 30
0.0
 10
10.2107536181
 20
11.619727357
 30
0.0
 10
10.1787531057
 20
11.621343873
 30
0.0
 10
10.1464423428
 20
11.6218844766
 30
0.0
 10
10.1141315798
 20
11.621343873
 30
0.0
 10
10.0821310675
 20
11.619727357
 30
0.0
 10
10.0507478405
 20
11.6170507322
 30
0.0
 10
10.0202833891
 20
11.6133400553
 30
0.0
 10
9.9956439451
 20
11.609374619
 30
0.0
 10
9.9766274704
 20
11.6056953023
 30
0.0
 10
9.9629283753
 20
11.6027324855
 30
0.0
 10
9.9496708294
 20
11.5995438646
 30
0.0
 10
9.9368866301
 20
11.596136996
 30
0.0
 10
9.9246064532
 20
11.5925201493
 30
0.0
 10
9.9128597158
 20
11.5887020842
 30
0.0
 10
9.9016745572
 20
11.5846918928
 30
0.0
 10
9.8910776735
 20
11.5804993045
 30
0.0
 10
9.8810943313
 20
11.5761343228
 30
0.0
 10
9.8717482818
 20
11.5716072957
 30
0.0
 10
9.8630616156
 20
11.5669290426
 30
0.0
 10
9.8550548673
 20
11.5621104109
 30
0.0
 10
9.8477468303
 20
11.5571625587
 30
0.0
 10
9.8411545803
 20
11.5520967225
 30
0.0
 10
9.8352936892
 20
11.5469239069
 30
0.0
 10
9.8301780176
 20
11.5416552164
 30
0.0
 10
9.8258202637
 20
11.5363013793
 30
0.0
 10
9.8222323214
 20
11.5308730009
 30
0.0
 10
9.8194251527
 20
11.5253814253
 30
0.0
 10
9.8174096328
 20
11.5198382006
 30
0.0
 10
9.8161957427
 20
11.514259539
 30
0.0
 10
9.8159244362
 20
11.5105135743
 30
0.0
 10
9.8159244362
 20
11.5086599818
 30
0.0
  0
SPLINE
  5
345
100
AcDbEntity
  8
0
100
AcDbSpline
 62
9
  6
CONTINUOUS
 70
0
 71
3
 72
61
 73
57
 74
0
 42
0.0000001
 43
0.0000001
 44
0.0000000001
 40
0.0
 40
0.0
 40
0.0
 40
0.0
 40
0.0075226898
 40
0.0151810094
 40
0.0231000915
 40
0.031392876
 40
0.0401539978
 40
0.0494596051
 40
0.0593685879
 40
0.0699244436
 40
0.0811575719
 40
0.0930871013
 40
0.1057229613
 40
0.1190672454
 40
0.1331153176
 40
0.1478570602
 40
0.1632773735
 40
0.1793569512
 40
0.1960728875
 40
0.2133988544
 40
0.2313057367
 40
0.2497618175
 40
0.2687329887
 40
0.2881831931
 40
0.3283650844
 40
0.3699874448
 40
0.4127074998
 40
0.4561675325
 40
0.5
 40
0.5438324675
 40
0.5872925002
 40
0.6300125552
 40
0.6716349156
 40
0.7118168069
 40
0.7312670113
 40
0.7502381825
 40
0.7686942633
 40
0.7866011456
 40
0.8039271125
 40
0.8206430488
 40
0.8367226265
 40
0.8521429398
 40
0.8668846824
 40
0.8809327546
 40
0.8942770387
 40
0.9069128987
 40
0.9188424281
 40
0.9300755564
 40
0.9406314121
 40
0.9505403949
 40
0.9598460022
 40
0.968607124
 40
0.9768999085
 40
0.9848189906
 40
0.9924773102
 40
1.0
 40
1.0
 40
1.0
 40
1.0
 10
10.4789423429
 20
11.5109115342
 30
0.0
 10
10.4789423429
 20
11.5127762426
 30
0.0
 10
10.4786694093
 20
11.5165446716
 30
0.0
 10
10.4774482397
 20
11.522156788
 30
0.0
 10
10.4754206328
 20
11.5277332551
 30
0.0
 10
10.4725966297
 20
11.5332577633
 30
0.0
 10
10.4689871707
 20
11.5387186953
 30
0.0
 10
10.4646032837
 20
11.544104639
 30
0.0
 10
10.4594569338
 20
11.5494049255
 30
0.0
 10
10.4535608952
 20
11.5546087621
 30
0.0
 10
10.446929112
 20
11.5597049778
 30
0.0
 10
10.4395772492
 20
11.564682502
 30
0.0
 10
10.431522485
 20
11.5695300306
 30
0.0
 10
10.4227837255
 20
11.5742363389
 30
0.0
 10
10.4133816283
 20
11.5787905143
 30
0.0
 10
10.4033384167
 20
11.5831816724
 30
0.0
 10
10.3926779842
 20
11.5873994034
 30
0.0
 10
10.381425749
 20
11.5914336437
 30
0.0
 10
10.3696085671
 20
11.5952746055
 30
0.0
 10
10.3572547469
 20
11.5989131422
 30
0.0
 10
10.3443938816
 20
11.6023404415
 30
0.0
 10
10.3310568311
 20
11.6055481844
 30
0.0
 10
10.3172755834
 20
11.6085287689
 30
0.0
 10
10.2981450682
 20
11.6122301503
 30
0.0
 10
10.2733578631
 20
11.6162193671
 30
0.0
 10
10.2427107185
 20
11.6199522966
 30
0.0
 10
10.2111392884
 20
11.6226449729
 30
0.0
 10
10.1789468712
 20
11.6242711831
 30
0.0
 10
10.1464423428
 20
11.6248150287
 30
0.0
 10
10.1139378144
 20
11.6242711831
 30
0.0
 10
10.0817453971
 20
11.6226449729
 30
0.0
 10
10.050173967
 20
11.6199522966
 30
0.0
 10
10.0195268224
 20
11.6162193671
 30
0.0
 10
9.9947396173
 20
11.6122301503
 30
0.0
 10
9.9756091021
 20
11.6085287689
 30
0.0
 10
9.9618278544
 20
11.6055481844
 30
0.0
 10
9.948490804
 20
11.6023404415
 30
0.0
 10
9.9356299386
 20
11.5989131422
 30
0.0
 10
9.9232761184
 20
11.5952746055
 30
0.0
 10
9.9114589365
 20
11.5914336437
 30
0.0
 10
9.9002067013
 20
11.5873994034
 30
0.0
 10
9.8895462689
 20
11.5831816724
 30
0.0
 10
9.8795030572
 20
11.5787905143
 30
0.0
 10
9.87010096
 20
11.5742363389
 30
0.0
 10
9.8613622005
 20
11.5695300306
 30
0.0
 10
9.8533074363
 20
11.564682502
 30
0.0
 10
9.8459555735
 20
11.5597049778
 30
0.0
 10
9.8393237903
 20
11.5546087621
 30
0.0
 10
9.8334277518
 20
11.5494049255
 30
0.0
 10
9.8282814018
 20
11.544104639
 30
0.0
 10
9.8238975148
 20
11.5387186953
 30
0.0
 10
9.8202880558
 20
11.5332577633
 30
0.0
 10
9.8174640527
 20
11.5277332551
 30
0.0
 10
9.8154364459
 20
11.522156788
 30
0.0
 10
9.8142152762
 20
11.5165446716
 30
0.0
 10
9.8139423426
 20
11.5127762426
 30
0.0
 10
9.8139423426
 20
11.5109115342
 30
0.0
  0
SPLINE
  5
346
100
AcDbEntity
  8
0
100
AcDbSpline
 62
9
  6
CONTINUOUS
 70
0
 71
3
 72
16
 73
12
 74
0
 42
0.0000001
 43
0.0000001
 44
0.0000000001
 40
0.0
 40
0.0
 40
0.0
 40
0.0
 40
0.1234373666
 40
0.1854574755
 40
0.2476133866
 40
0.3722630623
 40
0.4347479243
 40
0.4973152893
 40
0.622672542
 40
0.7482850107
 40
1.0
 40
1.0
 40
1.0
 40
1.0
 10
9.7818248774
 20
4.9519737701
 30
0.0
 10
9.7838721051
 20
4.9489198876
 30
0.0
 10
9.7867768305
 20
4.9442146419
 30
0.0
 10
9.7903497414
 20
4.9377620198
 30
0.0
 10
9.7937514411
 20
4.9311764499
 30
0.0
 10
9.7968918005
 20
4.9244440422
 30
0.0
 10
9.7997993839
 20
4.9175981071
 30
0.0
 10
9.8025672211
 20
4.9106716708
 30
0.0
 10
9.8057668033
 20
4.9018953444
 30
0.0
 10
9.8103833694
 20
4.8876500101
 30
0.0
 10
9.8133258887
 20
4.876794179
 30
0.0
 10
9.8150927419
 20
4.8695079897
 30
0.0
  0
SPLINE
  5
347
100
AcDbEntity
  8
0
100
AcDbSpline
 62
9
  6
CONTINUOUS
 70
0
 71
3
 72
61
 73
57
 74
0
 42
0.0000001
 43
0.0000001
 44
0.0000000001
 40
0.0
 40
0.0
 40
0.0
 40
0.0
 40
0.0075225775
 40
0.01518096
 40
0.0231000719
 40
0.0313928111
 40
0.0401539299
 40
0.0494595668
 40
0.0593685163
 40
0.0699244005
 40
0.0811575092
 40
0.0930870203
 40
0.1057229237
 40
0.1190671569
 40
0.133115271
 40
0.1478570037
 40
0.1632772901
 40
0.1793569204
 40
0.1960728066
 40
0.2133988054
 40
0.2313056925
 40
0.2497617484
 40
0.268732959
 40
0.2881831355
 40
0.3283650541
 40
0.3699874215
 40
0.4127074801
 40
0.4561675218
 40
0.5
 40
0.5438324782
 40
0.5872925199
 40
0.6300125785
 40
0.6716349459
 40
0.7118168645
 40
0.731267041
 40
0.7502382516
 40
0.7686943075
 40
0.7866011946
 40
0.8039271934
 40
0.8206430796
 40
0.8367227099
 40
0.8521429963
 40
0.866884729
 40
0.8809328431
 40
0.8942770763
 40
0.9069129797
 40
0.9188424908
 40
0.9300755995
 40
0.9406314837
 40
0.9505404332
 40
0.9598460701
 40
0.9686071889
 40
0.9768999281
 40
0.98481904
 40
0.9924774225
 40
1.0
 40
1.0
 40
1.0
 40
1.0
 10
10.4164423423
 20
11.1807052388
 30
0.0
 10
10.4164423423
 20
11.1791910622
 30
0.0
 10
10.4162206908
 20
11.1761309973
 30
0.0
 10
10.4152291066
 20
11.1715737859
 30
0.0
 10
10.4135826164
 20
11.1670455188
 30
0.0
 10
10.411289439
 20
11.1625594594
 30
0.0
 10
10.408358471
 20
11.1581250074
 30
0.0
 10
10.404798598
 20
11.1537514823
 30
0.0
 10
10.4006196453
 20
11.1494474464
 30
0.0
 10
10.3958318515
 20
11.1452218176
 30
0.0
 10
10.3904466648
 20
11.1410835171
 30
0.0
 10
10.3844767425
 20
11.1370415959
 30
0.0
 10
10.3779360077
 20
11.1331053085
 30
0.0
 10
10.3708398994
 20
11.1292835804
 30
0.0
 10
10.3632050952
 20
11.1255854977
 30
0.0
 10
10.3550497105
 20
11.1220197343
 30
0.0
 10
10.3463931275
 20
11.1185947769
 30
0.0
 10
10.3372559594
 20
11.1153189094
 30
0.0
 10
10.3276600648
 20
11.1121998738
 30
0.0
 10
10.3176283841
 20
11.109245304
 30
0.0
 10
10.3071849723
 20
11.106462237
 30
0.0
 10
10.2963548906
 20
11.1038574175
 30
0.0
 10
10.2851640961
 20
11.1014371388
 30
0.0
 10
10.2696295448
 20
11.0984314551
 30
0.0
 10
10.2495015803
 20
11.0951921321
 30
0.0
 10
10.2246151725
 20
11.0921608661
 30
0.0
 10
10.1989782183
 20
11.0899743274
 30
0.0
 10
10.1728370031
 20
11.0886537931
 30
0.0
 10
10.1464423428
 20
11.0882121767
 30
0.0
 10
10.1200476824
 20
11.0886537931
 30
0.0
 10
10.0939064673
 20
11.0899743274
 30
0.0
 10
10.068269513
 20
11.0921608661
 30
0.0
 10
10.0433831052
 20
11.0951921321
 30
0.0
 10
10.0232551407
 20
11.0984314551
 30
0.0
 10
10.0077205894
 20
11.1014371388
 30
0.0
 10
9.9965297949
 20
11.1038574175
 30
0.0
 10
9.9856997132
 20
11.106462237
 30
0.0
 10
9.9752563014
 20
11.109245304
 30
0.0
 10
9.9652246207
 20
11.1121998738
 30
0.0
 10
9.9556287261
 20
11.1153189094
 30
0.0
 10
9.946491558
 20
11.1185947769
 30
0.0
 10
9.937834975
 20
11.1220197343
 30
0.0
 10
9.9296795903
 20
11.1255854977
 30
0.0
 10
9.9220447861
 20
11.1292835804
 30
0.0
 10
9.9149486778
 20
11.1331053085
 30
0.0
 10
9.9084079431
 20
11.1370415959
 30
0.0
 10
9.9024380207
 20
11.1410835171
 30
0.0
 10
9.897052834
 20
11.1452218176
 30
0.0
 10
9.8922650402
 20
11.1494474464
 30
0.0
 10
9.8880860875
 20
11.1537514823
 30
0.0
 10
9.8845262145
 20
11.1581250074
 30
0.0
 10
9.8815952465
 20
11.1625594594
 30
0.0
 10
9.8793020691
 20
11.1670455188
 30
0.0
 10
9.8776555789
 20
11.1715737859
 30
0.0
 10
9.8766639947
 20
11.1761309973
 30
0.0
 10
9.8764423432
 20
11.1791910622
 30
0.0
 10
9.8764423432
 20
11.1807052388
 30
0.0
  0
SPLINE
  5
348
100
AcDbEntity
  8
0
100
AcDbSpline
 62
9
  6
CONTINUOUS
 70
0
 71
3
 72
61
 73
57
 74
0
 42
0.0000001
 43
0.0000001
 44
0.0000000001
 40
0.0
 40
0.0
 40
0.0
 40
0.0
 40
0.0075226437
 40
0.0151810088
 40
0.023100109
 40
0.0313928716
 40
0.0401539905
 40
0.0494596137
 40
0.0593685804
 40
0.0699244479
 40
0.0811575761
 40
0.0930870871
 40
0.1057229766
 40
0.1190672375
 40
0.133115314
 40
0.1478570728
 40
0.1632773548
 40
0.1793569669
 40
0.1960728861
 40
0.213398841
 40
0.2313057547
 40
0.2497618028
 40
0.2687329948
 40
0.2881831991
 40
0.3283650984
 40
0.3699874428
 40
0.4127074916
 40
0.4561675308
 40
0.5
 40
0.5438324692
 40
0.5872925084
 40
0.6300125572
 40
0.6716349016
 40
0.7118168009
 40
0.7312670052
 40
0.7502381972
 40
0.7686942453
 40
0.786601159
 40
0.8039271139
 40
0.8206430331
 40
0.8367226452
 40
0.8521429272
 40
0.866884686
 40
0.8809327625
 40
0.8942770234
 40
0.9069129129
 40
0.9188424239
 40
0.9300755521
 40
0.9406314196
 40
0.9505403863
 40
0.9598460095
 40
0.9686071284
 40
0.976899891
 40
0.9848189912
 40
0.9924773563
 40
1.0
 40
1.0
 40
1.0
 40
1.0
 10
10.4317614903
 20
11.1820963852
 30
0.0
 10
10.4317614903
 20
11.1804962838
 30
0.0
 10
10.431527272
 20
11.1772625865
 30
0.0
 10
10.4304794046
 20
11.1724468063
 30
0.0
 10
10.4287394998
 20
11.1676616175
 30
0.0
 10
10.4263162094
 20
11.162921028
 30
0.0
 10
10.4232189374
 20
11.1582349794
 30
0.0
 10
10.4194570939
 20
11.1536133026
 30
0.0
 10
10.4150410153
 20
11.149065092
 30
0.0
 10
10.409981595
 20
11.1445996813
 30
0.0
 10
10.404290846
 20
11.1402266065
 30
0.0
 10
10.3979822051
 20
11.1359553558
 30
0.0
 10
10.3910703718
 20
11.131795714
 30
0.0
 10
10.3835716318
 20
11.1277571906
 30
0.0
 10
10.3755036643
 20
11.123849245
 30
0.0
 10
10.3668855515
 20
11.1200812011
 30
0.0
 10
10.357737816
 20
11.1164619172
 30
0.0
 10
10.3480822319
 20
11.1130001625
 30
0.0
 10
10.3379418813
 20
11.109704206
 30
0.0
 10
10.3273410383
 20
11.1065819524
 30
0.0
 10
10.316305088
 20
11.1036410163
 30
0.0
 10
10.3048605349
 20
11.100888402
 30
0.0
 10
10.2930348058
 20
11.0983307808
 30
0.0
 10
10.2766188546
 20
11.0951546081
 30
0.0
 10
10.2553488864
 20
11.0917314655
 30
0.0
 10
10.229050495
 20
11.0885282077
 30
0.0
 10
10.2019589695
 20
11.086217607
 30
0.0
 10
10.1743345682
 20
11.0848221665
 30
0.0
 10
10.1464423428
 20
11.0843555044
 30
0.0
 10
10.1185501173
 20
11.0848221665
 30
0.0
 10
10.0909257161
 20
11.086217607
 30
0.0
 10
10.0638341905
 20
11.0885282077
 30
0.0
 10
10.0375357991
 20
11.0917314655
 30
0.0
 10
10.0162658309
 20
11.0951546081
 30
0.0
 10
9.9998498798
 20
11.0983307808
 30
0.0
 10
9.9880241506
 20
11.100888402
 30
0.0
 10
9.9765795975
 20
11.1036410163
 30
0.0
 10
9.9655436473
 20
11.1065819524
 30
0.0
 10
9.9549428042
 20
11.109704206
 30
0.0
 10
9.9448024536
 20
11.1130001625
 30
0.0
 10
9.9351468696
 20
11.1164619172
 30
0.0
 10
9.925999134
 20
11.1200812011
 30
0.0
 10
9.9173810212
 20
11.123849245
 30
0.0
 10
9.9093130537
 20
11.1277571906
 30
0.0
 10
9.9018143137
 20
11.131795714
 30
0.0
 10
9.8949024804
 20
11.1359553558
 30
0.0
 10
9.8885938395
 20
11.1402266065
 30
0.0
 10
9.8829030905
 20
11.1445996813
 30
0.0
 10
9.8778436702
 20
11.149065092
 30
0.0
 10
9.8734275917
 20
11.1536133026
 30
0.0
 10
9.8696657481
 20
11.1582349794
 30
0.0
 10
9.8665684761
 20
11.162921028
 30
0.0
 10
9.8641451857
 20
11.1676616175
 30
0.0
 10
9.8624052809
 20
11.1724468063
 30
0.0
 10
9.8613574136
 20
11.1772625865
 30
0.0
 10
9.8611231952
 20
11.1804962838
 30
0.0
 10
9.8611231952
 20
11.1820963852
 30
0.0
  0
SPLINE
  5
349
100
AcDbEntity
  8
0
100
AcDbSpline
 62
9
  6
CONTINUOUS
 70
0
 71
3
 72
13
 73
9
 74
0
 42
0.0000001
 43
0.0000001
 44
0.0000000001
 40
0.0
 40
0.0
 40
0.0
 40
0.0
 40
0.1193866204
 40
0.2393680669
 40
0.3604722653
 40
0.4832123717
 40
0.7354689867
 40
1.0
 40
1.0
 40
1.0
 40
1.0
 10
10.4698088803
 20
11.5002517309
 30
0.0
 10
10.4698090107
 20
11.4993304685
 30
0.0
 10
10.4697414206
 20
11.4974826356
 30
0.0
 10
10.4694373012
 20
11.4947153716
 30
0.0
 10
10.468930745
 20
11.4919514412
 30
0.0
 10
10.4679777051
 20
11.488240941
 30
0.0
 10
10.466259406
 20
11.4835985992
 30
0.0
 10
10.4644128952
 20
11.480052067
 30
0.0
 10
10.4633727238
 20
11.4782956787
 30
0.0
  0
SPLINE
  5
34A
100
AcDbEntity
  8
0
100
AcDbSpline
 62
9
  6
CONTINUOUS
 70
0
 71
3
 72
15
 73
11
 74
0
 42
0.0000001
 43
0.0000001
 44
0.0000000001
 40
0.0
 40
0.0
 40
0.0
 40
0.0
 40
0.1150198868
 40
0.2310912324
 40
0.3491912803
 40
0.4702563809
 40
0.5951525341
 40
0.7246482157
 40
0.8594078561
 40
1.0
 40
1.0
 40
1.0
 40
1.0
 10
10.4769602493
 20
11.5086599818
 30
0.0
 10
10.4769602493
 20
11.5073547352
 30
0.0
 10
10.4768268036
 20
11.5047304114
 30
0.0
 10
10.4762282359
 20
11.5008069719
 30
0.0
 10
10.4752318244
 20
11.4968943411
 30
0.0
 10
10.4738397171
 20
11.4929985073
 30
0.0
 10
10.4720544304
 20
11.4891241496
 30
0.0
 10
10.469878828
 20
11.4852757487
 30
0.0
 10
10.4673163432
 20
11.4814577611
 30
0.0
 10
10.4653947967
 20
11.4789902245
 30
0.0
 10
10.4643752842
 20
11.4777630222
 30
0.0
  0
SPLINE
  5
34B
100
AcDbEntity
  8
0
100
AcDbSpline
 62
9
  6
CONTINUOUS
 70
0
 71
3
 72
14
 73
10
 74
0
 42
0.0000001
 43
0.0000001
 44
0.0000000001
 40
0.0
 40
0.0
 40
0.0
 40
0.0
 40
0.1137814391
 40
0.2287578647
 40
0.346039803
 40
0.4666831993
 40
0.7215367926
 40
0.8575346199
 40
1.0
 40
1.0
 40
1.0
 40
1.0
 10
10.4789423429
 20
11.5109115342
 30
0.0
 10
10.4789423429
 20
11.5095009471
 30
0.0
 10
10.4787872164
 20
11.506662585
 30
0.0
 10
10.4780917416
 20
11.5024215963
 30
0.0
 10
10.4769341416
 20
11.4981942188
 30
0.0
 10
10.4747399131
 20
11.4924838513
 30
0.0
 10
10.471628212
 20
11.4869149549
 30
0.0
 10
10.4677518707
 20
11.4815548906
 30
0.0
 10
10.4655297042
 20
11.4789081146
 30
0.0
 10
10.4643511376
 20
11.4775926626
 30
0.0
  0
SPLINE
  5
34C
100
AcDbEntity
  8
0
100
AcDbSpline
 62
9
  6
CONTINUOUS
 70
0
 71
3
 72
61
 73
57
 74
0
 42
0.0000001
 43
0.0000001
 44
0.0000000001
 40
0.0
 40
0.0
 40
0.0
 40
0.0
 40
0.0075226898
 40
0.0151810094
 40
0.0231000915
 40
0.031392876
 40
0.0401539978
 40
0.0494596052
 40
0.0593685879
 40
0.0699244436
 40
0.081157572
 40
0.0930871013
 40
0.1057229613
 40
0.1190672454
 40
0.1331153176
 40
0.1478570602
 40
0.1632773735
 40
0.1793569512
 40
0.1960728875
 40
0.2133988544
 40
0.2313057367
 40
0.2497618175
 40
0.2687329887
 40
0.2881831931
 40
0.3283650844
 40
0.3699874448
 40
0.4127074998
 40
0.4561675325
 40
0.5
 40
0.5438324675
 40
0.5872925002
 40
0.6300125552
 40
0.6716349156
 40
0.7118168069
 40
0.7312670113
 40
0.7502381825
 40
0.7686942633
 40
0.7866011456
 40
0.8039271125
 40
0.8206430488
 40
0.8367226265
 40
0.8521429398
 40
0.8668846824
 40
0.8809327546
 40
0.8942770387
 40
0.9069128987
 40
0.918842428
 40
0.9300755564
 40
0.9406314121
 40
0.9505403948
 40
0.9598460022
 40
0.968607124
 40
0.9768999085
 40
0.9848189906
 40
0.9924773102
 40
1.0
 40
1.0
 40
1.0
 40
1.0
 10
10.4501922856
 20
11.1920212481
 30
0.0
 10
10.4501922856
 20
11.193724722
 30
0.0
 10
10.4499429516
 20
11.1971673087
 30
0.0
 10
10.448827372
 20
11.202294166
 30
0.0
 10
10.4469750849
 20
11.2073884564
 30
0.0
 10
10.444395263
 20
11.2124352806
 30
0.0
 10
10.4410979007
 20
11.2174240259
 30
0.0
 10
10.4370930724
 20
11.2223442667
 30
0.0
 10
10.4323917084
 20
11.2271862569
 30
0.0
 10
10.4270054788
 20
11.2319401367
 30
0.0
 10
10.4209471215
 20
11.2365957013
 30
0.0
 10
10.4142309474
 20
11.2411428372
 30
0.0
 10
10.4068726492
 20
11.2455712178
 30
0.0
 10
10.3988894982
 20
11.2498705888
 30
0.0
 10
10.3903003659
 20
11.2540309814
 30
0.0
 10
10.381125554
 20
11.2580424522
 30
0.0
 10
10.3713868901
 20
11.2618954914
 30
0.0
 10
10.3611075944
 20
11.2655809057
 30
0.0
 10
10.350312201
 20
11.2690897535
 30
0.0
 10
10.3390265703
 20
11.2724136793
 30
0.0
 10
10.3272777369
 20
11.2755446327
 30
0.0
 10
10.3150938924
 20
11.2784750137
 30
0.0
 10
10.3025042587
 20
11.281197878
 30
0.0
 10
10.2850278891
 20
11.2845792145
 30
0.0
 10
10.2623839429
 20
11.2882234983
 30
0.0
 10
10.2343867446
 20
11.2916336551
 30
0.0
 10
10.2055451805
 20
11.2940935056
 30
0.0
 10
10.1761363236
 20
11.2955791033
 30
0.0
 10
10.1464423428
 20
11.2960759245
 30
0.0
 10
10.1167483619
 20
11.2955791033
 30
0.0
 10
10.087339505
 20
11.2940935056
 30
0.0
 10
10.0584979409
 20
11.2916336551
 30
0.0
 10
10.0305007426
 20
11.2882234983
 30
0.0
 10
10.0078567964
 20
11.2845792145
 30
0.0
 10
9.9903804268
 20
11.281197878
 30
0.0
 10
9.9777907931
 20
11.2784750137
 30
0.0
 10
9.9656069486
 20
11.2755446327
 30
0.0
 10
9.9538581152
 20
11.2724136793
 30
0.0
 10
9.9425724845
 20
11.2690897535
 30
0.0
 10
9.9317770911
 20
11.2655809057
 30
0.0
 10
9.9214977954
 20
11.2618954914
 30
0.0
 10
9.9117591315
 20
11.2580424522
 30
0.0
 10
9.9025843196
 20
11.2540309814
 30
0.0
 10
9.8939951874
 20
11.2498705888
 30
0.0
 10
9.8860120364
 20
11.2455712178
 30
0.0
 10
9.8786537381
 20
11.2411428372
 30
0.0
 10
9.871937564
 20
11.2365957013
 30
0.0
 10
9.8658792068
 20
11.2319401367
 30
0.0
 10
9.8604929771
 20
11.2271862569
 30
0.0
 10
9.8557916132
 20
11.2223442667
 30
0.0
 10
9.8517867848
 20
11.2174240259
 30
0.0
 10
9.8484894225
 20
11.2124352806
 30
0.0
 10
9.8459096006
 20
11.2073884564
 30
0.0
 10
9.8440573135
 20
11.202294166
 30
0.0
 10
9.8429417339
 20
11.1971673087
 30
0.0
 10
9.8426923999
 20
11.193724722
 30
0.0
 10
9.8426923999
 20
11.1920212481
 30
0.0
  0
SPLINE
  5
34D
100
AcDbEntity
  8
0
100
AcDbSpline
 62
9
  6
CONTINUOUS
 70
0
 71
3
 72
61
 73
57
 74
0
 42
0.0000001
 43
0.0000001
 44
0.0000000001
 40
0.0
 40
0.0
 40
0.0
 40
0.0
 40
0.0075226437
 40
0.0151810088
 40
0.023100109
 40
0.0313928716
 40
0.0401539905
 40
0.0494596137
 40
0.0593685804
 40
0.0699244479
 40
0.0811575761
 40
0.0930870871
 40
0.1057229766
 40
0.1190672375
 40
0.133115314
 40
0.1478570728
 40
0.1632773548
 40
0.1793569669
 40
0.1960728861
 40
0.213398841
 40
0.2313057547
 40
0.2497618028
 40
0.2687329948
 40
0.2881831991
 40
0.3283650984
 40
0.3699874428
 40
0.4127074916
 40
0.4561675308
 40
0.5
 40
0.5438324692
 40
0.5872925084
 40
0.6300125572
 40
0.6716349016
 40
0.7118168009
 40
0.7312670052
 40
0.7502381972
 40
0.7686942453
 40
0.786601159
 40
0.8039271139
 40
0.8206430331
 40
0.8367226452
 40
0.8521429272
 40
0.866884686
 40
0.8809327625
 40
0.8942770234
 40
0.9069129129
 40
0.9188424239
 40
0.9300755521
 40
0.9406314196
 40
0.9505403863
 40
0.9598460095
 40
0.9686071284
 40
0.976899891
 40
0.9848189912
 40
0.9924773563
 40
1.0
 40
1.0
 40
1.0
 40
1.0
 10
10.4352348888
 20
11.4194228276
 30
0.0
 10
10.4352348888
 20
11.4210424083
 30
0.0
 10
10.4349978191
 20
11.4243154718
 30
0.0
 10
10.4339371953
 20
11.429189878
 30
0.0
 10
10.4321761094
 20
11.4340333204
 30
0.0
 10
10.4297233185
 20
11.4388316205
 30
0.0
 10
10.4265883411
 20
11.4435747158
 30
0.0
 10
10.4227807019
 20
11.4482526557
 30
0.0
 10
10.4183108632
 20
11.452856235
 30
0.0
 10
10.4131898509
 20
11.4573760064
 30
0.0
 10
10.4074298242
 20
11.4618023178
 30
0.0
 10
10.4010443837
 20
11.4661255656
 30
0.0
 10
10.3940484075
 20
11.4703358457
 30
0.0
 10
10.3864583799
 20
11.474423533
 30
0.0
 10
10.3782921952
 20
11.4783790529
 30
0.0
 10
10.3695691677
 20
11.482192968
 30
0.0
 10
10.3603100702
 20
11.4858563121
 30
0.0
 10
10.3505369416
 20
11.4893602092
 30
0.0
 10
10.3402731451
 20
11.4926962897
 30
0.0
 10
10.3295432503
 20
11.4958565528
 30
0.0
 10
10.3183729513
 20
11.4988332911
 30
0.0
 10
10.3067890753
 20
11.501619415
 30
0.0
 10
10.2948193829
 20
11.504208172
 30
0.0
 10
10.2782035884
 20
11.5074230105
 30
0.0
 10
10.2566746853
 20
11.5108878256
 30
0.0
 10
10.2300561444
 20
11.514130079
 30
0.0
 10
10.2026348139
 20
11.5164688083
 30
0.0
 10
10.1746741206
 20
11.5178812365
 30
0.0
 10
10.1464423428
 20
11.5183535797
 30
0.0
 10
10.1182105649
 20
11.5178812365
 30
0.0
 10
10.0902498716
 20
11.5164688083
 30
0.0
 10
10.0628285411
 20
11.514130079
 30
0.0
 10
10.0362100002
 20
11.5108878256
 30
0.0
 10
10.0146810971
 20
11.5074230105
 30
0.0
 10
9.9980653026
 20
11.504208172
 30
0.0
 10
9.9860956102
 20
11.501619415
 30
0.0
 10
9.9745117342
 20
11.4988332911
 30
0.0
 10
9.9633414353
 20
11.4958565528
 30
0.0
 10
9.9526115404
 20
11.4926962897
 30
0.0
 10
9.9423477439
 20
11.4893602092
 30
0.0
 10
9.9325746154
 20
11.4858563121
 30
0.0
 10
9.9233155178
 20
11.482192968
 30
0.0
 10
9.9145924904
 20
11.4783790529
 30
0.0
 10
9.9064263056
 20
11.474423533
 30
0.0
 10
9.898836278
 20
11.4703358457
 30
0.0
 10
9.8918403018
 20
11.4661255656
 30
0.0
 10
9.8854548613
 20
11.4618023178
 30
0.0
 10
9.8796948346
 20
11.4573760064
 30
0.0
 10
9.8745738223
 20
11.452856235
 30
0.0
 10
9.8701039836
 20
11.4482526557
 30
0.0
 10
9.8662963444
 20
11.4435747158
 30
0.0
 10
9.863161367
 20
11.4388316205
 30
0.0
 10
9.8607085761
 20
11.4340333204
 30
0.0
 10
9.8589474902
 20
11.429189878
 30
0.0
 10
9.8578868664
 20
11.4243154718
 30
0.0
 10
9.8576497968
 20
11.4210424083
 30
0.0
 10
9.8576497968
 20
11.4194228276
 30
0.0
  0
SPLINE
  5
34E
100
AcDbEntity
  8
0
100
AcDbSpline
 62
9
  6
CONTINUOUS
 70
0
 71
3
 72
13
 73
9
 74
0
 42
0.0000001
 43
0.0000001
 44
0.0000000001
 40
0.0
 40
0.0
 40
0.0
 40
0.0
 40
0.1185109962
 40
0.2395515119
 40
0.3627619238
 40
0.4878242697
 40
0.7422039882
 40
1.0
 40
1.0
 40
1.0
 40
1.0
 10
10.4830200285
 20
4.7866120675
 30
0.0
 10
10.4823580834
 20
4.7898353226
 30
0.0
 10
10.4811427353
 20
4.7963764061
 30
0.0
 10
10.479656142
 20
4.8063403226
 30
0.0
 10
10.4784928911
 20
4.8165304024
 30
0.0
 10
10.4773740938
 20
4.8304440587
 30
0.0
 10
10.4768248924
 20
4.8481420446
 30
0.0
 10
10.4773158028
 20
4.8623659947
 30
0.0
 10
10.4777919435
 20
4.8695079897
 30
0.0
  0
SPLINE
  5
34F
100
AcDbEntity
  8
0
100
AcDbSpline
 62
9
  6
CONTINUOUS
 70
0
 71
3
 72
13
 73
9
 74
0
 42
0.0000001
 43
0.0000001
 44
0.0000000001
 40
0.0
 40
0.0
 40
0.0
 40
0.0
 40
0.2577960126
 40
0.512175732
 40
0.6372380775
 40
0.7604484888
 40
0.8814890047
 40
1.0
 40
1.0
 40
1.0
 40
1.0
 10
9.8150927419
 20
4.8695079897
 30
0.0
 10
9.8155688829
 20
4.8623659947
 30
0.0
 10
9.8160597921
 20
4.8481420445
 30
0.0
 10
9.8155105904
 20
4.8304440587
 30
0.0
 10
9.814391794
 20
4.8165304023
 30
0.0
 10
9.8132285435
 20
4.8063403224
 30
0.0
 10
9.8117419497
 20
4.7963764061
 30
0.0
 10
9.8105266016
 20
4.7898353226
 30
0.0
 10
9.809864657
 20
4.7866120675
 30
0.0
  0
LINE
  5
350
100
AcDbEntity
  8
0
100
AcDbLine
 62
9
  6
CONTINUOUS
 10
9.809864657
 20
4.7866120675
 11
9.7897266981
 21
4.7081920803
  0
LINE
  5
351
100
AcDbEntity
  8
0
100
AcDbLine
 62
9
  6
CONTINUOUS
 10
10.5031579873
 20
4.7081920803
 11
10.4830200285
 21
4.7866120675
  0
SPLINE
  5
352
100
AcDbEntity
  8
0
100
AcDbSpline
 62
9
  6
CONTINUOUS
 70
0
 71
3
 72
22
 73
18
 74
0
 42
0.0000001
 43
0.0000001
 44
0.0000000001
 40
0.0
 40
0.0
 40
0.0
 40
0.0
 40
0.090892258
 40
0.1787957599
 40
0.3442023255
 40
0.4211817994
 40
0.4940296721
 40
0.562587569
 40
0.6267479172
 40
0.6864742914
 40
0.7418001778
 40
0.7928729745
 40
0.8399614143
 40
0.8835011846
 40
0.9241181396
 40
0.9626266147
 40
1.0
 40
1.0
 40
1.0
 40
1.0
 10
9.7897266321
 20
4.7081920803
 30
0.0
 10
9.7895444183
 20
4.7071982109
 30
0.0
 10
9.7891554976
 20
4.7052485064
 30
0.0
 10
9.7882803718
 20
4.7015230409
 30
0.0
 10
9.7872465811
 20
4.6979950145
 30
0.0
 10
9.7860488541
 20
4.6947006575
 30
0.0
 10
9.785116026
 20
4.6924582207
 30
0.0
 10
9.7841302656
 20
4.6903952424
 30
0.0
 10
9.7830949891
 20
4.6885214343
 30
0.0
 10
9.7820154554
 20
4.6868449213
 30
0.0
 10
9.780896039
 20
4.68537333
 30
0.0
 10
9.77974167
 20
4.6841130437
 30
0.0
 10
9.7785563847
 20
4.6830700541
 30
0.0
 10
9.7773443158
 20
4.6822497752
 30
0.0
 10
9.7761095315
 20
4.6816576076
 30
0.0
 10
9.7748582885
 20
4.6812994346
 30
0.0
 10
9.7740127401
 20
4.6812187218
 30
0.0
 10
9.7735972662
 20
4.6812187254
 30
0.0
  0
SPLINE
  5
353
100
AcDbEntity
  8
0
100
AcDbSpline
 62
9
  6
CONTINUOUS
 70
0
 71
3
 72
22
 73
18
 74
0
 42
0.0000001
 43
0.0000001
 44
0.0000000001
 40
0.0
 40
0.0
 40
0.0
 40
0.0
 40
0.0372893587
 40
0.0757341655
 40
0.1163107406
 40
0.1598265684
 40
0.2068973636
 40
0.2579542429
 40
0.3132664408
 40
0.3729829083
 40
0.4371409258
 40
0.5057049046
 40
0.5785560052
 40
0.6555260774
 40
0.7364179699
 40
0.8210084384
 40
1.0
 40
1.0
 40
1.0
 40
1.0
 10
10.5192981707
 20
4.6812187254
 30
0.0
 10
10.518883715
 20
4.6812187137
 30
0.0
 10
10.5180399779
 20
4.6812994777
 30
0.0
 10
10.5167912063
 20
4.6816577251
 30
0.0
 10
10.5155583128
 20
4.6822498735
 30
0.0
 10
10.5143476412
 20
4.6830700486
 30
0.0
 10
10.5131635798
 20
4.6841129799
 30
0.0
 10
10.512010496
 20
4.6853732634
 30
0.0
 10
10.5108924356
 20
4.6868448627
 30
0.0
 10
10.5098142571
 20
4.6885214208
 30
0.0
 10
10.5087800684
 20
4.6903952405
 30
0.0
 10
10.5077948381
 20
4.6924580421
 30
0.0
 10
10.5068628098
 20
4.694700269
 30
0.0
 10
10.5059887834
 20
4.6971118587
 30
0.0
 10
10.5051762462
 20
4.6996819614
 30
0.0
 10
10.5041595644
 20
4.70337385
 30
0.0
 10
10.5035292865
 20
4.7062376201
 30
0.0
 10
10.5031579873
 20
4.7081920803
 30
0.0
  0
SPLINE
  5
354
100
AcDbEntity
  8
0
100
AcDbSpline
 62
9
  6
CONTINUOUS
 70
0
 71
3
 72
11
 73
7
 74
0
 42
0.0000001
 43
0.0000001
 44
0.0000000001
 40
0.0
 40
0.0
 40
0.0
 40
0.0
 40
0.2572426871
 40
0.5105461861
 40
0.7584685343
 40
1.0
 40
1.0
 40
1.0
 40
1.0
 10
10.7141336304
 20
4.6985435571
 30
0.0
 10
10.7126914962
 20
4.7003865302
 30
0.0
 10
10.7100116143
 20
4.7041912488
 30
0.0
 10
10.7066216885
 20
4.7102140807
 30
0.0
 10
10.7039207069
 20
4.7164201013
 30
0.0
 10
10.7025702839
 20
4.7206728989
 30
0.0
 10
10.7020176689
 20
4.7227994947
 30
0.0
  0
SPLINE
  5
355
100
AcDbEntity
  8
0
100
AcDbSpline
 62
9
  6
CONTINUOUS
 70
0
 71
3
 72
11
 73
7
 74
0
 42
0.0000001
 43
0.0000001
 44
0.0000000001
 40
0.0
 40
0.0
 40
0.0
 40
0.0
 40
0.2612381048
 40
0.5149337023
 40
0.7609916889
 40
1.0
 40
1.0
 40
1.0
 40
1.0
 10
10.6309856225
 20
4.7227996076
 30
0.0
 10
10.6315218973
 20
4.7207318374
 30
0.0
 10
10.632359821
 20
4.7165943879
 30
0.0
 10
10.6328516846
 20
4.7103745977
 30
0.0
 10
10.6325203769
 20
4.7043239049
 30
0.0
 10
10.631719769
 20
4.7004199551
 30
0.0
 10
10.6311731203
 20
4.6985435571
 30
0.0
  0
LINE
  5
356
100
AcDbEntity
  8
0
100
AcDbLine
 62
9
  6
CONTINUOUS
 10
10.6059817289
 20
4.8192014408
 11
10.6309856225
 21
4.7227996076
  0
SPLINE
  5
357
100
AcDbEntity
  8
0
100
AcDbSpline
 62
9
  6
CONTINUOUS
 70
0
 71
3
 72
10
 73
6
 74
0
 42
0.0000001
 43
0.0000001
 44
0.0000000001
 40
0.0
 40
0.0
 40
0.0
 40
0.0
 40
0.2393930316
 40
0.4878687805
 40
1.0
 40
1.0
 40
1.0
 40
1.0
 10
9.7825371055
 20
4.9593417565
 30
0.0
 10
9.7824179818
 20
4.9587623031
 30
0.0
 10
9.7822098999
 20
4.9575740217
 30
0.0
 10
9.7819120631
 20
4.9551202089
 30
0.0
 10
9.7818248771
 20
4.953238773
 30
0.0
 10
9.7818249265
 20
4.9519732301
 30
0.0
  0
SPLINE
  5
358
100
AcDbEntity
  8
0
100
AcDbSpline
 62
9
  6
CONTINUOUS
 70
0
 71
3
 72
20
 73
16
 74
0
 42
0.0000001
 43
0.0000001
 44
0.0000000001
 40
0.0
 40
0.0
 40
0.0
 40
0.0
 40
0.1703661841
 40
0.3342482207
 40
0.4869077141
 40
0.5578037411
 40
0.6244852681
 40
0.6866447012
 40
0.7440605038
 40
0.7966642834
 40
0.8445429049
 40
0.8880290454
 40
0.9277512592
 40
0.9646585036
 40
1.0
 40
1.0
 40
1.0
 40
1.0
 10
10.5804725394
 20
4.6660981755
 30
0.0
 10
10.5804500655
 20
4.667097463
 30
0.0
 10
10.5803310533
 20
4.6690573025
 30
0.0
 10
10.5799295402
 20
4.6718886648
 30
0.0
 10
10.5794102845
 20
4.6741058961
 30
0.0
 10
10.5788877874
 20
4.6757274546
 30
0.0
 10
10.5784613885
 20
4.6768198556
 30
0.0
 10
10.5779951157
 20
4.6778092392
 30
0.0
 10
10.5774924124
 20
4.6786868858
 30
0.0
 10
10.5769578969
 20
4.6794454845
 30
0.0
 10
10.5763953996
 20
4.680078494
 30
0.0
 10
10.575808768
 20
4.6805802681
 30
0.0
 10
10.5752014368
 20
4.6809454847
 30
0.0
 10
10.5745783699
 20
4.6811680106
 30
0.0
 10
10.574153042
 20
4.6812187254
 30
0.0
 10
10.5739456931
 20
4.6812187254
 30
0.0
  0
SPLINE
  5
359
100
AcDbEntity
  8
0
100
AcDbSpline
 62
9
  6
CONTINUOUS
 70
0
 71
3
 72
12
 73
8
 74
0
 42
0.0000001
 43
0.0000001
 44
0.0000000001
 40
0.0
 40
0.0
 40
0.0
 40
0.0
 40
0.2628921674
 40
0.5198208243
 40
0.7674653529
 40
0.8861681637
 40
1.0
 40
1.0
 40
1.0
 40
1.0
 10
11.0553907008
 20
4.8695079897
 30
0.0
 10
11.0556812592
 20
4.8767417549
 30
0.0
 10
11.0563121158
 20
4.8910430205
 30
0.0
 10
11.0574311884
 20
4.9121483274
 30
0.0
 10
11.0585142478
 20
4.9292784933
 30
0.0
 10
11.0594742187
 20
4.9424669932
 30
0.0
 10
11.0599855935
 20
4.9488502307
 30
0.0
 10
11.0602499316
 20
4.9519737986
 30
0.0
  0
SPLINE
  5
35A
100
AcDbEntity
  8
0
100
AcDbSpline
 62
9
  6
CONTINUOUS
 70
0
 71
3
 72
16
 73
12
 74
0
 42
0.0000001
 43
0.0000001
 44
0.0000000001
 40
0.0
 40
0.0
 40
0.0
 40
0.0
 40
0.1216105174
 40
0.1829829666
 40
0.2446508519
 40
0.3687573394
 40
0.4311639463
 40
0.4937684491
 40
0.6195137493
 40
0.7458802924
 40
1.0
 40
1.0
 40
1.0
 40
1.0
 10
10.6956324672
 20
4.9519737701
 30
0.0
 10
10.697426997
 20
4.94891005
 30
0.0
 10
10.6999562851
 20
4.9441981695
 30
0.0
 10
10.7030421102
 20
4.9377556315
 30
0.0
 10
10.7059772951
 20
4.9311628335
 30
0.0
 10
10.7086684812
 20
4.9244316773
 30
0.0
 10
10.7111471121
 20
4.9175933437
 30
0.0
 10
10.7135042817
 20
4.9106615267
 30
0.0
 10
10.7162164504
 20
4.9018800451
 30
0.0
 10
10.7201116261
 20
4.8876205261
 30
0.0
 10
10.7225697729
 20
4.8767800287
 30
0.0
 10
10.7240411
 20
4.8695079897
 30
0.0
  0
SPLINE
  5
35B
100
AcDbEntity
  8
0
100
AcDbSpline
 62
9
  6
CONTINUOUS
 70
0
 71
3
 72
12
 73
8
 74
0
 42
0.0000001
 43
0.0000001
 44
0.0000000001
 40
0.0
 40
0.0
 40
0.0
 40
0.0
 40
0.2553647367
 40
0.509011827
 40
0.7581040575
 40
0.8801383004
 40
1.0
 40
1.0
 40
1.0
 40
1.0
 10
10.7240411
 20
4.8695079897
 30
0.0
 10
10.7244397978
 20
4.8623401862
 30
0.0
 10
10.7256376572
 20
4.8480719095
 30
0.0
 10
10.7286230219
 20
4.8269587303
 30
0.0
 10
10.7321363539
 20
4.8097366463
 30
0.0
 10
10.7355511899
 20
4.7963609185
 30
0.0
 10
10.7374527063
 20
4.7898302449
 30
0.0
 10
10.7384514238
 20
4.7866120675
 30
0.0
  0
LINE
  5
35C
100
AcDbEntity
  8
0
100
AcDbLine
 62
9
  6
CONTINUOUS
 10
10.7384514238
 20
4.7866120675
 11
10.7594155839
 21
4.7081920803
  0
LINE
  5
35D
100
AcDbEntity
  8
0
100
AcDbLine
 62
9
  6
CONTINUOUS
 10
11.1161312286
 20
4.7081920803
 11
11.0750291096
 21
4.7866120675
  0
SPLINE
  5
35E
100
AcDbEntity
  8
0
100
AcDbSpline
 62
9
  6
CONTINUOUS
 70
0
 71
3
 72
19
 73
15
 74
0
 42
0.0000001
 43
0.0000001
 44
0.0000000001
 40
0.0
 40
0.0
 40
0.0
 40
0.0
 40
0.1512687078
 40
0.2242342662
 40
0.2952099831
 40
0.4309475899
 40
0.5582657403
 40
0.677400468
 40
0.7342439427
 40
0.7894810065
 40
0.8433639207
 40
0.8961964143
 40
0.9483024339
 40
1.0
 40
1.0
 40
1.0
 40
1.0
 10
10.7594155287
 20
4.7081920803
 30
0.0
 10
10.7600650176
 20
4.7062160844
 30
0.0
 10
10.761166162
 20
4.7033289044
 30
0.0
 10
10.7629057859
 20
4.6996595644
 30
0.0
 10
10.7647430297
 20
4.6962793004
 30
0.0
 10
10.7672899262
 20
4.6924412519
 30
0.0
 10
10.770766225
 20
4.6884776015
 30
0.0
 10
10.7739784958
 20
4.6857850794
 30
0.0
 10
10.7766682405
 20
4.6840827545
 30
0.0
 10
10.7787047322
 20
4.6830450745
 30
0.0
 10
10.7807820062
 20
4.6822322779
 30
0.0
 10
10.7828906158
 20
4.6816485239
 30
0.0
 10
10.7850196011
 20
4.681297313
 30
0.0
 10
10.7864481328
 20
4.6812187218
 30
0.0
 10
10.7871589929
 20
4.6812187254
 30
0.0
  0
SPLINE
  5
35F
100
AcDbEntity
  8
0
100
AcDbSpline
 62
9
  6
CONTINUOUS
 70
0
 71
3
 72
15
 73
11
 74
0
 42
0.0000001
 43
0.0000001
 44
0.0000000001
 40
0.0
 40
0.0
 40
0.0
 40
0.0
 40
0.1245412727
 40
0.2491571782
 40
0.3738638254
 40
0.4987191229
 40
0.6237497606
 40
0.748966666
 40
0.8743943074
 40
1.0
 40
1.0
 40
1.0
 40
1.0
 10
11.1600061405
 20
4.6812187254
 30
0.0
 10
11.1577586298
 20
4.6812187021
 30
0.0
 10
11.1532561048
 20
4.6815300941
 30
0.0
 10
11.1466334655
 20
4.6829218109
 30
0.0
 10
11.1402585524
 20
4.6852131107
 30
0.0
 10
11.1342518296
 20
4.6883603354
 30
0.0
 10
11.1287249276
 20
4.6923053122
 30
0.0
 10
11.1237800264
 20
4.6969744338
 30
0.0
 10
11.1195105328
 20
4.7022797865
 30
0.0
 10
11.1171660198
 20
4.7061753442
 30
0.0
 10
11.1161312286
 20
4.7081920803
 30
0.0
  0
SPLINE
  5
360
100
AcDbEntity
  8
0
100
AcDbSpline
 62
9
  6
CONTINUOUS
 70
0
 71
3
 72
10
 73
6
 74
0
 42
0.0000001
 43
0.0000001
 44
0.0000000001
 40
0.0
 40
0.0
 40
0.0
 40
0.0
 40
0.2510867799
 40
0.5013993273
 40
1.0
 40
1.0
 40
1.0
 40
1.0
 10
10.5987384558
 20
4.8447365343
 30
0.0
 10
10.5993996827
 20
4.8426155424
 30
0.0
 10
10.6006865903
 20
4.8383695957
 30
0.0
 10
10.6031430799
 20
4.8298690579
 30
0.0
 10
10.6048741064
 20
4.823471867
 30
0.0
 10
10.6059817289
 20
4.8192014408
 30
0.0
  0
SPLINE
  5
361
100
AcDbEntity
  8
0
100
AcDbSpline
 62
9
  6
CONTINUOUS
 70
0
 71
3
 72
38
 73
34
 74
0
 42
0.0000001
 43
0.0000001
 44
0.0000000001
 40
0.0
 40
0.0
 40
0.0
 40
0.0
 40
0.0610641191
 40
0.092033945
 40
0.1233070677
 40
0.1548922623
 40
0.1867895422
 40
0.2189879928
 40
0.2514663767
 40
0.2841845355
 40
0.31707452
 40
0.3500300522
 40
0.3828833272
 40
0.3992013957
 40
0.4153857047
 40
0.4234135996
 40
0.4313931819
 40
0.4472128941
 40
0.4628886429
 40
0.4784723638
 40
0.4939960553
 40
0.5094780468
 40
0.5403572184
 40
0.5711601233
 40
0.6019116556
 40
0.6326258206
 40
0.6633117338
 40
0.6939753958
 40
0.75525255
 40
0.8164810434
 40
0.8776756169
 40
0.9388461598
 40
1.0
 40
1.0
 40
1.0
 40
1.0
 10
10.5103584958
 20
4.9593417565
 30
0.0
 10
10.5136060494
 20
4.9593415634
 30
0.0
 10
10.5185067068
 20
4.9590776117
 30
0.0
 10
10.5250037649
 20
4.9581680029
 30
0.0
 10
10.5298993268
 20
4.9571849433
 30
0.0
 10
10.5347723172
 20
4.955887879
 30
0.0
 10
10.539598834
 20
4.9542645088
 30
0.0
 10
10.5443505639
 20
4.9523045399
 30
0.0
 10
10.5489916878
 20
4.9499943
 30
0.0
 10
10.5534777661
 20
4.9473218623
 30
0.0
 10
10.5577542324
 20
4.9442795256
 30
0.0
 10
10.5617494337
 20
4.9408636539
 30
0.0
 10
10.5647712027
 20
4.9376958765
 30
0.0
 10
10.5669314196
 20
4.9349702299
 30
0.0
 10
10.5681533138
 20
4.933192002
 30
0.0
 10
10.5690431623
 20
4.9317289843
 30
0.0
 10
10.5698697879
 20
4.9302515108
 30
0.0
 10
10.5708039403
 20
4.9283700003
 30
0.0
 10
10.5718132721
 20
4.926078176
 30
0.0
 10
10.5727555373
 20
4.9237752582
 30
0.0
 10
10.573653843
 20
4.9214659941
 30
0.0
 10
10.5748100045
 20
4.918384492
 30
0.0
 10
10.5762015341
 20
4.9145236644
 30
0.0
 10
10.5778191653
 20
4.9098815223
 30
0.0
 10
10.5794002246
 20
4.9052360803
 30
0.0
 10
10.5809544374
 20
4.9005881661
 30
0.0
 10
10.5824884174
 20
4.8959384617
 30
0.0
 10
10.5845116674
 20
4.8897386169
 30
0.0
 10
10.5870092209
 20
4.8819849556
 30
0.0
 10
10.5899722653
 20
4.8726754413
 30
0.0
 10
10.5929107189
 20
4.8633640857
 30
0.0
 10
10.5958314204
 20
4.8540513117
 30
0.0
 10
10.5977704646
 20
4.8478414678
 30
0.0
 10
10.5987384558
 20
4.8447365343
 30
0.0
  0
SPLINE
  5
362
100
AcDbEntity
  8
0
100
AcDbSpline
 62
9
  6
CONTINUOUS
 70
0
 71
3
 72
9
 73
5
 74
0
 42
0.0000001
 43
0.0000001
 44
0.0000000001
 40
0.0
 40
0.0
 40
0.0
 40
0.0
 40
0.4908081358
 40
1.0
 40
1.0
 40
1.0
 40
1.0
 10
10.6945591091
 20
4.9593417565
 30
0.0
 10
10.6949205596
 20
4.9581748455
 30
0.0
 10
10.6954570988
 20
4.9557327063
 30
0.0
 10
10.6956324669
 20
4.9532405953
 30
0.0
 10
10.6956325101
 20
4.9519732301
 30
0.0
  0
SPLINE
  5
363
100
AcDbEntity
  8
0
100
AcDbSpline
 62
9
  6
CONTINUOUS
 70
0
 71
3
 72
15
 73
11
 74
0
 42
0.0000001
 43
0.0000001
 44
0.0000000001
 40
0.0
 40
0.0
 40
0.0
 40
0.0
 40
0.1253172508
 40
0.2506032722
 40
0.3757698056
 40
0.5008278758
 40
0.6257616084
 40
0.7505729265
 40
0.8753230218
 40
1.0
 40
1.0
 40
1.0
 40
1.0
 10
11.2032194855
 20
4.6660981755
 30
0.0
 10
11.2031643266
 20
4.667105486
 30
0.0
 10
11.2028629794
 20
4.6691145359
 30
0.0
 10
11.2018556531
 20
4.6719850907
 30
0.0
 10
11.2003278037
 20
4.6746145966
 30
0.0
 10
11.1983350555
 20
4.6769078868
 30
0.0
 10
11.1959479555
 20
4.6787827068
 30
0.0
 10
11.1932519599
 20
4.6801725234
 30
0.0
 10
11.190344706
 20
4.6810264694
 30
0.0
 10
11.1883315792
 20
4.6812187254
 30
0.0
 10
11.1873279139
 20
4.6812187254
 30
0.0
  0
SPLINE
  5
364
100
AcDbEntity
  8
0
100
AcDbSpline
 62
9
  6
CONTINUOUS
 70
0
 71
3
 72
39
 73
35
 74
0
 42
0.0000001
 43
0.0000001
 44
0.0000000001
 40
0.0
 40
0.0
 40
0.0
 40
0.0
 40
0.0611555396
 40
0.1223279801
 40
0.1835244805
 40
0.244754959
 40
0.3060341804
 40
0.3366989203
 40
0.3673859527
 40
0.398101291
 40
0.4288540878
 40
0.4596583792
 40
0.4905391608
 40
0.5060221182
 40
0.5215469917
 40
0.5371322851
 40
0.552810412
 40
0.5607002334
 40
0.5686339633
 40
0.576615114
 40
0.5846449103
 40
0.6008317074
 40
0.6171516077
 40
0.6335599951
 40
0.6500195893
 40
0.6829739184
 40
0.7158613671
 40
0.7485767582
 40
0.7810526819
 40
0.8132487486
 40
0.8451437114
 40
0.8767267771
 40
0.9389384277
 40
1.0
 40
1.0
 40
1.0
 40
1.0
 10
9.6941674077
 20
4.8448041408
 30
0.0
 10
9.6951349855
 20
4.8479077464
 30
0.0
 10
9.697073132
 20
4.854114967
 30
0.0
 10
9.6999927444
 20
4.8634237321
 30
0.0
 10
9.702930055
 20
4.8727311092
 30
0.0
 10
9.7058920069
 20
4.8820366356
 30
0.0
 10
9.7083886783
 20
4.8897869701
 30
0.0
 10
9.7104112559
 20
4.8959841485
 30
0.0
 10
9.7119447558
 20
4.9006318519
 30
0.0
 10
9.7134985138
 20
4.9052777642
 30
0.0
 10
9.7150791774
 20
4.9099211952
 30
0.0
 10
9.7166964773
 20
4.9145613215
 30
0.0
 10
9.7180878402
 20
4.9184204487
 30
0.0
 10
9.7192439953
 20
4.9215005632
 30
0.0
 10
9.7201424926
 20
4.9238087647
 30
0.0
 10
9.7210849898
 20
4.9261106205
 30
0.0
 10
9.7219256467
 20
4.9280151729
 30
0.0
 10
9.7226530514
 20
4.9295237196
 30
0.0
 10
9.7232354669
 20
4.9306473697
 30
0.0
 10
9.7238581278
 20
4.9317578501
 30
0.0
 10
9.7247496625
 20
4.9332192984
 30
0.0
 10
9.7259724331
 20
4.9349960522
 30
0.0
 10
9.7275900429
 20
4.9370341234
 30
0.0
 10
9.7293389272
 20
4.9389799612
 30
0.0
 10
9.7318193415
 20
4.9414499213
 30
0.0
 10
9.7351517471
 20
4.9442960064
 30
0.0
 10
9.739426898
 20
4.9473347567
 30
0.0
 10
9.7439115484
 20
4.9500043192
 30
0.0
 10
9.7485507848
 20
4.9523120902
 30
0.0
 10
9.7533004635
 20
4.9542698185
 30
0.0
 10
9.7581247738
 20
4.9558916378
 30
0.0
 10
9.7645855186
 20
4.9576099859
 30
0.0
 10
9.7727220111
 20
4.9589883514
 30
0.0
 10
9.7792804705
 20
4.959341445
 30
0.0
 10
9.7825264097
 20
4.9593417565
 30
0.0
  0
SPLINE
  5
365
100
AcDbEntity
  8
0
100
AcDbSpline
 62
9
  6
CONTINUOUS
 70
0
 71
3
 72
53
 73
49
 74
0
 42
0.0000001
 43
0.0000001
 44
0.0000000001
 40
0.0
 40
0.0
 40
0.0
 40
0.0
 40
0.0088026119
 40
0.0180735636
 40
0.0278348129
 40
0.0381022311
 40
0.0488864663
 40
0.0601935267
 40
0.072025575
 40
0.0843811944
 40
0.09725612
 40
0.110643249
 40
0.1245333272
 40
0.1389147926
 40
0.1537744141
 40
0.1690970534
 40
0.2010621059
 40
0.234663395
 40
0.2697336028
 40
0.3060899202
 40
0.3435367453
 40
0.3818680988
 40
0.4208698574
 40
0.4603218696
 40
0.5
 40
0.5396781304
 40
0.5791301426
 40
0.6181319012
 40
0.6564632547
 40
0.6939100798
 40
0.7302663972
 40
0.765336605
 40
0.7989378941
 40
0.8309029466
 40
0.8462255859
 40
0.8610852074
 40
0.8754666728
 40
0.889356751
 40
0.90274388
 40
0.9156188056
 40
0.927974425
 40
0.9398064733
 40
0.9511135337
 40
0.9618977689
 40
0.9721651871
 40
0.9819264364
 40
0.9911973881
 40
1.0
 40
1.0
 40
1.0
 40
1.0
 10
10.4705147327
 20
11.6075990102
 30
0.0
 10
10.4692110622
 20
11.6091225211
 30
0.0
 10
10.4664156226
 20
11.6121504341
 30
0.0
 10
10.4618126955
 20
11.6165167177
 30
0.0
 10
10.4567021587
 20
11.620815082
 30
0.0
 10
10.451092504
 20
11.6250387558
 30
0.0
 10
10.4449925045
 20
11.6291813446
 30
0.0
 10
10.4384118998
 20
11.6332364938
 30
0.0
 10
10.4313610758
 20
11.6371977532
 30
0.0
 10
10.4238513034
 20
11.6410589932
 30
0.0
 10
10.415894502
 20
11.64481393
 30
0.0
 10
10.4075034363
 20
11.6484567202
 30
0.0
 10
10.3986914895
 20
11.6519813611
 30
0.0
 10
10.3894728393
 20
11.6553823384
 30
0.0
 10
10.3798622215
 20
11.6586540653
 30
0.0
 10
10.3663552349
 20
11.6628968972
 30
0.0
 10
10.3485930043
 20
11.667820177
 30
0.0
 10
10.3262691452
 20
11.6730549591
 30
0.0
 10
10.3027876355
 20
11.6776628073
 30
0.0
 10
10.2782995781
 20
11.6816137591
 30
0.0
 10
10.252962249
 20
11.6848820675
 30
0.0
 10
10.226938709
 20
11.687446439
 30
0.0
 10
10.2003965097
 20
11.6892901624
 30
0.0
 10
10.1735066325
 20
11.6904012239
 30
0.0
 10
10.1464423428
 20
11.6907723839
 30
0.0
 10
10.1193780531
 20
11.6904012239
 30
0.0
 10
10.0924881759
 20
11.6892901624
 30
0.0
 10
10.0659459765
 20
11.687446439
 30
0.0
 10
10.0399224365
 20
11.6848820675
 30
0.0
 10
10.0145851074
 20
11.6816137591
 30
0.0
 10
9.99009705
 20
11.6776628073
 30
0.0
 10
9.9666155403
 20
11.6730549591
 30
0.0
 10
9.9442916812
 20
11.667820177
 30
0.0
 10
9.9265294506
 20
11.6628968972
 30
0.0
 10
9.913022464
 20
11.6586540653
 30
0.0
 10
9.9034118463
 20
11.6553823384
 30
0.0
 10
9.894193196
 20
11.6519813611
 30
0.0
 10
9.8853812492
 20
11.6484567202
 30
0.0
 10
9.8769901836
 20
11.64481393
 30
0.0
 10
9.8690333821
 20
11.6410589932
 30
0.0
 10
9.8615236097
 20
11.6371977532
 30
0.0
 10
9.8544727857
 20
11.6332364938
 30
0.0
 10
9.847892181
 20
11.6291813446
 30
0.0
 10
9.8417921815
 20
11.6250387558
 30
0.0
 10
9.8361825268
 20
11.620815082
 30
0.0
 10
9.8310719901
 20
11.6165167177
 30
0.0
 10
9.8264690629
 20
11.6121504341
 30
0.0
 10
9.8236736233
 20
11.6091225211
 30
0.0
 10
9.8223699528
 20
11.6075990102
 30
0.0
  0
SPLINE
  5
366
100
AcDbEntity
  8
0
100
AcDbSpline
 62
9
  6
CONTINUOUS
 70
0
 71
3
 72
10
 73
6
 74
0
 42
0.0000001
 43
0.0000001
 44
0.0000000001
 40
0.0
 40
0.0
 40
0.0
 40
0.0
 40
0.4985928437
 40
0.7489083347
 40
1.0
 40
1.0
 40
1.0
 40
1.0
 10
9.686892733
 20
4.8191619771
 30
0.0
 10
9.6880049982
 20
4.8234502901
 30
0.0
 10
9.6897425562
 20
4.829874537
 30
0.0
 10
9.6922101632
 20
4.8384105969
 30
0.0
 10
9.6935033899
 20
4.8426741891
 30
0.0
 10
9.6941674077
 20
4.8448041408
 30
0.0
  0
LINE
  5
367
100
AcDbEntity
  8
0
100
AcDbLine
 62
9
  6
CONTINUOUS
 10
9.6618990676
 20
4.7227994947
 11
9.686892733
 21
4.8191619771
  0
SPLINE
  5
368
100
AcDbEntity
  8
0
100
AcDbSpline
 62
9
  6
CONTINUOUS
 70
0
 71
3
 72
59
 73
55
 74
0
 42
0.0000001
 43
0.0000001
 44
0.0000000001
 40
0.0
 40
0.0
 40
0.0
 40
0.0
 40
0.0075619459
 40
0.0154053652
 40
0.0236264101
 40
0.0323050283
 40
0.0415055958
 40
0.0512781236
 40
0.0616596009
 40
0.0726760967
 40
0.0843442387
 40
0.0966726997
 40
0.1096635763
 40
0.1233130902
 40
0.1376126861
 40
0.1525495512
 40
0.1681070855
 40
0.1842655767
 40
0.2010022867
 40
0.218291969
 40
0.2361071072
 40
0.2544180098
 40
0.2923976552
 40
0.3319622377
 40
0.3728194116
 40
0.4146602266
 40
0.4571635019
 40
0.5
 40
0.5428364981
 40
0.5853397734
 40
0.6271805884
 40
0.6680377623
 40
0.7076023448
 40
0.7455819902
 40
0.7638928928
 40
0.781708031
 40
0.7989977133
 40
0.8157344233
 40
0.8318929145
 40
0.8474504488
 40
0.8623873139
 40
0.8766869098
 40
0.8903364237
 40
0.9033273003
 40
0.9156557613
 40
0.9273239033
 40
0.9383403991
 40
0.9487218764
 40
0.9584944042
 40
0.9676949717
 40
0.9763735899
 40
0.9845946348
 40
0.9924380541
 40
1.0
 40
1.0
 40
1.0
 40
1.0
 10
10.4909686742
 20
11.5670993892
 30
0.0
 10
10.4905969333
 20
11.5689688876
 30
0.0
 10
10.4895811509
 20
11.5727302133
 30
0.0
 10
10.4873159602
 20
11.5782526173
 30
0.0
 10
10.4842966356
 20
11.5837243514
 30
0.0
 10
10.4805331191
 20
11.5891332167
 30
0.0
 10
10.4760355047
 20
11.5944694477
 30
0.0
 10
10.4708145535
 20
11.599722896
 30
0.0
 10
10.4648821043
 20
11.6048837035
 30
0.0
 10
10.4582509852
 20
11.6099415776
 30
0.0
 10
10.4509355033
 20
11.6148862712
 30
0.0
 10
10.4429514122
 20
11.619707562
 30
0.0
 10
10.434315854
 20
11.6243951087
 30
0.0
 10
10.4250475594
 20
11.6289389665
 30
0.0
 10
10.415166618
 20
11.6333292323
 30
0.0
 10
10.4046945373
 20
11.6375563026
 30
0.0
 10
10.3936542031
 20
11.6416110073
 30
0.0
 10
10.3820697377
 20
11.6454843228
 30
0.0
 10
10.3699665416
 20
11.6491677979
 30
0.0
 10
10.3573711773
 20
11.6526532842
 30
0.0
 10
10.3443112523
 20
11.6559330859
 30
0.0
 10
10.3260949074
 20
11.6600725398
 30
0.0
 10
10.3023650908
 20
11.6646600513
 30
0.0
 10
10.2728575615
 20
11.6691789344
 30
0.0
 10
10.2422389645
 20
11.6727361061
 30
0.0
 10
10.2107785137
 20
11.6752998789
 30
0.0
 10
10.1787524591
 20
11.6768473371
 30
0.0
 10
10.1464423428
 20
11.6773646952
 30
0.0
 10
10.1141322264
 20
11.6768473371
 30
0.0
 10
10.0821061718
 20
11.6752998789
 30
0.0
 10
10.050645721
 20
11.6727361061
 30
0.0
 10
10.020027124
 20
11.6691789344
 30
0.0
 10
9.9905195947
 20
11.6646600513
 30
0.0
 10
9.9667897781
 20
11.6600725398
 30
0.0
 10
9.9485734332
 20
11.6559330859
 30
0.0
 10
9.9355135082
 20
11.6526532842
 30
0.0
 10
9.9229181439
 20
11.6491677979
 30
0.0
 10
9.9108149478
 20
11.6454843228
 30
0.0
 10
9.8992304825
 20
11.6416110073
 30
0.0
 10
9.8881901482
 20
11.6375563026
 30
0.0
 10
9.8777180676
 20
11.6333292323
 30
0.0
 10
9.8678371261
 20
11.6289389665
 30
0.0
 10
9.8585688315
 20
11.6243951087
 30
0.0
 10
9.8499332733
 20
11.619707562
 30
0.0
 10
9.8419491822
 20
11.6148862712
 30
0.0
 10
9.8346337003
 20
11.6099415776
 30
0.0
 10
9.8280025813
 20
11.6048837035
 30
0.0
 10
9.822070132
 20
11.599722896
 30
0.0
 10
9.8168491808
 20
11.5944694477
 30
0.0
 10
9.8123515664
 20
11.5891332167
 30
0.0
 10
9.8085880499
 20
11.5837243514
 30
0.0
 10
9.8055687253
 20
11.5782526173
 30
0.0
 10
9.8033035346
 20
11.5727302133
 30
0.0
 10
9.8022877523
 20
11.5689688876
 30
0.0
 10
9.8019160113
 20
11.5670993892
 30
0.0
  0
SPLINE
  5
369
100
AcDbEntity
  8
0
100
AcDbSpline
 62
9
  6
CONTINUOUS
 70
0
 71
3
 72
11
 73
7
 74
0
 42
0.0000001
 43
0.0000001
 44
0.0000000001
 40
0.0
 40
0.0
 40
0.0
 40
0.0
 40
0.239009737
 40
0.4850649088
 40
0.738764239
 40
1.0
 40
1.0
 40
1.0
 40
1.0
 10
9.6617115943
 20
4.6985435571
 30
0.0
 10
9.6611648895
 20
4.7004199374
 30
0.0
 10
9.6603647559
 20
4.704323926
 30
0.0
 10
9.6600326494
 20
4.7103745617
 30
0.0
 10
9.660525475
 20
4.7165942336
 30
0.0
 10
9.6613627807
 20
4.720731762
 30
0.0
 10
9.6618990676
 20
4.7227994947
 30
0.0
  0
ENDSEC
  0
SECTION
  2
OBJECTS
  0
DICTIONARY
  5
C
100
AcDbDictionary
280
0
281
1
  3
ACAD_GROUP
350
D
  3
ACAD_MLINESTYLE
350
17
  3
ACAD_LAYOUT
350
1A
  3
ACAD_PLOTSETTINGS
350
19
  3
ACAD_PLOTSTYLENAME
350
E
  0
DICTIONARY
  5
D
102
{ACAD_REACTORS
330
C
102
}
100
AcDbDictionary
280
0
281
1
  0
ACDBDICTIONARYWDFLT
  5
E
102
{ACAD_REACTORS
330
C
102
}
100
AcDbDictionary
281
1
  3
Normal
350
F
100
AcDbDictionaryWithDefault
340
F
  0
DICTIONARY
  5
17
102
{ACAD_REACTORS
330
C
102
}
100
AcDbDictionary
280
0
281
1
  3
Standard
350
18
  0
DICTIONARY
  5
19
102
{ACAD_REACTORS
330
C
102
}
100
AcDbDictionary
281
1
  0
DICTIONARY
  5
1A
102
{ACAD_REACTORS
330
C
102
}
100
AcDbDictionary
281
1
  3
Model
350
36A
  3
Layout1
350
36B
  0
ACDBPLACEHOLDER
  5
F
102
{ACAD_REACTORS
330
E
102
}
  0
MLINESTYLE
  5
18
102
{ACAD_REACTORS
330
17
102
}
100
AcDbMlineStyle
  2
STANDARD
 70
0
  3

 62
256
 51
90.0
 52
90.0
 71
2
 49
0.5
 62
256
  6
BYLAYER
 49
-0.5
 62
256
  6
BYLAYER
  0
LAYOUT
  5
36A
102
{ACAD_REACTORS
330
1A
102
}
100
AcDbPlotSettings
  1

  2
none_device
  4
ANSI_C_(22.00_x_17.00_Inches)
  6

 40
0.0
 41
0.0
 42
0.0
 43
0.0
 44
558.8
 45
431.8
 46
0.0
 47
0.0
 48
0.0
 49
0.0
140
0.0
141
0.0
142
1.0
143
1.0
 70
1024
 72
0
 73
0
 74
0
  7

 75
0
147
1.0
148
0.0
149
0.0
100
AcDbLayout
  1
Model
 70
0
 71
0
 10
0.0
 20
0.0
 11
22.0
 21
17.0
 12
0.0
 22
0.0
 32
0.0
 14
0.0
 24
0.0
 34
0.0
 15
0.0
 25
0.0
 35
0.0
146
0.0
 13
0.0
 23
0.0
 33
0.0
 16
1.0
 26
0.0
 36
0.0
 17
0.0
 27
1.0
 37
0.0
 76
0
330
205
345
0
346
0
  0
LAYOUT
  5
36B
102
{ACAD_REACTORS
330
1A
102
}
100
AcDbPlotSettings
  1

  2
none_device
  4
ANSI_C_(22.00_x_17.00_Inches)
  6

 40
0.0
 41
0.0
 42
0.0
 43
0.0
 44
558.8
 45
431.8
 46
0.0
 47
0.0
 48
0.0
 49
0.0
140
0.0
141
0.0
142
1.0
143
1.0
 70
0
 72
0
 73
0
 74
0
  7

 75
0
147
1.0
148
0.0
149
0.0
100
AcDbLayout
  1
Layout1
 70
0
 71
1
 10
0.0
 20
0.0
 11
22.0
 21
17.0
 12
0.0
 22
0.0
 32
0.0
 14
0.0
 24
0.0
 34
0.0
 15
0.0
 25
0.0
 35
0.0
146
0.0
 13
0.0
 23
0.0
 33
0.0
 16
1.0
 26
0.0
 36
0.0
 17
0.0
 27
1.0
 37
0.0
 76
0
330
206
345
0
346
0
  0
ENDSEC
  0
EOF
