999
DXF file: 3210-5811_top.dxf
999
Pro/ENGINEER 2018400 by Parametric Technology Corporation
  0
SECTION
  2
HEADER
  9
$ACADVER
  1
AC1027
  9
$DWGCODEPAGE
  3
ANSI_1252
  9
$EXTMAX
 10
11.0
 20
8.5
 30
0.0
  9
$EXTMIN
 10
0.0
 20
0.0
 30
0.0
  9
$LIMMIN
 10
0.0
 20
0.0
  9
$LIMMAX
 10
11.0
 20
8.5
  9
$VIEWCTR
 10
5.5
 20
4.25
  9
$VIEWSIZE
 40
8.5
  9
$CLAYER
  8
0
  9
$LTSCALE
 40
0.605
  9
$CELTYPE
  6
BYLAYER
  9
$DIMSCALE
 40
1.0
  9
$DIMASZ
 40
0.1
  9
$DIMEXO
 40
0.0625
  9
$DIMDLI
 40
0.418
  9
$DIMEXE
 40
0.125
  9
$DIMCEN
 40
0.099
  9
$DIMLFAC
 40
1.0
  9
$DIMBLK
  1
_FILLED
  9
$DIMALT
 70
1
  9
$DIMALTD
 70
1
  9
$DIMALTTD
 70
2
  9
$DIMALTF
 40
25.4
  9
$DIMTXT
 40
0.08
  9
$DIMTOL
 70
1
  9
$DIMLIM
 70
0
  9
$DIMTFAC
 40
1.0
  9
$DIMTP
 40
0.01
  9
$DIMTM
 40
0.01
  9
$DIMGAP
 40
0.09
  9
$DIMDSEP
 70
46
  9
$AUNITS
 70
0
  9
$PDMODE
 70
3
  9
$PDSIZE
 40
0.3125
  9
$HANDSEED
  5
3A9
  9
$TILEMODE
 70
1
  9
$MEASUREMENT
 70
0
  9
$INSUNITS
 70
1
  0
ENDSEC
  0
SECTION
  2
CLASSES
  0
CLASS
  1
ACDBDICTIONARYWDFLT
  2
AcDbDictionaryWithDefault
  3
AutoCAD 2000
 90
0
 91
1
280
0
281
0
  0
CLASS
  1
ACDBPLACEHOLDER
  2
AcDbPlaceHolder
  3
AutoCAD 2000
 90
0
 91
1
280
0
281
0
  0
CLASS
  1
LAYOUT
  2
AcDbLayout
  3
AutoCAD 2000
 90
0
 91
0
280
0
281
0
  0
ENDSEC
  0
SECTION
  2
TABLES
  0
TABLE
  2
VPORT
  5
8
100
AcDbSymbolTable
 70
2
  0
VPORT
  5
1F4
100
AcDbSymbolTableRecord
100
AcDbViewportTableRecord
  2
*ACTIVE
 70
0
 10
0.0
 20
0.0
 11
1.0
 21
1.0
 12
5.5
 22
4.25
 13
0.0
 23
0.0
 14
1.0
 24
1.0
 15
0.0
 25
0.0
 16
0.0
 26
0.0
 36
1.0
 17
0.0
 27
0.0
 37
0.0
 40
8.5
 41
1.2941176471
 42
50.0
 43
0.0
 44
0.0
 50
0.0
 51
0.0
 71
0
 72
100
 73
1
 74
1
 75
0
 76
0
 77
0
 78
0
  0
ENDTAB
  0
TABLE
  2
LTYPE
  5
5
100
AcDbSymbolTable
 70
6
  0
LTYPE
  5
14
100
AcDbSymbolTableRecord
100
AcDbLinetypeTableRecord
  2
BYBLOCK
 70
0
  3

 72
65
 73
0
 40
0.0
  0
LTYPE
  5
15
100
AcDbSymbolTableRecord
100
AcDbLinetypeTableRecord
  2
BYLAYER
 70
0
  3

 72
65
 73
0
 40
0.0
  0
LTYPE
  5
16
100
AcDbSymbolTableRecord
100
AcDbLinetypeTableRecord
  2
CONTINUOUS
 70
64
  3
Solid line
 72
65
 73
0
 40
0.0
  0
LTYPE
  5
1F5
100
AcDbSymbolTableRecord
100
AcDbLinetypeTableRecord
  2
CENTER
 70
64
  3
____ _ ____ _ ____ _ ____ _ ____ _ ____ _ ____
 72
65
 73
4
 40
0.6
 49
0.375
 74
0
 49
-0.075
 74
0
 49
0.075
 74
0
 49
-0.075
 74
0
  0
LTYPE
  5
1F6
100
AcDbSymbolTableRecord
100
AcDbLinetypeTableRecord
  2
HIDDEN
 70
64
  3
- - - - - - - - - - - - - - - - - - - -
 72
65
 73
2
 40
0.2
 49
0.1
 74
0
 49
-0.1
 74
0
  0
LTYPE
  5
1F7
100
AcDbSymbolTableRecord
100
AcDbLinetypeTableRecord
  2
PHANTOM
 70
64
  3
_____ _ _ _____ _ _ _____ _ _ _____
 72
65
 73
6
 40
0.8
 49
0.45
 74
0
 49
-0.05
 74
0
 49
0.1
 74
0
 49
-0.05
 74
0
 49
0.1
 74
0
 49
-0.05
 74
0
  0
LTYPE
  5
1F8
100
AcDbSymbolTableRecord
100
AcDbLinetypeTableRecord
  2
DOT
 70
64
  3
. . . . . . . . . . . . . . . . . . . .
 72
65
 73
2
 40
0.2
 49
0.1
 74
0
 49
-0.1
 74
0
  0
LTYPE
  5
1F9
100
AcDbSymbolTableRecord
100
AcDbLinetypeTableRecord
  2
DASHED
 70
64
  3
- - - - - - - - - - - - - - - - - - - -
 72
65
 73
2
 40
0.2
 49
0.1
 74
0
 49
-0.1
 74
0
  0
ENDTAB
  0
TABLE
  2
LAYER
  5
2
100
AcDbSymbolTable
 70
36
  0
LAYER
  5
10
100
AcDbSymbolTableRecord
100
AcDbLayerTableRecord
  2
0
 70
0
 62
7
  6
CONTINUOUS
370
-3
390
F
  0
LAYER
  5
1FA
100
AcDbSymbolTableRecord
100
AcDbLayerTableRecord
  2
DEFAULT_1
 70
0
 62
7
  6
CENTER
370
-3
390
F
  0
LAYER
  5
1FB
100
AcDbSymbolTableRecord
100
AcDbLayerTableRecord
  2
DEFAULT_2
 70
0
 62
8
  6
HIDDEN
370
-3
390
F
  0
LAYER
  5
1FC
100
AcDbSymbolTableRecord
100
AcDbLayerTableRecord
  2
DEFAULT_3
 70
0
 62
7
  6
PHANTOM
370
-3
390
F
  0
LAYER
  5
1FD
100
AcDbSymbolTableRecord
100
AcDbLayerTableRecord
  2
DEFAULT_COORDINATE_SYSTEM
 70
0
 62
7
  6
CONTINUOUS
370
-3
390
F
  0
LAYER
  5
1FE
100
AcDbSymbolTableRecord
100
AcDbLayerTableRecord
  2
DEFAULT_DATUM_AXES
 70
0
 62
7
  6
CONTINUOUS
370
-3
390
F
  0
LAYER
  5
1FF
100
AcDbSymbolTableRecord
100
AcDbLayerTableRecord
  2
DEFAULT_DATUM_PLANES
 70
0
 62
7
  6
CONTINUOUS
370
-3
390
F
  0
ENDTAB
  0
TABLE
  2
STYLE
  5
3
100
AcDbSymbolTable
 70
1
  0
STYLE
  5
11
100
AcDbSymbolTableRecord
100
AcDbTextStyleTableRecord
  2
STANDARD
 70
0
 40
0.0
 41
0.8
 50
0.0
 71
0
 42
0.2
  3
txt
  4

  0
STYLE
  5
200
100
AcDbSymbolTableRecord
100
AcDbTextStyleTableRecord
  2
TEXTSTYLE_1
 70
0
 40
0.0
 41
0.8
 50
0.0
 71
0
 42
0.2
  3
gdt
  4

  0
ENDTAB
  0
TABLE
  2
VIEW
  5
6
100
AcDbSymbolTable
 70
0
  0
ENDTAB
  0
TABLE
  2
UCS
  5
7
100
AcDbSymbolTable
 70
0
  0
ENDTAB
  0
TABLE
  2
APPID
  5
9
100
AcDbSymbolTable
 70
1
  0
APPID
  5
201
100
AcDbSymbolTableRecord
100
AcDbRegAppTableRecord
  2
ACAD
 70
0
  0
ENDTAB
  0
TABLE
  2
BLOCK_RECORD
  5
1
100
AcDbSymbolTable
 70
0
  0
BLOCK_RECORD
  5
202
100
AcDbSymbolTableRecord
100
AcDbBlockTableRecord
  2
*Model_Space
  0
BLOCK_RECORD
  5
203
100
AcDbSymbolTableRecord
100
AcDbBlockTableRecord
  2
*Paper_Space
  0
BLOCK_RECORD
  5
204
100
AcDbSymbolTableRecord
100
AcDbBlockTableRecord
  2
_FILLED
  0
ENDTAB
  0
TABLE
  2
DIMSTYLE
  5
A
100
AcDbSymbolTable
 70
1
100
AcDbDimStyleTable
 71
0
  0
DIMSTYLE
105
205
100
AcDbSymbolTableRecord
100
AcDbDimStyleTableRecord
  2
STANDARD
 70
0
  3

  4

 40
1.0
 41
0.1
 42
0.0625
 43
0.38
 44
0.125
 45
0.0
 46
0.0
 47
0.01
 48
0.01
140
0.08
141
0.09
142
0.0
143
25.4
144
1.0
145
0.0
146
1.0
147
0.09
 71
1.0
 72
0.0
 73
1
 74
1
 75
0
 76
0
 77
0
 78
4
 79
1
170
1
171
1
172
0
173
0
174
0
175
0
176
0
177
0
178
0
270
2
179
2
271
2
272
2
273
2
274
2
275
0
280
0
281
0
282
0
283
1
284
4
285
0
286
0
287
3
288
0
340
11
278
46
341
204
342
204
343
204
344
204
  0
ENDTAB
  0
ENDSEC
  0
SECTION
  2
BLOCKS
  0
BLOCK
  5
20
100
AcDbEntity
  8
0
100
AcDbBlockBegin
  2
*Model_Space
 70
0
 10
0.0
 20
0.0
 30
0.0
  3
*Model_Space
  1

  0
ENDBLK
  5
21
100
AcDbEntity
  8
0
100
AcDbBlockEnd
  0
BLOCK
  5
1C
100
AcDbEntity
  8
0
100
AcDbBlockBegin
  2
*Paper_Space
 70
0
 10
0.0
 20
0.0
 30
0.0
  3
*Paper_Space
  1

  0
ENDBLK
  5
1D
100
AcDbEntity
  8
0
100
AcDbBlockEnd
  0
BLOCK
  5
206
100
AcDbEntity
  8
0
100
AcDbBlockBegin
  2
_FILLED
 70
64
 10
0.0
 20
0.0
  3
_FILLED
  1

  0
SOLID
  5
207
100
AcDbEntity
  8
0
  6
BYBLOCK
 62
0
100
AcDbTrace
 10
0.0
 20
0.0
 11
-1.0
 21
0.2
 12
-1.0
 22
-0.2
 13
-1.0
 23
-0.2
  0
ENDBLK
  5
208
100
AcDbEntity
  8
0
  6
BYBLOCK
 62
0
100
AcDbBlockEnd
  0
ENDSEC
  0
SECTION
  2
ENTITIES
  0
MTEXT
  5
209
100
AcDbEntity
  8
0
100
AcDbMText
 62
2
  6
CONTINUOUS
  7
STANDARD
 71
3
 72
1
 10
4.0472826087
 20
3.3534478131
 30
0.0
 11
1.0
 21
0.0
 31
0.0
 73
2
 44
0.9
  1
SCALE  .500
 40
0.08
 41
0.704
  0
LINE
  5
20A
100
AcDbEntity
  8
0
100
AcDbLine
 62
7
  6
CONTINUOUS
 10
0.0
 20
0.0
 11
0.0
 21
8.5
  0
LINE
  5
20B
100
AcDbEntity
  8
0
100
AcDbLine
 62
7
  6
CONTINUOUS
 10
0.0
 20
0.0
 11
11.0
 21
0.0
  0
LINE
  5
20C
100
AcDbEntity
  8
0
100
AcDbLine
 62
7
  6
CONTINUOUS
 10
0.0
 20
8.5
 11
11.0
 21
8.5
  0
LINE
  5
20D
100
AcDbEntity
  8
0
100
AcDbLine
 62
7
  6
CONTINUOUS
 10
11.0
 20
0.0
 11
11.0
 21
8.5
  0
LINE
  5
20E
100
AcDbEntity
  8
0
100
AcDbLine
 62
7
  6
CONTINUOUS
 10
1.9834076087
 20
3.934056677
 11
1.9834076087
 21
4.024056677
  0
LINE
  5
20F
100
AcDbEntity
  8
0
100
AcDbLine
 62
7
  6
CONTINUOUS
 10
2.0384076087
 20
3.869056677
 11
2.0384076087
 21
3.838056677
  0
LINE
  5
210
100
AcDbEntity
  8
0
100
AcDbLine
 62
7
  6
CONTINUOUS
 10
2.0384076087
 20
4.089056677
 11
2.0384076087
 21
4.120056677
  0
LINE
  5
211
100
AcDbEntity
  8
0
100
AcDbLine
 62
7
  6
CONTINUOUS
 10
2.0684076087
 20
4.089056677
 11
2.0684076087
 21
4.120056677
  0
LINE
  5
212
100
AcDbEntity
  8
0
100
AcDbLine
 62
7
  6
CONTINUOUS
 10
2.0855826115
 20
3.838056677
 11
2.0855826115
 21
3.869056677
  0
LINE
  5
213
100
AcDbEntity
  8
0
100
AcDbLine
 62
7
  6
CONTINUOUS
 10
2.3584076087
 20
3.544056677
 11
2.3584076087
 21
4.414056677
  0
LINE
  5
214
100
AcDbEntity
  8
0
100
AcDbLine
 62
7
  6
CONTINUOUS
 10
2.4209076087
 20
3.481556677
 11
2.4209076087
 21
4.476556677
  0
LINE
  5
215
100
AcDbEntity
  8
0
100
AcDbLine
 62
7
  6
CONTINUOUS
 10
2.3584076087
 20
4.414056677
 11
2.4209076087
 21
4.476556677
  0
LINE
  5
216
100
AcDbEntity
  8
0
100
AcDbLine
 62
7
  6
CONTINUOUS
 10
2.3584076087
 20
3.544056677
 11
2.4209076087
 21
3.481556677
  0
LINE
  5
217
100
AcDbEntity
  8
0
100
AcDbLine
 62
7
  6
CONTINUOUS
 10
3.1304076087
 20
4.476556677
 11
3.1304076087
 21
4.041556677
  0
LINE
  5
218
100
AcDbEntity
  8
0
100
AcDbLine
 62
7
  6
CONTINUOUS
 10
3.1304076087
 20
3.916556677
 11
3.1304076087
 21
3.481556677
  0
LINE
  5
219
100
AcDbEntity
  8
0
100
AcDbLine
 62
7
  6
CONTINUOUS
 10
3.2084076087
 20
4.398556677
 11
3.2084076087
 21
4.041556677
  0
LINE
  5
21A
100
AcDbEntity
  8
0
100
AcDbLine
 62
7
  6
CONTINUOUS
 10
3.2084076087
 20
3.916556677
 11
3.2084076087
 21
3.559556677
  0
LINE
  5
21B
100
AcDbEntity
  8
0
100
AcDbLine
 62
7
  6
CONTINUOUS
 10
3.2134076087
 20
4.2978694466
 11
3.2134076087
 21
4.212404213
  0
LINE
  5
21C
100
AcDbEntity
  8
0
100
AcDbLine
 62
7
  6
CONTINUOUS
 10
3.2134076087
 20
4.1948728495
 11
3.2134076087
 21
4.181724352
  0
LINE
  5
21D
100
AcDbEntity
  8
0
100
AcDbLine
 62
7
  6
CONTINUOUS
 10
3.2134076087
 20
4.1691142208
 11
3.2134076087
 21
4.041556677
  0
LINE
  5
21E
100
AcDbEntity
  8
0
100
AcDbLine
 62
7
  6
CONTINUOUS
 10
3.2134076087
 20
3.916556677
 11
3.2134076087
 21
3.7806951975
  0
LINE
  5
21F
100
AcDbEntity
  8
0
100
AcDbLine
 62
7
  6
CONTINUOUS
 10
3.2134076087
 20
3.7631638654
 11
3.2134076087
 21
3.6842728805
  0
LINE
  5
220
100
AcDbEntity
  8
0
100
AcDbLine
 62
7
  6
CONTINUOUS
 10
3.6249076087
 20
4.041556677
 11
3.6249076087
 21
3.916556677
  0
LINE
  5
221
100
AcDbEntity
  8
0
100
AcDbLine
 62
7
  6
CONTINUOUS
 10
2.4209076087
 20
3.481556677
 11
3.1304076087
 21
3.481556677
  0
LINE
  5
222
100
AcDbEntity
  8
0
100
AcDbLine
 62
7
  6
CONTINUOUS
 10
3.2084076087
 20
3.6842728805
 11
3.2134076087
 21
3.6842728805
  0
LINE
  5
223
100
AcDbEntity
  8
0
100
AcDbLine
 62
7
  6
CONTINUOUS
 10
3.2084076087
 20
3.697421378
 11
3.2134076087
 21
3.697421378
  0
LINE
  5
224
100
AcDbEntity
  8
0
100
AcDbLine
 62
7
  6
CONTINUOUS
 10
6.0809183593
 20
4.0322339396
 11
6.0818113998
 21
4.0323382471
  0
LINE
  5
225
100
AcDbEntity
  8
0
100
AcDbLine
 62
7
  6
CONTINUOUS
 10
5.1688966073
 20
3.9258793851
 11
5.1680038176
 21
3.925775107
  0
LINE
  5
226
100
AcDbEntity
  8
0
100
AcDbLine
 62
7
  6
CONTINUOUS
 10
6.1532962087
 20
4.0335342323
 11
6.1453504225
 21
4.0327150114
  0
LINE
  5
227
100
AcDbEntity
  8
0
100
AcDbLine
 62
7
  6
CONTINUOUS
 10
5.0965190087
 20
3.9245791217
 11
5.1044647949
 21
3.9253983427
  0
LINE
  5
228
100
AcDbEntity
  8
0
100
AcDbLine
 62
7
  6
CONTINUOUS
 10
3.2084076087
 20
3.7631638654
 11
3.2134076087
 21
3.7631638654
  0
LINE
  5
229
100
AcDbEntity
  8
0
100
AcDbLine
 62
7
  6
CONTINUOUS
 10
3.2084076087
 20
3.7806951975
 11
3.2134076087
 21
3.7806951975
  0
LINE
  5
22A
100
AcDbEntity
  8
0
100
AcDbLine
 62
7
  6
CONTINUOUS
 10
2.3584076087
 20
3.838056677
 11
2.0384076087
 21
3.838056677
  0
LINE
  5
22B
100
AcDbEntity
  8
0
100
AcDbLine
 62
7
  6
CONTINUOUS
 10
3.2084076087
 20
3.8595861761
 11
3.2134076087
 21
3.8595861761
  0
LINE
  5
22C
100
AcDbEntity
  8
0
100
AcDbLine
 62
7
  6
CONTINUOUS
 10
2.3584076087
 20
3.869056677
 11
2.0384076087
 21
3.869056677
  0
LINE
  5
22D
100
AcDbEntity
  8
0
100
AcDbLine
 62
7
  6
CONTINUOUS
 10
3.2084076087
 20
3.8771175145
 11
3.2134076087
 21
3.8771175145
  0
LINE
  5
22E
100
AcDbEntity
  8
0
100
AcDbLine
 62
7
  6
CONTINUOUS
 10
3.2084076087
 20
3.8793089224
 11
3.2134076087
 21
3.8793089224
  0
LINE
  5
22F
100
AcDbEntity
  8
0
100
AcDbLine
 62
7
  6
CONTINUOUS
 10
3.2084076087
 20
3.8836917632
 11
3.2134076087
 21
3.8836917632
  0
LINE
  5
230
100
AcDbEntity
  8
0
100
AcDbLine
 62
7
  6
CONTINUOUS
 10
3.2084076087
 20
3.8924574199
 11
3.2134076087
 21
3.8924574199
  0
LINE
  5
231
100
AcDbEntity
  8
0
100
AcDbLine
 62
7
  6
CONTINUOUS
 10
3.2084076087
 20
3.901223089
 11
3.2134076087
 21
3.901223089
  0
LINE
  5
232
100
AcDbEntity
  8
0
100
AcDbLine
 62
7
  6
CONTINUOUS
 10
3.2084076087
 20
3.9121801786
 11
3.2134076087
 21
3.9121801786
  0
LINE
  5
233
100
AcDbEntity
  8
0
100
AcDbLine
 62
7
  6
CONTINUOUS
 10
3.1249076087
 20
3.916556677
 11
3.922814788
 21
3.916556677
  0
LINE
  5
234
100
AcDbEntity
  8
0
100
AcDbLine
 62
7
  6
CONTINUOUS
 10
4.7614473515
 20
3.916556677
 11
5.0974231723
 21
3.916556677
  0
LINE
  5
235
100
AcDbEntity
  8
0
100
AcDbLine
 62
7
  6
CONTINUOUS
 10
2.3584076087
 20
3.934056677
 11
1.9834076087
 21
3.934056677
  0
LINE
  5
236
100
AcDbEntity
  8
0
100
AcDbLine
 62
7
  6
CONTINUOUS
 10
2.3584076087
 20
4.024056677
 11
1.9834076087
 21
4.024056677
  0
LINE
  5
237
100
AcDbEntity
  8
0
100
AcDbLine
 62
7
  6
CONTINUOUS
 10
3.1249076087
 20
4.041556677
 11
3.922814788
 21
4.041556677
  0
LINE
  5
238
100
AcDbEntity
  8
0
100
AcDbLine
 62
7
  6
CONTINUOUS
 10
4.7614473515
 20
4.041556677
 11
5.0974231723
 21
4.041556677
  0
LINE
  5
239
100
AcDbEntity
  8
0
100
AcDbLine
 62
7
  6
CONTINUOUS
 10
3.2084076087
 20
4.0633878997
 11
3.2134076087
 21
4.0633878997
  0
LINE
  5
23A
100
AcDbEntity
  8
0
100
AcDbLine
 62
7
  6
CONTINUOUS
 10
3.2084076087
 20
4.080919213
 11
3.2134076087
 21
4.080919213
  0
LINE
  5
23B
100
AcDbEntity
  8
0
100
AcDbLine
 62
7
  6
CONTINUOUS
 10
2.0384076087
 20
4.089056677
 11
2.3584076087
 21
4.089056677
  0
LINE
  5
23C
100
AcDbEntity
  8
0
100
AcDbLine
 62
7
  6
CONTINUOUS
 10
2.0384076087
 20
4.120056677
 11
2.3584076087
 21
4.120056677
  0
LINE
  5
23D
100
AcDbEntity
  8
0
100
AcDbLine
 62
7
  6
CONTINUOUS
 10
3.2084076087
 20
4.133513228
 11
3.2134076087
 21
4.133513228
  0
LINE
  5
23E
100
AcDbEntity
  8
0
100
AcDbLine
 62
7
  6
CONTINUOUS
 10
6.153296181
 20
3.9245788533
 11
6.1453503952
 21
3.9253980783
  0
LINE
  5
23F
100
AcDbEntity
  8
0
100
AcDbLine
 62
7
  6
CONTINUOUS
 10
5.0965190364
 20
4.0335345007
 11
5.1044648222
 21
4.0327152757
  0
LINE
  5
240
100
AcDbEntity
  8
0
100
AcDbLine
 62
7
  6
CONTINUOUS
 10
3.2084076087
 20
4.1444702926
 11
3.2134076087
 21
4.1444702926
  0
LINE
  5
241
100
AcDbEntity
  8
0
100
AcDbLine
 62
7
  6
CONTINUOUS
 10
3.2084076087
 20
4.1532359743
 11
3.2134076087
 21
4.1532359743
  0
LINE
  5
242
100
AcDbEntity
  8
0
100
AcDbLine
 62
7
  6
CONTINUOUS
 10
3.2084076087
 20
4.159810223
 11
3.2134076087
 21
4.159810223
  0
LINE
  5
243
100
AcDbEntity
  8
0
100
AcDbLine
 62
7
  6
CONTINUOUS
 10
3.2084076087
 20
4.1620016058
 11
3.2134076087
 21
4.1620016058
  0
LINE
  5
244
100
AcDbEntity
  8
0
100
AcDbLine
 62
7
  6
CONTINUOUS
 10
3.2084076087
 20
4.1641930388
 11
3.2134076087
 21
4.1641930388
  0
LINE
  5
245
100
AcDbEntity
  8
0
100
AcDbLine
 62
7
  6
CONTINUOUS
 10
3.2084076087
 20
4.1674954811
 11
3.2134076087
 21
4.1674954811
  0
LINE
  5
246
100
AcDbEntity
  8
0
100
AcDbLine
 62
7
  6
CONTINUOUS
 10
3.2084076087
 20
4.1691142208
 11
3.2134076087
 21
4.1691142208
  0
LINE
  5
247
100
AcDbEntity
  8
0
100
AcDbLine
 62
7
  6
CONTINUOUS
 10
3.2084076087
 20
4.181724352
 11
3.2134076087
 21
4.181724352
  0
LINE
  5
248
100
AcDbEntity
  8
0
100
AcDbLine
 62
7
  6
CONTINUOUS
 10
3.2084076087
 20
4.1948728495
 11
3.2134076087
 21
4.1948728495
  0
LINE
  5
249
100
AcDbEntity
  8
0
100
AcDbLine
 62
7
  6
CONTINUOUS
 10
3.2084076087
 20
4.212404213
 11
3.2134076087
 21
4.212404213
  0
LINE
  5
24A
100
AcDbEntity
  8
0
100
AcDbLine
 62
7
  6
CONTINUOUS
 10
3.2084076087
 20
4.2145955958
 11
3.2134076087
 21
4.2145955958
  0
LINE
  5
24B
100
AcDbEntity
  8
0
100
AcDbLine
 62
7
  6
CONTINUOUS
 10
3.2084076087
 20
4.2189784617
 11
3.2134076087
 21
4.2189784617
  0
LINE
  5
24C
100
AcDbEntity
  8
0
100
AcDbLine
 62
7
  6
CONTINUOUS
 10
3.2084076087
 20
4.2277440933
 11
3.2134076087
 21
4.2277440933
  0
LINE
  5
24D
100
AcDbEntity
  8
0
100
AcDbLine
 62
7
  6
CONTINUOUS
 10
3.2084076087
 20
4.236509775
 11
3.2134076087
 21
4.236509775
  0
LINE
  5
24E
100
AcDbEntity
  8
0
100
AcDbLine
 62
7
  6
CONTINUOUS
 10
3.2084076087
 20
4.2474668395
 11
3.2134076087
 21
4.2474668395
  0
LINE
  5
24F
100
AcDbEntity
  8
0
100
AcDbLine
 62
7
  6
CONTINUOUS
 10
3.2084076087
 20
4.2671895857
 11
3.2134076087
 21
4.2671895857
  0
LINE
  5
250
100
AcDbEntity
  8
0
100
AcDbLine
 62
7
  6
CONTINUOUS
 10
3.2084076087
 20
4.2781467004
 11
3.2134076087
 21
4.2781467004
  0
LINE
  5
251
100
AcDbEntity
  8
0
100
AcDbLine
 62
7
  6
CONTINUOUS
 10
3.2084076087
 20
4.286912332
 11
3.2134076087
 21
4.286912332
  0
LINE
  5
252
100
AcDbEntity
  8
0
100
AcDbLine
 62
7
  6
CONTINUOUS
 10
5.1688966046
 20
4.0322339456
 11
5.1680038313
 21
4.0323383644
  0
LINE
  5
253
100
AcDbEntity
  8
0
100
AcDbLine
 62
7
  6
CONTINUOUS
 10
6.0809186128
 20
3.9258794085
 11
6.0818113861
 21
3.9257749896
  0
LINE
  5
254
100
AcDbEntity
  8
0
100
AcDbLine
 62
7
  6
CONTINUOUS
 10
6.1316894899
 20
3.9017344104
 11
6.1097520516
 21
3.9050814808
  0
LINE
  5
255
100
AcDbEntity
  8
0
100
AcDbLine
 62
7
  6
CONTINUOUS
 10
5.1181257274
 20
4.0563789436
 11
5.1400631658
 21
4.0530318733
  0
LINE
  5
256
100
AcDbEntity
  8
0
100
AcDbLine
 62
7
  6
CONTINUOUS
 10
6.1212326637
 20
3.9033323543
 11
6.1166281922
 21
3.9040352668
  0
LINE
  5
257
100
AcDbEntity
  8
0
100
AcDbLine
 62
7
  6
CONTINUOUS
 10
3.2084076087
 20
4.2956780137
 11
3.2134076087
 21
4.2956780137
  0
LINE
  5
258
100
AcDbEntity
  8
0
100
AcDbLine
 62
7
  6
CONTINUOUS
 10
3.2084076087
 20
4.2978694466
 11
3.2134076087
 21
4.2978694466
  0
LINE
  5
259
100
AcDbEntity
  8
0
100
AcDbLine
 62
7
  6
CONTINUOUS
 10
3.1304076087
 20
4.476556677
 11
2.4209076087
 21
4.476556677
  0
LINE
  5
25A
100
AcDbEntity
  8
0
100
AcDbLine
 62
7
  6
CONTINUOUS
 10
5.9362810741
 20
4.4094156919
 11
5.9315987116
 21
4.402944052
  0
LINE
  5
25B
100
AcDbEntity
  8
0
100
AcDbLine
 62
7
  6
CONTINUOUS
 10
5.3135341433
 20
3.5486976622
 11
5.3182165058
 21
3.555169302
  0
LINE
  5
25C
100
AcDbEntity
  8
0
100
AcDbLine
 62
7
  6
CONTINUOUS
 10
5.8989658248
 20
4.3473849533
 11
5.8995027922
 21
4.3481061116
  0
LINE
  5
25D
100
AcDbEntity
  8
0
100
AcDbLine
 62
7
  6
CONTINUOUS
 10
5.3508492412
 20
3.6107281973
 11
5.3503124252
 21
3.6100072424
  0
LINE
  5
25E
100
AcDbEntity
  8
0
100
AcDbLine
 62
7
  6
CONTINUOUS
 10
5.3045536209
 20
3.578831827
 11
5.318420988
 21
3.5961566707
  0
LINE
  5
25F
100
AcDbEntity
  8
0
100
AcDbLine
 62
7
  6
CONTINUOUS
 10
5.9452615965
 20
4.379281527
 11
5.9313942293
 21
4.3619566834
  0
LINE
  5
260
100
AcDbEntity
  8
0
100
AcDbLine
 62
7
  6
CONTINUOUS
 10
5.898965995
 20
3.6107282114
 11
5.8995026975
 21
3.6100071719
  0
LINE
  5
261
100
AcDbEntity
  8
0
100
AcDbLine
 62
7
  6
CONTINUOUS
 10
5.3508492223
 20
4.3473851427
 11
5.3503125199
 21
4.3481061821
  0
LINE
  5
262
100
AcDbEntity
  8
0
100
AcDbLine
 62
7
  6
CONTINUOUS
 10
5.3135343619
 20
4.40941585
 11
5.3182167211
 21
4.4029442078
  0
LINE
  5
263
100
AcDbEntity
  8
0
100
AcDbLine
 62
7
  6
CONTINUOUS
 10
5.9362808555
 20
3.548697504
 11
5.9315984963
 21
3.5551691463
  0
LINE
  5
264
100
AcDbEntity
  8
0
100
AcDbLine
 62
7
  6
CONTINUOUS
 10
5.4429549937
 20
3.5575509195
 11
5.4425989064
 21
3.5567256018
  0
LINE
  5
265
100
AcDbEntity
  8
0
100
AcDbLine
 62
7
  6
CONTINUOUS
 10
5.8068602237
 20
4.4005624345
 11
5.807216311
 21
4.4013877522
  0
LINE
  5
266
100
AcDbEntity
  8
0
100
AcDbLine
 62
7
  6
CONTINUOUS
 10
5.8419229619
 20
4.4638934054
 11
5.8386595349
 21
4.4566025421
  0
LINE
  5
267
100
AcDbEntity
  8
0
100
AcDbLine
 62
7
  6
CONTINUOUS
 10
5.4078922555
 20
3.4942199487
 11
5.4111556825
 21
3.5015108119
  0
LINE
  5
268
100
AcDbEntity
  8
0
100
AcDbLine
 62
7
  6
CONTINUOUS
 10
5.4078925018
 20
4.4638935156
 11
5.4111559251
 21
4.4566026507
  0
LINE
  5
269
100
AcDbEntity
  8
0
100
AcDbLine
 62
7
  6
CONTINUOUS
 10
5.8419227156
 20
3.4942198384
 11
5.8386592923
 21
3.5015107033
  0
LINE
  5
26A
100
AcDbEntity
  8
0
100
AcDbLine
 62
7
  6
CONTINUOUS
 10
5.4429549721
 20
4.4005624252
 11
5.4425990148
 21
4.401387799
  0
LINE
  5
26B
100
AcDbEntity
  8
0
100
AcDbLine
 62
7
  6
CONTINUOUS
 10
5.8068602453
 20
3.5575509288
 11
5.8072162025
 21
3.556725555
  0
LINE
  5
26C
100
AcDbEntity
  8
0
100
AcDbLine
 62
7
  6
CONTINUOUS
 10
5.8043672538
 20
3.5193678644
 11
5.803265431
 21
3.5221814744
  0
LINE
  5
26D
100
AcDbEntity
  8
0
100
AcDbLine
 62
7
  6
CONTINUOUS
 10
5.8113355022
 20
3.5015095604
 11
5.803265431
 21
3.5221814744
  0
LINE
  5
26E
100
AcDbEntity
  8
0
100
AcDbLine
 62
7
  6
CONTINUOUS
 10
5.4384797152
 20
4.4566037937
 11
5.4465497864
 21
4.4359318796
  0
ARC
  5
26F
100
AcDbEntity
  8
0
100
AcDbCircle
 62
7
  6
CONTINUOUS
 10
3.1304076087
 20
3.559556677
 40
0.078
100
AcDbArc
 50
270.0
 51
360.0
  0
ARC
  5
270
100
AcDbEntity
  8
0
100
AcDbCircle
 62
7
  6
CONTINUOUS
 10
3.1304076087
 20
4.398556677
 40
0.078
100
AcDbArc
 50
0.0
 51
90.0
  0
ARC
  5
271
100
AcDbEntity
  8
0
100
AcDbCircle
 62
7
  6
CONTINUOUS
 10
3.1249076087
 20
3.979056677
 40
0.0625
100
AcDbArc
 50
90.0
 51
270.0
  0
ARC
  5
272
100
AcDbEntity
  8
0
100
AcDbCircle
 62
7
  6
CONTINUOUS
 10
1.9834076087
 20
3.979056677
 40
0.045
100
AcDbArc
 50
90.0
 51
270.0
  0
ARC
  5
273
100
AcDbEntity
  8
0
100
AcDbCircle
 62
7
  6
CONTINUOUS
 10
5.9513389132
 20
3.5743767824
 40
0.0599261626
100
AcDbArc
 50
128.9006259648
 51
145.5220434528
  0
ARC
  5
274
100
AcDbEntity
  8
0
100
AcDbCircle
 62
7
  6
CONTINUOUS
 10
5.2984763714
 20
3.5743768725
 40
0.0599260504
100
AcDbArc
 50
34.4779270202
 51
51.0993699297
  0
ARC
  5
275
100
AcDbEntity
  8
0
100
AcDbCircle
 62
7
  6
CONTINUOUS
 10
5.2984763042
 20
4.3837365716
 40
0.0599261626
100
AcDbArc
 50
308.9006259648
 51
325.5220434528
  0
CIRCLE
  5
276
100
AcDbEntity
  8
0
100
AcDbCircle
 62
7
  6
CONTINUOUS
 10
5.6249076087
 20
3.979056677
 40
0.53125
  0
ARC
  5
277
100
AcDbEntity
  8
0
100
AcDbCircle
 62
7
  6
CONTINUOUS
 10
5.6249076087
 20
3.979056677
 40
0.5311895299
100
AcDbArc
 50
305.8864710617
 51
354.1134998344
  0
ARC
  5
278
100
AcDbEntity
  8
0
100
AcDbCircle
 62
7
  6
CONTINUOUS
 10
5.6249076087
 20
3.979056677
 40
0.5311895299
100
AcDbArc
 50
185.8864710617
 51
234.1134998344
  0
ARC
  5
279
100
AcDbEntity
  8
0
100
AcDbCircle
 62
7
  6
CONTINUOUS
 10
5.6249076087
 20
3.979056677
 40
0.5311895299
100
AcDbArc
 50
245.8864710617
 51
294.1134998344
  0
ARC
  5
27A
100
AcDbEntity
  8
0
100
AcDbCircle
 62
7
  6
CONTINUOUS
 10
5.6249076087
 20
3.979056677
 40
0.5311895299
100
AcDbArc
 50
125.8864710617
 51
174.1134998344
  0
ARC
  5
27B
100
AcDbEntity
  8
0
100
AcDbCircle
 62
7
  6
CONTINUOUS
 10
5.6249076087
 20
3.979056677
 40
0.5311895299
100
AcDbArc
 50
5.8864710617
 51
54.1134998343
  0
ARC
  5
27C
100
AcDbEntity
  8
0
100
AcDbCircle
 62
7
  6
CONTINUOUS
 10
5.6249076087
 20
3.979056677
 40
0.5311895299
100
AcDbArc
 50
65.8864710617
 51
114.1134998344
  0
ARC
  5
27D
100
AcDbEntity
  8
0
100
AcDbCircle
 62
7
  6
CONTINUOUS
 10
5.6249076087
 20
3.979056677
 40
0.5267557054
100
AcDbArc
 50
297.3941829376
 51
302.605817688
  0
ARC
  5
27E
100
AcDbEntity
  8
0
100
AcDbCircle
 62
7
  6
CONTINUOUS
 10
5.6249076087
 20
3.979056677
 40
0.5267557054
100
AcDbArc
 50
237.3941829381
 51
242.6058176917
  0
ARC
  5
27F
100
AcDbEntity
  8
0
100
AcDbCircle
 62
7
  6
CONTINUOUS
 10
5.6249076087
 20
3.979056677
 40
0.5267557054
100
AcDbArc
 50
117.3941829376
 51
122.6058176881
  0
ARC
  5
280
100
AcDbEntity
  8
0
100
AcDbCircle
 62
7
  6
CONTINUOUS
 10
5.6249076087
 20
3.979056677
 40
0.5267557054
100
AcDbArc
 50
57.3941829324
 51
62.6058176957
  0
ARC
  5
281
100
AcDbEntity
  8
0
100
AcDbCircle
 62
7
  6
CONTINUOUS
 10
5.6249076087
 20
3.979056677
 40
0.5267557054
100
AcDbArc
 50
357.3941829376
 51
2.6058176578
  0
ARC
  5
282
100
AcDbEntity
  8
0
100
AcDbCircle
 62
7
  6
CONTINUOUS
 10
5.6249076087
 20
3.979056677
 40
0.5267557054
100
AcDbArc
 50
177.3941829376
 51
182.6058176916
  0
ARC
  5
283
100
AcDbEntity
  8
0
100
AcDbCircle
 62
7
  6
CONTINUOUS
 10
5.6249076087
 20
3.979056677
 40
0.5232016239
100
AcDbArc
 50
5.886471041
 51
54.1134998538
  0
ARC
  5
284
100
AcDbEntity
  8
0
100
AcDbCircle
 62
7
  6
CONTINUOUS
 10
5.6249076087
 20
3.979056677
 40
0.5232016239
100
AcDbArc
 50
65.886471041
 51
114.1134998538
  0
ARC
  5
285
100
AcDbEntity
  8
0
100
AcDbCircle
 62
7
  6
CONTINUOUS
 10
5.6249076087
 20
3.979056677
 40
0.5232016239
100
AcDbArc
 50
125.886471041
 51
174.1134998538
  0
ARC
  5
286
100
AcDbEntity
  8
0
100
AcDbCircle
 62
7
  6
CONTINUOUS
 10
5.6249076087
 20
3.979056677
 40
0.5232016239
100
AcDbArc
 50
185.886471041
 51
234.1134998538
  0
ARC
  5
287
100
AcDbEntity
  8
0
100
AcDbCircle
 62
7
  6
CONTINUOUS
 10
5.6249076087
 20
3.979056677
 40
0.5232016239
100
AcDbArc
 50
245.886471041
 51
294.1134998538
  0
ARC
  5
288
100
AcDbEntity
  8
0
100
AcDbCircle
 62
7
  6
CONTINUOUS
 10
5.6249076087
 20
3.979056677
 40
0.5232016239
100
AcDbArc
 50
305.886471041
 51
354.1134998538
  0
ARC
  5
289
100
AcDbEntity
  8
0
100
AcDbCircle
 62
7
  6
CONTINUOUS
 10
5.6249076087
 20
3.979056677
 40
0.5126464293
100
AcDbArc
 50
8.6758606865
 51
51.3254782228
  0
ARC
  5
28A
100
AcDbEntity
  8
0
100
AcDbCircle
 62
7
  6
CONTINUOUS
 10
5.6249076087
 20
3.979056677
 40
0.5126464293
100
AcDbArc
 50
68.6758606865
 51
111.3254782228
  0
ARC
  5
28B
100
AcDbEntity
  8
0
100
AcDbCircle
 62
7
  6
CONTINUOUS
 10
5.6249076087
 20
3.979056677
 40
0.5126464293
100
AcDbArc
 50
128.6758606865
 51
171.3254782228
  0
ARC
  5
28C
100
AcDbEntity
  8
0
100
AcDbCircle
 62
7
  6
CONTINUOUS
 10
5.6249076087
 20
3.979056677
 40
0.5126464293
100
AcDbArc
 50
188.6758606865
 51
231.3254782228
  0
ARC
  5
28D
100
AcDbEntity
  8
0
100
AcDbCircle
 62
7
  6
CONTINUOUS
 10
5.6249076087
 20
3.979056677
 40
0.5126464293
100
AcDbArc
 50
248.6758606865
 51
291.3254782228
  0
ARC
  5
28E
100
AcDbEntity
  8
0
100
AcDbCircle
 62
7
  6
CONTINUOUS
 10
5.6249076087
 20
3.979056677
 40
0.5126464293
100
AcDbArc
 50
308.6758606865
 51
351.3254782228
  0
ARC
  5
28F
100
AcDbEntity
  8
0
100
AcDbCircle
 62
7
  6
CONTINUOUS
 10
5.6249076087
 20
3.979056677
 40
0.4904553634
100
AcDbArc
 50
8.6750073105
 51
51.3249926823
  0
ARC
  5
290
100
AcDbEntity
  8
0
100
AcDbCircle
 62
7
  6
CONTINUOUS
 10
5.6249076087
 20
3.979056677
 40
0.4904553634
100
AcDbArc
 50
68.6750073105
 51
111.3249926823
  0
ARC
  5
291
100
AcDbEntity
  8
0
100
AcDbCircle
 62
7
  6
CONTINUOUS
 10
5.6249076087
 20
3.979056677
 40
0.4904553634
100
AcDbArc
 50
128.6750073105
 51
171.3249926823
  0
ARC
  5
292
100
AcDbEntity
  8
0
100
AcDbCircle
 62
7
  6
CONTINUOUS
 10
5.6249076087
 20
3.979056677
 40
0.4904553634
100
AcDbArc
 50
188.6750073105
 51
231.3249926823
  0
ARC
  5
293
100
AcDbEntity
  8
0
100
AcDbCircle
 62
7
  6
CONTINUOUS
 10
5.6249076087
 20
3.979056677
 40
0.4904553634
100
AcDbArc
 50
248.6750073105
 51
291.3249926823
  0
ARC
  5
294
100
AcDbEntity
  8
0
100
AcDbCircle
 62
7
  6
CONTINUOUS
 10
5.6249076087
 20
3.979056677
 40
0.4904553634
100
AcDbArc
 50
308.6750073105
 51
351.3249926823
  0
ARC
  5
295
100
AcDbEntity
  8
0
100
AcDbCircle
 62
7
  6
CONTINUOUS
 10
5.6249076087
 20
3.979056677
 40
0.4701121629
100
AcDbArc
 50
9.0240565755
 51
50.9759434246
  0
ARC
  5
296
100
AcDbEntity
  8
0
100
AcDbCircle
 62
7
  6
CONTINUOUS
 10
5.6249076087
 20
3.979056677
 40
0.4701121629
100
AcDbArc
 50
69.0240565755
 51
110.9759434246
  0
ARC
  5
297
100
AcDbEntity
  8
0
100
AcDbCircle
 62
7
  6
CONTINUOUS
 10
5.6249076087
 20
3.979056677
 40
0.4701121629
100
AcDbArc
 50
129.0240565755
 51
170.9759434246
  0
ARC
  5
298
100
AcDbEntity
  8
0
100
AcDbCircle
 62
7
  6
CONTINUOUS
 10
5.6249076087
 20
3.979056677
 40
0.4701121629
100
AcDbArc
 50
189.0240565755
 51
230.9759434246
  0
ARC
  5
299
100
AcDbEntity
  8
0
100
AcDbCircle
 62
7
  6
CONTINUOUS
 10
5.6249076087
 20
3.979056677
 40
0.4701121629
100
AcDbArc
 50
249.0240565755
 51
290.9759434246
  0
ARC
  5
29A
100
AcDbEntity
  8
0
100
AcDbCircle
 62
7
  6
CONTINUOUS
 10
5.6249076087
 20
3.979056677
 40
0.4701121629
100
AcDbArc
 50
309.0240565755
 51
350.9759434246
  0
ARC
  5
29B
100
AcDbEntity
  8
0
100
AcDbCircle
 62
7
  6
CONTINUOUS
 10
5.6249076087
 20
3.979056677
 40
0.46
100
AcDbArc
 50
6.6514682398
 51
53.3485311646
  0
ARC
  5
29C
100
AcDbEntity
  8
0
100
AcDbCircle
 62
7
  6
CONTINUOUS
 10
5.6249076087
 20
3.979056677
 40
0.46
100
AcDbArc
 50
66.6514682398
 51
113.3485311646
  0
ARC
  5
29D
100
AcDbEntity
  8
0
100
AcDbCircle
 62
7
  6
CONTINUOUS
 10
5.6249076087
 20
3.979056677
 40
0.46
100
AcDbArc
 50
126.6514682398
 51
173.3485311646
  0
ARC
  5
29E
100
AcDbEntity
  8
0
100
AcDbCircle
 62
7
  6
CONTINUOUS
 10
5.6249076087
 20
3.979056677
 40
0.46
100
AcDbArc
 50
186.6514682398
 51
233.3485311646
  0
ARC
  5
29F
100
AcDbEntity
  8
0
100
AcDbCircle
 62
7
  6
CONTINUOUS
 10
5.6249076087
 20
3.979056677
 40
0.46
100
AcDbArc
 50
246.6514682398
 51
293.3485311646
  0
ARC
  5
2A0
100
AcDbEntity
  8
0
100
AcDbCircle
 62
7
  6
CONTINUOUS
 10
5.6249076087
 20
3.979056677
 40
0.46
100
AcDbArc
 50
306.6514682398
 51
353.3485311646
  0
ARC
  5
2A1
100
AcDbEntity
  8
0
100
AcDbCircle
 62
7
  6
CONTINUOUS
 10
5.6249076087
 20
3.979056677
 40
0.4591011411
100
AcDbArc
 50
306.6507104763
 51
353.3492908399
  0
ARC
  5
2A2
100
AcDbEntity
  8
0
100
AcDbCircle
 62
7
  6
CONTINUOUS
 10
5.6249076087
 20
3.979056677
 40
0.4591011411
100
AcDbArc
 50
246.6507126377
 51
293.3492887984
  0
ARC
  5
2A3
100
AcDbEntity
  8
0
100
AcDbCircle
 62
7
  6
CONTINUOUS
 10
5.6249076087
 20
3.979056677
 40
0.4591011411
100
AcDbArc
 50
186.6507126377
 51
233.3492887984
  0
ARC
  5
2A4
100
AcDbEntity
  8
0
100
AcDbCircle
 62
7
  6
CONTINUOUS
 10
5.6249076087
 20
3.979056677
 40
0.4591011411
100
AcDbArc
 50
126.6507143191
 51
173.3492872098
  0
ARC
  5
2A5
100
AcDbEntity
  8
0
100
AcDbCircle
 62
7
  6
CONTINUOUS
 10
5.6249076087
 20
3.979056677
 40
0.4591011411
100
AcDbArc
 50
66.6507147099
 51
113.3492868406
  0
ARC
  5
2A6
100
AcDbEntity
  8
0
100
AcDbCircle
 62
7
  6
CONTINUOUS
 10
5.6249076087
 20
3.979056677
 40
0.4591011411
100
AcDbArc
 50
6.6514510627
 51
53.3485518712
  0
CIRCLE
  5
2A7
100
AcDbEntity
  8
0
100
AcDbCircle
 62
7
  6
CONTINUOUS
 10
5.6249076087
 20
3.979056677
 40
0.4539378756
  0
CIRCLE
  5
2A8
100
AcDbEntity
  8
0
100
AcDbCircle
 62
7
  6
CONTINUOUS
 10
5.6249076087
 20
3.979056677
 40
0.4317468098
  0
CIRCLE
  5
2A9
100
AcDbEntity
  8
0
100
AcDbCircle
 62
7
  6
CONTINUOUS
 10
5.6249076087
 20
3.979056677
 40
0.235
  0
CIRCLE
  5
2AA
100
AcDbEntity
  8
0
100
AcDbCircle
 62
7
  6
CONTINUOUS
 10
5.6249076087
 20
3.979056677
 40
0.225
  0
CIRCLE
  5
2AB
100
AcDbEntity
  8
0
100
AcDbCircle
 62
7
  6
CONTINUOUS
 10
5.6249076087
 20
3.979056677
 40
0.205
  0
CIRCLE
  5
2AC
100
AcDbEntity
  8
0
100
AcDbCircle
 62
7
  6
CONTINUOUS
 10
5.6249076087
 20
3.979056677
 40
0.1837949243
  0
ARC
  5
2AD
100
AcDbEntity
  8
0
100
AcDbCircle
 62
7
  6
CONTINUOUS
 10
5.951338846
 20
4.3837364815
 40
0.0599260504
100
AcDbArc
 50
214.4779270203
 51
231.0993699297
  0
SPLINE
  5
2AE
100
AcDbEntity
  8
0
100
AcDbSpline
 62
7
  6
CONTINUOUS
 70
0
 71
3
 72
12
 73
8
 74
0
 42
0.0000001
 43
0.0000001
 44
0.0000000001
 40
0.0
 40
0.0
 40
0.0
 40
0.0
 40
0.257449155
 40
0.5112374003
 40
0.6361457059
 40
0.7594022474
 40
1.0
 40
1.0
 40
1.0
 40
1.0
 10
5.8901745458
 20
3.5605836486
 30
0.0
 10
5.8907339699
 20
3.5609316081
 30
0.0
 10
5.8917725515
 20
3.5617471788
 30
0.0
 10
5.8928074114
 20
3.5630228282
 30
0.0
 10
5.8934315823
 20
3.5641487914
 30
0.0
 10
5.89390458
 20
3.5653087743
 30
0.0
 10
5.8940953363
 20
3.5662335066
 30
0.0
 10
5.8941390354
 20
3.5668476417
 30
0.0
  0
SPLINE
  5
2AF
100
AcDbEntity
  8
0
100
AcDbSpline
 62
7
  6
CONTINUOUS
 70
0
 71
3
 72
12
 73
8
 74
0
 42
0.0000001
 43
0.0000001
 44
0.0000000001
 40
0.0
 40
0.0
 40
0.0
 40
0.0
 40
0.2573968745
 40
0.5111698397
 40
0.6360842576
 40
0.7593551351
 40
1.0
 40
1.0
 40
1.0
 40
1.0
 10
5.9026952712
 20
3.5389247036
 30
0.0
 10
5.9032538722
 20
3.5392709385
 30
0.0
 10
5.9042914306
 20
3.5400826346
 30
0.0
 10
5.9053269348
 20
3.5413527011
 30
0.0
 10
5.9059530706
 20
3.5424742653
 30
0.0
 10
5.9064289773
 20
3.5436301971
 30
0.0
 10
5.9066230086
 20
3.5445521581
 30
0.0
 10
5.9066693522
 20
3.545164837
 30
0.0
  0
SPLINE
  5
2B0
100
AcDbEntity
  8
0
100
AcDbSpline
 62
7
  6
CONTINUOUS
 70
0
 71
3
 72
19
 73
15
 74
0
 42
0.0000001
 43
0.0000001
 44
0.0000000001
 40
0.0
 40
0.0
 40
0.0
 40
0.0
 40
0.1395032268
 40
0.2784982149
 40
0.416005004
 40
0.5505111909
 40
0.6159468743
 40
0.6796690773
 40
0.7412083426
 40
0.8000490121
 40
0.8556001789
 40
0.9074262271
 40
0.9553963234
 40
1.0
 40
1.0
 40
1.0
 40
1.0
 10
6.1453504205
 20
4.032715013
 30
0.0
 10
6.1456245311
 20
4.0315902994
 30
0.0
 10
6.1461557658
 20
4.02934102
 30
0.0
 10
6.1468859203
 20
4.0259667074
 30
0.0
 10
6.1475225298
 20
4.0226155947
 30
0.0
 10
6.1479487182
 20
4.0198468931
 30
0.0
 10
6.1481917454
 20
4.0176721437
 30
0.0
 10
6.1483119771
 20
4.01609383
 30
0.0
 10
6.148357363
 20
4.0145660955
 30
0.0
 10
6.1483124992
 20
4.0131056462
 30
0.0
 10
6.1481559053
 20
4.0117332158
 30
0.0
 10
6.1478664224
 20
4.0104730485
 30
0.0
 10
6.1474178542
 20
4.0093556019
 30
0.0
 10
6.1469861179
 20
4.0087099912
 30
0.0
 10
6.146741333
 20
4.0084323605
 30
0.0
  0
SPLINE
  5
2B1
100
AcDbEntity
  8
0
100
AcDbSpline
 62
7
  6
CONTINUOUS
 70
0
 71
3
 72
11
 73
7
 74
0
 42
0.0000001
 43
0.0000001
 44
0.0000000001
 40
0.0
 40
0.0
 40
0.0
 40
0.0
 40
0.2743586459
 40
0.5260132887
 40
0.7644479739
 40
1.0
 40
1.0
 40
1.0
 40
1.0
 10
6.146741333
 20
4.0084323605
 30
0.0
 10
6.1463853854
 20
4.008028822
 30
0.0
 10
6.1456288197
 20
4.0073148764
 30
0.0
 10
6.1443268922
 20
4.0065444502
 30
0.0
 10
6.1429495191
 20
4.006133555
 30
0.0
 10
6.1420106804
 20
4.0060922915
 30
0.0
 10
6.1415497621
 20
4.0061236067
 30
0.0
  0
SPLINE
  5
2B2
100
AcDbEntity
  8
0
100
AcDbSpline
 62
7
  6
CONTINUOUS
 70
0
 71
3
 72
11
 73
7
 74
0
 42
0.0000001
 43
0.0000001
 44
0.0000000001
 40
0.0
 40
0.0
 40
0.0
 40
0.0
 40
0.2355548273
 40
0.4739903891
 40
0.725645323
 40
1.0
 40
1.0
 40
1.0
 40
1.0
 10
5.9066693018
 20
4.4129483296
 30
0.0
 10
5.9068726243
 20
4.4133631754
 30
0.0
 10
5.907377809
 20
4.4141556113
 30
0.0
 10
5.9084223338
 20
4.4151430358
 30
0.0
 10
5.909740481
 20
4.4158854149
 30
0.0
 10
5.9107370762
 20
4.416183609
 30
0.0
 10
5.9112645178
 20
4.4162901298
 30
0.0
  0
SPLINE
  5
2B3
100
AcDbEntity
  8
0
100
AcDbSpline
 62
7
  6
CONTINUOUS
 70
0
 71
3
 72
19
 73
15
 74
0
 42
0.0000001
 43
0.0000001
 44
0.0000000001
 40
0.0
 40
0.0
 40
0.0
 40
0.0
 40
0.0446009048
 40
0.0925752359
 40
0.1443979818
 40
0.1999458702
 40
0.2587901586
 40
0.3203333588
 40
0.3840543134
 40
0.4494888803
 40
0.5839953041
 40
0.7215020689
 40
0.8604967463
 40
1.0
 40
1.0
 40
1.0
 40
1.0
 10
5.9112645178
 20
4.4162901298
 30
0.0
 10
5.9116273366
 20
4.4163632443
 30
0.0
 10
5.9124024209
 20
4.4164134941
 30
0.0
 10
5.9135942947
 20
4.4162431904
 30
0.0
 10
5.9148307934
 20
4.4158652082
 30
0.0
 10
5.9160977662
 20
4.4153147783
 30
0.0
 10
5.9173847276
 20
4.4146228363
 30
0.0
 10
5.9186849847
 20
4.4138193899
 30
0.0
 10
5.9199917986
 20
4.4129261739
 30
0.0
 10
5.9217537066
 20
4.4116283794
 30
0.0
 10
5.9239383293
 20
4.4098748593
 30
0.0
 10
5.9265221784
 20
4.4076479584
 30
0.0
 10
5.9290793673
 20
4.4053284685
 30
0.0
 10
5.9307617121
 20
4.4037437791
 30
0.0
 10
5.9315987119
 20
4.40294405
 30
0.0
  0
SPLINE
  5
2B4
100
AcDbEntity
  8
0
100
AcDbSpline
 62
7
  6
CONTINUOUS
 70
0
 71
3
 72
12
 73
8
 74
0
 42
0.0000001
 43
0.0000001
 44
0.0000000001
 40
0.0
 40
0.0
 40
0.0
 40
0.0
 40
0.2394592324
 40
0.4886959989
 40
0.6158923336
 40
0.7440089791
 40
1.0
 40
1.0
 40
1.0
 40
1.0
 10
6.1511186269
 20
4.00300532
 30
0.0
 10
6.1509604258
 20
4.0035518971
 30
0.0
 10
6.1505130609
 20
4.0046339755
 30
0.0
 10
6.1496961313
 20
4.0058588455
 30
0.0
 10
6.1488998831
 20
4.0067571948
 30
0.0
 10
6.1480142593
 20
4.0075906685
 30
0.0
 10
6.1472663655
 20
4.0081251699
 30
0.0
 10
6.1467413383
 20
4.0084323657
 30
0.0
  0
SPLINE
  5
2B5
100
AcDbEntity
  8
0
100
AcDbSpline
 62
7
  6
CONTINUOUS
 70
0
 71
3
 72
12
 73
8
 74
0
 42
0.0000001
 43
0.0000001
 44
0.0000000001
 40
0.0
 40
0.0
 40
0.0
 40
0.0
 40
0.2394555304
 40
0.4886929692
 40
0.6158902866
 40
0.7440079404
 40
1.0
 40
1.0
 40
1.0
 40
1.0
 10
5.9087532465
 20
4.422794468
 30
0.0
 10
5.909147464
 20
4.4223841625
 30
0.0
 10
5.90986084
 20
4.421455683
 30
0.0
 10
5.9105131219
 20
4.4201357794
 30
0.0
 10
5.9108930024
 20
4.418997043
 30
0.0
 10
5.9111720278
 20
4.4178133448
 30
0.0
 10
5.9112610115
 20
4.416898408
 30
0.0
 10
5.911264567
 20
4.4162901267
 30
0.0
  0
SPLINE
  5
2B6
100
AcDbEntity
  8
0
100
AcDbSpline
 62
7
  6
CONTINUOUS
 70
0
 71
3
 72
12
 73
8
 74
0
 42
0.0000001
 43
0.0000001
 44
0.0000000001
 40
0.0
 40
0.0
 40
0.0
 40
0.0
 40
0.2573969742
 40
0.5111699982
 40
0.6360844102
 40
0.7593552642
 40
1.0
 40
1.0
 40
1.0
 40
1.0
 10
5.9026952305
 20
4.419188608
 30
0.0
 10
5.903253841
 20
4.4188423665
 30
0.0
 10
5.9042914152
 20
4.4180306523
 30
0.0
 10
5.9053269268
 20
4.4167605544
 30
0.0
 10
5.9059530595
 20
4.415638963
 30
0.0
 10
5.9064289567
 20
4.4144830045
 30
0.0
 10
5.9066229734
 20
4.4135610236
 30
0.0
 10
5.9066693039
 20
4.4129483335
 30
0.0
  0
SPLINE
  5
2B7
100
AcDbEntity
  8
0
100
AcDbSpline
 62
7
  6
CONTINUOUS
 70
0
 71
3
 72
12
 73
8
 74
0
 42
0.0000001
 43
0.0000001
 44
0.0000000001
 40
0.0
 40
0.0
 40
0.0
 40
0.0
 40
0.2394592344
 40
0.4886959997
 40
0.6158923341
 40
0.7440089796
 40
1.0
 40
1.0
 40
1.0
 40
1.0
 10
5.8672729843
 20
4.4467431081
 30
0.0
 10
5.8667205341
 20
4.4468793904
 30
0.0
 10
5.8655597443
 20
4.4470330003
 30
0.0
 10
5.8640905111
 20
4.4469379534
 30
0.0
 10
5.8629143937
 20
4.4466975569
 30
0.0
 10
5.8617497724
 20
4.4463473211
 30
0.0
 10
5.8609129338
 20
4.4459668767
 30
0.0
 10
5.8603843809
 20
4.4456657878
 30
0.0
  0
SPLINE
  5
2B8
100
AcDbEntity
  8
0
100
AcDbSpline
 62
7
  6
CONTINUOUS
 70
0
 71
3
 72
12
 73
8
 74
0
 42
0.0000001
 43
0.0000001
 44
0.0000000001
 40
0.0
 40
0.0
 40
0.0
 40
0.0
 40
0.2394557698
 40
0.4886932529
 40
0.6158905295
 40
0.7440081136
 40
1.0
 40
1.0
 40
1.0
 40
1.0
 10
5.382542299
 20
4.4467431231
 30
0.0
 10
5.3830947389
 20
4.4468793662
 30
0.0
 10
5.3842555035
 20
4.4470329177
 30
0.0
 10
5.3857246994
 20
4.4469378521
 30
0.0
 10
5.3869008012
 20
4.4466974685
 30
0.0
 10
5.3880654132
 20
4.4463472634
 30
0.0
 10
5.388902254
 20
4.4459668605
 30
0.0
 10
5.389430813
 20
4.4456658023
 30
0.0
  0
SPLINE
  5
2B9
100
AcDbEntity
  8
0
100
AcDbSpline
 62
7
  6
CONTINUOUS
 70
0
 71
3
 72
12
 73
8
 74
0
 42
0.0000001
 43
0.0000001
 44
0.0000000001
 40
0.0
 40
0.0
 40
0.0
 40
0.0
 40
0.2573969742
 40
0.5111699982
 40
0.6360844102
 40
0.7593552642
 40
1.0
 40
1.0
 40
1.0
 40
1.0
 10
5.3826359864
 20
4.4396937798
 30
0.0
 10
5.3832151455
 20
4.44000443
 30
0.0
 10
5.3844368977
 20
4.4404971385
 30
0.0
 10
5.3860545906
 20
4.4407588689
 30
0.0
 10
5.3873389836
 20
4.44074032
 30
0.0
 10
5.3885780217
 20
4.4405744798
 30
0.0
 10
5.3894734889
 20
4.4402815128
 30
0.0
 10
5.3900272593
 20
4.4400152911
 30
0.0
  0
SPLINE
  5
2BA
100
AcDbEntity
  8
0
100
AcDbSpline
 62
7
  6
CONTINUOUS
 70
0
 71
3
 72
19
 73
15
 74
0
 42
0.0000001
 43
0.0000001
 44
0.0000000001
 40
0.0
 40
0.0
 40
0.0
 40
0.0
 40
0.1395032268
 40
0.2784982149
 40
0.416005004
 40
0.5505111909
 40
0.6159468743
 40
0.6796690773
 40
0.7412083426
 40
0.8000490121
 40
0.8556001789
 40
0.9074262271
 40
0.9553963234
 40
1.0
 40
1.0
 40
1.0
 40
1.0
 10
5.8386595325
 20
4.4566025413
 30
0.0
 10
5.8397706184
 20
4.4562775712
 30
0.0
 10
5.8419841688
 20
4.4556129942
 30
0.0
 10
5.8452714865
 20
4.4545581703
 30
0.0
 10
5.84849194
 20
4.4534339339
 30
0.0
 10
5.8511028001
 20
4.4524186731
 30
0.0
 10
5.853107702
 20
4.4515417662
 30
0.0
 10
5.8545346776
 20
4.450856733
 30
0.0
 10
5.8558804274
 20
4.4501321711
 30
0.0
 10
5.8571227817
 20
4.4493630932
 30
0.0
 10
5.8582330443
 20
4.4485412638
 30
0.0
 10
5.8591796397
 20
4.4476604806
 30
0.0
 10
5.8599230928
 20
4.4467132858
 30
0.0
 10
5.8602663399
 20
4.4460165859
 30
0.0
 10
5.8603843827
 20
4.4456657806
 30
0.0
  0
SPLINE
  5
2BB
100
AcDbEntity
  8
0
100
AcDbSpline
 62
7
  6
CONTINUOUS
 70
0
 71
3
 72
11
 73
7
 74
0
 42
0.0000001
 43
0.0000001
 44
0.0000000001
 40
0.0
 40
0.0
 40
0.0
 40
0.0
 40
0.2743586459
 40
0.5260132887
 40
0.7644479739
 40
1.0
 40
1.0
 40
1.0
 40
1.0
 10
5.8603843827
 20
4.4456657806
 30
0.0
 10
5.8605558835
 20
4.4451557516
 30
0.0
 10
5.8607958957
 20
4.4441435738
 30
0.0
 10
5.8608121406
 20
4.4426308583
 30
0.0
 10
5.8604792997
 20
4.4412325707
 30
0.0
 10
5.8600456156
 20
4.4403988808
 30
0.0
 10
5.8597880367
 20
4.4400153714
 30
0.0
  0
SPLINE
  5
2BC
100
AcDbEntity
  8
0
100
AcDbSpline
 62
7
  6
CONTINUOUS
 70
0
 71
3
 72
11
 73
7
 74
0
 42
0.0000001
 43
0.0000001
 44
0.0000000001
 40
0.0
 40
0.0
 40
0.0
 40
0.0
 40
0.2355548273
 40
0.4739903891
 40
0.725645323
 40
1.0
 40
1.0
 40
1.0
 40
1.0
 10
5.3900272616
 20
4.4400152873
 30
0.0
 10
5.3897696559
 20
4.4403987927
 30
0.0
 10
5.3893359786
 20
4.4412325135
 30
0.0
 10
5.3890031063
 20
4.4426308106
 30
0.0
 10
5.3890192608
 20
4.4441435492
 30
0.0
 10
5.3892593147
 20
4.445155723
 30
0.0
 10
5.3894307858
 20
4.4456657613
 30
0.0
  0
SPLINE
  5
2BD
100
AcDbEntity
  8
0
100
AcDbSpline
 62
7
  6
CONTINUOUS
 70
0
 71
3
 72
19
 73
15
 74
0
 42
0.0000001
 43
0.0000001
 44
0.0000000001
 40
0.0
 40
0.0
 40
0.0
 40
0.0
 40
0.0446009048
 40
0.0925752359
 40
0.1443979818
 40
0.1999458702
 40
0.2587901586
 40
0.3203333588
 40
0.3840543134
 40
0.4494888803
 40
0.5839953041
 40
0.7215020689
 40
0.8604967463
 40
1.0
 40
1.0
 40
1.0
 40
1.0
 10
5.3894307858
 20
4.4456657613
 30
0.0
 10
5.3895488761
 20
4.4460165288
 30
0.0
 10
5.3898929007
 20
4.4467128964
 30
0.0
 10
5.390636325
 20
4.4476599375
 30
0.0
 10
5.3915819165
 20
4.4485417857
 30
0.0
 10
5.3926920891
 20
4.4493638014
 30
0.0
 10
5.3939348092
 20
4.4501323716
 30
0.0
 10
5.3952807427
 20
4.4508567041
 30
0.0
 10
5.3967076974
 20
4.4515418302
 30
0.0
 10
5.3987125744
 20
4.45241879
 30
0.0
 10
5.4013234787
 20
4.4534339687
 30
0.0
 10
5.404543956
 20
4.4545581973
 30
0.0
 10
5.4078312877
 20
4.4556130428
 30
0.0
 10
5.4100448414
 20
4.4562776515
 30
0.0
 10
5.411155927
 20
4.45660265
 30
0.0
  0
SPLINE
  5
2BE
100
AcDbEntity
  8
0
100
AcDbSpline
 62
7
  6
CONTINUOUS
 70
0
 71
3
 72
12
 73
8
 74
0
 42
0.0000001
 43
0.0000001
 44
0.0000000001
 40
0.0
 40
0.0
 40
0.0
 40
0.0
 40
0.2394592344
 40
0.4886959995
 40
0.6158923339
 40
0.7440089795
 40
1.0
 40
1.0
 40
1.0
 40
1.0
 10
5.3410619663
 20
4.4227944649
 30
0.0
 10
5.3406677172
 20
4.4223841701
 30
0.0
 10
5.3399542922
 20
4.4214557016
 30
0.0
 10
5.3393019886
 20
4.4201357849
 30
0.0
 10
5.3389221194
 20
4.418997039
 30
0.0
 10
5.3386431218
 20
4.4178133295
 30
0.0
 10
5.338554177
 20
4.4168983839
 30
0.0
 10
5.3385506513
 20
4.4162900991
 30
0.0
  0
SPLINE
  5
2BF
100
AcDbEntity
  8
0
100
AcDbSpline
 62
7
  6
CONTINUOUS
 70
0
 71
3
 72
12
 73
8
 74
0
 42
0.0000001
 43
0.0000001
 44
0.0000000001
 40
0.0
 40
0.0
 40
0.0
 40
0.0
 40
0.2394557698
 40
0.4886932529
 40
0.6158905295
 40
0.7440081136
 40
1.0
 40
1.0
 40
1.0
 40
1.0
 10
5.0986966105
 20
4.0030053848
 30
0.0
 10
5.0988548405
 20
4.0035519334
 30
0.0
 10
5.0993022433
 20
4.0046339608
 30
0.0
 10
5.1001191705
 20
4.0058587889
 30
0.0
 10
5.1009153997
 20
4.0067571312
 30
0.0
 10
5.1018009922
 20
4.0075906122
 30
0.0
 10
5.1025488511
 20
4.0081251361
 30
0.0
 10
5.1030738547
 20
4.0084323526
 30
0.0
  0
SPLINE
  5
2C0
100
AcDbEntity
  8
0
100
AcDbSpline
 62
7
  6
CONTINUOUS
 70
0
 71
3
 72
12
 73
8
 74
0
 42
0.0000001
 43
0.0000001
 44
0.0000000001
 40
0.0
 40
0.0
 40
0.0
 40
0.0
 40
0.2573969742
 40
0.5111699982
 40
0.6360844102
 40
0.7593552642
 40
1.0
 40
1.0
 40
1.0
 40
1.0
 10
5.1048483646
 20
3.9995618489
 30
0.0
 10
5.1048689132
 20
4.0002187405
 30
0.0
 10
5.1050530912
 20
4.0015231632
 30
0.0
 10
5.1056352725
 20
4.0030549915
 30
0.0
 10
5.1062935328
 20
4.004158034
 30
0.0
 10
5.1070566737
 20
4.0051481524
 30
0.0
 10
5.1077581241
 20
4.0057771662
 30
0.0
 10
5.1082655641
 20
4.0061236346
 30
0.0
  0
SPLINE
  5
2C1
100
AcDbEntity
  8
0
100
AcDbSpline
 62
7
  6
CONTINUOUS
 70
0
 71
3
 72
19
 73
15
 74
0
 42
0.0000001
 43
0.0000001
 44
0.0000000001
 40
0.0
 40
0.0
 40
0.0
 40
0.0
 40
0.1395032268
 40
0.2784982149
 40
0.416005004
 40
0.5505111909
 40
0.6159468743
 40
0.6796690773
 40
0.7412083426
 40
0.8000490121
 40
0.8556001789
 40
0.9074262271
 40
0.9553963234
 40
1.0
 40
1.0
 40
1.0
 40
1.0
 10
5.3182167207
 20
4.4029442053
 30
0.0
 10
5.319053696
 20
4.4037439488
 30
0.0
 10
5.3207360117
 20
4.4053286512
 30
0.0
 10
5.3232931749
 20
4.4076481399
 30
0.0
 10
5.3258770189
 20
4.4098750163
 30
0.0
 10
5.3280616906
 20
4.4116284571
 30
0.0
 10
5.3298235652
 20
4.4129262995
 30
0.0
 10
5.3311303091
 20
4.41381958
 30
0.0
 10
5.3324306731
 20
4.4146227526
 30
0.0
 10
5.3337178912
 20
4.4153141241
 30
0.0
 10
5.3349847477
 20
4.4158647249
 30
0.0
 10
5.336220826
 20
4.416244109
 30
0.0
 10
5.3374128472
 20
4.4164143609
 30
0.0
 10
5.3381878307
 20
4.4163632717
 30
0.0
 10
5.3385506584
 20
4.4162900971
 30
0.0
  0
SPLINE
  5
2C2
100
AcDbEntity
  8
0
100
AcDbSpline
 62
7
  6
CONTINUOUS
 70
0
 71
3
 72
11
 73
7
 74
0
 42
0.0000001
 43
0.0000001
 44
0.0000000001
 40
0.0
 40
0.0
 40
0.0
 40
0.0
 40
0.2743586459
 40
0.5260132887
 40
0.7644479739
 40
1.0
 40
1.0
 40
1.0
 40
1.0
 10
5.3385506584
 20
4.4162900971
 30
0.0
 10
5.3390781068
 20
4.4161836067
 30
0.0
 10
5.3400746846
 20
4.4158853744
 30
0.0
 10
5.3413928571
 20
4.4151430851
 30
0.0
 10
5.3424373893
 20
4.4141556927
 30
0.0
 10
5.3429425438
 20
4.4133632662
 30
0.0
 10
5.3431458833
 20
4.4129484417
 30
0.0
  0
SPLINE
  5
2C3
100
AcDbEntity
  8
0
100
AcDbSpline
 62
7
  6
CONTINUOUS
 70
0
 71
3
 72
11
 73
7
 74
0
 42
0.0000001
 43
0.0000001
 44
0.0000000001
 40
0.0
 40
0.0
 40
0.0
 40
0.0
 40
0.2355548273
 40
0.4739903891
 40
0.725645323
 40
1.0
 40
1.0
 40
1.0
 40
1.0
 10
5.1082655686
 20
4.0061236347
 30
0.0
 10
5.1078046403
 20
4.0060922944
 30
0.0
 10
5.1068657783
 20
4.0061335792
 30
0.0
 10
5.1054883812
 20
4.0065444519
 30
0.0
 10
5.1041863885
 20
4.0073148113
 30
0.0
 10
5.1034298472
 20
4.0080287911
 30
0.0
 10
5.1030738766
 20
4.0084323085
 30
0.0
  0
SPLINE
  5
2C4
100
AcDbEntity
  8
0
100
AcDbSpline
 62
7
  6
CONTINUOUS
 70
0
 71
3
 72
19
 73
15
 74
0
 42
0.0000001
 43
0.0000001
 44
0.0000000001
 40
0.0
 40
0.0
 40
0.0
 40
0.0
 40
0.0446009048
 40
0.0925752359
 40
0.1443979818
 40
0.1999458702
 40
0.2587901586
 40
0.3203333588
 40
0.3840543134
 40
0.4494888803
 40
0.5839953041
 40
0.7215020689
 40
0.8604967463
 40
1.0
 40
1.0
 40
1.0
 40
1.0
 10
5.1030738766
 20
4.0084323085
 30
0.0
 10
5.1028291482
 20
4.0087099615
 30
0.0
 10
5.1023980885
 20
4.0093560793
 30
0.0
 10
5.1019496389
 20
4.0104734242
 30
0.0
 10
5.1016587317
 20
4.0117332546
 30
0.0
 10
5.1015019316
 20
4.0131057001
 30
0.0
 10
5.1014576903
 20
4.0145662124
 30
0.0
 10
5.1015033667
 20
4.0160939912
 30
0.0
 10
5.1016235075
 20
4.0176723333
 30
0.0
 10
5.1018664765
 20
4.0198470876
 30
0.0
 10
5.1022927582
 20
4.0226157864
 30
0.0
 10
5.1029293863
 20
4.0259669159
 30
0.0
 10
5.1036595291
 20
4.0293412513
 30
0.0
 10
5.1041907379
 20
4.0315905494
 30
0.0
 10
5.1044648237
 20
4.0327152771
 30
0.0
  0
SPLINE
  5
2C5
100
AcDbEntity
  8
0
100
AcDbSpline
 62
7
  6
CONTINUOUS
 70
0
 71
3
 72
12
 73
8
 74
0
 42
0.0000001
 43
0.0000001
 44
0.0000000001
 40
0.0
 40
0.0
 40
0.0
 40
0.0
 40
0.2394592344
 40
0.4886959996
 40
0.615892334
 40
0.7440089796
 40
1.0
 40
1.0
 40
1.0
 40
1.0
 10
5.0986965906
 20
3.9551080338
 30
0.0
 10
5.0988547917
 20
3.9545614567
 30
0.0
 10
5.0993021565
 20
3.9534793783
 30
0.0
 10
5.1001190862
 20
3.9522545084
 30
0.0
 10
5.1009153344
 20
3.9513561592
 30
0.0
 10
5.1018009581
 20
3.9505226855
 30
0.0
 10
5.1025488519
 20
3.9499881842
 30
0.0
 10
5.103073879
 20
3.9496809884
 30
0.0
  0
SPLINE
  5
2C6
100
AcDbEntity
  8
0
100
AcDbSpline
 62
7
  6
CONTINUOUS
 70
0
 71
3
 72
12
 73
8
 74
0
 42
0.0000001
 43
0.0000001
 44
0.0000000001
 40
0.0
 40
0.0
 40
0.0
 40
0.0
 40
0.2394557451
 40
0.4886932237
 40
0.6158905044
 40
0.7440080957
 40
1.0
 40
1.0
 40
1.0
 40
1.0
 10
5.3410619255
 20
3.5353189333
 30
0.0
 10
5.3406677147
 20
3.5357292387
 30
0.0
 10
5.3399543515
 20
3.536657715
 30
0.0
 10
5.3393020814
 20
3.5379776098
 30
0.0
 10
5.3389222079
 20
3.5391163368
 30
0.0
 10
5.3386431879
 20
3.5403000241
 30
0.0
 10
5.3385542059
 20
3.5412149519
 30
0.0
 10
5.3385506504
 20
3.5418232273
 30
0.0
  0
SPLINE
  5
2C7
100
AcDbEntity
  8
0
100
AcDbSpline
 62
7
  6
CONTINUOUS
 70
0
 71
3
 72
12
 73
8
 74
0
 42
0.0000001
 43
0.0000001
 44
0.0000000001
 40
0.0
 40
0.0
 40
0.0
 40
0.0
 40
0.2573969742
 40
0.5111699982
 40
0.6360844102
 40
0.7593552642
 40
1.0
 40
1.0
 40
1.0
 40
1.0
 10
5.3471199869
 20
3.5389247461
 30
0.0
 10
5.3465613764
 20
3.5392709875
 30
0.0
 10
5.3455238022
 20
3.5400827017
 30
0.0
 10
5.3444882906
 20
3.5413527996
 30
0.0
 10
5.3438621579
 20
3.542474391
 30
0.0
 10
5.3433862607
 20
3.5436303496
 30
0.0
 10
5.3431922439
 20
3.5445523304
 30
0.0
 10
5.3431459135
 20
3.5451650205
 30
0.0
  0
SPLINE
  5
2C8
100
AcDbEntity
  8
0
100
AcDbSpline
 62
7
  6
CONTINUOUS
 70
0
 71
3
 72
19
 73
15
 74
0
 42
0.0000001
 43
0.0000001
 44
0.0000000001
 40
0.0
 40
0.0
 40
0.0
 40
0.0
 40
0.1395032268
 40
0.2784982149
 40
0.416005004
 40
0.5505111909
 40
0.6159468743
 40
0.6796690773
 40
0.7412083426
 40
0.8000490121
 40
0.8556001789
 40
0.9074262271
 40
0.9553963234
 40
1.0
 40
1.0
 40
1.0
 40
1.0
 10
5.1044647969
 20
3.925398341
 30
0.0
 10
5.1041906863
 20
3.9265230547
 30
0.0
 10
5.1036594516
 20
3.928772334
 30
0.0
 10
5.1029292971
 20
3.9321466466
 30
0.0
 10
5.1022926876
 20
3.9354977594
 30
0.0
 10
5.1018664992
 20
3.9382664609
 30
0.0
 10
5.1016234719
 20
3.9404412104
 30
0.0
 10
5.1015032403
 20
3.9420195241
 30
0.0
 10
5.1014578544
 20
3.9435472585
 30
0.0
 10
5.1015027182
 20
3.9450077079
 30
0.0
 10
5.1016593121
 20
3.9463801382
 30
0.0
 10
5.101948795
 20
3.9476403055
 30
0.0
 10
5.1023973632
 20
3.9487577521
 30
0.0
 10
5.1028290995
 20
3.9494033628
 30
0.0
 10
5.1030738844
 20
3.9496809935
 30
0.0
  0
SPLINE
  5
2C9
100
AcDbEntity
  8
0
100
AcDbSpline
 62
7
  6
CONTINUOUS
 70
0
 71
3
 72
11
 73
7
 74
0
 42
0.0000001
 43
0.0000001
 44
0.0000000001
 40
0.0
 40
0.0
 40
0.0
 40
0.0
 40
0.2743586459
 40
0.5260132887
 40
0.7644479739
 40
1.0
 40
1.0
 40
1.0
 40
1.0
 10
5.1030738844
 20
3.9496809935
 30
0.0
 10
5.103429832
 20
3.9500845321
 30
0.0
 10
5.1041863977
 20
3.9507984776
 30
0.0
 10
5.1054883252
 20
3.9515689039
 30
0.0
 10
5.1068656983
 20
3.951979799
 30
0.0
 10
5.107804537
 20
3.9520210625
 30
0.0
 10
5.1082654553
 20
3.9519897473
 30
0.0
  0
SPLINE
  5
2CA
100
AcDbEntity
  8
0
100
AcDbSpline
 62
7
  6
CONTINUOUS
 70
0
 71
3
 72
11
 73
7
 74
0
 42
0.0000001
 43
0.0000001
 44
0.0000000001
 40
0.0
 40
0.0
 40
0.0
 40
0.0
 40
0.2355548273
 40
0.4739903891
 40
0.725645323
 40
1.0
 40
1.0
 40
1.0
 40
1.0
 10
5.3431459156
 20
3.5451650245
 30
0.0
 10
5.342942593
 20
3.5447501787
 30
0.0
 10
5.3424374084
 20
3.5439577428
 30
0.0
 10
5.3413928836
 20
3.5429703183
 30
0.0
 10
5.3400747364
 20
3.5422279392
 30
0.0
 10
5.3390781412
 20
3.5419297451
 30
0.0
 10
5.3385506996
 20
3.5418232242
 30
0.0
  0
SPLINE
  5
2CB
100
AcDbEntity
  8
0
100
AcDbSpline
 62
7
  6
CONTINUOUS
 70
0
 71
3
 72
19
 73
15
 74
0
 42
0.0000001
 43
0.0000001
 44
0.0000000001
 40
0.0
 40
0.0
 40
0.0
 40
0.0
 40
0.0446009048
 40
0.0925752359
 40
0.1443979818
 40
0.1999458702
 40
0.2587901586
 40
0.3203333588
 40
0.3840543134
 40
0.4494888803
 40
0.5839953041
 40
0.7215020689
 40
0.8604967463
 40
1.0
 40
1.0
 40
1.0
 40
1.0
 10
5.3385506996
 20
3.5418232242
 30
0.0
 10
5.3381878808
 20
3.5417501097
 30
0.0
 10
5.3374127965
 20
3.54169986
 30
0.0
 10
5.3362209227
 20
3.5418701637
 30
0.0
 10
5.334984424
 20
3.5422481458
 30
0.0
 10
5.3337174512
 20
3.5427985758
 30
0.0
 10
5.3324304898
 20
3.5434905178
 30
0.0
 10
5.3311302327
 20
3.5442939642
 30
0.0
 10
5.3298234188
 20
3.5451871801
 30
0.0
 10
5.3280615108
 20
3.5464849746
 30
0.0
 10
5.3258768881
 20
3.5482384948
 30
0.0
 10
5.3232930389
 20
3.5504653956
 30
0.0
 10
5.3207358501
 20
3.5527848856
 30
0.0
 10
5.3190535052
 20
3.554369575
 30
0.0
 10
5.3182165055
 20
3.555169304
 30
0.0
  0
SPLINE
  5
2CC
100
AcDbEntity
  8
0
100
AcDbSpline
 62
7
  6
CONTINUOUS
 70
0
 71
3
 72
12
 73
8
 74
0
 42
0.0000001
 43
0.0000001
 44
0.0000000001
 40
0.0
 40
0.0
 40
0.0
 40
0.0
 40
0.2394592344
 40
0.4886959996
 40
0.615892334
 40
0.7440089796
 40
1.0
 40
1.0
 40
1.0
 40
1.0
 10
5.382542233
 20
3.511370246
 30
0.0
 10
5.3830946832
 20
3.5112339636
 30
0.0
 10
5.3842554731
 20
3.5110803537
 30
0.0
 10
5.3857247063
 20
3.5111754006
 30
0.0
 10
5.3869008237
 20
3.5114157972
 30
0.0
 10
5.388065445
 20
3.5117660329
 30
0.0
 10
5.3889022836
 20
3.5121464773
 30
0.0
 10
5.3894308365
 20
3.5124475663
 30
0.0
  0
SPLINE
  5
2CD
100
AcDbEntity
  8
0
100
AcDbSpline
 62
7
  6
CONTINUOUS
 70
0
 71
3
 72
12
 73
8
 74
0
 42
0.0000001
 43
0.0000001
 44
0.0000000001
 40
0.0
 40
0.0
 40
0.0
 40
0.0
 40
0.2394557694
 40
0.4886932524
 40
0.6158905291
 40
0.7440081133
 40
1.0
 40
1.0
 40
1.0
 40
1.0
 10
5.8672729185
 20
3.511370231
 30
0.0
 10
5.8667204786
 20
3.5112339878
 30
0.0
 10
5.865559714
 20
3.5110804363
 30
0.0
 10
5.8640905181
 20
3.5111755019
 30
0.0
 10
5.8629144162
 20
3.5114158855
 30
0.0
 10
5.8617498042
 20
3.5117660906
 30
0.0
 10
5.8609129634
 20
3.5121464935
 30
0.0
 10
5.8603844044
 20
3.5124475517
 30
0.0
  0
SPLINE
  5
2CE
100
AcDbEntity
  8
0
100
AcDbSpline
 62
7
  6
CONTINUOUS
 70
0
 71
3
 72
12
 73
8
 74
0
 42
0.0000001
 43
0.0000001
 44
0.0000000001
 40
0.0
 40
0.0
 40
0.0
 40
0.0
 40
0.2573969742
 40
0.5111699982
 40
0.6360844102
 40
0.7593552642
 40
1.0
 40
1.0
 40
1.0
 40
1.0
 10
5.867179231
 20
3.5184195742
 30
0.0
 10
5.8666000719
 20
3.518108924
 30
0.0
 10
5.8653783197
 20
3.5176162155
 30
0.0
 10
5.8637606268
 20
3.5173544851
 30
0.0
 10
5.8624762338
 20
3.517373034
 30
0.0
 10
5.8612371957
 20
3.5175388742
 30
0.0
 10
5.8603417285
 20
3.5178318412
 30
0.0
 10
5.8597879581
 20
3.5180980629
 30
0.0
  0
SPLINE
  5
2CF
100
AcDbEntity
  8
0
100
AcDbSpline
 62
7
  6
CONTINUOUS
 70
0
 71
3
 72
19
 73
15
 74
0
 42
0.0000001
 43
0.0000001
 44
0.0000000001
 40
0.0
 40
0.0
 40
0.0
 40
0.0
 40
0.1395032268
 40
0.2784982149
 40
0.416005004
 40
0.5505111909
 40
0.6159468743
 40
0.6796690773
 40
0.7412083426
 40
0.8000490121
 40
0.8556001789
 40
0.9074262271
 40
0.9553963234
 40
1.0
 40
1.0
 40
1.0
 40
1.0
 10
5.4111556849
 20
3.5015108128
 30
0.0
 10
5.410044599
 20
3.5018357828
 30
0.0
 10
5.4078310486
 20
3.5025003598
 30
0.0
 10
5.4045437309
 20
3.5035551837
 30
0.0
 10
5.4013232774
 20
3.5046794201
 30
0.0
 10
5.3987124173
 20
3.5056946809
 30
0.0
 10
5.3967075154
 20
3.5065715879
 30
0.0
 10
5.3952805398
 20
3.507256621
 30
0.0
 10
5.39393479
 20
3.5079811829
 30
0.0
 10
5.3926924357
 20
3.5087502608
 30
0.0
 10
5.3915821731
 20
3.5095720903
 30
0.0
 10
5.3906355777
 20
3.5104528735
 30
0.0
 10
5.3898921246
 20
3.5114000682
 30
0.0
 10
5.3895488775
 20
3.5120967682
 30
0.0
 10
5.3894308347
 20
3.5124475735
 30
0.0
  0
SPLINE
  5
2D0
100
AcDbEntity
  8
0
100
AcDbSpline
 62
7
  6
CONTINUOUS
 70
0
 71
3
 72
11
 73
7
 74
0
 42
0.0000001
 43
0.0000001
 44
0.0000000001
 40
0.0
 40
0.0
 40
0.0
 40
0.0
 40
0.2743586459
 40
0.5260132887
 40
0.7644479739
 40
1.0
 40
1.0
 40
1.0
 40
1.0
 10
5.3894308347
 20
3.5124475735
 30
0.0
 10
5.3892593339
 20
3.5129576024
 30
0.0
 10
5.3890193217
 20
3.5139697803
 30
0.0
 10
5.3890030768
 20
3.5154824958
 30
0.0
 10
5.3893359177
 20
3.5168807834
 30
0.0
 10
5.3897696018
 20
3.5177144733
 30
0.0
 10
5.3900271807
 20
3.5180979827
 30
0.0
  0
SPLINE
  5
2D1
100
AcDbEntity
  8
0
100
AcDbSpline
 62
7
  6
CONTINUOUS
 70
0
 71
3
 72
11
 73
7
 74
0
 42
0.0000001
 43
0.0000001
 44
0.0000000001
 40
0.0
 40
0.0
 40
0.0
 40
0.0
 40
0.2355548273
 40
0.4739903891
 40
0.725645323
 40
1.0
 40
1.0
 40
1.0
 40
1.0
 10
5.8597879558
 20
3.5180980667
 30
0.0
 10
5.8600455615
 20
3.5177145613
 30
0.0
 10
5.8604792387
 20
3.5168808406
 30
0.0
 10
5.8608121111
 20
3.5154825434
 30
0.0
 10
5.8607959566
 20
3.5139698048
 30
0.0
 10
5.8605559027
 20
3.512957631
 30
0.0
 10
5.8603844316
 20
3.5124475928
 30
0.0
  0
SPLINE
  5
2D2
100
AcDbEntity
  8
0
100
AcDbSpline
 62
7
  6
CONTINUOUS
 70
0
 71
3
 72
19
 73
15
 74
0
 42
0.0000001
 43
0.0000001
 44
0.0000000001
 40
0.0
 40
0.0
 40
0.0
 40
0.0
 40
0.0446009048
 40
0.0925752359
 40
0.1443979818
 40
0.1999458702
 40
0.2587901586
 40
0.3203333588
 40
0.3840543134
 40
0.4494888803
 40
0.5839953041
 40
0.7215020689
 40
0.8604967463
 40
1.0
 40
1.0
 40
1.0
 40
1.0
 10
5.8603844316
 20
3.5124475928
 30
0.0
 10
5.8602663413
 20
3.5120968252
 30
0.0
 10
5.8599223167
 20
3.5114004577
 30
0.0
 10
5.8591788924
 20
3.5104534165
 30
0.0
 10
5.8582333009
 20
3.5095715683
 30
0.0
 10
5.8571231283
 20
3.5087495527
 30
0.0
 10
5.8558804082
 20
3.5079809824
 30
0.0
 10
5.8545344747
 20
3.5072566499
 30
0.0
 10
5.85310752
 20
3.5065715238
 30
0.0
 10
5.851102643
 20
3.505694564
 30
0.0
 10
5.8484917386
 20
3.5046793854
 30
0.0
 10
5.8452712614
 20
3.5035551568
 30
0.0
 10
5.8419839297
 20
3.5025003112
 30
0.0
 10
5.839770376
 20
3.5018357026
 30
0.0
 10
5.8386592904
 20
3.501510704
 30
0.0
  0
SPLINE
  5
2D3
100
AcDbEntity
  8
0
100
AcDbSpline
 62
7
  6
CONTINUOUS
 70
0
 71
3
 72
12
 73
8
 74
0
 42
0.0000001
 43
0.0000001
 44
0.0000000001
 40
0.0
 40
0.0
 40
0.0
 40
0.0
 40
0.2394592344
 40
0.4886959995
 40
0.6158923339
 40
0.7440089795
 40
1.0
 40
1.0
 40
1.0
 40
1.0
 10
5.9087532511
 20
3.5353188892
 30
0.0
 10
5.9091475002
 20
3.5357291839
 30
0.0
 10
5.9098609252
 20
3.5366576524
 30
0.0
 10
5.9105132288
 20
3.5379775692
 30
0.0
 10
5.910893098
 20
3.539116315
 30
0.0
 10
5.9111720955
 20
3.5403000245
 30
0.0
 10
5.9112610404
 20
3.5412149702
 30
0.0
 10
5.9112645661
 20
3.5418232549
 30
0.0
  0
SPLINE
  5
2D4
100
AcDbEntity
  8
0
100
AcDbSpline
 62
7
  6
CONTINUOUS
 70
0
 71
3
 72
12
 73
8
 74
0
 42
0.0000001
 43
0.0000001
 44
0.0000000001
 40
0.0
 40
0.0
 40
0.0
 40
0.0
 40
0.2394557694
 40
0.4886932524
 40
0.6158905291
 40
0.7440081133
 40
1.0
 40
1.0
 40
1.0
 40
1.0
 10
6.1511186069
 20
3.9551079693
 30
0.0
 10
6.150960377
 20
3.9545614208
 30
0.0
 10
6.1505129742
 20
3.9534793933
 30
0.0
 10
6.149696047
 20
3.9522545652
 30
0.0
 10
6.1488998177
 20
3.9513562228
 30
0.0
 10
6.1480142252
 20
3.9505227418
 30
0.0
 10
6.1472663663
 20
3.9499882179
 30
0.0
 10
6.1467413627
 20
3.9496810014
 30
0.0
  0
SPLINE
  5
2D5
100
AcDbEntity
  8
0
100
AcDbSpline
 62
7
  6
CONTINUOUS
 70
0
 71
3
 72
12
 73
8
 74
0
 42
0.0000001
 43
0.0000001
 44
0.0000000001
 40
0.0
 40
0.0
 40
0.0
 40
0.0
 40
0.2573969742
 40
0.5111699982
 40
0.6360844102
 40
0.7593552642
 40
1.0
 40
1.0
 40
1.0
 40
1.0
 10
6.1449668528
 20
3.9585515052
 30
0.0
 10
6.1449463042
 20
3.9578946136
 30
0.0
 10
6.1447621262
 20
3.9565901908
 30
0.0
 10
6.1441799449
 20
3.9550583625
 30
0.0
 10
6.1435216846
 20
3.95395532
 30
0.0
 10
6.1427585437
 20
3.9529652017
 30
0.0
 10
6.1420570933
 20
3.9523361878
 30
0.0
 10
6.1415496533
 20
3.9519897194
 30
0.0
  0
SPLINE
  5
2D6
100
AcDbEntity
  8
0
100
AcDbSpline
 62
7
  6
CONTINUOUS
 70
0
 71
3
 72
19
 73
15
 74
0
 42
0.0000001
 43
0.0000001
 44
0.0000000001
 40
0.0
 40
0.0
 40
0.0
 40
0.0
 40
0.1395032268
 40
0.2784982149
 40
0.416005004
 40
0.5505111909
 40
0.6159468743
 40
0.6796690773
 40
0.7412083426
 40
0.8000490121
 40
0.8556001789
 40
0.9074262271
 40
0.9553963234
 40
1.0
 40
1.0
 40
1.0
 40
1.0
 10
5.9315984967
 20
3.5551691488
 30
0.0
 10
5.9307615214
 20
3.5543694052
 30
0.0
 10
5.9290792057
 20
3.5527847028
 30
0.0
 10
5.9265220425
 20
3.5504652141
 30
0.0
 10
5.9239381985
 20
3.5482383377
 30
0.0
 10
5.9217535268
 20
3.546484897
 30
0.0
 10
5.9199916522
 20
3.5451870545
 30
0.0
 10
5.9186849082
 20
3.544293774
 30
0.0
 10
5.9173845443
 20
3.5434906014
 30
0.0
 10
5.9160973262
 20
3.5427992299
 30
0.0
 10
5.9148304697
 20
3.5422486291
 30
0.0
 10
5.9135943914
 20
3.541869245
 30
0.0
 10
5.9124023701
 20
3.5416989931
 30
0.0
 10
5.9116273867
 20
3.5417500824
 30
0.0
 10
5.911264559
 20
3.541823257
 30
0.0
  0
SPLINE
  5
2D7
100
AcDbEntity
  8
0
100
AcDbSpline
 62
7
  6
CONTINUOUS
 70
0
 71
3
 72
11
 73
7
 74
0
 42
0.0000001
 43
0.0000001
 44
0.0000000001
 40
0.0
 40
0.0
 40
0.0
 40
0.0
 40
0.2743586459
 40
0.5260132887
 40
0.7644479739
 40
1.0
 40
1.0
 40
1.0
 40
1.0
 10
5.911264559
 20
3.541823257
 30
0.0
 10
5.9107371106
 20
3.5419297474
 30
0.0
 10
5.9097405328
 20
3.5422279797
 30
0.0
 10
5.9084223603
 20
3.5429702689
 30
0.0
 10
5.9073778281
 20
3.5439576614
 30
0.0
 10
5.9068726735
 20
3.5447500878
 30
0.0
 10
5.9066693341
 20
3.5451649124
 30
0.0
  0
SPLINE
  5
2D8
100
AcDbEntity
  8
0
100
AcDbSpline
 62
7
  6
CONTINUOUS
 70
0
 71
3
 72
11
 73
7
 74
0
 42
0.0000001
 43
0.0000001
 44
0.0000000001
 40
0.0
 40
0.0
 40
0.0
 40
0.0
 40
0.2355548273
 40
0.4739903891
 40
0.725645323
 40
1.0
 40
1.0
 40
1.0
 40
1.0
 10
6.1415496488
 20
3.9519897193
 30
0.0
 10
6.1420105771
 20
3.9520210597
 30
0.0
 10
6.1429494391
 20
3.9519797748
 30
0.0
 10
6.1443268361
 20
3.9515689021
 30
0.0
 10
6.1456288289
 20
3.9507985427
 30
0.0
 10
6.1463853702
 20
3.950084563
 30
0.0
 10
6.1467413408
 20
3.9496810456
 30
0.0
  0
SPLINE
  5
2D9
100
AcDbEntity
  8
0
100
AcDbSpline
 62
7
  6
CONTINUOUS
 70
0
 71
3
 72
19
 73
15
 74
0
 42
0.0000001
 43
0.0000001
 44
0.0000000001
 40
0.0
 40
0.0
 40
0.0
 40
0.0
 40
0.0446009048
 40
0.0925752359
 40
0.1443979818
 40
0.1999458702
 40
0.2587901586
 40
0.3203333588
 40
0.3840543134
 40
0.4494888803
 40
0.5839953041
 40
0.7215020689
 40
0.8604967463
 40
1.0
 40
1.0
 40
1.0
 40
1.0
 10
6.1467413408
 20
3.9496810456
 30
0.0
 10
6.1469860692
 20
3.9494033925
 30
0.0
 10
6.1474171289
 20
3.9487572747
 30
0.0
 10
6.1478655785
 20
3.9476399299
 30
0.0
 10
6.1481564857
 20
3.9463800995
 30
0.0
 10
6.1483132857
 20
3.9450076539
 30
0.0
 10
6.1483575271
 20
3.9435471417
 30
0.0
 10
6.1483118506
 20
3.9420193628
 30
0.0
 10
6.1481917099
 20
3.9404410207
 30
0.0
 10
6.1479487409
 20
3.9382662664
 30
0.0
 10
6.1475224592
 20
3.9354975676
 30
0.0
 10
6.1468858311
 20
3.9321464382
 30
0.0
 10
6.1461556883
 20
3.9287721027
 30
0.0
 10
6.1456244794
 20
3.9265228046
 30
0.0
 10
6.1453503937
 20
3.925398077
 30
0.0
  0
SPLINE
  5
2DA
100
AcDbEntity
  8
0
100
AcDbSpline
 62
7
  6
CONTINUOUS
 70
0
 71
3
 72
40
 73
36
 74
0
 42
0.0000001
 43
0.0000001
 44
0.0000000001
 40
0.0
 40
0.0
 40
0.0
 40
0.0
 40
0.0455162955
 40
0.0910536569
 40
0.1366198362
 40
0.1822260077
 40
0.2278899283
 40
0.2507525333
 40
0.2736426867
 40
0.2965688662
 40
0.3195475053
 40
0.3426013685
 40
0.3541673852
 40
0.3657683456
 40
0.3774257744
 40
0.3891724346
 40
0.3950916013
 40
0.4010510615
 40
0.4131639352
 40
0.425737769
 40
0.4391165409
 40
0.4535005399
 40
0.4689169647
 40
0.4853443563
 40
0.5027196894
 40
0.5209424562
 40
0.5399102979
 40
0.5798316235
 40
0.6220017335
 40
0.6660035513
 40
0.7114520761
 40
0.7580476415
 40
0.8055125145
 40
0.9022047446
 40
1.0
 40
1.0
 40
1.0
 40
1.0
 10
5.8871394734
 20
3.5665359839
 30
0.0
 10
5.8868136483
 20
3.5672825172
 30
0.0
 10
5.886163323
 20
3.5687765744
 30
0.0
 10
5.8851939864
 20
3.5710210966
 30
0.0
 10
5.8842330815
 20
3.5732709962
 30
0.0
 10
5.8832839834
 20
3.5755283653
 30
0.0
 10
5.8825073758
 20
3.5774174663
 30
0.0
 10
5.8818985591
 20
3.5789359253
 30
0.0
 10
5.881449715
 20
3.5800800967
 30
0.0
 10
5.8810106255
 20
3.5812302827
 30
0.0
 10
5.8805847871
 20
3.582388569
 30
0.0
 10
5.8802447182
 20
3.5833617031
 30
0.0
 10
5.8799868894
 20
3.5841476651
 30
0.0
 10
5.8798012347
 20
3.5847426025
 30
0.0
 10
5.8796270626
 20
3.5853443988
 30
0.0
 10
5.87949545
 20
3.5858524804
 30
0.0
 10
5.8794000405
 20
3.5862643879
 30
0.0
 10
5.8793114016
 20
3.5866844946
 30
0.0
 10
5.8792238244
 20
3.5872264975
 30
0.0
 10
5.8791846381
 20
3.5879083227
 30
0.0
 10
5.8792416448
 20
3.5886300889
 30
0.0
 10
5.8793949831
 20
3.5893889592
 30
0.0
 10
5.8796381568
 20
3.5901808748
 30
0.0
 10
5.8799668226
 20
3.5909989651
 30
0.0
 10
5.8803712288
 20
3.5918381808
 30
0.0
 10
5.880842326
 20
3.5926939624
 30
0.0
 10
5.8815613955
 20
3.5938722025
 30
0.0
 10
5.8825945806
 20
3.5953585387
 30
0.0
 10
5.8839927731
 20
3.5971309495
 30
0.0
 10
5.88554165
 20
3.5989065642
 30
0.0
 10
5.8872162729
 20
3.6006745508
 30
0.0
 10
5.8889967027
 20
3.6024253666
 30
0.0
 10
5.8915040783
 20
3.6047424629
 30
0.0
 10
5.894805081
 20
3.6075475199
 30
0.0
 10
5.8975572082
 20
3.6096798913
 30
0.0
 10
5.8989612341
 20
3.610724669
 30
0.0
  0
LINE
  5
2DB
100
AcDbEntity
  8
0
100
AcDbLine
 62
7
  6
CONTINUOUS
 10
5.8901745458
 20
3.5605836486
 11
5.8871394734
 21
3.5665359839
  0
LINE
  5
2DC
100
AcDbEntity
  8
0
100
AcDbLine
 62
7
  6
CONTINUOUS
 10
5.9026952712
 20
3.5389247036
 11
5.8901745458
 21
3.5605836486
  0
SPLINE
  5
2DD
100
AcDbEntity
  8
0
100
AcDbSpline
 62
7
  6
CONTINUOUS
 70
0
 71
3
 72
13
 73
9
 74
0
 42
0.0000001
 43
0.0000001
 44
0.0000000001
 40
0.0
 40
0.0
 40
0.0
 40
0.0
 40
0.284670061
 40
0.5401843235
 40
0.6596290352
 40
0.7751381449
 40
0.8881243028
 40
1.0
 40
1.0
 40
1.0
 40
1.0
 10
5.9087532512
 20
3.5353188892
 30
0.0
 10
5.9080685607
 20
3.5354198149
 30
0.0
 10
5.9067801335
 20
3.5357113018
 30
0.0
 10
5.9053035801
 20
3.5363714902
 30
0.0
 10
5.9043171474
 20
3.5370462604
 30
0.0
 10
5.9036817238
 20
3.53760817
 30
0.0
 10
5.9031357768
 20
3.5382329573
 30
0.0
 10
5.9028313978
 20
3.5386892272
 30
0.0
 10
5.9026952712
 20
3.5389247036
 30
0.0
  0
SPLINE
  5
2DE
100
AcDbEntity
  8
0
100
AcDbSpline
 62
7
  6
CONTINUOUS
 70
0
 71
3
 72
13
 73
9
 74
0
 42
0.0000001
 43
0.0000001
 44
0.0000000001
 40
0.0
 40
0.0
 40
0.0
 40
0.0
 40
0.1118754334
 40
0.2248611307
 40
0.3403698672
 40
0.4598147906
 40
0.7153304559
 40
1.0
 40
1.0
 40
1.0
 40
1.0
 10
5.8671792424
 20
3.5184195525
 30
0.0
 10
5.8673151028
 20
3.5181839217
 30
0.0
 10
5.8675580533
 20
3.5176921861
 30
0.0
 10
5.8678261747
 20
3.5169069918
 30
0.0
 10
5.8679951024
 20
3.5160757435
 30
0.0
 10
5.8680862599
 20
3.5148840737
 30
0.0
 10
5.8679197
 20
3.5132752361
 30
0.0
 10
5.86752791
 20
3.5120136812
 30
0.0
 10
5.8672729894
 20
3.5113702486
 30
0.0
  0
LINE
  5
2DF
100
AcDbEntity
  8
0
100
AcDbLine
 62
7
  6
CONTINUOUS
 10
5.8546773027
 20
3.5401011343
 11
5.8671792424
 21
3.5184195525
  0
LINE
  5
2E0
100
AcDbEntity
  8
0
100
AcDbLine
 62
7
  6
CONTINUOUS
 10
5.8510556659
 20
3.5456826164
 11
5.8546773027
 21
3.5401011343
  0
SPLINE
  5
2E1
100
AcDbEntity
  8
0
100
AcDbSpline
 62
7
  6
CONTINUOUS
 70
0
 71
3
 72
40
 73
36
 74
0
 42
0.0000001
 43
0.0000001
 44
0.0000000001
 40
0.0
 40
0.0
 40
0.0
 40
0.0
 40
0.097806994
 40
0.1945104289
 40
0.2419798277
 40
0.2885786615
 40
0.3340289768
 40
0.3780308467
 40
0.4201983447
 40
0.4601136242
 40
0.4790771284
 40
0.4972948297
 40
0.514663931
 40
0.5310825703
 40
0.5464875212
 40
0.5608605321
 40
0.5742317467
 40
0.5868003466
 40
0.5989096686
 40
0.6048679918
 40
0.6107864848
 40
0.6225329743
 40
0.6341911276
 40
0.6457930987
 40
0.6573600951
 40
0.6804159399
 40
0.703396827
 40
0.7263254568
 40
0.749218121
 40
0.7720832687
 40
0.8177523907
 40
0.8633638623
 40
0.9089353824
 40
0.9544781765
 40
1.0
 40
1.0
 40
1.0
 40
1.0
 10
5.8068656666
 20
3.5575532691
 30
0.0
 10
5.8084731987
 20
3.5582471365
 30
0.0
 10
5.8116974527
 20
3.5595648222
 30
0.0
 10
5.8157790576
 20
3.5610215768
 30
0.0
 10
5.819040854
 20
3.5620347868
 30
0.0
 10
5.8214483367
 20
3.5627013465
 30
0.0
 10
5.82381771
 20
3.5632675468
 30
0.0
 10
5.8261306969
 20
3.5637209054
 30
0.0
 10
5.828365401
 20
3.5640452004
 30
0.0
 10
5.8301696132
 20
3.5641962951
 30
0.0
 10
5.8315497282
 20
3.5642293606
 30
0.0
 10
5.8325264404
 20
3.5642089906
 30
0.0
 10
5.8334553373
 20
3.5641390842
 30
0.0
 10
5.8343278883
 20
3.5640140354
 30
0.0
 10
5.835134814
 20
3.5638278092
 30
0.0
 10
5.8358680572
 20
3.5635801864
 30
0.0
 10
5.8365210375
 20
3.5632678808
 30
0.0
 10
5.8370913949
 20
3.5628923558
 30
0.0
 10
5.8375165969
 20
3.5625450212
 30
0.0
 10
5.8378358543
 20
3.5622578621
 30
0.0
 10
5.8381447138
 20
3.56196896
 30
0.0
 10
5.8385188577
 20
3.5616006356
 30
0.0
 10
5.8389529952
 20
3.5611486254
 30
0.0
 10
5.8393755012
 20
3.560690123
 30
0.0
 10
5.839927362
 20
3.5600734933
 30
0.0
 10
5.8406002177
 20
3.5592919584
 30
0.0
 10
5.8413906238
 20
3.5583435252
 30
0.0
 10
5.8421674286
 20
3.5573876892
 30
0.0
 10
5.8429341525
 20
3.5564264123
 30
0.0
 10
5.8439451293
 20
3.5551392941
 30
0.0
 10
5.8451933089
 20
3.5535213994
 30
0.0
 10
5.8466742905
 20
3.551569848
 30
0.0
 10
5.8481428985
 20
3.5496118017
 30
0.0
 10
5.849602668
 20
3.5476491635
 30
0.0
 10
5.850571843
 20
3.5463383523
 30
0.0
 10
5.8510556659
 20
3.5456826164
 30
0.0
  0
SPLINE
  5
2E2
100
AcDbEntity
  8
0
100
AcDbSpline
 62
7
  6
CONTINUOUS
 70
0
 71
3
 72
40
 73
36
 74
0
 42
0.0000001
 43
0.0000001
 44
0.0000000001
 40
0.0
 40
0.0
 40
0.0
 40
0.0
 40
0.0455162749
 40
0.0910536158
 40
0.1366197742
 40
0.1822259253
 40
0.2278898253
 40
0.2507524174
 40
0.2736425611
 40
0.2965687412
 40
0.3195473606
 40
0.342601176
 40
0.3541671925
 40
0.3657682159
 40
0.3774257541
 40
0.3891723822
 40
0.3950914003
 40
0.4010506664
 40
0.4131633057
 40
0.4257375009
 40
0.4391170448
 40
0.4535007175
 40
0.4689164422
 40
0.4853437238
 40
0.5027193547
 40
0.5209423026
 40
0.5399101675
 40
0.5798314455
 40
0.6220015529
 40
0.6660034238
 40
0.7114519755
 40
0.7580475586
 40
0.8055124434
 40
0.9022047374
 40
1.0
 40
1.0
 40
1.0
 40
1.0
 10
5.3987701412
 20
3.545696874
 30
0.0
 10
5.3992537454
 20
3.5463523133
 30
0.0
 10
5.400222474
 20
3.54766254
 30
0.0
 10
5.4016816189
 20
3.5496242709
 30
0.0
 10
5.4031496364
 20
3.5515813885
 30
0.0
 10
5.4046300262
 20
3.5535320159
 30
0.0
 10
5.4058777318
 20
3.5551491278
 30
0.0
 10
5.4068883465
 20
3.5564356085
 30
0.0
 10
5.4076548057
 20
3.5573964048
 30
0.0
 10
5.4084313556
 20
3.5583517568
 30
0.0
 10
5.4092215368
 20
3.5592996898
 30
0.0
 10
5.4098942538
 20
3.5600807704
 30
0.0
 10
5.4104460062
 20
3.5606970351
 30
0.0
 10
5.4108684257
 20
3.5611552754
 30
0.0
 10
5.4113025297
 20
3.5616069963
 30
0.0
 10
5.4116767286
 20
3.5619750209
 30
0.0
 10
5.4119857063
 20
3.5622636347
 30
0.0
 10
5.4123051741
 20
3.5625504764
 30
0.0
 10
5.4127307731
 20
3.5628973244
 30
0.0
 10
5.4133017124
 20
3.5632721242
 30
0.0
 10
5.4139553254
 20
3.5635835753
 30
0.0
 10
5.4146891671
 20
3.5638302766
 30
0.0
 10
5.4154965471
 20
3.5640156744
 30
0.0
 10
5.4163693599
 20
3.5641400758
 30
0.0
 10
5.417298353
 20
3.5642094434
 30
0.0
 10
5.4182750395
 20
3.5642293487
 30
0.0
 10
5.4196549633
 20
3.5641957385
 30
0.0
 10
5.4214587611
 20
3.5640441445
 30
0.0
 10
5.4236928108
 20
3.5637194792
 30
0.0
 10
5.4260049788
 20
3.5632659193
 30
0.0
 10
5.4283734139
 20
3.5626996456
 30
0.0
 10
5.4307798812
 20
3.5620331547
 30
0.0
 10
5.434040236
 20
3.5610202511
 30
0.0
 10
5.4381199906
 20
3.5595640263
 30
0.0
 10
5.4413427437
 20
3.558246798
 30
0.0
 10
5.4429495613
 20
3.5575532645
 30
0.0
  0
LINE
  5
2E3
100
AcDbEntity
  8
0
100
AcDbLine
 62
7
  6
CONTINUOUS
 10
5.3951328038
 20
3.5400922565
 11
5.3987701412
 21
3.545696874
  0
LINE
  5
2E4
100
AcDbEntity
  8
0
100
AcDbLine
 62
7
  6
CONTINUOUS
 10
5.3826359699
 20
3.5184195177
 11
5.3951328038
 21
3.5400922565
  0
SPLINE
  5
2E5
100
AcDbEntity
  8
0
100
AcDbSpline
 62
7
  6
CONTINUOUS
 70
0
 71
3
 72
13
 73
9
 74
0
 42
0.0000001
 43
0.0000001
 44
0.0000000001
 40
0.0
 40
0.0
 40
0.0
 40
0.0
 40
0.2846700621
 40
0.5401843246
 40
0.659629036
 40
0.7751381454
 40
0.888124303
 40
1.0
 40
1.0
 40
1.0
 40
1.0
 10
5.3825422331
 20
3.5113702459
 30
0.0
 10
5.3822872921
 20
3.5120136682
 30
0.0
 10
5.3818955135
 20
3.5132752223
 30
0.0
 10
5.3817289767
 20
3.5148840493
 30
0.0
 10
5.3818201285
 20
3.5160757101
 30
0.0
 10
5.3819890447
 20
3.5169069579
 30
0.0
 10
5.3822571529
 20
3.5176921555
 30
0.0
 10
5.3825001047
 20
3.5181838905
 30
0.0
 10
5.3826359699
 20
3.5184195177
 30
0.0
  0
SPLINE
  5
2E6
100
AcDbEntity
  8
0
100
AcDbSpline
 62
7
  6
CONTINUOUS
 70
0
 71
3
 72
13
 73
9
 74
0
 42
0.0000001
 43
0.0000001
 44
0.0000000001
 40
0.0
 40
0.0
 40
0.0
 40
0.0
 40
0.1118754335
 40
0.2248611307
 40
0.3403698673
 40
0.4598147907
 40
0.7153304561
 40
1.0
 40
1.0
 40
1.0
 40
1.0
 10
5.3471199738
 20
3.5389247254
 30
0.0
 10
5.3469838418
 20
3.5386892514
 30
0.0
 10
5.3466794615
 20
3.5382329823
 30
0.0
 10
5.3461335239
 20
3.5376081852
 30
0.0
 10
5.3454981056
 20
3.5370462653
 30
0.0
 10
5.3445116681
 20
3.5363714857
 30
0.0
 10
5.3430350939
 20
3.5357113121
 30
0.0
 10
5.3417466603
 20
3.5354198347
 30
0.0
 10
5.341061971
 20
3.5353188861
 30
0.0
  0
LINE
  5
2E7
100
AcDbEntity
  8
0
100
AcDbLine
 62
7
  6
CONTINUOUS
 10
5.3596458045
 20
3.5605925136
 11
5.3471199738
 21
3.5389247254
  0
LINE
  5
2E8
100
AcDbEntity
  8
0
100
AcDbLine
 62
7
  6
CONTINUOUS
 10
5.3626686914
 20
3.5665196841
 11
5.3596458045
 21
3.5605925136
  0
SPLINE
  5
2E9
100
AcDbEntity
  8
0
100
AcDbSpline
 62
7
  6
CONTINUOUS
 70
0
 71
3
 72
40
 73
36
 74
0
 42
0.0000001
 43
0.0000001
 44
0.0000000001
 40
0.0
 40
0.0
 40
0.0
 40
0.0
 40
0.097806994
 40
0.1945104289
 40
0.2419798277
 40
0.2885786615
 40
0.3340289768
 40
0.3780308467
 40
0.4201983447
 40
0.4601136242
 40
0.4790771284
 40
0.4972948297
 40
0.514663931
 40
0.5310825703
 40
0.5464875212
 40
0.5608605321
 40
0.5742317467
 40
0.5868003466
 40
0.5989096686
 40
0.6048679918
 40
0.6107864848
 40
0.6225329743
 40
0.6341911276
 40
0.6457930987
 40
0.657360095
 40
0.6804159399
 40
0.703396827
 40
0.7263254568
 40
0.749218121
 40
0.7720832687
 40
0.8177523907
 40
0.8633638623
 40
0.9089353824
 40
0.9544781765
 40
1.0
 40
1.0
 40
1.0
 40
1.0
 10
5.3508539786
 20
3.6107246725
 30
0.0
 10
5.3522586515
 20
3.6096794425
 30
0.0
 10
5.3550119278
 20
3.6075459995
 30
0.0
 10
5.3583143167
 20
3.6047396033
 30
0.0
 10
5.3608226805
 20
3.6024214098
 30
0.0
 10
5.3626036795
 20
3.6006697484
 30
0.0
 10
5.36427871
 20
3.5989009111
 30
0.0
 10
5.3658278235
 20
3.597124485
 30
0.0
 10
5.3672260233
 20
3.595351322
 30
0.0
 10
5.3682589812
 20
3.5938643757
 30
0.0
 10
5.3689776743
 20
3.5926856938
 30
0.0
 10
5.3694483894
 20
3.5918296513
 30
0.0
 10
5.3698522971
 20
3.5909902497
 30
0.0
 10
5.3701802772
 20
3.590172074
 30
0.0
 10
5.3704224635
 20
3.5893801428
 30
0.0
 10
5.3705746374
 20
3.5886213241
 30
0.0
 10
5.3706306629
 20
3.5878996738
 30
0.0
 10
5.3705906275
 20
3.5872179673
 30
0.0
 10
5.3705024279
 20
3.5866760642
 30
0.0
 10
5.3704133695
 20
3.5862559997
 30
0.0
 10
5.3703176027
 20
3.5858440685
 30
0.0
 10
5.3701856964
 20
3.5853358881
 30
0.0
 10
5.3700113127
 20
3.5847339089
 30
0.0
 10
5.3698254911
 20
3.5841387568
 30
0.0
 10
5.3695674045
 20
3.5833525165
 30
0.0
 10
5.3692270033
 20
3.5823790389
 30
0.0
 10
5.3688008391
 20
3.5812203105
 30
0.0
 10
5.3683614632
 20
3.5800696598
 30
0.0
 10
5.3679123349
 20
3.578925019
 30
0.0
 10
5.3673031463
 20
3.5774059283
 30
0.0
 10
5.3665260981
 20
3.5755160258
 30
0.0
 10
5.3655764959
 20
3.5732576824
 30
0.0
 10
5.364615082
 20
3.5710068074
 30
0.0
 10
5.3636452723
 20
3.5687612908
 30
0.0
 10
5.362994664
 20
3.567266555
 30
0.0
 10
5.3626686914
 20
3.5665196841
 30
0.0
  0
SPLINE
  5
2EA
100
AcDbEntity
  8
0
100
AcDbSpline
 62
7
  6
CONTINUOUS
 70
0
 71
3
 72
40
 73
36
 74
0
 42
0.0000001
 43
0.0000001
 44
0.0000000001
 40
0.0
 40
0.0
 40
0.0
 40
0.0
 40
0.0455162749
 40
0.0910536158
 40
0.1366197742
 40
0.1822259253
 40
0.2278898253
 40
0.2507524174
 40
0.2736425611
 40
0.2965687412
 40
0.3195473606
 40
0.342601176
 40
0.3541671925
 40
0.3657682159
 40
0.3774257541
 40
0.3891723822
 40
0.3950914003
 40
0.4010506664
 40
0.4131633057
 40
0.4257375009
 40
0.4391170448
 40
0.4535007175
 40
0.4689164422
 40
0.4853437238
 40
0.5027193547
 40
0.5209423026
 40
0.5399101675
 40
0.5798314455
 40
0.6220015529
 40
0.6660034238
 40
0.7114519755
 40
0.7580475586
 40
0.8055124434
 40
0.9022047374
 40
1.0
 40
1.0
 40
1.0
 40
1.0
 10
5.1365382765
 20
3.9582175671
 30
0.0
 10
5.1373477057
 20
3.9581264733
 30
0.0
 10
5.1389667597
 20
3.957942643
 30
0.0
 10
5.1413952409
 20
3.9576598519
 30
0.0
 10
5.1438241632
 20
3.9573670703
 30
0.0
 10
5.1462536509
 20
3.9570603288
 30
0.0
 10
5.1482779638
 20
3.95678834
 30
0.0
 10
5.1498973961
 20
3.9565563623
 30
0.0
 10
5.1511126997
 20
3.9563729873
 30
0.0
 10
5.1523283338
 20
3.9561781514
 30
0.0
 10
5.1535443584
 20
3.9559678009
 30
0.0
 10
5.1545571526
 20
3.9557757512
 30
0.0
 10
5.1553667297
 20
3.955606052
 30
0.0
 10
5.1559747871
 20
3.955469346
 30
0.0
 10
5.1565830409
 20
3.9553192615
 30
0.0
 10
5.157088859
 20
3.955179208
 30
0.0
 10
5.1574932947
 20
3.9550559324
 30
0.0
 10
5.1579014408
 20
3.954922686
 30
0.0
 10
5.1584146194
 20
3.9547275304
 30
0.0
 10
5.1590246753
 20
3.9544204824
 30
0.0
 10
5.1596212064
 20
3.9540101625
 30
0.0
 10
5.1602017769
 20
3.9534979875
 30
0.0
 10
5.160766026
 20
3.9528914749
 30
0.0
 10
5.1613101672
 20
3.9521977975
 30
0.0
 10
5.1618347379
 20
3.9514279497
 30
0.0
 10
5.1623403196
 20
3.9505920671
 30
0.0
 10
5.1630011742
 20
3.9493802129
 30
0.0
 10
5.1637717888
 20
3.9477422812
 30
0.0
 10
5.1646076453
 20
3.9456452047
 30
0.0
 10
5.1653709349
 20
3.9434160285
 30
0.0
 10
5.166064745
 20
3.9410817667
 30
0.0
 10
5.1666907807
 20
3.9386644594
 30
0.0
 10
5.1674437578
 20
3.9353344576
 30
0.0
 10
5.1682225074
 20
3.9310731741
 30
0.0
 10
5.1686931308
 20
3.9276235739
 30
0.0
 10
5.168895922
 20
3.9258852622
 30
0.0
  0
LINE
  5
2EB
100
AcDbEntity
  8
0
100
AcDbLine
 62
7
  6
CONTINUOUS
 10
5.1298658667
 20
3.9585652849
 11
5.1365382765
 21
3.9582175671
  0
LINE
  5
2EC
100
AcDbEntity
  8
0
100
AcDbLine
 62
7
  6
CONTINUOUS
 10
5.1048483075
 20
3.9585514911
 11
5.1298658667
 21
3.9585652849
  0
SPLINE
  5
2ED
100
AcDbEntity
  8
0
100
AcDbSpline
 62
7
  6
CONTINUOUS
 70
0
 71
3
 72
13
 73
9
 74
0
 42
0.0000001
 43
0.0000001
 44
0.0000000001
 40
0.0
 40
0.0
 40
0.0
 40
0.0
 40
0.2846700621
 40
0.5401843245
 40
0.659629036
 40
0.7751381454
 40
0.888124303
 40
1.0
 40
1.0
 40
1.0
 40
1.0
 10
5.0986965905
 20
3.9551080337
 30
0.0
 10
5.0991263401
 20
3.9556505303
 30
0.0
 10
5.1000229887
 20
3.9566205976
 30
0.0
 10
5.1013330053
 20
3.9575692361
 30
0.0
 10
5.1024105898
 20
3.9580861268
 30
0.0
 10
5.1032149296
 20
3.9583554649
 30
0.0
 10
5.1040289848
 20
3.9585158752
 30
0.0
 10
5.1045763156
 20
3.9585513402
 30
0.0
 10
5.1048483075
 20
3.9585514911
 30
0.0
  0
SPLINE
  5
2EE
100
AcDbEntity
  8
0
100
AcDbSpline
 62
7
  6
CONTINUOUS
 70
0
 71
3
 72
13
 73
9
 74
0
 42
0.0000001
 43
0.0000001
 44
0.0000000001
 40
0.0
 40
0.0
 40
0.0
 40
0.0
 40
0.1118754334
 40
0.2248611307
 40
0.3403698672
 40
0.4598147906
 40
0.7153304559
 40
1.0
 40
1.0
 40
1.0
 40
1.0
 10
6.1449668773
 20
3.9585515042
 30
0.0
 10
6.1452388698
 20
3.9585513474
 30
0.0
 10
6.1457862006
 20
3.9585158808
 30
0.0
 10
6.1466002594
 20
3.9583554836
 30
0.0
 10
6.1474046055
 20
3.9580861551
 30
0.0
 10
6.1484822005
 20
3.957569265
 30
0.0
 10
6.1497922148
 20
3.9566206011
 30
0.0
 10
6.1506888584
 20
3.9556505235
 30
0.0
 10
6.1511186271
 20
3.9551080395
 30
0.0
  0
LINE
  5
2EF
100
AcDbEntity
  8
0
100
AcDbLine
 62
7
  6
CONTINUOUS
 10
6.1199391069
 20
3.9585652977
 11
6.1449668773
 21
3.9585515042
  0
LINE
  5
2F0
100
AcDbEntity
  8
0
100
AcDbLine
 62
7
  6
CONTINUOUS
 10
6.1132945885
 20
3.9582196097
 11
6.1199391069
 21
3.9585652977
  0
SPLINE
  5
2F1
100
AcDbEntity
  8
0
100
AcDbSpline
 62
7
  6
CONTINUOUS
 70
0
 71
3
 72
40
 73
36
 74
0
 42
0.0000001
 43
0.0000001
 44
0.0000000001
 40
0.0
 40
0.0
 40
0.0
 40
0.0
 40
0.0978069998
 40
0.1945104064
 40
0.2419797994
 40
0.2885786228
 40
0.3340289222
 40
0.3780307614
 40
0.4201982574
 40
0.4601135587
 40
0.4790770473
 40
0.4972946423
 40
0.5146635642
 40
0.5310822538
 40
0.5464876004
 40
0.5608608037
 40
0.5742315814
 40
0.5867999677
 40
0.5989094166
 40
0.6048678492
 40
0.6107864267
 40
0.6225329343
 40
0.6341910254
 40
0.6457929621
 40
0.6573599596
 40
0.6804158331
 40
0.7033967328
 40
0.726325364
 40
0.7492180355
 40
0.7720831923
 40
0.8177523296
 40
0.8633638164
 40
0.908935352
 40
0.9544781613
 40
1.0
 40
1.0
 40
1.0
 40
1.0
 10
6.0809192986
 20
3.9258852899
 30
0.0
 10
6.0811221578
 20
3.927624387
 30
0.0
 10
6.0815931362
 20
3.9310755145
 30
0.0
 10
6.0823723522
 20
3.9353386639
 30
0.0
 10
6.0831257848
 20
3.938670066
 30
0.0
 10
6.083752269
 20
3.9410882858
 30
0.0
 10
6.084446612
 20
3.9434233218
 30
0.0
 10
6.0852104853
 20
3.9456531052
 30
0.0
 10
6.0860469898
 20
3.9477505624
 30
0.0
 10
6.0868182431
 20
3.9493886034
 30
0.0
 10
6.087479663
 20
3.9506003496
 30
0.0
 10
6.087985659
 20
3.9514360164
 30
0.0
 10
6.088510653
 20
3.952205503
 30
0.0
 10
6.0890552317
 20
3.9528986294
 30
0.0
 10
6.089619962
 20
3.9535043564
 30
0.0
 10
6.0902010093
 20
3.9540155838
 30
0.0
 10
6.0907979827
 20
3.9544248904
 30
0.0
 10
6.0914083847
 20
3.9547310297
 30
0.0
 10
6.0919217854
 20
3.9549255982
 30
0.0
 10
6.0923300991
 20
3.9550585281
 30
0.0
 10
6.0927347204
 20
3.9551815864
 30
0.0
 10
6.0932407706
 20
3.9553214465
 30
0.0
 10
6.0938492935
 20
3.9554714017
 30
0.0
 10
6.0944576216
 20
3.9556080408
 30
0.0
 10
6.0952675693
 20
3.9557776487
 30
0.0
 10
6.0962808258
 20
3.9559695964
 30
0.0
 10
6.0974973961
 20
3.9561798948
 30
0.0
 10
6.0987135775
 20
3.9563747063
 30
0.0
 10
6.0999294297
 20
3.9565580703
 30
0.0
 10
6.1015495953
 20
3.9567900435
 30
0.0
 10
6.1035748233
 20
3.9570620511
 30
0.0
 10
6.1060054076
 20
3.9573688432
 30
0.0
 10
6.1084354297
 20
3.9576616719
 30
0.0
 10
6.1108650094
 20
3.9579445503
 30
0.0
 10
6.1124847929
 20
3.9581284748
 30
0.0
 10
6.1132945885
 20
3.9582196097
 30
0.0
  0
SPLINE
  5
2F2
100
AcDbEntity
  8
0
100
AcDbSpline
 62
7
  6
CONTINUOUS
 70
0
 71
3
 72
40
 73
36
 74
0
 42
0.0000001
 43
0.0000001
 44
0.0000000001
 40
0.0
 40
0.0
 40
0.0
 40
0.0
 40
0.0455162589
 40
0.0910535838
 40
0.136619726
 40
0.1822258612
 40
0.2278897451
 40
0.2507523273
 40
0.2736424634
 40
0.2965686439
 40
0.3195472478
 40
0.3426010262
 40
0.3541670428
 40
0.3657681156
 40
0.3774257382
 40
0.3891723395
 40
0.3950912409
 40
0.4010503566
 40
0.4131628176
 40
0.4257372994
 40
0.4391174385
 40
0.4535008494
 40
0.4689160302
 40
0.4853432316
 40
0.5027190964
 40
0.5209421838
 40
0.5399100664
 40
0.5798313066
 40
0.6220014125
 40
0.6660033247
 40
0.7114518974
 40
0.7580474941
 40
0.8055123882
 40
0.9022047318
 40
1.0
 40
1.0
 40
1.0
 40
1.0
 10
5.362675744
 20
4.3915773702
 30
0.0
 10
5.363001569
 20
4.3908308371
 30
0.0
 10
5.3636518942
 20
4.3893367802
 30
0.0
 10
5.3646212304
 20
4.3870922585
 30
0.0
 10
5.3655821353
 20
4.3848423595
 30
0.0
 10
5.366531233
 20
4.3825849909
 30
0.0
 10
5.3673078399
 20
4.3806958903
 30
0.0
 10
5.3679166583
 20
4.3791774325
 30
0.0
 10
5.3683655028
 20
4.3780332613
 30
0.0
 10
5.3688045829
 20
4.3768830718
 30
0.0
 10
5.3692304303
 20
4.3757247905
 30
0.0
 10
5.3695705139
 20
4.3747516631
 30
0.0
 10
5.3698283353
 20
4.3739656976
 30
0.0
 10
5.3700139601
 20
4.3733707446
 30
0.0
 10
5.3701880929
 20
4.372768932
 30
0.0
 10
5.3703197174
 20
4.3722608568
 30
0.0
 10
5.3704152135
 20
4.3718489817
 30
0.0
 10
5.3705039219
 20
4.3714289079
 30
0.0
 10
5.3705915031
 20
4.3708869036
 30
0.0
 10
5.3706305646
 20
4.3702050381
 30
0.0
 10
5.3705734253
 20
4.3694832633
 30
0.0
 10
5.3704202066
 20
4.3687243826
 30
0.0
 10
5.3701771088
 20
4.3679324764
 30
0.0
 10
5.3698484324
 20
4.3671144063
 30
0.0
 10
5.3694439973
 20
4.3662751911
 30
0.0
 10
5.3689728868
 20
4.3654193983
 30
0.0
 10
5.3682538179
 20
4.3642411512
 30
0.0
 10
5.3672206362
 20
4.3627548124
 30
0.0
 10
5.3658224423
 20
4.3609824009
 30
0.0
 10
5.3642735628
 20
4.3592067835
 30
0.0
 10
5.3625989362
 20
4.3574387942
 30
0.0
 10
5.360818503
 20
4.3556879773
 30
0.0
 10
5.3583111239
 20
4.3533708776
 30
0.0
 10
5.3550101171
 20
4.3505658175
 30
0.0
 10
5.3522579854
 20
4.3484334451
 30
0.0
 10
5.3508539586
 20
4.3473886667
 30
0.0
  0
LINE
  5
2F3
100
AcDbEntity
  8
0
100
AcDbLine
 62
7
  6
CONTINUOUS
 10
5.3596406716
 20
4.3975297055
 11
5.362675744
 21
4.3915773702
  0
LINE
  5
2F4
100
AcDbEntity
  8
0
100
AcDbLine
 62
7
  6
CONTINUOUS
 10
5.3471199462
 20
4.4191886504
 11
5.3596406716
 21
4.3975297055
  0
SPLINE
  5
2F5
100
AcDbEntity
  8
0
100
AcDbSpline
 62
7
  6
CONTINUOUS
 70
0
 71
3
 72
13
 73
9
 74
0
 42
0.0000001
 43
0.0000001
 44
0.0000000001
 40
0.0
 40
0.0
 40
0.0
 40
0.0
 40
0.2846700611
 40
0.5401843235
 40
0.6596290353
 40
0.7751381449
 40
0.8881243028
 40
1.0
 40
1.0
 40
1.0
 40
1.0
 10
5.3410619662
 20
4.4227944649
 30
0.0
 10
5.3417466567
 20
4.4226935391
 30
0.0
 10
5.3430350839
 20
4.4224020523
 30
0.0
 10
5.3445116373
 20
4.4217418639
 30
0.0
 10
5.34549807
 20
4.4210670937
 30
0.0
 10
5.3461334936
 20
4.420505184
 30
0.0
 10
5.3466794405
 20
4.4198803967
 30
0.0
 10
5.3469838196
 20
4.4194241268
 30
0.0
 10
5.3471199462
 20
4.4191886504
 30
0.0
  0
SPLINE
  5
2F6
100
AcDbEntity
  8
0
100
AcDbSpline
 62
7
  6
CONTINUOUS
 70
0
 71
3
 72
13
 73
9
 74
0
 42
0.0000001
 43
0.0000001
 44
0.0000000001
 40
0.0
 40
0.0
 40
0.0
 40
0.0
 40
0.1118754334
 40
0.2248611307
 40
0.3403698672
 40
0.4598147906
 40
0.7153304559
 40
1.0
 40
1.0
 40
1.0
 40
1.0
 10
5.382635975
 20
4.4396938015
 30
0.0
 10
5.3825001146
 20
4.4399294323
 30
0.0
 10
5.3822571641
 20
4.440421168
 30
0.0
 10
5.3819890427
 20
4.4412063623
 30
0.0
 10
5.381820115
 20
4.4420376106
 30
0.0
 10
5.3817289574
 20
4.4432292803
 30
0.0
 10
5.3818955174
 20
4.4448381179
 30
0.0
 10
5.3822873074
 20
4.4460996729
 30
0.0
 10
5.3825422279
 20
4.4467431055
 30
0.0
  0
LINE
  5
2F7
100
AcDbEntity
  8
0
100
AcDbLine
 62
7
  6
CONTINUOUS
 10
5.3951379147
 20
4.4180122197
 11
5.382635975
 21
4.4396938015
  0
LINE
  5
2F8
100
AcDbEntity
  8
0
100
AcDbLine
 62
7
  6
CONTINUOUS
 10
5.3987595544
 20
4.4124307335
 11
5.3951379147
 21
4.4180122197
  0
SPLINE
  5
2F9
100
AcDbEntity
  8
0
100
AcDbSpline
 62
7
  6
CONTINUOUS
 70
0
 71
3
 72
40
 73
36
 74
0
 42
0.0000001
 43
0.0000001
 44
0.0000000001
 40
0.0
 40
0.0
 40
0.0
 40
0.0
 40
0.0978069883
 40
0.1945104505
 40
0.2419798548
 40
0.2885786986
 40
0.3340290293
 40
0.3780309287
 40
0.4201984288
 40
0.4601136869
 40
0.4790772059
 40
0.497295009
 40
0.5146642839
 40
0.5310828772
 40
0.5464874476
 40
0.5608602698
 40
0.5742319024
 40
0.5868007105
 40
0.5989099121
 40
0.6048681302
 40
0.6107865414
 40
0.6225330128
 40
0.6341912254
 40
0.6457932299
 40
0.6573602252
 40
0.6804160427
 40
0.7033969176
 40
0.726325546
 40
0.7492182031
 40
0.7720833421
 40
0.8177524495
 40
0.8633639064
 40
0.9089354116
 40
0.954478191
 40
1.0
 40
1.0
 40
1.0
 40
1.0
 10
5.4429495652
 20
4.4005600912
 30
0.0
 10
5.4413420328
 20
4.3998662237
 30
0.0
 10
5.4381177782
 20
4.3985485368
 30
0.0
 10
5.4340361722
 20
4.3970917815
 30
0.0
 10
5.4307743745
 20
4.3960785709
 30
0.0
 10
5.428366891
 20
4.3954120102
 30
0.0
 10
5.4259975165
 20
4.3948458089
 30
0.0
 10
5.4236845284
 20
4.3943924497
 30
0.0
 10
5.4214498238
 20
4.394068154
 30
0.0
 10
5.4196456112
 20
4.3939170604
 30
0.0
 10
5.4182654942
 20
4.3938839959
 30
0.0
 10
5.4172887767
 20
4.3939043641
 30
0.0
 10
5.416359875
 20
4.3939742624
 30
0.0
 10
5.4154873271
 20
4.3940993043
 30
0.0
 10
5.4146804153
 20
4.3942855485
 30
0.0
 10
5.413947188
 20
4.3945332051
 30
0.0
 10
5.4132941853
 20
4.3948454771
 30
0.0
 10
5.412723797
 20
4.395220974
 30
0.0
 10
5.4122985942
 20
4.3955683091
 30
0.0
 10
5.411979356
 20
4.3958554816
 30
0.0
 10
5.4116705186
 20
4.396144402
 30
0.0
 10
5.4112963782
 20
4.3965127286
 30
0.0
 10
5.4108622303
 20
4.3969647308
 30
0.0
 10
5.4104397155
 20
4.3974232275
 30
0.0
 10
5.4098878526
 20
4.3980398556
 30
0.0
 10
5.4092150008
 20
4.3988213933
 30
0.0
 10
5.4084245974
 20
4.3997698281
 30
0.0
 10
5.4076477903
 20
4.400725662
 30
0.0
 10
5.4068810665
 20
4.401686939
 30
0.0
 10
5.4058700903
 20
4.4029740573
 30
0.0
 10
5.4046219108
 20
4.4045919516
 30
0.0
 10
5.4031409293
 20
4.4065435027
 30
0.0
 10
5.4016723216
 20
4.4085015488
 30
0.0
 10
5.4002125522
 20
4.4104641867
 30
0.0
 10
5.3992433772
 20
4.4117749976
 30
0.0
 10
5.3987595544
 20
4.4124307335
 30
0.0
  0
SPLINE
  5
2FA
100
AcDbEntity
  8
0
100
AcDbSpline
 62
7
  6
CONTINUOUS
 70
0
 71
3
 72
40
 73
36
 74
0
 42
0.0000001
 43
0.0000001
 44
0.0000000001
 40
0.0
 40
0.0
 40
0.0
 40
0.0
 40
0.0455162552
 40
0.0910535763
 40
0.1366197148
 40
0.1822258462
 40
0.2278897265
 40
0.2507523063
 40
0.2736424407
 40
0.2965686213
 40
0.3195472216
 40
0.3426009914
 40
0.3541670081
 40
0.3657680924
 40
0.3774257345
 40
0.3891723293
 40
0.3950912035
 40
0.4010502843
 40
0.4131627044
 40
0.4257372535
 40
0.4391175302
 40
0.4535008793
 40
0.4689159337
 40
0.4853431172
 40
0.5027190366
 40
0.5209421564
 40
0.5399100429
 40
0.5798312742
 40
0.6220013799
 40
0.6660033017
 40
0.7114518793
 40
0.7580474791
 40
0.8055123753
 40
0.9022047305
 40
1.0
 40
1.0
 40
1.0
 40
1.0
 10
5.8510450762
 20
4.4124164801
 30
0.0
 10
5.8505614721
 20
4.4117610408
 30
0.0
 10
5.8495927436
 20
4.4104508143
 30
0.0
 10
5.8481335988
 20
4.4084890837
 30
0.0
 10
5.8466655817
 20
4.4065319662
 30
0.0
 10
5.845185192
 20
4.4045813392
 30
0.0
 10
5.8439374863
 20
4.4029642277
 30
0.0
 10
5.8429268727
 20
4.4016777465
 30
0.0
 10
5.8421604136
 20
4.4007169501
 30
0.0
 10
5.8413838596
 20
4.3997616016
 30
0.0
 10
5.8405936832
 20
4.3988136657
 30
0.0
 10
5.8399209732
 20
4.3980325801
 30
0.0
 10
5.8393692171
 20
4.3974163179
 30
0.0
 10
5.8389467823
 20
4.3969580874
 30
0.0
 10
5.8385126602
 20
4.3965063803
 30
0.0
 10
5.8381384677
 20
4.3961383518
 30
0.0
 10
5.8378295287
 20
4.3958497061
 30
0.0
 10
5.8375100946
 20
4.3955628412
 30
0.0
 10
5.8370844958
 20
4.3952159912
 30
0.0
 10
5.8365135037
 20
4.3948412392
 30
0.0
 10
5.8358598514
 20
4.3945298469
 30
0.0
 10
5.8351260373
 20
4.3942830867
 30
0.0
 10
5.8343186822
 20
4.3940976562
 30
0.0
 10
5.8334458757
 20
4.3939732654
 30
0.0
 10
5.8325168751
 20
4.3939039114
 30
0.0
 10
5.8315401798
 20
4.3938840092
 30
0.0
 10
5.8301602528
 20
4.3939176173
 30
0.0
 10
5.8283564548
 20
4.394069209
 30
0.0
 10
5.8261224043
 20
4.3943938748
 30
0.0
 10
5.8238102344
 20
4.3948474352
 30
0.0
 10
5.821441797
 20
4.3954137099
 30
0.0
 10
5.8190353283
 20
4.396080202
 30
0.0
 10
5.815774971
 20
4.3970931064
 30
0.0
 10
5.8116952139
 20
4.3985493322
 30
0.0
 10
5.8084724591
 20
4.3998665623
 30
0.0
 10
5.8068656408
 20
4.4005600961
 30
0.0
  0
LINE
  5
2FB
100
AcDbEntity
  8
0
100
AcDbLine
 62
7
  6
CONTINUOUS
 10
5.8546824136
 20
4.4180210975
 11
5.8510450762
 21
4.4124164801
  0
LINE
  5
2FC
100
AcDbEntity
  8
0
100
AcDbLine
 62
7
  6
CONTINUOUS
 10
5.8671792474
 20
4.4396938363
 11
5.8546824136
 21
4.4180210975
  0
SPLINE
  5
2FD
100
AcDbEntity
  8
0
100
AcDbSpline
 62
7
  6
CONTINUOUS
 70
0
 71
3
 72
13
 73
9
 74
0
 42
0.0000001
 43
0.0000001
 44
0.0000000001
 40
0.0
 40
0.0
 40
0.0
 40
0.0
 40
0.2846700633
 40
0.5401843257
 40
0.6596290368
 40
0.775138146
 40
0.8881243033
 40
1.0
 40
1.0
 40
1.0
 40
1.0
 10
5.8672729843
 20
4.4467431082
 30
0.0
 10
5.8675279253
 20
4.4460996859
 30
0.0
 10
5.8679197039
 20
4.4448381317
 30
0.0
 10
5.8680862407
 20
4.4432293048
 30
0.0
 10
5.8679950889
 20
4.4420376439
 30
0.0
 10
5.8678261727
 20
4.4412063961
 30
0.0
 10
5.8675580645
 20
4.4404211985
 30
0.0
 10
5.8673151126
 20
4.4399294636
 30
0.0
 10
5.8671792474
 20
4.4396938363
 30
0.0
  0
SPLINE
  5
2FE
100
AcDbEntity
  8
0
100
AcDbSpline
 62
7
  6
CONTINUOUS
 70
0
 71
3
 72
13
 73
9
 74
0
 42
0.0000001
 43
0.0000001
 44
0.0000000001
 40
0.0
 40
0.0
 40
0.0
 40
0.0
 40
0.1118764907
 40
0.2248641874
 40
0.340373698
 40
0.4598172015
 40
0.71533003
 40
1.0
 40
1.0
 40
1.0
 40
1.0
 10
5.9026952436
 20
4.4191886287
 30
0.0
 10
5.9028313769
 20
4.4194241049
 30
0.0
 10
5.9031357656
 20
4.4198803777
 30
0.0
 10
5.9036817143
 20
4.4205051765
 30
0.0
 10
5.9043171297
 20
4.4210671041
 30
0.0
 10
5.9053035593
 20
4.4217418812
 30
0.0
 10
5.9067801305
 20
4.4224020375
 30
0.0
 10
5.9080685562
 20
4.4226935192
 30
0.0
 10
5.9087532464
 20
4.422794468
 30
0.0
  0
LINE
  5
2FF
100
AcDbEntity
  8
0
100
AcDbLine
 62
7
  6
CONTINUOUS
 10
5.8901745452
 20
4.3975297044
 11
5.9026952436
 21
4.4191886287
  0
LINE
  5
300
100
AcDbEntity
  8
0
100
AcDbLine
 62
7
  6
CONTINUOUS
 10
5.8871394779
 20
4.3915773804
 11
5.8901745452
 21
4.3975297044
  0
SPLINE
  5
301
100
AcDbEntity
  8
0
100
AcDbSpline
 62
7
  6
CONTINUOUS
 70
0
 71
3
 72
39
 73
35
 74
0
 42
0.0000001
 43
0.0000001
 44
0.0000000001
 40
0.0
 40
0.0
 40
0.0
 40
0.0
 40
0.0977942608
 40
0.1944875681
 40
0.2419532956
 40
0.2885500499
 40
0.3339993518
 40
0.3780009192
 40
0.4201734611
 40
0.4600992489
 40
0.4790659539
 40
0.4972834765
 40
0.5146561848
 40
0.5310931472
 40
0.5465301133
 40
0.5609154403
 40
0.5677153151
 40
0.5742693757
 40
0.5868338976
 40
0.5989586799
 40
0.6108435743
 40
0.6225814465
 40
0.6342341249
 40
0.6574065233
 40
0.6804602691
 40
0.703436605
 40
0.7263629971
 40
0.7492529485
 40
0.772114984
 40
0.8177778235
 40
0.863383074
 40
0.9089482721
 40
0.9544846754
 40
1.0
 40
1.0
 40
1.0
 40
1.0
 10
5.8989658249
 20
4.3473849533
 30
0.0
 10
5.8975616437
 20
4.3484298295
 30
0.0
 10
5.8948092661
 20
4.3505625331
 30
0.0
 10
5.8915077595
 20
4.3533677817
 30
0.0
 10
5.8889998698
 20
4.3556849824
 30
0.0
 10
5.8872190863
 20
4.3574359203
 30
0.0
 10
5.88554415
 20
4.3592040384
 30
0.0
 10
5.883994993
 20
4.3609798391
 30
0.0
 10
5.8825964161
 20
4.3627524208
 30
0.0
 10
5.8815627362
 20
4.3642387932
 30
0.0
 10
5.8808435396
 20
4.3654171075
 30
0.0
 10
5.8803727004
 20
4.3662729793
 30
0.0
 10
5.8799684137
 20
4.3671123981
 30
0.0
 10
5.8796391545
 20
4.3679308672
 30
0.0
 10
5.8793937653
 20
4.3687226883
 30
0.0
 10
5.8792627387
 20
4.3693664771
 30
0.0
 10
5.8792101952
 20
4.3698605132
 30
0.0
 10
5.8791934251
 20
4.3703244287
 30
0.0
 10
5.8792272328
 20
4.3708839832
 30
0.0
 10
5.8793305403
 20
4.3715309176
 30
0.0
 10
5.8794658646
 20
4.3721564577
 30
0.0
 10
5.8796255796
 20
4.3727674141
 30
0.0
 10
5.8798593537
 20
4.3735673777
 30
0.0
 10
5.8801760319
 20
4.3745538593
 30
0.0
 10
5.8805839611
 20
4.3757233951
 30
0.0
 10
5.8810101881
 20
4.3768816578
 30
0.0
 10
5.8814491541
 20
4.3780319946
 30
0.0
 10
5.8818981402
 20
4.3791762526
 30
0.0
 10
5.8825068954
 20
4.3806949024
 30
0.0
 10
5.8832836583
 20
4.3825841445
 30
0.0
 10
5.8842328119
 20
4.384841737
 30
0.0
 10
5.8851938104
 20
4.3870918469
 30
0.0
 10
5.8861632349
 20
4.3893365805
 30
0.0
 10
5.8868136222
 20
4.3908307772
 30
0.0
 10
5.8871394779
 20
4.3915773804
 30
0.0
  0
SPLINE
  5
302
100
AcDbEntity
  8
0
100
AcDbSpline
 62
7
  6
CONTINUOUS
 70
0
 71
3
 72
40
 73
36
 74
0
 42
0.0000001
 43
0.0000001
 44
0.0000000001
 40
0.0
 40
0.0
 40
0.0
 40
0.0
 40
0.0455123581
 40
0.0910457893
 40
0.13660801
 40
0.1822102704
 40
0.227870194
 40
0.2507306129
 40
0.273619051
 40
0.2965441982
 40
0.3195188736
 40
0.3425690212
 40
0.3541371653
 40
0.3657452454
 40
0.3774051622
 40
0.3832588211
 40
0.3891318278
 40
0.4009839555
 40
0.4131119285
 40
0.4257511096
 40
0.439122871
 40
0.4534202985
 40
0.4688159557
 40
0.4852841507
 40
0.502696382
 40
0.5209159184
 40
0.5398800609
 40
0.5797943195
 40
0.6219734995
 40
0.6659794048
 40
0.7114336379
 40
0.7580311936
 40
0.8054993687
 40
0.9022029986
 40
1.0
 40
1.0
 40
1.0
 40
1.0
 10
6.1132769409
 20
3.9998957869
 30
0.0
 10
6.1124674962
 20
3.9999868825
 30
0.0
 10
6.1108484109
 20
4.0001707146
 30
0.0
 10
6.1084198841
 20
4.0004535173
 30
0.0
 10
6.1059909134
 20
4.000746292
 30
0.0
 10
6.1035613824
 20
4.0010530601
 30
0.0
 10
6.1015370331
 20
4.0013250417
 30
0.0
 10
6.0999175632
 20
4.0015569754
 30
0.0
 10
6.0987022196
 20
4.0017403741
 30
0.0
 10
6.0974866471
 20
4.0019356416
 30
0.0
 10
6.0962704975
 20
4.0021451016
 30
0.0
 10
6.0952576709
 20
4.0023370884
 30
0.0
 10
6.0944481083
 20
4.0025077902
 30
0.0
 10
6.0938401503
 20
4.0026461682
 30
0.0
 10
6.0933341333
 20
4.0027712191
 30
0.0
 10
6.0929294254
 20
4.0028780448
 30
0.0
 10
6.0925225571
 20
4.0029900285
 30
0.0
 10
6.0920114964
 20
4.0031467759
 30
0.0
 10
6.0914001356
 20
4.0033855269
 30
0.0
 10
6.0907931689
 20
4.00370108
 30
0.0
 10
6.0901948603
 20
4.0041070797
 30
0.0
 10
6.0896102406
 20
4.0046120156
 30
0.0
 10
6.0890481421
 20
4.0052193578
 30
0.0
 10
6.0885052009
 20
4.005915301
 30
0.0
 10
6.0879808026
 20
4.0066869616
 30
0.0
 10
6.0874742043
 20
4.0075229479
 30
0.0
 10
6.086813303
 20
4.008734672
 30
0.0
 10
6.0860425359
 20
4.0103727076
 30
0.0
 10
6.0852068711
 20
4.0124702364
 30
0.0
 10
6.0844432943
 20
4.0146999281
 30
0.0
 10
6.0837496311
 20
4.0170347237
 30
0.0
 10
6.0831236244
 20
4.0194525091
 30
0.0
 10
6.0823706279
 20
4.0227831792
 30
0.0
 10
6.0815917955
 20
4.0270452083
 30
0.0
 10
6.0811211851
 20
4.0304954154
 30
0.0
 10
6.0809183593
 20
4.0322339396
 30
0.0
  0
LINE
  5
303
100
AcDbEntity
  8
0
100
AcDbLine
 62
7
  6
CONTINUOUS
 10
6.1199493507
 20
3.9995480691
 11
6.1132769409
 21
3.9998957869
  0
LINE
  5
304
100
AcDbEntity
  8
0
100
AcDbLine
 62
7
  6
CONTINUOUS
 10
6.1449669099
 20
3.9995618629
 11
6.1199493507
 21
3.9995480691
  0
SPLINE
  5
305
100
AcDbEntity
  8
0
100
AcDbSpline
 62
7
  6
CONTINUOUS
 70
0
 71
3
 72
13
 73
9
 74
0
 42
0.0000001
 43
0.0000001
 44
0.0000000001
 40
0.0
 40
0.0
 40
0.0
 40
0.0
 40
0.2846705589
 40
0.5401853004
 40
0.6596297183
 40
0.7751384998
 40
0.8881244017
 40
1.0
 40
1.0
 40
1.0
 40
1.0
 10
6.1511186269
 20
4.00300532
 30
0.0
 10
6.1506888766
 20
4.0024628225
 30
0.0
 10
6.1497922252
 20
4.0014927548
 30
0.0
 10
6.1484822079
 20
4.0005441142
 30
0.0
 10
6.1474046227
 20
4.0000272259
 30
0.0
 10
6.1466002851
 20
3.9997578881
 30
0.0
 10
6.1457862315
 20
3.9995974786
 30
0.0
 10
6.1452389015
 20
3.9995620138
 30
0.0
 10
6.1449669099
 20
3.9995618629
 30
0.0
  0
SPLINE
  5
306
100
AcDbEntity
  8
0
100
AcDbSpline
 62
7
  6
CONTINUOUS
 70
0
 71
3
 72
13
 73
9
 74
0
 42
0.0000001
 43
0.0000001
 44
0.0000000001
 40
0.0
 40
0.0
 40
0.0
 40
0.0
 40
0.1118754334
 40
0.2248611307
 40
0.3403698672
 40
0.4598147906
 40
0.7153304559
 40
1.0
 40
1.0
 40
1.0
 40
1.0
 10
5.1048483401
 20
3.9995618498
 30
0.0
 10
5.1045763476
 20
3.9995620067
 30
0.0
 10
5.1040290168
 20
3.9995974732
 30
0.0
 10
5.103214958
 20
3.9997578705
 30
0.0
 10
5.1024106119
 20
4.0000271989
 30
0.0
 10
5.1013330169
 20
4.000544089
 30
0.0
 10
5.1000230026
 20
4.001492753
 30
0.0
 10
5.099126359
 20
4.0024628305
 30
0.0
 10
5.0986965903
 20
4.0030053145
 30
0.0
  0
LINE
  5
307
100
AcDbEntity
  8
0
100
AcDbLine
 62
7
  6
CONTINUOUS
 10
5.1298761106
 20
3.9995480564
 11
5.1048483401
 21
3.9995618498
  0
LINE
  5
308
100
AcDbEntity
  8
0
100
AcDbLine
 62
7
  6
CONTINUOUS
 10
5.1365206384
 20
3.9998937452
 11
5.1298761106
 21
3.9995480564
  0
SPLINE
  5
309
100
AcDbEntity
  8
0
100
AcDbSpline
 62
7
  6
CONTINUOUS
 70
0
 71
3
 72
40
 73
36
 74
0
 42
0.0000001
 43
0.0000001
 44
0.0000000001
 40
0.0
 40
0.0
 40
0.0
 40
0.0
 40
0.0978069894
 40
0.1945104464
 40
0.2419798497
 40
0.2885786916
 40
0.3340290194
 40
0.3780309132
 40
0.4201984129
 40
0.460113675
 40
0.4790771913
 40
0.4972949752
 40
0.5146642172
 40
0.531082819
 40
0.5464874613
 40
0.5608603194
 40
0.5742318733
 40
0.5868006418
 40
0.598909866
 40
0.604868104
 40
0.6107865307
 40
0.6225330056
 40
0.634191207
 40
0.6457932052
 40
0.6573602007
 40
0.6804160233
 40
0.7033969005
 40
0.7263255292
 40
0.7492181876
 40
0.7720833283
 40
0.8177524384
 40
0.8633638981
 40
0.9089354061
 40
0.9544781883
 40
1.0
 40
1.0
 40
1.0
 40
1.0
 10
5.1688959222
 20
4.032228093
 30
0.0
 10
5.1686930629
 20
4.0304889955
 30
0.0
 10
5.1682220857
 20
4.0270378659
 30
0.0
 10
5.1674428698
 20
4.022774714
 30
0.0
 10
5.1666894371
 20
4.0194433093
 30
0.0
 10
5.1660629538
 20
4.0170250873
 30
0.0
 10
5.1653686112
 20
4.0146900484
 30
0.0
 10
5.1646047378
 20
4.0124602626
 30
0.0
 10
5.1637682337
 20
4.010362804
 30
0.0
 10
5.1629969785
 20
4.0087247632
 30
0.0
 10
5.1623355551
 20
4.0075130147
 30
0.0
 10
5.1618295572
 20
4.0066773377
 30
0.0
 10
5.1613045717
 20
4.005907836
 30
0.0
 10
5.1607600069
 20
4.0052147085
 30
0.0
 10
5.1601952604
 20
4.0046090204
 30
0.0
 10
5.1596141738
 20
4.0040978495
 30
0.0
 10
5.1590172336
 20
4.0036884753
 30
0.0
 10
5.158406848
 20
4.0033822607
 30
0.0
 10
5.1578934457
 20
4.003187692
 30
0.0
 10
5.1574851283
 20
4.0030548055
 30
0.0
 10
5.1570804981
 20
4.0029317993
 30
0.0
 10
5.1565744478
 20
4.0027919467
 30
0.0
 10
5.1559659281
 20
4.0026419671
 30
0.0
 10
5.1553576008
 20
4.0025053089
 30
0.0
 10
5.1545476536
 20
4.0023356962
 30
0.0
 10
5.1535343964
 20
4.0021437573
 30
0.0
 10
5.1523178261
 20
4.0019334647
 30
0.0
 10
5.1511016459
 20
4.0017386476
 30
0.0
 10
5.1498857937
 20
4.0015552838
 30
0.0
 10
5.1482656285
 20
4.0013233118
 30
0.0
 10
5.146240401
 20
4.0010513038
 30
0.0
 10
5.1438098174
 20
4.0007445117
 30
0.0
 10
5.1413797958
 20
4.0004516832
 30
0.0
 10
5.1389502168
 20
4.0001688047
 30
0.0
 10
5.1373304337
 20
3.9999848801
 30
0.0
 10
5.1365206384
 20
3.9998937452
 30
0.0
  0
SPLINE
  5
30A
100
AcDbEntity
  8
0
100
AcDbSpline
 62
7
  6
CONTINUOUS
 70
0
 71
3
 72
21
 73
17
 74
0
 42
0.0000001
 43
0.0000001
 44
0.0000000001
 40
0.0
 40
0.0
 40
0.0
 40
0.0
 40
0.0431610877
 40
0.0886098333
 40
0.1369816245
 40
0.188711607
 40
0.2439840514
 40
0.3026936192
 40
0.3645266927
 40
0.4290985328
 40
0.4960345938
 40
0.5649280822
 40
0.7071033978
 40
0.7796933852
 40
0.8528678799
 40
1.0
 40
1.0
 40
1.0
 40
1.0
 10
6.1511186232
 20
3.9551079541
 30
0.0
 10
6.1514360746
 20
3.9547886256
 30
0.0
 10
6.1520247022
 20
3.9540682343
 30
0.0
 10
6.1527372552
 20
3.9528237276
 30
0.0
 10
6.1533052408
 20
3.9514112382
 30
0.0
 10
6.1537407787
 20
3.9498472578
 30
0.0
 10
6.1540569929
 20
3.9481458966
 30
0.0
 10
6.1542687366
 20
3.9463229156
 30
0.0
 10
6.1543914679
 20
3.9443949755
 30
0.0
 10
6.1544391367
 20
3.9423781174
 30
0.0
 10
6.1544232294
 20
3.9402872565
 30
0.0
 10
6.1543328965
 20
3.9373882151
 30
0.0
 10
6.1541588985
 20
3.9344335729
 30
0.0
 10
6.153932764
 20
3.9314381971
 30
0.0
 10
6.1536752082
 20
3.9283934163
 30
0.0
 10
6.1534536027
 20
3.9261056991
 30
0.0
 10
6.153296181
 20
3.9245788533
 30
0.0
  0
SPLINE
  5
30B
100
AcDbEntity
  8
0
100
AcDbSpline
 62
7
  6
CONTINUOUS
 70
0
 71
3
 72
21
 73
17
 74
0
 42
0.0000001
 43
0.0000001
 44
0.0000000001
 40
0.0
 40
0.0
 40
0.0
 40
0.0
 40
0.1471324614
 40
0.2203065969
 40
0.2928949157
 40
0.4350684137
 40
0.5039664153
 40
0.5709078057
 40
0.6354752978
 40
0.6972872027
 40
0.7559789348
 40
0.8112677456
 40
0.8630420169
 40
0.9114312119
 40
0.9568522151
 40
1.0
 40
1.0
 40
1.0
 40
1.0
 10
5.0965190087
 20
3.9245791217
 30
0.0
 10
5.0963615884
 20
3.9261059717
 30
0.0
 10
5.0961399769
 20
3.928393689
 30
0.0
 10
5.0958824247
 20
3.9314384536
 30
0.0
 10
5.0956563155
 20
3.9344337924
 30
0.0
 10
5.0954823528
 20
3.9373884478
 30
0.0
 10
5.0953919586
 20
3.9402875715
 30
0.0
 10
5.0953759731
 20
3.9423784899
 30
0.0
 10
5.0954236508
 20
3.9443951405
 30
0.0
 10
5.0955466781
 20
3.9463226139
 30
0.0
 10
5.0957588178
 20
3.9481453089
 30
0.0
 10
5.096074978
 20
3.9498471116
 30
0.0
 10
5.0965096729
 20
3.9514121456
 30
0.0
 10
5.0970770033
 20
3.9528253448
 30
0.0
 10
5.097790483
 20
3.9540691379
 30
0.0
 10
5.0983793801
 20
3.9547886397
 30
0.0
 10
5.0986965916
 20
3.9551080112
 30
0.0
  0
SPLINE
  5
30C
100
AcDbEntity
  8
0
100
AcDbSpline
 62
7
  6
CONTINUOUS
 70
0
 71
3
 72
21
 73
17
 74
0
 42
0.0000001
 43
0.0000001
 44
0.0000000001
 40
0.0
 40
0.0
 40
0.0
 40
0.0
 40
0.04316113
 40
0.0886099706
 40
0.1369818017
 40
0.1887117577
 40
0.243984163
 40
0.3026937063
 40
0.3645267611
 40
0.4290985832
 40
0.4960346279
 40
0.5649281043
 40
0.7071034187
 40
0.7796934041
 40
0.852867894
 40
1.0
 40
1.0
 40
1.0
 40
1.0
 10
5.3410619063
 20
3.5353189274
 30
0.0
 10
5.3406266336
 20
3.5352036706
 30
0.0
 10
5.3397084405
 20
3.5350541016
 30
0.0
 10
5.3382743875
 20
3.535059269
 30
0.0
 10
5.3367671417
 20
3.5352736241
 30
0.0
 10
5.3351949257
 20
3.5356784269
 30
0.0
 10
5.333563397
 20
3.5362552574
 30
0.0
 10
5.3318787776
 20
3.5369833723
 30
0.0
 10
5.3301477671
 20
3.5378410537
 30
0.0
 10
5.3283772824
 20
3.5388082003
 30
0.0
 10
5.3265744973
 20
3.5398674069
 30
0.0
 10
5.3241090199
 20
3.541395158
 30
0.0
 10
5.3216372234
 20
3.5430231663
 30
0.0
 10
5.3191562185
 20
3.5447166927
 30
0.0
 10
5.3166481385
 20
3.5464621332
 30
0.0
 10
5.3147777198
 20
3.547797908
 30
0.0
 10
5.3135341433
 20
3.5486976622
 30
0.0
  0
SPLINE
  5
30D
100
AcDbEntity
  8
0
100
AcDbSpline
 62
7
  6
CONTINUOUS
 70
0
 71
3
 72
21
 73
17
 74
0
 42
0.0000001
 43
0.0000001
 44
0.0000000001
 40
0.0
 40
0.0
 40
0.0
 40
0.0
 40
0.1471324613
 40
0.2203065967
 40
0.2928949155
 40
0.4350684135
 40
0.503966415
 40
0.5709078053
 40
0.6354752974
 40
0.6972872022
 40
0.7559789344
 40
0.811267745
 40
0.8630420161
 40
0.9114312113
 40
0.9568522149
 40
1.0
 40
1.0
 40
1.0
 40
1.0
 10
5.4078922555
 20
3.4942199487
 30
0.0
 10
5.4064912544
 20
3.4948470437
 30
0.0
 10
5.4043992274
 20
3.4957989812
 30
0.0
 10
5.4016336078
 20
3.4970983167
 30
0.0
 10
5.3989265138
 20
3.4984001699
 30
0.0
 10
5.3962807258
 20
3.4997268414
 30
0.0
 10
5.3937248138
 20
3.5010981196
 30
0.0
 10
5.3919060327
 20
3.502129735
 30
0.0
 10
5.3901834009
 20
3.5031793503
 30
0.0
 10
5.3885756736
 20
3.5042496318
 30
0.0
 10
5.3871032433
 20
3.5053446976
 30
0.0
 10
5.385787519
 20
3.5064694017
 30
0.0
 10
5.3846495073
 20
3.5076283757
 30
0.0
 10
5.383709306
 20
3.5088262978
 30
0.0
 10
5.3829888895
 20
3.5100660858
 30
0.0
 10
5.3826602312
 20
3.5109358366
 30
0.0
 10
5.3825422531
 20
3.5113702355
 30
0.0
  0
SPLINE
  5
30E
100
AcDbEntity
  8
0
100
AcDbSpline
 62
7
  6
CONTINUOUS
 70
0
 71
3
 72
21
 73
17
 74
0
 42
0.0000001
 43
0.0000001
 44
0.0000000001
 40
0.0
 40
0.0
 40
0.0
 40
0.0
 40
0.0431610895
 40
0.0886098455
 40
0.1369816519
 40
0.1887116387
 40
0.2439840722
 40
0.3026936235
 40
0.3645266809
 40
0.4290985112
 40
0.4960345673
 40
0.5649280545
 40
0.7071033858
 40
0.7796933791
 40
0.8528678773
 40
1.0
 40
1.0
 40
1.0
 40
1.0
 10
5.8672729135
 20
3.5113702092
 30
0.0
 10
5.8671550926
 20
3.510935624
 30
0.0
 10
5.8668255292
 20
3.5100656618
 30
0.0
 10
5.8661040312
 20
3.5088263192
 30
0.0
 10
5.865164772
 20
3.5076281843
 30
0.0
 10
5.8640280939
 20
3.5064690074
 30
0.0
 10
5.8627127792
 20
3.5053444774
 30
0.0
 10
5.8612399036
 20
3.5042496117
 30
0.0
 10
5.8596316246
 20
3.5031793535
 30
0.0
 10
5.8579088088
 20
3.5021296422
 30
0.0
 10
5.8560901166
 20
3.5010979879
 30
0.0
 10
5.8535343068
 20
3.4997266975
 30
0.0
 10
5.8508885122
 20
3.4984000633
 30
0.0
 10
5.8481813732
 20
3.4970982134
 30
0.0
 10
5.8454157377
 20
3.4957988728
 30
0.0
 10
5.8433237136
 20
3.4948469302
 30
0.0
 10
5.8419227156
 20
3.4942198384
 30
0.0
  0
SPLINE
  5
30F
100
AcDbEntity
  8
0
100
AcDbSpline
 62
7
  6
CONTINUOUS
 70
0
 71
3
 72
21
 73
17
 74
0
 42
0.0000001
 43
0.0000001
 44
0.0000000001
 40
0.0
 40
0.0
 40
0.0
 40
0.0
 40
0.147132456
 40
0.2203065856
 40
0.292894898
 40
0.4350683775
 40
0.5039663804
 40
0.5709077712
 40
0.6354752672
 40
0.6972871822
 40
0.7559789246
 40
0.8112677488
 40
0.8630420348
 40
0.9114312323
 40
0.9568522224
 40
1.0
 40
1.0
 40
1.0
 40
1.0
 10
5.9362808555
 20
3.548697504
 30
0.0
 10
5.9350372749
 20
3.547797749
 30
0.0
 10
5.9331668594
 20
3.5464619694
 30
0.0
 10
5.9306587923
 20
3.5447165405
 30
0.0
 10
5.9281778079
 20
3.543023055
 30
0.0
 10
5.9257059827
 20
3.5413950716
 30
0.0
 10
5.9232404655
 20
3.5398672258
 30
0.0
 10
5.9214376698
 20
3.5388079229
 30
0.0
 10
5.9196673602
 20
3.5378408877
 30
0.0
 10
5.9179366056
 20
3.5369836955
 30
0.0
 10
5.9162520353
 20
3.5362560662
 30
0.0
 10
5.9146201505
 20
3.5356789675
 30
0.0
 10
5.9130474436
 20
3.5352729071
 30
0.0
 10
5.911539912
 20
3.5350576299
 30
0.0
 10
5.910106016
 20
3.5350536254
 30
0.0
 10
5.9091884609
 20
3.5352038747
 30
0.0
 10
5.9087532715
 20
3.5353189021
 30
0.0
  0
SPLINE
  5
310
100
AcDbEntity
  8
0
100
AcDbSpline
 62
7
  6
CONTINUOUS
 70
0
 71
3
 72
21
 73
17
 74
0
 42
0.0000001
 43
0.0000001
 44
0.0000000001
 40
0.0
 40
0.0
 40
0.0
 40
0.0
 40
0.0431610903
 40
0.0886098529
 40
0.1369816706
 40
0.1887116611
 40
0.2439840865
 40
0.302693625
 40
0.3645266699
 40
0.4290984927
 40
0.4960345452
 40
0.5649280316
 40
0.7071033757
 40
0.7796933739
 40
0.852867875
 40
1.0
 40
1.0
 40
1.0
 40
1.0
 10
5.0986965942
 20
4.0030054001
 30
0.0
 10
5.0983791428
 20
4.0033247286
 30
0.0
 10
5.0977905151
 20
4.00404512
 30
0.0
 10
5.0970779616
 20
4.005289627
 30
0.0
 10
5.096509976
 20
4.0067021171
 30
0.0
 10
5.0960744386
 20
4.0082660977
 30
0.0
 10
5.0957582244
 20
4.0099674585
 30
0.0
 10
5.0955464808
 20
4.0117904387
 30
0.0
 10
5.0954237495
 20
4.013718378
 30
0.0
 10
5.0953760808
 20
4.0157352355
 30
0.0
 10
5.0953919881
 20
4.0178260962
 30
0.0
 10
5.0954823205
 20
4.0207251377
 30
0.0
 10
5.0956563189
 20
4.0236797803
 30
0.0
 10
5.0958824533
 20
4.0266751566
 30
0.0
 10
5.0961400092
 20
4.0297199376
 30
0.0
 10
5.0963616147
 20
4.0320076549
 30
0.0
 10
5.0965190364
 20
4.0335345007
 30
0.0
  0
SPLINE
  5
311
100
AcDbEntity
  8
0
100
AcDbSpline
 62
7
  6
CONTINUOUS
 70
0
 71
3
 72
21
 73
17
 74
0
 42
0.0000001
 43
0.0000001
 44
0.0000000001
 40
0.0
 40
0.0
 40
0.0
 40
0.0
 40
0.1471325478
 40
0.2203065339
 40
0.2928943424
 40
0.4350664117
 40
0.5039643973
 40
0.5709059303
 40
0.6354737376
 40
0.6972861142
 40
0.7559780655
 40
0.8112666381
 40
0.8630404144
 40
0.9114297715
 40
0.9568517331
 40
1.0
 40
1.0
 40
1.0
 40
1.0
 10
6.1532962087
 20
4.0335342323
 30
0.0
 10
6.1534536292
 20
4.0320073804
 30
0.0
 10
6.1536752415
 20
4.0297196623
 30
0.0
 10
6.1539327933
 20
4.0266749018
 30
0.0
 10
6.1541588997
 20
4.0236795826
 30
0.0
 10
6.1543328478
 20
4.0207249452
 30
0.0
 10
6.1544232644
 20
4.0178258339
 30
0.0
 10
6.1544392503
 20
4.0157349095
 30
0.0
 10
6.1543915679
 20
4.013718248
 30
0.0
 10
6.1542685386
 20
4.011790763
 30
0.0
 10
6.1540563957
 20
4.0099680623
 30
0.0
 10
6.1537402437
 20
4.0082662632
 30
0.0
 10
6.1533055739
 20
4.0067012266
 30
0.0
 10
6.152738227
 20
4.005288025
 30
0.0
 10
6.1520247379
 20
4.0040442189
 30
0.0
 10
6.151435842
 20
4.0033246952
 30
0.0
 10
6.1511186269
 20
4.00300532
 30
0.0
  0
SPLINE
  5
312
100
AcDbEntity
  8
0
100
AcDbSpline
 62
7
  6
CONTINUOUS
 70
0
 71
3
 72
21
 73
17
 74
0
 42
0.0000001
 43
0.0000001
 44
0.0000000001
 40
0.0
 40
0.0
 40
0.0
 40
0.0
 40
0.0431615037
 40
0.0886101029
 40
0.136979585
 40
0.1887073339
 40
0.2439797709
 40
0.3026900865
 40
0.3645233627
 40
0.4290956146
 40
0.4960322475
 40
0.5649258798
 40
0.7071016956
 40
0.7796918045
 40
0.8528668937
 40
1.0
 40
1.0
 40
1.0
 40
1.0
 10
5.9087532464
 20
4.422794468
 30
0.0
 10
5.9091885238
 20
4.4229097259
 30
0.0
 10
5.9101067261
 20
4.42305927
 30
0.0
 10
5.9115407559
 20
4.423054071
 30
0.0
 10
5.9130479579
 20
4.4228397582
 30
0.0
 10
5.9146201435
 20
4.4224350073
 30
0.0
 10
5.9162516546
 20
4.4218581578
 30
0.0
 10
5.9179362861
 20
4.4211300374
 30
0.0
 10
5.9196673252
 20
4.4202723712
 30
0.0
 10
5.9214378262
 20
4.4193052185
 30
0.0
 10
5.9232406234
 20
4.4182460005
 30
0.0
 10
5.9257061282
 20
4.4167182577
 30
0.0
 10
5.9281779214
 20
4.4150902186
 30
0.0
 10
5.9306589549
 20
4.413396701
 30
0.0
 10
5.9331670549
 20
4.411651247
 30
0.0
 10
5.9350374866
 20
4.4103154539
 30
0.0
 10
5.9362810741
 20
4.4094156919
 30
0.0
  0
SPLINE
  5
313
100
AcDbEntity
  8
0
100
AcDbSpline
 62
7
  6
CONTINUOUS
 70
0
 71
3
 72
21
 73
17
 74
0
 42
0.0000001
 43
0.0000001
 44
0.0000000001
 40
0.0
 40
0.0
 40
0.0
 40
0.0
 40
0.147132465
 40
0.2203066051
 40
0.2928949293
 40
0.435068443
 40
0.5039664426
 40
0.5709078318
 40
0.6354753199
 40
0.6972872157
 40
0.7559789385
 40
0.8112677354
 40
0.8630419912
 40
0.9114311854
 40
0.9568522058
 40
1.0
 40
1.0
 40
1.0
 40
1.0
 10
5.8419229619
 20
4.4638934054
 30
0.0
 10
5.8433239631
 20
4.4632663103
 30
0.0
 10
5.8454159903
 20
4.4623143728
 30
0.0
 10
5.8481816101
 20
4.4610150371
 30
0.0
 10
5.8508887045
 20
4.4597131837
 30
0.0
 10
5.8535344929
 20
4.4583865123
 30
0.0
 10
5.8560904049
 20
4.4570152336
 30
0.0
 10
5.857909186
 20
4.4559836182
 30
0.0
 10
5.8596318179
 20
4.4549340029
 30
0.0
 10
5.861239545
 20
4.4538637214
 30
0.0
 10
5.862711975
 20
4.4527686557
 30
0.0
 10
5.864027699
 20
4.4516439517
 30
0.0
 10
5.8651657105
 20
4.4504849778
 30
0.0
 10
5.8661059117
 20
4.4492870556
 30
0.0
 10
5.866826329
 20
4.4480472677
 30
0.0
 10
5.8671549878
 20
4.4471775167
 30
0.0
 10
5.8672729659
 20
4.4467431177
 30
0.0
  0
SPLINE
  5
314
100
AcDbEntity
  8
0
100
AcDbSpline
 62
7
  6
CONTINUOUS
 70
0
 71
3
 72
21
 73
17
 74
0
 42
0.0000001
 43
0.0000001
 44
0.0000000001
 40
0.0
 40
0.0
 40
0.0
 40
0.0
 40
0.0431610906
 40
0.0886098551
 40
0.1369816755
 40
0.1887116667
 40
0.2439840901
 40
0.3026936256
 40
0.3645266676
 40
0.4290984886
 40
0.4960345403
 40
0.5649280264
 40
0.7071033735
 40
0.7796933727
 40
0.8528678745
 40
1.0
 40
1.0
 40
1.0
 40
1.0
 10
5.382542304
 20
4.4467431449
 30
0.0
 10
5.3826601249
 20
4.4471777301
 30
0.0
 10
5.3829896883
 20
4.4480476924
 30
0.0
 10
5.3837111863
 20
4.4492870353
 30
0.0
 10
5.3846504458
 20
4.4504851703
 30
0.0
 10
5.3857871241
 20
4.4516443471
 30
0.0
 10
5.3871024386
 20
4.4527688769
 30
0.0
 10
5.388575314
 20
4.4538637424
 30
0.0
 10
5.3901835926
 20
4.4549340004
 30
0.0
 10
5.3919064081
 20
4.4559837115
 30
0.0
 10
5.3937251001
 20
4.4570153657
 30
0.0
 10
5.3962809099
 20
4.4583866564
 30
0.0
 10
5.3989267048
 20
4.4597132905
 30
0.0
 10
5.401633844
 20
4.4610151406
 30
0.0
 10
5.4043994796
 20
4.4623144812
 30
0.0
 10
5.4064915037
 20
4.4632664238
 30
0.0
 10
5.4078925018
 20
4.4638935156
 30
0.0
  0
SPLINE
  5
315
100
AcDbEntity
  8
0
100
AcDbSpline
 62
7
  6
CONTINUOUS
 70
0
 71
3
 72
21
 73
17
 74
0
 42
0.0000001
 43
0.0000001
 44
0.0000000001
 40
0.0
 40
0.0
 40
0.0
 40
0.0
 40
0.1471324702
 40
0.2203066125
 40
0.2928949385
 40
0.4350684555
 40
0.5039664592
 40
0.5709078525
 40
0.6354753441
 40
0.6972872422
 40
0.755978969
 40
0.8112677776
 40
0.8630420467
 40
0.9114312329
 40
0.9568522214
 40
1.0
 40
1.0
 40
1.0
 40
1.0
 10
5.3135343619
 20
4.40941585
 30
0.0
 10
5.3147779426
 20
4.4103156051
 30
0.0
 10
5.3166483582
 20
4.411651385
 30
0.0
 10
5.3191564257
 20
4.4133968141
 30
0.0
 10
5.3216374109
 20
4.4150902998
 30
0.0
 10
5.3241092361
 20
4.416718284
 30
0.0
 10
5.3265747541
 20
4.4182461293
 30
0.0
 10
5.3283775498
 20
4.4193054323
 30
0.0
 10
5.3301478591
 20
4.4202724675
 30
0.0
 10
5.3318786136
 20
4.4211296593
 30
0.0
 10
5.3335631834
 20
4.4218572883
 30
0.0
 10
5.3351950677
 20
4.4224343869
 30
0.0
 10
5.3367677742
 20
4.4228404471
 30
0.0
 10
5.3382753055
 20
4.4230557241
 30
0.0
 10
5.3397092014
 20
4.4230597286
 30
0.0
 10
5.3406267565
 20
4.4229094793
 30
0.0
 10
5.3410619459
 20
4.4227944519
 30
0.0
  0
SPLINE
  5
316
100
AcDbEntity
  8
0
100
AcDbSpline
 62
7
  6
CONTINUOUS
 70
0
 71
3
 72
20
 73
16
 74
0
 42
0.0000001
 43
0.0000001
 44
0.0000000001
 40
0.0
 40
0.0
 40
0.0
 40
0.0
 40
0.2230256807
 40
0.4179615895
 40
0.5840835407
 40
0.7210590168
 40
0.7786035198
 40
0.8289075299
 40
0.8720884402
 40
0.9083622885
 40
0.9381329658
 40
0.9621666889
 40
0.9819139227
 40
0.9909781606
 40
1.0
 40
1.0
 40
1.0
 40
1.0
 10
5.9209121492
 20
4.3442781957
 30
0.0
 10
5.9204465683
 20
4.3436536305
 30
0.0
 10
5.9195642455
 20
4.3424904043
 30
0.0
 10
5.9182945478
 20
4.3408931935
 30
0.0
 10
5.9171705834
 20
4.3395651185
 30
0.0
 10
5.9163158515
 20
4.3386387492
 30
0.0
 10
5.9157030304
 20
4.3380420201
 30
0.0
 10
5.9153085697
 20
4.3376913935
 30
0.0
 10
5.9149517972
 20
4.3374112644
 30
0.0
 10
5.914632264
 20
4.3372016384
 30
0.0
 10
5.9143486435
 20
4.3370627198
 30
0.0
 10
5.9140990077
 20
4.3369937063
 30
0.0
 10
5.9139099453
 20
4.3369992996
 30
0.0
 10
5.9137850369
 20
4.3370454324
 30
0.0
 10
5.9137315149
 20
4.3370800728
 30
0.0
 10
5.9137069874
 20
4.3370998572
 30
0.0
  0
SPLINE
  5
317
100
AcDbEntity
  8
0
100
AcDbSpline
 62
7
  6
CONTINUOUS
 70
0
 71
3
 72
20
 73
16
 74
0
 42
0.0000001
 43
0.0000001
 44
0.0000000001
 40
0.0
 40
0.0
 40
0.0
 40
0.0
 40
0.0090218422
 40
0.0180860798
 40
0.0378333072
 40
0.0618670223
 40
0.0916376941
 40
0.1279115399
 40
0.17109245
 40
0.2213964614
 40
0.2789409665
 40
0.415916448
 40
0.5820384028
 40
0.7769743146
 40
1.0
 40
1.0
 40
1.0
 40
1.0
 10
6.0793817877
 20
4.0501426854
 30
0.0
 10
6.0793769176
 20
4.0501738191
 30
0.0
 10
6.0793736792
 20
4.0502374908
 30
0.0
 10
6.0793961813
 20
4.050368731
 30
0.0
 10
6.0794858685
 20
4.0505352604
 30
0.0
 10
6.0796704539
 20
4.0507169444
 30
0.0
 10
6.0799325712
 20
4.0508931075
 30
0.0
 10
6.0802738793
 20
4.0510650183
 30
0.0
 10
6.0806948644
 20
4.0512339277
 30
0.0
 10
6.0811957463
 20
4.0514002274
 30
0.0
 10
6.0820189395
 20
4.0516325816
 30
0.0
 10
6.0832485647
 20
4.0519096168
 30
0.0
 10
6.0849606936
 20
4.0522189612
 30
0.0
 10
6.0869787675
 20
4.0525199459
 30
0.0
 10
6.0884273124
 20
4.0527024469
 30
0.0
 10
6.0892009921
 20
4.0527933694
 30
0.0
  0
LINE
  5
318
100
AcDbEntity
  8
0
100
AcDbLine
 62
7
  6
CONTINUOUS
 10
6.0892009921
 20
4.0527933694
 11
6.1097520516
 21
4.0530318732
  0
LINE
  5
319
100
AcDbEntity
  8
0
100
AcDbLine
 62
7
  6
CONTINUOUS
 10
5.9313942293
 20
4.3619566834
 11
5.9209121492
 21
4.3442781957
  0
LINE
  5
31A
100
AcDbEntity
  8
0
100
AcDbLine
 62
7
  6
CONTINUOUS
 10
6.109752058
 20
4.0530318317
 11
6.1316884698
 21
4.0563845583
  0
SPLINE
  5
31B
100
AcDbEntity
  8
0
100
AcDbSpline
 62
7
  6
CONTINUOUS
 70
0
 71
3
 72
11
 73
7
 74
0
 42
0.0000001
 43
0.0000001
 44
0.0000000001
 40
0.0
 40
0.0
 40
0.0
 40
0.0
 40
0.2500333029
 40
0.5000587151
 40
0.7500376879
 40
1.0
 40
1.0
 40
1.0
 40
1.0
 10
6.1453504225
 20
4.0327150112
 30
0.0
 10
6.1435718239
 20
4.0342122904
 30
0.0
 10
6.1402485873
 20
4.0374998527
 30
0.0
 10
6.1361757558
 20
4.0432043125
 30
0.0
 10
6.1331923353
 20
4.0495501393
 30
0.0
 10
6.1320386451
 20
4.0540888178
 30
0.0
 10
6.1316880523
 20
4.0563864848
 30
0.0
  0
SPLINE
  5
31C
100
AcDbEntity
  8
0
100
AcDbSpline
 62
7
  6
CONTINUOUS
 70
0
 71
3
 72
11
 73
7
 74
0
 42
0.0000001
 43
0.0000001
 44
0.0000000001
 40
0.0
 40
0.0
 40
0.0
 40
0.0
 40
0.2499648362
 40
0.4999450894
 40
0.7499685856
 40
1.0
 40
1.0
 40
1.0
 40
1.0
 10
5.9452583393
 20
4.3792843516
 30
0.0
 10
5.9434444872
 20
4.3807360826
 30
0.0
 10
5.9400940416
 20
4.3840051563
 30
0.0
 10
5.9360918584
 20
4.3897590661
 30
0.0
 10
5.9331904059
 20
4.396136296
 30
0.0
 10
5.9320061265
 20
4.4006561555
 30
0.0
 10
5.9315987114
 20
4.4029440521
 30
0.0
  0
SPLINE
  5
31D
100
AcDbEntity
  8
0
100
AcDbSpline
 62
7
  6
CONTINUOUS
 70
0
 71
3
 72
20
 73
16
 74
0
 42
0.0000001
 43
0.0000001
 44
0.0000000001
 40
0.0
 40
0.0
 40
0.0
 40
0.0
 40
0.2230256807
 40
0.4179615895
 40
0.5840835407
 40
0.7210590168
 40
0.7786035198
 40
0.8289075299
 40
0.8720884402
 40
0.9083622885
 40
0.9381329658
 40
0.9621666889
 40
0.9819139227
 40
0.9909781606
 40
1.0
 40
1.0
 40
1.0
 40
1.0
 10
5.4566187658
 20
4.4180148881
 30
0.0
 10
5.4569268646
 20
4.4172994006
 30
0.0
 10
5.4574930867
 20
4.4159536735
 30
0.0
 10
5.4582414629
 20
4.4140554777
 30
0.0
 10
5.4588296274
 20
4.4124180585
 30
0.0
 10
5.4592045208
 20
4.4112146543
 30
0.0
 10
5.4594148929
 20
4.410385571
 30
0.0
 10
5.459521314
 20
4.4098686448
 30
0.0
 10
5.4595855267
 20
4.4094196062
 30
0.0
 10
5.4596073015
 20
4.4090380693
 30
0.0
 10
5.4595857983
 20
4.4087229874
 30
0.0
 10
5.4595207479
 20
4.4084722897
 30
0.0
 10
5.4594213727
 20
4.4083113536
 30
0.0
 10
5.4593189664
 20
4.4082262461
 30
0.0
 10
5.4592622059
 20
4.4081972149
 30
0.0
 10
5.4592328083
 20
4.4081858656
 30
0.0
  0
SPLINE
  5
31E
100
AcDbEntity
  8
0
100
AcDbSpline
 62
7
  6
CONTINUOUS
 70
0
 71
3
 72
20
 73
16
 74
0
 42
0.0000001
 43
0.0000001
 44
0.0000000001
 40
0.0
 40
0.0
 40
0.0
 40
0.0
 40
0.0090218422
 40
0.0180860798
 40
0.0378333072
 40
0.0618670223
 40
0.0916376941
 40
0.1279115399
 40
0.17109245
 40
0.2213964614
 40
0.2789409665
 40
0.415916448
 40
0.5820384028
 40
0.7769743146
 40
1.0
 40
1.0
 40
1.0
 40
1.0
 10
5.7905824091
 20
4.4081858656
 30
0.0
 10
5.7905530115
 20
4.4081972149
 30
0.0
 10
5.790496251
 20
4.4082262461
 30
0.0
 10
5.7903938447
 20
4.4083113536
 30
0.0
 10
5.7902944696
 20
4.4084722897
 30
0.0
 10
5.7902294193
 20
4.4087229874
 30
0.0
 10
5.7902079163
 20
4.4090380692
 30
0.0
 10
5.7902296912
 20
4.409419606
 30
0.0
 10
5.7902939039
 20
4.4098686446
 30
0.0
 10
5.7904003251
 20
4.4103855708
 30
0.0
 10
5.790610697
 20
4.4112146541
 30
0.0
 10
5.7909855901
 20
4.4124180584
 30
0.0
 10
5.7915737544
 20
4.4140554777
 30
0.0
 10
5.792322131
 20
4.4159536734
 30
0.0
 10
5.792888353
 20
4.4172994005
 30
0.0
 10
5.7931964516
 20
4.4180148881
 30
0.0
  0
LINE
  5
31F
100
AcDbEntity
  8
0
100
AcDbLine
 62
7
  6
CONTINUOUS
 10
5.7931964516
 20
4.4180148881
 11
5.803265431
 21
4.4359318796
  0
LINE
  5
320
100
AcDbEntity
  8
0
100
AcDbLine
 62
7
  6
CONTINUOUS
 10
5.4465497864
 20
4.4359318796
 11
5.4566187658
 21
4.4180148881
  0
LINE
  5
321
100
AcDbEntity
  8
0
100
AcDbLine
 62
7
  6
CONTINUOUS
 10
5.8032654702
 20
4.4359318643
 11
5.8113301297
 21
4.4566057175
  0
SPLINE
  5
322
100
AcDbEntity
  8
0
100
AcDbSpline
 62
7
  6
CONTINUOUS
 70
0
 71
3
 72
11
 73
7
 74
0
 42
0.0000001
 43
0.0000001
 44
0.0000000001
 40
0.0
 40
0.0
 40
0.0
 40
0.0
 40
0.2500333029
 40
0.5000587151
 40
0.7500376879
 40
1.0
 40
1.0
 40
1.0
 40
1.0
 10
5.8386595351
 20
4.4566025421
 30
0.0
 10
5.836473554
 20
4.4558108701
 30
0.0
 10
5.8319648232
 20
4.454576644
 30
0.0
 10
5.8249882004
 20
4.4539016983
 30
0.0
 10
5.8180008429
 20
4.4544908937
 30
0.0
 10
5.8134933869
 20
4.455761108
 30
0.0
 10
5.8113282525
 20
4.4566063192
 30
0.0
  0
SPLINE
  5
323
100
AcDbEntity
  8
0
100
AcDbSpline
 62
7
  6
CONTINUOUS
 70
0
 71
3
 72
11
 73
7
 74
0
 42
0.0000001
 43
0.0000001
 44
0.0000000001
 40
0.0
 40
0.0
 40
0.0
 40
0.0
 40
0.2499648362
 40
0.4999450894
 40
0.7499685856
 40
1.0
 40
1.0
 40
1.0
 40
1.0
 10
5.4384756405
 20
4.4566023852
 30
0.0
 10
5.4363114785
 20
4.4557574086
 30
0.0
 10
5.4318051549
 20
4.4544903745
 30
0.0
 10
5.4248210312
 20
4.453901337
 30
0.0
 10
5.4178474619
 20
4.4545772204
 30
0.0
 10
5.4133410091
 20
4.4558115341
 30
0.0
 10
5.4111559249
 20
4.4566026507
 30
0.0
  0
SPLINE
  5
324
100
AcDbEntity
  8
0
100
AcDbSpline
 62
7
  6
CONTINUOUS
 70
0
 71
3
 72
20
 73
16
 74
0
 42
0.0000001
 43
0.0000001
 44
0.0000000001
 40
0.0
 40
0.0
 40
0.0
 40
0.0
 40
0.2230256807
 40
0.4179615895
 40
0.5840835407
 40
0.7210590168
 40
0.7786035198
 40
0.8289075299
 40
0.8720884402
 40
0.9083622885
 40
0.9381329658
 40
0.9621666889
 40
0.9819139227
 40
0.9909781606
 40
1.0
 40
1.0
 40
1.0
 40
1.0
 10
5.1606142253
 20
4.0527933694
 30
0.0
 10
5.161387905
 20
4.0527024471
 30
0.0
 10
5.1628364499
 20
4.0525199462
 30
0.0
 10
5.1648545238
 20
4.0522189612
 30
0.0
 10
5.1665666527
 20
4.051909617
 30
0.0
 10
5.167796278
 20
4.0516325821
 30
0.0
 10
5.1686194712
 20
4.051400228
 30
0.0
 10
5.1691203531
 20
4.0512339283
 30
0.0
 10
5.1695413382
 20
4.0510650188
 30
0.0
 10
5.1698826462
 20
4.0508931079
 30
0.0
 10
5.1701447635
 20
4.0507169446
 30
0.0
 10
5.1703293489
 20
4.0505352605
 30
0.0
 10
5.1704190361
 20
4.050368731
 30
0.0
 10
5.1704415382
 20
4.0502374908
 30
0.0
 10
5.1704382997
 20
4.0501738191
 30
0.0
 10
5.1704334297
 20
4.0501426854
 30
0.0
  0
SPLINE
  5
325
100
AcDbEntity
  8
0
100
AcDbSpline
 62
7
  6
CONTINUOUS
 70
0
 71
3
 72
20
 73
16
 74
0
 42
0.0000001
 43
0.0000001
 44
0.0000000001
 40
0.0
 40
0.0
 40
0.0
 40
0.0
 40
0.0090218422
 40
0.0180860798
 40
0.0378333072
 40
0.0618670223
 40
0.0916376941
 40
0.1279115399
 40
0.17109245
 40
0.2213964614
 40
0.2789409665
 40
0.415916448
 40
0.5820384028
 40
0.7769743146
 40
1.0
 40
1.0
 40
1.0
 40
1.0
 10
5.3361082301
 20
4.3370998572
 30
0.0
 10
5.3360837025
 20
4.3370800728
 30
0.0
 10
5.3360301805
 20
4.3370454324
 30
0.0
 10
5.3359052721
 20
4.3369992997
 30
0.0
 10
5.3357162098
 20
4.3369937063
 30
0.0
 10
5.3354665741
 20
4.33706272
 30
0.0
 10
5.3351829537
 20
4.3372016387
 30
0.0
 10
5.3348634206
 20
4.3374112648
 30
0.0
 10
5.3345066482
 20
4.3376913939
 30
0.0
 10
5.3341121875
 20
4.3380420205
 30
0.0
 10
5.3334993663
 20
4.3386387495
 30
0.0
 10
5.3326446341
 20
4.3395651186
 30
0.0
 10
5.3315206696
 20
4.3408931935
 30
0.0
 10
5.3302509722
 20
4.3424904044
 30
0.0
 10
5.3293686493
 20
4.3436536307
 30
0.0
 10
5.3289030682
 20
4.3442781957
 30
0.0
  0
LINE
  5
326
100
AcDbEntity
  8
0
100
AcDbLine
 62
7
  6
CONTINUOUS
 10
5.3289030682
 20
4.3442781957
 11
5.3184209881
 21
4.3619566834
  0
LINE
  5
327
100
AcDbEntity
  8
0
100
AcDbLine
 62
7
  6
CONTINUOUS
 10
5.1400631658
 20
4.0530318733
 11
5.1606142253
 21
4.0527933694
  0
LINE
  5
328
100
AcDbEntity
  8
0
100
AcDbLine
 62
7
  6
CONTINUOUS
 10
5.3184210209
 20
4.3619567096
 11
5.3045492686
 21
4.3792778362
  0
SPLINE
  5
329
100
AcDbEntity
  8
0
100
AcDbSpline
 62
7
  6
CONTINUOUS
 70
0
 71
3
 72
11
 73
7
 74
0
 42
0.0000001
 43
0.0000001
 44
0.0000000001
 40
0.0
 40
0.0
 40
0.0
 40
0.0
 40
0.2500333029
 40
0.5000587151
 40
0.7500376879
 40
1.0
 40
1.0
 40
1.0
 40
1.0
 10
5.3182167213
 20
4.4029442079
 30
0.0
 10
5.3178093387
 20
4.4006552567
 30
0.0
 10
5.3166238445
 20
4.3961334683
 30
0.0
 10
5.3137200533
 20
4.3897540628
 30
0.0
 10
5.3097161163
 20
4.3839974315
 30
0.0
 10
5.3063623505
 20
4.3807289672
 30
0.0
 10
5.3045478089
 20
4.3792765114
 30
0.0
  0
SPLINE
  5
32A
100
AcDbEntity
  8
0
100
AcDbSpline
 62
7
  6
CONTINUOUS
 70
0
 71
3
 72
11
 73
7
 74
0
 42
0.0000001
 43
0.0000001
 44
0.0000000001
 40
0.0
 40
0.0
 40
0.0
 40
0.0
 40
0.2499648362
 40
0.4999450894
 40
0.7499685856
 40
1.0
 40
1.0
 40
1.0
 40
1.0
 10
5.1181249099
 20
4.0563747106
 30
0.0
 10
5.1177746001
 20
4.054078003
 30
0.0
 10
5.116618722
 20
4.0495418952
 30
0.0
 10
5.1136367815
 20
4.0431989479
 30
0.0
 10
5.1095646647
 20
4.0374976015
 30
0.0
 10
5.1062424912
 20
4.0342120557
 30
0.0
 10
5.1044648221
 20
4.0327152756
 30
0.0
  0
SPLINE
  5
32B
100
AcDbEntity
  8
0
100
AcDbSpline
 62
7
  6
CONTINUOUS
 70
0
 71
3
 72
20
 73
16
 74
0
 42
0.0000001
 43
0.0000001
 44
0.0000000001
 40
0.0
 40
0.0
 40
0.0
 40
0.0
 40
0.2230256807
 40
0.4179615895
 40
0.5840835407
 40
0.7210590168
 40
0.7786035198
 40
0.8289075299
 40
0.8720884402
 40
0.9083622885
 40
0.9381329658
 40
0.9621666889
 40
0.9819139227
 40
0.9909781606
 40
1.0
 40
1.0
 40
1.0
 40
1.0
 10
5.3289030682
 20
3.6138351584
 30
0.0
 10
5.3293686491
 20
3.6144597235
 30
0.0
 10
5.3302509719
 20
3.6156229498
 30
0.0
 10
5.3315206696
 20
3.6172201605
 30
0.0
 10
5.332644634
 20
3.6185482355
 30
0.0
 10
5.3334993659
 20
3.6194746048
 30
0.0
 10
5.334112187
 20
3.620071334
 30
0.0
 10
5.3345066477
 20
3.6204219605
 30
0.0
 10
5.3348634202
 20
3.6207020896
 30
0.0
 10
5.3351829534
 20
3.6209117156
 30
0.0
 10
5.3354665739
 20
3.6210506342
 30
0.0
 10
5.3357162097
 20
3.6211196478
 30
0.0
 10
5.3359052721
 20
3.6211140544
 30
0.0
 10
5.3360301805
 20
3.6210679217
 30
0.0
 10
5.3360837025
 20
3.6210332813
 30
0.0
 10
5.33610823
 20
3.6210134968
 30
0.0
  0
SPLINE
  5
32C
100
AcDbEntity
  8
0
100
AcDbSpline
 62
7
  6
CONTINUOUS
 70
0
 71
3
 72
20
 73
16
 74
0
 42
0.0000001
 43
0.0000001
 44
0.0000000001
 40
0.0
 40
0.0
 40
0.0
 40
0.0
 40
0.0090218422
 40
0.0180860798
 40
0.0378333072
 40
0.0618670223
 40
0.0916376941
 40
0.1279115399
 40
0.17109245
 40
0.2213964614
 40
0.2789409665
 40
0.415916448
 40
0.5820384028
 40
0.7769743146
 40
1.0
 40
1.0
 40
1.0
 40
1.0
 10
5.1704334297
 20
3.9079706686
 30
0.0
 10
5.1704382997
 20
3.9079395349
 30
0.0
 10
5.1704415382
 20
3.9078758633
 30
0.0
 10
5.1704190361
 20
3.9077446231
 30
0.0
 10
5.1703293489
 20
3.9075780937
 30
0.0
 10
5.1701447635
 20
3.9073964096
 30
0.0
 10
5.1698826461
 20
3.9072202465
 30
0.0
 10
5.1695413381
 20
3.9070483358
 30
0.0
 10
5.169120353
 20
3.9068794263
 30
0.0
 10
5.1686194711
 20
3.9067131266
 30
0.0
 10
5.1677962779
 20
3.9064807725
 30
0.0
 10
5.1665666527
 20
3.9062037373
 30
0.0
 10
5.1648545238
 20
3.9058943928
 30
0.0
 10
5.1628364499
 20
3.9055934081
 30
0.0
 10
5.161387905
 20
3.9054109072
 30
0.0
 10
5.1606142253
 20
3.9053199846
 30
0.0
  0
LINE
  5
32D
100
AcDbEntity
  8
0
100
AcDbLine
 62
7
  6
CONTINUOUS
 10
5.1606142253
 20
3.9053199846
 11
5.1400631658
 21
3.9050814808
  0
LINE
  5
32E
100
AcDbEntity
  8
0
100
AcDbLine
 62
7
  6
CONTINUOUS
 10
5.318420988
 20
3.5961566707
 11
5.3289030682
 21
3.6138351584
  0
LINE
  5
32F
100
AcDbEntity
  8
0
100
AcDbLine
 62
7
  6
CONTINUOUS
 10
5.1400631594
 20
3.9050815224
 11
5.1181267476
 21
3.9017287958
  0
SPLINE
  5
330
100
AcDbEntity
  8
0
100
AcDbSpline
 62
7
  6
CONTINUOUS
 70
0
 71
3
 72
11
 73
7
 74
0
 42
0.0000001
 43
0.0000001
 44
0.0000000001
 40
0.0
 40
0.0
 40
0.0
 40
0.0
 40
0.2500333029
 40
0.5000587151
 40
0.7500376879
 40
1.0
 40
1.0
 40
1.0
 40
1.0
 10
5.1044647949
 20
3.9253983428
 30
0.0
 10
5.1062433935
 20
3.9239010636
 30
0.0
 10
5.1095666301
 20
3.9206135013
 30
0.0
 10
5.1136394616
 20
3.9149090416
 30
0.0
 10
5.1166228821
 20
3.9085632148
 30
0.0
 10
5.1177765723
 20
3.9040245362
 30
0.0
 10
5.1181271651
 20
3.9017268692
 30
0.0
  0
SPLINE
  5
331
100
AcDbEntity
  8
0
100
AcDbSpline
 62
7
  6
CONTINUOUS
 70
0
 71
3
 72
11
 73
7
 74
0
 42
0.0000001
 43
0.0000001
 44
0.0000000001
 40
0.0
 40
0.0
 40
0.0
 40
0.0
 40
0.2499648362
 40
0.4999450894
 40
0.7499685856
 40
1.0
 40
1.0
 40
1.0
 40
1.0
 10
5.3045568781
 20
3.5788290024
 30
0.0
 10
5.3063707302
 20
3.5773772714
 30
0.0
 10
5.3097211758
 20
3.5741081978
 30
0.0
 10
5.313723359
 20
3.5683542879
 30
0.0
 10
5.3166248115
 20
3.5619770581
 30
0.0
 10
5.3178090909
 20
3.5574571986
 30
0.0
 10
5.3182165059
 20
3.5551693019
 30
0.0
  0
SPLINE
  5
332
100
AcDbEntity
  8
0
100
AcDbSpline
 62
7
  6
CONTINUOUS
 70
0
 71
3
 72
20
 73
16
 74
0
 42
0.0000001
 43
0.0000001
 44
0.0000000001
 40
0.0
 40
0.0
 40
0.0
 40
0.0
 40
0.2230256807
 40
0.4179615895
 40
0.5840835407
 40
0.7210590168
 40
0.7786035198
 40
0.8289075299
 40
0.8720884402
 40
0.9083622885
 40
0.9381329658
 40
0.9621666889
 40
0.9819139227
 40
0.9909781606
 40
1.0
 40
1.0
 40
1.0
 40
1.0
 10
5.7931964516
 20
3.540098466
 30
0.0
 10
5.7928883528
 20
3.5408139535
 30
0.0
 10
5.7923221307
 20
3.5421596806
 30
0.0
 10
5.7915737545
 20
3.5440578764
 30
0.0
 10
5.79098559
 20
3.5456952956
 30
0.0
 10
5.7906106966
 20
3.5468986998
 30
0.0
 10
5.7904003245
 20
3.547727783
 30
0.0
 10
5.7902939033
 20
3.5482447093
 30
0.0
 10
5.7902296907
 20
3.5486937478
 30
0.0
 10
5.7902079159
 20
3.5490752847
 30
0.0
 10
5.7902294191
 20
3.5493903666
 30
0.0
 10
5.7902944695
 20
3.5496410643
 30
0.0
 10
5.7903938447
 20
3.5498020004
 30
0.0
 10
5.790496251
 20
3.5498871079
 30
0.0
 10
5.7905530115
 20
3.5499161392
 30
0.0
 10
5.7905824091
 20
3.5499274884
 30
0.0
  0
SPLINE
  5
333
100
AcDbEntity
  8
0
100
AcDbSpline
 62
7
  6
CONTINUOUS
 70
0
 71
3
 72
20
 73
16
 74
0
 42
0.0000001
 43
0.0000001
 44
0.0000000001
 40
0.0
 40
0.0
 40
0.0
 40
0.0
 40
0.0090218422
 40
0.0180860798
 40
0.0378333072
 40
0.0618670223
 40
0.0916376941
 40
0.1279115399
 40
0.17109245
 40
0.2213964614
 40
0.2789409665
 40
0.415916448
 40
0.5820384028
 40
0.7769743146
 40
1.0
 40
1.0
 40
1.0
 40
1.0
 10
5.4592328083
 20
3.5499274884
 30
0.0
 10
5.4592622059
 20
3.5499161392
 30
0.0
 10
5.4593189664
 20
3.5498871079
 30
0.0
 10
5.4594213727
 20
3.5498020005
 30
0.0
 10
5.4595207478
 20
3.5496410644
 30
0.0
 10
5.4595857981
 20
3.5493903667
 30
0.0
 10
5.4596073011
 20
3.5490752849
 30
0.0
 10
5.4595855262
 20
3.548693748
 30
0.0
 10
5.4595213135
 20
3.5482447095
 30
0.0
 10
5.4594148923
 20
3.5477277832
 30
0.0
 10
5.4592045204
 20
3.5468986999
 30
0.0
 10
5.4588296273
 20
3.5456952956
 30
0.0
 10
5.4582414629
 20
3.5440578763
 30
0.0
 10
5.4574930864
 20
3.5421596807
 30
0.0
 10
5.4569268644
 20
3.5408139535
 30
0.0
 10
5.4566187658
 20
3.540098466
 30
0.0
  0
LINE
  5
334
100
AcDbEntity
  8
0
100
AcDbLine
 62
7
  6
CONTINUOUS
 10
5.4566187658
 20
3.540098466
 11
5.4465497864
 21
3.5221814745
  0
LINE
  5
335
100
AcDbEntity
  8
0
100
AcDbLine
 62
7
  6
CONTINUOUS
 10
5.803265431
 20
3.5221814744
 11
5.7931964516
 21
3.540098466
  0
LINE
  5
336
100
AcDbEntity
  8
0
100
AcDbLine
 62
7
  6
CONTINUOUS
 10
5.4465497472
 20
3.5221814897
 11
5.4384850877
 21
3.5015076365
  0
SPLINE
  5
337
100
AcDbEntity
  8
0
100
AcDbSpline
 62
7
  6
CONTINUOUS
 70
0
 71
3
 72
11
 73
7
 74
0
 42
0.0000001
 43
0.0000001
 44
0.0000000001
 40
0.0
 40
0.0
 40
0.0
 40
0.0
 40
0.2500333029
 40
0.5000587151
 40
0.7500376879
 40
1.0
 40
1.0
 40
1.0
 40
1.0
 10
5.4111556823
 20
3.501510812
 30
0.0
 10
5.4133416634
 20
3.5023024839
 30
0.0
 10
5.4178503942
 20
3.5035367101
 30
0.0
 10
5.424827017
 20
3.5042116558
 30
0.0
 10
5.4318143745
 20
3.5036224603
 30
0.0
 10
5.4363218305
 20
3.502352246
 30
0.0
 10
5.4384869649
 20
3.5015070348
 30
0.0
  0
SPLINE
  5
338
100
AcDbEntity
  8
0
100
AcDbSpline
 62
7
  6
CONTINUOUS
 70
0
 71
3
 72
11
 73
7
 74
0
 42
0.0000001
 43
0.0000001
 44
0.0000000001
 40
0.0
 40
0.0
 40
0.0
 40
0.0
 40
0.2499648362
 40
0.4999450894
 40
0.7499685856
 40
1.0
 40
1.0
 40
1.0
 40
1.0
 10
5.8113395769
 20
3.5015109689
 30
0.0
 10
5.8135037389
 20
3.5023559454
 30
0.0
 10
5.8180100625
 20
3.5036229796
 30
0.0
 10
5.8249941862
 20
3.504212017
 30
0.0
 10
5.8319677555
 20
3.5035361336
 30
0.0
 10
5.8364742083
 20
3.5023018199
 30
0.0
 10
5.8386592925
 20
3.5015107034
 30
0.0
  0
SPLINE
  5
339
100
AcDbEntity
  8
0
100
AcDbSpline
 62
7
  6
CONTINUOUS
 70
0
 71
3
 72
20
 73
16
 74
0
 42
0.0000001
 43
0.0000001
 44
0.0000000001
 40
0.0
 40
0.0
 40
0.0
 40
0.0
 40
0.2230256807
 40
0.4179615895
 40
0.5840835407
 40
0.7210590168
 40
0.7786035198
 40
0.8289075299
 40
0.8720884402
 40
0.9083622885
 40
0.9381329658
 40
0.9621666889
 40
0.9819139227
 40
0.9909781606
 40
1.0
 40
1.0
 40
1.0
 40
1.0
 10
6.0892009921
 20
3.9053199846
 30
0.0
 10
6.0884273124
 20
3.905410907
 30
0.0
 10
6.0869787675
 20
3.9055934078
 30
0.0
 10
6.0849606936
 20
3.9058943929
 30
0.0
 10
6.0832485647
 20
3.9062037371
 30
0.0
 10
6.0820189394
 20
3.906480772
 30
0.0
 10
6.0811957462
 20
3.9067131261
 30
0.0
 10
6.0806948643
 20
3.9068794258
 30
0.0
 10
6.0802738792
 20
3.9070483352
 30
0.0
 10
6.0799325712
 20
3.9072202461
 30
0.0
 10
6.0796704538
 20
3.9073964094
 30
0.0
 10
6.0794858685
 20
3.9075780936
 30
0.0
 10
6.0793961813
 20
3.9077446231
 30
0.0
 10
6.0793736792
 20
3.9078758633
 30
0.0
 10
6.0793769176
 20
3.9079395349
 30
0.0
 10
6.0793817877
 20
3.9079706686
 30
0.0
  0
SPLINE
  5
33A
100
AcDbEntity
  8
0
100
AcDbSpline
 62
7
  6
CONTINUOUS
 70
0
 71
3
 72
20
 73
16
 74
0
 42
0.0000001
 43
0.0000001
 44
0.0000000001
 40
0.0
 40
0.0
 40
0.0
 40
0.0
 40
0.0090218422
 40
0.0180860798
 40
0.0378333072
 40
0.0618670223
 40
0.0916376941
 40
0.1279115399
 40
0.17109245
 40
0.2213964614
 40
0.2789409665
 40
0.415916448
 40
0.5820384028
 40
0.7769743146
 40
1.0
 40
1.0
 40
1.0
 40
1.0
 10
5.9137069873
 20
3.6210134968
 30
0.0
 10
5.9137315149
 20
3.6210332813
 30
0.0
 10
5.9137850369
 20
3.6210679217
 30
0.0
 10
5.9139099453
 20
3.6211140544
 30
0.0
 10
5.9140990076
 20
3.6211196477
 30
0.0
 10
5.9143486433
 20
3.6210506341
 30
0.0
 10
5.9146322637
 20
3.6209117153
 30
0.0
 10
5.9149517968
 20
3.6207020893
 30
0.0
 10
5.9153085692
 20
3.6204219602
 30
0.0
 10
5.9157030299
 20
3.6200713336
 30
0.0
 10
5.9163158511
 20
3.6194746045
 30
0.0
 10
5.9171705833
 20
3.6185482354
 30
0.0
 10
5.9182945478
 20
3.6172201605
 30
0.0
 10
5.9195642452
 20
3.6156229496
 30
0.0
 10
5.9204465681
 20
3.6144597234
 30
0.0
 10
5.9209121492
 20
3.6138351584
 30
0.0
  0
LINE
  5
33B
100
AcDbEntity
  8
0
100
AcDbLine
 62
7
  6
CONTINUOUS
 10
5.9209121492
 20
3.6138351584
 11
5.9313942293
 21
3.5961566706
  0
LINE
  5
33C
100
AcDbEntity
  8
0
100
AcDbLine
 62
7
  6
CONTINUOUS
 10
6.1097520516
 20
3.9050814808
 11
6.0892009921
 21
3.9053199846
  0
LINE
  5
33D
100
AcDbEntity
  8
0
100
AcDbLine
 62
7
  6
CONTINUOUS
 10
5.9313941965
 20
3.5961566444
 11
5.9452659488
 21
3.5788355178
  0
SPLINE
  5
33E
100
AcDbEntity
  8
0
100
AcDbSpline
 62
7
  6
CONTINUOUS
 70
0
 71
3
 72
11
 73
7
 74
0
 42
0.0000001
 43
0.0000001
 44
0.0000000001
 40
0.0
 40
0.0
 40
0.0
 40
0.0
 40
0.2500333029
 40
0.5000587151
 40
0.7500376879
 40
1.0
 40
1.0
 40
1.0
 40
1.0
 10
5.9315984961
 20
3.5551691461
 30
0.0
 10
5.9320058787
 20
3.5574580973
 30
0.0
 10
5.9331913728
 20
3.5619798858
 30
0.0
 10
5.9360951641
 20
3.5683592912
 30
0.0
 10
5.9400991011
 20
3.5741159226
 30
0.0
 10
5.9434528669
 20
3.5773843868
 30
0.0
 10
5.9452674085
 20
3.5788368426
 30
0.0
  0
SPLINE
  5
33F
100
AcDbEntity
  8
0
100
AcDbSpline
 62
7
  6
CONTINUOUS
 70
0
 71
3
 72
11
 73
7
 74
0
 42
0.0000001
 43
0.0000001
 44
0.0000000001
 40
0.0
 40
0.0
 40
0.0
 40
0.0
 40
0.2499648362
 40
0.4999450894
 40
0.7499685856
 40
1.0
 40
1.0
 40
1.0
 40
1.0
 10
6.1316903075
 20
3.9017386435
 30
0.0
 10
6.1320406173
 20
3.904035351
 30
0.0
 10
6.1331964954
 20
3.9085714588
 30
0.0
 10
6.1361784359
 20
3.9149144061
 30
0.0
 10
6.1402505527
 20
3.9206157526
 30
0.0
 10
6.1435727261
 20
3.9239012984
 30
0.0
 10
6.1453503952
 20
3.9253980785
 30
0.0
  0
LINE
  5
340
100
AcDbEntity
  8
0
100
AcDbLine
 62
7
  6
CONTINUOUS
 10
6.1415498504
 20
4.006123603
 11
6.1165068174
 21
4.0061134144
  0
SPLINE
  5
341
100
AcDbEntity
  8
0
100
AcDbSpline
 62
7
  6
CONTINUOUS
 70
0
 71
3
 72
15
 73
11
 74
0
 42
0.0000001
 43
0.0000001
 44
0.0000000001
 40
0.0
 40
0.0
 40
0.0
 40
0.0
 40
0.1197220972
 40
0.2410922324
 40
0.3640928162
 40
0.4887170134
 40
0.6148361948
 40
0.7422518709
 40
0.8707574038
 40
1.0
 40
1.0
 40
1.0
 40
1.0
 10
6.1165068174
 20
4.0061134144
 30
0.0
 10
6.1146674154
 20
4.0073619194
 30
0.0
 10
6.1111087444
 20
4.0100976183
 30
0.0
 10
6.1062435769
 20
4.0148116483
 30
0.0
 10
6.1018736347
 20
4.0201071288
 30
0.0
 10
6.0980529235
 20
4.0259164747
 30
0.0
 10
6.0948282904
 20
4.0321685587
 30
0.0
 10
6.0922381819
 20
4.0387862733
 30
0.0
 10
6.0903153563
 20
4.0456869062
 30
0.0
 10
6.0894945742
 20
4.050411512
 30
0.0
 10
6.0892009921
 20
4.0527933694
 30
0.0
  0
SPLINE
  5
342
100
AcDbEntity
  8
0
100
AcDbSpline
 62
7
  6
CONTINUOUS
 70
0
 71
3
 72
15
 73
11
 74
0
 42
0.0000001
 43
0.0000001
 44
0.0000000001
 40
0.0
 40
0.0
 40
0.0
 40
0.0
 40
0.1243342854
 40
0.2488920105
 40
0.3736188091
 40
0.4985571434
 40
0.6236892706
 40
0.7489859157
 40
0.8744534872
 40
1.0
 40
1.0
 40
1.0
 40
1.0
 10
6.1415498504
 20
4.006123603
 30
0.0
 10
6.1394542036
 20
4.0073519138
 30
0.0
 10
6.135388022
 20
4.0100387703
 30
0.0
 10
6.1297596184
 20
4.014708244
 30
0.0
 10
6.1246695273
 20
4.0199774875
 30
0.0
 10
6.1201902215
 20
4.0257893653
 30
0.0
 10
6.1163899014
 20
4.032079758
 30
0.0
 10
6.1133269403
 20
4.0387723456
 30
0.0
 10
6.1110542276
 20
4.0457807074
 30
0.0
 10
6.1100913475
 20
4.0506026791
 30
0.0
 10
6.1097520872
 20
4.0530318769
 30
0.0
  0
LINE
  5
343
100
AcDbEntity
  8
0
100
AcDbLine
 62
7
  6
CONTINUOUS
 10
6.1165068174
 20
4.0061134144
 11
6.1102829386
 21
4.0062335293
  0
SPLINE
  5
344
100
AcDbEntity
  8
0
100
AcDbSpline
 62
7
  6
CONTINUOUS
 70
0
 71
3
 72
15
 73
11
 74
0
 42
0.0000001
 43
0.0000001
 44
0.0000000001
 40
0.0
 40
0.0
 40
0.0
 40
0.0
 40
0.1267081018
 40
0.252861187
 40
0.3784149504
 40
0.5034498226
 40
0.6280250236
 40
0.7522234249
 40
0.8761928433
 40
1.0
 40
1.0
 40
1.0
 40
1.0
 10
6.1102829386
 20
4.0062335293
 30
0.0
 10
6.1082377605
 20
4.0073825967
 30
0.0
 10
6.1042781869
 20
4.0099009733
 30
0.0
 10
6.0988059675
 20
4.0142976438
 30
0.0
 10
6.0938780941
 20
4.0192547196
 30
0.0
 10
6.0895554392
 20
4.024710308
 30
0.0
 10
6.0858911276
 20
4.030598869
 30
0.0
 10
6.0829291819
 20
4.0368487517
 30
0.0
 10
6.0807072744
 20
4.0433824666
 30
0.0
 10
6.0797360066
 20
4.0478780578
 30
0.0
 10
6.0793817877
 20
4.0501426854
 30
0.0
  0
SPLINE
  5
345
100
AcDbEntity
  8
0
100
AcDbSpline
 62
7
  6
CONTINUOUS
 70
0
 71
3
 72
45
 73
41
 74
0
 42
0.0000001
 43
0.0000001
 44
0.0000000001
 40
0.0
 40
0.0
 40
0.0
 40
0.0
 40
0.0421516044
 40
0.0842378544
 40
0.1262606399
 40
0.1682195673
 40
0.1891775516
 40
0.2101203858
 40
0.2310507061
 40
0.2519705424
 40
0.2728805383
 40
0.2937887384
 40
0.3146987698
 40
0.3356295835
 40
0.3566052473
 40
0.3671309878
 40
0.3777023991
 40
0.3830174301
 40
0.3883719685
 40
0.3938187415
 40
0.399470071
 40
0.4055317794
 40
0.4122288135
 40
0.4196132403
 40
0.4275928863
 40
0.4360588899
 40
0.4449272183
 40
0.4636435982
 40
0.4834370542
 40
0.5041284805
 40
0.5255926977
 40
0.5477261347
 40
0.5936780083
 40
0.6414866251
 40
0.6907450448
 40
0.7410834792
 40
0.7921975329
 40
0.8438485033
 40
0.8958200328
 40
1.0
 40
1.0
 40
1.0
 40
1.0
 10
6.1102829343
 20
4.0062335317
 30
0.0
 10
6.1096012081
 20
4.0062468864
 30
0.0
 10
6.1082386663
 20
4.0062667262
 30
0.0
 10
6.1061962056
 20
4.0062739863
 30
0.0
 10
6.1041569121
 20
4.006256676
 30
0.0
 10
6.1024597263
 20
4.0062190175
 30
0.0
 10
6.1011039521
 20
4.006173034
 30
0.0
 10
6.1000884843
 20
4.0061297457
 30
0.0
 10
6.0990740886
 20
4.0060768449
 30
0.0
 10
6.0980608171
 20
4.0060135061
 30
0.0
 10
6.097048749
 20
4.0059378105
 30
0.0
 10
6.0960378977
 20
4.0058489677
 30
0.0
 10
6.095028281
 20
4.0057436798
 30
0.0
 10
6.0940194976
 20
4.0056210878
 30
0.0
 10
6.0931798359
 20
4.0055009502
 30
0.0
 10
6.092506953
 20
4.0053989835
 30
0.0
 10
6.0920842061
 20
4.0053368274
 30
0.0
 10
6.0917429845
 20
4.0052962292
 30
0.0
 10
6.0914829692
 20
4.0052754245
 30
0.0
 10
6.0912163181
 20
4.0052769189
 30
0.0
 10
6.0909403106
 20
4.0053167234
 30
0.0
 10
6.0906569856
 20
4.0054147224
 30
0.0
 10
6.0903736984
 20
4.0055789596
 30
0.0
 10
6.0900930343
 20
4.0058006476
 30
0.0
 10
6.089814865
 20
4.0060681238
 30
0.0
 10
6.0895403468
 20
4.0063723106
 30
0.0
 10
6.0891735376
 20
4.0068259414
 30
0.0
 10
6.0887312895
 20
4.0074528425
 30
0.0
 10
6.0882284347
 20
4.0082683466
 30
0.0
 10
6.08774528
 20
4.0091466906
 30
0.0
 10
6.0872820096
 20
4.0100780413
 30
0.0
 10
6.0866829147
 20
4.0113971935
 30
0.0
 10
6.0859874942
 20
4.013139338
 30
0.0
 10
6.0852370056
 20
4.0153285217
 30
0.0
 10
6.0845581714
 20
4.0176149433
 30
0.0
 10
6.0839466881
 20
4.0199754005
 30
0.0
 10
6.0833998796
 20
4.022391291
 30
0.0
 10
6.0829156371
 20
4.0248473826
 30
0.0
 10
6.0823484189
 20
4.028160899
 30
0.0
 10
6.0820061773
 20
4.0306645618
 30
0.0
 10
6.0818108661
 20
4.0323384523
 30
0.0
  0
LINE
  5
346
100
AcDbEntity
  8
0
100
AcDbLine
 62
7
  6
CONTINUOUS
 10
5.8941390342
 20
4.3912657103
 11
5.906669354
 21
4.412948504
  0
SPLINE
  5
347
100
AcDbEntity
  8
0
100
AcDbSpline
 62
7
  6
CONTINUOUS
 70
0
 71
3
 72
16
 73
12
 74
0
 42
0.0000001
 43
0.0000001
 44
0.0000000001
 40
0.0
 40
0.0
 40
0.0
 40
0.0
 40
0.1255403066
 40
0.251003144
 40
0.376293939
 40
0.5014203462
 40
0.5639357257
 40
0.6264000498
 40
0.7511204737
 40
0.8756726627
 40
1.0
 40
1.0
 40
1.0
 40
1.0
 10
5.9313942669
 20
4.3619567341
 30
0.0
 10
5.9294598372
 20
4.3634647386
 30
0.0
 10
5.9257654444
 20
4.366709825
 30
0.0
 10
5.9208324726
 20
4.372182443
 30
0.0
 10
5.9165681937
 20
4.3781811157
 30
0.0
 10
5.9136103681
 20
4.3835482958
 30
0.0
 10
5.9116222566
 20
4.3880145134
 30
0.0
 10
5.909890198
 20
4.3925776109
 30
0.0
 10
5.9082086731
 20
4.3984458543
 30
0.0
 10
5.9069792489
 20
4.405654571
 30
0.0
 10
5.9066852515
 20
4.4105194816
 30
0.0
 10
5.906669354
 20
4.412948504
 30
0.0
  0
LINE
  5
348
100
AcDbEntity
  8
0
100
AcDbLine
 62
7
  6
CONTINUOUS
 10
5.8911311231
 20
4.3858156262
 11
5.8941390342
 21
4.3912657103
  0
SPLINE
  5
349
100
AcDbEntity
  8
0
100
AcDbSpline
 62
7
  6
CONTINUOUS
 70
0
 71
3
 72
15
 73
11
 74
0
 42
0.0000001
 43
0.0000001
 44
0.0000000001
 40
0.0
 40
0.0
 40
0.0
 40
0.0
 40
0.1197221261
 40
0.2410922788
 40
0.3640928669
 40
0.4887170599
 40
0.6148362319
 40
0.7422518957
 40
0.8707574155
 40
1.0
 40
1.0
 40
1.0
 40
1.0
 10
5.8941390342
 20
4.3912657103
 30
0.0
 10
5.8943005699
 20
4.3890484883
 30
0.0
 10
5.8948904183
 20
4.3845987382
 30
0.0
 10
5.8965403033
 20
4.3780283631
 30
0.0
 10
5.8989413526
 20
4.3715961412
 30
0.0
 10
5.9020620382
 20
4.3653826353
 30
0.0
 10
5.9058641855
 20
4.3594639795
 30
0.0
 10
5.9103002409
 20
4.3539120235
 30
0.0
 10
5.9153149524
 20
4.3487964928
 30
0.0
 10
5.9189961908
 20
4.3457233732
 30
0.0
 10
5.9209121492
 20
4.3442781957
 30
0.0
  0
SPLINE
  5
34A
100
AcDbEntity
  8
0
100
AcDbSpline
 62
7
  6
CONTINUOUS
 70
0
 71
3
 72
45
 73
41
 74
0
 42
0.0000001
 43
0.0000001
 44
0.0000000001
 40
0.0
 40
0.0
 40
0.0
 40
0.0
 40
0.1041804531
 40
0.1561522658
 40
0.2078040571
 40
0.2589178156
 40
0.3092570626
 40
0.3585151421
 40
0.4063240633
 40
0.4522759771
 40
0.4744086829
 40
0.4958734231
 40
0.5165647768
 40
0.5363582812
 40
0.5550740355
 40
0.5639438357
 40
0.572409893
 40
0.5803878685
 40
0.5877753616
 40
0.594469066
 40
0.6005332932
 40
0.6061824127
 40
0.6116287205
 40
0.616985322
 40
0.6222999249
 40
0.6328707151
 40
0.6433963407
 40
0.6643720273
 40
0.6853029875
 40
0.7062127051
 40
0.7271208794
 40
0.7480306655
 40
0.7689504354
 40
0.7898806812
 40
0.8108233813
 40
0.8317813006
 40
0.8737399973
 40
0.9157625438
 40
0.9578485957
 40
1.0
 40
1.0
 40
1.0
 40
1.0
 10
5.8995025965
 20
4.3481056236
 30
0.0
 10
5.8981506067
 20
4.349111707
 30
0.0
 10
5.8961534923
 20
4.350659949
 30
0.0
 10
5.8935675076
 20
4.3528079645
 30
0.0
 10
5.8916825581
 20
4.354455358
 30
0.0
 10
5.8898637495
 20
4.356136894
 30
0.0
 10
5.8881252424
 20
4.3578466524
 30
0.0
 10
5.8864845894
 20
4.3595777954
 30
0.0
 10
5.8849639361
 20
4.3613223185
 30
0.0
 10
5.883802893
 20
4.3627956272
 30
0.0
 10
5.8829600752
 20
4.3639740687
 30
0.0
 10
5.8823851099
 20
4.3648409242
 30
0.0
 10
5.8818660379
 20
4.3656985402
 30
0.0
 10
5.8814111983
 20
4.3665417565
 30
0.0
 10
5.8810894794
 20
4.3672382513
 30
0.0
 10
5.8808799463
 20
4.3677827133
 30
0.0
 10
5.8807537506
 20
4.3681725449
 30
0.0
 10
5.8806613221
 20
4.3685472265
 30
0.0
 10
5.8806094667
 20
4.3689010933
 30
0.0
 10
5.8806092019
 20
4.3692285596
 30
0.0
 10
5.8806656371
 20
4.3695229532
 30
0.0
 10
5.8807696046
 20
4.3697817418
 30
0.0
 10
5.8809017463
 20
4.3700132958
 30
0.0
 10
5.8810491334
 20
4.3702285388
 30
0.0
 10
5.8812553176
 20
4.3705034698
 30
0.0
 10
5.8815204682
 20
4.3708385045
 30
0.0
 10
5.8819452306
 20
4.371370233
 30
0.0
 10
5.8824690758
 20
4.3720373531
 30
0.0
 10
5.8830795881
 20
4.3728497214
 30
0.0
 10
5.8836756242
 20
4.3736713934
 30
0.0
 10
5.8842579594
 20
4.3745024053
 30
0.0
 10
5.8848295581
 20
4.3753410206
 30
0.0
 10
5.8853910361
 20
4.3761868701
 30
0.0
 10
5.8859440465
 20
4.3770389069
 30
0.0
 10
5.8864892655
 20
4.3778966804
 30
0.0
 10
5.88720697
 20
4.3790478183
 30
0.0
 10
5.8880881726
 20
4.3804987863
 30
0.0
 10
5.8891228059
 20
4.3822562005
 30
0.0
 10
5.890137741
 20
4.3840286452
 30
0.0
 10
5.8908018269
 20
4.3852185547
 30
0.0
 10
5.8911311231
 20
4.3858156212
 30
0.0
  0
SPLINE
  5
34B
100
AcDbEntity
  8
0
100
AcDbSpline
 62
7
  6
CONTINUOUS
 70
0
 71
3
 72
11
 73
7
 74
0
 42
0.0000001
 43
0.0000001
 44
0.0000000001
 40
0.0
 40
0.0
 40
0.0
 40
0.0
 40
0.252241878
 40
0.502887893
 40
0.7520594172
 40
1.0
 40
1.0
 40
1.0
 40
1.0
 10
5.8911311231
 20
4.3858156212
 30
0.0
 10
5.8910935682
 20
4.3826082002
 30
0.0
 10
5.891497143
 20
4.3761973868
 30
0.0
 10
5.8935421355
 20
4.3668181602
 30
0.0
 10
5.8969774574
 20
4.3579123817
 30
0.0
 10
5.9001535343
 20
4.3524116061
 30
0.0
 10
5.901939146
 20
4.3498130214
 30
0.0
  0
SPLINE
  5
34C
100
AcDbEntity
  8
0
100
AcDbSpline
 62
7
  6
CONTINUOUS
 70
0
 71
3
 72
12
 73
8
 74
0
 42
0.0000001
 43
0.0000001
 44
0.0000000001
 40
0.0
 40
0.0
 40
0.0
 40
0.0
 40
0.2574491536
 40
0.5112374149
 40
0.6361457287
 40
0.759402273
 40
1.0
 40
1.0
 40
1.0
 40
1.0
 10
5.8901745452
 20
4.3975297044
 30
0.0
 10
5.8907339692
 20
4.3971817446
 30
0.0
 10
5.8917725505
 20
4.3963661733
 30
0.0
 10
5.8928074101
 20
4.3950905235
 30
0.0
 10
5.8934315808
 20
4.39396456
 30
0.0
 10
5.8939045783
 20
4.3928045769
 30
0.0
 10
5.8940953346
 20
4.3918798447
 30
0.0
 10
5.8941390338
 20
4.3912657096
 30
0.0
  0
SPLINE
  5
34D
100
AcDbEntity
  8
0
100
AcDbSpline
 62
7
  6
CONTINUOUS
 70
0
 71
3
 72
12
 73
8
 74
0
 42
0.0000001
 43
0.0000001
 44
0.0000000001
 40
0.0
 40
0.0
 40
0.0
 40
0.0
 40
0.2582010446
 40
0.5118986991
 40
0.6365988288
 40
0.7596292507
 40
1.0
 40
1.0
 40
1.0
 40
1.0
 10
5.8871394779
 20
4.3915773804
 30
0.0
 10
5.8876759492
 20
4.3912604102
 30
0.0
 10
5.8886772621
 20
4.3905189942
 30
0.0
 10
5.889697619
 20
4.3893533083
 30
0.0
 10
5.8903313826
 20
4.3883194687
 30
0.0
 10
5.8908287057
 20
4.3872497621
 30
0.0
 10
5.8910554171
 20
4.3863907485
 30
0.0
 10
5.8911311225
 20
4.385815625
 30
0.0
  0
SPLINE
  5
34E
100
AcDbEntity
  8
0
100
AcDbSpline
 62
7
  6
CONTINUOUS
 70
0
 71
3
 72
12
 73
8
 74
0
 42
0.0000001
 43
0.0000001
 44
0.0000000001
 40
0.0
 40
0.0
 40
0.0
 40
0.0
 40
0.2582010112
 40
0.5118986014
 40
0.6365987064
 40
0.7596291279
 40
1.0
 40
1.0
 40
1.0
 40
1.0
 10
6.1132769409
 20
3.9998957869
 30
0.0
 10
6.1132706728
 20
4.00051887
 30
0.0
 10
6.113129245
 20
4.0017567407
 30
0.0
 10
6.1126299106
 20
4.0032232391
 30
0.0
 10
6.112051461
 20
4.0042890146
 30
0.0
 10
6.1113737289
 20
4.0052545627
 30
0.0
 10
6.1107431561
 20
4.0058804072
 30
0.0
 10
6.1102829365
 20
4.0062335316
 30
0.0
  0
SPLINE
  5
34F
100
AcDbEntity
  8
0
100
AcDbSpline
 62
7
  6
CONTINUOUS
 70
0
 71
3
 72
12
 73
8
 74
0
 42
0.0000001
 43
0.0000001
 44
0.0000000001
 40
0.0
 40
0.0
 40
0.0
 40
0.0
 40
0.257449155
 40
0.5112374003
 40
0.6361457059
 40
0.7594022474
 40
1.0
 40
1.0
 40
1.0
 40
1.0
 10
6.1199493507
 20
3.9995480691
 30
0.0
 10
6.119927721
 20
4.0002065244
 30
0.0
 10
6.1197407067
 20
4.0015137478
 30
0.0
 10
6.119153392
 20
4.0030477874
 30
0.0
 10
6.1184903647
 20
4.0041513169
 30
0.0
 10
6.1177222889
 20
4.0051409363
 30
0.0
 10
6.1170168254
 20
4.0057685023
 30
0.0
 10
6.1165068183
 20
4.0061134144
 30
0.0
  0
SPLINE
  5
350
100
AcDbEntity
  8
0
100
AcDbSpline
 62
7
  6
CONTINUOUS
 70
0
 71
3
 72
12
 73
8
 74
0
 42
0.0000001
 43
0.0000001
 44
0.0000000001
 40
0.0
 40
0.0
 40
0.0
 40
0.0
 40
0.2573968745
 40
0.5111698397
 40
0.6360842576
 40
0.7593551351
 40
1.0
 40
1.0
 40
1.0
 40
1.0
 10
6.1449669099
 20
3.9995618629
 30
0.0
 10
6.1449463623
 20
4.000218743
 30
0.0
 10
6.144762192
 20
4.001523143
 30
0.0
 10
6.1441800342
 20
4.0030549491
 30
0.0
 10
6.143521799
 20
4.0041579807
 30
0.0
 10
6.1427586861
 20
4.005148094
 30
0.0
 10
6.1420572601
 20
4.0057771105
 30
0.0
 10
6.1415498364
 20
4.0061235847
 30
0.0
  0
LINE
  5
351
100
AcDbEntity
  8
0
100
AcDbLine
 62
7
  6
CONTINUOUS
 10
5.859788084
 20
4.440015446
 11
5.8472753911
 21
4.4183224489
  0
SPLINE
  5
352
100
AcDbEntity
  8
0
100
AcDbSpline
 62
7
  6
CONTINUOUS
 70
0
 71
3
 72
15
 73
11
 74
0
 42
0.0000001
 43
0.0000001
 44
0.0000000001
 40
0.0
 40
0.0
 40
0.0
 40
0.0
 40
0.1197220972
 40
0.2410922324
 40
0.3640928162
 40
0.4887170134
 40
0.6148361948
 40
0.7422518709
 40
0.8707574038
 40
1.0
 40
1.0
 40
1.0
 40
1.0
 10
5.8472753911
 20
4.4183224489
 30
0.0
 10
5.8452744531
 20
4.4173537325
 30
0.0
 10
5.8411259328
 20
4.4156396825
 30
0.0
 10
5.8346108794
 20
4.4137833388
 30
0.0
 10
5.8278398876
 20
4.4126465982
 30
0.0
 10
5.8208984909
 20
4.4122424382
 30
0.0
 10
5.8138717108
 20
4.4125758659
 30
0.0
 10
5.8068455475
 20
4.4136416235
 30
0.0
 10
5.7999080114
 20
4.4154267241
 30
0.0
 10
5.7954059917
 20
4.4170782089
 30
0.0
 10
5.7931964516
 20
4.4180148881
 30
0.0
  0
SPLINE
  5
353
100
AcDbEntity
  8
0
100
AcDbSpline
 62
7
  6
CONTINUOUS
 70
0
 71
3
 72
15
 73
11
 74
0
 42
0.0000001
 43
0.0000001
 44
0.0000000001
 40
0.0
 40
0.0
 40
0.0
 40
0.0
 40
0.1243342854
 40
0.2488920105
 40
0.3736188091
 40
0.4985571434
 40
0.6236892706
 40
0.7489859157
 40
0.8744534872
 40
1.0
 40
1.0
 40
1.0
 40
1.0
 10
5.859788084
 20
4.440015446
 30
0.0
 10
5.8576765123
 20
4.438814718
 30
0.0
 10
5.8533165355
 20
4.4366367297
 30
0.0
 10
5.8464584508
 20
4.4340971261
 30
0.0
 10
5.8393501066
 20
4.4323235996
 30
0.0
 10
5.8320772199
 20
4.4313503459
 30
0.0
 10
5.82472942
 20
4.4312043685
 30
0.0
 10
5.8174019885
 20
4.4318980602
 30
0.0
 10
5.8101962128
 20
4.4334340141
 30
0.0
 10
5.8055388228
 20
4.4350111214
 30
0.0
 10
5.8032654456
 20
4.4359319123
 30
0.0
  0
LINE
  5
354
100
AcDbEntity
  8
0
100
AcDbLine
 62
7
  6
CONTINUOUS
 10
5.8472753911
 20
4.4183224489
 11
5.8440594291
 21
4.4129924692
  0
SPLINE
  5
355
100
AcDbEntity
  8
0
100
AcDbSpline
 62
7
  6
CONTINUOUS
 70
0
 71
3
 72
15
 73
11
 74
0
 42
0.0000001
 43
0.0000001
 44
0.0000000001
 40
0.0
 40
0.0
 40
0.0
 40
0.0
 40
0.1267081018
 40
0.252861187
 40
0.3784149504
 40
0.5034498226
 40
0.6280250236
 40
0.7522234249
 40
0.8761928433
 40
1.0
 40
1.0
 40
1.0
 40
1.0
 10
5.8440594291
 20
4.4129924692
 30
0.0
 10
5.8420417186
 20
4.4117958268
 30
0.0
 10
5.8378809537
 20
4.4096259237
 30
0.0
 10
5.8313372156
 20
4.4070851779
 30
0.0
 10
5.8245803253
 20
4.4052960523
 30
0.0
 10
5.8176943197
 20
4.4042803175
 30
0.0
 10
5.8107625206
 20
4.4040512111
 30
0.0
 10
5.8038689905
 20
4.4046110323
 30
0.0
 10
5.7970996737
 20
4.4059536614
 30
0.0
 10
5.7927207436
 20
4.4073603144
 30
0.0
 10
5.7905824091
 20
4.4081858656
 30
0.0
  0
SPLINE
  5
356
100
AcDbEntity
  8
0
100
AcDbSpline
 62
7
  6
CONTINUOUS
 70
0
 71
3
 72
45
 73
41
 74
0
 42
0.0000001
 43
0.0000001
 44
0.0000000001
 40
0.0
 40
0.0
 40
0.0
 40
0.0
 40
0.0421516044
 40
0.0842378544
 40
0.1262606399
 40
0.1682195673
 40
0.1891775516
 40
0.2101203858
 40
0.2310507061
 40
0.2519705424
 40
0.2728805383
 40
0.2937887384
 40
0.3146987698
 40
0.3356295835
 40
0.3566052473
 40
0.3671309878
 40
0.3777023991
 40
0.3830174301
 40
0.3883719685
 40
0.3938187415
 40
0.399470071
 40
0.4055317794
 40
0.4122288135
 40
0.4196132403
 40
0.4275928863
 40
0.4360588899
 40
0.4449272183
 40
0.4636435982
 40
0.4834370542
 40
0.5041284805
 40
0.5255926977
 40
0.5477261347
 40
0.5936780083
 40
0.6414866251
 40
0.6907450448
 40
0.7410834792
 40
0.7921975329
 40
0.8438485033
 40
0.8958200328
 40
1.0
 40
1.0
 40
1.0
 40
1.0
 10
5.844059425
 20
4.4129924667
 30
0.0
 10
5.8437069964
 20
4.4124087518
 30
0.0
 10
5.8430085436
 20
4.411238676
 30
0.0
 10
5.8419810259
 20
4.4094734831
 30
0.0
 10
5.8409763703
 20
4.407698748
 30
0.0
 10
5.8401603907
 20
4.4062101128
 30
0.0
 10
5.8395223264
 20
4.405012986
 30
0.0
 10
5.8390520812
 20
4.404111921
 30
0.0
 10
5.8385906969
 20
4.4032069781
 30
0.0
 10
5.8381389141
 20
4.4022977899
 30
0.0
 10
5.8376984343
 20
4.4013834654
 30
0.0
 10
5.8372699489
 20
4.4004636211
 30
0.0
 10
5.8368563225
 20
4.3995366235
 30
0.0
 10
5.8364580986
 20
4.3986016954
 30
0.0
 10
5.8361423099
 20
4.3978144583
 30
0.0
 10
5.8358941742
 20
4.3971807412
 30
0.0
 10
5.8357366296
 20
4.3967835536
 30
0.0
 10
5.8356011778
 20
4.3964677479
 30
0.0
 10
5.8354891876
 20
4.3962321657
 30
0.0
 10
5.8353545678
 20
4.3960019863
 30
0.0
 10
5.8351820924
 20
4.3957828591
 30
0.0
 10
5.8349555602
 20
4.3955864919
 30
0.0
 10
5.834671683
 20
4.3954232766
 30
0.0
 10
5.8343393636
 20
4.3952910584
 30
0.0
 10
5.8339686377
 20
4.3951838947
 30
0.0
 10
5.8335679452
 20
4.3950982484
 30
0.0
 10
5.8329916847
 20
4.3950073978
 30
0.0
 10
5.8322276484
 20
4.3949378502
 30
0.0
 10
5.8312699738
 20
4.3949101172
 30
0.0
 10
5.8302677282
 20
4.394930865
 30
0.0
 10
5.8292295197
 20
4.3949953364
 30
0.0
 10
5.8277875528
 20
4.3951360811
 30
0.0
 10
5.8259311012
 20
4.3954049016
 30
0.0
 10
5.8236599682
 20
4.3958495512
 30
0.0
 10
5.8213404519
 20
4.3964048743
 30
0.0
 10
5.8189904944
 20
4.3970555428
 30
0.0
 10
5.8166248676
 20
4.3977899381
 30
0.0
 10
5.8142557086
 20
4.3985986175
 30
0.0
 10
5.8111025101
 20
4.3997641503
 30
0.0
 10
5.8087631538
 20
4.4007195918
 30
0.0
 10
5.8072158665
 20
4.4013873926
 30
0.0
  0
LINE
  5
357
100
AcDbEntity
  8
0
100
AcDbLine
 62
7
  6
CONTINUOUS
 10
5.402539827
 20
4.4183224477
 11
5.3900271367
 21
4.4400154197
  0
SPLINE
  5
358
100
AcDbEntity
  8
0
100
AcDbSpline
 62
7
  6
CONTINUOUS
 70
0
 71
3
 72
16
 73
12
 74
0
 42
0.0000001
 43
0.0000001
 44
0.0000000001
 40
0.0
 40
0.0
 40
0.0
 40
0.0
 40
0.1255403066
 40
0.251003144
 40
0.376293939
 40
0.5014203462
 40
0.5639357257
 40
0.6264000498
 40
0.7511204737
 40
0.8756726627
 40
1.0
 40
1.0
 40
1.0
 40
1.0
 10
5.4465497613
 20
4.4359319375
 30
0.0
 10
5.4442765762
 20
4.4350106745
 30
0.0
 10
5.4396190526
 20
4.4334337797
 30
0.0
 10
5.4324131405
 20
4.4318980098
 30
0.0
 10
5.425085998
 20
4.4312043722
 30
0.0
 10
5.4189589709
 20
4.4313264102
 30
0.0
 10
5.4140970573
 20
4.4318377639
 30
0.0
 10
5.4092792696
 20
4.4326193059
 30
0.0
 10
5.4033564593
 20
4.4340971843
 30
0.0
 10
5.3964988154
 20
4.4366368301
 30
0.0
 10
5.3921386805
 20
4.4388146762
 30
0.0
 10
5.3900271367
 20
4.4400154197
 30
0.0
  0
LINE
  5
359
100
AcDbEntity
  8
0
100
AcDbLine
 62
7
  6
CONTINUOUS
 10
5.4057557827
 20
4.4129924782
 11
5.402539827
 21
4.4183224477
  0
SPLINE
  5
35A
100
AcDbEntity
  8
0
100
AcDbSpline
 62
7
  6
CONTINUOUS
 70
0
 71
3
 72
15
 73
11
 74
0
 42
0.0000001
 43
0.0000001
 44
0.0000000001
 40
0.0
 40
0.0
 40
0.0
 40
0.0
 40
0.1197221261
 40
0.2410922788
 40
0.3640928669
 40
0.4887170599
 40
0.6148362319
 40
0.7422518957
 40
0.8707574155
 40
1.0
 40
1.0
 40
1.0
 40
1.0
 10
5.402539827
 20
4.4183224477
 30
0.0
 10
5.4045407654
 20
4.4173537307
 30
0.0
 10
5.4086892862
 20
4.4156396793
 30
0.0
 10
5.4152043404
 20
4.4137833341
 30
0.0
 10
5.4219753327
 20
4.4126465928
 30
0.0
 10
5.4289167295
 20
4.4122424329
 30
0.0
 10
5.4359435093
 20
4.4125758611
 30
0.0
 10
5.442969672
 20
4.4136416198
 30
0.0
 10
5.4499072073
 20
4.415426722
 30
0.0
 10
5.4544092262
 20
4.4170782081
 30
0.0
 10
5.4566187658
 20
4.4180148881
 30
0.0
  0
SPLINE
  5
35B
100
AcDbEntity
  8
0
100
AcDbSpline
 62
7
  6
CONTINUOUS
 70
0
 71
3
 72
45
 73
41
 74
0
 42
0.0000001
 43
0.0000001
 44
0.0000000001
 40
0.0
 40
0.0
 40
0.0
 40
0.0
 40
0.1041804531
 40
0.1561522658
 40
0.2078040571
 40
0.2589178156
 40
0.3092570626
 40
0.3585151421
 40
0.4063240633
 40
0.4522759771
 40
0.4744086829
 40
0.4958734231
 40
0.5165647768
 40
0.5363582812
 40
0.5550740355
 40
0.5639438357
 40
0.572409893
 40
0.5803878685
 40
0.5877753616
 40
0.594469066
 40
0.6005332932
 40
0.6061824127
 40
0.6116287205
 40
0.616985322
 40
0.6222999249
 40
0.6328707151
 40
0.6433963407
 40
0.6643720273
 40
0.6853029875
 40
0.7062127051
 40
0.7271208794
 40
0.7480306655
 40
0.7689504354
 40
0.7898806812
 40
0.8108233813
 40
0.8317813006
 40
0.8737399973
 40
0.9157625438
 40
0.9578485957
 40
1.0
 40
1.0
 40
1.0
 40
1.0
 10
5.4425993397
 20
4.4013873855
 30
0.0
 10
5.4410520509
 20
4.4007195697
 30
0.0
 10
5.4387126769
 20
4.3997641388
 30
0.0
 10
5.4355594485
 20
4.3985986182
 30
0.0
 10
5.4331902891
 20
4.3977899008
 30
0.0
 10
5.4308246319
 20
4.3970555343
 30
0.0
 10
5.4284746842
 20
4.3964048222
 30
0.0
 10
5.4261551439
 20
4.3958495466
 30
0.0
 10
5.4238840159
 20
4.3954048837
 30
0.0
 10
5.4220275716
 20
4.3951360452
 30
0.0
 10
5.4205856024
 20
4.3949953644
 30
0.0
 10
5.4195474008
 20
4.3949308576
 30
0.0
 10
5.4185451476
 20
4.394910136
 30
0.0
 10
5.4175874811
 20
4.3949378415
 30
0.0
 10
5.4168234394
 20
4.3950074722
 30
0.0
 10
5.416247155
 20
4.3950982421
 30
0.0
 10
5.4158464531
 20
4.3951838693
 30
0.0
 10
5.415475755
 20
4.3952911647
 30
0.0
 10
5.4151433697
 20
4.39542319
 30
0.0
 10
5.4148596432
 20
4.3955866938
 30
0.0
 10
5.4146329084
 20
4.3957827649
 30
0.0
 10
5.4144607746
 20
4.3960021977
 30
0.0
 10
5.4143263139
 20
4.3962324128
 30
0.0
 10
5.4142136015
 20
4.3964676753
 30
0.0
 10
5.4140785964
 20
4.3967837016
 30
0.0
 10
5.4139210231
 20
4.397180846
 30
0.0
 10
5.4136729139
 20
4.3978145653
 30
0.0
 10
5.4133570935
 20
4.3986017886
 30
0.0
 10
5.4129588182
 20
4.3995366919
 30
0.0
 10
5.4125452473
 20
4.4004637103
 30
0.0
 10
5.4121167375
 20
4.4013835334
 30
0.0
 10
5.4116762747
 20
4.40229786
 30
0.0
 10
5.4112244866
 20
4.403207039
 30
0.0
 10
5.4107631063
 20
4.4041119784
 30
0.0
 10
5.4102928622
 20
4.4050130387
 30
0.0
 10
5.4096547998
 20
4.406210158
 30
0.0
 10
5.4088388258
 20
4.4076987858
 30
0.0
 10
5.4078341772
 20
4.4094735116
 30
0.0
 10
5.4068066626
 20
4.4112386935
 30
0.0
 10
5.4061082137
 20
4.4124087636
 30
0.0
 10
5.405755787
 20
4.4129924756
 30
0.0
  0
SPLINE
  5
35C
100
AcDbEntity
  8
0
100
AcDbSpline
 62
7
  6
CONTINUOUS
 70
0
 71
3
 72
15
 73
11
 74
0
 42
0.0000001
 43
0.0000001
 44
0.0000000001
 40
0.0
 40
0.0
 40
0.0
 40
0.0
 40
0.1267082405
 40
0.2528614429
 40
0.378415276
 40
0.5034501712
 40
0.6280253533
 40
0.7522236923
 40
0.8761930016
 40
1.0
 40
1.0
 40
1.0
 40
1.0
 10
5.405755787
 20
4.4129924756
 30
0.0
 10
5.4077735008
 20
4.4117958338
 30
0.0
 10
5.4119342717
 20
4.4096259328
 30
0.0
 10
5.4184780164
 20
4.4070851886
 30
0.0
 10
5.4252349102
 20
4.405296063
 30
0.0
 10
5.4321209166
 20
4.4042803273
 30
0.0
 10
5.4390527142
 20
4.4040512194
 30
0.0
 10
5.4459462406
 20
4.4046110383
 30
0.0
 10
5.4527155513
 20
4.4059536646
 30
0.0
 10
5.4570944766
 20
4.4073603155
 30
0.0
 10
5.4592328083
 20
4.4081858656
 30
0.0
  0
SPLINE
  5
35D
100
AcDbEntity
  8
0
100
AcDbSpline
 62
7
  6
CONTINUOUS
 70
0
 71
3
 72
12
 73
8
 74
0
 42
0.0000001
 43
0.0000001
 44
0.0000000001
 40
0.0
 40
0.0
 40
0.0
 40
0.0
 40
0.257449071
 40
0.5112373396
 40
0.636145678
 40
0.7594022468
 40
1.0
 40
1.0
 40
1.0
 40
1.0
 10
5.3951328044
 20
4.4180210965
 30
0.0
 10
5.3957138583
 20
4.4183315919
 30
0.0
 10
5.3969394542
 20
4.418823244
 30
0.0
 10
5.398561629
 20
4.4190816339
 30
0.0
 10
5.3998488275
 20
4.4190591999
 30
0.0
 10
5.4010899012
 20
4.4188888362
 30
0.0
 10
5.4019861211
 20
4.4185916699
 30
0.0
 10
5.4025398273
 20
4.418322447
 30
0.0
  0
SPLINE
  5
35E
100
AcDbEntity
  8
0
100
AcDbSpline
 62
7
  6
CONTINUOUS
 70
0
 71
3
 72
12
 73
8
 74
0
 42
0.0000001
 43
0.0000001
 44
0.0000000001
 40
0.0
 40
0.0
 40
0.0
 40
0.0
 40
0.2582011337
 40
0.5118990033
 40
0.636599211
 40
0.7596296348
 40
1.0
 40
1.0
 40
1.0
 40
1.0
 10
5.3987697376
 20
4.4124162652
 30
0.0
 10
5.3993124962
 20
4.4127224247
 30
0.0
 10
5.4004552888
 20
4.4132189621
 30
0.0
 10
5.4019750683
 20
4.413519844
 30
0.0
 10
5.4031873577
 20
4.4135518109
 30
0.0
 10
5.4043624873
 20
4.4134476666
 30
0.0
 10
5.4052198264
 20
4.4132144895
 30
0.0
 10
5.4057557834
 20
4.4129924771
 30
0.0
  0
SPLINE
  5
35F
100
AcDbEntity
  8
0
100
AcDbSpline
 62
7
  6
CONTINUOUS
 70
0
 71
3
 72
12
 73
8
 74
0
 42
0.0000001
 43
0.0000001
 44
0.0000000001
 40
0.0
 40
0.0
 40
0.0
 40
0.0
 40
0.2582010112
 40
0.5118986014
 40
0.6365987064
 40
0.7596291279
 40
1.0
 40
1.0
 40
1.0
 40
1.0
 10
5.8510450762
 20
4.4124164801
 30
0.0
 10
5.8505023364
 20
4.4127225933
 30
0.0
 10
5.849359595
 20
4.4132190486
 30
0.0
 10
5.8478399029
 20
4.4135198615
 30
0.0
 10
5.8466276896
 20
4.4135517972
 30
0.0
 10
5.8454526343
 20
4.4134476381
 30
0.0
 10
5.8445953506
 20
4.4132144682
 30
0.0
 10
5.8440594261
 20
4.4129924686
 30
0.0
  0
SPLINE
  5
360
100
AcDbEntity
  8
0
100
AcDbSpline
 62
7
  6
CONTINUOUS
 70
0
 71
3
 72
12
 73
8
 74
0
 42
0.0000001
 43
0.0000001
 44
0.0000000001
 40
0.0
 40
0.0
 40
0.0
 40
0.0
 40
0.257449155
 40
0.5112374003
 40
0.6361457059
 40
0.7594022474
 40
1.0
 40
1.0
 40
1.0
 40
1.0
 10
5.8546824136
 20
4.4180210975
 30
0.0
 10
5.8541013597
 20
4.4183315933
 30
0.0
 10
5.852875764
 20
4.4188232459
 30
0.0
 10
5.8512535893
 20
4.4190816363
 30
0.0
 10
5.8499663911
 20
4.4190592025
 30
0.0
 10
5.8487253176
 20
4.4188888391
 30
0.0
 10
5.8478290978
 20
4.4185916727
 30
0.0
 10
5.8472753916
 20
4.4183224497
 30
0.0
  0
SPLINE
  5
361
100
AcDbEntity
  8
0
100
AcDbSpline
 62
7
  6
CONTINUOUS
 70
0
 71
3
 72
12
 73
8
 74
0
 42
0.0000001
 43
0.0000001
 44
0.0000000001
 40
0.0
 40
0.0
 40
0.0
 40
0.0
 40
0.2573968745
 40
0.5111698397
 40
0.6360842576
 40
0.7593551351
 40
1.0
 40
1.0
 40
1.0
 40
1.0
 10
5.8671792474
 20
4.4396938363
 30
0.0
 10
5.8666000988
 20
4.4400044815
 30
0.0
 10
5.86537837
 20
4.4404971854
 30
0.0
 10
5.8637607082
 20
4.4407589251
 30
0.0
 10
5.8624763372
 20
4.4407403925
 30
0.0
 10
5.8612373175
 20
4.4405745739
 30
0.0
 10
5.8603418601
 20
4.4402816294
 30
0.0
 10
5.8597880929
 20
4.4400154247
 30
0.0
  0
LINE
  5
362
100
AcDbEntity
  8
0
100
AcDbLine
 62
7
  6
CONTINUOUS
 10
5.3431458424
 20
4.41294852
 11
5.3556761825
 21
4.3912657115
  0
SPLINE
  5
363
100
AcDbEntity
  8
0
100
AcDbSpline
 62
7
  6
CONTINUOUS
 70
0
 71
3
 72
15
 73
11
 74
0
 42
0.0000001
 43
0.0000001
 44
0.0000000001
 40
0.0
 40
0.0
 40
0.0
 40
0.0
 40
0.1197220972
 40
0.2410922324
 40
0.3640928162
 40
0.4887170134
 40
0.6148361948
 40
0.7422518709
 40
0.8707574038
 40
1.0
 40
1.0
 40
1.0
 40
1.0
 10
5.3556761825
 20
4.3912657115
 30
0.0
 10
5.3555146464
 20
4.3890484902
 30
0.0
 10
5.3549247971
 20
4.3845987412
 30
0.0
 10
5.3532749112
 20
4.3780283676
 30
0.0
 10
5.3508738616
 20
4.3715961464
 30
0.0
 10
5.347753176
 20
4.3653826405
 30
0.0
 10
5.3439510291
 20
4.3594639843
 30
0.0
 10
5.3395149743
 20
4.3539120272
 30
0.0
 10
5.3345002638
 20
4.348796495
 30
0.0
 10
5.3308190262
 20
4.345723374
 30
0.0
 10
5.3289030682
 20
4.3442781957
 30
0.0
  0
SPLINE
  5
364
100
AcDbEntity
  8
0
100
AcDbSpline
 62
7
  6
CONTINUOUS
 70
0
 71
3
 72
15
 73
11
 74
0
 42
0.0000001
 43
0.0000001
 44
0.0000000001
 40
0.0
 40
0.0
 40
0.0
 40
0.0
 40
0.1243342854
 40
0.2488920105
 40
0.3736188091
 40
0.4985571434
 40
0.6236892706
 40
0.7489859157
 40
0.8744534872
 40
1.0
 40
1.0
 40
1.0
 40
1.0
 10
5.3431458424
 20
4.41294852
 30
0.0
 10
5.3431299174
 20
4.4105194813
 30
0.0
 10
5.3428361222
 20
4.4056546364
 30
0.0
 10
5.3416064411
 20
4.3984455591
 30
0.0
 10
5.339588188
 20
4.3914027891
 30
0.0
 10
5.336794607
 20
4.3846176576
 30
0.0
 10
5.3332471272
 20
4.3781812876
 30
0.0
 10
5.3289826569
 20
4.3721823916
 30
0.0
 10
5.3240495939
 20
4.3667099837
 30
0.0
 10
5.320355084
 20
4.3634651193
 30
0.0
 10
5.3184209671
 20
4.3619567124
 30
0.0
  0
LINE
  5
365
100
AcDbEntity
  8
0
100
AcDbLine
 62
7
  6
CONTINUOUS
 10
5.3556761825
 20
4.3912657115
 11
5.3586840993
 21
4.3858156169
  0
SPLINE
  5
366
100
AcDbEntity
  8
0
100
AcDbSpline
 62
7
  6
CONTINUOUS
 70
0
 71
3
 72
11
 73
7
 74
0
 42
0.0000001
 43
0.0000001
 44
0.0000000001
 40
0.0
 40
0.0
 40
0.0
 40
0.0
 40
0.2522417184
 40
0.5028876628
 40
0.7520592447
 40
1.0
 40
1.0
 40
1.0
 40
1.0
 10
5.3586840993
 20
4.3858156169
 30
0.0
 10
5.3587216571
 20
4.3826081982
 30
0.0
 10
5.3583180885
 20
4.3761973877
 30
0.0
 10
5.3562730984
 20
4.3668181633
 30
0.0
 10
5.3528377738
 20
4.3579123843
 30
0.0
 10
5.3496616933
 20
4.352411608
 30
0.0
 10
5.3478760793
 20
4.3498130224
 30
0.0
  0
SPLINE
  5
367
100
AcDbEntity
  8
0
100
AcDbSpline
 62
7
  6
CONTINUOUS
 70
0
 71
3
 72
45
 73
41
 74
0
 42
0.0000001
 43
0.0000001
 44
0.0000000001
 40
0.0
 40
0.0
 40
0.0
 40
0.0
 40
0.0421516044
 40
0.0842378544
 40
0.1262606399
 40
0.1682195673
 40
0.1891775516
 40
0.2101203858
 40
0.2310507061
 40
0.2519705424
 40
0.2728805383
 40
0.2937887384
 40
0.3146987698
 40
0.3356295835
 40
0.3566052473
 40
0.3671309878
 40
0.3777023991
 40
0.3830174301
 40
0.3883719685
 40
0.3938187415
 40
0.399470071
 40
0.4055317794
 40
0.4122288135
 40
0.4196132403
 40
0.4275928863
 40
0.4360588899
 40
0.4449272183
 40
0.4636435982
 40
0.4834370542
 40
0.5041284805
 40
0.5255926977
 40
0.5477261347
 40
0.5936780083
 40
0.6414866251
 40
0.6907450448
 40
0.7410834792
 40
0.7921975329
 40
0.8438485033
 40
0.8958200328
 40
1.0
 40
1.0
 40
1.0
 40
1.0
 10
5.3586840993
 20
4.3858156121
 30
0.0
 10
5.359013397
 20
4.3852185425
 30
0.0
 10
5.359677486
 20
4.3840286267
 30
0.0
 10
5.360692429
 20
4.3822561738
 30
0.0
 10
5.3617270669
 20
4.3804987491
 30
0.0
 10
5.362608273
 20
4.3790477723
 30
0.0
 10
5.363325983
 20
4.3778966291
 30
0.0
 10
5.3638712056
 20
4.3770388523
 30
0.0
 10
5.364424217
 20
4.3761868103
 30
0.0
 10
5.3649857057
 20
4.3753409608
 30
0.0
 10
5.3655572941
 20
4.3745023319
 30
0.0
 10
5.3661396599
 20
4.3736713305
 30
0.0
 10
5.3667356501
 20
4.3728496207
 30
0.0
 10
5.3673462097
 20
4.3720372847
 30
0.0
 10
5.3678700827
 20
4.3713701851
 30
0.0
 10
5.3682948299
 20
4.3708384347
 30
0.0
 10
5.3685600321
 20
4.3705034033
 30
0.0
 10
5.368765802
 20
4.3702281958
 30
0.0
 10
5.3689138271
 20
4.3700134183
 30
0.0
 10
5.3690458584
 20
4.3697817444
 30
0.0
 10
5.3691493905
 20
4.3695228127
 30
0.0
 10
5.3692061833
 20
4.3692284465
 30
0.0
 10
5.3692055933
 20
4.368900994
 30
0.0
 10
5.369153938
 20
4.3685470878
 30
0.0
 10
5.3690613814
 20
4.3681724479
 30
0.0
 10
5.3689352071
 20
4.3677826148
 30
0.0
 10
5.3687257558
 20
4.3672381334
 30
0.0
 10
5.3684039677
 20
4.3665416847
 30
0.0
 10
5.3679491478
 20
4.3656984477
 30
0.0
 10
5.3674300569
 20
4.3648408514
 30
0.0
 10
5.3668551187
 20
4.3639739721
 30
0.0
 10
5.3660122468
 20
4.3627955646
 30
0.0
 10
5.3648512157
 20
4.3613222406
 30
0.0
 10
5.3633305713
 20
4.3595777065
 30
0.0
 10
5.3616898892
 20
4.357846608
 30
0.0
 10
5.359951415
 20
4.3561368193
 30
0.0
 10
5.3581325966
 20
4.3544553241
 30
0.0
 10
5.3562476802
 20
4.3528079119
 30
0.0
 10
5.3536617
 20
4.3506599284
 30
0.0
 10
5.3516645852
 20
4.3491117071
 30
0.0
 10
5.3503126091
 20
4.3481056174
 30
0.0
  0
LINE
  5
368
100
AcDbEntity
  8
0
100
AcDbLine
 62
7
  6
CONTINUOUS
 10
5.1333084014
 20
4.0061134144
 11
5.1082653914
 21
4.0061235928
  0
SPLINE
  5
369
100
AcDbEntity
  8
0
100
AcDbSpline
 62
7
  6
CONTINUOUS
 70
0
 71
3
 72
16
 73
12
 74
0
 42
0.0000001
 43
0.0000001
 44
0.0000000001
 40
0.0
 40
0.0
 40
0.0
 40
0.0
 40
0.1255403066
 40
0.251003144
 40
0.376293939
 40
0.5014203462
 40
0.5639357257
 40
0.6264000498
 40
0.7511204737
 40
0.8756726627
 40
1.0
 40
1.0
 40
1.0
 40
1.0
 10
5.1400631031
 20
4.0530318804
 30
0.0
 10
5.1397243477
 20
4.0506026129
 30
0.0
 10
5.1387612168
 20
4.0457806317
 30
0.0
 10
5.1364882765
 20
4.0387722438
 30
0.0
 10
5.1334254131
 20
4.0320799336
 30
0.0
 10
5.1302562115
 20
4.0268347914
 30
0.0
 10
5.1273824094
 20
4.0228799275
 30
0.0
 10
5.1242966804
 20
4.019098372
 30
0.0
 10
5.1200553949
 20
4.0147080071
 30
0.0
 10
5.1144271752
 20
4.0100389361
 30
0.0
 10
5.1103610378
 20
4.0073518716
 30
0.0
 10
5.1082653914
 20
4.0061235928
 30
0.0
  0
LINE
  5
36A
100
AcDbEntity
  8
0
100
AcDbLine
 62
7
  6
CONTINUOUS
 10
5.1395322683
 20
4.006233529
 11
5.1333084014
 21
4.0061134144
  0
SPLINE
  5
36B
100
AcDbEntity
  8
0
100
AcDbSpline
 62
7
  6
CONTINUOUS
 70
0
 71
3
 72
15
 73
11
 74
0
 42
0.0000001
 43
0.0000001
 44
0.0000000001
 40
0.0
 40
0.0
 40
0.0
 40
0.0
 40
0.1197221261
 40
0.2410922788
 40
0.3640928669
 40
0.4887170599
 40
0.6148362319
 40
0.7422518957
 40
0.8707574155
 40
1.0
 40
1.0
 40
1.0
 40
1.0
 10
5.1333084014
 20
4.0061134144
 30
0.0
 10
5.1351478042
 20
4.0073619194
 30
0.0
 10
5.1387064766
 20
4.0100976181
 30
0.0
 10
5.1435716458
 20
4.014811648
 30
0.0
 10
5.1479415888
 20
4.0201071286
 30
0.0
 10
5.1517622999
 20
4.0259164746
 30
0.0
 10
5.1549869325
 20
4.0321685586
 30
0.0
 10
5.1575770398
 20
4.0387862733
 30
0.0
 10
5.1594998636
 20
4.0456869062
 30
0.0
 10
5.1603206441
 20
4.050411512
 30
0.0
 10
5.1606142253
 20
4.0527933694
 30
0.0
  0
SPLINE
  5
36C
100
AcDbEntity
  8
0
100
AcDbSpline
 62
7
  6
CONTINUOUS
 70
0
 71
3
 72
45
 73
41
 74
0
 42
0.0000001
 43
0.0000001
 44
0.0000000001
 40
0.0
 40
0.0
 40
0.0
 40
0.0
 40
0.1041804531
 40
0.1561522658
 40
0.2078040571
 40
0.2589178156
 40
0.3092570626
 40
0.3585151421
 40
0.4063240633
 40
0.4522759771
 40
0.4744086829
 40
0.4958734231
 40
0.5165647768
 40
0.5363582812
 40
0.5550740355
 40
0.5639438357
 40
0.572409893
 40
0.5803878685
 40
0.5877753616
 40
0.594469066
 40
0.6005332932
 40
0.6061824127
 40
0.6116287205
 40
0.616985322
 40
0.6222999249
 40
0.6328707151
 40
0.6433963407
 40
0.6643720273
 40
0.6853029875
 40
0.7062127051
 40
0.7271208794
 40
0.7480306655
 40
0.7689504354
 40
0.7898806812
 40
0.8108233813
 40
0.8317813006
 40
0.8737399973
 40
0.9157625438
 40
0.9578485957
 40
1.0
 40
1.0
 40
1.0
 40
1.0
 10
5.1680043518
 20
4.032338439
 30
0.0
 10
5.1678090529
 20
4.0306645397
 30
0.0
 10
5.1674667933
 20
4.0281608669
 30
0.0
 10
5.1668995496
 20
4.0248473307
 30
0.0
 10
5.1664153397
 20
4.0223912198
 30
0.0
 10
5.1658684911
 20
4.0199753173
 30
0.0
 10
5.1652570505
 20
4.0176148469
 30
0.0
 10
5.1645781631
 20
4.0153284282
 30
0.0
 10
5.1638276885
 20
4.0131392422
 30
0.0
 10
5.1631322873
 20
4.011397095
 30
0.0
 10
5.1625331359
 20
4.0100779727
 30
0.0
 10
5.1620698996
 20
4.0091466104
 30
0.0
 10
5.1615867184
 20
4.0082682728
 30
0.0
 10
5.1610838915
 20
4.007452762
 30
0.0
 10
5.1606415687
 20
4.0068258979
 30
0.0
 10
5.1602748174
 20
4.0063722059
 30
0.0
 10
5.1600003112
 20
4.0060680015
 30
0.0
 10
5.1597220416
 20
4.0058006152
 30
0.0
 10
5.1594415117
 20
4.0055787737
 30
0.0
 10
5.1591580499
 20
4.0054148112
 30
0.0
 10
5.15887488
 20
4.0053164888
 30
0.0
 10
5.1585987787
 20
4.0052771329
 30
0.0
 10
5.1583321763
 20
4.005275794
 30
0.0
 10
5.1580720768
 20
4.0052958135
 30
0.0
 10
5.1577308874
 20
4.0053369088
 30
0.0
 10
5.1573081636
 20
4.0053990185
 30
0.0
 10
5.156635292
 20
4.0055010093
 30
0.0
 10
5.1557956265
 20
4.0056211125
 30
0.0
 10
5.1547868387
 20
4.0057436476
 30
0.0
 10
5.1537772319
 20
4.0058489939
 30
0.0
 10
5.1527663868
 20
4.0059378051
 30
0.0
 10
5.1517543253
 20
4.0060135164
 30
0.0
 10
5.1507410592
 20
4.0060768459
 30
0.0
 10
5.1497266684
 20
4.0061297485
 30
0.0
 10
5.1487112053
 20
4.0061730353
 30
0.0
 10
5.1473554384
 20
4.0062190167
 30
0.0
 10
5.1456582619
 20
4.0062566765
 30
0.0
 10
5.14361898
 20
4.0062739881
 30
0.0
 10
5.1415765303
 20
4.0062667253
 30
0.0
 10
5.1402139954
 20
4.0062468859
 30
0.0
 10
5.1395322726
 20
4.0062335314
 30
0.0
  0
SPLINE
  5
36D
100
AcDbEntity
  8
0
100
AcDbSpline
 62
7
  6
CONTINUOUS
 70
0
 71
3
 72
15
 73
11
 74
0
 42
0.0000001
 43
0.0000001
 44
0.0000000001
 40
0.0
 40
0.0
 40
0.0
 40
0.0
 40
0.1267082405
 40
0.2528614429
 40
0.378415276
 40
0.5034501712
 40
0.6280253533
 40
0.7522236923
 40
0.8761930016
 40
1.0
 40
1.0
 40
1.0
 40
1.0
 10
5.1395322726
 20
4.0062335314
 30
0.0
 10
5.1415774517
 20
4.0073826019
 30
0.0
 10
5.1455370266
 20
4.0099009848
 30
0.0
 10
5.151009248
 20
4.0142976618
 30
0.0
 10
5.1559371231
 20
4.0192547406
 30
0.0
 10
5.1602597792
 20
4.0247103293
 30
0.0
 10
5.1639240913
 20
4.0305988882
 30
0.0
 10
5.166886037
 20
4.0368487666
 30
0.0
 10
5.169107944
 20
4.0433824748
 30
0.0
 10
5.1700792112
 20
4.0478780608
 30
0.0
 10
5.1704334297
 20
4.0501426854
 30
0.0
  0
SPLINE
  5
36E
100
AcDbEntity
  8
0
100
AcDbSpline
 62
7
  6
CONTINUOUS
 70
0
 71
3
 72
12
 73
8
 74
0
 42
0.0000001
 43
0.0000001
 44
0.0000000001
 40
0.0
 40
0.0
 40
0.0
 40
0.0
 40
0.257449071
 40
0.5112373396
 40
0.636145678
 40
0.7594022468
 40
1.0
 40
1.0
 40
1.0
 40
1.0
 10
5.1298658679
 20
3.9995480691
 30
0.0
 10
5.129887498
 20
4.0002065242
 30
0.0
 10
5.1300745127
 20
4.0015137474
 30
0.0
 10
5.1306618279
 20
4.003047787
 30
0.0
 10
5.1313248556
 20
4.0041513166
 30
0.0
 10
5.1320929317
 20
4.0051409361
 30
0.0
 10
5.1327983952
 20
4.0057685022
 30
0.0
 10
5.1333084022
 20
4.0061134144
 30
0.0
  0
SPLINE
  5
36F
100
AcDbEntity
  8
0
100
AcDbSpline
 62
7
  6
CONTINUOUS
 70
0
 71
3
 72
12
 73
8
 74
0
 42
0.0000001
 43
0.0000001
 44
0.0000000001
 40
0.0
 40
0.0
 40
0.0
 40
0.0
 40
0.2582011337
 40
0.5118990033
 40
0.636599211
 40
0.7596296348
 40
1.0
 40
1.0
 40
1.0
 40
1.0
 10
5.1365382609
 20
3.99989533
 30
0.0
 10
5.1365444982
 20
4.0005184524
 30
0.0
 10
5.1366858805
 20
4.0017564086
 30
0.0
 10
5.1371851989
 20
4.0032230173
 30
0.0
 10
5.1377636594
 20
4.004288874
 30
0.0
 10
5.1384414159
 20
4.005254494
 30
0.0
 10
5.1390720227
 20
4.0058803829
 30
0.0
 10
5.1395322696
 20
4.006233529
 30
0.0
  0
SPLINE
  5
370
100
AcDbEntity
  8
0
100
AcDbSpline
 62
7
  6
CONTINUOUS
 70
0
 71
3
 72
12
 73
8
 74
0
 42
0.0000001
 43
0.0000001
 44
0.0000000001
 40
0.0
 40
0.0
 40
0.0
 40
0.0
 40
0.2582010112
 40
0.5118986014
 40
0.6365987064
 40
0.7596291279
 40
1.0
 40
1.0
 40
1.0
 40
1.0
 10
5.362675744
 20
4.3915773702
 30
0.0
 10
5.3621392723
 20
4.3912604003
 30
0.0
 10
5.3611379587
 20
4.3905189849
 30
0.0
 10
5.3601176011
 20
4.3893532994
 30
0.0
 10
5.3594838372
 20
4.3883194597
 30
0.0
 10
5.358986514
 20
4.3872497524
 30
0.0
 10
5.3587598032
 20
4.386390738
 30
0.0
 10
5.3586840983
 20
4.385815614
 30
0.0
  0
SPLINE
  5
371
100
AcDbEntity
  8
0
100
AcDbSpline
 62
7
  6
CONTINUOUS
 70
0
 71
3
 72
12
 73
8
 74
0
 42
0.0000001
 43
0.0000001
 44
0.0000000001
 40
0.0
 40
0.0
 40
0.0
 40
0.0
 40
0.257449155
 40
0.5112374003
 40
0.6361457059
 40
0.7594022474
 40
1.0
 40
1.0
 40
1.0
 40
1.0
 10
5.3596406716
 20
4.3975297055
 30
0.0
 10
5.3590812475
 20
4.3971817459
 30
0.0
 10
5.3580426659
 20
4.3963661752
 30
0.0
 10
5.3570078059
 20
4.3950905259
 30
0.0
 10
5.3563836351
 20
4.3939645626
 30
0.0
 10
5.3559106374
 20
4.3928045797
 30
0.0
 10
5.3557198811
 20
4.3918798475
 30
0.0
 10
5.355676182
 20
4.3912657124
 30
0.0
  0
SPLINE
  5
372
100
AcDbEntity
  8
0
100
AcDbSpline
 62
7
  6
CONTINUOUS
 70
0
 71
3
 72
12
 73
8
 74
0
 42
0.0000001
 43
0.0000001
 44
0.0000000001
 40
0.0
 40
0.0
 40
0.0
 40
0.0
 40
0.2573968745
 40
0.5111698397
 40
0.6360842576
 40
0.7593551351
 40
1.0
 40
1.0
 40
1.0
 40
1.0
 10
5.3471199462
 20
4.4191886504
 30
0.0
 10
5.3465613452
 20
4.4188424156
 30
0.0
 10
5.3455237868
 20
4.4180307194
 30
0.0
 10
5.3444882826
 20
4.416760653
 30
0.0
 10
5.3438621468
 20
4.4156390888
 30
0.0
 10
5.3433862401
 20
4.414483157
 30
0.0
 10
5.3431922088
 20
4.4135611959
 30
0.0
 10
5.3431458652
 20
4.412948517
 30
0.0
  0
LINE
  5
373
100
AcDbEntity
  8
0
100
AcDbLine
 62
7
  6
CONTINUOUS
 10
5.108265367
 20
3.951989751
 11
5.1333084
 21
3.9519999397
  0
SPLINE
  5
374
100
AcDbEntity
  8
0
100
AcDbSpline
 62
7
  6
CONTINUOUS
 70
0
 71
3
 72
15
 73
11
 74
0
 42
0.0000001
 43
0.0000001
 44
0.0000000001
 40
0.0
 40
0.0
 40
0.0
 40
0.0
 40
0.1197220972
 40
0.2410922324
 40
0.3640928162
 40
0.4887170134
 40
0.6148361948
 40
0.7422518709
 40
0.8707574038
 40
1.0
 40
1.0
 40
1.0
 40
1.0
 10
5.1333084
 20
3.9519999397
 30
0.0
 10
5.135147802
 20
3.9507514346
 30
0.0
 10
5.138706473
 20
3.9480157357
 30
0.0
 10
5.1435716405
 20
3.9433017058
 30
0.0
 10
5.1479415827
 20
3.9380062252
 30
0.0
 10
5.1517622938
 20
3.9321968793
 30
0.0
 10
5.154986927
 20
3.9259447954
 30
0.0
 10
5.1575770355
 20
3.9193270807
 30
0.0
 10
5.1594998611
 20
3.9124264479
 30
0.0
 10
5.1603206432
 20
3.9077018421
 30
0.0
 10
5.1606142253
 20
3.9053199846
 30
0.0
  0
SPLINE
  5
375
100
AcDbEntity
  8
0
100
AcDbSpline
 62
7
  6
CONTINUOUS
 70
0
 71
3
 72
15
 73
11
 74
0
 42
0.0000001
 43
0.0000001
 44
0.0000000001
 40
0.0
 40
0.0
 40
0.0
 40
0.0
 40
0.1243342854
 40
0.2488920105
 40
0.3736188091
 40
0.4985571434
 40
0.6236892706
 40
0.7489859157
 40
0.8744534872
 40
1.0
 40
1.0
 40
1.0
 40
1.0
 10
5.108265367
 20
3.951989751
 30
0.0
 10
5.1103610137
 20
3.9507614403
 30
0.0
 10
5.1144271954
 20
3.9480745837
 30
0.0
 10
5.1200555989
 20
3.94340511
 30
0.0
 10
5.1251456901
 20
3.9381358665
 30
0.0
 10
5.1296249959
 20
3.9323239887
 30
0.0
 10
5.133425316
 20
3.9260335961
 30
0.0
 10
5.1364882771
 20
3.9193410084
 30
0.0
 10
5.1387609898
 20
3.9123326466
 30
0.0
 10
5.1397238699
 20
3.907510675
 30
0.0
 10
5.1400631302
 20
3.9050814771
 30
0.0
  0
LINE
  5
376
100
AcDbEntity
  8
0
100
AcDbLine
 62
7
  6
CONTINUOUS
 10
5.1333084
 20
3.9519999397
 11
5.1395322788
 21
3.9518798247
  0
SPLINE
  5
377
100
AcDbEntity
  8
0
100
AcDbSpline
 62
7
  6
CONTINUOUS
 70
0
 71
3
 72
15
 73
11
 74
0
 42
0.0000001
 43
0.0000001
 44
0.0000000001
 40
0.0
 40
0.0
 40
0.0
 40
0.0
 40
0.1267081018
 40
0.252861187
 40
0.3784149504
 40
0.5034498226
 40
0.6280250236
 40
0.7522234249
 40
0.8761928433
 40
1.0
 40
1.0
 40
1.0
 40
1.0
 10
5.1395322788
 20
3.9518798247
 30
0.0
 10
5.1415774569
 20
3.9507307573
 30
0.0
 10
5.1455370305
 20
3.9482123808
 30
0.0
 10
5.1510092499
 20
3.9438157102
 30
0.0
 10
5.1559371233
 20
3.9388586344
 30
0.0
 10
5.1602597782
 20
3.9334030461
 30
0.0
 10
5.1639240897
 20
3.9275144851
 30
0.0
 10
5.1668860354
 20
3.9212646023
 30
0.0
 10
5.169107943
 20
3.9147308875
 30
0.0
 10
5.1700792108
 20
3.9102352963
 30
0.0
 10
5.1704334297
 20
3.9079706686
 30
0.0
  0
SPLINE
  5
378
100
AcDbEntity
  8
0
100
AcDbSpline
 62
7
  6
CONTINUOUS
 70
0
 71
3
 72
45
 73
41
 74
0
 42
0.0000001
 43
0.0000001
 44
0.0000000001
 40
0.0
 40
0.0
 40
0.0
 40
0.0
 40
0.0421516044
 40
0.0842378544
 40
0.1262606399
 40
0.1682195673
 40
0.1891775516
 40
0.2101203858
 40
0.2310507061
 40
0.2519705424
 40
0.2728805383
 40
0.2937887384
 40
0.3146987698
 40
0.3356295835
 40
0.3566052473
 40
0.3671309878
 40
0.3777023991
 40
0.3830174301
 40
0.3883719685
 40
0.3938187415
 40
0.399470071
 40
0.4055317794
 40
0.4122288135
 40
0.4196132403
 40
0.4275928863
 40
0.4360588899
 40
0.4449272183
 40
0.4636435982
 40
0.4834370542
 40
0.5041284805
 40
0.5255926977
 40
0.5477261347
 40
0.5936780083
 40
0.6414866251
 40
0.6907450448
 40
0.7410834792
 40
0.7921975329
 40
0.8438485033
 40
0.8958200328
 40
1.0
 40
1.0
 40
1.0
 40
1.0
 10
5.1395322831
 20
3.9518798223
 30
0.0
 10
5.1402140093
 20
3.9518664677
 30
0.0
 10
5.1415765511
 20
3.9518466278
 30
0.0
 10
5.1436190118
 20
3.9518393678
 30
0.0
 10
5.1456583053
 20
3.9518566781
 30
0.0
 10
5.1473554911
 20
3.9518943366
 30
0.0
 10
5.1487112653
 20
3.95194032
 30
0.0
 10
5.1497267331
 20
3.9519836083
 30
0.0
 10
5.1507411288
 20
3.9520365092
 30
0.0
 10
5.1517544003
 20
3.952099848
 30
0.0
 10
5.1527664684
 20
3.9521755435
 30
0.0
 10
5.1537773197
 20
3.9522643864
 30
0.0
 10
5.1547869364
 20
3.9523696742
 30
0.0
 10
5.1557957198
 20
3.9524922662
 30
0.0
 10
5.1566353815
 20
3.9526124038
 30
0.0
 10
5.1573082644
 20
3.9527143705
 30
0.0
 10
5.1577310112
 20
3.9527765267
 30
0.0
 10
5.1580722329
 20
3.9528171248
 30
0.0
 10
5.1583322482
 20
3.9528379296
 30
0.0
 10
5.1585988993
 20
3.9528364351
 30
0.0
 10
5.1588749068
 20
3.9527966307
 30
0.0
 10
5.1591582318
 20
3.9526986316
 30
0.0
 10
5.159441519
 20
3.9525343944
 30
0.0
 10
5.1597221831
 20
3.9523127065
 30
0.0
 10
5.1600003524
 20
3.9520452302
 30
0.0
 10
5.1602748706
 20
3.9517410435
 30
0.0
 10
5.1606416797
 20
3.9512874126
 30
0.0
 10
5.1610839279
 20
3.9506605116
 30
0.0
 10
5.1615867827
 20
3.9498450075
 30
0.0
 10
5.1620699374
 20
3.9489666634
 30
0.0
 10
5.1625332078
 20
3.9480353128
 30
0.0
 10
5.1631323027
 20
3.9467161605
 30
0.0
 10
5.1638277232
 20
3.944974016
 30
0.0
 10
5.1645782118
 20
3.9427848323
 30
0.0
 10
5.165257046
 20
3.9404984107
 30
0.0
 10
5.1658685293
 20
3.9381379535
 30
0.0
 10
5.1664153378
 20
3.935722063
 30
0.0
 10
5.1668995803
 20
3.9332659714
 30
0.0
 10
5.1674667985
 20
3.9299524551
 30
0.0
 10
5.1678090401
 20
3.9274487923
 30
0.0
 10
5.1680043513
 20
3.9257749018
 30
0.0
  0
LINE
  5
379
100
AcDbEntity
  8
0
100
AcDbLine
 62
7
  6
CONTINUOUS
 10
5.3556761832
 20
3.5668476437
 11
5.3431458634
 21
3.5451648501
  0
SPLINE
  5
37A
100
AcDbEntity
  8
0
100
AcDbSpline
 62
7
  6
CONTINUOUS
 70
0
 71
3
 72
16
 73
12
 74
0
 42
0.0000001
 43
0.0000001
 44
0.0000000001
 40
0.0
 40
0.0
 40
0.0
 40
0.0
 40
0.1255403066
 40
0.251003144
 40
0.376293939
 40
0.5014203462
 40
0.5639357257
 40
0.6264000498
 40
0.7511204737
 40
0.8756726627
 40
1.0
 40
1.0
 40
1.0
 40
1.0
 10
5.3184209505
 20
3.59615662
 30
0.0
 10
5.3203553802
 20
3.5946486154
 30
0.0
 10
5.324049773
 20
3.5914035291
 30
0.0
 10
5.3289827448
 20
3.5859309111
 30
0.0
 10
5.3332470237
 20
3.5799322384
 30
0.0
 10
5.3362048493
 20
3.5745650583
 30
0.0
 10
5.3381929608
 20
3.5700988407
 30
0.0
 10
5.3399250194
 20
3.5655357432
 30
0.0
 10
5.3416065443
 20
3.5596674998
 30
0.0
 10
5.3428359685
 20
3.5524587831
 30
0.0
 10
5.3431299659
 20
3.5475938725
 30
0.0
 10
5.3431458634
 20
3.5451648501
 30
0.0
  0
LINE
  5
37B
100
AcDbEntity
  8
0
100
AcDbLine
 62
7
  6
CONTINUOUS
 10
5.3586840943
 20
3.5722977279
 11
5.3556761832
 21
3.5668476437
  0
SPLINE
  5
37C
100
AcDbEntity
  8
0
100
AcDbSpline
 62
7
  6
CONTINUOUS
 70
0
 71
3
 72
15
 73
11
 74
0
 42
0.0000001
 43
0.0000001
 44
0.0000000001
 40
0.0
 40
0.0
 40
0.0
 40
0.0
 40
0.1197221261
 40
0.2410922788
 40
0.3640928669
 40
0.4887170599
 40
0.6148362319
 40
0.7422518957
 40
0.8707574155
 40
1.0
 40
1.0
 40
1.0
 40
1.0
 10
5.3556761832
 20
3.5668476437
 30
0.0
 10
5.3555146475
 20
3.5690648657
 30
0.0
 10
5.3549247991
 20
3.5735146158
 30
0.0
 10
5.3532749141
 20
3.5800849909
 30
0.0
 10
5.3508738648
 20
3.5865172128
 30
0.0
 10
5.3477531792
 20
3.5927307188
 30
0.0
 10
5.3439510319
 20
3.5986493745
 30
0.0
 10
5.3395149765
 20
3.6042013306
 30
0.0
 10
5.334500265
 20
3.6093168612
 30
0.0
 10
5.3308190266
 20
3.6123899809
 30
0.0
 10
5.3289030682
 20
3.6138351584
 30
0.0
  0
SPLINE
  5
37D
100
AcDbEntity
  8
0
100
AcDbSpline
 62
7
  6
CONTINUOUS
 70
0
 71
3
 72
45
 73
41
 74
0
 42
0.0000001
 43
0.0000001
 44
0.0000000001
 40
0.0
 40
0.0
 40
0.0
 40
0.0
 40
0.1041804531
 40
0.1561522658
 40
0.2078040571
 40
0.2589178156
 40
0.3092570626
 40
0.3585151421
 40
0.4063240633
 40
0.4522759771
 40
0.4744086829
 40
0.4958734231
 40
0.5165647768
 40
0.5363582812
 40
0.5550740355
 40
0.5639438357
 40
0.572409893
 40
0.5803878685
 40
0.5877753616
 40
0.594469066
 40
0.6005332932
 40
0.6061824127
 40
0.6116287205
 40
0.616985322
 40
0.6222999249
 40
0.6328707151
 40
0.6433963407
 40
0.6643720273
 40
0.6853029875
 40
0.7062127051
 40
0.7271208794
 40
0.7480306655
 40
0.7689504354
 40
0.7898806812
 40
0.8108233813
 40
0.8317813006
 40
0.8737399973
 40
0.9157625438
 40
0.9578485957
 40
1.0
 40
1.0
 40
1.0
 40
1.0
 10
5.3503126208
 20
3.6100077305
 30
0.0
 10
5.3516646106
 20
3.609001647
 30
0.0
 10
5.3536617251
 20
3.6074534051
 30
0.0
 10
5.3562477098
 20
3.6053053895
 30
0.0
 10
5.3581326593
 20
3.603657996
 30
0.0
 10
5.3599514679
 20
3.60197646
 30
0.0
 10
5.361689975
 20
3.6002667017
 30
0.0
 10
5.363330628
 20
3.5985355586
 30
0.0
 10
5.3648512813
 20
3.5967910355
 30
0.0
 10
5.3660123244
 20
3.5953177268
 30
0.0
 10
5.3668551422
 20
3.5941392854
 30
0.0
 10
5.3674301075
 20
3.5932724298
 30
0.0
 10
5.3679491795
 20
3.5924148138
 30
0.0
 10
5.3684040191
 20
3.5915715975
 30
0.0
 10
5.368725738
 20
3.5908751027
 30
0.0
 10
5.3689352711
 20
3.5903306408
 30
0.0
 10
5.3690614668
 20
3.5899408092
 30
0.0
 10
5.3691538953
 20
3.5895661275
 30
0.0
 10
5.3692057507
 20
3.5892122608
 30
0.0
 10
5.3692060155
 20
3.5888847945
 30
0.0
 10
5.3691495803
 20
3.5885904008
 30
0.0
 10
5.3690456128
 20
3.5883316122
 30
0.0
 10
5.3689134711
 20
3.5881000583
 30
0.0
 10
5.368766084
 20
3.5878848153
 30
0.0
 10
5.3685598998
 20
3.5876098842
 30
0.0
 10
5.3682947492
 20
3.5872748496
 30
0.0
 10
5.3678699868
 20
3.5867431211
 30
0.0
 10
5.3673461416
 20
3.5860760009
 30
0.0
 10
5.3667356292
 20
3.5852636327
 30
0.0
 10
5.3661395932
 20
3.5844419606
 30
0.0
 10
5.3655572579
 20
3.5836109487
 30
0.0
 10
5.3649856593
 20
3.5827723334
 30
0.0
 10
5.3644241813
 20
3.5819264839
 30
0.0
 10
5.3638711709
 20
3.5810744471
 30
0.0
 10
5.3633259519
 20
3.5802166737
 30
0.0
 10
5.3626082474
 20
3.5790655358
 30
0.0
 10
5.3617270448
 20
3.5776145677
 30
0.0
 10
5.3606924115
 20
3.5758571535
 30
0.0
 10
5.3596774764
 20
3.5740847088
 30
0.0
 10
5.3590133904
 20
3.5728947993
 30
0.0
 10
5.3586840943
 20
3.5722977328
 30
0.0
  0
SPLINE
  5
37E
100
AcDbEntity
  8
0
100
AcDbSpline
 62
7
  6
CONTINUOUS
 70
0
 71
3
 72
11
 73
7
 74
0
 42
0.0000001
 43
0.0000001
 44
0.0000000001
 40
0.0
 40
0.0
 40
0.0
 40
0.0
 40
0.252241878
 40
0.502887893
 40
0.7520594172
 40
1.0
 40
1.0
 40
1.0
 40
1.0
 10
5.3586840943
 20
3.5722977328
 30
0.0
 10
5.3587216492
 20
3.5755051539
 30
0.0
 10
5.3583180744
 20
3.5819159673
 30
0.0
 10
5.3562730819
 20
3.5912951938
 30
0.0
 10
5.35283776
 20
3.6002009724
 30
0.0
 10
5.3496616831
 20
3.6057017479
 30
0.0
 10
5.3478760714
 20
3.6083003327
 30
0.0
  0
SPLINE
  5
37F
100
AcDbEntity
  8
0
100
AcDbSpline
 62
7
  6
CONTINUOUS
 70
0
 71
3
 72
12
 73
8
 74
0
 42
0.0000001
 43
0.0000001
 44
0.0000000001
 40
0.0
 40
0.0
 40
0.0
 40
0.0
 40
0.257449071
 40
0.5112373396
 40
0.636145678
 40
0.7594022468
 40
1.0
 40
1.0
 40
1.0
 40
1.0
 10
5.3596406722
 20
3.5605836496
 30
0.0
 10
5.3590812484
 20
3.5609316093
 30
0.0
 10
5.3580426672
 20
3.5617471805
 30
0.0
 10
5.3570078076
 20
3.5630228301
 30
0.0
 10
5.3563836368
 20
3.5641487937
 30
0.0
 10
5.3559106392
 20
3.5653087769
 30
0.0
 10
5.3557198827
 20
3.5662335093
 30
0.0
 10
5.3556761836
 20
3.5668476444
 30
0.0
  0
SPLINE
  5
380
100
AcDbEntity
  8
0
100
AcDbSpline
 62
7
  6
CONTINUOUS
 70
0
 71
3
 72
12
 73
8
 74
0
 42
0.0000001
 43
0.0000001
 44
0.0000000001
 40
0.0
 40
0.0
 40
0.0
 40
0.0
 40
0.2582011337
 40
0.5118990033
 40
0.636599211
 40
0.7596296348
 40
1.0
 40
1.0
 40
1.0
 40
1.0
 10
5.3626761319
 20
3.5665357418
 30
0.0
 10
5.3621396107
 20
3.5668527048
 30
0.0
 10
5.3611382004
 20
3.5675941235
 30
0.0
 10
5.3601177392
 20
3.5687598502
 30
0.0
 10
5.3594839105
 20
3.5697937402
 30
0.0
 10
5.3589865373
 20
3.5708635044
 30
0.0
 10
5.3587598049
 20
3.5717225704
 30
0.0
 10
5.3586840949
 20
3.572297729
 30
0.0
  0
SPLINE
  5
381
100
AcDbEntity
  8
0
100
AcDbSpline
 62
7
  6
CONTINUOUS
 70
0
 71
3
 72
12
 73
8
 74
0
 42
0.0000001
 43
0.0000001
 44
0.0000000001
 40
0.0
 40
0.0
 40
0.0
 40
0.0
 40
0.2582010112
 40
0.5118986014
 40
0.6365987064
 40
0.7596291279
 40
1.0
 40
1.0
 40
1.0
 40
1.0
 10
5.1365382765
 20
3.9582175671
 30
0.0
 10
5.1365445446
 20
3.957594484
 30
0.0
 10
5.1366859724
 20
3.9563566133
 30
0.0
 10
5.1371853068
 20
3.9548901149
 30
0.0
 10
5.1377637563
 20
3.9538243395
 30
0.0
 10
5.1384414885
 20
3.9528587913
 30
0.0
 10
5.1390720613
 20
3.9522329468
 30
0.0
 10
5.1395322809
 20
3.9518798224
 30
0.0
  0
SPLINE
  5
382
100
AcDbEntity
  8
0
100
AcDbSpline
 62
7
  6
CONTINUOUS
 70
0
 71
3
 72
12
 73
8
 74
0
 42
0.0000001
 43
0.0000001
 44
0.0000000001
 40
0.0
 40
0.0
 40
0.0
 40
0.0
 40
0.257449155
 40
0.5112374003
 40
0.6361457059
 40
0.7594022474
 40
1.0
 40
1.0
 40
1.0
 40
1.0
 10
5.1298658667
 20
3.9585652849
 30
0.0
 10
5.1298874964
 20
3.9579068297
 30
0.0
 10
5.1300745107
 20
3.9565996063
 30
0.0
 10
5.1306618254
 20
3.9550655666
 30
0.0
 10
5.1313248527
 20
3.9539620371
 30
0.0
 10
5.1320929285
 20
3.9529724177
 30
0.0
 10
5.132798392
 20
3.9523448518
 30
0.0
 10
5.133308399
 20
3.9519999397
 30
0.0
  0
SPLINE
  5
383
100
AcDbEntity
  8
0
100
AcDbSpline
 62
7
  6
CONTINUOUS
 70
0
 71
3
 72
12
 73
8
 74
0
 42
0.0000001
 43
0.0000001
 44
0.0000000001
 40
0.0
 40
0.0
 40
0.0
 40
0.0
 40
0.2573968745
 40
0.5111698397
 40
0.6360842576
 40
0.7593551351
 40
1.0
 40
1.0
 40
1.0
 40
1.0
 10
5.1048483075
 20
3.9585514911
 30
0.0
 10
5.1048688551
 20
3.957894611
 30
0.0
 10
5.1050530254
 20
3.956590211
 30
0.0
 10
5.1056351832
 20
3.9550584049
 30
0.0
 10
5.1062934184
 20
3.9539553733
 30
0.0
 10
5.1070565313
 20
3.95296526
 30
0.0
 10
5.1077579573
 20
3.9523362435
 30
0.0
 10
5.108265381
 20
3.9519897693
 30
0.0
  0
LINE
  5
384
100
AcDbEntity
  8
0
100
AcDbLine
 62
7
  6
CONTINUOUS
 10
5.3900271334
 20
3.5180979081
 11
5.4025398263
 21
3.5397909051
  0
SPLINE
  5
385
100
AcDbEntity
  8
0
100
AcDbSpline
 62
7
  6
CONTINUOUS
 70
0
 71
3
 72
15
 73
11
 74
0
 42
0.0000001
 43
0.0000001
 44
0.0000000001
 40
0.0
 40
0.0
 40
0.0
 40
0.0
 40
0.1197220972
 40
0.2410922324
 40
0.3640928162
 40
0.4887170134
 40
0.6148361948
 40
0.7422518709
 40
0.8707574038
 40
1.0
 40
1.0
 40
1.0
 40
1.0
 10
5.4025398263
 20
3.5397909051
 30
0.0
 10
5.4045407643
 20
3.5407596215
 30
0.0
 10
5.4086892846
 20
3.5424736715
 30
0.0
 10
5.415204338
 20
3.5443300152
 30
0.0
 10
5.4219753298
 20
3.5454667559
 30
0.0
 10
5.4289167265
 20
3.5458709158
 30
0.0
 10
5.4359435066
 20
3.5455374881
 30
0.0
 10
5.4429696699
 20
3.5444717305
 30
0.0
 10
5.449907206
 20
3.5426866299
 30
0.0
 10
5.4544092257
 20
3.5410351451
 30
0.0
 10
5.4566187658
 20
3.540098466
 30
0.0
  0
SPLINE
  5
386
100
AcDbEntity
  8
0
100
AcDbSpline
 62
7
  6
CONTINUOUS
 70
0
 71
3
 72
15
 73
11
 74
0
 42
0.0000001
 43
0.0000001
 44
0.0000000001
 40
0.0
 40
0.0
 40
0.0
 40
0.0
 40
0.1243342854
 40
0.2488920105
 40
0.3736188091
 40
0.4985571434
 40
0.6236892706
 40
0.7489859157
 40
0.8744534872
 40
1.0
 40
1.0
 40
1.0
 40
1.0
 10
5.3900271334
 20
3.5180979081
 30
0.0
 10
5.392138705
 20
3.519298636
 30
0.0
 10
5.3964986819
 20
3.5214766243
 30
0.0
 10
5.4033567666
 20
3.5240162279
 30
0.0
 10
5.4104651108
 20
3.5257897544
 30
0.0
 10
5.4177379975
 20
3.5267630081
 30
0.0
 10
5.4250857974
 20
3.5269089855
 30
0.0
 10
5.4324132289
 20
3.5262152939
 30
0.0
 10
5.4396190046
 20
3.5246793399
 30
0.0
 10
5.4442763946
 20
3.5231022327
 30
0.0
 10
5.4465497718
 20
3.5221814418
 30
0.0
  0
LINE
  5
387
100
AcDbEntity
  8
0
100
AcDbLine
 62
7
  6
CONTINUOUS
 10
5.4025398262
 20
3.5397909051
 11
5.4057557882
 21
3.5451208848
  0
SPLINE
  5
388
100
AcDbEntity
  8
0
100
AcDbSpline
 62
7
  6
CONTINUOUS
 70
0
 71
3
 72
15
 73
11
 74
0
 42
0.0000001
 43
0.0000001
 44
0.0000000001
 40
0.0
 40
0.0
 40
0.0
 40
0.0
 40
0.1267081018
 40
0.252861187
 40
0.3784149504
 40
0.5034498226
 40
0.6280250236
 40
0.7522234249
 40
0.8761928433
 40
1.0
 40
1.0
 40
1.0
 40
1.0
 10
5.4057557882
 20
3.5451208848
 30
0.0
 10
5.4077734988
 20
3.5463175273
 30
0.0
 10
5.4119342637
 20
3.5484874303
 30
0.0
 10
5.4184780018
 20
3.5510281761
 30
0.0
 10
5.4252348921
 20
3.5528173017
 30
0.0
 10
5.4321208976
 20
3.5538330365
 30
0.0
 10
5.4390526968
 20
3.5540621429
 30
0.0
 10
5.4459462269
 20
3.5535023218
 30
0.0
 10
5.4527155437
 20
3.5521596927
 30
0.0
 10
5.4570944738
 20
3.5507530397
 30
0.0
 10
5.4592328083
 20
3.5499274884
 30
0.0
  0
SPLINE
  5
389
100
AcDbEntity
  8
0
100
AcDbSpline
 62
7
  6
CONTINUOUS
 70
0
 71
3
 72
45
 73
41
 74
0
 42
0.0000001
 43
0.0000001
 44
0.0000000001
 40
0.0
 40
0.0
 40
0.0
 40
0.0
 40
0.0421516044
 40
0.0842378544
 40
0.1262606399
 40
0.1682195673
 40
0.1891775516
 40
0.2101203858
 40
0.2310507061
 40
0.2519705424
 40
0.2728805383
 40
0.2937887384
 40
0.3146987698
 40
0.3356295835
 40
0.3566052473
 40
0.3671309878
 40
0.3777023991
 40
0.3830174301
 40
0.3883719685
 40
0.3938187415
 40
0.399470071
 40
0.4055317794
 40
0.4122288135
 40
0.4196132403
 40
0.4275928863
 40
0.4360588899
 40
0.4449272183
 40
0.4636435982
 40
0.4834370542
 40
0.5041284805
 40
0.5255926977
 40
0.5477261347
 40
0.5936780083
 40
0.6414866251
 40
0.6907450448
 40
0.7410834792
 40
0.7921975329
 40
0.8438485033
 40
0.8958200328
 40
1.0
 40
1.0
 40
1.0
 40
1.0
 10
5.4057557924
 20
3.5451208873
 30
0.0
 10
5.406108221
 20
3.5457046022
 30
0.0
 10
5.4068066737
 20
3.5468746781
 30
0.0
 10
5.4078341915
 20
3.5486398709
 30
0.0
 10
5.4088388471
 20
3.550414606
 30
0.0
 10
5.4096548267
 20
3.5519032413
 30
0.0
 10
5.410292891
 20
3.553100368
 30
0.0
 10
5.4107631362
 20
3.554001433
 30
0.0
 10
5.4112245205
 20
3.5549063759
 30
0.0
 10
5.4116763033
 20
3.5558155641
 30
0.0
 10
5.412116783
 20
3.5567298886
 30
0.0
 10
5.4125452685
 20
3.5576497329
 30
0.0
 10
5.4129588949
 20
3.5585767305
 30
0.0
 10
5.4133571188
 20
3.5595116586
 30
0.0
 10
5.4136729075
 20
3.5602988957
 30
0.0
 10
5.4139210432
 20
3.5609326128
 30
0.0
 10
5.4140785878
 20
3.5613298004
 30
0.0
 10
5.4142140396
 20
3.5616456061
 30
0.0
 10
5.4143260298
 20
3.5618811883
 30
0.0
 10
5.4144606495
 20
3.5621113677
 30
0.0
 10
5.414633125
 20
3.562330495
 30
0.0
 10
5.4148596571
 20
3.5625268621
 30
0.0
 10
5.4151435343
 20
3.5626900774
 30
0.0
 10
5.4154758538
 20
3.5628222957
 30
0.0
 10
5.4158465797
 20
3.5629294593
 30
0.0
 10
5.4162472722
 20
3.5630151056
 30
0.0
 10
5.4168235327
 20
3.5631059562
 30
0.0
 10
5.417587569
 20
3.5631755039
 30
0.0
 10
5.4185452436
 20
3.5632032368
 30
0.0
 10
5.4195474892
 20
3.5631824891
 30
0.0
 10
5.4205856977
 20
3.5631180177
 30
0.0
 10
5.4220276645
 20
3.5629772729
 30
0.0
 10
5.4238841162
 20
3.5627084525
 30
0.0
 10
5.4261552492
 20
3.5622638028
 30
0.0
 10
5.4284747655
 20
3.5617084797
 30
0.0
 10
5.430824723
 20
3.5610578112
 30
0.0
 10
5.4331903498
 20
3.560323416
 30
0.0
 10
5.4355595088
 20
3.5595147365
 30
0.0
 10
5.4387127073
 20
3.5583492037
 30
0.0
 10
5.4410520636
 20
3.5573937622
 30
0.0
 10
5.4425993509
 20
3.5567259614
 30
0.0
  0
LINE
  5
38A
100
AcDbEntity
  8
0
100
AcDbLine
 62
7
  6
CONTINUOUS
 10
5.8472753904
 20
3.5397909064
 11
5.8597880807
 21
3.5180979343
  0
SPLINE
  5
38B
100
AcDbEntity
  8
0
100
AcDbSpline
 62
7
  6
CONTINUOUS
 70
0
 71
3
 72
16
 73
12
 74
0
 42
0.0000001
 43
0.0000001
 44
0.0000000001
 40
0.0
 40
0.0
 40
0.0
 40
0.0
 40
0.1255403066
 40
0.251003144
 40
0.376293939
 40
0.5014203462
 40
0.5639357257
 40
0.6264000498
 40
0.7511204737
 40
0.8756726627
 40
1.0
 40
1.0
 40
1.0
 40
1.0
 10
5.8032654561
 20
3.5221814166
 30
0.0
 10
5.8055386412
 20
3.5231026795
 30
0.0
 10
5.8101961648
 20
3.5246795744
 30
0.0
 10
5.8174020769
 20
3.5262153443
 30
0.0
 10
5.8247292193
 20
3.5269089818
 30
0.0
 10
5.8308562464
 20
3.5267869438
 30
0.0
 10
5.8357181601
 20
3.5262755901
 30
0.0
 10
5.8405359478
 20
3.5254940482
 30
0.0
 10
5.8464587581
 20
3.5240161697
 30
0.0
 10
5.8533164019
 20
3.521476524
 30
0.0
 10
5.8576765368
 20
3.5192986779
 30
0.0
 10
5.8597880807
 20
3.5180979343
 30
0.0
  0
LINE
  5
38C
100
AcDbEntity
  8
0
100
AcDbLine
 62
7
  6
CONTINUOUS
 10
5.8440594347
 20
3.5451208759
 11
5.8472753904
 21
3.5397909064
  0
SPLINE
  5
38D
100
AcDbEntity
  8
0
100
AcDbSpline
 62
7
  6
CONTINUOUS
 70
0
 71
3
 72
15
 73
11
 74
0
 42
0.0000001
 43
0.0000001
 44
0.0000000001
 40
0.0
 40
0.0
 40
0.0
 40
0.0
 40
0.1197221261
 40
0.2410922788
 40
0.3640928669
 40
0.4887170599
 40
0.6148362319
 40
0.7422518957
 40
0.8707574155
 40
1.0
 40
1.0
 40
1.0
 40
1.0
 10
5.8472753904
 20
3.5397909064
 30
0.0
 10
5.845274452
 20
3.5407596234
 30
0.0
 10
5.8411259312
 20
3.5424736747
 30
0.0
 10
5.8346108769
 20
3.5443300199
 30
0.0
 10
5.8278398847
 20
3.5454667612
 30
0.0
 10
5.8208984879
 20
3.5458709212
 30
0.0
 10
5.8138717081
 20
3.5455374929
 30
0.0
 10
5.8068455454
 20
3.5444717343
 30
0.0
 10
5.7999080101
 20
3.5426866321
 30
0.0
 10
5.7954059912
 20
3.5410351459
 30
0.0
 10
5.7931964516
 20
3.540098466
 30
0.0
  0
SPLINE
  5
38E
100
AcDbEntity
  8
0
100
AcDbSpline
 62
7
  6
CONTINUOUS
 70
0
 71
3
 72
45
 73
41
 74
0
 42
0.0000001
 43
0.0000001
 44
0.0000000001
 40
0.0
 40
0.0
 40
0.0
 40
0.0
 40
0.1041804531
 40
0.1561522658
 40
0.2078040571
 40
0.2589178156
 40
0.3092570626
 40
0.3585151421
 40
0.4063240633
 40
0.4522759771
 40
0.4744086829
 40
0.4958734231
 40
0.5165647768
 40
0.5363582812
 40
0.5550740355
 40
0.5639438357
 40
0.572409893
 40
0.5803878685
 40
0.5877753616
 40
0.594469066
 40
0.6005332932
 40
0.6061824127
 40
0.6116287205
 40
0.616985322
 40
0.6222999249
 40
0.6328707151
 40
0.6433963407
 40
0.6643720273
 40
0.6853029875
 40
0.7062127051
 40
0.7271208794
 40
0.7480306655
 40
0.7689504354
 40
0.7898806812
 40
0.8108233813
 40
0.8317813006
 40
0.8737399973
 40
0.9157625438
 40
0.9578485957
 40
1.0
 40
1.0
 40
1.0
 40
1.0
 10
5.8072158777
 20
3.5567259685
 30
0.0
 10
5.8087631665
 20
3.5573937843
 30
0.0
 10
5.8111025405
 20
3.5583492152
 30
0.0
 10
5.8142557689
 20
3.5595147358
 30
0.0
 10
5.8166249283
 20
3.5603234532
 30
0.0
 10
5.8189905855
 20
3.5610578197
 30
0.0
 10
5.8213405332
 20
3.5617085318
 30
0.0
 10
5.8236600735
 20
3.5622638075
 30
0.0
 10
5.8259312015
 20
3.5627084703
 30
0.0
 10
5.8277876458
 20
3.5629773088
 30
0.0
 10
5.829229615
 20
3.5631179897
 30
0.0
 10
5.8302678166
 20
3.5631824965
 30
0.0
 10
5.8312700698
 20
3.563203218
 30
0.0
 10
5.8322277363
 20
3.5631755125
 30
0.0
 10
5.832991778
 20
3.5631058818
 30
0.0
 10
5.8335680624
 20
3.5630151119
 30
0.0
 10
5.8339687643
 20
3.5629294847
 30
0.0
 10
5.8343394624
 20
3.5628221893
 30
0.0
 10
5.8346718477
 20
3.5626901641
 30
0.0
 10
5.8349555742
 20
3.5625266602
 30
0.0
 10
5.835182309
 20
3.5623305891
 30
0.0
 10
5.8353544428
 20
3.5621111563
 30
0.0
 10
5.8354889035
 20
3.5618809413
 30
0.0
 10
5.8356016159
 20
3.5616456788
 30
0.0
 10
5.835736621
 20
3.5613296525
 30
0.0
 10
5.8358941943
 20
3.5609325081
 30
0.0
 10
5.8361423035
 20
3.5602987887
 30
0.0
 10
5.8364581239
 20
3.5595115654
 30
0.0
 10
5.8368563992
 20
3.5585766621
 30
0.0
 10
5.8372699701
 20
3.5576496438
 30
0.0
 10
5.8376984799
 20
3.5567298206
 30
0.0
 10
5.8381389427
 20
3.555815494
 30
0.0
 10
5.8385907308
 20
3.5549063151
 30
0.0
 10
5.8390521111
 20
3.5540013756
 30
0.0
 10
5.8395223552
 20
3.5531003154
 30
0.0
 10
5.8401604176
 20
3.5519031961
 30
0.0
 10
5.8409763916
 20
3.5504145682
 30
0.0
 10
5.8419810402
 20
3.5486398424
 30
0.0
 10
5.8430085548
 20
3.5468746605
 30
0.0
 10
5.8437070037
 20
3.5457045904
 30
0.0
 10
5.8440594304
 20
3.5451208784
 30
0.0
  0
SPLINE
  5
38F
100
AcDbEntity
  8
0
100
AcDbSpline
 62
7
  6
CONTINUOUS
 70
0
 71
3
 72
15
 73
11
 74
0
 42
0.0000001
 43
0.0000001
 44
0.0000000001
 40
0.0
 40
0.0
 40
0.0
 40
0.0
 40
0.1267082405
 40
0.2528614429
 40
0.378415276
 40
0.5034501712
 40
0.6280253533
 40
0.7522236923
 40
0.8761930016
 40
1.0
 40
1.0
 40
1.0
 40
1.0
 10
5.8440594304
 20
3.5451208784
 30
0.0
 10
5.8420417166
 20
3.5463175202
 30
0.0
 10
5.8378809457
 20
3.5484874212
 30
0.0
 10
5.831337201
 20
3.5510281654
 30
0.0
 10
5.8245803072
 20
3.5528172911
 30
0.0
 10
5.8176943008
 20
3.5538330268
 30
0.0
 10
5.8107625032
 20
3.5540621347
 30
0.0
 10
5.8038689768
 20
3.5535023157
 30
0.0
 10
5.7970996661
 20
3.5521596895
 30
0.0
 10
5.7927207407
 20
3.5507530386
 30
0.0
 10
5.7905824091
 20
3.5499274884
 30
0.0
  0
SPLINE
  5
390
100
AcDbEntity
  8
0
100
AcDbSpline
 62
7
  6
CONTINUOUS
 70
0
 71
3
 72
12
 73
8
 74
0
 42
0.0000001
 43
0.0000001
 44
0.0000000001
 40
0.0
 40
0.0
 40
0.0
 40
0.0
 40
0.257449071
 40
0.5112373396
 40
0.636145678
 40
0.7594022468
 40
1.0
 40
1.0
 40
1.0
 40
1.0
 10
5.854682413
 20
3.5400922576
 30
0.0
 10
5.8541013591
 20
3.5397817622
 30
0.0
 10
5.8528757632
 20
3.53929011
 30
0.0
 10
5.8512535884
 20
3.5390317202
 30
0.0
 10
5.8499663899
 20
3.5390541541
 30
0.0
 10
5.8487253162
 20
3.5392245178
 30
0.0
 10
5.8478290963
 20
3.5395216841
 30
0.0
 10
5.84727539
 20
3.539790907
 30
0.0
  0
SPLINE
  5
391
100
AcDbEntity
  8
0
100
AcDbSpline
 62
7
  6
CONTINUOUS
 70
0
 71
3
 72
12
 73
8
 74
0
 42
0.0000001
 43
0.0000001
 44
0.0000000001
 40
0.0
 40
0.0
 40
0.0
 40
0.0
 40
0.2582011337
 40
0.5118990033
 40
0.636599211
 40
0.7596296348
 40
1.0
 40
1.0
 40
1.0
 40
1.0
 10
5.8510454798
 20
3.5456970889
 30
0.0
 10
5.8505027212
 20
3.5453909294
 30
0.0
 10
5.8493599285
 20
3.5448943919
 30
0.0
 10
5.847840149
 20
3.54459351
 30
0.0
 10
5.8466278597
 20
3.5445615432
 30
0.0
 10
5.8454527301
 20
3.5446656875
 30
0.0
 10
5.844595391
 20
3.5448988645
 30
0.0
 10
5.844059434
 20
3.545120877
 30
0.0
  0
SPLINE
  5
392
100
AcDbEntity
  8
0
100
AcDbSpline
 62
7
  6
CONTINUOUS
 70
0
 71
3
 72
12
 73
8
 74
0
 42
0.0000001
 43
0.0000001
 44
0.0000000001
 40
0.0
 40
0.0
 40
0.0
 40
0.0
 40
0.2582010112
 40
0.5118986014
 40
0.6365987064
 40
0.7596291279
 40
1.0
 40
1.0
 40
1.0
 40
1.0
 10
5.3987701412
 20
3.545696874
 30
0.0
 10
5.399312881
 20
3.5453907608
 30
0.0
 10
5.4004556224
 20
3.5448943055
 30
0.0
 10
5.4019753145
 20
3.5445934926
 30
0.0
 10
5.4031875278
 20
3.5445615568
 30
0.0
 10
5.4043625831
 20
3.544665716
 30
0.0
 10
5.4052198668
 20
3.5448988858
 30
0.0
 10
5.4057557913
 20
3.5451208854
 30
0.0
  0
SPLINE
  5
393
100
AcDbEntity
  8
0
100
AcDbSpline
 62
7
  6
CONTINUOUS
 70
0
 71
3
 72
12
 73
8
 74
0
 42
0.0000001
 43
0.0000001
 44
0.0000000001
 40
0.0
 40
0.0
 40
0.0
 40
0.0
 40
0.257449155
 40
0.5112374003
 40
0.6361457059
 40
0.7594022474
 40
1.0
 40
1.0
 40
1.0
 40
1.0
 10
5.3951328038
 20
3.5400922565
 30
0.0
 10
5.3957138577
 20
3.5397817607
 30
0.0
 10
5.3969394534
 20
3.5392901081
 30
0.0
 10
5.3985616281
 20
3.5390317177
 30
0.0
 10
5.3998488263
 20
3.5390541515
 30
0.0
 10
5.4010898998
 20
3.539224515
 30
0.0
 10
5.4019861196
 20
3.5395216813
 30
0.0
 10
5.4025398258
 20
3.5397909043
 30
0.0
  0
SPLINE
  5
394
100
AcDbEntity
  8
0
100
AcDbSpline
 62
7
  6
CONTINUOUS
 70
0
 71
3
 72
12
 73
8
 74
0
 42
0.0000001
 43
0.0000001
 44
0.0000000001
 40
0.0
 40
0.0
 40
0.0
 40
0.0
 40
0.2573968745
 40
0.5111698397
 40
0.6360842576
 40
0.7593551351
 40
1.0
 40
1.0
 40
1.0
 40
1.0
 10
5.3826359699
 20
3.5184195177
 30
0.0
 10
5.3832151186
 20
3.5181088725
 30
0.0
 10
5.3844368474
 20
3.5176161686
 30
0.0
 10
5.3860545092
 20
3.517354429
 30
0.0
 10
5.3873388802
 20
3.5173729616
 30
0.0
 10
5.3885778999
 20
3.5175387801
 30
0.0
 10
5.3894733572
 20
3.5178317246
 30
0.0
 10
5.3900271245
 20
3.5180979294
 30
0.0
  0
LINE
  5
395
100
AcDbEntity
  8
0
100
AcDbLine
 62
7
  6
CONTINUOUS
 10
5.906669375
 20
3.5451648341
 11
5.8941390349
 21
3.5668476425
  0
SPLINE
  5
396
100
AcDbEntity
  8
0
100
AcDbSpline
 62
7
  6
CONTINUOUS
 70
0
 71
3
 72
15
 73
11
 74
0
 42
0.0000001
 43
0.0000001
 44
0.0000000001
 40
0.0
 40
0.0
 40
0.0
 40
0.0
 40
0.1197220972
 40
0.2410922324
 40
0.3640928162
 40
0.4887170134
 40
0.6148361948
 40
0.7422518709
 40
0.8707574038
 40
1.0
 40
1.0
 40
1.0
 40
1.0
 10
5.8941390349
 20
3.5668476425
 30
0.0
 10
5.894300571
 20
3.5690648639
 30
0.0
 10
5.8948904203
 20
3.5735146128
 30
0.0
 10
5.8965403062
 20
3.5800849865
 30
0.0
 10
5.8989413558
 20
3.5865172076
 30
0.0
 10
5.9020620414
 20
3.5927307135
 30
0.0
 10
5.9058641883
 20
3.5986493698
 30
0.0
 10
5.910300243
 20
3.6042013269
 30
0.0
 10
5.9153149536
 20
3.6093168591
 30
0.0
 10
5.9189961912
 20
3.6123899801
 30
0.0
 10
5.9209121492
 20
3.6138351584
 30
0.0
  0
SPLINE
  5
397
100
AcDbEntity
  8
0
100
AcDbSpline
 62
7
  6
CONTINUOUS
 70
0
 71
3
 72
15
 73
11
 74
0
 42
0.0000001
 43
0.0000001
 44
0.0000000001
 40
0.0
 40
0.0
 40
0.0
 40
0.0
 40
0.1243342854
 40
0.2488920105
 40
0.3736188091
 40
0.4985571434
 40
0.6236892706
 40
0.7489859157
 40
0.8744534872
 40
1.0
 40
1.0
 40
1.0
 40
1.0
 10
5.906669375
 20
3.5451648341
 30
0.0
 10
5.9066853
 20
3.5475938727
 30
0.0
 10
5.9069790952
 20
3.5524587176
 30
0.0
 10
5.9082087763
 20
3.5596677949
 30
0.0
 10
5.9102270294
 20
3.5667105649
 30
0.0
 10
5.9130206104
 20
3.5734956964
 30
0.0
 10
5.9165680901
 20
3.5799320665
 30
0.0
 10
5.9208325605
 20
3.5859309625
 30
0.0
 10
5.9257656235
 20
3.5914033703
 30
0.0
 10
5.9294601334
 20
3.5946482347
 30
0.0
 10
5.9313942503
 20
3.5961566417
 30
0.0
  0
LINE
  5
398
100
AcDbEntity
  8
0
100
AcDbLine
 62
7
  6
CONTINUOUS
 10
5.8941390349
 20
3.5668476425
 11
5.8911311181
 21
3.5722977371
  0
SPLINE
  5
399
100
AcDbEntity
  8
0
100
AcDbSpline
 62
7
  6
CONTINUOUS
 70
0
 71
3
 72
11
 73
7
 74
0
 42
0.0000001
 43
0.0000001
 44
0.0000000001
 40
0.0
 40
0.0
 40
0.0
 40
0.0
 40
0.2522417184
 40
0.5028876628
 40
0.7520592447
 40
1.0
 40
1.0
 40
1.0
 40
1.0
 10
5.8911311181
 20
3.5722977371
 30
0.0
 10
5.8910935603
 20
3.5755051559
 30
0.0
 10
5.8914971289
 20
3.5819159663
 30
0.0
 10
5.893542119
 20
3.5912951907
 30
0.0
 10
5.8969774436
 20
3.6002009697
 30
0.0
 10
5.9001535241
 20
3.605701746
 30
0.0
 10
5.9019391381
 20
3.6083003316
 30
0.0
  0
SPLINE
  5
39A
100
AcDbEntity
  8
0
100
AcDbSpline
 62
7
  6
CONTINUOUS
 70
0
 71
3
 72
45
 73
41
 74
0
 42
0.0000001
 43
0.0000001
 44
0.0000000001
 40
0.0
 40
0.0
 40
0.0
 40
0.0
 40
0.0421516044
 40
0.0842378544
 40
0.1262606399
 40
0.1682195673
 40
0.1891775516
 40
0.2101203858
 40
0.2310507061
 40
0.2519705424
 40
0.2728805383
 40
0.2937887384
 40
0.3146987698
 40
0.3356295835
 40
0.3566052473
 40
0.3671309878
 40
0.3777023991
 40
0.3830174301
 40
0.3883719685
 40
0.3938187415
 40
0.399470071
 40
0.4055317794
 40
0.4122288135
 40
0.4196132403
 40
0.4275928863
 40
0.4360588899
 40
0.4449272183
 40
0.4636435982
 40
0.4834370542
 40
0.5041284805
 40
0.5255926977
 40
0.5477261347
 40
0.5936780083
 40
0.6414866251
 40
0.6907450448
 40
0.7410834792
 40
0.7921975329
 40
0.8438485033
 40
0.8958200328
 40
1.0
 40
1.0
 40
1.0
 40
1.0
 10
5.891131118
 20
3.572297742
 30
0.0
 10
5.8908018204
 20
3.5728948116
 30
0.0
 10
5.8901377314
 20
3.5740847273
 30
0.0
 10
5.8891227884
 20
3.5758571802
 30
0.0
 10
5.8880881505
 20
3.577614605
 30
0.0
 10
5.8872069444
 20
3.5790655817
 30
0.0
 10
5.8864892344
 20
3.580216725
 30
0.0
 10
5.8859440118
 20
3.5810745017
 30
0.0
 10
5.8853910004
 20
3.5819265437
 30
0.0
 10
5.8848295117
 20
3.5827723932
 30
0.0
 10
5.8842579233
 20
3.5836110221
 30
0.0
 10
5.8836755575
 20
3.5844420236
 30
0.0
 10
5.8830795672
 20
3.5852637333
 30
0.0
 10
5.8824690077
 20
3.5860760694
 30
0.0
 10
5.8819451347
 20
3.586743169
 30
0.0
 10
5.8815203875
 20
3.5872749193
 30
0.0
 10
5.8812551852
 20
3.5876099507
 30
0.0
 10
5.8810494154
 20
3.5878851583
 30
0.0
 10
5.8809013903
 20
3.5880999358
 30
0.0
 10
5.880769359
 20
3.5883316096
 30
0.0
 10
5.8806658269
 20
3.5885905413
 30
0.0
 10
5.880609034
 20
3.5888849075
 30
0.0
 10
5.8806096241
 20
3.58921236
 30
0.0
 10
5.8806612794
 20
3.5895662662
 30
0.0
 10
5.880753836
 20
3.5899409061
 30
0.0
 10
5.8808800103
 20
3.5903307392
 30
0.0
 10
5.8810894616
 20
3.5908752206
 30
0.0
 10
5.8814112497
 20
3.5915716693
 30
0.0
 10
5.8818660696
 20
3.5924149064
 30
0.0
 10
5.8823851605
 20
3.5932725026
 30
0.0
 10
5.8829600986
 20
3.5941393819
 30
0.0
 10
5.8838029706
 20
3.5953177894
 30
0.0
 10
5.8849640017
 20
3.5967911135
 30
0.0
 10
5.8864846461
 20
3.5985356475
 30
0.0
 10
5.8881253282
 20
3.600266746
 30
0.0
 10
5.8898638024
 20
3.6019765347
 30
0.0
 10
5.8916826207
 20
3.60365803
 30
0.0
 10
5.8935675372
 20
3.6053054421
 30
0.0
 10
5.8961535174
 20
3.6074534257
 30
0.0
 10
5.8981506322
 20
3.6090016469
 30
0.0
 10
5.8995026083
 20
3.6100077367
 30
0.0
  0
LINE
  5
39B
100
AcDbEntity
  8
0
100
AcDbLine
 62
7
  6
CONTINUOUS
 10
6.1165068159
 20
3.9519999397
 11
6.141549826
 21
3.9519897613
  0
SPLINE
  5
39C
100
AcDbEntity
  8
0
100
AcDbSpline
 62
7
  6
CONTINUOUS
 70
0
 71
3
 72
16
 73
12
 74
0
 42
0.0000001
 43
0.0000001
 44
0.0000000001
 40
0.0
 40
0.0
 40
0.0
 40
0.0
 40
0.1255403066
 40
0.251003144
 40
0.376293939
 40
0.5014203462
 40
0.5639357257
 40
0.6264000498
 40
0.7511204737
 40
0.8756726627
 40
1.0
 40
1.0
 40
1.0
 40
1.0
 10
6.1097521143
 20
3.9050814736
 30
0.0
 10
6.1100908697
 20
3.9075107411
 30
0.0
 10
6.1110540005
 20
3.9123327223
 30
0.0
 10
6.1133269408
 20
3.9193411102
 30
0.0
 10
6.1163898043
 20
3.9260334205
 30
0.0
 10
6.1195590059
 20
3.9312785626
 30
0.0
 10
6.122432808
 20
3.9352334265
 30
0.0
 10
6.125518537
 20
3.939014982
 30
0.0
 10
6.1297598225
 20
3.943405347
 30
0.0
 10
6.1353880421
 20
3.9480744179
 30
0.0
 10
6.1394541796
 20
3.9507614824
 30
0.0
 10
6.141549826
 20
3.9519897613
 30
0.0
  0
LINE
  5
39D
100
AcDbEntity
  8
0
100
AcDbLine
 62
7
  6
CONTINUOUS
 10
6.1102829491
 20
3.951879825
 11
6.116506816
 21
3.9519999397
  0
SPLINE
  5
39E
100
AcDbEntity
  8
0
100
AcDbSpline
 62
7
  6
CONTINUOUS
 70
0
 71
3
 72
15
 73
11
 74
0
 42
0.0000001
 43
0.0000001
 44
0.0000000001
 40
0.0
 40
0.0
 40
0.0
 40
0.0
 40
0.1197221261
 40
0.2410922788
 40
0.3640928669
 40
0.4887170599
 40
0.6148362319
 40
0.7422518957
 40
0.8707574155
 40
1.0
 40
1.0
 40
1.0
 40
1.0
 10
6.116506816
 20
3.9519999397
 30
0.0
 10
6.1146674132
 20
3.9507514347
 30
0.0
 10
6.1111087408
 20
3.9480157359
 30
0.0
 10
6.1062435716
 20
3.943301706
 30
0.0
 10
6.1018736286
 20
3.9380062254
 30
0.0
 10
6.0980529174
 20
3.9321968794
 30
0.0
 10
6.0948282849
 20
3.9259447954
 30
0.0
 10
6.0922381776
 20
3.9193270807
 30
0.0
 10
6.0903153538
 20
3.9124264478
 30
0.0
 10
6.0894945733
 20
3.907701842
 30
0.0
 10
6.0892009921
 20
3.9053199846
 30
0.0
  0
SPLINE
  5
39F
100
AcDbEntity
  8
0
100
AcDbSpline
 62
7
  6
CONTINUOUS
 70
0
 71
3
 72
45
 73
41
 74
0
 42
0.0000001
 43
0.0000001
 44
0.0000000001
 40
0.0
 40
0.0
 40
0.0
 40
0.0
 40
0.1041804531
 40
0.1561522658
 40
0.2078040571
 40
0.2589178156
 40
0.3092570626
 40
0.3585151421
 40
0.4063240633
 40
0.4522759771
 40
0.4744086829
 40
0.4958734231
 40
0.5165647768
 40
0.5363582812
 40
0.5550740355
 40
0.5639438357
 40
0.572409893
 40
0.5803878685
 40
0.5877753616
 40
0.594469066
 40
0.6005332932
 40
0.6061824127
 40
0.6116287205
 40
0.616985322
 40
0.6222999249
 40
0.6328707151
 40
0.6433963407
 40
0.6643720273
 40
0.6853029875
 40
0.7062127051
 40
0.7271208794
 40
0.7480306655
 40
0.7689504354
 40
0.7898806812
 40
0.8108233813
 40
0.8317813006
 40
0.8737399973
 40
0.9157625438
 40
0.9578485957
 40
1.0
 40
1.0
 40
1.0
 40
1.0
 10
6.0818108656
 20
3.9257749151
 30
0.0
 10
6.0820061645
 20
3.9274488143
 30
0.0
 10
6.0823484241
 20
3.9299524871
 30
0.0
 10
6.0829156678
 20
3.9332660233
 30
0.0
 10
6.0833998777
 20
3.9357221342
 30
0.0
 10
6.0839467263
 20
3.9381380367
 30
0.0
 10
6.0845581669
 20
3.9404985072
 30
0.0
 10
6.0852370542
 20
3.9427849259
 30
0.0
 10
6.0859875289
 20
3.9449741118
 30
0.0
 10
6.0866829301
 20
3.946716259
 30
0.0
 10
6.0872820815
 20
3.9480353813
 30
0.0
 10
6.0877453178
 20
3.9489667437
 30
0.0
 10
6.088228499
 20
3.9498450813
 30
0.0
 10
6.0887313259
 20
3.950660592
 30
0.0
 10
6.0891736487
 20
3.9512874561
 30
0.0
 10
6.0895404
 20
3.9517411482
 30
0.0
 10
6.0898149062
 20
3.9520453526
 30
0.0
 10
6.0900931758
 20
3.9523127389
 30
0.0
 10
6.0903737057
 20
3.9525345803
 30
0.0
 10
6.0906571674
 20
3.9526985428
 30
0.0
 10
6.0909403374
 20
3.9527968653
 30
0.0
 10
6.0912164386
 20
3.9528362211
 30
0.0
 10
6.0914830411
 20
3.95283756
 30
0.0
 10
6.0917431406
 20
3.9528175405
 30
0.0
 10
6.09208433
 20
3.9527764453
 30
0.0
 10
6.0925070537
 20
3.9527143355
 30
0.0
 10
6.0931799254
 20
3.9526123447
 30
0.0
 10
6.0940195909
 20
3.9524922416
 30
0.0
 10
6.0950283787
 20
3.9523697064
 30
0.0
 10
6.0960379855
 20
3.9522643601
 30
0.0
 10
6.0970488306
 20
3.9521755489
 30
0.0
 10
6.0980608921
 20
3.9520998376
 30
0.0
 10
6.0990741582
 20
3.9520365082
 30
0.0
 10
6.100088549
 20
3.9519836055
 30
0.0
 10
6.1011040121
 20
3.9519403187
 30
0.0
 10
6.102459779
 20
3.9518943373
 30
0.0
 10
6.1041569555
 20
3.9518566775
 30
0.0
 10
6.1061962374
 20
3.9518393659
 30
0.0
 10
6.1082386871
 20
3.9518466287
 30
0.0
 10
6.109601222
 20
3.9518664682
 30
0.0
 10
6.1102829448
 20
3.9518798226
 30
0.0
  0
SPLINE
  5
3A0
100
AcDbEntity
  8
0
100
AcDbSpline
 62
7
  6
CONTINUOUS
 70
0
 71
3
 72
15
 73
11
 74
0
 42
0.0000001
 43
0.0000001
 44
0.0000000001
 40
0.0
 40
0.0
 40
0.0
 40
0.0
 40
0.1267082405
 40
0.2528614429
 40
0.378415276
 40
0.5034501712
 40
0.6280253533
 40
0.7522236923
 40
0.8761930016
 40
1.0
 40
1.0
 40
1.0
 40
1.0
 10
6.1102829448
 20
3.9518798226
 30
0.0
 10
6.1082377657
 20
3.9507307521
 30
0.0
 10
6.1042781908
 20
3.9482123693
 30
0.0
 10
6.0988059694
 20
3.9438156922
 30
0.0
 10
6.0938780943
 20
3.9388586134
 30
0.0
 10
6.0895554381
 20
3.9334030248
 30
0.0
 10
6.0858911261
 20
3.9275144659
 30
0.0
 10
6.0829291804
 20
3.9212645875
 30
0.0
 10
6.0807072734
 20
3.9147308792
 30
0.0
 10
6.0797360061
 20
3.9102352932
 30
0.0
 10
6.0793817877
 20
3.9079706686
 30
0.0
  0
SPLINE
  5
3A1
100
AcDbEntity
  8
0
100
AcDbSpline
 62
7
  6
CONTINUOUS
 70
0
 71
3
 72
12
 73
8
 74
0
 42
0.0000001
 43
0.0000001
 44
0.0000000001
 40
0.0
 40
0.0
 40
0.0
 40
0.0
 40
0.257449071
 40
0.5112373396
 40
0.636145678
 40
0.7594022468
 40
1.0
 40
1.0
 40
1.0
 40
1.0
 10
6.1199493494
 20
3.9585652849
 30
0.0
 10
6.1199277194
 20
3.9579068298
 30
0.0
 10
6.1197407047
 20
3.9565996066
 30
0.0
 10
6.1191533895
 20
3.9550655671
 30
0.0
 10
6.1184903618
 20
3.9539620374
 30
0.0
 10
6.1177222857
 20
3.9529724179
 30
0.0
 10
6.1170168222
 20
3.9523448518
 30
0.0
 10
6.1165068152
 20
3.9519999397
 30
0.0
  0
SPLINE
  5
3A2
100
AcDbEntity
  8
0
100
AcDbSpline
 62
7
  6
CONTINUOUS
 70
0
 71
3
 72
12
 73
8
 74
0
 42
0.0000001
 43
0.0000001
 44
0.0000000001
 40
0.0
 40
0.0
 40
0.0
 40
0.0
 40
0.2582011337
 40
0.5118990033
 40
0.636599211
 40
0.7596296348
 40
1.0
 40
1.0
 40
1.0
 40
1.0
 10
6.1132769565
 20
3.9582180241
 30
0.0
 10
6.1132707192
 20
3.9575949016
 30
0.0
 10
6.1131293369
 20
3.9563569454
 30
0.0
 10
6.1126300185
 20
3.9548903368
 30
0.0
 10
6.1120515579
 20
3.95382448
 30
0.0
 10
6.1113738015
 20
3.9528588601
 30
0.0
 10
6.1107431947
 20
3.9522329711
 30
0.0
 10
6.1102829478
 20
3.951879825
 30
0.0
  0
SPLINE
  5
3A3
100
AcDbEntity
  8
0
100
AcDbSpline
 62
7
  6
CONTINUOUS
 70
0
 71
3
 72
12
 73
8
 74
0
 42
0.0000001
 43
0.0000001
 44
0.0000000001
 40
0.0
 40
0.0
 40
0.0
 40
0.0
 40
0.2582010112
 40
0.5118986014
 40
0.6365987064
 40
0.7596291279
 40
1.0
 40
1.0
 40
1.0
 40
1.0
 10
5.8871394734
 20
3.5665359839
 30
0.0
 10
5.8876759451
 20
3.5668529537
 30
0.0
 10
5.8886772587
 20
3.5675943691
 30
0.0
 10
5.8896976163
 20
3.5687600547
 30
0.0
 10
5.8903313802
 20
3.5697938944
 30
0.0
 10
5.8908287034
 20
3.5708636017
 30
0.0
 10
5.8910554142
 20
3.571722616
 30
0.0
 10
5.8911311191
 20
3.5722977401
 30
0.0
  0
ELLIPSE
  5
3A4
100
AcDbEntity
  8
0
100
AcDbEllipse
 62
7
  6
CONTINUOUS
 10
3.922814788
 20
3.979056677
 30
0.0
 11
0.0
 21
0.0625
 31
0.0
 40
0.75
 41
-3.1415926536
 42
-0.0
  0
ELLIPSE
  5
3A5
100
AcDbEntity
  8
0
100
AcDbEllipse
 62
7
  6
CONTINUOUS
 10
4.7614473515
 20
3.979056677
 30
0.0
 11
0.0
 21
0.03125
 31
0.0
 40
0.5675675676
 41
0.0
 42
6.2831853072
  0
ELLIPSE
  5
3A6
100
AcDbEntity
  8
0
100
AcDbEllipse
 62
7
  6
CONTINUOUS
 10
4.7614473515
 20
3.979056677
 30
0.0
 11
-0.0
 21
0.0625
 31
0.0
 40
0.5675675676
 41
0.0
 42
6.2831853072
  0
ENDSEC
  0
SECTION
  2
OBJECTS
  0
DICTIONARY
  5
C
100
AcDbDictionary
280
0
281
1
  3
ACAD_GROUP
350
D
  3
ACAD_MLINESTYLE
350
17
  3
ACAD_LAYOUT
350
1A
  3
ACAD_PLOTSETTINGS
350
19
  3
ACAD_PLOTSTYLENAME
350
E
  0
DICTIONARY
  5
D
102
{ACAD_REACTORS
330
C
102
}
100
AcDbDictionary
280
0
281
1
  0
ACDBDICTIONARYWDFLT
  5
E
102
{ACAD_REACTORS
330
C
102
}
100
AcDbDictionary
281
1
  3
Normal
350
F
100
AcDbDictionaryWithDefault
340
F
  0
DICTIONARY
  5
17
102
{ACAD_REACTORS
330
C
102
}
100
AcDbDictionary
280
0
281
1
  3
Standard
350
18
  0
DICTIONARY
  5
19
102
{ACAD_REACTORS
330
C
102
}
100
AcDbDictionary
281
1
  0
DICTIONARY
  5
1A
102
{ACAD_REACTORS
330
C
102
}
100
AcDbDictionary
281
1
  3
Model
350
3A7
  3
Layout1
350
3A8
  0
ACDBPLACEHOLDER
  5
F
102
{ACAD_REACTORS
330
E
102
}
  0
MLINESTYLE
  5
18
102
{ACAD_REACTORS
330
17
102
}
100
AcDbMlineStyle
  2
STANDARD
 70
0
  3

 62
256
 51
90.0
 52
90.0
 71
2
 49
0.5
 62
256
  6
BYLAYER
 49
-0.5
 62
256
  6
BYLAYER
  0
LAYOUT
  5
3A7
102
{ACAD_REACTORS
330
1A
102
}
100
AcDbPlotSettings
  1

  2
none_device
  4
ANSI_A_(11.00_x_8.50_Inches)
  6

 40
0.0
 41
0.0
 42
0.0
 43
0.0
 44
279.4
 45
215.9
 46
0.0
 47
0.0
 48
0.0
 49
0.0
140
0.0
141
0.0
142
1.0
143
1.0
 70
1024
 72
0
 73
0
 74
0
  7

 75
0
147
1.0
148
0.0
149
0.0
100
AcDbLayout
  1
Model
 70
0
 71
0
 10
0.0
 20
0.0
 11
11.0
 21
8.5
 12
0.0
 22
0.0
 32
0.0
 14
0.0
 24
0.0
 34
0.0
 15
0.0
 25
0.0
 35
0.0
146
0.0
 13
0.0
 23
0.0
 33
0.0
 16
1.0
 26
0.0
 36
0.0
 17
0.0
 27
1.0
 37
0.0
 76
0
330
202
345
0
346
0
  0
LAYOUT
  5
3A8
102
{ACAD_REACTORS
330
1A
102
}
100
AcDbPlotSettings
  1

  2
none_device
  4
ANSI_A_(11.00_x_8.50_Inches)
  6

 40
0.0
 41
0.0
 42
0.0
 43
0.0
 44
279.4
 45
215.9
 46
0.0
 47
0.0
 48
0.0
 49
0.0
140
0.0
141
0.0
142
1.0
143
1.0
 70
0
 72
0
 73
0
 74
0
  7

 75
0
147
1.0
148
0.0
149
0.0
100
AcDbLayout
  1
Layout1
 70
0
 71
1
 10
0.0
 20
0.0
 11
11.0
 21
8.5
 12
0.0
 22
0.0
 32
0.0
 14
0.0
 24
0.0
 34
0.0
 15
0.0
 25
0.0
 35
0.0
146
0.0
 13
0.0
 23
0.0
 33
0.0
 16
1.0
 26
0.0
 36
0.0
 17
0.0
 27
1.0
 37
0.0
 76
0
330
203
345
0
346
0
  0
ENDSEC
  0
EOF
