999
DXF file: 3220-5403_right.dxf
999
Pro/ENGINEER 2018400 by Parametric Technology Corporation
  0
SECTION
  2
HEADER
  9
$ACADVER
  1
AC1027
  9
$DWGCODEPAGE
  3
ANSI_1252
  9
$EXTMAX
 10
11.0
 20
8.5
 30
0.0
  9
$EXTMIN
 10
0.0
 20
0.0
 30
0.0
  9
$LIMMIN
 10
0.0
 20
0.0
  9
$LIMMAX
 10
11.0
 20
8.5
  9
$VIEWCTR
 10
5.5
 20
4.25
  9
$VIEWSIZE
 40
8.5
  9
$CLAYER
  8
0
  9
$LTSCALE
 40
0.605
  9
$CELTYPE
  6
BYLAYER
  9
$DIMSCALE
 40
1.0
  9
$DIMASZ
 40
0.1
  9
$DIMEXO
 40
0.0625
  9
$DIMDLI
 40
0.418
  9
$DIMEXE
 40
0.125
  9
$DIMCEN
 40
0.099
  9
$DIMLFAC
 40
1.0
  9
$DIMBLK
  1
_FILLED
  9
$DIMALT
 70
1
  9
$DIMALTD
 70
1
  9
$DIMALTTD
 70
2
  9
$DIMALTF
 40
25.4
  9
$DIMTXT
 40
0.08
  9
$DIMTOL
 70
1
  9
$DIMLIM
 70
0
  9
$DIMTFAC
 40
1.0
  9
$DIMTP
 40
0.01
  9
$DIMTM
 40
0.01
  9
$DIMGAP
 40
0.09
  9
$DIMDSEP
 70
46
  9
$AUNITS
 70
0
  9
$PDMODE
 70
3
  9
$PDSIZE
 40
0.3125
  9
$HANDSEED
  5
49F
  9
$TILEMODE
 70
1
  9
$MEASUREMENT
 70
0
  9
$INSUNITS
 70
1
  0
ENDSEC
  0
SECTION
  2
CLASSES
  0
CLASS
  1
ACDBDICTIONARYWDFLT
  2
AcDbDictionaryWithDefault
  3
AutoCAD 2000
 90
0
 91
1
280
0
281
0
  0
CLASS
  1
ACDBPLACEHOLDER
  2
AcDbPlaceHolder
  3
AutoCAD 2000
 90
0
 91
1
280
0
281
0
  0
CLASS
  1
LAYOUT
  2
AcDbLayout
  3
AutoCAD 2000
 90
0
 91
0
280
0
281
0
  0
ENDSEC
  0
SECTION
  2
TABLES
  0
TABLE
  2
VPORT
  5
8
100
AcDbSymbolTable
 70
2
  0
VPORT
  5
1F4
100
AcDbSymbolTableRecord
100
AcDbViewportTableRecord
  2
*ACTIVE
 70
0
 10
0.0
 20
0.0
 11
1.0
 21
1.0
 12
5.5
 22
4.25
 13
0.0
 23
0.0
 14
1.0
 24
1.0
 15
0.0
 25
0.0
 16
0.0
 26
0.0
 36
1.0
 17
0.0
 27
0.0
 37
0.0
 40
8.5
 41
1.2941176471
 42
50.0
 43
0.0
 44
0.0
 50
0.0
 51
0.0
 71
0
 72
100
 73
1
 74
1
 75
0
 76
0
 77
0
 78
0
  0
ENDTAB
  0
TABLE
  2
LTYPE
  5
5
100
AcDbSymbolTable
 70
6
  0
LTYPE
  5
14
100
AcDbSymbolTableRecord
100
AcDbLinetypeTableRecord
  2
BYBLOCK
 70
0
  3

 72
65
 73
0
 40
0.0
  0
LTYPE
  5
15
100
AcDbSymbolTableRecord
100
AcDbLinetypeTableRecord
  2
BYLAYER
 70
0
  3

 72
65
 73
0
 40
0.0
  0
LTYPE
  5
16
100
AcDbSymbolTableRecord
100
AcDbLinetypeTableRecord
  2
CONTINUOUS
 70
64
  3
Solid line
 72
65
 73
0
 40
0.0
  0
LTYPE
  5
1F5
100
AcDbSymbolTableRecord
100
AcDbLinetypeTableRecord
  2
CENTER
 70
64
  3
____ _ ____ _ ____ _ ____ _ ____ _ ____ _ ____
 72
65
 73
4
 40
0.6
 49
0.375
 74
0
 49
-0.075
 74
0
 49
0.075
 74
0
 49
-0.075
 74
0
  0
LTYPE
  5
1F6
100
AcDbSymbolTableRecord
100
AcDbLinetypeTableRecord
  2
HIDDEN
 70
64
  3
- - - - - - - - - - - - - - - - - - - -
 72
65
 73
2
 40
0.2
 49
0.1
 74
0
 49
-0.1
 74
0
  0
LTYPE
  5
1F7
100
AcDbSymbolTableRecord
100
AcDbLinetypeTableRecord
  2
PHANTOM
 70
64
  3
_____ _ _ _____ _ _ _____ _ _ _____
 72
65
 73
6
 40
0.8
 49
0.45
 74
0
 49
-0.05
 74
0
 49
0.1
 74
0
 49
-0.05
 74
0
 49
0.1
 74
0
 49
-0.05
 74
0
  0
LTYPE
  5
1F8
100
AcDbSymbolTableRecord
100
AcDbLinetypeTableRecord
  2
DOT
 70
64
  3
. . . . . . . . . . . . . . . . . . . .
 72
65
 73
2
 40
0.2
 49
0.1
 74
0
 49
-0.1
 74
0
  0
LTYPE
  5
1F9
100
AcDbSymbolTableRecord
100
AcDbLinetypeTableRecord
  2
DASHED
 70
64
  3
- - - - - - - - - - - - - - - - - - - -
 72
65
 73
2
 40
0.2
 49
0.1
 74
0
 49
-0.1
 74
0
  0
ENDTAB
  0
TABLE
  2
LAYER
  5
2
100
AcDbSymbolTable
 70
36
  0
LAYER
  5
10
100
AcDbSymbolTableRecord
100
AcDbLayerTableRecord
  2
0
 70
0
 62
7
  6
CONTINUOUS
370
-3
390
F
  0
LAYER
  5
1FA
100
AcDbSymbolTableRecord
100
AcDbLayerTableRecord
  2
DEFAULT_1
 70
0
 62
7
  6
CENTER
370
-3
390
F
  0
LAYER
  5
1FB
100
AcDbSymbolTableRecord
100
AcDbLayerTableRecord
  2
DEFAULT_2
 70
0
 62
8
  6
HIDDEN
370
-3
390
F
  0
LAYER
  5
1FC
100
AcDbSymbolTableRecord
100
AcDbLayerTableRecord
  2
DEFAULT_3
 70
0
 62
7
  6
PHANTOM
370
-3
390
F
  0
LAYER
  5
1FD
100
AcDbSymbolTableRecord
100
AcDbLayerTableRecord
  2
DEFAULT_COORDINATE_SYSTEM
 70
0
 62
7
  6
CONTINUOUS
370
-3
390
F
  0
LAYER
  5
1FE
100
AcDbSymbolTableRecord
100
AcDbLayerTableRecord
  2
DEFAULT_DATUM_AXES
 70
0
 62
7
  6
CONTINUOUS
370
-3
390
F
  0
LAYER
  5
1FF
100
AcDbSymbolTableRecord
100
AcDbLayerTableRecord
  2
DEFAULT_DATUM_PLANES
 70
0
 62
7
  6
CONTINUOUS
370
-3
390
F
  0
ENDTAB
  0
TABLE
  2
STYLE
  5
3
100
AcDbSymbolTable
 70
1
  0
STYLE
  5
11
100
AcDbSymbolTableRecord
100
AcDbTextStyleTableRecord
  2
STANDARD
 70
0
 40
0.0
 41
0.8
 50
0.0
 71
0
 42
0.2
  3
txt
  4

  0
STYLE
  5
200
100
AcDbSymbolTableRecord
100
AcDbTextStyleTableRecord
  2
TEXTSTYLE_1
 70
0
 40
0.0
 41
0.8
 50
0.0
 71
0
 42
0.2
  3
gdt
  4

  0
ENDTAB
  0
TABLE
  2
VIEW
  5
6
100
AcDbSymbolTable
 70
0
  0
ENDTAB
  0
TABLE
  2
UCS
  5
7
100
AcDbSymbolTable
 70
0
  0
ENDTAB
  0
TABLE
  2
APPID
  5
9
100
AcDbSymbolTable
 70
1
  0
APPID
  5
201
100
AcDbSymbolTableRecord
100
AcDbRegAppTableRecord
  2
ACAD
 70
0
  0
ENDTAB
  0
TABLE
  2
BLOCK_RECORD
  5
1
100
AcDbSymbolTable
 70
0
  0
BLOCK_RECORD
  5
202
100
AcDbSymbolTableRecord
100
AcDbBlockTableRecord
  2
*Model_Space
  0
BLOCK_RECORD
  5
203
100
AcDbSymbolTableRecord
100
AcDbBlockTableRecord
  2
*Paper_Space
  0
BLOCK_RECORD
  5
204
100
AcDbSymbolTableRecord
100
AcDbBlockTableRecord
  2
_FILLED
  0
ENDTAB
  0
TABLE
  2
DIMSTYLE
  5
A
100
AcDbSymbolTable
 70
1
100
AcDbDimStyleTable
 71
0
  0
DIMSTYLE
105
205
100
AcDbSymbolTableRecord
100
AcDbDimStyleTableRecord
  2
STANDARD
 70
0
  3

  4

 40
1.0
 41
0.1
 42
0.0625
 43
0.38
 44
0.125
 45
0.0
 46
0.0
 47
0.01
 48
0.01
140
0.08
141
0.09
142
0.0
143
25.4
144
1.0
145
0.0
146
1.0
147
0.09
 71
1.0
 72
0.0
 73
1
 74
1
 75
0
 76
0
 77
0
 78
4
 79
1
170
1
171
1
172
0
173
0
174
0
175
0
176
0
177
0
178
0
270
2
179
2
271
2
272
2
273
2
274
2
275
0
280
0
281
0
282
0
283
1
284
4
285
0
286
0
287
3
288
0
340
11
278
46
341
204
342
204
343
204
344
204
  0
ENDTAB
  0
ENDSEC
  0
SECTION
  2
BLOCKS
  0
BLOCK
  5
20
100
AcDbEntity
  8
0
100
AcDbBlockBegin
  2
*Model_Space
 70
0
 10
0.0
 20
0.0
 30
0.0
  3
*Model_Space
  1

  0
ENDBLK
  5
21
100
AcDbEntity
  8
0
100
AcDbBlockEnd
  0
BLOCK
  5
1C
100
AcDbEntity
  8
0
100
AcDbBlockBegin
  2
*Paper_Space
 70
0
 10
0.0
 20
0.0
 30
0.0
  3
*Paper_Space
  1

  0
ENDBLK
  5
1D
100
AcDbEntity
  8
0
100
AcDbBlockEnd
  0
BLOCK
  5
206
100
AcDbEntity
  8
0
100
AcDbBlockBegin
  2
_FILLED
 70
64
 10
0.0
 20
0.0
  3
_FILLED
  1

  0
SOLID
  5
207
100
AcDbEntity
  8
0
  6
BYBLOCK
 62
0
100
AcDbTrace
 10
0.0
 20
0.0
 11
-1.0
 21
0.2
 12
-1.0
 22
-0.2
 13
-1.0
 23
-0.2
  0
ENDBLK
  5
208
100
AcDbEntity
  8
0
  6
BYBLOCK
 62
0
100
AcDbBlockEnd
  0
ENDSEC
  0
SECTION
  2
ENTITIES
  0
MTEXT
  5
209
100
AcDbEntity
  8
0
100
AcDbMText
 62
2
  6
CONTINUOUS
  7
STANDARD
 71
3
 72
1
 10
5.0157608696
 20
1.1722787267
 30
0.0
 11
1.0
 21
0.0
 31
0.0
 73
2
 44
0.9
  1
SCALE  .500
 40
0.08
 41
0.704
  0
LINE
  5
20A
100
AcDbEntity
  8
0
100
AcDbLine
 62
7
  6
CONTINUOUS
 10
0.0
 20
0.0
 11
0.0
 21
8.5
  0
LINE
  5
20B
100
AcDbEntity
  8
0
100
AcDbLine
 62
7
  6
CONTINUOUS
 10
0.0
 20
0.0
 11
11.0
 21
0.0
  0
LINE
  5
20C
100
AcDbEntity
  8
0
100
AcDbLine
 62
7
  6
CONTINUOUS
 10
0.0
 20
8.5
 11
11.0
 21
8.5
  0
LINE
  5
20D
100
AcDbEntity
  8
0
100
AcDbLine
 62
7
  6
CONTINUOUS
 10
11.0
 20
0.0
 11
11.0
 21
8.5
  0
LINE
  5
20E
100
AcDbEntity
  8
0
100
AcDbLine
 62
7
  6
CONTINUOUS
 10
2.051324959
 20
6.0822787267
 11
2.051324959
 21
6.1557787267
  0
LINE
  5
20F
100
AcDbEntity
  8
0
100
AcDbLine
 62
7
  6
CONTINUOUS
 10
2.083824959
 20
6.3397787267
 11
2.083824959
 21
6.1950693109
  0
LINE
  5
210
100
AcDbEntity
  8
0
100
AcDbLine
 62
7
  6
CONTINUOUS
 10
2.130074959
 20
6.0672787267
 11
2.130074959
 21
5.8407787267
  0
LINE
  5
211
100
AcDbEntity
  8
0
100
AcDbLine
 62
7
  6
CONTINUOUS
 10
6.865074959
 20
1.2672787267
 11
7.980074959
 21
1.2672787267
  0
LINE
  5
212
100
AcDbEntity
  8
0
100
AcDbLine
 62
7
  6
CONTINUOUS
 10
7.980074959
 20
1.3358877106
 11
6.865074959
 21
1.3358877106
  0
LINE
  5
213
100
AcDbEntity
  8
0
100
AcDbLine
 62
7
  6
CONTINUOUS
 10
7.975074959
 20
1.3445479646
 11
6.870074959
 21
1.3445479646
  0
LINE
  5
214
100
AcDbEntity
  8
0
100
AcDbLine
 62
7
  6
CONTINUOUS
 10
6.9127544509
 20
1.3691889807
 11
7.9323954671
 21
1.3691889807
  0
LINE
  5
215
100
AcDbEntity
  8
0
100
AcDbLine
 62
7
  6
CONTINUOUS
 10
6.9177548596
 20
1.3705287267
 11
7.9273950583
 21
1.3705287267
  0
LINE
  5
216
100
AcDbEntity
  8
0
100
AcDbLine
 62
7
  6
CONTINUOUS
 10
6.991324959
 20
1.3805287267
 11
7.853824959
 21
1.3805287267
  0
LINE
  5
217
100
AcDbEntity
  8
0
100
AcDbLine
 62
7
  6
CONTINUOUS
 10
2.395074959
 20
6.1656013727
 11
2.395074959
 21
6.2972787267
  0
LINE
  5
218
100
AcDbEntity
  8
0
100
AcDbLine
 62
7
  6
CONTINUOUS
 10
6.991324959
 20
1.4697787267
 11
7.853824959
 21
1.4697787267
  0
LINE
  5
219
100
AcDbEntity
  8
0
100
AcDbLine
 62
7
  6
CONTINUOUS
 10
7.001324959
 20
1.4797787267
 11
7.843824959
 21
1.4797787267
  0
LINE
  5
21A
100
AcDbEntity
  8
0
100
AcDbLine
 62
7
  6
CONTINUOUS
 10
2.660074959
 20
6.0672787267
 11
2.660074959
 21
5.8407787267
  0
LINE
  5
21B
100
AcDbEntity
  8
0
100
AcDbLine
 62
7
  6
CONTINUOUS
 10
2.706324959
 20
6.2547787267
 11
2.706324959
 21
6.1950693107
  0
LINE
  5
21C
100
AcDbEntity
  8
0
100
AcDbLine
 62
7
  6
CONTINUOUS
 10
2.738824959
 20
6.0822787267
 11
2.738824959
 21
6.1557787267
  0
LINE
  5
21D
100
AcDbEntity
  8
0
100
AcDbLine
 62
7
  6
CONTINUOUS
 10
2.955324959
 20
6.3722787267
 11
2.955324959
 21
7.0597787267
  0
LINE
  5
21E
100
AcDbEntity
  8
0
100
AcDbLine
 62
7
  6
CONTINUOUS
 10
3.028824959
 20
7.0597787267
 11
3.028824959
 21
6.3722787267
  0
LINE
  5
21F
100
AcDbEntity
  8
0
100
AcDbLine
 62
7
  6
CONTINUOUS
 10
3.038824959
 20
7.0497787267
 11
3.038824959
 21
6.3822787267
  0
LINE
  5
220
100
AcDbEntity
  8
0
100
AcDbLine
 62
7
  6
CONTINUOUS
 10
7.047574959
 20
2.1222787267
 11
7.797574959
 21
2.1222787267
  0
LINE
  5
221
100
AcDbEntity
  8
0
100
AcDbLine
 62
7
  6
CONTINUOUS
 10
7.0735557211
 20
2.1372787267
 11
7.7715941969
 21
2.1372787267
  0
LINE
  5
222
100
AcDbEntity
  8
0
100
AcDbLine
 62
7
  6
CONTINUOUS
 10
7.078824959
 20
2.1672787267
 11
7.766324959
 21
2.1672787267
  0
LINE
  5
223
100
AcDbEntity
  8
0
100
AcDbLine
 62
7
  6
CONTINUOUS
 10
7.151292994
 20
2.4457787267
 11
7.693856924
 21
2.4457787267
  0
LINE
  5
224
100
AcDbEntity
  8
0
100
AcDbLine
 62
7
  6
CONTINUOUS
 10
7.745074959
 20
2.5047787267
 11
7.4813090816
 21
2.5047787267
  0
LINE
  5
225
100
AcDbEntity
  8
0
100
AcDbLine
 62
7
  6
CONTINUOUS
 10
7.3638408363
 20
2.5047787267
 11
7.100074959
 21
2.5047787267
  0
LINE
  5
226
100
AcDbEntity
  8
0
100
AcDbLine
 62
7
  6
CONTINUOUS
 10
7.760074959
 20
2.5197787267
 11
7.5072898437
 21
2.5197787267
  0
LINE
  5
227
100
AcDbEntity
  8
0
100
AcDbLine
 62
7
  6
CONTINUOUS
 10
7.3378600742
 20
2.5197787267
 11
7.085074959
 21
2.5197787267
  0
LINE
  5
228
100
AcDbEntity
  8
0
100
AcDbLine
 62
7
  6
CONTINUOUS
 10
7.516574959
 20
2.5985287267
 11
7.328574959
 21
2.5985287267
  0
LINE
  5
229
100
AcDbEntity
  8
0
100
AcDbLine
 62
7
  6
CONTINUOUS
 10
7.516574959
 20
2.6085287267
 11
7.328574959
 21
2.6085287267
  0
LINE
  5
22A
100
AcDbEntity
  8
0
100
AcDbLine
 62
7
  6
CONTINUOUS
 10
7.132574959
 20
2.6556206513
 11
7.122574959
 21
2.6556206513
  0
LINE
  5
22B
100
AcDbEntity
  8
0
100
AcDbLine
 62
7
  6
CONTINUOUS
 10
7.712574959
 20
2.6556206513
 11
7.722574959
 21
2.6556206513
  0
LINE
  5
22C
100
AcDbEntity
  8
0
100
AcDbLine
 62
7
  6
CONTINUOUS
 10
7.610074959
 20
2.6920287267
 11
7.600074959
 21
2.6920287267
  0
LINE
  5
22D
100
AcDbEntity
  8
0
100
AcDbLine
 62
7
  6
CONTINUOUS
 10
7.235074959
 20
2.6920287267
 11
7.245074959
 21
2.6920287267
  0
LINE
  5
22E
100
AcDbEntity
  8
0
100
AcDbLine
 62
7
  6
CONTINUOUS
 10
7.4244937566
 20
2.7703789556
 11
7.4206561614
 21
2.7703789556
  0
LINE
  5
22F
100
AcDbEntity
  8
0
100
AcDbLine
 62
7
  6
CONTINUOUS
 10
7.4156751879
 20
2.7753599291
 11
7.4294747301
 21
2.7753599291
  0
LINE
  5
230
100
AcDbEntity
  8
0
100
AcDbLine
 62
7
  6
CONTINUOUS
 10
7.4206561614
 20
2.8053979821
 11
7.4156751879
 21
2.8053979821
  0
LINE
  5
231
100
AcDbEntity
  8
0
100
AcDbLine
 62
7
  6
CONTINUOUS
 10
7.4244937566
 20
2.8053979821
 11
7.4294747301
 21
2.8053979821
  0
LINE
  5
232
100
AcDbEntity
  8
0
100
AcDbLine
 62
7
  6
CONTINUOUS
 10
7.4644937566
 20
2.8103789556
 11
7.4344557035
 21
2.8103789556
  0
LINE
  5
233
100
AcDbEntity
  8
0
100
AcDbLine
 62
7
  6
CONTINUOUS
 10
7.4106942144
 20
2.8103789556
 11
7.3806561614
 21
2.8103789556
  0
LINE
  5
234
100
AcDbEntity
  8
0
100
AcDbLine
 62
7
  6
CONTINUOUS
 10
7.4106942144
 20
2.8153599291
 11
7.3756751879
 21
2.8153599291
  0
LINE
  5
235
100
AcDbEntity
  8
0
100
AcDbLine
 62
7
  6
CONTINUOUS
 10
7.4344557035
 20
2.8153599291
 11
7.4694747301
 21
2.8153599291
  0
LWPOLYLINE
  5
236
100
AcDbEntity
  8
0
100
AcDbPolyline
 62
7
  6
CONTINUOUS
 90
52
 70
0
 10
7.0869535456
 20
3.4803125948
 10
7.0867902867
 20
3.4802800708
 10
7.0865955283
 20
3.4802375542
 10
7.0863976204
 20
3.4801901548
 10
7.0861967131
 20
3.4801376478
 10
7.0859938925
 20
3.4800800813
 10
7.0857896237
 20
3.4800173899
 10
7.0855837352
 20
3.4799493189
 10
7.0853763559
 20
3.4798756921
 10
7.0851676108
 20
3.4797963271
 10
7.0849577276
 20
3.4797110784
 10
7.0847470006
 20
3.4796198343
 10
7.0845356239
 20
3.4795224461
 10
7.0843238044
 20
3.4794187711
 10
7.0841118625
 20
3.4793087268
 10
7.0839000271
 20
3.4791921922
 10
7.0836885161
 20
3.4790690413
 10
7.0834776409
 20
3.4789392061
 10
7.0832676449
 20
3.4788025847
 10
7.0830587766
 20
3.4786590797
 10
7.0828513605
 20
3.4785086515
 10
7.0826456593
 20
3.4783512242
 10
7.0824419437
 20
3.4781867301
 10
7.0822405534
 20
3.4780151646
 10
7.0820417696
 20
3.4778364829
 10
7.0818458804
 20
3.4776506504
 10
7.0816532376
 20
3.4774577013
 10
7.0814641514
 20
3.4772576412
 10
7.0812789091
 20
3.4770504578
 10
7.0810978312
 20
3.4768361804
 10
7.0809212804
 20
3.4766149017
 10
7.080749517
 20
3.4763865968
 10
7.0805827302
 20
3.4761511268
 10
7.0804212721
 20
3.4759085631
 10
7.0802654745
 20
3.4756589563
 10
7.0801155409
 20
3.4754021319
 10
7.0799718463
 20
3.4751381753
 10
7.0798347698
 20
3.4748671895
 10
7.0797045727
 20
3.4745890254
 10
7.0795816649
 20
3.4743038111
 10
7.0794664597
 20
3.4740116946
 10
7.0793592772
 20
3.4737125655
 10
7.079260561
 20
3.4734066057
 10
7.0791707563
 20
3.4730940208
 10
7.0790902411
 20
3.472774753
 10
7.079019489
 20
3.4724490511
 10
7.0789589728
 20
3.4721171914
 10
7.0789091247
 20
3.4717791855
 10
7.0788704419
 20
3.4714353631
 10
7.0788434171
 20
3.4710860857
 10
7.07882853
 20
3.4707314517
 10
7.0788256005
 20
3.4704894201
  0
LINE
  5
237
100
AcDbEntity
  8
0
100
AcDbLine
 62
7
  6
CONTINUOUS
 10
7.3756751879
 20
2.8191975243
 11
7.4106942144
 21
2.8191975243
  0
LINE
  5
238
100
AcDbEntity
  8
0
100
AcDbLine
 62
7
  6
CONTINUOUS
 10
7.4344557035
 20
2.8191975243
 11
7.4694747301
 21
2.8191975243
  0
LINE
  5
239
100
AcDbEntity
  8
0
100
AcDbLine
 62
7
  6
CONTINUOUS
 10
7.3806561614
 20
2.8241784978
 11
7.4106942144
 21
2.8241784978
  0
LINE
  5
23A
100
AcDbEntity
  8
0
100
AcDbLine
 62
7
  6
CONTINUOUS
 10
7.4344557035
 20
2.8241784978
 11
7.4644937566
 21
2.8241784978
  0
LINE
  5
23B
100
AcDbEntity
  8
0
100
AcDbLine
 62
7
  6
CONTINUOUS
 10
7.4206561614
 20
2.8291594713
 11
7.4156751879
 21
2.8291594713
  0
LINE
  5
23C
100
AcDbEntity
  8
0
100
AcDbLine
 62
7
  6
CONTINUOUS
 10
7.4244937566
 20
2.8291594713
 11
7.4294747301
 21
2.8291594713
  0
LINE
  5
23D
100
AcDbEntity
  8
0
100
AcDbLine
 62
7
  6
CONTINUOUS
 10
7.4156751879
 20
2.8591975243
 11
7.4294747301
 21
2.8591975243
  0
LINE
  5
23E
100
AcDbEntity
  8
0
100
AcDbLine
 62
7
  6
CONTINUOUS
 10
7.4206561614
 20
2.8641784978
 11
7.4244937566
 21
2.8641784978
  0
LINE
  5
23F
100
AcDbEntity
  8
0
100
AcDbLine
 62
7
  6
CONTINUOUS
 10
7.132574959
 20
2.9789368021
 11
7.122574959
 21
2.9789368021
  0
LINE
  5
240
100
AcDbEntity
  8
0
100
AcDbLine
 62
7
  6
CONTINUOUS
 10
7.712574959
 20
2.9789368021
 11
7.722574959
 21
2.9789368021
  0
LINE
  5
241
100
AcDbEntity
  8
0
100
AcDbLine
 62
7
  6
CONTINUOUS
 10
7.235074959
 20
3.0251096197
 11
7.610074959
 21
3.0251096197
  0
LINE
  5
242
100
AcDbEntity
  8
0
100
AcDbLine
 62
7
  6
CONTINUOUS
 10
7.245074959
 20
3.044393248
 11
7.600074959
 21
3.044393248
  0
LINE
  5
243
100
AcDbEntity
  8
0
100
AcDbLine
 62
7
  6
CONTINUOUS
 10
7.085074959
 20
3.1147787267
 11
7.235074959
 21
3.1147787267
  0
LINE
  5
244
100
AcDbEntity
  8
0
100
AcDbLine
 62
7
  6
CONTINUOUS
 10
7.610074959
 20
3.1147787267
 11
7.760074959
 21
3.1147787267
  0
LINE
  5
245
100
AcDbEntity
  8
0
100
AcDbLine
 62
7
  6
CONTINUOUS
 10
7.100074959
 20
3.1297787267
 11
7.235074959
 21
3.1297787267
  0
LINE
  5
246
100
AcDbEntity
  8
0
100
AcDbLine
 62
7
  6
CONTINUOUS
 10
7.610074959
 20
3.1297787267
 11
7.745074959
 21
3.1297787267
  0
LINE
  5
247
100
AcDbEntity
  8
0
100
AcDbLine
 62
7
  6
CONTINUOUS
 10
7.6891528429
 20
3.1887787267
 11
7.610074959
 21
3.1887787267
  0
LINE
  5
248
100
AcDbEntity
  8
0
100
AcDbLine
 62
7
  6
CONTINUOUS
 10
7.235074959
 20
3.1887787267
 11
7.1559970751
 21
3.1887787267
  0
LINE
  5
249
100
AcDbEntity
  8
0
100
AcDbLine
 62
7
  6
CONTINUOUS
 10
7.600074959
 20
3.1915303244
 11
7.245074959
 21
3.1915303244
  0
LINE
  5
24A
100
AcDbEntity
  8
0
100
AcDbLine
 62
7
  6
CONTINUOUS
 10
7.235074959
 20
3.2108139527
 11
7.610074959
 21
3.2108139527
  0
LINE
  5
24B
100
AcDbEntity
  8
0
100
AcDbLine
 62
7
  6
CONTINUOUS
 10
7.703824959
 20
3.3597787267
 11
7.610074959
 21
3.3597787267
  0
LINE
  5
24C
100
AcDbEntity
  8
0
100
AcDbLine
 62
7
  6
CONTINUOUS
 10
7.235074959
 20
3.3597787267
 11
7.141324959
 21
3.3597787267
  0
LINE
  5
24D
100
AcDbEntity
  8
0
100
AcDbLine
 62
7
  6
CONTINUOUS
 10
7.9323954671
 20
1.3691889807
 11
7.975074959
 21
1.3445479646
  0
LINE
  5
24E
100
AcDbEntity
  8
0
100
AcDbLine
 62
7
  6
CONTINUOUS
 10
7.4871999577
 20
3.7334037218
 11
7.4823249534
 21
3.73315374
  0
LINE
  5
24F
100
AcDbEntity
  8
0
100
AcDbLine
 62
7
  6
CONTINUOUS
 10
7.7338208507
 20
3.5097787139
 11
7.7338246451
 21
3.5097787248
  0
LINE
  5
250
100
AcDbEntity
  8
0
100
AcDbLine
 62
7
  6
CONTINUOUS
 10
7.235074959
 20
3.3897787267
 11
7.088824959
 21
3.3897787267
  0
LINE
  5
251
100
AcDbEntity
  8
0
100
AcDbLine
 62
7
  6
CONTINUOUS
 10
7.610074959
 20
3.3897787267
 11
7.756324959
 21
3.3897787267
  0
LINE
  5
252
100
AcDbEntity
  8
0
100
AcDbLine
 62
7
  6
CONTINUOUS
 10
7.078824959
 20
3.3997787267
 11
7.235074959
 21
3.3997787267
  0
LINE
  5
253
100
AcDbEntity
  8
0
100
AcDbLine
 62
7
  6
CONTINUOUS
 10
7.610074959
 20
3.3997787267
 11
7.766324959
 21
3.3997787267
  0
LINE
  5
254
100
AcDbEntity
  8
0
100
AcDbLine
 62
7
  6
CONTINUOUS
 10
7.3624499582
 20
3.5062787328
 11
7.4836999543
 21
3.5062787328
  0
LINE
  5
255
100
AcDbEntity
  8
0
100
AcDbLine
 62
7
  6
CONTINUOUS
 10
7.3543249604
 20
3.5489037279
 11
7.4894499623
 21
3.5489037279
  0
LINE
  5
256
100
AcDbEntity
  8
0
100
AcDbLine
 62
7
  6
CONTINUOUS
 10
7.508699964
 20
3.5732787047
 11
7.5045749612
 21
3.5732787047
  0
LINE
  5
257
100
AcDbEntity
  8
0
100
AcDbLine
 62
7
  6
CONTINUOUS
 10
7.331199959
 20
3.5732787047
 11
7.3400749587
 21
3.5732787047
  0
LINE
  5
258
100
AcDbEntity
  8
0
100
AcDbLine
 62
7
  6
CONTINUOUS
 10
7.3949499607
 20
3.5879037175
 11
7.39457496
 21
3.5879037175
  0
LINE
  5
259
100
AcDbEntity
  8
0
100
AcDbLine
 62
7
  6
CONTINUOUS
 10
7.5093249634
 20
3.9991537277
 11
7.5130749598
 21
3.9992787298
  0
LINE
  5
25A
100
AcDbEntity
  8
0
100
AcDbLine
 62
7
  6
CONTINUOUS
 10
7.5093249634
 20
3.662403727
 11
7.5018249594
 21
3.662403727
  0
LINE
  5
25B
100
AcDbEntity
  8
0
100
AcDbLine
 62
7
  6
CONTINUOUS
 10
7.3629499583
 20
3.6905287448
 11
7.4814499609
 21
3.6905287448
  0
LINE
  5
25C
100
AcDbEntity
  8
0
100
AcDbLine
 62
7
  6
CONTINUOUS
 10
7.4823249534
 20
3.73315374
 11
7.3569499601
 21
3.73315374
  0
LINE
  5
25D
100
AcDbEntity
  8
0
100
AcDbLine
 62
7
  6
CONTINUOUS
 10
7.5099499628
 20
3.7575287167
 11
7.504074964
 21
3.7575287167
  0
LINE
  5
25E
100
AcDbEntity
  8
0
100
AcDbLine
 62
7
  6
CONTINUOUS
 10
7.3381999591
 20
3.7575287167
 11
7.3328249589
 21
3.7575287167
  0
LINE
  5
25F
100
AcDbEntity
  8
0
100
AcDbLine
 62
7
  6
CONTINUOUS
 10
7.3569499601
 20
3.73315374
 11
7.3520749586
 21
3.7332787309
  0
LINE
  5
260
100
AcDbEntity
  8
0
100
AcDbLine
 62
7
  6
CONTINUOUS
 10
7.3340749591
 20
3.5910287146
 11
7.39457496
 21
3.5879037175
  0
LINE
  5
261
100
AcDbEntity
  8
0
100
AcDbLine
 62
7
  6
CONTINUOUS
 10
7.7715941969
 20
2.1372787267
 11
7.797574959
 21
2.1222787267
  0
LINE
  5
262
100
AcDbEntity
  8
0
100
AcDbLine
 62
7
  6
CONTINUOUS
 10
7.132574959
 20
2.6383001433
 11
7.412574959
 21
2.4766420679
  0
LINE
  5
263
100
AcDbEntity
  8
0
100
AcDbLine
 62
7
  6
CONTINUOUS
 10
7.137574959
 20
2.6469603973
 11
7.417574959
 21
2.4853023219
  0
LINE
  5
264
100
AcDbEntity
  8
0
100
AcDbLine
 62
7
  6
CONTINUOUS
 10
7.0949987144
 20
4.5241166691
 11
7.0934547693
 21
4.5237986509
  0
LWPOLYLINE
  5
265
100
AcDbEntity
  8
0
100
AcDbPolyline
 62
7
  6
CONTINUOUS
 90
3
 70
0
 10
7.0934547693
 20
4.5237986509
 10
7.0919028621
 20
4.5235219882
 10
7.0903441214
 20
4.5232868821
  0
LINE
  5
266
100
AcDbEntity
  8
0
100
AcDbLine
 62
7
  6
CONTINUOUS
 10
7.0789929353
 20
4.0185337044
 11
7.0790252555
 21
4.0185347152
  0
LINE
  5
267
100
AcDbEntity
  8
0
100
AcDbLine
 62
7
  6
CONTINUOUS
 10
7.4476999596
 20
3.9975287225
 11
7.5093249634
 21
3.9991537277
  0
LINE
  5
268
100
AcDbEntity
  8
0
100
AcDbLine
 62
7
  6
CONTINUOUS
 10
7.4435749568
 20
3.9975287225
 11
7.4476999596
 21
3.9975287225
  0
LINE
  5
269
100
AcDbEntity
  8
0
100
AcDbLine
 62
7
  6
CONTINUOUS
 10
7.7661569827
 20
4.0185337044
 11
7.7661246624
 21
4.0185347152
  0
LINE
  5
26A
100
AcDbEntity
  8
0
100
AcDbLine
 62
7
  6
CONTINUOUS
 10
7.7583596313
 20
3.4802800708
 11
7.7581963724
 21
3.4803125948
  0
LWPOLYLINE
  5
26B
100
AcDbEntity
  8
0
100
AcDbPolyline
 62
7
  6
CONTINUOUS
 90
45
 70
0
 10
7.758197334
 20
3.4803153966
 10
7.757364582
 20
3.4804863745
 10
7.7564305494
 20
3.4807077055
 10
7.7555039557
 20
3.4809588405
 10
7.7545857605
 20
3.4812395316
 10
7.7536769293
 20
3.4815494945
 10
7.7527783962
 20
3.4818884204
 10
7.7518910857
 20
3.4822559704
 10
7.7510159321
 20
3.4826517663
 10
7.7501538363
 20
3.4830754082
 10
7.7493056847
 20
3.4835264684
 10
7.7484723681
 20
3.4840044799
 10
7.7476547439
 20
3.4845089565
 10
7.7468536533
 20
3.4850393853
 10
7.746069937
 20
3.4855952143
 10
7.7453044007
 20
3.4861758761
 10
7.744557832
 20
3.486780777
 10
7.7438310141
 20
3.4874092853
 10
7.743124694
 20
3.4880607565
 10
7.7424395969
 20
3.4887345232
 10
7.7417764403
 20
3.48942988
 10
7.7411359068
 20
3.4901461097
 10
7.7405186504
 20
3.4908824798
 10
7.7399253086
 20
3.4916382276
 10
7.7393564915
 20
3.4924125735
 10
7.7388127788
 20
3.493204725
 10
7.7382947251
 20
3.494013872
 10
7.737802861
 20
3.4948391835
 10
7.7373376901
 20
3.4956798122
 10
7.7368996866
 20
3.4965348991
 10
7.7364892992
 20
3.4974035666
 10
7.7361069483
 20
3.4982849233
 10
7.7357530238
 20
3.4991780688
 10
7.7354278886
 20
3.5000820868
 10
7.7351318759
 20
3.5009960497
 10
7.7348652881
 20
3.5019190239
 10
7.7346283987
 20
3.5028500626
 10
7.7344214509
 20
3.5037882106
 10
7.7342446563
 20
3.5047325097
 10
7.7340981969
 20
3.5056819912
 10
7.7339822234
 20
3.5066356812
 10
7.7338968551
 20
3.5075926053
 10
7.7338421803
 20
3.5085517835
 10
7.7338182562
 20
3.5095122302
 10
7.7338170721
 20
3.5097787267
  0
LINE
  5
26C
100
AcDbEntity
  8
0
100
AcDbLine
 62
7
  6
CONTINUOUS
 10
7.0903456179
 20
4.5232869615
 11
7.0902120249
 21
4.5232693285
  0
LINE
  5
26D
100
AcDbEntity
  8
0
100
AcDbLine
 62
7
  6
CONTINUOUS
 10
7.0641674915
 20
4.4925909793
 11
7.0791601616
 21
4.493059853
  0
LINE
  5
26E
100
AcDbEntity
  8
0
100
AcDbLine
 62
7
  6
CONTINUOUS
 10
7.610074959
 20
4.2867787267
 11
7.600074959
 21
4.2867787267
  0
LINE
  5
26F
100
AcDbEntity
  8
0
100
AcDbLine
 62
7
  6
CONTINUOUS
 10
7.235074959
 20
4.2867787267
 11
7.245074959
 21
4.2867787267
  0
LINE
  5
270
100
AcDbEntity
  8
0
100
AcDbLine
 62
7
  6
CONTINUOUS
 10
7.328574959
 20
4.3702787267
 11
7.516574959
 21
4.3702787267
  0
LINE
  5
271
100
AcDbEntity
  8
0
100
AcDbLine
 62
7
  6
CONTINUOUS
 10
7.328574959
 20
4.3802787267
 11
7.516574959
 21
4.3802787267
  0
LWPOLYLINE
  5
272
100
AcDbEntity
  8
0
100
AcDbPolyline
 62
7
  6
CONTINUOUS
 90
5
 70
0
 10
7.7595661828
 20
3.4799493189
 10
7.7593602943
 20
3.4800173899
 10
7.7591560255
 20
3.4800800813
 10
7.7589532048
 20
3.4801376478
 10
7.7587522975
 20
3.4801901548
  0
LINE
  5
273
100
AcDbEntity
  8
0
100
AcDbLine
 62
7
  6
CONTINUOUS
 10
7.090291917
 20
2.5083985105
 11
7.0904003264
 21
2.5083043295
  0
LWPOLYLINE
  5
274
100
AcDbEntity
  8
0
100
AcDbPolyline
 62
7
  6
CONTINUOUS
 90
3
 70
0
 10
7.0904413376
 20
2.5082707195
 10
7.0906578304
 20
2.5080772416
 10
7.0909460082
 20
2.5078153099
  0
LINE
  5
275
100
AcDbEntity
  8
0
100
AcDbLine
 62
7
  6
CONTINUOUS
 10
7.0909460082
 20
2.5078153099
 11
7.0913061609
 21
2.5074821622
  0
LINE
  5
276
100
AcDbEntity
  8
0
100
AcDbLine
 62
7
  6
CONTINUOUS
 10
7.0941528318
 20
4.5085287267
 11
7.7509970862
 21
4.5085287267
  0
LINE
  5
277
100
AcDbEntity
  8
0
100
AcDbLine
 62
7
  6
CONTINUOUS
 10
7.0941528318
 20
4.5235287267
 11
7.7509970862
 21
4.5235287267
  0
LINE
  5
278
100
AcDbEntity
  8
0
100
AcDbLine
 62
7
  6
CONTINUOUS
 10
7.151101856
 20
4.5825287267
 11
7.6940480619
 21
4.5825287267
  0
LINE
  5
279
100
AcDbEntity
  8
0
100
AcDbLine
 62
7
  6
CONTINUOUS
 10
7.7809824264
 20
4.4925909793
 11
7.7659897563
 21
4.493059853
  0
LWPOLYLINE
  5
27A
100
AcDbEntity
  8
0
100
AcDbPolyline
 62
7
  6
CONTINUOUS
 90
11
 70
0
 10
7.7607692885
 20
3.479445259
 10
7.7605174405
 20
3.4795658818
 10
7.7602663547
 20
3.4796776969
 10
7.7600163889
 20
3.479780942
 10
7.7597678414
 20
3.4798758798
 10
7.7595211309
 20
3.4799627303
 10
7.7592764232
 20
3.4800418053
 10
7.7590341055
 20
3.4801133401
 10
7.758794917
 20
3.4801774926
 10
7.758558949
 20
3.480234618
 10
7.7583265761
 20
3.4802849955
  0
LINE
  5
27B
100
AcDbEntity
  8
0
100
AcDbLine
 62
7
  6
CONTINUOUS
 10
7.707574959
 20
2.9875970561
 11
7.610074959
 21
3.0438887074
  0
LINE
  5
27C
100
AcDbEntity
  8
0
100
AcDbLine
 62
7
  6
CONTINUOUS
 10
7.712574959
 20
2.9962573102
 11
7.610074959
 21
3.0554357127
  0
LINE
  5
27D
100
AcDbEntity
  8
0
100
AcDbLine
 62
7
  6
CONTINUOUS
 10
7.735074959
 20
4.7622787267
 11
7.110074959
 21
4.7622787267
  0
LINE
  5
27E
100
AcDbEntity
  8
0
100
AcDbLine
 62
7
  6
CONTINUOUS
 10
7.110074959
 20
4.9097787267
 11
7.735074959
 21
4.9097787267
  0
LINE
  5
27F
100
AcDbEntity
  8
0
100
AcDbLine
 62
7
  6
CONTINUOUS
 10
7.130074959
 20
4.9297787267
 11
7.715074959
 21
4.9297787267
  0
LINE
  5
280
100
AcDbEntity
  8
0
100
AcDbLine
 62
7
  6
CONTINUOUS
 10
7.7549396618
 20
4.523269088
 11
7.7548111974
 21
4.5232861441
  0
LWPOLYLINE
  5
281
100
AcDbEntity
  8
0
100
AcDbPolyline
 62
7
  6
CONTINUOUS
 90
3
 70
0
 10
7.7548111974
 20
4.5232861441
 10
7.7532523827
 20
4.5235211148
 10
7.7517003984
 20
4.5237976455
  0
LWPOLYLINE
  5
282
100
AcDbEntity
  8
0
100
AcDbPolyline
 62
7
  6
CONTINUOUS
 90
5
 70
0
 10
7.7608261136
 20
3.4794187711
 10
7.7606142941
 20
3.4795224461
 10
7.7604029173
 20
3.4796198343
 10
7.7601921904
 20
3.4797110784
 10
7.7599823071
 20
3.4797963271
  0
LINE
  5
283
100
AcDbEntity
  8
0
100
AcDbLine
 62
7
  6
CONTINUOUS
 10
7.7610380554
 20
3.4793087268
 11
7.7607692885
 21
3.479445259
  0
LINE
  5
284
100
AcDbEntity
  8
0
100
AcDbLine
 62
7
  6
CONTINUOUS
 10
7.3756751879
 20
2.8191975243
 11
7.3742829026
 21
2.8205898096
  0
LINE
  5
285
100
AcDbEntity
  8
0
100
AcDbLine
 62
7
  6
CONTINUOUS
 10
7.4244937566
 20
2.7703789556
 11
7.4258860419
 21
2.7689866703
  0
LINE
  5
286
100
AcDbEntity
  8
0
100
AcDbLine
 62
7
  6
CONTINUOUS
 10
7.3806561614
 20
2.8241784978
 11
7.3789420044
 21
2.8258926547
  0
LINE
  5
287
100
AcDbEntity
  8
0
100
AcDbLine
 62
7
  6
CONTINUOUS
 10
7.4294747301
 20
2.7753599291
 11
7.431188887
 21
2.7736457722
  0
LINE
  5
288
100
AcDbEntity
  8
0
100
AcDbLine
 62
7
  6
CONTINUOUS
 10
7.4318635099
 20
2.8030092023
 11
7.4294747301
 21
2.8053979821
  0
LINE
  5
289
100
AcDbEntity
  8
0
100
AcDbLine
 62
7
  6
CONTINUOUS
 10
7.4083054346
 20
2.8265672776
 11
7.4106942144
 21
2.8241784978
  0
LINE
  5
28A
100
AcDbEntity
  8
0
100
AcDbLine
 62
7
  6
CONTINUOUS
 10
7.4368444834
 20
2.8079901758
 11
7.4344557035
 21
2.8103789556
  0
LINE
  5
28B
100
AcDbEntity
  8
0
100
AcDbLine
 62
7
  6
CONTINUOUS
 10
7.4132864081
 20
2.8315482511
 11
7.4156751879
 21
2.8291594713
  0
LINE
  5
28C
100
AcDbEntity
  8
0
100
AcDbLine
 62
7
  6
CONTINUOUS
 10
7.4156751879
 20
2.8591975243
 11
7.413961031
 21
2.8609116812
  0
LINE
  5
28D
100
AcDbEntity
  8
0
100
AcDbLine
 62
7
  6
CONTINUOUS
 10
7.4644937566
 20
2.8103789556
 11
7.4662079135
 21
2.8086647987
  0
LINE
  5
28E
100
AcDbEntity
  8
0
100
AcDbLine
 62
7
  6
CONTINUOUS
 10
7.4206561614
 20
2.8641784978
 11
7.4192638761
 21
2.8655707831
  0
LINE
  5
28F
100
AcDbEntity
  8
0
100
AcDbLine
 62
7
  6
CONTINUOUS
 10
7.4694747301
 20
2.8153599291
 11
7.4708670154
 21
2.8139676438
  0
LWPOLYLINE
  5
290
100
AcDbEntity
  8
0
100
AcDbPolyline
 62
7
  6
CONTINUOUS
 90
53
 70
0
 10
7.7517003984
 20
4.5237976455
 10
7.7501563738
 20
4.5241155349
 10
7.7486216424
 20
4.5244744994
 10
7.7470970722
 20
4.5248743257
 10
7.7455830972
 20
4.5253149253
 10
7.7440805199
 20
4.5257961326
 10
7.7425907357
 20
4.5263175687
 10
7.7411150797
 20
4.5268788101
 10
7.7396546712
 20
4.5274794613
 10
7.7382105152
 20
4.5281191396
 10
7.73678375
 20
4.5287973695
 10
7.7353754109
 20
4.5295136836
 10
7.7339865154
 20
4.5302675893
 10
7.7326181494
 20
4.5310585184
 10
7.7312713048
 20
4.5318859148
 10
7.7299469538
 20
4.5327491987
 10
7.7286461238
 20
4.5336477143
 10
7.7273697535
 20
4.534580823
 10
7.7261187645
 20
4.5355478615
 10
7.7248941245
 20
4.5365480878
 10
7.7236967177
 20
4.5375807815
 10
7.7225274013
 20
4.5386452049
 10
7.7213870655
 20
4.539740546
 10
7.7202765433
 20
4.5408659975
 10
7.7191966117
 20
4.542020765
 10
7.7181480404
 20
4.5432040196
 10
7.7171315844
 20
4.5444149034
 10
7.7161479654
 20
4.54565255
 10
7.7151978708
 20
4.5469160906
 10
7.7142819812
 20
4.5482046174
 10
7.7134009532
 20
4.549517204
 10
7.7125554044
 20
4.5508529293
 10
7.7117459393
 20
4.5522108399
 10
7.7109731429
 20
4.5535899559
 10
7.7102375669
 20
4.5549892945
 10
7.7095397386
 20
4.5564078552
 10
7.7088801622
 20
4.5578446163
 10
7.7082593142
 20
4.5592985421
 10
7.7076776409
 20
4.5607685889
 10
7.7071355609
 20
4.5622537015
 10
7.7066334655
 20
4.5637528086
 10
7.7061717156
 20
4.565264834
 10
7.705750643
 20
4.5667886921
 10
7.7053705516
 20
4.5683232835
 10
7.7050317142
 20
4.5698675064
 10
7.7047343739
 20
4.571420252
 10
7.7044787449
 20
4.5729803999
 10
7.7042650102
 20
4.5745468299
 10
7.7040933226
 20
4.5761184172
 10
7.7039638054
 20
4.577694028
 10
7.7038765504
 20
4.5792725292
 10
7.7038316193
 20
4.580852789
 10
7.7038249579
 20
4.5817393613
  0
LWPOLYLINE
  5
291
100
AcDbEntity
  8
0
100
AcDbPolyline
 62
7
  6
CONTINUOUS
 90
6
 70
0
 10
7.7622985575
 20
3.4785086515
 10
7.7620911413
 20
3.4786590797
 10
7.761882273
 20
3.4788025847
 10
7.761672277
 20
3.4789392061
 10
7.7614614018
 20
3.4790690413
 10
7.7612498909
 20
3.4791921922
  0
LWPOLYLINE
  5
292
100
AcDbEntity
  8
0
100
AcDbPolyline
 62
7
  6
CONTINUOUS
 90
7
 70
0
 10
7.7625162042
 20
3.4783398307
 10
7.7622713507
 20
3.4785268691
 10
7.7620241663
 20
3.4787039762
 10
7.7617751492
 20
3.4788712515
 10
7.7615247209
 20
3.4790288554
 10
7.7612733025
 20
3.4791769526
 10
7.7610213738
 20
3.4793156816
  0
LINE
  5
293
100
AcDbEntity
  8
0
100
AcDbLine
 62
7
  6
CONTINUOUS
 10
7.7263179326
 20
4.7456902184
 11
7.7271640708
 21
4.746344334
  0
LWPOLYLINE
  5
294
100
AcDbEntity
  8
0
100
AcDbPolyline
 62
7
  6
CONTINUOUS
 90
5
 70
0
 10
7.0914729887
 20
3.4815494945
 10
7.0905641575
 20
3.4812395316
 10
7.0896459622
 20
3.4809588405
 10
7.0887193685
 20
3.4807077055
 10
7.0877860248
 20
3.4804865378
  0
LINE
  5
295
100
AcDbEntity
  8
0
100
AcDbLine
 62
7
  6
CONTINUOUS
 10
7.3421999591
 20
3.7559037451
 11
7.3406999588
 21
3.7574037258
  0
LINE
  5
296
100
AcDbEntity
  8
0
100
AcDbLine
 62
7
  6
CONTINUOUS
 10
7.137574959
 20
2.9875970561
 11
7.132574959
 21
2.9962573102
  0
LINE
  5
297
100
AcDbEntity
  8
0
100
AcDbLine
 62
7
  6
CONTINUOUS
 10
7.427574959
 20
2.4853023219
 11
7.432574959
 21
2.4766420679
  0
LINE
  5
298
100
AcDbEntity
  8
0
100
AcDbLine
 62
7
  6
CONTINUOUS
 10
7.0966775499
 20
3.4840044799
 11
7.0958442332
 21
3.4835264684
  0
LINE
  5
299
100
AcDbEntity
  8
0
100
AcDbLine
 62
7
  6
CONTINUOUS
 10
7.0949960816
 20
3.4830754082
 11
7.0941339859
 21
3.4826517663
  0
LINE
  5
29A
100
AcDbEntity
  8
0
100
AcDbLine
 62
7
  6
CONTINUOUS
 10
7.0932588322
 20
3.4822559704
 11
7.0923715217
 21
3.4818884204
  0
LINE
  5
29B
100
AcDbEntity
  8
0
100
AcDbLine
 62
7
  6
CONTINUOUS
 10
2.655074959
 20
5.8357787267
 11
2.135074959
 21
5.8357787267
  0
LINE
  5
29C
100
AcDbEntity
  8
0
100
AcDbLine
 62
7
  6
CONTINUOUS
 10
2.130074959
 20
5.8407787267
 11
2.660074959
 21
5.8407787267
  0
LINE
  5
29D
100
AcDbEntity
  8
0
100
AcDbLine
 62
7
  6
CONTINUOUS
 10
7.5135749571
 20
4.0122787263
 11
7.5019499615
 21
4.023903722
  0
LWPOLYLINE
  5
29E
100
AcDbEntity
  8
0
100
AcDbPolyline
 62
7
  6
CONTINUOUS
 90
5
 70
0
 10
7.7634966803
 20
3.4774577013
 10
7.7633040376
 20
3.4776506504
 10
7.7631081484
 20
3.4778364829
 10
7.7629093645
 20
3.4780151646
 10
7.7627079742
 20
3.4781867301
  0
LINE
  5
29F
100
AcDbEntity
  8
0
100
AcDbLine
 62
7
  6
CONTINUOUS
 10
7.707574959
 20
2.6469603973
 11
7.712574959
 21
2.6383001433
  0
LINE
  5
2A0
100
AcDbEntity
  8
0
100
AcDbLine
 62
7
  6
CONTINUOUS
 10
6.778824959
 20
6.3822788104
 11
6.778824959
 21
7.049778643
  0
LINE
  5
2A1
100
AcDbEntity
  8
0
100
AcDbLine
 62
7
  6
CONTINUOUS
 10
6.788824959
 20
6.3722787267
 11
6.788824959
 21
7.0597787267
  0
LINE
  5
2A2
100
AcDbEntity
  8
0
100
AcDbLine
 62
7
  6
CONTINUOUS
 10
6.862324959
 20
7.0597787267
 11
6.862324959
 21
6.3722787267
  0
LINE
  5
2A3
100
AcDbEntity
  8
0
100
AcDbLine
 62
7
  6
CONTINUOUS
 10
6.865074959
 20
1.2672787267
 11
6.865074959
 21
1.3358877106
  0
LWPOLYLINE
  5
2A4
100
AcDbEntity
  8
0
100
AcDbPolyline
 62
7
  6
CONTINUOUS
 90
20
 70
0
 10
7.1027114087
 20
3.4887356122
 10
7.102026404
 20
3.4880618667
 10
7.1013201752
 20
3.4874104088
 10
7.1005934474
 20
3.4867819063
 10
7.0998469668
 20
3.4861770036
 10
7.0990815114
 20
3.4855963296
 10
7.0982978682
 20
3.4850404783
 10
7.0974968421
 20
3.4845100182
 10
7.0966792682
 20
3.484005499
 10
7.0958459869
 20
3.4835274351
 10
7.0949978549
 20
3.4830763141
 10
7.0941357567
 20
3.4826526017
 10
7.0932605781
 20
3.4822567278
 10
7.0923732191
 20
3.4818890942
 10
7.0914746071
 20
3.481550079
 10
7.0905656656
 20
3.4812400237
 10
7.0896473284
 20
3.4809592399
 10
7.0887205543
 20
3.4807080131
 10
7.0877863002
 20
3.4804865943
 10
7.0869527353
 20
3.4803154338
  0
LINE
  5
2A5
100
AcDbEntity
  8
0
100
AcDbLine
 62
7
  6
CONTINUOUS
 10
7.1013189038
 20
3.4874092853
 11
7.100592086
 21
3.486780777
  0
LINE
  5
2A6
100
AcDbEntity
  8
0
100
AcDbLine
 62
7
  6
CONTINUOUS
 10
7.0998455173
 20
3.4861758761
 11
7.099079981
 21
3.4855952143
  0
LINE
  5
2A7
100
AcDbEntity
  8
0
100
AcDbLine
 62
7
  6
CONTINUOUS
 10
7.0982962646
 20
3.4850393853
 11
7.0974951741
 21
3.4845089565
  0
LINE
  5
2A8
100
AcDbEntity
  8
0
100
AcDbLine
 62
7
  6
CONTINUOUS
 10
7.160074959
 20
6.0647787267
 11
7.685074959
 21
6.0647787267
  0
LINE
  5
2A9
100
AcDbEntity
  8
0
100
AcDbLine
 62
7
  6
CONTINUOUS
 10
2.130074959
 20
6.0672787267
 11
2.660074959
 21
6.0672787267
  0
LINE
  5
2AA
100
AcDbEntity
  8
0
100
AcDbLine
 62
7
  6
CONTINUOUS
 10
7.7563248753
 20
6.0722787267
 11
7.0888250427
 21
6.0722787267
  0
LINE
  5
2AB
100
AcDbEntity
  8
0
100
AcDbLine
 62
7
  6
CONTINUOUS
 10
2.728824959
 20
6.0722787267
 11
2.061324959
 21
6.0722787267
  0
LINE
  5
2AC
100
AcDbEntity
  8
0
100
AcDbLine
 62
7
  6
CONTINUOUS
 10
7.766324959
 20
6.0822787267
 11
7.078824959
 21
6.0822787267
  0
LINE
  5
2AD
100
AcDbEntity
  8
0
100
AcDbLine
 62
7
  6
CONTINUOUS
 10
2.738824959
 20
6.0822787267
 11
2.051324959
 21
6.0822787267
  0
LINE
  5
2AE
100
AcDbEntity
  8
0
100
AcDbLine
 62
7
  6
CONTINUOUS
 10
7.1179858471
 20
4.746344334
 11
7.1188319853
 21
4.7456902184
  0
LWPOLYLINE
  5
2AF
100
AcDbEntity
  8
0
100
AcDbPolyline
 62
7
  6
CONTINUOUS
 90
36
 70
0
 10
7.1188319853
 20
4.7456902184
 10
7.1199898769
 20
4.7447543019
 10
7.1211308861
 20
4.7437832675
 10
7.1222543648
 20
4.7427766852
 10
7.1233585155
 20
4.7417351559
 10
7.1244405214
 20
4.7406604578
 10
7.125499359
 20
4.739552818
 10
7.126533814
 20
4.7384126925
 10
7.1275410504
 20
4.7372425293
 10
7.128520091
 20
4.7360429263
 10
7.12947001
 20
4.7348144617
 10
7.1303883768
 20
4.7335598664
 10
7.1312744084
 20
4.7322799573
 10
7.1321273888
 20
4.7309755058
 10
7.1329453388
 20
4.7296494395
 10
7.1337274471
 20
4.7283031972
 10
7.1344735084
 20
4.7269372612
 10
7.1351827059
 20
4.7255532781
 10
7.1358544672
 20
4.7241526235
 10
7.1364886082
 20
4.7227359542
 10
7.1370849551
 20
4.7213038636
 10
7.1376431526
 20
4.7198573751
 10
7.13816288
 20
4.718397503
 10
7.1386439857
 20
4.7169248099
 10
7.1390861634
 20
4.7154403196
 10
7.1394891342
 20
4.713945063
 10
7.1398527547
 20
4.7124396006
 10
7.140176763
 20
4.7109249672
 10
7.1404609244
 20
4.7094022042
 10
7.1407051021
 20
4.7078718757
 10
7.1409090781
 20
4.7063350295
 10
7.1410726618
 20
4.7047927202
 10
7.1411957226
 20
4.7032455207
 10
7.1412780932
 20
4.701694332
 10
7.1413196127
 20
4.7001403868
 10
7.1413250192
 20
4.6993416911
  0
LWPOLYLINE
  5
2B0
100
AcDbEntity
  8
0
100
AcDbPolyline
 62
7
  6
CONTINUOUS
 90
5
 70
0
 10
7.7645671877
 20
3.4761511268
 10
7.7644004009
 20
3.4763865968
 10
7.7642286376
 20
3.4766149017
 10
7.7640520867
 20
3.4768361804
 10
7.7638710089
 20
3.4770504578
  0
LINE
  5
2B1
100
AcDbEntity
  8
0
100
AcDbLine
 62
7
  6
CONTINUOUS
 10
7.0789929353
 20
4.0185337044
 11
7.0641674915
 21
4.4925909793
  0
LINE
  5
2B2
100
AcDbEntity
  8
0
100
AcDbLine
 62
7
  6
CONTINUOUS
 10
7.0908331098
 20
4.1198065411
 11
7.0791601616
 21
4.493059853
  0
LINE
  5
2B3
100
AcDbEntity
  8
0
100
AcDbLine
 62
7
  6
CONTINUOUS
 10
6.991324959
 20
1.4697787267
 11
6.991324959
 21
1.3805287267
  0
LINE
  5
2B4
100
AcDbEntity
  8
0
100
AcDbLine
 62
7
  6
CONTINUOUS
 10
7.006324959
 20
1.4697787267
 11
7.006324959
 21
1.3805287267
  0
LINE
  5
2B5
100
AcDbEntity
  8
0
100
AcDbLine
 62
7
  6
CONTINUOUS
 10
7.047574959
 20
2.1222787267
 11
7.047574959
 21
1.4797787267
  0
LINE
  5
2B6
100
AcDbEntity
  8
0
100
AcDbLine
 62
7
  6
CONTINUOUS
 10
7.078824959
 20
3.4704894146
 11
7.078824959
 21
3.3997787267
  0
LINE
  5
2B7
100
AcDbEntity
  8
0
100
AcDbLine
 62
7
  6
CONTINUOUS
 10
7.078824959
 20
2.1672787267
 11
7.078824959
 21
2.1372787267
  0
LINE
  5
2B8
100
AcDbEntity
  8
0
100
AcDbLine
 62
7
  6
CONTINUOUS
 10
7.078824959
 20
6.0822787267
 11
7.078824959
 21
6.1557787267
  0
LINE
  5
2B9
100
AcDbEntity
  8
0
100
AcDbLine
 62
7
  6
CONTINUOUS
 10
7.085074959
 20
3.1147787267
 11
7.085074959
 21
2.5197787267
  0
LINE
  5
2BA
100
AcDbEntity
  8
0
100
AcDbLine
 62
7
  6
CONTINUOUS
 10
7.0941528318
 20
4.5235287267
 11
7.0941528318
 21
4.5085287267
  0
LINE
  5
2BB
100
AcDbEntity
  8
0
100
AcDbLine
 62
7
  6
CONTINUOUS
 10
7.110074959
 20
4.9097787267
 11
7.110074959
 21
4.7622787267
  0
LINE
  5
2BC
100
AcDbEntity
  8
0
100
AcDbLine
 62
7
  6
CONTINUOUS
 10
7.110074959
 20
2.4643260442
 11
7.110074959
 21
2.1672787267
  0
LINE
  5
2BD
100
AcDbEntity
  8
0
100
AcDbLine
 62
7
  6
CONTINUOUS
 10
7.111324959
 20
6.2547787267
 11
7.111324959
 21
6.1950693107
  0
LINE
  5
2BE
100
AcDbEntity
  8
0
100
AcDbLine
 62
7
  6
CONTINUOUS
 10
7.115074959
 20
3.1297787267
 11
7.115074959
 21
2.5047787267
  0
LINE
  5
2BF
100
AcDbEntity
  8
0
100
AcDbLine
 62
7
  6
CONTINUOUS
 10
7.120074959
 20
4.9097787267
 11
7.120074959
 21
4.7622787267
  0
LINE
  5
2C0
100
AcDbEntity
  8
0
100
AcDbLine
 62
7
  6
CONTINUOUS
 10
7.122574959
 20
2.9789368021
 11
7.122574959
 21
2.6556206513
  0
LINE
  5
2C1
100
AcDbEntity
  8
0
100
AcDbLine
 62
7
  6
CONTINUOUS
 10
7.132574959
 20
2.9789368021
 11
7.132574959
 21
2.6556206513
  0
LINE
  5
2C2
100
AcDbEntity
  8
0
100
AcDbLine
 62
7
  6
CONTINUOUS
 10
7.141324959
 20
3.3597787267
 11
7.141324959
 21
3.1866183919
  0
LINE
  5
2C3
100
AcDbEntity
  8
0
100
AcDbLine
 62
7
  6
CONTINUOUS
 10
7.141324959
 20
4.5817393589
 11
7.141324959
 21
4.699341691
  0
LINE
  5
2C4
100
AcDbEntity
  8
0
100
AcDbLine
 62
7
  6
CONTINUOUS
 10
7.160074959
 20
4.9297787267
 11
7.160074959
 21
6.0647787267
  0
LINE
  5
2C5
100
AcDbEntity
  8
0
100
AcDbLine
 62
7
  6
CONTINUOUS
 10
7.235074959
 20
2.6920287267
 11
7.235074959
 21
4.2867787267
  0
LINE
  5
2C6
100
AcDbEntity
  8
0
100
AcDbLine
 62
7
  6
CONTINUOUS
 10
7.245074959
 20
2.6920287267
 11
7.245074959
 21
4.2867787267
  0
LINE
  5
2C7
100
AcDbEntity
  8
0
100
AcDbLine
 62
7
  6
CONTINUOUS
 10
7.111324959
 20
3.5097787267
 11
7.1113277042
 21
4.0310640258
  0
LWPOLYLINE
  5
2C8
100
AcDbEntity
  8
0
100
AcDbPolyline
 62
7
  6
CONTINUOUS
 90
11
 70
0
 10
7.1113328688
 20
3.5097787267
 10
7.1113316854
 20
3.5095123002
 10
7.1113077664
 20
3.5085519229
 10
7.1112531009
 20
3.5075928107
 10
7.1111677456
 20
3.5066359484
 10
7.1110517887
 20
3.5056823166
 10
7.1109053493
 20
3.5047328902
 10
7.1107285779
 20
3.5037886433
 10
7.1105216561
 20
3.5028505444
 10
7.1102847957
 20
3.5019195527
 10
7.1100182397
 20
3.5009966232
  0
LWPOLYLINE
  5
2C9
100
AcDbEntity
  8
0
100
AcDbPolyline
 62
7
  6
CONTINUOUS
 90
52
 70
0
 10
7.1413249601
 20
4.5817393589
 10
7.1413183002
 20
4.5808528967
 10
7.1412733767
 20
4.5792727469
 10
7.1411861352
 20
4.5776943556
 10
7.1410566373
 20
4.5761188542
 10
7.1408849751
 20
4.5745473755
 10
7.1406712715
 20
4.5729810531
 10
7.1404156794
 20
4.5714210115
 10
7.1401183818
 20
4.5698683709
 10
7.1397795928
 20
4.5683242511
 10
7.1393995555
 20
4.5667897607
 10
7.1389785425
 20
4.5652660013
 10
7.1385168577
 20
4.5637540722
 10
7.1380148327
 20
4.5622550585
 10
7.1374728283
 20
4.5607700364
 10
7.1368912359
 20
4.5593000767
 10
7.1362704737
 20
4.5578462347
 10
7.1356109879
 20
4.5564095536
 10
7.134913255
 20
4.554991069
 10
7.1341777788
 20
4.5535918024
 10
7.1334050866
 20
4.552212754
 10
7.13259573
 20
4.5508549067
 10
7.1317502938
 20
4.5495192401
 10
7.1308693822
 20
4.5482067073
 10
7.129953613
 20
4.5469182298
 10
7.1290036426
 20
4.5456547337
 10
7.1280201516
 20
4.5444171265
 10
7.1270038271
 20
4.5432062774
 10
7.1259553909
 20
4.5420230524
 10
7.1248755977
 20
4.5408683093
 10
7.1237652173
 20
4.5397428768
 10
7.1226250264
 20
4.5386475494
 10
7.1214558578
 20
4.5375831339
 10
7.1202586007
 20
4.5365504417
 10
7.1190341122
 20
4.5355502103
 10
7.1177832761
 20
4.53458316
 10
7.1165070592
 20
4.5336500322
 10
7.1152063824
 20
4.5327514903
 10
7.1138821844
 20
4.5318881727
 10
7.1125354912
 20
4.5310607347
 10
7.1111672748
 20
4.5302697564
 10
7.1097785267
 20
4.5295157938
 10
7.1083703314
 20
4.5287994149
 10
7.1069437061
 20
4.5281211125
 10
7.1054996857
 20
4.5274813544
 10
7.1040394068
 20
4.5268806156
 10
7.1025638751
 20
4.5263192795
 10
7.1010742085
 20
4.5257977419
 10
7.0995717385
 20
4.5253164256
 10
7.0980578559
 20
4.5248757089
 10
7.0965333669
 20
4.5244757597
 10
7.0949987144
 20
4.5241166691
  0
LWPOLYLINE
  5
2CA
100
AcDbEntity
  8
0
100
AcDbPolyline
 62
7
  6
CONTINUOUS
 90
6
 70
0
 10
7.110018042
 20
3.5009960497
 10
7.1097220294
 20
3.5000820868
 10
7.1093968942
 20
3.4991780688
 10
7.1090429697
 20
3.4982849233
 10
7.1086606188
 20
3.4974035666
 10
7.1082502313
 20
3.4965348991
  0
LINE
  5
2CB
100
AcDbEntity
  8
0
100
AcDbLine
 62
7
  6
CONTINUOUS
 10
7.1082506312
 20
3.4965356695
 11
7.1078126775
 21
3.4956806184
  0
LINE
  5
2CC
100
AcDbEntity
  8
0
100
AcDbLine
 62
7
  6
CONTINUOUS
 10
7.1078122278
 20
3.4956798122
 11
7.1073470569
 21
3.4948391835
  0
LINE
  5
2CD
100
AcDbEntity
  8
0
100
AcDbLine
 62
7
  6
CONTINUOUS
 10
7.1073475599
 20
3.4948400243
 11
7.106855753
 21
3.4940147471
  0
LINE
  5
2CE
100
AcDbEntity
  8
0
100
AcDbLine
 62
7
  6
CONTINUOUS
 10
7.1068551928
 20
3.494013872
 11
7.1063371689
 21
3.4932047716
  0
LINE
  5
2CF
100
AcDbEntity
  8
0
100
AcDbLine
 62
7
  6
CONTINUOUS
 10
7.1063377606
 20
3.4932056336
 11
7.1057941133
 21
3.4924135146
  0
LWPOLYLINE
  5
2D0
100
AcDbEntity
  8
0
100
AcDbPolyline
 62
7
  6
CONTINUOUS
 90
7
 70
0
 10
7.1057934265
 20
3.4924125735
 10
7.1052246093
 20
3.4916382276
 10
7.1046312676
 20
3.4908824798
 10
7.1040140111
 20
3.4901461097
 10
7.1033734777
 20
3.48942988
 10
7.1027103211
 20
3.4887345232
 10
7.102025224
 20
3.4880607565
  0
LINE
  5
2D1
100
AcDbEntity
  8
0
100
AcDbLine
 62
7
  6
CONTINUOUS
 10
7.235074959
 20
3.0554357127
 11
7.132574959
 21
2.9962573102
  0
LINE
  5
2D2
100
AcDbEntity
  8
0
100
AcDbLine
 62
7
  6
CONTINUOUS
 10
7.235074959
 20
3.0438887074
 11
7.137574959
 21
2.9875970561
  0
LINE
  5
2D3
100
AcDbEntity
  8
0
100
AcDbLine
 62
7
  6
CONTINUOUS
 10
2.051324959
 20
6.1557787267
 11
2.738824959
 21
6.1557787267
  0
LINE
  5
2D4
100
AcDbEntity
  8
0
100
AcDbLine
 62
7
  6
CONTINUOUS
 10
7.078824959
 20
6.1557787267
 11
7.766324959
 21
6.1557787267
  0
LINE
  5
2D5
100
AcDbEntity
  8
0
100
AcDbLine
 62
7
  6
CONTINUOUS
 10
6.862324959
 20
6.3722787267
 11
6.788824959
 21
6.3722787267
  0
LINE
  5
2D6
100
AcDbEntity
  8
0
100
AcDbLine
 62
7
  6
CONTINUOUS
 10
2.955324959
 20
6.3722787267
 11
3.028824959
 21
6.3722787267
  0
LINE
  5
2D7
100
AcDbEntity
  8
0
100
AcDbLine
 62
7
  6
CONTINUOUS
 10
2.9160343749
 20
6.4047787267
 11
2.856324959
 21
6.4047787267
  0
LINE
  5
2D8
100
AcDbEntity
  8
0
100
AcDbLine
 62
7
  6
CONTINUOUS
 10
6.9016155431
 20
6.4047787267
 11
6.961324959
 21
6.4047787267
  0
LWPOLYLINE
  5
2D9
100
AcDbEntity
  8
0
100
AcDbPolyline
 62
7
  6
CONTINUOUS
 90
4
 70
0
 10
7.7651780716
 20
3.4751381753
 10
7.7650343771
 20
3.4754021319
 10
7.7648844434
 20
3.4756589563
 10
7.7647286459
 20
3.4759085631
  0
LINE
  5
2DA
100
AcDbEntity
  8
0
100
AcDbLine
 62
7
  6
CONTINUOUS
 10
7.3433249586
 20
3.5557787214
 11
7.3421999591
 21
3.5711537246
  0
LINE
  5
2DB
100
AcDbEntity
  8
0
100
AcDbLine
 62
7
  6
CONTINUOUS
 10
7.4404499598
 20
4.0054037217
 11
7.440699964
 21
4.0019037295
  0
LINE
  5
2DC
100
AcDbEntity
  8
0
100
AcDbLine
 62
7
  6
CONTINUOUS
 10
7.4984499581
 20
3.682153726
 11
7.4994499639
 21
3.6642787252
  0
LINE
  5
2DD
100
AcDbEntity
  8
0
100
AcDbLine
 62
7
  6
CONTINUOUS
 10
7.3428249585
 20
3.7395287249
 11
7.3421999591
 21
3.7559037451
  0
LINE
  5
2DE
100
AcDbEntity
  8
0
100
AcDbLine
 62
7
  6
CONTINUOUS
 10
7.5129499577
 20
3.4785287325
 11
7.5128249556
 21
3.5701537076
  0
LINE
  5
2DF
100
AcDbEntity
  8
0
100
AcDbLine
 62
7
  6
CONTINUOUS
 10
7.328574959
 20
4.3802787267
 11
7.328574959
 21
4.3702787267
  0
LINE
  5
2E0
100
AcDbEntity
  8
0
100
AcDbLine
 62
7
  6
CONTINUOUS
 10
7.328574959
 20
2.5985287267
 11
7.328574959
 21
2.6085287267
  0
LINE
  5
2E1
100
AcDbEntity
  8
0
100
AcDbLine
 62
7
  6
CONTINUOUS
 10
7.328824959
 20
3.7511537317
 11
7.328824959
 21
3.5969037358
  0
LINE
  5
2E2
100
AcDbEntity
  8
0
100
AcDbLine
 62
7
  6
CONTINUOUS
 10
7.328824959
 20
3.5660287384
 11
7.328824959
 21
3.4712787215
  0
LINE
  5
2E3
100
AcDbEntity
  8
0
100
AcDbLine
 62
7
  6
CONTINUOUS
 10
7.3756751879
 20
2.8153599291
 11
7.3756751879
 21
2.8191975243
  0
LINE
  5
2E4
100
AcDbEntity
  8
0
100
AcDbLine
 62
7
  6
CONTINUOUS
 10
7.3806561614
 20
2.8103789556
 11
7.3806561614
 21
2.8241784978
  0
LINE
  5
2E5
100
AcDbEntity
  8
0
100
AcDbLine
 62
7
  6
CONTINUOUS
 10
7.407574959
 20
1.4697787267
 11
7.407574959
 21
1.3805287267
  0
LINE
  5
2E6
100
AcDbEntity
  8
0
100
AcDbLine
 62
7
  6
CONTINUOUS
 10
7.4106942144
 20
2.8153599291
 11
7.4106942144
 21
2.8103789556
  0
LINE
  5
2E7
100
AcDbEntity
  8
0
100
AcDbLine
 62
7
  6
CONTINUOUS
 10
7.4106942144
 20
2.8191975243
 11
7.4106942144
 21
2.8241784978
  0
LINE
  5
2E8
100
AcDbEntity
  8
0
100
AcDbLine
 62
7
  6
CONTINUOUS
 10
7.412574959
 20
4.9097787267
 11
7.412574959
 21
4.7622787267
  0
LINE
  5
2E9
100
AcDbEntity
  8
0
100
AcDbLine
 62
7
  6
CONTINUOUS
 10
7.4156751879
 20
2.7753599291
 11
7.4156751879
 21
2.8053979821
  0
LINE
  5
2EA
100
AcDbEntity
  8
0
100
AcDbLine
 62
7
  6
CONTINUOUS
 10
7.4156751879
 20
2.8291594713
 11
7.4156751879
 21
2.8591975243
  0
LINE
  5
2EB
100
AcDbEntity
  8
0
100
AcDbLine
 62
7
  6
CONTINUOUS
 10
7.4206561614
 20
2.7703789556
 11
7.4206561614
 21
2.8053979821
  0
LINE
  5
2EC
100
AcDbEntity
  8
0
100
AcDbLine
 62
7
  6
CONTINUOUS
 10
7.4206561614
 20
2.8291594713
 11
7.4206561614
 21
2.8641784978
  0
LINE
  5
2ED
100
AcDbEntity
  8
0
100
AcDbLine
 62
7
  6
CONTINUOUS
 10
7.422574959
 20
6.1656013727
 11
7.422574959
 21
6.2972787267
  0
LINE
  5
2EE
100
AcDbEntity
  8
0
100
AcDbLine
 62
7
  6
CONTINUOUS
 10
7.4244937566
 20
2.8053979821
 11
7.4244937566
 21
2.7703789556
  0
LINE
  5
2EF
100
AcDbEntity
  8
0
100
AcDbLine
 62
7
  6
CONTINUOUS
 10
7.4244937566
 20
2.8291594713
 11
7.4244937566
 21
2.8641784978
  0
LINE
  5
2F0
100
AcDbEntity
  8
0
100
AcDbLine
 62
7
  6
CONTINUOUS
 10
7.4294747301
 20
2.8591975243
 11
7.4294747301
 21
2.8291594713
  0
LINE
  5
2F1
100
AcDbEntity
  8
0
100
AcDbLine
 62
7
  6
CONTINUOUS
 10
7.4294747301
 20
2.8053979821
 11
7.4294747301
 21
2.7753599291
  0
LINE
  5
2F2
100
AcDbEntity
  8
0
100
AcDbLine
 62
7
  6
CONTINUOUS
 10
7.432574959
 20
4.9097787267
 11
7.432574959
 21
4.7622787267
  0
LINE
  5
2F3
100
AcDbEntity
  8
0
100
AcDbLine
 62
7
  6
CONTINUOUS
 10
7.4344557035
 20
2.8153599291
 11
7.4344557035
 21
2.8103789556
  0
LINE
  5
2F4
100
AcDbEntity
  8
0
100
AcDbLine
 62
7
  6
CONTINUOUS
 10
7.4344557035
 20
2.8191975243
 11
7.4344557035
 21
2.8241784978
  0
LINE
  5
2F5
100
AcDbEntity
  8
0
100
AcDbLine
 62
7
  6
CONTINUOUS
 10
7.437574959
 20
1.4697787267
 11
7.437574959
 21
1.3805287267
  0
LINE
  5
2F6
100
AcDbEntity
  8
0
100
AcDbLine
 62
7
  6
CONTINUOUS
 10
7.4644937566
 20
2.8103789556
 11
7.4644937566
 21
2.8241784978
  0
LINE
  5
2F7
100
AcDbEntity
  8
0
100
AcDbLine
 62
7
  6
CONTINUOUS
 10
7.4694747301
 20
2.8191975243
 11
7.4694747301
 21
2.8153599291
  0
LINE
  5
2F8
100
AcDbEntity
  8
0
100
AcDbLine
 62
7
  6
CONTINUOUS
 10
7.516574959
 20
4.3802787267
 11
7.516574959
 21
4.3702787267
  0
LINE
  5
2F9
100
AcDbEntity
  8
0
100
AcDbLine
 62
7
  6
CONTINUOUS
 10
7.516574959
 20
2.5985287267
 11
7.516574959
 21
2.6085287267
  0
LINE
  5
2FA
100
AcDbEntity
  8
0
100
AcDbLine
 62
7
  6
CONTINUOUS
 10
7.5126999535
 20
3.6649037246
 11
7.5128249556
 21
3.7552787457
  0
LINE
  5
2FB
100
AcDbEntity
  8
0
100
AcDbLine
 62
7
  6
CONTINUOUS
 10
7.5160749547
 20
4.001153728
 11
7.516324959
 21
4.0050287265
  0
LINE
  5
2FC
100
AcDbEntity
  8
0
100
AcDbLine
 62
7
  6
CONTINUOUS
 10
7.4994499639
 20
3.7557787094
 11
7.4984499581
 21
3.7405287419
  0
LINE
  5
2FD
100
AcDbEntity
  8
0
100
AcDbLine
 62
7
  6
CONTINUOUS
 10
7.4994499639
 20
3.5700287167
 11
7.498324956
 21
3.5556537304
  0
LINE
  5
2FE
100
AcDbEntity
  8
0
100
AcDbLine
 62
7
  6
CONTINUOUS
 10
7.3979499612
 20
3.5905287061
 11
7.3984499585
 21
3.5960287098
  0
LINE
  5
2FF
100
AcDbEntity
  8
0
100
AcDbLine
 62
7
  6
CONTINUOUS
 10
7.3940749571
 20
3.9955287222
 11
7.3963249617
 21
4.0045287293
  0
LINE
  5
300
100
AcDbEntity
  8
0
100
AcDbLine
 62
7
  6
CONTINUOUS
 10
6.778824959
 20
6.4510287267
 11
3.038824959
 21
6.4510287267
  0
LWPOLYLINE
  5
301
100
AcDbEntity
  8
0
100
AcDbPolyline
 62
7
  6
CONTINUOUS
 90
4
 70
0
 10
7.765568253
 20
3.4743038111
 10
7.7654453453
 20
3.4745890254
 10
7.7653151481
 20
3.4748671895
 10
7.7651780716
 20
3.4751381753
  0
LWPOLYLINE
  5
302
100
AcDbEntity
  8
0
100
AcDbPolyline
 62
7
  6
CONTINUOUS
 90
4
 70
0
 10
7.766321388
 20
3.4707314517
 10
7.7663065009
 20
3.4710860857
 10
7.7662794761
 20
3.4714353631
 10
7.7662407933
 20
3.4717791855
  0
LWPOLYLINE
  5
303
100
AcDbEntity
  8
0
100
AcDbPolyline
 62
7
  6
CONTINUOUS
 90
26
 70
0
 10
7.7663240981
 20
3.4704876327
 10
7.766315782
 20
3.4708953711
 10
7.7662906751
 20
3.4713045391
 10
7.7662494133
 20
3.4717075111
 10
7.7661926243
 20
3.4721038518
 10
7.7661209567
 20
3.4724930058
 10
7.7660350701
 20
3.4728744644
 10
7.765935586
 20
3.4732479269
 10
7.7658231594
 20
3.4736129702
 10
7.7656984496
 20
3.4739692143
 10
7.7655620528
 20
3.474316476
 10
7.7654146124
 20
3.4746544501
 10
7.7652567703
 20
3.4749828695
 10
7.7650890837
 20
3.4753016516
 10
7.7649121705
 20
3.4756105935
 10
7.7647266428
 20
3.4759095253
 10
7.7645330095
 20
3.4761984478
 10
7.7643318391
 20
3.4764772635
 10
7.7641237182
 20
3.4767458653
 10
7.7639091472
 20
3.4770042678
 10
7.7636886392
 20
3.4772524673
 10
7.7634627597
 20
3.4774904118
 10
7.7632320662
 20
3.4777180774
 10
7.7629970677
 20
3.4779355034
 10
7.762758268
 20
3.4781427424
 10
7.7625042586
 20
3.4783512242
  0
LINE
  5
304
100
AcDbEntity
  8
0
100
AcDbLine
 62
7
  6
CONTINUOUS
 10
7.7663243174
 20
3.4704894201
 11
7.766321388
 21
3.4707314517
  0
LINE
  5
305
100
AcDbEntity
  8
0
100
AcDbLine
 62
7
  6
CONTINUOUS
 10
7.600074959
 20
4.2867787267
 11
7.600074959
 21
2.6920287267
  0
LINE
  5
306
100
AcDbEntity
  8
0
100
AcDbLine
 62
7
  6
CONTINUOUS
 10
7.610074959
 20
4.2867787267
 11
7.610074959
 21
2.6920287267
  0
LINE
  5
307
100
AcDbEntity
  8
0
100
AcDbLine
 62
7
  6
CONTINUOUS
 10
7.685074959
 20
4.9297787267
 11
7.685074959
 21
6.0647787267
  0
LINE
  5
308
100
AcDbEntity
  8
0
100
AcDbLine
 62
7
  6
CONTINUOUS
 10
7.703824959
 20
3.3597787267
 11
7.703824959
 21
3.1866183919
  0
LINE
  5
309
100
AcDbEntity
  8
0
100
AcDbLine
 62
7
  6
CONTINUOUS
 10
7.703824959
 20
4.5817393613
 11
7.703824959
 21
4.699341691
  0
LINE
  5
30A
100
AcDbEntity
  8
0
100
AcDbLine
 62
7
  6
CONTINUOUS
 10
7.712574959
 20
2.6556206513
 11
7.712574959
 21
2.9789368021
  0
LINE
  5
30B
100
AcDbEntity
  8
0
100
AcDbLine
 62
7
  6
CONTINUOUS
 10
7.722574959
 20
2.6556206513
 11
7.722574959
 21
2.9789368021
  0
LINE
  5
30C
100
AcDbEntity
  8
0
100
AcDbLine
 62
7
  6
CONTINUOUS
 10
7.725074959
 20
4.9097787267
 11
7.725074959
 21
4.7622787267
  0
LINE
  5
30D
100
AcDbEntity
  8
0
100
AcDbLine
 62
7
  6
CONTINUOUS
 10
7.730074959
 20
2.5047787267
 11
7.730074959
 21
3.1297787267
  0
LINE
  5
30E
100
AcDbEntity
  8
0
100
AcDbLine
 62
7
  6
CONTINUOUS
 10
7.733824959
 20
6.3397787267
 11
7.733824959
 21
6.1950693109
  0
LINE
  5
30F
100
AcDbEntity
  8
0
100
AcDbLine
 62
7
  6
CONTINUOUS
 10
7.733824959
 20
3.5097787267
 11
7.7338222161
 21
4.0310634741
  0
LINE
  5
310
100
AcDbEntity
  8
0
100
AcDbLine
 62
7
  6
CONTINUOUS
 10
7.735074959
 20
4.9097787267
 11
7.735074959
 21
4.7622787267
  0
LINE
  5
311
100
AcDbEntity
  8
0
100
AcDbLine
 62
7
  6
CONTINUOUS
 10
7.735074959
 20
2.4643260442
 11
7.735074959
 21
2.1672787267
  0
LINE
  5
312
100
AcDbEntity
  8
0
100
AcDbLine
 62
7
  6
CONTINUOUS
 10
7.7509970862
 20
4.5235287267
 11
7.7509970862
 21
4.5085287267
  0
LINE
  5
313
100
AcDbEntity
  8
0
100
AcDbLine
 62
7
  6
CONTINUOUS
 10
7.760074959
 20
3.1147787267
 11
7.760074959
 21
2.5197787267
  0
LINE
  5
314
100
AcDbEntity
  8
0
100
AcDbLine
 62
7
  6
CONTINUOUS
 10
7.766324959
 20
3.4704876307
 11
7.766324959
 21
3.3997787267
  0
LINE
  5
315
100
AcDbEntity
  8
0
100
AcDbLine
 62
7
  6
CONTINUOUS
 10
7.766324959
 20
2.1672787267
 11
7.766324959
 21
2.1372787267
  0
LINE
  5
316
100
AcDbEntity
  8
0
100
AcDbLine
 62
7
  6
CONTINUOUS
 10
7.766324959
 20
6.0822787267
 11
7.766324959
 21
6.1557787267
  0
LINE
  5
317
100
AcDbEntity
  8
0
100
AcDbLine
 62
7
  6
CONTINUOUS
 10
7.797574959
 20
2.1222787267
 11
7.797574959
 21
1.4797787267
  0
LINE
  5
318
100
AcDbEntity
  8
0
100
AcDbLine
 62
7
  6
CONTINUOUS
 10
7.735074959
 20
2.4643260442
 11
7.7350796364
 21
2.4650689537
  0
LWPOLYLINE
  5
319
100
AcDbEntity
  8
0
100
AcDbPolyline
 62
7
  6
CONTINUOUS
 90
36
 70
0
 10
7.7038248988
 20
4.6993416911
 10
7.7038303052
 20
4.7001403868
 10
7.7038718247
 20
4.701694332
 10
7.7039541953
 20
4.7032455207
 10
7.7040772561
 20
4.7047927202
 10
7.7042408398
 20
4.7063350295
 10
7.7044448159
 20
4.7078718757
 10
7.7046889936
 20
4.7094022042
 10
7.7049731549
 20
4.7109249672
 10
7.7052971632
 20
4.7124396006
 10
7.7056607837
 20
4.713945063
 10
7.7060637545
 20
4.7154403196
 10
7.7065059323
 20
4.7169248099
 10
7.706987038
 20
4.718397503
 10
7.7075067653
 20
4.7198573751
 10
7.7080649629
 20
4.7213038636
 10
7.7086613097
 20
4.7227359542
 10
7.7092954507
 20
4.7241526235
 10
7.7099672121
 20
4.7255532781
 10
7.7106764096
 20
4.7269372612
 10
7.7114224709
 20
4.7283031972
 10
7.7122045791
 20
4.7296494395
 10
7.7130225291
 20
4.7309755058
 10
7.7138755095
 20
4.7322799573
 10
7.7147615411
 20
4.7335598664
 10
7.7156799079
 20
4.7348144617
 10
7.7166298269
 20
4.7360429263
 10
7.7176088676
 20
4.7372425293
 10
7.7186161039
 20
4.7384126925
 10
7.7196505589
 20
4.739552818
 10
7.7207093965
 20
4.7406604578
 10
7.7217914025
 20
4.7417351559
 10
7.7228955532
 20
4.7427766852
 10
7.7240190319
 20
4.7437832675
 10
7.725160041
 20
4.7447543019
 10
7.7263179326
 20
4.7456902184
  0
LINE
  5
31A
100
AcDbEntity
  8
0
100
AcDbLine
 62
7
  6
CONTINUOUS
 10
7.7659897563
 20
4.493059853
 11
7.7543168082
 21
4.1198065411
  0
LINE
  5
31B
100
AcDbEntity
  8
0
100
AcDbLine
 62
7
  6
CONTINUOUS
 10
7.7809824264
 20
4.4925909793
 11
7.7661569827
 21
4.0185337044
  0
LINE
  5
31C
100
AcDbEntity
  8
0
100
AcDbLine
 62
7
  6
CONTINUOUS
 10
7.137574959
 20
2.6469603973
 11
7.132574959
 21
2.6383001433
  0
LINE
  5
31D
100
AcDbEntity
  8
0
100
AcDbLine
 62
7
  6
CONTINUOUS
 10
7.3756751879
 20
2.8153599291
 11
7.3742829026
 21
2.8139676438
  0
LINE
  5
31E
100
AcDbEntity
  8
0
100
AcDbLine
 62
7
  6
CONTINUOUS
 10
7.4244937566
 20
2.8641784978
 11
7.4258860419
 21
2.8655707831
  0
LINE
  5
31F
100
AcDbEntity
  8
0
100
AcDbLine
 62
7
  6
CONTINUOUS
 10
7.3806561614
 20
2.8103789556
 11
7.3789420044
 21
2.8086647987
  0
LINE
  5
320
100
AcDbEntity
  8
0
100
AcDbLine
 62
7
  6
CONTINUOUS
 10
7.4294747301
 20
2.8591975243
 11
7.431188887
 21
2.8609116812
  0
LINE
  5
321
100
AcDbEntity
  8
0
100
AcDbLine
 62
7
  6
CONTINUOUS
 10
7.4318635099
 20
2.8315482511
 11
7.4294747301
 21
2.8291594713
  0
LINE
  5
322
100
AcDbEntity
  8
0
100
AcDbLine
 62
7
  6
CONTINUOUS
 10
7.4083054346
 20
2.8079901758
 11
7.4106942144
 21
2.8103789556
  0
LINE
  5
323
100
AcDbEntity
  8
0
100
AcDbLine
 62
7
  6
CONTINUOUS
 10
7.4368444834
 20
2.8265672776
 11
7.4344557035
 21
2.8241784978
  0
LINE
  5
324
100
AcDbEntity
  8
0
100
AcDbLine
 62
7
  6
CONTINUOUS
 10
7.4132864081
 20
2.8030092023
 11
7.4156751879
 21
2.8053979821
  0
LINE
  5
325
100
AcDbEntity
  8
0
100
AcDbLine
 62
7
  6
CONTINUOUS
 10
7.4156751879
 20
2.7753599291
 11
7.413961031
 21
2.7736457722
  0
LINE
  5
326
100
AcDbEntity
  8
0
100
AcDbLine
 62
7
  6
CONTINUOUS
 10
7.4644937566
 20
2.8241784978
 11
7.4662079135
 21
2.8258926547
  0
LINE
  5
327
100
AcDbEntity
  8
0
100
AcDbLine
 62
7
  6
CONTINUOUS
 10
7.4206561614
 20
2.7703789556
 11
7.4192638761
 21
2.7689866703
  0
LINE
  5
328
100
AcDbEntity
  8
0
100
AcDbLine
 62
7
  6
CONTINUOUS
 10
7.4694747301
 20
2.8191975243
 11
7.4708670154
 21
2.8205898096
  0
LINE
  5
329
100
AcDbEntity
  8
0
100
AcDbLine
 62
7
  6
CONTINUOUS
 10
7.427574959
 20
2.4853023219
 11
7.707574959
 21
2.6469603973
  0
LINE
  5
32A
100
AcDbEntity
  8
0
100
AcDbLine
 62
7
  6
CONTINUOUS
 10
7.432574959
 20
2.4766420679
 11
7.712574959
 21
2.6383001433
  0
LINE
  5
32B
100
AcDbEntity
  8
0
100
AcDbLine
 62
7
  6
CONTINUOUS
 10
7.0735557211
 20
2.1372787267
 11
7.047574959
 21
2.1222787267
  0
LINE
  5
32C
100
AcDbEntity
  8
0
100
AcDbLine
 62
7
  6
CONTINUOUS
 10
2.9455023129
 20
6.7160287267
 11
2.813824959
 21
6.7160287267
  0
LINE
  5
32D
100
AcDbEntity
  8
0
100
AcDbLine
 62
7
  6
CONTINUOUS
 10
6.872147605
 20
6.7160287267
 11
7.003824959
 21
6.7160287267
  0
LWPOLYLINE
  5
32E
100
AcDbEntity
  8
0
100
AcDbPolyline
 62
7
  6
CONTINUOUS
 90
6
 70
0
 10
7.7661304289
 20
3.4724490511
 10
7.7660596768
 20
3.472774753
 10
7.7659791616
 20
3.4730940208
 10
7.765889357
 20
3.4734066057
 10
7.7657906408
 20
3.4737125655
 10
7.7656834582
 20
3.4740116946
  0
LINE
  5
32F
100
AcDbEntity
  8
0
100
AcDbLine
 62
7
  6
CONTINUOUS
 10
7.838824959
 20
1.4697787267
 11
7.838824959
 21
1.3805287267
  0
LINE
  5
330
100
AcDbEntity
  8
0
100
AcDbLine
 62
7
  6
CONTINUOUS
 10
7.853824959
 20
1.4697787267
 11
7.853824959
 21
1.3805287267
  0
LINE
  5
331
100
AcDbEntity
  8
0
100
AcDbLine
 62
7
  6
CONTINUOUS
 10
7.980074959
 20
1.2672787267
 11
7.980074959
 21
1.3358877106
  0
LINE
  5
332
100
AcDbEntity
  8
0
100
AcDbLine
 62
7
  6
CONTINUOUS
 10
7.417574959
 20
2.4853023219
 11
7.412574959
 21
2.4766420679
  0
LINE
  5
333
100
AcDbEntity
  8
0
100
AcDbLine
 62
7
  6
CONTINUOUS
 10
7.707574959
 20
2.9875970561
 11
7.712574959
 21
2.9962573102
  0
LINE
  5
334
100
AcDbEntity
  8
0
100
AcDbLine
 62
7
  6
CONTINUOUS
 10
7.7545470608
 20
2.5081253848
 11
7.7548580008
 21
2.5083985104
  0
LINE
  5
335
100
AcDbEntity
  8
0
100
AcDbLine
 62
7
  6
CONTINUOUS
 10
6.778824959
 20
6.9810287267
 11
3.038824959
 21
6.9810287267
  0
LINE
  5
336
100
AcDbEntity
  8
0
100
AcDbLine
 62
7
  6
CONTINUOUS
 10
2.9160343749
 20
7.0272787267
 11
2.771324959
 21
7.0272787267
  0
LINE
  5
337
100
AcDbEntity
  8
0
100
AcDbLine
 62
7
  6
CONTINUOUS
 10
6.9016155431
 20
7.0272787267
 11
7.046324959
 21
7.0272787267
  0
LINE
  5
338
100
AcDbEntity
  8
0
100
AcDbLine
 62
7
  6
CONTINUOUS
 10
6.862324959
 20
7.0597787267
 11
6.788824959
 21
7.0597787267
  0
LINE
  5
339
100
AcDbEntity
  8
0
100
AcDbLine
 62
7
  6
CONTINUOUS
 10
2.955324959
 20
7.0597787267
 11
3.028824959
 21
7.0597787267
  0
LWPOLYLINE
  5
33A
100
AcDbEntity
  8
0
100
AcDbPolyline
 62
7
  6
CONTINUOUS
 90
4
 70
0
 10
7.7535420943
 20
2.5071989641
 10
7.7539505704
 20
2.5075818634
 10
7.7542855199
 20
2.507889646
 10
7.7545470608
 20
2.5081253848
  0
LINE
  5
33B
100
AcDbEntity
  8
0
100
AcDbLine
 62
7
  6
CONTINUOUS
 10
6.9127544509
 20
1.3691889807
 11
6.870074959
 21
1.3445479646
  0
ARC
  5
33C
100
AcDbEntity
  8
0
100
AcDbCircle
 62
7
  6
CONTINUOUS
 10
2.8563255462
 20
6.2547781395
 40
0.1500020104
100
AcDbArc
 50
90.0002242896
 51
179.9997757104
  0
ARC
  5
33D
100
AcDbEntity
  8
0
100
AcDbCircle
 62
7
  6
CONTINUOUS
 10
2.9160343749
 20
6.3747787267
 40
0.03
100
AcDbArc
 50
10.8069228748
 51
89.9999999499
  0
ARC
  5
33E
100
AcDbEntity
  8
0
100
AcDbCircle
 62
7
  6
CONTINUOUS
 10
2.9160343749
 20
7.0572787267
 40
0.03
100
AcDbArc
 50
270.0000000007
 51
349.1930771251
  0
ARC
  5
33F
100
AcDbEntity
  8
0
100
AcDbCircle
 62
7
  6
CONTINUOUS
 10
2.053824959
 20
6.1950693108
 40
0.03
100
AcDbArc
 50
280.8069228749
 51
359.9999999942
  0
ARC
  5
340
100
AcDbEntity
  8
0
100
AcDbCircle
 62
7
  6
CONTINUOUS
 10
2.736324959
 20
6.1950693108
 40
0.03
100
AcDbArc
 50
180.0000000423
 51
259.1930771252
  0
ARC
  5
341
100
AcDbEntity
  8
0
100
AcDbCircle
 62
7
  6
CONTINUOUS
 10
3.028824959
 20
7.0497787267
 40
0.01
100
AcDbArc
 50
0.0
 51
90.0
  0
ARC
  5
342
100
AcDbEntity
  8
0
100
AcDbCircle
 62
7
  6
CONTINUOUS
 10
3.028824959
 20
6.3822787267
 40
0.01
100
AcDbArc
 50
270.0
 51
360.0
  0
ARC
  5
343
100
AcDbEntity
  8
0
100
AcDbCircle
 62
7
  6
CONTINUOUS
 10
2.728824959
 20
6.0822787267
 40
0.01
100
AcDbArc
 50
270.0
 51
360.0
  0
ARC
  5
344
100
AcDbEntity
  8
0
100
AcDbCircle
 62
7
  6
CONTINUOUS
 10
2.061324959
 20
6.0822787267
 40
0.01
100
AcDbArc
 50
180.0
 51
270.0
  0
ARC
  5
345
100
AcDbEntity
  8
0
100
AcDbCircle
 62
7
  6
CONTINUOUS
 10
2.955324959
 20
7.0497787267
 40
0.01
100
AcDbArc
 50
90.0
 51
169.1930771251
  0
ARC
  5
346
100
AcDbEntity
  8
0
100
AcDbCircle
 62
7
  6
CONTINUOUS
 10
2.955324959
 20
6.3822787267
 40
0.01
100
AcDbArc
 50
190.8069228749
 51
270.0
  0
ARC
  5
347
100
AcDbEntity
  8
0
100
AcDbCircle
 62
7
  6
CONTINUOUS
 10
2.728824959
 20
6.1557787267
 40
0.01
100
AcDbArc
 50
0.0
 51
79.1930771251
  0
ARC
  5
348
100
AcDbEntity
  8
0
100
AcDbCircle
 62
7
  6
CONTINUOUS
 10
2.061324959
 20
6.1557787267
 40
0.01
100
AcDbArc
 50
100.8069228749
 51
180.0
  0
ARC
  5
349
100
AcDbEntity
  8
0
100
AcDbCircle
 62
7
  6
CONTINUOUS
 10
2.655074959
 20
6.0672787267
 40
0.005
100
AcDbArc
 50
0.0
 51
90.0
  0
ARC
  5
34A
100
AcDbEntity
  8
0
100
AcDbCircle
 62
7
  6
CONTINUOUS
 10
2.135074959
 20
6.0672787267
 40
0.005
100
AcDbArc
 50
90.0
 51
180.0
  0
ARC
  5
34B
100
AcDbEntity
  8
0
100
AcDbCircle
 62
7
  6
CONTINUOUS
 10
2.655074959
 20
5.8407787267
 40
0.005
100
AcDbArc
 50
270.0
 51
360.0
  0
ARC
  5
34C
100
AcDbEntity
  8
0
100
AcDbCircle
 62
7
  6
CONTINUOUS
 10
2.135074959
 20
5.8407787267
 40
0.005
100
AcDbArc
 50
180.0
 51
270.0
  0
ARC
  5
34D
100
AcDbEntity
  8
0
100
AcDbCircle
 62
7
  6
CONTINUOUS
 10
7.4207428249
 20
1.596496191
 40
1.2357432553
100
AcDbArc
 50
90.6055242303
 51
92.0267463326
  0
ARC
  5
34E
100
AcDbEntity
  8
0
100
AcDbCircle
 62
7
  6
CONTINUOUS
 10
7.4208193532
 20
1.6425211365
 40
1.1841122677
100
AcDbArc
 50
90.6055237227
 51
92.0267468402
  0
ARC
  5
34F
100
AcDbEntity
  8
0
100
AcDbCircle
 62
7
  6
CONTINUOUS
 10
7.051074959
 20
2.4643260442
 40
0.059
100
AcDbArc
 50
0.0
 51
47.7665182821
  0
ARC
  5
350
100
AcDbEntity
  8
0
100
AcDbCircle
 62
7
  6
CONTINUOUS
 10
7.142574959
 20
2.6556206513
 40
0.02
100
AcDbArc
 50
180.0
 51
240.0
  0
ARC
  5
351
100
AcDbEntity
  8
0
100
AcDbCircle
 62
7
  6
CONTINUOUS
 10
7.100074959
 20
2.5197787267
 40
0.015
100
AcDbArc
 50
180.0
 51
270.0
  0
ARC
  5
352
100
AcDbEntity
  8
0
100
AcDbCircle
 62
7
  6
CONTINUOUS
 10
7.001324959
 20
1.4697787267
 40
0.01
100
AcDbArc
 50
90.0
 51
180.0
  0
ARC
  5
353
100
AcDbEntity
  8
0
100
AcDbCircle
 62
7
  6
CONTINUOUS
 10
6.981324959
 20
1.3805287267
 40
0.01
100
AcDbArc
 50
270.0
 51
360.0
  0
ARC
  5
354
100
AcDbEntity
  8
0
100
AcDbCircle
 62
7
  6
CONTINUOUS
 10
6.875074959
 20
1.3358877106
 40
0.01
100
AcDbArc
 50
120.0
 51
180.0
  0
ARC
  5
355
100
AcDbEntity
  8
0
100
AcDbCircle
 62
7
  6
CONTINUOUS
 10
6.9177544509
 20
1.3605287267
 40
0.01
100
AcDbArc
 50
90.0
 51
120.0
  0
ARC
  5
356
100
AcDbEntity
  8
0
100
AcDbCircle
 62
7
  6
CONTINUOUS
 10
7.142574959
 20
2.6556206513
 40
0.01
100
AcDbArc
 50
180.0
 51
240.0
  0
ARC
  5
357
100
AcDbEntity
  8
0
100
AcDbCircle
 62
7
  6
CONTINUOUS
 10
6.2117097204
 20
2.8172788568
 40
1.2664658127
100
AcDbArc
 50
359.9999941128
 51
0.1563214079
  0
ARC
  5
358
100
AcDbEntity
  8
0
100
AcDbCircle
 62
7
  6
CONTINUOUS
 10
6.2120175681
 20
2.8172781766
 40
1.2661579649
100
AcDbArc
 50
359.8436595878
 51
0.0000248915
  0
ARC
  5
359
100
AcDbEntity
  8
0
100
AcDbCircle
 62
7
  6
CONTINUOUS
 10
7.420742829
 20
4.0380614415
 40
1.2357434344
100
AcDbArc
 50
267.9732537704
 51
269.3944756667
  0
ARC
  5
35A
100
AcDbEntity
  8
0
100
AcDbCircle
 62
7
  6
CONTINUOUS
 10
6.2017922441
 20
2.8154465967
 40
1.2357434344
100
AcDbArc
 50
357.9732537704
 51
359.3944756667
  0
ARC
  5
35B
100
AcDbEntity
  8
0
100
AcDbCircle
 62
7
  6
CONTINUOUS
 10
6.2017924232
 20
2.8191108608
 40
1.2357432553
100
AcDbArc
 50
0.6055242303
 51
2.0267463326
  0
ARC
  5
35C
100
AcDbEntity
  8
0
100
AcDbCircle
 62
7
  6
CONTINUOUS
 10
6.257298707
 20
2.8172787267
 40
1.2135728253
100
AcDbArc
 50
359.8436753795
 51
0.1563246205
  0
ARC
  5
35D
100
AcDbEntity
  8
0
100
AcDbCircle
 62
7
  6
CONTINUOUS
 10
6.2478173688
 20
2.8155231209
 40
1.1841122677
100
AcDbArc
 50
357.9732531598
 51
359.3944762773
  0
ARC
  5
35E
100
AcDbEntity
  8
0
100
AcDbCircle
 62
7
  6
CONTINUOUS
 10
7.4208193532
 20
3.9920363169
 40
1.1841122677
100
AcDbArc
 50
267.9732531598
 51
269.3944762773
  0
ARC
  5
35F
100
AcDbEntity
  8
0
100
AcDbCircle
 62
7
  6
CONTINUOUS
 10
6.2478173687
 20
2.8190343325
 40
1.1841122677
100
AcDbArc
 50
0.6055237227
 51
2.0267468402
  0
ARC
  5
360
100
AcDbEntity
  8
0
100
AcDbCircle
 62
7
  6
CONTINUOUS
 10
7.4194435865
 20
4.0296403457
 40
0.3081197174
100
AcDbArc
 50
169.4494852565
 51
179.7352502704
  0
ARC
  5
361
100
AcDbEntity
  8
0
100
AcDbCircle
 62
7
  6
CONTINUOUS
 10
7.4162863119
 20
4.0297787105
 40
0.3049610391
100
AcDbArc
 50
179.7585048706
 51
180.0055731858
  0
ARC
  5
362
100
AcDbEntity
  8
0
100
AcDbCircle
 62
7
  6
CONTINUOUS
 10
7.328574959
 20
2.6920287267
 40
0.0935
100
AcDbArc
 50
180.0
 51
270.0
  0
ARC
  5
363
100
AcDbEntity
  8
0
100
AcDbCircle
 62
7
  6
CONTINUOUS
 10
7.328574959
 20
2.6920287267
 40
0.0835
100
AcDbArc
 50
180.0
 51
270.0
  0
ARC
  5
364
100
AcDbEntity
  8
0
100
AcDbCircle
 62
7
  6
CONTINUOUS
 10
7.082324959
 20
3.1866183919
 40
0.059
100
AcDbArc
 50
284.1354096367
 51
360.0
  0
ARC
  5
365
100
AcDbEntity
  8
0
100
AcDbCircle
 62
7
  6
CONTINUOUS
 10
7.111324959
 20
3.3597787267
 40
0.03
100
AcDbArc
 50
0.0
 51
90.0
  0
ARC
  5
366
100
AcDbEntity
  8
0
100
AcDbCircle
 62
7
  6
CONTINUOUS
 10
7.142574959
 20
2.9789368021
 40
0.02
100
AcDbArc
 50
120.0
 51
180.0
  0
ARC
  5
367
100
AcDbEntity
  8
0
100
AcDbCircle
 62
7
  6
CONTINUOUS
 10
7.100074959
 20
3.1147787267
 40
0.015
100
AcDbArc
 50
90.0
 51
180.0
  0
ARC
  5
368
100
AcDbEntity
  8
0
100
AcDbCircle
 62
7
  6
CONTINUOUS
 10
7.088824959
 20
3.3997787267
 40
0.01
100
AcDbArc
 50
180.0
 51
270.0
  0
ARC
  5
369
100
AcDbEntity
  8
0
100
AcDbCircle
 62
7
  6
CONTINUOUS
 10
7.142574959
 20
2.9789368021
 40
0.01
100
AcDbArc
 50
120.0
 51
180.0
  0
ARC
  5
36A
100
AcDbEntity
  8
0
100
AcDbCircle
 62
7
  6
CONTINUOUS
 10
7.422574959
 20
1.6063918516
 40
1.2664874494
100
AcDbArc
 50
89.8436753756
 51
90.1563246244
  0
ARC
  5
36B
100
AcDbEntity
  8
0
100
AcDbCircle
 62
7
  6
CONTINUOUS
 10
7.424407089
 20
1.5964960119
 40
1.2357434344
100
AcDbArc
 50
87.9732537704
 51
89.3944756667
  0
ARC
  5
36C
100
AcDbEntity
  8
0
100
AcDbCircle
 62
7
  6
CONTINUOUS
 10
7.422574959
 20
1.652002475
 40
1.2135728251
100
AcDbArc
 50
89.8436753794
 51
90.1563246206
  0
ARC
  5
36D
100
AcDbEntity
  8
0
100
AcDbCircle
 62
7
  6
CONTINUOUS
 10
7.4243305648
 20
1.6425211365
 40
1.1841122677
100
AcDbArc
 50
87.9732531598
 51
89.3944762773
  0
ARC
  5
36E
100
AcDbEntity
  8
0
100
AcDbCircle
 62
7
  6
CONTINUOUS
 10
7.794074959
 20
2.4643260442
 40
0.059
100
AcDbArc
 50
132.5882367131
 51
179.2785303757
  0
ARC
  5
36F
100
AcDbEntity
  8
0
100
AcDbCircle
 62
7
  6
CONTINUOUS
 10
7.422574959
 20
2.493962576
 40
0.02
100
AcDbArc
 50
240.0
 51
300.0
  0
ARC
  5
370
100
AcDbEntity
  8
0
100
AcDbCircle
 62
7
  6
CONTINUOUS
 10
7.702574959
 20
2.6556206513
 40
0.02
100
AcDbArc
 50
300.0
 51
360.0
  0
ARC
  5
371
100
AcDbEntity
  8
0
100
AcDbCircle
 62
7
  6
CONTINUOUS
 10
7.745074959
 20
2.5197787267
 40
0.015
100
AcDbArc
 50
270.0
 51
360.0
  0
ARC
  5
372
100
AcDbEntity
  8
0
100
AcDbCircle
 62
7
  6
CONTINUOUS
 10
7.843824959
 20
1.4697787267
 40
0.01
100
AcDbArc
 50
0.0
 51
90.0
  0
ARC
  5
373
100
AcDbEntity
  8
0
100
AcDbCircle
 62
7
  6
CONTINUOUS
 10
7.863824959
 20
1.3805287267
 40
0.01
100
AcDbArc
 50
180.0
 51
270.0
  0
ARC
  5
374
100
AcDbEntity
  8
0
100
AcDbCircle
 62
7
  6
CONTINUOUS
 10
7.970074959
 20
1.3358877106
 40
0.01
100
AcDbArc
 50
0.0
 51
60.0
  0
ARC
  5
375
100
AcDbEntity
  8
0
100
AcDbCircle
 62
7
  6
CONTINUOUS
 10
7.9273954671
 20
1.3605287267
 40
0.01
100
AcDbArc
 50
60.0
 51
90.0
  0
ARC
  5
376
100
AcDbEntity
  8
0
100
AcDbCircle
 62
7
  6
CONTINUOUS
 10
7.702574959
 20
2.6556206513
 40
0.01
100
AcDbArc
 50
300.0
 51
360.0
  0
ARC
  5
377
100
AcDbEntity
  8
0
100
AcDbCircle
 62
7
  6
CONTINUOUS
 10
7.422574959
 20
2.493962576
 40
0.01
100
AcDbArc
 50
240.0
 51
300.0
  0
CIRCLE
  5
378
100
AcDbEntity
  8
0
100
AcDbCircle
 62
7
  6
CONTINUOUS
 10
7.422574959
 20
2.8172787267
 40
0.13125
  0
CIRCLE
  5
379
100
AcDbEntity
  8
0
100
AcDbCircle
 62
7
  6
CONTINUOUS
 10
7.422574959
 20
2.8172787267
 40
0.12125
  0
ARC
  5
37A
100
AcDbEntity
  8
0
100
AcDbCircle
 62
7
  6
CONTINUOUS
 10
7.516574959
 20
2.6920287267
 40
0.0935
100
AcDbArc
 50
270.0
 51
360.0
  0
CIRCLE
  5
37B
100
AcDbEntity
  8
0
100
AcDbCircle
 62
7
  6
CONTINUOUS
 10
7.422574959
 20
2.8172787267
 40
0.0889341841
  0
ARC
  5
37C
100
AcDbEntity
  8
0
100
AcDbCircle
 62
7
  6
CONTINUOUS
 10
7.516574959
 20
2.6920287267
 40
0.0835
100
AcDbArc
 50
270.0
 51
360.0
  0
CIRCLE
  5
37D
100
AcDbEntity
  8
0
100
AcDbCircle
 62
7
  6
CONTINUOUS
 10
7.422574959
 20
2.8172787267
 40
0.0789341841
  0
CIRCLE
  5
37E
100
AcDbEntity
  8
0
100
AcDbCircle
 62
7
  6
CONTINUOUS
 10
7.422574959
 20
2.8172787267
 40
0.0752196325
  0
ARC
  5
37F
100
AcDbEntity
  8
0
100
AcDbCircle
 62
7
  6
CONTINUOUS
 10
7.762824959
 20
3.1866183919
 40
0.059
100
AcDbArc
 50
180.0
 51
255.9037340745
  0
ARC
  5
380
100
AcDbEntity
  8
0
100
AcDbCircle
 62
7
  6
CONTINUOUS
 10
7.733824959
 20
3.3597787267
 40
0.03
100
AcDbArc
 50
90.0
 51
180.0
  0
ARC
  5
381
100
AcDbEntity
  8
0
100
AcDbCircle
 62
7
  6
CONTINUOUS
 10
7.702574959
 20
2.9789368021
 40
0.02
100
AcDbArc
 50
0.0
 51
60.0
  0
ARC
  5
382
100
AcDbEntity
  8
0
100
AcDbCircle
 62
7
  6
CONTINUOUS
 10
7.745074959
 20
3.1147787267
 40
0.015
100
AcDbArc
 50
0.0
 51
90.0
  0
ARC
  5
383
100
AcDbEntity
  8
0
100
AcDbCircle
 62
7
  6
CONTINUOUS
 10
7.702574959
 20
2.9789368021
 40
0.01
100
AcDbArc
 50
0.0
 51
60.0
  0
ARC
  5
384
100
AcDbEntity
  8
0
100
AcDbCircle
 62
7
  6
CONTINUOUS
 10
7.422574959
 20
4.0281656018
 40
1.2664874494
100
AcDbArc
 50
269.8436753756
 51
270.1563246244
  0
ARC
  5
385
100
AcDbEntity
  8
0
100
AcDbCircle
 62
7
  6
CONTINUOUS
 10
7.4244070931
 20
4.0380612625
 40
1.2357432553
100
AcDbArc
 50
270.6055242303
 51
272.0267463326
  0
ARC
  5
386
100
AcDbEntity
  8
0
100
AcDbCircle
 62
7
  6
CONTINUOUS
 10
7.422574959
 20
3.9825549785
 40
1.2135728251
100
AcDbArc
 50
269.8436753794
 51
270.1563246206
  0
ARC
  5
387
100
AcDbEntity
  8
0
100
AcDbCircle
 62
7
  6
CONTINUOUS
 10
7.4243305648
 20
3.9920363169
 40
1.1841122677
100
AcDbArc
 50
270.6055237227
 51
272.0267468402
  0
ARC
  5
388
100
AcDbEntity
  8
0
100
AcDbCircle
 62
7
  6
CONTINUOUS
 10
7.422574959
 20
4.0297787267
 40
0.34375
100
AcDbArc
 50
334.8887821605
 51
58.3289209411
  0
ARC
  5
389
100
AcDbEntity
  8
0
100
AcDbCircle
 62
7
  6
CONTINUOUS
 10
7.422574959
 20
4.0297787267
 40
0.34375
100
AcDbArc
 50
121.6710484298
 51
205.1109730613
  0
ARC
  5
38A
100
AcDbEntity
  8
0
100
AcDbCircle
 62
7
  6
CONTINUOUS
 10
7.422574959
 20
4.0292787267
 40
0.34375
100
AcDbArc
 50
334.8901877037
 51
358.2087426131
  0
ARC
  5
38B
100
AcDbEntity
  8
0
100
AcDbCircle
 62
7
  6
CONTINUOUS
 10
7.422574959
 20
4.0292787267
 40
0.34375
100
AcDbArc
 50
181.7912573869
 51
205.1098122963
  0
ARC
  5
38C
100
AcDbEntity
  8
0
100
AcDbCircle
 62
7
  6
CONTINUOUS
 10
7.425869476
 20
4.029655563
 40
0.3079564081
100
AcDbArc
 50
0.2619561131
 51
10.0285553343
  0
ARC
  5
38D
100
AcDbEntity
  8
0
100
AcDbCircle
 62
7
  6
CONTINUOUS
 10
7.4288634776
 20
4.0297786906
 40
0.3049611676
100
AcDbArc
 50
359.9946040271
 51
0.2413950475
  0
ARC
  5
38E
100
AcDbEntity
  8
0
100
AcDbCircle
 62
7
  6
CONTINUOUS
 10
7.756324959
 20
3.3997787267
 40
0.01
100
AcDbArc
 50
270.0
 51
360.0
  0
ARC
  5
38F
100
AcDbEntity
  8
0
100
AcDbCircle
 62
7
  6
CONTINUOUS
 10
8.6334401976
 20
2.8172785966
 40
1.2664658127
100
AcDbArc
 50
179.9999941128
 51
180.1563214079
  0
ARC
  5
390
100
AcDbEntity
  8
0
100
AcDbCircle
 62
7
  6
CONTINUOUS
 10
8.6331323499
 20
2.8172792768
 40
1.2661579649
100
AcDbArc
 50
179.8436595878
 51
180.0000248915
  0
ARC
  5
391
100
AcDbEntity
  8
0
100
AcDbCircle
 62
7
  6
CONTINUOUS
 10
8.6433576738
 20
2.8191108567
 40
1.2357434344
100
AcDbArc
 50
177.9732537704
 51
179.3944756667
  0
ARC
  5
392
100
AcDbEntity
  8
0
100
AcDbCircle
 62
7
  6
CONTINUOUS
 10
8.6433574947
 20
2.8154465926
 40
1.2357432553
100
AcDbArc
 50
180.6055242303
 51
182.0267463326
  0
ARC
  5
393
100
AcDbEntity
  8
0
100
AcDbCircle
 62
7
  6
CONTINUOUS
 10
8.587851211
 20
2.8172787267
 40
1.2135728253
100
AcDbArc
 50
179.8436753795
 51
180.1563246205
  0
ARC
  5
394
100
AcDbEntity
  8
0
100
AcDbCircle
 62
7
  6
CONTINUOUS
 10
8.5973325492
 20
2.8155231209
 40
1.1841122677
100
AcDbArc
 50
180.6055237227
 51
182.0267468402
  0
ARC
  5
395
100
AcDbEntity
  8
0
100
AcDbCircle
 62
7
  6
CONTINUOUS
 10
8.5973325492
 20
2.8190343325
 40
1.1841122677
100
AcDbArc
 50
177.9732531598
 51
179.3944762773
  0
ARC
  5
396
100
AcDbEntity
  8
0
100
AcDbCircle
 62
7
  6
CONTINUOUS
 10
7.0941528318
 20
4.4935287267
 40
0.03
100
AcDbArc
 50
90.0
 51
181.7912573869
  0
ARC
  5
397
100
AcDbEntity
  8
0
100
AcDbCircle
 62
7
  6
CONTINUOUS
 10
7.130074959
 20
4.9097787267
 40
0.02
100
AcDbArc
 50
90.0
 51
180.0
  0
ARC
  5
398
100
AcDbEntity
  8
0
100
AcDbCircle
 62
7
  6
CONTINUOUS
 10
7.130074959
 20
4.7622787267
 40
0.02
100
AcDbArc
 50
180.0
 51
267.9083617371
  0
ARC
  5
399
100
AcDbEntity
  8
0
100
AcDbCircle
 62
7
  6
CONTINUOUS
 10
7.0941528318
 20
4.4935287267
 40
0.015
100
AcDbArc
 50
90.0
 51
181.7912573869
  0
ARC
  5
39A
100
AcDbEntity
  8
0
100
AcDbCircle
 62
7
  6
CONTINUOUS
 10
7.1790075006
 20
4.6968625466
 40
0.0135442971
100
AcDbArc
 50
267.4786373359
 51
272.5213626641
  0
ARC
  5
39B
100
AcDbEntity
  8
0
100
AcDbCircle
 62
7
  6
CONTINUOUS
 10
7.129527491
 20
4.7473062322
 40
0.0050174999
100
AcDbArc
 50
267.9156596276
 51
272.0843403035
  0
ARC
  5
39C
100
AcDbEntity
  8
0
100
AcDbCircle
 62
7
  6
CONTINUOUS
 10
6.9613243718
 20
6.2547781395
 40
0.1500020104
100
AcDbArc
 50
0.0002242899
 51
89.9997757101
  0
ARC
  5
39D
100
AcDbEntity
  8
0
100
AcDbCircle
 62
7
  6
CONTINUOUS
 10
6.9016155431
 20
6.3747787267
 40
0.03
100
AcDbArc
 50
90.0000000501
 51
169.1930771252
  0
ARC
  5
39E
100
AcDbEntity
  8
0
100
AcDbCircle
 62
7
  6
CONTINUOUS
 10
6.9016155431
 20
7.0572787267
 40
0.03
100
AcDbArc
 50
190.8069228749
 51
269.9999999993
  0
ARC
  5
39F
100
AcDbEntity
  8
0
100
AcDbCircle
 62
7
  6
CONTINUOUS
 10
7.081324959
 20
6.1950693108
 40
0.03
100
AcDbArc
 50
280.8069228749
 51
359.9999999577
  0
ARC
  5
3A0
100
AcDbEntity
  8
0
100
AcDbCircle
 62
7
  6
CONTINUOUS
 10
6.788824959
 20
7.0497787267
 40
0.01
100
AcDbArc
 50
90.0
 51
180.0
  0
ARC
  5
3A1
100
AcDbEntity
  8
0
100
AcDbCircle
 62
7
  6
CONTINUOUS
 10
6.788824959
 20
6.3822787267
 40
0.01
100
AcDbArc
 50
180.0
 51
270.0
  0
ARC
  5
3A2
100
AcDbEntity
  8
0
100
AcDbCircle
 62
7
  6
CONTINUOUS
 10
7.088824959
 20
6.0822787267
 40
0.01
100
AcDbArc
 50
180.0
 51
270.0
  0
ARC
  5
3A3
100
AcDbEntity
  8
0
100
AcDbCircle
 62
7
  6
CONTINUOUS
 10
6.862324959
 20
7.0497787267
 40
0.01
100
AcDbArc
 50
10.8069228749
 51
90.0
  0
ARC
  5
3A4
100
AcDbEntity
  8
0
100
AcDbCircle
 62
7
  6
CONTINUOUS
 10
6.862324959
 20
6.3822787267
 40
0.01
100
AcDbArc
 50
270.0
 51
349.1930771251
  0
ARC
  5
3A5
100
AcDbEntity
  8
0
100
AcDbCircle
 62
7
  6
CONTINUOUS
 10
7.088824959
 20
6.1557787267
 40
0.01
100
AcDbArc
 50
100.8069228749
 51
180.0
  0
ARC
  5
3A6
100
AcDbEntity
  8
0
100
AcDbCircle
 62
7
  6
CONTINUOUS
 10
7.516574959
 20
4.2867787267
 40
0.0935
100
AcDbArc
 50
0.0
 51
90.0
  0
ARC
  5
3A7
100
AcDbEntity
  8
0
100
AcDbCircle
 62
7
  6
CONTINUOUS
 10
7.328574959
 20
4.2867787267
 40
0.0935
100
AcDbArc
 50
90.0
 51
180.0
  0
ARC
  5
3A8
100
AcDbEntity
  8
0
100
AcDbCircle
 62
7
  6
CONTINUOUS
 10
7.328574959
 20
4.2867787267
 40
0.0835
100
AcDbArc
 50
90.0
 51
180.0
  0
ARC
  5
3A9
100
AcDbEntity
  8
0
100
AcDbCircle
 62
7
  6
CONTINUOUS
 10
7.516574959
 20
4.2867787267
 40
0.0835
100
AcDbArc
 50
0.0
 51
90.0
  0
ARC
  5
3AA
100
AcDbEntity
  8
0
100
AcDbCircle
 62
7
  6
CONTINUOUS
 10
7.4225749226
 20
4.7376736138
 40
0.0543553173
100
AcDbArc
 50
268.7437165941
 51
271.2562834223
  0
ARC
  5
3AB
100
AcDbEntity
  8
0
100
AcDbCircle
 62
7
  6
CONTINUOUS
 10
7.7509970862
 20
4.4935287267
 40
0.03
100
AcDbArc
 50
358.2087426131
 51
90.0
  0
ARC
  5
3AC
100
AcDbEntity
  8
0
100
AcDbCircle
 62
7
  6
CONTINUOUS
 10
7.4225749562
 20
4.7624269057
 40
0.0201381613
100
AcDbArc
 50
268.9615216553
 51
271.0384783634
  0
ARC
  5
3AD
100
AcDbEntity
  8
0
100
AcDbCircle
 62
7
  6
CONTINUOUS
 10
7.715074959
 20
4.9097787267
 40
0.02
100
AcDbArc
 50
0.0
 51
90.0
  0
ARC
  5
3AE
100
AcDbEntity
  8
0
100
AcDbCircle
 62
7
  6
CONTINUOUS
 10
7.715074959
 20
4.7622787267
 40
0.02
100
AcDbArc
 50
272.0916382629
 51
360.0
  0
ARC
  5
3AF
100
AcDbEntity
  8
0
100
AcDbCircle
 62
7
  6
CONTINUOUS
 10
7.7509970862
 20
4.4935287267
 40
0.015
100
AcDbArc
 50
358.2087426131
 51
90.0
  0
ARC
  5
3B0
100
AcDbEntity
  8
0
100
AcDbCircle
 62
7
  6
CONTINUOUS
 10
7.6661424174
 20
4.6969622592
 40
0.0136439138
100
AcDbArc
 50
267.497058036
 51
272.502941964
  0
ARC
  5
3B1
100
AcDbEntity
  8
0
100
AcDbCircle
 62
7
  6
CONTINUOUS
 10
7.715622427
 20
4.7473431773
 40
0.0050544206
100
AcDbArc
 50
267.9308916908
 51
272.0691084279
  0
ARC
  5
3B2
100
AcDbEntity
  8
0
100
AcDbCircle
 62
7
  6
CONTINUOUS
 10
7.763824959
 20
6.1950693108
 40
0.03
100
AcDbArc
 50
180.0000000058
 51
259.1930771251
  0
ARC
  5
3B3
100
AcDbEntity
  8
0
100
AcDbCircle
 62
7
  6
CONTINUOUS
 10
7.756324959
 20
6.0822787267
 40
0.01
100
AcDbArc
 50
270.0
 51
360.0
  0
ARC
  5
3B4
100
AcDbEntity
  8
0
100
AcDbCircle
 62
7
  6
CONTINUOUS
 10
7.756324959
 20
6.1557787267
 40
0.01
100
AcDbArc
 50
0.0
 51
79.1930771251
  0
SPLINE
  5
3B5
100
AcDbEntity
  8
0
100
AcDbSpline
 62
7
  6
CONTINUOUS
 70
0
 71
3
 72
8
 73
4
 74
0
 42
0.0000001
 43
0.0000001
 44
0.0000000001
 40
0.0
 40
0.0
 40
0.0
 40
0.0
 40
1.0
 40
1.0
 40
1.0
 40
1.0
 10
7.34507497
 20
3.5031537253
 30
0.0
 10
7.3470749592
 20
3.5052787159
 30
0.0
 10
7.3528249601
 20
3.5062787328
 30
0.0
 10
7.3624499582
 20
3.5062787328
 30
0.0
  0
SPLINE
  5
3B6
100
AcDbEntity
  8
0
100
AcDbSpline
 62
7
  6
CONTINUOUS
 70
0
 71
3
 72
8
 73
4
 74
0
 42
0.0000001
 43
0.0000001
 44
0.0000000001
 40
0.0
 40
0.0
 40
0.0
 40
0.0
 40
1.0
 40
1.0
 40
1.0
 40
1.0
 10
7.3421999591
 20
3.4871537332
 30
0.0
 10
7.3421999591
 20
3.4956537429
 30
0.0
 10
7.3430749585
 20
3.501028711
 30
0.0
 10
7.34507497
 20
3.5031537253
 30
0.0
  0
SPLINE
  5
3B7
100
AcDbEntity
  8
0
100
AcDbSpline
 62
7
  6
CONTINUOUS
 70
0
 71
3
 72
8
 73
4
 74
0
 42
0.0000001
 43
0.0000001
 44
0.0000000001
 40
0.0
 40
0.0
 40
0.0
 40
0.0
 40
1.0
 40
1.0
 40
1.0
 40
1.0
 10
7.3499499589
 20
3.4526537303
 30
0.0
 10
7.3446999595
 20
3.4600287322
 30
0.0
 10
7.3421999591
 20
3.4715287481
 30
0.0
 10
7.3421999591
 20
3.4871537332
 30
0.0
  0
SPLINE
  5
3B8
100
AcDbEntity
  8
0
100
AcDbSpline
 62
7
  6
CONTINUOUS
 70
0
 71
3
 72
8
 73
4
 74
0
 42
0.0000001
 43
0.0000001
 44
0.0000000001
 40
0.0
 40
0.0
 40
0.0
 40
0.0
 40
1.0
 40
1.0
 40
1.0
 40
1.0
 10
7.3755877175
 20
3.4353145548
 30
0.0
 10
7.3636999598
 20
3.4395287428
 30
0.0
 10
7.3551999584
 20
3.4452787284
 30
0.0
 10
7.3499499589
 20
3.4526537303
 30
0.0
  0
SPLINE
  5
3B9
100
AcDbEntity
  8
0
100
AcDbSpline
 62
7
  6
CONTINUOUS
 70
0
 71
3
 72
8
 73
4
 74
0
 42
0.0000001
 43
0.0000001
 44
0.0000000001
 40
0.0
 40
0.0
 40
0.0
 40
0.0
 40
1.0
 40
1.0
 40
1.0
 40
1.0
 10
7.4221999582
 20
3.4290287439
 30
0.0
 10
7.4029499565
 20
3.4290287439
 30
0.0
 10
7.3873249602
 20
3.431153724
 30
0.0
 10
7.3755877175
 20
3.4353145548
 30
0.0
  0
SPLINE
  5
3BA
100
AcDbEntity
  8
0
100
AcDbSpline
 62
7
  6
CONTINUOUS
 70
0
 71
3
 72
8
 73
4
 74
0
 42
0.0000001
 43
0.0000001
 44
0.0000000001
 40
0.0
 40
0.0
 40
0.0
 40
0.0
 40
1.0
 40
1.0
 40
1.0
 40
1.0
 10
7.4994499639
 20
3.4840287361
 30
0.0
 10
7.4994499639
 20
3.4474037085
 30
0.0
 10
7.4736999639
 20
3.4290287439
 30
0.0
 10
7.4221999582
 20
3.4290287439
 30
0.0
  0
SPLINE
  5
3BB
100
AcDbEntity
  8
0
100
AcDbSpline
 62
7
  6
CONTINUOUS
 70
0
 71
3
 72
8
 73
4
 74
0
 42
0.0000001
 43
0.0000001
 44
0.0000000001
 40
0.0
 40
0.0
 40
0.0
 40
0.0
 40
1.0
 40
1.0
 40
1.0
 40
1.0
 10
7.4968544366
 20
3.5026751641
 30
0.0
 10
7.4985749603
 20
3.5002787206
 30
0.0
 10
7.4994499639
 20
3.4940287266
 30
0.0
 10
7.4994499639
 20
3.4840287361
 30
0.0
  0
SPLINE
  5
3BC
100
AcDbEntity
  8
0
100
AcDbSpline
 62
7
  6
CONTINUOUS
 70
0
 71
3
 72
8
 73
4
 74
0
 42
0.0000001
 43
0.0000001
 44
0.0000000001
 40
0.0
 40
0.0
 40
0.0
 40
0.0
 40
1.0
 40
1.0
 40
1.0
 40
1.0
 10
7.4836999543
 20
3.5062787328
 30
0.0
 10
7.4906999611
 20
3.5062787328
 30
0.0
 10
7.4950749569
 20
3.5051537249
 30
0.0
 10
7.4968544366
 20
3.5026751641
 30
0.0
  0
SPLINE
  5
3BD
100
AcDbEntity
  8
0
100
AcDbSpline
 62
7
  6
CONTINUOUS
 70
0
 71
3
 72
8
 73
4
 74
0
 42
0.0000001
 43
0.0000001
 44
0.0000000001
 40
0.0
 40
0.0
 40
0.0
 40
0.0
 40
1.0
 40
1.0
 40
1.0
 40
1.0
 10
7.3386999592
 20
3.8742787261
 30
0.0
 10
7.3386999592
 20
3.9049037192
 30
0.0
 10
7.3663249595
 20
3.9201537315
 30
0.0
 10
7.4215749588
 20
3.9201537315
 30
0.0
  0
SPLINE
  5
3BE
100
AcDbEntity
  8
0
100
AcDbSpline
 62
7
  6
CONTINUOUS
 70
0
 71
3
 72
8
 73
4
 74
0
 42
0.0000001
 43
0.0000001
 44
0.0000000001
 40
0.0
 40
0.0
 40
0.0
 40
0.0
 40
1.0
 40
1.0
 40
1.0
 40
1.0
 10
7.3606877305
 20
3.8377539076
 30
0.0
 10
7.3459499583
 20
3.8450287227
 30
0.0
 10
7.3386999592
 20
3.8572787289
 30
0.0
 10
7.3386999592
 20
3.8742787261
 30
0.0
  0
SPLINE
  5
3BF
100
AcDbEntity
  8
0
100
AcDbSpline
 62
7
  6
CONTINUOUS
 70
0
 71
3
 72
8
 73
4
 74
0
 42
0.0000001
 43
0.0000001
 44
0.0000000001
 40
0.0
 40
0.0
 40
0.0
 40
0.0
 40
1.0
 40
1.0
 40
1.0
 40
1.0
 10
7.416574958
 20
3.8269037176
 30
0.0
 10
7.3939499606
 20
3.8269037176
 30
0.0
 10
7.3753249582
 20
3.8305287231
 30
0.0
 10
7.3606877305
 20
3.8377539076
 30
0.0
  0
SPLINE
  5
3C0
100
AcDbEntity
  8
0
100
AcDbSpline
 62
7
  6
CONTINUOUS
 70
0
 71
3
 72
8
 73
4
 74
0
 42
0.0000001
 43
0.0000001
 44
0.0000000001
 40
0.0
 40
0.0
 40
0.0
 40
0.0
 40
1.0
 40
1.0
 40
1.0
 40
1.0
 10
7.5029499561
 20
3.8735287357
 30
0.0
 10
7.5029499561
 20
3.8425287251
 30
0.0
 10
7.474074959
 20
3.8269037176
 30
0.0
 10
7.416574958
 20
3.8269037176
 30
0.0
  0
SPLINE
  5
3C1
100
AcDbEntity
  8
0
100
AcDbSpline
 62
7
  6
CONTINUOUS
 70
0
 71
3
 72
8
 73
4
 74
0
 42
0.0000001
 43
0.0000001
 44
0.0000000001
 40
0.0
 40
0.0
 40
0.0
 40
0.0
 40
1.0
 40
1.0
 40
1.0
 40
1.0
 10
7.4215749588
 20
3.9201537315
 30
0.0
 10
7.4758249551
 20
3.9201537315
 30
0.0
 10
7.5029499561
 20
3.9046537373
 30
0.0
 10
7.5029499561
 20
3.8735287357
 30
0.0
  0
SPLINE
  5
3C2
100
AcDbEntity
  8
0
100
AcDbSpline
 62
7
  6
CONTINUOUS
 70
0
 71
3
 72
43
 73
39
 74
0
 42
0.0000001
 43
0.0000001
 44
0.0000000001
 40
0.0
 40
0.0
 40
0.0
 40
0.0
 40
0.022494204
 40
0.0466833603
 40
0.0996670743
 40
0.1138046284
 40
0.1282693122
 40
0.1581124229
 40
0.1890758146
 40
0.2210529662
 40
0.2373935562
 40
0.2539485661
 40
0.2876346967
 40
0.3219917193
 40
0.3569091098
 40
0.3745484532
 40
0.3922886169
 40
0.4280075328
 40
0.4639497231
 40
0.5
 40
0.5360502769
 40
0.5719924672
 40
0.6077113831
 40
0.6254515468
 40
0.6430908902
 40
0.6780082807
 40
0.7123653033
 40
0.7460514339
 40
0.7626064438
 40
0.7789470338
 40
0.8109241854
 40
0.8418875771
 40
0.8717306878
 40
0.8861953716
 40
0.9003329257
 40
0.9533166397
 40
0.977505796
 40
1.0
 40
1.0
 40
1.0
 40
1.0
 10
7.046324959
 20
7.0272787267
 30
0.0
 10
7.0544212722
 20
7.0272787267
 30
0.0
 10
7.0712258392
 20
7.026979717
 30
0.0
 10
7.1070511535
 20
7.0250311575
 30
0.0
 10
7.139748708
 20
7.0212648675
 30
0.0
 10
7.1687010819
 20
7.0163529802
 30
0.0
 10
7.1893582783
 20
7.0123687654
 30
0.0
 10
7.2157774216
 20
7.0063197942
 30
0.0
 10
7.2479539763
 20
6.997333352
 30
0.0
 10
7.2750378057
 20
6.9883049606
 30
0.0
 10
7.2968892268
 20
6.9800693449
 30
0.0
 10
7.3190893542
 20
6.9710376677
 30
0.0
 10
7.3468359858
 20
6.9584593576
 30
0.0
 10
7.3797483054
 20
6.9413903017
 30
0.0
 10
7.4067111955
 20
6.925493359
 30
0.0
 10
7.4279489972
 20
6.9117351656
 30
0.0
 10
7.4490315377
 20
6.8972251575
 30
0.0
 10
7.4747674794
 20
6.8778795854
 30
0.0
 10
7.5044299045
 20
6.8528865078
 30
0.0
 10
7.5327260429
 20
6.8261798107
 30
0.0
 10
7.5594327401
 20
6.7978836722
 30
0.0
 10
7.5844258176
 20
6.7682212472
 30
0.0
 10
7.6037713898
 20
6.7424853055
 30
0.0
 10
7.6182813979
 20
6.7214027649
 30
0.0
 10
7.6320395913
 20
6.7001649632
 30
0.0
 10
7.647936534
 20
6.6732020732
 30
0.0
 10
7.6650055899
 20
6.6402897535
 30
0.0
 10
7.6775839
 20
6.6125431219
 30
0.0
 10
7.6866155772
 20
6.5903429946
 30
0.0
 10
7.6948511928
 20
6.5684915735
 30
0.0
 10
7.7038795843
 20
6.5414077441
 30
0.0
 10
7.7128660265
 20
6.5092311893
 30
0.0
 10
7.7189149976
 20
6.482812046
 30
0.0
 10
7.7228992125
 20
6.4621548496
 30
0.0
 10
7.7278110998
 20
6.4332024757
 30
0.0
 10
7.7315773898
 20
6.4005049212
 30
0.0
 10
7.7335259492
 20
6.3646796069
 30
0.0
 10
7.733824959
 20
6.3478750399
 30
0.0
 10
7.733824959
 20
6.3397787267
 30
0.0
  0
SPLINE
  5
3C3
100
AcDbEntity
  8
0
100
AcDbSpline
 62
7
  6
CONTINUOUS
 70
0
 71
3
 72
43
 73
39
 74
0
 42
0.0000001
 43
0.0000001
 44
0.0000000001
 40
0.0
 40
0.0
 40
0.0
 40
0.0
 40
0.022494204
 40
0.0466833603
 40
0.0996670743
 40
0.1138046284
 40
0.1282693122
 40
0.1581124229
 40
0.1890758146
 40
0.2210529662
 40
0.2373935562
 40
0.2539485661
 40
0.2876346967
 40
0.3219917193
 40
0.3569091098
 40
0.3745484532
 40
0.3922886169
 40
0.4280075328
 40
0.4639497231
 40
0.5
 40
0.5360502769
 40
0.5719924672
 40
0.6077113831
 40
0.6254515468
 40
0.6430908902
 40
0.6780082807
 40
0.7123653033
 40
0.7460514339
 40
0.7626064438
 40
0.7789470338
 40
0.8109241854
 40
0.8418875771
 40
0.8717306878
 40
0.8861953716
 40
0.9003329257
 40
0.9533166397
 40
0.977505796
 40
1.0
 40
1.0
 40
1.0
 40
1.0
 10
2.771324959
 20
7.0272787267
 30
0.0
 10
2.7632286458
 20
7.0272787267
 30
0.0
 10
2.7464240788
 20
7.026979717
 30
0.0
 10
2.7105987645
 20
7.0250311575
 30
0.0
 10
2.67790121
 20
7.0212648675
 30
0.0
 10
2.648948836
 20
7.0163529802
 30
0.0
 10
2.6282916396
 20
7.0123687654
 30
0.0
 10
2.6018724964
 20
7.0063197942
 30
0.0
 10
2.5696959416
 20
6.997333352
 30
0.0
 10
2.5426121122
 20
6.9883049606
 30
0.0
 10
2.5207606911
 20
6.9800693449
 30
0.0
 10
2.4985605637
 20
6.9710376677
 30
0.0
 10
2.4708139321
 20
6.9584593576
 30
0.0
 10
2.4379016125
 20
6.9413903017
 30
0.0
 10
2.4109387225
 20
6.925493359
 30
0.0
 10
2.3897009208
 20
6.9117351656
 30
0.0
 10
2.3686183802
 20
6.8972251575
 30
0.0
 10
2.3428824385
 20
6.8778795854
 30
0.0
 10
2.3132200135
 20
6.8528865078
 30
0.0
 10
2.284923875
 20
6.8261798107
 30
0.0
 10
2.2582171778
 20
6.7978836722
 30
0.0
 10
2.2332241003
 20
6.7682212472
 30
0.0
 10
2.2138785282
 20
6.7424853055
 30
0.0
 10
2.1993685201
 20
6.7214027649
 30
0.0
 10
2.1856103267
 20
6.7001649632
 30
0.0
 10
2.1697133839
 20
6.6732020732
 30
0.0
 10
2.152644328
 20
6.6402897535
 30
0.0
 10
2.140066018
 20
6.6125431219
 30
0.0
 10
2.1310343408
 20
6.5903429946
 30
0.0
 10
2.1227987251
 20
6.5684915735
 30
0.0
 10
2.1137703337
 20
6.5414077441
 30
0.0
 10
2.1047838915
 20
6.5092311893
 30
0.0
 10
2.0987349203
 20
6.482812046
 30
0.0
 10
2.0947507054
 20
6.4621548496
 30
0.0
 10
2.0898388182
 20
6.4332024757
 30
0.0
 10
2.0860725281
 20
6.4005049212
 30
0.0
 10
2.0841239687
 20
6.3646796069
 30
0.0
 10
2.083824959
 20
6.3478750399
 30
0.0
 10
2.083824959
 20
6.3397787267
 30
0.0
  0
LINE
  5
3C4
100
AcDbEntity
  8
0
100
AcDbLine
 62
7
  6
CONTINUOUS
 10
7.5019499615
 20
4.023903722
 11
7.5044364906
 21
4.0282864119
  0
SPLINE
  5
3C5
100
AcDbEntity
  8
0
100
AcDbSpline
 62
7
  6
CONTINUOUS
 70
0
 71
3
 72
8
 73
4
 74
0
 42
0.0000001
 43
0.0000001
 44
0.0000000001
 40
0.0
 40
0.0
 40
0.0
 40
0.0
 40
1.0
 40
1.0
 40
1.0
 40
1.0
 10
7.5044364906
 20
4.0282864119
 30
0.0
 10
7.5095749565
 20
4.0372787248
 30
0.0
 10
7.5128249556
 20
4.044903731
 30
0.0
 10
7.5141999565
 20
4.0514037293
 30
0.0
  0
SPLINE
  5
3C6
100
AcDbEntity
  8
0
100
AcDbSpline
 62
7
  6
CONTINUOUS
 70
0
 71
3
 72
8
 73
4
 74
0
 42
0.0000001
 43
0.0000001
 44
0.0000000001
 40
0.0
 40
0.0
 40
0.0
 40
0.0
 40
1.0
 40
1.0
 40
1.0
 40
1.0
 10
7.5141999565
 20
4.0514037293
 30
0.0
 10
7.5155749575
 20
4.0579037275
 30
0.0
 10
7.516324959
 20
4.0644037258
 30
0.0
 10
7.516324959
 20
4.0709037241
 30
0.0
  0
SPLINE
  5
3C7
100
AcDbEntity
  8
0
100
AcDbSpline
 62
7
  6
CONTINUOUS
 70
0
 71
3
 72
8
 73
4
 74
0
 42
0.0000001
 43
0.0000001
 44
0.0000000001
 40
0.0
 40
0.0
 40
0.0
 40
0.0
 40
1.0
 40
1.0
 40
1.0
 40
1.0
 10
7.516324959
 20
4.0709037241
 30
0.0
 10
7.516324959
 20
4.0961537268
 30
0.0
 10
7.5068249546
 20
4.1176537275
 30
0.0
 10
7.4878249578
 20
4.1355287263
 30
0.0
  0
SPLINE
  5
3C8
100
AcDbEntity
  8
0
100
AcDbSpline
 62
7
  6
CONTINUOUS
 70
0
 71
3
 72
8
 73
4
 74
0
 42
0.0000001
 43
0.0000001
 44
0.0000000001
 40
0.0
 40
0.0
 40
0.0
 40
0.0
 40
1.0
 40
1.0
 40
1.0
 40
1.0
 10
7.4878249578
 20
4.1355287263
 30
0.0
 10
7.4688249596
 20
4.1534037264
 30
0.0
 10
7.445199962
 20
4.1622787272
 30
0.0
 10
7.4169499588
 20
4.1622787272
 30
0.0
  0
SPLINE
  5
3C9
100
AcDbEntity
  8
0
100
AcDbSpline
 62
7
  6
CONTINUOUS
 70
0
 71
3
 72
8
 73
4
 74
0
 42
0.0000001
 43
0.0000001
 44
0.0000000001
 40
0.0
 40
0.0
 40
0.0
 40
0.0
 40
1.0
 40
1.0
 40
1.0
 40
1.0
 10
7.4169499588
 20
4.1622787272
 30
0.0
 10
7.3901999586
 20
4.1622787272
 30
0.0
 10
7.3681999577
 20
4.1535287257
 30
0.0
 10
7.3510431738
 20
4.1360599995
 30
0.0
  0
SPLINE
  5
3CA
100
AcDbEntity
  8
0
100
AcDbSpline
 62
7
  6
CONTINUOUS
 70
0
 71
3
 72
8
 73
4
 74
0
 42
0.0000001
 43
0.0000001
 44
0.0000000001
 40
0.0
 40
0.0
 40
0.0
 40
0.0
 40
1.0
 40
1.0
 40
1.0
 40
1.0
 10
7.3510431738
 20
4.1360599995
 30
0.0
 10
7.3338249591
 20
4.1185287256
 30
0.0
 10
7.3253249591
 20
4.0972787291
 30
0.0
 10
7.3253249591
 20
4.0721537229
 30
0.0
  0
SPLINE
  5
3CB
100
AcDbEntity
  8
0
100
AcDbSpline
 62
7
  6
CONTINUOUS
 70
0
 71
3
 72
8
 73
4
 74
0
 42
0.0000001
 43
0.0000001
 44
0.0000000001
 40
0.0
 40
0.0
 40
0.0
 40
0.0
 40
1.0
 40
1.0
 40
1.0
 40
1.0
 10
7.3253249591
 20
4.0721537229
 30
0.0
 10
7.3253249591
 20
4.0477787238
 30
0.0
 10
7.332949959
 20
4.0286537241
 30
0.0
 10
7.3481849937
 20
4.0146374954
 30
0.0
  0
SPLINE
  5
3CC
100
AcDbEntity
  8
0
100
AcDbSpline
 62
7
  6
CONTINUOUS
 70
0
 71
3
 72
8
 73
4
 74
0
 42
0.0000001
 43
0.0000001
 44
0.0000000001
 40
0.0
 40
0.0
 40
0.0
 40
0.0
 40
1.0
 40
1.0
 40
1.0
 40
1.0
 10
7.3481849937
 20
4.0146374954
 30
0.0
 10
7.3548249577
 20
4.0085287299
 30
0.0
 10
7.3626999596
 20
4.0035287235
 30
0.0
 10
7.3718475416
 20
3.9995814794
 30
0.0
  0
SPLINE
  5
3CD
100
AcDbEntity
  8
0
100
AcDbSpline
 62
7
  6
CONTINUOUS
 70
0
 71
3
 72
8
 73
4
 74
0
 42
0.0000001
 43
0.0000001
 44
0.0000000001
 40
0.0
 40
0.0
 40
0.0
 40
0.0
 40
1.0
 40
1.0
 40
1.0
 40
1.0
 10
7.3718475416
 20
3.9995814794
 30
0.0
 10
7.3809499584
 20
3.9956537243
 30
0.0
 10
7.3874499567
 20
3.993653724
 30
0.0
 10
7.3913249608
 20
3.993653724
 30
0.0
  0
LINE
  5
3CE
100
AcDbEntity
  8
0
100
AcDbLine
 62
7
  6
CONTINUOUS
 10
7.3913249608
 20
3.993653724
 11
7.3929499604
 21
3.9940287303
  0
SPLINE
  5
3CF
100
AcDbEntity
  8
0
100
AcDbSpline
 62
7
  6
CONTINUOUS
 70
0
 71
3
 72
8
 73
4
 74
0
 42
0.0000001
 43
0.0000001
 44
0.0000000001
 40
0.0
 40
0.0
 40
0.0
 40
0.0
 40
1.0
 40
1.0
 40
1.0
 40
1.0
 10
7.3929499604
 20
3.9940287303
 30
0.0
 10
7.3934499577
 20
3.9944037255
 30
0.0
 10
7.3938249585
 20
3.9949037228
 30
0.0
 10
7.3940749571
 20
3.9955287222
 30
0.0
  0
LINE
  5
3D0
100
AcDbEntity
  8
0
100
AcDbLine
 62
7
  6
CONTINUOUS
 10
7.3963249617
 20
4.0045287293
 11
7.3961999595
 21
4.0066537317
  0
SPLINE
  5
3D1
100
AcDbEntity
  8
0
100
AcDbSpline
 62
7
  6
CONTINUOUS
 70
0
 71
3
 72
8
 73
4
 74
0
 42
0.0000001
 43
0.0000001
 44
0.0000000001
 40
0.0
 40
0.0
 40
0.0
 40
0.0
 40
1.0
 40
1.0
 40
1.0
 40
1.0
 10
7.3961999595
 20
4.0066537317
 30
0.0
 10
7.3956999567
 20
4.0075287242
 30
0.0
 10
7.3929499604
 20
4.008653732
 30
0.0
 10
7.387977615
 20
4.0100042436
 30
0.0
  0
SPLINE
  5
3D2
100
AcDbEntity
  8
0
100
AcDbSpline
 62
7
  6
CONTINUOUS
 70
0
 71
3
 72
8
 73
4
 74
0
 42
0.0000001
 43
0.0000001
 44
0.0000000001
 40
0.0
 40
0.0
 40
0.0
 40
0.0
 40
1.0
 40
1.0
 40
1.0
 40
1.0
 10
7.387977615
 20
4.0100042436
 30
0.0
 10
7.3726999585
 20
4.0141537245
 30
0.0
 10
7.36057496
 20
4.0211537313
 30
0.0
 10
7.3518560005
 20
4.0310559778
 30
0.0
  0
SPLINE
  5
3D3
100
AcDbEntity
  8
0
100
AcDbSpline
 62
7
  6
CONTINUOUS
 70
0
 71
3
 72
8
 73
4
 74
0
 42
0.0000001
 43
0.0000001
 44
0.0000000001
 40
0.0
 40
0.0
 40
0.0
 40
0.0
 40
1.0
 40
1.0
 40
1.0
 40
1.0
 10
7.3518560005
 20
4.0310559778
 30
0.0
 10
7.3430749585
 20
4.0410287324
 30
0.0
 10
7.3386999592
 20
4.0526537281
 30
0.0
 10
7.3386999592
 20
4.0659037288
 30
0.0
  0
SPLINE
  5
3D4
100
AcDbEntity
  8
0
100
AcDbSpline
 62
7
  6
CONTINUOUS
 70
0
 71
3
 72
8
 73
4
 74
0
 42
0.0000001
 43
0.0000001
 44
0.0000000001
 40
0.0
 40
0.0
 40
0.0
 40
0.0
 40
1.0
 40
1.0
 40
1.0
 40
1.0
 10
7.3386999592
 20
4.0659037288
 30
0.0
 10
7.3386999592
 20
4.0824037287
 30
0.0
 10
7.3449499595
 20
4.094903728
 30
0.0
 10
7.3576712909
 20
4.1031975354
 30
0.0
  0
SPLINE
  5
3D5
100
AcDbEntity
  8
0
100
AcDbSpline
 62
7
  6
CONTINUOUS
 70
0
 71
3
 72
8
 73
4
 74
0
 42
0.0000001
 43
0.0000001
 44
0.0000000001
 40
0.0
 40
0.0
 40
0.0
 40
0.0
 40
1.0
 40
1.0
 40
1.0
 40
1.0
 10
7.3576712909
 20
4.1031975354
 30
0.0
 10
7.3704499595
 20
4.1115287244
 30
0.0
 10
7.3911999587
 20
4.1156537272
 30
0.0
 10
7.4200749614
 20
4.1156537272
 30
0.0
  0
SPLINE
  5
3D6
100
AcDbEntity
  8
0
100
AcDbSpline
 62
7
  6
CONTINUOUS
 70
0
 71
3
 72
8
 73
4
 74
0
 42
0.0000001
 43
0.0000001
 44
0.0000000001
 40
0.0
 40
0.0
 40
0.0
 40
0.0
 40
1.0
 40
1.0
 40
1.0
 40
1.0
 10
7.4200749614
 20
4.1156537272
 30
0.0
 10
7.4509499587
 20
4.1156537272
 30
0.0
 10
7.4724499539
 20
4.1114037279
 30
0.0
 10
7.4846790676
 20
4.1027492811
 30
0.0
  0
SPLINE
  5
3D7
100
AcDbEntity
  8
0
100
AcDbSpline
 62
7
  6
CONTINUOUS
 70
0
 71
3
 72
8
 73
4
 74
0
 42
0.0000001
 43
0.0000001
 44
0.0000000001
 40
0.0
 40
0.0
 40
0.0
 40
0.0
 40
1.0
 40
1.0
 40
1.0
 40
1.0
 10
7.4846790676
 20
4.1027492811
 30
0.0
 10
7.4968249642
 20
4.0941537265
 30
0.0
 10
7.5029499561
 20
4.082903726
 30
0.0
 10
7.5029499561
 20
4.0689037237
 30
0.0
  0
SPLINE
  5
3D8
100
AcDbEntity
  8
0
100
AcDbSpline
 62
7
  6
CONTINUOUS
 70
0
 71
3
 72
8
 73
4
 74
0
 42
0.0000001
 43
0.0000001
 44
0.0000000001
 40
0.0
 40
0.0
 40
0.0
 40
0.0
 40
1.0
 40
1.0
 40
1.0
 40
1.0
 10
7.5029499561
 20
4.0689037237
 30
0.0
 10
7.5029499561
 20
4.0515287314
 30
0.0
 10
7.495199959
 20
4.0372787248
 30
0.0
 10
7.479780985
 20
4.0263411278
 30
0.0
  0
SPLINE
  5
3D9
100
AcDbEntity
  8
0
100
AcDbSpline
 62
7
  6
CONTINUOUS
 70
0
 71
3
 72
8
 73
4
 74
0
 42
0.0000001
 43
0.0000001
 44
0.0000000001
 40
0.0
 40
0.0
 40
0.0
 40
0.0
 40
1.0
 40
1.0
 40
1.0
 40
1.0
 10
7.479780985
 20
4.0263411278
 30
0.0
 10
7.4698249541
 20
4.0192787219
 30
0.0
 10
7.4580749564
 20
4.0144037288
 30
0.0
 10
7.444317052
 20
4.0116972505
 30
0.0
  0
SPLINE
  5
3DA
100
AcDbEntity
  8
0
100
AcDbSpline
 62
7
  6
CONTINUOUS
 70
0
 71
3
 72
8
 73
4
 74
0
 42
0.0000001
 43
0.0000001
 44
0.0000000001
 40
0.0
 40
0.0
 40
0.0
 40
0.0
 40
1.0
 40
1.0
 40
1.0
 40
1.0
 10
7.444317052
 20
4.0116972505
 30
0.0
 10
7.4428249553
 20
4.0114037227
 30
0.0
 10
7.4418249607
 20
4.0110287275
 30
0.0
 10
7.4413249634
 20
4.0105287302
 30
0.0
  0
SPLINE
  5
3DB
100
AcDbEntity
  8
0
100
AcDbSpline
 62
7
  6
CONTINUOUS
 70
0
 71
3
 72
8
 73
4
 74
0
 42
0.0000001
 43
0.0000001
 44
0.0000000001
 40
0.0
 40
0.0
 40
0.0
 40
0.0
 40
1.0
 40
1.0
 40
1.0
 40
1.0
 10
7.4413249634
 20
4.0105287302
 30
0.0
 10
7.4405749619
 20
4.0100287218
 30
0.0
 10
7.4403249577
 20
4.0091537293
 30
0.0
 10
7.4403249577
 20
4.0079037305
 30
0.0
  0
LINE
  5
3DC
100
AcDbEntity
  8
0
100
AcDbLine
 62
7
  6
CONTINUOUS
 10
7.4403249577
 20
4.0079037305
 11
7.4404499598
 21
4.0054037217
  0
SPLINE
  5
3DD
100
AcDbEntity
  8
0
100
AcDbSpline
 62
7
  6
CONTINUOUS
 70
0
 71
3
 72
8
 73
4
 74
0
 42
0.0000001
 43
0.0000001
 44
0.0000000001
 40
0.0
 40
0.0
 40
0.0
 40
0.0
 40
1.0
 40
1.0
 40
1.0
 40
1.0
 10
7.440699964
 20
4.0019037295
 30
0.0
 10
7.440824955
 20
3.9999037292
 30
0.0
 10
7.4410749592
 20
3.9986537304
 30
0.0
 10
7.4415749565
 20
3.9981537219
 30
0.0
  0
SPLINE
  5
3DE
100
AcDbEntity
  8
0
100
AcDbSpline
 62
7
  6
CONTINUOUS
 70
0
 71
3
 72
8
 73
4
 74
0
 42
0.0000001
 43
0.0000001
 44
0.0000000001
 40
0.0
 40
0.0
 40
0.0
 40
0.0
 40
1.0
 40
1.0
 40
1.0
 40
1.0
 10
7.4415749565
 20
3.9981537219
 30
0.0
 10
7.4420749538
 20
3.9977787268
 30
0.0
 10
7.4426999644
 20
3.9975287225
 30
0.0
 10
7.4435749568
 20
3.9975287225
 30
0.0
  0
SPLINE
  5
3DF
100
AcDbEntity
  8
0
100
AcDbSpline
 62
7
  6
CONTINUOUS
 70
0
 71
3
 72
8
 73
4
 74
0
 42
0.0000001
 43
0.0000001
 44
0.0000000001
 40
0.0
 40
0.0
 40
0.0
 40
0.0
 40
1.0
 40
1.0
 40
1.0
 40
1.0
 10
7.5130749598
 20
3.9992787298
 30
0.0
 10
7.5143249586
 20
3.9994037319
 30
0.0
 10
7.5153249644
 20
4.0000287313
 30
0.0
 10
7.5160749547
 20
4.001153728
 30
0.0
  0
SPLINE
  5
3E0
100
AcDbEntity
  8
0
100
AcDbSpline
 62
7
  6
CONTINUOUS
 70
0
 71
3
 72
8
 73
4
 74
0
 42
0.0000001
 43
0.0000001
 44
0.0000000001
 40
0.0
 40
0.0
 40
0.0
 40
0.0
 40
1.0
 40
1.0
 40
1.0
 40
1.0
 10
7.516324959
 20
4.0050287265
 30
0.0
 10
7.516324959
 20
4.0080287214
 30
0.0
 10
7.5153249588
 20
4.0105287247
 30
0.0
 10
7.5135749571
 20
4.0122787263
 30
0.0
  0
SPLINE
  5
3E1
100
AcDbEntity
  8
0
100
AcDbSpline
 62
7
  6
CONTINUOUS
 70
0
 71
3
 72
8
 73
4
 74
0
 42
0.0000001
 43
0.0000001
 44
0.0000000001
 40
0.0
 40
0.0
 40
0.0
 40
0.0
 40
1.0
 40
1.0
 40
1.0
 40
1.0
 10
7.42032496
 20
3.9667787273
 30
0.0
 10
7.3951999594
 20
3.9667787273
 30
0.0
 10
7.3730749592
 20
3.9580287356
 30
0.0
 10
7.353918831
 20
3.9403124438
 30
0.0
  0
SPLINE
  5
3E2
100
AcDbEntity
  8
0
100
AcDbSpline
 62
7
  6
CONTINUOUS
 70
0
 71
3
 72
8
 73
4
 74
0
 42
0.0000001
 43
0.0000001
 44
0.0000000001
 40
0.0
 40
0.0
 40
0.0
 40
0.0
 40
1.0
 40
1.0
 40
1.0
 40
1.0
 10
7.353918831
 20
3.9403124438
 30
0.0
 10
7.3348249593
 20
3.9226537291
 30
0.0
 10
7.3253249591
 20
3.9006537367
 30
0.0
 10
7.3253249591
 20
3.874403717
 30
0.0
  0
SPLINE
  5
3E3
100
AcDbEntity
  8
0
100
AcDbSpline
 62
7
  6
CONTINUOUS
 70
0
 71
3
 72
8
 73
4
 74
0
 42
0.0000001
 43
0.0000001
 44
0.0000000001
 40
0.0
 40
0.0
 40
0.0
 40
0.0
 40
1.0
 40
1.0
 40
1.0
 40
1.0
 10
7.3253249591
 20
3.874403717
 30
0.0
 10
7.3253249591
 20
3.8471537251
 30
0.0
 10
7.3349499593
 20
3.8246537242
 30
0.0
 10
7.3541999589
 20
3.8069037374
 30
0.0
  0
SPLINE
  5
3E4
100
AcDbEntity
  8
0
100
AcDbSpline
 62
7
  6
CONTINUOUS
 70
0
 71
3
 72
8
 73
4
 74
0
 42
0.0000001
 43
0.0000001
 44
0.0000000001
 40
0.0
 40
0.0
 40
0.0
 40
0.0
 40
1.0
 40
1.0
 40
1.0
 40
1.0
 10
7.3541999589
 20
3.8069037374
 30
0.0
 10
7.37344996
 20
3.7891537491
 30
0.0
 10
7.3959499609
 20
3.7802787218
 30
0.0
 10
7.4214499567
 20
3.7802787218
 30
0.0
  0
SPLINE
  5
3E5
100
AcDbEntity
  8
0
100
AcDbSpline
 62
7
  6
CONTINUOUS
 70
0
 71
3
 72
8
 73
4
 74
0
 42
0.0000001
 43
0.0000001
 44
0.0000000001
 40
0.0
 40
0.0
 40
0.0
 40
0.0
 40
1.0
 40
1.0
 40
1.0
 40
1.0
 10
7.4214499567
 20
3.7802787218
 30
0.0
 10
7.4471999623
 20
3.7802787218
 30
0.0
 10
7.469449959
 20
3.7892787401
 30
0.0
 10
7.4881999608
 20
3.8072787346
 30
0.0
  0
SPLINE
  5
3E6
100
AcDbEntity
  8
0
100
AcDbSpline
 62
7
  6
CONTINUOUS
 70
0
 71
3
 72
8
 73
4
 74
0
 42
0.0000001
 43
0.0000001
 44
0.0000000001
 40
0.0
 40
0.0
 40
0.0
 40
0.0
 40
1.0
 40
1.0
 40
1.0
 40
1.0
 10
7.4881999608
 20
3.8072787346
 30
0.0
 10
7.5069499567
 20
3.8252787236
 30
0.0
 10
7.516324959
 20
3.8467787299
 30
0.0
 10
7.516324959
 20
3.8719037194
 30
0.0
  0
SPLINE
  5
3E7
100
AcDbEntity
  8
0
100
AcDbSpline
 62
7
  6
CONTINUOUS
 70
0
 71
3
 72
8
 73
4
 74
0
 42
0.0000001
 43
0.0000001
 44
0.0000000001
 40
0.0
 40
0.0
 40
0.0
 40
0.0
 40
1.0
 40
1.0
 40
1.0
 40
1.0
 10
7.516324959
 20
3.8719037194
 30
0.0
 10
7.516324959
 20
3.8989037294
 30
0.0
 10
7.5069499567
 20
3.9214037303
 30
0.0
 10
7.4884505849
 20
3.9395293767
 30
0.0
  0
SPLINE
  5
3E8
100
AcDbEntity
  8
0
100
AcDbSpline
 62
7
  6
CONTINUOUS
 70
0
 71
3
 72
8
 73
4
 74
0
 42
0.0000001
 43
0.0000001
 44
0.0000000001
 40
0.0
 40
0.0
 40
0.0
 40
0.0
 40
1.0
 40
1.0
 40
1.0
 40
1.0
 10
7.4884505849
 20
3.9395293767
 30
0.0
 10
7.4698249541
 20
3.9577787314
 30
0.0
 10
7.4470749602
 20
3.9667787273
 30
0.0
 10
7.42032496
 20
3.9667787273
 30
0.0
  0
SPLINE
  5
3E9
100
AcDbEntity
  8
0
100
AcDbSpline
 62
7
  6
CONTINUOUS
 70
0
 71
3
 72
8
 73
4
 74
0
 42
0.0000001
 43
0.0000001
 44
0.0000000001
 40
0.0
 40
0.0
 40
0.0
 40
0.0
 40
1.0
 40
1.0
 40
1.0
 40
1.0
 10
7.3520749586
 20
3.7332787309
 30
0.0
 10
7.346074959
 20
3.7335287128
 30
0.0
 10
7.3429775925
 20
3.7355297057
 30
0.0
 10
7.3428249585
 20
3.7395287249
 30
0.0
  0
LINE
  5
3EA
100
AcDbEntity
  8
0
100
AcDbLine
 62
7
  6
CONTINUOUS
 10
7.3406999588
 20
3.7574037258
 11
7.3381999591
 21
3.7575287167
  0
SPLINE
  5
3EB
100
AcDbEntity
  8
0
100
AcDbSpline
 62
7
  6
CONTINUOUS
 70
0
 71
3
 72
8
 73
4
 74
0
 42
0.0000001
 43
0.0000001
 44
0.0000000001
 40
0.0
 40
0.0
 40
0.0
 40
0.0
 40
1.0
 40
1.0
 40
1.0
 40
1.0
 10
7.3328249589
 20
3.7575287167
 30
0.0
 10
7.330824959
 20
3.7575287167
 30
0.0
 10
7.3296999589
 20
3.7572787348
 30
0.0
 10
7.329324959
 20
3.7567787264
 30
0.0
  0
SPLINE
  5
3EC
100
AcDbEntity
  8
0
100
AcDbSpline
 62
7
  6
CONTINUOUS
 70
0
 71
3
 72
8
 73
4
 74
0
 42
0.0000001
 43
0.0000001
 44
0.0000000001
 40
0.0
 40
0.0
 40
0.0
 40
0.0
 40
1.0
 40
1.0
 40
1.0
 40
1.0
 10
7.329324959
 20
3.7567787264
 30
0.0
 10
7.328949959
 20
3.7562787179
 30
0.0
 10
7.328824959
 20
3.7544037197
 30
0.0
 10
7.328824959
 20
3.7511537317
 30
0.0
  0
SPLINE
  5
3ED
100
AcDbEntity
  8
0
100
AcDbSpline
 62
7
  6
CONTINUOUS
 70
0
 71
3
 72
8
 73
4
 74
0
 42
0.0000001
 43
0.0000001
 44
0.0000000001
 40
0.0
 40
0.0
 40
0.0
 40
0.0
 40
1.0
 40
1.0
 40
1.0
 40
1.0
 10
7.328824959
 20
3.5969037358
 30
0.0
 10
7.328824959
 20
3.5941537116
 30
0.0
 10
7.329074959
 20
3.59252874
 30
0.0
 10
7.329574959
 20
3.5920287315
 30
0.0
  0
SPLINE
  5
3EE
100
AcDbEntity
  8
0
100
AcDbSpline
 62
7
  6
CONTINUOUS
 70
0
 71
3
 72
8
 73
4
 74
0
 42
0.0000001
 43
0.0000001
 44
0.0000000001
 40
0.0
 40
0.0
 40
0.0
 40
0.0
 40
1.0
 40
1.0
 40
1.0
 40
1.0
 10
7.329574959
 20
3.5920287315
 30
0.0
 10
7.330074959
 20
3.591528723
 30
0.0
 10
7.3315658323
 20
3.5911583181
 30
0.0
 10
7.3340749591
 20
3.5910287146
 30
0.0
  0
SPLINE
  5
3EF
100
AcDbEntity
  8
0
100
AcDbSpline
 62
7
  6
CONTINUOUS
 70
0
 71
3
 72
8
 73
4
 74
0
 42
0.0000001
 43
0.0000001
 44
0.0000000001
 40
0.0
 40
0.0
 40
0.0
 40
0.0
 40
1.0
 40
1.0
 40
1.0
 40
1.0
 10
7.3949499607
 20
3.5879037175
 30
0.0
 10
7.3966999568
 20
3.5879037175
 30
0.0
 10
7.3977899194
 20
3.5887682352
 30
0.0
 10
7.3979499612
 20
3.5905287061
 30
0.0
  0
LINE
  5
3F0
100
AcDbEntity
  8
0
100
AcDbLine
 62
7
  6
CONTINUOUS
 10
7.3984499585
 20
3.5960287098
 11
7.3985749606
 21
3.597903708
  0
SPLINE
  5
3F1
100
AcDbEntity
  8
0
100
AcDbSpline
 62
7
  6
CONTINUOUS
 70
0
 71
3
 72
8
 73
4
 74
0
 42
0.0000001
 43
0.0000001
 44
0.0000000001
 40
0.0
 40
0.0
 40
0.0
 40
0.0
 40
1.0
 40
1.0
 40
1.0
 40
1.0
 10
7.3985749606
 20
3.597903708
 30
0.0
 10
7.3985749606
 20
3.5994037334
 30
0.0
 10
7.3973249562
 20
3.6004037056
 30
0.0
 10
7.3950644198
 20
3.6008498691
 30
0.0
  0
SPLINE
  5
3F2
100
AcDbEntity
  8
0
100
AcDbSpline
 62
7
  6
CONTINUOUS
 70
0
 71
3
 72
8
 73
4
 74
0
 42
0.0000001
 43
0.0000001
 44
0.0000000001
 40
0.0
 40
0.0
 40
0.0
 40
0.0
 40
1.0
 40
1.0
 40
1.0
 40
1.0
 10
7.3950644198
 20
3.6008498691
 30
0.0
 10
7.3783249587
 20
3.6041537468
 30
0.0
 10
7.3653249594
 20
3.6110287402
 30
0.0
 10
7.3560749482
 20
3.6214037383
 30
0.0
  0
SPLINE
  5
3F3
100
AcDbEntity
  8
0
100
AcDbSpline
 62
7
  6
CONTINUOUS
 70
0
 71
3
 72
8
 73
4
 74
0
 42
0.0000001
 43
0.0000001
 44
0.0000000001
 40
0.0
 40
0.0
 40
0.0
 40
0.0
 40
1.0
 40
1.0
 40
1.0
 40
1.0
 10
7.3560749482
 20
3.6214037383
 30
0.0
 10
7.3468249591
 20
3.6317787115
 30
0.0
 10
7.3421999591
 20
3.6465287153
 30
0.0
 10
7.3421999591
 20
3.665528724
 30
0.0
  0
SPLINE
  5
3F4
100
AcDbEntity
  8
0
100
AcDbSpline
 62
7
  6
CONTINUOUS
 70
0
 71
3
 72
8
 73
4
 74
0
 42
0.0000001
 43
0.0000001
 44
0.0000000001
 40
0.0
 40
0.0
 40
0.0
 40
0.0
 40
1.0
 40
1.0
 40
1.0
 40
1.0
 10
7.3421999591
 20
3.665528724
 30
0.0
 10
7.3421999591
 20
3.6765287314
 30
0.0
 10
7.3429499592
 20
3.6835287158
 30
0.0
 10
7.3446718506
 20
3.6862960393
 30
0.0
  0
SPLINE
  5
3F5
100
AcDbEntity
  8
0
100
AcDbSpline
 62
7
  6
CONTINUOUS
 70
0
 71
3
 72
8
 73
4
 74
0
 42
0.0000001
 43
0.0000001
 44
0.0000000001
 40
0.0
 40
0.0
 40
0.0
 40
0.0
 40
1.0
 40
1.0
 40
1.0
 40
1.0
 10
7.3446718506
 20
3.6862960393
 30
0.0
 10
7.3464499584
 20
3.6891537104
 30
0.0
 10
7.3524499594
 20
3.6905287448
 30
0.0
 10
7.3629499583
 20
3.6905287448
 30
0.0
  0
SPLINE
  5
3F6
100
AcDbEntity
  8
0
100
AcDbSpline
 62
7
  6
CONTINUOUS
 70
0
 71
3
 72
8
 73
4
 74
0
 42
0.0000001
 43
0.0000001
 44
0.0000000001
 40
0.0
 40
0.0
 40
0.0
 40
0.0
 40
1.0
 40
1.0
 40
1.0
 40
1.0
 10
7.4814499609
 20
3.6905287448
 30
0.0
 10
7.489199958
 20
3.6905287448
 30
0.0
 10
7.4939499602
 20
3.6900287364
 30
0.0
 10
7.4956775432
 20
3.6887490469
 30
0.0
  0
SPLINE
  5
3F7
100
AcDbEntity
  8
0
100
AcDbSpline
 62
7
  6
CONTINUOUS
 70
0
 71
3
 72
8
 73
4
 74
0
 42
0.0000001
 43
0.0000001
 44
0.0000000001
 40
0.0
 40
0.0
 40
0.0
 40
0.0
 40
1.0
 40
1.0
 40
1.0
 40
1.0
 10
7.4956775432
 20
3.6887490469
 30
0.0
 10
7.4973249615
 20
3.6875287388
 30
0.0
 10
7.4982678871
 20
3.6854082266
 30
0.0
 10
7.4984499581
 20
3.682153726
 30
0.0
  0
SPLINE
  5
3F8
100
AcDbEntity
  8
0
100
AcDbSpline
 62
7
  6
CONTINUOUS
 70
0
 71
3
 72
8
 73
4
 74
0
 42
0.0000001
 43
0.0000001
 44
0.0000000001
 40
0.0
 40
0.0
 40
0.0
 40
0.0
 40
1.0
 40
1.0
 40
1.0
 40
1.0
 10
7.4994499639
 20
3.6642787252
 30
0.0
 10
7.4994499639
 20
3.6640287433
 30
0.0
 10
7.4995749548
 20
3.6636537258
 30
0.0
 10
7.49993464
 20
3.6633839669
 30
0.0
  0
LINE
  5
3F9
100
AcDbEntity
  8
0
100
AcDbLine
 62
7
  6
CONTINUOUS
 10
7.49993464
 20
3.6633839669
 11
7.5018249594
 21
3.662403727
  0
SPLINE
  5
3FA
100
AcDbEntity
  8
0
100
AcDbSpline
 62
7
  6
CONTINUOUS
 70
0
 71
3
 72
8
 73
4
 74
0
 42
0.0000001
 43
0.0000001
 44
0.0000000001
 40
0.0
 40
0.0
 40
0.0
 40
0.0
 40
1.0
 40
1.0
 40
1.0
 40
1.0
 10
7.5093249634
 20
3.662403727
 30
0.0
 10
7.5115749568
 20
3.662403727
 30
0.0
 10
7.5126977059
 20
3.6632787098
 30
0.0
 10
7.5126999535
 20
3.6649037246
 30
0.0
  0
SPLINE
  5
3FB
100
AcDbEntity
  8
0
100
AcDbSpline
 62
7
  6
CONTINUOUS
 70
0
 71
3
 72
8
 73
4
 74
0
 42
0.0000001
 43
0.0000001
 44
0.0000000001
 40
0.0
 40
0.0
 40
0.0
 40
0.0
 40
1.0
 40
1.0
 40
1.0
 40
1.0
 10
7.5128249556
 20
3.7552787457
 30
0.0
 10
7.5128249556
 20
3.7567787264
 30
0.0
 10
7.511824961
 20
3.7575287167
 30
0.0
 10
7.5099499628
 20
3.7575287167
 30
0.0
  0
SPLINE
  5
3FC
100
AcDbEntity
  8
0
100
AcDbSpline
 62
7
  6
CONTINUOUS
 70
0
 71
3
 72
8
 73
4
 74
0
 42
0.0000001
 43
0.0000001
 44
0.0000000001
 40
0.0
 40
0.0
 40
0.0
 40
0.0
 40
1.0
 40
1.0
 40
1.0
 40
1.0
 10
7.504074964
 20
3.7575287167
 30
0.0
 10
7.5010749579
 20
3.7575287167
 30
0.0
 10
7.499531756
 20
3.7570260294
 30
0.0
 10
7.4994499639
 20
3.7557787094
 30
0.0
  0
SPLINE
  5
3FD
100
AcDbEntity
  8
0
100
AcDbSpline
 62
7
  6
CONTINUOUS
 70
0
 71
3
 72
8
 73
4
 74
0
 42
0.0000001
 43
0.0000001
 44
0.0000000001
 40
0.0
 40
0.0
 40
0.0
 40
0.0
 40
1.0
 40
1.0
 40
1.0
 40
1.0
 10
7.4984499581
 20
3.7405287419
 30
0.0
 10
7.4981999539
 20
3.736153746
 30
0.0
 10
7.4944501244
 20
3.733775498
 30
0.0
 10
7.4871999577
 20
3.7334037218
 30
0.0
  0
SPLINE
  5
3FE
100
AcDbEntity
  8
0
100
AcDbSpline
 62
7
  6
CONTINUOUS
 70
0
 71
3
 72
8
 73
4
 74
0
 42
0.0000001
 43
0.0000001
 44
0.0000000001
 40
0.0
 40
0.0
 40
0.0
 40
0.0
 40
1.0
 40
1.0
 40
1.0
 40
1.0
 10
7.5045749612
 20
3.5732787047
 30
0.0
 10
7.5013249621
 20
3.5732787047
 30
0.0
 10
7.4996257873
 20
3.5722753319
 30
0.0
 10
7.4994499639
 20
3.5700287167
 30
0.0
  0
SPLINE
  5
3FF
100
AcDbEntity
  8
0
100
AcDbSpline
 62
7
  6
CONTINUOUS
 70
0
 71
3
 72
8
 73
4
 74
0
 42
0.0000001
 43
0.0000001
 44
0.0000000001
 40
0.0
 40
0.0
 40
0.0
 40
0.0
 40
1.0
 40
1.0
 40
1.0
 40
1.0
 10
7.498324956
 20
3.5556537304
 30
0.0
 10
7.4979499609
 20
3.5511537437
 30
0.0
 10
7.4949499548
 20
3.5489037279
 30
0.0
 10
7.4894499623
 20
3.5489037279
 30
0.0
  0
SPLINE
  5
400
100
AcDbEntity
  8
0
100
AcDbSpline
 62
7
  6
CONTINUOUS
 70
0
 71
3
 72
8
 73
4
 74
0
 42
0.0000001
 43
0.0000001
 44
0.0000000001
 40
0.0
 40
0.0
 40
0.0
 40
0.0
 40
1.0
 40
1.0
 40
1.0
 40
1.0
 10
7.3543249604
 20
3.5489037279
 30
0.0
 10
7.3473249592
 20
3.5489037279
 30
0.0
 10
7.3436538541
 20
3.5512838122
 30
0.0
 10
7.3433249586
 20
3.5557787214
 30
0.0
  0
SPLINE
  5
401
100
AcDbEntity
  8
0
100
AcDbSpline
 62
7
  6
CONTINUOUS
 70
0
 71
3
 72
8
 73
4
 74
0
 42
0.0000001
 43
0.0000001
 44
0.0000000001
 40
0.0
 40
0.0
 40
0.0
 40
0.0
 40
1.0
 40
1.0
 40
1.0
 40
1.0
 10
7.3421999591
 20
3.5711537246
 30
0.0
 10
7.3421999591
 20
3.5715287421
 30
0.0
 10
7.341949959
 20
3.5719037149
 30
0.0
 10
7.3416999495
 20
3.572153732
 30
0.0
  0
SPLINE
  5
402
100
AcDbEntity
  8
0
100
AcDbSpline
 62
7
  6
CONTINUOUS
 70
0
 71
3
 72
8
 73
4
 74
0
 42
0.0000001
 43
0.0000001
 44
0.0000000001
 40
0.0
 40
0.0
 40
0.0
 40
0.0
 40
1.0
 40
1.0
 40
1.0
 40
1.0
 10
7.3416999495
 20
3.572153732
 30
0.0
 10
7.3410749596
 20
3.5727787409
 30
0.0
 10
7.3405749595
 20
3.5731537137
 30
0.0
 10
7.3400749587
 20
3.5732787047
 30
0.0
  0
SPLINE
  5
403
100
AcDbEntity
  8
0
100
AcDbSpline
 62
7
  6
CONTINUOUS
 70
0
 71
3
 72
8
 73
4
 74
0
 42
0.0000001
 43
0.0000001
 44
0.0000000001
 40
0.0
 40
0.0
 40
0.0
 40
0.0
 40
1.0
 40
1.0
 40
1.0
 40
1.0
 10
7.331199959
 20
3.5732787047
 30
0.0
 10
7.329574959
 20
3.5732787047
 30
0.0
 10
7.328824959
 20
3.5709037427
 30
0.0
 10
7.328824959
 20
3.5660287384
 30
0.0
  0
SPLINE
  5
404
100
AcDbEntity
  8
0
100
AcDbSpline
 62
7
  6
CONTINUOUS
 70
0
 71
3
 72
8
 73
4
 74
0
 42
0.0000001
 43
0.0000001
 44
0.0000000001
 40
0.0
 40
0.0
 40
0.0
 40
0.0
 40
1.0
 40
1.0
 40
1.0
 40
1.0
 10
7.328824959
 20
3.4712787215
 30
0.0
 10
7.328824959
 20
3.4440287296
 30
0.0
 10
7.3370749589
 20
3.4224036876
 30
0.0
 10
7.3535749588
 20
3.406403685
 30
0.0
  0
SPLINE
  5
405
100
AcDbEntity
  8
0
100
AcDbSpline
 62
7
  6
CONTINUOUS
 70
0
 71
3
 72
8
 73
4
 74
0
 42
0.0000001
 43
0.0000001
 44
0.0000000001
 40
0.0
 40
0.0
 40
0.0
 40
0.0
 40
1.0
 40
1.0
 40
1.0
 40
1.0
 10
7.3535749588
 20
3.406403685
 30
0.0
 10
7.3700749588
 20
3.3904036824
 30
0.0
 10
7.3928249583
 20
3.3824037258
 30
0.0
 10
7.4218249575
 20
3.3824037258
 30
0.0
  0
SPLINE
  5
406
100
AcDbEntity
  8
0
100
AcDbSpline
 62
7
  6
CONTINUOUS
 70
0
 71
3
 72
8
 73
4
 74
0
 42
0.0000001
 43
0.0000001
 44
0.0000000001
 40
0.0
 40
0.0
 40
0.0
 40
0.0
 40
1.0
 40
1.0
 40
1.0
 40
1.0
 10
7.4218249575
 20
3.3824037258
 30
0.0
 10
7.4506999545
 20
3.3824037258
 30
0.0
 10
7.4730749645
 20
3.3905287627
 30
0.0
 10
7.4890120957
 20
3.4065908932
 30
0.0
  0
SPLINE
  5
407
100
AcDbEntity
  8
0
100
AcDbSpline
 62
7
  6
CONTINUOUS
 70
0
 71
3
 72
8
 73
4
 74
0
 42
0.0000001
 43
0.0000001
 44
0.0000000001
 40
0.0
 40
0.0
 40
0.0
 40
0.0
 40
1.0
 40
1.0
 40
1.0
 40
1.0
 10
7.4890120957
 20
3.4065908932
 30
0.0
 10
7.5049499564
 20
3.4226537589
 30
0.0
 10
7.5129499577
 20
3.4465287272
 30
0.0
 10
7.5129499577
 20
3.4782787059
 30
0.0
  0
LINE
  5
408
100
AcDbEntity
  8
0
100
AcDbLine
 62
7
  6
CONTINUOUS
 10
7.5129499577
 20
3.4785287325
 11
7.5129499577
 21
3.4782787059
  0
SPLINE
  5
409
100
AcDbEntity
  8
0
100
AcDbSpline
 62
7
  6
CONTINUOUS
 70
0
 71
3
 72
8
 73
4
 74
0
 42
0.0000001
 43
0.0000001
 44
0.0000000001
 40
0.0
 40
0.0
 40
0.0
 40
0.0
 40
1.0
 40
1.0
 40
1.0
 40
1.0
 10
7.5128249556
 20
3.5701537076
 30
0.0
 10
7.5128249556
 20
3.5709037427
 30
0.0
 10
7.5125749626
 20
3.5715287421
 30
0.0
 10
7.5122969449
 20
3.572140377
 30
0.0
  0
SPLINE
  5
40A
100
AcDbEntity
  8
0
100
AcDbSpline
 62
7
  6
CONTINUOUS
 70
0
 71
3
 72
8
 73
4
 74
0
 42
0.0000001
 43
0.0000001
 44
0.0000000001
 40
0.0
 40
0.0
 40
0.0
 40
0.0
 40
1.0
 40
1.0
 40
1.0
 40
1.0
 10
7.5122969449
 20
3.572140377
 30
0.0
 10
7.5119499631
 20
3.5729037318
 30
0.0
 10
7.5106999643
 20
3.5732787047
 30
0.0
 10
7.508699964
 20
3.5732787047
 30
0.0
  0
LINE
  5
40B
100
AcDbEntity
  8
0
100
AcDbLine
 62
7
  6
CONTINUOUS
 10
7.4213832809
 20
4.683331362
 11
7.4222099803
 21
4.7422920521
  0
SPLINE
  5
40C
100
AcDbEntity
  8
0
100
AcDbSpline
 62
7
  6
CONTINUOUS
 70
0
 71
3
 72
23
 73
19
 74
0
 42
0.0000001
 43
0.0000001
 44
0.0000000001
 40
0.0
 40
0.0
 40
0.0
 40
0.0
 40
0.0666787046
 40
0.1332509368
 40
0.1995651189
 40
0.2654750899
 40
0.3308483731
 40
0.3955688047
 40
0.4595413115
 40
0.5226955234
 40
0.5849891235
 40
0.6464104518
 40
0.7069802146
 40
0.7667521123
 40
0.8258119037
 40
0.8842755891
 40
0.9422839228
 40
1.0
 40
1.0
 40
1.0
 40
1.0
 10
7.1796033396
 20
4.683331362
 30
0.0
 10
7.1795860742
 20
4.685222311
 30
0.0
 10
7.1793944882
 20
4.6890016362
 30
0.0
 10
7.1786388366
 20
4.6946169755
 30
0.0
 10
7.1774218463
 20
4.7001288542
 30
0.0
 10
7.1757545936
 20
4.7054860586
 30
0.0
 10
7.173652321
 20
4.7106393923
 30
0.0
 10
7.1711341986
 20
4.7155413428
 30
0.0
 10
7.1682232124
 20
4.7201467025
 30
0.0
 10
7.1649459355
 20
4.7244129156
 30
0.0
 10
7.1613323132
 20
4.7283004712
 30
0.0
 10
7.1574154066
 20
4.7317732498
 30
0.0
 10
7.1532311322
 20
4.7347988573
 30
0.0
 10
7.1488179421
 20
4.7373489213
 30
0.0
 10
7.1442166084
 20
4.7393994069
 30
0.0
 10
7.1394695358
 20
4.74093083
 30
0.0
 10
7.1346216551
 20
4.7419285759
 30
0.0
 10
7.1313457256
 20
4.7422320577
 30
0.0
 10
7.1297099803
 20
4.7422920521
 30
0.0
  0
SPLINE
  5
40D
100
AcDbEntity
  8
0
100
AcDbSpline
 62
7
  6
CONTINUOUS
 70
0
 71
3
 72
23
 73
19
 74
0
 42
0.0000001
 43
0.0000001
 44
0.0000000001
 40
0.0
 40
0.0
 40
0.0
 40
0.0
 40
0.0668767521
 40
0.1335517383
 40
0.1998817739
 40
0.2657318635
 40
0.3309832902
 40
0.3955359875
 40
0.4593129918
 40
0.5222636314
 40
0.5843663408
 40
0.6456305985
 40
0.7060978382
 40
0.7658411552
 40
0.8249633708
 40
0.8835942124
 40
0.9418838923
 40
1.0
 40
1.0
 40
1.0
 40
1.0
 10
7.1784116615
 20
4.683331362
 30
0.0
 10
7.1784286626
 20
4.6852209011
 30
0.0
 10
7.1783051368
 20
4.6889976102
 30
0.0
 10
7.1776481082
 20
4.6946133386
 30
0.0
 10
7.1765255127
 20
4.7001257257
 30
0.0
 10
7.1749475248
 20
4.7054835377
 30
0.0
 10
7.1729285452
 20
4.7106375552
 30
0.0
 10
7.1704869556
 20
4.715540236
 30
0.0
 10
7.1676450213
 20
4.7201463345
 30
0.0
 10
7.1644286707
 20
4.72441325
 30
0.0
 10
7.1608672912
 20
4.7283014211
 30
0.0
 10
7.1569934815
 20
4.7317746759
 30
0.0
 10
7.1528427987
 20
4.7348005732
 30
0.0
 10
7.1484534424
 20
4.7373507082
 30
0.0
 10
7.143866036
 20
4.7394010368
 30
0.0
 10
7.1391229341
 20
4.7409320976
 30
0.0
 10
7.1342690918
 20
4.7419293319
 30
0.0
 10
7.1309859895
 20
4.7422321196
 30
0.0
 10
7.1293450016
 20
4.7422920521
 30
0.0
  0
SPLINE
  5
40E
100
AcDbEntity
  8
0
100
AcDbSpline
 62
7
  6
CONTINUOUS
 70
0
 71
3
 72
40
 73
36
 74
0
 42
0.0000001
 43
0.0000001
 44
0.0000000001
 40
0.0
 40
0.0
 40
0.0
 40
0.0
 40
0.000015875
 40
0.0000634928
 40
0.0001428464
 40
0.0002539291
 40
0.000571254
 40
0.0010154127
 40
0.0015863503
 40
0.0022840124
 40
0.0031083445
 40
0.004059292
 40
0.006340817
 40
0.009128155
 40
0.0124208756
 40
0.0162185503
 40
0.0205207526
 40
0.025327058
 40
0.0364499001
 40
0.0495794861
 40
0.0647061716
 40
0.0818205219
 40
0.1009133585
 40
0.1219757324
 40
0.1449970014
 40
0.1699640816
 40
0.1968642911
 40
0.2564162483
 40
0.3235612903
 40
0.3982016545
 40
0.4802536652
 40
0.5696496584
 40
0.6663377014
 40
0.7702965374
 40
1.0
 40
1.0
 40
1.0
 40
1.0
 10
7.703824959
 20
3.1866183919
 30
0.0
 10
7.7038249312
 20
3.1866183183
 30
0.0
 10
7.7038245138
 20
3.186618644
 30
0.0
 10
7.7038239474
 20
3.1866186226
 30
0.0
 10
7.7038227537
 20
3.1866190925
 30
0.0
 10
7.703820381
 20
3.1866197428
 30
0.0
 10
7.7038162082
 20
3.1866210506
 30
0.0
 10
7.7038098929
 20
3.1866229277
 30
0.0
 10
7.7038017504
 20
3.1866253831
 30
0.0
 10
7.7037918075
 20
3.1866283608
 30
0.0
 10
7.7037800543
 20
3.1866318786
 30
0.0
 10
7.7037607717
 20
3.1866376359
 30
0.0
 10
7.7037321504
 20
3.1866461548
 30
0.0
 10
7.7036923821
 20
3.1866579425
 30
0.0
 10
7.7036453872
 20
3.1866718149
 30
0.0
 10
7.703591167
 20
3.1866877533
 30
0.0
 10
7.7035297229
 20
3.1867057398
 30
0.0
 10
7.7034333725
 20
3.1867338238
 30
0.0
 10
7.7032949141
 20
3.1867739274
 30
0.0
 10
7.7031071034
 20
3.1868276565
 30
0.0
 10
7.7028904555
 20
3.1868886385
 30
0.0
 10
7.7026450022
 20
3.1869564512
 30
0.0
 10
7.7023707721
 20
3.1870306601
 30
0.0
 10
7.7020678095
 20
3.1871108507
 30
0.0
 10
7.7017361535
 20
3.1871964978
 30
0.0
 10
7.7013758208
 20
3.1872868862
 30
0.0
 10
7.7008387157
 20
3.1874173055
 30
0.0
 10
7.700096052
 20
3.1875877682
 30
0.0
 10
7.6991187133
 20
3.1877937897
 30
0.0
 10
7.698027623
 20
3.18800029
 30
0.0
 10
7.696823197
 20
3.1881999559
 30
0.0
 10
7.6955058643
 20
3.1883849943
 30
0.0
 10
7.6940758952
 20
3.1885460138
 30
0.0
 10
7.691948222
 20
3.1887227447
 30
0.0
 10
7.6902923128
 20
3.1887787209
 30
0.0
 10
7.6891528429
 20
3.1887787267
 30
0.0
  0
SPLINE
  5
40F
100
AcDbEntity
  8
0
100
AcDbSpline
 62
7
  6
CONTINUOUS
 70
0
 71
3
 72
40
 73
36
 74
0
 42
0.0000001
 43
0.0000001
 44
0.0000000001
 40
0.0
 40
0.0
 40
0.0
 40
0.0
 40
0.2297034547
 40
0.3336622772
 40
0.4303502766
 40
0.5197462502
 40
0.6017983393
 40
0.6764388533
 40
0.7435840668
 40
0.8031361186
 40
0.8300363325
 40
0.8550033931
 40
0.8780246232
 40
0.8990869395
 40
0.9181796933
 40
0.9352939491
 40
0.9504205443
 40
0.963550061
 40
0.974672871
 40
0.9794791724
 40
0.983781376
 40
0.9875790562
 40
0.9908717854
 40
0.9936591342
 40
0.9959406711
 40
0.9968916247
 40
0.9977159626
 40
0.9984136304
 40
0.9989845733
 40
0.9994287366
 40
0.9997460655
 40
0.9998571499
 40
0.999936505
 40
0.999984124
 40
1.0
 40
1.0
 40
1.0
 40
1.0
 10
7.1559970751
 20
3.1887787267
 30
0.0
 10
7.1548576051
 20
3.1887787234
 30
0.0
 10
7.1532016958
 20
3.18872275
 30
0.0
 10
7.1510740222
 20
3.1885460265
 30
0.0
 10
7.1496440525
 20
3.1883850154
 30
0.0
 10
7.148326719
 20
3.1881999802
 30
0.0
 10
7.1471222933
 20
3.1880003049
 30
0.0
 10
7.1460312036
 20
3.1877937905
 30
0.0
 10
7.1450538659
 20
3.187587754
 30
0.0
 10
7.1443112023
 20
3.1874172846
 30
0.0
 10
7.143774097
 20
3.1872868644
 30
0.0
 10
7.1434137643
 20
3.1871964769
 30
0.0
 10
7.1430821084
 20
3.187110832
 30
0.0
 10
7.1427791458
 20
3.1870306444
 30
0.0
 10
7.1425049156
 20
3.1869564402
 30
0.0
 10
7.1422594622
 20
3.1868886327
 30
0.0
 10
7.1420428143
 20
3.1868276554
 30
0.0
 10
7.1418550035
 20
3.1867739302
 30
0.0
 10
7.1417165452
 20
3.1867338281
 30
0.0
 10
7.1416201949
 20
3.1867057442
 30
0.0
 10
7.1415587509
 20
3.1866877575
 30
0.0
 10
7.1415045307
 20
3.1866718187
 30
0.0
 10
7.1414575358
 20
3.1866579458
 30
0.0
 10
7.1414177676
 20
3.1866461574
 30
0.0
 10
7.1413891463
 20
3.1866376378
 30
0.0
 10
7.1413698637
 20
3.18663188
 30
0.0
 10
7.1413581105
 20
3.1866283619
 30
0.0
 10
7.1413481675
 20
3.1866253838
 30
0.0
 10
7.1413400254
 20
3.1866229283
 30
0.0
 10
7.1413337092
 20
3.1866210506
 30
0.0
 10
7.1413295382
 20
3.1866197434
 30
0.0
 10
7.1413271631
 20
3.1866190921
 30
0.0
 10
7.1413259732
 20
3.1866186237
 30
0.0
 10
7.1413254
 20
3.1866186423
 30
0.0
 10
7.1413249897
 20
3.1866183194
 30
0.0
 10
7.141324959
 20
3.1866183919
 30
0.0
  0
LINE
  5
410
100
AcDbEntity
  8
0
100
AcDbLine
 62
7
  6
CONTINUOUS
 10
7.6100838666
 20
3.4703976039
 11
7.7663249588
 21
3.4704876317
  0
LINE
  5
411
100
AcDbEntity
  8
0
100
AcDbLine
 62
7
  6
CONTINUOUS
 10
7.422574959
 20
6.1656013727
 11
7.758199959
 21
6.1656013727
  0
LINE
  5
412
100
AcDbEntity
  8
0
100
AcDbLine
 62
7
  6
CONTINUOUS
 10
6.872147605
 20
6.7160287267
 11
6.872147605
 21
6.3804037267
  0
LINE
  5
413
100
AcDbEntity
  8
0
100
AcDbLine
 62
7
  6
CONTINUOUS
 10
7.086949959
 20
6.1656013727
 11
7.422574959
 21
6.1656013727
  0
LINE
  5
414
100
AcDbEntity
  8
0
100
AcDbLine
 62
7
  6
CONTINUOUS
 10
6.901615543
 20
6.7160287267
 11
6.901615543
 21
6.4047787267
  0
SPLINE
  5
415
100
AcDbEntity
  8
0
100
AcDbSpline
 62
7
  6
CONTINUOUS
 70
0
 71
3
 72
24
 73
20
 74
0
 42
0.0000001
 43
0.0000001
 44
0.0000000001
 40
0.0
 40
0.0
 40
0.0
 40
0.0
 40
0.0012674621
 40
0.0050443364
 40
0.0112923694
 40
0.0199733263
 40
0.0444811635
 40
0.0782623784
 40
0.1209671795
 40
0.1720673258
 40
0.2309899222
 40
0.2971621019
 40
0.3699766183
 40
0.4486884914
 40
0.5325182325
 40
0.6206862971
 40
0.7123951427
 40
0.806775339
 40
1.0
 40
1.0
 40
1.0
 40
1.0
 10
6.961324959
 20
6.4047787267
 30
0.0
 10
6.9613397589
 20
6.4049106212
 30
0.0
 10
6.9613989076
 20
6.4054355163
 30
0.0
 10
6.9615331739
 20
6.406610349
 30
0.0
 10
6.9617582889
 20
6.4085561537
 30
0.0
 10
6.9622394729
 20
6.4126576498
 30
0.0
 10
6.9630748888
 20
6.4196204838
 30
0.0
 10
6.9643691693
 20
6.4301165679
 30
0.0
 10
6.9660487869
 20
6.4433707631
 30
0.0
 10
6.9681005305
 20
6.4592314724
 30
0.0
 10
6.9705095452
 20
6.477523777
 30
0.0
 10
6.9732592118
 20
6.4980646238
 30
0.0
 10
6.9763301784
 20
6.5206531263
 30
0.0
 10
6.9796896782
 20
6.545068384
 30
0.0
 10
6.9833029671
 20
6.5710715894
 30
0.0
 10
6.9871343535
 20
6.5984185232
 30
0.0
 10
6.9911467375
 20
6.6268556634
 30
0.0
 10
6.9967230777
 20
6.6661820816
 30
0.0
 10
7.0009709206
 20
6.695997523
 30
0.0
 10
7.003824959
 20
6.7160287267
 30
0.0
  0
SPLINE
  5
416
100
AcDbEntity
  8
0
100
AcDbSpline
 62
7
  6
CONTINUOUS
 70
0
 71
3
 72
39
 73
35
 74
0
 42
0.0000001
 43
0.0000001
 44
0.0000000001
 40
0.0
 40
0.0
 40
0.0
 40
0.0
 40
0.0252213399
 40
0.0516086286
 40
0.0790789115
 40
0.1075586549
 40
0.1369782744
 40
0.1672518252
 40
0.1982964051
 40
0.2300402634
 40
0.2624172394
 40
0.2953428896
 40
0.3287327329
 40
0.3625110259
 40
0.3966082608
 40
0.4309438883
 40
0.4654345019
 40
0.5
 40
0.5345654981
 40
0.5690561117
 40
0.6033917392
 40
0.6374889741
 40
0.6712672671
 40
0.7046571104
 40
0.7375827606
 40
0.7699597366
 40
0.8017035949
 40
0.8327481748
 40
0.8630217256
 40
0.8924413451
 40
0.9209210885
 40
0.9483913714
 40
0.9747786601
 40
1.0
 40
1.0
 40
1.0
 40
1.0
 10
7.003824959
 20
6.7160287267
 30
0.0
 10
7.00935293
 20
6.7160287267
 30
0.0
 10
7.0206657137
 20
6.7157898793
 30
0.0
 10
7.0379688413
 20
6.7147028291
 30
0.0
 10
7.055921165
 20
6.712806537
 30
0.0
 10
7.074431283
 20
6.7100291405
 30
0.0
 10
7.0934006946
 20
6.7063010626
 30
0.0
 10
7.1127256348
 20
6.7015731289
 30
0.0
 10
7.1322957506
 20
6.6957962762
 30
0.0
 10
7.1519977637
 20
6.6889221058
 30
0.0
 10
7.1717100375
 20
6.6809065947
 30
0.0
 10
7.1913178295
 20
6.671749584
 30
0.0
 10
7.2107003629
 20
6.6614518437
 30
0.0
 10
7.2297345858
 20
6.6500151485
 30
0.0
 10
7.2482918496
 20
6.6374456889
 30
0.0
 10
7.2662704697
 20
6.6238020386
 30
0.0
 10
7.2835664692
 20
6.6091432406
 30
0.0
 10
7.3000750614
 20
6.5935288291
 30
0.0
 10
7.3156894729
 20
6.577020237
 30
0.0
 10
7.3303482708
 20
6.5597242374
 30
0.0
 10
7.3439919212
 20
6.5417456173
 30
0.0
 10
7.3565613808
 20
6.5231883535
 30
0.0
 10
7.3679980759
 20
6.5041541306
 30
0.0
 10
7.3782958163
 20
6.4847715972
 30
0.0
 10
7.3874528269
 20
6.4651638053
 30
0.0
 10
7.395468338
 20
6.4454515315
 30
0.0
 10
7.4023425084
 20
6.4257495183
 30
0.0
 10
7.4081193612
 20
6.4061794026
 30
0.0
 10
7.4128472949
 20
6.3868544623
 30
0.0
 10
7.4165753728
 20
6.3678850507
 30
0.0
 10
7.4193527693
 20
6.3493749327
 30
0.0
 10
7.4212490614
 20
6.331422609
 30
0.0
 10
7.4223361116
 20
6.3141194814
 30
0.0
 10
7.422574959
 20
6.3028066977
 30
0.0
 10
7.422574959
 20
6.2972787267
 30
0.0
  0
SPLINE
  5
417
100
AcDbEntity
  8
0
100
AcDbSpline
 62
7
  6
CONTINUOUS
 70
0
 71
3
 72
24
 73
20
 74
0
 42
0.0000001
 43
0.0000001
 44
0.0000000001
 40
0.0
 40
0.0
 40
0.0
 40
0.0
 40
0.0012674621
 40
0.0050443364
 40
0.0112923694
 40
0.0199733263
 40
0.0444811635
 40
0.0782623784
 40
0.1209671795
 40
0.1720673258
 40
0.2309899222
 40
0.2971621019
 40
0.3699766183
 40
0.4486884914
 40
0.5325182325
 40
0.6206862971
 40
0.7123951427
 40
0.806775339
 40
1.0
 40
1.0
 40
1.0
 40
1.0
 10
7.111324959
 20
6.2547787267
 30
0.0
 10
7.1114568534
 20
6.2547935266
 30
0.0
 10
7.1119817486
 20
6.2548526754
 30
0.0
 10
7.1131565813
 20
6.2549869416
 30
0.0
 10
7.115102386
 20
6.2552120566
 30
0.0
 10
7.1192038821
 20
6.2556932406
 30
0.0
 10
7.1261667161
 20
6.2565286566
 30
0.0
 10
7.1366628002
 20
6.2578229371
 30
0.0
 10
7.1499169953
 20
6.2595025546
 30
0.0
 10
7.1657777047
 20
6.2615542982
 30
0.0
 10
7.1840700092
 20
6.2639633129
 30
0.0
 10
7.2046108561
 20
6.2667129795
 30
0.0
 10
7.2271993586
 20
6.2697839461
 30
0.0
 10
7.2516146163
 20
6.273143446
 30
0.0
 10
7.2776178217
 20
6.2767567348
 30
0.0
 10
7.3049647555
 20
6.2805881212
 30
0.0
 10
7.3334018956
 20
6.2846005053
 30
0.0
 10
7.3727283138
 20
6.2901768454
 30
0.0
 10
7.4025437553
 20
6.2944246884
 30
0.0
 10
7.422574959
 20
6.2972787267
 30
0.0
  0
LINE
  5
418
100
AcDbEntity
  8
0
100
AcDbLine
 62
7
  6
CONTINUOUS
 10
7.111324959
 20
6.1950693108
 11
7.422574959
 21
6.1950693108
  0
LINE
  5
419
100
AcDbEntity
  8
0
100
AcDbLine
 62
7
  6
CONTINUOUS
 10
6.9016155431
 20
7.0272787267
 11
6.9016155432
 21
6.7160287267
  0
SPLINE
  5
41A
100
AcDbEntity
  8
0
100
AcDbSpline
 62
7
  6
CONTINUOUS
 70
0
 71
3
 72
24
 73
20
 74
0
 42
0.0000001
 43
0.0000001
 44
0.0000000001
 40
0.0
 40
0.0
 40
0.0
 40
0.0
 40
0.193224661
 40
0.2876048573
 40
0.3793137029
 40
0.4674817675
 40
0.5513115086
 40
0.6300233817
 40
0.7028378981
 40
0.7690100778
 40
0.8279326742
 40
0.8790328205
 40
0.9217376216
 40
0.9555188365
 40
0.9800266737
 40
0.9887076306
 40
0.9949556636
 40
0.9987325379
 40
1.0
 40
1.0
 40
1.0
 40
1.0
 10
7.003824959
 20
6.7160287267
 30
0.0
 10
7.0066789973
 20
6.7360599304
 30
0.0
 10
7.0109268402
 20
6.7658753718
 30
0.0
 10
7.0165031804
 20
6.80520179
 30
0.0
 10
7.0205155645
 20
6.8336389302
 30
0.0
 10
7.0243469509
 20
6.860985864
 30
0.0
 10
7.0279602397
 20
6.8869890694
 30
0.0
 10
7.0313197396
 20
6.9114043271
 30
0.0
 10
7.0343907062
 20
6.9339928296
 30
0.0
 10
7.0371403727
 20
6.9545336765
 30
0.0
 10
7.0395493875
 20
6.972825981
 30
0.0
 10
7.0416011311
 20
6.9886866903
 30
0.0
 10
7.0432807486
 20
7.0019408855
 30
0.0
 10
7.0445750291
 20
7.0124369696
 30
0.0
 10
7.0454104451
 20
7.0193998036
 30
0.0
 10
7.045891629
 20
7.0235012997
 30
0.0
 10
7.046116744
 20
7.0254471044
 30
0.0
 10
7.0462510103
 20
7.0266219371
 30
0.0
 10
7.0463101591
 20
7.0271468323
 30
0.0
 10
7.046324959
 20
7.0272787267
 30
0.0
  0
SPLINE
  5
41B
100
AcDbEntity
  8
0
100
AcDbSpline
 62
7
  6
CONTINUOUS
 70
0
 71
3
 72
24
 73
20
 74
0
 42
0.0000001
 43
0.0000001
 44
0.0000000001
 40
0.0
 40
0.0
 40
0.0
 40
0.0
 40
0.193224661
 40
0.2876048573
 40
0.3793137029
 40
0.4674817675
 40
0.5513115086
 40
0.6300233817
 40
0.7028378981
 40
0.7690100778
 40
0.8279326742
 40
0.8790328205
 40
0.9217376216
 40
0.9555188365
 40
0.9800266737
 40
0.9887076306
 40
0.9949556636
 40
0.9987325379
 40
1.0
 40
1.0
 40
1.0
 40
1.0
 10
7.422574959
 20
6.2972787267
 30
0.0
 10
7.4426061627
 20
6.300132765
 30
0.0
 10
7.4724216041
 20
6.304380608
 30
0.0
 10
7.5117480223
 20
6.3099569482
 30
0.0
 10
7.5401851624
 20
6.3139693322
 30
0.0
 10
7.5675320962
 20
6.3178007186
 30
0.0
 10
7.5935353017
 20
6.3214140074
 30
0.0
 10
7.6179505594
 20
6.3247735073
 30
0.0
 10
7.6405390618
 20
6.3278444739
 30
0.0
 10
7.6610799087
 20
6.3305941405
 30
0.0
 10
7.6793722133
 20
6.3330031552
 30
0.0
 10
7.6952329226
 20
6.3350548988
 30
0.0
 10
7.7084871178
 20
6.3367345163
 30
0.0
 10
7.7189832019
 20
6.3380287969
 30
0.0
 10
7.7259460359
 20
6.3388642128
 30
0.0
 10
7.730047532
 20
6.3393453968
 30
0.0
 10
7.7319933367
 20
6.3395705118
 30
0.0
 10
7.7331681694
 20
6.339704778
 30
0.0
 10
7.7336930645
 20
6.3397639268
 30
0.0
 10
7.733824959
 20
6.3397787267
 30
0.0
  0
LINE
  5
41C
100
AcDbEntity
  8
0
100
AcDbLine
 62
7
  6
CONTINUOUS
 10
7.422574959
 20
6.1950693109
 11
7.733824959
 21
6.1950693109
  0
SPLINE
  5
41D
100
AcDbEntity
  8
0
100
AcDbSpline
 62
7
  6
CONTINUOUS
 70
0
 71
3
 72
26
 73
22
 74
0
 42
0.0000001
 43
0.0000001
 44
0.0000000001
 40
0.0
 40
0.0
 40
0.0
 40
0.0
 40
0.0629545119
 40
0.1258653302
 40
0.1573036951
 40
0.1887274173
 40
0.22013646
 40
0.2515306068
 40
0.3142659605
 40
0.3769343955
 40
0.4395297496
 40
0.5020471315
 40
0.5644849727
 40
0.5956783109
 40
0.6268540739
 40
0.6891526722
 40
0.7513975964
 40
0.8135966651
 40
0.8757571396
 40
0.9378876292
 40
1.0
 40
1.0
 40
1.0
 40
1.0
 10
7.6100807444
 20
4.276929525
 30
0.0
 10
7.6148419715
 20
4.2733075724
 30
0.0
 10
7.6241596961
 20
4.2657971779
 30
0.0
 10
7.6352563073
 20
4.2557695409
 30
0.0
 10
7.6437747769
 20
4.2473843813
 30
0.0
 10
7.6499776762
 20
4.2409194562
 30
0.0
 10
7.6559914368
 20
4.2342838967
 30
0.0
 10
7.6637495097
 20
4.2252200327
 30
0.0
 10
7.6729549618
 20
4.2134930384
 30
0.0
 10
7.6831805851
 20
4.1988330281
 30
0.0
 10
7.6925508199
 20
4.1836358823
 30
0.0
 10
7.7010322599
 20
4.1679505929
 30
0.0
 10
7.7073346616
 20
4.1545075544
 30
0.0
 10
7.7118976183
 20
4.1435590336
 30
0.0
 10
7.7161358609
 20
4.132494953
 30
0.0
 10
7.7208276996
 20
4.1184517364
 30
0.0
 10
7.725475013
 20
4.1013158379
 30
0.0
 10
7.729127177
 20
4.0839537898
 30
0.0
 10
7.7317724614
 20
4.0664209431
 30
0.0
 10
7.7333992603
 20
4.0487732286
 30
0.0
 10
7.7337970172
 20
4.0369656879
 30
0.0
 10
7.7338222161
 20
4.0310634741
 30
0.0
  0
SPLINE
  5
41E
100
AcDbEntity
  8
0
100
AcDbSpline
 62
7
  6
CONTINUOUS
 70
0
 71
3
 72
35
 73
31
 74
0
 42
0.0000001
 43
0.0000001
 44
0.0000000001
 40
0.0
 40
0.0
 40
0.0
 40
0.0
 40
0.1067869946
 40
0.2086120013
 40
0.3051210269
 40
0.3960298396
 40
0.4811094679
 40
0.5601384092
 40
0.5973178513
 40
0.6329059192
 40
0.6668781588
 40
0.6992113516
 40
0.7298838277
 40
0.7588758782
 40
0.7861709751
 40
0.8117658111
 40
0.8356685059
 40
0.8578919535
 40
0.8784551191
 40
0.8973851544
 40
0.9147204116
 40
0.9305147734
 40
0.9448438691
 40
0.9578138454
 40
0.9695731294
 40
0.9803263906
 40
0.9854135556
 40
0.9903577504
 40
0.9952038714
 40
1.0
 40
1.0
 40
1.0
 40
1.0
 10
7.6100807444
 20
3.6454685755
 30
0.0
 10
7.6147619703
 20
3.6449989409
 30
0.0
 10
7.6239013944
 20
3.6440252188
 30
0.0
 10
7.6372479142
 20
3.6424157631
 30
0.0
 10
7.6498746928
 20
3.6406928809
 30
0.0
 10
7.6617404656
 20
3.6388623737
 30
0.0
 10
7.6728095704
 20
3.6369324485
 30
0.0
 10
7.681510733
 20
3.6352144844
 30
0.0
 10
7.6880448071
 20
3.6337883484
 30
0.0
 10
7.6926246841
 20
3.6327200567
 30
0.0
 10
7.6969802042
 20
3.6316321543
 30
0.0
 10
7.7011072155
 20
3.6305255466
 30
0.0
 10
7.7050015715
 20
3.6294011566
 30
0.0
 10
7.7086591856
 20
3.6282599417
 30
0.0
 10
7.7120763791
 20
3.6271025467
 30
0.0
 10
7.7152504778
 20
3.6259300525
 30
0.0
 10
7.7181798045
 20
3.6247438359
 30
0.0
 10
7.7208630255
 20
3.6235450391
 30
0.0
 10
7.7232988765
 20
3.6223347975
 30
0.0
 10
7.7254861596
 20
3.6211141824
 30
0.0
 10
7.7274237594
 20
3.619884166
 30
0.0
 10
7.7291106475
 20
3.6186455126
 30
0.0
 10
7.7305458199
 20
3.617398714
 30
0.0
 10
7.73172817
 20
3.6161435655
 30
0.0
 10
7.7326558836
 20
3.6148797775
 30
0.0
 10
7.7332244874
 20
3.6137980853
 30
0.0
 10
7.733538013
 20
3.6129364792
 30
0.0
 10
7.7337033487
 20
3.6123011163
 30
0.0
 10
7.7338027726
 20
3.611665163
 30
0.0
 10
7.733824959
 20
3.6112400302
 30
0.0
 10
7.733824959
 20
3.6110287267
 30
0.0
  0
LINE
  5
41F
100
AcDbEntity
  8
0
100
AcDbLine
 62
7
  6
CONTINUOUS
 10
2.395074959
 20
6.1656013727
 11
2.730699959
 21
6.1656013727
  0
LINE
  5
420
100
AcDbEntity
  8
0
100
AcDbLine
 62
7
  6
CONTINUOUS
 10
2.9455023129
 20
6.7160287267
 11
2.9455023129
 21
7.0516537267
  0
LINE
  5
421
100
AcDbEntity
  8
0
100
AcDbLine
 62
7
  6
CONTINUOUS
 10
2.9160343748
 20
6.7160287267
 11
2.9160343748
 21
7.0272787267
  0
SPLINE
  5
422
100
AcDbEntity
  8
0
100
AcDbSpline
 62
7
  6
CONTINUOUS
 70
0
 71
3
 72
24
 73
20
 74
0
 42
0.0000001
 43
0.0000001
 44
0.0000000001
 40
0.0
 40
0.0
 40
0.0
 40
0.0
 40
0.0012674621
 40
0.0050443364
 40
0.0112923694
 40
0.0199733263
 40
0.0444811635
 40
0.0782623784
 40
0.1209671795
 40
0.1720673258
 40
0.2309899222
 40
0.2971621019
 40
0.3699766183
 40
0.4486884914
 40
0.5325182325
 40
0.6206862971
 40
0.7123951427
 40
0.806775339
 40
1.0
 40
1.0
 40
1.0
 40
1.0
 10
2.771324959
 20
7.0272787267
 30
0.0
 10
2.7713397589
 20
7.0271468323
 30
0.0
 10
2.7713989076
 20
7.0266219371
 30
0.0
 10
2.7715331739
 20
7.0254471044
 30
0.0
 10
2.7717582889
 20
7.0235012997
 30
0.0
 10
2.7722394729
 20
7.0193998036
 30
0.0
 10
2.7730748888
 20
7.0124369696
 30
0.0
 10
2.7743691693
 20
7.0019408855
 30
0.0
 10
2.7760487869
 20
6.9886866903
 30
0.0
 10
2.7781005305
 20
6.972825981
 30
0.0
 10
2.7805095452
 20
6.9545336765
 30
0.0
 10
2.7832592118
 20
6.9339928296
 30
0.0
 10
2.7863301784
 20
6.9114043271
 30
0.0
 10
2.7896896782
 20
6.8869890694
 30
0.0
 10
2.7933029671
 20
6.860985864
 30
0.0
 10
2.7971343535
 20
6.8336389302
 30
0.0
 10
2.8011467375
 20
6.80520179
 30
0.0
 10
2.8067230777
 20
6.7658753718
 30
0.0
 10
2.8109709206
 20
6.7360599304
 30
0.0
 10
2.813824959
 20
6.7160287267
 30
0.0
  0
SPLINE
  5
423
100
AcDbEntity
  8
0
100
AcDbSpline
 62
7
  6
CONTINUOUS
 70
0
 71
3
 72
39
 73
35
 74
0
 42
0.0000001
 43
0.0000001
 44
0.0000000001
 40
0.0
 40
0.0
 40
0.0
 40
0.0
 40
0.0252213399
 40
0.0516086286
 40
0.0790789115
 40
0.1075586549
 40
0.1369782744
 40
0.1672518252
 40
0.1982964051
 40
0.2300402634
 40
0.2624172394
 40
0.2953428896
 40
0.3287327329
 40
0.3625110259
 40
0.3966082608
 40
0.4309438883
 40
0.4654345019
 40
0.5
 40
0.5345654981
 40
0.5690561117
 40
0.6033917392
 40
0.6374889741
 40
0.6712672671
 40
0.7046571104
 40
0.7375827606
 40
0.7699597366
 40
0.8017035949
 40
0.8327481748
 40
0.8630217256
 40
0.8924413451
 40
0.9209210885
 40
0.9483913714
 40
0.9747786601
 40
1.0
 40
1.0
 40
1.0
 40
1.0
 10
2.813824959
 20
6.7160287267
 30
0.0
 10
2.808296988
 20
6.7160287267
 30
0.0
 10
2.7969842043
 20
6.7157898793
 30
0.0
 10
2.7796810767
 20
6.7147028291
 30
0.0
 10
2.761728753
 20
6.712806537
 30
0.0
 10
2.7432186349
 20
6.7100291405
 30
0.0
 10
2.7242492233
 20
6.7063010626
 30
0.0
 10
2.7049242831
 20
6.7015731289
 30
0.0
 10
2.6853541674
 20
6.6957962762
 30
0.0
 10
2.6656521542
 20
6.6889221058
 30
0.0
 10
2.6459398804
 20
6.6809065947
 30
0.0
 10
2.6263320884
 20
6.671749584
 30
0.0
 10
2.6069495551
 20
6.6614518437
 30
0.0
 10
2.5879153322
 20
6.6500151485
 30
0.0
 10
2.5693580684
 20
6.6374456889
 30
0.0
 10
2.5513794482
 20
6.6238020386
 30
0.0
 10
2.5340834487
 20
6.6091432406
 30
0.0
 10
2.5175748565
 20
6.5935288291
 30
0.0
 10
2.5019604451
 20
6.577020237
 30
0.0
 10
2.4873016471
 20
6.5597242374
 30
0.0
 10
2.4736579967
 20
6.5417456173
 30
0.0
 10
2.4610885372
 20
6.5231883535
 30
0.0
 10
2.449651842
 20
6.5041541306
 30
0.0
 10
2.4393541016
 20
6.4847715972
 30
0.0
 10
2.430197091
 20
6.4651638053
 30
0.0
 10
2.4221815799
 20
6.4454515315
 30
0.0
 10
2.4153074095
 20
6.4257495183
 30
0.0
 10
2.4095305567
 20
6.4061794026
 30
0.0
 10
2.4048026231
 20
6.3868544623
 30
0.0
 10
2.4010745452
 20
6.3678850507
 30
0.0
 10
2.3982971487
 20
6.3493749327
 30
0.0
 10
2.3964008565
 20
6.331422609
 30
0.0
 10
2.3953138063
 20
6.3141194814
 30
0.0
 10
2.395074959
 20
6.3028066977
 30
0.0
 10
2.395074959
 20
6.2972787267
 30
0.0
  0
SPLINE
  5
424
100
AcDbEntity
  8
0
100
AcDbSpline
 62
7
  6
CONTINUOUS
 70
0
 71
3
 72
24
 73
20
 74
0
 42
0.0000001
 43
0.0000001
 44
0.0000000001
 40
0.0
 40
0.0
 40
0.0
 40
0.0
 40
0.0012674621
 40
0.0050443364
 40
0.0112923694
 40
0.0199733263
 40
0.0444811635
 40
0.0782623784
 40
0.1209671795
 40
0.1720673258
 40
0.2309899222
 40
0.2971621019
 40
0.3699766183
 40
0.4486884914
 40
0.5325182325
 40
0.6206862971
 40
0.7123951427
 40
0.806775339
 40
1.0
 40
1.0
 40
1.0
 40
1.0
 10
2.083824959
 20
6.3397787267
 30
0.0
 10
2.0839568534
 20
6.3397639268
 30
0.0
 10
2.0844817486
 20
6.339704778
 30
0.0
 10
2.0856565813
 20
6.3395705118
 30
0.0
 10
2.087602386
 20
6.3393453968
 30
0.0
 10
2.0917038821
 20
6.3388642128
 30
0.0
 10
2.0986667161
 20
6.3380287969
 30
0.0
 10
2.1091628002
 20
6.3367345163
 30
0.0
 10
2.1224169953
 20
6.3350548988
 30
0.0
 10
2.1382777047
 20
6.3330031552
 30
0.0
 10
2.1565700092
 20
6.3305941405
 30
0.0
 10
2.1771108561
 20
6.3278444739
 30
0.0
 10
2.1996993586
 20
6.3247735073
 30
0.0
 10
2.2241146163
 20
6.3214140074
 30
0.0
 10
2.2501178217
 20
6.3178007186
 30
0.0
 10
2.2774647555
 20
6.3139693322
 30
0.0
 10
2.3059018956
 20
6.3099569482
 30
0.0
 10
2.3452283138
 20
6.304380608
 30
0.0
 10
2.3750437553
 20
6.300132765
 30
0.0
 10
2.395074959
 20
6.2972787267
 30
0.0
  0
LINE
  5
425
100
AcDbEntity
  8
0
100
AcDbLine
 62
7
  6
CONTINUOUS
 10
2.083824959
 20
6.1950693108
 11
2.395074959
 21
6.195069311
  0
LINE
  5
426
100
AcDbEntity
  8
0
100
AcDbLine
 62
7
  6
CONTINUOUS
 10
2.9160343749
 20
6.4047787267
 11
2.9160343749
 21
6.7160287267
  0
LINE
  5
427
100
AcDbEntity
  8
0
100
AcDbLine
 62
7
  6
CONTINUOUS
 10
7.6100845572
 20
3.5096548091
 11
7.7338246451
 21
3.5097787248
  0
SPLINE
  5
428
100
AcDbEntity
  8
0
100
AcDbSpline
 62
7
  6
CONTINUOUS
 70
0
 71
3
 72
24
 73
20
 74
0
 42
0.0000001
 43
0.0000001
 44
0.0000000001
 40
0.0
 40
0.0
 40
0.0
 40
0.0
 40
0.193224661
 40
0.2876048573
 40
0.3793137029
 40
0.4674817675
 40
0.5513115086
 40
0.6300233817
 40
0.7028378981
 40
0.7690100778
 40
0.8279326742
 40
0.8790328205
 40
0.9217376216
 40
0.9555188365
 40
0.9800266737
 40
0.9887076306
 40
0.9949556636
 40
0.9987325379
 40
1.0
 40
1.0
 40
1.0
 40
1.0
 10
2.813824959
 20
6.7160287267
 30
0.0
 10
2.8166789973
 20
6.695997523
 30
0.0
 10
2.8209268402
 20
6.6661820816
 30
0.0
 10
2.8265031804
 20
6.6268556634
 30
0.0
 10
2.8305155645
 20
6.5984185232
 30
0.0
 10
2.8343469509
 20
6.5710715894
 30
0.0
 10
2.8379602397
 20
6.545068384
 30
0.0
 10
2.8413197396
 20
6.5206531263
 30
0.0
 10
2.8443907062
 20
6.4980646238
 30
0.0
 10
2.8471403727
 20
6.477523777
 30
0.0
 10
2.8495493875
 20
6.4592314724
 30
0.0
 10
2.8516011311
 20
6.4433707631
 30
0.0
 10
2.8532807486
 20
6.4301165679
 30
0.0
 10
2.8545750291
 20
6.4196204838
 30
0.0
 10
2.8554104451
 20
6.4126576498
 30
0.0
 10
2.855891629
 20
6.4085561537
 30
0.0
 10
2.856116744
 20
6.406610349
 30
0.0
 10
2.8562510103
 20
6.4054355163
 30
0.0
 10
2.8563101591
 20
6.4049106212
 30
0.0
 10
2.856324959
 20
6.4047787267
 30
0.0
  0
SPLINE
  5
429
100
AcDbEntity
  8
0
100
AcDbSpline
 62
7
  6
CONTINUOUS
 70
0
 71
3
 72
24
 73
20
 74
0
 42
0.0000001
 43
0.0000001
 44
0.0000000001
 40
0.0
 40
0.0
 40
0.0
 40
0.0
 40
0.193224661
 40
0.2876048573
 40
0.3793137029
 40
0.4674817675
 40
0.5513115086
 40
0.6300233817
 40
0.7028378981
 40
0.7690100778
 40
0.8279326742
 40
0.8790328205
 40
0.9217376216
 40
0.9555188365
 40
0.9800266737
 40
0.9887076306
 40
0.9949556636
 40
0.9987325379
 40
1.0
 40
1.0
 40
1.0
 40
1.0
 10
2.395074959
 20
6.2972787267
 30
0.0
 10
2.4151061627
 20
6.2944246884
 30
0.0
 10
2.4449216041
 20
6.2901768454
 30
0.0
 10
2.4842480223
 20
6.2846005053
 30
0.0
 10
2.5126851624
 20
6.2805881212
 30
0.0
 10
2.5400320962
 20
6.2767567348
 30
0.0
 10
2.5660353017
 20
6.273143446
 30
0.0
 10
2.5904505594
 20
6.2697839461
 30
0.0
 10
2.6130390618
 20
6.2667129795
 30
0.0
 10
2.6335799087
 20
6.2639633129
 30
0.0
 10
2.6518722133
 20
6.2615542982
 30
0.0
 10
2.6677329226
 20
6.2595025546
 30
0.0
 10
2.6809871178
 20
6.2578229371
 30
0.0
 10
2.6914832019
 20
6.2565286566
 30
0.0
 10
2.6984460359
 20
6.2556932406
 30
0.0
 10
2.702547532
 20
6.2552120566
 30
0.0
 10
2.7044933367
 20
6.2549869416
 30
0.0
 10
2.7056681694
 20
6.2548526754
 30
0.0
 10
2.7061930645
 20
6.2547935266
 30
0.0
 10
2.706324959
 20
6.2547787267
 30
0.0
  0
LINE
  5
42A
100
AcDbEntity
  8
0
100
AcDbLine
 62
7
  6
CONTINUOUS
 10
2.395074959
 20
6.1950693107
 11
2.706324959
 21
6.1950693107
  0
LINE
  5
42B
100
AcDbEntity
  8
0
100
AcDbLine
 62
7
  6
CONTINUOUS
 10
7.6100843568
 20
3.4802408473
 11
7.7581972819
 21
3.4803153993
  0
SPLINE
  5
42C
100
AcDbEntity
  8
0
100
AcDbSpline
 62
7
  6
CONTINUOUS
 70
0
 71
3
 72
21
 73
17
 74
0
 42
0.0000001
 43
0.0000001
 44
0.0000000001
 40
0.0
 40
0.0
 40
0.0
 40
0.0
 40
0.0406628438
 40
0.0825074054
 40
0.1264939309
 40
0.1734214662
 40
0.2238640124
 40
0.2781420841
 40
0.3363900428
 40
0.3985693143
 40
0.4645222939
 40
0.5339739623
 40
0.6065729583
 40
0.6818803896
 40
0.8386318948
 40
1.0
 40
1.0
 40
1.0
 40
1.0
 10
7.833824959
 20
1.4797787267
 30
0.0
 10
7.8339890257
 20
1.4797787267
 30
0.0
 10
7.8343227776
 20
1.47974534
 30
0.0
 10
7.8348142415
 20
1.4795976872
 30
0.0
 10
7.8352941957
 20
1.479354165
 30
0.0
 10
7.8357579417
 20
1.4790187039
 30
0.0
 10
7.8362015822
 20
1.4785949627
 30
0.0
 10
7.8366216916
 20
1.4780874444
 30
0.0
 10
7.8370143521
 20
1.477500772
 30
0.0
 10
7.8373763694
 20
1.4768406583
 30
0.0
 10
7.8377041836
 20
1.4761131692
 30
0.0
 10
7.8379949992
 20
1.4753252565
 30
0.0
 10
7.8382458168
 20
1.4744843096
 30
0.0
 10
7.8385277543
 20
1.4732872362
 30
0.0
 10
7.8387626109
 20
1.4717141891
 30
0.0
 10
7.8388249589
 20
1.4704298158
 30
0.0
 10
7.8388249589
 20
1.4697787267
 30
0.0
  0
SPLINE
  5
42D
100
AcDbEntity
  8
0
100
AcDbSpline
 62
7
  6
CONTINUOUS
 70
0
 71
3
 72
35
 73
31
 74
0
 42
0.0000001
 43
0.0000001
 44
0.0000000001
 40
0.0
 40
0.0
 40
0.0
 40
0.0
 40
0.0312517823
 40
0.0625035734
 40
0.0937553541
 40
0.1250071481
 40
0.1562589262
 40
0.1875107167
 40
0.2499998599
 40
0.3124890221
 40
0.3437407897
 40
0.3749925917
 40
0.4062443726
 40
0.4374961743
 40
0.4687479494
 40
0.4999997563
 40
0.5312515529
 40
0.562503346
 40
0.5937551379
 40
0.6250069332
 40
0.6562587423
 40
0.6875105252
 40
0.7187623352
 40
0.7500141342
 40
0.8125034609
 40
0.8749927947
 40
0.9062445851
 40
0.9374963978
 40
0.9687481849
 40
1.0
 40
1.0
 40
1.0
 40
1.0
 10
7.7338293255
 20
3.9043865137
 30
0.0
 10
7.7356237041
 20
3.9088305738
 30
0.0
 10
7.7390221663
 20
3.9177969061
 30
0.0
 10
7.7435376109
 20
3.931451823
 30
0.0
 10
7.7474630254
 20
3.9452881942
 30
0.0
 10
7.75079227
 20
3.9592798307
 30
0.0
 10
7.7535188143
 20
3.9734015799
 30
0.0
 10
7.7563419221
 20
3.9923659202
 30
0.0
 10
7.7583365674
 20
4.0162730978
 30
0.0
 10
7.7582738206
 20
4.0402632387
 30
0.0
 10
7.756987588
 20
4.0593933709
 30
0.0
 10
7.7554072537
 20
4.0736888341
 30
0.0
 10
7.7532156257
 20
4.0879031674
 30
0.0
 10
7.7504166253
 20
4.1020105468
 30
0.0
 10
7.7470146032
 20
4.1159847628
 30
0.0
 10
7.7430158289
 20
4.1298000415
 30
0.0
 10
7.7384290742
 20
4.1434313863
 30
0.0
 10
7.7332624179
 20
4.1568536705
 30
0.0
 10
7.7275250828
 20
4.17004212
 30
0.0
 10
7.7212274286
 20
4.182972377
 30
0.0
 10
7.7143816978
 20
4.1956210232
 30
0.0
 10
7.7070003744
 20
4.2079647116
 30
0.0
 10
7.6990971392
 20
4.2199811968
 30
0.0
 10
7.6878871158
 20
4.2355359191
 30
0.0
 10
7.6726439969
 20
4.2540606663
 30
0.0
 10
7.6558731466
 20
4.2712147012
 30
0.0
 10
7.6416182224
 20
4.2840370142
 30
0.0
 10
7.6305229972
 20
4.2931887912
 30
0.0
 10
7.6190469717
 20
4.3018573815
 30
0.0
 10
7.6111561245
 20
4.307305192
 30
0.0
 10
7.6071549603
 20
4.3099434108
 30
0.0
  0
SPLINE
  5
42E
100
AcDbEntity
  8
0
100
AcDbSpline
 62
7
  6
CONTINUOUS
 70
0
 71
3
 72
36
 73
32
 74
0
 42
0.0000001
 43
0.0000001
 44
0.0000000001
 40
0.0
 40
0.0
 40
0.0
 40
0.0
 40
0.0624884547
 40
0.1249768751
 40
0.1562282154
 40
0.1874795709
 40
0.2187309262
 40
0.2499822747
 40
0.2812336211
 40
0.312484954
 40
0.3437363163
 40
0.374987639
 40
0.4062389878
 40
0.4374903092
 40
0.4687416641
 40
0.4999929913
 40
0.5312443383
 40
0.5624956555
 40
0.5937470048
 40
0.6249983313
 40
0.6562496723
 40
0.6875009901
 40
0.7187523338
 40
0.7500036726
 40
0.781255005
 40
0.8125063345
 40
0.8437576631
 40
0.8750090133
 40
0.9062603379
 40
0.937511681
 40
1.0
 40
1.0
 40
1.0
 40
1.0
 10
7.2379924997
 20
4.3099422333
 30
0.0
 10
7.2299918443
 20
4.3046670626
 30
0.0
 10
7.2144331585
 20
4.2934282444
 30
0.0
 10
7.1962582802
 20
4.2777702548
 30
0.0
 10
7.18256468
 20
4.2643496877
 30
0.0
 10
7.1727329745
 20
4.2538521559
 30
0.0
 10
7.1633586184
 20
4.2429445731
 30
0.0
 10
7.1544586887
 20
4.2316464728
 30
0.0
 10
7.1460499551
 20
4.219978188
 30
0.0
 10
7.1381484128
 20
4.2079606489
 30
0.0
 10
7.1307672999
 20
4.1956166499
 30
0.0
 10
7.1239206917
 20
4.1829683354
 30
0.0
 10
7.1176227155
 20
4.1700380656
 30
0.0
 10
7.1118857074
 20
4.1568493155
 30
0.0
 10
7.1067191724
 20
4.1434268473
 30
0.0
 10
7.1021320235
 20
4.129795482
 30
0.0
 10
7.0981338832
 20
4.1159798638
 30
0.0
 10
7.0947327668
 20
4.1020052817
 30
0.0
 10
7.0919342478
 20
4.0878976917
 30
0.0
 10
7.0897421122
 20
4.0736832475
 30
0.0
 10
7.0881617067
 20
4.0593878371
 30
0.0
 10
7.0871972108
 20
4.0450376895
 30
0.0
 10
7.0868508889
 20
4.030659351
 30
0.0
 10
7.0871216783
 20
4.0162794001
 30
0.0
 10
7.0880098395
 20
4.0019243342
 30
0.0
 10
7.0895143918
 20
3.9876207296
 30
0.0
 10
7.0916328997
 20
3.9733950761
 30
0.0
 10
7.0943589389
 20
3.9592734086
 30
0.0
 10
7.0976877796
 20
3.945281044
 30
0.0
 10
7.1029211104
 20
3.926836597
 30
0.0
 10
7.1077351665
 20
3.9132659576
 30
0.0
 10
7.1113229866
 20
3.904379729
 30
0.0
  0
SPLINE
  5
42F
100
AcDbEntity
  8
0
100
AcDbSpline
 62
7
  6
CONTINUOUS
 70
0
 71
3
 72
27
 73
23
 74
0
 42
0.0000001
 43
0.0000001
 44
0.0000000001
 40
0.0
 40
0.0
 40
0.0
 40
0.0
 40
0.064150031
 40
0.0962144956
 40
0.1282543226
 40
0.1922193433
 40
0.2560058044
 40
0.2878254046
 40
0.3195825711
 40
0.3828727244
 40
0.4458629475
 40
0.5085331874
 40
0.5708754867
 40
0.6328944641
 40
0.6946073226
 40
0.7253675365
 40
0.7560631837
 40
0.817262804
 40
0.8782763111
 40
0.9087401295
 40
0.9391807988
 40
1.0
 40
1.0
 40
1.0
 40
1.0
 10
7.6891528429
 20
3.1887787267
 30
0.0
 10
7.6891528429
 20
3.186848958
 30
0.0
 10
7.6892876575
 20
3.183952251
 30
0.0
 10
7.6897357657
 20
3.1801191998
 30
0.0
 10
7.6903610844
 20
3.1763163985
 30
0.0
 10
7.6914725693
 20
3.1716321764
 30
0.0
 10
7.6930161011
 20
3.1670788961
 30
0.0
 10
7.6945005235
 20
3.1635454187
 30
0.0
 10
7.6961442096
 20
3.1600997356
 30
0.0
 10
7.6984954908
 20
3.1559587439
 30
0.0
 10
7.7017681881
 20
3.1513008464
 30
0.0
 10
7.705458262
 20
3.1470031478
 30
0.0
 10
7.7095302772
 20
3.1431073628
 30
0.0
 10
7.7139448433
 20
3.1396512149
 30
0.0
 10
7.7178794722
 20
3.1371618564
 30
0.0
 10
7.7211529666
 20
3.135423252
 30
0.0
 10
7.7244964165
 20
3.1338593713
 30
0.0
 10
7.7288074506
 20
3.1322309458
 30
0.0
 10
7.7332560473
 20
3.1310547889
 30
0.0
 10
7.7368651106
 20
3.1303940553
 30
0.0
 10
7.7404973291
 20
3.1299212468
 30
0.0
 10
7.7432453887
 20
3.1297787267
 30
0.0
 10
7.7450749589
 20
3.1297787267
 30
0.0
  0
SPLINE
  5
430
100
AcDbEntity
  8
0
100
AcDbSpline
 62
7
  6
CONTINUOUS
 70
0
 71
3
 72
23
 73
19
 74
0
 42
0.0000001
 43
0.0000001
 44
0.0000000001
 40
0.0
 40
0.0
 40
0.0
 40
0.0
 40
0.0668100238
 40
0.1334615487
 40
0.199803399
 40
0.2656917698
 40
0.3309988741
 40
0.3956156566
 40
0.4594566789
 40
0.5224636986
 40
0.584608857
 40
0.6458969443
 40
0.7063665715
 40
0.7660900428
 40
0.8251714502
 40
0.8837437554
 40
0.9419620244
 40
1.0
 40
1.0
 40
1.0
 40
1.0
 10
7.1512929939
 20
2.4457787267
 30
0.0
 10
7.1512929939
 20
2.4477081589
 30
0.0
 10
7.1511287701
 20
2.4515644731
 30
0.0
 10
7.1503917754
 20
2.4572941787
 30
0.0
 10
7.1491712599
 20
2.4629139926
 30
0.0
 10
7.1474787656
 20
2.468369522
 30
0.0
 10
7.1453303878
 20
2.47360858
 30
0.0
 10
7.1427465081
 20
2.4785808419
 30
0.0
 10
7.1397516731
 20
2.4832385218
 30
0.0
 10
7.1363743438
 20
2.4875367566
 30
0.0
 10
7.1326466597
 20
2.4914340378
 30
0.0
 10
7.1286041569
 20
2.4948925933
 30
0.0
 10
7.1242854791
 20
2.4978787585
 30
0.0
 10
7.1197320227
 20
2.5003633054
 30
0.0
 10
7.1149876833
 20
2.5023217966
 30
0.0
 10
7.1100980989
 20
2.5037348099
 30
0.0
 10
7.1051115481
 20
2.5045883304
 30
0.0
 10
7.1017510599
 20
2.5047787267
 30
0.0
 10
7.100074959
 20
2.5047787267
 30
0.0
  0
SPLINE
  5
431
100
AcDbEntity
  8
0
100
AcDbSpline
 62
7
  6
CONTINUOUS
 70
0
 71
3
 72
21
 73
17
 74
0
 42
0.0000001
 43
0.0000001
 44
0.0000000001
 40
0.0
 40
0.0
 40
0.0
 40
0.0
 40
0.0406628438
 40
0.0825074054
 40
0.1264939309
 40
0.1734214662
 40
0.2238640123
 40
0.278142084
 40
0.3363900427
 40
0.3985693142
 40
0.4645222938
 40
0.5339739623
 40
0.6065729582
 40
0.6818803895
 40
0.8386318947
 40
1.0
 40
1.0
 40
1.0
 40
1.0
 10
7.432574959
 20
1.4797787267
 30
0.0
 10
7.4327390257
 20
1.4797787267
 30
0.0
 10
7.4330727776
 20
1.47974534
 30
0.0
 10
7.4335642415
 20
1.4795976872
 30
0.0
 10
7.4340441957
 20
1.479354165
 30
0.0
 10
7.4345079417
 20
1.4790187039
 30
0.0
 10
7.4349515822
 20
1.4785949627
 30
0.0
 10
7.4353716916
 20
1.4780874444
 30
0.0
 10
7.4357643521
 20
1.477500772
 30
0.0
 10
7.4361263694
 20
1.4768406583
 30
0.0
 10
7.4364541836
 20
1.4761131692
 30
0.0
 10
7.4367449992
 20
1.4753252565
 30
0.0
 10
7.4369958168
 20
1.4744843096
 30
0.0
 10
7.4372777543
 20
1.4732872362
 30
0.0
 10
7.4375126108
 20
1.4717141891
 30
0.0
 10
7.437574959
 20
1.4704298158
 30
0.0
 10
7.437574959
 20
1.4697787267
 30
0.0
  0
SPLINE
  5
432
100
AcDbEntity
  8
0
100
AcDbSpline
 62
7
  6
CONTINUOUS
 70
0
 71
3
 72
21
 73
17
 74
0
 42
0.0000001
 43
0.0000001
 44
0.0000000001
 40
0.0
 40
0.0
 40
0.0
 40
0.0
 40
0.0406628438
 40
0.0825074054
 40
0.1264939308
 40
0.1734214662
 40
0.2238640123
 40
0.278142084
 40
0.3363900427
 40
0.3985693142
 40
0.4645222937
 40
0.5339739622
 40
0.6065729582
 40
0.6818803894
 40
0.8386318946
 40
1.0
 40
1.0
 40
1.0
 40
1.0
 10
7.412574959
 20
1.4797787267
 30
0.0
 10
7.4124108923
 20
1.4797787267
 30
0.0
 10
7.4120771404
 20
1.47974534
 30
0.0
 10
7.4115856764
 20
1.4795976872
 30
0.0
 10
7.4111057222
 20
1.479354165
 30
0.0
 10
7.4106419762
 20
1.4790187039
 30
0.0
 10
7.4101983358
 20
1.4785949627
 30
0.0
 10
7.4097782263
 20
1.4780874444
 30
0.0
 10
7.4093855658
 20
1.477500772
 30
0.0
 10
7.4090235485
 20
1.4768406583
 30
0.0
 10
7.4086957344
 20
1.4761131692
 30
0.0
 10
7.4084049187
 20
1.4753252565
 30
0.0
 10
7.4081541011
 20
1.4744843096
 30
0.0
 10
7.4078721637
 20
1.4732872362
 30
0.0
 10
7.4076373071
 20
1.4717141891
 30
0.0
 10
7.4075749589
 20
1.4704298158
 30
0.0
 10
7.4075749589
 20
1.4697787267
 30
0.0
  0
SPLINE
  5
433
100
AcDbEntity
  8
0
100
AcDbSpline
 62
7
  6
CONTINUOUS
 70
0
 71
3
 72
23
 73
19
 74
0
 42
0.0000001
 43
0.0000001
 44
0.0000000001
 40
0.0
 40
0.0
 40
0.0
 40
0.0
 40
0.0668100972
 40
0.1334617159
 40
0.199803674
 40
0.2656921601
 40
0.33099938
 40
0.3956162709
 40
0.4594573866
 40
0.5224644773
 40
0.5846096778
 40
0.6458977725
 40
0.7063673677
 40
0.7660907646
 40
0.8251720544
 40
0.8837441985
 40
0.941962265
 40
1.0
 40
1.0
 40
1.0
 40
1.0
 10
7.6938569241
 20
2.4457787267
 30
0.0
 10
7.6938569329
 20
2.4477081593
 30
0.0
 10
7.6940211735
 20
2.451564474
 30
0.0
 10
7.6947581908
 20
2.4572941793
 30
0.0
 10
7.6959787255
 20
2.4629139929
 30
0.0
 10
7.697671236
 20
2.468369522
 30
0.0
 10
7.6998196264
 20
2.4736085798
 30
0.0
 10
7.7024035152
 20
2.4785808414
 30
0.0
 10
7.7053983556
 20
2.483238521
 30
0.0
 10
7.7087756866
 20
2.4875367557
 30
0.0
 10
7.7125033686
 20
2.4914340367
 30
0.0
 10
7.7165458657
 20
2.4948925922
 30
0.0
 10
7.720864534
 20
2.4978787575
 30
0.0
 10
7.7254179775
 20
2.5003633045
 30
0.0
 10
7.7301623008
 20
2.502321796
 30
0.0
 10
7.7350518658
 20
2.5037348095
 30
0.0
 10
7.7400383941
 20
2.5045883302
 30
0.0
 10
7.7433988665
 20
2.5047787267
 30
0.0
 10
7.745074959
 20
2.5047787267
 30
0.0
  0
SPLINE
  5
434
100
AcDbEntity
  8
0
100
AcDbSpline
 62
7
  6
CONTINUOUS
 70
0
 71
3
 72
21
 73
17
 74
0
 42
0.0000001
 43
0.0000001
 44
0.0000000001
 40
0.0
 40
0.0
 40
0.0
 40
0.0
 40
0.0406628438
 40
0.0825074054
 40
0.1264939309
 40
0.1734214662
 40
0.2238640123
 40
0.278142084
 40
0.3363900427
 40
0.3985693142
 40
0.4645222938
 40
0.5339739623
 40
0.6065729582
 40
0.6818803895
 40
0.8386318947
 40
1.0
 40
1.0
 40
1.0
 40
1.0
 10
7.011324959
 20
1.4797787267
 30
0.0
 10
7.0111608923
 20
1.4797787267
 30
0.0
 10
7.0108271404
 20
1.47974534
 30
0.0
 10
7.0103356764
 20
1.4795976872
 30
0.0
 10
7.0098557222
 20
1.479354165
 30
0.0
 10
7.0093919762
 20
1.4790187039
 30
0.0
 10
7.0089483358
 20
1.4785949627
 30
0.0
 10
7.0085282263
 20
1.4780874444
 30
0.0
 10
7.0081355658
 20
1.477500772
 30
0.0
 10
7.0077735485
 20
1.4768406583
 30
0.0
 10
7.0074457344
 20
1.4761131692
 30
0.0
 10
7.0071549187
 20
1.4753252565
 30
0.0
 10
7.0069041011
 20
1.4744843096
 30
0.0
 10
7.0066221637
 20
1.4732872362
 30
0.0
 10
7.0063873071
 20
1.4717141891
 30
0.0
 10
7.006324959
 20
1.4704298158
 30
0.0
 10
7.006324959
 20
1.4697787267
 30
0.0
  0
SPLINE
  5
435
100
AcDbEntity
  8
0
100
AcDbSpline
 62
7
  6
CONTINUOUS
 70
0
 71
3
 72
27
 73
23
 74
0
 42
0.0000001
 43
0.0000001
 44
0.0000000001
 40
0.0
 40
0.0
 40
0.0
 40
0.0
 40
0.0641500306
 40
0.096214495
 40
0.1282543218
 40
0.192219342
 40
0.2560058025
 40
0.2878254024
 40
0.3195825686
 40
0.3828727213
 40
0.445862944
 40
0.5085331835
 40
0.5708754825
 40
0.6328944599
 40
0.6946073185
 40
0.7253675326
 40
0.7560631801
 40
0.817262801
 40
0.8782763088
 40
0.9087401278
 40
0.9391807976
 40
1.0
 40
1.0
 40
1.0
 40
1.0
 10
7.155997075
 20
3.1887787267
 30
0.0
 10
7.1559970751
 20
3.186848958
 30
0.0
 10
7.1558622605
 20
3.183952251
 30
0.0
 10
7.1554141524
 20
3.1801191998
 30
0.0
 10
7.1547888338
 20
3.1763163985
 30
0.0
 10
7.1536773489
 20
3.1716321764
 30
0.0
 10
7.1521338172
 20
3.1670788961
 30
0.0
 10
7.1506493949
 20
3.1635454187
 30
0.0
 10
7.1490057088
 20
3.1600997356
 30
0.0
 10
7.1466544277
 20
3.1559587438
 30
0.0
 10
7.1433817304
 20
3.1513008464
 30
0.0
 10
7.1396916565
 20
3.1470031478
 30
0.0
 10
7.1356196413
 20
3.1431073628
 30
0.0
 10
7.1312050752
 20
3.1396512149
 30
0.0
 10
7.1272704463
 20
3.1371618564
 30
0.0
 10
7.1239969518
 20
3.135423252
 30
0.0
 10
7.1206535018
 20
3.1338593713
 30
0.0
 10
7.1163424677
 20
3.1322309458
 30
0.0
 10
7.1118938709
 20
3.1310547889
 30
0.0
 10
7.1082848075
 20
3.1303940553
 30
0.0
 10
7.1046525889
 20
3.1299212468
 30
0.0
 10
7.1019045293
 20
3.1297787267
 30
0.0
 10
7.100074959
 20
3.1297787267
 30
0.0
  0
SPLINE
  5
436
100
AcDbEntity
  8
0
100
AcDbSpline
 62
7
  6
CONTINUOUS
 70
0
 71
3
 72
42
 73
38
 74
0
 42
0.0000001
 43
0.0000001
 44
0.0000000001
 40
0.0
 40
0.0
 40
0.0
 40
0.0
 40
0.0096208676
 40
0.0195251605
 40
0.0297129464
 40
0.0401818649
 40
0.0619484745
 40
0.0847843906
 40
0.1086372079
 40
0.1334501304
 40
0.1591692495
 40
0.1857437558
 40
0.2131293563
 40
0.2412872027
 40
0.2701855912
 40
0.2997978218
 40
0.3301029576
 40
0.3455097752
 40
0.3610830887
 40
0.3927188052
 40
0.4249919093
 40
0.4578796264
 40
0.4745461277
 40
0.4913555247
 40
0.5253843671
 40
0.5599302528
 40
0.5949521119
 40
0.6304083137
 40
0.6662561109
 40
0.7024542302
 40
0.7757405361
 40
0.8127518087
 40
0.849959435
 40
0.8873250696
 40
0.9248124085
 40
0.9623853304
 40
1.0
 40
1.0
 40
1.0
 40
1.0
 10
7.1796033396
 20
4.683331362
 30
0.0
 10
7.1803861963
 20
4.6833654647
 30
0.0
 10
7.1819737179
 20
4.6834660241
 30
0.0
 10
7.1843827805
 20
4.6837001696
 30
0.0
 10
7.1868525684
 20
4.6840122786
 30
0.0
 10
7.1902692192
 20
4.6845294194
 30
0.0
 10
7.1946820401
 20
4.685339026
 30
0.0
 10
7.2001365859
 20
4.6864960431
 30
0.0
 10
7.205811997
 20
4.6878023978
 30
0.0
 10
7.2117046183
 20
4.6892103508
 30
0.0
 10
7.2178117449
 20
4.6906744165
 30
0.0
 10
7.2241316326
 20
4.6921496566
 30
0.0
 10
7.2306628269
 20
4.6935920381
 30
0.0
 10
7.2374038113
 20
4.6949583562
 30
0.0
 10
7.2443524297
 20
4.6962056442
 30
0.0
 10
7.2515049097
 20
4.6972940077
 30
0.0
 10
7.2575964973
 20
4.698032028
 30
0.0
 10
7.262565283
 20
4.6985104459
 30
0.0
 10
7.2676495672
 20
4.6989123133
 30
0.0
 10
7.2741157056
 20
4.6992531807
 30
0.0
 10
7.2819999866
 20
4.6993884645
 30
0.0
 10
7.2886650134
 20
4.6992719879
 30
0.0
 10
7.2940655878
 20
4.6990445813
 30
0.0
 10
7.299554766
 20
4.698727654
 30
0.0
 10
7.3064877575
 20
4.6981701839
 30
0.0
 10
7.3148786965
 20
4.6972756331
 30
0.0
 10
7.3233632866
 20
4.6961840811
 30
0.0
 10
7.3319329118
 20
4.6949340993
 30
0.0
 10
7.3405812594
 20
4.6935655947
 30
0.0
 10
7.3522592907
 20
4.6916320821
 30
0.0
 10
7.3640242194
 20
4.6896430114
 30
0.0
 10
7.3758918002
 20
4.6877718801
 30
0.0
 10
7.3848861929
 20
4.686466365
 30
0.0
 10
7.3939405367
 20
4.685311639
 30
0.0
 10
7.4030485176
 20
4.6843572847
 30
0.0
 10
7.4122002597
 20
4.6836573855
 30
0.0
 10
7.4183203827
 20
4.6833985377
 30
0.0
 10
7.4213832808
 20
4.683331362
 30
0.0
  0
SPLINE
  5
437
100
AcDbEntity
  8
0
100
AcDbSpline
 62
7
  6
CONTINUOUS
 70
0
 71
3
 72
42
 73
38
 74
0
 42
0.0000001
 43
0.0000001
 44
0.0000000001
 40
0.0
 40
0.0
 40
0.0
 40
0.0
 40
0.0376146709
 40
0.0751876051
 40
0.1126749513
 40
0.1500405847
 40
0.1872482125
 40
0.2242594868
 40
0.297545796
 40
0.3337439159
 40
0.3695917169
 40
0.4050479154
 40
0.4400697755
 40
0.474615661
 40
0.5086445019
 40
0.525453898
 40
0.5421203995
 40
0.5750081145
 40
0.6072812182
 40
0.6389169317
 40
0.6544902462
 40
0.6698970638
 40
0.7002022042
 40
0.7298144329
 40
0.7587128173
 40
0.7868706565
 40
0.8142562507
 40
0.840830754
 40
0.8665498764
 40
0.8913627961
 40
0.9152155751
 40
0.9380514894
 40
0.9598181645
 40
0.9702870943
 40
0.9804748633
 40
0.9903791372
 40
1.0
 40
1.0
 40
1.0
 40
1.0
 10
7.4237666371
 20
4.683331362
 30
0.0
 10
7.4268295356
 20
4.6833985338
 30
0.0
 10
7.4329496599
 20
4.6836573852
 30
0.0
 10
7.4421014045
 20
4.684357276
 30
0.0
 10
7.4512093889
 20
4.6853116171
 30
0.0
 10
7.4602637306
 20
4.6864663681
 30
0.0
 10
7.469258121
 20
4.6877719011
 30
0.0
 10
7.4811257061
 20
4.6896430115
 30
0.0
 10
7.4928906377
 20
4.6916320713
 30
0.0
 10
7.504568668
 20
4.6935655971
 30
0.0
 10
7.5132170145
 20
4.6949341107
 30
0.0
 10
7.5217866415
 20
4.696184085
 30
0.0
 10
7.5302712336
 20
4.6972756213
 30
0.0
 10
7.538662171
 20
4.6981701877
 30
0.0
 10
7.5455951615
 20
4.6987276733
 30
0.0
 10
7.5510843401
 20
4.6990445964
 30
0.0
 10
7.5564849147
 20
4.6992719976
 30
0.0
 10
7.5631499415
 20
4.699388474
 30
0.0
 10
7.5710342224
 20
4.6992532018
 30
0.0
 10
7.5775003614
 20
4.6989123411
 30
0.0
 10
7.5825846455
 20
4.6985104701
 30
0.0
 10
7.58755343
 20
4.6980320327
 30
0.0
 10
7.5936450147
 20
4.6972939864
 30
0.0
 10
7.600797495
 20
4.6962056251
 30
0.0
 10
7.6077461151
 20
4.6949583514
 30
0.0
 10
7.6144871002
 20
4.6935920418
 30
0.0
 10
7.6210182949
 20
4.6921496672
 30
0.0
 10
7.6273381825
 20
4.6906744275
 30
0.0
 10
7.6334453063
 20
4.6892103502
 30
0.0
 10
7.6393379224
 20
4.6878023873
 30
0.0
 10
7.6450133434
 20
4.6864960887
 30
0.0
 10
7.6504678964
 20
4.6853391007
 30
0.0
 10
7.6548806969
 20
4.6845293519
 30
0.0
 10
7.6582973443
 20
4.6840121499
 30
0.0
 10
7.660767135
 20
4.683700074
 30
0.0
 10
7.6631762012
 20
4.683465997
 30
0.0
 10
7.664763722
 20
4.6833654656
 30
0.0
 10
7.6655465783
 20
4.683331362
 30
0.0
  0
SPLINE
  5
438
100
AcDbEntity
  8
0
100
AcDbSpline
 62
7
  6
CONTINUOUS
 70
0
 71
3
 72
47
 73
43
 74
0
 42
0.0000001
 43
0.0000001
 44
0.0000000001
 40
0.0
 40
0.0
 40
0.0
 40
0.0
 40
0.1077849612
 40
0.2099484068
 40
0.3067463121
 40
0.3983209521
 40
0.4847002912
 40
0.5657900767
 40
0.6413878233
 40
0.7111796694
 40
0.7437754419
 40
0.7747587455
 40
0.8040650621
 40
0.8316256444
 40
0.857367968
 40
0.8812171035
 40
0.9030970607
 40
0.9229294834
 40
0.9406356763
 40
0.9561483744
 40
0.9630625213
 40
0.9694045683
 40
0.9751664781
 40
0.9803410428
 40
0.9849229719
 40
0.9889072106
 40
0.99228868
 40
0.9937517828
 40
0.9950622783
 40
0.9962195254
 40
0.9972228826
 40
0.9980718432
 40
0.9987663373
 40
0.9990556649
 40
0.9993063824
 40
0.999518492
 40
0.9996919959
 40
0.9998268963
 40
0.9999231955
 40
0.9999568703
 40
0.9999808957
 40
1.0
 40
1.0
 40
1.0
 40
1.0
 10
7.6667382565
 20
4.683331362
 30
0.0
 10
7.6682181537
 20
4.6833967971
 30
0.0
 10
7.6710969913
 20
4.6836422561
 30
0.0
 10
7.675259503
 20
4.6843349799
 30
0.0
 10
7.6791416242
 20
4.6852842085
 30
0.0
 10
7.6827415603
 20
4.6864331528
 30
0.0
 10
7.6860586114
 20
4.6877324615
 30
0.0
 10
7.6890929658
 20
4.6891340041
 30
0.0
 10
7.6918448088
 20
4.6905914994
 30
0.0
 10
7.6939483038
 20
4.6918419541
 30
0.0
 10
7.6954912372
 20
4.6928317009
 30
0.0
 10
7.6965512367
 20
4.693543227
 30
0.0
 10
7.697540356
 20
4.6942357282
 30
0.0
 10
7.6984583207
 20
4.6949039156
 30
0.0
 10
7.6993048753
 20
4.6955424806
 30
0.0
 10
7.7000797313
 20
4.6961462363
 30
0.0
 10
7.7007824387
 20
4.696710272
 30
0.0
 10
7.7014125818
 20
4.6972297135
 30
0.0
 10
7.7019699881
 20
4.6976997351
 30
0.0
 10
7.7023880409
 20
4.6980595546
 30
0.0
 10
7.7026858739
 20
4.6983196045
 30
0.0
 10
7.7028820377
 20
4.6984923392
 30
0.0
 10
7.7030596686
 20
4.6986499409
 30
0.0
 10
7.7032187431
 20
4.6987920064
 30
0.0
 10
7.7033591993
 20
4.6989182401
 30
0.0
 10
7.7034810036
 20
4.6990283592
 30
0.0
 10
7.7035707946
 20
4.6991099723
 30
0.0
 10
7.7036332939
 20
4.6991669784
 30
0.0
 10
7.7036731742
 20
4.6992034216
 30
0.0
 10
7.7037083678
 20
4.6992356271
 30
0.0
 10
7.7037388715
 20
4.6992635613
 30
0.0
 10
7.7037646886
 20
4.6992871971
 30
0.0
 10
7.7037832702
 20
4.6993042018
 30
0.0
 10
7.7037957897
 20
4.6993156555
 30
0.0
 10
7.7038034165
 20
4.6993226282
 30
0.0
 10
7.7038098757
 20
4.6993285392
 30
0.0
 10
7.7038151451
 20
4.6993333357
 30
0.0
 10
7.7038192834
 20
4.6993371592
 30
0.0
 10
7.7038219104
 20
4.6993394596
 30
0.0
 10
7.7038235606
 20
4.6993410882
 30
0.0
 10
7.7038241946
 20
4.6993414402
 30
0.0
 10
7.7038249189
 20
4.6993425243
 30
0.0
 10
7.7038249371
 20
4.6993422623
 30
0.0
  0
LINE
  5
439
100
AcDbEntity
  8
0
100
AcDbLine
 62
7
  6
CONTINUOUS
 10
7.0788249595
 20
3.4704894173
 11
7.2350662185
 21
3.4703984425
  0
LINE
  5
43A
100
AcDbEntity
  8
0
100
AcDbLine
 62
7
  6
CONTINUOUS
 10
7.0869528329
 20
3.480315427
 11
7.2350654454
 21
3.4802411916
  0
SPLINE
  5
43B
100
AcDbEntity
  8
0
100
AcDbSpline
 62
7
  6
CONTINUOUS
 70
0
 71
3
 72
39
 73
35
 74
0
 42
0.0000001
 43
0.0000001
 44
0.0000000001
 40
0.0
 40
0.0
 40
0.0
 40
0.0
 40
0.2323664455
 40
0.3372393754
 40
0.4345404502
 40
0.524243062
 40
0.606321952
 40
0.6807437887
 40
0.74746906
 40
0.8064616343
 40
0.8576841563
 40
0.8803689377
 40
0.9010956021
 40
0.9198603531
 40
0.9366603822
 40
0.9514928347
 40
0.9643547945
 40
0.9752432865
 40
0.9799465376
 40
0.9841552818
 40
0.9878691338
 40
0.9910877932
 40
0.9938112173
 40
0.9960394111
 40
0.9969677984
 40
0.99777238
 40
0.9984531566
 40
0.999010129
 40
0.999443298
 40
0.9997526642
 40
0.9998609217
 40
0.9999382291
 40
0.9999845871
 40
1.0
 40
1.0
 40
1.0
 40
1.0
 10
7.6940480619
 20
4.5825287267
 30
0.0
 10
7.694808603
 20
4.5825287205
 30
0.0
 10
7.6959125517
 20
4.5825083041
 30
0.0
 10
7.6973333566
 20
4.5824430159
 30
0.0
 10
7.6982868747
 20
4.582383684
 30
0.0
 10
7.6991649992
 20
4.5823158084
 30
0.0
 10
7.699967503
 20
4.5822423971
 30
0.0
 10
7.7006941934
 20
4.5821665167
 30
0.0
 10
7.701344934
 20
4.5820912911
 30
0.0
 10
7.7019195361
 20
4.5820189404
 30
0.0
 10
7.7023506037
 20
4.5819606561
 30
0.0
 10
7.7026573012
 20
4.581917351
 30
0.0
 10
7.702858718
 20
4.5818882757
 30
0.0
 10
7.7030409966
 20
4.5818614391
 30
0.0
 10
7.7032041222
 20
4.5818369633
 30
0.0
 10
7.703348085
 20
4.5818149805
 30
0.0
 10
7.7034728751
 20
4.5817956203
 30
0.0
 10
7.703564874
 20
4.5817811514
 30
0.0
 10
7.7036288822
 20
4.5817710048
 30
0.0
 10
7.7036696937
 20
4.5817645119
 30
0.0
 10
7.7037057047
 20
4.5817587723
 30
0.0
 10
7.7037369155
 20
4.5817538015
 30
0.0
 10
7.7037633247
 20
4.5817495993
 30
0.0
 10
7.7037823317
 20
4.5817465782
 30
0.0
 10
7.7037951362
 20
4.5817445462
 30
0.0
 10
7.7038029396
 20
4.5817433084
 30
0.0
 10
7.70380954
 20
4.5817422656
 30
0.0
 10
7.7038149476
 20
4.5817414059
 30
0.0
 10
7.7038191347
 20
4.5817407604
 30
0.0
 10
7.7038219157
 20
4.5817402959
 30
0.0
 10
7.7038234763
 20
4.5817400924
 30
0.0
 10
7.7038242926
 20
4.5817399034
 30
0.0
 10
7.7038246263
 20
4.5817399658
 30
0.0
 10
7.7038249469
 20
4.5817398028
 30
0.0
 10
7.7038249477
 20
4.5817398532
 30
0.0
  0
SPLINE
  5
43C
100
AcDbEntity
  8
0
100
AcDbSpline
 62
7
  6
CONTINUOUS
 70
0
 71
3
 72
23
 73
19
 74
0
 42
0.0000001
 43
0.0000001
 44
0.0000000001
 40
0.0
 40
0.0
 40
0.0
 40
0.0
 40
0.0625000463
 40
0.1250000995
 40
0.1875002551
 40
0.2500002341
 40
0.3125003716
 40
0.3750003534
 40
0.4375003227
 40
0.5000003169
 40
0.5625002651
 40
0.6250002418
 40
0.68750032
 40
0.7500002094
 40
0.8125002537
 40
0.8750001838
 40
0.9375000855
 40
1.0
 40
1.0
 40
1.0
 40
1.0
 10
7.2350653608
 20
4.2775656372
 30
0.0
 10
7.2312393714
 20
4.2746669574
 30
0.0
 10
7.2237183349
 20
4.2686943644
 30
0.0
 10
7.212859116
 20
4.2592296445
 30
0.0
 10
7.2024466937
 20
4.2492749409
 30
0.0
 10
7.1925066027
 20
4.2388486507
 30
0.0
 10
7.1830580498
 20
4.227975022
 30
0.0
 10
7.1741176117
 20
4.2166799748
 30
0.0
 10
7.1657031471
 20
4.204987848
 30
0.0
 10
7.157831931
 20
4.1929233123
 30
0.0
 10
7.1505215918
 20
4.1805108539
 30
0.0
 10
7.1437900829
 20
4.1677751411
 30
0.0
 10
7.1376551048
 20
4.1547414733
 30
0.0
 10
7.1321370086
 20
4.1414348003
 30
0.0
 10
7.127247749
 20
4.1278845384
 30
0.0
 10
7.1229944188
 20
4.1141213782
 30
0.0
 10
7.1193838892
 20
4.1001761552
 30
0.0
 10
7.1174098232
 20
4.0907770664
 30
0.0
 10
7.1165323523
 20
4.0860579048
 30
0.0
  0
SPLINE
  5
43D
100
AcDbEntity
  8
0
100
AcDbSpline
 62
7
  6
CONTINUOUS
 70
0
 71
3
 72
23
 73
19
 74
0
 42
0.0000001
 43
0.0000001
 44
0.0000000001
 40
0.0
 40
0.0
 40
0.0
 40
0.0
 40
0.0624999076
 40
0.1249998084
 40
0.1874997354
 40
0.2499997541
 40
0.3124996786
 40
0.37499972
 40
0.4374997172
 40
0.4999996691
 40
0.5624996616
 40
0.6249996345
 40
0.6874996163
 40
0.749999751
 40
0.8124997382
 40
0.8749998922
 40
0.9374999498
 40
1.0
 40
1.0
 40
1.0
 40
1.0
 10
7.7291205435
 20
4.0832827564
 30
0.0
 10
7.7282757597
 20
4.0880675402
 30
0.0
 10
7.7263612205
 20
4.0975989505
 30
0.0
 10
7.7228226692
 20
4.1117445208
 30
0.0
 10
7.7186243031
 20
4.1257088634
 30
0.0
 10
7.7137731744
 20
4.1394600291
 30
0.0
 10
7.7082766904
 20
4.1529663075
 30
0.0
 10
7.7021456236
 20
4.1661965342
 30
0.0
 10
7.6954009424
 20
4.1791245974
 30
0.0
 10
7.688061183
 20
4.1917242793
 30
0.0
 10
7.6801449337
 20
4.2039699223
 30
0.0
 10
7.6716705317
 20
4.215836142
 30
0.0
 10
7.6626558907
 20
4.2272973547
 30
0.0
 10
7.6531194991
 20
4.2383283015
 30
0.0
 10
7.6430786703
 20
4.248902253
 30
0.0
 10
7.6325529656
 20
4.2589937447
 30
0.0
 10
7.6215688337
 20
4.2685836241
 30
0.0
 10
7.6139573618
 20
4.274631489
 30
0.0
 10
7.6100845505
 20
4.2775656423
 30
0.0
  0
SPLINE
  5
43E
100
AcDbEntity
  8
0
100
AcDbSpline
 62
7
  6
CONTINUOUS
 70
0
 71
3
 72
21
 73
17
 74
0
 42
0.0000001
 43
0.0000001
 44
0.0000000001
 40
0.0
 40
0.0
 40
0.0
 40
0.0
 40
0.0406628438
 40
0.0825074054
 40
0.1264939309
 40
0.1734214662
 40
0.2238640123
 40
0.278142084
 40
0.3363900427
 40
0.3985693142
 40
0.4645222938
 40
0.5339739623
 40
0.6065729582
 40
0.6818803895
 40
0.8386318947
 40
1.0
 40
1.0
 40
1.0
 40
1.0
 10
7.843824959
 20
1.3705287267
 30
0.0
 10
7.8436608923
 20
1.3705287267
 30
0.0
 10
7.8433271404
 20
1.3705621134
 30
0.0
 10
7.8428356764
 20
1.3707097662
 30
0.0
 10
7.8423557222
 20
1.3709532884
 30
0.0
 10
7.8418919762
 20
1.3712887495
 30
0.0
 10
7.8414483358
 20
1.3717124908
 30
0.0
 10
7.8410282263
 20
1.372220009
 30
0.0
 10
7.8406355658
 20
1.3728066814
 30
0.0
 10
7.8402735485
 20
1.3734667951
 30
0.0
 10
7.8399457344
 20
1.3741942842
 30
0.0
 10
7.8396549187
 20
1.3749821969
 30
0.0
 10
7.8394041011
 20
1.3758231438
 30
0.0
 10
7.8391221637
 20
1.3770202173
 30
0.0
 10
7.8388873071
 20
1.3785932643
 30
0.0
 10
7.838824959
 20
1.3798776376
 30
0.0
 10
7.838824959
 20
1.3805287267
 30
0.0
  0
LINE
  5
43F
100
AcDbEntity
  8
0
100
AcDbLine
 62
7
  6
CONTINUOUS
 10
7.1113252729
 20
3.5097787248
 11
7.2350653673
 21
3.5096548102
  0
SPLINE
  5
440
100
AcDbEntity
  8
0
100
AcDbSpline
 62
7
  6
CONTINUOUS
 70
0
 71
3
 72
21
 73
17
 74
0
 42
0.0000001
 43
0.0000001
 44
0.0000000001
 40
0.0
 40
0.0
 40
0.0
 40
0.0
 40
0.0406628438
 40
0.0825074054
 40
0.1264939309
 40
0.1734214662
 40
0.2238640123
 40
0.278142084
 40
0.3363900427
 40
0.3985693142
 40
0.4645222938
 40
0.5339739623
 40
0.6065729582
 40
0.6818803895
 40
0.8386318947
 40
1.0
 40
1.0
 40
1.0
 40
1.0
 10
7.442574959
 20
1.3705287267
 30
0.0
 10
7.4424108923
 20
1.3705287267
 30
0.0
 10
7.4420771404
 20
1.3705621134
 30
0.0
 10
7.4415856764
 20
1.3707097662
 30
0.0
 10
7.4411057222
 20
1.3709532884
 30
0.0
 10
7.4406419762
 20
1.3712887495
 30
0.0
 10
7.4401983358
 20
1.3717124908
 30
0.0
 10
7.4397782263
 20
1.372220009
 30
0.0
 10
7.4393855658
 20
1.3728066814
 30
0.0
 10
7.4390235485
 20
1.3734667951
 30
0.0
 10
7.4386957344
 20
1.3741942842
 30
0.0
 10
7.4384049187
 20
1.3749821969
 30
0.0
 10
7.4381541011
 20
1.3758231438
 30
0.0
 10
7.4378721637
 20
1.3770202173
 30
0.0
 10
7.4376373071
 20
1.3785932643
 30
0.0
 10
7.437574959
 20
1.3798776376
 30
0.0
 10
7.437574959
 20
1.3805287267
 30
0.0
  0
SPLINE
  5
441
100
AcDbEntity
  8
0
100
AcDbSpline
 62
7
  6
CONTINUOUS
 70
0
 71
3
 72
21
 73
17
 74
0
 42
0.0000001
 43
0.0000001
 44
0.0000000001
 40
0.0
 40
0.0
 40
0.0
 40
0.0
 40
0.0406628438
 40
0.0825074054
 40
0.1264939309
 40
0.1734214662
 40
0.2238640123
 40
0.278142084
 40
0.3363900427
 40
0.3985693142
 40
0.4645222938
 40
0.5339739623
 40
0.6065729582
 40
0.6818803895
 40
0.8386318947
 40
1.0
 40
1.0
 40
1.0
 40
1.0
 10
7.402574959
 20
1.3705287267
 30
0.0
 10
7.4027390257
 20
1.3705287267
 30
0.0
 10
7.4030727776
 20
1.3705621134
 30
0.0
 10
7.4035642415
 20
1.3707097662
 30
0.0
 10
7.4040441957
 20
1.3709532884
 30
0.0
 10
7.4045079417
 20
1.3712887495
 30
0.0
 10
7.4049515822
 20
1.3717124908
 30
0.0
 10
7.4053716916
 20
1.372220009
 30
0.0
 10
7.4057643521
 20
1.3728066814
 30
0.0
 10
7.4061263694
 20
1.3734667951
 30
0.0
 10
7.4064541836
 20
1.3741942842
 30
0.0
 10
7.4067449992
 20
1.3749821969
 30
0.0
 10
7.4069958168
 20
1.3758231438
 30
0.0
 10
7.4072777543
 20
1.3770202173
 30
0.0
 10
7.4075126108
 20
1.3785932643
 30
0.0
 10
7.407574959
 20
1.3798776376
 30
0.0
 10
7.407574959
 20
1.3805287267
 30
0.0
  0
SPLINE
  5
442
100
AcDbEntity
  8
0
100
AcDbSpline
 62
7
  6
CONTINUOUS
 70
0
 71
3
 72
27
 73
23
 74
0
 42
0.0000001
 43
0.0000001
 44
0.0000000001
 40
0.0
 40
0.0
 40
0.0
 40
0.0
 40
0.0613907651
 40
0.0921098349
 40
0.1228435926
 40
0.1843615496
 40
0.2460014177
 40
0.2768874917
 40
0.3078159667
 40
0.3697929629
 40
0.4319714904
 40
0.4943632423
 40
0.5569716503
 40
0.6197918278
 40
0.6828108292
 40
0.7143979014
 40
0.746026456
 40
0.8093751341
 40
0.8728427249
 40
0.9046174983
 40
0.936409137
 40
1.0
 40
1.0
 40
1.0
 40
1.0
 10
7.0941528318
 20
4.5235287267
 30
0.0
 10
7.0960159096
 20
4.5235287267
 30
0.0
 10
7.0988139675
 20
4.5236711939
 30
0.0
 10
7.1025130505
 20
4.5241439958
 30
0.0
 10
7.1061875181
 20
4.5248045457
 30
0.0
 10
7.1107161889
 20
4.5259800645
 30
0.0
 10
7.1151072862
 20
4.5276085113
 30
0.0
 10
7.1185131866
 20
4.5291728007
 30
0.0
 10
7.1218454272
 20
4.5309106145
 30
0.0
 10
7.125850616
 20
4.5333984683
 30
0.0
 10
7.130346374
 20
4.5368540878
 30
0.0
 10
7.1344934876
 20
4.5407494862
 30
0.0
 10
7.138251805
 20
4.5450469879
 30
0.0
 10
7.1415851766
 20
4.5497048917
 30
0.0
 10
7.1439810205
 20
4.5538475879
 30
0.0
 10
7.1456555859
 20
4.5572945658
 30
0.0
 10
7.1471669257
 20
4.560827093
 30
0.0
 10
7.1487388014
 20
4.5653796115
 30
0.0
 10
7.1498712285
 20
4.5700652929
 30
0.0
 10
7.1505081805
 20
4.5738688602
 30
0.0
 10
7.150964523
 20
4.5777017695
 30
0.0
 10
7.151101856
 20
4.5805988806
 30
0.0
 10
7.151101856
 20
4.5825287267
 30
0.0
  0
SPLINE
  5
443
100
AcDbEntity
  8
0
100
AcDbSpline
 62
7
  6
CONTINUOUS
 70
0
 71
3
 72
35
 73
31
 74
0
 42
0.0000001
 43
0.0000001
 44
0.0000000001
 40
0.0
 40
0.0
 40
0.0
 40
0.0
 40
0.0047961282
 40
0.0096422489
 40
0.0145864433
 40
0.0196736079
 40
0.0304268685
 40
0.042186152
 40
0.0551561278
 40
0.0694852232
 40
0.0852795849
 40
0.102614842
 40
0.1215448772
 40
0.1421080428
 40
0.1643314905
 40
0.1882341854
 40
0.2138290217
 40
0.2411241189
 40
0.2701161697
 40
0.3007886461
 40
0.3331218392
 40
0.3670940791
 40
0.4026821475
 40
0.4398615899
 40
0.5188905318
 40
0.6039701606
 40
0.6948789737
 40
0.7913879994
 40
0.893213006
 40
1.0
 40
1.0
 40
1.0
 40
1.0
 10
7.111324959
 20
3.6110287267
 30
0.0
 10
7.111324959
 20
3.6112400302
 30
0.0
 10
7.1113471453
 20
3.611665163
 30
0.0
 10
7.1114465693
 20
3.6123011164
 30
0.0
 10
7.111611905
 20
3.6129364794
 30
0.0
 10
7.1119254307
 20
3.6137980856
 30
0.0
 10
7.1124940346
 20
3.614879778
 30
0.0
 10
7.1134217484
 20
3.616143566
 30
0.0
 10
7.1146040987
 20
3.6173987147
 30
0.0
 10
7.1160392715
 20
3.6186455134
 30
0.0
 10
7.1177261599
 20
3.6198841669
 30
0.0
 10
7.1196637601
 20
3.6211141835
 30
0.0
 10
7.1218510437
 20
3.6223347987
 30
0.0
 10
7.1242868952
 20
3.6235450404
 30
0.0
 10
7.1269701168
 20
3.6247438373
 30
0.0
 10
7.1298994441
 20
3.625930054
 30
0.0
 10
7.1330735435
 20
3.6271025484
 30
0.0
 10
7.1364907377
 20
3.6282599435
 30
0.0
 10
7.1401483526
 20
3.6294011584
 30
0.0
 10
7.1440427094
 20
3.6305255486
 30
0.0
 10
7.1481697215
 20
3.6316321563
 30
0.0
 10
7.1525252426
 20
3.6327200588
 30
0.0
 10
7.1571051204
 20
3.6337883506
 30
0.0
 10
7.1636391959
 20
3.6352144867
 30
0.0
 10
7.1723403602
 20
3.6369324508
 30
0.0
 10
7.1834094672
 20
3.6388623762
 30
0.0
 10
7.1952752423
 20
3.6406928834
 30
0.0
 10
7.2079020234
 20
3.6424157656
 30
0.0
 10
7.2212485457
 20
3.6440252213
 30
0.0
 10
7.2303879716
 20
3.6449989434
 30
0.0
 10
7.2350691982
 20
3.645468578
 30
0.0
  0
SPLINE
  5
444
100
AcDbEntity
  8
0
100
AcDbSpline
 62
7
  6
CONTINUOUS
 70
0
 71
3
 72
21
 73
17
 74
0
 42
0.0000001
 43
0.0000001
 44
0.0000000001
 40
0.0
 40
0.0
 40
0.0
 40
0.0
 40
0.0406628438
 40
0.0825074054
 40
0.1264939309
 40
0.1734214662
 40
0.2238640123
 40
0.278142084
 40
0.3363900427
 40
0.3985693142
 40
0.4645222938
 40
0.5339739623
 40
0.6065729582
 40
0.6818803895
 40
0.8386318947
 40
1.0
 40
1.0
 40
1.0
 40
1.0
 10
7.001324959
 20
1.3705287267
 30
0.0
 10
7.0014890257
 20
1.3705287267
 30
0.0
 10
7.0018227776
 20
1.3705621134
 30
0.0
 10
7.0023142415
 20
1.3707097662
 30
0.0
 10
7.0027941957
 20
1.3709532884
 30
0.0
 10
7.0032579417
 20
1.3712887495
 30
0.0
 10
7.0037015822
 20
1.3717124908
 30
0.0
 10
7.0041216916
 20
1.372220009
 30
0.0
 10
7.0045143521
 20
1.3728066814
 30
0.0
 10
7.0048763694
 20
1.3734667951
 30
0.0
 10
7.0052041836
 20
1.3741942842
 30
0.0
 10
7.0054949992
 20
1.3749821969
 30
0.0
 10
7.0057458168
 20
1.3758231438
 30
0.0
 10
7.0060277543
 20
1.3770202173
 30
0.0
 10
7.0062626108
 20
1.3785932643
 30
0.0
 10
7.006324959
 20
1.3798776376
 30
0.0
 10
7.006324959
 20
1.3805287267
 30
0.0
  0
SPLINE
  5
445
100
AcDbEntity
  8
0
100
AcDbSpline
 62
7
  6
CONTINUOUS
 70
0
 71
3
 72
26
 73
22
 74
0
 42
0.0000001
 43
0.0000001
 44
0.0000000001
 40
0.0
 40
0.0
 40
0.0
 40
0.0
 40
0.0621123703
 40
0.1242428598
 40
0.1864033344
 40
0.2486024034
 40
0.3108473279
 40
0.3731459267
 40
0.4043216898
 40
0.4355150283
 40
0.4979528701
 40
0.5604702524
 40
0.6230656067
 40
0.6857340418
 40
0.7484693953
 40
0.779863542
 40
0.8112725845
 40
0.8426963064
 40
0.8741346711
 40
0.9370454888
 40
1.0
 40
1.0
 40
1.0
 40
1.0
 10
7.1113277042
 20
4.0310640258
 30
0.0
 10
7.1113529138
 20
4.0369662287
 30
0.0
 10
7.111750691
 20
4.0487737471
 30
0.0
 10
7.1133775159
 20
4.0664214267
 30
0.0
 10
7.1160228223
 20
4.0839542372
 30
0.0
 10
7.1196750043
 20
4.1013162485
 30
0.0
 10
7.1243223319
 20
4.1184521097
 30
0.0
 10
7.1290141791
 20
4.132495295
 30
0.0
 10
7.1332524266
 20
4.1435593507
 30
0.0
 10
7.1378153869
 20
4.1545078465
 30
0.0
 10
7.1441177906
 20
4.1679508543
 30
0.0
 10
7.152599229
 20
4.1836361076
 30
0.0
 10
7.1619694586
 20
4.1988332184
 30
0.0
 10
7.1721950729
 20
4.2134931951
 30
0.0
 10
7.1814005148
 20
4.2252201627
 30
0.0
 10
7.189158578
 20
4.2342840063
 30
0.0
 10
7.1951723305
 20
4.2409195511
 30
0.0
 10
7.2013752209
 20
4.2473844619
 30
0.0
 10
7.2098936777
 20
4.2557696033
 30
0.0
 10
7.220990271
 20
4.265797219
 30
0.0
 10
7.2303079796
 20
4.2733075983
 30
0.0
 10
7.2350691982
 20
4.2769295438
 30
0.0
  0
LINE
  5
446
100
AcDbEntity
  8
0
100
AcDbLine
 62
7
  6
CONTINUOUS
 10
2.9455023129
 20
6.3804037267
 11
2.9455023129
 21
6.7160287267
  0
LINE
  5
447
100
AcDbEntity
  8
0
100
AcDbLine
 62
7
  6
CONTINUOUS
 10
2.059449959
 20
6.1656013727
 11
2.395074959
 21
6.1656013727
  0
SPLINE
  5
448
100
AcDbEntity
  8
0
100
AcDbSpline
 62
7
  6
CONTINUOUS
 70
0
 71
3
 72
22
 73
18
 74
0
 42
0.0000001
 43
0.0000001
 44
0.0000000001
 40
0.0
 40
0.0
 40
0.0
 40
0.0
 40
0.040679019
 40
0.0825051881
 40
0.1264821569
 40
0.173413303
 40
0.2238526224
 40
0.2781284812
 40
0.3363714798
 40
0.398549431
 40
0.4644981097
 40
0.5339466294
 40
0.6065378516
 40
0.6818450748
 40
0.7593882777
 40
0.8386395586
 40
1.0
 40
1.0
 40
1.0
 40
1.0
 10
7.422574959
 20
4.9297787267
 30
0.0
 10
7.4229032413
 20
4.9297787267
 30
0.0
 10
7.4235708063
 20
4.9297122125
 30
0.0
 10
7.4245535907
 20
4.9294165157
 30
0.0
 10
7.4255134026
 20
4.9289296351
 30
0.0
 10
7.4264408639
 20
4.9282586798
 30
0.0
 10
7.4273283203
 20
4.927411302
 30
0.0
 10
7.4281683652
 20
4.9263961296
 30
0.0
 10
7.4289538221
 20
4.9252228704
 30
0.0
 10
7.4296777291
 20
4.92390257
 30
0.0
 10
7.4303334866
 20
4.9224476345
 30
0.0
 10
7.430914991
 20
4.9208717859
 30
0.0
 10
7.431416756
 20
4.9191899464
 30
0.0
 10
7.4318340101
 20
4.9174181293
 30
0.0
 10
7.4321627749
 20
4.9155731587
 30
0.0
 10
7.4324807308
 20
4.9130246031
 30
0.0
 10
7.432574959
 20
4.9110809158
 30
0.0
 10
7.432574959
 20
4.9097787267
 30
0.0
  0
SPLINE
  5
449
100
AcDbEntity
  8
0
100
AcDbSpline
 62
7
  6
CONTINUOUS
 70
0
 71
3
 72
22
 73
18
 74
0
 42
0.0000001
 43
0.0000001
 44
0.0000000001
 40
0.0
 40
0.0
 40
0.0
 40
0.0
 40
0.040679019
 40
0.0825051881
 40
0.1264821569
 40
0.173413303
 40
0.2238526224
 40
0.2781284812
 40
0.3363714799
 40
0.398549431
 40
0.4644981097
 40
0.5339466294
 40
0.6065378517
 40
0.6818450749
 40
0.7593882778
 40
0.8386395588
 40
1.0
 40
1.0
 40
1.0
 40
1.0
 10
7.422574959
 20
4.9297787267
 30
0.0
 10
7.4222466767
 20
4.9297787267
 30
0.0
 10
7.4215791117
 20
4.9297122125
 30
0.0
 10
7.4205963272
 20
4.9294165157
 30
0.0
 10
7.4196365153
 20
4.9289296351
 30
0.0
 10
7.418709054
 20
4.9282586798
 30
0.0
 10
7.4178215977
 20
4.927411302
 30
0.0
 10
7.4169815527
 20
4.9263961296
 30
0.0
 10
7.4161960958
 20
4.9252228704
 30
0.0
 10
7.4154721888
 20
4.92390257
 30
0.0
 10
7.4148164313
 20
4.9224476345
 30
0.0
 10
7.414234927
 20
4.9208717859
 30
0.0
 10
7.413733162
 20
4.9191899464
 30
0.0
 10
7.4133159078
 20
4.9174181293
 30
0.0
 10
7.4129871431
 20
4.9155731587
 30
0.0
 10
7.4126691871
 20
4.9130246031
 30
0.0
 10
7.4125749591
 20
4.9110809158
 30
0.0
 10
7.4125749591
 20
4.9097787267
 30
0.0
  0
SPLINE
  5
44A
100
AcDbEntity
  8
0
100
AcDbSpline
 62
7
  6
CONTINUOUS
 70
0
 71
3
 72
22
 73
18
 74
0
 42
0.0000001
 43
0.0000001
 44
0.0000000001
 40
0.0
 40
0.0
 40
0.0
 40
0.0
 40
0.040679019
 40
0.0825051881
 40
0.1264821569
 40
0.173413303
 40
0.2238526224
 40
0.2781284812
 40
0.3363714798
 40
0.398549431
 40
0.4644981097
 40
0.5339466294
 40
0.6065378516
 40
0.6818450748
 40
0.7593882777
 40
0.8386395586
 40
1.0
 40
1.0
 40
1.0
 40
1.0
 10
7.130074959
 20
4.9297787267
 30
0.0
 10
7.1297466767
 20
4.9297787267
 30
0.0
 10
7.1290791117
 20
4.9297122125
 30
0.0
 10
7.1280963272
 20
4.9294165157
 30
0.0
 10
7.1271365153
 20
4.9289296351
 30
0.0
 10
7.126209054
 20
4.9282586798
 30
0.0
 10
7.1253215977
 20
4.927411302
 30
0.0
 10
7.1244815527
 20
4.9263961296
 30
0.0
 10
7.1236960958
 20
4.9252228704
 30
0.0
 10
7.1229721888
 20
4.92390257
 30
0.0
 10
7.1223164313
 20
4.9224476345
 30
0.0
 10
7.121734927
 20
4.9208717859
 30
0.0
 10
7.121233162
 20
4.9191899464
 30
0.0
 10
7.1208159078
 20
4.9174181293
 30
0.0
 10
7.1204871431
 20
4.9155731587
 30
0.0
 10
7.1201691871
 20
4.9130246031
 30
0.0
 10
7.120074959
 20
4.9110809158
 30
0.0
 10
7.120074959
 20
4.9097787267
 30
0.0
  0
SPLINE
  5
44B
100
AcDbEntity
  8
0
100
AcDbSpline
 62
7
  6
CONTINUOUS
 70
0
 71
3
 72
46
 73
42
 74
0
 42
0.0000001
 43
0.0000001
 44
0.0000000001
 40
0.0
 40
0.0
 40
0.0
 40
0.0
 40
0.0000195231
 40
0.0000437567
 40
0.0000776382
 40
0.0001743439
 40
0.000309638
 40
0.0004835186
 40
0.0006959834
 40
0.0009470303
 40
0.001236657
 40
0.0019316413
 40
0.0027809189
 40
0.0037843914
 40
0.0049415638
 40
0.0062518207
 40
0.0077145479
 40
0.0110949604
 40
0.0150779109
 40
0.0196585299
 40
0.0248319698
 40
0.0305931197
 40
0.0369347734
 40
0.0438488233
 40
0.0593619377
 40
0.0770689025
 40
0.0969020182
 40
0.1187824728
 40
0.1426318559
 40
0.1683741425
 40
0.1959345129
 40
0.2252406267
 40
0.2888164717
 40
0.3586088408
 40
0.4342060529
 40
0.5152958283
 40
0.6016777993
 40
0.6932537892
 40
0.7900497939
 40
0.8922138127
 40
1.0
 40
1.0
 40
1.0
 40
1.0
 10
7.1413249808
 20
4.6993422623
 30
0.0
 10
7.1413249807
 20
4.699341994
 30
0.0
 10
7.1413257257
 20
4.6993417142
 30
0.0
 10
7.1413263525
 20
4.6993409231
 30
0.0
 10
7.1413280057
 20
4.6993395185
 30
0.0
 10
7.1413306286
 20
4.6993370162
 30
0.0
 10
7.1413347679
 20
4.6993332554
 30
0.0
 10
7.1413400362
 20
4.6993284014
 30
0.0
 10
7.1413464949
 20
4.6993224804
 30
0.0
 10
7.141354121
 20
4.6993154828
 30
0.0
 10
7.1413666379
 20
4.6993040054
 30
0.0
 10
7.1413852168
 20
4.6992869744
 30
0.0
 10
7.1414110325
 20
4.699263319
 30
0.0
 10
7.1414415355
 20
4.6992353767
 30
0.0
 10
7.1414767283
 20
4.6992031747
 30
0.0
 10
7.1415166078
 20
4.6991667449
 30
0.0
 10
7.1415791045
 20
4.6991097707
 30
0.0
 10
7.1416688948
 20
4.6990282131
 30
0.0
 10
7.1417906994
 20
4.6989181702
 30
0.0
 10
7.1419311558
 20
4.6987920144
 30
0.0
 10
7.1420902302
 20
4.698650016
 30
0.0
 10
7.1422678579
 20
4.6984924593
 30
0.0
 10
7.1424640179
 20
4.6983197479
 30
0.0
 10
7.1427618504
 20
4.6980597014
 30
0.0
 10
7.1431798963
 20
4.6976998544
 30
0.0
 10
7.1437372917
 20
4.6972297841
 30
0.0
 10
7.1443674299
 20
4.6967102993
 30
0.0
 10
7.1450701332
 20
4.6961462326
 30
0.0
 10
7.1458449862
 20
4.6955424629
 30
0.0
 10
7.146691541
 20
4.6949039065
 30
0.0
 10
7.1476095097
 20
4.6942357369
 30
0.0
 10
7.1489655914
 20
4.6932863687
 30
0.0
 10
7.1508355113
 20
4.6920596221
 30
0.0
 10
7.1533050052
 20
4.6905915062
 30
0.0
 10
7.1560569188
 20
4.6891340984
 30
0.0
 10
7.1590913237
 20
4.687732663
 30
0.0
 10
7.1624082765
 20
4.6864330094
 30
0.0
 10
7.166008155
 20
4.6852837789
 30
0.0
 10
7.1698904582
 20
4.6843353193
 30
0.0
 10
7.1740529326
 20
4.6836426932
 30
0.0
 10
7.1769317519
 20
4.683396767
 30
0.0
 10
7.1784116615
 20
4.683331362
 30
0.0
  0
SPLINE
  5
44C
100
AcDbEntity
  8
0
100
AcDbSpline
 62
7
  6
CONTINUOUS
 70
0
 71
3
 72
39
 73
35
 74
0
 42
0.0000001
 43
0.0000001
 44
0.0000000001
 40
0.0
 40
0.0
 40
0.0
 40
0.0
 40
0.0000155618
 40
0.0000620686
 40
0.0001395244
 40
0.0002479297
 40
0.0005575892
 40
0.0009910472
 40
0.0015483032
 40
0.0022293568
 40
0.0030342071
 40
0.0039628538
 40
0.0061915334
 40
0.0089153904
 40
0.0121344198
 40
0.0158485736
 40
0.020057554
 40
0.0247609745
 40
0.0356496015
 40
0.0485114214
 40
0.0633434575
 40
0.0801427941
 40
0.0989065777
 40
0.1196320054
 40
0.1423153748
 40
0.1935351935
 40
0.2525261497
 40
0.3192517514
 40
0.3936759345
 40
0.4757575542
 40
0.5654618215
 40
0.6627627913
 40
0.767634661
 40
1.0
 40
1.0
 40
1.0
 40
1.0
 10
7.1413249702
 20
4.5817398591
 30
0.0
 10
7.1413249702
 20
4.58173991
 30
0.0
 10
7.141325291
 20
4.5817398489
 30
0.0
 10
7.141325625
 20
4.581740018
 30
0.0
 10
7.1413264411
 20
4.5817400897
 30
0.0
 10
7.1413280015
 20
4.5817403843
 30
0.0
 10
7.1413307822
 20
4.5817408079
 30
0.0
 10
7.1413349694
 20
4.5817414994
 30
0.0
 10
7.1413403768
 20
4.5817423666
 30
0.0
 10
7.1413469771
 20
4.5817434314
 30
0.0
 10
7.1413547805
 20
4.5817446854
 30
0.0
 10
7.1413675844
 20
4.5817467422
 30
0.0
 10
7.141386591
 20
4.5817497907
 30
0.0
 10
7.1414129999
 20
4.5817540218
 30
0.0
 10
7.1414442104
 20
4.5817590175
 30
0.0
 10
7.1414802213
 20
4.581764778
 30
0.0
 10
7.1415210325
 20
4.5817712879
 30
0.0
 10
7.1415850399
 20
4.5817814525
 30
0.0
 10
7.141677038
 20
4.5817959314
 30
0.0
 10
7.1418018279
 20
4.5818152863
 30
0.0
 10
7.1419457906
 20
4.5818372458
 30
0.0
 10
7.1421089161
 20
4.5818616795
 30
0.0
 10
7.1422911946
 20
4.5818884551
 30
0.0
 10
7.1424926118
 20
4.5819174487
 30
0.0
 10
7.1427993116
 20
4.5819606185
 30
0.0
 10
7.1432303847
 20
4.5820187296
 30
0.0
 10
7.1438049904
 20
4.5820909569
 30
0.0
 10
7.1444557305
 20
4.5821662265
 30
0.0
 10
7.1451824105
 20
4.5822423897
 30
0.0
 10
7.145984907
 20
4.5823161492
 30
0.0
 10
7.1468630283
 20
4.5823842928
 30
0.0
 10
7.1478165525
 20
4.5824436206
 30
0.0
 10
7.1492373715
 20
4.5825085627
 30
0.0
 10
7.1503413164
 20
4.5825287063
 30
0.0
 10
7.151101856
 20
4.5825287267
 30
0.0
  0
SPLINE
  5
44D
100
AcDbEntity
  8
0
100
AcDbSpline
 62
7
  6
CONTINUOUS
 70
0
 71
3
 72
22
 73
18
 74
0
 42
0.0000001
 43
0.0000001
 44
0.0000000001
 40
0.0
 40
0.0
 40
0.0
 40
0.0
 40
0.040679019
 40
0.0825051881
 40
0.1264821569
 40
0.1734133029
 40
0.2238526224
 40
0.2781284811
 40
0.3363714797
 40
0.3985494309
 40
0.4644981096
 40
0.5339466292
 40
0.6065378515
 40
0.6818450747
 40
0.7593882776
 40
0.8386395584
 40
1.0
 40
1.0
 40
1.0
 40
1.0
 10
7.715074959
 20
4.9297787267
 30
0.0
 10
7.7154032413
 20
4.9297787267
 30
0.0
 10
7.7160708063
 20
4.9297122125
 30
0.0
 10
7.7170535907
 20
4.9294165157
 30
0.0
 10
7.7180134026
 20
4.9289296351
 30
0.0
 10
7.7189408639
 20
4.9282586798
 30
0.0
 10
7.7198283203
 20
4.927411302
 30
0.0
 10
7.7206683652
 20
4.9263961296
 30
0.0
 10
7.7214538221
 20
4.9252228704
 30
0.0
 10
7.7221777291
 20
4.92390257
 30
0.0
 10
7.7228334866
 20
4.9224476345
 30
0.0
 10
7.723414991
 20
4.9208717859
 30
0.0
 10
7.723916756
 20
4.9191899464
 30
0.0
 10
7.7243340101
 20
4.9174181293
 30
0.0
 10
7.7246627749
 20
4.9155731587
 30
0.0
 10
7.7249807308
 20
4.9130246031
 30
0.0
 10
7.7250749591
 20
4.9110809158
 30
0.0
 10
7.7250749591
 20
4.9097787267
 30
0.0
  0
LINE
  5
44E
100
AcDbEntity
  8
0
100
AcDbLine
 62
7
  6
CONTINUOUS
 10
6.872147605
 20
7.0516537267
 11
6.872147605
 21
6.7160287267
  0
SPLINE
  5
44F
100
AcDbEntity
  8
0
100
AcDbSpline
 62
7
  6
CONTINUOUS
 70
0
 71
3
 72
19
 73
15
 74
0
 42
0.0000001
 43
0.0000001
 44
0.0000000001
 40
0.0
 40
0.0
 40
0.0
 40
0.0
 40
0.0484361083
 40
0.0975289569
 40
0.1478696524
 40
0.1999775437
 40
0.2542485929
 40
0.3109585916
 40
0.4320533294
 40
0.4965631708
 40
0.5635018125
 40
0.7036366035
 40
0.8501473017
 40
1.0
 40
1.0
 40
1.0
 40
1.0
 10
7.235074959
 20
3.1979582005
 30
0.0
 10
7.235074959
 20
3.1977475837
 30
0.0
 10
7.2351076388
 20
3.1973228002
 30
0.0
 10
7.2352536667
 20
3.1966942935
 30
0.0
 10
7.2354950807
 20
3.1960787599
 30
0.0
 10
7.2358289784
 20
3.1954824589
 30
0.0
 10
7.2362518228
 20
3.1949109243
 30
0.0
 10
7.23694314
 20
3.1941732667
 30
0.0
 10
7.2377844012
 20
3.1935256379
 30
0.0
 10
7.238734834
 20
3.1929740674
 30
0.0
 10
7.2398026903
 20
3.1924668266
 30
0.0
 10
7.2412644076
 20
3.1919711623
 30
0.0
 10
7.2431330791
 20
3.191611058
 30
0.0
 10
7.2444233479
 20
3.1915303244
 30
0.0
 10
7.245074959
 20
3.1915303244
 30
0.0
  0
SPLINE
  5
450
100
AcDbEntity
  8
0
100
AcDbSpline
 62
7
  6
CONTINUOUS
 70
0
 71
3
 72
19
 73
15
 74
0
 42
0.0000001
 43
0.0000001
 44
0.0000000001
 40
0.0
 40
0.0
 40
0.0
 40
0.0
 40
0.0484361083
 40
0.0975289569
 40
0.1478696524
 40
0.1999775437
 40
0.2542485929
 40
0.3109585916
 40
0.4320533294
 40
0.4965631708
 40
0.5635018125
 40
0.7036366036
 40
0.8501473017
 40
1.0
 40
1.0
 40
1.0
 40
1.0
 10
7.235074959
 20
3.0508211241
 30
0.0
 10
7.235074959
 20
3.0506105072
 30
0.0
 10
7.2351076388
 20
3.0501857238
 30
0.0
 10
7.2352536667
 20
3.0495572171
 30
0.0
 10
7.2354950807
 20
3.0489416834
 30
0.0
 10
7.2358289784
 20
3.0483453824
 30
0.0
 10
7.2362518228
 20
3.0477738479
 30
0.0
 10
7.23694314
 20
3.0470361903
 30
0.0
 10
7.2377844012
 20
3.0463885615
 30
0.0
 10
7.238734834
 20
3.0458369909
 30
0.0
 10
7.2398026903
 20
3.0453297502
 30
0.0
 10
7.2412644076
 20
3.0448340859
 30
0.0
 10
7.2431330791
 20
3.0444739815
 30
0.0
 10
7.2444233479
 20
3.044393248
 30
0.0
 10
7.245074959
 20
3.044393248
 30
0.0
  0
SPLINE
  5
451
100
AcDbEntity
  8
0
100
AcDbSpline
 62
7
  6
CONTINUOUS
 70
0
 71
3
 72
19
 73
15
 74
0
 42
0.0000001
 43
0.0000001
 44
0.0000000001
 40
0.0
 40
0.0
 40
0.0
 40
0.0
 40
0.0484361083
 40
0.0975289569
 40
0.1478696524
 40
0.1999775437
 40
0.2542485929
 40
0.3109585916
 40
0.4320533294
 40
0.4965631708
 40
0.5635018125
 40
0.7036366036
 40
0.8501473017
 40
1.0
 40
1.0
 40
1.0
 40
1.0
 10
7.610074959
 20
3.0508211241
 30
0.0
 10
7.610074959
 20
3.0506105072
 30
0.0
 10
7.6100422792
 20
3.0501857238
 30
0.0
 10
7.6098962512
 20
3.0495572171
 30
0.0
 10
7.6096548373
 20
3.0489416834
 30
0.0
 10
7.6093209396
 20
3.0483453824
 30
0.0
 10
7.6088980952
 20
3.0477738479
 30
0.0
 10
7.608206778
 20
3.0470361903
 30
0.0
 10
7.6073655167
 20
3.0463885615
 30
0.0
 10
7.606415084
 20
3.0458369909
 30
0.0
 10
7.6053472276
 20
3.0453297502
 30
0.0
 10
7.6038855103
 20
3.0448340859
 30
0.0
 10
7.6020168388
 20
3.0444739815
 30
0.0
 10
7.6007265701
 20
3.044393248
 30
0.0
 10
7.600074959
 20
3.044393248
 30
0.0
  0
SPLINE
  5
452
100
AcDbEntity
  8
0
100
AcDbSpline
 62
7
  6
CONTINUOUS
 70
0
 71
3
 72
19
 73
15
 74
0
 42
0.0000001
 43
0.0000001
 44
0.0000000001
 40
0.0
 40
0.0
 40
0.0
 40
0.0
 40
0.0484361083
 40
0.0975289569
 40
0.1478696524
 40
0.1999775437
 40
0.2542485929
 40
0.3109585916
 40
0.4320533294
 40
0.4965631708
 40
0.5635018125
 40
0.7036366036
 40
0.8501473017
 40
1.0
 40
1.0
 40
1.0
 40
1.0
 10
7.610074959
 20
3.1979582005
 30
0.0
 10
7.610074959
 20
3.1977475837
 30
0.0
 10
7.6100422792
 20
3.1973228002
 30
0.0
 10
7.6098962512
 20
3.1966942935
 30
0.0
 10
7.6096548373
 20
3.1960787599
 30
0.0
 10
7.6093209396
 20
3.1954824589
 30
0.0
 10
7.6088980952
 20
3.1949109243
 30
0.0
 10
7.608206778
 20
3.1941732667
 30
0.0
 10
7.6073655167
 20
3.1935256379
 30
0.0
 10
7.606415084
 20
3.1929740674
 30
0.0
 10
7.6053472276
 20
3.1924668266
 30
0.0
 10
7.6038855103
 20
3.1919711623
 30
0.0
 10
7.6020168388
 20
3.191611058
 30
0.0
 10
7.6007265701
 20
3.1915303244
 30
0.0
 10
7.600074959
 20
3.1915303244
 30
0.0
  0
LINE
  5
453
100
AcDbEntity
  8
0
100
AcDbLine
 62
7
  6
CONTINUOUS
 10
7.1297099803
 20
4.7422920521
 11
7.1285354481
 21
4.7425171573
  0
SPLINE
  5
454
100
AcDbEntity
  8
0
100
AcDbSpline
 62
7
  6
CONTINUOUS
 70
0
 71
3
 72
21
 73
17
 74
0
 42
0.0000001
 43
0.0000001
 44
0.0000000001
 40
0.0
 40
0.0
 40
0.0
 40
0.0
 40
0.0412909922
 40
0.084810267
 40
0.1311050747
 40
0.1805482475
 40
0.2333589517
 40
0.2896205789
 40
0.3493037173
 40
0.4122857435
 40
0.4783667435
 40
0.5472827188
 40
0.6187171956
 40
0.6923120138
 40
0.8443400425
 40
1.0
 40
1.0
 40
1.0
 40
1.0
 10
7.1285354481
 20
4.7425171573
 30
0.0
 10
7.1282378204
 20
4.7426098921
 30
0.0
 10
7.127641817
 20
4.7428525822
 30
0.0
 10
7.1267891681
 20
4.743361469
 30
0.0
 10
7.1259643051
 20
4.744017916
 30
0.0
 10
7.1251733379
 20
4.7448161696
 30
0.0
 10
7.1244216835
 20
4.7457498194
 30
0.0
 10
7.1237147338
 20
4.746811602
 30
0.0
 10
7.1230576593
 20
4.7479933621
 30
0.0
 10
7.1224553834
 20
4.7492860346
 30
0.0
 10
7.1219124908
 20
4.7506796815
 30
0.0
 10
7.1214331462
 20
4.7521635303
 30
0.0
 10
7.1210210211
 20
4.7537261162
 30
0.0
 10
7.1205606077
 20
4.7559219261
 30
0.0
 10
7.1201768776
 20
4.7587793066
 30
0.0
 10
7.120074959
 20
4.7611035195
 30
0.0
 10
7.120074959
 20
4.7622787267
 30
0.0
  0
SPLINE
  5
455
100
AcDbEntity
  8
0
100
AcDbSpline
 62
7
  6
CONTINUOUS
 70
0
 71
3
 72
35
 73
31
 74
0
 42
0.0000001
 43
0.0000001
 44
0.0000000001
 40
0.0
 40
0.0
 40
0.0
 40
0.0
 40
0.0573585057
 40
0.0863963455
 40
0.115651244
 40
0.1747680266
 40
0.2346352127
 40
0.2648308821
 40
0.2951924116
 40
0.3257146655
 40
0.3563931134
 40
0.3872239687
 40
0.4182040035
 40
0.4493305888
 40
0.480601519
 40
0.5120150723
 40
0.5435698063
 40
0.5752646607
 40
0.6070987245
 40
0.6390713471
 40
0.6711820098
 40
0.7034306829
 40
0.7358172846
 40
0.8010058728
 40
0.833809359
 40
0.8667547934
 40
0.8998446853
 40
0.9330810614
 40
0.9664652936
 40
1.0
 40
1.0
 40
1.0
 40
1.0
 10
7.1297099803
 20
4.7422920521
 30
0.0
 10
7.1353048414
 20
4.7423293371
 30
0.0
 10
7.1437314775
 20
4.7424938907
 30
0.0
 10
7.1550070731
 20
4.7428455007
 30
0.0
 10
7.1664520992
 20
4.7432639566
 30
0.0
 10
7.1808992107
 20
4.7438712886
 30
0.0
 10
7.1954371962
 20
4.7445004929
 30
0.0
 10
7.2071742709
 20
4.7449760543
 30
0.0
 10
7.2160523004
 20
4.7453093221
 30
0.0
 10
7.2249786427
 20
4.7456094602
 30
0.0
 10
7.2339521124
 20
4.7458674848
 30
0.0
 10
7.2429715318
 20
4.7460766494
 30
0.0
 10
7.2520357967
 20
4.7462303336
 30
0.0
 10
7.2611438106
 20
4.7463245881
 30
0.0
 10
7.2702945486
 20
4.7463560209
 30
0.0
 10
7.2794870483
 20
4.7463242983
 30
0.0
 10
7.288720465
 20
4.7462297697
 30
0.0
 10
7.2979940972
 20
4.7460758068
 30
0.0
 10
7.3073074049
 20
4.7458663976
 30
0.0
 10
7.3166600489
 20
4.7456081364
 30
0.0
 10
7.3260518883
 20
4.7453078034
 30
0.0
 10
7.335483007
 20
4.7449743776
 30
0.0
 10
7.3481375375
 20
4.7444961725
 30
0.0
 10
7.3608451783
 20
4.7439910074
 30
0.0
 10
7.3736080219
 20
4.7435024841
 30
0.0
 10
7.3832429687
 20
4.7431564189
 30
0.0
 10
7.3929213174
 20
4.7428437082
 30
0.0
 10
7.4026439527
 20
4.7425791141
 30
0.0
 10
7.4124116387
 20
4.7423828063
 30
0.0
 10
7.4189389186
 20
4.7423104823
 30
0.0
 10
7.4222099803
 20
4.7422920521
 30
0.0
  0
SPLINE
  5
456
100
AcDbEntity
  8
0
100
AcDbSpline
 62
7
  6
CONTINUOUS
 70
0
 71
3
 72
22
 73
18
 74
0
 42
0.0000001
 43
0.0000001
 44
0.0000000001
 40
0.0
 40
0.0
 40
0.0
 40
0.0
 40
0.0406231793
 40
0.0827193463
 40
0.1271759463
 40
0.1746818975
 40
0.2256960665
 40
0.2804760231
 40
0.3391047234
 40
0.4015216773
 40
0.4675497004
 40
0.5369169109
 40
0.6092744979
 40
0.6842113653
 40
0.7612686125
 40
0.8399439708
 40
1.0
 40
1.0
 40
1.0
 40
1.0
 10
7.4222099803
 20
4.7422920521
 30
0.0
 10
7.4218879385
 20
4.7423155754
 30
0.0
 10
7.4212353382
 20
4.7424275459
 30
0.0
 10
7.4202824645
 20
4.7427795565
 30
0.0
 10
7.4193542429
 20
4.7433118798
 30
0.0
 10
7.4184590277
 20
4.7440176941
 30
0.0
 10
7.4176038419
 20
4.7448897164
 30
0.0
 10
7.4167955832
 20
4.7459196648
 30
0.0
 10
7.4160409341
 20
4.7470982005
 30
0.0
 10
7.4153463448
 20
4.7484147376
 30
0.0
 10
7.4147178988
 20
4.7498574534
 30
0.0
 10
7.4141612007
 20
4.7514133433
 30
0.0
 10
7.4136812737
 20
4.7530683315
 30
0.0
 10
7.4132824784
 20
4.7548073692
 30
0.0
 10
7.4129684456
 20
4.7566146912
 30
0.0
 10
7.4126649523
 20
4.7591071033
 30
0.0
 10
7.412574959
 20
4.7610064958
 30
0.0
 10
7.412574959
 20
4.7622787267
 30
0.0
  0
SPLINE
  5
457
100
AcDbEntity
  8
0
100
AcDbSpline
 62
7
  6
CONTINUOUS
 70
0
 71
3
 72
22
 73
18
 74
0
 42
0.0000001
 43
0.0000001
 44
0.0000000001
 40
0.0
 40
0.0
 40
0.0
 40
0.0
 40
0.0406231793
 40
0.0827193462
 40
0.1271759463
 40
0.1746818975
 40
0.2256960665
 40
0.2804760231
 40
0.3391047234
 40
0.4015216773
 40
0.4675497003
 40
0.5369169109
 40
0.6092744978
 40
0.6842113652
 40
0.7612686125
 40
0.8399439708
 40
1.0
 40
1.0
 40
1.0
 40
1.0
 10
7.4229399376
 20
4.7422920521
 30
0.0
 10
7.4232619795
 20
4.7423155754
 30
0.0
 10
7.4239145798
 20
4.7424275459
 30
0.0
 10
7.4248674534
 20
4.7427795565
 30
0.0
 10
7.4257956751
 20
4.7433118798
 30
0.0
 10
7.4266908903
 20
4.7440176941
 30
0.0
 10
7.4275460761
 20
4.7448897164
 30
0.0
 10
7.4283543348
 20
4.7459196648
 30
0.0
 10
7.4291089838
 20
4.7470982005
 30
0.0
 10
7.4298035732
 20
4.7484147376
 30
0.0
 10
7.4304320192
 20
4.7498574534
 30
0.0
 10
7.4309887173
 20
4.7514133433
 30
0.0
 10
7.4314686443
 20
4.7530683315
 30
0.0
 10
7.4318674395
 20
4.7548073692
 30
0.0
 10
7.4321814724
 20
4.7566146912
 30
0.0
 10
7.4324849656
 20
4.7591071033
 30
0.0
 10
7.432574959
 20
4.7610064958
 30
0.0
 10
7.432574959
 20
4.7622787267
 30
0.0
  0
SPLINE
  5
458
100
AcDbEntity
  8
0
100
AcDbSpline
 62
7
  6
CONTINUOUS
 70
0
 71
3
 72
35
 73
31
 74
0
 42
0.0000001
 43
0.0000001
 44
0.0000000001
 40
0.0
 40
0.0
 40
0.0
 40
0.0
 40
0.0335346499
 40
0.0669188994
 40
0.100155321
 40
0.1332452421
 40
0.1661906767
 40
0.1989941511
 40
0.2641827415
 40
0.2965693516
 40
0.3288180281
 40
0.3609286923
 40
0.3929013178
 40
0.4247353877
 40
0.4564302448
 40
0.48798498
 40
0.5193985346
 40
0.5506694683
 40
0.5817960577
 40
0.6127760873
 40
0.6436069275
 40
0.6742853717
 40
0.7048076434
 40
0.7351691845
 40
0.7653648393
 40
0.825231997
 40
0.8843488295
 40
0.913603716
 40
0.9426415543
 40
1.0
 40
1.0
 40
1.0
 40
1.0
 10
7.4229399376
 20
4.7422920521
 30
0.0
 10
7.4262109938
 20
4.7423104811
 30
0.0
 10
7.43273827
 20
4.7423828022
 30
0.0
 10
7.4425059566
 20
4.7425791069
 30
0.0
 10
7.4522286008
 20
4.7428437031
 30
0.0
 10
7.4619069566
 20
4.7431564221
 30
0.0
 10
7.4715419052
 20
4.7435024827
 30
0.0
 10
7.4843047481
 20
4.7439910019
 30
0.0
 10
7.4970123887
 20
4.7444961683
 30
0.0
 10
7.5096669204
 20
4.7449743766
 30
0.0
 10
7.5190980405
 20
4.7453078023
 30
0.0
 10
7.5284898806
 20
4.7456081334
 30
0.0
 10
7.5378425256
 20
4.7458663985
 30
0.0
 10
7.5471558344
 20
4.7460758071
 30
0.0
 10
7.5564294675
 20
4.7462297733
 30
0.0
 10
7.5656628848
 20
4.7463242997
 30
0.0
 10
7.574855385
 20
4.7463560233
 30
0.0
 10
7.5840061239
 20
4.746324592
 30
0.0
 10
7.593114138
 20
4.7462303377
 30
0.0
 10
7.6021784013
 20
4.746076654
 30
0.0
 10
7.6111978181
 20
4.7458674788
 30
0.0
 10
7.6201712876
 20
4.7456094532
 30
0.0
 10
7.6290976326
 20
4.7453093202
 30
0.0
 10
7.6379756638
 20
4.7449760592
 30
0.0
 10
7.6497127354
 20
4.7445004955
 30
0.0
 10
7.664250721
 20
4.7438712804
 30
0.0
 10
7.6786978329
 20
4.7432639316
 30
0.0
 10
7.6901428644
 20
4.7428455273
 30
0.0
 10
7.7014184528
 20
4.7424939234
 30
0.0
 10
7.7098450824
 20
4.7423293388
 30
0.0
 10
7.7154399376
 20
4.7422920521
 30
0.0
  0
LINE
  5
459
100
AcDbEntity
  8
0
100
AcDbLine
 62
7
  6
CONTINUOUS
 10
7.7154399376
 20
4.7422920521
 11
7.7166144699
 21
4.7425171573
  0
SPLINE
  5
45A
100
AcDbEntity
  8
0
100
AcDbSpline
 62
7
  6
CONTINUOUS
 70
0
 71
3
 72
21
 73
17
 74
0
 42
0.0000001
 43
0.0000001
 44
0.0000000001
 40
0.0
 40
0.0
 40
0.0
 40
0.0
 40
0.0412909923
 40
0.0848102672
 40
0.131105075
 40
0.180548248
 40
0.2333589523
 40
0.2896205795
 40
0.349303718
 40
0.4122857442
 40
0.4783667442
 40
0.5472827195
 40
0.6187171962
 40
0.6923120143
 40
0.8443400427
 40
1.0
 40
1.0
 40
1.0
 40
1.0
 10
7.7166144699
 20
4.7425171573
 30
0.0
 10
7.7169120976
 20
4.7426098921
 30
0.0
 10
7.7175081011
 20
4.7428525823
 30
0.0
 10
7.7183607499
 20
4.743361469
 30
0.0
 10
7.7191856129
 20
4.7440179161
 30
0.0
 10
7.7199765801
 20
4.7448161696
 30
0.0
 10
7.7207282345
 20
4.7457498195
 30
0.0
 10
7.7214351842
 20
4.7468116021
 30
0.0
 10
7.7220922587
 20
4.7479933621
 30
0.0
 10
7.7226945346
 20
4.7492860347
 30
0.0
 10
7.7232374272
 20
4.7506796815
 30
0.0
 10
7.7237167717
 20
4.7521635303
 30
0.0
 10
7.7241288969
 20
4.7537261162
 30
0.0
 10
7.7245893102
 20
4.7559219261
 30
0.0
 10
7.7249730404
 20
4.7587793066
 30
0.0
 10
7.725074959
 20
4.7611035195
 30
0.0
 10
7.725074959
 20
4.7622787267
 30
0.0
  0
SPLINE
  5
45B
100
AcDbEntity
  8
0
100
AcDbSpline
 62
7
  6
CONTINUOUS
 70
0
 71
3
 72
49
 73
45
 74
0
 42
0.0000001
 43
0.0000001
 44
0.0000000001
 40
0.0
 40
0.0
 40
0.0
 40
0.0
 40
0.106166195
 40
0.1571065771
 40
0.20668337
 40
0.3019138684
 40
0.3921389705
 40
0.4774870192
 40
0.5579354843
 40
0.6333121926
 40
0.7033163243
 40
0.7361799309
 40
0.7675314631
 40
0.7972986991
 40
0.8254039119
 40
0.8517613959
 40
0.8762755085
 40
0.8988457289
 40
0.919369601
 40
0.9377548432
 40
0.9461177931
 40
0.9539125751
 40
0.9611277929
 40
0.967753413
 40
0.9737821486
 40
0.9792069919
 40
0.984020898
 40
0.9882167853
 40
0.9917875332
 40
0.9933362034
 40
0.994725801
 40
0.9959553652
 40
0.9970239319
 40
0.9979305336
 40
0.9986741997
 40
0.9989846278
 40
0.9992539565
 40
0.9994820637
 40
0.9996688271
 40
0.9998141241
 40
0.9999178323
 40
0.9999540524
 40
0.9999798297
 40
1.0
 40
1.0
 40
1.0
 40
1.0
 10
7.693856924
 20
2.4457787267
 30
0.0
 10
7.6955013114
 20
2.4457788292
 30
0.0
 10
7.697936784
 20
2.4458924031
 30
0.0
 10
7.7011171208
 20
2.4462646038
 30
0.0
 10
7.7041106358
 20
2.4467511578
 30
0.0
 10
7.7076639016
 20
2.447563102
 30
0.0
 10
7.7116700468
 20
2.4488190998
 30
0.0
 10
7.7153584564
 20
2.4502846355
 30
0.0
 10
7.7187294402
 20
2.4519002992
 30
0.0
 10
7.72178477
 20
2.4536073637
 30
0.0
 10
7.7241153739
 20
2.4550900566
 30
0.0
 10
7.7258240734
 20
2.4562744883
 30
0.0
 10
7.7269999205
 20
2.457132856
 30
0.0
 10
7.7280971137
 20
2.4579732901
 30
0.0
 10
7.7291154487
 20
2.4587889373
 30
0.0
 10
7.7300546294
 20
2.4595728267
 30
0.0
 10
7.7309143363
 20
2.4603178129
 30
0.0
 10
7.7316941533
 20
2.4610167694
 30
0.0
 10
7.7323939424
 20
2.4616626141
 30
0.0
 10
7.7329253967
 20
2.4621662868
 30
0.0
 10
7.7333103183
 20
2.4625378973
 30
0.0
 10
7.7335693685
 20
2.4627907848
 30
0.0
 10
7.7338079767
 20
2.4630260837
 30
0.0
 10
7.7340261128
 20
2.4632431805
 30
0.0
 10
7.7342236752
 20
2.463441634
 30
0.0
 10
7.7344006106
 20
2.4636210221
 30
0.0
 10
7.7345568658
 20
2.4637809302
 30
0.0
 10
7.7346923895
 20
2.4639209412
 30
0.0
 10
7.7347922314
 20
2.4640251014
 30
0.0
 10
7.7348617068
 20
2.4640981578
 30
0.0
 10
7.7349060775
 20
2.4641450466
 30
0.0
 10
7.7349452363
 20
2.4641866293
 30
0.0
 10
7.7349791806
 20
2.464222846
 30
0.0
 10
7.7350079082
 20
2.4642536381
 30
0.0
 10
7.7350285762
 20
2.4642758872
 30
0.0
 10
7.7350425043
 20
2.4642909294
 30
0.0
 10
7.7350509958
 20
2.4643001138
 30
0.0
 10
7.7350581885
 20
2.4643079145
 30
0.0
 10
7.7350640537
 20
2.4643142581
 30
0.0
 10
7.735068667
 20
2.4643193137
 30
0.0
 10
7.7350715801
 20
2.4643223708
 30
0.0
 10
7.7350734338
 20
2.4643245095
 30
0.0
 10
7.7350741107
 20
2.4643249971
 30
0.0
 10
7.735074961
 20
2.4643263566
 30
0.0
 10
7.735074959
 20
2.4643260442
 30
0.0
  0
SPLINE
  5
45C
100
AcDbEntity
  8
0
100
AcDbSpline
 62
7
  6
CONTINUOUS
 70
0
 71
3
 72
27
 73
23
 74
0
 42
0.0000001
 43
0.0000001
 44
0.0000000001
 40
0.0
 40
0.0
 40
0.0
 40
0.0
 40
0.061390773
 40
0.0921098463
 40
0.1228436072
 40
0.1843615695
 40
0.2460014416
 40
0.276887517
 40
0.3078159932
 40
0.3697929905
 40
0.4319715178
 40
0.4943632684
 40
0.556971674
 40
0.6197918484
 40
0.6828108462
 40
0.7143979165
 40
0.746026469
 40
0.8093751433
 40
0.8728427304
 40
0.9046175021
 40
0.9364091393
 40
1.0
 40
1.0
 40
1.0
 40
1.0
 10
7.7509970862
 20
4.5235287267
 30
0.0
 10
7.7491340081
 20
4.5235287267
 30
0.0
 10
7.7463359497
 20
4.5236711939
 30
0.0
 10
7.7426368662
 20
4.5241439958
 30
0.0
 10
7.7389623981
 20
4.5248045457
 30
0.0
 10
7.7344337268
 20
4.5259800644
 30
0.0
 10
7.7300426289
 20
4.5276085112
 30
0.0
 10
7.7266367282
 20
4.5291728007
 30
0.0
 10
7.7233044874
 20
4.5309106145
 30
0.0
 10
7.7192992983
 20
4.5333984683
 30
0.0
 10
7.7148035401
 20
4.5368540878
 30
0.0
 10
7.7106564265
 20
4.5407494862
 30
0.0
 10
7.7068981091
 20
4.5450469879
 30
0.0
 10
7.7035647376
 20
4.5497048917
 30
0.0
 10
7.701168894
 20
4.5538475879
 30
0.0
 10
7.6994943289
 20
4.5572945658
 30
0.0
 10
7.6979829894
 20
4.560827093
 30
0.0
 10
7.6964111142
 20
4.5653796115
 30
0.0
 10
7.6952786877
 20
4.5700652929
 30
0.0
 10
7.6946417362
 20
4.5738688602
 30
0.0
 10
7.6941853942
 20
4.5777017695
 30
0.0
 10
7.6940480616
 20
4.5805988807
 30
0.0
 10
7.6940480619
 20
4.5825287267
 30
0.0
  0
LINE
  5
45D
100
AcDbEntity
  8
0
100
AcDbLine
 62
7
  6
CONTINUOUS
 10
7.4192638761
 20
2.7689866703
 11
7.419119505
 21
2.7616828663
  0
LINE
  5
45E
100
AcDbEntity
  8
0
100
AcDbLine
 62
7
  6
CONTINUOUS
 10
7.4258860419
 20
2.7689866703
 11
7.426030413
 21
2.7616828663
  0
SPLINE
  5
45F
100
AcDbEntity
  8
0
100
AcDbSpline
 62
7
  6
CONTINUOUS
 70
0
 71
3
 72
20
 73
16
 74
0
 42
0.0000001
 43
0.0000001
 44
0.0000000001
 40
0.0
 40
0.0
 40
0.0
 40
0.0
 40
0.0327359298
 40
0.0686367897
 40
0.108708499
 40
0.1535587879
 40
0.2034482424
 40
0.2583916062
 40
0.3182243505
 40
0.382641922
 40
0.4512334016
 40
0.5235056957
 40
0.6767640986
 40
0.8374197369
 40
1.0
 40
1.0
 40
1.0
 40
1.0
 10
7.431188887
 20
2.7736457722
 30
0.0
 10
7.431202833
 20
2.7735798791
 30
0.0
 10
7.4312504163
 20
2.7734452447
 30
0.0
 10
7.4313695061
 20
2.77325437
 30
0.0
 10
7.4315364449
 20
2.7730687975
 30
0.0
 10
7.4317492571
 20
2.7728898273
 30
0.0
 10
7.4320059333
 20
2.7727187214
 30
0.0
 10
7.4323040607
 20
2.7725569806
 30
0.0
 10
7.4326407954
 20
2.7724061237
 30
0.0
 10
7.4330128575
 20
2.7722676292
 30
0.0
 10
7.4334165797
 20
2.7721428614
 30
0.0
 10
7.4340032478
 20
2.7719936263
 30
0.0
 10
7.4347861603
 20
2.771851776
 30
0.0
 10
7.4357625419
 20
2.771754319
 30
0.0
 10
7.4364281648
 20
2.7717383736
 30
0.0
 10
7.4367626305
 20
2.7717432718
 30
0.0
  0
SPLINE
  5
460
100
AcDbEntity
  8
0
100
AcDbSpline
 62
7
  6
CONTINUOUS
 70
0
 71
3
 72
20
 73
16
 74
0
 42
0.0000001
 43
0.0000001
 44
0.0000000001
 40
0.0
 40
0.0
 40
0.0
 40
0.0
 40
0.0073874837
 40
0.0163894762
 40
0.0271906247
 40
0.039884917
 40
0.0710772428
 40
0.1100140068
 40
0.1564680915
 40
0.2100660568
 40
0.3366879227
 40
0.4851041353
 40
0.6495238759
 40
0.8234487208
 40
1.0
 40
1.0
 40
1.0
 40
1.0
 10
7.4318635099
 20
2.8030092023
 30
0.0
 10
7.4318714945
 20
2.8029977045
 30
0.0
 10
7.4318929303
 20
2.8029747998
 30
0.0
 10
7.4319343092
 20
2.8029438778
 30
0.0
 10
7.4319877879
 20
2.8029131177
 30
0.0
 10
7.4320818331
 20
2.8028693939
 30
0.0
 10
7.4322302722
 20
2.8028174893
 30
0.0
 10
7.4324436781
 20
2.8027600652
 30
0.0
 10
7.4327012825
 20
2.8027048031
 30
0.0
 10
7.4331244249
 20
2.8026306767
 30
0.0
 10
7.4337423329
 20
2.8025511002
 30
0.0
 10
7.4345718349
 20
2.8024765897
 30
0.0
 10
7.4354927208
 20
2.8024223298
 30
0.0
 10
7.4364679617
 20
2.8023906138
 30
0.0
 10
7.4371321303
 20
2.8023854146
 30
0.0
 10
7.4374666685
 20
2.8023870172
 30
0.0
  0
SPLINE
  5
461
100
AcDbEntity
  8
0
100
AcDbSpline
 62
7
  6
CONTINUOUS
 70
0
 71
3
 72
20
 73
16
 74
0
 42
0.0000001
 43
0.0000001
 44
0.0000000001
 40
0.0
 40
0.0
 40
0.0
 40
0.0
 40
0.0073874841
 40
0.0163894773
 40
0.0271906262
 40
0.0398849184
 40
0.0710772434
 40
0.1100140069
 40
0.1564680911
 40
0.2100660561
 40
0.3366879221
 40
0.4851041345
 40
0.6495238752
 40
0.8234487205
 40
1.0
 40
1.0
 40
1.0
 40
1.0
 10
7.4368444834
 20
2.8079901758
 30
0.0
 10
7.4368559812
 20
2.8079821912
 30
0.0
 10
7.4368788859
 20
2.8079607554
 30
0.0
 10
7.4369098079
 20
2.8079193765
 30
0.0
 10
7.436940568
 20
2.8078658978
 30
0.0
 10
7.4369842918
 20
2.8077718525
 30
0.0
 10
7.4370361964
 20
2.8076234135
 30
0.0
 10
7.4370936205
 20
2.8074100076
 30
0.0
 10
7.4371488826
 20
2.8071524032
 30
0.0
 10
7.437223009
 20
2.8067292608
 30
0.0
 10
7.4373025855
 20
2.8061113528
 30
0.0
 10
7.4373770959
 20
2.8052818508
 30
0.0
 10
7.4374313559
 20
2.8043609649
 30
0.0
 10
7.4374630719
 20
2.803385724
 30
0.0
 10
7.4374682711
 20
2.8027215553
 30
0.0
 10
7.4374666685
 20
2.8023870172
 30
0.0
  0
SPLINE
  5
462
100
AcDbEntity
  8
0
100
AcDbSpline
 62
7
  6
CONTINUOUS
 70
0
 71
3
 72
20
 73
16
 74
0
 42
0.0000001
 43
0.0000001
 44
0.0000000001
 40
0.0
 40
0.0
 40
0.0
 40
0.0
 40
0.0327359345
 40
0.0686367974
 40
0.1087085086
 40
0.1535587986
 40
0.2034482537
 40
0.2583916175
 40
0.3182243613
 40
0.3826419319
 40
0.4512334104
 40
0.5235057033
 40
0.6767641034
 40
0.837419739
 40
1.0
 40
1.0
 40
1.0
 40
1.0
 10
7.4662079135
 20
2.8086647987
 30
0.0
 10
7.4662738066
 20
2.8086508527
 30
0.0
 10
7.466408441
 20
2.8086032694
 30
0.0
 10
7.4665993157
 20
2.8084841796
 30
0.0
 10
7.4667848882
 20
2.8083172408
 30
0.0
 10
7.4669638584
 20
2.8081044286
 30
0.0
 10
7.4671349644
 20
2.8078477524
 30
0.0
 10
7.4672967052
 20
2.807549625
 30
0.0
 10
7.4674475621
 20
2.8072128903
 30
0.0
 10
7.4675860567
 20
2.8068408282
 30
0.0
 10
7.4677108244
 20
2.806437106
 30
0.0
 10
7.4678600595
 20
2.8058504379
 30
0.0
 10
7.4680019098
 20
2.8050675254
 30
0.0
 10
7.4680993668
 20
2.8040911438
 30
0.0
 10
7.4681153121
 20
2.8034255209
 30
0.0
 10
7.4681104139
 20
2.8030910552
 30
0.0
  0
LINE
  5
463
100
AcDbEntity
  8
0
100
AcDbLine
 62
7
  6
CONTINUOUS
 10
7.4708670154
 20
2.8139676438
 11
7.4781708194
 21
2.8138232727
  0
LINE
  5
464
100
AcDbEntity
  8
0
100
AcDbLine
 62
7
  6
CONTINUOUS
 10
7.4708670154
 20
2.8205898096
 11
7.4781708194
 21
2.8207341807
  0
SPLINE
  5
465
100
AcDbEntity
  8
0
100
AcDbSpline
 62
7
  6
CONTINUOUS
 70
0
 71
3
 72
20
 73
16
 74
0
 42
0.0000001
 43
0.0000001
 44
0.0000000001
 40
0.0
 40
0.0
 40
0.0
 40
0.0
 40
0.0327359298
 40
0.0686367897
 40
0.108708499
 40
0.1535587879
 40
0.2034482424
 40
0.2583916062
 40
0.3182243505
 40
0.382641922
 40
0.4512334016
 40
0.5235056957
 40
0.6767640986
 40
0.8374197369
 40
1.0
 40
1.0
 40
1.0
 40
1.0
 10
7.4662079135
 20
2.8258926547
 30
0.0
 10
7.4662738066
 20
2.8259066007
 30
0.0
 10
7.466408441
 20
2.825954184
 30
0.0
 10
7.4665993157
 20
2.8260732738
 30
0.0
 10
7.4667848881
 20
2.8262402126
 30
0.0
 10
7.4669638583
 20
2.8264530248
 30
0.0
 10
7.4671349643
 20
2.826709701
 30
0.0
 10
7.467296705
 20
2.8270078284
 30
0.0
 10
7.467447562
 20
2.8273445631
 30
0.0
 10
7.4675860565
 20
2.8277166252
 30
0.0
 10
7.4677108243
 20
2.8281203474
 30
0.0
 10
7.4678600594
 20
2.8287070155
 30
0.0
 10
7.4680019097
 20
2.8294899281
 30
0.0
 10
7.4680993667
 20
2.8304663096
 30
0.0
 10
7.4681153121
 20
2.8311319325
 30
0.0
 10
7.4681104139
 20
2.8314663982
 30
0.0
  0
SPLINE
  5
466
100
AcDbEntity
  8
0
100
AcDbSpline
 62
7
  6
CONTINUOUS
 70
0
 71
3
 72
20
 73
16
 74
0
 42
0.0000001
 43
0.0000001
 44
0.0000000001
 40
0.0
 40
0.0
 40
0.0
 40
0.0
 40
0.0073874837
 40
0.0163894762
 40
0.0271906247
 40
0.039884917
 40
0.0710772428
 40
0.1100140068
 40
0.1564680915
 40
0.2100660568
 40
0.3366879227
 40
0.4851041353
 40
0.6495238759
 40
0.8234487208
 40
1.0
 40
1.0
 40
1.0
 40
1.0
 10
7.4368444834
 20
2.8265672776
 30
0.0
 10
7.4368559812
 20
2.8265752622
 30
0.0
 10
7.4368788859
 20
2.826596698
 30
0.0
 10
7.4369098079
 20
2.8266380769
 30
0.0
 10
7.436940568
 20
2.8266915557
 30
0.0
 10
7.4369842918
 20
2.8267856009
 30
0.0
 10
7.4370361964
 20
2.8269340399
 30
0.0
 10
7.4370936205
 20
2.8271474459
 30
0.0
 10
7.4371488826
 20
2.8274050503
 30
0.0
 10
7.437223009
 20
2.8278281926
 30
0.0
 10
7.4373025855
 20
2.8284461007
 30
0.0
 10
7.4373770959
 20
2.8292756026
 30
0.0
 10
7.4374313559
 20
2.8301964885
 30
0.0
 10
7.4374630719
 20
2.8311717295
 30
0.0
 10
7.4374682711
 20
2.8318358981
 30
0.0
 10
7.4374666685
 20
2.8321704363
 30
0.0
  0
SPLINE
  5
467
100
AcDbEntity
  8
0
100
AcDbSpline
 62
7
  6
CONTINUOUS
 70
0
 71
3
 72
20
 73
16
 74
0
 42
0.0000001
 43
0.0000001
 44
0.0000000001
 40
0.0
 40
0.0
 40
0.0
 40
0.0
 40
0.0073874841
 40
0.0163894773
 40
0.0271906262
 40
0.0398849184
 40
0.0710772434
 40
0.1100140069
 40
0.1564680911
 40
0.2100660561
 40
0.3366879221
 40
0.4851041345
 40
0.6495238752
 40
0.8234487205
 40
1.0
 40
1.0
 40
1.0
 40
1.0
 10
7.4318635099
 20
2.8315482511
 30
0.0
 10
7.4318714945
 20
2.8315597489
 30
0.0
 10
7.4318929303
 20
2.8315826536
 30
0.0
 10
7.4319343092
 20
2.8316135756
 30
0.0
 10
7.4319877879
 20
2.8316443357
 30
0.0
 10
7.4320818331
 20
2.8316880595
 30
0.0
 10
7.4322302721
 20
2.8317399641
 30
0.0
 10
7.4324436781
 20
2.8317973882
 30
0.0
 10
7.4327012825
 20
2.8318526503
 30
0.0
 10
7.4331244249
 20
2.8319267768
 30
0.0
 10
7.4337423329
 20
2.8320063532
 30
0.0
 10
7.4345718348
 20
2.8320808637
 30
0.0
 10
7.4354927207
 20
2.8321351237
 30
0.0
 10
7.4364679617
 20
2.8321668396
 30
0.0
 10
7.4371321303
 20
2.8321720389
 30
0.0
 10
7.4374666685
 20
2.8321704363
 30
0.0
  0
SPLINE
  5
468
100
AcDbEntity
  8
0
100
AcDbSpline
 62
7
  6
CONTINUOUS
 70
0
 71
3
 72
20
 73
16
 74
0
 42
0.0000001
 43
0.0000001
 44
0.0000000001
 40
0.0
 40
0.0
 40
0.0
 40
0.0
 40
0.0327359345
 40
0.0686367974
 40
0.1087085086
 40
0.1535587986
 40
0.2034482537
 40
0.2583916174
 40
0.3182243612
 40
0.3826419319
 40
0.4512334104
 40
0.5235057033
 40
0.6767641034
 40
0.837419739
 40
1.0
 40
1.0
 40
1.0
 40
1.0
 10
7.431188887
 20
2.8609116812
 30
0.0
 10
7.431202833
 20
2.8609775743
 30
0.0
 10
7.4312504163
 20
2.8611122088
 30
0.0
 10
7.4313695061
 20
2.8613030835
 30
0.0
 10
7.4315364449
 20
2.861488656
 30
0.0
 10
7.431749257
 20
2.8616676262
 30
0.0
 10
7.4320059333
 20
2.8618387321
 30
0.0
 10
7.4323040607
 20
2.8620004729
 30
0.0
 10
7.4326407954
 20
2.8621513299
 30
0.0
 10
7.4330128575
 20
2.8622898244
 30
0.0
 10
7.4334165797
 20
2.8624145922
 30
0.0
 10
7.4340032478
 20
2.8625638272
 30
0.0
 10
7.4347861603
 20
2.8627056775
 30
0.0
 10
7.4357625418
 20
2.8628031345
 30
0.0
 10
7.4364281648
 20
2.8628190798
 30
0.0
 10
7.4367626304
 20
2.8628141816
 30
0.0
  0
LINE
  5
469
100
AcDbEntity
  8
0
100
AcDbLine
 62
7
  6
CONTINUOUS
 10
7.4258860419
 20
2.8655707831
 11
7.426030413
 21
2.8728745871
  0
LINE
  5
46A
100
AcDbEntity
  8
0
100
AcDbLine
 62
7
  6
CONTINUOUS
 10
7.4192638761
 20
2.8655707831
 11
7.4191195049
 21
2.8728745871
  0
SPLINE
  5
46B
100
AcDbEntity
  8
0
100
AcDbSpline
 62
7
  6
CONTINUOUS
 70
0
 71
3
 72
20
 73
16
 74
0
 42
0.0000001
 43
0.0000001
 44
0.0000000001
 40
0.0
 40
0.0
 40
0.0
 40
0.0
 40
0.0327359298
 40
0.0686367897
 40
0.108708499
 40
0.1535587879
 40
0.2034482424
 40
0.2583916062
 40
0.3182243505
 40
0.382641922
 40
0.4512334016
 40
0.5235056957
 40
0.6767640986
 40
0.8374197369
 40
1.0
 40
1.0
 40
1.0
 40
1.0
 10
7.413961031
 20
2.8609116812
 30
0.0
 10
7.413947085
 20
2.8609775743
 30
0.0
 10
7.4138995017
 20
2.8611122087
 30
0.0
 10
7.4137804119
 20
2.8613030834
 30
0.0
 10
7.4136134731
 20
2.8614886559
 30
0.0
 10
7.4134006609
 20
2.8616676261
 30
0.0
 10
7.4131439847
 20
2.861838732
 30
0.0
 10
7.4128458573
 20
2.8620004728
 30
0.0
 10
7.4125091226
 20
2.8621513297
 30
0.0
 10
7.4121370605
 20
2.8622898243
 30
0.0
 10
7.4117333383
 20
2.862414592
 30
0.0
 10
7.4111466702
 20
2.8625638271
 30
0.0
 10
7.4103637576
 20
2.8627056774
 30
0.0
 10
7.4093873761
 20
2.8628031345
 30
0.0
 10
7.4087217532
 20
2.8628190798
 30
0.0
 10
7.4083872875
 20
2.8628141816
 30
0.0
  0
SPLINE
  5
46C
100
AcDbEntity
  8
0
100
AcDbSpline
 62
7
  6
CONTINUOUS
 70
0
 71
3
 72
20
 73
16
 74
0
 42
0.0000001
 43
0.0000001
 44
0.0000000001
 40
0.0
 40
0.0
 40
0.0
 40
0.0
 40
0.0073874837
 40
0.0163894762
 40
0.0271906247
 40
0.039884917
 40
0.0710772428
 40
0.1100140068
 40
0.1564680915
 40
0.2100660568
 40
0.3366879227
 40
0.4851041353
 40
0.6495238759
 40
0.8234487208
 40
1.0
 40
1.0
 40
1.0
 40
1.0
 10
7.4132864081
 20
2.8315482511
 30
0.0
 10
7.4132784235
 20
2.831559749
 30
0.0
 10
7.4132569877
 20
2.8315826536
 30
0.0
 10
7.4132156088
 20
2.8316135756
 30
0.0
 10
7.41316213
 20
2.8316443357
 30
0.0
 10
7.4130680848
 20
2.8316880595
 30
0.0
 10
7.4129196458
 20
2.8317399641
 30
0.0
 10
7.4127062398
 20
2.8317973882
 30
0.0
 10
7.4124486354
 20
2.8318526503
 30
0.0
 10
7.412025493
 20
2.8319267768
 30
0.0
 10
7.411407585
 20
2.8320063532
 30
0.0
 10
7.4105780831
 20
2.8320808637
 30
0.0
 10
7.4096571972
 20
2.8321351237
 30
0.0
 10
7.4086819562
 20
2.8321668396
 30
0.0
 10
7.4080177876
 20
2.8321720389
 30
0.0
 10
7.4076832494
 20
2.8321704363
 30
0.0
  0
SPLINE
  5
46D
100
AcDbEntity
  8
0
100
AcDbSpline
 62
7
  6
CONTINUOUS
 70
0
 71
3
 72
20
 73
16
 74
0
 42
0.0000001
 43
0.0000001
 44
0.0000000001
 40
0.0
 40
0.0
 40
0.0
 40
0.0
 40
0.0073874841
 40
0.0163894773
 40
0.0271906262
 40
0.0398849184
 40
0.0710772434
 40
0.1100140069
 40
0.1564680911
 40
0.2100660561
 40
0.3366879221
 40
0.4851041345
 40
0.6495238752
 40
0.8234487205
 40
1.0
 40
1.0
 40
1.0
 40
1.0
 10
7.4083054346
 20
2.8265672776
 30
0.0
 10
7.4082939367
 20
2.8265752622
 30
0.0
 10
7.4082710321
 20
2.826596698
 30
0.0
 10
7.4082401101
 20
2.8266380769
 30
0.0
 10
7.40820935
 20
2.8266915556
 30
0.0
 10
7.4081656262
 20
2.8267856009
 30
0.0
 10
7.4081137215
 20
2.8269340399
 30
0.0
 10
7.4080562975
 20
2.8271474459
 30
0.0
 10
7.4080010353
 20
2.8274050503
 30
0.0
 10
7.4079269089
 20
2.8278281926
 30
0.0
 10
7.4078473325
 20
2.8284461007
 30
0.0
 10
7.407772822
 20
2.8292756026
 30
0.0
 10
7.407718562
 20
2.8301964885
 30
0.0
 10
7.407686846
 20
2.8311717295
 30
0.0
 10
7.4076816468
 20
2.8318358981
 30
0.0
 10
7.4076832494
 20
2.8321704363
 30
0.0
  0
SPLINE
  5
46E
100
AcDbEntity
  8
0
100
AcDbSpline
 62
7
  6
CONTINUOUS
 70
0
 71
3
 72
20
 73
16
 74
0
 42
0.0000001
 43
0.0000001
 44
0.0000000001
 40
0.0
 40
0.0
 40
0.0
 40
0.0
 40
0.0327359345
 40
0.0686367974
 40
0.1087085086
 40
0.1535587986
 40
0.2034482537
 40
0.2583916175
 40
0.3182243613
 40
0.3826419319
 40
0.4512334104
 40
0.5235057033
 40
0.6767641034
 40
0.837419739
 40
1.0
 40
1.0
 40
1.0
 40
1.0
 10
7.3789420044
 20
2.8258926547
 30
0.0
 10
7.3788761114
 20
2.8259066007
 30
0.0
 10
7.3787414769
 20
2.825954184
 30
0.0
 10
7.3785506022
 20
2.8260732738
 30
0.0
 10
7.3783650297
 20
2.8262402126
 30
0.0
 10
7.3781860595
 20
2.8264530248
 30
0.0
 10
7.3780149536
 20
2.826709701
 30
0.0
 10
7.3778532128
 20
2.8270078284
 30
0.0
 10
7.3777023558
 20
2.8273445631
 30
0.0
 10
7.3775638613
 20
2.8277166252
 30
0.0
 10
7.3774390935
 20
2.8281203474
 30
0.0
 10
7.3772898585
 20
2.8287070155
 30
0.0
 10
7.3771480082
 20
2.829489928
 30
0.0
 10
7.3770505512
 20
2.8304663096
 30
0.0
 10
7.3770346058
 20
2.8311319325
 30
0.0
 10
7.3770395041
 20
2.8314663982
 30
0.0
  0
LINE
  5
46F
100
AcDbEntity
  8
0
100
AcDbLine
 62
7
  6
CONTINUOUS
 10
7.3742829026
 20
2.8205898096
 11
7.3669790986
 21
2.8207341807
  0
LINE
  5
470
100
AcDbEntity
  8
0
100
AcDbLine
 62
7
  6
CONTINUOUS
 10
7.3742829026
 20
2.8139676438
 11
7.3669790986
 21
2.8138232727
  0
SPLINE
  5
471
100
AcDbEntity
  8
0
100
AcDbSpline
 62
7
  6
CONTINUOUS
 70
0
 71
3
 72
20
 73
16
 74
0
 42
0.0000001
 43
0.0000001
 44
0.0000000001
 40
0.0
 40
0.0
 40
0.0
 40
0.0
 40
0.0327359298
 40
0.0686367897
 40
0.108708499
 40
0.1535587879
 40
0.2034482424
 40
0.2583916062
 40
0.3182243505
 40
0.382641922
 40
0.4512334016
 40
0.5235056957
 40
0.6767640986
 40
0.8374197369
 40
1.0
 40
1.0
 40
1.0
 40
1.0
 10
7.3789420044
 20
2.8086647987
 30
0.0
 10
7.3788761114
 20
2.8086508527
 30
0.0
 10
7.3787414769
 20
2.8086032694
 30
0.0
 10
7.3785506023
 20
2.8084841796
 30
0.0
 10
7.3783650298
 20
2.8083172408
 30
0.0
 10
7.3781860596
 20
2.8081044286
 30
0.0
 10
7.3780149537
 20
2.8078477524
 30
0.0
 10
7.3778532129
 20
2.807549625
 30
0.0
 10
7.377702356
 20
2.8072128903
 30
0.0
 10
7.3775638614
 20
2.8068408282
 30
0.0
 10
7.3774390936
 20
2.806437106
 30
0.0
 10
7.3772898586
 20
2.8058504379
 30
0.0
 10
7.3771480082
 20
2.8050675254
 30
0.0
 10
7.3770505512
 20
2.8040911438
 30
0.0
 10
7.3770346059
 20
2.8034255209
 30
0.0
 10
7.3770395041
 20
2.8030910552
 30
0.0
  0
SPLINE
  5
472
100
AcDbEntity
  8
0
100
AcDbSpline
 62
7
  6
CONTINUOUS
 70
0
 71
3
 72
20
 73
16
 74
0
 42
0.0000001
 43
0.0000001
 44
0.0000000001
 40
0.0
 40
0.0
 40
0.0
 40
0.0
 40
0.0073874837
 40
0.0163894762
 40
0.0271906247
 40
0.039884917
 40
0.0710772428
 40
0.1100140068
 40
0.1564680915
 40
0.2100660568
 40
0.3366879227
 40
0.4851041353
 40
0.6495238759
 40
0.8234487208
 40
1.0
 40
1.0
 40
1.0
 40
1.0
 10
7.4083054345
 20
2.8079901758
 30
0.0
 10
7.4082939367
 20
2.8079821912
 30
0.0
 10
7.4082710321
 20
2.8079607554
 30
0.0
 10
7.4082401101
 20
2.8079193765
 30
0.0
 10
7.40820935
 20
2.8078658978
 30
0.0
 10
7.4081656262
 20
2.8077718525
 30
0.0
 10
7.4081137215
 20
2.8076234135
 30
0.0
 10
7.4080562975
 20
2.8074100075
 30
0.0
 10
7.4080010353
 20
2.8071524032
 30
0.0
 10
7.4079269089
 20
2.8067292608
 30
0.0
 10
7.4078473325
 20
2.8061113527
 30
0.0
 10
7.407772822
 20
2.8052818508
 30
0.0
 10
7.407718562
 20
2.8043609649
 30
0.0
 10
7.407686846
 20
2.803385724
 30
0.0
 10
7.4076816468
 20
2.8027215553
 30
0.0
 10
7.4076832494
 20
2.8023870172
 30
0.0
  0
SPLINE
  5
473
100
AcDbEntity
  8
0
100
AcDbSpline
 62
7
  6
CONTINUOUS
 70
0
 71
3
 72
20
 73
16
 74
0
 42
0.0000001
 43
0.0000001
 44
0.0000000001
 40
0.0
 40
0.0
 40
0.0
 40
0.0
 40
0.0073874841
 40
0.0163894773
 40
0.0271906262
 40
0.0398849184
 40
0.0710772434
 40
0.1100140069
 40
0.1564680911
 40
0.2100660561
 40
0.3366879221
 40
0.4851041345
 40
0.6495238752
 40
0.8234487205
 40
1.0
 40
1.0
 40
1.0
 40
1.0
 10
7.4132864081
 20
2.8030092023
 30
0.0
 10
7.4132784235
 20
2.8029977045
 30
0.0
 10
7.4132569877
 20
2.8029747998
 30
0.0
 10
7.4132156088
 20
2.8029438778
 30
0.0
 10
7.41316213
 20
2.8029131177
 30
0.0
 10
7.4130680848
 20
2.8028693939
 30
0.0
 10
7.4129196458
 20
2.8028174893
 30
0.0
 10
7.4127062398
 20
2.8027600652
 30
0.0
 10
7.4124486354
 20
2.8027048031
 30
0.0
 10
7.4120254931
 20
2.8026306767
 30
0.0
 10
7.411407585
 20
2.8025511002
 30
0.0
 10
7.4105780831
 20
2.8024765897
 30
0.0
 10
7.4096571972
 20
2.8024223298
 30
0.0
 10
7.4086819562
 20
2.8023906138
 30
0.0
 10
7.4080177876
 20
2.8023854146
 30
0.0
 10
7.4076832494
 20
2.8023870172
 30
0.0
  0
SPLINE
  5
474
100
AcDbEntity
  8
0
100
AcDbSpline
 62
7
  6
CONTINUOUS
 70
0
 71
3
 72
20
 73
16
 74
0
 42
0.0000001
 43
0.0000001
 44
0.0000000001
 40
0.0
 40
0.0
 40
0.0
 40
0.0
 40
0.0327359345
 40
0.0686367974
 40
0.1087085086
 40
0.1535587986
 40
0.2034482537
 40
0.2583916174
 40
0.3182243612
 40
0.3826419319
 40
0.4512334104
 40
0.5235057033
 40
0.6767641034
 40
0.837419739
 40
1.0
 40
1.0
 40
1.0
 40
1.0
 10
7.413961031
 20
2.7736457722
 30
0.0
 10
7.413947085
 20
2.7735798791
 30
0.0
 10
7.4138995017
 20
2.7734452446
 30
0.0
 10
7.4137804119
 20
2.7732543699
 30
0.0
 10
7.4136134731
 20
2.7730687975
 30
0.0
 10
7.4134006609
 20
2.7728898272
 30
0.0
 10
7.4131439847
 20
2.7727187213
 30
0.0
 10
7.4128458573
 20
2.7725569805
 30
0.0
 10
7.4125091226
 20
2.7724061236
 30
0.0
 10
7.4121370605
 20
2.772267629
 30
0.0
 10
7.4117333383
 20
2.7721428612
 30
0.0
 10
7.4111466702
 20
2.7719936262
 30
0.0
 10
7.4103637576
 20
2.7718517759
 30
0.0
 10
7.4093873761
 20
2.7717543189
 30
0.0
 10
7.4087217532
 20
2.7717383736
 30
0.0
 10
7.4083872875
 20
2.7717432718
 30
0.0
  0
SPLINE
  5
475
100
AcDbEntity
  8
0
100
AcDbSpline
 62
7
  6
CONTINUOUS
 70
0
 71
3
 72
17
 73
13
 74
0
 42
0.0000001
 43
0.0000001
 44
0.0000000001
 40
0.0
 40
0.0
 40
0.0
 40
0.0
 40
0.1127733112
 40
0.1697305907
 40
0.2272539921
 40
0.3445093561
 40
0.4657931258
 40
0.5283126543
 40
0.5921438153
 40
0.7236870325
 40
0.860179902
 40
1.0
 40
1.0
 40
1.0
 40
1.0
 10
7.4662079135
 20
2.8086647987
 30
0.0
 10
7.4664984559
 20
2.8086839033
 30
0.0
 10
7.4669343225
 20
2.8087563122
 30
0.0
 10
7.4674940844
 20
2.8089341895
 30
0.0
 10
7.4680455437
 20
2.8091684241
 30
0.0
 10
7.4687042606
 20
2.8095652788
 30
0.0
 10
7.4692891827
 20
2.8100840866
 30
0.0
 10
7.4697065526
 20
2.8105694407
 30
0.0
 10
7.4700934575
 20
2.8111123389
 30
0.0
 10
7.4704916626
 20
2.8118771354
 30
0.0
 10
7.4707971661
 20
2.8128910873
 30
0.0
 10
7.4708677327
 20
2.8136066425
 30
0.0
 10
7.4708670154
 20
2.8139676438
 30
0.0
  0
SPLINE
  5
476
100
AcDbEntity
  8
0
100
AcDbSpline
 62
7
  6
CONTINUOUS
 70
0
 71
3
 72
15
 73
11
 74
0
 42
0.0000001
 43
0.0000001
 44
0.0000000001
 40
0.0
 40
0.0
 40
0.0
 40
0.0
 40
0.124794425
 40
0.2497509154
 40
0.3748406975
 40
0.5
 40
0.6251593025
 40
0.7502490846
 40
0.875205575
 40
1.0
 40
1.0
 40
1.0
 40
1.0
 10
7.4694747301
 20
2.8153599291
 30
0.0
 10
7.4694722676
 20
2.8150357609
 30
0.0
 10
7.4694036018
 20
2.8143857235
 30
0.0
 10
7.4691138655
 20
2.81344996
 30
0.0
 10
7.4686484146
 20
2.812586546
 30
0.0
 10
7.4680249152
 20
2.8118287704
 30
0.0
 10
7.4672671397
 20
2.8112052711
 30
0.0
 10
7.4664037257
 20
2.8107398202
 30
0.0
 10
7.4654679622
 20
2.8104500839
 30
0.0
 10
7.4648179248
 20
2.810381418
 30
0.0
 10
7.4644937566
 20
2.8103789556
 30
0.0
  0
SPLINE
  5
477
100
AcDbEntity
  8
0
100
AcDbSpline
 62
7
  6
CONTINUOUS
 70
0
 71
3
 72
15
 73
11
 74
0
 42
0.0000001
 43
0.0000001
 44
0.0000000001
 40
0.0
 40
0.0
 40
0.0
 40
0.0
 40
0.1398581995
 40
0.2763827215
 40
0.4079577619
 40
0.5342130934
 40
0.6555276613
 40
0.7728124117
 40
0.8871930221
 40
1.0
 40
1.0
 40
1.0
 40
1.0
 10
7.4708670154
 20
2.8205898096
 30
0.0
 10
7.4708677395
 20
2.820950816
 30
0.0
 10
7.4707971616
 20
2.8216663366
 30
0.0
 10
7.4704915985
 20
2.8226804038
 30
0.0
 10
7.4700188542
 20
2.8235885571
 30
0.0
 10
7.4694127526
 20
2.824363833
 30
0.0
 10
7.468704245
 20
2.8249921369
 30
0.0
 10
7.4679193714
 20
2.8254650969
 30
0.0
 10
7.4670812949
 20
2.8257768146
 30
0.0
 10
7.4664984667
 20
2.8258735363
 30
0.0
 10
7.4662079135
 20
2.8258926547
 30
0.0
  0
SPLINE
  5
478
100
AcDbEntity
  8
0
100
AcDbSpline
 62
7
  6
CONTINUOUS
 70
0
 71
3
 72
15
 73
11
 74
0
 42
0.0000001
 43
0.0000001
 44
0.0000000001
 40
0.0
 40
0.0
 40
0.0
 40
0.0
 40
0.124794425
 40
0.2497509154
 40
0.3748406975
 40
0.5
 40
0.6251593025
 40
0.7502490846
 40
0.875205575
 40
1.0
 40
1.0
 40
1.0
 40
1.0
 10
7.4644937566
 20
2.8241784978
 30
0.0
 10
7.4648179248
 20
2.8241760354
 30
0.0
 10
7.4654679622
 20
2.8241073695
 30
0.0
 10
7.4664037257
 20
2.8238176332
 30
0.0
 10
7.4672671397
 20
2.8233521823
 30
0.0
 10
7.4680249152
 20
2.822728683
 30
0.0
 10
7.4686484146
 20
2.8219709075
 30
0.0
 10
7.4691138655
 20
2.8211074934
 30
0.0
 10
7.4694036018
 20
2.8201717299
 30
0.0
 10
7.4694722676
 20
2.8195216926
 30
0.0
 10
7.4694747301
 20
2.8191975243
 30
0.0
  0
SPLINE
  5
479
100
AcDbEntity
  8
0
100
AcDbSpline
 62
7
  6
CONTINUOUS
 70
0
 71
3
 72
15
 73
11
 74
0
 42
0.0000001
 43
0.0000001
 44
0.0000000001
 40
0.0
 40
0.0
 40
0.0
 40
0.0
 40
0.1248070942
 40
0.2497643626
 40
0.3748484015
 40
0.499999528
 40
0.6251509495
 40
0.7502350648
 40
0.8751929223
 40
1.0
 40
1.0
 40
1.0
 40
1.0
 10
7.4294747301
 20
2.8291594713
 30
0.0
 10
7.4294723254
 20
2.8288335035
 30
0.0
 10
7.4295308419
 20
2.8281788875
 30
0.0
 10
7.4298085821
 20
2.8272336887
 30
0.0
 10
7.4302679918
 20
2.8263606331
 30
0.0
 10
7.4308924072
 20
2.8255961794
 30
0.0
 10
7.4316568558
 20
2.8249717547
 30
0.0
 10
7.4325299214
 20
2.824512358
 30
0.0
 10
7.4334751171
 20
2.8242346096
 30
0.0
 10
7.4341297359
 20
2.8241760832
 30
0.0
 10
7.4344557035
 20
2.8241784978
 30
0.0
  0
SPLINE
  5
47A
100
AcDbEntity
  8
0
100
AcDbSpline
 62
7
  6
CONTINUOUS
 70
0
 71
3
 72
15
 73
11
 74
0
 42
0.0000001
 43
0.0000001
 44
0.0000000001
 40
0.0
 40
0.0
 40
0.0
 40
0.0
 40
0.124794425
 40
0.2497509154
 40
0.3748406975
 40
0.5
 40
0.6251593025
 40
0.7502490846
 40
0.875205575
 40
1.0
 40
1.0
 40
1.0
 40
1.0
 10
7.4368444834
 20
2.8265672776
 30
0.0
 10
7.4365203151
 20
2.8265697401
 30
0.0
 10
7.4358702777
 20
2.8266384059
 30
0.0
 10
7.4349345143
 20
2.8269281422
 30
0.0
 10
7.4340711002
 20
2.8273935931
 30
0.0
 10
7.4333133247
 20
2.8280170924
 30
0.0
 10
7.4326898254
 20
2.828774868
 30
0.0
 10
7.4322243745
 20
2.829638282
 30
0.0
 10
7.4319346382
 20
2.8305740455
 30
0.0
 10
7.4318659723
 20
2.8312240829
 30
0.0
 10
7.4318635099
 20
2.8315482511
 30
0.0
  0
SPLINE
  5
47B
100
AcDbEntity
  8
0
100
AcDbSpline
 62
7
  6
CONTINUOUS
 70
0
 71
3
 72
17
 73
13
 74
0
 42
0.0000001
 43
0.0000001
 44
0.0000000001
 40
0.0
 40
0.0
 40
0.0
 40
0.0
 40
0.1127733097
 40
0.1697305605
 40
0.2272539743
 40
0.3445093586
 40
0.4657931296
 40
0.5283126552
 40
0.5921438128
 40
0.723687028
 40
0.8601799061
 40
1.0
 40
1.0
 40
1.0
 40
1.0
 10
7.431188887
 20
2.8609116812
 30
0.0
 10
7.4311697824
 20
2.8612022236
 30
0.0
 10
7.4310973735
 20
2.8616380902
 30
0.0
 10
7.4309194961
 20
2.862197852
 30
0.0
 10
7.4306852616
 20
2.8627493113
 30
0.0
 10
7.4302884069
 20
2.8634080284
 30
0.0
 10
7.429769599
 20
2.8639929504
 30
0.0
 10
7.429284245
 20
2.8644103203
 30
0.0
 10
7.4287413468
 20
2.8647972252
 30
0.0
 10
7.4279765503
 20
2.8651954303
 30
0.0
 10
7.4269625984
 20
2.8655009339
 30
0.0
 10
7.4262470432
 20
2.8655715004
 30
0.0
 10
7.4258860419
 20
2.8655707831
 30
0.0
  0
SPLINE
  5
47C
100
AcDbEntity
  8
0
100
AcDbSpline
 62
7
  6
CONTINUOUS
 70
0
 71
3
 72
15
 73
11
 74
0
 42
0.0000001
 43
0.0000001
 44
0.0000000001
 40
0.0
 40
0.0
 40
0.0
 40
0.0
 40
0.124794425
 40
0.2497509154
 40
0.3748406975
 40
0.5
 40
0.6251593025
 40
0.7502490846
 40
0.875205575
 40
1.0
 40
1.0
 40
1.0
 40
1.0
 10
7.4244937566
 20
2.8641784978
 30
0.0
 10
7.4248179248
 20
2.8641760354
 30
0.0
 10
7.4254679622
 20
2.8641073695
 30
0.0
 10
7.4264037257
 20
2.8638176332
 30
0.0
 10
7.4272671397
 20
2.8633521823
 30
0.0
 10
7.4280249152
 20
2.862728683
 30
0.0
 10
7.4286484146
 20
2.8619709075
 30
0.0
 10
7.4291138655
 20
2.8611074934
 30
0.0
 10
7.4294036018
 20
2.8601717299
 30
0.0
 10
7.4294722676
 20
2.8595216926
 30
0.0
 10
7.4294747301
 20
2.8591975243
 30
0.0
  0
SPLINE
  5
47D
100
AcDbEntity
  8
0
100
AcDbSpline
 62
7
  6
CONTINUOUS
 70
0
 71
3
 72
15
 73
11
 74
0
 42
0.0000001
 43
0.0000001
 44
0.0000000001
 40
0.0
 40
0.0
 40
0.0
 40
0.0
 40
0.1398582187
 40
0.2763827014
 40
0.4079577397
 40
0.5342131092
 40
0.6555276493
 40
0.7728124021
 40
0.8871930343
 40
1.0
 40
1.0
 40
1.0
 40
1.0
 10
7.4192638761
 20
2.8655707831
 30
0.0
 10
7.4189028697
 20
2.8655715073
 30
0.0
 10
7.4181873491
 20
2.8655009291
 30
0.0
 10
7.4171732819
 20
2.8651953663
 30
0.0
 10
7.4162651286
 20
2.864722622
 30
0.0
 10
7.4154898528
 20
2.8641165203
 30
0.0
 10
7.4148615488
 20
2.8634080128
 30
0.0
 10
7.4143885888
 20
2.8626231392
 30
0.0
 10
7.4140768711
 20
2.8617850626
 30
0.0
 10
7.4139801494
 20
2.8612022344
 30
0.0
 10
7.413961031
 20
2.8609116812
 30
0.0
  0
SPLINE
  5
47E
100
AcDbEntity
  8
0
100
AcDbSpline
 62
7
  6
CONTINUOUS
 70
0
 71
3
 72
15
 73
11
 74
0
 42
0.0000001
 43
0.0000001
 44
0.0000000001
 40
0.0
 40
0.0
 40
0.0
 40
0.0
 40
0.124794425
 40
0.2497509154
 40
0.3748406975
 40
0.5
 40
0.6251593025
 40
0.7502490846
 40
0.875205575
 40
1.0
 40
1.0
 40
1.0
 40
1.0
 10
7.4156751879
 20
2.8591975243
 30
0.0
 10
7.4156776503
 20
2.8595216926
 30
0.0
 10
7.4157463162
 20
2.8601717299
 30
0.0
 10
7.4160360525
 20
2.8611074934
 30
0.0
 10
7.4165015034
 20
2.8619709075
 30
0.0
 10
7.4171250027
 20
2.862728683
 30
0.0
 10
7.4178827782
 20
2.8633521823
 30
0.0
 10
7.4187461923
 20
2.8638176332
 30
0.0
 10
7.4196819557
 20
2.8641073695
 30
0.0
 10
7.4203319931
 20
2.8641760354
 30
0.0
 10
7.4206561614
 20
2.8641784978
 30
0.0
  0
SPLINE
  5
47F
100
AcDbEntity
  8
0
100
AcDbSpline
 62
7
  6
CONTINUOUS
 70
0
 71
3
 72
15
 73
11
 74
0
 42
0.0000001
 43
0.0000001
 44
0.0000000001
 40
0.0
 40
0.0
 40
0.0
 40
0.0
 40
0.1248070942
 40
0.2497643626
 40
0.3748484015
 40
0.499999528
 40
0.6251509495
 40
0.7502350648
 40
0.8751929223
 40
1.0
 40
1.0
 40
1.0
 40
1.0
 10
7.4106942144
 20
2.8241784978
 30
0.0
 10
7.4110201822
 20
2.8241760931
 30
0.0
 10
7.4116747981
 20
2.8242346097
 30
0.0
 10
7.412619997
 20
2.8245123498
 30
0.0
 10
7.4134930526
 20
2.8249717595
 30
0.0
 10
7.4142575063
 20
2.825596175
 30
0.0
 10
7.414881931
 20
2.8263606235
 30
0.0
 10
7.4153413277
 20
2.8272336891
 30
0.0
 10
7.4156190761
 20
2.8281788849
 30
0.0
 10
7.4156776025
 20
2.8288335036
 30
0.0
 10
7.4156751879
 20
2.8291594713
 30
0.0
  0
SPLINE
  5
480
100
AcDbEntity
  8
0
100
AcDbSpline
 62
7
  6
CONTINUOUS
 70
0
 71
3
 72
15
 73
11
 74
0
 42
0.0000001
 43
0.0000001
 44
0.0000000001
 40
0.0
 40
0.0
 40
0.0
 40
0.0
 40
0.124794425
 40
0.2497509154
 40
0.3748406975
 40
0.5
 40
0.6251593025
 40
0.7502490846
 40
0.875205575
 40
1.0
 40
1.0
 40
1.0
 40
1.0
 10
7.4132864081
 20
2.8315482511
 30
0.0
 10
7.4132839456
 20
2.8312240829
 30
0.0
 10
7.4132152798
 20
2.8305740455
 30
0.0
 10
7.4129255435
 20
2.829638282
 30
0.0
 10
7.4124600926
 20
2.828774868
 30
0.0
 10
7.4118365932
 20
2.8280170924
 30
0.0
 10
7.4110788177
 20
2.8273935931
 30
0.0
 10
7.4102154037
 20
2.8269281422
 30
0.0
 10
7.4092796402
 20
2.8266384059
 30
0.0
 10
7.4086296028
 20
2.8265697401
 30
0.0
 10
7.4083054346
 20
2.8265672776
 30
0.0
  0
SPLINE
  5
481
100
AcDbEntity
  8
0
100
AcDbSpline
 62
7
  6
CONTINUOUS
 70
0
 71
3
 72
17
 73
13
 74
0
 42
0.0000001
 43
0.0000001
 44
0.0000000001
 40
0.0
 40
0.0
 40
0.0
 40
0.0
 40
0.1127733112
 40
0.1697305907
 40
0.2272539921
 40
0.3445093561
 40
0.4657931258
 40
0.5283126543
 40
0.5921438153
 40
0.7236870325
 40
0.860179902
 40
1.0
 40
1.0
 40
1.0
 40
1.0
 10
7.3789420044
 20
2.8258926547
 30
0.0
 10
7.3786514621
 20
2.8258735501
 30
0.0
 10
7.3782155954
 20
2.8258011412
 30
0.0
 10
7.3776558335
 20
2.8256232639
 30
0.0
 10
7.3771043743
 20
2.8253890294
 30
0.0
 10
7.3764456573
 20
2.8249921746
 30
0.0
 10
7.3758607353
 20
2.8244733668
 30
0.0
 10
7.3754433654
 20
2.8239880127
 30
0.0
 10
7.3750564605
 20
2.8234451145
 30
0.0
 10
7.3746582553
 20
2.822680318
 30
0.0
 10
7.3743527518
 20
2.8216663661
 30
0.0
 10
7.3742821853
 20
2.8209508109
 30
0.0
 10
7.3742829026
 20
2.8205898096
 30
0.0
  0
SPLINE
  5
482
100
AcDbEntity
  8
0
100
AcDbSpline
 62
7
  6
CONTINUOUS
 70
0
 71
3
 72
15
 73
11
 74
0
 42
0.0000001
 43
0.0000001
 44
0.0000000001
 40
0.0
 40
0.0
 40
0.0
 40
0.0
 40
0.124794425
 40
0.2497509154
 40
0.3748406975
 40
0.5
 40
0.6251593025
 40
0.7502490846
 40
0.875205575
 40
1.0
 40
1.0
 40
1.0
 40
1.0
 10
7.3756751879
 20
2.8191975243
 30
0.0
 10
7.3756776503
 20
2.8195216926
 30
0.0
 10
7.3757463162
 20
2.8201717299
 30
0.0
 10
7.3760360525
 20
2.8211074934
 30
0.0
 10
7.3765015034
 20
2.8219709075
 30
0.0
 10
7.3771250027
 20
2.822728683
 30
0.0
 10
7.3778827782
 20
2.8233521823
 30
0.0
 10
7.3787461923
 20
2.8238176332
 30
0.0
 10
7.3796819557
 20
2.8241073695
 30
0.0
 10
7.3803319931
 20
2.8241760354
 30
0.0
 10
7.3806561614
 20
2.8241784978
 30
0.0
  0
SPLINE
  5
483
100
AcDbEntity
  8
0
100
AcDbSpline
 62
7
  6
CONTINUOUS
 70
0
 71
3
 72
15
 73
11
 74
0
 42
0.0000001
 43
0.0000001
 44
0.0000000001
 40
0.0
 40
0.0
 40
0.0
 40
0.0
 40
0.1398581995
 40
0.2763827215
 40
0.4079577619
 40
0.5342130934
 40
0.6555276613
 40
0.7728124117
 40
0.8871930221
 40
1.0
 40
1.0
 40
1.0
 40
1.0
 10
7.3742829026
 20
2.8139676438
 30
0.0
 10
7.3742821785
 20
2.8136066375
 30
0.0
 10
7.3743527564
 20
2.8128911168
 30
0.0
 10
7.3746583195
 20
2.8118770496
 30
0.0
 10
7.3751310638
 20
2.8109688963
 30
0.0
 10
7.3757371653
 20
2.8101936204
 30
0.0
 10
7.3764456729
 20
2.8095653165
 30
0.0
 10
7.3772305465
 20
2.8090923565
 30
0.0
 10
7.3780686231
 20
2.8087806388
 30
0.0
 10
7.3786514513
 20
2.8086839171
 30
0.0
 10
7.3789420044
 20
2.8086647987
 30
0.0
  0
SPLINE
  5
484
100
AcDbEntity
  8
0
100
AcDbSpline
 62
7
  6
CONTINUOUS
 70
0
 71
3
 72
15
 73
11
 74
0
 42
0.0000001
 43
0.0000001
 44
0.0000000001
 40
0.0
 40
0.0
 40
0.0
 40
0.0
 40
0.124794425
 40
0.2497509154
 40
0.3748406975
 40
0.5
 40
0.6251593025
 40
0.7502490846
 40
0.875205575
 40
1.0
 40
1.0
 40
1.0
 40
1.0
 10
7.3806561614
 20
2.8103789556
 30
0.0
 10
7.3803319931
 20
2.8103814181
 30
0.0
 10
7.3796819557
 20
2.8104500839
 30
0.0
 10
7.3787461923
 20
2.8107398202
 30
0.0
 10
7.3778827782
 20
2.8112052711
 30
0.0
 10
7.3771250027
 20
2.8118287704
 30
0.0
 10
7.3765015034
 20
2.812586546
 30
0.0
 10
7.3760360525
 20
2.81344996
 30
0.0
 10
7.3757463162
 20
2.8143857235
 30
0.0
 10
7.3756776503
 20
2.8150357609
 30
0.0
 10
7.3756751879
 20
2.8153599291
 30
0.0
  0
SPLINE
  5
485
100
AcDbEntity
  8
0
100
AcDbSpline
 62
7
  6
CONTINUOUS
 70
0
 71
3
 72
15
 73
11
 74
0
 42
0.0000001
 43
0.0000001
 44
0.0000000001
 40
0.0
 40
0.0
 40
0.0
 40
0.0
 40
0.1248070942
 40
0.2497643626
 40
0.3748484015
 40
0.499999528
 40
0.6251509495
 40
0.7502350648
 40
0.8751929223
 40
1.0
 40
1.0
 40
1.0
 40
1.0
 10
7.4156751879
 20
2.8053979821
 30
0.0
 10
7.4156775926
 20
2.8057239499
 30
0.0
 10
7.415619076
 20
2.8063785659
 30
0.0
 10
7.4153413359
 20
2.8073237647
 30
0.0
 10
7.4148819262
 20
2.8081968203
 30
0.0
 10
7.4142575107
 20
2.808961274
 30
0.0
 10
7.4134930621
 20
2.8095856987
 30
0.0
 10
7.4126199966
 20
2.8100450954
 30
0.0
 10
7.4116748008
 20
2.8103228438
 30
0.0
 10
7.4110201821
 20
2.8103813703
 30
0.0
 10
7.4106942144
 20
2.8103789556
 30
0.0
  0
SPLINE
  5
486
100
AcDbEntity
  8
0
100
AcDbSpline
 62
7
  6
CONTINUOUS
 70
0
 71
3
 72
15
 73
11
 74
0
 42
0.0000001
 43
0.0000001
 44
0.0000000001
 40
0.0
 40
0.0
 40
0.0
 40
0.0
 40
0.124794425
 40
0.2497509154
 40
0.3748406975
 40
0.5
 40
0.6251593025
 40
0.7502490846
 40
0.875205575
 40
1.0
 40
1.0
 40
1.0
 40
1.0
 10
7.4083054346
 20
2.8079901758
 30
0.0
 10
7.4086296028
 20
2.8079877134
 30
0.0
 10
7.4092796402
 20
2.8079190475
 30
0.0
 10
7.4102154037
 20
2.8076293112
 30
0.0
 10
7.4110788177
 20
2.8071638603
 30
0.0
 10
7.4118365932
 20
2.806540361
 30
0.0
 10
7.4124600926
 20
2.8057825854
 30
0.0
 10
7.4129255435
 20
2.8049191714
 30
0.0
 10
7.4132152798
 20
2.8039834079
 30
0.0
 10
7.4132839456
 20
2.8033333706
 30
0.0
 10
7.4132864081
 20
2.8030092023
 30
0.0
  0
SPLINE
  5
487
100
AcDbEntity
  8
0
100
AcDbSpline
 62
7
  6
CONTINUOUS
 70
0
 71
3
 72
17
 73
13
 74
0
 42
0.0000001
 43
0.0000001
 44
0.0000000001
 40
0.0
 40
0.0
 40
0.0
 40
0.0
 40
0.1127733097
 40
0.1697305605
 40
0.2272539743
 40
0.3445093586
 40
0.4657931296
 40
0.5283126552
 40
0.5921438128
 40
0.723687028
 40
0.8601799061
 40
1.0
 40
1.0
 40
1.0
 40
1.0
 10
7.413961031
 20
2.7736457722
 30
0.0
 10
7.4139801356
 20
2.7733552298
 30
0.0
 10
7.4140525444
 20
2.7729193632
 30
0.0
 10
7.4142304218
 20
2.7723596014
 30
0.0
 10
7.4144646563
 20
2.7718081421
 30
0.0
 10
7.414861511
 20
2.771149425
 30
0.0
 10
7.4153803189
 20
2.770564503
 30
0.0
 10
7.4158656729
 20
2.7701471331
 30
0.0
 10
7.4164085712
 20
2.7697602282
 30
0.0
 10
7.4171733676
 20
2.7693620231
 30
0.0
 10
7.4181873195
 20
2.7690565195
 30
0.0
 10
7.4189028748
 20
2.768985953
 30
0.0
 10
7.4192638761
 20
2.7689866703
 30
0.0
  0
SPLINE
  5
488
100
AcDbEntity
  8
0
100
AcDbSpline
 62
7
  6
CONTINUOUS
 70
0
 71
3
 72
15
 73
11
 74
0
 42
0.0000001
 43
0.0000001
 44
0.0000000001
 40
0.0
 40
0.0
 40
0.0
 40
0.0
 40
0.124794425
 40
0.2497509154
 40
0.3748406975
 40
0.5
 40
0.6251593025
 40
0.7502490846
 40
0.875205575
 40
1.0
 40
1.0
 40
1.0
 40
1.0
 10
7.4206561614
 20
2.7703789556
 30
0.0
 10
7.4203319931
 20
2.7703814181
 30
0.0
 10
7.4196819557
 20
2.7704500839
 30
0.0
 10
7.4187461923
 20
2.7707398202
 30
0.0
 10
7.4178827782
 20
2.7712052711
 30
0.0
 10
7.4171250027
 20
2.7718287704
 30
0.0
 10
7.4165015034
 20
2.772586546
 30
0.0
 10
7.4160360525
 20
2.77344996
 30
0.0
 10
7.4157463162
 20
2.7743857235
 30
0.0
 10
7.4156776503
 20
2.7750357609
 30
0.0
 10
7.4156751879
 20
2.7753599291
 30
0.0
  0
SPLINE
  5
489
100
AcDbEntity
  8
0
100
AcDbSpline
 62
7
  6
CONTINUOUS
 70
0
 71
3
 72
15
 73
11
 74
0
 42
0.0000001
 43
0.0000001
 44
0.0000000001
 40
0.0
 40
0.0
 40
0.0
 40
0.0
 40
0.1398582187
 40
0.2763827014
 40
0.4079577397
 40
0.5342131092
 40
0.6555276493
 40
0.7728124021
 40
0.8871930343
 40
1.0
 40
1.0
 40
1.0
 40
1.0
 10
7.4258860419
 20
2.7689866703
 30
0.0
 10
7.4262470483
 20
2.7689859461
 30
0.0
 10
7.4269625689
 20
2.7690565243
 30
0.0
 10
7.4279766361
 20
2.7693620871
 30
0.0
 10
7.4288847894
 20
2.7698348314
 30
0.0
 10
7.4296600652
 20
2.7704409331
 30
0.0
 10
7.4302883692
 20
2.7711494406
 30
0.0
 10
7.4307613292
 20
2.7719343142
 30
0.0
 10
7.4310730469
 20
2.7727723908
 30
0.0
 10
7.4311697686
 20
2.773355219
 30
0.0
 10
7.431188887
 20
2.7736457722
 30
0.0
  0
SPLINE
  5
48A
100
AcDbEntity
  8
0
100
AcDbSpline
 62
7
  6
CONTINUOUS
 70
0
 71
3
 72
15
 73
11
 74
0
 42
0.0000001
 43
0.0000001
 44
0.0000000001
 40
0.0
 40
0.0
 40
0.0
 40
0.0
 40
0.124794425
 40
0.2497509154
 40
0.3748406975
 40
0.5
 40
0.6251593025
 40
0.7502490846
 40
0.875205575
 40
1.0
 40
1.0
 40
1.0
 40
1.0
 10
7.4294747301
 20
2.7753599291
 30
0.0
 10
7.4294722676
 20
2.7750357609
 30
0.0
 10
7.4294036018
 20
2.7743857235
 30
0.0
 10
7.4291138655
 20
2.77344996
 30
0.0
 10
7.4286484146
 20
2.772586546
 30
0.0
 10
7.4280249152
 20
2.7718287704
 30
0.0
 10
7.4272671397
 20
2.7712052711
 30
0.0
 10
7.4264037257
 20
2.7707398202
 30
0.0
 10
7.4254679622
 20
2.7704500839
 30
0.0
 10
7.4248179248
 20
2.770381418
 30
0.0
 10
7.4244937566
 20
2.7703789556
 30
0.0
  0
SPLINE
  5
48B
100
AcDbEntity
  8
0
100
AcDbSpline
 62
7
  6
CONTINUOUS
 70
0
 71
3
 72
15
 73
11
 74
0
 42
0.0000001
 43
0.0000001
 44
0.0000000001
 40
0.0
 40
0.0
 40
0.0
 40
0.0
 40
0.1248070942
 40
0.2497643626
 40
0.3748484015
 40
0.499999528
 40
0.6251509495
 40
0.7502350648
 40
0.8751929223
 40
1.0
 40
1.0
 40
1.0
 40
1.0
 10
7.4344557035
 20
2.8103789556
 30
0.0
 10
7.4341297357
 20
2.8103813603
 30
0.0
 10
7.4334751198
 20
2.8103228438
 30
0.0
 10
7.432529921
 20
2.8100451036
 30
0.0
 10
7.4316568654
 20
2.8095856939
 30
0.0
 10
7.4308924117
 20
2.8089612784
 30
0.0
 10
7.430267987
 20
2.8081968299
 30
0.0
 10
7.4298085903
 20
2.8073237643
 30
0.0
 10
7.4295308419
 20
2.8063785686
 30
0.0
 10
7.4294723154
 20
2.8057239498
 30
0.0
 10
7.4294747301
 20
2.8053979821
 30
0.0
  0
SPLINE
  5
48C
100
AcDbEntity
  8
0
100
AcDbSpline
 62
7
  6
CONTINUOUS
 70
0
 71
3
 72
15
 73
11
 74
0
 42
0.0000001
 43
0.0000001
 44
0.0000000001
 40
0.0
 40
0.0
 40
0.0
 40
0.0
 40
0.124794425
 40
0.2497509154
 40
0.3748406975
 40
0.5
 40
0.6251593025
 40
0.7502490846
 40
0.875205575
 40
1.0
 40
1.0
 40
1.0
 40
1.0
 10
7.4318635099
 20
2.8030092023
 30
0.0
 10
7.4318659723
 20
2.8033333706
 30
0.0
 10
7.4319346382
 20
2.8039834079
 30
0.0
 10
7.4322243745
 20
2.8049191714
 30
0.0
 10
7.4326898254
 20
2.8057825854
 30
0.0
 10
7.4333133247
 20
2.806540361
 30
0.0
 10
7.4340711002
 20
2.8071638603
 30
0.0
 10
7.4349345143
 20
2.8076293112
 30
0.0
 10
7.4358702777
 20
2.8079190475
 30
0.0
 10
7.4365203151
 20
2.8079877134
 30
0.0
 10
7.4368444834
 20
2.8079901758
 30
0.0
  0
SPLINE
  5
48D
100
AcDbEntity
  8
0
100
AcDbSpline
 62
7
  6
CONTINUOUS
 70
0
 71
3
 72
50
 73
46
 74
0
 42
0.0000001
 43
0.0000001
 44
0.0000000001
 40
0.0
 40
0.0
 40
0.0
 40
0.0
 40
0.000004977
 40
0.0000203631
 40
0.0000461472
 40
0.0000823164
 40
0.0001857553
 40
0.0003305713
 40
0.0005166557
 40
0.0007438997
 40
0.001012195
 40
0.0013214331
 40
0.0020623051
 40
0.0029656518
 40
0.0040306119
 40
0.0052563264
 40
0.0066419392
 40
0.0081865964
 40
0.0117496446
 40
0.0159387791
 40
0.0207474086
 40
0.0261689727
 40
0.0321969401
 40
0.0388248095
 40
0.0460457471
 40
0.0538492346
 40
0.0622226635
 40
0.0806293629
 40
0.1011675806
 40
0.1237399496
 40
0.1482484862
 40
0.1745983057
 40
0.2026986724
 40
0.2324647242
 40
0.2638174347
 40
0.2966833428
 40
0.3666915269
 40
0.4420677866
 40
0.5225123733
 40
0.6078626561
 40
0.6980921977
 40
0.7450770414
 40
0.7933387576
 40
0.8938316667
 40
1.0
 40
1.0
 40
1.0
 40
1.0
 10
7.110074959
 20
2.4643260442
 30
0.0
 10
7.1100749607
 20
2.4643261212
 30
0.0
 10
7.1100753167
 20
2.4643255739
 30
0.0
 10
7.1100756711
 20
2.4643253671
 30
0.0
 10
7.1100765651
 20
2.4643243118
 30
0.0
 10
7.1100782621
 20
2.4643225449
 30
0.0
 10
7.1100812927
 20
2.4643192332
 30
0.0
 10
7.1100858505
 20
2.4643143402
 30
0.0
 10
7.1100917386
 20
2.4643079891
 30
0.0
 10
7.1100989242
 20
2.464300262
 30
0.0
 10
7.110107419
 20
2.4642911373
 30
0.0
 10
7.1101213469
 20
2.4642762052
 30
0.0
 10
7.1101420176
 20
2.4642541099
 30
0.0
 10
7.1101707463
 20
2.4642235253
 30
0.0
 10
7.1102046918
 20
2.4641875379
 30
0.0
 10
7.1102438516
 20
2.4641462008
 30
0.0
 10
7.1102882232
 20
2.4640995668
 30
0.0
 10
7.1103577109
 20
2.4640268596
 30
0.0
 10
7.1104575683
 20
2.4639231132
 30
0.0
 10
7.1105930985
 20
2.4637835373
 30
0.0
 10
7.1107493613
 20
2.463623972
 30
0.0
 10
7.1109263043
 20
2.4634447983
 30
0.0
 10
7.1111238723
 20
2.4632463943
 30
0.0
 10
7.1113420116
 20
2.4630291476
 30
0.0
 10
7.1115806017
 20
2.4627934682
 30
0.0
 10
7.1118396199
 20
2.462540002
 30
0.0
 10
7.1122244869
 20
2.4621674378
 30
0.0
 10
7.11275578
 20
2.4616625643
 30
0.0
 10
7.1134554778
 20
2.4610157646
 30
0.0
 10
7.1142354012
 20
2.4603166852
 30
0.0
 10
7.1150952141
 20
2.4595721006
 30
0.0
 10
7.1160344963
 20
2.4587887917
 30
0.0
 10
7.1170528442
 20
2.4579735258
 30
0.0
 10
7.1181500132
 20
2.4571332107
 30
0.0
 10
7.1193258381
 20
2.4562747804
 30
0.0
 10
7.1210344998
 20
2.4550901304
 30
0.0
 10
7.1233650031
 20
2.4536071582
 30
0.0
 10
7.1264203405
 20
2.4519001759
 30
0.0
 10
7.1297916495
 20
2.4502852842
 30
0.0
 10
7.1334798427
 20
2.4488196686
 30
0.0
 10
7.1367724483
 20
2.4477862953
 30
0.0
 10
7.1395600953
 20
2.4470893003
 30
0.0
 10
7.1425299216
 20
2.4464758046
 30
0.0
 10
7.1464457086
 20
2.4459297992
 30
0.0
 10
7.1496485913
 20
2.4457787401
 30
0.0
 10
7.151292994
 20
2.4457787267
 30
0.0
  0
SPLINE
  5
48E
100
AcDbEntity
  8
0
100
AcDbSpline
 62
7
  6
CONTINUOUS
 70
0
 71
3
 72
18
 73
14
 74
0
 42
0.0000001
 43
0.0000001
 44
0.0000000001
 40
0.0
 40
0.0
 40
0.0
 40
0.0
 40
0.1249458796
 40
0.1874897401
 40
0.2500381714
 40
0.3125847247
 40
0.3751317294
 40
0.4376791834
 40
0.5002255569
 40
0.6251683365
 40
0.7501116472
 40
0.8750534378
 40
1.0
 40
1.0
 40
1.0
 40
1.0
 10
7.4344557035
 20
2.8153599291
 30
0.0
 10
7.4338045095
 20
2.8153598712
 30
0.0
 10
7.4328238471
 20
2.8152637905
 30
0.0
 10
7.431558
 20
2.8149483186
 30
0.0
 10
7.4306352422
 20
2.8146193607
 30
0.0
 10
7.4297492527
 20
2.8142016796
 30
0.0
 10
7.4289087791
 20
2.8136986263
 30
0.0
 10
7.4281215162
 20
2.8131156843
 30
0.0
 10
7.4271544045
 20
2.8122396536
 30
0.0
 10
7.4261144302
 20
2.8109717838
 30
0.0
 10
7.4251897162
 20
2.8092367713
 30
0.0
 10
7.4246213745
 20
2.8073551216
 30
0.0
 10
7.4244937851
 20
2.8060491797
 30
0.0
 10
7.4244937566
 20
2.8053979821
 30
0.0
  0
SPLINE
  5
48F
100
AcDbEntity
  8
0
100
AcDbSpline
 62
7
  6
CONTINUOUS
 70
0
 71
3
 72
18
 73
14
 74
0
 42
0.0000001
 43
0.0000001
 44
0.0000000001
 40
0.0
 40
0.0
 40
0.0
 40
0.0
 40
0.1249458796
 40
0.1874897401
 40
0.2500381714
 40
0.3125847247
 40
0.3751317294
 40
0.4376791834
 40
0.5002255569
 40
0.6251683365
 40
0.7501116472
 40
0.8750534378
 40
1.0
 40
1.0
 40
1.0
 40
1.0
 10
7.4244937566
 20
2.8291594713
 30
0.0
 10
7.4244938144
 20
2.8285082773
 30
0.0
 10
7.4245898951
 20
2.8275276148
 30
0.0
 10
7.4249053671
 20
2.8262617677
 30
0.0
 10
7.425234325
 20
2.82533901
 30
0.0
 10
7.4256520061
 20
2.8244530205
 30
0.0
 10
7.4261550594
 20
2.8236125469
 30
0.0
 10
7.4267380014
 20
2.8228252839
 30
0.0
 10
7.4276140321
 20
2.8218581722
 30
0.0
 10
7.4288819019
 20
2.8208181979
 30
0.0
 10
7.4306169144
 20
2.8198934839
 30
0.0
 10
7.4324985641
 20
2.8193251423
 30
0.0
 10
7.433804506
 20
2.8191975528
 30
0.0
 10
7.4344557035
 20
2.8191975243
 30
0.0
  0
SPLINE
  5
490
100
AcDbEntity
  8
0
100
AcDbSpline
 62
7
  6
CONTINUOUS
 70
0
 71
3
 72
18
 73
14
 74
0
 42
0.0000001
 43
0.0000001
 44
0.0000000001
 40
0.0
 40
0.0
 40
0.0
 40
0.0
 40
0.1249458796
 40
0.1874897401
 40
0.2500381714
 40
0.3125847247
 40
0.3751317294
 40
0.4376791834
 40
0.5002255569
 40
0.6251683365
 40
0.7501116472
 40
0.8750534378
 40
1.0
 40
1.0
 40
1.0
 40
1.0
 10
7.4106942144
 20
2.8191975243
 30
0.0
 10
7.4113454084
 20
2.8191975822
 30
0.0
 10
7.4123260708
 20
2.8192936629
 30
0.0
 10
7.413591918
 20
2.8196091348
 30
0.0
 10
7.4145146757
 20
2.8199380928
 30
0.0
 10
7.4154006652
 20
2.8203557738
 30
0.0
 10
7.4162411388
 20
2.8208588271
 30
0.0
 10
7.4170284017
 20
2.8214417691
 30
0.0
 10
7.4179955134
 20
2.8223177998
 30
0.0
 10
7.4190354878
 20
2.8235856696
 30
0.0
 10
7.4199602018
 20
2.8253206821
 30
0.0
 10
7.4205285434
 20
2.8272023318
 30
0.0
 10
7.4206561329
 20
2.8285082737
 30
0.0
 10
7.4206561614
 20
2.8291594713
 30
0.0
  0
SPLINE
  5
491
100
AcDbEntity
  8
0
100
AcDbSpline
 62
7
  6
CONTINUOUS
 70
0
 71
3
 72
18
 73
14
 74
0
 42
0.0000001
 43
0.0000001
 44
0.0000000001
 40
0.0
 40
0.0
 40
0.0
 40
0.0
 40
0.1249458796
 40
0.1874897401
 40
0.2500381714
 40
0.3125847247
 40
0.3751317294
 40
0.4376791834
 40
0.5002255569
 40
0.6251683365
 40
0.7501116472
 40
0.8750534378
 40
1.0
 40
1.0
 40
1.0
 40
1.0
 10
7.4206561614
 20
2.8053979821
 30
0.0
 10
7.4206561035
 20
2.8060491762
 30
0.0
 10
7.4205600228
 20
2.8070298386
 30
0.0
 10
7.4202445508
 20
2.8082956857
 30
0.0
 10
7.4199155929
 20
2.8092184435
 30
0.0
 10
7.4194979118
 20
2.8101044329
 30
0.0
 10
7.4189948586
 20
2.8109449065
 30
0.0
 10
7.4184119166
 20
2.8117321695
 30
0.0
 10
7.4175358858
 20
2.8126992812
 30
0.0
 10
7.4162680161
 20
2.8137392555
 30
0.0
 10
7.4145330035
 20
2.8146639695
 30
0.0
 10
7.4126513539
 20
2.8152323111
 30
0.0
 10
7.411345412
 20
2.8153599006
 30
0.0
 10
7.4106942144
 20
2.8153599291
 30
0.0
  0
SPLINE
  5
492
100
AcDbEntity
  8
0
100
AcDbSpline
 62
7
  6
CONTINUOUS
 70
0
 71
3
 72
23
 73
19
 74
0
 42
0.0000001
 43
0.0000001
 44
0.0000000001
 40
0.0
 40
0.0
 40
0.0
 40
0.0
 40
0.0668767356
 40
0.1335517014
 40
0.1998817118
 40
0.2657317712
 40
0.3309831637
 40
0.395535824
 40
0.4593127903
 40
0.522263394
 40
0.5843660725
 40
0.6456303093
 40
0.7060975426
 40
0.7658408709
 40
0.8249631174
 40
0.8835940127
 40
0.9418837744
 40
1.0
 40
1.0
 40
1.0
 40
1.0
 10
7.6667382565
 20
4.683331362
 30
0.0
 10
7.6667212546
 20
4.685220901
 30
0.0
 10
7.6668447788
 20
4.68899761
 30
0.0
 10
7.667501804
 20
4.6946133381
 30
0.0
 10
7.6686243955
 20
4.7001257251
 30
0.0
 10
7.6702023791
 20
4.705483537
 30
0.0
 10
7.6722213545
 20
4.7106375544
 30
0.0
 10
7.6746629399
 20
4.7155402351
 30
0.0
 10
7.6775048705
 20
4.7201463336
 30
0.0
 10
7.6807212182
 20
4.7244132491
 30
0.0
 10
7.6842825957
 20
4.7283014202
 30
0.0
 10
7.6881564047
 20
4.7317746751
 30
0.0
 10
7.6923070883
 20
4.7348005725
 30
0.0
 10
7.696696447
 20
4.7373507075
 30
0.0
 10
7.7012838575
 20
4.7394010362
 30
0.0
 10
7.7060269654
 20
4.7409320972
 30
0.0
 10
7.7108808161
 20
4.7419293317
 30
0.0
 10
7.7141639248
 20
4.7422321195
 30
0.0
 10
7.7158049163
 20
4.7422920521
 30
0.0
  0
SPLINE
  5
493
100
AcDbEntity
  8
0
100
AcDbSpline
 62
7
  6
CONTINUOUS
 70
0
 71
3
 72
23
 73
19
 74
0
 42
0.0000001
 43
0.0000001
 44
0.0000000001
 40
0.0
 40
0.0
 40
0.0
 40
0.0
 40
0.066678697
 40
0.1332509203
 40
0.1995650911
 40
0.2654750479
 40
0.3308483141
 40
0.3955687262
 40
0.4595412119
 40
0.5226954026
 40
0.5849889835
 40
0.646410297
 40
0.7069800528
 40
0.7667519534
 40
0.8258117592
 40
0.8842754732
 40
0.9422838531
 40
1.0
 40
1.0
 40
1.0
 40
1.0
 10
7.6655465783
 20
4.683331362
 30
0.0
 10
7.6655638437
 20
4.685222311
 30
0.0
 10
7.6657554295
 20
4.6890016362
 30
0.0
 10
7.6665110798
 20
4.6946169754
 30
0.0
 10
7.6677280683
 20
4.7001288542
 30
0.0
 10
7.6693953188
 20
4.7054860587
 30
0.0
 10
7.671497589
 20
4.7106393924
 30
0.0
 10
7.6740157089
 20
4.7155413431
 30
0.0
 10
7.6769266928
 20
4.7201467029
 30
0.0
 10
7.6802039677
 20
4.7244129161
 30
0.0
 10
7.6838175884
 20
4.728300472
 30
0.0
 10
7.6877344942
 20
4.7317732507
 30
0.0
 10
7.6919187686
 20
4.7347988581
 30
0.0
 10
7.6963319598
 20
4.7373489221
 30
0.0
 10
7.7009332955
 20
4.7393994076
 30
0.0
 10
7.7056803715
 20
4.7409308306
 30
0.0
 10
7.710528257
 20
4.7419285763
 30
0.0
 10
7.7138041902
 20
4.7422320578
 30
0.0
 10
7.7154399376
 20
4.7422920521
 30
0.0
  0
SPLINE
  5
494
100
AcDbEntity
  8
0
100
AcDbSpline
 62
7
  6
CONTINUOUS
 70
0
 71
3
 72
18
 73
14
 74
0
 42
0.0000001
 43
0.0000001
 44
0.0000000001
 40
0.0
 40
0.0
 40
0.0
 40
0.0
 40
0.1293961214
 40
0.1940247047
 40
0.2584315957
 40
0.3861136991
 40
0.5121301511
 40
0.6363015431
 40
0.7587157221
 40
0.8194260113
 40
0.8798284165
 40
0.9400000181
 40
1.0
 40
1.0
 40
1.0
 40
1.0
 10
7.4781708194
 20
2.8207341807
 30
0.0
 10
7.4781688368
 20
2.8214335479
 30
0.0
 10
7.4780633708
 20
2.8224855088
 30
0.0
 10
7.4777260611
 20
2.8238425046
 30
0.0
 10
7.4772644739
 20
2.8251530049
 30
0.0
 10
7.4764647463
 20
2.8266874955
 30
0.0
 10
7.4751911022
 20
2.8282992605
 30
0.0
 10
7.4736595194
 20
2.8296250352
 30
0.0
 10
7.4722112548
 20
2.8304604981
 30
0.0
 10
7.4709866129
 20
2.8309475228
 30
0.0
 10
7.470043841
 20
2.8312203423
 30
0.0
 10
7.4690828842
 20
2.8313991445
 30
0.0
 10
7.4684344973
 20
2.8314547573
 30
0.0
 10
7.4681104139
 20
2.8314663982
 30
0.0
  0
SPLINE
  5
495
100
AcDbEntity
  8
0
100
AcDbSpline
 62
7
  6
CONTINUOUS
 70
0
 71
3
 72
18
 73
14
 74
0
 42
0.0000001
 43
0.0000001
 44
0.0000000001
 40
0.0
 40
0.0
 40
0.0
 40
0.0
 40
0.1200278124
 40
0.1804291643
 40
0.2411398417
 40
0.3022125036
 40
0.3636946406
 40
0.4878665176
 40
0.6138841173
 40
0.7415672539
 40
0.8059742817
 40
0.8706033222
 40
1.0
 40
1.0
 40
1.0
 40
1.0
 10
7.4367626305
 20
2.8628141816
 30
0.0
 10
7.4367392927
 20
2.8634624927
 30
0.0
 10
7.4366063439
 20
2.8644369454
 30
0.0
 10
7.4362438294
 20
2.8656902472
 30
0.0
 10
7.4358793078
 20
2.8666067535
 30
0.0
 10
7.4354257706
 20
2.8674890858
 30
0.0
 10
7.4347047783
 20
2.8686128845
 30
0.0
 10
7.4335953741
 20
2.8698951658
 30
0.0
 10
7.4319837886
 20
2.8711684804
 30
0.0
 10
7.4304492251
 20
2.8719682308
 30
0.0
 10
7.4291387397
 20
2.8724298342
 30
0.0
 10
7.4277817235
 20
2.872767057
 30
0.0
 10
7.4267297783
 20
2.8728725803
 30
0.0
 10
7.426030413
 20
2.8728745871
 30
0.0
  0
SPLINE
  5
496
100
AcDbEntity
  8
0
100
AcDbSpline
 62
7
  6
CONTINUOUS
 70
0
 71
3
 72
18
 73
14
 74
0
 42
0.0000001
 43
0.0000001
 44
0.0000000001
 40
0.0
 40
0.0
 40
0.0
 40
0.0
 40
0.1293961229
 40
0.194024706
 40
0.2584315981
 40
0.3861137031
 40
0.5121301463
 40
0.6363015421
 40
0.7587157237
 40
0.8194260117
 40
0.8798284169
 40
0.9400000178
 40
1.0
 40
1.0
 40
1.0
 40
1.0
 10
7.419119505
 20
2.8728745871
 30
0.0
 10
7.4184201378
 20
2.8728726047
 30
0.0
 10
7.4173681767
 20
2.8727671392
 30
0.0
 10
7.4160111811
 20
2.8724298288
 30
0.0
 10
7.4147006808
 20
2.8719682415
 30
0.0
 10
7.41316619
 20
2.8711685143
 30
0.0
 10
7.4115544256
 20
2.8698948696
 30
0.0
 10
7.4102286502
 20
2.8683632874
 30
0.0
 10
7.4093931876
 20
2.8669150225
 30
0.0
 10
7.4089061627
 20
2.8656903807
 30
0.0
 10
7.4086333435
 20
2.8647476087
 30
0.0
 10
7.4084545412
 20
2.8637866519
 30
0.0
 10
7.4083989284
 20
2.8631382651
 30
0.0
 10
7.4083872875
 20
2.8628141816
 30
0.0
  0
SPLINE
  5
497
100
AcDbEntity
  8
0
100
AcDbSpline
 62
7
  6
CONTINUOUS
 70
0
 71
3
 72
18
 73
14
 74
0
 42
0.0000001
 43
0.0000001
 44
0.0000000001
 40
0.0
 40
0.0
 40
0.0
 40
0.0
 40
0.1200278113
 40
0.1804291646
 40
0.2411398441
 40
0.3022125049
 40
0.3636946413
 40
0.4878665183
 40
0.6138841174
 40
0.7415672541
 40
0.8059742821
 40
0.8706033221
 40
1.0
 40
1.0
 40
1.0
 40
1.0
 10
7.3770395041
 20
2.8314663982
 30
0.0
 10
7.376391193
 20
2.8314430605
 30
0.0
 10
7.3754167402
 20
2.8313101123
 30
0.0
 10
7.3741634385
 20
2.8309475972
 30
0.0
 10
7.3732469323
 20
2.8305830752
 30
0.0
 10
7.3723645999
 20
2.8301295383
 30
0.0
 10
7.3712408012
 20
2.8294085459
 30
0.0
 10
7.3699585199
 20
2.8282991418
 30
0.0
 10
7.3686852052
 20
2.8266875563
 30
0.0
 10
7.367885455
 20
2.8251529928
 30
0.0
 10
7.3674238515
 20
2.8238425074
 30
0.0
 10
7.3670866285
 20
2.8224854913
 30
0.0
 10
7.3669811054
 20
2.821433546
 30
0.0
 10
7.3669790986
 20
2.8207341807
 30
0.0
  0
LINE
  5
498
100
AcDbEntity
  8
0
100
AcDbLine
 62
7
  6
CONTINUOUS
 10
7.4237666371
 20
4.683331362
 11
7.4229399376
 21
4.7422920521
  0
SPLINE
  5
499
100
AcDbEntity
  8
0
100
AcDbSpline
 62
7
  6
CONTINUOUS
 70
0
 71
3
 72
18
 73
14
 74
0
 42
0.0000001
 43
0.0000001
 44
0.0000000001
 40
0.0
 40
0.0
 40
0.0
 40
0.0
 40
0.1293961214
 40
0.1940247047
 40
0.2584315957
 40
0.3861136991
 40
0.5121301511
 40
0.6363015431
 40
0.7587157221
 40
0.8194260113
 40
0.8798284165
 40
0.9400000181
 40
1.0
 40
1.0
 40
1.0
 40
1.0
 10
7.3669790986
 20
2.8138232727
 30
0.0
 10
7.3669810811
 20
2.8131239056
 30
0.0
 10
7.3670865472
 20
2.8120719446
 30
0.0
 10
7.3674238568
 20
2.8107149488
 30
0.0
 10
7.367885444
 20
2.8094044485
 30
0.0
 10
7.3686851716
 20
2.8078699579
 30
0.0
 10
7.3699588157
 20
2.8062581929
 30
0.0
 10
7.3714903985
 20
2.8049324183
 30
0.0
 10
7.3729386632
 20
2.8040969553
 30
0.0
 10
7.3741633051
 20
2.8036099306
 30
0.0
 10
7.375106077
 20
2.8033371111
 30
0.0
 10
7.3760670337
 20
2.8031583089
 30
0.0
 10
7.3767154206
 20
2.8031026961
 30
0.0
 10
7.3770395041
 20
2.8030910552
 30
0.0
  0
SPLINE
  5
49A
100
AcDbEntity
  8
0
100
AcDbSpline
 62
7
  6
CONTINUOUS
 70
0
 71
3
 72
18
 73
14
 74
0
 42
0.0000001
 43
0.0000001
 44
0.0000000001
 40
0.0
 40
0.0
 40
0.0
 40
0.0
 40
0.1200278124
 40
0.1804291643
 40
0.2411398417
 40
0.3022125036
 40
0.3636946406
 40
0.4878665176
 40
0.6138841173
 40
0.7415672539
 40
0.8059742817
 40
0.8706033222
 40
1.0
 40
1.0
 40
1.0
 40
1.0
 10
7.4083872875
 20
2.7717432718
 30
0.0
 10
7.4084106253
 20
2.7710949607
 30
0.0
 10
7.408543574
 20
2.770120508
 30
0.0
 10
7.4089060885
 20
2.7688672062
 30
0.0
 10
7.4092706102
 20
2.7679506999
 30
0.0
 10
7.4097241474
 20
2.7670683676
 30
0.0
 10
7.4104451397
 20
2.7659445689
 30
0.0
 10
7.4115545438
 20
2.7646622876
 30
0.0
 10
7.4131661294
 20
2.763388973
 30
0.0
 10
7.4147006929
 20
2.7625892226
 30
0.0
 10
7.4160111782
 20
2.7621276192
 30
0.0
 10
7.4173681945
 20
2.7617903964
 30
0.0
 10
7.4184201397
 20
2.7616848731
 30
0.0
 10
7.419119505
 20
2.7616828663
 30
0.0
  0
SPLINE
  5
49B
100
AcDbEntity
  8
0
100
AcDbSpline
 62
7
  6
CONTINUOUS
 70
0
 71
3
 72
18
 73
14
 74
0
 42
0.0000001
 43
0.0000001
 44
0.0000000001
 40
0.0
 40
0.0
 40
0.0
 40
0.0
 40
0.1293961229
 40
0.194024706
 40
0.2584315981
 40
0.3861137031
 40
0.5121301463
 40
0.6363015421
 40
0.7587157237
 40
0.8194260117
 40
0.8798284169
 40
0.9400000178
 40
1.0
 40
1.0
 40
1.0
 40
1.0
 10
7.426030413
 20
2.7616828663
 30
0.0
 10
7.4267297801
 20
2.7616848487
 30
0.0
 10
7.4277817412
 20
2.7617903142
 30
0.0
 10
7.4291387368
 20
2.7621276246
 30
0.0
 10
7.4304492371
 20
2.7625892119
 30
0.0
 10
7.431983728
 20
2.7633889391
 30
0.0
 10
7.4335954924
 20
2.7646625838
 30
0.0
 10
7.4349212678
 20
2.766194166
 30
0.0
 10
7.4357567304
 20
2.7676424309
 30
0.0
 10
7.4362437552
 20
2.7688670728
 30
0.0
 10
7.4365165745
 20
2.7698098447
 30
0.0
 10
7.4366953767
 20
2.7707708015
 30
0.0
 10
7.4367509896
 20
2.7714191884
 30
0.0
 10
7.4367626305
 20
2.7717432718
 30
0.0
  0
SPLINE
  5
49C
100
AcDbEntity
  8
0
100
AcDbSpline
 62
7
  6
CONTINUOUS
 70
0
 71
3
 72
18
 73
14
 74
0
 42
0.0000001
 43
0.0000001
 44
0.0000000001
 40
0.0
 40
0.0
 40
0.0
 40
0.0
 40
0.1200278113
 40
0.1804291646
 40
0.2411398441
 40
0.3022125049
 40
0.3636946413
 40
0.4878665183
 40
0.6138841174
 40
0.7415672541
 40
0.8059742821
 40
0.8706033221
 40
1.0
 40
1.0
 40
1.0
 40
1.0
 10
7.4681104139
 20
2.8030910552
 30
0.0
 10
7.468758725
 20
2.803114393
 30
0.0
 10
7.4697331778
 20
2.8032473411
 30
0.0
 10
7.4709864795
 20
2.8036098562
 30
0.0
 10
7.4719029856
 20
2.8039743782
 30
0.0
 10
7.472785318
 20
2.8044279151
 30
0.0
 10
7.4739091167
 20
2.8051489075
 30
0.0
 10
7.475191398
 20
2.8062583116
 30
0.0
 10
7.4764647127
 20
2.8078698971
 30
0.0
 10
7.477264463
 20
2.8094044607
 30
0.0
 10
7.4777260665
 20
2.810714946
 30
0.0
 10
7.4780632895
 20
2.8120719622
 30
0.0
 10
7.4781688126
 20
2.8131239074
 30
0.0
 10
7.4781708194
 20
2.8138232727
 30
0.0
  0
ENDSEC
  0
SECTION
  2
OBJECTS
  0
DICTIONARY
  5
C
100
AcDbDictionary
280
0
281
1
  3
ACAD_GROUP
350
D
  3
ACAD_MLINESTYLE
350
17
  3
ACAD_LAYOUT
350
1A
  3
ACAD_PLOTSETTINGS
350
19
  3
ACAD_PLOTSTYLENAME
350
E
  0
DICTIONARY
  5
D
102
{ACAD_REACTORS
330
C
102
}
100
AcDbDictionary
280
0
281
1
  0
ACDBDICTIONARYWDFLT
  5
E
102
{ACAD_REACTORS
330
C
102
}
100
AcDbDictionary
281
1
  3
Normal
350
F
100
AcDbDictionaryWithDefault
340
F
  0
DICTIONARY
  5
17
102
{ACAD_REACTORS
330
C
102
}
100
AcDbDictionary
280
0
281
1
  3
Standard
350
18
  0
DICTIONARY
  5
19
102
{ACAD_REACTORS
330
C
102
}
100
AcDbDictionary
281
1
  0
DICTIONARY
  5
1A
102
{ACAD_REACTORS
330
C
102
}
100
AcDbDictionary
281
1
  3
Model
350
49D
  3
Layout1
350
49E
  0
ACDBPLACEHOLDER
  5
F
102
{ACAD_REACTORS
330
E
102
}
  0
MLINESTYLE
  5
18
102
{ACAD_REACTORS
330
17
102
}
100
AcDbMlineStyle
  2
STANDARD
 70
0
  3

 62
256
 51
90.0
 52
90.0
 71
2
 49
0.5
 62
256
  6
BYLAYER
 49
-0.5
 62
256
  6
BYLAYER
  0
LAYOUT
  5
49D
102
{ACAD_REACTORS
330
1A
102
}
100
AcDbPlotSettings
  1

  2
none_device
  4
ANSI_A_(11.00_x_8.50_Inches)
  6

 40
0.0
 41
0.0
 42
0.0
 43
0.0
 44
279.4
 45
215.9
 46
0.0
 47
0.0
 48
0.0
 49
0.0
140
0.0
141
0.0
142
1.0
143
1.0
 70
1024
 72
0
 73
0
 74
0
  7

 75
0
147
1.0
148
0.0
149
0.0
100
AcDbLayout
  1
Model
 70
0
 71
0
 10
0.0
 20
0.0
 11
11.0
 21
8.5
 12
0.0
 22
0.0
 32
0.0
 14
0.0
 24
0.0
 34
0.0
 15
0.0
 25
0.0
 35
0.0
146
0.0
 13
0.0
 23
0.0
 33
0.0
 16
1.0
 26
0.0
 36
0.0
 17
0.0
 27
1.0
 37
0.0
 76
0
330
202
345
0
346
0
  0
LAYOUT
  5
49E
102
{ACAD_REACTORS
330
1A
102
}
100
AcDbPlotSettings
  1

  2
none_device
  4
ANSI_A_(11.00_x_8.50_Inches)
  6

 40
0.0
 41
0.0
 42
0.0
 43
0.0
 44
279.4
 45
215.9
 46
0.0
 47
0.0
 48
0.0
 49
0.0
140
0.0
141
0.0
142
1.0
143
1.0
 70
0
 72
0
 73
0
 74
0
  7

 75
0
147
1.0
148
0.0
149
0.0
100
AcDbLayout
  1
Layout1
 70
0
 71
1
 10
0.0
 20
0.0
 11
11.0
 21
8.5
 12
0.0
 22
0.0
 32
0.0
 14
0.0
 24
0.0
 34
0.0
 15
0.0
 25
0.0
 35
0.0
146
0.0
 13
0.0
 23
0.0
 33
0.0
 16
1.0
 26
0.0
 36
0.0
 17
0.0
 27
1.0
 37
0.0
 76
0
330
203
345
0
346
0
  0
ENDSEC
  0
EOF
