999
DXF file: 3220-5403_top.dxf
999
Pro/ENGINEER 2018400 by Parametric Technology Corporation
  0
SECTION
  2
HEADER
  9
$ACADVER
  1
AC1027
  9
$DWGCODEPAGE
  3
ANSI_1252
  9
$EXTMAX
 10
11.0
 20
8.5
 30
0.0
  9
$EXTMIN
 10
0.0
 20
0.0
 30
0.0
  9
$LIMMIN
 10
0.0
 20
0.0
  9
$LIMMAX
 10
11.0
 20
8.5
  9
$VIEWCTR
 10
5.5
 20
4.25
  9
$VIEWSIZE
 40
8.5
  9
$CLAYER
  8
0
  9
$LTSCALE
 40
0.605
  9
$CELTYPE
  6
BYLAYER
  9
$DIMSCALE
 40
1.0
  9
$DIMASZ
 40
0.1
  9
$DIMEXO
 40
0.0625
  9
$DIMDLI
 40
0.418
  9
$DIMEXE
 40
0.125
  9
$DIMCEN
 40
0.099
  9
$DIMLFAC
 40
1.0
  9
$DIMBLK
  1
_FILLED
  9
$DIMALT
 70
1
  9
$DIMALTD
 70
1
  9
$DIMALTTD
 70
2
  9
$DIMALTF
 40
25.4
  9
$DIMTXT
 40
0.08
  9
$DIMTOL
 70
1
  9
$DIMLIM
 70
0
  9
$DIMTFAC
 40
1.0
  9
$DIMTP
 40
0.01
  9
$DIMTM
 40
0.01
  9
$DIMGAP
 40
0.09
  9
$DIMDSEP
 70
46
  9
$AUNITS
 70
0
  9
$PDMODE
 70
3
  9
$PDSIZE
 40
0.3125
  9
$HANDSEED
  5
492
  9
$TILEMODE
 70
1
  9
$MEASUREMENT
 70
0
  9
$INSUNITS
 70
1
  0
ENDSEC
  0
SECTION
  2
CLASSES
  0
CLASS
  1
ACDBDICTIONARYWDFLT
  2
AcDbDictionaryWithDefault
  3
AutoCAD 2000
 90
0
 91
1
280
0
281
0
  0
CLASS
  1
ACDBPLACEHOLDER
  2
AcDbPlaceHolder
  3
AutoCAD 2000
 90
0
 91
1
280
0
281
0
  0
CLASS
  1
LAYOUT
  2
AcDbLayout
  3
AutoCAD 2000
 90
0
 91
0
280
0
281
0
  0
ENDSEC
  0
SECTION
  2
TABLES
  0
TABLE
  2
VPORT
  5
8
100
AcDbSymbolTable
 70
2
  0
VPORT
  5
1F4
100
AcDbSymbolTableRecord
100
AcDbViewportTableRecord
  2
*ACTIVE
 70
0
 10
0.0
 20
0.0
 11
1.0
 21
1.0
 12
5.5
 22
4.25
 13
0.0
 23
0.0
 14
1.0
 24
1.0
 15
0.0
 25
0.0
 16
0.0
 26
0.0
 36
1.0
 17
0.0
 27
0.0
 37
0.0
 40
8.5
 41
1.2941176471
 42
50.0
 43
0.0
 44
0.0
 50
0.0
 51
0.0
 71
0
 72
100
 73
1
 74
1
 75
0
 76
0
 77
0
 78
0
  0
ENDTAB
  0
TABLE
  2
LTYPE
  5
5
100
AcDbSymbolTable
 70
6
  0
LTYPE
  5
14
100
AcDbSymbolTableRecord
100
AcDbLinetypeTableRecord
  2
BYBLOCK
 70
0
  3

 72
65
 73
0
 40
0.0
  0
LTYPE
  5
15
100
AcDbSymbolTableRecord
100
AcDbLinetypeTableRecord
  2
BYLAYER
 70
0
  3

 72
65
 73
0
 40
0.0
  0
LTYPE
  5
16
100
AcDbSymbolTableRecord
100
AcDbLinetypeTableRecord
  2
CONTINUOUS
 70
64
  3
Solid line
 72
65
 73
0
 40
0.0
  0
LTYPE
  5
1F5
100
AcDbSymbolTableRecord
100
AcDbLinetypeTableRecord
  2
CENTER
 70
64
  3
____ _ ____ _ ____ _ ____ _ ____ _ ____ _ ____
 72
65
 73
4
 40
0.6
 49
0.375
 74
0
 49
-0.075
 74
0
 49
0.075
 74
0
 49
-0.075
 74
0
  0
LTYPE
  5
1F6
100
AcDbSymbolTableRecord
100
AcDbLinetypeTableRecord
  2
HIDDEN
 70
64
  3
- - - - - - - - - - - - - - - - - - - -
 72
65
 73
2
 40
0.2
 49
0.1
 74
0
 49
-0.1
 74
0
  0
LTYPE
  5
1F7
100
AcDbSymbolTableRecord
100
AcDbLinetypeTableRecord
  2
PHANTOM
 70
64
  3
_____ _ _ _____ _ _ _____ _ _ _____
 72
65
 73
6
 40
0.8
 49
0.45
 74
0
 49
-0.05
 74
0
 49
0.1
 74
0
 49
-0.05
 74
0
 49
0.1
 74
0
 49
-0.05
 74
0
  0
LTYPE
  5
1F8
100
AcDbSymbolTableRecord
100
AcDbLinetypeTableRecord
  2
DOT
 70
64
  3
. . . . . . . . . . . . . . . . . . . .
 72
65
 73
2
 40
0.2
 49
0.1
 74
0
 49
-0.1
 74
0
  0
LTYPE
  5
1F9
100
AcDbSymbolTableRecord
100
AcDbLinetypeTableRecord
  2
DASHED
 70
64
  3
- - - - - - - - - - - - - - - - - - - -
 72
65
 73
2
 40
0.2
 49
0.1
 74
0
 49
-0.1
 74
0
  0
ENDTAB
  0
TABLE
  2
LAYER
  5
2
100
AcDbSymbolTable
 70
36
  0
LAYER
  5
10
100
AcDbSymbolTableRecord
100
AcDbLayerTableRecord
  2
0
 70
0
 62
7
  6
CONTINUOUS
370
-3
390
F
  0
LAYER
  5
1FA
100
AcDbSymbolTableRecord
100
AcDbLayerTableRecord
  2
DEFAULT_1
 70
0
 62
7
  6
CENTER
370
-3
390
F
  0
LAYER
  5
1FB
100
AcDbSymbolTableRecord
100
AcDbLayerTableRecord
  2
DEFAULT_2
 70
0
 62
8
  6
HIDDEN
370
-3
390
F
  0
LAYER
  5
1FC
100
AcDbSymbolTableRecord
100
AcDbLayerTableRecord
  2
DEFAULT_3
 70
0
 62
7
  6
PHANTOM
370
-3
390
F
  0
LAYER
  5
1FD
100
AcDbSymbolTableRecord
100
AcDbLayerTableRecord
  2
DEFAULT_COORDINATE_SYSTEM
 70
0
 62
7
  6
CONTINUOUS
370
-3
390
F
  0
LAYER
  5
1FE
100
AcDbSymbolTableRecord
100
AcDbLayerTableRecord
  2
DEFAULT_DATUM_AXES
 70
0
 62
7
  6
CONTINUOUS
370
-3
390
F
  0
LAYER
  5
1FF
100
AcDbSymbolTableRecord
100
AcDbLayerTableRecord
  2
DEFAULT_DATUM_PLANES
 70
0
 62
7
  6
CONTINUOUS
370
-3
390
F
  0
ENDTAB
  0
TABLE
  2
STYLE
  5
3
100
AcDbSymbolTable
 70
1
  0
STYLE
  5
11
100
AcDbSymbolTableRecord
100
AcDbTextStyleTableRecord
  2
STANDARD
 70
0
 40
0.0
 41
0.8
 50
0.0
 71
0
 42
0.2
  3
txt
  4

  0
STYLE
  5
200
100
AcDbSymbolTableRecord
100
AcDbTextStyleTableRecord
  2
TEXTSTYLE_1
 70
0
 40
0.0
 41
0.8
 50
0.0
 71
0
 42
0.2
  3
gdt
  4

  0
ENDTAB
  0
TABLE
  2
VIEW
  5
6
100
AcDbSymbolTable
 70
0
  0
ENDTAB
  0
TABLE
  2
UCS
  5
7
100
AcDbSymbolTable
 70
0
  0
ENDTAB
  0
TABLE
  2
APPID
  5
9
100
AcDbSymbolTable
 70
1
  0
APPID
  5
201
100
AcDbSymbolTableRecord
100
AcDbRegAppTableRecord
  2
ACAD
 70
0
  0
ENDTAB
  0
TABLE
  2
BLOCK_RECORD
  5
1
100
AcDbSymbolTable
 70
0
  0
BLOCK_RECORD
  5
202
100
AcDbSymbolTableRecord
100
AcDbBlockTableRecord
  2
*Model_Space
  0
BLOCK_RECORD
  5
203
100
AcDbSymbolTableRecord
100
AcDbBlockTableRecord
  2
*Paper_Space
  0
BLOCK_RECORD
  5
204
100
AcDbSymbolTableRecord
100
AcDbBlockTableRecord
  2
_FILLED
  0
ENDTAB
  0
TABLE
  2
DIMSTYLE
  5
A
100
AcDbSymbolTable
 70
1
100
AcDbDimStyleTable
 71
0
  0
DIMSTYLE
105
205
100
AcDbSymbolTableRecord
100
AcDbDimStyleTableRecord
  2
STANDARD
 70
0
  3

  4

 40
1.0
 41
0.1
 42
0.0625
 43
0.38
 44
0.125
 45
0.0
 46
0.0
 47
0.01
 48
0.01
140
0.08
141
0.09
142
0.0
143
25.4
144
1.0
145
0.0
146
1.0
147
0.09
 71
1.0
 72
0.0
 73
1
 74
1
 75
0
 76
0
 77
0
 78
4
 79
1
170
1
171
1
172
0
173
0
174
0
175
0
176
0
177
0
178
0
270
2
179
2
271
2
272
2
273
2
274
2
275
0
280
0
281
0
282
0
283
1
284
4
285
0
286
0
287
3
288
0
340
11
278
46
341
204
342
204
343
204
344
204
  0
ENDTAB
  0
ENDSEC
  0
SECTION
  2
BLOCKS
  0
BLOCK
  5
20
100
AcDbEntity
  8
0
100
AcDbBlockBegin
  2
*Model_Space
 70
0
 10
0.0
 20
0.0
 30
0.0
  3
*Model_Space
  1

  0
ENDBLK
  5
21
100
AcDbEntity
  8
0
100
AcDbBlockEnd
  0
BLOCK
  5
1C
100
AcDbEntity
  8
0
100
AcDbBlockBegin
  2
*Paper_Space
 70
0
 10
0.0
 20
0.0
 30
0.0
  3
*Paper_Space
  1

  0
ENDBLK
  5
1D
100
AcDbEntity
  8
0
100
AcDbBlockEnd
  0
BLOCK
  5
206
100
AcDbEntity
  8
0
100
AcDbBlockBegin
  2
_FILLED
 70
64
 10
0.0
 20
0.0
  3
_FILLED
  1

  0
SOLID
  5
207
100
AcDbEntity
  8
0
  6
BYBLOCK
 62
0
100
AcDbTrace
 10
0.0
 20
0.0
 11
-1.0
 21
0.2
 12
-1.0
 22
-0.2
 13
-1.0
 23
-0.2
  0
ENDBLK
  5
208
100
AcDbEntity
  8
0
  6
BYBLOCK
 62
0
100
AcDbBlockEnd
  0
ENDSEC
  0
SECTION
  2
ENTITIES
  0
MTEXT
  5
209
100
AcDbEntity
  8
0
100
AcDbMText
 62
2
  6
CONTINUOUS
  7
STANDARD
 71
3
 72
1
 10
5.0157608696
 20
1.1042146373
 30
0.0
 11
1.0
 21
0.0
 31
0.0
 73
2
 44
0.9
  1
SCALE  .500
 40
0.08
 41
0.704
  0
LINE
  5
20A
100
AcDbEntity
  8
0
100
AcDbLine
 62
7
  6
CONTINUOUS
 10
0.0
 20
0.0
 11
0.0
 21
8.5
  0
LINE
  5
20B
100
AcDbEntity
  8
0
100
AcDbLine
 62
7
  6
CONTINUOUS
 10
0.0
 20
0.0
 11
11.0
 21
0.0
  0
LINE
  5
20C
100
AcDbEntity
  8
0
100
AcDbLine
 62
7
  6
CONTINUOUS
 10
0.0
 20
8.5
 11
11.0
 21
8.5
  0
LINE
  5
20D
100
AcDbEntity
  8
0
100
AcDbLine
 62
7
  6
CONTINUOUS
 10
11.0
 20
0.0
 11
11.0
 21
8.5
  0
LINE
  5
20E
100
AcDbEntity
  8
0
100
AcDbLine
 62
7
  6
CONTINUOUS
 10
1.3953679765
 20
6.6247041532
 11
1.3953687548
 21
6.6247069632
  0
LWPOLYLINE
  5
20F
100
AcDbEntity
  8
0
100
AcDbPolyline
 62
7
  6
CONTINUOUS
 90
4
 70
0
 10
1.3953704342
 20
6.6247129326
 10
1.3953690413
 20
6.6247082191
 10
1.3953665192
 20
6.6246998322
 10
1.3953629057
 20
6.6246880138
  0
LINE
  5
210
100
AcDbEntity
  8
0
100
AcDbLine
 62
7
  6
CONTINUOUS
 10
1.3953629057
 20
6.6246880138
 11
1.3953521655
 21
6.6246537163
  0
LINE
  5
211
100
AcDbEntity
  8
0
100
AcDbLine
 62
7
  6
CONTINUOUS
 10
1.3953521655
 20
6.6246537163
 11
1.395337077
 21
6.62460683
  0
LINE
  5
212
100
AcDbEntity
  8
0
100
AcDbLine
 62
7
  6
CONTINUOUS
 10
1.395337077
 20
6.62460683
 11
1.3953176621
 21
6.6245479173
  0
LINE
  5
213
100
AcDbEntity
  8
0
100
AcDbLine
 62
7
  6
CONTINUOUS
 10
1.3953176621
 20
6.6245479173
 11
1.3952939016
 21
6.6244773036
  0
LINE
  5
214
100
AcDbEntity
  8
0
100
AcDbLine
 62
7
  6
CONTINUOUS
 10
1.3952939016
 20
6.6244773036
 11
1.3952658038
 21
6.624395313
  0
LINE
  5
215
100
AcDbEntity
  8
0
100
AcDbLine
 62
7
  6
CONTINUOUS
 10
1.3952658038
 20
6.624395313
 11
1.3952332801
 21
6.6243019183
  0
LINE
  5
216
100
AcDbEntity
  8
0
100
AcDbLine
 62
7
  6
CONTINUOUS
 10
1.3952332801
 20
6.6243019183
 11
1.3951759806
 21
6.6241402042
  0
LINE
  5
217
100
AcDbEntity
  8
0
100
AcDbLine
 62
7
  6
CONTINUOUS
 10
1.3952038396
 20
6.6242185906
 11
1.3951320173
 21
6.6240178972
  0
LINE
  5
218
100
AcDbEntity
  8
0
100
AcDbLine
 62
7
  6
CONTINUOUS
 10
1.3951320173
 20
6.6240178972
 11
1.3950575978
 21
6.623813359
  0
LINE
  5
219
100
AcDbEntity
  8
0
100
AcDbLine
 62
7
  6
CONTINUOUS
 10
1.3950575978
 20
6.623813359
 11
1.3949424134
 21
6.6235015821
  0
LINE
  5
21A
100
AcDbEntity
  8
0
100
AcDbLine
 62
7
  6
CONTINUOUS
 10
1.3949424134
 20
6.6235015821
 11
1.3948080189
 21
6.6231433635
  0
LINE
  5
21B
100
AcDbEntity
  8
0
100
AcDbLine
 62
7
  6
CONTINUOUS
 10
1.3948117527
 20
6.6231533032
 11
1.3946117769
 21
6.6226279128
  0
LINE
  5
21C
100
AcDbEntity
  8
0
100
AcDbLine
 62
7
  6
CONTINUOUS
 10
1.3946117769
 20
6.6226279128
 11
1.3943317756
 21
6.6219025824
  0
LINE
  5
21D
100
AcDbEntity
  8
0
100
AcDbLine
 62
7
  6
CONTINUOUS
 10
1.3943833122
 20
6.6220352966
 11
1.3940097145
 21
6.6210791179
  0
LINE
  5
21E
100
AcDbEntity
  8
0
100
AcDbLine
 62
7
  6
CONTINUOUS
 10
1.3940080729
 20
6.6210750505
 11
1.3935071769
 21
6.619810835
  0
LINE
  5
21F
100
AcDbEntity
  8
0
100
AcDbLine
 62
7
  6
CONTINUOUS
 10
1.3935071769
 20
6.619810835
 11
1.3927682489
 21
6.6179709757
  0
LINE
  5
220
100
AcDbEntity
  8
0
100
AcDbLine
 62
7
  6
CONTINUOUS
 10
1.3928649486
 20
6.6182104575
 11
1.3920564594
 21
6.6162219736
  0
LINE
  5
221
100
AcDbEntity
  8
0
100
AcDbLine
 62
7
  6
CONTINUOUS
 10
1.3920787836
 20
6.6162764389
 11
1.3919136418
 21
6.6158734584
  0
LINE
  5
222
100
AcDbEntity
  8
0
100
AcDbLine
 62
7
  6
CONTINUOUS
 10
1.3951521781
 20
6.5761403366
 11
1.3951776614
 21
6.5758374958
  0
LINE
  5
223
100
AcDbEntity
  8
0
100
AcDbLine
 62
7
  6
CONTINUOUS
 10
1.395175573
 20
6.5758650295
 11
1.395196912
 21
6.5755535383
  0
LINE
  5
224
100
AcDbEntity
  8
0
100
AcDbLine
 62
7
  6
CONTINUOUS
 10
1.3951950366
 20
6.5755852228
 11
1.3952119548
 21
6.5752657637
  0
LINE
  5
225
100
AcDbEntity
  8
0
100
AcDbLine
 62
7
  6
CONTINUOUS
 10
1.395210391
 20
6.5753017029
 11
1.3952226355
 21
6.5749748431
  0
LWPOLYLINE
  5
226
100
AcDbEntity
  8
0
100
AcDbPolyline
 62
7
  6
CONTINUOUS
 90
34
 70
0
 10
1.3952209635
 20
6.5668758521
 10
1.3952225145
 20
6.5668239167
 10
1.3952286965
 20
6.5665336977
 10
1.3952305999
 20
6.5662428478
 10
1.3952281349
 20
6.5659525876
 10
1.3952212791
 20
6.5656636964
 10
1.395210063
 20
6.5653768981
 10
1.3951945973
 20
6.5650933328
 10
1.3951750331
 20
6.5648136316
 10
1.3951515522
 20
6.5645385659
 10
1.3951243392
 20
6.5642693738
 10
1.3950935503
 20
6.564006648
 10
1.3950593652
 20
6.5637509212
 10
1.3950220803
 20
6.5635032604
 10
1.3949819496
 20
6.5632640949
 10
1.3949392721
 20
6.5630339301
 10
1.394894499
 20
6.5628138363
 10
1.3948479529
 20
6.5626041231
 10
1.3947999673
 20
6.562405105
 10
1.3947510668
 20
6.5622177075
 10
1.3947016291
 20
6.5620420756
 10
1.3946520679
 20
6.5618783977
 10
1.3946030324
 20
6.5617274752
 10
1.3945549814
 20
6.5615893272
 10
1.3945083441
 20
6.561463839
 10
1.3944637542
 20
6.5613513734
 10
1.3944217074
 20
6.5612518218
 10
1.3943825772
 20
6.561164752
 10
1.3943468253
 20
6.5610899196
 10
1.3943148997
 20
6.561027014
 10
1.3942872022
 20
6.5609756092
 10
1.3942641249
 20
6.5609352522
 10
1.3942460857
 20
6.5609055209
 10
1.3942431171
 20
6.5609008076
  0
LINE
  5
227
100
AcDbEntity
  8
0
100
AcDbLine
 62
7
  6
CONTINUOUS
 10
1.3952214927
 20
6.575015095
 11
1.3952288439
 21
6.574681917
  0
LINE
  5
228
100
AcDbEntity
  8
0
100
AcDbLine
 62
7
  6
CONTINUOUS
 10
1.3952282379
 20
6.5747265773
 11
1.3952305502
 21
6.5743877331
  0
LINE
  5
229
100
AcDbEntity
  8
0
100
AcDbLine
 62
7
  6
CONTINUOUS
 10
1.4086333812
 20
6.4951231836
 11
1.4086333812
 21
6.6455624487
  0
LINE
  5
22A
100
AcDbEntity
  8
0
100
AcDbLine
 62
7
  6
CONTINUOUS
 10
1.4164111146
 20
6.4914086321
 11
1.4164111146
 21
6.6492770002
  0
LINE
  5
22B
100
AcDbEntity
  8
0
100
AcDbLine
 62
7
  6
CONTINUOUS
 10
1.4302608696
 20
6.7478428161
 11
1.4302608696
 21
6.3928428161
  0
LINE
  5
22C
100
AcDbEntity
  8
0
100
AcDbLine
 62
7
  6
CONTINUOUS
 10
1.4402608696
 20
6.7578428161
 11
1.4402608696
 21
6.3828428161
  0
LINE
  5
22D
100
AcDbEntity
  8
0
100
AcDbLine
 62
7
  6
CONTINUOUS
 10
1.5577608696
 20
6.3828428161
 11
1.5577608696
 21
6.7578428161
  0
LINE
  5
22E
100
AcDbEntity
  8
0
100
AcDbLine
 62
7
  6
CONTINUOUS
 10
1.5677608696
 20
6.3928428161
 11
1.5677608696
 21
6.7478428161
  0
LINE
  5
22F
100
AcDbEntity
  8
0
100
AcDbLine
 62
7
  6
CONTINUOUS
 10
1.5747795363
 20
6.7478428161
 11
1.5747795363
 21
6.3928428161
  0
LINE
  5
230
100
AcDbEntity
  8
0
100
AcDbLine
 62
7
  6
CONTINUOUS
 10
1.3952306045
 20
6.5744368655
 11
1.3952277807
 21
6.5740931035
  0
LINE
  5
231
100
AcDbEntity
  8
0
100
AcDbLine
 62
7
  6
CONTINUOUS
 10
1.3952286233
 20
6.5741467439
 11
1.3952209636
 21
6.5738097824
  0
LINE
  5
232
100
AcDbEntity
  8
0
100
AcDbLine
 62
7
  6
CONTINUOUS
 10
1.3952223932
 20
6.5738574845
 11
1.3952209635
 21
6.5738097802
  0
LINE
  5
233
100
AcDbEntity
  8
0
100
AcDbLine
 62
7
  6
CONTINUOUS
 10
1.3951250387
 20
6.5764098362
 11
1.3951543542
 21
6.5761168629
  0
LINE
  5
234
100
AcDbEntity
  8
0
100
AcDbLine
 62
7
  6
CONTINUOUS
 10
1.6982422029
 20
6.3928428161
 11
1.6982422029
 21
6.7478428161
  0
LINE
  5
235
100
AcDbEntity
  8
0
100
AcDbLine
 62
7
  6
CONTINUOUS
 10
1.7052608696
 20
6.3928428161
 11
1.7052608696
 21
6.7478428161
  0
LINE
  5
236
100
AcDbEntity
  8
0
100
AcDbLine
 62
7
  6
CONTINUOUS
 10
2.7494580579
 20
6.9915928161
 11
2.7011049729
 21
6.9078428161
  0
LINE
  5
237
100
AcDbEntity
  8
0
100
AcDbLine
 62
7
  6
CONTINUOUS
 10
2.7581183119
 20
6.9865928161
 11
2.7126519782
 21
6.9078428161
  0
LINE
  5
238
100
AcDbEntity
  8
0
100
AcDbLine
 62
7
  6
CONTINUOUS
 10
2.766778566
 20
6.9815928161
 11
2.7241989836
 21
6.9078428161
  0
LINE
  5
239
100
AcDbEntity
  8
0
100
AcDbLine
 62
7
  6
CONTINUOUS
 10
3.2647431732
 20
6.9815928161
 11
3.2820636812
 21
6.9915928161
  0
LINE
  5
23A
100
AcDbEntity
  8
0
100
AcDbLine
 62
7
  6
CONTINUOUS
 10
1.3950943098
 20
6.576672918
 11
1.3951271583
 21
6.5763904209
  0
LINE
  5
23B
100
AcDbEntity
  8
0
100
AcDbLine
 62
7
  6
CONTINUOUS
 10
1.9557608696
 20
6.2803428161
 11
1.9557608696
 21
6.8603428161
  0
LINE
  5
23C
100
AcDbEntity
  8
0
100
AcDbLine
 62
7
  6
CONTINUOUS
 10
1.9657608696
 20
6.2703428161
 11
1.9657608696
 21
6.8703428161
  0
LINE
  5
23D
100
AcDbEntity
  8
0
100
AcDbLine
 62
7
  6
CONTINUOUS
 10
2.1957608696
 20
6.8703428161
 11
2.1957608696
 21
6.2703428161
  0
LINE
  5
23E
100
AcDbEntity
  8
0
100
AcDbLine
 62
7
  6
CONTINUOUS
 10
2.2057608696
 20
6.8603428161
 11
2.2057608696
 21
6.2803428161
  0
LINE
  5
23F
100
AcDbEntity
  8
0
100
AcDbLine
 62
7
  6
CONTINUOUS
 10
2.2207608696
 20
6.8328428161
 11
2.2207608696
 21
6.3078428161
  0
LINE
  5
240
100
AcDbEntity
  8
0
100
AcDbLine
 62
7
  6
CONTINUOUS
 10
2.7494580579
 20
6.1490928161
 11
2.766778566
 21
6.1590928161
  0
LWPOLYLINE
  5
241
100
AcDbEntity
  8
0
100
AcDbPolyline
 62
7
  6
CONTINUOUS
 90
4
 70
0
 10
1.3953637782
 20
6.5159948061
 10
1.3953667437
 20
6.515985039
 10
1.3953687241
 20
6.5159784015
 10
1.3953695242
 20
6.5159756727
  0
LWPOLYLINE
  5
242
100
AcDbEntity
  8
0
100
AcDbPolyline
 62
7
  6
CONTINUOUS
 90
6
 70
0
 10
1.3948952962
 20
6.5778680445
 10
1.394940092
 20
6.5776474815
 10
1.3949827831
 20
6.5774168132
 10
1.395022908
 20
6.5771771653
 10
1.3950601673
 20
6.5769290591
 10
1.3950943098
 20
6.576672918
  0
LINE
  5
243
100
AcDbEntity
  8
0
100
AcDbLine
 62
7
  6
CONTINUOUS
 10
2.4532608696
 20
6.8778428161
 11
2.4532608696
 21
6.2628428161
  0
LINE
  5
244
100
AcDbEntity
  8
0
100
AcDbLine
 62
7
  6
CONTINUOUS
 10
2.4682608696
 20
6.8778428161
 11
2.4682608696
 21
6.2628428161
  0
LINE
  5
245
100
AcDbEntity
  8
0
100
AcDbLine
 62
7
  6
CONTINUOUS
 10
2.4832608696
 20
6.2478428161
 11
2.4832608696
 21
6.2328428161
  0
LINE
  5
246
100
AcDbEntity
  8
0
100
AcDbLine
 62
7
  6
CONTINUOUS
 10
2.4832608696
 20
6.8928428161
 11
2.4832608689
 21
6.9078428161
  0
LINE
  5
247
100
AcDbEntity
  8
0
100
AcDbLine
 62
7
  6
CONTINUOUS
 10
3.2647431732
 20
6.1590928161
 11
3.3224782001
 21
6.2590928161
  0
LINE
  5
248
100
AcDbEntity
  8
0
100
AcDbLine
 62
7
  6
CONTINUOUS
 10
3.2734034272
 20
6.1540928161
 11
3.3340252055
 21
6.2590928161
  0
LINE
  5
249
100
AcDbEntity
  8
0
100
AcDbLine
 62
7
  6
CONTINUOUS
 10
3.2820636812
 20
6.1490928161
 11
3.3455722108
 21
6.2590928161
  0
LINE
  5
24A
100
AcDbEntity
  8
0
100
AcDbLine
 62
7
  6
CONTINUOUS
 10
5.3513858695
 20
1.5428428161
 11
5.3270108696
 21
1.5428428161
  0
LINE
  5
24B
100
AcDbEntity
  8
0
100
AcDbLine
 62
7
  6
CONTINUOUS
 10
4.6801358696
 20
1.5428428161
 11
4.7045108696
 21
1.5428428161
  0
LINE
  5
24C
100
AcDbEntity
  8
0
100
AcDbLine
 62
7
  6
CONTINUOUS
 10
1.3920001024
 20
6.5246012788
 11
1.3928685095
 21
6.5224663564
  0
LINE
  5
24D
100
AcDbEntity
  8
0
100
AcDbLine
 62
7
  6
CONTINUOUS
 10
1.3927786834
 20
6.5226888473
 11
1.3935092409
 21
6.5208698384
  0
LINE
  5
24E
100
AcDbEntity
  8
0
100
AcDbLine
 62
7
  6
CONTINUOUS
 10
1.3935009589
 20
6.5208903914
 11
1.3940433986
 21
6.519520851
  0
LINE
  5
24F
100
AcDbEntity
  8
0
100
AcDbLine
 62
7
  6
CONTINUOUS
 10
1.3939577926
 20
6.5197383003
 11
1.3943347207
 21
6.5187755241
  0
LINE
  5
250
100
AcDbEntity
  8
0
100
AcDbLine
 62
7
  6
CONTINUOUS
 10
1.394254174
 20
6.5189823703
 11
1.394589178
 21
6.5181166977
  0
LINE
  5
251
100
AcDbEntity
  8
0
100
AcDbLine
 62
7
  6
CONTINUOUS
 10
1.3945151536
 20
6.5183092112
 11
1.3947660908
 21
6.5176530595
  0
LINE
  5
252
100
AcDbEntity
  8
0
100
AcDbLine
 62
7
  6
CONTINUOUS
 10
1.3947402513
 20
6.5177210441
 11
1.3949255002
 21
6.5172295
  0
LINE
  5
253
100
AcDbEntity
  8
0
100
AcDbLine
 62
7
  6
CONTINUOUS
 10
1.3949188023
 20
6.5172473682
 11
1.395047845
 21
6.5168988793
  0
LINE
  5
254
100
AcDbEntity
  8
0
100
AcDbLine
 62
7
  6
CONTINUOUS
 10
1.3950260754
 20
6.5169582704
 11
1.3951296558
 21
6.5166742704
  0
LINE
  5
255
100
AcDbEntity
  8
0
100
AcDbLine
 62
7
  6
CONTINUOUS
 10
1.3951103939
 20
6.5167275595
 11
1.3951771824
 21
6.5165420658
  0
LINE
  5
256
100
AcDbEntity
  8
0
100
AcDbLine
 62
7
  6
CONTINUOUS
 10
1.3951771824
 20
6.5165420658
 11
1.3952343276
 21
6.516380616
  0
LINE
  5
257
100
AcDbEntity
  8
0
100
AcDbLine
 62
7
  6
CONTINUOUS
 10
1.3945489738
 20
6.5791128989
 11
1.3946036388
 21
6.5789563538
  0
LINE
  5
258
100
AcDbEntity
  8
0
100
AcDbLine
 62
7
  6
CONTINUOUS
 10
1.3952343276
 20
6.516380616
 11
1.395273582
 21
6.5162676939
  0
LINE
  5
259
100
AcDbEntity
  8
0
100
AcDbLine
 62
7
  6
CONTINUOUS
 10
1.395273582
 20
6.5162676939
 11
1.395300779
 21
6.5161880221
  0
LINE
  5
25A
100
AcDbEntity
  8
0
100
AcDbLine
 62
7
  6
CONTINUOUS
 10
1.395300779
 20
6.5161880221
 11
1.395323354
 21
6.5161206253
  0
LINE
  5
25B
100
AcDbEntity
  8
0
100
AcDbLine
 62
7
  6
CONTINUOUS
 10
1.395323354
 20
6.5161206253
 11
1.3953411654
 21
6.5160662933
  0
LINE
  5
25C
100
AcDbEntity
  8
0
100
AcDbLine
 62
7
  6
CONTINUOUS
 10
1.3945976922
 20
6.5789739218
 11
1.394652708
 21
6.5788051942
  0
LWPOLYLINE
  5
25D
100
AcDbEntity
  8
0
100
AcDbPolyline
 62
7
  6
CONTINUOUS
 90
3
 70
0
 10
1.3953411654
 20
6.5160662933
 10
1.3953545849
 20
6.5160243499
 10
1.3953596996
 20
6.5160080232
  0
LWPOLYLINE
  5
25E
100
AcDbEntity
  8
0
100
AcDbPolyline
 62
7
  6
CONTINUOUS
 90
7
 70
0
 10
1.3946475246
 20
6.578821617
 10
1.3946979859
 20
6.578655987
 10
1.3947483631
 20
6.5784779227
 10
1.3947982108
 20
6.5782876183
 10
1.3948471223
 20
6.5780852256
 10
1.3948945209
 20
6.577871798
 10
1.3949400531
 20
6.5776476812
  0
LINE
  5
25F
100
AcDbEntity
  8
0
100
AcDbLine
 62
7
  6
CONTINUOUS
 10
2.7840990741
 20
6.1290928161
 11
2.7840990741
 21
6.1490928161
  0
LINE
  5
260
100
AcDbEntity
  8
0
100
AcDbLine
 62
7
  6
CONTINUOUS
 10
2.7840990741
 20
6.9915928161
 11
2.7840990741
 21
7.0115928161
  0
LINE
  5
261
100
AcDbEntity
  8
0
100
AcDbLine
 62
7
  6
CONTINUOUS
 10
4.6720430864
 20
6.5668972615
 11
4.660690454
 21
6.5603428161
  0
LINE
  5
262
100
AcDbEntity
  8
0
100
AcDbLine
 62
7
  6
CONTINUOUS
 10
5.190603699
 20
6.8662883708
 11
5.2019563313
 21
6.8728428162
  0
LINE
  5
263
100
AcDbEntity
  8
0
100
AcDbLine
 62
7
  6
CONTINUOUS
 10
1.3919136417
 20
6.5248121741
 11
1.3920263412
 21
6.5245372683
  0
LINE
  5
264
100
AcDbEntity
  8
0
100
AcDbLine
 62
7
  6
CONTINUOUS
 10
1.391913643
 20
6.5248121709
 11
1.3920001024
 21
6.5246012788
  0
LWPOLYLINE
  5
265
100
AcDbEntity
  8
0
100
AcDbPolyline
 62
7
  6
CONTINUOUS
 90
45
 70
0
 10
3.565224201
 20
6.9059651932
 10
3.5650532473
 20
6.9051325517
 10
3.5648319312
 20
6.904198563
 10
3.564580812
 20
6.9032720056
 10
3.5643001369
 20
6.9023538394
 10
3.5639901901
 20
6.9014450313
 10
3.5636512799
 20
6.9005465154
 10
3.5632837445
 20
6.8996592163
 10
3.5628879623
 20
6.8987840696
 10
3.5624643328
 20
6.8979219766
 10
3.5620132834
 20
6.8970738235
 10
3.5615352811
 20
6.8962405025
 10
3.561030812
 20
6.895422871
 10
3.5605003887
 20
6.8946217705
 10
3.5599445635
 20
6.8938380426
 10
3.5593639039
 20
6.8930724932
 10
3.5587590032
 20
6.89232591
 10
3.5581304939
 20
6.8915990773
 10
3.5574790202
 20
6.8908927419
 10
3.5568052498
 20
6.8902076294
 10
3.5561098886
 20
6.8895444581
 10
3.555393654
 20
6.8889039106
 10
3.5546572786
 20
6.8882866407
 10
3.5539015253
 20
6.8876932865
 10
3.5531271741
 20
6.8871244578
 10
3.5523350171
 20
6.8865807345
 10
3.5515258647
 20
6.8860626709
 10
3.5507005477
 20
6.8855707976
 10
3.5498599135
 20
6.8851056182
 10
3.5490048209
 20
6.8846676067
 10
3.5481361476
 20
6.8842572118
 10
3.547254785
 20
6.883874854
 10
3.5463616334
 20
6.8835209231
 10
3.545457609
 20
6.8831957819
 10
3.5445436395
 20
6.8828997637
 10
3.5436206583
 20
6.8826331708
 10
3.5426896122
 20
6.8823962767
 10
3.5417514565
 20
6.8821893247
 10
3.5408071491
 20
6.8820125264
 10
3.5398576587
 20
6.8818660637
 10
3.5389039594
 20
6.8817500875
 10
3.5379470252
 20
6.881664717
 10
3.5369878361
 20
6.8816100406
 10
3.5360273779
 20
6.8815861157
 10
3.5357608696
 20
6.8815849316
  0
LINE
  5
266
100
AcDbEntity
  8
0
100
AcDbLine
 62
7
  6
CONTINUOUS
 10
5.3594786528
 20
6.5737883708
 11
5.3708312851
 21
6.5803428161
  0
LINE
  5
267
100
AcDbEntity
  8
0
100
AcDbLine
 62
7
  6
CONTINUOUS
 10
5.3595108696
 20
2.1030928161
 11
4.6720108696
 21
2.1030928161
  0
LINE
  5
268
100
AcDbEntity
  8
0
100
AcDbLine
 62
7
  6
CONTINUOUS
 10
4.6720108696
 20
2.1765928161
 11
5.3595108696
 21
2.1765928161
  0
LINE
  5
269
100
AcDbEntity
  8
0
100
AcDbLine
 62
7
  6
CONTINUOUS
 10
4.6820108696
 20
2.1865928161
 11
5.3495108696
 21
2.1865928161
  0
LINE
  5
26A
100
AcDbEntity
  8
0
100
AcDbLine
 62
7
  6
CONTINUOUS
 10
3.2474226651
 20
6.1290928161
 11
3.2474226651
 21
6.1490928161
  0
LINE
  5
26B
100
AcDbEntity
  8
0
100
AcDbLine
 62
7
  6
CONTINUOUS
 10
3.2474226651
 20
6.9915928161
 11
3.2474226651
 21
7.0115928161
  0
LINE
  5
26C
100
AcDbEntity
  8
0
100
AcDbLine
 62
7
  6
CONTINUOUS
 10
3.6457608696
 20
6.2265928161
 11
3.6457608696
 21
6.9140928161
  0
LINE
  5
26D
100
AcDbEntity
  8
0
100
AcDbLine
 62
7
  6
CONTINUOUS
 10
3.6557608696
 20
6.2365928161
 11
3.6557608696
 21
6.9040928161
  0
LINE
  5
26E
100
AcDbEntity
  8
0
100
AcDbLine
 62
7
  6
CONTINUOUS
 10
3.7147608696
 20
6.8353428161
 11
3.7147608696
 21
6.3053428161
  0
LINE
  5
26F
100
AcDbEntity
  8
0
100
AcDbLine
 62
7
  6
CONTINUOUS
 10
4.8295654078
 20
6.8728428161
 11
4.8167291385
 21
6.8506097456
  0
LINE
  5
270
100
AcDbEntity
  8
0
100
AcDbLine
 62
7
  6
CONTINUOUS
 10
4.6735267232
 20
6.6025758866
 11
4.660690454
 21
6.5803428161
  0
LINE
  5
271
100
AcDbEntity
  8
0
100
AcDbLine
 62
7
  6
CONTINUOUS
 10
7.2647431732
 20
6.9815928161
 11
7.2820636812
 21
6.9915928161
  0
LWPOLYLINE
  5
272
100
AcDbEntity
  8
0
100
AcDbPolyline
 62
7
  6
CONTINUOUS
 90
13
 70
0
 10
1.3942276778
 20
6.5798084793
 10
1.3942255587
 20
6.5798112638
 10
1.3942305551
 20
6.579804062
 10
1.3942419229
 20
6.5797866977
 10
1.3942590122
 20
6.5797589705
 10
1.3942813216
 20
6.5797205217
 10
1.3943084567
 20
6.5796708415
 10
1.3943400163
 20
6.5796094406
 10
1.3943755608
 20
6.5795359206
 10
1.3944146343
 20
6.5794499405
 10
1.3944568356
 20
6.579351058
 10
1.3945017992
 20
6.5792387326
 10
1.3945489738
 20
6.5791128989
  0
LINE
  5
273
100
AcDbEntity
  8
0
100
AcDbLine
 62
7
  6
CONTINUOUS
 10
2.7011049729
 20
6.2328428161
 11
2.7494580579
 21
6.1490928161
  0
LINE
  5
274
100
AcDbEntity
  8
0
100
AcDbLine
 62
7
  6
CONTINUOUS
 10
2.7126519782
 20
6.2328428161
 11
2.7581183119
 21
6.1540928161
  0
LINE
  5
275
100
AcDbEntity
  8
0
100
AcDbLine
 62
7
  6
CONTINUOUS
 10
2.7241989836
 20
6.2328428161
 11
2.766778566
 21
6.1590928161
  0
LWPOLYLINE
  5
276
100
AcDbEntity
  8
0
100
AcDbPolyline
 62
7
  6
CONTINUOUS
 90
52
 70
0
 10
3.5652270112
 20
6.234721404
 10
3.5652595398
 20
6.2345581231
 10
3.565302057
 20
6.2343633643
 10
3.5653494568
 20
6.2341654565
 10
3.5654019641
 20
6.23396455
 10
3.5654595308
 20
6.23376173
 10
3.5655222226
 20
6.2335574618
 10
3.5655902939
 20
6.2333515737
 10
3.5656639211
 20
6.233144195
 10
3.5657432863
 20
6.2329354505
 10
3.5658285352
 20
6.232725568
 10
3.5659197796
 20
6.2325148417
 10
3.5660171679
 20
6.2323034657
 10
3.5661208431
 20
6.2320916468
 10
3.5662308874
 20
6.2318797057
 10
3.5663474222
 20
6.2316678709
 10
3.5664705731
 20
6.2314563606
 10
3.5666004084
 20
6.2312454861
 10
3.5667370299
 20
6.2310354907
 10
3.5668805349
 20
6.230826623
 10
3.5670309632
 20
6.2306192075
 10
3.5671883905
 20
6.2304135069
 10
3.5673528845
 20
6.2302097919
 10
3.5675244501
 20
6.2300084022
 10
3.5677031317
 20
6.2298096189
 10
3.5678889642
 20
6.2296137302
 10
3.5680819133
 20
6.229421088
 10
3.5682819733
 20
6.2292320023
 10
3.5684891567
 20
6.2290467604
 10
3.568703434
 20
6.228865683
 10
3.5689247127
 20
6.2286891327
 10
3.5691530175
 20
6.2285173697
 10
3.5693884874
 20
6.2283505834
 10
3.5696310509
 20
6.2281891256
 10
3.5698806576
 20
6.2280333285
 10
3.5701374819
 20
6.2278833952
 10
3.5704014383
 20
6.2277397011
 10
3.570672424
 20
6.227602625
 10
3.5709505879
 20
6.2274724281
 10
3.5712358021
 20
6.2273495207
 10
3.5715279183
 20
6.2272343159
 10
3.5718270472
 20
6.2271271337
 10
3.5721330068
 20
6.2270284178
 10
3.5724455914
 20
6.2269386134
 10
3.572764859
 20
6.2268580985
 10
3.5730905605
 20
6.2267873468
 10
3.5734224199
 20
6.2267268308
 10
3.5737604255
 20
6.2266769829
 10
3.5741042475
 20
6.2266383003
 10
3.5744535244
 20
6.2266112757
 10
3.574808158
 20
6.2265963888
 10
3.5750501856
 20
6.2265934594
  0
LINE
  5
277
100
AcDbEntity
  8
0
100
AcDbLine
 62
7
  6
CONTINUOUS
 10
5.3579950159
 20
6.5381097456
 11
5.3708312851
 21
6.5603428161
  0
LINE
  5
278
100
AcDbEntity
  8
0
100
AcDbLine
 62
7
  6
CONTINUOUS
 10
6.7494580579
 20
6.1490928161
 11
6.766778566
 21
6.1590928161
  0
LINE
  5
279
100
AcDbEntity
  8
0
100
AcDbLine
 62
7
  6
CONTINUOUS
 10
4.4532608696
 20
6.2728429162
 11
4.4532608696
 21
6.867842716
  0
LINE
  5
27A
100
AcDbEntity
  8
0
100
AcDbLine
 62
7
  6
CONTINUOUS
 10
4.4682608696
 20
6.2578428161
 11
4.4682608696
 21
6.8828428161
  0
LINE
  5
27B
100
AcDbEntity
  8
0
100
AcDbLine
 62
7
  6
CONTINUOUS
 10
4.4852608696
 20
6.2578428161
 11
4.4852608696
 21
6.8828428161
  0
LINE
  5
27C
100
AcDbEntity
  8
0
100
AcDbLine
 62
7
  6
CONTINUOUS
 10
4.5002608696
 20
6.9137654425
 11
4.5002608696
 21
6.2269201897
  0
LINE
  5
27D
100
AcDbEntity
  8
0
100
AcDbLine
 62
7
  6
CONTINUOUS
 10
4.5152608696
 20
6.9287649433
 11
4.5152608696
 21
6.2119206889
  0
LINE
  5
27E
100
AcDbEntity
  8
0
100
AcDbLine
 62
7
  6
CONTINUOUS
 10
4.6720108696
 20
2.1765928161
 11
4.6720108696
 21
2.1030928161
  0
LINE
  5
27F
100
AcDbEntity
  8
0
100
AcDbLine
 62
7
  6
CONTINUOUS
 10
4.6720108696
 20
5.9365928161
 11
4.6720108696
 21
6.0100928161
  0
LINE
  5
280
100
AcDbEntity
  8
0
100
AcDbLine
 62
7
  6
CONTINUOUS
 10
4.7045108696
 20
2.0638022321
 11
4.7045121487
 21
1.541965509
  0
LINE
  5
281
100
AcDbEntity
  8
0
100
AcDbLine
 62
7
  6
CONTINUOUS
 10
4.7045121491
 20
6.5712202625
 11
4.7045108696
 21
6.0493834003
  0
LINE
  5
282
100
AcDbEntity
  8
0
100
AcDbLine
 62
7
  6
CONTINUOUS
 10
4.7507608696
 20
5.9265928161
 11
4.7507608696
 21
2.1865928161
  0
LINE
  5
283
100
AcDbEntity
  8
0
100
AcDbLine
 62
7
  6
CONTINUOUS
 10
4.8468859158
 20
6.8697339254
 11
4.8468859157
 21
6.8828428161
  0
LINE
  5
284
100
AcDbEntity
  8
0
100
AcDbLine
 62
7
  6
CONTINUOUS
 10
5.0157608696
 20
2.0932701701
 11
5.0157608696
 21
1.2072178161
  0
LINE
  5
285
100
AcDbEntity
  8
0
100
AcDbLine
 62
7
  6
CONTINUOUS
 10
5.0157608696
 20
6.0199154621
 11
5.0157608696
 21
6.9059678161
  0
LINE
  5
286
100
AcDbEntity
  8
0
100
AcDbLine
 62
7
  6
CONTINUOUS
 10
3.3224782001
 20
6.8815928161
 11
3.2647431732
 21
6.9815928161
  0
LINE
  5
287
100
AcDbEntity
  8
0
100
AcDbLine
 62
7
  6
CONTINUOUS
 10
3.3340252055
 20
6.8815928161
 11
3.2734034272
 21
6.9865928161
  0
LINE
  5
288
100
AcDbEntity
  8
0
100
AcDbLine
 62
7
  6
CONTINUOUS
 10
3.3455722108
 20
6.8815928161
 11
3.2820636812
 21
6.9915928161
  0
LINE
  5
289
100
AcDbEntity
  8
0
100
AcDbLine
 62
7
  6
CONTINUOUS
 10
5.1846358233
 20
6.8697339254
 11
5.1846358233
 21
6.8828428161
  0
LINE
  5
28A
100
AcDbEntity
  8
0
100
AcDbLine
 62
7
  6
CONTINUOUS
 10
5.2807608696
 20
5.9265928161
 11
5.2807608696
 21
2.1865928161
  0
LINE
  5
28B
100
AcDbEntity
  8
0
100
AcDbLine
 62
7
  6
CONTINUOUS
 10
5.3270108696
 20
6.0493834001
 11
5.3270095905
 21
6.5712201233
  0
LINE
  5
28C
100
AcDbEntity
  8
0
100
AcDbLine
 62
7
  6
CONTINUOUS
 10
5.3595108696
 20
2.1765928161
 11
5.3595108696
 21
2.1030928161
  0
LINE
  5
28D
100
AcDbEntity
  8
0
100
AcDbLine
 62
7
  6
CONTINUOUS
 10
5.3595108696
 20
5.9365928161
 11
5.3595108696
 21
6.0100928161
  0
LINE
  5
28E
100
AcDbEntity
  8
0
100
AcDbLine
 62
7
  6
CONTINUOUS
 10
5.3270095901
 20
1.5419653697
 11
5.3270108696
 21
2.063802232
  0
LINE
  5
28F
100
AcDbEntity
  8
0
100
AcDbLine
 62
7
  6
CONTINUOUS
 10
6.7494580579
 20
6.9915928161
 11
6.6859495283
 21
6.8815928161
  0
LINE
  5
290
100
AcDbEntity
  8
0
100
AcDbLine
 62
7
  6
CONTINUOUS
 10
6.7581183119
 20
6.9865928161
 11
6.6974965337
 21
6.8815928161
  0
LINE
  5
291
100
AcDbEntity
  8
0
100
AcDbLine
 62
7
  6
CONTINUOUS
 10
6.766778566
 20
6.9815928161
 11
6.7090435391
 21
6.8815928161
  0
LINE
  5
292
100
AcDbEntity
  8
0
100
AcDbLine
 62
7
  6
CONTINUOUS
 10
5.5162608696
 20
6.2119206889
 11
5.5162608696
 21
6.9287649433
  0
LINE
  5
293
100
AcDbEntity
  8
0
100
AcDbLine
 62
7
  6
CONTINUOUS
 10
5.5312608696
 20
6.2269201897
 11
5.5312608696
 21
6.9137654425
  0
LINE
  5
294
100
AcDbEntity
  8
0
100
AcDbLine
 62
7
  6
CONTINUOUS
 10
5.5462608696
 20
6.8828428161
 11
5.5462608696
 21
6.2578428161
  0
LINE
  5
295
100
AcDbEntity
  8
0
100
AcDbLine
 62
7
  6
CONTINUOUS
 10
5.5632608696
 20
6.8828428161
 11
5.5632608696
 21
6.2578428161
  0
LINE
  5
296
100
AcDbEntity
  8
0
100
AcDbLine
 62
7
  6
CONTINUOUS
 10
5.5782608696
 20
6.867842716
 11
5.5782608696
 21
6.2728429162
  0
LINE
  5
297
100
AcDbEntity
  8
0
100
AcDbLine
 62
7
  6
CONTINUOUS
 10
7.2647431732
 20
6.1590928161
 11
7.3073227555
 21
6.2328428161
  0
LINE
  5
298
100
AcDbEntity
  8
0
100
AcDbLine
 62
7
  6
CONTINUOUS
 10
7.2734034272
 20
6.1540928161
 11
7.3188697609
 21
6.2328428161
  0
LINE
  5
299
100
AcDbEntity
  8
0
100
AcDbLine
 62
7
  6
CONTINUOUS
 10
7.2820636812
 20
6.1490928161
 11
7.3304167663
 21
6.2328428161
  0
LINE
  5
29A
100
AcDbEntity
  8
0
100
AcDbLine
 62
7
  6
CONTINUOUS
 10
3.2820636812
 20
6.1490928161
 11
3.2647431732
 21
6.1590928161
  0
LINE
  5
29B
100
AcDbEntity
  8
0
100
AcDbLine
 62
7
  6
CONTINUOUS
 10
4.660690454
 20
6.5603428161
 11
4.6735267232
 21
6.5381097456
  0
LWPOLYLINE
  5
29C
100
AcDbEntity
  8
0
100
AcDbPolyline
 62
7
  6
CONTINUOUS
 90
45
 70
0
 10
6.4662975381
 20
6.234720439
 10
6.4664684918
 20
6.2355530806
 10
6.4666898079
 20
6.2364870692
 10
6.4669409272
 20
6.2374136266
 10
6.4672216023
 20
6.2383317928
 10
6.4675315491
 20
6.239240601
 10
6.4678704593
 20
6.2401391169
 10
6.4682379946
 20
6.241026416
 10
6.4686337768
 20
6.2419015626
 10
6.4690574063
 20
6.2427636557
 10
6.4695084558
 20
6.2436118087
 10
6.469986458
 20
6.2444451298
 10
6.4704909272
 20
6.2452627612
 10
6.4710213504
 20
6.2460638617
 10
6.4715771756
 20
6.2468475896
 10
6.4721578352
 20
6.2476131391
 10
6.472762736
 20
6.2483597223
 10
6.4733912453
 20
6.249086555
 10
6.4740427189
 20
6.2497928903
 10
6.4747164894
 20
6.2504780028
 10
6.4754118506
 20
6.2511411742
 10
6.4761280851
 20
6.2517817217
 10
6.4768644605
 20
6.2523989915
 10
6.4776202138
 20
6.2529923458
 10
6.4783945651
 20
6.2535611744
 10
6.479186722
 20
6.2541048977
 10
6.4799958745
 20
6.2546229613
 10
6.4808211914
 20
6.2551148346
 10
6.4816618256
 20
6.2555800141
 10
6.4825169182
 20
6.2560180256
 10
6.4833855915
 20
6.2564284204
 10
6.4842669541
 20
6.2568107783
 10
6.4851601058
 20
6.2571647092
 10
6.4860641302
 20
6.2574898504
 10
6.4869780996
 20
6.2577858685
 10
6.4879010808
 20
6.2580524614
 10
6.4888321269
 20
6.2582893555
 10
6.4897702827
 20
6.2584963075
 10
6.4907145901
 20
6.2586731059
 10
6.4916640804
 20
6.2588195685
 10
6.4926177797
 20
6.2589355447
 10
6.493574714
 20
6.2590209153
 10
6.494533903
 20
6.2590755916
 10
6.4954943612
 20
6.2590995165
 10
6.4957608696
 20
6.2591007007
  0
LINE
  5
29D
100
AcDbEntity
  8
0
100
AcDbLine
 62
7
  6
CONTINUOUS
 10
6.3167608696
 20
6.3053428161
 11
6.3167608696
 21
6.8353428161
  0
LINE
  5
29E
100
AcDbEntity
  8
0
100
AcDbLine
 62
7
  6
CONTINUOUS
 10
6.3757608696
 20
6.9040928161
 11
6.3757608696
 21
6.2365928161
  0
LINE
  5
29F
100
AcDbEntity
  8
0
100
AcDbLine
 62
7
  6
CONTINUOUS
 10
6.3857608696
 20
6.9140928161
 11
6.3857608696
 21
6.2265928161
  0
LINE
  5
2A0
100
AcDbEntity
  8
0
100
AcDbLine
 62
7
  6
CONTINUOUS
 10
2.766778566
 20
6.9815928161
 11
2.7494580579
 21
6.9915928161
  0
LINE
  5
2A1
100
AcDbEntity
  8
0
100
AcDbLine
 62
7
  6
CONTINUOUS
 10
5.3708312851
 20
6.5803428161
 11
5.3579950159
 21
6.6025758866
  0
LINE
  5
2A2
100
AcDbEntity
  8
0
100
AcDbLine
 62
7
  6
CONTINUOUS
 10
5.2147926006
 20
6.8506097456
 11
5.2019563314
 21
6.8728428161
  0
LINE
  5
2A3
100
AcDbEntity
  8
0
100
AcDbLine
 62
7
  6
CONTINUOUS
 10
6.7840990741
 20
7.0115928161
 11
6.7840990741
 21
6.9915928161
  0
LINE
  5
2A4
100
AcDbEntity
  8
0
100
AcDbLine
 62
7
  6
CONTINUOUS
 10
6.7840990741
 20
6.1290928161
 11
6.7840990741
 21
6.1490928161
  0
LINE
  5
2A5
100
AcDbEntity
  8
0
100
AcDbLine
 62
7
  6
CONTINUOUS
 10
5.3495108696
 20
5.9265928161
 11
4.6820108696
 21
5.9265928161
  0
LINE
  5
2A6
100
AcDbEntity
  8
0
100
AcDbLine
 62
7
  6
CONTINUOUS
 10
5.3595108696
 20
5.9365928161
 11
4.6720108696
 21
5.9365928161
  0
LINE
  5
2A7
100
AcDbEntity
  8
0
100
AcDbLine
 62
7
  6
CONTINUOUS
 10
4.6720108696
 20
6.0100928161
 11
5.3595108696
 21
6.0100928161
  0
LINE
  5
2A8
100
AcDbEntity
  8
0
100
AcDbLine
 62
7
  6
CONTINUOUS
 10
4.6720430864
 20
6.5737883708
 11
4.660690454
 21
6.580342816
  0
LINE
  5
2A9
100
AcDbEntity
  8
0
100
AcDbLine
 62
7
  6
CONTINUOUS
 10
8.6431289694
 20
6.579631367
 11
8.6369653007
 21
6.5790921159
  0
LINE
  5
2AA
100
AcDbEntity
  8
0
100
AcDbLine
 62
7
  6
CONTINUOUS
 10
8.647615159
 20
6.5852345257
 11
8.6395679671
 21
6.5845304876
  0
LINE
  5
2AB
100
AcDbEntity
  8
0
100
AcDbLine
 62
7
  6
CONTINUOUS
 10
8.635782421
 20
6.6259433902
 11
8.635728544
 21
6.6259386765
  0
LWPOLYLINE
  5
2AC
100
AcDbEntity
  8
0
100
AcDbPolyline
 62
7
  6
CONTINUOUS
 90
44
 70
0
 10
6.4564697393
 20
6.2265936827
 10
6.4568596947
 20
6.226601289
 10
6.4572647126
 20
6.2266253323
 10
6.4576644269
 20
6.2266653039
 10
6.4580582399
 20
6.2267206569
 10
6.4584455954
 20
6.2267908284
 10
6.4588259777
 20
6.2268752423
 10
6.4591989104
 20
6.2269733112
 10
6.4595639571
 20
6.2270844389
 10
6.4599207204
 20
6.2272080231
 10
6.4602688398
 20
6.2273434565
 10
6.4606079933
 20
6.2274901299
 10
6.4609378945
 20
6.2276474334
 10
6.461258292
 20
6.2278147582
 10
6.4615689691
 20
6.2279914986
 10
6.4618697422
 20
6.2281770536
 10
6.4621604589
 20
6.2283708276
 10
6.4624410003
 20
6.2285722343
 10
6.4627112729
 20
6.2287806932
 10
6.4629712076
 20
6.2289956296
 10
6.4632207727
 20
6.2292164881
 10
6.463459954
 20
6.2294427177
 10
6.4636887488
 20
6.2296737656
 10
6.463907197
 20
6.2299091093
 10
6.4641153594
 20
6.2301482396
 10
6.4643133011
 20
6.2303906411
 10
6.4645011256
 20
6.2306358336
 10
6.4646789541
 20
6.230883353
 10
6.4648469102
 20
6.2311327282
 10
6.4650051564
 20
6.2313835376
 10
6.4651538559
 20
6.2316353546
 10
6.4652931609
 20
6.2318877217
 10
6.4654232923
 20
6.2321402945
 10
6.4655444395
 20
6.2323926668
 10
6.4656567452
 20
6.2326443054
 10
6.4657604478
 20
6.232894854
 10
6.4658558083
 20
6.2331440091
 10
6.4659430402
 20
6.2333913318
 10
6.466022455
 20
6.233636649
 10
6.4660942911
 20
6.2338795765
 10
6.4661587069
 20
6.2341193702
 10
6.4662160588
 20
6.2343559336
 10
6.4662666285
 20
6.2345888935
 10
6.4662928221
 20
6.234721455
  0
LINE
  5
2AD
100
AcDbEntity
  8
0
100
AcDbLine
 62
7
  6
CONTINUOUS
 10
2.7840990741
 20
6.1290928161
 11
3.2474226651
 21
6.1290928161
  0
LINE
  5
2AE
100
AcDbEntity
  8
0
100
AcDbLine
 62
7
  6
CONTINUOUS
 10
6.7840990741
 20
6.1290928161
 11
7.2474226651
 21
6.1290928161
  0
LINE
  5
2AF
100
AcDbEntity
  8
0
100
AcDbLine
 62
7
  6
CONTINUOUS
 10
2.7840990741
 20
6.1390928161
 11
3.2474226651
 21
6.1390928161
  0
LINE
  5
2B0
100
AcDbEntity
  8
0
100
AcDbLine
 62
7
  6
CONTINUOUS
 10
6.7840990741
 20
6.1390928161
 11
7.2474226651
 21
6.1390928161
  0
LINE
  5
2B1
100
AcDbEntity
  8
0
100
AcDbLine
 62
7
  6
CONTINUOUS
 10
2.7840990741
 20
6.1490928161
 11
3.2474226651
 21
6.1490928161
  0
LINE
  5
2B2
100
AcDbEntity
  8
0
100
AcDbLine
 62
7
  6
CONTINUOUS
 10
6.7840990741
 20
6.1490928161
 11
7.2474226651
 21
6.1490928161
  0
LINE
  5
2B3
100
AcDbEntity
  8
0
100
AcDbLine
 62
7
  6
CONTINUOUS
 10
4.5152608696
 20
6.2119206889
 11
4.7045108696
 21
6.2119206889
  0
LINE
  5
2B4
100
AcDbEntity
  8
0
100
AcDbLine
 62
7
  6
CONTINUOUS
 10
5.3270108696
 20
6.2119206889
 11
5.5162608696
 21
6.2119206889
  0
LINE
  5
2B5
100
AcDbEntity
  8
0
100
AcDbLine
 62
7
  6
CONTINUOUS
 10
6.4564697374
 20
6.2265928161
 11
6.3857608696
 21
6.2265928161
  0
LINE
  5
2B6
100
AcDbEntity
  8
0
100
AcDbLine
 62
7
  6
CONTINUOUS
 10
3.5750501911
 20
6.2265928161
 11
3.6457608696
 21
6.2265928161
  0
LINE
  5
2B7
100
AcDbEntity
  8
0
100
AcDbLine
 62
7
  6
CONTINUOUS
 10
2.4832608696
 20
6.2328428161
 11
2.9506005433
 21
6.2328428161
  0
LINE
  5
2B8
100
AcDbEntity
  8
0
100
AcDbLine
 62
7
  6
CONTINUOUS
 10
7.0809212699
 20
6.2328428161
 11
7.5482608696
 21
6.2328428161
  0
LINE
  5
2B9
100
AcDbEntity
  8
0
100
AcDbLine
 62
7
  6
CONTINUOUS
 10
4.5002608696
 20
6.2419206889
 11
4.7045108696
 21
6.2419206889
  0
LINE
  5
2BA
100
AcDbEntity
  8
0
100
AcDbLine
 62
7
  6
CONTINUOUS
 10
5.3270108696
 20
6.2419206889
 11
5.5312608696
 21
6.2419206889
  0
LINE
  5
2BB
100
AcDbEntity
  8
0
100
AcDbLine
 62
7
  6
CONTINUOUS
 10
2.4832608696
 20
6.2478428161
 11
2.8968237863
 21
6.2478428161
  0
LINE
  5
2BC
100
AcDbEntity
  8
0
100
AcDbLine
 62
7
  6
CONTINUOUS
 10
7.1346976035
 20
6.2478428161
 11
7.5482608696
 21
6.2478428161
  0
LINE
  5
2BD
100
AcDbEntity
  8
0
100
AcDbLine
 62
7
  6
CONTINUOUS
 10
5.5632608696
 20
6.2578428161
 11
5.5462608696
 21
6.2578428161
  0
LINE
  5
2BE
100
AcDbEntity
  8
0
100
AcDbLine
 62
7
  6
CONTINUOUS
 10
4.4852608696
 20
6.2578428161
 11
4.4682608696
 21
6.2578428161
  0
LINE
  5
2BF
100
AcDbEntity
  8
0
100
AcDbLine
 62
7
  6
CONTINUOUS
 10
6.4957608696
 20
6.2590928161
 11
7.0165924384
 21
6.2590939654
  0
LINE
  5
2C0
100
AcDbEntity
  8
0
100
AcDbLine
 62
7
  6
CONTINUOUS
 10
2.4682608696
 20
6.2628428161
 11
2.4532608696
 21
6.2628428155
  0
LINE
  5
2C1
100
AcDbEntity
  8
0
100
AcDbLine
 62
7
  6
CONTINUOUS
 10
7.5632608696
 20
6.2628428161
 11
7.5782608696
 21
6.2628428161
  0
LINE
  5
2C2
100
AcDbEntity
  8
0
100
AcDbLine
 62
7
  6
CONTINUOUS
 10
8.0657608696
 20
6.2703428161
 11
7.8357608696
 21
6.2703428161
  0
LINE
  5
2C3
100
AcDbEntity
  8
0
100
AcDbLine
 62
7
  6
CONTINUOUS
 10
1.9657608696
 20
6.2703428161
 11
2.1957608696
 21
6.2703428161
  0
LINE
  5
2C4
100
AcDbEntity
  8
0
100
AcDbLine
 62
7
  6
CONTINUOUS
 10
8.0657608696
 20
6.2803428161
 11
7.8357608696
 21
6.2803428161
  0
LINE
  5
2C5
100
AcDbEntity
  8
0
100
AcDbLine
 62
7
  6
CONTINUOUS
 10
1.9657608696
 20
6.2803428161
 11
2.1957608696
 21
6.2803428161
  0
LINE
  5
2C6
100
AcDbEntity
  8
0
100
AcDbLine
 62
7
  6
CONTINUOUS
 10
6.3167608696
 20
6.3053428161
 11
5.5782608696
 21
6.3053428161
  0
LINE
  5
2C7
100
AcDbEntity
  8
0
100
AcDbLine
 62
7
  6
CONTINUOUS
 10
3.7147608696
 20
6.3053428161
 11
4.4532608696
 21
6.3053428161
  0
LINE
  5
2C8
100
AcDbEntity
  8
0
100
AcDbLine
 62
7
  6
CONTINUOUS
 10
7.8107608696
 20
6.3078428161
 11
7.5782608696
 21
6.3078428161
  0
LINE
  5
2C9
100
AcDbEntity
  8
0
100
AcDbLine
 62
7
  6
CONTINUOUS
 10
2.2207608696
 20
6.3078428161
 11
2.4532608696
 21
6.3078428161
  0
LINE
  5
2CA
100
AcDbEntity
  8
0
100
AcDbLine
 62
7
  6
CONTINUOUS
 10
8.5912608696
 20
6.3828428161
 11
8.3362608696
 21
6.3828428161
  0
LINE
  5
2CB
100
AcDbEntity
  8
0
100
AcDbLine
 62
7
  6
CONTINUOUS
 10
1.6952608696
 20
6.3828428161
 11
1.4402608696
 21
6.3828428161
  0
LINE
  5
2CC
100
AcDbEntity
  8
0
100
AcDbLine
 62
7
  6
CONTINUOUS
 10
8.4637608696
 20
6.3928428161
 11
8.3262608696
 21
6.3928428161
  0
LINE
  5
2CD
100
AcDbEntity
  8
0
100
AcDbLine
 62
7
  6
CONTINUOUS
 10
1.7052608696
 20
6.3928428161
 11
1.5677608696
 21
6.3928428161
  0
LINE
  5
2CE
100
AcDbEntity
  8
0
100
AcDbLine
 62
7
  6
CONTINUOUS
 10
3.0149290515
 20
6.259093966
 11
3.5357608696
 21
6.2590928161
  0
LWPOLYLINE
  5
2CF
100
AcDbEntity
  8
0
100
AcDbPolyline
 62
7
  6
CONTINUOUS
 90
45
 70
0
 10
3.5357608696
 20
6.2591007249
 10
3.5360273033
 20
6.2590995414
 10
3.5369876873
 20
6.2590756219
 10
3.537946806
 20
6.2590209555
 10
3.5389036742
 20
6.2589355989
 10
3.5398573116
 20
6.2588196404
 10
3.5408067432
 20
6.2586731991
 10
3.541750995
 20
6.2584964254
 10
3.5426890986
 20
6.2582895011
 10
3.5436200947
 20
6.258052638
 10
3.5445430283
 20
6.257786079
 10
3.5454569528
 20
6.2574900976
 10
3.5463609337
 20
6.2571649963
 10
3.5472540435
 20
6.2568111084
 10
3.548135366
 20
6.2564287966
 10
3.5490040001
 20
6.2560184513
 10
3.5498590546
 20
6.2555804929
 10
3.5506996519
 20
6.2551153702
 10
3.5515249325
 20
6.2546235578
 10
3.5523340492
 20
6.2541055595
 10
3.5531261714
 20
6.253561906
 10
3.5539004883
 20
6.2529931523
 10
3.5546562072
 20
6.252399879
 10
3.5553925494
 20
6.2517826957
 10
3.5561087544
 20
6.2511422385
 10
3.5568040888
 20
6.2504791621
 10
3.5574778366
 20
6.2497941482
 10
3.558129296
 20
6.2490879104
 10
3.5587577991
 20
6.2483611738
 10
3.5593627016
 20
6.2476146845
 10
3.5599433744
 20
6.2468492214
 10
3.5604992234
 20
6.2460655713
 10
3.5610296802
 20
6.2452645393
 10
3.561534195
 20
6.2444469611
 10
3.5620122533
 20
6.2436136773
 10
3.562463368
 20
6.2427655444
 10
3.562887073
 20
6.2419034479
 10
3.5632829387
 20
6.2410282736
 10
3.5636505635
 20
6.2401409215
 10
3.5639895694
 20
6.2392423197
 10
3.5642996151
 20
6.2383333921
 10
3.5645803894
 20
6.2374150723
 10
3.5648316067
 20
6.2364883199
 10
3.5650530167
 20
6.2355540922
 10
3.565224163
 20
6.2347205922
  0
LINE
  5
2D0
100
AcDbEntity
  8
0
100
AcDbLine
 62
7
  6
CONTINUOUS
 10
1.3945562536
 20
6.5790921321
 11
1.3883927697
 21
6.579631367
  0
LINE
  5
2D1
100
AcDbEntity
  8
0
100
AcDbLine
 62
7
  6
CONTINUOUS
 10
1.3919537721
 20
6.5845304876
 11
1.3839065802
 21
6.5852345257
  0
LINE
  5
2D2
100
AcDbEntity
  8
0
100
AcDbLine
 62
7
  6
CONTINUOUS
 10
1.3957931951
 20
6.6259386765
 11
1.3957393182
 21
6.6259433902
  0
LWPOLYLINE
  5
2D3
100
AcDbEntity
  8
0
100
AcDbPolyline
 62
7
  6
CONTINUOUS
 90
52
 70
0
 10
6.4662947279
 20
6.9059642283
 10
6.4662621993
 20
6.9061275092
 10
6.4662196821
 20
6.906322268
 10
6.4661722823
 20
6.9065201757
 10
6.466119775
 20
6.9067210822
 10
6.4660622083
 20
6.9069239022
 10
6.4659995165
 20
6.9071281705
 10
6.4659314452
 20
6.9073340585
 10
6.4658578181
 20
6.9075414373
 10
6.4657784528
 20
6.9077501817
 10
6.4656932039
 20
6.9079600643
 10
6.4656019596
 20
6.9081707906
 10
6.4655045713
 20
6.9083821666
 10
6.4654008961
 20
6.9085939854
 10
6.4652908517
 20
6.9088059265
 10
6.465174317
 20
6.9090177613
 10
6.465051166
 20
6.9092292716
 10
6.4649213308
 20
6.9094401462
 10
6.4647847092
 20
6.9096501415
 10
6.4646412042
 20
6.9098590092
 10
6.464490776
 20
6.9100664248
 10
6.4643333486
 20
6.9102721253
 10
6.4641688546
 20
6.9104758403
 10
6.463997289
 20
6.9106772301
 10
6.4638186074
 20
6.9108760134
 10
6.4636327749
 20
6.9110719021
 10
6.4634398258
 20
6.9112645443
 10
6.4632397658
 20
6.91145363
 10
6.4630325824
 20
6.9116388718
 10
6.4628183051
 20
6.9118199492
 10
6.4625970265
 20
6.9119964996
 10
6.4623687216
 20
6.9121682625
 10
6.4621332517
 20
6.9123350489
 10
6.4618906882
 20
6.9124965066
 10
6.4616410815
 20
6.9126523038
 10
6.4613842572
 20
6.912802237
 10
6.4611203008
 20
6.9129459312
 10
6.4608493151
 20
6.9130830073
 10
6.4605711512
 20
6.9132132041
 10
6.460285937
 20
6.9133361115
 10
6.4599938208
 20
6.9134513163
 10
6.4596946919
 20
6.9135584986
 10
6.4593887324
 20
6.9136572144
 10
6.4590761477
 20
6.9137470188
 10
6.4587568802
 20
6.9138275337
 10
6.4584311786
 20
6.9138982855
 10
6.4580993193
 20
6.9139588015
 10
6.4577613136
 20
6.9140086493
 10
6.4574174916
 20
6.9140473319
 10
6.4570682147
 20
6.9140743565
 10
6.4567135811
 20
6.9140892435
 10
6.4564715535
 20
6.9140921728
  0
LINE
  5
2D4
100
AcDbEntity
  8
0
100
AcDbLine
 62
7
  6
CONTINUOUS
 10
7.2474226651
 20
6.1290928161
 11
7.2474226651
 21
6.1490928161
  0
LINE
  5
2D5
100
AcDbEntity
  8
0
100
AcDbLine
 62
7
  6
CONTINUOUS
 10
7.2474226651
 20
6.9915928161
 11
7.2474226651
 21
7.0115928161
  0
LINE
  5
2D6
100
AcDbEntity
  8
0
100
AcDbLine
 62
7
  6
CONTINUOUS
 10
7.5482608696
 20
6.2478428161
 11
7.5482608702
 21
6.2328428161
  0
LINE
  5
2D7
100
AcDbEntity
  8
0
100
AcDbLine
 62
7
  6
CONTINUOUS
 10
7.5482608696
 20
6.8928428161
 11
7.5482608696
 21
6.9078428161
  0
LINE
  5
2D8
100
AcDbEntity
  8
0
100
AcDbLine
 62
7
  6
CONTINUOUS
 10
8.636867528
 20
6.5179468228
 11
8.6371384269
 21
6.5186503357
  0
LINE
  5
2D9
100
AcDbEntity
  8
0
100
AcDbLine
 62
7
  6
CONTINUOUS
 10
8.6371384269
 20
6.5186503357
 11
8.6375120246
 21
6.5196065144
  0
LINE
  5
2DA
100
AcDbEntity
  8
0
100
AcDbLine
 62
7
  6
CONTINUOUS
 10
8.6374567041
 20
6.519465651
 11
8.6379474873
 21
6.5207064406
  0
LINE
  5
2DB
100
AcDbEntity
  8
0
100
AcDbLine
 62
7
  6
CONTINUOUS
 10
8.6379474873
 20
6.5207064406
 11
8.6386736774
 21
6.5225171191
  0
LINE
  5
2DC
100
AcDbEntity
  8
0
100
AcDbLine
 62
7
  6
CONTINUOUS
 10
8.6386567905
 20
6.5224751747
 11
8.6394652798
 21
6.5244636586
  0
LINE
  5
2DD
100
AcDbEntity
  8
0
100
AcDbLine
 62
7
  6
CONTINUOUS
 10
8.6393517036
 20
6.5241860889
 11
8.6396080973
 21
6.5248121738
  0
LINE
  5
2DE
100
AcDbEntity
  8
0
100
AcDbLine
 62
7
  6
CONTINUOUS
 10
8.3262608696
 20
6.4140928161
 11
8.0757608696
 21
6.4140928161
  0
LINE
  5
2DF
100
AcDbEntity
  8
0
100
AcDbLine
 62
7
  6
CONTINUOUS
 10
1.7052608696
 20
6.4140928161
 11
1.9557608696
 21
6.4140928161
  0
LINE
  5
2E0
100
AcDbEntity
  8
0
100
AcDbLine
 62
7
  6
CONTINUOUS
 10
1.4302608696
 20
6.4763428161
 11
1.5677608696
 21
6.4763428161
  0
LINE
  5
2E1
100
AcDbEntity
  8
0
100
AcDbLine
 62
7
  6
CONTINUOUS
 10
8.4637608696
 20
6.4763428161
 11
8.6012608696
 21
6.4763428161
  0
LINE
  5
2E2
100
AcDbEntity
  8
0
100
AcDbLine
 62
7
  6
CONTINUOUS
 10
1.4302608696
 20
6.4914086321
 11
1.4164111146
 21
6.4914086321
  0
LINE
  5
2E3
100
AcDbEntity
  8
0
100
AcDbLine
 62
7
  6
CONTINUOUS
 10
8.6012608696
 20
6.4914086321
 11
8.6151106245
 21
6.4914086321
  0
LINE
  5
2E4
100
AcDbEntity
  8
0
100
AcDbLine
 62
7
  6
CONTINUOUS
 10
8.0657608696
 20
6.5603428161
 11
7.8357608696
 21
6.5603428161
  0
LINE
  5
2E5
100
AcDbEntity
  8
0
100
AcDbLine
 62
7
  6
CONTINUOUS
 10
1.9657608696
 20
6.5603428161
 11
2.1957608696
 21
6.5603428161
  0
LINE
  5
2E6
100
AcDbEntity
  8
0
100
AcDbLine
 62
7
  6
CONTINUOUS
 10
5.3513858695
 20
6.5703428161
 11
5.3270108696
 21
6.5703428161
  0
LINE
  5
2E7
100
AcDbEntity
  8
0
100
AcDbLine
 62
7
  6
CONTINUOUS
 10
4.6801358696
 20
6.5703428161
 11
4.7045108696
 21
6.5703428161
  0
LINE
  5
2E8
100
AcDbEntity
  8
0
100
AcDbLine
 62
7
  6
CONTINUOUS
 10
7.3595108696
 20
6.5703428161
 11
6.4564702854
 21
6.5703428161
  0
LINE
  5
2E9
100
AcDbEntity
  8
0
100
AcDbLine
 62
7
  6
CONTINUOUS
 10
3.5750514537
 20
6.5703428161
 11
2.6720108696
 21
6.5703428161
  0
LINE
  5
2EA
100
AcDbEntity
  8
0
100
AcDbLine
 62
7
  6
CONTINUOUS
 10
8.0657608696
 20
6.5803428161
 11
7.8357608696
 21
6.5803428161
  0
LINE
  5
2EB
100
AcDbEntity
  8
0
100
AcDbLine
 62
7
  6
CONTINUOUS
 10
1.9657608696
 20
6.5803428161
 11
2.1957608696
 21
6.5803428161
  0
LINE
  5
2EC
100
AcDbEntity
  8
0
100
AcDbLine
 62
7
  6
CONTINUOUS
 10
1.4302608696
 20
6.6492770002
 11
1.4164111146
 21
6.6492770002
  0
LINE
  5
2ED
100
AcDbEntity
  8
0
100
AcDbLine
 62
7
  6
CONTINUOUS
 10
8.6012608696
 20
6.6492770002
 11
8.6151106245
 21
6.6492770002
  0
LINE
  5
2EE
100
AcDbEntity
  8
0
100
AcDbLine
 62
7
  6
CONTINUOUS
 10
1.4302608696
 20
6.6643428161
 11
1.5677608696
 21
6.6643428161
  0
LINE
  5
2EF
100
AcDbEntity
  8
0
100
AcDbLine
 62
7
  6
CONTINUOUS
 10
8.4637608696
 20
6.6643428161
 11
8.6012608696
 21
6.6643428161
  0
LINE
  5
2F0
100
AcDbEntity
  8
0
100
AcDbLine
 62
7
  6
CONTINUOUS
 10
4.8409180401
 20
6.8662883708
 11
4.8295654078
 21
6.8728428161
  0
LINE
  5
2F1
100
AcDbEntity
  8
0
100
AcDbLine
 62
7
  6
CONTINUOUS
 10
5.3594786528
 20
6.5668972615
 11
5.3708312852
 21
6.5603428162
  0
LINE
  5
2F2
100
AcDbEntity
  8
0
100
AcDbLine
 62
7
  6
CONTINUOUS
 10
6.6859495283
 20
6.2590928161
 11
6.7494580579
 21
6.1490928161
  0
LINE
  5
2F3
100
AcDbEntity
  8
0
100
AcDbLine
 62
7
  6
CONTINUOUS
 10
6.6974965337
 20
6.2590928161
 11
6.7581183119
 21
6.1540928161
  0
LINE
  5
2F4
100
AcDbEntity
  8
0
100
AcDbLine
 62
7
  6
CONTINUOUS
 10
6.7090435391
 20
6.2590928161
 11
6.766778566
 21
6.1590928161
  0
LINE
  5
2F5
100
AcDbEntity
  8
0
100
AcDbLine
 62
7
  6
CONTINUOUS
 10
7.5632608696
 20
6.2628428161
 11
7.5632608696
 21
6.8778428161
  0
LINE
  5
2F6
100
AcDbEntity
  8
0
100
AcDbLine
 62
7
  6
CONTINUOUS
 10
7.5782608696
 20
6.2628428161
 11
7.5782608696
 21
6.8778428161
  0
LINE
  5
2F7
100
AcDbEntity
  8
0
100
AcDbLine
 62
7
  6
CONTINUOUS
 10
7.8107608696
 20
6.3078428161
 11
7.8107608696
 21
6.8328428161
  0
LINE
  5
2F8
100
AcDbEntity
  8
0
100
AcDbLine
 62
7
  6
CONTINUOUS
 10
7.8257608696
 20
6.2803428161
 11
7.8257608696
 21
6.8603428161
  0
LINE
  5
2F9
100
AcDbEntity
  8
0
100
AcDbLine
 62
7
  6
CONTINUOUS
 10
7.8357608696
 20
6.2703428161
 11
7.8357608696
 21
6.8703428161
  0
LINE
  5
2FA
100
AcDbEntity
  8
0
100
AcDbLine
 62
7
  6
CONTINUOUS
 10
8.6361588334
 20
6.5159976184
 11
8.6361695737
 21
6.5160319159
  0
LINE
  5
2FB
100
AcDbEntity
  8
0
100
AcDbLine
 62
7
  6
CONTINUOUS
 10
8.6361695737
 20
6.5160319159
 11
8.6361846622
 21
6.5160788022
  0
LINE
  5
2FC
100
AcDbEntity
  8
0
100
AcDbLine
 62
7
  6
CONTINUOUS
 10
8.6361846622
 20
6.5160788022
 11
8.636204077
 21
6.516137715
  0
LINE
  5
2FD
100
AcDbEntity
  8
0
100
AcDbLine
 62
7
  6
CONTINUOUS
 10
8.636204077
 20
6.516137715
 11
8.6362278376
 21
6.5162083286
  0
LINE
  5
2FE
100
AcDbEntity
  8
0
100
AcDbLine
 62
7
  6
CONTINUOUS
 10
8.6362278376
 20
6.5162083286
 11
8.6362559353
 21
6.5162903193
  0
LINE
  5
2FF
100
AcDbEntity
  8
0
100
AcDbLine
 62
7
  6
CONTINUOUS
 10
8.6362559353
 20
6.5162903193
 11
8.636288459
 21
6.5163837139
  0
LINE
  5
300
100
AcDbEntity
  8
0
100
AcDbLine
 62
7
  6
CONTINUOUS
 10
8.636288459
 20
6.5163837139
 11
8.6363457585
 21
6.516545428
  0
LINE
  5
301
100
AcDbEntity
  8
0
100
AcDbLine
 62
7
  6
CONTINUOUS
 10
8.6363178995
 20
6.5164670416
 11
8.6363897218
 21
6.516667735
  0
LINE
  5
302
100
AcDbEntity
  8
0
100
AcDbLine
 62
7
  6
CONTINUOUS
 10
8.6363897218
 20
6.516667735
 11
8.6364641413
 21
6.5168722732
  0
LINE
  5
303
100
AcDbEntity
  8
0
100
AcDbLine
 62
7
  6
CONTINUOUS
 10
8.6364641413
 20
6.5168722732
 11
8.6365793257
 21
6.5171840502
  0
LINE
  5
304
100
AcDbEntity
  8
0
100
AcDbLine
 62
7
  6
CONTINUOUS
 10
8.6365793257
 20
6.5171840502
 11
8.6367137203
 21
6.5175422687
  0
LINE
  5
305
100
AcDbEntity
  8
0
100
AcDbLine
 62
7
  6
CONTINUOUS
 10
8.6367099864
 20
6.5175323291
 11
8.636867528
 21
6.5179468228
  0
LINE
  5
306
100
AcDbEntity
  8
0
100
AcDbLine
 62
7
  6
CONTINUOUS
 10
1.3957393182
 20
6.5147422421
 11
1.3957931951
 21
6.5147469557
  0
LINE
  5
307
100
AcDbEntity
  8
0
100
AcDbLine
 62
7
  6
CONTINUOUS
 10
1.3839065802
 20
6.5554511066
 11
1.3919537721
 21
6.5561551446
  0
LINE
  5
308
100
AcDbEntity
  8
0
100
AcDbLine
 62
7
  6
CONTINUOUS
 10
1.3883927697
 20
6.5610542652
 11
1.3945564384
 21
6.5615935163
  0
LWPOLYLINE
  5
309
100
AcDbEntity
  8
0
100
AcDbPolyline
 62
7
  6
CONTINUOUS
 90
44
 70
0
 10
3.5750519999
 20
6.9140919495
 10
3.5746620444
 20
6.9140843433
 10
3.5742570265
 20
6.9140603
 10
3.5738573122
 20
6.9140203284
 10
3.5734634993
 20
6.9139649754
 10
3.5730761438
 20
6.9138948038
 10
3.5726957614
 20
6.9138103899
 10
3.5723228287
 20
6.9137123211
 10
3.571957782
 20
6.9136011933
 10
3.5716010188
 20
6.9134776091
 10
3.5712528993
 20
6.9133421757
 10
3.5709137459
 20
6.9131955023
 10
3.5705838446
 20
6.9130381988
 10
3.5702634471
 20
6.912870874
 10
3.5699527701
 20
6.9126941336
 10
3.569651997
 20
6.9125085787
 10
3.5693612803
 20
6.9123148047
 10
3.5690807389
 20
6.912113398
 10
3.5688104662
 20
6.9119049391
 10
3.5685505316
 20
6.9116900027
 10
3.5683009664
 20
6.9114691442
 10
3.5680617851
 20
6.9112429145
 10
3.5678329903
 20
6.9110118666
 10
3.5676145421
 20
6.9107765229
 10
3.5674063797
 20
6.9105373927
 10
3.567208438
 20
6.9102949912
 10
3.5670206135
 20
6.9100497986
 10
3.566842785
 20
6.9098022793
 10
3.566674829
 20
6.909552904
 10
3.5665165827
 20
6.9093020946
 10
3.5663678833
 20
6.9090502776
 10
3.5662285782
 20
6.9087979105
 10
3.5660984469
 20
6.9085453378
 10
3.5659772996
 20
6.9082929654
 10
3.565864994
 20
6.9080413268
 10
3.5657612913
 20
6.9077907782
 10
3.5656659308
 20
6.9075416232
 10
3.5655786989
 20
6.9072943005
 10
3.5654992842
 20
6.9070489832
 10
3.5654274481
 20
6.9068060557
 10
3.5653630322
 20
6.906566262
 10
3.5653056803
 20
6.9063296987
 10
3.5652551106
 20
6.9060967387
 10
3.565228917
 20
6.9059641772
  0
LINE
  5
30A
100
AcDbEntity
  8
0
100
AcDbLine
 62
7
  6
CONTINUOUS
 10
8.3262608696
 20
6.7265928161
 11
8.0757608696
 21
6.7265928161
  0
LINE
  5
30B
100
AcDbEntity
  8
0
100
AcDbLine
 62
7
  6
CONTINUOUS
 10
1.7052608696
 20
6.7265928161
 11
1.9557608696
 21
6.7265928161
  0
LINE
  5
30C
100
AcDbEntity
  8
0
100
AcDbLine
 62
7
  6
CONTINUOUS
 10
1.5677608696
 20
6.7478428161
 11
1.7052608696
 21
6.7478428161
  0
LINE
  5
30D
100
AcDbEntity
  8
0
100
AcDbLine
 62
7
  6
CONTINUOUS
 10
8.3262608696
 20
6.7478428161
 11
8.4637608696
 21
6.7478428161
  0
LINE
  5
30E
100
AcDbEntity
  8
0
100
AcDbLine
 62
7
  6
CONTINUOUS
 10
1.4402608696
 20
6.7578428161
 11
1.6952608696
 21
6.7578428161
  0
LINE
  5
30F
100
AcDbEntity
  8
0
100
AcDbLine
 62
7
  6
CONTINUOUS
 10
8.3362608696
 20
6.7578428161
 11
8.5912608696
 21
6.7578428161
  0
LINE
  5
310
100
AcDbEntity
  8
0
100
AcDbLine
 62
7
  6
CONTINUOUS
 10
7.8107608696
 20
6.8328428161
 11
7.5782608696
 21
6.8328428161
  0
LINE
  5
311
100
AcDbEntity
  8
0
100
AcDbLine
 62
7
  6
CONTINUOUS
 10
2.2207608696
 20
6.8328428161
 11
2.4532608696
 21
6.8328428161
  0
LINE
  5
312
100
AcDbEntity
  8
0
100
AcDbLine
 62
7
  6
CONTINUOUS
 10
6.3167608696
 20
6.8353428161
 11
5.5782608696
 21
6.8353428161
  0
LINE
  5
313
100
AcDbEntity
  8
0
100
AcDbLine
 62
7
  6
CONTINUOUS
 10
3.7147608696
 20
6.8353428161
 11
4.4532608696
 21
6.8353428161
  0
LINE
  5
314
100
AcDbEntity
  8
0
100
AcDbLine
 62
7
  6
CONTINUOUS
 10
8.0657608696
 20
6.8603428161
 11
7.8357608696
 21
6.8603428161
  0
LINE
  5
315
100
AcDbEntity
  8
0
100
AcDbLine
 62
7
  6
CONTINUOUS
 10
1.9657608696
 20
6.8603428161
 11
2.1957608696
 21
6.8603428161
  0
LINE
  5
316
100
AcDbEntity
  8
0
100
AcDbLine
 62
7
  6
CONTINUOUS
 10
8.0657608696
 20
6.8703428161
 11
7.8357608696
 21
6.8703428161
  0
LINE
  5
317
100
AcDbEntity
  8
0
100
AcDbLine
 62
7
  6
CONTINUOUS
 10
1.9657608696
 20
6.8703428161
 11
2.1957608696
 21
6.8703428161
  0
LINE
  5
318
100
AcDbEntity
  8
0
100
AcDbLine
 62
7
  6
CONTINUOUS
 10
7.5632608696
 20
6.8778428161
 11
7.5782608696
 21
6.8778428168
  0
LINE
  5
319
100
AcDbEntity
  8
0
100
AcDbLine
 62
7
  6
CONTINUOUS
 10
2.4682608696
 20
6.8778428161
 11
2.4532608696
 21
6.8778428161
  0
LINE
  5
31A
100
AcDbEntity
  8
0
100
AcDbLine
 62
7
  6
CONTINUOUS
 10
3.5357608696
 20
6.8815928161
 11
3.0149293008
 21
6.8815916669
  0
LINE
  5
31B
100
AcDbEntity
  8
0
100
AcDbLine
 62
7
  6
CONTINUOUS
 10
5.5632608696
 20
6.8828428161
 11
5.5462608696
 21
6.8828428161
  0
LINE
  5
31C
100
AcDbEntity
  8
0
100
AcDbLine
 62
7
  6
CONTINUOUS
 10
5.1846358233
 20
6.8828428161
 11
5.1589632849
 21
6.8828428161
  0
LINE
  5
31D
100
AcDbEntity
  8
0
100
AcDbLine
 62
7
  6
CONTINUOUS
 10
4.8725584543
 20
6.8828428161
 11
4.8468859158
 21
6.8828428161
  0
LINE
  5
31E
100
AcDbEntity
  8
0
100
AcDbLine
 62
7
  6
CONTINUOUS
 10
4.4852608696
 20
6.8828428161
 11
4.4682608696
 21
6.8828428161
  0
LINE
  5
31F
100
AcDbEntity
  8
0
100
AcDbLine
 62
7
  6
CONTINUOUS
 10
7.5482608696
 20
6.8928428161
 11
7.1346979529
 21
6.8928428161
  0
LINE
  5
320
100
AcDbEntity
  8
0
100
AcDbLine
 62
7
  6
CONTINUOUS
 10
2.8968241356
 20
6.8928428161
 11
2.4832608696
 21
6.8928428161
  0
LINE
  5
321
100
AcDbEntity
  8
0
100
AcDbLine
 62
7
  6
CONTINUOUS
 10
4.5002608696
 20
6.8987649433
 11
4.9142630026
 21
6.8987649433
  0
LINE
  5
322
100
AcDbEntity
  8
0
100
AcDbLine
 62
7
  6
CONTINUOUS
 10
5.1172587365
 20
6.8987649433
 11
5.5312608696
 21
6.8987649433
  0
LINE
  5
323
100
AcDbEntity
  8
0
100
AcDbLine
 62
7
  6
CONTINUOUS
 10
7.5482608696
 20
6.9078428161
 11
7.0809211958
 21
6.9078428161
  0
LINE
  5
324
100
AcDbEntity
  8
0
100
AcDbLine
 62
7
  6
CONTINUOUS
 10
2.9506004692
 20
6.9078428161
 11
2.4832608696
 21
6.9078428161
  0
LINE
  5
325
100
AcDbEntity
  8
0
100
AcDbLine
 62
7
  6
CONTINUOUS
 10
6.456471548
 20
6.9140928161
 11
6.3857608696
 21
6.9140928161
  0
LINE
  5
326
100
AcDbEntity
  8
0
100
AcDbLine
 62
7
  6
CONTINUOUS
 10
3.5750520017
 20
6.9140928161
 11
3.6457608696
 21
6.9140928161
  0
LINE
  5
327
100
AcDbEntity
  8
0
100
AcDbLine
 62
7
  6
CONTINUOUS
 10
4.5152608696
 20
6.9287649433
 11
5.5162608696
 21
6.9287649433
  0
LINE
  5
328
100
AcDbEntity
  8
0
100
AcDbLine
 62
7
  6
CONTINUOUS
 10
7.2474226651
 20
6.9915928161
 11
6.7840990741
 21
6.9915928161
  0
LINE
  5
329
100
AcDbEntity
  8
0
100
AcDbLine
 62
7
  6
CONTINUOUS
 10
3.2474226651
 20
6.9915928161
 11
2.7840990741
 21
6.9915928161
  0
LINE
  5
32A
100
AcDbEntity
  8
0
100
AcDbLine
 62
7
  6
CONTINUOUS
 10
7.2474226651
 20
7.0015928161
 11
6.7840990741
 21
7.0015928161
  0
LINE
  5
32B
100
AcDbEntity
  8
0
100
AcDbLine
 62
7
  6
CONTINUOUS
 10
3.2474226651
 20
7.0015928161
 11
2.7840990741
 21
7.0015928161
  0
LINE
  5
32C
100
AcDbEntity
  8
0
100
AcDbLine
 62
7
  6
CONTINUOUS
 10
7.2474226651
 20
7.0115928161
 11
6.7840990741
 21
7.0115928161
  0
LINE
  5
32D
100
AcDbEntity
  8
0
100
AcDbLine
 62
7
  6
CONTINUOUS
 10
3.2474226651
 20
7.0115928161
 11
2.7840990741
 21
7.0115928161
  0
LINE
  5
32E
100
AcDbEntity
  8
0
100
AcDbLine
 62
7
  6
CONTINUOUS
 10
7.0165926876
 20
6.8815916662
 11
6.4957608696
 21
6.8815928161
  0
LWPOLYLINE
  5
32F
100
AcDbEntity
  8
0
100
AcDbPolyline
 62
7
  6
CONTINUOUS
 90
45
 70
0
 10
6.4957608696
 20
6.8815849073
 10
6.4954944358
 20
6.8815860908
 10
6.4945340518
 20
6.8816100103
 10
6.4935749331
 20
6.8816646767
 10
6.4926180649
 20
6.8817500333
 10
6.4916644275
 20
6.8818659918
 10
6.4907149959
 20
6.8820124332
 10
6.4897707441
 20
6.8821892068
 10
6.4888326406
 20
6.8823961311
 10
6.4879016445
 20
6.8826329943
 10
6.4869787108
 20
6.8828995533
 10
6.4860647863
 20
6.8831955347
 10
6.4851608055
 20
6.8835206359
 10
6.4842676957
 20
6.8838745239
 10
6.4833863731
 20
6.8842568357
 10
6.482517739
 20
6.8846671809
 10
6.4816626845
 20
6.8851051393
 10
6.4808220872
 20
6.8855702621
 10
6.4799968067
 20
6.8860620744
 10
6.47918769
 20
6.8865800727
 10
6.4783955678
 20
6.8871237262
 10
6.4776212508
 20
6.8876924799
 10
6.4768655319
 20
6.8882857532
 10
6.4761291897
 20
6.8889029366
 10
6.4754129848
 20
6.8895433937
 10
6.4747176503
 20
6.8902064702
 10
6.4740439025
 20
6.8908914841
 10
6.4733924432
 20
6.8915977218
 10
6.47276394
 20
6.8923244585
 10
6.4721590375
 20
6.8930709477
 10
6.4715783647
 20
6.8938364108
 10
6.4710225157
 20
6.8946200609
 10
6.4704920589
 20
6.8954210929
 10
6.4699875442
 20
6.8962386711
 10
6.4695094858
 20
6.8970719549
 10
6.4690583712
 20
6.8979200878
 10
6.4686346662
 20
6.8987821843
 10
6.4682388005
 20
6.8996573587
 10
6.4678711756
 20
6.9005447108
 10
6.4675321698
 20
6.9014433125
 10
6.467222124
 20
6.9023522401
 10
6.4669413498
 20
6.9032705599
 10
6.4666901324
 20
6.9041973123
 10
6.4664687224
 20
6.9051315401
 10
6.4662975761
 20
6.9059650401
  0
LINE
  5
330
100
AcDbEntity
  8
0
100
AcDbLine
 62
7
  6
CONTINUOUS
 10
8.635728544
 20
6.5147469557
 11
8.635782421
 21
6.5147422421
  0
LINE
  5
331
100
AcDbEntity
  8
0
100
AcDbLine
 62
7
  6
CONTINUOUS
 10
8.6395679671
 20
6.5561551446
 11
8.647615159
 21
6.5554511066
  0
LINE
  5
332
100
AcDbEntity
  8
0
100
AcDbLine
 62
7
  6
CONTINUOUS
 10
8.6369654855
 20
6.5615935002
 11
8.6431289694
 21
6.5610542652
  0
LINE
  5
333
100
AcDbEntity
  8
0
100
AcDbLine
 62
7
  6
CONTINUOUS
 10
7.2647431732
 20
6.1590928161
 11
7.2820636812
 21
6.1490928161
  0
LINE
  5
334
100
AcDbEntity
  8
0
100
AcDbLine
 62
7
  6
CONTINUOUS
 10
8.0657608696
 20
6.8703428161
 11
8.0657608696
 21
6.2703428161
  0
LINE
  5
335
100
AcDbEntity
  8
0
100
AcDbLine
 62
7
  6
CONTINUOUS
 10
8.0757608696
 20
6.8603428161
 11
8.0757608696
 21
6.2803428161
  0
LWPOLYLINE
  5
336
100
AcDbEntity
  8
0
100
AcDbPolyline
 62
7
  6
CONTINUOUS
 90
6
 70
0
 10
8.6361537626
 20
6.515981479
 10
8.6361529843
 20
6.5159786691
 10
8.6361514077
 20
6.515973065
 10
8.6361526979
 20
6.5159774132
 10
8.63615522
 20
6.5159858001
 10
8.6361588334
 20
6.5159976184
  0
LINE
  5
337
100
AcDbEntity
  8
0
100
AcDbLine
 62
7
  6
CONTINUOUS
 10
8.3262608696
 20
6.7478428161
 11
8.3262608696
 21
6.3928428161
  0
LINE
  5
338
100
AcDbEntity
  8
0
100
AcDbLine
 62
7
  6
CONTINUOUS
 10
8.3332795363
 20
6.7478428161
 11
8.3332795363
 21
6.3928428161
  0
LINE
  5
339
100
AcDbEntity
  8
0
100
AcDbLine
 62
7
  6
CONTINUOUS
 10
8.4567422029
 20
6.3928428161
 11
8.4567422029
 21
6.7478428161
  0
LINE
  5
33A
100
AcDbEntity
  8
0
100
AcDbLine
 62
7
  6
CONTINUOUS
 10
8.4637608696
 20
6.7478428161
 11
8.4637608696
 21
6.3928428161
  0
LINE
  5
33B
100
AcDbEntity
  8
0
100
AcDbLine
 62
7
  6
CONTINUOUS
 10
8.4737608696
 20
6.7578428161
 11
8.4737608696
 21
6.3828428161
  0
LINE
  5
33C
100
AcDbEntity
  8
0
100
AcDbLine
 62
7
  6
CONTINUOUS
 10
6.7494580579
 20
6.9915928161
 11
6.766778566
 21
6.9815928161
  0
LINE
  5
33D
100
AcDbEntity
  8
0
100
AcDbLine
 62
7
  6
CONTINUOUS
 10
7.3073227555
 20
6.9078428161
 11
7.2647431732
 21
6.9815928161
  0
LINE
  5
33E
100
AcDbEntity
  8
0
100
AcDbLine
 62
7
  6
CONTINUOUS
 10
7.3188697609
 20
6.9078428161
 11
7.2734034272
 21
6.9865928161
  0
LINE
  5
33F
100
AcDbEntity
  8
0
100
AcDbLine
 62
7
  6
CONTINUOUS
 10
7.3304167663
 20
6.9078428161
 11
7.2820636812
 21
6.9915928161
  0
LINE
  5
340
100
AcDbEntity
  8
0
100
AcDbLine
 62
7
  6
CONTINUOUS
 10
8.6363461661
 20
6.5648206027
 11
8.6363248271
 21
6.5651320939
  0
LINE
  5
341
100
AcDbEntity
  8
0
100
AcDbLine
 62
7
  6
CONTINUOUS
 10
8.6363267025
 20
6.5651004094
 11
8.6363097843
 21
6.5654198685
  0
LINE
  5
342
100
AcDbEntity
  8
0
100
AcDbLine
 62
7
  6
CONTINUOUS
 10
8.6363113481
 20
6.5653839293
 11
8.6362991037
 21
6.5657107891
  0
LWPOLYLINE
  5
343
100
AcDbEntity
  8
0
100
AcDbPolyline
 62
7
  6
CONTINUOUS
 90
34
 70
0
 10
8.6363007756
 20
6.5738097802
 10
8.6362992246
 20
6.5738617156
 10
8.6362930426
 20
6.5741519346
 10
8.6362911393
 20
6.5744427844
 10
8.6362936042
 20
6.5747330446
 10
8.6363004601
 20
6.5750219359
 10
8.6363116761
 20
6.5753087342
 10
8.6363271418
 20
6.5755922995
 10
8.636346706
 20
6.5758720007
 10
8.6363701869
 20
6.5761470664
 10
8.6363973999
 20
6.5764162585
 10
8.6364281889
 20
6.5766789842
 10
8.6364623739
 20
6.5769347111
 10
8.6364996589
 20
6.5771823718
 10
8.6365397895
 20
6.5774215373
 10
8.636582467
 20
6.5776517022
 10
8.6366272401
 20
6.5778717959
 10
8.6366737862
 20
6.5780815092
 10
8.6367217718
 20
6.5782805272
 10
8.6367706724
 20
6.5784679248
 10
8.63682011
 20
6.5786435566
 10
8.6368696712
 20
6.5788072345
 10
8.6369187067
 20
6.5789581571
 10
8.6369667578
 20
6.579096305
 10
8.637013395
 20
6.5792217933
 10
8.637057985
 20
6.5793342588
 10
8.6371000317
 20
6.5794338104
 10
8.6371391619
 20
6.5795208802
 10
8.6371749138
 20
6.5795957126
 10
8.6372068394
 20
6.5796586183
 10
8.6372345369
 20
6.579710023
 10
8.6372576143
 20
6.57975038
 10
8.6372756534
 20
6.5797801113
 10
8.637278622
 20
6.5797848246
  0
LINE
  5
344
100
AcDbEntity
  8
0
100
AcDbLine
 62
7
  6
CONTINUOUS
 10
8.6363002464
 20
6.5656705372
 11
8.6362928953
 21
6.5660037153
  0
LINE
  5
345
100
AcDbEntity
  8
0
100
AcDbLine
 62
7
  6
CONTINUOUS
 10
8.6362935013
 20
6.5659590549
 11
8.636291189
 21
6.5662978991
  0
LINE
  5
346
100
AcDbEntity
  8
0
100
AcDbLine
 62
7
  6
CONTINUOUS
 10
8.5912608696
 20
6.3828428161
 11
8.5912608696
 21
6.7578428161
  0
LINE
  5
347
100
AcDbEntity
  8
0
100
AcDbLine
 62
7
  6
CONTINUOUS
 10
8.6012608696
 20
6.3928428161
 11
8.6012608696
 21
6.7478428161
  0
LINE
  5
348
100
AcDbEntity
  8
0
100
AcDbLine
 62
7
  6
CONTINUOUS
 10
8.6151106245
 20
6.6492770002
 11
8.6151106245
 21
6.4914086321
  0
LINE
  5
349
100
AcDbEntity
  8
0
100
AcDbLine
 62
7
  6
CONTINUOUS
 10
8.6228883579
 20
6.6455624487
 11
8.6228883579
 21
6.4951231836
  0
LINE
  5
34A
100
AcDbEntity
  8
0
100
AcDbLine
 62
7
  6
CONTINUOUS
 10
8.6362911346
 20
6.5662487667
 11
8.6362939584
 21
6.5665925287
  0
LINE
  5
34B
100
AcDbEntity
  8
0
100
AcDbLine
 62
7
  6
CONTINUOUS
 10
8.6362931158
 20
6.5665388884
 11
8.6363007756
 21
6.5668758499
  0
LINE
  5
34C
100
AcDbEntity
  8
0
100
AcDbLine
 62
7
  6
CONTINUOUS
 10
8.636299346
 20
6.5668281477
 11
8.6363007756
 21
6.5668758521
  0
LINE
  5
34D
100
AcDbEntity
  8
0
100
AcDbLine
 62
7
  6
CONTINUOUS
 10
8.6363967004
 20
6.5642757961
 11
8.6363673849
 21
6.5645687693
  0
LINE
  5
34E
100
AcDbEntity
  8
0
100
AcDbLine
 62
7
  6
CONTINUOUS
 10
8.6363695611
 20
6.5645452956
 11
8.6363440778
 21
6.5648481365
  0
LWPOLYLINE
  5
34F
100
AcDbEntity
  8
0
100
AcDbPolyline
 62
7
  6
CONTINUOUS
 90
6
 70
0
 10
8.636626443
 20
6.5628175878
 10
8.6365816471
 20
6.5630381507
 10
8.636538956
 20
6.5632688191
 10
8.6364988312
 20
6.5635084669
 10
8.6364615719
 20
6.5637565731
 10
8.6364274293
 20
6.5640127142
  0
LINE
  5
350
100
AcDbEntity
  8
0
100
AcDbLine
 62
7
  6
CONTINUOUS
 10
8.6364274293
 20
6.5640127142
 11
8.6363945809
 21
6.5642952114
  0
LWPOLYLINE
  5
351
100
AcDbEntity
  8
0
100
AcDbPolyline
 62
7
  6
CONTINUOUS
 90
13
 70
0
 10
8.6372940613
 20
6.5608771529
 10
8.6372961804
 20
6.5608743684
 10
8.6372911841
 20
6.5608815702
 10
8.6372798163
 20
6.5608989345
 10
8.6372627269
 20
6.5609266618
 10
8.6372404175
 20
6.5609651105
 10
8.6372132825
 20
6.5610147907
 10
8.6371817228
 20
6.5610761916
 10
8.6371461784
 20
6.5611497116
 10
8.6371071048
 20
6.5612356917
 10
8.6370649036
 20
6.5613345742
 10
8.6370199399
 20
6.5614468997
 10
8.6369727653
 20
6.5615727333
  0
LINE
  5
352
100
AcDbEntity
  8
0
100
AcDbLine
 62
7
  6
CONTINUOUS
 10
8.6396080974
 20
6.6158734581
 11
8.6387910619
 21
6.6178783434
  0
LINE
  5
353
100
AcDbEntity
  8
0
100
AcDbLine
 62
7
  6
CONTINUOUS
 10
8.6388312074
 20
6.6177789008
 11
8.6380950637
 21
6.6196091072
  0
LINE
  5
354
100
AcDbEntity
  8
0
100
AcDbLine
 62
7
  6
CONTINUOUS
 10
8.6381338278
 20
6.6195118728
 11
8.63754105
 21
6.6210053785
  0
LINE
  5
355
100
AcDbEntity
  8
0
100
AcDbLine
 62
7
  6
CONTINUOUS
 10
8.6375639465
 20
6.6209473319
 11
8.6371870184
 21
6.6219101081
  0
LINE
  5
356
100
AcDbEntity
  8
0
100
AcDbLine
 62
7
  6
CONTINUOUS
 10
8.6372675651
 20
6.621703262
 11
8.6369325611
 21
6.6225689345
  0
LINE
  5
357
100
AcDbEntity
  8
0
100
AcDbLine
 62
7
  6
CONTINUOUS
 10
8.6370065855
 20
6.6223764211
 11
8.6367556483
 21
6.6230325728
  0
LINE
  5
358
100
AcDbEntity
  8
0
100
AcDbLine
 62
7
  6
CONTINUOUS
 10
8.6367814879
 20
6.6229645882
 11
8.6365962389
 21
6.6234561322
  0
LINE
  5
359
100
AcDbEntity
  8
0
100
AcDbLine
 62
7
  6
CONTINUOUS
 10
8.6366029368
 20
6.6234382641
 11
8.6364738941
 21
6.6237867529
  0
LINE
  5
35A
100
AcDbEntity
  8
0
100
AcDbLine
 62
7
  6
CONTINUOUS
 10
8.6364956638
 20
6.6237273618
 11
8.6363920833
 21
6.6240113619
  0
LINE
  5
35B
100
AcDbEntity
  8
0
100
AcDbLine
 62
7
  6
CONTINUOUS
 10
8.6364113453
 20
6.6239580728
 11
8.6363445567
 21
6.6241435665
  0
LINE
  5
35C
100
AcDbEntity
  8
0
100
AcDbLine
 62
7
  6
CONTINUOUS
 10
8.6363445567
 20
6.6241435665
 11
8.6362874116
 21
6.6243050163
  0
LINE
  5
35D
100
AcDbEntity
  8
0
100
AcDbLine
 62
7
  6
CONTINUOUS
 10
8.6369727653
 20
6.5615727333
 11
8.6369181004
 21
6.5617292784
  0
LINE
  5
35E
100
AcDbEntity
  8
0
100
AcDbLine
 62
7
  6
CONTINUOUS
 10
8.6362874116
 20
6.6243050163
 11
8.6362481572
 21
6.6244179383
  0
LINE
  5
35F
100
AcDbEntity
  8
0
100
AcDbLine
 62
7
  6
CONTINUOUS
 10
8.6362481572
 20
6.6244179383
 11
8.6362209601
 21
6.6244976101
  0
LINE
  5
360
100
AcDbEntity
  8
0
100
AcDbLine
 62
7
  6
CONTINUOUS
 10
8.6362209601
 20
6.6244976101
 11
8.6361983852
 21
6.624565007
  0
LINE
  5
361
100
AcDbEntity
  8
0
100
AcDbLine
 62
7
  6
CONTINUOUS
 10
8.6361983852
 20
6.624565007
 11
8.6361805737
 21
6.624619339
  0
LINE
  5
362
100
AcDbEntity
  8
0
100
AcDbLine
 62
7
  6
CONTINUOUS
 10
8.6369240469
 20
6.5617117104
 11
8.6368690311
 21
6.561880438
  0
LWPOLYLINE
  5
363
100
AcDbEntity
  8
0
100
AcDbPolyline
 62
7
  6
CONTINUOUS
 90
3
 70
0
 10
8.6361805737
 20
6.624619339
 10
8.6361671543
 20
6.6246612823
 10
8.6361620395
 20
6.624677609
  0
LWPOLYLINE
  5
364
100
AcDbEntity
  8
0
100
AcDbPolyline
 62
7
  6
CONTINUOUS
 90
7
 70
0
 10
8.6368742145
 20
6.5618640152
 10
8.6368237532
 20
6.5620296453
 10
8.6367733761
 20
6.5622077095
 10
8.6367235283
 20
6.5623980139
 10
8.6366746168
 20
6.5626004066
 10
8.6366272183
 20
6.5628138342
 10
8.6365816861
 20
6.563037951
  0
LWPOLYLINE
  5
365
100
AcDbEntity
  8
0
100
AcDbPolyline
 62
7
  6
CONTINUOUS
 90
4
 70
0
 10
8.636157961
 20
6.6246908262
 10
8.6361549954
 20
6.6247005932
 10
8.636153015
 20
6.6247072308
 10
8.6361522149
 20
6.6247099595
  0
ARC
  5
366
100
AcDbEntity
  8
0
100
AcDbCircle
 62
7
  6
CONTINUOUS
 10
5.0152305654
 20
1.5427800033
 40
0.3350955644
100
AcDbArc
 50
158.0113398899
 51
179.989260024
  0
ARC
  5
367
100
AcDbEntity
  8
0
100
AcDbCircle
 62
7
  6
CONTINUOUS
 10
5.0083779003
 20
1.542845161
 40
0.3038670308
100
AcDbArc
 50
180.0004421344
 51
180.1658556026
  0
ARC
  5
368
100
AcDbEntity
  8
0
100
AcDbCircle
 62
7
  6
CONTINUOUS
 10
4.6745108696
 20
2.063802232
 40
0.03
100
AcDbArc
 50
0.0000002656
 51
79.1930770656
  0
ARC
  5
369
100
AcDbEntity
  8
0
100
AcDbCircle
 62
7
  6
CONTINUOUS
 10
4.6820108696
 20
2.1030928161
 40
0.01
100
AcDbArc
 50
180.0
 51
259.1930773039
  0
ARC
  5
36A
100
AcDbEntity
  8
0
100
AcDbCircle
 62
7
  6
CONTINUOUS
 10
4.6820108696
 20
2.1765928161
 40
0.01
100
AcDbArc
 50
90.0
 51
180.0
  0
ARC
  5
36B
100
AcDbEntity
  8
0
100
AcDbCircle
 62
7
  6
CONTINUOUS
 10
2.7840990741
 20
6.1690928161
 40
0.04
100
AcDbArc
 50
210.0
 51
270.0
  0
ARC
  5
36C
100
AcDbEntity
  8
0
100
AcDbCircle
 62
7
  6
CONTINUOUS
 10
2.7840990741
 20
6.1690928161
 40
0.03
100
AcDbArc
 50
210.0
 51
270.0
  0
ARC
  5
36D
100
AcDbEntity
  8
0
100
AcDbCircle
 62
7
  6
CONTINUOUS
 10
2.4832608696
 20
6.2628428161
 40
0.03
100
AcDbArc
 50
180.0
 51
270.0
  0
ARC
  5
36E
100
AcDbEntity
  8
0
100
AcDbCircle
 62
7
  6
CONTINUOUS
 10
2.7840990741
 20
6.1690928161
 40
0.02
100
AcDbArc
 50
210.0
 51
270.0
  0
ARC
  5
36F
100
AcDbEntity
  8
0
100
AcDbCircle
 62
7
  6
CONTINUOUS
 10
2.2207608696
 20
6.2928428161
 40
0.015
100
AcDbArc
 50
90.0
 51
180.0
  0
ARC
  5
370
100
AcDbEntity
  8
0
100
AcDbCircle
 62
7
  6
CONTINUOUS
 10
2.4832608696
 20
6.2628428161
 40
0.015
100
AcDbArc
 50
180.0
 51
270.0
  0
ARC
  5
371
100
AcDbEntity
  8
0
100
AcDbCircle
 62
7
  6
CONTINUOUS
 10
1.5577608696
 20
6.3928428161
 40
0.01
100
AcDbArc
 50
270.0
 51
360.0
  0
ARC
  5
372
100
AcDbEntity
  8
0
100
AcDbCircle
 62
7
  6
CONTINUOUS
 10
1.6952608696
 20
6.3928428161
 40
0.01
100
AcDbArc
 50
270.0
 51
360.0
  0
ARC
  5
373
100
AcDbEntity
  8
0
100
AcDbCircle
 62
7
  6
CONTINUOUS
 10
1.4402608696
 20
6.3928428161
 40
0.01
100
AcDbArc
 50
180.0
 51
270.0
  0
ARC
  5
374
100
AcDbEntity
  8
0
100
AcDbCircle
 62
7
  6
CONTINUOUS
 10
2.1957608696
 20
6.2803428161
 40
0.01
100
AcDbArc
 50
270.0
 51
360.0
  0
ARC
  5
375
100
AcDbEntity
  8
0
100
AcDbCircle
 62
7
  6
CONTINUOUS
 10
1.9657608696
 20
6.2803428161
 40
0.01
100
AcDbArc
 50
180.0
 51
270.0
  0
ARC
  5
376
100
AcDbEntity
  8
0
100
AcDbCircle
 62
7
  6
CONTINUOUS
 10
1.5671188382
 20
6.3887205669
 40
0.0058777508
100
AcDbArc
 50
270.0024721764
 51
276.0222534615
  0
ARC
  5
377
100
AcDbEntity
  8
0
100
AcDbCircle
 62
7
  6
CONTINUOUS
 10
1.5029303253
 20
6.5703285073
 40
0.1199499066
100
AcDbArc
 50
187.1247474229
 51
202.3028039331
  0
ARC
  5
378
100
AcDbEntity
  8
0
100
AcDbCircle
 62
7
  6
CONTINUOUS
 10
1.5029303246
 20
6.5703571253
 40
0.1199499058
100
AcDbArc
 50
157.6971961102
 51
172.8752527148
  0
ARC
  5
379
100
AcDbEntity
  8
0
100
AcDbCircle
 62
7
  6
CONTINUOUS
 10
1.5028793932
 20
6.5703565301
 40
0.1199383103
100
AcDbArc
 50
157.6971017477
 51
172.8751783653
  0
ARC
  5
37A
100
AcDbEntity
  8
0
100
AcDbCircle
 62
7
  6
CONTINUOUS
 10
1.5028793931
 20
6.5703291023
 40
0.1199383103
100
AcDbArc
 50
187.1248217245
 51
202.3028983235
  0
ARC
  5
37B
100
AcDbEntity
  8
0
100
AcDbCircle
 62
7
  6
CONTINUOUS
 10
1.5017115841
 20
6.5703428161
 40
0.1196726576
100
AcDbArc
 50
141.0571544355
 51
152.3153068088
  0
ARC
  5
37C
100
AcDbEntity
  8
0
100
AcDbCircle
 62
7
  6
CONTINUOUS
 10
1.5017115841
 20
6.5703428161
 40
0.1196726576
100
AcDbArc
 50
207.6846931912
 51
218.9428455645
  0
ARC
  5
37D
100
AcDbEntity
  8
0
100
AcDbCircle
 62
7
  6
CONTINUOUS
 10
1.5063994052
 20
6.5703428161
 40
0.111232485
100
AcDbArc
 50
178.2138786813
 51
181.7861200958
  0
ARC
  5
37E
100
AcDbEntity
  8
0
100
AcDbCircle
 62
7
  6
CONTINUOUS
 10
1.5066025362
 20
6.5703428161
 40
0.110863205
100
AcDbArc
 50
178.2138798955
 51
181.7861201045
  0
ARC
  5
37F
100
AcDbEntity
  8
0
100
AcDbCircle
 62
7
  6
CONTINUOUS
 10
1.4164111146
 20
6.6392770002
 40
0.01
100
AcDbArc
 50
90.0
 51
141.0571544355
  0
ARC
  5
380
100
AcDbEntity
  8
0
100
AcDbCircle
 62
7
  6
CONTINUOUS
 10
1.4164111146
 20
6.5014086321
 40
0.01
100
AcDbArc
 50
218.9428455645
 51
270.0
  0
ARC
  5
381
100
AcDbEntity
  8
0
100
AcDbCircle
 62
7
  6
CONTINUOUS
 10
1.4002227422
 20
6.6236156099
 40
0.0050017523
100
AcDbArc
 50
152.3253312301
 51
169.8417222549
  0
ARC
  5
382
100
AcDbEntity
  8
0
100
AcDbCircle
 62
7
  6
CONTINUOUS
 10
1.4002227423
 20
6.5170700222
 40
0.0050017523
100
AcDbArc
 50
190.1573738629
 51
207.6746667001
  0
ARC
  5
383
100
AcDbEntity
  8
0
100
AcDbCircle
 62
7
  6
CONTINUOUS
 10
1.3888285484
 20
6.5846123405
 40
0.005
100
AcDbArc
 50
172.8734298372
 51
264.9999262
  0
ARC
  5
384
100
AcDbEntity
  8
0
100
AcDbCircle
 62
7
  6
CONTINUOUS
 10
1.4001669071
 20
6.6236203627
 40
0.005
100
AcDbArc
 50
152.3153068088
 51
173.1287558336
  0
ARC
  5
385
100
AcDbEntity
  8
0
100
AcDbCircle
 62
7
  6
CONTINUOUS
 10
1.4001669071
 20
6.5170652695
 40
0.005
100
AcDbArc
 50
186.8732871459
 51
207.6846931912
  0
ARC
  5
386
100
AcDbEntity
  8
0
100
AcDbCircle
 62
7
  6
CONTINUOUS
 10
1.3888285484
 20
6.5560732917
 40
0.005
100
AcDbArc
 50
95.0
 51
187.1265686149
  0
ARC
  5
387
100
AcDbEntity
  8
0
100
AcDbCircle
 62
7
  6
CONTINUOUS
 10
1.3888214656
 20
6.5845303611
 40
0.0049177152
100
AcDbArc
 50
256.733850091
 51
264.9989616438
  0
ARC
  5
388
100
AcDbEntity
  8
0
100
AcDbCircle
 62
7
  6
CONTINUOUS
 10
1.5577608696
 20
6.7478428161
 40
0.01
100
AcDbArc
 50
0.0
 51
90.0
  0
ARC
  5
389
100
AcDbEntity
  8
0
100
AcDbCircle
 62
7
  6
CONTINUOUS
 10
1.6952608696
 20
6.7478428161
 40
0.01
100
AcDbArc
 50
0.0
 51
90.0
  0
ARC
  5
38A
100
AcDbEntity
  8
0
100
AcDbCircle
 62
7
  6
CONTINUOUS
 10
1.4402608696
 20
6.7478428161
 40
0.01
100
AcDbArc
 50
90.0
 51
180.0
  0
ARC
  5
38B
100
AcDbEntity
  8
0
100
AcDbCircle
 62
7
  6
CONTINUOUS
 10
2.1957608696
 20
6.8603428161
 40
0.01
100
AcDbArc
 50
0.0
 51
90.0
  0
ARC
  5
38C
100
AcDbEntity
  8
0
100
AcDbCircle
 62
7
  6
CONTINUOUS
 10
1.9657608696
 20
6.8603428161
 40
0.01
100
AcDbArc
 50
90.0
 51
180.0
  0
ARC
  5
38D
100
AcDbEntity
  8
0
100
AcDbCircle
 62
7
  6
CONTINUOUS
 10
1.5671188382
 20
6.7519650653
 40
0.0058777508
100
AcDbArc
 50
83.9777465382
 51
89.9975278237
  0
ARC
  5
38E
100
AcDbEntity
  8
0
100
AcDbCircle
 62
7
  6
CONTINUOUS
 10
3.0157608696
 20
6.5703428161
 40
0.5575
100
AcDbArc
 50
33.9392341847
 51
142.7419639376
  0
ARC
  5
38F
100
AcDbEntity
  8
0
100
AcDbCircle
 62
7
  6
CONTINUOUS
 10
3.0157608696
 20
6.5703428161
 40
0.5575
100
AcDbArc
 50
217.2580360629
 51
326.0607658154
  0
ARC
  5
390
100
AcDbEntity
  8
0
100
AcDbCircle
 62
7
  6
CONTINUOUS
 10
3.0157608696
 20
6.5703428161
 40
0.5525
100
AcDbArc
 50
217.6530070868
 51
325.7107099454
  0
ARC
  5
391
100
AcDbEntity
  8
0
100
AcDbCircle
 62
7
  6
CONTINUOUS
 10
3.0157608696
 20
6.5703428161
 40
0.5525
100
AcDbArc
 50
34.2892900547
 51
142.3469929134
  0
ARC
  5
392
100
AcDbEntity
  8
0
100
AcDbCircle
 62
7
  6
CONTINUOUS
 10
3.0157608696
 20
6.5703428161
 40
0.5098205081
100
AcDbArc
 50
221.4542920827
 51
322.3728726173
  0
ARC
  5
393
100
AcDbEntity
  8
0
100
AcDbCircle
 62
7
  6
CONTINUOUS
 10
3.0157608696
 20
6.5703428161
 40
0.5098205081
100
AcDbArc
 50
37.6271273827
 51
138.5457079172
  0
ARC
  5
394
100
AcDbEntity
  8
0
100
AcDbCircle
 62
7
  6
CONTINUOUS
 10
3.0157608696
 20
6.5703428161
 40
0.5048205081
100
AcDbArc
 50
38.0670926264
 51
138.043164478
  0
ARC
  5
395
100
AcDbEntity
  8
0
100
AcDbCircle
 62
7
  6
CONTINUOUS
 10
3.0157608696
 20
6.5703428161
 40
0.5048205081
100
AcDbArc
 50
221.9568355256
 51
321.9329073731
  0
ARC
  5
396
100
AcDbEntity
  8
0
100
AcDbCircle
 62
7
  6
CONTINUOUS
 10
3.0157608696
 20
6.5703428161
 40
0.375
100
AcDbArc
 50
244.1630116718
 51
303.8971869972
  0
ARC
  5
397
100
AcDbEntity
  8
0
100
AcDbCircle
 62
7
  6
CONTINUOUS
 10
3.0157608696
 20
6.5703428161
 40
0.375
100
AcDbArc
 50
56.1028130027
 51
115.8369883318
  0
ARC
  5
398
100
AcDbEntity
  8
0
100
AcDbCircle
 62
7
  6
CONTINUOUS
 10
3.0157608696
 20
6.5703428161
 40
0.3490192379
100
AcDbArc
 50
63.1032187571
 51
104.7540326533
  0
ARC
  5
399
100
AcDbEntity
  8
0
100
AcDbCircle
 62
7
  6
CONTINUOUS
 10
3.0157608696
 20
6.5703428161
 40
0.3490192379
100
AcDbArc
 50
255.2459673428
 51
296.8967812449
  0
ARC
  5
39A
100
AcDbEntity
  8
0
100
AcDbCircle
 62
7
  6
CONTINUOUS
 10
3.0157608696
 20
6.5703428161
 40
0.34375
100
AcDbArc
 50
64.8890646962
 51
295.1109353038
  0
ARC
  5
39B
100
AcDbEntity
  8
0
100
AcDbCircle
 62
7
  6
CONTINUOUS
 10
3.0158953557
 20
6.5671779757
 40
0.3080860702
100
AcDbArc
 50
259.4568798787
 51
269.8202848487
  0
ARC
  5
39C
100
AcDbEntity
  8
0
100
AcDbCircle
 62
7
  6
CONTINUOUS
 10
3.015880434
 20
6.573667315
 40
0.3079262706
100
AcDbArc
 50
90.1769854075
 51
100.034886298
  0
ARC
  5
39D
100
AcDbEntity
  8
0
100
AcDbCircle
 62
7
  6
CONTINUOUS
 10
3.0157609045
 20
6.5766321414
 40
0.3049603608
100
AcDbArc
 50
89.9953867845
 51
90.1562490239
  0
ARC
  5
39E
100
AcDbEntity
  8
0
100
AcDbCircle
 62
7
  6
CONTINUOUS
 10
3.0157608843
 20
6.564053404
 40
0.304960274
100
AcDbArc
 50
269.8437078141
 51
270.0051353526
  0
ARC
  5
39F
100
AcDbEntity
  8
0
100
AcDbCircle
 62
7
  6
CONTINUOUS
 10
3.0086555669
 20
6.5704077132
 40
0.304144713
100
AcDbArc
 50
180.01995963
 51
186.2282521146
  0
ARC
  5
3A0
100
AcDbEntity
  8
0
100
AcDbCircle
 62
7
  6
CONTINUOUS
 10
3.0086411139
 20
6.5702785219
 40
0.3041302557
100
AcDbArc
 50
173.7959909219
 51
179.9838097866
  0
ARC
  5
3A1
100
AcDbEntity
  8
0
100
AcDbCircle
 62
7
  6
CONTINUOUS
 10
2.7840990741
 20
6.9715928161
 40
0.04
100
AcDbArc
 50
90.0
 51
150.0
  0
ARC
  5
3A2
100
AcDbEntity
  8
0
100
AcDbCircle
 62
7
  6
CONTINUOUS
 10
2.7840990741
 20
6.9715928161
 40
0.03
100
AcDbArc
 50
90.0
 51
150.0
  0
ARC
  5
3A3
100
AcDbEntity
  8
0
100
AcDbCircle
 62
7
  6
CONTINUOUS
 10
2.4832608696
 20
6.8778428161
 40
0.03
100
AcDbArc
 50
90.0
 51
180.0
  0
ARC
  5
3A4
100
AcDbEntity
  8
0
100
AcDbCircle
 62
7
  6
CONTINUOUS
 10
2.7840990741
 20
6.9715928161
 40
0.02
100
AcDbArc
 50
90.0
 51
150.0
  0
ARC
  5
3A5
100
AcDbEntity
  8
0
100
AcDbCircle
 62
7
  6
CONTINUOUS
 10
2.2207608696
 20
6.8478428161
 40
0.015
100
AcDbArc
 50
180.0
 51
270.0
  0
ARC
  5
3A6
100
AcDbEntity
  8
0
100
AcDbCircle
 62
7
  6
CONTINUOUS
 10
2.4832608696
 20
6.8778428161
 40
0.015
100
AcDbArc
 50
90.0
 51
180.0
  0
ARC
  5
3A7
100
AcDbEntity
  8
0
100
AcDbCircle
 62
7
  6
CONTINUOUS
 10
3.7147608696
 20
6.2463428161
 40
0.059
100
AcDbArc
 50
90.0
 51
180.0
  0
ARC
  5
3A8
100
AcDbEntity
  8
0
100
AcDbCircle
 62
7
  6
CONTINUOUS
 10
3.2474226651
 20
6.1690928161
 40
0.04
100
AcDbArc
 50
270.0
 51
330.0
  0
ARC
  5
3A9
100
AcDbEntity
  8
0
100
AcDbCircle
 62
7
  6
CONTINUOUS
 10
3.2474226651
 20
6.1690928161
 40
0.03
100
AcDbArc
 50
270.0
 51
330.0
  0
ARC
  5
3AA
100
AcDbEntity
  8
0
100
AcDbCircle
 62
7
  6
CONTINUOUS
 10
4.6745108696
 20
6.0493834002
 40
0.03
100
AcDbArc
 50
280.8069229381
 51
360.0
  0
ARC
  5
3AB
100
AcDbEntity
  8
0
100
AcDbCircle
 62
7
  6
CONTINUOUS
 10
3.2474226651
 20
6.1690928161
 40
0.02
100
AcDbArc
 50
270.0
 51
330.0
  0
ARC
  5
3AC
100
AcDbEntity
  8
0
100
AcDbCircle
 62
7
  6
CONTINUOUS
 10
4.5152608696
 20
6.2269206889
 40
0.015
100
AcDbArc
 50
180.0
 51
270.0
  0
ARC
  5
3AD
100
AcDbEntity
  8
0
100
AcDbCircle
 62
7
  6
CONTINUOUS
 10
4.4682608696
 20
6.2728428161
 40
0.015
100
AcDbArc
 50
180.0
 51
270.0
  0
ARC
  5
3AE
100
AcDbEntity
  8
0
100
AcDbCircle
 62
7
  6
CONTINUOUS
 10
4.4852608696
 20
6.2428428161
 40
0.015
100
AcDbArc
 50
0.0
 51
90.0
  0
ARC
  5
3AF
100
AcDbEntity
  8
0
100
AcDbCircle
 62
7
  6
CONTINUOUS
 10
4.6820108696
 20
6.0100928161
 40
0.01
100
AcDbArc
 50
100.806922685
 51
180.0
  0
ARC
  5
3B0
100
AcDbEntity
  8
0
100
AcDbCircle
 62
7
  6
CONTINUOUS
 10
3.6457608696
 20
6.2365928161
 40
0.01
100
AcDbArc
 50
270.0
 51
360.0
  0
ARC
  5
3B1
100
AcDbEntity
  8
0
100
AcDbCircle
 62
7
  6
CONTINUOUS
 10
4.6820108696
 20
5.9365928161
 40
0.01
100
AcDbArc
 50
180.0
 51
270.0
  0
ARC
  5
3B2
100
AcDbEntity
  8
0
100
AcDbCircle
 62
7
  6
CONTINUOUS
 10
5.0152263964
 20
6.5704046483
 40
0.3350913102
100
AcDbArc
 50
180.0105724358
 51
201.982790044
  0
ARC
  5
3B3
100
AcDbEntity
  8
0
100
AcDbCircle
 62
7
  6
CONTINUOUS
 10
5.0083515506
 20
6.5703405266
 40
0.3038406811
100
AcDbArc
 50
179.8341158278
 51
179.9995682696
  0
ARC
  5
3B4
100
AcDbEntity
  8
0
100
AcDbCircle
 62
7
  6
CONTINUOUS
 10
3.7147608696
 20
6.8943428161
 40
0.059
100
AcDbArc
 50
180.0
 51
270.0
  0
ARC
  5
3B5
100
AcDbEntity
  8
0
100
AcDbCircle
 62
7
  6
CONTINUOUS
 10
3.2474226651
 20
6.9715928161
 40
0.04
100
AcDbArc
 50
30.0
 51
90.0
  0
ARC
  5
3B6
100
AcDbEntity
  8
0
100
AcDbCircle
 62
7
  6
CONTINUOUS
 10
3.2474226651
 20
6.9715928161
 40
0.03
100
AcDbArc
 50
30.0
 51
90.0
  0
ARC
  5
3B7
100
AcDbEntity
  8
0
100
AcDbCircle
 62
7
  6
CONTINUOUS
 10
4.8468859158
 20
6.8628428161
 40
0.02
100
AcDbArc
 50
90.0
 51
150.0
  0
ARC
  5
3B8
100
AcDbEntity
  8
0
100
AcDbCircle
 62
7
  6
CONTINUOUS
 10
4.6780109621
 20
6.5703428161
 40
0.02
100
AcDbArc
 50
150.0
 51
210.0
  0
ARC
  5
3B9
100
AcDbEntity
  8
0
100
AcDbCircle
 62
7
  6
CONTINUOUS
 10
3.2474226651
 20
6.9715928161
 40
0.02
100
AcDbArc
 50
30.0
 51
90.0
  0
ARC
  5
3BA
100
AcDbEntity
  8
0
100
AcDbCircle
 62
7
  6
CONTINUOUS
 10
4.5152608696
 20
6.9137649433
 40
0.015
100
AcDbArc
 50
90.0
 51
180.0
  0
ARC
  5
3BB
100
AcDbEntity
  8
0
100
AcDbCircle
 62
7
  6
CONTINUOUS
 10
4.4682608696
 20
6.8678428161
 40
0.015
100
AcDbArc
 50
90.0
 51
180.0
  0
ARC
  5
3BC
100
AcDbEntity
  8
0
100
AcDbCircle
 62
7
  6
CONTINUOUS
 10
4.4852608696
 20
6.8978428161
 40
0.015
100
AcDbArc
 50
270.0
 51
360.0
  0
ARC
  5
3BD
100
AcDbEntity
  8
0
100
AcDbCircle
 62
7
  6
CONTINUOUS
 10
3.6457608696
 20
6.9040928161
 40
0.01
100
AcDbArc
 50
0.0
 51
90.0
  0
ARC
  5
3BE
100
AcDbEntity
  8
0
100
AcDbCircle
 62
7
  6
CONTINUOUS
 10
5.0157608696
 20
1.5428428161
 40
0.34375
100
AcDbArc
 50
154.8886747291
 51
25.1113252709
  0
ARC
  5
3BF
100
AcDbEntity
  8
0
100
AcDbCircle
 62
7
  6
CONTINUOUS
 10
5.0162956499
 20
1.5427810173
 40
0.3350910036
100
AcDbArc
 50
0.0105667404
 51
21.9888709902
  0
ARC
  5
3C0
100
AcDbEntity
  8
0
100
AcDbCircle
 62
7
  6
CONTINUOUS
 10
5.0231474733
 20
1.542845105
 40
0.3038633963
100
AcDbArc
 50
359.8341267284
 51
359.9995684136
  0
ARC
  5
3C1
100
AcDbEntity
  8
0
100
AcDbCircle
 62
7
  6
CONTINUOUS
 10
5.3570108696
 20
2.063802232
 40
0.03
100
AcDbArc
 50
100.8069229381
 51
180.0000000525
  0
ARC
  5
3C2
100
AcDbEntity
  8
0
100
AcDbCircle
 62
7
  6
CONTINUOUS
 10
5.3495108696
 20
2.1030928161
 40
0.01
100
AcDbArc
 50
280.806922685
 51
360.0
  0
ARC
  5
3C3
100
AcDbEntity
  8
0
100
AcDbCircle
 62
7
  6
CONTINUOUS
 10
5.3495108696
 20
2.1765928161
 40
0.01
100
AcDbArc
 50
0.0
 51
90.0
  0
ARC
  5
3C4
100
AcDbEntity
  8
0
100
AcDbCircle
 62
7
  6
CONTINUOUS
 10
6.3167608696
 20
6.2463428161
 40
0.059
100
AcDbArc
 50
0.0
 51
90.0
  0
ARC
  5
3C5
100
AcDbEntity
  8
0
100
AcDbCircle
 62
7
  6
CONTINUOUS
 10
6.7840990741
 20
6.1690928161
 40
0.04
100
AcDbArc
 50
210.0
 51
270.0
  0
ARC
  5
3C6
100
AcDbEntity
  8
0
100
AcDbCircle
 62
7
  6
CONTINUOUS
 10
6.7840990741
 20
6.1690928161
 40
0.03
100
AcDbArc
 50
210.0
 51
270.0
  0
ARC
  5
3C7
100
AcDbEntity
  8
0
100
AcDbCircle
 62
7
  6
CONTINUOUS
 10
5.3570108696
 20
6.0493834002
 40
0.03
100
AcDbArc
 50
180.0000002656
 51
259.1930770656
  0
ARC
  5
3C8
100
AcDbEntity
  8
0
100
AcDbCircle
 62
7
  6
CONTINUOUS
 10
6.7840990741
 20
6.1690928161
 40
0.02
100
AcDbArc
 50
210.0
 51
270.0
  0
ARC
  5
3C9
100
AcDbEntity
  8
0
100
AcDbCircle
 62
7
  6
CONTINUOUS
 10
5.5162608696
 20
6.2269206889
 40
0.015
100
AcDbArc
 50
270.0
 51
360.0
  0
ARC
  5
3CA
100
AcDbEntity
  8
0
100
AcDbCircle
 62
7
  6
CONTINUOUS
 10
5.5632608696
 20
6.2728428161
 40
0.015
100
AcDbArc
 50
270.0
 51
360.0
  0
ARC
  5
3CB
100
AcDbEntity
  8
0
100
AcDbCircle
 62
7
  6
CONTINUOUS
 10
5.5462608696
 20
6.2428428161
 40
0.015
100
AcDbArc
 50
90.0
 51
180.0
  0
ARC
  5
3CC
100
AcDbEntity
  8
0
100
AcDbCircle
 62
7
  6
CONTINUOUS
 10
6.3857608696
 20
6.2365928161
 40
0.01
100
AcDbArc
 50
180.0
 51
270.0
  0
ARC
  5
3CD
100
AcDbEntity
  8
0
100
AcDbCircle
 62
7
  6
CONTINUOUS
 10
5.3495108696
 20
6.0100928161
 40
0.01
100
AcDbArc
 50
0.0
 51
79.1930773039
  0
ARC
  5
3CE
100
AcDbEntity
  8
0
100
AcDbCircle
 62
7
  6
CONTINUOUS
 10
5.3495108696
 20
5.9365928161
 40
0.01
100
AcDbArc
 50
270.0
 51
360.0
  0
ARC
  5
3CF
100
AcDbEntity
  8
0
100
AcDbCircle
 62
7
  6
CONTINUOUS
 10
5.0157608696
 20
6.5703428161
 40
0.34375
100
AcDbArc
 50
334.8898267782
 51
205.1101732217
  0
ARC
  5
3D0
100
AcDbEntity
  8
0
100
AcDbCircle
 62
7
  6
CONTINUOUS
 10
5.0162907474
 20
6.5704056741
 40
0.3350959898
100
AcDbArc
 50
338.0172876801
 51
359.9892523112
  0
ARC
  5
3D1
100
AcDbEntity
  8
0
100
AcDbCircle
 62
7
  6
CONTINUOUS
 10
5.0231667692
 20
6.5703404707
 40
0.3038441004
100
AcDbArc
 50
0.0004422801
 51
0.165866619
  0
ARC
  5
3D2
100
AcDbEntity
  8
0
100
AcDbCircle
 62
7
  6
CONTINUOUS
 10
6.3167608696
 20
6.8943428161
 40
0.059
100
AcDbArc
 50
270.0
 51
360.0
  0
ARC
  5
3D3
100
AcDbEntity
  8
0
100
AcDbCircle
 62
7
  6
CONTINUOUS
 10
6.7840990741
 20
6.9715928161
 40
0.04
100
AcDbArc
 50
90.0
 51
150.0
  0
ARC
  5
3D4
100
AcDbEntity
  8
0
100
AcDbCircle
 62
7
  6
CONTINUOUS
 10
6.7840990741
 20
6.9715928161
 40
0.03
100
AcDbArc
 50
90.0
 51
150.0
  0
ARC
  5
3D5
100
AcDbEntity
  8
0
100
AcDbCircle
 62
7
  6
CONTINUOUS
 10
5.1846358233
 20
6.8628428161
 40
0.02
100
AcDbArc
 50
30.0
 51
90.0
  0
ARC
  5
3D6
100
AcDbEntity
  8
0
100
AcDbCircle
 62
7
  6
CONTINUOUS
 10
5.353510777
 20
6.5703428161
 40
0.02
100
AcDbArc
 50
330.0
 51
30.0
  0
ARC
  5
3D7
100
AcDbEntity
  8
0
100
AcDbCircle
 62
7
  6
CONTINUOUS
 10
6.7840990741
 20
6.9715928161
 40
0.02
100
AcDbArc
 50
90.0
 51
150.0
  0
ARC
  5
3D8
100
AcDbEntity
  8
0
100
AcDbCircle
 62
7
  6
CONTINUOUS
 10
5.5162608696
 20
6.9137649433
 40
0.015
100
AcDbArc
 50
0.0
 51
90.0
  0
ARC
  5
3D9
100
AcDbEntity
  8
0
100
AcDbCircle
 62
7
  6
CONTINUOUS
 10
5.5632608696
 20
6.8678428161
 40
0.015
100
AcDbArc
 50
0.0
 51
90.0
  0
ARC
  5
3DA
100
AcDbEntity
  8
0
100
AcDbCircle
 62
7
  6
CONTINUOUS
 10
5.5462608696
 20
6.8978428161
 40
0.015
100
AcDbArc
 50
180.0
 51
270.0
  0
ARC
  5
3DB
100
AcDbEntity
  8
0
100
AcDbCircle
 62
7
  6
CONTINUOUS
 10
6.3857608696
 20
6.9040928161
 40
0.01
100
AcDbArc
 50
90.0
 51
180.0
  0
ARC
  5
3DC
100
AcDbEntity
  8
0
100
AcDbCircle
 62
7
  6
CONTINUOUS
 10
7.2474226651
 20
6.1690928161
 40
0.04
100
AcDbArc
 50
270.0
 51
330.0
  0
ARC
  5
3DD
100
AcDbEntity
  8
0
100
AcDbCircle
 62
7
  6
CONTINUOUS
 10
7.2474226651
 20
6.1690928161
 40
0.03
100
AcDbArc
 50
270.0
 51
330.0
  0
ARC
  5
3DE
100
AcDbEntity
  8
0
100
AcDbCircle
 62
7
  6
CONTINUOUS
 10
7.5482608696
 20
6.2628428161
 40
0.03
100
AcDbArc
 50
270.0
 51
360.0
  0
ARC
  5
3DF
100
AcDbEntity
  8
0
100
AcDbCircle
 62
7
  6
CONTINUOUS
 10
7.2474226651
 20
6.1690928161
 40
0.02
100
AcDbArc
 50
270.0
 51
330.0
  0
ARC
  5
3E0
100
AcDbEntity
  8
0
100
AcDbCircle
 62
7
  6
CONTINUOUS
 10
7.8107608696
 20
6.2928428161
 40
0.015
100
AcDbArc
 50
0.0
 51
90.0
  0
ARC
  5
3E1
100
AcDbEntity
  8
0
100
AcDbCircle
 62
7
  6
CONTINUOUS
 10
7.5482608696
 20
6.2628428161
 40
0.015
100
AcDbArc
 50
270.0
 51
360.0
  0
ARC
  5
3E2
100
AcDbEntity
  8
0
100
AcDbCircle
 62
7
  6
CONTINUOUS
 10
7.8357608696
 20
6.2803428161
 40
0.01
100
AcDbArc
 50
180.0
 51
270.0
  0
ARC
  5
3E3
100
AcDbEntity
  8
0
100
AcDbCircle
 62
7
  6
CONTINUOUS
 10
8.0657608696
 20
6.2803428161
 40
0.01
100
AcDbArc
 50
270.0
 51
360.0
  0
ARC
  5
3E4
100
AcDbEntity
  8
0
100
AcDbCircle
 62
7
  6
CONTINUOUS
 10
8.5912608696
 20
6.3928428161
 40
0.01
100
AcDbArc
 50
270.0
 51
360.0
  0
ARC
  5
3E5
100
AcDbEntity
  8
0
100
AcDbCircle
 62
7
  6
CONTINUOUS
 10
8.3362608696
 20
6.3928428161
 40
0.01
100
AcDbArc
 50
180.0
 51
270.0
  0
ARC
  5
3E6
100
AcDbEntity
  8
0
100
AcDbCircle
 62
7
  6
CONTINUOUS
 10
8.4737608696
 20
6.3928428161
 40
0.01
100
AcDbArc
 50
180.0
 51
270.0
  0
ARC
  5
3E7
100
AcDbEntity
  8
0
100
AcDbCircle
 62
7
  6
CONTINUOUS
 10
8.4644029009
 20
6.3887205669
 40
0.0058777508
100
AcDbArc
 50
263.9777465385
 51
269.9975278236
  0
ARC
  5
3E8
100
AcDbEntity
  8
0
100
AcDbCircle
 62
7
  6
CONTINUOUS
 10
7.0157608696
 20
6.5703428161
 40
0.5575
100
AcDbArc
 50
37.2572825019
 51
146.0597824004
  0
ARC
  5
3E9
100
AcDbEntity
  8
0
100
AcDbCircle
 62
7
  6
CONTINUOUS
 10
7.0157608696
 20
6.5703428161
 40
0.5575
100
AcDbArc
 50
213.9402175995
 51
322.7427174983
  0
ARC
  5
3EA
100
AcDbEntity
  8
0
100
AcDbCircle
 62
7
  6
CONTINUOUS
 10
7.0157608696
 20
6.5703428161
 40
0.5525
100
AcDbArc
 50
37.6548625034
 51
145.7123021404
  0
ARC
  5
3EB
100
AcDbEntity
  8
0
100
AcDbCircle
 62
7
  6
CONTINUOUS
 10
7.0157608696
 20
6.5703428161
 40
0.5525
100
AcDbArc
 50
214.2876978599
 51
322.3451374973
  0
ARC
  5
3EC
100
AcDbEntity
  8
0
100
AcDbCircle
 62
7
  6
CONTINUOUS
 10
7.0157608696
 20
6.5703428161
 40
0.5098205081
100
AcDbArc
 50
217.6292471387
 51
318.5439408165
  0
ARC
  5
3ED
100
AcDbEntity
  8
0
100
AcDbCircle
 62
7
  6
CONTINUOUS
 10
7.0157608696
 20
6.5703428161
 40
0.5098205081
100
AcDbArc
 50
41.4560591836
 51
142.3707528613
  0
ARC
  5
3EE
100
AcDbEntity
  8
0
100
AcDbCircle
 62
7
  6
CONTINUOUS
 10
7.0157608696
 20
6.5703428161
 40
0.5048205081
100
AcDbArc
 50
41.959274018
 51
141.9345831513
  0
ARC
  5
3EF
100
AcDbEntity
  8
0
100
AcDbCircle
 62
7
  6
CONTINUOUS
 10
7.0157608696
 20
6.5703428161
 40
0.5048205081
100
AcDbArc
 50
218.0654168557
 51
318.0407259791
  0
ARC
  5
3F0
100
AcDbEntity
  8
0
100
AcDbCircle
 62
7
  6
CONTINUOUS
 10
7.0157608696
 20
6.5703428161
 40
0.375
100
AcDbArc
 50
64.1630116718
 51
123.8971869972
  0
ARC
  5
3F1
100
AcDbEntity
  8
0
100
AcDbCircle
 62
7
  6
CONTINUOUS
 10
7.0157608696
 20
6.5703428161
 40
0.375
100
AcDbArc
 50
236.1028130027
 51
295.8369883318
  0
ARC
  5
3F2
100
AcDbEntity
  8
0
100
AcDbCircle
 62
7
  6
CONTINUOUS
 10
7.0157608696
 20
6.5703428161
 40
0.3490192379
100
AcDbArc
 50
243.1032187571
 51
284.7540326533
  0
ARC
  5
3F3
100
AcDbEntity
  8
0
100
AcDbCircle
 62
7
  6
CONTINUOUS
 10
7.0157608696
 20
6.5703428161
 40
0.3490192379
100
AcDbArc
 50
75.2459673428
 51
116.8967812449
  0
ARC
  5
3F4
100
AcDbEntity
  8
0
100
AcDbCircle
 62
7
  6
CONTINUOUS
 10
7.0157608696
 20
6.5703428161
 40
0.34375
100
AcDbArc
 50
244.8890646962
 51
115.1109353038
  0
ARC
  5
3F5
100
AcDbEntity
  8
0
100
AcDbCircle
 62
7
  6
CONTINUOUS
 10
7.0156263838
 20
6.5735076565
 40
0.3080860702
100
AcDbArc
 50
79.4568799577
 51
89.8202849276
  0
ARC
  5
3F6
100
AcDbEntity
  8
0
100
AcDbCircle
 62
7
  6
CONTINUOUS
 10
7.0156413053
 20
6.5670183174
 40
0.3079262706
100
AcDbArc
 50
270.1769853659
 51
280.0348862522
  0
ARC
  5
3F7
100
AcDbEntity
  8
0
100
AcDbCircle
 62
7
  6
CONTINUOUS
 10
7.0157608346
 20
6.5640534908
 40
0.3049603608
100
AcDbArc
 50
269.9953867845
 51
270.1562490239
  0
ARC
  5
3F8
100
AcDbEntity
  8
0
100
AcDbCircle
 62
7
  6
CONTINUOUS
 10
7.0157608548
 20
6.5766322282
 40
0.304960274
100
AcDbArc
 50
89.8437078141
 51
90.0051353526
  0
ARC
  5
3F9
100
AcDbEntity
  8
0
100
AcDbCircle
 62
7
  6
CONTINUOUS
 10
7.0228661722
 20
6.5702779191
 40
0.304144713
100
AcDbArc
 50
0.01995963
 51
6.2282521145
  0
ARC
  5
3FA
100
AcDbEntity
  8
0
100
AcDbCircle
 62
7
  6
CONTINUOUS
 10
7.0228806253
 20
6.5704071103
 40
0.3041302557
100
AcDbArc
 50
353.795990922
 51
359.9838097866
  0
ARC
  5
3FB
100
AcDbEntity
  8
0
100
AcDbCircle
 62
7
  6
CONTINUOUS
 10
7.2474226651
 20
6.9715928161
 40
0.04
100
AcDbArc
 50
30.0
 51
90.0
  0
ARC
  5
3FC
100
AcDbEntity
  8
0
100
AcDbCircle
 62
7
  6
CONTINUOUS
 10
7.2474226651
 20
6.9715928161
 40
0.03
100
AcDbArc
 50
30.0
 51
90.0
  0
ARC
  5
3FD
100
AcDbEntity
  8
0
100
AcDbCircle
 62
7
  6
CONTINUOUS
 10
7.5482608696
 20
6.8778428161
 40
0.03
100
AcDbArc
 50
0.0
 51
90.0
  0
ARC
  5
3FE
100
AcDbEntity
  8
0
100
AcDbCircle
 62
7
  6
CONTINUOUS
 10
7.2474226651
 20
6.9715928161
 40
0.02
100
AcDbArc
 50
30.0
 51
90.0
  0
ARC
  5
3FF
100
AcDbEntity
  8
0
100
AcDbCircle
 62
7
  6
CONTINUOUS
 10
7.8107608696
 20
6.8478428161
 40
0.015
100
AcDbArc
 50
270.0
 51
360.0
  0
ARC
  5
400
100
AcDbEntity
  8
0
100
AcDbCircle
 62
7
  6
CONTINUOUS
 10
7.5482608696
 20
6.8778428161
 40
0.015
100
AcDbArc
 50
0.0
 51
90.0
  0
ARC
  5
401
100
AcDbEntity
  8
0
100
AcDbCircle
 62
7
  6
CONTINUOUS
 10
8.5285914137
 20
6.5703571254
 40
0.1199499066
100
AcDbArc
 50
7.124747179
 51
22.3028036809
  0
ARC
  5
402
100
AcDbEntity
  8
0
100
AcDbCircle
 62
7
  6
CONTINUOUS
 10
8.528591415
 20
6.570328507
 40
0.1199499054
100
AcDbArc
 50
337.6971959944
 51
352.875252653
  0
ARC
  5
403
100
AcDbEntity
  8
0
100
AcDbCircle
 62
7
  6
CONTINUOUS
 10
8.528642346
 20
6.5703565301
 40
0.1199383103
100
AcDbArc
 50
7.1248216347
 51
22.3028982332
  0
ARC
  5
404
100
AcDbEntity
  8
0
100
AcDbCircle
 62
7
  6
CONTINUOUS
 10
8.528642346
 20
6.5703291023
 40
0.1199383103
100
AcDbArc
 50
337.6971016578
 51
352.8751782752
  0
ARC
  5
405
100
AcDbEntity
  8
0
100
AcDbCircle
 62
7
  6
CONTINUOUS
 10
8.529810155
 20
6.5703428161
 40
0.1196726576
100
AcDbArc
 50
321.0571544355
 51
332.3153068088
  0
ARC
  5
406
100
AcDbEntity
  8
0
100
AcDbCircle
 62
7
  6
CONTINUOUS
 10
8.529810155
 20
6.5703428161
 40
0.1196726576
100
AcDbArc
 50
27.6846931912
 51
38.9428455645
  0
ARC
  5
407
100
AcDbEntity
  8
0
100
AcDbCircle
 62
7
  6
CONTINUOUS
 10
8.525122334
 20
6.5703428161
 40
0.111232485
100
AcDbArc
 50
358.2138786813
 51
1.7861200958
  0
ARC
  5
408
100
AcDbEntity
  8
0
100
AcDbCircle
 62
7
  6
CONTINUOUS
 10
8.5249192029
 20
6.5703428161
 40
0.110863205
100
AcDbArc
 50
358.2138798955
 51
1.7861201045
  0
ARC
  5
409
100
AcDbEntity
  8
0
100
AcDbCircle
 62
7
  6
CONTINUOUS
 10
8.6151106245
 20
6.5014086321
 40
0.01
100
AcDbArc
 50
270.0
 51
321.0571544355
  0
ARC
  5
40A
100
AcDbEntity
  8
0
100
AcDbCircle
 62
7
  6
CONTINUOUS
 10
8.6151106245
 20
6.6392770002
 40
0.01
100
AcDbArc
 50
38.9428455645
 51
90.0
  0
ARC
  5
40B
100
AcDbEntity
  8
0
100
AcDbCircle
 62
7
  6
CONTINUOUS
 10
8.6312988158
 20
6.6236155382
 40
0.0050019459
100
AcDbArc
 50
10.0931808692
 51
27.6744325313
  0
ARC
  5
40C
100
AcDbEntity
  8
0
100
AcDbCircle
 62
7
  6
CONTINUOUS
 10
8.6312988159
 20
6.5170700942
 40
0.0050019459
100
AcDbArc
 50
332.325565339
 51
349.9066293484
  0
ARC
  5
40D
100
AcDbEntity
  8
0
100
AcDbCircle
 62
7
  6
CONTINUOUS
 10
8.6313548321
 20
6.6236203627
 40
0.005
100
AcDbArc
 50
6.873287146
 51
27.6846931912
  0
ARC
  5
40E
100
AcDbEntity
  8
0
100
AcDbCircle
 62
7
  6
CONTINUOUS
 10
8.6426931907
 20
6.5846123405
 40
0.005
100
AcDbArc
 50
275.0
 51
7.1265686149
  0
ARC
  5
40F
100
AcDbEntity
  8
0
100
AcDbCircle
 62
7
  6
CONTINUOUS
 10
8.6426931907
 20
6.5560732917
 40
0.005
100
AcDbArc
 50
352.8734298372
 51
84.9999262
  0
ARC
  5
410
100
AcDbEntity
  8
0
100
AcDbCircle
 62
7
  6
CONTINUOUS
 10
8.6313548321
 20
6.5170652695
 40
0.005
100
AcDbArc
 50
332.3153068088
 51
353.1287558335
  0
ARC
  5
411
100
AcDbEntity
  8
0
100
AcDbCircle
 62
7
  6
CONTINUOUS
 10
8.6427002735
 20
6.5561552712
 40
0.0049177152
100
AcDbArc
 50
76.7338500929
 51
84.9989616439
  0
ARC
  5
412
100
AcDbEntity
  8
0
100
AcDbCircle
 62
7
  6
CONTINUOUS
 10
7.8357608696
 20
6.8603428161
 40
0.01
100
AcDbArc
 50
90.0
 51
180.0
  0
ARC
  5
413
100
AcDbEntity
  8
0
100
AcDbCircle
 62
7
  6
CONTINUOUS
 10
8.0657608696
 20
6.8603428161
 40
0.01
100
AcDbArc
 50
0.0
 51
90.0
  0
ARC
  5
414
100
AcDbEntity
  8
0
100
AcDbCircle
 62
7
  6
CONTINUOUS
 10
8.5912608696
 20
6.7478428161
 40
0.01
100
AcDbArc
 50
0.0
 51
90.0
  0
ARC
  5
415
100
AcDbEntity
  8
0
100
AcDbCircle
 62
7
  6
CONTINUOUS
 10
8.3362608696
 20
6.7478428161
 40
0.01
100
AcDbArc
 50
90.0
 51
180.0
  0
ARC
  5
416
100
AcDbEntity
  8
0
100
AcDbCircle
 62
7
  6
CONTINUOUS
 10
8.4737608696
 20
6.7478428161
 40
0.01
100
AcDbArc
 50
90.0
 51
180.0
  0
ARC
  5
417
100
AcDbEntity
  8
0
100
AcDbCircle
 62
7
  6
CONTINUOUS
 10
8.4644029009
 20
6.7519650653
 40
0.0058777508
100
AcDbArc
 50
90.0024721764
 51
96.0222534614
  0
SPLINE
  5
418
100
AcDbEntity
  8
0
100
AcDbSpline
 62
7
  6
CONTINUOUS
 70
0
 71
3
 72
12
 73
8
 74
0
 42
0.0000001
 43
0.0000001
 44
0.0000000001
 40
0.0
 40
0.0
 40
0.0
 40
0.0
 40
0.249992337
 40
0.4999847574
 40
0.6249966482
 40
0.7500086313
 40
1.0
 40
1.0
 40
1.0
 40
1.0
 10
4.9360283254
 20
1.2421782895
 30
0.0
 10
4.9425190138
 20
1.2404350035
 30
0.0
 10
4.9556170106
 20
1.2373678854
 30
0.0
 10
4.9722029239
 20
1.2346047185
 30
0.0
 10
4.9855570704
 20
1.2330481782
 30
0.0
 10
4.9989545493
 20
1.2319313557
 30
0.0
 10
5.0090401753
 20
1.2315928637
 30
0.0
 10
5.0157608696
 20
1.2315928161
 30
0.0
  0
SPLINE
  5
419
100
AcDbEntity
  8
0
100
AcDbSpline
 62
7
  6
CONTINUOUS
 70
0
 71
3
 72
11
 73
7
 74
0
 42
0.0000001
 43
0.0000001
 44
0.0000000001
 40
0.0
 40
0.0
 40
0.0
 40
0.0
 40
0.2500001351
 40
0.500000527
 40
0.7499998732
 40
1.0
 40
1.0
 40
1.0
 40
1.0
 10
5.3091844068
 20
1.4395646845
 30
0.0
 10
5.3120931001
 20
1.4477644214
 30
0.0
 10
5.3172199846
 20
1.4644181069
 30
0.0
 10
5.3227847275
 20
1.4899493297
 30
0.0
 10
5.3261864517
 20
1.5158577897
 30
0.0
 10
5.3269844097
 20
1.5332650926
 30
0.0
 10
5.3270095962
 20
1.5419654111
 30
0.0
  0
SPLINE
  5
41A
100
AcDbEntity
  8
0
100
AcDbSpline
 62
7
  6
CONTINUOUS
 70
0
 71
3
 72
11
 73
7
 74
0
 42
0.0000001
 43
0.0000001
 44
0.0000000001
 40
0.0
 40
0.0
 40
0.0
 40
0.0
 40
0.2500000547
 40
0.5000004506
 40
0.7499993712
 40
1.0
 40
1.0
 40
1.0
 40
1.0
 10
4.7223386194
 20
6.6736245508
 30
0.0
 10
4.71942958
 20
6.665424601
 30
0.0
 10
4.7143025452
 20
6.6487702847
 30
0.0
 10
4.7087372991
 20
6.6232382181
 30
0.0
 10
4.7053353424
 20
6.5973288109
 30
0.0
 10
4.7045373321
 20
6.5799208677
 30
0.0
 10
4.704512143
 20
6.5712202125
 30
0.0
  0
SPLINE
  5
41B
100
AcDbEntity
  8
0
100
AcDbSpline
 62
7
  6
CONTINUOUS
 70
0
 71
3
 72
12
 73
8
 74
0
 42
0.0000001
 43
0.0000001
 44
0.0000000001
 40
0.0
 40
0.0
 40
0.0
 40
0.0
 40
0.2499922261
 40
0.4999847307
 40
0.6249961361
 40
0.7500086594
 40
1.0
 40
1.0
 40
1.0
 40
1.0
 10
5.0954961119
 20
6.8710066054
 30
0.0
 10
5.0890052166
 20
6.8727500074
 30
0.0
 10
5.0759067968
 20
6.8758173662
 30
0.0
 10
5.0593203323
 20
6.8785806944
 30
0.0
 10
5.0459657277
 20
6.8801373622
 30
0.0
 10
5.032567785
 20
6.8812542447
 30
0.0
 10
5.022481796
 20
6.8815927685
 30
0.0
 10
5.0157608696
 20
6.8815928161
 30
0.0
  0
SPLINE
  5
41C
100
AcDbEntity
  8
0
100
AcDbSpline
 62
7
  6
CONTINUOUS
 70
0
 71
3
 72
12
 73
8
 74
0
 42
0.0000001
 43
0.0000001
 44
0.0000000001
 40
0.0
 40
0.0
 40
0.0
 40
0.0
 40
0.2499913198
 40
0.3750038363
 40
0.500015247
 40
0.7500077577
 40
1.0
 40
1.0
 40
1.0
 40
1.0
 10
5.0157608696
 20
6.8815928161
 30
0.0
 10
5.009039507
 20
6.8815927657
 30
0.0
 10
4.9989528629
 20
6.8812542016
 30
0.0
 10
4.9855540561
 20
6.880137174
 30
0.0
 10
4.972198595
 20
6.8785803052
 30
0.0
 10
4.9556110798
 20
6.8758166219
 30
0.0
 10
4.9425118523
 20
6.8727488701
 30
0.0
 10
4.9360205641
 20
6.8710052455
 30
0.0
  0
SPLINE
  5
41D
100
AcDbEntity
  8
0
100
AcDbSpline
 62
7
  6
CONTINUOUS
 70
0
 71
3
 72
11
 73
7
 74
0
 42
0.0000001
 43
0.0000001
 44
0.0000000001
 40
0.0
 40
0.0
 40
0.0
 40
0.0
 40
0.2500005873
 40
0.4999994921
 40
0.7499999042
 40
1.0
 40
1.0
 40
1.0
 40
1.0
 10
5.3270095964
 20
6.5712200734
 30
0.0
 10
5.3269844075
 20
6.5799215487
 30
0.0
 10
5.3261862616
 20
6.5973311357
 30
0.0
 10
5.322783684
 20
6.6232429545
 30
0.0
 10
5.3172174168
 20
6.6487773313
 30
0.0
 10
5.3120894396
 20
6.6654330863
 30
0.0
 10
5.3091798662
 20
6.67363372
 30
0.0
  0
SPLINE
  5
41E
100
AcDbEntity
  8
0
100
AcDbSpline
 62
7
  6
CONTINUOUS
 70
0
 71
3
 72
12
 73
8
 74
0
 42
0.0000001
 43
0.0000001
 44
0.0000000001
 40
0.0
 40
0.0
 40
0.0
 40
0.0
 40
0.2499913494
 40
0.3750033287
 40
0.5000152244
 40
0.7500076496
 40
1.0
 40
1.0
 40
1.0
 40
1.0
 10
5.0157608696
 20
1.2315928161
 30
0.0
 10
5.0224819719
 20
1.2315928666
 30
0.0
 10
5.032568211
 20
1.2319313957
 30
0.0
 10
5.0459664987
 20
1.2330483544
 30
0.0
 10
5.0593214466
 20
1.2346050826
 30
0.0
 10
5.0759083431
 20
1.237368582
 30
0.0
 10
5.0890070957
 20
1.2404360676
 30
0.0
 10
5.0954981516
 20
1.242179562
 30
0.0
  0
SPLINE
  5
41F
100
AcDbEntity
  8
0
100
AcDbSpline
 62
7
  6
CONTINUOUS
 70
0
 71
3
 72
11
 73
7
 74
0
 42
0.0000001
 43
0.0000001
 44
0.0000000001
 40
0.0
 40
0.0
 40
0.0
 40
0.0
 40
0.2500000902
 40
0.4999994216
 40
0.7499998272
 40
1.0
 40
1.0
 40
1.0
 40
1.0
 10
4.7045121427
 20
1.5419655503
 30
0.0
 10
4.704537329
 20
1.5332643769
 30
0.0
 10
4.7053354289
 20
1.5158553608
 30
0.0
 10
4.7087378005
 20
1.4899443877
 30
0.0
 10
4.714303608
 20
1.4644107579
 30
0.0
 10
4.7194314742
 20
1.4477555735
 30
0.0
 10
4.7223407238
 20
1.4395551241
 30
0.0
  0
SPLINE
  5
420
100
AcDbEntity
  8
0
100
AcDbSpline
 62
7
  6
CONTINUOUS
 70
0
 71
3
 72
21
 73
17
 74
0
 42
0.0000001
 43
0.0000001
 44
0.0000000001
 40
0.0
 40
0.0
 40
0.0
 40
0.0
 40
0.0406811986
 40
0.0825095701
 40
0.126488853
 40
0.1734224626
 40
0.2238644346
 40
0.2781431553
 40
0.3363892267
 40
0.3985704628
 40
0.4645226173
 40
0.5339747591
 40
0.6065697281
 40
0.6818809224
 40
0.8386302013
 40
1.0
 40
1.0
 40
1.0
 40
1.0
 10
7.8257608696
 20
6.8553428161
 30
0.0
 10
7.8257608696
 20
6.8555069572
 30
0.0
 10
7.8257941266
 20
6.8558407395
 30
0.0
 10
7.8259419748
 20
6.8563321313
 30
0.0
 10
7.8261854146
 20
6.8568120367
 30
0.0
 10
7.8265208916
 20
6.8572757669
 30
0.0
 10
7.8269445798
 20
6.8577194947
 30
0.0
 10
7.8274521651
 20
6.858139517
 30
0.0
 10
7.8280387938
 20
6.8585322454
 30
0.0
 10
7.828698943
 20
6.8588941987
 30
0.0
 10
7.8294264102
 20
6.8592220781
 30
0.0
 10
7.8302143311
 20
6.859512827
 30
0.0
 10
7.8310552565
 20
6.8597637225
 30
0.0
 10
7.8322523448
 20
6.8600455726
 30
0.0
 10
7.8338253954
 20
6.8602804803
 30
0.0
 10
7.8351097723
 20
6.8603428161
 30
0.0
 10
7.8357608696
 20
6.8603428161
 30
0.0
  0
SPLINE
  5
421
100
AcDbEntity
  8
0
100
AcDbSpline
 62
7
  6
CONTINUOUS
 70
0
 71
3
 72
21
 73
17
 74
0
 42
0.0000001
 43
0.0000001
 44
0.0000000001
 40
0.0
 40
0.0
 40
0.0
 40
0.0
 40
0.0406811986
 40
0.0825095701
 40
0.126488853
 40
0.1734224626
 40
0.2238644346
 40
0.2781431553
 40
0.3363892267
 40
0.3985704628
 40
0.4645226173
 40
0.5339747591
 40
0.6065697281
 40
0.6818809224
 40
0.8386302013
 40
1.0
 40
1.0
 40
1.0
 40
1.0
 10
7.8257608696
 20
6.5753428161
 30
0.0
 10
7.8257608696
 20
6.5755069572
 30
0.0
 10
7.8257941266
 20
6.5758407395
 30
0.0
 10
7.8259419748
 20
6.5763321313
 30
0.0
 10
7.8261854146
 20
6.5768120367
 30
0.0
 10
7.8265208916
 20
6.5772757669
 30
0.0
 10
7.8269445798
 20
6.5777194947
 30
0.0
 10
7.8274521651
 20
6.578139517
 30
0.0
 10
7.8280387938
 20
6.5785322454
 30
0.0
 10
7.828698943
 20
6.5788941987
 30
0.0
 10
7.8294264102
 20
6.5792220781
 30
0.0
 10
7.8302143311
 20
6.579512827
 30
0.0
 10
7.8310552565
 20
6.5797637225
 30
0.0
 10
7.8322523448
 20
6.5800455726
 30
0.0
 10
7.8338253954
 20
6.5802804803
 30
0.0
 10
7.8351097723
 20
6.5803428161
 30
0.0
 10
7.8357608696
 20
6.5803428161
 30
0.0
  0
SPLINE
  5
422
100
AcDbEntity
  8
0
100
AcDbSpline
 62
7
  6
CONTINUOUS
 70
0
 71
3
 72
21
 73
17
 74
0
 42
0.0000001
 43
0.0000001
 44
0.0000000001
 40
0.0
 40
0.0
 40
0.0
 40
0.0
 40
0.0406811986
 40
0.0825095701
 40
0.126488853
 40
0.1734224626
 40
0.2238644346
 40
0.2781431553
 40
0.3363892267
 40
0.3985704628
 40
0.4645226173
 40
0.5339747591
 40
0.6065697281
 40
0.6818809224
 40
0.8386302013
 40
1.0
 40
1.0
 40
1.0
 40
1.0
 10
7.8257608696
 20
6.5653428161
 30
0.0
 10
7.8257608696
 20
6.565178675
 30
0.0
 10
7.8257941266
 20
6.5648448928
 30
0.0
 10
7.8259419748
 20
6.564353501
 30
0.0
 10
7.8261854146
 20
6.5638735955
 30
0.0
 10
7.8265208916
 20
6.5634098654
 30
0.0
 10
7.8269445798
 20
6.5629661375
 30
0.0
 10
7.8274521651
 20
6.5625461152
 30
0.0
 10
7.8280387938
 20
6.5621533868
 30
0.0
 10
7.828698943
 20
6.5617914336
 30
0.0
 10
7.8294264102
 20
6.5614635541
 30
0.0
 10
7.8302143311
 20
6.5611728053
 30
0.0
 10
7.8310552565
 20
6.5609219097
 30
0.0
 10
7.8322523448
 20
6.5606400596
 30
0.0
 10
7.8338253954
 20
6.560405152
 30
0.0
 10
7.8351097723
 20
6.5603428161
 30
0.0
 10
7.8357608696
 20
6.5603428161
 30
0.0
  0
SPLINE
  5
423
100
AcDbEntity
  8
0
100
AcDbSpline
 62
7
  6
CONTINUOUS
 70
0
 71
3
 72
21
 73
17
 74
0
 42
0.0000001
 43
0.0000001
 44
0.0000000001
 40
0.0
 40
0.0
 40
0.0
 40
0.0
 40
0.0406811986
 40
0.0825095701
 40
0.126488853
 40
0.1734224626
 40
0.2238644346
 40
0.2781431553
 40
0.3363892267
 40
0.3985704628
 40
0.4645226173
 40
0.5339747591
 40
0.6065697281
 40
0.6818809224
 40
0.8386302013
 40
1.0
 40
1.0
 40
1.0
 40
1.0
 10
7.8257608696
 20
6.2853428161
 30
0.0
 10
7.8257608696
 20
6.285178675
 30
0.0
 10
7.8257941266
 20
6.2848448928
 30
0.0
 10
7.8259419748
 20
6.284353501
 30
0.0
 10
7.8261854146
 20
6.2838735955
 30
0.0
 10
7.8265208916
 20
6.2834098654
 30
0.0
 10
7.8269445798
 20
6.2829661375
 30
0.0
 10
7.8274521651
 20
6.2825461152
 30
0.0
 10
7.8280387938
 20
6.2821533868
 30
0.0
 10
7.828698943
 20
6.2817914336
 30
0.0
 10
7.8294264102
 20
6.2814635541
 30
0.0
 10
7.8302143311
 20
6.2811728053
 30
0.0
 10
7.8310552565
 20
6.2809219097
 30
0.0
 10
7.8322523448
 20
6.2806400596
 30
0.0
 10
7.8338253954
 20
6.280405152
 30
0.0
 10
7.8351097723
 20
6.2803428161
 30
0.0
 10
7.8357608696
 20
6.2803428161
 30
0.0
  0
SPLINE
  5
424
100
AcDbEntity
  8
0
100
AcDbSpline
 62
7
  6
CONTINUOUS
 70
0
 71
3
 72
21
 73
17
 74
0
 42
0.0000001
 43
0.0000001
 44
0.0000000001
 40
0.0
 40
0.0
 40
0.0
 40
0.0
 40
0.0406811986
 40
0.0825095701
 40
0.126488853
 40
0.1734224626
 40
0.2238644346
 40
0.2781431553
 40
0.3363892267
 40
0.3985704628
 40
0.4645226173
 40
0.5339747591
 40
0.6065697281
 40
0.6818809224
 40
0.8386302013
 40
1.0
 40
1.0
 40
1.0
 40
1.0
 10
8.0757608696
 20
6.2853428161
 30
0.0
 10
8.0757608696
 20
6.285178675
 30
0.0
 10
8.0757276125
 20
6.2848448928
 30
0.0
 10
8.0755797643
 20
6.284353501
 30
0.0
 10
8.0753363245
 20
6.2838735955
 30
0.0
 10
8.0750008475
 20
6.2834098654
 30
0.0
 10
8.0745771594
 20
6.2829661375
 30
0.0
 10
8.074069574
 20
6.2825461152
 30
0.0
 10
8.0734829453
 20
6.2821533868
 30
0.0
 10
8.0728227961
 20
6.2817914336
 30
0.0
 10
8.072095329
 20
6.2814635541
 30
0.0
 10
8.071307408
 20
6.2811728053
 30
0.0
 10
8.0704664826
 20
6.2809219097
 30
0.0
 10
8.0692693944
 20
6.2806400596
 30
0.0
 10
8.0676963437
 20
6.280405152
 30
0.0
 10
8.0664119668
 20
6.2803428161
 30
0.0
 10
8.0657608696
 20
6.2803428161
 30
0.0
  0
SPLINE
  5
425
100
AcDbEntity
  8
0
100
AcDbSpline
 62
7
  6
CONTINUOUS
 70
0
 71
3
 72
21
 73
17
 74
0
 42
0.0000001
 43
0.0000001
 44
0.0000000001
 40
0.0
 40
0.0
 40
0.0
 40
0.0
 40
0.0406811986
 40
0.0825095701
 40
0.126488853
 40
0.1734224626
 40
0.2238644346
 40
0.2781431553
 40
0.3363892267
 40
0.3985704628
 40
0.4645226173
 40
0.5339747591
 40
0.6065697281
 40
0.6818809224
 40
0.8386302013
 40
1.0
 40
1.0
 40
1.0
 40
1.0
 10
8.0757608696
 20
6.5653428161
 30
0.0
 10
8.0757608696
 20
6.565178675
 30
0.0
 10
8.0757276125
 20
6.5648448928
 30
0.0
 10
8.0755797643
 20
6.564353501
 30
0.0
 10
8.0753363245
 20
6.5638735955
 30
0.0
 10
8.0750008475
 20
6.5634098654
 30
0.0
 10
8.0745771594
 20
6.5629661375
 30
0.0
 10
8.074069574
 20
6.5625461152
 30
0.0
 10
8.0734829453
 20
6.5621533868
 30
0.0
 10
8.0728227961
 20
6.5617914336
 30
0.0
 10
8.072095329
 20
6.5614635541
 30
0.0
 10
8.071307408
 20
6.5611728053
 30
0.0
 10
8.0704664826
 20
6.5609219097
 30
0.0
 10
8.0692693944
 20
6.5606400596
 30
0.0
 10
8.0676963437
 20
6.560405152
 30
0.0
 10
8.0664119668
 20
6.5603428161
 30
0.0
 10
8.0657608696
 20
6.5603428161
 30
0.0
  0
SPLINE
  5
426
100
AcDbEntity
  8
0
100
AcDbSpline
 62
7
  6
CONTINUOUS
 70
0
 71
3
 72
21
 73
17
 74
0
 42
0.0000001
 43
0.0000001
 44
0.0000000001
 40
0.0
 40
0.0
 40
0.0
 40
0.0
 40
0.0406811986
 40
0.0825095701
 40
0.126488853
 40
0.1734224626
 40
0.2238644346
 40
0.2781431553
 40
0.3363892267
 40
0.3985704628
 40
0.4645226173
 40
0.5339747591
 40
0.6065697281
 40
0.6818809223
 40
0.8386302013
 40
1.0
 40
1.0
 40
1.0
 40
1.0
 10
8.0757608696
 20
6.5753428161
 30
0.0
 10
8.0757608696
 20
6.5755069572
 30
0.0
 10
8.0757276125
 20
6.5758407395
 30
0.0
 10
8.0755797643
 20
6.5763321313
 30
0.0
 10
8.0753363245
 20
6.5768120367
 30
0.0
 10
8.0750008475
 20
6.5772757669
 30
0.0
 10
8.0745771594
 20
6.5777194947
 30
0.0
 10
8.074069574
 20
6.578139517
 30
0.0
 10
8.0734829453
 20
6.5785322454
 30
0.0
 10
8.0728227961
 20
6.5788941987
 30
0.0
 10
8.072095329
 20
6.5792220781
 30
0.0
 10
8.071307408
 20
6.579512827
 30
0.0
 10
8.0704664826
 20
6.5797637225
 30
0.0
 10
8.0692693944
 20
6.5800455726
 30
0.0
 10
8.0676963437
 20
6.5802804803
 30
0.0
 10
8.0664119668
 20
6.5803428161
 30
0.0
 10
8.0657608696
 20
6.5803428161
 30
0.0
  0
SPLINE
  5
427
100
AcDbEntity
  8
0
100
AcDbSpline
 62
7
  6
CONTINUOUS
 70
0
 71
3
 72
21
 73
17
 74
0
 42
0.0000001
 43
0.0000001
 44
0.0000000001
 40
0.0
 40
0.0
 40
0.0
 40
0.0
 40
0.0406811986
 40
0.0825095701
 40
0.126488853
 40
0.1734224626
 40
0.2238644346
 40
0.2781431553
 40
0.3363892267
 40
0.3985704628
 40
0.4645226173
 40
0.5339747591
 40
0.6065697281
 40
0.6818809224
 40
0.8386302013
 40
1.0
 40
1.0
 40
1.0
 40
1.0
 10
8.0757608696
 20
6.8553428161
 30
0.0
 10
8.0757608696
 20
6.8555069572
 30
0.0
 10
8.0757276125
 20
6.8558407395
 30
0.0
 10
8.0755797643
 20
6.8563321313
 30
0.0
 10
8.0753363245
 20
6.8568120367
 30
0.0
 10
8.0750008475
 20
6.8572757669
 30
0.0
 10
8.0745771594
 20
6.8577194947
 30
0.0
 10
8.074069574
 20
6.858139517
 30
0.0
 10
8.0734829453
 20
6.8585322454
 30
0.0
 10
8.0728227961
 20
6.8588941987
 30
0.0
 10
8.072095329
 20
6.8592220781
 30
0.0
 10
8.071307408
 20
6.859512827
 30
0.0
 10
8.0704664826
 20
6.8597637225
 30
0.0
 10
8.0692693944
 20
6.8600455726
 30
0.0
 10
8.0676963437
 20
6.8602804803
 30
0.0
 10
8.0664119668
 20
6.8603428161
 30
0.0
 10
8.0657608696
 20
6.8603428161
 30
0.0
  0
SPLINE
  5
428
100
AcDbEntity
  8
0
100
AcDbSpline
 62
7
  6
CONTINUOUS
 70
0
 71
3
 72
15
 73
11
 74
0
 42
0.0000001
 43
0.0000001
 44
0.0000000001
 40
0.0
 40
0.0
 40
0.0
 40
0.0
 40
0.124501041
 40
0.2491146329
 40
0.3738795928
 40
0.4988192
 40
0.6239335998
 40
0.7492010245
 40
0.8745711742
 40
1.0
 40
1.0
 40
1.0
 40
1.0
 10
1.3876918765
 20
6.5797440679
 30
0.0
 10
1.3873972668
 20
6.5798135301
 30
0.0
 10
1.386819243
 20
6.5800075629
 30
0.0
 10
1.3860209272
 20
6.5804524054
 30
0.0
 10
1.3853163738
 20
6.581036589
 30
0.0
 10
1.3847295468
 20
6.5817404039
 30
0.0
 10
1.3842799528
 20
6.5825402725
 30
0.0
 10
1.3839826482
 20
6.5834094927
 30
0.0
 10
1.3838474329
 20
6.5843186066
 30
0.0
 10
1.383868517
 20
6.5849319671
 30
0.0
 10
1.3839065802
 20
6.5852345257
 30
0.0
  0
SPLINE
  5
429
100
AcDbEntity
  8
0
100
AcDbSpline
 62
7
  6
CONTINUOUS
 70
0
 71
3
 72
15
 73
11
 74
0
 42
0.0000001
 43
0.0000001
 44
0.0000000001
 40
0.0
 40
0.0
 40
0.0
 40
0.0
 40
0.1205641894
 40
0.2424464677
 40
0.3657840807
 40
0.4905753517
 40
0.6166858189
 40
0.7438661875
 40
0.871770311
 40
1.0
 40
1.0
 40
1.0
 40
1.0
 10
1.3944031546
 20
6.561211422
 30
0.0
 10
1.3941932072
 20
6.5610964595
 30
0.0
 10
1.3937891085
 20
6.5608304742
 30
0.0
 10
1.3932510551
 20
6.5603385522
 30
0.0
 10
1.392789888
 20
6.5597630178
 30
0.0
 10
1.3924164327
 20
6.5591175131
 30
0.0
 10
1.3921391609
 20
6.5584171032
 30
0.0
 10
1.3919644198
 20
6.5576780375
 30
0.0
 10
1.3918961231
 20
6.5569176464
 30
0.0
 10
1.3919226461
 20
6.5564078158
 30
0.0
 10
1.3919537721
 20
6.5561551446
 30
0.0
  0
SPLINE
  5
42A
100
AcDbEntity
  8
0
100
AcDbSpline
 62
7
  6
CONTINUOUS
 70
0
 71
3
 72
10
 73
6
 74
0
 42
0.0000001
 43
0.0000001
 44
0.0000000001
 40
0.0
 40
0.0
 40
0.0
 40
0.0
 40
0.31918784
 40
0.6101337706
 40
1.0
 40
1.0
 40
1.0
 40
1.0
 10
8.6396080897
 20
6.6158734587
 30
0.0
 10
8.6396064049
 20
6.6158775403
 30
0.0
 10
8.6395959622
 20
6.6158797109
 30
0.0
 10
8.6395829447
 20
6.6158797509
 30
0.0
 10
8.6395733228
 20
6.6158789077
 30
0.0
 10
8.6395679671
 20
6.615878271
 30
0.0
  0
SPLINE
  5
42B
100
AcDbEntity
  8
0
100
AcDbSpline
 62
7
  6
CONTINUOUS
 70
0
 71
3
 72
15
 73
11
 74
0
 42
0.0000001
 43
0.0000001
 44
0.0000000001
 40
0.0
 40
0.0
 40
0.0
 40
0.0
 40
0.1245100961
 40
0.2490909427
 40
0.3738190442
 40
0.4987293442
 40
0.623834292
 40
0.7491161454
 40
0.8745231892
 40
1.0
 40
1.0
 40
1.0
 40
1.0
 10
8.6431289694
 20
6.579631367
 30
0.0
 10
8.6434597672
 20
6.5796603081
 30
0.0
 10
8.644117604
 20
6.5797858099
 30
0.0
 10
8.6450451974
 20
6.5801685909
 30
0.0
 10
8.645878281
 20
6.5807305638
 30
0.0
 10
8.6465827258
 20
6.5814490072
 30
0.0
 10
8.6471303453
 20
6.5822948347
 30
0.0
 10
8.6474990331
 20
6.5832340749
 30
0.0
 10
8.647674129
 20
6.5842283681
 30
0.0
 10
8.6476569288
 20
6.5849025032
 30
0.0
 10
8.647615159
 20
6.5852345257
 30
0.0
  0
SPLINE
  5
42C
100
AcDbEntity
  8
0
100
AcDbSpline
 62
7
  6
CONTINUOUS
 70
0
 71
3
 72
12
 73
8
 74
0
 42
0.0000001
 43
0.0000001
 44
0.0000000001
 40
0.0
 40
0.0
 40
0.0
 40
0.0
 40
0.0262444744
 40
0.0768162648
 40
0.2647405929
 40
0.5722026236
 40
1.0
 40
1.0
 40
1.0
 40
1.0
 10
8.6476545579
 20
6.5852326479
 30
0.0
 10
8.6476545116
 20
6.5852329937
 30
0.0
 10
8.6476535287
 20
6.5852336868
 30
0.0
 10
8.6476502098
 20
6.5852344268
 30
0.0
 10
8.6476428309
 20
6.5852349909
 30
0.0
 10
8.6476306347
 20
6.5852350197
 30
0.0
 10
8.6476208405
 20
6.585234742
 30
0.0
 10
8.647615159
 20
6.5852345257
 30
0.0
  0
LINE
  5
42D
100
AcDbEntity
  8
0
100
AcDbLine
 62
7
  6
CONTINUOUS
 10
8.6363007738
 20
6.5738097801
 11
8.635728544
 21
6.5737982701
  0
LINE
  5
42E
100
AcDbEntity
  8
0
100
AcDbLine
 62
7
  6
CONTINUOUS
 10
3.5750514537
 20
6.5703428161
 11
3.5750520008
 21
6.914092816
  0
LINE
  5
42F
100
AcDbEntity
  8
0
100
AcDbLine
 62
7
  6
CONTINUOUS
 10
8.6363007738
 20
6.5668758499
 11
8.635728544
 21
6.5668873621
  0
SPLINE
  5
430
100
AcDbEntity
  8
0
100
AcDbSpline
 62
7
  6
CONTINUOUS
 70
0
 71
3
 72
44
 73
40
 74
0
 42
0.0000001
 43
0.0000001
 44
0.0000000001
 40
0.0
 40
0.0
 40
0.0
 40
0.0
 40
0.0953585258
 40
0.1898144348
 40
0.2824779663
 40
0.3724621876
 40
0.4589059232
 40
0.5005582021
 40
0.5410393867
 40
0.5802565344
 40
0.6181171343
 40
0.6545292332
 40
0.6894016013
 40
0.7226490753
 40
0.7542080076
 40
0.7840209094
 40
0.8120316576
 40
0.8381860016
 40
0.8624322984
 40
0.8738250986
 40
0.8847233347
 40
0.8951218862
 40
0.9050161337
 40
0.9144028737
 40
0.9232827923
 40
0.9316581772
 40
0.9395323257
 40
0.9469098209
 40
0.9537969002
 40
0.9602019531
 40
0.9661361966
 40
0.9716145955
 40
0.9766571115
 40
0.9812903726
 40
0.9855498174
 40
0.989482238
 40
0.9931483043
 40
0.9966240827
 40
1.0
 40
1.0
 40
1.0
 40
1.0
 10
3.3920108696
 20
6.5703428161
 30
0.0
 10
3.3920108696
 20
6.5601736889
 30
0.0
 10
3.3921283441
 20
6.5399314767
 30
0.0
 10
3.3926661543
 20
6.5098118137
 30
0.0
 10
3.3935733505
 20
6.4802742346
 30
0.0
 10
3.3948577872
 20
6.4516057883
 30
0.0
 10
3.3962665914
 20
6.4283910074
 30
0.0
 10
3.3975918182
 20
6.4104624725
 30
0.0
 10
3.3986645189
 20
6.3975658588
 30
0.0
 10
3.3998261425
 20
6.385082977
 30
0.0
 10
3.4010746041
 20
6.3730446287
 30
0.0
 10
3.4024077823
 20
6.3614816161
 30
0.0
 10
3.4038235814
 20
6.3504241728
 30
0.0
 10
3.4053204086
 20
6.339899865
 30
0.0
 10
3.4068934241
 20
6.3299324984
 30
0.0
 10
3.4085379895
 20
6.3205430883
 30
0.0
 10
3.410249517
 20
6.3117520378
 30
0.0
 10
3.4120234378
 20
6.3035797926
 30
0.0
 10
3.4135803463
 20
6.2971757145
 30
0.0
 10
3.4148601127
 20
6.2923805917
 30
0.0
 10
3.4158128986
 20
6.2890271009
 30
0.0
 10
3.4167780826
 20
6.2858437761
 30
0.0
 10
3.417755138
 20
6.2828330725
 30
0.0
 10
3.4187436808
 20
6.2799970572
 30
0.0
 10
3.419742853
 20
6.2773370938
 30
0.0
 10
3.420751904
 20
6.2748541108
 30
0.0
 10
3.4217701225
 20
6.2725489435
 30
0.0
 10
3.4227968066
 20
6.2704224072
 30
0.0
 10
3.4238312733
 20
6.2684752928
 30
0.0
 10
3.4248728714
 20
6.2667083616
 30
0.0
 10
3.4259210034
 20
6.2651223422
 30
0.0
 10
3.4269751586
 20
6.2637179346
 30
0.0
 10
3.4280349645
 20
6.2624958324
 30
0.0
 10
3.4291002435
 20
6.2614567864
 30
0.0
 10
3.4301710843
 20
6.2606017435
 30
0.0
 10
3.4312477399
 20
6.2599320938
 30
0.0
 10
3.4323305743
 20
6.2594499792
 30
0.0
 10
3.4334186586
 20
6.2591583824
 30
0.0
 10
3.4341508584
 20
6.2590928161
 30
0.0
 10
3.4345108696
 20
6.2590928161
 30
0.0
  0
SPLINE
  5
431
100
AcDbEntity
  8
0
100
AcDbSpline
 62
7
  6
CONTINUOUS
 70
0
 71
3
 72
12
 73
8
 74
0
 42
0.0000001
 43
0.0000001
 44
0.0000000001
 40
0.0
 40
0.0
 40
0.0
 40
0.0
 40
0.0262468483
 40
0.0768215309
 40
0.2647487433
 40
0.5722090521
 40
1.0
 40
1.0
 40
1.0
 40
1.0
 10
1.3838671813
 20
6.5852326481
 30
0.0
 10
1.3838672277
 20
6.5852329938
 30
0.0
 10
1.3838682107
 20
6.5852336868
 30
0.0
 10
1.3838715297
 20
6.5852344269
 30
0.0
 10
1.3838789086
 20
6.5852349909
 30
0.0
 10
1.3838911047
 20
6.5852350197
 30
0.0
 10
1.3839008987
 20
6.585234742
 30
0.0
 10
1.3839065802
 20
6.5852345257
 30
0.0
  0
SPLINE
  5
432
100
AcDbEntity
  8
0
100
AcDbSpline
 62
7
  6
CONTINUOUS
 70
0
 71
3
 72
32
 73
28
 74
0
 42
0.0000001
 43
0.0000001
 44
0.0000000001
 40
0.0
 40
0.0
 40
0.0
 40
0.0
 40
0.0313073013
 40
0.06262134
 40
0.0939476054
 40
0.1252888862
 40
0.1879985687
 40
0.2507601481
 40
0.3135589645
 40
0.3763758255
 40
0.4391714753
 40
0.4705560783
 40
0.5019191652
 40
0.533257722
 40
0.5645711527
 40
0.595858274
 40
0.6271170989
 40
0.6895228608
 40
0.7517945543
 40
0.7828917251
 40
0.8139620548
 40
0.8450092626
 40
0.8760362589
 40
0.9070456438
 40
0.9380402079
 40
0.9690234342
 40
1.0
 40
1.0
 40
1.0
 40
1.0
 10
2.7045108696
 20
6.5703428161
 30
0.0
 10
2.7045108696
 20
6.5652592078
 30
0.0
 10
2.7047750597
 20
6.5550889678
 30
0.0
 10
2.7059516869
 20
6.5398732326
 30
0.0
 10
2.7078965632
 20
6.524730288
 30
0.0
 10
2.7114975332
 20
6.504685792
 30
0.0
 10
2.7178613749
 20
6.4799844342
 30
0.0
 10
2.7283722377
 20
6.4512260733
 30
0.0
 10
2.741664723
 20
6.4236223369
 30
0.0
 10
2.7575561624
 20
6.3974262246
 30
0.0
 10
2.7728255076
 20
6.3769590921
 30
0.0
 10
2.7861631027
 20
6.3615338647
 30
0.0
 10
2.7967058007
 20
6.3504683444
 30
0.0
 10
2.8077659672
 20
6.339937249
 30
0.0
 10
2.8193131796
 20
6.3299615865
 30
0.0
 10
2.8313175752
 20
6.3205615896
 30
0.0
 10
2.8478805443
 20
6.3088316649
 30
0.0
 10
2.8695810298
 20
6.2957038393
 30
0.0
 10
2.8924308743
 20
6.2847545454
 30
0.0
 10
2.9112576207
 20
6.2773976512
 30
0.0
 10
2.9256158293
 20
6.2725880197
 30
0.0
 10
2.9401814904
 20
6.2684921283
 30
0.0
 10
2.9549207658
 20
6.2651169809
 30
0.0
 10
2.9697992954
 20
6.2624697812
 30
0.0
 10
2.9847830229
 20
6.2605577087
 30
0.0
 10
2.9998372257
 20
6.2593879812
 30
0.0
 10
3.0098991665
 20
6.2591078718
 30
0.0
 10
3.0149290515
 20
6.259093966
 30
0.0
  0
SPLINE
  5
433
100
AcDbEntity
  8
0
100
AcDbSpline
 62
7
  6
CONTINUOUS
 70
0
 71
3
 72
50
 73
46
 74
0
 42
0.0000001
 43
0.0000001
 44
0.0000000001
 40
0.0
 40
0.0
 40
0.0
 40
0.0
 40
0.0979242772
 40
0.1948726405
 40
0.2899135846
 40
0.3821340447
 40
0.4706383941
 40
0.5546255281
 40
0.6333400556
 40
0.7060214315
 40
0.7398608125
 40
0.7719256743
 40
0.8021497845
 40
0.8304661305
 40
0.8568079659
 40
0.8811075622
 40
0.9032964297
 40
0.9233037838
 40
0.9410655057
 40
0.9490923577
 40
0.9565450255
 40
0.9634202782
 40
0.969714864
 40
0.9754254818
 40
0.9805488248
 40
0.9850815873
 40
0.9890204648
 40
0.9923622106
 40
0.9938081809
 40
0.9951036974
 40
0.9962483694
 40
0.9972417667
 40
0.9980834161
 40
0.9987728419
 40
0.9990603225
 40
0.9993095689
 40
0.9995205217
 40
0.9996931306
 40
0.999827384
 40
0.999880127
 40
0.9999232808
 40
0.9999568451
 40
0.9999808199
 40
0.9999952049
 40
1.0
 40
1.0
 40
1.0
 40
1.0
 10
3.5357608696
 20
6.5703428161
 30
0.0
 10
3.5357608696
 20
6.5805024547
 30
0.0
 10
3.5357665478
 20
6.6007204811
 30
0.0
 10
3.5357869868
 20
6.6307989936
 30
0.0
 10
3.5358137068
 20
6.66028573
 30
0.0
 10
3.5358410006
 20
6.6888963993
 30
0.0
 10
3.5358637076
 20
6.7163602402
 30
0.0
 10
3.5358799421
 20
6.7424228458
 30
0.0
 10
3.535888285
 20
6.7668438225
 30
0.0
 10
3.5358877579
 20
6.7860619741
 30
0.0
 10
3.5358825525
 20
6.8004402239
 30
0.0
 10
3.5358768287
 20
6.8104135339
 30
0.0
 10
3.5358694622
 20
6.819813828
 30
0.0
 10
3.5358607024
 20
6.828620357
 30
0.0
 10
3.5358508301
 20
6.8368122164
 30
0.0
 10
3.5358401463
 20
6.8443683486
 30
0.0
 10
3.5358289423
 20
6.8512672771
 30
0.0
 10
3.5358175396
 20
6.8574879002
 30
0.0
 10
3.5358078919
 20
6.8622392155
 30
0.0
 10
3.5358004475
 20
6.8656879846
 30
0.0
 10
3.5357952609
 20
6.8680072852
 30
0.0
 10
3.5357903136
 20
6.8701468635
 30
0.0
 10
3.5357856416
 20
6.8721057042
 30
0.0
 10
3.5357812809
 20
6.8738827847
 30
0.0
 10
3.5357772683
 20
6.8754770764
 30
0.0
 10
3.5357736355
 20
6.8768875505
 30
0.0
 10
3.5357704122
 20
6.8781131844
 30
0.0
 10
3.5357679874
 20
6.8790185648
 30
0.0
 10
3.5357662746
 20
6.8796496975
 30
0.0
 10
3.5357651716
 20
6.8800528848
 30
0.0
 10
3.53576419
 20
6.8804091178
 30
0.0
 10
3.5357633325
 20
6.8807182622
 30
0.0
 10
3.5357626012
 20
6.8809801751
 30
0.0
 10
3.5357620714
 20
6.8811688494
 30
0.0
 10
3.5357617124
 20
6.8812960622
 30
0.0
 10
3.5357614933
 20
6.8813736336
 30
0.0
 10
3.5357613063
 20
6.8814392872
 30
0.0
 10
3.5357611565
 20
6.8814930101
 30
0.0
 10
3.5357610445
 20
6.8815303195
 30
0.0
 10
3.5357609857
 20
6.8815541967
 30
0.0
 10
3.5357609283
 20
6.8815676298
 30
0.0
 10
3.535760948
 20
6.8815780726
 30
0.0
 10
3.5357608148
 20
6.8815855438
 30
0.0
 10
3.5357609984
 20
6.8815900051
 30
0.0
 10
3.5357607895
 20
6.8815920116
 30
0.0
 10
3.5357608715
 20
6.8815925023
 30
0.0
  0
LINE
  5
434
100
AcDbEntity
  8
0
100
AcDbLine
 62
7
  6
CONTINUOUS
 10
6.4564715507
 20
6.9140928156
 11
6.4564702854
 21
6.5703428161
  0
SPLINE
  5
435
100
AcDbEntity
  8
0
100
AcDbSpline
 62
7
  6
CONTINUOUS
 70
0
 71
3
 72
15
 73
11
 74
0
 42
0.0000001
 43
0.0000001
 44
0.0000000001
 40
0.0
 40
0.0
 40
0.0
 40
0.0
 40
0.1205641346
 40
0.2424463564
 40
0.365783927
 40
0.4905751798
 40
0.6166856571
 40
0.7438660628
 40
0.8717702431
 40
1.0
 40
1.0
 40
1.0
 40
1.0
 10
8.6371185176
 20
6.5612114586
 30
0.0
 10
8.6373284697
 20
6.5610964983
 30
0.0
 10
8.6377325776
 20
6.5608305161
 30
0.0
 10
8.6382706444
 20
6.5603385953
 30
0.0
 10
8.6387318237
 20
6.5597630589
 30
0.0
 10
8.6391052895
 20
6.5591175493
 30
0.0
 10
8.6393825697
 20
6.5584171322
 30
0.0
 10
8.6395573166
 20
6.5576780576
 30
0.0
 10
8.6396256163
 20
6.5569176566
 30
0.0
 10
8.6395990934
 20
6.5564078191
 30
0.0
 10
8.6395679671
 20
6.5561551446
 30
0.0
  0
LINE
  5
436
100
AcDbEntity
  8
0
100
AcDbLine
 62
7
  6
CONTINUOUS
 10
6.4662975692
 20
6.9059649428
 11
6.4662929315
 21
6.5703428235
  0
SPLINE
  5
437
100
AcDbEntity
  8
0
100
AcDbSpline
 62
7
  6
CONTINUOUS
 70
0
 71
3
 72
12
 73
8
 74
0
 42
0.0000001
 43
0.0000001
 44
0.0000000001
 40
0.0
 40
0.0
 40
0.0
 40
0.0
 40
0.0262468483
 40
0.0768215309
 40
0.2647487433
 40
0.5722090521
 40
1.0
 40
1.0
 40
1.0
 40
1.0
 10
8.6476545578
 20
6.5554529842
 30
0.0
 10
8.6476545114
 20
6.5554526384
 30
0.0
 10
8.6476535285
 20
6.5554519454
 30
0.0
 10
8.6476502094
 20
6.5554512054
 30
0.0
 10
8.6476428305
 20
6.5554506414
 30
0.0
 10
8.6476306344
 20
6.5554506126
 30
0.0
 10
8.6476208404
 20
6.5554508902
 30
0.0
 10
8.647615159
 20
6.5554511066
 30
0.0
  0
SPLINE
  5
438
100
AcDbEntity
  8
0
100
AcDbSpline
 62
7
  6
CONTINUOUS
 70
0
 71
3
 72
41
 73
37
 74
0
 42
0.0000001
 43
0.0000001
 44
0.0000000001
 40
0.0
 40
0.0
 40
0.0
 40
0.0
 40
0.0312497452
 40
0.0468766299
 40
0.0625031432
 40
0.0937529326
 40
0.1250027087
 40
0.1406294171
 40
0.1562561317
 40
0.1875059075
 40
0.2187556895
 40
0.2500054801
 40
0.2812552741
 40
0.3125050762
 40
0.3437548707
 40
0.3750046676
 40
0.4062544533
 40
0.4375042521
 40
0.4687540427
 40
0.5000038243
 40
0.5312536173
 40
0.5625033828
 40
0.5937531423
 40
0.6250029169
 40
0.6562526748
 40
0.6875024267
 40
0.7187521997
 40
0.7500019516
 40
0.7812516904
 40
0.8125014562
 40
0.8437512019
 40
0.8750009373
 40
0.9062507124
 40
0.9375004664
 40
0.9687502169
 40
1.0
 40
1.0
 40
1.0
 40
1.0
 10
2.6801358695
 20
6.5703428272
 30
0.0
 10
2.6801359133
 20
6.5635144796
 30
0.0
 10
2.6804515637
 20
6.5532678852
 30
0.0
 10
2.6814995322
 20
6.5396491446
 30
0.0
 10
2.6829639253
 20
6.52606841
 30
0.0
 10
2.685572126
 20
6.5091861989
 30
0.0
 10
2.6892061496
 20
6.4924946438
 30
0.0
 10
2.6927198523
 20
6.4792949369
 30
0.0
 10
2.6966347883
 20
6.4662086649
 30
0.0
 10
2.7022755267
 20
6.4500839658
 30
0.0
 10
2.710213571
 20
6.4311859256
 30
0.0
 10
2.7192892951
 20
6.4128068029
 30
0.0
 10
2.7294661845
 20
6.3950139224
 30
0.0
 10
2.7407060991
 20
6.3778727268
 30
0.0
 10
2.752967225
 20
6.361446466
 30
0.0
 10
2.7662062056
 20
6.3457975718
 30
0.0
 10
2.7803740886
 20
6.3309843902
 30
0.0
 10
2.7954187176
 20
6.3170625805
 30
0.0
 10
2.8112819423
 20
6.3040812646
 30
0.0
 10
2.8279063276
 20
6.2920900651
 30
0.0
 10
2.8452305898
 20
6.2811343892
 30
0.0
 10
2.8631891934
 20
6.2712527592
 30
0.0
 10
2.8817180766
 20
6.2624867684
 30
0.0
 10
2.9007480854
 20
6.254869812
 30
0.0
 10
2.9202070754
 20
6.2484272132
 30
0.0
 10
2.9400236592
 20
6.243186474
 30
0.0
 10
2.9601235138
 20
6.2391671494
 30
0.0
 10
2.9804310251
 20
6.2363806843
 30
0.0
 10
3.0008710908
 20
6.2348420864
 30
0.0
 10
3.0213669652
 20
6.2345585031
 30
0.0
 10
3.0418418713
 20
6.2355277416
 30
0.0
 10
3.0622190023
 20
6.2377496265
 30
0.0
 10
3.0824217891
 20
6.2412144993
 30
0.0
 10
3.1023758416
 20
6.2459051437
 30
0.0
 10
3.1220050701
 20
6.2518068146
 30
0.0
 10
3.1348281041
 20
6.2565343916
 30
0.0
 10
3.1411598513
 20
6.2590908389
 30
0.0
  0
SPLINE
  5
439
100
AcDbEntity
  8
0
100
AcDbSpline
 62
7
  6
CONTINUOUS
 70
0
 71
3
 72
42
 73
38
 74
0
 42
0.0000001
 43
0.0000001
 44
0.0000000001
 40
0.0
 40
0.0
 40
0.0
 40
0.0
 40
0.0312496473
 40
0.06249929
 40
0.093748949
 40
0.1249985943
 40
0.1562482202
 40
0.1874978674
 40
0.2187475177
 40
0.2499971468
 40
0.2812468013
 40
0.2968734551
 40
0.3125001114
 40
0.3437497565
 40
0.374999426
 40
0.4062490877
 40
0.437498744
 40
0.4687484184
 40
0.4999980859
 40
0.5312477722
 40
0.5624974592
 40
0.5937471343
 40
0.6249968212
 40
0.6562464992
 40
0.6874961774
 40
0.7187458661
 40
0.749995539
 40
0.7812452179
 40
0.796871874
 40
0.8124985324
 40
0.8437481985
 40
0.8749978728
 40
0.8906245182
 40
0.906251183
 40
0.9375008512
 40
0.9687504232
 40
1.0
 40
1.0
 40
1.0
 40
1.0
 10
3.1411530902
 20
6.8815971806
 30
0.0
 10
3.1348214604
 20
6.8841537026
 30
0.0
 10
3.1219983788
 20
6.8888807923
 30
0.0
 10
3.1023689953
 20
6.8947810295
 30
0.0
 10
3.0824154662
 20
6.8994728202
 30
0.0
 10
3.0622127981
 20
6.9029373511
 30
0.0
 10
3.0418357224
 20
6.9051575496
 30
0.0
 10
3.0213610985
 20
6.9061270236
 30
0.0
 10
3.000865348
 20
6.905843279
 30
0.0
 10
2.9804258631
 20
6.9043041967
 30
0.0
 10
2.9635017176
 20
6.9019826428
 30
0.0
 10
2.9500684763
 20
6.8995085107
 30
0.0
 10
2.9367170895
 20
6.8966251139
 30
0.0
 10
2.9202025246
 20
6.8922562987
 30
0.0
 10
2.9007438641
 20
6.8858143906
 30
0.0
 10
2.8817141923
 20
6.8781969067
 30
0.0
 10
2.8631855656
 20
6.869431063
 30
0.0
 10
2.8452262825
 20
6.8595510313
 30
0.0
 10
2.8279036057
 20
6.8485931803
 30
0.0
 10
2.8112798857
 20
6.8366015767
 30
0.0
 10
2.7954159877
 20
6.8236213966
 30
0.0
 10
2.7803723873
 20
6.8096987949
 30
0.0
 10
2.7662041394
 20
6.7948863116
 30
0.0
 10
2.752965673
 20
6.7792372249
 30
0.0
 10
2.7407054118
 20
6.7628106604
 30
0.0
 10
2.7294650751
 20
6.7456699394
 30
0.0
 10
2.7192885144
 20
6.7278774401
 30
0.0
 10
2.7117249411
 20
6.7125605447
 30
0.0
 10
2.7062439235
 20
6.7000492785
 30
0.0
 10
2.7011474354
 20
6.6873764645
 30
0.0
 10
2.695506966
 20
6.671252161
 30
0.0
 10
2.6908611982
 20
6.6548136735
 30
0.0
 10
2.6877520034
 20
6.6415130195
 30
0.0
 10
2.6850503593
 20
6.6281237047
 30
0.0
 10
2.6824426502
 20
6.611241107
 30
0.0
 10
2.6805578177
 20
6.5908313308
 30
0.0
 10
2.6801359847
 20
6.5771710869
 30
0.0
 10
2.6801358694
 20
6.5703428272
 30
0.0
  0
LINE
  5
43A
100
AcDbEntity
  8
0
100
AcDbLine
 62
7
  6
CONTINUOUS
 10
1.3919537721
 20
6.615878271
 11
1.3950899812
 21
6.6237661504
  0
LINE
  5
43B
100
AcDbEntity
  8
0
100
AcDbLine
 62
7
  6
CONTINUOUS
 10
1.3950899812
 20
6.6237661504
 11
1.3957931951
 21
6.6259386765
  0
LINE
  5
43C
100
AcDbEntity
  8
0
100
AcDbLine
 62
7
  6
CONTINUOUS
 10
3.5652288077
 20
6.5703428087
 11
3.5652241983
 21
6.905965143
  0
SPLINE
  5
43D
100
AcDbEntity
  8
0
100
AcDbSpline
 62
7
  6
CONTINUOUS
 70
0
 71
3
 72
11
 73
7
 74
0
 42
0.0000001
 43
0.0000001
 44
0.0000000001
 40
0.0
 40
0.0
 40
0.0
 40
0.0
 40
0.2649487826
 40
0.5235641708
 40
0.7701895955
 40
1.0
 40
1.0
 40
1.0
 40
1.0
 10
1.3957931951
 20
6.5737982701
 30
0.0
 10
1.3958105496
 20
6.5743554151
 30
0.0
 10
1.3958090069
 20
6.5754578389
 30
0.0
 10
1.3957005977
 20
6.5770757643
 30
0.0
 10
1.3954909676
 20
6.5786091849
 30
0.0
 10
1.395280485
 20
6.5795905314
 30
0.0
 10
1.3951579422
 20
6.5800582331
 30
0.0
  0
SPLINE
  5
43E
100
AcDbEntity
  8
0
100
AcDbSpline
 62
7
  6
CONTINUOUS
 70
0
 71
3
 72
16
 73
12
 74
0
 42
0.0000001
 43
0.0000001
 44
0.0000000001
 40
0.0
 40
0.0
 40
0.0
 40
0.0
 40
0.1735431458
 40
0.3331278592
 40
0.4779444576
 40
0.607708128
 40
0.7228204869
 40
0.8245793748
 40
0.9155435323
 40
0.9582978879
 40
1.0
 40
1.0
 40
1.0
 40
1.0
 10
1.3951579422
 20
6.5800582331
 30
0.0
 10
1.3950729673
 20
6.5803825516
 30
0.0
 10
1.394890225
 20
6.5810002582
 30
0.0
 10
1.3945628198
 20
6.5818646145
 30
0.0
 10
1.3941979047
 20
6.5826212552
 30
0.0
 10
1.3938002333
 20
6.5832624922
 30
0.0
 10
1.3933741618
 20
6.5837823111
 30
0.0
 10
1.392923425
 20
6.5841753429
 30
0.0
 10
1.392520332
 20
6.5843966368
 30
0.0
 10
1.3921957509
 20
6.5844972713
 30
0.0
 10
1.3920340288
 20
6.5845234605
 30
0.0
 10
1.3919537721
 20
6.5845304876
 30
0.0
  0
SPLINE
  5
43F
100
AcDbEntity
  8
0
100
AcDbSpline
 62
7
  6
CONTINUOUS
 70
0
 71
3
 72
17
 73
13
 74
0
 42
0.0000001
 43
0.0000001
 44
0.0000000001
 40
0.0
 40
0.0
 40
0.0
 40
0.0
 40
0.0415024932
 40
0.0840724668
 40
0.1747328991
 40
0.2763283022
 40
0.3914241453
 40
0.5213093365
 40
0.6663272504
 40
0.7444527563
 40
0.8262010902
 40
1.0
 40
1.0
 40
1.0
 40
1.0
 10
1.3919537721
 20
6.5561551446
 30
0.0
 10
1.3920349307
 20
6.5561622661
 30
0.0
 10
1.3921984947
 20
6.5561889846
 30
0.0
 10
1.39252673
 20
6.5562917817
 30
0.0
 10
1.3929344155
 20
6.5565175446
 30
0.0
 10
1.3933895208
 20
6.5569188362
 30
0.0
 10
1.3938193118
 20
6.5574494579
 30
0.0
 10
1.3942196499
 20
6.5581040281
 30
0.0
 10
1.3945175543
 20
6.5587309614
 30
0.0
 10
1.3947393368
 20
6.5592869983
 30
0.0
 10
1.3949571318
 20
6.5599048931
 30
0.0
 10
1.3950967872
 20
6.5603872754
 30
0.0
 10
1.3951813549
 20
6.5607177999
 30
0.0
  0
SPLINE
  5
440
100
AcDbEntity
  8
0
100
AcDbSpline
 62
7
  6
CONTINUOUS
 70
0
 71
3
 72
11
 73
7
 74
0
 42
0.0000001
 43
0.0000001
 44
0.0000000001
 40
0.0
 40
0.0
 40
0.0
 40
0.0
 40
0.2304570853
 40
0.47720308
 40
0.7355440849
 40
1.0
 40
1.0
 40
1.0
 40
1.0
 10
1.3951813549
 20
6.5607177999
 30
0.0
 10
1.3952997599
 20
6.5611805739
 30
0.0
 10
1.3955029708
 20
6.5621498586
 30
0.0
 10
1.3957052484
 20
6.5636621677
 30
0.0
 10
1.3958092646
 20
6.5652549723
 30
0.0
 10
1.3958102546
 20
6.566339475
 30
0.0
 10
1.3957931951
 20
6.5668873621
 30
0.0
  0
SPLINE
  5
441
100
AcDbEntity
  8
0
100
AcDbSpline
 62
7
  6
CONTINUOUS
 70
0
 71
3
 72
10
 73
6
 74
0
 42
0.0000001
 43
0.0000001
 44
0.0000000001
 40
0.0
 40
0.0
 40
0.0
 40
0.0
 40
0.3191554662
 40
0.610106491
 40
1.0
 40
1.0
 40
1.0
 40
1.0
 10
8.6396080907
 20
6.5248121761
 30
0.0
 10
8.6396064081
 20
6.5248080938
 30
0.0
 10
8.6395959641
 20
6.5248059211
 30
0.0
 10
8.6395829465
 20
6.5248058813
 30
0.0
 10
8.6395733234
 20
6.5248067244
 30
0.0
 10
8.6395679671
 20
6.5248073612
 30
0.0
  0
LINE
  5
442
100
AcDbEntity
  8
0
100
AcDbLine
 62
7
  6
CONTINUOUS
 10
1.3957931951
 20
6.5147469557
 11
1.3951815254
 21
6.516674725
  0
LINE
  5
443
100
AcDbEntity
  8
0
100
AcDbLine
 62
7
  6
CONTINUOUS
 10
1.3951815254
 20
6.516674725
 11
1.3919537721
 21
6.5248073612
  0
SPLINE
  5
444
100
AcDbEntity
  8
0
100
AcDbSpline
 62
7
  6
CONTINUOUS
 70
0
 71
3
 72
17
 73
13
 74
0
 42
0.0000001
 43
0.0000001
 44
0.0000000001
 40
0.0
 40
0.0
 40
0.0
 40
0.0
 40
0.0539352937
 40
0.1084529235
 40
0.1638447734
 40
0.2203460857
 40
0.3372182388
 40
0.4600697702
 40
0.5888502148
 40
0.7227533521
 40
0.8603920033
 40
1.0
 40
1.0
 40
1.0
 40
1.0
 10
8.4637862383
 20
6.7578103781
 30
0.0
 10
8.4635484393
 20
6.757785324
 30
0.0
 10
8.4630728586
 20
6.7577057511
 30
0.0
 10
8.4623742934
 20
6.7575009363
 30
0.0
 10
8.4616936026
 20
6.7572121203
 30
0.0
 10
8.4608084655
 20
6.7567133522
 30
0.0
 10
8.4597758482
 20
6.7558855665
 30
0.0
 10
8.4587167459
 20
6.7546299441
 30
0.0
 10
8.4578553394
 20
6.753144334
 30
0.0
 10
8.4572195363
 20
6.7514796955
 30
0.0
 10
8.4568295984
 20
6.7496927299
 30
0.0
 10
8.4567422029
 20
6.7484617503
 30
0.0
 10
8.4567422029
 20
6.7478428161
 30
0.0
  0
SPLINE
  5
445
100
AcDbEntity
  8
0
100
AcDbSpline
 62
7
  6
CONTINUOUS
 70
0
 71
3
 72
19
 73
15
 74
0
 42
0.0000001
 43
0.0000001
 44
0.0000000001
 40
0.0
 40
0.0
 40
0.0
 40
0.0
 40
0.0540529384
 40
0.1084742097
 40
0.1635931946
 40
0.219719835
 40
0.2770999457
 40
0.3359207192
 40
0.458143725
 40
0.5867412208
 40
0.6532849054
 40
0.7210745017
 40
0.859438711
 40
1.0
 40
1.0
 40
1.0
 40
1.0
 10
8.3409399807
 20
6.7578428161
 30
0.0
 10
8.3406891931
 20
6.7578428161
 30
0.0
 10
8.3401853215
 20
6.7578103963
 30
0.0
 10
8.3394383432
 20
6.7576652649
 30
0.0
 10
8.3387061274
 20
6.7574250371
 30
0.0
 10
8.3379960169
 20
6.7570923222
 30
0.0
 10
8.3373147726
 20
6.7566704234
 30
0.0
 10
8.3364429591
 20
6.7559863859
 30
0.0
 10
8.3354609715
 20
6.7549234368
 30
0.0
 10
8.3346785291
 20
6.7536664472
 30
0.0
 10
8.334169954
 20
6.7525563249
 30
0.0
 10
8.333739346
 20
6.751365239
 30
0.0
 10
8.3333764345
 20
6.749791086
 30
0.0
 10
8.3332795363
 20
6.7484949736
 30
0.0
 10
8.3332795363
 20
6.7478428161
 30
0.0
  0
SPLINE
  5
446
100
AcDbEntity
  8
0
100
AcDbSpline
 62
7
  6
CONTINUOUS
 70
0
 71
3
 72
19
 73
15
 74
0
 42
0.0000001
 43
0.0000001
 44
0.0000000001
 40
0.0
 40
0.0
 40
0.0
 40
0.0
 40
0.0540529384
 40
0.1084742097
 40
0.1635931946
 40
0.219719835
 40
0.2770999457
 40
0.3359207192
 40
0.458143725
 40
0.5867412208
 40
0.6532849054
 40
0.7210745017
 40
0.859438711
 40
1.0
 40
1.0
 40
1.0
 40
1.0
 10
8.3409399807
 20
6.3828428161
 30
0.0
 10
8.3406891931
 20
6.3828428161
 30
0.0
 10
8.3401853215
 20
6.382875236
 30
0.0
 10
8.3394383432
 20
6.3830203674
 30
0.0
 10
8.3387061274
 20
6.3832605952
 30
0.0
 10
8.3379960169
 20
6.38359331
 30
0.0
 10
8.3373147726
 20
6.3840152089
 30
0.0
 10
8.3364429591
 20
6.3846992463
 30
0.0
 10
8.3354609715
 20
6.3857621955
 30
0.0
 10
8.3346785291
 20
6.3870191851
 30
0.0
 10
8.334169954
 20
6.3881293074
 30
0.0
 10
8.333739346
 20
6.3893203932
 30
0.0
 10
8.3333764345
 20
6.3908945463
 30
0.0
 10
8.3332795363
 20
6.3921906586
 30
0.0
 10
8.3332795363
 20
6.3928428161
 30
0.0
  0
SPLINE
  5
447
100
AcDbEntity
  8
0
100
AcDbSpline
 62
7
  6
CONTINUOUS
 70
0
 71
3
 72
17
 73
13
 74
0
 42
0.0000001
 43
0.0000001
 44
0.0000000001
 40
0.0
 40
0.0
 40
0.0
 40
0.0
 40
0.0539352937
 40
0.1084529235
 40
0.1638447734
 40
0.2203460857
 40
0.3372182388
 40
0.4600697702
 40
0.5888502148
 40
0.7227533521
 40
0.8603920033
 40
1.0
 40
1.0
 40
1.0
 40
1.0
 10
8.4637862383
 20
6.3828752541
 30
0.0
 10
8.4635484393
 20
6.3829003083
 30
0.0
 10
8.4630728586
 20
6.3829798812
 30
0.0
 10
8.4623742934
 20
6.3831846959
 30
0.0
 10
8.4616936026
 20
6.3834735119
 30
0.0
 10
8.4608084655
 20
6.38397228
 30
0.0
 10
8.4597758482
 20
6.3848000657
 30
0.0
 10
8.4587167459
 20
6.3860556882
 30
0.0
 10
8.4578553394
 20
6.3875412982
 30
0.0
 10
8.4572195363
 20
6.3892059368
 30
0.0
 10
8.4568295984
 20
6.3909929023
 30
0.0
 10
8.4567422029
 20
6.3922238819
 30
0.0
 10
8.4567422029
 20
6.3928428161
 30
0.0
  0
SPLINE
  5
448
100
AcDbEntity
  8
0
100
AcDbSpline
 62
7
  6
CONTINUOUS
 70
0
 71
3
 72
10
 73
6
 74
0
 42
0.0000001
 43
0.0000001
 44
0.0000000001
 40
0.0
 40
0.0
 40
0.0
 40
0.0
 40
0.3191554662
 40
0.610106491
 40
1.0
 40
1.0
 40
1.0
 40
1.0
 10
1.3919136484
 20
6.6158734561
 30
0.0
 10
1.3919153311
 20
6.6158775384
 30
0.0
 10
1.391925775
 20
6.6158797112
 30
0.0
 10
1.3919387927
 20
6.6158797509
 30
0.0
 10
1.3919484157
 20
6.6158789078
 30
0.0
 10
1.3919537721
 20
6.615878271
 30
0.0
  0
SPLINE
  5
449
100
AcDbEntity
  8
0
100
AcDbSpline
 62
7
  6
CONTINUOUS
 70
0
 71
3
 72
19
 73
15
 74
0
 42
0.0000001
 43
0.0000001
 44
0.0000000001
 40
0.0
 40
0.0
 40
0.0
 40
0.0
 40
0.00489826
 40
0.0109823586
 40
0.0194547904
 40
0.0434599548
 40
0.0767022789
 40
0.1188992794
 40
0.1695411805
 40
0.2939859903
 40
0.4453810051
 40
0.6178707953
 40
0.8051299296
 40
1.0
 40
1.0
 40
1.0
 40
1.0
 10
6.4957608676
 20
6.8815925022
 30
0.0
 10
6.4957592425
 20
6.8810843106
 30
0.0
 10
6.4957563498
 20
6.8799448951
 30
0.0
 10
6.4957507627
 20
6.8779264694
 30
0.0
 10
6.4957404439
 20
6.8739257089
 30
0.0
 10
6.4957240121
 20
6.8671072905
 30
0.0
 10
6.4957022932
 20
6.8567899527
 30
0.0
 10
6.4956798293
 20
6.8437090513
 30
0.0
 10
6.4956506513
 20
6.8211658962
 30
0.0
 10
6.4956290528
 20
6.7872934369
 30
0.0
 10
6.4956391148
 20
6.7407792606
 30
0.0
 10
6.4956800738
 20
6.6877481189
 30
0.0
 10
6.4957386108
 20
6.6302064589
 30
0.0
 10
6.4957608696
 20
6.5905605754
 30
0.0
 10
6.4957608696
 20
6.5703428161
 30
0.0
  0
SPLINE
  5
44A
100
AcDbEntity
  8
0
100
AcDbSpline
 62
7
  6
CONTINUOUS
 70
0
 71
3
 72
32
 73
28
 74
0
 42
0.0000001
 43
0.0000001
 44
0.0000000001
 40
0.0
 40
0.0
 40
0.0
 40
0.0
 40
0.0624926867
 40
0.0937454148
 40
0.1249981559
 40
0.1562509715
 40
0.1875036871
 40
0.2187565027
 40
0.2500092637
 40
0.3125022249
 40
0.3749952757
 40
0.4062480252
 40
0.4375008598
 40
0.4687536144
 40
0.5000064443
 40
0.5312592419
 40
0.5625120297
 40
0.6250052078
 40
0.6874983388
 40
0.718751126
 40
0.7500038865
 40
0.7812567047
 40
0.8125094567
 40
0.8437622426
 40
0.8750149902
 40
0.9375076533
 40
1.0
 40
1.0
 40
1.0
 40
1.0
 10
7.0692967543
 20
6.2638028575
 30
0.0
 10
7.0775378477
 20
6.2652587602
 30
0.0
 10
7.0898196237
 20
6.2679444599
 30
0.0
 10
7.1059286661
 20
6.2725050488
 30
0.0
 10
7.1178647176
 20
6.2764125859
 30
0.0
 10
7.1296317745
 20
6.2808018897
 30
0.0
 10
7.1412098363
 20
6.2856681319
 30
0.0
 10
7.1525797845
 20
6.2910027976
 30
0.0
 10
7.1674377496
 20
6.2987208261
 30
0.0
 10
7.1854109355
 20
6.3094782263
 30
0.0
 10
7.2024694478
 20
6.3216336942
 30
0.0
 10
7.2154992957
 20
6.3321478799
 30
0.0
 10
7.2249501634
 20
6.3404191218
 30
0.0
 10
7.2340606603
 20
6.3490636789
 30
0.0
 10
7.242814436
 20
6.3580692707
 30
0.0
 10
7.2511993402
 20
6.3674194551
 30
0.0
 10
7.2618702722
 20
6.3803212618
 30
0.0
 10
7.2742341293
 20
6.3972291817
 30
0.0
 10
7.2852182902
 20
6.415064368
 30
0.0
 10
7.2931307864
 20
6.4298196405
 30
0.0
 10
7.2986176922
 20
6.4411168549
 30
0.0
 10
7.3036435643
 20
6.4526264346
 30
0.0
 10
7.3081986812
 20
6.4643303305
 30
0.0
 10
7.3122757517
 20
6.4762093397
 30
0.0
 10
7.3170681608
 20
6.4922517981
 30
0.0
 10
7.3218401804
 20
6.5126471273
 30
0.0
 10
7.3243268603
 20
6.5292202649
 30
0.0
 10
7.3252297131
 20
6.5375400827
 30
0.0
  0
SPLINE
  5
44B
100
AcDbEntity
  8
0
100
AcDbSpline
 62
7
  6
CONTINUOUS
 70
0
 71
3
 72
32
 73
28
 74
0
 42
0.0000001
 43
0.0000001
 44
0.0000000001
 40
0.0
 40
0.0
 40
0.0
 40
0.0
 40
0.0624924566
 40
0.1249852228
 40
0.1562379291
 40
0.1874906771
 40
0.2187433872
 40
0.2499961667
 40
0.2812488848
 40
0.3125016346
 40
0.3749948563
 40
0.4374881304
 40
0.4687408765
 40
0.4999936251
 40
0.5312464242
 40
0.5624991328
 40
0.5937519283
 40
0.6250046439
 40
0.687497789
 40
0.7499908636
 40
0.7812435712
 40
0.8124963599
 40
0.8437490309
 40
0.8750018011
 40
0.9062545138
 40
0.9375072071
 40
1.0
 40
1.0
 40
1.0
 40
1.0
 10
7.3252156983
 20
6.6032744424
 30
0.0
 10
7.3243158173
 20
6.6115343717
 30
0.0
 10
7.3218448707
 20
6.6279883512
 30
0.0
 10
7.3171161833
 20
6.6482395925
 30
0.0
 10
7.3123721246
 20
6.6641714162
 30
0.0
 10
7.3083380769
 20
6.6759701116
 30
0.0
 10
7.3038326627
 20
6.6875968488
 30
0.0
 10
7.2988628395
 20
6.6990327667
 30
0.0
 10
7.2934380618
 20
6.7102601651
 30
0.0
 10
7.2856159744
 20
6.7249278911
 30
0.0
 10
7.2747587307
 20
6.7426647936
 30
0.0
 10
7.262538669
 20
6.7594916804
 30
0.0
 10
7.2519918848
 20
6.7723404959
 30
0.0
 10
7.2437045328
 20
6.7816572402
 30
0.0
 10
7.2350523198
 20
6.7906359871
 30
0.0
 10
7.2260470315
 20
6.7992605985
 30
0.0
 10
7.2167041055
 20
6.8075184244
 30
0.0
 10
7.2038215813
 20
6.8180240042
 30
0.0
 10
7.1869529196
 20
6.8301865774
 30
0.0
 10
7.1691748049
 20
6.8409766507
 30
0.0
 10
7.1544744212
 20
6.8487372636
 30
0.0
 10
7.1432231192
 20
6.8541123572
 30
0.0
 10
7.1317637567
 20
6.8590280702
 30
0.0
 10
7.120114382
 20
6.8634745776
 30
0.0
 10
7.1082946518
 20
6.8674471794
 30
0.0
 10
7.0923381901
 20
6.8721048677
 30
0.0
 10
7.0801677386
 20
6.8748753188
 30
0.0
 10
7.0719986949
 20
6.876393109
 30
0.0
  0
SPLINE
  5
44C
100
AcDbEntity
  8
0
100
AcDbSpline
 62
7
  6
CONTINUOUS
 70
0
 71
3
 72
32
 73
28
 74
0
 42
0.0000001
 43
0.0000001
 44
0.0000000001
 40
0.0
 40
0.0
 40
0.0
 40
0.0
 40
0.0309765659
 40
0.0619597922
 40
0.0929543563
 40
0.1239637411
 40
0.1549907372
 40
0.1860379449
 40
0.2171082744
 40
0.2482054449
 40
0.3104771379
 40
0.3728828994
 40
0.4041417242
 40
0.4354288454
 40
0.466742276
 40
0.4980808327
 40
0.5294439196
 40
0.5608285225
 40
0.6236241725
 40
0.6864410338
 40
0.7492398506
 40
0.8120014303
 40
0.8747111131
 40
0.9060523941
 40
0.9373786597
 40
0.9686926986
 40
1.0
 40
1.0
 40
1.0
 40
1.0
 10
7.0165924384
 20
6.2590939654
 30
0.0
 10
7.021622326
 20
6.2591078669
 30
0.0
 10
7.0316842721
 20
6.2593879683
 30
0.0
 10
7.0467384836
 20
6.2605576847
 30
0.0
 10
7.0617222202
 20
6.2624697469
 30
0.0
 10
7.0766007592
 20
6.2651169372
 30
0.0
 10
7.0913400444
 20
6.2684920761
 30
0.0
 10
7.1059057157
 20
6.2725879598
 30
0.0
 10
7.1202639346
 20
6.2773975845
 30
0.0
 10
7.1390906951
 20
6.2847544706
 30
0.0
 10
7.1619405576
 20
6.2957037567
 30
0.0
 10
7.1836410609
 20
6.3088315776
 30
0.0
 10
7.2002040441
 20
6.3205615002
 30
0.0
 10
7.2122084501
 20
6.3299614964
 30
0.0
 10
7.2237556728
 20
6.3399371589
 30
0.0
 10
7.2348158493
 20
6.3504682551
 30
0.0
 10
7.245358557
 20
6.361533777
 30
0.0
 10
7.2586961645
 20
6.3769590074
 30
0.0
 10
7.273965524
 20
6.3974261456
 30
0.0
 10
7.2898569788
 20
6.4236222671
 30
0.0
 10
7.3031494773
 20
6.4512260148
 30
0.0
 10
7.3136603507
 20
6.4799843887
 30
0.0
 10
7.3200241988
 20
6.5046857585
 30
0.0
 10
7.3236251724
 20
6.5247302646
 30
0.0
 10
7.3255700508
 20
6.5398732169
 30
0.0
 10
7.3267466791
 20
6.55508896
 30
0.0
 10
7.3270108696
 20
6.5652592052
 30
0.0
 10
7.3270108696
 20
6.5703428161
 30
0.0
  0
SPLINE
  5
44D
100
AcDbEntity
  8
0
100
AcDbSpline
 62
7
  6
CONTINUOUS
 70
0
 71
3
 72
44
 73
40
 74
0
 42
0.0000001
 43
0.0000001
 44
0.0000000001
 40
0.0
 40
0.0
 40
0.0
 40
0.0
 40
0.0033759173
 40
0.0068516957
 40
0.010517762
 40
0.0144501826
 40
0.0187096274
 40
0.0233428885
 40
0.0283854045
 40
0.0338638034
 40
0.0397980469
 40
0.0462030998
 40
0.0530901791
 40
0.0604676743
 40
0.0683418228
 40
0.0767172077
 40
0.0855971263
 40
0.0949838663
 40
0.1048781138
 40
0.1152766653
 40
0.1261749014
 40
0.1375677016
 40
0.1618139984
 40
0.1879683424
 40
0.2159790906
 40
0.2457919924
 40
0.2773509247
 40
0.3105983987
 40
0.3454707668
 40
0.3818828657
 40
0.4197434656
 40
0.4589606133
 40
0.4994417979
 40
0.5410940768
 40
0.6275378124
 40
0.7175220337
 40
0.8101855652
 40
0.9046414742
 40
1.0
 40
1.0
 40
1.0
 40
1.0
 10
6.5970108696
 20
6.2590928161
 30
0.0
 10
6.5973708807
 20
6.2590928161
 30
0.0
 10
6.5981030805
 20
6.2591583824
 30
0.0
 10
6.5991911648
 20
6.2594499792
 30
0.0
 10
6.6002739992
 20
6.2599320938
 30
0.0
 10
6.6013506549
 20
6.2606017435
 30
0.0
 10
6.6024214957
 20
6.2614567864
 30
0.0
 10
6.6034867746
 20
6.2624958324
 30
0.0
 10
6.6045465805
 20
6.2637179346
 30
0.0
 10
6.6056007357
 20
6.2651223422
 30
0.0
 10
6.6066488677
 20
6.2667083616
 30
0.0
 10
6.6076904658
 20
6.2684752928
 30
0.0
 10
6.6087249325
 20
6.2704224072
 30
0.0
 10
6.6097516166
 20
6.2725489435
 30
0.0
 10
6.6107698351
 20
6.2748541108
 30
0.0
 10
6.6117788862
 20
6.2773370938
 30
0.0
 10
6.6127780583
 20
6.2799970572
 30
0.0
 10
6.6137666011
 20
6.2828330725
 30
0.0
 10
6.6147436565
 20
6.2858437761
 30
0.0
 10
6.6157088405
 20
6.2890271009
 30
0.0
 10
6.6166616265
 20
6.2923805917
 30
0.0
 10
6.6179413928
 20
6.2971757145
 30
0.0
 10
6.6194983013
 20
6.3035797926
 30
0.0
 10
6.6212722221
 20
6.3117520378
 30
0.0
 10
6.6229837496
 20
6.3205430883
 30
0.0
 10
6.624628315
 20
6.3299324984
 30
0.0
 10
6.6262013305
 20
6.339899865
 30
0.0
 10
6.6276981577
 20
6.3504241728
 30
0.0
 10
6.6291139568
 20
6.3614816161
 30
0.0
 10
6.630447135
 20
6.3730446287
 30
0.0
 10
6.6316955967
 20
6.385082977
 30
0.0
 10
6.6328572202
 20
6.3975658588
 30
0.0
 10
6.6339299209
 20
6.4104624725
 30
0.0
 10
6.6352551478
 20
6.4283910074
 30
0.0
 10
6.6366639519
 20
6.4516057883
 30
0.0
 10
6.6379483886
 20
6.4802742346
 30
0.0
 10
6.6388555848
 20
6.5098118137
 30
0.0
 10
6.639393395
 20
6.5399314767
 30
0.0
 10
6.6395108696
 20
6.5601736889
 30
0.0
 10
6.6395108696
 20
6.5703428161
 30
0.0
  0
LINE
  5
44E
100
AcDbEntity
  8
0
100
AcDbLine
 62
7
  6
CONTINUOUS
 10
1.3952209677
 20
6.5738097823
 11
1.3957931951
 21
6.5737982702
  0
SPLINE
  5
44F
100
AcDbEntity
  8
0
100
AcDbSpline
 62
7
  6
CONTINUOUS
 70
0
 71
3
 72
10
 73
6
 74
0
 42
0.0000001
 43
0.0000001
 44
0.0000000001
 40
0.0
 40
0.0
 40
0.0
 40
0.0
 40
0.31918784
 40
0.6101337706
 40
1.0
 40
1.0
 40
1.0
 40
1.0
 10
1.3919136495
 20
6.5248121735
 30
0.0
 10
1.3919153343
 20
6.5248080919
 30
0.0
 10
1.391925777
 20
6.5248059213
 30
0.0
 10
1.3919387945
 20
6.5248058813
 30
0.0
 10
1.3919484163
 20
6.5248067245
 30
0.0
 10
1.3919537721
 20
6.5248073612
 30
0.0
  0
LINE
  5
450
100
AcDbEntity
  8
0
100
AcDbLine
 62
7
  6
CONTINUOUS
 10
8.635728544
 20
6.6259386765
 11
8.6363402138
 21
6.6240109072
  0
LINE
  5
451
100
AcDbEntity
  8
0
100
AcDbLine
 62
7
  6
CONTINUOUS
 10
8.6363402138
 20
6.6240109072
 11
8.6395679671
 21
6.615878271
  0
SPLINE
  5
452
100
AcDbEntity
  8
0
100
AcDbSpline
 62
7
  6
CONTINUOUS
 70
0
 71
3
 72
17
 73
13
 74
0
 42
0.0000001
 43
0.0000001
 44
0.0000000001
 40
0.0
 40
0.0
 40
0.0
 40
0.0
 40
0.0415024932
 40
0.0840724668
 40
0.1747328991
 40
0.2763283022
 40
0.3914241453
 40
0.5213093365
 40
0.6663272504
 40
0.7444527563
 40
0.8262010902
 40
1.0
 40
1.0
 40
1.0
 40
1.0
 10
8.6395679671
 20
6.5845304876
 30
0.0
 10
8.6394868085
 20
6.5845233662
 30
0.0
 10
8.6393232445
 20
6.5844966476
 30
0.0
 10
8.6389950091
 20
6.5843938505
 30
0.0
 10
8.6385873237
 20
6.5841680877
 30
0.0
 10
8.6381322183
 20
6.583766796
 30
0.0
 10
8.6377024274
 20
6.5832361744
 30
0.0
 10
8.6373020893
 20
6.5825816042
 30
0.0
 10
8.6370041848
 20
6.5819546708
 30
0.0
 10
8.6367824023
 20
6.581398634
 30
0.0
 10
8.6365646073
 20
6.5807807391
 30
0.0
 10
8.6364249519
 20
6.5802983568
 30
0.0
 10
8.6363403842
 20
6.5799678323
 30
0.0
  0
SPLINE
  5
453
100
AcDbEntity
  8
0
100
AcDbSpline
 62
7
  6
CONTINUOUS
 70
0
 71
3
 72
11
 73
7
 74
0
 42
0.0000001
 43
0.0000001
 44
0.0000000001
 40
0.0
 40
0.0
 40
0.0
 40
0.0
 40
0.2304570853
 40
0.47720308
 40
0.7355440849
 40
1.0
 40
1.0
 40
1.0
 40
1.0
 10
8.6363403842
 20
6.5799678323
 30
0.0
 10
8.6362219793
 20
6.5795050583
 30
0.0
 10
8.6360187683
 20
6.5785357736
 30
0.0
 10
8.6358164907
 20
6.5770234645
 30
0.0
 10
8.6357124745
 20
6.5754306599
 30
0.0
 10
8.6357114845
 20
6.5743461572
 30
0.0
 10
8.635728544
 20
6.5737982701
 30
0.0
  0
SPLINE
  5
454
100
AcDbEntity
  8
0
100
AcDbSpline
 62
7
  6
CONTINUOUS
 70
0
 71
3
 72
11
 73
7
 74
0
 42
0.0000001
 43
0.0000001
 44
0.0000000001
 40
0.0
 40
0.0
 40
0.0
 40
0.0
 40
0.2649487826
 40
0.5235641708
 40
0.7701895955
 40
1.0
 40
1.0
 40
1.0
 40
1.0
 10
8.635728544
 20
6.5668873621
 30
0.0
 10
8.6357111895
 20
6.5663302171
 30
0.0
 10
8.6357127322
 20
6.5652277933
 30
0.0
 10
8.6358211414
 20
6.5636098679
 30
0.0
 10
8.6360307715
 20
6.5620764474
 30
0.0
 10
8.6362412541
 20
6.5610951008
 30
0.0
 10
8.636363797
 20
6.5606273991
 30
0.0
  0
SPLINE
  5
455
100
AcDbEntity
  8
0
100
AcDbSpline
 62
7
  6
CONTINUOUS
 70
0
 71
3
 72
16
 73
12
 74
0
 42
0.0000001
 43
0.0000001
 44
0.0000000001
 40
0.0
 40
0.0
 40
0.0
 40
0.0
 40
0.1735431458
 40
0.3331278592
 40
0.4779444576
 40
0.607708128
 40
0.7228204869
 40
0.8245793748
 40
0.9155435323
 40
0.9582978879
 40
1.0
 40
1.0
 40
1.0
 40
1.0
 10
8.636363797
 20
6.5606273991
 30
0.0
 10
8.6364487719
 20
6.5603030806
 30
0.0
 10
8.6366315141
 20
6.5596853741
 30
0.0
 10
8.6369589193
 20
6.5588210177
 30
0.0
 10
8.6373238344
 20
6.5580643771
 30
0.0
 10
8.6377215058
 20
6.55742314
 30
0.0
 10
8.6381475774
 20
6.5569033211
 30
0.0
 10
8.6385983142
 20
6.5565102894
 30
0.0
 10
8.6390014071
 20
6.5562889954
 30
0.0
 10
8.6393259882
 20
6.5561883609
 30
0.0
 10
8.6394877103
 20
6.5561621718
 30
0.0
 10
8.6395679671
 20
6.5561551446
 30
0.0
  0
LINE
  5
456
100
AcDbEntity
  8
0
100
AcDbLine
 62
7
  6
CONTINUOUS
 10
8.6395679671
 20
6.5248073612
 11
8.6364317579
 21
6.5169194819
  0
LINE
  5
457
100
AcDbEntity
  8
0
100
AcDbLine
 62
7
  6
CONTINUOUS
 10
8.6364317579
 20
6.5169194819
 11
8.635728544
 21
6.5147469557
  0
LINE
  5
458
100
AcDbEntity
  8
0
100
AcDbLine
 62
7
  6
CONTINUOUS
 10
3.5750501884
 20
6.2265928167
 11
3.5750514537
 21
6.5703428161
  0
LINE
  5
459
100
AcDbEntity
  8
0
100
AcDbLine
 62
7
  6
CONTINUOUS
 10
3.5652241699
 20
6.2347206894
 11
3.5652288077
 21
6.5703428087
  0
SPLINE
  5
45A
100
AcDbEntity
  8
0
100
AcDbSpline
 62
7
  6
CONTINUOUS
 70
0
 71
3
 72
15
 73
11
 74
0
 42
0.0000001
 43
0.0000001
 44
0.0000000001
 40
0.0
 40
0.0
 40
0.0
 40
0.0
 40
0.1205641346
 40
0.2424463564
 40
0.365783927
 40
0.4905751798
 40
0.6166856571
 40
0.7438660628
 40
0.8717702431
 40
1.0
 40
1.0
 40
1.0
 40
1.0
 10
1.3944032215
 20
6.5794741736
 30
0.0
 10
1.3941932695
 20
6.5795891339
 30
0.0
 10
1.3937891615
 20
6.5798551161
 30
0.0
 10
1.3932510947
 20
6.5803470369
 30
0.0
 10
1.3927899154
 20
6.5809225733
 30
0.0
 10
1.3924164496
 20
6.581568083
 30
0.0
 10
1.3921391694
 20
6.5822685
 30
0.0
 10
1.3919644225
 20
6.5830075746
 30
0.0
 10
1.3918961228
 20
6.5837679756
 30
0.0
 10
1.3919226457
 20
6.5842778131
 30
0.0
 10
1.3919537721
 20
6.5845304876
 30
0.0
  0
SPLINE
  5
45B
100
AcDbEntity
  8
0
100
AcDbSpline
 62
7
  6
CONTINUOUS
 70
0
 71
3
 72
39
 73
35
 74
0
 42
0.0000001
 43
0.0000001
 44
0.0000000001
 40
0.0
 40
0.0
 40
0.0
 40
0.0
 40
0.0312497551
 40
0.0624999713
 40
0.0937498161
 40
0.124999867
 40
0.156249857
 40
0.1874998664
 40
0.2187498694
 40
0.2499998702
 40
0.2812498786
 40
0.3124998873
 40
0.3437499044
 40
0.3749999244
 40
0.4062499446
 40
0.4374999642
 40
0.468749977
 40
0.4999999902
 40
0.5312500003
 40
0.5625000127
 40
0.5937500274
 40
0.6250000444
 40
0.6562500594
 40
0.6875000688
 40
0.7187500714
 40
0.7500000736
 40
0.7812500674
 40
0.8125000643
 40
0.8437500671
 40
0.875000056
 40
0.9062501149
 40
0.9374999692
 40
0.9687502199
 40
1.0
 40
1.0
 40
1.0
 40
1.0
 10
5.0157608696
 20
6.9059678161
 30
0.0
 10
5.0102709407
 20
6.9059678074
 30
0.0
 10
4.9992890761
 20
6.9056959102
 30
0.0
 10
4.9828580719
 20
6.9044760854
 30
0.0
 10
4.9665065481
 20
6.902449244
 30
0.0
 10
4.9502745074
 20
6.8996215489
 30
0.0
 10
4.934200826
 20
6.896000284
 30
0.0
 10
4.9183243032
 20
6.8915943527
 30
0.0
 10
4.9026831472
 20
6.8864145505
 30
0.0
 10
4.8873148719
 20
6.8804738402
 30
0.0
 10
4.8722565517
 20
6.8737862849
 30
0.0
 10
4.8575447157
 20
6.8663675209
 30
0.0
 10
4.8432139864
 20
6.8582370072
 30
0.0
 10
4.8292978149
 20
6.8494157463
 30
0.0
 10
4.8158291344
 20
6.8399252669
 30
0.0
 10
4.8028405097
 20
6.8297876766
 30
0.0
 10
4.7903638668
 20
6.8190262062
 30
0.0
 10
4.7784297921
 20
6.8076660342
 30
0.0
 10
4.7670662911
 20
6.7957351387
 30
0.0
 10
4.7563010066
 20
6.7832617901
 30
0.0
 10
4.7461598459
 20
6.7702759349
 30
0.0
 10
4.7366665871
 20
6.7568091923
 30
0.0
 10
4.7278433859
 20
6.7428942357
 30
0.0
 10
4.7197115946
 20
6.7285642214
 30
0.0
 10
4.7122921392
 20
6.7138527258
 30
0.0
 10
4.7056048427
 20
6.6987942608
 30
0.0
 10
4.6996665304
 20
6.6834250293
 30
0.0
 10
4.6944901449
 20
6.6677827369
 30
0.0
 10
4.6900880693
 20
6.6519051423
 30
0.0
 10
4.6864708786
 20
6.6358305423
 30
0.0
 10
4.6836472509
 20
6.619597794
 30
0.0
 10
4.6816240724
 20
6.603245819
 30
0.0
 10
4.6804069874
 20
6.5868146179
 30
0.0
 10
4.680135872
 20
6.5758327494
 30
0.0
 10
4.6801358696
 20
6.5703428161
 30
0.0
  0
SPLINE
  5
45C
100
AcDbEntity
  8
0
100
AcDbSpline
 62
7
  6
CONTINUOUS
 70
0
 71
3
 72
17
 73
13
 74
0
 42
0.0000001
 43
0.0000001
 44
0.0000000001
 40
0.0
 40
0.0
 40
0.0
 40
0.0
 40
0.0539352937
 40
0.1084529235
 40
0.1638447734
 40
0.2203460857
 40
0.3372182388
 40
0.4600697702
 40
0.5888502148
 40
0.7227533521
 40
0.8603920033
 40
1.0
 40
1.0
 40
1.0
 40
1.0
 10
1.5677355008
 20
6.7578103781
 30
0.0
 10
1.5679732999
 20
6.757785324
 30
0.0
 10
1.5684488805
 20
6.7577057511
 30
0.0
 10
1.5691474458
 20
6.7575009363
 30
0.0
 10
1.5698281365
 20
6.7572121203
 30
0.0
 10
1.5707132737
 20
6.7567133522
 30
0.0
 10
1.5717458909
 20
6.7558855665
 30
0.0
 10
1.5728049933
 20
6.7546299441
 30
0.0
 10
1.5736663997
 20
6.753144334
 30
0.0
 10
1.5743022028
 20
6.7514796955
 30
0.0
 10
1.5746921408
 20
6.7496927299
 30
0.0
 10
1.5747795363
 20
6.7484617503
 30
0.0
 10
1.5747795363
 20
6.7478428161
 30
0.0
  0
SPLINE
  5
45D
100
AcDbEntity
  8
0
100
AcDbSpline
 62
7
  6
CONTINUOUS
 70
0
 71
3
 72
39
 73
35
 74
0
 42
0.0000001
 43
0.0000001
 44
0.0000000001
 40
0.0
 40
0.0
 40
0.0
 40
0.0
 40
0.0312497668
 40
0.0624999996
 40
0.0937498498
 40
0.1249999048
 40
0.1562498957
 40
0.1874999011
 40
0.2187499004
 40
0.2499998953
 40
0.2812498984
 40
0.3124999009
 40
0.3437499125
 40
0.374999928
 40
0.4062499454
 40
0.4374999615
 40
0.4687499738
 40
0.4999999858
 40
0.5312499986
 40
0.5625000128
 40
0.5937500327
 40
0.6250000543
 40
0.6562500758
 40
0.6875000933
 40
0.7187501026
 40
0.7500001116
 40
0.7812501124
 40
0.8125001151
 40
0.8437501239
 40
0.8750001146
 40
0.9062501674
 40
0.9375000144
 40
0.9687502387
 40
1.0
 40
1.0
 40
1.0
 40
1.0
 10
5.3513858695
 20
6.5703428161
 30
0.0
 10
5.3513858618
 20
6.575832747
 30
0.0
 10
5.3511146819
 20
6.5868146093
 30
0.0
 10
5.3498975268
 20
6.6032457971
 30
0.0
 10
5.3478743939
 20
6.6195977711
 30
0.0
 10
5.3450509142
 20
6.6358305423
 30
0.0
 10
5.3414339011
 20
6.6519051833
 30
0.0
 10
5.3370318087
 20
6.6677827798
 30
0.0
 10
5.3318550831
 20
6.6834249654
 30
0.0
 10
5.3259164925
 20
6.6987940797
 30
0.0
 10
5.3192295974
 20
6.7138527172
 30
0.0
 10
5.3118103078
 20
6.7285643051
 30
0.0
 10
5.3036784217
 20
6.7428942691
 30
0.0
 10
5.2948550791
 20
6.7568091353
 30
0.0
 10
5.2853618139
 20
6.7702758693
 30
0.0
 10
5.2752208045
 20
6.78326184
 30
0.0
 10
5.2644556252
 20
6.795735286
 30
0.0
 10
5.2530919598
 20
6.8076660303
 30
0.0
 10
5.2411577665
 20
6.8190260721
 30
0.0
 10
5.2286811924
 20
6.8297876179
 30
0.0
 10
5.2156926314
 20
6.8399252933
 30
0.0
 10
5.2022239372
 20
6.8494157569
 30
0.0
 10
5.1883077363
 20
6.858236971
 30
0.0
 10
5.1739770123
 20
6.8663674922
 30
0.0
 10
5.1592652071
 20
6.8737863161
 30
0.0
 10
5.1442069057
 20
6.8804739184
 30
0.0
 10
5.128838592
 20
6.8864145326
 30
0.0
 10
5.1131974185
 20
6.891594276
 30
0.0
 10
5.0973209005
 20
6.89600022
 30
0.0
 10
5.0812472342
 20
6.8996215501
 30
0.0
 10
5.0650152024
 20
6.9024493045
 30
0.0
 10
5.0486636769
 20
6.9044761546
 30
0.0
 10
5.0322326668
 20
6.9056959461
 30
0.0
 10
5.0212507994
 20
6.9059678103
 30
0.0
 10
5.0157608696
 20
6.9059678161
 30
0.0
  0
SPLINE
  5
45E
100
AcDbEntity
  8
0
100
AcDbSpline
 62
7
  6
CONTINUOUS
 70
0
 71
3
 72
19
 73
15
 74
0
 42
0.0000001
 43
0.0000001
 44
0.0000000001
 40
0.0
 40
0.0
 40
0.0
 40
0.0
 40
0.0540529384
 40
0.1084742097
 40
0.1635931946
 40
0.219719835
 40
0.2770999457
 40
0.3359207192
 40
0.458143725
 40
0.5867412208
 40
0.6532849054
 40
0.7210745017
 40
0.859438711
 40
1.0
 40
1.0
 40
1.0
 40
1.0
 10
1.6905817584
 20
6.7578428161
 30
0.0
 10
1.690832546
 20
6.7578428161
 30
0.0
 10
1.6913364177
 20
6.7578103963
 30
0.0
 10
1.6920833959
 20
6.7576652649
 30
0.0
 10
1.6928156118
 20
6.7574250371
 30
0.0
 10
1.6935257223
 20
6.7570923222
 30
0.0
 10
1.6942069665
 20
6.7566704234
 30
0.0
 10
1.69507878
 20
6.7559863859
 30
0.0
 10
1.6960607676
 20
6.7549234368
 30
0.0
 10
1.69684321
 20
6.7536664472
 30
0.0
 10
1.6973517851
 20
6.7525563249
 30
0.0
 10
1.6977823931
 20
6.751365239
 30
0.0
 10
1.6981453046
 20
6.749791086
 30
0.0
 10
1.6982422029
 20
6.7484949736
 30
0.0
 10
1.6982422029
 20
6.7478428161
 30
0.0
  0
LINE
  5
45F
100
AcDbEntity
  8
0
100
AcDbLine
 62
7
  6
CONTINUOUS
 10
5.0157608696
 20
6.0199154621
 11
5.3513858695
 21
6.0199154622
  0
LINE
  5
460
100
AcDbEntity
  8
0
100
AcDbLine
 62
7
  6
CONTINUOUS
 10
4.6801358696
 20
6.0199154622
 11
5.0157608696
 21
6.0199154621
  0
SPLINE
  5
461
100
AcDbEntity
  8
0
100
AcDbSpline
 62
7
  6
CONTINUOUS
 70
0
 71
3
 72
19
 73
15
 74
0
 42
0.0000001
 43
0.0000001
 44
0.0000000001
 40
0.0
 40
0.0
 40
0.0
 40
0.0
 40
0.0540529384
 40
0.1084742097
 40
0.1635931946
 40
0.219719835
 40
0.2770999457
 40
0.3359207192
 40
0.458143725
 40
0.5867412208
 40
0.6532849054
 40
0.7210745017
 40
0.859438711
 40
1.0
 40
1.0
 40
1.0
 40
1.0
 10
1.6905817584
 20
6.3828428161
 30
0.0
 10
1.690832546
 20
6.3828428161
 30
0.0
 10
1.6913364177
 20
6.382875236
 30
0.0
 10
1.6920833959
 20
6.3830203674
 30
0.0
 10
1.6928156118
 20
6.3832605952
 30
0.0
 10
1.6935257223
 20
6.38359331
 30
0.0
 10
1.6942069665
 20
6.3840152089
 30
0.0
 10
1.69507878
 20
6.3846992463
 30
0.0
 10
1.6960607676
 20
6.3857621955
 30
0.0
 10
1.69684321
 20
6.3870191851
 30
0.0
 10
1.6973517851
 20
6.3881293074
 30
0.0
 10
1.6977823931
 20
6.3893203932
 30
0.0
 10
1.6981453046
 20
6.3908945463
 30
0.0
 10
1.6982422029
 20
6.3921906586
 30
0.0
 10
1.6982422029
 20
6.3928428161
 30
0.0
  0
SPLINE
  5
462
100
AcDbEntity
  8
0
100
AcDbSpline
 62
7
  6
CONTINUOUS
 70
0
 71
3
 72
17
 73
13
 74
0
 42
0.0000001
 43
0.0000001
 44
0.0000000001
 40
0.0
 40
0.0
 40
0.0
 40
0.0
 40
0.0539352937
 40
0.1084529235
 40
0.1638447734
 40
0.2203460857
 40
0.3372182388
 40
0.4600697702
 40
0.5888502148
 40
0.7227533521
 40
0.8603920033
 40
1.0
 40
1.0
 40
1.0
 40
1.0
 10
1.5677355008
 20
6.3828752541
 30
0.0
 10
1.5679732999
 20
6.3829003083
 30
0.0
 10
1.5684488805
 20
6.3829798812
 30
0.0
 10
1.5691474458
 20
6.3831846959
 30
0.0
 10
1.5698281365
 20
6.3834735119
 30
0.0
 10
1.5707132737
 20
6.38397228
 30
0.0
 10
1.5717458909
 20
6.3848000657
 30
0.0
 10
1.5728049933
 20
6.3860556882
 30
0.0
 10
1.5736663997
 20
6.3875412982
 30
0.0
 10
1.5743022028
 20
6.3892059368
 30
0.0
 10
1.5746921408
 20
6.3909929023
 30
0.0
 10
1.5747795363
 20
6.3922238819
 30
0.0
 10
1.5747795363
 20
6.3928428161
 30
0.0
  0
LINE
  5
463
100
AcDbEntity
  8
0
100
AcDbLine
 62
7
  6
CONTINUOUS
 10
4.7045108696
 20
6.0493834003
 11
5.0157608696
 21
6.0493834003
  0
SPLINE
  5
464
100
AcDbEntity
  8
0
100
AcDbSpline
 62
7
  6
CONTINUOUS
 70
0
 71
3
 72
44
 73
40
 74
0
 42
0.0000001
 43
0.0000001
 44
0.0000000001
 40
0.0
 40
0.0
 40
0.0
 40
0.0
 40
0.0953565549
 40
0.1898104408
 40
0.2824718752
 40
0.3724539369
 40
0.4588954954
 40
0.5005466975
 40
0.5410268245
 40
0.5802429446
 40
0.6181025597
 40
0.6545137318
 40
0.6893852493
 40
0.7226319683
 40
0.7541902537
 40
0.7840026268
 40
0.8120129757
 40
0.8381670611
 40
0.8624132531
 40
0.8738060636
 40
0.8847043544
 40
0.8951030071
 40
0.9049974052
 40
0.9143843484
 40
0.9232645298
 40
0.9316402454
 40
0.9395148024
 40
0.9468927956
 40
0.9537804765
 40
0.9601862513
 40
0.9661213564
 40
0.9716007797
 40
0.9766445097
 40
0.9812792034
 40
0.9855403299
 40
0.9894747071
 40
0.9931430189
 40
0.9966213217
 40
1.0
 40
1.0
 40
1.0
 40
1.0
 10
5.0157608696
 20
6.1940928161
 30
0.0
 10
5.0055917435
 20
6.1940928161
 30
0.0
 10
4.9853495419
 20
6.1939757445
 30
0.0
 10
4.9552298855
 20
6.1934394168
 30
0.0
 10
4.9256923084
 20
6.1925342471
 30
0.0
 10
4.8970238586
 20
6.1912520487
 30
0.0
 10
4.873809068
 20
6.1898450294
 30
0.0
 10
4.8558805278
 20
6.1885210958
 30
0.0
 10
4.8429839128
 20
6.1874492664
 30
0.0
 10
4.8305010294
 20
6.186288409
 30
0.0
 10
4.8184626789
 20
6.1850405901
 30
0.0
 10
4.8068996637
 20
6.183707913
 30
0.0
 10
4.7958422171
 20
6.1822924551
 30
0.0
 10
4.7853179071
 20
6.1807957909
 30
0.0
 10
4.7753505385
 20
6.1792227731
 30
0.0
 10
4.7659611261
 20
6.1775780535
 30
0.0
 10
4.7571700728
 20
6.1758662335
 30
0.0
 10
4.7489978243
 20
6.1740918955
 30
0.0
 10
4.7425937529
 20
6.1725345403
 30
0.0
 10
4.7377986381
 20
6.1712543641
 30
0.0
 10
4.7344451466
 20
6.1703012527
 30
0.0
 10
4.7312618211
 20
6.1693357222
 30
0.0
 10
4.7282511165
 20
6.1683583008
 30
0.0
 10
4.7254150998
 20
6.1673693741
 30
0.0
 10
4.7227551346
 20
6.1663697982
 30
0.0
 10
4.7202721495
 20
6.1653603212
 30
0.0
 10
4.7179669798
 20
6.1643416523
 30
0.0
 10
4.7158404406
 20
6.1633144913
 30
0.0
 10
4.7138933229
 20
6.1622795188
 30
0.0
 10
4.7121263879
 20
6.1612373834
 30
0.0
 10
4.7105403646
 20
6.1601886804
 30
0.0
 10
4.7091359529
 20
6.1591339179
 30
0.0
 10
4.7079138472
 20
6.1580734657
 30
0.0
 10
4.7068747993
 20
6.1570074992
 30
0.0
 10
4.7060197576
 20
6.1559359278
 30
0.0
 10
4.7053501139
 20
6.1548584981
 30
0.0
 10
4.7048680106
 20
6.1537748477
 30
0.0
 10
4.7045764275
 20
6.1526859069
 30
0.0
 10
4.7045108696
 20
6.1519531291
 30
0.0
 10
4.7045108696
 20
6.1515928161
 30
0.0
  0
SPLINE
  5
465
100
AcDbEntity
  8
0
100
AcDbSpline
 62
7
  6
CONTINUOUS
 70
0
 71
3
 72
32
 73
28
 74
0
 42
0.0000001
 43
0.0000001
 44
0.0000000001
 40
0.0
 40
0.0
 40
0.0
 40
0.0
 40
0.0313077327
 40
0.0626222595
 40
0.0939491128
 40
0.1252911089
 40
0.1880026456
 40
0.2507665785
 40
0.3135680157
 40
0.3763875782
 40
0.4391858368
 40
0.4705716435
 40
0.5019358326
 40
0.5332753542
 40
0.5645895608
 40
0.5958772134
 40
0.627136266
 40
0.6895413297
 40
0.7518103323
 40
0.7829052727
 40
0.8139729442
 40
0.8450173069
 40
0.8760415229
 40
0.9070484513
 40
0.9380411452
 40
0.9690233497
 40
1.0
 40
1.0
 40
1.0
 40
1.0
 10
5.0157608696
 20
6.8815928161
 30
0.0
 10
5.0106777402
 20
6.8815928161
 30
0.0
 10
5.0005084481
 20
6.8813285708
 30
0.0
 10
4.9852941332
 20
6.8801517382
 30
0.0
 10
4.970152592
 20
6.8782065762
 30
0.0
 10
4.9501098861
 20
6.8746051669
 30
0.0
 10
4.9254106857
 20
6.8682407766
 30
0.0
 10
4.8966547736
 20
6.8577296501
 30
0.0
 10
4.8690531462
 20
6.8444375774
 30
0.0
 10
4.8428587584
 20
6.8285472232
 30
0.0
 10
4.8223926695
 20
6.8132793506
 30
0.0
 10
4.8069679973
 20
6.7999432642
 30
0.0
 10
4.7959027669
 20
6.7894018885
 30
0.0
 10
4.7853718231
 20
6.7783432207
 30
0.0
 10
4.7753961761
 20
6.7667976882
 30
0.0
 10
4.7659960501
 20
6.7547951719
 30
0.0
 10
4.7542658252
 20
6.7382350928
 30
0.0
 10
4.7411372504
 20
6.716538887
 30
0.0
 10
4.730186429
 20
6.6936938429
 30
0.0
 10
4.7228279579
 20
6.6748713795
 30
0.0
 10
4.7180170499
 20
6.6605166483
 30
0.0
 10
4.7139197328
 20
6.6459544828
 30
0.0
 10
4.7105430112
 20
6.6312185892
 30
0.0
 10
4.7078940865
 20
6.6163431959
 30
0.0
 10
4.7059801368
 20
6.6013622277
 30
0.0
 10
4.7048083778
 20
6.5863102757
 30
0.0
 10
4.7045268155
 20
6.576249616
 30
0.0
 10
4.7045121491
 20
6.5712202625
 30
0.0
  0
LINE
  5
466
100
AcDbEntity
  8
0
100
AcDbLine
 62
7
  6
CONTINUOUS
 10
5.0157608696
 20
6.0493834002
 11
5.3270108696
 21
6.0493834004
  0
SPLINE
  5
467
100
AcDbEntity
  8
0
100
AcDbSpline
 62
7
  6
CONTINUOUS
 70
0
 71
3
 72
44
 73
40
 74
0
 42
0.0000001
 43
0.0000001
 44
0.0000000001
 40
0.0
 40
0.0
 40
0.0
 40
0.0
 40
0.0033786783
 40
0.0068569811
 40
0.0105252929
 40
0.0144596701
 40
0.0187207966
 40
0.0233554903
 40
0.0283992203
 40
0.0338786436
 40
0.0398137487
 40
0.0462195235
 40
0.0531072044
 40
0.0604851976
 40
0.0683597546
 40
0.0767354702
 40
0.0856156516
 40
0.0950025948
 40
0.1048969929
 40
0.1152956456
 40
0.1261939364
 40
0.1375867469
 40
0.1618329389
 40
0.1879870243
 40
0.2159973732
 40
0.2458097463
 40
0.2773680317
 40
0.3106147507
 40
0.3454862682
 40
0.3818974403
 40
0.4197570554
 40
0.4589731755
 40
0.4994533025
 40
0.5411045046
 40
0.6275460631
 40
0.7175281248
 40
0.8101895592
 40
0.9046434451
 40
1.0
 40
1.0
 40
1.0
 40
1.0
 10
5.3270108696
 20
6.1515928161
 30
0.0
 10
5.3270108696
 20
6.1519531291
 30
0.0
 10
5.3269453116
 20
6.1526859069
 30
0.0
 10
5.3266537285
 20
6.1537748477
 30
0.0
 10
5.3261716252
 20
6.1548584981
 30
0.0
 10
5.3255019815
 20
6.1559359278
 30
0.0
 10
5.3246469398
 20
6.1570074992
 30
0.0
 10
5.3236078919
 20
6.1580734657
 30
0.0
 10
5.3223857863
 20
6.1591339179
 30
0.0
 10
5.3209813746
 20
6.1601886804
 30
0.0
 10
5.3193953512
 20
6.1612373834
 30
0.0
 10
5.3176284163
 20
6.1622795188
 30
0.0
 10
5.3156812986
 20
6.1633144913
 30
0.0
 10
5.3135547594
 20
6.1643416523
 30
0.0
 10
5.3112495896
 20
6.1653603212
 30
0.0
 10
5.3087666045
 20
6.1663697982
 30
0.0
 10
5.3061066393
 20
6.1673693741
 30
0.0
 10
5.3032706226
 20
6.1683583008
 30
0.0
 10
5.300259918
 20
6.1693357222
 30
0.0
 10
5.2970765925
 20
6.1703012527
 30
0.0
 10
5.2937231011
 20
6.1712543641
 30
0.0
 10
5.2889279862
 20
6.1725345403
 30
0.0
 10
5.2825239148
 20
6.1740918955
 30
0.0
 10
5.2743516664
 20
6.1758662335
 30
0.0
 10
5.2655606131
 20
6.1775780535
 30
0.0
 10
5.2561712006
 20
6.1792227731
 30
0.0
 10
5.246203832
 20
6.1807957909
 30
0.0
 10
5.235679522
 20
6.1822924551
 30
0.0
 10
5.2246220755
 20
6.183707913
 30
0.0
 10
5.2130590602
 20
6.1850405901
 30
0.0
 10
5.2010207098
 20
6.186288409
 30
0.0
 10
5.1885378263
 20
6.1874492664
 30
0.0
 10
5.1756412114
 20
6.1885210958
 30
0.0
 10
5.1577126711
 20
6.1898450294
 30
0.0
 10
5.1344978806
 20
6.1912520487
 30
0.0
 10
5.1058294308
 20
6.1925342471
 30
0.0
 10
5.0762918536
 20
6.1934394168
 30
0.0
 10
5.0461721972
 20
6.1939757445
 30
0.0
 10
5.0259299957
 20
6.1940928161
 30
0.0
 10
5.0157608696
 20
6.1940928161
 30
0.0
  0
SPLINE
  5
468
100
AcDbEntity
  8
0
100
AcDbSpline
 62
7
  6
CONTINUOUS
 70
0
 71
3
 72
19
 73
15
 74
0
 42
0.0000001
 43
0.0000001
 44
0.0000000001
 40
0.0
 40
0.0
 40
0.0
 40
0.0
 40
0.00489826
 40
0.0109823586
 40
0.0194547904
 40
0.0434599548
 40
0.0767022789
 40
0.1188992794
 40
0.1695411805
 40
0.2939859903
 40
0.4453810051
 40
0.6178707953
 40
0.8051299296
 40
1.0
 40
1.0
 40
1.0
 40
1.0
 10
3.5357608715
 20
6.25909313
 30
0.0
 10
3.5357624966
 20
6.2596013216
 30
0.0
 10
3.5357653894
 20
6.2607407372
 30
0.0
 10
3.5357709765
 20
6.2627591629
 30
0.0
 10
3.5357812952
 20
6.2667599234
 30
0.0
 10
3.535797727
 20
6.2735783418
 30
0.0
 10
3.5358194459
 20
6.2838956795
 30
0.0
 10
3.5358419099
 20
6.296976581
 30
0.0
 10
3.5358710879
 20
6.319519736
 30
0.0
 10
3.5358926863
 20
6.3533921953
 30
0.0
 10
3.5358826243
 20
6.3999063717
 30
0.0
 10
3.5358416653
 20
6.4529375133
 30
0.0
 10
3.5357831283
 20
6.5104791734
 30
0.0
 10
3.5357608696
 20
6.5501250568
 30
0.0
 10
3.5357608696
 20
6.5703428161
 30
0.0
  0
SPLINE
  5
469
100
AcDbEntity
  8
0
100
AcDbSpline
 62
7
  6
CONTINUOUS
 70
0
 71
3
 72
32
 73
28
 74
0
 42
0.0000001
 43
0.0000001
 44
0.0000000001
 40
0.0
 40
0.0
 40
0.0
 40
0.0
 40
0.0624926867
 40
0.0937454148
 40
0.1249981559
 40
0.1562509715
 40
0.1875036871
 40
0.2187565027
 40
0.2500092637
 40
0.3125022249
 40
0.3749952757
 40
0.4062480252
 40
0.4375008598
 40
0.4687536144
 40
0.5000064443
 40
0.5312592419
 40
0.5625120297
 40
0.6250052078
 40
0.6874983388
 40
0.718751126
 40
0.7500038865
 40
0.7812567047
 40
0.8125094567
 40
0.8437622426
 40
0.8750149902
 40
0.9375076533
 40
1.0
 40
1.0
 40
1.0
 40
1.0
 10
2.9622249849
 20
6.8768827747
 30
0.0
 10
2.9539838915
 20
6.8754268721
 30
0.0
 10
2.9417021154
 20
6.8727411723
 30
0.0
 10
2.925593073
 20
6.8681805834
 30
0.0
 10
2.9136570215
 20
6.8642730463
 30
0.0
 10
2.9018899647
 20
6.8598837425
 30
0.0
 10
2.8903119029
 20
6.8550175003
 30
0.0
 10
2.8789419546
 20
6.8496828347
 30
0.0
 10
2.8640839895
 20
6.8419648061
 30
0.0
 10
2.8461108036
 20
6.831207406
 30
0.0
 10
2.8290522914
 20
6.819051938
 30
0.0
 10
2.8160224435
 20
6.8085377523
 30
0.0
 10
2.8065715757
 20
6.8002665104
 30
0.0
 10
2.7974610788
 20
6.7916219533
 30
0.0
 10
2.7887073031
 20
6.7826163615
 30
0.0
 10
2.7803223989
 20
6.7732661771
 30
0.0
 10
2.769651467
 20
6.7603643704
 30
0.0
 10
2.7572876098
 20
6.7434564506
 30
0.0
 10
2.7463034489
 20
6.7256212642
 30
0.0
 10
2.7383909527
 20
6.7108659918
 30
0.0
 10
2.7329040469
 20
6.6995687774
 30
0.0
 10
2.7278781748
 20
6.6880591976
 30
0.0
 10
2.7233230579
 20
6.6763553018
 30
0.0
 10
2.7192459874
 20
6.6644762925
 30
0.0
 10
2.7144535783
 20
6.6484338342
 30
0.0
 10
2.7096815587
 20
6.6280385049
 30
0.0
 10
2.7071948788
 20
6.6114653673
 30
0.0
 10
2.706292026
 20
6.6031455495
 30
0.0
  0
SPLINE
  5
46A
100
AcDbEntity
  8
0
100
AcDbSpline
 62
7
  6
CONTINUOUS
 70
0
 71
3
 72
15
 73
11
 74
0
 42
0.0000001
 43
0.0000001
 44
0.0000000001
 40
0.0
 40
0.0
 40
0.0
 40
0.0
 40
0.1245100961
 40
0.2490909427
 40
0.3738190442
 40
0.4987293442
 40
0.623834292
 40
0.7491161454
 40
0.8745231892
 40
1.0
 40
1.0
 40
1.0
 40
1.0
 10
1.3883927697
 20
6.5610542652
 30
0.0
 10
1.3880619719
 20
6.5610253241
 30
0.0
 10
1.3874041352
 20
6.5608998223
 30
0.0
 10
1.3864765417
 20
6.5605170413
 30
0.0
 10
1.3856434582
 20
6.5599550684
 30
0.0
 10
1.3849390134
 20
6.559236625
 30
0.0
 10
1.3843913938
 20
6.5583907976
 30
0.0
 10
1.384022706
 20
6.5574515573
 30
0.0
 10
1.3838476102
 20
6.5564572642
 30
0.0
 10
1.3838648103
 20
6.5557831291
 30
0.0
 10
1.3839065802
 20
6.5554511066
 30
0.0
  0
SPLINE
  5
46B
100
AcDbEntity
  8
0
100
AcDbSpline
 62
7
  6
CONTINUOUS
 70
0
 71
3
 72
12
 73
8
 74
0
 42
0.0000001
 43
0.0000001
 44
0.0000000001
 40
0.0
 40
0.0
 40
0.0
 40
0.0
 40
0.0262444744
 40
0.0768162648
 40
0.2647405929
 40
0.5722026236
 40
1.0
 40
1.0
 40
1.0
 40
1.0
 10
1.3838671813
 20
6.5554529843
 30
0.0
 10
1.3838672276
 20
6.5554526386
 30
0.0
 10
1.3838682105
 20
6.5554519455
 30
0.0
 10
1.3838715294
 20
6.5554512054
 30
0.0
 10
1.3838789082
 20
6.5554506414
 30
0.0
 10
1.3838911045
 20
6.5554506126
 30
0.0
 10
1.3839008986
 20
6.5554508902
 30
0.0
 10
1.3839065802
 20
6.5554511066
 30
0.0
  0
SPLINE
  5
46C
100
AcDbEntity
  8
0
100
AcDbSpline
 62
7
  6
CONTINUOUS
 70
0
 71
3
 72
39
 73
35
 74
0
 42
0.0000001
 43
0.0000001
 44
0.0000000001
 40
0.0
 40
0.0
 40
0.0
 40
0.0
 40
0.0312498813
 40
0.0624999438
 40
0.0937498831
 40
0.1249999049
 40
0.1562499037
 40
0.1874999087
 40
0.2187499021
 40
0.2499999043
 40
0.2812498936
 40
0.3124999012
 40
0.3437499118
 40
0.3749999283
 40
0.4062499444
 40
0.4374999609
 40
0.4687499743
 40
0.4999999851
 40
0.5312499968
 40
0.5625000124
 40
0.5937500327
 40
0.6250000532
 40
0.6562500758
 40
0.6875000932
 40
0.7187501061
 40
0.7500001044
 40
0.7812501112
 40
0.8125001097
 40
0.8437501174
 40
0.8750001162
 40
0.9062501355
 40
0.9375000715
 40
0.9687501254
 40
1.0
 40
1.0
 40
1.0
 40
1.0
 10
4.6801358696
 20
1.5428428161
 30
0.0
 10
4.6801358774
 20
1.5373528652
 30
0.0
 10
4.6804070485
 20
1.5263710122
 30
0.0
 10
4.68162422
 20
1.5099398198
 30
0.0
 10
4.6836473382
 20
1.4935878644
 30
0.0
 10
4.686470823
 20
1.4773550826
 30
0.0
 10
4.6900878303
 20
1.4612804447
 30
0.0
 10
4.6944899399
 20
1.4454028524
 30
0.0
 10
4.6996666711
 20
1.4297606695
 30
0.0
 10
4.7056052218
 20
1.4143915413
 30
0.0
 10
4.7122921649
 20
1.3993329248
 30
0.0
 10
4.7197114398
 20
1.3846213331
 30
0.0
 10
4.727843293
 20
1.370291348
 30
0.0
 10
4.73666668
 20
1.3563765102
 30
0.0
 10
4.7461599171
 20
1.3429097575
 30
0.0
 10
4.7563009223
 20
1.3299237822
 30
0.0
 10
4.7670661211
 20
1.3174503533
 30
0.0
 10
4.7784297759
 20
1.3055195994
 30
0.0
 10
4.7903639769
 20
1.2941595657
 30
0.0
 10
4.8028405402
 20
1.2833980079
 30
0.0
 10
4.815829098
 20
1.2732603264
 30
0.0
 10
4.8292978173
 20
1.2637698996
 30
0.0
 10
4.8432139895
 20
1.254948641
 30
0.0
 10
4.8575447266
 20
1.2468181378
 30
0.0
 10
4.8722565498
 20
1.2393993561
 30
0.0
 10
4.8873148205
 20
1.2327116846
 30
0.0
 10
4.9026831512
 20
1.2267711157
 30
0.0
 10
4.9183243205
 20
1.2215913628
 30
0.0
 10
4.9342008356
 20
1.2171854053
 30
0.0
 10
4.9502744984
 20
1.2135640804
 30
0.0
 10
4.9665065406
 20
1.2107363201
 30
0.0
 10
4.9828580476
 20
1.2087094852
 30
0.0
 10
4.999289062
 20
1.2074896773
 30
0.0
 10
5.0102709198
 20
1.2072178219
 30
0.0
 10
5.0157608696
 20
1.2072178161
 30
0.0
  0
SPLINE
  5
46D
100
AcDbEntity
  8
0
100
AcDbSpline
 62
7
  6
CONTINUOUS
 70
0
 71
3
 72
39
 73
35
 74
0
 42
0.0000001
 43
0.0000001
 44
0.0000000001
 40
0.0
 40
0.0
 40
0.0
 40
0.0
 40
0.0312498688
 40
0.0624999162
 40
0.0937498501
 40
0.1249998679
 40
0.156249866
 40
0.1874998744
 40
0.2187498728
 40
0.2499998794
 40
0.2812498781
 40
0.3124998897
 40
0.3437499068
 40
0.3749999285
 40
0.4062499477
 40
0.4374999674
 40
0.4687499821
 40
0.4999999938
 40
0.5312500034
 40
0.5625000163
 40
0.5937500318
 40
0.6250000482
 40
0.6562500635
 40
0.6875000719
 40
0.7187500814
 40
0.7500000689
 40
0.7812500683
 40
0.8125000623
 40
0.843750063
 40
0.8750000613
 40
0.9062500859
 40
0.9375000295
 40
0.9687501062
 40
1.0
 40
1.0
 40
1.0
 40
1.0
 10
5.0157608696
 20
1.2072178161
 30
0.0
 10
5.0212508184
 20
1.2072178248
 30
0.0
 10
5.0322326737
 20
1.2074897138
 30
0.0
 10
5.0486636829
 20
1.2087095535
 30
0.0
 10
5.0650151879
 20
1.2107363839
 30
0.0
 10
5.0812472405
 20
1.2135640778
 30
0.0
 10
5.0973209163
 20
1.2171853466
 30
0.0
 10
5.1131974392
 20
1.2215912812
 30
0.0
 10
5.1288385885
 20
1.2267710999
 30
0.0
 10
5.1442068832
 20
1.2327117597
 30
0.0
 10
5.1592651652
 20
1.2393994003
 30
0.0
 10
5.17397703
 20
1.2468181008
 30
0.0
 10
5.1883077647
 20
1.2549486111
 30
0.0
 10
5.2022239094
 20
1.2637699126
 30
0.0
 10
5.2156926201
 20
1.2732603489
 30
0.0
 10
5.2286812314
 20
1.2833979583
 30
0.0
 10
5.2411578738
 20
1.2941594284
 30
0.0
 10
5.2530919515
 20
1.305519598
 30
0.0
 10
5.2644554406
 20
1.3174505038
 30
0.0
 10
5.2752207537
 20
1.329923828
 30
0.0
 10
5.2853618927
 20
1.3429097014
 30
0.0
 10
5.2948551466
 20
1.3563764459
 30
0.0
 10
5.3036783823
 20
1.3702913821
 30
0.0
 10
5.3118101098
 20
1.3846214329
 30
0.0
 10
5.3192296406
 20
1.3993328888
 30
0.0
 10
5.3259168735
 20
1.4143913827
 30
0.0
 10
5.3318552085
 20
1.4297606021
 30
0.0
 10
5.3370315841
 20
1.4454028982
 30
0.0
 10
5.3414336889
 20
1.4612804856
 30
0.0
 10
5.3450508526
 20
1.477355087
 30
0.0
 10
5.3478745047
 20
1.4935878425
 30
0.0
 10
5.3498976552
 20
1.5099398001
 30
0.0
 10
5.3511147624
 20
1.5263710043
 30
0.0
 10
5.3513858671
 20
1.5373528629
 30
0.0
 10
5.3513858695
 20
1.5428428161
 30
0.0
  0
SPLINE
  5
46E
100
AcDbEntity
  8
0
100
AcDbSpline
 62
7
  6
CONTINUOUS
 70
0
 71
3
 72
15
 73
11
 74
0
 42
0.0000001
 43
0.0000001
 44
0.0000000001
 40
0.0
 40
0.0
 40
0.0
 40
0.0
 40
0.124501041
 40
0.2491146329
 40
0.3738795928
 40
0.4988192
 40
0.6239335998
 40
0.7492010245
 40
0.8745711742
 40
1.0
 40
1.0
 40
1.0
 40
1.0
 10
8.6438298626
 20
6.5609415643
 30
0.0
 10
8.6441244724
 20
6.5608721022
 30
0.0
 10
8.6447024961
 20
6.5606780693
 30
0.0
 10
8.645500812
 20
6.5602332269
 30
0.0
 10
8.6462053653
 20
6.5596490433
 30
0.0
 10
8.6467921923
 20
6.5589452283
 30
0.0
 10
8.6472417863
 20
6.5581453597
 30
0.0
 10
8.6475390909
 20
6.5572761395
 30
0.0
 10
8.6476743062
 20
6.5563670256
 30
0.0
 10
8.6476532221
 20
6.5557536651
 30
0.0
 10
8.647615159
 20
6.5554511066
 30
0.0
  0
SPLINE
  5
46F
100
AcDbEntity
  8
0
100
AcDbSpline
 62
7
  6
CONTINUOUS
 70
0
 71
3
 72
15
 73
11
 74
0
 42
0.0000001
 43
0.0000001
 44
0.0000000001
 40
0.0
 40
0.0
 40
0.0
 40
0.0
 40
0.1205641894
 40
0.2424464677
 40
0.3657840807
 40
0.4905753517
 40
0.6166858189
 40
0.7438661875
 40
0.871770311
 40
1.0
 40
1.0
 40
1.0
 40
1.0
 10
8.6371185845
 20
6.5794742102
 30
0.0
 10
8.637328532
 20
6.5795891728
 30
0.0
 10
8.6377326306
 20
6.5798551581
 30
0.0
 10
8.6382706841
 20
6.5803470801
 30
0.0
 10
8.6387318511
 20
6.5809226144
 30
0.0
 10
8.6391053064
 20
6.5815681191
 30
0.0
 10
8.6393825782
 20
6.582268529
 30
0.0
 10
8.6395573193
 20
6.5830075947
 30
0.0
 10
8.639625616
 20
6.5837679858
 30
0.0
 10
8.639599093
 20
6.5842778165
 30
0.0
 10
8.6395679671
 20
6.5845304876
 30
0.0
  0
SPLINE
  5
470
100
AcDbEntity
  8
0
100
AcDbSpline
 62
7
  6
CONTINUOUS
 70
0
 71
3
 72
32
 73
28
 74
0
 42
0.0000001
 43
0.0000001
 44
0.0000000001
 40
0.0
 40
0.0
 40
0.0
 40
0.0
 40
0.0624924566
 40
0.1249852228
 40
0.1562379291
 40
0.1874906771
 40
0.2187433872
 40
0.2499961667
 40
0.2812488848
 40
0.3125016346
 40
0.3749948563
 40
0.4374881304
 40
0.4687408765
 40
0.4999936251
 40
0.5312464242
 40
0.5624991328
 40
0.5937519283
 40
0.6250046439
 40
0.687497789
 40
0.7499908636
 40
0.7812435712
 40
0.8124963599
 40
0.8437490309
 40
0.8750018011
 40
0.9062545138
 40
0.9375072071
 40
1.0
 40
1.0
 40
1.0
 40
1.0
 10
2.7063060409
 20
6.5374111899
 30
0.0
 10
2.7072059218
 20
6.5291512605
 30
0.0
 10
2.7096768685
 20
6.512697281
 30
0.0
 10
2.7144055558
 20
6.4924460397
 30
0.0
 10
2.7191496146
 20
6.476514216
 30
0.0
 10
2.7231836623
 20
6.4647155207
 30
0.0
 10
2.7276890764
 20
6.4530887834
 30
0.0
 10
2.7326588997
 20
6.4416528655
 30
0.0
 10
2.7380836773
 20
6.4304254672
 30
0.0
 10
2.7459057647
 20
6.4157577412
 30
0.0
 10
2.7567630084
 20
6.3980208386
 30
0.0
 10
2.7689830701
 20
6.3811939518
 30
0.0
 10
2.7795298544
 20
6.3683451363
 30
0.0
 10
2.7878172064
 20
6.3590283921
 30
0.0
 10
2.7964694193
 20
6.3500496451
 30
0.0
 10
2.8054747076
 20
6.3414250338
 30
0.0
 10
2.8148176336
 20
6.3331672078
 30
0.0
 10
2.8277001578
 20
6.322661628
 30
0.0
 10
2.8445688196
 20
6.3104990549
 30
0.0
 10
2.8623469342
 20
6.2997089816
 30
0.0
 10
2.877047318
 20
6.2919483686
 30
0.0
 10
2.8882986199
 20
6.286573275
 30
0.0
 10
2.8997579825
 20
6.2816575621
 30
0.0
 10
2.9114073571
 20
6.2772110546
 30
0.0
 10
2.9232270874
 20
6.2732384528
 30
0.0
 10
2.939183549
 20
6.2685807646
 30
0.0
 10
2.9513540006
 20
6.2658103134
 30
0.0
 10
2.9595230442
 20
6.2642925233
 30
0.0
  0
LINE
  5
471
100
AcDbEntity
  8
0
100
AcDbLine
 62
7
  6
CONTINUOUS
 10
5.0157608696
 20
2.0932701701
 11
4.6801358696
 21
2.0932701701
  0
LINE
  5
472
100
AcDbEntity
  8
0
100
AcDbLine
 62
7
  6
CONTINUOUS
 10
5.3513858695
 20
2.0932701701
 11
5.0157608696
 21
2.0932701701
  0
LINE
  5
473
100
AcDbEntity
  8
0
100
AcDbLine
 62
7
  6
CONTINUOUS
 10
5.3270108696
 20
2.063802232
 11
5.0157608696
 21
2.0638022319
  0
SPLINE
  5
474
100
AcDbEntity
  8
0
100
AcDbSpline
 62
7
  6
CONTINUOUS
 70
0
 71
3
 72
44
 73
40
 74
0
 42
0.0000001
 43
0.0000001
 44
0.0000000001
 40
0.0
 40
0.0
 40
0.0
 40
0.0
 40
0.0953565549
 40
0.1898104408
 40
0.2824718752
 40
0.3724539369
 40
0.4588954954
 40
0.5005466975
 40
0.5410268245
 40
0.5802429446
 40
0.6181025597
 40
0.6545137318
 40
0.6893852493
 40
0.7226319683
 40
0.7541902537
 40
0.7840026268
 40
0.8120129757
 40
0.8381670611
 40
0.8624132531
 40
0.8738060636
 40
0.8847043544
 40
0.8951030071
 40
0.9049974052
 40
0.9143843484
 40
0.9232645298
 40
0.9316402454
 40
0.9395148024
 40
0.9468927956
 40
0.9537804765
 40
0.9601862513
 40
0.9661213564
 40
0.9716007797
 40
0.9766445097
 40
0.9812792034
 40
0.9855403299
 40
0.9894747071
 40
0.9931430189
 40
0.9966213217
 40
1.0
 40
1.0
 40
1.0
 40
1.0
 10
5.0157608696
 20
1.9190928161
 30
0.0
 10
5.0259299957
 20
1.9190928161
 30
0.0
 10
5.0461721972
 20
1.9192098878
 30
0.0
 10
5.0762918536
 20
1.9197462155
 30
0.0
 10
5.1058294308
 20
1.9206513851
 30
0.0
 10
5.1344978806
 20
1.9219335836
 30
0.0
 10
5.1577126711
 20
1.9233406028
 30
0.0
 10
5.1756412114
 20
1.9246645365
 30
0.0
 10
5.1885378263
 20
1.9257363659
 30
0.0
 10
5.2010207098
 20
1.9268972233
 30
0.0
 10
5.2130590602
 20
1.9281450422
 30
0.0
 10
5.2246220755
 20
1.9294777192
 30
0.0
 10
5.235679522
 20
1.9308931771
 30
0.0
 10
5.246203832
 20
1.9323898413
 30
0.0
 10
5.2561712006
 20
1.9339628592
 30
0.0
 10
5.2655606131
 20
1.9356075788
 30
0.0
 10
5.2743516664
 20
1.9373193987
 30
0.0
 10
5.2825239148
 20
1.9390937367
 30
0.0
 10
5.2889279862
 20
1.9406510919
 30
0.0
 10
5.2937231011
 20
1.9419312681
 30
0.0
 10
5.2970765925
 20
1.9428843795
 30
0.0
 10
5.300259918
 20
1.94384991
 30
0.0
 10
5.3032706226
 20
1.9448273314
 30
0.0
 10
5.3061066393
 20
1.9458162581
 30
0.0
 10
5.3087666045
 20
1.9468158341
 30
0.0
 10
5.3112495896
 20
1.947825311
 30
0.0
 10
5.3135547594
 20
1.9488439799
 30
0.0
 10
5.3156812986
 20
1.9498711409
 30
0.0
 10
5.3176284163
 20
1.9509061135
 30
0.0
 10
5.3193953512
 20
1.9519482488
 30
0.0
 10
5.3209813746
 20
1.9529969518
 30
0.0
 10
5.3223857863
 20
1.9540517144
 30
0.0
 10
5.3236078919
 20
1.9551121666
 30
0.0
 10
5.3246469398
 20
1.9561781331
 30
0.0
 10
5.3255019815
 20
1.9572497044
 30
0.0
 10
5.3261716252
 20
1.9583271341
 30
0.0
 10
5.3266537285
 20
1.9594107846
 30
0.0
 10
5.3269453116
 20
1.9604997254
 30
0.0
 10
5.3270108696
 20
1.9612325031
 30
0.0
 10
5.3270108696
 20
1.9615928161
 30
0.0
  0
SPLINE
  5
475
100
AcDbEntity
  8
0
100
AcDbSpline
 62
7
  6
CONTINUOUS
 70
0
 71
3
 72
32
 73
28
 74
0
 42
0.0000001
 43
0.0000001
 44
0.0000000001
 40
0.0
 40
0.0
 40
0.0
 40
0.0
 40
0.0313077327
 40
0.0626222595
 40
0.0939491128
 40
0.1252911089
 40
0.1880026456
 40
0.2507665785
 40
0.3135680157
 40
0.3763875782
 40
0.4391858368
 40
0.4705716435
 40
0.5019358326
 40
0.5332753542
 40
0.5645895608
 40
0.5958772134
 40
0.627136266
 40
0.6895413297
 40
0.7518103323
 40
0.7829052727
 40
0.8139729442
 40
0.8450173069
 40
0.8760415229
 40
0.9070484513
 40
0.9380411452
 40
0.9690233497
 40
1.0
 40
1.0
 40
1.0
 40
1.0
 10
5.0157608696
 20
1.2315928161
 30
0.0
 10
5.020843999
 20
1.2315928161
 30
0.0
 10
5.031013291
 20
1.2318570614
 30
0.0
 10
5.0462276059
 20
1.233033894
 30
0.0
 10
5.0613691472
 20
1.2349790561
 30
0.0
 10
5.081411853
 20
1.2385804653
 30
0.0
 10
5.1061110534
 20
1.2449448556
 30
0.0
 10
5.1348669655
 20
1.2554559821
 30
0.0
 10
5.1624685929
 20
1.2687480549
 30
0.0
 10
5.1886629807
 20
1.2846384091
 30
0.0
 10
5.2091290697
 20
1.2999062816
 30
0.0
 10
5.2245537418
 20
1.313242368
 30
0.0
 10
5.2356189722
 20
1.3237837438
 30
0.0
 10
5.246149916
 20
1.3348424115
 30
0.0
 10
5.256125563
 20
1.3463879441
 30
0.0
 10
5.265525689
 20
1.3583904604
 30
0.0
 10
5.277255914
 20
1.3749505394
 30
0.0
 10
5.2903844887
 20
1.3966467452
 30
0.0
 10
5.3013353102
 20
1.4194917893
 30
0.0
 10
5.3086937812
 20
1.4383142528
 30
0.0
 10
5.3135046892
 20
1.452668984
 30
0.0
 10
5.3176020063
 20
1.4672311495
 30
0.0
 10
5.320978728
 20
1.4819670431
 30
0.0
 10
5.3236276526
 20
1.4968424364
 30
0.0
 10
5.3255416023
 20
1.5118234045
 30
0.0
 10
5.3267133613
 20
1.5268753566
 30
0.0
 10
5.3269949236
 20
1.5369360163
 30
0.0
 10
5.3270095901
 20
1.5419653697
 30
0.0
  0
LINE
  5
476
100
AcDbEntity
  8
0
100
AcDbLine
 62
7
  6
CONTINUOUS
 10
1.3952209676
 20
6.5668758522
 11
1.3957931951
 21
6.5668873621
  0
SPLINE
  5
477
100
AcDbEntity
  8
0
100
AcDbSpline
 62
7
  6
CONTINUOUS
 70
0
 71
3
 72
32
 73
28
 74
0
 42
0.0000001
 43
0.0000001
 44
0.0000000001
 40
0.0
 40
0.0
 40
0.0
 40
0.0
 40
0.0309765659
 40
0.0619597922
 40
0.0929543563
 40
0.1239637411
 40
0.1549907372
 40
0.1860379449
 40
0.2171082744
 40
0.2482054449
 40
0.3104771379
 40
0.3728828994
 40
0.4041417242
 40
0.4354288454
 40
0.466742276
 40
0.4980808327
 40
0.5294439196
 40
0.5608285225
 40
0.6236241725
 40
0.6864410338
 40
0.7492398506
 40
0.8120014303
 40
0.8747111131
 40
0.9060523941
 40
0.9373786597
 40
0.9686926986
 40
1.0
 40
1.0
 40
1.0
 40
1.0
 10
3.0149293008
 20
6.8815916669
 30
0.0
 10
3.0098994132
 20
6.8815777653
 30
0.0
 10
2.999837467
 20
6.881297664
 30
0.0
 10
2.9847832555
 20
6.8801279475
 30
0.0
 10
2.969799519
 20
6.8782158853
 30
0.0
 10
2.9549209799
 20
6.875568695
 30
0.0
 10
2.9401816947
 20
6.8721935561
 30
0.0
 10
2.9256160234
 20
6.8680976724
 30
0.0
 10
2.9112578045
 20
6.8632880477
 30
0.0
 10
2.892431044
 20
6.8559311617
 30
0.0
 10
2.8695811815
 20
6.8449818755
 30
0.0
 10
2.8478806782
 20
6.8318540546
 30
0.0
 10
2.831317695
 20
6.820124132
 30
0.0
 10
2.819313289
 20
6.8107241359
 30
0.0
 10
2.8077660663
 20
6.8007484733
 30
0.0
 10
2.7967058898
 20
6.7902173771
 30
0.0
 10
2.7861631821
 20
6.7791518553
 30
0.0
 10
2.7728255747
 20
6.7637266248
 30
0.0
 10
2.7575562151
 20
6.7432594867
 30
0.0
 10
2.7416647603
 20
6.7170633651
 30
0.0
 10
2.7283722618
 20
6.6894596175
 30
0.0
 10
2.7178613884
 20
6.6607012435
 30
0.0
 10
2.7114975403
 20
6.6359998737
 30
0.0
 10
2.7078965667
 20
6.6159553677
 30
0.0
 10
2.7059516884
 20
6.6008124153
 30
0.0
 10
2.70477506
 20
6.5855966723
 30
0.0
 10
2.7045108696
 20
6.575426427
 30
0.0
 10
2.7045108696
 20
6.5703428161
 30
0.0
  0
SPLINE
  5
478
100
AcDbEntity
  8
0
100
AcDbSpline
 62
7
  6
CONTINUOUS
 70
0
 71
3
 72
24
 73
20
 74
0
 42
0.0000001
 43
0.0000001
 44
0.0000000001
 40
0.0
 40
0.0
 40
0.0
 40
0.0
 40
0.0312533456
 40
0.0625066683
 40
0.1250060735
 40
0.1875055833
 40
0.2500051566
 40
0.3125047807
 40
0.3750043911
 40
0.4375039368
 40
0.5000034597
 40
0.5625030888
 40
0.6250027529
 40
0.6875024423
 40
0.7500020759
 40
0.8125016483
 40
0.8750011205
 40
0.9375005511
 40
1.0
 40
1.0
 40
1.0
 40
1.0
 10
4.7223407238
 20
1.4395551241
 30
0.0
 10
4.7233942096
 20
1.4365856103
 30
0.0
 10
4.7255922534
 20
1.4306783726
 30
0.0
 10
4.7303493396
 20
1.4190063533
 30
0.0
 10
4.7369653341
 20
1.4046983627
 30
0.0
 10
4.7459327392
 20
1.3880451144
 30
0.0
 10
4.7558873395
 20
1.3719621824
 30
0.0
 10
4.7667890737
 20
1.3565057279
 30
0.0
 10
4.778598518
 20
1.3417311438
 30
0.0
 10
4.7912760341
 20
1.3276941084
 30
0.0
 10
4.804783016
 20
1.3144531464
 30
0.0
 10
4.8190662157
 20
1.3020538071
 30
0.0
 10
4.8340663744
 20
1.2905323819
 30
0.0
 10
4.8497278948
 20
1.2799274663
 30
0.0
 10
4.8659951908
 20
1.2702773702
 30
0.0
 10
4.8828124461
 20
1.2616209967
 30
0.0
 10
4.900124029
 20
1.2540000346
 30
0.0
 10
4.9178684721
 20
1.2474519906
 30
0.0
 10
4.929943024
 20
1.2438126956
 30
0.0
 10
4.9360283254
 20
1.2421782895
 30
0.0
  0
SPLINE
  5
479
100
AcDbEntity
  8
0
100
AcDbSpline
 62
7
  6
CONTINUOUS
 70
0
 71
3
 72
24
 73
20
 74
0
 42
0.0000001
 43
0.0000001
 44
0.0000000001
 40
0.0
 40
0.0
 40
0.0
 40
0.0
 40
0.0624994515
 40
0.1249988822
 40
0.1874983544
 40
0.2499979284
 40
0.3124975621
 40
0.3749972471
 40
0.4374969063
 40
0.4999965356
 40
0.5624960599
 40
0.6249956043
 40
0.6874952163
 40
0.7499948458
 40
0.81249442
 40
0.8749939248
 40
0.9374933297
 40
0.9687466535
 40
1.0
 40
1.0
 40
1.0
 40
1.0
 10
5.0954981516
 20
1.242179562
 30
0.0
 10
5.1015835328
 20
1.2438140924
 30
0.0
 10
5.1136582354
 20
1.2474536465
 30
0.0
 10
5.1314028717
 20
1.2540021146
 30
0.0
 10
5.1487146143
 20
1.2616235279
 30
0.0
 10
5.1655319939
 20
1.2702803764
 30
0.0
 10
5.1817993766
 20
1.2799309683
 30
0.0
 10
5.1974609428
 20
1.2905363994
 30
0.0
 10
5.2124611048
 20
1.302058357
 30
0.0
 10
5.226744261
 20
1.3144582462
 30
0.0
 10
5.2402511505
 20
1.3276997708
 30
0.0
 10
5.2529285245
 20
1.3417373765
 30
0.0
 10
5.2647377833
 20
1.3565125292
 30
0.0
 10
5.2756392813
 20
1.3719695524
 30
0.0
 10
5.2855935937
 20
1.3880530484
 30
0.0
 10
5.2945606569
 20
1.4047068527
 30
0.0
 10
5.3011763207
 20
1.4190152971
 30
0.0
 10
5.3059331119
 20
1.4306876724
 30
0.0
 10
5.3081310003
 20
1.4365950846
 30
0.0
 10
5.3091844068
 20
1.4395646845
 30
0.0
  0
SPLINE
  5
47A
100
AcDbEntity
  8
0
100
AcDbSpline
 62
7
  6
CONTINUOUS
 70
0
 71
3
 72
32
 73
28
 74
0
 42
0.0000001
 43
0.0000001
 44
0.0000000001
 40
0.0
 40
0.0
 40
0.0
 40
0.0
 40
0.0309766504
 40
0.0619588548
 40
0.0929515487
 40
0.1239584771
 40
0.154982693
 40
0.1860270556
 40
0.2170947271
 40
0.2481896673
 40
0.3104586696
 40
0.3728637331
 40
0.4041227856
 40
0.4354104381
 40
0.4667246447
 40
0.4980641662
 40
0.5294283553
 40
0.560814162
 40
0.6236124207
 40
0.6864319834
 40
0.7492334208
 40
0.8119973539
 40
0.8747088907
 40
0.906050887
 40
0.9373777403
 40
0.9686922673
 40
1.0
 40
1.0
 40
1.0
 40
1.0
 10
4.7045121487
 20
1.541965509
 30
0.0
 10
4.7045268128
 20
1.5369361541
 30
0.0
 10
4.7048083706
 20
1.5268754913
 30
0.0
 10
4.7059801234
 20
1.5118235345
 30
0.0
 10
4.7078940673
 20
1.4968425613
 30
0.0
 10
4.7105429868
 20
1.4819671627
 30
0.0
 10
4.7139197037
 20
1.4672312636
 30
0.0
 10
4.7180170165
 20
1.4526690924
 30
0.0
 10
4.7228279206
 20
1.4383143554
 30
0.0
 10
4.7301863871
 20
1.4194918841
 30
0.0
 10
4.7411372043
 20
1.3966468299
 30
0.0
 10
4.7542657764
 20
1.3749506142
 30
0.0
 10
4.7659960002
 20
1.3583905273
 30
0.0
 10
4.7753961258
 20
1.3463880051
 30
0.0
 10
4.7853717728
 20
1.3348424669
 30
0.0
 10
4.795902717
 20
1.3237837935
 30
0.0
 10
4.8069679483
 20
1.3132424124
 30
0.0
 10
4.8223926222
 20
1.2999063191
 30
0.0
 10
4.8428587143
 20
1.2846384385
 30
0.0
 10
4.8690531072
 20
1.2687480757
 30
0.0
 10
4.896654741
 20
1.2554559956
 30
0.0
 10
4.9254106603
 20
1.2449448632
 30
0.0
 10
4.9501098675
 20
1.2385804693
 30
0.0
 10
4.9701525789
 20
1.234979058
 30
0.0
 10
4.9852941245
 20
1.2330338948
 30
0.0
 10
5.0005084437
 20
1.2318570616
 30
0.0
 10
5.0106777387
 20
1.2315928161
 30
0.0
 10
5.0157608696
 20
1.2315928161
 30
0.0
  0
SPLINE
  5
47B
100
AcDbEntity
  8
0
100
AcDbSpline
 62
7
  6
CONTINUOUS
 70
0
 71
3
 72
44
 73
40
 74
0
 42
0.0000001
 43
0.0000001
 44
0.0000000001
 40
0.0
 40
0.0
 40
0.0
 40
0.0
 40
0.0033759173
 40
0.0068516957
 40
0.010517762
 40
0.0144501826
 40
0.0187096274
 40
0.0233428885
 40
0.0283854045
 40
0.0338638034
 40
0.0397980469
 40
0.0462030998
 40
0.0530901791
 40
0.0604676743
 40
0.0683418228
 40
0.0767172077
 40
0.0855971263
 40
0.0949838663
 40
0.1048781138
 40
0.1152766653
 40
0.1261749014
 40
0.1375677016
 40
0.1618139984
 40
0.1879683424
 40
0.2159790906
 40
0.2457919924
 40
0.2773509247
 40
0.3105983987
 40
0.3454707668
 40
0.3818828657
 40
0.4197434656
 40
0.4589606133
 40
0.4994417979
 40
0.5410940768
 40
0.6275378124
 40
0.7175220337
 40
0.8101855652
 40
0.9046414742
 40
1.0
 40
1.0
 40
1.0
 40
1.0
 10
3.4345108696
 20
6.8815928161
 30
0.0
 10
3.4341508584
 20
6.8815928161
 30
0.0
 10
3.4334186586
 20
6.8815272498
 30
0.0
 10
3.4323305743
 20
6.881235653
 30
0.0
 10
3.4312477399
 20
6.8807535384
 30
0.0
 10
3.4301710843
 20
6.8800838887
 30
0.0
 10
3.4291002435
 20
6.8792288458
 30
0.0
 10
3.4280349645
 20
6.8781897998
 30
0.0
 10
3.4269751586
 20
6.8769676977
 30
0.0
 10
3.4259210034
 20
6.87556329
 30
0.0
 10
3.4248728714
 20
6.8739772707
 30
0.0
 10
3.4238312733
 20
6.8722103394
 30
0.0
 10
3.4227968066
 20
6.870263225
 30
0.0
 10
3.4217701225
 20
6.8681366887
 30
0.0
 10
3.420751904
 20
6.8658315214
 30
0.0
 10
3.419742853
 20
6.8633485384
 30
0.0
 10
3.4187436808
 20
6.8606885751
 30
0.0
 10
3.417755138
 20
6.8578525598
 30
0.0
 10
3.4167780826
 20
6.8548418561
 30
0.0
 10
3.4158128986
 20
6.8516585314
 30
0.0
 10
3.4148601127
 20
6.8483050406
 30
0.0
 10
3.4135803463
 20
6.8435099178
 30
0.0
 10
3.4120234378
 20
6.8371058397
 30
0.0
 10
3.410249517
 20
6.8289335945
 30
0.0
 10
3.4085379895
 20
6.8201425439
 30
0.0
 10
3.4068934241
 20
6.8107531339
 30
0.0
 10
3.4053204086
 20
6.8007857673
 30
0.0
 10
3.4038235814
 20
6.7902614595
 30
0.0
 10
3.4024077823
 20
6.7792040161
 30
0.0
 10
3.4010746041
 20
6.7676410035
 30
0.0
 10
3.3998261425
 20
6.7556026552
 30
0.0
 10
3.3986645189
 20
6.7431197734
 30
0.0
 10
3.3975918182
 20
6.7302231597
 30
0.0
 10
3.3962665914
 20
6.7122946249
 30
0.0
 10
3.3948577872
 20
6.6890798439
 30
0.0
 10
3.3935733505
 20
6.6604113976
 30
0.0
 10
3.3926661543
 20
6.6308738185
 30
0.0
 10
3.3921283441
 20
6.6007541556
 30
0.0
 10
3.3920108696
 20
6.5805119433
 30
0.0
 10
3.3920108696
 20
6.5703428161
 30
0.0
  0
SPLINE
  5
47C
100
AcDbEntity
  8
0
100
AcDbSpline
 62
7
  6
CONTINUOUS
 70
0
 71
3
 72
44
 73
40
 74
0
 42
0.0000001
 43
0.0000001
 44
0.0000000001
 40
0.0
 40
0.0
 40
0.0
 40
0.0
 40
0.0033786783
 40
0.0068569811
 40
0.0105252929
 40
0.0144596701
 40
0.0187207966
 40
0.0233554903
 40
0.0283992203
 40
0.0338786436
 40
0.0398137487
 40
0.0462195235
 40
0.0531072044
 40
0.0604851976
 40
0.0683597546
 40
0.0767354702
 40
0.0856156516
 40
0.0950025948
 40
0.1048969929
 40
0.1152956456
 40
0.1261939364
 40
0.1375867469
 40
0.1618329389
 40
0.1879870243
 40
0.2159973732
 40
0.2458097463
 40
0.2773680317
 40
0.3106147507
 40
0.3454862682
 40
0.3818974403
 40
0.4197570554
 40
0.4589731755
 40
0.4994533025
 40
0.5411045046
 40
0.6275460631
 40
0.7175281248
 40
0.8101895592
 40
0.9046434451
 40
1.0
 40
1.0
 40
1.0
 40
1.0
 10
4.7045108696
 20
1.9615928161
 30
0.0
 10
4.7045108696
 20
1.9612325031
 30
0.0
 10
4.7045764275
 20
1.9604997254
 30
0.0
 10
4.7048680106
 20
1.9594107846
 30
0.0
 10
4.7053501139
 20
1.9583271341
 30
0.0
 10
4.7060197576
 20
1.9572497044
 30
0.0
 10
4.7068747993
 20
1.9561781331
 30
0.0
 10
4.7079138472
 20
1.9551121666
 30
0.0
 10
4.7091359529
 20
1.9540517144
 30
0.0
 10
4.7105403646
 20
1.9529969518
 30
0.0
 10
4.7121263879
 20
1.9519482488
 30
0.0
 10
4.7138933229
 20
1.9509061135
 30
0.0
 10
4.7158404406
 20
1.9498711409
 30
0.0
 10
4.7179669798
 20
1.9488439799
 30
0.0
 10
4.7202721495
 20
1.947825311
 30
0.0
 10
4.7227551346
 20
1.9468158341
 30
0.0
 10
4.7254150998
 20
1.9458162581
 30
0.0
 10
4.7282511165
 20
1.9448273314
 30
0.0
 10
4.7312618211
 20
1.94384991
 30
0.0
 10
4.7344451466
 20
1.9428843795
 30
0.0
 10
4.7377986381
 20
1.9419312681
 30
0.0
 10
4.7425937529
 20
1.9406510919
 30
0.0
 10
4.7489978243
 20
1.9390937367
 30
0.0
 10
4.7571700728
 20
1.9373193987
 30
0.0
 10
4.7659611261
 20
1.9356075788
 30
0.0
 10
4.7753505385
 20
1.9339628592
 30
0.0
 10
4.7853179071
 20
1.9323898413
 30
0.0
 10
4.7958422171
 20
1.9308931771
 30
0.0
 10
4.8068996637
 20
1.9294777192
 30
0.0
 10
4.8184626789
 20
1.9281450422
 30
0.0
 10
4.8305010294
 20
1.9268972233
 30
0.0
 10
4.8429839128
 20
1.9257363659
 30
0.0
 10
4.8558805278
 20
1.9246645365
 30
0.0
 10
4.873809068
 20
1.9233406028
 30
0.0
 10
4.8970238586
 20
1.9219335836
 30
0.0
 10
4.9256923084
 20
1.9206513851
 30
0.0
 10
4.9552298855
 20
1.9197462155
 30
0.0
 10
4.9853495419
 20
1.9192098878
 30
0.0
 10
5.0055917435
 20
1.9190928161
 30
0.0
 10
5.0157608696
 20
1.9190928161
 30
0.0
  0
LINE
  5
47D
100
AcDbEntity
  8
0
100
AcDbLine
 62
7
  6
CONTINUOUS
 10
5.0157608696
 20
2.063802232
 11
4.7045108696
 21
2.0638022319
  0
LINE
  5
47E
100
AcDbEntity
  8
0
100
AcDbLine
 62
7
  6
CONTINUOUS
 10
6.4564702854
 20
6.5703428161
 11
6.4564697383
 21
6.2265928163
  0
SPLINE
  5
47F
100
AcDbEntity
  8
0
100
AcDbSpline
 62
7
  6
CONTINUOUS
 70
0
 71
3
 72
25
 73
21
 74
0
 42
0.0000001
 43
0.0000001
 44
0.0000000001
 40
0.0
 40
0.0
 40
0.0
 40
0.0
 40
0.0624990321
 40
0.1249980605
 40
0.1562511695
 40
0.1875042919
 40
0.2187574654
 40
0.25001057
 40
0.3125097491
 40
0.3750089849
 40
0.4375081941
 40
0.5000073855
 40
0.5625064841
 40
0.6250055811
 40
0.6875047601
 40
0.7500039358
 40
0.8125030628
 40
0.8750021177
 40
0.9375010664
 40
1.0
 40
1.0
 40
1.0
 40
1.0
 10
4.9360205641
 20
6.8710052455
 30
0.0
 10
4.9299353371
 20
6.869370693
 30
0.0
 10
4.9178610781
 20
6.8657313958
 30
0.0
 10
4.9030733391
 20
6.8602733757
 30
0.0
 10
4.8914609839
 20
6.8553722695
 30
0.0
 10
4.8828673079
 20
6.8514318729
 30
0.0
 10
4.8743970185
 20
6.8472328236
 30
0.0
 10
4.8632782154
 20
6.8412967069
 30
0.0
 10
4.8497213735
 20
6.8332540184
 30
0.0
 10
4.834060426
 20
6.8226489567
 30
0.0
 10
4.8190605691
 20
6.8111272002
 30
0.0
 10
4.804777728
 20
6.7987276405
 30
0.0
 10
4.7912711877
 20
6.7854863772
 30
0.0
 10
4.778593977
 20
6.7714492105
 30
0.0
 10
4.7667849754
 20
6.7566744194
 30
0.0
 10
4.7558836216
 20
6.741217797
 30
0.0
 10
4.7459294104
 20
6.7251348881
 30
0.0
 10
4.7369624366
 20
6.7084810347
 30
0.0
 10
4.7290239224
 20
6.6913136059
 30
0.0
 10
4.7244453111
 20
6.6795628566
 30
0.0
 10
4.7223386194
 20
6.6736245508
 30
0.0
  0
SPLINE
  5
480
100
AcDbEntity
  8
0
100
AcDbSpline
 62
7
  6
CONTINUOUS
 70
0
 71
3
 72
44
 73
40
 74
0
 42
0.0000001
 43
0.0000001
 44
0.0000000001
 40
0.0
 40
0.0
 40
0.0
 40
0.0
 40
0.0953585258
 40
0.1898144348
 40
0.2824779663
 40
0.3724621876
 40
0.4589059232
 40
0.5005582021
 40
0.5410393867
 40
0.5802565344
 40
0.6181171343
 40
0.6545292332
 40
0.6894016013
 40
0.7226490753
 40
0.7542080076
 40
0.7840209094
 40
0.8120316576
 40
0.8381860016
 40
0.8624322984
 40
0.8738250986
 40
0.8847233347
 40
0.8951218862
 40
0.9050161337
 40
0.9144028737
 40
0.9232827923
 40
0.9316581772
 40
0.9395323257
 40
0.9469098209
 40
0.9537969002
 40
0.9602019531
 40
0.9661361966
 40
0.9716145955
 40
0.9766571115
 40
0.9812903726
 40
0.9855498174
 40
0.989482238
 40
0.9931483043
 40
0.9966240827
 40
1.0
 40
1.0
 40
1.0
 40
1.0
 10
6.6395108696
 20
6.5703428161
 30
0.0
 10
6.6395108696
 20
6.5805119433
 30
0.0
 10
6.639393395
 20
6.6007541556
 30
0.0
 10
6.6388555848
 20
6.6308738185
 30
0.0
 10
6.6379483886
 20
6.6604113976
 30
0.0
 10
6.6366639519
 20
6.6890798439
 30
0.0
 10
6.6352551478
 20
6.7122946249
 30
0.0
 10
6.6339299209
 20
6.7302231597
 30
0.0
 10
6.6328572202
 20
6.7431197734
 30
0.0
 10
6.6316955967
 20
6.7556026552
 30
0.0
 10
6.630447135
 20
6.7676410035
 30
0.0
 10
6.6291139568
 20
6.7792040161
 30
0.0
 10
6.6276981577
 20
6.7902614595
 30
0.0
 10
6.6262013305
 20
6.8007857673
 30
0.0
 10
6.624628315
 20
6.8107531339
 30
0.0
 10
6.6229837496
 20
6.8201425439
 30
0.0
 10
6.6212722221
 20
6.8289335945
 30
0.0
 10
6.6194983013
 20
6.8371058397
 30
0.0
 10
6.6179413928
 20
6.8435099178
 30
0.0
 10
6.6166616265
 20
6.8483050406
 30
0.0
 10
6.6157088405
 20
6.8516585314
 30
0.0
 10
6.6147436565
 20
6.8548418561
 30
0.0
 10
6.6137666011
 20
6.8578525598
 30
0.0
 10
6.6127780583
 20
6.8606885751
 30
0.0
 10
6.6117788862
 20
6.8633485384
 30
0.0
 10
6.6107698351
 20
6.8658315214
 30
0.0
 10
6.6097516166
 20
6.8681366887
 30
0.0
 10
6.6087249325
 20
6.870263225
 30
0.0
 10
6.6076904658
 20
6.8722103394
 30
0.0
 10
6.6066488677
 20
6.8739772707
 30
0.0
 10
6.6056007357
 20
6.87556329
 30
0.0
 10
6.6045465805
 20
6.8769676977
 30
0.0
 10
6.6034867746
 20
6.8781897998
 30
0.0
 10
6.6024214957
 20
6.8792288458
 30
0.0
 10
6.6013506549
 20
6.8800838887
 30
0.0
 10
6.6002739992
 20
6.8807535384
 30
0.0
 10
6.5991911648
 20
6.881235653
 30
0.0
 10
6.5981030805
 20
6.8815272498
 30
0.0
 10
6.5973708807
 20
6.8815928161
 30
0.0
 10
6.5970108696
 20
6.8815928161
 30
0.0
  0
SPLINE
  5
481
100
AcDbEntity
  8
0
100
AcDbSpline
 62
7
  6
CONTINUOUS
 70
0
 71
3
 72
32
 73
28
 74
0
 42
0.0000001
 43
0.0000001
 44
0.0000000001
 40
0.0
 40
0.0
 40
0.0
 40
0.0
 40
0.0313073013
 40
0.06262134
 40
0.0939476054
 40
0.1252888862
 40
0.1879985687
 40
0.2507601481
 40
0.3135589645
 40
0.3763758255
 40
0.4391714753
 40
0.4705560783
 40
0.5019191652
 40
0.533257722
 40
0.5645711527
 40
0.595858274
 40
0.6271170989
 40
0.6895228608
 40
0.7517945543
 40
0.7828917251
 40
0.8139620548
 40
0.8450092626
 40
0.8760362589
 40
0.9070456438
 40
0.9380402079
 40
0.9690234342
 40
1.0
 40
1.0
 40
1.0
 40
1.0
 10
7.3270108696
 20
6.5703428161
 30
0.0
 10
7.3270108696
 20
6.5754264244
 30
0.0
 10
7.3267466794
 20
6.5855966644
 30
0.0
 10
7.3255700523
 20
6.6008123997
 30
0.0
 10
7.3236251759
 20
6.6159553443
 30
0.0
 10
7.3200242059
 20
6.6359998403
 30
0.0
 10
7.3136603643
 20
6.6607011981
 30
0.0
 10
7.3031495014
 20
6.689459559
 30
0.0
 10
7.2898570161
 20
6.7170632954
 30
0.0
 10
7.2739655767
 20
6.7432594077
 30
0.0
 10
7.2586962315
 20
6.7637265401
 30
0.0
 10
7.2453586365
 20
6.7791517675
 30
0.0
 10
7.2348159385
 20
6.7902172878
 30
0.0
 10
7.2237557719
 20
6.8007483832
 30
0.0
 10
7.2122085595
 20
6.8107240457
 30
0.0
 10
7.2002041639
 20
6.8201240426
 30
0.0
 10
7.1836411948
 20
6.8318539673
 30
0.0
 10
7.1619407094
 20
6.8449817929
 30
0.0
 10
7.1390908648
 20
6.8559310868
 30
0.0
 10
7.1202641184
 20
6.863287981
 30
0.0
 10
7.1059059099
 20
6.8680976125
 30
0.0
 10
7.0913402487
 20
6.8721935039
 30
0.0
 10
7.0766009733
 20
6.8755686513
 30
0.0
 10
7.0617224437
 20
6.878215851
 30
0.0
 10
7.0467387163
 20
6.8801279235
 30
0.0
 10
7.0316845134
 20
6.8812976511
 30
0.0
 10
7.0216225726
 20
6.8815777605
 30
0.0
 10
7.0165926876
 20
6.8815916662
 30
0.0
  0
SPLINE
  5
482
100
AcDbEntity
  8
0
100
AcDbSpline
 62
7
  6
CONTINUOUS
 70
0
 71
3
 72
50
 73
46
 74
0
 42
0.0000001
 43
0.0000001
 44
0.0000000001
 40
0.0
 40
0.0
 40
0.0
 40
0.0
 40
0.0979242772
 40
0.1948726405
 40
0.2899135846
 40
0.3821340447
 40
0.4706383941
 40
0.5546255281
 40
0.6333400556
 40
0.7060214315
 40
0.7398608125
 40
0.7719256743
 40
0.8021497845
 40
0.8304661305
 40
0.8568079659
 40
0.8811075622
 40
0.9032964297
 40
0.9233037838
 40
0.9410655057
 40
0.9490923577
 40
0.9565450255
 40
0.9634202782
 40
0.969714864
 40
0.9754254818
 40
0.9805488248
 40
0.9850815873
 40
0.9890204648
 40
0.9923622106
 40
0.9938081809
 40
0.9951036974
 40
0.9962483694
 40
0.9972417667
 40
0.9980834161
 40
0.9987728419
 40
0.9990603225
 40
0.9993095689
 40
0.9995205217
 40
0.9996931306
 40
0.999827384
 40
0.999880127
 40
0.9999232808
 40
0.9999568451
 40
0.9999808199
 40
0.9999952049
 40
1.0
 40
1.0
 40
1.0
 40
1.0
 10
6.4957608696
 20
6.5703428161
 30
0.0
 10
6.4957608696
 20
6.5601831775
 30
0.0
 10
6.4957551913
 20
6.5399651512
 30
0.0
 10
6.4957347524
 20
6.5098866386
 30
0.0
 10
6.4957080323
 20
6.4803999023
 30
0.0
 10
6.4956807386
 20
6.4517892329
 30
0.0
 10
6.4956580315
 20
6.424325392
 30
0.0
 10
6.495641797
 20
6.3982627864
 30
0.0
 10
6.4956334542
 20
6.3738418097
 30
0.0
 10
6.4956339812
 20
6.3546236582
 30
0.0
 10
6.4956391867
 20
6.3402454084
 30
0.0
 10
6.4956449105
 20
6.3302720984
 30
0.0
 10
6.4956522769
 20
6.3208718042
 30
0.0
 10
6.4956610367
 20
6.3120652753
 30
0.0
 10
6.4956709091
 20
6.3038734159
 30
0.0
 10
6.4956815928
 20
6.2963172837
 30
0.0
 10
6.4956927969
 20
6.2894183551
 30
0.0
 10
6.4957041995
 20
6.283197732
 30
0.0
 10
6.4957138473
 20
6.2784464167
 30
0.0
 10
6.4957212916
 20
6.2749976477
 30
0.0
 10
6.4957264782
 20
6.272678347
 30
0.0
 10
6.4957314256
 20
6.2705387688
 30
0.0
 10
6.4957360975
 20
6.268579928
 30
0.0
 10
6.4957404583
 20
6.2668028475
 30
0.0
 10
6.4957444709
 20
6.2652085559
 30
0.0
 10
6.4957481037
 20
6.2637980818
 30
0.0
 10
6.495751327
 20
6.2625724479
 30
0.0
 10
6.4957537517
 20
6.2616670675
 30
0.0
 10
6.4957554646
 20
6.2610359347
 30
0.0
 10
6.4957565675
 20
6.2606327475
 30
0.0
 10
6.4957575491
 20
6.2602765145
 30
0.0
 10
6.4957584066
 20
6.25996737
 30
0.0
 10
6.4957591379
 20
6.2597054571
 30
0.0
 10
6.4957596678
 20
6.2595167828
 30
0.0
 10
6.4957600268
 20
6.25938957
 30
0.0
 10
6.4957602458
 20
6.2593119986
 30
0.0
 10
6.4957604328
 20
6.259246345
 30
0.0
 10
6.4957605826
 20
6.2591926222
 30
0.0
 10
6.4957606947
 20
6.2591553128
 30
0.0
 10
6.4957607534
 20
6.2591314355
 30
0.0
 10
6.4957608108
 20
6.2591180025
 30
0.0
 10
6.4957607911
 20
6.2591075597
 30
0.0
 10
6.4957609243
 20
6.2591000884
 30
0.0
 10
6.4957607407
 20
6.2590956272
 30
0.0
 10
6.4957609497
 20
6.2590936206
 30
0.0
 10
6.4957608676
 20
6.25909313
 30
0.0
  0
SPLINE
  5
483
100
AcDbEntity
  8
0
100
AcDbSpline
 62
7
  6
CONTINUOUS
 70
0
 71
3
 72
21
 73
17
 74
0
 42
0.0000001
 43
0.0000001
 44
0.0000000001
 40
0.0
 40
0.0
 40
0.0
 40
0.0
 40
0.0406811986
 40
0.0825095701
 40
0.126488853
 40
0.1734224626
 40
0.2238644346
 40
0.2781431553
 40
0.3363892267
 40
0.3985704628
 40
0.4645226173
 40
0.5339747591
 40
0.6065697281
 40
0.6818809224
 40
0.8386302013
 40
1.0
 40
1.0
 40
1.0
 40
1.0
 10
2.2057608696
 20
6.2853428161
 30
0.0
 10
2.2057608696
 20
6.285178675
 30
0.0
 10
2.2057276125
 20
6.2848448928
 30
0.0
 10
2.2055797643
 20
6.284353501
 30
0.0
 10
2.2053363245
 20
6.2838735955
 30
0.0
 10
2.2050008475
 20
6.2834098654
 30
0.0
 10
2.2045771594
 20
6.2829661375
 30
0.0
 10
2.204069574
 20
6.2825461152
 30
0.0
 10
2.2034829453
 20
6.2821533868
 30
0.0
 10
2.2028227961
 20
6.2817914336
 30
0.0
 10
2.202095329
 20
6.2814635541
 30
0.0
 10
2.201307408
 20
6.2811728053
 30
0.0
 10
2.2004664826
 20
6.2809219097
 30
0.0
 10
2.1992693944
 20
6.2806400596
 30
0.0
 10
2.1976963437
 20
6.280405152
 30
0.0
 10
2.1964119668
 20
6.2803428161
 30
0.0
 10
2.1957608696
 20
6.2803428161
 30
0.0
  0
SPLINE
  5
484
100
AcDbEntity
  8
0
100
AcDbSpline
 62
7
  6
CONTINUOUS
 70
0
 71
3
 72
21
 73
17
 74
0
 42
0.0000001
 43
0.0000001
 44
0.0000000001
 40
0.0
 40
0.0
 40
0.0
 40
0.0
 40
0.0406811986
 40
0.0825095701
 40
0.126488853
 40
0.1734224626
 40
0.2238644346
 40
0.2781431553
 40
0.3363892267
 40
0.3985704628
 40
0.4645226173
 40
0.5339747591
 40
0.6065697281
 40
0.6818809224
 40
0.8386302013
 40
1.0
 40
1.0
 40
1.0
 40
1.0
 10
2.2057608696
 20
6.5653428161
 30
0.0
 10
2.2057608696
 20
6.565178675
 30
0.0
 10
2.2057276125
 20
6.5648448928
 30
0.0
 10
2.2055797643
 20
6.564353501
 30
0.0
 10
2.2053363245
 20
6.5638735955
 30
0.0
 10
2.2050008475
 20
6.5634098654
 30
0.0
 10
2.2045771594
 20
6.5629661375
 30
0.0
 10
2.204069574
 20
6.5625461152
 30
0.0
 10
2.2034829453
 20
6.5621533868
 30
0.0
 10
2.2028227961
 20
6.5617914336
 30
0.0
 10
2.202095329
 20
6.5614635541
 30
0.0
 10
2.201307408
 20
6.5611728053
 30
0.0
 10
2.2004664826
 20
6.5609219097
 30
0.0
 10
2.1992693944
 20
6.5606400596
 30
0.0
 10
2.1976963437
 20
6.560405152
 30
0.0
 10
2.1964119668
 20
6.5603428161
 30
0.0
 10
2.1957608696
 20
6.5603428161
 30
0.0
  0
SPLINE
  5
485
100
AcDbEntity
  8
0
100
AcDbSpline
 62
7
  6
CONTINUOUS
 70
0
 71
3
 72
21
 73
17
 74
0
 42
0.0000001
 43
0.0000001
 44
0.0000000001
 40
0.0
 40
0.0
 40
0.0
 40
0.0
 40
0.0406811986
 40
0.0825095701
 40
0.126488853
 40
0.1734224626
 40
0.2238644346
 40
0.2781431553
 40
0.3363892267
 40
0.3985704628
 40
0.4645226173
 40
0.5339747591
 40
0.6065697281
 40
0.6818809224
 40
0.8386302013
 40
1.0
 40
1.0
 40
1.0
 40
1.0
 10
2.2057608696
 20
6.5753428161
 30
0.0
 10
2.2057608696
 20
6.5755069572
 30
0.0
 10
2.2057276125
 20
6.5758407395
 30
0.0
 10
2.2055797643
 20
6.5763321313
 30
0.0
 10
2.2053363245
 20
6.5768120367
 30
0.0
 10
2.2050008475
 20
6.5772757669
 30
0.0
 10
2.2045771594
 20
6.5777194947
 30
0.0
 10
2.204069574
 20
6.578139517
 30
0.0
 10
2.2034829453
 20
6.5785322454
 30
0.0
 10
2.2028227961
 20
6.5788941987
 30
0.0
 10
2.202095329
 20
6.5792220781
 30
0.0
 10
2.201307408
 20
6.579512827
 30
0.0
 10
2.2004664826
 20
6.5797637225
 30
0.0
 10
2.1992693944
 20
6.5800455726
 30
0.0
 10
2.1976963437
 20
6.5802804803
 30
0.0
 10
2.1964119668
 20
6.5803428161
 30
0.0
 10
2.1957608696
 20
6.5803428161
 30
0.0
  0
SPLINE
  5
486
100
AcDbEntity
  8
0
100
AcDbSpline
 62
7
  6
CONTINUOUS
 70
0
 71
3
 72
21
 73
17
 74
0
 42
0.0000001
 43
0.0000001
 44
0.0000000001
 40
0.0
 40
0.0
 40
0.0
 40
0.0
 40
0.0406811986
 40
0.0825095701
 40
0.126488853
 40
0.1734224626
 40
0.2238644346
 40
0.2781431553
 40
0.3363892267
 40
0.3985704628
 40
0.4645226173
 40
0.5339747591
 40
0.6065697281
 40
0.6818809224
 40
0.8386302013
 40
1.0
 40
1.0
 40
1.0
 40
1.0
 10
2.2057608696
 20
6.8553428161
 30
0.0
 10
2.2057608696
 20
6.8555069572
 30
0.0
 10
2.2057276125
 20
6.8558407395
 30
0.0
 10
2.2055797643
 20
6.8563321313
 30
0.0
 10
2.2053363245
 20
6.8568120367
 30
0.0
 10
2.2050008475
 20
6.8572757669
 30
0.0
 10
2.2045771594
 20
6.8577194947
 30
0.0
 10
2.204069574
 20
6.858139517
 30
0.0
 10
2.2034829453
 20
6.8585322454
 30
0.0
 10
2.2028227961
 20
6.8588941987
 30
0.0
 10
2.202095329
 20
6.8592220781
 30
0.0
 10
2.201307408
 20
6.859512827
 30
0.0
 10
2.2004664826
 20
6.8597637225
 30
0.0
 10
2.1992693944
 20
6.8600455726
 30
0.0
 10
2.1976963437
 20
6.8602804803
 30
0.0
 10
2.1964119668
 20
6.8603428161
 30
0.0
 10
2.1957608696
 20
6.8603428161
 30
0.0
  0
SPLINE
  5
487
100
AcDbEntity
  8
0
100
AcDbSpline
 62
7
  6
CONTINUOUS
 70
0
 71
3
 72
41
 73
37
 74
0
 42
0.0000001
 43
0.0000001
 44
0.0000000001
 40
0.0
 40
0.0
 40
0.0
 40
0.0
 40
0.0312497452
 40
0.0468766299
 40
0.0625031432
 40
0.0937529326
 40
0.1250027087
 40
0.1406294171
 40
0.1562561317
 40
0.1875059075
 40
0.2187556895
 40
0.2500054801
 40
0.2812552741
 40
0.3125050762
 40
0.3437548707
 40
0.3750046676
 40
0.4062544533
 40
0.4375042521
 40
0.4687540427
 40
0.5000038243
 40
0.5312536173
 40
0.5625033828
 40
0.5937531423
 40
0.6250029169
 40
0.6562526748
 40
0.6875024267
 40
0.7187521997
 40
0.7500019516
 40
0.7812516904
 40
0.8125014562
 40
0.8437512019
 40
0.8750009373
 40
0.9062507124
 40
0.9375004664
 40
0.9687502169
 40
1.0
 40
1.0
 40
1.0
 40
1.0
 10
7.3513858696
 20
6.570342805
 30
0.0
 10
7.3513858258
 20
6.5771711527
 30
0.0
 10
7.3510701755
 20
6.587417747
 30
0.0
 10
7.350022207
 20
6.6010364876
 30
0.0
 10
7.3485578138
 20
6.6146172222
 30
0.0
 10
7.3459496132
 20
6.6314994333
 30
0.0
 10
7.3423155895
 20
6.6481909884
 30
0.0
 10
7.3388018868
 20
6.6613906953
 30
0.0
 10
7.3348869509
 20
6.6744769674
 30
0.0
 10
7.3292462124
 20
6.6906016664
 30
0.0
 10
7.3213081681
 20
6.7094997067
 30
0.0
 10
7.312232444
 20
6.7278788294
 30
0.0
 10
7.3020555546
 20
6.7456717099
 30
0.0
 10
7.29081564
 20
6.7628129055
 30
0.0
 10
7.2785545142
 20
6.7792391662
 30
0.0
 10
7.2653155335
 20
6.7948880605
 30
0.0
 10
7.2511476505
 20
6.809701242
 30
0.0
 10
7.2361030215
 20
6.8236230518
 30
0.0
 10
7.2202397968
 20
6.8366043677
 30
0.0
 10
7.2036154115
 20
6.8485955672
 30
0.0
 10
7.1862911493
 20
6.859551243
 30
0.0
 10
7.1683325457
 20
6.8694328731
 30
0.0
 10
7.1498036626
 20
6.8781988639
 30
0.0
 10
7.1307736538
 20
6.8858158202
 30
0.0
 10
7.1113146637
 20
6.8922584191
 30
0.0
 10
7.0914980799
 20
6.8974991583
 30
0.0
 10
7.0713982253
 20
6.9015184828
 30
0.0
 10
7.0510907141
 20
6.904304948
 30
0.0
 10
7.0306506483
 20
6.9058435458
 30
0.0
 10
7.0101547739
 20
6.9061271291
 30
0.0
 10
6.9896798679
 20
6.9051578906
 30
0.0
 10
6.9693027368
 20
6.9029360058
 30
0.0
 10
6.94909995
 20
6.8994711329
 30
0.0
 10
6.9291458975
 20
6.8947804886
 30
0.0
 10
6.909516669
 20
6.8888788176
 30
0.0
 10
6.896693635
 20
6.8841512406
 30
0.0
 10
6.8903618879
 20
6.8815947933
 30
0.0
  0
SPLINE
  5
488
100
AcDbEntity
  8
0
100
AcDbSpline
 62
7
  6
CONTINUOUS
 70
0
 71
3
 72
42
 73
38
 74
0
 42
0.0000001
 43
0.0000001
 44
0.0000000001
 40
0.0
 40
0.0
 40
0.0
 40
0.0
 40
0.0312496473
 40
0.06249929
 40
0.093748949
 40
0.1249985943
 40
0.1562482202
 40
0.1874978674
 40
0.2187475177
 40
0.2499971468
 40
0.2812468013
 40
0.2968734551
 40
0.3125001114
 40
0.3437497565
 40
0.374999426
 40
0.4062490877
 40
0.437498744
 40
0.4687484184
 40
0.4999980859
 40
0.5312477722
 40
0.5624974592
 40
0.5937471343
 40
0.6249968212
 40
0.6562464992
 40
0.6874961774
 40
0.7187458661
 40
0.749995539
 40
0.7812452179
 40
0.796871874
 40
0.8124985324
 40
0.8437481985
 40
0.8749978728
 40
0.8906245182
 40
0.906251183
 40
0.9375008512
 40
0.9687504232
 40
1.0
 40
1.0
 40
1.0
 40
1.0
 10
6.890368649
 20
6.2590884517
 30
0.0
 10
6.8967002787
 20
6.2565319296
 30
0.0
 10
6.9095233603
 20
6.2518048399
 30
0.0
 10
6.9291527439
 20
6.2459046027
 30
0.0
 10
6.9491062729
 20
6.241212812
 30
0.0
 10
6.9693089411
 20
6.2377482812
 30
0.0
 10
6.9896860168
 20
6.2355280826
 30
0.0
 10
7.0101606406
 20
6.2345586086
 30
0.0
 10
7.0306563911
 20
6.2348423533
 30
0.0
 10
7.0510958761
 20
6.2363814356
 30
0.0
 10
7.0680200215
 20
6.2387029894
 30
0.0
 10
7.0814532628
 20
6.2411771215
 30
0.0
 10
7.0948046496
 20
6.2440605183
 30
0.0
 10
7.1113192145
 20
6.2484293336
 30
0.0
 10
7.130777875
 20
6.2548712417
 30
0.0
 10
7.1498075468
 20
6.2624887255
 30
0.0
 10
7.1683361736
 20
6.2712545692
 30
0.0
 10
7.1862954566
 20
6.281134601
 30
0.0
 10
7.2036181334
 20
6.2920924519
 30
0.0
 10
7.2202418535
 20
6.3040840556
 30
0.0
 10
7.2361057515
 20
6.3170642357
 30
0.0
 10
7.2511493518
 20
6.3309868373
 30
0.0
 10
7.2653175997
 20
6.3457993206
 30
0.0
 10
7.2785560661
 20
6.3614484073
 30
0.0
 10
7.2908163273
 20
6.3778749718
 30
0.0
 10
7.3020566641
 20
6.3950156929
 30
0.0
 10
7.3122332248
 20
6.4128081921
 30
0.0
 10
7.319796798
 20
6.4281250876
 30
0.0
 10
7.3252778156
 20
6.4406363537
 30
0.0
 10
7.3303743038
 20
6.4533091677
 30
0.0
 10
7.3360147731
 20
6.4694334712
 30
0.0
 10
7.3406605409
 20
6.4858719588
 30
0.0
 10
7.3437697357
 20
6.4991726127
 30
0.0
 10
7.3464713798
 20
6.5125619276
 30
0.0
 10
7.3490790889
 20
6.5294445252
 30
0.0
 10
7.3509639215
 20
6.5498543015
 30
0.0
 10
7.3513857544
 20
6.5635145454
 30
0.0
 10
7.3513858697
 20
6.570342805
 30
0.0
  0
SPLINE
  5
489
100
AcDbEntity
  8
0
100
AcDbSpline
 62
7
  6
CONTINUOUS
 70
0
 71
3
 72
25
 73
21
 74
0
 42
0.0000001
 43
0.0000001
 44
0.0000000001
 40
0.0
 40
0.0
 40
0.0
 40
0.0
 40
0.0624989319
 40
0.1249978815
 40
0.1874969416
 40
0.2499960676
 40
0.3124952372
 40
0.3749944141
 40
0.4374935127
 40
0.4999926097
 40
0.5624918008
 40
0.6249910155
 40
0.6874902565
 40
0.7499894354
 40
0.7812425389
 40
0.8124957116
 40
0.8437488335
 40
0.8750019429
 40
0.9375009705
 40
1.0
 40
1.0
 40
1.0
 40
1.0
 10
5.3091798662
 20
6.67363372
 30
0.0
 10
5.3070730184
 20
6.6795718711
 30
0.0
 10
5.3024941102
 20
6.6913223037
 30
0.0
 10
5.2945551936
 20
6.7084892374
 30
0.0
 10
5.2855878732
 20
6.7251425857
 30
0.0
 10
5.2756333616
 20
6.7412249782
 30
0.0
 10
5.2647317547
 20
6.7566810772
 30
0.0
 10
5.2529225458
 20
6.7714553424
 30
0.0
 10
5.2402451661
 20
6.7854919779
 30
0.0
 10
5.226738503
 20
6.7987327147
 30
0.0
 10
5.212455583
 20
6.8111317556
 30
0.0
 10
5.1974556911
 20
6.8226530071
 30
0.0
 10
5.1817947477
 20
6.833257576
 30
0.0
 10
5.1682379408
 20
6.8412998657
 30
0.0
 10
5.1571191839
 20
6.8472356715
 30
0.0
 10
5.148648938
 20
6.8514344922
 30
0.0
 10
5.140055313
 20
6.8553746635
 30
0.0
 10
5.1284430368
 20
6.8602754757
 30
0.0
 10
5.1136554184
 20
6.8657331457
 30
0.0
 10
5.101581276
 20
6.8693721796
 30
0.0
 10
5.0954961119
 20
6.8710066054
 30
0.0
  0
SPLINE
  5
48A
100
AcDbEntity
  8
0
100
AcDbSpline
 62
7
  6
CONTINUOUS
 70
0
 71
3
 72
32
 73
28
 74
0
 42
0.0000001
 43
0.0000001
 44
0.0000000001
 40
0.0
 40
0.0
 40
0.0
 40
0.0
 40
0.0309766504
 40
0.0619588548
 40
0.0929515487
 40
0.1239584771
 40
0.154982693
 40
0.1860270556
 40
0.2170947271
 40
0.2481896673
 40
0.3104586696
 40
0.3728637331
 40
0.4041227856
 40
0.4354104381
 40
0.4667246447
 40
0.4980641662
 40
0.5294283553
 40
0.560814162
 40
0.6236124207
 40
0.6864319834
 40
0.7492334208
 40
0.8119973539
 40
0.8747088907
 40
0.906050887
 40
0.9373777403
 40
0.9686922673
 40
1.0
 40
1.0
 40
1.0
 40
1.0
 10
5.3270095905
 20
6.5712201233
 30
0.0
 10
5.3269949263
 20
6.5762494782
 30
0.0
 10
5.3267133685
 20
6.5863101409
 30
0.0
 10
5.3255416158
 20
6.6013620978
 30
0.0
 10
5.3236276718
 20
6.616343071
 30
0.0
 10
5.3209787524
 20
6.6312184696
 30
0.0
 10
5.3176020355
 20
6.6459543687
 30
0.0
 10
5.3135047227
 20
6.6605165399
 30
0.0
 10
5.3086938185
 20
6.6748712768
 30
0.0
 10
5.301335352
 20
6.6936937482
 30
0.0
 10
5.2903845349
 20
6.7165388023
 30
0.0
 10
5.2772559628
 20
6.738235018
 30
0.0
 10
5.2655257389
 20
6.754795105
 30
0.0
 10
5.2561256134
 20
6.7667976271
 30
0.0
 10
5.2461499664
 20
6.7783431653
 30
0.0
 10
5.2356190221
 20
6.7894018387
 30
0.0
 10
5.2245537908
 20
6.7999432198
 30
0.0
 10
5.209129117
 20
6.8132793132
 30
0.0
 10
5.1886630248
 20
6.8285471938
 30
0.0
 10
5.1624686319
 20
6.8444375565
 30
0.0
 10
5.1348669982
 20
6.8577296366
 30
0.0
 10
5.1061110788
 20
6.868240769
 30
0.0
 10
5.0814118717
 20
6.8746051629
 30
0.0
 10
5.0613691602
 20
6.8782065742
 30
0.0
 10
5.0462276147
 20
6.8801517374
 30
0.0
 10
5.0310132954
 20
6.8813285706
 30
0.0
 10
5.0208440004
 20
6.8815928161
 30
0.0
 10
5.0157608696
 20
6.8815928161
 30
0.0
  0
SPLINE
  5
48B
100
AcDbEntity
  8
0
100
AcDbSpline
 62
7
  6
CONTINUOUS
 70
0
 71
3
 72
21
 73
17
 74
0
 42
0.0000001
 43
0.0000001
 44
0.0000000001
 40
0.0
 40
0.0
 40
0.0
 40
0.0
 40
0.0406811986
 40
0.0825095701
 40
0.126488853
 40
0.1734224626
 40
0.2238644346
 40
0.2781431553
 40
0.3363892267
 40
0.3985704628
 40
0.4645226173
 40
0.5339747591
 40
0.6065697281
 40
0.6818809224
 40
0.8386302013
 40
1.0
 40
1.0
 40
1.0
 40
1.0
 10
1.9557608696
 20
6.8553428161
 30
0.0
 10
1.9557608696
 20
6.8555069572
 30
0.0
 10
1.9557941266
 20
6.8558407395
 30
0.0
 10
1.9559419748
 20
6.8563321313
 30
0.0
 10
1.9561854146
 20
6.8568120367
 30
0.0
 10
1.9565208916
 20
6.8572757669
 30
0.0
 10
1.9569445798
 20
6.8577194947
 30
0.0
 10
1.9574521651
 20
6.858139517
 30
0.0
 10
1.9580387938
 20
6.8585322454
 30
0.0
 10
1.958698943
 20
6.8588941987
 30
0.0
 10
1.9594264102
 20
6.8592220781
 30
0.0
 10
1.9602143311
 20
6.859512827
 30
0.0
 10
1.9610552565
 20
6.8597637225
 30
0.0
 10
1.9622523448
 20
6.8600455726
 30
0.0
 10
1.9638253954
 20
6.8602804803
 30
0.0
 10
1.9651097723
 20
6.8603428161
 30
0.0
 10
1.9657608696
 20
6.8603428161
 30
0.0
  0
SPLINE
  5
48C
100
AcDbEntity
  8
0
100
AcDbSpline
 62
7
  6
CONTINUOUS
 70
0
 71
3
 72
21
 73
17
 74
0
 42
0.0000001
 43
0.0000001
 44
0.0000000001
 40
0.0
 40
0.0
 40
0.0
 40
0.0
 40
0.0406811986
 40
0.0825095701
 40
0.126488853
 40
0.1734224626
 40
0.2238644346
 40
0.2781431553
 40
0.3363892267
 40
0.3985704628
 40
0.4645226173
 40
0.5339747591
 40
0.6065697281
 40
0.6818809224
 40
0.8386302013
 40
1.0
 40
1.0
 40
1.0
 40
1.0
 10
1.9557608696
 20
6.5753428161
 30
0.0
 10
1.9557608696
 20
6.5755069572
 30
0.0
 10
1.9557941266
 20
6.5758407395
 30
0.0
 10
1.9559419748
 20
6.5763321313
 30
0.0
 10
1.9561854146
 20
6.5768120367
 30
0.0
 10
1.9565208916
 20
6.5772757669
 30
0.0
 10
1.9569445798
 20
6.5777194947
 30
0.0
 10
1.9574521651
 20
6.578139517
 30
0.0
 10
1.9580387938
 20
6.5785322454
 30
0.0
 10
1.958698943
 20
6.5788941987
 30
0.0
 10
1.9594264102
 20
6.5792220781
 30
0.0
 10
1.9602143311
 20
6.579512827
 30
0.0
 10
1.9610552565
 20
6.5797637225
 30
0.0
 10
1.9622523448
 20
6.5800455726
 30
0.0
 10
1.9638253954
 20
6.5802804803
 30
0.0
 10
1.9651097723
 20
6.5803428161
 30
0.0
 10
1.9657608696
 20
6.5803428161
 30
0.0
  0
SPLINE
  5
48D
100
AcDbEntity
  8
0
100
AcDbSpline
 62
7
  6
CONTINUOUS
 70
0
 71
3
 72
21
 73
17
 74
0
 42
0.0000001
 43
0.0000001
 44
0.0000000001
 40
0.0
 40
0.0
 40
0.0
 40
0.0
 40
0.0406811986
 40
0.0825095701
 40
0.126488853
 40
0.1734224626
 40
0.2238644346
 40
0.2781431553
 40
0.3363892267
 40
0.3985704628
 40
0.4645226173
 40
0.5339747591
 40
0.6065697281
 40
0.6818809223
 40
0.8386302013
 40
1.0
 40
1.0
 40
1.0
 40
1.0
 10
1.9557608696
 20
6.5653428161
 30
0.0
 10
1.9557608696
 20
6.565178675
 30
0.0
 10
1.9557941266
 20
6.5648448928
 30
0.0
 10
1.9559419748
 20
6.564353501
 30
0.0
 10
1.9561854146
 20
6.5638735955
 30
0.0
 10
1.9565208916
 20
6.5634098654
 30
0.0
 10
1.9569445798
 20
6.5629661375
 30
0.0
 10
1.9574521651
 20
6.5625461152
 30
0.0
 10
1.9580387938
 20
6.5621533868
 30
0.0
 10
1.958698943
 20
6.5617914336
 30
0.0
 10
1.9594264102
 20
6.5614635541
 30
0.0
 10
1.9602143311
 20
6.5611728053
 30
0.0
 10
1.9610552565
 20
6.5609219097
 30
0.0
 10
1.9622523448
 20
6.5606400596
 30
0.0
 10
1.9638253954
 20
6.560405152
 30
0.0
 10
1.9651097723
 20
6.5603428161
 30
0.0
 10
1.9657608696
 20
6.5603428161
 30
0.0
  0
SPLINE
  5
48E
100
AcDbEntity
  8
0
100
AcDbSpline
 62
7
  6
CONTINUOUS
 70
0
 71
3
 72
21
 73
17
 74
0
 42
0.0000001
 43
0.0000001
 44
0.0000000001
 40
0.0
 40
0.0
 40
0.0
 40
0.0
 40
0.0406811986
 40
0.0825095701
 40
0.126488853
 40
0.1734224626
 40
0.2238644346
 40
0.2781431553
 40
0.3363892267
 40
0.3985704628
 40
0.4645226173
 40
0.5339747591
 40
0.6065697281
 40
0.6818809224
 40
0.8386302013
 40
1.0
 40
1.0
 40
1.0
 40
1.0
 10
1.9557608696
 20
6.2853428161
 30
0.0
 10
1.9557608696
 20
6.285178675
 30
0.0
 10
1.9557941266
 20
6.2848448928
 30
0.0
 10
1.9559419748
 20
6.284353501
 30
0.0
 10
1.9561854146
 20
6.2838735955
 30
0.0
 10
1.9565208916
 20
6.2834098654
 30
0.0
 10
1.9569445798
 20
6.2829661375
 30
0.0
 10
1.9574521651
 20
6.2825461152
 30
0.0
 10
1.9580387938
 20
6.2821533868
 30
0.0
 10
1.958698943
 20
6.2817914336
 30
0.0
 10
1.9594264102
 20
6.2814635541
 30
0.0
 10
1.9602143311
 20
6.2811728053
 30
0.0
 10
1.9610552565
 20
6.2809219097
 30
0.0
 10
1.9622523448
 20
6.2806400596
 30
0.0
 10
1.9638253954
 20
6.280405152
 30
0.0
 10
1.9651097723
 20
6.2803428161
 30
0.0
 10
1.9657608696
 20
6.2803428161
 30
0.0
  0
LINE
  5
48F
100
AcDbEntity
  8
0
100
AcDbLine
 62
7
  6
CONTINUOUS
 10
6.4662929315
 20
6.5703428235
 11
6.4662975409
 21
6.2347204892
  0
ENDSEC
  0
SECTION
  2
OBJECTS
  0
DICTIONARY
  5
C
100
AcDbDictionary
280
0
281
1
  3
ACAD_GROUP
350
D
  3
ACAD_MLINESTYLE
350
17
  3
ACAD_LAYOUT
350
1A
  3
ACAD_PLOTSETTINGS
350
19
  3
ACAD_PLOTSTYLENAME
350
E
  0
DICTIONARY
  5
D
102
{ACAD_REACTORS
330
C
102
}
100
AcDbDictionary
280
0
281
1
  0
ACDBDICTIONARYWDFLT
  5
E
102
{ACAD_REACTORS
330
C
102
}
100
AcDbDictionary
281
1
  3
Normal
350
F
100
AcDbDictionaryWithDefault
340
F
  0
DICTIONARY
  5
17
102
{ACAD_REACTORS
330
C
102
}
100
AcDbDictionary
280
0
281
1
  3
Standard
350
18
  0
DICTIONARY
  5
19
102
{ACAD_REACTORS
330
C
102
}
100
AcDbDictionary
281
1
  0
DICTIONARY
  5
1A
102
{ACAD_REACTORS
330
C
102
}
100
AcDbDictionary
281
1
  3
Model
350
490
  3
Layout1
350
491
  0
ACDBPLACEHOLDER
  5
F
102
{ACAD_REACTORS
330
E
102
}
  0
MLINESTYLE
  5
18
102
{ACAD_REACTORS
330
17
102
}
100
AcDbMlineStyle
  2
STANDARD
 70
0
  3

 62
256
 51
90.0
 52
90.0
 71
2
 49
0.5
 62
256
  6
BYLAYER
 49
-0.5
 62
256
  6
BYLAYER
  0
LAYOUT
  5
490
102
{ACAD_REACTORS
330
1A
102
}
100
AcDbPlotSettings
  1

  2
none_device
  4
ANSI_A_(11.00_x_8.50_Inches)
  6

 40
0.0
 41
0.0
 42
0.0
 43
0.0
 44
279.4
 45
215.9
 46
0.0
 47
0.0
 48
0.0
 49
0.0
140
0.0
141
0.0
142
1.0
143
1.0
 70
1024
 72
0
 73
0
 74
0
  7

 75
0
147
1.0
148
0.0
149
0.0
100
AcDbLayout
  1
Model
 70
0
 71
0
 10
0.0
 20
0.0
 11
11.0
 21
8.5
 12
0.0
 22
0.0
 32
0.0
 14
0.0
 24
0.0
 34
0.0
 15
0.0
 25
0.0
 35
0.0
146
0.0
 13
0.0
 23
0.0
 33
0.0
 16
1.0
 26
0.0
 36
0.0
 17
0.0
 27
1.0
 37
0.0
 76
0
330
202
345
0
346
0
  0
LAYOUT
  5
491
102
{ACAD_REACTORS
330
1A
102
}
100
AcDbPlotSettings
  1

  2
none_device
  4
ANSI_A_(11.00_x_8.50_Inches)
  6

 40
0.0
 41
0.0
 42
0.0
 43
0.0
 44
279.4
 45
215.9
 46
0.0
 47
0.0
 48
0.0
 49
0.0
140
0.0
141
0.0
142
1.0
143
1.0
 70
0
 72
0
 73
0
 74
0
  7

 75
0
147
1.0
148
0.0
149
0.0
100
AcDbLayout
  1
Layout1
 70
0
 71
1
 10
0.0
 20
0.0
 11
11.0
 21
8.5
 12
0.0
 22
0.0
 32
0.0
 14
0.0
 24
0.0
 34
0.0
 15
0.0
 25
0.0
 35
0.0
146
0.0
 13
0.0
 23
0.0
 33
0.0
 16
1.0
 26
0.0
 36
0.0
 17
0.0
 27
1.0
 37
0.0
 76
0
330
203
345
0
346
0
  0
ENDSEC
  0
EOF
