999
DXF file: 3220-5413_front.dxf
999
Pro/ENGINEER 2018400 by Parametric Technology Corporation
  0
SECTION
  2
HEADER
  9
$ACADVER
  1
AC1027
  9
$DWGCODEPAGE
  3
ANSI_1252
  9
$EXTMAX
 10
11.0
 20
8.5
 30
0.0
  9
$EXTMIN
 10
0.0
 20
0.0
 30
0.0
  9
$LIMMIN
 10
0.0
 20
0.0
  9
$LIMMAX
 10
11.0
 20
8.5
  9
$VIEWCTR
 10
5.5
 20
4.25
  9
$VIEWSIZE
 40
8.5
  9
$CLAYER
  8
0
  9
$LTSCALE
 40
0.605
  9
$CELTYPE
  6
BYLAYER
  9
$DIMSCALE
 40
1.0
  9
$DIMASZ
 40
0.1
  9
$DIMEXO
 40
0.0625
  9
$DIMDLI
 40
0.418
  9
$DIMEXE
 40
0.125
  9
$DIMCEN
 40
0.099
  9
$DIMLFAC
 40
1.0
  9
$DIMBLK
  1
_FILLED
  9
$DIMALT
 70
1
  9
$DIMALTD
 70
1
  9
$DIMALTTD
 70
2
  9
$DIMALTF
 40
25.4
  9
$DIMTXT
 40
0.08
  9
$DIMTOL
 70
1
  9
$DIMLIM
 70
0
  9
$DIMTFAC
 40
1.0
  9
$DIMTP
 40
0.01
  9
$DIMTM
 40
0.01
  9
$DIMGAP
 40
0.09
  9
$DIMDSEP
 70
46
  9
$AUNITS
 70
0
  9
$PDMODE
 70
3
  9
$PDSIZE
 40
0.3125
  9
$HANDSEED
  5
548
  9
$TILEMODE
 70
1
  9
$MEASUREMENT
 70
0
  9
$INSUNITS
 70
1
  0
ENDSEC
  0
SECTION
  2
CLASSES
  0
CLASS
  1
ACDBDICTIONARYWDFLT
  2
AcDbDictionaryWithDefault
  3
AutoCAD 2000
 90
0
 91
1
280
0
281
0
  0
CLASS
  1
ACDBPLACEHOLDER
  2
AcDbPlaceHolder
  3
AutoCAD 2000
 90
0
 91
1
280
0
281
0
  0
CLASS
  1
LAYOUT
  2
AcDbLayout
  3
AutoCAD 2000
 90
0
 91
0
280
0
281
0
  0
ENDSEC
  0
SECTION
  2
TABLES
  0
TABLE
  2
VPORT
  5
8
100
AcDbSymbolTable
 70
2
  0
VPORT
  5
1F4
100
AcDbSymbolTableRecord
100
AcDbViewportTableRecord
  2
*ACTIVE
 70
0
 10
0.0
 20
0.0
 11
1.0
 21
1.0
 12
5.5
 22
4.25
 13
0.0
 23
0.0
 14
1.0
 24
1.0
 15
0.0
 25
0.0
 16
0.0
 26
0.0
 36
1.0
 17
0.0
 27
0.0
 37
0.0
 40
8.5
 41
1.2941176471
 42
50.0
 43
0.0
 44
0.0
 50
0.0
 51
0.0
 71
0
 72
100
 73
1
 74
1
 75
0
 76
0
 77
0
 78
0
  0
ENDTAB
  0
TABLE
  2
LTYPE
  5
5
100
AcDbSymbolTable
 70
6
  0
LTYPE
  5
14
100
AcDbSymbolTableRecord
100
AcDbLinetypeTableRecord
  2
BYBLOCK
 70
0
  3

 72
65
 73
0
 40
0.0
  0
LTYPE
  5
15
100
AcDbSymbolTableRecord
100
AcDbLinetypeTableRecord
  2
BYLAYER
 70
0
  3

 72
65
 73
0
 40
0.0
  0
LTYPE
  5
16
100
AcDbSymbolTableRecord
100
AcDbLinetypeTableRecord
  2
CONTINUOUS
 70
64
  3
Solid line
 72
65
 73
0
 40
0.0
  0
LTYPE
  5
1F5
100
AcDbSymbolTableRecord
100
AcDbLinetypeTableRecord
  2
CENTER
 70
64
  3
____ _ ____ _ ____ _ ____ _ ____ _ ____ _ ____
 72
65
 73
4
 40
0.6
 49
0.375
 74
0
 49
-0.075
 74
0
 49
0.075
 74
0
 49
-0.075
 74
0
  0
LTYPE
  5
1F6
100
AcDbSymbolTableRecord
100
AcDbLinetypeTableRecord
  2
HIDDEN
 70
64
  3
- - - - - - - - - - - - - - - - - - - -
 72
65
 73
2
 40
0.2
 49
0.1
 74
0
 49
-0.1
 74
0
  0
LTYPE
  5
1F7
100
AcDbSymbolTableRecord
100
AcDbLinetypeTableRecord
  2
PHANTOM
 70
64
  3
_____ _ _ _____ _ _ _____ _ _ _____
 72
65
 73
6
 40
0.8
 49
0.45
 74
0
 49
-0.05
 74
0
 49
0.1
 74
0
 49
-0.05
 74
0
 49
0.1
 74
0
 49
-0.05
 74
0
  0
LTYPE
  5
1F8
100
AcDbSymbolTableRecord
100
AcDbLinetypeTableRecord
  2
DOT
 70
64
  3
. . . . . . . . . . . . . . . . . . . .
 72
65
 73
2
 40
0.2
 49
0.1
 74
0
 49
-0.1
 74
0
  0
LTYPE
  5
1F9
100
AcDbSymbolTableRecord
100
AcDbLinetypeTableRecord
  2
DASHED
 70
64
  3
- - - - - - - - - - - - - - - - - - - -
 72
65
 73
2
 40
0.2
 49
0.1
 74
0
 49
-0.1
 74
0
  0
ENDTAB
  0
TABLE
  2
LAYER
  5
2
100
AcDbSymbolTable
 70
36
  0
LAYER
  5
10
100
AcDbSymbolTableRecord
100
AcDbLayerTableRecord
  2
0
 70
0
 62
7
  6
CONTINUOUS
370
-3
390
F
  0
LAYER
  5
1FA
100
AcDbSymbolTableRecord
100
AcDbLayerTableRecord
  2
DEFAULT_1
 70
0
 62
7
  6
CENTER
370
-3
390
F
  0
LAYER
  5
1FB
100
AcDbSymbolTableRecord
100
AcDbLayerTableRecord
  2
DEFAULT_2
 70
0
 62
8
  6
HIDDEN
370
-3
390
F
  0
LAYER
  5
1FC
100
AcDbSymbolTableRecord
100
AcDbLayerTableRecord
  2
DEFAULT_3
 70
0
 62
7
  6
PHANTOM
370
-3
390
F
  0
LAYER
  5
1FD
100
AcDbSymbolTableRecord
100
AcDbLayerTableRecord
  2
DEFAULT_COORDINATE_SYSTEM
 70
0
 62
7
  6
CONTINUOUS
370
-3
390
F
  0
LAYER
  5
1FE
100
AcDbSymbolTableRecord
100
AcDbLayerTableRecord
  2
DEFAULT_DATUM_AXES
 70
0
 62
7
  6
CONTINUOUS
370
-3
390
F
  0
LAYER
  5
1FF
100
AcDbSymbolTableRecord
100
AcDbLayerTableRecord
  2
DEFAULT_DATUM_PLANES
 70
0
 62
7
  6
CONTINUOUS
370
-3
390
F
  0
ENDTAB
  0
TABLE
  2
STYLE
  5
3
100
AcDbSymbolTable
 70
1
  0
STYLE
  5
11
100
AcDbSymbolTableRecord
100
AcDbTextStyleTableRecord
  2
STANDARD
 70
0
 40
0.0
 41
0.8
 50
0.0
 71
0
 42
0.2
  3
txt
  4

  0
STYLE
  5
200
100
AcDbSymbolTableRecord
100
AcDbTextStyleTableRecord
  2
TEXTSTYLE_1
 70
0
 40
0.0
 41
0.8
 50
0.0
 71
0
 42
0.2
  3
gdt
  4

  0
ENDTAB
  0
TABLE
  2
VIEW
  5
6
100
AcDbSymbolTable
 70
0
  0
ENDTAB
  0
TABLE
  2
UCS
  5
7
100
AcDbSymbolTable
 70
0
  0
ENDTAB
  0
TABLE
  2
APPID
  5
9
100
AcDbSymbolTable
 70
1
  0
APPID
  5
201
100
AcDbSymbolTableRecord
100
AcDbRegAppTableRecord
  2
ACAD
 70
0
  0
ENDTAB
  0
TABLE
  2
BLOCK_RECORD
  5
1
100
AcDbSymbolTable
 70
0
  0
BLOCK_RECORD
  5
202
100
AcDbSymbolTableRecord
100
AcDbBlockTableRecord
  2
*Model_Space
  0
BLOCK_RECORD
  5
203
100
AcDbSymbolTableRecord
100
AcDbBlockTableRecord
  2
*Paper_Space
  0
BLOCK_RECORD
  5
204
100
AcDbSymbolTableRecord
100
AcDbBlockTableRecord
  2
_FILLED
  0
ENDTAB
  0
TABLE
  2
DIMSTYLE
  5
A
100
AcDbSymbolTable
 70
1
100
AcDbDimStyleTable
 71
0
  0
DIMSTYLE
105
205
100
AcDbSymbolTableRecord
100
AcDbDimStyleTableRecord
  2
STANDARD
 70
0
  3

  4

 40
1.0
 41
0.1
 42
0.0625
 43
0.38
 44
0.125
 45
0.0
 46
0.0
 47
0.01
 48
0.01
140
0.08
141
0.09
142
0.0
143
25.4
144
1.0
145
0.0
146
1.0
147
0.09
 71
1.0
 72
0.0
 73
1
 74
1
 75
0
 76
0
 77
0
 78
4
 79
1
170
1
171
1
172
0
173
0
174
0
175
0
176
0
177
0
178
0
270
2
179
2
271
2
272
2
273
2
274
2
275
0
280
0
281
0
282
0
283
1
284
4
285
0
286
0
287
3
288
0
340
11
278
46
341
204
342
204
343
204
344
204
  0
ENDTAB
  0
ENDSEC
  0
SECTION
  2
BLOCKS
  0
BLOCK
  5
20
100
AcDbEntity
  8
0
100
AcDbBlockBegin
  2
*Model_Space
 70
0
 10
0.0
 20
0.0
 30
0.0
  3
*Model_Space
  1

  0
ENDBLK
  5
21
100
AcDbEntity
  8
0
100
AcDbBlockEnd
  0
BLOCK
  5
1C
100
AcDbEntity
  8
0
100
AcDbBlockBegin
  2
*Paper_Space
 70
0
 10
0.0
 20
0.0
 30
0.0
  3
*Paper_Space
  1

  0
ENDBLK
  5
1D
100
AcDbEntity
  8
0
100
AcDbBlockEnd
  0
BLOCK
  5
206
100
AcDbEntity
  8
0
100
AcDbBlockBegin
  2
_FILLED
 70
64
 10
0.0
 20
0.0
  3
_FILLED
  1

  0
SOLID
  5
207
100
AcDbEntity
  8
0
  6
BYBLOCK
 62
0
100
AcDbTrace
 10
0.0
 20
0.0
 11
-1.0
 21
0.2
 12
-1.0
 22
-0.2
 13
-1.0
 23
-0.2
  0
ENDBLK
  5
208
100
AcDbEntity
  8
0
  6
BYBLOCK
 62
0
100
AcDbBlockEnd
  0
ENDSEC
  0
SECTION
  2
ENTITIES
  0
MTEXT
  5
209
100
AcDbEntity
  8
0
100
AcDbMText
 62
2
  6
CONTINUOUS
  7
STANDARD
 71
3
 72
1
 10
5.7421195652
 20
1.4374572981
 30
0.0
 11
1.0
 21
0.0
 31
0.0
 73
2
 44
0.9
  1
SCALE  .500
 40
0.08
 41
0.704
  0
LINE
  5
20A
100
AcDbEntity
  8
0
100
AcDbLine
 62
7
  6
CONTINUOUS
 10
0.0
 20
0.0
 11
0.0
 21
8.5
  0
LINE
  5
20B
100
AcDbEntity
  8
0
100
AcDbLine
 62
7
  6
CONTINUOUS
 10
0.0
 20
0.0
 11
11.0
 21
0.0
  0
LINE
  5
20C
100
AcDbEntity
  8
0
100
AcDbLine
 62
7
  6
CONTINUOUS
 10
0.0
 20
8.5
 11
11.0
 21
8.5
  0
LINE
  5
20D
100
AcDbEntity
  8
0
100
AcDbLine
 62
7
  6
CONTINUOUS
 10
11.0
 20
0.0
 11
11.0
 21
8.5
  0
LWPOLYLINE
  5
20E
100
AcDbEntity
  8
0
100
AcDbPolyline
 62
7
  6
CONTINUOUS
 90
36
 70
0
 10
0.6587958197
 20
3.0789903342
 10
0.6588027593
 20
3.0787000552
 10
0.6588054088
 20
3.0784218987
 10
0.6588040734
 20
3.0781440091
 10
0.658798717
 20
3.0778670834
 10
0.6587893477
 20
3.0775917443
 10
0.6587760389
 20
3.0773189929
 10
0.6587589007
 20
3.0770493951
 10
0.6587380905
 20
3.0767836478
 10
0.6587137822
 20
3.0765228588
 10
0.658686092
 20
3.0762675403
 10
0.6586551584
 20
3.0760181927
 10
0.6586212207
 20
3.0757758157
 10
0.6585844854
 20
3.0755408355
 10
0.6585451902
 20
3.0753137031
 10
0.6585037022
 20
3.0750953677
 10
0.658460302
 20
3.0748861103
 10
0.6584152788
 20
3.0746862894
 10
0.6583690932
 20
3.0744968647
 10
0.6583220815
 20
3.0743180667
 10
0.658274577
 20
3.0741500341
 10
0.6582271019
 20
3.0739934461
 10
0.6581800239
 20
3.0738483141
 10
0.6581337405
 20
3.0737146874
 10
0.6580888581
 20
3.0735931093
 10
0.6580458126
 20
3.0734835357
 10
0.658004938
 20
3.0733856348
 10
0.6579666936
 20
3.0732993542
 10
0.6579315057
 20
3.0732245104
 10
0.657899706
 20
3.073160694
 10
0.6578716266
 20
3.0731075005
 10
0.6578476439
 20
3.0730646006
 10
0.6578281436
 20
3.0730316591
 10
0.6578135106
 20
3.0730083149
 10
0.6578040819
 20
3.0729941062
 10
0.6578031821
 20
3.0729927988
  0
LINE
  5
20F
100
AcDbEntity
  8
0
100
AcDbLine
 62
7
  6
CONTINUOUS
 10
0.6722082374
 20
3.0072376656
 11
0.6722082374
 21
3.1576769307
  0
LINE
  5
210
100
AcDbEntity
  8
0
100
AcDbLine
 62
7
  6
CONTINUOUS
 10
0.6799859708
 20
3.0035231141
 11
0.6799859708
 21
3.1613914822
  0
LINE
  5
211
100
AcDbEntity
  8
0
100
AcDbLine
 62
7
  6
CONTINUOUS
 10
0.6938357258
 20
4.6354572981
 11
0.6938357258
 21
3.4759925241
  0
LINE
  5
212
100
AcDbEntity
  8
0
100
AcDbLine
 62
7
  6
CONTINUOUS
 10
0.6963357258
 20
3.0035231141
 11
0.6963357258
 21
3.1613914822
  0
LINE
  5
213
100
AcDbEntity
  8
0
100
AcDbLine
 62
7
  6
CONTINUOUS
 10
0.7038357258
 20
4.6454572981
 11
0.7038357258
 21
3.4759925241
  0
LINE
  5
214
100
AcDbEntity
  8
0
100
AcDbLine
 62
7
  6
CONTINUOUS
 10
0.7063357258
 20
2.9612072981
 11
0.7063357258
 21
3.2037072981
  0
LINE
  5
215
100
AcDbEntity
  8
0
100
AcDbLine
 62
7
  6
CONTINUOUS
 10
0.6554884979
 20
3.0369266563
 11
0.6564574977
 21
3.034545836
  0
LINE
  5
216
100
AcDbEntity
  8
0
100
AcDbLine
 62
7
  6
CONTINUOUS
 10
0.6564366759
 20
3.0345975219
 11
0.6571421108
 21
3.0328387012
  0
LINE
  5
217
100
AcDbEntity
  8
0
100
AcDbLine
 62
7
  6
CONTINUOUS
 10
0.6571194024
 20
3.0328955143
 11
0.6576141713
 21
3.0316456053
  0
LINE
  5
218
100
AcDbEntity
  8
0
100
AcDbLine
 62
7
  6
CONTINUOUS
 10
0.6575446164
 20
3.0318224831
 11
0.6579201393
 21
3.0308627702
  0
LINE
  5
219
100
AcDbEntity
  8
0
100
AcDbLine
 62
7
  6
CONTINUOUS
 10
0.6579136388
 20
3.0308795516
 11
0.6582250207
 21
3.0300719664
  0
LINE
  5
21A
100
AcDbEntity
  8
0
100
AcDbLine
 62
7
  6
CONTINUOUS
 10
0.6581837048
 20
3.030179844
 11
0.658381983
 21
3.0296591125
  0
LINE
  5
21B
100
AcDbEntity
  8
0
100
AcDbLine
 62
7
  6
CONTINUOUS
 10
0.6583705536
 20
3.0296892818
 11
0.6585265427
 21
3.0292737173
  0
LINE
  5
21C
100
AcDbEntity
  8
0
100
AcDbLine
 62
7
  6
CONTINUOUS
 10
0.6585140136
 20
3.0293072747
 11
0.6586309831
 21
3.0289909212
  0
LINE
  5
21D
100
AcDbEntity
  8
0
100
AcDbLine
 62
7
  6
CONTINUOUS
 10
0.6586219391
 20
3.0290154387
 11
0.6587079526
 21
3.0287792298
  0
LINE
  5
21E
100
AcDbEntity
  8
0
100
AcDbLine
 62
7
  6
CONTINUOUS
 10
0.6586988583
 20
3.0288044608
 11
0.6587734306
 21
3.028596505
  0
LINE
  5
21F
100
AcDbEntity
  8
0
100
AcDbLine
 62
7
  6
CONTINUOUS
 10
0.6587585813
 20
3.0286381512
 11
0.6588103604
 21
3.028491741
  0
LINE
  5
220
100
AcDbEntity
  8
0
100
AcDbLine
 62
7
  6
CONTINUOUS
 10
0.6588103604
 20
3.028491741
 11
0.6588539285
 21
3.0283662021
  0
LINE
  5
221
100
AcDbEntity
  8
0
100
AcDbLine
 62
7
  6
CONTINUOUS
 10
0.6588539285
 20
3.0283662021
 11
0.6588783486
 21
3.0282944726
  0
LINE
  5
222
100
AcDbEntity
  8
0
100
AcDbLine
 62
7
  6
CONTINUOUS
 10
0.6588783486
 20
3.0282944726
 11
0.6588989826
 21
3.0282327761
  0
LINE
  5
223
100
AcDbEntity
  8
0
100
AcDbLine
 62
7
  6
CONTINUOUS
 10
0.6588989826
 20
3.0282327761
 11
0.6589157784
 21
3.0281815272
  0
LWPOLYLINE
  5
224
100
AcDbEntity
  8
0
100
AcDbPolyline
 62
7
  6
CONTINUOUS
 90
3
 70
0
 10
0.6589157784
 20
3.0281815272
 10
0.6589287564
 20
3.0281410016
 10
0.6589337993
 20
3.0281249369
  0
LWPOLYLINE
  5
225
100
AcDbEntity
  8
0
100
AcDbPolyline
 62
7
  6
CONTINUOUS
 90
3
 70
0
 10
0.6589379029
 20
3.0281116754
 10
0.658940987
 20
3.028101554
 10
0.6589431672
 20
3.0280942791
  0
LINE
  5
226
100
AcDbEntity
  8
0
100
AcDbLine
 62
7
  6
CONTINUOUS
 10
0.6582233754
 20
3.0909329501
 11
0.658274577
 21
3.0907645621
  0
LINE
  5
227
100
AcDbEntity
  8
0
100
AcDbLine
 62
7
  6
CONTINUOUS
 10
0.6582695931
 20
3.0907815029
 11
0.6583220815
 21
3.0905965295
  0
LINE
  5
228
100
AcDbEntity
  8
0
100
AcDbLine
 62
7
  6
CONTINUOUS
 10
0.6583158441
 20
3.090619326
 11
0.6583690932
 21
3.0904177316
  0
LINE
  5
229
100
AcDbEntity
  8
0
100
AcDbLine
 62
7
  6
CONTINUOUS
 10
0.6583617906
 20
3.0904464782
 11
0.6584152788
 21
3.0902283069
  0
LINE
  5
22A
100
AcDbEntity
  8
0
100
AcDbLine
 62
7
  6
CONTINUOUS
 10
0.658406955
 20
3.0902636685
 11
0.658460302
 21
3.0900284859
  0
LINE
  5
22B
100
AcDbEntity
  8
0
100
AcDbLine
 62
7
  6
CONTINUOUS
 10
0.6584510351
 20
3.0900710776
 11
0.6585037022
 21
3.0898192286
  0
LWPOLYLINE
  5
22C
100
AcDbEntity
  8
0
100
AcDbPolyline
 62
7
  6
CONTINUOUS
 90
16
 70
0
 10
0.6584937343
 20
3.0898689476
 10
0.6585451902
 20
3.0896008932
 10
0.6585844854
 20
3.0893737607
 10
0.6586212207
 20
3.0891387806
 10
0.6586551584
 20
3.0888964036
 10
0.658686092
 20
3.0886470559
 10
0.6587137822
 20
3.0883917375
 10
0.6587380905
 20
3.0881309484
 10
0.6587589007
 20
3.0878652012
 10
0.6587760389
 20
3.0875956034
 10
0.6587893477
 20
3.087322852
 10
0.658798717
 20
3.0870475128
 10
0.6588040734
 20
3.0867705872
 10
0.6588054088
 20
3.0864926976
 10
0.6588027593
 20
3.0862145411
 10
0.6588015597
 20
3.0861643623
  0
LWPOLYLINE
  5
22D
100
AcDbEntity
  8
0
100
AcDbPolyline
 62
7
  6
CONTINUOUS
 90
16
 70
0
 10
0.6585346466
 20
3.0896582137
 10
0.6585735233
 20
3.0894392351
 10
0.6586101218
 20
3.0892123029
 10
0.6586441167
 20
3.0889783451
 10
0.6586752993
 20
3.0887378099
 10
0.6587034934
 20
3.0884910976
 10
0.6587284966
 20
3.0882391346
 10
0.6587501934
 20
3.0879823915
 10
0.6587684879
 20
3.0877213584
 10
0.6587832333
 20
3.087457074
 10
0.6587943018
 20
3.0871901877
 10
0.6588016089
 20
3.0869212314
 10
0.658805106
 20
3.0866511412
 10
0.6588048014
 20
3.086380491
 10
0.6588007432
 20
3.086109921
 10
0.6587958198
 20
3.0859242642
  0
LINE
  5
22E
100
AcDbEntity
  8
0
100
AcDbLine
 62
7
  6
CONTINUOUS
 10
0.7163357258
 20
2.9512072981
 11
0.7163357258
 21
3.2137072981
  0
LINE
  5
22F
100
AcDbEntity
  8
0
100
AcDbLine
 62
7
  6
CONTINUOUS
 10
0.8213357258
 20
3.4759925241
 11
0.8213357258
 21
4.6454572981
  0
LINE
  5
230
100
AcDbEntity
  8
0
100
AcDbLine
 62
7
  6
CONTINUOUS
 10
0.8313357258
 20
3.2902881911
 11
0.8313357258
 21
2.8737072981
  0
LINE
  5
231
100
AcDbEntity
  8
0
100
AcDbLine
 62
7
  6
CONTINUOUS
 10
0.8313357258
 20
3.4759925241
 11
0.8313357258
 21
4.6354572981
  0
LINE
  5
232
100
AcDbEntity
  8
0
100
AcDbLine
 62
7
  6
CONTINUOUS
 10
0.8413357258
 20
3.2902881911
 11
0.8413357258
 21
2.8637072981
  0
LINE
  5
233
100
AcDbEntity
  8
0
100
AcDbLine
 62
7
  6
CONTINUOUS
 10
0.9588357258
 20
2.8637072981
 11
0.9588357258
 21
3.2902881911
  0
LINE
  5
234
100
AcDbEntity
  8
0
100
AcDbLine
 62
7
  6
CONTINUOUS
 10
0.9688357258
 20
2.8737072981
 11
0.9688357258
 21
3.2902881911
  0
LWPOLYLINE
  5
235
100
AcDbEntity
  8
0
100
AcDbPolyline
 62
7
  6
CONTINUOUS
 90
16
 70
0
 10
0.6578015468
 20
3.09192425
 10
0.657800704
 20
3.0919253429
 10
0.6578058556
 20
3.091917887
 10
0.6578163315
 20
3.0919018822
 10
0.6578317073
 20
3.0918770491
 10
0.657851631
 20
3.0918430258
 10
0.6578757715
 20
3.0917994308
 10
0.6579037695
 20
3.0917459498
 10
0.6579352775
 20
3.0916822698
 10
0.6579699312
 20
3.0916081319
 10
0.658007354
 20
3.0915233309
 10
0.6580472057
 20
3.0914276051
 10
0.6580891133
 20
3.0913207929
 10
0.6581326632
 20
3.0912028794
 10
0.6581775506
 20
3.0910735924
 10
0.6582233754
 20
3.0909329501
  0
LINE
  5
236
100
AcDbEntity
  8
0
100
AcDbLine
 62
7
  6
CONTINUOUS
 10
1.2193357258
 20
2.7491411449
 11
1.2193357258
 21
3.4157734514
  0
LINE
  5
237
100
AcDbEntity
  8
0
100
AcDbLine
 62
7
  6
CONTINUOUS
 10
1.2293357258
 20
2.7391411474
 11
1.2293357258
 21
3.4257734489
  0
LINE
  5
238
100
AcDbEntity
  8
0
100
AcDbLine
 62
7
  6
CONTINUOUS
 10
1.4593357258
 20
3.4257734489
 11
1.4593357258
 21
2.7391411474
  0
LINE
  5
239
100
AcDbEntity
  8
0
100
AcDbLine
 62
7
  6
CONTINUOUS
 10
1.4693357258
 20
3.4157734514
 11
1.4693357258
 21
2.7491411449
  0
LINE
  5
23A
100
AcDbEntity
  8
0
100
AcDbLine
 62
7
  6
CONTINUOUS
 10
1.4843357258
 20
3.3449572981
 11
1.4843357258
 21
2.8199572981
  0
LWPOLYLINE
  5
23B
100
AcDbEntity
  8
0
100
AcDbPolyline
 62
7
  6
CONTINUOUS
 90
8
 70
0
 10
0.658941583
 20
3.1368140757
 10
0.6589427072
 20
3.1368181791
 10
0.6589448685
 20
3.1368259265
 10
0.6589453681
 20
3.1368276807
 10
0.6589442354
 20
3.1368238366
 10
0.6589418622
 20
3.1368159221
 10
0.6589382828
 20
3.1368041882
 10
0.6589333687
 20
3.1367883428
  0
LINE
  5
23C
100
AcDbEntity
  8
0
100
AcDbLine
 62
7
  6
CONTINUOUS
 10
0.6589333687
 20
3.1367883428
 11
0.6589201611
 21
3.1367467307
  0
LINE
  5
23D
100
AcDbEntity
  8
0
100
AcDbLine
 62
7
  6
CONTINUOUS
 10
0.6589201611
 20
3.1367467307
 11
0.6589023105
 21
3.1366919493
  0
LINE
  5
23E
100
AcDbEntity
  8
0
100
AcDbLine
 62
7
  6
CONTINUOUS
 10
0.6589023105
 20
3.1366919493
 11
0.6588798291
 21
3.1366245178
  0
LINE
  5
23F
100
AcDbEntity
  8
0
100
AcDbLine
 62
7
  6
CONTINUOUS
 10
0.6588798291
 20
3.1366245178
 11
0.6588526812
 21
3.136544703
  0
LINE
  5
240
100
AcDbEntity
  8
0
100
AcDbLine
 62
7
  6
CONTINUOUS
 10
0.6588526812
 20
3.136544703
 11
0.6588208093
 21
3.1364526269
  0
LINE
  5
241
100
AcDbEntity
  8
0
100
AcDbLine
 62
7
  6
CONTINUOUS
 10
0.6588208093
 20
3.1364526269
 11
0.6587641506
 21
3.1362919976
  0
LINE
  5
242
100
AcDbEntity
  8
0
100
AcDbLine
 62
7
  6
CONTINUOUS
 10
0.6587641506
 20
3.1362919976
 11
0.6586969634
 21
3.1361049742
  0
LINE
  5
243
100
AcDbEntity
  8
0
100
AcDbLine
 62
7
  6
CONTINUOUS
 10
0.6586969634
 20
3.1361049742
 11
0.6586200123
 21
3.1358939067
  0
LINE
  5
244
100
AcDbEntity
  8
0
100
AcDbLine
 62
7
  6
CONTINUOUS
 10
0.6586200123
 20
3.1358939067
 11
0.6585024556
 21
3.135576316
  0
LINE
  5
245
100
AcDbEntity
  8
0
100
AcDbLine
 62
7
  6
CONTINUOUS
 10
0.6585024556
 20
3.135576316
 11
0.6583673539
 21
3.1352167848
  0
LINE
  5
246
100
AcDbEntity
  8
0
100
AcDbLine
 62
7
  6
CONTINUOUS
 10
0.6583673539
 20
3.1352167848
 11
0.6581731993
 21
3.1347073073
  0
LINE
  5
247
100
AcDbEntity
  8
0
100
AcDbLine
 62
7
  6
CONTINUOUS
 10
0.6581731993
 20
3.1347073073
 11
0.6579032849
 21
3.1340083995
  0
LINE
  5
248
100
AcDbEntity
  8
0
100
AcDbLine
 62
7
  6
CONTINUOUS
 10
0.6579032849
 20
3.1340083995
 11
0.6575378901
 21
3.1330750409
  0
LINE
  5
249
100
AcDbEntity
  8
0
100
AcDbLine
 62
7
  6
CONTINUOUS
 10
0.6575378901
 20
3.1330750409
 11
0.6571821382
 21
3.1321766736
  0
LINE
  5
24A
100
AcDbEntity
  8
0
100
AcDbLine
 62
7
  6
CONTINUOUS
 10
0.7008543925
 20
3.4567088959
 11
0.8243170591
 21
3.3095718194
  0
LINE
  5
24B
100
AcDbEntity
  8
0
100
AcDbLine
 62
7
  6
CONTINUOUS
 10
0.7085148369
 20
3.463136772
 11
0.8319775035
 21
3.3159996955
  0
LINE
  5
24C
100
AcDbEntity
  8
0
100
AcDbLine
 62
7
  6
CONTINUOUS
 10
0.9541566147
 20
3.3031439433
 11
0.8306939481
 21
3.4502810198
  0
LINE
  5
24D
100
AcDbEntity
  8
0
100
AcDbLine
 62
7
  6
CONTINUOUS
 10
0.9618170591
 20
3.3095718194
 11
0.8383543925
 21
3.4567088959
  0
LINE
  5
24E
100
AcDbEntity
  8
0
100
AcDbLine
 62
7
  6
CONTINUOUS
 10
1.7168357258
 20
3.3799572981
 11
1.7168357258
 21
2.7849572981
  0
LINE
  5
24F
100
AcDbEntity
  8
0
100
AcDbLine
 62
7
  6
CONTINUOUS
 10
1.7218357258
 20
1.5324572981
 11
1.7218357258
 21
1.601066282
  0
LINE
  5
250
100
AcDbEntity
  8
0
100
AcDbLine
 62
7
  6
CONTINUOUS
 10
1.7468357258
 20
2.7699572981
 11
1.7468357258
 21
3.3949572981
  0
LINE
  5
251
100
AcDbEntity
  8
0
100
AcDbLine
 62
7
  6
CONTINUOUS
 10
1.7860121348
 20
1.7349572981
 11
1.7860121348
 21
1.6457072981
  0
LINE
  5
252
100
AcDbEntity
  8
0
100
AcDbLine
 62
7
  6
CONTINUOUS
 10
1.7900313727
 20
1.7349572981
 11
1.7900313727
 21
1.6457072981
  0
LINE
  5
253
100
AcDbEntity
  8
0
100
AcDbLine
 62
7
  6
CONTINUOUS
 10
0.6571821382
 20
3.1321766736
 11
0.6565070254
 21
3.130491465
  0
LINE
  5
254
100
AcDbEntity
  8
0
100
AcDbLine
 62
7
  6
CONTINUOUS
 10
0.6565070254
 20
3.130491465
 11
0.6557406416
 21
3.1286036266
  0
LINE
  5
255
100
AcDbEntity
  8
0
100
AcDbLine
 62
7
  6
CONTINUOUS
 10
0.6557406416
 20
3.1286036266
 11
0.6554884983
 21
3.1279879411
  0
LINE
  5
256
100
AcDbEntity
  8
0
100
AcDbLine
 62
7
  6
CONTINUOUS
 10
2.7891562339
 20
1.6343675522
 11
2.8318357258
 21
1.609726536
  0
LINE
  5
257
100
AcDbEntity
  8
0
100
AcDbLine
 62
7
  6
CONTINUOUS
 10
1.9043357258
 20
1.7449572981
 11
1.9043357258
 21
2.3874572981
  0
LINE
  5
258
100
AcDbEntity
  8
0
100
AcDbLine
 62
7
  6
CONTINUOUS
 10
1.9355857258
 20
2.4024572981
 11
1.9355857258
 21
2.4324572981
  0
LINE
  5
259
100
AcDbEntity
  8
0
100
AcDbLine
 62
7
  6
CONTINUOUS
 10
1.9355857258
 20
3.6649572981
 11
1.9355857258
 21
3.735666714
  0
LINE
  5
25A
100
AcDbEntity
  8
0
100
AcDbLine
 62
7
  6
CONTINUOUS
 10
1.9668357258
 20
2.4324572981
 11
1.9668357258
 21
2.7109572981
  0
LINE
  5
25B
100
AcDbEntity
  8
0
100
AcDbLine
 62
7
  6
CONTINUOUS
 10
1.9680857258
 20
3.9187072981
 11
1.9680857258
 21
3.7749572981
  0
LINE
  5
25C
100
AcDbEntity
  8
0
100
AcDbLine
 62
7
  6
CONTINUOUS
 10
1.9980857258
 20
3.4539572981
 11
1.9980857258
 21
3.6249572981
  0
LINE
  5
25D
100
AcDbEntity
  8
0
100
AcDbLine
 62
7
  6
CONTINUOUS
 10
2.0216931682
 20
1.7349572981
 11
2.0216931682
 21
1.6457072981
  0
LINE
  5
25E
100
AcDbEntity
  8
0
100
AcDbLine
 62
7
  6
CONTINUOUS
 10
2.0476739303
 20
1.6357072981
 11
2.0476739303
 21
1.7449572981
  0
LINE
  5
25F
100
AcDbEntity
  8
0
100
AcDbLine
 62
7
  6
CONTINUOUS
 10
2.2793357258
 20
2.7295046156
 11
2.2793357258
 21
3.4517969634
  0
LINE
  5
260
100
AcDbEntity
  8
0
100
AcDbLine
 62
7
  6
CONTINUOUS
 10
2.5109975213
 20
1.6357072981
 11
2.5109975213
 21
1.7449572981
  0
LINE
  5
261
100
AcDbEntity
  8
0
100
AcDbLine
 62
7
  6
CONTINUOUS
 10
2.5369782834
 20
1.7349572981
 11
2.5369782834
 21
1.6457072981
  0
LINE
  5
262
100
AcDbEntity
  8
0
100
AcDbLine
 62
7
  6
CONTINUOUS
 10
2.5605857258
 20
3.4517969634
 11
2.5605857258
 21
3.6249572981
  0
LINE
  5
263
100
AcDbEntity
  8
0
100
AcDbLine
 62
7
  6
CONTINUOUS
 10
2.5905857258
 20
3.8337072981
 11
2.5905857258
 21
3.7749572981
  0
LINE
  5
264
100
AcDbEntity
  8
0
100
AcDbLine
 62
7
  6
CONTINUOUS
 10
2.5918357258
 20
2.4324572981
 11
2.5918357258
 21
2.7295046156
  0
LINE
  5
265
100
AcDbEntity
  8
0
100
AcDbLine
 62
7
  6
CONTINUOUS
 10
2.6168357258
 20
2.7849572981
 11
2.6168357258
 21
3.3799572981
  0
LINE
  5
266
100
AcDbEntity
  8
0
100
AcDbLine
 62
7
  6
CONTINUOUS
 10
2.6230857258
 20
2.4024572981
 11
2.6230857258
 21
2.4324572981
  0
LINE
  5
267
100
AcDbEntity
  8
0
100
AcDbLine
 62
7
  6
CONTINUOUS
 10
2.6230857258
 20
3.6649572981
 11
2.6230857258
 21
3.735666714
  0
LINE
  5
268
100
AcDbEntity
  8
0
100
AcDbLine
 62
7
  6
CONTINUOUS
 10
2.6543357258
 20
1.7449572981
 11
2.6543357258
 21
2.3874572981
  0
LINE
  5
269
100
AcDbEntity
  8
0
100
AcDbLine
 62
7
  6
CONTINUOUS
 10
2.6283549636
 20
2.4024572982
 11
2.6543357257
 21
2.3874572982
  0
LINE
  5
26A
100
AcDbEntity
  8
0
100
AcDbLine
 62
7
  6
CONTINUOUS
 10
2.7686400789
 20
1.7349572981
 11
2.7686400789
 21
1.6457072981
  0
LINE
  5
26B
100
AcDbEntity
  8
0
100
AcDbLine
 62
7
  6
CONTINUOUS
 10
2.7726593168
 20
1.7349572981
 11
2.7726593168
 21
1.6457072981
  0
LINE
  5
26C
100
AcDbEntity
  8
0
100
AcDbLine
 62
7
  6
CONTINUOUS
 10
2.8368357258
 20
1.5324572981
 11
2.8368357258
 21
1.601066282
  0
LINE
  5
26D
100
AcDbEntity
  8
0
100
AcDbLine
 62
7
  6
CONTINUOUS
 10
2.9093357258
 20
3.9512072981
 11
2.9093357258
 21
4.6387072981
  0
LINE
  5
26E
100
AcDbEntity
  8
0
100
AcDbLine
 62
7
  6
CONTINUOUS
 10
2.9193357258
 20
3.9612072981
 11
2.9193357258
 21
4.6287072981
  0
LINE
  5
26F
100
AcDbEntity
  8
0
100
AcDbLine
 62
7
  6
CONTINUOUS
 10
2.9783357258
 20
4.5599572981
 11
2.9783357258
 21
4.0299572981
  0
LINE
  5
270
100
AcDbEntity
  8
0
100
AcDbLine
 62
7
  6
CONTINUOUS
 10
1.7218357258
 20
1.5324572981
 11
2.8368357258
 21
1.5324572981
  0
LINE
  5
271
100
AcDbEntity
  8
0
100
AcDbLine
 62
7
  6
CONTINUOUS
 10
5.7218357258
 20
1.5324572981
 11
6.8368357258
 21
1.5324572981
  0
LINE
  5
272
100
AcDbEntity
  8
0
100
AcDbLine
 62
7
  6
CONTINUOUS
 10
9.7218357258
 20
1.5324572981
 11
10.8368357258
 21
1.5324572981
  0
LINE
  5
273
100
AcDbEntity
  8
0
100
AcDbLine
 62
7
  6
CONTINUOUS
 10
10.8368357258
 20
1.601066282
 11
9.7218357258
 21
1.601066282
  0
LINE
  5
274
100
AcDbEntity
  8
0
100
AcDbLine
 62
7
  6
CONTINUOUS
 10
6.8368357258
 20
1.601066282
 11
5.7218357258
 21
1.601066282
  0
LINE
  5
275
100
AcDbEntity
  8
0
100
AcDbLine
 62
7
  6
CONTINUOUS
 10
2.8368357258
 20
1.601066282
 11
1.7218357258
 21
1.601066282
  0
LINE
  5
276
100
AcDbEntity
  8
0
100
AcDbLine
 62
7
  6
CONTINUOUS
 10
10.8318357258
 20
1.609726536
 11
9.7268357258
 21
1.609726536
  0
LINE
  5
277
100
AcDbEntity
  8
0
100
AcDbLine
 62
7
  6
CONTINUOUS
 10
6.8318357258
 20
1.609726536
 11
5.7268357258
 21
1.609726536
  0
LINE
  5
278
100
AcDbEntity
  8
0
100
AcDbLine
 62
7
  6
CONTINUOUS
 10
2.8318357258
 20
1.609726536
 11
1.7268357258
 21
1.609726536
  0
LINE
  5
279
100
AcDbEntity
  8
0
100
AcDbLine
 62
7
  6
CONTINUOUS
 10
1.7695152177
 20
1.6343675522
 11
2.7891562339
 21
1.6343675522
  0
LINE
  5
27A
100
AcDbEntity
  8
0
100
AcDbLine
 62
7
  6
CONTINUOUS
 10
5.7695152177
 20
1.6343675522
 11
6.7891562339
 21
1.6343675522
  0
LINE
  5
27B
100
AcDbEntity
  8
0
100
AcDbLine
 62
7
  6
CONTINUOUS
 10
9.7695152177
 20
1.6343675522
 11
10.7891562339
 21
1.6343675522
  0
LINE
  5
27C
100
AcDbEntity
  8
0
100
AcDbLine
 62
7
  6
CONTINUOUS
 10
1.7745152177
 20
1.6357072981
 11
2.7841562339
 21
1.6357072981
  0
LINE
  5
27D
100
AcDbEntity
  8
0
100
AcDbLine
 62
7
  6
CONTINUOUS
 10
5.7745152177
 20
1.6357072981
 11
6.7841562339
 21
1.6357072981
  0
LINE
  5
27E
100
AcDbEntity
  8
0
100
AcDbLine
 62
7
  6
CONTINUOUS
 10
9.7745152177
 20
1.6357072981
 11
10.7841562339
 21
1.6357072981
  0
LINE
  5
27F
100
AcDbEntity
  8
0
100
AcDbLine
 62
7
  6
CONTINUOUS
 10
1.7860121348
 20
1.6457072981
 11
2.7726593168
 21
1.6457072981
  0
LINE
  5
280
100
AcDbEntity
  8
0
100
AcDbLine
 62
7
  6
CONTINUOUS
 10
5.7860121348
 20
1.6457072981
 11
6.7726593168
 21
1.6457072981
  0
LINE
  5
281
100
AcDbEntity
  8
0
100
AcDbLine
 62
7
  6
CONTINUOUS
 10
9.7860121348
 20
1.6457072981
 11
10.7726593168
 21
1.6457072981
  0
LINE
  5
282
100
AcDbEntity
  8
0
100
AcDbLine
 62
7
  6
CONTINUOUS
 10
1.7860121348
 20
1.7349572981
 11
2.7726593168
 21
1.7349572981
  0
LINE
  5
283
100
AcDbEntity
  8
0
100
AcDbLine
 62
7
  6
CONTINUOUS
 10
5.7860121348
 20
1.7349572981
 11
6.7726593168
 21
1.7349572981
  0
LINE
  5
284
100
AcDbEntity
  8
0
100
AcDbLine
 62
7
  6
CONTINUOUS
 10
9.7860121348
 20
1.7349572981
 11
10.7726593168
 21
1.7349572981
  0
LINE
  5
285
100
AcDbEntity
  8
0
100
AcDbLine
 62
7
  6
CONTINUOUS
 10
1.7960121348
 20
1.7449572981
 11
2.7626593168
 21
1.7449572981
  0
LINE
  5
286
100
AcDbEntity
  8
0
100
AcDbLine
 62
7
  6
CONTINUOUS
 10
5.7960121348
 20
1.7449572981
 11
6.7626593168
 21
1.7449572981
  0
LINE
  5
287
100
AcDbEntity
  8
0
100
AcDbLine
 62
7
  6
CONTINUOUS
 10
9.7960121348
 20
1.7449572981
 11
10.7626593168
 21
1.7449572981
  0
LINE
  5
288
100
AcDbEntity
  8
0
100
AcDbLine
 62
7
  6
CONTINUOUS
 10
0.7085148369
 20
3.463136772
 11
0.7008543925
 21
3.4567088959
  0
LINE
  5
289
100
AcDbEntity
  8
0
100
AcDbLine
 62
7
  6
CONTINUOUS
 10
0.8306939481
 20
3.4502810198
 11
0.8383543925
 21
3.4567088959
  0
LINE
  5
28A
100
AcDbEntity
  8
0
100
AcDbLine
 62
7
  6
CONTINUOUS
 10
0.8319775035
 20
3.3159996955
 11
0.8243170591
 21
3.3095718194
  0
LINE
  5
28B
100
AcDbEntity
  8
0
100
AcDbLine
 62
7
  6
CONTINUOUS
 10
9.9510858331
 20
2.0749572981
 11
10.6075856184
 21
2.0749572981
  0
LINE
  5
28C
100
AcDbEntity
  8
0
100
AcDbLine
 62
7
  6
CONTINUOUS
 10
10.5379266674
 20
2.0903707845
 11
10.0207447842
 21
2.0903707845
  0
LINE
  5
28D
100
AcDbEntity
  8
0
100
AcDbLine
 62
7
  6
CONTINUOUS
 10
3.7168357258
 20
3.9974572981
 11
3.7168357258
 21
4.5924572981
  0
LINE
  5
28E
100
AcDbEntity
  8
0
100
AcDbLine
 62
7
  6
CONTINUOUS
 10
3.7318357258
 20
3.9824572981
 11
3.7318357258
 21
4.6074572981
  0
LINE
  5
28F
100
AcDbEntity
  8
0
100
AcDbLine
 62
7
  6
CONTINUOUS
 10
3.7488357258
 20
3.9824572981
 11
3.7488357258
 21
4.6074572981
  0
LINE
  5
290
100
AcDbEntity
  8
0
100
AcDbLine
 62
7
  6
CONTINUOUS
 10
3.7638357258
 20
4.7737072981
 11
3.7638357258
 21
3.9657074002
  0
LINE
  5
291
100
AcDbEntity
  8
0
100
AcDbLine
 62
7
  6
CONTINUOUS
 10
3.7788357258
 20
4.7887072981
 11
3.7788357258
 21
3.9507072981
  0
LINE
  5
292
100
AcDbEntity
  8
0
100
AcDbLine
 62
7
  6
CONTINUOUS
 10
0.9541566147
 20
3.3031439433
 11
0.9618170591
 21
3.3095718194
  0
LINE
  5
293
100
AcDbEntity
  8
0
100
AcDbLine
 62
7
  6
CONTINUOUS
 10
1.9043357258
 20
2.3874572981
 11
2.6543357258
 21
2.3874572981
  0
LINE
  5
294
100
AcDbEntity
  8
0
100
AcDbLine
 62
7
  6
CONTINUOUS
 10
5.9043357258
 20
2.3874572981
 11
6.6543357258
 21
2.3874572981
  0
LINE
  5
295
100
AcDbEntity
  8
0
100
AcDbLine
 62
7
  6
CONTINUOUS
 10
1.9303164879
 20
2.4024572981
 11
2.6283549637
 21
2.4024572981
  0
LINE
  5
296
100
AcDbEntity
  8
0
100
AcDbLine
 62
7
  6
CONTINUOUS
 10
5.9303164879
 20
2.4024572981
 11
6.6283549637
 21
2.4024572981
  0
LINE
  5
297
100
AcDbEntity
  8
0
100
AcDbLine
 62
7
  6
CONTINUOUS
 10
2.6230857258
 20
2.4324572981
 11
1.9355857258
 21
2.4324572981
  0
LINE
  5
298
100
AcDbEntity
  8
0
100
AcDbLine
 62
7
  6
CONTINUOUS
 10
5.9355857258
 20
2.4324572981
 11
6.6230857258
 21
2.4324572981
  0
LINE
  5
299
100
AcDbEntity
  8
0
100
AcDbLine
 62
7
  6
CONTINUOUS
 10
3.9215858183
 20
5.1749572981
 11
3.9215858183
 21
5.0274572981
  0
LINE
  5
29A
100
AcDbEntity
  8
0
100
AcDbLine
 62
7
  6
CONTINUOUS
 10
3.9242653102
 20
5.1749572981
 11
3.9242653102
 21
5.0274572981
  0
LINE
  5
29B
100
AcDbEntity
  8
0
100
AcDbLine
 62
7
  6
CONTINUOUS
 10
3.9355857258
 20
6.4209572981
 11
3.9355857258
 21
6.3474572981
  0
LINE
  5
29C
100
AcDbEntity
  8
0
100
AcDbLine
 62
7
  6
CONTINUOUS
 10
3.9980857258
 20
4.8477072981
 11
3.9980857258
 21
4.9484968679
  0
LINE
  5
29D
100
AcDbEntity
  8
0
100
AcDbLine
 62
7
  6
CONTINUOUS
 10
4.0143357258
 20
6.1059572981
 11
4.0143357258
 21
6.3324572981
  0
LINE
  5
29E
100
AcDbEntity
  8
0
100
AcDbLine
 62
7
  6
CONTINUOUS
 10
4.0168357258
 20
5.1949572981
 11
4.0168357258
 21
6.1016271711
  0
LINE
  5
29F
100
AcDbEntity
  8
0
100
AcDbLine
 62
7
  6
CONTINUOUS
 10
4.093140264
 20
5.1749572981
 11
4.093140264
 21
5.0274572981
  0
LINE
  5
2A0
100
AcDbEntity
  8
0
100
AcDbLine
 62
7
  6
CONTINUOUS
 10
4.1104607721
 20
5.0074706235
 11
4.1104607721
 21
5.1949572981
  0
LINE
  5
2A1
100
AcDbEntity
  8
0
100
AcDbLine
 62
7
  6
CONTINUOUS
 10
3.9680857258
 20
6.4602478824
 11
3.9680879114
 21
6.9823541301
  0
LINE
  5
2A2
100
AcDbEntity
  8
0
100
AcDbLine
 62
7
  6
CONTINUOUS
 10
3.9980857258
 20
4.9484968679
 11
3.9980882504
 21
4.9485099334
  0
LINE
  5
2A3
100
AcDbEntity
  8
0
100
AcDbLine
 62
7
  6
CONTINUOUS
 10
3.9409528835
 20
5.0074673158
 11
3.9409536567
 21
5.0074706235
  0
LINE
  5
2A4
100
AcDbEntity
  8
0
100
AcDbLine
 62
7
  6
CONTINUOUS
 10
7.9067038257
 20
3.0917458491
 11
7.9005401813
 21
3.0912066001
  0
LINE
  5
2A5
100
AcDbEntity
  8
0
100
AcDbLine
 62
7
  6
CONTINUOUS
 10
7.9111900152
 20
3.0973490077
 11
7.9031428233
 21
3.0966449696
  0
LINE
  5
2A6
100
AcDbEntity
  8
0
100
AcDbLine
 62
7
  6
CONTINUOUS
 10
1.9668357258
 20
2.7109572981
 11
2.1242153033
 21
2.7109572981
  0
LINE
  5
2A7
100
AcDbEntity
  8
0
100
AcDbLine
 62
7
  6
CONTINUOUS
 10
6.4344561482
 20
2.7109572981
 11
6.5918357258
 21
2.7109572981
  0
LINE
  5
2A8
100
AcDbEntity
  8
0
100
AcDbLine
 62
7
  6
CONTINUOUS
 10
2.2793357258
 20
2.7295046156
 11
2.5918357258
 21
2.7295046156
  0
LINE
  5
2A9
100
AcDbEntity
  8
0
100
AcDbLine
 62
7
  6
CONTINUOUS
 10
5.9668357258
 20
2.7295046156
 11
6.2793357258
 21
2.7295046156
  0
LINE
  5
2AA
100
AcDbEntity
  8
0
100
AcDbLine
 62
7
  6
CONTINUOUS
 10
7.3293357258
 20
2.7391411474
 11
7.0993357258
 21
2.7391411474
  0
LINE
  5
2AB
100
AcDbEntity
  8
0
100
AcDbLine
 62
7
  6
CONTINUOUS
 10
1.2293357258
 20
2.7391411474
 11
1.4593357258
 21
2.7391411474
  0
LINE
  5
2AC
100
AcDbEntity
  8
0
100
AcDbLine
 62
7
  6
CONTINUOUS
 10
7.3293357258
 20
2.7418206393
 11
7.0993357258
 21
2.7418206393
  0
LINE
  5
2AD
100
AcDbEntity
  8
0
100
AcDbLine
 62
7
  6
CONTINUOUS
 10
1.2293357258
 20
2.7418206393
 11
1.4593357258
 21
2.7418206393
  0
LINE
  5
2AE
100
AcDbEntity
  8
0
100
AcDbLine
 62
7
  6
CONTINUOUS
 10
6.8268357258
 20
2.7699572981
 11
6.463742884
 21
2.7699572981
  0
LINE
  5
2AF
100
AcDbEntity
  8
0
100
AcDbLine
 62
7
  6
CONTINUOUS
 10
2.0949285676
 20
2.7699572981
 11
1.7318357258
 21
2.7699572981
  0
LINE
  5
2B0
100
AcDbEntity
  8
0
100
AcDbLine
 62
7
  6
CONTINUOUS
 10
2.2793357258
 20
2.7737168895
 11
2.6117681582
 21
2.7737168895
  0
LINE
  5
2B1
100
AcDbEntity
  8
0
100
AcDbLine
 62
7
  6
CONTINUOUS
 10
5.9469032934
 20
2.7737168895
 11
6.2793357258
 21
2.7737168895
  0
LINE
  5
2B2
100
AcDbEntity
  8
0
100
AcDbLine
 62
7
  6
CONTINUOUS
 10
6.8418357258
 20
2.7849572981
 11
5.9418357258
 21
2.7849572981
  0
LINE
  5
2B3
100
AcDbEntity
  8
0
100
AcDbLine
 62
7
  6
CONTINUOUS
 10
2.6168357258
 20
2.7849572981
 11
1.7168357258
 21
2.7849572981
  0
LINE
  5
2B4
100
AcDbEntity
  8
0
100
AcDbLine
 62
7
  6
CONTINUOUS
 10
7.0743357258
 20
2.8199572981
 11
6.8418357258
 21
2.8199572981
  0
LINE
  5
2B5
100
AcDbEntity
  8
0
100
AcDbLine
 62
7
  6
CONTINUOUS
 10
1.4843357258
 20
2.8199572981
 11
1.7168357258
 21
2.8199572981
  0
LINE
  5
2B6
100
AcDbEntity
  8
0
100
AcDbLine
 62
7
  6
CONTINUOUS
 10
0.8413357258
 20
2.8637072981
 11
0.9588357258
 21
2.8637072981
  0
LINE
  5
2B7
100
AcDbEntity
  8
0
100
AcDbLine
 62
7
  6
CONTINUOUS
 10
7.5998357258
 20
2.8637072981
 11
7.7173357258
 21
2.8637072981
  0
LINE
  5
2B8
100
AcDbEntity
  8
0
100
AcDbLine
 62
7
  6
CONTINUOUS
 10
7.3293357258
 20
2.9034787147
 11
7.0993357258
 21
2.9034787147
  0
LINE
  5
2B9
100
AcDbEntity
  8
0
100
AcDbLine
 62
7
  6
CONTINUOUS
 10
1.2293357258
 20
2.9034787147
 11
1.4593357258
 21
2.9034787147
  0
LINE
  5
2BA
100
AcDbEntity
  8
0
100
AcDbLine
 62
7
  6
CONTINUOUS
 10
0.6581312897
 20
3.0912065984
 11
0.6519676259
 21
3.0917458491
  0
LINE
  5
2BB
100
AcDbEntity
  8
0
100
AcDbLine
 62
7
  6
CONTINUOUS
 10
0.6555286283
 20
3.0966449696
 11
0.6474814364
 21
3.0973490077
  0
LINE
  5
2BC
100
AcDbEntity
  8
0
100
AcDbLine
 62
7
  6
CONTINUOUS
 10
0.6593680514
 20
3.1380531585
 11
0.6593142018
 21
3.1380579244
  0
LINE
  5
2BD
100
AcDbEntity
  8
0
100
AcDbLine
 62
7
  6
CONTINUOUS
 10
6.7891562339
 20
1.6343675522
 11
6.8318357258
 21
1.609726536
  0
LINE
  5
2BE
100
AcDbEntity
  8
0
100
AcDbLine
 62
7
  6
CONTINUOUS
 10
4.2793357258
 20
6.4307799442
 11
4.2793357258
 21
7.3168322981
  0
LINE
  5
2BF
100
AcDbEntity
  8
0
100
AcDbLine
 62
7
  6
CONTINUOUS
 10
4.4482106795
 20
5.0074706235
 11
4.4482106795
 21
5.1949572981
  0
LINE
  5
2C0
100
AcDbEntity
  8
0
100
AcDbLine
 62
7
  6
CONTINUOUS
 10
4.4655311876
 20
5.1749572981
 11
4.4655311876
 21
5.0274572981
  0
LINE
  5
2C1
100
AcDbEntity
  8
0
100
AcDbLine
 62
7
  6
CONTINUOUS
 10
4.5418357258
 20
5.1949572981
 11
4.5418357258
 21
6.1016271711
  0
LINE
  5
2C2
100
AcDbEntity
  8
0
100
AcDbLine
 62
7
  6
CONTINUOUS
 10
4.5443357258
 20
6.1059572981
 11
4.5443357258
 21
6.3324572981
  0
LINE
  5
2C3
100
AcDbEntity
  8
0
100
AcDbLine
 62
7
  6
CONTINUOUS
 10
4.5605857258
 20
4.8477072981
 11
4.5605857258
 21
4.9484968679
  0
LINE
  5
2C4
100
AcDbEntity
  8
0
100
AcDbLine
 62
7
  6
CONTINUOUS
 10
4.5905835393
 20
6.9823543478
 11
4.5905857258
 21
6.4602478822
  0
LINE
  5
2C5
100
AcDbEntity
  8
0
100
AcDbLine
 62
7
  6
CONTINUOUS
 10
7.8993572498
 20
3.1380579244
 11
7.8993034002
 21
3.1380531585
  0
LINE
  5
2C6
100
AcDbEntity
  8
0
100
AcDbLine
 62
7
  6
CONTINUOUS
 10
1.2193357258
 20
2.9207992228
 11
1.4693357258
 21
2.9207992228
  0
LINE
  5
2C7
100
AcDbEntity
  8
0
100
AcDbLine
 62
7
  6
CONTINUOUS
 10
7.0893357258
 20
2.9207992228
 11
7.3393357258
 21
2.9207992228
  0
LINE
  5
2C8
100
AcDbEntity
  8
0
100
AcDbLine
 62
7
  6
CONTINUOUS
 10
7.5898357258
 20
2.9262072981
 11
7.3393357258
 21
2.9262072981
  0
LINE
  5
2C9
100
AcDbEntity
  8
0
100
AcDbLine
 62
7
  6
CONTINUOUS
 10
0.9688357258
 20
2.9262072981
 11
1.2193357258
 21
2.9262072981
  0
LINE
  5
2CA
100
AcDbEntity
  8
0
100
AcDbLine
 62
7
  6
CONTINUOUS
 10
0.8313357258
 20
2.9512072981
 11
0.7163357258
 21
2.9512072981
  0
LINE
  5
2CB
100
AcDbEntity
  8
0
100
AcDbLine
 62
7
  6
CONTINUOUS
 10
7.7273357258
 20
2.9512072981
 11
7.8423357258
 21
2.9512072981
  0
LINE
  5
2CC
100
AcDbEntity
  8
0
100
AcDbLine
 62
7
  6
CONTINUOUS
 10
0.8313357258
 20
2.9572072981
 11
0.9688357258
 21
2.9572072981
  0
LINE
  5
2CD
100
AcDbEntity
  8
0
100
AcDbLine
 62
7
  6
CONTINUOUS
 10
7.5898357258
 20
2.9572072981
 11
7.7273357258
 21
2.9572072981
  0
LINE
  5
2CE
100
AcDbEntity
  8
0
100
AcDbLine
 62
7
  6
CONTINUOUS
 10
7.8786854808
 20
3.0035231141
 11
7.8623357258
 21
3.0035231141
  0
LINE
  5
2CF
100
AcDbEntity
  8
0
100
AcDbLine
 62
7
  6
CONTINUOUS
 10
0.6799859708
 20
3.0035231141
 11
0.6963357258
 21
3.0035231141
  0
LINE
  5
2D0
100
AcDbEntity
  8
0
100
AcDbLine
 62
7
  6
CONTINUOUS
 10
7.8786854808
 20
3.1613914822
 11
7.8623357258
 21
3.1613914822
  0
LINE
  5
2D1
100
AcDbEntity
  8
0
100
AcDbLine
 62
7
  6
CONTINUOUS
 10
0.6799859708
 20
3.1613914822
 11
0.6963357258
 21
3.1613914822
  0
LINE
  5
2D2
100
AcDbEntity
  8
0
100
AcDbLine
 62
7
  6
CONTINUOUS
 10
0.8313357258
 20
3.2137072981
 11
0.7163357258
 21
3.2137072981
  0
LINE
  5
2D3
100
AcDbEntity
  8
0
100
AcDbLine
 62
7
  6
CONTINUOUS
 10
7.7273357258
 20
3.2137072981
 11
7.8423357258
 21
3.2137072981
  0
LINE
  5
2D4
100
AcDbEntity
  8
0
100
AcDbLine
 62
7
  6
CONTINUOUS
 10
7.5898357258
 20
3.2387072981
 11
7.3393357258
 21
3.2387072981
  0
LINE
  5
2D5
100
AcDbEntity
  8
0
100
AcDbLine
 62
7
  6
CONTINUOUS
 10
0.9688357258
 20
3.2387072981
 11
1.2193357258
 21
3.2387072981
  0
LINE
  5
2D6
100
AcDbEntity
  8
0
100
AcDbLine
 62
7
  6
CONTINUOUS
 10
1.2193357258
 20
3.2441153735
 11
1.4693357258
 21
3.2441153735
  0
LINE
  5
2D7
100
AcDbEntity
  8
0
100
AcDbLine
 62
7
  6
CONTINUOUS
 10
7.0893357258
 20
3.2441153735
 11
7.3393357258
 21
3.2441153735
  0
LINE
  5
2D8
100
AcDbEntity
  8
0
100
AcDbLine
 62
7
  6
CONTINUOUS
 10
7.3293357258
 20
3.2614358816
 11
7.0993357258
 21
3.2614358816
  0
LINE
  5
2D9
100
AcDbEntity
  8
0
100
AcDbLine
 62
7
  6
CONTINUOUS
 10
1.2293357258
 20
3.2614358816
 11
1.4593357258
 21
3.2614358816
  0
LINE
  5
2DA
100
AcDbEntity
  8
0
100
AcDbLine
 62
7
  6
CONTINUOUS
 10
7.5998357258
 20
3.2902881911
 11
7.5898357258
 21
3.2902881911
  0
LINE
  5
2DB
100
AcDbEntity
  8
0
100
AcDbLine
 62
7
  6
CONTINUOUS
 10
0.8413357258
 20
3.2902881911
 11
0.8313357258
 21
3.2902881911
  0
LINE
  5
2DC
100
AcDbEntity
  8
0
100
AcDbLine
 62
7
  6
CONTINUOUS
 10
0.9588357258
 20
3.2902881911
 11
0.9688357258
 21
3.2902881911
  0
LINE
  5
2DD
100
AcDbEntity
  8
0
100
AcDbLine
 62
7
  6
CONTINUOUS
 10
7.7173357258
 20
3.2902881911
 11
7.7273357258
 21
3.2902881911
  0
LINE
  5
2DE
100
AcDbEntity
  8
0
100
AcDbLine
 62
7
  6
CONTINUOUS
 10
7.9031428233
 20
3.0682696267
 11
7.9111900152
 21
3.0675655886
  0
LINE
  5
2DF
100
AcDbEntity
  8
0
100
AcDbLine
 62
7
  6
CONTINUOUS
 10
7.9005401619
 20
3.0737079979
 11
7.9067038257
 21
3.0731687472
  0
LINE
  5
2E0
100
AcDbEntity
  8
0
100
AcDbLine
 62
7
  6
CONTINUOUS
 10
7.8993034002
 20
3.0268614377
 11
7.8993572498
 21
3.0268566718
  0
LINE
  5
2E1
100
AcDbEntity
  8
0
100
AcDbLine
 62
7
  6
CONTINUOUS
 10
6.6283549636
 20
2.4024572982
 11
6.6543357257
 21
2.3874572982
  0
LINE
  5
2E2
100
AcDbEntity
  8
0
100
AcDbLine
 62
7
  6
CONTINUOUS
 10
4.6230857258
 20
6.4209572981
 11
4.6230857258
 21
6.3474572981
  0
LINE
  5
2E3
100
AcDbEntity
  8
0
100
AcDbLine
 62
7
  6
CONTINUOUS
 10
4.6344061413
 20
5.1749572981
 11
4.6344061413
 21
5.0274572981
  0
LINE
  5
2E4
100
AcDbEntity
  8
0
100
AcDbLine
 62
7
  6
CONTINUOUS
 10
4.6370856333
 20
5.1749572981
 11
4.6370856333
 21
5.0274572981
  0
LINE
  5
2E5
100
AcDbEntity
  8
0
100
AcDbLine
 62
7
  6
CONTINUOUS
 10
4.7798357258
 20
3.9507072981
 11
4.7798357258
 21
4.7887072981
  0
LINE
  5
2E6
100
AcDbEntity
  8
0
100
AcDbLine
 62
7
  6
CONTINUOUS
 10
4.7948357258
 20
3.9657074002
 11
4.7948357258
 21
4.7737072981
  0
LINE
  5
2E7
100
AcDbEntity
  8
0
100
AcDbLine
 62
7
  6
CONTINUOUS
 10
4.8098357258
 20
4.6074572981
 11
4.8098357258
 21
3.9824572981
  0
LINE
  5
2E8
100
AcDbEntity
  8
0
100
AcDbLine
 62
7
  6
CONTINUOUS
 10
4.8268357258
 20
4.6074572981
 11
4.8268357258
 21
3.9824572981
  0
LINE
  5
2E9
100
AcDbEntity
  8
0
100
AcDbLine
 62
7
  6
CONTINUOUS
 10
4.8418357258
 20
4.5924572981
 11
4.8418357258
 21
3.9974572981
  0
LINE
  5
2EA
100
AcDbEntity
  8
0
100
AcDbLine
 62
7
  6
CONTINUOUS
 10
0.6593142018
 20
3.0268566718
 11
0.6593680514
 21
3.0268614377
  0
LINE
  5
2EB
100
AcDbEntity
  8
0
100
AcDbLine
 62
7
  6
CONTINUOUS
 10
0.6474814364
 20
3.0675655886
 11
0.6555286283
 21
3.0682696267
  0
LINE
  5
2EC
100
AcDbEntity
  8
0
100
AcDbLine
 62
7
  6
CONTINUOUS
 10
0.6519676259
 20
3.0731687472
 11
0.6581312703
 21
3.0737079962
  0
LINE
  5
2ED
100
AcDbEntity
  8
0
100
AcDbLine
 62
7
  6
CONTINUOUS
 10
7.0743357258
 20
3.3449572981
 11
6.8418357258
 21
3.3449572981
  0
LINE
  5
2EE
100
AcDbEntity
  8
0
100
AcDbLine
 62
7
  6
CONTINUOUS
 10
1.4843357258
 20
3.3449572981
 11
1.7168357258
 21
3.3449572981
  0
LINE
  5
2EF
100
AcDbEntity
  8
0
100
AcDbLine
 62
7
  6
CONTINUOUS
 10
1.7168357258
 20
3.3799572981
 11
2.6168357258
 21
3.3799572981
  0
LINE
  5
2F0
100
AcDbEntity
  8
0
100
AcDbLine
 62
7
  6
CONTINUOUS
 10
5.9418357258
 20
3.3799572981
 11
6.8418357258
 21
3.3799572981
  0
LINE
  5
2F1
100
AcDbEntity
  8
0
100
AcDbLine
 62
7
  6
CONTINUOUS
 10
6.2793357258
 20
3.3945193924
 11
5.9532377528
 21
3.3945193924
  0
LINE
  5
2F2
100
AcDbEntity
  8
0
100
AcDbLine
 62
7
  6
CONTINUOUS
 10
2.6054336988
 20
3.3945193924
 11
2.2793357258
 21
3.3945193924
  0
LINE
  5
2F3
100
AcDbEntity
  8
0
100
AcDbLine
 62
7
  6
CONTINUOUS
 10
1.7318357258
 20
3.3949572981
 11
2.1708746153
 21
3.3949572981
  0
LINE
  5
2F4
100
AcDbEntity
  8
0
100
AcDbLine
 62
7
  6
CONTINUOUS
 10
6.3877968363
 20
3.3949572981
 11
6.8268357258
 21
3.3949572981
  0
LINE
  5
2F5
100
AcDbEntity
  8
0
100
AcDbLine
 62
7
  6
CONTINUOUS
 10
7.3293357258
 20
3.423093957
 11
7.0993357258
 21
3.423093957
  0
LINE
  5
2F6
100
AcDbEntity
  8
0
100
AcDbLine
 62
7
  6
CONTINUOUS
 10
1.2293357258
 20
3.423093957
 11
1.4593357258
 21
3.423093957
  0
LINE
  5
2F7
100
AcDbEntity
  8
0
100
AcDbLine
 62
7
  6
CONTINUOUS
 10
7.3293357258
 20
3.4257734489
 11
7.0993357258
 21
3.4257734489
  0
LINE
  5
2F8
100
AcDbEntity
  8
0
100
AcDbLine
 62
7
  6
CONTINUOUS
 10
1.2293357258
 20
3.4257734489
 11
1.4593357258
 21
3.4257734489
  0
LINE
  5
2F9
100
AcDbEntity
  8
0
100
AcDbLine
 62
7
  6
CONTINUOUS
 10
6.2793357258
 20
3.4517969634
 11
5.9980857258
 21
3.4517969634
  0
LINE
  5
2FA
100
AcDbEntity
  8
0
100
AcDbLine
 62
7
  6
CONTINUOUS
 10
2.5605857258
 20
3.4517969634
 11
2.2793357258
 21
3.4517969634
  0
LINE
  5
2FB
100
AcDbEntity
  8
0
100
AcDbLine
 62
7
  6
CONTINUOUS
 10
6.5605857258
 20
3.4539572981
 11
6.3689894726
 21
3.4539572981
  0
LINE
  5
2FC
100
AcDbEntity
  8
0
100
AcDbLine
 62
7
  6
CONTINUOUS
 10
2.189681979
 20
3.4539572981
 11
1.9980857258
 21
3.4539572981
  0
LINE
  5
2FD
100
AcDbEntity
  8
0
100
AcDbLine
 62
7
  6
CONTINUOUS
 10
7.7373357258
 20
3.4759925241
 11
7.7273357258
 21
3.4759925242
  0
LINE
  5
2FE
100
AcDbEntity
  8
0
100
AcDbLine
 62
7
  6
CONTINUOUS
 10
0.7038357258
 20
3.4759925241
 11
0.6938357258
 21
3.4759925242
  0
LINE
  5
2FF
100
AcDbEntity
  8
0
100
AcDbLine
 62
7
  6
CONTINUOUS
 10
0.8213357258
 20
3.4759925241
 11
0.8313357258
 21
3.4759925241
  0
LINE
  5
300
100
AcDbEntity
  8
0
100
AcDbLine
 62
7
  6
CONTINUOUS
 10
7.8548357258
 20
3.4759925241
 11
7.8648357258
 21
3.4759925241
  0
LINE
  5
301
100
AcDbEntity
  8
0
100
AcDbLine
 62
7
  6
CONTINUOUS
 10
10.1494319152
 20
3.5528707845
 11
10.4092395364
 21
3.5528707845
  0
LINE
  5
302
100
AcDbEntity
  8
0
100
AcDbLine
 62
7
  6
CONTINUOUS
 10
6.5605857258
 20
3.6249572981
 11
5.9980857258
 21
3.6249572981
  0
LINE
  5
303
100
AcDbEntity
  8
0
100
AcDbLine
 62
7
  6
CONTINUOUS
 10
2.5605857258
 20
3.6249572981
 11
1.9980857258
 21
3.6249572981
  0
LINE
  5
304
100
AcDbEntity
  8
0
100
AcDbLine
 62
7
  6
CONTINUOUS
 10
1.9455857258
 20
3.6549572981
 11
2.6130857258
 21
3.6549572981
  0
LINE
  5
305
100
AcDbEntity
  8
0
100
AcDbLine
 62
7
  6
CONTINUOUS
 10
5.9455857258
 20
3.6549572981
 11
6.6130857258
 21
3.6549572981
  0
LINE
  5
306
100
AcDbEntity
  8
0
100
AcDbLine
 62
7
  6
CONTINUOUS
 10
1.9355857258
 20
3.6649572981
 11
2.6230857258
 21
3.6649572981
  0
LINE
  5
307
100
AcDbEntity
  8
0
100
AcDbLine
 62
7
  6
CONTINUOUS
 10
5.9355857258
 20
3.6649572981
 11
6.6230857258
 21
3.6649572981
  0
LINE
  5
308
100
AcDbEntity
  8
0
100
AcDbLine
 62
7
  6
CONTINUOUS
 10
4.6177177949
 20
5.0074706235
 11
4.6177185681
 21
5.0074673158
  0
LINE
  5
309
100
AcDbEntity
  8
0
100
AcDbLine
 62
7
  6
CONTINUOUS
 10
4.5605832012
 20
4.9485099334
 11
4.5605857258
 21
4.9484968679
  0
LINE
  5
30A
100
AcDbEntity
  8
0
100
AcDbLine
 62
7
  6
CONTINUOUS
 10
4.7798357258
 20
3.9507072981
 11
3.7788357258
 21
3.9507072981
  0
LINE
  5
30B
100
AcDbEntity
  8
0
100
AcDbLine
 62
7
  6
CONTINUOUS
 10
2.9093357258
 20
3.9512072981
 11
2.83862631
 21
3.9512072981
  0
LINE
  5
30C
100
AcDbEntity
  8
0
100
AcDbLine
 62
7
  6
CONTINUOUS
 10
5.6493357258
 20
3.9512072981
 11
5.7200451416
 21
3.9512072981
  0
LINE
  5
30D
100
AcDbEntity
  8
0
100
AcDbLine
 62
7
  6
CONTINUOUS
 10
4.8268357258
 20
3.9824572981
 11
4.8098357258
 21
3.9824572981
  0
LINE
  5
30E
100
AcDbEntity
  8
0
100
AcDbLine
 62
7
  6
CONTINUOUS
 10
3.7318357258
 20
3.9824572981
 11
3.7488357258
 21
3.9824572981
  0
LINE
  5
30F
100
AcDbEntity
  8
0
100
AcDbLine
 62
7
  6
CONTINUOUS
 10
2.7993357258
 20
3.9837072981
 11
2.7405857258
 21
3.9837072981
  0
LINE
  5
310
100
AcDbEntity
  8
0
100
AcDbLine
 62
7
  6
CONTINUOUS
 10
5.7593357258
 20
3.9837072981
 11
5.8180857258
 21
3.9837072981
  0
LINE
  5
311
100
AcDbEntity
  8
0
100
AcDbLine
 62
7
  6
CONTINUOUS
 10
3.7168357258
 20
4.0299572981
 11
2.9783357258
 21
4.0299572981
  0
LINE
  5
312
100
AcDbEntity
  8
0
100
AcDbLine
 62
7
  6
CONTINUOUS
 10
4.8418357258
 20
4.0299572981
 11
5.5803357258
 21
4.0299572981
  0
LINE
  5
313
100
AcDbEntity
  8
0
100
AcDbLine
 62
7
  6
CONTINUOUS
 10
5.5803357258
 20
4.0299572981
 11
5.5803357258
 21
4.5599572981
  0
LINE
  5
314
100
AcDbEntity
  8
0
100
AcDbLine
 62
7
  6
CONTINUOUS
 10
5.6393357258
 20
4.6287072981
 11
5.6393357258
 21
3.9612072981
  0
LINE
  5
315
100
AcDbEntity
  8
0
100
AcDbLine
 62
7
  6
CONTINUOUS
 10
5.6493357258
 20
4.6387072981
 11
5.6493357258
 21
3.9512072981
  0
LINE
  5
316
100
AcDbEntity
  8
0
100
AcDbLine
 62
7
  6
CONTINUOUS
 10
5.7218357258
 20
1.5324572981
 11
5.7218357258
 21
1.601066282
  0
LINE
  5
317
100
AcDbEntity
  8
0
100
AcDbLine
 62
7
  6
CONTINUOUS
 10
5.7860121348
 20
1.7349572981
 11
5.7860121348
 21
1.6457072981
  0
LINE
  5
318
100
AcDbEntity
  8
0
100
AcDbLine
 62
7
  6
CONTINUOUS
 10
5.7900313727
 20
1.7349572981
 11
5.7900313727
 21
1.6457072981
  0
LINE
  5
319
100
AcDbEntity
  8
0
100
AcDbLine
 62
7
  6
CONTINUOUS
 10
1.930316488
 20
2.4024572982
 11
1.9043357259
 21
2.3874572982
  0
LINE
  5
31A
100
AcDbEntity
  8
0
100
AcDbLine
 62
7
  6
CONTINUOUS
 10
10.4092395364
 20
4.1028707845
 11
10.1494319152
 21
4.1028707845
  0
LINE
  5
31B
100
AcDbEntity
  8
0
100
AcDbLine
 62
7
  6
CONTINUOUS
 10
4.7798357258
 20
4.2837122759
 11
3.7788357258
 21
4.2837122759
  0
LINE
  5
31C
100
AcDbEntity
  8
0
100
AcDbLine
 62
7
  6
CONTINUOUS
 10
5.9043357258
 20
1.7449572981
 11
5.9043357258
 21
2.3874572981
  0
LINE
  5
31D
100
AcDbEntity
  8
0
100
AcDbLine
 62
7
  6
CONTINUOUS
 10
5.9355857258
 20
2.4024572981
 11
5.9355857258
 21
2.4324572981
  0
LINE
  5
31E
100
AcDbEntity
  8
0
100
AcDbLine
 62
7
  6
CONTINUOUS
 10
5.9355857258
 20
3.6649572981
 11
5.9355857258
 21
3.735666714
  0
LINE
  5
31F
100
AcDbEntity
  8
0
100
AcDbLine
 62
7
  6
CONTINUOUS
 10
5.9418357258
 20
2.7849572981
 11
5.9418357258
 21
3.3799572981
  0
LINE
  5
320
100
AcDbEntity
  8
0
100
AcDbLine
 62
7
  6
CONTINUOUS
 10
5.9668357258
 20
2.4324572981
 11
5.9668357258
 21
2.7295046156
  0
LINE
  5
321
100
AcDbEntity
  8
0
100
AcDbLine
 62
7
  6
CONTINUOUS
 10
5.9680857258
 20
3.8337072981
 11
5.9680857258
 21
3.7749572981
  0
LINE
  5
322
100
AcDbEntity
  8
0
100
AcDbLine
 62
7
  6
CONTINUOUS
 10
5.9980857258
 20
3.4517969634
 11
5.9980857258
 21
3.6249572981
  0
LINE
  5
323
100
AcDbEntity
  8
0
100
AcDbLine
 62
7
  6
CONTINUOUS
 10
6.0216931682
 20
1.7349572981
 11
6.0216931682
 21
1.6457072981
  0
LINE
  5
324
100
AcDbEntity
  8
0
100
AcDbLine
 62
7
  6
CONTINUOUS
 10
6.0476739303
 20
1.6357072981
 11
6.0476739303
 21
1.7449572981
  0
LINE
  5
325
100
AcDbEntity
  8
0
100
AcDbLine
 62
7
  6
CONTINUOUS
 10
1.7695152177
 20
1.6343675522
 11
1.7268357258
 21
1.609726536
  0
LINE
  5
326
100
AcDbEntity
  8
0
100
AcDbLine
 62
7
  6
CONTINUOUS
 10
0.6938357258
 20
4.5519572981
 11
0.8313357258
 21
4.5519572981
  0
LINE
  5
327
100
AcDbEntity
  8
0
100
AcDbLine
 62
7
  6
CONTINUOUS
 10
7.7273357258
 20
4.5519572981
 11
7.8648357258
 21
4.5519572981
  0
LINE
  5
328
100
AcDbEntity
  8
0
100
AcDbLine
 62
7
  6
CONTINUOUS
 10
3.7168357258
 20
4.5599572981
 11
2.9783357258
 21
4.5599572981
  0
LINE
  5
329
100
AcDbEntity
  8
0
100
AcDbLine
 62
7
  6
CONTINUOUS
 10
4.8418357258
 20
4.5599572981
 11
5.5803357258
 21
4.5599572981
  0
LINE
  5
32A
100
AcDbEntity
  8
0
100
AcDbLine
 62
7
  6
CONTINUOUS
 10
2.7993357258
 20
4.6062072981
 11
2.6555857258
 21
4.6062072981
  0
LINE
  5
32B
100
AcDbEntity
  8
0
100
AcDbLine
 62
7
  6
CONTINUOUS
 10
5.7593357258
 20
4.6062072981
 11
5.9030857258
 21
4.6062072981
  0
LINE
  5
32C
100
AcDbEntity
  8
0
100
AcDbLine
 62
7
  6
CONTINUOUS
 10
4.8268357258
 20
4.6074572981
 11
4.8098357258
 21
4.6074572981
  0
LINE
  5
32D
100
AcDbEntity
  8
0
100
AcDbLine
 62
7
  6
CONTINUOUS
 10
3.7318357258
 20
4.6074572981
 11
3.7488357258
 21
4.6074572981
  0
LINE
  5
32E
100
AcDbEntity
  8
0
100
AcDbLine
 62
7
  6
CONTINUOUS
 10
2.9093357258
 20
4.6387072981
 11
2.8386263099
 21
4.6387072981
  0
LINE
  5
32F
100
AcDbEntity
  8
0
100
AcDbLine
 62
7
  6
CONTINUOUS
 10
5.6493357258
 20
4.6387072981
 11
5.7200451417
 21
4.6387072981
  0
LINE
  5
330
100
AcDbEntity
  8
0
100
AcDbLine
 62
7
  6
CONTINUOUS
 10
7.8548357258
 20
4.6454572981
 11
7.7373357258
 21
4.6454572981
  0
LINE
  5
331
100
AcDbEntity
  8
0
100
AcDbLine
 62
7
  6
CONTINUOUS
 10
0.8213357258
 20
4.6454572981
 11
0.7038357258
 21
4.6454572981
  0
LINE
  5
332
100
AcDbEntity
  8
0
100
AcDbLine
 62
7
  6
CONTINUOUS
 10
3.7788357258
 20
4.7577695507
 11
4.7798357258
 21
4.7577695507
  0
LINE
  5
333
100
AcDbEntity
  8
0
100
AcDbLine
 62
7
  6
CONTINUOUS
 10
3.7788357258
 20
4.7887072981
 11
4.1904033422
 21
4.7887072981
  0
LINE
  5
334
100
AcDbEntity
  8
0
100
AcDbLine
 62
7
  6
CONTINUOUS
 10
4.3682681094
 20
4.7887072981
 11
4.7798357258
 21
4.7887072981
  0
LINE
  5
335
100
AcDbEntity
  8
0
100
AcDbLine
 62
7
  6
CONTINUOUS
 10
3.9980857258
 20
4.8477072981
 11
4.2058243874
 21
4.8477072981
  0
LINE
  5
336
100
AcDbEntity
  8
0
100
AcDbLine
 62
7
  6
CONTINUOUS
 10
4.3528470642
 20
4.8477072981
 11
4.5605857258
 21
4.8477072981
  0
LINE
  5
337
100
AcDbEntity
  8
0
100
AcDbLine
 62
7
  6
CONTINUOUS
 10
10.7891562339
 20
1.6343675522
 11
10.8318357258
 21
1.609726536
  0
LINE
  5
338
100
AcDbEntity
  8
0
100
AcDbLine
 62
7
  6
CONTINUOUS
 10
7.6045148369
 20
3.3031439433
 11
7.5968543925
 21
3.3095718194
  0
LINE
  5
339
100
AcDbEntity
  8
0
100
AcDbLine
 62
7
  6
CONTINUOUS
 10
7.7266939481
 20
3.3159996955
 11
7.7343543925
 21
3.3095718194
  0
LINE
  5
33A
100
AcDbEntity
  8
0
100
AcDbLine
 62
7
  6
CONTINUOUS
 10
6.2793357258
 20
2.7295046156
 11
6.2793357258
 21
3.4517969634
  0
LINE
  5
33B
100
AcDbEntity
  8
0
100
AcDbLine
 62
7
  6
CONTINUOUS
 10
6.5109975213
 20
1.6357072981
 11
6.5109975213
 21
1.7449572981
  0
LINE
  5
33C
100
AcDbEntity
  8
0
100
AcDbLine
 62
7
  6
CONTINUOUS
 10
6.5369782834
 20
1.7349572981
 11
6.5369782834
 21
1.6457072981
  0
LINE
  5
33D
100
AcDbEntity
  8
0
100
AcDbLine
 62
7
  6
CONTINUOUS
 10
6.5605857258
 20
3.4539572981
 11
6.5605857258
 21
3.6249572981
  0
LINE
  5
33E
100
AcDbEntity
  8
0
100
AcDbLine
 62
7
  6
CONTINUOUS
 10
4.6370856333
 20
5.0274572981
 11
3.9215858183
 21
5.0274572981
  0
LINE
  5
33F
100
AcDbEntity
  8
0
100
AcDbLine
 62
7
  6
CONTINUOUS
 10
3.9215858183
 20
5.1749572981
 11
4.6370856333
 21
5.1749572981
  0
LINE
  5
340
100
AcDbEntity
  8
0
100
AcDbLine
 62
7
  6
CONTINUOUS
 10
3.9415858183
 20
5.1949572981
 11
4.6170856333
 21
5.1949572981
  0
LINE
  5
341
100
AcDbEntity
  8
0
100
AcDbLine
 62
7
  6
CONTINUOUS
 10
7.7279775035
 20
3.4502810198
 11
7.7203170591
 21
3.4567088959
  0
LINE
  5
342
100
AcDbEntity
  8
0
100
AcDbLine
 62
7
  6
CONTINUOUS
 10
7.8501566147
 20
3.463136772
 11
7.8578170591
 21
3.4567088959
  0
LINE
  5
343
100
AcDbEntity
  8
0
100
AcDbLine
 62
7
  6
CONTINUOUS
 10
6.5905857258
 20
3.9187072981
 11
6.5905857258
 21
3.7749572981
  0
LINE
  5
344
100
AcDbEntity
  8
0
100
AcDbLine
 62
7
  6
CONTINUOUS
 10
6.5918357258
 20
2.4324572981
 11
6.5918357258
 21
2.7109572981
  0
LINE
  5
345
100
AcDbEntity
  8
0
100
AcDbLine
 62
7
  6
CONTINUOUS
 10
6.6230857258
 20
2.4024572981
 11
6.6230857258
 21
2.4324572981
  0
LINE
  5
346
100
AcDbEntity
  8
0
100
AcDbLine
 62
7
  6
CONTINUOUS
 10
6.6230857258
 20
3.6649572981
 11
6.6230857258
 21
3.735666714
  0
LINE
  5
347
100
AcDbEntity
  8
0
100
AcDbLine
 62
7
  6
CONTINUOUS
 10
6.6543357258
 20
1.7449572981
 11
6.6543357258
 21
2.3874572981
  0
LINE
  5
348
100
AcDbEntity
  8
0
100
AcDbLine
 62
7
  6
CONTINUOUS
 10
6.7686400789
 20
1.7349572981
 11
6.7686400789
 21
1.6457072981
  0
LINE
  5
349
100
AcDbEntity
  8
0
100
AcDbLine
 62
7
  6
CONTINUOUS
 10
6.7726593168
 20
1.7349572981
 11
6.7726593168
 21
1.6457072981
  0
LINE
  5
34A
100
AcDbEntity
  8
0
100
AcDbLine
 62
7
  6
CONTINUOUS
 10
6.8118357258
 20
2.7699572981
 11
6.8118357258
 21
3.3949572981
  0
LINE
  5
34B
100
AcDbEntity
  8
0
100
AcDbLine
 62
7
  6
CONTINUOUS
 10
6.8368357258
 20
1.5324572981
 11
6.8368357258
 21
1.601066282
  0
LINE
  5
34C
100
AcDbEntity
  8
0
100
AcDbLine
 62
7
  6
CONTINUOUS
 10
6.8418357258
 20
3.3799572981
 11
6.8418357258
 21
2.7849572981
  0
LWPOLYLINE
  5
34D
100
AcDbEntity
  8
0
100
AcDbPolyline
 62
7
  6
CONTINUOUS
 90
16
 70
0
 10
7.9008699048
 20
3.0729903463
 10
7.9008707475
 20
3.0729892534
 10
7.900865596
 20
3.0729967092
 10
7.90085512
 20
3.073012714
 10
7.9008397443
 20
3.0730375471
 10
7.9008198206
 20
3.0730715705
 10
7.9007956801
 20
3.0731151655
 10
7.9007676821
 20
3.0731686464
 10
7.9007361741
 20
3.0732323264
 10
7.9007015204
 20
3.0733064644
 10
7.9006640976
 20
3.0733912654
 10
7.9006242458
 20
3.0734869912
 10
7.9005823383
 20
3.0735938034
 10
7.9005387884
 20
3.0737117169
 10
7.9004939009
 20
3.0738410039
 10
7.9004480762
 20
3.0739816462
  0
LINE
  5
34E
100
AcDbEntity
  8
0
100
AcDbLine
 62
7
  6
CONTINUOUS
 10
7.0743357258
 20
2.8199572981
 11
7.0743357258
 21
3.3449572981
  0
LINE
  5
34F
100
AcDbEntity
  8
0
100
AcDbLine
 62
7
  6
CONTINUOUS
 10
7.0893357258
 20
2.7491411449
 11
7.0893357258
 21
3.4157734514
  0
LINE
  5
350
100
AcDbEntity
  8
0
100
AcDbLine
 62
7
  6
CONTINUOUS
 10
7.0993357258
 20
2.7391411474
 11
7.0993357258
 21
3.4257734489
  0
LINE
  5
351
100
AcDbEntity
  8
0
100
AcDbLine
 62
7
  6
CONTINUOUS
 10
7.3293357258
 20
3.4257734489
 11
7.3293357258
 21
2.7391411474
  0
LINE
  5
352
100
AcDbEntity
  8
0
100
AcDbLine
 62
7
  6
CONTINUOUS
 10
7.3393357258
 20
3.4157734514
 11
7.3393357258
 21
2.7491411449
  0
LINE
  5
353
100
AcDbEntity
  8
0
100
AcDbLine
 62
7
  6
CONTINUOUS
 10
7.9031829537
 20
3.12798794
 11
7.9024373034
 21
3.1298165693
  0
LINE
  5
354
100
AcDbEntity
  8
0
100
AcDbLine
 62
7
  6
CONTINUOUS
 10
7.902446776
 20
3.1297928731
 11
7.9017243102
 21
3.1315872718
  0
LINE
  5
355
100
AcDbEntity
  8
0
100
AcDbLine
 62
7
  6
CONTINUOUS
 10
7.9017371387
 20
3.1315554109
 11
7.9011685714
 21
3.1329862883
  0
LINE
  5
356
100
AcDbEntity
  8
0
100
AcDbLine
 62
7
  6
CONTINUOUS
 10
7.9012074705
 20
3.1328876789
 11
7.9007993684
 21
3.1339282442
  0
LINE
  5
357
100
AcDbEntity
  8
0
100
AcDbLine
 62
7
  6
CONTINUOUS
 10
7.9008270283
 20
3.1338571492
 11
7.9005039715
 21
3.1346923975
  0
LINE
  5
358
100
AcDbEntity
  8
0
100
AcDbLine
 62
7
  6
CONTINUOUS
 10
7.9005287435
 20
3.1346278959
 11
7.900300898
 21
3.1352253145
  0
LINE
  5
359
100
AcDbEntity
  8
0
100
AcDbLine
 62
7
  6
CONTINUOUS
 10
7.9003389974
 20
3.1351246615
 11
7.9001737322
 21
3.1355635517
  0
LINE
  5
35A
100
AcDbEntity
  8
0
100
AcDbLine
 62
7
  6
CONTINUOUS
 10
7.900198624
 20
3.1354970292
 11
7.9000650271
 21
3.1358567707
  0
LINE
  5
35B
100
AcDbEntity
  8
0
100
AcDbLine
 62
7
  6
CONTINUOUS
 10
7.9000829857
 20
3.1358081627
 11
7.8999898117
 21
3.1360627062
  0
LINE
  5
35C
100
AcDbEntity
  8
0
100
AcDbLine
 62
7
  6
CONTINUOUS
 10
7.9000169115
 20
3.1359881175
 11
7.8999319097
 21
3.136223166
  0
LINE
  5
35D
100
AcDbEntity
  8
0
100
AcDbLine
 62
7
  6
CONTINUOUS
 10
7.8999394092
 20
3.1362022423
 11
7.8998774396
 21
3.1363763555
  0
LINE
  5
35E
100
AcDbEntity
  8
0
100
AcDbLine
 62
7
  6
CONTINUOUS
 10
7.8998774396
 20
3.1363763555
 11
7.899831128
 21
3.1365089017
  0
LINE
  5
35F
100
AcDbEntity
  8
0
100
AcDbLine
 62
7
  6
CONTINUOUS
 10
7.5898357258
 20
3.2902881911
 11
7.5898357258
 21
2.8737072981
  0
LINE
  5
360
100
AcDbEntity
  8
0
100
AcDbLine
 62
7
  6
CONTINUOUS
 10
7.5998357258
 20
3.2902881911
 11
7.5998357258
 21
2.8637072981
  0
LINE
  5
361
100
AcDbEntity
  8
0
100
AcDbLine
 62
7
  6
CONTINUOUS
 10
7.7173357258
 20
2.8637072981
 11
7.7173357258
 21
3.2902881911
  0
LINE
  5
362
100
AcDbEntity
  8
0
100
AcDbLine
 62
7
  6
CONTINUOUS
 10
7.7273357258
 20
4.6354572981
 11
7.7273357258
 21
3.4759925241
  0
LINE
  5
363
100
AcDbEntity
  8
0
100
AcDbLine
 62
7
  6
CONTINUOUS
 10
7.7273357258
 20
2.8737072981
 11
7.7273357258
 21
3.2902881911
  0
LINE
  5
364
100
AcDbEntity
  8
0
100
AcDbLine
 62
7
  6
CONTINUOUS
 10
7.7373357258
 20
4.6454572981
 11
7.7373357258
 21
3.4759925241
  0
LINE
  5
365
100
AcDbEntity
  8
0
100
AcDbLine
 62
7
  6
CONTINUOUS
 10
5.930316488
 20
2.4024572982
 11
5.9043357259
 21
2.3874572982
  0
LINE
  5
366
100
AcDbEntity
  8
0
100
AcDbLine
 62
7
  6
CONTINUOUS
 10
4.0193357258
 20
6.1009572981
 11
4.5393357258
 21
6.1009572981
  0
LINE
  5
367
100
AcDbEntity
  8
0
100
AcDbLine
 62
7
  6
CONTINUOUS
 10
4.0143357258
 20
6.1059572981
 11
4.5443357258
 21
6.1059572981
  0
LINE
  5
368
100
AcDbEntity
  8
0
100
AcDbLine
 62
7
  6
CONTINUOUS
 10
4.0143357258
 20
6.3324572981
 11
4.5443357258
 21
6.3324572981
  0
LINE
  5
369
100
AcDbEntity
  8
0
100
AcDbLine
 62
7
  6
CONTINUOUS
 10
4.6130857258
 20
6.3374572981
 11
3.9455857258
 21
6.3374572981
  0
LINE
  5
36A
100
AcDbEntity
  8
0
100
AcDbLine
 62
7
  6
CONTINUOUS
 10
4.6230857258
 20
6.3474572981
 11
3.9355857258
 21
6.3474572981
  0
LINE
  5
36B
100
AcDbEntity
  8
0
100
AcDbLine
 62
7
  6
CONTINUOUS
 10
3.9355857258
 20
6.4209572981
 11
4.6230857258
 21
6.4209572981
  0
LINE
  5
36C
100
AcDbEntity
  8
0
100
AcDbLine
 62
7
  6
CONTINUOUS
 10
7.899831128
 20
3.1365089017
 11
7.8998048329
 21
3.1365855198
  0
LINE
  5
36D
100
AcDbEntity
  8
0
100
AcDbLine
 62
7
  6
CONTINUOUS
 10
7.8998048329
 20
3.1365855198
 11
7.8997823189
 21
3.1366522217
  0
LINE
  5
36E
100
AcDbEntity
  8
0
100
AcDbLine
 62
7
  6
CONTINUOUS
 10
7.8997823189
 20
3.1366522217
 11
7.8997635951
 21
3.1367087582
  0
LINE
  5
36F
100
AcDbEntity
  8
0
100
AcDbLine
 62
7
  6
CONTINUOUS
 10
7.8997635951
 20
3.1367087582
 11
7.8997486896
 21
3.1367547511
  0
LWPOLYLINE
  5
370
100
AcDbEntity
  8
0
100
AcDbPolyline
 62
7
  6
CONTINUOUS
 90
3
 70
0
 10
7.8997486896
 20
3.1367547511
 10
7.8997376523
 20
3.1367896594
 10
7.8997335487
 20
3.1368029209
  0
LINE
  5
371
100
AcDbEntity
  8
0
100
AcDbLine
 62
7
  6
CONTINUOUS
 10
7.9004480762
 20
3.0739816462
 11
7.9003968746
 21
3.0741500341
  0
LINE
  5
372
100
AcDbEntity
  8
0
100
AcDbLine
 62
7
  6
CONTINUOUS
 10
7.8997304646
 20
3.1368130423
 11
7.8997282844
 21
3.1368203172
  0
LINE
  5
373
100
AcDbEntity
  8
0
100
AcDbLine
 62
7
  6
CONTINUOUS
 10
7.9004018585
 20
3.0741330933
 11
7.9003493701
 21
3.0743180667
  0
LINE
  5
374
100
AcDbEntity
  8
0
100
AcDbLine
 62
7
  6
CONTINUOUS
 10
7.9003556075
 20
3.0742952702
 11
7.9003023584
 21
3.0744968647
  0
LINE
  5
375
100
AcDbEntity
  8
0
100
AcDbLine
 62
7
  6
CONTINUOUS
 10
7.900309661
 20
3.074468118
 11
7.9002561728
 21
3.0746862894
  0
LINE
  5
376
100
AcDbEntity
  8
0
100
AcDbLine
 62
7
  6
CONTINUOUS
 10
7.9002644966
 20
3.0746509278
 11
7.9002111496
 21
3.0748861103
  0
LINE
  5
377
100
AcDbEntity
  8
0
100
AcDbLine
 62
7
  6
CONTINUOUS
 10
7.9002204165
 20
3.0748435187
 11
7.9001677494
 21
3.0750953677
  0
LWPOLYLINE
  5
378
100
AcDbEntity
  8
0
100
AcDbPolyline
 62
7
  6
CONTINUOUS
 90
16
 70
0
 10
7.9001777172
 20
3.0750456487
 10
7.9001262614
 20
3.0753137031
 10
7.9000869662
 20
3.0755408355
 10
7.9000502309
 20
3.0757758157
 10
7.9000162932
 20
3.0760181927
 10
7.8999853596
 20
3.0762675403
 10
7.8999576694
 20
3.0765228588
 10
7.8999333611
 20
3.0767836478
 10
7.8999125509
 20
3.0770493951
 10
7.8998954127
 20
3.0773189929
 10
7.8998821039
 20
3.0775917443
 10
7.8998727346
 20
3.0778670834
 10
7.8998673782
 20
3.0781440091
 10
7.8998660428
 20
3.0784218987
 10
7.8998686923
 20
3.0787000552
 10
7.8998698919
 20
3.0787502339
  0
LWPOLYLINE
  5
379
100
AcDbEntity
  8
0
100
AcDbPolyline
 62
7
  6
CONTINUOUS
 90
16
 70
0
 10
7.900136805
 20
3.0752563826
 10
7.9000979283
 20
3.0754753612
 10
7.9000613298
 20
3.0757022933
 10
7.9000273349
 20
3.0759362511
 10
7.8999961523
 20
3.0761767864
 10
7.8999679582
 20
3.0764234987
 10
7.899942955
 20
3.0766754616
 10
7.8999212582
 20
3.0769322048
 10
7.8999029637
 20
3.0771932379
 10
7.8998882182
 20
3.0774575222
 10
7.8998771498
 20
3.0777244086
 10
7.8998698427
 20
3.0779933649
 10
7.8998663456
 20
3.0782634551
 10
7.8998666502
 20
3.0785341053
 10
7.8998707084
 20
3.0788046752
 10
7.8998756318
 20
3.078990332
  0
LWPOLYLINE
  5
37A
100
AcDbEntity
  8
0
100
AcDbPolyline
 62
7
  6
CONTINUOUS
 90
36
 70
0
 10
7.8998756319
 20
3.0859242621
 10
7.8998686923
 20
3.0862145411
 10
7.8998660428
 20
3.0864926976
 10
7.8998673782
 20
3.0867705872
 10
7.8998727346
 20
3.0870475128
 10
7.8998821039
 20
3.087322852
 10
7.8998954127
 20
3.0875956034
 10
7.8999125509
 20
3.0878652012
 10
7.8999333611
 20
3.0881309484
 10
7.8999576694
 20
3.0883917375
 10
7.8999853596
 20
3.0886470559
 10
7.9000162932
 20
3.0888964036
 10
7.9000502309
 20
3.0891387806
 10
7.9000869662
 20
3.0893737607
 10
7.9001262614
 20
3.0896008932
 10
7.9001677494
 20
3.0898192286
 10
7.9002111496
 20
3.0900284859
 10
7.9002561728
 20
3.0902283069
 10
7.9003023584
 20
3.0904177316
 10
7.9003493701
 20
3.0905965295
 10
7.9003968746
 20
3.0907645621
 10
7.9004443497
 20
3.0909211502
 10
7.9004914277
 20
3.0910662822
 10
7.9005377111
 20
3.0911999089
 10
7.9005825935
 20
3.0913214869
 10
7.900625639
 20
3.0914310606
 10
7.9006665136
 20
3.0915289614
 10
7.900704758
 20
3.091615242
 10
7.9007399458
 20
3.0916900859
 10
7.9007717456
 20
3.0917539022
 10
7.900799825
 20
3.0918070958
 10
7.9008238076
 20
3.0918499957
 10
7.900843308
 20
3.0918829372
 10
7.900857941
 20
3.0919062814
 10
7.9008673697
 20
3.09192049
 10
7.9008682695
 20
3.0919217975
  0
LINE
  5
37B
100
AcDbEntity
  8
0
100
AcDbLine
 62
7
  6
CONTINUOUS
 10
7.8423357258
 20
3.2137072981
 11
7.8423357258
 21
2.9512072981
  0
LINE
  5
37C
100
AcDbEntity
  8
0
100
AcDbLine
 62
7
  6
CONTINUOUS
 10
7.8523357258
 20
3.2037072981
 11
7.8523357258
 21
2.9612072981
  0
LINE
  5
37D
100
AcDbEntity
  8
0
100
AcDbLine
 62
7
  6
CONTINUOUS
 10
7.8548357258
 20
3.4759925241
 11
7.8548357258
 21
4.6454572981
  0
LINE
  5
37E
100
AcDbEntity
  8
0
100
AcDbLine
 62
7
  6
CONTINUOUS
 10
7.8623357258
 20
3.1613914822
 11
7.8623357258
 21
3.0035231141
  0
LINE
  5
37F
100
AcDbEntity
  8
0
100
AcDbLine
 62
7
  6
CONTINUOUS
 10
7.8648357258
 20
3.4759925241
 11
7.8648357258
 21
4.6354572981
  0
LINE
  5
380
100
AcDbEntity
  8
0
100
AcDbLine
 62
7
  6
CONTINUOUS
 10
7.8786854808
 20
3.1613914822
 11
7.8786854808
 21
3.0035231141
  0
LINE
  5
381
100
AcDbEntity
  8
0
100
AcDbLine
 62
7
  6
CONTINUOUS
 10
7.8864632142
 20
3.1576769307
 11
7.8864632142
 21
3.0072376656
  0
LINE
  5
382
100
AcDbEntity
  8
0
100
AcDbLine
 62
7
  6
CONTINUOUS
 10
7.7203170591
 20
3.4567088959
 11
7.5968543925
 21
3.3095718194
  0
LINE
  5
383
100
AcDbEntity
  8
0
100
AcDbLine
 62
7
  6
CONTINUOUS
 10
7.7279775035
 20
3.4502810198
 11
7.6045148369
 21
3.3031439433
  0
LINE
  5
384
100
AcDbEntity
  8
0
100
AcDbLine
 62
7
  6
CONTINUOUS
 10
7.7266939481
 20
3.3159996955
 11
7.8501566147
 21
3.463136772
  0
LINE
  5
385
100
AcDbEntity
  8
0
100
AcDbLine
 62
7
  6
CONTINUOUS
 10
7.7343543925
 20
3.3095718194
 11
7.8578170591
 21
3.4567088959
  0
LWPOLYLINE
  5
386
100
AcDbEntity
  8
0
100
AcDbPolyline
 62
7
  6
CONTINUOUS
 90
8
 70
0
 10
7.8997298686
 20
3.0281005206
 10
7.8997287444
 20
3.0280964171
 10
7.8997265831
 20
3.0280886698
 10
7.8997260835
 20
3.0280869156
 10
7.8997272162
 20
3.0280907597
 10
7.8997295894
 20
3.0280986742
 10
7.8997331688
 20
3.0281104081
 10
7.8997380829
 20
3.0281262535
  0
LINE
  5
387
100
AcDbEntity
  8
0
100
AcDbLine
 62
7
  6
CONTINUOUS
 10
7.8997380829
 20
3.0281262535
 11
7.8997512905
 21
3.0281678656
  0
LINE
  5
388
100
AcDbEntity
  8
0
100
AcDbLine
 62
7
  6
CONTINUOUS
 10
7.8997512905
 20
3.0281678656
 11
7.8997691411
 21
3.028222647
  0
LINE
  5
389
100
AcDbEntity
  8
0
100
AcDbLine
 62
7
  6
CONTINUOUS
 10
7.8997691411
 20
3.028222647
 11
7.8997916225
 21
3.0282900785
  0
LINE
  5
38A
100
AcDbEntity
  8
0
100
AcDbLine
 62
7
  6
CONTINUOUS
 10
7.8997916225
 20
3.0282900785
 11
7.8998187704
 21
3.0283698933
  0
LINE
  5
38B
100
AcDbEntity
  8
0
100
AcDbLine
 62
7
  6
CONTINUOUS
 10
7.8998187704
 20
3.0283698933
 11
7.8998506423
 21
3.0284619694
  0
LINE
  5
38C
100
AcDbEntity
  8
0
100
AcDbLine
 62
7
  6
CONTINUOUS
 10
7.8998506423
 20
3.0284619694
 11
7.899907301
 21
3.0286225986
  0
LINE
  5
38D
100
AcDbEntity
  8
0
100
AcDbLine
 62
7
  6
CONTINUOUS
 10
7.899907301
 20
3.0286225986
 11
7.8999744882
 21
3.0288096221
  0
LINE
  5
38E
100
AcDbEntity
  8
0
100
AcDbLine
 62
7
  6
CONTINUOUS
 10
7.8999744882
 20
3.0288096221
 11
7.9000514393
 21
3.0290206895
  0
LINE
  5
38F
100
AcDbEntity
  8
0
100
AcDbLine
 62
7
  6
CONTINUOUS
 10
7.9000514393
 20
3.0290206895
 11
7.900168996
 21
3.0293382802
  0
LINE
  5
390
100
AcDbEntity
  8
0
100
AcDbLine
 62
7
  6
CONTINUOUS
 10
7.900168996
 20
3.0293382802
 11
7.9003040977
 21
3.0296978115
  0
LINE
  5
391
100
AcDbEntity
  8
0
100
AcDbLine
 62
7
  6
CONTINUOUS
 10
7.9003040977
 20
3.0296978115
 11
7.9004982523
 21
3.030207289
  0
LINE
  5
392
100
AcDbEntity
  8
0
100
AcDbLine
 62
7
  6
CONTINUOUS
 10
7.9004982523
 20
3.030207289
 11
7.9007681667
 21
3.0309061968
  0
LINE
  5
393
100
AcDbEntity
  8
0
100
AcDbLine
 62
7
  6
CONTINUOUS
 10
7.9007681667
 20
3.0309061968
 11
7.9011335614
 21
3.0318395554
  0
LINE
  5
394
100
AcDbEntity
  8
0
100
AcDbLine
 62
7
  6
CONTINUOUS
 10
7.9011335614
 20
3.0318395554
 11
7.9016813832
 21
3.0332197041
  0
LINE
  5
395
100
AcDbEntity
  8
0
100
AcDbLine
 62
7
  6
CONTINUOUS
 10
7.9016813832
 20
3.0332197041
 11
7.9023854843
 21
3.0349703799
  0
LINE
  5
396
100
AcDbEntity
  8
0
100
AcDbLine
 62
7
  6
CONTINUOUS
 10
7.9023854843
 20
3.0349703799
 11
7.9031829533
 21
3.0369266552
  0
LINE
  5
397
100
AcDbEntity
  8
0
100
AcDbLine
 62
7
  6
CONTINUOUS
 10
5.7695152177
 20
1.6343675522
 11
5.7268357258
 21
1.609726536
  0
LINE
  5
398
100
AcDbEntity
  8
0
100
AcDbLine
 62
7
  6
CONTINUOUS
 10
4.6149607258
 20
6.9812072981
 11
4.5905857258
 21
6.9812072981
  0
LINE
  5
399
100
AcDbEntity
  8
0
100
AcDbLine
 62
7
  6
CONTINUOUS
 10
3.9437107258
 20
6.9812072981
 11
3.9680857258
 21
6.9812072981
  0
LINE
  5
39A
100
AcDbEntity
  8
0
100
AcDbLine
 62
7
  6
CONTINUOUS
 10
9.9762268345
 20
3.8028707845
 11
10.106130645
 21
3.5778707845
  0
LINE
  5
39B
100
AcDbEntity
  8
0
100
AcDbLine
 62
7
  6
CONTINUOUS
 10
10.106130645
 20
4.0778707845
 11
9.9762268345
 21
3.8528707845
  0
LINE
  5
39C
100
AcDbEntity
  8
0
100
AcDbLine
 62
7
  6
CONTINUOUS
 10
10.5824446171
 20
3.8528707845
 11
10.4525408066
 21
4.0778707845
  0
LINE
  5
39D
100
AcDbEntity
  8
0
100
AcDbLine
 62
7
  6
CONTINUOUS
 10
10.0210138276
 20
2.0749572981
 11
10.0207447842
 21
2.0903707845
  0
LINE
  5
39E
100
AcDbEntity
  8
0
100
AcDbLine
 62
7
  6
CONTINUOUS
 10
9.7218357258
 20
1.5324572981
 11
9.7218357258
 21
1.601066282
  0
LINE
  5
39F
100
AcDbEntity
  8
0
100
AcDbLine
 62
7
  6
CONTINUOUS
 10
9.7860121348
 20
1.7349572981
 11
9.7860121348
 21
1.6457072981
  0
LINE
  5
3A0
100
AcDbEntity
  8
0
100
AcDbLine
 62
7
  6
CONTINUOUS
 10
9.7900313727
 20
1.7349572981
 11
9.7900313727
 21
1.6457072981
  0
LINE
  5
3A1
100
AcDbEntity
  8
0
100
AcDbLine
 62
7
  6
CONTINUOUS
 10
9.9510857258
 20
2.0749572981
 11
9.9510857258
 21
1.7449572981
  0
LINE
  5
3A2
100
AcDbEntity
  8
0
100
AcDbLine
 62
7
  6
CONTINUOUS
 10
10.0216931682
 20
1.7349572981
 11
10.0216931682
 21
1.6457072981
  0
LINE
  5
3A3
100
AcDbEntity
  8
0
100
AcDbLine
 62
7
  6
CONTINUOUS
 10
10.0293357258
 20
3.7108834863
 11
10.0293357258
 21
2.0903707845
  0
LINE
  5
3A4
100
AcDbEntity
  8
0
100
AcDbLine
 62
7
  6
CONTINUOUS
 10
10.0476739303
 20
1.6357072981
 11
10.0476739303
 21
1.7449572981
  0
LINE
  5
3A5
100
AcDbEntity
  8
0
100
AcDbLine
 62
7
  6
CONTINUOUS
 10
10.4525408066
 20
3.5778707845
 11
10.5824446171
 21
3.8028707845
  0
LINE
  5
3A6
100
AcDbEntity
  8
0
100
AcDbLine
 62
7
  6
CONTINUOUS
 10
9.7695152177
 20
1.6343675522
 11
9.7268357258
 21
1.609726536
  0
LINE
  5
3A7
100
AcDbEntity
  8
0
100
AcDbLine
 62
7
  6
CONTINUOUS
 10
10.5109975213
 20
1.6357072981
 11
10.5109975213
 21
1.7449572981
  0
LINE
  5
3A8
100
AcDbEntity
  8
0
100
AcDbLine
 62
7
  6
CONTINUOUS
 10
10.5293357258
 20
3.7108834863
 11
10.5293357258
 21
2.0903707845
  0
LINE
  5
3A9
100
AcDbEntity
  8
0
100
AcDbLine
 62
7
  6
CONTINUOUS
 10
10.5369782834
 20
1.7349572981
 11
10.5369782834
 21
1.6457072981
  0
LINE
  5
3AA
100
AcDbEntity
  8
0
100
AcDbLine
 62
7
  6
CONTINUOUS
 10
10.6075857258
 20
2.0749572981
 11
10.6075857258
 21
1.7449572981
  0
LINE
  5
3AB
100
AcDbEntity
  8
0
100
AcDbLine
 62
7
  6
CONTINUOUS
 10
10.7686400789
 20
1.7349572981
 11
10.7686400789
 21
1.6457072981
  0
LINE
  5
3AC
100
AcDbEntity
  8
0
100
AcDbLine
 62
7
  6
CONTINUOUS
 10
10.7726593168
 20
1.7349572981
 11
10.7726593168
 21
1.6457072981
  0
LINE
  5
3AD
100
AcDbEntity
  8
0
100
AcDbLine
 62
7
  6
CONTINUOUS
 10
10.8368357258
 20
1.5324572981
 11
10.8368357258
 21
1.601066282
  0
LINE
  5
3AE
100
AcDbEntity
  8
0
100
AcDbLine
 62
7
  6
CONTINUOUS
 10
10.5376576239
 20
2.0749572981
 11
10.5379266674
 21
2.0903707845
  0
ARC
  5
3AF
100
AcDbEntity
  8
0
100
AcDbCircle
 62
7
  6
CONTINUOUS
 10
2.6508357258
 20
2.7295046156
 40
0.059
100
AcDbArc
 50
131.4649807752
 51
180.0
  0
ARC
  5
3B0
100
AcDbEntity
  8
0
100
AcDbCircle
 62
7
  6
CONTINUOUS
 10
1.9078357258
 20
2.7109572981
 40
0.059
100
AcDbArc
 50
0.0
 51
90.0
  0
ARC
  5
3B1
100
AcDbEntity
  8
0
100
AcDbCircle
 62
7
  6
CONTINUOUS
 10
1.7318357258
 20
2.7849572981
 40
0.015
100
AcDbArc
 50
180.0
 51
270.0
  0
ARC
  5
3B2
100
AcDbEntity
  8
0
100
AcDbCircle
 62
7
  6
CONTINUOUS
 10
2.6018357258
 20
2.7849572981
 40
0.015
100
AcDbArc
 50
311.4649807753
 51
360.0
  0
ARC
  5
3B3
100
AcDbEntity
  8
0
100
AcDbCircle
 62
7
  6
CONTINUOUS
 10
1.7745152177
 20
1.6257072981
 40
0.01
100
AcDbArc
 50
90.0
 51
119.9999999998
  0
ARC
  5
3B4
100
AcDbEntity
  8
0
100
AcDbCircle
 62
7
  6
CONTINUOUS
 10
2.7841562339
 20
1.6257072981
 40
0.01
100
AcDbArc
 50
60.0000000002
 51
90.0
  0
ARC
  5
3B5
100
AcDbEntity
  8
0
100
AcDbCircle
 62
7
  6
CONTINUOUS
 10
2.8268357258
 20
1.601066282
 40
0.01
100
AcDbArc
 50
0.0
 51
60.0000000006
  0
ARC
  5
3B6
100
AcDbEntity
  8
0
100
AcDbCircle
 62
7
  6
CONTINUOUS
 10
1.7318357258
 20
1.601066282
 40
0.01
100
AcDbArc
 50
119.9999999994
 51
180.0
  0
ARC
  5
3B7
100
AcDbEntity
  8
0
100
AcDbCircle
 62
7
  6
CONTINUOUS
 10
1.2293357258
 20
2.7491411474
 40
0.01
100
AcDbArc
 50
180.0
 51
270.0
  0
ARC
  5
3B8
100
AcDbEntity
  8
0
100
AcDbCircle
 62
7
  6
CONTINUOUS
 10
1.4593357258
 20
2.7491411474
 40
0.01
100
AcDbArc
 50
270.0
 51
360.0
  0
ARC
  5
3B9
100
AcDbEntity
  8
0
100
AcDbCircle
 62
7
  6
CONTINUOUS
 10
2.7826593168
 20
1.6457072981
 40
0.01
100
AcDbArc
 50
180.0
 51
270.0
  0
ARC
  5
3BA
100
AcDbEntity
  8
0
100
AcDbCircle
 62
7
  6
CONTINUOUS
 10
1.7760121348
 20
1.6457072981
 40
0.01
100
AcDbArc
 50
270.0
 51
360.0
  0
ARC
  5
3BB
100
AcDbEntity
  8
0
100
AcDbCircle
 62
7
  6
CONTINUOUS
 10
2.7626593168
 20
1.7349572981
 40
0.01
100
AcDbArc
 50
0.0
 51
90.0
  0
ARC
  5
3BC
100
AcDbEntity
  8
0
100
AcDbCircle
 62
7
  6
CONTINUOUS
 10
1.7960121348
 20
1.7349572981
 40
0.01
100
AcDbArc
 50
90.0
 51
180.0
  0
ARC
  5
3BD
100
AcDbEntity
  8
0
100
AcDbCircle
 62
7
  6
CONTINUOUS
 10
1.798695408
 20
1.7373946715
 40
0.0075626276
100
AcDbArc
 50
90.0286477622
 51
105.6926276403
  0
ARC
  5
3BE
100
AcDbEntity
  8
0
100
AcDbCircle
 62
7
  6
CONTINUOUS
 10
2.7599760436
 20
1.7373946715
 40
0.0075626276
100
AcDbArc
 50
74.3073723646
 51
89.9713522379
  0
ARC
  5
3BF
100
AcDbEntity
  8
0
100
AcDbCircle
 62
7
  6
CONTINUOUS
 10
1.4618122952
 20
2.7504822136
 40
0.0075234584
100
AcDbArc
 50
354.6752641094
 51
357.3333187864
  0
ARC
  5
3C0
100
AcDbEntity
  8
0
100
AcDbCircle
 62
7
  6
CONTINUOUS
 10
1.2268591564
 20
2.7504822136
 40
0.0075234584
100
AcDbArc
 50
182.6666812135
 51
185.3247358909
  0
ARC
  5
3C1
100
AcDbEntity
  8
0
100
AcDbCircle
 62
7
  6
CONTINUOUS
 10
1.4618374164
 20
2.7504810318
 40
0.0074983094
100
AcDbArc
 50
357.3334083505
 51
359.9989421971
  0
ARC
  5
3C2
100
AcDbEntity
  8
0
100
AcDbCircle
 62
7
  6
CONTINUOUS
 10
1.2268340352
 20
2.7504810318
 40
0.0074983094
100
AcDbArc
 50
180.0010578029
 51
182.6665916495
  0
ARC
  5
3C3
100
AcDbEntity
  8
0
100
AcDbCircle
 62
7
  6
CONTINUOUS
 10
0.7665051815
 20
3.0824429893
 40
0.1199499066
100
AcDbArc
 50
187.1247474229
 51
202.3028039331
  0
ARC
  5
3C4
100
AcDbEntity
  8
0
100
AcDbCircle
 62
7
  6
CONTINUOUS
 10
0.7665051808
 20
3.0824716073
 40
0.1199499058
100
AcDbArc
 50
157.6971961101
 51
172.8752527148
  0
ARC
  5
3C5
100
AcDbEntity
  8
0
100
AcDbCircle
 62
7
  6
CONTINUOUS
 10
0.7664547687
 20
3.0824437206
 40
0.1199388443
100
AcDbArc
 50
187.1248555617
 51
202.3028644062
  0
ARC
  5
3C6
100
AcDbEntity
  8
0
100
AcDbCircle
 62
7
  6
CONTINUOUS
 10
0.7664547687
 20
3.0824708758
 40
0.1199388443
100
AcDbArc
 50
157.6971356239
 51
172.8751444874
  0
ARC
  5
3C7
100
AcDbEntity
  8
0
100
AcDbCircle
 62
7
  6
CONTINUOUS
 10
0.7652864404
 20
3.0824572981
 40
0.1196726576
100
AcDbArc
 50
141.0571544355
 51
152.3153068088
  0
ARC
  5
3C8
100
AcDbEntity
  8
0
100
AcDbCircle
 62
7
  6
CONTINUOUS
 10
0.7652864404
 20
3.0824572981
 40
0.1196726576
100
AcDbArc
 50
207.6846931912
 51
218.9428455645
  0
ARC
  5
3C9
100
AcDbEntity
  8
0
100
AcDbCircle
 62
7
  6
CONTINUOUS
 10
0.7699742614
 20
3.0824572981
 40
0.111232485
100
AcDbArc
 50
178.2138786846
 51
181.7861200958
  0
ARC
  5
3CA
100
AcDbEntity
  8
0
100
AcDbCircle
 62
7
  6
CONTINUOUS
 10
0.7701571815
 20
3.0824571964
 40
0.1108430071
100
AcDbArc
 50
178.2135016874
 51
181.7864983043
  0
ARC
  5
3CB
100
AcDbEntity
  8
0
100
AcDbCircle
 62
7
  6
CONTINUOUS
 10
0.8013357258
 20
3.2902881911
 40
0.04
100
AcDbArc
 50
0.0
 51
40.0
  0
ARC
  5
3CC
100
AcDbEntity
  8
0
100
AcDbCircle
 62
7
  6
CONTINUOUS
 10
0.8013357258
 20
3.2902881911
 40
0.03
100
AcDbArc
 50
0.0
 51
40.0
  0
ARC
  5
3CD
100
AcDbEntity
  8
0
100
AcDbCircle
 62
7
  6
CONTINUOUS
 10
0.9388357258
 20
3.2902881911
 40
0.03
100
AcDbArc
 50
0.0
 51
40.0
  0
ARC
  5
3CE
100
AcDbEntity
  8
0
100
AcDbCircle
 62
7
  6
CONTINUOUS
 10
0.9388357258
 20
3.2902881911
 40
0.02
100
AcDbArc
 50
0.0
 51
40.0
  0
ARC
  5
3CF
100
AcDbEntity
  8
0
100
AcDbCircle
 62
7
  6
CONTINUOUS
 10
1.7318357258
 20
3.3799572981
 40
0.015
100
AcDbArc
 50
90.0
 51
180.0
  0
ARC
  5
3D0
100
AcDbEntity
  8
0
100
AcDbCircle
 62
7
  6
CONTINUOUS
 10
1.4843357258
 20
3.3599572981
 40
0.015
100
AcDbArc
 50
180.0
 51
270.0
  0
ARC
  5
3D1
100
AcDbEntity
  8
0
100
AcDbCircle
 62
7
  6
CONTINUOUS
 10
1.4843357258
 20
2.8049572981
 40
0.015
100
AcDbArc
 50
90.0
 51
180.0
  0
ARC
  5
3D2
100
AcDbEntity
  8
0
100
AcDbCircle
 62
7
  6
CONTINUOUS
 10
0.6963357258
 20
2.9935231141
 40
0.01
100
AcDbArc
 50
0.0
 51
90.0
  0
ARC
  5
3D3
100
AcDbEntity
  8
0
100
AcDbCircle
 62
7
  6
CONTINUOUS
 10
0.6963357258
 20
3.1713914822
 40
0.01
100
AcDbArc
 50
270.0
 51
360.0
  0
ARC
  5
3D4
100
AcDbEntity
  8
0
100
AcDbCircle
 62
7
  6
CONTINUOUS
 10
0.6799859708
 20
3.0135231141
 40
0.01
100
AcDbArc
 50
218.9428455645
 51
270.0
  0
ARC
  5
3D5
100
AcDbEntity
  8
0
100
AcDbCircle
 62
7
  6
CONTINUOUS
 10
0.6799859708
 20
3.1513914822
 40
0.01
100
AcDbArc
 50
90.0
 51
141.0571544355
  0
ARC
  5
3D6
100
AcDbEntity
  8
0
100
AcDbCircle
 62
7
  6
CONTINUOUS
 10
0.8413357258
 20
2.8737072981
 40
0.01
100
AcDbArc
 50
180.0
 51
270.0
  0
ARC
  5
3D7
100
AcDbEntity
  8
0
100
AcDbCircle
 62
7
  6
CONTINUOUS
 10
0.9588357258
 20
2.8737072981
 40
0.01
100
AcDbArc
 50
270.0
 51
360.0
  0
ARC
  5
3D8
100
AcDbEntity
  8
0
100
AcDbCircle
 62
7
  6
CONTINUOUS
 10
0.7163357258
 20
2.9612072981
 40
0.01
100
AcDbArc
 50
180.0
 51
270.0
  0
ARC
  5
3D9
100
AcDbEntity
  8
0
100
AcDbCircle
 62
7
  6
CONTINUOUS
 10
0.7163357258
 20
3.2037072981
 40
0.01
100
AcDbArc
 50
90.0
 51
180.0
  0
ARC
  5
3DA
100
AcDbEntity
  8
0
100
AcDbCircle
 62
7
  6
CONTINUOUS
 10
0.6637975986
 20
3.0291845042
 40
0.0050017523
100
AcDbArc
 50
190.1580348125
 51
207.674666614
  0
ARC
  5
3DB
100
AcDbEntity
  8
0
100
AcDbCircle
 62
7
  6
CONTINUOUS
 10
0.6637975985
 20
3.1357300919
 40
0.0050017523
100
AcDbArc
 50
152.3253312258
 51
169.8417574494
  0
ARC
  5
3DC
100
AcDbEntity
  8
0
100
AcDbCircle
 62
7
  6
CONTINUOUS
 10
0.6637417633
 20
3.1357348447
 40
0.005
100
AcDbArc
 50
152.3153068088
 51
173.128834327
  0
ARC
  5
3DD
100
AcDbEntity
  8
0
100
AcDbCircle
 62
7
  6
CONTINUOUS
 10
0.6637417633
 20
3.0291797516
 40
0.005
100
AcDbArc
 50
186.8726368552
 51
207.6846931912
  0
ARC
  5
3DE
100
AcDbEntity
  8
0
100
AcDbCircle
 62
7
  6
CONTINUOUS
 10
0.6524034046
 20
3.0681877737
 40
0.005
100
AcDbArc
 50
95.0
 51
187.1265686149
  0
ARC
  5
3DF
100
AcDbEntity
  8
0
100
AcDbCircle
 62
7
  6
CONTINUOUS
 10
0.6524034046
 20
3.0967268226
 40
0.005
100
AcDbArc
 50
172.8734298372
 51
264.9999262
  0
ARC
  5
3E0
100
AcDbEntity
  8
0
100
AcDbCircle
 62
7
  6
CONTINUOUS
 10
0.6523963218
 20
3.0966448431
 40
0.0049177152
100
AcDbArc
 50
256.7338500917
 51
264.9989616444
  0
ARC
  5
3E1
100
AcDbEntity
  8
0
100
AcDbCircle
 62
7
  6
CONTINUOUS
 10
0.8613357258
 20
3.4759925241
 40
0.04
100
AcDbArc
 50
180.0
 51
220.0
  0
ARC
  5
3E2
100
AcDbEntity
  8
0
100
AcDbCircle
 62
7
  6
CONTINUOUS
 10
0.7238357258
 20
3.4759925241
 40
0.03
100
AcDbArc
 50
180.0
 51
220.0
  0
ARC
  5
3E3
100
AcDbEntity
  8
0
100
AcDbCircle
 62
7
  6
CONTINUOUS
 10
0.8613357258
 20
3.4759925241
 40
0.03
100
AcDbArc
 50
180.0
 51
220.0
  0
ARC
  5
3E4
100
AcDbEntity
  8
0
100
AcDbCircle
 62
7
  6
CONTINUOUS
 10
0.7238357258
 20
3.4759925241
 40
0.02
100
AcDbArc
 50
180.0
 51
220.0
  0
ARC
  5
3E5
100
AcDbEntity
  8
0
100
AcDbCircle
 62
7
  6
CONTINUOUS
 10
1.2293357258
 20
3.4157734489
 40
0.01
100
AcDbArc
 50
90.0
 51
180.0
  0
ARC
  5
3E6
100
AcDbEntity
  8
0
100
AcDbCircle
 62
7
  6
CONTINUOUS
 10
1.4593357258
 20
3.4157734489
 40
0.01
100
AcDbArc
 50
0.0
 51
90.0
  0
ARC
  5
3E7
100
AcDbEntity
  8
0
100
AcDbCircle
 62
7
  6
CONTINUOUS
 10
1.4618122952
 20
3.4144323827
 40
0.0075234584
100
AcDbArc
 50
2.6666812137
 51
5.3247358906
  0
ARC
  5
3E8
100
AcDbEntity
  8
0
100
AcDbCircle
 62
7
  6
CONTINUOUS
 10
1.2268591564
 20
3.4144323827
 40
0.0075234584
100
AcDbArc
 50
174.6752641092
 51
177.3333187866
  0
ARC
  5
3E9
100
AcDbEntity
  8
0
100
AcDbCircle
 62
7
  6
CONTINUOUS
 10
1.4618374164
 20
3.4144335645
 40
0.0074983094
100
AcDbArc
 50
0.0010578029
 51
2.6665916496
  0
ARC
  5
3EA
100
AcDbEntity
  8
0
100
AcDbCircle
 62
7
  6
CONTINUOUS
 10
1.2268340352
 20
3.4144335645
 40
0.0074983094
100
AcDbArc
 50
177.3334083506
 51
179.998942197
  0
ARC
  5
3EB
100
AcDbEntity
  8
0
100
AcDbCircle
 62
7
  6
CONTINUOUS
 10
2.6018357258
 20
3.3799572981
 40
0.015
100
AcDbArc
 50
0.0
 51
76.1214352821
  0
ARC
  5
3EC
100
AcDbEntity
  8
0
100
AcDbCircle
 62
7
  6
CONTINUOUS
 10
2.7405862953
 20
3.8337067286
 40
0.1500019765
100
AcDbArc
 50
90.0002175367
 51
179.9997824633
  0
ARC
  5
3ED
100
AcDbEntity
  8
0
100
AcDbCircle
 62
7
  6
CONTINUOUS
 10
2.9783357258
 20
3.9709572981
 40
0.059
100
AcDbArc
 50
90.0
 51
179.9999999987
  0
ARC
  5
3EE
100
AcDbEntity
  8
0
100
AcDbCircle
 62
7
  6
CONTINUOUS
 10
2.6195857258
 20
3.4517969634
 40
0.059
100
AcDbArc
 50
180.0
 51
256.1214352821
  0
ARC
  5
3EF
100
AcDbEntity
  8
0
100
AcDbCircle
 62
7
  6
CONTINUOUS
 10
1.9390857258
 20
3.4539572981
 40
0.059
100
AcDbArc
 50
270.0
 51
360.0
  0
ARC
  5
3F0
100
AcDbEntity
  8
0
100
AcDbCircle
 62
7
  6
CONTINUOUS
 10
1.9380857258
 20
3.7749572981
 40
0.03
100
AcDbArc
 50
280.8069227561
 51
359.9999999906
  0
ARC
  5
3F1
100
AcDbEntity
  8
0
100
AcDbCircle
 62
7
  6
CONTINUOUS
 10
2.6205857258
 20
3.7749572981
 40
0.03
100
AcDbArc
 50
179.9999999991
 51
259.1930772592
  0
ARC
  5
3F2
100
AcDbEntity
  8
0
100
AcDbCircle
 62
7
  6
CONTINUOUS
 10
2.7993357258
 20
3.9537072981
 40
0.03
100
AcDbArc
 50
10.8069227407
 51
90.0000000009
  0
ARC
  5
3F3
100
AcDbEntity
  8
0
100
AcDbCircle
 62
7
  6
CONTINUOUS
 10
1.9680857258
 20
3.6249572981
 40
0.03
100
AcDbArc
 50
0.0
 51
89.9999999981
  0
ARC
  5
3F4
100
AcDbEntity
  8
0
100
AcDbCircle
 62
7
  6
CONTINUOUS
 10
2.5905857258
 20
3.6249572981
 40
0.03
100
AcDbArc
 50
90.0000000019
 51
180.0
  0
ARC
  5
3F5
100
AcDbEntity
  8
0
100
AcDbCircle
 62
7
  6
CONTINUOUS
 10
2.9093357258
 20
3.9612072981
 40
0.01
100
AcDbArc
 50
270.0
 51
360.0
  0
ARC
  5
3F6
100
AcDbEntity
  8
0
100
AcDbCircle
 62
7
  6
CONTINUOUS
 10
2.8386263099
 20
3.9612072981
 40
0.01
100
AcDbArc
 50
190.8069228699
 51
270.0000000118
  0
ARC
  5
3F7
100
AcDbEntity
  8
0
100
AcDbCircle
 62
7
  6
CONTINUOUS
 10
2.6130857258
 20
3.735666714
 40
0.01
100
AcDbArc
 50
0.0
 51
79.1930771298
  0
ARC
  5
3F8
100
AcDbEntity
  8
0
100
AcDbCircle
 62
7
  6
CONTINUOUS
 10
1.9455857258
 20
3.735666714
 40
0.01
100
AcDbArc
 50
100.8069228736
 51
180.0000000087
  0
ARC
  5
3F9
100
AcDbEntity
  8
0
100
AcDbCircle
 62
7
  6
CONTINUOUS
 10
2.6130857258
 20
3.6649572981
 40
0.01
100
AcDbArc
 50
270.0
 51
360.0
  0
ARC
  5
3FA
100
AcDbEntity
  8
0
100
AcDbCircle
 62
7
  6
CONTINUOUS
 10
1.9455857258
 20
3.6649572981
 40
0.01
100
AcDbArc
 50
180.0
 51
270.0
  0
ARC
  5
3FB
100
AcDbEntity
  8
0
100
AcDbCircle
 62
7
  6
CONTINUOUS
 10
5.7318357258
 20
1.601066282
 40
0.01
100
AcDbArc
 50
119.9999999994
 51
180.0
  0
ARC
  5
3FC
100
AcDbEntity
  8
0
100
AcDbCircle
 62
7
  6
CONTINUOUS
 10
5.5803357258
 20
3.9709572981
 40
0.059
100
AcDbArc
 50
0.0000000013
 51
90.0
  0
ARC
  5
3FD
100
AcDbEntity
  8
0
100
AcDbCircle
 62
7
  6
CONTINUOUS
 10
4.8098357258
 20
3.9674572981
 40
0.015
100
AcDbArc
 50
90.0
 51
180.0
  0
ARC
  5
3FE
100
AcDbEntity
  8
0
100
AcDbCircle
 62
7
  6
CONTINUOUS
 10
4.8268357258
 20
3.9974572981
 40
0.015
100
AcDbArc
 50
270.0
 51
360.0
  0
ARC
  5
3FF
100
AcDbEntity
  8
0
100
AcDbCircle
 62
7
  6
CONTINUOUS
 10
3.7488357258
 20
3.9674572981
 40
0.015
100
AcDbArc
 50
0.0
 51
90.0
  0
ARC
  5
400
100
AcDbEntity
  8
0
100
AcDbCircle
 62
7
  6
CONTINUOUS
 10
3.7318357258
 20
3.9974572981
 40
0.015
100
AcDbArc
 50
180.0
 51
270.0
  0
ARC
  5
401
100
AcDbEntity
  8
0
100
AcDbCircle
 62
7
  6
CONTINUOUS
 10
4.7798357258
 20
3.9657072981
 40
0.015
100
AcDbArc
 50
270.0
 51
360.0
  0
ARC
  5
402
100
AcDbEntity
  8
0
100
AcDbCircle
 62
7
  6
CONTINUOUS
 10
3.7788357258
 20
3.9657072981
 40
0.015
100
AcDbArc
 50
180.0
 51
270.0
  0
ARC
  5
403
100
AcDbEntity
  8
0
100
AcDbCircle
 62
7
  6
CONTINUOUS
 10
5.6493357258
 20
3.9612072981
 40
0.01
100
AcDbArc
 50
180.0
 51
270.0
  0
ARC
  5
404
100
AcDbEntity
  8
0
100
AcDbCircle
 62
7
  6
CONTINUOUS
 10
5.7200451417
 20
3.9612072981
 40
0.01
100
AcDbArc
 50
269.9999999882
 51
349.1930771301
  0
ARC
  5
405
100
AcDbEntity
  8
0
100
AcDbCircle
 62
7
  6
CONTINUOUS
 10
2.9783357258
 20
4.6189572981
 40
0.059
100
AcDbArc
 50
180.0000000013
 51
270.0
  0
ARC
  5
406
100
AcDbEntity
  8
0
100
AcDbCircle
 62
7
  6
CONTINUOUS
 10
2.7993357258
 20
4.6362072981
 40
0.03
100
AcDbArc
 50
270.0000000099
 51
349.1930772438
  0
ARC
  5
407
100
AcDbEntity
  8
0
100
AcDbCircle
 62
7
  6
CONTINUOUS
 10
2.9093357258
 20
4.6287072981
 40
0.01
100
AcDbArc
 50
0.0
 51
90.0
  0
ARC
  5
408
100
AcDbEntity
  8
0
100
AcDbCircle
 62
7
  6
CONTINUOUS
 10
2.8386263099
 20
4.6287072981
 40
0.01
100
AcDbArc
 50
89.9999999911
 51
169.1930771266
  0
ARC
  5
409
100
AcDbEntity
  8
0
100
AcDbCircle
 62
7
  6
CONTINUOUS
 10
0.7038357258
 20
4.6354572981
 40
0.01
100
AcDbArc
 50
90.0
 51
180.0
  0
ARC
  5
40A
100
AcDbEntity
  8
0
100
AcDbCircle
 62
7
  6
CONTINUOUS
 10
0.8213357258
 20
4.6354572981
 40
0.01
100
AcDbArc
 50
0.0
 51
90.0
  0
ARC
  5
40B
100
AcDbEntity
  8
0
100
AcDbCircle
 62
7
  6
CONTINUOUS
 10
5.5803357258
 20
4.6189572981
 40
0.059
100
AcDbArc
 50
270.0
 51
359.9999999987
  0
ARC
  5
40C
100
AcDbEntity
  8
0
100
AcDbCircle
 62
7
  6
CONTINUOUS
 10
3.9390857258
 20
4.9484968679
 40
0.059
100
AcDbArc
 50
0.0
 51
88.1864725174
  0
ARC
  5
40D
100
AcDbEntity
  8
0
100
AcDbCircle
 62
7
  6
CONTINUOUS
 10
4.6195857258
 20
4.9484968679
 40
0.059
100
AcDbArc
 50
91.8135274826
 51
180.0000000001
  0
ARC
  5
40E
100
AcDbEntity
  8
0
100
AcDbCircle
 62
7
  6
CONTINUOUS
 10
3.9390857258
 20
4.8477072981
 40
0.059
100
AcDbArc
 50
270.0
 51
360.0
  0
ARC
  5
40F
100
AcDbEntity
  8
0
100
AcDbCircle
 62
7
  6
CONTINUOUS
 10
4.6195857258
 20
4.8477072981
 40
0.059
100
AcDbArc
 50
180.0
 51
270.0
  0
ARC
  5
410
100
AcDbEntity
  8
0
100
AcDbCircle
 62
7
  6
CONTINUOUS
 10
4.4199594635
 20
4.9893130773
 40
0.0408161932
100
AcDbArc
 50
268.5511413293
 51
271.4488586707
  0
ARC
  5
411
100
AcDbEntity
  8
0
100
AcDbCircle
 62
7
  6
CONTINUOUS
 10
4.1387119881
 20
4.9892133647
 40
0.0407165126
100
AcDbArc
 50
268.5475935287
 51
271.4524064713
  0
ARC
  5
412
100
AcDbEntity
  8
0
100
AcDbCircle
 62
7
  6
CONTINUOUS
 10
4.6170856333
 20
5.0274572981
 40
0.02
100
AcDbArc
 50
271.8135274826
 51
360.0
  0
ARC
  5
413
100
AcDbEntity
  8
0
100
AcDbCircle
 62
7
  6
CONTINUOUS
 10
3.9415858183
 20
5.0274572981
 40
0.02
100
AcDbArc
 50
180.0
 51
268.1864725174
  0
ARC
  5
414
100
AcDbEntity
  8
0
100
AcDbCircle
 62
7
  6
CONTINUOUS
 10
3.9415858183
 20
5.1749572981
 40
0.02
100
AcDbArc
 50
90.0
 51
180.0
  0
ARC
  5
415
100
AcDbEntity
  8
0
100
AcDbCircle
 62
7
  6
CONTINUOUS
 10
4.6170856333
 20
5.1749572981
 40
0.02
100
AcDbArc
 50
0.0
 51
90.0
  0
ARC
  5
416
100
AcDbEntity
  8
0
100
AcDbCircle
 62
7
  6
CONTINUOUS
 10
4.4485267603
 20
5.0225896703
 40
0.0151223505
100
AcDbArc
 50
268.8023410365
 51
271.1976589237
  0
ARC
  5
417
100
AcDbEntity
  8
0
100
AcDbCircle
 62
7
  6
CONTINUOUS
 10
4.1101446913
 20
5.0225527253
 40
0.0150854135
100
AcDbArc
 50
268.7994081346
 51
271.200591934
  0
ARC
  5
418
100
AcDbEntity
  8
0
100
AcDbCircle
 62
7
  6
CONTINUOUS
 10
4.8098357258
 20
4.6224572981
 40
0.015
100
AcDbArc
 50
180.0
 51
270.0
  0
ARC
  5
419
100
AcDbEntity
  8
0
100
AcDbCircle
 62
7
  6
CONTINUOUS
 10
4.8268357258
 20
4.5924572981
 40
0.015
100
AcDbArc
 50
0.0
 51
90.0
  0
ARC
  5
41A
100
AcDbEntity
  8
0
100
AcDbCircle
 62
7
  6
CONTINUOUS
 10
3.7488357258
 20
4.6224572981
 40
0.015
100
AcDbArc
 50
270.0
 51
360.0
  0
ARC
  5
41B
100
AcDbEntity
  8
0
100
AcDbCircle
 62
7
  6
CONTINUOUS
 10
3.7318357258
 20
4.5924572981
 40
0.015
100
AcDbArc
 50
90.0
 51
180.0
  0
ARC
  5
41C
100
AcDbEntity
  8
0
100
AcDbCircle
 62
7
  6
CONTINUOUS
 10
3.7788357258
 20
4.7737072981
 40
0.015
100
AcDbArc
 50
90.0
 51
180.0
  0
ARC
  5
41D
100
AcDbEntity
  8
0
100
AcDbCircle
 62
7
  6
CONTINUOUS
 10
4.7798357258
 20
4.7737072981
 40
0.015
100
AcDbArc
 50
0.0
 51
90.0
  0
ARC
  5
41E
100
AcDbEntity
  8
0
100
AcDbCircle
 62
7
  6
CONTINUOUS
 10
5.6493357258
 20
4.6287072981
 40
0.01
100
AcDbArc
 50
90.0
 51
180.0
  0
ARC
  5
41F
100
AcDbEntity
  8
0
100
AcDbCircle
 62
7
  6
CONTINUOUS
 10
5.7200451417
 20
4.6287072981
 40
0.01
100
AcDbArc
 50
10.8069228734
 51
90.0000000089
  0
ARC
  5
420
100
AcDbEntity
  8
0
100
AcDbCircle
 62
7
  6
CONTINUOUS
 10
4.2793357258
 20
6.9812072981
 40
0.34375
100
AcDbArc
 50
334.8886747291
 51
205.1113252709
  0
ARC
  5
421
100
AcDbEntity
  8
0
100
AcDbCircle
 62
7
  6
CONTINUOUS
 10
4.279866461
 20
6.9812700321
 40
0.3350951289
100
AcDbArc
 50
338.0113204016
 51
359.9892734911
  0
ARC
  5
422
100
AcDbEntity
  8
0
100
AcDbCircle
 62
7
  6
CONTINUOUS
 10
4.2788001836
 20
6.9812689707
 40
0.3350902356
100
AcDbArc
 50
180.0105451743
 51
201.9889077833
  0
ARC
  5
423
100
AcDbEntity
  8
0
100
AcDbCircle
 62
7
  6
CONTINUOUS
 10
4.2809180723
 20
6.9809205072
 40
0.3096713115
100
AcDbArc
 50
0.2652860465
 51
19.5401117075
  0
ARC
  5
424
100
AcDbEntity
  8
0
100
AcDbCircle
 62
7
  6
CONTINUOUS
 10
4.2777532603
 20
6.9809205233
 40
0.3096711919
100
AcDbArc
 50
160.4618068017
 51
179.7347571248
  0
ARC
  5
425
100
AcDbEntity
  8
0
100
AcDbCircle
 62
7
  6
CONTINUOUS
 10
4.2866917485
 20
6.9812049403
 40
0.3038939773
100
AcDbArc
 50
0.0004445528
 51
0.2167001255
  0
ARC
  5
426
100
AcDbEntity
  8
0
100
AcDbCircle
 62
7
  6
CONTINUOUS
 10
4.2719743475
 20
6.9812050247
 40
0.3038886217
100
AcDbArc
 50
179.7833530554
 51
179.9995713678
  0
ARC
  5
427
100
AcDbEntity
  8
0
100
AcDbCircle
 62
7
  6
CONTINUOUS
 10
3.9380857258
 20
6.4602478823
 40
0.03
100
AcDbArc
 50
280.8069229377
 51
360.0
  0
ARC
  5
428
100
AcDbEntity
  8
0
100
AcDbCircle
 62
7
  6
CONTINUOUS
 10
4.6205857258
 20
6.4602478823
 40
0.03
100
AcDbArc
 50
180.0000002639
 51
259.1930770659
  0
ARC
  5
429
100
AcDbEntity
  8
0
100
AcDbCircle
 62
7
  6
CONTINUOUS
 10
3.9455857258
 20
6.4209572981
 40
0.01
100
AcDbArc
 50
100.8069226865
 51
180.0
  0
ARC
  5
42A
100
AcDbEntity
  8
0
100
AcDbCircle
 62
7
  6
CONTINUOUS
 10
4.6130857258
 20
6.4209572981
 40
0.01
100
AcDbArc
 50
0.0
 51
79.1930773027
  0
ARC
  5
42B
100
AcDbEntity
  8
0
100
AcDbCircle
 62
7
  6
CONTINUOUS
 10
4.6130857258
 20
6.3474572981
 40
0.01
100
AcDbArc
 50
270.0
 51
360.0
  0
ARC
  5
42C
100
AcDbEntity
  8
0
100
AcDbCircle
 62
7
  6
CONTINUOUS
 10
3.9455857258
 20
6.3474572981
 40
0.01
100
AcDbArc
 50
180.0
 51
270.0
  0
ARC
  5
42D
100
AcDbEntity
  8
0
100
AcDbCircle
 62
7
  6
CONTINUOUS
 10
4.5393357258
 20
6.3324572981
 40
0.005
100
AcDbArc
 50
0.0
 51
90.0
  0
ARC
  5
42E
100
AcDbEntity
  8
0
100
AcDbCircle
 62
7
  6
CONTINUOUS
 10
4.0193357258
 20
6.3324572981
 40
0.005
100
AcDbArc
 50
90.0
 51
180.0
  0
ARC
  5
42F
100
AcDbEntity
  8
0
100
AcDbCircle
 62
7
  6
CONTINUOUS
 10
4.5393357258
 20
6.1059572981
 40
0.005
100
AcDbArc
 50
270.0
 51
360.0
  0
ARC
  5
430
100
AcDbEntity
  8
0
100
AcDbCircle
 62
7
  6
CONTINUOUS
 10
4.0193357258
 20
6.1059572981
 40
0.005
100
AcDbArc
 50
180.0
 51
270.0
  0
ARC
  5
431
100
AcDbEntity
  8
0
100
AcDbCircle
 62
7
  6
CONTINUOUS
 10
5.9078357258
 20
2.7295046156
 40
0.059
100
AcDbArc
 50
0.0
 51
48.5350192248
  0
ARC
  5
432
100
AcDbEntity
  8
0
100
AcDbCircle
 62
7
  6
CONTINUOUS
 10
6.6508357258
 20
2.7109572981
 40
0.059
100
AcDbArc
 50
90.0
 51
180.0
  0
ARC
  5
433
100
AcDbEntity
  8
0
100
AcDbCircle
 62
7
  6
CONTINUOUS
 10
6.8268357258
 20
2.7849572981
 40
0.015
100
AcDbArc
 50
270.0
 51
360.0
  0
ARC
  5
434
100
AcDbEntity
  8
0
100
AcDbCircle
 62
7
  6
CONTINUOUS
 10
5.9568357258
 20
2.7849572981
 40
0.015
100
AcDbArc
 50
180.0
 51
228.5350192248
  0
ARC
  5
435
100
AcDbEntity
  8
0
100
AcDbCircle
 62
7
  6
CONTINUOUS
 10
7.0743357258
 20
2.8049572981
 40
0.015
100
AcDbArc
 50
0.0
 51
90.0
  0
ARC
  5
436
100
AcDbEntity
  8
0
100
AcDbCircle
 62
7
  6
CONTINUOUS
 10
5.7745152177
 20
1.6257072981
 40
0.01
100
AcDbArc
 50
90.0
 51
119.9999999998
  0
ARC
  5
437
100
AcDbEntity
  8
0
100
AcDbCircle
 62
7
  6
CONTINUOUS
 10
6.7841562339
 20
1.6257072981
 40
0.01
100
AcDbArc
 50
60.0000000002
 51
90.0
  0
ARC
  5
438
100
AcDbEntity
  8
0
100
AcDbCircle
 62
7
  6
CONTINUOUS
 10
6.8268357258
 20
1.601066282
 40
0.01
100
AcDbArc
 50
0.0
 51
60.0000000006
  0
ARC
  5
439
100
AcDbEntity
  8
0
100
AcDbCircle
 62
7
  6
CONTINUOUS
 10
7.3293357258
 20
2.7491411474
 40
0.01
100
AcDbArc
 50
270.0
 51
360.0
  0
ARC
  5
43A
100
AcDbEntity
  8
0
100
AcDbCircle
 62
7
  6
CONTINUOUS
 10
7.0993357258
 20
2.7491411474
 40
0.01
100
AcDbArc
 50
180.0
 51
270.0
  0
ARC
  5
43B
100
AcDbEntity
  8
0
100
AcDbCircle
 62
7
  6
CONTINUOUS
 10
6.7826593168
 20
1.6457072981
 40
0.01
100
AcDbArc
 50
180.0
 51
270.0
  0
ARC
  5
43C
100
AcDbEntity
  8
0
100
AcDbCircle
 62
7
  6
CONTINUOUS
 10
5.7760121348
 20
1.6457072981
 40
0.01
100
AcDbArc
 50
270.0
 51
360.0
  0
ARC
  5
43D
100
AcDbEntity
  8
0
100
AcDbCircle
 62
7
  6
CONTINUOUS
 10
6.7626593168
 20
1.7349572981
 40
0.01
100
AcDbArc
 50
0.0
 51
90.0
  0
ARC
  5
43E
100
AcDbEntity
  8
0
100
AcDbCircle
 62
7
  6
CONTINUOUS
 10
5.7960121348
 20
1.7349572981
 40
0.01
100
AcDbArc
 50
90.0
 51
180.0
  0
ARC
  5
43F
100
AcDbEntity
  8
0
100
AcDbCircle
 62
7
  6
CONTINUOUS
 10
5.7986974816
 20
1.7373760687
 40
0.0075812317
100
AcDbArc
 50
90.0442492876
 51
107.2432300066
  0
ARC
  5
440
100
AcDbEntity
  8
0
100
AcDbCircle
 62
7
  6
CONTINUOUS
 10
6.7599739699
 20
1.7373760687
 40
0.0075812317
100
AcDbArc
 50
72.7567699988
 51
89.9557507125
  0
ARC
  5
441
100
AcDbEntity
  8
0
100
AcDbCircle
 62
7
  6
CONTINUOUS
 10
7.0968591564
 20
2.7504822136
 40
0.0075234584
100
AcDbArc
 50
182.6666812133
 51
185.3247358904
  0
ARC
  5
442
100
AcDbEntity
  8
0
100
AcDbCircle
 62
7
  6
CONTINUOUS
 10
7.3318122952
 20
2.7504822136
 40
0.0075234584
100
AcDbArc
 50
354.6752641094
 51
357.3333187866
  0
ARC
  5
443
100
AcDbEntity
  8
0
100
AcDbCircle
 62
7
  6
CONTINUOUS
 10
7.0968340352
 20
2.7504810318
 40
0.0074983094
100
AcDbArc
 50
180.0010578027
 51
182.6665916501
  0
ARC
  5
444
100
AcDbEntity
  8
0
100
AcDbCircle
 62
7
  6
CONTINUOUS
 10
7.3318374164
 20
2.7504810318
 40
0.0074983094
100
AcDbArc
 50
357.3334083505
 51
359.9989421971
  0
ARC
  5
445
100
AcDbEntity
  8
0
100
AcDbCircle
 62
7
  6
CONTINUOUS
 10
6.8268357258
 20
3.3799572981
 40
0.015
100
AcDbArc
 50
0.0
 51
90.0
  0
ARC
  5
446
100
AcDbEntity
  8
0
100
AcDbCircle
 62
7
  6
CONTINUOUS
 10
5.9568357258
 20
3.3799572981
 40
0.015
100
AcDbArc
 50
103.8785647179
 51
180.0
  0
ARC
  5
447
100
AcDbEntity
  8
0
100
AcDbCircle
 62
7
  6
CONTINUOUS
 10
5.8180851563
 20
3.8337067286
 40
0.1500019765
100
AcDbArc
 50
0.0002175348
 51
89.9997824652
  0
ARC
  5
448
100
AcDbEntity
  8
0
100
AcDbCircle
 62
7
  6
CONTINUOUS
 10
5.9390857258
 20
3.4517969634
 40
0.059
100
AcDbArc
 50
283.8785647179
 51
360.0
  0
ARC
  5
449
100
AcDbEntity
  8
0
100
AcDbCircle
 62
7
  6
CONTINUOUS
 10
6.6195857258
 20
3.4539572981
 40
0.059
100
AcDbArc
 50
180.0
 51
270.0
  0
ARC
  5
44A
100
AcDbEntity
  8
0
100
AcDbCircle
 62
7
  6
CONTINUOUS
 10
6.6205857258
 20
3.7749572981
 40
0.03
100
AcDbArc
 50
180.0000000094
 51
259.1930772439
  0
ARC
  5
44B
100
AcDbEntity
  8
0
100
AcDbCircle
 62
7
  6
CONTINUOUS
 10
5.9380857258
 20
3.7749572981
 40
0.03
100
AcDbArc
 50
280.8069227408
 51
360.0
  0
ARC
  5
44C
100
AcDbEntity
  8
0
100
AcDbCircle
 62
7
  6
CONTINUOUS
 10
5.7593357258
 20
3.9537072981
 40
0.03
100
AcDbArc
 50
89.9999999991
 51
169.1930772593
  0
ARC
  5
44D
100
AcDbEntity
  8
0
100
AcDbCircle
 62
7
  6
CONTINUOUS
 10
5.9680857258
 20
3.6249572981
 40
0.03
100
AcDbArc
 50
0.0
 51
89.9999999981
  0
ARC
  5
44E
100
AcDbEntity
  8
0
100
AcDbCircle
 62
7
  6
CONTINUOUS
 10
6.5905857258
 20
3.6249572981
 40
0.03
100
AcDbArc
 50
90.0000000019
 51
180.0
  0
ARC
  5
44F
100
AcDbEntity
  8
0
100
AcDbCircle
 62
7
  6
CONTINUOUS
 10
5.9455857258
 20
3.735666714
 40
0.01
100
AcDbArc
 50
100.8069228702
 51
180.0000000116
  0
ARC
  5
450
100
AcDbEntity
  8
0
100
AcDbCircle
 62
7
  6
CONTINUOUS
 10
6.6130857258
 20
3.735666714
 40
0.01
100
AcDbArc
 50
0.0
 51
79.1930771264
  0
ARC
  5
451
100
AcDbEntity
  8
0
100
AcDbCircle
 62
7
  6
CONTINUOUS
 10
5.9455857258
 20
3.6649572981
 40
0.01
100
AcDbArc
 50
180.0
 51
270.0
  0
ARC
  5
452
100
AcDbEntity
  8
0
100
AcDbCircle
 62
7
  6
CONTINUOUS
 10
6.6130857258
 20
3.6649572981
 40
0.01
100
AcDbArc
 50
270.0
 51
360.0
  0
ARC
  5
453
100
AcDbEntity
  8
0
100
AcDbCircle
 62
7
  6
CONTINUOUS
 10
7.7921662699
 20
3.0824716074
 40
0.1199499066
100
AcDbArc
 50
7.124747179
 51
22.3028036809
  0
ARC
  5
454
100
AcDbEntity
  8
0
100
AcDbCircle
 62
7
  6
CONTINUOUS
 10
7.7921662712
 20
3.082442989
 40
0.1199499054
100
AcDbArc
 50
337.6971959944
 51
352.875252653
  0
ARC
  5
455
100
AcDbEntity
  8
0
100
AcDbCircle
 62
7
  6
CONTINUOUS
 10
7.7922166828
 20
3.0824708758
 40
0.1199388443
100
AcDbArc
 50
7.1248555127
 51
22.3028643568
  0
ARC
  5
456
100
AcDbEntity
  8
0
100
AcDbCircle
 62
7
  6
CONTINUOUS
 10
7.7922166829
 20
3.0824437206
 40
0.1199388443
100
AcDbArc
 50
337.6971355751
 51
352.8751444384
  0
ARC
  5
457
100
AcDbEntity
  8
0
100
AcDbCircle
 62
7
  6
CONTINUOUS
 10
7.7933850112
 20
3.0824572981
 40
0.1196726576
100
AcDbArc
 50
321.0571544355
 51
332.3153068088
  0
ARC
  5
458
100
AcDbEntity
  8
0
100
AcDbCircle
 62
7
  6
CONTINUOUS
 10
7.7933850112
 20
3.0824572981
 40
0.1196726576
100
AcDbArc
 50
27.6846931912
 51
38.9428455645
  0
ARC
  5
459
100
AcDbEntity
  8
0
100
AcDbCircle
 62
7
  6
CONTINUOUS
 10
7.7886971902
 20
3.0824572981
 40
0.111232485
100
AcDbArc
 50
358.2138786846
 51
1.7861200958
  0
ARC
  5
45A
100
AcDbEntity
  8
0
100
AcDbCircle
 62
7
  6
CONTINUOUS
 10
7.7885142701
 20
3.0824573999
 40
0.1108430071
100
AcDbArc
 50
358.2135016874
 51
1.7864983043
  0
ARC
  5
45B
100
AcDbEntity
  8
0
100
AcDbCircle
 62
7
  6
CONTINUOUS
 10
7.7573357258
 20
3.2902881911
 40
0.04
100
AcDbArc
 50
140.0
 51
180.0
  0
ARC
  5
45C
100
AcDbEntity
  8
0
100
AcDbCircle
 62
7
  6
CONTINUOUS
 10
7.7573357258
 20
3.2902881911
 40
0.03
100
AcDbArc
 50
140.0
 51
180.0
  0
ARC
  5
45D
100
AcDbEntity
  8
0
100
AcDbCircle
 62
7
  6
CONTINUOUS
 10
7.6198357258
 20
3.2902881911
 40
0.03
100
AcDbArc
 50
140.0
 51
180.0
  0
ARC
  5
45E
100
AcDbEntity
  8
0
100
AcDbCircle
 62
7
  6
CONTINUOUS
 10
7.6198357258
 20
3.2902881911
 40
0.02
100
AcDbArc
 50
140.0
 51
180.0
  0
ARC
  5
45F
100
AcDbEntity
  8
0
100
AcDbCircle
 62
7
  6
CONTINUOUS
 10
7.0743357258
 20
3.3599572981
 40
0.015
100
AcDbArc
 50
270.0
 51
360.0
  0
ARC
  5
460
100
AcDbEntity
  8
0
100
AcDbCircle
 62
7
  6
CONTINUOUS
 10
7.8623357258
 20
3.1713914822
 40
0.01
100
AcDbArc
 50
180.0
 51
270.0
  0
ARC
  5
461
100
AcDbEntity
  8
0
100
AcDbCircle
 62
7
  6
CONTINUOUS
 10
7.8623357258
 20
2.9935231141
 40
0.01
100
AcDbArc
 50
90.0
 51
180.0
  0
ARC
  5
462
100
AcDbEntity
  8
0
100
AcDbCircle
 62
7
  6
CONTINUOUS
 10
7.8786854808
 20
3.1513914822
 40
0.01
100
AcDbArc
 50
38.9428455645
 51
90.0
  0
ARC
  5
463
100
AcDbEntity
  8
0
100
AcDbCircle
 62
7
  6
CONTINUOUS
 10
7.8786854808
 20
3.0135231141
 40
0.01
100
AcDbArc
 50
270.0
 51
321.0571544355
  0
ARC
  5
464
100
AcDbEntity
  8
0
100
AcDbCircle
 62
7
  6
CONTINUOUS
 10
7.7173357258
 20
2.8737072981
 40
0.01
100
AcDbArc
 50
270.0
 51
360.0
  0
ARC
  5
465
100
AcDbEntity
  8
0
100
AcDbCircle
 62
7
  6
CONTINUOUS
 10
7.5998357258
 20
2.8737072981
 40
0.01
100
AcDbArc
 50
180.0
 51
270.0
  0
ARC
  5
466
100
AcDbEntity
  8
0
100
AcDbCircle
 62
7
  6
CONTINUOUS
 10
7.8423357258
 20
2.9612072981
 40
0.01
100
AcDbArc
 50
270.0
 51
360.0
  0
ARC
  5
467
100
AcDbEntity
  8
0
100
AcDbCircle
 62
7
  6
CONTINUOUS
 10
7.8423357258
 20
3.2037072981
 40
0.01
100
AcDbArc
 50
0.0
 51
90.0
  0
ARC
  5
468
100
AcDbEntity
  8
0
100
AcDbCircle
 62
7
  6
CONTINUOUS
 10
7.894873672
 20
3.1357300202
 40
0.005001946
100
AcDbArc
 50
10.0934776131
 51
27.6744324459
  0
ARC
  5
469
100
AcDbEntity
  8
0
100
AcDbCircle
 62
7
  6
CONTINUOUS
 10
7.8948736722
 20
3.0291845762
 40
0.0050019459
100
AcDbArc
 50
332.3255653699
 51
349.9065153202
  0
ARC
  5
46A
100
AcDbEntity
  8
0
100
AcDbCircle
 62
7
  6
CONTINUOUS
 10
7.8949296883
 20
3.0291797516
 40
0.005
100
AcDbArc
 50
332.3153068088
 51
353.128834327
  0
ARC
  5
46B
100
AcDbEntity
  8
0
100
AcDbCircle
 62
7
  6
CONTINUOUS
 10
7.8949296883
 20
3.1357348447
 40
0.005
100
AcDbArc
 50
6.8726368552
 51
27.6846931912
  0
ARC
  5
46C
100
AcDbEntity
  8
0
100
AcDbCircle
 62
7
  6
CONTINUOUS
 10
7.906268047
 20
3.0967268226
 40
0.005
100
AcDbArc
 50
275.0
 51
7.1265686149
  0
ARC
  5
46D
100
AcDbEntity
  8
0
100
AcDbCircle
 62
7
  6
CONTINUOUS
 10
7.906268047
 20
3.0681877737
 40
0.005
100
AcDbArc
 50
352.8734298372
 51
84.9999262
  0
ARC
  5
46E
100
AcDbEntity
  8
0
100
AcDbCircle
 62
7
  6
CONTINUOUS
 10
7.9062751298
 20
3.0682697532
 40
0.0049177152
100
AcDbArc
 50
76.7338500926
 51
84.998961644
  0
ARC
  5
46F
100
AcDbEntity
  8
0
100
AcDbCircle
 62
7
  6
CONTINUOUS
 10
7.6973357258
 20
3.4759925241
 40
0.04
100
AcDbArc
 50
320.0
 51
360.0
  0
ARC
  5
470
100
AcDbEntity
  8
0
100
AcDbCircle
 62
7
  6
CONTINUOUS
 10
7.8348357258
 20
3.4759925241
 40
0.03
100
AcDbArc
 50
320.0
 51
360.0
  0
ARC
  5
471
100
AcDbEntity
  8
0
100
AcDbCircle
 62
7
  6
CONTINUOUS
 10
7.6973357258
 20
3.4759925241
 40
0.03
100
AcDbArc
 50
320.0
 51
360.0
  0
ARC
  5
472
100
AcDbEntity
  8
0
100
AcDbCircle
 62
7
  6
CONTINUOUS
 10
7.8348357258
 20
3.4759925241
 40
0.02
100
AcDbArc
 50
320.0
 51
360.0
  0
ARC
  5
473
100
AcDbEntity
  8
0
100
AcDbCircle
 62
7
  6
CONTINUOUS
 10
7.3293357258
 20
3.4157734489
 40
0.01
100
AcDbArc
 50
0.0
 51
90.0
  0
ARC
  5
474
100
AcDbEntity
  8
0
100
AcDbCircle
 62
7
  6
CONTINUOUS
 10
7.0993357258
 20
3.4157734489
 40
0.01
100
AcDbArc
 50
90.0
 51
180.0
  0
ARC
  5
475
100
AcDbEntity
  8
0
100
AcDbCircle
 62
7
  6
CONTINUOUS
 10
7.0968591564
 20
3.4144323827
 40
0.0075234584
100
AcDbArc
 50
174.6752641097
 51
177.333318786
  0
ARC
  5
476
100
AcDbEntity
  8
0
100
AcDbCircle
 62
7
  6
CONTINUOUS
 10
7.3318122952
 20
3.4144323827
 40
0.0075234584
100
AcDbArc
 50
2.6666812139
 51
5.3247358903
  0
ARC
  5
477
100
AcDbEntity
  8
0
100
AcDbCircle
 62
7
  6
CONTINUOUS
 10
7.0968340352
 20
3.4144335645
 40
0.0074983094
100
AcDbArc
 50
177.3334083505
 51
179.9989421971
  0
ARC
  5
478
100
AcDbEntity
  8
0
100
AcDbCircle
 62
7
  6
CONTINUOUS
 10
7.3318374164
 20
3.4144335645
 40
0.0074983094
100
AcDbArc
 50
0.0010578029
 51
2.6665916495
  0
ARC
  5
479
100
AcDbEntity
  8
0
100
AcDbCircle
 62
7
  6
CONTINUOUS
 10
10.7826593168
 20
1.6457072981
 40
0.01
100
AcDbArc
 50
180.0
 51
270.0
  0
ARC
  5
47A
100
AcDbEntity
  8
0
100
AcDbCircle
 62
7
  6
CONTINUOUS
 10
9.7760121348
 20
1.6457072981
 40
0.01
100
AcDbArc
 50
270.0
 51
360.0
  0
ARC
  5
47B
100
AcDbEntity
  8
0
100
AcDbCircle
 62
7
  6
CONTINUOUS
 10
10.7626593168
 20
1.7349572981
 40
0.01
100
AcDbArc
 50
0.0
 51
90.0
  0
ARC
  5
47C
100
AcDbEntity
  8
0
100
AcDbCircle
 62
7
  6
CONTINUOUS
 10
9.7960121348
 20
1.7349572981
 40
0.01
100
AcDbArc
 50
90.0
 51
180.0
  0
ARC
  5
47D
100
AcDbEntity
  8
0
100
AcDbCircle
 62
7
  6
CONTINUOUS
 10
9.7318357258
 20
1.601066282
 40
0.01
100
AcDbArc
 50
119.9999999994
 51
180.0
  0
ARC
  5
47E
100
AcDbEntity
  8
0
100
AcDbCircle
 62
7
  6
CONTINUOUS
 10
10.8268357258
 20
1.601066282
 40
0.01
100
AcDbArc
 50
0.0
 51
60.0000000006
  0
ARC
  5
47F
100
AcDbEntity
  8
0
100
AcDbCircle
 62
7
  6
CONTINUOUS
 10
10.7841562339
 20
1.6257072981
 40
0.01
100
AcDbArc
 50
60.0000000002
 51
90.0
  0
ARC
  5
480
100
AcDbEntity
  8
0
100
AcDbCircle
 62
7
  6
CONTINUOUS
 10
9.7745152177
 20
1.6257072981
 40
0.01
100
AcDbArc
 50
90.0
 51
119.9999999998
  0
ARC
  5
481
100
AcDbEntity
  8
0
100
AcDbCircle
 62
7
  6
CONTINUOUS
 10
10.7599760379
 20
1.737393965
 40
0.0075633341
100
AcDbArc
 50
74.0663129767
 51
89.9713115107
  0
ARC
  5
482
100
AcDbEntity
  8
0
100
AcDbCircle
 62
7
  6
CONTINUOUS
 10
9.7986954137
 20
1.737393965
 40
0.0075633341
100
AcDbArc
 50
90.0286884893
 51
105.9336870283
  0
ARC
  5
483
100
AcDbEntity
  8
0
100
AcDbCircle
 62
7
  6
CONTINUOUS
 10
10.1494319152
 20
3.6028707845
 40
0.05
100
AcDbArc
 50
210.0
 51
270.0
  0
ARC
  5
484
100
AcDbEntity
  8
0
100
AcDbCircle
 62
7
  6
CONTINUOUS
 10
10.1209341275
 20
3.8278687167
 40
0.0103677532
100
AcDbArc
 50
0.0114276055
 51
168.0588985334
  0
ARC
  5
485
100
AcDbEntity
  8
0
100
AcDbCircle
 62
7
  6
CONTINUOUS
 10
10.2793339583
 20
3.6694693319
 40
0.01036753
100
AcDbArc
 50
258.0798028747
 51
79.438128742
  0
CIRCLE
  5
486
100
AcDbEntity
  8
0
100
AcDbCircle
 62
7
  6
CONTINUOUS
 10
10.2187164813
 20
3.6815276009
 40
0.01036753
  0
CIRCLE
  5
487
100
AcDbEntity
  8
0
100
AcDbCircle
 62
7
  6
CONTINUOUS
 10
10.1673277339
 20
3.7158652922
 40
0.0103675298
  0
CIRCLE
  5
488
100
AcDbEntity
  8
0
100
AcDbCircle
 62
7
  6
CONTINUOUS
 10
10.1329911884
 20
3.7672548054
 40
0.0103675298
  0
ARC
  5
489
100
AcDbEntity
  8
0
100
AcDbCircle
 62
7
  6
CONTINUOUS
 10
10.2793357117
 20
3.7302814961
 40
0.0097939935
100
AcDbArc
 50
210.6274696501
 51
31.714478979
  0
CIRCLE
  5
48A
100
AcDbEntity
  8
0
100
AcDbCircle
 62
7
  6
CONTINUOUS
 10
10.2103301403
 20
3.7588651753
 40
0.0097939921
  0
ARC
  5
48B
100
AcDbEntity
  8
0
100
AcDbCircle
 62
7
  6
CONTINUOUS
 10
10.1817461138
 20
3.8278706515
 40
0.0097938092
100
AcDbArc
 50
0.0030348575
 51
179.9992224799
  0
ARC
  5
48C
100
AcDbEntity
  8
0
100
AcDbCircle
 62
7
  6
CONTINUOUS
 10
10.1494319152
 20
4.0528707845
 40
0.05
100
AcDbArc
 50
90.0
 51
150.0
  0
ARC
  5
48D
100
AcDbEntity
  8
0
100
AcDbCircle
 62
7
  6
CONTINUOUS
 10
10.0195281047
 20
3.8278707845
 40
0.05
100
AcDbArc
 50
150.0
 51
210.0
  0
ARC
  5
48E
100
AcDbEntity
  8
0
100
AcDbCircle
 62
7
  6
CONTINUOUS
 10
10.2793339178
 20
3.9862724222
 40
0.0103675597
100
AcDbArc
 50
259.4577422594
 51
78.0602578425
  0
CIRCLE
  5
48F
100
AcDbEntity
  8
0
100
AcDbCircle
 62
7
  6
CONTINUOUS
 10
10.2187197472
 20
3.9742153205
 40
0.0103675299
  0
CIRCLE
  5
490
100
AcDbEntity
  8
0
100
AcDbCircle
 62
7
  6
CONTINUOUS
 10
10.1673302345
 20
3.9398787753
 40
0.0103675299
  0
CIRCLE
  5
491
100
AcDbEntity
  8
0
100
AcDbCircle
 62
7
  6
CONTINUOUS
 10
10.1329925412
 20
3.8884900294
 40
0.0103675299
  0
ARC
  5
492
100
AcDbEntity
  8
0
100
AcDbCircle
 62
7
  6
CONTINUOUS
 10
10.1209304129
 20
3.8278707917
 40
0.0103635969
100
AcDbArc
 50
168.0658731573
 51
359.9998649526
  0
ARC
  5
493
100
AcDbEntity
  8
0
100
AcDbCircle
 62
7
  6
CONTINUOUS
 10
10.2793357081
 20
3.9254594371
 40
0.0097939932
100
AcDbArc
 50
211.7114130019
 51
30.6305750548
  0
CIRCLE
  5
494
100
AcDbEntity
  8
0
100
AcDbCircle
 62
7
  6
CONTINUOUS
 10
10.2103301177
 20
3.8968763695
 40
0.0097939906
  0
ARC
  5
495
100
AcDbEntity
  8
0
100
AcDbCircle
 62
7
  6
CONTINUOUS
 10
10.1817474054
 20
3.8278709099
 40
0.0097937947
100
AcDbArc
 50
180.0030802973
 51
359.9992662799
  0
ARC
  5
496
100
AcDbEntity
  8
0
100
AcDbCircle
 62
7
  6
CONTINUOUS
 10
10.4092395364
 20
3.6028707845
 40
0.05
100
AcDbArc
 50
270.0
 51
330.0
  0
ARC
  5
497
100
AcDbEntity
  8
0
100
AcDbCircle
 62
7
  6
CONTINUOUS
 10
10.2793375338
 20
3.6694691465
 40
0.0103675597
100
AcDbArc
 50
79.4577422487
 51
258.0602578222
  0
CIRCLE
  5
498
100
AcDbEntity
  8
0
100
AcDbCircle
 62
7
  6
CONTINUOUS
 10
10.3913412172
 20
3.7158627934
 40
0.01036753
  0
CIRCLE
  5
499
100
AcDbEntity
  8
0
100
AcDbCircle
 62
7
  6
CONTINUOUS
 10
10.3399517044
 20
3.6815262481
 40
0.01036753
  0
CIRCLE
  5
49A
100
AcDbEntity
  8
0
100
AcDbCircle
 62
7
  6
CONTINUOUS
 10
10.4256789106
 20
3.7672515392
 40
0.01036753
  0
ARC
  5
49B
100
AcDbEntity
  8
0
100
AcDbCircle
 62
7
  6
CONTINUOUS
 10
10.4377410387
 20
3.8278707772
 40
0.0103635969
100
AcDbArc
 50
348.0658731571
 51
179.9998649528
  0
CIRCLE
  5
49C
100
AcDbEntity
  8
0
100
AcDbCircle
 62
7
  6
CONTINUOUS
 10
10.3483413363
 20
3.7588651985
 40
0.0097939933
  0
ARC
  5
49D
100
AcDbEntity
  8
0
100
AcDbCircle
 62
7
  6
CONTINUOUS
 10
10.2793357425
 20
3.7302821328
 40
0.0097939921
100
AcDbArc
 50
31.7114050343
 51
210.6305829873
  0
ARC
  5
49E
100
AcDbEntity
  8
0
100
AcDbCircle
 62
7
  6
CONTINUOUS
 10
10.3769240462
 20
3.827870659
 40
0.0097937947
100
AcDbArc
 50
0.0030779205
 51
179.999266268
  0
CIRCLE
  5
49F
100
AcDbEntity
  8
0
100
AcDbCircle
 62
7
  6
CONTINUOUS
 10
10.2793357258
 20
3.8278707845
 40
0.275
  0
CIRCLE
  5
4A0
100
AcDbEntity
  8
0
100
AcDbCircle
 62
7
  6
CONTINUOUS
 10
10.2793357258
 20
3.8278707845
 40
0.2745596075
  0
CIRCLE
  5
4A1
100
AcDbEntity
  8
0
100
AcDbCircle
 62
7
  6
CONTINUOUS
 10
10.2793357258
 20
3.8278707845
 40
0.2313266795
  0
CIRCLE
  5
4A2
100
AcDbEntity
  8
0
100
AcDbCircle
 62
7
  6
CONTINUOUS
 10
10.2793357258
 20
3.8278707845
 40
0.226767072
  0
CIRCLE
  5
4A3
100
AcDbEntity
  8
0
100
AcDbCircle
 62
7
  6
CONTINUOUS
 10
10.2793357258
 20
3.8278707845
 40
0.2067928977
  0
CIRCLE
  5
4A4
100
AcDbEntity
  8
0
100
AcDbCircle
 62
7
  6
CONTINUOUS
 10
10.2793357258
 20
3.8278707845
 40
0.2037155146
  0
ARC
  5
4A5
100
AcDbEntity
  8
0
100
AcDbCircle
 62
7
  6
CONTINUOUS
 10
10.5391433469
 20
3.8278707845
 40
0.05
100
AcDbArc
 50
330.0
 51
30.0
  0
ARC
  5
4A6
100
AcDbEntity
  8
0
100
AcDbCircle
 62
7
  6
CONTINUOUS
 10
10.4092395364
 20
4.0528707845
 40
0.05
100
AcDbArc
 50
30.0
 51
90.0
  0
ARC
  5
4A7
100
AcDbEntity
  8
0
100
AcDbCircle
 62
7
  6
CONTINUOUS
 10
10.437737324
 20
3.8278728523
 40
0.0103677532
100
AcDbArc
 50
180.0114277578
 51
348.0588985534
  0
CIRCLE
  5
4A8
100
AcDbEntity
  8
0
100
AcDbCircle
 62
7
  6
CONTINUOUS
 10
10.4256802635
 20
3.8884867633
 40
0.01036753
  0
CIRCLE
  5
4A9
100
AcDbEntity
  8
0
100
AcDbCircle
 62
7
  6
CONTINUOUS
 10
10.3913437181
 20
3.9398762767
 40
0.01036753
  0
CIRCLE
  5
4AA
100
AcDbEntity
  8
0
100
AcDbCircle
 62
7
  6
CONTINUOUS
 10
10.3399549702
 20
3.9742139678
 40
0.0103675299
  0
ARC
  5
4AB
100
AcDbEntity
  8
0
100
AcDbCircle
 62
7
  6
CONTINUOUS
 10
10.2793374932
 20
3.9862722368
 40
0.0103675299
100
AcDbArc
 50
78.079802902
 51
259.4381287483
  0
ARC
  5
4AC
100
AcDbEntity
  8
0
100
AcDbCircle
 62
7
  6
CONTINUOUS
 10
10.2793357407
 20
3.925460071
 40
0.0097939961
100
AcDbArc
 50
30.6274812172
 51
211.7144674468
  0
CIRCLE
  5
4AD
100
AcDbEntity
  8
0
100
AcDbCircle
 62
7
  6
CONTINUOUS
 10
10.3483413113
 20
3.896876395
 40
0.0097939932
  0
ARC
  5
4AE
100
AcDbEntity
  8
0
100
AcDbCircle
 62
7
  6
CONTINUOUS
 10
10.3769253378
 20
3.8278709174
 40
0.0097938092
100
AcDbArc
 50
180.0030365228
 51
359.9992224545
  0
ARC
  5
4AF
100
AcDbEntity
  8
0
100
AcDbCircle
 62
7
  6
CONTINUOUS
 10
5.7593357258
 20
4.6362072981
 40
0.03
100
AcDbArc
 50
190.8069227562
 51
269.9999999901
  0
ARC
  5
4B0
100
AcDbEntity
  8
0
100
AcDbCircle
 62
7
  6
CONTINUOUS
 10
7.8548357258
 20
4.6354572981
 40
0.01
100
AcDbArc
 50
0.0
 51
90.0
  0
ARC
  5
4B1
100
AcDbEntity
  8
0
100
AcDbCircle
 62
7
  6
CONTINUOUS
 10
7.7373357258
 20
4.6354572981
 40
0.01
100
AcDbArc
 50
90.0
 51
180.0
  0
SPLINE
  5
4B2
100
AcDbEntity
  8
0
100
AcDbSpline
 62
7
  6
CONTINUOUS
 70
0
 71
3
 72
43
 73
39
 74
0
 42
0.0000001
 43
0.0000001
 44
0.0000000001
 40
0.0
 40
0.0
 40
0.0
 40
0.0
 40
0.0225272563
 40
0.0467430688
 40
0.0997625973
 40
0.1139057625
 40
0.1283748272
 40
0.1582232506
 40
0.1891877304
 40
0.2211621405
 40
0.2375000337
 40
0.2540515373
 40
0.2877284762
 40
0.3220737821
 40
0.3569773434
 40
0.3746090925
 40
0.3923412802
 40
0.4280433354
 40
0.4639678262
 40
0.5
 40
0.5360321738
 40
0.5719566646
 40
0.6076587198
 40
0.6253909075
 40
0.6430226566
 40
0.6779262179
 40
0.7122715238
 40
0.7459484627
 40
0.7624999663
 40
0.7788378595
 40
0.8108122696
 40
0.8417767494
 40
0.8716251728
 40
0.8860942375
 40
0.9002374027
 40
0.9532569312
 40
0.9774727437
 40
1.0
 40
1.0
 40
1.0
 40
1.0
 10
2.6555857258
 20
4.6062072981
 30
0.0
 10
2.647477516
 20
4.6062072981
 30
0.0
 10
2.6306514501
 20
4.6059074401
 30
0.0
 10
2.5947919315
 20
4.6039543577
 30
0.0
 10
2.5620703885
 20
4.600181314
 30
0.0
 10
2.5331025108
 20
4.5952622341
 30
0.0
 10
2.5124405469
 20
4.5912736397
 30
0.0
 10
2.4860186436
 20
4.5852193084
 30
0.0
 10
2.4538423999
 20
4.5762268489
 30
0.0
 10
2.4267616321
 20
4.5671942365
 30
0.0
 10
2.4049146085
 20
4.5589560847
 30
0.0
 10
2.3827210868
 20
4.5499228776
 30
0.0
 10
2.3549844049
 20
4.5373439306
 30
0.0
 10
2.3220855767
 20
4.5202760523
 30
0.0
 10
2.295134878
 20
4.5043819596
 30
0.0
 10
2.2739073346
 20
4.4906274
 30
0.0
 10
2.2528356771
 20
4.4761221741
 30
0.0
 10
2.2271133159
 20
4.4567840551
 30
0.0
 10
2.1974664968
 20
4.4318019147
 30
0.0
 10
2.1691849233
 20
4.4051081007
 30
0.0
 10
2.1424911092
 20
4.3768265272
 30
0.0
 10
2.1175089689
 20
4.347179708
 30
0.0
 10
2.0981708498
 20
4.3214573468
 30
0.0
 10
2.0836656239
 20
4.3003856894
 30
0.0
 10
2.0699110644
 20
4.279158146
 30
0.0
 10
2.0540169716
 20
4.2522074473
 30
0.0
 10
2.0369490933
 20
4.2193086191
 30
0.0
 10
2.0243701463
 20
4.1915719371
 30
0.0
 10
2.0153369392
 20
4.1693784155
 30
0.0
 10
2.0070987874
 20
4.1475313919
 30
0.0
 10
1.9980661751
 20
4.1204506241
 30
0.0
 10
1.9890737156
 20
4.0882743804
 30
0.0
 10
1.9830193842
 20
4.061852477
 30
0.0
 10
1.9790307898
 20
4.0411905132
 30
0.0
 10
1.97411171
 20
4.0122226354
 30
0.0
 10
1.9703386663
 20
3.9795010925
 30
0.0
 10
1.9683855838
 20
3.9436415738
 30
0.0
 10
1.9680857258
 20
3.926815508
 30
0.0
 10
1.9680857258
 20
3.9187072981
 30
0.0
  0
SPLINE
  5
4B3
100
AcDbEntity
  8
0
100
AcDbSpline
 62
7
  6
CONTINUOUS
 70
0
 71
3
 72
43
 73
39
 74
0
 42
0.0000001
 43
0.0000001
 44
0.0000000001
 40
0.0
 40
0.0
 40
0.0
 40
0.0
 40
0.0225272563
 40
0.0467430688
 40
0.0997625973
 40
0.1139057625
 40
0.1283748272
 40
0.1582232506
 40
0.1891877304
 40
0.2211621405
 40
0.2375000337
 40
0.2540515373
 40
0.2877284762
 40
0.3220737821
 40
0.3569773434
 40
0.3746090925
 40
0.3923412802
 40
0.4280433354
 40
0.4639678262
 40
0.5
 40
0.5360321738
 40
0.5719566646
 40
0.6076587198
 40
0.6253909075
 40
0.6430226566
 40
0.6779262179
 40
0.7122715238
 40
0.7459484627
 40
0.7624999663
 40
0.7788378595
 40
0.8108122696
 40
0.8417767494
 40
0.8716251728
 40
0.8860942375
 40
0.9002374027
 40
0.9532569312
 40
0.9774727437
 40
1.0
 40
1.0
 40
1.0
 40
1.0
 10
5.9030857258
 20
4.6062072981
 30
0.0
 10
5.9111939356
 20
4.6062072981
 30
0.0
 10
5.9280200015
 20
4.6059074401
 30
0.0
 10
5.9638795201
 20
4.6039543577
 30
0.0
 10
5.9966010631
 20
4.600181314
 30
0.0
 10
6.0255689408
 20
4.5952622341
 30
0.0
 10
6.0462309047
 20
4.5912736397
 30
0.0
 10
6.072652808
 20
4.5852193084
 30
0.0
 10
6.1048290517
 20
4.5762268489
 30
0.0
 10
6.1319098195
 20
4.5671942365
 30
0.0
 10
6.1537568431
 20
4.5589560847
 30
0.0
 10
6.1759503648
 20
4.5499228776
 30
0.0
 10
6.2036870467
 20
4.5373439306
 30
0.0
 10
6.2365858749
 20
4.5202760523
 30
0.0
 10
6.2635365736
 20
4.5043819596
 30
0.0
 10
6.284764117
 20
4.4906274
 30
0.0
 10
6.3058357745
 20
4.4761221741
 30
0.0
 10
6.3315581357
 20
4.4567840551
 30
0.0
 10
6.3612049548
 20
4.4318019147
 30
0.0
 10
6.3894865283
 20
4.4051081007
 30
0.0
 10
6.4161803424
 20
4.3768265272
 30
0.0
 10
6.4411624827
 20
4.347179708
 30
0.0
 10
6.4605006018
 20
4.3214573468
 30
0.0
 10
6.4750058276
 20
4.3003856894
 30
0.0
 10
6.4887603872
 20
4.279158146
 30
0.0
 10
6.50465448
 20
4.2522074473
 30
0.0
 10
6.5217223583
 20
4.2193086191
 30
0.0
 10
6.5343013053
 20
4.1915719371
 30
0.0
 10
6.5433345124
 20
4.1693784155
 30
0.0
 10
6.5515726641
 20
4.1475313919
 30
0.0
 10
6.5606052765
 20
4.1204506241
 30
0.0
 10
6.569597736
 20
4.0882743804
 30
0.0
 10
6.5756520674
 20
4.061852477
 30
0.0
 10
6.5796406617
 20
4.0411905132
 30
0.0
 10
6.5845597416
 20
4.0122226354
 30
0.0
 10
6.5883327853
 20
3.9795010925
 30
0.0
 10
6.5902858678
 20
3.9436415738
 30
0.0
 10
6.5905857258
 20
3.926815508
 30
0.0
 10
6.5905857258
 20
3.9187072981
 30
0.0
  0
SPLINE
  5
4B4
100
AcDbEntity
  8
0
100
AcDbSpline
 62
7
  6
CONTINUOUS
 70
0
 71
3
 72
12
 73
8
 74
0
 42
0.0000001
 43
0.0000001
 44
0.0000000001
 40
0.0
 40
0.0
 40
0.0
 40
0.0
 40
0.2499923341
 40
0.4999847549
 40
0.6249966466
 40
0.750008631
 40
1.0
 40
1.0
 40
1.0
 40
1.0
 10
4.359069704
 20
7.2818714396
 30
0.0
 10
4.3525789046
 20
7.2836147886
 30
0.0
 10
4.3394806792
 20
7.286682018
 30
0.0
 10
4.3228944685
 20
7.2894452855
 30
0.0
 10
4.3095400795
 20
7.2910018827
 30
0.0
 10
4.2961423555
 20
7.292118746
 30
0.0
 10
4.2860565437
 20
7.2924572507
 30
0.0
 10
4.2793357258
 20
7.2924572981
 30
0.0
  0
SPLINE
  5
4B5
100
AcDbEntity
  8
0
100
AcDbSpline
 62
7
  6
CONTINUOUS
 70
0
 71
3
 72
12
 73
8
 74
0
 42
0.0000001
 43
0.0000001
 44
0.0000000001
 40
0.0
 40
0.0
 40
0.0
 40
0.0
 40
0.2499913484
 40
0.3750033279
 40
0.5000152239
 40
0.7500076497
 40
1.0
 40
1.0
 40
1.0
 40
1.0
 10
4.2793357258
 20
7.2924572981
 30
0.0
 10
4.2726146249
 20
7.2924572474
 30
0.0
 10
4.2625283879
 20
7.2921187188
 30
0.0
 10
4.249130103
 20
7.2910017604
 30
0.0
 10
4.2357751578
 20
7.2894450329
 30
0.0
 10
4.2191882646
 20
7.2866815347
 30
0.0
 10
4.2060895145
 20
7.2836140502
 30
0.0
 10
4.1995984599
 20
7.2818705566
 30
0.0
  0
SPLINE
  5
4B6
100
AcDbEntity
  8
0
100
AcDbSpline
 62
7
  6
CONTINUOUS
 70
0
 71
3
 72
24
 73
20
 74
0
 42
0.0000001
 43
0.0000001
 44
0.0000000001
 40
0.0
 40
0.0
 40
0.0
 40
0.0
 40
0.0624994513
 40
0.1249988821
 40
0.1874983543
 40
0.2499979281
 40
0.3124975617
 40
0.3749972472
 40
0.4374969072
 40
0.4999965366
 40
0.5624960607
 40
0.6249956054
 40
0.6874952173
 40
0.7499948458
 40
0.8124944195
 40
0.8749939248
 40
0.9374933298
 40
0.9687466536
 40
1.0
 40
1.0
 40
1.0
 40
1.0
 10
4.1995984599
 20
7.2818705566
 30
0.0
 10
4.1935130863
 20
7.2802360286
 30
0.0
 10
4.1814383988
 20
7.2765964802
 30
0.0
 10
4.1636937838
 20
7.2700480236
 30
0.0
 10
4.1463820614
 20
7.2624266241
 30
0.0
 10
4.1295647003
 20
7.253769792
 30
0.0
 10
4.1132973345
 20
7.2441192187
 30
0.0
 10
4.0976357831
 20
7.2335138084
 30
0.0
 10
4.0826356337
 20
7.2219918735
 30
0.0
 10
4.0683524879
 20
7.209592009
 30
0.0
 10
4.0548456062
 20
7.1963505106
 30
0.0
 10
4.0421682371
 20
7.1823129329
 30
0.0
 10
4.0303589809
 20
7.167537809
 30
0.0
 10
4.0194574824
 20
7.1520808156
 30
0.0
 10
4.0095031665
 20
7.1359973502
 30
0.0
 10
4.0005360966
 20
7.1193435767
 30
0.0
 10
3.9939204244
 20
7.1050351582
 30
0.0
 10
3.9891636246
 20
7.0933628037
 30
0.0
 10
3.9869657314
 20
7.0874554018
 30
0.0
 10
3.9859123224
 20
7.084485807
 30
0.0
  0
SPLINE
  5
4B7
100
AcDbEntity
  8
0
100
AcDbSpline
 62
7
  6
CONTINUOUS
 70
0
 71
3
 72
19
 73
15
 74
0
 42
0.0000001
 43
0.0000001
 44
0.0000000001
 40
0.0
 40
0.0
 40
0.0
 40
0.0
 40
0.1271815344
 40
0.1907104977
 40
0.2541589524
 40
0.3175020733
 40
0.3807148482
 40
0.5066470147
 40
0.6317475895
 40
0.6939210514
 40
0.755809109
 40
0.8173869902
 40
0.8786308774
 40
1.0
 40
1.0
 40
1.0
 40
1.0
 10
2.2793357258
 20
3.4517969634
 30
0.0
 10
2.275533628
 20
3.4517969605
 30
0.0
 10
2.2698322582
 20
3.4518319679
 30
0.0
 10
2.262234972
 20
3.4519444193
 30
0.0
 10
2.2565464709
 20
3.4520597292
 30
0.0
 10
2.250868052
 20
3.452202265
 30
0.0
 10
2.2433231513
 20
3.4524241379
 30
0.0
 10
2.2339343329
 20
3.4527488265
 30
0.0
 10
2.224577657
 20
3.4531012199
 30
0.0
 10
2.2171337829
 20
3.4533697801
 30
0.0
 10
2.2115872128
 20
3.4535562818
 30
0.0
 10
2.2060676648
 20
3.4537188974
 30
0.0
 10
2.1987696083
 20
3.453891367
 30
0.0
 10
2.1933103145
 20
3.4539572919
 30
0.0
 10
2.189681979
 20
3.4539572981
 30
0.0
  0
SPLINE
  5
4B8
100
AcDbEntity
  8
0
100
AcDbSpline
 62
7
  6
CONTINUOUS
 70
0
 71
3
 72
124
 73
120
 74
0
 42
0.0000001
 43
0.0000001
 44
0.0000000001
 40
0.0
 40
0.0
 40
0.0
 40
0.0
 40
0.0000005894
 40
0.0000023554
 40
0.0000052983
 40
0.0000094178
 40
0.000014714
 40
0.0000211868
 40
0.0000376621
 40
0.0000588432
 40
0.0000847298
 40
0.0001153213
 40
0.0001506173
 40
0.0001906175
 40
0.0002353214
 40
0.0003388384
 40
0.0004611651
 40
0.000602298
 40
0.0007622337
 40
0.0009409688
 40
0.001138498
 40
0.0013548117
 40
0.0018437504
 40
0.0024077006
 40
0.0030465782
 40
0.003760299
 40
0.0045487653
 40
0.0054118436
 40
0.006349395
 40
0.0073612802
 40
0.0096074794
 40
0.0121490725
 40
0.0149845101
 40
0.018112131
 40
0.0215299933
 40
0.0252360869
 40
0.0292281546
 40
0.0335037839
 40
0.0380604376
 40
0.0480055631
 40
0.0590395778
 40
0.0711359097
 40
0.0842654187
 40
0.0983964642
 40
0.1134949996
 40
0.1295246544
 40
0.1464468199
 40
0.1642207345
 40
0.1828035701
 40
0.2021505535
 40
0.2222150769
 40
0.2429488084
 40
0.264301805
 40
0.3086584417
 40
0.3315552164
 40
0.3548577881
 40
0.4024549397
 40
0.4266348496
 40
0.4509915011
 40
0.500000042
 40
0.5245338657
 40
0.5490085843
 40
0.5975451505
 40
0.6214900708
 40
0.6451423097
 40
0.6684448858
 40
0.6913416648
 40
0.7137774894
 40
0.7356983093
 40
0.7570513086
 40
0.7777850414
 40
0.7978495651
 40
0.8171965476
 40
0.8357793811
 40
0.8535532925
 40
0.8704754543
 40
0.8865051059
 40
0.9016036384
 40
0.9157346812
 40
0.9288641868
 40
0.9409605138
 40
0.9519945235
 40
0.9619396444
 40
0.9664962955
 40
0.9707719221
 40
0.9747639856
 40
0.9784700749
 40
0.9818879313
 40
0.9850155462
 40
0.987850978
 40
0.9903925643
 40
0.9926387562
 40
0.9936506375
 40
0.9945881852
 40
0.9954512609
 40
0.9962397261
 40
0.9969534477
 40
0.9975923262
 40
0.9981562758
 40
0.9986452104
 40
0.9988615202
 40
0.999059044
 40
0.9992377719
 40
0.9993976993
 40
0.9995388236
 40
0.9996611424
 40
0.9997646532
 40
0.9998493535
 40
0.999884649
 40
0.9999152409
 40
0.9999411289
 40
0.9999623127
 40
0.999978792
 40
0.9999852674
 40
0.9999905665
 40
0.9999946894
 40
0.9999976359
 40
0.9999994061
 40
1.0
 40
1.0
 40
1.0
 40
1.0
 10
5.9355857258
 20
3.735666714
 30
0.0
 10
5.9355857333
 20
3.7356668489
 30
0.0
 10
5.9355865834
 20
3.7356665374
 30
0.0
 10
5.935587498
 20
3.7356668375
 30
0.0
 10
5.9355896919
 20
3.735666655
 30
0.0
 10
5.9355924485
 20
3.7356667141
 30
0.0
 10
5.9355961188
 20
3.7356666597
 30
0.0
 10
5.9356025774
 20
3.735666627
 30
0.0
 10
5.9356126992
 20
3.7356665403
 30
0.0
 10
5.9356272567
 20
3.7356664296
 30
0.0
 10
5.9356450544
 20
3.7356662862
 30
0.0
 10
5.9356660848
 20
3.7356661186
 30
0.0
 10
5.9356903502
 20
3.7356659251
 30
0.0
 10
5.9357178493
 20
3.7356657078
 30
0.0
 10
5.935760982
 20
3.7356653703
 30
0.0
 10
5.9358229807
 20
3.7356648948
 30
0.0
 10
5.9359070773
 20
3.7356642697
 30
0.0
 10
5.9360041029
 20
3.7356635737
 30
0.0
 10
5.9361140553
 20
3.7356628153
 30
0.0
 10
5.9362369319
 20
3.735662003
 30
0.0
 10
5.9363727283
 20
3.7356611446
 30
0.0
 10
5.9365796121
 20
3.7356598891
 30
0.0
 10
5.9368704664
 20
3.7356582266
 30
0.0
 10
5.9372581576
 20
3.7356561581
 30
0.0
 10
5.9376973613
 20
3.7356539629
 30
0.0
 10
5.9381880168
 20
3.7356516615
 30
0.0
 10
5.9387300518
 20
3.7356492722
 30
0.0
 10
5.9393233814
 20
3.7356468011
 30
0.0
 10
5.9399679113
 20
3.7356442558
 30
0.0
 10
5.9409294049
 20
3.7356406453
 30
0.0
 10
5.9422584902
 20
3.7356360165
 30
0.0
 10
5.9440054723
 20
3.7356304472
 30
0.0
 10
5.9459544474
 20
3.7356247315
 30
0.0
 10
5.9481042349
 20
3.735618924
 30
0.0
 10
5.9504535485
 20
3.7356131246
 30
0.0
 10
5.9530009654
 20
3.7356074363
 30
0.0
 10
5.9557449548
 20
3.7356019
 30
0.0
 10
5.9586838649
 20
3.7355965354
 30
0.0
 10
5.962987017
 20
3.7355894112
 30
0.0
 10
5.9688389658
 20
3.735580599
 30
0.0
 10
5.9764187576
 20
3.7355700917
 30
0.0
 10
5.9847283061
 20
3.7355604634
 30
0.0
 10
5.9937475942
 20
3.7355535362
 30
0.0
 10
6.0034548895
 20
3.7355497935
 30
0.0
 10
6.0138268024
 20
3.7355492665
 30
0.0
 10
6.024838347
 20
3.7355517144
 30
0.0
 10
6.0364629988
 20
3.7355564811
 30
0.0
 10
6.0486727545
 20
3.7355621411
 30
0.0
 10
6.0614381982
 20
3.7355670175
 30
0.0
 10
6.0747285736
 20
3.7355713242
 30
0.0
 10
6.0885118627
 20
3.7355762787
 30
0.0
 10
6.1027548624
 20
3.7355835255
 30
0.0
 10
6.1225648035
 20
3.7355984981
 30
0.0
 10
6.1428704384
 20
3.7356180807
 30
0.0
 10
6.1636228552
 20
3.7356331506
 30
0.0
 10
6.1851178934
 20
3.7356433015
 30
0.0
 10
6.2069069856
 20
3.7356470924
 30
0.0
 10
6.2289376373
 20
3.7356523905
 30
0.0
 10
6.251291732
 20
3.7356600217
 30
0.0
 10
6.2737269318
 20
3.7356685633
 30
0.0
 10
6.2961891904
 20
3.7356689742
 30
0.0
 10
6.3185432871
 20
3.7356623488
 30
0.0
 10
6.3407624238
 20
3.735649622
 30
0.0
 10
6.3627930777
 20
3.7356415587
 30
0.0
 10
6.3790409407
 20
3.7356385318
 30
0.0
 10
6.3950486046
 20
3.735635444
 30
0.0
 10
6.4107775058
 20
3.7356288071
 30
0.0
 10
6.4261897517
 20
3.7356176828
 30
0.0
 10
6.4412482125
 20
3.7356043188
 30
0.0
 10
6.4559166119
 20
3.7355926738
 30
0.0
 10
6.4701596132
 20
3.7355862928
 30
0.0
 10
6.4839429031
 20
3.7355836186
 30
0.0
 10
6.4972332785
 20
3.7355821987
 30
0.0
 10
6.5099987215
 20
3.7355797602
 30
0.0
 10
6.5222084757
 20
3.7355754138
 30
0.0
 10
6.5338331254
 20
3.7355713448
 30
0.0
 10
6.5448446679
 20
3.7355693266
 30
0.0
 10
6.5552165788
 20
3.7355706357
 30
0.0
 10
6.5649238716
 20
3.735575057
 30
0.0
 10
6.5739431574
 20
3.7355814981
 30
0.0
 10
6.5822527046
 20
3.7355893547
 30
0.0
 10
6.5898324954
 20
3.7355980438
 30
0.0
 10
6.5956844431
 20
3.7356056602
 30
0.0
 10
6.5999875946
 20
3.7356117283
 30
0.0
 10
6.6029265041
 20
3.7356160951
 30
0.0
 10
6.6056704931
 20
3.7356204182
 30
0.0
 10
6.6082179094
 20
3.7356247203
 30
0.0
 10
6.6105672225
 20
3.7356290123
 30
0.0
 10
6.6127170095
 20
3.7356332849
 30
0.0
 10
6.6146659842
 20
3.73563753
 30
0.0
 10
6.6164129655
 20
3.735641752
 30
0.0
 10
6.6177420498
 20
3.7356453807
 30
0.0
 10
6.6187035422
 20
3.7356483019
 30
0.0
 10
6.6193480715
 20
3.7356503946
 30
0.0
 10
6.619941401
 20
3.7356524551
 30
0.0
 10
6.6204834368
 20
3.7356544709
 30
0.0
 10
6.6209740939
 20
3.7356564319
 30
0.0
 10
6.6214132994
 20
3.7356583096
 30
0.0
 10
6.6218009912
 20
3.7356600717
 30
0.0
 10
6.6220918449
 20
3.7356614693
 30
0.0
 10
6.6222987268
 20
3.7356625031
 30
0.0
 10
6.6224345204
 20
3.7356631975
 30
0.0
 10
6.6225573932
 20
3.7356638393
 30
0.0
 10
6.6226673411
 20
3.7356644251
 30
0.0
 10
6.6227643622
 20
3.7356649514
 30
0.0
 10
6.6228484545
 20
3.7356654151
 30
0.0
 10
6.6229196166
 20
3.7356658127
 30
0.0
 10
6.622970836
 20
3.7356661013
 30
0.0
 10
6.6230053452
 20
3.7356662961
 30
0.0
 10
6.6230263765
 20
3.735666414
 30
0.0
 10
6.6230441749
 20
3.7356665145
 30
0.0
 10
6.6230587364
 20
3.7356665909
 30
0.0
 10
6.6230688562
 20
3.7356666527
 30
0.0
 10
6.6230753236
 20
3.7356666729
 30
0.0
 10
6.6230789821
 20
3.735666716
 30
0.0
 10
6.6230817768
 20
3.7356666612
 30
0.0
 10
6.6230838924
 20
3.73566682
 30
0.0
 10
6.6230849516
 20
3.735666556
 30
0.0
 10
6.6230856573
 20
3.7356668316
 30
0.0
 10
6.6230857258
 20
3.735666714
 30
0.0
  0
SPLINE
  5
4B9
100
AcDbEntity
  8
0
100
AcDbSpline
 62
7
  6
CONTINUOUS
 70
0
 71
3
 72
24
 73
20
 74
0
 42
0.0000001
 43
0.0000001
 44
0.0000000001
 40
0.0
 40
0.0
 40
0.0
 40
0.0
 40
0.0312533456
 40
0.0625066683
 40
0.1250060737
 40
0.1875055841
 40
0.2500051572
 40
0.3125047804
 40
0.3750043903
 40
0.4375039364
 40
0.5000034593
 40
0.5625030885
 40
0.6250027534
 40
0.6875024437
 40
0.750002077
 40
0.8125016487
 40
0.8750011212
 40
0.9375005518
 40
1.0
 40
1.0
 40
1.0
 40
1.0
 10
4.5727556543
 20
7.0844956028
 30
0.0
 10
4.5717021697
 20
7.0874650934
 30
0.0
 10
4.5695041294
 20
7.093372285
 30
0.0
 10
4.5647470559
 20
7.1050442133
 30
0.0
 10
4.5581310874
 20
7.1193520934
 30
0.0
 10
4.5491637287
 20
7.136005215
 30
0.0
 10
4.5392091893
 20
7.1520880275
 30
0.0
 10
4.5283075298
 20
7.167544371
 30
0.0
 10
4.5164981731
 20
7.1823188539
 30
0.0
 10
4.5038207561
 20
7.1963557988
 30
0.0
 10
4.4903138846
 20
7.2095966827
 30
0.0
 10
4.4760308048
 20
7.2219959563
 30
0.0
 10
4.4610307745
 20
7.2335173297
 30
0.0
 10
4.4453693897
 20
7.2441222075
 30
0.0
 10
4.4291022357
 20
7.2537722811
 30
0.0
 10
4.4122851273
 20
7.2624286478
 30
0.0
 10
4.3949736952
 20
7.2700496207
 30
0.0
 10
4.3772294046
 20
7.2765976918
 30
0.0
 10
4.3651549546
 20
7.280237016
 30
0.0
 10
4.359069704
 20
7.2818714396
 30
0.0
  0
SPLINE
  5
4BA
100
AcDbEntity
  8
0
100
AcDbSpline
 62
7
  6
CONTINUOUS
 70
0
 71
3
 72
29
 73
25
 74
0
 42
0.0000001
 43
0.0000001
 44
0.0000000001
 40
0.0
 40
0.0
 40
0.0
 40
0.0
 40
0.0309782314
 40
0.0619621124
 40
0.0929565487
 40
0.1239652658
 40
0.1549913066
 40
0.1860375279
 40
0.2171070966
 40
0.2482039834
 40
0.3104769691
 40
0.372885919
 40
0.4354182455
 40
0.4980572361
 40
0.5607924381
 40
0.6235939919
 40
0.6864166865
 40
0.7492211789
 40
0.8119881586
 40
0.8747027415
 40
0.9060462602
 40
0.9373746463
 40
0.9686907166
 40
1.0
 40
1.0
 40
1.0
 40
1.0
 10
3.9680879114
 20
6.9823541301
 30
0.0
 10
3.9681070684
 20
6.9873806705
 30
0.0
 10
3.9683972913
 20
6.9974354912
 30
0.0
 10
3.9695810775
 20
7.0124781111
 30
0.0
 10
3.971506106
 20
7.0274492566
 30
0.0
 10
3.974165173
 20
7.0423143938
 30
0.0
 10
3.9775511138
 20
7.0570396574
 30
0.0
 10
3.9816567357
 20
7.0715908653
 30
0.0
 10
3.9864750597
 20
7.0859344068
 30
0.0
 10
3.9938421872
 20
7.1047415218
 30
0.0
 10
4.0048019734
 20
7.1275680071
 30
0.0
 10
4.0205669
 20
7.1535884174
 30
0.0
 10
4.0387933837
 20
7.1780236179
 30
0.0
 10
4.0593200015
 20
7.2006335845
 30
0.0
 10
4.081976862
 20
7.22117343
 30
0.0
 10
4.1065182623
 20
7.2394679751
 30
0.0
 10
4.1327036111
 20
7.2553425213
 30
0.0
 10
4.1602927914
 20
7.2686201801
 30
0.0
 10
4.1890346718
 20
7.2791199438
 30
0.0
 10
4.2137208802
 20
7.2854773612
 30
0.0
 10
4.2337527336
 20
7.289074809
 30
0.0
 10
4.2488859483
 20
7.2910178212
 30
0.0
 10
4.2640918157
 20
7.2921933477
 30
0.0
 10
4.2742554318
 20
7.2924572981
 30
0.0
 10
4.2793357258
 20
7.2924572981
 30
0.0
  0
SPLINE
  5
4BB
100
AcDbEntity
  8
0
100
AcDbSpline
 62
7
  6
CONTINUOUS
 70
0
 71
3
 72
19
 73
15
 74
0
 42
0.0000001
 43
0.0000001
 44
0.0000000001
 40
0.0
 40
0.0
 40
0.0
 40
0.0
 40
0.0579648407
 40
0.1161721809
 40
0.1747184325
 40
0.2337681646
 40
0.3537826831
 40
0.4771081368
 40
0.5401604324
 40
0.604061542
 40
0.6687537101
 40
0.7341426941
 40
0.8664437081
 40
1.0
 40
1.0
 40
1.0
 40
1.0
 10
6.777300333
 20
1.6357072981
 30
0.0
 10
6.7770170706
 20
1.6357072981
 30
0.0
 10
6.7764488488
 20
1.6357397198
 30
0.0
 10
6.7756056137
 20
1.6358841563
 30
0.0
 10
6.7747786605
 20
1.6361238107
 30
0.0
 10
6.7737038512
 20
1.6365684343
 30
0.0
 10
6.7724381587
 20
1.6373539706
 30
0.0
 10
6.7713469096
 20
1.6383943964
 30
0.0
 10
6.770591592
 20
1.6393582533
 30
0.0
 10
6.7700850762
 20
1.6401476888
 30
0.0
 10
6.7696483059
 20
1.6409905237
 30
0.0
 10
6.7691621209
 20
1.6421785755
 30
0.0
 10
6.7687504187
 20
1.6437529072
 30
0.0
 10
6.7686400789
 20
1.6450546357
 30
0.0
 10
6.7686400789
 20
1.6457072981
 30
0.0
  0
SPLINE
  5
4BC
100
AcDbEntity
  8
0
100
AcDbSpline
 62
7
  6
CONTINUOUS
 70
0
 71
3
 72
19
 73
15
 74
0
 42
0.0000001
 43
0.0000001
 44
0.0000000001
 40
0.0
 40
0.0
 40
0.0
 40
0.0
 40
0.0579648407
 40
0.1161721809
 40
0.1747184325
 40
0.2337681646
 40
0.3537826831
 40
0.4771081368
 40
0.5401604324
 40
0.604061542
 40
0.6687537101
 40
0.7341426941
 40
0.8664437081
 40
1.0
 40
1.0
 40
1.0
 40
1.0
 10
6.5456385375
 20
1.6357072981
 30
0.0
 10
6.5453552751
 20
1.6357072981
 30
0.0
 10
6.5447870533
 20
1.6357397198
 30
0.0
 10
6.5439438182
 20
1.6358841563
 30
0.0
 10
6.543116865
 20
1.6361238107
 30
0.0
 10
6.5420420557
 20
1.6365684343
 30
0.0
 10
6.5407763632
 20
1.6373539706
 30
0.0
 10
6.539685114
 20
1.6383943964
 30
0.0
 10
6.5389297965
 20
1.6393582533
 30
0.0
 10
6.5384232806
 20
1.6401476888
 30
0.0
 10
6.5379865104
 20
1.6409905237
 30
0.0
 10
6.5375003253
 20
1.6421785755
 30
0.0
 10
6.5370886232
 20
1.6437529072
 30
0.0
 10
6.5369782834
 20
1.6450546357
 30
0.0
 10
6.5369782834
 20
1.6457072981
 30
0.0
  0
SPLINE
  5
4BD
100
AcDbEntity
  8
0
100
AcDbSpline
 62
7
  6
CONTINUOUS
 70
0
 71
3
 72
123
 73
119
 74
0
 42
0.0000001
 43
0.0000001
 44
0.0000000001
 40
0.0
 40
0.0
 40
0.0
 40
0.0
 40
0.0000005892
 40
0.0000023552
 40
0.0000052979
 40
0.0000094173
 40
0.0000147133
 40
0.000021186
 40
0.000037661
 40
0.0000588419
 40
0.0000847281
 40
0.0001153193
 40
0.0001506151
 40
0.000190615
 40
0.0002353185
 40
0.0003388349
 40
0.0004611609
 40
0.0006022931
 40
0.0007622279
 40
0.000940962
 40
0.0011384903
 40
0.0013548029
 40
0.0018437391
 40
0.0024076867
 40
0.0030465614
 40
0.0037602793
 40
0.0045487426
 40
0.0054118181
 40
0.0063493666
 40
0.007361249
 40
0.0096074426
 40
0.0121490305
 40
0.0149844634
 40
0.0181120802
 40
0.0215299387
 40
0.0252360291
 40
0.0292280939
 40
0.0335037209
 40
0.0380603728
 40
0.0480054954
 40
0.0590395079
 40
0.0711358391
 40
0.0842653487
 40
0.0983963948
 40
0.1134949306
 40
0.1295245861
 40
0.1464467519
 40
0.1642206664
 40
0.1828035022
 40
0.2021504861
 40
0.2222150103
 40
0.242948743
 40
0.2643017401
 40
0.2862225561
 40
0.3086583765
 40
0.3548577239
 40
0.3785099593
 40
0.4024548768
 40
0.4509914391
 40
0.475466157
 40
0.4999999806
 40
0.5490085234
 40
0.5975450897
 40
0.6451422488
 40
0.6684448249
 40
0.691341604
 40
0.7137774283
 40
0.7356982478
 40
0.7570512471
 40
0.7777849805
 40
0.7978495041
 40
0.8171964862
 40
0.8357793191
 40
0.8535532299
 40
0.8704753912
 40
0.8865050422
 40
0.9016035737
 40
0.9157346156
 40
0.9288641211
 40
0.9409604485
 40
0.9519944589
 40
0.9619395817
 40
0.9664962344
 40
0.9707718631
 40
0.9747639292
 40
0.9784700216
 40
0.9818878816
 40
0.9850155005
 40
0.9878509368
 40
0.9903925279
 40
0.9926387251
 40
0.9936506091
 40
0.9945881596
 40
0.9954512381
 40
0.9962397061
 40
0.9969534303
 40
0.9975923114
 40
0.9981562636
 40
0.998645201
 40
0.9988615122
 40
0.9990590375
 40
0.999237767
 40
0.9993976959
 40
0.9995388218
 40
0.9996611419
 40
0.9997646538
 40
0.999849355
 40
0.9998846507
 40
0.9999152427
 40
0.9999411307
 40
0.9999623145
 40
0.9999787936
 40
0.9999852688
 40
0.9999905677
 40
0.9999946904
 40
0.9999976366
 40
0.9999994065
 40
1.0
 40
1.0
 40
1.0
 40
1.0
 10
5.7200451417
 20
4.6387072981
 30
0.0
 10
5.7200452766
 20
4.6387072922
 30
0.0
 10
5.720044967
 20
4.6387064385
 30
0.0
 10
5.720045268
 20
4.6387055276
 30
0.0
 10
5.7200450887
 20
4.6387033316
 30
0.0
 10
5.7200451512
 20
4.638700576
 30
0.0
 10
5.7200451016
 20
4.6386969054
 30
0.0
 10
5.7200450767
 20
4.6386904471
 30
0.0
 10
5.7200450021
 20
4.6386803253
 30
0.0
 10
5.7200449084
 20
4.6386657679
 30
0.0
 10
5.7200447854
 20
4.6386479702
 30
0.0
 10
5.7200446416
 20
4.6386269398
 30
0.0
 10
5.7200444753
 20
4.6386026745
 30
0.0
 10
5.7200442885
 20
4.6385751753
 30
0.0
 10
5.7200439983
 20
4.6385320425
 30
0.0
 10
5.7200435898
 20
4.6384700437
 30
0.0
 10
5.720043054
 20
4.6383859471
 30
0.0
 10
5.7200424592
 20
4.6382889213
 30
0.0
 10
5.7200418135
 20
4.6381789687
 30
0.0
 10
5.7200411253
 20
4.6380560921
 30
0.0
 10
5.7200404017
 20
4.6379202955
 30
0.0
 10
5.7200393489
 20
4.6377134117
 30
0.0
 10
5.7200379669
 20
4.6374225573
 30
0.0
 10
5.7200362674
 20
4.6370348662
 30
0.0
 10
5.7200344866
 20
4.6365956625
 30
0.0
 10
5.7200326458
 20
4.6361050071
 30
0.0
 10
5.720030763
 20
4.6355629721
 30
0.0
 10
5.7200288377
 20
4.6349696425
 30
0.0
 10
5.7200268716
 20
4.6343251125
 30
0.0
 10
5.7200240995
 20
4.6333636187
 30
0.0
 10
5.7200205649
 20
4.6320345332
 30
0.0
 10
5.7200163081
 20
4.6302875509
 30
0.0
 10
5.7200119051
 20
4.6283385756
 30
0.0
 10
5.7200073795
 20
4.6261887879
 30
0.0
 10
5.7200028556
 20
4.6238394741
 30
0.0
 10
5.7199984635
 20
4.6212920569
 30
0.0
 10
5.719994198
 20
4.6185480673
 30
0.0
 10
5.7199899951
 20
4.6156091569
 30
0.0
 10
5.7199842511
 20
4.6113060043
 30
0.0
 10
5.7199770142
 20
4.605454055
 30
0.0
 10
5.7199683009
 20
4.5978742622
 30
0.0
 10
5.7199598161
 20
4.5895647131
 30
0.0
 10
5.7199522419
 20
4.5805454257
 30
0.0
 10
5.7199478101
 20
4.5708381302
 30
0.0
 10
5.7199480202
 20
4.5604662167
 30
0.0
 10
5.7199517437
 20
4.5494546723
 30
0.0
 10
5.7199556103
 20
4.5378300199
 30
0.0
 10
5.7199571209
 20
4.525620263
 30
0.0
 10
5.7199578729
 20
4.5128548183
 30
0.0
 10
5.7199601743
 20
4.499564442
 30
0.0
 10
5.7199659889
 20
4.4857811526
 30
0.0
 10
5.7199754135
 20
4.4715381536
 30
0.0
 10
5.7199859409
 20
4.456869755
 30
0.0
 10
5.719995784
 20
4.4418112939
 30
0.0
 10
5.7200061421
 20
4.4210588742
 30
0.0
 10
5.7200132174
 20
4.3999096694
 30
0.0
 10
5.7200216518
 20
4.3784146302
 30
0.0
 10
5.7200318218
 20
4.3563839797
 30
0.0
 10
5.7200414781
 20
4.3341648432
 30
0.0
 10
5.720045429
 20
4.3118107471
 30
0.0
 10
5.7200448325
 20
4.2893484886
 30
0.0
 10
5.720038305
 20
4.2613720547
 30
0.0
 10
5.7200282327
 20
4.2281102718
 30
0.0
 10
5.7200184191
 20
4.2007394422
 30
0.0
 10
5.7200090227
 20
4.1792444002
 30
0.0
 10
5.7200005924
 20
4.1635155002
 30
0.0
 10
5.719989664
 20
4.1481032544
 30
0.0
 10
5.719976353
 20
4.1330447937
 30
0.0
 10
5.7199630915
 20
4.1183763958
 30
0.0
 10
5.7199528104
 20
4.1041333968
 30
0.0
 10
5.7199469803
 20
4.0903501078
 30
0.0
 10
5.7199440686
 20
4.0770597329
 30
0.0
 10
5.7199411821
 20
4.0642942904
 30
0.0
 10
5.7199365051
 20
4.0520845368
 30
0.0
 10
5.719931059
 20
4.0404598881
 30
0.0
 10
5.7199271428
 20
4.0294483467
 30
0.0
 10
5.7199273462
 20
4.0190764361
 30
0.0
 10
5.7199320308
 20
4.0093691437
 30
0.0
 10
5.7199395976
 20
4.000349859
 30
0.0
 10
5.7199486906
 20
3.9920403128
 30
0.0
 10
5.7199585683
 20
3.9844605227
 30
0.0
 10
5.7199675438
 20
3.978608576
 30
0.0
 10
5.7199750331
 20
3.9743054255
 30
0.0
 10
5.7199805654
 20
3.9713665164
 30
0.0
 10
5.7199861565
 20
3.968622528
 30
0.0
 10
5.719991787
 20
3.9660751122
 30
0.0
 10
5.7199974334
 20
3.9637257995
 30
0.0
 10
5.7200030627
 20
3.9615760128
 30
0.0
 10
5.7200086425
 20
3.9596270385
 30
0.0
 10
5.72001415
 20
3.9578800574
 30
0.0
 10
5.7200188171
 20
3.9565509734
 30
0.0
 10
5.7200225214
 20
3.9555894811
 30
0.0
 10
5.7200251546
 20
3.954944952
 30
0.0
 10
5.7200277282
 20
3.9543516226
 30
0.0
 10
5.7200302285
 20
3.9538095869
 30
0.0
 10
5.7200326445
 20
3.95331893
 30
0.0
 10
5.7200349443
 20
3.9528797247
 30
0.0
 10
5.7200370922
 20
3.952492033
 30
0.0
 10
5.7200387892
 20
3.9522011793
 30
0.0
 10
5.7200400414
 20
3.9519942973
 30
0.0
 10
5.7200408815
 20
3.9518585035
 30
0.0
 10
5.7200416573
 20
3.9517356305
 30
0.0
 10
5.7200423648
 20
3.9516256821
 30
0.0
 10
5.7200430004
 20
3.9515286608
 30
0.0
 10
5.7200435601
 20
3.9514445681
 30
0.0
 10
5.7200440402
 20
3.9513734058
 30
0.0
 10
5.7200443892
 20
3.9513221862
 30
0.0
 10
5.7200446252
 20
3.951287677
 30
0.0
 10
5.7200447683
 20
3.9512666458
 30
0.0
 10
5.7200448905
 20
3.9512488474
 30
0.0
 10
5.7200449846
 20
3.9512342862
 30
0.0
 10
5.720045059
 20
3.9512241664
 30
0.0
 10
5.7200450871
 20
3.9512176995
 30
0.0
 10
5.7200451352
 20
3.9512140405
 30
0.0
 10
5.720045083
 20
3.9512112476
 30
0.0
 10
5.7200452467
 20
3.9512091286
 30
0.0
 10
5.7200449802
 20
3.951208076
 30
0.0
 10
5.7200452607
 20
3.9512073638
 30
0.0
 10
5.7200451416
 20
3.9512072981
 30
0.0
  0
SPLINE
  5
4BE
100
AcDbEntity
  8
0
100
AcDbSpline
 62
7
  6
CONTINUOUS
 70
0
 71
3
 72
122
 73
118
 74
0
 42
0.0000001
 43
0.0000001
 44
0.0000000001
 40
0.0
 40
0.0
 40
0.0
 40
0.0
 40
0.0000005892
 40
0.0000023552
 40
0.0000052979
 40
0.0000094173
 40
0.0000147133
 40
0.000021186
 40
0.000037661
 40
0.0000588419
 40
0.0000847281
 40
0.0001153193
 40
0.0001506151
 40
0.000190615
 40
0.0002353185
 40
0.000338835
 40
0.0004611609
 40
0.0006022931
 40
0.0007622279
 40
0.0009409621
 40
0.0011384903
 40
0.0013548029
 40
0.0018437391
 40
0.0024076867
 40
0.0030465614
 40
0.0037602793
 40
0.0045487426
 40
0.0054118181
 40
0.0063493666
 40
0.007361249
 40
0.0096074426
 40
0.0121490305
 40
0.0149844634
 40
0.0181120802
 40
0.0215299387
 40
0.0252360291
 40
0.0292280939
 40
0.0335037209
 40
0.0380603728
 40
0.0480054954
 40
0.0590395079
 40
0.071135839
 40
0.0842653487
 40
0.0983963947
 40
0.1134949305
 40
0.1295245861
 40
0.1464467518
 40
0.1642206663
 40
0.1828035021
 40
0.202150486
 40
0.2222150102
 40
0.2429487429
 40
0.26430174
 40
0.286222556
 40
0.3086583764
 40
0.3548577239
 40
0.3785099593
 40
0.4024548767
 40
0.4509914391
 40
0.4754661571
 40
0.4999999806
 40
0.5490085234
 40
0.5975450897
 40
0.6451422487
 40
0.6684448249
 40
0.6913416039
 40
0.7137774283
 40
0.7356982477
 40
0.7777849802
 40
0.7978495038
 40
0.817196486
 40
0.8357793189
 40
0.8535532296
 40
0.870475391
 40
0.886505042
 40
0.9016035735
 40
0.9157346155
 40
0.928864121
 40
0.9409604484
 40
0.9519944588
 40
0.9619395817
 40
0.9664962343
 40
0.970771863
 40
0.9747639291
 40
0.9784700216
 40
0.9818878816
 40
0.9850155005
 40
0.9878509367
 40
0.9903925278
 40
0.992638725
 40
0.9936506091
 40
0.9945881596
 40
0.9954512381
 40
0.996239706
 40
0.9969534302
 40
0.9975923114
 40
0.9981562635
 40
0.9986452009
 40
0.9988615121
 40
0.9990590375
 40
0.999237767
 40
0.9993976959
 40
0.9995388218
 40
0.999661142
 40
0.9997646539
 40
0.9998493551
 40
0.9998846508
 40
0.9999152428
 40
0.9999411308
 40
0.9999623146
 40
0.9999787937
 40
0.9999852689
 40
0.9999905678
 40
0.9999946904
 40
0.9999976367
 40
0.9999994065
 40
1.0
 40
1.0
 40
1.0
 40
1.0
 10
1.9355857258
 20
3.735666714
 30
0.0
 10
1.9355857317
 20
3.7356668489
 30
0.0
 10
1.9355865855
 20
3.7356665395
 30
0.0
 10
1.9355874964
 20
3.7356668404
 30
0.0
 10
1.9355896923
 20
3.7356666612
 30
0.0
 10
1.9355924479
 20
3.7356667237
 30
0.0
 10
1.9355961185
 20
3.7356666741
 30
0.0
 10
1.9356025768
 20
3.7356666493
 30
0.0
 10
1.9356126986
 20
3.7356665747
 30
0.0
 10
1.935627256
 20
3.735666481
 30
0.0
 10
1.9356450538
 20
3.735666358
 30
0.0
 10
1.9356660841
 20
3.7356662142
 30
0.0
 10
1.9356903495
 20
3.7356660479
 30
0.0
 10
1.9357178486
 20
3.735665861
 30
0.0
 10
1.9357609814
 20
3.7356655708
 30
0.0
 10
1.9358229802
 20
3.7356651623
 30
0.0
 10
1.9359070769
 20
3.7356646263
 30
0.0
 10
1.9360041026
 20
3.7356640314
 30
0.0
 10
1.9361140552
 20
3.7356633857
 30
0.0
 10
1.9362369319
 20
3.7356626973
 30
0.0
 10
1.9363727284
 20
3.7356619736
 30
0.0
 10
1.9365796123
 20
3.7356609206
 30
0.0
 10
1.9368704666
 20
3.7356595385
 30
0.0
 10
1.9372581577
 20
3.7356578388
 30
0.0
 10
1.9376973614
 20
3.7356560578
 30
0.0
 10
1.9381880169
 20
3.7356542169
 30
0.0
 10
1.9387300518
 20
3.7356523341
 30
0.0
 10
1.9393233815
 20
3.7356504087
 30
0.0
 10
1.9399679115
 20
3.7356484426
 30
0.0
 10
1.9409294052
 20
3.7356456709
 30
0.0
 10
1.9422584908
 20
3.735642137
 30
0.0
 10
1.944005473
 20
3.7356378817
 30
0.0
 10
1.9459544483
 20
3.7356334799
 30
0.0
 10
1.948104236
 20
3.735628955
 30
0.0
 10
1.9504535498
 20
3.7356244312
 30
0.0
 10
1.953000967
 20
3.7356200381
 30
0.0
 10
1.9557449566
 20
3.735615771
 30
0.0
 10
1.958683867
 20
3.7356115667
 30
0.0
 10
1.9629870196
 20
3.7356058217
 30
0.0
 10
1.968838969
 20
3.7355985825
 30
0.0
 10
1.9764187617
 20
3.7355898674
 30
0.0
 10
1.9847283108
 20
3.7355813912
 30
0.0
 10
1.9937475983
 20
3.7355738296
 30
0.0
 10
2.0034548937
 20
3.7355693868
 30
0.0
 10
2.0138268072
 20
3.7355695781
 30
0.0
 10
2.0248383516
 20
3.7355733017
 30
0.0
 10
2.0364630039
 20
3.7355771905
 30
0.0
 10
2.0486727609
 20
3.7355787193
 30
0.0
 10
2.0614382056
 20
3.7355794607
 30
0.0
 10
2.0747285819
 20
3.7355817229
 30
0.0
 10
2.0885118713
 20
3.7355875099
 30
0.0
 10
2.1027548702
 20
3.7355969549
 30
0.0
 10
2.1174232688
 20
3.7356075232
 30
0.0
 10
2.1324817299
 20
3.7356174164
 30
0.0
 10
2.1532341496
 20
3.735627782
 30
0.0
 10
2.1743833544
 20
3.7356347804
 30
0.0
 10
2.1958783937
 20
3.7356431548
 30
0.0
 10
2.2179090442
 20
3.735653336
 30
0.0
 10
2.2401281807
 20
3.7356630714
 30
0.0
 10
2.2624822767
 20
3.7356670613
 30
0.0
 10
2.2849445353
 20
3.7356664385
 30
0.0
 10
2.3129209691
 20
3.7356598175
 30
0.0
 10
2.3461827521
 20
3.7356498008
 30
0.0
 10
2.3735535816
 20
3.7356400345
 30
0.0
 10
2.3950486236
 20
3.7356305915
 30
0.0
 10
2.4107775236
 20
3.7356221278
 30
0.0
 10
2.4261897694
 20
3.7356112201
 30
0.0
 10
2.4459997108
 20
3.7355937149
 30
0.0
 10
2.4652662295
 20
3.7355764371
 30
0.0
 10
2.483942916
 20
3.7355685309
 30
0.0
 10
2.4972332908
 20
3.735565595
 30
0.0
 10
2.5099987334
 20
3.7355627342
 30
0.0
 10
2.522208487
 20
3.7355581096
 30
0.0
 10
2.5338331358
 20
3.735552672
 30
0.0
 10
2.5448446772
 20
3.7355487308
 30
0.0
 10
2.5552165877
 20
3.735548903
 30
0.0
 10
2.5649238801
 20
3.7355535788
 30
0.0
 10
2.5739431649
 20
3.7355611635
 30
0.0
 10
2.5822527111
 20
3.7355702696
 30
0.0
 10
2.5898325011
 20
3.7355801427
 30
0.0
 10
2.5956844479
 20
3.7355891121
 30
0.0
 10
2.5999875984
 20
3.7355966012
 30
0.0
 10
2.6029265074
 20
3.7356021356
 30
0.0
 10
2.6056704959
 20
3.7356077303
 30
0.0
 10
2.6082179117
 20
3.7356133639
 30
0.0
 10
2.6105672244
 20
3.7356190117
 30
0.0
 10
2.6127170111
 20
3.7356246408
 30
0.0
 10
2.6146659854
 20
3.7356302185
 30
0.0
 10
2.6164129665
 20
3.7356357226
 30
0.0
 10
2.6177420506
 20
3.7356403864
 30
0.0
 10
2.6187035428
 20
3.7356440885
 30
0.0
 10
2.619348072
 20
3.7356467203
 30
0.0
 10
2.6199414014
 20
3.735649293
 30
0.0
 10
2.620483437
 20
3.7356517928
 30
0.0
 10
2.6209740939
 20
3.7356542088
 30
0.0
 10
2.6214132992
 20
3.7356565093
 30
0.0
 10
2.6218009909
 20
3.7356586582
 30
0.0
 10
2.6220918446
 20
3.7356603562
 30
0.0
 10
2.6222987266
 20
3.7356616093
 30
0.0
 10
2.6224345204
 20
3.7356624501
 30
0.0
 10
2.6225573935
 20
3.7356632265
 30
0.0
 10
2.6226673418
 20
3.7356639347
 30
0.0
 10
2.6227643632
 20
3.7356645708
 30
0.0
 10
2.6228484559
 20
3.735665131
 30
0.0
 10
2.6229196182
 20
3.7356656116
 30
0.0
 10
2.6229708378
 20
3.735665961
 30
0.0
 10
2.623005347
 20
3.7356661972
 30
0.0
 10
2.6230263782
 20
3.7356663405
 30
0.0
 10
2.6230441766
 20
3.7356664628
 30
0.0
 10
2.6230587378
 20
3.7356665569
 30
0.0
 10
2.6230688576
 20
3.7356666314
 30
0.0
 10
2.6230753245
 20
3.7356666595
 30
0.0
 10
2.6230789835
 20
3.7356667077
 30
0.0
 10
2.6230817762
 20
3.7356666553
 30
0.0
 10
2.6230838957
 20
3.7356668193
 30
0.0
 10
2.6230849474
 20
3.7356665523
 30
0.0
 10
2.6230856605
 20
3.7356668333
 30
0.0
 10
2.6230857258
 20
3.735666714
 30
0.0
  0
SPLINE
  5
4BF
100
AcDbEntity
  8
0
100
AcDbSpline
 62
7
  6
CONTINUOUS
 70
0
 71
3
 72
49
 73
45
 74
0
 42
0.0000001
 43
0.0000001
 44
0.0000000001
 40
0.0
 40
0.0
 40
0.0
 40
0.0
 40
0.0001553704
 40
0.0006201741
 40
0.0013924376
 40
0.0024701574
 40
0.0038513027
 40
0.0055338414
 40
0.0097949665
 40
0.0152374252
 40
0.0218453178
 40
0.0384948747
 40
0.059591498
 40
0.0848864231
 40
0.1141137899
 40
0.1470151293
 40
0.2026153014
 40
0.2646060696
 40
0.3317051824
 40
0.4024962546
 40
0.4754216171
 40
0.548890955
 40
0.6212803651
 40
0.6910092404
 40
0.7565385442
 40
0.8165199461
 40
0.8440349431
 40
0.8696894673
 40
0.8933555927
 40
0.9149255181
 40
0.9342911194
 40
0.9513417246
 40
0.9659620613
 40
0.9780576362
 40
0.987568092
 40
0.9913357042
 40
0.9944350696
 40
0.9968586808
 40
0.9978147231
 40
0.9985990054
 40
0.9992105901
 40
0.9996485521
 40
0.9999119888
 40
1.0
 40
1.0
 40
1.0
 40
1.0
 10
5.7593357258
 20
4.6062072981
 30
0.0
 10
5.7593357258
 20
4.6062395375
 30
0.0
 10
5.7593346012
 20
4.605954107
 30
0.0
 10
5.759333506
 20
4.6058162137
 30
0.0
 10
5.7593308438
 20
4.605250093
 30
0.0
 10
5.759327689
 20
4.6046174142
 30
0.0
 10
5.7593236436
 20
4.603743513
 30
0.0
 10
5.7593168896
 20
4.6022305344
 30
0.0
 10
5.7593071464
 20
4.5998634366
 30
0.0
 10
5.7592946688
 20
4.5964807601
 30
0.0
 10
5.7592753454
 20
4.5905246436
 30
0.0
 10
5.759252213
 20
4.5813217824
 30
0.0
 10
5.7592307025
 20
4.5682405048
 30
0.0
 10
5.7592154178
 20
4.5525496611
 30
0.0
 10
5.7592079631
 20
4.5344092123
 30
0.0
 10
5.7592098205
 20
4.5099804579
 30
0.0
 10
5.7592270005
 20
4.4787532804
 30
0.0
 10
5.7592575369
 20
4.4404300735
 30
0.0
 10
5.7592927477
 20
4.3989547524
 30
0.0
 10
5.7593221083
 20
4.3552104961
 30
0.0
 10
5.7593378323
 20
4.310144409
 30
0.0
 10
5.7593346589
 20
4.2647466635
 30
0.0
 10
5.759312362
 20
4.2200121954
 30
0.0
 10
5.7592750651
 20
4.176925297
 30
0.0
 10
5.7592321752
 20
4.13641307
 30
0.0
 10
5.7592003207
 20
4.1046602235
 30
0.0
 10
5.7591832018
 20
4.0811813917
 30
0.0
 10
5.7591763083
 20
4.0652379816
 30
0.0
 10
5.7591760521
 20
4.050528174
 30
0.0
 10
5.7591823007
 20
4.037123318
 30
0.0
 10
5.7591947528
 20
4.0250911961
 30
0.0
 10
5.7592127022
 20
4.0145011006
 30
0.0
 10
5.7592353641
 20
4.005419619
 30
0.0
 10
5.7592612846
 20
3.9979025388
 30
0.0
 10
5.7592843901
 20
3.992637891
 30
0.0
 10
5.7593018413
 20
3.989239094
 30
0.0
 10
5.7593126105
 20
3.9873124292
 30
0.0
 10
5.7593207194
 20
3.9859654949
 30
0.0
 10
5.7593262029
 20
3.9851054245
 30
0.0
 10
5.7593294401
 20
3.9846091336
 30
0.0
 10
5.7593319364
 20
3.9842500711
 30
0.0
 10
5.7593340123
 20
3.9839289507
 30
0.0
 10
5.759334864
 20
3.9838507783
 30
0.0
 10
5.7593357258
 20
3.9836890358
 30
0.0
 10
5.7593357258
 20
3.9837072981
 30
0.0
  0
SPLINE
  5
4C0
100
AcDbEntity
  8
0
100
AcDbSpline
 62
7
  6
CONTINUOUS
 70
0
 71
3
 72
43
 73
39
 74
0
 42
0.0000001
 43
0.0000001
 44
0.0000000001
 40
0.0
 40
0.0
 40
0.0
 40
0.0
 40
0.0006335208
 40
0.0025213713
 40
0.0056444905
 40
0.0099838266
 40
0.0222349857
 40
0.0391226309
 40
0.0604723044
 40
0.0860200269
 40
0.1154794185
 40
0.1315865019
 40
0.1485641171
 40
0.1755772467
 40
0.2043042746
 40
0.2662428873
 40
0.2991258907
 40
0.3330644578
 40
0.4033836056
 40
0.4757067305
 40
0.5485308545
 40
0.6203529824
 40
0.6896701532
 40
0.7550108887
 40
0.7857675655
 40
0.8150293868
 40
0.8426320684
 40
0.8684134857
 40
0.8922364747
 40
0.9139799624
 40
0.9335231366
 40
0.9507451809
 40
0.965525629
 40
0.9777650131
 40
0.9873963766
 40
0.99435551
 40
0.9985781537
 40
1.0
 40
1.0
 40
1.0
 40
1.0
 10
5.8180857258
 20
3.9837072981
 30
0.0
 10
5.8181005752
 20
3.9838391426
 30
0.0
 10
5.8181599179
 20
3.9843638475
 30
0.0
 10
5.8182945886
 20
3.9855382759
 30
0.0
 10
5.8185203314
 20
3.9874834528
 30
0.0
 10
5.8190027438
 20
3.9915837896
 30
0.0
 10
5.8198399629
 20
3.9985449536
 30
0.0
 10
5.8211364167
 20
4.0090389784
 30
0.0
 10
5.8228180762
 20
4.0222912071
 30
0.0
 10
5.8248716065
 20
4.0381501981
 30
0.0
 10
5.8268174524
 20
4.0529159734
 30
0.0
 10
5.8285485835
 20
4.0658996651
 30
0.0
 10
5.8302249128
 20
4.0783738038
 30
0.0
 10
5.8322725759
 20
4.0934647808
 30
0.0
 10
5.8356173021
 20
4.1178821946
 30
0.0
 10
5.8391711614
 20
4.1435117455
 30
0.0
 10
5.8429071414
 20
4.170217899
 30
0.0
 10
5.8469079663
 20
4.1986592194
 30
0.0
 10
5.8520931511
 20
4.2352751788
 30
0.0
 10
5.8584483336
 20
4.2799504795
 30
0.0
 10
5.8648548036
 20
4.3249364209
 30
0.0
 10
5.8711587867
 20
4.3693010696
 30
0.0
 10
5.8772077015
 20
4.4121189678
 30
0.0
 10
5.8820047842
 20
4.4464279671
 30
0.0
 10
5.8856045468
 20
4.472433956
 30
0.0
 10
5.8881017913
 20
4.4906137207
 30
0.0
 10
5.8904367626
 20
4.5077640134
 30
0.0
 10
5.8925948715
 20
4.5237888085
 30
0.0
 10
5.8945661213
 20
4.5386005831
 30
0.0
 10
5.8963434736
 20
4.5521201528
 30
0.0
 10
5.8979199413
 20
4.5642717853
 30
0.0
 10
5.899288842
 20
4.5749798401
 30
0.0
 10
5.9004435946
 20
4.5841731722
 30
0.0
 10
5.9013807377
 20
4.5917916056
 30
0.0
 10
5.9021034262
 20
4.5977860382
 30
0.0
 10
5.9026147101
 20
4.6021148405
 30
0.0
 10
5.9029188555
 20
4.6047368355
 30
0.0
 10
5.9030523145
 20
4.6059114015
 30
0.0
 10
5.9030857258
 20
4.6062072981
 30
0.0
  0
SPLINE
  5
4C1
100
AcDbEntity
  8
0
100
AcDbSpline
 62
7
  6
CONTINUOUS
 70
0
 71
3
 72
43
 73
39
 74
0
 42
0.0000001
 43
0.0000001
 44
0.0000000001
 40
0.0
 40
0.0
 40
0.0
 40
0.0
 40
0.0006335208
 40
0.0025213713
 40
0.0056444905
 40
0.0099838266
 40
0.0222349857
 40
0.0391226309
 40
0.0604723044
 40
0.0860200269
 40
0.1154794185
 40
0.1315865019
 40
0.1485641171
 40
0.1755772467
 40
0.2043042746
 40
0.2662428873
 40
0.2991258907
 40
0.3330644578
 40
0.4033836056
 40
0.4757067305
 40
0.5485308545
 40
0.6203529824
 40
0.6896701532
 40
0.7550108887
 40
0.7857675655
 40
0.8150293868
 40
0.8426320684
 40
0.8684134857
 40
0.8922364747
 40
0.9139799624
 40
0.9335231366
 40
0.9507451809
 40
0.965525629
 40
0.9777650131
 40
0.9873963766
 40
0.99435551
 40
0.9985781537
 40
1.0
 40
1.0
 40
1.0
 40
1.0
 10
5.9680857258
 20
3.8337072981
 30
0.0
 10
5.9682175703
 20
3.8337221476
 30
0.0
 10
5.9687422752
 20
3.8337814903
 30
0.0
 10
5.9699167036
 20
3.833916161
 30
0.0
 10
5.9718618805
 20
3.8341419038
 30
0.0
 10
5.9759622173
 20
3.8346243161
 30
0.0
 10
5.9829233813
 20
3.8354615353
 30
0.0
 10
5.993417406
 20
3.836757989
 30
0.0
 10
6.0066696348
 20
3.8384396485
 30
0.0
 10
6.0225286257
 20
3.8404931788
 30
0.0
 10
6.0372944011
 20
3.8424390247
 30
0.0
 10
6.0502780927
 20
3.8441701559
 30
0.0
 10
6.0627522315
 20
3.8458464851
 30
0.0
 10
6.0778432084
 20
3.8478941482
 30
0.0
 10
6.1022606223
 20
3.8512388744
 30
0.0
 10
6.1278901732
 20
3.8547927338
 30
0.0
 10
6.1545963267
 20
3.8585287137
 30
0.0
 10
6.1830376471
 20
3.8625295387
 30
0.0
 10
6.2196536064
 20
3.8677147234
 30
0.0
 10
6.2643289071
 20
3.8740699059
 30
0.0
 10
6.3093148485
 20
3.8804763759
 30
0.0
 10
6.3536794973
 20
3.886780359
 30
0.0
 10
6.3964973955
 20
3.8928292738
 30
0.0
 10
6.4308063948
 20
3.8976263566
 30
0.0
 10
6.4568123836
 20
3.9012261191
 30
0.0
 10
6.4749921484
 20
3.9037233636
 30
0.0
 10
6.4921424411
 20
3.9060583349
 30
0.0
 10
6.5081672361
 20
3.9082164438
 30
0.0
 10
6.5229790108
 20
3.9101876936
 30
0.0
 10
6.5364985804
 20
3.911965046
 30
0.0
 10
6.5486502129
 20
3.9135415136
 30
0.0
 10
6.5593582677
 20
3.9149104144
 30
0.0
 10
6.5685515999
 20
3.916065167
 30
0.0
 10
6.5761700332
 20
3.91700231
 30
0.0
 10
6.5821644658
 20
3.9177249985
 30
0.0
 10
6.5864932682
 20
3.9182362824
 30
0.0
 10
6.5891152632
 20
3.9185404279
 30
0.0
 10
6.5902898292
 20
3.9186738868
 30
0.0
 10
6.5905857258
 20
3.9187072981
 30
0.0
  0
SPLINE
  5
4C2
100
AcDbEntity
  8
0
100
AcDbSpline
 62
7
  6
CONTINUOUS
 70
0
 71
3
 72
50
 73
46
 74
0
 42
0.0000001
 43
0.0000001
 44
0.0000000001
 40
0.0
 40
0.0
 40
0.0
 40
0.0
 40
0.0000391379
 40
0.000156376
 40
0.0003514478
 40
0.0006240863
 40
0.0014009945
 40
0.0024849194
 40
0.0038736398
 40
0.0055649302
 40
0.0098462825
 40
0.0153112556
 40
0.0219423642
 40
0.0386347329
 40
0.059762525
 40
0.0850744819
 40
0.1143054661
 40
0.1471997329
 40
0.2027792289
 40
0.2647511794
 40
0.3318410213
 40
0.4026312693
 40
0.4755582942
 40
0.5490271761
 40
0.6214150534
 40
0.6911470173
 40
0.7566890499
 40
0.8166912139
 40
0.8442165858
 40
0.8698787076
 40
0.8935475029
 40
0.915113577
 40
0.9344677378
 40
0.9514988882
 40
0.9660920864
 40
0.9781546826
 40
0.98763048
 40
0.9913816862
 40
0.9944661584
 40
0.9968770711
 40
0.9986075625
 40
0.9992155069
 40
0.999650783
 40
0.9999125578
 40
1.0
 40
1.0
 40
1.0
 40
1.0
 10
5.9680857258
 20
3.7749572981
 30
0.0
 10
5.9680776047
 20
3.7749572981
 30
0.0
 10
5.9681495658
 20
3.7749569128
 30
0.0
 10
5.9681843878
 20
3.7749565262
 30
0.0
 10
5.9683272958
 20
3.7749555816
 30
0.0
 10
5.9685724868
 20
3.774953823
 30
0.0
 10
5.9690248608
 20
3.774950781
 30
0.0
 10
5.9696944761
 20
3.7749463958
 30
0.0
 10
5.9705602707
 20
3.7749409869
 30
0.0
 10
5.9720868778
 20
3.7749318739
 30
0.0
 10
5.9744607025
 20
3.7749188277
 30
0.0
 10
5.9778587448
 20
3.7749022065
 30
0.0
 10
5.9838324116
 20
3.7748767182
 30
0.0
 10
5.9930559404
 20
3.7748468259
 30
0.0
 10
6.006155873
 20
3.7748201872
 30
0.0
 10
6.0218575455
 20
3.7748026933
 30
0.0
 10
6.0400007864
 20
3.774796075
 30
0.0
 10
6.0644245427
 20
3.7748022843
 30
0.0
 10
6.0956420479
 20
3.7748277872
 30
0.0
 10
6.1339551286
 20
3.7748678518
 30
0.0
 10
6.1754244431
 20
3.7749103575
 30
0.0
 10
6.2191669476
 20
3.7749432747
 30
0.0
 10
6.264233114
 20
3.7749595479
 30
0.0
 10
6.3096307916
 20
3.7749560481
 30
0.0
 10
6.3543654883
 20
3.7749351148
 30
0.0
 10
6.3974553542
 20
3.7749026551
 30
0.0
 10
6.4379751794
 20
3.7748680381
 30
0.0
 10
6.4697371352
 20
3.7748445508
 30
0.0
 10
6.4932240082
 20
3.7748333199
 30
0.0
 10
6.5091717019
 20
3.7748297495
 30
0.0
 10
6.5238828431
 20
3.7748313972
 30
0.0
 10
6.5372850713
 20
3.7748379265
 30
0.0
 10
6.5493100107
 20
3.7748489228
 30
0.0
 10
6.5598879877
 20
3.7748637169
 30
0.0
 10
6.5689532075
 20
3.7748816411
 30
0.0
 10
6.5764499672
 20
3.7749015961
 30
0.0
 10
6.5816987551
 20
3.7749190786
 30
0.0
 10
6.5850814853
 20
3.7749321426
 30
0.0
 10
6.5870041145
 20
3.774940182
 30
0.0
 10
6.5884931357
 20
3.7749468968
 30
0.0
 10
6.5895001682
 20
3.7749516818
 30
0.0
 10
6.5900466127
 20
3.7749544993
 30
0.0
 10
6.5903654255
 20
3.7749560324
 30
0.0
 10
6.5904431579
 20
3.7749566618
 30
0.0
 10
6.5906038701
 20
3.7749572981
 30
0.0
 10
6.5905857258
 20
3.7749572981
 30
0.0
  0
SPLINE
  5
4C3
100
AcDbEntity
  8
0
100
AcDbSpline
 62
7
  6
CONTINUOUS
 70
0
 71
3
 72
22
 73
18
 74
0
 42
0.0000001
 43
0.0000001
 44
0.0000000001
 40
0.0
 40
0.0
 40
0.0
 40
0.0
 40
0.0579656624
 40
0.1161224186
 40
0.1746329832
 40
0.2336645689
 40
0.2933488644
 40
0.353792617
 40
0.4150690333
 40
0.4772171305
 40
0.5402416115
 40
0.6041140476
 40
0.6687750738
 40
0.7341374074
 40
0.8000911681
 40
0.8665022999
 40
1.0
 40
1.0
 40
1.0
 40
1.0
 10
3.9415858183
 20
5.1949572981
 30
0.0
 10
3.9410190322
 20
5.1949572981
 30
0.0
 10
3.9398825479
 20
5.1948927268
 30
0.0
 10
3.9381961858
 20
5.1946034271
 30
0.0
 10
3.9365426103
 20
5.1941243624
 30
0.0
 10
3.9349381865
 20
5.193460472
 30
0.0
 10
3.9333983181
 20
5.1926182175
 30
0.0
 10
3.9319378631
 20
5.1916059321
 30
0.0
 10
3.9305708168
 20
5.1904335136
 30
0.0
 10
3.9293102397
 20
5.1891123868
 30
0.0
 10
3.9281681422
 20
5.1876553554
 30
0.0
 10
3.9271553921
 20
5.1860764918
 30
0.0
 10
3.926281622
 20
5.1843909758
 30
0.0
 10
3.9255551239
 20
5.1826150931
 30
0.0
 10
3.9249828086
 20
5.1807655842
 30
0.0
 10
3.9244316824
 20
5.1782228354
 30
0.0
 10
3.9242653102
 20
5.1762626338
 30
0.0
 10
3.9242653102
 20
5.1749572981
 30
0.0
  0
LINE
  5
4C4
100
AcDbEntity
  8
0
100
AcDbLine
 62
7
  6
CONTINUOUS
 10
5.9437107257
 20
3.74548936
 11
6.6149607259
 21
3.74548936
  0
LINE
  5
4C5
100
AcDbEntity
  8
0
100
AcDbLine
 62
7
  6
CONTINUOUS
 10
5.7298677877
 20
4.6305822982
 11
5.7298677877
 21
3.959332298
  0
SPLINE
  5
4C6
100
AcDbEntity
  8
0
100
AcDbSpline
 62
7
  6
CONTINUOUS
 70
0
 71
3
 72
19
 73
15
 74
0
 42
0.0000001
 43
0.0000001
 44
0.0000000001
 40
0.0
 40
0.0
 40
0.0
 40
0.0
 40
0.0579648407
 40
0.1161721809
 40
0.1747184325
 40
0.2337681646
 40
0.3537826831
 40
0.4771081368
 40
0.5401604324
 40
0.604061542
 40
0.6687537101
 40
0.7341426941
 40
0.8664437081
 40
1.0
 40
1.0
 40
1.0
 40
1.0
 10
6.0130329141
 20
1.6357072981
 30
0.0
 10
6.0133161765
 20
1.6357072981
 30
0.0
 10
6.0138843983
 20
1.6357397198
 30
0.0
 10
6.0147276334
 20
1.6358841563
 30
0.0
 10
6.0155545866
 20
1.6361238107
 30
0.0
 10
6.0166293959
 20
1.6365684343
 30
0.0
 10
6.0178950884
 20
1.6373539706
 30
0.0
 10
6.0189863375
 20
1.6383943964
 30
0.0
 10
6.0197416551
 20
1.6393582533
 30
0.0
 10
6.0202481709
 20
1.6401476888
 30
0.0
 10
6.0206849412
 20
1.6409905237
 30
0.0
 10
6.0211711263
 20
1.6421785755
 30
0.0
 10
6.0215828284
 20
1.6437529072
 30
0.0
 10
6.0216931682
 20
1.6450546357
 30
0.0
 10
6.0216931682
 20
1.6457072981
 30
0.0
  0
SPLINE
  5
4C7
100
AcDbEntity
  8
0
100
AcDbSpline
 62
7
  6
CONTINUOUS
 70
0
 71
3
 72
124
 73
120
 74
0
 42
0.0000001
 43
0.0000001
 44
0.0000000001
 40
0.0
 40
0.0
 40
0.0
 40
0.0
 40
0.0000005894
 40
0.0000023554
 40
0.0000052983
 40
0.0000094178
 40
0.000014714
 40
0.0000211868
 40
0.0000376621
 40
0.0000588432
 40
0.0000847298
 40
0.0001153213
 40
0.0001506173
 40
0.0001906175
 40
0.0002353214
 40
0.0003388384
 40
0.0004611651
 40
0.000602298
 40
0.0007622337
 40
0.0009409688
 40
0.001138498
 40
0.0013548117
 40
0.0018437504
 40
0.0024077006
 40
0.0030465782
 40
0.003760299
 40
0.0045487652
 40
0.0054118436
 40
0.006349395
 40
0.0073612802
 40
0.0096074794
 40
0.0121490725
 40
0.0149845101
 40
0.018112131
 40
0.0215299933
 40
0.0252360869
 40
0.0292281546
 40
0.0335037839
 40
0.0380604376
 40
0.0480055631
 40
0.0590395778
 40
0.0711359097
 40
0.0842654187
 40
0.0983964642
 40
0.1134949996
 40
0.1295246544
 40
0.1464468199
 40
0.1642207345
 40
0.1828035702
 40
0.2021505535
 40
0.2222150769
 40
0.2429488084
 40
0.264301805
 40
0.3086584417
 40
0.3315552164
 40
0.3548577881
 40
0.4024549396
 40
0.4266348496
 40
0.4509915011
 40
0.500000042
 40
0.5245338656
 40
0.5490085842
 40
0.5975451504
 40
0.6214900708
 40
0.6451423097
 40
0.6684448858
 40
0.6913416648
 40
0.7137774894
 40
0.7356983093
 40
0.7570513086
 40
0.7777850415
 40
0.7978495652
 40
0.8171965477
 40
0.8357793812
 40
0.8535532926
 40
0.8704754544
 40
0.886505106
 40
0.9016036385
 40
0.9157346813
 40
0.9288641869
 40
0.9409605139
 40
0.9519945235
 40
0.9619396445
 40
0.9664962955
 40
0.9707719221
 40
0.9747639856
 40
0.9784700749
 40
0.9818879313
 40
0.9850155462
 40
0.9878509781
 40
0.9903925644
 40
0.9926387563
 40
0.9936506375
 40
0.9945881852
 40
0.9954512609
 40
0.9962397262
 40
0.9969534477
 40
0.9975923263
 40
0.9981562758
 40
0.9986452104
 40
0.9988615202
 40
0.999059044
 40
0.9992377719
 40
0.9993976993
 40
0.9995388236
 40
0.9996611424
 40
0.9997646532
 40
0.9998493535
 40
0.9998846489
 40
0.9999152408
 40
0.9999411288
 40
0.9999623127
 40
0.999978792
 40
0.9999852674
 40
0.9999905665
 40
0.9999946894
 40
0.9999976359
 40
0.9999994061
 40
1.0
 40
1.0
 40
1.0
 40
1.0
 10
2.8386263099
 20
3.9512072981
 30
0.0
 10
2.8386261751
 20
3.9512073056
 30
0.0
 10
2.8386264866
 20
3.9512081557
 30
0.0
 10
2.8386261865
 20
3.9512090703
 30
0.0
 10
2.8386263691
 20
3.9512112642
 30
0.0
 10
2.83862631
 20
3.9512140209
 30
0.0
 10
2.8386263643
 20
3.9512176912
 30
0.0
 10
2.8386263971
 20
3.9512241497
 30
0.0
 10
2.8386264838
 20
3.9512342715
 30
0.0
 10
2.8386265945
 20
3.951248829
 30
0.0
 10
2.838626738
 20
3.9512666268
 30
0.0
 10
2.8386269056
 20
3.9512876572
 30
0.0
 10
2.8386270991
 20
3.9513119225
 30
0.0
 10
2.8386273164
 20
3.9513394216
 30
0.0
 10
2.8386276538
 20
3.9513825544
 30
0.0
 10
2.8386281292
 20
3.9514445531
 30
0.0
 10
2.8386287542
 20
3.9515286496
 30
0.0
 10
2.8386294501
 20
3.9516256752
 30
0.0
 10
2.8386302085
 20
3.9517356277
 30
0.0
 10
2.8386310206
 20
3.9518585042
 30
0.0
 10
2.8386318788
 20
3.9519943007
 30
0.0
 10
2.8386331341
 20
3.9522011844
 30
0.0
 10
2.8386347964
 20
3.9524920387
 30
0.0
 10
2.8386368647
 20
3.9528797299
 30
0.0
 10
2.8386390597
 20
3.9533189337
 30
0.0
 10
2.838641361
 20
3.9538095891
 30
0.0
 10
2.8386437503
 20
3.9543516241
 30
0.0
 10
2.8386462215
 20
3.9549449537
 30
0.0
 10
2.8386487671
 20
3.9555894837
 30
0.0
 10
2.838652378
 20
3.9565509772
 30
0.0
 10
2.8386570077
 20
3.9578800625
 30
0.0
 10
2.8386625781
 20
3.9596270446
 30
0.0
 10
2.8386682947
 20
3.9615760198
 30
0.0
 10
2.8386741026
 20
3.9637258073
 30
0.0
 10
2.8386799019
 20
3.9660751209
 30
0.0
 10
2.8386855895
 20
3.9686225378
 30
0.0
 10
2.8386911247
 20
3.9713665271
 30
0.0
 10
2.838696488
 20
3.9743054372
 30
0.0
 10
2.8387036102
 20
3.9786085894
 30
0.0
 10
2.8387124214
 20
3.9844605381
 30
0.0
 10
2.838722931
 20
3.9920403299
 30
0.0
 10
2.8387325626
 20
4.0003498785
 30
0.0
 10
2.8387394911
 20
4.0093691666
 30
0.0
 10
2.8387432334
 20
4.0190764618
 30
0.0
 10
2.8387437586
 20
4.0294483748
 30
0.0
 10
2.8387413083
 20
4.0404599194
 30
0.0
 10
2.83873654
 20
4.0520845712
 30
0.0
 10
2.8387308798
 20
4.0642943268
 30
0.0
 10
2.8387260057
 20
4.0770597706
 30
0.0
 10
2.8387217014
 20
4.0903501459
 30
0.0
 10
2.8387167481
 20
4.104133435
 30
0.0
 10
2.8387095011
 20
4.1183764348
 30
0.0
 10
2.8386945264
 20
4.1381863759
 30
0.0
 10
2.8386749445
 20
4.1584920107
 30
0.0
 10
2.8386598739
 20
4.1792444275
 30
0.0
 10
2.8386497204
 20
4.2007394657
 30
0.0
 10
2.8386459238
 20
4.2225285579
 30
0.0
 10
2.8386406282
 20
4.2445592096
 30
0.0
 10
2.8386330042
 20
4.2669133043
 30
0.0
 10
2.8386244719
 20
4.2893485041
 30
0.0
 10
2.838624058
 20
4.3118107627
 30
0.0
 10
2.8386306761
 20
4.3341648594
 30
0.0
 10
2.8386433955
 20
4.3563839961
 30
0.0
 10
2.8386514586
 20
4.37841465
 30
0.0
 10
2.8386544861
 20
4.394662513
 30
0.0
 10
2.838657576
 20
4.4106701769
 30
0.0
 10
2.8386642194
 20
4.4263990781
 30
0.0
 10
2.8386753509
 20
4.441811324
 30
0.0
 10
2.8386887157
 20
4.4568697848
 30
0.0
 10
2.8387003511
 20
4.4715381843
 30
0.0
 10
2.8387067197
 20
4.4857811856
 30
0.0
 10
2.8387093905
 20
4.4995644755
 30
0.0
 10
2.8387108213
 20
4.5128548509
 30
0.0
 10
2.838713275
 20
4.5256202939
 30
0.0
 10
2.8387176251
 20
4.537830048
 30
0.0
 10
2.8387216884
 20
4.5494546978
 30
0.0
 10
2.8387236946
 20
4.5604662402
 30
0.0
 10
2.8387223806
 20
4.5708381511
 30
0.0
 10
2.838717964
 20
4.580545444
 30
0.0
 10
2.8387115274
 20
4.5895647297
 30
0.0
 10
2.8387036689
 20
4.597874277
 30
0.0
 10
2.8386949743
 20
4.6054540678
 30
0.0
 10
2.8386873577
 20
4.6113060154
 30
0.0
 10
2.838681293
 20
4.6156091669
 30
0.0
 10
2.8386769298
 20
4.6185480765
 30
0.0
 10
2.8386726103
 20
4.6212920654
 30
0.0
 10
2.8386683107
 20
4.6238394817
 30
0.0
 10
2.838664019
 20
4.6261887948
 30
0.0
 10
2.838659745
 20
4.6283385819
 30
0.0
 10
2.8386554968
 20
4.6302875565
 30
0.0
 10
2.8386512709
 20
4.6320345378
 30
0.0
 10
2.838647639
 20
4.6333636221
 30
0.0
 10
2.838644716
 20
4.6343251146
 30
0.0
 10
2.8386426224
 20
4.6349696438
 30
0.0
 10
2.8386405612
 20
4.6355629733
 30
0.0
 10
2.8386385453
 20
4.6361050091
 30
0.0
 10
2.8386365847
 20
4.6365956662
 30
0.0
 10
2.8386347077
 20
4.6370348717
 30
0.0
 10
2.8386329467
 20
4.6374225635
 30
0.0
 10
2.8386315501
 20
4.6377134172
 30
0.0
 10
2.8386305172
 20
4.6379202991
 30
0.0
 10
2.8386298234
 20
4.6380560928
 30
0.0
 10
2.8386291822
 20
4.6381789655
 30
0.0
 10
2.838628597
 20
4.6382889135
 30
0.0
 10
2.8386280711
 20
4.6383859345
 30
0.0
 10
2.838627608
 20
4.6384700269
 30
0.0
 10
2.8386272107
 20
4.6385411889
 30
0.0
 10
2.8386269224
 20
4.6385924083
 30
0.0
 10
2.8386267277
 20
4.6386269176
 30
0.0
 10
2.83862661
 20
4.6386479488
 30
0.0
 10
2.8386265095
 20
4.6386657472
 30
0.0
 10
2.8386264332
 20
4.6386803088
 30
0.0
 10
2.8386263714
 20
4.6386904285
 30
0.0
 10
2.8386263512
 20
4.638696896
 30
0.0
 10
2.8386263081
 20
4.6387005543
 30
0.0
 10
2.8386263627
 20
4.6387033494
 30
0.0
 10
2.8386262043
 20
4.6387054643
 30
0.0
 10
2.8386264677
 20
4.6387065246
 30
0.0
 10
2.8386261926
 20
4.6387072292
 30
0.0
 10
2.83862631
 20
4.6387072981
 30
0.0
  0
SPLINE
  5
4C8
100
AcDbEntity
  8
0
100
AcDbSpline
 62
7
  6
CONTINUOUS
 70
0
 71
3
 72
16
 73
12
 74
0
 42
0.0000001
 43
0.0000001
 44
0.0000000001
 40
0.0
 40
0.0
 40
0.0
 40
0.0
 40
0.1163100914
 40
0.234853488
 40
0.3561417566
 40
0.4803646893
 40
0.6073867329
 40
0.7367848969
 40
0.8022166185
 40
0.8679829747
 40
1.0
 40
1.0
 40
1.0
 40
1.0
 10
1.7966498944
 20
1.7446754139
 30
0.0
 10
1.796179709
 20
1.7445437043
 30
0.0
 10
1.7952535677
 20
1.7441862529
 30
0.0
 10
1.7939738426
 20
1.7433984839
 30
0.0
 10
1.7928263211
 20
1.7423775675
 30
0.0
 10
1.7918427093
 20
1.7411527465
 30
0.0
 10
1.7910491608
 20
1.7397583925
 30
0.0
 10
1.7905654048
 20
1.7384909185
 30
0.0
 10
1.7902902433
 20
1.7374311793
 30
0.0
 10
1.7900913122
 20
1.7363434962
 30
0.0
 10
1.7900313727
 20
1.7355115223
 30
0.0
 10
1.7900313727
 20
1.7349572981
 30
0.0
  0
LINE
  5
4C9
100
AcDbEntity
  8
0
100
AcDbLine
 62
7
  6
CONTINUOUS
 10
7.8993034002
 20
3.1380531585
 11
7.8999150803
 21
3.1361253614
  0
LINE
  5
4CA
100
AcDbEntity
  8
0
100
AcDbLine
 62
7
  6
CONTINUOUS
 10
7.8999150803
 20
3.1361253614
 11
7.9031428233
 21
3.127992753
  0
SPLINE
  5
4CB
100
AcDbEntity
  8
0
100
AcDbSpline
 62
7
  6
CONTINUOUS
 70
0
 71
3
 72
17
 73
13
 74
0
 42
0.0000001
 43
0.0000001
 44
0.0000000001
 40
0.0
 40
0.0
 40
0.0
 40
0.0
 40
0.0416992546
 40
0.0844522107
 40
0.1754029394
 40
0.2771503931
 40
0.3922566779
 40
0.5220285031
 40
0.6668423176
 40
0.7448423239
 40
0.8264588434
 40
1.0
 40
1.0
 40
1.0
 40
1.0
 10
7.9031428233
 20
3.0966449696
 30
0.0
 10
7.903062555
 20
3.0966379263
 30
0.0
 10
7.9029008139
 20
3.0966116423
 30
0.0
 10
7.9025762595
 20
3.096510814
 30
0.0
 10
7.9021730136
 20
3.0962897248
 30
0.0
 10
7.9017222273
 20
3.0958965975
 30
0.0
 10
7.9012960531
 20
3.0953766879
 30
0.0
 10
7.9008984812
 20
3.094735201
 30
0.0
 10
7.900602017
 20
3.0941205605
 30
0.0
 10
7.9003808638
 20
3.0935753214
 30
0.0
 10
7.9001633102
 20
3.0929692705
 30
0.0
 10
7.9000233339
 20
3.0924959492
 30
0.0
 10
7.899938347
 20
3.0921715586
 30
0.0
  0
SPLINE
  5
4CC
100
AcDbEntity
  8
0
100
AcDbSpline
 62
7
  6
CONTINUOUS
 70
0
 71
3
 72
11
 73
7
 74
0
 42
0.0000001
 43
0.0000001
 44
0.0000000001
 40
0.0
 40
0.0
 40
0.0
 40
0.0
 40
0.2298188487
 40
0.4764452896
 40
0.7350588186
 40
1.0
 40
1.0
 40
1.0
 40
1.0
 10
7.899938347
 20
3.0921715586
 30
0.0
 10
7.8998158322
 20
3.0917039261
 30
0.0
 10
7.8996054987
 20
3.0907227215
 30
0.0
 10
7.8993959189
 20
3.0891895762
 30
0.0
 10
7.8992876378
 20
3.0875719683
 30
0.0
 10
7.8992860563
 20
3.0864697757
 30
0.0
 10
7.8993034002
 20
3.0859127521
 30
0.0
  0
SPLINE
  5
4CD
100
AcDbEntity
  8
0
100
AcDbSpline
 62
7
  6
CONTINUOUS
 70
0
 71
3
 72
11
 73
7
 74
0
 42
0.0000001
 43
0.0000001
 44
0.0000000001
 40
0.0
 40
0.0
 40
0.0
 40
0.0
 40
0.2649568033
 40
0.523576716
 40
0.7702001577
 40
1.0
 40
1.0
 40
1.0
 40
1.0
 10
7.8993034002
 20
3.0790018442
 30
0.0
 10
7.8992860411
 20
3.0784445494
 30
0.0
 10
7.8992875941
 20
3.0773418358
 30
0.0
 10
7.8993960732
 20
3.0757235044
 30
0.0
 10
7.8996058243
 20
3.0741897441
 30
0.0
 10
7.8998164244
 20
3.0732082038
 30
0.0
 10
7.8999390354
 20
3.0727404238
 30
0.0
  0
SPLINE
  5
4CE
100
AcDbEntity
  8
0
100
AcDbSpline
 62
7
  6
CONTINUOUS
 70
0
 71
3
 72
16
 73
12
 74
0
 42
0.0000001
 43
0.0000001
 44
0.0000000001
 40
0.0
 40
0.0
 40
0.0
 40
0.0
 40
0.1735388317
 40
0.3331193416
 40
0.4779325016
 40
0.6076943608
 40
0.7228068859
 40
0.8245683182
 40
0.9155372703
 40
0.9582946447
 40
1.0
 40
1.0
 40
1.0
 40
1.0
 10
7.8999390354
 20
3.0727404238
 30
0.0
 10
7.9000240169
 20
3.0724162056
 30
0.0
 10
7.9002067655
 20
3.0717986926
 30
0.0
 10
7.9005341589
 20
3.0709346131
 30
0.0
 10
7.9008990452
 20
3.070178221
 30
0.0
 10
7.9012966699
 20
3.0695371971
 30
0.0
 10
7.9017226825
 20
3.0690175534
 30
0.0
 10
7.9021733479
 20
3.0686246545
 30
0.0
 10
7.9025763682
 20
3.0684034369
 30
0.0
 10
7.9029008889
 20
3.0683028345
 30
0.0
 10
7.9030625811
 20
3.0682766525
 30
0.0
 10
7.9031428233
 20
3.0682696267
 30
0.0
  0
LINE
  5
4CF
100
AcDbEntity
  8
0
100
AcDbLine
 62
7
  6
CONTINUOUS
 10
7.9031428233
 20
3.0369218432
 11
7.9000066142
 21
3.0290339639
  0
LINE
  5
4D0
100
AcDbEntity
  8
0
100
AcDbLine
 62
7
  6
CONTINUOUS
 10
7.9000066142
 20
3.0290339639
 11
7.8993034002
 21
3.0268614377
  0
SPLINE
  5
4D1
100
AcDbEntity
  8
0
100
AcDbSpline
 62
7
  6
CONTINUOUS
 70
0
 71
3
 72
50
 73
46
 74
0
 42
0.0000001
 43
0.0000001
 44
0.0000000001
 40
0.0
 40
0.0
 40
0.0
 40
0.0
 40
0.0000391378
 40
0.000156376
 40
0.0003514477
 40
0.0006240863
 40
0.0014009946
 40
0.0024849195
 40
0.0038736398
 40
0.0055649302
 40
0.0098462825
 40
0.0153112556
 40
0.0219423642
 40
0.0386347329
 40
0.059762525
 40
0.0850744819
 40
0.1143054662
 40
0.1471997329
 40
0.202779229
 40
0.2647511794
 40
0.3318410214
 40
0.4026312693
 40
0.4755582943
 40
0.5490271761
 40
0.6214150534
 40
0.6911470173
 40
0.7566890499
 40
0.8166912139
 40
0.8442165859
 40
0.8698787077
 40
0.8935475029
 40
0.915113577
 40
0.9344677377
 40
0.9514988881
 40
0.9660920864
 40
0.9781546826
 40
0.98763048
 40
0.9913816862
 40
0.9944661585
 40
0.996877071
 40
0.9986075623
 40
0.9992155071
 40
0.9996507837
 40
0.9999125587
 40
1.0
 40
1.0
 40
1.0
 40
1.0
 10
2.7993357258
 20
3.9837072981
 30
0.0
 10
2.7993357258
 20
3.983699177
 30
0.0
 10
2.7993361111
 20
3.9837711381
 30
0.0
 10
2.7993364978
 20
3.9838059601
 30
0.0
 10
2.7993374423
 20
3.9839488681
 30
0.0
 10
2.7993392009
 20
3.9841940591
 30
0.0
 10
2.799342243
 20
3.9846464331
 30
0.0
 10
2.7993466282
 20
3.9853160485
 30
0.0
 10
2.7993520371
 20
3.986181843
 30
0.0
 10
2.7993611501
 20
3.9877084501
 30
0.0
 10
2.7993741962
 20
3.9900822748
 30
0.0
 10
2.7993908174
 20
3.9934803172
 30
0.0
 10
2.7994163057
 20
3.9994539839
 30
0.0
 10
2.799446198
 20
4.0086775128
 30
0.0
 10
2.7994728367
 20
4.0217774454
 30
0.0
 10
2.7994903307
 20
4.0374791179
 30
0.0
 10
2.799496949
 20
4.0556223588
 30
0.0
 10
2.7994907395
 20
4.0800461151
 30
0.0
 10
2.7994652368
 20
4.1112636203
 30
0.0
 10
2.7994251721
 20
4.149576701
 30
0.0
 10
2.7993826664
 20
4.1910460155
 30
0.0
 10
2.7993497493
 20
4.2347885199
 30
0.0
 10
2.7993334761
 20
4.2798546864
 30
0.0
 10
2.7993369758
 20
4.325252364
 30
0.0
 10
2.7993579091
 20
4.3699870606
 30
0.0
 10
2.7993903689
 20
4.4130769265
 30
0.0
 10
2.7994249858
 20
4.4535967517
 30
0.0
 10
2.7994484731
 20
4.4853587076
 30
0.0
 10
2.7994597041
 20
4.5088455806
 30
0.0
 10
2.7994632745
 20
4.5247932743
 30
0.0
 10
2.7994616268
 20
4.5395044155
 30
0.0
 10
2.7994550975
 20
4.5529066436
 30
0.0
 10
2.7994441011
 20
4.564931583
 30
0.0
 10
2.7994293069
 20
4.57550956
 30
0.0
 10
2.7994113827
 20
4.5845747798
 30
0.0
 10
2.7993914278
 20
4.5920715395
 30
0.0
 10
2.7993739453
 20
4.5973203274
 30
0.0
 10
2.7993608813
 20
4.6007030577
 30
0.0
 10
2.7993528419
 20
4.6026256868
 30
0.0
 10
2.7993461271
 20
4.6041147079
 30
0.0
 10
2.7993413421
 20
4.6051217405
 30
0.0
 10
2.7993385246
 20
4.6056681852
 30
0.0
 10
2.7993369915
 20
4.6059869984
 30
0.0
 10
2.7993363621
 20
4.6060647305
 30
0.0
 10
2.7993357258
 20
4.6062254422
 30
0.0
 10
2.7993357258
 20
4.6062072981
 30
0.0
  0
LINE
  5
4D2
100
AcDbEntity
  8
0
100
AcDbLine
 62
7
  6
CONTINUOUS
 10
3.9437107258
 20
6.4307799442
 11
4.2793357258
 21
6.4307799442
  0
LINE
  5
4D3
100
AcDbEntity
  8
0
100
AcDbLine
 62
7
  6
CONTINUOUS
 10
4.2793357258
 20
6.4307799442
 11
4.6149607258
 21
6.4307799442
  0
SPLINE
  5
4D4
100
AcDbEntity
  8
0
100
AcDbSpline
 62
7
  6
CONTINUOUS
 70
0
 71
3
 72
43
 73
39
 74
0
 42
0.0000001
 43
0.0000001
 44
0.0000000001
 40
0.0
 40
0.0
 40
0.0
 40
0.0
 40
0.0006335208
 40
0.0025213713
 40
0.0056444905
 40
0.0099838266
 40
0.0222349857
 40
0.0391226309
 40
0.0604723044
 40
0.0860200269
 40
0.1154794185
 40
0.1315865019
 40
0.1485641171
 40
0.1755772467
 40
0.2043042746
 40
0.2662428873
 40
0.2991258907
 40
0.3330644578
 40
0.4033836056
 40
0.4757067305
 40
0.5485308545
 40
0.6203529824
 40
0.6896701532
 40
0.7550108887
 40
0.7857675655
 40
0.8150293868
 40
0.8426320684
 40
0.8684134857
 40
0.8922364747
 40
0.9139799624
 40
0.9335231366
 40
0.9507451809
 40
0.965525629
 40
0.9777650131
 40
0.9873963766
 40
0.99435551
 40
0.9985781537
 40
1.0
 40
1.0
 40
1.0
 40
1.0
 10
2.6555857258
 20
4.6062072981
 30
0.0
 10
2.6556005752
 20
4.6060754537
 30
0.0
 10
2.6556599179
 20
4.6055507487
 30
0.0
 10
2.6557945886
 20
4.6043763203
 30
0.0
 10
2.6560203314
 20
4.6024311435
 30
0.0
 10
2.6565027438
 20
4.5983308067
 30
0.0
 10
2.6573399629
 20
4.5913696427
 30
0.0
 10
2.6586364167
 20
4.5808756179
 30
0.0
 10
2.6603180762
 20
4.5676233892
 30
0.0
 10
2.6623716065
 20
4.5517643982
 30
0.0
 10
2.6643174524
 20
4.5369986228
 30
0.0
 10
2.6660485835
 20
4.5240149312
 30
0.0
 10
2.6677249128
 20
4.5115407925
 30
0.0
 10
2.6697725759
 20
4.4964498155
 30
0.0
 10
2.6731173021
 20
4.4720324017
 30
0.0
 10
2.6766711614
 20
4.4464028508
 30
0.0
 10
2.6804071414
 20
4.4196966972
 30
0.0
 10
2.6844079663
 20
4.3912553769
 30
0.0
 10
2.6895931511
 20
4.3546394175
 30
0.0
 10
2.6959483336
 20
4.3099641168
 30
0.0
 10
2.7023548036
 20
4.2649781754
 30
0.0
 10
2.7086587867
 20
4.2206135267
 30
0.0
 10
2.7147077015
 20
4.1777956284
 30
0.0
 10
2.7195047842
 20
4.1434866292
 30
0.0
 10
2.7231045468
 20
4.1174806403
 30
0.0
 10
2.7256017913
 20
4.0993008755
 30
0.0
 10
2.7279367626
 20
4.0821505828
 30
0.0
 10
2.7300948715
 20
4.0661257878
 30
0.0
 10
2.7320661213
 20
4.0513140132
 30
0.0
 10
2.7338434736
 20
4.0377944435
 30
0.0
 10
2.7354199413
 20
4.025642811
 30
0.0
 10
2.736788842
 20
4.0149347562
 30
0.0
 10
2.7379435946
 20
4.0057414241
 30
0.0
 10
2.7388807377
 20
3.9981229907
 30
0.0
 10
2.7396034262
 20
3.9921285581
 30
0.0
 10
2.7401147101
 20
3.9877997558
 30
0.0
 10
2.7404188555
 20
3.9851777608
 30
0.0
 10
2.7405523145
 20
3.9840031947
 30
0.0
 10
2.7405857258
 20
3.9837072981
 30
0.0
  0
SPLINE
  5
4D5
100
AcDbEntity
  8
0
100
AcDbSpline
 62
7
  6
CONTINUOUS
 70
0
 71
3
 72
26
 73
22
 74
0
 42
0.0000001
 43
0.0000001
 44
0.0000000001
 40
0.0
 40
0.0
 40
0.0
 40
0.0
 40
0.0811339991
 40
0.1616792089
 40
0.2410596604
 40
0.3187164192
 40
0.3941229533
 40
0.4667942445
 40
0.5363002165
 40
0.6022799291
 40
0.6644587479
 40
0.7226691284
 40
0.776876236
 40
0.8272090138
 40
0.8739951219
 40
0.8962416913
 40
0.9178322226
 40
0.938874606
 40
0.9594928516
 40
0.979822356
 40
1.0
 40
1.0
 40
1.0
 40
1.0
 10
6.4344561482
 20
2.7109572981
 30
0.0
 10
6.4344561482
 20
2.7128855512
 30
0.0
 10
6.4345495181
 20
2.7167287302
 30
0.0
 10
6.4349688622
 20
2.7224446771
 30
0.0
 10
6.4356632626
 20
2.7280507462
 30
0.0
 10
6.4366260685
 20
2.7334931492
 30
0.0
 10
6.4378480244
 20
2.7387199149
 30
0.0
 10
6.439317454
 20
2.7436811974
 30
0.0
 10
6.441020379
 20
2.7483298217
 30
0.0
 10
6.4429407351
 20
2.7526217469
 30
0.0
 10
6.4450606667
 20
2.7565165074
 30
0.0
 10
6.4473607742
 20
2.7599774918
 30
0.0
 10
6.4498208868
 20
2.7629722821
 30
0.0
 10
6.4524192945
 20
2.7654718996
 30
0.0
 10
6.4547212432
 20
2.7671493614
 30
0.0
 10
6.4566029589
 20
2.7682015659
 30
0.0
 10
6.4580088352
 20
2.7688396446
 30
0.0
 10
6.4594292889
 20
2.769337869
 30
0.0
 10
6.460860962
 20
2.7696948811
 30
0.0
 10
6.4622999654
 20
2.7699094485
 30
0.0
 10
6.4632633365
 20
2.7699572981
 30
0.0
 10
6.463742884
 20
2.7699572981
 30
0.0
  0
SPLINE
  5
4D6
100
AcDbEntity
  8
0
100
AcDbSpline
 62
7
  6
CONTINUOUS
 70
0
 71
3
 72
39
 73
35
 74
0
 42
0.0000001
 43
0.0000001
 44
0.0000000001
 40
0.0
 40
0.0
 40
0.0
 40
0.0
 40
0.0312498693
 40
0.0624999174
 40
0.0937498515
 40
0.1249998695
 40
0.1562498677
 40
0.1874998761
 40
0.2187498745
 40
0.2499998812
 40
0.2812498797
 40
0.3124998916
 40
0.3437499086
 40
0.3749999304
 40
0.4062499496
 40
0.4374999694
 40
0.4687499842
 40
0.4999999958
 40
0.5312500055
 40
0.5625000185
 40
0.593750034
 40
0.6250000503
 40
0.6562500657
 40
0.6875000743
 40
0.7187500836
 40
0.7500000711
 40
0.7812500707
 40
0.8125000645
 40
0.8437500654
 40
0.8750000638
 40
0.9062500881
 40
0.9375000314
 40
0.9687501071
 40
1.0
 40
1.0
 40
1.0
 40
1.0
 10
4.2793357258
 20
7.3168322981
 30
0.0
 10
4.2738457769
 20
7.3168322894
 30
0.0
 10
4.2628639214
 20
7.316560402
 30
0.0
 10
4.2464329118
 20
7.3153405655
 30
0.0
 10
4.2300814064
 20
7.3133137357
 30
0.0
 10
4.2138493549
 20
7.3104860344
 30
0.0
 10
4.197775681
 20
7.3068647571
 30
0.0
 10
4.1818991589
 20
7.3024588205
 30
0.0
 10
4.1662580042
 20
7.2972790191
 30
0.0
 10
4.1508897009
 20
7.2913383808
 30
0.0
 10
4.1358314239
 20
7.2846507275
 30
0.0
 10
4.1211195717
 20
7.2772320026
 30
0.0
 10
4.1067888361
 20
7.2691014946
 30
0.0
 10
4.092872684
 20
7.2602802049
 30
0.0
 10
4.0794039688
 20
7.2507897745
 30
0.0
 10
4.0664153674
 20
7.2406521517
 30
0.0
 10
4.0539387427
 20
7.2298906617
 30
0.0
 10
4.0420046498
 20
7.2185305092
 30
0.0
 10
4.0306411319
 20
7.2065996302
 30
0.0
 10
4.0198758291
 20
7.1941262962
 30
0.0
 10
4.0097347098
 20
7.1811404076
 30
0.0
 10
4.0002414635
 20
7.1676736583
 30
0.0
 10
3.9914182068
 20
7.153758736
 30
0.0
 10
3.9832864577
 20
7.1394286968
 30
0.0
 10
3.9758669508
 20
7.124717228
 30
0.0
 10
3.9691797657
 20
7.1096587131
 30
0.0
 10
3.9632414261
 20
7.0942894967
 30
0.0
 10
3.9580650039
 20
7.0786472162
 30
0.0
 10
3.9536628837
 20
7.0627696322
 30
0.0
 10
3.9500457314
 20
7.0466950281
 30
0.0
 10
3.9472220926
 20
7.0304622706
 30
0.0
 10
3.9451989468
 20
7.0141103129
 30
0.0
 10
3.9439818349
 20
6.9976791095
 30
0.0
 10
3.9437107279
 20
6.9866972512
 30
0.0
 10
3.9437107258
 20
6.9812072981
 30
0.0
  0
SPLINE
  5
4D7
100
AcDbEntity
  8
0
100
AcDbSpline
 62
7
  6
CONTINUOUS
 70
0
 71
3
 72
39
 73
35
 74
0
 42
0.0000001
 43
0.0000001
 44
0.0000000001
 40
0.0
 40
0.0
 40
0.0
 40
0.0
 40
0.0312498806
 40
0.0624999422
 40
0.0937498811
 40
0.1249999026
 40
0.1562499012
 40
0.1874999063
 40
0.2187498995
 40
0.2499999015
 40
0.2812498911
 40
0.3124998983
 40
0.343749909
 40
0.3749999255
 40
0.4062499414
 40
0.4374999579
 40
0.4687499711
 40
0.499999982
 40
0.5312499934
 40
0.562500009
 40
0.5937500293
 40
0.6250000498
 40
0.6562500723
 40
0.6875000894
 40
0.7187501028
 40
0.7500001005
 40
0.7812501073
 40
0.8125001057
 40
0.8437501129
 40
0.8750001118
 40
0.9062501316
 40
0.9375000682
 40
0.9687501239
 40
1.0
 40
1.0
 40
1.0
 40
1.0
 10
4.6149607258
 20
6.9812072981
 30
0.0
 10
4.6149607181
 20
6.986697249
 30
0.0
 10
4.6146895449
 20
6.9976791016
 30
0.0
 10
4.6134723695
 20
7.0141102934
 30
0.0
 10
4.6114492505
 20
7.0304622483
 30
0.0
 10
4.6086257756
 20
7.0466950316
 30
0.0
 10
4.6050087803
 20
7.062769672
 30
0.0
 10
4.600606674
 20
7.0786472656
 30
0.0
 10
4.5954299145
 20
7.0942894396
 30
0.0
 10
4.5894913352
 20
7.1096585562
 30
0.0
 10
4.5828044156
 20
7.1247171821
 30
0.0
 10
4.5753851738
 20
7.139428791
 30
0.0
 10
4.5672533116
 20
7.1537587717
 30
0.0
 10
4.5584299083
 20
7.167673599
 30
0.0
 10
4.5489366705
 20
7.1811403506
 30
0.0
 10
4.538795683
 20
7.1941263393
 30
0.0
 10
4.5280305025
 20
7.2065997847
 30
0.0
 10
4.5166668174
 20
7.2185305109
 30
0.0
 10
4.5047325916
 20
7.2298905171
 30
0.0
 10
4.4922560491
 20
7.2406520979
 30
0.0
 10
4.4792675069
 20
7.2507898003
 30
0.0
 10
4.4657987841
 20
7.2602802228
 30
0.0
 10
4.4518825987
 20
7.2691014607
 30
0.0
 10
4.4375518574
 20
7.2772319549
 30
0.0
 10
4.4228400579
 20
7.2846507821
 30
0.0
 10
4.4077817978
 20
7.2913384805
 30
0.0
 10
4.3924134489
 20
7.297279004
 30
0.0
 10
4.3767722674
 20
7.3024587173
 30
0.0
 10
4.3608957546
 20
7.3068646811
 30
0.0
 10
4.3448220967
 20
7.3104860274
 30
0.0
 10
4.3285900577
 20
7.3133138085
 30
0.0
 10
4.3122385501
 20
7.3153406443
 30
0.0
 10
4.2958075343
 20
7.3165604445
 30
0.0
 10
4.2848256759
 20
7.316832293
 30
0.0
 10
4.2793357258
 20
7.3168322981
 30
0.0
  0
SPLINE
  5
4D8
100
AcDbEntity
  8
0
100
AcDbSpline
 62
7
  6
CONTINUOUS
 70
0
 71
3
 72
43
 73
39
 74
0
 42
0.0000001
 43
0.0000001
 44
0.0000000001
 40
0.0
 40
0.0
 40
0.0
 40
0.0
 40
0.0006335208
 40
0.0025213713
 40
0.0056444905
 40
0.0099838266
 40
0.0222349857
 40
0.0391226309
 40
0.0604723044
 40
0.0860200269
 40
0.1154794185
 40
0.1315865019
 40
0.1485641171
 40
0.1755772467
 40
0.2043042746
 40
0.2662428873
 40
0.2991258907
 40
0.3330644578
 40
0.4033836056
 40
0.4757067305
 40
0.5485308545
 40
0.6203529824
 40
0.6896701532
 40
0.7550108887
 40
0.7857675655
 40
0.8150293868
 40
0.8426320684
 40
0.8684134857
 40
0.8922364747
 40
0.9139799624
 40
0.9335231366
 40
0.9507451809
 40
0.965525629
 40
0.9777650131
 40
0.9873963766
 40
0.99435551
 40
0.9985781537
 40
1.0
 40
1.0
 40
1.0
 40
1.0
 10
1.9680857258
 20
3.9187072981
 30
0.0
 10
1.9682175703
 20
3.9186924487
 30
0.0
 10
1.9687422752
 20
3.918633106
 30
0.0
 10
1.9699167036
 20
3.9184984353
 30
0.0
 10
1.9718618805
 20
3.9182726925
 30
0.0
 10
1.9759622173
 20
3.9177902802
 30
0.0
 10
1.9829233813
 20
3.916953061
 30
0.0
 10
1.993417406
 20
3.9156566072
 30
0.0
 10
2.0066696348
 20
3.9139749478
 30
0.0
 10
2.0225286257
 20
3.9119214175
 30
0.0
 10
2.0372944011
 20
3.9099755715
 30
0.0
 10
2.0502780927
 20
3.9082444404
 30
0.0
 10
2.0627522315
 20
3.9065681111
 30
0.0
 10
2.0778432084
 20
3.904520448
 30
0.0
 10
2.1022606223
 20
3.9011757219
 30
0.0
 10
2.1278901732
 20
3.8976218625
 30
0.0
 10
2.1545963267
 20
3.8938858826
 30
0.0
 10
2.1830376471
 20
3.8898850576
 30
0.0
 10
2.2196536064
 20
3.8846998729
 30
0.0
 10
2.2643289071
 20
3.8783446904
 30
0.0
 10
2.3093148485
 20
3.8719382204
 30
0.0
 10
2.3536794973
 20
3.8656342373
 30
0.0
 10
2.3964973955
 20
3.8595853224
 30
0.0
 10
2.4308063948
 20
3.8547882397
 30
0.0
 10
2.4568123836
 20
3.8511884772
 30
0.0
 10
2.4749921484
 20
3.8486912326
 30
0.0
 10
2.4921424411
 20
3.8463562614
 30
0.0
 10
2.5081672361
 20
3.8441981524
 30
0.0
 10
2.5229790108
 20
3.8422269027
 30
0.0
 10
2.5364985804
 20
3.8404495503
 30
0.0
 10
2.5486502129
 20
3.8388730827
 30
0.0
 10
2.5593582677
 20
3.8375041819
 30
0.0
 10
2.5685515999
 20
3.8363494293
 30
0.0
 10
2.5761700332
 20
3.8354122863
 30
0.0
 10
2.5821644658
 20
3.8346895978
 30
0.0
 10
2.5864932682
 20
3.8341783139
 30
0.0
 10
2.5891152632
 20
3.8338741684
 30
0.0
 10
2.5902898292
 20
3.8337407095
 30
0.0
 10
2.5905857258
 20
3.8337072981
 30
0.0
  0
SPLINE
  5
4D9
100
AcDbEntity
  8
0
100
AcDbSpline
 62
7
  6
CONTINUOUS
 70
0
 71
3
 72
29
 73
25
 74
0
 42
0.0000001
 43
0.0000001
 44
0.0000000001
 40
0.0
 40
0.0
 40
0.0
 40
0.0
 40
0.0313092832
 40
0.0626253535
 40
0.0939537394
 40
0.1252972579
 40
0.1880118405
 40
0.2507788199
 40
0.313583312
 40
0.3764060063
 40
0.43920756
 40
0.501942762
 40
0.5645817528
 40
0.6271140795
 40
0.6895230299
 40
0.751796016
 40
0.782892903
 40
0.8139624719
 40
0.8450086933
 40
0.8760347342
 40
0.9070434514
 40
0.9380378877
 40
0.9690217687
 40
1.0
 40
1.0
 40
1.0
 40
1.0
 10
4.2793357258
 20
7.2924572981
 30
0.0
 10
4.2844160175
 20
7.2924572981
 30
0.0
 10
4.294579629
 20
7.2921933479
 30
0.0
 10
4.3097854895
 20
7.2910178225
 30
0.0
 10
4.3249186975
 20
7.2890748121
 30
0.0
 10
4.3449505422
 20
7.2854773674
 30
0.0
 10
4.3696367401
 20
7.2791199557
 30
0.0
 10
4.3983786091
 20
7.2686202012
 30
0.0
 10
4.4259677795
 20
7.2553425538
 30
0.0
 10
4.4521531203
 20
7.239468021
 30
0.0
 10
4.4766945147
 20
7.2211734911
 30
0.0
 10
4.4993513717
 20
7.2006336622
 30
0.0
 10
4.5198779888
 20
7.1780237133
 30
0.0
 10
4.5381044744
 20
7.1535885311
 30
0.0
 10
4.553869406
 20
7.1275681396
 30
0.0
 10
4.5648291989
 20
7.10474167
 30
0.0
 10
4.5721963335
 20
7.0859345673
 30
0.0
 10
4.5770146634
 20
7.0715910349
 30
0.0
 10
4.581120292
 20
7.0570398357
 30
0.0
 10
4.5845062403
 20
7.0423145808
 30
0.0
 10
4.5871653154
 20
7.0274494518
 30
0.0
 10
4.5890903529
 20
7.0124783143
 30
0.0
 10
4.5902741488
 20
6.997435702
 30
0.0
 10
4.5905643788
 20
6.987380886
 30
0.0
 10
4.5905835393
 20
6.9823543478
 30
0.0
  0
SPLINE
  5
4DA
100
AcDbEntity
  8
0
100
AcDbSpline
 62
7
  6
CONTINUOUS
 70
0
 71
3
 72
49
 73
45
 74
0
 42
0.0000001
 43
0.0000001
 44
0.0000000001
 40
0.0
 40
0.0
 40
0.0
 40
0.0
 40
0.0001553705
 40
0.0006201741
 40
0.0013924375
 40
0.0024701573
 40
0.0038513027
 40
0.0055338414
 40
0.0097949665
 40
0.0152374252
 40
0.0218453178
 40
0.0384948747
 40
0.059591498
 40
0.0848864232
 40
0.1141137899
 40
0.1470151293
 40
0.2026153015
 40
0.2646060696
 40
0.3317051825
 40
0.4024962547
 40
0.4754216172
 40
0.5488909551
 40
0.6212803652
 40
0.6910092405
 40
0.7565385443
 40
0.8165199463
 40
0.8440349431
 40
0.8696894673
 40
0.8933555928
 40
0.9149255181
 40
0.9342911195
 40
0.9513417247
 40
0.9659620613
 40
0.9780576362
 40
0.987568092
 40
0.9913357043
 40
0.9944350696
 40
0.9968586808
 40
0.9978147233
 40
0.9985990056
 40
0.99921059
 40
0.9996485515
 40
0.999911988
 40
1.0
 40
1.0
 40
1.0
 40
1.0
 10
1.9680857258
 20
3.7749572981
 30
0.0
 10
1.9680534864
 20
3.7749572981
 30
0.0
 10
1.9683389169
 20
3.7749561735
 30
0.0
 10
1.9684768102
 20
3.7749550784
 30
0.0
 10
1.969042931
 20
3.7749524161
 30
0.0
 10
1.9696756097
 20
3.7749492614
 30
0.0
 10
1.9705495109
 20
3.774945216
 30
0.0
 10
1.9720624895
 20
3.7749384619
 30
0.0
 10
1.9744295873
 20
3.7749287187
 30
0.0
 10
1.9778122638
 20
3.7749162412
 30
0.0
 10
1.9837683804
 20
3.7748969178
 30
0.0
 10
1.9929712416
 20
3.7748737853
 30
0.0
 10
2.0060525192
 20
3.7748522748
 30
0.0
 10
2.0217433628
 20
3.7748369902
 30
0.0
 10
2.0398838116
 20
3.7748295354
 30
0.0
 10
2.0643125661
 20
3.7748313927
 30
0.0
 10
2.0955397436
 20
3.774848573
 30
0.0
 10
2.1338629505
 20
3.7748791093
 30
0.0
 10
2.1753382716
 20
3.7749143201
 30
0.0
 10
2.2190825279
 20
3.7749436806
 30
0.0
 10
2.264148615
 20
3.7749594047
 30
0.0
 10
2.3095463605
 20
3.7749562313
 30
0.0
 10
2.3542808286
 20
3.7749339343
 30
0.0
 10
2.397367727
 20
3.7748966376
 30
0.0
 10
2.437879954
 20
3.7748537475
 30
0.0
 10
2.4696328005
 20
3.774821893
 30
0.0
 10
2.4931116322
 20
3.7748047743
 30
0.0
 10
2.5090550424
 20
3.7747978807
 30
0.0
 10
2.52376485
 20
3.7747976244
 30
0.0
 10
2.5371697059
 20
3.774803873
 30
0.0
 10
2.5492018279
 20
3.7748163251
 30
0.0
 10
2.5597919234
 20
3.7748342744
 30
0.0
 10
2.5688734049
 20
3.7748569364
 30
0.0
 10
2.5763904852
 20
3.774882857
 30
0.0
 10
2.5816551329
 20
3.7749059625
 30
0.0
 10
2.5850539299
 20
3.7749234136
 30
0.0
 10
2.5869805948
 20
3.7749341828
 30
0.0
 10
2.5883275291
 20
3.7749422918
 30
0.0
 10
2.5891875995
 20
3.7749477752
 30
0.0
 10
2.5896838903
 20
3.7749510124
 30
0.0
 10
2.5900429528
 20
3.7749535088
 30
0.0
 10
2.5903640728
 20
3.7749555846
 30
0.0
 10
2.5904422454
 20
3.7749564364
 30
0.0
 10
2.5906039883
 20
3.7749572981
 30
0.0
 10
2.5905857258
 20
3.7749572981
 30
0.0
  0
SPLINE
  5
4DB
100
AcDbEntity
  8
0
100
AcDbSpline
 62
7
  6
CONTINUOUS
 70
0
 71
3
 72
44
 73
40
 74
0
 42
0.0000001
 43
0.0000001
 44
0.0000000001
 40
0.0
 40
0.0
 40
0.0
 40
0.0
 40
0.0953565549
 40
0.1898104408
 40
0.2824718752
 40
0.3724539369
 40
0.4588954954
 40
0.5005466975
 40
0.5410268245
 40
0.5802429446
 40
0.6181025597
 40
0.6545137318
 40
0.6893852493
 40
0.7226319683
 40
0.7541902537
 40
0.7840026268
 40
0.8120129757
 40
0.8381670611
 40
0.8624132531
 40
0.8738060636
 40
0.8847043544
 40
0.8951030071
 40
0.9049974052
 40
0.9143843484
 40
0.9232645298
 40
0.9316402454
 40
0.9395148024
 40
0.9468927956
 40
0.9537804765
 40
0.9601862513
 40
0.9661213564
 40
0.9716007797
 40
0.9766445097
 40
0.9812792034
 40
0.9855403299
 40
0.9894747071
 40
0.9931430189
 40
0.9966213217
 40
1.0
 40
1.0
 40
1.0
 40
1.0
 10
4.2793357258
 20
6.6049572981
 30
0.0
 10
4.2895048519
 20
6.6049572981
 30
0.0
 10
4.3097470535
 20
6.6048402265
 30
0.0
 10
4.3398667099
 20
6.6043038988
 30
0.0
 10
4.369404287
 20
6.6033987292
 30
0.0
 10
4.3980727368
 20
6.6021165307
 30
0.0
 10
4.4212875274
 20
6.6007095114
 30
0.0
 10
4.4392160676
 20
6.5993855778
 30
0.0
 10
4.4521126826
 20
6.5983137484
 30
0.0
 10
4.464595566
 20
6.597152891
 30
0.0
 10
4.4766339165
 20
6.5959050721
 30
0.0
 10
4.4881969317
 20
6.594572395
 30
0.0
 10
4.4992543783
 20
6.5931569372
 30
0.0
 10
4.5097786882
 20
6.591660273
 30
0.0
 10
4.5197460569
 20
6.5900872551
 30
0.0
 10
4.5291354693
 20
6.5884425355
 30
0.0
 10
4.5379265226
 20
6.5867307155
 30
0.0
 10
4.546098771
 20
6.5849563775
 30
0.0
 10
4.5525028424
 20
6.5833990223
 30
0.0
 10
4.5572979573
 20
6.5821188461
 30
0.0
 10
4.5606514487
 20
6.5811657347
 30
0.0
 10
4.5638347742
 20
6.5802002042
 30
0.0
 10
4.5668454788
 20
6.5792227829
 30
0.0
 10
4.5696814956
 20
6.5782338562
 30
0.0
 10
4.5723414608
 20
6.5772342802
 30
0.0
 10
4.5748244459
 20
6.5762248032
 30
0.0
 10
4.5771296156
 20
6.5752061344
 30
0.0
 10
4.5792561548
 20
6.5741789733
 30
0.0
 10
4.5812032725
 20
6.5731440008
 30
0.0
 10
4.5829702074
 20
6.5721018655
 30
0.0
 10
4.5845562308
 20
6.5710531624
 30
0.0
 10
4.5859606425
 20
6.5699983999
 30
0.0
 10
4.5871827481
 20
6.5689379477
 30
0.0
 10
4.5882217961
 20
6.5678719812
 30
0.0
 10
4.5890768378
 20
6.5668004099
 30
0.0
 10
4.5897464815
 20
6.5657229802
 30
0.0
 10
4.5902285848
 20
6.5646393297
 30
0.0
 10
4.5905201678
 20
6.5635503889
 30
0.0
 10
4.5905857258
 20
6.5628176111
 30
0.0
 10
4.5905857258
 20
6.5624572981
 30
0.0
  0
LINE
  5
4DC
100
AcDbEntity
  8
0
100
AcDbLine
 62
7
  6
CONTINUOUS
 10
4.2793357258
 20
6.4602478822
 11
4.5905857258
 21
6.4602478824
  0
SPLINE
  5
4DD
100
AcDbEntity
  8
0
100
AcDbSpline
 62
7
  6
CONTINUOUS
 70
0
 71
3
 72
31
 73
27
 74
0
 42
0.0000001
 43
0.0000001
 44
0.0000000001
 40
0.0
 40
0.0
 40
0.0
 40
0.0
 40
0.0886385485
 40
0.1765096674
 40
0.2628587691
 40
0.3469474212
 40
0.4280686671
 40
0.5055551749
 40
0.5787917641
 40
0.6472284526
 40
0.679500356
 40
0.7104043432
 40
0.7398986174
 40
0.7679488634
 40
0.7945309849
 40
0.8196314033
 40
0.8432501049
 40
0.8654024272
 40
0.8861227113
 40
0.9054683
 40
0.9235241787
 40
0.9404086835
 40
0.9562783198
 40
0.9713336218
 40
0.9858167135
 40
1.0
 40
1.0
 40
1.0
 40
1.0
 10
6.3689894724
 20
3.4539572981
 30
0.0
 10
6.3689894726
 20
3.4520293817
 30
0.0
 10
6.3690493355
 20
3.4481899658
 30
0.0
 10
6.3693182417
 20
3.4424781134
 30
0.0
 10
6.3697634831
 20
3.4368764549
 30
0.0
 10
6.3703807204
 20
3.4314387909
 30
0.0
 10
6.3711639041
 20
3.4262172642
 30
0.0
 10
6.3721053689
 20
3.4212617951
 30
0.0
 10
6.3731959247
 20
3.4166198281
 30
0.0
 10
6.3742394939
 20
3.4129812041
 30
0.0
 10
6.3751467202
 20
3.4102657558
 30
0.0
 10
6.3758441694
 20
3.4083742859
 30
0.0
 10
6.3765702325
 20
3.4065923485
 30
0.0
 10
6.3773232473
 20
3.4049241865
 30
0.0
 10
6.3781013735
 20
3.4033737346
 30
0.0
 10
6.3789028236
 20
3.4019446559
 30
0.0
 10
6.3797257139
 20
3.4006402836
 30
0.0
 10
6.3805682019
 20
3.3994636602
 30
0.0
 10
6.3814284383
 20
3.3984175133
 30
0.0
 10
6.3823046213
 20
3.3975042826
 30
0.0
 10
6.3831950432
 20
3.3967262102
 30
0.0
 10
6.3840979895
 20
3.3960853154
 30
0.0
 10
6.3850117823
 20
3.3955836369
 30
0.0
 10
6.3859346232
 20
3.3952231482
 30
0.0
 10
6.3868638235
 20
3.3950059244
 30
0.0
 10
6.3874883454
 20
3.3949572981
 30
0.0
 10
6.3877968363
 20
3.3949572981
 30
0.0
  0
SPLINE
  5
4DE
100
AcDbEntity
  8
0
100
AcDbSpline
 62
7
  6
CONTINUOUS
 70
0
 71
3
 72
16
 73
12
 74
0
 42
0.0000001
 43
0.0000001
 44
0.0000000001
 40
0.0
 40
0.0
 40
0.0
 40
0.0
 40
0.1163100914
 40
0.234853488
 40
0.3561417566
 40
0.4803646893
 40
0.607386733
 40
0.736784897
 40
0.8022166186
 40
0.8679829748
 40
1.0
 40
1.0
 40
1.0
 40
1.0
 10
2.7620215572
 20
1.7446754139
 30
0.0
 10
2.7624917426
 20
1.7445437043
 30
0.0
 10
2.7634178839
 20
1.7441862529
 30
0.0
 10
2.764697609
 20
1.7433984839
 30
0.0
 10
2.7658451305
 20
1.7423775675
 30
0.0
 10
2.7668287423
 20
1.7411527465
 30
0.0
 10
2.7676222908
 20
1.7397583925
 30
0.0
 10
2.7681060468
 20
1.7384909185
 30
0.0
 10
2.7683812083
 20
1.7374311793
 30
0.0
 10
2.7685801394
 20
1.7363434962
 30
0.0
 10
2.7686400789
 20
1.7355115223
 30
0.0
 10
2.7686400789
 20
1.7349572981
 30
0.0
  0
SPLINE
  5
4DF
100
AcDbEntity
  8
0
100
AcDbSpline
 62
7
  6
CONTINUOUS
 70
0
 71
3
 72
21
 73
17
 74
0
 42
0.0000001
 43
0.0000001
 44
0.0000000001
 40
0.0
 40
0.0
 40
0.0
 40
0.0
 40
0.057967959
 40
0.1161384774
 40
0.1746547884
 40
0.2336930555
 40
0.2933854284
 40
0.3538363377
 40
0.4151204096
 40
0.4772762651
 40
0.5403085214
 40
0.6041889153
 40
0.6688576382
 40
0.7342288062
 40
0.8664830691
 40
1.0
 40
1.0
 40
1.0
 40
1.0
 10
2.5283180294
 20
1.7449572981
 30
0.0
 10
2.5286013982
 20
1.7449572981
 30
0.0
 10
2.5291696458
 20
1.744924989
 30
0.0
 10
2.5300128315
 20
1.7447803733
 30
0.0
 10
2.5308396413
 20
1.7445408372
 30
0.0
 10
2.5316418382
 20
1.7442088775
 30
0.0
 10
2.53241177
 20
1.7437877524
 30
0.0
 10
2.5331420041
 20
1.7432816177
 30
0.0
 10
2.5338255272
 20
1.7426954105
 30
0.0
 10
2.5344558089
 20
1.7420348427
 30
0.0
 10
2.5350268653
 20
1.7413063312
 30
0.0
 10
2.5355332354
 20
1.74051691
 30
0.0
 10
2.5359701258
 20
1.7396741123
 30
0.0
 10
2.536456175
 20
1.7384860267
 30
0.0
 10
2.5368679637
 20
1.7369117125
 30
0.0
 10
2.5369782834
 20
1.7356099783
 30
0.0
 10
2.5369782834
 20
1.7349572981
 30
0.0
  0
SPLINE
  5
4E0
100
AcDbEntity
  8
0
100
AcDbSpline
 62
7
  6
CONTINUOUS
 70
0
 71
3
 72
21
 73
17
 74
0
 42
0.0000001
 43
0.0000001
 44
0.0000000001
 40
0.0
 40
0.0
 40
0.0
 40
0.0
 40
0.057967959
 40
0.1161384774
 40
0.1746547884
 40
0.2336930555
 40
0.2933854284
 40
0.3538363376
 40
0.4151204095
 40
0.477276265
 40
0.5403085214
 40
0.6041889152
 40
0.6688576382
 40
0.7342288061
 40
0.866483069
 40
1.0
 40
1.0
 40
1.0
 40
1.0
 10
2.0303534222
 20
1.7449572981
 30
0.0
 10
2.0300700534
 20
1.7449572981
 30
0.0
 10
2.0295018058
 20
1.744924989
 30
0.0
 10
2.0286586201
 20
1.7447803733
 30
0.0
 10
2.0278318103
 20
1.7445408372
 30
0.0
 10
2.0270296133
 20
1.7442088775
 30
0.0
 10
2.0262596816
 20
1.7437877524
 30
0.0
 10
2.0255294474
 20
1.7432816177
 30
0.0
 10
2.0248459244
 20
1.7426954105
 30
0.0
 10
2.0242156427
 20
1.7420348427
 30
0.0
 10
2.0236445863
 20
1.7413063312
 30
0.0
 10
2.0231382162
 20
1.74051691
 30
0.0
 10
2.0227013257
 20
1.7396741123
 30
0.0
 10
2.0222152765
 20
1.7384860267
 30
0.0
 10
2.0218034879
 20
1.7369117125
 30
0.0
 10
2.0216931681
 20
1.7356099783
 30
0.0
 10
2.0216931681
 20
1.7349572981
 30
0.0
  0
SPLINE
  5
4E1
100
AcDbEntity
  8
0
100
AcDbSpline
 62
7
  6
CONTINUOUS
 70
0
 71
3
 72
21
 73
17
 74
0
 42
0.0000001
 43
0.0000001
 44
0.0000000001
 40
0.0
 40
0.0
 40
0.0
 40
0.0
 40
0.057967959
 40
0.1161384774
 40
0.1746547884
 40
0.2336930555
 40
0.2933854284
 40
0.3538363377
 40
0.4151204096
 40
0.4772762651
 40
0.5403085214
 40
0.6041889153
 40
0.6688576382
 40
0.7342288062
 40
0.8664830691
 40
1.0
 40
1.0
 40
1.0
 40
1.0
 10
1.7813711186
 20
1.6357072981
 30
0.0
 10
1.7816544875
 20
1.6357072981
 30
0.0
 10
1.782222735
 20
1.6357396073
 30
0.0
 10
1.7830659207
 20
1.635884223
 30
0.0
 10
1.7838927306
 20
1.6361237591
 30
0.0
 10
1.7846949275
 20
1.6364557188
 30
0.0
 10
1.7854648592
 20
1.6368768438
 30
0.0
 10
1.7861950934
 20
1.6373829786
 30
0.0
 10
1.7868786164
 20
1.6379691858
 30
0.0
 10
1.7875088981
 20
1.6386297536
 30
0.0
 10
1.7880799545
 20
1.6393582651
 30
0.0
 10
1.7885863246
 20
1.6401476863
 30
0.0
 10
1.7890232151
 20
1.640990484
 30
0.0
 10
1.7895092643
 20
1.6421785695
 30
0.0
 10
1.789921053
 20
1.6437528837
 30
0.0
 10
1.7900313727
 20
1.6450546179
 30
0.0
 10
1.7900313727
 20
1.6457072981
 30
0.0
  0
LINE
  5
4E2
100
AcDbEntity
  8
0
100
AcDbLine
 62
7
  6
CONTINUOUS
 10
1.9437107257
 20
3.74548936
 11
2.6149607259
 21
3.74548936
  0
SPLINE
  5
4E3
100
AcDbEntity
  8
0
100
AcDbSpline
 62
7
  6
CONTINUOUS
 70
0
 71
3
 72
39
 73
35
 74
0
 42
0.0000001
 43
0.0000001
 44
0.0000000001
 40
0.0
 40
0.0
 40
0.0
 40
0.0
 40
0.0286354713
 40
0.0577858727
 40
0.0874149187
 40
0.1174868154
 40
0.1479643808
 40
0.1788091038
 40
0.2099853033
 40
0.2414575879
 40
0.2731928989
 40
0.3051584374
 40
0.3373228911
 40
0.3696541126
 40
0.4021208176
 40
0.4346898474
 40
0.467328072
 40
0.5000009753
 40
0.532673909
 40
0.5653121319
 40
0.5816078076
 40
0.597881869
 40
0.6303485859
 40
0.6948415612
 40
0.7268071009
 40
0.7585424152
 40
0.7900146995
 40
0.8211908765
 40
0.8520355921
 40
0.882513209
 40
0.9125850926
 40
0.942214053
 40
0.9713645182
 40
1.0
 40
1.0
 40
1.0
 40
1.0
 10
4.1397440116
 20
4.9485099334
 30
0.0
 10
4.1424285377
 20
4.9485777952
 30
0.0
 10
4.1478431286
 20
4.9488405134
 30
0.0
 10
4.1560119536
 20
4.9495428579
 30
0.0
 10
4.1642900529
 20
4.9505000397
 30
0.0
 10
4.1726679405
 20
4.9516559764
 30
0.0
 10
4.1811388624
 20
4.952962065
 30
0.0
 10
4.1896981541
 20
4.9543706106
 30
0.0
 10
4.1983425024
 20
4.9558357207
 30
0.0
 10
4.2070696295
 20
4.9573122406
 30
0.0
 10
4.2158773319
 20
4.9587559772
 30
0.0
 10
4.2247629681
 20
4.9601237427
 30
0.0
 10
4.2337226615
 20
4.9613729274
 30
0.0
 10
4.2427506485
 20
4.9624632628
 30
0.0
 10
4.2518387432
 20
4.9633553517
 30
0.0
 10
4.2609754485
 20
4.9640189778
 30
0.0
 10
4.2701465979
 20
4.9644289168
 30
0.0
 10
4.2793357238
 20
4.9645669079
 30
0.0
 10
4.2885248079
 20
4.9644285519
 30
0.0
 10
4.2961712678
 20
4.9640869927
 30
0.0
 10
4.3022733973
 20
4.9636867828
 30
0.0
 10
4.3083535955
 20
4.9632060965
 30
0.0
 10
4.318922725
 20
4.9621687333
 30
0.0
 10
4.3309122053
 20
4.9605849427
 30
0.0
 10
4.3427940663
 20
4.9587559807
 30
0.0
 10
4.3516018251
 20
4.9573122529
 30
0.0
 10
4.3603289267
 20
4.9558356784
 30
0.0
 10
4.3689732951
 20
4.9543706799
 30
0.0
 10
4.3775326101
 20
4.9529622736
 30
0.0
 10
4.3860034777
 20
4.9516558282
 30
0.0
 10
4.3943813222
 20
4.9504995708
 30
0.0
 10
4.4026595139
 20
4.9495431797
 30
0.0
 10
4.410828334
 20
4.9488409687
 30
0.0
 10
4.4162429121
 20
4.9485777635
 30
0.0
 10
4.4189274399
 20
4.9485099334
 30
0.0
  0
SPLINE
  5
4E4
100
AcDbEntity
  8
0
100
AcDbSpline
 62
7
  6
CONTINUOUS
 70
0
 71
3
 72
50
 73
46
 74
0
 42
0.0000001
 43
0.0000001
 44
0.0000000001
 40
0.0
 40
0.0
 40
0.0
 40
0.0
 40
0.0539493907
 40
0.1068564849
 40
0.1586842887
 40
0.2093993562
 40
0.2589601035
 40
0.3073135841
 40
0.354400942
 40
0.4001525204
 40
0.4444915799
 40
0.4873342733
 40
0.5285946361
 40
0.5681889778
 40
0.6060440378
 40
0.6421045952
 40
0.6594530774
 40
0.6763449985
 40
0.708763329
 40
0.7393984909
 40
0.7540681427
 40
0.768317218
 40
0.7821555941
 40
0.7955934856
 40
0.8213017787
 40
0.845511484
 40
0.8682625536
 40
0.8895624831
 40
0.9093833197
 40
0.9276607488
 40
0.9442963162
 40
0.959156979
 40
0.9658724378
 40
0.9720802417
 40
0.977754217
 40
0.9828670161
 40
0.9873898079
 40
0.9912904462
 40
0.994535415
 40
0.9959015857
 40
0.9970909764
 40
0.9980990849
 40
0.9989217448
 40
0.9995556465
 40
1.0
 40
1.0
 40
1.0
 40
1.0
 10
4.420991487
 20
4.9485099334
 30
0.0
 10
4.4236131238
 20
4.9485765157
 30
0.0
 10
4.4288032804
 20
4.9488304757
 30
0.0
 10
4.4364871463
 20
4.9495276956
 30
0.0
 10
4.4439846875
 20
4.9504804188
 30
0.0
 10
4.4512889306
 20
4.9516333769
 30
0.0
 10
4.4583957825
 20
4.9529372309
 30
0.0
 10
4.465302853
 20
4.9543439115
 30
0.0
 10
4.4720084735
 20
4.9558075952
 30
0.0
 10
4.478511407
 20
4.9572832111
 30
0.0
 10
4.4848099952
 20
4.9587267405
 30
0.0
 10
4.4909018376
 20
4.9600951046
 30
0.0
 10
4.4967835237
 20
4.9613455952
 30
0.0
 10
4.5024500905
 20
4.9624385377
 30
0.0
 10
4.5078952672
 20
4.9633355078
 30
0.0
 10
4.5122968137
 20
4.9639007402
 30
0.0
 10
4.5156993844
 20
4.9642212961
 30
0.0
 10
4.5189320354
 20
4.964447383
 30
0.0
 10
4.5228184446
 20
4.9645668854
 30
0.0
 10
4.5265977494
 20
4.9644570594
 30
0.0
 10
4.5294840011
 20
4.9642269976
 30
0.0
 10
4.5315494528
 20
4.9639914161
 30
0.0
 10
4.533546143
 20
4.9636920897
 30
0.0
 10
4.5360782989
 20
4.9632187304
 30
0.0
 10
4.5390738544
 20
4.9624908694
 30
0.0
 10
4.5424388943
 20
4.9614062639
 30
0.0
 10
4.5455183462
 20
4.9601629806
 30
0.0
 10
4.5483114312
 20
4.9588015241
 30
0.0
 10
4.5508185549
 20
4.9573652462
 30
0.0
 10
4.5530399548
 20
4.9558977953
 30
0.0
 10
4.5549754852
 20
4.954443717
 30
0.0
 10
4.5563943621
 20
4.9532432397
 30
0.0
 10
4.5573862231
 20
4.9523263469
 30
0.0
 10
4.5580324511
 20
4.9516940051
 30
0.0
 10
4.5586062849
 20
4.9510995686
 30
0.0
 10
4.5591073911
 20
4.9505492171
 30
0.0
 10
4.559535362
 20
4.950049267
 30
0.0
 10
4.5598899388
 20
4.9496064291
 30
0.0
 10
4.5601366194
 20
4.9492740746
 30
0.0
 10
4.5602962719
 20
4.9490416324
 30
0.0
 10
4.5603903907
 20
4.9488961617
 30
0.0
 10
4.5604659543
 20
4.948770273
 30
0.0
 10
4.5605231314
 20
4.9486648731
 30
0.0
 10
4.5605618361
 20
4.9485809988
 30
0.0
 10
4.5605791037
 20
4.9485311412
 30
0.0
 10
4.5605832012
 20
4.9485099334
 30
0.0
  0
SPLINE
  5
4E5
100
AcDbEntity
  8
0
100
AcDbSpline
 62
7
  6
CONTINUOUS
 70
0
 71
3
 72
44
 73
40
 74
0
 42
0.0000001
 43
0.0000001
 44
0.0000000001
 40
0.0
 40
0.0
 40
0.0
 40
0.0
 40
0.0033786783
 40
0.0068569811
 40
0.0105252929
 40
0.0144596701
 40
0.0187207966
 40
0.0233554903
 40
0.0283992203
 40
0.0338786436
 40
0.0398137487
 40
0.0462195235
 40
0.0531072044
 40
0.0604851976
 40
0.0683597546
 40
0.0767354702
 40
0.0856156516
 40
0.0950025948
 40
0.1048969929
 40
0.1152956456
 40
0.1261939364
 40
0.1375867469
 40
0.1618329389
 40
0.1879870243
 40
0.2159973732
 40
0.2458097463
 40
0.2773680317
 40
0.3106147507
 40
0.3454862682
 40
0.3818974403
 40
0.4197570554
 40
0.4589731755
 40
0.4994533025
 40
0.5411045046
 40
0.6275460631
 40
0.7175281248
 40
0.8101895592
 40
0.9046434451
 40
1.0
 40
1.0
 40
1.0
 40
1.0
 10
3.9680857258
 20
6.5624572981
 30
0.0
 10
3.9680857258
 20
6.5628176111
 30
0.0
 10
3.9681512838
 20
6.5635503889
 30
0.0
 10
3.9684428668
 20
6.5646393297
 30
0.0
 10
3.9689249701
 20
6.5657229802
 30
0.0
 10
3.9695946138
 20
6.5668004099
 30
0.0
 10
3.9704496555
 20
6.5678719812
 30
0.0
 10
3.9714887034
 20
6.5689379477
 30
0.0
 10
3.9727108091
 20
6.5699983999
 30
0.0
 10
3.9741152208
 20
6.5710531624
 30
0.0
 10
3.9757012442
 20
6.5721018655
 30
0.0
 10
3.9774681791
 20
6.5731440008
 30
0.0
 10
3.9794152968
 20
6.5741789733
 30
0.0
 10
3.981541836
 20
6.5752061344
 30
0.0
 10
3.9838470057
 20
6.5762248032
 30
0.0
 10
3.9863299908
 20
6.5772342802
 30
0.0
 10
3.988989956
 20
6.5782338562
 30
0.0
 10
3.9918259728
 20
6.5792227829
 30
0.0
 10
3.9948366773
 20
6.5802002042
 30
0.0
 10
3.9980200028
 20
6.5811657347
 30
0.0
 10
4.0013734943
 20
6.5821188461
 30
0.0
 10
4.0061686091
 20
6.5833990223
 30
0.0
 10
4.0125726806
 20
6.5849563775
 30
0.0
 10
4.020744929
 20
6.5867307155
 30
0.0
 10
4.0295359823
 20
6.5884425355
 30
0.0
 10
4.0389253947
 20
6.5900872551
 30
0.0
 10
4.0488927634
 20
6.591660273
 30
0.0
 10
4.0594170733
 20
6.5931569372
 30
0.0
 10
4.0704745199
 20
6.594572395
 30
0.0
 10
4.0820375351
 20
6.5959050721
 30
0.0
 10
4.0940758856
 20
6.597152891
 30
0.0
 10
4.106558769
 20
6.5983137484
 30
0.0
 10
4.119455384
 20
6.5993855778
 30
0.0
 10
4.1373839242
 20
6.6007095114
 30
0.0
 10
4.1605987148
 20
6.6021165307
 30
0.0
 10
4.1892671646
 20
6.6033987292
 30
0.0
 10
4.2188047417
 20
6.6043038988
 30
0.0
 10
4.2489243981
 20
6.6048402265
 30
0.0
 10
4.2691665997
 20
6.6049572981
 30
0.0
 10
4.2793357258
 20
6.6049572981
 30
0.0
  0
LINE
  5
4E6
100
AcDbEntity
  8
0
100
AcDbLine
 62
7
  6
CONTINUOUS
 10
3.9680857258
 20
6.4602478823
 11
4.2793357258
 21
6.4602478823
  0
SPLINE
  5
4E7
100
AcDbEntity
  8
0
100
AcDbSpline
 62
7
  6
CONTINUOUS
 70
0
 71
3
 72
24
 73
20
 74
0
 42
0.0000001
 43
0.0000001
 44
0.0000000001
 40
0.0
 40
0.0
 40
0.0
 40
0.0
 40
0.0612957877
 40
0.1230763724
 40
0.185265872
 40
0.2477986384
 40
0.3106076003
 40
0.3736234616
 40
0.4367771805
 40
0.50000003
 40
0.5632228835
 40
0.626376604
 40
0.6893924639
 40
0.7522014191
 40
0.7835066348
 40
0.8147341779
 40
0.8769236512
 40
0.9387042004
 40
1.0
 40
1.0
 40
1.0
 40
1.0
 10
4.2058243874
 20
4.8477072981
 30
0.0
 10
4.2088285527
 20
4.8477072918
 30
0.0
 10
4.2148606542
 20
4.8476750633
 30
0.0
 10
4.2239400552
 20
4.8475634439
 30
0.0
 10
4.2330795888
 20
4.8474179906
 30
0.0
 10
4.2422693728
 20
4.8472634566
 30
0.0
 10
4.251499867
 20
4.8471209512
 30
0.0
 10
4.2607612161
 20
4.8470076794
 30
0.0
 10
4.2700432708
 20
4.8469347322
 30
0.0
 10
4.2793357319
 20
4.8469101993
 30
0.0
 10
4.288628192
 20
4.8469350357
 30
0.0
 10
4.2979102458
 20
4.8470080269
 30
0.0
 10
4.3071715988
 20
4.8471209467
 30
0.0
 10
4.3148717851
 20
4.847239578
 30
0.0
 10
4.3210140725
 20
4.847340545
 30
0.0
 10
4.3271259767
 20
4.8474425594
 30
0.0
 10
4.3347313927
 20
4.8475641709
 30
0.0
 10
4.3438107969
 20
4.8476754857
 30
0.0
 10
4.3498428983
 20
4.8477072763
 30
0.0
 10
4.3528470642
 20
4.8477072981
 30
0.0
  0
SPLINE
  5
4E8
100
AcDbEntity
  8
0
100
AcDbSpline
 62
7
  6
CONTINUOUS
 70
0
 71
3
 72
15
 73
11
 74
0
 42
0.0000001
 43
0.0000001
 44
0.0000000001
 40
0.0
 40
0.0
 40
0.0
 40
0.0
 40
0.124501041
 40
0.2491146329
 40
0.3738795928
 40
0.4988192
 40
0.6239335998
 40
0.7492010245
 40
0.8745711742
 40
1.0
 40
1.0
 40
1.0
 40
1.0
 10
7.9074047189
 20
3.0730560463
 30
0.0
 10
7.9076993286
 20
3.0729865842
 30
0.0
 10
7.9082773523
 20
3.0727925514
 30
0.0
 10
7.9090756682
 20
3.0723477089
 30
0.0
 10
7.9097802215
 20
3.0717635253
 30
0.0
 10
7.9103670485
 20
3.0710597103
 30
0.0
 10
7.9108166426
 20
3.0702598417
 30
0.0
 10
7.9111139471
 20
3.0693906215
 30
0.0
 10
7.9112491625
 20
3.0684815076
 30
0.0
 10
7.9112280783
 20
3.0678681471
 30
0.0
 10
7.9111900152
 20
3.0675655886
 30
0.0
  0
SPLINE
  5
4E9
100
AcDbEntity
  8
0
100
AcDbSpline
 62
7
  6
CONTINUOUS
 70
0
 71
3
 72
15
 73
11
 74
0
 42
0.0000001
 43
0.0000001
 44
0.0000000001
 40
0.0
 40
0.0
 40
0.0
 40
0.0
 40
0.1205641278
 40
0.2424463434
 40
0.3657839097
 40
0.4905751611
 40
0.61668564
 40
0.74386605
 40
0.8717702363
 40
1.0
 40
1.0
 40
1.0
 40
1.0
 10
7.9006933673
 20
3.091588652
 30
0.0
 10
7.9009033197
 20
3.0917036122
 30
0.0
 10
7.9013074286
 20
3.091969594
 30
0.0
 10
7.9018454967
 20
3.0924615147
 30
0.0
 10
7.9023066772
 20
3.0930370513
 30
0.0
 10
7.9026801441
 20
3.0936825614
 30
0.0
 10
7.902957425
 20
3.0943829792
 30
0.0
 10
7.9031321725
 20
3.0951220547
 30
0.0
 10
7.9032004726
 20
3.0958824566
 30
0.0
 10
7.9031739497
 20
3.0963922948
 30
0.0
 10
7.9031428233
 20
3.0966449696
 30
0.0
  0
SPLINE
  5
4EA
100
AcDbEntity
  8
0
100
AcDbSpline
 62
7
  6
CONTINUOUS
 70
0
 71
3
 72
50
 73
46
 74
0
 42
0.0000001
 43
0.0000001
 44
0.0000000001
 40
0.0
 40
0.0
 40
0.0
 40
0.0
 40
0.0004443396
 40
0.0010782365
 40
0.0019008965
 40
0.0029090064
 40
0.0040983963
 40
0.0054645608
 40
0.0087095
 40
0.0126101092
 40
0.0171328994
 40
0.0222457335
 40
0.0279197592
 40
0.0341276079
 40
0.0408430863
 40
0.0557037093
 40
0.0723392362
 40
0.0906166638
 40
0.1104375276
 40
0.131737477
 40
0.1544885334
 40
0.1786982251
 40
0.2044065353
 40
0.217844436
 40
0.2316828146
 40
0.2459318903
 40
0.2606015428
 40
0.2912367042
 40
0.3236550353
 40
0.3405469555
 40
0.3578954386
 40
0.3939560052
 40
0.431811087
 40
0.4714054284
 40
0.5126657842
 40
0.5555084654
 40
0.5998475199
 40
0.6455990939
 40
0.6926864602
 40
0.7410399366
 40
0.7906006387
 40
0.841315703
 40
0.8931435565
 40
0.9460506209
 40
1.0
 40
1.0
 40
1.0
 40
1.0
 10
3.9980882504
 20
4.9485099334
 30
0.0
 10
3.9980923479
 20
4.9485311406
 30
0.0
 10
3.9981096157
 20
4.9485809971
 30
0.0
 10
3.9981483201
 20
4.9486648705
 30
0.0
 10
3.9982054972
 20
4.9487702703
 30
0.0
 10
3.9982810607
 20
4.9488961591
 30
0.0
 10
3.9983751796
 20
4.9490416294
 30
0.0
 10
3.9985348319
 20
4.9492740696
 30
0.0
 10
3.9987815135
 20
4.9496064195
 30
0.0
 10
3.9991360917
 20
4.9500492525
 30
0.0
 10
3.9995640631
 20
4.9505492025
 30
0.0
 10
4.0000651679
 20
4.9510995607
 30
0.0
 10
4.0006390005
 20
4.9516940072
 30
0.0
 10
4.0012852275
 20
4.9523263581
 30
0.0
 10
4.0022770869
 20
4.9532432546
 30
0.0
 10
4.0036959683
 20
4.9544437225
 30
0.0
 10
4.0056315018
 20
4.9558977899
 30
0.0
 10
4.0078529009
 20
4.9573652406
 30
0.0
 10
4.0103600228
 20
4.9588015264
 30
0.0
 10
4.0131531059
 20
4.9601629911
 30
0.0
 10
4.0162325611
 20
4.9614062671
 30
0.0
 10
4.0195976049
 20
4.9624908581
 30
0.0
 10
4.0225931574
 20
4.9632187327
 30
0.0
 10
4.0251253132
 20
4.9636921017
 30
0.0
 10
4.0271220032
 20
4.9639914346
 30
0.0
 10
4.0291874557
 20
4.9642270126
 30
0.0
 10
4.0320737079
 20
4.964457069
 30
0.0
 10
4.0358530127
 20
4.9645668953
 30
0.0
 10
4.0397394223
 20
4.964447402
 30
0.0
 10
4.042972074
 20
4.9642213222
 30
0.0
 10
4.0463746455
 20
4.963900768
 30
0.0
 10
4.050776192
 20
4.9633355185
 30
0.0
 10
4.0562213648
 20
4.9624385155
 30
0.0
 10
4.0618879332
 20
4.9613455769
 30
0.0
 10
4.0677696216
 20
4.9600951002
 30
0.0
 10
4.0738614651
 20
4.9587267444
 30
0.0
 10
4.0801600541
 20
4.957283222
 30
0.0
 10
4.0866629879
 20
4.9558076061
 30
0.0
 10
4.0933686061
 20
4.9543439103
 30
0.0
 10
4.1002756733
 20
4.9529372207
 30
0.0
 10
4.1073825342
 20
4.9516334249
 30
0.0
 10
4.1146867804
 20
4.9504804944
 30
0.0
 10
4.1221842985
 20
4.9495275855
 30
0.0
 10
4.1298681684
 20
4.9488303546
 30
0.0
 10
4.1350583282
 20
4.9485765175
 30
0.0
 10
4.1376799646
 20
4.9485099334
 30
0.0
  0
LINE
  5
4EB
100
AcDbEntity
  8
0
100
AcDbLine
 62
7
  6
CONTINUOUS
 10
2.8288036639
 20
3.9593322981
 11
2.8288036639
 21
4.6305822983
  0
SPLINE
  5
4EC
100
AcDbEntity
  8
0
100
AcDbSpline
 62
7
  6
CONTINUOUS
 70
0
 71
3
 72
21
 73
17
 74
0
 42
0.0000001
 43
0.0000001
 44
0.0000000001
 40
0.0
 40
0.0
 40
0.0
 40
0.0
 40
0.057967959
 40
0.1161384774
 40
0.1746547884
 40
0.2336930555
 40
0.2933854284
 40
0.3538363377
 40
0.4151204096
 40
0.4772762651
 40
0.5403085214
 40
0.6041889153
 40
0.6688576382
 40
0.7342288062
 40
0.8664830691
 40
1.0
 40
1.0
 40
1.0
 40
1.0
 10
2.777300333
 20
1.6357072981
 30
0.0
 10
2.7770169641
 20
1.6357072981
 30
0.0
 10
2.7764487166
 20
1.6357396073
 30
0.0
 10
2.7756055308
 20
1.635884223
 30
0.0
 10
2.774778721
 20
1.6361237591
 30
0.0
 10
2.7739765241
 20
1.6364557188
 30
0.0
 10
2.7732065923
 20
1.6368768438
 30
0.0
 10
2.7724763582
 20
1.6373829786
 30
0.0
 10
2.7717928352
 20
1.6379691858
 30
0.0
 10
2.7711625535
 20
1.6386297536
 30
0.0
 10
2.7705914971
 20
1.6393582651
 30
0.0
 10
2.770085127
 20
1.6401476863
 30
0.0
 10
2.7696482365
 20
1.640990484
 30
0.0
 10
2.7691621873
 20
1.6421785695
 30
0.0
 10
2.7687503986
 20
1.6437528837
 30
0.0
 10
2.7686400789
 20
1.6450546179
 30
0.0
 10
2.7686400789
 20
1.6457072981
 30
0.0
  0
SPLINE
  5
4ED
100
AcDbEntity
  8
0
100
AcDbSpline
 62
7
  6
CONTINUOUS
 70
0
 71
3
 72
21
 73
17
 74
0
 42
0.0000001
 43
0.0000001
 44
0.0000000001
 40
0.0
 40
0.0
 40
0.0
 40
0.0
 40
0.057967959
 40
0.1161384774
 40
0.1746547884
 40
0.2336930555
 40
0.2933854284
 40
0.3538363377
 40
0.4151204096
 40
0.4772762651
 40
0.5403085214
 40
0.6041889153
 40
0.6688576382
 40
0.7342288062
 40
0.8664830691
 40
1.0
 40
1.0
 40
1.0
 40
1.0
 10
2.5456385375
 20
1.6357072981
 30
0.0
 10
2.5453551686
 20
1.6357072981
 30
0.0
 10
2.5447869211
 20
1.6357396073
 30
0.0
 10
2.5439437353
 20
1.635884223
 30
0.0
 10
2.5431169255
 20
1.6361237591
 30
0.0
 10
2.5423147286
 20
1.6364557188
 30
0.0
 10
2.5415447968
 20
1.6368768438
 30
0.0
 10
2.5408145627
 20
1.6373829786
 30
0.0
 10
2.5401310396
 20
1.6379691858
 30
0.0
 10
2.5395007579
 20
1.6386297536
 30
0.0
 10
2.5389297015
 20
1.6393582651
 30
0.0
 10
2.5384233315
 20
1.6401476863
 30
0.0
 10
2.537986441
 20
1.640990484
 30
0.0
 10
2.5375003918
 20
1.6421785695
 30
0.0
 10
2.5370886031
 20
1.6437528837
 30
0.0
 10
2.5369782834
 20
1.6450546179
 30
0.0
 10
2.5369782834
 20
1.6457072981
 30
0.0
  0
SPLINE
  5
4EE
100
AcDbEntity
  8
0
100
AcDbSpline
 62
7
  6
CONTINUOUS
 70
0
 71
3
 72
21
 73
17
 74
0
 42
0.0000001
 43
0.0000001
 44
0.0000000001
 40
0.0
 40
0.0
 40
0.0
 40
0.0
 40
0.057972881
 40
0.116136827
 40
0.1746546279
 40
0.2336935098
 40
0.2933851939
 40
0.3538364434
 40
0.4151204595
 40
0.4772762668
 40
0.5403085578
 40
0.6041888749
 40
0.6688578473
 40
0.7342282823
 40
0.8664850843
 40
1.0
 40
1.0
 40
1.0
 40
1.0
 10
1.4693357258
 20
3.2527756275
 30
0.0
 10
1.4693357258
 20
3.2530590205
 30
0.0
 10
1.4693034402
 20
3.2536272623
 30
0.0
 10
1.4691587905
 20
3.2544704426
 30
0.0
 10
1.4689192587
 20
3.2552972294
 30
0.0
 10
1.4685873141
 20
3.2560994405
 30
0.0
 10
1.4681661876
 20
3.2568693741
 30
0.0
 10
1.4676600458
 20
3.2575996013
 30
0.0
 10
1.4670738372
 20
3.2582831243
 30
0.0
 10
1.4664132754
 20
3.2589134125
 30
0.0
 10
1.4656847584
 20
3.259484462
 30
0.0
 10
1.4648953372
 20
3.2599908335
 30
0.0
 10
1.4640525461
 20
3.2604277317
 30
0.0
 10
1.4628644488
 20
3.2609137808
 30
0.0
 10
1.4612901328
 20
3.2613255597
 30
0.0
 10
1.4599883963
 20
3.2614358816
 30
0.0
 10
1.4593357258
 20
3.2614358816
 30
0.0
  0
SPLINE
  5
4EF
100
AcDbEntity
  8
0
100
AcDbSpline
 62
7
  6
CONTINUOUS
 70
0
 71
3
 72
17
 73
13
 74
0
 42
0.0000001
 43
0.0000001
 44
0.0000000001
 40
0.0
 40
0.0
 40
0.0
 40
0.0
 40
0.0579153418
 40
0.1161243085
 40
0.1747862286
 40
0.2340261441
 40
0.3544862869
 40
0.4781703693
 40
0.6051229943
 40
0.7349531515
 40
0.8669101854
 40
1.0
 40
1.0
 40
1.0
 40
1.0
 10
1.4693032878
 20
3.4151305631
 30
0.0
 10
1.4692782777
 20
3.4153989262
 30
0.0
 10
1.4691990982
 20
3.4159347521
 30
0.0
 10
1.4689948386
 20
3.4167235891
 30
0.0
 10
1.4687066717
 20
3.4174925085
 30
0.0
 10
1.4682116521
 20
3.4184870601
 30
0.0
 10
1.4673918406
 20
3.4196489632
 30
0.0
 10
1.4661374972
 20
3.4208502825
 30
0.0
 10
1.4646505054
 20
3.4218286057
 30
0.0
 10
1.4629824315
 20
3.4225512143
 30
0.0
 10
1.4611909133
 20
3.4229945014
 30
0.0
 10
1.4599550982
 20
3.423093957
 30
0.0
 10
1.4593357258
 20
3.423093957
 30
0.0
  0
SPLINE
  5
4F0
100
AcDbEntity
  8
0
100
AcDbSpline
 62
7
  6
CONTINUOUS
 70
0
 71
3
 72
21
 73
17
 74
0
 42
0.0000001
 43
0.0000001
 44
0.0000000001
 40
0.0
 40
0.0
 40
0.0
 40
0.0
 40
0.057967959
 40
0.1161384774
 40
0.1746547884
 40
0.2336930555
 40
0.2933854284
 40
0.3538363377
 40
0.4151204096
 40
0.4772762651
 40
0.5403085214
 40
0.6041889153
 40
0.6688576382
 40
0.7342288062
 40
0.8664830691
 40
1.0
 40
1.0
 40
1.0
 40
1.0
 10
2.0130329141
 20
1.6357072981
 30
0.0
 10
2.013316283
 20
1.6357072981
 30
0.0
 10
2.0138845305
 20
1.6357396073
 30
0.0
 10
2.0147277163
 20
1.635884223
 30
0.0
 10
2.0155545261
 20
1.6361237591
 30
0.0
 10
2.016356723
 20
1.6364557188
 30
0.0
 10
2.0171266548
 20
1.6368768438
 30
0.0
 10
2.0178568889
 20
1.6373829786
 30
0.0
 10
2.018540412
 20
1.6379691858
 30
0.0
 10
2.0191706936
 20
1.6386297536
 30
0.0
 10
2.01974175
 20
1.6393582651
 30
0.0
 10
2.0202481201
 20
1.6401476863
 30
0.0
 10
2.0206850106
 20
1.640990484
 30
0.0
 10
2.0211710598
 20
1.6421785695
 30
0.0
 10
2.0215828485
 20
1.6437528837
 30
0.0
 10
2.0216931682
 20
1.6450546179
 30
0.0
 10
2.0216931682
 20
1.6457072981
 30
0.0
  0
SPLINE
  5
4F1
100
AcDbEntity
  8
0
100
AcDbSpline
 62
7
  6
CONTINUOUS
 70
0
 71
3
 72
17
 73
13
 74
0
 42
0.0000001
 43
0.0000001
 44
0.0000000001
 40
0.0
 40
0.0
 40
0.0
 40
0.0
 40
0.0579153418
 40
0.1161243085
 40
0.1747862286
 40
0.2340261441
 40
0.3544862869
 40
0.4781703693
 40
0.6051229943
 40
0.7349531515
 40
0.8669101854
 40
1.0
 40
1.0
 40
1.0
 40
1.0
 10
1.4693032878
 20
2.7497840332
 30
0.0
 10
1.4692782777
 20
2.7495156701
 30
0.0
 10
1.4691990982
 20
2.7489798442
 30
0.0
 10
1.4689948386
 20
2.7481910072
 30
0.0
 10
1.4687066717
 20
2.7474220878
 30
0.0
 10
1.4682116521
 20
2.7464275361
 30
0.0
 10
1.4673918406
 20
2.745265633
 30
0.0
 10
1.4661374972
 20
2.7440643138
 30
0.0
 10
1.4646505054
 20
2.7430859906
 30
0.0
 10
1.4629824315
 20
2.742363382
 30
0.0
 10
1.4611909133
 20
2.7419200948
 30
0.0
 10
1.4599550982
 20
2.7418206393
 30
0.0
 10
1.4593357258
 20
2.7418206393
 30
0.0
  0
SPLINE
  5
4F2
100
AcDbEntity
  8
0
100
AcDbSpline
 62
7
  6
CONTINUOUS
 70
0
 71
3
 72
21
 73
17
 74
0
 42
0.0000001
 43
0.0000001
 44
0.0000000001
 40
0.0
 40
0.0
 40
0.0
 40
0.0
 40
0.057972881
 40
0.116136827
 40
0.1746546279
 40
0.2336935098
 40
0.2933851939
 40
0.3538364434
 40
0.4151204595
 40
0.4772762668
 40
0.5403085578
 40
0.6041888749
 40
0.6688578473
 40
0.7342282823
 40
0.8664850843
 40
1.0
 40
1.0
 40
1.0
 40
1.0
 10
1.4693357258
 20
2.9121389687
 30
0.0
 10
1.4693357258
 20
2.9118555757
 30
0.0
 10
1.4693034402
 20
2.911287334
 30
0.0
 10
1.4691587905
 20
2.9104441537
 30
0.0
 10
1.4689192587
 20
2.9096173669
 30
0.0
 10
1.4685873141
 20
2.9088151557
 30
0.0
 10
1.4681661876
 20
2.9080452222
 30
0.0
 10
1.4676600458
 20
2.907314995
 30
0.0
 10
1.4670738372
 20
2.9066314719
 30
0.0
 10
1.4664132754
 20
2.9060011837
 30
0.0
 10
1.4656847584
 20
2.9054301342
 30
0.0
 10
1.4648953372
 20
2.9049237627
 30
0.0
 10
1.4640525461
 20
2.9044868645
 30
0.0
 10
1.4628644488
 20
2.9040008155
 30
0.0
 10
1.4612901328
 20
2.9035890366
 30
0.0
 10
1.4599883963
 20
2.9034787147
 30
0.0
 10
1.4593357258
 20
2.9034787147
 30
0.0
  0
SPLINE
  5
4F3
100
AcDbEntity
  8
0
100
AcDbSpline
 62
7
  6
CONTINUOUS
 70
0
 71
3
 72
21
 73
17
 74
0
 42
0.0000001
 43
0.0000001
 44
0.0000000001
 40
0.0
 40
0.0
 40
0.0
 40
0.0
 40
0.057972881
 40
0.116136827
 40
0.1746546279
 40
0.2336935098
 40
0.2933851939
 40
0.3538364434
 40
0.4151204595
 40
0.4772762668
 40
0.5403085578
 40
0.6041888749
 40
0.6688578473
 40
0.7342282823
 40
0.8664850843
 40
1.0
 40
1.0
 40
1.0
 40
1.0
 10
1.2193357258
 20
2.9121389687
 30
0.0
 10
1.2193357258
 20
2.9118555757
 30
0.0
 10
1.2193680114
 20
2.911287334
 30
0.0
 10
1.2195126611
 20
2.9104441537
 30
0.0
 10
1.2197521929
 20
2.9096173669
 30
0.0
 10
1.2200841375
 20
2.9088151557
 30
0.0
 10
1.220505264
 20
2.9080452222
 30
0.0
 10
1.2210114058
 20
2.907314995
 30
0.0
 10
1.2215976143
 20
2.9066314719
 30
0.0
 10
1.2222581762
 20
2.9060011837
 30
0.0
 10
1.2229866932
 20
2.9054301342
 30
0.0
 10
1.2237761144
 20
2.9049237627
 30
0.0
 10
1.2246189055
 20
2.9044868645
 30
0.0
 10
1.2258070028
 20
2.9040008155
 30
0.0
 10
1.2273813188
 20
2.9035890366
 30
0.0
 10
1.2286830553
 20
2.9034787147
 30
0.0
 10
1.2293357258
 20
2.9034787147
 30
0.0
  0
SPLINE
  5
4F4
100
AcDbEntity
  8
0
100
AcDbSpline
 62
7
  6
CONTINUOUS
 70
0
 71
3
 72
17
 73
13
 74
0
 42
0.0000001
 43
0.0000001
 44
0.0000000001
 40
0.0
 40
0.0
 40
0.0
 40
0.0
 40
0.0579153418
 40
0.1161243085
 40
0.1747862286
 40
0.2340261441
 40
0.3544862869
 40
0.4781703693
 40
0.6051229943
 40
0.7349531515
 40
0.8669101854
 40
1.0
 40
1.0
 40
1.0
 40
1.0
 10
1.2193681638
 20
2.7497840332
 30
0.0
 10
1.2193931739
 20
2.7495156701
 30
0.0
 10
1.2194723534
 20
2.7489798442
 30
0.0
 10
1.219676613
 20
2.7481910072
 30
0.0
 10
1.2199647799
 20
2.7474220878
 30
0.0
 10
1.2204597995
 20
2.7464275361
 30
0.0
 10
1.221279611
 20
2.745265633
 30
0.0
 10
1.2225339544
 20
2.7440643138
 30
0.0
 10
1.2240209462
 20
2.7430859906
 30
0.0
 10
1.22568902
 20
2.742363382
 30
0.0
 10
1.2274805383
 20
2.7419200948
 30
0.0
 10
1.2287163534
 20
2.7418206393
 30
0.0
 10
1.2293357258
 20
2.7418206393
 30
0.0
  0
SPLINE
  5
4F5
100
AcDbEntity
  8
0
100
AcDbSpline
 62
7
  6
CONTINUOUS
 70
0
 71
3
 72
31
 73
27
 74
0
 42
0.0000001
 43
0.0000001
 44
0.0000000001
 40
0.0
 40
0.0
 40
0.0
 40
0.0
 40
0.0886385468
 40
0.176509664
 40
0.2628587638
 40
0.3469474139
 40
0.4280686579
 40
0.5055551639
 40
0.5787917514
 40
0.6472284385
 40
0.6795003414
 40
0.7104043281
 40
0.7398986019
 40
0.7679488478
 40
0.7945309692
 40
0.8196313877
 40
0.8432500896
 40
0.8654024125
 40
0.8861226973
 40
0.9054682871
 40
0.9235241671
 40
0.9404086735
 40
0.9562783119
 40
0.9713336162
 40
0.9858167105
 40
1.0
 40
1.0
 40
1.0
 40
1.0
 10
2.1896819791
 20
3.4539572981
 30
0.0
 10
2.1896819791
 20
3.4520293817
 30
0.0
 10
2.1896221165
 20
3.4481899658
 30
0.0
 10
2.1893532106
 20
3.4424781134
 30
0.0
 10
2.1889079695
 20
3.4368764549
 30
0.0
 10
2.1882907324
 20
3.431438791
 30
0.0
 10
2.1875075489
 20
3.4262172642
 30
0.0
 10
2.1865660843
 20
3.4212617951
 30
0.0
 10
2.1854755286
 20
3.4166198281
 30
0.0
 10
2.1844319594
 20
3.4129812041
 30
0.0
 10
2.1835247331
 20
3.4102657558
 30
0.0
 10
2.1828272838
 20
3.4083742859
 30
0.0
 10
2.1821012208
 20
3.4065923485
 30
0.0
 10
2.1813482059
 20
3.4049241865
 30
0.0
 10
2.1805700796
 20
3.4033737346
 30
0.0
 10
2.1797686295
 20
3.4019446559
 30
0.0
 10
2.1789457391
 20
3.4006402836
 30
0.0
 10
2.178103251
 20
3.3994636602
 30
0.0
 10
2.1772430145
 20
3.3984175133
 30
0.0
 10
2.1763668313
 20
3.3975042826
 30
0.0
 10
2.1754764093
 20
3.3967262102
 30
0.0
 10
2.1745734629
 20
3.3960853154
 30
0.0
 10
2.1736596699
 20
3.3955836369
 30
0.0
 10
2.1727368288
 20
3.3952231482
 30
0.0
 10
2.1718076283
 20
3.3950059244
 30
0.0
 10
2.1711831063
 20
3.3949572981
 30
0.0
 10
2.1708746153
 20
3.3949572981
 30
0.0
  0
SPLINE
  5
4F6
100
AcDbEntity
  8
0
100
AcDbSpline
 62
7
  6
CONTINUOUS
 70
0
 71
3
 72
17
 73
13
 74
0
 42
0.0000001
 43
0.0000001
 44
0.0000000001
 40
0.0
 40
0.0
 40
0.0
 40
0.0
 40
0.0579153418
 40
0.1161243085
 40
0.1747862286
 40
0.2340261441
 40
0.3544862869
 40
0.4781703693
 40
0.6051229943
 40
0.7349531515
 40
0.8669101854
 40
1.0
 40
1.0
 40
1.0
 40
1.0
 10
1.2193681638
 20
3.4151305631
 30
0.0
 10
1.2193931739
 20
3.4153989262
 30
0.0
 10
1.2194723534
 20
3.4159347521
 30
0.0
 10
1.219676613
 20
3.4167235891
 30
0.0
 10
1.2199647799
 20
3.4174925085
 30
0.0
 10
1.2204597995
 20
3.4184870601
 30
0.0
 10
1.221279611
 20
3.4196489632
 30
0.0
 10
1.2225339544
 20
3.4208502825
 30
0.0
 10
1.2240209462
 20
3.4218286057
 30
0.0
 10
1.22568902
 20
3.4225512143
 30
0.0
 10
1.2274805383
 20
3.4229945014
 30
0.0
 10
1.2287163534
 20
3.423093957
 30
0.0
 10
1.2293357258
 20
3.423093957
 30
0.0
  0
SPLINE
  5
4F7
100
AcDbEntity
  8
0
100
AcDbSpline
 62
7
  6
CONTINUOUS
 70
0
 71
3
 72
21
 73
17
 74
0
 42
0.0000001
 43
0.0000001
 44
0.0000000001
 40
0.0
 40
0.0
 40
0.0
 40
0.0
 40
0.057972881
 40
0.116136827
 40
0.1746546279
 40
0.2336935098
 40
0.2933851939
 40
0.3538364434
 40
0.4151204595
 40
0.4772762668
 40
0.5403085578
 40
0.6041888749
 40
0.6688578473
 40
0.7342282823
 40
0.8664850843
 40
1.0
 40
1.0
 40
1.0
 40
1.0
 10
1.2193357258
 20
3.2527756275
 30
0.0
 10
1.2193357258
 20
3.2530590205
 30
0.0
 10
1.2193680114
 20
3.2536272623
 30
0.0
 10
1.2195126611
 20
3.2544704426
 30
0.0
 10
1.2197521929
 20
3.2552972294
 30
0.0
 10
1.2200841375
 20
3.2560994405
 30
0.0
 10
1.220505264
 20
3.2568693741
 30
0.0
 10
1.2210114058
 20
3.2575996013
 30
0.0
 10
1.2215976143
 20
3.2582831243
 30
0.0
 10
1.2222581762
 20
3.2589134125
 30
0.0
 10
1.2229866932
 20
3.259484462
 30
0.0
 10
1.2237761144
 20
3.2599908335
 30
0.0
 10
1.2246189055
 20
3.2604277317
 30
0.0
 10
1.2258070028
 20
3.2609137808
 30
0.0
 10
1.2273813188
 20
3.2613255597
 30
0.0
 10
1.2286830553
 20
3.2614358816
 30
0.0
 10
1.2293357258
 20
3.2614358816
 30
0.0
  0
SPLINE
  5
4F8
100
AcDbEntity
  8
0
100
AcDbSpline
 62
7
  6
CONTINUOUS
 70
0
 71
3
 72
26
 73
22
 74
0
 42
0.0000001
 43
0.0000001
 44
0.0000000001
 40
0.0
 40
0.0
 40
0.0
 40
0.0
 40
0.081133824
 40
0.1616788345
 40
0.241059071
 40
0.3187156075
 40
0.3941219212
 40
0.4667930041
 40
0.5362987914
 40
0.6022783548
 40
0.6644570724
 40
0.7226674134
 40
0.776874558
 40
0.8272074621
 40
0.8739937979
 40
0.8962405219
 40
0.9178312356
 40
0.9388738289
 40
0.9594923104
 40
0.9798220745
 40
1.0
 40
1.0
 40
1.0
 40
1.0
 10
2.1242153035
 20
2.7109572981
 30
0.0
 10
2.124215319
 20
2.7128855509
 30
0.0
 10
2.1241219783
 20
2.7167287293
 30
0.0
 10
2.1237026734
 20
2.7224446765
 30
0.0
 10
2.1230083066
 20
2.7280507457
 30
0.0
 10
2.1220455289
 20
2.733493149
 30
0.0
 10
2.1208235954
 20
2.738719915
 30
0.0
 10
2.119354182
 20
2.7436811979
 30
0.0
 10
2.1176512669
 20
2.7483298226
 30
0.0
 10
2.1157309139
 20
2.7526217481
 30
0.0
 10
2.1136109789
 20
2.7565165092
 30
0.0
 10
2.1113108614
 20
2.759977494
 30
0.0
 10
2.1088507323
 20
2.7629722846
 30
0.0
 10
2.1062523017
 20
2.7654719023
 30
0.0
 10
2.10395033
 20
2.7671493628
 30
0.0
 10
2.1020685936
 20
2.7682015664
 30
0.0
 10
2.1006626997
 20
2.768839645
 30
0.0
 10
2.0992422269
 20
2.7693378693
 30
0.0
 10
2.0978105335
 20
2.7696948813
 30
0.0
 10
2.0963715086
 20
2.7699094486
 30
0.0
 10
2.0954081227
 20
2.7699572981
 30
0.0
 10
2.0949285676
 20
2.7699572981
 30
0.0
  0
SPLINE
  5
4F9
100
AcDbEntity
  8
0
100
AcDbSpline
 62
7
  6
CONTINUOUS
 70
0
 71
3
 72
20
 73
16
 74
0
 42
0.0000001
 43
0.0000001
 44
0.0000000001
 40
0.0
 40
0.0
 40
0.0
 40
0.0
 40
0.1182576361
 40
0.2386118863
 40
0.3611024267
 40
0.4231519397
 40
0.4857133375
 40
0.5487640087
 40
0.6122721323
 40
0.676196986
 40
0.740487978
 40
0.8050853167
 40
0.8699206311
 40
0.9349191406
 40
1.0
 40
1.0
 40
1.0
 40
1.0
 10
10.4074730885
 20
3.552865145
 30
0.0
 10
10.4030911351
 20
3.5496749187
 30
0.0
 10
10.3940359261
 20
3.5435249822
 30
0.0
 10
10.3797289106
 20
3.5351787307
 30
0.0
 10
10.3671680909
 20
3.5290213317
 30
0.0
 10
10.3567295736
 20
3.5246211474
 30
0.0
 10
10.348677147
 20
3.5215911111
 30
0.0
 10
10.3404471157
 20
3.518862741
 30
0.0
 10
10.332052452
 20
3.5164549337
 30
0.0
 10
10.3235096513
 20
3.5143846613
 30
0.0
 10
10.3148382327
 20
3.5126660076
 30
0.0
 10
10.3060598336
 20
3.5113138264
 30
0.0
 10
10.2971986168
 20
3.5103410646
 30
0.0
 10
10.28828156
 20
3.509752758
 30
0.0
 10
10.2823186556
 20
3.5096208546
 30
0.0
 10
10.2793357258
 20
3.5096207845
 30
0.0
  0
SPLINE
  5
4FA
100
AcDbEntity
  8
0
100
AcDbSpline
 62
7
  6
CONTINUOUS
 70
0
 71
3
 72
15
 73
11
 74
0
 42
0.0000001
 43
0.0000001
 44
0.0000000001
 40
0.0
 40
0.0
 40
0.0
 40
0.0
 40
0.1164111315
 40
0.2351028336
 40
0.3565220562
 40
0.4808195937
 40
0.6078465342
 40
0.7371602215
 40
0.868163553
 40
1.0
 40
1.0
 40
1.0
 40
1.0
 10
5.7964501868
 20
1.7446165618
 30
0.0
 10
5.7959910486
 20
1.7444744903
 30
0.0
 10
5.7950886016
 20
1.7441000914
 30
0.0
 10
5.7938453097
 20
1.7432988531
 30
0.0
 10
5.7927328868
 20
1.7422753477
 30
0.0
 10
5.7917809384
 20
1.7410579097
 30
0.0
 10
5.7910139861
 20
1.7396792779
 30
0.0
 10
5.7904514835
 20
1.7381760292
 30
0.0
 10
5.790108297
 20
1.73658834
 30
0.0
 10
5.7900313727
 20
1.7355015997
 30
0.0
 10
5.7900313727
 20
1.7349572981
 30
0.0
  0
SPLINE
  5
4FB
100
AcDbEntity
  8
0
100
AcDbSpline
 62
7
  6
CONTINUOUS
 70
0
 71
3
 72
21
 73
17
 74
0
 42
0.0000001
 43
0.0000001
 44
0.0000000001
 40
0.0
 40
0.0
 40
0.0
 40
0.0
 40
0.057972881
 40
0.116136827
 40
0.1746546279
 40
0.2336935098
 40
0.2933851939
 40
0.3538364434
 40
0.4151204595
 40
0.4772762668
 40
0.5403085578
 40
0.6041888749
 40
0.6688578473
 40
0.7342282823
 40
0.8664850843
 40
1.0
 40
1.0
 40
1.0
 40
1.0
 10
7.0893357258
 20
2.9121389687
 30
0.0
 10
7.0893357258
 20
2.9118555757
 30
0.0
 10
7.0893680114
 20
2.911287334
 30
0.0
 10
7.0895126611
 20
2.9104441537
 30
0.0
 10
7.0897521929
 20
2.9096173669
 30
0.0
 10
7.0900841375
 20
2.9088151557
 30
0.0
 10
7.090505264
 20
2.9080452222
 30
0.0
 10
7.0910114058
 20
2.907314995
 30
0.0
 10
7.0915976143
 20
2.9066314719
 30
0.0
 10
7.0922581762
 20
2.9060011837
 30
0.0
 10
7.0929866932
 20
2.9054301342
 30
0.0
 10
7.0937761144
 20
2.9049237627
 30
0.0
 10
7.0946189055
 20
2.9044868645
 30
0.0
 10
7.0958070028
 20
2.9040008155
 30
0.0
 10
7.0973813188
 20
2.9035890366
 30
0.0
 10
7.0986830553
 20
2.9034787147
 30
0.0
 10
7.0993357258
 20
2.9034787147
 30
0.0
  0
SPLINE
  5
4FC
100
AcDbEntity
  8
0
100
AcDbSpline
 62
7
  6
CONTINUOUS
 70
0
 71
3
 72
17
 73
13
 74
0
 42
0.0000001
 43
0.0000001
 44
0.0000000001
 40
0.0
 40
0.0
 40
0.0
 40
0.0
 40
0.0579153418
 40
0.1161243085
 40
0.1747862286
 40
0.2340261441
 40
0.3544862869
 40
0.4781703693
 40
0.6051229943
 40
0.7349531515
 40
0.8669101854
 40
1.0
 40
1.0
 40
1.0
 40
1.0
 10
7.0893681638
 20
2.7497840332
 30
0.0
 10
7.0893931739
 20
2.7495156701
 30
0.0
 10
7.0894723534
 20
2.7489798442
 30
0.0
 10
7.089676613
 20
2.7481910072
 30
0.0
 10
7.0899647799
 20
2.7474220878
 30
0.0
 10
7.0904597995
 20
2.7464275361
 30
0.0
 10
7.091279611
 20
2.745265633
 30
0.0
 10
7.0925339544
 20
2.7440643138
 30
0.0
 10
7.0940209462
 20
2.7430859906
 30
0.0
 10
7.09568902
 20
2.742363382
 30
0.0
 10
7.0974805383
 20
2.7419200948
 30
0.0
 10
7.0987163534
 20
2.7418206393
 30
0.0
 10
7.0993357258
 20
2.7418206393
 30
0.0
  0
SPLINE
  5
4FD
100
AcDbEntity
  8
0
100
AcDbSpline
 62
7
  6
CONTINUOUS
 70
0
 71
3
 72
17
 73
13
 74
0
 42
0.0000001
 43
0.0000001
 44
0.0000000001
 40
0.0
 40
0.0
 40
0.0
 40
0.0
 40
0.0579153418
 40
0.1161243085
 40
0.1747862286
 40
0.2340261441
 40
0.3544862869
 40
0.4781703693
 40
0.6051229943
 40
0.7349531515
 40
0.8669101854
 40
1.0
 40
1.0
 40
1.0
 40
1.0
 10
7.0893681638
 20
3.4151305631
 30
0.0
 10
7.0893931739
 20
3.4153989262
 30
0.0
 10
7.0894723534
 20
3.4159347521
 30
0.0
 10
7.089676613
 20
3.4167235891
 30
0.0
 10
7.0899647799
 20
3.4174925085
 30
0.0
 10
7.0904597995
 20
3.4184870601
 30
0.0
 10
7.091279611
 20
3.4196489632
 30
0.0
 10
7.0925339544
 20
3.4208502825
 30
0.0
 10
7.0940209462
 20
3.4218286057
 30
0.0
 10
7.09568902
 20
3.4225512143
 30
0.0
 10
7.0974805383
 20
3.4229945014
 30
0.0
 10
7.0987163534
 20
3.423093957
 30
0.0
 10
7.0993357258
 20
3.423093957
 30
0.0
  0
SPLINE
  5
4FE
100
AcDbEntity
  8
0
100
AcDbSpline
 62
7
  6
CONTINUOUS
 70
0
 71
3
 72
21
 73
17
 74
0
 42
0.0000001
 43
0.0000001
 44
0.0000000001
 40
0.0
 40
0.0
 40
0.0
 40
0.0
 40
0.057972881
 40
0.116136827
 40
0.1746546279
 40
0.2336935098
 40
0.2933851939
 40
0.3538364434
 40
0.4151204595
 40
0.4772762668
 40
0.5403085578
 40
0.6041888749
 40
0.6688578473
 40
0.7342282823
 40
0.8664850843
 40
1.0
 40
1.0
 40
1.0
 40
1.0
 10
7.0893357258
 20
3.2527756275
 30
0.0
 10
7.0893357258
 20
3.2530590205
 30
0.0
 10
7.0893680114
 20
3.2536272623
 30
0.0
 10
7.0895126611
 20
3.2544704426
 30
0.0
 10
7.0897521929
 20
3.2552972294
 30
0.0
 10
7.0900841375
 20
3.2560994405
 30
0.0
 10
7.090505264
 20
3.2568693741
 30
0.0
 10
7.0910114058
 20
3.2575996013
 30
0.0
 10
7.0915976143
 20
3.2582831243
 30
0.0
 10
7.0922581762
 20
3.2589134125
 30
0.0
 10
7.0929866932
 20
3.259484462
 30
0.0
 10
7.0937761144
 20
3.2599908335
 30
0.0
 10
7.0946189055
 20
3.2604277317
 30
0.0
 10
7.0958070028
 20
3.2609137808
 30
0.0
 10
7.0973813188
 20
3.2613255597
 30
0.0
 10
7.0986830553
 20
3.2614358816
 30
0.0
 10
7.0993357258
 20
3.2614358816
 30
0.0
  0
SPLINE
  5
4FF
100
AcDbEntity
  8
0
100
AcDbSpline
 62
7
  6
CONTINUOUS
 70
0
 71
3
 72
10
 73
6
 74
0
 42
0.0000001
 43
0.0000001
 44
0.0000000001
 40
0.0
 40
0.0
 40
0.0
 40
0.0
 40
0.3191556331
 40
0.6101066095
 40
1.0
 40
1.0
 40
1.0
 40
1.0
 10
0.6554885046
 20
3.0369266581
 30
0.0
 10
0.6554901873
 20
3.0369225759
 30
0.0
 10
0.6555006313
 20
3.0369204031
 30
0.0
 10
0.6555136489
 20
3.0369203633
 30
0.0
 10
0.6555232719
 20
3.0369212065
 30
0.0
 10
0.6555286283
 20
3.0369218432
 30
0.0
  0
SPLINE
  5
500
100
AcDbEntity
  8
0
100
AcDbSpline
 62
7
  6
CONTINUOUS
 70
0
 71
3
 72
21
 73
17
 74
0
 42
0.0000001
 43
0.0000001
 44
0.0000000001
 40
0.0
 40
0.0
 40
0.0
 40
0.0
 40
0.057972881
 40
0.116136827
 40
0.1746546279
 40
0.2336935098
 40
0.2933851939
 40
0.3538364434
 40
0.4151204595
 40
0.4772762668
 40
0.5403085578
 40
0.6041888749
 40
0.6688578473
 40
0.7342282823
 40
0.8664850843
 40
1.0
 40
1.0
 40
1.0
 40
1.0
 10
7.3393357258
 20
3.2527756275
 30
0.0
 10
7.3393357258
 20
3.2530590205
 30
0.0
 10
7.3393034402
 20
3.2536272623
 30
0.0
 10
7.3391587905
 20
3.2544704426
 30
0.0
 10
7.3389192587
 20
3.2552972294
 30
0.0
 10
7.3385873141
 20
3.2560994405
 30
0.0
 10
7.3381661876
 20
3.2568693741
 30
0.0
 10
7.3376600458
 20
3.2575996013
 30
0.0
 10
7.3370738372
 20
3.2582831243
 30
0.0
 10
7.3364132754
 20
3.2589134125
 30
0.0
 10
7.3356847584
 20
3.259484462
 30
0.0
 10
7.3348953372
 20
3.2599908335
 30
0.0
 10
7.3340525461
 20
3.2604277317
 30
0.0
 10
7.3328644488
 20
3.2609137808
 30
0.0
 10
7.3312901328
 20
3.2613255597
 30
0.0
 10
7.3299883963
 20
3.2614358816
 30
0.0
 10
7.3293357258
 20
3.2614358816
 30
0.0
  0
SPLINE
  5
501
100
AcDbEntity
  8
0
100
AcDbSpline
 62
7
  6
CONTINUOUS
 70
0
 71
3
 72
17
 73
13
 74
0
 42
0.0000001
 43
0.0000001
 44
0.0000000001
 40
0.0
 40
0.0
 40
0.0
 40
0.0
 40
0.0579153418
 40
0.1161243085
 40
0.1747862286
 40
0.2340261441
 40
0.3544862869
 40
0.4781703693
 40
0.6051229943
 40
0.7349531515
 40
0.8669101854
 40
1.0
 40
1.0
 40
1.0
 40
1.0
 10
7.3393032878
 20
3.4151305631
 30
0.0
 10
7.3392782777
 20
3.4153989262
 30
0.0
 10
7.3391990982
 20
3.4159347521
 30
0.0
 10
7.3389948386
 20
3.4167235891
 30
0.0
 10
7.3387066717
 20
3.4174925085
 30
0.0
 10
7.3382116521
 20
3.4184870601
 30
0.0
 10
7.3373918406
 20
3.4196489632
 30
0.0
 10
7.3361374972
 20
3.4208502825
 30
0.0
 10
7.3346505054
 20
3.4218286057
 30
0.0
 10
7.3329824315
 20
3.4225512143
 30
0.0
 10
7.3311909133
 20
3.4229945014
 30
0.0
 10
7.3299550982
 20
3.423093957
 30
0.0
 10
7.3293357258
 20
3.423093957
 30
0.0
  0
SPLINE
  5
502
100
AcDbEntity
  8
0
100
AcDbSpline
 62
7
  6
CONTINUOUS
 70
0
 71
3
 72
17
 73
13
 74
0
 42
0.0000001
 43
0.0000001
 44
0.0000000001
 40
0.0
 40
0.0
 40
0.0
 40
0.0
 40
0.0579153418
 40
0.1161243085
 40
0.1747862286
 40
0.2340261441
 40
0.3544862869
 40
0.4781703693
 40
0.6051229943
 40
0.7349531515
 40
0.8669101854
 40
1.0
 40
1.0
 40
1.0
 40
1.0
 10
7.3393032878
 20
2.7497840332
 30
0.0
 10
7.3392782777
 20
2.7495156701
 30
0.0
 10
7.3391990982
 20
2.7489798442
 30
0.0
 10
7.3389948386
 20
2.7481910072
 30
0.0
 10
7.3387066717
 20
2.7474220878
 30
0.0
 10
7.3382116521
 20
2.7464275361
 30
0.0
 10
7.3373918406
 20
2.745265633
 30
0.0
 10
7.3361374972
 20
2.7440643138
 30
0.0
 10
7.3346505054
 20
2.7430859906
 30
0.0
 10
7.3329824315
 20
2.742363382
 30
0.0
 10
7.3311909133
 20
2.7419200948
 30
0.0
 10
7.3299550982
 20
2.7418206393
 30
0.0
 10
7.3293357258
 20
2.7418206393
 30
0.0
  0
SPLINE
  5
503
100
AcDbEntity
  8
0
100
AcDbSpline
 62
7
  6
CONTINUOUS
 70
0
 71
3
 72
21
 73
17
 74
0
 42
0.0000001
 43
0.0000001
 44
0.0000000001
 40
0.0
 40
0.0
 40
0.0
 40
0.0
 40
0.057972881
 40
0.116136827
 40
0.1746546279
 40
0.2336935098
 40
0.2933851939
 40
0.3538364434
 40
0.4151204595
 40
0.4772762668
 40
0.5403085578
 40
0.6041888749
 40
0.6688578473
 40
0.7342282823
 40
0.8664850843
 40
1.0
 40
1.0
 40
1.0
 40
1.0
 10
7.3393357258
 20
2.9121389687
 30
0.0
 10
7.3393357258
 20
2.9118555757
 30
0.0
 10
7.3393034402
 20
2.911287334
 30
0.0
 10
7.3391587905
 20
2.9104441537
 30
0.0
 10
7.3389192587
 20
2.9096173669
 30
0.0
 10
7.3385873141
 20
2.9088151557
 30
0.0
 10
7.3381661876
 20
2.9080452222
 30
0.0
 10
7.3376600458
 20
2.907314995
 30
0.0
 10
7.3370738372
 20
2.9066314719
 30
0.0
 10
7.3364132754
 20
2.9060011837
 30
0.0
 10
7.3356847584
 20
2.9054301342
 30
0.0
 10
7.3348953372
 20
2.9049237627
 30
0.0
 10
7.3340525461
 20
2.9044868645
 30
0.0
 10
7.3328644488
 20
2.9040008155
 30
0.0
 10
7.3312901328
 20
2.9035890366
 30
0.0
 10
7.3299883963
 20
2.9034787147
 30
0.0
 10
7.3293357258
 20
2.9034787147
 30
0.0
  0
SPLINE
  5
504
100
AcDbEntity
  8
0
100
AcDbSpline
 62
7
  6
CONTINUOUS
 70
0
 71
3
 72
15
 73
11
 74
0
 42
0.0000001
 43
0.0000001
 44
0.0000000001
 40
0.0
 40
0.0
 40
0.0
 40
0.0
 40
0.1245100961
 40
0.2490909427
 40
0.3738190442
 40
0.4987293442
 40
0.623834292
 40
0.7491161454
 40
0.8745231892
 40
1.0
 40
1.0
 40
1.0
 40
1.0
 10
0.6519676259
 20
3.0731687472
 30
0.0
 10
0.6516368281
 20
3.0731398062
 30
0.0
 10
0.6509789914
 20
3.0730143043
 30
0.0
 10
0.6500513979
 20
3.0726315233
 30
0.0
 10
0.6492183144
 20
3.0720695504
 30
0.0
 10
0.6485138696
 20
3.0713511071
 30
0.0
 10
0.64796625
 20
3.0705052796
 30
0.0
 10
0.6475975622
 20
3.0695660393
 30
0.0
 10
0.6474224664
 20
3.0685717462
 30
0.0
 10
0.6474396666
 20
3.0678976111
 30
0.0
 10
0.6474814364
 20
3.0675655886
 30
0.0
  0
SPLINE
  5
505
100
AcDbEntity
  8
0
100
AcDbSpline
 62
7
  6
CONTINUOUS
 70
0
 71
3
 72
18
 73
14
 74
0
 42
0.0000001
 43
0.0000001
 44
0.0000000001
 40
0.0
 40
0.0
 40
0.0
 40
0.0
 40
0.0650841714
 40
0.1300860245
 40
0.1949246104
 40
0.2595252034
 40
0.3238194452
 40
0.3877474456
 40
0.5142863455
 40
0.6388798227
 40
0.7613763837
 40
0.8817365117
 40
1.0
 40
1.0
 40
1.0
 40
1.0
 10
10.2793357258
 20
3.5096207845
 30
0.0
 10
10.2763527629
 20
3.5096208268
 30
0.0
 10
10.2703897907
 20
3.5097526844
 30
0.0
 10
10.2614726224
 20
3.510340821
 30
0.0
 10
10.252611323
 20
3.5113138409
 30
0.0
 10
10.2438328756
 20
3.5126660533
 30
0.0
 10
10.2351611497
 20
3.5143842571
 30
0.0
 10
10.223810729
 20
3.5171357073
 30
0.0
 10
10.2099983971
 20
3.521406466
 30
0.0
 10
10.1940779174
 20
3.5277592176
 30
0.0
 10
10.178941896
 20
3.5351791036
 30
0.0
 10
10.1646344033
 20
3.543525602
 30
0.0
 10
10.1555792711
 20
3.549675689
 30
0.0
 10
10.1511972894
 20
3.5528659657
 30
0.0
  0
SPLINE
  5
506
100
AcDbEntity
  8
0
100
AcDbSpline
 62
7
  6
CONTINUOUS
 70
0
 71
3
 72
12
 73
8
 74
0
 42
0.0000001
 43
0.0000001
 44
0.0000000001
 40
0.0
 40
0.0
 40
0.0
 40
0.0
 40
0.0262444744
 40
0.0768162648
 40
0.2647405929
 40
0.5722026236
 40
1.0
 40
1.0
 40
1.0
 40
1.0
 10
0.6474420375
 20
3.0675674663
 30
0.0
 10
0.6474420838
 20
3.0675671206
 30
0.0
 10
0.6474430667
 20
3.0675664275
 30
0.0
 10
0.6474463856
 20
3.0675656875
 30
0.0
 10
0.6474537645
 20
3.0675651234
 30
0.0
 10
0.6474659607
 20
3.0675650946
 30
0.0
 10
0.6474757549
 20
3.0675653722
 30
0.0
 10
0.6474814364
 20
3.0675655886
 30
0.0
  0
SPLINE
  5
507
100
AcDbEntity
  8
0
100
AcDbSpline
 62
7
  6
CONTINUOUS
 70
0
 71
3
 72
21
 73
17
 74
0
 42
0.0000001
 43
0.0000001
 44
0.0000000001
 40
0.0
 40
0.0
 40
0.0
 40
0.0
 40
0.1247747172
 40
0.1872408102
 40
0.24974602
 40
0.3122824444
 40
0.3748422002
 40
0.4374173325
 40
0.5000000133
 40
0.5625826914
 40
0.6251578185
 40
0.6877175802
 40
0.7502540343
 40
0.812759265
 40
0.8752253171
 40
1.0
 40
1.0
 40
1.0
 40
1.0
 10
4.1904033422
 20
4.7887072981
 30
0.0
 10
4.1978010565
 20
4.7887073067
 30
0.0
 10
4.2089022861
 20
4.7886740557
 30
0.0
 10
4.2237092164
 20
4.7886080157
 30
0.0
 10
4.2348261612
 20
4.7885561502
 30
0.0
 10
4.2459486772
 20
4.7885084857
 30
0.0
 10
4.2570753796
 20
4.7884710015
 30
0.0
 10
4.268204862
 20
4.7884466392
 30
0.0
 10
4.279335728
 20
4.7884385956
 30
0.0
 10
4.2904665936
 20
4.7884466456
 30
0.0
 10
4.301596076
 20
4.7884710075
 30
0.0
 10
4.3127227801
 20
4.788508489
 30
0.0
 10
4.3238452995
 20
4.7885561471
 30
0.0
 10
4.3349622449
 20
4.7886080116
 30
0.0
 10
4.349769172
 20
4.7886740423
 30
0.0
 10
4.3608703972
 20
4.7887073002
 30
0.0
 10
4.3682681094
 20
4.7887072981
 30
0.0
  0
SPLINE
  5
508
100
AcDbEntity
  8
0
100
AcDbSpline
 62
7
  6
CONTINUOUS
 70
0
 71
3
 72
10
 73
6
 74
0
 42
0.0000001
 43
0.0000001
 44
0.0000000001
 40
0.0
 40
0.0
 40
0.0
 40
0.0
 40
0.3191556331
 40
0.6101066095
 40
1.0
 40
1.0
 40
1.0
 40
1.0
 10
7.903182947
 20
3.1279879381
 30
0.0
 10
7.9031812643
 20
3.1279920204
 30
0.0
 10
7.9031708203
 20
3.1279941932
 30
0.0
 10
7.9031578027
 20
3.1279942329
 30
0.0
 10
7.9031481797
 20
3.1279933898
 30
0.0
 10
7.9031428233
 20
3.127992753
 30
0.0
  0
SPLINE
  5
509
100
AcDbEntity
  8
0
100
AcDbSpline
 62
7
  6
CONTINUOUS
 70
0
 71
3
 72
29
 73
25
 74
0
 42
0.0000001
 43
0.0000001
 44
0.0000000001
 40
0.0
 40
0.0
 40
0.0
 40
0.0
 40
0.1946978744
 40
0.289696362
 40
0.3819139536
 40
0.4704563031
 40
0.5544727004
 40
0.6331566397
 40
0.7057514974
 40
0.7715597875
 40
0.8299514078
 40
0.8803690098
 40
0.9223336004
 40
0.9400193189
 40
0.95545311
 40
0.9686006977
 40
0.9794356977
 40
0.9839818527
 40
0.9879459389
 40
0.9913285391
 40
0.994133095
 40
0.9963684646
 40
0.9980537213
 40
1.0
 40
1.0
 40
1.0
 40
1.0
 10
3.7788357258
 20
4.2837122759
 30
0.0
 10
3.7778602505
 20
4.2837122759
 30
0.0
 10
3.776408808
 20
4.2837166507
 30
0.0
 10
3.7744953984
 20
4.2837315513
 30
0.0
 10
3.7731138761
 20
4.2837469198
 30
0.0
 10
3.7717874339
 20
4.2837664156
 30
0.0
 10
3.7705288723
 20
4.2837898431
 30
0.0
 10
3.769350304
 20
4.2838169643
 30
0.0
 10
3.7682630774
 20
4.2838474995
 30
0.0
 10
3.7672776633
 20
4.2838811327
 30
0.0
 10
3.7664035386
 20
4.2839174813
 30
0.0
 10
3.7656491109
 20
4.2839561625
 30
0.0
 10
3.7650987566
 20
4.2839915726
 30
0.0
 10
3.7647237682
 20
4.2840216691
 30
0.0
 10
3.7644929584
 20
4.2840432496
 30
0.0
 10
3.7642966718
 20
4.2840650743
 30
0.0
 10
3.7641550141
 20
4.2840843034
 30
0.0
 10
3.764059389
 20
4.2841002137
 30
0.0
 10
3.764000884
 20
4.2841114429
 30
0.0
 10
3.763951216
 20
4.2841227287
 30
0.0
 10
3.7639106698
 20
4.2841338408
 30
0.0
 10
3.7638784312
 20
4.2841453156
 30
0.0
 10
3.7638530044
 20
4.2841572095
 30
0.0
 10
3.7638357258
 20
4.2841713983
 30
0.0
 10
3.7638357258
 20
4.2841811496
 30
0.0
  0
SPLINE
  5
50A
100
AcDbEntity
  8
0
100
AcDbSpline
 62
7
  6
CONTINUOUS
 70
0
 71
3
 72
29
 73
25
 74
0
 42
0.0000001
 43
0.0000001
 44
0.0000000001
 40
0.0
 40
0.0
 40
0.0
 40
0.0
 40
0.1946978744
 40
0.289696362
 40
0.3819139536
 40
0.4704563031
 40
0.5544727004
 40
0.6331566397
 40
0.7057514974
 40
0.7715597875
 40
0.8299514078
 40
0.8803690098
 40
0.9223336004
 40
0.9400193189
 40
0.95545311
 40
0.9686006977
 40
0.9794356977
 40
0.9839818527
 40
0.9879459389
 40
0.9913285391
 40
0.994133095
 40
0.9963684646
 40
0.9980537213
 40
1.0
 40
1.0
 40
1.0
 40
1.0
 10
3.7788357258
 20
4.7577695507
 30
0.0
 10
3.7778602505
 20
4.7577695507
 30
0.0
 10
3.776408808
 20
4.7577739255
 30
0.0
 10
3.7744953984
 20
4.7577888262
 30
0.0
 10
3.7731138761
 20
4.7578041947
 30
0.0
 10
3.7717874339
 20
4.7578236905
 30
0.0
 10
3.7705288723
 20
4.757847118
 30
0.0
 10
3.769350304
 20
4.7578742392
 30
0.0
 10
3.7682630774
 20
4.7579047744
 30
0.0
 10
3.7672776633
 20
4.7579384076
 30
0.0
 10
3.7664035386
 20
4.7579747562
 30
0.0
 10
3.7656491109
 20
4.7580134374
 30
0.0
 10
3.7650987566
 20
4.7580488474
 30
0.0
 10
3.7647237682
 20
4.758078944
 30
0.0
 10
3.7644929584
 20
4.7581005245
 30
0.0
 10
3.7642966718
 20
4.7581223492
 30
0.0
 10
3.7641550141
 20
4.7581415783
 30
0.0
 10
3.764059389
 20
4.7581574886
 30
0.0
 10
3.764000884
 20
4.7581687178
 30
0.0
 10
3.763951216
 20
4.7581800036
 30
0.0
 10
3.7639106698
 20
4.7581911157
 30
0.0
 10
3.7638784312
 20
4.7582025905
 30
0.0
 10
3.7638530044
 20
4.7582144844
 30
0.0
 10
3.7638357258
 20
4.7582286732
 30
0.0
 10
3.7638357258
 20
4.7582384244
 30
0.0
  0
LINE
  5
50B
100
AcDbEntity
  8
0
100
AcDbLine
 62
7
  6
CONTINUOUS
 10
0.6587958238
 20
3.0789903343
 11
0.6593680514
 21
3.0790018442
  0
SPLINE
  5
50C
100
AcDbEntity
  8
0
100
AcDbSpline
 62
7
  6
CONTINUOUS
 70
0
 71
3
 72
15
 73
11
 74
0
 42
0.0000001
 43
0.0000001
 44
0.0000000001
 40
0.0
 40
0.0
 40
0.0
 40
0.0
 40
0.1164111315
 40
0.2351028337
 40
0.3565220563
 40
0.4808195938
 40
0.6078465343
 40
0.7371602216
 40
0.8681635531
 40
1.0
 40
1.0
 40
1.0
 40
1.0
 10
6.7622212648
 20
1.7446165618
 30
0.0
 10
6.762680403
 20
1.7444744903
 30
0.0
 10
6.76358285
 20
1.7441000914
 30
0.0
 10
6.7648261419
 20
1.7432988531
 30
0.0
 10
6.7659385648
 20
1.7422753477
 30
0.0
 10
6.7668905132
 20
1.7410579097
 30
0.0
 10
6.7676574655
 20
1.7396792779
 30
0.0
 10
6.7682199681
 20
1.7381760292
 30
0.0
 10
6.7685631545
 20
1.73658834
 30
0.0
 10
6.7686400789
 20
1.7355015997
 30
0.0
 10
6.7686400789
 20
1.7349572981
 30
0.0
  0
SPLINE
  5
50D
100
AcDbEntity
  8
0
100
AcDbSpline
 62
7
  6
CONTINUOUS
 70
0
 71
3
 72
21
 73
17
 74
0
 42
0.0000001
 43
0.0000001
 44
0.0000000001
 40
0.0
 40
0.0
 40
0.0
 40
0.0
 40
0.057972881
 40
0.116136827
 40
0.1746546279
 40
0.2336935098
 40
0.2933851939
 40
0.3538364434
 40
0.4151204595
 40
0.4772762668
 40
0.5403085578
 40
0.6041888749
 40
0.6688578473
 40
0.7342282823
 40
0.8664850843
 40
1.0
 40
1.0
 40
1.0
 40
1.0
 10
10.0130329141
 20
1.6357072981
 30
0.0
 10
10.0133163071
 20
1.6357072981
 30
0.0
 10
10.0138845488
 20
1.6357395837
 30
0.0
 10
10.0147277292
 20
1.6358842334
 30
0.0
 10
10.015554516
 20
1.6361237652
 30
0.0
 10
10.0163567271
 20
1.6364557099
 30
0.0
 10
10.0171266607
 20
1.6368768364
 30
0.0
 10
10.0178568879
 20
1.6373829781
 30
0.0
 10
10.0185404109
 20
1.6379691867
 30
0.0
 10
10.0191706991
 20
1.6386297485
 30
0.0
 10
10.0197417486
 20
1.6393582655
 30
0.0
 10
10.0202481201
 20
1.6401476867
 30
0.0
 10
10.0206850183
 20
1.6409904778
 30
0.0
 10
10.0211710673
 20
1.6421785751
 30
0.0
 10
10.0215828463
 20
1.6437528911
 30
0.0
 10
10.0216931682
 20
1.6450546276
 30
0.0
 10
10.0216931682
 20
1.6457072981
 30
0.0
  0
SPLINE
  5
50E
100
AcDbEntity
  8
0
100
AcDbSpline
 62
7
  6
CONTINUOUS
 70
0
 71
3
 72
21
 73
17
 74
0
 42
0.0000001
 43
0.0000001
 44
0.0000000001
 40
0.0
 40
0.0
 40
0.0
 40
0.0
 40
0.057972881
 40
0.116136827
 40
0.1746546279
 40
0.2336935098
 40
0.2933851939
 40
0.3538364434
 40
0.4151204595
 40
0.4772762668
 40
0.5403085578
 40
0.6041888749
 40
0.6688578473
 40
0.7342282823
 40
0.8664850843
 40
1.0
 40
1.0
 40
1.0
 40
1.0
 10
10.5456385375
 20
1.6357072981
 30
0.0
 10
10.5453551445
 20
1.6357072981
 30
0.0
 10
10.5447869027
 20
1.6357395837
 30
0.0
 10
10.5439437224
 20
1.6358842334
 30
0.0
 10
10.5431169356
 20
1.6361237652
 30
0.0
 10
10.5423147245
 20
1.6364557099
 30
0.0
 10
10.5415447909
 20
1.6368768364
 30
0.0
 10
10.5408145637
 20
1.6373829781
 30
0.0
 10
10.5401310407
 20
1.6379691867
 30
0.0
 10
10.5395007525
 20
1.6386297485
 30
0.0
 10
10.538929703
 20
1.6393582655
 30
0.0
 10
10.5384233315
 20
1.6401476867
 30
0.0
 10
10.5379864333
 20
1.6409904778
 30
0.0
 10
10.5375003842
 20
1.6421785751
 30
0.0
 10
10.5370886053
 20
1.6437528911
 30
0.0
 10
10.5369782834
 20
1.6450546276
 30
0.0
 10
10.5369782834
 20
1.6457072981
 30
0.0
  0
SPLINE
  5
50F
100
AcDbEntity
  8
0
100
AcDbSpline
 62
7
  6
CONTINUOUS
 70
0
 71
3
 72
21
 73
17
 74
0
 42
0.0000001
 43
0.0000001
 44
0.0000000001
 40
0.0
 40
0.0
 40
0.0
 40
0.0
 40
0.057972881
 40
0.116136827
 40
0.1746546279
 40
0.2336935098
 40
0.2933851939
 40
0.3538364434
 40
0.4151204595
 40
0.4772762668
 40
0.5403085578
 40
0.6041888749
 40
0.6688578473
 40
0.7342282823
 40
0.8664850843
 40
1.0
 40
1.0
 40
1.0
 40
1.0
 10
10.777300333
 20
1.6357072981
 30
0.0
 10
10.77701694
 20
1.6357072981
 30
0.0
 10
10.7764486983
 20
1.6357395837
 30
0.0
 10
10.7756055179
 20
1.6358842334
 30
0.0
 10
10.7747787311
 20
1.6361237652
 30
0.0
 10
10.77397652
 20
1.6364557099
 30
0.0
 10
10.7732065864
 20
1.6368768364
 30
0.0
 10
10.7724763592
 20
1.6373829781
 30
0.0
 10
10.7717928362
 20
1.6379691867
 30
0.0
 10
10.771162548
 20
1.6386297485
 30
0.0
 10
10.7705914985
 20
1.6393582655
 30
0.0
 10
10.770085127
 20
1.6401476867
 30
0.0
 10
10.7696482288
 20
1.6409904778
 30
0.0
 10
10.7691621798
 20
1.6421785751
 30
0.0
 10
10.7687504008
 20
1.6437528911
 30
0.0
 10
10.7686400789
 20
1.6450546276
 30
0.0
 10
10.7686400789
 20
1.6457072981
 30
0.0
  0
SPLINE
  5
510
100
AcDbEntity
  8
0
100
AcDbSpline
 62
7
  6
CONTINUOUS
 70
0
 71
3
 72
21
 73
17
 74
0
 42
0.0000001
 43
0.0000001
 44
0.0000000001
 40
0.0
 40
0.0
 40
0.0
 40
0.0
 40
0.057972881
 40
0.116136827
 40
0.1746546279
 40
0.2336935098
 40
0.2933851939
 40
0.3538364434
 40
0.4151204595
 40
0.4772762668
 40
0.5403085578
 40
0.6041888749
 40
0.6688578473
 40
0.7342282823
 40
0.8664850843
 40
1.0
 40
1.0
 40
1.0
 40
1.0
 10
9.7813711186
 20
1.6357072981
 30
0.0
 10
9.7816545116
 20
1.6357072981
 30
0.0
 10
9.7822227533
 20
1.6357395837
 30
0.0
 10
9.7830659337
 20
1.6358842334
 30
0.0
 10
9.7838927205
 20
1.6361237652
 30
0.0
 10
9.7846949316
 20
1.6364557099
 30
0.0
 10
9.7854648652
 20
1.6368768364
 30
0.0
 10
9.7861950924
 20
1.6373829781
 30
0.0
 10
9.7868786154
 20
1.6379691867
 30
0.0
 10
9.7875089036
 20
1.6386297485
 30
0.0
 10
9.7880799531
 20
1.6393582655
 30
0.0
 10
9.7885863246
 20
1.6401476867
 30
0.0
 10
9.7890232228
 20
1.6409904778
 30
0.0
 10
9.7895092718
 20
1.6421785751
 30
0.0
 10
9.7899210508
 20
1.6437528911
 30
0.0
 10
9.7900313727
 20
1.6450546276
 30
0.0
 10
9.7900313727
 20
1.6457072981
 30
0.0
  0
SPLINE
  5
511
100
AcDbEntity
  8
0
100
AcDbSpline
 62
7
  6
CONTINUOUS
 70
0
 71
3
 72
21
 73
17
 74
0
 42
0.0000001
 43
0.0000001
 44
0.0000000001
 40
0.0
 40
0.0
 40
0.0
 40
0.0
 40
0.057972881
 40
0.116136827
 40
0.1746546279
 40
0.2336935097
 40
0.2933851939
 40
0.3538364434
 40
0.4151204595
 40
0.4772762667
 40
0.5403085577
 40
0.6041888748
 40
0.6688578473
 40
0.7342282822
 40
0.8664850842
 40
1.0
 40
1.0
 40
1.0
 40
1.0
 10
10.0303534222
 20
1.7449572981
 30
0.0
 10
10.0300700292
 20
1.7449572981
 30
0.0
 10
10.0295017875
 20
1.7449250125
 30
0.0
 10
10.0286586072
 20
1.7447803629
 30
0.0
 10
10.0278318203
 20
1.744540831
 30
0.0
 10
10.0270296092
 20
1.7442088864
 30
0.0
 10
10.0262596756
 20
1.7437877599
 30
0.0
 10
10.0255294484
 20
1.7432816182
 30
0.0
 10
10.0248459254
 20
1.7426954096
 30
0.0
 10
10.0242156372
 20
1.7420348478
 30
0.0
 10
10.0236445877
 20
1.7413063307
 30
0.0
 10
10.0231382162
 20
1.7405169096
 30
0.0
 10
10.022701318
 20
1.7396741184
 30
0.0
 10
10.022215269
 20
1.7384860211
 30
0.0
 10
10.0218034901
 20
1.7369117051
 30
0.0
 10
10.0216931681
 20
1.7356099687
 30
0.0
 10
10.0216931681
 20
1.7349572981
 30
0.0
  0
SPLINE
  5
512
100
AcDbEntity
  8
0
100
AcDbSpline
 62
7
  6
CONTINUOUS
 70
0
 71
3
 72
29
 73
25
 74
0
 42
0.0000001
 43
0.0000001
 44
0.0000000001
 40
0.0
 40
0.0
 40
0.0
 40
0.0
 40
0.1946978744
 40
0.289696362
 40
0.3819139536
 40
0.4704563031
 40
0.5544727004
 40
0.6331566397
 40
0.7057514974
 40
0.7715597875
 40
0.8299514078
 40
0.8803690098
 40
0.9223336004
 40
0.9400193189
 40
0.95545311
 40
0.9686006977
 40
0.9794356977
 40
0.9839818527
 40
0.9879459389
 40
0.9913285391
 40
0.994133095
 40
0.9963684646
 40
0.9980537213
 40
1.0
 40
1.0
 40
1.0
 40
1.0
 10
4.7798357258
 20
4.7577695507
 30
0.0
 10
4.7808112011
 20
4.7577695507
 30
0.0
 10
4.7822626436
 20
4.7577739255
 30
0.0
 10
4.7841760532
 20
4.7577888262
 30
0.0
 10
4.7855575755
 20
4.7578041947
 30
0.0
 10
4.7868840177
 20
4.7578236905
 30
0.0
 10
4.7881425793
 20
4.757847118
 30
0.0
 10
4.7893211476
 20
4.7578742392
 30
0.0
 10
4.7904083742
 20
4.7579047744
 30
0.0
 10
4.7913937883
 20
4.7579384076
 30
0.0
 10
4.792267913
 20
4.7579747562
 30
0.0
 10
4.7930223407
 20
4.7580134374
 30
0.0
 10
4.793572695
 20
4.7580488474
 30
0.0
 10
4.7939476834
 20
4.758078944
 30
0.0
 10
4.7941784932
 20
4.7581005245
 30
0.0
 10
4.7943747798
 20
4.7581223492
 30
0.0
 10
4.7945164375
 20
4.7581415783
 30
0.0
 10
4.7946120625
 20
4.7581574886
 30
0.0
 10
4.7946705676
 20
4.7581687178
 30
0.0
 10
4.7947202356
 20
4.7581800036
 30
0.0
 10
4.7947607818
 20
4.7581911157
 30
0.0
 10
4.7947930204
 20
4.7582025905
 30
0.0
 10
4.7948184472
 20
4.7582144844
 30
0.0
 10
4.7948357258
 20
4.7582286732
 30
0.0
 10
4.7948357258
 20
4.7582384244
 30
0.0
  0
SPLINE
  5
513
100
AcDbEntity
  8
0
100
AcDbSpline
 62
7
  6
CONTINUOUS
 70
0
 71
3
 72
29
 73
25
 74
0
 42
0.0000001
 43
0.0000001
 44
0.0000000001
 40
0.0
 40
0.0
 40
0.0
 40
0.0
 40
0.1946978744
 40
0.289696362
 40
0.3819139536
 40
0.4704563031
 40
0.5544727004
 40
0.6331566397
 40
0.7057514974
 40
0.7715597875
 40
0.8299514078
 40
0.8803690098
 40
0.9223336004
 40
0.9400193189
 40
0.95545311
 40
0.9686006977
 40
0.9794356977
 40
0.9839818527
 40
0.9879459389
 40
0.9913285391
 40
0.994133095
 40
0.9963684646
 40
0.9980537213
 40
1.0
 40
1.0
 40
1.0
 40
1.0
 10
4.7798357258
 20
4.2837122759
 30
0.0
 10
4.7808112011
 20
4.2837122759
 30
0.0
 10
4.7822626436
 20
4.2837166507
 30
0.0
 10
4.7841760532
 20
4.2837315513
 30
0.0
 10
4.7855575755
 20
4.2837469198
 30
0.0
 10
4.7868840177
 20
4.2837664156
 30
0.0
 10
4.7881425793
 20
4.2837898431
 30
0.0
 10
4.7893211476
 20
4.2838169643
 30
0.0
 10
4.7904083742
 20
4.2838474995
 30
0.0
 10
4.7913937883
 20
4.2838811327
 30
0.0
 10
4.792267913
 20
4.2839174813
 30
0.0
 10
4.7930223407
 20
4.2839561625
 30
0.0
 10
4.793572695
 20
4.2839915726
 30
0.0
 10
4.7939476834
 20
4.2840216691
 30
0.0
 10
4.7941784932
 20
4.2840432496
 30
0.0
 10
4.7943747798
 20
4.2840650743
 30
0.0
 10
4.7945164375
 20
4.2840843034
 30
0.0
 10
4.7946120625
 20
4.2841002137
 30
0.0
 10
4.7946705676
 20
4.2841114429
 30
0.0
 10
4.7947202356
 20
4.2841227287
 30
0.0
 10
4.7947607818
 20
4.2841338408
 30
0.0
 10
4.7947930204
 20
4.2841453156
 30
0.0
 10
4.7948184472
 20
4.2841572095
 30
0.0
 10
4.7948357258
 20
4.2841713983
 30
0.0
 10
4.7948357258
 20
4.2841811496
 30
0.0
  0
SPLINE
  5
514
100
AcDbEntity
  8
0
100
AcDbSpline
 62
7
  6
CONTINUOUS
 70
0
 71
3
 72
15
 73
11
 74
0
 42
0.0000001
 43
0.0000001
 44
0.0000000001
 40
0.0
 40
0.0
 40
0.0
 40
0.0
 40
0.1245100961
 40
0.2490909427
 40
0.3738190442
 40
0.4987293442
 40
0.623834292
 40
0.7491161454
 40
0.8745231892
 40
1.0
 40
1.0
 40
1.0
 40
1.0
 10
7.9067038257
 20
3.0917458491
 30
0.0
 10
7.9070346235
 20
3.0917747901
 30
0.0
 10
7.9076924602
 20
3.091900292
 30
0.0
 10
7.9086200537
 20
3.0922830729
 30
0.0
 10
7.9094531372
 20
3.0928450459
 30
0.0
 10
7.910157582
 20
3.0935634892
 30
0.0
 10
7.9107052016
 20
3.0944093167
 30
0.0
 10
7.9110738893
 20
3.095348557
 30
0.0
 10
7.9112489852
 20
3.0963428501
 30
0.0
 10
7.911231785
 20
3.0970169852
 30
0.0
 10
7.9111900152
 20
3.0973490077
 30
0.0
  0
SPLINE
  5
515
100
AcDbEntity
  8
0
100
AcDbSpline
 62
7
  6
CONTINUOUS
 70
0
 71
3
 72
21
 73
17
 74
0
 42
0.0000001
 43
0.0000001
 44
0.0000000001
 40
0.0
 40
0.0
 40
0.0
 40
0.0
 40
0.057972881
 40
0.116136827
 40
0.1746546279
 40
0.2336935098
 40
0.2933851939
 40
0.3538364434
 40
0.4151204595
 40
0.4772762668
 40
0.5403085578
 40
0.6041888749
 40
0.6688578473
 40
0.7342282823
 40
0.8664850843
 40
1.0
 40
1.0
 40
1.0
 40
1.0
 10
10.5283180294
 20
1.7449572981
 30
0.0
 10
10.5286014224
 20
1.7449572981
 30
0.0
 10
10.5291696641
 20
1.7449250125
 30
0.0
 10
10.5300128444
 20
1.7447803629
 30
0.0
 10
10.5308396312
 20
1.744540831
 30
0.0
 10
10.5316418424
 20
1.7442088864
 30
0.0
 10
10.5324117759
 20
1.7437877599
 30
0.0
 10
10.5331420032
 20
1.7432816182
 30
0.0
 10
10.5338255262
 20
1.7426954096
 30
0.0
 10
10.5344558144
 20
1.7420348478
 30
0.0
 10
10.5350268639
 20
1.7413063307
 30
0.0
 10
10.5355332354
 20
1.7405169096
 30
0.0
 10
10.5359701336
 20
1.7396741184
 30
0.0
 10
10.5364561826
 20
1.7384860211
 30
0.0
 10
10.5368679615
 20
1.7369117051
 30
0.0
 10
10.5369782834
 20
1.7356099687
 30
0.0
 10
10.5369782834
 20
1.7349572981
 30
0.0
  0
SPLINE
  5
516
100
AcDbEntity
  8
0
100
AcDbSpline
 62
7
  6
CONTINUOUS
 70
0
 71
3
 72
16
 73
12
 74
0
 42
0.0000001
 43
0.0000001
 44
0.0000000001
 40
0.0
 40
0.0
 40
0.0
 40
0.0
 40
0.1163271458
 40
0.2348904872
 40
0.3561967965
 40
0.4804294863
 40
0.6074502314
 40
0.7368342533
 40
0.80225871
 40
0.8680108055
 40
1.0
 40
1.0
 40
1.0
 40
1.0
 10
10.7620523593
 20
1.7446667163
 30
0.0
 10
10.7625208715
 20
1.744533368
 30
0.0
 10
10.7634433989
 20
1.7441732504
 30
0.0
 10
10.7647175092
 20
1.7433832935
 30
0.0
 10
10.7658596143
 20
1.7423619264
 30
0.0
 10
10.7668383233
 20
1.7411381888
 30
0.0
 10
10.7676277603
 20
1.7397462458
 30
0.0
 10
10.7681089597
 20
1.7384816091
 30
0.0
 10
10.7683826198
 20
1.737424504
 30
0.0
 10
10.7685804672
 20
1.736339684
 30
0.0
 10
10.7686400789
 20
1.7355100024
 30
0.0
 10
10.7686400789
 20
1.7349572981
 30
0.0
  0
SPLINE
  5
517
100
AcDbEntity
  8
0
100
AcDbSpline
 62
7
  6
CONTINUOUS
 70
0
 71
3
 72
16
 73
12
 74
0
 42
0.0000001
 43
0.0000001
 44
0.0000000001
 40
0.0
 40
0.0
 40
0.0
 40
0.0
 40
0.1163271458
 40
0.2348904872
 40
0.3561967964
 40
0.4804294862
 40
0.6074502313
 40
0.7368342532
 40
0.8022587099
 40
0.8680108053
 40
1.0
 40
1.0
 40
1.0
 40
1.0
 10
9.7966190922
 20
1.7446667163
 30
0.0
 10
9.7961505801
 20
1.744533368
 30
0.0
 10
9.7952280526
 20
1.7441732504
 30
0.0
 10
9.7939539424
 20
1.7433832935
 30
0.0
 10
9.7928118373
 20
1.7423619264
 30
0.0
 10
9.7918331283
 20
1.7411381888
 30
0.0
 10
9.7910436913
 20
1.7397462458
 30
0.0
 10
9.7905624919
 20
1.7384816091
 30
0.0
 10
9.7902888318
 20
1.737424504
 30
0.0
 10
9.7900909844
 20
1.736339684
 30
0.0
 10
9.7900313727
 20
1.7355100024
 30
0.0
 10
9.7900313727
 20
1.7349572981
 30
0.0
  0
SPLINE
  5
518
100
AcDbEntity
  8
0
100
AcDbSpline
 62
7
  6
CONTINUOUS
 70
0
 71
3
 72
12
 73
8
 74
0
 42
0.0000001
 43
0.0000001
 44
0.0000000001
 40
0.0
 40
0.0
 40
0.0
 40
0.0
 40
0.0262444744
 40
0.0768162648
 40
0.2647405929
 40
0.5722026236
 40
1.0
 40
1.0
 40
1.0
 40
1.0
 10
7.9112294141
 20
3.09734713
 30
0.0
 10
7.9112293678
 20
3.0973474757
 30
0.0
 10
7.9112283849
 20
3.0973481688
 30
0.0
 10
7.911225066
 20
3.0973489088
 30
0.0
 10
7.9112176871
 20
3.0973494729
 30
0.0
 10
7.9112054909
 20
3.0973495017
 30
0.0
 10
7.9111956967
 20
3.097349224
 30
0.0
 10
7.9111900152
 20
3.0973490077
 30
0.0
  0
SPLINE
  5
519
100
AcDbEntity
  8
0
100
AcDbSpline
 62
7
  6
CONTINUOUS
 70
0
 71
3
 72
31
 73
27
 74
0
 42
0.0000001
 43
0.0000001
 44
0.0000000001
 40
0.0
 40
0.0
 40
0.0
 40
0.0
 40
0.0119540076
 40
0.0242931986
 40
0.0373598665
 40
0.0514403352
 40
0.0667561574
 40
0.0834681687
 40
0.1016889273
 40
0.1214923294
 40
0.1429225551
 40
0.1660004055
 40
0.1907281122
 40
0.2170934037
 40
0.2450712978
 40
0.2746272263
 40
0.3057171149
 40
0.3382901506
 40
0.4076429331
 40
0.4821600013
 40
0.5612338164
 40
0.6441949362
 40
0.7303238406
 40
0.818862679
 40
0.9090228257
 40
1.0
 40
1.0
 40
1.0
 40
1.0
 10
4.3682681094
 20
4.7887072981
 30
0.0
 10
4.3680147997
 20
4.7887072981
 30
0.0
 10
4.3674987985
 20
4.7887565736
 30
0.0
 10
4.3667340362
 20
4.7889757977
 30
0.0
 10
4.365976132
 20
4.7893384257
 30
0.0
 10
4.3652270097
 20
4.7898416753
 30
0.0
 10
4.3644875004
 20
4.7904833892
 30
0.0
 10
4.3637585135
 20
4.7912616615
 30
0.0
 10
4.363041193
 20
4.7921746762
 30
0.0
 10
4.3623368196
 20
4.7932203777
 30
0.0
 10
4.3616468408
 20
4.7943964512
 30
0.0
 10
4.3609727799
 20
4.7957002445
 30
0.0
 10
4.3603161671
 20
4.797128761
 30
0.0
 10
4.3596785722
 20
4.7986786844
 30
0.0
 10
4.3590614798
 20
4.8003463658
 30
0.0
 10
4.3584664198
 20
4.8021278662
 30
0.0
 10
4.3578947653
 20
4.8040189453
 30
0.0
 10
4.3571500935
 20
4.8067377248
 30
0.0
 10
4.3562942652
 20
4.8103787513
 30
0.0
 10
4.3554007296
 20
4.8150188252
 30
0.0
 10
4.3546292399
 20
4.819972705
 30
0.0
 10
4.3539873802
 20
4.8251928957
 30
0.0
 10
4.3534814865
 20
4.8306293975
 30
0.0
 10
4.3531165448
 20
4.8362300096
 30
0.0
 10
4.35289613
 20
4.8419409095
 30
0.0
 10
4.3528470642
 20
4.8457794592
 30
0.0
 10
4.3528470642
 20
4.8477072981
 30
0.0
  0
LINE
  5
51A
100
AcDbEntity
  8
0
100
AcDbLine
 62
7
  6
CONTINUOUS
 10
0.6587958239
 20
3.0859242643
 11
0.6593680514
 21
3.0859127522
  0
LINE
  5
51B
100
AcDbEntity
  8
0
100
AcDbLine
 62
7
  6
CONTINUOUS
 10
7.8998756301
 20
3.085924262
 11
7.8993034002
 21
3.0859127521
  0
LINE
  5
51C
100
AcDbEntity
  8
0
100
AcDbLine
 62
7
  6
CONTINUOUS
 10
7.89987563
 20
3.0789903319
 11
7.8993034002
 21
3.0790018441
  0
LINE
  5
51D
100
AcDbEntity
  8
0
100
AcDbLine
 62
7
  6
CONTINUOUS
 10
6.3877968363
 20
3.3949572981
 11
6.2793357258
 21
3.3945193924
  0
SPLINE
  5
51E
100
AcDbEntity
  8
0
100
AcDbSpline
 62
7
  6
CONTINUOUS
 70
0
 71
3
 72
15
 73
11
 74
0
 42
0.0000001
 43
0.0000001
 44
0.0000000001
 40
0.0
 40
0.0
 40
0.0
 40
0.0
 40
0.1205640766
 40
0.2424462393
 40
0.3657837659
 40
0.4905750003
 40
0.6166854887
 40
0.7438659333
 40
0.8717701728
 40
1.0
 40
1.0
 40
1.0
 40
1.0
 10
7.9006933047
 20
3.0733259785
 30
0.0
 10
7.9009032614
 20
3.0732110205
 30
0.0
 10
7.901307379
 20
3.0729450416
 30
0.0
 10
7.9018454596
 20
3.072453122
 30
0.0
 10
7.9023066516
 20
3.0718775834
 30
0.0
 10
7.9026801283
 20
3.0712320687
 30
0.0
 10
7.902957417
 20
3.0705316442
 30
0.0
 10
7.90313217
 20
3.0697925604
 30
0.0
 10
7.9032004729
 20
3.0690321492
 30
0.0
 10
7.9031739501
 20
3.0685223046
 30
0.0
 10
7.9031428233
 20
3.0682696267
 30
0.0
  0
SPLINE
  5
51F
100
AcDbEntity
  8
0
100
AcDbSpline
 62
7
  6
CONTINUOUS
 70
0
 71
3
 72
12
 73
8
 74
0
 42
0.0000001
 43
0.0000001
 44
0.0000000001
 40
0.0
 40
0.0
 40
0.0
 40
0.0
 40
0.0262468483
 40
0.0768215309
 40
0.2647487432
 40
0.5722090522
 40
1.0
 40
1.0
 40
1.0
 40
1.0
 10
7.9112294141
 20
3.0675674662
 30
0.0
 10
7.9112293677
 20
3.0675671204
 30
0.0
 10
7.9112283847
 20
3.0675664275
 30
0.0
 10
7.9112250657
 20
3.0675656874
 30
0.0
 10
7.9112176868
 20
3.0675651234
 30
0.0
 10
7.9112054907
 20
3.0675650946
 30
0.0
 10
7.9111956966
 20
3.0675653723
 30
0.0
 10
7.9111900152
 20
3.0675655886
 30
0.0
  0
SPLINE
  5
520
100
AcDbEntity
  8
0
100
AcDbSpline
 62
7
  6
CONTINUOUS
 70
0
 71
3
 72
19
 73
15
 74
0
 42
0.0000001
 43
0.0000001
 44
0.0000000001
 40
0.0
 40
0.0
 40
0.0
 40
0.0
 40
0.0579648407
 40
0.1161721809
 40
0.1747184325
 40
0.2337681646
 40
0.3537826831
 40
0.4771081368
 40
0.5401604324
 40
0.604061542
 40
0.6687537101
 40
0.7341426941
 40
0.8664437081
 40
1.0
 40
1.0
 40
1.0
 40
1.0
 10
6.5283180294
 20
1.7449572981
 30
0.0
 10
6.5286012918
 20
1.7449572981
 30
0.0
 10
6.5291695136
 20
1.7449248765
 30
0.0
 10
6.5300127487
 20
1.74478044
 30
0.0
 10
6.5308397019
 20
1.7445407856
 30
0.0
 10
6.5319145111
 20
1.744096162
 30
0.0
 10
6.5331802037
 20
1.7433106257
 30
0.0
 10
6.5342714528
 20
1.7422701999
 30
0.0
 10
6.5350267704
 20
1.741306343
 30
0.0
 10
6.5355332862
 20
1.7405169075
 30
0.0
 10
6.5359700564
 20
1.7396740726
 30
0.0
 10
6.5364562415
 20
1.7384860207
 30
0.0
 10
6.5368679437
 20
1.736911689
 30
0.0
 10
6.5369782834
 20
1.7356099605
 30
0.0
 10
6.5369782834
 20
1.7349572981
 30
0.0
  0
SPLINE
  5
521
100
AcDbEntity
  8
0
100
AcDbSpline
 62
7
  6
CONTINUOUS
 70
0
 71
3
 72
15
 73
11
 74
0
 42
0.0000001
 43
0.0000001
 44
0.0000000001
 40
0.0
 40
0.0
 40
0.0
 40
0.0
 40
0.1205640766
 40
0.2424462393
 40
0.3657837659
 40
0.4905750003
 40
0.6166854887
 40
0.7438659333
 40
0.8717701728
 40
1.0
 40
1.0
 40
1.0
 40
1.0
 10
0.6579781469
 20
3.0915886177
 30
0.0
 10
0.6577681902
 20
3.0917035758
 30
0.0
 10
0.6573640726
 20
3.0919695547
 30
0.0
 10
0.656825992
 20
3.0924614743
 30
0.0
 10
0.6563648
 20
3.0930370129
 30
0.0
 10
0.6559913233
 20
3.0936825276
 30
0.0
 10
0.6557140345
 20
3.0943829521
 30
0.0
 10
0.6555392816
 20
3.0951220359
 30
0.0
 10
0.6554709787
 20
3.0958824471
 30
0.0
 10
0.6554975015
 20
3.0963922917
 30
0.0
 10
0.6555286283
 20
3.0966449696
 30
0.0
  0
SPLINE
  5
522
100
AcDbEntity
  8
0
100
AcDbSpline
 62
7
  6
CONTINUOUS
 70
0
 71
3
 72
12
 73
8
 74
0
 42
0.0000001
 43
0.0000001
 44
0.0000000001
 40
0.0
 40
0.0
 40
0.0
 40
0.0
 40
0.0262468483
 40
0.0768215309
 40
0.2647487433
 40
0.5722090521
 40
1.0
 40
1.0
 40
1.0
 40
1.0
 10
0.6474420375
 20
3.0973471301
 30
0.0
 10
0.6474420839
 20
3.0973474758
 30
0.0
 10
0.6474430669
 20
3.0973481688
 30
0.0
 10
0.6474463859
 20
3.0973489089
 30
0.0
 10
0.6474537648
 20
3.0973494729
 30
0.0
 10
0.6474659609
 20
3.0973495017
 30
0.0
 10
0.647475755
 20
3.097349224
 30
0.0
 10
0.6474814364
 20
3.0973490077
 30
0.0
  0
SPLINE
  5
523
100
AcDbEntity
  8
0
100
AcDbSpline
 62
7
  6
CONTINUOUS
 70
0
 71
3
 72
10
 73
6
 74
0
 42
0.0000001
 43
0.0000001
 44
0.0000000001
 40
0.0
 40
0.0
 40
0.0
 40
0.0
 40
0.3191588125
 40
0.6101093131
 40
1.0
 40
1.0
 40
1.0
 40
1.0
 10
7.9031829468
 20
3.0369266578
 30
0.0
 10
7.903181264
 20
3.0369225756
 30
0.0
 10
7.9031708201
 20
3.0369204031
 30
0.0
 10
7.9031578025
 20
3.0369203633
 30
0.0
 10
7.9031481796
 20
3.0369212065
 30
0.0
 10
7.9031428233
 20
3.0369218432
 30
0.0
  0
LINE
  5
524
100
AcDbEntity
  8
0
100
AcDbLine
 62
7
  6
CONTINUOUS
 10
2.2793357258
 20
3.3945193924
 11
2.1708746153
 21
3.3949572981
  0
SPLINE
  5
525
100
AcDbEntity
  8
0
100
AcDbSpline
 62
7
  6
CONTINUOUS
 70
0
 71
3
 72
22
 73
18
 74
0
 42
0.0000001
 43
0.0000001
 44
0.0000000001
 40
0.0
 40
0.0
 40
0.0
 40
0.0
 40
0.0579656624
 40
0.1161224185
 40
0.1746329832
 40
0.2336645688
 40
0.2933488643
 40
0.3537926169
 40
0.4150690332
 40
0.4772171304
 40
0.5402416114
 40
0.6041140475
 40
0.6687750736
 40
0.7341374073
 40
0.800091168
 40
0.8665022997
 40
1.0
 40
1.0
 40
1.0
 40
1.0
 10
4.6170856333
 20
5.1949572981
 30
0.0
 10
4.6176524194
 20
5.1949572981
 30
0.0
 10
4.6187889037
 20
5.1948927268
 30
0.0
 10
4.6204752658
 20
5.1946034271
 30
0.0
 10
4.6221288413
 20
5.1941243624
 30
0.0
 10
4.6237332651
 20
5.193460472
 30
0.0
 10
4.6252731335
 20
5.1926182175
 30
0.0
 10
4.6267335885
 20
5.1916059321
 30
0.0
 10
4.6281006347
 20
5.1904335136
 30
0.0
 10
4.6293612119
 20
5.1891123868
 30
0.0
 10
4.6305033094
 20
5.1876553554
 30
0.0
 10
4.6315160595
 20
5.1860764918
 30
0.0
 10
4.6323898296
 20
5.1843909758
 30
0.0
 10
4.6331163277
 20
5.1826150931
 30
0.0
 10
4.633688643
 20
5.1807655842
 30
0.0
 10
4.6342397691
 20
5.1782228354
 30
0.0
 10
4.6344061414
 20
5.1762626338
 30
0.0
 10
4.6344061414
 20
5.1749572981
 30
0.0
  0
SPLINE
  5
526
100
AcDbEntity
  8
0
100
AcDbSpline
 62
7
  6
CONTINUOUS
 70
0
 71
3
 72
22
 73
18
 74
0
 42
0.0000001
 43
0.0000001
 44
0.0000000001
 40
0.0
 40
0.0
 40
0.0
 40
0.0
 40
0.0579656624
 40
0.1161224186
 40
0.1746329832
 40
0.2336645689
 40
0.2933488644
 40
0.353792617
 40
0.4150690333
 40
0.4772171305
 40
0.5402416115
 40
0.6041140476
 40
0.6687750738
 40
0.7341374074
 40
0.8000911681
 40
0.8665022999
 40
1.0
 40
1.0
 40
1.0
 40
1.0
 10
4.4482106795
 20
5.1949572981
 30
0.0
 10
4.4487774657
 20
5.1949572981
 30
0.0
 10
4.4499139499
 20
5.1948927268
 30
0.0
 10
4.4516003121
 20
5.1946034271
 30
0.0
 10
4.4532538875
 20
5.1941243624
 30
0.0
 10
4.4548583114
 20
5.193460472
 30
0.0
 10
4.4563981797
 20
5.1926182175
 30
0.0
 10
4.4578586347
 20
5.1916059321
 30
0.0
 10
4.459225681
 20
5.1904335136
 30
0.0
 10
4.4604862582
 20
5.1891123868
 30
0.0
 10
4.4616283556
 20
5.1876553554
 30
0.0
 10
4.4626411057
 20
5.1860764918
 30
0.0
 10
4.4635148758
 20
5.1843909758
 30
0.0
 10
4.464241374
 20
5.1826150931
 30
0.0
 10
4.4648136892
 20
5.1807655842
 30
0.0
 10
4.4653648154
 20
5.1782228354
 30
0.0
 10
4.4655311876
 20
5.1762626338
 30
0.0
 10
4.4655311876
 20
5.1749572981
 30
0.0
  0
SPLINE
  5
527
100
AcDbEntity
  8
0
100
AcDbSpline
 62
7
  6
CONTINUOUS
 70
0
 71
3
 72
22
 73
18
 74
0
 42
0.0000001
 43
0.0000001
 44
0.0000000001
 40
0.0
 40
0.0
 40
0.0
 40
0.0
 40
0.0579656624
 40
0.1161224186
 40
0.1746329832
 40
0.2336645689
 40
0.2933488644
 40
0.353792617
 40
0.4150690333
 40
0.4772171305
 40
0.5402416115
 40
0.6041140477
 40
0.6687750738
 40
0.7341374075
 40
0.8000911682
 40
0.8665023
 40
1.0
 40
1.0
 40
1.0
 40
1.0
 10
4.1104607721
 20
5.1949572981
 30
0.0
 10
4.1098939859
 20
5.1949572981
 30
0.0
 10
4.1087575017
 20
5.1948927268
 30
0.0
 10
4.1070711395
 20
5.1946034271
 30
0.0
 10
4.1054175641
 20
5.1941243624
 30
0.0
 10
4.1038131402
 20
5.193460472
 30
0.0
 10
4.1022732719
 20
5.1926182175
 30
0.0
 10
4.1008128169
 20
5.1916059321
 30
0.0
 10
4.0994457706
 20
5.1904335136
 30
0.0
 10
4.0981851934
 20
5.1891123868
 30
0.0
 10
4.097043096
 20
5.1876553554
 30
0.0
 10
4.0960303459
 20
5.1860764918
 30
0.0
 10
4.0951565758
 20
5.1843909758
 30
0.0
 10
4.0944300776
 20
5.1826150931
 30
0.0
 10
4.0938577624
 20
5.1807655842
 30
0.0
 10
4.0933066361
 20
5.1782228354
 30
0.0
 10
4.093140264
 20
5.1762626338
 30
0.0
 10
4.093140264
 20
5.1749572981
 30
0.0
  0
SPLINE
  5
528
100
AcDbEntity
  8
0
100
AcDbSpline
 62
7
  6
CONTINUOUS
 70
0
 71
3
 72
18
 73
14
 74
0
 42
0.0000001
 43
0.0000001
 44
0.0000000001
 40
0.0
 40
0.0
 40
0.0
 40
0.0
 40
0.1252432788
 40
0.2504667658
 40
0.3756493498
 40
0.5007682207
 40
0.6257974694
 40
0.6882687114
 40
0.7507053781
 40
0.8131032376
 40
0.8754578731
 40
0.9377600175
 40
1.0
 40
1.0
 40
1.0
 40
1.0
 10
6.2793357258
 20
2.7737168895
 30
0.0
 10
6.2870362259
 20
2.7737171272
 30
0.0
 10
6.3024361245
 20
2.7736285318
 30
0.0
 10
6.3255300348
 20
2.773258704
 30
0.0
 10
6.3486122526
 20
2.7726954426
 30
0.0
 10
6.3716791637
 20
2.7720133989
 30
0.0
 10
6.3908909884
 20
2.7714133095
 30
0.0
 10
6.4062515123
 20
2.7709594436
 30
0.0
 10
6.4177635945
 20
2.7706446241
 30
0.0
 10
6.4292695291
 20
2.7703692273
 30
0.0
 10
6.4407683534
 20
2.7701462039
 30
0.0
 10
6.4522586776
 20
2.7699954802
 30
0.0
 10
6.4599160999
 20
2.7699573008
 30
0.0
 10
6.463742884
 20
2.7699572981
 30
0.0
  0
SPLINE
  5
529
100
AcDbEntity
  8
0
100
AcDbSpline
 62
7
  6
CONTINUOUS
 70
0
 71
3
 72
20
 73
16
 74
0
 42
0.0000001
 43
0.0000001
 44
0.0000000001
 40
0.0
 40
0.0
 40
0.0
 40
0.0
 40
0.0622394938
 40
0.1245416265
 40
0.1868973169
 40
0.2492962502
 40
0.3117329294
 40
0.3742038525
 40
0.4992326459
 40
0.6243511776
 40
0.686935843
 40
0.749533703
 40
0.8121416993
 40
0.8747571425
 40
1.0
 40
1.0
 40
1.0
 40
1.0
 10
2.0949285676
 20
2.7699572981
 30
0.0
 10
2.0987553237
 20
2.7699573155
 30
0.0
 10
2.1064127189
 20
2.769995259
 30
0.0
 10
2.1179030916
 20
2.7701454552
 30
0.0
 10
2.1294020443
 20
2.7703689618
 30
0.0
 10
2.1409081
 20
2.7706450123
 30
0.0
 10
2.1524202433
 20
2.7709595305
 30
0.0
 10
2.1677807265
 20
2.7714134891
 30
0.0
 10
2.1869925073
 20
2.7720129231
 30
0.0
 10
2.2062122505
 20
2.7725822658
 30
0.0
 10
2.2215968052
 20
2.7729774293
 30
0.0
 10
2.233140164
 20
2.7732339078
 30
0.0
 10
2.244686386
 20
2.7734431378
 30
0.0
 10
2.2600847893
 20
2.7736501371
 30
0.0
 10
2.2716352476
 20
2.7737172851
 30
0.0
 10
2.2793357258
 20
2.7737168895
 30
0.0
  0
SPLINE
  5
52A
100
AcDbEntity
  8
0
100
AcDbSpline
 62
7
  6
CONTINUOUS
 70
0
 71
3
 72
10
 73
6
 74
0
 42
0.0000001
 43
0.0000001
 44
0.0000000001
 40
0.0
 40
0.0
 40
0.0
 40
0.0
 40
0.3191588125
 40
0.6101093131
 40
1.0
 40
1.0
 40
1.0
 40
1.0
 10
0.6554885048
 20
3.1279879384
 30
0.0
 10
0.6554901876
 20
3.1279920206
 30
0.0
 10
0.6555006315
 20
3.1279941932
 30
0.0
 10
0.6555136491
 20
3.1279942329
 30
0.0
 10
0.655523272
 20
3.1279933898
 30
0.0
 10
0.6555286283
 20
3.127992753
 30
0.0
  0
SPLINE
  5
52B
100
AcDbEntity
  8
0
100
AcDbSpline
 62
7
  6
CONTINUOUS
 70
0
 71
3
 72
15
 73
11
 74
0
 42
0.0000001
 43
0.0000001
 44
0.0000000001
 40
0.0
 40
0.0
 40
0.0
 40
0.0
 40
0.1205641278
 40
0.2424463434
 40
0.3657839097
 40
0.4905751611
 40
0.61668564
 40
0.74386605
 40
0.8717702363
 40
1.0
 40
1.0
 40
1.0
 40
1.0
 10
0.6579780843
 20
3.0733259442
 30
0.0
 10
0.6577681318
 20
3.0732109841
 30
0.0
 10
0.657364023
 20
3.0729450023
 30
0.0
 10
0.6568259549
 20
3.0724530816
 30
0.0
 10
0.6563647744
 20
3.0718775449
 30
0.0
 10
0.6559913075
 20
3.0712320349
 30
0.0
 10
0.6557140265
 20
3.0705316171
 30
0.0
 10
0.6555392791
 20
3.0697925416
 30
0.0
 10
0.655470979
 20
3.0690321396
 30
0.0
 10
0.6554975019
 20
3.0685223015
 30
0.0
 10
0.6555286283
 20
3.0682696267
 30
0.0
  0
SPLINE
  5
52C
100
AcDbEntity
  8
0
100
AcDbSpline
 62
7
  6
CONTINUOUS
 70
0
 71
3
 72
15
 73
11
 74
0
 42
0.0000001
 43
0.0000001
 44
0.0000000001
 40
0.0
 40
0.0
 40
0.0
 40
0.0
 40
0.124501041
 40
0.2491146329
 40
0.3738795928
 40
0.4988192
 40
0.6239335998
 40
0.7492010245
 40
0.8745711742
 40
1.0
 40
1.0
 40
1.0
 40
1.0
 10
0.6512667327
 20
3.0918585499
 30
0.0
 10
0.650972123
 20
3.0919280121
 30
0.0
 10
0.6503940993
 20
3.0921220449
 30
0.0
 10
0.6495957834
 20
3.0925668874
 30
0.0
 10
0.6488912301
 20
3.093151071
 30
0.0
 10
0.6483044031
 20
3.0938548859
 30
0.0
 10
0.647854809
 20
3.0946547546
 30
0.0
 10
0.6475575044
 20
3.0955239748
 30
0.0
 10
0.6474222891
 20
3.0964330887
 30
0.0
 10
0.6474433732
 20
3.0970464491
 30
0.0
 10
0.6474814364
 20
3.0973490077
 30
0.0
  0
SPLINE
  5
52D
100
AcDbEntity
  8
0
100
AcDbSpline
 62
7
  6
CONTINUOUS
 70
0
 71
3
 72
20
 73
16
 74
0
 42
0.0000001
 43
0.0000001
 44
0.0000000001
 40
0.0
 40
0.0
 40
0.0
 40
0.0
 40
0.057924344
 40
0.1160960083
 40
0.1746654161
 40
0.2337854335
 40
0.2935739308
 40
0.354124589
 40
0.4154992766
 40
0.4777278857
 40
0.540808514
 40
0.604708759
 40
0.7345745318
 40
0.8666874744
 40
1.0
 40
1.0
 40
1.0
 40
1.0
 10
3.9409536567
 20
5.0074706235
 30
0.0
 10
3.9404000897
 20
5.0074939687
 30
0.0
 10
3.9392922262
 20
5.0076024268
 30
0.0
 10
3.9376543366
 20
5.0079477731
 30
0.0
 10
3.9360527405
 20
5.0084728596
 30
0.0
 10
3.9345025374
 20
5.0091725466
 30
0.0
 10
3.9330179098
 20
5.0100403498
 30
0.0
 10
3.9316125115
 20
5.011068097
 30
0.0
 10
3.9302991798
 20
5.0122462306
 30
0.0
 10
3.9290898981
 20
5.0135637729
 30
0.0
 10
3.9279956017
 20
5.0150087112
 30
0.0
 10
3.9266966924
 20
5.0170974059
 30
0.0
 10
3.9254146812
 20
5.0199581548
 30
0.0
 10
3.9244761336
 20
5.0236380606
 30
0.0
 10
3.9242653103
 20
5.0261821347
 30
0.0
 10
3.9242653103
 20
5.0274572981
 30
0.0
  0
SPLINE
  5
52E
100
AcDbEntity
  8
0
100
AcDbSpline
 62
7
  6
CONTINUOUS
 70
0
 71
3
 72
35
 73
31
 74
0
 42
0.0000001
 43
0.0000001
 44
0.0000000001
 40
0.0
 40
0.0
 40
0.0
 40
0.0
 40
0.0235600333
 40
0.0477800009
 40
0.0726285427
 40
0.0980696688
 40
0.1506186811
 40
0.1776782832
 40
0.2052327027
 40
0.2332644447
 40
0.2617576944
 40
0.2907007684
 40
0.3200840331
 40
0.3499009381
 40
0.3801471065
 40
0.4108204068
 40
0.4419202013
 40
0.4734474589
 40
0.5054038675
 40
0.5377919313
 40
0.5706141742
 40
0.6375716781
 40
0.7063018658
 40
0.7768385254
 40
0.8127992028
 40
0.8492342496
 40
0.8861553626
 40
0.9235767952
 40
0.9615174151
 40
1.0
 40
1.0
 40
1.0
 40
1.0
 10
3.9409536567
 20
5.0074706235
 30
0.0
 10
3.9422815905
 20
5.0074893634
 30
0.0
 10
3.9449741979
 20
5.0075639052
 30
0.0
 10
3.9490636558
 20
5.0077612166
 30
0.0
 10
3.9532554527
 20
5.0080263579
 30
0.0
 10
3.9590370909
 20
5.0084482846
 30
0.0
 10
3.9649389131
 20
5.0089325037
 30
0.0
 10
3.9709593109
 20
5.0094274806
 30
0.0
 10
3.9756031813
 20
5.0097989683
 30
0.0
 10
3.9803292066
 20
5.0101565213
 30
0.0
 10
3.9851355109
 20
5.0104895438
 30
0.0
 10
3.990020348
 20
5.0107894213
 30
0.0
 10
3.9949823247
 20
5.0110471962
 30
0.0
 10
4.0000201381
 20
5.0112560786
 30
0.0
 10
4.0051327127
 20
5.0114094927
 30
0.0
 10
4.0103190629
 20
5.0115034475
 30
0.0
 10
4.0155783883
 20
5.0115345931
 30
0.0
 10
4.0209100327
 20
5.0115025868
 30
0.0
 10
4.0263135486
 20
5.0114077797
 30
0.0
 10
4.0317887048
 20
5.0112535581
 30
0.0
 10
4.0392337143
 20
5.0109722283
 30
0.0
 10
4.0487208951
 20
5.010495565
 30
0.0
 10
4.0603244691
 20
5.0097933456
 30
0.0
 10
4.0701819932
 20
5.0091658014
 30
0.0
 10
4.0782243343
 20
5.0086794623
 30
0.0
 10
4.08437677
 20
5.0083334749
 30
0.0
 10
4.0906134712
 20
5.0080210569
 30
0.0
 10
4.0969373895
 20
5.0077567008
 30
0.0
 10
4.1033519082
 20
5.0075606661
 30
0.0
 10
4.1076594462
 20
5.0074889686
 30
0.0
 10
4.1098286105
 20
5.0074706235
 30
0.0
  0
SPLINE
  5
52F
100
AcDbEntity
  8
0
100
AcDbSpline
 62
7
  6
CONTINUOUS
 70
0
 71
3
 72
20
 73
16
 74
0
 42
0.0000001
 43
0.0000001
 44
0.0000000001
 40
0.0
 40
0.0
 40
0.0
 40
0.0
 40
0.057924344
 40
0.1160960083
 40
0.1746654161
 40
0.2337854335
 40
0.2935739308
 40
0.354124589
 40
0.4154992767
 40
0.4777278857
 40
0.540808514
 40
0.604708759
 40
0.7345745318
 40
0.8666874744
 40
1.0
 40
1.0
 40
1.0
 40
1.0
 10
4.1098286105
 20
5.0074706235
 30
0.0
 10
4.1092750435
 20
5.0074939687
 30
0.0
 10
4.10816718
 20
5.0076024268
 30
0.0
 10
4.1065292904
 20
5.0079477731
 30
0.0
 10
4.1049276942
 20
5.0084728596
 30
0.0
 10
4.1033774911
 20
5.0091725466
 30
0.0
 10
4.1018928635
 20
5.0100403498
 30
0.0
 10
4.1004874652
 20
5.011068097
 30
0.0
 10
4.0991741335
 20
5.0122462306
 30
0.0
 10
4.0979648519
 20
5.0135637729
 30
0.0
 10
4.0968705555
 20
5.0150087112
 30
0.0
 10
4.0955716462
 20
5.0170974059
 30
0.0
 10
4.094289635
 20
5.0199581548
 30
0.0
 10
4.0933510874
 20
5.0236380606
 30
0.0
 10
4.093140264
 20
5.0261821347
 30
0.0
 10
4.093140264
 20
5.0274572981
 30
0.0
  0
SPLINE
  5
530
100
AcDbEntity
  8
0
100
AcDbSpline
 62
7
  6
CONTINUOUS
 70
0
 71
3
 72
33
 73
29
 74
0
 42
0.0000001
 43
0.0000001
 44
0.0000000001
 40
0.0
 40
0.0
 40
0.0
 40
0.0
 40
0.0621433727
 40
0.0932806712
 40
0.1244519431
 40
0.1868800547
 40
0.2494021249
 40
0.2806908859
 40
0.3119944166
 40
0.343310302
 40
0.3746363611
 40
0.4059704034
 40
0.4373103515
 40
0.4686541908
 40
0.4999999822
 40
0.531345776
 40
0.5626896185
 40
0.594029568
 40
0.62536361
 40
0.6566896663
 40
0.6880055447
 40
0.719309068
 40
0.7505978266
 40
0.8131198889
 40
0.8755479875
 40
0.9067192805
 40
0.9378565849
 40
1.0
 40
1.0
 40
1.0
 40
1.0
 10
4.1104607721
 20
5.0074706235
 30
0.0
 10
4.1174593464
 20
5.0075076429
 30
0.0
 10
4.1279641226
 20
5.007670527
 30
0.0
 10
4.1419756225
 20
5.0080232056
 30
0.0
 10
4.156017504
 20
5.0084401803
 30
0.0
 10
4.1735897339
 20
5.0090456407
 30
0.0
 10
4.1911742487
 20
5.0096768385
 30
0.0
 10
4.2052567358
 20
5.0101537887
 30
0.0
 10
4.2158275604
 20
5.0104871853
 30
0.0
 10
4.2264035908
 20
5.0107874344
 30
0.0
 10
4.2369841831
 20
5.0110454569
 30
0.0
 10
4.2475685748
 20
5.0112546197
 30
0.0
 10
4.2581559265
 20
5.0114084761
 30
0.0
 10
4.268745305
 20
5.0115029754
 30
0.0
 10
4.2793357203
 20
5.0115345386
 30
0.0
 10
4.2899261355
 20
5.0115029004
 30
0.0
 10
4.3005155151
 20
5.0114084555
 30
0.0
 10
4.3111028683
 20
5.011254665
 30
0.0
 10
4.3216872597
 20
5.0110454925
 30
0.0
 10
4.3322678503
 20
5.0107874463
 30
0.0
 10
4.3428438782
 20
5.0104871784
 30
0.0
 10
4.3534147005
 20
5.0101537679
 30
0.0
 10
4.3674971856
 20
5.0096768182
 30
0.0
 10
4.3850816981
 20
5.0090456312
 30
0.0
 10
4.4026539292
 20
5.0084402078
 30
0.0
 10
4.4166958106
 20
5.0080231776
 30
0.0
 10
4.4307073182
 20
5.0076704894
 30
0.0
 10
4.4412121004
 20
5.0075076378
 30
0.0
 10
4.4482106795
 20
5.0074706235
 30
0.0
  0
SPLINE
  5
531
100
AcDbEntity
  8
0
100
AcDbSpline
 62
7
  6
CONTINUOUS
 70
0
 71
3
 72
20
 73
16
 74
0
 42
0.0000001
 43
0.0000001
 44
0.0000000001
 40
0.0
 40
0.0
 40
0.0
 40
0.0
 40
0.057924344
 40
0.1160960083
 40
0.1746654161
 40
0.2337854335
 40
0.2935739307
 40
0.3541245889
 40
0.4154992766
 40
0.4777278857
 40
0.540808514
 40
0.6047087589
 40
0.7345745317
 40
0.8666874744
 40
1.0
 40
1.0
 40
1.0
 40
1.0
 10
4.4488428411
 20
5.0074706235
 30
0.0
 10
4.4493964081
 20
5.0074939687
 30
0.0
 10
4.4505042716
 20
5.0076024268
 30
0.0
 10
4.4521421612
 20
5.0079477731
 30
0.0
 10
4.4537437574
 20
5.0084728596
 30
0.0
 10
4.4552939605
 20
5.0091725466
 30
0.0
 10
4.4567785881
 20
5.0100403498
 30
0.0
 10
4.4581839864
 20
5.011068097
 30
0.0
 10
4.4594973181
 20
5.0122462306
 30
0.0
 10
4.4607065997
 20
5.0135637729
 30
0.0
 10
4.4618008961
 20
5.0150087112
 30
0.0
 10
4.4630998054
 20
5.0170974059
 30
0.0
 10
4.4643818166
 20
5.0199581548
 30
0.0
 10
4.4653203642
 20
5.0236380606
 30
0.0
 10
4.4655311876
 20
5.0261821347
 30
0.0
 10
4.4655311876
 20
5.0274572981
 30
0.0
  0
SPLINE
  5
532
100
AcDbEntity
  8
0
100
AcDbSpline
 62
7
  6
CONTINUOUS
 70
0
 71
3
 72
35
 73
31
 74
0
 42
0.0000001
 43
0.0000001
 44
0.0000000001
 40
0.0
 40
0.0
 40
0.0
 40
0.0
 40
0.0384824619
 40
0.0764230911
 40
0.1138445985
 40
0.1507658019
 40
0.1872009326
 40
0.2231616421
 40
0.2936981925
 40
0.3624283819
 40
0.4293859114
 40
0.4622081077
 40
0.4945961523
 40
0.5265525682
 40
0.5580798312
 40
0.5891796252
 40
0.6198529236
 40
0.6500990964
 40
0.6799160155
 40
0.7092992849
 40
0.738242355
 40
0.7667356054
 40
0.7947673685
 40
0.8223218086
 40
0.8493813812
 40
0.9019303055
 40
0.9273714932
 40
0.9522201892
 40
0.9764402168
 40
1.0
 40
1.0
 40
1.0
 40
1.0
 10
4.4488428411
 20
5.0074706235
 30
0.0
 10
4.4510119985
 20
5.0074889679
 30
0.0
 10
4.4553195301
 20
5.0075606552
 30
0.0
 10
4.4617340473
 20
5.0077566702
 30
0.0
 10
4.4680579755
 20
5.0080210297
 30
0.0
 10
4.4742946887
 20
5.0083334883
 30
0.0
 10
4.480447136
 20
5.0086794751
 30
0.0
 10
4.4884894778
 20
5.0091658095
 30
0.0
 10
4.4983469985
 20
5.0097933392
 30
0.0
 10
4.5099505675
 20
5.0104955663
 30
0.0
 10
4.5194377468
 20
5.0109722377
 30
0.0
 10
4.5268827546
 20
5.0112535536
 30
0.0
 10
4.5323579075
 20
5.0114077757
 30
0.0
 10
4.5377614231
 20
5.0115025829
 30
0.0
 10
4.5430930681
 20
5.0115345906
 30
0.0
 10
4.5483523937
 20
5.011503446
 30
0.0
 10
4.553538744
 20
5.0114094891
 30
0.0
 10
4.5586513196
 20
5.0112560782
 30
0.0
 10
4.5636891343
 20
5.0110471953
 30
0.0
 10
4.5686511121
 20
5.0107894243
 30
0.0
 10
4.5735359491
 20
5.0104895449
 30
0.0
 10
4.5783422544
 20
5.0101565219
 30
0.0
 10
4.5830682823
 20
5.0097989724
 30
0.0
 10
4.5877121533
 20
5.0094274833
 30
0.0
 10
4.593732546
 20
5.0089325103
 30
0.0
 10
4.599634364
 20
5.0084482776
 30
0.0
 10
4.6054160103
 20
5.0080263621
 30
0.0
 10
4.6096078229
 20
5.0077612244
 30
0.0
 10
4.6136972786
 20
5.0075639106
 30
0.0
 10
4.6163898752
 20
5.0074893648
 30
0.0
 10
4.6177177949
 20
5.0074706235
 30
0.0
  0
SPLINE
  5
533
100
AcDbEntity
  8
0
100
AcDbSpline
 62
7
  6
CONTINUOUS
 70
0
 71
3
 72
20
 73
16
 74
0
 42
0.0000001
 43
0.0000001
 44
0.0000000001
 40
0.0
 40
0.0
 40
0.0
 40
0.0
 40
0.057924344
 40
0.1160960083
 40
0.1746654161
 40
0.2337854335
 40
0.2935739308
 40
0.354124589
 40
0.4154992767
 40
0.4777278857
 40
0.540808514
 40
0.604708759
 40
0.7345745318
 40
0.8666874744
 40
1.0
 40
1.0
 40
1.0
 40
1.0
 10
4.6177177949
 20
5.0074706235
 30
0.0
 10
4.6182713618
 20
5.0074939687
 30
0.0
 10
4.6193792254
 20
5.0076024268
 30
0.0
 10
4.621017115
 20
5.0079477731
 30
0.0
 10
4.6226187111
 20
5.0084728596
 30
0.0
 10
4.6241689142
 20
5.0091725466
 30
0.0
 10
4.6256535418
 20
5.0100403498
 30
0.0
 10
4.6270589401
 20
5.011068097
 30
0.0
 10
4.6283722718
 20
5.0122462306
 30
0.0
 10
4.6295815535
 20
5.0135637729
 30
0.0
 10
4.6306758499
 20
5.0150087112
 30
0.0
 10
4.6319747592
 20
5.0170974059
 30
0.0
 10
4.6332567704
 20
5.0199581548
 30
0.0
 10
4.634195318
 20
5.0236380606
 30
0.0
 10
4.6344061413
 20
5.0261821347
 30
0.0
 10
4.6344061413
 20
5.0274572981
 30
0.0
  0
SPLINE
  5
534
100
AcDbEntity
  8
0
100
AcDbSpline
 62
7
  6
CONTINUOUS
 70
0
 71
3
 72
19
 73
15
 74
0
 42
0.0000001
 43
0.0000001
 44
0.0000000001
 40
0.0
 40
0.0
 40
0.0
 40
0.0
 40
0.0579648407
 40
0.1161721809
 40
0.1747184325
 40
0.2337681646
 40
0.353782683
 40
0.4771081367
 40
0.5401604324
 40
0.604061542
 40
0.6687537101
 40
0.734142694
 40
0.866443708
 40
1.0
 40
1.0
 40
1.0
 40
1.0
 10
6.0303534222
 20
1.7449572981
 30
0.0
 10
6.0300701598
 20
1.7449572981
 30
0.0
 10
6.029501938
 20
1.7449248765
 30
0.0
 10
6.0286587029
 20
1.74478044
 30
0.0
 10
6.0278317497
 20
1.7445407856
 30
0.0
 10
6.0267569405
 20
1.744096162
 30
0.0
 10
6.0254912479
 20
1.7433106257
 30
0.0
 10
6.0243999988
 20
1.7422701999
 30
0.0
 10
6.0236446812
 20
1.741306343
 30
0.0
 10
6.0231381654
 20
1.7405169075
 30
0.0
 10
6.0227013952
 20
1.7396740726
 30
0.0
 10
6.0222152101
 20
1.7384860207
 30
0.0
 10
6.0218035079
 20
1.736911689
 30
0.0
 10
6.0216931681
 20
1.7356099605
 30
0.0
 10
6.0216931681
 20
1.7349572981
 30
0.0
  0
SPLINE
  5
535
100
AcDbEntity
  8
0
100
AcDbSpline
 62
7
  6
CONTINUOUS
 70
0
 71
3
 72
19
 73
15
 74
0
 42
0.0000001
 43
0.0000001
 44
0.0000000001
 40
0.0
 40
0.0
 40
0.0
 40
0.0
 40
0.0579648407
 40
0.1161721809
 40
0.1747184325
 40
0.2337681646
 40
0.3537826831
 40
0.4771081368
 40
0.5401604324
 40
0.604061542
 40
0.6687537101
 40
0.7341426941
 40
0.8664437081
 40
1.0
 40
1.0
 40
1.0
 40
1.0
 10
5.7813711186
 20
1.6357072981
 30
0.0
 10
5.781654381
 20
1.6357072981
 30
0.0
 10
5.7822226028
 20
1.6357397198
 30
0.0
 10
5.7830658379
 20
1.6358841563
 30
0.0
 10
5.7838927911
 20
1.6361238107
 30
0.0
 10
5.7849676004
 20
1.6365684343
 30
0.0
 10
5.7862332929
 20
1.6373539706
 30
0.0
 10
5.787324542
 20
1.6383943964
 30
0.0
 10
5.7880798596
 20
1.6393582533
 30
0.0
 10
5.7885863754
 20
1.6401476888
 30
0.0
 10
5.7890231457
 20
1.6409905237
 30
0.0
 10
5.7895093307
 20
1.6421785755
 30
0.0
 10
5.7899210329
 20
1.6437529072
 30
0.0
 10
5.7900313727
 20
1.6450546357
 30
0.0
 10
5.7900313727
 20
1.6457072981
 30
0.0
  0
SPLINE
  5
536
100
AcDbEntity
  8
0
100
AcDbSpline
 62
7
  6
CONTINUOUS
 70
0
 71
3
 72
31
 73
27
 74
0
 42
0.0000001
 43
0.0000001
 44
0.0000000001
 40
0.0
 40
0.0
 40
0.0
 40
0.0
 40
0.0119539968
 40
0.0242931781
 40
0.0373598375
 40
0.051440299
 40
0.0667561153
 40
0.0834681221
 40
0.1016888771
 40
0.1214922767
 40
0.1429225007
 40
0.1660003501
 40
0.1907280566
 40
0.2170933483
 40
0.2450712433
 40
0.274627173
 40
0.3057170632
 40
0.3382901008
 40
0.4076428882
 40
0.4821599621
 40
0.5612337834
 40
0.64419491
 40
0.7303238212
 40
0.8188626664
 40
0.9090228196
 40
1.0
 40
1.0
 40
1.0
 40
1.0
 10
4.1904033422
 20
4.7887072981
 30
0.0
 10
4.1906566517
 20
4.7887072981
 30
0.0
 10
4.1911726523
 20
4.7887565736
 30
0.0
 10
4.191937414
 20
4.7889757977
 30
0.0
 10
4.1926953176
 20
4.7893384257
 30
0.0
 10
4.1934444392
 20
4.7898416753
 30
0.0
 10
4.1941839479
 20
4.7904833892
 30
0.0
 10
4.1949129343
 20
4.7912616615
 30
0.0
 10
4.1956302543
 20
4.7921746762
 30
0.0
 10
4.1963346273
 20
4.7932203777
 30
0.0
 10
4.1970246056
 20
4.7943964513
 30
0.0
 10
4.1976986662
 20
4.7957002446
 30
0.0
 10
4.1983552787
 20
4.797128761
 30
0.0
 10
4.1989928734
 20
4.7986786844
 30
0.0
 10
4.1996099656
 20
4.8003463658
 30
0.0
 10
4.2002050255
 20
4.8021278662
 30
0.0
 10
4.20077668
 20
4.8040189453
 30
0.0
 10
4.2015213517
 20
4.8067377248
 30
0.0
 10
4.2023771801
 20
4.8103787514
 30
0.0
 10
4.203270716
 20
4.8150188252
 30
0.0
 10
4.2040422063
 20
4.819972705
 30
0.0
 10
4.2046840667
 20
4.8251928957
 30
0.0
 10
4.2051899612
 20
4.8306293975
 30
0.0
 10
4.205554904
 20
4.8362300095
 30
0.0
 10
4.2057753202
 20
4.8419409095
 30
0.0
 10
4.2058243869
 20
4.8457794592
 30
0.0
 10
4.2058243874
 20
4.8477072981
 30
0.0
  0
SPLINE
  5
537
100
AcDbEntity
  8
0
100
AcDbSpline
 62
7
  6
CONTINUOUS
 70
0
 71
3
 72
27
 73
23
 74
0
 42
0.0000001
 43
0.0000001
 44
0.0000000001
 40
0.0
 40
0.0
 40
0.0
 40
0.0
 40
0.0572572731
 40
0.1155426209
 40
0.1450519861
 40
0.1747935234
 40
0.234935614
 40
0.2958937454
 40
0.3575913457
 40
0.4199525667
 40
0.482906355
 40
0.5463840371
 40
0.610319763
 40
0.6746507386
 40
0.7069446245
 40
0.7393145345
 40
0.7717517806
 40
0.8042476036
 40
0.8367944469
 40
0.8693844069
 40
0.9346596084
 40
1.0
 40
1.0
 40
1.0
 40
1.0
 10
2.1242153033
 20
2.7109572981
 30
0.0
 10
2.1272011839
 20
2.7109574045
 30
0.0
 10
2.1332272618
 20
2.7111234096
 30
0.0
 10
2.1407735996
 20
2.7116707379
 30
0.0
 10
2.1468731571
 20
2.7122763822
 30
0.0
 10
2.1530587945
 20
2.7129875393
 30
0.0
 10
2.1608543967
 20
2.7140450457
 30
0.0
 10
2.1702729129
 20
2.7155183305
 30
0.0
 10
2.1797838367
 20
2.7171421222
 30
0.0
 10
2.1893841238
 20
2.718858177
 30
0.0
 10
2.1990719478
 20
2.7206117283
 30
0.0
 10
2.2088462599
 20
2.722348517
 30
0.0
 10
2.2187059504
 20
2.7240139573
 30
0.0
 10
2.2269808394
 20
2.7252947751
 30
0.0
 10
2.2336427662
 20
2.7262281472
 30
0.0
 10
2.2386649675
 20
2.726875779
 30
0.0
 10
2.2437050677
 20
2.7274642308
 30
0.0
 10
2.2487615974
 20
2.727988002
 30
0.0
 10
2.2538329716
 20
2.7284411826
 30
0.0
 10
2.2606152119
 20
2.7289460141
 30
0.0
 10
2.2691164147
 20
2.7293821201
 30
0.0
 10
2.2759283228
 20
2.7295048819
 30
0.0
 10
2.2793357258
 20
2.7295046156
 30
0.0
  0
SPLINE
  5
538
100
AcDbEntity
  8
0
100
AcDbSpline
 62
7
  6
CONTINUOUS
 70
0
 71
3
 72
24
 73
20
 74
0
 42
0.0000001
 43
0.0000001
 44
0.0000000001
 40
0.0
 40
0.0
 40
0.0
 40
0.0
 40
0.0653408951
 40
0.130616619
 40
0.1632066193
 40
0.1957533848
 40
0.2606850387
 40
0.3253482119
 40
0.3896793647
 40
0.4536153534
 40
0.5170934973
 40
0.5800476593
 40
0.6424091083
 40
0.7041069664
 40
0.7650655996
 40
0.8252080412
 40
0.8844567279
 40
0.9427424652
 40
1.0
 40
1.0
 40
1.0
 40
1.0
 10
6.2793357258
 20
2.7295046156
 30
0.0
 10
6.282743143
 20
2.7295047795
 30
0.0
 10
6.2895550791
 20
2.7293831846
 30
0.0
 10
6.2980564125
 20
2.7289489419
 30
0.0
 10
6.3048386991
 20
2.7284445608
 30
0.0
 10
6.3115947896
 20
2.7278401019
 30
0.0
 10
6.3199996356
 20
2.7269069221
 30
0.0
 10
6.3300220433
 20
2.7255515144
 30
0.0
 10
6.3399653155
 20
2.7240139636
 30
0.0
 10
6.3498251228
 20
2.7223490133
 30
0.0
 10
6.3595993897
 20
2.7206118652
 30
0.0
 10
6.3692871645
 20
2.7188579273
 30
0.0
 10
6.3788874769
 20
2.7171419291
 30
0.0
 10
6.3883985613
 20
2.7155190409
 30
0.0
 10
6.3978171108
 20
2.7140456019
 30
0.0
 10
6.4071373658
 20
2.7127800935
 30
0.0
 10
6.4163507945
 20
2.7117842156
 30
0.0
 10
6.4254441875
 20
2.7111252279
 30
0.0
 10
6.4314702647
 20
2.710957312
 30
0.0
 10
6.4344561482
 20
2.7109572981
 30
0.0
  0
SPLINE
  5
539
100
AcDbEntity
  8
0
100
AcDbSpline
 62
7
  6
CONTINUOUS
 70
0
 71
3
 72
25
 73
21
 74
0
 42
0.0000001
 43
0.0000001
 44
0.0000000001
 40
0.0
 40
0.0
 40
0.0
 40
0.0
 40
0.0805814311
 40
0.1605459107
 40
0.2393505443
 40
0.316469002
 40
0.3914058306
 40
0.4637047643
 40
0.5329610885
 40
0.5988346094
 40
0.6610652446
 40
0.7194917067
 40
0.7740742641
 40
0.8249220259
 40
0.8723234125
 40
0.9167752207
 40
0.9381306802
 40
0.9590378725
 40
0.9796194271
 40
1.0
 40
1.0
 40
1.0
 40
1.0
 10
4.420991487
 20
4.9485099334
 30
0.0
 10
4.4209619123
 20
4.9503983716
 30
0.0
 10
4.4209938429
 20
4.9541628599
 30
0.0
 10
4.4213146756
 20
4.9597657399
 30
0.0
 10
4.4219053688
 20
4.9652652378
 30
0.0
 10
4.4227604955
 20
4.9706106836
 30
0.0
 10
4.4238721634
 20
4.9757530608
 30
0.0
 10
4.4252301788
 20
4.9806452708
 30
0.0
 10
4.4268221412
 20
4.9852426276
 30
0.0
 10
4.4286336401
 20
4.9895032809
 30
0.0
 10
4.43064847
 20
4.9933886011
 30
0.0
 10
4.4328489655
 20
4.9968634941
 30
0.0
 10
4.4352162401
 20
4.9998965392
 30
0.0
 10
4.4377309361
 20
5.0024600022
 30
0.0
 10
4.4403720682
 20
5.0045290828
 30
0.0
 10
4.4426931599
 20
5.0058405941
 30
0.0
 10
4.4445782695
 20
5.0066062701
 30
0.0
 10
4.4459886033
 20
5.0070383306
 30
0.0
 10
4.4474102214
 20
5.0073342099
 30
0.0
 10
4.4483661056
 20
5.0074405929
 30
0.0
 10
4.4488428411
 20
5.0074706235
 30
0.0
  0
SPLINE
  5
53A
100
AcDbEntity
  8
0
100
AcDbSpline
 62
7
  6
CONTINUOUS
 70
0
 71
3
 72
25
 73
21
 74
0
 42
0.0000001
 43
0.0000001
 44
0.0000000001
 40
0.0
 40
0.0
 40
0.0
 40
0.0
 40
0.0802330455
 40
0.1599669563
 40
0.2386531339
 40
0.315757359
 40
0.3907738899
 40
0.4632335229
 40
0.5327155987
 40
0.5988605039
 40
0.6613846606
 40
0.7200984921
 40
0.7749284591
 40
0.8259439286
 40
0.8733882468
 40
0.9177106817
 40
0.938922292
 40
0.959627327
 40
0.9799454142
 40
1.0
 40
1.0
 40
1.0
 40
1.0
 10
4.4189274399
 20
4.9485099334
 30
0.0
 10
4.418957182
 20
4.9503997822
 30
0.0
 10
4.4191062267
 20
4.9541669341
 30
0.0
 10
4.4195972013
 20
4.959769589
 30
0.0
 10
4.4203508604
 20
4.9652688253
 30
0.0
 10
4.4213602712
 20
4.9706139651
 30
0.0
 10
4.4226161182
 20
4.9757559752
 30
0.0
 10
4.4241068709
 20
4.9806477372
 30
0.0
 10
4.4258188879
 20
4.9852445407
 30
0.0
 10
4.4277366194
 20
4.9895045092
 30
0.0
 10
4.4298428248
 20
4.9933889909
 30
0.0
 10
4.4321189074
 20
4.9968628892
 30
0.0
 10
4.4345451587
 20
4.9998948291
 30
0.0
 10
4.4371015359
 20
5.0024572272
 30
0.0
 10
4.4397665969
 20
5.0045255661
 30
0.0
 10
4.4420955913
 20
5.0058386814
 30
0.0
 10
4.4439792654
 20
5.0066055312
 30
0.0
 10
4.4453823432
 20
5.0070377496
 30
0.0
 10
4.4467923972
 20
5.0073338406
 30
0.0
 10
4.4477392039
 20
5.0074405448
 30
0.0
 10
4.4482106795
 20
5.0074706235
 30
0.0
  0
SPLINE
  5
53B
100
AcDbEntity
  8
0
100
AcDbSpline
 62
7
  6
CONTINUOUS
 70
0
 71
3
 72
25
 73
21
 74
0
 42
0.0000001
 43
0.0000001
 44
0.0000000001
 40
0.0
 40
0.0
 40
0.0
 40
0.0
 40
0.0802330891
 40
0.1599670475
 40
0.238653278
 40
0.3157575612
 40
0.3907741548
 40
0.4632338538
 40
0.5327159964
 40
0.5988609658
 40
0.6613851794
 40
0.7200990533
 40
0.7749290389
 40
0.8259444955
 40
0.8733887616
 40
0.9177110952
 40
0.9389226322
 40
0.9596275751
 40
0.9799455489
 40
1.0
 40
1.0
 40
1.0
 40
1.0
 10
4.1397440116
 20
4.9485099334
 30
0.0
 10
4.1397142685
 20
4.9503997822
 30
0.0
 10
4.1395652208
 20
4.9541669342
 30
0.0
 10
4.1390742402
 20
4.959769589
 30
0.0
 10
4.1383205742
 20
4.9652688252
 30
0.0
 10
4.137311156
 20
4.9706139648
 30
0.0
 10
4.1360553014
 20
4.9757559747
 30
0.0
 10
4.1345645415
 20
4.9806477365
 30
0.0
 10
4.1328525181
 20
4.9852445398
 30
0.0
 10
4.1309347813
 20
4.989504508
 30
0.0
 10
4.1288285722
 20
4.9933889894
 30
0.0
 10
4.1265524882
 20
4.9968628874
 30
0.0
 10
4.1241262382
 20
4.9998948271
 30
0.0
 10
4.1215698654
 20
5.0024572251
 30
0.0
 10
4.1189048117
 20
5.0045255641
 30
0.0
 10
4.1165758255
 20
5.0058386801
 30
0.0
 10
4.1146921595
 20
5.0066055304
 30
0.0
 10
4.1132890896
 20
5.007037749
 30
0.0
 10
4.1118790445
 20
5.0073338403
 30
0.0
 10
4.1109322442
 20
5.0074405447
 30
0.0
 10
4.1104607721
 20
5.0074706235
 30
0.0
  0
SPLINE
  5
53C
100
AcDbEntity
  8
0
100
AcDbSpline
 62
7
  6
CONTINUOUS
 70
0
 71
3
 72
25
 73
21
 74
0
 42
0.0000001
 43
0.0000001
 44
0.0000000001
 40
0.0
 40
0.0
 40
0.0
 40
0.0
 40
0.0805814531
 40
0.1605459566
 40
0.2393506169
 40
0.3164691049
 40
0.3914059672
 40
0.4637049376
 40
0.5329613003
 40
0.5988348595
 40
0.6610655302
 40
0.7194920203
 40
0.7740745927
 40
0.8249223512
 40
0.8723237114
 40
0.9167754632
 40
0.9381308806
 40
0.9590380193
 40
0.979619507
 40
1.0
 40
1.0
 40
1.0
 40
1.0
 10
4.1376799646
 20
4.9485099334
 30
0.0
 10
4.1377095393
 20
4.9503983716
 30
0.0
 10
4.1376776081
 20
4.95416286
 30
0.0
 10
4.1373567733
 20
4.9597657401
 30
0.0
 10
4.1367660771
 20
4.9652652381
 30
0.0
 10
4.1359109466
 20
4.970610684
 30
0.0
 10
4.1347992746
 20
4.9757530612
 30
0.0
 10
4.1334412549
 20
4.9806452713
 30
0.0
 10
4.1318492885
 20
4.9852426281
 30
0.0
 10
4.1300377861
 20
4.9895032814
 30
0.0
 10
4.1280229535
 20
4.9933886015
 30
0.0
 10
4.1258224565
 20
4.9968634944
 30
0.0
 10
4.123455182
 20
4.9998965394
 30
0.0
 10
4.1209404878
 20
5.0024600022
 30
0.0
 10
4.1182993593
 20
5.0045290827
 30
0.0
 10
4.115978272
 20
5.0058405942
 30
0.0
 10
4.1140931668
 20
5.0066062703
 30
0.0
 10
4.1126828374
 20
5.0070383308
 30
0.0
 10
4.1112612244
 20
5.0073342099
 30
0.0
 10
4.110305344
 20
5.0074405929
 30
0.0
 10
4.1098286105
 20
5.0074706235
 30
0.0
  0
LINE
  5
53D
100
AcDbEntity
  8
0
100
AcDbLine
 62
7
  6
CONTINUOUS
 10
0.6555286283
 20
3.127992753
 11
0.6586648374
 21
3.1358806324
  0
LINE
  5
53E
100
AcDbEntity
  8
0
100
AcDbLine
 62
7
  6
CONTINUOUS
 10
0.6586648374
 20
3.1358806324
 11
0.6593680514
 21
3.1380531585
  0
SPLINE
  5
53F
100
AcDbEntity
  8
0
100
AcDbSpline
 62
7
  6
CONTINUOUS
 70
0
 71
3
 72
11
 73
7
 74
0
 42
0.0000001
 43
0.0000001
 44
0.0000000001
 40
0.0
 40
0.0
 40
0.0
 40
0.0
 40
0.2649568033
 40
0.523576716
 40
0.7702001577
 40
1.0
 40
1.0
 40
1.0
 40
1.0
 10
0.6593680514
 20
3.0859127521
 30
0.0
 10
0.6593854104
 20
3.0864700469
 30
0.0
 10
0.6593838575
 20
3.0875727605
 30
0.0
 10
0.6592753784
 20
3.0891910918
 30
0.0
 10
0.6590656273
 20
3.0907248522
 30
0.0
 10
0.6588550272
 20
3.0917063924
 30
0.0
 10
0.6587324162
 20
3.0921741725
 30
0.0
  0
SPLINE
  5
540
100
AcDbEntity
  8
0
100
AcDbSpline
 62
7
  6
CONTINUOUS
 70
0
 71
3
 72
16
 73
12
 74
0
 42
0.0000001
 43
0.0000001
 44
0.0000000001
 40
0.0
 40
0.0
 40
0.0
 40
0.0
 40
0.1735388317
 40
0.3331193416
 40
0.4779325016
 40
0.6076943608
 40
0.7228068859
 40
0.8245683182
 40
0.9155372703
 40
0.9582946447
 40
1.0
 40
1.0
 40
1.0
 40
1.0
 10
0.6587324162
 20
3.0921741725
 30
0.0
 10
0.6586474346
 20
3.0924983906
 30
0.0
 10
0.6584646861
 20
3.0931159036
 30
0.0
 10
0.6581372927
 20
3.0939799832
 30
0.0
 10
0.6577724064
 20
3.0947363752
 30
0.0
 10
0.6573747817
 20
3.0953773992
 30
0.0
 10
0.6569487691
 20
3.0958970429
 30
0.0
 10
0.6564981037
 20
3.0962899418
 30
0.0
 10
0.6560950834
 20
3.0965111594
 30
0.0
 10
0.6557705627
 20
3.0966117617
 30
0.0
 10
0.6556088704
 20
3.0966379438
 30
0.0
 10
0.6555286283
 20
3.0966449696
 30
0.0
  0
SPLINE
  5
541
100
AcDbEntity
  8
0
100
AcDbSpline
 62
7
  6
CONTINUOUS
 70
0
 71
3
 72
17
 73
13
 74
0
 42
0.0000001
 43
0.0000001
 44
0.0000000001
 40
0.0
 40
0.0
 40
0.0
 40
0.0
 40
0.0416992546
 40
0.0844522107
 40
0.1754029394
 40
0.2771503931
 40
0.3922566779
 40
0.5220285031
 40
0.6668423176
 40
0.7448423239
 40
0.8264588434
 40
1.0
 40
1.0
 40
1.0
 40
1.0
 10
0.6555286283
 20
3.0682696267
 30
0.0
 10
0.6556088966
 20
3.0682766699
 30
0.0
 10
0.6557706377
 20
3.0683029539
 30
0.0
 10
0.6560951921
 20
3.0684037822
 30
0.0
 10
0.656498438
 20
3.0686248715
 30
0.0
 10
0.6569492243
 20
3.0690179988
 30
0.0
 10
0.6573753985
 20
3.0695379084
 30
0.0
 10
0.6577729704
 20
3.0701793953
 30
0.0
 10
0.6580694346
 20
3.0707940358
 30
0.0
 10
0.6582905877
 20
3.0713392749
 30
0.0
 10
0.6585081414
 20
3.0719453258
 30
0.0
 10
0.6586481177
 20
3.072418647
 30
0.0
 10
0.6587331046
 20
3.0727430377
 30
0.0
  0
SPLINE
  5
542
100
AcDbEntity
  8
0
100
AcDbSpline
 62
7
  6
CONTINUOUS
 70
0
 71
3
 72
11
 73
7
 74
0
 42
0.0000001
 43
0.0000001
 44
0.0000000001
 40
0.0
 40
0.0
 40
0.0
 40
0.0
 40
0.2298188487
 40
0.4764452896
 40
0.7350588186
 40
1.0
 40
1.0
 40
1.0
 40
1.0
 10
0.6587331046
 20
3.0727430377
 30
0.0
 10
0.6588556194
 20
3.0732106702
 30
0.0
 10
0.6590659529
 20
3.0741918747
 30
0.0
 10
0.6592755327
 20
3.0757250201
 30
0.0
 10
0.6593838138
 20
3.077342628
 30
0.0
 10
0.6593853953
 20
3.0784448206
 30
0.0
 10
0.6593680514
 20
3.0790018442
 30
0.0
  0
LINE
  5
543
100
AcDbEntity
  8
0
100
AcDbLine
 62
7
  6
CONTINUOUS
 10
0.6593680514
 20
3.0268614377
 11
0.6587563713
 21
3.0287892349
  0
LINE
  5
544
100
AcDbEntity
  8
0
100
AcDbLine
 62
7
  6
CONTINUOUS
 10
0.6587563713
 20
3.0287892349
 11
0.6555286283
 21
3.0369218432
  0
SPLINE
  5
545
100
AcDbEntity
  8
0
100
AcDbSpline
 62
7
  6
CONTINUOUS
 70
0
 71
3
 72
19
 73
15
 74
0
 42
0.0000001
 43
0.0000001
 44
0.0000000001
 40
0.0
 40
0.0
 40
0.0
 40
0.0
 40
0.1213691357
 40
0.1826130415
 40
0.2441909343
 40
0.3060789962
 40
0.3682524583
 40
0.4933530278
 40
0.6192851901
 40
0.6824979644
 40
0.7458410841
 40
0.8092895325
 40
0.8728184822
 40
1.0
 40
1.0
 40
1.0
 40
1.0
 10
6.3689894726
 20
3.4539572981
 30
0.0
 10
6.3653611367
 20
3.4539572946
 30
0.0
 10
6.3599018418
 20
3.4538913725
 30
0.0
 10
6.3526037839
 20
3.4537189104
 30
0.0
 10
6.3470842345
 20
3.4535563032
 30
0.0
 10
6.3415376638
 20
3.4533698044
 30
0.0
 10
6.3340937901
 20
3.4531012313
 30
0.0
 10
6.3247371156
 20
3.4527488074
 30
0.0
 10
6.3153482976
 20
3.4524241145
 30
0.0
 10
6.3078033968
 20
3.4522022488
 30
0.0
 10
6.3021249778
 20
3.4520597238
 30
0.0
 10
6.2964364771
 20
3.4519444235
 30
0.0
 10
6.2888391921
 20
3.4518319729
 30
0.0
 10
6.2831378231
 20
3.4517969604
 30
0.0
 10
6.2793357258
 20
3.4517969634
 30
0.0
  0
ENDSEC
  0
SECTION
  2
OBJECTS
  0
DICTIONARY
  5
C
100
AcDbDictionary
280
0
281
1
  3
ACAD_GROUP
350
D
  3
ACAD_MLINESTYLE
350
17
  3
ACAD_LAYOUT
350
1A
  3
ACAD_PLOTSETTINGS
350
19
  3
ACAD_PLOTSTYLENAME
350
E
  0
DICTIONARY
  5
D
102
{ACAD_REACTORS
330
C
102
}
100
AcDbDictionary
280
0
281
1
  0
ACDBDICTIONARYWDFLT
  5
E
102
{ACAD_REACTORS
330
C
102
}
100
AcDbDictionary
281
1
  3
Normal
350
F
100
AcDbDictionaryWithDefault
340
F
  0
DICTIONARY
  5
17
102
{ACAD_REACTORS
330
C
102
}
100
AcDbDictionary
280
0
281
1
  3
Standard
350
18
  0
DICTIONARY
  5
19
102
{ACAD_REACTORS
330
C
102
}
100
AcDbDictionary
281
1
  0
DICTIONARY
  5
1A
102
{ACAD_REACTORS
330
C
102
}
100
AcDbDictionary
281
1
  3
Model
350
546
  3
Layout1
350
547
  0
ACDBPLACEHOLDER
  5
F
102
{ACAD_REACTORS
330
E
102
}
  0
MLINESTYLE
  5
18
102
{ACAD_REACTORS
330
17
102
}
100
AcDbMlineStyle
  2
STANDARD
 70
0
  3

 62
256
 51
90.0
 52
90.0
 71
2
 49
0.5
 62
256
  6
BYLAYER
 49
-0.5
 62
256
  6
BYLAYER
  0
LAYOUT
  5
546
102
{ACAD_REACTORS
330
1A
102
}
100
AcDbPlotSettings
  1

  2
none_device
  4
ANSI_A_(11.00_x_8.50_Inches)
  6

 40
0.0
 41
0.0
 42
0.0
 43
0.0
 44
279.4
 45
215.9
 46
0.0
 47
0.0
 48
0.0
 49
0.0
140
0.0
141
0.0
142
1.0
143
1.0
 70
1024
 72
0
 73
0
 74
0
  7

 75
0
147
1.0
148
0.0
149
0.0
100
AcDbLayout
  1
Model
 70
0
 71
0
 10
0.0
 20
0.0
 11
11.0
 21
8.5
 12
0.0
 22
0.0
 32
0.0
 14
0.0
 24
0.0
 34
0.0
 15
0.0
 25
0.0
 35
0.0
146
0.0
 13
0.0
 23
0.0
 33
0.0
 16
1.0
 26
0.0
 36
0.0
 17
0.0
 27
1.0
 37
0.0
 76
0
330
202
345
0
346
0
  0
LAYOUT
  5
547
102
{ACAD_REACTORS
330
1A
102
}
100
AcDbPlotSettings
  1

  2
none_device
  4
ANSI_A_(11.00_x_8.50_Inches)
  6

 40
0.0
 41
0.0
 42
0.0
 43
0.0
 44
279.4
 45
215.9
 46
0.0
 47
0.0
 48
0.0
 49
0.0
140
0.0
141
0.0
142
1.0
143
1.0
 70
0
 72
0
 73
0
 74
0
  7

 75
0
147
1.0
148
0.0
149
0.0
100
AcDbLayout
  1
Layout1
 70
0
 71
1
 10
0.0
 20
0.0
 11
11.0
 21
8.5
 12
0.0
 22
0.0
 32
0.0
 14
0.0
 24
0.0
 34
0.0
 15
0.0
 25
0.0
 35
0.0
146
0.0
 13
0.0
 23
0.0
 33
0.0
 16
1.0
 26
0.0
 36
0.0
 17
0.0
 27
1.0
 37
0.0
 76
0
330
203
345
0
346
0
  0
ENDSEC
  0
EOF
