999
DXF file: 3220-5413_right.dxf
999
Pro/ENGINEER 2018400 by Parametric Technology Corporation
  0
SECTION
  2
HEADER
  9
$ACADVER
  1
AC1027
  9
$DWGCODEPAGE
  3
ANSI_1252
  9
$EXTMAX
 10
11.0
 20
8.5
 30
0.0
  9
$EXTMIN
 10
0.0
 20
0.0
 30
0.0
  9
$LIMMIN
 10
0.0
 20
0.0
  9
$LIMMAX
 10
11.0
 20
8.5
  9
$VIEWCTR
 10
5.5
 20
4.25
  9
$VIEWSIZE
 40
8.5
  9
$CLAYER
  8
0
  9
$LTSCALE
 40
0.605
  9
$CELTYPE
  6
BYLAYER
  9
$DIMSCALE
 40
1.0
  9
$DIMASZ
 40
0.1
  9
$DIMEXO
 40
0.0625
  9
$DIMDLI
 40
0.418
  9
$DIMEXE
 40
0.125
  9
$DIMCEN
 40
0.099
  9
$DIMLFAC
 40
1.0
  9
$DIMBLK
  1
_FILLED
  9
$DIMALT
 70
1
  9
$DIMALTD
 70
1
  9
$DIMALTTD
 70
2
  9
$DIMALTF
 40
25.4
  9
$DIMTXT
 40
0.08
  9
$DIMTOL
 70
1
  9
$DIMLIM
 70
0
  9
$DIMTFAC
 40
1.0
  9
$DIMTP
 40
0.01
  9
$DIMTM
 40
0.01
  9
$DIMGAP
 40
0.09
  9
$DIMDSEP
 70
46
  9
$AUNITS
 70
0
  9
$PDMODE
 70
3
  9
$PDSIZE
 40
0.3125
  9
$HANDSEED
  5
4A2
  9
$TILEMODE
 70
1
  9
$MEASUREMENT
 70
0
  9
$INSUNITS
 70
1
  0
ENDSEC
  0
SECTION
  2
CLASSES
  0
CLASS
  1
ACDBDICTIONARYWDFLT
  2
AcDbDictionaryWithDefault
  3
AutoCAD 2000
 90
0
 91
1
280
0
281
0
  0
CLASS
  1
ACDBPLACEHOLDER
  2
AcDbPlaceHolder
  3
AutoCAD 2000
 90
0
 91
1
280
0
281
0
  0
CLASS
  1
LAYOUT
  2
AcDbLayout
  3
AutoCAD 2000
 90
0
 91
0
280
0
281
0
  0
ENDSEC
  0
SECTION
  2
TABLES
  0
TABLE
  2
VPORT
  5
8
100
AcDbSymbolTable
 70
2
  0
VPORT
  5
1F4
100
AcDbSymbolTableRecord
100
AcDbViewportTableRecord
  2
*ACTIVE
 70
0
 10
0.0
 20
0.0
 11
1.0
 21
1.0
 12
5.5
 22
4.25
 13
0.0
 23
0.0
 14
1.0
 24
1.0
 15
0.0
 25
0.0
 16
0.0
 26
0.0
 36
1.0
 17
0.0
 27
0.0
 37
0.0
 40
8.5
 41
1.2941176471
 42
50.0
 43
0.0
 44
0.0
 50
0.0
 51
0.0
 71
0
 72
100
 73
1
 74
1
 75
0
 76
0
 77
0
 78
0
  0
ENDTAB
  0
TABLE
  2
LTYPE
  5
5
100
AcDbSymbolTable
 70
6
  0
LTYPE
  5
14
100
AcDbSymbolTableRecord
100
AcDbLinetypeTableRecord
  2
BYBLOCK
 70
0
  3

 72
65
 73
0
 40
0.0
  0
LTYPE
  5
15
100
AcDbSymbolTableRecord
100
AcDbLinetypeTableRecord
  2
BYLAYER
 70
0
  3

 72
65
 73
0
 40
0.0
  0
LTYPE
  5
16
100
AcDbSymbolTableRecord
100
AcDbLinetypeTableRecord
  2
CONTINUOUS
 70
64
  3
Solid line
 72
65
 73
0
 40
0.0
  0
LTYPE
  5
1F5
100
AcDbSymbolTableRecord
100
AcDbLinetypeTableRecord
  2
CENTER
 70
64
  3
____ _ ____ _ ____ _ ____ _ ____ _ ____ _ ____
 72
65
 73
4
 40
0.6
 49
0.375
 74
0
 49
-0.075
 74
0
 49
0.075
 74
0
 49
-0.075
 74
0
  0
LTYPE
  5
1F6
100
AcDbSymbolTableRecord
100
AcDbLinetypeTableRecord
  2
HIDDEN
 70
64
  3
- - - - - - - - - - - - - - - - - - - -
 72
65
 73
2
 40
0.2
 49
0.1
 74
0
 49
-0.1
 74
0
  0
LTYPE
  5
1F7
100
AcDbSymbolTableRecord
100
AcDbLinetypeTableRecord
  2
PHANTOM
 70
64
  3
_____ _ _ _____ _ _ _____ _ _ _____
 72
65
 73
6
 40
0.8
 49
0.45
 74
0
 49
-0.05
 74
0
 49
0.1
 74
0
 49
-0.05
 74
0
 49
0.1
 74
0
 49
-0.05
 74
0
  0
LTYPE
  5
1F8
100
AcDbSymbolTableRecord
100
AcDbLinetypeTableRecord
  2
DOT
 70
64
  3
. . . . . . . . . . . . . . . . . . . .
 72
65
 73
2
 40
0.2
 49
0.1
 74
0
 49
-0.1
 74
0
  0
LTYPE
  5
1F9
100
AcDbSymbolTableRecord
100
AcDbLinetypeTableRecord
  2
DASHED
 70
64
  3
- - - - - - - - - - - - - - - - - - - -
 72
65
 73
2
 40
0.2
 49
0.1
 74
0
 49
-0.1
 74
0
  0
ENDTAB
  0
TABLE
  2
LAYER
  5
2
100
AcDbSymbolTable
 70
36
  0
LAYER
  5
10
100
AcDbSymbolTableRecord
100
AcDbLayerTableRecord
  2
0
 70
0
 62
7
  6
CONTINUOUS
370
-3
390
F
  0
LAYER
  5
1FA
100
AcDbSymbolTableRecord
100
AcDbLayerTableRecord
  2
DEFAULT_1
 70
0
 62
7
  6
CENTER
370
-3
390
F
  0
LAYER
  5
1FB
100
AcDbSymbolTableRecord
100
AcDbLayerTableRecord
  2
DEFAULT_2
 70
0
 62
8
  6
HIDDEN
370
-3
390
F
  0
LAYER
  5
1FC
100
AcDbSymbolTableRecord
100
AcDbLayerTableRecord
  2
DEFAULT_3
 70
0
 62
7
  6
PHANTOM
370
-3
390
F
  0
LAYER
  5
1FD
100
AcDbSymbolTableRecord
100
AcDbLayerTableRecord
  2
DEFAULT_COORDINATE_SYSTEM
 70
0
 62
7
  6
CONTINUOUS
370
-3
390
F
  0
LAYER
  5
1FE
100
AcDbSymbolTableRecord
100
AcDbLayerTableRecord
  2
DEFAULT_DATUM_AXES
 70
0
 62
7
  6
CONTINUOUS
370
-3
390
F
  0
LAYER
  5
1FF
100
AcDbSymbolTableRecord
100
AcDbLayerTableRecord
  2
DEFAULT_DATUM_PLANES
 70
0
 62
7
  6
CONTINUOUS
370
-3
390
F
  0
ENDTAB
  0
TABLE
  2
STYLE
  5
3
100
AcDbSymbolTable
 70
1
  0
STYLE
  5
11
100
AcDbSymbolTableRecord
100
AcDbTextStyleTableRecord
  2
STANDARD
 70
0
 40
0.0
 41
0.8
 50
0.0
 71
0
 42
0.2
  3
txt
  4

  0
STYLE
  5
200
100
AcDbSymbolTableRecord
100
AcDbTextStyleTableRecord
  2
TEXTSTYLE_1
 70
0
 40
0.0
 41
0.8
 50
0.0
 71
0
 42
0.2
  3
gdt
  4

  0
ENDTAB
  0
TABLE
  2
VIEW
  5
6
100
AcDbSymbolTable
 70
0
  0
ENDTAB
  0
TABLE
  2
UCS
  5
7
100
AcDbSymbolTable
 70
0
  0
ENDTAB
  0
TABLE
  2
APPID
  5
9
100
AcDbSymbolTable
 70
1
  0
APPID
  5
201
100
AcDbSymbolTableRecord
100
AcDbRegAppTableRecord
  2
ACAD
 70
0
  0
ENDTAB
  0
TABLE
  2
BLOCK_RECORD
  5
1
100
AcDbSymbolTable
 70
0
  0
BLOCK_RECORD
  5
202
100
AcDbSymbolTableRecord
100
AcDbBlockTableRecord
  2
*Model_Space
  0
BLOCK_RECORD
  5
203
100
AcDbSymbolTableRecord
100
AcDbBlockTableRecord
  2
*Paper_Space
  0
BLOCK_RECORD
  5
204
100
AcDbSymbolTableRecord
100
AcDbBlockTableRecord
  2
_FILLED
  0
ENDTAB
  0
TABLE
  2
DIMSTYLE
  5
A
100
AcDbSymbolTable
 70
1
100
AcDbDimStyleTable
 71
0
  0
DIMSTYLE
105
205
100
AcDbSymbolTableRecord
100
AcDbDimStyleTableRecord
  2
STANDARD
 70
0
  3

  4

 40
1.0
 41
0.1
 42
0.0625
 43
0.38
 44
0.125
 45
0.0
 46
0.0
 47
0.01
 48
0.01
140
0.08
141
0.09
142
0.0
143
25.4
144
1.0
145
0.0
146
1.0
147
0.09
 71
1.0
 72
0.0
 73
1
 74
1
 75
0
 76
0
 77
0
 78
4
 79
1
170
1
171
1
172
0
173
0
174
0
175
0
176
0
177
0
178
0
270
2
179
2
271
2
272
2
273
2
274
2
275
0
280
0
281
0
282
0
283
1
284
4
285
0
286
0
287
3
288
0
340
11
278
46
341
204
342
204
343
204
344
204
  0
ENDTAB
  0
ENDSEC
  0
SECTION
  2
BLOCKS
  0
BLOCK
  5
20
100
AcDbEntity
  8
0
100
AcDbBlockBegin
  2
*Model_Space
 70
0
 10
0.0
 20
0.0
 30
0.0
  3
*Model_Space
  1

  0
ENDBLK
  5
21
100
AcDbEntity
  8
0
100
AcDbBlockEnd
  0
BLOCK
  5
1C
100
AcDbEntity
  8
0
100
AcDbBlockBegin
  2
*Paper_Space
 70
0
 10
0.0
 20
0.0
 30
0.0
  3
*Paper_Space
  1

  0
ENDBLK
  5
1D
100
AcDbEntity
  8
0
100
AcDbBlockEnd
  0
BLOCK
  5
206
100
AcDbEntity
  8
0
100
AcDbBlockBegin
  2
_FILLED
 70
64
 10
0.0
 20
0.0
  3
_FILLED
  1

  0
SOLID
  5
207
100
AcDbEntity
  8
0
  6
BYBLOCK
 62
0
100
AcDbTrace
 10
0.0
 20
0.0
 11
-1.0
 21
0.2
 12
-1.0
 22
-0.2
 13
-1.0
 23
-0.2
  0
ENDBLK
  5
208
100
AcDbEntity
  8
0
  6
BYBLOCK
 62
0
100
AcDbBlockEnd
  0
ENDSEC
  0
SECTION
  2
ENTITIES
  0
MTEXT
  5
209
100
AcDbEntity
  8
0
100
AcDbMText
 62
2
  6
CONTINUOUS
  7
STANDARD
 71
3
 72
1
 10
5.7421195652
 20
1.4374572981
 30
0.0
 11
1.0
 21
0.0
 31
0.0
 73
2
 44
0.9
  1
SCALE  .500
 40
0.08
 41
0.704
  0
LINE
  5
20A
100
AcDbEntity
  8
0
100
AcDbLine
 62
7
  6
CONTINUOUS
 10
0.0
 20
0.0
 11
0.0
 21
8.5
  0
LINE
  5
20B
100
AcDbEntity
  8
0
100
AcDbLine
 62
7
  6
CONTINUOUS
 10
0.0
 20
0.0
 11
11.0
 21
0.0
  0
LINE
  5
20C
100
AcDbEntity
  8
0
100
AcDbLine
 62
7
  6
CONTINUOUS
 10
0.0
 20
8.5
 11
11.0
 21
8.5
  0
LINE
  5
20D
100
AcDbEntity
  8
0
100
AcDbLine
 62
7
  6
CONTINUOUS
 10
11.0
 20
0.0
 11
11.0
 21
8.5
  0
LINE
  5
20E
100
AcDbEntity
  8
0
100
AcDbLine
 62
7
  6
CONTINUOUS
 10
2.7551746611
 20
6.3474572981
 11
2.7551746611
 21
6.4209572981
  0
LINE
  5
20F
100
AcDbEntity
  8
0
100
AcDbLine
 62
7
  6
CONTINUOUS
 10
2.7876746611
 20
6.6049572981
 11
2.7876746611
 21
6.4602478823
  0
LINE
  5
210
100
AcDbEntity
  8
0
100
AcDbLine
 62
7
  6
CONTINUOUS
 10
2.8339246611
 20
6.3324572981
 11
2.8339246611
 21
6.1059572981
  0
LINE
  5
211
100
AcDbEntity
  8
0
100
AcDbLine
 62
7
  6
CONTINUOUS
 10
7.5689245688
 20
1.5324572981
 11
8.6839247534
 21
1.5324572981
  0
LINE
  5
212
100
AcDbEntity
  8
0
100
AcDbLine
 62
7
  6
CONTINUOUS
 10
8.6839246611
 20
1.601066282
 11
7.5689246611
 21
1.601066282
  0
LINE
  5
213
100
AcDbEntity
  8
0
100
AcDbLine
 62
7
  6
CONTINUOUS
 10
8.6789246611
 20
1.609726536
 11
7.5739246611
 21
1.609726536
  0
LINE
  5
214
100
AcDbEntity
  8
0
100
AcDbLine
 62
7
  6
CONTINUOUS
 10
7.616604153
 20
1.6343675522
 11
8.6362451691
 21
1.6343675522
  0
LINE
  5
215
100
AcDbEntity
  8
0
100
AcDbLine
 62
7
  6
CONTINUOUS
 10
7.621604153
 20
1.6357072981
 11
8.6312451691
 21
1.6357072981
  0
LINE
  5
216
100
AcDbEntity
  8
0
100
AcDbLine
 62
7
  6
CONTINUOUS
 10
7.6951746611
 20
1.6457072981
 11
8.5576746611
 21
1.6457072981
  0
LINE
  5
217
100
AcDbEntity
  8
0
100
AcDbLine
 62
7
  6
CONTINUOUS
 10
3.0989246611
 20
6.4307799442
 11
3.0989246611
 21
6.5624572981
  0
LINE
  5
218
100
AcDbEntity
  8
0
100
AcDbLine
 62
7
  6
CONTINUOUS
 10
7.6951746611
 20
1.7349572981
 11
8.5576746611
 21
1.7349572981
  0
LINE
  5
219
100
AcDbEntity
  8
0
100
AcDbLine
 62
7
  6
CONTINUOUS
 10
7.7051746611
 20
1.7449572981
 11
8.5476746611
 21
1.7449572981
  0
LINE
  5
21A
100
AcDbEntity
  8
0
100
AcDbLine
 62
7
  6
CONTINUOUS
 10
3.3639246611
 20
6.3324572981
 11
3.3639246611
 21
6.1059572981
  0
LINE
  5
21B
100
AcDbEntity
  8
0
100
AcDbLine
 62
7
  6
CONTINUOUS
 10
3.4101746611
 20
6.5199572981
 11
3.4101746611
 21
6.4602478822
  0
LINE
  5
21C
100
AcDbEntity
  8
0
100
AcDbLine
 62
7
  6
CONTINUOUS
 10
3.4426746611
 20
6.3474572981
 11
3.4426746611
 21
6.4209572981
  0
LINE
  5
21D
100
AcDbEntity
  8
0
100
AcDbLine
 62
7
  6
CONTINUOUS
 10
8.4546746611
 20
2.0749572981
 11
7.7981746611
 21
2.0749572981
  0
LINE
  5
21E
100
AcDbEntity
  8
0
100
AcDbLine
 62
7
  6
CONTINUOUS
 10
7.8678338539
 20
2.0903707845
 11
8.3850154683
 21
2.0903707845
  0
LINE
  5
21F
100
AcDbEntity
  8
0
100
AcDbLine
 62
7
  6
CONTINUOUS
 10
3.6591746611
 20
6.6374572981
 11
3.6591746611
 21
7.3249572981
  0
LINE
  5
220
100
AcDbEntity
  8
0
100
AcDbLine
 62
7
  6
CONTINUOUS
 10
3.7326746611
 20
7.3249572981
 11
3.7326746611
 21
6.6374572981
  0
LINE
  5
221
100
AcDbEntity
  8
0
100
AcDbLine
 62
7
  6
CONTINUOUS
 10
3.7426746611
 20
7.3149572981
 11
3.7426746611
 21
6.6474572981
  0
LINE
  5
222
100
AcDbEntity
  8
0
100
AcDbLine
 62
7
  6
CONTINUOUS
 10
8.7157729729
 20
2.8247389033
 11
8.6810338576
 21
2.8204734763
  0
LINE
  5
223
100
AcDbEntity
  8
0
100
AcDbLine
 62
7
  6
CONTINUOUS
 10
7.7514246611
 20
2.3874572981
 11
7.8764246611
 21
2.3874572981
  0
LINE
  5
224
100
AcDbEntity
  8
0
100
AcDbLine
 62
7
  6
CONTINUOUS
 10
8.3764246611
 20
2.3874572981
 11
8.5014246611
 21
2.3874572981
  0
LINE
  5
225
100
AcDbEntity
  8
0
100
AcDbLine
 62
7
  6
CONTINUOUS
 10
7.7774054232
 20
2.4024572981
 11
7.8764246611
 21
2.4024572981
  0
LINE
  5
226
100
AcDbEntity
  8
0
100
AcDbLine
 62
7
  6
CONTINUOUS
 10
8.3764246611
 20
2.4024572981
 11
8.475443899
 21
2.4024572981
  0
LINE
  5
227
100
AcDbEntity
  8
0
100
AcDbLine
 62
7
  6
CONTINUOUS
 10
8.4701746611
 20
2.4324572981
 11
8.3764246611
 21
2.4324572981
  0
LINE
  5
228
100
AcDbEntity
  8
0
100
AcDbLine
 62
7
  6
CONTINUOUS
 10
7.7826746611
 20
2.4324572981
 11
7.8764246611
 21
2.4324572981
  0
LINE
  5
229
100
AcDbEntity
  8
0
100
AcDbLine
 62
7
  6
CONTINUOUS
 10
8.6563961179
 20
2.8980491283
 11
8.7209116177
 21
2.9059706356
  0
LINE
  5
22A
100
AcDbEntity
  8
0
100
AcDbLine
 62
7
  6
CONTINUOUS
 10
7.8551426961
 20
2.7109572981
 11
7.8764246611
 21
2.7109572981
  0
LINE
  5
22B
100
AcDbEntity
  8
0
100
AcDbLine
 62
7
  6
CONTINUOUS
 10
8.3764246611
 20
2.7109572981
 11
8.3977066261
 21
2.7109572981
  0
LINE
  5
22C
100
AcDbEntity
  8
0
100
AcDbLine
 62
7
  6
CONTINUOUS
 10
8.4489246611
 20
2.7699572981
 11
8.3764246611
 21
2.7699572981
  0
LINE
  5
22D
100
AcDbEntity
  8
0
100
AcDbLine
 62
7
  6
CONTINUOUS
 10
7.8764246611
 20
2.7699572981
 11
7.8039246611
 21
2.7699572981
  0
LINE
  5
22E
100
AcDbEntity
  8
0
100
AcDbLine
 62
7
  6
CONTINUOUS
 10
8.4639246611
 20
2.7849572981
 11
8.3764246611
 21
2.7849572981
  0
LINE
  5
22F
100
AcDbEntity
  8
0
100
AcDbLine
 62
7
  6
CONTINUOUS
 10
7.8764246611
 20
2.7849572981
 11
7.7889246611
 21
2.7849572981
  0
LINE
  5
230
100
AcDbEntity
  8
0
100
AcDbLine
 62
7
  6
CONTINUOUS
 10
7.8364246611
 20
2.9207992228
 11
7.8264246611
 21
2.9207992228
  0
LINE
  5
231
100
AcDbEntity
  8
0
100
AcDbLine
 62
7
  6
CONTINUOUS
 10
8.4164246611
 20
2.9207992228
 11
8.4264246611
 21
2.9207992228
  0
LINE
  5
232
100
AcDbEntity
  8
0
100
AcDbLine
 62
7
  6
CONTINUOUS
 10
8.6288996058
 20
3.8857995335
 11
8.6349157226
 21
3.8870782986
  0
LINE
  5
233
100
AcDbEntity
  8
0
100
AcDbLine
 62
7
  6
CONTINUOUS
 10
8.630813676
 20
3.8915107264
 11
8.6386864999
 21
3.8931841468
  0
LINE
  5
234
100
AcDbEntity
  8
0
100
AcDbLine
 62
7
  6
CONTINUOUS
 10
8.6219702746
 20
3.9321402325
 11
8.6220226591
 21
3.9321513672
  0
LINE
  5
235
100
AcDbEntity
  8
0
100
AcDbLine
 62
7
  6
CONTINUOUS
 10
8.5915356659
 20
3.5493777541
 11
8.5766474736
 21
3.547549714
  0
LINE
  5
236
100
AcDbEntity
  8
0
100
AcDbLine
 62
7
  6
CONTINUOUS
 10
8.6241522197
 20
3.5709300572
 11
8.639040412
 21
3.5727580974
  0
LINE
  5
237
100
AcDbEntity
  8
0
100
AcDbLine
 62
7
  6
CONTINUOUS
 10
8.5113404254
 20
3.6691574868
 11
8.4964522331
 21
3.6673294467
  0
LINE
  5
238
100
AcDbEntity
  8
0
100
AcDbLine
 62
7
  6
CONTINUOUS
 10
8.5439569792
 20
3.6907097899
 11
8.5588451715
 21
3.6925378301
  0
LINE
  5
239
100
AcDbEntity
  8
0
100
AcDbLine
 62
7
  6
CONTINUOUS
 10
7.8364246611
 20
3.2441153735
 11
7.8264246611
 21
3.2441153735
  0
LINE
  5
23A
100
AcDbEntity
  8
0
100
AcDbLine
 62
7
  6
CONTINUOUS
 10
8.4164246611
 20
3.2441153735
 11
8.4264246611
 21
3.2441153735
  0
LINE
  5
23B
100
AcDbEntity
  8
0
100
AcDbLine
 62
7
  6
CONTINUOUS
 10
8.4734034838
 20
3.7319638097
 11
8.4524246611
 21
3.7293879342
  0
LINE
  5
23C
100
AcDbEntity
  8
0
100
AcDbLine
 62
7
  6
CONTINUOUS
 10
8.5619709541
 20
3.749135464
 11
8.5867846079
 21
3.7521821976
  0
LINE
  5
23D
100
AcDbEntity
  8
0
100
AcDbLine
 62
7
  6
CONTINUOUS
 10
8.4691380568
 20
3.766702925
 11
8.4524246611
 21
3.764650778
  0
LINE
  5
23E
100
AcDbEntity
  8
0
100
AcDbLine
 62
7
  6
CONTINUOUS
 10
8.6019130939
 20
3.7930807479
 11
8.617208324
 21
3.794958766
  0
LINE
  5
23F
100
AcDbEntity
  8
0
100
AcDbLine
 62
7
  6
CONTINUOUS
 10
8.4524246611
 20
3.8263607549
 11
8.4765617518
 21
3.8293244169
  0
LINE
  5
240
100
AcDbEntity
  8
0
100
AcDbLine
 62
7
  6
CONTINUOUS
 10
8.4751907217
 20
3.8404905611
 11
8.5397062216
 21
3.8484120685
  0
LINE
  5
241
100
AcDbEntity
  8
0
100
AcDbLine
 62
7
  6
CONTINUOUS
 10
8.5824139989
 20
3.9518881321
 11
8.597709229
 21
3.9537661503
  0
LINE
  5
242
100
AcDbEntity
  8
0
100
AcDbLine
 62
7
  6
CONTINUOUS
 10
7.7889246611
 20
3.3799572981
 11
7.8764246611
 21
3.3799572981
  0
LINE
  5
243
100
AcDbEntity
  8
0
100
AcDbLine
 62
7
  6
CONTINUOUS
 10
8.3764246611
 20
3.3799572981
 11
8.4639246611
 21
3.3799572981
  0
LINE
  5
244
100
AcDbEntity
  8
0
100
AcDbLine
 62
7
  6
CONTINUOUS
 10
7.8039246611
 20
3.3949572981
 11
7.8764246611
 21
3.3949572981
  0
LINE
  5
245
100
AcDbEntity
  8
0
100
AcDbLine
 62
7
  6
CONTINUOUS
 10
8.3764246611
 20
3.3949572981
 11
8.4489246611
 21
3.3949572981
  0
LINE
  5
246
100
AcDbEntity
  8
0
100
AcDbLine
 62
7
  6
CONTINUOUS
 10
8.393002545
 20
3.4539572981
 11
8.3764246611
 21
3.4539572981
  0
LINE
  5
247
100
AcDbEntity
  8
0
100
AcDbLine
 62
7
  6
CONTINUOUS
 10
7.8764246611
 20
3.4539572981
 11
7.8598467772
 21
3.4539572981
  0
LINE
  5
248
100
AcDbEntity
  8
0
100
AcDbLine
 62
7
  6
CONTINUOUS
 10
7.5930883857
 20
3.5528707845
 11
7.7520152122
 21
3.5528707845
  0
LINE
  5
249
100
AcDbEntity
  8
0
100
AcDbLine
 62
7
  6
CONTINUOUS
 10
7.8139246611
 20
3.5721207845
 11
7.7520152122
 21
3.5721207845
  0
LINE
  5
24A
100
AcDbEntity
  8
0
100
AcDbLine
 62
7
  6
CONTINUOUS
 10
7.5960152122
 20
3.5778707845
 11
7.7520152122
 21
3.5778707845
  0
LINE
  5
24B
100
AcDbEntity
  8
0
100
AcDbLine
 62
7
  6
CONTINUOUS
 10
8.4374246611
 20
3.5971207845
 11
8.4174246611
 21
3.5971207845
  0
LINE
  5
24C
100
AcDbEntity
  8
0
100
AcDbLine
 62
7
  6
CONTINUOUS
 10
8.6362451691
 20
1.6343675522
 11
8.6789246611
 21
1.609726536
  0
LINE
  5
24D
100
AcDbEntity
  8
0
100
AcDbLine
 62
7
  6
CONTINUOUS
 10
8.533026985
 20
3.9848651751
 11
8.5578406388
 21
3.9879119086
  0
LINE
  5
24E
100
AcDbEntity
  8
0
100
AcDbLine
 62
7
  6
CONTINUOUS
 10
8.4524246611
 20
3.9938592633
 11
8.4563009735
 21
3.9943352147
  0
LINE
  5
24F
100
AcDbEntity
  8
0
100
AcDbLine
 62
7
  6
CONTINUOUS
 10
8.4666190654
 20
4.0333837355
 11
8.5013581807
 21
4.0376491625
  0
LINE
  5
250
100
AcDbEntity
  8
0
100
AcDbLine
 62
7
  6
CONTINUOUS
 10
8.635570452
 20
3.8218134487
 11
8.6355169298
 21
3.8218115797
  0
LINE
  5
251
100
AcDbEntity
  8
0
100
AcDbLine
 62
7
  6
CONTINUOUS
 10
8.6423122816
 20
3.8636545241
 11
8.6342684773
 21
3.8633736282
  0
LINE
  5
252
100
AcDbEntity
  8
0
100
AcDbLine
 62
7
  6
CONTINUOUS
 10
8.6371763742
 20
3.8686667689
 11
8.631029804
 21
3.868452126
  0
LINE
  5
253
100
AcDbEntity
  8
0
100
AcDbLine
 62
7
  6
CONTINUOUS
 10
8.4601746611
 20
3.6549572981
 11
8.4524246611
 21
3.6549572981
  0
LINE
  5
254
100
AcDbEntity
  8
0
100
AcDbLine
 62
7
  6
CONTINUOUS
 10
8.4524246611
 20
3.6649572981
 11
8.4701746611
 21
3.6649572981
  0
LINE
  5
255
100
AcDbEntity
  8
0
100
AcDbLine
 62
7
  6
CONTINUOUS
 10
7.5960152122
 20
3.8028707845
 11
7.7520152122
 21
3.8028707845
  0
LINE
  5
256
100
AcDbEntity
  8
0
100
AcDbLine
 62
7
  6
CONTINUOUS
 10
7.5960152122
 20
3.8528707845
 11
7.7520152122
 21
3.8528707845
  0
LINE
  5
257
100
AcDbEntity
  8
0
100
AcDbLine
 62
7
  6
CONTINUOUS
 10
8.2131746655
 20
4.2643322991
 11
8.2169246619
 21
4.2644573012
  0
LINE
  5
258
100
AcDbEntity
  8
0
100
AcDbLine
 62
7
  6
CONTINUOUS
 10
8.4374246611
 20
4.0586207845
 11
8.4174246611
 21
4.0586207845
  0
LINE
  5
259
100
AcDbEntity
  8
0
100
AcDbLine
 62
7
  6
CONTINUOUS
 10
7.5960152122
 20
4.0778707845
 11
7.7520152122
 21
4.0778707845
  0
LINE
  5
25A
100
AcDbEntity
  8
0
100
AcDbLine
 62
7
  6
CONTINUOUS
 10
8.4024246611
 20
4.0836207845
 11
7.7520152122
 21
4.0836207845
  0
LINE
  5
25B
100
AcDbEntity
  8
0
100
AcDbLine
 62
7
  6
CONTINUOUS
 10
7.5930883857
 20
4.1028707845
 11
7.7520152122
 21
4.1028707845
  0
LINE
  5
25C
100
AcDbEntity
  8
0
100
AcDbLine
 62
7
  6
CONTINUOUS
 10
8.475443899
 20
2.4024572981
 11
8.5014246611
 21
2.3874572981
  0
LINE
  5
25D
100
AcDbEntity
  8
0
100
AcDbLine
 62
7
  6
CONTINUOUS
 10
7.8364246611
 20
2.9034787147
 11
7.8764246611
 21
2.8803847039
  0
LINE
  5
25E
100
AcDbEntity
  8
0
100
AcDbLine
 62
7
  6
CONTINUOUS
 10
7.8414246611
 20
2.9121389687
 11
7.8764246611
 21
2.8919317093
  0
LWPOLYLINE
  5
25F
100
AcDbEntity
  8
0
100
AcDbPolyline
 62
7
  6
CONTINUOUS
 90
4
 70
0
 10
7.7984791998
 20
4.7892152724
 10
7.7970507558
 20
4.7889290623
 10
7.7956219738
 20
4.7886792258
 10
7.7941938235
 20
4.7884654536
  0
LINE
  5
260
100
AcDbEntity
  8
0
100
AcDbLine
 62
7
  6
CONTINUOUS
 10
7.7828426374
 20
4.2837122759
 11
7.7828749576
 21
4.2837132866
  0
LINE
  5
261
100
AcDbEntity
  8
0
100
AcDbLine
 62
7
  6
CONTINUOUS
 10
8.1515496617
 20
4.2627072939
 11
8.2131746655
 21
4.2643322991
  0
LINE
  5
262
100
AcDbEntity
  8
0
100
AcDbLine
 62
7
  6
CONTINUOUS
 10
8.1474246589
 20
4.2627072939
 11
8.1515496617
 21
4.2627072939
  0
LINE
  5
263
100
AcDbEntity
  8
0
100
AcDbLine
 62
7
  6
CONTINUOUS
 10
8.4700066847
 20
4.2837122759
 11
8.4699743645
 21
4.2837132866
  0
LINE
  5
264
100
AcDbEntity
  8
0
100
AcDbLine
 62
7
  6
CONTINUOUS
 10
7.5910365623
 20
3.5533111769
 11
7.4949633889
 21
3.596544105
  0
LINE
  5
265
100
AcDbEntity
  8
0
100
AcDbLine
 62
7
  6
CONTINUOUS
 10
7.79419532
 20
4.7884655329
 11
7.794061727
 21
4.7884478999
  0
LINE
  5
266
100
AcDbEntity
  8
0
100
AcDbLine
 62
7
  6
CONTINUOUS
 10
7.7680171936
 20
4.7577695507
 11
7.7830098637
 21
4.7582384244
  0
LINE
  5
267
100
AcDbEntity
  8
0
100
AcDbLine
 62
7
  6
CONTINUOUS
 10
8.3139246611
 20
4.5519572981
 11
8.3039246611
 21
4.5519572981
  0
LINE
  5
268
100
AcDbEntity
  8
0
100
AcDbLine
 62
7
  6
CONTINUOUS
 10
7.9389246611
 20
4.5519572981
 11
7.9489246611
 21
4.5519572981
  0
LINE
  5
269
100
AcDbEntity
  8
0
100
AcDbLine
 62
7
  6
CONTINUOUS
 10
8.0324246611
 20
4.6354572981
 11
8.2204246611
 21
4.6354572981
  0
LINE
  5
26A
100
AcDbEntity
  8
0
100
AcDbLine
 62
7
  6
CONTINUOUS
 10
8.0324246611
 20
4.6454572981
 11
8.2204246611
 21
4.6454572981
  0
LINE
  5
26B
100
AcDbEntity
  8
0
100
AcDbLine
 62
7
  6
CONTINUOUS
 10
7.7941416191
 20
2.7735770819
 11
7.7942500285
 21
2.7734829009
  0
LINE
  5
26C
100
AcDbEntity
  8
0
100
AcDbLine
 62
7
  6
CONTINUOUS
 10
7.7941053718
 20
2.7736121164
 11
7.7943324675
 21
2.7734125229
  0
LWPOLYLINE
  5
26D
100
AcDbEntity
  8
0
100
AcDbPolyline
 62
7
  6
CONTINUOUS
 90
3
 70
0
 10
7.7943324675
 20
2.7734125229
 10
7.7945443705
 20
2.7732225848
 10
7.7948187457
 20
2.7729727522
  0
LINE
  5
26E
100
AcDbEntity
  8
0
100
AcDbLine
 62
7
  6
CONTINUOUS
 10
7.7948187457
 20
2.7729727522
 11
7.795155863
 21
2.7726607336
  0
LINE
  5
26F
100
AcDbEntity
  8
0
100
AcDbLine
 62
7
  6
CONTINUOUS
 10
7.7980025338
 20
4.7737072981
 11
8.4548467883
 21
4.7737072981
  0
LINE
  5
270
100
AcDbEntity
  8
0
100
AcDbLine
 62
7
  6
CONTINUOUS
 10
7.7980025338
 20
4.7887072981
 11
8.4548467883
 21
4.7887072981
  0
LINE
  5
271
100
AcDbEntity
  8
0
100
AcDbLine
 62
7
  6
CONTINUOUS
 10
7.8549515581
 20
4.8477072981
 11
8.397897764
 21
4.8477072981
  0
LINE
  5
272
100
AcDbEntity
  8
0
100
AcDbLine
 62
7
  6
CONTINUOUS
 10
8.4848321285
 20
4.7577695507
 11
8.4698394584
 21
4.7582384244
  0
LINE
  5
273
100
AcDbEntity
  8
0
100
AcDbLine
 62
7
  6
CONTINUOUS
 10
8.4114246611
 20
3.2527756275
 11
8.3764246611
 21
3.272982887
  0
LINE
  5
274
100
AcDbEntity
  8
0
100
AcDbLine
 62
7
  6
CONTINUOUS
 10
8.4164246611
 20
3.2614358816
 11
8.3764246611
 21
3.2845298924
  0
LINE
  5
275
100
AcDbEntity
  8
0
100
AcDbLine
 62
7
  6
CONTINUOUS
 10
8.4389246611
 20
5.0274572981
 11
7.8139246611
 21
5.0274572981
  0
LINE
  5
276
100
AcDbEntity
  8
0
100
AcDbLine
 62
7
  6
CONTINUOUS
 10
7.8139246611
 20
5.1749572981
 11
8.4389246611
 21
5.1749572981
  0
LINE
  5
277
100
AcDbEntity
  8
0
100
AcDbLine
 62
7
  6
CONTINUOUS
 10
7.8339246611
 20
5.1949572981
 11
8.4189246611
 21
5.1949572981
  0
LINE
  5
278
100
AcDbEntity
  8
0
100
AcDbLine
 62
7
  6
CONTINUOUS
 10
8.4587893639
 20
4.7884476595
 11
8.4586608995
 21
4.7884647155
  0
LWPOLYLINE
  5
279
100
AcDbEntity
  8
0
100
AcDbPolyline
 62
7
  6
CONTINUOUS
 90
3
 70
0
 10
8.4586608995
 20
4.7884647155
 10
8.4572332975
 20
4.7886782638
 10
8.455804978
 20
4.7889278629
  0
LINE
  5
27A
100
AcDbEntity
  8
0
100
AcDbLine
 62
7
  6
CONTINUOUS
 10
7.5910365623
 20
4.102430392
 11
7.4949633889
 21
4.0591974639
  0
LWPOLYLINE
  5
27B
100
AcDbEntity
  8
0
100
AcDbPolyline
 62
7
  6
CONTINUOUS
 90
56
 70
0
 10
8.455804978
 20
4.7889278629
 10
8.4543769111
 20
4.789213828
 10
8.4529498634
 20
4.7895365028
 10
8.4515250263
 20
4.7898961191
 10
8.4501040231
 20
4.7902927379
 10
8.4486874419
 20
4.7907266634
 10
8.447276735
 20
4.7911979245
 10
8.4458748012
 20
4.7917059346
 10
8.4444827035
 20
4.7922506118
 10
8.4431013703
 20
4.7928318998
 10
8.4417334057
 20
4.7934489435
 10
8.4403797725
 20
4.7941014779
 10
8.4390414018
 20
4.7947892257
 10
8.437720733
 20
4.7955110344
 10
8.4364188356
 20
4.7962663365
 10
8.4351363643
 20
4.7970547694
 10
8.4338750182
 20
4.7978752709
 10
8.4326359435
 20
4.7987270104
 10
8.4314195463
 20
4.7996096226
 10
8.430226362
 20
4.8005226652
 10
8.4290571796
 20
4.8014654908
 10
8.4279126996
 20
4.8024374902
 10
8.4267933333
 20
4.8034382921
 10
8.4256997508
 20
4.8044672999
 10
8.4246327169
 20
4.8055237972
 10
8.42359279
 20
4.80660724
 10
8.4225805959
 20
4.8077170015
 10
8.4215968623
 20
4.8088523094
 10
8.4206422811
 20
4.8100123824
 10
8.419717475
 20
4.8111964776
 10
8.4188230536
 20
4.8124038287
 10
8.4179596517
 20
4.8136335879
 10
8.4171278339
 20
4.8148849545
 10
8.4163281385
 20
4.8161571221
 10
8.4155611203
 20
4.8174492073
 10
8.4148272848
 20
4.8187603506
 10
8.4141270935
 20
4.8200897195
 10
8.4134609983
 20
4.8214364492
 10
8.4128294307
 20
4.8227996595
 10
8.4122327947
 20
4.8241784705
 10
8.4116714681
 20
4.8255720024
 10
8.4111458132
 20
4.8269793508
 10
8.4106561689
 20
4.8283996027
 10
8.410202846
 20
4.8298318525
 10
8.4097861379
 20
4.8312751714
 10
8.4094063141
 20
4.8327286235
 10
8.4090636165
 20
4.8341912826
 10
8.408758268
 20
4.8356622005
 10
8.4084904672
 20
4.8371404237
 10
8.4082603859
 20
4.8386250104
 10
8.4080681751
 20
4.8401149984
 10
8.4079139613
 20
4.8416094217
 10
8.4077978454
 20
4.8431073282
 10
8.4077199056
 20
4.8446077523
 10
8.4076801959
 20
4.8461097157
 10
8.4076746599
 20
4.8469179328
  0
LINE
  5
27C
100
AcDbEntity
  8
0
100
AcDbLine
 62
7
  6
CONTINUOUS
 10
8.4302574527
 20
5.0109393933
 11
8.431013775
 21
5.0115229069
  0
LINE
  5
27D
100
AcDbEntity
  8
0
100
AcDbLine
 62
7
  6
CONTINUOUS
 10
7.8414246611
 20
3.2527756275
 11
7.8364246611
 21
3.2614358816
  0
LINE
  5
27E
100
AcDbEntity
  8
0
100
AcDbLine
 62
7
  6
CONTINUOUS
 10
3.3589246611
 20
6.1009572981
 11
2.8389246611
 21
6.1009572981
  0
LINE
  5
27F
100
AcDbEntity
  8
0
100
AcDbLine
 62
7
  6
CONTINUOUS
 10
2.8339246611
 20
6.1059572981
 11
3.3639246611
 21
6.1059572981
  0
LINE
  5
280
100
AcDbEntity
  8
0
100
AcDbLine
 62
7
  6
CONTINUOUS
 10
8.2174246592
 20
4.2774572978
 11
8.2057996636
 21
4.2890822934
  0
LWPOLYLINE
  5
281
100
AcDbEntity
  8
0
100
AcDbPolyline
 62
7
  6
CONTINUOUS
 90
14
 70
0
 10
8.6314407828
 20
3.8677796231
 10
8.6314471082
 20
3.8677732366
 10
8.6314395269
 20
3.8677818536
 10
8.6314262043
 20
3.8677977913
 10
8.6314069532
 20
3.8678220338
 10
8.631382008
 20
3.8678550869
 10
8.6313515869
 20
3.867897485
 10
8.6313159534
 20
3.8679497025
 10
8.6312754619
 20
3.8680120713
 10
8.6312304851
 20
3.8680848702
 10
8.6311813356
 20
3.8681684528
 10
8.6311283819
 20
3.8682630621
 10
8.6310720906
 20
3.8683687247
 10
8.6310127662
 20
3.8684857295
  0
LINE
  5
282
100
AcDbEntity
  8
0
100
AcDbLine
 62
7
  6
CONTINUOUS
 10
8.4114246611
 20
2.9121389687
 11
8.4164246611
 21
2.9034787147
  0
LINE
  5
283
100
AcDbEntity
  8
0
100
AcDbLine
 62
7
  6
CONTINUOUS
 10
7.4739239357
 20
3.6798365406
 11
7.479005016
 21
3.6591044894
  0
LINE
  5
284
100
AcDbEntity
  8
0
100
AcDbLine
 62
7
  6
CONTINUOUS
 10
7.4659717282
 20
3.7204873728
 11
7.4659487521
 21
3.7206420119
  0
LINE
  5
285
100
AcDbEntity
  8
0
100
AcDbLine
 62
7
  6
CONTINUOUS
 10
7.4630676455
 20
3.7400761225
 11
7.4659717282
 21
3.7204873728
  0
LINE
  5
286
100
AcDbEntity
  8
0
100
AcDbLine
 62
7
  6
CONTINUOUS
 10
7.4826746611
 20
6.6474573819
 11
7.4826746611
 21
7.3149572144
  0
LINE
  5
287
100
AcDbEntity
  8
0
100
AcDbLine
 62
7
  6
CONTINUOUS
 10
7.4891962489
 20
3.6241552698
 11
7.4891962489
 21
4.0315862991
  0
LINE
  5
288
100
AcDbEntity
  8
0
100
AcDbLine
 62
7
  6
CONTINUOUS
 10
7.4920152122
 20
3.6011037125
 11
7.4920152122
 21
4.0546378564
  0
LINE
  5
289
100
AcDbEntity
  8
0
100
AcDbLine
 62
7
  6
CONTINUOUS
 10
7.4926746611
 20
6.6374572981
 11
7.4926746611
 21
7.3249572981
  0
LINE
  5
28A
100
AcDbEntity
  8
0
100
AcDbLine
 62
7
  6
CONTINUOUS
 10
7.4949633889
 20
3.596544105
 11
7.4949633889
 21
4.0591974639
  0
LINE
  5
28B
100
AcDbEntity
  8
0
100
AcDbLine
 62
7
  6
CONTINUOUS
 10
7.5661746611
 20
7.3249572981
 11
7.5661746611
 21
6.6374572981
  0
LINE
  5
28C
100
AcDbEntity
  8
0
100
AcDbLine
 62
7
  6
CONTINUOUS
 10
7.5689246611
 20
1.5324572981
 11
7.5689246611
 21
1.601066282
  0
LINE
  5
28D
100
AcDbEntity
  8
0
100
AcDbLine
 62
7
  6
CONTINUOUS
 10
7.5910365623
 20
3.5533111769
 11
7.5910365623
 21
4.102430392
  0
LINE
  5
28E
100
AcDbEntity
  8
0
100
AcDbLine
 62
7
  6
CONTINUOUS
 10
7.5930883857
 20
3.5528707845
 11
7.5930883857
 21
4.1028707845
  0
LINE
  5
28F
100
AcDbEntity
  8
0
100
AcDbLine
 62
7
  6
CONTINUOUS
 10
7.5960152122
 20
3.5528707845
 11
7.5960152122
 21
4.1028707845
  0
LINE
  5
290
100
AcDbEntity
  8
0
100
AcDbLine
 62
7
  6
CONTINUOUS
 10
7.6951746611
 20
1.7349572981
 11
7.6951746611
 21
1.6457072981
  0
LINE
  5
291
100
AcDbEntity
  8
0
100
AcDbLine
 62
7
  6
CONTINUOUS
 10
7.7101746611
 20
1.7349572981
 11
7.7101746611
 21
1.6457072981
  0
LINE
  5
292
100
AcDbEntity
  8
0
100
AcDbLine
 62
7
  6
CONTINUOUS
 10
7.4659717213
 20
3.9352541538
 11
7.4630676293
 21
3.9156653237
  0
LINE
  5
293
100
AcDbEntity
  8
0
100
AcDbLine
 62
7
  6
CONTINUOUS
 10
7.4790056509
 20
3.9966396616
 11
7.4739239585
 21
3.9759051181
  0
LINE
  5
294
100
AcDbEntity
  8
0
100
AcDbLine
 62
7
  6
CONTINUOUS
 10
7.8639246611
 20
6.3299572981
 11
8.3889246611
 21
6.3299572981
  0
LINE
  5
295
100
AcDbEntity
  8
0
100
AcDbLine
 62
7
  6
CONTINUOUS
 10
2.8339246611
 20
6.3324572981
 11
3.3639246611
 21
6.3324572981
  0
LINE
  5
296
100
AcDbEntity
  8
0
100
AcDbLine
 62
7
  6
CONTINUOUS
 10
8.4601745773
 20
6.3374572981
 11
7.7926747448
 21
6.3374572981
  0
LINE
  5
297
100
AcDbEntity
  8
0
100
AcDbLine
 62
7
  6
CONTINUOUS
 10
3.4326746611
 20
6.3374572981
 11
2.7651746611
 21
6.3374572981
  0
LINE
  5
298
100
AcDbEntity
  8
0
100
AcDbLine
 62
7
  6
CONTINUOUS
 10
8.4701746611
 20
6.3474572981
 11
7.7826746611
 21
6.3474572981
  0
LINE
  5
299
100
AcDbEntity
  8
0
100
AcDbLine
 62
7
  6
CONTINUOUS
 10
3.4426746611
 20
6.3474572981
 11
2.7551746611
 21
6.3474572981
  0
LINE
  5
29A
100
AcDbEntity
  8
0
100
AcDbLine
 62
7
  6
CONTINUOUS
 10
7.8218355471
 20
5.0115229069
 11
7.8225918694
 21
5.0109393933
  0
LWPOLYLINE
  5
29B
100
AcDbEntity
  8
0
100
AcDbPolyline
 62
7
  6
CONTINUOUS
 90
39
 70
0
 10
7.8225918694
 20
5.0109393933
 10
7.8236624152
 20
5.0100792262
 10
7.8247188007
 20
5.0091890706
 10
7.8257604824
 20
5.0082686127
 10
7.8267860794
 20
5.0073182809
 10
7.8277934567
 20
5.0063393466
 10
7.828781833
 20
5.0053319167
 10
7.8297501922
 20
5.0042963557
 10
7.8306962295
 20
5.0032345585
 10
7.8316191374
 20
5.0021469631
 10
7.8325181625
 20
5.0010339741
 10
7.8333913159
 20
4.9998976703
 10
7.8342379481
 20
4.9987386216
 10
7.8350574237
 20
4.9975574131
 10
7.835848027
 20
4.9963563524
 10
7.8366091593
 20
4.995136326
 10
7.8373404719
 20
4.993897869
 10
7.8380408578
 20
4.9926429142
 10
7.8387097382
 20
4.9913727011
 10
7.8393470424
 20
4.9900875748
 10
7.8399525318
 20
4.9887881828
 10
7.8405258814
 20
4.9874753893
 10
7.8410668475
 20
4.9861499284
 10
7.8415753065
 20
4.9848122453
 10
7.8420509964
 20
4.9834631411
 10
7.842493675
 20
4.9821034221
 10
7.8429032256
 20
4.9807335298
 10
7.843279419
 20
4.979354272
 10
7.8436220456
 20
4.9779664618
 10
7.8439309943
 20
4.9765705404
 10
7.8442060677
 20
4.975167324
 10
7.8444470885
 20
4.9737576338
 10
7.84465395
 20
4.9723419143
 10
7.8448264869
 20
4.9709209918
 10
7.8449645538
 20
4.9694956972
 10
7.8450680486
 20
4.9680664823
 10
7.8451368427
 20
4.9666340568
 10
7.8451708124
 20
4.9651993913
 10
7.8451747213
 20
4.9645202625
  0
LINE
  5
29C
100
AcDbEntity
  8
0
100
AcDbLine
 62
7
  6
CONTINUOUS
 10
8.5022695524
 20
3.6529310763
 11
8.5708301544
 21
3.5619480844
  0
LINE
  5
29D
100
AcDbEntity
  8
0
100
AcDbLine
 62
7
  6
CONTINUOUS
 10
8.514249085
 20
3.6619583016
 11
8.582809687
 21
3.5709753097
  0
LINE
  5
29E
100
AcDbEntity
  8
0
100
AcDbLine
 62
7
  6
CONTINUOUS
 10
8.6212435601
 20
3.5781292424
 11
8.5526829581
 21
3.6691122343
  0
LINE
  5
29F
100
AcDbEntity
  8
0
100
AcDbLine
 62
7
  6
CONTINUOUS
 10
8.6332230928
 20
3.5871564678
 11
8.5646624907
 21
3.6781394597
  0
LINE
  5
2A0
100
AcDbEntity
  8
0
100
AcDbLine
 62
7
  6
CONTINUOUS
 10
7.7828426374
 20
4.2837122759
 11
7.7680171936
 21
4.7577695507
  0
LINE
  5
2A1
100
AcDbEntity
  8
0
100
AcDbLine
 62
7
  6
CONTINUOUS
 10
7.7946828119
 20
4.3849851125
 11
7.7830098637
 21
4.7582384244
  0
LINE
  5
2A2
100
AcDbEntity
  8
0
100
AcDbLine
 62
7
  6
CONTINUOUS
 10
7.8678337195
 20
2.0903707845
 11
7.8681027629
 21
2.0749572981
  0
LINE
  5
2A3
100
AcDbEntity
  8
0
100
AcDbLine
 62
7
  6
CONTINUOUS
 10
7.7514246611
 20
2.3874572981
 11
7.7514246611
 21
1.7449572981
  0
LINE
  5
2A4
100
AcDbEntity
  8
0
100
AcDbLine
 62
7
  6
CONTINUOUS
 10
7.7520152122
 20
3.5528707845
 11
7.7520152122
 21
4.1028707845
  0
LINE
  5
2A5
100
AcDbEntity
  8
0
100
AcDbLine
 62
7
  6
CONTINUOUS
 10
7.7826746611
 20
2.4324572981
 11
7.7826746611
 21
2.4024572981
  0
LINE
  5
2A6
100
AcDbEntity
  8
0
100
AcDbLine
 62
7
  6
CONTINUOUS
 10
7.7826746611
 20
6.3474572981
 11
7.7826746611
 21
6.4209572981
  0
LINE
  5
2A7
100
AcDbEntity
  8
0
100
AcDbLine
 62
7
  6
CONTINUOUS
 10
7.7889246611
 20
3.3799572981
 11
7.7889246611
 21
2.7849572981
  0
LINE
  5
2A8
100
AcDbEntity
  8
0
100
AcDbLine
 62
7
  6
CONTINUOUS
 10
7.7980025338
 20
4.7887072981
 11
7.7980025338
 21
4.7737072981
  0
LINE
  5
2A9
100
AcDbEntity
  8
0
100
AcDbLine
 62
7
  6
CONTINUOUS
 10
7.7981746611
 20
1.7449572981
 11
7.7981746611
 21
2.0749572981
  0
LINE
  5
2AA
100
AcDbEntity
  8
0
100
AcDbLine
 62
7
  6
CONTINUOUS
 10
7.8139246611
 20
5.1749572981
 11
7.8139246611
 21
5.0274572981
  0
LINE
  5
2AB
100
AcDbEntity
  8
0
100
AcDbLine
 62
7
  6
CONTINUOUS
 10
7.8139246611
 20
2.7295046156
 11
7.8139246611
 21
2.4324572981
  0
LINE
  5
2AC
100
AcDbEntity
  8
0
100
AcDbLine
 62
7
  6
CONTINUOUS
 10
7.8151746611
 20
6.5199572981
 11
7.8151746611
 21
6.4602478822
  0
LINE
  5
2AD
100
AcDbEntity
  8
0
100
AcDbLine
 62
7
  6
CONTINUOUS
 10
7.8189246611
 20
2.7699572981
 11
7.8189246611
 21
3.3949572981
  0
LINE
  5
2AE
100
AcDbEntity
  8
0
100
AcDbLine
 62
7
  6
CONTINUOUS
 10
7.8239246611
 20
5.1749572981
 11
7.8239246611
 21
5.0274572981
  0
LINE
  5
2AF
100
AcDbEntity
  8
0
100
AcDbLine
 62
7
  6
CONTINUOUS
 10
7.8264246611
 20
3.2441153735
 11
7.8264246611
 21
2.9207992228
  0
LINE
  5
2B0
100
AcDbEntity
  8
0
100
AcDbLine
 62
7
  6
CONTINUOUS
 10
7.8364246611
 20
3.2441153735
 11
7.8364246611
 21
2.9207992228
  0
LINE
  5
2B1
100
AcDbEntity
  8
0
100
AcDbLine
 62
7
  6
CONTINUOUS
 10
7.8451746611
 20
3.5637473722
 11
7.8451746611
 21
3.4517969634
  0
LINE
  5
2B2
100
AcDbEntity
  8
0
100
AcDbLine
 62
7
  6
CONTINUOUS
 10
7.8451746611
 20
4.8469179304
 11
7.8451746611
 21
4.9645202625
  0
LINE
  5
2B3
100
AcDbEntity
  8
0
100
AcDbLine
 62
7
  6
CONTINUOUS
 10
7.8639246611
 20
5.1949572981
 11
7.8639246611
 21
6.3299572981
  0
LINE
  5
2B4
100
AcDbEntity
  8
0
100
AcDbLine
 62
7
  6
CONTINUOUS
 10
7.8764246611
 20
2.0903707845
 11
7.8764246611
 21
3.5096207845
  0
LINE
  5
2B5
100
AcDbEntity
  8
0
100
AcDbLine
 62
7
  6
CONTINUOUS
 10
7.9389246611
 20
4.0836207845
 11
7.9389246611
 21
4.5519572981
  0
LINE
  5
2B6
100
AcDbEntity
  8
0
100
AcDbLine
 62
7
  6
CONTINUOUS
 10
7.9489246611
 20
4.0836207845
 11
7.9489246611
 21
4.5519572981
  0
LINE
  5
2B7
100
AcDbEntity
  8
0
100
AcDbLine
 62
7
  6
CONTINUOUS
 10
7.8151746611
 20
4.0836207845
 11
7.8151774063
 21
4.2962425973
  0
LWPOLYLINE
  5
2B8
100
AcDbEntity
  8
0
100
AcDbPolyline
 62
7
  6
CONTINUOUS
 90
55
 70
0
 10
7.8451746622
 20
4.8469179303
 10
7.8451691285
 20
4.8461098796
 10
7.8451294295
 20
4.8446080818
 10
7.8450515088
 20
4.8431078222
 10
7.8449354204
 20
4.8416100789
 10
7.8447812423
 20
4.840115817
 10
7.8445890755
 20
4.8386259887
 10
7.8443590462
 20
4.8371415596
 10
7.8440913054
 20
4.8356634915
 10
7.843786025
 20
4.8341927262
 10
7.8434434034
 20
4.8327302169
 10
7.8430636633
 20
4.8312769115
 10
7.8426470467
 20
4.829833736
 10
7.8421938229
 20
4.8284016262
 10
7.8417042852
 20
4.8269815104
 10
7.8411787443
 20
4.8255742942
 10
7.8406175391
 20
4.8241808903
 10
7.8400210316
 20
4.8228022028
 10
7.8393895997
 20
4.8214391113
 10
7.8387236472
 20
4.8200924957
 10
7.8380236055
 20
4.8187632358
 10
7.8372899262
 20
4.8174521958
 10
7.8365230707
 20
4.8161602085
 10
7.8357235444
 20
4.8148881327
 10
7.8348919014
 20
4.8136368509
 10
7.8340286796
 20
4.8124071692
 10
7.8331344434
 20
4.8111998881
 10
7.8322098266
 20
4.8100158545
 10
7.8312554385
 20
4.8088558345
 10
7.8302719014
 20
4.8077205707
 10
7.8292599063
 20
4.8066108439
 10
7.8282201799
 20
4.8055274255
 10
7.8271533481
 20
4.8044709432
 10
7.8260599712
 20
4.8034419426
 10
7.8249408129
 20
4.8024411396
 10
7.8237965439
 20
4.8014691312
 10
7.8226275791
 20
4.8005262916
 10
7.8214346197
 20
4.7996132302
 10
7.820218454
 20
4.7987305931
 10
7.8189796198
 20
4.7978788239
 10
7.8177185277
 20
4.7970582902
 10
7.8164363196
 20
4.7962698185
 10
7.815134682
 20
4.7955144639
 10
7.8138142711
 20
4.7947925901
 10
7.812476154
 20
4.7941047637
 10
7.8111227502
 20
4.793452129
 10
7.8097549897
 20
4.7928349651
 10
7.8083738342
 20
4.7922535389
 10
7.8069818664
 20
4.7917086997
 10
7.8055800142
 20
4.7912005079
 10
7.8041693382
 20
4.7907290486
 10
7.8027527124
 20
4.7902949051
 10
7.8013315813
 20
4.7898980525
 10
7.799906538
 20
4.7895381938
 10
7.7984791998
 20
4.7892152724
  0
LINE
  5
2B9
100
AcDbEntity
  8
0
100
AcDbLine
 62
7
  6
CONTINUOUS
 10
7.8764246611
 20
3.2845298924
 11
7.8364246611
 21
3.2614358816
  0
LINE
  5
2BA
100
AcDbEntity
  8
0
100
AcDbLine
 62
7
  6
CONTINUOUS
 10
7.8764246611
 20
3.272982887
 11
7.8414246611
 21
3.2527756275
  0
LINE
  5
2BB
100
AcDbEntity
  8
0
100
AcDbLine
 62
7
  6
CONTINUOUS
 10
2.7551746611
 20
6.4209572981
 11
3.4426746611
 21
6.4209572981
  0
LINE
  5
2BC
100
AcDbEntity
  8
0
100
AcDbLine
 62
7
  6
CONTINUOUS
 10
7.7826746611
 20
6.4209572981
 11
8.4701746611
 21
6.4209572981
  0
LINE
  5
2BD
100
AcDbEntity
  8
0
100
AcDbLine
 62
7
  6
CONTINUOUS
 10
7.5661746611
 20
6.6374572981
 11
7.4926746611
 21
6.6374572981
  0
LINE
  5
2BE
100
AcDbEntity
  8
0
100
AcDbLine
 62
7
  6
CONTINUOUS
 10
3.6591746611
 20
6.6374572981
 11
3.7326746611
 21
6.6374572981
  0
LINE
  5
2BF
100
AcDbEntity
  8
0
100
AcDbLine
 62
7
  6
CONTINUOUS
 10
3.619884077
 20
6.6699572981
 11
3.5601746611
 21
6.6699572981
  0
LINE
  5
2C0
100
AcDbEntity
  8
0
100
AcDbLine
 62
7
  6
CONTINUOUS
 10
7.6054652452
 20
6.6699572981
 11
7.6651746611
 21
6.6699572981
  0
LINE
  5
2C1
100
AcDbEntity
  8
0
100
AcDbLine
 62
7
  6
CONTINUOUS
 10
8.1442996619
 20
4.2705822931
 11
8.1445496661
 21
4.267082301
  0
LINE
  5
2C2
100
AcDbEntity
  8
0
100
AcDbLine
 62
7
  6
CONTINUOUS
 10
8.0324246611
 20
4.6454572981
 11
8.0324246611
 21
4.6354572981
  0
LINE
  5
2C3
100
AcDbEntity
  8
0
100
AcDbLine
 62
7
  6
CONTINUOUS
 10
8.1114246611
 20
1.7349572981
 11
8.1114246611
 21
1.6457072981
  0
LINE
  5
2C4
100
AcDbEntity
  8
0
100
AcDbLine
 62
7
  6
CONTINUOUS
 10
8.1164246611
 20
5.1749572981
 11
8.1164246611
 21
5.0274572981
  0
LINE
  5
2C5
100
AcDbEntity
  8
0
100
AcDbLine
 62
7
  6
CONTINUOUS
 10
8.1264246611
 20
6.4307799442
 11
8.1264246611
 21
6.5624572981
  0
LINE
  5
2C6
100
AcDbEntity
  8
0
100
AcDbLine
 62
7
  6
CONTINUOUS
 10
8.1364246611
 20
5.1749572981
 11
8.1364246611
 21
5.0274572981
  0
LINE
  5
2C7
100
AcDbEntity
  8
0
100
AcDbLine
 62
7
  6
CONTINUOUS
 10
8.1414246611
 20
1.7349572981
 11
8.1414246611
 21
1.6457072981
  0
LINE
  5
2C8
100
AcDbEntity
  8
0
100
AcDbLine
 62
7
  6
CONTINUOUS
 10
8.2204246611
 20
4.6454572981
 11
8.2204246611
 21
4.6354572981
  0
LINE
  5
2C9
100
AcDbEntity
  8
0
100
AcDbLine
 62
7
  6
CONTINUOUS
 10
8.2199246568
 20
4.2663322994
 11
8.2201746611
 21
4.270207298
  0
LINE
  5
2CA
100
AcDbEntity
  8
0
100
AcDbLine
 62
7
  6
CONTINUOUS
 10
8.0979246592
 20
4.2607072936
 11
8.1001746637
 21
4.2697073007
  0
LINE
  5
2CB
100
AcDbEntity
  8
0
100
AcDbLine
 62
7
  6
CONTINUOUS
 10
8.514249085
 20
3.6619583016
 11
8.5022695524
 21
3.6529310763
  0
LINE
  5
2CC
100
AcDbEntity
  8
0
100
AcDbLine
 62
7
  6
CONTINUOUS
 10
8.5526829581
 20
3.6691122343
 11
8.5646624908
 21
3.6781394596
  0
LINE
  5
2CD
100
AcDbEntity
  8
0
100
AcDbLine
 62
7
  6
CONTINUOUS
 10
8.582809687
 20
3.5709753097
 11
8.5708301544
 21
3.5619480844
  0
LINE
  5
2CE
100
AcDbEntity
  8
0
100
AcDbLine
 62
7
  6
CONTINUOUS
 10
8.6212435601
 20
3.5781292424
 11
8.6332230928
 21
3.5871564678
  0
LINE
  5
2CF
100
AcDbEntity
  8
0
100
AcDbLine
 62
7
  6
CONTINUOUS
 10
7.4826746611
 20
6.7162072981
 11
3.7426746611
 21
6.7162072981
  0
LINE
  5
2D0
100
AcDbEntity
  8
0
100
AcDbLine
 62
7
  6
CONTINUOUS
 10
8.6270339223
 20
3.9226211992
 11
8.6260301535
 21
3.9244238561
  0
LINE
  5
2D1
100
AcDbEntity
  8
0
100
AcDbLine
 62
7
  6
CONTINUOUS
 10
8.6261220467
 20
3.9242576919
 11
8.6252351492
 21
3.9258665144
  0
LINE
  5
2D2
100
AcDbEntity
  8
0
100
AcDbLine
 62
7
  6
CONTINUOUS
 10
8.6252637501
 20
3.9258144338
 11
8.62446867
 21
3.9272713221
  0
LINE
  5
2D3
100
AcDbEntity
  8
0
100
AcDbLine
 62
7
  6
CONTINUOUS
 10
8.6245030327
 20
3.9272082347
 11
8.6239621001
 21
3.9282102151
  0
LINE
  5
2D4
100
AcDbEntity
  8
0
100
AcDbLine
 62
7
  6
CONTINUOUS
 10
8.6240040063
 20
3.9281320573
 11
8.6236415263
 21
3.9288103925
  0
LINE
  5
2D5
100
AcDbEntity
  8
0
100
AcDbLine
 62
7
  6
CONTINUOUS
 10
8.6237072661
 20
3.9286870863
 11
8.623388358
 21
3.9292894029
  0
LINE
  5
2D6
100
AcDbEntity
  8
0
100
AcDbLine
 62
7
  6
CONTINUOUS
 10
8.6234233645
 20
3.9292230464
 11
8.6231793825
 21
3.9296888271
  0
LINE
  5
2D7
100
AcDbEntity
  8
0
100
AcDbLine
 62
7
  6
CONTINUOUS
 10
8.6232203825
 20
3.9296102538
 11
8.623026294
 21
3.9299848031
  0
LINE
  5
2D8
100
AcDbEntity
  8
0
100
AcDbLine
 62
7
  6
CONTINUOUS
 10
8.6310296005
 20
3.8684521189
 11
8.6310253892
 21
3.8684603351
  0
LINE
  5
2D9
100
AcDbEntity
  8
0
100
AcDbLine
 62
7
  6
CONTINUOUS
 10
8.6230529108
 20
3.9299330507
 11
8.6229038957
 21
3.9302240763
  0
LINE
  5
2DA
100
AcDbEntity
  8
0
100
AcDbLine
 62
7
  6
CONTINUOUS
 10
8.6229412457
 20
3.9301508529
 11
8.6228335735
 21
3.9303631226
  0
LINE
  5
2DB
100
AcDbEntity
  8
0
100
AcDbLine
 62
7
  6
CONTINUOUS
 10
8.6228440509
 20
3.9303425524
 11
8.622761347
 21
3.9305076931
  0
LINE
  5
2DC
100
AcDbEntity
  8
0
100
AcDbLine
 62
7
  6
CONTINUOUS
 10
8.6227735945
 20
3.9304829122
 11
8.6227145213
 21
3.9306023119
  0
LINE
  5
2DD
100
AcDbEntity
  8
0
100
AcDbLine
 62
7
  6
CONTINUOUS
 10
8.6227145213
 20
3.9306023119
 11
8.6226739012
 21
3.9306852685
  0
LINE
  5
2DE
100
AcDbEntity
  8
0
100
AcDbLine
 62
7
  6
CONTINUOUS
 10
8.6310253892
 20
3.8684603351
 11
8.6309508059
 21
3.8686141642
  0
LINE
  5
2DF
100
AcDbEntity
  8
0
100
AcDbLine
 62
7
  6
CONTINUOUS
 10
8.6226739012
 20
3.9306852685
 11
8.6226390709
 21
3.9307572368
  0
LINE
  5
2E0
100
AcDbEntity
  8
0
100
AcDbLine
 62
7
  6
CONTINUOUS
 10
8.6226390709
 20
3.9307572368
 11
8.6226094943
 21
3.9308191385
  0
LINE
  5
2E1
100
AcDbEntity
  8
0
100
AcDbLine
 62
7
  6
CONTINUOUS
 10
8.6226094943
 20
3.9308191385
 11
8.6225848384
 21
3.9308714773
  0
LINE
  5
2E2
100
AcDbEntity
  8
0
100
AcDbLine
 62
7
  6
CONTINUOUS
 10
8.6225848384
 20
3.9308714773
 11
8.6225649082
 21
3.9309144557
  0
LINE
  5
2E3
100
AcDbEntity
  8
0
100
AcDbLine
 62
7
  6
CONTINUOUS
 10
8.6309627051
 20
3.8685889936
 11
8.6308868088
 21
3.8687536298
  0
LWPOLYLINE
  5
2E4
100
AcDbEntity
  8
0
100
AcDbPolyline
 62
7
  6
CONTINUOUS
 90
3
 70
0
 10
8.6225649082
 20
3.9309144557
 10
8.6225495103
 20
3.9309482555
 10
8.6225437572
 20
3.930961078
  0
LINE
  5
2E5
100
AcDbEntity
  8
0
100
AcDbLine
 62
7
  6
CONTINUOUS
 10
8.622539257
 20
3.9309712152
 11
8.622537759
 21
3.9309746173
  0
LINE
  5
2E6
100
AcDbEntity
  8
0
100
AcDbLine
 62
7
  6
CONTINUOUS
 10
8.6308977871
 20
3.8687292225
 11
8.6308211531
 21
3.8689041303
  0
LINE
  5
2E7
100
AcDbEntity
  8
0
100
AcDbLine
 62
7
  6
CONTINUOUS
 10
8.6308310198
 20
3.8688810785
 11
8.6307541974
 21
3.86906568
  0
LINE
  5
2E8
100
AcDbEntity
  8
0
100
AcDbLine
 62
7
  6
CONTINUOUS
 10
8.6307627935
 20
3.8690445647
 11
8.6306865053
 21
3.8692377199
  0
LINE
  5
2E9
100
AcDbEntity
  8
0
100
AcDbLine
 62
7
  6
CONTINUOUS
 10
8.6306937662
 20
3.8692189445
 11
8.6306184214
 21
3.8694201331
  0
LINE
  5
2EA
100
AcDbEntity
  8
0
100
AcDbLine
 62
7
  6
CONTINUOUS
 10
8.3039246611
 20
4.5519572981
 11
8.3039246611
 21
4.0836207845
  0
LINE
  5
2EB
100
AcDbEntity
  8
0
100
AcDbLine
 62
7
  6
CONTINUOUS
 10
8.3139246611
 20
4.5519572981
 11
8.3139246611
 21
4.0836207845
  0
LINE
  5
2EC
100
AcDbEntity
  8
0
100
AcDbLine
 62
7
  6
CONTINUOUS
 10
8.3764246611
 20
3.5096201087
 11
8.3764246611
 21
2.0903707845
  0
LINE
  5
2ED
100
AcDbEntity
  8
0
100
AcDbLine
 62
7
  6
CONTINUOUS
 10
8.3889246611
 20
5.1949572981
 11
8.3889246611
 21
6.3299572981
  0
LINE
  5
2EE
100
AcDbEntity
  8
0
100
AcDbLine
 62
7
  6
CONTINUOUS
 10
8.4024246448
 20
3.6008549472
 11
8.4024246611
 21
4.0836207845
  0
LINE
  5
2EF
100
AcDbEntity
  8
0
100
AcDbLine
 62
7
  6
CONTINUOUS
 10
8.4076746611
 20
3.5637424498
 11
8.4076746611
 21
3.4517969634
  0
LINE
  5
2F0
100
AcDbEntity
  8
0
100
AcDbLine
 62
7
  6
CONTINUOUS
 10
8.4076746611
 20
4.8469179328
 11
8.4076746611
 21
4.9645202625
  0
LINE
  5
2F1
100
AcDbEntity
  8
0
100
AcDbLine
 62
7
  6
CONTINUOUS
 10
8.4164246611
 20
2.9207992228
 11
8.4164246611
 21
3.2441153735
  0
LINE
  5
2F2
100
AcDbEntity
  8
0
100
AcDbLine
 62
7
  6
CONTINUOUS
 10
8.4174246611
 20
3.5779874462
 11
8.4174246611
 21
4.0686207845
  0
LINE
  5
2F3
100
AcDbEntity
  8
0
100
AcDbLine
 62
7
  6
CONTINUOUS
 10
8.4264246611
 20
2.9207992228
 11
8.4264246611
 21
3.2441153735
  0
LINE
  5
2F4
100
AcDbEntity
  8
0
100
AcDbLine
 62
7
  6
CONTINUOUS
 10
8.4289246611
 20
5.1749572981
 11
8.4289246611
 21
5.0274572981
  0
LINE
  5
2F5
100
AcDbEntity
  8
0
100
AcDbLine
 62
7
  6
CONTINUOUS
 10
8.4339246611
 20
2.7699572981
 11
8.4339246611
 21
3.3949572981
  0
LINE
  5
2F6
100
AcDbEntity
  8
0
100
AcDbLine
 62
7
  6
CONTINUOUS
 10
8.4374246611
 20
4.0586207845
 11
8.4374246611
 21
3.5971207845
  0
LINE
  5
2F7
100
AcDbEntity
  8
0
100
AcDbLine
 62
7
  6
CONTINUOUS
 10
8.4376746611
 20
6.6049572981
 11
8.4376746611
 21
6.4602478823
  0
LINE
  5
2F8
100
AcDbEntity
  8
0
100
AcDbLine
 62
7
  6
CONTINUOUS
 10
8.4376746611
 20
4.0586207845
 11
8.4376719182
 21
4.2962420455
  0
LINE
  5
2F9
100
AcDbEntity
  8
0
100
AcDbLine
 62
7
  6
CONTINUOUS
 10
8.4389246611
 20
5.1749572981
 11
8.4389246611
 21
5.0274572981
  0
LINE
  5
2FA
100
AcDbEntity
  8
0
100
AcDbLine
 62
7
  6
CONTINUOUS
 10
8.4389246611
 20
2.7295046156
 11
8.4389246611
 21
2.4324572981
  0
LINE
  5
2FB
100
AcDbEntity
  8
0
100
AcDbLine
 62
7
  6
CONTINUOUS
 10
8.4524246611
 20
4.0436207845
 11
8.4524246611
 21
3.6121207845
  0
LINE
  5
2FC
100
AcDbEntity
  8
0
100
AcDbLine
 62
7
  6
CONTINUOUS
 10
8.4546746611
 20
1.7449572981
 11
8.4546746611
 21
2.0749572981
  0
LINE
  5
2FD
100
AcDbEntity
  8
0
100
AcDbLine
 62
7
  6
CONTINUOUS
 10
8.4548467883
 20
4.7887072981
 11
8.4548467883
 21
4.7737072981
  0
LINE
  5
2FE
100
AcDbEntity
  8
0
100
AcDbLine
 62
7
  6
CONTINUOUS
 10
8.4639246611
 20
3.3799572981
 11
8.4639246611
 21
2.7849572981
  0
LINE
  5
2FF
100
AcDbEntity
  8
0
100
AcDbLine
 62
7
  6
CONTINUOUS
 10
8.4701746611
 20
3.7315673601
 11
8.4701746611
 21
3.6649572981
  0
LINE
  5
300
100
AcDbEntity
  8
0
100
AcDbLine
 62
7
  6
CONTINUOUS
 10
8.4701746611
 20
2.4324572981
 11
8.4701746611
 21
2.4024572981
  0
LINE
  5
301
100
AcDbEntity
  8
0
100
AcDbLine
 62
7
  6
CONTINUOUS
 10
8.4701746611
 20
6.3474572981
 11
8.4701746611
 21
6.4209572981
  0
LINE
  5
302
100
AcDbEntity
  8
0
100
AcDbLine
 62
7
  6
CONTINUOUS
 10
8.5014246611
 20
2.3874572981
 11
8.5014246611
 21
1.7449572981
  0
LINE
  5
303
100
AcDbEntity
  8
0
100
AcDbLine
 62
7
  6
CONTINUOUS
 10
8.5426746611
 20
1.7349572981
 11
8.5426746611
 21
1.6457072981
  0
LWPOLYLINE
  5
304
100
AcDbEntity
  8
0
100
AcDbPolyline
 62
7
  6
CONTINUOUS
 90
39
 70
0
 10
8.4076746009
 20
4.9645202625
 10
8.4076785097
 20
4.9651993913
 10
8.4077124795
 20
4.9666340568
 10
8.4077812735
 20
4.9680664823
 10
8.4078847683
 20
4.9694956972
 10
8.4080228352
 20
4.9709209918
 10
8.4081953721
 20
4.9723419143
 10
8.4084022337
 20
4.9737576338
 10
8.4086432544
 20
4.975167324
 10
8.4089183279
 20
4.9765705404
 10
8.4092272765
 20
4.9779664618
 10
8.4095699031
 20
4.979354272
 10
8.4099460965
 20
4.9807335298
 10
8.4103556471
 20
4.9821034221
 10
8.4107983257
 20
4.9834631411
 10
8.4112740156
 20
4.9848122453
 10
8.4117824746
 20
4.9861499284
 10
8.4123234407
 20
4.9874753893
 10
8.4128967904
 20
4.9887881828
 10
8.4135022797
 20
4.9900875748
 10
8.414139584
 20
4.9913727011
 10
8.4148084643
 20
4.9926429142
 10
8.4155088502
 20
4.993897869
 10
8.4162401628
 20
4.995136326
 10
8.4170012951
 20
4.9963563524
 10
8.4177918984
 20
4.9975574131
 10
8.418611374
 20
4.9987386216
 10
8.4194580063
 20
4.9998976703
 10
8.4203311596
 20
5.0010339741
 10
8.4212301847
 20
5.0021469631
 10
8.4221530926
 20
5.0032345585
 10
8.4230991299
 20
5.0042963557
 10
8.4240674891
 20
5.0053319167
 10
8.4250558655
 20
5.0063393466
 10
8.4260632428
 20
5.0073182809
 10
8.4270888397
 20
5.0082686127
 10
8.4281305214
 20
5.0091890706
 10
8.4291869069
 20
5.0100792262
 10
8.4302574527
 20
5.0109393933
  0
LINE
  5
305
100
AcDbEntity
  8
0
100
AcDbLine
 62
7
  6
CONTINUOUS
 10
8.4389246611
 20
2.7295046156
 11
8.4389293381
 21
2.7302474962
  0
LINE
  5
306
100
AcDbEntity
  8
0
100
AcDbLine
 62
7
  6
CONTINUOUS
 10
8.3850156026
 20
2.0903707845
 11
8.3847465592
 21
2.0749572981
  0
LINE
  5
307
100
AcDbEntity
  8
0
100
AcDbLine
 62
7
  6
CONTINUOUS
 10
8.4698394584
 20
4.7582384244
 11
8.4581665102
 21
4.3849851125
  0
LINE
  5
308
100
AcDbEntity
  8
0
100
AcDbLine
 62
7
  6
CONTINUOUS
 10
8.4848321285
 20
4.7577695507
 11
8.4700066847
 21
4.2837122759
  0
LINE
  5
309
100
AcDbEntity
  8
0
100
AcDbLine
 62
7
  6
CONTINUOUS
 10
7.8414246611
 20
2.9121389687
 11
7.8364246611
 21
2.9034787147
  0
LINE
  5
30A
100
AcDbEntity
  8
0
100
AcDbLine
 62
7
  6
CONTINUOUS
 10
8.3764246611
 20
2.8919317093
 11
8.4114246611
 21
2.9121389687
  0
LINE
  5
30B
100
AcDbEntity
  8
0
100
AcDbLine
 62
7
  6
CONTINUOUS
 10
8.3764246611
 20
2.8803847039
 11
8.4164246611
 21
2.9034787147
  0
LINE
  5
30C
100
AcDbEntity
  8
0
100
AcDbLine
 62
7
  6
CONTINUOUS
 10
7.7774054232
 20
2.4024572981
 11
7.7514246611
 21
2.3874572981
  0
LINE
  5
30D
100
AcDbEntity
  8
0
100
AcDbLine
 62
7
  6
CONTINUOUS
 10
3.649352015
 20
6.9812072981
 11
3.5176746611
 21
6.9812072981
  0
LINE
  5
30E
100
AcDbEntity
  8
0
100
AcDbLine
 62
7
  6
CONTINUOUS
 10
7.5759973071
 20
6.9812072981
 11
7.7076746611
 21
6.9812072981
  0
LWPOLYLINE
  5
30F
100
AcDbEntity
  8
0
100
AcDbPolyline
 62
7
  6
CONTINUOUS
 90
7
 70
0
 10
8.6306243027
 20
3.869404081
 10
8.6305547631
 20
3.8695998217
 10
8.6304857518
 20
3.8698052299
 10
8.6304176171
 20
3.8700199536
 10
8.6303506528
 20
3.8702437303
 10
8.6302853305
 20
3.8704756214
 10
8.6302219532
 20
3.8707151628
  0
LWPOLYLINE
  5
310
100
AcDbEntity
  8
0
100
AcDbPolyline
 62
7
  6
CONTINUOUS
 90
4
 70
0
 10
8.6302857133
 20
3.8704743313
 10
8.6302233062
 20
3.8707100834
 10
8.6301629778
 20
3.8709530591
 10
8.6301051003
 20
3.871202217
  0
LINE
  5
311
100
AcDbEntity
  8
0
100
AcDbLine
 62
7
  6
CONTINUOUS
 10
8.6301051003
 20
3.871202217
 11
8.6300463315
 21
3.8714739477
  0
LINE
  5
312
100
AcDbEntity
  8
0
100
AcDbLine
 62
7
  6
CONTINUOUS
 10
8.6300498632
 20
3.8714570965
 11
8.6299935145
 21
3.8717381043
  0
LINE
  5
313
100
AcDbEntity
  8
0
100
AcDbLine
 62
7
  6
CONTINUOUS
 10
8.629997446
 20
3.8717172376
 11
8.6299439878
 21
3.8720064855
  0
LINE
  5
314
100
AcDbEntity
  8
0
100
AcDbLine
 62
7
  6
CONTINUOUS
 10
8.6299482093
 20
3.8719814631
 11
8.6298979102
 21
3.8722785079
  0
LINE
  5
315
100
AcDbEntity
  8
0
100
AcDbLine
 62
7
  6
CONTINUOUS
 10
8.629902389
 20
3.8722490765
 11
8.6298554325
 21
3.8725536149
  0
LINE
  5
316
100
AcDbEntity
  8
0
100
AcDbLine
 62
7
  6
CONTINUOUS
 10
8.6288867559
 20
3.8804751693
 11
8.6288533388
 21
3.8807002848
  0
LINE
  5
317
100
AcDbEntity
  8
0
100
AcDbLine
 62
7
  6
CONTINUOUS
 10
8.6288501076
 20
3.8807241812
 11
8.6288456237
 21
3.8807546478
  0
LINE
  5
318
100
AcDbEntity
  8
0
100
AcDbLine
 62
7
  6
CONTINUOUS
 10
8.6298601453
 20
3.8725195386
 11
8.6298167391
 21
3.8728307712
  0
LINE
  5
319
100
AcDbEntity
  8
0
100
AcDbLine
 62
7
  6
CONTINUOUS
 10
8.6288533388
 20
3.8807002848
 11
8.6288091986
 21
3.8810287452
  0
LINE
  5
31A
100
AcDbEntity
  8
0
100
AcDbLine
 62
7
  6
CONTINUOUS
 10
8.6298216613
 20
3.8727918254
 11
8.6297819259
 21
3.8731093484
  0
LINE
  5
31B
100
AcDbEntity
  8
0
100
AcDbLine
 62
7
  6
CONTINUOUS
 10
8.4734034838
 20
3.7319638097
 11
8.4691380568
 21
3.766702925
  0
LINE
  5
31C
100
AcDbEntity
  8
0
100
AcDbLine
 62
7
  6
CONTINUOUS
 10
8.4535589132
 20
4.0166675031
 11
8.4964522331
 21
3.6673294467
  0
LINE
  5
31D
100
AcDbEntity
  8
0
100
AcDbLine
 62
7
  6
CONTINUOUS
 10
8.4666190654
 20
4.0333837355
 11
8.5113404254
 21
3.6691574868
  0
LINE
  5
31E
100
AcDbEntity
  8
0
100
AcDbLine
 62
7
  6
CONTINUOUS
 10
8.5439569792
 20
3.6907097899
 11
8.5013581807
 21
4.0376491625
  0
LINE
  5
31F
100
AcDbEntity
  8
0
100
AcDbLine
 62
7
  6
CONTINUOUS
 10
8.5766474736
 20
3.547549714
 11
8.6643176252
 21
2.8335336284
  0
LINE
  5
320
100
AcDbEntity
  8
0
100
AcDbLine
 62
7
  6
CONTINUOUS
 10
8.5588451715
 20
3.6925378301
 11
8.5180744131
 21
4.0245890104
  0
LINE
  5
321
100
AcDbEntity
  8
0
100
AcDbLine
 62
7
  6
CONTINUOUS
 10
8.533026985
 20
3.9848651751
 11
8.5619709541
 21
3.749135464
  0
LINE
  5
322
100
AcDbEntity
  8
0
100
AcDbLine
 62
7
  6
CONTINUOUS
 10
8.5915356659
 20
3.5493777541
 11
8.6810338576
 21
2.8204734763
  0
LINE
  5
323
100
AcDbEntity
  8
0
100
AcDbLine
 62
7
  6
CONTINUOUS
 10
8.5578406388
 20
3.9879119086
 11
8.5867846079
 21
3.7521821976
  0
LINE
  5
324
100
AcDbEntity
  8
0
100
AcDbLine
 62
7
  6
CONTINUOUS
 10
8.5689847938
 20
3.9792051406
 11
8.595491376
 21
3.7633263526
  0
LINE
  5
325
100
AcDbEntity
  8
0
100
AcDbLine
 62
7
  6
CONTINUOUS
 10
8.7157729729
 20
2.8247389033
 11
8.6241522197
 21
3.5709300572
  0
LINE
  5
326
100
AcDbEntity
  8
0
100
AcDbLine
 62
7
  6
CONTINUOUS
 10
8.6019130939
 20
3.7930807479
 11
8.5824139989
 21
3.9518881321
  0
LINE
  5
327
100
AcDbEntity
  8
0
100
AcDbLine
 62
7
  6
CONTINUOUS
 10
8.728833125
 20
2.8414551357
 11
8.639040412
 21
3.5727580974
  0
LINE
  5
328
100
AcDbEntity
  8
0
100
AcDbLine
 62
7
  6
CONTINUOUS
 10
8.597709229
 20
3.9537661503
 11
8.617208324
 21
3.794958766
  0
LINE
  5
329
100
AcDbEntity
  8
0
100
AcDbLine
 62
7
  6
CONTINUOUS
 10
8.6058087843
 20
3.9510969785
 11
8.6244215567
 21
3.7995081117
  0
LINE
  5
32A
100
AcDbEntity
  8
0
100
AcDbLine
 62
7
  6
CONTINUOUS
 10
8.6288156782
 20
3.8809788038
 11
8.6287766838
 21
3.8813030926
  0
LINE
  5
32B
100
AcDbEntity
  8
0
100
AcDbLine
 62
7
  6
CONTINUOUS
 10
8.6297870023
 20
3.8730653252
 11
8.629751088
 21
3.873388705
  0
LINE
  5
32C
100
AcDbEntity
  8
0
100
AcDbLine
 62
7
  6
CONTINUOUS
 10
8.6287820634
 20
3.8812575281
 11
8.62874821
 21
3.8815770025
  0
LINE
  5
32D
100
AcDbEntity
  8
0
100
AcDbLine
 62
7
  6
CONTINUOUS
 10
8.6297562004
 20
3.873339334
 11
8.6297292828
 21
3.8736126969
  0
LINE
  5
32E
100
AcDbEntity
  8
0
100
AcDbLine
 62
7
  6
CONTINUOUS
 10
8.6287525573
 20
3.8815358125
 11
8.6287238543
 21
3.8818498561
  0
LINE
  5
32F
100
AcDbEntity
  8
0
100
AcDbLine
 62
7
  6
CONTINUOUS
 10
8.6287272188
 20
3.8818130239
 11
8.6287036762
 21
3.8821206323
  0
LINE
  5
330
100
AcDbEntity
  8
0
100
AcDbLine
 62
7
  6
CONTINUOUS
 10
8.6287061195
 20
3.8820881132
 11
8.628687643
 21
3.8823887575
  0
LINE
  5
331
100
AcDbEntity
  8
0
100
AcDbLine
 62
7
  6
CONTINUOUS
 10
8.6286892478
 20
3.882360504
 11
8.628675685
 21
3.8826535181
  0
LINE
  5
332
100
AcDbEntity
  8
0
100
AcDbLine
 62
7
  6
CONTINUOUS
 10
8.6286765906
 20
3.8826295916
 11
8.6286677293
 21
3.8829137546
  0
LWPOLYLINE
  5
333
100
AcDbEntity
  8
0
100
AcDbPolyline
 62
7
  6
CONTINUOUS
 90
5
 70
0
 10
8.6286681288
 20
3.8828943012
 10
8.6286637753
 20
3.8831540636
 10
8.628663429
 20
3.883408324
 10
8.6286669734
 20
3.8836560824
 10
8.6286742558
 20
3.8838968883
  0
LINE
  5
334
100
AcDbEntity
  8
0
100
AcDbLine
 62
7
  6
CONTINUOUS
 10
8.5576746611
 20
1.7349572981
 11
8.5576746611
 21
1.6457072981
  0
LINE
  5
335
100
AcDbEntity
  8
0
100
AcDbLine
 62
7
  6
CONTINUOUS
 10
8.6839246611
 20
1.5324572981
 11
8.6839246611
 21
1.601066282
  0
LWPOLYLINE
  5
336
100
AcDbEntity
  8
0
100
AcDbPolyline
 62
7
  6
CONTINUOUS
 90
4
 70
0
 10
8.6286743151
 20
3.883898123
 10
8.6286849201
 20
3.8841269158
 10
8.6286987167
 20
3.8843473995
 10
8.6287154752
 20
3.8845592508
  0
LINE
  5
337
100
AcDbEntity
  8
0
100
AcDbLine
 62
7
  6
CONTINUOUS
 10
8.6287154752
 20
3.8845592508
 11
8.6287366476
 21
3.8847777983
  0
LINE
  5
338
100
AcDbEntity
  8
0
100
AcDbLine
 62
7
  6
CONTINUOUS
 10
8.6287349632
 20
3.8847621268
 11
8.6287592591
 21
3.8849742402
  0
LINE
  5
339
100
AcDbEntity
  8
0
100
AcDbLine
 62
7
  6
CONTINUOUS
 10
8.628756868
 20
3.8849551806
 11
8.6287840497
 21
3.8851601394
  0
LINE
  5
33A
100
AcDbEntity
  8
0
100
AcDbLine
 62
7
  6
CONTINUOUS
 10
8.6287809018
 20
3.8851381737
 11
8.6288106985
 21
3.8853352748
  0
LWPOLYLINE
  5
33B
100
AcDbEntity
  8
0
100
AcDbPolyline
 62
7
  6
CONTINUOUS
 90
3
 70
0
 10
8.6357834137
 20
3.8230691861
 10
8.6357839566
 20
3.8230723989
 10
8.63578528
 20
3.8230800123
  0
LINE
  5
33C
100
AcDbEntity
  8
0
100
AcDbLine
 62
7
  6
CONTINUOUS
 10
8.6288067612
 20
3.8853108953
 11
8.6288387453
 21
3.8854987725
  0
LINE
  5
33D
100
AcDbEntity
  8
0
100
AcDbLine
 62
7
  6
CONTINUOUS
 10
8.63578528
 20
3.8230800123
 11
8.6357902968
 21
3.823107724
  0
LINE
  5
33E
100
AcDbEntity
  8
0
100
AcDbLine
 62
7
  6
CONTINUOUS
 10
8.6357902968
 20
3.823107724
 11
8.635798406
 21
3.8231507185
  0
LINE
  5
33F
100
AcDbEntity
  8
0
100
AcDbLine
 62
7
  6
CONTINUOUS
 10
8.6288340376
 20
3.8854726583
 11
8.6288678105
 21
3.885650541
  0
LINE
  5
340
100
AcDbEntity
  8
0
100
AcDbLine
 62
7
  6
CONTINUOUS
 10
8.635798406
 20
3.8231507185
 11
8.6358090012
 21
3.8232050712
  0
LINE
  5
341
100
AcDbEntity
  8
0
100
AcDbLine
 62
7
  6
CONTINUOUS
 10
8.6358090012
 20
3.8232050712
 11
8.6358219277
 21
3.8232694788
  0
LINE
  5
342
100
AcDbEntity
  8
0
100
AcDbLine
 62
7
  6
CONTINUOUS
 10
8.6358219277
 20
3.8232694788
 11
8.6358371641
 21
3.8233434433
  0
LINE
  5
343
100
AcDbEntity
  8
0
100
AcDbLine
 62
7
  6
CONTINUOUS
 10
8.6358371641
 20
3.8233434433
 11
8.635854788
 21
3.8234270151
  0
LWPOLYLINE
  5
344
100
AcDbEntity
  8
0
100
AcDbPolyline
 62
7
  6
CONTINUOUS
 90
14
 70
0
 10
8.6288623859
 20
3.8856234004
 10
8.6288975073
 20
3.8857905425
 10
8.6289272992
 20
3.8859181859
 10
8.6289567307
 20
3.8860334335
 10
8.6289854259
 20
3.886136612
 10
8.6290129422
 20
3.8862278194
 10
8.6290388359
 20
3.8863072082
 10
8.6290627124
 20
3.886375114
 10
8.6290841956
 20
3.8864319248
 10
8.629102887
 20
3.8864779718
 10
8.629118352
 20
3.8865135191
 10
8.629130123
 20
3.8865387999
 10
8.6291377721
 20
3.8865541742
 10
8.6291385039
 20
3.886555585
  0
LINE
  5
345
100
AcDbEntity
  8
0
100
AcDbLine
 62
7
  6
CONTINUOUS
 10
8.635854788
 20
3.8234270151
 11
8.6358858463
 21
3.8235704611
  0
LINE
  5
346
100
AcDbEntity
  8
0
100
AcDbLine
 62
7
  6
CONTINUOUS
 10
8.6358858463
 20
3.8235704611
 11
8.6359226492
 21
3.8237358189
  0
LINE
  5
347
100
AcDbEntity
  8
0
100
AcDbLine
 62
7
  6
CONTINUOUS
 10
8.6288914376
 20
3.8857630085
 11
8.6288998043
 21
3.8857995757
  0
LINE
  5
348
100
AcDbEntity
  8
0
100
AcDbLine
 62
7
  6
CONTINUOUS
 10
8.6359226492
 20
3.8237358189
 11
8.6359654098
 21
3.8239234257
  0
LINE
  5
349
100
AcDbEntity
  8
0
100
AcDbLine
 62
7
  6
CONTINUOUS
 10
8.6359654098
 20
3.8239234257
 11
8.6360320372
 21
3.8242089895
  0
LINE
  5
34A
100
AcDbEntity
  8
0
100
AcDbLine
 62
7
  6
CONTINUOUS
 10
8.6360320372
 20
3.8242089895
 11
8.636131135
 21
3.8246239788
  0
LINE
  5
34B
100
AcDbEntity
  8
0
100
AcDbLine
 62
7
  6
CONTINUOUS
 10
8.636131135
 20
3.8246239788
 11
8.6362475827
 21
3.8251017682
  0
LINE
  5
34C
100
AcDbEntity
  8
0
100
AcDbLine
 62
7
  6
CONTINUOUS
 10
8.6362475827
 20
3.8251017682
 11
8.6364110956
 21
3.8257592183
  0
LINE
  5
34D
100
AcDbEntity
  8
0
100
AcDbLine
 62
7
  6
CONTINUOUS
 10
8.6364110956
 20
3.8257592183
 11
8.6366348857
 21
3.8266408313
  0
LINE
  5
34E
100
AcDbEntity
  8
0
100
AcDbLine
 62
7
  6
CONTINUOUS
 10
8.6366348857
 20
3.8266408313
 11
8.6369703564
 21
3.8279378045
  0
LINE
  5
34F
100
AcDbEntity
  8
0
100
AcDbLine
 62
7
  6
CONTINUOUS
 10
8.6369703564
 20
3.8279378045
 11
8.6374416398
 21
3.8297270562
  0
LINE
  5
350
100
AcDbEntity
  8
0
100
AcDbLine
 62
7
  6
CONTINUOUS
 10
8.6374416398
 20
3.8297270562
 11
8.6379346961
 21
3.8315638444
  0
LINE
  5
351
100
AcDbEntity
  8
0
100
AcDbLine
 62
7
  6
CONTINUOUS
 10
8.6379346961
 20
3.8315638444
 11
8.6381273027
 21
3.8322728636
  0
LINE
  5
352
100
AcDbEntity
  8
0
100
AcDbLine
 62
7
  6
CONTINUOUS
 10
8.4114246611
 20
3.2527756275
 11
8.4164246611
 21
3.2614358816
  0
LWPOLYLINE
  5
353
100
AcDbEntity
  8
0
100
AcDbPolyline
 62
7
  6
CONTINUOUS
 90
4
 70
0
 10
8.4573917964
 20
2.7723775355
 10
8.4578002725
 20
2.7727604348
 10
8.458135222
 20
2.7730682174
 10
8.4583967629
 20
2.7733039562
  0
LINE
  5
354
100
AcDbEntity
  8
0
100
AcDbLine
 62
7
  6
CONTINUOUS
 10
8.4583967629
 20
2.7733039562
 11
8.4587077029
 21
2.7735770818
  0
LINE
  5
355
100
AcDbEntity
  8
0
100
AcDbLine
 62
7
  6
CONTINUOUS
 10
7.4826746611
 20
7.2462072981
 11
3.7426746611
 21
7.2462072981
  0
LINE
  5
356
100
AcDbEntity
  8
0
100
AcDbLine
 62
7
  6
CONTINUOUS
 10
3.619884077
 20
7.2924572981
 11
3.4751746611
 21
7.2924572981
  0
LINE
  5
357
100
AcDbEntity
  8
0
100
AcDbLine
 62
7
  6
CONTINUOUS
 10
7.6054652452
 20
7.2924572981
 11
7.7501746611
 21
7.2924572981
  0
LINE
  5
358
100
AcDbEntity
  8
0
100
AcDbLine
 62
7
  6
CONTINUOUS
 10
7.5661746611
 20
7.3249572981
 11
7.4926746611
 21
7.3249572981
  0
LINE
  5
359
100
AcDbEntity
  8
0
100
AcDbLine
 62
7
  6
CONTINUOUS
 10
3.6591746611
 20
7.3249572981
 11
3.7326746611
 21
7.3249572981
  0
LINE
  5
35A
100
AcDbEntity
  8
0
100
AcDbLine
 62
7
  6
CONTINUOUS
 10
7.616604153
 20
1.6343675522
 11
7.5739246611
 21
1.609726536
  0
ARC
  5
35B
100
AcDbEntity
  8
0
100
AcDbCircle
 62
7
  6
CONTINUOUS
 10
3.5601752483
 20
6.5199567109
 40
0.1500020104
100
AcDbArc
 50
90.0002242891
 51
179.9997757109
  0
ARC
  5
35C
100
AcDbEntity
  8
0
100
AcDbCircle
 62
7
  6
CONTINUOUS
 10
3.6198840769
 20
6.6399572981
 40
0.03
100
AcDbArc
 50
10.8069228748
 51
89.9999999499
  0
ARC
  5
35D
100
AcDbEntity
  8
0
100
AcDbCircle
 62
7
  6
CONTINUOUS
 10
3.6198840769
 20
7.3224572981
 40
0.03
100
AcDbArc
 50
270.0000000007
 51
349.1930771251
  0
ARC
  5
35E
100
AcDbEntity
  8
0
100
AcDbCircle
 62
7
  6
CONTINUOUS
 10
2.7576746611
 20
6.4602478823
 40
0.03
100
AcDbArc
 50
280.8069228749
 51
359.9999999942
  0
ARC
  5
35F
100
AcDbEntity
  8
0
100
AcDbCircle
 62
7
  6
CONTINUOUS
 10
3.4401746611
 20
6.4602478823
 40
0.03
100
AcDbArc
 50
180.0000000423
 51
259.1930771252
  0
ARC
  5
360
100
AcDbEntity
  8
0
100
AcDbCircle
 62
7
  6
CONTINUOUS
 10
3.7326746611
 20
7.3149572981
 40
0.01
100
AcDbArc
 50
0.0
 51
90.0
  0
ARC
  5
361
100
AcDbEntity
  8
0
100
AcDbCircle
 62
7
  6
CONTINUOUS
 10
3.7326746611
 20
6.6474572981
 40
0.01
100
AcDbArc
 50
270.0
 51
360.0
  0
ARC
  5
362
100
AcDbEntity
  8
0
100
AcDbCircle
 62
7
  6
CONTINUOUS
 10
3.4326746611
 20
6.3474572981
 40
0.01
100
AcDbArc
 50
270.0
 51
360.0
  0
ARC
  5
363
100
AcDbEntity
  8
0
100
AcDbCircle
 62
7
  6
CONTINUOUS
 10
2.7651746611
 20
6.3474572981
 40
0.01
100
AcDbArc
 50
180.0
 51
270.0
  0
ARC
  5
364
100
AcDbEntity
  8
0
100
AcDbCircle
 62
7
  6
CONTINUOUS
 10
3.6591746611
 20
7.3149572981
 40
0.01
100
AcDbArc
 50
90.0
 51
169.1930771251
  0
ARC
  5
365
100
AcDbEntity
  8
0
100
AcDbCircle
 62
7
  6
CONTINUOUS
 10
3.6591746611
 20
6.6474572981
 40
0.01
100
AcDbArc
 50
190.8069228749
 51
270.0
  0
ARC
  5
366
100
AcDbEntity
  8
0
100
AcDbCircle
 62
7
  6
CONTINUOUS
 10
3.4326746611
 20
6.4209572981
 40
0.01
100
AcDbArc
 50
0.0
 51
79.1930771251
  0
ARC
  5
367
100
AcDbEntity
  8
0
100
AcDbCircle
 62
7
  6
CONTINUOUS
 10
2.7651746611
 20
6.4209572981
 40
0.01
100
AcDbArc
 50
100.8069228749
 51
180.0
  0
ARC
  5
368
100
AcDbEntity
  8
0
100
AcDbCircle
 62
7
  6
CONTINUOUS
 10
3.3589246611
 20
6.3324572981
 40
0.005
100
AcDbArc
 50
0.0
 51
90.0
  0
ARC
  5
369
100
AcDbEntity
  8
0
100
AcDbCircle
 62
7
  6
CONTINUOUS
 10
2.8389246611
 20
6.3324572981
 40
0.005
100
AcDbArc
 50
90.0
 51
180.0
  0
ARC
  5
36A
100
AcDbEntity
  8
0
100
AcDbCircle
 62
7
  6
CONTINUOUS
 10
3.3589246611
 20
6.1059572981
 40
0.005
100
AcDbArc
 50
270.0
 51
360.0
  0
ARC
  5
36B
100
AcDbEntity
  8
0
100
AcDbCircle
 62
7
  6
CONTINUOUS
 10
2.8389246611
 20
6.1059572981
 40
0.005
100
AcDbArc
 50
180.0
 51
270.0
  0
ARC
  5
36C
100
AcDbEntity
  8
0
100
AcDbCircle
 62
7
  6
CONTINUOUS
 10
7.7549246611
 20
2.7295046156
 40
0.059
100
AcDbArc
 50
0.0
 51
47.7710439754
  0
ARC
  5
36D
100
AcDbEntity
  8
0
100
AcDbCircle
 62
7
  6
CONTINUOUS
 10
7.8464246611
 20
2.9207992228
 40
0.02
100
AcDbArc
 50
180.0
 51
240.0
  0
ARC
  5
36E
100
AcDbEntity
  8
0
100
AcDbCircle
 62
7
  6
CONTINUOUS
 10
7.8039246611
 20
2.7849572981
 40
0.015
100
AcDbArc
 50
180.0
 51
270.0
  0
ARC
  5
36F
100
AcDbEntity
  8
0
100
AcDbCircle
 62
7
  6
CONTINUOUS
 10
7.5789246611
 20
1.601066282
 40
0.01
100
AcDbArc
 50
120.0
 51
180.0
  0
ARC
  5
370
100
AcDbEntity
  8
0
100
AcDbCircle
 62
7
  6
CONTINUOUS
 10
7.621604153
 20
1.6257072981
 40
0.01
100
AcDbArc
 50
90.0
 51
120.0
  0
ARC
  5
371
100
AcDbEntity
  8
0
100
AcDbCircle
 62
7
  6
CONTINUOUS
 10
7.6851746611
 20
1.6457072981
 40
0.01
100
AcDbArc
 50
270.0
 51
360.0
  0
ARC
  5
372
100
AcDbEntity
  8
0
100
AcDbCircle
 62
7
  6
CONTINUOUS
 10
7.7051746611
 20
1.7349572981
 40
0.01
100
AcDbArc
 50
90.0
 51
180.0
  0
ARC
  5
373
100
AcDbEntity
  8
0
100
AcDbCircle
 62
7
  6
CONTINUOUS
 10
7.8464246611
 20
2.9207992228
 40
0.01
100
AcDbArc
 50
180.0
 51
240.0
  0
ARC
  5
374
100
AcDbEntity
  8
0
100
AcDbCircle
 62
7
  6
CONTINUOUS
 10
7.8139246611
 20
3.5096207845
 40
0.0625
100
AcDbArc
 50
0.0
 51
90.0
  0
ARC
  5
375
100
AcDbEntity
  8
0
100
AcDbCircle
 62
7
  6
CONTINUOUS
 10
7.7861746611
 20
3.4517969634
 40
0.059
100
AcDbArc
 50
284.1354096367
 51
360.0
  0
ARC
  5
376
100
AcDbEntity
  8
0
100
AcDbCircle
 62
7
  6
CONTINUOUS
 10
7.5159337272
 20
3.8278731428
 40
0.0420098048
100
AcDbArc
 50
177.4129385258
 51
180.0032165325
  0
ARC
  5
377
100
AcDbEntity
  8
0
100
AcDbCircle
 62
7
  6
CONTINUOUS
 10
7.4374435845
 20
3.8278674117
 40
0.041562075
100
AcDbArc
 50
357.049004343
 51
0.004649529
  0
ARC
  5
378
100
AcDbEntity
  8
0
100
AcDbCircle
 62
7
  6
CONTINUOUS
 10
7.8464246611
 20
3.2441153735
 40
0.02
100
AcDbArc
 50
120.0
 51
180.0
  0
ARC
  5
379
100
AcDbEntity
  8
0
100
AcDbCircle
 62
7
  6
CONTINUOUS
 10
7.8039246611
 20
3.3799572981
 40
0.015
100
AcDbArc
 50
90.0
 51
180.0
  0
ARC
  5
37A
100
AcDbEntity
  8
0
100
AcDbCircle
 62
7
  6
CONTINUOUS
 10
7.8464246611
 20
3.2441153735
 40
0.01
100
AcDbArc
 50
120.0
 51
180.0
  0
ARC
  5
37B
100
AcDbEntity
  8
0
100
AcDbCircle
 62
7
  6
CONTINUOUS
 10
7.4970152122
 20
4.0546378564
 40
0.005
100
AcDbArc
 50
114.2277453182
 51
180.0
  0
ARC
  5
37C
100
AcDbEntity
  8
0
100
AcDbCircle
 62
7
  6
CONTINUOUS
 10
7.4970152122
 20
3.6011037125
 40
0.005
100
AcDbArc
 50
180.0
 51
245.7722546818
  0
ARC
  5
37D
100
AcDbEntity
  8
0
100
AcDbCircle
 62
7
  6
CONTINUOUS
 10
7.5930883857
 20
4.0978707845
 40
0.005
100
AcDbArc
 50
90.0
 51
114.2277453186
  0
ARC
  5
37E
100
AcDbEntity
  8
0
100
AcDbCircle
 62
7
  6
CONTINUOUS
 10
7.5930883857
 20
3.5578707845
 40
0.005
100
AcDbArc
 50
245.7722546814
 51
270.0
  0
ARC
  5
37F
100
AcDbEntity
  8
0
100
AcDbCircle
 62
7
  6
CONTINUOUS
 10
7.4939562537
 20
4.0300558238
 40
0.005
100
AcDbArc
 50
112.8430600615
 51
162.1759428058
  0
ARC
  5
380
100
AcDbEntity
  8
0
100
AcDbCircle
 62
7
  6
CONTINUOUS
 10
7.4939562537
 20
3.6256857451
 40
0.005
100
AcDbArc
 50
197.8240571942
 51
247.1569399385
  0
ARC
  5
381
100
AcDbEntity
  8
0
100
AcDbCircle
 62
7
  6
CONTINUOUS
 10
8.4979246611
 20
2.7295046156
 40
0.059
100
AcDbArc
 50
132.5882367131
 51
179.2785585385
  0
ARC
  5
382
100
AcDbEntity
  8
0
100
AcDbCircle
 62
7
  6
CONTINUOUS
 10
8.4064246611
 20
2.9207992228
 40
0.02
100
AcDbArc
 50
300.0
 51
360.0
  0
ARC
  5
383
100
AcDbEntity
  8
0
100
AcDbCircle
 62
7
  6
CONTINUOUS
 10
8.4489246611
 20
2.7849572981
 40
0.015
100
AcDbArc
 50
270.0
 51
360.0
  0
ARC
  5
384
100
AcDbEntity
  8
0
100
AcDbCircle
 62
7
  6
CONTINUOUS
 10
8.6792058175
 20
2.8353616686
 40
0.015
100
AcDbArc
 50
187.0
 51
277.0
  0
ARC
  5
385
100
AcDbEntity
  8
0
100
AcDbCircle
 62
7
  6
CONTINUOUS
 10
8.7139449328
 20
2.8396270956
 40
0.015
100
AcDbArc
 50
277.0
 51
7.0
  0
ARC
  5
386
100
AcDbEntity
  8
0
100
AcDbCircle
 62
7
  6
CONTINUOUS
 10
8.6739246611
 20
1.601066282
 40
0.01
100
AcDbArc
 50
0.0
 51
60.0
  0
ARC
  5
387
100
AcDbEntity
  8
0
100
AcDbCircle
 62
7
  6
CONTINUOUS
 10
8.6312451691
 20
1.6257072981
 40
0.01
100
AcDbArc
 50
60.0
 51
90.0
  0
ARC
  5
388
100
AcDbEntity
  8
0
100
AcDbCircle
 62
7
  6
CONTINUOUS
 10
8.5676746611
 20
1.6457072981
 40
0.01
100
AcDbArc
 50
180.0
 51
270.0
  0
ARC
  5
389
100
AcDbEntity
  8
0
100
AcDbCircle
 62
7
  6
CONTINUOUS
 10
8.5476746611
 20
1.7349572981
 40
0.01
100
AcDbArc
 50
0.0
 51
90.0
  0
ARC
  5
38A
100
AcDbEntity
  8
0
100
AcDbCircle
 62
7
  6
CONTINUOUS
 10
8.4064246611
 20
2.9207992228
 40
0.01
100
AcDbArc
 50
300.0
 51
360.0
  0
ARC
  5
38B
100
AcDbEntity
  8
0
100
AcDbCircle
 62
7
  6
CONTINUOUS
 10
8.1227816692
 20
3.8278707845
 40
0.6655302365
100
AcDbArc
 50
162.1759428058
 51
165.3102062657
  0
ARC
  5
38C
100
AcDbEntity
  8
0
100
AcDbCircle
 62
7
  6
CONTINUOUS
 10
8.1227816692
 20
3.8278707845
 40
0.6655302365
100
AcDbArc
 50
167.1481751459
 51
170.7147267369
  0
ARC
  5
38D
100
AcDbEntity
  8
0
100
AcDbCircle
 62
7
  6
CONTINUOUS
 10
8.1227816692
 20
3.8278707845
 40
0.6655302365
100
AcDbArc
 50
172.4196365177
 51
187.5803634823
  0
ARC
  5
38E
100
AcDbEntity
  8
0
100
AcDbCircle
 62
7
  6
CONTINUOUS
 10
8.1227816692
 20
3.8278707845
 40
0.6655302365
100
AcDbArc
 50
189.2852732631
 51
192.8518248541
  0
ARC
  5
38F
100
AcDbEntity
  8
0
100
AcDbCircle
 62
7
  6
CONTINUOUS
 10
8.1227816692
 20
3.8278707845
 40
0.6655302365
100
AcDbArc
 50
194.6897937343
 51
197.8240571942
  0
ARC
  5
390
100
AcDbEntity
  8
0
100
AcDbCircle
 62
7
  6
CONTINUOUS
 10
8.1264246611
 20
4.2949572981
 40
0.34375
100
AcDbArc
 50
334.8887821605
 51
58.3289209411
  0
ARC
  5
391
100
AcDbEntity
  8
0
100
AcDbCircle
 62
7
  6
CONTINUOUS
 10
8.1264246611
 20
4.2949572981
 40
0.34375
100
AcDbArc
 50
121.6710484298
 51
205.1109730613
  0
ARC
  5
392
100
AcDbEntity
  8
0
100
AcDbCircle
 62
7
  6
CONTINUOUS
 10
8.1264246611
 20
4.2944572981
 40
0.34375
100
AcDbArc
 50
334.8901877037
 51
358.2087426131
  0
ARC
  5
393
100
AcDbEntity
  8
0
100
AcDbCircle
 62
7
  6
CONTINUOUS
 10
8.1264246611
 20
4.2944572981
 40
0.34375
100
AcDbArc
 50
181.7912573869
 51
205.1098122963
  0
ARC
  5
394
100
AcDbEntity
  8
0
100
AcDbCircle
 62
7
  6
CONTINUOUS
 10
8.1232932997
 20
4.2948189164
 40
0.3081197285
100
AcDbArc
 50
169.4494487206
 51
179.735250135
  0
ARC
  5
395
100
AcDbEntity
  8
0
100
AcDbCircle
 62
7
  6
CONTINUOUS
 10
8.1297191752
 20
4.2948341342
 40
0.307956411
100
AcDbArc
 50
0.2619561459
 51
10.0285644324
  0
ARC
  5
396
100
AcDbEntity
  8
0
100
AcDbCircle
 62
7
  6
CONTINUOUS
 10
8.1327131791
 20
4.294957262
 40
0.3049611681
100
AcDbArc
 50
359.9946040274
 51
0.2413950474
  0
ARC
  5
397
100
AcDbEntity
  8
0
100
AcDbCircle
 62
7
  6
CONTINUOUS
 10
8.1201360145
 20
4.2949572819
 40
0.3049610396
100
AcDbArc
 50
179.7585048708
 51
180.0055731856
  0
ARC
  5
398
100
AcDbEntity
  8
0
100
AcDbCircle
 62
7
  6
CONTINUOUS
 10
8.4389246565
 20
3.509620789
 40
0.0624999991
100
AcDbArc
 50
118.0971321168
 51
180.0006233435
  0
ARC
  5
399
100
AcDbEntity
  8
0
100
AcDbCircle
 62
7
  6
CONTINUOUS
 10
8.4666746611
 20
3.4517969634
 40
0.059
100
AcDbArc
 50
180.0
 51
255.9037340745
  0
ARC
  5
39A
100
AcDbEntity
  8
0
100
AcDbCircle
 62
7
  6
CONTINUOUS
 10
8.475231524
 20
3.7170756174
 40
0.05
100
AcDbArc
 50
79.5405882121
 51
97.0
  0
ARC
  5
39B
100
AcDbEntity
  8
0
100
AcDbCircle
 62
7
  6
CONTINUOUS
 10
8.588621556
 20
3.6961939104
 40
0.045
100
AcDbArc
 50
187.0
 51
217.0
  0
ARC
  5
39C
100
AcDbEntity
  8
0
100
AcDbCircle
 62
7
  6
CONTINUOUS
 10
8.5468710891
 20
3.5438936337
 40
0.045
100
AcDbArc
 50
7.0
 51
37.0
  0
ARC
  5
39D
100
AcDbEntity
  8
0
100
AcDbCircle
 62
7
  6
CONTINUOUS
 10
8.5262286177
 20
3.670985527
 40
0.03
100
AcDbArc
 50
187.0
 51
217.0
  0
ARC
  5
39E
100
AcDbEntity
  8
0
100
AcDbCircle
 62
7
  6
CONTINUOUS
 10
8.5468710891
 20
3.5438936337
 40
0.03
100
AcDbArc
 50
7.0
 51
37.0
  0
ARC
  5
39F
100
AcDbEntity
  8
0
100
AcDbCircle
 62
7
  6
CONTINUOUS
 10
8.6092640275
 20
3.5691020171
 40
0.03
100
AcDbArc
 50
7.0
 51
37.0
  0
ARC
  5
3A0
100
AcDbEntity
  8
0
100
AcDbCircle
 62
7
  6
CONTINUOUS
 10
8.588621556
 20
3.6961939104
 40
0.03
100
AcDbArc
 50
187.0
 51
217.0
  0
ARC
  5
3A1
100
AcDbEntity
  8
0
100
AcDbCircle
 62
7
  6
CONTINUOUS
 10
8.4064246611
 20
3.2441153735
 40
0.02
100
AcDbArc
 50
0.0
 51
60.0
  0
ARC
  5
3A2
100
AcDbEntity
  8
0
100
AcDbCircle
 62
7
  6
CONTINUOUS
 10
8.4489246611
 20
3.3799572981
 40
0.015
100
AcDbArc
 50
0.0
 51
90.0
  0
ARC
  5
3A3
100
AcDbEntity
  8
0
100
AcDbCircle
 62
7
  6
CONTINUOUS
 10
8.475231524
 20
3.7170756174
 40
0.015
100
AcDbArc
 50
7.0
 51
97.0
  0
ARC
  5
3A4
100
AcDbEntity
  8
0
100
AcDbCircle
 62
7
  6
CONTINUOUS
 10
8.4374246611
 20
3.6121207845
 40
0.015
100
AcDbArc
 50
270.0
 51
360.0
  0
ARC
  5
3A5
100
AcDbEntity
  8
0
100
AcDbCircle
 62
7
  6
CONTINUOUS
 10
8.4024246611
 20
3.5779874462
 40
0.015
100
AcDbArc
 50
298.0971273946
 51
360.0
  0
ARC
  5
3A6
100
AcDbEntity
  8
0
100
AcDbCircle
 62
7
  6
CONTINUOUS
 10
8.5262286177
 20
3.670985527
 40
0.015
100
AcDbArc
 50
187.0
 51
217.0
  0
ARC
  5
3A7
100
AcDbEntity
  8
0
100
AcDbCircle
 62
7
  6
CONTINUOUS
 10
8.6092640275
 20
3.5691020171
 40
0.015
100
AcDbArc
 50
7.0
 51
37.0
  0
ARC
  5
3A8
100
AcDbEntity
  8
0
100
AcDbCircle
 62
7
  6
CONTINUOUS
 10
8.4601746611
 20
3.6649572981
 40
0.01
100
AcDbArc
 50
270.0
 51
360.0
  0
ARC
  5
3A9
100
AcDbEntity
  8
0
100
AcDbCircle
 62
7
  6
CONTINUOUS
 10
8.5631896475
 20
3.7392100025
 40
0.01
100
AcDbArc
 50
97.0
 51
186.9999999951
  0
ARC
  5
3AA
100
AcDbEntity
  8
0
100
AcDbCircle
 62
7
  6
CONTINUOUS
 10
8.5855659144
 20
3.7621076592
 40
0.01
100
AcDbArc
 50
277.0
 51
7.0
  0
ARC
  5
3AB
100
AcDbEntity
  8
0
100
AcDbCircle
 62
7
  6
CONTINUOUS
 10
8.4064246611
 20
3.2441153735
 40
0.01
100
AcDbArc
 50
0.0
 51
60.0
  0
ARC
  5
3AC
100
AcDbEntity
  8
0
100
AcDbCircle
 62
7
  6
CONTINUOUS
 10
8.5220316004
 20
3.8638590084
 40
0.1202808184
100
AcDbArc
 50
344.7706357882
 51
359.9025938444
  0
ARC
  5
3AD
100
AcDbEntity
  8
0
100
AcDbCircle
 62
7
  6
CONTINUOUS
 10
8.5220281382
 20
3.8638872063
 40
0.1202808184
100
AcDbArc
 50
14.097406069
 51
29.2293641338
  0
ARC
  5
3AE
100
AcDbEntity
  8
0
100
AcDbCircle
 62
7
  6
CONTINUOUS
 10
8.5220813658
 20
3.8638658492
 40
0.1202696392
100
AcDbArc
 50
344.7705762313
 51
359.9024867781
  0
ARC
  5
3AF
100
AcDbEntity
  8
0
100
AcDbCircle
 62
7
  6
CONTINUOUS
 10
8.5220780802
 20
3.863892608
 40
0.1202696392
100
AcDbArc
 50
14.0975131729
 51
29.2294236895
  0
ARC
  5
3B0
100
AcDbEntity
  8
0
100
AcDbCircle
 62
7
  6
CONTINUOUS
 10
8.5232384428
 20
3.8640215014
 40
0.12
100
AcDbArc
 50
327.4788036414
 51
339.4066028887
  0
ARC
  5
3B1
100
AcDbEntity
  8
0
100
AcDbCircle
 62
7
  6
CONTINUOUS
 10
8.5232384428
 20
3.8640215014
 40
0.12
100
AcDbArc
 50
34.5933971113
 51
46.5211963586
  0
ARC
  5
3B2
100
AcDbEntity
  8
0
100
AcDbCircle
 62
7
  6
CONTINUOUS
 10
8.5185867132
 20
3.8634503409
 40
0.1116062014
100
AcDbArc
 50
5.2256305343
 51
8.7743694701
  0
ARC
  5
3B3
100
AcDbEntity
  8
0
100
AcDbCircle
 62
7
  6
CONTINUOUS
 10
8.5183857065
 20
3.8634256603
 40
0.1112400025
100
AcDbArc
 50
5.2256305343
 51
8.7743694657
  0
ARC
  5
3B4
100
AcDbEntity
  8
0
100
AcDbCircle
 62
7
  6
CONTINUOUS
 10
8.6537298512
 20
3.8843159001
 40
0.0257068471
100
AcDbArc
 50
187.1021497848
 51
188.7740397771
  0
ARC
  5
3B5
100
AcDbEntity
  8
0
100
AcDbCircle
 62
7
  6
CONTINUOUS
 10
8.6547036139
 20
3.8758956387
 40
0.0256470759
100
AcDbArc
 50
185.2313910953
 51
186.8893012578
  0
ARC
  5
3B6
100
AcDbEntity
  8
0
100
AcDbCircle
 62
7
  6
CONTINUOUS
 10
8.4684471055
 20
4.0184955432
 40
0.015
100
AcDbArc
 50
97.0
 51
187.0
  0
ARC
  5
3B7
100
AcDbEntity
  8
0
100
AcDbCircle
 62
7
  6
CONTINUOUS
 10
8.5031862208
 20
4.0227609702
 40
0.015
100
AcDbArc
 50
7.0
 51
97.0
  0
ARC
  5
3B8
100
AcDbEntity
  8
0
100
AcDbCircle
 62
7
  6
CONTINUOUS
 10
8.4024246611
 20
4.0686207845
 40
0.015
100
AcDbArc
 50
0.0
 51
90.0
  0
ARC
  5
3B9
100
AcDbEntity
  8
0
100
AcDbCircle
 62
7
  6
CONTINUOUS
 10
8.4374246611
 20
4.0436207845
 40
0.015
100
AcDbArc
 50
0.0
 51
90.0
  0
ARC
  5
3BA
100
AcDbEntity
  8
0
100
AcDbCircle
 62
7
  6
CONTINUOUS
 10
8.5318082916
 20
3.9947906366
 40
0.01
100
AcDbArc
 50
187.0000000049
 51
277.0
  0
ARC
  5
3BB
100
AcDbEntity
  8
0
100
AcDbCircle
 62
7
  6
CONTINUOUS
 10
8.5590593323
 20
3.9779864471
 40
0.01
100
AcDbArc
 50
7.0
 51
97.0
  0
ARC
  5
3BC
100
AcDbEntity
  8
0
100
AcDbCircle
 62
7
  6
CONTINUOUS
 10
8.5811953055
 20
3.9618135937
 40
0.01
100
AcDbArc
 50
187.0000000062
 51
277.0
  0
ARC
  5
3BD
100
AcDbEntity
  8
0
100
AcDbCircle
 62
7
  6
CONTINUOUS
 10
8.6031317873
 20
3.7831552864
 40
0.01
100
AcDbArc
 50
97.0
 51
186.9999999938
  0
ARC
  5
3BE
100
AcDbEntity
  8
0
100
AcDbCircle
 62
7
  6
CONTINUOUS
 10
8.6159896306
 20
3.8048842275
 40
0.01
100
AcDbArc
 50
277.0
 51
327.4788036801
  0
ARC
  5
3BF
100
AcDbEntity
  8
0
100
AcDbCircle
 62
7
  6
CONTINUOUS
 10
8.5989279225
 20
3.9438406887
 40
0.01
100
AcDbArc
 50
46.5211963199
 51
97.0
  0
ARC
  5
3C0
100
AcDbEntity
  8
0
100
AcDbCircle
 62
7
  6
CONTINUOUS
 10
8.6308345002
 20
3.8235700538
 40
0.0050017376
100
AcDbArc
 50
339.4164642186
 51
356.8583839889
  0
ARC
  5
3C1
100
AcDbEntity
  8
0
100
AcDbCircle
 62
7
  6
CONTINUOUS
 10
8.6178523466
 20
3.9293012106
 40
0.0050017373
100
AcDbArc
 50
17.1388160826
 51
34.5835336368
  0
ARC
  5
3C2
100
AcDbEntity
  8
0
100
AcDbCircle
 62
7
  6
CONTINUOUS
 10
8.6373508717
 20
3.8636698148
 40
0.005
100
AcDbArc
 50
359.9007952032
 51
91.9999999999
  0
ARC
  5
3C3
100
AcDbEntity
  8
0
100
AcDbCircle
 62
7
  6
CONTINUOUS
 10
8.6308899516
 20
3.8235721176
 40
0.005
100
AcDbArc
 50
339.4066028886
 51
0.1378610984
  0
ARC
  5
3C4
100
AcDbEntity
  8
0
100
AcDbCircle
 62
7
  6
CONTINUOUS
 10
8.6179066501
 20
3.9293126228
 40
0.005
100
AcDbArc
 50
13.8656308662
 51
34.5933971113
  0
ARC
  5
3C5
100
AcDbEntity
  8
0
100
AcDbCircle
 62
7
  6
CONTINUOUS
 10
8.6338761642
 20
3.8919690366
 40
0.005
100
AcDbArc
 50
282.0
 51
14.0992115633
  0
ARC
  5
3C6
100
AcDbEntity
  8
0
100
AcDbCircle
 62
7
  6
CONTINUOUS
 10
8.6373480043
 20
3.8637494303
 40
0.004920333
100
AcDbArc
 50
84.3255916512
 51
91.9989860237
  0
ARC
  5
3C7
100
AcDbEntity
  8
0
100
AcDbCircle
 62
7
  6
CONTINUOUS
 10
7.7980025338
 20
4.7587072981
 40
0.03
100
AcDbArc
 50
90.0
 51
181.7912573869
  0
ARC
  5
3C8
100
AcDbEntity
  8
0
100
AcDbCircle
 62
7
  6
CONTINUOUS
 10
7.8339246611
 20
5.1749572981
 40
0.02
100
AcDbArc
 50
90.0
 51
180.0
  0
ARC
  5
3C9
100
AcDbEntity
  8
0
100
AcDbCircle
 62
7
  6
CONTINUOUS
 10
7.8339246611
 20
5.0274572981
 40
0.02
100
AcDbArc
 50
180.0
 51
267.9083617371
  0
ARC
  5
3CA
100
AcDbEntity
  8
0
100
AcDbCircle
 62
7
  6
CONTINUOUS
 10
7.7980025338
 20
4.7587072981
 40
0.015
100
AcDbArc
 50
90.0
 51
181.7912573869
  0
ARC
  5
3CB
100
AcDbEntity
  8
0
100
AcDbCircle
 62
7
  6
CONTINUOUS
 10
7.8828572026
 20
4.9620411181
 40
0.0135442971
100
AcDbArc
 50
267.4786373361
 51
272.5213626639
  0
ARC
  5
3CC
100
AcDbEntity
  8
0
100
AcDbCircle
 62
7
  6
CONTINUOUS
 10
7.8333771931
 20
5.0124848037
 40
0.0050174999
100
AcDbArc
 50
267.9156596281
 51
272.084340303
  0
ARC
  5
3CD
100
AcDbEntity
  8
0
100
AcDbCircle
 62
7
  6
CONTINUOUS
 10
7.6651740739
 20
6.5199567109
 40
0.1500020104
100
AcDbArc
 50
0.0002242898
 51
89.9997757102
  0
ARC
  5
3CE
100
AcDbEntity
  8
0
100
AcDbCircle
 62
7
  6
CONTINUOUS
 10
7.6054652452
 20
6.6399572981
 40
0.03
100
AcDbArc
 50
90.0000000501
 51
169.1930771252
  0
ARC
  5
3CF
100
AcDbEntity
  8
0
100
AcDbCircle
 62
7
  6
CONTINUOUS
 10
7.6054652452
 20
7.3224572981
 40
0.03
100
AcDbArc
 50
190.8069228749
 51
269.9999999993
  0
ARC
  5
3D0
100
AcDbEntity
  8
0
100
AcDbCircle
 62
7
  6
CONTINUOUS
 10
7.7851746611
 20
6.4602478823
 40
0.03
100
AcDbArc
 50
280.8069228749
 51
359.9999999577
  0
ARC
  5
3D1
100
AcDbEntity
  8
0
100
AcDbCircle
 62
7
  6
CONTINUOUS
 10
7.4926746611
 20
7.3149572981
 40
0.01
100
AcDbArc
 50
90.0
 51
180.0
  0
ARC
  5
3D2
100
AcDbEntity
  8
0
100
AcDbCircle
 62
7
  6
CONTINUOUS
 10
7.4926746611
 20
6.6474572981
 40
0.01
100
AcDbArc
 50
180.0
 51
270.0
  0
ARC
  5
3D3
100
AcDbEntity
  8
0
100
AcDbCircle
 62
7
  6
CONTINUOUS
 10
7.7926746611
 20
6.3474572981
 40
0.01
100
AcDbArc
 50
180.0
 51
270.0
  0
ARC
  5
3D4
100
AcDbEntity
  8
0
100
AcDbCircle
 62
7
  6
CONTINUOUS
 10
7.5661746611
 20
7.3149572981
 40
0.01
100
AcDbArc
 50
10.8069228749
 51
90.0
  0
ARC
  5
3D5
100
AcDbEntity
  8
0
100
AcDbCircle
 62
7
  6
CONTINUOUS
 10
7.5661746611
 20
6.6474572981
 40
0.01
100
AcDbArc
 50
270.0
 51
349.1930771251
  0
ARC
  5
3D6
100
AcDbEntity
  8
0
100
AcDbCircle
 62
7
  6
CONTINUOUS
 10
7.7926746611
 20
6.4209572981
 40
0.01
100
AcDbArc
 50
100.8069228749
 51
180.0
  0
ARC
  5
3D7
100
AcDbEntity
  8
0
100
AcDbCircle
 62
7
  6
CONTINUOUS
 10
8.2204246611
 20
4.5519572981
 40
0.0935
100
AcDbArc
 50
0.0
 51
90.0
  0
ARC
  5
3D8
100
AcDbEntity
  8
0
100
AcDbCircle
 62
7
  6
CONTINUOUS
 10
8.0324246611
 20
4.5519572981
 40
0.0935
100
AcDbArc
 50
90.0
 51
180.0
  0
ARC
  5
3D9
100
AcDbEntity
  8
0
100
AcDbCircle
 62
7
  6
CONTINUOUS
 10
8.0324246611
 20
4.5519572981
 40
0.0835
100
AcDbArc
 50
90.0
 51
180.0
  0
ARC
  5
3DA
100
AcDbEntity
  8
0
100
AcDbCircle
 62
7
  6
CONTINUOUS
 10
8.2204246611
 20
4.5519572981
 40
0.0835
100
AcDbArc
 50
0.0
 51
90.0
  0
ARC
  5
3DB
100
AcDbEntity
  8
0
100
AcDbCircle
 62
7
  6
CONTINUOUS
 10
8.1264246247
 20
5.0028521852
 40
0.0543553173
100
AcDbArc
 50
268.7437165942
 51
271.2562834221
  0
ARC
  5
3DC
100
AcDbEntity
  8
0
100
AcDbCircle
 62
7
  6
CONTINUOUS
 10
8.4548467883
 20
4.7587072981
 40
0.03
100
AcDbArc
 50
358.2087426131
 51
90.0
  0
ARC
  5
3DD
100
AcDbEntity
  8
0
100
AcDbCircle
 62
7
  6
CONTINUOUS
 10
8.1264246582
 20
5.0276054771
 40
0.0201381613
100
AcDbArc
 50
268.9615216553
 51
271.0384783634
  0
ARC
  5
3DE
100
AcDbEntity
  8
0
100
AcDbCircle
 62
7
  6
CONTINUOUS
 10
8.4189246611
 20
5.1749572981
 40
0.02
100
AcDbArc
 50
0.0
 51
90.0
  0
ARC
  5
3DF
100
AcDbEntity
  8
0
100
AcDbCircle
 62
7
  6
CONTINUOUS
 10
8.4189246611
 20
5.0274572981
 40
0.02
100
AcDbArc
 50
272.0916382629
 51
360.0
  0
ARC
  5
3E0
100
AcDbEntity
  8
0
100
AcDbCircle
 62
7
  6
CONTINUOUS
 10
8.4548467883
 20
4.7587072981
 40
0.015
100
AcDbArc
 50
358.2087426131
 51
90.0
  0
ARC
  5
3E1
100
AcDbEntity
  8
0
100
AcDbCircle
 62
7
  6
CONTINUOUS
 10
8.3699921195
 20
4.9621408306
 40
0.0136439138
100
AcDbArc
 50
267.497058036
 51
272.502941964
  0
ARC
  5
3E2
100
AcDbEntity
  8
0
100
AcDbCircle
 62
7
  6
CONTINUOUS
 10
8.4194721291
 20
5.0125217487
 40
0.0050544206
100
AcDbArc
 50
267.9308916903
 51
272.0691084285
  0
ARC
  5
3E3
100
AcDbEntity
  8
0
100
AcDbCircle
 62
7
  6
CONTINUOUS
 10
8.4676746611
 20
6.4602478823
 40
0.03
100
AcDbArc
 50
180.0000000058
 51
259.1930771251
  0
ARC
  5
3E4
100
AcDbEntity
  8
0
100
AcDbCircle
 62
7
  6
CONTINUOUS
 10
8.4601746611
 20
6.3474572981
 40
0.01
100
AcDbArc
 50
270.0
 51
360.0
  0
ARC
  5
3E5
100
AcDbEntity
  8
0
100
AcDbCircle
 62
7
  6
CONTINUOUS
 10
8.4601746611
 20
6.4209572981
 40
0.01
100
AcDbArc
 50
0.0
 51
79.1930771251
  0
SPLINE
  5
3E6
100
AcDbEntity
  8
0
100
AcDbSpline
 62
7
  6
CONTINUOUS
 70
0
 71
3
 72
28
 73
24
 74
0
 42
0.0000001
 43
0.0000001
 44
0.0000000001
 40
0.0
 40
0.0
 40
0.0
 40
0.0
 40
0.0023555504
 40
0.0047784289
 40
0.00742764
 40
0.0104263748
 40
0.0177706296
 40
0.027215627
 40
0.0389207295
 40
0.0529485044
 40
0.0693121798
 40
0.0879960423
 40
0.108964486
 40
0.1321667856
 40
0.1850076855
 40
0.2458939825
 40
0.3140568886
 40
0.388611163
 40
0.4685764051
 40
0.552895883
 40
0.6404574867
 40
0.8206946357
 40
1.0
 40
1.0
 40
1.0
 40
1.0
 10
7.4655389571
 20
3.9066705611
 30
0.0
 10
7.4655486538
 20
3.9066711559
 30
0.0
 10
7.4655686071
 20
3.9066696948
 30
0.0
 10
7.4655976763
 20
3.9066589951
 30
0.0
 10
7.4656254507
 20
3.9066401704
 30
0.0
 10
7.4656633805
 20
3.9066019718
 30
0.0
 10
7.4657068222
 20
3.9065319115
 30
0.0
 10
7.4657518742
 20
3.9064231654
 30
0.0
 10
7.4657932136
 20
3.9062838719
 30
0.0
 10
7.4658306376
 20
3.9061142453
 30
0.0
 10
7.4658639884
 20
3.9059145381
 30
0.0
 10
7.4658930897
 20
3.9056853076
 30
0.0
 10
7.4659178132
 20
3.9054272244
 30
0.0
 10
7.4659459931
 20
3.9050280802
 30
0.0
 10
7.4659678077
 20
3.904463628
 30
0.0
 10
7.4659747044
 20
3.9037134183
 30
0.0
 10
7.4659629147
 20
3.9028737147
 30
0.0
 10
7.4659325394
 20
3.9019557623
 30
0.0
 10
7.4658839243
 20
3.9009718806
 30
0.0
 10
7.4658177228
 20
3.8999352692
 30
0.0
 10
7.4657060865
 20
3.89848729
 30
0.0
 10
7.4655302967
 20
3.8966515156
 30
0.0
 10
7.4653549037
 20
3.8951789018
 30
0.0
 10
7.4652582405
 20
3.8944457374
 30
0.0
  0
SPLINE
  5
3E7
100
AcDbEntity
  8
0
100
AcDbSpline
 62
7
  6
CONTINUOUS
 70
0
 71
3
 72
19
 73
15
 74
0
 42
0.0000001
 43
0.0000001
 44
0.0000000001
 40
0.0
 40
0.0
 40
0.0
 40
0.0
 40
0.019081946
 40
0.0391829075
 40
0.0631072692
 40
0.0925850256
 40
0.1285421787
 40
0.1714552843
 40
0.2215793384
 40
0.2790447382
 40
0.4160842942
 40
0.5824284257
 40
0.7774384185
 40
1.0
 40
1.0
 40
1.0
 40
1.0
 10
7.478805947
 20
3.9845816479
 30
0.0
 10
7.478817951
 20
3.9845823697
 30
0.0
 10
7.4788433075
 20
3.9845788559
 30
0.0
 10
7.4788773895
 20
3.9845564931
 30
0.0
 10
7.4789062626
 20
3.9845196132
 30
0.0
 10
7.4789311351
 20
3.9844688083
 30
0.0
 10
7.4789524212
 20
3.9844037734
 30
0.0
 10
7.4789702217
 20
3.9843243648
 30
0.0
 10
7.478984511
 20
3.9842305414
 30
0.0
 10
7.4789996875
 20
3.9840770689
 30
0.0
 10
7.4790078234
 20
3.9838496106
 30
0.0
 10
7.4790030914
 20
3.98353548
 30
0.0
 10
7.4789840063
 20
3.9831679166
 30
0.0
 10
7.4789631146
 20
3.9829055599
 30
0.0
 10
7.4789505454
 20
3.9827658629
 30
0.0
  0
SPLINE
  5
3E8
100
AcDbEntity
  8
0
100
AcDbSpline
 62
7
  6
CONTINUOUS
 70
0
 71
3
 72
24
 73
20
 74
0
 42
0.0000001
 43
0.0000001
 44
0.0000000001
 40
0.0
 40
0.0
 40
0.0
 40
0.0
 40
0.0112248422
 40
0.022526639
 40
0.0342853993
 40
0.0468404165
 40
0.0604685976
 40
0.0753845943
 40
0.1096376224
 40
0.1504275802
 40
0.1980885198
 40
0.2526832081
 40
0.314091477
 40
0.3820549998
 40
0.4562037855
 40
0.5360744474
 40
0.6211238045
 40
0.8042276161
 40
1.0
 40
1.0
 40
1.0
 40
1.0
 10
7.4774008465
 20
3.89885324
 30
0.0
 10
7.4774344345
 20
3.8988552485
 30
0.0
 10
7.4775024124
 20
3.8988529492
 30
0.0
 10
7.4776031086
 20
3.898829572
 30
0.0
 10
7.4777013999
 20
3.898786478
 30
0.0
 10
7.4777969586
 20
3.8987239787
 30
0.0
 10
7.4778897346
 20
3.8986423854
 30
0.0
 10
7.4780154373
 20
3.8985017728
 30
0.0
 10
7.4781629879
 20
3.8982743217
 30
0.0
 10
7.4783198008
 20
3.8979408607
 30
0.0
 10
7.4784632354
 20
3.8975361719
 30
0.0
 10
7.4785921434
 20
3.8970624537
 30
0.0
 10
7.4787054219
 20
3.8965224838
 30
0.0
 10
7.4788020036
 20
3.8959199024
 30
0.0
 10
7.4788809583
 20
3.8952590264
 30
0.0
 10
7.4789415186
 20
3.8945448227
 30
0.0
 10
7.4789982609
 20
3.8935029856
 30
0.0
 10
7.4790168127
 20
3.8921118116
 30
0.0
 10
7.478980877
 20
3.8909762673
 30
0.0
 10
7.4789505454
 20
3.8903901964
 30
0.0
  0
SPLINE
  5
3E9
100
AcDbEntity
  8
0
100
AcDbSpline
 62
7
  6
CONTINUOUS
 70
0
 71
3
 72
36
 73
32
 74
0
 42
0.0000001
 43
0.0000001
 44
0.0000000001
 40
0.0
 40
0.0
 40
0.0
 40
0.0
 40
0.0050355097
 40
0.0087180105
 40
0.0133195201
 40
0.0188795608
 40
0.0254123139
 40
0.03291799
 40
0.0413876602
 40
0.0611589218
 40
0.0845709818
 40
0.1114235428
 40
0.1414858025
 40
0.2101998024
 40
0.2884630887
 40
0.3737978749
 40
0.4635511273
 40
0.5549238541
 40
0.6450020233
 40
0.7308010252
 40
0.809344566
 40
0.8449981833
 40
0.8777902203
 40
0.9074129971
 40
0.9335905087
 40
0.956086563
 40
0.9747139151
 40
0.982537431
 40
0.9893565217
 40
0.9951726026
 40
1.0
 40
1.0
 40
1.0
 40
1.0
 10
7.4741112756
 20
3.6918937719
 30
0.0
 10
7.4741469736
 20
3.6918958919
 30
0.0
 10
7.4742070649
 20
3.691861989
 30
0.0
 10
7.4742733179
 20
3.6917965225
 30
0.0
 10
7.474335078
 20
3.6917191244
 30
0.0
 10
7.4744007478
 20
3.6916205266
 30
0.0
 10
7.474471099
 20
3.6915002935
 30
0.0
 10
7.4745456487
 20
3.6913588741
 30
0.0
 10
7.4746563418
 20
3.6911303651
 30
0.0
 10
7.4748023558
 20
3.6907937017
 30
0.0
 10
7.4749839029
 20
3.6903305752
 30
0.0
 10
7.4751778786
 20
3.6897940475
 30
0.0
 10
7.4754637214
 20
3.6889488453
 30
0.0
 10
7.4758356266
 20
3.6877476142
 30
0.0
 10
7.4762861213
 20
3.686160384
 30
0.0
 10
7.4767436822
 20
3.684420198
 30
0.0
 10
7.4771936905
 20
3.6825820656
 30
0.0
 10
7.4776215755
 20
3.6807040936
 30
0.0
 10
7.4780131908
 20
3.6788469057
 30
0.0
 10
7.4783550135
 20
3.6770726105
 30
0.0
 10
7.4785955619
 20
3.6756726642
 30
0.0
 10
7.4787517782
 20
3.6746405094
 30
0.0
 10
7.4788454394
 20
3.6739503466
 30
0.0
 10
7.4789185447
 20
3.6733254085
 30
0.0
 10
7.4789704268
 20
3.6727717235
 30
0.0
 10
7.4790005915
 20
3.6722946508
 30
0.0
 10
7.4790081904
 20
3.6719469317
 30
0.0
 10
7.4790013534
 20
3.671710707
 30
0.0
 10
7.4789909881
 20
3.6715657213
 30
0.0
 10
7.4789751876
 20
3.6714426513
 30
0.0
 10
7.4789597112
 20
3.6713685107
 30
0.0
 10
7.4789505454
 20
3.6713354758
 30
0.0
  0
SPLINE
  5
3EA
100
AcDbEntity
  8
0
100
AcDbSpline
 62
7
  6
CONTINUOUS
 70
0
 71
3
 72
25
 73
21
 74
0
 42
0.0000001
 43
0.0000001
 44
0.0000000001
 40
0.0
 40
0.0
 40
0.0
 40
0.0
 40
0.0070904863
 40
0.0147702204
 40
0.023616834
 40
0.0340080418
 40
0.0461671065
 40
0.0602205652
 40
0.0762375966
 40
0.0942481194
 40
0.1362545874
 40
0.1861176128
 40
0.2435260257
 40
0.3080441199
 40
0.3791351465
 40
0.4561750908
 40
0.5384642573
 40
0.6252353258
 40
0.8088714581
 40
1.0
 40
1.0
 40
1.0
 40
1.0
 10
7.4645048651
 20
3.83766426
 30
0.0
 10
7.4645287124
 20
3.8376657237
 30
0.0
 10
7.4645792592
 20
3.8376601613
 30
0.0
 10
7.4646525378
 20
3.8376266177
 30
0.0
 10
7.4647239832
 20
3.8375697003
 30
0.0
 10
7.4647941689
 20
3.8374900333
 30
0.0
 10
7.4648634669
 20
3.8373877125
 30
0.0
 10
7.4649319201
 20
3.8372627851
 30
0.0
 10
7.4649994426
 20
3.8371153942
 30
0.0
 10
7.465092892
 20
3.836876728
 30
0.0
 10
7.4652036295
 20
3.836523001
 30
0.0
 10
7.4653248788
 20
3.8360346411
 30
0.0
 10
7.4654389402
 20
3.8354669605
 30
0.0
 10
7.4655446142
 20
3.8348251056
 30
0.0
 10
7.4656407262
 20
3.8341149529
 30
0.0
 10
7.4657262401
 20
3.8333431862
 30
0.0
 10
7.4658002386
 20
3.8325171777
 30
0.0
 10
7.4658840329
 20
3.8313316289
 30
0.0
 10
7.4659533745
 20
3.8297776949
 30
0.0
 10
7.4659717284
 20
3.8285148128
 30
0.0
 10
7.4659717284
 20
3.8278707845
 30
0.0
  0
LINE
  5
3EB
100
AcDbEntity
  8
0
100
AcDbLine
 62
7
  6
CONTINUOUS
 10
7.4634855771
 20
3.7686589238
 11
7.4637552556
 21
3.7683968205
  0
SPLINE
  5
3EC
100
AcDbEntity
  8
0
100
AcDbSpline
 62
7
  6
CONTINUOUS
 70
0
 71
3
 72
20
 73
16
 74
0
 42
0.0000001
 43
0.0000001
 44
0.0000000001
 40
0.0
 40
0.0
 40
0.0
 40
0.0
 40
0.0221715597
 40
0.0453754047
 40
0.0721264812
 40
0.1041052475
 40
0.1422656572
 40
0.1871163027
 40
0.2388900798
 40
0.2976599738
 40
0.3633780774
 40
0.4359187225
 40
0.6006149176
 40
0.7895868886
 40
1.0
 40
1.0
 40
1.0
 40
1.0
 10
7.4782400479
 20
3.9502434444
 30
0.0
 10
7.4782767854
 20
3.9502456431
 30
0.0
 10
7.4783536672
 20
3.9502366206
 30
0.0
 10
7.4784608518
 20
3.9501782445
 30
0.0
 10
7.4785566513
 20
3.9500796959
 30
0.0
 10
7.4786427368
 20
3.9499429288
 30
0.0
 10
7.4787200771
 20
3.9497679091
 30
0.0
 10
7.4787887208
 20
3.9495546589
 30
0.0
 10
7.4788484969
 20
3.9493035363
 30
0.0
 10
7.4788990918
 20
3.9490152241
 30
0.0
 10
7.4789402728
 20
3.9486906731
 30
0.0
 10
7.4789841168
 20
3.948189604
 30
0.0
 10
7.4790106405
 20
3.9474822061
 30
0.0
 10
7.4790022041
 20
3.94654569
 30
0.0
 10
7.4789717102
 20
3.9458832877
 30
0.0
 10
7.4789505454
 20
3.9455346588
 30
0.0
  0
SPLINE
  5
3ED
100
AcDbEntity
  8
0
100
AcDbSpline
 62
7
  6
CONTINUOUS
 70
0
 71
3
 72
32
 73
28
 74
0
 42
0.0000001
 43
0.0000001
 44
0.0000000001
 40
0.0
 40
0.0
 40
0.0
 40
0.0
 40
0.0036616151
 40
0.0075973065
 40
0.0119513888
 40
0.0168275936
 40
0.0283891579
 40
0.0426078371
 40
0.0595853966
 40
0.0793215161
 40
0.101758637
 40
0.1268017855
 40
0.1543294454
 40
0.184200357
 40
0.2503197291
 40
0.3237303332
 40
0.4027974328
 40
0.4857104088
 40
0.5704999274
 40
0.6550674629
 40
0.7372335136
 40
0.8148064755
 40
0.8856774075
 40
0.9179933606
 40
0.9479379822
 40
0.9753290752
 40
1.0
 40
1.0
 40
1.0
 40
1.0
 10
7.4746473479
 20
3.7262298745
 30
0.0
 10
7.4746716414
 20
3.7262313166
 30
0.0
 10
7.4747225603
 20
3.7262280933
 30
0.0
 10
7.4747993696
 20
3.7262060391
 30
0.0
 10
7.4748782257
 20
3.726167249
 30
0.0
 10
7.4749926132
 20
3.7260890828
 30
0.0
 10
7.4751394722
 20
3.7259460015
 30
0.0
 10
7.4753142545
 20
3.7257213729
 30
0.0
 10
7.4754962395
 20
3.7254354642
 30
0.0
 10
7.4756843357
 20
3.7250900112
 30
0.0
 10
7.4758774226
 20
3.7246869747
 30
0.0
 10
7.4760742767
 20
3.7242288413
 30
0.0
 10
7.4762736966
 20
3.723718393
 30
0.0
 10
7.4765508274
 20
3.7229455532
 30
0.0
 10
7.4768915458
 20
3.7218720456
 30
0.0
 10
7.4772792358
 20
3.7204715978
 30
0.0
 10
7.4776486099
 20
3.7189510992
 30
0.0
 10
7.47799025
 20
3.7173467576
 30
0.0
 10
7.4782950951
 20
3.7156978316
 30
0.0
 10
7.4785547498
 20
3.7140462096
 30
0.0
 10
7.4787617872
 20
3.7124354829
 30
0.0
 10
7.4789100575
 20
3.7109097086
 30
0.0
 10
7.478983316
 20
3.7097101801
 30
0.0
 10
7.4790064272
 20
3.7088255674
 30
0.0
 10
7.4790063202
 20
3.7082296298
 30
0.0
 10
7.4789893904
 20
3.7076847598
 30
0.0
 10
7.4789657693
 20
3.7073394223
 30
0.0
 10
7.4789505454
 20
3.7071761598
 30
0.0
  0
SPLINE
  5
3EE
100
AcDbEntity
  8
0
100
AcDbSpline
 62
7
  6
CONTINUOUS
 70
0
 71
3
 72
23
 73
19
 74
0
 42
0.0000001
 43
0.0000001
 44
0.0000000001
 40
0.0
 40
0.0
 40
0.0
 40
0.0
 40
0.0111596502
 40
0.0226096758
 40
0.034730667
 40
0.0478409057
 40
0.0779007988
 40
0.1141059167
 40
0.1570217364
 40
0.2068164448
 40
0.2634102035
 40
0.3265503048
 40
0.3958493875
 40
0.4708058301
 40
0.5508176132
 40
0.6351931092
 40
0.8138737493
 40
1.0
 40
1.0
 40
1.0
 40
1.0
 10
7.476422615
 20
3.8382351733
 30
0.0
 10
7.4764639343
 20
3.8382376392
 30
0.0
 10
7.4765483917
 20
3.8382342105
 30
0.0
 10
7.4766742646
 20
3.8382034928
 30
0.0
 10
7.476799082
 20
3.8381477036
 30
0.0
 10
7.4769714549
 20
3.8380353078
 30
0.0
 10
7.4771823244
 20
3.8378259283
 30
0.0
 10
7.4774156787
 20
3.8374935019
 30
0.0
 10
7.4776403294
 20
3.8370703169
 30
0.0
 10
7.4778544268
 20
3.8365589858
 30
0.0
 10
7.478056108
 20
3.8359629641
 30
0.0
 10
7.4782432733
 20
3.8352869462
 30
0.0
 10
7.4784139221
 20
3.8345366113
 30
0.0
 10
7.4785661452
 20
3.8337186258
 30
0.0
 10
7.4786982112
 20
3.8328405784
 30
0.0
 10
7.4788481495
 20
3.8315767796
 30
0.0
 10
7.4789726598
 20
3.8299144963
 30
0.0
 10
7.4790056594
 20
3.8285611547
 30
0.0
 10
7.4790056594
 20
3.8278707845
 30
0.0
  0
SPLINE
  5
3EF
100
AcDbEntity
  8
0
100
AcDbSpline
 62
7
  6
CONTINUOUS
 70
0
 71
3
 72
28
 73
24
 74
0
 42
0.0000001
 43
0.0000001
 44
0.0000000001
 40
0.0
 40
0.0
 40
0.0
 40
0.0
 40
0.0093707877
 40
0.0195740631
 40
0.0311744736
 40
0.0445380277
 40
0.0598778175
 40
0.0773068635
 40
0.0968724555
 40
0.1185780131
 40
0.1423968255
 40
0.1682776891
 40
0.22592874
 40
0.2908123679
 40
0.3619992082
 40
0.4383857874
 40
0.5187120964
 40
0.6015827374
 40
0.6854930647
 40
0.7688665204
 40
0.8501044556
 40
0.9276380955
 40
1.0
 40
1.0
 40
1.0
 40
1.0
 10
7.4754567322
 20
3.7776179801
 30
0.0
 10
7.4755101254
 20
3.7776211567
 30
0.0
 10
7.4756232345
 20
3.7776101345
 30
0.0
 10
7.4757903864
 20
3.7775443288
 30
0.0
 10
7.4759581296
 20
3.7774319674
 30
0.0
 10
7.4761267127
 20
3.7772743704
 30
0.0
 10
7.4762962679
 20
3.7770722755
 30
0.0
 10
7.4764664217
 20
3.7768263528
 30
0.0
 10
7.4766366183
 20
3.7765374718
 30
0.0
 10
7.4768061894
 20
3.7762067054
 30
0.0
 10
7.4769744261
 20
3.7758353266
 30
0.0
 10
7.4772043247
 20
3.7752671949
 30
0.0
 10
7.4774796847
 20
3.7744654127
 30
0.0
 10
7.4777829365
 20
3.7734016717
 30
0.0
 10
7.4780639381
 20
3.7722216392
 30
0.0
 10
7.4783171931
 20
3.7709454228
 30
0.0
 10
7.4785375122
 20
3.7695955177
 30
0.0
 10
7.4787202315
 20
3.7681967075
 30
0.0
 10
7.4788613433
 20
3.7667756122
 30
0.0
 10
7.4789576747
 20
3.7653601162
 30
0.0
 10
7.4790070351
 20
3.7639785947
 30
0.0
 10
7.4790083499
 20
3.7626590409
 30
0.0
 10
7.4789759752
 20
3.7618037574
 30
0.0
 10
7.4789505454
 20
3.7613915064
 30
0.0
  0
SPLINE
  5
3F0
100
AcDbEntity
  8
0
100
AcDbSpline
 62
7
  6
CONTINUOUS
 70
0
 71
3
 72
43
 73
39
 74
0
 42
0.0000001
 43
0.0000001
 44
0.0000000001
 40
0.0
 40
0.0
 40
0.0
 40
0.0
 40
0.022494204
 40
0.0466833603
 40
0.0996670743
 40
0.1138046284
 40
0.1282693122
 40
0.1581124229
 40
0.1890758146
 40
0.2210529662
 40
0.2373935562
 40
0.2539485661
 40
0.2876346967
 40
0.3219917193
 40
0.3569091098
 40
0.3745484532
 40
0.3922886169
 40
0.4280075328
 40
0.4639497231
 40
0.5
 40
0.5360502769
 40
0.5719924672
 40
0.6077113831
 40
0.6254515468
 40
0.6430908902
 40
0.6780082807
 40
0.7123653033
 40
0.7460514339
 40
0.7626064438
 40
0.7789470338
 40
0.8109241854
 40
0.8418875771
 40
0.8717306878
 40
0.8861953716
 40
0.9003329257
 40
0.9533166397
 40
0.977505796
 40
1.0
 40
1.0
 40
1.0
 40
1.0
 10
7.7501746611
 20
7.2924572981
 30
0.0
 10
7.7582709742
 20
7.2924572981
 30
0.0
 10
7.7750755413
 20
7.2921582884
 30
0.0
 10
7.8109008556
 20
7.290209729
 30
0.0
 10
7.8435984101
 20
7.286443439
 30
0.0
 10
7.872550784
 20
7.2815315517
 30
0.0
 10
7.8932079804
 20
7.2775473368
 30
0.0
 10
7.9196271237
 20
7.2714983656
 30
0.0
 10
7.9518036784
 20
7.2625119234
 30
0.0
 10
7.9788875078
 20
7.253483532
 30
0.0
 10
8.0007389289
 20
7.2452479164
 30
0.0
 10
8.0229390563
 20
7.2362162391
 30
0.0
 10
8.0506856879
 20
7.2236379291
 30
0.0
 10
8.0835980075
 20
7.2065688732
 30
0.0
 10
8.1105608976
 20
7.1906719304
 30
0.0
 10
8.1317986993
 20
7.176913737
 30
0.0
 10
8.1528812398
 20
7.162403729
 30
0.0
 10
8.1786171815
 20
7.1430581568
 30
0.0
 10
8.2082796065
 20
7.1180650793
 30
0.0
 10
8.236575745
 20
7.0913583821
 30
0.0
 10
8.2632824422
 20
7.0630622436
 30
0.0
 10
8.2882755197
 20
7.0333998186
 30
0.0
 10
8.3076210919
 20
7.0076638769
 30
0.0
 10
8.3221310999
 20
6.9865813363
 30
0.0
 10
8.3358892934
 20
6.9653435346
 30
0.0
 10
8.3517862361
 20
6.9383806446
 30
0.0
 10
8.368855292
 20
6.905468325
 30
0.0
 10
8.3814336021
 20
6.8777216934
 30
0.0
 10
8.3904652793
 20
6.855521566
 30
0.0
 10
8.3987008949
 20
6.8336701449
 30
0.0
 10
8.4077292863
 20
6.8065863155
 30
0.0
 10
8.4167157286
 20
6.7744097608
 30
0.0
 10
8.4227646997
 20
6.7479906175
 30
0.0
 10
8.4267489146
 20
6.7273334211
 30
0.0
 10
8.4316608019
 20
6.6983810471
 30
0.0
 10
8.4354270919
 20
6.6656834927
 30
0.0
 10
8.4373756513
 20
6.6298581783
 30
0.0
 10
8.4376746611
 20
6.6130536113
 30
0.0
 10
8.4376746611
 20
6.6049572981
 30
0.0
  0
SPLINE
  5
3F1
100
AcDbEntity
  8
0
100
AcDbSpline
 62
7
  6
CONTINUOUS
 70
0
 71
3
 72
43
 73
39
 74
0
 42
0.0000001
 43
0.0000001
 44
0.0000000001
 40
0.0
 40
0.0
 40
0.0
 40
0.0
 40
0.022494204
 40
0.0466833603
 40
0.0996670743
 40
0.1138046284
 40
0.1282693122
 40
0.1581124229
 40
0.1890758146
 40
0.2210529662
 40
0.2373935562
 40
0.2539485661
 40
0.2876346967
 40
0.3219917193
 40
0.3569091098
 40
0.3745484532
 40
0.3922886169
 40
0.4280075328
 40
0.4639497231
 40
0.5
 40
0.5360502769
 40
0.5719924672
 40
0.6077113831
 40
0.6254515468
 40
0.6430908902
 40
0.6780082807
 40
0.7123653033
 40
0.7460514339
 40
0.7626064438
 40
0.7789470338
 40
0.8109241854
 40
0.8418875771
 40
0.8717306878
 40
0.8861953716
 40
0.9003329257
 40
0.9533166397
 40
0.977505796
 40
1.0
 40
1.0
 40
1.0
 40
1.0
 10
3.4751746611
 20
7.2924572981
 30
0.0
 10
3.4670783479
 20
7.2924572981
 30
0.0
 10
3.4502737809
 20
7.2921582884
 30
0.0
 10
3.4144484665
 20
7.290209729
 30
0.0
 10
3.3817509121
 20
7.286443439
 30
0.0
 10
3.3527985381
 20
7.2815315517
 30
0.0
 10
3.3321413417
 20
7.2775473368
 30
0.0
 10
3.3057221984
 20
7.2714983656
 30
0.0
 10
3.2735456437
 20
7.2625119234
 30
0.0
 10
3.2464618143
 20
7.253483532
 30
0.0
 10
3.2246103932
 20
7.2452479164
 30
0.0
 10
3.2024102658
 20
7.2362162391
 30
0.0
 10
3.1746636342
 20
7.2236379291
 30
0.0
 10
3.1417513146
 20
7.2065688732
 30
0.0
 10
3.1147884246
 20
7.1906719304
 30
0.0
 10
3.0935506229
 20
7.176913737
 30
0.0
 10
3.0724680823
 20
7.162403729
 30
0.0
 10
3.0467321406
 20
7.1430581568
 30
0.0
 10
3.0170697156
 20
7.1180650793
 30
0.0
 10
2.9887735771
 20
7.0913583821
 30
0.0
 10
2.9620668799
 20
7.0630622436
 30
0.0
 10
2.9370738024
 20
7.0333998186
 30
0.0
 10
2.9177282302
 20
7.0076638769
 30
0.0
 10
2.9032182222
 20
6.9865813363
 30
0.0
 10
2.8894600288
 20
6.9653435346
 30
0.0
 10
2.873563086
 20
6.9383806446
 30
0.0
 10
2.8564940301
 20
6.905468325
 30
0.0
 10
2.8439157201
 20
6.8777216934
 30
0.0
 10
2.8348840428
 20
6.855521566
 30
0.0
 10
2.8266484272
 20
6.8336701449
 30
0.0
 10
2.8176200358
 20
6.8065863155
 30
0.0
 10
2.8086335936
 20
6.7744097608
 30
0.0
 10
2.8025846224
 20
6.7479906175
 30
0.0
 10
2.7986004075
 20
6.7273334211
 30
0.0
 10
2.7936885202
 20
6.6983810471
 30
0.0
 10
2.7899222302
 20
6.6656834927
 30
0.0
 10
2.7879736708
 20
6.6298581783
 30
0.0
 10
2.7876746611
 20
6.6130536113
 30
0.0
 10
2.7876746611
 20
6.6049572981
 30
0.0
  0
LINE
  5
3F2
100
AcDbEntity
  8
0
100
AcDbLine
 62
7
  6
CONTINUOUS
 10
8.2057996636
 20
4.2890822934
 11
8.2082861927
 21
4.2934649833
  0
SPLINE
  5
3F3
100
AcDbEntity
  8
0
100
AcDbSpline
 62
7
  6
CONTINUOUS
 70
0
 71
3
 72
8
 73
4
 74
0
 42
0.0000001
 43
0.0000001
 44
0.0000000001
 40
0.0
 40
0.0
 40
0.0
 40
0.0
 40
1.0
 40
1.0
 40
1.0
 40
1.0
 10
8.2082861927
 20
4.2934649833
 30
0.0
 10
8.2134246586
 20
4.3024572963
 30
0.0
 10
8.2166746577
 20
4.3100823024
 30
0.0
 10
8.2180496586
 20
4.3165823007
 30
0.0
  0
SPLINE
  5
3F4
100
AcDbEntity
  8
0
100
AcDbSpline
 62
7
  6
CONTINUOUS
 70
0
 71
3
 72
8
 73
4
 74
0
 42
0.0000001
 43
0.0000001
 44
0.0000000001
 40
0.0
 40
0.0
 40
0.0
 40
0.0
 40
1.0
 40
1.0
 40
1.0
 40
1.0
 10
8.2180496586
 20
4.3165823007
 30
0.0
 10
8.2194246595
 20
4.323082299
 30
0.0
 10
8.2201746611
 20
4.3295822972
 30
0.0
 10
8.2201746611
 20
4.3360822955
 30
0.0
  0
SPLINE
  5
3F5
100
AcDbEntity
  8
0
100
AcDbSpline
 62
7
  6
CONTINUOUS
 70
0
 71
3
 72
8
 73
4
 74
0
 42
0.0000001
 43
0.0000001
 44
0.0000000001
 40
0.0
 40
0.0
 40
0.0
 40
0.0
 40
1.0
 40
1.0
 40
1.0
 40
1.0
 10
8.2201746611
 20
4.3360822955
 30
0.0
 10
8.2201746611
 20
4.3613322982
 30
0.0
 10
8.2106746567
 20
4.382832299
 30
0.0
 10
8.1916746599
 20
4.4007072978
 30
0.0
  0
SPLINE
  5
3F6
100
AcDbEntity
  8
0
100
AcDbSpline
 62
7
  6
CONTINUOUS
 70
0
 71
3
 72
8
 73
4
 74
0
 42
0.0000001
 43
0.0000001
 44
0.0000000001
 40
0.0
 40
0.0
 40
0.0
 40
0.0
 40
1.0
 40
1.0
 40
1.0
 40
1.0
 10
8.1916746599
 20
4.4007072978
 30
0.0
 10
8.1726746617
 20
4.4185822978
 30
0.0
 10
8.1490496641
 20
4.4274572986
 30
0.0
 10
8.1207996608
 20
4.4274572986
 30
0.0
  0
SPLINE
  5
3F7
100
AcDbEntity
  8
0
100
AcDbSpline
 62
7
  6
CONTINUOUS
 70
0
 71
3
 72
8
 73
4
 74
0
 42
0.0000001
 43
0.0000001
 44
0.0000000001
 40
0.0
 40
0.0
 40
0.0
 40
0.0
 40
1.0
 40
1.0
 40
1.0
 40
1.0
 10
8.1207996608
 20
4.4274572986
 30
0.0
 10
8.0940496606
 20
4.4274572986
 30
0.0
 10
8.0720496598
 20
4.4187072972
 30
0.0
 10
8.0548928758
 20
4.4012385709
 30
0.0
  0
SPLINE
  5
3F8
100
AcDbEntity
  8
0
100
AcDbSpline
 62
7
  6
CONTINUOUS
 70
0
 71
3
 72
8
 73
4
 74
0
 42
0.0000001
 43
0.0000001
 44
0.0000000001
 40
0.0
 40
0.0
 40
0.0
 40
0.0
 40
1.0
 40
1.0
 40
1.0
 40
1.0
 10
8.0548928758
 20
4.4012385709
 30
0.0
 10
8.0376746612
 20
4.383707297
 30
0.0
 10
8.0291746612
 20
4.3624573005
 30
0.0
 10
8.0291746612
 20
4.3373322943
 30
0.0
  0
SPLINE
  5
3F9
100
AcDbEntity
  8
0
100
AcDbSpline
 62
7
  6
CONTINUOUS
 70
0
 71
3
 72
8
 73
4
 74
0
 42
0.0000001
 43
0.0000001
 44
0.0000000001
 40
0.0
 40
0.0
 40
0.0
 40
0.0
 40
1.0
 40
1.0
 40
1.0
 40
1.0
 10
8.0291746612
 20
4.3373322943
 30
0.0
 10
8.0291746612
 20
4.3129572952
 30
0.0
 10
8.036799661
 20
4.2938322956
 30
0.0
 10
8.0520346957
 20
4.2798160668
 30
0.0
  0
SPLINE
  5
3FA
100
AcDbEntity
  8
0
100
AcDbSpline
 62
7
  6
CONTINUOUS
 70
0
 71
3
 72
8
 73
4
 74
0
 42
0.0000001
 43
0.0000001
 44
0.0000000001
 40
0.0
 40
0.0
 40
0.0
 40
0.0
 40
1.0
 40
1.0
 40
1.0
 40
1.0
 10
8.0520346957
 20
4.2798160668
 30
0.0
 10
8.0586746597
 20
4.2737073013
 30
0.0
 10
8.0665496617
 20
4.2687072949
 30
0.0
 10
8.0756972436
 20
4.2647600508
 30
0.0
  0
SPLINE
  5
3FB
100
AcDbEntity
  8
0
100
AcDbSpline
 62
7
  6
CONTINUOUS
 70
0
 71
3
 72
8
 73
4
 74
0
 42
0.0000001
 43
0.0000001
 44
0.0000000001
 40
0.0
 40
0.0
 40
0.0
 40
0.0
 40
1.0
 40
1.0
 40
1.0
 40
1.0
 10
8.0756972436
 20
4.2647600508
 30
0.0
 10
8.0847996605
 20
4.2608322957
 30
0.0
 10
8.0912996588
 20
4.2588322954
 30
0.0
 10
8.0951746629
 20
4.2588322954
 30
0.0
  0
LINE
  5
3FC
100
AcDbEntity
  8
0
100
AcDbLine
 62
7
  6
CONTINUOUS
 10
8.0951746629
 20
4.2588322954
 11
8.0967996625
 21
4.2592073018
  0
SPLINE
  5
3FD
100
AcDbEntity
  8
0
100
AcDbSpline
 62
7
  6
CONTINUOUS
 70
0
 71
3
 72
8
 73
4
 74
0
 42
0.0000001
 43
0.0000001
 44
0.0000000001
 40
0.0
 40
0.0
 40
0.0
 40
0.0
 40
1.0
 40
1.0
 40
1.0
 40
1.0
 10
8.0967996625
 20
4.2592073018
 30
0.0
 10
8.0972996598
 20
4.2595822969
 30
0.0
 10
8.0976746605
 20
4.2600822942
 30
0.0
 10
8.0979246592
 20
4.2607072936
 30
0.0
  0
LINE
  5
3FE
100
AcDbEntity
  8
0
100
AcDbLine
 62
7
  6
CONTINUOUS
 10
8.1001746637
 20
4.2697073007
 11
8.1000496616
 21
4.2718323031
  0
SPLINE
  5
3FF
100
AcDbEntity
  8
0
100
AcDbSpline
 62
7
  6
CONTINUOUS
 70
0
 71
3
 72
8
 73
4
 74
0
 42
0.0000001
 43
0.0000001
 44
0.0000000001
 40
0.0
 40
0.0
 40
0.0
 40
0.0
 40
1.0
 40
1.0
 40
1.0
 40
1.0
 10
8.1000496616
 20
4.2718323031
 30
0.0
 10
8.0995496588
 20
4.2727072956
 30
0.0
 10
8.0967996625
 20
4.2738323035
 30
0.0
 10
8.0918273171
 20
4.2751828151
 30
0.0
  0
SPLINE
  5
400
100
AcDbEntity
  8
0
100
AcDbSpline
 62
7
  6
CONTINUOUS
 70
0
 71
3
 72
8
 73
4
 74
0
 42
0.0000001
 43
0.0000001
 44
0.0000000001
 40
0.0
 40
0.0
 40
0.0
 40
0.0
 40
1.0
 40
1.0
 40
1.0
 40
1.0
 10
8.0918273171
 20
4.2751828151
 30
0.0
 10
8.0765496606
 20
4.279332296
 30
0.0
 10
8.0644246621
 20
4.2863323027
 30
0.0
 10
8.0557057026
 20
4.2962345493
 30
0.0
  0
SPLINE
  5
401
100
AcDbEntity
  8
0
100
AcDbSpline
 62
7
  6
CONTINUOUS
 70
0
 71
3
 72
8
 73
4
 74
0
 42
0.0000001
 43
0.0000001
 44
0.0000000001
 40
0.0
 40
0.0
 40
0.0
 40
0.0
 40
1.0
 40
1.0
 40
1.0
 40
1.0
 10
8.0557057026
 20
4.2962345493
 30
0.0
 10
8.0469246606
 20
4.3062073039
 30
0.0
 10
8.0425496613
 20
4.3178322995
 30
0.0
 10
8.0425496613
 20
4.3310823003
 30
0.0
  0
SPLINE
  5
402
100
AcDbEntity
  8
0
100
AcDbSpline
 62
7
  6
CONTINUOUS
 70
0
 71
3
 72
8
 73
4
 74
0
 42
0.0000001
 43
0.0000001
 44
0.0000000001
 40
0.0
 40
0.0
 40
0.0
 40
0.0
 40
1.0
 40
1.0
 40
1.0
 40
1.0
 10
8.0425496613
 20
4.3310823003
 30
0.0
 10
8.0425496613
 20
4.3475823002
 30
0.0
 10
8.0487996616
 20
4.3600822994
 30
0.0
 10
8.0615209929
 20
4.3683761068
 30
0.0
  0
SPLINE
  5
403
100
AcDbEntity
  8
0
100
AcDbSpline
 62
7
  6
CONTINUOUS
 70
0
 71
3
 72
8
 73
4
 74
0
 42
0.0000001
 43
0.0000001
 44
0.0000000001
 40
0.0
 40
0.0
 40
0.0
 40
0.0
 40
1.0
 40
1.0
 40
1.0
 40
1.0
 10
8.0615209929
 20
4.3683761068
 30
0.0
 10
8.0742996616
 20
4.3767072959
 30
0.0
 10
8.0950496608
 20
4.3808322986
 30
0.0
 10
8.1239246634
 20
4.3808322986
 30
0.0
  0
SPLINE
  5
404
100
AcDbEntity
  8
0
100
AcDbSpline
 62
7
  6
CONTINUOUS
 70
0
 71
3
 72
8
 73
4
 74
0
 42
0.0000001
 43
0.0000001
 44
0.0000000001
 40
0.0
 40
0.0
 40
0.0
 40
0.0
 40
1.0
 40
1.0
 40
1.0
 40
1.0
 10
8.1239246634
 20
4.3808322986
 30
0.0
 10
8.1547996608
 20
4.3808322986
 30
0.0
 10
8.176299656
 20
4.3765822993
 30
0.0
 10
8.1885287697
 20
4.3679278525
 30
0.0
  0
SPLINE
  5
405
100
AcDbEntity
  8
0
100
AcDbSpline
 62
7
  6
CONTINUOUS
 70
0
 71
3
 72
8
 73
4
 74
0
 42
0.0000001
 43
0.0000001
 44
0.0000000001
 40
0.0
 40
0.0
 40
0.0
 40
0.0
 40
1.0
 40
1.0
 40
1.0
 40
1.0
 10
8.1885287697
 20
4.3679278525
 30
0.0
 10
8.2006746662
 20
4.3593322979
 30
0.0
 10
8.2067996582
 20
4.3480822975
 30
0.0
 10
8.2067996582
 20
4.3340822952
 30
0.0
  0
SPLINE
  5
406
100
AcDbEntity
  8
0
100
AcDbSpline
 62
7
  6
CONTINUOUS
 70
0
 71
3
 72
8
 73
4
 74
0
 42
0.0000001
 43
0.0000001
 44
0.0000000001
 40
0.0
 40
0.0
 40
0.0
 40
0.0
 40
1.0
 40
1.0
 40
1.0
 40
1.0
 10
8.2067996582
 20
4.3340822952
 30
0.0
 10
8.2067996582
 20
4.3167073028
 30
0.0
 10
8.1990496611
 20
4.3024572963
 30
0.0
 10
8.1836306871
 20
4.2915196992
 30
0.0
  0
SPLINE
  5
407
100
AcDbEntity
  8
0
100
AcDbSpline
 62
7
  6
CONTINUOUS
 70
0
 71
3
 72
8
 73
4
 74
0
 42
0.0000001
 43
0.0000001
 44
0.0000000001
 40
0.0
 40
0.0
 40
0.0
 40
0.0
 40
1.0
 40
1.0
 40
1.0
 40
1.0
 10
8.1836306871
 20
4.2915196992
 30
0.0
 10
8.1736746562
 20
4.2844572933
 30
0.0
 10
8.1619246585
 20
4.2795823002
 30
0.0
 10
8.1481667541
 20
4.2768758219
 30
0.0
  0
SPLINE
  5
408
100
AcDbEntity
  8
0
100
AcDbSpline
 62
7
  6
CONTINUOUS
 70
0
 71
3
 72
8
 73
4
 74
0
 42
0.0000001
 43
0.0000001
 44
0.0000000001
 40
0.0
 40
0.0
 40
0.0
 40
0.0
 40
1.0
 40
1.0
 40
1.0
 40
1.0
 10
8.1481667541
 20
4.2768758219
 30
0.0
 10
8.1466746574
 20
4.2765822941
 30
0.0
 10
8.1456746628
 20
4.276207299
 30
0.0
 10
8.1451746655
 20
4.2757073017
 30
0.0
  0
SPLINE
  5
409
100
AcDbEntity
  8
0
100
AcDbSpline
 62
7
  6
CONTINUOUS
 70
0
 71
3
 72
8
 73
4
 74
0
 42
0.0000001
 43
0.0000001
 44
0.0000000001
 40
0.0
 40
0.0
 40
0.0
 40
0.0
 40
1.0
 40
1.0
 40
1.0
 40
1.0
 10
8.1451746655
 20
4.2757073017
 30
0.0
 10
8.144424664
 20
4.2752072932
 30
0.0
 10
8.1441746598
 20
4.2743323007
 30
0.0
 10
8.1441746598
 20
4.2730823019
 30
0.0
  0
LINE
  5
40A
100
AcDbEntity
  8
0
100
AcDbLine
 62
7
  6
CONTINUOUS
 10
8.1441746598
 20
4.2730823019
 11
8.1442996619
 21
4.2705822931
  0
SPLINE
  5
40B
100
AcDbEntity
  8
0
100
AcDbSpline
 62
7
  6
CONTINUOUS
 70
0
 71
3
 72
8
 73
4
 74
0
 42
0.0000001
 43
0.0000001
 44
0.0000000001
 40
0.0
 40
0.0
 40
0.0
 40
0.0
 40
1.0
 40
1.0
 40
1.0
 40
1.0
 10
8.1445496661
 20
4.267082301
 30
0.0
 10
8.1446746571
 20
4.2650823006
 30
0.0
 10
8.1449246613
 20
4.2638323018
 30
0.0
 10
8.1454246586
 20
4.2633322934
 30
0.0
  0
SPLINE
  5
40C
100
AcDbEntity
  8
0
100
AcDbSpline
 62
7
  6
CONTINUOUS
 70
0
 71
3
 72
8
 73
4
 74
0
 42
0.0000001
 43
0.0000001
 44
0.0000000001
 40
0.0
 40
0.0
 40
0.0
 40
0.0
 40
1.0
 40
1.0
 40
1.0
 40
1.0
 10
8.1454246586
 20
4.2633322934
 30
0.0
 10
8.1459246559
 20
4.2629572982
 30
0.0
 10
8.1465496665
 20
4.2627072939
 30
0.0
 10
8.1474246589
 20
4.2627072939
 30
0.0
  0
SPLINE
  5
40D
100
AcDbEntity
  8
0
100
AcDbSpline
 62
7
  6
CONTINUOUS
 70
0
 71
3
 72
8
 73
4
 74
0
 42
0.0000001
 43
0.0000001
 44
0.0000000001
 40
0.0
 40
0.0
 40
0.0
 40
0.0
 40
1.0
 40
1.0
 40
1.0
 40
1.0
 10
8.2169246619
 20
4.2644573012
 30
0.0
 10
8.2181746607
 20
4.2645823033
 30
0.0
 10
8.2191746665
 20
4.2652073027
 30
0.0
 10
8.2199246568
 20
4.2663322994
 30
0.0
  0
SPLINE
  5
40E
100
AcDbEntity
  8
0
100
AcDbSpline
 62
7
  6
CONTINUOUS
 70
0
 71
3
 72
8
 73
4
 74
0
 42
0.0000001
 43
0.0000001
 44
0.0000000001
 40
0.0
 40
0.0
 40
0.0
 40
0.0
 40
1.0
 40
1.0
 40
1.0
 40
1.0
 10
8.2201746611
 20
4.270207298
 30
0.0
 10
8.2201746611
 20
4.2732072929
 30
0.0
 10
8.2191746609
 20
4.2757072961
 30
0.0
 10
8.2174246592
 20
4.2774572978
 30
0.0
  0
SPLINE
  5
40F
100
AcDbEntity
  8
0
100
AcDbSpline
 62
7
  6
CONTINUOUS
 70
0
 71
3
 72
8
 73
4
 74
0
 42
0.0000001
 43
0.0000001
 44
0.0000000001
 40
0.0
 40
0.0
 40
0.0
 40
0.0
 40
1.0
 40
1.0
 40
1.0
 40
1.0
 10
8.1241746621
 20
4.2319572987
 30
0.0
 10
8.0990496615
 20
4.2319572987
 30
0.0
 10
8.0769246613
 20
4.223207307
 30
0.0
 10
8.0577685331
 20
4.2054910152
 30
0.0
  0
SPLINE
  5
410
100
AcDbEntity
  8
0
100
AcDbSpline
 62
7
  6
CONTINUOUS
 70
0
 71
3
 72
8
 73
4
 74
0
 42
0.0000001
 43
0.0000001
 44
0.0000000001
 40
0.0
 40
0.0
 40
0.0
 40
0.0
 40
1.0
 40
1.0
 40
1.0
 40
1.0
 10
8.0577685331
 20
4.2054910152
 30
0.0
 10
8.0386746613
 20
4.1878323005
 30
0.0
 10
8.0291746612
 20
4.1658323081
 30
0.0
 10
8.0291746612
 20
4.1395822884
 30
0.0
  0
SPLINE
  5
411
100
AcDbEntity
  8
0
100
AcDbSpline
 62
7
  6
CONTINUOUS
 70
0
 71
3
 72
8
 73
4
 74
0
 42
0.0000001
 43
0.0000001
 44
0.0000000001
 40
0.0
 40
0.0
 40
0.0
 40
0.0
 40
1.0
 40
1.0
 40
1.0
 40
1.0
 10
8.0291746612
 20
4.1395822884
 30
0.0
 10
8.0291746612
 20
4.1179280297
 30
0.0
 10
8.0352525764
 20
4.0992732558
 30
0.0
 10
8.0474084063
 20
4.0836179784
 30
0.0
  0
SPLINE
  5
412
100
AcDbEntity
  8
0
100
AcDbSpline
 62
7
  6
CONTINUOUS
 70
0
 71
3
 72
8
 73
4
 74
0
 42
0.0000001
 43
0.0000001
 44
0.0000000001
 40
0.0
 40
0.0
 40
0.0
 40
0.0
 40
1.0
 40
1.0
 40
1.0
 40
1.0
 10
8.2021279649
 20
4.0836179424
 30
0.0
 10
8.2141590942
 20
4.0991562052
 30
0.0
 10
8.2201746611
 20
4.1169562441
 30
0.0
 10
8.2201746611
 20
4.1370822908
 30
0.0
  0
SPLINE
  5
413
100
AcDbEntity
  8
0
100
AcDbSpline
 62
7
  6
CONTINUOUS
 70
0
 71
3
 72
8
 73
4
 74
0
 42
0.0000001
 43
0.0000001
 44
0.0000000001
 40
0.0
 40
0.0
 40
0.0
 40
0.0
 40
1.0
 40
1.0
 40
1.0
 40
1.0
 10
8.2201746611
 20
4.1370822908
 30
0.0
 10
8.2201746611
 20
4.1640823008
 30
0.0
 10
8.2107996588
 20
4.1865823017
 30
0.0
 10
8.192300287
 20
4.2047079481
 30
0.0
  0
SPLINE
  5
414
100
AcDbEntity
  8
0
100
AcDbSpline
 62
7
  6
CONTINUOUS
 70
0
 71
3
 72
8
 73
4
 74
0
 42
0.0000001
 43
0.0000001
 44
0.0000000001
 40
0.0
 40
0.0
 40
0.0
 40
0.0
 40
1.0
 40
1.0
 40
1.0
 40
1.0
 10
8.192300287
 20
4.2047079481
 30
0.0
 10
8.1736746562
 20
4.2229573028
 30
0.0
 10
8.1509246623
 20
4.2319572987
 30
0.0
 10
8.1241746621
 20
4.2319572987
 30
0.0
  0
SPLINE
  5
415
100
AcDbEntity
  8
0
100
AcDbSpline
 62
7
  6
CONTINUOUS
 70
0
 71
3
 72
8
 73
4
 74
0
 42
0.0000001
 43
0.0000001
 44
0.0000000001
 40
0.0
 40
0.0
 40
0.0
 40
0.0
 40
1.0
 40
1.0
 40
1.0
 40
1.0
 10
8.0425496613
 20
4.1394572975
 30
0.0
 10
8.0425496613
 20
4.1700822906
 30
0.0
 10
8.0701746616
 20
4.1853323029
 30
0.0
 10
8.1254246609
 20
4.1853323029
 30
0.0
  0
SPLINE
  5
416
100
AcDbEntity
  8
0
100
AcDbSpline
 62
7
  6
CONTINUOUS
 70
0
 71
3
 72
8
 73
4
 74
0
 42
0.0000001
 43
0.0000001
 44
0.0000000001
 40
0.0
 40
0.0
 40
0.0
 40
0.0
 40
1.0
 40
1.0
 40
1.0
 40
1.0
 10
8.0645374326
 20
4.102932479
 30
0.0
 10
8.0497996604
 20
4.1102072941
 30
0.0
 10
8.0425496613
 20
4.1224573003
 30
0.0
 10
8.0425496613
 20
4.1394572975
 30
0.0
  0
SPLINE
  5
417
100
AcDbEntity
  8
0
100
AcDbSpline
 62
7
  6
CONTINUOUS
 70
0
 71
3
 72
8
 73
4
 74
0
 42
0.0000001
 43
0.0000001
 44
0.0000000001
 40
0.0
 40
0.0
 40
0.0
 40
0.0
 40
1.0
 40
1.0
 40
1.0
 40
1.0
 10
8.1204246601
 20
4.092082289
 30
0.0
 10
8.0977996627
 20
4.092082289
 30
0.0
 10
8.0791746603
 20
4.0957072945
 30
0.0
 10
8.0645374326
 20
4.102932479
 30
0.0
  0
SPLINE
  5
418
100
AcDbEntity
  8
0
100
AcDbSpline
 62
7
  6
CONTINUOUS
 70
0
 71
3
 72
8
 73
4
 74
0
 42
0.0000001
 43
0.0000001
 44
0.0000000001
 40
0.0
 40
0.0
 40
0.0
 40
0.0
 40
1.0
 40
1.0
 40
1.0
 40
1.0
 10
8.2067996582
 20
4.1387073072
 30
0.0
 10
8.2067996582
 20
4.1077072965
 30
0.0
 10
8.1779246611
 20
4.092082289
 30
0.0
 10
8.1204246601
 20
4.092082289
 30
0.0
  0
SPLINE
  5
419
100
AcDbEntity
  8
0
100
AcDbSpline
 62
7
  6
CONTINUOUS
 70
0
 71
3
 72
8
 73
4
 74
0
 42
0.0000001
 43
0.0000001
 44
0.0000000001
 40
0.0
 40
0.0
 40
0.0
 40
0.0
 40
1.0
 40
1.0
 40
1.0
 40
1.0
 10
8.1254246609
 20
4.1853323029
 30
0.0
 10
8.1796746572
 20
4.1853323029
 30
0.0
 10
8.2067996582
 20
4.1698323088
 30
0.0
 10
8.2067996582
 20
4.1387073072
 30
0.0
  0
SPLINE
  5
41A
100
AcDbEntity
  8
0
100
AcDbSpline
 62
7
  6
CONTINUOUS
 70
0
 71
3
 72
25
 73
21
 74
0
 42
0.0000001
 43
0.0000001
 44
0.0000000001
 40
0.0
 40
0.0
 40
0.0
 40
0.0
 40
0.1766999803
 40
0.3518520404
 40
0.4362003093
 40
0.517089859
 40
0.5936386376
 40
0.6650518487
 40
0.7306303736
 40
0.789779377
 40
0.8420236584
 40
0.8870367948
 40
0.9067926987
 40
0.9247212719
 40
0.9408643919
 40
0.9553011585
 40
0.9681670155
 40
0.9796744516
 40
0.9901405001
 40
1.0
 40
1.0
 40
1.0
 40
1.0
 10
7.4789505454
 20
3.8903901964
 30
0.0
 10
7.4789104765
 20
3.8896159784
 30
0.0
 10
7.4787899389
 20
3.8880762139
 30
0.0
 10
7.4785464533
 20
3.8861771137
 30
0.0
 10
7.4782979016
 20
3.8847043493
 30
0.0
 10
7.4780921247
 20
3.8836635271
 30
0.0
 10
7.4778674664
 20
3.8826847447
 30
0.0
 10
7.4776268373
 20
3.8817790685
 30
0.0
 10
7.4773732824
 20
3.8809564578
 30
0.0
 10
7.4771099397
 20
3.8802256418
 30
0.0
 10
7.4768399558
 20
3.8795943102
 30
0.0
 10
7.4766028399
 20
3.8791380526
 30
0.0
 10
7.4764096034
 20
3.87883073
 30
0.0
 10
7.4762711948
 20
3.8786391342
 30
0.0
 10
7.4761332957
 20
3.8784766783
 30
0.0
 10
7.4759961221
 20
3.8783437873
 30
0.0
 10
7.475859839
 20
3.8782408263
 30
0.0
 10
7.4757244035
 20
3.878168297
 30
0.0
 10
7.4755899395
 20
3.8781269976
 30
0.0
 10
7.4754999344
 20
3.878121015
 30
0.0
 10
7.4754567532
 20
3.8781235856
 30
0.0
  0
SPLINE
  5
41B
100
AcDbEntity
  8
0
100
AcDbSpline
 62
7
  6
CONTINUOUS
 70
0
 71
3
 72
28
 73
24
 74
0
 42
0.0000001
 43
0.0000001
 44
0.0000000001
 40
0.0
 40
0.0
 40
0.0
 40
0.0
 40
0.0736672795
 40
0.1522551644
 40
0.2342613932
 40
0.318142008
 40
0.4023672581
 40
0.4854520359
 40
0.5659823539
 40
0.6426323842
 40
0.7141741383
 40
0.7794870848
 40
0.8375689969
 40
0.8636246781
 40
0.8875623823
 40
0.9093022908
 40
0.9287825793
 40
0.9459628752
 40
0.9608366189
 40
0.9734488963
 40
0.983934101
 40
0.9925904667
 40
1.0
 40
1.0
 40
1.0
 40
1.0
 10
7.4789505454
 20
3.9455346588
 30
0.0
 10
7.4789253905
 20
3.9451203041
 30
0.0
 10
7.4788584655
 20
3.944264789
 30
0.0
 10
7.4787180704
 20
3.942952061
 30
0.0
 10
7.4785367631
 20
3.941586279
 30
0.0
 10
7.4783183537
 20
3.9401937898
 30
0.0
 10
7.4780672993
 20
3.9388006416
 30
0.0
 10
7.4777885366
 20
3.9374320323
 30
0.0
 10
7.4774873503
 20
3.9361119211
 30
0.0
 10
7.4771692555
 20
3.9348627845
 30
0.0
 10
7.4768399439
 20
3.9337054316
 30
0.0
 10
7.4765051621
 20
3.9326590012
 30
0.0
 10
7.4762170729
 20
3.9318672936
 30
0.0
 10
7.4759859824
 20
3.9313037502
 30
0.0
 10
7.4758211562
 20
3.9309345794
 30
0.0
 10
7.4756591993
 20
3.9306049513
 30
0.0
 10
7.4755008259
 20
3.9303163196
 30
0.0
 10
7.4753467206
 20
3.9300699472
 30
0.0
 10
7.4751975078
 20
3.9298668696
 30
0.0
 10
7.4750536744
 20
3.9297077799
 30
0.0
 10
7.4749150921
 20
3.9295931973
 30
0.0
 10
7.4747809132
 20
3.9295235091
 30
0.0
 10
7.4746890416
 20
3.9295092249
 30
0.0
 10
7.4746473619
 20
3.9295116977
 30
0.0
  0
SPLINE
  5
41C
100
AcDbEntity
  8
0
100
AcDbSpline
 62
7
  6
CONTINUOUS
 70
0
 71
3
 72
32
 73
28
 74
0
 42
0.0000001
 43
0.0000001
 44
0.0000000001
 40
0.0
 40
0.0
 40
0.0
 40
0.0
 40
0.0539732362
 40
0.1179786309
 40
0.1902480051
 40
0.2688247824
 40
0.3516585635
 40
0.4366733693
 40
0.5218173858
 40
0.6050928349
 40
0.6845759959
 40
0.7584321636
 40
0.8249302105
 40
0.8549134148
 40
0.8824676521
 40
0.9074191732
 40
0.929608255
 40
0.9488936016
 40
0.9651579832
 40
0.9721302197
 40
0.9783204334
 40
0.983727308
 40
0.9883577749
 40
0.9922313313
 40
0.9953893979
 40
0.9979197825
 40
1.0
 40
1.0
 40
1.0
 40
1.0
 10
7.4789505454
 20
3.9827658629
 30
0.0
 10
7.4789188473
 20
3.98241356
 30
0.0
 10
7.478830401
 20
3.9816452067
 30
0.0
 10
7.478651125
 20
3.980411228
 30
0.0
 10
7.4784173156
 20
3.9790225897
 30
0.0
 10
7.4781355384
 20
3.9775171902
 30
0.0
 10
7.477813392
 20
3.9759345776
 30
0.0
 10
7.4774592878
 20
3.9743147307
 30
0.0
 10
7.4770821159
 20
3.9726971275
 30
0.0
 10
7.4766910455
 20
3.9711201524
 30
0.0
 10
7.4762954092
 20
3.969620694
 30
0.0
 10
7.4759045679
 20
3.968233892
 30
0.0
 10
7.4755804896
 20
3.9671655061
 30
0.0
 10
7.4753290446
 20
3.9663924507
 30
0.0
 10
7.4751539603
 20
3.96588095
 30
0.0
 10
7.4749869197
 20
3.9654207673
 30
0.0
 10
7.474829044
 20
3.9650150086
 30
0.0
 10
7.4746814078
 20
3.9646665298
 30
0.0
 10
7.4745625199
 20
3.9644143355
 30
0.0
 10
7.474472218
 20
3.9642438876
 30
0.0
 10
7.474411188
 20
3.9641385562
 30
0.0
 10
7.4743534314
 20
3.96404919
 30
0.0
 10
7.4742990323
 20
3.9639759249
 30
0.0
 10
7.4742480656
 20
3.963918777
 30
0.0
 10
7.4742003571
 20
3.9638777378
 30
0.0
 10
7.4741555285
 20
3.9638525911
 30
0.0
 10
7.4741248901
 20
3.9638469902
 30
0.0
 10
7.4741112808
 20
3.9638477966
 30
0.0
  0
SPLINE
  5
41D
100
AcDbEntity
  8
0
100
AcDbSpline
 62
7
  6
CONTINUOUS
 70
0
 71
3
 72
25
 73
21
 74
0
 42
0.0000001
 43
0.0000001
 44
0.0000000001
 40
0.0
 40
0.0
 40
0.0
 40
0.0
 40
0.2018723674
 40
0.3897750601
 40
0.4769392403
 40
0.5588084828
 40
0.6348536625
 40
0.7045868793
 40
0.7675661725
 40
0.8233994247
 40
0.871756391
 40
0.912384835
 40
0.9297527537
 40
0.9451483491
 40
0.9585829416
 40
0.9700946932
 40
0.9797626271
 40
0.987737211
 40
0.9943084961
 40
1.0
 40
1.0
 40
1.0
 40
1.0
 10
7.4652582405
 20
3.8944457374
 30
0.0
 10
7.4651907741
 20
3.8939340235
 30
0.0
 10
7.465051811
 20
3.8929471274
 30
0.0
 10
7.4648577771
 20
3.8917431296
 30
0.0
 10
7.4646961532
 20
3.8908449272
 30
0.0
 10
7.4645769027
 20
3.8902297462
 30
0.0
 10
7.4644573882
 20
3.8896600781
 30
0.0
 10
7.464338432
 20
3.8891397208
 30
0.0
 10
7.4642208681
 20
3.8886721621
 30
0.0
 10
7.4641055525
 20
3.8882605231
 30
0.0
 10
7.4639933023
 20
3.8879075974
 30
0.0
 10
7.4638988059
 20
3.8876524291
 30
0.0
 10
7.4638240429
 20
3.8874802671
 30
0.0
 10
7.463772173
 20
3.8873740923
 30
0.0
 10
7.4637216194
 20
3.8872841009
 30
0.0
 10
7.4636724415
 20
3.8872103845
 30
0.0
 10
7.4636246556
 20
3.8871529256
 30
0.0
 10
7.4635780267
 20
3.8871116837
 30
0.0
 10
7.4635319955
 20
3.8870866851
 30
0.0
 10
7.4635001182
 20
3.887081757
 30
0.0
 10
7.4634855934
 20
3.8870826445
 30
0.0
  0
SPLINE
  5
41E
100
AcDbEntity
  8
0
100
AcDbSpline
 62
7
  6
CONTINUOUS
 70
0
 71
3
 72
36
 73
32
 74
0
 42
0.0000001
 43
0.0000001
 44
0.0000000001
 40
0.0
 40
0.0
 40
0.0
 40
0.0
 40
0.0137104886
 40
0.0311076713
 40
0.0521142738
 40
0.0765980589
 40
0.1043828004
 40
0.13526006
 40
0.2053204501
 40
0.284614535
 40
0.3706588052
 40
0.460722584
 40
0.5518998199
 40
0.6411974037
 40
0.7256383467
 40
0.7651415164
 40
0.8023823701
 40
0.8370475325
 40
0.8688482681
 40
0.8975248823
 40
0.9228511618
 40
0.9446397248
 40
0.9627501847
 40
0.9704008543
 40
0.9771108377
 40
0.9828885359
 40
0.9877550837
 40
0.9917572326
 40
0.9949868859
 40
0.997625742
 40
1.0
 40
1.0
 40
1.0
 40
1.0
 10
7.4637552556
 20
3.7683968205
 30
0.0
 10
7.4637984146
 20
3.7683180636
 30
0.0
 10
7.463883145
 20
3.7681322505
 30
0.0
 10
7.4640013945
 20
3.7678119064
 30
0.0
 10
7.4641243939
 20
3.7674186081
 30
0.0
 10
7.4642510197
 20
3.766955573
 30
0.0
 10
7.4643801181
 20
3.7664264081
 30
0.0
 10
7.4645617978
 20
3.7656029961
 30
0.0
 10
7.4647838134
 20
3.7644432681
 30
0.0
 10
7.4650335513
 20
3.7629215742
 30
0.0
 10
7.4652680027
 20
3.7612650077
 30
0.0
 10
7.4654793225
 20
3.7595269155
 30
0.0
 10
7.46566032
 20
3.7577639785
 30
0.0
 10
7.4658047969
 20
3.7560346321
 30
0.0
 10
7.465892592
 20
3.7546404754
 30
0.0
 10
7.4659395618
 20
3.7535856913
 30
0.0
 10
7.4659621895
 20
3.7528562575
 30
0.0
 10
7.465972848
 20
3.7521770047
 30
0.0
 10
7.4659714718
 20
3.7515537575
 30
0.0
 10
7.4659581228
 20
3.75099183
 30
0.0
 10
7.4659330301
 20
3.7504959264
 30
0.0
 10
7.4658964867
 20
3.7500701597
 30
0.0
 10
7.4658550945
 20
3.749761234
 30
0.0
 10
7.4658147708
 20
3.7495523358
 30
0.0
 10
7.4657836236
 20
3.7494240894
 30
0.0
 10
7.4657499695
 20
3.7493154097
 30
0.0
 10
7.4657138559
 20
3.7492263592
 30
0.0
 10
7.4656752611
 20
3.7491568266
 30
0.0
 10
7.4656338244
 20
3.7491065172
 30
0.0
 10
7.4655881639
 20
3.7490756144
 30
0.0
 10
7.4655545063
 20
3.7490700561
 30
0.0
 10
7.4655389831
 20
3.7490710039
 30
0.0
  0
SPLINE
  5
41F
100
AcDbEntity
  8
0
100
AcDbSpline
 62
7
  6
CONTINUOUS
 70
0
 71
3
 72
20
 73
16
 74
0
 42
0.0000001
 43
0.0000001
 44
0.0000000001
 40
0.0
 40
0.0
 40
0.0
 40
0.0
 40
0.2023071867
 40
0.3840602629
 40
0.543103258
 40
0.6136410863
 40
0.678033767
 40
0.7362590679
 40
0.7883819999
 40
0.8345933904
 40
0.8752496442
 40
0.910956816
 40
0.9426615834
 40
0.9717484181
 40
1.0
 40
1.0
 40
1.0
 40
1.0
 10
7.4789505454
 20
3.7613915064
 30
0.0
 10
7.478929658
 20
3.7610528927
 30
0.0
 10
7.4788774598
 20
3.7604107032
 30
0.0
 10
7.4787592976
 20
3.7595072688
 30
0.0
 10
7.4786282377
 20
3.7588293575
 30
0.0
 10
7.4785039803
 20
3.7583521348
 30
0.0
 10
7.4784070368
 20
3.7580429091
 30
0.0
 10
7.4783030328
 20
3.7577687388
 30
0.0
 10
7.4781923356
 20
3.757530367
 30
0.0
 10
7.4780753212
 20
3.7573283317
 30
0.0
 10
7.4779521876
 20
3.7571630226
 30
0.0
 10
7.4778229708
 20
3.7570347482
 30
0.0
 10
7.4776873425
 20
3.7569441558
 30
0.0
 10
7.4775454615
 20
3.7568926423
 30
0.0
 10
7.4774481545
 20
3.7568855062
 30
0.0
 10
7.4774008626
 20
3.7568883321
 30
0.0
  0
SPLINE
  5
420
100
AcDbEntity
  8
0
100
AcDbSpline
 62
7
  6
CONTINUOUS
 70
0
 71
3
 72
18
 73
14
 74
0
 42
0.0000001
 43
0.0000001
 44
0.0000000001
 40
0.0
 40
0.0
 40
0.0
 40
0.0
 40
0.2034761566
 40
0.3826049588
 40
0.5370637462
 40
0.6672078391
 40
0.7742348735
 40
0.8199142142
 40
0.8610486175
 40
0.8984347413
 40
0.9331431908
 40
0.9665043049
 40
1.0
 40
1.0
 40
1.0
 40
1.0
 10
7.4789505454
 20
3.7071761598
 30
0.0
 10
7.4789382819
 20
3.7070446446
 30
0.0
 10
7.4789102976
 20
3.7067977497
 30
0.0
 10
7.478852712
 20
3.7064537141
 30
0.0
 10
7.4787825527
 20
3.7061606115
 30
0.0
 10
7.4787002972
 20
3.7059196372
 30
0.0
 10
7.478617971
 20
3.7057543671
 30
0.0
 10
7.4785444259
 20
3.7056519306
 30
0.0
 10
7.4784892214
 20
3.7055928008
 30
0.0
 10
7.4784309884
 20
3.7055473611
 30
0.0
 10
7.4783696789
 20
3.7055158698
 30
0.0
 10
7.4783055147
 20
3.705498645
 30
0.0
 10
7.4782617612
 20
3.7054968199
 30
0.0
 10
7.4782400565
 20
3.7054981208
 30
0.0
  0
LINE
  5
421
100
AcDbEntity
  8
0
100
AcDbLine
 62
7
  6
CONTINUOUS
 10
7.4789505454
 20
3.6713354758
 11
7.47880595
 21
3.6711599181
  0
SPLINE
  5
422
100
AcDbEntity
  8
0
100
AcDbSpline
 62
7
  6
CONTINUOUS
 70
0
 71
3
 72
22
 73
18
 74
0
 42
0.0000001
 43
0.0000001
 44
0.0000000001
 40
0.0
 40
0.0
 40
0.0
 40
0.0
 40
0.1931021291
 40
0.3733129328
 40
0.4570223453
 40
0.5357338497
 40
0.6089848775
 40
0.6763849556
 40
0.7376264409
 40
0.7924991566
 40
0.8409117564
 40
0.8829321688
 40
0.9188630341
 40
0.9493756246
 40
0.9757188395
 40
0.9879711579
 40
1.0
 40
1.0
 40
1.0
 40
1.0
 10
7.4789505454
 20
3.8257277203
 30
0.0
 10
7.4789205173
 20
3.8251502617
 30
0.0
 10
7.4788382047
 20
3.8240349837
 30
0.0
 10
7.4786714137
 20
3.822675946
 30
0.0
 10
7.4785019123
 20
3.821663896
 30
0.0
 10
7.4783631088
 20
3.8209718284
 30
0.0
 10
7.4782107187
 20
3.8203327069
 30
0.0
 10
7.4780459959
 20
3.8197508048
 30
0.0
 10
7.4778702696
 20
3.8192298479
 30
0.0
 10
7.4776849113
 20
3.8187729835
 30
0.0
 10
7.4774912527
 20
3.818382763
 30
0.0
 10
7.4772905349
 20
3.8180610868
 30
0.0
 10
7.4770834331
 20
3.8178092667
 30
0.0
 10
7.4768701364
 20
3.8176282307
 30
0.0
 10
7.4766809196
 20
3.8175365869
 30
0.0
 10
7.476531712
 20
3.817506266
 30
0.0
 10
7.4764585937
 20
3.8175042505
 30
0.0
 10
7.4764226375
 20
3.8175063929
 30
0.0
  0
SPLINE
  5
423
100
AcDbEntity
  8
0
100
AcDbSpline
 62
7
  6
CONTINUOUS
 70
0
 71
3
 72
14
 73
10
 74
0
 42
0.0000001
 43
0.0000001
 44
0.0000000001
 40
0.0
 40
0.0
 40
0.0
 40
0.0
 40
0.2969892623
 40
0.439244599
 40
0.5741589082
 40
0.6995432076
 40
0.8134158864
 40
0.9140440958
 40
1.0
 40
1.0
 40
1.0
 40
1.0
 10
7.4659717284
 20
3.8278707845
 30
0.0
 10
7.4659717284
 20
3.8270319127
 30
0.0
 10
7.4659485088
 20
3.8257910168
 30
0.0
 10
7.4658682763
 20
3.8241711531
 30
0.0
 10
7.4657867653
 20
3.8230369182
 30
0.0
 10
7.4656846609
 20
3.8219848614
 30
0.0
 10
7.4655638984
 20
3.8210322692
 30
0.0
 10
7.465426767
 20
3.820194567
 30
0.0
 10
7.4653172814
 20
3.81967868
 30
0.0
 10
7.4652582405
 20
3.8194431782
 30
0.0
  0
SPLINE
  5
424
100
AcDbEntity
  8
0
100
AcDbSpline
 62
7
  6
CONTINUOUS
 70
0
 71
3
 72
17
 73
13
 74
0
 42
0.0000001
 43
0.0000001
 44
0.0000000001
 40
0.0
 40
0.0
 40
0.0
 40
0.0
 40
0.202630514
 40
0.3819988341
 40
0.5377121418
 40
0.6698870224
 40
0.7792101865
 40
0.8673997222
 40
0.9047404754
 40
0.9385170686
 40
0.9698144197
 40
1.0
 40
1.0
 40
1.0
 40
1.0
 10
7.4652582405
 20
3.8194431782
 30
0.0
 10
7.4652313843
 20
3.819336055
 30
0.0
 10
7.4651773013
 20
3.8191349383
 30
0.0
 10
7.4650885085
 20
3.8188555151
 30
0.0
 10
7.4649973521
 20
3.8186175382
 30
0.0
 10
7.4649042202
 20
3.818421728
 30
0.0
 10
7.4648095083
 20
3.8182685769
 30
0.0
 10
7.4647246054
 20
3.818171267
 30
0.0
 10
7.464655112
 20
3.8181186941
 30
0.0
 10
7.4646053646
 20
3.8180926899
 30
0.0
 10
7.4645551273
 20
3.8180781487
 30
0.0
 10
7.4645213175
 20
3.8180763026
 30
0.0
 10
7.4645048964
 20
3.8180773066
 30
0.0
  0
SPLINE
  5
425
100
AcDbEntity
  8
0
100
AcDbSpline
 62
7
  6
CONTINUOUS
 70
0
 71
3
 72
22
 73
18
 74
0
 42
0.0000001
 43
0.0000001
 44
0.0000000001
 40
0.0
 40
0.0
 40
0.0
 40
0.0
 40
0.040679019
 40
0.0825051881
 40
0.1264821569
 40
0.173413303
 40
0.2238526224
 40
0.2781284812
 40
0.3363714798
 40
0.398549431
 40
0.4644981097
 40
0.5339466294
 40
0.6065378516
 40
0.6818450748
 40
0.7593882777
 40
0.8386395586
 40
1.0
 40
1.0
 40
1.0
 40
1.0
 10
8.1264246611
 20
5.1949572981
 30
0.0
 10
8.1267529433
 20
5.1949572981
 30
0.0
 10
8.1274205084
 20
5.1948907839
 30
0.0
 10
8.1284032928
 20
5.1945950872
 30
0.0
 10
8.1293631047
 20
5.1941082065
 30
0.0
 10
8.130290566
 20
5.1934372512
 30
0.0
 10
8.1311780224
 20
5.1925898734
 30
0.0
 10
8.1320180673
 20
5.191574701
 30
0.0
 10
8.1328035242
 20
5.1904014419
 30
0.0
 10
8.1335274312
 20
5.1890811415
 30
0.0
 10
8.1341831887
 20
5.1876262059
 30
0.0
 10
8.134764693
 20
5.1860503573
 30
0.0
 10
8.1352664581
 20
5.1843685178
 30
0.0
 10
8.1356837122
 20
5.1825967007
 30
0.0
 10
8.1360124769
 20
5.1807517301
 30
0.0
 10
8.1363304329
 20
5.1782031745
 30
0.0
 10
8.1364246611
 20
5.1762594872
 30
0.0
 10
8.1364246611
 20
5.1749572981
 30
0.0
  0
SPLINE
  5
426
100
AcDbEntity
  8
0
100
AcDbSpline
 62
7
  6
CONTINUOUS
 70
0
 71
3
 72
22
 73
18
 74
0
 42
0.0000001
 43
0.0000001
 44
0.0000000001
 40
0.0
 40
0.0
 40
0.0
 40
0.0
 40
0.040679019
 40
0.0825051881
 40
0.1264821569
 40
0.173413303
 40
0.2238526224
 40
0.2781284812
 40
0.3363714799
 40
0.398549431
 40
0.4644981097
 40
0.5339466294
 40
0.6065378517
 40
0.6818450749
 40
0.7593882778
 40
0.8386395588
 40
1.0
 40
1.0
 40
1.0
 40
1.0
 10
8.1264246611
 20
5.1949572981
 30
0.0
 10
8.1260963788
 20
5.1949572981
 30
0.0
 10
8.1254288137
 20
5.1948907839
 30
0.0
 10
8.1244460293
 20
5.1945950872
 30
0.0
 10
8.1234862174
 20
5.1941082065
 30
0.0
 10
8.1225587561
 20
5.1934372512
 30
0.0
 10
8.1216712998
 20
5.1925898734
 30
0.0
 10
8.1208312548
 20
5.191574701
 30
0.0
 10
8.1200457979
 20
5.1904014419
 30
0.0
 10
8.1193218909
 20
5.1890811415
 30
0.0
 10
8.1186661334
 20
5.1876262059
 30
0.0
 10
8.1180846291
 20
5.1860503573
 30
0.0
 10
8.1175828641
 20
5.1843685178
 30
0.0
 10
8.1171656099
 20
5.1825967008
 30
0.0
 10
8.1168368452
 20
5.1807517301
 30
0.0
 10
8.1165188892
 20
5.1782031745
 30
0.0
 10
8.1164246612
 20
5.1762594872
 30
0.0
 10
8.1164246612
 20
5.1749572981
 30
0.0
  0
SPLINE
  5
427
100
AcDbEntity
  8
0
100
AcDbSpline
 62
7
  6
CONTINUOUS
 70
0
 71
3
 72
22
 73
18
 74
0
 42
0.0000001
 43
0.0000001
 44
0.0000000001
 40
0.0
 40
0.0
 40
0.0
 40
0.0
 40
0.040679019
 40
0.0825051881
 40
0.1264821569
 40
0.173413303
 40
0.2238526224
 40
0.2781284812
 40
0.3363714798
 40
0.398549431
 40
0.4644981097
 40
0.5339466294
 40
0.6065378516
 40
0.6818450748
 40
0.7593882777
 40
0.8386395586
 40
1.0
 40
1.0
 40
1.0
 40
1.0
 10
7.8339246611
 20
5.1949572981
 30
0.0
 10
7.8335963788
 20
5.1949572981
 30
0.0
 10
7.8329288137
 20
5.1948907839
 30
0.0
 10
7.8319460293
 20
5.1945950872
 30
0.0
 10
7.8309862174
 20
5.1941082065
 30
0.0
 10
7.8300587561
 20
5.1934372512
 30
0.0
 10
7.8291712997
 20
5.1925898734
 30
0.0
 10
7.8283312548
 20
5.191574701
 30
0.0
 10
7.8275457979
 20
5.1904014419
 30
0.0
 10
7.8268218909
 20
5.1890811415
 30
0.0
 10
7.8261661334
 20
5.1876262059
 30
0.0
 10
7.8255846291
 20
5.1860503573
 30
0.0
 10
7.8250828641
 20
5.1843685178
 30
0.0
 10
7.8246656099
 20
5.1825967007
 30
0.0
 10
7.8243368452
 20
5.1807517301
 30
0.0
 10
7.8240188892
 20
5.1782031745
 30
0.0
 10
7.8239246611
 20
5.1762594872
 30
0.0
 10
7.8239246611
 20
5.1749572981
 30
0.0
  0
LINE
  5
428
100
AcDbEntity
  8
0
100
AcDbLine
 62
7
  6
CONTINUOUS
 10
7.47880595
 20
3.6711599181
 11
7.4781236271
 21
3.6722619319
  0
SPLINE
  5
429
100
AcDbEntity
  8
0
100
AcDbSpline
 62
7
  6
CONTINUOUS
 70
0
 71
3
 72
23
 73
19
 74
0
 42
0.0000001
 43
0.0000001
 44
0.0000000001
 40
0.0
 40
0.0
 40
0.0
 40
0.0
 40
0.041729396
 40
0.0921012986
 40
0.1501029299
 40
0.2146029251
 40
0.2843791044
 40
0.3581348543
 40
0.5120869852
 40
0.6649682233
 40
0.7372616544
 40
0.804782484
 40
0.8660804296
 40
0.9198048774
 40
0.9434472903
 40
0.9647660641
 40
0.9836478471
 40
1.0
 40
1.0
 40
1.0
 40
1.0
 10
7.4781236271
 20
3.6722619319
 30
0.0
 10
7.4780206822
 20
3.672510415
 30
0.0
 10
7.4778099593
 20
3.6730656499
 30
0.0
 10
7.4774978152
 20
3.6739814882
 30
0.0
 10
7.4771650765
 20
3.6750449989
 30
0.0
 10
7.4768184544
 20
3.6762349152
 30
0.0
 10
7.4764647349
 20
3.67752833
 30
0.0
 10
7.4759858218
 20
3.6793850254
 30
0.0
 10
7.4754206473
 20
3.6817723738
 30
0.0
 10
7.4749161044
 20
3.6841636595
 30
0.0
 10
7.4745658159
 20
3.6860174641
 30
0.0
 10
7.4743453579
 20
3.6872949025
 30
0.0
 10
7.4741670338
 20
3.6884579521
 30
0.0
 10
7.4740522182
 20
3.6893444363
 30
0.0
 10
7.4739864111
 20
3.6899771257
 30
0.0
 10
7.4739519787
 20
3.6903872138
 30
0.0
 10
7.4739304721
 20
3.6907511239
 30
0.0
 10
7.4739243151
 20
3.6909782056
 30
0.0
 10
7.473923959
 20
3.6910836016
 30
0.0
  0
LINE
  5
42A
100
AcDbEntity
  8
0
100
AcDbLine
 62
7
  6
CONTINUOUS
 10
7.473923959
 20
3.6910836016
 11
7.4739667392
 21
3.6916695447
  0
SPLINE
  5
42B
100
AcDbEntity
  8
0
100
AcDbSpline
 62
7
  6
CONTINUOUS
 70
0
 71
3
 72
23
 73
19
 74
0
 42
0.0000001
 43
0.0000001
 44
0.0000000001
 40
0.0
 40
0.0
 40
0.0
 40
0.0
 40
0.0111436113
 40
0.022785598
 40
0.0352568326
 40
0.048823344
 40
0.0799471943
 40
0.1172102732
 40
0.1610462861
 40
0.2115569672
 40
0.2686300755
 40
0.3320001194
 40
0.4012796617
 40
0.4759765958
 40
0.5555063074
 40
0.6392015459
 40
0.8160567026
 40
1.0
 40
1.0
 40
1.0
 40
1.0
 10
7.4764226375
 20
3.8175063929
 30
0.0
 10
7.4763816623
 20
3.8175088344
 30
0.0
 10
7.4762981802
 20
3.8175222044
 30
0.0
 10
7.4761753875
 20
3.8175664022
 30
0.0
 10
7.4760537951
 20
3.8176344637
 30
0.0
 10
7.475885921
 20
3.8177624935
 30
0.0
 10
7.4756814367
 20
3.8179876203
 30
0.0
 10
7.4754548875
 20
3.8183345859
 30
0.0
 10
7.4752371617
 20
3.8187686468
 30
0.0
 10
7.4750300558
 20
3.8192870531
 30
0.0
 10
7.4748353687
 20
3.8198863022
 30
0.0
 10
7.4746550417
 20
3.8205617637
 30
0.0
 10
7.4744909188
 20
3.8213079068
 30
0.0
 10
7.4743447481
 20
3.8221182938
 30
0.0
 10
7.4742181092
 20
3.8229856392
 30
0.0
 10
7.4740746069
 20
3.8242302472
 30
0.0
 10
7.473955488
 20
3.8258640087
 30
0.0
 10
7.4739239224
 20
3.8271932238
 30
0.0
 10
7.4739239224
 20
3.8278707845
 30
0.0
  0
SPLINE
  5
42C
100
AcDbEntity
  8
0
100
AcDbSpline
 62
7
  6
CONTINUOUS
 70
0
 71
3
 72
28
 73
24
 74
0
 42
0.0000001
 43
0.0000001
 44
0.0000000001
 40
0.0
 40
0.0
 40
0.0
 40
0.0
 40
0.0023529531
 40
0.0048437517
 40
0.0076124208
 40
0.0107618488
 40
0.0184492746
 40
0.028236903
 40
0.0402576524
 40
0.0545615154
 40
0.0711569608
 40
0.0900259116
 40
0.1111322691
 40
0.1344263648
 40
0.1873184138
 40
0.2480968028
 40
0.3160203059
 40
0.3902375406
 40
0.4698064612
 40
0.553712439
 40
0.6408865176
 40
0.8206012277
 40
1.0
 40
1.0
 40
1.0
 40
1.0
 10
7.4634855934
 20
3.8870826445
 30
0.0
 10
7.4634760601
 20
3.8870832269
 30
0.0
 10
7.4634565079
 20
3.8870871784
 30
0.0
 10
7.4634286097
 20
3.8871011197
 30
0.0
 10
7.4634019303
 20
3.8871227522
 30
0.0
 10
7.4633654278
 20
3.8871644601
 30
0.0
 10
7.4633236367
 20
3.8872377759
 30
0.0
 10
7.463280078
 20
3.8873494809
 30
0.0
 10
7.4632401469
 20
3.8874907151
 30
0.0
 10
7.4632039989
 20
3.8876612248
 30
0.0
 10
7.4631718041
 20
3.8878607265
 30
0.0
 10
7.4631437139
 20
3.8880886734
 30
0.0
 10
7.4631198484
 20
3.8883444154
 30
0.0
 10
7.4630926647
 20
3.8887384374
 30
0.0
 10
7.463071544
 20
3.8892941269
 30
0.0
 10
7.4630647466
 20
3.8900312875
 30
0.0
 10
7.4630759197
 20
3.8908549594
 30
0.0
 10
7.4631049743
 20
3.8917544947
 30
0.0
 10
7.4631515959
 20
3.892718241
 30
0.0
 10
7.4632151875
 20
3.8937337147
 30
0.0
 10
7.4633226344
 20
3.8951536302
 30
0.0
 10
7.4634923222
 20
3.8969574031
 30
0.0
 10
7.4636617751
 20
3.8984053819
 30
0.0
 10
7.4637552556
 20
3.8991275702
 30
0.0
  0
SPLINE
  5
42D
100
AcDbEntity
  8
0
100
AcDbSpline
 62
7
  6
CONTINUOUS
 70
0
 71
3
 72
22
 73
18
 74
0
 42
0.0000001
 43
0.0000001
 44
0.0000000001
 40
0.0
 40
0.0
 40
0.0
 40
0.0
 40
0.040679019
 40
0.0825051881
 40
0.1264821569
 40
0.1734133029
 40
0.2238526224
 40
0.2781284811
 40
0.3363714797
 40
0.3985494309
 40
0.4644981096
 40
0.5339466292
 40
0.6065378515
 40
0.6818450747
 40
0.7593882776
 40
0.8386395584
 40
1.0
 40
1.0
 40
1.0
 40
1.0
 10
8.4189246611
 20
5.1949572981
 30
0.0
 10
8.4192529433
 20
5.1949572981
 30
0.0
 10
8.4199205084
 20
5.1948907839
 30
0.0
 10
8.4209032928
 20
5.1945950872
 30
0.0
 10
8.4218631047
 20
5.1941082065
 30
0.0
 10
8.422790566
 20
5.1934372512
 30
0.0
 10
8.4236780224
 20
5.1925898734
 30
0.0
 10
8.4245180673
 20
5.191574701
 30
0.0
 10
8.4253035242
 20
5.1904014419
 30
0.0
 10
8.4260274312
 20
5.1890811415
 30
0.0
 10
8.4266831887
 20
5.1876262059
 30
0.0
 10
8.427264693
 20
5.1860503573
 30
0.0
 10
8.4277664581
 20
5.1843685178
 30
0.0
 10
8.4281837122
 20
5.1825967007
 30
0.0
 10
8.428512477
 20
5.1807517301
 30
0.0
 10
8.4288304329
 20
5.1782031745
 30
0.0
 10
8.4289246612
 20
5.1762594872
 30
0.0
 10
8.4289246612
 20
5.1749572981
 30
0.0
  0
SPLINE
  5
42E
100
AcDbEntity
  8
0
100
AcDbSpline
 62
7
  6
CONTINUOUS
 70
0
 71
3
 72
23
 73
19
 74
0
 42
0.0000001
 43
0.0000001
 44
0.0000000001
 40
0.0
 40
0.0
 40
0.0
 40
0.0
 40
0.0625000463
 40
0.1250000995
 40
0.1875002551
 40
0.2500002341
 40
0.3125003716
 40
0.3750003534
 40
0.4375003227
 40
0.5000003169
 40
0.5625002651
 40
0.6250002418
 40
0.68750032
 40
0.7500002094
 40
0.8125002537
 40
0.8750001838
 40
0.9375000855
 40
1.0
 40
1.0
 40
1.0
 40
1.0
 10
7.9389150628
 20
4.5427442087
 30
0.0
 10
7.9350890768
 20
4.5398455313
 30
0.0
 10
7.9275680466
 20
4.5338729436
 30
0.0
 10
7.9167088364
 20
4.5244082325
 30
0.0
 10
7.9062964222
 20
4.5144535385
 30
0.0
 10
7.8963563382
 20
4.5040272586
 30
0.0
 10
7.8869077915
 20
4.4931536409
 30
0.0
 10
7.8779673586
 20
4.4818586053
 30
0.0
 10
7.8695528982
 20
4.4701664907
 30
0.0
 10
7.8616816853
 20
4.4581019677
 30
0.0
 10
7.8543713483
 20
4.4456895224
 30
0.0
 10
7.8476398404
 20
4.4329538231
 30
0.0
 10
7.8415048621
 20
4.419920169
 30
0.0
 10
7.8359867645
 20
4.40661351
 30
0.0
 10
7.8310975023
 20
4.3930632622
 30
0.0
 10
7.8268441683
 20
4.3793001161
 30
0.0
 10
7.8232336338
 20
4.3653549071
 30
0.0
 10
7.8212595637
 20
4.3559558276
 30
0.0
 10
7.8203820905
 20
4.3512366706
 30
0.0
  0
SPLINE
  5
42F
100
AcDbEntity
  8
0
100
AcDbSpline
 62
7
  6
CONTINUOUS
 70
0
 71
3
 72
49
 73
45
 74
0
 42
0.0000001
 43
0.0000001
 44
0.0000000001
 40
0.0
 40
0.0
 40
0.0
 40
0.0
 40
0.106166195
 40
0.1571065771
 40
0.20668337
 40
0.3019138684
 40
0.3921389705
 40
0.4774870192
 40
0.5579354843
 40
0.6333121926
 40
0.7033163243
 40
0.7361799309
 40
0.7675314631
 40
0.7972986991
 40
0.8254039119
 40
0.8517613959
 40
0.8762755085
 40
0.8988457289
 40
0.919369601
 40
0.9377548432
 40
0.9461177931
 40
0.9539125751
 40
0.9611277929
 40
0.967753413
 40
0.9737821486
 40
0.9792069919
 40
0.984020898
 40
0.9882167853
 40
0.9917875332
 40
0.9933362034
 40
0.994725801
 40
0.9959553652
 40
0.9970239319
 40
0.9979305336
 40
0.9986741997
 40
0.9989846278
 40
0.9992539565
 40
0.9994820637
 40
0.9996688271
 40
0.9998141241
 40
0.9999178323
 40
0.9999540524
 40
0.9999798297
 40
1.0
 40
1.0
 40
1.0
 40
1.0
 10
8.3977066261
 20
2.7109572981
 30
0.0
 10
8.3993510135
 20
2.7109574006
 30
0.0
 10
8.4017864861
 20
2.7110709745
 30
0.0
 10
8.4049668229
 20
2.7114431752
 30
0.0
 10
8.4079603379
 20
2.7119297292
 30
0.0
 10
8.4115136037
 20
2.7127416734
 30
0.0
 10
8.4155197489
 20
2.7139976713
 30
0.0
 10
8.4192081584
 20
2.7154632069
 30
0.0
 10
8.4225791423
 20
2.7170788706
 30
0.0
 10
8.4256344721
 20
2.7187859351
 30
0.0
 10
8.4279650759
 20
2.7202686281
 30
0.0
 10
8.4296737755
 20
2.7214530597
 30
0.0
 10
8.4308496226
 20
2.7223114274
 30
0.0
 10
8.4319468158
 20
2.7231518615
 30
0.0
 10
8.4329651508
 20
2.7239675087
 30
0.0
 10
8.4339043315
 20
2.7247513981
 30
0.0
 10
8.4347640384
 20
2.7254963843
 30
0.0
 10
8.4355438554
 20
2.7261953409
 30
0.0
 10
8.4362436445
 20
2.7268411855
 30
0.0
 10
8.4367750988
 20
2.7273448582
 30
0.0
 10
8.4371600204
 20
2.7277164687
 30
0.0
 10
8.4374190706
 20
2.7279693562
 30
0.0
 10
8.4376576788
 20
2.7282046551
 30
0.0
 10
8.4378758149
 20
2.728421752
 30
0.0
 10
8.4380733773
 20
2.7286202054
 30
0.0
 10
8.4382503127
 20
2.7287995935
 30
0.0
 10
8.4384065679
 20
2.7289595016
 30
0.0
 10
8.4385420916
 20
2.7290995126
 30
0.0
 10
8.4386419335
 20
2.7292036728
 30
0.0
 10
8.4387114089
 20
2.7292767292
 30
0.0
 10
8.4387557796
 20
2.729323618
 30
0.0
 10
8.4387949384
 20
2.7293652007
 30
0.0
 10
8.4388288827
 20
2.7294014175
 30
0.0
 10
8.4388576103
 20
2.7294322095
 30
0.0
 10
8.4388782783
 20
2.7294544587
 30
0.0
 10
8.4388922064
 20
2.7294695009
 30
0.0
 10
8.4389006978
 20
2.7294786852
 30
0.0
 10
8.4389078906
 20
2.729486486
 30
0.0
 10
8.4389137558
 20
2.7294928295
 30
0.0
 10
8.4389183691
 20
2.7294978851
 30
0.0
 10
8.4389212822
 20
2.7295009422
 30
0.0
 10
8.4389231359
 20
2.7295030809
 30
0.0
 10
8.4389238128
 20
2.7295035685
 30
0.0
 10
8.4389246631
 20
2.729504928
 30
0.0
 10
8.4389246611
 20
2.7295046156
 30
0.0
  0
LINE
  5
430
100
AcDbEntity
  8
0
100
AcDbLine
 62
7
  6
CONTINUOUS
 10
7.8335596824
 20
5.0074706235
 11
7.8323851502
 21
5.0076957287
  0
SPLINE
  5
431
100
AcDbEntity
  8
0
100
AcDbSpline
 62
7
  6
CONTINUOUS
 70
0
 71
3
 72
21
 73
17
 74
0
 42
0.0000001
 43
0.0000001
 44
0.0000000001
 40
0.0
 40
0.0
 40
0.0
 40
0.0
 40
0.0412909922
 40
0.084810267
 40
0.1311050747
 40
0.1805482475
 40
0.2333589517
 40
0.2896205789
 40
0.3493037173
 40
0.4122857435
 40
0.4783667435
 40
0.5472827188
 40
0.6187171956
 40
0.6923120138
 40
0.8443400425
 40
1.0
 40
1.0
 40
1.0
 40
1.0
 10
7.8323851502
 20
5.0076957287
 30
0.0
 10
7.8320875225
 20
5.0077884635
 30
0.0
 10
7.831491519
 20
5.0080311537
 30
0.0
 10
7.8306388702
 20
5.0085400404
 30
0.0
 10
7.8298140072
 20
5.0091964874
 30
0.0
 10
7.82902304
 20
5.009994741
 30
0.0
 10
7.8282713856
 20
5.0109283909
 30
0.0
 10
7.8275644359
 20
5.0119901735
 30
0.0
 10
7.8269073614
 20
5.0131719335
 30
0.0
 10
7.8263050855
 20
5.014464606
 30
0.0
 10
7.8257621929
 20
5.0158582529
 30
0.0
 10
7.8252828483
 20
5.0173421017
 30
0.0
 10
7.8248707232
 20
5.0189046876
 30
0.0
 10
7.8244103098
 20
5.0211004975
 30
0.0
 10
7.8240265796
 20
5.023957878
 30
0.0
 10
7.8239246611
 20
5.0262820909
 30
0.0
 10
7.8239246611
 20
5.0274572981
 30
0.0
  0
SPLINE
  5
432
100
AcDbEntity
  8
0
100
AcDbSpline
 62
7
  6
CONTINUOUS
 70
0
 71
3
 72
35
 73
31
 74
0
 42
0.0000001
 43
0.0000001
 44
0.0000000001
 40
0.0
 40
0.0
 40
0.0
 40
0.0
 40
0.0573585057
 40
0.0863963455
 40
0.115651244
 40
0.1747680266
 40
0.2346352127
 40
0.2648308821
 40
0.2951924116
 40
0.3257146655
 40
0.3563931134
 40
0.3872239687
 40
0.4182040035
 40
0.4493305888
 40
0.480601519
 40
0.5120150723
 40
0.5435698063
 40
0.5752646607
 40
0.6070987245
 40
0.6390713471
 40
0.6711820098
 40
0.7034306829
 40
0.7358172846
 40
0.8010058728
 40
0.833809359
 40
0.8667547934
 40
0.8998446853
 40
0.9330810614
 40
0.9664652936
 40
1.0
 40
1.0
 40
1.0
 40
1.0
 10
7.8335596824
 20
5.0074706235
 30
0.0
 10
7.8391545435
 20
5.0075079085
 30
0.0
 10
7.8475811796
 20
5.0076724621
 30
0.0
 10
7.8588567752
 20
5.0080240722
 30
0.0
 10
7.8703018013
 20
5.008442528
 30
0.0
 10
7.8847489128
 20
5.00904986
 30
0.0
 10
7.8992868983
 20
5.0096790644
 30
0.0
 10
7.911023973
 20
5.0101546258
 30
0.0
 10
7.9199020025
 20
5.0104878935
 30
0.0
 10
7.9288283448
 20
5.0107880316
 30
0.0
 10
7.9378018145
 20
5.0110460562
 30
0.0
 10
7.9468212339
 20
5.0112552208
 30
0.0
 10
7.9558854987
 20
5.0114089051
 30
0.0
 10
7.9649935127
 20
5.0115031595
 30
0.0
 10
7.9741442507
 20
5.0115345923
 30
0.0
 10
7.9833367504
 20
5.0115028697
 30
0.0
 10
7.9925701671
 20
5.0114083412
 30
0.0
 10
8.0018437992
 20
5.0112543782
 30
0.0
 10
8.011157107
 20
5.0110449691
 30
0.0
 10
8.020509751
 20
5.0107867079
 30
0.0
 10
8.0299015903
 20
5.0104863749
 30
0.0
 10
8.0393327091
 20
5.010152949
 30
0.0
 10
8.0519872396
 20
5.0096747439
 30
0.0
 10
8.0646948803
 20
5.0091695788
 30
0.0
 10
8.077457724
 20
5.0086810555
 30
0.0
 10
8.0870926708
 20
5.0083349903
 30
0.0
 10
8.0967710195
 20
5.0080222797
 30
0.0
 10
8.1064936548
 20
5.0077576855
 30
0.0
 10
8.1162613407
 20
5.0075613777
 30
0.0
 10
8.1227886207
 20
5.0074890537
 30
0.0
 10
8.1260596824
 20
5.0074706235
 30
0.0
  0
SPLINE
  5
433
100
AcDbEntity
  8
0
100
AcDbSpline
 62
7
  6
CONTINUOUS
 70
0
 71
3
 72
22
 73
18
 74
0
 42
0.0000001
 43
0.0000001
 44
0.0000000001
 40
0.0
 40
0.0
 40
0.0
 40
0.0
 40
0.0406231793
 40
0.0827193463
 40
0.1271759463
 40
0.1746818975
 40
0.2256960665
 40
0.2804760231
 40
0.3391047234
 40
0.4015216773
 40
0.4675497004
 40
0.5369169109
 40
0.6092744979
 40
0.6842113653
 40
0.7612686125
 40
0.8399439708
 40
1.0
 40
1.0
 40
1.0
 40
1.0
 10
8.1260596824
 20
5.0074706235
 30
0.0
 10
8.1257376406
 20
5.0074941469
 30
0.0
 10
8.1250850403
 20
5.0076061173
 30
0.0
 10
8.1241321666
 20
5.0079581279
 30
0.0
 10
8.123203945
 20
5.0084904512
 30
0.0
 10
8.1223087297
 20
5.0091962655
 30
0.0
 10
8.1214535439
 20
5.0100682878
 30
0.0
 10
8.1206452853
 20
5.0110982362
 30
0.0
 10
8.1198906362
 20
5.0122767719
 30
0.0
 10
8.1191960468
 20
5.013593309
 30
0.0
 10
8.1185676009
 20
5.0150360248
 30
0.0
 10
8.1180109027
 20
5.0165919147
 30
0.0
 10
8.1175309758
 20
5.0182469029
 30
0.0
 10
8.1171321805
 20
5.0199859407
 30
0.0
 10
8.1168181477
 20
5.0217932626
 30
0.0
 10
8.1165146544
 20
5.0242856747
 30
0.0
 10
8.1164246611
 20
5.0261850673
 30
0.0
 10
8.1164246611
 20
5.0274572981
 30
0.0
  0
SPLINE
  5
434
100
AcDbEntity
  8
0
100
AcDbSpline
 62
7
  6
CONTINUOUS
 70
0
 71
3
 72
22
 73
18
 74
0
 42
0.0000001
 43
0.0000001
 44
0.0000000001
 40
0.0
 40
0.0
 40
0.0
 40
0.0
 40
0.0406231793
 40
0.0827193462
 40
0.1271759463
 40
0.1746818975
 40
0.2256960665
 40
0.2804760231
 40
0.3391047234
 40
0.4015216773
 40
0.4675497003
 40
0.5369169109
 40
0.6092744978
 40
0.6842113652
 40
0.7612686125
 40
0.8399439708
 40
1.0
 40
1.0
 40
1.0
 40
1.0
 10
8.1267896397
 20
5.0074706235
 30
0.0
 10
8.1271116816
 20
5.0074941469
 30
0.0
 10
8.1277642818
 20
5.0076061173
 30
0.0
 10
8.1287171555
 20
5.0079581279
 30
0.0
 10
8.1296453772
 20
5.0084904512
 30
0.0
 10
8.1305405924
 20
5.0091962655
 30
0.0
 10
8.1313957782
 20
5.0100682878
 30
0.0
 10
8.1322040368
 20
5.0110982362
 30
0.0
 10
8.1329586859
 20
5.0122767719
 30
0.0
 10
8.1336532753
 20
5.013593309
 30
0.0
 10
8.1342817212
 20
5.0150360248
 30
0.0
 10
8.1348384194
 20
5.0165919147
 30
0.0
 10
8.1353183464
 20
5.0182469029
 30
0.0
 10
8.1357171416
 20
5.0199859407
 30
0.0
 10
8.1360311744
 20
5.0217932626
 30
0.0
 10
8.1363346677
 20
5.0242856747
 30
0.0
 10
8.1364246611
 20
5.0261850673
 30
0.0
 10
8.1364246611
 20
5.0274572981
 30
0.0
  0
SPLINE
  5
435
100
AcDbEntity
  8
0
100
AcDbSpline
 62
7
  6
CONTINUOUS
 70
0
 71
3
 72
35
 73
31
 74
0
 42
0.0000001
 43
0.0000001
 44
0.0000000001
 40
0.0
 40
0.0
 40
0.0
 40
0.0
 40
0.0335346499
 40
0.0669188994
 40
0.100155321
 40
0.1332452421
 40
0.1661906767
 40
0.1989941511
 40
0.2641827415
 40
0.2965693516
 40
0.3288180281
 40
0.3609286923
 40
0.3929013178
 40
0.4247353877
 40
0.4564302448
 40
0.48798498
 40
0.5193985346
 40
0.5506694683
 40
0.5817960577
 40
0.6127760873
 40
0.6436069275
 40
0.6742853717
 40
0.7048076434
 40
0.7351691845
 40
0.7653648393
 40
0.825231997
 40
0.8843488295
 40
0.913603716
 40
0.9426415543
 40
1.0
 40
1.0
 40
1.0
 40
1.0
 10
8.1267896397
 20
5.0074706235
 30
0.0
 10
8.1300606959
 20
5.0074890525
 30
0.0
 10
8.1365879721
 20
5.0075613736
 30
0.0
 10
8.1463556587
 20
5.0077576784
 30
0.0
 10
8.1560783029
 20
5.0080222745
 30
0.0
 10
8.1657566587
 20
5.0083349936
 30
0.0
 10
8.1753916073
 20
5.0086810542
 30
0.0
 10
8.1881544502
 20
5.0091695734
 30
0.0
 10
8.2008620908
 20
5.0096747397
 30
0.0
 10
8.2135166225
 20
5.010152948
 30
0.0
 10
8.2229477426
 20
5.0104863738
 30
0.0
 10
8.2323395827
 20
5.0107867048
 30
0.0
 10
8.2416922276
 20
5.0110449699
 30
0.0
 10
8.2510055365
 20
5.0112543785
 30
0.0
 10
8.2602791695
 20
5.0114083448
 30
0.0
 10
8.2695125868
 20
5.0115028711
 30
0.0
 10
8.278705087
 20
5.0115345948
 30
0.0
 10
8.287855826
 20
5.0115031634
 30
0.0
 10
8.2969638401
 20
5.0114089091
 30
0.0
 10
8.3060281034
 20
5.0112552254
 30
0.0
 10
8.3150475202
 20
5.0110460502
 30
0.0
 10
8.3240209897
 20
5.0107880247
 30
0.0
 10
8.3329473347
 20
5.0104878916
 30
0.0
 10
8.3418253659
 20
5.0101546307
 30
0.0
 10
8.3535624375
 20
5.0096790669
 30
0.0
 10
8.3681004231
 20
5.0090498518
 30
0.0
 10
8.382547535
 20
5.008442503
 30
0.0
 10
8.3939925665
 20
5.0080240987
 30
0.0
 10
8.4052681549
 20
5.0076724948
 30
0.0
 10
8.4136947845
 20
5.0075079102
 30
0.0
 10
8.4192896397
 20
5.0074706235
 30
0.0
  0
LINE
  5
436
100
AcDbEntity
  8
0
100
AcDbLine
 62
7
  6
CONTINUOUS
 10
8.4192896397
 20
5.0074706235
 11
8.420464172
 21
5.0076957288
  0
SPLINE
  5
437
100
AcDbEntity
  8
0
100
AcDbSpline
 62
7
  6
CONTINUOUS
 70
0
 71
3
 72
21
 73
17
 74
0
 42
0.0000001
 43
0.0000001
 44
0.0000000001
 40
0.0
 40
0.0
 40
0.0
 40
0.0
 40
0.0412909923
 40
0.0848102672
 40
0.131105075
 40
0.180548248
 40
0.2333589523
 40
0.2896205795
 40
0.349303718
 40
0.4122857442
 40
0.4783667442
 40
0.5472827195
 40
0.6187171962
 40
0.6923120143
 40
0.8443400427
 40
1.0
 40
1.0
 40
1.0
 40
1.0
 10
8.420464172
 20
5.0076957288
 30
0.0
 10
8.4207617997
 20
5.0077884635
 30
0.0
 10
8.4213578031
 20
5.0080311537
 30
0.0
 10
8.422210452
 20
5.0085400404
 30
0.0
 10
8.423035315
 20
5.0091964875
 30
0.0
 10
8.4238262822
 20
5.009994741
 30
0.0
 10
8.4245779366
 20
5.0109283909
 30
0.0
 10
8.4252848863
 20
5.0119901735
 30
0.0
 10
8.4259419608
 20
5.0131719335
 30
0.0
 10
8.4265442367
 20
5.0144646061
 30
0.0
 10
8.4270871293
 20
5.0158582529
 30
0.0
 10
8.4275664738
 20
5.0173421018
 30
0.0
 10
8.427978599
 20
5.0189046876
 30
0.0
 10
8.4284390123
 20
5.0211004976
 30
0.0
 10
8.4288227425
 20
5.0239578781
 30
0.0
 10
8.4289246611
 20
5.0262820909
 30
0.0
 10
8.4289246611
 20
5.0274572981
 30
0.0
  0
SPLINE
  5
438
100
AcDbEntity
  8
0
100
AcDbSpline
 62
7
  6
CONTINUOUS
 70
0
 71
3
 72
27
 73
23
 74
0
 42
0.0000001
 43
0.0000001
 44
0.0000000001
 40
0.0
 40
0.0
 40
0.0
 40
0.0
 40
0.061390773
 40
0.0921098463
 40
0.1228436072
 40
0.1843615695
 40
0.2460014416
 40
0.276887517
 40
0.3078159932
 40
0.3697929905
 40
0.4319715178
 40
0.4943632684
 40
0.556971674
 40
0.6197918484
 40
0.6828108462
 40
0.7143979165
 40
0.746026469
 40
0.8093751433
 40
0.8728427304
 40
0.9046175021
 40
0.9364091393
 40
1.0
 40
1.0
 40
1.0
 40
1.0
 10
8.4548467883
 20
4.7887072981
 30
0.0
 10
8.4529837102
 20
4.7887072981
 30
0.0
 10
8.4501856518
 20
4.7888497654
 30
0.0
 10
8.4464865683
 20
4.7893225672
 30
0.0
 10
8.4428121002
 20
4.7899831171
 30
0.0
 10
8.4382834289
 20
4.7911586359
 30
0.0
 10
8.433892331
 20
4.7927870827
 30
0.0
 10
8.4304864303
 20
4.7943513721
 30
0.0
 10
8.4271541895
 20
4.7960891859
 30
0.0
 10
8.4231490004
 20
4.7985770397
 30
0.0
 10
8.4186532422
 20
4.8020326592
 30
0.0
 10
8.4145061285
 20
4.8059280576
 30
0.0
 10
8.4107478112
 20
4.8102255593
 30
0.0
 10
8.4074144397
 20
4.8148834631
 30
0.0
 10
8.4050185961
 20
4.8190261594
 30
0.0
 10
8.403344031
 20
4.8224731372
 30
0.0
 10
8.4018326915
 20
4.8260056644
 30
0.0
 10
8.4002608163
 20
4.830558183
 30
0.0
 10
8.3991283898
 20
4.8352438643
 30
0.0
 10
8.3984914383
 20
4.8390474317
 30
0.0
 10
8.3980350963
 20
4.8428803409
 30
0.0
 10
8.3978977637
 20
4.8457774521
 30
0.0
 10
8.397897764
 20
4.8477072981
 30
0.0
  0
SPLINE
  5
439
100
AcDbEntity
  8
0
100
AcDbSpline
 62
7
  6
CONTINUOUS
 70
0
 71
3
 72
23
 73
19
 74
0
 42
0.0000001
 43
0.0000001
 44
0.0000000001
 40
0.0
 40
0.0
 40
0.0
 40
0.0
 40
0.0668767356
 40
0.1335517014
 40
0.1998817118
 40
0.2657317712
 40
0.3309831637
 40
0.395535824
 40
0.4593127903
 40
0.522263394
 40
0.5843660725
 40
0.6456303093
 40
0.7060975426
 40
0.7658408709
 40
0.8249631174
 40
0.8835940127
 40
0.9418837744
 40
1.0
 40
1.0
 40
1.0
 40
1.0
 10
8.3705879586
 20
4.9485099334
 30
0.0
 10
8.3705709567
 20
4.9503994724
 30
0.0
 10
8.3706944809
 20
4.9541761814
 30
0.0
 10
8.3713515061
 20
4.9597919096
 30
0.0
 10
8.3724740976
 20
4.9653042965
 30
0.0
 10
8.3740520812
 20
4.9706621084
 30
0.0
 10
8.3760710565
 20
4.9758161259
 30
0.0
 10
8.3785126419
 20
4.9807188066
 30
0.0
 10
8.3813545726
 20
4.985324905
 30
0.0
 10
8.3845709203
 20
4.9895918205
 30
0.0
 10
8.3881322977
 20
4.9934799916
 30
0.0
 10
8.3920061068
 20
4.9969532465
 30
0.0
 10
8.3961567904
 20
4.9999791439
 30
0.0
 10
8.4005461491
 20
5.0025292789
 30
0.0
 10
8.4051335596
 20
5.0045796077
 30
0.0
 10
8.4098766675
 20
5.0061106687
 30
0.0
 10
8.4147305182
 20
5.0071079031
 30
0.0
 10
8.4180136269
 20
5.0074106909
 30
0.0
 10
8.4196546184
 20
5.0074706235
 30
0.0
  0
SPLINE
  5
43A
100
AcDbEntity
  8
0
100
AcDbSpline
 62
7
  6
CONTINUOUS
 70
0
 71
3
 72
23
 73
19
 74
0
 42
0.0000001
 43
0.0000001
 44
0.0000000001
 40
0.0
 40
0.0
 40
0.0
 40
0.0
 40
0.066678697
 40
0.1332509203
 40
0.1995650911
 40
0.2654750479
 40
0.3308483141
 40
0.3955687262
 40
0.4595412119
 40
0.5226954026
 40
0.5849889835
 40
0.646410297
 40
0.7069800528
 40
0.7667519534
 40
0.8258117592
 40
0.8842754732
 40
0.9422838531
 40
1.0
 40
1.0
 40
1.0
 40
1.0
 10
8.3693962804
 20
4.9485099334
 30
0.0
 10
8.3694135458
 20
4.9504008824
 30
0.0
 10
8.3696051316
 20
4.9541802076
 30
0.0
 10
8.3703607819
 20
4.9597955469
 30
0.0
 10
8.3715777703
 20
4.9653074257
 30
0.0
 10
8.3732450209
 20
4.9706646301
 30
0.0
 10
8.3753472911
 20
4.9758179639
 30
0.0
 10
8.377865411
 20
4.9807199145
 30
0.0
 10
8.3807763949
 20
4.9853252743
 30
0.0
 10
8.3840536698
 20
4.9895914876
 30
0.0
 10
8.3876672905
 20
4.9934790434
 30
0.0
 10
8.3915841962
 20
4.9969518221
 30
0.0
 10
8.3957684707
 20
4.9999774296
 30
0.0
 10
8.4001816619
 20
5.0025274936
 30
0.0
 10
8.4047829976
 20
5.004577979
 30
0.0
 10
8.4095300735
 20
5.006109402
 30
0.0
 10
8.4143779591
 20
5.0071071477
 30
0.0
 10
8.4176538923
 20
5.0074106292
 30
0.0
 10
8.4192896397
 20
5.0074706235
 30
0.0
  0
LINE
  5
43B
100
AcDbEntity
  8
0
100
AcDbLine
 62
7
  6
CONTINUOUS
 10
8.1276163392
 20
4.9485099334
 11
8.1267896397
 21
5.0074706235
  0
LINE
  5
43C
100
AcDbEntity
  8
0
100
AcDbLine
 62
7
  6
CONTINUOUS
 10
8.125232983
 20
4.9485099334
 11
8.1260596824
 21
5.0074706235
  0
SPLINE
  5
43D
100
AcDbEntity
  8
0
100
AcDbSpline
 62
7
  6
CONTINUOUS
 70
0
 71
3
 72
23
 73
19
 74
0
 42
0.0000001
 43
0.0000001
 44
0.0000000001
 40
0.0
 40
0.0
 40
0.0
 40
0.0
 40
0.0666787046
 40
0.1332509368
 40
0.1995651189
 40
0.2654750899
 40
0.3308483731
 40
0.3955688047
 40
0.4595413115
 40
0.5226955234
 40
0.5849891235
 40
0.6464104518
 40
0.7069802146
 40
0.7667521123
 40
0.8258119037
 40
0.8842755891
 40
0.9422839228
 40
1.0
 40
1.0
 40
1.0
 40
1.0
 10
7.8834530417
 20
4.9485099334
 30
0.0
 10
7.8834357763
 20
4.9504008824
 30
0.0
 10
7.8832441903
 20
4.9541802076
 30
0.0
 10
7.8824885386
 20
4.9597955469
 30
0.0
 10
7.8812715484
 20
4.9653074257
 30
0.0
 10
7.8796042957
 20
4.9706646301
 30
0.0
 10
7.8775020231
 20
4.9758179637
 30
0.0
 10
7.8749839007
 20
4.9807199142
 30
0.0
 10
7.8720729145
 20
4.9853252739
 30
0.0
 10
7.8687956375
 20
4.989591487
 30
0.0
 10
7.8651820153
 20
4.9934790427
 30
0.0
 10
7.8612651087
 20
4.9969518213
 30
0.0
 10
7.8570808343
 20
4.9999774287
 30
0.0
 10
7.8526676441
 20
5.0025274927
 30
0.0
 10
7.8480663105
 20
5.0045779783
 30
0.0
 10
7.8433192379
 20
5.0061094014
 30
0.0
 10
7.8384713572
 20
5.0071071473
 30
0.0
 10
7.8351954276
 20
5.0074106291
 30
0.0
 10
7.8335596824
 20
5.0074706235
 30
0.0
  0
SPLINE
  5
43E
100
AcDbEntity
  8
0
100
AcDbSpline
 62
7
  6
CONTINUOUS
 70
0
 71
3
 72
23
 73
19
 74
0
 42
0.0000001
 43
0.0000001
 44
0.0000000001
 40
0.0
 40
0.0
 40
0.0
 40
0.0
 40
0.0668767521
 40
0.1335517383
 40
0.1998817739
 40
0.2657318635
 40
0.3309832902
 40
0.3955359875
 40
0.4593129918
 40
0.5222636314
 40
0.5843663408
 40
0.6456305985
 40
0.7060978382
 40
0.7658411552
 40
0.8249633708
 40
0.8835942124
 40
0.9418838923
 40
1.0
 40
1.0
 40
1.0
 40
1.0
 10
7.8822613636
 20
4.9485099334
 30
0.0
 10
7.8822783647
 20
4.9503994725
 30
0.0
 10
7.8821548389
 20
4.9541761817
 30
0.0
 10
7.8814978103
 20
4.95979191
 30
0.0
 10
7.8803752148
 20
4.9653042971
 30
0.0
 10
7.8787972269
 20
4.9706621091
 30
0.0
 10
7.8767782473
 20
4.9758161267
 30
0.0
 10
7.8743366577
 20
4.9807188074
 30
0.0
 10
7.8714947234
 20
4.9853249059
 30
0.0
 10
7.8682783728
 20
4.9895918214
 30
0.0
 10
7.8647169933
 20
4.9934799925
 30
0.0
 10
7.8608431836
 20
4.9969532473
 30
0.0
 10
7.8566925007
 20
4.9999791447
 30
0.0
 10
7.8523031445
 20
5.0025292796
 30
0.0
 10
7.8477157381
 20
5.0045796082
 30
0.0
 10
7.8429726362
 20
5.0061106691
 30
0.0
 10
7.8381187939
 20
5.0071079033
 30
0.0
 10
7.8348356915
 20
5.007410691
 30
0.0
 10
7.8331947037
 20
5.0074706235
 30
0.0
  0
SPLINE
  5
43F
100
AcDbEntity
  8
0
100
AcDbSpline
 62
7
  6
CONTINUOUS
 70
0
 71
3
 72
23
 73
19
 74
0
 42
0.0000001
 43
0.0000001
 44
0.0000000001
 40
0.0
 40
0.0
 40
0.0
 40
0.0
 40
0.0624999076
 40
0.1249998084
 40
0.1874997354
 40
0.2499997541
 40
0.3124996786
 40
0.37499972
 40
0.4374997172
 40
0.4999996691
 40
0.5624996616
 40
0.6249996345
 40
0.6874996163
 40
0.749999751
 40
0.8124997382
 40
0.8749998922
 40
0.9374999498
 40
1.0
 40
1.0
 40
1.0
 40
1.0
 10
8.432970237
 20
4.3484613764
 30
0.0
 10
8.4321254526
 20
4.353246159
 30
0.0
 10
8.4302109124
 20
4.362777567
 30
0.0
 10
8.4266723598
 20
4.3769231338
 30
0.0
 10
8.4224739927
 20
4.3908874729
 30
0.0
 10
8.4176228633
 20
4.404638635
 30
0.0
 10
8.412126379
 20
4.41814491
 30
0.0
 10
8.405995312
 20
4.4313751332
 30
0.0
 10
8.399250631
 20
4.444303193
 30
0.0
 10
8.3919108722
 20
4.4569028717
 30
0.0
 10
8.3839946236
 20
4.4691485116
 30
0.0
 10
8.3755202227
 20
4.4810147282
 30
0.0
 10
8.3665055829
 20
4.4924759379
 30
0.0
 10
8.3569691928
 20
4.503506882
 30
0.0
 10
8.3469283658
 20
4.514080831
 30
0.0
 10
8.3364026631
 20
4.5241723202
 30
0.0
 10
8.3254185334
 20
4.5337621975
 30
0.0
 10
8.317807063
 20
4.539810061
 30
0.0
 10
8.3139342526
 20
4.5427442138
 30
0.0
  0
SPLINE
  5
440
100
AcDbEntity
  8
0
100
AcDbSpline
 62
7
  6
CONTINUOUS
 70
0
 71
3
 72
40
 73
36
 74
0
 42
0.0000001
 43
0.0000001
 44
0.0000000001
 40
0.0
 40
0.0
 40
0.0
 40
0.0
 40
0.2297034547
 40
0.3336622772
 40
0.4303502766
 40
0.5197462502
 40
0.6017983393
 40
0.6764388533
 40
0.7435840668
 40
0.8031361186
 40
0.8300363325
 40
0.8550033931
 40
0.8780246232
 40
0.8990869395
 40
0.9181796933
 40
0.9352939491
 40
0.9504205443
 40
0.963550061
 40
0.974672871
 40
0.9794791724
 40
0.983781376
 40
0.9875790562
 40
0.9908717854
 40
0.9936591342
 40
0.9959406711
 40
0.9968916247
 40
0.9977159626
 40
0.9984136304
 40
0.9989845733
 40
0.9994287366
 40
0.9997460655
 40
0.9998571499
 40
0.999936505
 40
0.999984124
 40
1.0
 40
1.0
 40
1.0
 40
1.0
 10
7.8598467772
 20
3.4539572981
 30
0.0
 10
7.8587073072
 20
3.4539572948
 30
0.0
 10
7.8570513979
 20
3.4539013214
 30
0.0
 10
7.8549237243
 20
3.453724598
 30
0.0
 10
7.8534937546
 20
3.4535635868
 30
0.0
 10
7.8521764211
 20
3.4533785516
 30
0.0
 10
7.8509719954
 20
3.4531788764
 30
0.0
 10
7.8498809056
 20
3.452972362
 30
0.0
 10
7.848903568
 20
3.4527663254
 30
0.0
 10
7.8481609044
 20
3.452595856
 30
0.0
 10
7.8476237991
 20
3.4524654359
 30
0.0
 10
7.8472634664
 20
3.4523750483
 30
0.0
 10
7.8469318105
 20
3.4522894034
 30
0.0
 10
7.8466288479
 20
3.4522092159
 30
0.0
 10
7.8463546177
 20
3.4521350116
 30
0.0
 10
7.8461091643
 20
3.4520672041
 30
0.0
 10
7.8458925164
 20
3.4520062269
 30
0.0
 10
7.8457047056
 20
3.4519525016
 30
0.0
 10
7.8455662473
 20
3.4519123995
 30
0.0
 10
7.845469897
 20
3.4518843156
 30
0.0
 10
7.845408453
 20
3.4518663289
 30
0.0
 10
7.8453542328
 20
3.4518503901
 30
0.0
 10
7.8453072379
 20
3.4518365172
 30
0.0
 10
7.8452674697
 20
3.4518247288
 30
0.0
 10
7.8452388484
 20
3.4518162092
 30
0.0
 10
7.8452195657
 20
3.4518104514
 30
0.0
 10
7.8452078126
 20
3.4518069333
 30
0.0
 10
7.8451978696
 20
3.4518039553
 30
0.0
 10
7.8451897274
 20
3.4518014997
 30
0.0
 10
7.8451834113
 20
3.4517996221
 30
0.0
 10
7.8451792403
 20
3.4517983148
 30
0.0
 10
7.8451768652
 20
3.4517976635
 30
0.0
 10
7.8451756753
 20
3.4517971952
 30
0.0
 10
7.8451751021
 20
3.4517972138
 30
0.0
 10
7.8451746918
 20
3.4517968908
 30
0.0
 10
7.8451746611
 20
3.4517969634
 30
0.0
  0
SPLINE
  5
441
100
AcDbEntity
  8
0
100
AcDbSpline
 62
7
  6
CONTINUOUS
 70
0
 71
3
 72
26
 73
22
 74
0
 42
0.0000001
 43
0.0000001
 44
0.0000000001
 40
0.0
 40
0.0
 40
0.0
 40
0.0
 40
0.0621123703
 40
0.1242428598
 40
0.1864033344
 40
0.2486024034
 40
0.3108473279
 40
0.3731459267
 40
0.4043216898
 40
0.4355150283
 40
0.4979528701
 40
0.5604702524
 40
0.6230656067
 40
0.6857340418
 40
0.7484693953
 40
0.779863542
 40
0.8112725845
 40
0.8426963064
 40
0.8741346711
 40
0.9370454888
 40
1.0
 40
1.0
 40
1.0
 40
1.0
 10
7.8151774063
 20
4.2962425973
 30
0.0
 10
7.8152026159
 20
4.3021448002
 30
0.0
 10
7.815600393
 20
4.3139523185
 30
0.0
 10
7.817227218
 20
4.3315999981
 30
0.0
 10
7.8198725244
 20
4.3491328087
 30
0.0
 10
7.8235247064
 20
4.3664948199
 30
0.0
 10
7.828172034
 20
4.3836306811
 30
0.0
 10
7.8328638812
 20
4.3976738664
 30
0.0
 10
7.8371021287
 20
4.4087379221
 30
0.0
 10
7.841665089
 20
4.4196864179
 30
0.0
 10
7.8479674927
 20
4.4331294257
 30
0.0
 10
7.8564489311
 20
4.448814679
 30
0.0
 10
7.8658191606
 20
4.4640117898
 30
0.0
 10
7.876044775
 20
4.4786717665
 30
0.0
 10
7.8852502169
 20
4.4903987341
 30
0.0
 10
7.8930082801
 20
4.4994625778
 30
0.0
 10
7.8990220325
 20
4.5060981225
 30
0.0
 10
7.9052249229
 20
4.5125630333
 30
0.0
 10
7.9137433798
 20
4.5209481747
 30
0.0
 10
7.924839973
 20
4.5309757905
 30
0.0
 10
7.9341576816
 20
4.5384861697
 30
0.0
 10
7.9389189003
 20
4.5421081153
 30
0.0
  0
LINE
  5
442
100
AcDbEntity
  8
0
100
AcDbLine
 62
7
  6
CONTINUOUS
 10
3.649352015
 20
6.6455822981
 11
3.649352015
 21
6.9812072981
  0
LINE
  5
443
100
AcDbEntity
  8
0
100
AcDbLine
 62
7
  6
CONTINUOUS
 10
8.1264246611
 20
6.4307799442
 11
8.4620496611
 21
6.4307799442
  0
LINE
  5
444
100
AcDbEntity
  8
0
100
AcDbLine
 62
7
  6
CONTINUOUS
 10
2.7632996611
 20
6.4307799442
 11
3.0989246611
 21
6.4307799442
  0
LINE
  5
445
100
AcDbEntity
  8
0
100
AcDbLine
 62
7
  6
CONTINUOUS
 10
7.5759973071
 20
6.9812072981
 11
7.5759973071
 21
6.6455822981
  0
SPLINE
  5
446
100
AcDbEntity
  8
0
100
AcDbSpline
 62
7
  6
CONTINUOUS
 70
0
 71
3
 72
50
 73
46
 74
0
 42
0.0000001
 43
0.0000001
 44
0.0000000001
 40
0.0
 40
0.0
 40
0.0
 40
0.0
 40
0.000004977
 40
0.0000203631
 40
0.0000461472
 40
0.0000823164
 40
0.0001857553
 40
0.0003305713
 40
0.0005166557
 40
0.0007438997
 40
0.001012195
 40
0.0013214331
 40
0.0020623051
 40
0.0029656518
 40
0.0040306119
 40
0.0052563264
 40
0.0066419392
 40
0.0081865964
 40
0.0117496446
 40
0.0159387791
 40
0.0207474086
 40
0.0261689727
 40
0.0321969401
 40
0.0388248095
 40
0.0460457471
 40
0.0538492346
 40
0.0622226635
 40
0.0806293629
 40
0.1011675806
 40
0.1237399496
 40
0.1482484862
 40
0.1745983057
 40
0.2026986724
 40
0.2324647242
 40
0.2638174347
 40
0.2966833428
 40
0.3666915269
 40
0.4420677866
 40
0.5225123733
 40
0.6078626561
 40
0.6980921977
 40
0.7450770414
 40
0.7933387576
 40
0.8938316667
 40
1.0
 40
1.0
 40
1.0
 40
1.0
 10
7.8139246611
 20
2.7295046156
 30
0.0
 10
7.8139246628
 20
2.7295046927
 30
0.0
 10
7.8139250188
 20
2.7295041453
 30
0.0
 10
7.8139253731
 20
2.7295039386
 30
0.0
 10
7.8139262672
 20
2.7295028832
 30
0.0
 10
7.8139279641
 20
2.7295011163
 30
0.0
 10
7.8139309948
 20
2.7294978047
 30
0.0
 10
7.8139355526
 20
2.7294929116
 30
0.0
 10
7.8139414407
 20
2.7294865605
 30
0.0
 10
7.8139486263
 20
2.7294788334
 30
0.0
 10
7.813957121
 20
2.7294697087
 30
0.0
 10
7.813971049
 20
2.7294547766
 30
0.0
 10
7.8139917197
 20
2.7294326813
 30
0.0
 10
7.8140204483
 20
2.7294020967
 30
0.0
 10
7.8140543939
 20
2.7293661093
 30
0.0
 10
7.8140935537
 20
2.7293247722
 30
0.0
 10
7.8141379253
 20
2.7292781382
 30
0.0
 10
7.814207413
 20
2.729205431
 30
0.0
 10
7.8143072704
 20
2.7291016847
 30
0.0
 10
7.8144428006
 20
2.7289621087
 30
0.0
 10
7.8145990634
 20
2.7288025434
 30
0.0
 10
7.8147760064
 20
2.7286233697
 30
0.0
 10
7.8149735744
 20
2.7284249657
 30
0.0
 10
7.8151917137
 20
2.7282077191
 30
0.0
 10
7.8154303038
 20
2.7279720397
 30
0.0
 10
7.815689322
 20
2.7277185734
 30
0.0
 10
7.816074189
 20
2.7273460093
 30
0.0
 10
7.816605482
 20
2.7268411357
 30
0.0
 10
7.8173051799
 20
2.726194336
 30
0.0
 10
7.8180851033
 20
2.7254952567
 30
0.0
 10
7.8189449162
 20
2.7247506721
 30
0.0
 10
7.8198841984
 20
2.7239673631
 30
0.0
 10
7.8209025463
 20
2.7231520972
 30
0.0
 10
7.8219997153
 20
2.7223117821
 30
0.0
 10
7.8231755402
 20
2.7214533518
 30
0.0
 10
7.8248842019
 20
2.7202687018
 30
0.0
 10
7.8272147052
 20
2.7187857296
 30
0.0
 10
7.8302700426
 20
2.7170787473
 30
0.0
 10
7.8336413516
 20
2.7154638556
 30
0.0
 10
7.8373295448
 20
2.71399824
 30
0.0
 10
7.8406221504
 20
2.7129648668
 30
0.0
 10
7.8434097974
 20
2.7122678717
 30
0.0
 10
7.8463796237
 20
2.711654376
 30
0.0
 10
7.8502954107
 20
2.7111083706
 30
0.0
 10
7.8534982933
 20
2.7109573115
 30
0.0
 10
7.8551426961
 20
2.7109572981
 30
0.0
  0
SPLINE
  5
447
100
AcDbEntity
  8
0
100
AcDbSpline
 62
7
  6
CONTINUOUS
 70
0
 71
3
 72
40
 73
36
 74
0
 42
0.0000001
 43
0.0000001
 44
0.0000000001
 40
0.0
 40
0.0
 40
0.0
 40
0.0
 40
0.000015875
 40
0.0000634928
 40
0.0001428464
 40
0.0002539291
 40
0.000571254
 40
0.0010154127
 40
0.0015863503
 40
0.0022840124
 40
0.0031083445
 40
0.004059292
 40
0.006340817
 40
0.009128155
 40
0.0124208756
 40
0.0162185503
 40
0.0205207526
 40
0.025327058
 40
0.0364499001
 40
0.0495794861
 40
0.0647061716
 40
0.0818205219
 40
0.1009133585
 40
0.1219757324
 40
0.1449970014
 40
0.1699640816
 40
0.1968642911
 40
0.2564162483
 40
0.3235612903
 40
0.3982016545
 40
0.4802536652
 40
0.5696496584
 40
0.6663377014
 40
0.7702965374
 40
1.0
 40
1.0
 40
1.0
 40
1.0
 10
8.4076746611
 20
3.4517969634
 30
0.0
 10
8.4076746332
 20
3.4517968897
 30
0.0
 10
8.4076742159
 20
3.4517972154
 30
0.0
 10
8.4076736495
 20
3.4517971941
 30
0.0
 10
8.4076724558
 20
3.451797664
 30
0.0
 10
8.4076700831
 20
3.4517983142
 30
0.0
 10
8.4076659103
 20
3.451799622
 30
0.0
 10
8.407659595
 20
3.4518014991
 30
0.0
 10
8.4076514525
 20
3.4518039545
 30
0.0
 10
8.4076415096
 20
3.4518069322
 30
0.0
 10
8.4076297564
 20
3.45181045
 30
0.0
 10
8.4076104738
 20
3.4518162073
 30
0.0
 10
8.4075818524
 20
3.4518247263
 30
0.0
 10
8.4075420842
 20
3.451836514
 30
0.0
 10
8.4074950893
 20
3.4518503863
 30
0.0
 10
8.4074408691
 20
3.4518663247
 30
0.0
 10
8.407379425
 20
3.4518843112
 30
0.0
 10
8.4072830746
 20
3.4519123952
 30
0.0
 10
8.4071446162
 20
3.4519524989
 30
0.0
 10
8.4069568055
 20
3.4520062279
 30
0.0
 10
8.4067401576
 20
3.45206721
 30
0.0
 10
8.4064947043
 20
3.4521350227
 30
0.0
 10
8.4062204742
 20
3.4522092315
 30
0.0
 10
8.4059175115
 20
3.4522894221
 30
0.0
 10
8.4055858556
 20
3.4523750692
 30
0.0
 10
8.4052255229
 20
3.4524654577
 30
0.0
 10
8.4046884178
 20
3.452595877
 30
0.0
 10
8.4039457541
 20
3.4527663397
 30
0.0
 10
8.4029684154
 20
3.4529723611
 30
0.0
 10
8.4018773251
 20
3.4531788614
 30
0.0
 10
8.4006728991
 20
3.4533785273
 30
0.0
 10
8.3993555663
 20
3.4535635657
 30
0.0
 10
8.3979255973
 20
3.4537245853
 30
0.0
 10
8.3957979241
 20
3.4539013162
 30
0.0
 10
8.3941420149
 20
3.4539572923
 30
0.0
 10
8.393002545
 20
3.4539572981
 30
0.0
  0
LINE
  5
448
100
AcDbEntity
  8
0
100
AcDbLine
 62
7
  6
CONTINUOUS
 10
7.605465245
 20
6.9812072981
 11
7.6054652451
 21
6.6699572981
  0
SPLINE
  5
449
100
AcDbEntity
  8
0
100
AcDbSpline
 62
7
  6
CONTINUOUS
 70
0
 71
3
 72
24
 73
20
 74
0
 42
0.0000001
 43
0.0000001
 44
0.0000000001
 40
0.0
 40
0.0
 40
0.0
 40
0.0
 40
0.0012674621
 40
0.0050443364
 40
0.0112923694
 40
0.0199733263
 40
0.0444811635
 40
0.0782623784
 40
0.1209671795
 40
0.1720673258
 40
0.2309899222
 40
0.2971621019
 40
0.3699766183
 40
0.4486884914
 40
0.5325182325
 40
0.6206862971
 40
0.7123951427
 40
0.806775339
 40
1.0
 40
1.0
 40
1.0
 40
1.0
 10
7.6651746611
 20
6.6699572981
 30
0.0
 10
7.665189461
 20
6.6700891926
 30
0.0
 10
7.6652486097
 20
6.6706140877
 30
0.0
 10
7.665382876
 20
6.6717889204
 30
0.0
 10
7.665607991
 20
6.6737347252
 30
0.0
 10
7.6660891749
 20
6.6778362212
 30
0.0
 10
7.6669245909
 20
6.6847990552
 30
0.0
 10
7.6682188714
 20
6.6952951393
 30
0.0
 10
7.669898489
 20
6.7085493345
 30
0.0
 10
7.6719502325
 20
6.7244100438
 30
0.0
 10
7.6743592473
 20
6.7427023484
 30
0.0
 10
7.6771089138
 20
6.7632431953
 30
0.0
 10
7.6801798805
 20
6.7858316977
 30
0.0
 10
7.6835393803
 20
6.8102469554
 30
0.0
 10
7.6871526691
 20
6.8362501609
 30
0.0
 10
7.6909840555
 20
6.8635970947
 30
0.0
 10
7.6949964396
 20
6.8920342348
 30
0.0
 10
7.7005727798
 20
6.931360653
 30
0.0
 10
7.7048206227
 20
6.9611760945
 30
0.0
 10
7.7076746611
 20
6.9812072981
 30
0.0
  0
SPLINE
  5
44A
100
AcDbEntity
  8
0
100
AcDbSpline
 62
7
  6
CONTINUOUS
 70
0
 71
3
 72
39
 73
35
 74
0
 42
0.0000001
 43
0.0000001
 44
0.0000000001
 40
0.0
 40
0.0
 40
0.0
 40
0.0
 40
0.0252213399
 40
0.0516086286
 40
0.0790789115
 40
0.1075586549
 40
0.1369782744
 40
0.1672518252
 40
0.1982964051
 40
0.2300402634
 40
0.2624172394
 40
0.2953428896
 40
0.3287327329
 40
0.3625110259
 40
0.3966082608
 40
0.4309438883
 40
0.4654345019
 40
0.5
 40
0.5345654981
 40
0.5690561117
 40
0.6033917392
 40
0.6374889741
 40
0.6712672671
 40
0.7046571104
 40
0.7375827606
 40
0.7699597366
 40
0.8017035949
 40
0.8327481748
 40
0.8630217256
 40
0.8924413451
 40
0.9209210885
 40
0.9483913714
 40
0.9747786601
 40
1.0
 40
1.0
 40
1.0
 40
1.0
 10
7.7076746611
 20
6.9812072981
 30
0.0
 10
7.7132026321
 20
6.9812072981
 30
0.0
 10
7.7245154157
 20
6.9809684508
 30
0.0
 10
7.7418185434
 20
6.9798814006
 30
0.0
 10
7.759770867
 20
6.9779851084
 30
0.0
 10
7.7782809851
 20
6.975207712
 30
0.0
 10
7.7972503967
 20
6.971479634
 30
0.0
 10
7.8165753369
 20
6.9667517004
 30
0.0
 10
7.8361454527
 20
6.9609748476
 30
0.0
 10
7.8558474658
 20
6.9541006772
 30
0.0
 10
7.8755597396
 20
6.9460851661
 30
0.0
 10
7.8951675316
 20
6.9369281555
 30
0.0
 10
7.914550065
 20
6.9266304151
 30
0.0
 10
7.9335842879
 20
6.91519372
 30
0.0
 10
7.9521415517
 20
6.9026242604
 30
0.0
 10
7.9701201718
 20
6.88898061
 30
0.0
 10
7.9874161713
 20
6.8743218121
 30
0.0
 10
8.0039247635
 20
6.8587074006
 30
0.0
 10
8.019539175
 20
6.8421988084
 30
0.0
 10
8.0341979729
 20
6.8249028089
 30
0.0
 10
8.0478416233
 20
6.8069241887
 30
0.0
 10
8.0604110829
 20
6.7883669249
 30
0.0
 10
8.071847778
 20
6.769332702
 30
0.0
 10
8.0821455184
 20
6.7499501687
 30
0.0
 10
8.091302529
 20
6.7303423767
 30
0.0
 10
8.0993180401
 20
6.7106301029
 30
0.0
 10
8.1061922105
 20
6.6909280898
 30
0.0
 10
8.1119690633
 20
6.671357974
 30
0.0
 10
8.116696997
 20
6.6520330338
 30
0.0
 10
8.1204250749
 20
6.6330636222
 30
0.0
 10
8.1232024714
 20
6.6145535041
 30
0.0
 10
8.1250987635
 20
6.5966011805
 30
0.0
 10
8.1261858137
 20
6.5792980528
 30
0.0
 10
8.1264246611
 20
6.5679852691
 30
0.0
 10
8.1264246611
 20
6.5624572981
 30
0.0
  0
SPLINE
  5
44B
100
AcDbEntity
  8
0
100
AcDbSpline
 62
7
  6
CONTINUOUS
 70
0
 71
3
 72
24
 73
20
 74
0
 42
0.0000001
 43
0.0000001
 44
0.0000000001
 40
0.0
 40
0.0
 40
0.0
 40
0.0
 40
0.0012674621
 40
0.0050443364
 40
0.0112923694
 40
0.0199733263
 40
0.0444811635
 40
0.0782623784
 40
0.1209671795
 40
0.1720673258
 40
0.2309899222
 40
0.2971621019
 40
0.3699766183
 40
0.4486884914
 40
0.5325182325
 40
0.6206862971
 40
0.7123951427
 40
0.806775339
 40
1.0
 40
1.0
 40
1.0
 40
1.0
 10
7.8151746611
 20
6.5199572981
 30
0.0
 10
7.8153065555
 20
6.519972098
 30
0.0
 10
7.8158314507
 20
6.5200312468
 30
0.0
 10
7.8170062834
 20
6.5201655131
 30
0.0
 10
7.8189520881
 20
6.5203906281
 30
0.0
 10
7.8230535842
 20
6.520871812
 30
0.0
 10
7.8300164182
 20
6.521707228
 30
0.0
 10
7.8405125022
 20
6.5230015085
 30
0.0
 10
7.8537666974
 20
6.5246811261
 30
0.0
 10
7.8696274068
 20
6.5267328696
 30
0.0
 10
7.8879197113
 20
6.5291418844
 30
0.0
 10
7.9084605582
 20
6.5318915509
 30
0.0
 10
7.9310490607
 20
6.5349625175
 30
0.0
 10
7.9554643184
 20
6.5383220174
 30
0.0
 10
7.9814675238
 20
6.5419353062
 30
0.0
 10
8.0088144576
 20
6.5457666926
 30
0.0
 10
8.0372515977
 20
6.5497790767
 30
0.0
 10
8.0765780159
 20
6.5553554169
 30
0.0
 10
8.1063934574
 20
6.5596032598
 30
0.0
 10
8.1264246611
 20
6.5624572981
 30
0.0
  0
LINE
  5
44C
100
AcDbEntity
  8
0
100
AcDbLine
 62
7
  6
CONTINUOUS
 10
7.8151746611
 20
6.4602478822
 11
8.1264246611
 21
6.4602478822
  0
LINE
  5
44D
100
AcDbEntity
  8
0
100
AcDbLine
 62
7
  6
CONTINUOUS
 10
7.6054652452
 20
7.2924572981
 11
7.6054652453
 21
6.9812072981
  0
SPLINE
  5
44E
100
AcDbEntity
  8
0
100
AcDbSpline
 62
7
  6
CONTINUOUS
 70
0
 71
3
 72
24
 73
20
 74
0
 42
0.0000001
 43
0.0000001
 44
0.0000000001
 40
0.0
 40
0.0
 40
0.0
 40
0.0
 40
0.193224661
 40
0.2876048573
 40
0.3793137029
 40
0.4674817675
 40
0.5513115086
 40
0.6300233817
 40
0.7028378981
 40
0.7690100778
 40
0.8279326742
 40
0.8790328205
 40
0.9217376216
 40
0.9555188365
 40
0.9800266737
 40
0.9887076306
 40
0.9949556636
 40
0.9987325379
 40
1.0
 40
1.0
 40
1.0
 40
1.0
 10
7.7076746611
 20
6.9812072981
 30
0.0
 10
7.7105286994
 20
7.0012385018
 30
0.0
 10
7.7147765423
 20
7.0310539433
 30
0.0
 10
7.7203528825
 20
7.0703803615
 30
0.0
 10
7.7243652666
 20
7.0988175016
 30
0.0
 10
7.728196653
 20
7.1261644354
 30
0.0
 10
7.7318099418
 20
7.1521676408
 30
0.0
 10
7.7351694417
 20
7.1765828985
 30
0.0
 10
7.7382404083
 20
7.199171401
 30
0.0
 10
7.7409900748
 20
7.2197122479
 30
0.0
 10
7.7433990896
 20
7.2380045524
 30
0.0
 10
7.7454508331
 20
7.2538652618
 30
0.0
 10
7.7471304507
 20
7.267119457
 30
0.0
 10
7.7484247312
 20
7.277615541
 30
0.0
 10
7.7492601472
 20
7.284578375
 30
0.0
 10
7.7497413311
 20
7.2886798711
 30
0.0
 10
7.7499664461
 20
7.2906256758
 30
0.0
 10
7.7501007124
 20
7.2918005086
 30
0.0
 10
7.7501598612
 20
7.2923254037
 30
0.0
 10
7.7501746611
 20
7.2924572981
 30
0.0
  0
SPLINE
  5
44F
100
AcDbEntity
  8
0
100
AcDbSpline
 62
7
  6
CONTINUOUS
 70
0
 71
3
 72
25
 73
21
 74
0
 42
0.0000001
 43
0.0000001
 44
0.0000000001
 40
0.0
 40
0.0
 40
0.0
 40
0.0
 40
0.1735907321
 40
0.3465960328
 40
0.4302591712
 40
0.5107273705
 40
0.5871170337
 40
0.6586284606
 40
0.7245542261
 40
0.7842873024
 40
0.8373341763
 40
0.8833394244
 40
0.9036466572
 40
0.9221519794
 40
0.9388822107
 40
0.9538966201
 40
0.9672993724
 40
0.9792601981
 40
0.9900370565
 40
1.0
 40
1.0
 40
1.0
 40
1.0
 10
7.4739667392
 20
3.8863421844
 30
0.0
 10
7.4740019969
 20
3.8871134555
 30
0.0
 10
7.4741132283
 20
3.8886517432
 30
0.0
 10
7.4743447183
 20
3.8905521886
 30
0.0
 10
7.4745840003
 20
3.89203261
 30
0.0
 10
7.4747836558
 20
3.8930837256
 30
0.0
 10
7.4750027969
 20
3.8940756855
 30
0.0
 10
7.4752386105
 20
3.8949972255
 30
0.0
 10
7.4754881366
 20
3.8958381764
 30
0.0
 10
7.475748307
 20
3.8965895768
 30
0.0
 10
7.4760160299
 20
3.8972435109
 30
0.0
 10
7.476251606
 20
3.8977200566
 30
0.0
 10
7.4764439518
 20
3.8980447804
 30
0.0
 10
7.4765822171
 20
3.8982497056
 30
0.0
 10
7.4767201915
 20
3.8984258166
 30
0.0
 10
7.4768575957
 20
3.8985726805
 30
0.0
 10
7.4769942304
 20
3.8986899064
 30
0.0
 10
7.4771300456
 20
3.8987771034
 30
0.0
 10
7.4772649734
 20
3.8988336253
 30
0.0
 10
7.4773566135
 20
3.898850595
 30
0.0
 10
7.4774008465
 20
3.89885324
 30
0.0
  0
SPLINE
  5
450
100
AcDbEntity
  8
0
100
AcDbSpline
 62
7
  6
CONTINUOUS
 70
0
 71
3
 72
27
 73
23
 74
0
 42
0.0000001
 43
0.0000001
 44
0.0000000001
 40
0.0
 40
0.0
 40
0.0
 40
0.0
 40
0.0720263374
 40
0.1491895351
 40
0.2300077841
 40
0.3129487082
 40
0.3964866815
 40
0.4791348677
 40
0.559473608
 40
0.6361692113
 40
0.7079845924
 40
0.7737893239
 40
0.8325696558
 40
0.883446536
 40
0.9056953802
 40
0.9257213614
 40
0.9434771681
 40
0.9589455562
 40
0.9721524643
 40
0.9831999351
 40
0.9923233969
 40
1.0
 40
1.0
 40
1.0
 40
1.0
 10
7.4739667392
 20
3.9340132721
 30
0.0
 10
7.473988942
 20
3.9344226754
 30
0.0
 10
7.4740501493
 20
3.9352698905
 30
0.0
 10
7.4741823581
 20
3.936572649
 30
0.0
 10
7.4743559616
 20
3.937933195
 30
0.0
 10
7.4745673545
 20
3.9393250809
 30
0.0
 10
7.4748122572
 20
3.9407220365
 30
0.0
 10
7.4750858774
 20
3.9420985539
 30
0.0
 10
7.4753830445
 20
3.9434303082
 30
0.0
 10
7.4756983172
 20
3.9446944468
 30
0.0
 10
7.4760260762
 20
3.9458697488
 30
0.0
 10
7.4763605314
 20
3.9469367949
 30
0.0
 10
7.476695881
 20
3.9478778971
 30
0.0
 10
7.476982417
 20
3.9485724887
 30
0.0
 10
7.4772107441
 20
3.9490512106
 30
0.0
 10
7.4773709403
 20
3.9493531992
 30
0.0
 10
7.4775271258
 20
3.9496131964
 30
0.0
 10
7.4776786492
 20
3.9498300893
 30
0.0
 10
7.4778249461
 20
3.9500030617
 30
0.0
 10
7.4779659477
 20
3.9501315561
 30
0.0
 10
7.4781020029
 20
3.9502152837
 30
0.0
 10
7.4781964274
 20
3.9502408337
 30
0.0
 10
7.4782400479
 20
3.9502434444
 30
0.0
  0
SPLINE
  5
451
100
AcDbEntity
  8
0
100
AcDbSpline
 62
7
  6
CONTINUOUS
 70
0
 71
3
 72
24
 73
20
 74
0
 42
0.0000001
 43
0.0000001
 44
0.0000000001
 40
0.0
 40
0.0
 40
0.0
 40
0.0
 40
0.193224661
 40
0.2876048573
 40
0.3793137029
 40
0.4674817675
 40
0.5513115086
 40
0.6300233817
 40
0.7028378981
 40
0.7690100778
 40
0.8279326742
 40
0.8790328205
 40
0.9217376216
 40
0.9555188365
 40
0.9800266737
 40
0.9887076306
 40
0.9949556636
 40
0.9987325379
 40
1.0
 40
1.0
 40
1.0
 40
1.0
 10
8.1264246611
 20
6.5624572981
 30
0.0
 10
8.1464558647
 20
6.5653113365
 30
0.0
 10
8.1762713062
 20
6.5695591794
 30
0.0
 10
8.2155977244
 20
6.5751355196
 30
0.0
 10
8.2440348645
 20
6.5791479037
 30
0.0
 10
8.2713817983
 20
6.5829792901
 30
0.0
 10
8.2973850038
 20
6.5865925789
 30
0.0
 10
8.3218002615
 20
6.5899520787
 30
0.0
 10
8.3443887639
 20
6.5930230454
 30
0.0
 10
8.3649296108
 20
6.5957727119
 30
0.0
 10
8.3832219154
 20
6.5981817267
 30
0.0
 10
8.3990826247
 20
6.6002334702
 30
0.0
 10
8.4123368199
 20
6.6019130878
 30
0.0
 10
8.422832904
 20
6.6032073683
 30
0.0
 10
8.429795738
 20
6.6040427843
 30
0.0
 10
8.433897234
 20
6.6045239682
 30
0.0
 10
8.4358430388
 20
6.6047490832
 30
0.0
 10
8.4370178715
 20
6.6048833495
 30
0.0
 10
8.4375427666
 20
6.6049424982
 30
0.0
 10
8.4376746611
 20
6.6049572981
 30
0.0
  0
SPLINE
  5
452
100
AcDbEntity
  8
0
100
AcDbSpline
 62
7
  6
CONTINUOUS
 70
0
 71
3
 72
19
 73
15
 74
0
 42
0.0000001
 43
0.0000001
 44
0.0000000001
 40
0.0
 40
0.0
 40
0.0
 40
0.0
 40
0.0444654295
 40
0.0962751133
 40
0.1545138732
 40
0.2181564145
 40
0.3572318281
 40
0.5044066908
 40
0.6506042935
 40
0.7871603482
 40
0.849281987
 40
0.9060341767
 40
0.9565409693
 40
1.0
 40
1.0
 40
1.0
 40
1.0
 10
7.4739667392
 20
3.9655251281
 30
0.0
 10
7.4739886616
 20
3.9657924954
 30
0.0
 10
7.4740484116
 20
3.9663703844
 30
0.0
 10
7.474169462
 20
3.9672947587
 30
0.0
 10
7.4743273173
 20
3.9683307651
 30
0.0
 10
7.4745910988
 20
3.9698829472
 30
0.0
 10
7.4749908487
 20
3.9719559663
 30
0.0
 10
7.4755444378
 20
3.9745057725
 30
0.0
 10
7.4761508434
 20
3.9770279053
 30
0.0
 10
7.4766844759
 20
3.9790392575
 30
0.0
 10
7.4771128107
 20
3.9805196269
 30
0.0
 10
7.4774137011
 20
3.9814962853
 30
0.0
 10
7.4776996864
 20
3.9823595099
 30
0.0
 10
7.4778925954
 20
3.9828927205
 30
0.0
 10
7.4779869851
 20
3.9831373338
 30
0.0
  0
SPLINE
  5
453
100
AcDbEntity
  8
0
100
AcDbSpline
 62
7
  6
CONTINUOUS
 70
0
 71
3
 72
17
 73
13
 74
0
 42
0.0000001
 43
0.0000001
 44
0.0000000001
 40
0.0
 40
0.0
 40
0.0
 40
0.0
 40
0.2080850821
 40
0.3931308044
 40
0.5543730686
 40
0.6912137343
 40
0.8033355396
 40
0.8501570111
 40
0.8909207462
 40
0.925815253
 40
0.9551831517
 40
1.0
 40
1.0
 40
1.0
 40
1.0
 10
7.4779869851
 20
3.9831373338
 30
0.0
 10
7.4780292219
 20
3.9832467914
 30
0.0
 10
7.478111026
 20
3.9834528264
 30
0.0
 10
7.4782337519
 20
3.9837403374
 30
0.0
 10
7.4783488564
 20
3.9839873039
 30
0.0
 10
7.4784557887
 20
3.984192473
 30
0.0
 10
7.4785419692
 20
3.9843354896
 30
0.0
 10
7.4786075083
 20
3.9844271472
 30
0.0
 10
7.4786512821
 20
3.984480585
 30
0.0
 10
7.4786928792
 20
3.9845230636
 30
0.0
 10
7.4787406108
 20
3.9845613849
 30
0.0
 10
7.4787807236
 20
3.9845801314
 30
0.0
 10
7.478805947
 20
3.9845816479
 30
0.0
  0
LINE
  5
454
100
AcDbEntity
  8
0
100
AcDbLine
 62
7
  6
CONTINUOUS
 10
8.1264246611
 20
6.4602478823
 11
8.4376746611
 21
6.4602478823
  0
SPLINE
  5
455
100
AcDbEntity
  8
0
100
AcDbSpline
 62
7
  6
CONTINUOUS
 70
0
 71
3
 72
24
 73
20
 74
0
 42
0.0000001
 43
0.0000001
 44
0.0000000001
 40
0.0
 40
0.0
 40
0.0
 40
0.0
 40
0.199638283
 40
0.3860411181
 40
0.5542912069
 40
0.6302115376
 40
0.6999902365
 40
0.7631801301
 40
0.8193836336
 40
0.8682607577
 40
0.9095460335
 40
0.9272885059
 40
0.9430827132
 40
0.9569356793
 40
0.9688763476
 40
0.9789654426
 40
0.9873260106
 40
0.9941927339
 40
1.0
 40
1.0
 40
1.0
 40
1.0
 10
7.4637552556
 20
3.8991275702
 30
0.0
 10
7.463822223
 20
3.8996449299
 30
0.0
 10
7.4639605093
 20
3.9006442455
 30
0.0
 10
7.4641874913
 20
3.9020748664
 30
0.0
 10
7.464389513
 20
3.9031818679
 30
0.0
 10
7.4645553371
 20
3.9039853501
 30
0.0
 10
7.4646750477
 20
3.904517945
 30
0.0
 10
7.4647935502
 20
3.9049979005
 30
0.0
 10
7.4649099829
 20
3.9054219834
 30
0.0
 10
7.4650235117
 20
3.9057872933
 30
0.0
 10
7.4651191369
 20
3.906052728
 30
0.0
 10
7.4651948035
 20
3.9062330574
 30
0.0
 10
7.4652474506
 20
3.9063451923
 30
0.0
 10
7.465298803
 20
3.9064410407
 30
0.0
 10
7.4653487838
 20
3.9065204927
 30
0.0
 10
7.4653973585
 20
3.9065835232
 30
0.0
 10
7.465444681
 20
3.906630166
 30
0.0
 10
7.4654911034
 20
3.9066605267
 30
0.0
 10
7.4655238105
 20
3.906669632
 30
0.0
 10
7.4655389571
 20
3.9066705611
 30
0.0
  0
SPLINE
  5
456
100
AcDbEntity
  8
0
100
AcDbSpline
 62
7
  6
CONTINUOUS
 70
0
 71
3
 72
14
 73
10
 74
0
 42
0.0000001
 43
0.0000001
 44
0.0000000001
 40
0.0
 40
0.0
 40
0.0
 40
0.0
 40
0.295102447
 40
0.4366786463
 40
0.5712191707
 40
0.6966168983
 40
0.8109564042
 40
0.9125520972
 40
1.0
 40
1.0
 40
1.0
 40
1.0
 10
7.4630676284
 20
3.8278707845
 30
0.0
 10
7.4630676284
 20
3.8286945914
 30
0.0
 10
7.4630899492
 20
3.8299138196
 30
0.0
 10
7.4631669939
 20
3.8315066532
 30
0.0
 10
7.4632453815
 20
3.8326248793
 30
0.0
 10
7.4633436996
 20
3.8336651884
 30
0.0
 10
7.4634601762
 20
3.8346110726
 30
0.0
 10
7.4635927069
 20
3.8354477357
 30
0.0
 10
7.4636983595
 20
3.8359651013
 30
0.0
 10
7.4637552556
 20
3.8362024977
 30
0.0
  0
SPLINE
  5
457
100
AcDbEntity
  8
0
100
AcDbSpline
 62
7
  6
CONTINUOUS
 70
0
 71
3
 72
17
 73
13
 74
0
 42
0.0000001
 43
0.0000001
 44
0.0000000001
 40
0.0
 40
0.0
 40
0.0
 40
0.0
 40
0.2004140016
 40
0.3786142997
 40
0.5341419888
 40
0.6669991268
 40
0.7776625701
 40
0.8674406353
 40
0.9054147781
 40
0.9395251011
 40
0.9706605815
 40
1.0
 40
1.0
 40
1.0
 40
1.0
 10
7.4637552556
 20
3.8362024977
 30
0.0
 10
7.4637818363
 20
3.8363134042
 30
0.0
 10
7.4638354475
 20
3.8365221416
 30
0.0
 10
7.4639234492
 20
3.836813201
 30
0.0
 10
7.4640139667
 20
3.8370629741
 30
0.0
 10
7.4641065795
 20
3.837270638
 30
0.0
 10
7.4642008775
 20
3.8374355837
 30
0.0
 10
7.4642852168
 20
3.8375430739
 30
0.0
 10
7.4643544651
 20
3.8376042035
 30
0.0
 10
7.4644039769
 20
3.8376363029
 30
0.0
 10
7.4644539966
 20
3.8376570687
 30
0.0
 10
7.4644882006
 20
3.8376632372
 30
0.0
 10
7.4645048651
 20
3.83766426
 30
0.0
  0
SPLINE
  5
458
100
AcDbEntity
  8
0
100
AcDbSpline
 62
7
  6
CONTINUOUS
 70
0
 71
3
 72
21
 73
17
 74
0
 42
0.0000001
 43
0.0000001
 44
0.0000000001
 40
0.0
 40
0.0
 40
0.0
 40
0.0
 40
0.1900617287
 40
0.3683172499
 40
0.5298804198
 40
0.6031236468
 40
0.6707767485
 40
0.7325156404
 40
0.7881058883
 40
0.8374194302
 40
0.880467322
 40
0.9174604465
 40
0.948915607
 40
0.9758342555
 40
0.9881321277
 40
1.0
 40
1.0
 40
1.0
 40
1.0
 10
7.4739667392
 20
3.8297693562
 30
0.0
 10
7.4739930875
 20
3.8303485172
 30
0.0
 10
7.4740680688
 20
3.8314699831
 30
0.0
 10
7.4742520608
 20
3.8330764125
 30
0.0
 10
7.4744634659
 20
3.8343194678
 30
0.0
 10
7.4746659958
 20
3.8352197791
 30
0.0
 10
7.4748255486
 20
3.8358171429
 30
0.0
 10
7.47499644
 20
3.836355162
 30
0.0
 10
7.4751773629
 20
3.8368305443
 30
0.0
 10
7.4753670046
 20
3.8372405788
 30
0.0
 10
7.4755640973
 20
3.8375831678
 30
0.0
 10
7.4757678062
 20
3.8378568596
 30
0.0
 10
7.4759775674
 20
3.8380606545
 30
0.0
 10
7.4761643046
 20
3.8381739969
 30
0.0
 10
7.4763131385
 20
3.8382221605
 30
0.0
 10
7.4763864778
 20
3.8382330167
 30
0.0
 10
7.476422615
 20
3.8382351733
 30
0.0
  0
LINE
  5
459
100
AcDbEntity
  8
0
100
AcDbLine
 62
7
  6
CONTINUOUS
 10
7.4652582405
 20
3.7493773964
 11
7.4650478585
 21
3.7498907685
  0
SPLINE
  5
45A
100
AcDbEntity
  8
0
100
AcDbSpline
 62
7
  6
CONTINUOUS
 70
0
 71
3
 72
22
 73
18
 74
0
 42
0.0000001
 43
0.0000001
 44
0.0000000001
 40
0.0
 40
0.0
 40
0.0
 40
0.0
 40
0.0174445742
 40
0.0371841177
 40
0.0832050757
 40
0.1372586985
 40
0.1983661275
 40
0.2654063145
 40
0.3371382451
 40
0.4892308176
 40
0.6431100511
 40
0.7169709623
 40
0.7868097689
 40
0.8512335639
 40
0.9089614039
 40
0.9588628961
 40
1.0
 40
1.0
 40
1.0
 40
1.0
 10
7.4650478585
 20
3.7498907685
 30
0.0
 10
7.465014132
 20
3.7499885483
 30
0.0
 10
7.4649466878
 20
3.7501985119
 30
0.0
 10
7.4648102753
 20
3.7506726732
 30
0.0
 10
7.464639628
 20
3.7513625166
 30
0.0
 10
7.4644405196
 20
3.7522973363
 30
0.0
 10
7.4642422041
 20
3.7533593923
 30
0.0
 10
7.4640485485
 20
3.7545286659
 30
0.0
 10
7.4637968193
 20
3.7562348742
 30
0.0
 10
7.4635228644
 20
3.7584579014
 30
0.0
 10
7.463310083
 20
3.7607002824
 30
0.0
 10
7.4631838721
 20
3.7624602448
 30
0.0
 10
7.4631163013
 20
3.7636924754
 30
0.0
 10
7.463075782
 20
3.7648301868
 30
0.0
 10
7.4630629681
 20
3.765850379
 30
0.0
 10
7.463077914
 20
3.7667324405
 30
0.0
 10
7.4631086752
 20
3.7672716561
 30
0.0
 10
7.4631310968
 20
3.767514535
 30
0.0
  0
SPLINE
  5
45B
100
AcDbEntity
  8
0
100
AcDbSpline
 62
7
  6
CONTINUOUS
 70
0
 71
3
 72
17
 73
13
 74
0
 42
0.0000001
 43
0.0000001
 44
0.0000000001
 40
0.0
 40
0.0
 40
0.0
 40
0.0
 40
0.2112773386
 40
0.3971070238
 40
0.5571429173
 40
0.6913577819
 40
0.8001490464
 40
0.8848151741
 40
0.9190685419
 40
0.9488261655
 40
0.9752545999
 40
1.0
 40
1.0
 40
1.0
 40
1.0
 10
7.4631310968
 20
3.767514535
 30
0.0
 10
7.4631391517
 20
3.767601789
 30
0.0
 10
7.4631564593
 20
3.767765603
 30
0.0
 10
7.4631888446
 20
3.7679944569
 30
0.0
 10
7.4632258519
 20
3.7681901759
 30
0.0
 10
7.4632672477
 20
3.7683523277
 30
0.0
 10
7.4633128488
 20
3.768480518
 30
0.0
 10
7.4633569604
 20
3.7685648447
 30
0.0
 10
7.4633959035
 20
3.7686129367
 30
0.0
 10
7.4634243419
 20
3.7686377691
 30
0.0
 10
7.4634542314
 20
3.7686537869
 30
0.0
 10
7.4634753335
 20
3.7686582951
 30
0.0
 10
7.4634855771
 20
3.7686589238
 30
0.0
  0
SPLINE
  5
45C
100
AcDbEntity
  8
0
100
AcDbSpline
 62
7
  6
CONTINUOUS
 70
0
 71
3
 72
26
 73
22
 74
0
 42
0.0000001
 43
0.0000001
 44
0.0000000001
 40
0.0
 40
0.0
 40
0.0
 40
0.0
 40
0.0629545119
 40
0.1258653302
 40
0.1573036951
 40
0.1887274173
 40
0.22013646
 40
0.2515306068
 40
0.3142659605
 40
0.3769343955
 40
0.4395297496
 40
0.5020471315
 40
0.5644849727
 40
0.5956783109
 40
0.6268540739
 40
0.6891526722
 40
0.7513975964
 40
0.8135966651
 40
0.8757571396
 40
0.9378876292
 40
1.0
 40
1.0
 40
1.0
 40
1.0
 10
8.3139304465
 20
4.5421080965
 30
0.0
 10
8.3186916736
 20
4.5384861438
 30
0.0
 10
8.3280093982
 20
4.5309757493
 30
0.0
 10
8.3391060094
 20
4.5209481123
 30
0.0
 10
8.347624479
 20
4.5125629527
 30
0.0
 10
8.3538273782
 20
4.5060980276
 30
0.0
 10
8.3598411388
 20
4.4994624681
 30
0.0
 10
8.3675992118
 20
4.4903986041
 30
0.0
 10
8.3768046639
 20
4.4786716098
 30
0.0
 10
8.3870302871
 20
4.4640115995
 30
0.0
 10
8.396400522
 20
4.4488144537
 30
0.0
 10
8.404881962
 20
4.4331291643
 30
0.0
 10
8.4111843637
 20
4.4196861258
 30
0.0
 10
8.4157473204
 20
4.4087376051
 30
0.0
 10
8.419985563
 20
4.3976735244
 30
0.0
 10
8.4246774016
 20
4.3836303078
 30
0.0
 10
8.4293247151
 20
4.3664944093
 30
0.0
 10
8.4329768791
 20
4.3491323612
 30
0.0
 10
8.4356221635
 20
4.3315995146
 30
0.0
 10
8.4372489624
 20
4.3139518
 30
0.0
 10
8.4376467193
 20
4.3021442593
 30
0.0
 10
8.4376719182
 20
4.2962420455
 30
0.0
  0
SPLINE
  5
45D
100
AcDbEntity
  8
0
100
AcDbSpline
 62
7
  6
CONTINUOUS
 70
0
 71
3
 72
20
 73
16
 74
0
 42
0.0000001
 43
0.0000001
 44
0.0000000001
 40
0.0
 40
0.0
 40
0.0
 40
0.0
 40
0.1996468468
 40
0.3799251012
 40
0.5386318629
 40
0.6093951918
 40
0.6742501004
 40
0.7331423531
 40
0.7860953431
 40
0.833236215
 40
0.8748313985
 40
0.9113508215
 40
0.9435505412
 40
0.9725771235
 40
1.0
 40
1.0
 40
1.0
 40
1.0
 10
7.4739667392
 20
3.7729074876
 30
0.0
 10
7.4739850785
 20
3.7732511701
 30
0.0
 10
7.474032253
 20
3.7739046646
 30
0.0
 10
7.4741422112
 20
3.7748270296
 30
0.0
 10
7.4742660854
 20
3.7755230691
 30
0.0
 10
7.4743844724
 20
3.7760165949
 30
0.0
 10
7.4744774308
 20
3.7763389109
 30
0.0
 10
7.4745775597
 20
3.7766267849
 30
0.0
 10
7.4746844836
 20
3.776879405
 30
0.0
 10
7.4747978263
 20
3.7770961519
 30
0.0
 10
7.4749173209
 20
3.7772765828
 30
0.0
 10
7.4750428397
 20
3.777420387
 30
0.0
 10
7.4751746121
 20
3.7775271302
 30
0.0
 10
7.4753127393
 20
3.7775957971
 30
0.0
 10
7.4754095414
 20
3.7776151726
 30
0.0
 10
7.4754567322
 20
3.7776179801
 30
0.0
  0
SPLINE
  5
45E
100
AcDbEntity
  8
0
100
AcDbSpline
 62
7
  6
CONTINUOUS
 70
0
 71
3
 72
17
 73
13
 74
0
 42
0.0000001
 43
0.0000001
 44
0.0000000001
 40
0.0
 40
0.0
 40
0.0
 40
0.0
 40
0.2020330577
 40
0.3808052118
 40
0.5358581817
 40
0.6673373208
 40
0.7760798851
 40
0.8225546321
 40
0.8642911609
 40
0.9360605859
 40
0.9683838621
 40
1.0
 40
1.0
 40
1.0
 40
1.0
 10
7.4739667392
 20
3.7244132827
 30
0.0
 10
7.473977603
 20
3.7245506721
 30
0.0
 10
7.4740028949
 20
3.7248093049
 30
0.0
 10
7.4740562544
 20
3.7251711
 30
0.0
 10
7.474122359
 20
3.725481859
 30
0.0
 10
7.4742007777
 20
3.7257402228
 30
0.0
 10
7.4742796588
 20
3.7259200753
 30
0.0
 10
7.4743506746
 20
3.7260344838
 30
0.0
 10
7.4744183182
 20
3.7261201673
 30
0.0
 10
7.4744961316
 20
3.7261858847
 30
0.0
 10
7.4745824026
 20
3.7262212301
 30
0.0
 10
7.4746258186
 20
3.7262285965
 30
0.0
 10
7.4746473479
 20
3.7262298745
 30
0.0
  0
LINE
  5
45F
100
AcDbEntity
  8
0
100
AcDbLine
 62
7
  6
CONTINUOUS
 10
7.4739667392
 20
3.6916695447
 11
7.4741112756
 21
3.6918937719
  0
SPLINE
  5
460
100
AcDbEntity
  8
0
100
AcDbSpline
 62
7
  6
CONTINUOUS
 70
0
 71
3
 72
28
 73
24
 74
0
 42
0.0000001
 43
0.0000001
 44
0.0000000001
 40
0.0
 40
0.0
 40
0.0
 40
0.0
 40
0.0095628661
 40
0.0201566564
 40
0.0322441813
 40
0.0461172004
 40
0.0619438437
 40
0.0798105001
 40
0.0997504432
 40
0.1217590938
 40
0.1458065302
 40
0.1718409221
 40
0.2295805513
 40
0.294284329
 40
0.3650648359
 40
0.4408733418
 40
0.5205159769
 40
0.6026732729
 40
0.6859238091
 40
0.7687778715
 40
0.8497219467
 40
0.9272643561
 40
1.0
 40
1.0
 40
1.0
 40
1.0
 10
7.4774008626
 20
3.7568883321
 30
0.0
 10
7.4773472395
 20
3.7568915363
 30
0.0
 10
7.4772348699
 20
3.7569154564
 30
0.0
 10
7.477071293
 20
3.7569962996
 30
0.0
 10
7.4769069632
 20
3.7571209936
 30
0.0
 10
7.4767417977
 20
3.7572886242
 30
0.0
 10
7.4765758454
 20
3.7574985582
 30
0.0
 10
7.4764095302
 20
3.7577501111
 30
0.0
 10
7.4762434228
 20
3.7580424243
 30
0.0
 10
7.4760781488
 20
3.7583744436
 30
0.0
 10
7.4759143791
 20
3.7587449457
 30
0.0
 10
7.4756911635
 20
3.7593081255
 30
0.0
 10
7.4754238975
 20
3.7600987922
 30
0.0
 10
7.4751295072
 20
3.7611438959
 30
0.0
 10
7.4748567321
 20
3.7622993779
 30
0.0
 10
7.4746106072
 20
3.7635464165
 30
0.0
 10
7.4743958755
 20
3.7648640124
 30
0.0
 10
7.4742168019
 20
3.7662290839
 30
0.0
 10
7.4740770623
 20
3.7676168699
 30
0.0
 10
7.4739795938
 20
3.7690014355
 30
0.0
 10
7.4739264707
 20
3.7703563467
 30
0.0
 10
7.4739187865
 20
3.7716554395
 30
0.0
 10
7.4739449676
 20
3.7724994806
 30
0.0
 10
7.4739667392
 20
3.7729074876
 30
0.0
  0
LINE
  5
461
100
AcDbEntity
  8
0
100
AcDbLine
 62
7
  6
CONTINUOUS
 10
3.0989246611
 20
6.4307799442
 11
3.4345496611
 21
6.4307799442
  0
SPLINE
  5
462
100
AcDbEntity
  8
0
100
AcDbSpline
 62
7
  6
CONTINUOUS
 70
0
 71
3
 72
35
 73
31
 74
0
 42
0.0000001
 43
0.0000001
 44
0.0000000001
 40
0.0
 40
0.0
 40
0.0
 40
0.0
 40
0.0312517823
 40
0.0625035734
 40
0.0937553541
 40
0.1250071481
 40
0.1562589262
 40
0.1875107167
 40
0.2499998599
 40
0.3124890221
 40
0.3437407897
 40
0.3749925917
 40
0.4062443726
 40
0.4374961743
 40
0.4687479494
 40
0.4999997563
 40
0.5312515529
 40
0.562503346
 40
0.5937551379
 40
0.6250069332
 40
0.6562587423
 40
0.6875105252
 40
0.7187623352
 40
0.7500141342
 40
0.8125034609
 40
0.8749927947
 40
0.9062445851
 40
0.9374963978
 40
0.9687481849
 40
1.0
 40
1.0
 40
1.0
 40
1.0
 10
8.4376790276
 20
4.1695650851
 30
0.0
 10
8.4394734062
 20
4.1740091452
 30
0.0
 10
8.4428718684
 20
4.1829754775
 30
0.0
 10
8.447387313
 20
4.1966303945
 30
0.0
 10
8.4513127275
 20
4.2104667657
 30
0.0
 10
8.4546419721
 20
4.2244584021
 30
0.0
 10
8.4573685164
 20
4.2385801513
 30
0.0
 10
8.4601916242
 20
4.2575444917
 30
0.0
 10
8.4621862695
 20
4.2814516692
 30
0.0
 10
8.4621235227
 20
4.3054418101
 30
0.0
 10
8.4608372901
 20
4.3245719423
 30
0.0
 10
8.4592569558
 20
4.3388674055
 30
0.0
 10
8.4570653278
 20
4.3530817389
 30
0.0
 10
8.4542663274
 20
4.3671891182
 30
0.0
 10
8.4508643053
 20
4.3811633342
 30
0.0
 10
8.446865531
 20
4.394978613
 30
0.0
 10
8.4422787763
 20
4.4086099577
 30
0.0
 10
8.43711212
 20
4.4220322419
 30
0.0
 10
8.4313747849
 20
4.4352206914
 30
0.0
 10
8.4250771307
 20
4.4481509485
 30
0.0
 10
8.4182313999
 20
4.4607995946
 30
0.0
 10
8.4108500765
 20
4.473143283
 30
0.0
 10
8.4029468413
 20
4.4851597682
 30
0.0
 10
8.3917368178
 20
4.5007144905
 30
0.0
 10
8.376493699
 20
4.5192392377
 30
0.0
 10
8.3597228487
 20
4.5363932727
 30
0.0
 10
8.3454679245
 20
4.5492155856
 30
0.0
 10
8.3343726993
 20
4.5583673627
 30
0.0
 10
8.3228966738
 20
4.5670359529
 30
0.0
 10
8.3150058266
 20
4.5724837634
 30
0.0
 10
8.3110046624
 20
4.5751219822
 30
0.0
  0
SPLINE
  5
463
100
AcDbEntity
  8
0
100
AcDbSpline
 62
7
  6
CONTINUOUS
 70
0
 71
3
 72
36
 73
32
 74
0
 42
0.0000001
 43
0.0000001
 44
0.0000000001
 40
0.0
 40
0.0
 40
0.0
 40
0.0
 40
0.0624884547
 40
0.1249768751
 40
0.1562282154
 40
0.1874795709
 40
0.2187309262
 40
0.2499822747
 40
0.2812336211
 40
0.312484954
 40
0.3437363163
 40
0.374987639
 40
0.4062389878
 40
0.4374903092
 40
0.4687416641
 40
0.4999929913
 40
0.5312443383
 40
0.5624956555
 40
0.5937470048
 40
0.6249983313
 40
0.6562496723
 40
0.6875009901
 40
0.7187523338
 40
0.7500036726
 40
0.781255005
 40
0.8125063345
 40
0.8437576631
 40
0.8750090133
 40
0.9062603379
 40
0.937511681
 40
1.0
 40
1.0
 40
1.0
 40
1.0
 10
7.9418422018
 20
4.5751208047
 30
0.0
 10
7.9338415464
 20
4.5698456341
 30
0.0
 10
7.9182828606
 20
4.5586068159
 30
0.0
 10
7.9001079823
 20
4.5429488263
 30
0.0
 10
7.8864143821
 20
4.5295282591
 30
0.0
 10
7.8765826766
 20
4.5190307273
 30
0.0
 10
7.8672083205
 20
4.5081231445
 30
0.0
 10
7.8583083908
 20
4.4968250442
 30
0.0
 10
7.8498996571
 20
4.4851567594
 30
0.0
 10
7.8419981149
 20
4.4731392203
 30
0.0
 10
7.834617002
 20
4.4607952213
 30
0.0
 10
7.8277703938
 20
4.4481469068
 30
0.0
 10
7.8214724176
 20
4.435216637
 30
0.0
 10
7.8157354095
 20
4.4220278869
 30
0.0
 10
7.8105688745
 20
4.4086054188
 30
0.0
 10
7.8059817256
 20
4.3949740534
 30
0.0
 10
7.8019835852
 20
4.3811584353
 30
0.0
 10
7.7985824689
 20
4.3671838531
 30
0.0
 10
7.7957839499
 20
4.3530762632
 30
0.0
 10
7.7935918143
 20
4.3388618189
 30
0.0
 10
7.7920114088
 20
4.3245664085
 30
0.0
 10
7.7910469129
 20
4.310216261
 30
0.0
 10
7.790700591
 20
4.2958379224
 30
0.0
 10
7.7909713804
 20
4.2814579715
 30
0.0
 10
7.7918595416
 20
4.2671029056
 30
0.0
 10
7.7933640939
 20
4.252799301
 30
0.0
 10
7.7954826018
 20
4.2385736476
 30
0.0
 10
7.798208641
 20
4.2244519801
 30
0.0
 10
7.8015374817
 20
4.2104596154
 30
0.0
 10
7.8067708125
 20
4.1920151684
 30
0.0
 10
7.8115848686
 20
4.178444529
 30
0.0
 10
7.8151726887
 20
4.1695583004
 30
0.0
  0
LINE
  5
464
100
AcDbEntity
  8
0
100
AcDbLine
 62
7
  6
CONTINUOUS
 10
3.649352015
 20
6.9812072981
 11
3.649352015
 21
7.3168322981
  0
LINE
  5
465
100
AcDbEntity
  8
0
100
AcDbLine
 62
7
  6
CONTINUOUS
 10
3.6198840769
 20
6.9812072981
 11
3.6198840768
 21
7.2924572981
  0
SPLINE
  5
466
100
AcDbEntity
  8
0
100
AcDbSpline
 62
7
  6
CONTINUOUS
 70
0
 71
3
 72
24
 73
20
 74
0
 42
0.0000001
 43
0.0000001
 44
0.0000000001
 40
0.0
 40
0.0
 40
0.0
 40
0.0
 40
0.0012674621
 40
0.0050443364
 40
0.0112923694
 40
0.0199733263
 40
0.0444811635
 40
0.0782623784
 40
0.1209671795
 40
0.1720673258
 40
0.2309899222
 40
0.2971621019
 40
0.3699766183
 40
0.4486884914
 40
0.5325182325
 40
0.6206862971
 40
0.7123951427
 40
0.806775339
 40
1.0
 40
1.0
 40
1.0
 40
1.0
 10
3.4751746611
 20
7.2924572981
 30
0.0
 10
3.475189461
 20
7.2923254037
 30
0.0
 10
3.4752486097
 20
7.2918005086
 30
0.0
 10
3.475382876
 20
7.2906256758
 30
0.0
 10
3.475607991
 20
7.2886798711
 30
0.0
 10
3.4760891749
 20
7.284578375
 30
0.0
 10
3.4769245909
 20
7.277615541
 30
0.0
 10
3.4782188714
 20
7.267119457
 30
0.0
 10
3.479898489
 20
7.2538652618
 30
0.0
 10
3.4819502325
 20
7.2380045524
 30
0.0
 10
3.4843592473
 20
7.2197122479
 30
0.0
 10
3.4871089138
 20
7.199171401
 30
0.0
 10
3.4901798805
 20
7.1765828985
 30
0.0
 10
3.4935393803
 20
7.1521676408
 30
0.0
 10
3.4971526691
 20
7.1261644354
 30
0.0
 10
3.5009840555
 20
7.0988175016
 30
0.0
 10
3.5049964396
 20
7.0703803615
 30
0.0
 10
3.5105727798
 20
7.0310539433
 30
0.0
 10
3.5148206227
 20
7.0012385018
 30
0.0
 10
3.5176746611
 20
6.9812072981
 30
0.0
  0
SPLINE
  5
467
100
AcDbEntity
  8
0
100
AcDbSpline
 62
7
  6
CONTINUOUS
 70
0
 71
3
 72
39
 73
35
 74
0
 42
0.0000001
 43
0.0000001
 44
0.0000000001
 40
0.0
 40
0.0
 40
0.0
 40
0.0
 40
0.0252213399
 40
0.0516086286
 40
0.0790789115
 40
0.1075586549
 40
0.1369782744
 40
0.1672518252
 40
0.1982964051
 40
0.2300402634
 40
0.2624172394
 40
0.2953428896
 40
0.3287327329
 40
0.3625110259
 40
0.3966082608
 40
0.4309438883
 40
0.4654345019
 40
0.5
 40
0.5345654981
 40
0.5690561117
 40
0.6033917392
 40
0.6374889741
 40
0.6712672671
 40
0.7046571104
 40
0.7375827606
 40
0.7699597366
 40
0.8017035949
 40
0.8327481748
 40
0.8630217256
 40
0.8924413451
 40
0.9209210885
 40
0.9483913714
 40
0.9747786601
 40
1.0
 40
1.0
 40
1.0
 40
1.0
 10
3.5176746611
 20
6.9812072981
 30
0.0
 10
3.5121466901
 20
6.9812072981
 30
0.0
 10
3.5008339064
 20
6.9809684508
 30
0.0
 10
3.4835307787
 20
6.9798814006
 30
0.0
 10
3.4655784551
 20
6.9779851084
 30
0.0
 10
3.447068337
 20
6.975207712
 30
0.0
 10
3.4280989254
 20
6.971479634
 30
0.0
 10
3.4087739852
 20
6.9667517004
 30
0.0
 10
3.3892038694
 20
6.9609748476
 30
0.0
 10
3.3695018563
 20
6.9541006772
 30
0.0
 10
3.3497895825
 20
6.9460851661
 30
0.0
 10
3.3301817905
 20
6.9369281555
 30
0.0
 10
3.3107992572
 20
6.9266304151
 30
0.0
 10
3.2917650343
 20
6.91519372
 30
0.0
 10
3.2732077705
 20
6.9026242604
 30
0.0
 10
3.2552291503
 20
6.88898061
 30
0.0
 10
3.2379331508
 20
6.8743218121
 30
0.0
 10
3.2214245586
 20
6.8587074006
 30
0.0
 10
3.2058101471
 20
6.8421988084
 30
0.0
 10
3.1911513492
 20
6.8249028089
 30
0.0
 10
3.1775076988
 20
6.8069241887
 30
0.0
 10
3.1649382392
 20
6.7883669249
 30
0.0
 10
3.1535015441
 20
6.769332702
 30
0.0
 10
3.1432038037
 20
6.7499501687
 30
0.0
 10
3.1340467931
 20
6.7303423767
 30
0.0
 10
3.126031282
 20
6.7106301029
 30
0.0
 10
3.1191571116
 20
6.6909280898
 30
0.0
 10
3.1133802588
 20
6.671357974
 30
0.0
 10
3.1086523252
 20
6.6520330338
 30
0.0
 10
3.1049242472
 20
6.6330636222
 30
0.0
 10
3.1021468508
 20
6.6145535041
 30
0.0
 10
3.1002505586
 20
6.5966011805
 30
0.0
 10
3.0991635084
 20
6.5792980528
 30
0.0
 10
3.0989246611
 20
6.5679852691
 30
0.0
 10
3.0989246611
 20
6.5624572981
 30
0.0
  0
SPLINE
  5
468
100
AcDbEntity
  8
0
100
AcDbSpline
 62
7
  6
CONTINUOUS
 70
0
 71
3
 72
24
 73
20
 74
0
 42
0.0000001
 43
0.0000001
 44
0.0000000001
 40
0.0
 40
0.0
 40
0.0
 40
0.0
 40
0.0012674621
 40
0.0050443364
 40
0.0112923694
 40
0.0199733263
 40
0.0444811635
 40
0.0782623784
 40
0.1209671795
 40
0.1720673258
 40
0.2309899222
 40
0.2971621019
 40
0.3699766183
 40
0.4486884914
 40
0.5325182325
 40
0.6206862971
 40
0.7123951427
 40
0.806775339
 40
1.0
 40
1.0
 40
1.0
 40
1.0
 10
2.7876746611
 20
6.6049572981
 30
0.0
 10
2.7878065555
 20
6.6049424982
 30
0.0
 10
2.7883314507
 20
6.6048833495
 30
0.0
 10
2.7895062834
 20
6.6047490832
 30
0.0
 10
2.7914520881
 20
6.6045239682
 30
0.0
 10
2.7955535842
 20
6.6040427843
 30
0.0
 10
2.8025164182
 20
6.6032073683
 30
0.0
 10
2.8130125022
 20
6.6019130878
 30
0.0
 10
2.8262666974
 20
6.6002334702
 30
0.0
 10
2.8421274068
 20
6.5981817267
 30
0.0
 10
2.8604197113
 20
6.5957727119
 30
0.0
 10
2.8809605582
 20
6.5930230454
 30
0.0
 10
2.9035490607
 20
6.5899520787
 30
0.0
 10
2.9279643184
 20
6.5865925789
 30
0.0
 10
2.9539675238
 20
6.5829792901
 30
0.0
 10
2.9813144576
 20
6.5791479037
 30
0.0
 10
3.0097515977
 20
6.5751355196
 30
0.0
 10
3.0490780159
 20
6.5695591794
 30
0.0
 10
3.0788934574
 20
6.5653113365
 30
0.0
 10
3.0989246611
 20
6.5624572981
 30
0.0
  0
LINE
  5
469
100
AcDbEntity
  8
0
100
AcDbLine
 62
7
  6
CONTINUOUS
 10
2.7876746611
 20
6.4602478822
 11
3.0989246611
 21
6.4602478824
  0
LINE
  5
46A
100
AcDbEntity
  8
0
100
AcDbLine
 62
7
  6
CONTINUOUS
 10
3.619884077
 20
6.6699572981
 11
3.619884077
 21
6.9812072981
  0
SPLINE
  5
46B
100
AcDbEntity
  8
0
100
AcDbSpline
 62
7
  6
CONTINUOUS
 70
0
 71
3
 72
24
 73
20
 74
0
 42
0.0000001
 43
0.0000001
 44
0.0000000001
 40
0.0
 40
0.0
 40
0.0
 40
0.0
 40
0.193224661
 40
0.2876048573
 40
0.3793137029
 40
0.4674817675
 40
0.5513115086
 40
0.6300233817
 40
0.7028378981
 40
0.7690100778
 40
0.8279326742
 40
0.8790328205
 40
0.9217376216
 40
0.9555188365
 40
0.9800266737
 40
0.9887076306
 40
0.9949556636
 40
0.9987325379
 40
1.0
 40
1.0
 40
1.0
 40
1.0
 10
3.5176746611
 20
6.9812072981
 30
0.0
 10
3.5205286994
 20
6.9611760945
 30
0.0
 10
3.5247765423
 20
6.931360653
 30
0.0
 10
3.5303528825
 20
6.8920342348
 30
0.0
 10
3.5343652666
 20
6.8635970947
 30
0.0
 10
3.538196653
 20
6.8362501609
 30
0.0
 10
3.5418099418
 20
6.8102469554
 30
0.0
 10
3.5451694417
 20
6.7858316977
 30
0.0
 10
3.5482404083
 20
6.7632431953
 30
0.0
 10
3.5509900748
 20
6.7427023484
 30
0.0
 10
3.5533990896
 20
6.7244100438
 30
0.0
 10
3.5554508331
 20
6.7085493345
 30
0.0
 10
3.5571304507
 20
6.6952951393
 30
0.0
 10
3.5584247312
 20
6.6847990552
 30
0.0
 10
3.5592601472
 20
6.6778362212
 30
0.0
 10
3.5597413311
 20
6.6737347252
 30
0.0
 10
3.5599664461
 20
6.6717889204
 30
0.0
 10
3.5601007124
 20
6.6706140877
 30
0.0
 10
3.5601598612
 20
6.6700891926
 30
0.0
 10
3.5601746611
 20
6.6699572981
 30
0.0
  0
SPLINE
  5
46C
100
AcDbEntity
  8
0
100
AcDbSpline
 62
7
  6
CONTINUOUS
 70
0
 71
3
 72
24
 73
20
 74
0
 42
0.0000001
 43
0.0000001
 44
0.0000000001
 40
0.0
 40
0.0
 40
0.0
 40
0.0
 40
0.193224661
 40
0.2876048573
 40
0.3793137029
 40
0.4674817675
 40
0.5513115086
 40
0.6300233817
 40
0.7028378981
 40
0.7690100778
 40
0.8279326742
 40
0.8790328205
 40
0.9217376216
 40
0.9555188365
 40
0.9800266737
 40
0.9887076306
 40
0.9949556636
 40
0.9987325379
 40
1.0
 40
1.0
 40
1.0
 40
1.0
 10
3.0989246611
 20
6.5624572981
 30
0.0
 10
3.1189558647
 20
6.5596032598
 30
0.0
 10
3.1487713062
 20
6.5553554169
 30
0.0
 10
3.1880977244
 20
6.5497790767
 30
0.0
 10
3.2165348645
 20
6.5457666926
 30
0.0
 10
3.2438817983
 20
6.5419353062
 30
0.0
 10
3.2698850038
 20
6.5383220174
 30
0.0
 10
3.2943002615
 20
6.5349625175
 30
0.0
 10
3.3168887639
 20
6.5318915509
 30
0.0
 10
3.3374296108
 20
6.5291418844
 30
0.0
 10
3.3557219154
 20
6.5267328696
 30
0.0
 10
3.3715826247
 20
6.5246811261
 30
0.0
 10
3.3848368199
 20
6.5230015085
 30
0.0
 10
3.395332904
 20
6.521707228
 30
0.0
 10
3.402295738
 20
6.520871812
 30
0.0
 10
3.406397234
 20
6.5203906281
 30
0.0
 10
3.4083430388
 20
6.5201655131
 30
0.0
 10
3.4095178715
 20
6.5200312468
 30
0.0
 10
3.4100427666
 20
6.519972098
 30
0.0
 10
3.4101746611
 20
6.5199572981
 30
0.0
  0
LINE
  5
46D
100
AcDbEntity
  8
0
100
AcDbLine
 62
7
  6
CONTINUOUS
 10
3.0989246611
 20
6.4602478821
 11
3.4101746611
 21
6.4602478822
  0
SPLINE
  5
46E
100
AcDbEntity
  8
0
100
AcDbSpline
 62
7
  6
CONTINUOUS
 70
0
 71
3
 72
27
 73
23
 74
0
 42
0.0000001
 43
0.0000001
 44
0.0000000001
 40
0.0
 40
0.0
 40
0.0
 40
0.0
 40
0.064150031
 40
0.0962144956
 40
0.1282543226
 40
0.1922193433
 40
0.2560058044
 40
0.2878254046
 40
0.3195825711
 40
0.3828727244
 40
0.4458629475
 40
0.5085331874
 40
0.5708754867
 40
0.6328944641
 40
0.6946073226
 40
0.7253675365
 40
0.7560631837
 40
0.817262804
 40
0.8782763111
 40
0.9087401295
 40
0.9391807988
 40
1.0
 40
1.0
 40
1.0
 40
1.0
 10
8.393002545
 20
3.4539572981
 30
0.0
 10
8.393002545
 20
3.4520275294
 30
0.0
 10
8.3931373596
 20
3.4491308224
 30
0.0
 10
8.3935854678
 20
3.4452977713
 30
0.0
 10
8.3942107865
 20
3.4414949699
 30
0.0
 10
8.3953222714
 20
3.4368107479
 30
0.0
 10
8.3968658032
 20
3.4322574676
 30
0.0
 10
8.3983502256
 20
3.4287239902
 30
0.0
 10
8.3999939117
 20
3.4252783071
 30
0.0
 10
8.4023451929
 20
3.4211373153
 30
0.0
 10
8.4056178902
 20
3.4164794178
 30
0.0
 10
8.4093079641
 20
3.4121817193
 30
0.0
 10
8.4133799793
 20
3.4082859342
 30
0.0
 10
8.4177945453
 20
3.4048297863
 30
0.0
 10
8.4217291743
 20
3.4023404278
 30
0.0
 10
8.4250026687
 20
3.4006018234
 30
0.0
 10
8.4283461186
 20
3.3990379427
 30
0.0
 10
8.4326571527
 20
3.3974095173
 30
0.0
 10
8.4371057494
 20
3.3962333604
 30
0.0
 10
8.4407148127
 20
3.3955726267
 30
0.0
 10
8.4443470312
 20
3.3950998182
 30
0.0
 10
8.4470950907
 20
3.3949572981
 30
0.0
 10
8.448924661
 20
3.3949572981
 30
0.0
  0
SPLINE
  5
46F
100
AcDbEntity
  8
0
100
AcDbSpline
 62
7
  6
CONTINUOUS
 70
0
 71
3
 72
23
 73
19
 74
0
 42
0.0000001
 43
0.0000001
 44
0.0000000001
 40
0.0
 40
0.0
 40
0.0
 40
0.0
 40
0.0668100238
 40
0.1334615487
 40
0.199803399
 40
0.2656917698
 40
0.3309988741
 40
0.3956156566
 40
0.4594566789
 40
0.5224636986
 40
0.584608857
 40
0.6458969443
 40
0.7063665715
 40
0.7660900428
 40
0.8251714502
 40
0.8837437554
 40
0.9419620244
 40
1.0
 40
1.0
 40
1.0
 40
1.0
 10
7.855142696
 20
2.7109572981
 30
0.0
 10
7.855142696
 20
2.7128867304
 30
0.0
 10
7.8549784722
 20
2.7167430445
 30
0.0
 10
7.8542414774
 20
2.7224727501
 30
0.0
 10
7.853020962
 20
2.728092564
 30
0.0
 10
7.8513284676
 20
2.7335480934
 30
0.0
 10
7.8491800899
 20
2.7387871515
 30
0.0
 10
7.8465962102
 20
2.7437594133
 30
0.0
 10
7.8436013752
 20
2.7484170932
 30
0.0
 10
7.8402240459
 20
2.752715328
 30
0.0
 10
7.8364963618
 20
2.7566126092
 30
0.0
 10
7.8324538589
 20
2.7600711647
 30
0.0
 10
7.8281351811
 20
2.7630573299
 30
0.0
 10
7.8235817248
 20
2.7655418768
 30
0.0
 10
7.8188373854
 20
2.767500368
 30
0.0
 10
7.8139478009
 20
2.7689133814
 30
0.0
 10
7.8089612502
 20
2.7697669018
 30
0.0
 10
7.805600762
 20
2.7699572981
 30
0.0
 10
7.8039246611
 20
2.7699572981
 30
0.0
  0
SPLINE
  5
470
100
AcDbEntity
  8
0
100
AcDbSpline
 62
7
  6
CONTINUOUS
 70
0
 71
3
 72
10
 73
6
 74
0
 42
0.0000001
 43
0.0000001
 44
0.0000000001
 40
0.0
 40
0.0
 40
0.0
 40
0.0
 40
0.3898743522
 40
0.6808267135
 40
1.0
 40
1.0
 40
1.0
 40
1.0
 10
8.6380883567
 20
3.8322632068
 30
0.0
 10
8.638093712
 20
3.8322632351
 30
0.0
 10
8.6381032965
 20
3.8322635825
 30
0.0
 10
8.6381161176
 20
3.832265215
 30
0.0
 10
8.6381261427
 20
3.8322686355
 30
0.0
 10
8.6381273
 20
3.8322728642
 30
0.0
  0
SPLINE
  5
471
100
AcDbEntity
  8
0
100
AcDbSpline
 62
7
  6
CONTINUOUS
 70
0
 71
3
 72
12
 73
8
 74
0
 42
0.0000001
 43
0.0000001
 44
0.0000000001
 40
0.0
 40
0.0
 40
0.0
 40
0.0
 40
0.4278367222
 40
0.7353216434
 40
0.9232337238
 40
0.9737818404
 40
1.0
 40
1.0
 40
1.0
 40
1.0
 10
8.6423122816
 20
3.8636545241
 30
0.0
 10
8.6423179049
 20
3.8636550009
 30
0.0
 10
8.6423275871
 20
3.8636559169
 30
0.0
 10
8.642339598
 20
3.8636574256
 30
0.0
 10
8.6423467977
 20
3.863658878
 30
0.0
 10
8.6423499764
 20
3.8636600089
 30
0.0
 10
8.6423508595
 20
3.8636608117
 30
0.0
 10
8.6423508623
 20
3.8636611576
 30
0.0
  0
SPLINE
  5
472
100
AcDbEntity
  8
0
100
AcDbSpline
 62
7
  6
CONTINUOUS
 70
0
 71
3
 72
15
 73
11
 74
0
 42
0.0000001
 43
0.0000001
 44
0.0000000001
 40
0.0
 40
0.0
 40
0.0
 40
0.0
 40
0.1254291445
 40
0.2508001519
 40
0.3760660047
 40
0.5011798275
 40
0.6261194763
 40
0.7508840976
 40
0.8754969185
 40
1.0
 40
1.0
 40
1.0
 40
1.0
 10
8.6423122816
 20
3.8636545241
 30
0.0
 10
8.6423130484
 20
3.863961493
 30
0.0
 10
8.6422581914
 20
3.864576909
 30
0.0
 10
8.6420094955
 20
3.8654681452
 30
0.0
 10
8.6416028371
 20
3.8662987703
 30
0.0
 10
8.6410519123
 20
3.867040219
 30
0.0
 10
8.6403754252
 20
3.8676674385
 30
0.0
 10
8.6395961672
 20
3.8681590848
 30
0.0
 10
8.6387409884
 20
3.8684983826
 30
0.0
 10
8.6381384338
 20
3.8686154891
 30
0.0
 10
8.6378352238
 20
3.8686456206
 30
0.0
  0
SPLINE
  5
473
100
AcDbEntity
  8
0
100
AcDbSpline
 62
7
  6
CONTINUOUS
 70
0
 71
3
 72
15
 73
11
 74
0
 42
0.0000001
 43
0.0000001
 44
0.0000000001
 40
0.0
 40
0.0
 40
0.0
 40
0.0
 40
0.1282008318
 40
0.2560758977
 40
0.3832361168
 40
0.5093367005
 40
0.6341311906
 40
0.7574857335
 40
0.8793977328
 40
1.0
 40
1.0
 40
1.0
 40
1.0
 10
8.6342684773
 20
3.8633736282
 30
0.0
 10
8.6342684696
 20
3.8636276096
 30
0.0
 10
8.6342325972
 20
3.8641356546
 30
0.0
 10
8.6340724844
 20
3.8648802962
 30
0.0
 10
8.6338097503
 20
3.8655909817
 30
0.0
 10
8.6334503366
 20
3.8662511047
 30
0.0
 10
8.633002464
 20
3.8668454097
 30
0.0
 10
8.6324762966
 20
3.8673600661
 30
0.0
 10
8.6318841414
 20
3.8677829142
 30
0.0
 10
8.6314519096
 20
3.8679981802
 30
0.0
 10
8.6312301294
 20
3.868087062
 30
0.0
  0
SPLINE
  5
474
100
AcDbEntity
  8
0
100
AcDbSpline
 62
7
  6
CONTINUOUS
 70
0
 71
3
 72
23
 73
19
 74
0
 42
0.0000001
 43
0.0000001
 44
0.0000000001
 40
0.0
 40
0.0
 40
0.0
 40
0.0
 40
0.0668100972
 40
0.1334617159
 40
0.199803674
 40
0.2656921601
 40
0.33099938
 40
0.3956162709
 40
0.4594573866
 40
0.5224644773
 40
0.5846096778
 40
0.6458977725
 40
0.7063673677
 40
0.7660907646
 40
0.8251720544
 40
0.8837441985
 40
0.941962265
 40
1.0
 40
1.0
 40
1.0
 40
1.0
 10
8.3977066261
 20
2.7109572981
 30
0.0
 10
8.397706635
 20
2.7128867307
 30
0.0
 10
8.3978708756
 20
2.7167430454
 30
0.0
 10
8.3986078929
 20
2.7224727507
 30
0.0
 10
8.3998284276
 20
2.7280925643
 30
0.0
 10
8.401520938
 20
2.7335480935
 30
0.0
 10
8.4036693285
 20
2.7387871512
 30
0.0
 10
8.4062532173
 20
2.7437594128
 30
0.0
 10
8.4092480577
 20
2.7484170924
 30
0.0
 10
8.4126253887
 20
2.7527153271
 30
0.0
 10
8.4163530707
 20
2.7566126081
 30
0.0
 10
8.4203955677
 20
2.7600711636
 30
0.0
 10
8.4247142361
 20
2.763057329
 30
0.0
 10
8.4292676796
 20
2.765541876
 30
0.0
 10
8.4340120028
 20
2.7675003674
 30
0.0
 10
8.4389015679
 20
2.7689133809
 30
0.0
 10
8.4438880962
 20
2.7697669016
 30
0.0
 10
8.4472485686
 20
2.7699572981
 30
0.0
 10
8.4489246611
 20
2.7699572981
 30
0.0
  0
LINE
  5
475
100
AcDbEntity
  8
0
100
AcDbLine
 62
7
  6
CONTINUOUS
 10
8.6291633684
 20
3.8735571848
 11
8.629729048
 21
3.8736152176
  0
LINE
  5
476
100
AcDbEntity
  8
0
100
AcDbLine
 62
7
  6
CONTINUOUS
 10
8.628323836
 20
3.8803946274
 11
8.6288867519
 21
3.8804751687
  0
SPLINE
  5
477
100
AcDbEntity
  8
0
100
AcDbSpline
 62
7
  6
CONTINUOUS
 70
0
 71
3
 72
27
 73
23
 74
0
 42
0.0000001
 43
0.0000001
 44
0.0000000001
 40
0.0
 40
0.0
 40
0.0
 40
0.0
 40
0.0641500306
 40
0.096214495
 40
0.1282543218
 40
0.192219342
 40
0.2560058025
 40
0.2878254024
 40
0.3195825686
 40
0.3828727213
 40
0.445862944
 40
0.5085331835
 40
0.5708754825
 40
0.6328944599
 40
0.6946073185
 40
0.7253675326
 40
0.7560631801
 40
0.817262801
 40
0.8782763088
 40
0.9087401278
 40
0.9391807976
 40
1.0
 40
1.0
 40
1.0
 40
1.0
 10
7.8598467771
 20
3.4539572981
 30
0.0
 10
7.8598467772
 20
3.4520275294
 30
0.0
 10
7.8597119626
 20
3.4491308224
 30
0.0
 10
7.8592638545
 20
3.4452977713
 30
0.0
 10
7.8586385359
 20
3.4414949699
 30
0.0
 10
7.857527051
 20
3.4368107479
 30
0.0
 10
7.8559835193
 20
3.4322574676
 30
0.0
 10
7.854499097
 20
3.4287239902
 30
0.0
 10
7.8528554109
 20
3.4252783071
 30
0.0
 10
7.8505041298
 20
3.4211373153
 30
0.0
 10
7.8472314325
 20
3.4164794178
 30
0.0
 10
7.8435413586
 20
3.4121817192
 30
0.0
 10
7.8394693434
 20
3.4082859342
 30
0.0
 10
7.8350547773
 20
3.4048297863
 30
0.0
 10
7.8311201483
 20
3.4023404278
 30
0.0
 10
7.8278466539
 20
3.4006018234
 30
0.0
 10
7.8245032039
 20
3.3990379427
 30
0.0
 10
7.8201921697
 20
3.3974095173
 30
0.0
 10
7.815743573
 20
3.3962333604
 30
0.0
 10
7.8121345096
 20
3.3955726267
 30
0.0
 10
7.808502291
 20
3.3950998182
 30
0.0
 10
7.8057542314
 20
3.3949572981
 30
0.0
 10
7.8039246611
 20
3.3949572981
 30
0.0
  0
SPLINE
  5
478
100
AcDbEntity
  8
0
100
AcDbSpline
 62
7
  6
CONTINUOUS
 70
0
 71
3
 72
15
 73
11
 74
0
 42
0.0000001
 43
0.0000001
 44
0.0000000001
 40
0.0
 40
0.0
 40
0.0
 40
0.0
 40
0.1282005392
 40
0.2560753581
 40
0.383235416
 40
0.5093359538
 40
0.6341305209
 40
0.7574852465
 40
0.8793974916
 40
1.0
 40
1.0
 40
1.0
 40
1.0
 10
8.630813676
 20
3.8915107264
 30
0.0
 10
8.6308751087
 20
3.8912643018
 30
0.0
 10
8.6309632059
 20
3.8907626991
 30
0.0
 10
8.6309880022
 20
3.890001486
 30
0.0
 10
8.6309050231
 20
3.8892483912
 30
0.0
 10
8.6307160158
 20
3.888520962
 30
0.0
 10
8.6304252651
 20
3.887835987
 30
0.0
 10
8.6300392853
 20
3.8872093423
 30
0.0
 10
8.6295670741
 20
3.8866558016
 30
0.0
 10
8.6291998006
 20
3.8863423551
 30
0.0
 10
8.6290061315
 20
3.886202453
 30
0.0
  0
SPLINE
  5
479
100
AcDbEntity
  8
0
100
AcDbSpline
 62
7
  6
CONTINUOUS
 70
0
 71
3
 72
15
 73
11
 74
0
 42
0.0000001
 43
0.0000001
 44
0.0000000001
 40
0.0
 40
0.0
 40
0.0
 40
0.0
 40
0.1254726253
 40
0.2508776829
 40
0.3761568472
 40
0.5012618612
 40
0.6261741176
 40
0.7509033937
 40
0.875487752
 40
1.0
 40
1.0
 40
1.0
 40
1.0
 10
8.6386864999
 20
3.8931841468
 30
0.0
 10
8.6387682425
 20
3.8928597492
 30
0.0
 10
8.6388671358
 20
3.8921928901
 30
0.0
 10
8.6388141426
 20
3.8911849878
 30
0.0
 10
8.6385623707
 20
3.8902081922
 30
0.0
 10
8.6381217837
 20
3.8893023032
 30
0.0
 10
8.6375100939
 20
3.8885037408
 30
0.0
 10
8.6367517965
 20
3.8878447222
 30
0.0
 10
8.6358779282
 20
3.8873519839
 30
0.0
 10
8.6352404455
 20
3.8871473205
 30
0.0
 10
8.6349157226
 20
3.8870782986
 30
0.0
  0
SPLINE
  5
47A
100
AcDbEntity
  8
0
100
AcDbSpline
 62
7
  6
CONTINUOUS
 70
0
 71
3
 72
12
 73
8
 74
0
 42
0.0000001
 43
0.0000001
 44
0.0000000001
 40
0.0
 40
0.0
 40
0.0
 40
0.0
 40
0.4278098915
 40
0.7352876266
 40
0.92321175
 40
0.9737719424
 40
1.0
 40
1.0
 40
1.0
 40
1.0
 10
8.6386864999
 20
3.8931841468
 30
0.0
 10
8.6386920711
 20
3.8931850445
 30
0.0
 10
8.6387016866
 20
3.893186498
 30
0.0
 10
8.6387137053
 20
3.8931879396
 30
0.0
 10
8.6387210427
 20
3.8931882726
 30
0.0
 10
8.6387244009
 20
3.8931879442
 30
0.0
 10
8.6387254524
 20
3.8931873794
 30
0.0
 10
8.6387255392
 20
3.8931870444
 30
0.0
  0
SPLINE
  5
47B
100
AcDbEntity
  8
0
100
AcDbSpline
 62
7
  6
CONTINUOUS
 70
0
 71
3
 72
10
 73
6
 74
0
 42
0.0000001
 43
0.0000001
 44
0.0000000001
 40
0.0
 40
0.0
 40
0.0
 40
0.0
 40
0.3898741489
 40
0.6808264262
 40
1.0
 40
1.0
 40
1.0
 40
1.0
 10
8.6269937966
 20
3.9226211479
 30
0.0
 10
8.6269989997
 20
3.922622416
 30
0.0
 10
8.6270083835
 20
3.9226243976
 30
0.0
 10
8.6270212187
 20
3.9226259153
 30
0.0
 10
8.6270317735
 20
3.9226250216
 30
0.0
 10
8.6270339194
 20
3.9226211985
 30
0.0
  0
LINE
  5
47C
100
AcDbEntity
  8
0
100
AcDbLine
 62
7
  6
CONTINUOUS
 10
7.5759973071
 20
7.3168322981
 11
7.5759973071
 21
6.9812072981
  0
SPLINE
  5
47D
100
AcDbEntity
  8
0
100
AcDbSpline
 62
7
  6
CONTINUOUS
 70
0
 71
3
 72
42
 73
38
 74
0
 42
0.0000001
 43
0.0000001
 44
0.0000000001
 40
0.0
 40
0.0
 40
0.0
 40
0.0
 40
0.0096208676
 40
0.0195251605
 40
0.0297129464
 40
0.0401818649
 40
0.0619484745
 40
0.0847843906
 40
0.1086372079
 40
0.1334501304
 40
0.1591692495
 40
0.1857437558
 40
0.2131293563
 40
0.2412872027
 40
0.2701855912
 40
0.2997978218
 40
0.3301029576
 40
0.3455097752
 40
0.3610830887
 40
0.3927188052
 40
0.4249919093
 40
0.4578796264
 40
0.4745461277
 40
0.4913555247
 40
0.5253843671
 40
0.5599302528
 40
0.5949521119
 40
0.6304083137
 40
0.6662561109
 40
0.7024542302
 40
0.7757405361
 40
0.8127518087
 40
0.849959435
 40
0.8873250696
 40
0.9248124085
 40
0.9623853304
 40
1.0
 40
1.0
 40
1.0
 40
1.0
 10
7.8834530417
 20
4.9485099334
 30
0.0
 10
7.8842358984
 20
4.9485440361
 30
0.0
 10
7.8858234199
 20
4.9486445955
 30
0.0
 10
7.8882324826
 20
4.9488787411
 30
0.0
 10
7.8907022704
 20
4.94919085
 30
0.0
 10
7.8941189213
 20
4.9497079908
 30
0.0
 10
7.8985317422
 20
4.9505175974
 30
0.0
 10
7.903986288
 20
4.9516746145
 30
0.0
 10
7.909661699
 20
4.9529809692
 30
0.0
 10
7.9155543204
 20
4.9543889222
 30
0.0
 10
7.9216614469
 20
4.9558529879
 30
0.0
 10
7.9279813347
 20
4.957328228
 30
0.0
 10
7.934512529
 20
4.9587706095
 30
0.0
 10
7.9412535134
 20
4.9601369276
 30
0.0
 10
7.9482021318
 20
4.9613842156
 30
0.0
 10
7.9553546118
 20
4.9624725792
 30
0.0
 10
7.9614461994
 20
4.9632105994
 30
0.0
 10
7.966414985
 20
4.9636890173
 30
0.0
 10
7.9714992693
 20
4.9640908847
 30
0.0
 10
7.9779654077
 20
4.9644317521
 30
0.0
 10
7.9858496886
 20
4.964567036
 30
0.0
 10
7.9925147154
 20
4.9644505593
 30
0.0
 10
7.9979152899
 20
4.9642231527
 30
0.0
 10
8.0034044681
 20
4.9639062254
 30
0.0
 10
8.0103374596
 20
4.9633487554
 30
0.0
 10
8.0187283986
 20
4.9624542045
 30
0.0
 10
8.0272129887
 20
4.9613626526
 30
0.0
 10
8.0357826139
 20
4.9601126707
 30
0.0
 10
8.0444309614
 20
4.9587441661
 30
0.0
 10
8.0561089928
 20
4.9568106535
 30
0.0
 10
8.0678739215
 20
4.9548215828
 30
0.0
 10
8.0797415023
 20
4.9529504516
 30
0.0
 10
8.088735895
 20
4.9516449364
 30
0.0
 10
8.0977902388
 20
4.9504902104
 30
0.0
 10
8.1068982196
 20
4.9495358562
 30
0.0
 10
8.1160499618
 20
4.9488359569
 30
0.0
 10
8.1221700848
 20
4.9485771091
 30
0.0
 10
8.1252329829
 20
4.9485099334
 30
0.0
  0
LINE
  5
47E
100
AcDbEntity
  8
0
100
AcDbLine
 62
7
  6
CONTINUOUS
 10
7.7907996611
 20
6.4307799442
 11
8.1264246611
 21
6.4307799442
  0
SPLINE
  5
47F
100
AcDbEntity
  8
0
100
AcDbSpline
 62
7
  6
CONTINUOUS
 70
0
 71
3
 72
42
 73
38
 74
0
 42
0.0000001
 43
0.0000001
 44
0.0000000001
 40
0.0
 40
0.0
 40
0.0
 40
0.0
 40
0.0376146709
 40
0.0751876051
 40
0.1126749513
 40
0.1500405847
 40
0.1872482125
 40
0.2242594868
 40
0.297545796
 40
0.3337439159
 40
0.3695917169
 40
0.4050479154
 40
0.4400697755
 40
0.474615661
 40
0.5086445019
 40
0.525453898
 40
0.5421203995
 40
0.5750081145
 40
0.6072812182
 40
0.6389169317
 40
0.6544902462
 40
0.6698970638
 40
0.7002022042
 40
0.7298144329
 40
0.7587128173
 40
0.7868706565
 40
0.8142562507
 40
0.840830754
 40
0.8665498764
 40
0.8913627961
 40
0.9152155751
 40
0.9380514894
 40
0.9598181645
 40
0.9702870943
 40
0.9804748633
 40
0.9903791372
 40
1.0
 40
1.0
 40
1.0
 40
1.0
 10
8.1276163392
 20
4.9485099334
 30
0.0
 10
8.1306792376
 20
4.9485771052
 30
0.0
 10
8.136799362
 20
4.9488359567
 30
0.0
 10
8.1459511066
 20
4.9495358474
 30
0.0
 10
8.155059091
 20
4.9504901885
 30
0.0
 10
8.1641134327
 20
4.9516449395
 30
0.0
 10
8.1731078231
 20
4.9529504726
 30
0.0
 10
8.1849754082
 20
4.954821583
 30
0.0
 10
8.1967403397
 20
4.9568106428
 30
0.0
 10
8.2084183701
 20
4.9587441685
 30
0.0
 10
8.2170667166
 20
4.9601126822
 30
0.0
 10
8.2256363436
 20
4.9613626564
 30
0.0
 10
8.2341209357
 20
4.9624541928
 30
0.0
 10
8.2425118731
 20
4.9633487591
 30
0.0
 10
8.2494448636
 20
4.9639062447
 30
0.0
 10
8.2549340421
 20
4.9642231678
 30
0.0
 10
8.2603346168
 20
4.9644505691
 30
0.0
 10
8.2669996436
 20
4.9645670454
 30
0.0
 10
8.2748839245
 20
4.9644317733
 30
0.0
 10
8.2813500635
 20
4.9640909126
 30
0.0
 10
8.2864343475
 20
4.9636890415
 30
0.0
 10
8.2914031321
 20
4.9632106042
 30
0.0
 10
8.2974947168
 20
4.9624725579
 30
0.0
 10
8.3046471971
 20
4.9613841966
 30
0.0
 10
8.3115958172
 20
4.9601369228
 30
0.0
 10
8.3183368022
 20
4.9587706133
 30
0.0
 10
8.324867997
 20
4.9573282386
 30
0.0
 10
8.3311878846
 20
4.9558529989
 30
0.0
 10
8.3372950084
 20
4.9543889217
 30
0.0
 10
8.3431876245
 20
4.9529809588
 30
0.0
 10
8.3488630455
 20
4.9516746601
 30
0.0
 10
8.3543175985
 20
4.9505176721
 30
0.0
 10
8.358730399
 20
4.9497079234
 30
0.0
 10
8.3621470464
 20
4.9491907213
 30
0.0
 10
8.3646168371
 20
4.9488786454
 30
0.0
 10
8.3670259033
 20
4.9486445684
 30
0.0
 10
8.3686134241
 20
4.948544037
 30
0.0
 10
8.3693962804
 20
4.9485099334
 30
0.0
  0
SPLINE
  5
480
100
AcDbEntity
  8
0
100
AcDbSpline
 62
7
  6
CONTINUOUS
 70
0
 71
3
 72
47
 73
43
 74
0
 42
0.0000001
 43
0.0000001
 44
0.0000000001
 40
0.0
 40
0.0
 40
0.0
 40
0.0
 40
0.1077849613
 40
0.2099484072
 40
0.3067463126
 40
0.3983209527
 40
0.4847002919
 40
0.5657900774
 40
0.6413878241
 40
0.7111796703
 40
0.7437754428
 40
0.7747587463
 40
0.804065063
 40
0.8316256453
 40
0.8573679689
 40
0.8812171043
 40
0.9030970615
 40
0.9229294842
 40
0.940635677
 40
0.956148375
 40
0.9630625219
 40
0.9694045688
 40
0.9751664786
 40
0.9803410433
 40
0.9849229723
 40
0.988907211
 40
0.9922886803
 40
0.9937517831
 40
0.9950622785
 40
0.9962195257
 40
0.9972228828
 40
0.9980718434
 40
0.9987663374
 40
0.999055665
 40
0.9993063825
 40
0.9995184921
 40
0.999691996
 40
0.9998268964
 40
0.9999231955
 40
0.9999568703
 40
0.9999808957
 40
1.0
 40
1.0
 40
1.0
 40
1.0
 10
8.3705879586
 20
4.9485099334
 30
0.0
 10
8.3720678558
 20
4.9485753686
 30
0.0
 10
8.3749466934
 20
4.9488208275
 30
0.0
 10
8.3791092051
 20
4.9495135513
 30
0.0
 10
8.3829913263
 20
4.9504627799
 30
0.0
 10
8.3865912624
 20
4.9516117242
 30
0.0
 10
8.3899083135
 20
4.952911033
 30
0.0
 10
8.3929426679
 20
4.9543125755
 30
0.0
 10
8.3956945109
 20
4.9557700708
 30
0.0
 10
8.3977980059
 20
4.9570205255
 30
0.0
 10
8.3993409393
 20
4.9580102724
 30
0.0
 10
8.4004009389
 20
4.9587217985
 30
0.0
 10
8.4013900581
 20
4.9594142997
 30
0.0
 10
8.4023080229
 20
4.960082487
 30
0.0
 10
8.4031545774
 20
4.960721052
 30
0.0
 10
8.4039294334
 20
4.9613248077
 30
0.0
 10
8.4046321408
 20
4.9618888434
 30
0.0
 10
8.4052622839
 20
4.962408285
 30
0.0
 10
8.4058196902
 20
4.9628783066
 30
0.0
 10
8.406237743
 20
4.9632381261
 30
0.0
 10
8.4065355761
 20
4.963498176
 30
0.0
 10
8.4067317398
 20
4.9636709106
 30
0.0
 10
8.4069093707
 20
4.9638285123
 30
0.0
 10
8.4070684452
 20
4.9639705779
 30
0.0
 10
8.4072089014
 20
4.9640968115
 30
0.0
 10
8.4073307057
 20
4.9642069306
 30
0.0
 10
8.4074204967
 20
4.9642885438
 30
0.0
 10
8.407482996
 20
4.9643455498
 30
0.0
 10
8.4075228763
 20
4.964381993
 30
0.0
 10
8.4075580698
 20
4.9644141985
 30
0.0
 10
8.4075885736
 20
4.9644421328
 30
0.0
 10
8.4076143907
 20
4.9644657686
 30
0.0
 10
8.4076329723
 20
4.9644827732
 30
0.0
 10
8.4076454918
 20
4.964494227
 30
0.0
 10
8.4076531186
 20
4.9645011996
 30
0.0
 10
8.4076595778
 20
4.9645071106
 30
0.0
 10
8.4076648472
 20
4.9645119071
 30
0.0
 10
8.4076689854
 20
4.9645157306
 30
0.0
 10
8.4076716125
 20
4.964518031
 30
0.0
 10
8.4076732627
 20
4.9645196596
 30
0.0
 10
8.4076738967
 20
4.9645200116
 30
0.0
 10
8.407674621
 20
4.9645210957
 30
0.0
 10
8.4076746392
 20
4.9645208338
 30
0.0
  0
SPLINE
  5
481
100
AcDbEntity
  8
0
100
AcDbSpline
 62
7
  6
CONTINUOUS
 70
0
 71
3
 72
31
 73
27
 74
0
 42
0.0000001
 43
0.0000001
 44
0.0000000001
 40
0.0
 40
0.0
 40
0.0
 40
0.0
 40
0.0078367122
 40
0.0124023555
 40
0.0175097886
 40
0.0232140754
 40
0.0295513202
 40
0.0441978383
 40
0.0615333046
 40
0.0815461462
 40
0.104175293
 40
0.1293264824
 40
0.1568812609
 40
0.1867030255
 40
0.2525198624
 40
0.3254044078
 40
0.4037903273
 40
0.4859440839
 40
0.56998176
 40
0.6538957995
 40
0.7356003125
 40
0.8129941958
 40
0.8840470778
 40
0.9469012993
 40
0.9747564251
 40
1.0
 40
1.0
 40
1.0
 40
1.0
 10
7.4782400565
 20
3.7054981208
 30
0.0
 10
7.4781885209
 20
3.7055012096
 30
0.0
 10
7.4781079902
 20
3.7055261025
 30
0.0
 10
7.4780082592
 20
3.7055840915
 30
0.0
 10
7.477927363
 20
3.7056455529
 30
0.0
 10
7.4778445511
 20
3.7057225828
 30
0.0
 10
7.4777256567
 20
3.70585232
 30
0.0
 10
7.4775742056
 20
3.706054993
 30
0.0
 10
7.4773936083
 20
3.7063463599
 30
0.0
 10
7.4772073582
 20
3.7066950915
 30
0.0
 10
7.4770165782
 20
3.7070990643
 30
0.0
 10
7.4768224274
 20
3.7075559343
 30
0.0
 10
7.4766260544
 20
3.708063009
 30
0.0
 10
7.4763538002
 20
3.708827665
 30
0.0
 10
7.476019399
 20
3.7098867224
 30
0.0
 10
7.4756391378
 20
3.711265666
 30
0.0
 10
7.4752770355
 20
3.7127604594
 30
0.0
 10
7.4749419404
 20
3.7143367032
 30
0.0
 10
7.4746423428
 20
3.7159571226
 30
0.0
 10
7.4743860926
 20
3.7175819697
 30
0.0
 10
7.4741801783
 20
3.7191698491
 30
0.0
 10
7.4740303054
 20
3.7206789295
 30
0.0
 10
7.4739407544
 20
3.7220683829
 30
0.0
 10
7.4739170505
 20
3.7231343172
 30
0.0
 10
7.473933866
 20
3.7238981353
 30
0.0
 10
7.47395363
 20
3.7242474959
 30
0.0
 10
7.4739667392
 20
3.7244132827
 30
0.0
  0
SPLINE
  5
482
100
AcDbEntity
  8
0
100
AcDbSpline
 62
7
  6
CONTINUOUS
 70
0
 71
3
 72
39
 73
35
 74
0
 42
0.0000001
 43
0.0000001
 44
0.0000000001
 40
0.0
 40
0.0
 40
0.0
 40
0.0
 40
0.2323664457
 40
0.3372393756
 40
0.4345404505
 40
0.5242430623
 40
0.6063219524
 40
0.6807437891
 40
0.7474690604
 40
0.8064616347
 40
0.8576841567
 40
0.8803689381
 40
0.9010956025
 40
0.9198603535
 40
0.9366603825
 40
0.951492835
 40
0.9643547947
 40
0.9752432867
 40
0.9799465378
 40
0.9841552819
 40
0.9878691339
 40
0.9910877934
 40
0.9938112174
 40
0.9960394112
 40
0.9969677984
 40
0.99777238
 40
0.9984531567
 40
0.9990101291
 40
0.999443298
 40
0.9997526642
 40
0.9998609217
 40
0.9999382291
 40
0.9999845871
 40
1.0
 40
1.0
 40
1.0
 40
1.0
 10
8.397897764
 20
4.8477072981
 30
0.0
 10
8.3986583051
 20
4.847707292
 30
0.0
 10
8.3997622538
 20
4.8476868755
 30
0.0
 10
8.4011830586
 20
4.8476215874
 30
0.0
 10
8.4021365768
 20
4.8475622554
 30
0.0
 10
8.4030147013
 20
4.8474943798
 30
0.0
 10
8.4038172051
 20
4.8474209686
 30
0.0
 10
8.4045438954
 20
4.8473450882
 30
0.0
 10
8.405194636
 20
4.8472698625
 30
0.0
 10
8.4057692382
 20
4.8471975119
 30
0.0
 10
8.4062003058
 20
4.8471392276
 30
0.0
 10
8.4065070033
 20
4.8470959224
 30
0.0
 10
8.4067084201
 20
4.8470668471
 30
0.0
 10
8.4068906987
 20
4.8470400105
 30
0.0
 10
8.4070538243
 20
4.8470155347
 30
0.0
 10
8.4071977871
 20
4.8469935519
 30
0.0
 10
8.4073225772
 20
4.8469741917
 30
0.0
 10
8.4074145761
 20
4.8469597229
 30
0.0
 10
8.4074785843
 20
4.8469495762
 30
0.0
 10
8.4075193958
 20
4.8469430833
 30
0.0
 10
8.4075554068
 20
4.8469373437
 30
0.0
 10
8.4075866176
 20
4.846932373
 30
0.0
 10
8.4076130268
 20
4.8469281707
 30
0.0
 10
8.4076320338
 20
4.8469251497
 30
0.0
 10
8.4076448382
 20
4.8469231177
 30
0.0
 10
8.4076526417
 20
4.8469218799
 30
0.0
 10
8.4076592421
 20
4.846920837
 30
0.0
 10
8.4076646497
 20
4.8469199773
 30
0.0
 10
8.4076688368
 20
4.8469193318
 30
0.0
 10
8.4076716178
 20
4.8469188673
 30
0.0
 10
8.4076731784
 20
4.8469186638
 30
0.0
 10
8.4076739947
 20
4.8469184748
 30
0.0
 10
8.4076743284
 20
4.8469185372
 30
0.0
 10
8.4076746489
 20
4.8469183742
 30
0.0
 10
8.4076746498
 20
4.8469184246
 30
0.0
  0
LINE
  5
483
100
AcDbEntity
  8
0
100
AcDbLine
 62
7
  6
CONTINUOUS
 10
7.4655389831
 20
3.7490710039
 11
7.4652582405
 21
3.7493773964
  0
SPLINE
  5
484
100
AcDbEntity
  8
0
100
AcDbSpline
 62
7
  6
CONTINUOUS
 70
0
 71
3
 72
21
 73
17
 74
0
 42
0.0000001
 43
0.0000001
 44
0.0000000001
 40
0.0
 40
0.0
 40
0.0
 40
0.0
 40
0.0111682581
 40
0.0226287429
 40
0.0476497782
 40
0.0772078209
 40
0.1125157636
 40
0.1541984972
 40
0.2025183082
 40
0.2575081648
 40
0.3190434599
 40
0.3868794956
 40
0.4606718109
 40
0.6243242513
 40
0.8057909357
 40
1.0
 40
1.0
 40
1.0
 40
1.0
 10
7.4754567532
 20
3.8781235856
 30
0.0
 10
7.4754244955
 20
3.8781255059
 30
0.0
 10
7.4753593427
 20
3.8781355454
 30
0.0
 10
7.4752285674
 20
3.8781813143
 30
0.0
 10
7.4750681014
 20
3.8782908668
 30
0.0
 10
7.4748956941
 20
3.8784878509
 30
0.0
 10
7.4747351264
 20
3.8787523216
 30
0.0
 10
7.4745865901
 20
3.8790837988
 30
0.0
 10
7.4744506132
 20
3.8794811454
 30
0.0
 10
7.4743281951
 20
3.8799424546
 30
0.0
 10
7.4742203114
 20
3.8804650989
 30
0.0
 10
7.4741278721
 20
3.881045804
 30
0.0
 10
7.4740227141
 20
3.8819230132
 30
0.0
 10
7.4739396039
 20
3.8831330556
 30
0.0
 10
7.4739124353
 20
3.8846938358
 30
0.0
 10
7.473941078
 20
3.8857808361
 30
0.0
 10
7.4739667392
 20
3.8863421844
 30
0.0
  0
LINE
  5
485
100
AcDbEntity
  8
0
100
AcDbLine
 62
7
  6
CONTINUOUS
 10
8.6269937966
 20
3.9226211479
 11
8.62289697
 21
3.9301345856
  0
LINE
  5
486
100
AcDbEntity
  8
0
100
AcDbLine
 62
7
  6
CONTINUOUS
 10
8.62289697
 20
3.9301345856
 11
8.6219702746
 21
3.9321402325
  0
LINE
  5
487
100
AcDbEntity
  8
0
100
AcDbLine
 62
7
  6
CONTINUOUS
 10
8.6355169298
 20
3.8218115797
 11
8.6359285274
 21
3.823972018
  0
LINE
  5
488
100
AcDbEntity
  8
0
100
AcDbLine
 62
7
  6
CONTINUOUS
 10
8.6359285274
 20
3.823972018
 11
8.6378708557
 21
3.8314616558
  0
LINE
  5
489
100
AcDbEntity
  8
0
100
AcDbLine
 62
7
  6
CONTINUOUS
 10
8.6378708557
 20
3.8314616558
 11
8.6380883567
 21
3.8322632068
  0
SPLINE
  5
48A
100
AcDbEntity
  8
0
100
AcDbSpline
 62
7
  6
CONTINUOUS
 70
0
 71
3
 72
16
 73
12
 74
0
 42
0.0000001
 43
0.0000001
 44
0.0000000001
 40
0.0
 40
0.0
 40
0.0
 40
0.0
 40
0.0416101786
 40
0.0842779283
 40
0.1750914353
 40
0.2767518498
 40
0.391847268
 40
0.521655146
 40
0.6665737378
 40
0.8262870992
 40
1.0
 40
1.0
 40
1.0
 40
1.0
 10
8.6342684773
 20
3.8633736282
 30
0.0
 10
8.6341881917
 20
3.8633708524
 30
0.0
 10
8.6340249324
 20
3.863377288
 30
0.0
 10
8.6336914525
 20
3.8634379972
 30
0.0
 10
8.6332654788
 20
3.8636086276
 30
0.0
 10
8.6327714571
 20
3.8639440852
 30
0.0
 10
8.6322866111
 20
3.8644087333
 30
0.0
 10
8.6318149817
 20
3.8649973871
 30
0.0
 10
8.6313618378
 20
3.8657046976
 30
0.0
 10
8.6309325329
 20
3.8665234165
 30
0.0
 10
8.6306765717
 20
3.8671147177
 30
0.0
 10
8.6305529994
 20
3.8674264959
 30
0.0
  0
SPLINE
  5
48B
100
AcDbEntity
  8
0
100
AcDbSpline
 62
7
  6
CONTINUOUS
 70
0
 71
3
 72
11
 73
7
 74
0
 42
0.0000001
 43
0.0000001
 44
0.0000000001
 40
0.0
 40
0.0
 40
0.0
 40
0.0
 40
0.2306288986
 40
0.4767475988
 40
0.7346587176
 40
1.0
 40
1.0
 40
1.0
 40
1.0
 10
8.6305529994
 20
3.8674264959
 30
0.0
 10
8.6303954014
 20
3.8678241224
 30
0.0
 10
8.6301022918
 20
3.8686592651
 30
0.0
 10
8.6297388116
 20
3.8699732892
 30
0.0
 10
8.6294445946
 20
3.8713703547
 30
0.0
 10
8.6293007389
 20
3.8723306906
 30
0.0
 10
8.629241716
 20
3.8728192345
 30
0.0
  0
SPLINE
  5
48C
100
AcDbEntity
  8
0
100
AcDbSpline
 62
7
  6
CONTINUOUS
 70
0
 71
3
 72
11
 73
7
 74
0
 42
0.0000001
 43
0.0000001
 44
0.0000000001
 40
0.0
 40
0.0
 40
0.0
 40
0.0
 40
0.265372043
 40
0.5232808056
 40
0.769392264
 40
1.0
 40
1.0
 40
1.0
 40
1.0
 10
8.628220245
 20
3.8811375387
 30
0.0
 10
8.6281594274
 20
3.8816256788
 30
0.0
 10
8.6280670884
 20
3.882591914
 30
0.0
 10
8.6280152107
 20
3.8840180212
 30
0.0
 10
8.6280503074
 20
3.8853802165
 30
0.0
 10
8.6281328808
 20
3.8862609593
 30
0.0
 10
8.6281897103
 20
3.8866846373
 30
0.0
  0
SPLINE
  5
48D
100
AcDbEntity
  8
0
100
AcDbSpline
 62
7
  6
CONTINUOUS
 70
0
 71
3
 72
16
 73
12
 74
0
 42
0.0000001
 43
0.0000001
 44
0.0000000001
 40
0.0
 40
0.0
 40
0.0
 40
0.0
 40
0.17369239
 40
0.3333983268
 40
0.4782932342
 40
0.6080956561
 40
0.7231900941
 40
0.8248740278
 40
0.915702946
 40
0.9583795673
 40
1.0
 40
1.0
 40
1.0
 40
1.0
 10
8.6281897103
 20
3.8866846373
 30
0.0
 10
8.6282342506
 20
3.8870166962
 30
0.0
 10
8.628339738
 20
3.8876516801
 30
0.0
 10
8.6285581615
 20
3.8885489999
 30
0.0
 10
8.6288268899
 20
3.8893439969
 30
0.0
 10
8.6291419532
 20
3.8900285258
 30
0.0
 10
8.6294999695
 20
3.8905959896
 30
0.0
 10
8.6298977754
 20
3.8910407119
 30
0.0
 10
8.6302696468
 20
3.8913090506
 30
0.0
 10
8.6305783893
 20
3.8914483742
 30
0.0
 10
8.6307351517
 20
3.8914940236
 30
0.0
 10
8.630813676
 20
3.8915107264
 30
0.0
  0
SPLINE
  5
48E
100
AcDbEntity
  8
0
100
AcDbSpline
 62
7
  6
CONTINUOUS
 70
0
 71
3
 72
19
 73
15
 74
0
 42
0.0000001
 43
0.0000001
 44
0.0000000001
 40
0.0
 40
0.0
 40
0.0
 40
0.0
 40
0.0193426657
 40
0.0404254322
 40
0.065605985
 40
0.0963118285
 40
0.1333172938
 40
0.1770401857
 40
0.2277153638
 40
0.2854589516
 40
0.4222584562
 40
0.5873701508
 40
0.7802730017
 40
1.0
 40
1.0
 40
1.0
 40
1.0
 10
7.4741112808
 20
3.9638477966
 30
0.0
 10
7.4741000808
 20
3.9638484602
 30
0.0
 10
7.4740766937
 20
3.9638547374
 30
0.0
 10
7.4740460895
 20
3.9638785573
 30
0.0
 10
7.4740197016
 20
3.9639150414
 30
0.0
 10
7.473996732
 20
3.9639640063
 30
0.0
 10
7.4739768922
 20
3.9640256479
 30
0.0
 10
7.4739601302
 20
3.964100077
 30
0.0
 10
7.47394647
 20
3.9641873118
 30
0.0
 10
7.4739316093
 20
3.9643288179
 30
0.0
 10
7.4739225532
 20
3.964537408
 30
0.0
 10
7.4739245662
 20
3.9648244837
 30
0.0
 10
7.4739392322
 20
3.9651593417
 30
0.0
 10
7.4739563239
 20
3.965398102
 30
0.0
 10
7.4739667392
 20
3.9655251281
 30
0.0
  0
SPLINE
  5
48F
100
AcDbEntity
  8
0
100
AcDbSpline
 62
7
  6
CONTINUOUS
 70
0
 71
3
 72
22
 73
18
 74
0
 42
0.0000001
 43
0.0000001
 44
0.0000000001
 40
0.0
 40
0.0
 40
0.0
 40
0.0
 40
0.1320457036
 40
0.1977994087
 40
0.2631681182
 40
0.328042422
 40
0.3923308901
 40
0.4559619661
 40
0.5188876822
 40
0.5810859782
 40
0.6425624675
 40
0.7033512201
 40
0.7635142136
 40
0.8231401549
 40
0.8823399755
 40
0.9412461138
 40
1.0
 40
1.0
 40
1.0
 40
1.0
 10
8.4024246448
 20
3.6008549501
 30
0.0
 10
8.4034038212
 20
3.6008549486
 30
0.0
 10
8.404874904
 20
3.6009830303
 30
0.0
 10
8.4067816307
 20
3.6014066934
 30
0.0
 10
8.408168982
 20
3.6018468115
 30
0.0
 10
8.4095010463
 20
3.6024054686
 30
0.0
 10
8.4107652887
 20
3.6030773529
 30
0.0
 10
8.4119494812
 20
3.6038560733
 30
0.0
 10
8.4130422329
 20
3.6047342121
 30
0.0
 10
8.4140329847
 20
3.6057033962
 30
0.0
 10
8.4149121419
 20
3.6067543669
 30
0.0
 10
8.4156711549
 20
3.6078770608
 30
0.0
 10
8.4163026195
 20
3.6090607016
 30
0.0
 10
8.4168003331
 20
3.6102938734
 30
0.0
 10
8.4171594137
 20
3.6115647215
 30
0.0
 10
8.417376284
 20
3.6128607161
 30
0.0
 10
8.4174246618
 20
3.6137339821
 30
0.0
 10
8.4174246611
 20
3.6141696677
 30
0.0
  0
LINE
  5
490
100
AcDbEntity
  8
0
100
AcDbLine
 62
7
  6
CONTINUOUS
 10
8.4094891757
 20
3.5647551877
 11
8.4024246115
 21
3.6008550103
  0
SPLINE
  5
491
100
AcDbEntity
  8
0
100
AcDbSpline
 62
7
  6
CONTINUOUS
 70
0
 71
3
 72
109
 73
105
 74
0
 42
0.0000001
 43
0.0000001
 44
0.0000000001
 40
0.0
 40
0.0
 40
0.0
 40
0.0
 40
0.0259690821
 40
0.0545137239
 40
0.0851086459
 40
0.1173408487
 40
0.1508863253
 40
0.1854896342
 40
0.2031227674
 40
0.2209472418
 40
0.2389436875
 40
0.2570943728
 40
0.2753831878
 40
0.2937954282
 40
0.3030436123
 40
0.3123176849
 40
0.3309374684
 40
0.3402804495
 40
0.3496436958
 40
0.359025825
 40
0.3684257547
 40
0.3778421127
 40
0.3872739553
 40
0.3919953214
 40
0.3967202241
 40
0.4061793247
 40
0.4156505646
 40
0.4251325135
 40
0.4298775315
 40
0.4346248816
 40
0.4393741649
 40
0.4441254275
 40
0.4488780619
 40
0.4536320233
 40
0.458387149
 40
0.4631427462
 40
0.4678985688
 40
0.4726545737
 40
0.4774100421
 40
0.4821648225
 40
0.4869185809
 40
0.4916708362
 40
0.4964216639
 40
0.5011704897
 40
0.5059172954
 40
0.5106617497
 40
0.5201424178
 40
0.5296121866
 40
0.539069781
 40
0.5485140959
 40
0.5579440844
 40
0.5673584374
 40
0.5767562183
 40
0.5954966544
 40
0.6141555711
 40
0.6234511427
 40
0.6327221109
 40
0.641967008
 40
0.6511842459
 40
0.6603721565
 40
0.669529018
 40
0.6877423089
 40
0.7058085603
 40
0.7414304899
 40
0.7762373523
 40
0.8100349486
 40
0.8425806363
 40
0.8582909844
 40
0.8735670502
 40
0.8883570787
 40
0.9026027285
 40
0.916237952
 40
0.9291888591
 40
0.9413728405
 40
0.9526987065
 40
0.9630670096
 40
0.9678591403
 40
0.9723715944
 40
0.9765902999
 40
0.9805016775
 40
0.9840920415
 40
0.9873473858
 40
0.9902547719
 40
0.992802317
 40
0.9939377441
 40
0.9949791557
 40
0.9959252184
 40
0.9967746129
 40
0.9975263263
 40
0.9981796466
 40
0.9987338826
 40
0.9989736546
 40
0.9991884423
 40
0.9993781804
 40
0.999542804
 40
0.9996822489
 40
0.9997964596
 40
0.9998853881
 40
0.9999203566
 40
0.9999489864
 40
0.9999712717
 40
0.9999872064
 40
0.9999967845
 40
1.0
 40
1.0
 40
1.0
 40
1.0
 10
8.4024246448
 20
3.6008549472
 30
0.0
 10
8.397585626
 20
3.6046542633
 30
0.0
 10
8.3874230356
 20
3.6126238108
 30
0.0
 10
8.3715391452
 20
3.6250435159
 30
0.0
 10
8.3544618119
 20
3.6383457339
 30
0.0
 10
8.3364158147
 20
3.6523322412
 30
0.0
 10
8.3175727023
 20
3.6668402696
 30
0.0
 10
8.3014165077
 20
3.6791685245
 30
0.0
 10
8.2881759843
 20
3.6891777753
 30
0.0
 10
8.2780462772
 20
3.6967777974
 30
0.0
 10
8.2677850545
 20
3.7044066588
 30
0.0
 10
8.2573944232
 20
3.7120455698
 30
0.0
 10
8.2468741185
 20
3.719673985
 30
0.0
 10
8.2380082323
 20
3.7259906512
 30
0.0
 10
8.2308421353
 20
3.7310118516
 30
0.0
 10
8.2236049562
 20
3.7360169597
 30
0.0
 10
8.2162979927
 20
3.7409605839
 30
0.0
 10
8.2089060764
 20
3.7458142563
 30
0.0
 10
8.2033050605
 20
3.749407511
 30
0.0
 10
8.1976474928
 20
3.7529366994
 30
0.0
 10
8.1919279753
 20
3.7563891726
 30
0.0
 10
8.1861377087
 20
3.7597453722
 30
0.0
 10
8.1812485425
 20
3.7624438074
 30
0.0
 10
8.1772922664
 20
3.7645297957
 30
0.0
 10
8.1733018835
 20
3.766563992
 30
0.0
 10
8.1682507937
 20
3.7689941333
 30
0.0
 10
8.1620794836
 20
3.7716861206
 30
0.0
 10
8.1568337316
 20
3.7736942569
 30
0.0
 10
8.1525726207
 20
3.7751276156
 30
0.0
 10
8.1493436338
 20
3.7761079736
 30
0.0
 10
8.1460829325
 20
3.7769831229
 30
0.0
 10
8.1427919446
 20
3.7777425316
 30
0.0
 10
8.1394730093
 20
3.7783753186
 30
0.0
 10
8.1361298587
 20
3.7788710072
 30
0.0
 10
8.132768424
 20
3.779228521
 30
0.0
 10
8.1293941572
 20
3.7794421061
 30
0.0
 10
8.1260132917
 20
3.77949755
 30
0.0
 10
8.1226335705
 20
3.7793990876
 30
0.0
 10
8.1192616379
 20
3.7791536738
 30
0.0
 10
8.1159038774
 20
3.7787641422
 30
0.0
 10
8.1125661222
 20
3.7782346869
 30
0.0
 10
8.10925391
 20
3.7775689208
 30
0.0
 10
8.1059704184
 20
3.7767792189
 30
0.0
 10
8.1027170745
 20
3.7758785511
 30
0.0
 10
8.0994954354
 20
3.7748756191
 30
0.0
 10
8.0952444995
 20
3.7734141336
 30
0.0
 10
8.0900120428
 20
3.771373961
 30
0.0
 10
8.0838562119
 20
3.7686495029
 30
0.0
 10
8.0778090186
 20
3.7657124962
 30
0.0
 10
8.0718614895
 20
3.7625995731
 30
0.0
 10
8.0660031566
 20
3.7593434778
 30
0.0
 10
8.0602224825
 20
3.7559736026
 30
0.0
 10
8.0526148081
 20
3.7513608198
 30
0.0
 10
8.0432582408
 20
3.7454113046
 30
0.0
 10
8.0340496716
 20
3.7392800264
 30
0.0
 10
8.0267667109
 20
3.7343065966
 30
0.0
 10
8.0213506583
 20
3.7305543937
 30
0.0
 10
8.0159724413
 20
3.7267804004
 30
0.0
 10
8.0106298646
 20
3.7229900387
 30
0.0
 10
8.0053217573
 20
3.7191872635
 30
0.0
 10
7.9983021196
 20
3.714114119
 30
0.0
 10
7.989611896
 20
3.7077618057
 30
0.0
 10
7.9759195153
 20
3.6976286011
 30
0.0
 10
7.9591554174
 20
3.6850382018
 30
0.0
 10
7.9395079994
 20
3.6700820219
 30
0.0
 10
7.9205082632
 20
3.6554787117
 30
0.0
 10
7.9051360986
 20
3.6435798954
 30
0.0
 10
7.8932518208
 20
3.6343437473
 30
0.0
 10
7.8846964363
 20
3.6276791969
 30
0.0
 10
7.8764212371
 20
3.6212196325
 30
0.0
 10
7.8684576886
 20
3.6149925762
 30
0.0
 10
7.860842001
 20
3.6090279897
 30
0.0
 10
7.8536145503
 20
3.6033598355
 30
0.0
 10
7.8468207285
 20
3.5980253278
 30
0.0
 10
7.8405106091
 20
3.5930655203
 30
0.0
 10
7.8355790106
 20
3.5891857023
 30
0.0
 10
7.8319168215
 20
3.5863029352
 30
0.0
 10
7.8293997384
 20
3.5843208765
 30
0.0
 10
7.8270470287
 20
3.5824673487
 30
0.0
 10
7.8248660943
 20
3.5807487816
 30
0.0
 10
7.8228644303
 20
3.5791714609
 30
0.0
 10
7.8210498861
 20
3.5777409777
 30
0.0
 10
7.819429601
 20
3.5764631341
 30
0.0
 10
7.8182037413
 20
3.5754961942
 30
0.0
 10
7.8173249001
 20
3.5748031167
 30
0.0
 10
7.816743938
 20
3.5743450214
 30
0.0
 10
7.8162162122
 20
3.5739288523
 30
0.0
 10
7.815742471
 20
3.5735550633
 30
0.0
 10
7.8153232809
 20
3.5732241004
 30
0.0
 10
7.8149590201
 20
3.5729364086
 30
0.0
 10
7.8146899284
 20
3.5727239002
 30
0.0
 10
7.8145023427
 20
3.5725758152
 30
0.0
 10
7.8143825211
 20
3.5724812544
 30
0.0
 10
7.8142766575
 20
3.5723977451
 30
0.0
 10
7.8141847867
 20
3.5723253176
 30
0.0
 10
7.8141069419
 20
3.5722639998
 30
0.0
 10
7.8140431553
 20
3.5722138168
 30
0.0
 10
7.8139988112
 20
3.5721789484
 30
0.0
 10
7.8139703832
 20
3.5721566446
 30
0.0
 10
7.8139543959
 20
3.5721440533
 30
0.0
 10
7.8139418871
 20
3.5721343549
 30
0.0
 10
7.8139330824
 20
3.5721271976
 30
0.0
 10
7.8139275347
 20
3.5721233032
 30
0.0
 10
7.8139253438
 20
3.5721211224
 30
0.0
 10
7.8139246611
 20
3.5721207845
 30
0.0
  0
SPLINE
  5
492
100
AcDbEntity
  8
0
100
AcDbSpline
 62
7
  6
CONTINUOUS
 70
0
 71
3
 72
46
 73
42
 74
0
 42
0.0000001
 43
0.0000001
 44
0.0000000001
 40
0.0
 40
0.0
 40
0.0
 40
0.0
 40
0.0000195231
 40
0.0000437567
 40
0.0000776382
 40
0.0001743439
 40
0.000309638
 40
0.0004835186
 40
0.0006959834
 40
0.0009470303
 40
0.001236657
 40
0.0019316413
 40
0.0027809189
 40
0.0037843914
 40
0.0049415638
 40
0.0062518207
 40
0.0077145479
 40
0.0110949604
 40
0.0150779109
 40
0.0196585299
 40
0.0248319698
 40
0.0305931197
 40
0.0369347734
 40
0.0438488233
 40
0.0593619377
 40
0.0770689025
 40
0.0969020182
 40
0.1187824728
 40
0.1426318559
 40
0.1683741425
 40
0.1959345129
 40
0.2252406267
 40
0.2888164717
 40
0.3586088408
 40
0.4342060529
 40
0.5152958283
 40
0.6016777993
 40
0.6932537892
 40
0.7900497939
 40
0.8922138127
 40
1.0
 40
1.0
 40
1.0
 40
1.0
 10
7.8451746829
 20
4.9645208338
 30
0.0
 10
7.8451746828
 20
4.9645205654
 30
0.0
 10
7.8451754278
 20
4.9645202856
 30
0.0
 10
7.8451760546
 20
4.9645194946
 30
0.0
 10
7.8451777078
 20
4.96451809
 30
0.0
 10
7.8451803307
 20
4.9645155876
 30
0.0
 10
7.84518447
 20
4.9645118268
 30
0.0
 10
7.8451897383
 20
4.9645069728
 30
0.0
 10
7.845196197
 20
4.9645010518
 30
0.0
 10
7.8452038231
 20
4.9644940543
 30
0.0
 10
7.84521634
 20
4.9644825768
 30
0.0
 10
7.8452349189
 20
4.9644655458
 30
0.0
 10
7.8452607346
 20
4.9644418904
 30
0.0
 10
7.8452912376
 20
4.9644139481
 30
0.0
 10
7.8453264304
 20
4.9643817461
 30
0.0
 10
7.8453663099
 20
4.9643453163
 30
0.0
 10
7.8454288066
 20
4.9642883421
 30
0.0
 10
7.8455185969
 20
4.9642067845
 30
0.0
 10
7.8456404015
 20
4.9640967416
 30
0.0
 10
7.8457808578
 20
4.9639705859
 30
0.0
 10
7.8459399323
 20
4.9638285874
 30
0.0
 10
7.84611756
 20
4.9636710308
 30
0.0
 10
7.8463137199
 20
4.9634983194
 30
0.0
 10
7.8466115525
 20
4.9632382729
 30
0.0
 10
7.8470295983
 20
4.9628784258
 30
0.0
 10
7.8475869938
 20
4.9624083555
 30
0.0
 10
7.848217132
 20
4.9618888707
 30
0.0
 10
7.8489198353
 20
4.961324804
 30
0.0
 10
7.8496946883
 20
4.9607210343
 30
0.0
 10
7.850541243
 20
4.9600824779
 30
0.0
 10
7.8514592118
 20
4.9594143083
 30
0.0
 10
7.8528152935
 20
4.9584649401
 30
0.0
 10
7.8546852134
 20
4.9572381935
 30
0.0
 10
7.8571547073
 20
4.9557700777
 30
0.0
 10
7.8599066209
 20
4.9543126698
 30
0.0
 10
7.8629410258
 20
4.9529112344
 30
0.0
 10
7.8662579786
 20
4.9516115808
 30
0.0
 10
7.8698578571
 20
4.9504623503
 30
0.0
 10
7.8737401603
 20
4.9495138907
 30
0.0
 10
7.8779026347
 20
4.9488212647
 30
0.0
 10
7.880781454
 20
4.9485753384
 30
0.0
 10
7.8822613636
 20
4.9485099334
 30
0.0
  0
SPLINE
  5
493
100
AcDbEntity
  8
0
100
AcDbSpline
 62
7
  6
CONTINUOUS
 70
0
 71
3
 72
39
 73
35
 74
0
 42
0.0000001
 43
0.0000001
 44
0.0000000001
 40
0.0
 40
0.0
 40
0.0
 40
0.0
 40
0.0000155618
 40
0.0000620686
 40
0.0001395244
 40
0.0002479297
 40
0.0005575892
 40
0.0009910472
 40
0.0015483032
 40
0.0022293568
 40
0.0030342071
 40
0.0039628538
 40
0.0061915334
 40
0.0089153904
 40
0.0121344198
 40
0.0158485736
 40
0.020057554
 40
0.0247609745
 40
0.0356496015
 40
0.0485114214
 40
0.0633434575
 40
0.0801427941
 40
0.0989065777
 40
0.1196320054
 40
0.1423153748
 40
0.1935351935
 40
0.2525261497
 40
0.3192517514
 40
0.3936759345
 40
0.4757575542
 40
0.5654618215
 40
0.6627627913
 40
0.767634661
 40
1.0
 40
1.0
 40
1.0
 40
1.0
 10
7.8451746723
 20
4.8469184305
 30
0.0
 10
7.8451746723
 20
4.8469184814
 30
0.0
 10
7.8451749931
 20
4.8469184203
 30
0.0
 10
7.8451753271
 20
4.8469185894
 30
0.0
 10
7.8451761432
 20
4.8469186611
 30
0.0
 10
7.8451777036
 20
4.8469189558
 30
0.0
 10
7.8451804843
 20
4.8469193793
 30
0.0
 10
7.8451846714
 20
4.8469200708
 30
0.0
 10
7.8451900789
 20
4.846920938
 30
0.0
 10
7.8451966792
 20
4.8469220028
 30
0.0
 10
7.8452044825
 20
4.8469232569
 30
0.0
 10
7.8452172865
 20
4.8469253137
 30
0.0
 10
7.845236293
 20
4.8469283621
 30
0.0
 10
7.845262702
 20
4.8469325932
 30
0.0
 10
7.8452939125
 20
4.846937589
 30
0.0
 10
7.8453299234
 20
4.8469433494
 30
0.0
 10
7.8453707346
 20
4.8469498593
 30
0.0
 10
7.845434742
 20
4.8469600239
 30
0.0
 10
7.8455267401
 20
4.8469745029
 30
0.0
 10
7.8456515299
 20
4.8469938577
 30
0.0
 10
7.8457954927
 20
4.8470158172
 30
0.0
 10
7.8459586182
 20
4.847040251
 30
0.0
 10
7.8461408967
 20
4.8470670265
 30
0.0
 10
7.8463423139
 20
4.8470960201
 30
0.0
 10
7.8466490137
 20
4.84713919
 30
0.0
 10
7.8470800868
 20
4.847197301
 30
0.0
 10
7.8476546925
 20
4.8472695283
 30
0.0
 10
7.8483054326
 20
4.847344798
 30
0.0
 10
7.8490321126
 20
4.8474209612
 30
0.0
 10
7.8498346091
 20
4.8474947207
 30
0.0
 10
7.8507127304
 20
4.8475628642
 30
0.0
 10
7.8516662546
 20
4.8476221921
 30
0.0
 10
7.8530870736
 20
4.8476871342
 30
0.0
 10
7.8541910185
 20
4.8477072777
 30
0.0
 10
7.8549515581
 20
4.8477072981
 30
0.0
  0
SPLINE
  5
494
100
AcDbEntity
  8
0
100
AcDbSpline
 62
7
  6
CONTINUOUS
 70
0
 71
3
 72
25
 73
21
 74
0
 42
0.0000001
 43
0.0000001
 44
0.0000000001
 40
0.0
 40
0.0
 40
0.0
 40
0.0
 40
0.0071599899
 40
0.015121969
 40
0.0243753226
 40
0.035228591
 40
0.0478618094
 40
0.0623767038
 40
0.0788274326
 40
0.0972351733
 40
0.1399072016
 40
0.1902461656
 40
0.2479344405
 40
0.3125385197
 40
0.3835295687
 40
0.4602962829
 40
0.5421556425
 40
0.6283605897
 40
0.8105516599
 40
1.0
 40
1.0
 40
1.0
 40
1.0
 10
7.4645048964
 20
3.8180773066
 30
0.0
 10
7.4644808789
 20
3.818078775
 30
0.0
 10
7.4644304517
 20
3.8180906927
 30
0.0
 10
7.4643588228
 20
3.8181320942
 30
0.0
 10
7.4642887221
 20
3.8181959921
 30
0.0
 10
7.4642197092
 20
3.8182820856
 30
0.0
 10
7.4641515312
 20
3.8183903113
 30
0.0
 10
7.4640842115
 20
3.8185206012
 30
0.0
 10
7.4640178503
 20
3.8186727818
 30
0.0
 10
7.4639262793
 20
3.8189168117
 30
0.0
 10
7.4638177429
 20
3.8192755526
 30
0.0
 10
7.4636989144
 20
3.8197680347
 30
0.0
 10
7.4635872842
 20
3.8203375012
 30
0.0
 10
7.4634839917
 20
3.8209788925
 30
0.0
 10
7.4633901454
 20
3.8216864494
 30
0.0
 10
7.4633067244
 20
3.8224536527
 30
0.0
 10
7.463234594
 20
3.8232733306
 30
0.0
 10
7.4631530058
 20
3.824447643
 30
0.0
 10
7.4630854965
 20
3.825985092
 30
0.0
 10
7.4630676284
 20
3.8272341136
 30
0.0
 10
7.4630676284
 20
3.8278707845
 30
0.0
  0
SPLINE
  5
495
100
AcDbEntity
  8
0
100
AcDbSpline
 62
7
  6
CONTINUOUS
 70
0
 71
3
 72
156
 73
152
 74
0
 42
0.0000001
 43
0.0000001
 44
0.0000000001
 40
0.0
 40
0.0
 40
0.0
 40
0.0
 40
0.0000009762
 40
0.0000038915
 40
0.0000087449
 40
0.000015535
 40
0.0000349212
 40
0.000062041
 40
0.0000968849
 40
0.000139444
 40
0.0001897088
 40
0.0002476703
 40
0.0003866463
 40
0.0005562989
 40
0.0007565582
 40
0.0009873552
 40
0.0012486209
 40
0.001540286
 40
0.0022144385
 40
0.0030086971
 40
0.0039218092
 40
0.0049523889
 40
0.0060988718
 40
0.0073596541
 40
0.0087329264
 40
0.0102167828
 40
0.0118092564
 40
0.0153115041
 40
0.0192220736
 40
0.0235225303
 40
0.028194126
 40
0.0332178574
 40
0.0385746072
 40
0.0442459516
 40
0.0502139034
 40
0.0564608511
 40
0.069725776
 40
0.0839167097
 40
0.0989227118
 40
0.1146457694
 40
0.1310000657
 40
0.1479106029
 40
0.1653119271
 40
0.1831470389
 40
0.2013660566
 40
0.2199252961
 40
0.2387864195
 40
0.2579155241
 40
0.27728246
 40
0.2968604541
 40
0.3166254808
 40
0.336555989
 40
0.3566325866
 40
0.3768377162
 40
0.3869836196
 40
0.3920665881
 40
0.397155956
 40
0.4073528047
 40
0.4175726537
 40
0.4226908473
 40
0.4278142654
 40
0.432942706
 40
0.4380761233
 40
0.4432142153
 40
0.448357035
 40
0.4535042807
 40
0.4586559922
 40
0.4638119533
 40
0.468971949
 40
0.4741359117
 40
0.4793034919
 40
0.4844742393
 40
0.4870611534
 40
0.4896487463
 40
0.4922368695
 40
0.4948253982
 40
0.5000016239
 40
0.5051778703
 40
0.5103531282
 40
0.5155264832
 40
0.5206972442
 40
0.5258648
 40
0.5310287141
 40
0.5361887119
 40
0.5413447019
 40
0.5464963365
 40
0.5516436446
 40
0.5567864008
 40
0.5619244796
 40
0.5670578812
 40
0.5721863792
 40
0.5773097424
 40
0.5824279028
 40
0.5926477687
 40
0.597749249
 40
0.6028447197
 40
0.6130169225
 40
0.6231628399
 40
0.6332805779
 40
0.6433681683
 40
0.6634447369
 40
0.683375233
 40
0.7031402317
 40
0.7227182084
 40
0.7420851607
 40
0.7612142749
 40
0.780075391
 40
0.7986346288
 40
0.8168536549
 40
0.8346887585
 40
0.8520900873
 40
0.8690006168
 40
0.8853549265
 40
0.9010779928
 40
0.9160839782
 40
0.9302749174
 40
0.9435398652
 40
0.9497868091
 40
0.955754719
 40
0.9614261337
 40
0.9667829656
 40
0.9718066094
 40
0.9764780402
 40
0.9807785081
 40
0.9846893121
 40
0.9881913702
 40
0.9897836679
 40
0.9912674429
 40
0.9926407515
 40
0.9939016861
 40
0.9950483744
 40
0.9960790372
 40
0.9969919332
 40
0.9977857488
 40
0.9984595437
 40
0.9987511472
 40
0.999012419
 40
0.9992432644
 40
0.9994435887
 40
0.9996132973
 40
0.9997523007
 40
0.9998102669
 40
0.9998605328
 40
0.9999030908
 40
0.9999379334
 40
0.9999650532
 40
0.9999844425
 40
0.999991236
 40
0.999996094
 40
0.9999990156
 40
1.0
 40
1.0
 40
1.0
 40
1.0
 10
8.3764246611
 20
3.5096201087
 30
0.0
 10
8.3764245799
 20
3.5096203312
 30
0.0
 10
8.3764238243
 20
3.5096209744
 30
0.0
 10
8.3764226471
 20
3.5096227127
 30
0.0
 10
8.3764203373
 20
3.5096254094
 30
0.0
 10
8.3764156552
 20
3.5096312922
 30
0.0
 10
8.3764074774
 20
3.509641319
 30
0.0
 10
8.3763950702
 20
3.5096566649
 30
0.0
 10
8.3763790901
 20
3.5096763586
 30
0.0
 10
8.3763595758
 20
3.5097004139
 30
0.0
 10
8.3763365149
 20
3.5097288155
 30
0.0
 10
8.3762986958
 20
3.5097753674
 30
0.0
 10
8.3762425774
 20
3.5098443741
 30
0.0
 10
8.3761646195
 20
3.509940121
 30
0.0
 10
8.3760725597
 20
3.510053115
 30
0.0
 10
8.3759664394
 20
3.5101833247
 30
0.0
 10
8.3758463007
 20
3.5103307196
 30
0.0
 10
8.3756582047
 20
3.5105615001
 30
0.0
 10
8.375388447
 20
3.5108925539
 30
0.0
 10
8.3750234593
 20
3.5113405091
 30
0.0
 10
8.3746038269
 20
3.511855491
 30
0.0
 10
8.3741301748
 20
3.5124366935
 30
0.0
 10
8.3736032026
 20
3.5130832615
 30
0.0
 10
8.3730236706
 20
3.5137942564
 30
0.0
 10
8.3723923887
 20
3.5145686736
 30
0.0
 10
8.3717102218
 20
3.5154054394
 30
0.0
 10
8.3707016065
 20
3.5166425219
 30
0.0
 10
8.3693207898
 20
3.5183358249
 30
0.0
 10
8.3675244494
 20
3.5205380784
 30
0.0
 10
8.3655483609
 20
3.5229598444
 30
0.0
 10
8.3634011455
 20
3.5255905626
 30
0.0
 10
8.3610914265
 20
3.5284194611
 30
0.0
 10
8.358627536
 20
3.5314356311
 30
0.0
 10
8.3560180337
 20
3.5346286682
 30
0.0
 10
8.3532711614
 20
3.5379883801
 30
0.0
 10
8.3493567455
 20
3.5427733386
 30
0.0
 10
8.3441762928
 20
3.5491002688
 30
0.0
 10
8.3376442262
 20
3.5570672004
 30
0.0
 10
8.3307275669
 20
3.5654900495
 30
0.0
 10
8.3234697884
 20
3.5743119624
 30
0.0
 10
8.31590896
 20
3.5834829253
 30
0.0
 10
8.3080776827
 20
3.5929586458
 30
0.0
 10
8.3000036691
 20
3.6026998491
 30
0.0
 10
8.2917105957
 20
3.6126718126
 30
0.0
 10
8.2832180656
 20
3.6228432717
 30
0.0
 10
8.2745420041
 20
3.6331857536
 30
0.0
 10
8.265694853
 20
3.6436728705
 30
0.0
 10
8.2566855039
 20
3.6542794546
 30
0.0
 10
8.247519306
 20
3.6649808841
 30
0.0
 10
8.238197399
 20
3.6757518896
 30
0.0
 10
8.2287156086
 20
3.6865650196
 30
0.0
 10
8.219063222
 20
3.6973889182
 30
0.0
 10
8.2092198274
 20
3.7081845297
 30
0.0
 10
8.200840863
 20
3.7171013435
 30
0.0
 10
8.1948550042
 20
3.7232727326
 30
0.0
 10
8.1913885404
 20
3.7267779569
 30
0.0
 10
8.1878887483
 20
3.7302674301
 30
0.0
 10
8.1834544067
 20
3.7345845722
 30
0.0
 10
8.1789312605
 20
3.7388191824
 30
0.0
 10
8.1752451367
 20
3.7421448668
 30
0.0
 10
8.172441834
 20
3.7446044328
 30
0.0
 10
8.1695968571
 20
3.7470214368
 30
0.0
 10
8.1667060847
 20
3.749389193
 30
0.0
 10
8.1637635424
 20
3.7516980726
 30
0.0
 10
8.1607639522
 20
3.7539381231
 30
0.0
 10
8.1577002907
 20
3.7560957049
 30
0.0
 10
8.1545660112
 20
3.7581555317
 30
0.0
 10
8.1513529363
 20
3.7600967134
 30
0.0
 10
8.1480536685
 20
3.7618945341
 30
0.0
 10
8.1446618916
 20
3.7635188986
 30
0.0
 10
8.1411749729
 20
3.7649359321
 30
0.0
 10
8.1381902264
 20
3.7659091067
 30
0.0
 10
8.1357603097
 20
3.7665408256
 30
0.0
 10
8.1339182654
 20
3.7669363675
 30
0.0
 10
8.1320600796
 20
3.7672501279
 30
0.0
 10
8.1295659686
 20
3.7675545195
 30
0.0
 10
8.1264244201
 20
3.7677099954
 30
0.0
 10
8.1226558554
 20
3.7675208489
 30
0.0
 10
8.1189229586
 20
3.7669784648
 30
0.0
 10
8.1152556184
 20
3.7661041836
 30
0.0
 10
8.1116745006
 20
3.7649349103
 30
0.0
 10
8.1081873179
 20
3.7635183785
 30
0.0
 10
8.1047951571
 20
3.7618949107
 30
0.0
 10
8.1014955999
 20
3.7600975842
 30
0.0
 10
8.0982828276
 20
3.7581559051
 30
0.0
 10
8.0951489423
 20
3.7560954791
 30
0.0
 10
8.0920852783
 20
3.753937959
 30
0.0
 10
8.0890849266
 20
3.7516989293
 30
0.0
 10
8.0861427097
 20
3.7493896497
 30
0.0
 10
8.0832525945
 20
3.7470210846
 30
0.0
 10
8.0804077067
 20
3.7446039946
 30
0.0
 10
8.0776035402
 20
3.7421454257
 30
0.0
 10
8.0739171032
 20
3.7388201084
 30
0.0
 10
8.0702976055
 20
3.7354292911
 30
0.0
 10
8.066731698
 20
3.731990743
 30
0.0
 10
8.0632036846
 20
3.7285297825
 30
0.0
 10
8.0588533466
 20
3.72415971
 30
0.0
 10
8.0537123196
 20
3.7188583677
 30
0.0
 10
8.0486417332
 20
3.7135179457
 30
0.0
 10
8.0419753047
 20
3.7063707755
 30
0.0
 10
8.0337860139
 20
3.6973889494
 30
0.0
 10
8.0241337614
 20
3.6865649964
 30
0.0
 10
8.0146519377
 20
3.6757519034
 30
0.0
 10
8.0053299897
 20
3.6649809453
 30
0.0
 10
7.9961638436
 20
3.654279468
 30
0.0
 10
7.9871544916
 20
3.6436728807
 30
0.0
 10
7.9783073304
 20
3.633185772
 30
0.0
 10
7.9696312722
 20
3.6228432875
 30
0.0
 10
7.9611387501
 20
3.6126718224
 30
0.0
 10
7.9528456464
 20
3.6026998826
 30
0.0
 10
7.9447716584
 20
3.5929586614
 30
0.0
 10
7.9369403603
 20
3.5834829549
 30
0.0
 10
7.9293795453
 20
3.5743119765
 30
0.0
 10
7.9221217907
 20
3.5654900422
 30
0.0
 10
7.9152050871
 20
3.5570672303
 30
0.0
 10
7.9086730388
 20
3.54910028
 30
0.0
 10
7.9034925826
 20
3.542773345
 30
0.0
 10
7.8995781928
 20
3.5379883723
 30
0.0
 10
7.8968312509
 20
3.5346287096
 30
0.0
 10
7.8942217903
 20
3.5314356037
 30
0.0
 10
7.8917579724
 20
3.5284193541
 30
0.0
 10
7.8894482111
 20
3.5255905436
 30
0.0
 10
7.8873009169
 20
3.5229599652
 30
0.0
 10
7.8853247833
 20
3.5205382107
 30
0.0
 10
7.8835286668
 20
3.5183357571
 30
0.0
 10
7.8821477641
 20
3.5166425652
 30
0.0
 10
7.8811390716
 20
3.5154056855
 30
0.0
 10
7.8804568953
 20
3.5145689966
 30
0.0
 10
7.8798256161
 20
3.5137945437
 30
0.0
 10
7.879246098
 20
3.5130834141
 30
0.0
 10
7.8787191709
 20
3.5124366714
 30
0.0
 10
7.8782455737
 20
3.5118554015
 30
0.0
 10
7.8778259328
 20
3.5113406067
 30
0.0
 10
7.877460874
 20
3.5108930278
 30
0.0
 10
7.8771910751
 20
3.5105622775
 30
0.0
 10
7.877003
 20
3.5103316093
 30
0.0
 10
7.8768828655
 20
3.5101842132
 30
0.0
 10
7.8767767507
 20
3.5100539615
 30
0.0
 10
7.876684698
 20
3.5099409088
 30
0.0
 10
7.8766067479
 20
3.5098451091
 30
0.0
 10
7.8765506304
 20
3.5097760742
 30
0.0
 10
7.876512812
 20
3.5097295112
 30
0.0
 10
7.8764897527
 20
3.509701107
 30
0.0
 10
7.8764702393
 20
3.5096770513
 30
0.0
 10
7.8764542599
 20
3.5096573578
 30
0.0
 10
7.8764418516
 20
3.5096420121
 30
0.0
 10
7.8764336743
 20
3.5096319832
 30
0.0
 10
7.8764289891
 20
3.509626099
 30
0.0
 10
7.8764266807
 20
3.5096233974
 30
0.0
 10
7.8764254963
 20
3.5096216577
 30
0.0
 10
7.8764247442
 20
3.5096210084
 30
0.0
 10
7.8764246611
 20
3.5096207845
 30
0.0
  0
SPLINE
  5
496
100
AcDbEntity
  8
0
100
AcDbSpline
 62
7
  6
CONTINUOUS
 70
0
 71
3
 72
27
 73
23
 74
0
 42
0.0000001
 43
0.0000001
 44
0.0000000001
 40
0.0
 40
0.0
 40
0.0
 40
0.0
 40
0.0613907651
 40
0.0921098349
 40
0.1228435926
 40
0.1843615496
 40
0.2460014177
 40
0.2768874917
 40
0.3078159667
 40
0.3697929629
 40
0.4319714904
 40
0.4943632423
 40
0.5569716503
 40
0.6197918278
 40
0.6828108292
 40
0.7143979014
 40
0.746026456
 40
0.8093751341
 40
0.8728427249
 40
0.9046174983
 40
0.936409137
 40
1.0
 40
1.0
 40
1.0
 40
1.0
 10
7.7980025338
 20
4.7887072981
 30
0.0
 10
7.7998656117
 20
4.7887072981
 30
0.0
 10
7.8026636696
 20
4.7888497654
 30
0.0
 10
7.8063627526
 20
4.7893225672
 30
0.0
 10
7.8100372202
 20
4.7899831171
 30
0.0
 10
7.814565891
 20
4.7911586359
 30
0.0
 10
7.8189569883
 20
4.7927870827
 30
0.0
 10
7.8223628887
 20
4.7943513721
 30
0.0
 10
7.8256951293
 20
4.796089186
 30
0.0
 10
7.8297003181
 20
4.7985770398
 30
0.0
 10
7.8341960761
 20
4.8020326592
 30
0.0
 10
7.8383431897
 20
4.8059280577
 30
0.0
 10
7.8421015071
 20
4.8102255593
 30
0.0
 10
7.8454348787
 20
4.8148834631
 30
0.0
 10
7.8478307226
 20
4.8190261594
 30
0.0
 10
7.849505288
 20
4.8224731372
 30
0.0
 10
7.8510166278
 20
4.8260056644
 30
0.0
 10
7.8525885035
 20
4.830558183
 30
0.0
 10
7.8537209306
 20
4.8352438643
 30
0.0
 10
7.8543578825
 20
4.8390474316
 30
0.0
 10
7.8548142251
 20
4.8428803409
 30
0.0
 10
7.8549515581
 20
4.8457774521
 30
0.0
 10
7.8549515581
 20
4.8477072981
 30
0.0
  0
SPLINE
  5
497
100
AcDbEntity
  8
0
100
AcDbSpline
 62
7
  6
CONTINUOUS
 70
0
 71
3
 72
21
 73
17
 74
0
 42
0.0000001
 43
0.0000001
 44
0.0000000001
 40
0.0
 40
0.0
 40
0.0
 40
0.0
 40
0.0406811986
 40
0.0825095701
 40
0.126488853
 40
0.1734224626
 40
0.2238644346
 40
0.2781431553
 40
0.3363892267
 40
0.3985704628
 40
0.4645226173
 40
0.5339747591
 40
0.6065697281
 40
0.6818809224
 40
0.8386302013
 40
1.0
 40
1.0
 40
1.0
 40
1.0
 10
7.7051746611
 20
1.6357072981
 30
0.0
 10
7.7053388022
 20
1.6357072981
 30
0.0
 10
7.7056725844
 20
1.6357405552
 30
0.0
 10
7.7061639762
 20
1.6358884034
 30
0.0
 10
7.7066438816
 20
1.6361318432
 30
0.0
 10
7.7071076118
 20
1.6364673202
 30
0.0
 10
7.7075513397
 20
1.6368910083
 30
0.0
 10
7.707971362
 20
1.6373985937
 30
0.0
 10
7.7083640904
 20
1.6379852224
 30
0.0
 10
7.7087260436
 20
1.6386453716
 30
0.0
 10
7.7090539231
 20
1.6393728387
 30
0.0
 10
7.7093446719
 20
1.6401607597
 30
0.0
 10
7.7095955674
 20
1.6410016851
 30
0.0
 10
7.7098774176
 20
1.6421987733
 30
0.0
 10
7.7101123252
 20
1.643771824
 30
0.0
 10
7.7101746611
 20
1.6450562009
 30
0.0
 10
7.7101746611
 20
1.6457072981
 30
0.0
  0
SPLINE
  5
498
100
AcDbEntity
  8
0
100
AcDbSpline
 62
7
  6
CONTINUOUS
 70
0
 71
3
 72
21
 73
17
 74
0
 42
0.0000001
 43
0.0000001
 44
0.0000000001
 40
0.0
 40
0.0
 40
0.0
 40
0.0
 40
0.0406811986
 40
0.0825095701
 40
0.126488853
 40
0.1734224626
 40
0.2238644346
 40
0.2781431553
 40
0.3363892267
 40
0.3985704628
 40
0.4645226173
 40
0.5339747591
 40
0.6065697281
 40
0.6818809224
 40
0.8386302013
 40
1.0
 40
1.0
 40
1.0
 40
1.0
 10
8.1064246611
 20
1.6357072981
 30
0.0
 10
8.1065888022
 20
1.6357072981
 30
0.0
 10
8.1069225844
 20
1.6357405552
 30
0.0
 10
8.1074139762
 20
1.6358884034
 30
0.0
 10
8.1078938816
 20
1.6361318432
 30
0.0
 10
8.1083576118
 20
1.6364673202
 30
0.0
 10
8.1088013397
 20
1.6368910083
 30
0.0
 10
8.109221362
 20
1.6373985937
 30
0.0
 10
8.1096140904
 20
1.6379852224
 30
0.0
 10
8.1099760436
 20
1.6386453716
 30
0.0
 10
8.1103039231
 20
1.6393728387
 30
0.0
 10
8.1105946719
 20
1.6401607597
 30
0.0
 10
8.1108455674
 20
1.6410016851
 30
0.0
 10
8.1111274176
 20
1.6421987733
 30
0.0
 10
8.1113623252
 20
1.643771824
 30
0.0
 10
8.1114246611
 20
1.6450562009
 30
0.0
 10
8.1114246611
 20
1.6457072981
 30
0.0
  0
SPLINE
  5
499
100
AcDbEntity
  8
0
100
AcDbSpline
 62
7
  6
CONTINUOUS
 70
0
 71
3
 72
21
 73
17
 74
0
 42
0.0000001
 43
0.0000001
 44
0.0000000001
 40
0.0
 40
0.0
 40
0.0
 40
0.0
 40
0.0406811986
 40
0.0825095701
 40
0.126488853
 40
0.1734224626
 40
0.2238644346
 40
0.2781431553
 40
0.3363892267
 40
0.3985704628
 40
0.4645226173
 40
0.5339747591
 40
0.6065697281
 40
0.6818809224
 40
0.8386302013
 40
1.0
 40
1.0
 40
1.0
 40
1.0
 10
8.1464246611
 20
1.6357072981
 30
0.0
 10
8.14626052
 20
1.6357072981
 30
0.0
 10
8.1459267377
 20
1.6357405552
 30
0.0
 10
8.1454353459
 20
1.6358884034
 30
0.0
 10
8.1449554405
 20
1.6361318432
 30
0.0
 10
8.1444917103
 20
1.6364673202
 30
0.0
 10
8.1440479825
 20
1.6368910083
 30
0.0
 10
8.1436279601
 20
1.6373985937
 30
0.0
 10
8.1432352318
 20
1.6379852224
 30
0.0
 10
8.1428732785
 20
1.6386453716
 30
0.0
 10
8.1425453991
 20
1.6393728387
 30
0.0
 10
8.1422546502
 20
1.6401607597
 30
0.0
 10
8.1420037547
 20
1.6410016851
 30
0.0
 10
8.1417219046
 20
1.6421987733
 30
0.0
 10
8.1414869969
 20
1.643771824
 30
0.0
 10
8.1414246611
 20
1.6450562009
 30
0.0
 10
8.1414246611
 20
1.6457072981
 30
0.0
  0
SPLINE
  5
49A
100
AcDbEntity
  8
0
100
AcDbSpline
 62
7
  6
CONTINUOUS
 70
0
 71
3
 72
21
 73
17
 74
0
 42
0.0000001
 43
0.0000001
 44
0.0000000001
 40
0.0
 40
0.0
 40
0.0
 40
0.0
 40
0.0406811986
 40
0.0825095701
 40
0.126488853
 40
0.1734224626
 40
0.2238644346
 40
0.2781431553
 40
0.3363892267
 40
0.3985704628
 40
0.4645226173
 40
0.5339747591
 40
0.6065697281
 40
0.6818809224
 40
0.8386302013
 40
1.0
 40
1.0
 40
1.0
 40
1.0
 10
8.5476746611
 20
1.6357072981
 30
0.0
 10
8.54751052
 20
1.6357072981
 30
0.0
 10
8.5471767377
 20
1.6357405552
 30
0.0
 10
8.5466853459
 20
1.6358884034
 30
0.0
 10
8.5462054405
 20
1.6361318432
 30
0.0
 10
8.5457417103
 20
1.6364673202
 30
0.0
 10
8.5452979825
 20
1.6368910083
 30
0.0
 10
8.5448779601
 20
1.6373985937
 30
0.0
 10
8.5444852318
 20
1.6379852224
 30
0.0
 10
8.5441232785
 20
1.6386453716
 30
0.0
 10
8.5437953991
 20
1.6393728387
 30
0.0
 10
8.5435046502
 20
1.6401607597
 30
0.0
 10
8.5432537547
 20
1.6410016851
 30
0.0
 10
8.5429719046
 20
1.6421987733
 30
0.0
 10
8.5427369969
 20
1.643771824
 30
0.0
 10
8.5426746611
 20
1.6450562009
 30
0.0
 10
8.5426746611
 20
1.6457072981
 30
0.0
  0
SPLINE
  5
49B
100
AcDbEntity
  8
0
100
AcDbSpline
 62
7
  6
CONTINUOUS
 70
0
 71
3
 72
21
 73
17
 74
0
 42
0.0000001
 43
0.0000001
 44
0.0000000001
 40
0.0
 40
0.0
 40
0.0
 40
0.0
 40
0.0406811986
 40
0.0825095701
 40
0.126488853
 40
0.1734224626
 40
0.2238644346
 40
0.2781431553
 40
0.3363892267
 40
0.3985704628
 40
0.4645226173
 40
0.5339747591
 40
0.6065697281
 40
0.6818809224
 40
0.8386302013
 40
1.0
 40
1.0
 40
1.0
 40
1.0
 10
7.7151746611
 20
1.7449572981
 30
0.0
 10
7.71501052
 20
1.7449572981
 30
0.0
 10
7.7146767377
 20
1.7449240411
 30
0.0
 10
7.7141853459
 20
1.7447761929
 30
0.0
 10
7.7137054405
 20
1.7445327531
 30
0.0
 10
7.7132417103
 20
1.7441972761
 30
0.0
 10
7.7127979825
 20
1.7437735879
 30
0.0
 10
7.7123779601
 20
1.7432660026
 30
0.0
 10
7.7119852318
 20
1.7426793739
 30
0.0
 10
7.7116232785
 20
1.7420192247
 30
0.0
 10
7.7112953991
 20
1.7412917575
 30
0.0
 10
7.7110046502
 20
1.7405038366
 30
0.0
 10
7.7107537547
 20
1.7396629112
 30
0.0
 10
7.7104719046
 20
1.7384658229
 30
0.0
 10
7.7102369969
 20
1.7368927723
 30
0.0
 10
7.7101746611
 20
1.7356083954
 30
0.0
 10
7.7101746611
 20
1.7349572981
 30
0.0
  0
SPLINE
  5
49C
100
AcDbEntity
  8
0
100
AcDbSpline
 62
7
  6
CONTINUOUS
 70
0
 71
3
 72
21
 73
17
 74
0
 42
0.0000001
 43
0.0000001
 44
0.0000000001
 40
0.0
 40
0.0
 40
0.0
 40
0.0
 40
0.0406811986
 40
0.0825095701
 40
0.126488853
 40
0.1734224625
 40
0.2238644346
 40
0.2781431553
 40
0.3363892267
 40
0.3985704628
 40
0.4645226173
 40
0.533974759
 40
0.606569728
 40
0.6818809223
 40
0.8386302012
 40
1.0
 40
1.0
 40
1.0
 40
1.0
 10
8.1164246611
 20
1.7449572981
 30
0.0
 10
8.11626052
 20
1.7449572981
 30
0.0
 10
8.1159267377
 20
1.7449240411
 30
0.0
 10
8.1154353459
 20
1.7447761929
 30
0.0
 10
8.1149554405
 20
1.7445327531
 30
0.0
 10
8.1144917103
 20
1.7441972761
 30
0.0
 10
8.1140479825
 20
1.7437735879
 30
0.0
 10
8.1136279601
 20
1.7432660026
 30
0.0
 10
8.1132352318
 20
1.7426793739
 30
0.0
 10
8.1128732785
 20
1.7420192247
 30
0.0
 10
8.1125453991
 20
1.7412917575
 30
0.0
 10
8.1122546502
 20
1.7405038366
 30
0.0
 10
8.1120037547
 20
1.7396629112
 30
0.0
 10
8.1117219046
 20
1.7384658229
 30
0.0
 10
8.1114869969
 20
1.7368927723
 30
0.0
 10
8.111424661
 20
1.7356083954
 30
0.0
 10
8.111424661
 20
1.7349572981
 30
0.0
  0
SPLINE
  5
49D
100
AcDbEntity
  8
0
100
AcDbSpline
 62
7
  6
CONTINUOUS
 70
0
 71
3
 72
21
 73
17
 74
0
 42
0.0000001
 43
0.0000001
 44
0.0000000001
 40
0.0
 40
0.0
 40
0.0
 40
0.0
 40
0.0406811986
 40
0.0825095701
 40
0.126488853
 40
0.1734224626
 40
0.2238644346
 40
0.2781431553
 40
0.3363892267
 40
0.3985704628
 40
0.4645226173
 40
0.5339747591
 40
0.6065697281
 40
0.6818809224
 40
0.8386302013
 40
1.0
 40
1.0
 40
1.0
 40
1.0
 10
8.1364246611
 20
1.7449572981
 30
0.0
 10
8.1365888022
 20
1.7449572981
 30
0.0
 10
8.1369225844
 20
1.7449240411
 30
0.0
 10
8.1374139762
 20
1.7447761929
 30
0.0
 10
8.1378938816
 20
1.7445327531
 30
0.0
 10
8.1383576118
 20
1.7441972761
 30
0.0
 10
8.1388013397
 20
1.7437735879
 30
0.0
 10
8.139221362
 20
1.7432660026
 30
0.0
 10
8.1396140904
 20
1.7426793739
 30
0.0
 10
8.1399760436
 20
1.7420192247
 30
0.0
 10
8.1403039231
 20
1.7412917575
 30
0.0
 10
8.1405946719
 20
1.7405038366
 30
0.0
 10
8.1408455674
 20
1.7396629112
 30
0.0
 10
8.1411274176
 20
1.7384658229
 30
0.0
 10
8.1413623252
 20
1.7368927723
 30
0.0
 10
8.1414246611
 20
1.7356083954
 30
0.0
 10
8.1414246611
 20
1.7349572981
 30
0.0
  0
SPLINE
  5
49E
100
AcDbEntity
  8
0
100
AcDbSpline
 62
7
  6
CONTINUOUS
 70
0
 71
3
 72
21
 73
17
 74
0
 42
0.0000001
 43
0.0000001
 44
0.0000000001
 40
0.0
 40
0.0
 40
0.0
 40
0.0
 40
0.0406811986
 40
0.0825095701
 40
0.126488853
 40
0.1734224626
 40
0.2238644346
 40
0.2781431554
 40
0.3363892267
 40
0.3985704628
 40
0.4645226174
 40
0.5339747591
 40
0.6065697281
 40
0.6818809224
 40
0.8386302014
 40
1.0
 40
1.0
 40
1.0
 40
1.0
 10
8.5376746611
 20
1.7449572981
 30
0.0
 10
8.5378388022
 20
1.7449572981
 30
0.0
 10
8.5381725844
 20
1.7449240411
 30
0.0
 10
8.5386639762
 20
1.7447761929
 30
0.0
 10
8.5391438816
 20
1.7445327531
 30
0.0
 10
8.5396076118
 20
1.7441972761
 30
0.0
 10
8.5400513397
 20
1.7437735879
 30
0.0
 10
8.540471362
 20
1.7432660026
 30
0.0
 10
8.5408640904
 20
1.7426793739
 30
0.0
 10
8.5412260436
 20
1.7420192247
 30
0.0
 10
8.5415539231
 20
1.7412917575
 30
0.0
 10
8.5418446719
 20
1.7405038366
 30
0.0
 10
8.5420955674
 20
1.7396629112
 30
0.0
 10
8.5423774176
 20
1.7384658229
 30
0.0
 10
8.5426123252
 20
1.7368927723
 30
0.0
 10
8.542674661
 20
1.7356083954
 30
0.0
 10
8.542674661
 20
1.7349572981
 30
0.0
  0
SPLINE
  5
49F
100
AcDbEntity
  8
0
100
AcDbSpline
 62
7
  6
CONTINUOUS
 70
0
 71
3
 72
20
 73
16
 74
0
 42
0.0000001
 43
0.0000001
 44
0.0000000001
 40
0.0
 40
0.0
 40
0.0
 40
0.0
 40
0.0221800293
 40
0.0461350863
 40
0.0739931024
 40
0.1071237961
 40
0.1463069687
 40
0.1919617601
 40
0.2442837642
 40
0.3033288471
 40
0.3690537713
 40
0.4413422886
 40
0.6048484759
 40
0.7919143018
 40
1.0
 40
1.0
 40
1.0
 40
1.0
 10
7.4746473619
 20
3.9295116977
 30
0.0
 10
7.4746124308
 20
3.9295137701
 30
0.0
 10
7.4745399393
 20
3.9295315062
 30
0.0
 10
7.4744414546
 20
3.9295974524
 30
0.0
 10
7.4743527189
 20
3.9296993251
 30
0.0
 10
7.4742724562
 20
3.92983618
 30
0.0
 10
7.4742000726
 20
3.9300080566
 30
0.0
 10
7.4741355896
 20
3.9302148739
 30
0.0
 10
7.4740791906
 20
3.9304562661
 30
0.0
 10
7.4740311252
 20
3.9307316104
 30
0.0
 10
7.4739916079
 20
3.9310400677
 30
0.0
 10
7.4739488529
 20
3.9315139255
 30
0.0
 10
7.4739209617
 20
3.9321808443
 30
0.0
 10
7.4739241314
 20
3.9330624083
 30
0.0
 10
7.4739489616
 20
3.9336854657
 30
0.0
 10
7.4739667392
 20
3.9340132721
 30
0.0
  0
ENDSEC
  0
SECTION
  2
OBJECTS
  0
DICTIONARY
  5
C
100
AcDbDictionary
280
0
281
1
  3
ACAD_GROUP
350
D
  3
ACAD_MLINESTYLE
350
17
  3
ACAD_LAYOUT
350
1A
  3
ACAD_PLOTSETTINGS
350
19
  3
ACAD_PLOTSTYLENAME
350
E
  0
DICTIONARY
  5
D
102
{ACAD_REACTORS
330
C
102
}
100
AcDbDictionary
280
0
281
1
  0
ACDBDICTIONARYWDFLT
  5
E
102
{ACAD_REACTORS
330
C
102
}
100
AcDbDictionary
281
1
  3
Normal
350
F
100
AcDbDictionaryWithDefault
340
F
  0
DICTIONARY
  5
17
102
{ACAD_REACTORS
330
C
102
}
100
AcDbDictionary
280
0
281
1
  3
Standard
350
18
  0
DICTIONARY
  5
19
102
{ACAD_REACTORS
330
C
102
}
100
AcDbDictionary
281
1
  0
DICTIONARY
  5
1A
102
{ACAD_REACTORS
330
C
102
}
100
AcDbDictionary
281
1
  3
Model
350
4A0
  3
Layout1
350
4A1
  0
ACDBPLACEHOLDER
  5
F
102
{ACAD_REACTORS
330
E
102
}
  0
MLINESTYLE
  5
18
102
{ACAD_REACTORS
330
17
102
}
100
AcDbMlineStyle
  2
STANDARD
 70
0
  3

 62
256
 51
90.0
 52
90.0
 71
2
 49
0.5
 62
256
  6
BYLAYER
 49
-0.5
 62
256
  6
BYLAYER
  0
LAYOUT
  5
4A0
102
{ACAD_REACTORS
330
1A
102
}
100
AcDbPlotSettings
  1

  2
none_device
  4
ANSI_A_(11.00_x_8.50_Inches)
  6

 40
0.0
 41
0.0
 42
0.0
 43
0.0
 44
279.4
 45
215.9
 46
0.0
 47
0.0
 48
0.0
 49
0.0
140
0.0
141
0.0
142
1.0
143
1.0
 70
1024
 72
0
 73
0
 74
0
  7

 75
0
147
1.0
148
0.0
149
0.0
100
AcDbLayout
  1
Model
 70
0
 71
0
 10
0.0
 20
0.0
 11
11.0
 21
8.5
 12
0.0
 22
0.0
 32
0.0
 14
0.0
 24
0.0
 34
0.0
 15
0.0
 25
0.0
 35
0.0
146
0.0
 13
0.0
 23
0.0
 33
0.0
 16
1.0
 26
0.0
 36
0.0
 17
0.0
 27
1.0
 37
0.0
 76
0
330
202
345
0
346
0
  0
LAYOUT
  5
4A1
102
{ACAD_REACTORS
330
1A
102
}
100
AcDbPlotSettings
  1

  2
none_device
  4
ANSI_A_(11.00_x_8.50_Inches)
  6

 40
0.0
 41
0.0
 42
0.0
 43
0.0
 44
279.4
 45
215.9
 46
0.0
 47
0.0
 48
0.0
 49
0.0
140
0.0
141
0.0
142
1.0
143
1.0
 70
0
 72
0
 73
0
 74
0
  7

 75
0
147
1.0
148
0.0
149
0.0
100
AcDbLayout
  1
Layout1
 70
0
 71
1
 10
0.0
 20
0.0
 11
11.0
 21
8.5
 12
0.0
 22
0.0
 32
0.0
 14
0.0
 24
0.0
 34
0.0
 15
0.0
 25
0.0
 35
0.0
146
0.0
 13
0.0
 23
0.0
 33
0.0
 16
1.0
 26
0.0
 36
0.0
 17
0.0
 27
1.0
 37
0.0
 76
0
330
203
345
0
346
0
  0
ENDSEC
  0
EOF
