999
DXF file: E:\BT Custom\CADOUTPUT\_RIGHT.dxf
999
Pro/ENGINEER 2018400 by Parametric Technology Corporation
  0
SECTION
  2
HEADER
  9
$ACADVER
  1
AC1018
  9
$DWGCODEPAGE
  3
ANSI_1252
  9
$EXTMAX
 10
22.0
 20
17.0
 30
0.0
  9
$EXTMIN
 10
0.0
 20
0.0
 30
0.0
  9
$LIMMIN
 10
0.0
 20
0.0
  9
$LIMMAX
 10
22.0
 20
17.0
  9
$VIEWCTR
 10
11.0
 20
8.5
  9
$VIEWSIZE
 40
17.0
  9
$CLAYER
  8
0
  9
$LTSCALE
 40
1.21
  9
$CELTYPE
  6
BYLAYER
  9
$DIMSCALE
 40
1.0
  9
$DIMASZ
 40
0.1
  9
$DIMEXO
 40
0.0625
  9
$DIMDLI
 40
0.836
  9
$DIMEXE
 40
0.125
  9
$DIMCEN
 40
0.198
  9
$DIMLFAC
 40
1.0
  9
$DIMBLK
  1
_FILLED
  9
$DIMALT
 70
1
  9
$DIMALTD
 70
2
  9
$DIMALTTD
 70
2
  9
$DIMALTF
 40
25.4
  9
$DIMTXT
 40
0.08
  9
$DIMTOL
 70
1
  9
$DIMLIM
 70
0
  9
$DIMTFAC
 40
1.0
  9
$DIMTP
 40
0.001
  9
$DIMTM
 40
0.001
  9
$DIMGAP
 40
0.09
  9
$DIMDSEP
 70
46
  9
$AUNITS
 70
0
  9
$PDMODE
 70
3
  9
$PDSIZE
 40
0.06
  9
$HANDSEED
  5
413
  9
$TILEMODE
 70
1
  9
$MEASUREMENT
 70
0
  9
$INSUNITS
 70
1
  0
ENDSEC
  0
SECTION
  2
CLASSES
  0
CLASS
  1
ACDBDICTIONARYWDFLT
  2
AcDbDictionaryWithDefault
  3
AutoCAD 2000
 90
0
 91
1
280
0
281
0
  0
CLASS
  1
ACDBPLACEHOLDER
  2
AcDbPlaceHolder
  3
AutoCAD 2000
 90
0
 91
1
280
0
281
0
  0
CLASS
  1
LAYOUT
  2
AcDbLayout
  3
AutoCAD 2000
 90
0
 91
0
280
0
281
0
  0
ENDSEC
  0
SECTION
  2
TABLES
  0
TABLE
  2
VPORT
  5
8
100
AcDbSymbolTable
 70
2
  0
VPORT
  5
1F4
100
AcDbSymbolTableRecord
100
AcDbViewportTableRecord
  2
*ACTIVE
 70
0
 10
0.0
 20
0.0
 11
1.0
 21
1.0
 12
11.0
 22
8.5
 13
0.0
 23
0.0
 14
1.0
 24
1.0
 15
0.0
 25
0.0
 16
0.0
 26
0.0
 36
1.0
 17
0.0
 27
0.0
 37
0.0
 40
17.0
 41
1.2941176471
 42
50.0
 43
0.0
 44
0.0
 50
0.0
 51
0.0
 71
0
 72
100
 73
1
 74
1
 75
0
 76
0
 77
0
 78
0
  0
ENDTAB
  0
TABLE
  2
LTYPE
  5
5
100
AcDbSymbolTable
 70
6
  0
LTYPE
  5
14
100
AcDbSymbolTableRecord
100
AcDbLinetypeTableRecord
  2
BYBLOCK
 70
0
  3

 72
65
 73
0
 40
0.0
  0
LTYPE
  5
15
100
AcDbSymbolTableRecord
100
AcDbLinetypeTableRecord
  2
BYLAYER
 70
0
  3

 72
65
 73
0
 40
0.0
  0
LTYPE
  5
16
100
AcDbSymbolTableRecord
100
AcDbLinetypeTableRecord
  2
CONTINUOUS
 70
64
  3
Solid line
 72
65
 73
0
 40
0.0
  0
LTYPE
  5
1F5
100
AcDbSymbolTableRecord
100
AcDbLinetypeTableRecord
  2
CENTER
 70
64
  3
____ _ ____ _ ____ _ ____ _ ____ _ ____ _ ____
 72
65
 73
4
 40
0.6
 49
0.375
 74
0
 49
-0.075
 74
0
 49
0.075
 74
0
 49
-0.075
 74
0
  0
LTYPE
  5
1F6
100
AcDbSymbolTableRecord
100
AcDbLinetypeTableRecord
  2
HIDDEN
 70
64
  3
- - - - - - - - - - - - - - - - - - - -
 72
65
 73
2
 40
0.2
 49
0.1
 74
0
 49
-0.1
 74
0
  0
LTYPE
  5
1F7
100
AcDbSymbolTableRecord
100
AcDbLinetypeTableRecord
  2
PHANTOM
 70
64
  3
_____ _ _ _____ _ _ _____ _ _ _____
 72
65
 73
6
 40
0.8
 49
0.45
 74
0
 49
-0.05
 74
0
 49
0.1
 74
0
 49
-0.05
 74
0
 49
0.1
 74
0
 49
-0.05
 74
0
  0
LTYPE
  5
1F8
100
AcDbSymbolTableRecord
100
AcDbLinetypeTableRecord
  2
DOT
 70
64
  3
. . . . . . . . . . . . . . . . . . . .
 72
65
 73
2
 40
0.2
 49
0.1
 74
0
 49
-0.1
 74
0
  0
LTYPE
  5
1F9
100
AcDbSymbolTableRecord
100
AcDbLinetypeTableRecord
  2
DASHED
 70
64
  3
- - - - - - - - - - - - - - - - - - - -
 72
65
 73
2
 40
0.2
 49
0.1
 74
0
 49
-0.1
 74
0
  0
ENDTAB
  0
TABLE
  2
LAYER
  5
2
100
AcDbSymbolTable
 70
36
  0
LAYER
  5
10
100
AcDbSymbolTableRecord
100
AcDbLayerTableRecord
  2
0
 70
0
 62
7
  6
CONTINUOUS
370
-3
390
F
  0
LAYER
  5
1FA
100
AcDbSymbolTableRecord
100
AcDbLayerTableRecord
  2
DEFAULT_1
 70
0
 62
7
  6
CENTER
370
-3
390
F
  0
LAYER
  5
1FB
100
AcDbSymbolTableRecord
100
AcDbLayerTableRecord
  2
DEFAULT_2
 70
0
 62
8
  6
HIDDEN
370
-3
390
F
  0
LAYER
  5
1FC
100
AcDbSymbolTableRecord
100
AcDbLayerTableRecord
  2
DEFAULT_3
 70
0
 62
7
  6
PHANTOM
370
-3
390
F
  0
LAYER
  5
1FD
100
AcDbSymbolTableRecord
100
AcDbLayerTableRecord
  2
ALL_FEATURES
 70
0
 62
7
  6
CONTINUOUS
370
-3
390
F
  0
LAYER
  5
1FE
100
AcDbSymbolTableRecord
100
AcDbLayerTableRecord
  2
AXES_FEATURES
 70
0
 62
7
  6
CONTINUOUS
370
-3
390
F
  0
LAYER
  5
1FF
100
AcDbSymbolTableRecord
100
AcDbLayerTableRecord
  2
DIMENSIONS
 70
0
 62
7
  6
CONTINUOUS
370
-3
390
F
  0
ENDTAB
  0
TABLE
  2
STYLE
  5
3
100
AcDbSymbolTable
 70
1
  0
STYLE
  5
11
100
AcDbSymbolTableRecord
100
AcDbTextStyleTableRecord
  2
STANDARD
 70
0
 40
0.0
 41
0.8
 50
0.0
 71
0
 42
0.2
  3
txt
  4

  0
STYLE
  5
200
100
AcDbSymbolTableRecord
100
AcDbTextStyleTableRecord
  2
TEXTSTYLE_1
 70
0
 40
0.0
 41
0.8
 50
0.0
 71
0
 42
0.2
  3
gdt
  4

  0
ENDTAB
  0
TABLE
  2
VIEW
  5
6
100
AcDbSymbolTable
 70
0
  0
ENDTAB
  0
TABLE
  2
UCS
  5
7
100
AcDbSymbolTable
 70
0
  0
ENDTAB
  0
TABLE
  2
APPID
  5
9
100
AcDbSymbolTable
 70
1
  0
APPID
  5
201
100
AcDbSymbolTableRecord
100
AcDbRegAppTableRecord
  2
ACAD
 70
0
  0
ENDTAB
  0
TABLE
  2
BLOCK_RECORD
  5
1
100
AcDbSymbolTable
 70
0
  0
BLOCK_RECORD
  5
202
100
AcDbSymbolTableRecord
100
AcDbBlockTableRecord
  2
*Model_Space
  0
BLOCK_RECORD
  5
203
100
AcDbSymbolTableRecord
100
AcDbBlockTableRecord
  2
*Paper_Space
  0
BLOCK_RECORD
  5
204
100
AcDbSymbolTableRecord
100
AcDbBlockTableRecord
  2
_FILLED
  0
ENDTAB
  0
TABLE
  2
DIMSTYLE
  5
A
100
AcDbSymbolTable
 70
1
100
AcDbDimStyleTable
 71
0
  0
DIMSTYLE
105
205
100
AcDbSymbolTableRecord
100
AcDbDimStyleTableRecord
  2
STANDARD
 70
0
  3

  4

 40
1.0
 41
0.1
 42
0.0625
 43
0.38
 44
0.125
 45
0.0
 46
0.0
 47
0.001
 48
0.001
140
0.08
141
0.09
142
0.0
143
25.4
144
1.0
145
0.0
146
1.0
147
0.09
 71
1.0
 72
0.0
 73
1
 74
1
 75
0
 76
0
 77
0
 78
4
 79
1
170
1
171
2
172
0
173
0
174
0
175
0
176
0
177
0
178
0
270
2
179
3
271
3
272
3
273
2
274
2
275
0
280
0
281
0
282
0
283
1
284
4
285
0
286
0
287
3
288
0
340
11
278
46
341
204
342
204
343
204
344
204
  0
ENDTAB
  0
ENDSEC
  0
SECTION
  2
BLOCKS
  0
BLOCK
  5
20
100
AcDbEntity
  8
0
100
AcDbBlockBegin
  2
*Model_Space
 70
0
 10
0.0
 20
0.0
 30
0.0
  3
*Model_Space
  1

  0
ENDBLK
  5
21
100
AcDbEntity
  8
0
100
AcDbBlockEnd
  0
BLOCK
  5
1C
100
AcDbEntity
  8
0
100
AcDbBlockBegin
  2
*Paper_Space
 70
0
 10
0.0
 20
0.0
 30
0.0
  3
*Paper_Space
  1

  0
ENDBLK
  5
1D
100
AcDbEntity
  8
0
100
AcDbBlockEnd
  0
BLOCK
  5
206
100
AcDbEntity
  8
0
100
AcDbBlockBegin
  2
_FILLED
 70
64
 10
0.0
 20
0.0
  3
_FILLED
  1

  0
SOLID
  5
207
100
AcDbEntity
  8
0
  6
BYBLOCK
 62
0
100
AcDbTrace
 10
0.0
 20
0.0
 11
-1.0
 21
0.2
 12
-1.0
 22
-0.2
 13
-1.0
 23
-0.2
  0
ENDBLK
  5
208
100
AcDbEntity
  8
0
  6
BYBLOCK
 62
0
100
AcDbBlockEnd
  0
ENDSEC
  0
SECTION
  2
ENTITIES
  0
LWPOLYLINE
  5
209
100
AcDbEntity
  8
0
100
AcDbPolyline
 62
7
  6
CONTINUOUS
 90
3
 70
0
 10
-3.0942225389
 20
12.9627382049
 10
-3.0942122617
 20
12.9607031163
 10
-3.0944659455
 20
12.9570903832
  0
LINE
  5
20A
100
AcDbEntity
  8
0
100
AcDbLine
 62
9
  6
CONTINUOUS
 10
-3.0673976643
 20
13.1201101385
 11
-3.0673976643
 21
12.8192316083
  0
LINE
  5
20B
100
AcDbEntity
  8
0
100
AcDbLine
 62
9
  6
CONTINUOUS
 10
-3.0518421974
 20
13.1275392415
 11
-3.0518421974
 21
12.8118025053
  0
LINE
  5
20C
100
AcDbEntity
  8
0
100
AcDbLine
 62
7
  6
CONTINUOUS
 10
-3.0241426875
 20
9.8636708734
 11
-3.0241426875
 21
12.1826004214
  0
LINE
  5
20D
100
AcDbEntity
  8
0
100
AcDbLine
 62
9
  6
CONTINUOUS
 10
-3.0191426875
 20
12.8118025053
 11
-3.0191426875
 21
13.1275392415
  0
LINE
  5
20E
100
AcDbEntity
  8
0
100
AcDbLine
 62
9
  6
CONTINUOUS
 10
-3.0041426875
 20
12.1826004214
 11
-3.0041426875
 21
9.8436708734
  0
LINE
  5
20F
100
AcDbEntity
  8
0
100
AcDbLine
 62
7
  6
CONTINUOUS
 10
-2.9991426875
 20
13.2121707391
 11
-2.9991426875
 21
12.7271710078
  0
LINE
  5
210
100
AcDbEntity
  8
0
100
AcDbLine
 62
9
  6
CONTINUOUS
 10
-2.9791426875
 20
13.2321708734
 11
-2.9791426875
 21
12.7071708734
  0
LINE
  5
211
100
AcDbEntity
  8
0
100
AcDbLine
 62
7
  6
CONTINUOUS
 10
-3.0942122617
 20
12.9786386305
 11
-3.0942225389
 21
12.9766035419
  0
LINE
  5
212
100
AcDbEntity
  8
0
100
AcDbLine
 62
7
  6
CONTINUOUS
 10
-3.0944521812
 20
12.9572043109
 11
-3.0949983176
 21
12.9540667078
  0
LINE
  5
213
100
AcDbEntity
  8
0
100
AcDbLine
 62
7
  6
CONTINUOUS
 10
-3.0939535045
 20
13.0783003696
 11
-3.0939344632
 21
13.0783727404
  0
LWPOLYLINE
  5
214
100
AcDbEntity
  8
0
100
AcDbPolyline
 62
7
  6
CONTINUOUS
 90
4
 70
0
 10
-3.0939352254
 20
13.0783700015
 10
-3.0939274102
 20
13.078398088
 10
-3.0939701733
 20
13.0782609104
 10
-3.0940938276
 20
13.0778897108
  0
LINE
  5
215
100
AcDbEntity
  8
0
100
AcDbLine
 62
7
  6
CONTINUOUS
 10
-3.0949812834
 20
12.9541389789
 11
-3.0949919045
 21
12.954103132
  0
LWPOLYLINE
  5
216
100
AcDbEntity
  8
0
100
AcDbPolyline
 62
7
  6
CONTINUOUS
 90
4
 70
0
 10
-3.0949983176
 20
12.9540667078
 10
-3.0956302382
 20
12.9519587479
 10
-3.0961162048
 20
12.9508901306
 10
-3.0962023414
 20
12.9507497585
  0
LWPOLYLINE
  5
217
100
AcDbEntity
  8
0
100
AcDbPolyline
 62
7
  6
CONTINUOUS
 90
3
 70
0
 10
-3.0939336071
 20
13.0783759942
 10
-3.0940309201
 20
13.0780757834
 10
-3.0941908727
 20
13.0776093869
  0
LINE
  5
218
100
AcDbEntity
  8
0
100
AcDbLine
 62
7
  6
CONTINUOUS
 10
-3.0940938276
 20
13.0778897108
 11
-3.0942909433
 21
13.077326101
  0
LINE
  5
219
100
AcDbEntity
  8
0
100
AcDbLine
 62
7
  6
CONTINUOUS
 10
-3.0941908727
 20
13.0776093869
 11
-3.0944145614
 21
13.0769818337
  0
LINE
  5
21A
100
AcDbEntity
  8
0
100
AcDbLine
 62
7
  6
CONTINUOUS
 10
-3.0942909433
 20
13.077326101
 11
-3.0946944446
 21
13.0762180056
  0
LINE
  5
21B
100
AcDbEntity
  8
0
100
AcDbLine
 62
7
  6
CONTINUOUS
 10
-3.0945509342
 20
13.076607396
 11
-3.0950277507
 21
13.0753270431
  0
LINE
  5
21C
100
AcDbEntity
  8
0
100
AcDbLine
 62
7
  6
CONTINUOUS
 10
-3.0948693951
 20
13.075748352
 11
-3.095412526
 21
13.0743150024
  0
LINE
  5
21D
100
AcDbEntity
  8
0
100
AcDbLine
 62
7
  6
CONTINUOUS
 10
-3.0952437695
 20
13.0747570982
 11
-3.0961529804
 21
13.0723997375
  0
LINE
  5
21E
100
AcDbEntity
  8
0
100
AcDbLine
 62
7
  6
CONTINUOUS
 10
-3.0958472455
 20
13.0731863195
 11
-3.096859961
 21
13.0705980913
  0
LINE
  5
21F
100
AcDbEntity
  8
0
100
AcDbLine
 62
7
  6
CONTINUOUS
 10
-3.0966843743
 20
13.0710436079
 11
-3.0980515557
 21
13.0676016496
  0
LINE
  5
220
100
AcDbEntity
  8
0
100
AcDbLine
 62
7
  6
CONTINUOUS
 10
-3.0978905776
 20
13.0680040676
 11
-3.0994044842
 21
13.0642445757
  0
LINE
  5
221
100
AcDbEntity
  8
0
100
AcDbLine
 62
7
  6
CONTINUOUS
 10
-3.0992713208
 20
13.0645733207
 11
-3.1008371424
 21
13.0607321595
  0
LINE
  5
222
100
AcDbEntity
  8
0
100
AcDbLine
 62
7
  6
CONTINUOUS
 10
-3.0944618988
 20
12.9821937348
 11
-3.0942094113
 21
12.9784918558
  0
LINE
  5
223
100
AcDbEntity
  8
0
100
AcDbLine
 62
9
  6
CONTINUOUS
 10
-2.7691426875
 20
9.8436708734
 11
-2.7691426875
 21
12.1826004214
  0
LINE
  5
224
100
AcDbEntity
  8
0
100
AcDbLine
 62
7
  6
CONTINUOUS
 10
-2.7491426875
 20
9.8636708734
 11
-2.7491426875
 21
12.1826004214
  0
LINE
  5
225
100
AcDbEntity
  8
0
100
AcDbLine
 62
7
  6
CONTINUOUS
 10
-2.7491426875
 20
12.5540090875
 11
-2.7491426875
 21
13.3871708734
  0
LINE
  5
226
100
AcDbEntity
  8
0
100
AcDbLine
 62
9
  6
CONTINUOUS
 10
-2.7291426875
 20
13.4071708734
 11
-2.7291426875
 21
12.5540090875
  0
LINE
  5
227
100
AcDbEntity
  8
0
100
AcDbLine
 62
9
  6
CONTINUOUS
 10
-2.4941426875
 20
12.5540090875
 11
-2.4941426875
 21
13.4071708734
  0
LINE
  5
228
100
AcDbEntity
  8
0
100
AcDbLine
 62
7
  6
CONTINUOUS
 10
-2.4741426875
 20
12.5540090875
 11
-2.4741426875
 21
13.3871708734
  0
LINE
  5
229
100
AcDbEntity
  8
0
100
AcDbLine
 62
7
  6
CONTINUOUS
 10
-2.0381426875
 20
13.4496708734
 11
-2.0381426875
 21
12.4896708734
  0
LINE
  5
22A
100
AcDbEntity
  8
0
100
AcDbLine
 62
9
  6
CONTINUOUS
 10
-2.0181426875
 20
13.4696708734
 11
-2.0181426875
 21
12.4696708734
  0
LWPOLYLINE
  5
22B
100
AcDbEntity
  8
0
100
AcDbPolyline
 62
7
  6
CONTINUOUS
 90
6
 70
0
 10
-1.6637777472
 20
12.4846708722
 10
-1.6606084446
 20
12.4923473498
 10
-1.6554237585
 20
12.4988914601
 10
-1.6486354527
 20
12.5037537411
 10
-1.6407752561
 20
12.5065555538
 10
-1.6347303778
 20
12.5071708735
  0
LINE
  5
22C
100
AcDbEntity
  8
0
100
AcDbLine
 62
7
  6
CONTINUOUS
 10
-3.0101053541
 20
12.221167678
 11
-2.7631800209
 21
12.5154418309
  0
LINE
  5
22D
100
AcDbEntity
  8
0
100
AcDbLine
 62
9
  6
CONTINUOUS
 10
-2.9947844652
 20
12.2083119258
 11
-2.7478591321
 21
12.5025860787
  0
LINE
  5
22E
100
AcDbEntity
  8
0
100
AcDbLine
 62
7
  6
CONTINUOUS
 10
-3.0949983176
 20
12.985275039
 11
-3.0949919045
 21
12.9852386149
  0
LINE
  5
22F
100
AcDbEntity
  8
0
100
AcDbLine
 62
9
  6
CONTINUOUS
 10
-1.6831426875
 20
12.4696708734
 11
-1.6831426875
 21
13.4696708734
  0
LINE
  5
230
100
AcDbEntity
  8
0
100
AcDbLine
 62
7
  6
CONTINUOUS
 10
-1.6631426875
 20
12.4896708734
 11
-1.6631426875
 21
12.6341869088
  0
LINE
  5
231
100
AcDbEntity
  8
0
100
AcDbLine
 62
7
  6
CONTINUOUS
 10
-1.6631426875
 20
12.825154838
 11
-1.6631426875
 21
13.1141869088
  0
LINE
  5
232
100
AcDbEntity
  8
0
100
AcDbLine
 62
7
  6
CONTINUOUS
 10
-1.6631426875
 20
13.305154838
 11
-1.6631426875
 21
13.4496708734
  0
LINE
  5
233
100
AcDbEntity
  8
0
100
AcDbLine
 62
9
  6
CONTINUOUS
 10
-1.6331426875
 20
13.4204322947
 11
-1.6331426875
 21
13.2847192666
  0
LINE
  5
234
100
AcDbEntity
  8
0
100
AcDbLine
 62
9
  6
CONTINUOUS
 10
-1.6331426875
 20
13.1053839016
 11
-1.6331426875
 21
12.8339578453
  0
LINE
  5
235
100
AcDbEntity
  8
0
100
AcDbLine
 62
9
  6
CONTINUOUS
 10
-1.6331426875
 20
12.6546224802
 11
-1.6331426875
 21
12.5189094521
  0
LINE
  5
236
100
AcDbEntity
  8
0
100
AcDbLine
 62
7
  6
CONTINUOUS
 10
-1.1131426875
 20
13.5196702746
 11
-1.1131426875
 21
12.4196714722
  0
LINE
  5
237
100
AcDbEntity
  8
0
100
AcDbLine
 62
7
  6
CONTINUOUS
 10
-0.9131426875
 20
12.3196708734
 11
-0.9131426875
 21
12.1196708734
  0
LINE
  5
238
100
AcDbEntity
  8
0
100
AcDbLine
 62
9
  6
CONTINUOUS
 10
-2.5035009098
 20
12.5282975831
 11
-2.750426243
 21
12.2340234302
  0
LINE
  5
239
100
AcDbEntity
  8
0
100
AcDbLine
 62
7
  6
CONTINUOUS
 10
-2.4881800209
 20
12.5154418309
 11
-2.7351053541
 21
12.221167678
  0
LINE
  5
23A
100
AcDbEntity
  8
0
100
AcDbLine
 62
7
  6
CONTINUOUS
 10
-3.0948747621
 20
12.863607728
 11
-3.0945303945
 21
12.8626782541
  0
LINE
  5
23B
100
AcDbEntity
  8
0
100
AcDbLine
 62
7
  6
CONTINUOUS
 10
-3.0945559282
 20
12.8627479741
 11
-3.0942722252
 21
12.8619630085
  0
LWPOLYLINE
  5
23C
100
AcDbEntity
  8
0
100
AcDbPolyline
 62
7
  6
CONTINUOUS
 90
3
 70
0
 10
-3.0942953762
 20
12.862028089
 10
-3.0940975243
 20
12.8614628456
 10
-3.0939724436
 20
12.8610878973
  0
LINE
  5
23D
100
AcDbEntity
  8
0
100
AcDbLine
 62
7
  6
CONTINUOUS
 10
-3.0939724436
 20
12.8610878973
 11
-3.0939362278
 21
12.8609729706
  0
LWPOLYLINE
  5
23E
100
AcDbEntity
  8
0
100
AcDbPolyline
 62
7
  6
CONTINUOUS
 90
3
 70
0
 10
-3.0956164158
 20
12.987346388
 10
-3.0949812834
 20
12.9852027679
 10
-3.0944521812
 20
12.982137436
  0
LINE
  5
23F
100
AcDbEntity
  8
0
100
AcDbLine
 62
7
  6
CONTINUOUS
 10
-0.8256426875
 20
12.1196708734
 11
-0.8256426875
 21
11.9346708734
  0
LINE
  5
240
100
AcDbEntity
  8
0
100
AcDbLine
 62
7
  6
CONTINUOUS
 10
-0.7293926875
 20
11.7646708734
 11
-0.7293926875
 21
11.7566708734
  0
LINE
  5
241
100
AcDbEntity
  8
0
100
AcDbLine
 62
7
  6
CONTINUOUS
 10
0.0031073125
 20
11.7646708734
 11
0.0031073125
 21
11.7566708734
  0
LINE
  5
242
100
AcDbEntity
  8
0
100
AcDbLine
 62
7
  6
CONTINUOUS
 10
0.0993573125
 20
12.1196708734
 11
0.0993573125
 21
11.9346708734
  0
LINE
  5
243
100
AcDbEntity
  8
0
100
AcDbLine
 62
7
  6
CONTINUOUS
 10
-3.1008371424
 20
12.8786095874
 11
-3.099274929
 21
12.8747773347
  0
LINE
  5
244
100
AcDbEntity
  8
0
100
AcDbLine
 62
7
  6
CONTINUOUS
 10
-3.0993069253
 20
12.8748564407
 11
-3.0978955083
 21
12.8713500135
  0
LINE
  5
245
100
AcDbEntity
  8
0
100
AcDbLine
 62
7
  6
CONTINUOUS
 10
-3.0979046193
 20
12.8713728653
 11
-3.0966810154
 21
12.8682896332
  0
LINE
  5
246
100
AcDbEntity
  8
0
100
AcDbLine
 62
7
  6
CONTINUOUS
 10
-3.0966899551
 20
12.8683123179
 11
-3.0956569603
 21
12.8656630064
  0
LINE
  5
247
100
AcDbEntity
  8
0
100
AcDbLine
 62
7
  6
CONTINUOUS
 10
-3.0956779285
 20
12.8657174098
 11
-3.0952249899
 21
12.8645352984
  0
LINE
  5
248
100
AcDbEntity
  8
0
100
AcDbLine
 62
7
  6
CONTINUOUS
 10
-3.0952493664
 20
12.864599353
 11
-3.0948488679
 21
12.8635385547
  0
LINE
  5
249
100
AcDbEntity
  8
0
100
AcDbLine
 62
7
  6
CONTINUOUS
 10
0.1868573125
 20
12.3196708734
 11
0.1868573125
 21
12.1196708734
  0
LINE
  5
24A
100
AcDbEntity
  8
0
100
AcDbLine
 62
7
  6
CONTINUOUS
 10
0.9868573125
 20
12.4196714722
 11
0.9868573125
 21
13.5196702746
  0
LINE
  5
24B
100
AcDbEntity
  8
0
100
AcDbLine
 62
7
  6
CONTINUOUS
 10
-1.6606084375
 20
13.4469943848
 11
-1.6637777472
 21
13.4546708746
  0
LINE
  5
24C
100
AcDbEntity
  8
0
100
AcDbLine
 62
9
  6
CONTINUOUS
 10
-3.10079686
 20
13.060744558
 11
-3.1008371425
 21
13.0607321592
  0
LWPOLYLINE
  5
24D
100
AcDbEntity
  8
0
100
AcDbPolyline
 62
7
  6
CONTINUOUS
 90
4
 70
0
 10
-3.0960519204
 20
12.9884271745
 10
-3.0961632292
 20
12.9885466515
 10
-3.0961099475
 20
12.9884406932
 10
-3.0956164158
 20
12.987346388
  0
LINE
  5
24E
100
AcDbEntity
  8
0
100
AcDbLine
 62
9
  6
CONTINUOUS
 10
-3.0101053541
 20
12.221167678
 11
-2.9947844652
 21
12.2083119258
  0
LINE
  5
24F
100
AcDbEntity
  8
0
100
AcDbLine
 62
9
  6
CONTINUOUS
 10
-2.750426243
 20
12.2340234302
 11
-2.7351053541
 21
12.221167678
  0
LINE
  5
250
100
AcDbEntity
  8
0
100
AcDbLine
 62
9
  6
CONTINUOUS
 10
-2.7478591321
 20
12.5025860787
 11
-2.7631800209
 21
12.5154418309
  0
LINE
  5
251
100
AcDbEntity
  8
0
100
AcDbLine
 62
9
  6
CONTINUOUS
 10
-2.4881800209
 20
12.5154418309
 11
-2.5035009098
 21
12.5282975831
  0
LINE
  5
252
100
AcDbEntity
  8
0
100
AcDbLine
 62
7
  6
CONTINUOUS
 10
18.4788573125
 20
4.2636708734
 11
18.2438573125
 21
4.2636708734
  0
LINE
  5
253
100
AcDbEntity
  8
0
100
AcDbLine
 62
9
  6
CONTINUOUS
 10
18.2238573125
 20
4.4506708734
 11
18.4988573125
 21
4.4506708734
  0
LINE
  5
254
100
AcDbEntity
  8
0
100
AcDbLine
 62
7
  6
CONTINUOUS
 10
24.5368573125
 20
5.9296708734
 11
24.5248573125
 21
5.9296708734
  0
LINE
  5
255
100
AcDbEntity
  8
0
100
AcDbLine
 62
7
  6
CONTINUOUS
 10
24.3688573125
 20
5.9296708734
 11
24.3676863502
 21
5.9296708734
  0
LINE
  5
256
100
AcDbEntity
  8
0
100
AcDbLine
 62
9
  6
CONTINUOUS
 10
18.1310698875
 20
7.4194502386
 11
18.1311082658
 21
7.4194551999
  0
LINE
  5
257
100
AcDbEntity
  8
0
100
AcDbLine
 62
9
  6
CONTINUOUS
 10
18.1548142097
 20
7.2784697253
 11
18.1549219636
 21
7.2784791526
  0
LINE
  5
258
100
AcDbEntity
  8
0
100
AcDbLine
 62
9
  6
CONTINUOUS
 10
18.1311487337
 20
7.3598874543
 11
18.1472431174
 21
7.3612955304
  0
LINE
  5
259
100
AcDbEntity
  8
0
100
AcDbLine
 62
7
  6
CONTINUOUS
 10
18.1524333769
 20
7.3721709551
 11
18.1401211127
 21
7.3710937716
  0
LINE
  5
25A
100
AcDbEntity
  8
0
100
AcDbLine
 62
9
  6
CONTINUOUS
 10
18.1538155721
 20
7.396605997
 11
18.1537775006
 21
7.3966048091
  0
LINE
  5
25B
100
AcDbEntity
  8
0
100
AcDbLine
 62
7
  6
CONTINUOUS
 10
24.2468573125
 20
6.2771708734
 11
24.1268573125
 21
6.2771708734
  0
LINE
  5
25C
100
AcDbEntity
  8
0
100
AcDbLine
 62
9
  6
CONTINUOUS
 10
24.1268573125
 20
6.3071708735
 11
24.2468573125
 21
6.3071708735
  0
LINE
  5
25D
100
AcDbEntity
  8
0
100
AcDbLine
 62
7
  6
CONTINUOUS
 10
24.0468573125
 20
6.3896708734
 11
24.0068573125
 21
6.3896708734
  0
LINE
  5
25E
100
AcDbEntity
  8
0
100
AcDbLine
 62
9
  6
CONTINUOUS
 10
18.4988573125
 20
6.6026004214
 11
18.4788573125
 21
6.6026004214
  0
LINE
  5
25F
100
AcDbEntity
  8
0
100
AcDbLine
 62
9
  6
CONTINUOUS
 10
18.2438573125
 20
6.6026004214
 11
18.2238573125
 21
6.6026004214
  0
LINE
  5
260
100
AcDbEntity
  8
0
100
AcDbLine
 62
7
  6
CONTINUOUS
 10
23.5668573125
 20
6.7271708734
 11
20.1268573125
 21
6.7271708734
  0
LINE
  5
261
100
AcDbEntity
  8
0
100
AcDbLine
 62
7
  6
CONTINUOUS
 10
23.9668573125
 20
6.7372283472
 11
23.6818573125
 21
6.7372283472
  0
LINE
  5
262
100
AcDbEntity
  8
0
100
AcDbLine
 62
7
  6
CONTINUOUS
 10
19.7138573125
 20
6.7896708734
 11
19.2538573125
 21
6.7896708734
  0
LINE
  5
263
100
AcDbEntity
  8
0
100
AcDbLine
 62
9
  6
CONTINUOUS
 10
19.2538573125
 20
6.8096708734
 11
19.7138573125
 21
6.8096708734
  0
LINE
  5
264
100
AcDbEntity
  8
0
100
AcDbLine
 62
7
  6
CONTINUOUS
 10
19.7638573125
 20
6.8646708734
 11
20.1268573125
 21
6.8646708734
  0
LINE
  5
265
100
AcDbEntity
  8
0
100
AcDbLine
 62
9
  6
CONTINUOUS
 10
18.4988573125
 20
6.9740090875
 11
18.5188573125
 21
6.9740090875
  0
LINE
  5
266
100
AcDbEntity
  8
0
100
AcDbLine
 62
9
  6
CONTINUOUS
 10
18.7538573125
 20
6.9740090875
 11
18.7738573125
 21
6.9740090875
  0
LINE
  5
267
100
AcDbEntity
  8
0
100
AcDbLine
 62
7
  6
CONTINUOUS
 10
18.7738573125
 20
7.0771708734
 11
19.2338573125
 21
7.0771708734
  0
LINE
  5
268
100
AcDbEntity
  8
0
100
AcDbLine
 62
7
  6
CONTINUOUS
 10
18.4988573125
 20
7.1271708734
 11
18.2688573125
 21
7.1271708734
  0
LINE
  5
269
100
AcDbEntity
  8
0
100
AcDbLine
 62
7
  6
CONTINUOUS
 10
9.3968573125
 20
13.4396708734
 11
9.3968573125
 21
12.4996708734
  0
LINE
  5
26A
100
AcDbEntity
  8
0
100
AcDbLine
 62
7
  6
CONTINUOUS
 10
9.8568573125
 20
13.7361127347
 11
9.8568573125
 21
13.4996708734
  0
LINE
  5
26B
100
AcDbEntity
  8
0
100
AcDbLine
 62
7
  6
CONTINUOUS
 10
9.8568573125
 20
12.4396708734
 11
9.8568573125
 21
12.0796708734
  0
LINE
  5
26C
100
AcDbEntity
  8
0
100
AcDbLine
 62
7
  6
CONTINUOUS
 10
9.8568573125
 20
9.3396708734
 11
9.8568573125
 21
12.0596708734
  0
LINE
  5
26D
100
AcDbEntity
  8
0
100
AcDbLine
 62
7
  6
CONTINUOUS
 10
18.1961578026
 20
7.2318025053
 11
18.2288573125
 21
7.2318025053
  0
LINE
  5
26E
100
AcDbEntity
  8
0
100
AcDbLine
 62
9
  6
CONTINUOUS
 10
24.2468573125
 20
7.3596708734
 11
24.1268573125
 21
7.3596708735
  0
LINE
  5
26F
100
AcDbEntity
  8
0
100
AcDbLine
 62
9
  6
CONTINUOUS
 10
19.7138573125
 20
7.3696708734
 11
19.2538573125
 21
7.3696708734
  0
LINE
  5
270
100
AcDbEntity
  8
0
100
AcDbLine
 62
9
  6
CONTINUOUS
 10
19.2538573125
 20
7.4096708734
 11
19.7138573125
 21
7.4096708734
  0
LINE
  5
271
100
AcDbEntity
  8
0
100
AcDbLine
 62
9
  6
CONTINUOUS
 10
24.1268573125
 20
7.4196708735
 11
24.2468573125
 21
7.4196708735
  0
LINE
  5
272
100
AcDbEntity
  8
0
100
AcDbLine
 62
7
  6
CONTINUOUS
 10
18.1961578026
 20
7.5475392415
 11
18.2288573125
 21
7.5475392415
  0
LINE
  5
273
100
AcDbEntity
  8
0
100
AcDbLine
 62
9
  6
CONTINUOUS
 10
18.7738573125
 20
7.6401708734
 11
18.4988573125
 21
7.6401708734
  0
LINE
  5
274
100
AcDbEntity
  8
0
100
AcDbLine
 62
7
  6
CONTINUOUS
 10
18.4988573125
 20
7.6521708734
 11
18.2688573125
 21
7.6521708734
  0
LINE
  5
275
100
AcDbEntity
  8
0
100
AcDbLine
 62
7
  6
CONTINUOUS
 10
18.7738573125
 20
7.7021708734
 11
19.2338573125
 21
7.7021708734
  0
LINE
  5
276
100
AcDbEntity
  8
0
100
AcDbLine
 62
7
  6
CONTINUOUS
 10
18.5188573125
 20
7.8271708734
 11
18.7538573125
 21
7.8271708734
  0
LINE
  5
277
100
AcDbEntity
  8
0
100
AcDbLine
 62
7
  6
CONTINUOUS
 10
19.7638573125
 20
7.9146708734
 11
20.1268573125
 21
7.9146708734
  0
LINE
  5
278
100
AcDbEntity
  8
0
100
AcDbLine
 62
9
  6
CONTINUOUS
 10
19.7138573125
 20
7.9696708734
 11
19.2538573125
 21
7.9696708734
  0
LINE
  5
279
100
AcDbEntity
  8
0
100
AcDbLine
 62
7
  6
CONTINUOUS
 10
19.2538573125
 20
7.9896708734
 11
19.7138573125
 21
7.9896708734
  0
LINE
  5
27A
100
AcDbEntity
  8
0
100
AcDbLine
 62
7
  6
CONTINUOUS
 10
20.1268573125
 20
8.0521708734
 11
20.3668573125
 21
8.0521708734
  0
LINE
  5
27B
100
AcDbEntity
  8
0
100
AcDbLine
 62
7
  6
CONTINUOUS
 10
21.6868573125
 20
8.0521708734
 11
23.9668573125
 21
8.0521708734
  0
LINE
  5
27C
100
AcDbEntity
  8
0
100
AcDbLine
 62
7
  6
CONTINUOUS
 10
21.6268573125
 20
8.1396708734
 11
20.4268573125
 21
8.1396708734
  0
LINE
  5
27D
100
AcDbEntity
  8
0
100
AcDbLine
 62
9
  6
CONTINUOUS
 10
18.1537775004
 20
7.3827369441
 11
18.1538155719
 21
7.3827357559
  0
LINE
  5
27E
100
AcDbEntity
  8
0
100
AcDbLine
 62
7
  6
CONTINUOUS
 10
18.1401211127
 20
7.4082479753
 11
18.152435671
 21
7.407170591
  0
LINE
  5
27F
100
AcDbEntity
  8
0
100
AcDbLine
 62
9
  6
CONTINUOUS
 10
18.1472431175
 20
7.4180462164
 11
18.1311487337
 21
7.4194542925
  0
LINE
  5
280
100
AcDbEntity
  8
0
100
AcDbLine
 62
9
  6
CONTINUOUS
 10
18.1548142097
 20
7.5008720215
 11
18.1549219636
 21
7.5008625942
  0
LINE
  5
281
100
AcDbEntity
  8
0
100
AcDbLine
 62
7
  6
CONTINUOUS
 10
9.9868573125
 20
12.0596708734
 11
9.9868573125
 21
12.0796708734
  0
LINE
  5
282
100
AcDbEntity
  8
0
100
AcDbLine
 62
7
  6
CONTINUOUS
 10
10.2414507202
 20
12.0596708734
 11
10.2414507202
 21
11.7596708734
  0
LINE
  5
283
100
AcDbEntity
  8
0
100
AcDbLine
 62
7
  6
CONTINUOUS
 10
10.6722639048
 20
11.7596708734
 11
10.6722639048
 21
12.0596708734
  0
LINE
  5
284
100
AcDbEntity
  8
0
100
AcDbLine
 62
7
  6
CONTINUOUS
 10
24.0468573125
 20
8.3896708734
 11
24.0068573125
 21
8.3896708734
  0
LINE
  5
285
100
AcDbEntity
  8
0
100
AcDbLine
 62
9
  6
CONTINUOUS
 10
24.2468573125
 20
8.4721708734
 11
24.1268573125
 21
8.4721708735
  0
LINE
  5
286
100
AcDbEntity
  8
0
100
AcDbLine
 62
7
  6
CONTINUOUS
 10
24.1268573125
 20
8.5021708734
 11
24.2468573125
 21
8.5021708734
  0
LINE
  5
287
100
AcDbEntity
  8
0
100
AcDbLine
 62
7
  6
CONTINUOUS
 10
24.5368573125
 20
8.8496708734
 11
24.3676863502
 21
8.8496708734
  0
LINE
  5
288
100
AcDbEntity
  8
0
100
AcDbLine
 62
7
  6
CONTINUOUS
 10
21.2422639048
 20
8.8996708734
 11
20.8114507202
 21
8.8996708734
  0
LINE
  5
289
100
AcDbEntity
  8
0
100
AcDbLine
 62
9
  6
CONTINUOUS
 10
18.1311082658
 20
7.3598865469
 11
18.1310699245
 21
7.3598912125
  0
LINE
  5
28A
100
AcDbEntity
  8
0
100
AcDbLine
 62
9
  6
CONTINUOUS
 10
-3.1008371427
 20
12.8786095881
 11
-3.1007968601
 21
12.878597189
  0
LINE
  5
28B
100
AcDbEntity
  8
0
100
AcDbLine
 62
7
  6
CONTINUOUS
 10
10.9268573125
 20
12.0596708734
 11
10.9268573125
 21
12.0796708734
  0
LINE
  5
28C
100
AcDbEntity
  8
0
100
AcDbLine
 62
7
  6
CONTINUOUS
 10
11.0568573125
 20
13.7361127347
 11
11.0568573125
 21
12.0796708734
  0
LINE
  5
28D
100
AcDbEntity
  8
0
100
AcDbLine
 62
7
  6
CONTINUOUS
 10
11.0568573125
 20
9.3396708734
 11
11.0568573125
 21
9.5796708734
  0
LINE
  5
28E
100
AcDbEntity
  8
0
100
AcDbLine
 62
7
  6
CONTINUOUS
 10
11.0568573125
 20
10.6396708734
 11
11.0568573125
 21
12.0596708734
  0
LINE
  5
28F
100
AcDbEntity
  8
0
100
AcDbLine
 62
7
  6
CONTINUOUS
 10
11.5168573125
 20
9.6396708734
 11
11.5168573125
 21
10.5796708734
  0
LINE
  5
290
100
AcDbEntity
  8
0
100
AcDbLine
 62
7
  6
CONTINUOUS
 10
21.6268518479
 20
9.1996708734
 11
20.4268627771
 21
9.1996708734
  0
LINE
  5
291
100
AcDbEntity
  8
0
100
AcDbLine
 62
7
  6
CONTINUOUS
 10
20.4268573125
 20
9.2196708734
 11
21.6268573125
 21
9.2196708734
  0
LINE
  5
292
100
AcDbEntity
  8
0
100
AcDbLine
 62
7
  6
CONTINUOUS
 10
9.8768573323
 20
9.3196708734
 11
11.0368572927
 21
9.3196708734
  0
LINE
  5
293
100
AcDbEntity
  8
0
100
AcDbLine
 62
9
  6
CONTINUOUS
 10
9.8568573125
 20
9.3396708734
 11
11.0568573125
 21
9.3396708734
  0
LINE
  5
294
100
AcDbEntity
  8
0
100
AcDbLine
 62
7
  6
CONTINUOUS
 10
20.3668573125
 20
9.6396708734
 11
19.9668573125
 21
9.6396708734
  0
LINE
  5
295
100
AcDbEntity
  8
0
100
AcDbLine
 62
7
  6
CONTINUOUS
 10
11.1168573125
 20
9.6396708734
 11
11.5168573125
 21
9.6396708734
  0
LINE
  5
296
100
AcDbEntity
  8
0
100
AcDbLine
 62
7
  6
CONTINUOUS
 10
19.9668573125
 20
9.7346708734
 11
11.5168573125
 21
9.7346708734
  0
LINE
  5
297
100
AcDbEntity
  8
0
100
AcDbLine
 62
7
  6
CONTINUOUS
 10
-2.7691426875
 20
9.8436708734
 11
-3.0041426875
 21
9.8436708734
  0
LINE
  5
298
100
AcDbEntity
  8
0
100
AcDbLine
 62
9
  6
CONTINUOUS
 10
-3.0241426875
 20
10.0306708734
 11
-2.7491426875
 21
10.0306708734
  0
LINE
  5
299
100
AcDbEntity
  8
0
100
AcDbLine
 62
9
  6
CONTINUOUS
 10
18.1471628573
 20
7.2986095881
 11
18.1472031399
 21
7.298597189
  0
LINE
  5
29A
100
AcDbEntity
  8
0
100
AcDbLine
 62
7
  6
CONTINUOUS
 10
19.9668573125
 20
10.4846708734
 11
11.5168573125
 21
10.4846708734
  0
LINE
  5
29B
100
AcDbEntity
  8
0
100
AcDbLine
 62
7
  6
CONTINUOUS
 10
20.3668573125
 20
10.5796708734
 11
19.9668573125
 21
10.5796708734
  0
LINE
  5
29C
100
AcDbEntity
  8
0
100
AcDbLine
 62
7
  6
CONTINUOUS
 10
11.1168573125
 20
10.5796708734
 11
11.5168573125
 21
10.5796708734
  0
LINE
  5
29D
100
AcDbEntity
  8
0
100
AcDbLine
 62
9
  6
CONTINUOUS
 10
21.6268573125
 20
10.8761127347
 11
20.4268573125
 21
10.8761127347
  0
LINE
  5
29E
100
AcDbEntity
  8
0
100
AcDbLine
 62
7
  6
CONTINUOUS
 10
21.6068572927
 20
10.8961127347
 11
20.4468573322
 21
10.8961127347
  0
LINE
  5
29F
100
AcDbEntity
  8
0
100
AcDbLine
 62
7
  6
CONTINUOUS
 10
11.0568573125
 20
10.9996708734
 11
9.8568573125
 21
10.9996708734
  0
LINE
  5
2A0
100
AcDbEntity
  8
0
100
AcDbLine
 62
7
  6
CONTINUOUS
 10
-0.7293924852
 20
11.7566708734
 11
0.0031071101
 21
11.7566708734
  0
LINE
  5
2A1
100
AcDbEntity
  8
0
100
AcDbLine
 62
7
  6
CONTINUOUS
 10
10.6722639048
 20
11.7596708734
 11
10.2414507202
 21
11.7596708734
  0
LINE
  5
2A2
100
AcDbEntity
  8
0
100
AcDbLine
 62
7
  6
CONTINUOUS
 10
0.0550254795
 20
11.7646708734
 11
-0.7813108545
 21
11.7646708734
  0
LINE
  5
2A3
100
AcDbEntity
  8
0
100
AcDbLine
 62
9
  6
CONTINUOUS
 10
0.0641453995
 20
11.7705683093
 11
-0.7904307746
 21
11.7705683093
  0
LINE
  5
2A4
100
AcDbEntity
  8
0
100
AcDbLine
 62
9
  6
CONTINUOUS
 10
-0.8256426875
 20
11.9346708734
 11
0.0993573125
 21
11.9346708734
  0
LINE
  5
2A5
100
AcDbEntity
  8
0
100
AcDbLine
 62
7
  6
CONTINUOUS
 10
11.0568518479
 20
12.0596708734
 11
9.8568627771
 21
12.0596708734
  0
LINE
  5
2A6
100
AcDbEntity
  8
0
100
AcDbLine
 62
7
  6
CONTINUOUS
 10
-3.1078788873
 20
12.9882479753
 11
-3.095564329
 21
12.987170591
  0
LINE
  5
2A7
100
AcDbEntity
  8
0
100
AcDbLine
 62
9
  6
CONTINUOUS
 10
-3.1007568825
 20
12.9980462164
 11
-3.1168512663
 21
12.9994542925
  0
LINE
  5
2A8
100
AcDbEntity
  8
0
100
AcDbLine
 62
9
  6
CONTINUOUS
 10
-3.0931857903
 20
13.0808720215
 11
-3.0930780364
 21
13.0808625942
  0
LINE
  5
2A9
100
AcDbEntity
  8
0
100
AcDbLine
 62
9
  6
CONTINUOUS
 10
-3.1168917342
 20
12.9398865469
 11
-3.1169300755
 21
12.9398912125
  0
LINE
  5
2AA
100
AcDbEntity
  8
0
100
AcDbLine
 62
9
  6
CONTINUOUS
 10
18.2378946459
 20
6.641167678
 11
18.2532155348
 21
6.6283119258
  0
LINE
  5
2AB
100
AcDbEntity
  8
0
100
AcDbLine
 62
9
  6
CONTINUOUS
 10
18.14720314
 20
7.480744558
 11
18.1471628575
 21
7.4807321592
  0
LINE
  5
2AC
100
AcDbEntity
  8
0
100
AcDbLine
 62
7
  6
CONTINUOUS
 10
9.8568573125
 20
12.0796708734
 11
11.0568573125
 21
12.0796708734
  0
LINE
  5
2AD
100
AcDbEntity
  8
0
100
AcDbLine
 62
7
  6
CONTINUOUS
 10
-0.9131426875
 20
12.1196708734
 11
0.1868573125
 21
12.1196708734
  0
LINE
  5
2AE
100
AcDbEntity
  8
0
100
AcDbLine
 62
9
  6
CONTINUOUS
 10
-2.7491426875
 20
12.1826004214
 11
-2.7691426875
 21
12.1826004214
  0
LINE
  5
2AF
100
AcDbEntity
  8
0
100
AcDbLine
 62
9
  6
CONTINUOUS
 10
-3.0041426875
 20
12.1826004214
 11
-3.0241426875
 21
12.1826004214
  0
LINE
  5
2B0
100
AcDbEntity
  8
0
100
AcDbLine
 62
7
  6
CONTINUOUS
 10
0.9868573125
 20
12.4196708734
 11
0.286857109
 21
12.4196708734
  0
LINE
  5
2B1
100
AcDbEntity
  8
0
100
AcDbLine
 62
7
  6
CONTINUOUS
 10
-1.0131424839
 20
12.4196708734
 11
-1.1131426875
 21
12.4196708734
  0
LINE
  5
2B2
100
AcDbEntity
  8
0
100
AcDbLine
 62
7
  6
CONTINUOUS
 10
-1.6831426875
 20
12.4696708734
 11
-2.0181426875
 21
12.4696708734
  0
LINE
  5
2B3
100
AcDbEntity
  8
0
100
AcDbLine
 62
9
  6
CONTINUOUS
 10
-2.0181426875
 20
12.4896708734
 11
-1.6831426875
 21
12.4896708734
  0
LINE
  5
2B4
100
AcDbEntity
  8
0
100
AcDbLine
 62
7
  6
CONTINUOUS
 10
9.7968573125
 20
12.4996708734
 11
9.3968573125
 21
12.4996708734
  0
LINE
  5
2B5
100
AcDbEntity
  8
0
100
AcDbLine
 62
7
  6
CONTINUOUS
 10
-1.6347282928
 20
12.5071708734
 11
-1.1131426875
 21
12.5071708734
  0
LINE
  5
2B6
100
AcDbEntity
  8
0
100
AcDbLine
 62
9
  6
CONTINUOUS
 10
-2.7491426875
 20
12.5540090875
 11
-2.7291426875
 21
12.5540090875
  0
LINE
  5
2B7
100
AcDbEntity
  8
0
100
AcDbLine
 62
9
  6
CONTINUOUS
 10
-2.4941426875
 20
12.5540090875
 11
-2.4741426875
 21
12.5540090875
  0
LINE
  5
2B8
100
AcDbEntity
  8
0
100
AcDbLine
 62
7
  6
CONTINUOUS
 10
9.3968573125
 20
12.5946708734
 11
0.9868573125
 21
12.5946708734
  0
LINE
  5
2B9
100
AcDbEntity
  8
0
100
AcDbLine
 62
7
  6
CONTINUOUS
 10
-2.4741426875
 20
12.6571708734
 11
-2.0381426875
 21
12.6571708734
  0
LINE
  5
2BA
100
AcDbEntity
  8
0
100
AcDbLine
 62
7
  6
CONTINUOUS
 10
-2.7491426875
 20
12.7071708734
 11
-2.9791426875
 21
12.7071708734
  0
LINE
  5
2BB
100
AcDbEntity
  8
0
100
AcDbLine
 62
7
  6
CONTINUOUS
 10
-3.0518421974
 20
12.8118025053
 11
-3.0191426875
 21
12.8118025053
  0
LINE
  5
2BC
100
AcDbEntity
  8
0
100
AcDbLine
 62
9
  6
CONTINUOUS
 10
-1.6831426875
 20
12.9496708734
 11
-2.0181426875
 21
12.9496708734
  0
LINE
  5
2BD
100
AcDbEntity
  8
0
100
AcDbLine
 62
9
  6
CONTINUOUS
 10
-2.0181426875
 20
12.9896708734
 11
-1.6831426875
 21
12.9896708734
  0
LINE
  5
2BE
100
AcDbEntity
  8
0
100
AcDbLine
 62
9
  6
CONTINUOUS
 10
-3.0942224996
 20
12.9627369441
 11
-3.0941844281
 21
12.9627357559
  0
LWPOLYLINE
  5
2BF
100
AcDbEntity
  8
0
100
AcDbPolyline
 62
7
  6
CONTINUOUS
 90
5
 70
0
 10
-1.6347303778
 20
13.4321708734
 10
-1.6407752571
 20
13.4327861932
 10
-1.6486354474
 20
13.4355880029
 10
-1.6554237486
 20
13.4404502773
 10
-1.6606084375
 20
13.4469943848
  0
LINE
  5
2C0
100
AcDbEntity
  8
0
100
AcDbLine
 62
9
  6
CONTINUOUS
 10
18.497573757
 20
6.6540234302
 11
18.5128946459
 21
6.641167678
  0
LINE
  5
2C1
100
AcDbEntity
  8
0
100
AcDbLine
 62
9
  6
CONTINUOUS
 10
18.5001408679
 20
6.9225860787
 11
18.4848199791
 21
6.9354418309
  0
LINE
  5
2C2
100
AcDbEntity
  8
0
100
AcDbLine
 62
9
  6
CONTINUOUS
 10
18.7598199791
 20
6.9354418309
 11
18.7444990902
 21
6.9482975831
  0
LINE
  5
2C3
100
AcDbEntity
  8
0
100
AcDbLine
 62
9
  6
CONTINUOUS
 10
-3.0941844279
 20
12.976605997
 11
-3.0942224994
 21
12.9766048091
  0
LINE
  5
2C4
100
AcDbEntity
  8
0
100
AcDbLine
 62
7
  6
CONTINUOUS
 10
-3.0518421974
 20
13.1275392415
 11
-3.0191426875
 21
13.1275392415
  0
LINE
  5
2C5
100
AcDbEntity
  8
0
100
AcDbLine
 62
9
  6
CONTINUOUS
 10
-2.4741426875
 20
13.2201708734
 11
-2.7491426875
 21
13.2201708734
  0
LINE
  5
2C6
100
AcDbEntity
  8
0
100
AcDbLine
 62
7
  6
CONTINUOUS
 10
-2.7491426875
 20
13.2321708734
 11
-2.9791426875
 21
13.2321708734
  0
LINE
  5
2C7
100
AcDbEntity
  8
0
100
AcDbLine
 62
7
  6
CONTINUOUS
 10
-2.4741426875
 20
13.2821708734
 11
-2.0381426875
 21
13.2821708734
  0
LINE
  5
2C8
100
AcDbEntity
  8
0
100
AcDbLine
 62
7
  6
CONTINUOUS
 10
9.3968573125
 20
13.3446708734
 11
0.9868573125
 21
13.3446708734
  0
LINE
  5
2C9
100
AcDbEntity
  8
0
100
AcDbLine
 62
7
  6
CONTINUOUS
 10
-2.7291426875
 20
13.4071708734
 11
-2.4941426875
 21
13.4071708734
  0
LINE
  5
2CA
100
AcDbEntity
  8
0
100
AcDbLine
 62
7
  6
CONTINUOUS
 10
-1.6347282928
 20
13.4321708734
 11
-1.1131426875
 21
13.4321708734
  0
LINE
  5
2CB
100
AcDbEntity
  8
0
100
AcDbLine
 62
7
  6
CONTINUOUS
 10
9.7968573125
 20
13.4396708734
 11
9.3968573125
 21
13.4396708734
  0
LINE
  5
2CC
100
AcDbEntity
  8
0
100
AcDbLine
 62
9
  6
CONTINUOUS
 10
-1.6831426875
 20
13.4496708734
 11
-2.0181426875
 21
13.4496708734
  0
LINE
  5
2CD
100
AcDbEntity
  8
0
100
AcDbLine
 62
7
  6
CONTINUOUS
 10
-2.0181426875
 20
13.4696708734
 11
-1.6831426875
 21
13.4696708734
  0
LINE
  5
2CE
100
AcDbEntity
  8
0
100
AcDbLine
 62
7
  6
CONTINUOUS
 10
0.9868573125
 20
13.5196708734
 11
-1.1131426875
 21
13.5196708734
  0
LINE
  5
2CF
100
AcDbEntity
  8
0
100
AcDbLine
 62
9
  6
CONTINUOUS
 10
11.0568573125
 20
13.7361127347
 11
9.8568573125
 21
13.7361127347
  0
LINE
  5
2D0
100
AcDbEntity
  8
0
100
AcDbLine
 62
7
  6
CONTINUOUS
 10
11.0368572927
 20
13.7561127347
 11
9.8768573322
 21
13.7561127347
  0
LWPOLYLINE
  5
2D1
100
AcDbEntity
  8
0
100
AcDbPolyline
 62
7
  6
CONTINUOUS
 90
4
 70
0
 10
18.1519480796
 20
7.4084271745
 10
18.1518367708
 20
7.4085466515
 10
18.1518900525
 20
7.4084406932
 10
18.1523835842
 20
7.407346388
  0
LINE
  5
2D2
100
AcDbEntity
  8
0
100
AcDbLine
 62
9
  6
CONTINUOUS
 10
-3.1169301125
 20
12.9994502386
 11
-3.1168917342
 21
12.9994551999
  0
LINE
  5
2D3
100
AcDbEntity
  8
0
100
AcDbLine
 62
9
  6
CONTINUOUS
 10
-3.0931857903
 20
12.8584697253
 11
-3.0930780364
 21
12.8584791526
  0
LINE
  5
2D4
100
AcDbEntity
  8
0
100
AcDbLine
 62
9
  6
CONTINUOUS
 10
-3.1168512663
 20
12.9398874543
 11
-3.1007568826
 21
12.9412955304
  0
LINE
  5
2D5
100
AcDbEntity
  8
0
100
AcDbLine
 62
7
  6
CONTINUOUS
 10
-3.0955666231
 20
12.9521709551
 11
-3.1078788873
 21
12.9510937716
  0
LINE
  5
2D6
100
AcDbEntity
  8
0
100
AcDbLine
 62
7
  6
CONTINUOUS
 10
18.1471628576
 20
7.2986095874
 11
18.148725071
 21
7.2947773347
  0
LINE
  5
2D7
100
AcDbEntity
  8
0
100
AcDbLine
 62
7
  6
CONTINUOUS
 10
18.1486930747
 20
7.2948564407
 11
18.1501044917
 21
7.2913500135
  0
LINE
  5
2D8
100
AcDbEntity
  8
0
100
AcDbLine
 62
7
  6
CONTINUOUS
 10
18.1500953807
 20
7.2913728653
 11
18.1513189846
 21
7.2882896332
  0
LINE
  5
2D9
100
AcDbEntity
  8
0
100
AcDbLine
 62
7
  6
CONTINUOUS
 10
18.1513100449
 20
7.2883123179
 11
18.1523430397
 21
7.2856630064
  0
LINE
  5
2DA
100
AcDbEntity
  8
0
100
AcDbLine
 62
7
  6
CONTINUOUS
 10
18.1523220715
 20
7.2857174098
 11
18.1527750101
 21
7.2845352984
  0
LINE
  5
2DB
100
AcDbEntity
  8
0
100
AcDbLine
 62
7
  6
CONTINUOUS
 10
18.1527506336
 20
7.284599353
 11
18.1531511321
 21
7.2835385547
  0
LINE
  5
2DC
100
AcDbEntity
  8
0
100
AcDbLine
 62
7
  6
CONTINUOUS
 10
18.1531252379
 20
7.283607728
 11
18.1534696055
 21
7.2826782541
  0
LINE
  5
2DD
100
AcDbEntity
  8
0
100
AcDbLine
 62
7
  6
CONTINUOUS
 10
18.1534440718
 20
7.2827479741
 11
18.1537277748
 21
7.2819630085
  0
LWPOLYLINE
  5
2DE
100
AcDbEntity
  8
0
100
AcDbPolyline
 62
7
  6
CONTINUOUS
 90
3
 70
0
 10
18.1537046238
 20
7.282028089
 10
18.1539024757
 20
7.2814628456
 10
18.1540275564
 20
7.2810878973
  0
LINE
  5
2DF
100
AcDbEntity
  8
0
100
AcDbLine
 62
7
  6
CONTINUOUS
 10
18.1540275564
 20
7.2810878973
 11
18.1540637722
 21
7.2809729706
  0
LWPOLYLINE
  5
2E0
100
AcDbEntity
  8
0
100
AcDbPolyline
 62
7
  6
CONTINUOUS
 90
3
 70
0
 10
18.1523835842
 20
7.407346388
 10
18.1530187166
 20
7.4052027679
 10
18.1535478188
 20
7.402137436
  0
LINE
  5
2E1
100
AcDbEntity
  8
0
100
AcDbLine
 62
7
  6
CONTINUOUS
 10
18.1535381012
 20
7.4021937348
 11
18.1537905887
 21
7.3984918558
  0
LWPOLYLINE
  5
2E2
100
AcDbEntity
  8
0
100
AcDbPolyline
 62
7
  6
CONTINUOUS
 90
3
 70
0
 10
18.1537774611
 20
7.3827382049
 10
18.1537877383
 20
7.3807031163
 10
18.1535340545
 20
7.3770903832
  0
LINE
  5
2E3
100
AcDbEntity
  8
0
100
AcDbLine
 62
9
  6
CONTINUOUS
 10
18.1806023357
 20
7.5401101385
 11
18.1806023357
 21
7.2392316083
  0
LINE
  5
2E4
100
AcDbEntity
  8
0
100
AcDbLine
 62
9
  6
CONTINUOUS
 10
18.1961578026
 20
7.5475392415
 11
18.1961578026
 21
7.2318025053
  0
LINE
  5
2E5
100
AcDbEntity
  8
0
100
AcDbLine
 62
7
  6
CONTINUOUS
 10
18.2238573125
 20
4.2836708734
 11
18.2238573125
 21
6.6026004214
  0
LINE
  5
2E6
100
AcDbEntity
  8
0
100
AcDbLine
 62
9
  6
CONTINUOUS
 10
18.2288573125
 20
7.2318025053
 11
18.2288573125
 21
7.5475392415
  0
LINE
  5
2E7
100
AcDbEntity
  8
0
100
AcDbLine
 62
9
  6
CONTINUOUS
 10
18.2438573125
 20
6.6026004214
 11
18.2438573125
 21
4.2636708734
  0
LINE
  5
2E8
100
AcDbEntity
  8
0
100
AcDbLine
 62
7
  6
CONTINUOUS
 10
18.2488573125
 20
7.6321707391
 11
18.2488573125
 21
7.1471710078
  0
LINE
  5
2E9
100
AcDbEntity
  8
0
100
AcDbLine
 62
9
  6
CONTINUOUS
 10
18.2688573125
 20
7.6521708734
 11
18.2688573125
 21
7.1271708734
  0
LINE
  5
2EA
100
AcDbEntity
  8
0
100
AcDbLine
 62
9
  6
CONTINUOUS
 10
18.4788573125
 20
4.2636708734
 11
18.4788573125
 21
6.6026004214
  0
LINE
  5
2EB
100
AcDbEntity
  8
0
100
AcDbLine
 62
7
  6
CONTINUOUS
 10
18.4988573125
 20
4.2836708734
 11
18.4988573125
 21
6.6026004214
  0
LINE
  5
2EC
100
AcDbEntity
  8
0
100
AcDbLine
 62
7
  6
CONTINUOUS
 10
18.4988573125
 20
6.9740090875
 11
18.4988573125
 21
7.8071708734
  0
LINE
  5
2ED
100
AcDbEntity
  8
0
100
AcDbLine
 62
9
  6
CONTINUOUS
 10
18.5188573125
 20
7.8271708734
 11
18.5188573125
 21
6.9740090875
  0
LINE
  5
2EE
100
AcDbEntity
  8
0
100
AcDbLine
 62
7
  6
CONTINUOUS
 10
18.1537877383
 20
7.3986386305
 11
18.1537774611
 21
7.3966035419
  0
LINE
  5
2EF
100
AcDbEntity
  8
0
100
AcDbLine
 62
7
  6
CONTINUOUS
 10
18.1535478188
 20
7.3772043109
 11
18.1530016824
 21
7.3740667078
  0
LINE
  5
2F0
100
AcDbEntity
  8
0
100
AcDbLine
 62
7
  6
CONTINUOUS
 10
18.1540464955
 20
7.4983003696
 11
18.1540655368
 21
7.4983727404
  0
LWPOLYLINE
  5
2F1
100
AcDbEntity
  8
0
100
AcDbPolyline
 62
7
  6
CONTINUOUS
 90
4
 70
0
 10
18.1540647746
 20
7.4983700015
 10
18.1540725898
 20
7.498398088
 10
18.1540298267
 20
7.4982609104
 10
18.1539061724
 20
7.4978897108
  0
LINE
  5
2F2
100
AcDbEntity
  8
0
100
AcDbLine
 62
7
  6
CONTINUOUS
 10
18.1530187166
 20
7.3741389789
 11
18.1530080955
 21
7.374103132
  0
LWPOLYLINE
  5
2F3
100
AcDbEntity
  8
0
100
AcDbPolyline
 62
7
  6
CONTINUOUS
 90
4
 70
0
 10
18.1530016824
 20
7.3740667078
 10
18.1523697618
 20
7.3719587479
 10
18.1518837952
 20
7.3708901306
 10
18.1517976586
 20
7.3707497585
  0
LWPOLYLINE
  5
2F4
100
AcDbEntity
  8
0
100
AcDbPolyline
 62
7
  6
CONTINUOUS
 90
3
 70
0
 10
18.1540663929
 20
7.4983759942
 10
18.1539690799
 20
7.4980757834
 10
18.1538091273
 20
7.4976093869
  0
LINE
  5
2F5
100
AcDbEntity
  8
0
100
AcDbLine
 62
7
  6
CONTINUOUS
 10
18.1539061724
 20
7.4978897108
 11
18.1537090567
 21
7.497326101
  0
LINE
  5
2F6
100
AcDbEntity
  8
0
100
AcDbLine
 62
7
  6
CONTINUOUS
 10
18.1538091273
 20
7.4976093869
 11
18.1535854386
 21
7.4969818337
  0
LINE
  5
2F7
100
AcDbEntity
  8
0
100
AcDbLine
 62
7
  6
CONTINUOUS
 10
18.1537090567
 20
7.497326101
 11
18.1533055554
 21
7.4962180056
  0
LINE
  5
2F8
100
AcDbEntity
  8
0
100
AcDbLine
 62
7
  6
CONTINUOUS
 10
18.1534490658
 20
7.496607396
 11
18.1529722493
 21
7.4953270431
  0
LINE
  5
2F9
100
AcDbEntity
  8
0
100
AcDbLine
 62
7
  6
CONTINUOUS
 10
18.1531306049
 20
7.495748352
 11
18.152587474
 21
7.4943150024
  0
LINE
  5
2FA
100
AcDbEntity
  8
0
100
AcDbLine
 62
7
  6
CONTINUOUS
 10
18.1527562305
 20
7.4947570982
 11
18.1518470196
 21
7.4923997375
  0
LINE
  5
2FB
100
AcDbEntity
  8
0
100
AcDbLine
 62
7
  6
CONTINUOUS
 10
18.1521527545
 20
7.4931863195
 11
18.151140039
 21
7.4905980913
  0
LINE
  5
2FC
100
AcDbEntity
  8
0
100
AcDbLine
 62
7
  6
CONTINUOUS
 10
18.1513156257
 20
7.4910436079
 11
18.1499484443
 21
7.4876016496
  0
LINE
  5
2FD
100
AcDbEntity
  8
0
100
AcDbLine
 62
7
  6
CONTINUOUS
 10
18.1501094224
 20
7.4880040676
 11
18.1485955158
 21
7.4842445757
  0
LINE
  5
2FE
100
AcDbEntity
  8
0
100
AcDbLine
 62
7
  6
CONTINUOUS
 10
18.1487286792
 20
7.4845733207
 11
18.1471628576
 21
7.4807321595
  0
LINE
  5
2FF
100
AcDbEntity
  8
0
100
AcDbLine
 62
7
  6
CONTINUOUS
 10
18.2378946459
 20
6.641167678
 11
18.4848199791
 21
6.9354418309
  0
LINE
  5
300
100
AcDbEntity
  8
0
100
AcDbLine
 62
9
  6
CONTINUOUS
 10
18.2532155348
 20
6.6283119258
 11
18.5001408679
 21
6.9225860787
  0
LINE
  5
301
100
AcDbEntity
  8
0
100
AcDbLine
 62
9
  6
CONTINUOUS
 10
18.7444990902
 20
6.9482975831
 11
18.497573757
 21
6.6540234302
  0
LINE
  5
302
100
AcDbEntity
  8
0
100
AcDbLine
 62
7
  6
CONTINUOUS
 10
18.7598199791
 20
6.9354418309
 11
18.5128946459
 21
6.641167678
  0
LINE
  5
303
100
AcDbEntity
  8
0
100
AcDbLine
 62
7
  6
CONTINUOUS
 10
18.1530016824
 20
7.405275039
 11
18.1530080955
 21
7.4052386149
  0
LINE
  5
304
100
AcDbEntity
  8
0
100
AcDbLine
 62
9
  6
CONTINUOUS
 10
18.7538573125
 20
6.9740090875
 11
18.7538573125
 21
7.8271708734
  0
LINE
  5
305
100
AcDbEntity
  8
0
100
AcDbLine
 62
7
  6
CONTINUOUS
 10
18.7738573125
 20
6.9740090875
 11
18.7738573125
 21
7.8071708734
  0
LINE
  5
306
100
AcDbEntity
  8
0
100
AcDbLine
 62
7
  6
CONTINUOUS
 10
19.2338573125
 20
7.9696708734
 11
19.2338573125
 21
6.8096708734
  0
LINE
  5
307
100
AcDbEntity
  8
0
100
AcDbLine
 62
9
  6
CONTINUOUS
 10
19.2538573125
 20
7.9896708734
 11
19.2538573125
 21
6.7896708734
  0
LINE
  5
308
100
AcDbEntity
  8
0
100
AcDbLine
 62
9
  6
CONTINUOUS
 10
19.7138573125
 20
6.7896708734
 11
19.7138573125
 21
7.9896708734
  0
LINE
  5
309
100
AcDbEntity
  8
0
100
AcDbLine
 62
7
  6
CONTINUOUS
 10
19.7338573125
 20
6.8096708734
 11
19.7338573125
 21
7.9696708734
  0
LINE
  5
30A
100
AcDbEntity
  8
0
100
AcDbLine
 62
9
  6
CONTINUOUS
 10
19.7638573125
 20
7.9146708734
 11
19.7638573125
 21
6.8646708734
  0
LINE
  5
30B
100
AcDbEntity
  8
0
100
AcDbLine
 62
7
  6
CONTINUOUS
 10
19.9668573125
 20
10.5796708734
 11
19.9668573125
 21
9.6396708734
  0
LINE
  5
30C
100
AcDbEntity
  8
0
100
AcDbLine
 62
7
  6
CONTINUOUS
 10
20.1268573125
 20
8.0521708734
 11
20.1268573125
 21
6.7271708734
  0
LINE
  5
30D
100
AcDbEntity
  8
0
100
AcDbLine
 62
7
  6
CONTINUOUS
 10
20.4268573125
 20
10.8761127347
 11
20.4268573125
 21
10.6396708734
  0
LINE
  5
30E
100
AcDbEntity
  8
0
100
AcDbLine
 62
7
  6
CONTINUOUS
 10
20.4268573125
 20
9.5796708734
 11
20.4268573125
 21
9.2196708734
  0
LINE
  5
30F
100
AcDbEntity
  8
0
100
AcDbLine
 62
7
  6
CONTINUOUS
 10
20.4268573125
 20
8.1121708734
 11
20.4268573125
 21
9.1996708734
  0
LINE
  5
310
100
AcDbEntity
  8
0
100
AcDbLine
 62
7
  6
CONTINUOUS
 10
20.5568573125
 20
9.1996708734
 11
20.5568573125
 21
9.2196708734
  0
LINE
  5
311
100
AcDbEntity
  8
0
100
AcDbLine
 62
7
  6
CONTINUOUS
 10
20.8114507202
 20
9.1996708734
 11
20.8114507202
 21
8.8996708734
  0
LINE
  5
312
100
AcDbEntity
  8
0
100
AcDbLine
 62
7
  6
CONTINUOUS
 10
21.2422639048
 20
8.8996708734
 11
21.2422639048
 21
9.1996708734
  0
LINE
  5
313
100
AcDbEntity
  8
0
100
AcDbLine
 62
7
  6
CONTINUOUS
 10
21.4968573125
 20
9.1996708734
 11
21.4968573125
 21
9.2196708734
  0
LINE
  5
314
100
AcDbEntity
  8
0
100
AcDbLine
 62
7
  6
CONTINUOUS
 10
24.2922162963
 20
6.0203888411
 11
24.333045334
 21
5.9496708734
  0
LINE
  5
315
100
AcDbEntity
  8
0
100
AcDbLine
 62
7
  6
CONTINUOUS
 10
21.6268573125
 20
10.8761127347
 11
21.6268573125
 21
9.2196708734
  0
LINE
  5
316
100
AcDbEntity
  8
0
100
AcDbLine
 62
7
  6
CONTINUOUS
 10
21.6268573125
 20
8.1121708734
 11
21.6268573125
 21
9.1996708734
  0
LINE
  5
317
100
AcDbEntity
  8
0
100
AcDbLine
 62
7
  6
CONTINUOUS
 10
24.2922162963
 20
8.7589529057
 11
24.333045334
 21
8.8296708734
  0
LINE
  5
318
100
AcDbEntity
  8
0
100
AcDbLine
 62
7
  6
CONTINUOUS
 10
23.9668573125
 20
6.4296708734
 11
23.9668573125
 21
8.3496708734
  0
LINE
  5
319
100
AcDbEntity
  8
0
100
AcDbLine
 62
9
  6
CONTINUOUS
 10
24.0068573125
 20
8.3896708734
 11
24.0068573125
 21
6.3896708734
  0
LINE
  5
31A
100
AcDbEntity
  8
0
100
AcDbLine
 62
9
  6
CONTINUOUS
 10
24.0468573125
 20
6.3896708734
 11
24.0468573125
 21
8.3896708734
  0
LINE
  5
31B
100
AcDbEntity
  8
0
100
AcDbLine
 62
7
  6
CONTINUOUS
 10
24.0868573125
 20
8.4621708734
 11
24.0868573125
 21
6.3171708734
  0
LINE
  5
31C
100
AcDbEntity
  8
0
100
AcDbLine
 62
9
  6
CONTINUOUS
 10
24.1268573125
 20
8.5021708734
 11
24.1268573125
 21
6.2771708734
  0
LINE
  5
31D
100
AcDbEntity
  8
0
100
AcDbLine
 62
9
  6
CONTINUOUS
 10
24.2468573125
 20
6.2771708734
 11
24.2468573125
 21
8.5021708734
  0
LINE
  5
31E
100
AcDbEntity
  8
0
100
AcDbLine
 62
7
  6
CONTINUOUS
 10
24.2868573125
 20
8.7389414725
 11
24.2868573125
 21
6.0404002744
  0
LINE
  5
31F
100
AcDbEntity
  8
0
100
AcDbLine
 62
9
  6
CONTINUOUS
 10
24.2922162963
 20
8.7589529057
 11
24.2922162963
 21
6.0203888411
  0
LINE
  5
320
100
AcDbEntity
  8
0
100
AcDbLine
 62
9
  6
CONTINUOUS
 10
24.333045334
 20
5.9496708734
 11
24.333045334
 21
8.8296708734
  0
LINE
  5
321
100
AcDbEntity
  8
0
100
AcDbLine
 62
9
  6
CONTINUOUS
 10
24.3676863502
 20
8.8496708734
 11
24.3676863502
 21
5.9296708734
  0
LINE
  5
322
100
AcDbEntity
  8
0
100
AcDbLine
 62
7
  6
CONTINUOUS
 10
24.5368573125
 20
5.9296829871
 11
24.5368573125
 21
8.8496587597
  0
ARC
  5
323
100
AcDbEntity
  8
0
100
AcDbCircle
 62
7
  6
CONTINUOUS
 10
-3.0041426875
 20
9.8636708734
 40
0.02
100
AcDbArc
 50
180.0
 51
270.0
  0
ARC
  5
324
100
AcDbEntity
  8
0
100
AcDbCircle
 62
7
  6
CONTINUOUS
 10
-2.7691426875
 20
9.8636708734
 40
0.02
100
AcDbArc
 50
270.0
 51
360.0
  0
ARC
  5
325
100
AcDbEntity
  8
0
100
AcDbCircle
 62
9
  6
CONTINUOUS
 10
-2.8091426875
 20
12.5540090875
 40
0.08
100
AcDbArc
 50
320.0000000022
 51
359.9999999989
  0
ARC
  5
326
100
AcDbEntity
  8
0
100
AcDbCircle
 62
9
  6
CONTINUOUS
 10
-2.6891426875
 20
12.1826004214
 40
0.08
100
AcDbArc
 50
140.0000000023
 51
179.9999999989
  0
ARC
  5
327
100
AcDbEntity
  8
0
100
AcDbCircle
 62
7
  6
CONTINUOUS
 10
-2.8091426875
 20
12.5540090875
 40
0.06
100
AcDbArc
 50
319.9999999974
 51
360.0
  0
ARC
  5
328
100
AcDbEntity
  8
0
100
AcDbCircle
 62
7
  6
CONTINUOUS
 10
-2.6891426875
 20
12.1826004214
 40
0.06
100
AcDbArc
 50
139.9999999974
 51
180.0
  0
ARC
  5
329
100
AcDbEntity
  8
0
100
AcDbCircle
 62
7
  6
CONTINUOUS
 10
-2.5341426875
 20
12.5540090875
 40
0.06
100
AcDbArc
 50
320.0
 51
360.0
  0
ARC
  5
32A
100
AcDbEntity
  8
0
100
AcDbCircle
 62
7
  6
CONTINUOUS
 10
-2.9641426875
 20
12.1826004214
 40
0.06
100
AcDbArc
 50
140.0
 51
180.0000000029
  0
ARC
  5
32B
100
AcDbEntity
  8
0
100
AcDbCircle
 62
9
  6
CONTINUOUS
 10
-2.9641426875
 20
12.1826004214
 40
0.04
100
AcDbArc
 50
139.9999999996
 51
180.0
  0
ARC
  5
32C
100
AcDbEntity
  8
0
100
AcDbCircle
 62
9
  6
CONTINUOUS
 10
-2.5341426875
 20
12.5540090875
 40
0.04
100
AcDbArc
 50
319.9999999996
 51
360.0
  0
ARC
  5
32D
100
AcDbEntity
  8
0
100
AcDbCircle
 62
9
  6
CONTINUOUS
 10
-1.634484114
 20
12.4896517627
 40
0.0286585798
100
AcDbArc
 50
164.6850054579
 51
179.961792746
  0
ARC
  5
32E
100
AcDbEntity
  8
0
100
AcDbCircle
 62
9
  6
CONTINUOUS
 10
-1.6347027121
 20
12.4897242591
 40
0.028428599
100
AcDbArc
 50
160.9578739539
 51
164.7095628664
  0
ARC
  5
32F
100
AcDbEntity
  8
0
100
AcDbCircle
 62
7
  6
CONTINUOUS
 10
-2.0181426875
 20
12.4896708734
 40
0.02
100
AcDbArc
 50
180.0
 51
269.9999999999
  0
ARC
  5
330
100
AcDbEntity
  8
0
100
AcDbCircle
 62
7
  6
CONTINUOUS
 10
-1.6831426875
 20
12.4896708734
 40
0.02
100
AcDbArc
 50
270.0
 51
360.0
  0
ARC
  5
331
100
AcDbEntity
  8
0
100
AcDbCircle
 62
7
  6
CONTINUOUS
 10
-3.0191426875
 20
12.7918025053
 40
0.02
100
AcDbArc
 50
0.0
 51
90.0
  0
ARC
  5
332
100
AcDbEntity
  8
0
100
AcDbCircle
 62
7
  6
CONTINUOUS
 10
-3.0518421974
 20
12.8318025053
 40
0.02
100
AcDbArc
 50
218.9428455647
 51
270.0
  0
ARC
  5
333
100
AcDbEntity
  8
0
100
AcDbCircle
 62
9
  6
CONTINUOUS
 10
-3.0841898835
 20
12.8631333728
 40
0.0100329966
100
AcDbArc
 50
192.3752885988
 51
207.6384944308
  0
ARC
  5
334
100
AcDbEntity
  8
0
100
AcDbCircle
 62
9
  6
CONTINUOUS
 10
-3.084201525
 20
12.8631356532
 40
0.0100221155
100
AcDbArc
 50
190.7700733215
 51
192.4022861154
  0
ARC
  5
335
100
AcDbEntity
  8
0
100
AcDbCircle
 62
7
  6
CONTINUOUS
 10
-3.0843306125
 20
12.8631157803
 40
0.01
100
AcDbArc
 50
187.6859190488
 51
207.6846931912
  0
ARC
  5
336
100
AcDbEntity
  8
0
100
AcDbCircle
 62
9
  6
CONTINUOUS
 10
-3.1274021064
 20
12.9804487832
 40
0.0341665829
100
AcDbArc
 50
11.4998515457
 51
14.4850843056
  0
ARC
  5
337
100
AcDbEntity
  8
0
100
AcDbCircle
 62
9
  6
CONTINUOUS
 10
-3.0900235382
 20
12.996724027
 40
0.0108144748
100
AcDbArc
 50
172.9773861276
 51
174.9999683618
  0
ARC
  5
338
100
AcDbEntity
  8
0
100
AcDbCircle
 62
9
  6
CONTINUOUS
 10
-3.0900240988
 20
12.9426176608
 40
0.010813911
100
AcDbArc
 50
184.9999792252
 51
187.0226669193
  0
ARC
  5
339
100
AcDbEntity
  8
0
100
AcDbCircle
 62
9
  6
CONTINUOUS
 10
-3.1068508509
 20
12.998196216
 40
0.0100792393
100
AcDbArc
 50
172.8297198725
 51
174.9999086974
  0
ARC
  5
33A
100
AcDbEntity
  8
0
100
AcDbCircle
 62
9
  6
CONTINUOUS
 10
-3.1068508509
 20
12.9411455308
 40
0.0100792393
100
AcDbArc
 50
185.0000911847
 51
187.1702800078
  0
ARC
  5
33B
100
AcDbEntity
  8
0
100
AcDbCircle
 62
9
  6
CONTINUOUS
 10
-3.084153952
 20
13.0761952877
 40
0.0100709003
100
AcDbArc
 50
152.3903803644
 51
167.4495358662
  0
ARC
  5
33C
100
AcDbEntity
  8
0
100
AcDbCircle
 62
9
  6
CONTINUOUS
 10
-3.1069052334
 20
12.9981890048
 40
0.0100250274
100
AcDbArc
 50
174.9317666375
 51
228.6539311933
  0
ARC
  5
33D
100
AcDbEntity
  8
0
100
AcDbCircle
 62
9
  6
CONTINUOUS
 10
-3.084206442
 20
13.0762071147
 40
0.0100170945
100
AcDbArc
 50
167.4503274634
 51
169.2739654002
  0
ARC
  5
33E
100
AcDbEntity
  8
0
100
AcDbCircle
 62
7
  6
CONTINUOUS
 10
-3.0843306125
 20
13.0762259666
 40
0.01
100
AcDbArc
 50
152.3153068093
 51
172.3233705825
  0
ARC
  5
33F
100
AcDbEntity
  8
0
100
AcDbCircle
 62
7
  6
CONTINUOUS
 10
-3.1070073298
 20
12.9982099222
 40
0.01
100
AcDbArc
 50
172.8734551808
 51
265.0000000073
  0
ARC
  5
340
100
AcDbEntity
  8
0
100
AcDbCircle
 62
7
  6
CONTINUOUS
 10
-3.1070075011
 20
12.9411319321
 40
0.0099996811
100
AcDbArc
 50
94.9990759945
 51
187.1265448192
  0
ARC
  5
341
100
AcDbEntity
  8
0
100
AcDbCircle
 62
9
  6
CONTINUOUS
 10
-3.1070084509
 20
12.998107246
 40
0.0098976199
100
AcDbArc
 50
246.7562322992
 51
264.9546614919
  0
ARC
  5
342
100
AcDbEntity
  8
0
100
AcDbCircle
 62
9
  6
CONTINUOUS
 10
-3.1070038252
 20
12.9980983544
 40
0.0098912785
100
AcDbArc
 50
230.2155162478
 51
246.7112864506
  0
ARC
  5
343
100
AcDbEntity
  8
0
100
AcDbCircle
 62
7
  6
CONTINUOUS
 10
-3.1071263129
 20
12.9411166153
 40
0.0098800493
100
AcDbArc
 50
184.9544196494
 51
187.124627778
  0
ARC
  5
344
100
AcDbEntity
  8
0
100
AcDbCircle
 62
9
  6
CONTINUOUS
 10
-3.1070226056
 20
12.9980765499
 40
0.0098625051
100
AcDbArc
 50
228.7342577769
 51
230.2183000364
  0
ARC
  5
345
100
AcDbEntity
  8
0
100
AcDbCircle
 62
7
  6
CONTINUOUS
 10
-2.9791426875
 20
12.7271708734
 40
0.02
100
AcDbArc
 50
180.0
 51
270.0
  0
ARC
  5
346
100
AcDbEntity
  8
0
100
AcDbCircle
 62
9
  6
CONTINUOUS
 10
-2.8773674625
 20
12.9693471879
 40
0.241378299
100
AcDbArc
 50
163.8018421522
 51
166.6941632668
  0
ARC
  5
347
100
AcDbEntity
  8
0
100
AcDbCircle
 62
9
  6
CONTINUOUS
 10
-2.8775957227
 20
12.9691931364
 40
0.2412095728
100
AcDbArc
 50
157.6948167053
 51
158.4096806035
  0
ARC
  5
348
100
AcDbEntity
  8
0
100
AcDbCircle
 62
9
  6
CONTINUOUS
 10
-2.8781044305
 20
12.9696062974
 40
0.2406053915
100
AcDbArc
 50
171.2701367357
 51
172.8738871134
  0
ARC
  5
349
100
AcDbEntity
  8
0
100
AcDbCircle
 62
9
  6
CONTINUOUS
 10
-2.8786245011
 20
12.9696393067
 40
0.2400877744
100
AcDbArc
 50
166.6929631129
 51
168.6358094663
  0
ARC
  5
34A
100
AcDbEntity
  8
0
100
AcDbCircle
 62
9
  6
CONTINUOUS
 10
-2.878809866
 20
12.9696407473
 40
0.2398935531
100
AcDbArc
 50
187.1245703095
 51
202.3030225726
  0
ARC
  5
34B
100
AcDbEntity
  8
0
100
AcDbCircle
 62
7
  6
CONTINUOUS
 10
-2.8789099595
 20
12.9696988467
 40
0.239872338
100
AcDbArc
 50
157.6968306649
 51
172.8751796411
  0
ARC
  5
34C
100
AcDbEntity
  8
0
100
AcDbCircle
 62
7
  6
CONTINUOUS
 10
-2.8789099595
 20
12.9696429001
 40
0.239872338
100
AcDbArc
 50
187.1248203582
 51
202.3031692567
  0
ARC
  5
34D
100
AcDbEntity
  8
0
100
AcDbCircle
 62
7
  6
CONTINUOUS
 10
-2.8812412584
 20
12.9696708734
 40
0.2393453152
100
AcDbArc
 50
207.6846931912
 51
218.9428455645
  0
ARC
  5
34E
100
AcDbEntity
  8
0
100
AcDbCircle
 62
7
  6
CONTINUOUS
 10
-2.8812412584
 20
12.9696708734
 40
0.2393453152
100
AcDbArc
 50
141.0571544355
 51
152.3153068088
  0
ARC
  5
34F
100
AcDbEntity
  8
0
100
AcDbCircle
 62
9
  6
CONTINUOUS
 10
-2.8794050165
 20
12.969809375
 40
0.2392890506
100
AcDbArc
 50
168.6389072941
 51
171.2709333979
  0
ARC
  5
350
100
AcDbEntity
  8
0
100
AcDbCircle
 62
9
  6
CONTINUOUS
 10
-2.879433777
 20
12.9698992194
 40
0.239240664
100
AcDbArc
 50
158.4049384936
 51
161.9698511288
  0
ARC
  5
351
100
AcDbEntity
  8
0
100
AcDbCircle
 62
9
  6
CONTINUOUS
 10
-2.8801107067
 20
12.9701288217
 40
0.23852591
100
AcDbArc
 50
161.9719663665
 51
163.7983228607
  0
ARC
  5
352
100
AcDbEntity
  8
0
100
AcDbCircle
 62
7
  6
CONTINUOUS
 10
-2.8718656311
 20
12.9696708734
 40
0.2224649553
100
AcDbArc
 50
178.214149084
 51
181.7857952866
  0
ARC
  5
353
100
AcDbEntity
  8
0
100
AcDbCircle
 62
9
  6
CONTINUOUS
 10
-2.871459423
 20
12.9696708734
 40
0.2217263413
100
AcDbArc
 50
178.2138793393
 51
181.7861206643
  0
ARC
  5
354
100
AcDbEntity
  8
0
100
AcDbCircle
 62
7
  6
CONTINUOUS
 10
-2.9791426875
 20
13.2121708734
 40
0.02
100
AcDbArc
 50
90.0
 51
180.0
  0
ARC
  5
355
100
AcDbEntity
  8
0
100
AcDbCircle
 62
7
  6
CONTINUOUS
 10
-3.0191426875
 20
13.1475392415
 40
0.02
100
AcDbArc
 50
270.0
 51
360.0
  0
ARC
  5
356
100
AcDbEntity
  8
0
100
AcDbCircle
 62
7
  6
CONTINUOUS
 10
-3.0518421974
 20
13.1075392415
 40
0.02
100
AcDbArc
 50
90.0
 51
141.0571544353
  0
ARC
  5
357
100
AcDbEntity
  8
0
100
AcDbCircle
 62
7
  6
CONTINUOUS
 10
-2.4941426875
 20
13.3871708734
 40
0.02
100
AcDbArc
 50
0.0
 51
90.0
  0
ARC
  5
358
100
AcDbEntity
  8
0
100
AcDbCircle
 62
7
  6
CONTINUOUS
 10
-2.7291426875
 20
13.3871708734
 40
0.02
100
AcDbArc
 50
90.0
 51
180.0
  0
ARC
  5
359
100
AcDbEntity
  8
0
100
AcDbCircle
 62
9
  6
CONTINUOUS
 10
-1.6343822706
 20
13.4497038386
 40
0.0287604358
100
AcDbArc
 50
180.0656724598
 51
195.8773427755
  0
ARC
  5
35A
100
AcDbEntity
  8
0
100
AcDbCircle
 62
9
  6
CONTINUOUS
 10
-1.6347839372
 20
13.4495918555
 40
0.0283434568
100
AcDbArc
 50
195.881742615
 51
198.9819908159
  0
ARC
  5
35B
100
AcDbEntity
  8
0
100
AcDbCircle
 62
7
  6
CONTINUOUS
 10
-2.0181426875
 20
13.4496708734
 40
0.02
100
AcDbArc
 50
90.0
 51
180.0000000002
  0
ARC
  5
35C
100
AcDbEntity
  8
0
100
AcDbCircle
 62
7
  6
CONTINUOUS
 10
-1.6831426875
 20
13.4496708734
 40
0.02
100
AcDbArc
 50
0.0
 51
89.9999999999
  0
ARC
  5
35D
100
AcDbEntity
  8
0
100
AcDbCircle
 62
7
  6
CONTINUOUS
 10
-0.4256426875
 20
11.9346708734
 40
0.4
100
AcDbArc
 50
180.0
 51
204.220943109
  0
ARC
  5
35E
100
AcDbEntity
  8
0
100
AcDbCircle
 62
7
  6
CONTINUOUS
 10
-0.3006426875
 20
11.9346708734
 40
0.4
100
AcDbArc
 50
335.779056891
 51
360.0
  0
ARC
  5
35F
100
AcDbEntity
  8
0
100
AcDbCircle
 62
7
  6
CONTINUOUS
 10
-0.7813110724
 20
11.7746708734
 40
0.01
100
AcDbArc
 50
204.220943109
 51
270.0
  0
ARC
  5
360
100
AcDbEntity
  8
0
100
AcDbCircle
 62
7
  6
CONTINUOUS
 10
0.0550256974
 20
11.7746708734
 40
0.01
100
AcDbArc
 50
270.0
 51
335.779056891
  0
ARC
  5
361
100
AcDbEntity
  8
0
100
AcDbCircle
 62
7
  6
CONTINUOUS
 10
9.8768573125
 20
9.3396708734
 40
0.02
100
AcDbArc
 50
180.0
 51
270.0000566486
  0
ARC
  5
362
100
AcDbEntity
  8
0
100
AcDbCircle
 62
7
  6
CONTINUOUS
 10
9.8768573125
 20
13.7361127347
 40
0.02
100
AcDbArc
 50
89.9999434224
 51
180.0
  0
ARC
  5
363
100
AcDbEntity
  8
0
100
AcDbCircle
 62
7
  6
CONTINUOUS
 10
18.2438573125
 20
4.2836708734
 40
0.02
100
AcDbArc
 50
180.0
 51
270.0
  0
ARC
  5
364
100
AcDbEntity
  8
0
100
AcDbCircle
 62
7
  6
CONTINUOUS
 10
18.4788573125
 20
4.2836708734
 40
0.02
100
AcDbArc
 50
270.0
 51
360.0
  0
ARC
  5
365
100
AcDbEntity
  8
0
100
AcDbCircle
 62
9
  6
CONTINUOUS
 10
18.4388573125
 20
6.9740090875
 40
0.08
100
AcDbArc
 50
320.0000000022
 51
359.9999999989
  0
ARC
  5
366
100
AcDbEntity
  8
0
100
AcDbCircle
 62
9
  6
CONTINUOUS
 10
18.5588573125
 20
6.6026004214
 40
0.08
100
AcDbArc
 50
140.0000000023
 51
179.9999999989
  0
ARC
  5
367
100
AcDbEntity
  8
0
100
AcDbCircle
 62
7
  6
CONTINUOUS
 10
18.4388573125
 20
6.9740090875
 40
0.06
100
AcDbArc
 50
319.9999999974
 51
360.0
  0
ARC
  5
368
100
AcDbEntity
  8
0
100
AcDbCircle
 62
7
  6
CONTINUOUS
 10
18.2838573125
 20
6.6026004214
 40
0.06
100
AcDbArc
 50
140.0
 51
180.0000000029
  0
ARC
  5
369
100
AcDbEntity
  8
0
100
AcDbCircle
 62
7
  6
CONTINUOUS
 10
18.5588573125
 20
6.6026004214
 40
0.06
100
AcDbArc
 50
139.9999999974
 51
180.0
  0
ARC
  5
36A
100
AcDbEntity
  8
0
100
AcDbCircle
 62
7
  6
CONTINUOUS
 10
18.7138573125
 20
6.9740090875
 40
0.06
100
AcDbArc
 50
320.0
 51
360.0
  0
ARC
  5
36B
100
AcDbEntity
  8
0
100
AcDbCircle
 62
9
  6
CONTINUOUS
 10
18.2838573125
 20
6.6026004214
 40
0.04
100
AcDbArc
 50
139.9999999996
 51
180.0
  0
ARC
  5
36C
100
AcDbEntity
  8
0
100
AcDbCircle
 62
9
  6
CONTINUOUS
 10
18.7138573125
 20
6.9740090875
 40
0.04
100
AcDbArc
 50
319.9999999996
 51
360.0
  0
ARC
  5
36D
100
AcDbEntity
  8
0
100
AcDbCircle
 62
7
  6
CONTINUOUS
 10
18.2688573125
 20
7.1471708734
 40
0.02
100
AcDbArc
 50
180.0
 51
270.0
  0
ARC
  5
36E
100
AcDbEntity
  8
0
100
AcDbCircle
 62
7
  6
CONTINUOUS
 10
18.2288573125
 20
7.2118025053
 40
0.02
100
AcDbArc
 50
0.0
 51
90.0
  0
ARC
  5
36F
100
AcDbEntity
  8
0
100
AcDbCircle
 62
7
  6
CONTINUOUS
 10
18.1961578026
 20
7.2518025053
 40
0.02
100
AcDbArc
 50
218.9428455647
 51
270.0
  0
ARC
  5
370
100
AcDbEntity
  8
0
100
AcDbCircle
 62
9
  6
CONTINUOUS
 10
18.1638101165
 20
7.2831333728
 40
0.0100329966
100
AcDbArc
 50
192.3752885989
 51
207.6384944309
  0
ARC
  5
371
100
AcDbEntity
  8
0
100
AcDbCircle
 62
9
  6
CONTINUOUS
 10
18.163798475
 20
7.2831356532
 40
0.0100221155
100
AcDbArc
 50
190.7700733231
 51
192.4022861137
  0
ARC
  5
372
100
AcDbEntity
  8
0
100
AcDbCircle
 62
7
  6
CONTINUOUS
 10
18.1636693875
 20
7.2831157803
 40
0.01
100
AcDbArc
 50
187.6859190488
 51
207.6846931912
  0
ARC
  5
373
100
AcDbEntity
  8
0
100
AcDbCircle
 62
9
  6
CONTINUOUS
 10
18.1205978936
 20
7.4004487832
 40
0.0341665829
100
AcDbArc
 50
11.4998515455
 51
14.4850843057
  0
ARC
  5
374
100
AcDbEntity
  8
0
100
AcDbCircle
 62
9
  6
CONTINUOUS
 10
18.1579764619
 20
7.416724027
 40
0.0108144749
100
AcDbArc
 50
172.97738613
 51
174.9999683602
  0
ARC
  5
375
100
AcDbEntity
  8
0
100
AcDbCircle
 62
9
  6
CONTINUOUS
 10
18.1579759012
 20
7.3626176608
 40
0.010813911
100
AcDbArc
 50
184.9999792235
 51
187.0226669216
  0
ARC
  5
376
100
AcDbEntity
  8
0
100
AcDbCircle
 62
9
  6
CONTINUOUS
 10
18.1411491491
 20
7.418196216
 40
0.0100792393
100
AcDbArc
 50
172.8297198727
 51
174.9999086976
  0
ARC
  5
377
100
AcDbEntity
  8
0
100
AcDbCircle
 62
9
  6
CONTINUOUS
 10
18.1411491491
 20
7.3611455308
 40
0.0100792393
100
AcDbArc
 50
185.0000911837
 51
187.1702800091
  0
ARC
  5
378
100
AcDbEntity
  8
0
100
AcDbCircle
 62
9
  6
CONTINUOUS
 10
18.1410947666
 20
7.4181890048
 40
0.0100250274
100
AcDbArc
 50
174.9317666375
 51
228.6539311934
  0
ARC
  5
379
100
AcDbEntity
  8
0
100
AcDbCircle
 62
7
  6
CONTINUOUS
 10
18.1409926702
 20
7.4182099222
 40
0.01
100
AcDbArc
 50
172.8734551808
 51
265.0000000073
  0
ARC
  5
37A
100
AcDbEntity
  8
0
100
AcDbCircle
 62
7
  6
CONTINUOUS
 10
18.1409924989
 20
7.3611319321
 40
0.0099996811
100
AcDbArc
 50
94.999075994
 51
187.1265448192
  0
ARC
  5
37B
100
AcDbEntity
  8
0
100
AcDbCircle
 62
9
  6
CONTINUOUS
 10
18.1409915491
 20
7.418107246
 40
0.0098976199
100
AcDbArc
 50
246.7562322992
 51
264.954661492
  0
ARC
  5
37C
100
AcDbEntity
  8
0
100
AcDbCircle
 62
9
  6
CONTINUOUS
 10
18.1409961748
 20
7.4180983544
 40
0.0098912785
100
AcDbArc
 50
230.2155162477
 51
246.7112864507
  0
ARC
  5
37D
100
AcDbEntity
  8
0
100
AcDbCircle
 62
7
  6
CONTINUOUS
 10
18.1408736871
 20
7.3611166153
 40
0.0098800493
100
AcDbArc
 50
184.9544196502
 51
187.1246277777
  0
ARC
  5
37E
100
AcDbEntity
  8
0
100
AcDbCircle
 62
9
  6
CONTINUOUS
 10
18.1409773944
 20
7.4180765499
 40
0.0098625051
100
AcDbArc
 50
228.7342577776
 51
230.2183000358
  0
ARC
  5
37F
100
AcDbEntity
  8
0
100
AcDbCircle
 62
7
  6
CONTINUOUS
 10
18.2288573125
 20
7.5675392415
 40
0.02
100
AcDbArc
 50
270.0
 51
360.0
  0
ARC
  5
380
100
AcDbEntity
  8
0
100
AcDbCircle
 62
7
  6
CONTINUOUS
 10
18.1961578026
 20
7.5275392415
 40
0.02
100
AcDbArc
 50
90.0
 51
141.0571544353
  0
ARC
  5
381
100
AcDbEntity
  8
0
100
AcDbCircle
 62
9
  6
CONTINUOUS
 10
18.163846048
 20
7.4961952877
 40
0.0100709003
100
AcDbArc
 50
152.3903803646
 51
167.4495358659
  0
ARC
  5
382
100
AcDbEntity
  8
0
100
AcDbCircle
 62
9
  6
CONTINUOUS
 10
18.163793558
 20
7.4962071147
 40
0.0100170945
100
AcDbArc
 50
167.4503274658
 51
169.2739653987
  0
ARC
  5
383
100
AcDbEntity
  8
0
100
AcDbCircle
 62
7
  6
CONTINUOUS
 10
18.1636693875
 20
7.4962259666
 40
0.01
100
AcDbArc
 50
152.3153068093
 51
172.3233705825
  0
ARC
  5
384
100
AcDbEntity
  8
0
100
AcDbCircle
 62
9
  6
CONTINUOUS
 10
18.3706325375
 20
7.3893471879
 40
0.241378299
100
AcDbArc
 50
163.8018421522
 51
166.6941632668
  0
ARC
  5
385
100
AcDbEntity
  8
0
100
AcDbCircle
 62
9
  6
CONTINUOUS
 10
18.3704042773
 20
7.3891931363
 40
0.2412095728
100
AcDbArc
 50
157.6948167054
 51
158.4096806035
  0
ARC
  5
386
100
AcDbEntity
  8
0
100
AcDbCircle
 62
9
  6
CONTINUOUS
 10
18.3698955695
 20
7.3896062974
 40
0.2406053915
100
AcDbArc
 50
171.2701367357
 51
172.8738871134
  0
ARC
  5
387
100
AcDbEntity
  8
0
100
AcDbCircle
 62
9
  6
CONTINUOUS
 10
18.3693754989
 20
7.3896393067
 40
0.2400877744
100
AcDbArc
 50
166.6929631129
 51
168.6358094663
  0
ARC
  5
388
100
AcDbEntity
  8
0
100
AcDbCircle
 62
9
  6
CONTINUOUS
 10
18.369190134
 20
7.3896407473
 40
0.2398935531
100
AcDbArc
 50
187.1245703095
 51
202.3030225726
  0
ARC
  5
389
100
AcDbEntity
  8
0
100
AcDbCircle
 62
7
  6
CONTINUOUS
 10
18.3690900405
 20
7.3896988467
 40
0.239872338
100
AcDbArc
 50
157.6968306649
 51
172.8751796411
  0
ARC
  5
38A
100
AcDbEntity
  8
0
100
AcDbCircle
 62
7
  6
CONTINUOUS
 10
18.3690900405
 20
7.3896429001
 40
0.239872338
100
AcDbArc
 50
187.1248203582
 51
202.3031692567
  0
ARC
  5
38B
100
AcDbEntity
  8
0
100
AcDbCircle
 62
7
  6
CONTINUOUS
 10
18.3667587416
 20
7.3896708734
 40
0.2393453152
100
AcDbArc
 50
207.6846931912
 51
218.9428455645
  0
ARC
  5
38C
100
AcDbEntity
  8
0
100
AcDbCircle
 62
7
  6
CONTINUOUS
 10
18.3667587416
 20
7.3896708734
 40
0.2393453152
100
AcDbArc
 50
141.0571544355
 51
152.3153068088
  0
ARC
  5
38D
100
AcDbEntity
  8
0
100
AcDbCircle
 62
9
  6
CONTINUOUS
 10
18.3685949835
 20
7.389809375
 40
0.2392890506
100
AcDbArc
 50
168.638907294
 51
171.2709333979
  0
ARC
  5
38E
100
AcDbEntity
  8
0
100
AcDbCircle
 62
9
  6
CONTINUOUS
 10
18.368566223
 20
7.3898992194
 40
0.239240664
100
AcDbArc
 50
158.4049384936
 51
161.9698511287
  0
ARC
  5
38F
100
AcDbEntity
  8
0
100
AcDbCircle
 62
9
  6
CONTINUOUS
 10
18.3678892933
 20
7.3901288217
 40
0.23852591
100
AcDbArc
 50
161.9719663665
 51
163.7983228607
  0
ARC
  5
390
100
AcDbEntity
  8
0
100
AcDbCircle
 62
7
  6
CONTINUOUS
 10
18.3761343689
 20
7.3896708734
 40
0.2224649553
100
AcDbArc
 50
178.214149084
 51
181.7857952865
  0
ARC
  5
391
100
AcDbEntity
  8
0
100
AcDbCircle
 62
9
  6
CONTINUOUS
 10
18.376540577
 20
7.3896708734
 40
0.2217263413
100
AcDbArc
 50
178.2138793393
 51
181.7861206643
  0
ARC
  5
392
100
AcDbEntity
  8
0
100
AcDbCircle
 62
7
  6
CONTINUOUS
 10
18.2688573125
 20
7.6321708734
 40
0.02
100
AcDbArc
 50
90.0
 51
180.0
  0
ARC
  5
393
100
AcDbEntity
  8
0
100
AcDbCircle
 62
7
  6
CONTINUOUS
 10
18.7538573125
 20
7.8071708734
 40
0.02
100
AcDbArc
 50
0.0
 51
90.0
  0
ARC
  5
394
100
AcDbEntity
  8
0
100
AcDbCircle
 62
7
  6
CONTINUOUS
 10
18.5188573125
 20
7.8071708734
 40
0.02
100
AcDbArc
 50
90.0
 51
180.0
  0
ARC
  5
395
100
AcDbEntity
  8
0
100
AcDbCircle
 62
7
  6
CONTINUOUS
 10
19.7638573125
 20
6.8346708734
 40
0.03
100
AcDbArc
 50
90.0
 51
180.0
  0
ARC
  5
396
100
AcDbEntity
  8
0
100
AcDbCircle
 62
7
  6
CONTINUOUS
 10
19.2538573125
 20
6.8096708734
 40
0.02
100
AcDbArc
 50
179.9999999998
 51
270.0000000002
  0
ARC
  5
397
100
AcDbEntity
  8
0
100
AcDbCircle
 62
7
  6
CONTINUOUS
 10
19.7138573125
 20
6.8096708734
 40
0.02
100
AcDbArc
 50
269.9999999999
 51
360.0
  0
ARC
  5
398
100
AcDbEntity
  8
0
100
AcDbCircle
 62
7
  6
CONTINUOUS
 10
19.7638573125
 20
7.9446708734
 40
0.03
100
AcDbArc
 50
180.0
 51
270.0
  0
ARC
  5
399
100
AcDbEntity
  8
0
100
AcDbCircle
 62
7
  6
CONTINUOUS
 10
19.2538573125
 20
7.9696708734
 40
0.02
100
AcDbArc
 50
90.0
 51
179.9999999999
  0
ARC
  5
39A
100
AcDbEntity
  8
0
100
AcDbCircle
 62
7
  6
CONTINUOUS
 10
19.7138573125
 20
7.9696708734
 40
0.02
100
AcDbArc
 50
0.0000000001
 51
90.0
  0
ARC
  5
39B
100
AcDbEntity
  8
0
100
AcDbCircle
 62
7
  6
CONTINUOUS
 10
24.4469218756
 20
4.4691524479
 40
1.4626034775
100
AcDbArc
 50
90.0025291845
 51
93.0284007095
  0
ARC
  5
39C
100
AcDbEntity
  8
0
100
AcDbCircle
 62
7
  6
CONTINUOUS
 10
24.0468573125
 20
6.3496708734
 40
0.04
100
AcDbArc
 50
0.0
 51
90.0
  0
ARC
  5
39D
100
AcDbEntity
  8
0
100
AcDbCircle
 62
7
  6
CONTINUOUS
 10
24.0068573125
 20
6.4296708734
 40
0.04
100
AcDbArc
 50
180.0
 51
270.0
  0
ARC
  5
39E
100
AcDbEntity
  8
0
100
AcDbCircle
 62
7
  6
CONTINUOUS
 10
24.3676863502
 20
5.9696708734
 40
0.04
100
AcDbArc
 50
210.0000000001
 51
270.0
  0
ARC
  5
39F
100
AcDbEntity
  8
0
100
AcDbCircle
 62
7
  6
CONTINUOUS
 10
24.1268573125
 20
6.3171708734
 40
0.04
100
AcDbArc
 50
180.0000000002
 51
269.9999999998
  0
ARC
  5
3A0
100
AcDbEntity
  8
0
100
AcDbCircle
 62
7
  6
CONTINUOUS
 10
24.3268573125
 20
6.0403888411
 40
0.04
100
AcDbArc
 50
180.0
 51
210.0
  0
ARC
  5
3A1
100
AcDbEntity
  8
0
100
AcDbCircle
 62
7
  6
CONTINUOUS
 10
24.2468573125
 20
6.2371708734
 40
0.04
100
AcDbArc
 50
0.0
 51
90.0
  0
ARC
  5
3A2
100
AcDbEntity
  8
0
100
AcDbCircle
 62
7
  6
CONTINUOUS
 10
24.0468573125
 20
8.4296708734
 40
0.04
100
AcDbArc
 50
270.0
 51
360.0
  0
ARC
  5
3A3
100
AcDbEntity
  8
0
100
AcDbCircle
 62
7
  6
CONTINUOUS
 10
24.0068573125
 20
8.3496708734
 40
0.04
100
AcDbArc
 50
90.0
 51
180.0
  0
ARC
  5
3A4
100
AcDbEntity
  8
0
100
AcDbCircle
 62
7
  6
CONTINUOUS
 10
24.1268573125
 20
8.4621708734
 40
0.04
100
AcDbArc
 50
90.0000000001
 51
180.0
  0
ARC
  5
3A5
100
AcDbEntity
  8
0
100
AcDbCircle
 62
7
  6
CONTINUOUS
 10
24.3676863502
 20
8.8096708734
 40
0.04
100
AcDbArc
 50
90.0
 51
149.9999999999
  0
ARC
  5
3A6
100
AcDbEntity
  8
0
100
AcDbCircle
 62
7
  6
CONTINUOUS
 10
24.3268573125
 20
8.7389529057
 40
0.04
100
AcDbArc
 50
150.0
 51
180.0
  0
ARC
  5
3A7
100
AcDbEntity
  8
0
100
AcDbCircle
 62
7
  6
CONTINUOUS
 10
24.2468573125
 20
8.5421708734
 40
0.04
100
AcDbArc
 50
270.0
 51
360.0
  0
ARC
  5
3A8
100
AcDbEntity
  8
0
100
AcDbCircle
 62
7
  6
CONTINUOUS
 10
11.0368573125
 20
9.3396708734
 40
0.02
100
AcDbArc
 50
269.9999433514
 51
360.0
  0
ARC
  5
3A9
100
AcDbEntity
  8
0
100
AcDbCircle
 62
7
  6
CONTINUOUS
 10
11.0368573125
 20
13.7361127347
 40
0.02
100
AcDbArc
 50
0.0
 51
90.0000565776
  0
ARC
  5
3AA
100
AcDbEntity
  8
0
100
AcDbCircle
 62
7
  6
CONTINUOUS
 10
21.6068573125
 20
10.8761127347
 40
0.02
100
AcDbArc
 50
0.0
 51
90.0000565776
  0
ARC
  5
3AB
100
AcDbEntity
  8
0
100
AcDbCircle
 62
7
  6
CONTINUOUS
 10
20.4468573125
 20
10.8761127347
 40
0.02
100
AcDbArc
 50
89.9999434224
 51
180.0
  0
SPLINE
  5
3AC
100
AcDbEntity
  8
0
100
AcDbSpline
 62
9
  6
CONTINUOUS
 70
0
 71
3
 72
9
 73
5
 74
0
 42
0.0000001
 43
0.0000001
 44
0.0000000001
 40
0.0
 40
0.0
 40
0.0
 40
0.0
 40
0.2190339571
 40
1.0
 40
1.0
 40
1.0
 40
1.0
 10
-3.1007968601
 20
12.878597189
 30
0.0
 10
-3.1007939333
 20
12.878597189
 30
0.0
 10
-3.1007805707
 20
12.8785974843
 30
0.0
 10
-3.1007672452
 20
12.8785987317
 30
0.0
 10
-3.1007568825
 20
12.8785999636
 30
0.0
  0
SPLINE
  5
3AD
100
AcDbEntity
  8
0
100
AcDbSpline
 62
9
  6
CONTINUOUS
 70
0
 71
3
 72
17
 73
13
 74
0
 42
0.0000001
 43
0.0000001
 44
0.0000000001
 40
0.0
 40
0.0
 40
0.0
 40
0.0
 40
0.1243822919
 40
0.1868079603
 40
0.2492183362
 40
0.3738909451
 40
0.4987503548
 40
0.6237997725
 40
0.7490147713
 40
0.8118033518
 40
0.8746609254
 40
1.0
 40
1.0
 40
1.0
 40
1.0
 10
-3.1078788873
 20
12.9510937716
 30
0.0
 10
-3.1085242986
 20
12.9510373054
 30
0.0
 10
-3.1094884837
 20
12.950854665
 30
0.0
 10
-3.1107163546
 20
12.9504288353
 30
0.0
 10
-3.1118976542
 20
12.9498824055
 30
0.0
 10
-3.1132651693
 20
12.9489838567
 30
0.0
 10
-3.1146622567
 20
12.9476042325
 30
0.0
 10
-3.1157669699
 20
12.9459776668
 30
0.0
 10
-3.1164064338
 20
12.9444653909
 30
0.0
 10
-3.1167348954
 20
12.9431987268
 30
0.0
 10
-3.1169376903
 20
12.9419057419
 30
0.0
 10
-3.1169486348
 20
12.9409174273
 30
0.0
 10
-3.1168917342
 20
12.9402670512
 30
0.0
  0
LINE
  5
3AE
100
AcDbEntity
  8
0
100
AcDbLine
 62
9
  6
CONTINUOUS
 10
-3.1007568825
 20
12.8785999636
 11
-3.0939214352
 21
12.8613014695
  0
LINE
  5
3AF
100
AcDbEntity
  8
0
100
AcDbLine
 62
9
  6
CONTINUOUS
 10
-3.0939214352
 20
12.8613014695
 11
-3.0930780364
 21
12.8584791526
  0
SPLINE
  5
3B0
100
AcDbEntity
  8
0
100
AcDbSpline
 62
9
  6
CONTINUOUS
 70
0
 71
3
 72
9
 73
5
 74
0
 42
0.0000001
 43
0.0000001
 44
0.0000000001
 40
0.0
 40
0.0
 40
0.0
 40
0.0
 40
0.2833899305
 40
1.0
 40
1.0
 40
1.0
 40
1.0
 10
-3.1168512663
 20
12.9994542925
 30
0.0
 10
-3.1168550873
 20
12.999454438
 30
0.0
 10
-3.116868572
 20
12.9994549065
 30
0.0
 10
-3.116882065
 20
12.9994551999
 30
0.0
 10
-3.1168917342
 20
12.9994551999
 30
0.0
  0
LINE
  5
3B1
100
AcDbEntity
  8
0
100
AcDbLine
 62
9
  6
CONTINUOUS
 10
-3.0930780364
 20
13.0808625942
 11
-3.0938700696
 21
13.0781820681
  0
LINE
  5
3B2
100
AcDbEntity
  8
0
100
AcDbLine
 62
9
  6
CONTINUOUS
 10
-3.0938700696
 20
13.0781820681
 11
-3.1007568825
 21
13.0607417833
  0
SPLINE
  5
3B3
100
AcDbEntity
  8
0
100
AcDbSpline
 62
9
  6
CONTINUOUS
 70
0
 71
3
 72
9
 73
5
 74
0
 42
0.0000001
 43
0.0000001
 44
0.0000000001
 40
0.0
 40
0.0
 40
0.0
 40
0.0
 40
0.2810602329
 40
1.0
 40
1.0
 40
1.0
 40
1.0
 10
-3.1007568824
 20
13.0607417835
 30
0.0
 10
-3.1007606116
 20
13.0607422268
 30
0.0
 10
-3.1007738932
 20
13.060743666
 30
0.0
 10
-3.1007872537
 20
13.0607445581
 30
0.0
 10
-3.10079686
 20
13.0607445581
 30
0.0
  0
LINE
  5
3B4
100
AcDbEntity
  8
0
100
AcDbLine
 62
9
  6
CONTINUOUS
 10
-3.0941844281
 20
12.9627357559
 11
-3.0930780364
 21
12.9627599655
  0
SPLINE
  5
3B5
100
AcDbEntity
  8
0
100
AcDbSpline
 62
9
  6
CONTINUOUS
 70
0
 71
3
 72
11
 73
7
 74
0
 42
0.0000001
 43
0.0000001
 44
0.0000000001
 40
0.0
 40
0.0
 40
0.0
 40
0.0
 40
0.2650077428
 40
0.5239525453
 40
0.7705066311
 40
1.0
 40
1.0
 40
1.0
 40
1.0
 10
-3.0930780364
 20
12.9627599654
 30
0.0
 10
-3.0930431118
 20
12.9616383497
 30
0.0
 10
-3.0930468052
 20
12.9594178427
 30
0.0
 10
-3.0932669279
 20
12.9561601738
 30
0.0
 10
-3.0936933546
 20
12.9530746861
 30
0.0
 10
-3.0941203884
 20
12.9511019001
 30
0.0
 10
-3.0943690335
 20
12.9501624727
 30
0.0
  0
SPLINE
  5
3B6
100
AcDbEntity
  8
0
100
AcDbSpline
 62
9
  6
CONTINUOUS
 70
0
 71
3
 72
17
 73
13
 74
0
 42
0.0000001
 43
0.0000001
 44
0.0000000001
 40
0.0
 40
0.0
 40
0.0
 40
0.0
 40
0.173472
 40
0.2550324354
 40
0.3329682165
 40
0.4776838214
 40
0.6073824187
 40
0.7224784135
 40
0.8243279209
 40
0.9154586221
 40
0.9582741311
 40
1.0
 40
1.0
 40
1.0
 40
1.0
 10
-3.0943690335
 20
12.9501624727
 30
0.0
 10
-3.0945393486
 20
12.9495189902
 30
0.0
 10
-3.0948194011
 20
12.9485802028
 30
0.0
 10
-3.0952543894
 20
12.9473785659
 30
0.0
 10
-3.0956963043
 20
12.9462978742
 30
0.0
 10
-3.0962880342
 20
12.9450798052
 30
0.0
 10
-3.0970806563
 20
12.9438087543
 30
0.0
 10
-3.0979293991
 20
12.9427782789
 30
0.0
 10
-3.0988272693
 20
12.9419991172
 30
0.0
 10
-3.0996301318
 20
12.94156127
 30
0.0
 10
-3.1002758571
 20
12.9413616078
 30
0.0
 10
-3.1005973865
 20
12.9413095259
 30
0.0
 10
-3.1007568826
 20
12.9412955304
 30
0.0
  0
SPLINE
  5
3B7
100
AcDbEntity
  8
0
100
AcDbSpline
 62
9
  6
CONTINUOUS
 70
0
 71
3
 72
19
 73
15
 74
0
 42
0.0000001
 43
0.0000001
 44
0.0000000001
 40
0.0
 40
0.0
 40
0.0
 40
0.0
 40
0.1234207422
 40
0.2504140134
 40
0.3147477897
 40
0.3793940023
 40
0.4441903796
 40
0.50891688
 40
0.6371334473
 40
0.7002446384
 40
0.7624061491
 40
0.8235516375
 40
0.8836177009
 40
1.0
 40
1.0
 40
1.0
 40
1.0
 10
-3.10079686
 20
12.9416751703
 30
0.0
 10
-3.1008376548
 20
12.9421414569
 30
0.0
 10
-3.1008570802
 20
12.943094017
 30
0.0
 10
-3.1007265115
 20
12.9442841897
 30
0.0
 10
-3.1005230459
 20
12.9452341073
 30
0.0
 10
-3.1003178092
 20
12.9459404439
 30
0.0
 10
-3.100061167
 20
12.9466313741
 30
0.0
 10
-3.0996566082
 20
12.9475218231
 30
0.0
 10
-3.0991622195
 20
12.9483622669
 30
0.0
 10
-3.0985860909
 20
12.9491327637
 30
0.0
 10
-3.0981198037
 20
12.9496651428
 30
0.0
 10
-3.0976228059
 20
12.950152571
 30
0.0
 10
-3.0969343865
 20
12.9507347589
 30
0.0
 10
-3.0963775004
 20
12.9511113088
 30
0.0
 10
-3.095994598
 20
12.951330848
 30
0.0
  0
SPLINE
  5
3B8
100
AcDbEntity
  8
0
100
AcDbSpline
 62
9
  6
CONTINUOUS
 70
0
 71
3
 72
19
 73
15
 74
0
 42
0.0000001
 43
0.0000001
 44
0.0000000001
 40
0.0
 40
0.0
 40
0.0
 40
0.0
 40
0.1163848413
 40
0.1764517252
 40
0.2375978302
 40
0.2997598217
 40
0.3628712851
 40
0.4910876374
 40
0.5558137039
 40
0.6206095065
 40
0.6852550717
 40
0.7495881938
 40
0.8765802183
 40
1.0
 40
1.0
 40
1.0
 40
1.0
 10
-3.0959954851
 20
12.9880114075
 30
0.0
 10
-3.0963783363
 20
12.9882309758
 30
0.0
 10
-3.096935143
 20
12.9886075574
 30
0.0
 10
-3.0976234556
 20
12.9891897695
 30
0.0
 10
-3.0981203696
 20
12.9896772043
 30
0.0
 10
-3.0985865717
 20
12.9902095802
 30
0.0
 10
-3.0991625902
 20
12.9909800538
 30
0.0
 10
-3.0996568816
 20
12.9918204505
 30
0.0
 10
-3.1000613564
 20
12.9927108361
 30
0.0
 10
-3.1003179422
 20
12.9934017098
 30
0.0
 10
-3.1005231307
 20
12.9941079842
 30
0.0
 10
-3.1007265473
 20
12.9950578131
 30
0.0
 10
-3.1008570805
 20
12.9962478699
 30
0.0
 10
-3.1008376509
 20
12.9972003354
 30
0.0
 10
-3.1007968601
 20
12.9976665766
 30
0.0
  0
SPLINE
  5
3B9
100
AcDbEntity
  8
0
100
AcDbSpline
 62
9
  6
CONTINUOUS
 70
0
 71
3
 72
16
 73
12
 74
0
 42
0.0000001
 43
0.0000001
 44
0.0000000001
 40
0.0
 40
0.0
 40
0.0
 40
0.0
 40
0.0415182118
 40
0.0841400594
 40
0.1749773994
 40
0.2766565906
 40
0.3916875623
 40
0.5214892694
 40
0.6664743482
 40
0.8262741497
 40
1.0
 40
1.0
 40
1.0
 40
1.0
 10
-3.1007568825
 20
12.9980462164
 30
0.0
 10
-3.1005955648
 20
12.9980320918
 30
0.0
 10
-3.100270312
 20
12.9979790139
 30
0.0
 10
-3.0996171656
 20
12.9977746995
 30
0.0
 10
-3.0988056762
 20
12.9973264921
 30
0.0
 10
-3.0978983964
 20
12.996531626
 30
0.0
 10
-3.0970408798
 20
12.9954805049
 30
0.0
 10
-3.0962426407
 20
12.9941823706
 30
0.0
 10
-3.0955116063
 20
12.9926502242
 30
0.0
 10
-3.0948565196
 20
12.9909005879
 30
0.0
 10
-3.0944912655
 20
12.9896507998
 30
0.0
 10
-3.0943215839
 20
12.9889948008
 30
0.0
  0
SPLINE
  5
3BA
100
AcDbEntity
  8
0
100
AcDbSpline
 62
9
  6
CONTINUOUS
 70
0
 71
3
 72
11
 73
7
 74
0
 42
0.0000001
 43
0.0000001
 44
0.0000000001
 40
0.0
 40
0.0
 40
0.0
 40
0.0
 40
0.2356490773
 40
0.4833834869
 40
0.7397751091
 40
1.0
 40
1.0
 40
1.0
 40
1.0
 10
-3.0939214101
 20
12.9872604175
 30
0.0
 10
-3.0937526279
 20
12.9864343385
 30
0.0
 10
-3.0934641299
 20
12.9847276544
 30
0.0
 10
-3.0931801543
 20
12.9820946082
 30
0.0
 10
-3.0930422697
 20
12.9793618995
 30
0.0
 10
-3.093049048
 20
12.9775124068
 30
0.0
 10
-3.0930780364
 20
12.9765817814
 30
0.0
  0
LINE
  5
3BB
100
AcDbEntity
  8
0
100
AcDbLine
 62
9
  6
CONTINUOUS
 10
-3.0930780361
 20
12.9765817896
 11
-3.0941844279
 21
12.9766059976
  0
SPLINE
  5
3BC
100
AcDbEntity
  8
0
100
AcDbSpline
 62
9
  6
CONTINUOUS
 70
0
 71
3
 72
9
 73
5
 74
0
 42
0.0000001
 43
0.0000001
 44
0.0000000001
 40
0.0
 40
0.0
 40
0.0
 40
0.0
 40
0.283389926
 40
1.0
 40
1.0
 40
1.0
 40
1.0
 10
-3.1168512663
 20
12.9398874543
 30
0.0
 10
-3.1168550873
 20
12.9398873088
 30
0.0
 10
-3.116868572
 20
12.9398868404
 30
0.0
 10
-3.116882065
 20
12.9398865469
 30
0.0
 10
-3.1168917342
 20
12.9398865469
 30
0.0
  0
SPLINE
  5
3BD
100
AcDbEntity
  8
0
100
AcDbSpline
 62
9
  6
CONTINUOUS
 70
0
 71
3
 72
9
 73
5
 74
0
 42
0.0000001
 43
0.0000001
 44
0.0000000001
 40
0.0
 40
0.0
 40
0.0
 40
0.0
 40
0.2190339571
 40
1.0
 40
1.0
 40
1.0
 40
1.0
 10
18.1472031399
 20
7.298597189
 30
0.0
 10
18.1472060667
 20
7.298597189
 30
0.0
 10
18.1472194293
 20
7.2985974843
 30
0.0
 10
18.1472327548
 20
7.2985987317
 30
0.0
 10
18.1472431175
 20
7.2985999636
 30
0.0
  0
SPLINE
  5
3BE
100
AcDbEntity
  8
0
100
AcDbSpline
 62
9
  6
CONTINUOUS
 70
0
 71
3
 72
17
 73
13
 74
0
 42
0.0000001
 43
0.0000001
 44
0.0000000001
 40
0.0
 40
0.0
 40
0.0
 40
0.0
 40
0.1243822919
 40
0.1868079603
 40
0.2492183362
 40
0.3738909451
 40
0.4987503548
 40
0.6237997725
 40
0.7490147713
 40
0.8118033518
 40
0.8746609254
 40
1.0
 40
1.0
 40
1.0
 40
1.0
 10
18.1401211127
 20
7.3710937716
 30
0.0
 10
18.1394757014
 20
7.3710373054
 30
0.0
 10
18.1385115163
 20
7.370854665
 30
0.0
 10
18.1372836454
 20
7.3704288353
 30
0.0
 10
18.1361023458
 20
7.3698824055
 30
0.0
 10
18.1347348307
 20
7.3689838567
 30
0.0
 10
18.1333377433
 20
7.3676042325
 30
0.0
 10
18.1322330301
 20
7.3659776668
 30
0.0
 10
18.1315935662
 20
7.3644653909
 30
0.0
 10
18.1312651046
 20
7.3631987268
 30
0.0
 10
18.1310623097
 20
7.3619057419
 30
0.0
 10
18.1310513652
 20
7.3609174273
 30
0.0
 10
18.1311082658
 20
7.3602670512
 30
0.0
  0
LINE
  5
3BF
100
AcDbEntity
  8
0
100
AcDbLine
 62
9
  6
CONTINUOUS
 10
18.1472431175
 20
7.2985999636
 11
18.1540785648
 21
7.2813014695
  0
LINE
  5
3C0
100
AcDbEntity
  8
0
100
AcDbLine
 62
9
  6
CONTINUOUS
 10
18.1540785648
 20
7.2813014695
 11
18.1549219636
 21
7.2784791526
  0
SPLINE
  5
3C1
100
AcDbEntity
  8
0
100
AcDbSpline
 62
9
  6
CONTINUOUS
 70
0
 71
3
 72
9
 73
5
 74
0
 42
0.0000001
 43
0.0000001
 44
0.0000000001
 40
0.0
 40
0.0
 40
0.0
 40
0.0
 40
0.2833899305
 40
1.0
 40
1.0
 40
1.0
 40
1.0
 10
18.1311487337
 20
7.4194542925
 30
0.0
 10
18.1311449127
 20
7.419454438
 30
0.0
 10
18.131131428
 20
7.4194549065
 30
0.0
 10
18.131117935
 20
7.4194551999
 30
0.0
 10
18.1311082658
 20
7.4194551999
 30
0.0
  0
LINE
  5
3C2
100
AcDbEntity
  8
0
100
AcDbLine
 62
9
  6
CONTINUOUS
 10
18.1549219636
 20
7.5008625942
 11
18.1541299304
 21
7.4981820681
  0
LINE
  5
3C3
100
AcDbEntity
  8
0
100
AcDbLine
 62
9
  6
CONTINUOUS
 10
18.1541299304
 20
7.4981820681
 11
18.1472431175
 21
7.4807417833
  0
SPLINE
  5
3C4
100
AcDbEntity
  8
0
100
AcDbSpline
 62
9
  6
CONTINUOUS
 70
0
 71
3
 72
9
 73
5
 74
0
 42
0.0000001
 43
0.0000001
 44
0.0000000001
 40
0.0
 40
0.0
 40
0.0
 40
0.0
 40
0.2810602329
 40
1.0
 40
1.0
 40
1.0
 40
1.0
 10
18.1472431176
 20
7.4807417835
 30
0.0
 10
18.1472393884
 20
7.4807422268
 30
0.0
 10
18.1472261068
 20
7.480743666
 30
0.0
 10
18.1472127463
 20
7.4807445581
 30
0.0
 10
18.14720314
 20
7.4807445581
 30
0.0
  0
LINE
  5
3C5
100
AcDbEntity
  8
0
100
AcDbLine
 62
9
  6
CONTINUOUS
 10
18.1538155719
 20
7.3827357559
 11
18.1549219636
 21
7.3827599655
  0
SPLINE
  5
3C6
100
AcDbEntity
  8
0
100
AcDbSpline
 62
9
  6
CONTINUOUS
 70
0
 71
3
 72
11
 73
7
 74
0
 42
0.0000001
 43
0.0000001
 44
0.0000000001
 40
0.0
 40
0.0
 40
0.0
 40
0.0
 40
0.2650077428
 40
0.5239525453
 40
0.7705066311
 40
1.0
 40
1.0
 40
1.0
 40
1.0
 10
18.1549219636
 20
7.3827599654
 30
0.0
 10
18.1549568882
 20
7.3816383497
 30
0.0
 10
18.1549531948
 20
7.3794178427
 30
0.0
 10
18.1547330721
 20
7.3761601738
 30
0.0
 10
18.1543066454
 20
7.3730746861
 30
0.0
 10
18.1538796116
 20
7.3711019001
 30
0.0
 10
18.1536309665
 20
7.3701624727
 30
0.0
  0
SPLINE
  5
3C7
100
AcDbEntity
  8
0
100
AcDbSpline
 62
9
  6
CONTINUOUS
 70
0
 71
3
 72
17
 73
13
 74
0
 42
0.0000001
 43
0.0000001
 44
0.0000000001
 40
0.0
 40
0.0
 40
0.0
 40
0.0
 40
0.173472
 40
0.2550324354
 40
0.3329682165
 40
0.4776838214
 40
0.6073824187
 40
0.7224784135
 40
0.8243279209
 40
0.9154586221
 40
0.9582741311
 40
1.0
 40
1.0
 40
1.0
 40
1.0
 10
18.1536309665
 20
7.3701624727
 30
0.0
 10
18.1534606514
 20
7.3695189902
 30
0.0
 10
18.1531805989
 20
7.3685802028
 30
0.0
 10
18.1527456106
 20
7.3673785659
 30
0.0
 10
18.1523036957
 20
7.3662978742
 30
0.0
 10
18.1517119658
 20
7.3650798052
 30
0.0
 10
18.1509193437
 20
7.3638087543
 30
0.0
 10
18.1500706009
 20
7.3627782789
 30
0.0
 10
18.1491727307
 20
7.3619991172
 30
0.0
 10
18.1483698682
 20
7.36156127
 30
0.0
 10
18.1477241429
 20
7.3613616078
 30
0.0
 10
18.1474026135
 20
7.3613095259
 30
0.0
 10
18.1472431174
 20
7.3612955304
 30
0.0
  0
SPLINE
  5
3C8
100
AcDbEntity
  8
0
100
AcDbSpline
 62
9
  6
CONTINUOUS
 70
0
 71
3
 72
19
 73
15
 74
0
 42
0.0000001
 43
0.0000001
 44
0.0000000001
 40
0.0
 40
0.0
 40
0.0
 40
0.0
 40
0.1234207422
 40
0.2504140134
 40
0.3147477897
 40
0.3793940023
 40
0.4441903796
 40
0.50891688
 40
0.6371334473
 40
0.7002446384
 40
0.7624061491
 40
0.8235516375
 40
0.8836177009
 40
1.0
 40
1.0
 40
1.0
 40
1.0
 10
18.14720314
 20
7.3616751703
 30
0.0
 10
18.1471623452
 20
7.3621414569
 30
0.0
 10
18.1471429198
 20
7.363094017
 30
0.0
 10
18.1472734885
 20
7.3642841897
 30
0.0
 10
18.1474769541
 20
7.3652341073
 30
0.0
 10
18.1476821908
 20
7.3659404439
 30
0.0
 10
18.147938833
 20
7.3666313741
 30
0.0
 10
18.1483433918
 20
7.3675218231
 30
0.0
 10
18.1488377805
 20
7.3683622669
 30
0.0
 10
18.1494139091
 20
7.3691327637
 30
0.0
 10
18.1498801963
 20
7.3696651428
 30
0.0
 10
18.1503771941
 20
7.370152571
 30
0.0
 10
18.1510656135
 20
7.3707347589
 30
0.0
 10
18.1516224996
 20
7.3711113088
 30
0.0
 10
18.152005402
 20
7.371330848
 30
0.0
  0
SPLINE
  5
3C9
100
AcDbEntity
  8
0
100
AcDbSpline
 62
9
  6
CONTINUOUS
 70
0
 71
3
 72
19
 73
15
 74
0
 42
0.0000001
 43
0.0000001
 44
0.0000000001
 40
0.0
 40
0.0
 40
0.0
 40
0.0
 40
0.1163848413
 40
0.1764517252
 40
0.2375978302
 40
0.2997598217
 40
0.3628712851
 40
0.4910876374
 40
0.5558137039
 40
0.6206095065
 40
0.6852550717
 40
0.7495881938
 40
0.8765802183
 40
1.0
 40
1.0
 40
1.0
 40
1.0
 10
18.1520045149
 20
7.4080114075
 30
0.0
 10
18.1516216637
 20
7.4082309758
 30
0.0
 10
18.151064857
 20
7.4086075574
 30
0.0
 10
18.1503765444
 20
7.4091897695
 30
0.0
 10
18.1498796304
 20
7.4096772043
 30
0.0
 10
18.1494134283
 20
7.4102095802
 30
0.0
 10
18.1488374098
 20
7.4109800538
 30
0.0
 10
18.1483431184
 20
7.4118204505
 30
0.0
 10
18.1479386436
 20
7.4127108361
 30
0.0
 10
18.1476820578
 20
7.4134017098
 30
0.0
 10
18.1474768693
 20
7.4141079842
 30
0.0
 10
18.1472734527
 20
7.4150578131
 30
0.0
 10
18.1471429195
 20
7.4162478699
 30
0.0
 10
18.1471623491
 20
7.4172003354
 30
0.0
 10
18.1472031399
 20
7.4176665766
 30
0.0
  0
SPLINE
  5
3CA
100
AcDbEntity
  8
0
100
AcDbSpline
 62
9
  6
CONTINUOUS
 70
0
 71
3
 72
16
 73
12
 74
0
 42
0.0000001
 43
0.0000001
 44
0.0000000001
 40
0.0
 40
0.0
 40
0.0
 40
0.0
 40
0.0415182118
 40
0.0841400594
 40
0.1749773994
 40
0.2766565906
 40
0.3916875623
 40
0.5214892694
 40
0.6664743482
 40
0.8262741497
 40
1.0
 40
1.0
 40
1.0
 40
1.0
 10
18.1472431175
 20
7.4180462164
 30
0.0
 10
18.1474044352
 20
7.4180320918
 30
0.0
 10
18.147729688
 20
7.4179790139
 30
0.0
 10
18.1483828344
 20
7.4177746995
 30
0.0
 10
18.1491943238
 20
7.4173264921
 30
0.0
 10
18.1501016036
 20
7.416531626
 30
0.0
 10
18.1509591202
 20
7.4154805049
 30
0.0
 10
18.1517573593
 20
7.4141823706
 30
0.0
 10
18.1524883937
 20
7.4126502242
 30
0.0
 10
18.1531434804
 20
7.4109005879
 30
0.0
 10
18.1535087345
 20
7.4096507998
 30
0.0
 10
18.1536784161
 20
7.4089948008
 30
0.0
  0
SPLINE
  5
3CB
100
AcDbEntity
  8
0
100
AcDbSpline
 62
9
  6
CONTINUOUS
 70
0
 71
3
 72
11
 73
7
 74
0
 42
0.0000001
 43
0.0000001
 44
0.0000000001
 40
0.0
 40
0.0
 40
0.0
 40
0.0
 40
0.2356490773
 40
0.4833834869
 40
0.7397751091
 40
1.0
 40
1.0
 40
1.0
 40
1.0
 10
18.1540785899
 20
7.4072604175
 30
0.0
 10
18.1542473721
 20
7.4064343385
 30
0.0
 10
18.1545358701
 20
7.4047276544
 30
0.0
 10
18.1548198457
 20
7.4020946082
 30
0.0
 10
18.1549577303
 20
7.3993618995
 30
0.0
 10
18.154950952
 20
7.3975124068
 30
0.0
 10
18.1549219636
 20
7.3965817814
 30
0.0
  0
LINE
  5
3CC
100
AcDbEntity
  8
0
100
AcDbLine
 62
9
  6
CONTINUOUS
 10
18.1549219639
 20
7.3965817896
 11
18.1538155721
 21
7.3966059976
  0
SPLINE
  5
3CD
100
AcDbEntity
  8
0
100
AcDbSpline
 62
9
  6
CONTINUOUS
 70
0
 71
3
 72
9
 73
5
 74
0
 42
0.0000001
 43
0.0000001
 44
0.0000000001
 40
0.0
 40
0.0
 40
0.0
 40
0.0
 40
0.2833899261
 40
1.0
 40
1.0
 40
1.0
 40
1.0
 10
18.1311487337
 20
7.3598874543
 30
0.0
 10
18.1311449127
 20
7.3598873088
 30
0.0
 10
18.131131428
 20
7.3598868404
 30
0.0
 10
18.131117935
 20
7.3598865469
 30
0.0
 10
18.1311082658
 20
7.3598865469
 30
0.0
  0
SPLINE
  5
3CE
100
AcDbEntity
  8
0
100
AcDbSpline
 62
9
  6
CONTINUOUS
 70
0
 71
3
 72
22
 73
18
 74
0
 42
0.0000001
 43
0.0000001
 44
0.0000000001
 40
0.0
 40
0.0
 40
0.0
 40
0.0
 40
0.1153554957
 40
0.1751862608
 40
0.2362125813
 40
0.2983328751
 40
0.3614735147
 40
0.4254227432
 40
0.4899124846
 40
0.5546892985
 40
0.6195308615
 40
0.6842631729
 40
0.7487394569
 40
0.8127754115
 40
0.8761527002
 40
0.9386352016
 40
1.0
 40
1.0
 40
1.0
 40
1.0
 10
-1.6331426875
 20
13.4204322947
 30
0.0
 10
-1.6345669747
 20
13.4204322947
 30
0.0
 10
-1.6367337308
 20
13.4205856415
 30
0.0
 10
-1.6396074838
 20
13.4210927406
 30
0.0
 10
-1.6418001926
 20
13.4216459699
 30
0.0
 10
-1.6439839252
 20
13.4223753793
 30
0.0
 10
-1.6461368964
 20
13.4232884361
 30
0.0
 10
-1.6482388887
 20
13.4243782924
 30
0.0
 10
-1.65026834
 20
13.4256368102
 30
0.0
 10
-1.6522026761
 20
13.4270559783
 30
0.0
 10
-1.6540198036
 20
13.428627425
 30
0.0
 10
-1.6556954396
 20
13.4303439054
 30
0.0
 10
-1.6572175851
 20
13.4321846614
 30
0.0
 10
-1.6585785464
 20
13.4341270369
 30
0.0
 10
-1.6597697306
 20
13.4361493754
 30
0.0
 10
-1.6607831702
 20
13.4382296655
 30
0.0
 10
-1.6613396351
 20
13.439656093
 30
0.0
 10
-1.6615861012
 20
13.4403725525
 30
0.0
  0
SPLINE
  5
3CF
100
AcDbEntity
  8
0
100
AcDbSpline
 62
9
  6
CONTINUOUS
 70
0
 71
3
 72
15
 73
11
 74
0
 42
0.0000001
 43
0.0000001
 44
0.0000000001
 40
0.0
 40
0.0
 40
0.0
 40
0.0
 40
0.1383102924
 40
0.2734068973
 40
0.4049746409
 40
0.5327164446
 40
0.6563704772
 40
0.7756754361
 40
0.8903306938
 40
1.0
 40
1.0
 40
1.0
 40
1.0
 10
-1.6331426771
 20
13.1053839016
 30
0.0
 10
-1.6331426823
 20
13.1136533818
 30
0.0
 10
-1.6333808504
 20
13.130000011
 30
0.0
 10
-1.6340444968
 20
13.1542038622
 30
0.0
 10
-1.6345723743
 20
13.177779468
 30
0.0
 10
-1.6348061311
 20
13.2006765922
 30
0.0
 10
-1.6345854972
 20
13.2228407072
 30
0.0
 10
-1.6340656768
 20
13.244216424
 30
0.0
 10
-1.6334012136
 20
13.2647506217
 30
0.0
 10
-1.6331426794
 20
13.2781622119
 30
0.0
 10
-1.6331426771
 20
13.2847192666
 30
0.0
  0
SPLINE
  5
3D0
100
AcDbEntity
  8
0
100
AcDbSpline
 62
9
  6
CONTINUOUS
 70
0
 71
3
 72
29
 73
25
 74
0
 42
0.0000001
 43
0.0000001
 44
0.0000000001
 40
0.0
 40
0.0
 40
0.0
 40
0.0
 40
0.2317925851
 40
0.4333126994
 40
0.5228255963
 40
0.6048259096
 40
0.6792722457
 40
0.7460972268
 40
0.805222764
 40
0.8566053845
 40
0.9002089069
 40
0.9190812122
 40
0.9359933757
 40
0.9509397702
 40
0.9639145271
 40
0.9749115377
 40
0.9839244549
 40
0.9909466947
 40
0.9937091919
 40
0.9959714437
 40
0.997732561
 40
0.9989916404
 40
0.9997477642
 40
1.0
 40
1.0
 40
1.0
 40
1.0
 10
-1.6331426759
 20
13.4204322947
 30
0.0
 10
-1.6331426784
 20
13.4213502827
 30
0.0
 10
-1.6331930651
 20
13.423066882
 30
0.0
 10
-1.6333756286
 20
13.4251305264
 30
0.0
 10
-1.6335663458
 20
13.4265956586
 30
0.0
 10
-1.6337154726
 20
13.4275583606
 30
0.0
 10
-1.6338696239
 20
13.4284291214
 30
0.0
 10
-1.6340220656
 20
13.4292080235
 30
0.0
 10
-1.6341659368
 20
13.4298954551
 30
0.0
 10
-1.6342985838
 20
13.430491225
 30
0.0
 10
-1.6344021694
 20
13.4309301029
 30
0.0
 10
-1.63447743
 20
13.4312353717
 30
0.0
 10
-1.6345267558
 20
13.4314301371
 30
0.0
 10
-1.6345714313
 20
13.4316019855
 30
0.0
 10
-1.6346111412
 20
13.4317509071
 30
0.0
 10
-1.6346455986
 20
13.4318769346
 30
0.0
 10
-1.6346744339
 20
13.4319799784
 30
0.0
 10
-1.6346950243
 20
13.4320516551
 30
0.0
 10
-1.6347082806
 20
13.4320972816
 30
0.0
 10
-1.6347161396
 20
13.4321234159
 30
0.0
 10
-1.6347214897
 20
13.4321425302
 30
0.0
 10
-1.6347272553
 20
13.4321589567
 30
0.0
 10
-1.6347273438
 20
13.4321638429
 30
0.0
 10
-1.6347311422
 20
13.432171495
 30
0.0
 10
-1.6347303602
 20
13.4321708734
 30
0.0
  0
SPLINE
  5
3D1
100
AcDbEntity
  8
0
100
AcDbSpline
 62
9
  6
CONTINUOUS
 70
0
 71
3
 72
15
 73
11
 74
0
 42
0.0000001
 43
0.0000001
 44
0.0000000001
 40
0.0
 40
0.0
 40
0.0
 40
0.0
 40
0.1096695663
 40
0.2243251452
 40
0.3436301734
 40
0.4672842102
 40
0.5950261474
 40
0.7265938637
 40
0.8616900456
 40
1.0
 40
1.0
 40
1.0
 40
1.0
 10
-1.6331426776
 20
12.6546224802
 30
0.0
 10
-1.6331426819
 20
12.6611795505
 30
0.0
 10
-1.6334012162
 20
12.6745911755
 30
0.0
 10
-1.6340656774
 20
12.6951254121
 30
0.0
 10
-1.6345855064
 20
12.7165011524
 30
0.0
 10
-1.6348061435
 20
12.7386652798
 30
0.0
 10
-1.6345723728
 20
12.7615624106
 30
0.0
 10
-1.6340444833
 20
12.7851379971
 30
0.0
 10
-1.6333808413
 20
12.8093418014
 30
0.0
 10
-1.6331426806
 20
12.8256883853
 30
0.0
 10
-1.6331426776
 20
12.8339578453
 30
0.0
  0
SPLINE
  5
3D2
100
AcDbEntity
  8
0
100
AcDbSpline
 62
9
  6
CONTINUOUS
 70
0
 71
3
 72
19
 73
15
 74
0
 42
0.0000001
 43
0.0000001
 44
0.0000000001
 40
0.0
 40
0.0
 40
0.0
 40
0.0
 40
0.1612593478
 40
0.3182066346
 40
0.4660469044
 40
0.6013604984
 40
0.6635649382
 40
0.7218192213
 40
0.7760899828
 40
0.8265433517
 40
0.8735111977
 40
0.9175434888
 40
0.9593970404
 40
1.0
 40
1.0
 40
1.0
 40
1.0
 10
-2.0181426875
 20
12.9496708734
 30
0.0
 10
-2.0194437734
 20
12.9496708734
 30
0.0
 10
-2.0220128995
 20
12.9497964799
 30
0.0
 10
-2.0257385119
 20
12.9503515533
 30
0.0
 10
-2.0291800873
 20
12.9512557333
 30
0.0
 10
-2.0317747005
 20
12.9522996412
 30
0.0
 10
-2.0335864837
 20
12.9532921328
 30
0.0
 10
-2.0347600105
 20
12.9540771942
 30
0.0
 10
-2.0357749578
 20
12.9549173061
 30
0.0
 10
-2.0366225871
 20
12.9558046252
 30
0.0
 10
-2.0372939285
 20
12.9567326503
 30
0.0
 10
-2.0377797367
 20
12.9576938351
 30
0.0
 10
-2.0380753913
 20
12.9586763114
 30
0.0
 10
-2.0381426875
 20
12.9593432773
 30
0.0
 10
-2.0381426875
 20
12.9596708734
 30
0.0
  0
SPLINE
  5
3D3
100
AcDbEntity
  8
0
100
AcDbSpline
 62
9
  6
CONTINUOUS
 70
0
 71
3
 72
22
 73
18
 74
0
 42
0.0000001
 43
0.0000001
 44
0.0000000001
 40
0.0
 40
0.0
 40
0.0
 40
0.0
 40
0.0613796156
 40
0.1238736489
 40
0.1872586733
 40
0.2512991068
 40
0.3157772917
 40
0.3805096864
 40
0.4453499271
 40
0.5101238736
 40
0.5746093031
 40
0.6385530773
 40
0.7016875701
 40
0.7638020827
 40
0.8248233692
 40
0.8846498555
 40
1.0
 40
1.0
 40
1.0
 40
1.0
 10
-1.6615756683
 20
12.4989994662
 30
0.0
 10
-1.6613285427
 20
12.4997151998
 30
0.0
 10
-1.6607708263
 20
12.5011400648
 30
0.0
 10
-1.6597559476
 20
12.5032178904
 30
0.0
 10
-1.6585637382
 20
12.5052376071
 30
0.0
 10
-1.6572021479
 20
12.5071772477
 30
0.0
 10
-1.6556797535
 20
12.509015221
 30
0.0
 10
-1.6540042044
 20
12.5107288958
 30
0.0
 10
-1.6521876032
 20
12.5122976898
 30
0.0
 10
-1.6502541847
 20
12.5137144189
 30
0.0
 10
-1.6482259763
 20
12.5149707225
 30
0.0
 10
-1.6461254952
 20
12.5160586157
 30
0.0
 10
-1.6439742336
 20
12.5169699706
 30
0.0
 10
-1.6417923649
 20
12.517698008
 30
0.0
 10
-1.6396016082
 20
12.5182502114
 30
0.0
 10
-1.6367304379
 20
12.5187563847
 30
0.0
 10
-1.6345656787
 20
12.5189094521
 30
0.0
 10
-1.6331426875
 20
12.5189094521
 30
0.0
  0
SPLINE
  5
3D4
100
AcDbEntity
  8
0
100
AcDbSpline
 62
9
  6
CONTINUOUS
 70
0
 71
3
 72
19
 73
15
 74
0
 42
0.0000001
 43
0.0000001
 44
0.0000000001
 40
0.0
 40
0.0
 40
0.0
 40
0.0
 40
0.1190093364
 40
0.2398954187
 40
0.3010089269
 40
0.3625547457
 40
0.4245230763
 40
0.4869047012
 40
0.6128758238
 40
0.6764507853
 40
0.7404113988
 40
0.8047527337
 40
0.8694690515
 40
1.0
 40
1.0
 40
1.0
 40
1.0
 10
-1.6631426875
 20
12.6341869088
 30
0.0
 10
-1.6631426888
 20
12.6417627602
 30
0.0
 10
-1.6632486197
 20
12.6570338324
 30
0.0
 10
-1.6634638705
 20
12.6761940762
 30
0.0
 10
-1.6636151919
 20
12.6916968742
 30
0.0
 10
-1.6637055724
 20
12.7034494934
 30
0.0
 10
-1.6637647921
 20
12.7152830489
 30
0.0
 10
-1.6637902345
 20
12.7312178997
 30
0.0
 10
-1.6637363687
 20
12.7472550507
 30
0.0
 10
-1.6636138006
 20
12.7633922265
 30
0.0
 10
-1.6635003317
 20
12.7756061298
 30
0.0
 10
-1.6633766809
 20
12.7878925968
 30
0.0
 10
-1.6632174961
 20
12.8044165967
 30
0.0
 10
-1.6631426884
 20
12.8168455481
 30
0.0
 10
-1.6631426875
 20
12.825154838
 30
0.0
  0
SPLINE
  5
3D5
100
AcDbEntity
  8
0
100
AcDbSpline
 62
9
  6
CONTINUOUS
 70
0
 71
3
 72
21
 73
17
 74
0
 42
0.0000001
 43
0.0000001
 44
0.0000000001
 40
0.0
 40
0.0
 40
0.0
 40
0.0
 40
0.0244440697
 40
0.0517889407
 40
0.0838114444
 40
0.1219766083
 40
0.1673110762
 40
0.2199550218
 40
0.2796805901
 40
0.3461512172
 40
0.4188452047
 40
0.4966609406
 40
0.5783069154
 40
0.6624578137
 40
0.8332487029
 40
1.0
 40
1.0
 40
1.0
 40
1.0
 10
-1.6631426875
 20
12.8251548395
 30
0.0
 10
-1.6631426875
 20
12.8254219316
 30
0.0
 10
-1.6630496364
 20
12.8259906247
 30
0.0
 10
-1.6626435555
 20
12.8268226679
 30
0.0
 10
-1.6619612279
 20
12.8276512462
 30
0.0
 10
-1.6609915336
 20
12.8284675057
 30
0.0
 10
-1.6597287378
 20
12.8292603576
 30
0.0
 10
-1.6581823154
 20
12.8300255337
 30
0.0
 10
-1.6563656381
 20
12.8307500944
 30
0.0
 10
-1.6542967
 20
12.8314196765
 30
0.0
 10
-1.6520016708
 20
12.8320188107
 30
0.0
 10
-1.6495194075
 20
12.8325450813
 30
0.0
 10
-1.646894837
 20
12.8329929809
 30
0.0
 10
-1.6432488292
 20
12.8334806708
 30
0.0
 10
-1.6386534932
 20
12.833858428
 30
0.0
 10
-1.6349647226
 20
12.8339578467
 30
0.0
 10
-1.6331426875
 20
12.8339578467
 30
0.0
  0
SPLINE
  5
3D6
100
AcDbEntity
  8
0
100
AcDbSpline
 62
9
  6
CONTINUOUS
 70
0
 71
3
 72
20
 73
16
 74
0
 42
0.0000001
 43
0.0000001
 44
0.0000000001
 40
0.0
 40
0.0
 40
0.0
 40
0.0
 40
0.1370895737
 40
0.2794300587
 40
0.3511353219
 40
0.4222318689
 40
0.4919515534
 40
0.559603951
 40
0.686777805
 40
0.7460722218
 40
0.8022476269
 40
0.8553343994
 40
0.9057443227
 40
0.9538724306
 40
1.0
 40
1.0
 40
1.0
 40
1.0
 10
-1.6331426875
 20
12.6546224802
 30
0.0
 10
-1.6349676421
 20
12.6546224802
 30
0.0
 10
-1.6386906671
 20
12.6543886091
 30
0.0
 10
-1.6432964429
 20
12.6535019552
 30
0.0
 10
-1.6469238679
 20
12.6523724672
 30
0.0
 10
-1.6495557425
 20
12.6513269783
 30
0.0
 10
-1.6520472935
 20
12.6500965659
 30
0.0
 10
-1.655058054
 20
12.6482634516
 30
0.0
 10
-1.6576823539
 20
12.6460822925
 30
0.0
 10
-1.6597957055
 20
12.643632095
 30
0.0
 10
-1.6610564076
 20
12.6417686628
 30
0.0
 10
-1.662011982
 20
12.6398631225
 30
0.0
 10
-1.6626731263
 20
12.6379497111
 30
0.0
 10
-1.6630574075
 20
12.6360571693
 30
0.0
 10
-1.6631426875
 20
12.6348009651
 30
0.0
 10
-1.6631426875
 20
12.6341869088
 30
0.0
  0
SPLINE
  5
3D7
100
AcDbEntity
  8
0
100
AcDbSpline
 62
9
  6
CONTINUOUS
 70
0
 71
3
 72
18
 73
14
 74
0
 42
0.0000001
 43
0.0000001
 44
0.0000000001
 40
0.0
 40
0.0
 40
0.0
 40
0.0
 40
0.1305286239
 40
0.2595800956
 40
0.3871142778
 40
0.4502984717
 40
0.5130853844
 40
0.6374354287
 40
0.6989817915
 40
0.7600965548
 40
0.8207697327
 40
0.880988876
 40
1.0
 40
1.0
 40
1.0
 40
1.0
 10
-1.6631426875
 20
13.1141869088
 30
0.0
 10
-1.6631426891
 20
13.1224960502
 30
0.0
 10
-1.6632452628
 20
13.1390202319
 30
0.0
 10
-1.663505027
 20
13.1636615725
 30
0.0
 10
-1.6636853526
 20
13.1840166228
 30
0.0
 10
-1.6637644725
 20
13.2001539982
 30
0.0
 10
-1.6637901682
 20
13.2160888499
 30
0.0
 10
-1.6637376106
 20
13.2319194786
 30
0.0
 10
-1.6636143409
 20
13.2476431486
 30
0.0
 10
-1.6635011201
 20
13.2593132273
 30
0.0
 10
-1.6633774886
 20
13.2708987119
 30
0.0
 10
-1.6632193312
 20
13.2861695427
 30
0.0
 10
-1.6631426882
 20
13.2975788733
 30
0.0
 10
-1.6631426875
 20
13.305154838
 30
0.0
  0
SPLINE
  5
3D8
100
AcDbEntity
  8
0
100
AcDbSpline
 62
9
  6
CONTINUOUS
 70
0
 71
3
 72
20
 73
16
 74
0
 42
0.0000001
 43
0.0000001
 44
0.0000000001
 40
0.0
 40
0.0
 40
0.0
 40
0.0
 40
0.0461275694
 40
0.0942556774
 40
0.1446656007
 40
0.1977523732
 40
0.2539277784
 40
0.3132221952
 40
0.4403960492
 40
0.5080484467
 40
0.5777681313
 40
0.6488646782
 40
0.7205699414
 40
0.8629104263
 40
1.0
 40
1.0
 40
1.0
 40
1.0
 10
-1.6631426875
 20
13.3051548384
 30
0.0
 10
-1.6631426875
 20
13.3045407821
 30
0.0
 10
-1.6630574075
 20
13.3032845779
 30
0.0
 10
-1.6626731263
 20
13.3013920361
 30
0.0
 10
-1.662011982
 20
13.2994786247
 30
0.0
 10
-1.6610564076
 20
13.2975730844
 30
0.0
 10
-1.6597957055
 20
13.2957096522
 30
0.0
 10
-1.6576823539
 20
13.2932594547
 30
0.0
 10
-1.655058054
 20
13.2910782956
 30
0.0
 10
-1.6520472935
 20
13.2892451813
 30
0.0
 10
-1.6495557425
 20
13.2880147689
 30
0.0
 10
-1.6469238679
 20
13.2869692799
 30
0.0
 10
-1.6432964429
 20
13.285839792
 30
0.0
 10
-1.6386906671
 20
13.2849531381
 30
0.0
 10
-1.6349676421
 20
13.284719267
 30
0.0
 10
-1.6331426875
 20
13.284719267
 30
0.0
  0
SPLINE
  5
3D9
100
AcDbEntity
  8
0
100
AcDbSpline
 62
9
  6
CONTINUOUS
 70
0
 71
3
 72
21
 73
17
 74
0
 42
0.0000001
 43
0.0000001
 44
0.0000000001
 40
0.0
 40
0.0
 40
0.0
 40
0.0
 40
0.1667512969
 40
0.3375421859
 40
0.4216930842
 40
0.5033390588
 40
0.5811547947
 40
0.6538487821
 40
0.7203194092
 40
0.7800449775
 40
0.8326889231
 40
0.878023391
 40
0.9161885551
 40
0.9482110588
 40
0.9755559301
 40
1.0
 40
1.0
 40
1.0
 40
1.0
 10
-1.6331426875
 20
13.1053839016
 30
0.0
 10
-1.6349647226
 20
13.1053839016
 30
0.0
 10
-1.6386534932
 20
13.1054833202
 30
0.0
 10
-1.6432488292
 20
13.1058610775
 30
0.0
 10
-1.646894837
 20
13.1063487673
 30
0.0
 10
-1.6495194075
 20
13.1067966669
 30
0.0
 10
-1.6520016708
 20
13.1073229375
 30
0.0
 10
-1.6542967
 20
13.1079220717
 30
0.0
 10
-1.6563656381
 20
13.1085916538
 30
0.0
 10
-1.6581823154
 20
13.1093162145
 30
0.0
 10
-1.6597287378
 20
13.1100813907
 30
0.0
 10
-1.6609915336
 20
13.1108742425
 30
0.0
 10
-1.6619612279
 20
13.111690502
 30
0.0
 10
-1.6626435555
 20
13.1125190803
 30
0.0
 10
-1.6630496364
 20
13.1133511236
 30
0.0
 10
-1.6631426875
 20
13.1139198167
 30
0.0
 10
-1.6631426875
 20
13.1141869088
 30
0.0
  0
SPLINE
  5
3DA
100
AcDbEntity
  8
0
100
AcDbSpline
 62
9
  6
CONTINUOUS
 70
0
 71
3
 72
29
 73
25
 74
0
 42
0.0000001
 43
0.0000001
 44
0.0000000001
 40
0.0
 40
0.0
 40
0.0
 40
0.0
 40
0.0002522842
 40
0.0010084579
 40
0.0022675886
 40
0.0040287582
 40
0.006291063
 40
0.0090536139
 40
0.0160759617
 40
0.0250889861
 40
0.0360861014
 40
0.0490609584
 40
0.0640074466
 40
0.0809196955
 40
0.0997920759
 40
0.1433957104
 40
0.1947783802
 40
0.2539038892
 40
0.3207287581
 40
0.3951749191
 40
0.4771750223
 40
0.5666877018
 40
0.7682074688
 40
1.0
 40
1.0
 40
1.0
 40
1.0
 10
-1.6347303602
 20
12.5071708735
 30
0.0
 10
-1.6347296081
 20
12.5071715312
 30
0.0
 10
-1.6347295424
 20
12.5071760698
 30
0.0
 10
-1.6347258496
 20
12.5071839626
 30
0.0
 10
-1.6347221364
 20
12.5071986772
 30
0.0
 10
-1.6347158793
 20
12.5072185481
 30
0.0
 10
-1.6347083705
 20
12.5072443903
 30
0.0
 10
-1.6346949464
 20
12.5072901568
 30
0.0
 10
-1.6346744644
 20
12.5073617432
 30
0.0
 10
-1.6346455803
 20
12.5074648278
 30
0.0
 10
-1.6346111391
 20
12.507590842
 30
0.0
 10
-1.6345714223
 20
12.5077397695
 30
0.0
 10
-1.6345267478
 20
12.5079116172
 30
0.0
 10
-1.6344774204
 20
12.508106384
 30
0.0
 10
-1.6344021591
 20
12.5084116534
 30
0.0
 10
-1.6342985722
 20
12.5088505322
 30
0.0
 10
-1.6341659244
 20
12.5094463025
 30
0.0
 10
-1.634022053
 20
12.5101337338
 30
0.0
 10
-1.6338696118
 20
12.5109126349
 30
0.0
 10
-1.6337154615
 20
12.511783394
 30
0.0
 10
-1.6335663361
 20
12.512746094
 30
0.0
 10
-1.6333756214
 20
12.5142112236
 30
0.0
 10
-1.6331930614
 20
12.5162748662
 30
0.0
 10
-1.6331426773
 20
12.5179914642
 30
0.0
 10
-1.6331426759
 20
12.5189094521
 30
0.0
  0
SPLINE
  5
3DB
100
AcDbEntity
  8
0
100
AcDbSpline
 62
9
  6
CONTINUOUS
 70
0
 71
3
 72
19
 73
15
 74
0
 42
0.0000001
 43
0.0000001
 44
0.0000000001
 40
0.0
 40
0.0
 40
0.0
 40
0.0
 40
0.1612611106
 40
0.3181844297
 40
0.4659790978
 40
0.6012809441
 40
0.6634877892
 40
0.7217432032
 40
0.7760244924
 40
0.826493416
 40
0.8734779317
 40
0.9175273334
 40
0.9593931193
 40
1.0
 40
1.0
 40
1.0
 40
1.0
 10
-2.0181426875
 20
13.4496708734
 30
0.0
 10
-2.0194437847
 20
13.4496708734
 30
0.0
 10
-2.0220127211
 20
13.4495452162
 30
0.0
 10
-2.0257377999
 20
13.4489903781
 30
0.0
 10
-2.02917876
 20
13.4480864387
 30
0.0
 10
-2.0317729673
 20
13.4470427986
 30
0.0
 10
-2.0335849049
 20
13.4460507286
 30
0.0
 10
-2.0347585358
 20
13.4452656191
 30
0.0
 10
-2.03577379
 20
13.4444255554
 30
0.0
 10
-2.0366218675
 20
13.4435381733
 30
0.0
 10
-2.0372933547
 20
13.4426097535
 30
0.0
 10
-2.0377793463
 20
13.4416482615
 30
0.0
 10
-2.0380752764
 20
13.4406655948
 30
0.0
 10
-2.0381426875
 20
13.4399985004
 30
0.0
 10
-2.0381426875
 20
13.4396708734
 30
0.0
  0
SPLINE
  5
3DC
100
AcDbEntity
  8
0
100
AcDbSpline
 62
9
  6
CONTINUOUS
 70
0
 71
3
 72
19
 73
15
 74
0
 42
0.0000001
 43
0.0000001
 44
0.0000000001
 40
0.0
 40
0.0
 40
0.0
 40
0.0
 40
0.0406036096
 40
0.0824575784
 40
0.1264855083
 40
0.1734397834
 40
0.2238734399
 40
0.2781261218
 40
0.3363682538
 40
0.3985583986
 40
0.5338539848
 40
0.6817086537
 40
0.8387140406
 40
1.0
 40
1.0
 40
1.0
 40
1.0
 10
-2.0381426875
 20
12.4996708734
 30
0.0
 10
-2.0381426875
 20
12.4993432721
 30
0.0
 10
-2.0380753589
 20
12.4986762992
 30
0.0
 10
-2.0377796887
 20
12.4976938595
 30
0.0
 10
-2.0372939857
 20
12.4967327859
 30
0.0
 10
-2.0366229252
 20
12.4958049371
 30
0.0
 10
-2.0357756718
 20
12.4949178304
 30
0.0
 10
-2.0347610458
 20
12.4940779566
 30
0.0
 10
-2.033587817
 20
12.49329311
 30
0.0
 10
-2.0317765625
 20
12.4923004066
 30
0.0
 10
-2.029182116
 20
12.4912564408
 30
0.0
 10
-2.0257402174
 20
12.490351753
 30
0.0
 10
-2.0220137783
 20
12.4897967588
 30
0.0
 10
-2.0194439877
 20
12.4896708734
 30
0.0
 10
-2.0181426875
 20
12.4896708734
 30
0.0
  0
SPLINE
  5
3DD
100
AcDbEntity
  8
0
100
AcDbSpline
 62
9
  6
CONTINUOUS
 70
0
 71
3
 72
19
 73
15
 74
0
 42
0.0000001
 43
0.0000001
 44
0.0000000001
 40
0.0
 40
0.0
 40
0.0
 40
0.0
 40
0.0406029596
 40
0.0824565112
 40
0.1264888023
 40
0.1734566483
 40
0.2239100172
 40
0.2781807787
 40
0.3364350618
 40
0.3986395016
 40
0.5339530956
 40
0.6817933654
 40
0.8387406522
 40
1.0
 40
1.0
 40
1.0
 40
1.0
 10
-2.0381426875
 20
12.9796708734
 30
0.0
 10
-2.0381426875
 20
12.9799984695
 30
0.0
 10
-2.0380753913
 20
12.9806654354
 30
0.0
 10
-2.0377797367
 20
12.9816479117
 30
0.0
 10
-2.0372939285
 20
12.9826090965
 30
0.0
 10
-2.0366225871
 20
12.9835371216
 30
0.0
 10
-2.0357749578
 20
12.9844244407
 30
0.0
 10
-2.0347600105
 20
12.9852645526
 30
0.0
 10
-2.0335864837
 20
12.986049614
 30
0.0
 10
-2.0317747005
 20
12.9870421056
 30
0.0
 10
-2.0291800873
 20
12.9880860135
 30
0.0
 10
-2.0257385119
 20
12.9889901935
 30
0.0
 10
-2.0220128995
 20
12.9895452669
 30
0.0
 10
-2.0194437734
 20
12.9896708734
 30
0.0
 10
-2.0181426875
 20
12.9896708734
 30
0.0
  0
SPLINE
  5
3DE
100
AcDbEntity
  8
0
100
AcDbSpline
 62
9
  6
CONTINUOUS
 70
0
 71
3
 72
14
 73
10
 74
0
 42
0.0000001
 43
0.0000001
 44
0.0000000001
 40
0.0
 40
0.0
 40
0.0
 40
0.0
 40
0.1387192964
 40
0.2763896695
 40
0.5416290033
 40
0.6667002052
 40
0.7852990158
 40
0.8966054539
 40
1.0
 40
1.0
 40
1.0
 40
1.0
 10
-1.6831426875
 20
12.4896708734
 30
0.0
 10
-1.6823602338
 20
12.4896708734
 30
0.0
 10
-1.6808007394
 20
12.4897172195
 30
0.0
 10
-1.6777566134
 20
12.489987153
 30
0.0
 10
-1.6748156943
 20
12.4905169038
 30
0.0
 10
-1.6720574978
 20
12.4913196295
 30
0.0
 10
-1.6701812537
 20
12.4920253412
 30
0.0
 10
-1.6684823673
 20
12.4928358488
 30
0.0
 10
-1.6674428518
 20
12.4934625048
 30
0.0
 10
-1.6669623476
 20
12.4937930209
 30
0.0
  0
SPLINE
  5
3DF
100
AcDbEntity
  8
0
100
AcDbSpline
 62
9
  6
CONTINUOUS
 70
0
 71
3
 72
12
 73
8
 74
0
 42
0.0000001
 43
0.0000001
 44
0.0000000001
 40
0.0
 40
0.0
 40
0.0
 40
0.0
 40
0.2906509277
 40
0.5493433797
 40
0.7820821692
 40
0.8921562094
 40
1.0
 40
1.0
 40
1.0
 40
1.0
 10
-1.6669623476
 20
12.4937930209
 30
0.0
 10
-1.6663812736
 20
12.4941927143
 30
0.0
 10
-1.6653345344
 20
12.4950300946
 30
0.0
 10
-1.6640950758
 20
12.4964853604
 30
0.0
 10
-1.6634404515
 20
12.4978124376
 30
0.0
 10
-1.6631852824
 20
12.498879487
 30
0.0
 10
-1.6631426875
 20
12.4994091894
 30
0.0
 10
-1.6631426875
 20
12.4996708734
 30
0.0
  0
SPLINE
  5
3E0
100
AcDbEntity
  8
0
100
AcDbSpline
 62
9
  6
CONTINUOUS
 70
0
 71
3
 72
19
 73
15
 74
0
 42
0.0000001
 43
0.0000001
 44
0.0000000001
 40
0.0
 40
0.0
 40
0.0
 40
0.0
 40
0.1612611106
 40
0.3181844297
 40
0.4659790978
 40
0.6012809441
 40
0.6634877892
 40
0.7217432032
 40
0.7760244924
 40
0.826493416
 40
0.8734779317
 40
0.9175273334
 40
0.9593931193
 40
1.0
 40
1.0
 40
1.0
 40
1.0
 10
-1.6831426875
 20
12.9896708734
 30
0.0
 10
-1.6818415903
 20
12.9896708734
 30
0.0
 10
-1.679272654
 20
12.9895452162
 30
0.0
 10
-1.6755475751
 20
12.9889903781
 30
0.0
 10
-1.6721066151
 20
12.9880864387
 30
0.0
 10
-1.6695124078
 20
12.9870427986
 30
0.0
 10
-1.6677004702
 20
12.9860507286
 30
0.0
 10
-1.6665268392
 20
12.9852656191
 30
0.0
 10
-1.6655115851
 20
12.9844255554
 30
0.0
 10
-1.6646635075
 20
12.9835381733
 30
0.0
 10
-1.6639920203
 20
12.9826097535
 30
0.0
 10
-1.6635060287
 20
12.9816482615
 30
0.0
 10
-1.6632100987
 20
12.9806655948
 30
0.0
 10
-1.6631426875
 20
12.9799985004
 30
0.0
 10
-1.6631426875
 20
12.9796708734
 30
0.0
  0
SPLINE
  5
3E1
100
AcDbEntity
  8
0
100
AcDbSpline
 62
9
  6
CONTINUOUS
 70
0
 71
3
 72
19
 73
15
 74
0
 42
0.0000001
 43
0.0000001
 44
0.0000000001
 40
0.0
 40
0.0
 40
0.0
 40
0.0
 40
0.0406036096
 40
0.0824575784
 40
0.1264855083
 40
0.1734397834
 40
0.2238734399
 40
0.2781261218
 40
0.3363682538
 40
0.3985583986
 40
0.5338539848
 40
0.6817086537
 40
0.8387140406
 40
1.0
 40
1.0
 40
1.0
 40
1.0
 10
-1.6631426875
 20
12.9596708734
 30
0.0
 10
-1.6631426875
 20
12.9593432721
 30
0.0
 10
-1.6632100161
 20
12.9586762992
 30
0.0
 10
-1.6635056863
 20
12.9576938595
 30
0.0
 10
-1.6639913894
 20
12.9567327859
 30
0.0
 10
-1.6646624498
 20
12.9558049371
 30
0.0
 10
-1.6655097032
 20
12.9549178304
 30
0.0
 10
-1.6665243293
 20
12.9540779566
 30
0.0
 10
-1.6676975581
 20
12.95329311
 30
0.0
 10
-1.6695088125
 20
12.9523004066
 30
0.0
 10
-1.672103259
 20
12.9512564408
 30
0.0
 10
-1.6755451576
 20
12.950351753
 30
0.0
 10
-1.6792715967
 20
12.9497967588
 30
0.0
 10
-1.6818413873
 20
12.9496708734
 30
0.0
 10
-1.6831426875
 20
12.9496708734
 30
0.0
  0
SPLINE
  5
3E2
100
AcDbEntity
  8
0
100
AcDbSpline
 62
9
  6
CONTINUOUS
 70
0
 71
3
 72
12
 73
8
 74
0
 42
0.0000001
 43
0.0000001
 44
0.0000000001
 40
0.0
 40
0.0
 40
0.0
 40
0.0
 40
0.1083221679
 40
0.2188103844
 40
0.4519854492
 40
0.7103564818
 40
1.0
 40
1.0
 40
1.0
 40
1.0
 10
-1.6631426875
 20
13.4396708734
 30
0.0
 10
-1.6631426875
 20
13.4399275545
 30
0.0
 10
-1.6631836607
 20
13.4404469247
 30
0.0
 10
-1.6634290145
 20
13.4414929636
 30
0.0
 10
-1.6640578049
 20
13.4427948066
 30
0.0
 10
-1.6652509512
 20
13.4442274628
 30
0.0
 10
-1.6662610057
 20
13.4450551128
 30
0.0
 10
-1.6668218198
 20
13.4454507799
 30
0.0
  0
SPLINE
  5
3E3
100
AcDbEntity
  8
0
100
AcDbSpline
 62
9
  6
CONTINUOUS
 70
0
 71
3
 72
14
 73
10
 74
0
 42
0.0000001
 43
0.0000001
 44
0.0000000001
 40
0.0
 40
0.0
 40
0.0
 40
0.0
 40
0.1028563689
 40
0.2137884018
 40
0.3321908401
 40
0.4572393752
 40
0.7228930815
 40
0.8609154151
 40
1.0
 40
1.0
 40
1.0
 40
1.0
 10
-1.6668218198
 20
13.4454507799
 30
0.0
 10
-1.6673006676
 20
13.445788618
 30
0.0
 10
-1.6683399291
 20
13.4464295339
 30
0.0
 10
-1.6700441051
 20
13.4472585702
 30
0.0
 10
-1.6719321965
 20
13.4479808887
 30
0.0
 10
-1.6747159799
 20
13.4488037562
 30
0.0
 10
-1.6776898932
 20
13.4493464458
 30
0.0
 10
-1.6807708925
 20
13.4496232751
 30
0.0
 10
-1.6823502467
 20
13.4496708734
 30
0.0
 10
-1.6831426875
 20
13.4496708734
 30
0.0
  0
SPLINE
  5
3E4
100
AcDbEntity
  8
0
100
AcDbSpline
 62
9
  6
CONTINUOUS
 70
0
 71
3
 72
19
 73
15
 74
0
 42
0.0000001
 43
0.0000001
 44
0.0000000001
 40
0.0
 40
0.0
 40
0.0
 40
0.0
 40
0.0406036096
 40
0.0824575784
 40
0.1264855083
 40
0.1734397834
 40
0.2238734399
 40
0.2781261218
 40
0.3363682538
 40
0.3985583986
 40
0.5338539848
 40
0.6817086537
 40
0.8387140406
 40
1.0
 40
1.0
 40
1.0
 40
1.0
 10
19.2338573125
 20
7.3996708734
 30
0.0
 10
19.2338573125
 20
7.3999984747
 30
0.0
 10
19.2339246411
 20
7.4006654476
 30
0.0
 10
19.2342203113
 20
7.4016478873
 30
0.0
 10
19.2347060143
 20
7.402608961
 30
0.0
 10
19.2353770748
 20
7.4035368097
 30
0.0
 10
19.2362243282
 20
7.4044239164
 30
0.0
 10
19.2372389542
 20
7.4052637903
 30
0.0
 10
19.238412183
 20
7.4060486368
 30
0.0
 10
19.2402234375
 20
7.4070413402
 30
0.0
 10
19.242817884
 20
7.408085306
 30
0.0
 10
19.2462597826
 20
7.4089899938
 30
0.0
 10
19.2499862217
 20
7.409544988
 30
0.0
 10
19.2525560123
 20
7.4096708734
 30
0.0
 10
19.2538573125
 20
7.4096708734
 30
0.0
  0
SPLINE
  5
3E5
100
AcDbEntity
  8
0
100
AcDbSpline
 62
9
  6
CONTINUOUS
 70
0
 71
3
 72
19
 73
15
 74
0
 42
0.0000001
 43
0.0000001
 44
0.0000000001
 40
0.0
 40
0.0
 40
0.0
 40
0.0
 40
0.1612611106
 40
0.3181844297
 40
0.4659790978
 40
0.6012809441
 40
0.6634877892
 40
0.7217432032
 40
0.7760244924
 40
0.826493416
 40
0.8734779317
 40
0.9175273334
 40
0.9593931193
 40
1.0
 40
1.0
 40
1.0
 40
1.0
 10
19.2538573125
 20
7.3696708734
 30
0.0
 10
19.2525562153
 20
7.3696708734
 30
0.0
 10
19.2499872789
 20
7.3697965306
 30
0.0
 10
19.2462622001
 20
7.3703513688
 30
0.0
 10
19.24282124
 20
7.3712553082
 30
0.0
 10
19.2402270327
 20
7.3722989482
 30
0.0
 10
19.2384150951
 20
7.3732910182
 30
0.0
 10
19.2372414642
 20
7.3740761277
 30
0.0
 10
19.23622621
 20
7.3749161914
 30
0.0
 10
19.2353781325
 20
7.3758035736
 30
0.0
 10
19.2347066453
 20
7.3767319933
 30
0.0
 10
19.2342206537
 20
7.3776934854
 30
0.0
 10
19.2339247236
 20
7.378676152
 30
0.0
 10
19.2338573125
 20
7.3793432464
 30
0.0
 10
19.2338573125
 20
7.3796708734
 30
0.0
  0
SPLINE
  5
3E6
100
AcDbEntity
  8
0
100
AcDbSpline
 62
9
  6
CONTINUOUS
 70
0
 71
3
 72
19
 73
15
 74
0
 42
0.0000001
 43
0.0000001
 44
0.0000000001
 40
0.0
 40
0.0
 40
0.0
 40
0.0
 40
0.1612611106
 40
0.3181844297
 40
0.4659790978
 40
0.6012809441
 40
0.6634877892
 40
0.7217432032
 40
0.7760244924
 40
0.826493416
 40
0.8734779317
 40
0.9175273334
 40
0.9593931193
 40
1.0
 40
1.0
 40
1.0
 40
1.0
 10
19.2538573125
 20
7.9696708734
 30
0.0
 10
19.2525562153
 20
7.9696708734
 30
0.0
 10
19.2499872789
 20
7.9695452162
 30
0.0
 10
19.2462622001
 20
7.9689903781
 30
0.0
 10
19.24282124
 20
7.9680864387
 30
0.0
 10
19.2402270327
 20
7.9670427986
 30
0.0
 10
19.2384150951
 20
7.9660507286
 30
0.0
 10
19.2372414642
 20
7.9652656191
 30
0.0
 10
19.23622621
 20
7.9644255554
 30
0.0
 10
19.2353781325
 20
7.9635381733
 30
0.0
 10
19.2347066453
 20
7.9626097535
 30
0.0
 10
19.2342206537
 20
7.9616482615
 30
0.0
 10
19.2339247236
 20
7.9606655948
 30
0.0
 10
19.2338573125
 20
7.9599985004
 30
0.0
 10
19.2338573125
 20
7.9596708734
 30
0.0
  0
SPLINE
  5
3E7
100
AcDbEntity
  8
0
100
AcDbSpline
 62
9
  6
CONTINUOUS
 70
0
 71
3
 72
19
 73
15
 74
0
 42
0.0000001
 43
0.0000001
 44
0.0000000001
 40
0.0
 40
0.0
 40
0.0
 40
0.0
 40
0.0406036096
 40
0.0824575784
 40
0.1264855083
 40
0.1734397834
 40
0.2238734399
 40
0.2781261218
 40
0.3363682538
 40
0.3985583986
 40
0.5338539848
 40
0.6817086537
 40
0.8387140406
 40
1.0
 40
1.0
 40
1.0
 40
1.0
 10
19.2338573125
 20
6.8196708734
 30
0.0
 10
19.2338573125
 20
6.8193432721
 30
0.0
 10
19.2339246411
 20
6.8186762992
 30
0.0
 10
19.2342203113
 20
6.8176938595
 30
0.0
 10
19.2347060143
 20
6.8167327859
 30
0.0
 10
19.2353770748
 20
6.8158049371
 30
0.0
 10
19.2362243282
 20
6.8149178304
 30
0.0
 10
19.2372389542
 20
6.8140779566
 30
0.0
 10
19.238412183
 20
6.81329311
 30
0.0
 10
19.2402234375
 20
6.8123004066
 30
0.0
 10
19.242817884
 20
6.8112564408
 30
0.0
 10
19.2462597826
 20
6.810351753
 30
0.0
 10
19.2499862217
 20
6.8097967588
 30
0.0
 10
19.2525560123
 20
6.8096708734
 30
0.0
 10
19.2538573125
 20
6.8096708734
 30
0.0
  0
SPLINE
  5
3E8
100
AcDbEntity
  8
0
100
AcDbSpline
 62
9
  6
CONTINUOUS
 70
0
 71
3
 72
19
 73
15
 74
0
 42
0.0000001
 43
0.0000001
 44
0.0000000001
 40
0.0
 40
0.0
 40
0.0
 40
0.0
 40
0.0406036096
 40
0.0824575784
 40
0.1264855083
 40
0.1734397834
 40
0.2238734399
 40
0.2781261218
 40
0.3363682538
 40
0.3985583986
 40
0.5338539848
 40
0.6817086537
 40
0.8387140406
 40
1.0
 40
1.0
 40
1.0
 40
1.0
 10
19.7338573125
 20
7.9596708734
 30
0.0
 10
19.7338573125
 20
7.9599984747
 30
0.0
 10
19.7337899839
 20
7.9606654476
 30
0.0
 10
19.7334943137
 20
7.9616478873
 30
0.0
 10
19.7330086106
 20
7.962608961
 30
0.0
 10
19.7323375502
 20
7.9635368097
 30
0.0
 10
19.7314902968
 20
7.9644239164
 30
0.0
 10
19.7304756707
 20
7.9652637903
 30
0.0
 10
19.7293024419
 20
7.9660486368
 30
0.0
 10
19.7274911875
 20
7.9670413402
 30
0.0
 10
19.724896741
 20
7.968085306
 30
0.0
 10
19.7214548424
 20
7.9689899938
 30
0.0
 10
19.7177284033
 20
7.969544988
 30
0.0
 10
19.7151586127
 20
7.9696708734
 30
0.0
 10
19.7138573125
 20
7.9696708734
 30
0.0
  0
SPLINE
  5
3E9
100
AcDbEntity
  8
0
100
AcDbSpline
 62
9
  6
CONTINUOUS
 70
0
 71
3
 72
19
 73
15
 74
0
 42
0.0000001
 43
0.0000001
 44
0.0000000001
 40
0.0
 40
0.0
 40
0.0
 40
0.0
 40
0.0406029596
 40
0.0824565112
 40
0.1264888023
 40
0.1734566483
 40
0.2239100172
 40
0.2781807787
 40
0.3364350618
 40
0.3986395016
 40
0.5339530956
 40
0.6817933654
 40
0.8387406522
 40
1.0
 40
1.0
 40
1.0
 40
1.0
 10
19.7338573125
 20
7.3796708734
 30
0.0
 10
19.7338573125
 20
7.3793432773
 30
0.0
 10
19.7337900163
 20
7.3786763114
 30
0.0
 10
19.7334943617
 20
7.3776938351
 30
0.0
 10
19.7330085535
 20
7.3767326503
 30
0.0
 10
19.7323372121
 20
7.3758046252
 30
0.0
 10
19.7314895828
 20
7.3749173061
 30
0.0
 10
19.7304746355
 20
7.3740771942
 30
0.0
 10
19.7293011087
 20
7.3732921328
 30
0.0
 10
19.7274893255
 20
7.3722996412
 30
0.0
 10
19.7248947122
 20
7.3712557333
 30
0.0
 10
19.7214531368
 20
7.3703515533
 30
0.0
 10
19.7177275245
 20
7.3697964799
 30
0.0
 10
19.7151583984
 20
7.3696708734
 30
0.0
 10
19.7138573125
 20
7.3696708734
 30
0.0
  0
SPLINE
  5
3EA
100
AcDbEntity
  8
0
100
AcDbSpline
 62
9
  6
CONTINUOUS
 70
0
 71
3
 72
19
 73
15
 74
0
 42
0.0000001
 43
0.0000001
 44
0.0000000001
 40
0.0
 40
0.0
 40
0.0
 40
0.0
 40
0.1612593478
 40
0.3182066346
 40
0.4660469044
 40
0.6013604984
 40
0.6635649382
 40
0.7218192213
 40
0.7760899828
 40
0.8265433517
 40
0.8735111977
 40
0.9175434888
 40
0.9593970404
 40
1.0
 40
1.0
 40
1.0
 40
1.0
 10
19.7138573125
 20
7.4096708734
 30
0.0
 10
19.7151583984
 20
7.4096708734
 30
0.0
 10
19.7177275245
 20
7.4095452669
 30
0.0
 10
19.7214531368
 20
7.4089901935
 30
0.0
 10
19.7248947122
 20
7.4080860135
 30
0.0
 10
19.7274893255
 20
7.4070421056
 30
0.0
 10
19.7293011087
 20
7.406049614
 30
0.0
 10
19.7304746355
 20
7.4052645526
 30
0.0
 10
19.7314895828
 20
7.4044244407
 30
0.0
 10
19.7323372121
 20
7.4035371216
 30
0.0
 10
19.7330085535
 20
7.4026090965
 30
0.0
 10
19.7334943617
 20
7.4016479117
 30
0.0
 10
19.7337900163
 20
7.4006654354
 30
0.0
 10
19.7338573125
 20
7.3999984695
 30
0.0
 10
19.7338573125
 20
7.3996708734
 30
0.0
  0
SPLINE
  5
3EB
100
AcDbEntity
  8
0
100
AcDbSpline
 62
9
  6
CONTINUOUS
 70
0
 71
3
 72
19
 73
15
 74
0
 42
0.0000001
 43
0.0000001
 44
0.0000000001
 40
0.0
 40
0.0
 40
0.0
 40
0.0
 40
0.1612611106
 40
0.3181844297
 40
0.4659790978
 40
0.6012809441
 40
0.6634877892
 40
0.7217432032
 40
0.7760244924
 40
0.826493416
 40
0.8734779317
 40
0.9175273334
 40
0.9593931193
 40
1.0
 40
1.0
 40
1.0
 40
1.0
 10
19.7138573125
 20
6.8096708734
 30
0.0
 10
19.7151584097
 20
6.8096708734
 30
0.0
 10
19.717727346
 20
6.8097965306
 30
0.0
 10
19.7214524249
 20
6.8103513688
 30
0.0
 10
19.7248933849
 20
6.8112553082
 30
0.0
 10
19.7274875922
 20
6.8122989482
 30
0.0
 10
19.7292995298
 20
6.8132910182
 30
0.0
 10
19.7304731608
 20
6.8140761277
 30
0.0
 10
19.7314884149
 20
6.8149161914
 30
0.0
 10
19.7323364925
 20
6.8158035736
 30
0.0
 10
19.7330079797
 20
6.8167319933
 30
0.0
 10
19.7334939713
 20
6.8176934854
 30
0.0
 10
19.7337899013
 20
6.818676152
 30
0.0
 10
19.7338573125
 20
6.8193432464
 30
0.0
 10
19.7338573125
 20
6.8196708734
 30
0.0
  0
SPLINE
  5
3EC
100
AcDbEntity
  8
0
100
AcDbSpline
 62
7
  6
CONTINUOUS
 70
0
 71
3
 72
31
 73
27
 74
0
 42
0.0000001
 43
0.0000001
 44
0.0000000001
 40
0.0
 40
0.0
 40
0.0
 40
0.0
 40
0.1949255539
 40
0.3825981809
 40
0.4712743389
 40
0.5554081261
 40
0.6342065831
 40
0.7069332357
 40
0.7728594896
 40
0.8313294934
 40
0.8818163924
 40
0.9039055569
 40
0.9238081924
 40
0.941480371
 40
0.9568878315
 40
0.9699963909
 40
0.9807718585
 40
0.9852739961
 40
0.9891800358
 40
0.992486111
 40
0.9951910926
 40
0.9972949747
 40
0.9987977549
 40
0.999323731
 40
0.9996994308
 40
1.0
 40
1.0
 40
1.0
 40
1.0
 10
24.4468573125
 20
5.9317559239
 30
0.0
 10
24.4519276881
 20
5.9317559239
 30
0.0
 10
24.4618798482
 20
5.9317035511
 30
0.0
 10
24.4741373258
 20
5.9315146893
 30
0.0
 10
24.4835117285
 20
5.9313004266
 30
0.0
 10
24.4900540944
 20
5.9311210403
 30
0.0
 10
24.4961809332
 20
5.9309259607
 30
0.0
 10
24.5018336288
 20
5.9307232908
 30
0.0
 10
24.5069571717
 20
5.9305207801
 30
0.0
 10
24.5115020421
 20
5.9303259809
 30
0.0
 10
24.5149072261
 20
5.9301699693
 30
0.0
 10
24.5173100315
 20
5.9300552353
 30
0.0
 10
24.5188601581
 20
5.9299795924
 30
0.0
 10
24.5202366225
 20
5.9299110962
 30
0.0
 10
24.5214365234
 20
5.929850284
 30
0.0
 10
24.5224572147
 20
5.9297977017
 30
0.0
 10
24.5231945854
 20
5.9297591748
 30
0.0
 10
24.5236928982
 20
5.9297329413
 30
0.0
 10
24.523997181
 20
5.9297168517
 30
0.0
 10
24.5242547903
 20
5.9297032758
 30
0.0
 10
24.524465562
 20
5.9296920226
 30
0.0
 10
24.5246295587
 20
5.9296836453
 30
0.0
 10
24.524736807
 20
5.9296773741
 30
0.0
 10
24.5247993978
 20
5.9296748756
 30
0.0
 10
24.5248303927
 20
5.9296718175
 30
0.0
 10
24.5248484117
 20
5.9296736091
 30
0.0
 10
24.5248559323
 20
5.929671472
 30
0.0
  0
LINE
  5
3ED
100
AcDbEntity
  8
0
100
AcDbLine
 62
7
  6
CONTINUOUS
 10
24.3705502002
 20
5.9297607152
 11
24.3688586927
 21
5.929671472
  0
LINE
  5
3EE
100
AcDbEntity
  8
0
100
AcDbLine
 62
7
  6
CONTINUOUS
 10
24.3688586927
 20
5.929671472
 11
24.3696511351
 21
5.9297133555
  0
LINE
  5
3EF
100
AcDbEntity
  8
0
100
AcDbLine
 62
7
  6
CONTINUOUS
 10
24.5248559323
 20
5.929671472
 11
24.5231639168
 21
5.9297607413
  0
SPLINE
  5
3F0
100
AcDbEntity
  8
0
100
AcDbSpline
 62
9
  6
CONTINUOUS
 70
0
 71
3
 72
19
 73
15
 74
0
 42
0.0000001
 43
0.0000001
 44
0.0000000001
 40
0.0
 40
0.0
 40
0.0
 40
0.0
 40
0.0406036096
 40
0.0824575784
 40
0.1264855083
 40
0.1734397834
 40
0.2238734399
 40
0.2781261218
 40
0.3363682538
 40
0.3985583986
 40
0.5338539848
 40
0.6817086537
 40
0.8387140406
 40
1.0
 40
1.0
 40
1.0
 40
1.0
 10
24.0868573125
 20
6.3271708734
 30
0.0
 10
24.0868573125
 20
6.3265156709
 30
0.0
 10
24.0869919697
 20
6.325181725
 30
0.0
 10
24.0875833101
 20
6.3232168456
 30
0.0
 10
24.0885547162
 20
6.3212946983
 30
0.0
 10
24.0898968371
 20
6.3194390008
 30
0.0
 10
24.0915913439
 20
6.3176647874
 30
0.0
 10
24.093620596
 20
6.3159850397
 30
0.0
 10
24.0959670536
 20
6.3144153467
 30
0.0
 10
24.0995895625
 20
6.3124299398
 30
0.0
 10
24.1047784555
 20
6.3103420081
 30
0.0
 10
24.1116622526
 20
6.3085326326
 30
0.0
 10
24.1191151309
 20
6.3074226441
 30
0.0
 10
24.1242547121
 20
6.3071708734
 30
0.0
 10
24.1268573125
 20
6.3071708734
 30
0.0
  0
SPLINE
  5
3F1
100
AcDbEntity
  8
0
100
AcDbSpline
 62
9
  6
CONTINUOUS
 70
0
 71
3
 72
19
 73
15
 74
0
 42
0.0000001
 43
0.0000001
 44
0.0000000001
 40
0.0
 40
0.0
 40
0.0
 40
0.0
 40
0.0406036096
 40
0.0824575784
 40
0.1264855083
 40
0.1734397834
 40
0.2238734399
 40
0.2781261218
 40
0.3363682538
 40
0.3985583986
 40
0.5338539848
 40
0.6817086537
 40
0.8387140406
 40
1.0
 40
1.0
 40
1.0
 40
1.0
 10
24.0868573125
 20
7.3996708734
 30
0.0
 10
24.0868573125
 20
7.4003260759
 30
0.0
 10
24.0869919697
 20
7.4016600218
 30
0.0
 10
24.0875833101
 20
7.4036249012
 30
0.0
 10
24.0885547162
 20
7.4055470485
 30
0.0
 10
24.0898968371
 20
7.407402746
 30
0.0
 10
24.0915913439
 20
7.4091769595
 30
0.0
 10
24.093620596
 20
7.4108567071
 30
0.0
 10
24.0959670536
 20
7.4124264002
 30
0.0
 10
24.0995895625
 20
7.4144118071
 30
0.0
 10
24.1047784555
 20
7.4164997387
 30
0.0
 10
24.1116622526
 20
7.4183091142
 30
0.0
 10
24.1191151309
 20
7.4194191027
 30
0.0
 10
24.1242547121
 20
7.4196708734
 30
0.0
 10
24.1268573125
 20
7.4196708734
 30
0.0
  0
SPLINE
  5
3F2
100
AcDbEntity
  8
0
100
AcDbSpline
 62
9
  6
CONTINUOUS
 70
0
 71
3
 72
19
 73
15
 74
0
 42
0.0000001
 43
0.0000001
 44
0.0000000001
 40
0.0
 40
0.0
 40
0.0
 40
0.0
 40
0.1612611106
 40
0.3181844297
 40
0.4659790978
 40
0.6012809441
 40
0.6634877892
 40
0.7217432032
 40
0.7760244924
 40
0.826493416
 40
0.8734779317
 40
0.9175273334
 40
0.9593931193
 40
1.0
 40
1.0
 40
1.0
 40
1.0
 10
24.1268573125
 20
7.3596708734
 30
0.0
 10
24.1242551181
 20
7.3596708734
 30
0.0
 10
24.1191172454
 20
7.3599221878
 30
0.0
 10
24.1116670876
 20
7.3610318641
 30
0.0
 10
24.1047851676
 20
7.3628397429
 30
0.0
 10
24.099596753
 20
7.3649270231
 30
0.0
 10
24.0959728778
 20
7.3669111631
 30
0.0
 10
24.0936256159
 20
7.368481382
 30
0.0
 10
24.0915951076
 20
7.3701615094
 30
0.0
 10
24.0898989525
 20
7.3719362737
 30
0.0
 10
24.0885559781
 20
7.3737931132
 30
0.0
 10
24.0875839948
 20
7.3757160973
 30
0.0
 10
24.0869921348
 20
7.3776814307
 30
0.0
 10
24.0868573125
 20
7.3790156193
 30
0.0
 10
24.0868573125
 20
7.3796708734
 30
0.0
  0
SPLINE
  5
3F3
100
AcDbEntity
  8
0
100
AcDbSpline
 62
9
  6
CONTINUOUS
 70
0
 71
3
 72
19
 73
15
 74
0
 42
0.0000001
 43
0.0000001
 44
0.0000000001
 40
0.0
 40
0.0
 40
0.0
 40
0.0
 40
0.1612611106
 40
0.3181844297
 40
0.4659790978
 40
0.6012809441
 40
0.6634877892
 40
0.7217432032
 40
0.7760244924
 40
0.826493416
 40
0.8734779317
 40
0.9175273334
 40
0.9593931193
 40
1.0
 40
1.0
 40
1.0
 40
1.0
 10
24.1268573125
 20
8.4721708734
 30
0.0
 10
24.1242551181
 20
8.4721708734
 30
0.0
 10
24.1191172454
 20
8.471919559
 30
0.0
 10
24.1116670876
 20
8.4708098827
 30
0.0
 10
24.1047851676
 20
8.4690020039
 30
0.0
 10
24.099596753
 20
8.4669147238
 30
0.0
 10
24.0959728778
 20
8.4649305837
 30
0.0
 10
24.0936256159
 20
8.4633603648
 30
0.0
 10
24.0915951076
 20
8.4616802374
 30
0.0
 10
24.0898989525
 20
8.4599054731
 30
0.0
 10
24.0885559781
 20
8.4580486336
 30
0.0
 10
24.0875839948
 20
8.4561256495
 30
0.0
 10
24.0869921348
 20
8.4541603162
 30
0.0
 10
24.0868573125
 20
8.4528261275
 30
0.0
 10
24.0868573125
 20
8.4521708734
 30
0.0
  0
SPLINE
  5
3F4
100
AcDbEntity
  8
0
100
AcDbSpline
 62
9
  6
CONTINUOUS
 70
0
 71
3
 72
19
 73
15
 74
0
 42
0.0000001
 43
0.0000001
 44
0.0000000001
 40
0.0
 40
0.0
 40
0.0
 40
0.0
 40
0.1612593478
 40
0.3182066346
 40
0.4660469044
 40
0.6013604984
 40
0.6635649382
 40
0.7218192213
 40
0.7760899828
 40
0.8265433517
 40
0.8735111977
 40
0.9175434888
 40
0.9593970404
 40
1.0
 40
1.0
 40
1.0
 40
1.0
 10
24.2468573125
 20
6.3071708734
 30
0.0
 10
24.2494594843
 20
6.3071708734
 30
0.0
 10
24.2545977365
 20
6.3069196603
 30
0.0
 10
24.2620489612
 20
6.3058095136
 30
0.0
 10
24.268932112
 20
6.3040011536
 30
0.0
 10
24.2741213384
 20
6.3019133378
 30
0.0
 10
24.2777449049
 20
6.2999283547
 30
0.0
 10
24.2800919585
 20
6.2983582318
 30
0.0
 10
24.2821218531
 20
6.296678008
 30
0.0
 10
24.2838171117
 20
6.2949033698
 30
0.0
 10
24.2851597946
 20
6.2930473197
 30
0.0
 10
24.2861314108
 20
6.2911249499
 30
0.0
 10
24.28672272
 20
6.2891599974
 30
0.0
 10
24.2868573125
 20
6.2878260657
 30
0.0
 10
24.2868573125
 20
6.2871708734
 30
0.0
  0
SPLINE
  5
3F5
100
AcDbEntity
  8
0
100
AcDbSpline
 62
9
  6
CONTINUOUS
 70
0
 71
3
 72
19
 73
15
 74
0
 42
0.0000001
 43
0.0000001
 44
0.0000000001
 40
0.0
 40
0.0
 40
0.0
 40
0.0
 40
0.0406029596
 40
0.0824565112
 40
0.1264888023
 40
0.1734566483
 40
0.2239100172
 40
0.2781807787
 40
0.3364350618
 40
0.3986395016
 40
0.5339530956
 40
0.6817933654
 40
0.8387406522
 40
1.0
 40
1.0
 40
1.0
 40
1.0
 10
24.2868573125
 20
8.4921708734
 30
0.0
 10
24.2868573125
 20
8.4915156812
 30
0.0
 10
24.28672272
 20
8.4901817494
 30
0.0
 10
24.2861314108
 20
8.4882167969
 30
0.0
 10
24.2851597946
 20
8.4862944272
 30
0.0
 10
24.2838171117
 20
8.484438377
 30
0.0
 10
24.2821218531
 20
8.4826637388
 30
0.0
 10
24.2800919585
 20
8.480983515
 30
0.0
 10
24.2777449049
 20
8.4794133921
 30
0.0
 10
24.2741213384
 20
8.477428409
 30
0.0
 10
24.268932112
 20
8.4753405932
 30
0.0
 10
24.2620489612
 20
8.4735322332
 30
0.0
 10
24.2545977365
 20
8.4724220865
 30
0.0
 10
24.2494594843
 20
8.4721708734
 30
0.0
 10
24.2468573125
 20
8.4721708734
 30
0.0
  0
SPLINE
  5
3F6
100
AcDbEntity
  8
0
100
AcDbSpline
 62
9
  6
CONTINUOUS
 70
0
 71
3
 72
19
 73
15
 74
0
 42
0.0000001
 43
0.0000001
 44
0.0000000001
 40
0.0
 40
0.0
 40
0.0
 40
0.0
 40
0.0406029596
 40
0.0824565112
 40
0.1264888023
 40
0.1734566483
 40
0.2239100172
 40
0.2781807787
 40
0.3364350618
 40
0.3986395016
 40
0.5339530956
 40
0.6817933654
 40
0.8387406522
 40
1.0
 40
1.0
 40
1.0
 40
1.0
 10
24.2868573125
 20
7.3396708734
 30
0.0
 10
24.2868573125
 20
7.3403260657
 30
0.0
 10
24.28672272
 20
7.3416599974
 30
0.0
 10
24.2861314108
 20
7.3436249499
 30
0.0
 10
24.2851597946
 20
7.3455473197
 30
0.0
 10
24.2838171117
 20
7.3474033698
 30
0.0
 10
24.2821218531
 20
7.349178008
 30
0.0
 10
24.2800919585
 20
7.3508582318
 30
0.0
 10
24.2777449049
 20
7.3524283547
 30
0.0
 10
24.2741213384
 20
7.3544133378
 30
0.0
 10
24.268932112
 20
7.3565011536
 30
0.0
 10
24.2620489612
 20
7.3583095136
 30
0.0
 10
24.2545977365
 20
7.3594196603
 30
0.0
 10
24.2494594843
 20
7.3596708734
 30
0.0
 10
24.2468573125
 20
7.3596708734
 30
0.0
  0
SPLINE
  5
3F7
100
AcDbEntity
  8
0
100
AcDbSpline
 62
9
  6
CONTINUOUS
 70
0
 71
3
 72
19
 73
15
 74
0
 42
0.0000001
 43
0.0000001
 44
0.0000000001
 40
0.0
 40
0.0
 40
0.0
 40
0.0
 40
0.1612593478
 40
0.3182066346
 40
0.4660469044
 40
0.6013604984
 40
0.6635649382
 40
0.7218192213
 40
0.7760899828
 40
0.8265433517
 40
0.8735111977
 40
0.9175434888
 40
0.9593970404
 40
1.0
 40
1.0
 40
1.0
 40
1.0
 10
24.2468573125
 20
7.4196708734
 30
0.0
 10
24.2494594843
 20
7.4196708734
 30
0.0
 10
24.2545977365
 20
7.4199220865
 30
0.0
 10
24.2620489612
 20
7.4210322332
 30
0.0
 10
24.268932112
 20
7.4228405932
 30
0.0
 10
24.2741213384
 20
7.424928409
 30
0.0
 10
24.2777449049
 20
7.4269133921
 30
0.0
 10
24.2800919585
 20
7.428483515
 30
0.0
 10
24.2821218531
 20
7.4301637388
 30
0.0
 10
24.2838171117
 20
7.431938377
 30
0.0
 10
24.2851597946
 20
7.4337944272
 30
0.0
 10
24.2861314108
 20
7.4357167969
 30
0.0
 10
24.28672272
 20
7.4376817494
 30
0.0
 10
24.2868573125
 20
7.4390156812
 30
0.0
 10
24.2868573125
 20
7.4396708734
 30
0.0
  0
SPLINE
  5
3F8
100
AcDbEntity
  8
0
100
AcDbSpline
 62
7
  6
CONTINUOUS
 70
0
 71
3
 72
23
 73
19
 74
0
 42
0.0000001
 43
0.0000001
 44
0.0000000001
 40
0.0
 40
0.0
 40
0.0
 40
0.0
 40
0.0573411019
 40
0.1166086375
 40
0.1775444392
 40
0.2399785127
 40
0.3037812344
 40
0.3686212055
 40
0.4341438542
 40
0.5000001074
 40
0.565856356
 40
0.6313789912
 40
0.6962189408
 40
0.7600216343
 40
0.8224556745
 40
0.8833914393
 40
0.9426589366
 40
1.0
 40
1.0
 40
1.0
 40
1.0
 10
0.1868572077
 20
12.3196708732
 30
0.0
 10
0.1868572016
 20
12.3226719213
 30
0.0
 10
0.1871411655
 20
12.328778198
 30
0.0
 10
0.1884160643
 20
12.3379949223
 30
0.0
 10
0.1906010859
 20
12.3473152151
 30
0.0
 10
0.1937496932
 20
12.3566083375
 30
0.0
 10
0.1979024404
 20
12.3657243054
 30
0.0
 10
0.2030299097
 20
12.3745181854
 30
0.0
 10
0.2090982465
 20
12.3828253572
 30
0.0
 10
0.2160191487
 20
12.3905090843
 30
0.0
 10
0.2237028706
 20
12.3974299912
 30
0.0
 10
0.2320100367
 20
12.4034983322
 30
0.0
 10
0.2408039109
 20
12.4086258051
 30
0.0
 10
0.2499198727
 20
12.4127785552
 30
0.0
 10
0.2592129889
 20
12.4159271647
 30
0.0
 10
0.2685332756
 20
12.4181121879
 30
0.0
 10
0.2777499937
 20
12.4193870876
 30
0.0
 10
0.2838562664
 20
12.4196710517
 30
0.0
 10
0.2868573125
 20
12.4196710456
 30
0.0
  0
SPLINE
  5
3F9
100
AcDbEntity
  8
0
100
AcDbSpline
 62
7
  6
CONTINUOUS
 70
0
 71
3
 72
23
 73
19
 74
0
 42
0.0000001
 43
0.0000001
 44
0.0000000001
 40
0.0
 40
0.0
 40
0.0
 40
0.0
 40
0.0573411019
 40
0.1166086375
 40
0.1775444392
 40
0.2399785127
 40
0.3037812344
 40
0.3686212055
 40
0.4341438542
 40
0.5000001074
 40
0.565856356
 40
0.6313789912
 40
0.6962189409
 40
0.7600216344
 40
0.8224556745
 40
0.8833914394
 40
0.9426589366
 40
1.0
 40
1.0
 40
1.0
 40
1.0
 10
-0.9131425827
 20
12.3196708732
 30
0.0
 10
-0.9131425766
 20
12.3226719213
 30
0.0
 10
-0.9134265405
 20
12.328778198
 30
0.0
 10
-0.9147014392
 20
12.3379949223
 30
0.0
 10
-0.9168864609
 20
12.3473152151
 30
0.0
 10
-0.9200350682
 20
12.3566083375
 30
0.0
 10
-0.9241878153
 20
12.3657243054
 30
0.0
 10
-0.9293152847
 20
12.3745181855
 30
0.0
 10
-0.9353836215
 20
12.3828253572
 30
0.0
 10
-0.9423045236
 20
12.3905090844
 30
0.0
 10
-0.9499882456
 20
12.3974299913
 30
0.0
 10
-0.9582954117
 20
12.4034983323
 30
0.0
 10
-0.9670892859
 20
12.4086258052
 30
0.0
 10
-0.9762052477
 20
12.4127785553
 30
0.0
 10
-0.9854983639
 20
12.4159271648
 30
0.0
 10
-0.9948186506
 20
12.418112188
 30
0.0
 10
-1.0040353687
 20
12.4193870876
 30
0.0
 10
-1.0101416415
 20
12.4196710518
 30
0.0
 10
-1.0131426875
 20
12.4196710457
 30
0.0
  0
LINE
  5
3FA
100
AcDbEntity
  8
0
100
AcDbLine
 62
9
  6
CONTINUOUS
 10
-0.3631425646
 20
12.9696707282
 11
-1.0131422942
 21
12.4196710447
  0
LINE
  5
3FB
100
AcDbEntity
  8
0
100
AcDbLine
 62
9
  6
CONTINUOUS
 10
0.2868567728
 20
12.4196711665
 11
-0.1979481489
 21
12.8298906317
  0
LINE
  5
3FC
100
AcDbEntity
  8
0
100
AcDbLine
 62
9
  6
CONTINUOUS
 10
-0.1979481489
 20
12.8298906317
 11
-0.3631428119
 21
12.9696707264
  0
LINE
  5
3FD
100
AcDbEntity
  8
0
100
AcDbLine
 62
9
  6
CONTINUOUS
 10
0.1868573125
 20
12.3196708734
 11
-0.3631426875
 21
12.9696708734
  0
LINE
  5
3FE
100
AcDbEntity
  8
0
100
AcDbLine
 62
9
  6
CONTINUOUS
 10
-0.9131426875
 20
12.3196708734
 11
-0.3631426875
 21
12.9696708734
  0
SPLINE
  5
3FF
100
AcDbEntity
  8
0
100
AcDbSpline
 62
7
  6
CONTINUOUS
 70
0
 71
3
 72
17
 73
13
 74
0
 42
0.0000001
 43
0.0000001
 44
0.0000000001
 40
0.0
 40
0.0
 40
0.0
 40
0.0
 40
0.1166045786
 40
0.2399487007
 40
0.3038376149
 40
0.368769934
 40
0.4999998997
 40
0.6312298825
 40
0.6961622215
 40
0.7600511619
 40
0.8833953495
 40
1.0
 40
1.0
 40
1.0
 40
1.0
 10
11.1168573125
 20
9.6396710499
 30
0.0
 10
11.113199129
 20
9.6396710607
 30
0.0
 10
11.1056567436
 20
9.6389707256
 30
0.0
 10
11.0964304013
 20
9.6363335712
 30
0.0
 10
11.0892280304
 20
9.6330303489
 30
0.0
 10
11.0821766572
 20
9.6289058172
 30
0.0
 10
11.0741171617
 20
9.622411056
 30
0.0
 10
11.0676224082
 20
9.6143515535
 30
0.0
 10
11.063497882
 20
9.6073001749
 30
0.0
 10
11.0601946642
 20
9.600097798
 30
0.0
 10
11.057557515
 20
9.590871449
 30
0.0
 10
11.0568571831
 20
9.5833290591
 30
0.0
 10
11.0568571952
 20
9.5796708734
 30
0.0
  0
SPLINE
  5
400
100
AcDbEntity
  8
0
100
AcDbSpline
 62
7
  6
CONTINUOUS
 70
0
 71
3
 72
17
 73
13
 74
0
 42
0.0000001
 43
0.0000001
 44
0.0000000001
 40
0.0
 40
0.0
 40
0.0
 40
0.0
 40
0.1166045616
 40
0.2399486744
 40
0.3038375873
 40
0.3687699071
 40
0.4999998781
 40
0.6312298698
 40
0.6961622138
 40
0.7600511586
 40
0.883395351
 40
1.0
 40
1.0
 40
1.0
 40
1.0
 10
11.1168573125
 20
10.5796706728
 30
0.0
 10
11.1131991279
 20
10.5796706604
 30
0.0
 10
11.1056567398
 20
10.580370993
 30
0.0
 10
11.0964303936
 20
10.5830081461
 30
0.0
 10
11.0892280194
 20
10.5863113688
 30
0.0
 10
11.0821766427
 20
10.5904359018
 30
0.0
 10
11.0741171433
 20
10.5969306663
 30
0.0
 10
11.0676223878
 20
10.6049901738
 30
0.0
 10
11.0634978612
 20
10.612041557
 30
0.0
 10
11.0601946438
 20
10.6192439383
 30
0.0
 10
11.0575574966
 20
10.6284702925
 30
0.0
 10
11.0568571676
 20
10.6360126862
 30
0.0
 10
11.0568571814
 20
10.6396708735
 30
0.0
  0
SPLINE
  5
401
100
AcDbEntity
  8
0
100
AcDbSpline
 62
9
  6
CONTINUOUS
 70
0
 71
3
 72
71
 73
67
 74
0
 42
0.0000001
 43
0.0000001
 44
0.0000000001
 40
0.0
 40
0.0
 40
0.0
 40
0.0
 40
0.000051821
 40
0.0001160683
 40
0.0002057677
 40
0.0004612055
 40
0.0008174999
 40
0.0012740164
 40
0.0018301206
 40
0.0024851781
 40
0.0032385546
 40
0.0050377272
 40
0.0072225646
 40
0.0097879936
 40
0.0127289418
 40
0.0160393544
 40
0.0197092458
 40
0.0280836089
 40
0.0377643734
 40
0.0486639707
 40
0.0606954612
 40
0.0737741596
 40
0.0878161405
 40
0.1027377577
 40
0.1349114161
 40
0.1697584418
 40
0.2067973206
 40
0.2456414032
 40
0.2859493252
 40
0.327411432
 40
0.3697883202
 40
0.4128346911
 40
0.4563122847
 40
0.5000004426
 40
0.5436886176
 40
0.58716632
 40
0.6302128526
 40
0.6725896457
 40
0.7140517732
 40
0.754359781
 40
0.7932038174
 40
0.8302425799
 40
0.8650895255
 40
0.8972631248
 40
0.9121847064
 40
0.926226644
 40
0.9393052898
 40
0.9513367173
 40
0.9622362404
 40
0.971916921
 40
0.9802911922
 40
0.9839610353
 40
0.9872713983
 40
0.9902122961
 40
0.9927776748
 40
0.9949624631
 40
0.9967615889
 40
0.9975149431
 40
0.9981699793
 40
0.9987260633
 40
0.9991825609
 40
0.9995388377
 40
0.9997942594
 40
0.9998839513
 40
0.9999481916
 40
1.0
 40
1.0
 40
1.0
 40
1.0
 10
11.1168573027
 20
9.6396710499
 30
0.0
 10
11.1168435924
 20
9.6396842898
 30
0.0
 10
11.1168162449
 20
9.6397172074
 30
0.0
 10
11.1167646446
 20
9.6397725336
 30
0.0
 10
11.1166638127
 20
9.6398843831
 30
0.0
 10
11.1164901365
 20
9.6400751328
 30
0.0
 10
11.116226341
 20
9.6403663142
 30
0.0
 10
11.1158882035
 20
9.6407393494
 30
0.0
 10
11.1154765274
 20
9.6411940393
 30
0.0
 10
11.1149917421
 20
9.6417298218
 30
0.0
 10
11.1142005533
 20
9.6426049365
 30
0.0
 10
11.1130327995
 20
9.6438981092
 30
0.0
 10
11.1114197426
 20
9.6456871515
 30
0.0
 10
11.1095271009
 20
9.6477895423
 30
0.0
 10
11.1073593588
 20
9.6502012991
 30
0.0
 10
11.1049222412
 20
9.6529171243
 30
0.0
 10
11.1011550125
 20
9.657124394
 30
0.0
 10
11.0958370628
 20
9.6630881195
 30
0.0
 10
11.088775366
 20
9.6710595608
 30
0.0
 10
11.0808553894
 20
9.6800675388
 30
0.0
 10
11.0721518951
 20
9.6900506051
 30
0.0
 10
11.0627441835
 20
9.7009528224
 30
0.0
 10
11.0527107838
 20
9.7127188556
 30
0.0
 10
11.0382332586
 20
9.7299244056
 30
0.0
 10
11.0190896635
 20
9.7532036556
 30
0.0
 10
10.9953599287
 20
9.7832357144
 30
0.0
 10
10.9708875596
 20
9.8157958627
 30
0.0
 10
10.9463278992
 20
9.8507791979
 30
0.0
 10
10.9223184845
 20
9.8881017918
 30
0.0
 10
10.899787706
 20
9.927850947
 30
0.0
 10
10.8797068373
 20
9.9700356415
 30
0.0
 10
10.8634837442
 20
10.0146819845
 30
0.0
 10
10.8527170884
 20
10.0614990136
 30
0.0
 10
10.8489095797
 20
10.1096713731
 30
0.0
 10
10.8527172281
 20
10.1578437536
 30
0.0
 10
10.8634839562
 20
10.204660886
 30
0.0
 10
10.8797074342
 20
10.2493071535
 30
0.0
 10
10.8997881762
 20
10.2914919359
 30
0.0
 10
10.9223191159
 20
10.3312410145
 30
0.0
 10
10.9463287193
 20
10.3685635098
 30
0.0
 10
10.9708883894
 20
10.4035468019
 30
0.0
 10
10.9953606762
 20
10.4361069003
 30
0.0
 10
11.019090345
 20
10.4661388917
 30
0.0
 10
11.0382338995
 20
10.4894180919
 30
0.0
 10
11.0527113913
 20
10.5066236036
 30
0.0
 10
11.0627447591
 20
10.5183896005
 30
0.0
 10
11.0721524328
 20
10.5292917733
 30
0.0
 10
11.0808558829
 20
10.5392747856
 30
0.0
 10
11.0887758093
 20
10.5482826994
 30
0.0
 10
11.0958374496
 20
10.5562540678
 30
0.0
 10
11.1011553482
 20
10.5622177285
 30
0.0
 10
11.1049225329
 20
10.5664249439
 30
0.0
 10
11.1073596155
 20
10.5691407273
 30
0.0
 10
11.1095273215
 20
10.5715524422
 30
0.0
 10
11.1114199267
 20
10.5736547918
 30
0.0
 10
11.1130329475
 20
10.5754437941
 30
0.0
 10
11.1142006719
 20
10.5767369348
 30
0.0
 10
11.114991838
 20
10.5776120251
 30
0.0
 10
11.1154766073
 20
10.5781477905
 30
0.0
 10
11.115888268
 20
10.5786024644
 30
0.0
 10
11.1162263915
 20
10.5789754841
 30
0.0
 10
11.1164901725
 20
10.5792666526
 30
0.0
 10
11.1166638404
 20
10.5794573892
 30
0.0
 10
11.1167646615
 20
10.5795692337
 30
0.0
 10
11.1168162601
 20
10.5796245474
 30
0.0
 10
11.1168435926
 20
10.57965747
 30
0.0
 10
11.1168573058
 20
10.5796707003
 30
0.0
  0
SPLINE
  5
402
100
AcDbEntity
  8
0
100
AcDbSpline
 62
9
  6
CONTINUOUS
 70
0
 71
3
 72
101
 73
97
 74
0
 42
0.0000001
 43
0.0000001
 44
0.0000000001
 40
0.0
 40
0.0
 40
0.0
 40
0.0
 40
0.000003308
 40
0.0000130269
 40
0.0000291529
 40
0.0000516821
 40
0.0001159344
 40
0.0002057524
 40
0.0003211046
 40
0.0004619596
 40
0.0006282861
 40
0.0008200525
 40
0.0012797789
 40
0.0018407926
 40
0.0025025575
 40
0.0032645143
 40
0.0041261042
 40
0.0050867634
 40
0.0073020218
 40
0.0099024173
 40
0.0128796561
 40
0.0162244884
 40
0.0199271268
 40
0.0239773387
 40
0.0283638166
 40
0.0330750941
 40
0.038099677
 40
0.0490426806
 40
0.0611003372
 40
0.0741808392
 40
0.0881978731
 40
0.1030700105
 40
0.1187208635
 40
0.1350814333
 40
0.1520880911
 40
0.1696833648
 40
0.2064353715
 40
0.2255043503
 40
0.2449826752
 40
0.2850316385
 40
0.3055453564
 40
0.3263481996
 40
0.3474152899
 40
0.3687228076
 40
0.4119431548
 40
0.4338104768
 40
0.455801895
 40
0.4778790708
 40
0.5000001931
 40
0.5221213171
 40
0.5441985008
 40
0.5661898969
 40
0.588057183
 40
0.6312775587
 40
0.6525851133
 40
0.6736522745
 40
0.6944550592
 40
0.7149687049
 40
0.755017478
 40
0.7744957451
 40
0.7935647269
 40
0.8303166811
 40
0.8479119657
 40
0.8649186555
 40
0.8812791892
 40
0.8969299948
 40
0.9118021217
 40
0.9258191506
 40
0.9388996451
 40
0.9509573135
 40
0.9619003347
 40
0.9669249227
 40
0.9716361994
 40
0.9760226711
 40
0.9800728755
 40
0.9837755075
 40
0.9871203346
 40
0.990097572
 40
0.9926979697
 40
0.9949132404
 40
0.9958739113
 40
0.9967355135
 40
0.9974974814
 40
0.9981592543
 40
0.9987202713
 40
0.9991799943
 40
0.9993717565
 40
0.9995380776
 40
0.9996789265
 40
0.999794272
 40
0.9998840832
 40
0.9999483289
 40
0.999970855
 40
0.9999869781
 40
0.9999966944
 40
1.0
 40
1.0
 40
1.0
 40
1.0
 10
11.0568573125
 20
9.5796708734
 30
0.0
 10
11.0568569974
 20
9.5796721407
 30
0.0
 10
11.0568529664
 20
9.5796758516
 30
0.0
 10
11.0568472017
 20
9.5796856188
 30
0.0
 10
11.056835435
 20
9.5797008263
 30
0.0
 10
11.0568118917
 20
9.5797338439
 30
0.0
 10
11.0567706301
 20
9.5797901075
 30
0.0
 10
11.0567081491
 20
9.5798761469
 30
0.0
 10
11.0566276739
 20
9.5799865376
 30
0.0
 10
11.0565294531
 20
9.5801213511
 30
0.0
 10
11.0564134186
 20
9.5802805152
 30
0.0
 10
11.056223205
 20
9.5805413793
 30
0.0
 10
11.0559411087
 20
9.5809280791
 30
0.0
 10
11.0555495929
 20
9.5814646205
 30
0.0
 10
11.0550878196
 20
9.5820975936
 30
0.0
 10
11.054556286
 20
9.5828265522
 30
0.0
 10
11.0539555026
 20
9.583651047
 30
0.0
 10
11.0530173587
 20
9.5849395893
 30
0.0
 10
11.0516763939
 20
9.5867839348
 30
0.0
 10
11.0498693258
 20
9.5892736477
 30
0.0
 10
11.0478026312
 20
9.5921259155
 30
0.0
 10
11.0454838122
 20
9.5953328467
 30
0.0
 10
11.0429210114
 20
9.598886064
 30
0.0
 10
11.0401227855
 20
9.6027764821
 30
0.0
 10
11.0370980778
 20
9.6069944721
 30
0.0
 10
11.0338560581
 20
9.6115299496
 30
0.0
 10
11.029119955
 20
9.6181790001
 30
0.0
 10
11.0227274156
 20
9.6272087726
 30
0.0
 10
11.0145484201
 20
9.6388701863
 30
0.0
 10
11.0057350276
 20
9.6515687073
 30
0.0
 10
10.9963662432
 20
9.6652339175
 30
0.0
 10
10.9865184266
 20
9.6798005609
 30
0.0
 10
10.9762646059
 20
9.6952089282
 30
0.0
 10
10.9656782514
 20
9.7114074304
 30
0.0
 10
10.9548304229
 20
9.728351144
 30
0.0
 10
10.939893279
 20
9.7522331877
 30
0.0
 10
10.9249680642
 20
9.7770819309
 30
0.0
 10
10.9102395392
 20
9.8029038407
 30
0.0
 10
10.8953295921
 20
9.8301149657
 30
0.0
 10
10.8809616977
 20
9.8582710133
 30
0.0
 10
10.8674351794
 20
9.8874082164
 30
0.0
 10
10.8576965376
 20
9.9100318913
 30
0.0
 10
10.8485766809
 20
9.9332511435
 30
0.0
 10
10.8373734523
 20
9.9651349135
 30
0.0
 10
10.8280413655
 20
9.9979978737
 30
0.0
 10
10.8211432513
 20
10.0316884642
 30
0.0
 10
10.817308358
 20
10.0574480418
 30
0.0
 10
10.8149526167
 20
10.0834863189
 30
0.0
 10
10.8141574109
 20
10.1096711013
 30
0.0
 10
10.8149525431
 20
10.1358558945
 30
0.0
 10
10.817308484
 20
10.1618941487
 30
0.0
 10
10.8211433317
 20
10.1876537097
 30
0.0
 10
10.8280414348
 20
10.2213442933
 30
0.0
 10
10.8373736278
 20
10.2542072375
 30
0.0
 10
10.8485769112
 20
10.2860910417
 30
0.0
 10
10.8576966244
 20
10.3093103718
 30
0.0
 10
10.8674353449
 20
10.3319339891
 30
0.0
 10
10.8809618725
 20
10.3610710466
 30
0.0
 10
10.8953297098
 20
10.3892269828
 30
0.0
 10
10.9102396972
 20
10.416437974
 30
0.0
 10
10.9249679954
 20
10.4422599645
 30
0.0
 10
10.9398933394
 20
10.4671086156
 30
0.0
 10
10.9548305154
 20
10.4909906334
 30
0.0
 10
10.9656782582
 20
10.5079344051
 30
0.0
 10
10.976264625
 20
10.5241328754
 30
0.0
 10
10.9865184624
 20
10.5395411868
 30
0.0
 10
10.9963662346
 20
10.5541078302
 30
0.0
 10
11.0057350094
 20
10.5677730361
 30
0.0
 10
11.0145484245
 20
10.5804715411
 30
0.0
 10
11.0227274197
 20
10.5921329655
 30
0.0
 10
11.0291199548
 20
10.6011627578
 30
0.0
 10
11.0338560572
 20
10.6078118194
 30
0.0
 10
11.037098078
 20
10.6123472951
 30
0.0
 10
11.0401227886
 20
10.6165652761
 30
0.0
 10
11.0429210174
 20
10.6204556823
 30
0.0
 10
11.0454838193
 20
10.6240088895
 30
0.0
 10
11.0478026384
 20
10.6272158142
 30
0.0
 10
11.0498693341
 20
10.6300680791
 30
0.0
 10
11.0516764031
 20
10.6325577977
 30
0.0
 10
11.0530173663
 20
10.6344021572
 30
0.0
 10
11.0539555068
 20
10.6356907197
 30
0.0
 10
11.0545562886
 20
10.6365152329
 30
0.0
 10
11.0550878203
 20
10.6372442082
 30
0.0
 10
11.0555495919
 20
10.6378771934
 30
0.0
 10
11.0559411067
 20
10.6384137394
 30
0.0
 10
11.0562232048
 20
10.6388004358
 30
0.0
 10
11.0564134203
 20
10.6390612921
 30
0.0
 10
11.0565294553
 20
10.6392204483
 30
0.0
 10
11.0566276763
 20
10.6393552526
 30
0.0
 10
11.0567081518
 20
10.6394656336
 30
0.0
 10
11.056770632
 20
10.6395516636
 30
0.0
 10
11.0568118945
 20
10.639607919
 30
0.0
 10
11.0568354359
 20
10.6396409313
 30
0.0
 10
11.0568472045
 20
10.639656134
 30
0.0
 10
11.0568529643
 20
10.6396658995
 30
0.0
 10
11.056856999
 20
10.6396696067
 30
0.0
 10
11.0568573125
 20
10.6396708734
 30
0.0
  0
SPLINE
  5
403
100
AcDbEntity
  8
0
100
AcDbSpline
 62
7
  6
CONTINUOUS
 70
0
 71
3
 72
17
 73
13
 74
0
 42
0.0000001
 43
0.0000001
 44
0.0000000001
 40
0.0
 40
0.0
 40
0.0
 40
0.0
 40
0.1166045788
 40
0.2399487009
 40
0.3038376152
 40
0.3687699342
 40
0.4999998999
 40
0.6312298826
 40
0.6961622216
 40
0.7600511619
 40
0.8833953495
 40
1.0
 40
1.0
 40
1.0
 40
1.0
 10
9.7968573125
 20
13.4396706972
 30
0.0
 10
9.800515496
 20
13.4396706863
 30
0.0
 10
9.8080578813
 20
13.4403710215
 30
0.0
 10
9.8172842236
 20
13.4430081759
 30
0.0
 10
9.8244865944
 20
13.4463113982
 30
0.0
 10
9.8315379676
 20
13.4504359299
 30
0.0
 10
9.8395974631
 20
13.456930691
 30
0.0
 10
9.8460922166
 20
13.4649901935
 30
0.0
 10
9.8502167428
 20
13.4720415721
 30
0.0
 10
9.8535199606
 20
13.4792439489
 30
0.0
 10
9.8561571098
 20
13.4884702978
 30
0.0
 10
9.8568574417
 20
13.4960126877
 30
0.0
 10
9.8568574296
 20
13.4996708735
 30
0.0
  0
SPLINE
  5
404
100
AcDbEntity
  8
0
100
AcDbSpline
 62
7
  6
CONTINUOUS
 70
0
 71
3
 72
17
 73
13
 74
0
 42
0.0000001
 43
0.0000001
 44
0.0000000001
 40
0.0
 40
0.0
 40
0.0
 40
0.0
 40
0.1166045618
 40
0.2399486747
 40
0.3038375876
 40
0.3687699074
 40
0.4999998783
 40
0.6312298699
 40
0.6961622139
 40
0.7600511586
 40
0.883395351
 40
1.0
 40
1.0
 40
1.0
 40
1.0
 10
9.7968573125
 20
12.4996710738
 30
0.0
 10
9.800515497
 20
12.4996710861
 30
0.0
 10
9.8080578851
 20
12.4989707535
 30
0.0
 10
9.8172842313
 20
12.4963336004
 30
0.0
 10
9.8244866054
 20
12.4930303777
 30
0.0
 10
9.8315379821
 20
12.4889058448
 30
0.0
 10
9.8395974815
 20
12.4824110803
 30
0.0
 10
9.8460922369
 20
12.4743515728
 30
0.0
 10
9.8502167636
 20
12.4673001896
 30
0.0
 10
9.8535199809
 20
12.4600978084
 30
0.0
 10
9.8561571282
 20
12.4508714542
 30
0.0
 10
9.8568574572
 20
12.4433290606
 30
0.0
 10
9.8568574434
 20
12.4396708734
 30
0.0
  0
SPLINE
  5
405
100
AcDbEntity
  8
0
100
AcDbSpline
 62
9
  6
CONTINUOUS
 70
0
 71
3
 72
71
 73
67
 74
0
 42
0.0000001
 43
0.0000001
 44
0.0000000001
 40
0.0
 40
0.0
 40
0.0
 40
0.0
 40
0.0000518208
 40
0.0001160679
 40
0.0002057672
 40
0.0004612048
 40
0.000817499
 40
0.0012740154
 40
0.0018301195
 40
0.0024851769
 40
0.0032385532
 40
0.0050377257
 40
0.0072225629
 40
0.0097879917
 40
0.0127289396
 40
0.0160393517
 40
0.0197092426
 40
0.0280836043
 40
0.0377643674
 40
0.0486639632
 40
0.0606954521
 40
0.073774149
 40
0.0878161284
 40
0.1027377439
 40
0.1349113987
 40
0.1697584218
 40
0.2067973006
 40
0.2456413853
 40
0.2859493112
 40
0.3274114226
 40
0.3697883148
 40
0.4128346886
 40
0.4563122836
 40
0.5000004427
 40
0.5436886189
 40
0.5871663227
 40
0.6302128581
 40
0.6725896553
 40
0.7140517872
 40
0.754359799
 40
0.7932038376
 40
0.8302426
 40
0.8650895429
 40
0.8972631387
 40
0.9121847186
 40
0.9262266546
 40
0.939305299
 40
0.9513367249
 40
0.9622362465
 40
0.9719169256
 40
0.9802911955
 40
0.9839610381
 40
0.9872714006
 40
0.9902122981
 40
0.9927776766
 40
0.9949624647
 40
0.9967615902
 40
0.9975149443
 40
0.9981699804
 40
0.9987260643
 40
0.9991825617
 40
0.9995388383
 40
0.9997942599
 40
0.9998839517
 40
0.9999481919
 40
1.0
 40
1.0
 40
1.0
 40
1.0
 10
9.7968573475
 20
13.4396706971
 30
0.0
 10
9.7968710576
 20
13.4396574571
 30
0.0
 10
9.7968984052
 20
13.4396245399
 30
0.0
 10
9.7969500052
 20
13.4395692137
 30
0.0
 10
9.7970508371
 20
13.4394573644
 30
0.0
 10
9.7972245131
 20
13.4392666148
 30
0.0
 10
9.7974883086
 20
13.4389754336
 30
0.0
 10
9.7978264459
 20
13.4386023985
 30
0.0
 10
9.798238122
 20
13.4381477086
 30
0.0
 10
9.7987229071
 20
13.4376119262
 30
0.0
 10
9.7995140959
 20
13.4367368117
 30
0.0
 10
9.8006818497
 20
13.4354436391
 30
0.0
 10
9.8022949065
 20
13.4336545971
 30
0.0
 10
9.804187548
 20
13.4315522066
 30
0.0
 10
9.80635529
 20
13.4291404501
 30
0.0
 10
9.8087924073
 20
13.4264246252
 30
0.0
 10
9.8125596356
 20
13.4222173563
 30
0.0
 10
9.8178775846
 20
13.4162536317
 30
0.0
 10
9.8249392806
 20
13.4082821918
 30
0.0
 10
9.8328592563
 20
13.3992742153
 30
0.0
 10
9.8415627497
 20
13.3892911504
 30
0.0
 10
9.8509704605
 20
13.3783889346
 30
0.0
 10
9.8610038593
 20
13.3666229027
 30
0.0
 10
9.8754813832
 20
13.3494173549
 30
0.0
 10
9.8946249766
 20
13.3261381072
 30
0.0
 10
9.9183547104
 20
13.2961060504
 30
0.0
 10
9.9428270802
 20
13.2635459028
 30
0.0
 10
9.9673867428
 20
13.2285625662
 30
0.0
 10
9.9913961602
 20
13.1912399692
 30
0.0
 10
10.0139269416
 20
13.1514908103
 30
0.0
 10
10.0340078132
 20
13.1093061123
 30
0.0
 10
10.0502309053
 20
13.0646597656
 30
0.0
 10
10.0609975625
 20
13.0178427347
 30
0.0
 10
10.0648050713
 20
12.9696703737
 30
0.0
 10
10.0609974227
 20
12.9214979916
 30
0.0
 10
10.0502306933
 20
12.8746808573
 30
0.0
 10
10.0340072162
 20
12.8300345862
 30
0.0
 10
10.0139264713
 20
12.7878498003
 30
0.0
 10
9.9913955287
 20
12.748100718
 30
0.0
 10
9.9673859227
 20
12.7107782196
 30
0.0
 10
9.9428262504
 20
12.6757949262
 30
0.0
 10
9.9183539628
 20
12.6432348285
 30
0.0
 10
9.8946242951
 20
12.6132028391
 30
0.0
 10
9.8754807423
 20
12.5899236412
 30
0.0
 10
9.8610032518
 20
12.5727181316
 30
0.0
 10
9.8509698849
 20
12.5609521362
 30
0.0
 10
9.841562212
 20
12.5500499649
 30
0.0
 10
9.8328587627
 20
12.540066954
 30
0.0
 10
9.8249388373
 20
12.5310590416
 30
0.0
 10
9.8178771978
 20
12.5230876745
 30
0.0
 10
9.8125592998
 20
12.5171240149
 30
0.0
 10
9.8087921155
 20
12.5129168002
 30
0.0
 10
9.8063550332
 20
12.5102010172
 30
0.0
 10
9.8041873274
 20
12.5077893026
 30
0.0
 10
9.8022947223
 20
12.5056869533
 30
0.0
 10
9.8006817016
 20
12.5038979512
 30
0.0
 10
9.7995139773
 20
12.5026048107
 30
0.0
 10
9.7987228112
 20
12.5017297205
 30
0.0
 10
9.7982380421
 20
12.5011939552
 30
0.0
 10
9.7978263815
 20
12.5007392814
 30
0.0
 10
9.7974882581
 20
12.5003662618
 30
0.0
 10
9.7972244771
 20
12.5000750935
 30
0.0
 10
9.7970508094
 20
12.499884357
 30
0.0
 10
9.7969499883
 20
12.4997725127
 30
0.0
 10
9.79689839
 20
12.499717199
 30
0.0
 10
9.7968710574
 20
12.4996842767
 30
0.0
 10
9.7968573444
 20
12.4996710463
 30
0.0
  0
SPLINE
  5
406
100
AcDbEntity
  8
0
100
AcDbSpline
 62
9
  6
CONTINUOUS
 70
0
 71
3
 72
101
 73
97
 74
0
 42
0.0000001
 43
0.0000001
 44
0.0000000001
 40
0.0
 40
0.0
 40
0.0
 40
0.0
 40
0.000003308
 40
0.0000130268
 40
0.0000291528
 40
0.000051682
 40
0.0001159343
 40
0.0002057523
 40
0.0003211046
 40
0.0004619597
 40
0.0006282863
 40
0.0008200528
 40
0.0012797794
 40
0.0018407938
 40
0.0025025595
 40
0.0032645172
 40
0.0041261073
 40
0.0050867661
 40
0.0073020251
 40
0.009902422
 40
0.0128796622
 40
0.0162244965
 40
0.0199271354
 40
0.0239773478
 40
0.0283638274
 40
0.0330751072
 40
0.0380996923
 40
0.0490426987
 40
0.0611003597
 40
0.0741808664
 40
0.0881979071
 40
0.1030700506
 40
0.1187209059
 40
0.1350814742
 40
0.152088135
 40
0.1696834139
 40
0.2064354148
 40
0.2255043948
 40
0.2449827132
 40
0.285031633
 40
0.3055453297
 40
0.3263481488
 40
0.3474152357
 40
0.3687227503
 40
0.4119431006
 40
0.4338104214
 40
0.4558018455
 40
0.4778790291
 40
0.5000001558
 40
0.522121287
 40
0.544198473
 40
0.5661898698
 40
0.5880571602
 40
0.6312775436
 40
0.6525850946
 40
0.6736522407
 40
0.6944550156
 40
0.7149686591
 40
0.7550174091
 40
0.7744956788
 40
0.7935646704
 40
0.8303166188
 40
0.8479119131
 40
0.8649186128
 40
0.8812791505
 40
0.8969299597
 40
0.9118020913
 40
0.9258191244
 40
0.9388996222
 40
0.9509572948
 40
0.9619003192
 40
0.9669249096
 40
0.9716361887
 40
0.9760226621
 40
0.9800728671
 40
0.9837754997
 40
0.9871203289
 40
0.9900975676
 40
0.9926979667
 40
0.9949132379
 40
0.9958739085
 40
0.996735511
 40
0.9974974796
 40
0.9981592533
 40
0.9987202709
 40
0.9991799941
 40
0.9993717564
 40
0.9995380776
 40
0.9996789265
 40
0.9997942721
 40
0.9998840833
 40
0.999948329
 40
0.9999708551
 40
0.9999869782
 40
0.9999966944
 40
1.0
 40
1.0
 40
1.0
 40
1.0
 10
9.8568573125
 20
13.4996708734
 30
0.0
 10
9.8568576276
 20
13.4996696061
 30
0.0
 10
9.8568616585
 20
13.4996658953
 30
0.0
 10
9.8568674233
 20
13.4996561281
 30
0.0
 10
9.85687919
 20
13.4996409207
 30
0.0
 10
9.8569027334
 20
13.4996079032
 30
0.0
 10
9.856943995
 20
13.4995516396
 30
0.0
 10
9.8570064762
 20
13.4994656002
 30
0.0
 10
9.8570869515
 20
13.4993552095
 30
0.0
 10
9.8571851724
 20
13.499220396
 30
0.0
 10
9.857301207
 20
13.4990612317
 30
0.0
 10
9.8574914206
 20
13.4988003675
 30
0.0
 10
9.8577735169
 20
13.4984136672
 30
0.0
 10
9.8581650328
 20
13.497877125
 30
0.0
 10
9.8586268064
 20
13.4972441511
 30
0.0
 10
9.8591583403
 20
13.4965151918
 30
0.0
 10
9.8597591239
 20
13.4956906967
 30
0.0
 10
9.8606972684
 20
13.4944021546
 30
0.0
 10
9.8620382341
 20
13.4925578089
 30
0.0
 10
9.8638453029
 20
13.4900680949
 30
0.0
 10
9.8659119976
 20
13.4872158249
 30
0.0
 10
9.8682308175
 20
13.4840088925
 30
0.0
 10
9.8707936193
 20
13.4804556745
 30
0.0
 10
9.8735918466
 20
13.4765652561
 30
0.0
 10
9.8766165554
 20
13.4723472647
 30
0.0
 10
9.8798585754
 20
13.4678117843
 30
0.0
 10
9.8845946798
 20
13.4611627313
 30
0.0
 10
9.8909872227
 20
13.4521329566
 30
0.0
 10
9.8991662197
 20
13.4404715383
 30
0.0
 10
9.9079796166
 20
13.4277730127
 30
0.0
 10
9.9173484055
 20
13.4141077972
 30
0.0
 10
9.9271962204
 20
13.3995411454
 30
0.0
 10
9.9374500469
 20
13.3841327787
 30
0.0
 10
9.9480364077
 20
13.3679342788
 30
0.0
 10
9.9588842258
 20
13.3509905553
 30
0.0
 10
9.9738213621
 20
13.327108506
 30
0.0
 10
9.9887466095
 20
13.302259782
 30
0.0
 10
10.0034751019
 20
13.2764378583
 30
0.0
 10
10.0183850236
 20
13.2492267419
 30
0.0
 10
10.0327529403
 20
13.2210707374
 30
0.0
 10
10.0462794418
 20
13.1919335648
 30
0.0
 10
10.0560180652
 20
13.1693099027
 30
0.0
 10
10.0651379063
 20
13.1460906579
 30
0.0
 10
10.0763411713
 20
13.1142069016
 30
0.0
 10
10.085673219
 20
13.0813439321
 30
0.0
 10
10.0925713906
 20
13.0476533496
 30
0.0
 10
10.0964062317
 20
13.0218937593
 30
0.0
 10
10.098762025
 20
12.9958554807
 30
0.0
 10
10.0995572195
 20
12.9696706886
 30
0.0
 10
10.0987620618
 20
12.943485892
 30
0.0
 10
10.0964061648
 20
12.9174476296
 30
0.0
 10
10.0925712869
 20
12.8916880698
 30
0.0
 10
10.085673204
 20
12.8579974775
 30
0.0
 10
10.0763409957
 20
12.8251345339
 30
0.0
 10
10.0651377367
 20
12.7932507258
 30
0.0
 10
10.0560180034
 20
12.7700314152
 30
0.0
 10
10.0462792772
 20
12.7474078128
 30
0.0
 10
10.0327528169
 20
12.7182707391
 30
0.0
 10
10.018384926
 20
12.690114839
 30
0.0
 10
10.0034749472
 20
12.6629038487
 30
0.0
 10
9.9887466938
 20
12.6370818294
 30
0.0
 10
9.9738213061
 20
12.6122331978
 30
0.0
 10
9.958884137
 20
12.5883511696
 30
0.0
 10
9.9480364023
 20
12.5714073815
 30
0.0
 10
9.9374500269
 20
12.5552089085
 30
0.0
 10
9.927196182
 20
12.5398005964
 30
0.0
 10
9.9173484118
 20
12.5252339457
 30
0.0
 10
9.9079796336
 20
12.5115687363
 30
0.0
 10
9.8991662154
 20
12.4988702279
 30
0.0
 10
9.8909872189
 20
12.4872087993
 30
0.0
 10
9.8845946802
 20
12.4781790049
 30
0.0
 10
9.8798585764
 20
12.4715299404
 30
0.0
 10
9.8766165553
 20
12.4669944617
 30
0.0
 10
9.8735918434
 20
12.4627764794
 30
0.0
 10
9.8707936132
 20
12.4588860727
 30
0.0
 10
9.8682308102
 20
12.4553328647
 30
0.0
 10
9.8659119902
 20
12.4521259387
 30
0.0
 10
9.8638452943
 20
12.4492736716
 30
0.0
 10
9.8620382246
 20
12.4467839519
 30
0.0
 10
9.8606972606
 20
12.4449395922
 30
0.0
 10
9.8597591196
 20
12.4436510299
 30
0.0
 10
9.8591583376
 20
12.4428265165
 30
0.0
 10
9.8586268056
 20
12.4420975405
 30
0.0
 10
9.8581650336
 20
12.4414645545
 30
0.0
 10
9.8577735188
 20
12.4409280078
 30
0.0
 10
9.8574914207
 20
12.440541311
 30
0.0
 10
9.8573012052
 20
12.4402804545
 30
0.0
 10
9.8571851701
 20
12.4401212983
 30
0.0
 10
9.857086949
 20
12.4399864939
 30
0.0
 10
9.8570064734
 20
12.4398761129
 30
0.0
 10
9.8569439931
 20
12.4397900829
 30
0.0
 10
9.8569027306
 20
12.4397338276
 30
0.0
 10
9.8568791891
 20
12.4397008154
 30
0.0
 10
9.8568674205
 20
12.4396856127
 30
0.0
 10
9.8568616606
 20
12.4396758473
 30
0.0
 10
9.856857626
 20
12.4396721401
 30
0.0
 10
9.8568573125
 20
12.4396708734
 30
0.0
  0
SPLINE
  5
407
100
AcDbEntity
  8
0
100
AcDbSpline
 62
7
  6
CONTINUOUS
 70
0
 71
3
 72
17
 73
13
 74
0
 42
0.0000001
 43
0.0000001
 44
0.0000000001
 40
0.0
 40
0.0
 40
0.0
 40
0.0
 40
0.1166045788
 40
0.2399487009
 40
0.3038376152
 40
0.3687699342
 40
0.4999998999
 40
0.6312298826
 40
0.6961622216
 40
0.7600511619
 40
0.8833953495
 40
1.0
 40
1.0
 40
1.0
 40
1.0
 10
20.3668573125
 20
10.5796706972
 30
0.0
 10
20.370515496
 20
10.5796706863
 30
0.0
 10
20.3780578813
 20
10.5803710215
 30
0.0
 10
20.3872842236
 20
10.5830081759
 30
0.0
 10
20.3944865944
 20
10.5863113982
 30
0.0
 10
20.4015379676
 20
10.5904359299
 30
0.0
 10
20.4095974631
 20
10.596930691
 30
0.0
 10
20.4160922166
 20
10.6049901935
 30
0.0
 10
20.4202167428
 20
10.6120415721
 30
0.0
 10
20.4235199606
 20
10.6192439489
 30
0.0
 10
20.4261571098
 20
10.6284702978
 30
0.0
 10
20.4268574417
 20
10.6360126877
 30
0.0
 10
20.4268574296
 20
10.6396708735
 30
0.0
  0
SPLINE
  5
408
100
AcDbEntity
  8
0
100
AcDbSpline
 62
7
  6
CONTINUOUS
 70
0
 71
3
 72
17
 73
13
 74
0
 42
0.0000001
 43
0.0000001
 44
0.0000000001
 40
0.0
 40
0.0
 40
0.0
 40
0.0
 40
0.1166045618
 40
0.2399486747
 40
0.3038375876
 40
0.3687699074
 40
0.4999998783
 40
0.6312298699
 40
0.6961622139
 40
0.7600511586
 40
0.883395351
 40
1.0
 40
1.0
 40
1.0
 40
1.0
 10
20.3668573125
 20
9.6396710738
 30
0.0
 10
20.370515497
 20
9.6396710861
 30
0.0
 10
20.3780578851
 20
9.6389707535
 30
0.0
 10
20.3872842313
 20
9.6363336004
 30
0.0
 10
20.3944866054
 20
9.6330303777
 30
0.0
 10
20.4015379821
 20
9.6289058448
 30
0.0
 10
20.4095974815
 20
9.6224110803
 30
0.0
 10
20.4160922369
 20
9.6143515728
 30
0.0
 10
20.4202167636
 20
9.6073001896
 30
0.0
 10
20.4235199809
 20
9.6000978084
 30
0.0
 10
20.4261571282
 20
9.5908714542
 30
0.0
 10
20.4268574572
 20
9.5833290606
 30
0.0
 10
20.4268574434
 20
9.5796708734
 30
0.0
  0
SPLINE
  5
409
100
AcDbEntity
  8
0
100
AcDbSpline
 62
9
  6
CONTINUOUS
 70
0
 71
3
 72
71
 73
67
 74
0
 42
0.0000001
 43
0.0000001
 44
0.0000000001
 40
0.0
 40
0.0
 40
0.0
 40
0.0
 40
0.0000518208
 40
0.0001160679
 40
0.0002057672
 40
0.0004612048
 40
0.000817499
 40
0.0012740154
 40
0.0018301195
 40
0.0024851769
 40
0.0032385532
 40
0.0050377257
 40
0.0072225629
 40
0.0097879917
 40
0.0127289396
 40
0.0160393517
 40
0.0197092426
 40
0.0280836043
 40
0.0377643674
 40
0.0486639632
 40
0.0606954521
 40
0.073774149
 40
0.0878161284
 40
0.1027377439
 40
0.1349113987
 40
0.1697584218
 40
0.2067973006
 40
0.2456413853
 40
0.2859493112
 40
0.3274114226
 40
0.3697883148
 40
0.4128346886
 40
0.4563122836
 40
0.5000004427
 40
0.5436886189
 40
0.5871663227
 40
0.6302128581
 40
0.6725896553
 40
0.7140517872
 40
0.754359799
 40
0.7932038376
 40
0.8302426
 40
0.8650895429
 40
0.8972631387
 40
0.9121847186
 40
0.9262266546
 40
0.939305299
 40
0.9513367249
 40
0.9622362465
 40
0.9719169256
 40
0.9802911955
 40
0.9839610381
 40
0.9872714006
 40
0.9902122981
 40
0.9927776766
 40
0.9949624647
 40
0.9967615902
 40
0.9975149443
 40
0.9981699804
 40
0.9987260643
 40
0.9991825617
 40
0.9995388383
 40
0.9997942599
 40
0.9998839517
 40
0.9999481919
 40
1.0
 40
1.0
 40
1.0
 40
1.0
 10
20.3668573475
 20
10.5796706971
 30
0.0
 10
20.3668710576
 20
10.5796574571
 30
0.0
 10
20.3668984052
 20
10.5796245399
 30
0.0
 10
20.3669500052
 20
10.5795692137
 30
0.0
 10
20.3670508371
 20
10.5794573644
 30
0.0
 10
20.3672245131
 20
10.5792666148
 30
0.0
 10
20.3674883086
 20
10.5789754336
 30
0.0
 10
20.3678264459
 20
10.5786023985
 30
0.0
 10
20.368238122
 20
10.5781477086
 30
0.0
 10
20.3687229071
 20
10.5776119262
 30
0.0
 10
20.3695140959
 20
10.5767368117
 30
0.0
 10
20.3706818497
 20
10.5754436391
 30
0.0
 10
20.3722949065
 20
10.5736545971
 30
0.0
 10
20.374187548
 20
10.5715522066
 30
0.0
 10
20.37635529
 20
10.5691404501
 30
0.0
 10
20.3787924073
 20
10.5664246252
 30
0.0
 10
20.3825596356
 20
10.5622173563
 30
0.0
 10
20.3878775846
 20
10.5562536317
 30
0.0
 10
20.3949392806
 20
10.5482821918
 30
0.0
 10
20.4028592563
 20
10.5392742153
 30
0.0
 10
20.4115627497
 20
10.5292911504
 30
0.0
 10
20.4209704605
 20
10.5183889346
 30
0.0
 10
20.4310038593
 20
10.5066229027
 30
0.0
 10
20.4454813832
 20
10.4894173549
 30
0.0
 10
20.4646249766
 20
10.4661381072
 30
0.0
 10
20.4883547104
 20
10.4361060504
 30
0.0
 10
20.5128270802
 20
10.4035459028
 30
0.0
 10
20.5373867428
 20
10.3685625662
 30
0.0
 10
20.5613961602
 20
10.3312399692
 30
0.0
 10
20.5839269416
 20
10.2914908103
 30
0.0
 10
20.6040078132
 20
10.2493061123
 30
0.0
 10
20.6202309053
 20
10.2046597656
 30
0.0
 10
20.6309975625
 20
10.1578427347
 30
0.0
 10
20.6348050713
 20
10.1096703737
 30
0.0
 10
20.6309974227
 20
10.0614979916
 30
0.0
 10
20.6202306933
 20
10.0146808573
 30
0.0
 10
20.6040072162
 20
9.9700345862
 30
0.0
 10
20.5839264713
 20
9.9278498003
 30
0.0
 10
20.5613955287
 20
9.888100718
 30
0.0
 10
20.5373859227
 20
9.8507782196
 30
0.0
 10
20.5128262504
 20
9.8157949262
 30
0.0
 10
20.4883539628
 20
9.7832348285
 30
0.0
 10
20.4646242951
 20
9.7532028391
 30
0.0
 10
20.4454807423
 20
9.7299236412
 30
0.0
 10
20.4310032518
 20
9.7127181316
 30
0.0
 10
20.4209698849
 20
9.7009521362
 30
0.0
 10
20.411562212
 20
9.6900499649
 30
0.0
 10
20.4028587627
 20
9.680066954
 30
0.0
 10
20.3949388373
 20
9.6710590416
 30
0.0
 10
20.3878771978
 20
9.6630876745
 30
0.0
 10
20.3825592998
 20
9.6571240149
 30
0.0
 10
20.3787921155
 20
9.6529168002
 30
0.0
 10
20.3763550332
 20
9.6502010172
 30
0.0
 10
20.3741873274
 20
9.6477893026
 30
0.0
 10
20.3722947223
 20
9.6456869533
 30
0.0
 10
20.3706817016
 20
9.6438979512
 30
0.0
 10
20.3695139773
 20
9.6426048107
 30
0.0
 10
20.3687228112
 20
9.6417297205
 30
0.0
 10
20.3682380421
 20
9.6411939552
 30
0.0
 10
20.3678263815
 20
9.6407392814
 30
0.0
 10
20.3674882581
 20
9.6403662618
 30
0.0
 10
20.3672244771
 20
9.6400750935
 30
0.0
 10
20.3670508094
 20
9.639884357
 30
0.0
 10
20.3669499883
 20
9.6397725127
 30
0.0
 10
20.36689839
 20
9.639717199
 30
0.0
 10
20.3668710574
 20
9.6396842767
 30
0.0
 10
20.3668573444
 20
9.6396710463
 30
0.0
  0
SPLINE
  5
40A
100
AcDbEntity
  8
0
100
AcDbSpline
 62
9
  6
CONTINUOUS
 70
0
 71
3
 72
101
 73
97
 74
0
 42
0.0000001
 43
0.0000001
 44
0.0000000001
 40
0.0
 40
0.0
 40
0.0
 40
0.0
 40
0.000003308
 40
0.0000130268
 40
0.0000291528
 40
0.000051682
 40
0.0001159343
 40
0.0002057523
 40
0.0003211046
 40
0.0004619597
 40
0.0006282863
 40
0.0008200528
 40
0.0012797794
 40
0.0018407938
 40
0.0025025595
 40
0.0032645172
 40
0.0041261073
 40
0.0050867661
 40
0.0073020251
 40
0.009902422
 40
0.0128796622
 40
0.0162244965
 40
0.0199271354
 40
0.0239773478
 40
0.0283638274
 40
0.0330751072
 40
0.0380996923
 40
0.0490426987
 40
0.0611003597
 40
0.0741808664
 40
0.0881979071
 40
0.1030700506
 40
0.1187209059
 40
0.1350814742
 40
0.152088135
 40
0.1696834139
 40
0.2064354148
 40
0.2255043948
 40
0.2449827132
 40
0.285031633
 40
0.3055453297
 40
0.3263481488
 40
0.3474152357
 40
0.3687227503
 40
0.4119431006
 40
0.4338104214
 40
0.4558018455
 40
0.4778790291
 40
0.5000001558
 40
0.522121287
 40
0.544198473
 40
0.5661898698
 40
0.5880571602
 40
0.6312775436
 40
0.6525850946
 40
0.6736522407
 40
0.6944550156
 40
0.7149686591
 40
0.7550174091
 40
0.7744956788
 40
0.7935646704
 40
0.8303166188
 40
0.8479119131
 40
0.8649186128
 40
0.8812791505
 40
0.8969299597
 40
0.9118020913
 40
0.9258191244
 40
0.9388996222
 40
0.9509572948
 40
0.9619003192
 40
0.9669249096
 40
0.9716361887
 40
0.9760226621
 40
0.9800728671
 40
0.9837754997
 40
0.9871203289
 40
0.9900975676
 40
0.9926979667
 40
0.9949132379
 40
0.9958739085
 40
0.996735511
 40
0.9974974796
 40
0.9981592533
 40
0.9987202709
 40
0.9991799941
 40
0.9993717564
 40
0.9995380776
 40
0.9996789265
 40
0.9997942721
 40
0.9998840833
 40
0.999948329
 40
0.9999708551
 40
0.9999869782
 40
0.9999966944
 40
1.0
 40
1.0
 40
1.0
 40
1.0
 10
20.4268573125
 20
10.6396708734
 30
0.0
 10
20.4268576276
 20
10.6396696061
 30
0.0
 10
20.4268616585
 20
10.6396658953
 30
0.0
 10
20.4268674233
 20
10.6396561281
 30
0.0
 10
20.42687919
 20
10.6396409207
 30
0.0
 10
20.4269027334
 20
10.6396079032
 30
0.0
 10
20.426943995
 20
10.6395516396
 30
0.0
 10
20.4270064762
 20
10.6394656002
 30
0.0
 10
20.4270869515
 20
10.6393552095
 30
0.0
 10
20.4271851724
 20
10.639220396
 30
0.0
 10
20.427301207
 20
10.6390612317
 30
0.0
 10
20.4274914206
 20
10.6388003675
 30
0.0
 10
20.4277735169
 20
10.6384136672
 30
0.0
 10
20.4281650328
 20
10.637877125
 30
0.0
 10
20.4286268064
 20
10.6372441511
 30
0.0
 10
20.4291583403
 20
10.6365151918
 30
0.0
 10
20.4297591239
 20
10.6356906967
 30
0.0
 10
20.4306972684
 20
10.6344021546
 30
0.0
 10
20.4320382341
 20
10.6325578089
 30
0.0
 10
20.4338453029
 20
10.6300680949
 30
0.0
 10
20.4359119976
 20
10.6272158249
 30
0.0
 10
20.4382308175
 20
10.6240088925
 30
0.0
 10
20.4407936193
 20
10.6204556745
 30
0.0
 10
20.4435918466
 20
10.6165652561
 30
0.0
 10
20.4466165554
 20
10.6123472647
 30
0.0
 10
20.4498585754
 20
10.6078117843
 30
0.0
 10
20.4545946798
 20
10.6011627313
 30
0.0
 10
20.4609872227
 20
10.5921329566
 30
0.0
 10
20.4691662197
 20
10.5804715383
 30
0.0
 10
20.4779796166
 20
10.5677730127
 30
0.0
 10
20.4873484055
 20
10.5541077972
 30
0.0
 10
20.4971962204
 20
10.5395411454
 30
0.0
 10
20.5074500469
 20
10.5241327787
 30
0.0
 10
20.5180364077
 20
10.5079342788
 30
0.0
 10
20.5288842258
 20
10.4909905553
 30
0.0
 10
20.5438213621
 20
10.467108506
 30
0.0
 10
20.5587466095
 20
10.442259782
 30
0.0
 10
20.5734751019
 20
10.4164378583
 30
0.0
 10
20.5883850236
 20
10.3892267419
 30
0.0
 10
20.6027529403
 20
10.3610707374
 30
0.0
 10
20.6162794418
 20
10.3319335648
 30
0.0
 10
20.6260180652
 20
10.3093099027
 30
0.0
 10
20.6351379063
 20
10.2860906579
 30
0.0
 10
20.6463411713
 20
10.2542069016
 30
0.0
 10
20.655673219
 20
10.2213439321
 30
0.0
 10
20.6625713906
 20
10.1876533496
 30
0.0
 10
20.6664062317
 20
10.1618937593
 30
0.0
 10
20.668762025
 20
10.1358554807
 30
0.0
 10
20.6695572195
 20
10.1096706886
 30
0.0
 10
20.6687620618
 20
10.083485892
 30
0.0
 10
20.6664061648
 20
10.0574476296
 30
0.0
 10
20.6625712869
 20
10.0316880698
 30
0.0
 10
20.655673204
 20
9.9979974775
 30
0.0
 10
20.6463409957
 20
9.9651345339
 30
0.0
 10
20.6351377367
 20
9.9332507258
 30
0.0
 10
20.6260180034
 20
9.9100314152
 30
0.0
 10
20.6162792772
 20
9.8874078128
 30
0.0
 10
20.6027528169
 20
9.8582707391
 30
0.0
 10
20.588384926
 20
9.830114839
 30
0.0
 10
20.5734749472
 20
9.8029038487
 30
0.0
 10
20.5587466938
 20
9.7770818294
 30
0.0
 10
20.5438213061
 20
9.7522331978
 30
0.0
 10
20.528884137
 20
9.7283511696
 30
0.0
 10
20.5180364023
 20
9.7114073815
 30
0.0
 10
20.5074500269
 20
9.6952089085
 30
0.0
 10
20.497196182
 20
9.6798005964
 30
0.0
 10
20.4873484118
 20
9.6652339457
 30
0.0
 10
20.4779796336
 20
9.6515687363
 30
0.0
 10
20.4691662154
 20
9.6388702279
 30
0.0
 10
20.4609872189
 20
9.6272087993
 30
0.0
 10
20.4545946802
 20
9.6181790049
 30
0.0
 10
20.4498585764
 20
9.6115299404
 30
0.0
 10
20.4466165553
 20
9.6069944617
 30
0.0
 10
20.4435918434
 20
9.6027764794
 30
0.0
 10
20.4407936132
 20
9.5988860727
 30
0.0
 10
20.4382308102
 20
9.5953328647
 30
0.0
 10
20.4359119902
 20
9.5921259387
 30
0.0
 10
20.4338452943
 20
9.5892736716
 30
0.0
 10
20.4320382246
 20
9.5867839519
 30
0.0
 10
20.4306972606
 20
9.5849395922
 30
0.0
 10
20.4297591196
 20
9.5836510299
 30
0.0
 10
20.4291583376
 20
9.5828265165
 30
0.0
 10
20.4286268056
 20
9.5820975405
 30
0.0
 10
20.4281650336
 20
9.5814645545
 30
0.0
 10
20.4277735188
 20
9.5809280078
 30
0.0
 10
20.4274914207
 20
9.580541311
 30
0.0
 10
20.4273012052
 20
9.5802804545
 30
0.0
 10
20.4271851701
 20
9.5801212983
 30
0.0
 10
20.427086949
 20
9.5799864939
 30
0.0
 10
20.4270064734
 20
9.5798761129
 30
0.0
 10
20.4269439931
 20
9.5797900829
 30
0.0
 10
20.4269027306
 20
9.5797338276
 30
0.0
 10
20.4268791891
 20
9.5797008154
 30
0.0
 10
20.4268674205
 20
9.5796856127
 30
0.0
 10
20.4268616606
 20
9.5796758473
 30
0.0
 10
20.426857626
 20
9.5796721401
 30
0.0
 10
20.4268573125
 20
9.5796708734
 30
0.0
  0
SPLINE
  5
40B
100
AcDbEntity
  8
0
100
AcDbSpline
 62
7
  6
CONTINUOUS
 70
0
 71
3
 72
15
 73
11
 74
0
 42
0.0000001
 43
0.0000001
 44
0.0000000001
 40
0.0
 40
0.0
 40
0.0
 40
0.0
 40
0.1943989142
 40
0.3815744137
 40
0.55394441
 40
0.7052233273
 40
0.8300774609
 40
0.9230394284
 40
0.9804353724
 40
1.0
 40
1.0
 40
1.0
 40
1.0
 10
23.6818573125
 20
6.7372283472
 30
0.0
 10
23.6743678871
 20
6.7372283472
 30
0.0
 10
23.6596661343
 20
6.7369705417
 30
0.0
 10
23.6383487553
 20
6.7358885084
 30
0.0
 10
23.618731909
 20
6.7342734523
 30
0.0
 10
23.6015570643
 20
6.7323615532
 30
0.0
 10
23.5874619708
 20
6.7304754449
 30
0.0
 10
23.5769799897
 20
6.7288757379
 30
0.0
 10
23.5705225159
 20
6.727799604
 30
0.0
 10
23.5676001106
 20
6.7272988716
 30
0.0
 10
23.5668573125
 20
6.7271708734
 30
0.0
  0
SPLINE
  5
40C
100
AcDbEntity
  8
0
100
AcDbSpline
 62
7
  6
CONTINUOUS
 70
0
 71
3
 72
17
 73
13
 74
0
 42
0.0000001
 43
0.0000001
 44
0.0000000001
 40
0.0
 40
0.0
 40
0.0
 40
0.0
 40
0.1166043388
 40
0.2399483404
 40
0.3038372455
 40
0.3687695842
 40
0.4999996416
 40
0.6312297599
 40
0.69616217
 40
0.7600511687
 40
0.8833954043
 40
1.0
 40
1.0
 40
1.0
 40
1.0
 10
21.6268567519
 20
8.1121708734
 30
0.0
 10
21.6268567158
 20
8.1085126702
 30
0.0
 10
21.6275570093
 20
8.1009702348
 30
0.0
 10
21.6301941408
 20
8.0917438225
 30
0.0
 10
21.633497367
 20
8.0845413919
 30
0.0
 10
21.6376219188
 20
8.077489956
 30
0.0
 10
21.644116732
 20
8.0694303912
 30
0.0
 10
21.6521763159
 20
8.0629355983
 30
0.0
 10
21.6592277675
 20
8.0588110596
 30
0.0
 10
21.6664302164
 20
8.0555078434
 30
0.0
 10
21.6756566504
 20
8.0528707219
 30
0.0
 10
21.6831991013
 20
8.0521704332
 30
0.0
 10
21.6868573126
 20
8.0521704708
 30
0.0
  0
SPLINE
  5
40D
100
AcDbEntity
  8
0
100
AcDbSpline
 62
7
  6
CONTINUOUS
 70
0
 71
3
 72
17
 73
13
 74
0
 42
0.0000001
 43
0.0000001
 44
0.0000000001
 40
0.0
 40
0.0
 40
0.0
 40
0.0
 40
0.1166043665
 40
0.2399483831
 40
0.3038372903
 40
0.3687696278
 40
0.4999996765
 40
0.6312297803
 40
0.6961621822
 40
0.7600511738
 40
0.8833954018
 40
1.0
 40
1.0
 40
1.0
 40
1.0
 10
20.4268578337
 20
8.1121708734
 30
0.0
 10
20.4268578673
 20
8.108512672
 30
0.0
 10
20.4261575696
 20
8.1009702413
 30
0.0
 10
20.4235204357
 20
8.0917438356
 30
0.0
 10
20.42021721
 20
8.0845414106
 30
0.0
 10
20.4160926602
 20
8.0774899808
 30
0.0
 10
20.4095978524
 20
8.0694304225
 30
0.0
 10
20.4015382768
 20
8.0629356332
 30
0.0
 10
20.3944868326
 20
8.0588110954
 30
0.0
 10
20.3872843911
 20
8.0555078789
 30
0.0
 10
20.3780579658
 20
8.0528707543
 30
0.0
 10
20.370515521
 20
8.0521704611
 30
0.0
 10
20.3668573124
 20
8.052170496
 30
0.0
  0
SPLINE
  5
40E
100
AcDbEntity
  8
0
100
AcDbSpline
 62
9
  6
CONTINUOUS
 70
0
 71
3
 72
63
 73
59
 74
0
 42
0.0000001
 43
0.0000001
 44
0.0000000001
 40
0.0
 40
0.0
 40
0.0
 40
0.0
 40
0.0000550109
 40
0.0002177629
 40
0.0004874676
 40
0.0008633367
 40
0.0019304152
 40
0.0034126924
 40
0.0053038625
 40
0.0075976196
 40
0.0102876585
 40
0.0133676738
 40
0.0206636103
 40
0.0293909825
 40
0.0394465599
 40
0.0507271364
 40
0.0631314714
 40
0.0765661145
 40
0.1061605714
 40
0.1388136735
 40
0.1739657177
 40
0.2111216764
 40
0.2499015876
 40
0.2899669344
 40
0.3310171916
 40
0.3728005399
 40
0.415050617
 40
0.4362912083
 40
0.4575473378
 40
0.4999996328
 40
0.5424520741
 40
0.5637083087
 40
0.5849489848
 40
0.6271991393
 40
0.6689825141
 40
0.7100328294
 40
0.7500982555
 40
0.7888782347
 40
0.8260342335
 40
0.8611862821
 40
0.8938393671
 40
0.9234338058
 40
0.9368684459
 40
0.9492727856
 40
0.9605533756
 40
0.9706089701
 40
0.9793363563
 40
0.986632297
 40
0.9897123091
 40
0.9924023426
 40
0.9946960944
 40
0.996587261
 40
0.9980695388
 40
0.9991366239
 40
0.9995124993
 40
0.9997822124
 40
0.9999449753
 40
1.0
 40
1.0
 40
1.0
 40
1.0
 10
21.6268567519
 20
8.1121704256
 30
0.0
 10
21.6268379197
 20
8.1121502944
 30
0.0
 10
21.6267596331
 20
8.1120742068
 30
0.0
 10
21.6265887903
 20
8.1118996433
 30
0.0
 10
21.6263024751
 20
8.111613091
 30
0.0
 10
21.6256977576
 20
8.1110041116
 30
0.0
 10
21.624663459
 20
8.1099653629
 30
0.0
 10
21.623093465
 20
8.1083884686
 30
0.0
 10
21.6210887407
 20
8.1063769759
 30
0.0
 10
21.6186559473
 20
8.1039376402
 30
0.0
 10
21.6158013212
 20
8.1010776262
 30
0.0
 10
21.6111741134
 20
8.0964452611
 30
0.0
 10
21.6044043704
 20
8.0896769043
 30
0.0
 10
21.5951503094
 20
8.0804494561
 30
0.0
 10
21.5844647269
 20
8.0698297827
 30
0.0
 10
21.5724494318
 20
8.0579342347
 30
0.0
 10
21.5592026526
 20
8.0448758665
 30
0.0
 10
21.5393687825
 20
8.025427151
 30
0.0
 10
21.5121643503
 20
7.9990025538
 30
0.0
 10
21.4768901119
 20
7.9652680561
 30
0.0
 10
21.4384819484
 20
7.9293319665
 30
0.0
 10
21.3973043323
 20
7.8918679336
 30
0.0
 10
21.353540138
 20
7.8536026247
 30
0.0
 10
21.3073123629
 20
7.8152107445
 30
0.0
 10
21.2583329426
 20
7.7778358146
 30
0.0
 10
21.2063936315
 20
7.7426724074
 30
0.0
 10
21.1600815234
 20
7.7171268297
 30
0.0
 10
21.120843863
 20
7.7007459339
 30
0.0
 10
21.0801784015
 20
7.6880039896
 30
0.0
 10
21.0268578252
 20
7.6807185188
 30
0.0
 10
20.9735371755
 20
7.6880038405
 30
0.0
 10
20.9328715077
 20
7.7007456894
 30
0.0
 10
20.8936336751
 20
7.7171265255
 30
0.0
 10
20.8473214589
 20
7.7426721107
 30
0.0
 10
20.795382059
 20
7.7778355308
 30
0.0
 10
20.746402567
 20
7.8152105031
 30
0.0
 10
20.7001747135
 20
7.8536024501
 30
0.0
 10
20.6564104524
 20
7.8918678253
 30
0.0
 10
20.6152327947
 20
7.9293318961
 30
0.0
 10
20.5768246098
 20
7.9652679829
 30
0.0
 10
20.5415503702
 20
7.9990024569
 30
0.0
 10
20.5143459491
 20
8.025427038
 30
0.0
 10
20.4945120856
 20
8.0448757485
 30
0.0
 10
20.4812653023
 20
8.0579341234
 30
0.0
 10
20.4692499961
 20
8.0698296853
 30
0.0
 10
20.4585643989
 20
8.0804493757
 30
0.0
 10
20.4493103259
 20
8.0896768369
 30
0.0
 10
20.4425405773
 20
8.0964451987
 30
0.0
 10
20.43791337
 20
8.1010775612
 30
0.0
 10
20.4350587479
 20
8.1039375693
 30
0.0
 10
20.4326259587
 20
8.1063768992
 30
0.0
 10
20.4306212359
 20
8.1083883877
 30
0.0
 10
20.4290512414
 20
8.109965284
 30
0.0
 10
20.428016935
 20
8.1110040346
 30
0.0
 10
20.4274122141
 20
8.1116130253
 30
0.0
 10
20.4271258835
 20
8.1118995808
 30
0.0
 10
20.4269550412
 20
8.1120741676
 30
0.0
 10
20.4268767336
 20
8.1121502525
 30
0.0
 10
20.4268579023
 20
8.112170394
 30
0.0
  0
SPLINE
  5
40F
100
AcDbEntity
  8
0
100
AcDbSpline
 62
9
  6
CONTINUOUS
 70
0
 71
3
 72
69
 73
65
 74
0
 42
0.0000001
 43
0.0000001
 44
0.0000000001
 40
0.0
 40
0.0
 40
0.0
 40
0.0
 40
0.0000086602
 40
0.0000340476
 40
0.0000761469
 40
0.0001349424
 40
0.0002104186
 40
0.0003025596
 40
0.0005367731
 40
0.0008374572
 40
0.0012044859
 40
0.0016377334
 40
0.0021370513
 40
0.0027021873
 40
0.0033328587
 40
0.0047896765
 40
0.0065052431
 40
0.0084770743
 40
0.0107014121
 40
0.0131740467
 40
0.0158907668
 40
0.0188471821
 40
0.0254598447
 40
0.0329729027
 40
0.0413434488
 40
0.0505263773
 40
0.0604772608
 40
0.0711521238
 40
0.0825073716
 40
0.0944997429
 40
0.1202335051
 40
0.1480494224
 40
0.1776758953
 40
0.2088744984
 40
0.2414379273
 40
0.2751869649
 40
0.3099680878
 40
0.3456474111
 40
0.3821097341
 40
0.4006033606
 40
0.4192570823
 40
0.4570019653
 40
0.4952719155
 40
0.5340003285
 40
0.5535203436
 40
0.5731307867
 40
0.6125753614
 40
0.6323995203
 40
0.6522674008
 40
0.6721617416
 40
0.6920634432
 40
0.7119526374
 40
0.7318099347
 40
0.7516198002
 40
0.7713666863
 40
0.791038602
 40
0.8106258111
 40
0.8301194029
 40
0.8495115191
 40
0.8879561606
 40
0.9069967334
 40
0.9259030003
 40
0.9632773876
 40
1.0
 40
1.0
 40
1.0
 40
1.0
 10
21.6868573125
 20
8.0521708734
 30
0.0
 10
21.6868541206
 20
8.0521699706
 30
0.0
 10
21.6868454512
 20
8.0521589295
 30
0.0
 10
21.6868216573
 20
8.0521429464
 30
0.0
 10
21.6867852219
 20
8.0521105338
 30
0.0
 10
21.6867329802
 20
8.0520679547
 30
0.0
 10
21.6866665038
 20
8.0520121632
 30
0.0
 10
21.6865482724
 20
8.0519136692
 30
0.0
 10
21.6863639886
 20
8.0517596167
 30
0.0
 10
21.6860989352
 20
8.0515380647
 30
0.0
 10
21.6857755148
 20
8.0512674518
 30
0.0
 10
21.6853938332
 20
8.0509479151
 30
0.0
 10
21.684954077
 20
8.0505795375
 30
0.0
 10
21.6844564034
 20
8.0501625417
 30
0.0
 10
21.6836776273
 20
8.0495099907
 30
0.0
 10
21.6825609964
 20
8.0485745549
 30
0.0
 10
21.6810501405
 20
8.0473097617
 30
0.0
 10
21.6793131696
 20
8.0458570907
 30
0.0
 10
21.6773531399
 20
8.0442191283
 30
0.0
 10
21.6751736295
 20
8.0423988682
 30
0.0
 10
21.6727784132
 20
8.0403994462
 30
0.0
 10
21.6691651528
 20
8.0373846628
 30
0.0
 10
21.6641390917
 20
8.0331955481
 30
0.0
 10
21.6575147635
 20
8.0276850376
 30
0.0
 10
21.6501273786
 20
8.0215524046
 30
0.0
 10
21.6420148878
 20
8.0148313677
 30
0.0
 10
21.6332139349
 20
8.007557871
 30
0.0
 10
21.6237601326
 20
7.9997682208
 30
0.0
 10
21.6136894378
 20
7.9914976282
 30
0.0
 10
21.5991408644
 20
7.9795912575
 30
0.0
 10
21.5796670723
 20
7.9637480414
 30
0.0
 10
21.5548602444
 20
7.9437577537
 30
0.0
 10
21.528304128
 20
7.9226030181
 30
0.0
 10
21.5001756716
 20
7.900504737
 30
0.0
 10
21.4706173099
 20
7.8776722544
 30
0.0
 10
21.4397379432
 20
7.8543079544
 30
0.0
 10
21.407613201
 20
7.8306157666
 30
0.0
 10
21.3742840428
 20
7.8068128918
 30
0.0
 10
21.3456546326
 20
7.7871722779
 30
0.0
 10
21.3221177088
 20
7.7716484029
 30
0.0
 10
21.2979585739
 20
7.7561807243
 30
0.0
 10
21.266960458
 20
7.7373512851
 30
0.0
 10
21.2284888972
 20
7.7160720652
 30
0.0
 10
21.1951955347
 20
7.6999396417
 30
0.0
 10
21.1676961606
 20
7.6883807255
 30
0.0
 10
21.139489064
 20
7.6778699208
 30
0.0
 10
21.1104286463
 20
7.6693551572
 30
0.0
 10
21.0806821574
 20
7.6634410693
 30
0.0
 10
21.0580361393
 20
7.6604612384
 30
0.0
 10
21.0352076326
 20
7.6590550168
 30
0.0
 10
21.0123281409
 20
7.6592753987
 30
0.0
 10
20.9895365825
 20
7.6611142452
 30
0.0
 10
20.9669611362
 20
7.6645044029
 30
0.0
 10
20.944703927
 20
7.6693153957
 30
0.0
 10
20.9228319711
 20
7.6753813114
 30
0.0
 10
20.9013874876
 20
7.6825469888
 30
0.0
 10
20.8803878855
 20
7.690655494
 30
0.0
 10
20.8598245804
 20
7.699543445
 30
0.0
 10
20.8330536303
 20
7.7122284581
 30
0.0
 10
20.807019021
 20
7.7260209632
 30
0.0
 10
20.7816448677
 20
7.7405936173
 30
0.0
 10
20.7569115042
 20
7.7554493814
 30
0.0
 10
20.7268532302
 20
7.7745780822
 30
0.0
 10
20.7033151845
 20
7.7904402125
 30
0.0
 10
20.6917347231
 20
7.798423888
 30
0.0
  0
SPLINE
  5
410
100
AcDbEntity
  8
0
100
AcDbSpline
 62
9
  6
CONTINUOUS
 70
0
 71
3
 72
43
 73
39
 74
0
 42
0.0000001
 43
0.0000001
 44
0.0000000001
 40
0.0
 40
0.0
 40
0.0
 40
0.0
 40
0.0963175779
 40
0.1904506056
 40
0.2820917812
 40
0.37088472
 40
0.4564196123
 40
0.5382265281
 40
0.6157607364
 40
0.6884023106
 40
0.7554546802
 40
0.7866466151
 40
0.8161440448
 40
0.8438398875
 40
0.8696260057
 40
0.8933936775
 40
0.9150324457
 40
0.9344313746
 40
0.9514880604
 40
0.9591080548
 40
0.9661070081
 40
0.9724744266
 40
0.9781999342
 40
0.9832732043
 40
0.9876858918
 40
0.9914322619
 40
0.9945067568
 40
0.9957903163
 40
0.9969039647
 40
0.9978473726
 40
0.998620231
 40
0.9992222315
 40
0.9994590634
 40
0.9996530651
 40
0.999804198
 40
0.9999124235
 40
0.9999777032
 40
1.0
 40
1.0
 40
1.0
 40
1.0
 10
20.6917347231
 20
7.798423888
 30
0.0
 10
20.6808346025
 20
7.8059385304
 30
0.0
 10
20.659425958
 20
7.8210075922
 30
0.0
 10
20.6280798564
 20
7.8438337124
 30
0.0
 10
20.5978592478
 20
7.8664424919
 30
0.0
 10
20.568819858
 20
7.8886532436
 30
0.0
 10
20.5410418865
 20
7.9102856513
 30
0.0
 10
20.5146348476
 20
7.931158085
 30
0.0
 10
20.4897381661
 20
7.95108226
 30
0.0
 10
20.4665196416
 20
7.9698568421
 30
0.0
 10
20.4483167238
 20
7.9847028281
 30
0.0
 10
20.4347386304
 20
7.9958360855
 30
0.0
 10
20.4253562104
 20
8.0035542717
 30
0.0
 10
20.4165585242
 20
8.0108136094
 30
0.0
 10
20.4083772258
 20
8.0175824622
 30
0.0
 10
20.4008439645
 20
8.0238284811
 30
0.0
 10
20.3939919437
 20
8.0295206058
 30
0.0
 10
20.3878544702
 20
8.0346292646
 30
0.0
 10
20.3832013584
 20
8.0385091432
 30
0.0
 10
20.3798585433
 20
8.0412989379
 30
0.0
 10
20.3776441762
 20
8.0431477439
 30
0.0
 10
20.3756301425
 20
8.0448301779
 30
0.0
 10
20.373819718
 20
8.0463434722
 30
0.0
 10
20.3722159894
 20
8.0476850935
 30
0.0
 10
20.3708214391
 20
8.0488527799
 30
0.0
 10
20.3696378288
 20
8.0498444305
 30
0.0
 10
20.3687839878
 20
8.0505599408
 30
0.0
 10
20.3682074009
 20
8.05104288
 30
0.0
 10
20.3678552891
 20
8.0513376168
 30
0.0
 10
20.3675569377
 20
8.0515872184
 30
0.0
 10
20.3673124338
 20
8.0517915629
 30
0.0
 10
20.3671424382
 20
8.0519336478
 30
0.0
 10
20.3670333727
 20
8.0520244885
 30
0.0
 10
20.3669720471
 20
8.0520759454
 30
0.0
 10
20.3669238518
 20
8.0521152159
 30
0.0
 10
20.3668902305
 20
8.0521451137
 30
0.0
 10
20.3668682737
 20
8.0521598537
 30
0.0
 10
20.3668602633
 20
8.0521700452
 30
0.0
 10
20.3668573125
 20
8.0521708734
 30
0.0
  0
ENDSEC
  0
SECTION
  2
OBJECTS
  0
DICTIONARY
  5
C
100
AcDbDictionary
280
0
281
1
  3
ACAD_GROUP
350
D
  3
ACAD_MLINESTYLE
350
17
  3
ACAD_LAYOUT
350
1A
  3
ACAD_PLOTSETTINGS
350
19
  3
ACAD_PLOTSTYLENAME
350
E
  0
DICTIONARY
  5
D
102
{ACAD_REACTORS
330
C
102
}
100
AcDbDictionary
280
0
281
1
  0
ACDBDICTIONARYWDFLT
  5
E
102
{ACAD_REACTORS
330
C
102
}
100
AcDbDictionary
281
1
  3
Normal
350
F
100
AcDbDictionaryWithDefault
340
F
  0
DICTIONARY
  5
17
102
{ACAD_REACTORS
330
C
102
}
100
AcDbDictionary
280
0
281
1
  3
Standard
350
18
  0
DICTIONARY
  5
19
102
{ACAD_REACTORS
330
C
102
}
100
AcDbDictionary
281
1
  0
DICTIONARY
  5
1A
102
{ACAD_REACTORS
330
C
102
}
100
AcDbDictionary
281
1
  3
Model
350
411
  3
Layout1
350
412
  0
ACDBPLACEHOLDER
  5
F
102
{ACAD_REACTORS
330
E
102
}
  0
MLINESTYLE
  5
18
102
{ACAD_REACTORS
330
17
102
}
100
AcDbMlineStyle
  2
STANDARD
 70
0
  3

 62
256
 51
90.0
 52
90.0
 71
2
 49
0.5
 62
256
  6
BYLAYER
 49
-0.5
 62
256
  6
BYLAYER
  0
LAYOUT
  5
411
102
{ACAD_REACTORS
330
1A
102
}
100
AcDbPlotSettings
  1

  2
none_device
  4
ANSI_C_(22.00_x_17.00_Inches)
  6

 40
0.0
 41
0.0
 42
0.0
 43
0.0
 44
558.8
 45
431.8
 46
0.0
 47
0.0
 48
0.0
 49
0.0
140
0.0
141
0.0
142
1.0
143
1.0
 70
1024
 72
0
 73
0
 74
0
  7

 75
0
147
1.0
148
0.0
149
0.0
100
AcDbLayout
  1
Model
 70
0
 71
0
 10
0.0
 20
0.0
 11
22.0
 21
17.0
 12
0.0
 22
0.0
 32
0.0
 14
0.0
 24
0.0
 34
0.0
 15
0.0
 25
0.0
 35
0.0
146
0.0
 13
0.0
 23
0.0
 33
0.0
 16
1.0
 26
0.0
 36
0.0
 17
0.0
 27
1.0
 37
0.0
 76
0
330
202
345
0
346
0
  0
LAYOUT
  5
412
102
{ACAD_REACTORS
330
1A
102
}
100
AcDbPlotSettings
  1

  2
none_device
  4
ANSI_C_(22.00_x_17.00_Inches)
  6

 40
0.0
 41
0.0
 42
0.0
 43
0.0
 44
558.8
 45
431.8
 46
0.0
 47
0.0
 48
0.0
 49
0.0
140
0.0
141
0.0
142
1.0
143
1.0
 70
0
 72
0
 73
0
 74
0
  7

 75
0
147
1.0
148
0.0
149
0.0
100
AcDbLayout
  1
Layout1
 70
0
 71
1
 10
0.0
 20
0.0
 11
22.0
 21
17.0
 12
0.0
 22
0.0
 32
0.0
 14
0.0
 24
0.0
 34
0.0
 15
0.0
 25
0.0
 35
0.0
146
0.0
 13
0.0
 23
0.0
 33
0.0
 16
1.0
 26
0.0
 36
0.0
 17
0.0
 27
1.0
 37
0.0
 76
0
330
203
345
0
346
0
  0
ENDSEC
  0
EOF
