999
DXF file: E:\BT Custom\CADOUTPUT\_TOP.dxf
999
Pro/ENGINEER 2018400 by Parametric Technology Corporation
  0
SECTION
  2
HEADER
  9
$ACADVER
  1
AC1018
  9
$DWGCODEPAGE
  3
ANSI_1252
  9
$EXTMAX
 10
22.0
 20
17.0
 30
0.0
  9
$EXTMIN
 10
0.0
 20
0.0
 30
0.0
  9
$LIMMIN
 10
0.0
 20
0.0
  9
$LIMMAX
 10
22.0
 20
17.0
  9
$VIEWCTR
 10
11.0
 20
8.5
  9
$VIEWSIZE
 40
17.0
  9
$CLAYER
  8
0
  9
$LTSCALE
 40
1.21
  9
$CELTYPE
  6
BYLAYER
  9
$DIMSCALE
 40
1.0
  9
$DIMASZ
 40
0.1
  9
$DIMEXO
 40
0.0625
  9
$DIMDLI
 40
0.836
  9
$DIMEXE
 40
0.125
  9
$DIMCEN
 40
0.198
  9
$DIMLFAC
 40
1.0
  9
$DIMBLK
  1
_FILLED
  9
$DIMALT
 70
1
  9
$DIMALTD
 70
2
  9
$DIMALTTD
 70
2
  9
$DIMALTF
 40
25.4
  9
$DIMTXT
 40
0.08
  9
$DIMTOL
 70
1
  9
$DIMLIM
 70
0
  9
$DIMTFAC
 40
1.0
  9
$DIMTP
 40
0.001
  9
$DIMTM
 40
0.001
  9
$DIMGAP
 40
0.09
  9
$DIMDSEP
 70
46
  9
$AUNITS
 70
0
  9
$PDMODE
 70
3
  9
$PDSIZE
 40
0.06
  9
$HANDSEED
  5
360
  9
$TILEMODE
 70
1
  9
$MEASUREMENT
 70
0
  9
$INSUNITS
 70
1
  0
ENDSEC
  0
SECTION
  2
CLASSES
  0
CLASS
  1
ACDBDICTIONARYWDFLT
  2
AcDbDictionaryWithDefault
  3
AutoCAD 2000
 90
0
 91
1
280
0
281
0
  0
CLASS
  1
ACDBPLACEHOLDER
  2
AcDbPlaceHolder
  3
AutoCAD 2000
 90
0
 91
1
280
0
281
0
  0
CLASS
  1
LAYOUT
  2
AcDbLayout
  3
AutoCAD 2000
 90
0
 91
0
280
0
281
0
  0
ENDSEC
  0
SECTION
  2
TABLES
  0
TABLE
  2
VPORT
  5
8
100
AcDbSymbolTable
 70
2
  0
VPORT
  5
1F4
100
AcDbSymbolTableRecord
100
AcDbViewportTableRecord
  2
*ACTIVE
 70
0
 10
0.0
 20
0.0
 11
1.0
 21
1.0
 12
11.0
 22
8.5
 13
0.0
 23
0.0
 14
1.0
 24
1.0
 15
0.0
 25
0.0
 16
0.0
 26
0.0
 36
1.0
 17
0.0
 27
0.0
 37
0.0
 40
17.0
 41
1.2941176471
 42
50.0
 43
0.0
 44
0.0
 50
0.0
 51
0.0
 71
0
 72
100
 73
1
 74
1
 75
0
 76
0
 77
0
 78
0
  0
ENDTAB
  0
TABLE
  2
LTYPE
  5
5
100
AcDbSymbolTable
 70
6
  0
LTYPE
  5
14
100
AcDbSymbolTableRecord
100
AcDbLinetypeTableRecord
  2
BYBLOCK
 70
0
  3

 72
65
 73
0
 40
0.0
  0
LTYPE
  5
15
100
AcDbSymbolTableRecord
100
AcDbLinetypeTableRecord
  2
BYLAYER
 70
0
  3

 72
65
 73
0
 40
0.0
  0
LTYPE
  5
16
100
AcDbSymbolTableRecord
100
AcDbLinetypeTableRecord
  2
CONTINUOUS
 70
64
  3
Solid line
 72
65
 73
0
 40
0.0
  0
LTYPE
  5
1F5
100
AcDbSymbolTableRecord
100
AcDbLinetypeTableRecord
  2
CENTER
 70
64
  3
____ _ ____ _ ____ _ ____ _ ____ _ ____ _ ____
 72
65
 73
4
 40
0.6
 49
0.375
 74
0
 49
-0.075
 74
0
 49
0.075
 74
0
 49
-0.075
 74
0
  0
LTYPE
  5
1F6
100
AcDbSymbolTableRecord
100
AcDbLinetypeTableRecord
  2
HIDDEN
 70
64
  3
- - - - - - - - - - - - - - - - - - - -
 72
65
 73
2
 40
0.2
 49
0.1
 74
0
 49
-0.1
 74
0
  0
LTYPE
  5
1F7
100
AcDbSymbolTableRecord
100
AcDbLinetypeTableRecord
  2
PHANTOM
 70
64
  3
_____ _ _ _____ _ _ _____ _ _ _____
 72
65
 73
6
 40
0.8
 49
0.45
 74
0
 49
-0.05
 74
0
 49
0.1
 74
0
 49
-0.05
 74
0
 49
0.1
 74
0
 49
-0.05
 74
0
  0
LTYPE
  5
1F8
100
AcDbSymbolTableRecord
100
AcDbLinetypeTableRecord
  2
DOT
 70
64
  3
. . . . . . . . . . . . . . . . . . . .
 72
65
 73
2
 40
0.2
 49
0.1
 74
0
 49
-0.1
 74
0
  0
LTYPE
  5
1F9
100
AcDbSymbolTableRecord
100
AcDbLinetypeTableRecord
  2
DASHED
 70
64
  3
- - - - - - - - - - - - - - - - - - - -
 72
65
 73
2
 40
0.2
 49
0.1
 74
0
 49
-0.1
 74
0
  0
ENDTAB
  0
TABLE
  2
LAYER
  5
2
100
AcDbSymbolTable
 70
36
  0
LAYER
  5
10
100
AcDbSymbolTableRecord
100
AcDbLayerTableRecord
  2
0
 70
0
 62
7
  6
CONTINUOUS
370
-3
390
F
  0
LAYER
  5
1FA
100
AcDbSymbolTableRecord
100
AcDbLayerTableRecord
  2
DEFAULT_1
 70
0
 62
7
  6
CENTER
370
-3
390
F
  0
LAYER
  5
1FB
100
AcDbSymbolTableRecord
100
AcDbLayerTableRecord
  2
DEFAULT_2
 70
0
 62
8
  6
HIDDEN
370
-3
390
F
  0
LAYER
  5
1FC
100
AcDbSymbolTableRecord
100
AcDbLayerTableRecord
  2
DEFAULT_3
 70
0
 62
7
  6
PHANTOM
370
-3
390
F
  0
LAYER
  5
1FD
100
AcDbSymbolTableRecord
100
AcDbLayerTableRecord
  2
ALL_FEATURES
 70
0
 62
7
  6
CONTINUOUS
370
-3
390
F
  0
LAYER
  5
1FE
100
AcDbSymbolTableRecord
100
AcDbLayerTableRecord
  2
AXES_FEATURES
 70
0
 62
7
  6
CONTINUOUS
370
-3
390
F
  0
LAYER
  5
1FF
100
AcDbSymbolTableRecord
100
AcDbLayerTableRecord
  2
DIMENSIONS
 70
0
 62
7
  6
CONTINUOUS
370
-3
390
F
  0
ENDTAB
  0
TABLE
  2
STYLE
  5
3
100
AcDbSymbolTable
 70
1
  0
STYLE
  5
11
100
AcDbSymbolTableRecord
100
AcDbTextStyleTableRecord
  2
STANDARD
 70
0
 40
0.0
 41
0.8
 50
0.0
 71
0
 42
0.2
  3
txt
  4

  0
STYLE
  5
200
100
AcDbSymbolTableRecord
100
AcDbTextStyleTableRecord
  2
TEXTSTYLE_1
 70
0
 40
0.0
 41
0.8
 50
0.0
 71
0
 42
0.2
  3
gdt
  4

  0
ENDTAB
  0
TABLE
  2
VIEW
  5
6
100
AcDbSymbolTable
 70
0
  0
ENDTAB
  0
TABLE
  2
UCS
  5
7
100
AcDbSymbolTable
 70
0
  0
ENDTAB
  0
TABLE
  2
APPID
  5
9
100
AcDbSymbolTable
 70
1
  0
APPID
  5
201
100
AcDbSymbolTableRecord
100
AcDbRegAppTableRecord
  2
ACAD
 70
0
  0
ENDTAB
  0
TABLE
  2
BLOCK_RECORD
  5
1
100
AcDbSymbolTable
 70
0
  0
BLOCK_RECORD
  5
202
100
AcDbSymbolTableRecord
100
AcDbBlockTableRecord
  2
*Model_Space
  0
BLOCK_RECORD
  5
203
100
AcDbSymbolTableRecord
100
AcDbBlockTableRecord
  2
*Paper_Space
  0
BLOCK_RECORD
  5
204
100
AcDbSymbolTableRecord
100
AcDbBlockTableRecord
  2
_FILLED
  0
ENDTAB
  0
TABLE
  2
DIMSTYLE
  5
A
100
AcDbSymbolTable
 70
1
100
AcDbDimStyleTable
 71
0
  0
DIMSTYLE
105
205
100
AcDbSymbolTableRecord
100
AcDbDimStyleTableRecord
  2
STANDARD
 70
0
  3

  4

 40
1.0
 41
0.1
 42
0.0625
 43
0.38
 44
0.125
 45
0.0
 46
0.0
 47
0.001
 48
0.001
140
0.08
141
0.09
142
0.0
143
25.4
144
1.0
145
0.0
146
1.0
147
0.09
 71
1.0
 72
0.0
 73
1
 74
1
 75
0
 76
0
 77
0
 78
4
 79
1
170
1
171
2
172
0
173
0
174
0
175
0
176
0
177
0
178
0
270
2
179
3
271
3
272
3
273
2
274
2
275
0
280
0
281
0
282
0
283
1
284
4
285
0
286
0
287
3
288
0
340
11
278
46
341
204
342
204
343
204
344
204
  0
ENDTAB
  0
ENDSEC
  0
SECTION
  2
BLOCKS
  0
BLOCK
  5
20
100
AcDbEntity
  8
0
100
AcDbBlockBegin
  2
*Model_Space
 70
0
 10
0.0
 20
0.0
 30
0.0
  3
*Model_Space
  1

  0
ENDBLK
  5
21
100
AcDbEntity
  8
0
100
AcDbBlockEnd
  0
BLOCK
  5
1C
100
AcDbEntity
  8
0
100
AcDbBlockBegin
  2
*Paper_Space
 70
0
 10
0.0
 20
0.0
 30
0.0
  3
*Paper_Space
  1

  0
ENDBLK
  5
1D
100
AcDbEntity
  8
0
100
AcDbBlockEnd
  0
BLOCK
  5
206
100
AcDbEntity
  8
0
100
AcDbBlockBegin
  2
_FILLED
 70
64
 10
0.0
 20
0.0
  3
_FILLED
  1

  0
SOLID
  5
207
100
AcDbEntity
  8
0
  6
BYBLOCK
 62
0
100
AcDbTrace
 10
0.0
 20
0.0
 11
-1.0
 21
0.2
 12
-1.0
 22
-0.2
 13
-1.0
 23
-0.2
  0
ENDBLK
  5
208
100
AcDbEntity
  8
0
  6
BYBLOCK
 62
0
100
AcDbBlockEnd
  0
ENDSEC
  0
SECTION
  2
ENTITIES
  0
LWPOLYLINE
  5
209
100
AcDbEntity
  8
0
100
AcDbPolyline
 62
7
  6
CONTINUOUS
 90
3
 70
0
 10
11.0542510076
 20
-6.3218741676
 10
11.0562861144
 20
-6.3218638907
 10
11.0598988507
 20
-6.322117577
  0
LINE
  5
20A
100
AcDbEntity
  8
0
100
AcDbLine
 62
7
  6
CONTINUOUS
 10
11.0383505622
 20
-6.3218638907
 11
11.0403856689
 21
-6.3218741676
  0
LINE
  5
20B
100
AcDbEntity
  8
0
100
AcDbLine
 62
7
  6
CONTINUOUS
 10
11.0317141549
 20
-6.3226499505
 11
11.0317506429
 21
-6.3226435261
  0
LINE
  5
20C
100
AcDbEntity
  8
0
100
AcDbLine
 62
7
  6
CONTINUOUS
 10
11.0347954128
 20
-6.3221135332
 11
11.0384970206
 21
-6.3218610462
  0
LINE
  5
20D
100
AcDbEntity
  8
0
100
AcDbLine
 62
9
  6
CONTINUOUS
 10
11.0493117991
 20
-6.295049293
 11
11.1977588083
 21
-6.295048319
  0
LINE
  5
20E
100
AcDbEntity
  8
0
100
AcDbLine
 62
9
  6
CONTINUOUS
 10
10.8968762676
 20
-6.2950470257
 11
11.0473183383
 21
-6.295049293
  0
LINE
  5
20F
100
AcDbEntity
  8
0
100
AcDbLine
 62
9
  6
CONTINUOUS
 10
10.8894499702
 20
-6.2794938262
 11
11.2051867064
 21
-6.2794938262
  0
LINE
  5
210
100
AcDbEntity
  8
0
100
AcDbLine
 62
7
  6
CONTINUOUS
 10
11.4023183383
 20
-6.2517943162
 11
11.2051867064
 21
-6.2517943162
  0
LINE
  5
211
100
AcDbEntity
  8
0
100
AcDbLine
 62
7
  6
CONTINUOUS
 10
10.8894499702
 20
-6.2517943162
 11
10.6923183383
 21
-6.2517943162
  0
LINE
  5
212
100
AcDbEntity
  8
0
100
AcDbLine
 62
9
  6
CONTINUOUS
 10
11.2051867064
 20
-6.2467943162
 11
10.8894499702
 21
-6.2467943162
  0
LINE
  5
213
100
AcDbEntity
  8
0
100
AcDbLine
 62
9
  6
CONTINUOUS
 10
10.6923183383
 20
-6.2377569828
 11
10.8871692278
 21
-6.2377569828
  0
LINE
  5
214
100
AcDbEntity
  8
0
100
AcDbLine
 62
9
  6
CONTINUOUS
 10
11.2074674488
 20
-6.2377569828
 11
11.4023183383
 21
-6.2377569828
  0
LINE
  5
215
100
AcDbEntity
  8
0
100
AcDbLine
 62
7
  6
CONTINUOUS
 10
10.8048183383
 20
-6.2267943162
 11
11.2898183383
 21
-6.2267943162
  0
LINE
  5
216
100
AcDbEntity
  8
0
100
AcDbLine
 62
9
  6
CONTINUOUS
 10
10.7848224691
 20
-6.2067943162
 11
11.3098183383
 21
-6.2067943162
  0
LINE
  5
217
100
AcDbEntity
  8
0
100
AcDbLine
 62
9
  6
CONTINUOUS
 10
11.4023183383
 20
-5.9908316497
 11
11.3098183383
 21
-5.9908316497
  0
LINE
  5
218
100
AcDbEntity
  8
0
100
AcDbLine
 62
9
  6
CONTINUOUS
 10
10.7848183383
 20
-5.9908316497
 11
10.6923183383
 21
-5.9908316497
  0
LINE
  5
219
100
AcDbEntity
  8
0
100
AcDbLine
 62
7
  6
CONTINUOUS
 10
10.6923183383
 20
-5.9767943162
 11
11.4023183383
 21
-5.9767943162
  0
LINE
  5
21A
100
AcDbEntity
  8
0
100
AcDbLine
 62
9
  6
CONTINUOUS
 10
10.6723183383
 20
-5.9567943162
 11
11.4223183383
 21
-5.9567943162
  0
LINE
  5
21B
100
AcDbEntity
  8
0
100
AcDbLine
 62
9
  6
CONTINUOUS
 10
11.4223183383
 20
-5.7217943162
 11
10.6723183383
 21
-5.7217943162
  0
LINE
  5
21C
100
AcDbEntity
  8
0
100
AcDbLine
 62
7
  6
CONTINUOUS
 10
10.6923183383
 20
-5.7017943162
 11
11.4023183383
 21
-5.7017943162
  0
LINE
  5
21D
100
AcDbEntity
  8
0
100
AcDbLine
 62
7
  6
CONTINUOUS
 10
11.0597849979
 20
-6.3221038213
 11
11.0629225216
 21
-6.3226499505
  0
LINE
  5
21E
100
AcDbEntity
  8
0
100
AcDbLine
 62
7
  6
CONTINUOUS
 10
10.9386888432
 20
-6.3216051335
 11
10.9386164859
 21
-6.3215860959
  0
LWPOLYLINE
  5
21F
100
AcDbEntity
  8
0
100
AcDbPolyline
 62
7
  6
CONTINUOUS
 90
4
 70
0
 10
10.9386192024
 20
-6.3215868517
 10
10.9385911148
 20
-6.3215790363
 10
10.9387283009
 20
-6.321621802
 10
10.9390995024
 20
-6.3217454569
  0
LINE
  5
220
100
AcDbEntity
  8
0
100
AcDbLine
 62
7
  6
CONTINUOUS
 10
11.0628501263
 20
-6.3226328874
 11
11.0628860337
 21
-6.3226435261
  0
LWPOLYLINE
  5
221
100
AcDbEntity
  8
0
100
AcDbPolyline
 62
7
  6
CONTINUOUS
 90
4
 70
0
 10
11.0629225216
 20
-6.3226499505
 10
11.0650304747
 20
-6.3232818711
 10
11.0660990847
 20
-6.3237678356
 10
11.066239454
 20
-6.3238539708
  0
LWPOLYLINE
  5
222
100
AcDbEntity
  8
0
100
AcDbPolyline
 62
7
  6
CONTINUOUS
 90
3
 70
0
 10
10.9386132188
 20
-6.3215852363
 10
10.9389134282
 20
-6.3216825488
 10
10.9393798244
 20
-6.3218425013
  0
LINE
  5
223
100
AcDbEntity
  8
0
100
AcDbLine
 62
7
  6
CONTINUOUS
 10
10.9390995024
 20
-6.3217454569
 11
10.9396631124
 21
-6.3219425726
  0
LINE
  5
224
100
AcDbEntity
  8
0
100
AcDbLine
 62
7
  6
CONTINUOUS
 10
10.9393798244
 20
-6.3218425013
 11
10.9400073777
 21
-6.32206619
  0
LINE
  5
225
100
AcDbEntity
  8
0
100
AcDbLine
 62
7
  6
CONTINUOUS
 10
10.9396631124
 20
-6.3219425726
 11
10.9407712062
 21
-6.3223460734
  0
LINE
  5
226
100
AcDbEntity
  8
0
100
AcDbLine
 62
7
  6
CONTINUOUS
 10
10.9403818151
 20
-6.3222025627
 11
10.9416621691
 21
-6.3226793796
  0
LINE
  5
227
100
AcDbEntity
  8
0
100
AcDbLine
 62
7
  6
CONTINUOUS
 10
10.9412408566
 20
-6.3225210228
 11
10.9426742099
 21
-6.323064155
  0
LINE
  5
228
100
AcDbEntity
  8
0
100
AcDbLine
 62
7
  6
CONTINUOUS
 10
10.9422321122
 20
-6.3228953977
 11
10.9445894727
 21
-6.3238046087
  0
LINE
  5
229
100
AcDbEntity
  8
0
100
AcDbLine
 62
7
  6
CONTINUOUS
 10
10.9438028928
 20
-6.3234988745
 11
10.9463911207
 21
-6.3245115898
  0
LINE
  5
22A
100
AcDbEntity
  8
0
100
AcDbLine
 62
7
  6
CONTINUOUS
 10
10.9459456056
 20
-6.3243360037
 11
10.9493875612
 21
-6.3257031841
  0
LINE
  5
22B
100
AcDbEntity
  8
0
100
AcDbLine
 62
7
  6
CONTINUOUS
 10
10.4961561764
 20
-5.2657943162
 11
11.5984805859
 21
-5.2657943162
  0
LINE
  5
22C
100
AcDbEntity
  8
0
100
AcDbLine
 62
9
  6
CONTINUOUS
 10
10.4761560906
 20
-5.2457943162
 11
11.6184805859
 21
-5.2457943162
  0
LINE
  5
22D
100
AcDbEntity
  8
0
100
AcDbLine
 62
9
  6
CONTINUOUS
 10
11.6184805859
 20
-4.9107943162
 11
10.4761560906
 21
-4.9107943162
  0
LINE
  5
22E
100
AcDbEntity
  8
0
100
AcDbLine
 62
7
  6
CONTINUOUS
 10
11.5181382248
 20
-4.8907943162
 11
11.5180396145
 21
-4.8907943276
  0
LINE
  5
22F
100
AcDbEntity
  8
0
100
AcDbLine
 62
7
  6
CONTINUOUS
 10
11.5984805001
 20
-4.8907943162
 11
11.5181382248
 21
-4.8907943162
  0
LINE
  5
230
100
AcDbEntity
  8
0
100
AcDbLine
 62
7
  6
CONTINUOUS
 10
10.6867538371
 20
-4.8907943162
 11
10.9370629529
 21
-4.8907943162
  0
LINE
  5
231
100
AcDbEntity
  8
0
100
AcDbLine
 62
7
  6
CONTINUOUS
 10
11.1575737236
 20
-4.8907943162
 11
11.4078828394
 21
-4.8907943162
  0
LINE
  5
232
100
AcDbEntity
  8
0
100
AcDbLine
 62
9
  6
CONTINUOUS
 10
10.5848183383
 20
-4.8607943162
 11
10.6051778357
 21
-4.8607943162
  0
LINE
  5
233
100
AcDbEntity
  8
0
100
AcDbLine
 62
9
  6
CONTINUOUS
 10
10.708717157
 20
-4.8607943162
 11
10.943779017
 21
-4.8607943162
  0
LINE
  5
234
100
AcDbEntity
  8
0
100
AcDbLine
 62
9
  6
CONTINUOUS
 10
11.1508576596
 20
-4.8607943162
 11
11.3859195196
 21
-4.8607943162
  0
LINE
  5
235
100
AcDbEntity
  8
0
100
AcDbLine
 62
9
  6
CONTINUOUS
 10
11.4894588408
 20
-4.8607943162
 11
11.5098168216
 21
-4.8607943162
  0
LINE
  5
236
100
AcDbEntity
  8
0
100
AcDbLine
 62
7
  6
CONTINUOUS
 10
10.5766060959
 20
-4.8907943287
 11
10.4961561764
 21
-4.8907943162
  0
LINE
  5
237
100
AcDbEntity
  8
0
100
AcDbLine
 62
7
  6
CONTINUOUS
 10
10.9489851468
 20
-6.3255422075
 11
10.9527446366
 21
-6.327056113
  0
LINE
  5
238
100
AcDbEntity
  8
0
100
AcDbLine
 62
7
  6
CONTINUOUS
 10
10.9524158959
 20
-6.3269229515
 11
10.9562570522
 21
-6.3284887711
  0
LINE
  5
239
100
AcDbEntity
  8
0
100
AcDbLine
 62
7
  6
CONTINUOUS
 10
12.4873183383
 20
21.1053937053
 11
12.4166003706
 21
21.0645646676
  0
LINE
  5
23A
100
AcDbEntity
  8
0
100
AcDbLine
 62
7
  6
CONTINUOUS
 10
10.4973183383
 20
-4.3407943162
 11
11.5973183383
 21
-4.3407943162
  0
LINE
  5
23B
100
AcDbEntity
  8
0
100
AcDbLine
 62
7
  6
CONTINUOUS
 10
11.5973183383
 20
-2.2407943162
 11
10.4973183383
 21
-2.2407943162
  0
LINE
  5
23C
100
AcDbEntity
  8
0
100
AcDbLine
 62
9
  6
CONTINUOUS
 10
10.9562446537
 20
-6.3284484887
 11
10.9562570525
 21
-6.3284887712
  0
LINE
  5
23D
100
AcDbEntity
  8
0
100
AcDbLine
 62
9
  6
CONTINUOUS
 10
11.0175389731
 20
-6.3445817412
 11
11.0175340118
 21
-6.344543363
  0
LINE
  5
23E
100
AcDbEntity
  8
0
100
AcDbLine
 62
7
  6
CONTINUOUS
 10
11.0648182567
 20
-6.3232182525
 11
11.0658954401
 21
-6.335530516
  0
LINE
  5
23F
100
AcDbEntity
  8
0
100
AcDbLine
 62
9
  6
CONTINUOUS
 10
11.0771017574
 20
-6.344502895
 11
11.0756936812
 21
-6.3284085112
  0
LINE
  5
240
100
AcDbEntity
  8
0
100
AcDbLine
 62
9
  6
CONTINUOUS
 10
11.1585194935
 20
-6.3208374153
 11
11.1585100591
 21
-6.3207296651
  0
LINE
  5
241
100
AcDbEntity
  8
0
100
AcDbLine
 62
7
  6
CONTINUOUS
 10
9.5873183383
 20
21.1400347214
 11
9.5873183383
 21
21.3092056838
  0
LINE
  5
242
100
AcDbEntity
  8
0
100
AcDbLine
 62
7
  6
CONTINUOUS
 10
9.7719960216
 20
20.8992056838
 11
9.7719960216
 21
21.0192056838
  0
LINE
  5
243
100
AcDbEntity
  8
0
100
AcDbLine
 62
9
  6
CONTINUOUS
 10
9.7800344974
 20
21.0192056838
 11
9.7800344974
 21
20.8992056838
  0
LINE
  5
244
100
AcDbEntity
  8
0
100
AcDbLine
 62
7
  6
CONTINUOUS
 10
10.0473183383
 20
20.7792056838
 11
10.0473183383
 21
20.8192056838
  0
LINE
  5
245
100
AcDbEntity
  8
0
100
AcDbLine
 62
7
  6
CONTINUOUS
 10
10.5773260027
 20
6.1692056838
 11
11.5173106738
 21
6.1692056838
  0
LINE
  5
246
100
AcDbEntity
  8
0
100
AcDbLine
 62
9
  6
CONTINUOUS
 10
11.0403832148
 20
-6.3218360566
 11
11.0403844026
 21
-6.3218741281
  0
LINE
  5
247
100
AcDbEntity
  8
0
100
AcDbLine
 62
7
  6
CONTINUOUS
 10
10.3606860368
 20
16.0262056838
 11
10.3606860368
 21
16.4862056838
  0
LINE
  5
248
100
AcDbEntity
  8
0
100
AcDbLine
 62
9
  6
CONTINUOUS
 10
10.3660450206
 20
16.4862056838
 11
10.3660450206
 21
16.0262056838
  0
LINE
  5
249
100
AcDbEntity
  8
0
100
AcDbLine
 62
7
  6
CONTINUOUS
 10
10.3848183383
 20
16.8992056838
 11
10.3848183383
 21
20.7392056838
  0
LINE
  5
24A
100
AcDbEntity
  8
0
100
AcDbLine
 62
9
  6
CONTINUOUS
 10
10.3876956557
 20
20.8992056838
 11
10.3876956557
 21
21.0192056838
  0
LINE
  5
24B
100
AcDbEntity
  8
0
100
AcDbLine
 62
9
  6
CONTINUOUS
 10
10.43965718
 20
21.0592056838
 11
10.43965718
 21
20.8592056838
  0
LINE
  5
24C
100
AcDbEntity
  8
0
100
AcDbLine
 62
7
  6
CONTINUOUS
 10
10.4761560906
 20
-5.2457943162
 11
10.4761560906
 21
-4.9107943162
  0
LINE
  5
24D
100
AcDbEntity
  8
0
100
AcDbLine
 62
9
  6
CONTINUOUS
 10
10.4815150745
 20
-4.9107943162
 11
10.4815150745
 21
-5.2457943162
  0
LINE
  5
24E
100
AcDbEntity
  8
0
100
AcDbLine
 62
7
  6
CONTINUOUS
 10
10.4973183383
 20
-4.3407943162
 11
10.4973183383
 21
-2.2407943162
  0
LINE
  5
24F
100
AcDbEntity
  8
0
100
AcDbLine
 62
7
  6
CONTINUOUS
 10
10.5223183383
 20
16.8992056838
 11
10.5223183383
 21
16.5362056838
  0
LINE
  5
250
100
AcDbEntity
  8
0
100
AcDbLine
 62
7
  6
CONTINUOUS
 10
10.5773183383
 20
17.4058848228
 11
10.5773183383
 21
16.7392056838
  0
LINE
  5
251
100
AcDbEntity
  8
0
100
AcDbLine
 62
7
  6
CONTINUOUS
 10
10.5773183383
 20
6.8358848228
 11
10.5773183383
 21
6.1692056838
  0
LINE
  5
252
100
AcDbEntity
  8
0
100
AcDbLine
 62
7
  6
CONTINUOUS
 10
10.5773183383
 20
7.622526545
 11
10.5773183383
 21
8.2892056838
  0
LINE
  5
253
100
AcDbEntity
  8
0
100
AcDbLine
 62
7
  6
CONTINUOUS
 10
10.5848183383
 20
-4.3407943162
 11
10.5848183383
 21
-4.8607943162
  0
LINE
  5
254
100
AcDbEntity
  8
0
100
AcDbLine
 62
7
  6
CONTINUOUS
 10
10.6723183383
 20
-5.7217943162
 11
10.6723183383
 21
-6.2317943162
  0
LINE
  5
255
100
AcDbEntity
  8
0
100
AcDbLine
 62
7
  6
CONTINUOUS
 10
10.6723183383
 20
-2.2407943162
 11
10.6723183383
 21
6.1692056838
  0
LINE
  5
256
100
AcDbEntity
  8
0
100
AcDbLine
 62
7
  6
CONTINUOUS
 10
10.6723183383
 20
8.2892056838
 11
10.6723183383
 21
16.7392056838
  0
LINE
  5
257
100
AcDbEntity
  8
0
100
AcDbLine
 62
9
  6
CONTINUOUS
 10
10.6923183383
 20
-5.9767943162
 11
10.6923183383
 21
-6.2517943162
  0
LINE
  5
258
100
AcDbEntity
  8
0
100
AcDbLine
 62
7
  6
CONTINUOUS
 10
10.7348183383
 20
-5.2657943162
 11
10.7348183383
 21
-5.7017943162
  0
LINE
  5
259
100
AcDbEntity
  8
0
100
AcDbLine
 62
9
  6
CONTINUOUS
 10
10.7470961983
 20
-5.2457943162
 11
10.7470961983
 21
-4.9107943162
  0
LINE
  5
25A
100
AcDbEntity
  8
0
100
AcDbLine
 62
9
  6
CONTINUOUS
 10
10.7817372145
 20
-4.8907943162
 11
10.7817372145
 21
-5.2657943162
  0
LINE
  5
25B
100
AcDbEntity
  8
0
100
AcDbLine
 62
7
  6
CONTINUOUS
 10
10.7848183383
 20
-6.2067943162
 11
10.7848183383
 21
-5.9767943162
  0
LINE
  5
25C
100
AcDbEntity
  8
0
100
AcDbLine
 62
9
  6
CONTINUOUS
 10
10.8593183383
 20
-5.7017943162
 11
10.8593183383
 21
-5.9767943162
  0
LINE
  5
25D
100
AcDbEntity
  8
0
100
AcDbLine
 62
7
  6
CONTINUOUS
 10
10.8894499702
 20
-6.2794938262
 11
10.8894499702
 21
-6.2467943162
  0
LINE
  5
25E
100
AcDbEntity
  8
0
100
AcDbLine
 62
9
  6
CONTINUOUS
 10
11.0473182828
 20
18.3992051232
 11
11.0473183204
 21
18.4592056839
  0
LINE
  5
25F
100
AcDbEntity
  8
0
100
AcDbLine
 62
9
  6
CONTINUOUS
 10
11.0473183167
 20
17.1392056838
 11
11.0473183297
 21
17.1992058009
  0
LINE
  5
260
100
AcDbEntity
  8
0
100
AcDbLine
 62
9
  6
CONTINUOUS
 10
11.04731836
 20
7.8892056838
 11
11.0473183455
 21
7.8292055527
  0
LINE
  5
261
100
AcDbEntity
  8
0
100
AcDbLine
 62
9
  6
CONTINUOUS
 10
11.0473183167
 20
6.5692056838
 11
11.0473183297
 21
6.6292058009
  0
LWPOLYLINE
  5
262
100
AcDbEntity
  8
0
100
AcDbPolyline
 62
7
  6
CONTINUOUS
 90
4
 70
0
 10
11.5173169688
 20
17.4058848256
 10
11.5181954037
 20
17.4161137245
 10
11.5221871409
 20
17.4295627052
 10
11.5291341724
 20
17.4416376954
  0
LWPOLYLINE
  5
263
100
AcDbEntity
  8
0
100
AcDbPolyline
 62
7
  6
CONTINUOUS
 90
4
 70
0
 10
10.5773197106
 20
7.6225265449
 10
10.5764193263
 20
7.6121715959
 10
10.572424228
 20
7.5987898305
 10
10.5655025092
 20
7.5867736827
  0
LWPOLYLINE
  5
264
100
AcDbEntity
  8
0
100
AcDbPolyline
 62
7
  6
CONTINUOUS
 90
4
 70
0
 10
10.5655025088
 20
6.8716376855
 10
10.572449553
 20
6.8595626655
 10
10.576441288
 20
6.8461136487
 10
10.5773197105
 20
6.8358848228
  0
LINE
  5
265
100
AcDbEntity
  8
0
100
AcDbLine
 62
7
  6
CONTINUOUS
 10
11.2051867064
 20
-6.2794938262
 11
11.2051867064
 21
-6.2467943162
  0
LINE
  5
266
100
AcDbEntity
  8
0
100
AcDbLine
 62
9
  6
CONTINUOUS
 10
11.2353183383
 20
-5.9767943162
 11
11.2353183383
 21
-5.7017943162
  0
LINE
  5
267
100
AcDbEntity
  8
0
100
AcDbLine
 62
7
  6
CONTINUOUS
 10
11.3098183383
 20
-6.2067943162
 11
11.3098183383
 21
-5.9767943162
  0
LINE
  5
268
100
AcDbEntity
  8
0
100
AcDbLine
 62
9
  6
CONTINUOUS
 10
11.3128994621
 20
-5.2657943162
 11
11.3128994621
 21
-4.8907943162
  0
LINE
  5
269
100
AcDbEntity
  8
0
100
AcDbLine
 62
9
  6
CONTINUOUS
 10
11.3475404783
 20
-4.9107943162
 11
11.3475404783
 21
-5.2457943162
  0
LINE
  5
26A
100
AcDbEntity
  8
0
100
AcDbLine
 62
7
  6
CONTINUOUS
 10
11.3598183383
 20
-5.2657943162
 11
11.3598183383
 21
-5.7017943162
  0
LINE
  5
26B
100
AcDbEntity
  8
0
100
AcDbLine
 62
9
  6
CONTINUOUS
 10
11.4023183383
 20
-6.2517943162
 11
11.4023183383
 21
-5.9767943162
  0
LINE
  5
26C
100
AcDbEntity
  8
0
100
AcDbLine
 62
7
  6
CONTINUOUS
 10
11.4223183383
 20
-5.7217943162
 11
11.4223183383
 21
-6.2317943162
  0
LINE
  5
26D
100
AcDbEntity
  8
0
100
AcDbLine
 62
7
  6
CONTINUOUS
 10
11.4223183383
 20
-2.2407943162
 11
11.4223183383
 21
6.1692056838
  0
LINE
  5
26E
100
AcDbEntity
  8
0
100
AcDbLine
 62
7
  6
CONTINUOUS
 10
11.4223183383
 20
8.2892056838
 11
11.4223183383
 21
16.7392056838
  0
LINE
  5
26F
100
AcDbEntity
  8
0
100
AcDbLine
 62
7
  6
CONTINUOUS
 10
11.5098183383
 20
-4.3407943162
 11
11.5098183383
 21
-4.8607943162
  0
LINE
  5
270
100
AcDbEntity
  8
0
100
AcDbLine
 62
7
  6
CONTINUOUS
 10
11.5173183383
 20
17.4058848256
 11
11.5173183383
 21
16.7392056838
  0
LINE
  5
271
100
AcDbEntity
  8
0
100
AcDbLine
 62
7
  6
CONTINUOUS
 10
11.5173183383
 20
6.8358848256
 11
11.5173183383
 21
6.1692056838
  0
LINE
  5
272
100
AcDbEntity
  8
0
100
AcDbLine
 62
7
  6
CONTINUOUS
 10
11.5173183383
 20
7.6225265421
 11
11.5173183383
 21
8.2892056838
  0
LINE
  5
273
100
AcDbEntity
  8
0
100
AcDbLine
 62
7
  6
CONTINUOUS
 10
11.5723183383
 20
16.8992056838
 11
11.5723183383
 21
16.5362056838
  0
LINE
  5
274
100
AcDbEntity
  8
0
100
AcDbLine
 62
7
  6
CONTINUOUS
 10
11.5973183383
 20
-4.3407943162
 11
11.5973183383
 21
-2.2407943162
  0
LINE
  5
275
100
AcDbEntity
  8
0
100
AcDbLine
 62
9
  6
CONTINUOUS
 10
11.6131216021
 20
-5.2457943162
 11
11.6131216021
 21
-4.9107943162
  0
LINE
  5
276
100
AcDbEntity
  8
0
100
AcDbLine
 62
7
  6
CONTINUOUS
 10
11.6184805859
 20
-5.2457943162
 11
11.6184805859
 21
-4.9107943162
  0
LINE
  5
277
100
AcDbEntity
  8
0
100
AcDbLine
 62
9
  6
CONTINUOUS
 10
11.6549794966
 20
20.8592056838
 11
11.6549794966
 21
21.0592056838
  0
LINE
  5
278
100
AcDbEntity
  8
0
100
AcDbLine
 62
9
  6
CONTINUOUS
 10
11.7069410208
 20
21.0192056838
 11
11.7069410208
 21
20.8992056838
  0
LINE
  5
279
100
AcDbEntity
  8
0
100
AcDbLine
 62
7
  6
CONTINUOUS
 10
11.7098183383
 20
16.8992056838
 11
11.7098183383
 21
20.7392056838
  0
LINE
  5
27A
100
AcDbEntity
  8
0
100
AcDbLine
 62
9
  6
CONTINUOUS
 10
11.7285916559
 20
16.0262056838
 11
11.7285916559
 21
16.4862056838
  0
LINE
  5
27B
100
AcDbEntity
  8
0
100
AcDbLine
 62
7
  6
CONTINUOUS
 10
11.7339506398
 20
16.0262056838
 11
11.7339506398
 21
16.4862056838
  0
LINE
  5
27C
100
AcDbEntity
  8
0
100
AcDbLine
 62
7
  6
CONTINUOUS
 10
12.0473183383
 20
20.7792056838
 11
12.0473183383
 21
20.8192056838
  0
LINE
  5
27D
100
AcDbEntity
  8
0
100
AcDbLine
 62
9
  6
CONTINUOUS
 10
11.0542522676
 20
-6.3218741283
 11
11.0542534558
 21
-6.3218360568
  0
LWPOLYLINE
  5
27E
100
AcDbEntity
  8
0
100
AcDbPolyline
 62
7
  6
CONTINUOUS
 90
4
 70
0
 10
11.5173169688
 20
6.8358848256
 10
11.5181954037
 20
6.8461137245
 10
11.5221871409
 20
6.8595627052
 10
11.5291341724
 20
6.8716376954
  0
LINE
  5
27F
100
AcDbEntity
  8
0
100
AcDbLine
 62
7
  6
CONTINUOUS
 10
11.5173105216
 20
8.2892056838
 11
10.577326155
 21
8.2892056838
  0
LWPOLYLINE
  5
280
100
AcDbEntity
  8
0
100
AcDbPolyline
 62
7
  6
CONTINUOUS
 90
4
 70
0
 10
11.5291341721
 20
7.5867736727
 10
11.5222124693
 20
7.5987897831
 10
11.5182173675
 20
7.6121715084
 10
11.5173169686
 20
7.622526542
  0
LINE
  5
281
100
AcDbEntity
  8
0
100
AcDbLine
 62
9
  6
CONTINUOUS
 10
12.3146021791
 20
20.8992056838
 11
12.3146021791
 21
21.0192056838
  0
LINE
  5
282
100
AcDbEntity
  8
0
100
AcDbLine
 62
7
  6
CONTINUOUS
 10
12.3226406549
 20
20.8992056838
 11
12.3226406549
 21
21.0192056838
  0
LINE
  5
283
100
AcDbEntity
  8
0
100
AcDbLine
 62
7
  6
CONTINUOUS
 10
12.5073183383
 20
21.1400347214
 11
12.5073183383
 21
21.3092056838
  0
LINE
  5
284
100
AcDbEntity
  8
0
100
AcDbLine
 62
9
  6
CONTINUOUS
 10
11.0189429953
 20
-6.3284085112
 11
11.0175349192
 21
-6.344502895
  0
LINE
  5
285
100
AcDbEntity
  8
0
100
AcDbLine
 62
7
  6
CONTINUOUS
 10
11.0287412364
 20
-6.335530516
 11
11.0298186212
 21
-6.3232159521
  0
LINE
  5
286
100
AcDbEntity
  8
0
100
AcDbLine
 62
9
  6
CONTINUOUS
 10
10.9361266175
 20
-6.3207296651
 11
10.9361171831
 21
-6.3208374153
  0
LINE
  5
287
100
AcDbEntity
  8
0
100
AcDbLine
 62
9
  6
CONTINUOUS
 10
11.0771026647
 20
-6.344543363
 11
11.0770979992
 21
-6.3445817042
  0
LINE
  5
288
100
AcDbEntity
  8
0
100
AcDbLine
 62
9
  6
CONTINUOUS
 10
11.1383796236
 20
-6.3284887714
 11
11.1383920226
 21
-6.3284484889
  0
LWPOLYLINE
  5
289
100
AcDbEntity
  8
0
100
AcDbPolyline
 62
7
  6
CONTINUOUS
 90
4
 70
0
 10
10.5655025088
 20
17.4416376855
 10
10.572449553
 20
17.4295626655
 10
10.576441288
 20
17.4161136487
 10
10.5773197105
 20
17.4058848228
  0
LINE
  5
28A
100
AcDbEntity
  8
0
100
AcDbLine
 62
7
  6
CONTINUOUS
 10
10.3806861226
 20
16.0062056838
 11
10.6723183383
 21
16.0062056838
  0
LINE
  5
28B
100
AcDbEntity
  8
0
100
AcDbLine
 62
7
  6
CONTINUOUS
 10
11.4223183383
 20
16.0062056838
 11
11.7139506398
 21
16.0062056838
  0
LINE
  5
28C
100
AcDbEntity
  8
0
100
AcDbLine
 62
9
  6
CONTINUOUS
 10
10.3606860368
 20
16.0262056838
 11
10.6723183383
 21
16.0262056838
  0
LINE
  5
28D
100
AcDbEntity
  8
0
100
AcDbLine
 62
9
  6
CONTINUOUS
 10
11.4223183383
 20
16.0262056838
 11
11.7339506398
 21
16.0262056838
  0
LINE
  5
28E
100
AcDbEntity
  8
0
100
AcDbLine
 62
9
  6
CONTINUOUS
 10
11.7339506398
 20
16.4862056838
 11
11.4223183383
 21
16.4862056838
  0
LINE
  5
28F
100
AcDbEntity
  8
0
100
AcDbLine
 62
9
  6
CONTINUOUS
 10
10.6723183383
 20
16.4862056838
 11
10.3606860368
 21
16.4862056838
  0
LINE
  5
290
100
AcDbEntity
  8
0
100
AcDbLine
 62
7
  6
CONTINUOUS
 10
11.713950554
 20
16.5062056838
 11
11.4223183383
 21
16.5062056838
  0
LINE
  5
291
100
AcDbEntity
  8
0
100
AcDbLine
 62
7
  6
CONTINUOUS
 10
10.6723183383
 20
16.5062056838
 11
10.3806861226
 21
16.5062056838
  0
LINE
  5
292
100
AcDbEntity
  8
0
100
AcDbLine
 62
9
  6
CONTINUOUS
 10
10.5223183383
 20
16.5362056838
 11
10.6723183383
 21
16.5362056838
  0
LINE
  5
293
100
AcDbEntity
  8
0
100
AcDbLine
 62
9
  6
CONTINUOUS
 10
11.4223183383
 20
16.5362056838
 11
11.5723166274
 21
16.5362056838
  0
LINE
  5
294
100
AcDbEntity
  8
0
100
AcDbLine
 62
7
  6
CONTINUOUS
 10
10.5773260027
 20
16.7392056838
 11
11.5173106738
 21
16.7392056838
  0
LWPOLYLINE
  5
295
100
AcDbEntity
  8
0
100
AcDbPolyline
 62
7
  6
CONTINUOUS
 90
4
 70
0
 10
11.0285620327
 20
-6.3237035536
 10
11.0284425571
 20
-6.3238148607
 10
11.028548532
 20
-6.3237615683
 10
11.029642904
 20
-6.3232680141
  0
LINE
  5
296
100
AcDbEntity
  8
0
100
AcDbLine
 62
7
  6
CONTINUOUS
 10
10.3848192629
 20
16.8992056838
 11
10.5773183383
 21
16.8992056838
  0
LINE
  5
297
100
AcDbEntity
  8
0
100
AcDbLine
 62
7
  6
CONTINUOUS
 10
11.5173183383
 20
16.8992056838
 11
11.7098174136
 21
16.8992056838
  0
LINE
  5
298
100
AcDbEntity
  8
0
100
AcDbLine
 62
7
  6
CONTINUOUS
 10
9.6073183383
 20
21.1053937053
 11
9.678036306
 21
21.0645646676
  0
LINE
  5
299
100
AcDbEntity
  8
0
100
AcDbLine
 62
7
  6
CONTINUOUS
 10
11.1383796243
 20
-6.3284887711
 11
11.1422118725
 21
-6.3269265595
  0
LINE
  5
29A
100
AcDbEntity
  8
0
100
AcDbLine
 62
7
  6
CONTINUOUS
 10
11.1421327747
 20
-6.3269585524
 11
11.145639196
 21
-6.325547138
  0
LINE
  5
29B
100
AcDbEntity
  8
0
100
AcDbLine
 62
7
  6
CONTINUOUS
 10
11.1456163535
 20
-6.3255562453
 11
11.148699586
 21
-6.3243326412
  0
LINE
  5
29C
100
AcDbEntity
  8
0
100
AcDbLine
 62
7
  6
CONTINUOUS
 10
11.1486768927
 20
-6.3243415843
 11
11.1513262132
 21
-6.323308586
  0
LINE
  5
29D
100
AcDbEntity
  8
0
100
AcDbLine
 62
7
  6
CONTINUOUS
 10
11.1512718041
 20
-6.3233295563
 11
11.1524539211
 21
-6.3228766156
  0
LINE
  5
29E
100
AcDbEntity
  8
0
100
AcDbLine
 62
7
  6
CONTINUOUS
 10
11.1523898606
 20
-6.3229009943
 11
11.1534506648
 21
-6.3225004937
  0
LINE
  5
29F
100
AcDbEntity
  8
0
100
AcDbLine
 62
7
  6
CONTINUOUS
 10
11.1533814875
 20
-6.3225263895
 11
11.1543109652
 21
-6.3221820204
  0
LINE
  5
2A0
100
AcDbEntity
  8
0
100
AcDbLine
 62
7
  6
CONTINUOUS
 10
11.1542412389
 20
-6.3222075565
 11
11.1550262101
 21
-6.3219238515
  0
LWPOLYLINE
  5
2A1
100
AcDbEntity
  8
0
100
AcDbPolyline
 62
7
  6
CONTINUOUS
 90
3
 70
0
 10
11.1549611216
 20
-6.3219470053
 10
11.155526365
 20
-6.3217491534
 10
11.1559013149
 20
-6.3216240723
  0
LINE
  5
2A2
100
AcDbEntity
  8
0
100
AcDbLine
 62
7
  6
CONTINUOUS
 10
11.1559013149
 20
-6.3216240723
 11
11.1560162417
 21
-6.3215878563
  0
LWPOLYLINE
  5
2A3
100
AcDbEntity
  8
0
100
AcDbPolyline
 62
7
  6
CONTINUOUS
 90
3
 70
0
 10
11.029642904
 20
-6.3232680141
 10
11.0317865503
 20
-6.3226328874
 10
11.0348516787
 20
-6.3221038213
  0
LINE
  5
2A4
100
AcDbEntity
  8
0
100
AcDbLine
 62
7
  6
CONTINUOUS
 10
10.0873183383
 20
20.7392056838
 11
12.0073183383
 21
20.7392056838
  0
LINE
  5
2A5
100
AcDbEntity
  8
0
100
AcDbLine
 62
9
  6
CONTINUOUS
 10
10.0473183383
 20
20.7792056838
 11
12.0473183383
 21
20.7792056838
  0
LINE
  5
2A6
100
AcDbEntity
  8
0
100
AcDbLine
 62
9
  6
CONTINUOUS
 10
12.0473183383
 20
20.8192056838
 11
10.0473183383
 21
20.8192056838
  0
LINE
  5
2A7
100
AcDbEntity
  8
0
100
AcDbLine
 62
7
  6
CONTINUOUS
 10
9.8120032776
 20
20.8592056838
 11
12.2826333989
 21
20.8592056838
  0
LINE
  5
2A8
100
AcDbEntity
  8
0
100
AcDbLine
 62
9
  6
CONTINUOUS
 10
9.7719960216
 20
20.8992056838
 11
12.3226406549
 21
20.8992056838
  0
LINE
  5
2A9
100
AcDbEntity
  8
0
100
AcDbLine
 62
9
  6
CONTINUOUS
 10
12.3226406549
 20
21.0192056838
 11
9.7719960216
 21
21.0192056838
  0
LINE
  5
2AA
100
AcDbEntity
  8
0
100
AcDbLine
 62
7
  6
CONTINUOUS
 10
9.698036306
 20
21.0592056838
 11
12.3966003706
 21
21.0592056838
  0
LINE
  5
2AB
100
AcDbEntity
  8
0
100
AcDbLine
 62
9
  6
CONTINUOUS
 10
9.678036306
 20
21.0645646676
 11
12.4166003706
 21
21.0645646676
  0
LINE
  5
2AC
100
AcDbEntity
  8
0
100
AcDbLine
 62
9
  6
CONTINUOUS
 10
12.4873183383
 20
21.1053937053
 11
9.6073183383
 21
21.1053937053
  0
LINE
  5
2AD
100
AcDbEntity
  8
0
100
AcDbLine
 62
9
  6
CONTINUOUS
 10
9.5873183383
 20
21.1400347214
 11
12.5073183383
 21
21.1400347214
  0
LINE
  5
2AE
100
AcDbEntity
  8
0
100
AcDbLine
 62
7
  6
CONTINUOUS
 10
12.5073183383
 20
21.3092056838
 11
9.5873183383
 21
21.3092056838
  0
ARC
  5
2AF
100
AcDbEntity
  8
0
100
AcDbCircle
 62
9
  6
CONTINUOUS
 10
11.0215246601
 20
7.1462101869
 40
0.5831967526
100
AcDbArc
 50
305.8555481249
 51
306.714923474
  0
ARC
  5
2B0
100
AcDbEntity
  8
0
100
AcDbCircle
 62
9
  6
CONTINUOUS
 10
11.0473096227
 20
-6.1062191167
 40
0.2401389813
100
AcDbArc
 50
277.1265936694
 51
278.5828823366
  0
ARC
  5
2B1
100
AcDbEntity
  8
0
100
AcDbCircle
 62
9
  6
CONTINUOUS
 10
11.0473082361
 20
-6.1063852325
 40
0.2399722927
100
AcDbArc
 50
254.2568108948
 51
256.5430349342
  0
ARC
  5
2B2
100
AcDbEntity
  8
0
100
AcDbCircle
 62
9
  6
CONTINUOUS
 10
11.0473046369
 20
-6.106399273
 40
0.2399578022
100
AcDbArc
 50
252.0176412338
 51
254.256728436
  0
ARC
  5
2B3
100
AcDbEntity
  8
0
100
AcDbCircle
 62
9
  6
CONTINUOUS
 10
11.0472978451
 20
-6.1064055564
 40
0.2399502704
100
AcDbArc
 50
258.7333244732
 51
261.4173634
  0
ARC
  5
2B4
100
AcDbEntity
  8
0
100
AcDbCircle
 62
9
  6
CONTINUOUS
 10
11.0472947133
 20
-6.1064396148
 40
0.2399162564
100
AcDbArc
 50
256.5431533899
 51
258.7324688758
  0
ARC
  5
2B5
100
AcDbEntity
  8
0
100
AcDbCircle
 62
7
  6
CONTINUOUS
 10
11.047290365
 20
-6.1065615882
 40
0.239872338
100
AcDbArc
 50
247.6968306651
 51
262.8751796411
  0
ARC
  5
2B6
100
AcDbEntity
  8
0
100
AcDbCircle
 62
9
  6
CONTINUOUS
 10
11.0472793134
 20
-6.1064826043
 40
0.2398707236
100
AcDbArc
 50
249.5245037483
 51
252.0172495303
  0
ARC
  5
2B7
100
AcDbEntity
  8
0
100
AcDbCircle
 62
9
  6
CONTINUOUS
 10
11.0472051076
 20
-6.106681335
 40
0.2396585907
100
AcDbArc
 50
247.6954131727
 51
249.5245038005
  0
ARC
  5
2B8
100
AcDbEntity
  8
0
100
AcDbCircle
 62
7
  6
CONTINUOUS
 10
11.0473177098
 20
-6.1088943686
 40
0.2393437114
100
AcDbArc
 50
231.057048587
 51
242.3152752728
  0
ARC
  5
2B9
100
AcDbEntity
  8
0
100
AcDbCircle
 62
9
  6
CONTINUOUS
 10
11.047317177
 20
-6.0989449637
 40
0.2218924553
100
AcDbArc
 50
270.0002998693
 51
270.6069900495
  0
ARC
  5
2BA
100
AcDbEntity
  8
0
100
AcDbCircle
 62
9
  6
CONTINUOUS
 10
11.0473182324
 20
-6.0991594415
 40
0.2216779783
100
AcDbArc
 50
270.6073045255
 51
271.7865378282
  0
ARC
  5
2BB
100
AcDbEntity
  8
0
100
AcDbCircle
 62
9
  6
CONTINUOUS
 10
11.0365409895
 20
-6.3550570447
 40
0.0341699278
100
AcDbArc
 50
101.4997953635
 51
104.4847887467
  0
ARC
  5
2BC
100
AcDbEntity
  8
0
100
AcDbCircle
 62
7
  6
CONTINUOUS
 10
10.5548183383
 20
-4.8607943162
 40
0.03
100
AcDbArc
 50
270.0
 51
360.0
  0
ARC
  5
2BD
100
AcDbEntity
  8
0
100
AcDbCircle
 62
7
  6
CONTINUOUS
 10
10.8048183383
 20
-6.2067943162
 40
0.02
100
AcDbArc
 50
180.0
 51
270.0
  0
ARC
  5
2BE
100
AcDbEntity
  8
0
100
AcDbCircle
 62
7
  6
CONTINUOUS
 10
10.8694499702
 20
-6.2467943162
 40
0.02
100
AcDbArc
 50
0.0
 51
90.0
  0
ARC
  5
2BF
100
AcDbEntity
  8
0
100
AcDbCircle
 62
7
  6
CONTINUOUS
 10
10.9094499702
 20
-6.2794938262
 40
0.02
100
AcDbArc
 50
180.0
 51
231.0571544353
  0
ARC
  5
2C0
100
AcDbEntity
  8
0
100
AcDbCircle
 62
7
  6
CONTINUOUS
 10
10.6923183383
 20
-6.2317943162
 40
0.02
100
AcDbArc
 50
180.0
 51
270.0
  0
ARC
  5
2C1
100
AcDbEntity
  8
0
100
AcDbCircle
 62
7
  6
CONTINUOUS
 10
10.6923183383
 20
-5.9567943162
 40
0.02
100
AcDbArc
 50
180.0
 51
270.0
  0
ARC
  5
2C2
100
AcDbEntity
  8
0
100
AcDbCircle
 62
7
  6
CONTINUOUS
 10
10.6923183383
 20
-5.7217943162
 40
0.02
100
AcDbArc
 50
90.0
 51
180.0
  0
ARC
  5
2C3
100
AcDbEntity
  8
0
100
AcDbCircle
 62
7
  6
CONTINUOUS
 10
10.4961560906
 20
-4.9107943162
 40
0.02
100
AcDbArc
 50
90.0
 51
179.9999999994
  0
ARC
  5
2C4
100
AcDbEntity
  8
0
100
AcDbCircle
 62
7
  6
CONTINUOUS
 10
10.4961560906
 20
-5.2457943162
 40
0.02
100
AcDbArc
 50
180.0
 51
270.0
  0
ARC
  5
2C5
100
AcDbEntity
  8
0
100
AcDbCircle
 62
9
  6
CONTINUOUS
 10
10.4988480059
 20
-5.250699505
 40
0.0150948163
100
AcDbArc
 50
259.9379994054
 51
269.9528444029
  0
ARC
  5
2C6
100
AcDbEntity
  8
0
100
AcDbCircle
 62
9
  6
CONTINUOUS
 10
10.4988400459
 20
-4.9057965098
 40
0.0150021942
100
AcDbArc
 50
90.0170461495
 51
100.0952674436
  0
ARC
  5
2C7
100
AcDbEntity
  8
0
100
AcDbCircle
 62
9
  6
CONTINUOUS
 10
11.0202651847
 20
-6.3176751669
 40
0.0108144748
100
AcDbArc
 50
262.9773861275
 51
264.9999683617
  0
ARC
  5
2C8
100
AcDbEntity
  8
0
100
AcDbCircle
 62
9
  6
CONTINUOUS
 10
11.0187929957
 20
-6.3345024796
 40
0.0100792393
100
AcDbArc
 50
262.8297198725
 51
264.9999086974
  0
ARC
  5
2C9
100
AcDbEntity
  8
0
100
AcDbCircle
 62
9
  6
CONTINUOUS
 10
10.940793924
 20
-6.3118055807
 40
0.0100709003
100
AcDbArc
 50
242.3903803583
 51
257.4495358699
  0
ARC
  5
2CA
100
AcDbEntity
  8
0
100
AcDbCircle
 62
9
  6
CONTINUOUS
 10
11.018800207
 20
-6.3345568623
 40
0.0100250274
100
AcDbArc
 50
264.9317660461
 51
318.6539316187
  0
ARC
  5
2CB
100
AcDbEntity
  8
0
100
AcDbCircle
 62
9
  6
CONTINUOUS
 10
10.940782097
 20
-6.3118580707
 40
0.0100170945
100
AcDbArc
 50
257.450327467
 51
259.2739661969
  0
ARC
  5
2CC
100
AcDbEntity
  8
0
100
AcDbCircle
 62
7
  6
CONTINUOUS
 10
10.9407632451
 20
-6.3119822412
 40
0.01
100
AcDbArc
 50
242.3153068088
 51
262.323370764
  0
ARC
  5
2CD
100
AcDbEntity
  8
0
100
AcDbCircle
 62
7
  6
CONTINUOUS
 10
11.0187792895
 20
-6.3346589586
 40
0.01
100
AcDbArc
 50
262.8734551808
 51
355.0000000073
  0
ARC
  5
2CE
100
AcDbEntity
  8
0
100
AcDbCircle
 62
9
  6
CONTINUOUS
 10
11.0188819657
 20
-6.3346600796
 40
0.0098976199
100
AcDbArc
 50
336.7562322991
 51
354.954661492
  0
ARC
  5
2CF
100
AcDbEntity
  8
0
100
AcDbCircle
 62
9
  6
CONTINUOUS
 10
11.0188908573
 20
-6.3346554539
 40
0.0098912785
100
AcDbArc
 50
320.2155162476
 51
336.7112864508
  0
ARC
  5
2D0
100
AcDbEntity
  8
0
100
AcDbCircle
 62
9
  6
CONTINUOUS
 10
11.0189126618
 20
-6.3346742343
 40
0.0098625051
100
AcDbArc
 50
318.7342577771
 51
320.2183000366
  0
ARC
  5
2D1
100
AcDbEntity
  8
0
100
AcDbCircle
 62
9
  6
CONTINUOUS
 10
10.9915815228
 20
17.7744395574
 40
0.6552073957
100
AcDbArc
 50
323.4401098091
 51
324.9284546211
  0
ARC
  5
2D2
100
AcDbEntity
  8
0
100
AcDbCircle
 62
9
  6
CONTINUOUS
 10
11.0215246601
 20
17.716210187
 40
0.5831967526
100
AcDbArc
 50
305.8555481249
 51
306.714923474
  0
ARC
  5
2D3
100
AcDbEntity
  8
0
100
AcDbCircle
 62
7
  6
CONTINUOUS
 10
9.7319960216
 20
21.0192056838
 40
0.04
100
AcDbArc
 50
0.0
 51
90.0
  0
ARC
  5
2D4
100
AcDbEntity
  8
0
100
AcDbCircle
 62
7
  6
CONTINUOUS
 10
9.698036306
 20
21.0992056838
 40
0.04
100
AcDbArc
 50
240.0
 51
270.0
  0
ARC
  5
2D5
100
AcDbEntity
  8
0
100
AcDbCircle
 62
7
  6
CONTINUOUS
 10
9.6273183383
 20
21.1400347214
 40
0.04
100
AcDbArc
 50
180.0
 51
239.9999999999
  0
ARC
  5
2D6
100
AcDbEntity
  8
0
100
AcDbCircle
 62
7
  6
CONTINUOUS
 10
9.8119960216
 20
20.8992056838
 40
0.04
100
AcDbArc
 50
180.0
 51
270.0
  0
ARC
  5
2D7
100
AcDbEntity
  8
0
100
AcDbCircle
 62
7
  6
CONTINUOUS
 10
10.0873183383
 20
20.7792056838
 40
0.04
100
AcDbArc
 50
180.0
 51
270.0
  0
ARC
  5
2D8
100
AcDbEntity
  8
0
100
AcDbCircle
 62
7
  6
CONTINUOUS
 10
10.0073183383
 20
20.8192056838
 40
0.04
100
AcDbArc
 50
0.0
 51
90.0
  0
ARC
  5
2D9
100
AcDbEntity
  8
0
100
AcDbCircle
 62
9
  6
CONTINUOUS
 10
9.8146962374
 20
20.8892263145
 40
0.030021147
100
AcDbArc
 50
264.9838883046
 51
266.248481479
  0
ARC
  5
2DA
100
AcDbEntity
  8
0
100
AcDbCircle
 62
7
  6
CONTINUOUS
 10
10.4923183383
 20
16.5362056838
 40
0.03
100
AcDbArc
 50
270.0
 51
360.0
  0
ARC
  5
2DB
100
AcDbEntity
  8
0
100
AcDbCircle
 62
9
  6
CONTINUOUS
 10
9.8146783963
 20
20.8889224436
 40
0.02971676
100
AcDbArc
 50
266.2444726394
 51
269.9944419955
  0
ARC
  5
2DC
100
AcDbEntity
  8
0
100
AcDbCircle
 62
7
  6
CONTINUOUS
 10
10.3806860368
 20
16.4862056838
 40
0.02
100
AcDbArc
 50
90.0
 51
180.0
  0
ARC
  5
2DD
100
AcDbEntity
  8
0
100
AcDbCircle
 62
7
  6
CONTINUOUS
 10
10.3806860368
 20
16.0262056838
 40
0.02
100
AcDbArc
 50
180.0
 51
270.0
  0
ARC
  5
2DE
100
AcDbEntity
  8
0
100
AcDbCircle
 62
9
  6
CONTINUOUS
 10
10.3833779521
 20
16.021300495
 40
0.0150948163
100
AcDbArc
 50
259.9379994054
 51
269.952844403
  0
ARC
  5
2DF
100
AcDbEntity
  8
0
100
AcDbCircle
 62
9
  6
CONTINUOUS
 10
10.383369992
 20
16.4912034902
 40
0.0150021942
100
AcDbArc
 50
90.0170461496
 51
100.0952674433
  0
ARC
  5
2E0
100
AcDbEntity
  8
0
100
AcDbCircle
 62
9
  6
CONTINUOUS
 10
11.0473270538
 20
-6.1062191167
 40
0.2401389813
100
AcDbArc
 50
261.4171109356
 51
262.8734063298
  0
ARC
  5
2E1
100
AcDbEntity
  8
0
100
AcDbCircle
 62
9
  6
CONTINUOUS
 10
11.0473284401
 20
-6.1063852312
 40
0.239972294
100
AcDbArc
 50
283.4569662279
 51
285.7431878397
  0
ARC
  5
2E2
100
AcDbEntity
  8
0
100
AcDbCircle
 62
9
  6
CONTINUOUS
 10
11.0473320402
 20
-6.1063992747
 40
0.2399578005
100
AcDbArc
 50
285.7432702961
 51
287.9823588992
  0
ARC
  5
2E3
100
AcDbEntity
  8
0
100
AcDbCircle
 62
9
  6
CONTINUOUS
 10
11.0473388314
 20
-6.1064055565
 40
0.2399502703
100
AcDbArc
 50
278.582629872
 51
281.2666771101
  0
ARC
  5
2E4
100
AcDbEntity
  8
0
100
AcDbCircle
 62
9
  6
CONTINUOUS
 10
11.0473419631
 20
-6.106439614
 40
0.2399162573
100
AcDbArc
 50
281.2675327116
 51
283.4568477741
  0
ARC
  5
2E5
100
AcDbEntity
  8
0
100
AcDbCircle
 62
7
  6
CONTINUOUS
 10
11.0473463116
 20
-6.1065615882
 40
0.239872338
100
AcDbArc
 50
277.1248203583
 51
292.3031692567
  0
ARC
  5
2E6
100
AcDbEntity
  8
0
100
AcDbCircle
 62
9
  6
CONTINUOUS
 10
11.0473573633
 20
-6.1064826048
 40
0.2398707231
100
AcDbArc
 50
287.9827506123
 51
290.4754877564
  0
ARC
  5
2E7
100
AcDbEntity
  8
0
100
AcDbCircle
 62
9
  6
CONTINUOUS
 10
11.0474315663
 20
-6.1066813282
 40
0.2396585979
100
AcDbArc
 50
290.475487696
 51
292.3045867924
  0
ARC
  5
2E8
100
AcDbEntity
  8
0
100
AcDbCircle
 62
7
  6
CONTINUOUS
 10
11.047320017
 20
-6.1088951618
 40
0.239342451
100
AcDbArc
 50
297.6845903738
 51
308.9428751817
  0
ARC
  5
2E9
100
AcDbEntity
  8
0
100
AcDbCircle
 62
7
  6
CONTINUOUS
 10
11.0473183383
 20
-6.0995172599
 40
0.2224649553
100
AcDbArc
 50
268.2141500441
 51
271.7857955077
  0
ARC
  5
2EA
100
AcDbEntity
  8
0
100
AcDbCircle
 62
9
  6
CONTINUOUS
 10
11.0473185434
 20
-6.099151305
 40
0.221686114
100
AcDbArc
 50
268.2135001791
 51
269.9999469892
  0
ARC
  5
2EB
100
AcDbEntity
  8
0
100
AcDbCircle
 62
7
  6
CONTINUOUS
 10
11.2898183383
 20
-6.2067943162
 40
0.02
100
AcDbArc
 50
270.0
 51
360.0
  0
ARC
  5
2EC
100
AcDbEntity
  8
0
100
AcDbCircle
 62
7
  6
CONTINUOUS
 10
11.2251867064
 20
-6.2467943162
 40
0.02
100
AcDbArc
 50
90.0
 51
180.0
  0
ARC
  5
2ED
100
AcDbEntity
  8
0
100
AcDbCircle
 62
7
  6
CONTINUOUS
 10
11.1851867064
 20
-6.2794938262
 40
0.02
100
AcDbArc
 50
308.9428455647
 51
360.0
  0
ARC
  5
2EE
100
AcDbEntity
  8
0
100
AcDbCircle
 62
9
  6
CONTINUOUS
 10
11.0743715509
 20
-6.3176757275
 40
0.010813911
100
AcDbArc
 50
274.9999792258
 51
277.0226669203
  0
ARC
  5
2EF
100
AcDbEntity
  8
0
100
AcDbCircle
 62
9
  6
CONTINUOUS
 10
11.0758436809
 20
-6.3345024796
 40
0.0100792393
100
AcDbArc
 50
275.0000911847
 51
277.1702800078
  0
ARC
  5
2F0
100
AcDbEntity
  8
0
100
AcDbCircle
 62
9
  6
CONTINUOUS
 10
11.153855839
 20
-6.3118415124
 40
0.0100329965
100
AcDbArc
 50
282.3753138062
 51
297.6384944892
  0
ARC
  5
2F1
100
AcDbEntity
  8
0
100
AcDbCircle
 62
9
  6
CONTINUOUS
 10
11.1538535584
 20
-6.3118531534
 40
0.0100221158
100
AcDbArc
 50
280.7700756979
 51
282.402311469
  0
ARC
  5
2F2
100
AcDbEntity
  8
0
100
AcDbCircle
 62
7
  6
CONTINUOUS
 10
11.1538734314
 20
-6.3119822412
 40
0.01
100
AcDbArc
 50
277.6859185817
 51
297.6846931912
  0
ARC
  5
2F3
100
AcDbEntity
  8
0
100
AcDbCircle
 62
7
  6
CONTINUOUS
 10
11.0758572804
 20
-6.3346591307
 40
0.0099996809
100
AcDbArc
 50
184.9990705354
 51
274.9830561508
  0
ARC
  5
2F4
100
AcDbEntity
  8
0
100
AcDbCircle
 62
7
  6
CONTINUOUS
 10
11.0758725964
 20
-6.3347779416
 40
0.0098800493
100
AcDbArc
 50
274.9544196496
 51
277.1246277778
  0
CIRCLE
  5
2F5
100
AcDbEntity
  8
0
100
AcDbCircle
 62
7
  6
CONTINUOUS
 10
11.0473183383
 20
7.2292056838
 40
0.6
  0
ARC
  5
2F6
100
AcDbEntity
  8
0
100
AcDbCircle
 62
7
  6
CONTINUOUS
 10
11.0473183383
 20
7.2292056838
 40
0.6
100
AcDbArc
 50
305.7120840813
 51
306.1733559328
  0
ARC
  5
2F7
100
AcDbEntity
  8
0
100
AcDbCircle
 62
7
  6
CONTINUOUS
 10
11.0473183383
 20
7.2292056838
 40
0.6
100
AcDbArc
 50
216.5794549013
 51
224.365702517
  0
ARC
  5
2F8
100
AcDbEntity
  8
0
100
AcDbCircle
 62
7
  6
CONTINUOUS
 10
11.0473183383
 20
7.2292056838
 40
0.6
100
AcDbArc
 50
233.2299247147
 51
233.8188225755
  0
ARC
  5
2F9
100
AcDbEntity
  8
0
100
AcDbCircle
 62
7
  6
CONTINUOUS
 10
11.0473183383
 20
7.2292056838
 40
0.6
100
AcDbArc
 50
242.3250093387
 51
251.5134991793
  0
ARC
  5
2FA
100
AcDbEntity
  8
0
100
AcDbCircle
 62
9
  6
CONTINUOUS
 10
11.0733751825
 20
7.1465690629
 40
0.5836417631
100
AcDbArc
 50
233.2869746272
 51
234.1483783814
  0
CIRCLE
  5
2FB
100
AcDbEntity
  8
0
100
AcDbCircle
 62
9
  6
CONTINUOUS
 10
11.0473183383
 20
7.2292056838
 40
0.5799999803
  0
ARC
  5
2FC
100
AcDbEntity
  8
0
100
AcDbCircle
 62
7
  6
CONTINUOUS
 10
11.5398183383
 20
-4.8607943162
 40
0.03
100
AcDbArc
 50
180.0
 51
270.0
  0
ARC
  5
2FD
100
AcDbEntity
  8
0
100
AcDbCircle
 62
7
  6
CONTINUOUS
 10
11.4023183383
 20
-6.2317943162
 40
0.02
100
AcDbArc
 50
270.0
 51
360.0
  0
ARC
  5
2FE
100
AcDbEntity
  8
0
100
AcDbCircle
 62
7
  6
CONTINUOUS
 10
11.4023183383
 20
-5.7217943162
 40
0.02
100
AcDbArc
 50
0.0
 51
90.0
  0
ARC
  5
2FF
100
AcDbEntity
  8
0
100
AcDbCircle
 62
7
  6
CONTINUOUS
 10
11.4023183383
 20
-5.9567943162
 40
0.02
100
AcDbArc
 50
270.0
 51
360.0
  0
ARC
  5
300
100
AcDbEntity
  8
0
100
AcDbCircle
 62
7
  6
CONTINUOUS
 10
11.5984805859
 20
-4.9107943162
 40
0.02
100
AcDbArc
 50
0.0000000006
 51
90.0
  0
ARC
  5
301
100
AcDbEntity
  8
0
100
AcDbCircle
 62
7
  6
CONTINUOUS
 10
11.5984805859
 20
-5.2457943162
 40
0.02
100
AcDbArc
 50
270.0
 51
360.0
  0
ARC
  5
302
100
AcDbEntity
  8
0
100
AcDbCircle
 62
9
  6
CONTINUOUS
 10
11.5957880449
 20
-4.9058846673
 40
0.0150903567
100
AcDbArc
 50
79.9481648686
 51
89.9504543499
  0
ARC
  5
303
100
AcDbEntity
  8
0
100
AcDbCircle
 62
9
  6
CONTINUOUS
 10
11.5957967271
 20
-5.2507905911
 40
0.0150037258
100
AcDbArc
 50
270.0166762036
 51
280.092479988
  0
ARC
  5
304
100
AcDbEntity
  8
0
100
AcDbCircle
 62
9
  6
CONTINUOUS
 10
11.1023073579
 20
17.7738988565
 40
0.6542847079
100
AcDbArc
 50
215.0693932825
 51
216.5581967423
  0
CIRCLE
  5
305
100
AcDbEntity
  8
0
100
AcDbCircle
 62
7
  6
CONTINUOUS
 10
11.0473183383
 20
17.7992056838
 40
0.6
  0
ARC
  5
306
100
AcDbEntity
  8
0
100
AcDbCircle
 62
7
  6
CONTINUOUS
 10
11.0473183383
 20
17.7992056838
 40
0.6
100
AcDbArc
 50
314.7903782842
 51
323.4205461564
  0
ARC
  5
307
100
AcDbEntity
  8
0
100
AcDbCircle
 62
7
  6
CONTINUOUS
 10
11.0473183383
 20
17.7992056838
 40
0.6
100
AcDbArc
 50
305.7120840813
 51
306.1733559328
  0
ARC
  5
308
100
AcDbEntity
  8
0
100
AcDbCircle
 62
7
  6
CONTINUOUS
 10
11.0473183383
 20
17.7992056838
 40
0.6
100
AcDbArc
 50
224.365702517
 51
270.0000000001
  0
ARC
  5
309
100
AcDbEntity
  8
0
100
AcDbCircle
 62
9
  6
CONTINUOUS
 10
11.0733751825
 20
17.7165690629
 40
0.5836417631
100
AcDbArc
 50
233.2869746271
 51
234.1483783814
  0
CIRCLE
  5
30A
100
AcDbEntity
  8
0
100
AcDbCircle
 62
9
  6
CONTINUOUS
 10
11.0473183383
 20
17.7992056838
 40
0.5799999803
  0
ARC
  5
30B
100
AcDbEntity
  8
0
100
AcDbCircle
 62
7
  6
CONTINUOUS
 10
11.6023183383
 20
16.5362056838
 40
0.03
100
AcDbArc
 50
180.0
 51
270.0
  0
ARC
  5
30C
100
AcDbEntity
  8
0
100
AcDbCircle
 62
7
  6
CONTINUOUS
 10
11.7139506398
 20
16.4862056838
 40
0.02
100
AcDbArc
 50
0.0
 51
90.0
  0
ARC
  5
30D
100
AcDbEntity
  8
0
100
AcDbCircle
 62
7
  6
CONTINUOUS
 10
11.7139506398
 20
16.0262056838
 40
0.02
100
AcDbArc
 50
270.0
 51
360.0
  0
ARC
  5
30E
100
AcDbEntity
  8
0
100
AcDbCircle
 62
9
  6
CONTINUOUS
 10
11.7112587245
 20
16.4911108725
 40
0.0150948163
100
AcDbArc
 50
79.9379994056
 51
89.9528444029
  0
ARC
  5
30F
100
AcDbEntity
  8
0
100
AcDbCircle
 62
9
  6
CONTINUOUS
 10
11.7112666845
 20
16.0212078773
 40
0.0150021942
100
AcDbArc
 50
270.0170461493
 51
280.0952674438
  0
ARC
  5
310
100
AcDbEntity
  8
0
100
AcDbCircle
 62
7
  6
CONTINUOUS
 10
12.3626406549
 20
21.0192056838
 40
0.04
100
AcDbArc
 50
90.0
 51
180.0
  0
ARC
  5
311
100
AcDbEntity
  8
0
100
AcDbCircle
 62
7
  6
CONTINUOUS
 10
12.3966003706
 20
21.0992056838
 40
0.04
100
AcDbArc
 50
270.0
 51
300.0
  0
ARC
  5
312
100
AcDbEntity
  8
0
100
AcDbCircle
 62
7
  6
CONTINUOUS
 10
12.4673183383
 20
21.1400347214
 40
0.04
100
AcDbArc
 50
300.0000000001
 51
360.0
  0
ARC
  5
313
100
AcDbEntity
  8
0
100
AcDbCircle
 62
7
  6
CONTINUOUS
 10
12.2826406549
 20
20.8992056838
 40
0.04
100
AcDbArc
 50
270.0
 51
360.0
  0
ARC
  5
314
100
AcDbEntity
  8
0
100
AcDbCircle
 62
7
  6
CONTINUOUS
 10
12.0873183383
 20
20.8192056838
 40
0.04
100
AcDbArc
 50
90.0
 51
180.0
  0
ARC
  5
315
100
AcDbEntity
  8
0
100
AcDbCircle
 62
7
  6
CONTINUOUS
 10
12.0073183383
 20
20.7792056838
 40
0.04
100
AcDbArc
 50
270.0
 51
360.0
  0
ARC
  5
316
100
AcDbEntity
  8
0
100
AcDbCircle
 62
9
  6
CONTINUOUS
 10
12.2799409229
 20
20.8892417348
 40
0.0300365556
100
AcDbArc
 50
273.7571066698
 51
275.0233436965
  0
ARC
  5
317
100
AcDbEntity
  8
0
100
AcDbCircle
 62
9
  6
CONTINUOUS
 10
12.2799583335
 20
20.8889456149
 40
0.0297399313
100
AcDbArc
 50
270.0054511551
 51
273.7610188219
  0
LINE
  5
318
100
AcDbEntity
  8
0
100
AcDbLine
 62
9
  6
CONTINUOUS
 10
11.0473183383
 20
-6.295049293
 11
11.0493117991
 21
-6.295049293
  0
LINE
  5
319
100
AcDbEntity
  8
0
100
AcDbLine
 62
9
  6
CONTINUOUS
 10
11.0542534558
 20
-6.3218360568
 11
11.0542292462
 21
-6.3207296651
  0
SPLINE
  5
31A
100
AcDbEntity
  8
0
100
AcDbSpline
 62
9
  6
CONTINUOUS
 70
0
 71
3
 72
11
 73
7
 74
0
 42
0.0000001
 43
0.0000001
 44
0.0000000001
 40
0.0
 40
0.0
 40
0.0
 40
0.0
 40
0.2650076286
 40
0.523952412
 40
0.770506515
 40
1.0
 40
1.0
 40
1.0
 40
1.0
 10
11.0542292463
 20
-6.3207296651
 30
0.0
 10
11.0553508558
 20
-6.3206947406
 30
0.0
 10
11.0575713509
 20
-6.3206984337
 30
0.0
 10
11.0608290029
 20
-6.3209185537
 30
0.0
 10
11.0639144757
 20
-6.3213449756
 30
0.0
 10
11.0658872531
 20
-6.3217720031
 30
0.0
 10
11.0668266769
 20
-6.3220206447
 30
0.0
  0
SPLINE
  5
31B
100
AcDbEntity
  8
0
100
AcDbSpline
 62
9
  6
CONTINUOUS
 70
0
 71
3
 72
17
 73
13
 74
0
 42
0.0000001
 43
0.0000001
 44
0.0000000001
 40
0.0
 40
0.0
 40
0.0
 40
0.0
 40
0.1734718811
 40
0.2550322312
 40
0.3329679665
 40
0.4776836131
 40
0.6073824277
 40
0.7224787108
 40
0.8243282579
 40
0.9154587739
 40
0.958274202
 40
1.0
 40
1.0
 40
1.0
 40
1.0
 10
11.0668266769
 20
-6.3220206447
 30
0.0
 10
11.0674701629
 20
-6.3221909591
 30
0.0
 10
11.0684089553
 20
-6.3224710107
 30
0.0
 10
11.0696105986
 20
-6.3229059995
 30
0.0
 10
11.0706912965
 20
-6.3233479153
 30
0.0
 10
11.0719093737
 20
-6.3239396474
 30
0.0
 10
11.073180435
 20
-6.3247322722
 30
0.0
 10
11.0742109212
 20
-6.3255810166
 30
0.0
 10
11.0749900908
 20
-6.3264788898
 30
0.0
 10
11.0754279388
 20
-6.3272817568
 30
0.0
 10
11.0756276017
 20
-6.3279274843
 30
0.0
 10
11.0756796847
 20
-6.3282490146
 30
0.0
 10
11.0756936812
 20
-6.3284085112
 30
0.0
  0
SPLINE
  5
31C
100
AcDbEntity
  8
0
100
AcDbSpline
 62
9
  6
CONTINUOUS
 70
0
 71
3
 72
19
 73
15
 74
0
 42
0.0000001
 43
0.0000001
 44
0.0000000001
 40
0.0
 40
0.0
 40
0.0
 40
0.0
 40
0.1234207433
 40
0.2504140152
 40
0.3147477919
 40
0.3793940046
 40
0.444190382
 40
0.5089168824
 40
0.6371334496
 40
0.7002446404
 40
0.7624061508
 40
0.8235516389
 40
0.8836177019
 40
1.0
 40
1.0
 40
1.0
 40
1.0
 10
11.0753140414
 20
-6.3284484887
 30
0.0
 10
11.0748477548
 20
-6.3284892835
 30
0.0
 10
11.0738951947
 20
-6.3285087089
 30
0.0
 10
11.072705022
 20
-6.3283781402
 30
0.0
 10
11.0717551043
 20
-6.3281746746
 30
0.0
 10
11.0710487677
 20
-6.3279694379
 30
0.0
 10
11.0703578376
 20
-6.3277127957
 30
0.0
 10
11.0694673886
 20
-6.327308237
 30
0.0
 10
11.0686269448
 20
-6.3268138482
 30
0.0
 10
11.067856448
 20
-6.3262377196
 30
0.0
 10
11.0673240689
 20
-6.3257714325
 30
0.0
 10
11.0668366407
 20
-6.3252744346
 30
0.0
 10
11.0662544528
 20
-6.3245860153
 30
0.0
 10
11.0658779029
 20
-6.3240291291
 30
0.0
 10
11.0656583637
 20
-6.3236462267
 30
0.0
  0
SPLINE
  5
31D
100
AcDbEntity
  8
0
100
AcDbSpline
 62
9
  6
CONTINUOUS
 70
0
 71
3
 72
19
 73
15
 74
0
 42
0.0000001
 43
0.0000001
 44
0.0000000001
 40
0.0
 40
0.0
 40
0.0
 40
0.0
 40
0.1163848452
 40
0.1764517303
 40
0.2375978364
 40
0.2997598287
 40
0.3628712927
 40
0.4910876449
 40
0.555813711
 40
0.6206095128
 40
0.6852550771
 40
0.7495881982
 40
0.8765802205
 40
1.0
 40
1.0
 40
1.0
 40
1.0
 10
11.0289778037
 20
-6.3236471148
 30
0.0
 10
11.0287582353
 20
-6.324029966
 30
0.0
 10
11.0283816537
 20
-6.3245867725
 30
0.0
 10
11.0277994416
 20
-6.325275085
 30
0.0
 10
11.0273120067
 20
-6.3257719989
 30
0.0
 10
11.0267796308
 20
-6.3262382009
 30
0.0
 10
11.0260091573
 20
-6.3268142193
 30
0.0
 10
11.0251687606
 20
-6.3273085107
 30
0.0
 10
11.024278375
 20
-6.3277129853
 30
0.0
 10
11.0235875014
 20
-6.3279695711
 30
0.0
 10
11.0228812271
 20
-6.3281747596
 30
0.0
 10
11.0219313983
 20
-6.3283781761
 30
0.0
 10
11.0207413417
 20
-6.3285087092
 30
0.0
 10
11.0197888763
 20
-6.3284892797
 30
0.0
 10
11.0193226351
 20
-6.3284484889
 30
0.0
  0
SPLINE
  5
31E
100
AcDbEntity
  8
0
100
AcDbSpline
 62
9
  6
CONTINUOUS
 70
0
 71
3
 72
17
 73
13
 74
0
 42
0.0000001
 43
0.0000001
 44
0.0000000001
 40
0.0
 40
0.0
 40
0.0
 40
0.0
 40
0.0415170166
 40
0.0841376088
 40
0.1749720391
 40
0.2766481976
 40
0.3916758975
 40
0.5214727833
 40
0.6664514299
 40
0.7445528428
 40
0.8262783169
 40
1.0
 40
1.0
 40
1.0
 40
1.0
 10
11.0189429953
 20
-6.3284085112
 30
0.0
 10
11.0189571202
 20
-6.3282471944
 30
0.0
 10
11.0190101964
 20
-6.3279219432
 30
0.0
 10
11.0192145019
 20
-6.3272687991
 30
0.0
 10
11.0196626975
 20
-6.3264573088
 30
0.0
 10
11.0204575672
 20
-6.3255500424
 30
0.0
 10
11.0215086923
 20
-6.3246925386
 30
0.0
 10
11.0228067746
 20
-6.3238943167
 30
0.0
 10
11.0240509604
 20
-6.3233006211
 30
0.0
 10
11.025154584
 20
-6.322857894
 30
0.0
 10
11.0263809217
 20
-6.3224226861
 30
0.0
 10
11.027338306
 20
-6.3221429179
 30
0.0
 10
11.0279943058
 20
-6.3219732395
 30
0.0
  0
SPLINE
  5
31F
100
AcDbEntity
  8
0
100
AcDbSpline
 62
9
  6
CONTINUOUS
 70
0
 71
3
 72
11
 73
7
 74
0
 42
0.0000001
 43
0.0000001
 44
0.0000000001
 40
0.0
 40
0.0
 40
0.0
 40
0.0
 40
0.235648969
 40
0.4833826424
 40
0.7397745257
 40
1.0
 40
1.0
 40
1.0
 40
1.0
 10
11.0297287211
 20
-6.3215730639
 30
0.0
 10
11.0305548057
 20
-6.3214042808
 30
0.0
 10
11.0322614973
 20
-6.3211157733
 30
0.0
 10
11.0348945588
 20
-6.3208317825
 30
0.0
 10
11.0376272874
 20
-6.3206938968
 30
0.0
 10
11.0394767962
 20
-6.3207006765
 30
0.0
 10
11.0404074304
 20
-6.3207296651
 30
0.0
  0
LINE
  5
320
100
AcDbEntity
  8
0
100
AcDbLine
 62
9
  6
CONTINUOUS
 10
11.0404074221
 20
-6.3207296648
 11
11.0403832141
 21
-6.3218360566
  0
SPLINE
  5
321
100
AcDbEntity
  8
0
100
AcDbSpline
 62
9
  6
CONTINUOUS
 70
0
 71
3
 72
9
 73
5
 74
0
 42
0.0000001
 43
0.0000001
 44
0.0000000001
 40
0.0
 40
0.0
 40
0.0
 40
0.0
 40
0.283389926
 40
1.0
 40
1.0
 40
1.0
 40
1.0
 10
11.0771017574
 20
-6.344502895
 30
0.0
 10
11.0771019029
 20
-6.3445067161
 30
0.0
 10
11.0771023713
 20
-6.3445202008
 30
0.0
 10
11.0771026647
 20
-6.3445336937
 30
0.0
 10
11.0771026647
 20
-6.344543363
 30
0.0
  0
SPLINE
  5
322
100
AcDbEntity
  8
0
100
AcDbSpline
 62
9
  6
CONTINUOUS
 70
0
 71
3
 72
9
 73
5
 74
0
 42
0.0000001
 43
0.0000001
 44
0.0000000001
 40
0.0
 40
0.0
 40
0.0
 40
0.0
 40
0.2190339571
 40
1.0
 40
1.0
 40
1.0
 40
1.0
 10
11.1383920226
 20
-6.3284484889
 30
0.0
 10
11.1383920226
 20
-6.328445562
 30
0.0
 10
11.1383917274
 20
-6.3284321995
 30
0.0
 10
11.13839048
 20
-6.3284188739
 30
0.0
 10
11.1383892481
 20
-6.3284085112
 30
0.0
  0
LINE
  5
323
100
AcDbEntity
  8
0
100
AcDbLine
 62
9
  6
CONTINUOUS
 10
11.1383892481
 20
-6.3284085112
 11
11.1556878033
 21
-6.3215730388
  0
LINE
  5
324
100
AcDbEntity
  8
0
100
AcDbLine
 62
9
  6
CONTINUOUS
 10
11.1556878033
 20
-6.3215730388
 11
11.1585100591
 21
-6.3207296651
  0
SPLINE
  5
325
100
AcDbEntity
  8
0
100
AcDbSpline
 62
9
  6
CONTINUOUS
 70
0
 71
3
 72
17
 73
13
 74
0
 42
0.0000001
 43
0.0000001
 44
0.0000000001
 40
0.0
 40
0.0
 40
0.0
 40
0.0
 40
0.1243822919
 40
0.1868079603
 40
0.2492183362
 40
0.3738909451
 40
0.4987503548
 40
0.6237997725
 40
0.7490147713
 40
0.8118033518
 40
0.8746609254
 40
1.0
 40
1.0
 40
1.0
 40
1.0
 10
11.0658954401
 20
-6.335530516
 30
0.0
 10
11.0659519063
 20
-6.3361759273
 30
0.0
 10
11.0661345467
 20
-6.3371401125
 30
0.0
 10
11.0665603764
 20
-6.3383679833
 30
0.0
 10
11.0671068062
 20
-6.3395492829
 30
0.0
 10
11.068005355
 20
-6.340916798
 30
0.0
 10
11.0693849792
 20
-6.3423138854
 30
0.0
 10
11.0710115449
 20
-6.3434185986
 30
0.0
 10
11.0725238208
 20
-6.3440580625
 30
0.0
 10
11.0737904849
 20
-6.3443865241
 30
0.0
 10
11.0750834698
 20
-6.344589319
 30
0.0
 10
11.0760717844
 20
-6.3446002635
 30
0.0
 10
11.0767221604
 20
-6.344543363
 30
0.0
  0
SPLINE
  5
326
100
AcDbEntity
  8
0
100
AcDbSpline
 62
9
  6
CONTINUOUS
 70
0
 71
3
 72
9
 73
5
 74
0
 42
0.0000001
 43
0.0000001
 44
0.0000000001
 40
0.0
 40
0.0
 40
0.0
 40
0.0
 40
0.2833899305
 40
1.0
 40
1.0
 40
1.0
 40
1.0
 10
11.0175349192
 20
-6.344502895
 30
0.0
 10
11.0175347737
 20
-6.3445067161
 30
0.0
 10
11.0175343052
 20
-6.3445202008
 30
0.0
 10
11.0175340118
 20
-6.3445336937
 30
0.0
 10
11.0175340118
 20
-6.344543363
 30
0.0
  0
LINE
  5
327
100
AcDbEntity
  8
0
100
AcDbLine
 62
9
  6
CONTINUOUS
 10
10.9361266175
 20
-6.3207296651
 11
10.9388071245
 21
-6.3215216914
  0
LINE
  5
328
100
AcDbEntity
  8
0
100
AcDbLine
 62
9
  6
CONTINUOUS
 10
10.9388071245
 20
-6.3215216914
 11
10.9562474285
 21
-6.3284085113
  0
SPLINE
  5
329
100
AcDbEntity
  8
0
100
AcDbSpline
 62
9
  6
CONTINUOUS
 70
0
 71
3
 72
9
 73
5
 74
0
 42
0.0000001
 43
0.0000001
 44
0.0000000001
 40
0.0
 40
0.0
 40
0.0
 40
0.0
 40
0.2810602328
 40
1.0
 40
1.0
 40
1.0
 40
1.0
 10
10.9562474282
 20
-6.3284085111
 30
0.0
 10
10.9562469849
 20
-6.3284122403
 30
0.0
 10
10.9562455457
 20
-6.3284255219
 30
0.0
 10
10.9562446536
 20
-6.3284388824
 30
0.0
 10
10.9562446536
 20
-6.3284484887
 30
0.0
  0
SPLINE
  5
32A
100
AcDbEntity
  8
0
100
AcDbSpline
 62
9
  6
CONTINUOUS
 70
0
 71
3
 72
16
 73
12
 74
0
 42
0.0000001
 43
0.0000001
 44
0.0000000001
 40
0.0
 40
0.0
 40
0.0
 40
0.0
 40
0.1324726535
 40
0.2642186917
 40
0.3938724876
 40
0.5208463115
 40
0.5832763895
 40
0.6449210292
 40
0.7657279409
 40
0.8838219757
 40
1.0
 40
1.0
 40
1.0
 40
1.0
 10
10.3660450206
 20
16.0262056838
 30
0.0
 10
10.3660450206
 20
16.0250275776
 30
0.0
 10
10.3662270721
 20
16.0226740404
 30
0.0
 10
10.3670288474
 20
16.0192502823
 30
0.0
 10
10.3683437192
 20
16.0160405177
 30
0.0
 10
10.3698406075
 20
16.0136129466
 30
0.0
 10
10.3712498677
 20
16.0118780273
 30
0.0
 10
10.3727663766
 20
16.0103118066
 30
0.0
 10
10.374880553
 20
16.0086493388
 30
0.0
 10
10.3777030089
 20
16.0071918976
 30
0.0
 10
10.3797233334
 20
16.0066181172
 30
0.0
 10
10.3807406801
 20
16.0064378479
 30
0.0
  0
SPLINE
  5
32B
100
AcDbEntity
  8
0
100
AcDbSpline
 62
9
  6
CONTINUOUS
 70
0
 71
3
 72
16
 73
12
 74
0
 42
0.0000001
 43
0.0000001
 44
0.0000000001
 40
0.0
 40
0.0
 40
0.0
 40
0.0
 40
0.1324726535
 40
0.2642186917
 40
0.3938724876
 40
0.5208463115
 40
0.5832763895
 40
0.6449210292
 40
0.7657279409
 40
0.8838219757
 40
1.0
 40
1.0
 40
1.0
 40
1.0
 10
11.7285916559
 20
16.4862056838
 30
0.0
 10
11.7285916559
 20
16.4873837899
 30
0.0
 10
11.7284096044
 20
16.4897373271
 30
0.0
 10
11.7276078292
 20
16.4931610852
 30
0.0
 10
11.7262929573
 20
16.4963708498
 30
0.0
 10
11.724796069
 20
16.498798421
 30
0.0
 10
11.7233868089
 20
16.5005333403
 30
0.0
 10
11.7218702999
 20
16.5020995609
 30
0.0
 10
11.7197561236
 20
16.5037620287
 30
0.0
 10
11.7169336677
 20
16.5052194699
 30
0.0
 10
11.7149133432
 20
16.5057932503
 30
0.0
 10
11.7138959965
 20
16.5059735196
 30
0.0
  0
SPLINE
  5
32C
100
AcDbEntity
  8
0
100
AcDbSpline
 62
9
  6
CONTINUOUS
 70
0
 71
3
 72
17
 73
13
 74
0
 42
0.0000001
 43
0.0000001
 44
0.0000000001
 40
0.0
 40
0.0
 40
0.0
 40
0.0
 40
0.1161526827
 40
0.234193279
 40
0.2942561079
 40
0.3550854287
 40
0.4167134536
 40
0.4791282005
 40
0.6060827359
 40
0.735745532
 40
0.8675242069
 40
1.0
 40
1.0
 40
1.0
 40
1.0
 10
11.7138963502
 20
16.0064379521
 30
0.0
 10
11.7149135875
 20
16.0066182372
 30
0.0
 10
11.7169331727
 20
16.0071915367
 30
0.0
 10
11.7192736366
 20
16.0084004962
 30
0.0
 10
11.7210079187
 20
16.0096330772
 30
0.0
 10
11.7222397835
 20
16.0106940268
 30
0.0
 10
11.7233854963
 20
16.0118765087
 30
0.0
 10
11.7247948495
 20
16.013610929
 30
0.0
 10
11.7262919274
 20
16.016038582
 30
0.0
 10
11.7276074903
 20
16.0192487089
 30
0.0
 10
11.7284091997
 20
16.0226733218
 30
0.0
 10
11.7285916559
 20
16.0250274124
 30
0.0
 10
11.7285916559
 20
16.0262056838
 30
0.0
  0
SPLINE
  5
32D
100
AcDbEntity
  8
0
100
AcDbSpline
 62
9
  6
CONTINUOUS
 70
0
 71
3
 72
17
 73
13
 74
0
 42
0.0000001
 43
0.0000001
 44
0.0000000001
 40
0.0
 40
0.0
 40
0.0
 40
0.0
 40
0.1161526827
 40
0.234193279
 40
0.2942561079
 40
0.3550854287
 40
0.4167134536
 40
0.4791282005
 40
0.6060827359
 40
0.735745532
 40
0.8675242069
 40
1.0
 40
1.0
 40
1.0
 40
1.0
 10
10.3807403263
 20
16.5059734154
 30
0.0
 10
10.3797230891
 20
16.5057931303
 30
0.0
 10
10.3777035039
 20
16.5052198308
 30
0.0
 10
10.37536304
 20
16.5040108713
 30
0.0
 10
10.3736287579
 20
16.5027782903
 30
0.0
 10
10.3723968931
 20
16.5017173407
 30
0.0
 10
10.3712511803
 20
16.5005348588
 30
0.0
 10
10.369841827
 20
16.4988004385
 30
0.0
 10
10.3683447492
 20
16.4963727855
 30
0.0
 10
10.3670291862
 20
16.4931626586
 30
0.0
 10
10.3662274768
 20
16.4897380457
 30
0.0
 10
10.3660450206
 20
16.4873839551
 30
0.0
 10
10.3660450206
 20
16.4862056838
 30
0.0
  0
SPLINE
  5
32E
100
AcDbEntity
  8
0
100
AcDbSpline
 62
9
  6
CONTINUOUS
 70
0
 71
3
 72
15
 73
11
 74
0
 42
0.0000001
 43
0.0000001
 44
0.0000000001
 40
0.0
 40
0.0
 40
0.0
 40
0.0
 40
0.1081205948
 40
0.2194398
 40
0.3356149613
 40
0.4578622045
 40
0.5864917302
 40
0.7208744574
 40
0.8596205898
 40
1.0
 40
1.0
 40
1.0
 40
1.0
 10
10.6723183383
 20
-6.222436094
 30
0.0
 10
10.6723183383
 20
-6.2234386205
 30
0.0
 10
10.6725886472
 20
-6.2254814629
 30
0.0
 10
10.673752251
 20
-6.2283990941
 30
0.0
 10
10.6756411351
 20
-6.2310688381
 30
0.0
 10
10.6781566647
 20
-6.2333940827
 30
0.0
 10
10.6812062255
 20
-6.2352910583
 30
0.0
 10
10.6846729565
 20
-6.236700725
 30
0.0
 10
10.6884247245
 20
-6.2375595723
 30
0.0
 10
10.6910166984
 20
-6.2377569828
 30
0.0
 10
10.6923183383
 20
-6.2377569828
 30
0.0
  0
SPLINE
  5
32F
100
AcDbEntity
  8
0
100
AcDbSpline
 62
9
  6
CONTINUOUS
 70
0
 71
3
 72
14
 73
10
 74
0
 42
0.0000001
 43
0.0000001
 44
0.0000000001
 40
0.0
 40
0.0
 40
0.0
 40
0.0
 40
0.1383308581
 40
0.2755040609
 40
0.5373391246
 40
0.6607142068
 40
0.7784760919
 40
0.8911814647
 40
1.0
 40
1.0
 40
1.0
 40
1.0
 10
10.6923183383
 20
-5.9908316497
 30
0.0
 10
10.6911497512
 20
-5.9908316497
 30
0.0
 10
10.6888186021
 20
-5.990671625
 30
0.0
 10
10.6843637706
 20
-5.9897604741
 30
0.0
 10
10.6802425573
 20
-5.9879664018
 30
0.0
 10
10.6768646271
 20
-5.9853601078
 30
0.0
 10
10.674847006
 20
-5.9831299472
 30
0.0
 10
10.6733669611
 20
-5.9806527611
 30
0.0
 10
10.6727691652
 20
-5.9788603657
 30
0.0
 10
10.6725782793
 20
-5.9779611288
 30
0.0
  0
LINE
  5
330
100
AcDbEntity
  8
0
100
AcDbLine
 62
9
  6
CONTINUOUS
 10
10.6725782793
 20
-5.9779611288
 11
10.6723183383
 21
-5.9755107608
  0
SPLINE
  5
331
100
AcDbEntity
  8
0
100
AcDbSpline
 62
9
  6
CONTINUOUS
 70
0
 71
3
 72
15
 73
11
 74
0
 42
0.0000001
 43
0.0000001
 44
0.0000000001
 40
0.0
 40
0.0
 40
0.0
 40
0.0
 40
0.1403794102
 40
0.2791255426
 40
0.4135082698
 40
0.5421377955
 40
0.6643850387
 40
0.7805602
 40
0.8918794052
 40
1.0
 40
1.0
 40
1.0
 40
1.0
 10
11.4023183383
 20
-6.2377569828
 30
0.0
 10
11.4036199782
 20
-6.2377569828
 30
0.0
 10
11.4062119521
 20
-6.2375595723
 30
0.0
 10
11.4099637201
 20
-6.236700725
 30
0.0
 10
11.413430451
 20
-6.2352910583
 30
0.0
 10
11.4164800118
 20
-6.2333940827
 30
0.0
 10
11.4189955414
 20
-6.2310688381
 30
0.0
 10
11.4208844256
 20
-6.2283990941
 30
0.0
 10
11.4220480294
 20
-6.2254814629
 30
0.0
 10
11.4223183383
 20
-6.2234386205
 30
0.0
 10
11.4223183383
 20
-6.222436094
 30
0.0
  0
SPLINE
  5
332
100
AcDbEntity
  8
0
100
AcDbSpline
 62
9
  6
CONTINUOUS
 70
0
 71
3
 72
9
 73
5
 74
0
 42
0.0000001
 43
0.0000001
 44
0.0000000001
 40
0.0
 40
0.0
 40
0.0
 40
0.0
 40
0.4927118727
 40
1.0
 40
1.0
 40
1.0
 40
1.0
 10
11.4223183383
 20
-5.9755107608
 30
0.0
 10
11.4223183383
 20
-5.9765132873
 30
0.0
 10
11.4220484756
 20
-5.9785552846
 30
0.0
 10
11.4212862952
 20
-5.9804655453
 30
0.0
 10
11.4207959289
 20
-5.9813738111
 30
0.0
  0
SPLINE
  5
333
100
AcDbEntity
  8
0
100
AcDbSpline
 62
9
  6
CONTINUOUS
 70
0
 71
3
 72
13
 73
9
 74
0
 42
0.0000001
 43
0.0000001
 44
0.0000000001
 40
0.0
 40
0.0
 40
0.0
 40
0.0
 40
0.2257403785
 40
0.4696068735
 40
0.5982742946
 40
0.7304524135
 40
0.8649235389
 40
1.0
 40
1.0
 40
1.0
 40
1.0
 10
11.4207959289
 20
-5.9813738111
 30
0.0
 10
11.4200203215
 20
-5.982810406
 30
0.0
 10
11.4178497155
 20
-5.9855142815
 30
0.0
 10
11.4142235133
 20
-5.9879715959
 30
0.0
 10
11.4108667048
 20
-5.9894237322
 30
0.0
 10
11.4081159544
 20
-5.9902298571
 30
0.0
 10
11.4052463689
 20
-5.9907197249
 30
0.0
 10
11.4032952365
 20
-5.9908316497
 30
0.0
 10
11.4023183383
 20
-5.9908316497
 30
0.0
  0
SPLINE
  5
334
100
AcDbEntity
  8
0
100
AcDbSpline
 62
9
  6
CONTINUOUS
 70
0
 71
3
 72
17
 73
13
 74
0
 42
0.0000001
 43
0.0000001
 44
0.0000000001
 40
0.0
 40
0.0
 40
0.0
 40
0.0
 40
0.1334925077
 40
0.2659533266
 40
0.3313436045
 40
0.396015284
 40
0.5228391273
 40
0.6461961481
 40
0.7662525259
 40
0.8253904385
 40
0.8840475618
 40
1.0
 40
1.0
 40
1.0
 40
1.0
 10
11.7069410208
 20
20.8992056838
 30
0.0
 10
11.7069410208
 20
20.8965971739
 30
0.0
 10
11.7064960894
 20
20.8913906542
 30
0.0
 10
11.7048545154
 20
20.8850925744
 30
0.0
 10
11.7029087728
 20
20.8803392226
 30
0.0
 10
11.7005969246
 20
20.8758772737
 30
0.0
 10
11.697020417
 20
20.8708227081
 30
0.0
 10
11.6917538938
 20
20.865795753
 30
0.0
 10
11.6866901637
 20
20.8626513777
 30
0.0
 10
11.6823869903
 20
20.8608720285
 30
0.0
 10
11.6779927188
 20
20.8596025013
 30
0.0
 10
11.6745657728
 20
20.8592056838
 30
0.0
 10
11.6723000047
 20
20.8592056838
 30
0.0
  0
SPLINE
  5
335
100
AcDbEntity
  8
0
100
AcDbSpline
 62
9
  6
CONTINUOUS
 70
0
 71
3
 72
17
 73
13
 74
0
 42
0.0000001
 43
0.0000001
 44
0.0000000001
 40
0.0
 40
0.0
 40
0.0
 40
0.0
 40
0.1159323236
 40
0.1745673437
 40
0.2336837672
 40
0.3537203118
 40
0.4770826662
 40
0.6039229972
 40
0.668614762
 40
0.7340267365
 40
0.866508863
 40
1.0
 40
1.0
 40
1.0
 40
1.0
 10
11.741582037
 20
21.0592056838
 30
0.0
 10
11.7393166597
 20
21.0592056838
 30
0.0
 10
11.7358904843
 20
21.0588095949
 30
0.0
 10
11.7314973421
 20
21.057540495
 30
0.0
 10
11.7271954542
 20
21.0557613406
 30
0.0
 10
11.7221316847
 20
21.0526184787
 30
0.0
 10
11.7168645556
 20
21.0475920251
 30
0.0
 10
11.7132868624
 20
21.0425372546
 30
0.0
 10
11.7109745301
 20
21.0380742598
 30
0.0
 10
11.7090279281
 20
21.0333199341
 30
0.0
 10
11.7073858134
 20
21.0270211014
 30
0.0
 10
11.7069410208
 20
21.0218141693
 30
0.0
 10
11.7069410208
 20
21.0192056838
 30
0.0
  0
SPLINE
  5
336
100
AcDbEntity
  8
0
100
AcDbSpline
 62
9
  6
CONTINUOUS
 70
0
 71
3
 72
16
 73
12
 74
0
 42
0.0000001
 43
0.0000001
 44
0.0000000001
 40
0.0
 40
0.0
 40
0.0
 40
0.0
 40
0.1160395927
 40
0.2338107849
 40
0.3541882536
 40
0.4156672736
 40
0.477988449
 40
0.6049160664
 40
0.7347785067
 40
0.8669706749
 40
1.0
 40
1.0
 40
1.0
 40
1.0
 10
12.2825709721
 20
20.8593205465
 30
0.0
 10
12.2847291742
 20
20.8595102321
 30
0.0
 10
12.2890505332
 20
20.8603640429
 30
0.0
 10
12.2951633942
 20
20.863001952
 30
0.0
 10
12.2997783904
 20
20.8662343731
 30
0.0
 10
12.3031011589
 20
20.8693638172
 30
0.0
 10
12.30619992
 20
20.8728806838
 30
0.0
 10
12.3095061072
 20
20.8778785471
 30
0.0
 10
12.3124179694
 20
20.8845698102
 30
0.0
 10
12.3141974839
 20
20.8917612601
 30
0.0
 10
12.3146021792
 20
20.8967219544
 30
0.0
 10
12.3146021792
 20
20.8992056838
 30
0.0
  0
SPLINE
  5
337
100
AcDbEntity
  8
0
100
AcDbSpline
 62
9
  6
CONTINUOUS
 70
0
 71
3
 72
17
 73
13
 74
0
 42
0.0000001
 43
0.0000001
 44
0.0000000001
 40
0.0
 40
0.0
 40
0.0
 40
0.0
 40
0.133491137
 40
0.2659732635
 40
0.331385238
 40
0.3960770028
 40
0.5229173338
 40
0.6462796882
 40
0.7663162328
 40
0.8254326563
 40
0.8840676764
 40
1.0
 40
1.0
 40
1.0
 40
1.0
 10
10.3876956557
 20
21.0192056838
 30
0.0
 10
10.3876956557
 20
21.0218141693
 30
0.0
 10
10.3872508631
 20
21.0270211014
 30
0.0
 10
10.3856087485
 20
21.0333199341
 30
0.0
 10
10.3836621465
 20
21.0380742598
 30
0.0
 10
10.3813498141
 20
21.0425372546
 30
0.0
 10
10.3777721209
 20
21.0475920251
 30
0.0
 10
10.3725049919
 20
21.0526184787
 30
0.0
 10
10.3674412223
 20
21.0557613406
 30
0.0
 10
10.3631393344
 20
21.057540495
 30
0.0
 10
10.3587461923
 20
21.0588095949
 30
0.0
 10
10.3553200169
 20
21.0592056838
 30
0.0
 10
10.3530546396
 20
21.0592056838
 30
0.0
  0
SPLINE
  5
338
100
AcDbEntity
  8
0
100
AcDbSpline
 62
9
  6
CONTINUOUS
 70
0
 71
3
 72
17
 73
13
 74
0
 42
0.0000001
 43
0.0000001
 44
0.0000000001
 40
0.0
 40
0.0
 40
0.0
 40
0.0
 40
0.1159323236
 40
0.1745673437
 40
0.2336837672
 40
0.3537203118
 40
0.4770826662
 40
0.6039229972
 40
0.668614762
 40
0.7340267365
 40
0.866508863
 40
1.0
 40
1.0
 40
1.0
 40
1.0
 10
9.7453934813
 20
21.0592056838
 30
0.0
 10
9.7476588586
 20
21.0592056838
 30
0.0
 10
9.751085034
 20
21.0588095949
 30
0.0
 10
9.7554781761
 20
21.057540495
 30
0.0
 10
9.759780064
 20
21.0557613406
 30
0.0
 10
9.7648438336
 20
21.0526184787
 30
0.0
 10
9.7701109626
 20
21.0475920251
 30
0.0
 10
9.7736886558
 20
21.0425372546
 30
0.0
 10
9.7760009881
 20
21.0380742598
 30
0.0
 10
9.7779475902
 20
21.0333199341
 30
0.0
 10
9.7795897048
 20
21.0270211014
 30
0.0
 10
9.7800344974
 20
21.0218141693
 30
0.0
 10
9.7800344974
 20
21.0192056838
 30
0.0
  0
SPLINE
  5
339
100
AcDbEntity
  8
0
100
AcDbSpline
 62
9
  6
CONTINUOUS
 70
0
 71
3
 72
15
 73
11
 74
0
 42
0.0000001
 43
0.0000001
 44
0.0000000001
 40
0.0
 40
0.0
 40
0.0
 40
0.0
 40
0.1330289321
 40
0.2651718906
 40
0.3949890181
 40
0.5219200233
 40
0.6456114044
 40
0.7660529598
 40
0.8839095723
 40
1.0
 40
1.0
 40
1.0
 40
1.0
 10
9.7800344974
 20
20.8992056838
 30
0.0
 10
9.7800344974
 20
20.8967220514
 30
0.0
 10
9.7804385719
 20
20.891762333
 30
0.0
 10
9.7822178333
 20
20.8845732597
 30
0.0
 10
9.7851282298
 20
20.8778823655
 30
0.0
 10
9.7890676257
 20
20.8719274818
 30
0.0
 10
9.7938989755
 20
20.8669060393
 30
0.0
 10
9.799471556
 20
20.8630028749
 30
0.0
 10
9.8055885818
 20
20.8603634666
 30
0.0
 10
9.8099122186
 20
20.8595096328
 30
0.0
 10
9.8120713123
 20
20.859320144
 30
0.0
  0
SPLINE
  5
33A
100
AcDbEntity
  8
0
100
AcDbSpline
 62
9
  6
CONTINUOUS
 70
0
 71
3
 72
17
 73
13
 74
0
 42
0.0000001
 43
0.0000001
 44
0.0000000001
 40
0.0
 40
0.0
 40
0.0
 40
0.0
 40
0.133491137
 40
0.2659732635
 40
0.331385238
 40
0.3960770028
 40
0.5229173338
 40
0.6462796882
 40
0.7663162328
 40
0.8254326563
 40
0.8840676764
 40
1.0
 40
1.0
 40
1.0
 40
1.0
 10
12.3146021792
 20
21.0192056838
 30
0.0
 10
12.3146021792
 20
21.0218141693
 30
0.0
 10
12.3150469718
 20
21.0270211014
 30
0.0
 10
12.3166890864
 20
21.0333199341
 30
0.0
 10
12.3186356884
 20
21.0380742598
 30
0.0
 10
12.3209480208
 20
21.0425372546
 30
0.0
 10
12.324525714
 20
21.0475920251
 30
0.0
 10
12.329792843
 20
21.0526184787
 30
0.0
 10
12.3348566126
 20
21.0557613406
 30
0.0
 10
12.3391585005
 20
21.057540495
 30
0.0
 10
12.3435516426
 20
21.0588095949
 30
0.0
 10
12.346977818
 20
21.0592056838
 30
0.0
 10
12.3492431953
 20
21.0592056838
 30
0.0
  0
SPLINE
  5
33B
100
AcDbEntity
  8
0
100
AcDbSpline
 62
9
  6
CONTINUOUS
 70
0
 71
3
 72
16
 73
12
 74
0
 42
0.0000001
 43
0.0000001
 44
0.0000000001
 40
0.0
 40
0.0
 40
0.0
 40
0.0
 40
0.1159487912
 40
0.1745863804
 40
0.2336957253
 40
0.3537080109
 40
0.4770667865
 40
0.6039135317
 40
0.7339200989
 40
0.8664687597
 40
1.0
 40
1.0
 40
1.0
 40
1.0
 10
10.4223366719
 20
20.8592056838
 30
0.0
 10
10.420071272
 20
20.8592056838
 30
0.0
 10
10.4166451879
 20
20.8596018997
 30
0.0
 10
10.4122523935
 20
20.860870789
 30
0.0
 10
10.4079514067
 20
20.8626491239
 30
0.0
 10
10.402889014
 20
20.8657909733
 30
0.0
 10
10.3976216228
 20
20.8708165127
 30
0.0
 10
10.3933042193
 20
20.8769156695
 30
0.0
 10
10.3901029206
 20
20.8838636444
 30
0.0
 10
10.3881414953
 20
20.8913876737
 30
0.0
 10
10.3876956557
 20
20.8965967591
 30
0.0
 10
10.3876956557
 20
20.8992056838
 30
0.0
  0
SPLINE
  5
33C
100
AcDbEntity
  8
0
100
AcDbSpline
 62
9
  6
CONTINUOUS
 70
0
 71
3
 72
15
 73
11
 74
0
 42
0.0000001
 43
0.0000001
 44
0.0000000001
 40
0.0
 40
0.0
 40
0.0
 40
0.0
 40
0.1239925731
 40
0.2488631205
 40
0.3742975942
 40
0.500000339
 40
0.6257032638
 40
0.7511378086
 40
0.8760078739
 40
1.0
 40
1.0
 40
1.0
 40
1.0
 10
11.1508576596
 20
-4.8607943046
 30
0.0
 10
11.1422977601
 20
-4.86079431
 30
0.0
 10
11.1251176653
 20
-4.8610415575
 30
0.0
 10
11.0992866272
 20
-4.8617060626
 30
0.0
 10
11.0733337002
 20
-4.862230462
 30
0.0
 10
11.0473182557
 20
-4.8624578363
 30
0.0
 10
11.0213028063
 20
-4.8622304504
 30
0.0
 10
10.9953498953
 20
-4.8617060475
 30
0.0
 10
10.9695189164
 20
-4.8610415479
 30
0.0
 10
10.9523388856
 20
-4.8607943076
 30
0.0
 10
10.943779017
 20
-4.8607943046
 30
0.0
  0
SPLINE
  5
33D
100
AcDbEntity
  8
0
100
AcDbSpline
 62
9
  6
CONTINUOUS
 70
0
 71
3
 72
21
 73
17
 74
0
 42
0.0000001
 43
0.0000001
 44
0.0000000001
 40
0.0
 40
0.0
 40
0.0
 40
0.0
 40
0.084854474
 40
0.1669038861
 40
0.2461172934
 40
0.3224489923
 40
0.466274329
 40
0.5336892463
 40
0.5980622487
 40
0.6593708631
 40
0.7175940225
 40
0.8246658607
 40
0.8734400576
 40
0.918961082
 40
0.9611625781
 40
1.0
 40
1.0
 40
1.0
 40
1.0
 10
10.708717157
 20
-4.8607943064
 30
0.0
 10
10.7057868306
 20
-4.8607943084
 30
0.0
 10
10.7000229539
 20
-4.8608528396
 30
0.0
 10
10.6915262734
 20
-4.861071898
 30
0.0
 10
10.683326495
 20
-4.8613662305
 30
0.0
 10
10.6729964192
 20
-4.8617778437
 30
0.0
 10
10.6630715734
 20
-4.8621330057
 30
0.0
 10
10.6535557693
 20
-4.8623415325
 30
0.0
 10
10.6468874507
 20
-4.8624009251
 30
0.0
 10
10.6405364671
 20
-4.8623467396
 30
0.0
 10
10.6327131552
 20
-4.8621540027
 30
0.0
 10
10.6253273931
 20
-4.861815073
 30
0.0
 10
10.6183869404
 20
-4.8613828453
 30
0.0
 10
10.6136824956
 20
-4.8610867675
 30
0.0
 10
10.6093175585
 20
-4.8608626744
 30
0.0
 10
10.6065190299
 20
-4.8607943079
 30
0.0
 10
10.6051778357
 20
-4.8607943064
 30
0.0
  0
SPLINE
  5
33E
100
AcDbEntity
  8
0
100
AcDbSpline
 62
9
  6
CONTINUOUS
 70
0
 71
3
 72
17
 73
13
 74
0
 42
0.0000001
 43
0.0000001
 44
0.0000000001
 40
0.0
 40
0.0
 40
0.0
 40
0.0
 40
0.11616286
 40
0.2342414806
 40
0.2943225833
 40
0.3551631496
 40
0.4167997431
 40
0.4792216723
 40
0.6061789229
 40
0.7358157956
 40
0.8675446376
 40
1.0
 40
1.0
 40
1.0
 40
1.0
 10
11.5984259426
 20
-5.2655621521
 30
0.0
 10
11.5994432893
 20
-5.2653818828
 30
0.0
 10
11.6014633299
 20
-5.2648084337
 30
0.0
 10
11.6038042322
 20
-5.2635989503
 30
0.0
 10
11.6055390278
 20
-5.2623660145
 30
0.0
 10
11.6067711932
 20
-5.2613048486
 30
0.0
 10
11.6079168525
 20
-5.2601219357
 30
0.0
 10
11.6093259576
 20
-5.2583870753
 30
0.0
 10
11.6108229236
 20
-5.2559594747
 30
0.0
 10
11.6121377698
 20
-5.2527497198
 30
0.0
 10
11.6129395522
 20
-5.249325959
 30
0.0
 10
11.6131216021
 20
-5.2469724224
 30
0.0
 10
11.6131216021
 20
-5.2457943162
 30
0.0
  0
SPLINE
  5
33F
100
AcDbEntity
  8
0
100
AcDbSpline
 62
9
  6
CONTINUOUS
 70
0
 71
3
 72
17
 73
13
 74
0
 42
0.0000001
 43
0.0000001
 44
0.0000000001
 40
0.0
 40
0.0
 40
0.0
 40
0.0
 40
0.1075124069
 40
0.2202568894
 40
0.2785328651
 40
0.3380537789
 40
0.3988065336
 40
0.4607801706
 40
0.5883631714
 40
0.6539628061
 40
0.7207657358
 40
1.0
 40
1.0
 40
1.0
 40
1.0
 10
11.5180397884
 20
-4.8907943275
 30
0.0
 10
11.514091742
 20
-4.8907952293
 30
0.0
 10
11.5060037797
 20
-4.8909059639
 30
0.0
 10
11.4957779116
 20
-4.891119275
 30
0.0
 10
11.4873133088
 20
-4.89126871
 30
0.0
 10
11.4807572477
 20
-4.8913585947
 30
0.0
 10
11.4740650203
 20
-4.8914170271
 30
0.0
 10
11.464873199
 20
-4.8914417265
 30
0.0
 10
11.4555033743
 20
-4.891386379
 30
0.0
 10
11.4459570008
 20
-4.8912640157
 30
0.0
 10
11.4308428557
 20
-4.8910318408
 30
0.0
 10
11.4181368175
 20
-4.8907943175
 30
0.0
 10
11.4078828394
 20
-4.8907943162
 30
0.0
  0
SPLINE
  5
340
100
AcDbEntity
  8
0
100
AcDbSpline
 62
9
  6
CONTINUOUS
 70
0
 71
3
 72
19
 73
15
 74
0
 42
0.0000001
 43
0.0000001
 44
0.0000000001
 40
0.0
 40
0.0
 40
0.0
 40
0.0
 40
0.098305123
 40
0.1506832954
 40
0.2054895504
 40
0.2630378313
 40
0.3232971466
 40
0.4510452839
 40
0.5182988626
 40
0.5872176746
 40
0.6571772207
 40
0.7274760681
 40
0.8664721581
 40
1.0
 40
1.0
 40
1.0
 40
1.0
 10
11.4078828391
 20
-4.8907943162
 30
0.0
 10
11.4065388722
 20
-4.8907943162
 30
0.0
 10
11.4044684956
 20
-4.8905272156
 30
0.0
 10
11.4017894114
 20
-4.8896661859
 30
0.0
 10
11.3997420833
 20
-4.8887123414
 30
0.0
 10
11.3977394698
 20
-4.8874529632
 30
0.0
 10
11.3951159026
 20
-4.8853495455
 30
0.0
 10
11.3927663465
 20
-4.8827274692
 30
0.0
 10
11.3907877408
 20
-4.879705685
 30
0.0
 10
11.3894641608
 20
-4.8772132492
 30
0.0
 10
11.3883396077
 20
-4.8745804425
 30
0.0
 10
11.3871262915
 20
-4.8709566005
 30
0.0
 10
11.3861715268
 20
-4.8663493494
 30
0.0
 10
11.3859195192
 20
-4.8626198264
 30
0.0
 10
11.3859195192
 20
-4.8607943162
 30
0.0
  0
SPLINE
  5
341
100
AcDbEntity
  8
0
100
AcDbSpline
 62
9
  6
CONTINUOUS
 70
0
 71
3
 72
18
 73
14
 74
0
 42
0.0000001
 43
0.0000001
 44
0.0000000001
 40
0.0
 40
0.0
 40
0.0
 40
0.0
 40
0.1191302134
 40
0.2447717351
 40
0.3095761235
 40
0.3752052733
 40
0.5070242092
 40
0.6376299852
 40
0.7018444541
 40
0.7647961591
 40
0.8261837509
 40
0.8859521454
 40
1.0
 40
1.0
 40
1.0
 40
1.0
 10
11.4894588408
 20
-4.8607943162
 30
0.0
 10
11.4894588408
 20
-4.8626204406
 30
0.0
 10
11.4897916942
 20
-4.8663791074
 30
0.0
 10
11.4910466008
 20
-4.8709859782
 30
0.0
 10
11.4926225494
 20
-4.8745875603
 30
0.0
 10
11.4945840954
 20
-4.8781021103
 30
0.0
 10
11.4976687434
 20
-4.8821214066
 30
0.0
 10
11.5015203713
 20
-4.8853822674
 30
0.0
 10
11.5048922604
 20
-4.8874523016
 30
0.0
 10
11.5075010477
 20
-4.8887090654
 30
0.0
 10
11.5101637329
 20
-4.8896606551
 30
0.0
 10
11.5136678803
 20
-4.8905257743
 30
0.0
 10
11.5163403596
 20
-4.8907910263
 30
0.0
 10
11.5180885745
 20
-4.8907942702
 30
0.0
  0
SPLINE
  5
342
100
AcDbEntity
  8
0
100
AcDbSpline
 62
9
  6
CONTINUOUS
 70
0
 71
3
 72
18
 73
14
 74
0
 42
0.0000001
 43
0.0000001
 44
0.0000000001
 40
0.0
 40
0.0
 40
0.0
 40
0.0
 40
0.114052526
 40
0.1738225062
 40
0.2352114371
 40
0.2981641018
 40
0.362378945
 40
0.4929841928
 40
0.6248015398
 40
0.6904295137
 40
0.7552325801
 40
0.8808716624
 40
1.0
 40
1.0
 40
1.0
 40
1.0
 10
10.5765523717
 20
-4.8907942619
 30
0.0
 10
10.5783004959
 20
-4.8907907393
 30
0.0
 10
10.5809727814
 20
-4.8905251081
 30
0.0
 10
10.5844765964
 20
-4.8896595487
 30
0.0
 10
10.5871389598
 20
-4.8887076608
 30
0.0
 10
10.5897473831
 20
-4.8874506676
 30
0.0
 10
10.5931187403
 20
-4.8853804454
 30
0.0
 10
10.5969696615
 20
-4.8821195247
 30
0.0
 10
10.6000536835
 20
-4.8781004157
 30
0.0
 10
10.6020148221
 20
-4.8745861378
 30
0.0
 10
10.6035904253
 20
-4.8709848855
 30
0.0
 10
10.6048450534
 20
-4.8663784941
 30
0.0
 10
10.6051778353
 20
-4.8626202429
 30
0.0
 10
10.6051778353
 20
-4.8607943162
 30
0.0
  0
SPLINE
  5
343
100
AcDbEntity
  8
0
100
AcDbSpline
 62
9
  6
CONTINUOUS
 70
0
 71
3
 72
16
 73
12
 74
0
 42
0.0000001
 43
0.0000001
 44
0.0000000001
 40
0.0
 40
0.0
 40
0.0
 40
0.0
 40
0.1335100789
 40
0.2659883332
 40
0.3959357836
 40
0.5227763202
 40
0.6461495781
 40
0.7662217586
 40
0.8253674552
 40
0.8840322994
 40
1.0
 40
1.0
 40
1.0
 40
1.0
 10
11.3475404783
 20
-5.2457943162
 30
0.0
 10
11.3475404783
 20
-5.2470985712
 30
0.0
 10
11.3473179449
 20
-5.2497022472
 30
0.0
 10
11.3463375831
 20
-5.2534628174
 30
0.0
 10
11.3447381362
 20
-5.2569358416
 30
0.0
 10
11.3425804189
 20
-5.2599855093
 30
0.0
 10
11.339946851
 20
-5.2624993591
 30
0.0
 10
11.3374150574
 20
-5.26407146
 30
0.0
 10
11.3352634616
 20
-5.2649611456
 30
0.0
 10
11.333066328
 20
-5.2655959065
 30
0.0
 10
11.3313528543
 20
-5.2657943162
 30
0.0
 10
11.3302199702
 20
-5.2657943162
 30
0.0
  0
SPLINE
  5
344
100
AcDbEntity
  8
0
100
AcDbSpline
 62
9
  6
CONTINUOUS
 70
0
 71
3
 72
17
 73
13
 74
0
 42
0.0000001
 43
0.0000001
 44
0.0000000001
 40
0.0
 40
0.0
 40
0.0
 40
0.0
 40
0.1159323236
 40
0.1745673437
 40
0.2336837672
 40
0.3537203118
 40
0.4770826662
 40
0.6039229972
 40
0.668614762
 40
0.7340267365
 40
0.866508863
 40
1.0
 40
1.0
 40
1.0
 40
1.0
 10
10.7644167064
 20
-5.2657943162
 30
0.0
 10
10.7632840177
 20
-5.2657943162
 30
0.0
 10
10.76157093
 20
-5.2655962718
 30
0.0
 10
10.759374359
 20
-5.2649617219
 30
0.0
 10
10.757223415
 20
-5.2640721447
 30
0.0
 10
10.7546915302
 20
-5.2625007137
 30
0.0
 10
10.7520579657
 20
-5.2599874869
 30
0.0
 10
10.7502691191
 20
-5.2574601017
 30
0.0
 10
10.7491129529
 20
-5.2552286042
 30
0.0
 10
10.7481396519
 20
-5.2528514414
 30
0.0
 10
10.7473185946
 20
-5.2497020251
 30
0.0
 10
10.7470961983
 20
-5.247098559
 30
0.0
 10
10.7470961983
 20
-5.2457943162
 30
0.0
  0
SPLINE
  5
345
100
AcDbEntity
  8
0
100
AcDbSpline
 62
9
  6
CONTINUOUS
 70
0
 71
3
 72
17
 73
13
 74
0
 42
0.0000001
 43
0.0000001
 44
0.0000000001
 40
0.0
 40
0.0
 40
0.0
 40
0.0
 40
0.1324553624
 40
0.2641842044
 40
0.3938210771
 40
0.5207783277
 40
0.5832002569
 40
0.6448368504
 40
0.7056774167
 40
0.7657585194
 40
0.88383714
 40
1.0
 40
1.0
 40
1.0
 40
1.0
 10
10.4815150745
 20
-5.2457943162
 30
0.0
 10
10.4815150745
 20
-5.2469724224
 30
0.0
 10
10.4816971244
 20
-5.249325959
 30
0.0
 10
10.4824989068
 20
-5.2527497198
 30
0.0
 10
10.483813753
 20
-5.2559594747
 30
0.0
 10
10.4853107189
 20
-5.2583870753
 30
0.0
 10
10.4867198241
 20
-5.2601219357
 30
0.0
 10
10.4878654833
 20
-5.2613048486
 30
0.0
 10
10.4890976487
 20
-5.2623660145
 30
0.0
 10
10.4908324443
 20
-5.2635989503
 30
0.0
 10
10.4931733466
 20
-5.2648084337
 30
0.0
 10
10.4951933872
 20
-5.2653818828
 30
0.0
 10
10.4962107339
 20
-5.2655621521
 30
0.0
  0
SPLINE
  5
346
100
AcDbEntity
  8
0
100
AcDbSpline
 62
9
  6
CONTINUOUS
 70
0
 71
3
 72
17
 73
13
 74
0
 42
0.0000001
 43
0.0000001
 44
0.0000000001
 40
0.0
 40
0.0
 40
0.0
 40
0.0
 40
0.133491137
 40
0.2659732635
 40
0.331385238
 40
0.3960770028
 40
0.5229173338
 40
0.6462796882
 40
0.7663162328
 40
0.8254326563
 40
0.8840676764
 40
1.0
 40
1.0
 40
1.0
 40
1.0
 10
10.7470961983
 20
-4.9107943162
 30
0.0
 10
10.7470961983
 20
-4.9094900734
 30
0.0
 10
10.7473185946
 20
-4.9068866074
 30
0.0
 10
10.7481396519
 20
-4.9037371911
 30
0.0
 10
10.7491129529
 20
-4.9013600282
 30
0.0
 10
10.7502691191
 20
-4.8991285308
 30
0.0
 10
10.7520579657
 20
-4.8966011456
 30
0.0
 10
10.7546915302
 20
-4.8940879188
 30
0.0
 10
10.757223415
 20
-4.8925164878
 30
0.0
 10
10.759374359
 20
-4.8916269106
 30
0.0
 10
10.76157093
 20
-4.8909923607
 30
0.0
 10
10.7632840177
 20
-4.8907943162
 30
0.0
 10
10.7644167064
 20
-4.8907943162
 30
0.0
  0
SPLINE
  5
347
100
AcDbEntity
  8
0
100
AcDbSpline
 62
9
  6
CONTINUOUS
 70
0
 71
3
 72
17
 73
13
 74
0
 42
0.0000001
 43
0.0000001
 44
0.0000000001
 40
0.0
 40
0.0
 40
0.0
 40
0.0
 40
0.1161526827
 40
0.234193279
 40
0.2942561079
 40
0.3550854287
 40
0.4167134536
 40
0.4791282005
 40
0.6060827359
 40
0.735745532
 40
0.8675242069
 40
1.0
 40
1.0
 40
1.0
 40
1.0
 10
10.4962103802
 20
-4.8910265846
 30
0.0
 10
10.4951931429
 20
-4.8912068697
 30
0.0
 10
10.4931735577
 20
-4.8917801692
 30
0.0
 10
10.4908330938
 20
-4.8929891287
 30
0.0
 10
10.4890988117
 20
-4.8942217097
 30
0.0
 10
10.4878669469
 20
-4.8952826593
 30
0.0
 10
10.4867212341
 20
-4.8964651412
 30
0.0
 10
10.4853118809
 20
-4.8981995615
 30
0.0
 10
10.483814803
 20
-4.9006272145
 30
0.0
 10
10.4824992401
 20
-4.9038373414
 30
0.0
 10
10.4816975307
 20
-4.9072619543
 30
0.0
 10
10.4815150745
 20
-4.9096160449
 30
0.0
 10
10.4815150745
 20
-4.9107943162
 30
0.0
  0
SPLINE
  5
348
100
AcDbEntity
  8
0
100
AcDbSpline
 62
9
  6
CONTINUOUS
 70
0
 71
3
 72
16
 73
12
 74
0
 42
0.0000001
 43
0.0000001
 44
0.0000000001
 40
0.0
 40
0.0
 40
0.0
 40
0.0
 40
0.132477958
 40
0.2642113348
 40
0.3938257964
 40
0.5207749163
 40
0.5832007265
 40
0.6448423052
 40
0.765653422
 40
0.8837783127
 40
1.0
 40
1.0
 40
1.0
 40
1.0
 10
11.6131216021
 20
-4.9107943162
 30
0.0
 10
11.6131216021
 20
-4.9096159841
 30
0.0
 10
11.6129394213
 20
-4.9072621579
 30
0.0
 10
11.6121375984
 20
-4.9038383095
 30
0.0
 10
11.6108228485
 20
-4.9006286355
 30
0.0
 10
11.6093256692
 20
-4.8982014679
 30
0.0
 10
11.607916557
 20
-4.8964663718
 30
0.0
 10
11.6063998939
 20
-4.8948998622
 30
0.0
 10
11.6042849704
 20
-4.8932372142
 30
0.0
 10
11.6014612959
 20
-4.8917794769
 30
0.0
 10
11.5994398194
 20
-4.8912061141
 30
0.0
 10
11.5984219015
 20
-4.8910259438
 30
0.0
  0
SPLINE
  5
349
100
AcDbEntity
  8
0
100
AcDbSpline
 62
9
  6
CONTINUOUS
 70
0
 71
3
 72
17
 73
13
 74
0
 42
0.0000001
 43
0.0000001
 44
0.0000000001
 40
0.0
 40
0.0
 40
0.0
 40
0.0
 40
0.1159309767
 40
0.1745595568
 40
0.23365982
 40
0.3536536669
 40
0.4149547943
 40
0.4771471304
 40
0.6039743868
 40
0.7339609797
 40
0.8664892755
 40
1.0
 40
1.0
 40
1.0
 40
1.0
 10
11.3302199702
 20
-4.8907943162
 30
0.0
 10
11.3313526701
 20
-4.8907943162
 30
0.0
 10
11.3330656943
 20
-4.8909924102
 30
0.0
 10
11.3352621396
 20
-4.8916268926
 30
0.0
 10
11.3374124364
 20
-4.892515906
 30
0.0
 10
11.3394256356
 20
-4.893765549
 30
0.0
 10
11.3412329822
 20
-4.8953171613
 30
0.0
 10
11.3429238898
 20
-4.8970892784
 30
0.0
 10
11.3447364878
 20
-4.899649651
 30
0.0
 10
11.3463367649
 20
-4.9031232016
 30
0.0
 10
11.347317582
 20
-4.9068853388
 30
0.0
 10
11.3475404783
 20
-4.9094898539
 30
0.0
 10
11.3475404783
 20
-4.9107943162
 30
0.0
  0
SPLINE
  5
34A
100
AcDbEntity
  8
0
100
AcDbSpline
 62
9
  6
CONTINUOUS
 70
0
 71
3
 72
17
 73
13
 74
0
 42
0.0000001
 43
0.0000001
 44
0.0000000001
 40
0.0
 40
0.0
 40
0.0
 40
0.0
 40
0.1247701499
 40
0.2497381748
 40
0.3748354421
 40
0.4999968778
 40
0.6251590873
 40
0.6877203513
 40
0.7502574034
 40
0.8127626783
 40
0.8752284728
 40
1.0
 40
1.0
 40
1.0
 40
1.0
 10
11.1575737236
 20
-4.8907943162
 30
0.0
 10
11.1484024935
 20
-4.8907943179
 30
0.0
 10
11.1300455613
 20
-4.8908986295
 30
0.0
 10
11.1024945618
 20
-4.891158142
 30
0.0
 10
11.0749143082
 20
-4.8913743586
 30
0.0
 10
11.0473189643
 20
-4.891457142
 30
0.0
 10
11.0243203382
 20
-4.8913871398
 30
0.0
 10
11.0059253241
 20
-4.8912667756
 30
0.0
 10
10.9921359961
 20
-4.8911520227
 30
0.0
 10
10.9783537583
 20
-4.8910286686
 30
0.0
 10
10.9599971258
 20
-4.8908717248
 30
0.0
 10
10.9462342843
 20
-4.8907943172
 30
0.0
 10
10.9370629529
 20
-4.8907943162
 30
0.0
  0
SPLINE
  5
34B
100
AcDbEntity
  8
0
100
AcDbSpline
 62
9
  6
CONTINUOUS
 70
0
 71
3
 72
23
 73
19
 74
0
 42
0.0000001
 43
0.0000001
 44
0.0000000001
 40
0.0
 40
0.0
 40
0.0
 40
0.0
 40
0.009467274
 40
0.0194721284
 40
0.0303472316
 40
0.0423864007
 40
0.0708694753
 40
0.1065229685
 40
0.150304318
 40
0.2022249094
 40
0.2619492863
 40
0.329057277
 40
0.4029455114
 40
0.4824028616
 40
0.5660376705
 40
0.6524366979
 40
0.8281830658
 40
1.0
 40
1.0
 40
1.0
 40
1.0
 10
10.937062953
 20
-4.8907943162
 30
0.0
 10
10.9371633335
 20
-4.8907943162
 30
0.0
 10
10.9373703326
 20
-4.8907727869
 30
0.0
 10
10.9376793519
 20
-4.8906768787
 30
0.0
 10
10.937990749
 20
-4.8905156892
 30
0.0
 10
10.9384323971
 20
-4.8901934687
 30
0.0
 10
10.9389825777
 20
-4.8895923967
 30
0.0
 10
10.9395998823
 20
-4.8886250709
 30
0.0
 10
10.9402011283
 20
-4.887365908
 30
0.0
 10
10.9407827275
 20
-4.8858225351
 30
0.0
 10
10.9413342061
 20
-4.8840080842
 30
0.0
 10
10.941844171
 20
-4.8819409991
 30
0.0
 10
10.9423006218
 20
-4.8796478895
 30
0.0
 10
10.9427017577
 20
-4.877166985
 30
0.0
 10
10.943043243
 20
-4.8745434066
 30
0.0
 10
10.9434153879
 20
-4.8708956577
 30
0.0
 10
10.9437032603
 20
-4.8663015744
 30
0.0
 10
10.943779017
 20
-4.8626160731
 30
0.0
 10
10.943779017
 20
-4.8607943162
 30
0.0
  0
SPLINE
  5
34C
100
AcDbEntity
  8
0
100
AcDbSpline
 62
9
  6
CONTINUOUS
 70
0
 71
3
 72
23
 73
19
 74
0
 42
0.0000001
 43
0.0000001
 44
0.0000000001
 40
0.0
 40
0.0
 40
0.0
 40
0.0
 40
0.1718169342
 40
0.3475633021
 40
0.4339623295
 40
0.5175971384
 40
0.5970544886
 40
0.670942723
 40
0.7380507137
 40
0.7977750906
 40
0.849695682
 40
0.8934770315
 40
0.9291305247
 40
0.9576135992
 40
0.9696527684
 40
0.9805278716
 40
0.990532726
 40
1.0
 40
1.0
 40
1.0
 40
1.0
 10
11.1508576596
 20
-4.8607943162
 30
0.0
 10
11.1508576596
 20
-4.8626160731
 30
0.0
 10
11.1509334163
 20
-4.8663015744
 30
0.0
 10
11.1512212887
 20
-4.8708956577
 30
0.0
 10
11.1515934336
 20
-4.8745434066
 30
0.0
 10
11.1519349189
 20
-4.877166985
 30
0.0
 10
11.1523360548
 20
-4.8796478895
 30
0.0
 10
11.1527925056
 20
-4.8819409991
 30
0.0
 10
11.1533024705
 20
-4.8840080842
 30
0.0
 10
11.1538539491
 20
-4.8858225351
 30
0.0
 10
11.1544355483
 20
-4.887365908
 30
0.0
 10
11.1550367943
 20
-4.8886250709
 30
0.0
 10
11.1556540989
 20
-4.8895923967
 30
0.0
 10
11.1562042795
 20
-4.8901934687
 30
0.0
 10
11.1566459276
 20
-4.8905156892
 30
0.0
 10
11.1569573247
 20
-4.8906768787
 30
0.0
 10
11.157266344
 20
-4.8907727869
 30
0.0
 10
11.1574733431
 20
-4.8907943162
 30
0.0
 10
11.1575737236
 20
-4.8907943162
 30
0.0
  0
SPLINE
  5
34D
100
AcDbEntity
  8
0
100
AcDbSpline
 62
9
  6
CONTINUOUS
 70
0
 71
3
 72
19
 73
15
 74
0
 42
0.0000001
 43
0.0000001
 44
0.0000000001
 40
0.0
 40
0.0
 40
0.0
 40
0.0
 40
0.1335278419
 40
0.2725239318
 40
0.3428227791
 40
0.4127823252
 40
0.4817011373
 40
0.5489547159
 40
0.6767028532
 40
0.7369621685
 40
0.7945104495
 40
0.8493167045
 40
0.9016948769
 40
1.0
 40
1.0
 40
1.0
 40
1.0
 10
10.708717157
 20
-4.8607943162
 30
0.0
 10
10.708717157
 20
-4.8626198264
 30
0.0
 10
10.7084651494
 20
-4.8663493494
 30
0.0
 10
10.7075103847
 20
-4.8709566005
 30
0.0
 10
10.7062970685
 20
-4.8745804425
 30
0.0
 10
10.7051725154
 20
-4.8772132492
 30
0.0
 10
10.7038489354
 20
-4.879705685
 30
0.0
 10
10.7018703298
 20
-4.8827274692
 30
0.0
 10
10.6995207736
 20
-4.8853495455
 30
0.0
 10
10.6968972064
 20
-4.8874529632
 30
0.0
 10
10.694894593
 20
-4.8887123414
 30
0.0
 10
10.6928472648
 20
-4.8896661859
 30
0.0
 10
10.6901681806
 20
-4.8905272156
 30
0.0
 10
10.688097804
 20
-4.8907943162
 30
0.0
 10
10.6867538371
 20
-4.8907943162
 30
0.0
  0
SPLINE
  5
34E
100
AcDbEntity
  8
0
100
AcDbSpline
 62
9
  6
CONTINUOUS
 70
0
 71
3
 72
17
 73
13
 74
0
 42
0.0000001
 43
0.0000001
 44
0.0000000001
 40
0.0
 40
0.0
 40
0.0
 40
0.0
 40
0.1420198051
 40
0.2792235928
 40
0.4116236641
 40
0.4760189874
 40
0.5392068584
 40
0.6619333052
 40
0.7797323798
 40
0.8367489007
 40
0.8924841887
 40
1.0
 40
1.0
 40
1.0
 40
1.0
 10
10.6867538371
 20
-4.8907943162
 30
0.0
 10
10.6815390006
 20
-4.8907943175
 30
0.0
 10
10.6712862496
 20
-4.890893907
 30
0.0
 10
10.6561741181
 20
-4.8911529951
 30
0.0
 10
10.64391124
 20
-4.8913352116
 30
0.0
 10
10.6343651873
 20
-4.8914155205
 30
0.0
 10
10.6251740475
 20
-4.891441841
 30
0.0
 10
10.6140218628
 20
-4.8913790996
 30
0.0
 10
10.603097787
 20
-4.8911981838
 30
0.0
 10
10.594633794
 20
-4.891031943
 30
0.0
 10
10.5865473594
 20
-4.8908749128
 30
0.0
 10
10.5805530594
 20
-4.8907952815
 30
0.0
 10
10.5766051778
 20
-4.8907943291
 30
0.0
  0
SPLINE
  5
34F
100
AcDbEntity
  8
0
100
AcDbSpline
 62
9
  6
CONTINUOUS
 70
0
 71
3
 72
21
 73
17
 74
0
 42
0.0000001
 43
0.0000001
 44
0.0000000001
 40
0.0
 40
0.0
 40
0.0
 40
0.0
 40
0.0388375052
 40
0.0810391654
 40
0.1265603749
 40
0.1753347184
 40
0.2824066304
 40
0.3406297801
 40
0.4019384054
 40
0.4663114625
 40
0.5337264442
 40
0.67755175
 40
0.75388328
 40
0.8330964592
 40
0.915145656
 40
1.0
 40
1.0
 40
1.0
 40
1.0
 10
11.4894588408
 20
-4.8607943059
 30
0.0
 10
11.4881176438
 20
-4.8607943086
 30
0.0
 10
11.4853191067
 20
-4.8608626782
 30
0.0
 10
11.4809541549
 20
-4.8610867759
 30
0.0
 10
11.4762496932
 20
-4.8613828569
 30
0.0
 10
11.4693092265
 20
-4.8618150846
 30
0.0
 10
11.4619234567
 20
-4.8621540057
 30
0.0
 10
11.454100142
 20
-4.8623467339
 30
0.0
 10
11.4477491565
 20
-4.8624009146
 30
0.0
 10
11.4410808335
 20
-4.8623415217
 30
0.0
 10
11.4315650263
 20
-4.8621329982
 30
0.0
 10
11.4216401851
 20
-4.8617778416
 30
0.0
 10
11.4113101241
 20
-4.8613662286
 30
0.0
 10
11.4031103669
 20
-4.8610718956
 30
0.0
 10
11.3946137062
 20
-4.860852837
 30
0.0
 10
11.3888498415
 20
-4.860794307
 30
0.0
 10
11.3859195196
 20
-4.8607943059
 30
0.0
  0
SPLINE
  5
350
100
AcDbEntity
  8
0
100
AcDbSpline
 62
9
  6
CONTINUOUS
 70
0
 71
3
 72
19
 73
15
 74
0
 42
0.0000001
 43
0.0000001
 44
0.0000000001
 40
0.0
 40
0.0
 40
0.0
 40
0.0
 40
0.1345107642
 40
0.201453418
 40
0.267971253
 40
0.3339101283
 40
0.3991702921
 40
0.4636828728
 40
0.5273680027
 40
0.590135598
 40
0.6519150323
 40
0.7723839052
 40
0.8885105925
 40
1.0
 40
1.0
 40
1.0
 40
1.0
 10
11.0473183383
 20
17.1392057188
 30
0.0
 10
11.0624762779
 20
17.1392067762
 30
0.0
 10
11.0851937523
 20
17.140220515
 30
0.0
 10
11.1152172168
 20
17.1435125905
 30
0.0
 10
11.137435816
 20
17.1469162231
 30
0.0
 10
11.1593001758
 20
17.1512374751
 30
0.0
 10
11.180741378
 20
17.1564305339
 30
0.0
 10
11.2017055153
 20
17.1624336233
 30
0.0
 10
11.2221432444
 20
17.1691896541
 30
0.0
 10
11.2420086325
 20
17.176642783
 30
0.0
 10
11.2674667991
 20
17.1873452767
 30
0.0
 10
11.2977109988
 20
17.2021137902
 30
0.0
 10
11.3316633273
 20
17.2218163579
 30
0.0
 10
11.352945663
 20
17.2361722986
 30
0.0
 10
11.3631284981
 20
17.2435313635
 30
0.0
  0
SPLINE
  5
351
100
AcDbEntity
  8
0
100
AcDbSpline
 62
9
  6
CONTINUOUS
 70
0
 71
3
 72
28
 73
24
 74
0
 42
0.0000001
 43
0.0000001
 44
0.0000000001
 40
0.0
 40
0.0
 40
0.0
 40
0.0
 40
0.1900203186
 40
0.2807627413
 40
0.3684041789
 40
0.4527309786
 40
0.5334285137
 40
0.6100338654
 40
0.6820522856
 40
0.7489611619
 40
0.8100436967
 40
0.8644041552
 40
0.9110428498
 40
0.9311339313
 40
0.9488970088
 40
0.9642031889
 40
0.9769232324
 40
0.9869332073
 40
0.9941542133
 40
0.9967009269
 40
0.9985289045
 40
0.9996309843
 40
1.0
 40
1.0
 40
1.0
 40
1.0
 10
11.3701794843
 20
17.248708031
 30
0.0
 10
11.3811658636
 20
17.2569013314
 30
0.0
 10
11.3969792872
 20
17.2695848635
 30
0.0
 10
11.4168397322
 20
17.2872408508
 30
0.0
 10
11.4305958403
 20
17.3002762353
 30
0.0
 10
11.4434363634
 20
17.3132110538
 30
0.0
 10
11.4553517338
 20
17.3259318963
 30
0.0
 10
11.4663305121
 20
17.3383048319
 30
0.0
 10
11.4763529244
 20
17.350189825
 30
0.0
 10
11.4853883806
 20
17.3614368497
 30
0.0
 10
11.493401107
 20
17.3718674328
 30
0.0
 10
11.5003432569
 20
17.3812737608
 30
0.0
 10
11.5054111748
 20
17.3883869949
 30
0.0
 10
11.5088928916
 20
17.3933884981
 30
0.0
 10
11.5110638527
 20
17.3965488692
 30
0.0
 10
11.5129185885
 20
17.3992814103
 30
0.0
 10
11.5144484677
 20
17.4015585696
 30
0.0
 10
11.5156472228
 20
17.4033556429
 30
0.0
 10
11.5164359582
 20
17.4045442114
 30
0.0
 10
11.5168964
 20
17.405242382
 30
0.0
 10
11.5171140614
 20
17.4055720211
 30
0.0
 10
11.5172437562
 20
17.4057715023
 30
0.0
 10
11.5173027808
 20
17.4058596897
 30
0.0
 10
11.5173169688
 20
17.4058822078
 30
0.0
  0
SPLINE
  5
352
100
AcDbEntity
  8
0
100
AcDbSpline
 62
9
  6
CONTINUOUS
 70
0
 71
3
 72
40
 73
36
 74
0
 42
0.0000001
 43
0.0000001
 44
0.0000000001
 40
0.0
 40
0.0
 40
0.0
 40
0.0
 40
0.0000231129
 40
0.0000923794
 40
0.0002076874
 40
0.0003689249
 40
0.0008287404
 40
0.0014709297
 40
0.0022945969
 40
0.0032988466
 40
0.0044827834
 40
0.0058455122
 40
0.0091037669
 40
0.0130664555
 40
0.0177264271
 40
0.0230764007
 40
0.0291050595
 40
0.0357964524
 40
0.0511027048
 40
0.068865967
 40
0.0889573844
 40
0.1112457724
 40
0.1355973284
 40
0.1618788221
 40
0.1899587812
 40
0.2197172089
 40
0.2510418354
 40
0.3179504629
 40
0.3899690503
 40
0.4665747188
 40
0.547272414
 40
0.6315989653
 40
0.7192397996
 40
0.8099814075
 40
1.0
 40
1.0
 40
1.0
 40
1.0
 10
10.5773197104
 20
17.4058822001
 30
0.0
 10
10.5773191333
 20
17.4058837641
 30
0.0
 10
10.5773264022
 20
17.4058709841
 30
0.0
 10
10.5773311064
 20
17.4058653947
 30
0.0
 10
10.5773467421
 20
17.4058405946
 30
0.0
 10
10.577374642
 20
17.4057985473
 30
0.0
 10
10.5774254956
 20
17.4057205781
 30
0.0
 10
10.577501305
 20
17.4056053243
 30
0.0
 10
10.5775993632
 20
17.4054561263
 30
0.0
 10
10.5777187862
 20
17.4052748094
 30
0.0
 10
10.5778598194
 20
17.4050609543
 30
0.0
 10
10.5780905722
 20
17.4047115923
 30
0.0
 10
10.5784323624
 20
17.4041953284
 30
0.0
 10
10.5789064152
 20
17.4034814214
 30
0.0
 10
10.5794651101
 20
17.4026426032
 30
0.0
 10
10.5801077344
 20
17.4016806432
 30
0.0
 10
10.580833508
 20
17.4005980166
 30
0.0
 10
10.5819626282
 20
17.3989212044
 30
0.0
 10
10.5835732734
 20
17.3965482211
 30
0.0
 10
10.5857444351
 20
17.3933875918
 30
0.0
 10
10.5882229597
 20
17.3898271934
 30
0.0
 10
10.5910002738
 20
17.3858958987
 30
0.0
 10
10.5940682082
 20
17.3816234202
 30
0.0
 10
10.5974183361
 20
17.3770395128
 30
0.0
 10
10.6010428216
 20
17.3721733566
 30
0.0
 10
10.6049342925
 20
17.3670528281
 30
0.0
 10
10.6105953074
 20
17.3597599635
 30
0.0
 10
10.6182872569
 20
17.3501856682
 30
0.0
 10
10.628310479
 20
17.3382998633
 30
0.0
 10
10.6392902405
 20
17.3259260783
 30
0.0
 10
10.6512066522
 20
17.3132044138
 30
0.0
 10
10.6640482927
 20
17.3002688607
 30
0.0
 10
10.6778055774
 20
17.2872328407
 30
0.0
 10
10.6976677106
 20
17.2695761149
 30
0.0
 10
10.7134824934
 20
17.2568921537
 30
0.0
 10
10.7244698154
 20
17.2486986188
 30
0.0
  0
SPLINE
  5
353
100
AcDbEntity
  8
0
100
AcDbSpline
 62
9
  6
CONTINUOUS
 70
0
 71
3
 72
19
 73
15
 74
0
 42
0.0000001
 43
0.0000001
 44
0.0000000001
 40
0.0
 40
0.0
 40
0.0
 40
0.0
 40
0.1114929392
 40
0.2276222333
 40
0.3480927847
 40
0.4098727977
 40
0.4726408064
 40
0.5363260657
 40
0.6008384131
 40
0.6660979001
 40
0.7320355685
 40
0.7985516964
 40
0.8654924324
 40
1.0
 40
1.0
 40
1.0
 40
1.0
 10
10.7315431009
 20
17.243506133
 30
0.0
 10
10.7417255081
 20
17.2361485297
 30
0.0
 10
10.7630067329
 20
17.2217955589
 30
0.0
 10
10.7969568031
 20
17.2020973183
 30
0.0
 10
10.8271985219
 20
17.1873322613
 30
0.0
 10
10.8526543069
 20
17.1766324076
 30
0.0
 10
10.872517658
 20
17.1691811894
 30
0.0
 10
10.8929531204
 20
17.1624269335
 30
0.0
 10
10.9139147401
 20
17.15642547
 30
0.0
 10
10.9353531553
 20
17.1512338657
 30
0.0
 10
10.9572144559
 20
17.1469138768
 30
0.0
 10
10.9794297615
 20
17.1435112684
 30
0.0
 10
11.0094486916
 20
17.1402202082
 30
0.0
 10
11.0321626901
 20
17.1392068079
 30
0.0
 10
11.0473183383
 20
17.1392057337
 30
0.0
  0
SPLINE
  5
354
100
AcDbEntity
  8
0
100
AcDbSpline
 62
9
  6
CONTINUOUS
 70
0
 71
3
 72
40
 73
36
 74
0
 42
0.0000001
 43
0.0000001
 44
0.0000000001
 40
0.0
 40
0.0
 40
0.0
 40
0.0
 40
0.0000231054
 40
0.0000923502
 40
0.0002076226
 40
0.0003688105
 40
0.0008284853
 40
0.0014704797
 40
0.0022938987
 40
0.0032978477
 40
0.0044814323
 40
0.0058437584
 40
0.0091010597
 40
0.0130626041
 40
0.0177212482
 40
0.0230697231
 40
0.0290967596
 40
0.0357864296
 40
0.0510889966
 40
0.0688483575
 40
0.0889357849
 40
0.1112202501
 40
0.135568094
 40
0.1618462233
 40
0.1899232665
 40
0.2196792329
 40
0.2510019425
 40
0.3179085624
 40
0.3899267501
 40
0.466533792
 40
0.5472350279
 40
0.6315672232
 40
0.7192146843
 40
0.809963826
 40
1.0
 40
1.0
 40
1.0
 40
1.0
 10
11.5173169686
 20
7.6225291857
 30
0.0
 10
11.5173175383
 20
7.6225276214
 30
0.0
 10
11.5173102958
 20
7.6225403892
 30
0.0
 10
11.5173055827
 20
7.622545965
 30
0.0
 10
11.5172899779
 20
7.6225707333
 30
0.0
 10
11.517262112
 20
7.6226127194
 30
0.0
 10
11.517211334
 20
7.6226905803
 30
0.0
 10
11.5171356294
 20
7.6228056715
 30
0.0
 10
11.51703771
 20
7.6229546605
 30
0.0
 10
11.5169184546
 20
7.6231357235
 30
0.0
 10
11.5167776195
 20
7.6233492796
 30
0.0
 10
11.5165471903
 20
7.6236981545
 30
0.0
 10
11.5162058789
 20
7.6242137002
 30
0.0
 10
11.5157324894
 20
7.6249266168
 30
0.0
 10
11.515174575
 20
7.6257642755
 30
0.0
 10
11.5145328449
 20
7.6267249128
 30
0.0
 10
11.5138080787
 20
7.6278060637
 30
0.0
 10
11.5126805121
 20
7.6294806232
 30
0.0
 10
11.511072069
 20
7.6318504671
 30
0.0
 10
11.5089038615
 20
7.6350069826
 30
0.0
 10
11.5064286806
 20
7.638562841
 30
0.0
 10
11.5036550865
 20
7.6424892376
 30
0.0
 10
11.5005912287
 20
7.6467565251
 30
0.0
 10
11.4972455172
 20
7.6513350114
 30
0.0
 10
11.4936257766
 20
7.656195571
 30
0.0
 10
11.4897393662
 20
7.6613103748
 30
0.0
 10
11.4840856104
 20
7.6685954002
 30
0.0
 10
11.4764035132
 20
7.6781598307
 30
0.0
 10
11.4663931371
 20
7.6900339334
 30
0.0
 10
11.4554274328
 20
7.7023962259
 30
0.0
 10
11.4435262772
 20
7.7151068707
 30
0.0
 10
11.4307011484
 20
7.7280320822
 30
0.0
 10
11.4169615848
 20
7.7410584746
 30
0.0
 10
11.3971251244
 20
7.7587033902
 30
0.0
 10
11.3813310843
 20
7.7713802882
 30
0.0
 10
11.3703582088
 20
7.7795700235
 30
0.0
  0
SPLINE
  5
355
100
AcDbEntity
  8
0
100
AcDbSpline
 62
9
  6
CONTINUOUS
 70
0
 71
3
 72
16
 73
12
 74
0
 42
0.0000001
 43
0.0000001
 44
0.0000000001
 40
0.0
 40
0.0
 40
0.0
 40
0.0
 40
0.1108587128
 40
0.2265691248
 40
0.3468371855
 40
0.4085852326
 40
0.4713648674
 40
0.7309936556
 40
0.7977367967
 40
0.8649343641
 40
1.0
 40
1.0
 40
1.0
 40
1.0
 10
11.3703582088
 20
7.7795700235
 30
0.0
 10
11.3600841452
 20
7.7872381925
 30
0.0
 10
11.3385642109
 20
7.8022248759
 30
0.0
 10
11.3041258
 20
7.8228481686
 30
0.0
 10
11.2733435121
 20
7.8383506107
 30
0.0
 10
11.247362936
 20
7.8496139727
 30
0.0
 10
11.2059290639
 20
7.8656445992
 30
0.0
 10
11.1622286467
 20
7.8775385912
 30
0.0
 10
11.1172657761
 20
7.8846354073
 30
0.0
 10
11.0863451152
 20
7.8881287327
 30
0.0
 10
11.0629379201
 20
7.8892046097
 30
0.0
 10
11.0473183383
 20
7.889205677
 30
0.0
  0
SPLINE
  5
356
100
AcDbEntity
  8
0
100
AcDbSpline
 62
9
  6
CONTINUOUS
 70
0
 71
3
 72
16
 73
12
 74
0
 42
0.0000001
 43
0.0000001
 44
0.0000000001
 40
0.0
 40
0.0
 40
0.0
 40
0.0
 40
0.1350678677
 40
0.2022660273
 40
0.2690094495
 40
0.5286373096
 40
0.591416555
 40
0.6531642428
 40
0.7734316793
 40
0.8891416055
 40
1.0
 40
1.0
 40
1.0
 40
1.0
 10
11.0473183383
 20
7.8892056488
 30
0.0
 10
11.0316986075
 20
7.8892045021
 30
0.0
 10
11.0082912548
 20
7.8881285952
 30
0.0
 10
10.9773704488
 20
7.8846352885
 30
0.0
 10
10.9324078857
 20
7.8775386018
 30
0.0
 10
10.8887078895
 20
7.8656447115
 30
0.0
 10
10.8472744823
 20
7.8496142831
 30
0.0
 10
10.8212942178
 20
7.8383510991
 30
0.0
 10
10.7905122601
 20
7.8228489169
 30
0.0
 10
10.756074162
 20
7.8022259704
 30
0.0
 10
10.7345543978
 20
7.7872395262
 30
0.0
 10
10.7242804061
 20
7.779571472
 30
0.0
  0
SPLINE
  5
357
100
AcDbEntity
  8
0
100
AcDbSpline
 62
9
  6
CONTINUOUS
 70
0
 71
3
 72
28
 73
24
 74
0
 42
0.0000001
 43
0.0000001
 44
0.0000000001
 40
0.0
 40
0.0
 40
0.0
 40
0.0
 40
0.1900365281
 40
0.2807858576
 40
0.3684333933
 40
0.4527654565
 40
0.5334663878
 40
0.6100731414
 40
0.6820912574
 40
0.748998206
 40
0.8100765714
 40
0.8644312525
 40
0.9110630128
 40
0.9311504317
 40
0.9489098898
 40
0.9642126262
 40
0.9769295324
 40
0.9869368559
 40
0.994155892
 40
0.9967018937
 40
0.9985293501
 40
0.9996311054
 40
1.0
 40
1.0
 40
1.0
 40
1.0
 10
10.7242804061
 20
7.779571472
 30
0.0
 10
10.7133073753
 20
7.771381686
 30
0.0
 10
10.6975131177
 20
7.7587046901
 30
0.0
 10
10.677676394
 20
7.741059627
 30
0.0
 10
10.6639366597
 20
7.7280331411
 30
0.0
 10
10.6511113881
 20
7.7151078673
 30
0.0
 10
10.6392101057
 20
7.7023971838
 30
0.0
 10
10.6282443065
 20
7.6900348438
 30
0.0
 10
10.6182337608
 20
7.6781606536
 30
0.0
 10
10.6092090706
 20
7.6669244366
 30
0.0
 10
10.6012059312
 20
7.6565044752
 30
0.0
 10
10.5942721948
 20
7.6471082601
 30
0.0
 10
10.5892104552
 20
7.640003004
 30
0.0
 10
10.5857330335
 20
7.6350073269
 30
0.0
 10
10.5835648026
 20
7.6318507591
 30
0.0
 10
10.5817124194
 20
7.6291215775
 30
0.0
 10
10.5801844996
 20
7.6268472718
 30
0.0
 10
10.5789872801
 20
7.6250524925
 30
0.0
 10
10.5781995796
 20
7.6238654438
 30
0.0
 10
10.5777397184
 20
7.6231681874
 30
0.0
 10
10.5775223708
 20
7.6228389588
 30
0.0
 10
10.577392794
 20
7.6226397722
 30
0.0
 10
10.577333902
 20
7.622551667
 30
0.0
 10
10.5773197106
 20
7.6225291935
 30
0.0
  0
SPLINE
  5
358
100
AcDbEntity
  8
0
100
AcDbSpline
 62
9
  6
CONTINUOUS
 70
0
 71
3
 72
19
 73
15
 74
0
 42
0.0000001
 43
0.0000001
 44
0.0000000001
 40
0.0
 40
0.0
 40
0.0
 40
0.0
 40
0.1345107642
 40
0.201453418
 40
0.267971253
 40
0.3339101283
 40
0.3991702921
 40
0.4636828728
 40
0.5273680027
 40
0.590135598
 40
0.6519150323
 40
0.7723839052
 40
0.8885105925
 40
1.0
 40
1.0
 40
1.0
 40
1.0
 10
11.0473183383
 20
6.5692057188
 30
0.0
 10
11.0624762779
 20
6.5692067762
 30
0.0
 10
11.0851937523
 20
6.570220515
 30
0.0
 10
11.1152172168
 20
6.5735125905
 30
0.0
 10
11.137435816
 20
6.5769162231
 30
0.0
 10
11.1593001758
 20
6.5812374751
 30
0.0
 10
11.180741378
 20
6.5864305339
 30
0.0
 10
11.2017055153
 20
6.5924336233
 30
0.0
 10
11.2221432444
 20
6.5991896541
 30
0.0
 10
11.2420086325
 20
6.606642783
 30
0.0
 10
11.2674667991
 20
6.6173452767
 30
0.0
 10
11.2977109988
 20
6.6321137902
 30
0.0
 10
11.3316633273
 20
6.6518163579
 30
0.0
 10
11.352945663
 20
6.6661722986
 30
0.0
 10
11.3631284981
 20
6.6735313635
 30
0.0
  0
SPLINE
  5
359
100
AcDbEntity
  8
0
100
AcDbSpline
 62
9
  6
CONTINUOUS
 70
0
 71
3
 72
28
 73
24
 74
0
 42
0.0000001
 43
0.0000001
 44
0.0000000001
 40
0.0
 40
0.0
 40
0.0
 40
0.0
 40
0.1900203186
 40
0.2807627413
 40
0.3684041789
 40
0.4527309786
 40
0.5334285137
 40
0.6100338654
 40
0.6820522856
 40
0.7489611619
 40
0.8100436967
 40
0.8644041552
 40
0.9110428498
 40
0.9311339313
 40
0.9488970088
 40
0.9642031889
 40
0.9769232324
 40
0.9869332073
 40
0.9941542133
 40
0.9967009269
 40
0.9985289045
 40
0.9996309843
 40
1.0
 40
1.0
 40
1.0
 40
1.0
 10
11.3701794843
 20
6.678708031
 30
0.0
 10
11.3811658636
 20
6.6869013314
 30
0.0
 10
11.3969792872
 20
6.6995848635
 30
0.0
 10
11.4168397322
 20
6.7172408508
 30
0.0
 10
11.4305958403
 20
6.7302762353
 30
0.0
 10
11.4434363634
 20
6.7432110538
 30
0.0
 10
11.4553517338
 20
6.7559318963
 30
0.0
 10
11.4663305121
 20
6.7683048319
 30
0.0
 10
11.4763529244
 20
6.780189825
 30
0.0
 10
11.4853883806
 20
6.7914368497
 30
0.0
 10
11.493401107
 20
6.8018674328
 30
0.0
 10
11.5003432569
 20
6.8112737608
 30
0.0
 10
11.5054111748
 20
6.8183869949
 30
0.0
 10
11.5088928916
 20
6.8233884981
 30
0.0
 10
11.5110638527
 20
6.8265488692
 30
0.0
 10
11.5129185885
 20
6.8292814103
 30
0.0
 10
11.5144484677
 20
6.8315585696
 30
0.0
 10
11.5156472228
 20
6.8333556429
 30
0.0
 10
11.5164359582
 20
6.8345442114
 30
0.0
 10
11.5168964
 20
6.835242382
 30
0.0
 10
11.5171140614
 20
6.8355720211
 30
0.0
 10
11.5172437562
 20
6.8357715023
 30
0.0
 10
11.5173027808
 20
6.8358596897
 30
0.0
 10
11.5173169688
 20
6.8358822078
 30
0.0
  0
SPLINE
  5
35A
100
AcDbEntity
  8
0
100
AcDbSpline
 62
9
  6
CONTINUOUS
 70
0
 71
3
 72
40
 73
36
 74
0
 42
0.0000001
 43
0.0000001
 44
0.0000000001
 40
0.0
 40
0.0
 40
0.0
 40
0.0
 40
0.0000231129
 40
0.0000923794
 40
0.0002076874
 40
0.0003689249
 40
0.0008287404
 40
0.0014709297
 40
0.0022945969
 40
0.0032988466
 40
0.0044827834
 40
0.0058455122
 40
0.0091037669
 40
0.0130664555
 40
0.0177264271
 40
0.0230764007
 40
0.0291050595
 40
0.0357964524
 40
0.0511027048
 40
0.068865967
 40
0.0889573844
 40
0.1112457724
 40
0.1355973284
 40
0.1618788221
 40
0.1899587812
 40
0.2197172089
 40
0.2510418354
 40
0.3179504629
 40
0.3899690503
 40
0.4665747188
 40
0.547272414
 40
0.6315989653
 40
0.7192397996
 40
0.8099814075
 40
1.0
 40
1.0
 40
1.0
 40
1.0
 10
10.5773197104
 20
6.8358822001
 30
0.0
 10
10.5773191333
 20
6.8358837641
 30
0.0
 10
10.5773264022
 20
6.8358709841
 30
0.0
 10
10.5773311064
 20
6.8358653947
 30
0.0
 10
10.5773467421
 20
6.8358405946
 30
0.0
 10
10.577374642
 20
6.8357985473
 30
0.0
 10
10.5774254956
 20
6.8357205781
 30
0.0
 10
10.577501305
 20
6.8356053243
 30
0.0
 10
10.5775993632
 20
6.8354561263
 30
0.0
 10
10.5777187862
 20
6.8352748094
 30
0.0
 10
10.5778598194
 20
6.8350609543
 30
0.0
 10
10.5780905722
 20
6.8347115923
 30
0.0
 10
10.5784323624
 20
6.8341953284
 30
0.0
 10
10.5789064152
 20
6.8334814214
 30
0.0
 10
10.5794651101
 20
6.8326426032
 30
0.0
 10
10.5801077344
 20
6.8316806432
 30
0.0
 10
10.580833508
 20
6.8305980166
 30
0.0
 10
10.5819626282
 20
6.8289212044
 30
0.0
 10
10.5835732734
 20
6.8265482211
 30
0.0
 10
10.5857444351
 20
6.8233875918
 30
0.0
 10
10.5882229597
 20
6.8198271934
 30
0.0
 10
10.5910002738
 20
6.8158958987
 30
0.0
 10
10.5940682082
 20
6.8116234202
 30
0.0
 10
10.5974183361
 20
6.8070395128
 30
0.0
 10
10.6010428216
 20
6.8021733566
 30
0.0
 10
10.6049342925
 20
6.7970528281
 30
0.0
 10
10.6105953074
 20
6.7897599635
 30
0.0
 10
10.6182872569
 20
6.7801856682
 30
0.0
 10
10.628310479
 20
6.7682998633
 30
0.0
 10
10.6392902405
 20
6.7559260783
 30
0.0
 10
10.6512066522
 20
6.7432044138
 30
0.0
 10
10.6640482927
 20
6.7302688607
 30
0.0
 10
10.6778055774
 20
6.7172328407
 30
0.0
 10
10.6976677106
 20
6.6995761149
 30
0.0
 10
10.7134824934
 20
6.6868921537
 30
0.0
 10
10.7244698154
 20
6.6786986188
 30
0.0
  0
SPLINE
  5
35B
100
AcDbEntity
  8
0
100
AcDbSpline
 62
9
  6
CONTINUOUS
 70
0
 71
3
 72
19
 73
15
 74
0
 42
0.0000001
 43
0.0000001
 44
0.0000000001
 40
0.0
 40
0.0
 40
0.0
 40
0.0
 40
0.1114929392
 40
0.2276222333
 40
0.3480927847
 40
0.4098727977
 40
0.4726408064
 40
0.5363260657
 40
0.6008384131
 40
0.6660979001
 40
0.7320355685
 40
0.7985516964
 40
0.8654924324
 40
1.0
 40
1.0
 40
1.0
 40
1.0
 10
10.7315431009
 20
6.673506133
 30
0.0
 10
10.7417255081
 20
6.6661485297
 30
0.0
 10
10.7630067329
 20
6.6517955589
 30
0.0
 10
10.7969568031
 20
6.6320973183
 30
0.0
 10
10.8271985219
 20
6.6173322613
 30
0.0
 10
10.8526543069
 20
6.6066324076
 30
0.0
 10
10.872517658
 20
6.5991811894
 30
0.0
 10
10.8929531204
 20
6.5924269335
 30
0.0
 10
10.9139147401
 20
6.58642547
 30
0.0
 10
10.9353531553
 20
6.5812338657
 30
0.0
 10
10.9572144559
 20
6.5769138768
 30
0.0
 10
10.9794297615
 20
6.5735112684
 30
0.0
 10
11.0094486916
 20
6.5702202082
 30
0.0
 10
11.0321626901
 20
6.5692068079
 30
0.0
 10
11.0473183383
 20
6.5692057337
 30
0.0
  0
SPLINE
  5
35C
100
AcDbEntity
  8
0
100
AcDbSpline
 62
9
  6
CONTINUOUS
 70
0
 71
3
 72
38
 73
34
 74
0
 42
0.0000001
 43
0.0000001
 44
0.0000000001
 40
0.0
 40
0.0
 40
0.0
 40
0.0
 40
0.0341657867
 40
0.0681525466
 40
0.1018051264
 40
0.1350018501
 40
0.1676659735
 40
0.1997618904
 40
0.2312901099
 40
0.2622784436
 40
0.2927755438
 40
0.3228444667
 40
0.3525592711
 40
0.3820044257
 40
0.4404452804
 40
0.4991089206
 40
0.5289081807
 40
0.559262199
 40
0.5903869013
 40
0.6224760796
 40
0.6895036952
 40
0.706603289
 40
0.7236634989
 40
0.7573213838
 40
0.7900311405
 40
0.8059940694
 40
0.8217105343
 40
0.8524944635
 40
0.8825962894
 40
0.9122268684
 40
0.941571551
 40
0.9707855227
 40
1.0
 40
1.0
 40
1.0
 40
1.0
 10
11.0473183383
 20
18.4592056838
 30
0.0
 10
11.0634959456
 20
18.459203695
 30
0.0
 10
11.0957838722
 20
18.4577879962
 30
0.0
 10
11.1436343649
 20
18.4514948388
 30
0.0
 10
11.1903190175
 20
18.4412058792
 30
0.0
 10
11.2353698652
 20
18.4272124917
 30
0.0
 10
11.2784356523
 20
18.4098514807
 30
0.0
 10
11.3192739253
 20
18.3894751734
 30
0.0
 10
11.3577390145
 20
18.3664263392
 30
0.0
 10
11.3937638732
 20
18.3410218723
 30
0.0
 10
11.4273320141
 20
18.3135326256
 30
0.0
 10
11.4584658532
 20
18.2841910552
 30
0.0
 10
11.4872113916
 20
18.2531829888
 30
0.0
 10
11.5223297849
 20
18.2099262989
 30
0.0
 10
11.5608122539
 20
18.1519474315
 30
0.0
 10
11.5919018902
 20
18.0895174482
 30
0.0
 10
11.6123090934
 20
18.0370576818
 30
0.0
 10
11.6254902064
 20
17.995866889
 30
0.0
 10
11.636357478
 20
17.9528839336
 30
0.0
 10
11.6476857914
 20
17.8922336009
 30
0.0
 10
11.6524274278
 20
17.8372046466
 30
0.0
 10
11.652572349
 20
17.7892895341
 30
0.0
 10
11.6515923701
 20
17.7571864204
 30
0.0
 10
11.6484023311
 20
17.7177813627
 30
0.0
 10
11.6427170213
 20
17.6791848529
 30
0.0
 10
11.6368065615
 20
17.649270123
 30
0.0
 10
11.6301631464
 20
17.620445081
 30
0.0
 10
11.6203732363
 20
17.5854935339
 30
0.0
 10
11.6062797131
 20
17.5449894066
 30
0.0
 10
11.5900012513
 20
17.5060506538
 30
0.0
 10
11.5715652114
 20
17.4685536084
 30
0.0
 10
11.5509615176
 20
17.4324305428
 30
0.0
 10
11.5357749212
 20
17.409279591
 30
0.0
 10
11.5278263054
 20
17.3979581308
 30
0.0
  0
SPLINE
  5
35D
100
AcDbEntity
  8
0
100
AcDbSpline
 62
9
  6
CONTINUOUS
 70
0
 71
3
 72
36
 73
32
 74
0
 42
0.0000001
 43
0.0000001
 44
0.0000000001
 40
0.0
 40
0.0
 40
0.0
 40
0.0
 40
0.0292147899
 40
0.0584290001
 40
0.0877738536
 40
0.1174046354
 40
0.1475067607
 40
0.1782909895
 40
0.2099667782
 40
0.2426770084
 40
0.2763353915
 40
0.3104906542
 40
0.3775186226
 40
0.4096079247
 40
0.4407329118
 40
0.4710871681
 40
0.5008867721
 40
0.559551016
 40
0.6179922034
 40
0.6474374811
 40
0.6771525479
 40
0.7072218195
 40
0.7377192613
 40
0.7687079047
 40
0.8002364073
 40
0.8323325962
 40
0.8649970088
 40
0.8981940603
 40
0.9318469671
 40
0.9658340112
 40
1.0
 40
1.0
 40
1.0
 40
1.0
 10
10.5668036147
 20
17.3979677192
 30
0.0
 10
10.558855272
 20
17.4092892641
 30
0.0
 10
10.5436690793
 20
17.4324402324
 30
0.0
 10
10.5230663134
 20
17.4685633954
 30
0.0
 10
10.5046310672
 20
17.5060604108
 30
0.0
 10
10.4883533704
 20
17.5449988456
 30
0.0
 10
10.4742602021
 20
17.5855034833
 30
0.0
 10
10.462433333
 20
17.627734319
 30
0.0
 10
10.4530040994
 20
17.6718303472
 30
0.0
 10
10.4462325938
 20
17.7177898487
 30
0.0
 10
10.4423917327
 20
17.7652698128
 30
0.0
 10
10.4415162964
 20
17.8291468215
 30
0.0
 10
10.4469512642
 20
17.8922398417
 30
0.0
 10
10.4582809609
 20
17.9528910009
 30
0.0
 10
10.4691480907
 20
17.9958731835
 30
0.0
 10
10.4823297487
 20
18.0370635521
 30
0.0
 10
10.5027370016
 20
18.0895228427
 30
0.0
 10
10.5338273171
 20
18.1519518638
 30
0.0
 10
10.5723096304
 20
18.2099299806
 30
0.0
 10
10.6074278992
 20
18.2531859959
 30
0.0
 10
10.6361733843
 20
18.2841936015
 30
0.0
 10
10.6673071554
 20
18.3135348407
 30
0.0
 10
10.7008752605
 20
18.3410237135
 30
0.0
 10
10.7368999802
 20
18.3664278409
 30
0.0
 10
10.7753648645
 20
18.3894763292
 30
0.0
 10
10.816202882
 20
18.4098523031
 30
0.0
 10
10.8592683812
 20
18.4272130361
 30
0.0
 10
10.9043189174
 20
18.4412062276
 30
0.0
 10
10.9510032404
 20
18.4514949722
 30
0.0
 10
10.9988533026
 20
18.4577880128
 30
0.0
 10
11.0311409107
 20
18.459203747
 30
0.0
 10
11.0473183383
 20
18.4592056838
 30
0.0
  0
ENDSEC
  0
SECTION
  2
OBJECTS
  0
DICTIONARY
  5
C
100
AcDbDictionary
280
0
281
1
  3
ACAD_GROUP
350
D
  3
ACAD_MLINESTYLE
350
17
  3
ACAD_LAYOUT
350
1A
  3
ACAD_PLOTSETTINGS
350
19
  3
ACAD_PLOTSTYLENAME
350
E
  0
DICTIONARY
  5
D
102
{ACAD_REACTORS
330
C
102
}
100
AcDbDictionary
280
0
281
1
  0
ACDBDICTIONARYWDFLT
  5
E
102
{ACAD_REACTORS
330
C
102
}
100
AcDbDictionary
281
1
  3
Normal
350
F
100
AcDbDictionaryWithDefault
340
F
  0
DICTIONARY
  5
17
102
{ACAD_REACTORS
330
C
102
}
100
AcDbDictionary
280
0
281
1
  3
Standard
350
18
  0
DICTIONARY
  5
19
102
{ACAD_REACTORS
330
C
102
}
100
AcDbDictionary
281
1
  0
DICTIONARY
  5
1A
102
{ACAD_REACTORS
330
C
102
}
100
AcDbDictionary
281
1
  3
Model
350
35E
  3
Layout1
350
35F
  0
ACDBPLACEHOLDER
  5
F
102
{ACAD_REACTORS
330
E
102
}
  0
MLINESTYLE
  5
18
102
{ACAD_REACTORS
330
17
102
}
100
AcDbMlineStyle
  2
STANDARD
 70
0
  3

 62
256
 51
90.0
 52
90.0
 71
2
 49
0.5
 62
256
  6
BYLAYER
 49
-0.5
 62
256
  6
BYLAYER
  0
LAYOUT
  5
35E
102
{ACAD_REACTORS
330
1A
102
}
100
AcDbPlotSettings
  1

  2
none_device
  4
ANSI_C_(22.00_x_17.00_Inches)
  6

 40
0.0
 41
0.0
 42
0.0
 43
0.0
 44
558.8
 45
431.8
 46
0.0
 47
0.0
 48
0.0
 49
0.0
140
0.0
141
0.0
142
1.0
143
1.0
 70
1024
 72
0
 73
0
 74
0
  7

 75
0
147
1.0
148
0.0
149
0.0
100
AcDbLayout
  1
Model
 70
0
 71
0
 10
0.0
 20
0.0
 11
22.0
 21
17.0
 12
0.0
 22
0.0
 32
0.0
 14
0.0
 24
0.0
 34
0.0
 15
0.0
 25
0.0
 35
0.0
146
0.0
 13
0.0
 23
0.0
 33
0.0
 16
1.0
 26
0.0
 36
0.0
 17
0.0
 27
1.0
 37
0.0
 76
0
330
202
345
0
346
0
  0
LAYOUT
  5
35F
102
{ACAD_REACTORS
330
1A
102
}
100
AcDbPlotSettings
  1

  2
none_device
  4
ANSI_C_(22.00_x_17.00_Inches)
  6

 40
0.0
 41
0.0
 42
0.0
 43
0.0
 44
558.8
 45
431.8
 46
0.0
 47
0.0
 48
0.0
 49
0.0
140
0.0
141
0.0
142
1.0
143
1.0
 70
0
 72
0
 73
0
 74
0
  7

 75
0
147
1.0
148
0.0
149
0.0
100
AcDbLayout
  1
Layout1
 70
0
 71
1
 10
0.0
 20
0.0
 11
22.0
 21
17.0
 12
0.0
 22
0.0
 32
0.0
 14
0.0
 24
0.0
 34
0.0
 15
0.0
 25
0.0
 35
0.0
146
0.0
 13
0.0
 23
0.0
 33
0.0
 16
1.0
 26
0.0
 36
0.0
 17
0.0
 27
1.0
 37
0.0
 76
0
330
203
345
0
346
0
  0
ENDSEC
  0
EOF
