999
DXF file: E:\BT Custom\CADOUTPUT\_RIGHT.dxf
999
Pro/ENGINEER 2018400 by Parametric Technology Corporation
  0
SECTION
  2
HEADER
  9
$ACADVER
  1
AC1018
  9
$DWGCODEPAGE
  3
ANSI_1252
  9
$EXTMAX
 10
22.0
 20
17.0
 30
0.0
  9
$EXTMIN
 10
0.0
 20
0.0
 30
0.0
  9
$LIMMIN
 10
0.0
 20
0.0
  9
$LIMMAX
 10
22.0
 20
17.0
  9
$VIEWCTR
 10
11.0
 20
8.5
  9
$VIEWSIZE
 40
17.0
  9
$CLAYER
  8
0
  9
$LTSCALE
 40
1.21
  9
$CELTYPE
  6
BYLAYER
  9
$DIMSCALE
 40
1.0
  9
$DIMASZ
 40
0.1
  9
$DIMEXO
 40
0.0625
  9
$DIMDLI
 40
0.836
  9
$DIMEXE
 40
0.125
  9
$DIMCEN
 40
0.198
  9
$DIMLFAC
 40
1.0
  9
$DIMBLK
  1
_FILLED
  9
$DIMALT
 70
1
  9
$DIMALTD
 70
2
  9
$DIMALTTD
 70
2
  9
$DIMALTF
 40
25.4
  9
$DIMTXT
 40
0.08
  9
$DIMTOL
 70
1
  9
$DIMLIM
 70
0
  9
$DIMTFAC
 40
1.0
  9
$DIMTP
 40
0.001
  9
$DIMTM
 40
0.001
  9
$DIMGAP
 40
0.09
  9
$DIMDSEP
 70
46
  9
$AUNITS
 70
0
  9
$PDMODE
 70
3
  9
$PDSIZE
 40
0.06
  9
$HANDSEED
  5
246
  9
$TILEMODE
 70
1
  9
$MEASUREMENT
 70
0
  9
$INSUNITS
 70
1
  0
ENDSEC
  0
SECTION
  2
CLASSES
  0
CLASS
  1
ACDBDICTIONARYWDFLT
  2
AcDbDictionaryWithDefault
  3
AutoCAD 2000
 90
0
 91
1
280
0
281
0
  0
CLASS
  1
ACDBPLACEHOLDER
  2
AcDbPlaceHolder
  3
AutoCAD 2000
 90
0
 91
1
280
0
281
0
  0
CLASS
  1
LAYOUT
  2
AcDbLayout
  3
AutoCAD 2000
 90
0
 91
0
280
0
281
0
  0
ENDSEC
  0
SECTION
  2
TABLES
  0
TABLE
  2
VPORT
  5
8
100
AcDbSymbolTable
 70
2
  0
VPORT
  5
1F4
100
AcDbSymbolTableRecord
100
AcDbViewportTableRecord
  2
*ACTIVE
 70
0
 10
0.0
 20
0.0
 11
1.0
 21
1.0
 12
11.0
 22
8.5
 13
0.0
 23
0.0
 14
1.0
 24
1.0
 15
0.0
 25
0.0
 16
0.0
 26
0.0
 36
1.0
 17
0.0
 27
0.0
 37
0.0
 40
17.0
 41
1.2941176471
 42
50.0
 43
0.0
 44
0.0
 50
0.0
 51
0.0
 71
0
 72
100
 73
1
 74
1
 75
0
 76
0
 77
0
 78
0
  0
ENDTAB
  0
TABLE
  2
LTYPE
  5
5
100
AcDbSymbolTable
 70
6
  0
LTYPE
  5
14
100
AcDbSymbolTableRecord
100
AcDbLinetypeTableRecord
  2
BYBLOCK
 70
0
  3

 72
65
 73
0
 40
0.0
  0
LTYPE
  5
15
100
AcDbSymbolTableRecord
100
AcDbLinetypeTableRecord
  2
BYLAYER
 70
0
  3

 72
65
 73
0
 40
0.0
  0
LTYPE
  5
16
100
AcDbSymbolTableRecord
100
AcDbLinetypeTableRecord
  2
CONTINUOUS
 70
64
  3
Solid line
 72
65
 73
0
 40
0.0
  0
LTYPE
  5
1F5
100
AcDbSymbolTableRecord
100
AcDbLinetypeTableRecord
  2
CENTER
 70
64
  3
____ _ ____ _ ____ _ ____ _ ____ _ ____ _ ____
 72
65
 73
4
 40
0.6
 49
0.375
 74
0
 49
-0.075
 74
0
 49
0.075
 74
0
 49
-0.075
 74
0
  0
LTYPE
  5
1F6
100
AcDbSymbolTableRecord
100
AcDbLinetypeTableRecord
  2
HIDDEN
 70
64
  3
- - - - - - - - - - - - - - - - - - - -
 72
65
 73
2
 40
0.2
 49
0.1
 74
0
 49
-0.1
 74
0
  0
LTYPE
  5
1F7
100
AcDbSymbolTableRecord
100
AcDbLinetypeTableRecord
  2
PHANTOM
 70
64
  3
_____ _ _ _____ _ _ _____ _ _ _____
 72
65
 73
6
 40
0.8
 49
0.45
 74
0
 49
-0.05
 74
0
 49
0.1
 74
0
 49
-0.05
 74
0
 49
0.1
 74
0
 49
-0.05
 74
0
  0
LTYPE
  5
1F8
100
AcDbSymbolTableRecord
100
AcDbLinetypeTableRecord
  2
DOT
 70
64
  3
. . . . . . . . . . . . . . . . . . . .
 72
65
 73
2
 40
0.2
 49
0.1
 74
0
 49
-0.1
 74
0
  0
LTYPE
  5
1F9
100
AcDbSymbolTableRecord
100
AcDbLinetypeTableRecord
  2
DASHED
 70
64
  3
- - - - - - - - - - - - - - - - - - - -
 72
65
 73
2
 40
0.2
 49
0.1
 74
0
 49
-0.1
 74
0
  0
ENDTAB
  0
TABLE
  2
LAYER
  5
2
100
AcDbSymbolTable
 70
36
  0
LAYER
  5
10
100
AcDbSymbolTableRecord
100
AcDbLayerTableRecord
  2
0
 70
0
 62
7
  6
CONTINUOUS
370
-3
390
F
  0
LAYER
  5
1FA
100
AcDbSymbolTableRecord
100
AcDbLayerTableRecord
  2
DEFAULT_1
 70
0
 62
7
  6
CENTER
370
-3
390
F
  0
LAYER
  5
1FB
100
AcDbSymbolTableRecord
100
AcDbLayerTableRecord
  2
DEFAULT_2
 70
0
 62
8
  6
HIDDEN
370
-3
390
F
  0
LAYER
  5
1FC
100
AcDbSymbolTableRecord
100
AcDbLayerTableRecord
  2
DEFAULT_3
 70
0
 62
7
  6
PHANTOM
370
-3
390
F
  0
LAYER
  5
1FD
100
AcDbSymbolTableRecord
100
AcDbLayerTableRecord
  2
ALL_FEATURES
 70
0
 62
7
  6
CONTINUOUS
370
-3
390
F
  0
LAYER
  5
1FE
100
AcDbSymbolTableRecord
100
AcDbLayerTableRecord
  2
AXES_FEATURES
 70
0
 62
7
  6
CONTINUOUS
370
-3
390
F
  0
LAYER
  5
1FF
100
AcDbSymbolTableRecord
100
AcDbLayerTableRecord
  2
DEFAULT_COORDINATE_SYSTEM
 70
0
 62
7
  6
CONTINUOUS
370
-3
390
F
  0
LAYER
  5
200
100
AcDbSymbolTableRecord
100
AcDbLayerTableRecord
  2
DEFAULT_DATUM_AXES
 70
0
 62
7
  6
CONTINUOUS
370
-3
390
F
  0
LAYER
  5
201
100
AcDbSymbolTableRecord
100
AcDbLayerTableRecord
  2
DEFAULT_DATUM_PLANES
 70
0
 62
7
  6
CONTINUOUS
370
-3
390
F
  0
LAYER
  5
202
100
AcDbSymbolTableRecord
100
AcDbLayerTableRecord
  2
DIMENSIONS
 70
0
 62
7
  6
CONTINUOUS
370
-3
390
F
  0
ENDTAB
  0
TABLE
  2
STYLE
  5
3
100
AcDbSymbolTable
 70
1
  0
STYLE
  5
11
100
AcDbSymbolTableRecord
100
AcDbTextStyleTableRecord
  2
STANDARD
 70
0
 40
0.0
 41
0.8
 50
0.0
 71
0
 42
0.2
  3
txt
  4

  0
STYLE
  5
203
100
AcDbSymbolTableRecord
100
AcDbTextStyleTableRecord
  2
TEXTSTYLE_1
 70
0
 40
0.0
 41
0.8
 50
0.0
 71
0
 42
0.2
  3
gdt
  4

  0
ENDTAB
  0
TABLE
  2
VIEW
  5
6
100
AcDbSymbolTable
 70
0
  0
ENDTAB
  0
TABLE
  2
UCS
  5
7
100
AcDbSymbolTable
 70
0
  0
ENDTAB
  0
TABLE
  2
APPID
  5
9
100
AcDbSymbolTable
 70
1
  0
APPID
  5
204
100
AcDbSymbolTableRecord
100
AcDbRegAppTableRecord
  2
ACAD
 70
0
  0
ENDTAB
  0
TABLE
  2
BLOCK_RECORD
  5
1
100
AcDbSymbolTable
 70
0
  0
BLOCK_RECORD
  5
205
100
AcDbSymbolTableRecord
100
AcDbBlockTableRecord
  2
*Model_Space
  0
BLOCK_RECORD
  5
206
100
AcDbSymbolTableRecord
100
AcDbBlockTableRecord
  2
*Paper_Space
  0
BLOCK_RECORD
  5
207
100
AcDbSymbolTableRecord
100
AcDbBlockTableRecord
  2
_FILLED
  0
ENDTAB
  0
TABLE
  2
DIMSTYLE
  5
A
100
AcDbSymbolTable
 70
1
100
AcDbDimStyleTable
 71
0
  0
DIMSTYLE
105
208
100
AcDbSymbolTableRecord
100
AcDbDimStyleTableRecord
  2
STANDARD
 70
0
  3

  4

 40
1.0
 41
0.1
 42
0.0625
 43
0.38
 44
0.125
 45
0.0
 46
0.0
 47
0.001
 48
0.001
140
0.08
141
0.09
142
0.0
143
25.4
144
1.0
145
0.0
146
1.0
147
0.09
 71
1.0
 72
0.0
 73
1
 74
1
 75
0
 76
0
 77
0
 78
4
 79
1
170
1
171
2
172
0
173
0
174
0
175
0
176
0
177
0
178
0
270
2
179
3
271
3
272
3
273
2
274
2
275
0
280
0
281
0
282
0
283
1
284
4
285
0
286
0
287
3
288
0
340
11
278
46
341
207
342
207
343
207
344
207
  0
ENDTAB
  0
ENDSEC
  0
SECTION
  2
BLOCKS
  0
BLOCK
  5
20
100
AcDbEntity
  8
0
100
AcDbBlockBegin
  2
*Model_Space
 70
0
 10
0.0
 20
0.0
 30
0.0
  3
*Model_Space
  1

  0
ENDBLK
  5
21
100
AcDbEntity
  8
0
100
AcDbBlockEnd
  0
BLOCK
  5
1C
100
AcDbEntity
  8
0
100
AcDbBlockBegin
  2
*Paper_Space
 70
0
 10
0.0
 20
0.0
 30
0.0
  3
*Paper_Space
  1

  0
ENDBLK
  5
1D
100
AcDbEntity
  8
0
100
AcDbBlockEnd
  0
BLOCK
  5
209
100
AcDbEntity
  8
0
100
AcDbBlockBegin
  2
_FILLED
 70
64
 10
0.0
 20
0.0
  3
_FILLED
  1

  0
SOLID
  5
20A
100
AcDbEntity
  8
0
  6
BYBLOCK
 62
0
100
AcDbTrace
 10
0.0
 20
0.0
 11
-1.0
 21
0.2
 12
-1.0
 22
-0.2
 13
-1.0
 23
-0.2
  0
ENDBLK
  5
20B
100
AcDbEntity
  8
0
  6
BYBLOCK
 62
0
100
AcDbBlockEnd
  0
ENDSEC
  0
SECTION
  2
ENTITIES
  0
LINE
  5
20C
100
AcDbEntity
  8
0
100
AcDbLine
 62
7
  6
CONTINUOUS
 10
11.1628941063
 20
4.372391804
 11
13.3928910801
 21
4.372391804
  0
LINE
  5
20D
100
AcDbEntity
  8
0
100
AcDbLine
 62
9
  6
CONTINUOUS
 10
13.3928925932
 20
4.5096097717
 11
11.1628925932
 21
4.5096097717
  0
LINE
  5
20E
100
AcDbEntity
  8
0
100
AcDbLine
 62
9
  6
CONTINUOUS
 10
13.3828925932
 20
4.5269302798
 11
11.1728925932
 21
4.5269302798
  0
LINE
  5
20F
100
AcDbEntity
  8
0
100
AcDbLine
 62
9
  6
CONTINUOUS
 10
11.258251577
 20
4.5762123121
 11
13.2975336094
 21
4.5762123121
  0
LINE
  5
210
100
AcDbEntity
  8
0
100
AcDbLine
 62
7
  6
CONTINUOUS
 10
11.268251577
 20
4.578891804
 11
13.2875336094
 21
4.578891804
  0
LINE
  5
211
100
AcDbEntity
  8
0
100
AcDbLine
 62
9
  6
CONTINUOUS
 10
11.4153925932
 20
4.598891804
 11
13.1403925932
 21
4.598891804
  0
LINE
  5
212
100
AcDbEntity
  8
0
100
AcDbLine
 62
9
  6
CONTINUOUS
 10
11.4153925932
 20
4.777391804
 11
13.1403925932
 21
4.777391804
  0
LINE
  5
213
100
AcDbEntity
  8
0
100
AcDbLine
 62
7
  6
CONTINUOUS
 10
11.4353925932
 20
4.797391804
 11
13.1203925932
 21
4.797391804
  0
LINE
  5
214
100
AcDbEntity
  8
0
100
AcDbLine
 62
7
  6
CONTINUOUS
 10
8.0278925932
 20
11.397391804
 11
8.0278925932
 21
10.897391804
  0
LINE
  5
215
100
AcDbEntity
  8
0
100
AcDbLine
 62
7
  6
CONTINUOUS
 10
13.2975336094
 20
4.5762123121
 11
13.3828925932
 21
4.5269302798
  0
LINE
  5
216
100
AcDbEntity
  8
0
100
AcDbLine
 62
7
  6
CONTINUOUS
 10
8.5278925932
 20
11.397391804
 11
8.5278925932
 21
10.897391804
  0
LINE
  5
217
100
AcDbEntity
  8
0
100
AcDbLine
 62
7
  6
CONTINUOUS
 10
11.4728932239
 20
7.647391804
 11
13.0828919624
 21
7.647391804
  0
LINE
  5
218
100
AcDbEntity
  8
0
100
AcDbLine
 62
9
  6
CONTINUOUS
 10
12.6528925932
 20
9.146391804
 11
12.6328925932
 21
9.146391804
  0
LINE
  5
219
100
AcDbEntity
  8
0
100
AcDbLine
 62
9
  6
CONTINUOUS
 10
11.9028925932
 20
9.146391804
 11
11.9228925932
 21
9.146391804
  0
LINE
  5
21A
100
AcDbEntity
  8
0
100
AcDbLine
 62
7
  6
CONTINUOUS
 10
11.1628925932
 20
4.372391804
 11
11.1628925932
 21
4.5096097717
  0
LINE
  5
21B
100
AcDbEntity
  8
0
100
AcDbLine
 62
7
  6
CONTINUOUS
 10
11.4153925932
 20
4.777391804
 11
11.4153925932
 21
4.598891804
  0
LINE
  5
21C
100
AcDbEntity
  8
0
100
AcDbLine
 62
9
  6
CONTINUOUS
 10
11.4453925932
 20
4.777391804
 11
11.4453925932
 21
4.598891804
  0
LINE
  5
21D
100
AcDbEntity
  8
0
100
AcDbLine
 62
7
  6
CONTINUOUS
 10
11.4728925932
 20
4.797391804
 11
11.4728925932
 21
7.647391804
  0
LINE
  5
21E
100
AcDbEntity
  8
0
100
AcDbLine
 62
7
  6
CONTINUOUS
 10
11.9028925932
 20
7.647391804
 11
11.9028925932
 21
9.146391804
  0
LINE
  5
21F
100
AcDbEntity
  8
0
100
AcDbLine
 62
9
  6
CONTINUOUS
 10
11.9228925932
 20
7.647391804
 11
11.9228925932
 21
9.146391804
  0
LINE
  5
220
100
AcDbEntity
  8
0
100
AcDbLine
 62
7
  6
CONTINUOUS
 10
12.0278925932
 20
7.647391804
 11
12.0278925932
 21
11.397391804
  0
LINE
  5
221
100
AcDbEntity
  8
0
100
AcDbLine
 62
9
  6
CONTINUOUS
 10
12.2478925932
 20
4.777391804
 11
12.2478925932
 21
4.598891804
  0
LINE
  5
222
100
AcDbEntity
  8
0
100
AcDbLine
 62
9
  6
CONTINUOUS
 10
12.3078925932
 20
4.777391804
 11
12.3078925932
 21
4.598891804
  0
LINE
  5
223
100
AcDbEntity
  8
0
100
AcDbLine
 62
7
  6
CONTINUOUS
 10
12.5278925932
 20
7.647391804
 11
12.5278925932
 21
11.397391804
  0
LINE
  5
224
100
AcDbEntity
  8
0
100
AcDbLine
 62
9
  6
CONTINUOUS
 10
12.6328925932
 20
9.146391804
 11
12.6328925932
 21
7.647391804
  0
LINE
  5
225
100
AcDbEntity
  8
0
100
AcDbLine
 62
7
  6
CONTINUOUS
 10
12.6528925932
 20
9.146391804
 11
12.6528925932
 21
7.647391804
  0
LINE
  5
226
100
AcDbEntity
  8
0
100
AcDbLine
 62
7
  6
CONTINUOUS
 10
8.5278925932
 20
10.897391804
 11
8.0278925932
 21
10.897391804
  0
LINE
  5
227
100
AcDbEntity
  8
0
100
AcDbLine
 62
7
  6
CONTINUOUS
 10
13.0828925932
 20
4.797391804
 11
13.0828925932
 21
7.647391804
  0
LINE
  5
228
100
AcDbEntity
  8
0
100
AcDbLine
 62
9
  6
CONTINUOUS
 10
13.1103925932
 20
4.777391804
 11
13.1103925932
 21
4.598891804
  0
LINE
  5
229
100
AcDbEntity
  8
0
100
AcDbLine
 62
7
  6
CONTINUOUS
 10
13.1403925932
 20
4.777391804
 11
13.1403925932
 21
4.598891804
  0
LINE
  5
22A
100
AcDbEntity
  8
0
100
AcDbLine
 62
9
  6
CONTINUOUS
 10
8.5278925932
 20
11.397391804
 11
8.0278925932
 21
11.397391804
  0
LINE
  5
22B
100
AcDbEntity
  8
0
100
AcDbLine
 62
9
  6
CONTINUOUS
 10
12.0278925932
 20
11.397391804
 11
12.5278925932
 21
11.397391804
  0
LINE
  5
22C
100
AcDbEntity
  8
0
100
AcDbLine
 62
7
  6
CONTINUOUS
 10
13.3928925932
 20
4.372391804
 11
13.3928925932
 21
4.5096097717
  0
LINE
  5
22D
100
AcDbEntity
  8
0
100
AcDbLine
 62
7
  6
CONTINUOUS
 10
11.258251577
 20
4.5762123121
 11
11.1728925932
 21
4.5269302798
  0
ARC
  5
22E
100
AcDbEntity
  8
0
100
AcDbCircle
 62
7
  6
CONTINUOUS
 10
10.2778925932
 20
11.397391804
 40
2.25
100
AcDbArc
 50
0.0
 51
180.0
  0
ARC
  5
22F
100
AcDbEntity
  8
0
100
AcDbCircle
 62
7
  6
CONTINUOUS
 10
10.2778925932
 20
11.397391804
 40
1.75
100
AcDbArc
 50
0.0
 51
180.0
  0
ARC
  5
230
100
AcDbEntity
  8
0
100
AcDbCircle
 62
7
  6
CONTINUOUS
 10
12.4658925932
 20
9.146391804
 40
0.187
100
AcDbArc
 50
0.0
 51
70.6291588342
  0
ARC
  5
231
100
AcDbEntity
  8
0
100
AcDbCircle
 62
7
  6
CONTINUOUS
 10
12.0898925932
 20
9.146391804
 40
0.187
100
AcDbArc
 50
109.3708411658
 51
180.0
  0
ARC
  5
232
100
AcDbEntity
  8
0
100
AcDbCircle
 62
9
  6
CONTINUOUS
 10
12.0898925932
 20
9.146391804
 40
0.167
100
AcDbArc
 50
111.8139367377
 51
180.0
  0
ARC
  5
233
100
AcDbEntity
  8
0
100
AcDbCircle
 62
9
  6
CONTINUOUS
 10
12.4658925932
 20
9.146391804
 40
0.167
100
AcDbArc
 50
0.0
 51
68.1860632623
  0
ARC
  5
234
100
AcDbEntity
  8
0
100
AcDbCircle
 62
7
  6
CONTINUOUS
 10
13.3728925932
 20
4.5096097717
 40
0.02
100
AcDbArc
 50
0.0
 51
60.0
  0
ARC
  5
235
100
AcDbEntity
  8
0
100
AcDbCircle
 62
7
  6
CONTINUOUS
 10
11.1828925932
 20
4.5096097717
 40
0.02
100
AcDbArc
 50
120.0
 51
180.0
  0
ARC
  5
236
100
AcDbEntity
  8
0
100
AcDbCircle
 62
7
  6
CONTINUOUS
 10
13.2875336094
 20
4.558891804
 40
0.02
100
AcDbArc
 50
60.0
 51
90.0
  0
ARC
  5
237
100
AcDbEntity
  8
0
100
AcDbCircle
 62
7
  6
CONTINUOUS
 10
11.268251577
 20
4.558891804
 40
0.02
100
AcDbArc
 50
90.0
 51
120.0
  0
ARC
  5
238
100
AcDbEntity
  8
0
100
AcDbCircle
 62
7
  6
CONTINUOUS
 10
13.1203925932
 20
4.777391804
 40
0.02
100
AcDbArc
 50
0.0
 51
90.0
  0
ARC
  5
239
100
AcDbEntity
  8
0
100
AcDbCircle
 62
7
  6
CONTINUOUS
 10
11.4353925932
 20
4.777391804
 40
0.02
100
AcDbArc
 50
90.0
 51
180.0
  0
ARC
  5
23A
100
AcDbEntity
  8
0
100
AcDbCircle
 62
7
  6
CONTINUOUS
 10
13.1603925932
 20
4.598891804
 40
0.02
100
AcDbArc
 50
180.0
 51
270.0
  0
ARC
  5
23B
100
AcDbEntity
  8
0
100
AcDbCircle
 62
7
  6
CONTINUOUS
 10
11.3953925932
 20
4.598891804
 40
0.02
100
AcDbArc
 50
270.0
 51
360.0
  0
SPLINE
  5
23C
100
AcDbEntity
  8
0
100
AcDbSpline
 62
9
  6
CONTINUOUS
 70
0
 71
3
 72
21
 73
17
 74
0
 42
0.0000001
 43
0.0000001
 44
0.0000000001
 40
0.0
 40
0.0
 40
0.0
 40
0.0
 40
0.0406628438
 40
0.0825074054
 40
0.1264939309
 40
0.1734214662
 40
0.2238640124
 40
0.2781420841
 40
0.3363900428
 40
0.3985693143
 40
0.4645222939
 40
0.5339739623
 40
0.6065729583
 40
0.6818803896
 40
0.8386318948
 40
1.0
 40
1.0
 40
1.0
 40
1.0
 10
13.1003925932
 20
4.797391804
 30
0.0
 10
13.1007207266
 20
4.797391804
 30
0.0
 10
13.1013882304
 20
4.7973250307
 30
0.0
 10
13.1023711583
 20
4.797029725
 30
0.0
 10
13.1033310667
 20
4.7965426807
 30
0.0
 10
13.1042585587
 20
4.7958717585
 30
0.0
 10
13.1051458396
 20
4.795024276
 30
0.0
 10
13.1059860585
 20
4.7940092394
 30
0.0
 10
13.1067713795
 20
4.7928358946
 30
0.0
 10
13.1074954141
 20
4.7915156673
 30
0.0
 10
13.1081510425
 20
4.7900606891
 30
0.0
 10
13.1087326737
 20
4.7884848637
 30
0.0
 10
13.1092343089
 20
4.7868029699
 30
0.0
 10
13.1097981838
 20
4.784408823
 30
0.0
 10
13.110267897
 20
4.7812627288
 30
0.0
 10
13.1103925931
 20
4.7786939823
 30
0.0
 10
13.1103925931
 20
4.777391804
 30
0.0
  0
SPLINE
  5
23D
100
AcDbEntity
  8
0
100
AcDbSpline
 62
9
  6
CONTINUOUS
 70
0
 71
3
 72
21
 73
17
 74
0
 42
0.0000001
 43
0.0000001
 44
0.0000000001
 40
0.0
 40
0.0
 40
0.0
 40
0.0
 40
0.0406628438
 40
0.0825074054
 40
0.1264939309
 40
0.1734214662
 40
0.2238640123
 40
0.278142084
 40
0.3363900427
 40
0.3985693142
 40
0.4645222938
 40
0.5339739623
 40
0.6065729582
 40
0.6818803895
 40
0.8386318947
 40
1.0
 40
1.0
 40
1.0
 40
1.0
 10
12.2978925932
 20
4.797391804
 30
0.0
 10
12.2982207266
 20
4.797391804
 30
0.0
 10
12.2988882304
 20
4.7973250307
 30
0.0
 10
12.2998711583
 20
4.797029725
 30
0.0
 10
12.3008310667
 20
4.7965426807
 30
0.0
 10
12.3017585587
 20
4.7958717585
 30
0.0
 10
12.3026458396
 20
4.795024276
 30
0.0
 10
12.3034860585
 20
4.7940092394
 30
0.0
 10
12.3042713795
 20
4.7928358946
 30
0.0
 10
12.3049954141
 20
4.7915156673
 30
0.0
 10
12.3056510425
 20
4.7900606891
 30
0.0
 10
12.3062326737
 20
4.7884848637
 30
0.0
 10
12.3067343089
 20
4.7868029699
 30
0.0
 10
12.3072981838
 20
4.784408823
 30
0.0
 10
12.3077678969
 20
4.7812627288
 30
0.0
 10
12.3078925932
 20
4.7786939823
 30
0.0
 10
12.3078925932
 20
4.777391804
 30
0.0
  0
SPLINE
  5
23E
100
AcDbEntity
  8
0
100
AcDbSpline
 62
9
  6
CONTINUOUS
 70
0
 71
3
 72
21
 73
17
 74
0
 42
0.0000001
 43
0.0000001
 44
0.0000000001
 40
0.0
 40
0.0
 40
0.0
 40
0.0
 40
0.0406628438
 40
0.0825074054
 40
0.1264939308
 40
0.1734214662
 40
0.2238640123
 40
0.278142084
 40
0.3363900427
 40
0.3985693142
 40
0.4645222937
 40
0.5339739622
 40
0.6065729582
 40
0.6818803894
 40
0.8386318946
 40
1.0
 40
1.0
 40
1.0
 40
1.0
 10
12.2578925932
 20
4.797391804
 30
0.0
 10
12.2575644598
 20
4.797391804
 30
0.0
 10
12.256896956
 20
4.7973250307
 30
0.0
 10
12.2559140281
 20
4.797029725
 30
0.0
 10
12.2549541197
 20
4.7965426807
 30
0.0
 10
12.2540266277
 20
4.7958717585
 30
0.0
 10
12.2531393468
 20
4.795024276
 30
0.0
 10
12.2522991279
 20
4.7940092394
 30
0.0
 10
12.2515138069
 20
4.7928358946
 30
0.0
 10
12.2507897723
 20
4.7915156673
 30
0.0
 10
12.2501341439
 20
4.7900606891
 30
0.0
 10
12.2495525127
 20
4.7884848637
 30
0.0
 10
12.2490508775
 20
4.7868029699
 30
0.0
 10
12.2484870026
 20
4.784408823
 30
0.0
 10
12.2480172895
 20
4.7812627288
 30
0.0
 10
12.2478925931
 20
4.7786939823
 30
0.0
 10
12.2478925931
 20
4.777391804
 30
0.0
  0
SPLINE
  5
23F
100
AcDbEntity
  8
0
100
AcDbSpline
 62
9
  6
CONTINUOUS
 70
0
 71
3
 72
21
 73
17
 74
0
 42
0.0000001
 43
0.0000001
 44
0.0000000001
 40
0.0
 40
0.0
 40
0.0
 40
0.0
 40
0.0406628438
 40
0.0825074054
 40
0.1264939309
 40
0.1734214662
 40
0.2238640123
 40
0.278142084
 40
0.3363900427
 40
0.3985693142
 40
0.4645222938
 40
0.5339739623
 40
0.6065729582
 40
0.6818803895
 40
0.8386318947
 40
1.0
 40
1.0
 40
1.0
 40
1.0
 10
11.4553925932
 20
4.797391804
 30
0.0
 10
11.4550644598
 20
4.797391804
 30
0.0
 10
11.454396956
 20
4.7973250307
 30
0.0
 10
11.4534140281
 20
4.797029725
 30
0.0
 10
11.4524541197
 20
4.7965426807
 30
0.0
 10
11.4515266277
 20
4.7958717585
 30
0.0
 10
11.4506393468
 20
4.795024276
 30
0.0
 10
11.4497991279
 20
4.7940092394
 30
0.0
 10
11.4490138069
 20
4.7928358946
 30
0.0
 10
11.4482897723
 20
4.7915156673
 30
0.0
 10
11.4476341439
 20
4.7900606891
 30
0.0
 10
11.4470525127
 20
4.7884848637
 30
0.0
 10
11.4465508775
 20
4.7868029699
 30
0.0
 10
11.4459870026
 20
4.784408823
 30
0.0
 10
11.4455172895
 20
4.7812627288
 30
0.0
 10
11.4453925932
 20
4.7786939823
 30
0.0
 10
11.4453925932
 20
4.777391804
 30
0.0
  0
SPLINE
  5
240
100
AcDbEntity
  8
0
100
AcDbSpline
 62
9
  6
CONTINUOUS
 70
0
 71
3
 72
21
 73
17
 74
0
 42
0.0000001
 43
0.0000001
 44
0.0000000001
 40
0.0
 40
0.0
 40
0.0
 40
0.0
 40
0.0406628438
 40
0.0825074054
 40
0.1264939309
 40
0.1734214662
 40
0.2238640123
 40
0.278142084
 40
0.3363900427
 40
0.3985693142
 40
0.4645222938
 40
0.5339739623
 40
0.6065729582
 40
0.6818803895
 40
0.8386318947
 40
1.0
 40
1.0
 40
1.0
 40
1.0
 10
13.1203925932
 20
4.578891804
 30
0.0
 10
13.1200644598
 20
4.578891804
 30
0.0
 10
13.119396956
 20
4.5789585774
 30
0.0
 10
13.1184140281
 20
4.5792538831
 30
0.0
 10
13.1174541197
 20
4.5797409274
 30
0.0
 10
13.1165266277
 20
4.5804118496
 30
0.0
 10
13.1156393468
 20
4.5812593321
 30
0.0
 10
13.1147991279
 20
4.5822743687
 30
0.0
 10
13.1140138069
 20
4.5834477135
 30
0.0
 10
13.1132897723
 20
4.5847679408
 30
0.0
 10
13.1126341439
 20
4.586222919
 30
0.0
 10
13.1120525127
 20
4.5877987444
 30
0.0
 10
13.1115508775
 20
4.5894806382
 30
0.0
 10
13.1109870026
 20
4.5918747851
 30
0.0
 10
13.1105172895
 20
4.5950208793
 30
0.0
 10
13.1103925932
 20
4.5975896258
 30
0.0
 10
13.1103925932
 20
4.598891804
 30
0.0
  0
SPLINE
  5
241
100
AcDbEntity
  8
0
100
AcDbSpline
 62
9
  6
CONTINUOUS
 70
0
 71
3
 72
21
 73
17
 74
0
 42
0.0000001
 43
0.0000001
 44
0.0000000001
 40
0.0
 40
0.0
 40
0.0
 40
0.0
 40
0.0406628438
 40
0.0825074054
 40
0.1264939309
 40
0.1734214662
 40
0.2238640123
 40
0.278142084
 40
0.3363900427
 40
0.3985693142
 40
0.4645222938
 40
0.5339739623
 40
0.6065729582
 40
0.6818803895
 40
0.8386318947
 40
1.0
 40
1.0
 40
1.0
 40
1.0
 10
12.3178925932
 20
4.578891804
 30
0.0
 10
12.3175644598
 20
4.578891804
 30
0.0
 10
12.316896956
 20
4.5789585774
 30
0.0
 10
12.3159140281
 20
4.5792538831
 30
0.0
 10
12.3149541197
 20
4.5797409274
 30
0.0
 10
12.3140266277
 20
4.5804118496
 30
0.0
 10
12.3131393468
 20
4.5812593321
 30
0.0
 10
12.3122991279
 20
4.5822743687
 30
0.0
 10
12.3115138069
 20
4.5834477135
 30
0.0
 10
12.3107897723
 20
4.5847679408
 30
0.0
 10
12.3101341439
 20
4.586222919
 30
0.0
 10
12.3095525127
 20
4.5877987444
 30
0.0
 10
12.3090508775
 20
4.5894806382
 30
0.0
 10
12.3084870026
 20
4.5918747851
 30
0.0
 10
12.3080172895
 20
4.5950208793
 30
0.0
 10
12.3078925932
 20
4.5975896258
 30
0.0
 10
12.3078925932
 20
4.598891804
 30
0.0
  0
SPLINE
  5
242
100
AcDbEntity
  8
0
100
AcDbSpline
 62
9
  6
CONTINUOUS
 70
0
 71
3
 72
21
 73
17
 74
0
 42
0.0000001
 43
0.0000001
 44
0.0000000001
 40
0.0
 40
0.0
 40
0.0
 40
0.0
 40
0.0406628438
 40
0.0825074054
 40
0.1264939309
 40
0.1734214662
 40
0.2238640123
 40
0.278142084
 40
0.3363900427
 40
0.3985693142
 40
0.4645222938
 40
0.5339739623
 40
0.6065729582
 40
0.6818803895
 40
0.8386318947
 40
1.0
 40
1.0
 40
1.0
 40
1.0
 10
12.2378925932
 20
4.578891804
 30
0.0
 10
12.2382207266
 20
4.578891804
 30
0.0
 10
12.2388882304
 20
4.5789585774
 30
0.0
 10
12.2398711583
 20
4.5792538831
 30
0.0
 10
12.2408310667
 20
4.5797409274
 30
0.0
 10
12.2417585587
 20
4.5804118496
 30
0.0
 10
12.2426458396
 20
4.5812593321
 30
0.0
 10
12.2434860585
 20
4.5822743687
 30
0.0
 10
12.2442713795
 20
4.5834477135
 30
0.0
 10
12.2449954141
 20
4.5847679408
 30
0.0
 10
12.2456510425
 20
4.586222919
 30
0.0
 10
12.2462326737
 20
4.5877987444
 30
0.0
 10
12.2467343089
 20
4.5894806382
 30
0.0
 10
12.2472981838
 20
4.5918747851
 30
0.0
 10
12.2477678969
 20
4.5950208793
 30
0.0
 10
12.2478925932
 20
4.5975896258
 30
0.0
 10
12.2478925932
 20
4.598891804
 30
0.0
  0
SPLINE
  5
243
100
AcDbEntity
  8
0
100
AcDbSpline
 62
9
  6
CONTINUOUS
 70
0
 71
3
 72
21
 73
17
 74
0
 42
0.0000001
 43
0.0000001
 44
0.0000000001
 40
0.0
 40
0.0
 40
0.0
 40
0.0
 40
0.0406628438
 40
0.0825074054
 40
0.1264939309
 40
0.1734214662
 40
0.2238640123
 40
0.278142084
 40
0.3363900427
 40
0.3985693142
 40
0.4645222938
 40
0.5339739623
 40
0.6065729582
 40
0.6818803895
 40
0.8386318947
 40
1.0
 40
1.0
 40
1.0
 40
1.0
 10
11.4353925932
 20
4.578891804
 30
0.0
 10
11.4357207266
 20
4.578891804
 30
0.0
 10
11.4363882304
 20
4.5789585774
 30
0.0
 10
11.4373711583
 20
4.5792538831
 30
0.0
 10
11.4383310667
 20
4.5797409274
 30
0.0
 10
11.4392585587
 20
4.5804118496
 30
0.0
 10
11.4401458396
 20
4.5812593321
 30
0.0
 10
11.4409860585
 20
4.5822743687
 30
0.0
 10
11.4417713795
 20
4.5834477135
 30
0.0
 10
11.4424954141
 20
4.5847679408
 30
0.0
 10
11.4431510425
 20
4.586222919
 30
0.0
 10
11.4437326737
 20
4.5877987444
 30
0.0
 10
11.4442343089
 20
4.5894806382
 30
0.0
 10
11.4447981838
 20
4.5918747851
 30
0.0
 10
11.4452678969
 20
4.5950208793
 30
0.0
 10
11.4453925932
 20
4.5975896258
 30
0.0
 10
11.4453925932
 20
4.598891804
 30
0.0
  0
ENDSEC
  0
SECTION
  2
OBJECTS
  0
DICTIONARY
  5
C
100
AcDbDictionary
280
0
281
1
  3
ACAD_GROUP
350
D
  3
ACAD_MLINESTYLE
350
17
  3
ACAD_LAYOUT
350
1A
  3
ACAD_PLOTSETTINGS
350
19
  3
ACAD_PLOTSTYLENAME
350
E
  0
DICTIONARY
  5
D
102
{ACAD_REACTORS
330
C
102
}
100
AcDbDictionary
280
0
281
1
  0
ACDBDICTIONARYWDFLT
  5
E
102
{ACAD_REACTORS
330
C
102
}
100
AcDbDictionary
281
1
  3
Normal
350
F
100
AcDbDictionaryWithDefault
340
F
  0
DICTIONARY
  5
17
102
{ACAD_REACTORS
330
C
102
}
100
AcDbDictionary
280
0
281
1
  3
Standard
350
18
  0
DICTIONARY
  5
19
102
{ACAD_REACTORS
330
C
102
}
100
AcDbDictionary
281
1
  0
DICTIONARY
  5
1A
102
{ACAD_REACTORS
330
C
102
}
100
AcDbDictionary
281
1
  3
Model
350
244
  3
Layout1
350
245
  0
ACDBPLACEHOLDER
  5
F
102
{ACAD_REACTORS
330
E
102
}
  0
MLINESTYLE
  5
18
102
{ACAD_REACTORS
330
17
102
}
100
AcDbMlineStyle
  2
STANDARD
 70
0
  3

 62
256
 51
90.0
 52
90.0
 71
2
 49
0.5
 62
256
  6
BYLAYER
 49
-0.5
 62
256
  6
BYLAYER
  0
LAYOUT
  5
244
102
{ACAD_REACTORS
330
1A
102
}
100
AcDbPlotSettings
  1

  2
none_device
  4
ANSI_C_(22.00_x_17.00_Inches)
  6

 40
0.0
 41
0.0
 42
0.0
 43
0.0
 44
558.8
 45
431.8
 46
0.0
 47
0.0
 48
0.0
 49
0.0
140
0.0
141
0.0
142
1.0
143
1.0
 70
1024
 72
0
 73
0
 74
0
  7

 75
0
147
1.0
148
0.0
149
0.0
100
AcDbLayout
  1
Model
 70
0
 71
0
 10
0.0
 20
0.0
 11
22.0
 21
17.0
 12
0.0
 22
0.0
 32
0.0
 14
0.0
 24
0.0
 34
0.0
 15
0.0
 25
0.0
 35
0.0
146
0.0
 13
0.0
 23
0.0
 33
0.0
 16
1.0
 26
0.0
 36
0.0
 17
0.0
 27
1.0
 37
0.0
 76
0
330
205
345
0
346
0
  0
LAYOUT
  5
245
102
{ACAD_REACTORS
330
1A
102
}
100
AcDbPlotSettings
  1

  2
none_device
  4
ANSI_C_(22.00_x_17.00_Inches)
  6

 40
0.0
 41
0.0
 42
0.0
 43
0.0
 44
558.8
 45
431.8
 46
0.0
 47
0.0
 48
0.0
 49
0.0
140
0.0
141
0.0
142
1.0
143
1.0
 70
0
 72
0
 73
0
 74
0
  7

 75
0
147
1.0
148
0.0
149
0.0
100
AcDbLayout
  1
Layout1
 70
0
 71
1
 10
0.0
 20
0.0
 11
22.0
 21
17.0
 12
0.0
 22
0.0
 32
0.0
 14
0.0
 24
0.0
 34
0.0
 15
0.0
 25
0.0
 35
0.0
146
0.0
 13
0.0
 23
0.0
 33
0.0
 16
1.0
 26
0.0
 36
0.0
 17
0.0
 27
1.0
 37
0.0
 76
0
330
206
345
0
346
0
  0
ENDSEC
  0
EOF
