999
DXF file: E:\BT Custom\CADOUTPUT\_FRONT.dxf
999
Pro/ENGINEER 2018400 by Parametric Technology Corporation
  0
SECTION
  2
HEADER
  9
$ACADVER
  1
AC1018
  9
$DWGCODEPAGE
  3
ANSI_1252
  9
$EXTMAX
 10
22.0
 20
17.0
 30
0.0
  9
$EXTMIN
 10
0.0
 20
0.0
 30
0.0
  9
$LIMMIN
 10
0.0
 20
0.0
  9
$LIMMAX
 10
22.0
 20
17.0
  9
$VIEWCTR
 10
11.0
 20
8.5
  9
$VIEWSIZE
 40
17.0
  9
$CLAYER
  8
0
  9
$LTSCALE
 40
1.21
  9
$CELTYPE
  6
BYLAYER
  9
$DIMSCALE
 40
1.0
  9
$DIMASZ
 40
0.1
  9
$DIMEXO
 40
0.0625
  9
$DIMDLI
 40
0.836
  9
$DIMEXE
 40
0.125
  9
$DIMCEN
 40
0.198
  9
$DIMLFAC
 40
1.0
  9
$DIMBLK
  1
_FILLED
  9
$DIMALT
 70
1
  9
$DIMALTD
 70
2
  9
$DIMALTTD
 70
2
  9
$DIMALTF
 40
25.4
  9
$DIMTXT
 40
0.08
  9
$DIMTOL
 70
1
  9
$DIMLIM
 70
0
  9
$DIMTFAC
 40
1.0
  9
$DIMTP
 40
0.001
  9
$DIMTM
 40
0.001
  9
$DIMGAP
 40
0.09
  9
$DIMDSEP
 70
46
  9
$AUNITS
 70
0
  9
$PDMODE
 70
3
  9
$PDSIZE
 40
0.06
  9
$HANDSEED
  5
301
  9
$TILEMODE
 70
1
  9
$MEASUREMENT
 70
0
  9
$INSUNITS
 70
1
  0
ENDSEC
  0
SECTION
  2
CLASSES
  0
CLASS
  1
ACDBDICTIONARYWDFLT
  2
AcDbDictionaryWithDefault
  3
AutoCAD 2000
 90
0
 91
1
280
0
281
0
  0
CLASS
  1
ACDBPLACEHOLDER
  2
AcDbPlaceHolder
  3
AutoCAD 2000
 90
0
 91
1
280
0
281
0
  0
CLASS
  1
LAYOUT
  2
AcDbLayout
  3
AutoCAD 2000
 90
0
 91
0
280
0
281
0
  0
ENDSEC
  0
SECTION
  2
TABLES
  0
TABLE
  2
VPORT
  5
8
100
AcDbSymbolTable
 70
2
  0
VPORT
  5
1F4
100
AcDbSymbolTableRecord
100
AcDbViewportTableRecord
  2
*ACTIVE
 70
0
 10
0.0
 20
0.0
 11
1.0
 21
1.0
 12
11.0
 22
8.5
 13
0.0
 23
0.0
 14
1.0
 24
1.0
 15
0.0
 25
0.0
 16
0.0
 26
0.0
 36
1.0
 17
0.0
 27
0.0
 37
0.0
 40
17.0
 41
1.2941176471
 42
50.0
 43
0.0
 44
0.0
 50
0.0
 51
0.0
 71
0
 72
100
 73
1
 74
1
 75
0
 76
0
 77
0
 78
0
  0
ENDTAB
  0
TABLE
  2
LTYPE
  5
5
100
AcDbSymbolTable
 70
6
  0
LTYPE
  5
14
100
AcDbSymbolTableRecord
100
AcDbLinetypeTableRecord
  2
BYBLOCK
 70
0
  3

 72
65
 73
0
 40
0.0
  0
LTYPE
  5
15
100
AcDbSymbolTableRecord
100
AcDbLinetypeTableRecord
  2
BYLAYER
 70
0
  3

 72
65
 73
0
 40
0.0
  0
LTYPE
  5
16
100
AcDbSymbolTableRecord
100
AcDbLinetypeTableRecord
  2
CONTINUOUS
 70
64
  3
Solid line
 72
65
 73
0
 40
0.0
  0
LTYPE
  5
1F5
100
AcDbSymbolTableRecord
100
AcDbLinetypeTableRecord
  2
CENTER
 70
64
  3
____ _ ____ _ ____ _ ____ _ ____ _ ____ _ ____
 72
65
 73
4
 40
0.6
 49
0.375
 74
0
 49
-0.075
 74
0
 49
0.075
 74
0
 49
-0.075
 74
0
  0
LTYPE
  5
1F6
100
AcDbSymbolTableRecord
100
AcDbLinetypeTableRecord
  2
HIDDEN
 70
64
  3
- - - - - - - - - - - - - - - - - - - -
 72
65
 73
2
 40
0.2
 49
0.1
 74
0
 49
-0.1
 74
0
  0
LTYPE
  5
1F7
100
AcDbSymbolTableRecord
100
AcDbLinetypeTableRecord
  2
PHANTOM
 70
64
  3
_____ _ _ _____ _ _ _____ _ _ _____
 72
65
 73
6
 40
0.8
 49
0.45
 74
0
 49
-0.05
 74
0
 49
0.1
 74
0
 49
-0.05
 74
0
 49
0.1
 74
0
 49
-0.05
 74
0
  0
LTYPE
  5
1F8
100
AcDbSymbolTableRecord
100
AcDbLinetypeTableRecord
  2
DOT
 70
64
  3
. . . . . . . . . . . . . . . . . . . .
 72
65
 73
2
 40
0.2
 49
0.1
 74
0
 49
-0.1
 74
0
  0
LTYPE
  5
1F9
100
AcDbSymbolTableRecord
100
AcDbLinetypeTableRecord
  2
DASHED
 70
64
  3
- - - - - - - - - - - - - - - - - - - -
 72
65
 73
2
 40
0.2
 49
0.1
 74
0
 49
-0.1
 74
0
  0
ENDTAB
  0
TABLE
  2
LAYER
  5
2
100
AcDbSymbolTable
 70
36
  0
LAYER
  5
10
100
AcDbSymbolTableRecord
100
AcDbLayerTableRecord
  2
0
 70
0
 62
7
  6
CONTINUOUS
370
-3
390
F
  0
LAYER
  5
1FA
100
AcDbSymbolTableRecord
100
AcDbLayerTableRecord
  2
DEFAULT_1
 70
0
 62
7
  6
CENTER
370
-3
390
F
  0
LAYER
  5
1FB
100
AcDbSymbolTableRecord
100
AcDbLayerTableRecord
  2
DEFAULT_2
 70
0
 62
8
  6
HIDDEN
370
-3
390
F
  0
LAYER
  5
1FC
100
AcDbSymbolTableRecord
100
AcDbLayerTableRecord
  2
DEFAULT_3
 70
0
 62
7
  6
PHANTOM
370
-3
390
F
  0
LAYER
  5
1FD
100
AcDbSymbolTableRecord
100
AcDbLayerTableRecord
  2
ALL_FEATURES
 70
0
 62
7
  6
CONTINUOUS
370
-3
390
F
  0
LAYER
  5
1FE
100
AcDbSymbolTableRecord
100
AcDbLayerTableRecord
  2
AXES_FEATURES
 70
0
 62
7
  6
CONTINUOUS
370
-3
390
F
  0
LAYER
  5
1FF
100
AcDbSymbolTableRecord
100
AcDbLayerTableRecord
  2
DEFAULT_COORDINATE_SYSTEM
 70
0
 62
7
  6
CONTINUOUS
370
-3
390
F
  0
LAYER
  5
200
100
AcDbSymbolTableRecord
100
AcDbLayerTableRecord
  2
DEFAULT_DATUM_AXES
 70
0
 62
7
  6
CONTINUOUS
370
-3
390
F
  0
LAYER
  5
201
100
AcDbSymbolTableRecord
100
AcDbLayerTableRecord
  2
DEFAULT_DATUM_PLANES
 70
0
 62
7
  6
CONTINUOUS
370
-3
390
F
  0
LAYER
  5
202
100
AcDbSymbolTableRecord
100
AcDbLayerTableRecord
  2
DIMENSIONS
 70
0
 62
7
  6
CONTINUOUS
370
-3
390
F
  0
ENDTAB
  0
TABLE
  2
STYLE
  5
3
100
AcDbSymbolTable
 70
1
  0
STYLE
  5
11
100
AcDbSymbolTableRecord
100
AcDbTextStyleTableRecord
  2
STANDARD
 70
0
 40
0.0
 41
0.8
 50
0.0
 71
0
 42
0.2
  3
txt
  4

  0
STYLE
  5
203
100
AcDbSymbolTableRecord
100
AcDbTextStyleTableRecord
  2
TEXTSTYLE_1
 70
0
 40
0.0
 41
0.8
 50
0.0
 71
0
 42
0.2
  3
gdt
  4

  0
ENDTAB
  0
TABLE
  2
VIEW
  5
6
100
AcDbSymbolTable
 70
0
  0
ENDTAB
  0
TABLE
  2
UCS
  5
7
100
AcDbSymbolTable
 70
0
  0
ENDTAB
  0
TABLE
  2
APPID
  5
9
100
AcDbSymbolTable
 70
1
  0
APPID
  5
204
100
AcDbSymbolTableRecord
100
AcDbRegAppTableRecord
  2
ACAD
 70
0
  0
ENDTAB
  0
TABLE
  2
BLOCK_RECORD
  5
1
100
AcDbSymbolTable
 70
0
  0
BLOCK_RECORD
  5
205
100
AcDbSymbolTableRecord
100
AcDbBlockTableRecord
  2
*Model_Space
  0
BLOCK_RECORD
  5
206
100
AcDbSymbolTableRecord
100
AcDbBlockTableRecord
  2
*Paper_Space
  0
BLOCK_RECORD
  5
207
100
AcDbSymbolTableRecord
100
AcDbBlockTableRecord
  2
_FILLED
  0
ENDTAB
  0
TABLE
  2
DIMSTYLE
  5
A
100
AcDbSymbolTable
 70
1
100
AcDbDimStyleTable
 71
0
  0
DIMSTYLE
105
208
100
AcDbSymbolTableRecord
100
AcDbDimStyleTableRecord
  2
STANDARD
 70
0
  3

  4

 40
1.0
 41
0.1
 42
0.0625
 43
0.38
 44
0.125
 45
0.0
 46
0.0
 47
0.001
 48
0.001
140
0.08
141
0.09
142
0.0
143
25.4
144
1.0
145
0.0
146
1.0
147
0.09
 71
1.0
 72
0.0
 73
1
 74
1
 75
0
 76
0
 77
0
 78
4
 79
1
170
1
171
2
172
0
173
0
174
0
175
0
176
0
177
0
178
0
270
2
179
3
271
3
272
3
273
2
274
2
275
0
280
0
281
0
282
0
283
1
284
4
285
0
286
0
287
3
288
0
340
11
278
46
341
207
342
207
343
207
344
207
  0
ENDTAB
  0
ENDSEC
  0
SECTION
  2
BLOCKS
  0
BLOCK
  5
20
100
AcDbEntity
  8
0
100
AcDbBlockBegin
  2
*Model_Space
 70
0
 10
0.0
 20
0.0
 30
0.0
  3
*Model_Space
  1

  0
ENDBLK
  5
21
100
AcDbEntity
  8
0
100
AcDbBlockEnd
  0
BLOCK
  5
1C
100
AcDbEntity
  8
0
100
AcDbBlockBegin
  2
*Paper_Space
 70
0
 10
0.0
 20
0.0
 30
0.0
  3
*Paper_Space
  1

  0
ENDBLK
  5
1D
100
AcDbEntity
  8
0
100
AcDbBlockEnd
  0
BLOCK
  5
209
100
AcDbEntity
  8
0
100
AcDbBlockBegin
  2
_FILLED
 70
64
 10
0.0
 20
0.0
  3
_FILLED
  1

  0
SOLID
  5
20A
100
AcDbEntity
  8
0
  6
BYBLOCK
 62
0
100
AcDbTrace
 10
0.0
 20
0.0
 11
-1.0
 21
0.2
 12
-1.0
 22
-0.2
 13
-1.0
 23
-0.2
  0
ENDBLK
  5
20B
100
AcDbEntity
  8
0
  6
BYBLOCK
 62
0
100
AcDbBlockEnd
  0
ENDSEC
  0
SECTION
  2
ENTITIES
  0
LINE
  5
20C
100
AcDbEntity
  8
0
100
AcDbLine
 62
7
  6
CONTINUOUS
 10
9.0919644913
 20
4.6561695021
 11
11.3219644913
 21
4.6561695021
  0
LINE
  5
20D
100
AcDbEntity
  8
0
100
AcDbLine
 62
9
  6
CONTINUOUS
 10
11.3219644913
 20
4.7933874698
 11
9.0919644913
 21
4.7933874698
  0
LINE
  5
20E
100
AcDbEntity
  8
0
100
AcDbLine
 62
9
  6
CONTINUOUS
 10
11.3119644913
 20
4.8107079779
 11
9.1019644913
 21
4.8107079779
  0
LINE
  5
20F
100
AcDbEntity
  8
0
100
AcDbLine
 62
9
  6
CONTINUOUS
 10
9.1873234751
 20
4.8599900102
 11
11.2266055074
 21
4.8599900102
  0
LINE
  5
210
100
AcDbEntity
  8
0
100
AcDbLine
 62
7
  6
CONTINUOUS
 10
9.1973234751
 20
4.8626695021
 11
11.2166055074
 21
4.8626695021
  0
LINE
  5
211
100
AcDbEntity
  8
0
100
AcDbLine
 62
9
  6
CONTINUOUS
 10
9.2203173092
 20
4.8826695021
 11
11.1936116733
 21
4.8826695021
  0
LINE
  5
212
100
AcDbEntity
  8
0
100
AcDbLine
 62
9
  6
CONTINUOUS
 10
9.2203173092
 20
5.0611695021
 11
11.1936116733
 21
5.0611695021
  0
LINE
  5
213
100
AcDbEntity
  8
0
100
AcDbLine
 62
7
  6
CONTINUOUS
 10
9.2403173092
 20
5.0811695021
 11
11.1736116733
 21
5.0811695021
  0
LINE
  5
214
100
AcDbEntity
  8
0
100
AcDbLine
 62
7
  6
CONTINUOUS
 10
11.2266055074
 20
4.8599900102
 11
11.3119644913
 21
4.8107079779
  0
LINE
  5
215
100
AcDbEntity
  8
0
100
AcDbLine
 62
7
  6
CONTINUOUS
 10
11.9619644913
 20
5.8343662383
 11
11.6269644913
 21
5.8343662383
  0
LINE
  5
216
100
AcDbEntity
  8
0
100
AcDbLine
 62
9
  6
CONTINUOUS
 10
11.9619644913
 20
5.8397252222
 11
11.6269644913
 21
5.8397252222
  0
LINE
  5
217
100
AcDbEntity
  8
0
100
AcDbLine
 62
7
  6
CONTINUOUS
 10
11.5769644913
 20
5.9551695021
 11
11.0027373681
 21
5.9551695021
  0
LINE
  5
218
100
AcDbEntity
  8
0
100
AcDbLine
 62
9
  6
CONTINUOUS
 10
12.783404309
 20
6.4160064875
 11
12.7834252582
 21
6.4160084276
  0
LINE
  5
219
100
AcDbEntity
  8
0
100
AcDbLine
 62
7
  6
CONTINUOUS
 10
12.7710725695
 20
6.4534423307
 11
12.7743174713
 21
6.4537262228
  0
LINE
  5
21A
100
AcDbEntity
  8
0
100
AcDbLine
 62
9
  6
CONTINUOUS
 10
12.7744318411
 20
6.4635475276
 11
12.783404309
 21
6.4643325168
  0
LINE
  5
21B
100
AcDbEntity
  8
0
100
AcDbLine
 62
7
  6
CONTINUOUS
 10
12.2429644913
 20
6.0651695021
 11
12.4529644913
 21
6.0651695021
  0
LINE
  5
21C
100
AcDbEntity
  8
0
100
AcDbLine
 62
9
  6
CONTINUOUS
 10
11.9619644913
 20
6.1226268541
 11
11.6269644913
 21
6.1226268541
  0
LINE
  5
21D
100
AcDbEntity
  8
0
100
AcDbLine
 62
7
  6
CONTINUOUS
 10
12.2029644913
 20
6.1276695021
 11
11.9819644913
 21
6.1276695021
  0
LINE
  5
21E
100
AcDbEntity
  8
0
100
AcDbLine
 62
9
  6
CONTINUOUS
 10
11.6069644913
 20
6.1572678702
 11
11.9819644913
 21
6.1572678702
  0
LINE
  5
21F
100
AcDbEntity
  8
0
100
AcDbLine
 62
7
  6
CONTINUOUS
 10
12.4929644913
 20
6.1651695021
 11
12.6529644913
 21
6.1651695021
  0
LINE
  5
220
100
AcDbEntity
  8
0
100
AcDbLine
 62
9
  6
CONTINUOUS
 10
12.2229644913
 20
6.2521695021
 11
12.4729644913
 21
6.2521695021
  0
LINE
  5
221
100
AcDbEntity
  8
0
100
AcDbLine
 62
7
  6
CONTINUOUS
 10
12.7229640919
 20
6.2526695021
 11
12.6929644913
 21
6.2526695021
  0
LINE
  5
222
100
AcDbEntity
  8
0
100
AcDbLine
 62
9
  6
CONTINUOUS
 10
12.7699049991
 20
6.5453432611
 11
12.7699135469
 21
6.5453440111
  0
LINE
  5
223
100
AcDbEntity
  8
0
100
AcDbLine
 62
9
  6
CONTINUOUS
 10
12.7699049991
 20
6.4426817262
 11
12.770306354
 21
6.4426827878
  0
LINE
  5
224
100
AcDbEntity
  8
0
100
AcDbLine
 62
7
  6
CONTINUOUS
 10
12.7229640919
 20
6.6276695021
 11
12.6929644913
 21
6.6276695021
  0
LINE
  5
225
100
AcDbEntity
  8
0
100
AcDbLine
 62
9
  6
CONTINUOUS
 10
12.7699049991
 20
6.4376572781
 11
12.770306354
 21
6.4376562166
  0
LINE
  5
226
100
AcDbEntity
  8
0
100
AcDbLine
 62
9
  6
CONTINUOUS
 10
12.783404309
 20
6.4160064875
 11
12.7744318411
 21
6.4167914767
  0
LINE
  5
227
100
AcDbEntity
  8
0
100
AcDbLine
 62
7
  6
CONTINUOUS
 10
12.7743174713
 20
6.4266127815
 11
12.7710724125
 21
6.4268966874
  0
LINE
  5
228
100
AcDbEntity
  8
0
100
AcDbLine
 62
9
  6
CONTINUOUS
 10
12.7699135469
 20
6.3349949932
 11
12.7699049991
 21
6.3349957432
  0
LINE
  5
229
100
AcDbEntity
  8
0
100
AcDbLine
 62
7
  6
CONTINUOUS
 10
12.4929644913
 20
6.7151695021
 11
12.6529644913
 21
6.7151695021
  0
LINE
  5
22A
100
AcDbEntity
  8
0
100
AcDbLine
 62
9
  6
CONTINUOUS
 10
11.6069644913
 20
6.723071134
 11
11.9819644913
 21
6.723071134
  0
LINE
  5
22B
100
AcDbEntity
  8
0
100
AcDbLine
 62
7
  6
CONTINUOUS
 10
12.2029644913
 20
6.7526695021
 11
11.9819644913
 21
6.7526695021
  0
LINE
  5
22C
100
AcDbEntity
  8
0
100
AcDbLine
 62
9
  6
CONTINUOUS
 10
11.9619644913
 20
6.7577121502
 11
11.6269644913
 21
6.7577121502
  0
LINE
  5
22D
100
AcDbEntity
  8
0
100
AcDbLine
 62
9
  6
CONTINUOUS
 10
12.2429644913
 20
6.7933312881
 11
12.2229644913
 21
6.7933312881
  0
LINE
  5
22E
100
AcDbEntity
  8
0
100
AcDbLine
 62
9
  6
CONTINUOUS
 10
12.4529644913
 20
6.7933312881
 11
12.4729644913
 21
6.7933312881
  0
LINE
  5
22F
100
AcDbEntity
  8
0
100
AcDbLine
 62
7
  6
CONTINUOUS
 10
11.5769644913
 20
6.9251695021
 11
11.002737368
 21
6.9251695021
  0
LINE
  5
230
100
AcDbEntity
  8
0
100
AcDbLine
 62
9
  6
CONTINUOUS
 10
12.783404309
 20
6.4643325168
 11
12.7834252798
 21
6.4643302411
  0
LINE
  5
231
100
AcDbEntity
  8
0
100
AcDbLine
 62
9
  6
CONTINUOUS
 10
11.9619644913
 20
7.0406137821
 11
11.6269644913
 21
7.0406137821
  0
LINE
  5
232
100
AcDbEntity
  8
0
100
AcDbLine
 62
7
  6
CONTINUOUS
 10
11.9619644913
 20
7.0459727659
 11
11.6269644913
 21
7.0459727659
  0
LINE
  5
233
100
AcDbEntity
  8
0
100
AcDbLine
 62
9
  6
CONTINUOUS
 10
12.4929644913
 20
7.1349461143
 11
12.4729644913
 21
7.1349461143
  0
LINE
  5
234
100
AcDbEntity
  8
0
100
AcDbLine
 62
9
  6
CONTINUOUS
 10
12.7029644913
 20
7.1349461143
 11
12.7229644913
 21
7.1349461143
  0
LINE
  5
235
100
AcDbEntity
  8
0
100
AcDbLine
 62
9
  6
CONTINUOUS
 10
12.7744318411
 20
6.5252695544
 11
12.7744535856
 21
6.5252619393
  0
LINE
  5
236
100
AcDbEntity
  8
0
100
AcDbLine
 62
7
  6
CONTINUOUS
 10
9.0919644913
 20
4.6561695021
 11
9.0919644913
 21
4.7933874698
  0
LINE
  5
237
100
AcDbEntity
  8
0
100
AcDbLine
 62
7
  6
CONTINUOUS
 10
9.2203173092
 20
5.0611695021
 11
9.2203173092
 21
4.8826695021
  0
LINE
  5
238
100
AcDbEntity
  8
0
100
AcDbLine
 62
9
  6
CONTINUOUS
 10
9.228355785
 20
5.0611695021
 11
9.228355785
 21
4.8826695021
  0
LINE
  5
239
100
AcDbEntity
  8
0
100
AcDbLine
 62
7
  6
CONTINUOUS
 10
9.4019644913
 20
7.8791695021
 11
9.4019644913
 21
5.0811695021
  0
LINE
  5
23A
100
AcDbEntity
  8
0
100
AcDbLine
 62
7
  6
CONTINUOUS
 10
11.0119644913
 20
7.8791695021
 11
9.4019644913
 21
7.8791695021
  0
LINE
  5
23B
100
AcDbEntity
  8
0
100
AcDbLine
 62
9
  6
CONTINUOUS
 10
9.691679376
 20
5.0611695021
 11
9.691679376
 21
4.8826695021
  0
LINE
  5
23C
100
AcDbEntity
  8
0
100
AcDbLine
 62
9
  6
CONTINUOUS
 10
9.7436409003
 20
4.8626695021
 11
9.7436409003
 21
5.0811695021
  0
LINE
  5
23D
100
AcDbEntity
  8
0
100
AcDbLine
 62
7
  6
CONTINUOUS
 10
9.9569644913
 20
7.8791695021
 11
9.9569644913
 21
13.6291695021
  0
LINE
  5
23E
100
AcDbEntity
  8
0
100
AcDbLine
 62
9
  6
CONTINUOUS
 10
12.2523227136
 20
6.8190427925
 11
12.2370018247
 21
6.8318985447
  0
LINE
  5
23F
100
AcDbEntity
  8
0
100
AcDbLine
 62
9
  6
CONTINUOUS
 10
12.4716809358
 20
6.8447542969
 11
12.4870018247
 21
6.8318985447
  0
LINE
  5
240
100
AcDbEntity
  8
0
100
AcDbLine
 62
9
  6
CONTINUOUS
 10
12.4742480467
 20
7.0835231056
 11
12.4589271579
 21
7.0963788578
  0
LINE
  5
241
100
AcDbEntity
  8
0
100
AcDbLine
 62
7
  6
CONTINUOUS
 10
10.4569644913
 20
7.8791695021
 11
10.4569644913
 21
13.6291695021
  0
LINE
  5
242
100
AcDbEntity
  8
0
100
AcDbLine
 62
9
  6
CONTINUOUS
 10
12.693606269
 20
7.10923461
 11
12.7089271579
 21
7.0963788578
  0
LINE
  5
243
100
AcDbEntity
  8
0
100
AcDbLine
 62
9
  6
CONTINUOUS
 10
10.6702880823
 20
5.0811695021
 11
10.6702880823
 21
4.8626695021
  0
LINE
  5
244
100
AcDbEntity
  8
0
100
AcDbLine
 62
9
  6
CONTINUOUS
 10
10.7222496065
 20
5.0611695021
 11
10.7222496065
 21
4.8826695021
  0
LINE
  5
245
100
AcDbEntity
  8
0
100
AcDbLine
 62
7
  6
CONTINUOUS
 10
11.0119644913
 20
5.0811695021
 11
11.0119644913
 21
5.9401695021
  0
LINE
  5
246
100
AcDbEntity
  8
0
100
AcDbLine
 62
7
  6
CONTINUOUS
 10
11.0119644913
 20
6.9401695021
 11
11.0119644913
 21
7.8791695021
  0
LINE
  5
247
100
AcDbEntity
  8
0
100
AcDbLine
 62
9
  6
CONTINUOUS
 10
11.1855731976
 20
5.0611695021
 11
11.1855731976
 21
4.8826695021
  0
LINE
  5
248
100
AcDbEntity
  8
0
100
AcDbLine
 62
7
  6
CONTINUOUS
 10
11.1936116733
 20
5.0611695021
 11
11.1936116733
 21
4.8826695021
  0
LINE
  5
249
100
AcDbEntity
  8
0
100
AcDbLine
 62
9
  6
CONTINUOUS
 10
12.4729644913
 20
9.3781695021
 11
12.7229644913
 21
9.3781695021
  0
LINE
  5
24A
100
AcDbEntity
  8
0
100
AcDbLine
 62
7
  6
CONTINUOUS
 10
12.7029644913
 20
9.5651695021
 11
12.4929644913
 21
9.5651695021
  0
LWPOLYLINE
  5
24B
100
AcDbEntity
  8
0
100
AcDbPolyline
 62
7
  6
CONTINUOUS
 90
20
 70
0
 10
12.771865736
 20
6.4236762311
 10
12.7718761383
 20
6.4236553704
 10
12.7718756753
 20
6.4236570343
 10
12.7718428921
 20
6.4237368663
 10
12.771781929
 20
6.4239015622
 10
12.7716977138
 20
6.4241548408
 10
12.7715939575
 20
6.4245030875
 10
12.7714723424
 20
6.4249605755
 10
12.7713356072
 20
6.4255410866
 10
12.7711892157
 20
6.4262483547
 10
12.7710394629
 20
6.4270795788
 10
12.7708924415
 20
6.4280277076
 10
12.7707536923
 20
6.4290824981
 10
12.770628015
 20
6.4302312275
 10
12.770519259
 20
6.4314606597
 10
12.7704305466
 20
6.4327562031
 10
12.7703643137
 20
6.4341014455
 10
12.7703221729
 20
6.435479196
 10
12.770304971
 20
6.4368720032
 10
12.770306354
 20
6.4376562166
  0
LINE
  5
24C
100
AcDbEntity
  8
0
100
AcDbLine
 62
7
  6
CONTINUOUS
 10
11.3219644913
 20
4.6561695021
 11
11.3219644913
 21
4.7933874698
  0
LINE
  5
24D
100
AcDbEntity
  8
0
100
AcDbLine
 62
9
  6
CONTINUOUS
 10
11.5769644913
 20
5.9551695021
 11
11.5769644913
 21
5.9905156348
  0
LINE
  5
24E
100
AcDbEntity
  8
0
100
AcDbLine
 62
9
  6
CONTINUOUS
 10
11.5769644913
 20
6.057934501
 11
11.5769644913
 21
6.372750636
  0
LINE
  5
24F
100
AcDbEntity
  8
0
100
AcDbLine
 62
9
  6
CONTINUOUS
 10
11.5769644913
 20
6.5075883683
 11
11.5769644913
 21
6.8224045033
  0
LINE
  5
250
100
AcDbEntity
  8
0
100
AcDbLine
 62
9
  6
CONTINUOUS
 10
11.5769644913
 20
6.8898233695
 11
11.5769644913
 21
6.9251695021
  0
LINE
  5
251
100
AcDbEntity
  8
0
100
AcDbLine
 62
7
  6
CONTINUOUS
 10
11.6069644913
 20
5.8543662334
 11
11.6069644913
 21
5.9627019936
  0
LINE
  5
252
100
AcDbEntity
  8
0
100
AcDbLine
 62
7
  6
CONTINUOUS
 10
11.6069644913
 20
6.0342910989
 11
11.6069644913
 21
6.3685803968
  0
LINE
  5
253
100
AcDbEntity
  8
0
100
AcDbLine
 62
7
  6
CONTINUOUS
 10
11.6069644913
 20
6.5117586075
 11
11.6069644913
 21
6.8460479054
  0
LINE
  5
254
100
AcDbEntity
  8
0
100
AcDbLine
 62
7
  6
CONTINUOUS
 10
11.6069644913
 20
6.9176370107
 11
11.6069644913
 21
7.0259727709
  0
LINE
  5
255
100
AcDbEntity
  8
0
100
AcDbLine
 62
9
  6
CONTINUOUS
 10
11.6269644913
 20
5.8343662383
 11
11.6269644913
 21
7.0459727659
  0
LINE
  5
256
100
AcDbEntity
  8
0
100
AcDbLine
 62
9
  6
CONTINUOUS
 10
11.9619644913
 20
7.0459727659
 11
11.9619644913
 21
5.8343662383
  0
LINE
  5
257
100
AcDbEntity
  8
0
100
AcDbLine
 62
7
  6
CONTINUOUS
 10
11.9819644913
 20
7.025972771
 11
11.9819644913
 21
5.8543662333
  0
LINE
  5
258
100
AcDbEntity
  8
0
100
AcDbLine
 62
9
  6
CONTINUOUS
 10
12.2029644913
 20
6.1276695021
 11
12.2029644913
 21
6.7526695021
  0
LINE
  5
259
100
AcDbEntity
  8
0
100
AcDbLine
 62
7
  6
CONTINUOUS
 10
12.2229644913
 20
6.7933312881
 11
12.2229644913
 21
6.0851695021
  0
LINE
  5
25A
100
AcDbEntity
  8
0
100
AcDbLine
 62
9
  6
CONTINUOUS
 10
12.2429644913
 20
6.7933312881
 11
12.2429644913
 21
6.0651695021
  0
LINE
  5
25B
100
AcDbEntity
  8
0
100
AcDbLine
 62
7
  6
CONTINUOUS
 10
12.7744535856
 20
6.5252619393
 11
12.7726507988
 21
6.5330732532
  0
LINE
  5
25C
100
AcDbEntity
  8
0
100
AcDbLine
 62
7
  6
CONTINUOUS
 10
12.7726507988
 20
6.5330732532
 11
12.7712433323
 21
6.5392559051
  0
LINE
  5
25D
100
AcDbEntity
  8
0
100
AcDbLine
 62
7
  6
CONTINUOUS
 10
12.7712433323
 20
6.5392559051
 11
12.770590899
 21
6.5421761054
  0
LINE
  5
25E
100
AcDbEntity
  8
0
100
AcDbLine
 62
7
  6
CONTINUOUS
 10
12.770590899
 20
6.5421761054
 11
12.7703669141
 21
6.5432012562
  0
LINE
  5
25F
100
AcDbEntity
  8
0
100
AcDbLine
 62
7
  6
CONTINUOUS
 10
12.7703669141
 20
6.5432012562
 11
12.7702630703
 21
6.5436871813
  0
LINE
  5
260
100
AcDbEntity
  8
0
100
AcDbLine
 62
7
  6
CONTINUOUS
 10
12.7702630703
 20
6.5436871813
 11
12.7702088479
 21
6.5439471433
  0
LINE
  5
261
100
AcDbEntity
  8
0
100
AcDbLine
 62
7
  6
CONTINUOUS
 10
12.7702088479
 20
6.5439471433
 11
12.770184318
 21
6.5440678633
  0
LWPOLYLINE
  5
262
100
AcDbEntity
  8
0
100
AcDbPolyline
 62
7
  6
CONTINUOUS
 90
3
 70
0
 10
12.770184318
 20
6.5440678633
 10
12.7701704381
 20
6.5441381308
 10
12.770169013
 20
6.5441455335
  0
LINE
  5
263
100
AcDbEntity
  8
0
100
AcDbLine
 62
9
  6
CONTINUOUS
 10
12.4529644913
 20
6.0651695021
 11
12.4529644913
 21
6.7933312881
  0
LINE
  5
264
100
AcDbEntity
  8
0
100
AcDbLine
 62
7
  6
CONTINUOUS
 10
12.4729644913
 20
9.5451695021
 11
12.4729644913
 21
7.1349461143
  0
LINE
  5
265
100
AcDbEntity
  8
0
100
AcDbLine
 62
7
  6
CONTINUOUS
 10
12.4729644913
 20
6.0851695021
 11
12.4729644913
 21
6.7933312881
  0
LINE
  5
266
100
AcDbEntity
  8
0
100
AcDbLine
 62
9
  6
CONTINUOUS
 10
12.4929644913
 20
9.5651695021
 11
12.4929644913
 21
7.1349461143
  0
LINE
  5
267
100
AcDbEntity
  8
0
100
AcDbLine
 62
9
  6
CONTINUOUS
 10
12.4929644913
 20
6.7151695021
 11
12.4929644913
 21
6.1651695021
  0
LWPOLYLINE
  5
268
100
AcDbEntity
  8
0
100
AcDbPolyline
 62
7
  6
CONTINUOUS
 90
19
 70
0
 10
12.770306354
 20
6.4426827878
 10
12.7703048397
 20
6.4434233554
 10
12.7703213262
 20
6.4448198032
 10
12.7703627391
 20
6.4461977914
 10
12.7704282127
 20
6.447542917
 10
12.7705163093
 20
6.448840581
 10
12.7706246928
 20
6.4500740763
 10
12.7707501833
 20
6.4512272953
 10
12.7708887956
 20
6.4522857937
 10
12.7710356803
 20
6.4532368152
 10
12.7711853523
 20
6.4540706623
 10
12.7713317979
 20
6.4547806853
 10
12.7714688153
 20
6.4553643544
 10
12.7715909625
 20
6.4558252903
 10
12.771695361
 20
6.4561766993
 10
12.7717802265
 20
6.4564326007
 10
12.7718418533
 20
6.4565994882
 10
12.7718753182
 20
6.4566811521
 10
12.7718800534
 20
6.4566918099
  0
LINE
  5
269
100
AcDbEntity
  8
0
100
AcDbLine
 62
9
  6
CONTINUOUS
 10
12.6529644913
 20
6.7151695021
 11
12.6529644913
 21
6.1651695021
  0
LINE
  5
26A
100
AcDbEntity
  8
0
100
AcDbLine
 62
7
  6
CONTINUOUS
 10
12.6729644913
 20
6.6951695021
 11
12.6729644913
 21
6.1851695021
  0
LINE
  5
26B
100
AcDbEntity
  8
0
100
AcDbLine
 62
9
  6
CONTINUOUS
 10
12.6929644913
 20
6.6276695021
 11
12.6929644913
 21
6.2526695021
  0
LINE
  5
26C
100
AcDbEntity
  8
0
100
AcDbLine
 62
9
  6
CONTINUOUS
 10
12.7029644913
 20
7.1349461143
 11
12.7029644913
 21
9.5651695021
  0
LINE
  5
26D
100
AcDbEntity
  8
0
100
AcDbLine
 62
9
  6
CONTINUOUS
 10
12.7229640919
 20
6.6276695021
 11
12.7229640919
 21
6.2526695021
  0
LINE
  5
26E
100
AcDbEntity
  8
0
100
AcDbLine
 62
7
  6
CONTINUOUS
 10
12.7229644913
 20
7.1349461143
 11
12.7229644913
 21
9.5451695021
  0
LINE
  5
26F
100
AcDbEntity
  8
0
100
AcDbLine
 62
9
  6
CONTINUOUS
 10
12.7405978722
 20
6.6171061219
 11
12.7405978722
 21
6.2632328824
  0
LINE
  5
270
100
AcDbEntity
  8
0
100
AcDbLine
 62
7
  6
CONTINUOUS
 10
10.4569644913
 20
11.1291695021
 11
9.9569644913
 21
11.1291695021
  0
LINE
  5
271
100
AcDbEntity
  8
0
100
AcDbLine
 62
7
  6
CONTINUOUS
 10
12.7701683092
 20
6.3361898636
 11
12.7701677565
 21
6.3361868677
  0
LINE
  5
272
100
AcDbEntity
  8
0
100
AcDbLine
 62
7
  6
CONTINUOUS
 10
12.7701677565
 20
6.3361868677
 11
12.7701722101
 21
6.3362099991
  0
LINE
  5
273
100
AcDbEntity
  8
0
100
AcDbLine
 62
9
  6
CONTINUOUS
 10
10.4569644913
 20
11.6291695021
 11
9.9569644913
 21
11.6291695021
  0
LINE
  5
274
100
AcDbEntity
  8
0
100
AcDbLine
 62
7
  6
CONTINUOUS
 10
12.7701722101
 20
6.3362099991
 11
12.7701872977
 21
6.3362859779
  0
LINE
  5
275
100
AcDbEntity
  8
0
100
AcDbLine
 62
7
  6
CONTINUOUS
 10
12.7701872977
 20
6.3362859779
 11
12.7702276607
 21
6.3364828611
  0
LINE
  5
276
100
AcDbEntity
  8
0
100
AcDbLine
 62
7
  6
CONTINUOUS
 10
12.7702276607
 20
6.3364828611
 11
12.7703134184
 21
6.3368887552
  0
LINE
  5
277
100
AcDbEntity
  8
0
100
AcDbLine
 62
7
  6
CONTINUOUS
 10
12.7703134184
 20
6.3368887552
 11
12.7704757253
 21
6.3376384045
  0
LINE
  5
278
100
AcDbEntity
  8
0
100
AcDbLine
 62
7
  6
CONTINUOUS
 10
12.7704757253
 20
6.3376384045
 11
12.7708998067
 21
6.3395532998
  0
LINE
  5
279
100
AcDbEntity
  8
0
100
AcDbLine
 62
7
  6
CONTINUOUS
 10
12.7708998067
 20
6.3395532998
 11
12.7721537059
 21
6.3450932134
  0
LINE
  5
27A
100
AcDbEntity
  8
0
100
AcDbLine
 62
7
  6
CONTINUOUS
 10
12.7721537059
 20
6.3450932134
 11
12.77384134
 21
6.3524349326
  0
LINE
  5
27B
100
AcDbEntity
  8
0
100
AcDbLine
 62
7
  6
CONTINUOUS
 10
12.77384134
 20
6.3524349326
 11
12.7744535856
 21
6.3550770648
  0
LINE
  5
27C
100
AcDbEntity
  8
0
100
AcDbLine
 62
7
  6
CONTINUOUS
 10
12.4589271579
 20
7.0963788578
 11
12.2370018247
 21
6.8318985447
  0
LINE
  5
27D
100
AcDbEntity
  8
0
100
AcDbLine
 62
9
  6
CONTINUOUS
 10
12.4742480467
 20
7.0835231056
 11
12.2523227136
 21
6.8190427925
  0
LINE
  5
27E
100
AcDbEntity
  8
0
100
AcDbLine
 62
9
  6
CONTINUOUS
 10
12.4716809358
 20
6.8447542969
 11
12.693606269
 21
7.10923461
  0
LINE
  5
27F
100
AcDbEntity
  8
0
100
AcDbLine
 62
7
  6
CONTINUOUS
 10
12.4870018247
 20
6.8318985447
 11
12.7089271579
 21
7.0963788578
  0
LINE
  5
280
100
AcDbEntity
  8
0
100
AcDbLine
 62
7
  6
CONTINUOUS
 10
9.1873234751
 20
4.8599900102
 11
9.1019644913
 21
4.8107079779
  0
LINE
  5
281
100
AcDbEntity
  8
0
100
AcDbLine
 62
9
  6
CONTINUOUS
 10
12.7744318411
 20
6.3550694499
 11
12.7744535856
 21
6.3550770648
  0
ARC
  5
282
100
AcDbEntity
  8
0
100
AcDbCircle
 62
7
  6
CONTINUOUS
 10
9.1973234751
 20
4.8426695021
 40
0.02
100
AcDbArc
 50
90.0
 51
119.9999999998
  0
ARC
  5
283
100
AcDbEntity
  8
0
100
AcDbCircle
 62
7
  6
CONTINUOUS
 10
9.1119644913
 20
4.7933874698
 40
0.02
100
AcDbArc
 50
119.9999999994
 51
180.0
  0
ARC
  5
284
100
AcDbEntity
  8
0
100
AcDbCircle
 62
7
  6
CONTINUOUS
 10
9.2003173092
 20
4.8826695021
 40
0.02
100
AcDbArc
 50
270.0
 51
360.0
  0
ARC
  5
285
100
AcDbEntity
  8
0
100
AcDbCircle
 62
7
  6
CONTINUOUS
 10
9.2403173092
 20
5.0611695021
 40
0.02
100
AcDbArc
 50
90.0
 51
180.0
  0
ARC
  5
286
100
AcDbEntity
  8
0
100
AcDbCircle
 62
7
  6
CONTINUOUS
 10
10.2069644913
 20
13.6291695021
 40
0.25
100
AcDbArc
 50
0.0
 51
180.0
  0
ARC
  5
287
100
AcDbEntity
  8
0
100
AcDbCircle
 62
7
  6
CONTINUOUS
 10
11.5769644913
 20
5.9251695021
 40
0.03
100
AcDbArc
 50
0.0
 51
90.0
  0
ARC
  5
288
100
AcDbEntity
  8
0
100
AcDbCircle
 62
7
  6
CONTINUOUS
 10
11.2166055074
 20
4.8426695021
 40
0.02
100
AcDbArc
 50
60.0000000002
 51
90.0
  0
ARC
  5
289
100
AcDbEntity
  8
0
100
AcDbCircle
 62
7
  6
CONTINUOUS
 10
11.3019644913
 20
4.7933874698
 40
0.02
100
AcDbArc
 50
0.0
 51
60.0000000006
  0
ARC
  5
28A
100
AcDbEntity
  8
0
100
AcDbCircle
 62
7
  6
CONTINUOUS
 10
11.9619644913
 20
5.8543662383
 40
0.02
100
AcDbArc
 50
270.0
 51
360.0
  0
ARC
  5
28B
100
AcDbEntity
  8
0
100
AcDbCircle
 62
7
  6
CONTINUOUS
 10
11.6269644913
 20
5.8543662383
 40
0.02
100
AcDbArc
 50
180.0
 51
270.0
  0
ARC
  5
28C
100
AcDbEntity
  8
0
100
AcDbCircle
 62
7
  6
CONTINUOUS
 10
11.2136116733
 20
4.8826695021
 40
0.02
100
AcDbArc
 50
180.0
 51
270.0
  0
ARC
  5
28D
100
AcDbEntity
  8
0
100
AcDbCircle
 62
7
  6
CONTINUOUS
 10
11.1736116733
 20
5.0611695021
 40
0.02
100
AcDbArc
 50
0.0
 51
90.0
  0
ARC
  5
28E
100
AcDbEntity
  8
0
100
AcDbCircle
 62
9
  6
CONTINUOUS
 10
11.6221478406
 20
5.8570680049
 40
0.0151848665
100
AcDbArc
 50
190.1191139737
 51
190.9067148775
  0
ARC
  5
28F
100
AcDbEntity
  8
0
100
AcDbCircle
 62
9
  6
CONTINUOUS
 10
11.966781142
 20
5.8570680049
 40
0.0151848665
100
AcDbArc
 50
349.0932851226
 51
349.8808855605
  0
ARC
  5
290
100
AcDbEntity
  8
0
100
AcDbCircle
 62
9
  6
CONTINUOUS
 10
11.6221330304
 20
5.8570653349
 40
0.0151698176
100
AcDbArc
 50
189.9096483063
 51
190.1190143904
  0
ARC
  5
291
100
AcDbEntity
  8
0
100
AcDbCircle
 62
9
  6
CONTINUOUS
 10
11.9667959525
 20
5.8570653348
 40
0.0151698173
100
AcDbArc
 50
349.8809851437
 51
350.0903516988
  0
ARC
  5
292
100
AcDbEntity
  8
0
100
AcDbCircle
 62
9
  6
CONTINUOUS
 10
11.6220140209
 20
5.8570475873
 40
0.0150495297
100
AcDbArc
 50
180.0070701738
 51
189.921062767
  0
ARC
  5
293
100
AcDbEntity
  8
0
100
AcDbCircle
 62
9
  6
CONTINUOUS
 10
11.9669149617
 20
5.8570475873
 40
0.0150495297
100
AcDbArc
 50
350.0789372331
 51
359.9929298262
  0
ARC
  5
294
100
AcDbEntity
  8
0
100
AcDbCircle
 62
7
  6
CONTINUOUS
 10
11.5769644913
 20
6.9551695021
 40
0.03
100
AcDbArc
 50
270.0
 51
360.0
  0
ARC
  5
295
100
AcDbEntity
  8
0
100
AcDbCircle
 62
7
  6
CONTINUOUS
 10
11.9619644913
 20
7.0259727659
 40
0.02
100
AcDbArc
 50
0.0
 51
90.0
  0
ARC
  5
296
100
AcDbEntity
  8
0
100
AcDbCircle
 62
7
  6
CONTINUOUS
 10
11.6269644913
 20
7.0259727659
 40
0.02
100
AcDbArc
 50
90.0
 51
180.0
  0
ARC
  5
297
100
AcDbEntity
  8
0
100
AcDbCircle
 62
9
  6
CONTINUOUS
 10
11.6221478405
 20
7.0232709994
 40
0.0151848665
100
AcDbArc
 50
169.0932851202
 51
169.8808860274
  0
ARC
  5
298
100
AcDbEntity
  8
0
100
AcDbCircle
 62
9
  6
CONTINUOUS
 10
11.9667811421
 20
7.0232709994
 40
0.0151848664
100
AcDbArc
 50
10.1191144365
 51
10.9067148815
  0
ARC
  5
299
100
AcDbEntity
  8
0
100
AcDbCircle
 62
9
  6
CONTINUOUS
 10
11.9667959524
 20
7.0232736694
 40
0.0151698174
100
AcDbArc
 50
9.9096483021
 51
10.1190148554
  0
ARC
  5
29A
100
AcDbEntity
  8
0
100
AcDbCircle
 62
9
  6
CONTINUOUS
 10
11.6221330296
 20
7.0232736695
 40
0.0151698168
100
AcDbArc
 50
169.8809856064
 51
170.0903517016
  0
ARC
  5
29B
100
AcDbEntity
  8
0
100
AcDbCircle
 62
9
  6
CONTINUOUS
 10
11.6220140209
 20
7.0232914169
 40
0.0150495297
100
AcDbArc
 50
170.0789372328
 51
179.9929298264
  0
ARC
  5
29C
100
AcDbEntity
  8
0
100
AcDbCircle
 62
9
  6
CONTINUOUS
 10
11.9669149617
 20
7.0232914169
 40
0.0150495297
100
AcDbArc
 50
0.0070701734
 51
9.9210627674
  0
ARC
  5
29D
100
AcDbEntity
  8
0
100
AcDbCircle
 62
9
  6
CONTINUOUS
 10
12.4078630855
 20
6.4401686934
 40
0.3763177152
100
AcDbArc
 50
356.1366038529
 51
356.3186814326
  0
ARC
  5
29E
100
AcDbEntity
  8
0
100
AcDbCircle
 62
9
  6
CONTINUOUS
 10
12.4078631281
 20
6.4401703136
 40
0.3763176724
100
AcDbArc
 50
3.681318578
 51
3.8644029931
  0
ARC
  5
29F
100
AcDbEntity
  8
0
100
AcDbCircle
 62
9
  6
CONTINUOUS
 10
12.4078736057
 20
6.4401679486
 40
0.3763071687
100
AcDbArc
 50
354.1633565073
 51
356.1366090641
  0
ARC
  5
2A0
100
AcDbEntity
  8
0
100
AcDbCircle
 62
9
  6
CONTINUOUS
 10
12.4078736302
 20
6.4401710576
 40
0.3763071441
100
AcDbArc
 50
3.8643977327
 51
5.8397574888
  0
ARC
  5
2A1
100
AcDbEntity
  8
0
100
AcDbCircle
 62
9
  6
CONTINUOUS
 10
12.4078907721
 20
6.4401726998
 40
0.3762899241
100
AcDbArc
 50
5.8397743061
 51
6.1930072923
  0
ARC
  5
2A2
100
AcDbEntity
  8
0
100
AcDbCircle
 62
9
  6
CONTINUOUS
 10
12.4078910574
 20
6.4401662745
 40
0.3762896372
100
AcDbArc
 50
353.7980134821
 51
354.163339864
  0
ARC
  5
2A3
100
AcDbEntity
  8
0
100
AcDbCircle
 62
9
  6
CONTINUOUS
 10
12.4079090022
 20
6.4401747216
 40
0.3762715822
100
AcDbArc
 50
6.1930006936
 51
8.1632239767
  0
ARC
  5
2A4
100
AcDbEntity
  8
0
100
AcDbCircle
 62
9
  6
CONTINUOUS
 10
12.4079090861
 20
6.4401642717
 40
0.3762714976
100
AcDbArc
 50
351.8396892938
 51
353.7980200938
  0
ARC
  5
2A5
100
AcDbEntity
  8
0
100
AcDbCircle
 62
9
  6
CONTINUOUS
 10
12.4079322072
 20
6.4401611232
 40
0.3762481637
100
AcDbArc
 50
351.4080433082
 51
351.8396641284
  0
ARC
  5
2A6
100
AcDbEntity
  8
0
100
AcDbCircle
 62
9
  6
CONTINUOUS
 10
12.4079323092
 20
6.4401778959
 40
0.3762480606
100
AcDbArc
 50
8.1632494592
 51
8.5916699047
  0
ARC
  5
2A7
100
AcDbEntity
  8
0
100
AcDbCircle
 62
9
  6
CONTINUOUS
 10
12.4079588553
 20
6.4401570546
 40
0.3762212068
100
AcDbArc
 50
349.5118908703
 51
351.4080496794
  0
ARC
  5
2A8
100
AcDbEntity
  8
0
100
AcDbCircle
 62
9
  6
CONTINUOUS
 10
12.407958898
 20
6.4401819566
 40
0.3762211637
100
AcDbArc
 50
8.591663354
 51
10.4929421674
  0
ARC
  5
2A9
100
AcDbEntity
  8
0
100
AcDbCircle
 62
7
  6
CONTINUOUS
 10
12.4079944925
 20
6.4401774819
 40
0.3762069003
100
AcDbArc
 50
3.6809624197
 51
13.0713349795
  0
ARC
  5
2AA
100
AcDbEntity
  8
0
100
AcDbCircle
 62
7
  6
CONTINUOUS
 10
12.4079944925
 20
6.4401615224
 40
0.3762069003
100
AcDbArc
 50
346.9286650203
 51
356.3190375803
  0
ARC
  5
2AB
100
AcDbEntity
  8
0
100
AcDbCircle
 62
9
  6
CONTINUOUS
 10
12.4079940783
 20
6.4401507025
 40
0.3761854161
100
AcDbArc
 50
348.9703977629
 51
349.5118656184
  0
ARC
  5
2AC
100
AcDbEntity
  8
0
100
AcDbCircle
 62
9
  6
CONTINUOUS
 10
12.4079941595
 20
6.440188317
 40
0.3761853335
100
AcDbArc
 50
10.4929676848
 51
11.0322534033
  0
ARC
  5
2AD
100
AcDbEntity
  8
0
100
AcDbCircle
 62
9
  6
CONTINUOUS
 10
12.4080236094
 20
6.4401448913
 40
0.3761553186
100
AcDbArc
 50
347.2481564489
 51
348.9704059983
  0
ARC
  5
2AE
100
AcDbEntity
  8
0
100
AcDbCircle
 62
9
  6
CONTINUOUS
 10
12.408023686
 20
6.440194129
 40
0.3761552404
100
AcDbArc
 50
11.0322451304
 51
12.7497778363
  0
ARC
  5
2AF
100
AcDbEntity
  8
0
100
AcDbCircle
 62
9
  6
CONTINUOUS
 10
12.4080701739
 20
6.4401344186
 40
0.376107591
100
AcDbArc
 50
346.9282003126
 51
347.2481467535
  0
ARC
  5
2B0
100
AcDbEntity
  8
0
100
AcDbCircle
 62
9
  6
CONTINUOUS
 10
12.4080703001
 20
6.4402046155
 40
0.3761074613
100
AcDbArc
 50
12.7497869002
 51
13.071799619
  0
ARC
  5
2B1
100
AcDbEntity
  8
0
100
AcDbCircle
 62
7
  6
CONTINUOUS
 10
12.4099644913
 20
6.4401695021
 40
0.375
100
AcDbArc
 50
16.2879802962
 51
28.1532155756
  0
ARC
  5
2B2
100
AcDbEntity
  8
0
100
AcDbCircle
 62
7
  6
CONTINUOUS
 10
12.4099644913
 20
6.4401695021
 40
0.375
100
AcDbArc
 50
331.8467844244
 51
343.7120197038
  0
ARC
  5
2B3
100
AcDbEntity
  8
0
100
AcDbCircle
 62
7
  6
CONTINUOUS
 10
12.4010040772
 20
6.4401695021
 40
0.3693108288
100
AcDbArc
 50
359.6100797578
 51
0.3899202497
  0
ARC
  5
2B4
100
AcDbEntity
  8
0
100
AcDbCircle
 62
9
  6
CONTINUOUS
 10
12.400761911
 20
6.4401694986
 40
0.3691516366
100
AcDbArc
 50
359.6100758247
 51
0.3899241753
  0
ARC
  5
2B5
100
AcDbEntity
  8
0
100
AcDbCircle
 62
7
  6
CONTINUOUS
 10
12.2029644913
 20
6.1076695021
 40
0.02
100
AcDbArc
 50
0.0
 51
90.0
  0
ARC
  5
2B6
100
AcDbEntity
  8
0
100
AcDbCircle
 62
7
  6
CONTINUOUS
 10
12.4529644913
 20
6.0851695021
 40
0.02
100
AcDbArc
 50
270.0
 51
360.0
  0
ARC
  5
2B7
100
AcDbEntity
  8
0
100
AcDbCircle
 62
7
  6
CONTINUOUS
 10
12.2429644913
 20
6.0851695021
 40
0.02
100
AcDbArc
 50
180.0
 51
270.0
  0
ARC
  5
2B8
100
AcDbEntity
  8
0
100
AcDbCircle
 62
9
  6
CONTINUOUS
 10
12.4129644913
 20
7.1349461143
 40
0.08
100
AcDbArc
 50
320.0
 51
360.0
  0
ARC
  5
2B9
100
AcDbEntity
  8
0
100
AcDbCircle
 62
7
  6
CONTINUOUS
 10
12.4129644913
 20
7.1349461143
 40
0.06
100
AcDbArc
 50
320.0
 51
360.0
  0
ARC
  5
2BA
100
AcDbEntity
  8
0
100
AcDbCircle
 62
7
  6
CONTINUOUS
 10
12.2829644913
 20
6.7933312881
 40
0.06
100
AcDbArc
 50
140.0
 51
180.0
  0
ARC
  5
2BB
100
AcDbEntity
  8
0
100
AcDbCircle
 62
9
  6
CONTINUOUS
 10
12.2829644913
 20
6.7933312881
 40
0.04
100
AcDbArc
 50
140.0
 51
180.0
  0
ARC
  5
2BC
100
AcDbEntity
  8
0
100
AcDbCircle
 62
7
  6
CONTINUOUS
 10
12.2029644913
 20
6.7726695021
 40
0.02
100
AcDbArc
 50
270.0
 51
360.0
  0
ARC
  5
2BD
100
AcDbEntity
  8
0
100
AcDbCircle
 62
7
  6
CONTINUOUS
 10
12.7229640919
 20
6.6076695021
 40
0.02
100
AcDbArc
 50
28.1532155756
 51
90.0
  0
ARC
  5
2BE
100
AcDbEntity
  8
0
100
AcDbCircle
 62
7
  6
CONTINUOUS
 10
12.7229640919
 20
6.2726695021
 40
0.02
100
AcDbArc
 50
270.0
 51
331.8467844244
  0
ARC
  5
2BF
100
AcDbEntity
  8
0
100
AcDbCircle
 62
7
  6
CONTINUOUS
 10
12.6929644913
 20
6.2326695021
 40
0.02
100
AcDbArc
 50
90.0
 51
180.0
  0
ARC
  5
2C0
100
AcDbEntity
  8
0
100
AcDbCircle
 62
7
  6
CONTINUOUS
 10
12.4929644913
 20
6.1451695021
 40
0.02
100
AcDbArc
 50
90.0
 51
180.0
  0
ARC
  5
2C1
100
AcDbEntity
  8
0
100
AcDbCircle
 62
7
  6
CONTINUOUS
 10
12.6529644913
 20
6.1851695021
 40
0.02
100
AcDbArc
 50
270.0
 51
360.0
  0
ARC
  5
2C2
100
AcDbEntity
  8
0
100
AcDbCircle
 62
7
  6
CONTINUOUS
 10
12.7603149061
 20
6.5425393554
 40
0.01
100
AcDbArc
 50
8.5944016605
 51
16.2879802962
  0
ARC
  5
2C3
100
AcDbEntity
  8
0
100
AcDbCircle
 62
7
  6
CONTINUOUS
 10
12.7603149061
 20
6.3377996488
 40
0.01
100
AcDbArc
 50
343.7120197038
 51
351.4056244971
  0
ARC
  5
2C4
100
AcDbEntity
  8
0
100
AcDbCircle
 62
7
  6
CONTINUOUS
 10
12.7734459142
 20
6.4166508348
 40
0.0099999997
100
AcDbArc
 50
356.3186797209
 51
85.0000017268
  0
ARC
  5
2C5
100
AcDbEntity
  8
0
100
AcDbCircle
 62
7
  6
CONTINUOUS
 10
12.7734459139
 20
6.4636881649
 40
0.0099999952
100
AcDbArc
 50
275.0000023129
 51
3.6813584243
  0
ARC
  5
2C6
100
AcDbEntity
  8
0
100
AcDbCircle
 62
9
  6
CONTINUOUS
 10
12.7734282222
 20
6.4166600745
 40
0.0099968848
100
AcDbArc
 50
356.2516027576
 51
68.1776203651
  0
ARC
  5
2C7
100
AcDbEntity
  8
0
100
AcDbCircle
 62
9
  6
CONTINUOUS
 10
12.7603108852
 20
6.5425393977
 40
0.009995401
100
AcDbArc
 50
9.2538578779
 51
16.2865344269
  0
ARC
  5
2C8
100
AcDbEntity
  8
0
100
AcDbCircle
 62
9
  6
CONTINUOUS
 10
12.7603109497
 20
6.3377995951
 40
0.0099953355
100
AcDbArc
 50
343.7134655805
 51
350.7251006656
  0
ARC
  5
2C9
100
AcDbEntity
  8
0
100
AcDbCircle
 62
9
  6
CONTINUOUS
 10
12.7734355378
 20
6.4636748769
 40
0.0099890498
100
AcDbArc
 50
275.0659434228
 51
3.7743340468
  0
ARC
  5
2CA
100
AcDbEntity
  8
0
100
AcDbCircle
 62
9
  6
CONTINUOUS
 10
12.7734496286
 20
6.4166924969
 40
0.0099581676
100
AcDbArc
 50
68.2258404262
 51
84.9988862596
  0
ARC
  5
2CB
100
AcDbEntity
  8
0
100
AcDbCircle
 62
9
  6
CONTINUOUS
 10
12.7645504692
 20
6.4627195178
 40
0.0098631201
100
AcDbArc
 50
320.1101339918
 51
320.6528111355
  0
ARC
  5
2CC
100
AcDbEntity
  8
0
100
AcDbCircle
 62
9
  6
CONTINUOUS
 10
12.7645519875
 20
6.4176207487
 40
0.0098611455
100
AcDbArc
 50
39.5315540232
 51
39.8898965044
  0
ARC
  5
2CD
100
AcDbEntity
  8
0
100
AcDbCircle
 62
9
  6
CONTINUOUS
 10
12.7645677575
 20
6.4176341107
 40
0.0098404764
100
AcDbArc
 50
39.8890879527
 51
44.4308029394
  0
ARC
  5
2CE
100
AcDbEntity
  8
0
100
AcDbCircle
 62
9
  6
CONTINUOUS
 10
12.7645677653
 20
6.4627048868
 40
0.009840466
100
AcDbArc
 50
315.5671850733
 51
320.1109129473
  0
ARC
  5
2CF
100
AcDbEntity
  8
0
100
AcDbCircle
 62
9
  6
CONTINUOUS
 10
12.5329644913
 20
6.7933312881
 40
0.08
100
AcDbArc
 50
140.0
 51
180.0
  0
ARC
  5
2D0
100
AcDbEntity
  8
0
100
AcDbCircle
 62
7
  6
CONTINUOUS
 10
12.5329644913
 20
6.7933312881
 40
0.06
100
AcDbArc
 50
140.0
 51
180.0
  0
ARC
  5
2D1
100
AcDbEntity
  8
0
100
AcDbCircle
 62
7
  6
CONTINUOUS
 10
12.6629644913
 20
7.1349461143
 40
0.06
100
AcDbArc
 50
320.0
 51
360.0
  0
ARC
  5
2D2
100
AcDbEntity
  8
0
100
AcDbCircle
 62
9
  6
CONTINUOUS
 10
12.6629644913
 20
7.1349461143
 40
0.04
100
AcDbArc
 50
320.0
 51
360.0
  0
ARC
  5
2D3
100
AcDbEntity
  8
0
100
AcDbCircle
 62
7
  6
CONTINUOUS
 10
12.6929644913
 20
6.6476695021
 40
0.02
100
AcDbArc
 50
180.0
 51
270.0
  0
ARC
  5
2D4
100
AcDbEntity
  8
0
100
AcDbCircle
 62
7
  6
CONTINUOUS
 10
12.4929644913
 20
6.7351695021
 40
0.02
100
AcDbArc
 50
180.0
 51
270.0
  0
ARC
  5
2D5
100
AcDbEntity
  8
0
100
AcDbCircle
 62
7
  6
CONTINUOUS
 10
12.6529644913
 20
6.6951695021
 40
0.02
100
AcDbArc
 50
0.0
 51
90.0
  0
ARC
  5
2D6
100
AcDbEntity
  8
0
100
AcDbCircle
 62
7
  6
CONTINUOUS
 10
12.7029644913
 20
9.5451695021
 40
0.02
100
AcDbArc
 50
0.0
 51
90.0
  0
ARC
  5
2D7
100
AcDbEntity
  8
0
100
AcDbCircle
 62
7
  6
CONTINUOUS
 10
12.4929644913
 20
9.5451695021
 40
0.02
100
AcDbArc
 50
90.0
 51
180.0
  0
SPLINE
  5
2D8
100
AcDbEntity
  8
0
100
AcDbSpline
 62
7
  6
CONTINUOUS
 70
0
 71
3
 72
43
 73
39
 74
0
 42
0.0000001
 43
0.0000001
 44
0.0000000001
 40
0.0
 40
0.0
 40
0.0
 40
0.0
 40
0.0110979315
 40
0.0431372124
 40
0.0660816675
 40
0.0930394757
 40
0.1235603608
 40
0.1572250222
 40
0.1936555392
 40
0.2325160142
 40
0.2735052855
 40
0.3163423652
 40
0.3383687845
 40
0.3607501427
 40
0.3834465647
 40
0.4064147403
 40
0.4296073946
 40
0.4529731142
 40
0.4764566886
 40
0.5000000007
 40
0.5235433126
 40
0.5470268868
 40
0.5703926065
 40
0.5935852604
 40
0.6165534362
 40
0.6392498582
 40
0.6616312163
 40
0.6836576357
 40
0.7264947152
 40
0.7674839863
 40
0.8063444609
 40
0.8427749779
 40
0.8764396392
 40
0.9069605243
 40
0.9339183325
 40
0.9568627877
 40
0.9889020685
 40
1.0
 40
1.0
 40
1.0
 40
1.0
 10
11.0119644913
 20
5.9401695021
 30
0.0
 10
11.0098703962
 20
5.9435410305
 30
0.0
 10
11.0017670331
 20
5.9566687755
 30
0.0
 10
10.9895787742
 20
5.9769177988
 30
0.0
 10
10.9748627838
 20
6.0022606599
 30
0.0
 10
10.9608026972
 20
6.0273532699
 30
0.0
 10
10.9454181174
 20
6.0560926925
 30
0.0
 10
10.9291892883
 20
6.0882131826
 30
0.0
 10
10.9126211769
 20
6.1234883826
 30
0.0
 10
10.8962510937
 20
6.161727166
 30
0.0
 10
10.8806601589
 20
6.2027554529
 30
0.0
 10
10.8689546647
 20
6.2387773837
 30
0.0
 10
10.8605809813
 20
6.2688383608
 30
0.0
 10
10.8548532478
 20
6.292147643
 30
0.0
 10
10.849822778
 20
6.3159620728
 30
0.0
 10
10.8455719845
 20
6.3402232128
 30
0.0
 10
10.842176338
 20
6.364860928
 30
0.0
 10
10.8397003691
 20
6.3897936938
 30
0.0
 10
10.8381937724
 20
6.4149297307
 30
0.0
 10
10.8376879746
 20
6.4401695028
 30
0.0
 10
10.8381937725
 20
6.4654092749
 30
0.0
 10
10.8397003692
 20
6.4905453116
 30
0.0
 10
10.8421763381
 20
6.5154780773
 30
0.0
 10
10.8455719847
 20
6.5401157924
 30
0.0
 10
10.8498227781
 20
6.5643769323
 30
0.0
 10
10.854853248
 20
6.5881913622
 30
0.0
 10
10.8605809815
 20
6.6115006444
 30
0.0
 10
10.868954665
 20
6.6415616214
 30
0.0
 10
10.8806601592
 20
6.6775835521
 30
0.0
 10
10.8962510939
 20
6.7186118387
 30
0.0
 10
10.9126211771
 20
6.7568506219
 30
0.0
 10
10.9291892884
 20
6.7921258217
 30
0.0
 10
10.9454181175
 20
6.8242463118
 30
0.0
 10
10.9608026972
 20
6.8529857344
 30
0.0
 10
10.9748627838
 20
6.8780783444
 30
0.0
 10
10.9895787742
 20
6.9034212055
 30
0.0
 10
11.0017670331
 20
6.9236702288
 30
0.0
 10
11.0098703962
 20
6.9367979738
 30
0.0
 10
11.0119644913
 20
6.9401695021
 30
0.0
  0
SPLINE
  5
2D9
100
AcDbEntity
  8
0
100
AcDbSpline
 62
9
  6
CONTINUOUS
 70
0
 71
3
 72
17
 73
13
 74
0
 42
0.0000001
 43
0.0000001
 44
0.0000000001
 40
0.0
 40
0.0
 40
0.0
 40
0.0
 40
0.1509028875
 40
0.2947350194
 40
0.4313172902
 40
0.5604814714
 40
0.6820736283
 40
0.7959501695
 40
0.8499510646
 40
0.9019710319
 40
0.9519932351
 40
1.0
 40
1.0
 40
1.0
 40
1.0
 10
11.5769644913
 20
6.8224045033
 30
0.0
 10
11.5769644918
 20
6.8257958492
 30
0.0
 10
11.5770031562
 20
6.8324196188
 30
0.0
 10
11.577105411
 20
6.8421123553
 30
0.0
 10
11.5771916822
 20
6.8513167151
 30
0.0
 10
11.5772258606
 20
6.8600216463
 30
0.0
 10
11.5771954721
 20
6.8682163258
 30
0.0
 10
11.5771243566
 20
6.8747214229
 30
0.0
 10
11.5770576345
 20
6.8796628781
 30
0.0
 10
11.5770113913
 20
6.8831694393
 30
0.0
 10
11.5769752919
 20
6.8865414056
 30
0.0
 10
11.5769644926
 20
6.8887444799
 30
0.0
 10
11.5769644913
 20
6.8898233695
 30
0.0
  0
LINE
  5
2DA
100
AcDbEntity
  8
0
100
AcDbLine
 62
9
  6
CONTINUOUS
 10
11.5772151194
 20
6.4401695021
 11
11.5769644913
 21
6.5075883683
  0
LINE
  5
2DB
100
AcDbEntity
  8
0
100
AcDbLine
 62
9
  6
CONTINUOUS
 10
11.5769644913
 20
6.372750636
 11
11.5772151194
 21
6.4401695021
  0
SPLINE
  5
2DC
100
AcDbEntity
  8
0
100
AcDbSpline
 62
9
  6
CONTINUOUS
 70
0
 71
3
 72
17
 73
13
 74
0
 42
0.0000001
 43
0.0000001
 44
0.0000000001
 40
0.0
 40
0.0
 40
0.0
 40
0.0
 40
0.0480067646
 40
0.0980289691
 40
0.1500489375
 40
0.2040498334
 40
0.3179263773
 40
0.4395185341
 40
0.5686827161
 40
0.7052649856
 40
0.849097115
 40
1.0
 40
1.0
 40
1.0
 40
1.0
 10
11.5769644913
 20
5.9905156348
 30
0.0
 10
11.5769644918
 20
5.9915945243
 30
0.0
 10
11.5769752876
 20
5.9937975987
 30
0.0
 10
11.577011381
 20
5.9971695651
 30
0.0
 10
11.5770576214
 20
6.0006761265
 30
0.0
 10
11.5771243484
 20
6.0056175817
 30
0.0
 10
11.5771954914
 20
6.0121226786
 30
0.0
 10
11.5772258676
 20
6.0203173584
 30
0.0
 10
11.5771916571
 20
6.0290222893
 30
0.0
 10
11.5771054189
 20
6.0382266493
 30
0.0
 10
11.5770031725
 20
6.0479193857
 30
0.0
 10
11.5769644936
 20
6.0545431552
 30
0.0
 10
11.5769644913
 20
6.057934501
 30
0.0
  0
SPLINE
  5
2DD
100
AcDbEntity
  8
0
100
AcDbSpline
 62
9
  6
CONTINUOUS
 70
0
 71
3
 72
32
 73
28
 74
0
 42
0.0000001
 43
0.0000001
 44
0.0000000001
 40
0.0
 40
0.0
 40
0.0
 40
0.0
 40
0.0033319553
 40
0.0067639805
 40
0.0142596253
 40
0.0184804038
 40
0.0230792406
 40
0.0335412386
 40
0.045847927
 40
0.0601024756
 40
0.0763558632
 40
0.0946260142
 40
0.1149091999
 40
0.1371859615
 40
0.161424545
 40
0.1875837922
 40
0.2156143364
 40
0.2454595461
 40
0.3103358953
 40
0.3816478582
 40
0.4587518325
 40
0.5409392848
 40
0.6274466414
 40
0.7174648444
 40
0.8101484469
 40
0.9046230701
 40
1.0
 40
1.0
 40
1.0
 40
1.0
 10
11.6069644913
 20
6.5117586075
 30
0.0
 10
11.6069644913
 20
6.5117243645
 30
0.0
 10
11.6069582418
 20
6.5116546991
 30
0.0
 10
11.6069200429
 20
6.5115125855
 30
0.0
 10
11.606843266
 20
6.511374373
 30
0.0
 10
11.6067379954
 20
6.5112437366
 30
0.0
 10
11.6065986985
 20
6.5111023267
 30
0.0
 10
11.6063762461
 20
6.5109284992
 30
0.0
 10
11.6060507192
 20
6.5107304562
 30
0.0
 10
11.6056561125
 20
6.5105348189
 30
0.0
 10
11.6051931123
 20
6.5103419482
 30
0.0
 10
11.6046625438
 20
6.5101522694
 30
0.0
 10
11.6040655471
 20
6.5099662633
 30
0.0
 10
11.6034034617
 20
6.5097844046
 30
0.0
 10
11.6026778245
 20
6.5096071535
 30
0.0
 10
11.6018903428
 20
6.5094349641
 30
0.0
 10
11.6010428874
 20
6.5092682615
 30
0.0
 10
11.5998007175
 20
6.5090477012
 30
0.0
 10
11.5981134142
 20
6.5087915867
 30
0.0
 10
11.5959380993
 20
6.5085197823
 30
0.0
 10
11.5935803008
 20
6.5082784521
 30
0.0
 10
11.5910626679
 20
6.5080700106
 30
0.0
 10
11.5884093802
 20
6.507896564
 30
0.0
 10
11.5856459534
 20
6.5077598419
 30
0.0
 10
11.5827989811
 20
6.5076612062
 30
0.0
 10
11.5798958505
 20
6.5076016298
 30
0.0
 10
11.5779446932
 20
6.5075883683
 30
0.0
 10
11.5769644913
 20
6.5075883683
 30
0.0
  0
SPLINE
  5
2DE
100
AcDbEntity
  8
0
100
AcDbSpline
 62
9
  6
CONTINUOUS
 70
0
 71
3
 72
32
 73
28
 74
0
 42
0.0000001
 43
0.0000001
 44
0.0000000001
 40
0.0
 40
0.0
 40
0.0
 40
0.0
 40
0.0033319553
 40
0.0067639804
 40
0.0142596251
 40
0.0184804036
 40
0.0230792404
 40
0.0335412383
 40
0.0458479267
 40
0.0601024752
 40
0.0763558629
 40
0.0946260138
 40
0.1149091995
 40
0.1371859611
 40
0.1614245446
 40
0.1875837919
 40
0.215614336
 40
0.2454595457
 40
0.3103358949
 40
0.3816478579
 40
0.4587518322
 40
0.5409392845
 40
0.6274466412
 40
0.7174648443
 40
0.8101484469
 40
0.9046230701
 40
1.0
 40
1.0
 40
1.0
 40
1.0
 10
11.6069644913
 20
6.3685803968
 30
0.0
 10
11.6069644913
 20
6.3686146398
 30
0.0
 10
11.6069582418
 20
6.3686843052
 30
0.0
 10
11.6069200429
 20
6.3688264188
 30
0.0
 10
11.606843266
 20
6.3689646313
 30
0.0
 10
11.6067379954
 20
6.3690952676
 30
0.0
 10
11.6065986985
 20
6.3692366776
 30
0.0
 10
11.6063762461
 20
6.369410505
 30
0.0
 10
11.6060507192
 20
6.3696085481
 30
0.0
 10
11.6056561125
 20
6.3698041853
 30
0.0
 10
11.6051931123
 20
6.3699970561
 30
0.0
 10
11.6046625438
 20
6.3701867348
 30
0.0
 10
11.6040655471
 20
6.3703727409
 30
0.0
 10
11.6034034617
 20
6.3705545996
 30
0.0
 10
11.6026778245
 20
6.3707318508
 30
0.0
 10
11.6018903428
 20
6.3709040402
 30
0.0
 10
11.6010428874
 20
6.3710707427
 30
0.0
 10
11.5998007175
 20
6.3712913031
 30
0.0
 10
11.5981134142
 20
6.3715474175
 30
0.0
 10
11.5959380993
 20
6.3718192219
 30
0.0
 10
11.5935803008
 20
6.3720605521
 30
0.0
 10
11.5910626679
 20
6.3722689936
 30
0.0
 10
11.5884093802
 20
6.3724424402
 30
0.0
 10
11.5856459534
 20
6.3725791624
 30
0.0
 10
11.5827989811
 20
6.3726777981
 30
0.0
 10
11.5798958505
 20
6.3727373745
 30
0.0
 10
11.5779446932
 20
6.372750636
 30
0.0
 10
11.5769644913
 20
6.372750636
 30
0.0
  0
SPLINE
  5
2DF
100
AcDbEntity
  8
0
100
AcDbSpline
 62
9
  6
CONTINUOUS
 70
0
 71
3
 72
21
 73
17
 74
0
 42
0.0000001
 43
0.0000001
 44
0.0000000001
 40
0.0
 40
0.0
 40
0.0
 40
0.0
 40
0.0549535336
 40
0.110225221
 40
0.1661181456
 40
0.2228999516
 40
0.2807934514
 40
0.3399674427
 40
0.4005325158
 40
0.4625402096
 40
0.5259850013
 40
0.590808356
 40
0.6569040029
 40
0.7241240721
 40
0.8610690019
 40
1.0
 40
1.0
 40
1.0
 40
1.0
 10
11.6069644913
 20
6.0342910989
 30
0.0
 10
11.6069644913
 20
6.0350650905
 30
0.0
 10
11.6068673712
 20
6.0366192741
 30
0.0
 10
11.6064322693
 20
6.0389238841
 30
0.0
 10
11.6057121835
 20
6.0411831404
 30
0.0
 10
11.6047145185
 20
6.0433745193
 30
0.0
 10
11.6034494325
 20
6.0454769647
 30
0.0
 10
11.6019295902
 20
6.0474703108
 30
0.0
 10
11.6001699911
 20
6.0493356109
 30
0.0
 10
11.5981878274
 20
6.0510552136
 30
0.0
 10
11.5960023011
 20
6.0526129012
 30
0.0
 10
11.5936345137
 20
6.0539939664
 30
0.0
 10
11.5911070556
 20
6.0551854431
 30
0.0
 10
11.5875358517
 20
6.0565139904
 30
0.0
 10
11.5828131244
 20
6.0576349963
 30
0.0
 10
11.5789212613
 20
6.057934501
 30
0.0
 10
11.5769644913
 20
6.057934501
 30
0.0
  0
SPLINE
  5
2E0
100
AcDbEntity
  8
0
100
AcDbSpline
 62
9
  6
CONTINUOUS
 70
0
 71
3
 72
25
 73
21
 74
0
 42
0.0000001
 43
0.0000001
 44
0.0000000001
 40
0.0
 40
0.0
 40
0.0
 40
0.0
 40
0.0601247428
 40
0.0902263604
 40
0.1203632259
 40
0.1807650161
 40
0.241432276
 40
0.2718982496
 40
0.3024560267
 40
0.3638527406
 40
0.4256833423
 40
0.4879712503
 40
0.5507219847
 40
0.6139233658
 40
0.6775463314
 40
0.7415463276
 40
0.8058652289
 40
0.8704336984
 40
0.93517272
 40
1.0
 40
1.0
 40
1.0
 40
1.0
 10
11.6069644913
 20
5.9627019936
 30
0.0
 10
11.6069644913
 20
5.9636120134
 30
0.0
 10
11.6068919882
 20
5.9649790748
 30
0.0
 10
11.6066515761
 20
5.9667855079
 30
0.0
 10
11.6063154913
 20
5.968581057
 30
0.0
 10
11.6057170393
 20
5.9707946275
 30
0.0
 10
11.6048890431
 20
5.9729382218
 30
0.0
 10
11.6040941108
 20
5.9746004899
 30
0.0
 10
11.6032095751
 20
5.9762294312
 30
0.0
 10
11.6019428669
 20
5.9781873837
 30
0.0
 10
11.6001851895
 20
5.9803829343
 30
0.0
 10
11.5982040519
 20
5.9824079994
 30
0.0
 10
11.5960187037
 20
5.9842430013
 30
0.0
 10
11.5936502135
 20
5.9858704133
 30
0.0
 10
11.5911214169
 20
5.9872746588
 30
0.0
 10
11.5884566517
 20
5.9884423329
 30
0.0
 10
11.5856815602
 20
5.9893622851
 30
0.0
 10
11.5828227283
 20
5.9900257229
 30
0.0
 10
11.5799079155
 20
5.9904263468
 30
0.0
 10
11.5779456865
 20
5.9905156348
 30
0.0
 10
11.5769644913
 20
5.9905156348
 30
0.0
  0
SPLINE
  5
2E1
100
AcDbEntity
  8
0
100
AcDbSpline
 62
9
  6
CONTINUOUS
 70
0
 71
3
 72
25
 73
21
 74
0
 42
0.0000001
 43
0.0000001
 44
0.0000000001
 40
0.0
 40
0.0
 40
0.0
 40
0.0
 40
0.060124744
 40
0.0902263621
 40
0.1203632281
 40
0.1807650191
 40
0.2414322796
 40
0.2718982534
 40
0.3024560307
 40
0.3638527448
 40
0.4256833464
 40
0.4879712542
 40
0.5507219883
 40
0.6139233689
 40
0.677546334
 40
0.7415463296
 40
0.8058652303
 40
0.8704336993
 40
0.9351727203
 40
1.0
 40
1.0
 40
1.0
 40
1.0
 10
11.6069644913
 20
6.9176370107
 30
0.0
 10
11.6069644913
 20
6.9167269909
 30
0.0
 10
11.6068919882
 20
6.9153599294
 30
0.0
 10
11.6066515761
 20
6.9135534963
 30
0.0
 10
11.6063154913
 20
6.9117579472
 30
0.0
 10
11.6057170393
 20
6.9095443766
 30
0.0
 10
11.6048890431
 20
6.9074007822
 30
0.0
 10
11.6040941108
 20
6.9057385141
 30
0.0
 10
11.6032095751
 20
6.9041095728
 30
0.0
 10
11.601942867
 20
6.9021516204
 30
0.0
 10
11.6001851895
 20
6.8999560697
 30
0.0
 10
11.5982040519
 20
6.8979310046
 30
0.0
 10
11.5960187037
 20
6.8960960027
 30
0.0
 10
11.5936502135
 20
6.8944685907
 30
0.0
 10
11.5911214169
 20
6.8930643453
 30
0.0
 10
11.5884566517
 20
6.8918966711
 30
0.0
 10
11.5856815602
 20
6.890976719
 30
0.0
 10
11.5828227283
 20
6.8903132813
 30
0.0
 10
11.5799079155
 20
6.8899126574
 30
0.0
 10
11.5779456865
 20
6.8898233695
 30
0.0
 10
11.5769644913
 20
6.8898233695
 30
0.0
  0
SPLINE
  5
2E2
100
AcDbEntity
  8
0
100
AcDbSpline
 62
9
  6
CONTINUOUS
 70
0
 71
3
 72
21
 73
17
 74
0
 42
0.0000001
 43
0.0000001
 44
0.0000000001
 40
0.0
 40
0.0
 40
0.0
 40
0.0
 40
0.0549535355
 40
0.1102252244
 40
0.1661181504
 40
0.2228999572
 40
0.2807934577
 40
0.3399674492
 40
0.4005325221
 40
0.4625402156
 40
0.5259850067
 40
0.5908083607
 40
0.6569040068
 40
0.7241240752
 40
0.8610690032
 40
1.0
 40
1.0
 40
1.0
 40
1.0
 10
11.6069644913
 20
6.8460479054
 30
0.0
 10
11.6069644913
 20
6.8452739138
 30
0.0
 10
11.6068673712
 20
6.8437197301
 30
0.0
 10
11.6064322693
 20
6.84141512
 30
0.0
 10
11.6057121835
 20
6.8391558637
 30
0.0
 10
11.6047145185
 20
6.8369644847
 30
0.0
 10
11.6034494325
 20
6.8348620392
 30
0.0
 10
11.6019295902
 20
6.8328686931
 30
0.0
 10
11.6001699911
 20
6.831003393
 30
0.0
 10
11.5981878274
 20
6.8292837902
 30
0.0
 10
11.5960023011
 20
6.8277261027
 30
0.0
 10
11.5936345137
 20
6.8263450375
 30
0.0
 10
11.5911070556
 20
6.8251535608
 30
0.0
 10
11.5875358517
 20
6.8238250136
 30
0.0
 10
11.5828131244
 20
6.8227040078
 30
0.0
 10
11.5789212613
 20
6.8224045032
 30
0.0
 10
11.5769644913
 20
6.8224045033
 30
0.0
  0
SPLINE
  5
2E3
100
AcDbEntity
  8
0
100
AcDbSpline
 62
9
  6
CONTINUOUS
 70
0
 71
3
 72
23
 73
19
 74
0
 42
0.0000001
 43
0.0000001
 44
0.0000000001
 40
0.0
 40
0.0
 40
0.0
 40
0.0
 40
0.0579599145
 40
0.1161075849
 40
0.1746118651
 40
0.2336360265
 40
0.2933130106
 40
0.3537493579
 40
0.4150182356
 40
0.4771587723
 40
0.5401756215
 40
0.6040402367
 40
0.6686933069
 40
0.7340476091
 40
0.7999931656
 40
0.8663974041
 40
0.9331206356
 40
1.0
 40
1.0
 40
1.0
 40
1.0
 10
11.1682526895
 20
5.0811695021
 30
0.0
 10
11.1688194882
 20
5.0811695021
 30
0.0
 10
11.1699559666
 20
5.081104943
 30
0.0
 10
11.171642326
 20
5.0808156244
 30
0.0
 10
11.1732958921
 20
5.0803365797
 30
0.0
 10
11.1749003157
 20
5.0796726741
 30
0.0
 10
11.1764401782
 20
5.0788304185
 30
0.0
 10
11.1779006351
 20
5.0778181402
 30
0.0
 10
11.1792676869
 20
5.0766457309
 30
0.0
 10
11.1805282685
 20
5.0753246091
 30
0.0
 10
11.181670362
 20
5.073867576
 30
0.0
 10
11.1826831049
 20
5.0722887056
 30
0.0
 10
11.1835568701
 20
5.0706032057
 30
0.0
 10
11.1842833759
 20
5.0688272728
 30
0.0
 10
11.1848556946
 20
5.0669779738
 30
0.0
 10
11.1852684537
 20
5.0650729686
 30
0.0
 10
11.1855176521
 20
5.0631307282
 30
0.0
 10
11.1855731975
 20
5.0618235255
 30
0.0
 10
11.1855731975
 20
5.0611695021
 30
0.0
  0
SPLINE
  5
2E4
100
AcDbEntity
  8
0
100
AcDbSpline
 62
9
  6
CONTINUOUS
 70
0
 71
3
 72
23
 73
19
 74
0
 42
0.0000001
 43
0.0000001
 44
0.0000000001
 40
0.0
 40
0.0
 40
0.0
 40
0.0
 40
0.0579599145
 40
0.1161075849
 40
0.1746118651
 40
0.2336360265
 40
0.2933130106
 40
0.3537493579
 40
0.4150182356
 40
0.4771587723
 40
0.5401756215
 40
0.6040402366
 40
0.6686933068
 40
0.7340476091
 40
0.7999931656
 40
0.866397404
 40
0.9331206356
 40
1.0
 40
1.0
 40
1.0
 40
1.0
 10
10.7049290985
 20
5.0811695021
 30
0.0
 10
10.7054958972
 20
5.0811695021
 30
0.0
 10
10.7066323755
 20
5.081104943
 30
0.0
 10
10.7083187349
 20
5.0808156244
 30
0.0
 10
10.709972301
 20
5.0803365797
 30
0.0
 10
10.7115767247
 20
5.0796726741
 30
0.0
 10
10.7131165872
 20
5.0788304185
 30
0.0
 10
10.7145770441
 20
5.0778181402
 30
0.0
 10
10.7159440959
 20
5.0766457309
 30
0.0
 10
10.7172046775
 20
5.0753246091
 30
0.0
 10
10.718346771
 20
5.073867576
 30
0.0
 10
10.7193595139
 20
5.0722887056
 30
0.0
 10
10.7202332791
 20
5.0706032057
 30
0.0
 10
10.7209597849
 20
5.0688272728
 30
0.0
 10
10.7215321036
 20
5.0669779738
 30
0.0
 10
10.7219448627
 20
5.0650729685
 30
0.0
 10
10.7221940611
 20
5.0631307282
 30
0.0
 10
10.7222496065
 20
5.0618235255
 30
0.0
 10
10.7222496065
 20
5.0611695021
 30
0.0
  0
SPLINE
  5
2E5
100
AcDbEntity
  8
0
100
AcDbSpline
 62
9
  6
CONTINUOUS
 70
0
 71
3
 72
23
 73
19
 74
0
 42
0.0000001
 43
0.0000001
 44
0.0000000001
 40
0.0
 40
0.0
 40
0.0
 40
0.0
 40
0.0579599145
 40
0.1161075849
 40
0.174611865
 40
0.2336360264
 40
0.2933130105
 40
0.3537493578
 40
0.4150182356
 40
0.4771587722
 40
0.5401756215
 40
0.6040402366
 40
0.6686933068
 40
0.734047609
 40
0.7999931656
 40
0.866397404
 40
0.9331206355
 40
1.0
 40
1.0
 40
1.0
 40
1.0
 10
9.7089998841
 20
5.0811695021
 30
0.0
 10
9.7084330854
 20
5.0811695021
 30
0.0
 10
9.707296607
 20
5.081104943
 30
0.0
 10
9.7056102476
 20
5.0808156244
 30
0.0
 10
9.7039566815
 20
5.0803365797
 30
0.0
 10
9.7023522579
 20
5.0796726741
 30
0.0
 10
9.7008123954
 20
5.0788304185
 30
0.0
 10
9.6993519385
 20
5.0778181402
 30
0.0
 10
9.6979848867
 20
5.0766457309
 30
0.0
 10
9.6967243051
 20
5.0753246091
 30
0.0
 10
9.6955822116
 20
5.073867576
 30
0.0
 10
9.6945694687
 20
5.0722887056
 30
0.0
 10
9.6936957035
 20
5.0706032057
 30
0.0
 10
9.6929691977
 20
5.0688272728
 30
0.0
 10
9.692396879
 20
5.0669779738
 30
0.0
 10
9.6919841199
 20
5.0650729685
 30
0.0
 10
9.6917349215
 20
5.0631307282
 30
0.0
 10
9.691679376
 20
5.0618235255
 30
0.0
 10
9.691679376
 20
5.0611695021
 30
0.0
  0
SPLINE
  5
2E6
100
AcDbEntity
  8
0
100
AcDbSpline
 62
9
  6
CONTINUOUS
 70
0
 71
3
 72
23
 73
19
 74
0
 42
0.0000001
 43
0.0000001
 44
0.0000000001
 40
0.0
 40
0.0
 40
0.0
 40
0.0
 40
0.0579599145
 40
0.1161075849
 40
0.1746118651
 40
0.2336360265
 40
0.2933130106
 40
0.3537493579
 40
0.4150182356
 40
0.4771587723
 40
0.5401756215
 40
0.6040402366
 40
0.6686933068
 40
0.7340476091
 40
0.7999931656
 40
0.866397404
 40
0.9331206356
 40
1.0
 40
1.0
 40
1.0
 40
1.0
 10
9.2110352769
 20
4.8626695021
 30
0.0
 10
9.2116020757
 20
4.8626695021
 30
0.0
 10
9.212738554
 20
4.8627340613
 30
0.0
 10
9.2144249134
 20
4.8630233799
 30
0.0
 10
9.2160784795
 20
4.8635024246
 30
0.0
 10
9.2176829031
 20
4.8641663302
 30
0.0
 10
9.2192227657
 20
4.8650085858
 30
0.0
 10
9.2206832226
 20
4.8660208641
 30
0.0
 10
9.2220502744
 20
4.8671932734
 30
0.0
 10
9.223310856
 20
4.8685143952
 30
0.0
 10
9.2244529494
 20
4.8699714283
 30
0.0
 10
9.2254656924
 20
4.8715502987
 30
0.0
 10
9.2263394576
 20
4.8732357986
 30
0.0
 10
9.2270659634
 20
4.8750117314
 30
0.0
 10
9.2276382821
 20
4.8768610305
 30
0.0
 10
9.2280510412
 20
4.8787660357
 30
0.0
 10
9.2283002396
 20
4.8807082761
 30
0.0
 10
9.228355785
 20
4.8820154788
 30
0.0
 10
9.228355785
 20
4.8826695021
 30
0.0
  0
SPLINE
  5
2E7
100
AcDbEntity
  8
0
100
AcDbSpline
 62
9
  6
CONTINUOUS
 70
0
 71
3
 72
15
 73
11
 74
0
 42
0.0000001
 43
0.0000001
 44
0.0000000001
 40
0.0
 40
0.0
 40
0.0
 40
0.0
 40
0.1255968291
 40
0.251121035
 40
0.3765157979
 40
0.5017297558
 40
0.6267174756
 40
0.7514418207
 40
0.8758750536
 40
1.0
 40
1.0
 40
1.0
 40
1.0
 10
12.7744318411
 20
6.4167914767
 30
0.0
 10
12.7744526916
 20
6.4171105678
 30
0.0
 10
12.7744645625
 20
6.4177509182
 30
0.0
 10
12.7743926238
 20
6.4187081671
 30
0.0
 10
12.7742316211
 20
6.4196536194
 30
0.0
 10
12.7739830219
 20
6.420578473
 30
0.0
 10
12.773649111
 20
6.4214742448
 30
0.0
 10
12.7732329308
 20
6.4223327088
 30
0.0
 10
12.7727383741
 20
6.4231458778
 30
0.0
 10
12.7723587848
 20
6.423653657
 30
0.0
 10
12.7721576343
 20
6.4238973982
 30
0.0
  0
SPLINE
  5
2E8
100
AcDbEntity
  8
0
100
AcDbSpline
 62
9
  6
CONTINUOUS
 70
0
 71
3
 72
15
 73
11
 74
0
 42
0.0000001
 43
0.0000001
 44
0.0000000001
 40
0.0
 40
0.0
 40
0.0
 40
0.0
 40
0.1255925371
 40
0.2511131454
 40
0.3765051759
 40
0.5017178349
 40
0.6267058784
 40
0.7514323469
 40
0.8758694951
 40
1.0
 40
1.0
 40
1.0
 40
1.0
 10
12.7744318411
 20
6.4635475276
 30
0.0
 10
12.7744526043
 20
6.463229772
 30
0.0
 10
12.77446455
 20
6.4625921115
 30
0.0
 10
12.7743934734
 20
6.4616388326
 30
0.0
 10
12.7742340683
 20
6.4606971792
 30
0.0
 10
12.7739877764
 20
6.4597758452
 30
0.0
 10
12.7736568418
 20
6.4588832107
 30
0.0
 10
12.773244255
 20
6.4580274043
 30
0.0
 10
12.7727538432
 20
6.457216322
 30
0.0
 10
12.7723773427
 20
6.4567095056
 30
0.0
 10
12.7721778004
 20
6.4564661222
 30
0.0
  0
LINE
  5
2E9
100
AcDbEntity
  8
0
100
AcDbLine
 62
9
  6
CONTINUOUS
 10
12.7699049991
 20
6.3349957432
 11
12.7702382923
 21
6.3366676013
  0
LINE
  5
2EA
100
AcDbEntity
  8
0
100
AcDbLine
 62
9
  6
CONTINUOUS
 10
12.7702382923
 20
6.3366676013
 11
12.7744318411
 21
6.3550694499
  0
SPLINE
  5
2EB
100
AcDbEntity
  8
0
100
AcDbSpline
 62
9
  6
CONTINUOUS
 70
0
 71
3
 72
23
 73
19
 74
0
 42
0.0000001
 43
0.0000001
 44
0.0000000001
 40
0.0
 40
0.0
 40
0.0
 40
0.0
 40
0.0579599145
 40
0.1161075849
 40
0.1746118651
 40
0.2336360265
 40
0.2933130106
 40
0.3537493579
 40
0.4150182356
 40
0.4771587723
 40
0.5401756215
 40
0.6040402366
 40
0.6686933068
 40
0.7340476091
 40
0.7999931656
 40
0.866397404
 40
0.9331206356
 40
1.0
 40
1.0
 40
1.0
 40
1.0
 10
11.2028937056
 20
4.8626695021
 30
0.0
 10
11.2023269069
 20
4.8626695021
 30
0.0
 10
11.2011904286
 20
4.8627340613
 30
0.0
 10
11.1995040692
 20
4.8630233799
 30
0.0
 10
11.1978505031
 20
4.8635024246
 30
0.0
 10
11.1962460794
 20
4.8641663302
 30
0.0
 10
11.1947062169
 20
4.8650085858
 30
0.0
 10
11.19324576
 20
4.8660208641
 30
0.0
 10
11.1918787082
 20
4.8671932734
 30
0.0
 10
11.1906181266
 20
4.8685143952
 30
0.0
 10
11.1894760332
 20
4.8699714283
 30
0.0
 10
11.1884632902
 20
4.8715502987
 30
0.0
 10
11.187589525
 20
4.8732357986
 30
0.0
 10
11.1868630192
 20
4.8750117314
 30
0.0
 10
11.1862907005
 20
4.8768610305
 30
0.0
 10
11.1858779414
 20
4.8787660357
 30
0.0
 10
11.185628743
 20
4.8807082761
 30
0.0
 10
11.1855731976
 20
4.8820154788
 30
0.0
 10
11.1855731976
 20
4.8826695021
 30
0.0
  0
SPLINE
  5
2EC
100
AcDbEntity
  8
0
100
AcDbSpline
 62
9
  6
CONTINUOUS
 70
0
 71
3
 72
28
 73
24
 74
0
 42
0.0000001
 43
0.0000001
 44
0.0000000001
 40
0.0
 40
0.0
 40
0.0
 40
0.0
 40
0.0105811975
 40
0.0217582029
 40
0.0338849256
 40
0.0472338586
 40
0.0619985376
 40
0.078309672
 40
0.0962515377
 40
0.1158745258
 40
0.1372027544
 40
0.1602411009
 40
0.184979725
 40
0.2113964448
 40
0.2691236817
 40
0.3330810494
 40
0.4028159429
 40
0.4777933261
 40
0.5574075919
 40
0.6409917959
 40
0.7278265845
 40
0.8171478011
 40
1.0
 40
1.0
 40
1.0
 40
1.0
 10
12.7744318411
 20
6.4167914767
 30
0.0
 10
12.7743543852
 20
6.4167982559
 30
0.0
 10
12.7741962286
 20
6.416829737
 30
0.0
 10
12.7739653165
 20
6.416926457
 30
0.0
 10
12.7737374271
 20
6.4170720943
 30
0.0
 10
12.7735128253
 20
6.4172656479
 30
0.0
 10
12.7732915141
 20
6.4175064213
 30
0.0
 10
12.7730736966
 20
6.417793834
 30
0.0
 10
12.772859671
 20
6.4181272713
 30
0.0
 10
12.7726498352
 20
6.4185060355
 30
0.0
 10
12.7724446077
 20
6.4189293053
 30
0.0
 10
12.7722444381
 20
6.4193961503
 30
0.0
 10
12.7720497713
 20
6.4199055327
 30
0.0
 10
12.7717904458
 20
6.4206625642
 30
0.0
 10
12.7714866137
 20
6.4217082099
 30
0.0
 10
12.7711603964
 20
6.4230768659
 30
0.0
 10
12.770865858
 20
6.424582019
 30
0.0
 10
12.7706059297
 20
6.4262100677
 30
0.0
 10
12.7703832772
 20
6.4279462438
 30
0.0
 10
12.7702002165
 20
6.4297745896
 30
0.0
 10
12.7700587093
 20
6.4316781497
 30
0.0
 10
12.7699266091
 20
6.4343130468
 30
0.0
 10
12.7698958566
 20
6.4363136887
 30
0.0
 10
12.7699049991
 20
6.4376572781
 30
0.0
  0
SPLINE
  5
2ED
100
AcDbEntity
  8
0
100
AcDbSpline
 62
9
  6
CONTINUOUS
 70
0
 71
3
 72
23
 73
19
 74
0
 42
0.0000001
 43
0.0000001
 44
0.0000000001
 40
0.0
 40
0.0
 40
0.0
 40
0.0
 40
0.0579599145
 40
0.1161075849
 40
0.1746118651
 40
0.2336360265
 40
0.2933130106
 40
0.3537493579
 40
0.4150182356
 40
0.4771587723
 40
0.5401756215
 40
0.6040402366
 40
0.6686933068
 40
0.7340476091
 40
0.7999931656
 40
0.866397404
 40
0.9331206356
 40
1.0
 40
1.0
 40
1.0
 40
1.0
 10
10.7395701146
 20
4.8626695021
 30
0.0
 10
10.7390033159
 20
4.8626695021
 30
0.0
 10
10.7378668376
 20
4.8627340613
 30
0.0
 10
10.7361804781
 20
4.8630233799
 30
0.0
 10
10.734526912
 20
4.8635024246
 30
0.0
 10
10.7329224884
 20
4.8641663302
 30
0.0
 10
10.7313826259
 20
4.8650085858
 30
0.0
 10
10.729922169
 20
4.8660208641
 30
0.0
 10
10.7285551172
 20
4.8671932734
 30
0.0
 10
10.7272945356
 20
4.8685143952
 30
0.0
 10
10.7261524421
 20
4.8699714283
 30
0.0
 10
10.7251396992
 20
4.8715502987
 30
0.0
 10
10.724265934
 20
4.8732357986
 30
0.0
 10
10.7235394282
 20
4.8750117314
 30
0.0
 10
10.7229671095
 20
4.8768610305
 30
0.0
 10
10.7225543504
 20
4.8787660357
 30
0.0
 10
10.722305152
 20
4.8807082761
 30
0.0
 10
10.7222496065
 20
4.8820154788
 30
0.0
 10
10.7222496065
 20
4.8826695021
 30
0.0
  0
LINE
  5
2EE
100
AcDbEntity
  8
0
100
AcDbLine
 62
9
  6
CONTINUOUS
 10
11.6069644913
 20
6.3685803968
 11
11.6070647425
 21
6.4401695021
  0
LINE
  5
2EF
100
AcDbEntity
  8
0
100
AcDbLine
 62
9
  6
CONTINUOUS
 10
12.7744318411
 20
6.5252695544
 11
12.7702382813
 21
6.5436714538
  0
LINE
  5
2F0
100
AcDbEntity
  8
0
100
AcDbLine
 62
9
  6
CONTINUOUS
 10
12.7702382813
 20
6.5436714538
 11
12.7699049991
 21
6.5453432611
  0
SPLINE
  5
2F1
100
AcDbEntity
  8
0
100
AcDbSpline
 62
9
  6
CONTINUOUS
 70
0
 71
3
 72
28
 73
24
 74
0
 42
0.0000001
 43
0.0000001
 44
0.0000000001
 40
0.0
 40
0.0
 40
0.0
 40
0.0
 40
0.182852198
 40
0.2721734199
 40
0.3590082115
 40
0.4425924099
 40
0.5222066747
 40
0.5971840684
 40
0.6669189559
 40
0.7308763187
 40
0.788603568
 40
0.8150202879
 40
0.8397589088
 40
0.8627972531
 40
0.8841254764
 40
0.9037484609
 40
0.9216903369
 40
0.938001484
 40
0.9527661624
 40
0.9661150813
 40
0.9782417909
 40
0.9894187991
 40
1.0
 40
1.0
 40
1.0
 40
1.0
 10
12.7699049991
 20
6.4426817262
 30
0.0
 10
12.7698958566
 20
6.4440253155
 30
0.0
 10
12.7699266093
 20
6.4460259575
 30
0.0
 10
12.7700587093
 20
6.4486608546
 30
0.0
 10
12.7702002164
 20
6.4505644147
 30
0.0
 10
12.7703832772
 20
6.4523927605
 30
0.0
 10
12.7706059299
 20
6.4541289366
 30
0.0
 10
12.7708658578
 20
6.4557569853
 30
0.0
 10
12.7711603964
 20
6.4572621384
 30
0.0
 10
12.7714866138
 20
6.4586307943
 30
0.0
 10
12.7717904457
 20
6.4596764401
 30
0.0
 10
12.7720497712
 20
6.4604334718
 30
0.0
 10
12.7722444381
 20
6.4609428541
 30
0.0
 10
12.7724446077
 20
6.461409699
 30
0.0
 10
12.7726498352
 20
6.4618329687
 30
0.0
 10
12.7728596712
 20
6.4622117328
 30
0.0
 10
12.7730736967
 20
6.4625451703
 30
0.0
 10
12.773291514
 20
6.4628325834
 30
0.0
 10
12.7735128251
 20
6.4630733568
 30
0.0
 10
12.773737427
 20
6.4632669099
 30
0.0
 10
12.7739653168
 20
6.4634125464
 30
0.0
 10
12.7741962287
 20
6.4635092667
 30
0.0
 10
12.7743543852
 20
6.4635407483
 30
0.0
 10
12.7744318411
 20
6.4635475276
 30
0.0
  0
LINE
  5
2F2
100
AcDbEntity
  8
0
100
AcDbLine
 62
9
  6
CONTINUOUS
 10
11.6070647425
 20
6.4401695021
 11
11.6069644913
 21
6.5117586075
  0
SPLINE
  5
2F3
100
AcDbEntity
  8
0
100
AcDbSpline
 62
9
  6
CONTINUOUS
 70
0
 71
3
 72
23
 73
19
 74
0
 42
0.0000001
 43
0.0000001
 44
0.0000000001
 40
0.0
 40
0.0
 40
0.0
 40
0.0
 40
0.0579617468
 40
0.11610664
 40
0.1746121792
 40
0.2336359173
 40
0.2933130414
 40
0.3537493772
 40
0.4150182743
 40
0.4771588004
 40
0.5401756184
 40
0.6040402157
 40
0.6686932434
 40
0.7340477159
 40
0.799992779
 40
0.8663985076
 40
0.9331185176
 40
1.0
 40
1.0
 40
1.0
 40
1.0
 10
11.6069644913
 20
6.1399473622
 30
0.0
 10
11.6069644913
 20
6.1393805454
 30
0.0
 10
11.6070290367
 20
6.1382440744
 30
0.0
 10
11.6073183855
 20
6.1365577175
 30
0.0
 10
11.6077973963
 20
6.1349041614
 30
0.0
 10
11.6084613189
 20
6.1332997333
 30
0.0
 10
11.6093035657
 20
6.1317598696
 30
0.0
 10
11.6103158506
 20
6.1302994144
 30
0.0
 10
11.6114882627
 20
6.128932365
 30
0.0
 10
11.6128093866
 20
6.1276717855
 30
0.0
 10
11.6142664175
 20
6.1265296899
 30
0.0
 10
11.6158452853
 20
6.1255169443
 30
0.0
 10
11.6175307842
 20
6.1246431732
 30
0.0
 10
11.6193067165
 20
6.1239166756
 30
0.0
 10
11.6211560237
 20
6.1233443415
 30
0.0
 10
11.6230610133
 20
6.1229316126
 30
0.0
 10
11.6250032538
 20
6.1226823874
 30
0.0
 10
11.6263104471
 20
6.1226268541
 30
0.0
 10
11.6269644913
 20
6.1226268541
 30
0.0
  0
LINE
  5
2F4
100
AcDbEntity
  8
0
100
AcDbLine
 62
9
  6
CONTINUOUS
 10
11.6069644913
 20
5.9627019936
 11
11.6069644913
 21
6.0342910989
  0
SPLINE
  5
2F5
100
AcDbEntity
  8
0
100
AcDbSpline
 62
9
  6
CONTINUOUS
 70
0
 71
3
 72
19
 73
15
 74
0
 42
0.0000001
 43
0.0000001
 44
0.0000000001
 40
0.0
 40
0.0
 40
0.0
 40
0.0
 40
0.0578887954
 40
0.1161808418
 40
0.1749929626
 40
0.2344230289
 40
0.2945472528
 40
0.3554182372
 40
0.4170641241
 40
0.4794886013
 40
0.6064618122
 40
0.7360390702
 40
0.8675187084
 40
1.0
 40
1.0
 40
1.0
 40
1.0
 10
11.6072372652
 20
5.8541948683
 30
0.0
 10
11.6073338788
 20
5.8536934731
 30
0.0
 10
11.6075787158
 20
5.8526962705
 30
0.0
 10
11.6080946005
 20
5.851238948
 30
0.0
 10
11.6087561669
 20
5.8498265875
 30
0.0
 10
11.60955817
 20
5.8484703001
 30
0.0
 10
11.6104943411
 20
5.8471804701
 30
0.0
 10
11.6115573416
 20
5.8459670331
 30
0.0
 10
11.61273902
 20
5.8448392214
 30
0.0
 10
11.6144695029
 20
5.8434538719
 30
0.0
 10
11.6168845138
 20
5.8419828322
 30
0.0
 10
11.6200698908
 20
5.8406923107
 30
0.0
 10
11.6234636939
 20
5.8399022642
 30
0.0
 10
11.6257959161
 20
5.8397252222
 30
0.0
 10
11.6269644913
 20
5.8397252222
 30
0.0
  0
SPLINE
  5
2F6
100
AcDbEntity
  8
0
100
AcDbSpline
 62
9
  6
CONTINUOUS
 70
0
 71
3
 72
23
 73
19
 74
0
 42
0.0000001
 43
0.0000001
 44
0.0000000001
 40
0.0
 40
0.0
 40
0.0
 40
0.0
 40
0.0579599145
 40
0.1161075849
 40
0.1746118651
 40
0.2336360265
 40
0.2933130106
 40
0.3537493579
 40
0.4150182356
 40
0.4771587723
 40
0.5401756215
 40
0.6040402366
 40
0.6686933068
 40
0.7340476091
 40
0.7999931656
 40
0.866397404
 40
0.9331206356
 40
1.0
 40
1.0
 40
1.0
 40
1.0
 10
9.674358868
 20
4.8626695021
 30
0.0
 10
9.6749256667
 20
4.8626695021
 30
0.0
 10
9.676062145
 20
4.8627340613
 30
0.0
 10
9.6777485044
 20
4.8630233799
 30
0.0
 10
9.6794020705
 20
4.8635024246
 30
0.0
 10
9.6810064942
 20
4.8641663302
 30
0.0
 10
9.6825463567
 20
4.8650085858
 30
0.0
 10
9.6840068136
 20
4.8660208641
 30
0.0
 10
9.6853738654
 20
4.8671932734
 30
0.0
 10
9.686634447
 20
4.8685143952
 30
0.0
 10
9.6877765405
 20
4.8699714283
 30
0.0
 10
9.6887892834
 20
4.8715502987
 30
0.0
 10
9.6896630486
 20
4.8732357986
 30
0.0
 10
9.6903895544
 20
4.8750117314
 30
0.0
 10
9.6909618731
 20
4.8768610305
 30
0.0
 10
9.6913746322
 20
4.8787660357
 30
0.0
 10
9.6916238306
 20
4.8807082761
 30
0.0
 10
9.691679376
 20
4.8820154788
 30
0.0
 10
9.691679376
 20
4.8826695021
 30
0.0
  0
SPLINE
  5
2F7
100
AcDbEntity
  8
0
100
AcDbSpline
 62
9
  6
CONTINUOUS
 70
0
 71
3
 72
19
 73
15
 74
0
 42
0.0000001
 43
0.0000001
 44
0.0000000001
 40
0.0
 40
0.0
 40
0.0
 40
0.0
 40
0.0578887954
 40
0.1161808418
 40
0.1749929626
 40
0.2344230289
 40
0.2945472528
 40
0.3554182372
 40
0.4170641241
 40
0.4794886013
 40
0.6064618123
 40
0.7360390702
 40
0.8675187084
 40
1.0
 40
1.0
 40
1.0
 40
1.0
 10
11.6072372652
 20
7.026144136
 30
0.0
 10
11.6073338788
 20
7.0266455312
 30
0.0
 10
11.6075787158
 20
7.0276427338
 30
0.0
 10
11.6080946005
 20
7.0291000563
 30
0.0
 10
11.6087561669
 20
7.0305124168
 30
0.0
 10
11.60955817
 20
7.0318687042
 30
0.0
 10
11.6104943411
 20
7.0331585342
 30
0.0
 10
11.6115573416
 20
7.0343719712
 30
0.0
 10
11.61273902
 20
7.0354997829
 30
0.0
 10
11.6144695029
 20
7.0368851324
 30
0.0
 10
11.6168845138
 20
7.0383561721
 30
0.0
 10
11.6200698908
 20
7.0396466935
 30
0.0
 10
11.6234636939
 20
7.0404367401
 30
0.0
 10
11.6257959161
 20
7.0406137821
 30
0.0
 10
11.6269644913
 20
7.0406137821
 30
0.0
  0
LINE
  5
2F8
100
AcDbEntity
  8
0
100
AcDbLine
 62
9
  6
CONTINUOUS
 10
11.6069644913
 20
6.8460479054
 11
11.6069644913
 21
6.9176370107
  0
SPLINE
  5
2F9
100
AcDbEntity
  8
0
100
AcDbSpline
 62
9
  6
CONTINUOUS
 70
0
 71
3
 72
23
 73
19
 74
0
 42
0.0000001
 43
0.0000001
 44
0.0000000001
 40
0.0
 40
0.0
 40
0.0
 40
0.0
 40
0.0579617468
 40
0.11610664
 40
0.1746121792
 40
0.2336359173
 40
0.2933130414
 40
0.3537493772
 40
0.4150182743
 40
0.4771588004
 40
0.5401756185
 40
0.6040402157
 40
0.6686932434
 40
0.7340477159
 40
0.799992779
 40
0.8663985076
 40
0.9331185176
 40
1.0
 40
1.0
 40
1.0
 40
1.0
 10
11.6069644913
 20
6.7403916421
 30
0.0
 10
11.6069644913
 20
6.7409584589
 30
0.0
 10
11.6070290367
 20
6.7420949299
 30
0.0
 10
11.6073183855
 20
6.7437812868
 30
0.0
 10
11.6077973963
 20
6.7454348428
 30
0.0
 10
11.6084613189
 20
6.747039271
 30
0.0
 10
11.6093035657
 20
6.7485791347
 30
0.0
 10
11.6103158506
 20
6.7500395899
 30
0.0
 10
11.6114882627
 20
6.7514066393
 30
0.0
 10
11.6128093866
 20
6.7526672188
 30
0.0
 10
11.6142664175
 20
6.7538093143
 30
0.0
 10
11.6158452853
 20
6.75482206
 30
0.0
 10
11.6175307842
 20
6.7556958311
 30
0.0
 10
11.6193067165
 20
6.7564223287
 30
0.0
 10
11.6211560237
 20
6.7569946628
 30
0.0
 10
11.6230610133
 20
6.7574073917
 30
0.0
 10
11.6250032538
 20
6.7576566169
 30
0.0
 10
11.6263104471
 20
6.7577121502
 30
0.0
 10
11.6269644913
 20
6.7577121502
 30
0.0
  0
SPLINE
  5
2FA
100
AcDbEntity
  8
0
100
AcDbSpline
 62
9
  6
CONTINUOUS
 70
0
 71
3
 72
23
 73
19
 74
0
 42
0.0000001
 43
0.0000001
 44
0.0000000001
 40
0.0
 40
0.0
 40
0.0
 40
0.0
 40
0.0579599145
 40
0.1161075849
 40
0.1746118651
 40
0.2336360265
 40
0.2933130106
 40
0.3537493579
 40
0.4150182356
 40
0.4771587723
 40
0.5401756215
 40
0.6040402366
 40
0.6686933068
 40
0.7340476091
 40
0.7999931656
 40
0.866397404
 40
0.9331206356
 40
1.0
 40
1.0
 40
1.0
 40
1.0
 10
9.2456762931
 20
5.0811695021
 30
0.0
 10
9.2451094943
 20
5.0811695021
 30
0.0
 10
9.243973016
 20
5.081104943
 30
0.0
 10
9.2422866566
 20
5.0808156244
 30
0.0
 10
9.2406330905
 20
5.0803365797
 30
0.0
 10
9.2390286669
 20
5.0796726741
 30
0.0
 10
9.2374888043
 20
5.0788304185
 30
0.0
 10
9.2360283474
 20
5.0778181402
 30
0.0
 10
9.2346612957
 20
5.0766457309
 30
0.0
 10
9.233400714
 20
5.0753246091
 30
0.0
 10
9.2322586206
 20
5.073867576
 30
0.0
 10
9.2312458777
 20
5.0722887056
 30
0.0
 10
9.2303721124
 20
5.0706032057
 30
0.0
 10
9.2296456067
 20
5.0688272728
 30
0.0
 10
9.2290732879
 20
5.0669779738
 30
0.0
 10
9.2286605289
 20
5.0650729685
 30
0.0
 10
9.2284113305
 20
5.0631307282
 30
0.0
 10
9.228355785
 20
5.0618235255
 30
0.0
 10
9.228355785
 20
5.0611695021
 30
0.0
  0
SPLINE
  5
2FB
100
AcDbEntity
  8
0
100
AcDbSpline
 62
9
  6
CONTINUOUS
 70
0
 71
3
 72
23
 73
19
 74
0
 42
0.0000001
 43
0.0000001
 44
0.0000000001
 40
0.0
 40
0.0
 40
0.0
 40
0.0
 40
0.0579617468
 40
0.11610664
 40
0.1746121792
 40
0.2336359173
 40
0.2933130414
 40
0.3537493772
 40
0.4150182743
 40
0.4771588004
 40
0.5401756184
 40
0.6040402157
 40
0.6686932434
 40
0.7340477159
 40
0.799992779
 40
0.8663985076
 40
0.9331185176
 40
1.0
 40
1.0
 40
1.0
 40
1.0
 10
11.9819644913
 20
6.7403916421
 30
0.0
 10
11.9819644913
 20
6.7409584589
 30
0.0
 10
11.9818999459
 20
6.7420949299
 30
0.0
 10
11.9816105971
 20
6.7437812868
 30
0.0
 10
11.9811315863
 20
6.7454348428
 30
0.0
 10
11.9804676637
 20
6.747039271
 30
0.0
 10
11.9796254168
 20
6.7485791347
 30
0.0
 10
11.978613132
 20
6.7500395899
 30
0.0
 10
11.9774407199
 20
6.7514066393
 30
0.0
 10
11.976119596
 20
6.7526672188
 30
0.0
 10
11.9746625651
 20
6.7538093143
 30
0.0
 10
11.9730836972
 20
6.75482206
 30
0.0
 10
11.9713981984
 20
6.7556958311
 30
0.0
 10
11.9696222661
 20
6.7564223287
 30
0.0
 10
11.9677729589
 20
6.7569946628
 30
0.0
 10
11.9658679693
 20
6.7574073917
 30
0.0
 10
11.9639257288
 20
6.7576566169
 30
0.0
 10
11.9626185355
 20
6.7577121502
 30
0.0
 10
11.9619644913
 20
6.7577121502
 30
0.0
  0
SPLINE
  5
2FC
100
AcDbEntity
  8
0
100
AcDbSpline
 62
9
  6
CONTINUOUS
 70
0
 71
3
 72
19
 73
15
 74
0
 42
0.0000001
 43
0.0000001
 44
0.0000000001
 40
0.0
 40
0.0
 40
0.0
 40
0.0
 40
0.0578887954
 40
0.1161808418
 40
0.1749929626
 40
0.2344230289
 40
0.2945472528
 40
0.3554182372
 40
0.4170641241
 40
0.4794886013
 40
0.6064618122
 40
0.7360390702
 40
0.8675187084
 40
1.0
 40
1.0
 40
1.0
 40
1.0
 10
11.9816917174
 20
7.026144136
 30
0.0
 10
11.9815951038
 20
7.0266455312
 30
0.0
 10
11.9813502668
 20
7.0276427338
 30
0.0
 10
11.9808343821
 20
7.0291000563
 30
0.0
 10
11.9801728157
 20
7.0305124168
 30
0.0
 10
11.9793708126
 20
7.0318687042
 30
0.0
 10
11.9784346415
 20
7.0331585342
 30
0.0
 10
11.977371641
 20
7.0343719712
 30
0.0
 10
11.9761899626
 20
7.0354997829
 30
0.0
 10
11.9744594797
 20
7.0368851324
 30
0.0
 10
11.9720444688
 20
7.0383561721
 30
0.0
 10
11.9688590917
 20
7.0396466935
 30
0.0
 10
11.9654652887
 20
7.0404367401
 30
0.0
 10
11.9631330665
 20
7.0406137821
 30
0.0
 10
11.9619644913
 20
7.0406137821
 30
0.0
  0
SPLINE
  5
2FD
100
AcDbEntity
  8
0
100
AcDbSpline
 62
9
  6
CONTINUOUS
 70
0
 71
3
 72
23
 73
19
 74
0
 42
0.0000001
 43
0.0000001
 44
0.0000000001
 40
0.0
 40
0.0
 40
0.0
 40
0.0
 40
0.0579617468
 40
0.11610664
 40
0.1746121792
 40
0.2336359173
 40
0.2933130414
 40
0.3537493772
 40
0.4150182743
 40
0.4771588004
 40
0.5401756185
 40
0.6040402157
 40
0.6686932434
 40
0.7340477159
 40
0.799992779
 40
0.8663985076
 40
0.9331185176
 40
1.0
 40
1.0
 40
1.0
 40
1.0
 10
11.9819644913
 20
6.1399473622
 30
0.0
 10
11.9819644913
 20
6.1393805454
 30
0.0
 10
11.9818999459
 20
6.1382440744
 30
0.0
 10
11.9816105971
 20
6.1365577175
 30
0.0
 10
11.9811315863
 20
6.1349041614
 30
0.0
 10
11.9804676637
 20
6.1332997333
 30
0.0
 10
11.9796254168
 20
6.1317598696
 30
0.0
 10
11.978613132
 20
6.1302994144
 30
0.0
 10
11.9774407199
 20
6.128932365
 30
0.0
 10
11.976119596
 20
6.1276717855
 30
0.0
 10
11.9746625651
 20
6.1265296899
 30
0.0
 10
11.9730836972
 20
6.1255169443
 30
0.0
 10
11.9713981984
 20
6.1246431732
 30
0.0
 10
11.9696222661
 20
6.1239166756
 30
0.0
 10
11.9677729589
 20
6.1233443415
 30
0.0
 10
11.9658679693
 20
6.1229316126
 30
0.0
 10
11.9639257288
 20
6.1226823874
 30
0.0
 10
11.9626185355
 20
6.1226268541
 30
0.0
 10
11.9619644913
 20
6.1226268541
 30
0.0
  0
SPLINE
  5
2FE
100
AcDbEntity
  8
0
100
AcDbSpline
 62
9
  6
CONTINUOUS
 70
0
 71
3
 72
19
 73
15
 74
0
 42
0.0000001
 43
0.0000001
 44
0.0000000001
 40
0.0
 40
0.0
 40
0.0
 40
0.0
 40
0.0578887954
 40
0.1161808418
 40
0.1749929626
 40
0.2344230289
 40
0.2945472528
 40
0.3554182372
 40
0.4170641241
 40
0.4794886013
 40
0.6064618123
 40
0.7360390702
 40
0.8675187084
 40
1.0
 40
1.0
 40
1.0
 40
1.0
 10
11.9816917174
 20
5.8541948683
 30
0.0
 10
11.9815951038
 20
5.8536934731
 30
0.0
 10
11.9813502668
 20
5.8526962705
 30
0.0
 10
11.9808343821
 20
5.851238948
 30
0.0
 10
11.9801728157
 20
5.8498265875
 30
0.0
 10
11.9793708126
 20
5.8484703001
 30
0.0
 10
11.9784346415
 20
5.8471804701
 30
0.0
 10
11.977371641
 20
5.8459670331
 30
0.0
 10
11.9761899626
 20
5.8448392214
 30
0.0
 10
11.9744594797
 20
5.8434538719
 30
0.0
 10
11.9720444688
 20
5.8419828322
 30
0.0
 10
11.9688590917
 20
5.8406923107
 30
0.0
 10
11.9654652887
 20
5.8399022641
 30
0.0
 10
11.9631330665
 20
5.8397252222
 30
0.0
 10
11.9619644913
 20
5.8397252222
 30
0.0
  0
ENDSEC
  0
SECTION
  2
OBJECTS
  0
DICTIONARY
  5
C
100
AcDbDictionary
280
0
281
1
  3
ACAD_GROUP
350
D
  3
ACAD_MLINESTYLE
350
17
  3
ACAD_LAYOUT
350
1A
  3
ACAD_PLOTSETTINGS
350
19
  3
ACAD_PLOTSTYLENAME
350
E
  0
DICTIONARY
  5
D
102
{ACAD_REACTORS
330
C
102
}
100
AcDbDictionary
280
0
281
1
  0
ACDBDICTIONARYWDFLT
  5
E
102
{ACAD_REACTORS
330
C
102
}
100
AcDbDictionary
281
1
  3
Normal
350
F
100
AcDbDictionaryWithDefault
340
F
  0
DICTIONARY
  5
17
102
{ACAD_REACTORS
330
C
102
}
100
AcDbDictionary
280
0
281
1
  3
Standard
350
18
  0
DICTIONARY
  5
19
102
{ACAD_REACTORS
330
C
102
}
100
AcDbDictionary
281
1
  0
DICTIONARY
  5
1A
102
{ACAD_REACTORS
330
C
102
}
100
AcDbDictionary
281
1
  3
Model
350
2FF
  3
Layout1
350
300
  0
ACDBPLACEHOLDER
  5
F
102
{ACAD_REACTORS
330
E
102
}
  0
MLINESTYLE
  5
18
102
{ACAD_REACTORS
330
17
102
}
100
AcDbMlineStyle
  2
STANDARD
 70
0
  3

 62
256
 51
90.0
 52
90.0
 71
2
 49
0.5
 62
256
  6
BYLAYER
 49
-0.5
 62
256
  6
BYLAYER
  0
LAYOUT
  5
2FF
102
{ACAD_REACTORS
330
1A
102
}
100
AcDbPlotSettings
  1

  2
none_device
  4
ANSI_C_(22.00_x_17.00_Inches)
  6

 40
0.0
 41
0.0
 42
0.0
 43
0.0
 44
558.8
 45
431.8
 46
0.0
 47
0.0
 48
0.0
 49
0.0
140
0.0
141
0.0
142
1.0
143
1.0
 70
1024
 72
0
 73
0
 74
0
  7

 75
0
147
1.0
148
0.0
149
0.0
100
AcDbLayout
  1
Model
 70
0
 71
0
 10
0.0
 20
0.0
 11
22.0
 21
17.0
 12
0.0
 22
0.0
 32
0.0
 14
0.0
 24
0.0
 34
0.0
 15
0.0
 25
0.0
 35
0.0
146
0.0
 13
0.0
 23
0.0
 33
0.0
 16
1.0
 26
0.0
 36
0.0
 17
0.0
 27
1.0
 37
0.0
 76
0
330
205
345
0
346
0
  0
LAYOUT
  5
300
102
{ACAD_REACTORS
330
1A
102
}
100
AcDbPlotSettings
  1

  2
none_device
  4
ANSI_C_(22.00_x_17.00_Inches)
  6

 40
0.0
 41
0.0
 42
0.0
 43
0.0
 44
558.8
 45
431.8
 46
0.0
 47
0.0
 48
0.0
 49
0.0
140
0.0
141
0.0
142
1.0
143
1.0
 70
0
 72
0
 73
0
 74
0
  7

 75
0
147
1.0
148
0.0
149
0.0
100
AcDbLayout
  1
Layout1
 70
0
 71
1
 10
0.0
 20
0.0
 11
22.0
 21
17.0
 12
0.0
 22
0.0
 32
0.0
 14
0.0
 24
0.0
 34
0.0
 15
0.0
 25
0.0
 35
0.0
146
0.0
 13
0.0
 23
0.0
 33
0.0
 16
1.0
 26
0.0
 36
0.0
 17
0.0
 27
1.0
 37
0.0
 76
0
330
206
345
0
346
0
  0
ENDSEC
  0
EOF
