999
DXF file: 3220-5711_front.dxf
999
Pro/ENGINEER 2018400 by Parametric Technology Corporation
  0
SECTION
  2
HEADER
  9
$ACADVER
  1
AC1027
  9
$DWGCODEPAGE
  3
ANSI_1252
  9
$EXTMAX
 10
11.0
 20
8.5
 30
0.0
  9
$EXTMIN
 10
0.0
 20
0.0
 30
0.0
  9
$LIMMIN
 10
0.0
 20
0.0
  9
$LIMMAX
 10
11.0
 20
8.5
  9
$VIEWCTR
 10
5.5
 20
4.25
  9
$VIEWSIZE
 40
8.5
  9
$CLAYER
  8
0
  9
$LTSCALE
 40
0.605
  9
$CELTYPE
  6
BYLAYER
  9
$DIMSCALE
 40
1.0
  9
$DIMASZ
 40
0.1
  9
$DIMEXO
 40
0.0625
  9
$DIMDLI
 40
0.418
  9
$DIMEXE
 40
0.125
  9
$DIMCEN
 40
0.099
  9
$DIMLFAC
 40
1.0
  9
$DIMBLK
  1
_FILLED
  9
$DIMALT
 70
1
  9
$DIMALTD
 70
1
  9
$DIMALTTD
 70
2
  9
$DIMALTF
 40
25.4
  9
$DIMTXT
 40
0.08
  9
$DIMTOL
 70
1
  9
$DIMLIM
 70
0
  9
$DIMTFAC
 40
1.0
  9
$DIMTP
 40
0.01
  9
$DIMTM
 40
0.01
  9
$DIMGAP
 40
0.09
  9
$DIMDSEP
 70
46
  9
$AUNITS
 70
0
  9
$PDMODE
 70
3
  9
$PDSIZE
 40
0.3125
  9
$HANDSEED
  5
3DF
  9
$TILEMODE
 70
1
  9
$MEASUREMENT
 70
0
  9
$INSUNITS
 70
1
  0
ENDSEC
  0
SECTION
  2
CLASSES
  0
CLASS
  1
ACDBDICTIONARYWDFLT
  2
AcDbDictionaryWithDefault
  3
AutoCAD 2000
 90
0
 91
1
280
0
281
0
  0
CLASS
  1
ACDBPLACEHOLDER
  2
AcDbPlaceHolder
  3
AutoCAD 2000
 90
0
 91
1
280
0
281
0
  0
CLASS
  1
LAYOUT
  2
AcDbLayout
  3
AutoCAD 2000
 90
0
 91
0
280
0
281
0
  0
ENDSEC
  0
SECTION
  2
TABLES
  0
TABLE
  2
VPORT
  5
8
100
AcDbSymbolTable
 70
2
  0
VPORT
  5
1F4
100
AcDbSymbolTableRecord
100
AcDbViewportTableRecord
  2
*ACTIVE
 70
0
 10
0.0
 20
0.0
 11
1.0
 21
1.0
 12
5.5
 22
4.25
 13
0.0
 23
0.0
 14
1.0
 24
1.0
 15
0.0
 25
0.0
 16
0.0
 26
0.0
 36
1.0
 17
0.0
 27
0.0
 37
0.0
 40
8.5
 41
1.2941176471
 42
50.0
 43
0.0
 44
0.0
 50
0.0
 51
0.0
 71
0
 72
100
 73
1
 74
1
 75
0
 76
0
 77
0
 78
0
  0
ENDTAB
  0
TABLE
  2
LTYPE
  5
5
100
AcDbSymbolTable
 70
6
  0
LTYPE
  5
14
100
AcDbSymbolTableRecord
100
AcDbLinetypeTableRecord
  2
BYBLOCK
 70
0
  3

 72
65
 73
0
 40
0.0
  0
LTYPE
  5
15
100
AcDbSymbolTableRecord
100
AcDbLinetypeTableRecord
  2
BYLAYER
 70
0
  3

 72
65
 73
0
 40
0.0
  0
LTYPE
  5
16
100
AcDbSymbolTableRecord
100
AcDbLinetypeTableRecord
  2
CONTINUOUS
 70
64
  3
Solid line
 72
65
 73
0
 40
0.0
  0
LTYPE
  5
1F5
100
AcDbSymbolTableRecord
100
AcDbLinetypeTableRecord
  2
CENTER
 70
64
  3
____ _ ____ _ ____ _ ____ _ ____ _ ____ _ ____
 72
65
 73
4
 40
0.6
 49
0.375
 74
0
 49
-0.075
 74
0
 49
0.075
 74
0
 49
-0.075
 74
0
  0
LTYPE
  5
1F6
100
AcDbSymbolTableRecord
100
AcDbLinetypeTableRecord
  2
HIDDEN
 70
64
  3
- - - - - - - - - - - - - - - - - - - -
 72
65
 73
2
 40
0.2
 49
0.1
 74
0
 49
-0.1
 74
0
  0
LTYPE
  5
1F7
100
AcDbSymbolTableRecord
100
AcDbLinetypeTableRecord
  2
PHANTOM
 70
64
  3
_____ _ _ _____ _ _ _____ _ _ _____
 72
65
 73
6
 40
0.8
 49
0.45
 74
0
 49
-0.05
 74
0
 49
0.1
 74
0
 49
-0.05
 74
0
 49
0.1
 74
0
 49
-0.05
 74
0
  0
LTYPE
  5
1F8
100
AcDbSymbolTableRecord
100
AcDbLinetypeTableRecord
  2
DOT
 70
64
  3
. . . . . . . . . . . . . . . . . . . .
 72
65
 73
2
 40
0.2
 49
0.1
 74
0
 49
-0.1
 74
0
  0
LTYPE
  5
1F9
100
AcDbSymbolTableRecord
100
AcDbLinetypeTableRecord
  2
DASHED
 70
64
  3
- - - - - - - - - - - - - - - - - - - -
 72
65
 73
2
 40
0.2
 49
0.1
 74
0
 49
-0.1
 74
0
  0
ENDTAB
  0
TABLE
  2
LAYER
  5
2
100
AcDbSymbolTable
 70
36
  0
LAYER
  5
10
100
AcDbSymbolTableRecord
100
AcDbLayerTableRecord
  2
0
 70
0
 62
7
  6
CONTINUOUS
370
-3
390
F
  0
LAYER
  5
1FA
100
AcDbSymbolTableRecord
100
AcDbLayerTableRecord
  2
DEFAULT_1
 70
0
 62
7
  6
CENTER
370
-3
390
F
  0
LAYER
  5
1FB
100
AcDbSymbolTableRecord
100
AcDbLayerTableRecord
  2
DEFAULT_2
 70
0
 62
8
  6
HIDDEN
370
-3
390
F
  0
LAYER
  5
1FC
100
AcDbSymbolTableRecord
100
AcDbLayerTableRecord
  2
DEFAULT_3
 70
0
 62
7
  6
PHANTOM
370
-3
390
F
  0
LAYER
  5
1FD
100
AcDbSymbolTableRecord
100
AcDbLayerTableRecord
  2
DEFAULT_COORDINATE_SYSTEM
 70
0
 62
7
  6
CONTINUOUS
370
-3
390
F
  0
LAYER
  5
1FE
100
AcDbSymbolTableRecord
100
AcDbLayerTableRecord
  2
DEFAULT_DATUM_AXES
 70
0
 62
7
  6
CONTINUOUS
370
-3
390
F
  0
LAYER
  5
1FF
100
AcDbSymbolTableRecord
100
AcDbLayerTableRecord
  2
DEFAULT_DATUM_PLANES
 70
0
 62
7
  6
CONTINUOUS
370
-3
390
F
  0
ENDTAB
  0
TABLE
  2
STYLE
  5
3
100
AcDbSymbolTable
 70
1
  0
STYLE
  5
11
100
AcDbSymbolTableRecord
100
AcDbTextStyleTableRecord
  2
STANDARD
 70
0
 40
0.0
 41
0.8
 50
0.0
 71
0
 42
0.2
  3
txt
  4

  0
STYLE
  5
200
100
AcDbSymbolTableRecord
100
AcDbTextStyleTableRecord
  2
TEXTSTYLE_1
 70
0
 40
0.0
 41
0.8
 50
0.0
 71
0
 42
0.2
  3
gdt
  4

  0
ENDTAB
  0
TABLE
  2
VIEW
  5
6
100
AcDbSymbolTable
 70
0
  0
ENDTAB
  0
TABLE
  2
UCS
  5
7
100
AcDbSymbolTable
 70
0
  0
ENDTAB
  0
TABLE
  2
APPID
  5
9
100
AcDbSymbolTable
 70
1
  0
APPID
  5
201
100
AcDbSymbolTableRecord
100
AcDbRegAppTableRecord
  2
ACAD
 70
0
  0
ENDTAB
  0
TABLE
  2
BLOCK_RECORD
  5
1
100
AcDbSymbolTable
 70
0
  0
BLOCK_RECORD
  5
202
100
AcDbSymbolTableRecord
100
AcDbBlockTableRecord
  2
*Model_Space
  0
BLOCK_RECORD
  5
203
100
AcDbSymbolTableRecord
100
AcDbBlockTableRecord
  2
*Paper_Space
  0
BLOCK_RECORD
  5
204
100
AcDbSymbolTableRecord
100
AcDbBlockTableRecord
  2
_FILLED
  0
ENDTAB
  0
TABLE
  2
DIMSTYLE
  5
A
100
AcDbSymbolTable
 70
1
100
AcDbDimStyleTable
 71
0
  0
DIMSTYLE
105
205
100
AcDbSymbolTableRecord
100
AcDbDimStyleTableRecord
  2
STANDARD
 70
0
  3

  4

 40
1.0
 41
0.1
 42
0.0625
 43
0.38
 44
0.125
 45
0.0
 46
0.0
 47
0.01
 48
0.01
140
0.08
141
0.09
142
0.0
143
25.4
144
1.0
145
0.0
146
1.0
147
0.09
 71
1.0
 72
0.0
 73
1
 74
1
 75
0
 76
0
 77
0
 78
4
 79
1
170
1
171
1
172
0
173
0
174
0
175
0
176
0
177
0
178
0
270
2
179
2
271
2
272
2
273
2
274
2
275
0
280
0
281
0
282
0
283
1
284
4
285
0
286
0
287
3
288
0
340
11
278
46
341
204
342
204
343
204
344
204
  0
ENDTAB
  0
ENDSEC
  0
SECTION
  2
BLOCKS
  0
BLOCK
  5
20
100
AcDbEntity
  8
0
100
AcDbBlockBegin
  2
*Model_Space
 70
0
 10
0.0
 20
0.0
 30
0.0
  3
*Model_Space
  1

  0
ENDBLK
  5
21
100
AcDbEntity
  8
0
100
AcDbBlockEnd
  0
BLOCK
  5
1C
100
AcDbEntity
  8
0
100
AcDbBlockBegin
  2
*Paper_Space
 70
0
 10
0.0
 20
0.0
 30
0.0
  3
*Paper_Space
  1

  0
ENDBLK
  5
1D
100
AcDbEntity
  8
0
100
AcDbBlockEnd
  0
BLOCK
  5
206
100
AcDbEntity
  8
0
100
AcDbBlockBegin
  2
_FILLED
 70
64
 10
0.0
 20
0.0
  3
_FILLED
  1

  0
SOLID
  5
207
100
AcDbEntity
  8
0
  6
BYBLOCK
 62
0
100
AcDbTrace
 10
0.0
 20
0.0
 11
-1.0
 21
0.2
 12
-1.0
 22
-0.2
 13
-1.0
 23
-0.2
  0
ENDBLK
  5
208
100
AcDbEntity
  8
0
  6
BYBLOCK
 62
0
100
AcDbBlockEnd
  0
ENDSEC
  0
SECTION
  2
ENTITIES
  0
MTEXT
  5
209
100
AcDbEntity
  8
0
100
AcDbMText
 62
2
  6
CONTINUOUS
  7
STANDARD
 71
3
 72
1
 10
5.0964673913
 20
1.1646040373
 30
0.0
 11
1.0
 21
0.0
 31
0.0
 73
2
 44
0.9
  1
SCALE  .500
 40
0.08
 41
0.704
  0
LINE
  5
20A
100
AcDbEntity
  8
0
100
AcDbLine
 62
7
  6
CONTINUOUS
 10
0.0
 20
0.0
 11
0.0
 21
8.5
  0
LINE
  5
20B
100
AcDbEntity
  8
0
100
AcDbLine
 62
7
  6
CONTINUOUS
 10
0.0
 20
0.0
 11
11.0
 21
0.0
  0
LINE
  5
20C
100
AcDbEntity
  8
0
100
AcDbLine
 62
7
  6
CONTINUOUS
 10
0.0
 20
8.5
 11
11.0
 21
8.5
  0
LINE
  5
20D
100
AcDbEntity
  8
0
100
AcDbLine
 62
7
  6
CONTINUOUS
 10
11.0
 20
0.0
 11
11.0
 21
8.5
  0
LINE
  5
20E
100
AcDbEntity
  8
0
100
AcDbLine
 62
7
  6
CONTINUOUS
 10
4.8318265714
 20
2.2280822981
 11
5.1368265714
 21
2.2280822981
  0
LINE
  5
20F
100
AcDbEntity
  8
0
100
AcDbLine
 62
7
  6
CONTINUOUS
 10
4.8318265714
 20
2.2428322981
 11
5.1368265714
 21
2.2428322981
  0
LINE
  5
210
100
AcDbEntity
  8
0
100
AcDbLine
 62
7
  6
CONTINUOUS
 10
4.8318265714
 20
2.2723322981
 11
5.1368265714
 21
2.2723322981
  0
LINE
  5
211
100
AcDbEntity
  8
0
100
AcDbLine
 62
7
  6
CONTINUOUS
 10
4.8318265714
 20
2.3508322981
 11
5.1368265714
 21
2.3508322981
  0
LINE
  5
212
100
AcDbEntity
  8
0
100
AcDbLine
 62
7
  6
CONTINUOUS
 10
4.8318265714
 20
2.3803322981
 11
5.1368265714
 21
2.3803322981
  0
LINE
  5
213
100
AcDbEntity
  8
0
100
AcDbLine
 62
7
  6
CONTINUOUS
 10
4.4472142632
 20
2.3745381669
 11
4.0602208381
 21
2.5549961646
  0
LINE
  5
214
100
AcDbEntity
  8
0
100
AcDbLine
 62
7
  6
CONTINUOUS
 10
4.8318265714
 20
2.4588322981
 11
5.1368265714
 21
2.4588322981
  0
LINE
  5
215
100
AcDbEntity
  8
0
100
AcDbLine
 62
7
  6
CONTINUOUS
 10
4.8318265714
 20
2.4883322981
 11
5.1368265714
 21
2.4883322981
  0
LINE
  5
216
100
AcDbEntity
  8
0
100
AcDbLine
 62
7
  6
CONTINUOUS
 10
4.8318265714
 20
2.5668322981
 11
5.1368265714
 21
2.5668322981
  0
LINE
  5
217
100
AcDbEntity
  8
0
100
AcDbLine
 62
7
  6
CONTINUOUS
 10
4.8318265714
 20
2.5963322981
 11
5.1368265714
 21
2.5963322981
  0
LINE
  5
218
100
AcDbEntity
  8
0
100
AcDbLine
 62
7
  6
CONTINUOUS
 10
4.0766178519
 20
2.5901596741
 11
4.4636112769
 21
2.4097016763
  0
LINE
  5
219
100
AcDbEntity
  8
0
100
AcDbLine
 62
7
  6
CONTINUOUS
 10
4.5054093727
 20
2.4993379819
 11
4.1184159476
 21
2.6797959796
  0
LINE
  5
21A
100
AcDbEntity
  8
0
100
AcDbLine
 62
7
  6
CONTINUOUS
 10
4.8318265714
 20
2.6748322981
 11
5.1368265714
 21
2.6748322981
  0
LINE
  5
21B
100
AcDbEntity
  8
0
100
AcDbLine
 62
7
  6
CONTINUOUS
 10
4.8318265714
 20
2.7043322981
 11
5.1368265714
 21
2.7043322981
  0
LINE
  5
21C
100
AcDbEntity
  8
0
100
AcDbLine
 62
7
  6
CONTINUOUS
 10
4.5217212879
 20
2.534318997
 11
4.1347278628
 21
2.7147769948
  0
LINE
  5
21D
100
AcDbEntity
  8
0
100
AcDbLine
 62
7
  6
CONTINUOUS
 10
4.5635193836
 20
2.6239553026
 11
4.1765259586
 21
2.8044133003
  0
LINE
  5
21E
100
AcDbEntity
  8
0
100
AcDbLine
 62
7
  6
CONTINUOUS
 10
4.8318265714
 20
2.7828322981
 11
5.1368265714
 21
2.7828322981
  0
LINE
  5
21F
100
AcDbEntity
  8
0
100
AcDbLine
 62
7
  6
CONTINUOUS
 10
4.8318265714
 20
2.8123322981
 11
5.1368265714
 21
2.8123322981
  0
LINE
  5
220
100
AcDbEntity
  8
0
100
AcDbLine
 62
7
  6
CONTINUOUS
 10
4.5798312989
 20
2.6589363177
 11
4.1928378738
 21
2.8393943155
  0
LINE
  5
221
100
AcDbEntity
  8
0
100
AcDbLine
 62
7
  6
CONTINUOUS
 10
4.6216293946
 20
2.7485726233
 11
4.2346359696
 21
2.9290306211
  0
LINE
  5
222
100
AcDbEntity
  8
0
100
AcDbLine
 62
7
  6
CONTINUOUS
 10
4.6379413099
 20
2.7835536384
 11
4.2509478848
 21
2.9640116362
  0
LINE
  5
223
100
AcDbEntity
  8
0
100
AcDbLine
 62
7
  6
CONTINUOUS
 10
4.7359352259
 20
2.9977582731
 11
4.8342357656
 21
2.9977582731
  0
LINE
  5
224
100
AcDbEntity
  8
0
100
AcDbLine
 62
7
  6
CONTINUOUS
 10
4.6797394056
 20
2.873189944
 11
4.2927459806
 21
3.0536479418
  0
LINE
  5
225
100
AcDbEntity
  8
0
100
AcDbLine
 62
7
  6
CONTINUOUS
 10
4.6960513209
 20
2.9081709592
 11
4.3090578958
 21
3.0886289569
  0
LINE
  5
226
100
AcDbEntity
  8
0
100
AcDbLine
 62
7
  6
CONTINUOUS
 10
4.7362958771
 20
2.9985316921
 11
4.3508559915
 21
3.1782652625
  0
LINE
  5
227
100
AcDbEntity
  8
0
100
AcDbLine
 62
7
  6
CONTINUOUS
 10
4.3671679068
 20
3.2132462776
 11
4.7526077924
 21
3.0335127072
  0
LINE
  5
228
100
AcDbEntity
  8
0
100
AcDbLine
 62
7
  6
CONTINUOUS
 10
4.3345060634
 20
5.4237425522
 11
4.2918265714
 21
5.399101536
  0
LINE
  5
229
100
AcDbEntity
  8
0
100
AcDbLine
 62
7
  6
CONTINUOUS
 10
4.9107697194
 20
3.4797454969
 11
4.5663336812
 21
3.6403586592
  0
LINE
  5
22A
100
AcDbEntity
  8
0
100
AcDbLine
 62
7
  6
CONTINUOUS
 10
5.1368265714
 20
3.7180822981
 11
5.1361995625
 21
3.7180822981
  0
LINE
  5
22B
100
AcDbEntity
  8
0
100
AcDbLine
 62
7
  6
CONTINUOUS
 10
5.1368265714
 20
3.7313322981
 11
4.5518265714
 21
3.7313322981
  0
LINE
  5
22C
100
AcDbEntity
  8
0
100
AcDbLine
 62
7
  6
CONTINUOUS
 10
4.2868265714
 20
5.3218322981
 11
4.2868265714
 21
5.390441282
  0
LINE
  5
22D
100
AcDbEntity
  8
0
100
AcDbLine
 62
7
  6
CONTINUOUS
 10
4.4355765714
 20
5.5964026401
 11
4.4269785485
 21
5.5364621375
  0
LINE
  5
22E
100
AcDbEntity
  8
0
100
AcDbLine
 62
7
  6
CONTINUOUS
 10
4.3510029804
 20
5.5243322981
 11
4.3510029804
 21
5.4350822981
  0
LINE
  5
22F
100
AcDbEntity
  8
0
100
AcDbLine
 62
7
  6
CONTINUOUS
 10
4.3550222183
 20
5.5243322981
 11
4.3550222183
 21
5.4350822981
  0
LINE
  5
230
100
AcDbEntity
  8
0
100
AcDbLine
 62
7
  6
CONTINUOUS
 10
4.3943265714
 20
4.7968322981
 11
4.3943265714
 21
4.8618322981
  0
LINE
  5
231
100
AcDbEntity
  8
0
100
AcDbLine
 62
7
  6
CONTINUOUS
 10
4.4043265714
 20
4.7718322981
 11
4.4043265714
 21
4.7968322981
  0
LINE
  5
232
100
AcDbEntity
  8
0
100
AcDbLine
 62
7
  6
CONTINUOUS
 10
4.4355765714
 20
6.5143322981
 11
4.4355765714
 21
5.5964026401
  0
LINE
  5
233
100
AcDbEntity
  8
0
100
AcDbLine
 62
7
  6
CONTINUOUS
 10
4.4468265714
 20
4.7318322981
 11
4.4468265714
 21
4.5768322981
  0
LINE
  5
234
100
AcDbEntity
  8
0
100
AcDbLine
 62
7
  6
CONTINUOUS
 10
4.5295765714
 20
5.3073444303
 11
4.5295765714
 21
5.296670166
  0
LINE
  5
235
100
AcDbEntity
  8
0
100
AcDbLine
 62
7
  6
CONTINUOUS
 10
4.5295765714
 20
5.2728944303
 11
4.5295765714
 21
5.262220166
  0
LINE
  5
236
100
AcDbEntity
  8
0
100
AcDbLine
 62
7
  6
CONTINUOUS
 10
4.5295765714
 20
5.2384444303
 11
4.5295765714
 21
5.227770166
  0
LINE
  5
237
100
AcDbEntity
  8
0
100
AcDbLine
 62
7
  6
CONTINUOUS
 10
4.5295765714
 20
5.2039944303
 11
4.5295765714
 21
5.193320166
  0
LINE
  5
238
100
AcDbEntity
  8
0
100
AcDbLine
 62
7
  6
CONTINUOUS
 10
4.5295765714
 20
5.1695444303
 11
4.5295765714
 21
5.158870166
  0
LINE
  5
239
100
AcDbEntity
  8
0
100
AcDbLine
 62
7
  6
CONTINUOUS
 10
4.5295765714
 20
5.1350944303
 11
4.5295765714
 21
5.124420166
  0
LINE
  5
23A
100
AcDbEntity
  8
0
100
AcDbLine
 62
7
  6
CONTINUOUS
 10
4.5295765714
 20
5.1006444303
 11
4.5295765714
 21
5.089970166
  0
LINE
  5
23B
100
AcDbEntity
  8
0
100
AcDbLine
 62
7
  6
CONTINUOUS
 10
4.5295765714
 20
5.0661944303
 11
4.5295765714
 21
5.055520166
  0
LINE
  5
23C
100
AcDbEntity
  8
0
100
AcDbLine
 62
7
  6
CONTINUOUS
 10
4.5295765714
 20
5.0317444303
 11
4.5295765714
 21
5.021070166
  0
LINE
  5
23D
100
AcDbEntity
  8
0
100
AcDbLine
 62
7
  6
CONTINUOUS
 10
4.5295765714
 20
4.9972944303
 11
4.5295765714
 21
4.986620166
  0
LINE
  5
23E
100
AcDbEntity
  8
0
100
AcDbLine
 62
7
  6
CONTINUOUS
 10
4.5295765714
 20
4.9628444303
 11
4.5295765714
 21
4.952170166
  0
LINE
  5
23F
100
AcDbEntity
  8
0
100
AcDbLine
 62
7
  6
CONTINUOUS
 10
4.5295765714
 20
4.9283944303
 11
4.5295765714
 21
4.917720166
  0
LINE
  5
240
100
AcDbEntity
  8
0
100
AcDbLine
 62
7
  6
CONTINUOUS
 10
4.5295765714
 20
4.8939444303
 11
4.5295765714
 21
4.883270166
  0
LINE
  5
241
100
AcDbEntity
  8
0
100
AcDbLine
 62
7
  6
CONTINUOUS
 10
4.5295765714
 20
4.5494444303
 11
4.5295765714
 21
4.538770166
  0
LINE
  5
242
100
AcDbEntity
  8
0
100
AcDbLine
 62
7
  6
CONTINUOUS
 10
4.5499265714
 20
5.3218322981
 11
4.5499265714
 21
5.312804296
  0
LINE
  5
243
100
AcDbEntity
  8
0
100
AcDbLine
 62
7
  6
CONTINUOUS
 10
4.5499265714
 20
5.2914072981
 11
4.5499265714
 21
5.278354296
  0
LINE
  5
244
100
AcDbEntity
  8
0
100
AcDbLine
 62
7
  6
CONTINUOUS
 10
4.5499265714
 20
5.2569572981
 11
4.5499265714
 21
5.243904296
  0
LINE
  5
245
100
AcDbEntity
  8
0
100
AcDbLine
 62
7
  6
CONTINUOUS
 10
4.5499265714
 20
5.2225072981
 11
4.5499265714
 21
5.209454296
  0
LINE
  5
246
100
AcDbEntity
  8
0
100
AcDbLine
 62
7
  6
CONTINUOUS
 10
4.5499265714
 20
5.1880572981
 11
4.5499265714
 21
5.175004296
  0
LINE
  5
247
100
AcDbEntity
  8
0
100
AcDbLine
 62
7
  6
CONTINUOUS
 10
4.5499265714
 20
5.1536072981
 11
4.5499265714
 21
5.140554296
  0
LINE
  5
248
100
AcDbEntity
  8
0
100
AcDbLine
 62
7
  6
CONTINUOUS
 10
4.5499265714
 20
5.1191572981
 11
4.5499265714
 21
5.106104296
  0
LINE
  5
249
100
AcDbEntity
  8
0
100
AcDbLine
 62
7
  6
CONTINUOUS
 10
4.5499265714
 20
5.0847072981
 11
4.5499265714
 21
5.071654296
  0
LINE
  5
24A
100
AcDbEntity
  8
0
100
AcDbLine
 62
7
  6
CONTINUOUS
 10
4.5499265714
 20
5.0502572981
 11
4.5499265714
 21
5.037204296
  0
LINE
  5
24B
100
AcDbEntity
  8
0
100
AcDbLine
 62
7
  6
CONTINUOUS
 10
4.5499265714
 20
5.0158072981
 11
4.5499265714
 21
5.002754296
  0
LINE
  5
24C
100
AcDbEntity
  8
0
100
AcDbLine
 62
7
  6
CONTINUOUS
 10
4.5499265714
 20
4.9813572981
 11
4.5499265714
 21
4.968304296
  0
LINE
  5
24D
100
AcDbEntity
  8
0
100
AcDbLine
 62
7
  6
CONTINUOUS
 10
4.5499265714
 20
4.9469072981
 11
4.5499265714
 21
4.933854296
  0
LINE
  5
24E
100
AcDbEntity
  8
0
100
AcDbLine
 62
7
  6
CONTINUOUS
 10
4.5499265714
 20
4.9124572981
 11
4.5499265714
 21
4.899404296
  0
LINE
  5
24F
100
AcDbEntity
  8
0
100
AcDbLine
 62
7
  6
CONTINUOUS
 10
4.5499265714
 20
4.8780072981
 11
4.5499265714
 21
4.864954296
  0
LINE
  5
250
100
AcDbEntity
  8
0
100
AcDbLine
 62
7
  6
CONTINUOUS
 10
4.5499265714
 20
4.5568322981
 11
4.5499265714
 21
4.554904296
  0
LINE
  5
251
100
AcDbEntity
  8
0
100
AcDbLine
 62
7
  6
CONTINUOUS
 10
4.5499265714
 20
4.5335072981
 11
4.5499265714
 21
4.5265822981
  0
LINE
  5
252
100
AcDbEntity
  8
0
100
AcDbLine
 62
7
  6
CONTINUOUS
 10
4.5518265714
 20
4.5265822981
 11
4.5518265714
 21
3.7313322981
  0
LINE
  5
253
100
AcDbEntity
  8
0
100
AcDbLine
 62
7
  6
CONTINUOUS
 10
4.5866840138
 20
5.5243322981
 11
4.5866840138
 21
5.4350822981
  0
LINE
  5
254
100
AcDbEntity
  8
0
100
AcDbLine
 62
7
  6
CONTINUOUS
 10
4.6126647759
 20
5.4250822981
 11
4.6126647759
 21
5.5343322981
  0
LINE
  5
255
100
AcDbEntity
  8
0
100
AcDbLine
 62
7
  6
CONTINUOUS
 10
4.6268831029
 20
4.7318322981
 11
4.6268831029
 21
4.5768322981
  0
LINE
  5
256
100
AcDbEntity
  8
0
100
AcDbLine
 62
7
  6
CONTINUOUS
 10
4.6657921263
 20
4.7318322981
 11
4.6657921263
 21
4.5768322981
  0
LINE
  5
257
100
AcDbEntity
  8
0
100
AcDbLine
 62
7
  6
CONTINUOUS
 10
5.1379661606
 20
4.5503381376
 11
5.1583649759
 21
4.5556264093
  0
LINE
  5
258
100
AcDbEntity
  8
0
100
AcDbLine
 62
7
  6
CONTINUOUS
 10
4.8318265714
 20
2.2280822981
 11
4.8318265714
 21
2.2428322981
  0
LINE
  5
259
100
AcDbEntity
  8
0
100
AcDbLine
 62
7
  6
CONTINUOUS
 10
4.8318265714
 20
2.2723322981
 11
4.8318265714
 21
2.3508322981
  0
LINE
  5
25A
100
AcDbEntity
  8
0
100
AcDbLine
 62
7
  6
CONTINUOUS
 10
4.8318265714
 20
2.3803322981
 11
4.8318265714
 21
2.4588322981
  0
LINE
  5
25B
100
AcDbEntity
  8
0
100
AcDbLine
 62
7
  6
CONTINUOUS
 10
4.8318265714
 20
2.4883322981
 11
4.8318265714
 21
2.5668322981
  0
LINE
  5
25C
100
AcDbEntity
  8
0
100
AcDbLine
 62
7
  6
CONTINUOUS
 10
4.8318265714
 20
2.5963322981
 11
4.8318265714
 21
2.6748322981
  0
LINE
  5
25D
100
AcDbEntity
  8
0
100
AcDbLine
 62
7
  6
CONTINUOUS
 10
4.8318265714
 20
2.7043322981
 11
4.8318265714
 21
2.7828322981
  0
LINE
  5
25E
100
AcDbEntity
  8
0
100
AcDbLine
 62
7
  6
CONTINUOUS
 10
4.8318265714
 20
2.8123322981
 11
4.8318265714
 21
2.9977582731
  0
LINE
  5
25F
100
AcDbEntity
  8
0
100
AcDbLine
 62
7
  6
CONTINUOUS
 10
4.8342357656
 20
2.9977582731
 11
4.8342357656
 21
3.2085644607
  0
LINE
  5
260
100
AcDbEntity
  8
0
100
AcDbLine
 62
7
  6
CONTINUOUS
 10
4.5506869821
 20
4.5551014586
 11
4.5302881669
 21
4.549813187
  0
LINE
  5
261
100
AcDbEntity
  8
0
100
AcDbLine
 62
7
  6
CONTINUOUS
 10
5.1590765714
 20
4.5265822981
 11
4.5499271131
 21
4.5265822981
  0
LINE
  5
262
100
AcDbEntity
  8
0
100
AcDbLine
 62
7
  6
CONTINUOUS
 10
5.2218265714
 20
4.5568322981
 11
4.4668265714
 21
4.5568322981
  0
LINE
  5
263
100
AcDbEntity
  8
0
100
AcDbLine
 62
7
  6
CONTINUOUS
 10
5.06177004
 20
4.5768322981
 11
5.0228610166
 21
4.5768322981
  0
LINE
  5
264
100
AcDbEntity
  8
0
100
AcDbLine
 62
7
  6
CONTINUOUS
 10
4.6657921263
 20
4.5768322981
 11
4.6268831029
 21
4.5768322981
  0
LINE
  5
265
100
AcDbEntity
  8
0
100
AcDbLine
 62
7
  6
CONTINUOUS
 10
4.530288167
 20
4.5384014093
 11
4.5498787118
 21
4.5333227101
  0
LINE
  5
266
100
AcDbEntity
  8
0
100
AcDbLine
 62
7
  6
CONTINUOUS
 10
5.0228610166
 20
4.7318322981
 11
5.0228610166
 21
4.5768322981
  0
LINE
  5
267
100
AcDbEntity
  8
0
100
AcDbLine
 62
7
  6
CONTINUOUS
 10
4.5663336812
 20
3.6403586592
 11
4.3671679068
 21
3.2132462776
  0
LINE
  5
268
100
AcDbEntity
  8
0
100
AcDbLine
 62
7
  6
CONTINUOUS
 10
4.0766178519
 20
2.5901596741
 11
4.1184159476
 21
2.6797959796
  0
LINE
  5
269
100
AcDbEntity
  8
0
100
AcDbLine
 62
7
  6
CONTINUOUS
 10
4.1347278628
 20
2.7147769948
 11
4.1765259586
 21
2.8044133003
  0
LINE
  5
26A
100
AcDbEntity
  8
0
100
AcDbLine
 62
7
  6
CONTINUOUS
 10
4.1928378738
 20
2.8393943155
 11
4.2346359696
 21
2.9290306211
  0
LINE
  5
26B
100
AcDbEntity
  8
0
100
AcDbLine
 62
7
  6
CONTINUOUS
 10
4.2509478848
 20
2.9640116362
 11
4.2927459806
 21
3.0536479418
  0
LINE
  5
26C
100
AcDbEntity
  8
0
100
AcDbLine
 62
7
  6
CONTINUOUS
 10
4.3090578958
 20
3.0886289569
 11
4.3508559915
 21
3.1782652625
  0
LINE
  5
26D
100
AcDbEntity
  8
0
100
AcDbLine
 62
7
  6
CONTINUOUS
 10
5.1435361653
 20
4.8618322981
 11
5.1583649759
 21
4.8656764093
  0
LINE
  5
26E
100
AcDbEntity
  8
0
100
AcDbLine
 62
7
  6
CONTINUOUS
 10
4.4443275609
 20
4.7318322981
 11
5.2443255819
 21
4.7318322981
  0
LINE
  5
26F
100
AcDbEntity
  8
0
100
AcDbLine
 62
7
  6
CONTINUOUS
 10
5.158364976
 20
4.532588187
 11
5.1387265714
 21
4.537679296
  0
LINE
  5
270
100
AcDbEntity
  8
0
100
AcDbLine
 62
7
  6
CONTINUOUS
 10
5.06177004
 20
4.7318322981
 11
5.06177004
 21
4.5768322981
  0
LINE
  5
271
100
AcDbEntity
  8
0
100
AcDbLine
 62
7
  6
CONTINUOUS
 10
5.0759883669
 20
5.4250822981
 11
5.0759883669
 21
5.5343322981
  0
LINE
  5
272
100
AcDbEntity
  8
0
100
AcDbLine
 62
7
  6
CONTINUOUS
 10
5.1019691291
 20
5.5243322981
 11
5.1019691291
 21
5.4350822981
  0
LINE
  5
273
100
AcDbEntity
  8
0
100
AcDbLine
 62
7
  6
CONTINUOUS
 10
5.1368265714
 20
4.5265822981
 11
5.1368265714
 21
3.7313322981
  0
LINE
  5
274
100
AcDbEntity
  8
0
100
AcDbLine
 62
7
  6
CONTINUOUS
 10
5.1368265714
 20
2.2280822981
 11
5.1368265714
 21
2.2428322981
  0
LINE
  5
275
100
AcDbEntity
  8
0
100
AcDbLine
 62
7
  6
CONTINUOUS
 10
5.1368265714
 20
2.2723322981
 11
5.1368265714
 21
2.3508322981
  0
LINE
  5
276
100
AcDbEntity
  8
0
100
AcDbLine
 62
7
  6
CONTINUOUS
 10
5.1368265714
 20
2.3803322981
 11
5.1368265714
 21
2.4588322981
  0
LINE
  5
277
100
AcDbEntity
  8
0
100
AcDbLine
 62
7
  6
CONTINUOUS
 10
5.1368265714
 20
2.4883322981
 11
5.1368265714
 21
2.5668322981
  0
LINE
  5
278
100
AcDbEntity
  8
0
100
AcDbLine
 62
7
  6
CONTINUOUS
 10
5.1368265714
 20
2.5963322981
 11
5.1368265714
 21
2.6748322981
  0
LINE
  5
279
100
AcDbEntity
  8
0
100
AcDbLine
 62
7
  6
CONTINUOUS
 10
5.1368265714
 20
2.7043322981
 11
5.1368265714
 21
2.7828322981
  0
LINE
  5
27A
100
AcDbEntity
  8
0
100
AcDbLine
 62
7
  6
CONTINUOUS
 10
5.1368265714
 20
2.8123322981
 11
5.1368265714
 21
3.7180822981
  0
LINE
  5
27B
100
AcDbEntity
  8
0
100
AcDbLine
 62
7
  6
CONTINUOUS
 10
5.1387265714
 20
4.5374822981
 11
5.1387265714
 21
4.5505353011
  0
LINE
  5
27C
100
AcDbEntity
  8
0
100
AcDbLine
 62
7
  6
CONTINUOUS
 10
5.1387265714
 20
4.8819822981
 11
5.1387265714
 21
4.8950353011
  0
LINE
  5
27D
100
AcDbEntity
  8
0
100
AcDbLine
 62
7
  6
CONTINUOUS
 10
5.1387265714
 20
4.9164322981
 11
5.1387265714
 21
4.9294853011
  0
LINE
  5
27E
100
AcDbEntity
  8
0
100
AcDbLine
 62
7
  6
CONTINUOUS
 10
5.1387265714
 20
4.9508822981
 11
5.1387265714
 21
4.9639353011
  0
LINE
  5
27F
100
AcDbEntity
  8
0
100
AcDbLine
 62
7
  6
CONTINUOUS
 10
5.1387265714
 20
4.9853322981
 11
5.1387265714
 21
4.9983853011
  0
LINE
  5
280
100
AcDbEntity
  8
0
100
AcDbLine
 62
7
  6
CONTINUOUS
 10
5.1387265714
 20
5.0197822981
 11
5.1387265714
 21
5.0328353011
  0
LINE
  5
281
100
AcDbEntity
  8
0
100
AcDbLine
 62
7
  6
CONTINUOUS
 10
5.1387265714
 20
5.0542322981
 11
5.1387265714
 21
5.0672853011
  0
LINE
  5
282
100
AcDbEntity
  8
0
100
AcDbLine
 62
7
  6
CONTINUOUS
 10
5.1387265714
 20
5.0886822981
 11
5.1387265714
 21
5.1017353011
  0
LINE
  5
283
100
AcDbEntity
  8
0
100
AcDbLine
 62
7
  6
CONTINUOUS
 10
5.1387265714
 20
5.1231322981
 11
5.1387265714
 21
5.1361853011
  0
LINE
  5
284
100
AcDbEntity
  8
0
100
AcDbLine
 62
7
  6
CONTINUOUS
 10
5.1387265714
 20
5.1575822981
 11
5.1387265714
 21
5.1706353011
  0
LINE
  5
285
100
AcDbEntity
  8
0
100
AcDbLine
 62
7
  6
CONTINUOUS
 10
5.1387265714
 20
5.1920322981
 11
5.1387265714
 21
5.2050853011
  0
LINE
  5
286
100
AcDbEntity
  8
0
100
AcDbLine
 62
7
  6
CONTINUOUS
 10
5.1387265714
 20
5.2264822981
 11
5.1387265714
 21
5.2395353011
  0
LINE
  5
287
100
AcDbEntity
  8
0
100
AcDbLine
 62
7
  6
CONTINUOUS
 10
5.1387265714
 20
5.2609322981
 11
5.1387265714
 21
5.2739853011
  0
LINE
  5
288
100
AcDbEntity
  8
0
100
AcDbLine
 62
7
  6
CONTINUOUS
 10
5.1387265714
 20
5.2953822981
 11
5.1387265714
 21
5.3084353011
  0
LINE
  5
289
100
AcDbEntity
  8
0
100
AcDbLine
 62
7
  6
CONTINUOUS
 10
5.1590765714
 20
5.2901194303
 11
5.1590765714
 21
5.279445166
  0
LINE
  5
28A
100
AcDbEntity
  8
0
100
AcDbLine
 62
7
  6
CONTINUOUS
 10
5.1590765714
 20
5.2556694303
 11
5.1590765714
 21
5.244995166
  0
LINE
  5
28B
100
AcDbEntity
  8
0
100
AcDbLine
 62
7
  6
CONTINUOUS
 10
5.1590765714
 20
5.2212194303
 11
5.1590765714
 21
5.210545166
  0
LINE
  5
28C
100
AcDbEntity
  8
0
100
AcDbLine
 62
7
  6
CONTINUOUS
 10
5.1590765714
 20
5.1867694303
 11
5.1590765714
 21
5.176095166
  0
LINE
  5
28D
100
AcDbEntity
  8
0
100
AcDbLine
 62
7
  6
CONTINUOUS
 10
5.1590765714
 20
5.1523194303
 11
5.1590765714
 21
5.141645166
  0
LINE
  5
28E
100
AcDbEntity
  8
0
100
AcDbLine
 62
7
  6
CONTINUOUS
 10
5.1590765714
 20
5.1178694303
 11
5.1590765714
 21
5.107195166
  0
LINE
  5
28F
100
AcDbEntity
  8
0
100
AcDbLine
 62
7
  6
CONTINUOUS
 10
5.1590765714
 20
5.0834194303
 11
5.1590765714
 21
5.072745166
  0
LINE
  5
290
100
AcDbEntity
  8
0
100
AcDbLine
 62
7
  6
CONTINUOUS
 10
5.1590765714
 20
5.0489694303
 11
5.1590765714
 21
5.038295166
  0
LINE
  5
291
100
AcDbEntity
  8
0
100
AcDbLine
 62
7
  6
CONTINUOUS
 10
5.1590765714
 20
5.0145194303
 11
5.1590765714
 21
5.003845166
  0
LINE
  5
292
100
AcDbEntity
  8
0
100
AcDbLine
 62
7
  6
CONTINUOUS
 10
5.1590765714
 20
4.9800694303
 11
5.1590765714
 21
4.969395166
  0
LINE
  5
293
100
AcDbEntity
  8
0
100
AcDbLine
 62
7
  6
CONTINUOUS
 10
5.1590765714
 20
4.9456194303
 11
5.1590765714
 21
4.934945166
  0
LINE
  5
294
100
AcDbEntity
  8
0
100
AcDbLine
 62
7
  6
CONTINUOUS
 10
5.1590765714
 20
4.9111694303
 11
5.1590765714
 21
4.900495166
  0
LINE
  5
295
100
AcDbEntity
  8
0
100
AcDbLine
 62
7
  6
CONTINUOUS
 10
5.1590765714
 20
4.8767194303
 11
5.1590765714
 21
4.866045166
  0
LINE
  5
296
100
AcDbEntity
  8
0
100
AcDbLine
 62
7
  6
CONTINUOUS
 10
5.1590765714
 20
4.5322194303
 11
5.1590765714
 21
4.5265822981
  0
LINE
  5
297
100
AcDbEntity
  8
0
100
AcDbLine
 62
7
  6
CONTINUOUS
 10
5.1590765714
 20
4.555995166
 11
5.1590765714
 21
4.5568322981
  0
LINE
  5
298
100
AcDbEntity
  8
0
100
AcDbLine
 62
7
  6
CONTINUOUS
 10
5.1590765714
 20
5.313895166
 11
5.1590765714
 21
5.3218322981
  0
LINE
  5
299
100
AcDbEntity
  8
0
100
AcDbLine
 62
7
  6
CONTINUOUS
 10
5.1677095681
 20
5.9743322981
 11
5.1677095681
 21
5.9718322981
  0
LINE
  5
29A
100
AcDbEntity
  8
0
100
AcDbLine
 62
7
  6
CONTINUOUS
 10
5.1379661606
 20
4.8948381376
 11
5.1583649759
 21
4.9001264093
  0
LINE
  5
29B
100
AcDbEntity
  8
0
100
AcDbLine
 62
7
  6
CONTINUOUS
 10
5.1379661606
 20
4.9292881376
 11
5.1583649759
 21
4.9345764093
  0
LINE
  5
29C
100
AcDbEntity
  8
0
100
AcDbLine
 62
7
  6
CONTINUOUS
 10
5.1379661606
 20
4.9637381376
 11
5.1583649759
 21
4.9690264093
  0
LINE
  5
29D
100
AcDbEntity
  8
0
100
AcDbLine
 62
7
  6
CONTINUOUS
 10
5.1379661606
 20
4.9981881376
 11
5.1583649759
 21
5.0034764093
  0
LINE
  5
29E
100
AcDbEntity
  8
0
100
AcDbLine
 62
7
  6
CONTINUOUS
 10
4.5506869821
 20
4.8651514586
 11
4.5378845039
 21
4.8618322981
  0
LINE
  5
29F
100
AcDbEntity
  8
0
100
AcDbLine
 62
7
  6
CONTINUOUS
 10
4.4043265714
 20
4.7718322981
 11
5.2843265714
 21
4.7718322981
  0
LINE
  5
2A0
100
AcDbEntity
  8
0
100
AcDbLine
 62
7
  6
CONTINUOUS
 10
4.3943265714
 20
4.7968322981
 11
5.2943265714
 21
4.7968322981
  0
LINE
  5
2A1
100
AcDbEntity
  8
0
100
AcDbLine
 62
7
  6
CONTINUOUS
 10
4.3943265714
 20
4.8618322981
 11
5.2943265714
 21
4.8618322981
  0
LINE
  5
2A2
100
AcDbEntity
  8
0
100
AcDbLine
 62
7
  6
CONTINUOUS
 10
4.530288167
 20
4.8829014093
 11
4.5498787118
 21
4.8778227101
  0
LINE
  5
2A3
100
AcDbEntity
  8
0
100
AcDbLine
 62
7
  6
CONTINUOUS
 10
4.530288167
 20
4.9173514093
 11
4.5498787118
 21
4.9122727101
  0
LINE
  5
2A4
100
AcDbEntity
  8
0
100
AcDbLine
 62
7
  6
CONTINUOUS
 10
4.530288167
 20
4.9518014093
 11
4.5498787118
 21
4.9467227101
  0
LINE
  5
2A5
100
AcDbEntity
  8
0
100
AcDbLine
 62
7
  6
CONTINUOUS
 10
5.2181685334
 20
5.9718322981
 11
5.2181685334
 21
5.9743322981
  0
LINE
  5
2A6
100
AcDbEntity
  8
0
100
AcDbLine
 62
7
  6
CONTINUOUS
 10
5.2235630577
 20
5.9743322981
 11
5.2235630577
 21
5.9718322981
  0
LINE
  5
2A7
100
AcDbEntity
  8
0
100
AcDbLine
 62
7
  6
CONTINUOUS
 10
5.232682481
 20
5.9343322981
 11
5.232682481
 21
6.0153322981
  0
LINE
  5
2A8
100
AcDbEntity
  8
0
100
AcDbLine
 62
7
  6
CONTINUOUS
 10
5.2348634014
 20
6.0049918738
 11
5.2348634014
 21
5.9825876164
  0
LINE
  5
2A9
100
AcDbEntity
  8
0
100
AcDbLine
 62
7
  6
CONTINUOUS
 10
5.2348634014
 20
5.9722471921
 11
5.2348634014
 21
5.9343322981
  0
LINE
  5
2AA
100
AcDbEntity
  8
0
100
AcDbLine
 62
7
  6
CONTINUOUS
 10
5.2376897702
 20
5.9722471921
 11
5.2376897702
 21
5.9825876164
  0
LINE
  5
2AB
100
AcDbEntity
  8
0
100
AcDbLine
 62
7
  6
CONTINUOUS
 10
5.2387175835
 20
6.0049918738
 11
5.2387175835
 21
6.0153322981
  0
LINE
  5
2AC
100
AcDbEntity
  8
0
100
AcDbLine
 62
7
  6
CONTINUOUS
 10
5.2418265714
 20
4.7318322981
 11
5.2418265714
 21
4.5768322981
  0
LINE
  5
2AD
100
AcDbEntity
  8
0
100
AcDbLine
 62
7
  6
CONTINUOUS
 10
5.2428201173
 20
5.9825876164
 11
5.2428201173
 21
5.9722471921
  0
LINE
  5
2AE
100
AcDbEntity
  8
0
100
AcDbLine
 62
7
  6
CONTINUOUS
 10
5.243834732
 20
6.0153322981
 11
5.243834732
 21
6.0049918738
  0
LINE
  5
2AF
100
AcDbEntity
  8
0
100
AcDbLine
 62
7
  6
CONTINUOUS
 10
5.24570064
 20
6.0153322981
 11
5.24570064
 21
5.9343322981
  0
LINE
  5
2B0
100
AcDbEntity
  8
0
100
AcDbLine
 62
7
  6
CONTINUOUS
 10
5.2464478672
 20
5.9343322981
 11
5.2464478672
 21
5.9446727236
  0
LINE
  5
2B1
100
AcDbEntity
  8
0
100
AcDbLine
 62
7
  6
CONTINUOUS
 10
5.2469586428
 20
6.0153322981
 11
5.2469586428
 21
5.9446727236
  0
LINE
  5
2B2
100
AcDbEntity
  8
0
100
AcDbLine
 62
7
  6
CONTINUOUS
 10
5.2514678694
 20
5.9446727236
 11
5.2514678694
 21
5.9343322981
  0
LINE
  5
2B3
100
AcDbEntity
  8
0
100
AcDbLine
 62
7
  6
CONTINUOUS
 10
5.2530765714
 20
6.5143322981
 11
5.2530765714
 21
5.5964026401
  0
LINE
  5
2B4
100
AcDbEntity
  8
0
100
AcDbLine
 62
7
  6
CONTINUOUS
 10
5.2843265714
 20
4.7718322981
 11
5.2843265714
 21
4.7968322981
  0
LINE
  5
2B5
100
AcDbEntity
  8
0
100
AcDbLine
 62
7
  6
CONTINUOUS
 10
5.2943265714
 20
4.7968322981
 11
5.2943265714
 21
4.8618322981
  0
LINE
  5
2B6
100
AcDbEntity
  8
0
100
AcDbLine
 62
7
  6
CONTINUOUS
 10
5.3336309246
 20
5.5243322981
 11
5.3336309246
 21
5.4350822981
  0
LINE
  5
2B7
100
AcDbEntity
  8
0
100
AcDbLine
 62
7
  6
CONTINUOUS
 10
5.3376501625
 20
5.5243322981
 11
5.3376501625
 21
5.4350822981
  0
LINE
  5
2B8
100
AcDbEntity
  8
0
100
AcDbLine
 62
7
  6
CONTINUOUS
 10
4.8342357656
 20
3.2085644607
 11
4.7526077924
 21
3.0335127072
  0
LINE
  5
2B9
100
AcDbEntity
  8
0
100
AcDbLine
 62
7
  6
CONTINUOUS
 10
4.7362958771
 20
2.9985316921
 11
4.7359352259
 21
2.9977582731
  0
LINE
  5
2BA
100
AcDbEntity
  8
0
100
AcDbLine
 62
7
  6
CONTINUOUS
 10
4.4636112769
 20
2.4097016763
 11
4.5054093727
 21
2.4993379819
  0
LINE
  5
2BB
100
AcDbEntity
  8
0
100
AcDbLine
 62
7
  6
CONTINUOUS
 10
4.5217212879
 20
2.534318997
 11
4.5635193836
 21
2.6239553026
  0
LINE
  5
2BC
100
AcDbEntity
  8
0
100
AcDbLine
 62
7
  6
CONTINUOUS
 10
4.5798312989
 20
2.6589363177
 11
4.6216293946
 21
2.7485726233
  0
LINE
  5
2BD
100
AcDbEntity
  8
0
100
AcDbLine
 62
7
  6
CONTINUOUS
 10
4.6379413099
 20
2.7835536384
 11
4.6797394056
 21
2.873189944
  0
LINE
  5
2BE
100
AcDbEntity
  8
0
100
AcDbLine
 62
7
  6
CONTINUOUS
 10
4.6960513209
 20
2.9081709592
 11
4.7378265714
 21
2.9977582731
  0
LINE
  5
2BF
100
AcDbEntity
  8
0
100
AcDbLine
 62
7
  6
CONTINUOUS
 10
5.1379661606
 20
5.0326381376
 11
5.1583649759
 21
5.0379264093
  0
LINE
  5
2C0
100
AcDbEntity
  8
0
100
AcDbLine
 62
7
  6
CONTINUOUS
 10
4.5506869821
 20
4.8996014586
 11
4.5302881669
 21
4.894313187
  0
LINE
  5
2C1
100
AcDbEntity
  8
0
100
AcDbLine
 62
7
  6
CONTINUOUS
 10
5.1379661606
 20
5.0670881376
 11
5.1583649759
 21
5.0723764093
  0
LINE
  5
2C2
100
AcDbEntity
  8
0
100
AcDbLine
 62
7
  6
CONTINUOUS
 10
4.5506869821
 20
4.9340514586
 11
4.5302881669
 21
4.928763187
  0
LINE
  5
2C3
100
AcDbEntity
  8
0
100
AcDbLine
 62
7
  6
CONTINUOUS
 10
5.1379661606
 20
5.1015381376
 11
5.1583649759
 21
5.1068264093
  0
LINE
  5
2C4
100
AcDbEntity
  8
0
100
AcDbLine
 62
7
  6
CONTINUOUS
 10
4.5506869821
 20
4.9685014586
 11
4.5302881669
 21
4.963213187
  0
LINE
  5
2C5
100
AcDbEntity
  8
0
100
AcDbLine
 62
7
  6
CONTINUOUS
 10
5.1379661606
 20
5.1359881376
 11
5.1583649759
 21
5.1412764093
  0
LINE
  5
2C6
100
AcDbEntity
  8
0
100
AcDbLine
 62
7
  6
CONTINUOUS
 10
4.5506869821
 20
5.0029514586
 11
4.5302881669
 21
4.997663187
  0
LINE
  5
2C7
100
AcDbEntity
  8
0
100
AcDbLine
 62
7
  6
CONTINUOUS
 10
5.1379661606
 20
5.1704381376
 11
5.1583649759
 21
5.1757264093
  0
LINE
  5
2C8
100
AcDbEntity
  8
0
100
AcDbLine
 62
7
  6
CONTINUOUS
 10
4.5506869821
 20
5.0374014586
 11
4.5302881669
 21
5.032113187
  0
LINE
  5
2C9
100
AcDbEntity
  8
0
100
AcDbLine
 62
7
  6
CONTINUOUS
 10
4.530288167
 20
4.9862514093
 11
4.5498787118
 21
4.9811727101
  0
LINE
  5
2CA
100
AcDbEntity
  8
0
100
AcDbLine
 62
7
  6
CONTINUOUS
 10
4.530288167
 20
5.0207014093
 11
4.5498787118
 21
5.0156227101
  0
LINE
  5
2CB
100
AcDbEntity
  8
0
100
AcDbLine
 62
7
  6
CONTINUOUS
 10
5.158364976
 20
4.877088187
 11
5.1387265714
 21
4.882179296
  0
LINE
  5
2CC
100
AcDbEntity
  8
0
100
AcDbLine
 62
7
  6
CONTINUOUS
 10
4.530288167
 20
5.0551514093
 11
4.5498787118
 21
5.0500727101
  0
LINE
  5
2CD
100
AcDbEntity
  8
0
100
AcDbLine
 62
7
  6
CONTINUOUS
 10
5.158364976
 20
4.911538187
 11
5.1387265714
 21
4.916629296
  0
LINE
  5
2CE
100
AcDbEntity
  8
0
100
AcDbLine
 62
7
  6
CONTINUOUS
 10
4.530288167
 20
5.0896014093
 11
4.5498787118
 21
5.0845227101
  0
LINE
  5
2CF
100
AcDbEntity
  8
0
100
AcDbLine
 62
7
  6
CONTINUOUS
 10
5.158364976
 20
4.945988187
 11
5.1387265714
 21
4.951079296
  0
LINE
  5
2D0
100
AcDbEntity
  8
0
100
AcDbLine
 62
7
  6
CONTINUOUS
 10
4.530288167
 20
5.1240514093
 11
4.5498787118
 21
5.1189727101
  0
LINE
  5
2D1
100
AcDbEntity
  8
0
100
AcDbLine
 62
7
  6
CONTINUOUS
 10
5.4018265714
 20
5.3218322981
 11
5.4018265714
 21
5.390441282
  0
LINE
  5
2D2
100
AcDbEntity
  8
0
100
AcDbLine
 62
7
  6
CONTINUOUS
 10
5.1379661606
 20
5.2048881376
 11
5.1583649759
 21
5.2101764093
  0
LINE
  5
2D3
100
AcDbEntity
  8
0
100
AcDbLine
 62
7
  6
CONTINUOUS
 10
4.5506869821
 20
5.0718514586
 11
4.5302881669
 21
5.066563187
  0
LINE
  5
2D4
100
AcDbEntity
  8
0
100
AcDbLine
 62
7
  6
CONTINUOUS
 10
5.1379661606
 20
5.2393381376
 11
5.1583649759
 21
5.2446264093
  0
LINE
  5
2D5
100
AcDbEntity
  8
0
100
AcDbLine
 62
7
  6
CONTINUOUS
 10
4.5506869821
 20
5.1063014586
 11
4.5302881669
 21
5.101013187
  0
LINE
  5
2D6
100
AcDbEntity
  8
0
100
AcDbLine
 62
7
  6
CONTINUOUS
 10
5.1379661606
 20
5.2737881376
 11
5.1583649759
 21
5.2790764093
  0
LINE
  5
2D7
100
AcDbEntity
  8
0
100
AcDbLine
 62
7
  6
CONTINUOUS
 10
4.5506869821
 20
5.1407514586
 11
4.5302881669
 21
5.135463187
  0
LINE
  5
2D8
100
AcDbEntity
  8
0
100
AcDbLine
 62
7
  6
CONTINUOUS
 10
5.1379661606
 20
5.3082381376
 11
5.1583649759
 21
5.3135264093
  0
LINE
  5
2D9
100
AcDbEntity
  8
0
100
AcDbLine
 62
7
  6
CONTINUOUS
 10
4.5506869821
 20
5.1752014586
 11
4.5302881669
 21
5.169913187
  0
LINE
  5
2DA
100
AcDbEntity
  8
0
100
AcDbLine
 62
7
  6
CONTINUOUS
 10
5.158364976
 20
4.980438187
 11
5.1387265714
 21
4.985529296
  0
LINE
  5
2DB
100
AcDbEntity
  8
0
100
AcDbLine
 62
7
  6
CONTINUOUS
 10
4.530288167
 20
5.1585014093
 11
4.5498787118
 21
5.1534227101
  0
LINE
  5
2DC
100
AcDbEntity
  8
0
100
AcDbLine
 62
7
  6
CONTINUOUS
 10
5.158364976
 20
5.014888187
 11
5.1387265714
 21
5.019979296
  0
LINE
  5
2DD
100
AcDbEntity
  8
0
100
AcDbLine
 62
7
  6
CONTINUOUS
 10
4.530288167
 20
5.1929514093
 11
4.5498787118
 21
5.1878727101
  0
LINE
  5
2DE
100
AcDbEntity
  8
0
100
AcDbLine
 62
7
  6
CONTINUOUS
 10
5.158364976
 20
5.049338187
 11
5.1387265714
 21
5.054429296
  0
LINE
  5
2DF
100
AcDbEntity
  8
0
100
AcDbLine
 62
7
  6
CONTINUOUS
 10
4.530288167
 20
5.2274014093
 11
4.5498787118
 21
5.2223227101
  0
LINE
  5
2E0
100
AcDbEntity
  8
0
100
AcDbLine
 62
7
  6
CONTINUOUS
 10
5.158364976
 20
5.083788187
 11
5.1387265714
 21
5.088879296
  0
LINE
  5
2E1
100
AcDbEntity
  8
0
100
AcDbLine
 62
7
  6
CONTINUOUS
 10
4.530288167
 20
5.2618514093
 11
4.5498787118
 21
5.2567727101
  0
LINE
  5
2E2
100
AcDbEntity
  8
0
100
AcDbLine
 62
7
  6
CONTINUOUS
 10
5.158364976
 20
5.118238187
 11
5.1387265714
 21
5.123329296
  0
LINE
  5
2E3
100
AcDbEntity
  8
0
100
AcDbLine
 62
7
  6
CONTINUOUS
 10
5.2530765714
 20
5.5964026401
 11
5.2616745943
 21
5.5364621375
  0
LINE
  5
2E4
100
AcDbEntity
  8
0
100
AcDbLine
 62
7
  6
CONTINUOUS
 10
4.5506869821
 20
5.2096514586
 11
4.5302881669
 21
5.204363187
  0
LINE
  5
2E5
100
AcDbEntity
  8
0
100
AcDbLine
 62
7
  6
CONTINUOUS
 10
4.5506869821
 20
5.2441014586
 11
4.5302881669
 21
5.238813187
  0
LINE
  5
2E6
100
AcDbEntity
  8
0
100
AcDbLine
 62
7
  6
CONTINUOUS
 10
4.5506869821
 20
5.2785514586
 11
4.5302881669
 21
5.273263187
  0
LINE
  5
2E7
100
AcDbEntity
  8
0
100
AcDbLine
 62
7
  6
CONTINUOUS
 10
4.5506869821
 20
5.3130014586
 11
4.5302881669
 21
5.307713187
  0
LINE
  5
2E8
100
AcDbEntity
  8
0
100
AcDbLine
 62
7
  6
CONTINUOUS
 10
4.2868265714
 20
5.3218322981
 11
5.4018265714
 21
5.3218322981
  0
LINE
  5
2E9
100
AcDbEntity
  8
0
100
AcDbLine
 62
7
  6
CONTINUOUS
 10
4.530288167
 20
5.2963014093
 11
4.5498787118
 21
5.2912227101
  0
LINE
  5
2EA
100
AcDbEntity
  8
0
100
AcDbLine
 62
7
  6
CONTINUOUS
 10
5.158364976
 20
5.152688187
 11
5.1387265714
 21
5.157779296
  0
LINE
  5
2EB
100
AcDbEntity
  8
0
100
AcDbLine
 62
7
  6
CONTINUOUS
 10
5.158364976
 20
5.187138187
 11
5.1387265714
 21
5.192229296
  0
LINE
  5
2EC
100
AcDbEntity
  8
0
100
AcDbLine
 62
7
  6
CONTINUOUS
 10
5.158364976
 20
5.221588187
 11
5.1387265714
 21
5.226679296
  0
LINE
  5
2ED
100
AcDbEntity
  8
0
100
AcDbLine
 62
7
  6
CONTINUOUS
 10
5.158364976
 20
5.256038187
 11
5.1387265714
 21
5.261129296
  0
LINE
  5
2EE
100
AcDbEntity
  8
0
100
AcDbLine
 62
7
  6
CONTINUOUS
 10
5.2616745943
 20
5.5364621375
 11
5.2468265714
 21
5.5343322981
  0
LINE
  5
2EF
100
AcDbEntity
  8
0
100
AcDbLine
 62
7
  6
CONTINUOUS
 10
5.4018265714
 20
5.390441282
 11
4.2868265714
 21
5.390441282
  0
LINE
  5
2F0
100
AcDbEntity
  8
0
100
AcDbLine
 62
7
  6
CONTINUOUS
 10
5.3968265714
 20
5.399101536
 11
4.2918265714
 21
5.399101536
  0
LINE
  5
2F1
100
AcDbEntity
  8
0
100
AcDbLine
 62
7
  6
CONTINUOUS
 10
4.3345060634
 20
5.4237425522
 11
5.3541470795
 21
5.4237425522
  0
LINE
  5
2F2
100
AcDbEntity
  8
0
100
AcDbLine
 62
7
  6
CONTINUOUS
 10
4.3395060634
 20
5.4250822981
 11
5.3491470795
 21
5.4250822981
  0
LINE
  5
2F3
100
AcDbEntity
  8
0
100
AcDbLine
 62
7
  6
CONTINUOUS
 10
4.3510029804
 20
5.4350822981
 11
5.3376501625
 21
5.4350822981
  0
LINE
  5
2F4
100
AcDbEntity
  8
0
100
AcDbLine
 62
7
  6
CONTINUOUS
 10
4.4269785485
 20
5.5364621375
 11
4.4418265714
 21
5.5343322981
  0
LINE
  5
2F5
100
AcDbEntity
  8
0
100
AcDbLine
 62
7
  6
CONTINUOUS
 10
5.158364976
 20
5.290488187
 11
5.1387265714
 21
5.295579296
  0
LINE
  5
2F6
100
AcDbEntity
  8
0
100
AcDbLine
 62
7
  6
CONTINUOUS
 10
4.3510029804
 20
5.5243322981
 11
5.3376501625
 21
5.5243322981
  0
LINE
  5
2F7
100
AcDbEntity
  8
0
100
AcDbLine
 62
7
  6
CONTINUOUS
 10
4.3610029804
 20
5.5343322981
 11
5.3276501625
 21
5.5343322981
  0
LINE
  5
2F8
100
AcDbEntity
  8
0
100
AcDbLine
 62
7
  6
CONTINUOUS
 10
4.4269785485
 20
5.5364621375
 11
5.2616745943
 21
5.5364621375
  0
LINE
  5
2F9
100
AcDbEntity
  8
0
100
AcDbLine
 62
7
  6
CONTINUOUS
 10
4.4355765714
 20
5.5964026401
 11
5.2530765714
 21
5.5964026401
  0
LINE
  5
2FA
100
AcDbEntity
  8
0
100
AcDbLine
 62
7
  6
CONTINUOUS
 10
5.3541470795
 20
5.4237425522
 11
5.3968265714
 21
5.399101536
  0
LINE
  5
2FB
100
AcDbEntity
  8
0
100
AcDbLine
 62
7
  6
CONTINUOUS
 10
5.0423265714
 20
5.8743322981
 11
4.6503265714
 21
5.8743322981
  0
LINE
  5
2FC
100
AcDbEntity
  8
0
100
AcDbLine
 62
7
  6
CONTINUOUS
 10
5.2514678694
 20
5.9343322981
 11
5.24570064
 21
5.9343322981
  0
LINE
  5
2FD
100
AcDbEntity
  8
0
100
AcDbLine
 62
7
  6
CONTINUOUS
 10
5.2348634014
 20
5.9343322981
 11
5.232682481
 21
5.9343322981
  0
LINE
  5
2FE
100
AcDbEntity
  8
0
100
AcDbLine
 62
7
  6
CONTINUOUS
 10
5.24570064
 20
5.9446727236
 11
5.2514678694
 21
5.9446727236
  0
LINE
  5
2FF
100
AcDbEntity
  8
0
100
AcDbLine
 62
7
  6
CONTINUOUS
 10
5.2235630577
 20
5.9718322981
 11
5.1677095681
 21
5.9718322981
  0
LINE
  5
300
100
AcDbEntity
  8
0
100
AcDbLine
 62
7
  6
CONTINUOUS
 10
5.0423265714
 20
5.9718322981
 11
4.6503265714
 21
5.9718322981
  0
LINE
  5
301
100
AcDbEntity
  8
0
100
AcDbLine
 62
7
  6
CONTINUOUS
 10
5.232682481
 20
5.9722471921
 11
5.2428201173
 21
5.9722471921
  0
LINE
  5
302
100
AcDbEntity
  8
0
100
AcDbLine
 62
7
  6
CONTINUOUS
 10
5.2235630577
 20
5.9743322981
 11
5.1677095681
 21
5.9743322981
  0
LINE
  5
303
100
AcDbEntity
  8
0
100
AcDbLine
 62
7
  6
CONTINUOUS
 10
5.232682481
 20
5.9825876164
 11
5.2428201173
 21
5.9825876164
  0
LINE
  5
304
100
AcDbEntity
  8
0
100
AcDbLine
 62
7
  6
CONTINUOUS
 10
5.232682481
 20
6.0049918738
 11
5.243834732
 21
6.0049918738
  0
LINE
  5
305
100
AcDbEntity
  8
0
100
AcDbLine
 62
7
  6
CONTINUOUS
 10
5.2469586428
 20
6.0153322981
 11
5.24570064
 21
6.0153322981
  0
LINE
  5
306
100
AcDbEntity
  8
0
100
AcDbLine
 62
7
  6
CONTINUOUS
 10
5.232682481
 20
6.0153322981
 11
5.243834732
 21
6.0153322981
  0
LINE
  5
307
100
AcDbEntity
  8
0
100
AcDbLine
 62
7
  6
CONTINUOUS
 10
5.0423265714
 20
6.0713322981
 11
4.6503265714
 21
6.0713322981
  0
LINE
  5
308
100
AcDbEntity
  8
0
100
AcDbLine
 62
7
  6
CONTINUOUS
 10
5.0423265714
 20
6.1688322981
 11
4.6503265714
 21
6.1688322981
  0
LINE
  5
309
100
AcDbEntity
  8
0
100
AcDbLine
 62
7
  6
CONTINUOUS
 10
4.4355765714
 20
6.5143322981
 11
5.2530765714
 21
6.5143322981
  0
LINE
  5
30A
100
AcDbEntity
  8
0
100
AcDbLine
 62
7
  6
CONTINUOUS
 10
5.1380756227
 20
6.6293322981
 11
4.5505765714
 21
6.6293322981
  0
ARC
  5
30B
100
AcDbEntity
  8
0
100
AcDbCircle
 62
7
  6
CONTINUOUS
 10
4.4506972034
 20
2.3944299146
 40
0.02
100
AcDbArc
 50
260.0684881595
 51
49.7815448422
  0
ARC
  5
30C
100
AcDbEntity
  8
0
100
AcDbCircle
 62
7
  6
CONTINUOUS
 10
4.0732200101
 20
2.5704504206
 40
0.02
100
AcDbArc
 50
80.2184551578
 51
229.9315118405
  0
ARC
  5
30D
100
AcDbEntity
  8
0
100
AcDbCircle
 62
7
  6
CONTINUOUS
 10
4.1313300211
 20
2.6950677413
 40
0.02
100
AcDbArc
 50
80.2184551578
 51
229.7815448422
  0
ARC
  5
30E
100
AcDbEntity
  8
0
100
AcDbCircle
 62
7
  6
CONTINUOUS
 10
4.5088072144
 20
2.5190472353
 40
0.02
100
AcDbArc
 50
260.2184551578
 51
49.7815448422
  0
ARC
  5
30F
100
AcDbEntity
  8
0
100
AcDbCircle
 62
7
  6
CONTINUOUS
 10
4.1894400321
 20
2.819685062
 40
0.02
100
AcDbArc
 50
80.2184551578
 51
229.7815448422
  0
ARC
  5
310
100
AcDbEntity
  8
0
100
AcDbCircle
 62
7
  6
CONTINUOUS
 10
4.5669172254
 20
2.643664556
 40
0.02
100
AcDbArc
 50
260.2184551578
 51
49.7815448422
  0
ARC
  5
311
100
AcDbEntity
  8
0
100
AcDbCircle
 62
7
  6
CONTINUOUS
 10
4.2475500431
 20
2.9443023828
 40
0.02
100
AcDbArc
 50
80.2184551578
 51
229.7815448422
  0
ARC
  5
312
100
AcDbEntity
  8
0
100
AcDbCircle
 62
7
  6
CONTINUOUS
 10
4.6250272364
 20
2.7682818767
 40
0.02
100
AcDbArc
 50
260.2184551578
 51
49.7815448422
  0
ARC
  5
313
100
AcDbEntity
  8
0
100
AcDbCircle
 62
7
  6
CONTINUOUS
 10
4.3056600541
 20
3.0689197035
 40
0.02
100
AcDbArc
 50
80.2184551578
 51
229.7815448422
  0
ARC
  5
314
100
AcDbEntity
  8
0
100
AcDbCircle
 62
7
  6
CONTINUOUS
 10
4.6831372474
 20
2.8928991975
 40
0.02
100
AcDbArc
 50
260.2184551578
 51
49.7815448422
  0
ARC
  5
315
100
AcDbEntity
  8
0
100
AcDbCircle
 62
7
  6
CONTINUOUS
 10
4.3637700651
 20
3.1935370242
 40
0.02
100
AcDbArc
 50
80.2184551578
 51
229.7815448422
  0
ARC
  5
316
100
AcDbEntity
  8
0
100
AcDbCircle
 62
7
  6
CONTINUOUS
 10
4.5505765714
 20
6.5143322981
 40
0.115
100
AcDbArc
 50
90.0
 51
180.0
  0
ARC
  5
317
100
AcDbEntity
  8
0
100
AcDbCircle
 62
7
  6
CONTINUOUS
 10
4.6503265714
 20
6.1200822981
 40
0.04875
100
AcDbArc
 50
90.0
 51
270.0
  0
ARC
  5
318
100
AcDbEntity
  8
0
100
AcDbCircle
 62
7
  6
CONTINUOUS
 10
4.6503265714
 20
5.9230822981
 40
0.04875
100
AcDbArc
 50
90.0
 51
270.0
  0
ARC
  5
319
100
AcDbEntity
  8
0
100
AcDbCircle
 62
7
  6
CONTINUOUS
 10
4.4443265714
 20
4.7718322981
 40
0.04
100
AcDbArc
 50
180.0
 51
270.0
  0
ARC
  5
31A
100
AcDbEntity
  8
0
100
AcDbCircle
 62
7
  6
CONTINUOUS
 10
4.4668265714
 20
4.5768322981
 40
0.02
100
AcDbArc
 50
180.0
 51
270.0
  0
ARC
  5
31B
100
AcDbEntity
  8
0
100
AcDbCircle
 62
7
  6
CONTINUOUS
 10
4.3410029804
 20
5.4350822981
 40
0.01
100
AcDbArc
 50
270.0
 51
360.0
  0
ARC
  5
31C
100
AcDbEntity
  8
0
100
AcDbCircle
 62
7
  6
CONTINUOUS
 10
4.3610029804
 20
5.5243322981
 40
0.01
100
AcDbArc
 50
90.0
 51
180.0
  0
ARC
  5
31D
100
AcDbEntity
  8
0
100
AcDbCircle
 62
7
  6
CONTINUOUS
 10
4.3395060634
 20
5.4150822981
 40
0.01
100
AcDbArc
 50
90.0
 51
119.9999999998
  0
ARC
  5
31E
100
AcDbEntity
  8
0
100
AcDbCircle
 62
7
  6
CONTINUOUS
 10
4.2968265714
 20
5.390441282
 40
0.01
100
AcDbArc
 50
119.9999999994
 51
180.0
  0
ARC
  5
31F
100
AcDbEntity
  8
0
100
AcDbCircle
 62
7
  6
CONTINUOUS
 10
4.3636833615
 20
5.5268381322
 40
0.007494166
100
AcDbArc
 50
90.006797773
 51
94.9608905215
  0
ARC
  5
320
100
AcDbEntity
  8
0
100
AcDbCircle
 62
7
  6
CONTINUOUS
 10
4.8443265714
 20
3.7313322981
 40
0.2925
100
AcDbArc
 50
180.0
 51
198.1207707255
  0
ARC
  5
321
100
AcDbEntity
  8
0
100
AcDbCircle
 62
7
  6
CONTINUOUS
 10
4.8443265714
 20
3.7313322981
 40
0.2925
100
AcDbArc
 50
357.4036616889
 51
360.0
  0
ARC
  5
322
100
AcDbEntity
  8
0
100
AcDbCircle
 62
7
  6
CONTINUOUS
 10
5.1334435927
 20
2.2575822981
 40
0.0151329787
100
AcDbArc
 50
282.9176327574
 51
77.0823672426
  0
ARC
  5
323
100
AcDbEntity
  8
0
100
AcDbCircle
 62
7
  6
CONTINUOUS
 10
4.8352095502
 20
2.2575822981
 40
0.0151329787
100
AcDbArc
 50
102.9176327574
 51
257.0823672426
  0
ARC
  5
324
100
AcDbEntity
  8
0
100
AcDbCircle
 62
7
  6
CONTINUOUS
 10
5.1334435927
 20
2.3655822981
 40
0.0151329787
100
AcDbArc
 50
282.9176327574
 51
77.0823672426
  0
ARC
  5
325
100
AcDbEntity
  8
0
100
AcDbCircle
 62
7
  6
CONTINUOUS
 10
4.8352095502
 20
2.3655822981
 40
0.0151329787
100
AcDbArc
 50
102.9176327574
 51
257.0823672426
  0
ARC
  5
326
100
AcDbEntity
  8
0
100
AcDbCircle
 62
7
  6
CONTINUOUS
 10
5.1334435927
 20
2.4735822981
 40
0.0151329787
100
AcDbArc
 50
282.9176327574
 51
77.0823672426
  0
ARC
  5
327
100
AcDbEntity
  8
0
100
AcDbCircle
 62
7
  6
CONTINUOUS
 10
4.8352095502
 20
2.4735822981
 40
0.0151329787
100
AcDbArc
 50
102.9176327574
 51
257.0823672426
  0
ARC
  5
328
100
AcDbEntity
  8
0
100
AcDbCircle
 62
7
  6
CONTINUOUS
 10
5.1334435927
 20
2.5815822981
 40
0.0151329787
100
AcDbArc
 50
282.9176327574
 51
77.0823672426
  0
ARC
  5
329
100
AcDbEntity
  8
0
100
AcDbCircle
 62
7
  6
CONTINUOUS
 10
4.8352095502
 20
2.5815822981
 40
0.0151329787
100
AcDbArc
 50
102.9176327574
 51
257.0823672426
  0
ARC
  5
32A
100
AcDbEntity
  8
0
100
AcDbCircle
 62
7
  6
CONTINUOUS
 10
5.1334435927
 20
2.6895822981
 40
0.0151329787
100
AcDbArc
 50
282.9176327574
 51
77.0823672426
  0
ARC
  5
32B
100
AcDbEntity
  8
0
100
AcDbCircle
 62
7
  6
CONTINUOUS
 10
4.8352095502
 20
2.6895822981
 40
0.0151329787
100
AcDbArc
 50
102.9176327574
 51
257.0823672426
  0
ARC
  5
32C
100
AcDbEntity
  8
0
100
AcDbCircle
 62
7
  6
CONTINUOUS
 10
5.1334435927
 20
2.7975822981
 40
0.0151329787
100
AcDbArc
 50
282.9176327574
 51
77.0823672426
  0
ARC
  5
32D
100
AcDbEntity
  8
0
100
AcDbCircle
 62
7
  6
CONTINUOUS
 10
4.8352095502
 20
2.7975822981
 40
0.0151329787
100
AcDbArc
 50
102.9176327574
 51
257.0823672426
  0
ARC
  5
32E
100
AcDbEntity
  8
0
100
AcDbCircle
 62
7
  6
CONTINUOUS
 10
5.1380765714
 20
6.5143322981
 40
0.115
100
AcDbArc
 50
0.0
 51
90.0
  0
ARC
  5
32F
100
AcDbEntity
  8
0
100
AcDbCircle
 62
7
  6
CONTINUOUS
 10
5.0423265714
 20
5.9230822981
 40
0.04875
100
AcDbArc
 50
270.0
 51
90.0
  0
ARC
  5
330
100
AcDbEntity
  8
0
100
AcDbCircle
 62
7
  6
CONTINUOUS
 10
5.0423265714
 20
6.1200822981
 40
0.04875
100
AcDbArc
 50
270.0
 51
90.0
  0
ARC
  5
331
100
AcDbEntity
  8
0
100
AcDbCircle
 62
7
  6
CONTINUOUS
 10
5.2443265714
 20
4.7718322981
 40
0.04
100
AcDbArc
 50
270.0
 51
360.0
  0
ARC
  5
332
100
AcDbEntity
  8
0
100
AcDbCircle
 62
7
  6
CONTINUOUS
 10
5.2218265714
 20
4.5768322981
 40
0.02
100
AcDbArc
 50
270.0
 51
360.0
  0
ARC
  5
333
100
AcDbEntity
  8
0
100
AcDbCircle
 62
7
  6
CONTINUOUS
 10
5.3476501625
 20
5.4350822981
 40
0.01
100
AcDbArc
 50
180.0
 51
270.0
  0
ARC
  5
334
100
AcDbEntity
  8
0
100
AcDbCircle
 62
7
  6
CONTINUOUS
 10
5.3276501625
 20
5.5243322981
 40
0.01
100
AcDbArc
 50
0.0
 51
90.0
  0
ARC
  5
335
100
AcDbEntity
  8
0
100
AcDbCircle
 62
7
  6
CONTINUOUS
 10
5.3491470795
 20
5.4150822981
 40
0.01
100
AcDbArc
 50
60.0000000002
 51
90.0
  0
ARC
  5
336
100
AcDbEntity
  8
0
100
AcDbCircle
 62
7
  6
CONTINUOUS
 10
5.3918265714
 20
5.390441282
 40
0.01
100
AcDbArc
 50
0.0
 51
60.0000000006
  0
ARC
  5
337
100
AcDbEntity
  8
0
100
AcDbCircle
 62
7
  6
CONTINUOUS
 10
5.1360875306
 20
5.0743454622
 40
0.0074965303
100
AcDbArc
 50
282.8635581342
 51
284.5129238229
  0
ARC
  5
338
100
AcDbEntity
  8
0
100
AcDbCircle
 62
7
  6
CONTINUOUS
 10
5.3249697814
 20
5.5268381322
 40
0.007494166
100
AcDbArc
 50
85.0391094801
 51
89.9932022269
  0
ARC
  5
339
100
AcDbEntity
  8
0
100
AcDbCircle
 62
7
  6
CONTINUOUS
 10
5.1361335878
 20
5.0397150525
 40
0.0073103204
100
AcDbArc
 50
283.1541380567
 51
284.517346961
  0
ARC
  5
33A
100
AcDbEntity
  8
0
100
AcDbCircle
 62
7
  6
CONTINUOUS
 10
5.1361802691
 20
5.0050798958
 40
0.0071193645
100
AcDbArc
 50
283.4455646855
 51
284.526902763
  0
ARC
  5
33B
100
AcDbEntity
  8
0
100
AcDbCircle
 62
7
  6
CONTINUOUS
 10
5.1362292887
 20
4.9704389567
 40
0.0069222606
100
AcDbArc
 50
283.7483727707
 51
284.5314104399
  0
ARC
  5
33C
100
AcDbEntity
  8
0
100
AcDbCircle
 62
7
  6
CONTINUOUS
 10
5.1567089638
 20
4.975417278
 40
0.0066018762
100
AcDbArc
 50
283.5491185265
 51
284.5250157514
  0
ARC
  5
33D
100
AcDbEntity
  8
0
100
AcDbCircle
 62
7
  6
CONTINUOUS
 10
5.1567089638
 20
4.872067278
 40
0.0066018762
100
AcDbArc
 50
283.5491185279
 51
284.5250157509
  0
ARC
  5
33E
100
AcDbEntity
  8
0
100
AcDbCircle
 62
7
  6
CONTINUOUS
 10
5.1567089638
 20
5.009867278
 40
0.0066018762
100
AcDbArc
 50
283.549118526
 51
284.5250157515
  0
ARC
  5
33F
100
AcDbEntity
  8
0
100
AcDbCircle
 62
7
  6
CONTINUOUS
 10
5.1567089638
 20
5.216567278
 40
0.0066018762
100
AcDbArc
 50
283.5491185261
 51
284.5250157504
  0
ARC
  5
340
100
AcDbEntity
  8
0
100
AcDbCircle
 62
7
  6
CONTINUOUS
 10
5.1567089638
 20
5.285467278
 40
0.0066018762
100
AcDbArc
 50
283.5491185265
 51
284.5250157508
  0
ARC
  5
341
100
AcDbEntity
  8
0
100
AcDbCircle
 62
7
  6
CONTINUOUS
 10
5.1567089638
 20
5.113217278
 40
0.0066018762
100
AcDbArc
 50
283.5491185257
 51
284.5250157516
  0
ARC
  5
342
100
AcDbEntity
  8
0
100
AcDbCircle
 62
7
  6
CONTINUOUS
 10
5.1567089638
 20
5.147667278
 40
0.0066018762
100
AcDbArc
 50
283.5491185256
 51
284.525015752
  0
ARC
  5
343
100
AcDbEntity
  8
0
100
AcDbCircle
 62
7
  6
CONTINUOUS
 10
5.1567089638
 20
4.906517278
 40
0.0066018762
100
AcDbArc
 50
283.5491185254
 51
284.5250157519
  0
ARC
  5
344
100
AcDbEntity
  8
0
100
AcDbCircle
 62
7
  6
CONTINUOUS
 10
5.1567089638
 20
5.078767278
 40
0.0066018762
100
AcDbArc
 50
283.5491185243
 51
284.5250157532
  0
ARC
  5
345
100
AcDbEntity
  8
0
100
AcDbCircle
 62
7
  6
CONTINUOUS
 10
5.1567089638
 20
5.251017278
 40
0.0066018762
100
AcDbArc
 50
283.5491185243
 51
284.5250157521
  0
ARC
  5
346
100
AcDbEntity
  8
0
100
AcDbCircle
 62
7
  6
CONTINUOUS
 10
5.1567089756
 20
5.1821172321
 40
0.0066018288
100
AcDbArc
 50
283.5491997954
 51
284.5250171714
  0
ARC
  5
347
100
AcDbEntity
  8
0
100
AcDbCircle
 62
7
  6
CONTINUOUS
 10
5.1567089812
 20
5.0443172102
 40
0.0066018062
100
AcDbArc
 50
283.5492382596
 51
284.5250178553
  0
LINE
  5
348
100
AcDbEntity
  8
0
100
AcDbLine
 62
7
  6
CONTINUOUS
 10
5.1590764676
 20
5.3138951659
 11
5.1583649746
 21
5.3135264092
  0
LINE
  5
349
100
AcDbEntity
  8
0
100
AcDbLine
 62
7
  6
CONTINUOUS
 10
5.1583647322
 20
4.5325881868
 11
5.1590765714
 21
4.5322194303
  0
LINE
  5
34A
100
AcDbEntity
  8
0
100
AcDbLine
 62
7
  6
CONTINUOUS
 10
4.5302884107
 20
4.5498131868
 11
4.5295765714
 21
4.5494444303
  0
LINE
  5
34B
100
AcDbEntity
  8
0
100
AcDbLine
 62
7
  6
CONTINUOUS
 10
4.5302883787
 20
4.5384014094
 11
4.5295765714
 21
4.538770166
  0
LINE
  5
34C
100
AcDbEntity
  8
0
100
AcDbLine
 62
7
  6
CONTINUOUS
 10
5.1583647322
 20
4.8770881868
 11
5.1590765714
 21
4.8767194303
  0
LINE
  5
34D
100
AcDbEntity
  8
0
100
AcDbLine
 62
7
  6
CONTINUOUS
 10
4.5302881689
 20
4.894313187
 11
4.5295765714
 21
4.8939444303
  0
LINE
  5
34E
100
AcDbEntity
  8
0
100
AcDbLine
 62
7
  6
CONTINUOUS
 10
5.1583647322
 20
4.9115381868
 11
5.1590765714
 21
4.9111694303
  0
LINE
  5
34F
100
AcDbEntity
  8
0
100
AcDbLine
 62
7
  6
CONTINUOUS
 10
5.1583647322
 20
4.9459881868
 11
5.1590765714
 21
4.9456194303
  0
LINE
  5
350
100
AcDbEntity
  8
0
100
AcDbLine
 62
7
  6
CONTINUOUS
 10
5.1583647322
 20
4.9804381868
 11
5.1590765714
 21
4.9800694303
  0
LINE
  5
351
100
AcDbEntity
  8
0
100
AcDbLine
 62
7
  6
CONTINUOUS
 10
5.1583647264
 20
5.0148881868
 11
5.1590765714
 21
5.0145194303
  0
LINE
  5
352
100
AcDbEntity
  8
0
100
AcDbLine
 62
7
  6
CONTINUOUS
 10
4.5302884107
 20
4.9287631868
 11
4.5295765714
 21
4.9283944303
  0
LINE
  5
353
100
AcDbEntity
  8
0
100
AcDbLine
 62
7
  6
CONTINUOUS
 10
4.5302884107
 20
4.9632131868
 11
4.5295765714
 21
4.9628444303
  0
LINE
  5
354
100
AcDbEntity
  8
0
100
AcDbLine
 62
7
  6
CONTINUOUS
 10
4.5302884107
 20
4.9976631868
 11
4.5295765714
 21
4.9972944303
  0
LINE
  5
355
100
AcDbEntity
  8
0
100
AcDbLine
 62
7
  6
CONTINUOUS
 10
5.1583647322
 20
5.0493381868
 11
5.1590765714
 21
5.0489694303
  0
LINE
  5
356
100
AcDbEntity
  8
0
100
AcDbLine
 62
7
  6
CONTINUOUS
 10
5.1583647322
 20
5.0837881868
 11
5.1590765714
 21
5.0834194303
  0
LINE
  5
357
100
AcDbEntity
  8
0
100
AcDbLine
 62
7
  6
CONTINUOUS
 10
5.1583647322
 20
5.1182381868
 11
5.1590765714
 21
5.1178694303
  0
LINE
  5
358
100
AcDbEntity
  8
0
100
AcDbLine
 62
7
  6
CONTINUOUS
 10
5.1583649795
 20
5.152688187
 11
5.1590765714
 21
5.1523194303
  0
LINE
  5
359
100
AcDbEntity
  8
0
100
AcDbLine
 62
7
  6
CONTINUOUS
 10
4.5302884107
 20
5.0321131868
 11
4.5295765714
 21
5.0317444303
  0
LINE
  5
35A
100
AcDbEntity
  8
0
100
AcDbLine
 62
7
  6
CONTINUOUS
 10
4.5302884107
 20
5.0665631868
 11
4.5295765714
 21
5.0661944303
  0
LINE
  5
35B
100
AcDbEntity
  8
0
100
AcDbLine
 62
7
  6
CONTINUOUS
 10
4.5295765714
 20
4.883270166
 11
4.5302884108
 21
4.8829014094
  0
LINE
  5
35C
100
AcDbEntity
  8
0
100
AcDbLine
 62
7
  6
CONTINUOUS
 10
4.5302884107
 20
5.1010131868
 11
4.5295765714
 21
5.1006444303
  0
LINE
  5
35D
100
AcDbEntity
  8
0
100
AcDbLine
 62
7
  6
CONTINUOUS
 10
4.5295765714
 20
4.917720166
 11
4.5302884108
 21
4.9173514094
  0
LINE
  5
35E
100
AcDbEntity
  8
0
100
AcDbLine
 62
7
  6
CONTINUOUS
 10
4.5295765714
 20
4.952170166
 11
4.5302884108
 21
4.9518014094
  0
LINE
  5
35F
100
AcDbEntity
  8
0
100
AcDbLine
 62
7
  6
CONTINUOUS
 10
4.5302884107
 20
5.1354631868
 11
4.5295765714
 21
5.1350944303
  0
LINE
  5
360
100
AcDbEntity
  8
0
100
AcDbLine
 62
7
  6
CONTINUOUS
 10
4.5295765714
 20
4.986620166
 11
4.5302884108
 21
4.9862514094
  0
LINE
  5
361
100
AcDbEntity
  8
0
100
AcDbLine
 62
7
  6
CONTINUOUS
 10
4.5295765714
 20
5.021070166
 11
4.5302884108
 21
5.0207014094
  0
LINE
  5
362
100
AcDbEntity
  8
0
100
AcDbLine
 62
7
  6
CONTINUOUS
 10
4.5295765714
 20
5.055520166
 11
4.5302884038
 21
5.0551514094
  0
LINE
  5
363
100
AcDbEntity
  8
0
100
AcDbLine
 62
7
  6
CONTINUOUS
 10
4.5295765714
 20
5.089970166
 11
4.5302884108
 21
5.0896014094
  0
LINE
  5
364
100
AcDbEntity
  8
0
100
AcDbLine
 62
7
  6
CONTINUOUS
 10
4.5295765714
 20
5.124420166
 11
4.5302884108
 21
5.1240514094
  0
LINE
  5
365
100
AcDbEntity
  8
0
100
AcDbLine
 62
7
  6
CONTINUOUS
 10
4.5295765714
 20
5.158870166
 11
4.5302884108
 21
5.1585014094
  0
LINE
  5
366
100
AcDbEntity
  8
0
100
AcDbLine
 62
7
  6
CONTINUOUS
 10
4.5295765714
 20
5.193320166
 11
4.5302884
 21
5.1929514094
  0
LINE
  5
367
100
AcDbEntity
  8
0
100
AcDbLine
 62
7
  6
CONTINUOUS
 10
4.5295765714
 20
5.227770166
 11
4.5302884108
 21
5.2274014094
  0
LINE
  5
368
100
AcDbEntity
  8
0
100
AcDbLine
 62
7
  6
CONTINUOUS
 10
4.5295765714
 20
5.262220166
 11
4.5302884108
 21
5.2618514094
  0
LINE
  5
369
100
AcDbEntity
  8
0
100
AcDbLine
 62
7
  6
CONTINUOUS
 10
4.5295765714
 20
5.296670166
 11
4.5302884108
 21
5.2963014094
  0
LINE
  5
36A
100
AcDbEntity
  8
0
100
AcDbLine
 62
7
  6
CONTINUOUS
 10
5.1590765714
 20
4.866045166
 11
5.1583647321
 21
4.8656764094
  0
LINE
  5
36B
100
AcDbEntity
  8
0
100
AcDbLine
 62
7
  6
CONTINUOUS
 10
5.1590765714
 20
4.900495166
 11
5.1583647321
 21
4.9001264094
  0
LINE
  5
36C
100
AcDbEntity
  8
0
100
AcDbLine
 62
7
  6
CONTINUOUS
 10
5.1590765714
 20
4.934945166
 11
5.1583647275
 21
4.9345764094
  0
LINE
  5
36D
100
AcDbEntity
  8
0
100
AcDbLine
 62
7
  6
CONTINUOUS
 10
5.1590765714
 20
4.969395166
 11
5.1583647321
 21
4.9690264094
  0
LINE
  5
36E
100
AcDbEntity
  8
0
100
AcDbLine
 62
7
  6
CONTINUOUS
 10
5.1590765714
 20
5.003845166
 11
5.1583647321
 21
5.0034764094
  0
LINE
  5
36F
100
AcDbEntity
  8
0
100
AcDbLine
 62
7
  6
CONTINUOUS
 10
5.1590765714
 20
5.038295166
 11
5.1583647321
 21
5.0379264094
  0
LINE
  5
370
100
AcDbEntity
  8
0
100
AcDbLine
 62
7
  6
CONTINUOUS
 10
5.1590765714
 20
5.072745166
 11
5.1583647321
 21
5.0723764094
  0
LINE
  5
371
100
AcDbEntity
  8
0
100
AcDbLine
 62
7
  6
CONTINUOUS
 10
5.1590765714
 20
5.107195166
 11
5.1583647321
 21
5.1068264094
  0
LINE
  5
372
100
AcDbEntity
  8
0
100
AcDbLine
 62
7
  6
CONTINUOUS
 10
5.1590765714
 20
5.141645166
 11
5.1583647321
 21
5.1412764094
  0
LINE
  5
373
100
AcDbEntity
  8
0
100
AcDbLine
 62
7
  6
CONTINUOUS
 10
5.1590765714
 20
5.176095166
 11
5.1583647321
 21
5.1757264094
  0
LINE
  5
374
100
AcDbEntity
  8
0
100
AcDbLine
 62
7
  6
CONTINUOUS
 10
5.1590765714
 20
5.210545166
 11
5.1583647321
 21
5.2101764094
  0
LINE
  5
375
100
AcDbEntity
  8
0
100
AcDbLine
 62
7
  6
CONTINUOUS
 10
5.1590765714
 20
5.244995166
 11
5.1583647321
 21
5.2446264094
  0
LINE
  5
376
100
AcDbEntity
  8
0
100
AcDbLine
 62
7
  6
CONTINUOUS
 10
5.1590765714
 20
5.279445166
 11
5.1583647321
 21
5.2790764094
  0
LINE
  5
377
100
AcDbEntity
  8
0
100
AcDbLine
 62
7
  6
CONTINUOUS
 10
5.1583647322
 20
5.1871381868
 11
5.1590765714
 21
5.1867694303
  0
LINE
  5
378
100
AcDbEntity
  8
0
100
AcDbLine
 62
7
  6
CONTINUOUS
 10
5.1583647322
 20
5.2215881868
 11
5.1590765714
 21
5.2212194303
  0
LINE
  5
379
100
AcDbEntity
  8
0
100
AcDbLine
 62
7
  6
CONTINUOUS
 10
5.1583647322
 20
5.2560381868
 11
5.1590765714
 21
5.2556694303
  0
LINE
  5
37A
100
AcDbEntity
  8
0
100
AcDbLine
 62
7
  6
CONTINUOUS
 10
4.5302884107
 20
5.1699131868
 11
4.5295765714
 21
5.1695444303
  0
LINE
  5
37B
100
AcDbEntity
  8
0
100
AcDbLine
 62
7
  6
CONTINUOUS
 10
4.5302884107
 20
5.2043631868
 11
4.5295765714
 21
5.2039944303
  0
LINE
  5
37C
100
AcDbEntity
  8
0
100
AcDbLine
 62
7
  6
CONTINUOUS
 10
5.159076577
 20
4.5559951658
 11
5.1583649537
 21
4.5556264093
  0
LINE
  5
37D
100
AcDbEntity
  8
0
100
AcDbLine
 62
7
  6
CONTINUOUS
 10
4.5302884107
 20
5.2388131868
 11
4.5295765714
 21
5.2384444303
  0
LINE
  5
37E
100
AcDbEntity
  8
0
100
AcDbLine
 62
7
  6
CONTINUOUS
 10
4.5302883719
 20
5.2732631868
 11
4.5295765714
 21
5.2728944303
  0
LINE
  5
37F
100
AcDbEntity
  8
0
100
AcDbLine
 62
7
  6
CONTINUOUS
 10
5.1583647322
 20
5.2904881868
 11
5.1590765714
 21
5.2901194303
  0
LINE
  5
380
100
AcDbEntity
  8
0
100
AcDbLine
 62
7
  6
CONTINUOUS
 10
4.5302883831
 20
5.3077131868
 11
4.5295765714
 21
5.3073444303
  0
LINE
  5
381
100
AcDbEntity
  8
0
100
AcDbLine
 62
7
  6
CONTINUOUS
 10
4.7746083855
 20
4.5568322947
 11
4.7070292775
 21
4.5555820461
  0
LINE
  5
382
100
AcDbEntity
  8
0
100
AcDbLine
 62
7
  6
CONTINUOUS
 10
4.7070292775
 20
4.5555820461
 11
4.705616574
 21
4.5555546649
  0
SPLINE
  5
383
100
AcDbEntity
  8
0
100
AcDbSpline
 62
7
  6
CONTINUOUS
 70
0
 71
3
 72
26
 73
22
 74
0
 42
0.0000001
 43
0.0000001
 44
0.0000000001
 40
0.0
 40
0.0
 40
0.0
 40
0.0
 40
0.2034439376
 40
0.3898865017
 40
0.4757231993
 40
0.5561402652
 40
0.6307943227
 40
0.6993648122
 40
0.7615607191
 40
0.8171154447
 40
0.8657929588
 40
0.9073877546
 40
0.9254725136
 40
0.941723737
 40
0.9561254646
 40
0.9686623411
 40
0.979323149
 40
0.9881008618
 40
0.9949912618
 40
0.997729797
 40
1.0
 40
1.0
 40
1.0
 40
1.0
 10
4.705616574
 20
4.5555546649
 30
0.0
 10
4.6937195913
 20
4.555323794
 30
0.0
 10
4.6709200893
 20
4.5548678604
 30
0.0
 10
4.6431021034
 20
4.5542622816
 30
0.0
 10
4.6224790823
 20
4.5537721227
 30
0.0
 10
4.6083931583
 20
4.5534148927
 30
0.0
 10
4.5953174562
 20
4.5530579408
 30
0.0
 10
4.5833079086
 20
4.5527013193
 30
0.0
 10
4.5724159832
 20
4.5523451678
 30
0.0
 10
4.562688234
 20
4.5519897115
 30
0.0
 10
4.5541662984
 20
4.551635117
 30
0.0
 10
4.5478359447
 20
4.5513284144
 30
0.0
 10
4.543401836
 20
4.5510786977
 30
0.0
 10
4.5405567728
 20
4.550900477
 30
0.0
 10
4.538036877
 20
4.5507226267
 30
0.0
 10
4.5358448539
 20
4.5505452084
 30
0.0
 10
4.5339828948
 20
4.550368619
 30
0.0
 10
4.5324529266
 20
4.5501929371
 30
0.0
 10
4.5313869967
 20
4.5500391678
 30
0.0
 10
4.530702812
 20
4.5499111755
 30
0.0
 10
4.5304169437
 20
4.5498465076
 30
0.0
 10
4.5302884107
 20
4.5498131868
 30
0.0
  0
SPLINE
  5
384
100
AcDbEntity
  8
0
100
AcDbSpline
 62
7
  6
CONTINUOUS
 70
0
 71
3
 72
45
 73
41
 74
0
 42
0.0000001
 43
0.0000001
 44
0.0000000001
 40
0.0
 40
0.0
 40
0.0
 40
0.0
 40
0.0009100686
 40
0.0020684836
 40
0.0034764677
 40
0.0051340869
 40
0.0070409772
 40
0.0091965782
 40
0.0142508837
 40
0.0202879843
 40
0.0272963851
 40
0.0352628954
 40
0.0441712607
 40
0.0540043864
 40
0.0647422792
 40
0.0888452459
 40
0.1162872961
 40
0.1468484994
 40
0.1802837382
 40
0.216324778
 40
0.2546822287
 40
0.2950480388
 40
0.3370981195
 40
0.3804948177
 40
0.4699260454
 40
0.5604744629
 40
0.6492371667
 40
0.7333683885
 40
0.772846123
 40
0.810171124
 40
0.8450437411
 40
0.8771840014
 40
0.9063339765
 40
0.9322598346
 40
0.9547541436
 40
0.9736367481
 40
0.9816757795
 40
0.9887586514
 40
0.9948709871
 40
1.0
 40
1.0
 40
1.0
 40
1.0
 10
5.1583647275
 20
4.9345764094
 30
0.0
 10
5.1581819438
 20
4.9345290249
 30
0.0
 10
5.157761942
 20
4.9344391694
 30
0.0
 10
5.1570506621
 20
4.9343188057
 30
0.0
 10
5.1561825282
 20
4.9341977866
 30
0.0
 10
5.1551579502
 20
4.9340762461
 30
0.0
 10
5.1539773471
 20
4.933954385
 30
0.0
 10
5.1520935541
 20
4.9337823505
 30
0.0
 10
5.149352946
 20
4.9335718142
 30
0.0
 10
5.1456052952
 20
4.9333292648
 30
0.0
 10
5.1412523614
 20
4.93308599
 30
0.0
 10
5.1363029131
 20
4.9328421482
 30
0.0
 10
5.1307667642
 20
4.9325979137
 30
0.0
 10
5.1246551049
 20
4.9323534029
 30
0.0
 10
5.1153921222
 20
4.9320138839
 30
0.0
 10
5.1024760671
 20
4.9315953649
 30
0.0
 10
5.0854471636
 20
4.9311089716
 30
0.0
 10
5.0664812715
 20
4.9306216731
 30
0.0
 10
5.0457307041
 20
4.9301336548
 30
0.0
 10
5.0233621305
 20
4.9296451547
 30
0.0
 10
4.9995552544
 20
4.9291562938
 30
0.0
 10
4.9745013486
 20
4.9286671727
 30
0.0
 10
4.9484016876
 20
4.928177852
 30
0.0
 10
4.9121230827
 20
4.9275186594
 30
0.0
 10
4.8657829497
 20
4.9267047787
 30
0.0
 10
4.8100312952
 20
4.9257372129
 30
0.0
 10
4.7553794704
 20
4.9247702044
 30
0.0
 10
4.71132313
 20
4.9239494823
 30
0.0
 10
4.6779383625
 20
4.9232832822
 30
0.0
 10
4.654772532
 20
4.9227945589
 30
0.0
 10
4.6331294681
 20
4.9223062651
 30
0.0
 10
4.6131830489
 20
4.92181855
 30
0.0
 10
4.5950935339
 20
4.9213316209
 30
0.0
 10
4.5790061651
 20
4.9208459844
 30
0.0
 10
4.5650501832
 20
4.9203619236
 30
0.0
 10
4.554805579
 20
4.9199419196
 30
0.0
 10
4.5477585001
 20
4.9195980081
 30
0.0
 10
4.5433593925
 20
4.9193546331
 30
0.0
 10
4.53956509
 20
4.9191120297
 30
0.0
 10
4.537239237
 20
4.9189358209
 30
0.0
 10
4.5361789112
 20
4.918845166
 30
0.0
  0
SPLINE
  5
385
100
AcDbEntity
  8
0
100
AcDbSpline
 62
7
  6
CONTINUOUS
 70
0
 71
3
 72
15
 73
11
 74
0
 42
0.0000001
 43
0.0000001
 44
0.0000000001
 40
0.0
 40
0.0
 40
0.0
 40
0.0
 40
0.1160435199
 40
0.2337891476
 40
0.3542538825
 40
0.4779516895
 40
0.6049375024
 40
0.7348036818
 40
0.8668552614
 40
1.0
 40
1.0
 40
1.0
 40
1.0
 10
4.363035298
 20
5.5343042247
 30
0.0
 10
4.362495537
 20
5.5342574155
 30
0.0
 10
4.3614148593
 20
5.5340446074
 30
0.0
 10
4.3598856232
 20
5.5333851259
 30
0.0
 10
4.3584919069
 20
5.5324100759
 30
0.0
 10
4.3572821789
 20
5.531155197
 30
0.0
 10
4.3562971272
 20
5.5296652771
 30
0.0
 10
4.3555689556
 20
5.5279922826
 30
0.0
 10
4.355122536
 20
5.5261944335
 30
0.0
 10
4.3550222183
 20
5.5249539276
 30
0.0
 10
4.3550222183
 20
5.5243322981
 30
0.0
  0
SPLINE
  5
386
100
AcDbEntity
  8
0
100
AcDbSpline
 62
7
  6
CONTINUOUS
 70
0
 71
3
 72
44
 73
40
 74
0
 42
0.0000001
 43
0.0000001
 44
0.0000000001
 40
0.0
 40
0.0
 40
0.0
 40
0.0
 40
0.0009625488
 40
0.0021722566
 40
0.0036302652
 40
0.0053369666
 40
0.009494746
 40
0.0146395247
 40
0.0207630428
 40
0.0278533973
 40
0.0358969627
 40
0.0448783124
 40
0.0547791512
 40
0.0655804532
 40
0.0897954536
 40
0.117330378
 40
0.147965367
 40
0.1814553245
 40
0.2175323613
 40
0.2559078989
 40
0.2962748978
 40
0.3383102857
 40
0.3816775496
 40
0.4710112149
 40
0.561421387
 40
0.6500188418
 40
0.7339725737
 40
0.7733614301
 40
0.8105998217
 40
0.8453898149
 40
0.877453099
 40
0.9065332449
 40
0.9323976641
 40
0.9548401955
 40
0.9736818108
 40
0.9817048502
 40
0.9887747929
 40
0.994877398
 40
1.0
 40
1.0
 40
1.0
 40
1.0
 10
5.1379660717
 20
4.9292881375
 30
0.0
 10
5.1377852668
 20
4.9292412633
 30
0.0
 10
5.1373730393
 20
4.9291518454
 30
0.0
 10
5.136678865
 20
4.9290314877
 30
0.0
 10
5.1358385779
 20
4.9289104913
 30
0.0
 10
5.1344282235
 20
4.9287369647
 30
0.0
 10
5.1323020087
 20
4.9285266069
 30
0.0
 10
5.1293182398
 20
4.9282854838
 30
0.0
 10
5.1257639068
 20
4.9280433864
 30
0.0
 10
5.1216460353
 20
4.9278003874
 30
0.0
 10
5.1169727856
 20
4.9275568871
 30
0.0
 10
5.1117535274
 20
4.9273130291
 30
0.0
 10
5.1059986194
 20
4.9270688681
 30
0.0
 10
5.0972890387
 20
4.9267300343
 30
0.0
 10
5.0851581321
 20
4.9263122313
 30
0.0
 10
5.0691787211
 20
4.9258265614
 30
0.0
 10
5.0513987908
 20
4.9253400025
 30
0.0
 10
5.0319607259
 20
4.9248527384
 30
0.0
 10
5.0110201873
 20
4.9243649998
 30
0.0
 10
4.988744832
 20
4.9238769068
 30
0.0
 10
4.9653130043
 20
4.9233885591
 30
0.0
 10
4.9409123372
 20
4.9229000158
 30
0.0
 10
4.9070112024
 20
4.9222419643
 30
0.0
 10
4.8637241962
 20
4.9214294474
 30
0.0
 10
4.8116616278
 20
4.9204633949
 30
0.0
 10
4.7606432041
 20
4.9194979028
 30
0.0
 10
4.7195244632
 20
4.9186784395
 30
0.0
 10
4.6883708763
 20
4.9180132752
 30
0.0
 10
4.6667559007
 20
4.9175253347
 30
0.0
 10
4.6465628237
 20
4.9170378229
 30
0.0
 10
4.6279533301
 20
4.9165508876
 30
0.0
 10
4.6110764655
 20
4.9160647383
 30
0.0
 10
4.5960673105
 20
4.9155798746
 30
0.0
 10
4.5830460705
 20
4.9150965801
 30
0.0
 10
4.5734870783
 20
4.9146772494
 30
0.0
 10
4.5669110017
 20
4.9143339079
 30
0.0
 10
4.562805142
 20
4.9140909116
 30
0.0
 10
4.559263198
 20
4.9138486874
 30
0.0
 10
4.5570919525
 20
4.9136727832
 30
0.0
 10
4.5561020403
 20
4.9135822981
 30
0.0
  0
SPLINE
  5
387
100
AcDbEntity
  8
0
100
AcDbSpline
 62
7
  6
CONTINUOUS
 70
0
 71
3
 72
23
 73
19
 74
0
 42
0.0000001
 43
0.0000001
 44
0.0000000001
 40
0.0
 40
0.0
 40
0.0
 40
0.0
 40
0.0496976446
 40
0.1004643389
 40
0.1527974848
 40
0.2071173601
 40
0.2637226708
 40
0.3227952917
 40
0.3843946707
 40
0.4484584397
 40
0.5148023244
 40
0.5831177602
 40
0.6529676483
 40
0.7237798296
 40
0.7948380225
 40
0.8652743993
 40
0.9340579285
 40
1.0
 40
1.0
 40
1.0
 40
1.0
 10
5.1361995625
 20
3.7180822981
 30
0.0
 10
5.1356691774
 20
3.7124782287
 30
0.0
 10
5.133917834
 20
3.7012034426
 30
0.0
 10
5.1293182678
 20
3.6844840274
 30
0.0
 10
5.1227666378
 20
3.6678665891
 30
0.0
 10
5.1143203832
 20
3.6513865289
 30
0.0
 10
5.1040479316
 20
3.6350739486
 30
0.0
 10
5.0920344206
 20
3.6189617043
 30
0.0
 10
5.0783816558
 20
3.6030854009
 30
0.0
 10
5.0632113052
 20
3.5874854894
 30
0.0
 10
5.0466681519
 20
3.5722081638
 30
0.0
 10
5.0289236406
 20
3.5573065315
 30
0.0
 10
5.0101798656
 20
3.54284168
 30
0.0
 10
4.9906738084
 20
3.5288839163
 30
0.0
 10
4.9706815841
 20
3.515513948
 30
0.0
 10
4.9505227189
 20
3.5028243813
 30
0.0
 10
4.9305630078
 20
3.4909202931
 30
0.0
 10
4.9172963337
 20
3.4833773488
 30
0.0
 10
4.9107697194
 20
3.4797454969
 30
0.0
  0
SPLINE
  5
388
100
AcDbEntity
  8
0
100
AcDbSpline
 62
7
  6
CONTINUOUS
 70
0
 71
3
 72
63
 73
59
 74
0
 42
0.0000001
 43
0.0000001
 44
0.0000000001
 40
0.0
 40
0.0
 40
0.0
 40
0.0
 40
0.0010305488
 40
0.0023428763
 40
0.0039379092
 40
0.0058154627
 40
0.0079749741
 40
0.0104156864
 40
0.0161361879
 40
0.0229645197
 40
0.0308862536
 40
0.0398832882
 40
0.0499354205
 40
0.0610198261
 40
0.0731109087
 40
0.1002008843
 40
0.1309571577
 40
0.1650974078
 40
0.2023081681
 40
0.2422476303
 40
0.284548844
 40
0.3288231691
 40
0.3746637636
 40
0.4216493439
 40
0.4693481802
 40
0.5173217944
 40
0.5651293801
 40
0.6123315063
 40
0.6584944184
 40
0.7031939143
 40
0.7460192019
 40
0.7865768078
 40
0.8244940777
 40
0.8594226492
 40
0.8756647097
 40
0.8910418262
 40
0.9055184197
 40
0.9190613758
 40
0.9316397528
 40
0.9432244591
 40
0.9537894533
 40
0.9633100455
 40
0.9717652419
 40
0.979135424
 40
0.9854046854
 40
0.9905593093
 40
0.9927153186
 40
0.9945893618
 40
0.996180879
 40
0.9974896931
 40
0.9980383526
 40
0.9985168556
 40
0.9989256789
 40
0.9992656229
 40
0.9995381323
 40
0.9996499814
 40
0.9997463072
 40
1.0
 40
1.0
 40
1.0
 40
1.0
 10
5.1582556439
 20
4.9689991357
 30
0.0
 10
5.1580455686
 20
4.9689484181
 30
0.0
 10
5.1575634176
 20
4.968852298
 30
0.0
 10
5.1567476389
 20
4.9687235624
 30
0.0
 10
5.1557524975
 20
4.9685941102
 30
0.0
 10
5.1545785552
 20
4.9684640931
 30
0.0
 10
5.153226367
 20
4.9683337302
 30
0.0
 10
5.1510698666
 20
4.9681497235
 30
0.0
 10
5.14793444
 20
4.9679245334
 30
0.0
 10
5.1436494654
 20
4.967665052
 30
0.0
 10
5.1386763445
 20
4.9674048373
 30
0.0
 10
5.1330264133
 20
4.9671439736
 30
0.0
 10
5.1267126447
 20
4.9668827223
 30
0.0
 10
5.1197495541
 20
4.9666211565
 30
0.0
 10
5.1092148869
 20
4.9662582059
 30
0.0
 10
5.0945554723
 20
4.9658108137
 30
0.0
 10
5.0752724618
 20
4.965290602
 30
0.0
 10
5.0538664082
 20
4.9647694277
 30
0.0
 10
5.0305340986
 20
4.9642474927
 30
0.0
 10
5.005490012
 20
4.9637250512
 30
0.0
 10
4.9789643686
 20
4.963202237
 30
0.0
 10
4.9512010072
 20
4.9626791581
 30
0.0
 10
4.9224551483
 20
4.9621558918
 30
0.0
 10
4.8929910402
 20
4.9616325001
 30
0.0
 10
4.86307956
 20
4.9611090349
 30
0.0
 10
4.8329956759
 20
4.960585542
 30
0.0
 10
4.8030159696
 20
4.9600620657
 30
0.0
 10
4.7734160333
 20
4.9595386513
 30
0.0
 10
4.7444679795
 20
4.9590153486
 30
0.0
 10
4.7164379198
 20
4.9584922174
 30
0.0
 10
4.6895835267
 20
4.9579693279
 30
0.0
 10
4.6641516729
 20
4.9574467881
 30
0.0
 10
4.6403761592
 20
4.9569246943
 30
0.0
 10
4.6216992813
 20
4.9564801033
 30
0.0
 10
4.6077485065
 20
4.9561216259
 30
0.0
 10
4.59808556
 20
4.9558594034
 30
0.0
 10
4.5889888459
 20
4.9555972766
 30
0.0
 10
4.580479296
 20
4.9553352636
 30
0.0
 10
4.5725764907
 20
4.9550734062
 30
0.0
 10
4.5652985407
 20
4.9548117262
 30
0.0
 10
4.5586622621
 20
4.954550321
 30
0.0
 10
4.5526827991
 20
4.9542892447
 30
0.0
 10
4.547373991
 20
4.9540286656
 30
0.0
 10
4.5427478729
 20
4.9537688456
 30
0.0
 10
4.5388151199
 20
4.9535099769
 30
0.0
 10
4.535976105
 20
4.9532846399
 30
0.0
 10
4.5340588963
 20
4.9530996292
 30
0.0
 10
4.5328871563
 20
4.9529696279
 30
0.0
 10
4.5318943007
 20
4.9528400958
 30
0.0
 10
4.5311797069
 20
4.9527272788
 30
0.0
 10
4.5306986125
 20
4.9526347737
 30
0.0
 10
4.5304045406
 20
4.9525696513
 30
0.0
 10
4.5301554387
 20
4.9525048133
 30
0.0
 10
4.5299510318
 20
4.9524400568
 30
0.0
 10
4.5298100787
 20
4.9523837232
 30
0.0
 10
4.5297200987
 20
4.9523366437
 30
0.0
 10
4.5296400539
 20
4.9522863454
 30
0.0
 10
4.5295765714
 20
4.9522233665
 30
0.0
 10
4.5295765714
 20
4.952170166
 30
0.0
  0
SPLINE
  5
389
100
AcDbEntity
  8
0
100
AcDbSpline
 62
7
  6
CONTINUOUS
 70
0
 71
3
 72
63
 73
59
 74
0
 42
0.0000001
 43
0.0000001
 44
0.0000000001
 40
0.0
 40
0.0
 40
0.0
 40
0.0
 40
0.0010774659
 40
0.0024355598
 40
0.0040750795
 40
0.0059960702
 40
0.0081982057
 40
0.0106806765
 40
0.0164810537
 40
0.023385373
 40
0.0313789136
 40
0.0404433386
 40
0.0505588847
 40
0.0617019356
 40
0.07384763
 40
0.1010330026
 40
0.1318666774
 40
0.1660664642
 40
0.2033192144
 40
0.2432835104
 40
0.2855932038
 40
0.3298605359
 40
0.3756797588
 40
0.4226309939
 40
0.4702837443
 40
0.5182012673
 40
0.5659442372
 40
0.6130750447
 40
0.6591617031
 40
0.7037817454
 40
0.7465262068
 40
0.7870032932
 40
0.8248420443
 40
0.859695876
 40
0.8912455832
 40
0.9056900338
 40
0.919202442
 40
0.9317523554
 40
0.9433108893
 40
0.9538516426
 40
0.9633510057
 40
0.9717869444
 40
0.9791412306
 40
0.9853969907
 40
0.9905415048
 40
0.9926938632
 40
0.9945648662
 40
0.99615424
 40
0.9974622691
 40
0.998011128
 40
0.9984902209
 40
0.9989000472
 40
0.9992414731
 40
0.9995161304
 40
0.9997272831
 40
0.9998112416
 40
0.999882802
 40
1.0
 40
1.0
 40
1.0
 40
1.0
 10
5.1378744215
 20
4.9637150271
 30
0.0
 10
5.1376691585
 20
4.9636647474
 30
0.0
 10
5.1372008403
 20
4.9635690067
 30
0.0
 10
5.1364119211
 20
4.9634402669
 30
0.0
 10
5.1354558166
 20
4.9633108477
 30
0.0
 10
5.1343329959
 20
4.9631809141
 30
0.0
 10
5.1330439182
 20
4.9630506637
 30
0.0
 10
5.1309956025
 20
4.9628670502
 30
0.0
 10
5.128025208
 20
4.962642145
 30
0.0
 10
5.1239737438
 20
4.9623829196
 30
0.0
 10
5.1192809929
 20
4.9621229711
 30
0.0
 10
5.1139576006
 20
4.9618623847
 30
0.0
 10
5.1080158309
 20
4.9616014463
 30
0.0
 10
5.1014691999
 20
4.9613401747
 30
0.0
 10
5.0915759616
 20
4.9609777984
 30
0.0
 10
5.0778212362
 20
4.9605310065
 30
0.0
 10
5.0597411192
 20
4.9600113984
 30
0.0
 10
5.0396857089
 20
4.9594908405
 30
0.0
 10
5.017838916
 20
4.9589695359
 30
0.0
 10
4.9944010606
 20
4.9584477313
 30
0.0
 10
4.9695870726
 20
4.9579255598
 30
0.0
 10
4.943624479
 20
4.9574031269
 30
0.0
 10
4.9167513327
 20
4.9568805094
 30
0.0
 10
4.88921406
 20
4.9563577687
 30
0.0
 10
4.8612651611
 20
4.9558349558
 30
0.0
 10
4.8331609472
 20
4.9553121165
 30
0.0
 10
4.805159123
 20
4.9547892944
 30
0.0
 10
4.7775164616
 20
4.9542665347
 30
0.0
 10
4.7504864319
 20
4.9537438874
 30
0.0
 10
4.7243168901
 20
4.9532214108
 30
0.0
 10
4.6992478166
 20
4.9526991799
 30
0.0
 10
4.6755091024
 20
4.9521772855
 30
0.0
 10
4.6533184189
 20
4.9516558784
 30
0.0
 10
4.6328792328
 20
4.9511350941
 30
0.0
 10
4.6170281475
 20
4.9506898348
 30
0.0
 10
4.6053622266
 20
4.9503301019
 30
0.0
 10
4.5974216405
 20
4.9500684067
 30
0.0
 10
4.5900474134
 20
4.9498068775
 30
0.0
 10
4.5832564259
 20
4.9495455378
 30
0.0
 10
4.5770642365
 20
4.9492844406
 30
0.0
 10
4.5714850827
 20
4.9490237184
 30
0.0
 10
4.566531652
 20
4.9487634329
 30
0.0
 10
4.5622153402
 20
4.9485039688
 30
0.0
 10
4.5585459056
 20
4.9482454048
 30
0.0
 10
4.5558970863
 20
4.9480203319
 30
0.0
 10
4.5541083921
 20
4.9478355754
 30
0.0
 10
4.553015146
 20
4.9477057234
 30
0.0
 10
4.5520888116
 20
4.9475763283
 30
0.0
 10
4.5514221404
 20
4.9474636648
 30
0.0
 10
4.5509733235
 20
4.9473713088
 30
0.0
 10
4.5506988592
 20
4.9473062899
 30
0.0
 10
4.5504663435
 20
4.947241463
 30
0.0
 10
4.5502755654
 20
4.9471769224
 30
0.0
 10
4.5501264366
 20
4.9471126251
 30
0.0
 10
4.5500294546
 20
4.9470557701
 30
0.0
 10
4.5499749677
 20
4.947008334
 30
0.0
 10
4.5499406206
 20
4.9469673416
 30
0.0
 10
4.5499266875
 20
4.946930285
 30
0.0
 10
4.5499266881
 20
4.9469072981
 30
0.0
  0
SPLINE
  5
38A
100
AcDbEntity
  8
0
100
AcDbSpline
 62
7
  6
CONTINUOUS
 70
0
 71
3
 72
63
 73
59
 74
0
 42
0.0000001
 43
0.0000001
 44
0.0000000001
 40
0.0
 40
0.0
 40
0.0
 40
0.0
 40
0.0010305488
 40
0.0023428763
 40
0.0039379092
 40
0.0058154627
 40
0.0079749741
 40
0.0104156864
 40
0.0161361879
 40
0.0229645197
 40
0.0308862536
 40
0.0398832882
 40
0.0499354205
 40
0.0610198261
 40
0.0731109087
 40
0.1002008843
 40
0.1309571577
 40
0.1650974078
 40
0.2023081681
 40
0.2422476303
 40
0.284548844
 40
0.3288231691
 40
0.3746637636
 40
0.4216493439
 40
0.4693481802
 40
0.5173217944
 40
0.5651293801
 40
0.6123315063
 40
0.6584944184
 40
0.7031939143
 40
0.7460192019
 40
0.7865768078
 40
0.8244940777
 40
0.8594226492
 40
0.8756647097
 40
0.8910418262
 40
0.9055184197
 40
0.9190613758
 40
0.9316397528
 40
0.9432244591
 40
0.9537894533
 40
0.9633100455
 40
0.9717652419
 40
0.979135424
 40
0.9854046854
 40
0.9905593093
 40
0.9927153186
 40
0.9945893618
 40
0.996180879
 40
0.9974896931
 40
0.9980383526
 40
0.9985168556
 40
0.9989256789
 40
0.9992656229
 40
0.9995381323
 40
0.9996499814
 40
0.9997463072
 40
1.0
 40
1.0
 40
1.0
 40
1.0
 10
5.1582556439
 20
5.0034491357
 30
0.0
 10
5.1580455686
 20
5.0033984181
 30
0.0
 10
5.1575634176
 20
5.003302298
 30
0.0
 10
5.1567476389
 20
5.0031735624
 30
0.0
 10
5.1557524975
 20
5.0030441102
 30
0.0
 10
5.1545785552
 20
5.0029140931
 30
0.0
 10
5.153226367
 20
5.0027837302
 30
0.0
 10
5.1510698666
 20
5.0025997235
 30
0.0
 10
5.14793444
 20
5.0023745334
 30
0.0
 10
5.1436494654
 20
5.002115052
 30
0.0
 10
5.1386763445
 20
5.0018548373
 30
0.0
 10
5.1330264133
 20
5.0015939736
 30
0.0
 10
5.1267126447
 20
5.0013327223
 30
0.0
 10
5.1197495541
 20
5.0010711565
 30
0.0
 10
5.1092148869
 20
5.0007082059
 30
0.0
 10
5.0945554723
 20
5.0002608137
 30
0.0
 10
5.0752724618
 20
4.999740602
 30
0.0
 10
5.0538664082
 20
4.9992194277
 30
0.0
 10
5.0305340986
 20
4.9986974927
 30
0.0
 10
5.005490012
 20
4.9981750512
 30
0.0
 10
4.9789643686
 20
4.997652237
 30
0.0
 10
4.9512010072
 20
4.9971291581
 30
0.0
 10
4.9224551483
 20
4.9966058918
 30
0.0
 10
4.8929910402
 20
4.9960825001
 30
0.0
 10
4.86307956
 20
4.9955590349
 30
0.0
 10
4.8329956759
 20
4.995035542
 30
0.0
 10
4.8030159696
 20
4.9945120657
 30
0.0
 10
4.7734160333
 20
4.9939886513
 30
0.0
 10
4.7444679795
 20
4.9934653486
 30
0.0
 10
4.7164379198
 20
4.9929422174
 30
0.0
 10
4.6895835267
 20
4.9924193279
 30
0.0
 10
4.6641516729
 20
4.9918967881
 30
0.0
 10
4.6403761592
 20
4.9913746943
 30
0.0
 10
4.6216992813
 20
4.9909301033
 30
0.0
 10
4.6077485065
 20
4.9905716259
 30
0.0
 10
4.59808556
 20
4.9903094034
 30
0.0
 10
4.5889888459
 20
4.9900472766
 30
0.0
 10
4.580479296
 20
4.9897852636
 30
0.0
 10
4.5725764907
 20
4.9895234062
 30
0.0
 10
4.5652985407
 20
4.9892617262
 30
0.0
 10
4.5586622621
 20
4.989000321
 30
0.0
 10
4.5526827991
 20
4.9887392447
 30
0.0
 10
4.547373991
 20
4.9884786656
 30
0.0
 10
4.5427478729
 20
4.9882188456
 30
0.0
 10
4.5388151199
 20
4.9879599769
 30
0.0
 10
4.535976105
 20
4.9877346399
 30
0.0
 10
4.5340588963
 20
4.9875496292
 30
0.0
 10
4.5328871563
 20
4.9874196279
 30
0.0
 10
4.5318943007
 20
4.9872900958
 30
0.0
 10
4.5311797069
 20
4.9871772788
 30
0.0
 10
4.5306986125
 20
4.9870847737
 30
0.0
 10
4.5304045406
 20
4.9870196513
 30
0.0
 10
4.5301554387
 20
4.9869548133
 30
0.0
 10
4.5299510318
 20
4.9868900568
 30
0.0
 10
4.5298100787
 20
4.9868337232
 30
0.0
 10
4.5297200987
 20
4.9867866437
 30
0.0
 10
4.5296400539
 20
4.9867363454
 30
0.0
 10
4.5295765714
 20
4.9866733665
 30
0.0
 10
4.5295765714
 20
4.986620166
 30
0.0
  0
SPLINE
  5
38B
100
AcDbEntity
  8
0
100
AcDbSpline
 62
7
  6
CONTINUOUS
 70
0
 71
3
 72
62
 73
58
 74
0
 42
0.0000001
 43
0.0000001
 44
0.0000000001
 40
0.0
 40
0.0
 40
0.0
 40
0.0
 40
0.0010965866
 40
0.0024737159
 40
0.0041322567
 40
0.0060719814
 40
0.010792313
 40
0.0166274279
 40
0.0235646922
 40
0.0315894004
 40
0.0406835806
 40
0.050826569
 40
0.0619958286
 40
0.0741653438
 40
0.1013932681
 40
0.1322617984
 40
0.1664886916
 40
0.2037608584
 40
0.2437372605
 40
0.2860519985
 40
0.3303177299
 40
0.3761292108
 40
0.4230668885
 40
0.4707010515
 40
0.5185955006
 40
0.5663117122
 40
0.6134128343
 40
0.6594674731
 40
0.7040540408
 40
0.7467642129
 40
0.7872070963
 40
0.8250125045
 40
0.8598344494
 40
0.8913544145
 40
0.9057846547
 40
0.9192841245
 40
0.9318214074
 40
0.9433685236
 40
0.9538986866
 40
0.96338827
 40
0.9718158545
 40
0.979162273
 40
0.9854119139
 40
0.9905508626
 40
0.9927009249
 40
0.994570198
 40
0.9961580697
 40
0.9974646179
 40
0.998012813
 40
0.9984913373
 40
0.9989007222
 40
0.9992418612
 40
0.9995163631
 40
0.999727429
 40
0.9998113511
 40
0.999882873
 40
1.0
 40
1.0
 40
1.0
 40
1.0
 10
5.1378356739
 20
4.9981556641
 30
0.0
 10
5.1376265272
 20
4.9981055496
 30
0.0
 10
5.1371505983
 20
4.9980099384
 30
0.0
 10
5.1363503727
 20
4.9978812094
 30
0.0
 10
5.1353830977
 20
4.9977518075
 30
0.0
 10
5.133762143
 20
4.9975662683
 30
0.0
 10
5.1313216398
 20
4.9973412735
 30
0.0
 10
5.1279005313
 20
4.9970834201
 30
0.0
 10
5.1238298745
 20
4.9968244462
 30
0.0
 10
5.1191190109
 20
4.9965645586
 30
0.0
 10
5.1137786179
 20
4.9963041346
 30
0.0
 10
5.107820874
 20
4.9960433018
 30
0.0
 10
5.1012594741
 20
4.9957821894
 30
0.0
 10
5.0913487288
 20
4.9954200387
 30
0.0
 10
5.0775750627
 20
4.9949735303
 30
0.0
 10
5.0594756571
 20
4.9944541845
 30
0.0
 10
5.0394056324
 20
4.9939339004
 30
0.0
 10
5.0175488106
 20
4.9934128731
 30
0.0
 10
4.9941053625
 20
4.9928913501
 30
0.0
 10
4.9692899983
 20
4.9923694622
 30
0.0
 10
4.94333
 20
4.991847315
 30
0.0
 10
4.9164631596
 20
4.9913249845
 30
0.0
 10
4.8889355701
 20
4.9908025311
 30
0.0
 10
4.8609993896
 20
4.9902800062
 30
0.0
 10
4.8329104941
 20
4.9897574552
 30
0.0
 10
4.8049261583
 20
4.9892349219
 30
0.0
 10
4.7773027158
 20
4.9887124517
 30
0.0
 10
4.7502931811
 20
4.9881900939
 30
0.0
 10
4.7241449792
 20
4.9876679066
 30
0.0
 10
4.6990975995
 20
4.9871459647
 30
0.0
 10
4.6753804635
 20
4.986624359
 30
0.0
 10
4.6532107824
 20
4.9861032422
 30
0.0
 10
4.6327916056
 20
4.985582744
 30
0.0
 10
4.6169564664
 20
4.9851377397
 30
0.0
 10
4.6053024932
 20
4.9847781888
 30
0.0
 10
4.5973702457
 20
4.9845166546
 30
0.0
 10
4.5900037721
 20
4.9842552583
 30
0.0
 10
4.5832200376
 20
4.9839940701
 30
0.0
 10
4.5770345016
 20
4.9837331219
 30
0.0
 10
4.5714613598
 20
4.9834725288
 30
0.0
 10
4.5665133627
 20
4.9832124161
 30
0.0
 10
4.5622017272
 20
4.9829530603
 30
0.0
 10
4.5585363737
 20
4.9826946767
 30
0.0
 10
4.5558904773
 20
4.982469713
 30
0.0
 10
4.5541037873
 20
4.982285047
 30
0.0
 10
4.5530116983
 20
4.9821552783
 30
0.0
 10
4.5520863489
 20
4.9820259688
 30
0.0
 10
4.55142044
 20
4.9819133594
 30
0.0
 10
4.5509721885
 20
4.9818210497
 30
0.0
 10
4.5506980732
 20
4.9817560645
 30
0.0
 10
4.5504658298
 20
4.9816912694
 30
0.0
 10
4.5502752379
 20
4.9816267631
 30
0.0
 10
4.550126218
 20
4.981562505
 30
0.0
 10
4.5500292869
 20
4.9815056878
 30
0.0
 10
4.5499748243
 20
4.9814582794
 30
0.0
 10
4.5499404986
 20
4.9814173105
 30
0.0
 10
4.549926588
 20
4.9813802695
 30
0.0
 10
4.5499266007
 20
4.9813572981
 30
0.0
  0
SPLINE
  5
38C
100
AcDbEntity
  8
0
100
AcDbSpline
 62
7
  6
CONTINUOUS
 70
0
 71
3
 72
63
 73
59
 74
0
 42
0.0000001
 43
0.0000001
 44
0.0000000001
 40
0.0
 40
0.0
 40
0.0
 40
0.0
 40
0.0010305416
 40
0.0023428619
 40
0.0039378877
 40
0.0058154343
 40
0.0079749388
 40
0.0104156446
 40
0.0161361336
 40
0.0229644536
 40
0.0308861761
 40
0.0398832001
 40
0.0499353226
 40
0.0610197192
 40
0.0731107932
 40
0.1002007531
 40
0.1309570125
 40
0.1650972518
 40
0.2023080047
 40
0.2422474627
 40
0.2845486779
 40
0.3288230064
 40
0.3746636042
 40
0.4216491935
 40
0.4693480336
 40
0.5173216559
 40
0.5651292498
 40
0.6123313846
 40
0.6584943065
 40
0.7031938133
 40
0.7460191116
 40
0.7865767278
 40
0.8244940104
 40
0.8594225918
 40
0.8756646579
 40
0.8910417806
 40
0.9055183797
 40
0.9190613411
 40
0.9316397229
 40
0.9432244345
 40
0.9537894337
 40
0.96331003
 40
0.9717652302
 40
0.9791354155
 40
0.9854046798
 40
0.990559306
 40
0.9927153161
 40
0.9945893599
 40
0.9961808777
 40
0.9974896922
 40
0.9980383519
 40
0.998516855
 40
0.9989256785
 40
0.9992656227
 40
0.9995381321
 40
0.9996499813
 40
0.9997463071
 40
1.0
 40
1.0
 40
1.0
 40
1.0
 10
5.1582556583
 20
5.0378991392
 30
0.0
 10
5.1580455845
 20
5.0378484215
 30
0.0
 10
5.1575634365
 20
5.0377523013
 30
0.0
 10
5.1567476624
 20
5.0376235658
 30
0.0
 10
5.1557525255
 20
5.0374941135
 30
0.0
 10
5.1545785876
 20
5.0373640964
 30
0.0
 10
5.1532264036
 20
5.0372337335
 30
0.0
 10
5.1510699086
 20
5.0370497268
 30
0.0
 10
5.1479344884
 20
5.0368245366
 30
0.0
 10
5.1436495212
 20
5.0365650551
 30
0.0
 10
5.1386764072
 20
5.0363048403
 30
0.0
 10
5.1330264826
 20
5.0360439766
 30
0.0
 10
5.1267127201
 20
5.0357827253
 30
0.0
 10
5.119749635
 20
5.0355211594
 30
0.0
 10
5.1092149747
 20
5.0351582087
 30
0.0
 10
5.0945555677
 20
5.0347108164
 30
0.0
 10
5.0752725653
 20
5.0341906047
 30
0.0
 10
5.0538665178
 20
5.0336694302
 30
0.0
 10
5.0305342125
 20
5.0331474951
 30
0.0
 10
5.0054901274
 20
5.0326250535
 30
0.0
 10
4.9789644832
 20
5.0321022392
 30
0.0
 10
4.9512011194
 20
5.0315791602
 30
0.0
 10
4.9224552566
 20
5.0310558937
 30
0.0
 10
4.8929911444
 20
5.0305325019
 30
0.0
 10
4.8630796591
 20
5.0300090366
 30
0.0
 10
4.8329957701
 20
5.0294855437
 30
0.0
 10
4.8030160579
 20
5.0289620673
 30
0.0
 10
4.7734161153
 20
5.0284386528
 30
0.0
 10
4.7444680547
 20
5.0279153499
 30
0.0
 10
4.7164379878
 20
5.0273922187
 30
0.0
 10
4.6895835874
 20
5.0268693292
 30
0.0
 10
4.6641517259
 20
5.0263467892
 30
0.0
 10
4.6403762047
 20
5.0258246954
 30
0.0
 10
4.6216993205
 20
5.0253801043
 30
0.0
 10
4.6077485408
 20
5.0250216268
 30
0.0
 10
4.5980855904
 20
5.0247594043
 30
0.0
 10
4.5889888725
 20
5.0244972774
 30
0.0
 10
4.5804793191
 20
5.0242352643
 30
0.0
 10
4.5725765104
 20
5.0239734069
 30
0.0
 10
4.5652985571
 20
5.0237117268
 30
0.0
 10
4.5586622753
 20
5.0234503216
 30
0.0
 10
4.5526828095
 20
5.0231892451
 30
0.0
 10
4.5473739989
 20
5.022928666
 30
0.0
 10
4.5427478786
 20
5.022668846
 30
0.0
 10
4.5388151237
 20
5.0224099772
 30
0.0
 10
4.5359761076
 20
5.0221846402
 30
0.0
 10
4.534058898
 20
5.0219996294
 30
0.0
 10
4.5328871575
 20
5.0218696281
 30
0.0
 10
4.5318943016
 20
5.0217400959
 30
0.0
 10
4.5311797075
 20
5.0216272789
 30
0.0
 10
4.530698613
 20
5.0215347738
 30
0.0
 10
4.530404541
 20
5.0214696513
 30
0.0
 10
4.530155439
 20
5.0214048133
 30
0.0
 10
4.5299510319
 20
5.0213400569
 30
0.0
 10
4.5298100788
 20
5.0212837233
 30
0.0
 10
4.5297200988
 20
5.0212366438
 30
0.0
 10
4.529640054
 20
5.0211863455
 30
0.0
 10
4.5295765714
 20
5.0211233666
 30
0.0
 10
4.5295765714
 20
5.021070166
 30
0.0
  0
SPLINE
  5
38D
100
AcDbEntity
  8
0
100
AcDbSpline
 62
7
  6
CONTINUOUS
 70
0
 71
3
 72
62
 73
58
 74
0
 42
0.0000001
 43
0.0000001
 44
0.0000000001
 40
0.0
 40
0.0
 40
0.0
 40
0.0
 40
0.0011155702
 40
0.0025112614
 40
0.0041879528
 40
0.0061457641
 40
0.01090149
 40
0.0167698863
 40
0.0237394825
 40
0.0317944185
 40
0.0409174141
 40
0.0510874682
 40
0.0622817361
 40
0.0744748853
 40
0.1017440382
 40
0.1326462569
 40
0.1668993948
 40
0.2041905477
 40
0.2441787799
 40
0.2864985507
 40
0.3307627118
 40
0.3765665082
 40
0.4234910152
 40
0.471107031
 40
0.5189791153
 40
0.5666693083
 40
0.6137414361
 40
0.6597649419
 40
0.704318897
 40
0.7469958809
 40
0.7874056214
 40
0.8251785882
 40
0.8599694746
 40
0.8914602599
 40
0.905877047
 40
0.919363477
 40
0.9318890031
 40
0.9434246087
 40
0.9539446946
 40
0.9634247696
 40
0.9718439963
 40
0.9791832122
 40
0.9854263274
 40
0.9905604351
 40
0.9927081905
 40
0.9945754032
 40
0.9961617188
 40
0.9974671962
 40
0.9980149008
 40
0.9984929248
 40
0.9989018301
 40
0.9992425437
 40
0.9995167073
 40
0.9997275515
 40
0.9998114117
 40
0.9998829017
 40
1.0
 40
1.0
 40
1.0
 40
1.0
 10
5.1377972084
 20
5.0325965449
 30
0.0
 10
5.1375842138
 20
5.0325465852
 30
0.0
 10
5.1371007968
 20
5.032451126
 30
0.0
 10
5.136289567
 20
5.0323223953
 30
0.0
 10
5.1353115192
 20
5.032193006
 30
0.0
 10
5.1336765149
 20
5.0320076664
 30
0.0
 10
5.1312190847
 20
5.0317828149
 30
0.0
 10
5.1277783405
 20
5.031525005
 30
0.0
 10
5.123689118
 20
5.0312661688
 30
0.0
 10
5.1189606209
 20
5.0310063753
 30
0.0
 10
5.1136036749
 20
5.0307460858
 30
0.0
 10
5.1076304486
 20
5.0304853849
 30
0.0
 10
5.1010546272
 20
5.030224395
 30
0.0
 10
5.0911269039
 20
5.0298624988
 30
0.0
 10
5.0773348207
 20
5.0294162425
 30
0.0
 10
5.0592167792
 20
5.0288971584
 30
0.0
 10
5.0391326167
 20
5.0283771393
 30
0.0
 10
5.0172660662
 20
5.0278563833
 30
0.0
 10
4.9938171578
 20
5.0273351348
 30
0.0
 10
4.9690004582
 20
5.026813524
 30
0.0
 10
4.9430430294
 20
5.0262916547
 30
0.0
 10
4.9161823904
 20
5.025769603
 30
0.0
 10
4.8886642981
 20
5.0252474295
 30
0.0
 10
4.860740522
 20
5.024725185
 30
0.0
 10
4.832666561
 20
5.0242029153
 30
0.0
 10
4.8046992805
 20
5.0236806637
 30
0.0
 10
4.7770945887
 20
5.0231584749
 30
0.0
 10
4.7501050569
 20
5.0226363987
 30
0.0
 10
4.7239776225
 20
5.0221144932
 30
0.0
 10
4.6989513308
 20
5.0215928332
 30
0.0
 10
4.6752551598
 20
5.02107151
 30
0.0
 10
4.6531059222
 20
5.0205506746
 30
0.0
 10
4.632706294
 20
5.0200304603
 30
0.0
 10
4.6168866718
 20
5.0195856867
 30
0.0
 10
4.6052444002
 20
5.0192263387
 30
0.0
 10
4.597320188
 20
5.0189649324
 30
0.0
 10
4.5899613296
 20
5.0187036965
 30
0.0
 10
4.5831845915
 20
5.0184426301
 30
0.0
 10
4.5770055693
 20
5.0181818406
 30
0.0
 10
4.571438283
 20
5.0179213797
 30
0.0
 10
4.5664955356
 20
5.0176614039
 30
0.0
 10
4.5621885205
 20
5.0174022094
 30
0.0
 10
4.5585270585
 20
5.0171439284
 30
0.0
 10
4.5558840187
 20
5.0169191258
 30
0.0
 10
4.5540992566
 20
5.0167345463
 30
0.0
 10
4.5530084048
 20
5.0166048381
 30
0.0
 10
4.5520840384
 20
5.0164755927
 30
0.0
 10
4.5514187825
 20
5.016363061
 30
0.0
 10
4.5509709645
 20
5.016270803
 30
0.0
 10
4.5506971568
 20
5.016205852
 30
0.0
 10
4.5504652067
 20
5.0161410906
 30
0.0
 10
4.5502748756
 20
5.0160766166
 30
0.0
 10
4.5501260642
 20
5.0160123891
 30
0.0
 10
4.5500292691
 20
5.0159555986
 30
0.0
 10
4.54997487
 20
5.01590822
 30
0.0
 10
4.5499405646
 20
5.0158672714
 30
0.0
 10
4.5499266344
 20
5.0158302625
 30
0.0
 10
4.5499266208
 20
5.0158072982
 30
0.0
  0
SPLINE
  5
38E
100
AcDbEntity
  8
0
100
AcDbSpline
 62
7
  6
CONTINUOUS
 70
0
 71
3
 72
15
 73
11
 74
0
 42
0.0000001
 43
0.0000001
 44
0.0000000001
 40
0.0
 40
0.0
 40
0.0
 40
0.0
 40
0.11604352
 40
0.2337891476
 40
0.3542538826
 40
0.4779516896
 40
0.6049375025
 40
0.7348036819
 40
0.8668552615
 40
1.0
 40
1.0
 40
1.0
 40
1.0
 10
5.3256178449
 20
5.5343042247
 30
0.0
 10
5.3261576058
 20
5.5342574155
 30
0.0
 10
5.3272382836
 20
5.5340446074
 30
0.0
 10
5.3287675197
 20
5.5333851259
 30
0.0
 10
5.330161236
 20
5.5324100759
 30
0.0
 10
5.331370964
 20
5.531155197
 30
0.0
 10
5.3323560157
 20
5.5296652771
 30
0.0
 10
5.3330841873
 20
5.5279922826
 30
0.0
 10
5.3335306069
 20
5.5261944335
 30
0.0
 10
5.3336309246
 20
5.5249539276
 30
0.0
 10
5.3336309246
 20
5.5243322981
 30
0.0
  0
SPLINE
  5
38F
100
AcDbEntity
  8
0
100
AcDbSpline
 62
7
  6
CONTINUOUS
 70
0
 71
3
 72
15
 73
11
 74
0
 42
0.0000001
 43
0.0000001
 44
0.0000000001
 40
0.0
 40
0.0
 40
0.0
 40
0.0
 40
0.1160512318
 40
0.2335598694
 40
0.3536434758
 40
0.4770486072
 40
0.6039430971
 40
0.7339660411
 40
0.8663705267
 40
1.0
 40
1.0
 40
1.0
 40
1.0
 10
5.093308875
 20
5.5343322981
 30
0.0
 10
5.0938756307
 20
5.5343322981
 30
0.0
 10
5.0950203505
 20
5.5342013628
 30
0.0
 10
5.0966618802
 20
5.53362261
 30
0.0
 10
5.0981708651
 20
5.5326854308
 30
0.0
 10
5.0994889988
 20
5.5314292298
 30
0.0
 10
5.1005674008
 20
5.529903461
 30
0.0
 10
5.101367164
 20
5.528167138
 30
0.0
 10
5.1018586372
 20
5.5262868509
 30
0.0
 10
5.1019691291
 20
5.5249849001
 30
0.0
 10
5.1019691291
 20
5.5243322981
 30
0.0
  0
SPLINE
  5
390
100
AcDbEntity
  8
0
100
AcDbSpline
 62
7
  6
CONTINUOUS
 70
0
 71
3
 72
15
 73
11
 74
0
 42
0.0000001
 43
0.0000001
 44
0.0000000001
 40
0.0
 40
0.0
 40
0.0
 40
0.0
 40
0.1160512318
 40
0.2335598694
 40
0.3536434758
 40
0.4770486071
 40
0.603943097
 40
0.7339660409
 40
0.8663705266
 40
1.0
 40
1.0
 40
1.0
 40
1.0
 10
4.5953442678
 20
5.5343322981
 30
0.0
 10
4.5947775121
 20
5.5343322981
 30
0.0
 10
4.5936327924
 20
5.5342013628
 30
0.0
 10
4.5919912627
 20
5.53362261
 30
0.0
 10
4.5904822777
 20
5.5326854308
 30
0.0
 10
4.589164144
 20
5.5314292298
 30
0.0
 10
4.5880857421
 20
5.529903461
 30
0.0
 10
4.5872859789
 20
5.528167138
 30
0.0
 10
4.5867945057
 20
5.5262868509
 30
0.0
 10
4.5866840138
 20
5.5249849001
 30
0.0
 10
4.5866840138
 20
5.5243322981
 30
0.0
  0
SPLINE
  5
391
100
AcDbEntity
  8
0
100
AcDbSpline
 62
7
  6
CONTINUOUS
 70
0
 71
3
 72
15
 73
11
 74
0
 42
0.0000001
 43
0.0000001
 44
0.0000000001
 40
0.0
 40
0.0
 40
0.0
 40
0.0
 40
0.1160512318
 40
0.2335598694
 40
0.3536434758
 40
0.4770486072
 40
0.6039430971
 40
0.7339660411
 40
0.8663705267
 40
1.0
 40
1.0
 40
1.0
 40
1.0
 10
4.3463619643
 20
5.4250822981
 30
0.0
 10
4.34692872
 20
5.4250822981
 30
0.0
 10
4.3480734397
 20
5.4252132334
 30
0.0
 10
4.3497149694
 20
5.4257919863
 30
0.0
 10
4.3512239544
 20
5.4267291655
 30
0.0
 10
4.3525420881
 20
5.4279853665
 30
0.0
 10
4.35362049
 20
5.4295111353
 30
0.0
 10
4.3544202532
 20
5.4312474583
 30
0.0
 10
4.3549117265
 20
5.4331277454
 30
0.0
 10
4.3550222183
 20
5.4344296961
 30
0.0
 10
4.3550222183
 20
5.4350822981
 30
0.0
  0
SPLINE
  5
392
100
AcDbEntity
  8
0
100
AcDbSpline
 62
7
  6
CONTINUOUS
 70
0
 71
3
 72
15
 73
11
 74
0
 42
0.0000001
 43
0.0000001
 44
0.0000000001
 40
0.0
 40
0.0
 40
0.0
 40
0.0
 40
0.1160512318
 40
0.2335598694
 40
0.3536434758
 40
0.4770486072
 40
0.6039430971
 40
0.7339660411
 40
0.8663705267
 40
1.0
 40
1.0
 40
1.0
 40
1.0
 10
5.3422911786
 20
5.4250822981
 30
0.0
 10
5.3417244229
 20
5.4250822981
 30
0.0
 10
5.3405797032
 20
5.4252132334
 30
0.0
 10
5.3389381734
 20
5.4257919863
 30
0.0
 10
5.3374291885
 20
5.4267291655
 30
0.0
 10
5.3361110548
 20
5.4279853665
 30
0.0
 10
5.3350326529
 20
5.4295111353
 30
0.0
 10
5.3342328897
 20
5.4312474583
 30
0.0
 10
5.3337414164
 20
5.4331277454
 30
0.0
 10
5.3336309246
 20
5.4344296961
 30
0.0
 10
5.3336309246
 20
5.4350822981
 30
0.0
  0
SPLINE
  5
393
100
AcDbEntity
  8
0
100
AcDbSpline
 62
7
  6
CONTINUOUS
 70
0
 71
3
 72
15
 73
11
 74
0
 42
0.0000001
 43
0.0000001
 44
0.0000000001
 40
0.0
 40
0.0
 40
0.0
 40
0.0
 40
0.1160512318
 40
0.2335598694
 40
0.3536434758
 40
0.4770486072
 40
0.6039430971
 40
0.7339660411
 40
0.8663705267
 40
1.0
 40
1.0
 40
1.0
 40
1.0
 10
5.1106293831
 20
5.4250822981
 30
0.0
 10
5.1100626274
 20
5.4250822981
 30
0.0
 10
5.1089179077
 20
5.4252132334
 30
0.0
 10
5.1072763779
 20
5.4257919863
 30
0.0
 10
5.105767393
 20
5.4267291655
 30
0.0
 10
5.1044492593
 20
5.4279853665
 30
0.0
 10
5.1033708574
 20
5.4295111353
 30
0.0
 10
5.1025710942
 20
5.4312474583
 30
0.0
 10
5.1020796209
 20
5.4331277454
 30
0.0
 10
5.1019691291
 20
5.4344296961
 30
0.0
 10
5.1019691291
 20
5.4350822981
 30
0.0
  0
SPLINE
  5
394
100
AcDbEntity
  8
0
100
AcDbSpline
 62
7
  6
CONTINUOUS
 70
0
 71
3
 72
15
 73
11
 74
0
 42
0.0000001
 43
0.0000001
 44
0.0000000001
 40
0.0
 40
0.0
 40
0.0
 40
0.0
 40
0.1160512318
 40
0.2335598694
 40
0.3536434758
 40
0.4770486072
 40
0.6039430971
 40
0.7339660411
 40
0.8663705267
 40
1.0
 40
1.0
 40
1.0
 40
1.0
 10
4.5780237598
 20
5.4250822981
 30
0.0
 10
4.5785905155
 20
5.4250822981
 30
0.0
 10
4.5797352352
 20
5.4252132334
 30
0.0
 10
4.581376765
 20
5.4257919863
 30
0.0
 10
4.5828857499
 20
5.4267291655
 30
0.0
 10
4.5842038836
 20
5.4279853665
 30
0.0
 10
4.5852822855
 20
5.4295111353
 30
0.0
 10
4.5860820487
 20
5.4312474583
 30
0.0
 10
4.586573522
 20
5.4331277454
 30
0.0
 10
4.5866840138
 20
5.4344296961
 30
0.0
 10
4.5866840138
 20
5.4350822981
 30
0.0
  0
SPLINE
  5
395
100
AcDbEntity
  8
0
100
AcDbSpline
 62
7
  6
CONTINUOUS
 70
0
 71
3
 72
63
 73
59
 74
0
 42
0.0000001
 43
0.0000001
 44
0.0000000001
 40
0.0
 40
0.0
 40
0.0
 40
0.0
 40
0.0001173783
 40
0.0001890885
 40
0.0002732401
 40
0.0004849024
 40
0.0007602143
 40
0.0011024166
 40
0.0015131585
 40
0.0019933735
 40
0.0025436046
 40
0.0038550638
 40
0.0054486325
 40
0.0073244141
 40
0.0094820987
 40
0.0146399096
 40
0.0209116428
 40
0.028284503
 40
0.0367419362
 40
0.0462649212
 40
0.0568321708
 40
0.068419075
 40
0.0809997866
 40
0.0945448911
 40
0.1090238212
 40
0.1406474205
 40
0.1755803743
 40
0.2135019177
 40
0.2540636247
 40
0.2968927068
 40
0.3415955983
 40
0.3877614249
 40
0.4349658709
 40
0.4827751163
 40
0.5307495856
 40
0.5784483973
 40
0.6254329968
 40
0.6712716037
 40
0.715542912
 40
0.7578399965
 40
0.7977742201
 40
0.8349784966
 40
0.8691111242
 40
0.8998586741
 40
0.9269390592
 40
0.9390253149
 40
0.9501042116
 40
0.9601509941
 40
0.969142505
 40
0.9770584726
 40
0.9838814882
 40
0.9895961937
 40
0.9920344569
 40
0.9941916817
 40
0.9960668437
 40
0.9976595956
 40
0.9989702529
 40
1.0
 40
1.0
 40
1.0
 40
1.0
 10
5.138726495
 20
5.0542322981
 30
0.0
 10
5.1387264819
 20
5.0542092721
 30
0.0
 10
5.1387124743
 20
5.0541721579
 30
0.0
 10
5.1386780111
 20
5.0541311203
 30
0.0
 10
5.1386233431
 20
5.0540836187
 30
0.0
 10
5.1385260754
 20
5.0540266904
 30
0.0
 10
5.1383765414
 20
5.0539623063
 30
0.0
 10
5.1381852743
 20
5.0538976745
 30
0.0
 10
5.1379521714
 20
5.0538327532
 30
0.0
 10
5.1376769945
 20
5.0537676436
 30
0.0
 10
5.1372269421
 20
5.05367516
 30
0.0
 10
5.1365583958
 20
5.0535623477
 30
0.0
 10
5.1356294769
 20
5.0534327811
 30
0.0
 10
5.1345332492
 20
5.0533027504
 30
0.0
 10
5.132739678
 20
5.0531177178
 30
0.0
 10
5.1300836429
 20
5.0528923613
 30
0.0
 10
5.1264042331
 20
5.0526334336
 30
0.0
 10
5.1220762337
 20
5.0523736063
 30
0.0
 10
5.1171095117
 20
5.0521129793
 30
0.0
 10
5.1115154138
 20
5.05185188
 30
0.0
 10
5.1053068316
 20
5.0515904415
 30
0.0
 10
5.0984979488
 20
5.051328729
 30
0.0
 10
5.0911045156
 20
5.0510668486
 30
0.0
 10
5.0831434346
 20
5.0508047922
 30
0.0
 10
5.0714479667
 20
5.0504445699
 30
0.0
 10
5.055557555
 20
5.0499987074
 30
0.0
 10
5.0350688286
 20
5.0494772101
 30
0.0
 10
5.0128262193
 20
5.0489550899
 30
0.0
 10
4.9890342523
 20
5.0484324814
 30
0.0
 10
4.9639117018
 20
5.0479095357
 30
0.0
 10
4.9376895762
 20
5.0473863447
 30
0.0
 10
4.9106089795
 20
5.0468629832
 30
0.0
 10
4.8829189046
 20
5.0463395098
 30
0.0
 10
4.8548739692
 20
5.0458159748
 30
0.0
 10
4.8267320383
 20
5.0452924233
 30
0.0
 10
4.7987519047
 20
5.0447688994
 30
0.0
 10
4.7711908333
 20
5.0442454491
 30
0.0
 10
4.7443022523
 20
5.0437221242
 30
0.0
 10
4.7183333909
 20
5.0431989872
 30
0.0
 10
4.693523024
 20
5.0426761152
 30
0.0
 10
4.6700993031
 20
5.0421536167
 30
0.0
 10
4.6482776058
 20
5.041631625
 30
0.0
 10
4.6282585805
 20
5.041110393
 30
0.0
 10
4.6102262609
 20
5.0405901289
 30
0.0
 10
4.5965185202
 20
5.0401426708
 30
0.0
 10
4.586668583
 20
5.0397796886
 30
0.0
 10
4.5801586762
 20
5.039518082
 30
0.0
 10
4.5742563814
 20
5.039256807
 30
0.0
 10
4.5689752078
 20
5.0389959214
 30
0.0
 10
4.5643272569
 20
5.0387356597
 30
0.0
 10
4.5603232251
 20
5.0384761926
 30
0.0
 10
4.557393918
 20
5.0382509344
 30
0.0
 10
4.555379735
 20
5.0380669034
 30
0.0
 10
4.5541170676
 20
5.0379365314
 30
0.0
 10
4.5530212329
 20
5.0378064951
 30
0.0
 10
4.5520926962
 20
5.0376770107
 30
0.0
 10
4.5513318696
 20
5.0375482585
 30
0.0
 10
4.5508825693
 20
5.0374521521
 30
0.0
 10
4.5506870292
 20
5.0374014587
 30
0.0
  0
SPLINE
  5
396
100
AcDbEntity
  8
0
100
AcDbSpline
 62
7
  6
CONTINUOUS
 70
0
 71
3
 72
63
 73
59
 74
0
 42
0.0000001
 43
0.0000001
 44
0.0000000001
 40
0.0
 40
0.0
 40
0.0
 40
0.0
 40
0.0001173577
 40
0.0001890682
 40
0.0002732342
 40
0.0004849629
 40
0.0007603693
 40
0.0011026616
 40
0.0015134549
 40
0.0019936488
 40
0.0025437811
 40
0.0038550304
 40
0.0054486606
 40
0.0073246408
 40
0.0094823972
 40
0.0146398612
 40
0.0209118994
 40
0.0282845073
 40
0.0367420939
 40
0.0462650903
 40
0.0568321991
 40
0.0684193225
 40
0.0809997451
 40
0.0945451391
 40
0.1090238532
 40
0.1406475411
 40
0.1755806046
 40
0.213502118
 40
0.254063744
 40
0.2968927939
 40
0.341595635
 40
0.3877615176
 40
0.434965995
 40
0.4827752215
 40
0.5307496993
 40
0.5784484595
 40
0.6254331086
 40
0.67127176
 40
0.7155430681
 40
0.757840144
 40
0.7977742313
 40
0.8349784886
 40
0.8691111463
 40
0.8998587864
 40
0.9269392999
 40
0.9390252642
 40
0.950104462
 40
0.9601509915
 40
0.9691426731
 40
0.9770586065
 40
0.9838814987
 40
0.9895964346
 40
0.9920345092
 40
0.9941916123
 40
0.9960669315
 40
0.9976598774
 40
0.9989704466
 40
1.0
 40
1.0
 40
1.0
 40
1.0
 10
5.1387265619
 20
5.0886822982
 30
0.0
 10
5.1387265705
 20
5.0886592762
 30
0.0
 10
5.1387125814
 20
5.0886221521
 30
0.0
 10
5.1386781152
 20
5.0885811181
 30
0.0
 10
5.1386234271
 20
5.0885336149
 30
0.0
 10
5.1385261168
 20
5.0884766908
 30
0.0
 10
5.1383765286
 20
5.0884123095
 30
0.0
 10
5.1381852122
 20
5.0883476796
 30
0.0
 10
5.1379520847
 20
5.0882827593
 30
0.0
 10
5.137676922
 20
5.0882176487
 30
0.0
 10
5.137226937
 20
5.0881251583
 30
0.0
 10
5.1365584417
 20
5.0880123333
 30
0.0
 10
5.135629511
 20
5.0878827783
 30
0.0
 10
5.1345332169
 20
5.0877527559
 30
0.0
 10
5.1327396602
 20
5.0875677295
 30
0.0
 10
5.1300836221
 20
5.0873423379
 30
0.0
 10
5.1264042668
 20
5.0870834534
 30
0.0
 10
5.122076229
 20
5.0868235941
 30
0.0
 10
5.117109523
 20
5.0865629846
 30
0.0
 10
5.1115154205
 20
5.0863018816
 30
0.0
 10
5.1053068208
 20
5.0860404356
 30
0.0
 10
5.0984979787
 20
5.0857787382
 30
0.0
 10
5.0911045029
 20
5.08551684
 30
0.0
 10
5.0831434634
 20
5.0852547998
 30
0.0
 10
5.0714479639
 20
5.0848945624
 30
0.0
 10
5.0555575551
 20
5.0844487104
 30
0.0
 10
5.0350687954
 20
5.0839272105
 30
0.0
 10
5.0128261858
 20
5.0834050905
 30
0.0
 10
4.9890342466
 20
5.0828824815
 30
0.0
 10
4.9639117276
 20
5.0823595357
 30
0.0
 10
4.9376896067
 20
5.0818363445
 30
0.0
 10
4.9106090022
 20
5.0813129833
 30
0.0
 10
4.8829189132
 20
5.0807895102
 30
0.0
 10
4.8548739732
 20
5.0802659751
 30
0.0
 10
4.8267320539
 20
5.0797424234
 30
0.0
 10
4.7987519184
 20
5.0792188993
 30
0.0
 10
4.7711908381
 20
5.0786954491
 30
0.0
 10
4.7443022381
 20
5.0781721246
 30
0.0
 10
4.7183333692
 20
5.0776489879
 30
0.0
 10
4.6935230303
 20
5.0771261158
 30
0.0
 10
4.6700993411
 20
5.0766036167
 30
0.0
 10
4.648277668
 20
5.0760816241
 30
0.0
 10
4.6282586225
 20
5.0755603938
 30
0.0
 10
4.6102262539
 20
5.0750401252
 30
0.0
 10
4.5965185266
 20
5.0745926819
 30
0.0
 10
4.5866685629
 20
5.0742296786
 30
0.0
 10
4.5801587029
 20
5.0739680931
 30
0.0
 10
4.5742563658
 20
5.0737067989
 30
0.0
 10
4.5689752145
 20
5.0734459244
 30
0.0
 10
4.5643272606
 20
5.0731856646
 30
0.0
 10
4.5603232159
 20
5.0729261785
 30
0.0
 10
4.5573939224
 20
5.07270095
 30
0.0
 10
4.5553797565
 20
5.072516903
 30
0.0
 10
4.5541171203
 20
5.0723865217
 30
0.0
 10
4.5530212398
 20
5.0722564907
 30
0.0
 10
4.5520926484
 20
5.0721270239
 30
0.0
 10
4.5513318395
 20
5.0719982677
 30
0.0
 10
4.5508825977
 20
5.0719021515
 30
0.0
 10
4.5506870968
 20
5.0718514586
 30
0.0
  0
SPLINE
  5
397
100
AcDbEntity
  8
0
100
AcDbSpline
 62
7
  6
CONTINUOUS
 70
0
 71
3
 72
63
 73
59
 74
0
 42
0.0000001
 43
0.0000001
 44
0.0000000001
 40
0.0
 40
0.0
 40
0.0
 40
0.0
 40
0.0001173492
 40
0.0001890304
 40
0.0002731518
 40
0.0004847725
 40
0.0007601007
 40
0.0011023933
 40
0.0015132508
 40
0.0019935417
 40
0.0025437712
 40
0.0038550833
 40
0.0054485028
 40
0.0073243562
 40
0.0094822561
 40
0.0146398681
 40
0.0209116561
 40
0.0282845692
 40
0.0367418213
 40
0.0462650731
 40
0.0568320456
 40
0.0684192022
 40
0.0809997327
 40
0.0945449045
 40
0.1090238716
 40
0.1406475259
 40
0.1755804646
 40
0.2135019219
 40
0.2540635515
 40
0.2968926272
 40
0.3415955744
 40
0.3877614152
 40
0.4349658894
 40
0.4827750895
 40
0.5307495522
 40
0.5784483847
 40
0.6254329991
 40
0.6712716336
 40
0.7155428745
 40
0.7578399181
 40
0.7977740823
 40
0.8349783991
 40
0.8691111383
 40
0.8998587574
 40
0.9269391257
 40
0.9390251882
 40
0.9501041811
 40
0.9601510044
 40
0.9691423631
 40
0.9770585768
 40
0.9838812838
 40
0.9895962732
 40
0.9920345314
 40
0.9941915348
 40
0.9960666552
 40
0.9976595667
 40
0.9989703574
 40
1.0
 40
1.0
 40
1.0
 40
1.0
 10
5.1387264556
 20
5.1231322982
 30
0.0
 10
5.1387264609
 20
5.1231092779
 30
0.0
 10
5.1387124896
 20
5.1230721613
 30
0.0
 10
5.1386780564
 20
5.1230311195
 30
0.0
 10
5.1386234177
 20
5.122983614
 30
0.0
 10
5.1385261627
 20
5.1229266823
 30
0.0
 10
5.1383766139
 20
5.1228623
 30
0.0
 10
5.1381852982
 20
5.1227976748
 30
0.0
 10
5.137952137
 20
5.1227327578
 30
0.0
 10
5.1376769216
 20
5.1226676494
 30
0.0
 10
5.1372268839
 20
5.1225751657
 30
0.0
 10
5.1365583981
 20
5.1224623459
 30
0.0
 10
5.1356295245
 20
5.122332772
 30
0.0
 10
5.1345332687
 20
5.1222027468
 30
0.0
 10
5.1327396777
 20
5.1220177372
 30
0.0
 10
5.1300836314
 20
5.1217923476
 30
0.0
 10
5.1264042377
 20
5.1215334372
 30
0.0
 10
5.1220762525
 20
5.1212736111
 30
0.0
 10
5.1171095037
 20
5.12101297
 30
0.0
 10
5.1115154419
 20
5.1207518913
 30
0.0
 10
5.1053068127
 20
5.1204904312
 30
0.0
 10
5.0984979691
 20
5.1202287374
 30
0.0
 10
5.0911045086
 20
5.1199668443
 30
0.0
 10
5.0831434419
 20
5.1197047937
 30
0.0
 10
5.0714479419
 20
5.1193445695
 30
0.0
 10
5.0555575139
 20
5.1188987086
 30
0.0
 10
5.0350687951
 20
5.1183772107
 30
0.0
 10
5.0128262192
 20
5.1178550899
 30
0.0
 10
4.9890342839
 20
5.117332481
 30
0.0
 10
4.963911737
 20
5.1168095356
 30
0.0
 10
4.937689597
 20
5.1162863449
 30
0.0
 10
4.9106089791
 20
5.1157629834
 30
0.0
 10
4.8829189026
 20
5.1152395101
 30
0.0
 10
4.8548739699
 20
5.1147159749
 30
0.0
 10
4.826732043
 20
5.1141924231
 30
0.0
 10
4.7987519016
 20
5.1136688994
 30
0.0
 10
4.7711908158
 20
5.1131454492
 30
0.0
 10
4.7443022377
 20
5.1126221245
 30
0.0
 10
4.7183333902
 20
5.1120989874
 30
0.0
 10
4.6935230544
 20
5.1115761151
 30
0.0
 10
4.6700993436
 20
5.1110536162
 30
0.0
 10
4.6482776265
 20
5.1105316242
 30
0.0
 10
4.6282585564
 20
5.1100103936
 30
0.0
 10
4.6102262033
 20
5.1094901283
 30
0.0
 10
4.596518489
 20
5.1090426758
 30
0.0
 10
4.5866685737
 20
5.1086796847
 30
0.0
 10
4.5801586774
 20
5.1084180818
 30
0.0
 10
4.5742563848
 20
5.1081568126
 30
0.0
 10
4.5689751853
 20
5.1078959099
 30
0.0
 10
4.5643272745
 20
5.107635676
 30
0.0
 10
4.5603232011
 20
5.107376175
 30
0.0
 10
4.5573938982
 20
5.1071509382
 30
0.0
 10
4.5553797032
 20
5.1069669117
 30
0.0
 10
4.55411709
 20
5.1068365257
 30
0.0
 10
4.5530212761
 20
5.1067064865
 30
0.0
 10
4.5520926886
 20
5.1065770092
 30
0.0
 10
4.5513318223
 20
5.1064482707
 30
0.0
 10
4.5508825163
 20
5.1063521599
 30
0.0
 10
4.5506869994
 20
5.1063014586
 30
0.0
  0
SPLINE
  5
398
100
AcDbEntity
  8
0
100
AcDbSpline
 62
7
  6
CONTINUOUS
 70
0
 71
3
 72
63
 73
59
 74
0
 42
0.0000001
 43
0.0000001
 44
0.0000000001
 40
0.0
 40
0.0
 40
0.0
 40
0.0
 40
0.0001173722
 40
0.000189081
 40
0.0002732352
 40
0.0004849145
 40
0.0007602539
 40
0.0011024851
 40
0.0015132474
 40
0.0019934642
 40
0.0025436893
 40
0.0038551512
 40
0.0054487235
 40
0.0073244858
 40
0.0094821048
 40
0.0146398198
 40
0.0209115501
 40
0.0282843329
 40
0.0367417859
 40
0.046264686
 40
0.0568319089
 40
0.0684187719
 40
0.0809994511
 40
0.0945445776
 40
0.109023432
 40
0.140646966
 40
0.1755799376
 40
0.2135014434
 40
0.254063144
 40
0.2968922139
 40
0.3415950865
 40
0.3877609338
 40
0.4349653959
 40
0.4827746537
 40
0.5307491763
 40
0.578447978
 40
0.6254326401
 40
0.6712712806
 40
0.7155426212
 40
0.7578397897
 40
0.7977739975
 40
0.8349783389
 40
0.8691109684
 40
0.8998585687
 40
0.9269390107
 40
0.9390252463
 40
0.9501041894
 40
0.9601509507
 40
0.9691425316
 40
0.9770584606
 40
0.9838815086
 40
0.9895962074
 40
0.9920344493
 40
0.9941916852
 40
0.9960668925
 40
0.9976596416
 40
0.998970271
 40
1.0
 40
1.0
 40
1.0
 40
1.0
 10
5.1387266041
 20
5.1575822979
 30
0.0
 10
5.1387266008
 20
5.1575592731
 30
0.0
 10
5.138712601
 20
5.1575221544
 30
0.0
 10
5.1386781386
 20
5.1574811174
 30
0.0
 10
5.1386234658
 20
5.1574336156
 30
0.0
 10
5.1385261856
 20
5.15737669
 30
0.0
 10
5.1383766345
 20
5.1573123096
 30
0.0
 10
5.1381853501
 20
5.1572476816
 30
0.0
 10
5.1379522359
 20
5.1571827641
 30
0.0
 10
5.1376770553
 20
5.1571176562
 30
0.0
 10
5.1372270028
 20
5.1570251741
 30
0.0
 10
5.1365584559
 20
5.1569123641
 30
0.0
 10
5.1356295395
 20
5.1567827973
 30
0.0
 10
5.1345333279
 20
5.1566527654
 30
0.0
 10
5.1327397927
 20
5.1564677264
 30
0.0
 10
5.1300837894
 20
5.156242369
 30
0.0
 10
5.1264044133
 20
5.1559834472
 30
0.0
 10
5.1220764253
 20
5.1557236154
 30
0.0
 10
5.1171097303
 20
5.1554629925
 30
0.0
 10
5.1115156497
 20
5.1552018887
 30
0.0
 10
5.1053070963
 20
5.1549404525
 30
0.0
 10
5.0984982321
 20
5.1546787396
 30
0.0
 10
5.0911048079
 20
5.1544168581
 30
0.0
 10
5.0831437424
 20
5.154154803
 30
0.0
 10
5.071448296
 20
5.1537945782
 30
0.0
 10
5.0555579057
 20
5.1533487169
 30
0.0
 10
5.0350691927
 20
5.1528272189
 30
0.0
 10
5.0128265848
 20
5.1523050984
 30
0.0
 10
4.989034625
 20
5.1517824895
 30
0.0
 10
4.9639120776
 20
5.1512595434
 30
0.0
 10
4.9376899497
 20
5.150736352
 30
0.0
 10
4.910609345
 20
5.1502129901
 30
0.0
 10
4.8829192558
 20
5.1496895164
 30
0.0
 10
4.8548742998
 20
5.149165981
 30
0.0
 10
4.8267323532
 20
5.1486424292
 30
0.0
 10
4.7987521942
 20
5.1481189048
 30
0.0
 10
4.7711911013
 20
5.1475954541
 30
0.0
 10
4.7443024907
 20
5.147072129
 30
0.0
 10
4.7183335956
 20
5.1465489915
 30
0.0
 10
4.6935232048
 20
5.1460261194
 30
0.0
 10
4.6700994539
 20
5.1455036203
 30
0.0
 10
4.648277743
 20
5.1449816281
 30
0.0
 10
4.6282586914
 20
5.1444603959
 30
0.0
 10
4.6102263474
 20
5.1439401307
 30
0.0
 10
4.5965185872
 20
5.1434926741
 30
0.0
 10
4.5866686321
 20
5.1431296895
 30
0.0
 10
4.5801587231
 20
5.1428680854
 30
0.0
 10
4.5742564088
 20
5.1426068061
 30
0.0
 10
4.5689752322
 20
5.1423459249
 30
0.0
 10
4.5643272681
 20
5.1420856588
 30
0.0
 10
4.560323238
 20
5.1418261944
 30
0.0
 10
4.5573939296
 20
5.1416009363
 30
0.0
 10
4.5553797497
 20
5.1414169032
 30
0.0
 10
4.5541170754
 20
5.1412865301
 30
0.0
 10
4.5530212295
 20
5.1411564973
 30
0.0
 10
4.5520926898
 20
5.1410270122
 30
0.0
 10
4.551331873
 20
5.1408982587
 30
0.0
 10
4.5508825821
 20
5.1408021513
 30
0.0
 10
4.5506870454
 20
5.1407514587
 30
0.0
  0
SPLINE
  5
399
100
AcDbEntity
  8
0
100
AcDbSpline
 62
7
  6
CONTINUOUS
 70
0
 71
3
 72
43
 73
39
 74
0
 42
0.0000001
 43
0.0000001
 44
0.0000000001
 40
0.0
 40
0.0
 40
0.0
 40
0.0
 40
0.0001050661
 40
0.0002263949
 40
0.0003749753
 40
0.0005569162
 40
0.001032387
 40
0.0016666138
 40
0.0024647015
 40
0.0034291083
 40
0.0045610751
 40
0.0058611124
 40
0.0073294085
 40
0.0089659735
 40
0.0127433862
 40
0.0171917943
 40
0.0223077976
 40
0.0280866129
 40
0.0345232306
 40
0.0493465043
 40
0.0667210862
 40
0.0865818586
 40
0.1088521512
 40
0.1334469367
 40
0.1602715102
 40
0.1892224921
 40
0.2201888481
 40
0.2530506427
 40
0.2876818847
 40
0.3239484485
 40
0.4008238083
 40
0.4824920069
 40
0.5676945479
 40
0.6551182868
 40
0.7434155872
 40
0.8312264245
 40
0.9171948616
 40
1.0
 40
1.0
 40
1.0
 40
1.0
 10
5.1387265207
 20
4.5374822981
 30
0.0
 10
5.1387265119
 20
4.5374677985
 30
0.0
 10
5.1387193611
 20
4.5374363597
 30
0.0
 10
5.1386901654
 20
4.5373927618
 30
0.0
 10
5.1386440407
 20
4.5373502626
 30
0.0
 10
5.1385511818
 20
4.5372884921
 30
0.0
 10
5.1383877911
 20
4.5372150906
 30
0.0
 10
5.1381378273
 20
4.5371321155
 30
0.0
 10
5.1378175568
 20
4.5370486187
 30
0.0
 10
5.1374269762
 20
4.5369646308
 30
0.0
 10
5.1369658264
 20
4.536880374
 30
0.0
 10
5.1364342018
 20
4.5367959101
 30
0.0
 10
5.1358321959
 20
4.5367112978
 30
0.0
 10
5.1348898323
 20
4.536592594
 30
0.0
 10
5.1335365145
 20
4.5364467434
 30
0.0
 10
5.1317029537
 20
4.5362783298
 30
0.0
 10
5.1295922173
 20
4.5361095234
 30
0.0
 10
5.1272063645
 20
4.5359403582
 30
0.0
 10
5.1234824161
 20
4.5357032152
 30
0.0
 10
5.1181585432
 20
4.5354120037
 30
0.0
 10
5.1109820595
 20
4.5350753961
 30
0.0
 10
5.1027769035
 20
4.5347379884
 30
0.0
 10
5.093574616
 20
4.534399889
 30
0.0
 10
5.0834107244
 20
4.5340613608
 30
0.0
 10
5.0723244134
 20
4.5337224992
 30
0.0
 10
5.0603584259
 20
4.533383388
 30
0.0
 10
5.0475589682
 20
4.5330440957
 30
0.0
 10
5.0339753545
 20
4.5327046471
 30
0.0
 10
5.0196600747
 20
4.532365086
 30
0.0
 10
4.9992719248
 20
4.5319031988
 30
0.0
 10
4.9723933151
 20
4.5313306654
 30
0.0
 10
4.9387620016
 20
4.5306554869
 30
0.0
 10
4.903674693
 20
4.5299798537
 30
0.0
 10
4.8676723799
 20
4.5293039365
 30
0.0
 10
4.8313100495
 20
4.5286279175
 30
0.0
 10
4.7951485908
 20
4.5279519586
 30
0.0
 10
4.759745206
 20
4.527276218
 30
0.0
 10
4.7364582366
 20
4.5268150427
 30
0.0
 10
4.7250331161
 20
4.5265822981
 30
0.0
  0
SPLINE
  5
39A
100
AcDbEntity
  8
0
100
AcDbSpline
 62
7
  6
CONTINUOUS
 70
0
 71
3
 72
63
 73
59
 74
0
 42
0.0000001
 43
0.0000001
 44
0.0000000001
 40
0.0
 40
0.0
 40
0.0
 40
0.0
 40
0.0010305488
 40
0.0023428763
 40
0.0039379092
 40
0.0058154627
 40
0.0079749741
 40
0.0104156864
 40
0.0161361879
 40
0.0229645197
 40
0.0308862536
 40
0.0398832882
 40
0.0499354205
 40
0.0610198261
 40
0.0731109087
 40
0.1002008843
 40
0.1309571577
 40
0.1650974078
 40
0.2023081681
 40
0.2422476303
 40
0.284548844
 40
0.3288231691
 40
0.3746637636
 40
0.4216493439
 40
0.4693481802
 40
0.5173217944
 40
0.5651293801
 40
0.6123315063
 40
0.6584944184
 40
0.7031939143
 40
0.7460192019
 40
0.7865768078
 40
0.8244940777
 40
0.8594226492
 40
0.8756647097
 40
0.8910418262
 40
0.9055184197
 40
0.9190613758
 40
0.9316397528
 40
0.9432244591
 40
0.9537894533
 40
0.9633100455
 40
0.9717652419
 40
0.979135424
 40
0.9854046854
 40
0.9905593093
 40
0.9927153186
 40
0.9945893618
 40
0.996180879
 40
0.9974896931
 40
0.9980383526
 40
0.9985168556
 40
0.9989256789
 40
0.9992656229
 40
0.9995381323
 40
0.9996499814
 40
0.9997463072
 40
1.0
 40
1.0
 40
1.0
 40
1.0
 10
5.1582556439
 20
5.0723491357
 30
0.0
 10
5.1580455686
 20
5.0722984181
 30
0.0
 10
5.1575634176
 20
5.072202298
 30
0.0
 10
5.1567476389
 20
5.0720735624
 30
0.0
 10
5.1557524975
 20
5.0719441102
 30
0.0
 10
5.1545785552
 20
5.0718140931
 30
0.0
 10
5.153226367
 20
5.0716837302
 30
0.0
 10
5.1510698666
 20
5.0714997235
 30
0.0
 10
5.14793444
 20
5.0712745334
 30
0.0
 10
5.1436494654
 20
5.071015052
 30
0.0
 10
5.1386763445
 20
5.0707548373
 30
0.0
 10
5.1330264133
 20
5.0704939736
 30
0.0
 10
5.1267126447
 20
5.0702327223
 30
0.0
 10
5.1197495541
 20
5.0699711565
 30
0.0
 10
5.1092148869
 20
5.0696082059
 30
0.0
 10
5.0945554723
 20
5.0691608137
 30
0.0
 10
5.0752724618
 20
5.068640602
 30
0.0
 10
5.0538664082
 20
5.0681194277
 30
0.0
 10
5.0305340986
 20
5.0675974927
 30
0.0
 10
5.005490012
 20
5.0670750512
 30
0.0
 10
4.9789643686
 20
5.066552237
 30
0.0
 10
4.9512010072
 20
5.0660291581
 30
0.0
 10
4.9224551483
 20
5.0655058918
 30
0.0
 10
4.8929910402
 20
5.0649825001
 30
0.0
 10
4.86307956
 20
5.0644590349
 30
0.0
 10
4.8329956759
 20
5.063935542
 30
0.0
 10
4.8030159696
 20
5.0634120657
 30
0.0
 10
4.7734160333
 20
5.0628886513
 30
0.0
 10
4.7444679795
 20
5.0623653486
 30
0.0
 10
4.7164379198
 20
5.0618422174
 30
0.0
 10
4.6895835267
 20
5.0613193279
 30
0.0
 10
4.6641516729
 20
5.0607967881
 30
0.0
 10
4.6403761592
 20
5.0602746943
 30
0.0
 10
4.6216992813
 20
5.0598301033
 30
0.0
 10
4.6077485065
 20
5.0594716259
 30
0.0
 10
4.59808556
 20
5.0592094034
 30
0.0
 10
4.5889888459
 20
5.0589472766
 30
0.0
 10
4.580479296
 20
5.0586852636
 30
0.0
 10
4.5725764907
 20
5.0584234062
 30
0.0
 10
4.5652985407
 20
5.0581617262
 30
0.0
 10
4.5586622621
 20
5.057900321
 30
0.0
 10
4.5526827991
 20
5.0576392447
 30
0.0
 10
4.547373991
 20
5.0573786656
 30
0.0
 10
4.5427478729
 20
5.0571188456
 30
0.0
 10
4.5388151199
 20
5.0568599769
 30
0.0
 10
4.535976105
 20
5.0566346399
 30
0.0
 10
4.5340588963
 20
5.0564496292
 30
0.0
 10
4.5328871563
 20
5.0563196279
 30
0.0
 10
4.5318943007
 20
5.0561900958
 30
0.0
 10
4.5311797069
 20
5.0560772788
 30
0.0
 10
4.5306986125
 20
5.0559847737
 30
0.0
 10
4.5304045406
 20
5.0559196513
 30
0.0
 10
4.5301554387
 20
5.0558548133
 30
0.0
 10
4.5299510318
 20
5.0557900568
 30
0.0
 10
4.5298100787
 20
5.0557337232
 30
0.0
 10
4.5297200987
 20
5.0556866437
 30
0.0
 10
4.5296400539
 20
5.0556363454
 30
0.0
 10
4.5295765714
 20
5.0555733665
 30
0.0
 10
4.5295765714
 20
5.055520166
 30
0.0
  0
SPLINE
  5
39B
100
AcDbEntity
  8
0
100
AcDbSpline
 62
7
  6
CONTINUOUS
 70
0
 71
3
 72
62
 73
58
 74
0
 42
0.0000001
 43
0.0000001
 44
0.0000000001
 40
0.0
 40
0.0
 40
0.0
 40
0.0
 40
0.0011351644
 40
0.002550389
 40
0.0042462241
 40
0.0062225838
 40
0.0110147108
 40
0.016918164
 40
0.0239207463
 40
0.0320075346
 40
0.0411600121
 40
0.0513582742
 40
0.0625785898
 40
0.0747959825
 40
0.102107807
 40
0.1330450796
 40
0.1673256176
 40
0.2046364906
 40
0.2446369851
 40
0.2869617418
 40
0.3312241979
 40
0.3770200379
 40
0.4239308556
 40
0.4715281512
 40
0.5193769208
 40
0.5670401014
 40
0.6140821853
 40
0.6600734141
 40
0.7045936869
 40
0.7472361757
 40
0.7876114285
 40
0.8253506019
 40
0.8601091841
 40
0.8915699243
 40
0.9059727756
 40
0.9194458392
 40
0.9319587508
 40
0.9434829544
 40
0.9539920674
 40
0.9634627501
 40
0.9718730197
 40
0.9792047849
 40
0.985441369
 40
0.9905700001
 40
0.9927157451
 40
0.9945810184
 40
0.9961654904
 40
0.9974694821
 40
0.9980166583
 40
0.998494299
 40
0.998902908
 40
0.9992433524
 40
0.9995172414
 40
0.9997278337
 40
0.9998115892
 40
0.9998829953
 40
1.0
 40
1.0
 40
1.0
 40
1.0
 10
5.1377564838
 20
5.0670370724
 30
0.0
 10
5.1375395269
 20
5.0669872582
 30
0.0
 10
5.1370483131
 20
5.0668919475
 30
0.0
 10
5.136225573
 20
5.0667632376
 30
0.0
 10
5.135236277
 20
5.0666338842
 30
0.0
 10
5.1335867511
 20
5.0664487145
 30
0.0
 10
5.1311117676
 20
5.0662240039
 30
0.0
 10
5.1276507243
 20
5.0659662957
 30
0.0
 10
5.123542162
 20
5.0657075385
 30
0.0
 10
5.1187954702
 20
5.0654478983
 30
0.0
 10
5.1134213217
 20
5.065187711
 30
0.0
 10
5.1074320778
 20
5.0649271649
 30
0.0
 10
5.100841314
 20
5.0646663031
 30
0.0
 10
5.0908960463
 20
5.0643046597
 30
0.0
 10
5.0770849298
 20
5.0638586724
 30
0.0
 10
5.058947546
 20
5.0633398592
 30
0.0
 10
5.0388486852
 20
5.0628201169
 30
0.0
 10
5.0169720347
 20
5.0622996433
 30
0.0
 10
4.993517536
 20
5.0617786796
 30
0.0
 10
4.968699546
 20
5.0612573553
 30
0.0
 10
4.9427448739
 20
5.0607357748
 30
0.0
 10
4.9158907185
 20
5.060214013
 30
0.0
 10
4.888382494
 20
5.0596921304
 30
0.0
 10
4.8604716266
 20
5.0591701778
 30
0.0
 10
4.8324131982
 20
5.0586481998
 30
0.0
 10
4.8044636635
 20
5.0581262403
 30
0.0
 10
4.7768784496
 20
5.0576043439
 30
0.0
 10
4.7499096602
 20
5.0570825604
 30
0.0
 10
4.7238037801
 20
5.056560948
 30
0.0
 10
4.6987993981
 20
5.0560395812
 30
0.0
 10
4.6751250644
 20
5.0555185506
 30
0.0
 10
4.6529971246
 20
5.054998007
 30
0.0
 10
4.6326177989
 20
5.0544780851
 30
0.0
 10
4.61681426
 20
5.0540335567
 30
0.0
 10
4.6051840612
 20
5.0536744127
 30
0.0
 10
4.5972682396
 20
5.0534131543
 30
0.0
 10
4.5899172352
 20
5.0531520574
 30
0.0
 10
4.5831478394
 20
5.0528911546
 30
0.0
 10
4.576975487
 20
5.0526304887
 30
0.0
 10
4.5714143453
 20
5.0523702011
 30
0.0
 10
4.5664770099
 20
5.0521103488
 30
0.0
 10
4.5621747989
 20
5.051851313
 30
0.0
 10
4.5585174126
 20
5.0515931834
 30
0.0
 10
4.5558773128
 20
5.0513684789
 30
0.0
 10
4.5540945238
 20
5.0511840301
 30
0.0
 10
4.5530048856
 20
5.0510543969
 30
0.0
 10
4.5520816201
 20
5.0509252158
 30
0.0
 10
4.5514171712
 20
5.0508127385
 30
0.0
 10
4.550969855
 20
5.0507205362
 30
0.0
 10
4.5506963021
 20
5.0506556247
 30
0.0
 10
4.5504645516
 20
5.0505909042
 30
0.0
 10
4.5502743951
 20
5.0505264718
 30
0.0
 10
4.5501257505
 20
5.0504622803
 30
0.0
 10
4.5500290903
 20
5.0504055167
 30
0.0
 10
4.5499747919
 20
5.0503581623
 30
0.0
 10
4.5499405583
 20
5.0503172284
 30
0.0
 10
4.5499266854
 20
5.0502802424
 30
0.0
 10
4.5499266892
 20
5.0502572981
 30
0.0
  0
SPLINE
  5
39C
100
AcDbEntity
  8
0
100
AcDbSpline
 62
7
  6
CONTINUOUS
 70
0
 71
3
 72
63
 73
59
 74
0
 42
0.0000001
 43
0.0000001
 44
0.0000000001
 40
0.0
 40
0.0
 40
0.0
 40
0.0
 40
0.0010305488
 40
0.0023428763
 40
0.0039379092
 40
0.0058154627
 40
0.0079749741
 40
0.0104156864
 40
0.0161361879
 40
0.0229645197
 40
0.0308862536
 40
0.0398832882
 40
0.0499354205
 40
0.0610198261
 40
0.0731109087
 40
0.1002008843
 40
0.1309571577
 40
0.1650974078
 40
0.2023081681
 40
0.2422476303
 40
0.284548844
 40
0.3288231691
 40
0.3746637636
 40
0.4216493439
 40
0.4693481802
 40
0.5173217944
 40
0.5651293801
 40
0.6123315063
 40
0.6584944184
 40
0.7031939143
 40
0.7460192019
 40
0.7865768078
 40
0.8244940777
 40
0.8594226492
 40
0.8756647097
 40
0.8910418262
 40
0.9055184197
 40
0.9190613758
 40
0.9316397528
 40
0.9432244591
 40
0.9537894533
 40
0.9633100455
 40
0.9717652419
 40
0.979135424
 40
0.9854046854
 40
0.9905593093
 40
0.9927153186
 40
0.9945893618
 40
0.996180879
 40
0.9974896931
 40
0.9980383526
 40
0.9985168556
 40
0.9989256789
 40
0.9992656229
 40
0.9995381323
 40
0.9996499814
 40
0.9997463072
 40
1.0
 40
1.0
 40
1.0
 40
1.0
 10
5.1582556439
 20
5.1067991357
 30
0.0
 10
5.1580455686
 20
5.1067484181
 30
0.0
 10
5.1575634176
 20
5.106652298
 30
0.0
 10
5.1567476389
 20
5.1065235624
 30
0.0
 10
5.1557524975
 20
5.1063941102
 30
0.0
 10
5.1545785552
 20
5.1062640931
 30
0.0
 10
5.153226367
 20
5.1061337302
 30
0.0
 10
5.1510698666
 20
5.1059497235
 30
0.0
 10
5.14793444
 20
5.1057245334
 30
0.0
 10
5.1436494654
 20
5.105465052
 30
0.0
 10
5.1386763445
 20
5.1052048373
 30
0.0
 10
5.1330264133
 20
5.1049439736
 30
0.0
 10
5.1267126447
 20
5.1046827223
 30
0.0
 10
5.1197495541
 20
5.1044211565
 30
0.0
 10
5.1092148869
 20
5.1040582059
 30
0.0
 10
5.0945554723
 20
5.1036108137
 30
0.0
 10
5.0752724618
 20
5.103090602
 30
0.0
 10
5.0538664082
 20
5.1025694277
 30
0.0
 10
5.0305340986
 20
5.1020474927
 30
0.0
 10
5.005490012
 20
5.1015250512
 30
0.0
 10
4.9789643686
 20
5.101002237
 30
0.0
 10
4.9512010072
 20
5.1004791581
 30
0.0
 10
4.9224551483
 20
5.0999558918
 30
0.0
 10
4.8929910402
 20
5.0994325001
 30
0.0
 10
4.86307956
 20
5.0989090349
 30
0.0
 10
4.8329956759
 20
5.098385542
 30
0.0
 10
4.8030159696
 20
5.0978620657
 30
0.0
 10
4.7734160333
 20
5.0973386513
 30
0.0
 10
4.7444679795
 20
5.0968153486
 30
0.0
 10
4.7164379198
 20
5.0962922174
 30
0.0
 10
4.6895835267
 20
5.0957693279
 30
0.0
 10
4.6641516729
 20
5.0952467881
 30
0.0
 10
4.6403761592
 20
5.0947246943
 30
0.0
 10
4.6216992813
 20
5.0942801033
 30
0.0
 10
4.6077485065
 20
5.0939216259
 30
0.0
 10
4.59808556
 20
5.0936594034
 30
0.0
 10
4.5889888459
 20
5.0933972766
 30
0.0
 10
4.580479296
 20
5.0931352636
 30
0.0
 10
4.5725764907
 20
5.0928734062
 30
0.0
 10
4.5652985407
 20
5.0926117262
 30
0.0
 10
4.5586622621
 20
5.092350321
 30
0.0
 10
4.5526827991
 20
5.0920892447
 30
0.0
 10
4.547373991
 20
5.0918286656
 30
0.0
 10
4.5427478729
 20
5.0915688456
 30
0.0
 10
4.5388151199
 20
5.0913099769
 30
0.0
 10
4.535976105
 20
5.0910846399
 30
0.0
 10
4.5340588963
 20
5.0908996292
 30
0.0
 10
4.5328871563
 20
5.0907696279
 30
0.0
 10
4.5318943007
 20
5.0906400958
 30
0.0
 10
4.5311797069
 20
5.0905272788
 30
0.0
 10
4.5306986125
 20
5.0904347737
 30
0.0
 10
4.5304045406
 20
5.0903696513
 30
0.0
 10
4.5301554387
 20
5.0903048133
 30
0.0
 10
4.5299510318
 20
5.0902400568
 30
0.0
 10
4.5298100787
 20
5.0901837232
 30
0.0
 10
4.5297200987
 20
5.0901366437
 30
0.0
 10
4.5296400539
 20
5.0900863454
 30
0.0
 10
4.5295765714
 20
5.0900233665
 30
0.0
 10
4.5295765714
 20
5.089970166
 30
0.0
  0
LINE
  5
39D
100
AcDbEntity
  8
0
100
AcDbLine
 62
7
  6
CONTINUOUS
 10
5.1379660469
 20
5.1015381376
 11
5.1377169069
 21
5.1014780971
  0
SPLINE
  5
39E
100
AcDbEntity
  8
0
100
AcDbSpline
 62
7
  6
CONTINUOUS
 70
0
 71
3
 72
62
 73
58
 74
0
 42
0.0000001
 43
0.0000001
 44
0.0000000001
 40
0.0
 40
0.0
 40
0.0
 40
0.0
 40
0.0011534709
 40
0.0025869035
 40
0.0043009338
 40
0.0062952089
 40
0.0111215281
 40
0.0170581493
 40
0.0240921893
 40
0.0322087338
 40
0.0413896471
 40
0.0516140822
 40
0.0628593976
 40
0.0750995005
 40
0.1024519547
 40
0.1334224343
 40
0.1677287871
 40
0.2050581716
 40
0.2450701242
 40
0.2873996929
 40
0.3316605732
 40
0.3774489584
 40
0.4243468558
 40
0.4719263052
 40
0.5197530859
 40
0.5673906931
 40
0.614404408
 40
0.6603651262
 40
0.7048533608
 40
0.7474631905
 40
0.7878057952
 40
0.8255131672
 40
0.8602413792
 40
0.8916736998
 40
0.906062996
 40
0.9195237288
 40
0.932024636
 40
0.9435378705
 40
0.9540369466
 40
0.9634982408
 40
0.9719006144
 40
0.9792248637
 40
0.9854555842
 40
0.990578951
 40
0.992722456
 40
0.9945860459
 40
0.9961691434
 40
0.9974717617
 40
0.9980183031
 40
0.9984953871
 40
0.9989035501
 40
0.9992436897
 40
0.9995174185
 40
0.999727939
 40
0.9998116711
 40
0.9998830529
 40
1.0
 40
1.0
 40
1.0
 40
1.0
 10
5.1377169069
 20
5.1014780971
 30
0.0
 10
5.1374962516
 20
5.1014284277
 30
0.0
 10
5.1369977719
 20
5.1013332386
 30
0.0
 10
5.1361642324
 20
5.1012045404
 30
0.0
 10
5.1351642632
 20
5.101075229
 30
0.0
 10
5.1335009602
 20
5.1008902618
 30
0.0
 10
5.1310093582
 20
5.1006656329
 30
0.0
 10
5.1275291164
 20
5.1004080399
 30
0.0
 10
5.1234022908
 20
5.100149375
 30
0.0
 10
5.1186383161
 20
5.0998898438
 30
0.0
 10
5.1132479702
 20
5.0996297973
 30
0.0
 10
5.1072435105
 20
5.0993693568
 30
0.0
 10
5.1006386967
 20
5.0991086472
 30
0.0
 10
5.0906767735
 20
5.0987472198
 30
0.0
 10
5.0768476595
 20
5.0983015042
 30
0.0
 10
5.0586919705
 20
5.0977829427
 30
0.0
 10
5.0385792797
 20
5.0972634633
 30
0.0
 10
5.0166931885
 20
5.0967432555
 30
0.0
 10
4.9932334776
 20
5.0962225618
 30
0.0
 10
4.9684143094
 20
5.0957015096
 30
0.0
 10
4.9424622468
 20
5.095180203
 30
0.0
 10
4.9156142407
 20
5.0946587163
 30
0.0
 10
4.8881154015
 20
5.0941371093
 30
0.0
 10
4.8602167975
 20
5.0936154326
 30
0.0
 10
4.8321731241
 20
5.0930937312
 30
0.0
 10
4.8042404006
 20
5.0925720486
 30
0.0
 10
4.7766736441
 20
5.0920504297
 30
0.0
 10
4.7497245376
 20
5.0915289239
 30
0.0
 10
4.7236391224
 20
5.0910075887
 30
0.0
 10
4.6986555489
 20
5.0904864989
 30
0.0
 10
4.6750018858
 20
5.0899657453
 30
0.0
 10
4.6528940615
 20
5.0894454798
 30
0.0
 10
4.632533902
 20
5.0889258326
 30
0.0
 10
4.6167456364
 20
5.0884815485
 30
0.0
 10
4.6051268872
 20
5.0881225791
 30
0.0
 10
4.5972190398
 20
5.0878614736
 30
0.0
 10
4.5898754644
 20
5.0876005071
 30
0.0
 10
4.5831130076
 20
5.087339745
 30
0.0
 10
4.5769470396
 20
5.0870792278
 30
0.0
 10
4.5713916394
 20
5.0868190582
 30
0.0
 10
4.5664595055
 20
5.0865593753
 30
0.0
 10
4.562161765
 20
5.0863004428
 30
0.0
 10
4.5585082847
 20
5.0860424822
 30
0.0
 10
4.5558709889
 20
5.0858178899
 30
0.0
 10
4.5540901265
 20
5.0856335242
 30
0.0
 10
4.5530016018
 20
5.0855039661
 30
0.0
 10
4.5520792664
 20
5.0853748714
 30
0.0
 10
4.5514155278
 20
5.0852624473
 30
0.0
 10
4.5509687482
 20
5.0851702883
 30
0.0
 10
4.5506955376
 20
5.0851054092
 30
0.0
 10
4.5504640619
 20
5.0850407196
 30
0.0
 10
4.5502740989
 20
5.0849763173
 30
0.0
 10
4.5501255661
 20
5.084912162
 30
0.0
 10
4.5500289528
 20
5.0848554353
 30
0.0
 10
4.5499746679
 20
5.084808109
 30
0.0
 10
4.5499404415
 20
5.0847672008
 30
0.0
 10
4.5499265765
 20
5.0847302295
 30
0.0
 10
4.5499265868
 20
5.0847072981
 30
0.0
  0
SPLINE
  5
39F
100
AcDbEntity
  8
0
100
AcDbSpline
 62
7
  6
CONTINUOUS
 70
0
 71
3
 72
63
 73
59
 74
0
 42
0.0000001
 43
0.0000001
 44
0.0000000001
 40
0.0
 40
0.0
 40
0.0
 40
0.0
 40
0.0010305488
 40
0.0023428763
 40
0.0039379092
 40
0.0058154627
 40
0.0079749741
 40
0.0104156864
 40
0.0161361879
 40
0.0229645197
 40
0.0308862536
 40
0.0398832882
 40
0.0499354205
 40
0.0610198261
 40
0.0731109087
 40
0.1002008843
 40
0.1309571577
 40
0.1650974078
 40
0.2023081681
 40
0.2422476303
 40
0.284548844
 40
0.3288231691
 40
0.3746637636
 40
0.4216493439
 40
0.4693481802
 40
0.5173217944
 40
0.5651293801
 40
0.6123315063
 40
0.6584944184
 40
0.7031939143
 40
0.7460192019
 40
0.7865768078
 40
0.8244940777
 40
0.8594226492
 40
0.8756647097
 40
0.8910418262
 40
0.9055184197
 40
0.9190613758
 40
0.9316397528
 40
0.9432244591
 40
0.9537894533
 40
0.9633100455
 40
0.9717652419
 40
0.979135424
 40
0.9854046854
 40
0.9905593093
 40
0.9927153186
 40
0.9945893618
 40
0.996180879
 40
0.9974896931
 40
0.9980383526
 40
0.9985168556
 40
0.9989256789
 40
0.9992656229
 40
0.9995381323
 40
0.9996499814
 40
0.9997463072
 40
1.0
 40
1.0
 40
1.0
 40
1.0
 10
5.1582556439
 20
5.1412491357
 30
0.0
 10
5.1580455686
 20
5.1411984181
 30
0.0
 10
5.1575634176
 20
5.141102298
 30
0.0
 10
5.1567476389
 20
5.1409735624
 30
0.0
 10
5.1557524975
 20
5.1408441102
 30
0.0
 10
5.1545785552
 20
5.1407140931
 30
0.0
 10
5.153226367
 20
5.1405837302
 30
0.0
 10
5.1510698666
 20
5.1403997235
 30
0.0
 10
5.14793444
 20
5.1401745334
 30
0.0
 10
5.1436494654
 20
5.139915052
 30
0.0
 10
5.1386763445
 20
5.1396548373
 30
0.0
 10
5.1330264133
 20
5.1393939736
 30
0.0
 10
5.1267126447
 20
5.1391327223
 30
0.0
 10
5.1197495541
 20
5.1388711565
 30
0.0
 10
5.1092148869
 20
5.1385082059
 30
0.0
 10
5.0945554723
 20
5.1380608137
 30
0.0
 10
5.0752724618
 20
5.137540602
 30
0.0
 10
5.0538664082
 20
5.1370194277
 30
0.0
 10
5.0305340986
 20
5.1364974927
 30
0.0
 10
5.005490012
 20
5.1359750512
 30
0.0
 10
4.9789643686
 20
5.135452237
 30
0.0
 10
4.9512010072
 20
5.1349291581
 30
0.0
 10
4.9224551483
 20
5.1344058918
 30
0.0
 10
4.8929910402
 20
5.1338825001
 30
0.0
 10
4.86307956
 20
5.1333590349
 30
0.0
 10
4.8329956759
 20
5.132835542
 30
0.0
 10
4.8030159696
 20
5.1323120657
 30
0.0
 10
4.7734160333
 20
5.1317886513
 30
0.0
 10
4.7444679795
 20
5.1312653486
 30
0.0
 10
4.7164379198
 20
5.1307422174
 30
0.0
 10
4.6895835267
 20
5.1302193279
 30
0.0
 10
4.6641516729
 20
5.1296967881
 30
0.0
 10
4.6403761592
 20
5.1291746943
 30
0.0
 10
4.6216992813
 20
5.1287301033
 30
0.0
 10
4.6077485065
 20
5.1283716259
 30
0.0
 10
4.59808556
 20
5.1281094034
 30
0.0
 10
4.5889888459
 20
5.1278472766
 30
0.0
 10
4.580479296
 20
5.1275852636
 30
0.0
 10
4.5725764907
 20
5.1273234062
 30
0.0
 10
4.5652985407
 20
5.1270617262
 30
0.0
 10
4.5586622621
 20
5.126800321
 30
0.0
 10
4.5526827991
 20
5.1265392447
 30
0.0
 10
4.547373991
 20
5.1262786656
 30
0.0
 10
4.5427478729
 20
5.1260188456
 30
0.0
 10
4.5388151199
 20
5.1257599769
 30
0.0
 10
4.535976105
 20
5.1255346399
 30
0.0
 10
4.5340588963
 20
5.1253496292
 30
0.0
 10
4.5328871563
 20
5.1252196279
 30
0.0
 10
4.5318943007
 20
5.1250900958
 30
0.0
 10
4.5311797069
 20
5.1249772788
 30
0.0
 10
4.5306986125
 20
5.1248847737
 30
0.0
 10
4.5304045406
 20
5.1248196513
 30
0.0
 10
4.5301554387
 20
5.1247548133
 30
0.0
 10
4.5299510318
 20
5.1246900568
 30
0.0
 10
4.5298100787
 20
5.1246337232
 30
0.0
 10
4.5297200987
 20
5.1245866437
 30
0.0
 10
4.5296400539
 20
5.1245363454
 30
0.0
 10
4.5295765714
 20
5.1244733665
 30
0.0
 10
4.5295765714
 20
5.124420166
 30
0.0
  0
LINE
  5
3A0
100
AcDbEntity
  8
0
100
AcDbLine
 62
7
  6
CONTINUOUS
 10
5.1379661063
 20
5.1359881375
 11
5.1376746404
 21
5.1359186808
  0
SPLINE
  5
3A1
100
AcDbEntity
  8
0
100
AcDbSpline
 62
7
  6
CONTINUOUS
 70
0
 71
3
 72
62
 73
58
 74
0
 42
0.0000001
 43
0.0000001
 44
0.0000000001
 40
0.0
 40
0.0
 40
0.0
 40
0.0
 40
0.0011730443
 40
0.0026256006
 40
0.004358324
 40
0.0063712126
 40
0.0112339497
 40
0.0172048327
 40
0.0242721248
 40
0.032419758
 40
0.041630272
 40
0.0518825396
 40
0.0631535783
 40
0.0754179804
 40
0.1028127416
 40
0.1338178525
 40
0.1681511376
 40
0.2054999653
 40
0.2455240964
 40
0.2878587113
 40
0.3321179796
 40
0.3778984017
 40
0.4247827054
 40
0.4723435315
 40
0.520147238
 40
0.5677581317
 40
0.6147420224
 40
0.6606707146
 40
0.7051254982
 40
0.7477011782
 40
0.7880097572
 40
0.8256837891
 40
0.8603800326
 40
0.8917824248
 40
0.9061579369
 40
0.9196052202
 40
0.9320940524
 40
0.9435955163
 40
0.9540841948
 40
0.9635357859
 40
0.9719294763
 40
0.9792463978
 40
0.985470397
 40
0.9905888061
 40
0.9927299844
 40
0.9945914471
 40
0.996172879
 40
0.9974743785
 40
0.9980204448
 40
0.9984970459
 40
0.9989047357
 40
0.9992444459
 40
0.9995178219
 40
0.9997280972
 40
0.9998117537
 40
0.9998830906
 40
1.0
 40
1.0
 40
1.0
 40
1.0
 10
5.1376746404
 20
5.1359186808
 30
0.0
 10
5.1374500378
 20
5.1358691575
 30
0.0
 10
5.1369438588
 20
5.1357741207
 30
0.0
 10
5.1360989991
 20
5.1356454281
 30
0.0
 10
5.1350879506
 20
5.1355161351
 30
0.0
 10
5.1334102075
 20
5.1353313688
 30
0.0
 10
5.1309012058
 20
5.1351068901
 30
0.0
 10
5.1274007857
 20
5.1348493468
 30
0.0
 10
5.1232548873
 20
5.1345908239
 30
0.0
 10
5.1184728138
 20
5.1343313926
 30
0.0
 10
5.1130654834
 20
5.1340714845
 30
0.0
 10
5.1070451418
 20
5.1338111816
 30
0.0
 10
5.100425534
 20
5.1335505983
 30
0.0
 10
5.090446222
 20
5.1331894327
 30
0.0
 10
5.0765982609
 20
5.1327439775
 30
0.0
 10
5.0584235298
 20
5.1322256872
 30
0.0
 10
5.0382964276
 20
5.1317064812
 30
0.0
 10
5.0164004603
 20
5.1311865541
 30
0.0
 10
4.9929352823
 20
5.1306661441
 30
0.0
 10
4.9681148768
 20
5.1301453779
 30
0.0
 10
4.9421656106
 20
5.1296243584
 30
0.0
 10
4.9153241225
 20
5.1291031596
 30
0.0
 10
4.8878351852
 20
5.1285818416
 30
0.0
 10
4.859949476
 20
5.1280604546
 30
0.0
 10
4.8319212809
 20
5.1275390436
 30
0.0
 10
4.8040062241
 20
5.1270176519
 30
0.0
 10
4.7764588628
 20
5.1264963236
 30
0.0
 10
4.7495304272
 20
5.1259751084
 30
0.0
 10
4.7234664676
 20
5.1254540643
 30
0.0
 10
4.6985046607
 20
5.1249332656
 30
0.0
 10
4.6748726446
 20
5.1244128036
 30
0.0
 10
4.652785926
 20
5.1238928288
 30
0.0
 10
4.63244594
 20
5.1233734746
 30
0.0
 10
4.6166736772
 20
5.1229294274
 30
0.0
 10
4.6050669918
 20
5.1225706699
 30
0.0
 10
4.5971674351
 20
5.1223096954
 30
0.0
 10
4.5898317129
 20
5.122048894
 30
0.0
 10
4.5830764694
 20
5.1217882601
 30
0.0
 10
4.5769172048
 20
5.1215279017
 30
0.0
 10
4.571367858
 20
5.1212678757
 30
0.0
 10
4.5664411305
 20
5.1210083269
 30
0.0
 10
4.5621481625
 20
5.120749567
 30
0.0
 10
4.5584986818
 20
5.1204917092
 30
0.0
 10
4.5558643239
 20
5.1202672806
 30
0.0
 10
4.5540854395
 20
5.1200830088
 30
0.0
 10
4.5529981968
 20
5.1199535147
 30
0.0
 10
4.5520768946
 20
5.1198244825
 30
0.0
 10
4.5514138417
 20
5.1197121358
 30
0.0
 10
4.5509675004
 20
5.1196200339
 30
0.0
 10
4.5506945907
 20
5.1195551911
 30
0.0
 10
4.5504634055
 20
5.1194905364
 30
0.0
 10
4.5502737065
 20
5.1194261678
 30
0.0
 10
4.5501253916
 20
5.1193620446
 30
0.0
 10
4.5500289261
 20
5.1193053451
 30
0.0
 10
4.5499747183
 20
5.1192580485
 30
0.0
 10
4.549940526
 20
5.1192171579
 30
0.0
 10
4.5499266534
 20
5.1191802205
 30
0.0
 10
4.5499266399
 20
5.1191572982
 30
0.0
  0
SPLINE
  5
3A2
100
AcDbEntity
  8
0
100
AcDbSpline
 62
7
  6
CONTINUOUS
 70
0
 71
3
 72
63
 73
59
 74
0
 42
0.0000001
 43
0.0000001
 44
0.0000000001
 40
0.0
 40
0.0
 40
0.0
 40
0.0
 40
0.0010305439
 40
0.0023428665
 40
0.0039378946
 40
0.0058154434
 40
0.0079749501
 40
0.0104156581
 40
0.0161361513
 40
0.0229644753
 40
0.0308862016
 40
0.0398832294
 40
0.0499353554
 40
0.0610197556
 40
0.0731108327
 40
0.1002007982
 40
0.1309570638
 40
0.1650973053
 40
0.2023080595
 40
0.2422475171
 40
0.2845487262
 40
0.32882305
 40
0.3746636464
 40
0.4216492279
 40
0.469348067
 40
0.5173216871
 40
0.5651292758
 40
0.612331412
 40
0.658494333
 40
0.703193838
 40
0.7460191384
 40
0.7865767516
 40
0.824494031
 40
0.8594226088
 40
0.875664673
 40
0.8910417939
 40
0.9055183912
 40
0.919061351
 40
0.9316397314
 40
0.9432244415
 40
0.9537894395
 40
0.9633100346
 40
0.9717652337
 40
0.9791354181
 40
0.9854046816
 40
0.9905593072
 40
0.992715317
 40
0.9945893606
 40
0.9961808781
 40
0.9974896925
 40
0.9980383522
 40
0.9985168552
 40
0.9989256787
 40
0.9992656228
 40
0.9995381322
 40
0.9996499814
 40
0.9997463072
 40
1.0
 40
1.0
 40
1.0
 40
1.0
 10
5.1582556537
 20
5.1756991381
 30
0.0
 10
5.1580455794
 20
5.1756484204
 30
0.0
 10
5.1575634305
 20
5.1755523003
 30
0.0
 10
5.1567476549
 20
5.1754235647
 30
0.0
 10
5.1557525165
 20
5.1752941124
 30
0.0
 10
5.1545785772
 20
5.1751640953
 30
0.0
 10
5.1532263919
 20
5.1750337325
 30
0.0
 10
5.1510698951
 20
5.1748497257
 30
0.0
 10
5.1479344727
 20
5.1746245356
 30
0.0
 10
5.143649503
 20
5.1743650541
 30
0.0
 10
5.1386763866
 20
5.1741048393
 30
0.0
 10
5.1330264597
 20
5.1738439756
 30
0.0
 10
5.126712695
 20
5.1735827243
 30
0.0
 10
5.1197496078
 20
5.1733211584
 30
0.0
 10
5.1092149449
 20
5.1729582078
 30
0.0
 10
5.094555535
 20
5.1725108155
 30
0.0
 10
5.0752725297
 20
5.1719906038
 30
0.0
 10
5.0538664804
 20
5.1714694294
 30
0.0
 10
5.0305341746
 20
5.1709474943
 30
0.0
 10
5.0054900908
 20
5.1704250528
 30
0.0
 10
4.9789644492
 20
5.1699022386
 30
0.0
 10
4.9512010881
 20
5.1693791596
 30
0.0
 10
4.9224552284
 20
5.1688558932
 30
0.0
 10
4.8929911186
 20
5.1683325015
 30
0.0
 10
4.8630796359
 20
5.1678090362
 30
0.0
 10
4.8329957488
 20
5.1672855433
 30
0.0
 10
4.8030160381
 20
5.1667620669
 30
0.0
 10
4.7734160967
 20
5.1662386524
 30
0.0
 10
4.7444680366
 20
5.1657153496
 30
0.0
 10
4.71643797
 20
5.1651922183
 30
0.0
 10
4.6895835704
 20
5.1646693288
 30
0.0
 10
4.6641517099
 20
5.1641467889
 30
0.0
 10
4.640376191
 20
5.1636246951
 30
0.0
 10
4.6216993088
 20
5.163180104
 30
0.0
 10
4.6077485306
 20
5.1628216266
 30
0.0
 10
4.5980855815
 20
5.162559404
 30
0.0
 10
4.5889888647
 20
5.1622972772
 30
0.0
 10
4.5804793124
 20
5.1620352641
 30
0.0
 10
4.5725765047
 20
5.1617734067
 30
0.0
 10
4.5652985523
 20
5.1615117266
 30
0.0
 10
4.5586622714
 20
5.1612503214
 30
0.0
 10
4.5526828064
 20
5.160989245
 30
0.0
 10
4.5473739965
 20
5.1607286659
 30
0.0
 10
4.5427478768
 20
5.1604688458
 30
0.0
 10
4.5388151225
 20
5.1602099771
 30
0.0
 10
4.5359761067
 20
5.1599846401
 30
0.0
 10
4.5340588974
 20
5.1597996293
 30
0.0
 10
4.5328871571
 20
5.159669628
 30
0.0
 10
4.5318943013
 20
5.1595400959
 30
0.0
 10
4.5311797073
 20
5.1594272789
 30
0.0
 10
4.5306986128
 20
5.1593347738
 30
0.0
 10
4.5304045408
 20
5.1592696513
 30
0.0
 10
4.5301554389
 20
5.1592048133
 30
0.0
 10
4.5299510319
 20
5.1591400569
 30
0.0
 10
4.5298100788
 20
5.1590837232
 30
0.0
 10
4.5297200988
 20
5.1590366438
 30
0.0
 10
4.529640054
 20
5.1589863455
 30
0.0
 10
4.5295765714
 20
5.1589233666
 30
0.0
 10
4.5295765714
 20
5.158870166
 30
0.0
  0
LINE
  5
3A3
100
AcDbEntity
  8
0
100
AcDbLine
 62
7
  6
CONTINUOUS
 10
5.1379661753
 20
5.1704381376
 11
5.1376334109
 21
5.1703596566
  0
SPLINE
  5
3A4
100
AcDbEntity
  8
0
100
AcDbSpline
 62
7
  6
CONTINUOUS
 70
0
 71
3
 72
62
 73
58
 74
0
 42
0.0000001
 43
0.0000001
 44
0.0000000001
 40
0.0
 40
0.0
 40
0.0
 40
0.0
 40
0.0011917355
 40
0.0026628804
 40
0.0044137858
 40
0.0064442606
 40
0.0113415203
 40
0.01734569
 40
0.0244442858
 40
0.032622176
 40
0.0418606508
 40
0.0521396639
 40
0.0634353968
 40
0.0757227799
 40
0.1031580213
 40
0.1341963188
 40
0.1685555901
 40
0.2059230851
 40
0.2459587594
 40
0.2882981069
 40
0.3325556648
 40
0.3783285278
 40
0.4251998336
 40
0.4727428177
 40
0.5205244593
 40
0.5681096385
 40
0.6150650662
 40
0.6609631485
 40
0.7053859404
 40
0.7479289631
 40
0.78820476
 40
0.8258467855
 40
0.8605124217
 40
0.8918863319
 40
0.9062486075
 40
0.919683297
 40
0.9321600979
 40
0.943650796
 40
0.9541290448
 40
0.9635717412
 40
0.9719569871
 40
0.979266774
 40
0.9854846562
 40
0.9905977863
 40
0.9927370683
 40
0.9945967582
 40
0.9961764556
 40
0.9974765101
 40
0.9980220437
 40
0.9984982651
 40
0.9989056827
 40
0.9992451678
 40
0.9995183152
 40
0.9997283668
 40
0.9998119262
 40
0.999883183
 40
1.0
 40
1.0
 40
1.0
 40
1.0
 10
5.1376334109
 20
5.1703596566
 30
0.0
 10
5.1374050461
 20
5.1703102626
 30
0.0
 10
5.1368914556
 20
5.1702153656
 30
0.0
 10
5.1360356585
 20
5.1700866979
 30
0.0
 10
5.1350139397
 20
5.169957441
 30
0.0
 10
5.1333224394
 20
5.1697728286
 30
0.0
 10
5.1307968038
 20
5.1695484851
 30
0.0
 10
5.1272771458
 20
5.1692910447
 30
0.0
 10
5.1231129112
 20
5.1690325988
 30
0.0
 10
5.1183135971
 20
5.168773315
 30
0.0
 10
5.1128899745
 20
5.1685135036
 30
0.0
 10
5.1068544778
 20
5.1682533487
 30
0.0
 10
5.100220739
 20
5.1679928886
 30
0.0
 10
5.0902248404
 20
5.1676319626
 30
0.0
 10
5.0763589076
 20
5.1671867637
 30
0.0
 10
5.0581659283
 20
5.1666687318
 30
0.0
 10
5.0380249977
 20
5.1661497902
 30
0.0
 10
5.0161195744
 20
5.165630132
 30
0.0
 10
4.9926492215
 20
5.1651099933
 30
0.0
 10
4.9678277347
 20
5.1645895004
 30
0.0
 10
4.9418812143
 20
5.1640687559
 30
0.0
 10
4.9150460128
 20
5.1635478334
 30
0.0
 10
4.8875665718
 20
5.1630267927
 30
0.0
 10
4.8596932319
 20
5.1625056837
 30
0.0
 10
4.8316799098
 20
5.1619845508
 30
0.0
 10
4.8037818006
 20
5.1614634373
 30
0.0
 10
4.7762530362
 20
5.1609423876
 30
0.0
 10
4.7493443839
 20
5.1604214514
 30
0.0
 10
4.7233009682
 20
5.1599006865
 30
0.0
 10
4.6983600523
 20
5.1593801673
 30
0.0
 10
4.6747488349
 20
5.1588599839
 30
0.0
 10
4.6526824025
 20
5.1583402871
 30
0.0
 10
4.6323617345
 20
5.1578212111
 30
0.0
 10
4.6166047824
 20
5.1573773996
 30
0.0
 10
4.6050095775
 20
5.157018833
 30
0.0
 10
4.5971180101
 20
5.1567580031
 30
0.0
 10
4.589789753
 20
5.1564973301
 30
0.0
 10
4.5830415077
 20
5.1562368557
 30
0.0
 10
4.5768885852
 20
5.1559766135
 30
0.0
 10
4.5713450797
 20
5.155716751
 30
0.0
 10
4.5664235049
 20
5.1554573246
 30
0.0
 10
4.5621350987
 20
5.1551987077
 30
0.0
 10
4.5584895118
 20
5.1549410049
 30
0.0
 10
4.5558579525
 20
5.1547166626
 30
0.0
 10
4.5540809482
 20
5.1545325141
 30
0.0
 10
4.5529948423
 20
5.1544030959
 30
0.0
 10
4.552074579
 20
5.1542741249
 30
0.0
 10
4.5514123046
 20
5.15416183
 30
0.0
 10
4.5509664584
 20
5.1540697782
 30
0.0
 10
4.5506937994
 20
5.1540049721
 30
0.0
 10
4.5504628001
 20
5.1539403559
 30
0.0
 10
4.5502732525
 20
5.1538760281
 30
0.0
 10
4.5501250788
 20
5.153811942
 30
0.0
 10
4.5500287304
 20
5.1537552681
 30
0.0
 10
4.5499746144
 20
5.1537079938
 30
0.0
 10
4.5499404905
 20
5.1536671177
 30
0.0
 10
4.5499266757
 20
5.1536302006
 30
0.0
 10
4.5499266825
 20
5.1536072981
 30
0.0
  0
SPLINE
  5
3A5
100
AcDbEntity
  8
0
100
AcDbSpline
 62
7
  6
CONTINUOUS
 70
0
 71
3
 72
17
 73
13
 74
0
 42
0.0000001
 43
0.0000001
 44
0.0000000001
 40
0.0
 40
0.0
 40
0.0
 40
0.0
 40
0.1976700009
 40
0.375000887
 40
0.5317377726
 40
0.6676504635
 40
0.7825340556
 40
0.8762583991
 40
0.9151579013
 40
0.9487396885
 40
0.9770111478
 40
1.0
 40
1.0
 40
1.0
 40
1.0
 10
4.5717621198
 20
4.5568322937
 30
0.0
 10
4.5703695096
 20
4.5567636701
 30
0.0
 10
4.567727864
 20
4.5566275984
 30
0.0
 10
4.5639832864
 20
4.5564128166
 30
0.0
 10
4.5606751001
 20
4.5561984487
 30
0.0
 10
4.5578083743
 20
4.5559847964
 30
0.0
 10
4.5553875107
 20
4.5557719255
 30
0.0
 10
4.5536513435
 20
4.5555864101
 30
0.0
 10
4.5524888963
 20
4.5554338548
 30
0.0
 10
4.551786224
 20
4.5553269771
 30
0.0
 10
4.5511972431
 20
4.5552205462
 30
0.0
 10
4.5508440607
 20
4.5551421598
 30
0.0
 10
4.5506870959
 20
4.5551014586
 30
0.0
  0
SPLINE
  5
3A6
100
AcDbEntity
  8
0
100
AcDbSpline
 62
7
  6
CONTINUOUS
 70
0
 71
3
 72
25
 73
21
 74
0
 42
0.0000001
 43
0.0000001
 44
0.0000000001
 40
0.0
 40
0.0
 40
0.0
 40
0.0
 40
0.0624805428
 40
0.1249946975
 40
0.187480018
 40
0.2499756719
 40
0.2812488296
 40
0.3125214672
 40
0.3750140907
 40
0.4375071068
 40
0.4999999958
 40
0.5624928804
 40
0.6249859003
 40
0.6874785198
 40
0.7187511519
 40
0.7500243215
 40
0.8125200153
 40
0.8750050782
 40
0.9375192237
 40
1.0
 40
1.0
 40
1.0
 40
1.0
 10
4.7526077924
 20
3.0335127072
 30
0.0
 10
4.7534412037
 20
3.0328108632
 30
0.0
 10
4.7549977305
 20
3.0312690138
 30
0.0
 10
4.7569279608
 20
3.0286132185
 30
0.0
 10
4.7584032394
 20
3.0256793062
 30
0.0
 10
4.7592203025
 20
3.0230660764
 30
0.0
 10
4.7596113548
 20
3.0209187371
 30
0.0
 10
4.7598259691
 20
3.0187467273
 30
0.0
 10
4.7597583531
 20
3.0160093053
 30
0.0
 10
4.7591408355
 20
3.0127840735
 30
0.0
 10
4.7580027219
 20
3.0097033176
 30
0.0
 10
4.7563742916
 20
3.0068512001
 30
0.0
 10
4.754300553
 20
3.0043050154
 30
0.0
 10
4.7522470294
 20
3.0024936373
 30
0.0
 10
4.7504452221
 20
3.0012618999
 30
0.0
 10
4.7485489001
 20
3.0001811803
 30
0.0
 10
4.7460218546
 20
2.9991273392
 30
0.0
 10
4.7428260622
 20
2.998371578
 30
0.0
 10
4.7395508768
 20
2.9981431166
 30
0.0
 10
4.7373692313
 20
2.9983443979
 30
0.0
 10
4.7362958771
 20
2.9985316921
 30
0.0
  0
SPLINE
  5
3A7
100
AcDbEntity
  8
0
100
AcDbSpline
 62
7
  6
CONTINUOUS
 70
0
 71
3
 72
51
 73
47
 74
0
 42
0.0000001
 43
0.0000001
 44
0.0000000001
 40
0.0
 40
0.0
 40
0.0
 40
0.0
 40
0.0001010003
 40
0.0002319079
 40
0.0004079587
 40
0.0006354676
 40
0.0009172906
 40
0.0012548905
 40
0.0016490943
 40
0.0021004051
 40
0.0031754745
 40
0.0044816066
 40
0.0060190707
 40
0.0077876387
 40
0.0097868792
 40
0.0120162429
 40
0.0171622685
 40
0.0232170046
 40
0.0301703162
 40
0.0380103312
 40
0.0467227231
 40
0.0562925732
 40
0.0667024453
 40
0.0779337139
 40
0.0899666054
 40
0.1163484808
 40
0.1456588388
 40
0.1776872156
 40
0.2122033622
 40
0.2489590277
 40
0.2876899297
 40
0.3281176411
 40
0.3699514441
 40
0.4128903091
 40
0.4566254352
 40
0.5008422923
 40
0.5894476878
 40
0.6761617105
 40
0.7584940534
 40
0.8340802337
 40
0.8686561171
 40
0.9007502731
 40
0.9301319995
 40
0.9565903238
 40
0.9799354305
 40
1.0
 40
1.0
 40
1.0
 40
1.0
 10
5.1590765714
 20
4.8767194303
 30
0.0
 10
5.1590765714
 20
4.8766991739
 30
0.0
 10
5.1590599767
 20
4.8766527681
 30
0.0
 10
5.1590005238
 20
4.8765947703
 30
0.0
 10
5.1589093518
 20
4.8765377012
 30
0.0
 10
5.1587839192
 20
4.8764807888
 30
0.0
 10
5.1586238861
 20
4.8764235407
 30
0.0
 10
5.1584287897
 20
4.8763661056
 30
0.0
 10
5.1581985604
 20
4.8763084892
 30
0.0
 10
5.1578221124
 20
4.876226676
 30
0.0
 10
5.157262698
 20
4.8761268518
 30
0.0
 10
5.1564851193
 20
4.8760122309
 30
0.0
 10
5.1555672317
 20
4.8758972288
 30
0.0
 10
5.1545094545
 20
4.8757819067
 30
0.0
 10
5.1533122121
 20
4.8756663745
 30
0.0
 10
5.1514390352
 20
4.8755042777
 30
0.0
 10
5.1487527944
 20
4.8753051986
 30
0.0
 10
5.1451190834
 20
4.8750752315
 30
0.0
 10
5.1409441672
 20
4.8748447097
 30
0.0
 10
5.1362355542
 20
4.8746137459
 30
0.0
 10
5.1310016261
 20
4.8743824626
 30
0.0
 10
5.1252518488
 20
4.8741509693
 30
0.0
 10
5.1189965248
 20
4.8739192996
 30
0.0
 10
5.1122469119
 20
4.8736874864
 30
0.0
 10
5.1022951256
 20
4.8733684054
 30
0.0
 10
5.0887180469
 20
4.8729734293
 30
0.0
 10
5.0711310428
 20
4.8725119559
 30
0.0
 10
5.0519121513
 20
4.8720499228
 30
0.0
 10
5.0311996608
 20
4.8715874419
 30
0.0
 10
5.0091426218
 20
4.871124644
 30
0.0
 10
4.9858997321
 20
4.8706616069
 30
0.0
 10
4.961638194
 20
4.8701983929
 30
0.0
 10
4.9365325714
 20
4.8697350483
 30
0.0
 10
4.9107635135
 20
4.8692716085
 30
0.0
 10
4.8845164415
 20
4.8688081047
 30
0.0
 10
4.8491119056
 20
4.8681896519
 30
0.0
 10
4.8050888639
 20
4.8674248667
 30
0.0
 10
4.7534229517
 20
4.8665082988
 30
0.0
 10
4.7043685466
 20
4.8655930488
 30
0.0
 10
4.6657701975
 20
4.8648113156
 30
0.0
 10
4.6372466931
 20
4.8641756414
 30
0.0
 10
4.617988305
 20
4.8637135657
 30
0.0
 10
4.6003584466
 20
4.8632521052
 30
0.0
 10
4.5844839052
 20
4.8627915186
 30
0.0
 10
4.5704788395
 20
4.8623321266
 30
0.0
 10
4.5617788966
 20
4.8620016429
 30
0.0
 10
4.5577583579
 20
4.8618323022
 30
0.0
  0
SPLINE
  5
3A8
100
AcDbEntity
  8
0
100
AcDbSpline
 62
7
  6
CONTINUOUS
 70
0
 71
3
 72
55
 73
51
 74
0
 42
0.0000001
 43
0.0000001
 44
0.0000000001
 40
0.0
 40
0.0
 40
0.0
 40
0.0
 40
0.0001061984
 40
0.0001715451
 40
0.000248531
 40
0.0004428988
 40
0.0006963623
 40
0.0010117927
 40
0.0013906332
 40
0.001833689
 40
0.0023414439
 40
0.0035521139
 40
0.0050238927
 40
0.0067567628
 40
0.0087502949
 40
0.0135166605
 40
0.0193152431
 40
0.0261342288
 40
0.0339604884
 40
0.0427774145
 40
0.0525670275
 40
0.0633089032
 40
0.0749803118
 40
0.0875572738
 40
0.1010128682
 40
0.1304463453
 40
0.163033442
 40
0.1985002845
 40
0.2365487352
 40
0.2768588626
 40
0.3190916921
 40
0.3628920531
 40
0.4078914065
 40
0.4537112937
 40
0.4999662734
 40
0.5462672472
 40
0.6374522536
 40
0.7242045282
 40
0.7649996938
 40
0.8036116202
 40
0.8397156082
 40
0.8730080013
 40
0.9032090214
 40
0.930064949
 40
0.9533506229
 40
0.9728707019
 40
0.9811666577
 40
0.9884635711
 40
0.994745928
 40
1.0
 40
1.0
 40
1.0
 40
1.0
 10
5.1590765714
 20
4.9111694303
 30
0.0
 10
5.1590765714
 20
4.9111473662
 30
0.0
 10
5.1590627488
 20
4.9111117436
 30
0.0
 10
5.1590290858
 20
4.9110726273
 30
0.0
 10
5.1589755116
 20
4.9110271505
 30
0.0
 10
5.1588802942
 20
4.9109727381
 30
0.0
 10
5.1587340066
 20
4.9109111759
 30
0.0
 10
5.1585468764
 20
4.9108493653
 30
0.0
 10
5.1583188248
 20
4.9107872619
 30
0.0
 10
5.1580496306
 20
4.9107249723
 30
0.0
 10
5.1576093165
 20
4.9106364736
 30
0.0
 10
5.1569551845
 20
4.9105285355
 30
0.0
 10
5.1560461944
 20
4.9104046021
 30
0.0
 10
5.1549733323
 20
4.910280226
 30
0.0
 10
5.1532177079
 20
4.9101032215
 30
0.0
 10
5.1506172721
 20
4.9098876151
 30
0.0
 10
5.1470139814
 20
4.9096399609
 30
0.0
 10
5.1427737398
 20
4.9093913754
 30
0.0
 10
5.1379055263
 20
4.9091420736
 30
0.0
 10
5.132419438
 20
4.908892301
 30
0.0
 10
5.12632705
 20
4.9086421997
 30
0.0
 10
5.119641165
 20
4.9083918571
 30
0.0
 10
5.1123758094
 20
4.9081413212
 30
0.0
 10
5.1045463398
 20
4.9078906504
 30
0.0
 10
5.0930277237
 20
4.9075458598
 30
0.0
 10
5.077352377
 20
4.9071191112
 30
0.0
 10
5.0571042672
 20
4.9066201702
 30
0.0
 10
5.0350658057
 20
4.9061206316
 30
0.0
 10
5.0114224177
 20
4.9056206172
 30
0.0
 10
4.9863730227
 20
4.9051202725
 30
0.0
 10
4.9601283748
 20
4.9046196828
 30
0.0
 10
4.9329093144
 20
4.9041189177
 30
0.0
 10
4.9049448777
 20
4.9036180297
 30
0.0
 10
4.8764703845
 20
4.9031170623
 30
0.0
 10
4.8477254227
 20
4.9026160583
 30
0.0
 10
4.8095567049
 20
4.9019514442
 30
0.0
 10
4.7629755925
 20
4.9011315023
 30
0.0
 10
4.7175388959
 20
4.900292544
 30
0.0
 10
4.6830239069
 20
4.8996113216
 30
0.0
 10
4.6590302272
 20
4.8991112081
 30
0.0
 10
4.6365956922
 20
4.8986115374
 30
0.0
 10
4.6159090784
 20
4.8981124668
 30
0.0
 10
4.5971444543
 20
4.8976142132
 30
0.0
 10
4.5804596138
 20
4.8971173126
 30
0.0
 10
4.5659949482
 20
4.8966220591
 30
0.0
 10
4.5553864876
 20
4.8961922487
 30
0.0
 10
4.5480997963
 20
4.8958401271
 30
0.0
 10
4.5435617208
 20
4.8955911273
 30
0.0
 10
4.5396566863
 20
4.8953429462
 30
0.0
 10
4.5372665431
 20
4.8951624198
 30
0.0
 10
4.5361789112
 20
4.8950694303
 30
0.0
  0
SPLINE
  5
3A9
100
AcDbEntity
  8
0
100
AcDbSpline
 62
7
  6
CONTINUOUS
 70
0
 71
3
 72
63
 73
59
 74
0
 42
0.0000001
 43
0.0000001
 44
0.0000000001
 40
0.0
 40
0.0
 40
0.0
 40
0.0
 40
0.0009741778
 40
0.0022304305
 40
0.0037699169
 40
0.0055928939
 40
0.0076991168
 40
0.0100876378
 40
0.0157064783
 40
0.0224383679
 40
0.0302682013
 40
0.0391786091
 40
0.049149356
 40
0.0601575219
 40
0.0721781902
 40
0.0991435661
 40
0.1297975954
 40
0.1638580913
 40
0.2010113092
 40
0.2409148921
 40
0.2832010568
 40
0.3274800001
 40
0.3733434979
 40
0.4203686979
 40
0.4681220309
 40
0.5161632121
 40
0.564049303
 40
0.6113387976
 40
0.6575956951
 40
0.7023935227
 40
0.7453192724
 40
0.7859772159
 40
0.8239925798
 40
0.8590150319
 40
0.8753019425
 40
0.8907219337
 40
0.9052396318
 40
0.918821339
 40
0.9314362236
 40
0.9430547906
 40
0.9536509441
 40
0.9631998831
 40
0.9716803427
 40
0.9790727665
 40
0.9853609244
 40
0.9905312168
 40
0.9926937641
 40
0.9945734771
 40
0.9961698112
 40
0.9974825962
 40
0.9980329098
 40
0.9985128437
 40
0.9989228757
 40
0.9992638069
 40
0.9995370834
 40
0.9996492344
 40
0.9997458083
 40
1.0
 40
1.0
 40
1.0
 40
1.0
 10
5.1583649537
 20
4.5556264093
 30
0.0
 10
5.1581671617
 20
4.5555751497
 30
0.0
 10
5.1577090075
 20
4.5554786293
 30
0.0
 10
5.1569287671
 20
4.5553499193
 30
0.0
 10
5.155968599
 20
4.5552204011
 30
0.0
 10
5.1548289468
 20
4.5550902528
 30
0.0
 10
5.1535102547
 20
4.5549597449
 30
0.0
 10
5.151397013
 20
4.5547752528
 30
0.0
 10
5.14831368
 20
4.5545496261
 30
0.0
 10
5.1440888892
 20
4.5542898739
 30
0.0
 10
5.139172645
 20
4.5540292995
 30
0.0
 10
5.1335762896
 20
4.5537680708
 30
0.0
 10
5.1273126784
 20
4.5535064353
 30
0.0
 10
5.120396218
 20
4.5532444639
 30
0.0
 10
5.1099166143
 20
4.5528808053
 30
0.0
 10
5.0953169728
 20
4.5524326196
 30
0.0
 10
5.0760948585
 20
4.5519116358
 30
0.0
 10
5.0547352466
 20
4.5513896657
 30
0.0
 10
5.0314351078
 20
4.55086692
 30
0.0
 10
5.0064093092
 20
4.550343658
 30
0.0
 10
4.9798886472
 20
4.5498200167
 30
0.0
 10
4.9521177136
 20
4.5492961059
 30
0.0
 10
4.923352638
 20
4.5487720041
 30
0.0
 10
4.8938587212
 20
4.5482477744
 30
0.0
 10
4.863907983
 20
4.5477234691
 30
0.0
 10
4.8337766528
 20
4.5471991348
 30
0.0
 10
4.8037426234
 20
4.546674816
 30
0.0
 10
4.7740828901
 20
4.5461505584
 30
0.0
 10
4.7450709967
 20
4.5456264121
 30
0.0
 10
4.716974515
 20
4.5451024369
 30
0.0
 10
4.6900525772
 20
4.5445787037
 30
0.0
 10
4.6645534827
 20
4.5440553197
 30
0.0
 10
4.6407124047
 20
4.5435323832
 30
0.0
 10
4.6219825126
 20
4.5430870793
 30
0.0
 10
4.6079911506
 20
4.5427280346
 30
0.0
 10
4.598299454
 20
4.5424653817
 30
0.0
 10
4.5891753699
 20
4.5422028354
 30
0.0
 10
4.5806398907
 20
4.5419403927
 30
0.0
 10
4.5727127838
 20
4.5416781144
 30
0.0
 10
4.5654122363
 20
4.5414160089
 30
0.0
 10
4.5587551866
 20
4.5411541787
 30
0.0
 10
4.552756873
 20
4.5408926824
 30
0.0
 10
4.5474312048
 20
4.5406316758
 30
0.0
 10
4.5427903302
 20
4.540371442
 30
0.0
 10
4.5388449577
 20
4.5401121466
 30
0.0
 10
4.5359968121
 20
4.5398864478
 30
0.0
 10
4.5340734121
 20
4.5397011364
 30
0.0
 10
4.5328978904
 20
4.5395709244
 30
0.0
 10
4.5319018235
 20
4.5394411822
 30
0.0
 10
4.5311849097
 20
4.5393281858
 30
0.0
 10
4.5307022478
 20
4.5392355312
 30
0.0
 10
4.5304072215
 20
4.5391703036
 30
0.0
 10
4.5301573135
 20
4.5391053612
 30
0.0
 10
4.5299522465
 20
4.5390405002
 30
0.0
 10
4.5298108384
 20
4.538984076
 30
0.0
 10
4.5297205629
 20
4.5389369177
 30
0.0
 10
4.5296402929
 20
4.5388865568
 30
0.0
 10
4.5295765714
 20
4.5388234807
 30
0.0
 10
4.5295765714
 20
4.538770166
 30
0.0
  0
SPLINE
  5
3AA
100
AcDbEntity
  8
0
100
AcDbSpline
 62
7
  6
CONTINUOUS
 70
0
 71
3
 72
63
 73
59
 74
0
 42
0.0000001
 43
0.0000001
 44
0.0000000001
 40
0.0
 40
0.0
 40
0.0
 40
0.0
 40
0.0010297639
 40
0.0023404591
 40
0.0039332282
 40
0.0058083467
 40
0.0079655457
 40
0.0104038317
 40
0.0161185682
 40
0.0229415367
 40
0.0308575692
 40
0.0398490214
 40
0.0498958475
 40
0.0609747148
 40
0.0730609753
 40
0.1001413556
 40
0.1308888996
 40
0.1650215329
 40
0.2022258621
 40
0.2421600469
 40
0.2844571604
 40
0.3287284348
 40
0.3745670312
 40
0.4215516677
 40
0.4692504242
 40
0.5172249619
 40
0.565034142
 40
0.6122386173
 40
0.6584044428
 40
0.7031073211
 40
0.7459364465
 40
0.786498118
 40
0.8244196567
 40
0.8593525888
 40
0.8909761772
 40
0.905455154
 40
0.9190002338
 40
0.9315809466
 40
0.9431678646
 40
0.9537350605
 40
0.9632581036
 40
0.9717154868
 40
0.9790884064
 40
0.9853600967
 40
0.9905179005
 40
0.9926756214
 40
0.9945513847
 40
0.9961449201
 40
0.9974563715
 40
0.9980066208
 40
0.9984868682
 40
0.9988976268
 40
0.9992398295
 40
0.9995151309
 40
0.9997267779
 40
0.9998109222
 40
0.9998826265
 40
1.0
 40
1.0
 40
1.0
 40
1.0
 10
5.1379661309
 20
4.5503381375
 30
0.0
 10
5.1377705878
 20
4.5502874429
 30
0.0
 10
5.1373212762
 20
4.5501913372
 30
0.0
 10
5.1365604351
 20
4.5500625864
 30
0.0
 10
5.135631896
 20
4.5499331031
 30
0.0
 10
5.134536072
 20
4.549803063
 30
0.0
 10
5.1332734138
 20
4.5496726908
 30
0.0
 10
5.131259225
 20
4.5494886624
 30
0.0
 10
5.1283299164
 20
4.5492634056
 30
0.0
 10
5.1243258753
 20
4.5490039335
 30
0.0
 10
5.1196779319
 20
4.5487436776
 30
0.0
 10
5.1143967487
 20
4.5484827862
 30
0.0
 10
5.1084944623
 20
4.5482215155
 30
0.0
 10
5.1019845517
 20
4.5479599066
 30
0.0
 10
5.09213462
 20
4.5475969258
 30
0.0
 10
5.0784268801
 20
4.5471494667
 30
0.0
 10
5.0603945611
 20
4.5466292029
 30
0.0
 10
5.0403755251
 20
4.5461079708
 30
0.0
 10
5.0185538235
 20
4.5455859796
 30
0.0
 10
4.9951300936
 20
4.5450634807
 30
0.0
 10
4.9703197347
 20
4.5445406088
 30
0.0
 10
4.9443508757
 20
4.5440174717
 30
0.0
 10
4.9174622956
 20
4.5434941469
 30
0.0
 10
4.8899012292
 20
4.5429706966
 30
0.0
 10
4.8619210851
 20
4.5424471726
 30
0.0
 10
4.8337791637
 20
4.5419236213
 30
0.0
 10
4.8057342214
 20
4.5414000861
 30
0.0
 10
4.7780441531
 20
4.5408766128
 30
0.0
 10
4.7509635529
 20
4.5403532513
 30
0.0
 10
4.724741421
 20
4.5398300601
 30
0.0
 10
4.6996188709
 20
4.5393071147
 30
0.0
 10
4.6758269028
 20
4.5387845062
 30
0.0
 10
4.6535843051
 20
4.5382623858
 30
0.0
 10
4.6330955856
 20
4.5377408887
 30
0.0
 10
4.6172051708
 20
4.537295025
 30
0.0
 10
4.6055097004
 20
4.5369348047
 30
0.0
 10
4.5975486146
 20
4.5366727469
 30
0.0
 10
4.5901551832
 20
4.5364108663
 30
0.0
 10
4.5833463078
 20
4.536149156
 30
0.0
 10
4.577137722
 20
4.5358877139
 30
0.0
 10
4.5715436327
 20
4.5356266196
 30
0.0
 10
4.5665768977
 20
4.5353659865
 30
0.0
 10
4.5622489045
 20
4.5351061646
 30
0.0
 10
4.5585694928
 20
4.5348472347
 30
0.0
 10
4.5559134606
 20
4.5346218755
 30
0.0
 10
4.5541198867
 20
4.5344368479
 30
0.0
 10
4.5530236621
 20
4.5343068158
 30
0.0
 10
4.5520947552
 20
4.5341772474
 30
0.0
 10
4.5514262137
 20
4.5340644338
 30
0.0
 10
4.5509761527
 20
4.5339719506
 30
0.0
 10
4.5507009616
 20
4.5339068434
 30
0.0
 10
4.5504678486
 20
4.5338419225
 30
0.0
 10
4.55027658
 20
4.5337772907
 30
0.0
 10
4.5501270513
 20
4.5337129066
 30
0.0
 10
4.5500297912
 20
4.5336559778
 30
0.0
 10
4.549975131
 20
4.5336084758
 30
0.0
 10
4.549940674
 20
4.5335674372
 30
0.0
 10
4.5499266726
 20
4.5335303232
 30
0.0
 10
4.5499266618
 20
4.5335072982
 30
0.0
  0
LINE
  5
3AB
100
AcDbEntity
  8
0
100
AcDbLine
 62
7
  6
CONTINUOUS
 10
4.5361789112
 20
4.8950694303
 11
4.5302881689
 21
4.894313187
  0
SPLINE
  5
3AC
100
AcDbEntity
  8
0
100
AcDbSpline
 62
7
  6
CONTINUOUS
 70
0
 71
3
 72
19
 73
15
 74
0
 42
0.0000001
 43
0.0000001
 44
0.0000000001
 40
0.0
 40
0.0
 40
0.0
 40
0.0
 40
0.0257927194
 40
0.0358395049
 40
0.0475630635
 40
0.0762581866
 40
0.1121765775
 40
0.1554557062
 40
0.2061684896
 40
0.2643552256
 40
0.4032294039
 40
0.5721682417
 40
0.771128639
 40
1.0
 40
1.0
 40
1.0
 40
1.0
 10
4.5295765714
 20
4.917720166
 30
0.0
 10
4.5295765714
 20
4.9177783729
 30
0.0
 10
4.5296508351
 20
4.9178453806
 30
0.0
 10
4.529740803
 20
4.9178983291
 30
0.0
 10
4.5298439602
 20
4.9179487765
 30
0.0
 10
4.5300051469
 20
4.9180089802
 30
0.0
 10
4.5302388975
 20
4.9180782125
 30
0.0
 10
4.5305237795
 20
4.9181475222
 30
0.0
 10
4.5308601425
 20
4.9182171507
 30
0.0
 10
4.5314105176
 20
4.9183160778
 30
0.0
 10
4.5322277958
 20
4.9184367256
 30
0.0
 10
4.53336308
 20
4.9185752639
 30
0.0
 10
4.5347026882
 20
4.9187142859
 30
0.0
 10
4.5356642903
 20
4.9188011673
 30
0.0
 10
4.5361789112
 20
4.918845166
 30
0.0
  0
SPLINE
  5
3AD
100
AcDbEntity
  8
0
100
AcDbSpline
 62
7
  6
CONTINUOUS
 70
0
 71
3
 72
63
 73
59
 74
0
 42
0.0000001
 43
0.0000001
 44
0.0000000001
 40
0.0
 40
0.0
 40
0.0
 40
0.0
 40
0.000254191
 40
0.000350766
 40
0.0004629182
 40
0.0007361972
 40
0.00107713
 40
0.0014871617
 40
0.0019670922
 40
0.0025173986
 40
0.0038301623
 40
0.0054264966
 40
0.0073062185
 40
0.0094687628
 40
0.0146389988
 40
0.020927183
 40
0.0283195224
 40
0.0367999914
 40
0.0463488588
 40
0.0569449938
 40
0.0685635472
 40
0.0811783313
 40
0.0947600516
 40
0.1092776061
 40
0.1246976456
 40
0.1409844067
 40
0.1760067505
 40
0.2140220409
 40
0.2546798825
 40
0.2976054884
 40
0.3424031832
 40
0.3886599342
 40
0.4359493025
 40
0.4838353181
 40
0.5318764087
 40
0.579629717
 40
0.6266548407
 40
0.6725182869
 40
0.7167971903
 40
0.7590833525
 40
0.7989870136
 40
0.8361403665
 40
0.8702010355
 40
0.9008552789
 40
0.9278208118
 40
0.9398413347
 40
0.9508497882
 40
0.9608205494
 40
0.9697310655
 40
0.9775611225
 40
0.9842929394
 40
0.9899121836
 40
0.9923005822
 40
0.994406756
 40
0.9962299754
 40
0.9977697302
 40
0.9990259737
 40
1.0
 40
1.0
 40
1.0
 40
1.0
 10
5.1590765714
 20
4.9456194303
 30
0.0
 10
5.1590765714
 20
4.9455661157
 30
0.0
 10
5.1590128473
 20
4.9455030411
 30
0.0
 10
5.1589325766
 20
4.9454526813
 30
0.0
 10
5.1588422997
 20
4.9454055235
 30
0.0
 10
5.1587008903
 20
4.9453490998
 30
0.0
 10
5.1584958224
 20
4.9452842391
 30
0.0
 10
5.1582459149
 20
4.9452192967
 30
0.0
 10
5.1579508911
 20
4.9451540689
 30
0.0
 10
5.1574682363
 20
4.9450614137
 30
0.0
 10
5.1567513292
 20
4.9449484144
 30
0.0
 10
5.1557552652
 20
4.9448186727
 30
0.0
 10
5.1545797426
 20
4.944688461
 30
0.0
 10
5.1526563537
 20
4.9445031508
 30
0.0
 10
5.1498082163
 20
4.9442774498
 30
0.0
 10
5.1458628688
 20
4.9440181616
 30
0.0
 10
5.1412220064
 20
4.9437579216
 30
0.0
 10
5.1358963706
 20
4.9434969203
 30
0.0
 10
5.1298980761
 20
4.9432354214
 30
0.0
 10
5.1232410504
 20
4.9429735931
 30
0.0
 10
5.1159405333
 20
4.9427114892
 30
0.0
 10
5.1080134503
 20
4.9424492083
 30
0.0
 10
5.0994780224
 20
4.9421867706
 30
0.0
 10
5.0903539589
 20
4.9419242199
 30
0.0
 10
5.0806623168
 20
4.9416615725
 30
0.0
 10
5.0666710038
 20
4.9413025236
 30
0.0
 10
5.0479411876
 20
4.9408572237
 30
0.0
 10
5.0241001774
 20
4.9403342877
 30
0.0
 10
4.9986011587
 20
4.9398109052
 30
0.0
 10
4.9716793096
 20
4.9392871729
 30
0.0
 10
4.9435829263
 20
4.9387631988
 30
0.0
 10
4.9145711281
 20
4.9382390535
 30
0.0
 10
4.8849114781
 20
4.937714797
 30
0.0
 10
4.8548775204
 20
4.9371904793
 30
0.0
 10
4.8247462406
 20
4.9366661461
 30
0.0
 10
4.7947955529
 20
4.9361418421
 30
0.0
 10
4.7653016784
 20
4.9356176134
 30
0.0
 10
4.736536648
 20
4.9350935126
 30
0.0
 10
4.7087657437
 20
4.9345696028
 30
0.0
 10
4.6822450834
 20
4.9340459624
 30
0.0
 10
4.6572192492
 20
4.9335227016
 30
0.0
 10
4.6339190375
 20
4.9329999567
 30
0.0
 10
4.6125593234
 20
4.9324779888
 30
0.0
 10
4.5933371017
 20
4.9319570034
 30
0.0
 10
4.5787374175
 20
4.9315088285
 30
0.0
 10
4.5682577552
 20
4.9311451561
 30
0.0
 10
4.5613412638
 20
4.9308831963
 30
0.0
 10
4.5550775688
 20
4.9306215565
 30
0.0
 10
4.5494811429
 20
4.9303603258
 30
0.0
 10
4.544564845
 20
4.9300997663
 30
0.0
 10
4.5403399414
 20
4.9298399801
 30
0.0
 10
4.5372565629
 20
4.9296143902
 30
0.0
 10
4.5351432736
 20
4.9294298907
 30
0.0
 10
4.5338245674
 20
4.9292993795
 30
0.0
 10
4.5326848171
 20
4.9291692414
 30
0.0
 10
4.5317245416
 20
4.9290397351
 30
0.0
 10
4.5309442806
 20
4.9289110078
 30
0.0
 10
4.530486168
 20
4.9288144532
 30
0.0
 10
4.5302884107
 20
4.9287631868
 30
0.0
  0
SPLINE
  5
3AE
100
AcDbEntity
  8
0
100
AcDbSpline
 62
7
  6
CONTINUOUS
 70
0
 71
3
 72
63
 73
59
 74
0
 42
0.0000001
 43
0.0000001
 44
0.0000000001
 40
0.0
 40
0.0
 40
0.0
 40
0.0
 40
0.000254191
 40
0.000350766
 40
0.0004629182
 40
0.0007361972
 40
0.00107713
 40
0.0014871617
 40
0.0019670922
 40
0.0025173986
 40
0.0038301623
 40
0.0054264966
 40
0.0073062185
 40
0.0094687628
 40
0.0146389988
 40
0.020927183
 40
0.0283195224
 40
0.0367999914
 40
0.0463488588
 40
0.0569449938
 40
0.0685635472
 40
0.0811783313
 40
0.0947600516
 40
0.1092776061
 40
0.1246976456
 40
0.1409844067
 40
0.1760067505
 40
0.2140220409
 40
0.2546798825
 40
0.2976054884
 40
0.3424031832
 40
0.3886599342
 40
0.4359493025
 40
0.4838353181
 40
0.5318764087
 40
0.579629717
 40
0.6266548407
 40
0.6725182869
 40
0.7167971903
 40
0.7590833525
 40
0.7989870136
 40
0.8361403665
 40
0.8702010355
 40
0.9008552789
 40
0.9278208118
 40
0.9398413347
 40
0.9508497882
 40
0.9608205494
 40
0.9697310655
 40
0.9775611225
 40
0.9842929394
 40
0.9899121836
 40
0.9923005822
 40
0.994406756
 40
0.9962299754
 40
0.9977697302
 40
0.9990259737
 40
1.0
 40
1.0
 40
1.0
 40
1.0
 10
5.1590765714
 20
4.9800694303
 30
0.0
 10
5.1590765714
 20
4.9800161157
 30
0.0
 10
5.1590128473
 20
4.9799530411
 30
0.0
 10
5.1589325766
 20
4.9799026813
 30
0.0
 10
5.1588422997
 20
4.9798555235
 30
0.0
 10
5.1587008903
 20
4.9797990998
 30
0.0
 10
5.1584958224
 20
4.9797342391
 30
0.0
 10
5.1582459149
 20
4.9796692967
 30
0.0
 10
5.1579508911
 20
4.9796040689
 30
0.0
 10
5.1574682363
 20
4.9795114137
 30
0.0
 10
5.1567513292
 20
4.9793984144
 30
0.0
 10
5.1557552652
 20
4.9792686727
 30
0.0
 10
5.1545797426
 20
4.979138461
 30
0.0
 10
5.1526563537
 20
4.9789531508
 30
0.0
 10
5.1498082163
 20
4.9787274498
 30
0.0
 10
5.1458628688
 20
4.9784681616
 30
0.0
 10
5.1412220064
 20
4.9782079216
 30
0.0
 10
5.1358963706
 20
4.9779469203
 30
0.0
 10
5.1298980761
 20
4.9776854214
 30
0.0
 10
5.1232410504
 20
4.9774235931
 30
0.0
 10
5.1159405333
 20
4.9771614892
 30
0.0
 10
5.1080134503
 20
4.9768992083
 30
0.0
 10
5.0994780224
 20
4.9766367706
 30
0.0
 10
5.0903539589
 20
4.9763742199
 30
0.0
 10
5.0806623168
 20
4.9761115725
 30
0.0
 10
5.0666710038
 20
4.9757525236
 30
0.0
 10
5.0479411876
 20
4.9753072237
 30
0.0
 10
5.0241001774
 20
4.9747842877
 30
0.0
 10
4.9986011587
 20
4.9742609052
 30
0.0
 10
4.9716793096
 20
4.9737371729
 30
0.0
 10
4.9435829263
 20
4.9732131988
 30
0.0
 10
4.9145711281
 20
4.9726890535
 30
0.0
 10
4.8849114781
 20
4.972164797
 30
0.0
 10
4.8548775204
 20
4.9716404793
 30
0.0
 10
4.8247462406
 20
4.9711161461
 30
0.0
 10
4.7947955529
 20
4.9705918421
 30
0.0
 10
4.7653016784
 20
4.9700676134
 30
0.0
 10
4.736536648
 20
4.9695435126
 30
0.0
 10
4.7087657437
 20
4.9690196028
 30
0.0
 10
4.6822450834
 20
4.9684959624
 30
0.0
 10
4.6572192492
 20
4.9679727016
 30
0.0
 10
4.6339190375
 20
4.9674499567
 30
0.0
 10
4.6125593234
 20
4.9669279888
 30
0.0
 10
4.5933371017
 20
4.9664070034
 30
0.0
 10
4.5787374175
 20
4.9659588285
 30
0.0
 10
4.5682577552
 20
4.9655951561
 30
0.0
 10
4.5613412638
 20
4.9653331963
 30
0.0
 10
4.5550775688
 20
4.9650715565
 30
0.0
 10
4.5494811429
 20
4.9648103258
 30
0.0
 10
4.544564845
 20
4.9645497663
 30
0.0
 10
4.5403399414
 20
4.9642899801
 30
0.0
 10
4.5372565629
 20
4.9640643902
 30
0.0
 10
4.5351432736
 20
4.9638798907
 30
0.0
 10
4.5338245674
 20
4.9637493795
 30
0.0
 10
4.5326848171
 20
4.9636192414
 30
0.0
 10
4.5317245416
 20
4.9634897351
 30
0.0
 10
4.5309442806
 20
4.9633610078
 30
0.0
 10
4.530486168
 20
4.9632644532
 30
0.0
 10
4.5302884107
 20
4.9632131868
 30
0.0
  0
SPLINE
  5
3AF
100
AcDbEntity
  8
0
100
AcDbSpline
 62
7
  6
CONTINUOUS
 70
0
 71
3
 72
63
 73
59
 74
0
 42
0.0000001
 43
0.0000001
 44
0.0000000001
 40
0.0
 40
0.0
 40
0.0
 40
0.0
 40
0.000254191
 40
0.000350766
 40
0.0004629182
 40
0.0007361972
 40
0.00107713
 40
0.0014871617
 40
0.0019670922
 40
0.0025173986
 40
0.0038301623
 40
0.0054264966
 40
0.0073062185
 40
0.0094687628
 40
0.0146389988
 40
0.020927183
 40
0.0283195224
 40
0.0367999914
 40
0.0463488588
 40
0.0569449938
 40
0.0685635472
 40
0.0811783313
 40
0.0947600516
 40
0.1092776061
 40
0.1246976456
 40
0.1409844067
 40
0.1760067505
 40
0.2140220409
 40
0.2546798825
 40
0.2976054884
 40
0.3424031832
 40
0.3886599342
 40
0.4359493025
 40
0.4838353181
 40
0.5318764087
 40
0.579629717
 40
0.6266548407
 40
0.6725182869
 40
0.7167971903
 40
0.7590833525
 40
0.7989870136
 40
0.8361403665
 40
0.8702010355
 40
0.9008552789
 40
0.9278208118
 40
0.9398413347
 40
0.9508497882
 40
0.9608205494
 40
0.9697310655
 40
0.9775611225
 40
0.9842929394
 40
0.9899121836
 40
0.9923005822
 40
0.994406756
 40
0.9962299754
 40
0.9977697302
 40
0.9990259737
 40
1.0
 40
1.0
 40
1.0
 40
1.0
 10
5.1590765714
 20
5.0145194303
 30
0.0
 10
5.1590765714
 20
5.0144661157
 30
0.0
 10
5.1590128473
 20
5.0144030411
 30
0.0
 10
5.1589325766
 20
5.0143526813
 30
0.0
 10
5.1588422997
 20
5.0143055235
 30
0.0
 10
5.1587008903
 20
5.0142490998
 30
0.0
 10
5.1584958224
 20
5.0141842391
 30
0.0
 10
5.1582459149
 20
5.0141192967
 30
0.0
 10
5.1579508911
 20
5.0140540689
 30
0.0
 10
5.1574682363
 20
5.0139614137
 30
0.0
 10
5.1567513292
 20
5.0138484144
 30
0.0
 10
5.1557552652
 20
5.0137186727
 30
0.0
 10
5.1545797426
 20
5.013588461
 30
0.0
 10
5.1526563537
 20
5.0134031508
 30
0.0
 10
5.1498082163
 20
5.0131774498
 30
0.0
 10
5.1458628688
 20
5.0129181616
 30
0.0
 10
5.1412220064
 20
5.0126579216
 30
0.0
 10
5.1358963706
 20
5.0123969203
 30
0.0
 10
5.1298980761
 20
5.0121354214
 30
0.0
 10
5.1232410504
 20
5.0118735931
 30
0.0
 10
5.1159405333
 20
5.0116114892
 30
0.0
 10
5.1080134503
 20
5.0113492083
 30
0.0
 10
5.0994780224
 20
5.0110867706
 30
0.0
 10
5.0903539589
 20
5.0108242199
 30
0.0
 10
5.0806623168
 20
5.0105615725
 30
0.0
 10
5.0666710038
 20
5.0102025236
 30
0.0
 10
5.0479411876
 20
5.0097572237
 30
0.0
 10
5.0241001774
 20
5.0092342877
 30
0.0
 10
4.9986011587
 20
5.0087109052
 30
0.0
 10
4.9716793096
 20
5.0081871729
 30
0.0
 10
4.9435829263
 20
5.0076631988
 30
0.0
 10
4.9145711281
 20
5.0071390535
 30
0.0
 10
4.8849114781
 20
5.006614797
 30
0.0
 10
4.8548775204
 20
5.0060904793
 30
0.0
 10
4.8247462406
 20
5.0055661461
 30
0.0
 10
4.7947955529
 20
5.0050418421
 30
0.0
 10
4.7653016784
 20
5.0045176134
 30
0.0
 10
4.736536648
 20
5.0039935126
 30
0.0
 10
4.7087657437
 20
5.0034696028
 30
0.0
 10
4.6822450834
 20
5.0029459624
 30
0.0
 10
4.6572192492
 20
5.0024227016
 30
0.0
 10
4.6339190375
 20
5.0018999567
 30
0.0
 10
4.6125593234
 20
5.0013779888
 30
0.0
 10
4.5933371017
 20
5.0008570034
 30
0.0
 10
4.5787374175
 20
5.0004088285
 30
0.0
 10
4.5682577552
 20
5.0000451561
 30
0.0
 10
4.5613412638
 20
4.9997831963
 30
0.0
 10
4.5550775688
 20
4.9995215565
 30
0.0
 10
4.5494811429
 20
4.9992603258
 30
0.0
 10
4.544564845
 20
4.9989997663
 30
0.0
 10
4.5403399414
 20
4.9987399801
 30
0.0
 10
4.5372565629
 20
4.9985143902
 30
0.0
 10
4.5351432736
 20
4.9983298907
 30
0.0
 10
4.5338245674
 20
4.9981993795
 30
0.0
 10
4.5326848171
 20
4.9980692414
 30
0.0
 10
4.5317245416
 20
4.9979397351
 30
0.0
 10
4.5309442806
 20
4.9978110078
 30
0.0
 10
4.530486168
 20
4.9977144532
 30
0.0
 10
4.5302884107
 20
4.9976631868
 30
0.0
  0
SPLINE
  5
3B0
100
AcDbEntity
  8
0
100
AcDbSpline
 62
7
  6
CONTINUOUS
 70
0
 71
3
 72
63
 73
59
 74
0
 42
0.0000001
 43
0.0000001
 44
0.0000000001
 40
0.0
 40
0.0
 40
0.0
 40
0.0
 40
0.000254191
 40
0.000350766
 40
0.0004629182
 40
0.0007361972
 40
0.00107713
 40
0.0014871617
 40
0.0019670922
 40
0.0025173986
 40
0.0038301623
 40
0.0054264966
 40
0.0073062185
 40
0.0094687628
 40
0.0146389988
 40
0.020927183
 40
0.0283195224
 40
0.0367999914
 40
0.0463488588
 40
0.0569449938
 40
0.0685635472
 40
0.0811783313
 40
0.0947600516
 40
0.1092776061
 40
0.1246976456
 40
0.1409844067
 40
0.1760067505
 40
0.2140220409
 40
0.2546798825
 40
0.2976054884
 40
0.3424031832
 40
0.3886599342
 40
0.4359493025
 40
0.4838353181
 40
0.5318764087
 40
0.579629717
 40
0.6266548407
 40
0.6725182869
 40
0.7167971903
 40
0.7590833525
 40
0.7989870136
 40
0.8361403665
 40
0.8702010355
 40
0.9008552789
 40
0.9278208118
 40
0.9398413347
 40
0.9508497882
 40
0.9608205494
 40
0.9697310655
 40
0.9775611225
 40
0.9842929394
 40
0.9899121836
 40
0.9923005822
 40
0.994406756
 40
0.9962299754
 40
0.9977697302
 40
0.9990259737
 40
1.0
 40
1.0
 40
1.0
 40
1.0
 10
5.1590765714
 20
5.0489694303
 30
0.0
 10
5.1590765714
 20
5.0489161157
 30
0.0
 10
5.1590128473
 20
5.0488530411
 30
0.0
 10
5.1589325766
 20
5.0488026813
 30
0.0
 10
5.1588422997
 20
5.0487555235
 30
0.0
 10
5.1587008903
 20
5.0486990998
 30
0.0
 10
5.1584958224
 20
5.0486342391
 30
0.0
 10
5.1582459149
 20
5.0485692967
 30
0.0
 10
5.1579508911
 20
5.0485040689
 30
0.0
 10
5.1574682363
 20
5.0484114137
 30
0.0
 10
5.1567513292
 20
5.0482984144
 30
0.0
 10
5.1557552652
 20
5.0481686727
 30
0.0
 10
5.1545797426
 20
5.048038461
 30
0.0
 10
5.1526563537
 20
5.0478531508
 30
0.0
 10
5.1498082163
 20
5.0476274498
 30
0.0
 10
5.1458628688
 20
5.0473681616
 30
0.0
 10
5.1412220064
 20
5.0471079216
 30
0.0
 10
5.1358963706
 20
5.0468469203
 30
0.0
 10
5.1298980761
 20
5.0465854214
 30
0.0
 10
5.1232410504
 20
5.0463235931
 30
0.0
 10
5.1159405333
 20
5.0460614892
 30
0.0
 10
5.1080134503
 20
5.0457992083
 30
0.0
 10
5.0994780224
 20
5.0455367706
 30
0.0
 10
5.0903539589
 20
5.0452742199
 30
0.0
 10
5.0806623168
 20
5.0450115725
 30
0.0
 10
5.0666710038
 20
5.0446525236
 30
0.0
 10
5.0479411876
 20
5.0442072237
 30
0.0
 10
5.0241001774
 20
5.0436842877
 30
0.0
 10
4.9986011587
 20
5.0431609052
 30
0.0
 10
4.9716793096
 20
5.0426371729
 30
0.0
 10
4.9435829263
 20
5.0421131988
 30
0.0
 10
4.9145711281
 20
5.0415890535
 30
0.0
 10
4.8849114781
 20
5.041064797
 30
0.0
 10
4.8548775204
 20
5.0405404793
 30
0.0
 10
4.8247462406
 20
5.0400161461
 30
0.0
 10
4.7947955529
 20
5.0394918421
 30
0.0
 10
4.7653016784
 20
5.0389676134
 30
0.0
 10
4.736536648
 20
5.0384435126
 30
0.0
 10
4.7087657437
 20
5.0379196028
 30
0.0
 10
4.6822450834
 20
5.0373959624
 30
0.0
 10
4.6572192492
 20
5.0368727016
 30
0.0
 10
4.6339190375
 20
5.0363499567
 30
0.0
 10
4.6125593234
 20
5.0358279888
 30
0.0
 10
4.5933371017
 20
5.0353070034
 30
0.0
 10
4.5787374175
 20
5.0348588285
 30
0.0
 10
4.5682577552
 20
5.0344951561
 30
0.0
 10
4.5613412638
 20
5.0342331963
 30
0.0
 10
4.5550775688
 20
5.0339715565
 30
0.0
 10
4.5494811429
 20
5.0337103258
 30
0.0
 10
4.544564845
 20
5.0334497663
 30
0.0
 10
4.5403399414
 20
5.0331899801
 30
0.0
 10
4.5372565629
 20
5.0329643902
 30
0.0
 10
4.5351432736
 20
5.0327798907
 30
0.0
 10
4.5338245674
 20
5.0326493795
 30
0.0
 10
4.5326848171
 20
5.0325192414
 30
0.0
 10
4.5317245416
 20
5.0323897351
 30
0.0
 10
4.5309442806
 20
5.0322610078
 30
0.0
 10
4.530486168
 20
5.0321644532
 30
0.0
 10
4.5302884107
 20
5.0321131868
 30
0.0
  0
SPLINE
  5
3B1
100
AcDbEntity
  8
0
100
AcDbSpline
 62
7
  6
CONTINUOUS
 70
0
 71
3
 72
63
 73
59
 74
0
 42
0.0000001
 43
0.0000001
 44
0.0000000001
 40
0.0
 40
0.0
 40
0.0
 40
0.0
 40
0.000254191
 40
0.000350766
 40
0.0004629182
 40
0.0007361972
 40
0.00107713
 40
0.0014871617
 40
0.0019670922
 40
0.0025173986
 40
0.0038301623
 40
0.0054264966
 40
0.0073062185
 40
0.0094687628
 40
0.0146389988
 40
0.020927183
 40
0.0283195224
 40
0.0367999914
 40
0.0463488588
 40
0.0569449938
 40
0.0685635472
 40
0.0811783313
 40
0.0947600516
 40
0.1092776061
 40
0.1246976456
 40
0.1409844067
 40
0.1760067505
 40
0.2140220409
 40
0.2546798825
 40
0.2976054884
 40
0.3424031832
 40
0.3886599342
 40
0.4359493025
 40
0.4838353181
 40
0.5318764087
 40
0.579629717
 40
0.6266548407
 40
0.6725182869
 40
0.7167971903
 40
0.7590833525
 40
0.7989870136
 40
0.8361403665
 40
0.8702010355
 40
0.9008552789
 40
0.9278208118
 40
0.9398413347
 40
0.9508497882
 40
0.9608205494
 40
0.9697310655
 40
0.9775611225
 40
0.9842929394
 40
0.9899121836
 40
0.9923005822
 40
0.994406756
 40
0.9962299754
 40
0.9977697302
 40
0.9990259737
 40
1.0
 40
1.0
 40
1.0
 40
1.0
 10
5.1590765714
 20
5.0834194303
 30
0.0
 10
5.1590765714
 20
5.0833661157
 30
0.0
 10
5.1590128473
 20
5.0833030411
 30
0.0
 10
5.1589325766
 20
5.0832526813
 30
0.0
 10
5.1588422997
 20
5.0832055235
 30
0.0
 10
5.1587008903
 20
5.0831490998
 30
0.0
 10
5.1584958224
 20
5.0830842391
 30
0.0
 10
5.1582459149
 20
5.0830192967
 30
0.0
 10
5.1579508911
 20
5.0829540689
 30
0.0
 10
5.1574682363
 20
5.0828614137
 30
0.0
 10
5.1567513292
 20
5.0827484144
 30
0.0
 10
5.1557552652
 20
5.0826186727
 30
0.0
 10
5.1545797426
 20
5.082488461
 30
0.0
 10
5.1526563537
 20
5.0823031508
 30
0.0
 10
5.1498082163
 20
5.0820774498
 30
0.0
 10
5.1458628688
 20
5.0818181616
 30
0.0
 10
5.1412220064
 20
5.0815579216
 30
0.0
 10
5.1358963706
 20
5.0812969203
 30
0.0
 10
5.1298980761
 20
5.0810354214
 30
0.0
 10
5.1232410504
 20
5.0807735931
 30
0.0
 10
5.1159405333
 20
5.0805114892
 30
0.0
 10
5.1080134503
 20
5.0802492083
 30
0.0
 10
5.0994780224
 20
5.0799867706
 30
0.0
 10
5.0903539589
 20
5.0797242199
 30
0.0
 10
5.0806623168
 20
5.0794615725
 30
0.0
 10
5.0666710038
 20
5.0791025236
 30
0.0
 10
5.0479411876
 20
5.0786572237
 30
0.0
 10
5.0241001774
 20
5.0781342877
 30
0.0
 10
4.9986011587
 20
5.0776109052
 30
0.0
 10
4.9716793096
 20
5.0770871729
 30
0.0
 10
4.9435829263
 20
5.0765631988
 30
0.0
 10
4.9145711281
 20
5.0760390535
 30
0.0
 10
4.8849114781
 20
5.075514797
 30
0.0
 10
4.8548775204
 20
5.0749904793
 30
0.0
 10
4.8247462406
 20
5.0744661461
 30
0.0
 10
4.7947955529
 20
5.0739418421
 30
0.0
 10
4.7653016784
 20
5.0734176134
 30
0.0
 10
4.736536648
 20
5.0728935126
 30
0.0
 10
4.7087657437
 20
5.0723696028
 30
0.0
 10
4.6822450834
 20
5.0718459624
 30
0.0
 10
4.6572192492
 20
5.0713227016
 30
0.0
 10
4.6339190375
 20
5.0707999567
 30
0.0
 10
4.6125593234
 20
5.0702779888
 30
0.0
 10
4.5933371017
 20
5.0697570034
 30
0.0
 10
4.5787374175
 20
5.0693088285
 30
0.0
 10
4.5682577552
 20
5.0689451561
 30
0.0
 10
4.5613412638
 20
5.0686831963
 30
0.0
 10
4.5550775688
 20
5.0684215565
 30
0.0
 10
4.5494811429
 20
5.0681603258
 30
0.0
 10
4.544564845
 20
5.0678997663
 30
0.0
 10
4.5403399414
 20
5.0676399801
 30
0.0
 10
4.5372565629
 20
5.0674143902
 30
0.0
 10
4.5351432736
 20
5.0672298907
 30
0.0
 10
4.5338245674
 20
5.0670993795
 30
0.0
 10
4.5326848171
 20
5.0669692414
 30
0.0
 10
4.5317245416
 20
5.0668397351
 30
0.0
 10
4.5309442806
 20
5.0667110078
 30
0.0
 10
4.530486168
 20
5.0666144532
 30
0.0
 10
4.5302884107
 20
5.0665631868
 30
0.0
  0
SPLINE
  5
3B2
100
AcDbEntity
  8
0
100
AcDbSpline
 62
7
  6
CONTINUOUS
 70
0
 71
3
 72
63
 73
59
 74
0
 42
0.0000001
 43
0.0000001
 44
0.0000000001
 40
0.0
 40
0.0
 40
0.0
 40
0.0
 40
0.000254191
 40
0.000350766
 40
0.0004629182
 40
0.0007361972
 40
0.00107713
 40
0.0014871617
 40
0.0019670922
 40
0.0025173986
 40
0.0038301623
 40
0.0054264966
 40
0.0073062185
 40
0.0094687628
 40
0.0146389988
 40
0.020927183
 40
0.0283195224
 40
0.0367999914
 40
0.0463488588
 40
0.0569449938
 40
0.0685635472
 40
0.0811783313
 40
0.0947600516
 40
0.1092776061
 40
0.1246976456
 40
0.1409844067
 40
0.1760067505
 40
0.2140220409
 40
0.2546798825
 40
0.2976054884
 40
0.3424031832
 40
0.3886599342
 40
0.4359493025
 40
0.4838353181
 40
0.5318764087
 40
0.579629717
 40
0.6266548407
 40
0.6725182869
 40
0.7167971903
 40
0.7590833525
 40
0.7989870136
 40
0.8361403665
 40
0.8702010355
 40
0.9008552789
 40
0.9278208118
 40
0.9398413347
 40
0.9508497882
 40
0.9608205494
 40
0.9697310655
 40
0.9775611225
 40
0.9842929394
 40
0.9899121836
 40
0.9923005822
 40
0.994406756
 40
0.9962299754
 40
0.9977697302
 40
0.9990259737
 40
1.0
 40
1.0
 40
1.0
 40
1.0
 10
5.1590765714
 20
5.1178694303
 30
0.0
 10
5.1590765714
 20
5.1178161157
 30
0.0
 10
5.1590128473
 20
5.1177530411
 30
0.0
 10
5.1589325766
 20
5.1177026813
 30
0.0
 10
5.1588422997
 20
5.1176555235
 30
0.0
 10
5.1587008903
 20
5.1175990998
 30
0.0
 10
5.1584958224
 20
5.1175342391
 30
0.0
 10
5.1582459149
 20
5.1174692967
 30
0.0
 10
5.1579508911
 20
5.1174040689
 30
0.0
 10
5.1574682363
 20
5.1173114137
 30
0.0
 10
5.1567513292
 20
5.1171984144
 30
0.0
 10
5.1557552652
 20
5.1170686727
 30
0.0
 10
5.1545797426
 20
5.116938461
 30
0.0
 10
5.1526563537
 20
5.1167531508
 30
0.0
 10
5.1498082163
 20
5.1165274498
 30
0.0
 10
5.1458628688
 20
5.1162681616
 30
0.0
 10
5.1412220064
 20
5.1160079216
 30
0.0
 10
5.1358963706
 20
5.1157469203
 30
0.0
 10
5.1298980761
 20
5.1154854214
 30
0.0
 10
5.1232410504
 20
5.1152235931
 30
0.0
 10
5.1159405333
 20
5.1149614892
 30
0.0
 10
5.1080134503
 20
5.1146992083
 30
0.0
 10
5.0994780224
 20
5.1144367706
 30
0.0
 10
5.0903539589
 20
5.1141742199
 30
0.0
 10
5.0806623168
 20
5.1139115725
 30
0.0
 10
5.0666710038
 20
5.1135525236
 30
0.0
 10
5.0479411876
 20
5.1131072237
 30
0.0
 10
5.0241001774
 20
5.1125842877
 30
0.0
 10
4.9986011587
 20
5.1120609052
 30
0.0
 10
4.9716793096
 20
5.1115371729
 30
0.0
 10
4.9435829263
 20
5.1110131988
 30
0.0
 10
4.9145711281
 20
5.1104890535
 30
0.0
 10
4.8849114781
 20
5.109964797
 30
0.0
 10
4.8548775204
 20
5.1094404793
 30
0.0
 10
4.8247462406
 20
5.1089161461
 30
0.0
 10
4.7947955529
 20
5.1083918421
 30
0.0
 10
4.7653016784
 20
5.1078676134
 30
0.0
 10
4.736536648
 20
5.1073435126
 30
0.0
 10
4.7087657437
 20
5.1068196028
 30
0.0
 10
4.6822450834
 20
5.1062959624
 30
0.0
 10
4.6572192492
 20
5.1057727016
 30
0.0
 10
4.6339190375
 20
5.1052499567
 30
0.0
 10
4.6125593234
 20
5.1047279888
 30
0.0
 10
4.5933371017
 20
5.1042070034
 30
0.0
 10
4.5787374175
 20
5.1037588285
 30
0.0
 10
4.5682577552
 20
5.1033951561
 30
0.0
 10
4.5613412638
 20
5.1031331963
 30
0.0
 10
4.5550775688
 20
5.1028715565
 30
0.0
 10
4.5494811429
 20
5.1026103258
 30
0.0
 10
4.544564845
 20
5.1023497663
 30
0.0
 10
4.5403399414
 20
5.1020899801
 30
0.0
 10
4.5372565629
 20
5.1018643902
 30
0.0
 10
4.5351432736
 20
5.1016798907
 30
0.0
 10
4.5338245674
 20
5.1015493795
 30
0.0
 10
4.5326848171
 20
5.1014192414
 30
0.0
 10
4.5317245416
 20
5.1012897351
 30
0.0
 10
4.5309442806
 20
5.1011610078
 30
0.0
 10
4.530486168
 20
5.1010644532
 30
0.0
 10
4.5302884107
 20
5.1010131868
 30
0.0
  0
SPLINE
  5
3B3
100
AcDbEntity
  8
0
100
AcDbSpline
 62
7
  6
CONTINUOUS
 70
0
 71
3
 72
30
 73
26
 74
0
 42
0.0000001
 43
0.0000001
 44
0.0000000001
 40
0.0
 40
0.0
 40
0.0
 40
0.0
 40
0.1811743769
 40
0.2709938951
 40
0.3590893116
 40
0.4445669221
 40
0.5265625033
 40
0.6042460536
 40
0.6768316557
 40
0.7435850242
 40
0.8038310832
 40
0.8569609651
 40
0.8806864507
 40
0.9024383725
 40
0.9221608467
 40
0.9398054856
 40
0.9553273971
 40
0.9686889162
 40
0.979857486
 40
0.9846110676
 40
0.9888077309
 40
0.9924455178
 40
0.9955229612
 40
0.9980402511
 40
1.0
 40
1.0
 40
1.0
 40
1.0
 10
4.8771459895
 20
5.3218322981
 30
0.0
 10
4.857423571
 20
5.3214626851
 30
0.0
 10
4.8279233948
 20
5.3209160417
 30
0.0
 10
4.7888334067
 20
5.3201818393
 30
0.0
 10
4.7601610393
 20
5.3196328655
 30
0.0
 10
4.7323406818
 20
5.3190840693
 30
0.0
 10
4.7056541688
 20
5.3185355408
 30
0.0
 10
4.6803716118
 20
5.3179873957
 30
0.0
 10
4.6567489958
 20
5.3174397791
 30
0.0
 10
4.635025462
 20
5.316892964
 30
0.0
 10
4.6154209353
 20
5.316347167
 30
0.0
 10
4.6005009458
 20
5.3158778654
 30
0.0
 10
4.5897715346
 20
5.3154970587
 30
0.0
 10
4.5826780033
 20
5.3152225903
 30
0.0
 10
4.5762470681
 20
5.3149484388
 30
0.0
 10
4.5704951041
 20
5.3146747329
 30
0.0
 10
4.56543654
 20
5.314401695
 30
0.0
 10
4.5610842121
 20
5.3141294963
 30
0.0
 10
4.5579045004
 20
5.3138931453
 30
0.0
 10
4.5557225116
 20
5.3136998975
 30
0.0
 10
4.5543587515
 20
5.3135631294
 30
0.0
 10
4.553178493
 20
5.3134267531
 30
0.0
 10
4.5521823553
 20
5.3132910062
 30
0.0
 10
4.5513709019
 20
5.3131560658
 30
0.0
 10
4.5508936333
 20
5.3130550094
 30
0.0
 10
4.5506870892
 20
5.3130014587
 30
0.0
  0
SPLINE
  5
3B4
100
AcDbEntity
  8
0
100
AcDbSpline
 62
7
  6
CONTINUOUS
 70
0
 71
3
 72
63
 73
59
 74
0
 42
0.0000001
 43
0.0000001
 44
0.0000000001
 40
0.0
 40
0.0
 40
0.0
 40
0.0
 40
0.000254191
 40
0.000350766
 40
0.0004629182
 40
0.0007361972
 40
0.00107713
 40
0.0014871617
 40
0.0019670922
 40
0.0025173986
 40
0.0038301623
 40
0.0054264966
 40
0.0073062185
 40
0.0094687628
 40
0.0146389988
 40
0.020927183
 40
0.0283195224
 40
0.0367999914
 40
0.0463488588
 40
0.0569449938
 40
0.0685635472
 40
0.0811783313
 40
0.0947600516
 40
0.1092776061
 40
0.1246976456
 40
0.1409844067
 40
0.1760067505
 40
0.2140220409
 40
0.2546798825
 40
0.2976054884
 40
0.3424031832
 40
0.3886599342
 40
0.4359493025
 40
0.4838353181
 40
0.5318764087
 40
0.579629717
 40
0.6266548407
 40
0.6725182869
 40
0.7167971903
 40
0.7590833525
 40
0.7989870136
 40
0.8361403665
 40
0.8702010355
 40
0.9008552789
 40
0.9278208118
 40
0.9398413347
 40
0.9508497882
 40
0.9608205494
 40
0.9697310655
 40
0.9775611225
 40
0.9842929394
 40
0.9899121836
 40
0.9923005822
 40
0.994406756
 40
0.9962299754
 40
0.9977697302
 40
0.9990259737
 40
1.0
 40
1.0
 40
1.0
 40
1.0
 10
5.1590765714
 20
5.1523194303
 30
0.0
 10
5.1590765714
 20
5.1522661157
 30
0.0
 10
5.1590128473
 20
5.1522030411
 30
0.0
 10
5.1589325766
 20
5.1521526813
 30
0.0
 10
5.1588422997
 20
5.1521055235
 30
0.0
 10
5.1587008903
 20
5.1520490998
 30
0.0
 10
5.1584958224
 20
5.1519842391
 30
0.0
 10
5.1582459149
 20
5.1519192967
 30
0.0
 10
5.1579508911
 20
5.1518540689
 30
0.0
 10
5.1574682363
 20
5.1517614137
 30
0.0
 10
5.1567513292
 20
5.1516484144
 30
0.0
 10
5.1557552652
 20
5.1515186727
 30
0.0
 10
5.1545797426
 20
5.151388461
 30
0.0
 10
5.1526563537
 20
5.1512031508
 30
0.0
 10
5.1498082163
 20
5.1509774498
 30
0.0
 10
5.1458628688
 20
5.1507181616
 30
0.0
 10
5.1412220064
 20
5.1504579216
 30
0.0
 10
5.1358963706
 20
5.1501969203
 30
0.0
 10
5.1298980761
 20
5.1499354214
 30
0.0
 10
5.1232410504
 20
5.1496735931
 30
0.0
 10
5.1159405333
 20
5.1494114892
 30
0.0
 10
5.1080134503
 20
5.1491492083
 30
0.0
 10
5.0994780224
 20
5.1488867706
 30
0.0
 10
5.0903539589
 20
5.1486242199
 30
0.0
 10
5.0806623168
 20
5.1483615725
 30
0.0
 10
5.0666710038
 20
5.1480025236
 30
0.0
 10
5.0479411876
 20
5.1475572237
 30
0.0
 10
5.0241001774
 20
5.1470342877
 30
0.0
 10
4.9986011587
 20
5.1465109052
 30
0.0
 10
4.9716793096
 20
5.1459871729
 30
0.0
 10
4.9435829263
 20
5.1454631988
 30
0.0
 10
4.9145711281
 20
5.1449390535
 30
0.0
 10
4.8849114781
 20
5.144414797
 30
0.0
 10
4.8548775204
 20
5.1438904793
 30
0.0
 10
4.8247462406
 20
5.1433661461
 30
0.0
 10
4.7947955529
 20
5.1428418421
 30
0.0
 10
4.7653016784
 20
5.1423176134
 30
0.0
 10
4.736536648
 20
5.1417935126
 30
0.0
 10
4.7087657437
 20
5.1412696028
 30
0.0
 10
4.6822450834
 20
5.1407459624
 30
0.0
 10
4.6572192492
 20
5.1402227016
 30
0.0
 10
4.6339190375
 20
5.1396999567
 30
0.0
 10
4.6125593234
 20
5.1391779888
 30
0.0
 10
4.5933371017
 20
5.1386570034
 30
0.0
 10
4.5787374175
 20
5.1382088285
 30
0.0
 10
4.5682577552
 20
5.1378451561
 30
0.0
 10
4.5613412638
 20
5.1375831963
 30
0.0
 10
4.5550775688
 20
5.1373215565
 30
0.0
 10
4.5494811429
 20
5.1370603258
 30
0.0
 10
4.544564845
 20
5.1367997663
 30
0.0
 10
4.5403399414
 20
5.1365399801
 30
0.0
 10
4.5372565629
 20
5.1363143902
 30
0.0
 10
4.5351432736
 20
5.1361298907
 30
0.0
 10
4.5338245674
 20
5.1359993795
 30
0.0
 10
4.5326848171
 20
5.1358692414
 30
0.0
 10
4.5317245416
 20
5.1357397351
 30
0.0
 10
4.5309442806
 20
5.1356110078
 30
0.0
 10
4.530486168
 20
5.1355144532
 30
0.0
 10
4.5302884107
 20
5.1354631868
 30
0.0
  0
SPLINE
  5
3B5
100
AcDbEntity
  8
0
100
AcDbSpline
 62
7
  6
CONTINUOUS
 70
0
 71
3
 72
63
 73
59
 74
0
 42
0.0000001
 43
0.0000001
 44
0.0000000001
 40
0.0
 40
0.0
 40
0.0
 40
0.0
 40
0.000254191
 40
0.000350766
 40
0.0004629182
 40
0.0007361972
 40
0.00107713
 40
0.0014871617
 40
0.0019670922
 40
0.0025173986
 40
0.0038301623
 40
0.0054264966
 40
0.0073062185
 40
0.0094687628
 40
0.0146389988
 40
0.020927183
 40
0.0283195224
 40
0.0367999914
 40
0.0463488588
 40
0.0569449938
 40
0.0685635472
 40
0.0811783313
 40
0.0947600516
 40
0.1092776061
 40
0.1246976456
 40
0.1409844067
 40
0.1760067505
 40
0.2140220409
 40
0.2546798825
 40
0.2976054884
 40
0.3424031832
 40
0.3886599342
 40
0.4359493025
 40
0.4838353181
 40
0.5318764087
 40
0.579629717
 40
0.6266548407
 40
0.6725182869
 40
0.7167971903
 40
0.7590833525
 40
0.7989870136
 40
0.8361403665
 40
0.8702010355
 40
0.9008552789
 40
0.9278208118
 40
0.9398413347
 40
0.9508497882
 40
0.9608205494
 40
0.9697310655
 40
0.9775611225
 40
0.9842929394
 40
0.9899121836
 40
0.9923005822
 40
0.994406756
 40
0.9962299754
 40
0.9977697302
 40
0.9990259737
 40
1.0
 40
1.0
 40
1.0
 40
1.0
 10
5.1590765714
 20
5.1867694303
 30
0.0
 10
5.1590765714
 20
5.1867161157
 30
0.0
 10
5.1590128473
 20
5.1866530411
 30
0.0
 10
5.1589325766
 20
5.1866026813
 30
0.0
 10
5.1588422997
 20
5.1865555235
 30
0.0
 10
5.1587008903
 20
5.1864990998
 30
0.0
 10
5.1584958224
 20
5.1864342391
 30
0.0
 10
5.1582459149
 20
5.1863692967
 30
0.0
 10
5.1579508911
 20
5.1863040689
 30
0.0
 10
5.1574682363
 20
5.1862114137
 30
0.0
 10
5.1567513292
 20
5.1860984144
 30
0.0
 10
5.1557552652
 20
5.1859686727
 30
0.0
 10
5.1545797426
 20
5.185838461
 30
0.0
 10
5.1526563537
 20
5.1856531508
 30
0.0
 10
5.1498082163
 20
5.1854274498
 30
0.0
 10
5.1458628688
 20
5.1851681616
 30
0.0
 10
5.1412220064
 20
5.1849079216
 30
0.0
 10
5.1358963706
 20
5.1846469203
 30
0.0
 10
5.1298980761
 20
5.1843854214
 30
0.0
 10
5.1232410504
 20
5.1841235931
 30
0.0
 10
5.1159405333
 20
5.1838614892
 30
0.0
 10
5.1080134503
 20
5.1835992083
 30
0.0
 10
5.0994780224
 20
5.1833367706
 30
0.0
 10
5.0903539589
 20
5.1830742199
 30
0.0
 10
5.0806623168
 20
5.1828115725
 30
0.0
 10
5.0666710038
 20
5.1824525236
 30
0.0
 10
5.0479411876
 20
5.1820072237
 30
0.0
 10
5.0241001774
 20
5.1814842877
 30
0.0
 10
4.9986011587
 20
5.1809609052
 30
0.0
 10
4.9716793096
 20
5.1804371729
 30
0.0
 10
4.9435829263
 20
5.1799131988
 30
0.0
 10
4.9145711281
 20
5.1793890535
 30
0.0
 10
4.8849114781
 20
5.178864797
 30
0.0
 10
4.8548775204
 20
5.1783404793
 30
0.0
 10
4.8247462406
 20
5.1778161461
 30
0.0
 10
4.7947955529
 20
5.1772918421
 30
0.0
 10
4.7653016784
 20
5.1767676134
 30
0.0
 10
4.736536648
 20
5.1762435126
 30
0.0
 10
4.7087657437
 20
5.1757196028
 30
0.0
 10
4.6822450834
 20
5.1751959624
 30
0.0
 10
4.6572192492
 20
5.1746727016
 30
0.0
 10
4.6339190375
 20
5.1741499567
 30
0.0
 10
4.6125593234
 20
5.1736279888
 30
0.0
 10
4.5933371017
 20
5.1731070034
 30
0.0
 10
4.5787374175
 20
5.1726588285
 30
0.0
 10
4.5682577552
 20
5.1722951561
 30
0.0
 10
4.5613412638
 20
5.1720331963
 30
0.0
 10
4.5550775688
 20
5.1717715565
 30
0.0
 10
4.5494811429
 20
5.1715103258
 30
0.0
 10
4.544564845
 20
5.1712497663
 30
0.0
 10
4.5403399414
 20
5.1709899801
 30
0.0
 10
4.5372565629
 20
5.1707643902
 30
0.0
 10
4.5351432736
 20
5.1705798907
 30
0.0
 10
4.5338245674
 20
5.1704493795
 30
0.0
 10
4.5326848171
 20
5.1703192414
 30
0.0
 10
4.5317245416
 20
5.1701897351
 30
0.0
 10
4.5309442806
 20
5.1700610078
 30
0.0
 10
4.530486168
 20
5.1699644532
 30
0.0
 10
4.5302884107
 20
5.1699131868
 30
0.0
  0
SPLINE
  5
3B6
100
AcDbEntity
  8
0
100
AcDbSpline
 62
7
  6
CONTINUOUS
 70
0
 71
3
 72
63
 73
59
 74
0
 42
0.0000001
 43
0.0000001
 44
0.0000000001
 40
0.0
 40
0.0
 40
0.0
 40
0.0
 40
0.0001173728
 40
0.000189092
 40
0.000273263
 40
0.0004849876
 40
0.0007603742
 40
0.0011026384
 40
0.0015134036
 40
0.0019935781
 40
0.0025437082
 40
0.0038550309
 40
0.0054486921
 40
0.0073246263
 40
0.0094823283
 40
0.0146398838
 40
0.0209118709
 40
0.0282844812
 40
0.0367420939
 40
0.0462650104
 40
0.0568322236
 40
0.0684192732
 40
0.0809997737
 40
0.0945450959
 40
0.1090238073
 40
0.1406475057
 40
0.1755805322
 40
0.213502101
 40
0.2540637413
 40
0.2968927812
 40
0.3415956619
 40
0.387761471
 40
0.4349659985
 40
0.4827751991
 40
0.5307496963
 40
0.5784484659
 40
0.6254330868
 40
0.6712717443
 40
0.7155430623
 40
0.7578401535
 40
0.7977742779
 40
0.8349785081
 40
0.8691111445
 40
0.8998587693
 40
0.9269392401
 40
0.939025302
 40
0.9501044577
 40
0.9601510026
 40
0.9691427017
 40
0.9770585642
 40
0.9838815612
 40
0.9895963982
 40
0.9920345048
 40
0.9941916611
 40
0.996066988
 40
0.9976598484
 40
0.9989703965
 40
1.0
 40
1.0
 40
1.0
 40
1.0
 10
5.1387265711
 20
4.8819822981
 30
0.0
 10
5.1387265693
 20
4.8819592732
 30
0.0
 10
5.1387125614
 20
4.8819221528
 30
0.0
 10
5.1386780874
 20
4.881881119
 30
0.0
 10
5.1386233958
 20
4.8818336171
 30
0.0
 10
5.138526091
 20
4.8817766921
 30
0.0
 10
5.1383765141
 20
4.8817123097
 30
0.0
 10
5.1381852137
 20
4.881647679
 30
0.0
 10
5.1379521017
 20
4.8815827584
 30
0.0
 10
5.1376769491
 20
4.8815176475
 30
0.0
 10
5.1372269542
 20
4.8814251547
 30
0.0
 10
5.1365584372
 20
4.8813123372
 30
0.0
 10
5.1356294953
 20
4.881182781
 30
0.0
 10
5.1345332152
 20
4.8810527559
 30
0.0
 10
5.1327396608
 20
4.880867724
 30
0.0
 10
5.1300836245
 20
4.8806423441
 30
0.0
 10
5.1264042617
 20
4.8803834505
 30
0.0
 10
5.1220762282
 20
4.880123594
 30
0.0
 10
5.1171095324
 20
4.8798629868
 30
0.0
 10
5.1115154203
 20
4.8796018784
 30
0.0
 10
5.1053068303
 20
4.8793404392
 30
0.0
 10
5.0984979672
 20
4.8790787351
 30
0.0
 10
5.0911045047
 20
4.8788168422
 30
0.0
 10
5.083143465
 20
4.8785547988
 30
0.0
 10
5.0714479783
 20
4.8781945634
 30
0.0
 10
5.0555575757
 20
4.8777487099
 30
0.0
 10
5.0350688108
 20
4.8772272104
 30
0.0
 10
5.0128261955
 20
4.8767050908
 30
0.0
 10
4.9890342452
 20
4.8761824815
 30
0.0
 10
4.9639117183
 20
4.8756595359
 30
0.0
 10
4.9376896067
 20
4.8751363447
 30
0.0
 10
4.9106089999
 20
4.8746129832
 30
0.0
 10
4.8829189214
 20
4.8740895102
 30
0.0
 10
4.8548739736
 20
4.8735659751
 30
0.0
 10
4.8267320545
 20
4.8730424235
 30
0.0
 10
4.7987519197
 20
4.8725188994
 30
0.0
 10
4.7711908427
 20
4.8719954491
 30
0.0
 10
4.7443022459
 20
4.8714721245
 30
0.0
 10
4.7183333715
 20
4.8709489877
 30
0.0
 10
4.693523021
 20
4.870426116
 30
0.0
 10
4.6700993275
 20
4.8699036168
 30
0.0
 10
4.6482776573
 20
4.8693816245
 30
0.0
 10
4.6282586248
 20
4.8688603935
 30
0.0
 10
4.6102262723
 20
4.8683401261
 30
0.0
 10
4.5965185377
 20
4.8678926794
 30
0.0
 10
4.5866685716
 20
4.8675296805
 30
0.0
 10
4.580158698
 20
4.8672680918
 30
0.0
 10
4.5742563629
 20
4.8670067982
 30
0.0
 10
4.568975219
 20
4.8667459279
 30
0.0
 10
4.5643272557
 20
4.8664856594
 30
0.0
 10
4.560323223
 20
4.866226185
 30
0.0
 10
4.557393923
 20
4.8660009458
 30
0.0
 10
4.5553797595
 20
4.8658169022
 30
0.0
 10
4.5541171049
 20
4.8656865226
 30
0.0
 10
4.5530212287
 20
4.8655564959
 30
0.0
 10
4.5520926579
 20
4.8654270218
 30
0.0
 10
4.5513318607
 20
4.8652982635
 30
0.0
 10
4.5508826126
 20
4.8652021505
 30
0.0
 10
4.5506871012
 20
4.8651514586
 30
0.0
  0
SPLINE
  5
3B7
100
AcDbEntity
  8
0
100
AcDbSpline
 62
7
  6
CONTINUOUS
 70
0
 71
3
 72
63
 73
59
 74
0
 42
0.0000001
 43
0.0000001
 44
0.0000000001
 40
0.0
 40
0.0
 40
0.0
 40
0.0
 40
0.000254191
 40
0.000350766
 40
0.0004629182
 40
0.0007361972
 40
0.00107713
 40
0.0014871617
 40
0.0019670922
 40
0.0025173986
 40
0.0038301623
 40
0.0054264966
 40
0.0073062185
 40
0.0094687628
 40
0.0146389988
 40
0.020927183
 40
0.0283195224
 40
0.0367999914
 40
0.0463488588
 40
0.0569449938
 40
0.0685635472
 40
0.0811783313
 40
0.0947600516
 40
0.1092776061
 40
0.1246976456
 40
0.1409844067
 40
0.1760067505
 40
0.2140220409
 40
0.2546798825
 40
0.2976054884
 40
0.3424031832
 40
0.3886599342
 40
0.4359493025
 40
0.4838353181
 40
0.5318764087
 40
0.579629717
 40
0.6266548407
 40
0.6725182869
 40
0.7167971903
 40
0.7590833525
 40
0.7989870136
 40
0.8361403665
 40
0.8702010355
 40
0.9008552789
 40
0.9278208118
 40
0.9398413347
 40
0.9508497882
 40
0.9608205494
 40
0.9697310655
 40
0.9775611225
 40
0.9842929394
 40
0.9899121836
 40
0.9923005822
 40
0.994406756
 40
0.9962299754
 40
0.9977697302
 40
0.9990259737
 40
1.0
 40
1.0
 40
1.0
 40
1.0
 10
5.1590765714
 20
5.2212194303
 30
0.0
 10
5.1590765714
 20
5.2211661157
 30
0.0
 10
5.1590128473
 20
5.2211030411
 30
0.0
 10
5.1589325766
 20
5.2210526813
 30
0.0
 10
5.1588422997
 20
5.2210055235
 30
0.0
 10
5.1587008903
 20
5.2209490998
 30
0.0
 10
5.1584958224
 20
5.2208842391
 30
0.0
 10
5.1582459149
 20
5.2208192967
 30
0.0
 10
5.1579508911
 20
5.2207540689
 30
0.0
 10
5.1574682363
 20
5.2206614137
 30
0.0
 10
5.1567513292
 20
5.2205484144
 30
0.0
 10
5.1557552652
 20
5.2204186727
 30
0.0
 10
5.1545797426
 20
5.220288461
 30
0.0
 10
5.1526563537
 20
5.2201031508
 30
0.0
 10
5.1498082163
 20
5.2198774498
 30
0.0
 10
5.1458628688
 20
5.2196181616
 30
0.0
 10
5.1412220064
 20
5.2193579216
 30
0.0
 10
5.1358963706
 20
5.2190969203
 30
0.0
 10
5.1298980761
 20
5.2188354214
 30
0.0
 10
5.1232410504
 20
5.2185735931
 30
0.0
 10
5.1159405333
 20
5.2183114892
 30
0.0
 10
5.1080134503
 20
5.2180492083
 30
0.0
 10
5.0994780224
 20
5.2177867706
 30
0.0
 10
5.0903539589
 20
5.2175242199
 30
0.0
 10
5.0806623168
 20
5.2172615725
 30
0.0
 10
5.0666710038
 20
5.2169025236
 30
0.0
 10
5.0479411876
 20
5.2164572237
 30
0.0
 10
5.0241001774
 20
5.2159342877
 30
0.0
 10
4.9986011587
 20
5.2154109052
 30
0.0
 10
4.9716793096
 20
5.2148871729
 30
0.0
 10
4.9435829263
 20
5.2143631988
 30
0.0
 10
4.9145711281
 20
5.2138390535
 30
0.0
 10
4.8849114781
 20
5.213314797
 30
0.0
 10
4.8548775204
 20
5.2127904793
 30
0.0
 10
4.8247462406
 20
5.2122661461
 30
0.0
 10
4.7947955529
 20
5.2117418421
 30
0.0
 10
4.7653016784
 20
5.2112176134
 30
0.0
 10
4.736536648
 20
5.2106935126
 30
0.0
 10
4.7087657437
 20
5.2101696028
 30
0.0
 10
4.6822450834
 20
5.2096459624
 30
0.0
 10
4.6572192492
 20
5.2091227016
 30
0.0
 10
4.6339190375
 20
5.2085999567
 30
0.0
 10
4.6125593234
 20
5.2080779888
 30
0.0
 10
4.5933371017
 20
5.2075570034
 30
0.0
 10
4.5787374175
 20
5.2071088285
 30
0.0
 10
4.5682577552
 20
5.2067451561
 30
0.0
 10
4.5613412638
 20
5.2064831963
 30
0.0
 10
4.5550775688
 20
5.2062215565
 30
0.0
 10
4.5494811429
 20
5.2059603258
 30
0.0
 10
4.544564845
 20
5.2056997663
 30
0.0
 10
4.5403399414
 20
5.2054399801
 30
0.0
 10
4.5372565629
 20
5.2052143902
 30
0.0
 10
4.5351432736
 20
5.2050298907
 30
0.0
 10
4.5338245674
 20
5.2048993795
 30
0.0
 10
4.5326848171
 20
5.2047692414
 30
0.0
 10
4.5317245416
 20
5.2046397351
 30
0.0
 10
4.5309442806
 20
5.2045110078
 30
0.0
 10
4.530486168
 20
5.2044144532
 30
0.0
 10
4.5302884107
 20
5.2043631868
 30
0.0
  0
SPLINE
  5
3B8
100
AcDbEntity
  8
0
100
AcDbSpline
 62
7
  6
CONTINUOUS
 70
0
 71
3
 72
39
 73
35
 74
0
 42
0.0000001
 43
0.0000001
 44
0.0000000001
 40
0.0
 40
0.0
 40
0.0
 40
0.0
 40
0.0946363783
 40
0.1892554026
 40
0.2828187957
 40
0.3743076388
 40
0.4627211429
 40
0.5470939832
 40
0.626504513
 40
0.7000855403
 40
0.7344364359
 40
0.7670337145
 40
0.7977893848
 40
0.8266184875
 40
0.853443336
 40
0.8781900899
 40
0.9007920407
 40
0.9211873491
 40
0.9393210184
 40
0.9551443605
 40
0.9686150587
 40
0.9796988483
 40
0.9843365848
 40
0.9883685254
 40
0.9917931104
 40
0.9946095439
 40
0.995790065
 40
0.9968194504
 40
0.9976986742
 40
0.9984293842
 40
0.9990145749
 40
0.9992544403
 40
0.9994607175
 40
1.0
 40
1.0
 40
1.0
 40
1.0
 10
4.8744766796
 20
5.3005822981
 30
0.0
 10
4.8642309973
 20
5.3003904746
 30
0.0
 10
4.8437414731
 20
5.3000089217
 30
0.0
 10
4.8131224152
 20
5.2994386167
 30
0.0
 10
4.7828442388
 20
5.2988683799
 30
0.0
 10
4.7532381306
 20
5.2982982917
 30
0.0
 10
4.7246273847
 20
5.2977284323
 30
0.0
 10
4.6973247722
 20
5.2971589265
 30
0.0
 10
4.6716286178
 20
5.296589889
 30
0.0
 10
4.6513484397
 20
5.2961058713
 30
0.0
 10
4.6361365676
 20
5.295715575
 30
0.0
 10
4.6255607965
 20
5.2954296675
 30
0.0
 10
4.6155831666
 20
5.2951438822
 30
0.0
 10
4.6062308592
 20
5.2948582066
 30
0.0
 10
4.5975295315
 20
5.2945727064
 30
0.0
 10
4.5895028794
 20
5.2942874029
 30
0.0
 10
4.5821729011
 20
5.2940023842
 30
0.0
 10
4.5755595801
 20
5.2937177465
 30
0.0
 10
4.5696809973
 20
5.2934336202
 30
0.0
 10
4.5645531545
 20
5.2931503628
 30
0.0
 10
4.5601899935
 20
5.2928681047
 30
0.0
 10
4.557038354
 20
5.2926224538
 30
0.0
 10
4.5549088803
 20
5.2924207437
 30
0.0
 10
4.5536069112
 20
5.2922789929
 30
0.0
 10
4.5525034649
 20
5.2921377618
 30
0.0
 10
4.5517091179
 20
5.2920147763
 30
0.0
 10
4.5511742323
 20
5.2919139283
 30
0.0
 10
4.5508472824
 20
5.2918429357
 30
0.0
 10
4.5505703309
 20
5.2917722572
 30
0.0
 10
4.5503430638
 20
5.2917016634
 30
0.0
 10
4.5501863363
 20
5.2916402564
 30
0.0
 10
4.5500862085
 20
5.291588892
 30
0.0
 10
4.5499976381
 20
5.2915342986
 30
0.0
 10
4.5499265692
 20
5.2914656931
 30
0.0
 10
4.5499265715
 20
5.2914072981
 30
0.0
  0
SPLINE
  5
3B9
100
AcDbEntity
  8
0
100
AcDbSpline
 62
7
  6
CONTINUOUS
 70
0
 71
3
 72
30
 73
26
 74
0
 42
0.0000001
 43
0.0000001
 44
0.0000000001
 40
0.0
 40
0.0
 40
0.0
 40
0.0
 40
0.1816472946
 40
0.2715942398
 40
0.3597566481
 40
0.4452498611
 40
0.5272193678
 40
0.6048447297
 40
0.6773495876
 40
0.7440085627
 40
0.8041553204
 40
0.857188667
 40
0.8808693891
 40
0.9025795669
 40
0.9222647836
 40
0.9398762337
 40
0.9553709211
 40
0.9687103035
 40
0.9798636619
 40
0.9846119024
 40
0.9888046945
 40
0.9924404436
 40
0.9955179906
 40
0.9980370623
 40
1.0
 40
1.0
 40
1.0
 40
1.0
 10
4.8744766796
 20
5.2873322981
 30
0.0
 10
4.8548643969
 20
5.2869651095
 30
0.0
 10
4.8255405242
 20
5.2864217335
 30
0.0
 10
4.7866980054
 20
5.2856913648
 30
0.0
 10
4.7582373371
 20
5.2851454764
 30
0.0
 10
4.7306382948
 20
5.2845997666
 30
0.0
 10
4.7041773511
 20
5.2840543249
 30
0.0
 10
4.6791192965
 20
5.2835092651
 30
0.0
 10
4.6557149975
 20
5.282964732
 30
0.0
 10
4.6341987034
 20
5.2824209948
 30
0.0
 10
4.6147858081
 20
5.2818782712
 30
0.0
 10
4.600013801
 20
5.2814115938
 30
0.0
 10
4.5893919008
 20
5.2810329348
 30
0.0
 10
4.5823697514
 20
5.2807600076
 30
0.0
 10
4.5760035352
 20
5.2804874173
 30
0.0
 10
4.5703091784
 20
5.2802152378
 30
0.0
 10
4.5653009243
 20
5.279943759
 30
0.0
 10
4.5609912021
 20
5.2796730677
 30
0.0
 10
4.5578421454
 20
5.2794380695
 30
0.0
 10
4.5556806808
 20
5.2792459297
 30
0.0
 10
4.5543293239
 20
5.2791099258
 30
0.0
 10
4.553159385
 20
5.2789743047
 30
0.0
 10
4.5521714538
 20
5.2788393214
 30
0.0
 10
4.5513661341
 20
5.2787051372
 30
0.0
 10
4.5508922713
 20
5.2786046665
 30
0.0
 10
4.5506870843
 20
5.2785514586
 30
0.0
  0
SPLINE
  5
3BA
100
AcDbEntity
  8
0
100
AcDbSpline
 62
7
  6
CONTINUOUS
 70
0
 71
3
 72
63
 73
59
 74
0
 42
0.0000001
 43
0.0000001
 44
0.0000000001
 40
0.0
 40
0.0
 40
0.0
 40
0.0
 40
0.000254191
 40
0.000350766
 40
0.0004629182
 40
0.0007361972
 40
0.00107713
 40
0.0014871617
 40
0.0019670922
 40
0.0025173986
 40
0.0038301623
 40
0.0054264966
 40
0.0073062185
 40
0.0094687628
 40
0.0146389988
 40
0.020927183
 40
0.0283195224
 40
0.0367999914
 40
0.0463488588
 40
0.0569449938
 40
0.0685635472
 40
0.0811783313
 40
0.0947600516
 40
0.1092776061
 40
0.1246976456
 40
0.1409844067
 40
0.1760067505
 40
0.2140220409
 40
0.2546798825
 40
0.2976054884
 40
0.3424031832
 40
0.3886599342
 40
0.4359493025
 40
0.4838353181
 40
0.5318764087
 40
0.579629717
 40
0.6266548407
 40
0.6725182869
 40
0.7167971903
 40
0.7590833525
 40
0.7989870136
 40
0.8361403665
 40
0.8702010355
 40
0.9008552789
 40
0.9278208118
 40
0.9398413347
 40
0.9508497882
 40
0.9608205494
 40
0.9697310655
 40
0.9775611225
 40
0.9842929394
 40
0.9899121836
 40
0.9923005822
 40
0.994406756
 40
0.9962299754
 40
0.9977697302
 40
0.9990259737
 40
1.0
 40
1.0
 40
1.0
 40
1.0
 10
5.1590765714
 20
5.2556694303
 30
0.0
 10
5.1590765714
 20
5.2556161157
 30
0.0
 10
5.1590128473
 20
5.2555530411
 30
0.0
 10
5.1589325766
 20
5.2555026813
 30
0.0
 10
5.1588422997
 20
5.2554555235
 30
0.0
 10
5.1587008903
 20
5.2553990998
 30
0.0
 10
5.1584958224
 20
5.2553342391
 30
0.0
 10
5.1582459149
 20
5.2552692967
 30
0.0
 10
5.1579508911
 20
5.2552040689
 30
0.0
 10
5.1574682363
 20
5.2551114137
 30
0.0
 10
5.1567513292
 20
5.2549984144
 30
0.0
 10
5.1557552652
 20
5.2548686727
 30
0.0
 10
5.1545797426
 20
5.254738461
 30
0.0
 10
5.1526563537
 20
5.2545531508
 30
0.0
 10
5.1498082163
 20
5.2543274498
 30
0.0
 10
5.1458628688
 20
5.2540681616
 30
0.0
 10
5.1412220064
 20
5.2538079216
 30
0.0
 10
5.1358963706
 20
5.2535469203
 30
0.0
 10
5.1298980761
 20
5.2532854214
 30
0.0
 10
5.1232410504
 20
5.2530235931
 30
0.0
 10
5.1159405333
 20
5.2527614892
 30
0.0
 10
5.1080134503
 20
5.2524992083
 30
0.0
 10
5.0994780224
 20
5.2522367706
 30
0.0
 10
5.0903539589
 20
5.2519742199
 30
0.0
 10
5.0806623168
 20
5.2517115725
 30
0.0
 10
5.0666710038
 20
5.2513525236
 30
0.0
 10
5.0479411876
 20
5.2509072237
 30
0.0
 10
5.0241001774
 20
5.2503842877
 30
0.0
 10
4.9986011587
 20
5.2498609052
 30
0.0
 10
4.9716793096
 20
5.2493371729
 30
0.0
 10
4.9435829263
 20
5.2488131988
 30
0.0
 10
4.9145711281
 20
5.2482890535
 30
0.0
 10
4.8849114781
 20
5.247764797
 30
0.0
 10
4.8548775204
 20
5.2472404793
 30
0.0
 10
4.8247462406
 20
5.2467161461
 30
0.0
 10
4.7947955529
 20
5.2461918421
 30
0.0
 10
4.7653016784
 20
5.2456676134
 30
0.0
 10
4.736536648
 20
5.2451435126
 30
0.0
 10
4.7087657437
 20
5.2446196028
 30
0.0
 10
4.6822450834
 20
5.2440959624
 30
0.0
 10
4.6572192492
 20
5.2435727016
 30
0.0
 10
4.6339190375
 20
5.2430499567
 30
0.0
 10
4.6125593234
 20
5.2425279888
 30
0.0
 10
4.5933371017
 20
5.2420070034
 30
0.0
 10
4.5787374175
 20
5.2415588285
 30
0.0
 10
4.5682577552
 20
5.2411951561
 30
0.0
 10
4.5613412638
 20
5.2409331963
 30
0.0
 10
4.5550775688
 20
5.2406715565
 30
0.0
 10
4.5494811429
 20
5.2404103258
 30
0.0
 10
4.544564845
 20
5.2401497663
 30
0.0
 10
4.5403399414
 20
5.2398899801
 30
0.0
 10
4.5372565629
 20
5.2396643902
 30
0.0
 10
4.5351432736
 20
5.2394798907
 30
0.0
 10
4.5338245674
 20
5.2393493795
 30
0.0
 10
4.5326848171
 20
5.2392192414
 30
0.0
 10
4.5317245416
 20
5.2390897351
 30
0.0
 10
4.5309442806
 20
5.2389610078
 30
0.0
 10
4.530486168
 20
5.2388644532
 30
0.0
 10
4.5302884107
 20
5.2388131868
 30
0.0
  0
SPLINE
  5
3BB
100
AcDbEntity
  8
0
100
AcDbSpline
 62
7
  6
CONTINUOUS
 70
0
 71
3
 72
30
 73
26
 74
0
 42
0.0000001
 43
0.0000001
 44
0.0000000001
 40
0.0
 40
0.0
 40
0.0
 40
0.0
 40
0.1821232363
 40
0.2722980108
 40
0.3606691955
 40
0.4463467143
 40
0.5284684628
 40
0.6062079699
 40
0.6787829979
 40
0.7454633717
 40
0.8055785082
 40
0.8585240963
 40
0.8821394429
 40
0.9037686021
 40
0.9233583812
 40
0.9408588548
 40
0.9562276169
 40
0.9694258673
 40
0.9804228546
 40
0.9850874303
 40
0.989192635
 40
0.9927369635
 40
0.9957193498
 40
0.9981395884
 40
1.0
 40
1.0
 40
1.0
 40
1.0
 10
4.8765607649
 20
5.2820694303
 30
0.0
 10
4.855532486
 20
5.2817011853
 30
0.0
 10
4.8240923653
 20
5.2811562783
 30
0.0
 10
4.7824489026
 20
5.2804237973
 30
0.0
 10
4.751941414
 20
5.2798763485
 30
0.0
 10
4.7223640349
 20
5.2793290837
 30
0.0
 10
4.6940146089
 20
5.2787820904
 30
0.0
 10
4.6671785389
 20
5.2782354862
 30
0.0
 10
4.6421260121
 20
5.2776894185
 30
0.0
 10
4.6191092371
 20
5.2771441624
 30
0.0
 10
4.5983599331
 20
5.2765999447
 30
0.0
 10
4.5825835353
 20
5.2761318609
 30
0.0
 10
4.5712509415
 20
5.2757519997
 30
0.0
 10
4.5637689002
 20
5.275478298
 30
0.0
 10
4.5569935016
 20
5.2752049695
 30
0.0
 10
4.5509416842
 20
5.27493205
 30
0.0
 10
4.5456287515
 20
5.274659872
 30
0.0
 10
4.5410679327
 20
5.2743885142
 30
0.0
 10
4.5377434228
 20
5.2741527961
 30
0.0
 10
4.5354688936
 20
5.2739599233
 30
0.0
 10
4.5340533716
 20
5.273823599
 30
0.0
 10
4.5328331026
 20
5.2736876858
 30
0.0
 10
4.5318086592
 20
5.2735524846
 30
0.0
 10
4.5309806808
 20
5.2734181563
 30
0.0
 10
4.5304963367
 20
5.2733171002
 30
0.0
 10
4.5302883719
 20
5.2732631868
 30
0.0
  0
SPLINE
  5
3BC
100
AcDbEntity
  8
0
100
AcDbSpline
 62
7
  6
CONTINUOUS
 70
0
 71
3
 72
39
 73
35
 74
0
 42
0.0000001
 43
0.0000001
 44
0.0000000001
 40
0.0
 40
0.0
 40
0.0
 40
0.0
 40
0.0002340713
 40
0.0003780974
 40
0.0005477747
 40
0.0009761593
 40
0.0015347912
 40
0.0022300025
 40
0.0030649776
 40
0.0040414951
 40
0.0051606246
 40
0.0078290617
 40
0.0110729169
 40
0.0148921736
 40
0.0192859621
 40
0.0297914139
 40
0.0425715924
 40
0.0576010323
 40
0.0748504559
 40
0.0942832217
 40
0.1158602193
 40
0.1395354911
 40
0.1652601273
 40
0.192980062
 40
0.2226369228
 40
0.2875094194
 40
0.3593328275
 40
0.4375034158
 40
0.5213641238
 40
0.6102093251
 40
0.703293012
 40
0.7998291508
 40
0.8990129862
 40
1.0
 40
1.0
 40
1.0
 40
1.0
 10
5.1590765714
 20
5.2901194303
 30
0.0
 10
5.1590765714
 20
5.2900973657
 30
0.0
 10
5.1590627502
 20
5.2900617425
 30
0.0
 10
5.1590290888
 20
5.2900226245
 30
0.0
 10
5.1589755173
 20
5.2899771468
 30
0.0
 10
5.1588803034
 20
5.2899227331
 30
0.0
 10
5.1587340197
 20
5.2898611701
 30
0.0
 10
5.1585468926
 20
5.2897993592
 30
0.0
 10
5.1583188425
 20
5.2897372558
 30
0.0
 10
5.158049647
 20
5.2896749667
 30
0.0
 10
5.1576093247
 20
5.2895864688
 30
0.0
 10
5.156955185
 20
5.2894785366
 30
0.0
 10
5.1560461961
 20
5.2893546037
 30
0.0
 10
5.1549733457
 20
5.2892302278
 30
0.0
 10
5.1532177162
 20
5.2890532209
 30
0.0
 10
5.1506172831
 20
5.2888376208
 30
0.0
 10
5.1470139837
 20
5.2885899557
 30
0.0
 10
5.1427737483
 20
5.2883413766
 30
0.0
 10
5.1379055393
 20
5.2880920749
 30
0.0
 10
5.1324194405
 20
5.2878422979
 30
0.0
 10
5.1263270697
 20
5.2875922043
 30
0.0
 10
5.1196411589
 20
5.2873418518
 30
0.0
 10
5.1123758245
 20
5.2870913257
 30
0.0
 10
5.104546336
 20
5.2868406475
 30
0.0
 10
5.093027751
 20
5.2864958627
 30
0.0
 10
5.077352413
 20
5.2860691095
 30
0.0
 10
5.0571043164
 20
5.2855701702
 30
0.0
 10
5.0350658283
 20
5.2850706312
 30
0.0
 10
5.0114224242
 20
5.2845706179
 30
0.0
 10
4.9863729604
 20
5.2840702719
 30
0.0
 10
4.9601284356
 20
5.2835696851
 30
0.0
 10
4.9329091809
 20
5.2830689147
 30
0.0
 10
4.9049448051
 20
5.2825680279
 30
0.0
 10
4.8860787703
 20
5.2822361086
 30
0.0
 10
4.8765607649
 20
5.2820694303
 30
0.0
  0
SPLINE
  5
3BD
100
AcDbEntity
  8
0
100
AcDbSpline
 62
7
  6
CONTINUOUS
 70
0
 71
3
 72
41
 73
37
 74
0
 42
0.0000001
 43
0.0000001
 44
0.0000000001
 40
0.0
 40
0.0
 40
0.0
 40
0.0
 40
0.0946454945
 40
0.1892712022
 40
0.2828434208
 40
0.3743397479
 40
0.4627607718
 40
0.5471404341
 40
0.6265571656
 40
0.7001435249
 40
0.7344962918
 40
0.7670960523
 40
0.7978529816
 40
0.8266839836
 40
0.8535095016
 40
0.8782573599
 40
0.9008592305
 40
0.9212546668
 40
0.9393873689
 40
0.9552095305
 40
0.9686779285
 40
0.9745187103
 40
0.9797586763
 40
0.9843943619
 40
0.9884236141
 40
0.991844911
 40
0.9933273057
 40
0.9946574868
 40
0.9958356124
 40
0.9968621735
 40
0.9977380245
 40
0.9984646191
 40
0.9990446197
 40
0.9992812996
 40
0.9994838563
 40
1.0
 40
1.0
 40
1.0
 40
1.0
 10
4.8765607649
 20
5.305845166
 30
0.0
 10
4.8656067528
 20
5.3056533405
 30
0.0
 10
4.8437009827
 20
5.3052717886
 30
0.0
 10
4.8109654029
 20
5.3047014834
 30
0.0
 10
4.7785944094
 20
5.3041312489
 30
0.0
 10
4.7469417496
 20
5.3035611594
 30
0.0
 10
4.7163533473
 20
5.3029913008
 30
0.0
 10
4.6871634636
 20
5.3024217957
 30
0.0
 10
4.659691102
 20
5.3018527566
 30
0.0
 10
4.6380091067
 20
5.3013687461
 30
0.0
 10
4.6217457036
 20
5.3009784374
 30
0.0
 10
4.6104389532
 20
5.3006925431
 30
0.0
 10
4.5997715879
 20
5.3004067436
 30
0.0
 10
4.5897728705
 20
5.3001210832
 30
0.0
 10
4.5804700317
 20
5.2998355684
 30
0.0
 10
4.5718886039
 20
5.2995502798
 30
0.0
 10
4.5640519264
 20
5.2992652506
 30
0.0
 10
4.5569815266
 20
5.2989806151
 30
0.0
 10
4.5506965883
 20
5.2986965207
 30
0.0
 10
4.5452143848
 20
5.2984131514
 30
0.0
 10
4.5411550693
 20
5.298167846
 30
0.0
 10
4.5383203849
 20
5.2979681323
 30
0.0
 10
4.5365066867
 20
5.2978257411
 30
0.0
 10
4.5349033723
 20
5.2976836313
 30
0.0
 10
4.5335114893
 20
5.2975418527
 30
0.0
 10
4.5324846768
 20
5.2974190762
 30
0.0
 10
4.5317700035
 20
5.2973191532
 30
0.0
 10
4.5313135591
 20
5.2972479168
 30
0.0
 10
4.5309105797
 20
5.2971768046
 30
0.0
 10
4.5305610558
 20
5.2971058193
 30
0.0
 10
4.5302650371
 20
5.2970351562
 30
0.0
 10
4.5300221309
 20
5.2969645822
 30
0.0
 10
4.5298546207
 20
5.2969032248
 30
0.0
 10
4.5297473237
 20
5.2968517789
 30
0.0
 10
4.5296542853
 20
5.296798053
 30
0.0
 10
4.5295765714
 20
5.2967299122
 30
0.0
 10
4.5295765714
 20
5.296670166
 30
0.0
  0
SPLINE
  5
3BE
100
AcDbEntity
  8
0
100
AcDbSpline
 62
7
  6
CONTINUOUS
 70
0
 71
3
 72
39
 73
35
 74
0
 42
0.0000001
 43
0.0000001
 44
0.0000000001
 40
0.0
 40
0.0
 40
0.0
 40
0.0
 40
0.0220348889
 40
0.0469566226
 40
0.0745995348
 40
0.1047881142
 40
0.1720039628
 40
0.2468674097
 40
0.327444748
 40
0.4116538574
 40
0.4973190083
 40
0.5822266147
 40
0.6641827122
 40
0.7033876895
 40
0.7410697649
 40
0.7769851498
 40
0.810901397
 40
0.8425992474
 40
0.8718738733
 40
0.8985360241
 40
0.9224132664
 40
0.9433516981
 40
0.9526761708
 40
0.9612167076
 40
0.9689600342
 40
0.9758938141
 40
0.9820068056
 40
0.9872900906
 40
0.9917354134
 40
0.9953369173
 40
0.9968202146
 40
0.9980915556
 40
0.9991511224
 40
1.0
 40
1.0
 40
1.0
 40
1.0
 10
5.1206642643
 20
5.3218322981
 30
0.0
 10
5.1163291806
 20
5.3216745567
 30
0.0
 10
5.1070901188
 20
5.3213642857
 30
0.0
 10
5.0924103817
 20
5.3209271863
 30
0.0
 10
5.0761248303
 20
5.3204893362
 30
0.0
 10
5.0515145331
 20
5.3198829027
 30
0.0
 10
5.017608712
 20
5.3191384557
 30
0.0
 10
4.9737834426
 20
5.318270551
 30
0.0
 10
4.9266121812
 20
5.3174009149
 30
0.0
 10
4.877314098
 20
5.316530173
 30
0.0
 10
4.8271634026
 20
5.3156590776
 30
0.0
 10
4.7774563166
 20
5.3147881368
 30
0.0
 10
4.7368947592
 20
5.3140526376
 30
0.0
 10
4.7056293666
 20
5.3134578054
 30
0.0
 10
4.6834265813
 20
5.3130184182
 30
0.0
 10
4.6622651834
 20
5.312579224
 30
0.0
 10
4.6422821462
 20
5.3121402674
 30
0.0
 10
4.6236067851
 20
5.3117016368
 30
0.0
 10
4.6063599313
 20
5.3112634375
 30
0.0
 10
4.5906532201
 20
5.3108258735
 30
0.0
 10
4.5765883156
 20
5.3103891015
 30
0.0
 10
4.5659364599
 20
5.3100131779
 30
0.0
 10
4.5583033953
 20
5.3097083614
 30
0.0
 10
4.553266715
 20
5.3094888442
 30
0.0
 10
4.5487011608
 20
5.309269579
 30
0.0
 10
4.5446140987
 20
5.3090506511
 30
0.0
 10
4.5410120946
 20
5.3088321376
 30
0.0
 10
4.5379009369
 20
5.3086144158
 30
0.0
 10
4.5352855788
 20
5.3083975788
 30
0.0
 10
4.5334187413
 20
5.3082084218
 30
0.0
 10
4.5321771132
 20
5.3080525481
 30
0.0
 10
4.5314340632
 20
5.3079437099
 30
0.0
 10
4.5308174361
 20
5.3078353891
 30
0.0
 10
4.5304501519
 20
5.3077551241
 30
0.0
 10
4.5302883831
 20
5.3077131868
 30
0.0
  0
SPLINE
  5
3BF
100
AcDbEntity
  8
0
100
AcDbSpline
 62
7
  6
CONTINUOUS
 70
0
 71
3
 72
37
 73
33
 74
0
 42
0.0000001
 43
0.0000001
 44
0.0000000001
 40
0.0
 40
0.0
 40
0.0
 40
0.0
 40
0.0002963403
 40
0.000647559
 40
0.0010884297
 40
0.001636892
 40
0.0023022057
 40
0.0030894905
 40
0.0050406336
 40
0.0075044596
 40
0.0104871184
 40
0.013991799
 40
0.0180198014
 40
0.02257129
 40
0.0276459614
 40
0.0393621919
 40
0.0531617687
 40
0.06903252
 40
0.0869586023
 40
0.1069235521
 40
0.1289078385
 40
0.1528881286
 40
0.2067398765
 40
0.2682586685
 40
0.337193821
 40
0.413260069
 40
0.4961454569
 40
0.5855099855
 40
0.6809801797
 40
0.7821657111
 40
0.8886653088
 40
1.0
 40
1.0
 40
1.0
 40
1.0
 10
5.1590765714
 20
4.5322194303
 30
0.0
 10
5.1590765714
 20
4.5322043701
 30
0.0
 10
5.1590681147
 20
4.5321712691
 30
0.0
 10
5.15903447
 20
4.532126329
 30
0.0
 10
5.1589817706
 20
4.5320825863
 30
0.0
 10
5.1589095422
 20
4.5320391208
 30
0.0
 10
5.1588175041
 20
4.5319956043
 30
0.0
 10
5.1586561681
 20
4.5319329243
 30
0.0
 10
5.1584025092
 20
4.5318572014
 30
0.0
 10
5.1580365368
 20
4.5317707747
 30
0.0
 10
5.1575898912
 20
4.5316839565
 30
0.0
 10
5.1570626049
 20
4.5315967974
 30
0.0
 10
5.1564546863
 20
4.5315094449
 30
0.0
 10
5.1557662893
 20
4.5314219317
 30
0.0
 10
5.1546886021
 20
4.5312991496
 30
0.0
 10
5.1531412147
 20
4.5311483056
 30
0.0
 10
5.1510451028
 20
4.530974126
 30
0.0
 10
5.1486324929
 20
4.5307995247
 30
0.0
 10
5.145905867
 20
4.5306245652
 30
0.0
 10
5.1428679912
 20
4.5304493903
 30
0.0
 10
5.1395219861
 20
4.5302740415
 30
0.0
 10
5.1344550865
 20
4.5300305429
 30
0.0
 10
5.1273795067
 20
4.5297300581
 30
0.0
 10
5.1180194441
 20
4.5293809894
 30
0.0
 10
5.1075297491
 20
4.5290313386
 30
0.0
 10
5.0959536657
 20
4.5286811928
 30
0.0
 10
5.0833389244
 20
4.5283307147
 30
0.0
 10
5.0697377178
 20
4.5279799885
 30
0.0
 10
5.0552062027
 20
4.5276290611
 30
0.0
 10
5.0398036371
 20
4.5272779725
 30
0.0
 10
5.0235946313
 20
4.5269267798
 30
0.0
 10
5.0125265181
 20
4.5266973731
 30
0.0
 10
5.0068695827
 20
4.5265822981
 30
0.0
  0
SPLINE
  5
3C0
100
AcDbEntity
  8
0
100
AcDbSpline
 62
7
  6
CONTINUOUS
 70
0
 71
3
 72
22
 73
18
 74
0
 42
0.0000001
 43
0.0000001
 44
0.0000000001
 40
0.0
 40
0.0
 40
0.0
 40
0.0
 40
0.0066200759
 40
0.0149023231
 40
0.0248529476
 40
0.0364717091
 40
0.0647018804
 40
0.0995602463
 40
0.1409873131
 40
0.1889088342
 40
0.2432402919
 40
0.3038770242
 40
0.3707094072
 40
0.4436101999
 40
0.6070580045
 40
0.7929889254
 40
1.0
 40
1.0
 40
1.0
 40
1.0
 10
5.1582556439
 20
4.8656491357
 30
0.0
 10
5.1580674712
 20
4.8656037059
 30
0.0
 10
5.157640194
 20
4.865516873
 30
0.0
 10
5.1569228829
 20
4.8653997935
 30
0.0
 10
5.1560578622
 20
4.8652821361
 30
0.0
 10
5.1546113948
 20
4.8651135684
 30
0.0
 10
5.1524362283
 20
4.8649090577
 30
0.0
 10
5.1493890024
 20
4.8646746357
 30
0.0
 10
5.1457646055
 20
4.8644392246
 30
0.0
 10
5.1415698395
 20
4.8642029694
 30
0.0
 10
5.1368126039
 20
4.8639662616
 30
0.0
 10
5.1315018054
 20
4.8637291725
 30
0.0
 10
5.1256475407
 20
4.8634918325
 30
0.0
 10
5.1167882685
 20
4.8631624197
 30
0.0
 10
5.1044469313
 20
4.8627562129
 30
0.0
 10
5.0881842444
 20
4.8622840276
 30
0.0
 10
5.0766980446
 20
4.8619839835
 30
0.0
 10
5.0706466892
 20
4.8618323019
 30
0.0
  0
SPLINE
  5
3C1
100
AcDbEntity
  8
0
100
AcDbSpline
 62
7
  6
CONTINUOUS
 70
0
 71
3
 72
63
 73
59
 74
0
 42
0.0000001
 43
0.0000001
 44
0.0000000001
 40
0.0
 40
0.0
 40
0.0
 40
0.0
 40
0.0010305488
 40
0.0023428763
 40
0.0039379092
 40
0.0058154627
 40
0.0079749741
 40
0.0104156864
 40
0.0161361879
 40
0.0229645197
 40
0.0308862536
 40
0.0398832882
 40
0.0499354205
 40
0.0610198261
 40
0.0731109087
 40
0.1002008843
 40
0.1309571577
 40
0.1650974078
 40
0.2023081681
 40
0.2422476303
 40
0.284548844
 40
0.3288231691
 40
0.3746637636
 40
0.4216493439
 40
0.4693481802
 40
0.5173217944
 40
0.5651293801
 40
0.6123315063
 40
0.6584944184
 40
0.7031939143
 40
0.7460192019
 40
0.7865768078
 40
0.8244940777
 40
0.8594226492
 40
0.8756647097
 40
0.8910418262
 40
0.9055184197
 40
0.9190613758
 40
0.9316397528
 40
0.9432244591
 40
0.9537894533
 40
0.9633100455
 40
0.9717652419
 40
0.979135424
 40
0.9854046854
 40
0.9905593093
 40
0.9927153186
 40
0.9945893618
 40
0.996180879
 40
0.9974896931
 40
0.9980383526
 40
0.9985168556
 40
0.9989256789
 40
0.9992656229
 40
0.9995381323
 40
0.9996499814
 40
0.9997463072
 40
1.0
 40
1.0
 40
1.0
 40
1.0
 10
5.1582556439
 20
4.9000991357
 30
0.0
 10
5.1580455686
 20
4.9000484181
 30
0.0
 10
5.1575634176
 20
4.899952298
 30
0.0
 10
5.1567476389
 20
4.8998235624
 30
0.0
 10
5.1557524975
 20
4.8996941102
 30
0.0
 10
5.1545785552
 20
4.8995640931
 30
0.0
 10
5.153226367
 20
4.8994337302
 30
0.0
 10
5.1510698666
 20
4.8992497235
 30
0.0
 10
5.14793444
 20
4.8990245334
 30
0.0
 10
5.1436494654
 20
4.898765052
 30
0.0
 10
5.1386763445
 20
4.8985048373
 30
0.0
 10
5.1330264133
 20
4.8982439736
 30
0.0
 10
5.1267126447
 20
4.8979827223
 30
0.0
 10
5.1197495541
 20
4.8977211565
 30
0.0
 10
5.1092148869
 20
4.8973582059
 30
0.0
 10
5.0945554723
 20
4.8969108137
 30
0.0
 10
5.0752724618
 20
4.896390602
 30
0.0
 10
5.0538664082
 20
4.8958694277
 30
0.0
 10
5.0305340986
 20
4.8953474927
 30
0.0
 10
5.005490012
 20
4.8948250512
 30
0.0
 10
4.9789643686
 20
4.894302237
 30
0.0
 10
4.9512010072
 20
4.8937791581
 30
0.0
 10
4.9224551483
 20
4.8932558918
 30
0.0
 10
4.8929910402
 20
4.8927325001
 30
0.0
 10
4.86307956
 20
4.8922090349
 30
0.0
 10
4.8329956759
 20
4.891685542
 30
0.0
 10
4.8030159696
 20
4.8911620657
 30
0.0
 10
4.7734160333
 20
4.8906386513
 30
0.0
 10
4.7444679795
 20
4.8901153486
 30
0.0
 10
4.7164379198
 20
4.8895922174
 30
0.0
 10
4.6895835267
 20
4.8890693279
 30
0.0
 10
4.6641516729
 20
4.8885467881
 30
0.0
 10
4.6403761592
 20
4.8880246943
 30
0.0
 10
4.6216992813
 20
4.8875801033
 30
0.0
 10
4.6077485065
 20
4.8872216259
 30
0.0
 10
4.59808556
 20
4.8869594034
 30
0.0
 10
4.5889888459
 20
4.8866972766
 30
0.0
 10
4.580479296
 20
4.8864352636
 30
0.0
 10
4.5725764907
 20
4.8861734062
 30
0.0
 10
4.5652985407
 20
4.8859117262
 30
0.0
 10
4.5586622621
 20
4.885650321
 30
0.0
 10
4.5526827991
 20
4.8853892447
 30
0.0
 10
4.547373991
 20
4.8851286656
 30
0.0
 10
4.5427478729
 20
4.8848688456
 30
0.0
 10
4.5388151199
 20
4.8846099769
 30
0.0
 10
4.535976105
 20
4.8843846399
 30
0.0
 10
4.5340588963
 20
4.8841996292
 30
0.0
 10
4.5328871563
 20
4.8840696279
 30
0.0
 10
4.5318943007
 20
4.8839400958
 30
0.0
 10
4.5311797069
 20
4.8838272788
 30
0.0
 10
4.5306986125
 20
4.8837347737
 30
0.0
 10
4.5304045406
 20
4.8836696513
 30
0.0
 10
4.5301554387
 20
4.8836048133
 30
0.0
 10
4.5299510318
 20
4.8835400568
 30
0.0
 10
4.5298100787
 20
4.8834837232
 30
0.0
 10
4.5297200987
 20
4.8834366437
 30
0.0
 10
4.5296400539
 20
4.8833863454
 30
0.0
 10
4.5295765714
 20
4.8833233665
 30
0.0
 10
4.5295765714
 20
4.883270166
 30
0.0
  0
SPLINE
  5
3C2
100
AcDbEntity
  8
0
100
AcDbSpline
 62
7
  6
CONTINUOUS
 70
0
 71
3
 72
63
 73
59
 74
0
 42
0.0000001
 43
0.0000001
 44
0.0000000001
 40
0.0
 40
0.0
 40
0.0
 40
0.0
 40
0.0010295222
 40
0.0023401751
 40
0.0039331655
 40
0.0058084298
 40
0.0079654634
 40
0.0104035395
 40
0.0161185865
 40
0.0229413669
 40
0.0308574211
 40
0.0398489933
 40
0.0498955751
 40
0.0609747762
 40
0.0730606961
 40
0.1001411644
 40
0.1308888571
 40
0.1650215327
 40
0.2022258087
 40
0.2421599224
 40
0.2844569345
 40
0.3287282558
 40
0.3745668734
 40
0.421551553
 40
0.4692503211
 40
0.5172247884
 40
0.5650340102
 40
0.6122384812
 40
0.6584043715
 40
0.7031072494
 40
0.7459362816
 40
0.7864978961
 40
0.8244193834
 40
0.8593523968
 40
0.8909761219
 40
0.9054548792
 40
0.9190002526
 40
0.9315806419
 40
0.9431678696
 40
0.9537348662
 40
0.9632579636
 40
0.9717154307
 40
0.9790881194
 40
0.9853601605
 40
0.9905175873
 40
0.9926754119
 40
0.9945514092
 40
0.9961449408
 40
0.9974561584
 40
0.9980063144
 40
0.998486544
 40
0.9988973741
 40
0.9992396938
 40
0.9995151082
 40
0.9997268181
 40
0.9998109648
 40
0.9998826555
 40
1.0
 40
1.0
 40
1.0
 40
1.0
 10
5.1379660656
 20
4.8948381377
 30
0.0
 10
5.1377705715
 20
4.8947874427
 30
0.0
 10
5.1373213199
 20
4.8946913218
 30
0.0
 10
5.1365604898
 20
4.8945625762
 30
0.0
 10
5.1356318841
 20
4.8944331092
 30
0.0
 10
5.1345360198
 20
4.8943030746
 30
0.0
 10
5.133273408
 20
4.8941726911
 30
0.0
 10
5.1312592335
 20
4.8939886447
 30
0.0
 10
5.1283299392
 20
4.8937634248
 30
0.0
 10
5.1243258716
 20
4.8935039246
 30
0.0
 10
5.1196779366
 20
4.8932436778
 30
0.0
 10
5.1143967732
 20
4.8929827936
 30
0.0
 10
5.1084944463
 20
4.8927215052
 30
0.0
 10
5.101984584
 20
4.8924599181
 30
0.0
 10
5.092134637
 20
4.8920969135
 30
0.0
 10
5.0784269167
 20
4.8916494709
 30
0.0
 10
5.0603945427
 20
4.8911292027
 30
0.0
 10
5.0403754792
 20
4.8906079722
 30
0.0
 10
5.0185537932
 20
4.89008598
 30
0.0
 10
4.9951301072
 20
4.8895634807
 30
0.0
 10
4.9703197724
 20
4.8890406086
 30
0.0
 10
4.9443509194
 20
4.8885174717
 30
0.0
 10
4.9174623169
 20
4.8879941472
 30
0.0
 10
4.8899012351
 20
4.8874706971
 30
0.0
 10
4.8619210935
 20
4.886947173
 30
0.0
 10
4.833779175
 20
4.8864236213
 30
0.0
 10
4.8057342385
 20
4.8859000862
 30
0.0
 10
4.7780441496
 20
4.8853766129
 30
0.0
 10
4.750963537
 20
4.8848532518
 30
0.0
 10
4.7247414102
 20
4.8843300608
 30
0.0
 10
4.6996188892
 20
4.8838071151
 30
0.0
 10
4.6758269602
 20
4.8832845059
 30
0.0
 10
4.6535843674
 20
4.882762386
 30
0.0
 10
4.6330956149
 20
4.8822408859
 30
0.0
 10
4.6172051997
 20
4.8817950329
 30
0.0
 10
4.6055096881
 20
4.8814347973
 30
0.0
 10
4.5975486506
 20
4.8811727575
 30
0.0
 10
4.5901551649
 20
4.8809108558
 30
0.0
 10
4.5833463304
 20
4.8806491648
 30
0.0
 10
4.5771377127
 20
4.8803877098
 30
0.0
 10
4.5715436352
 20
4.8801266172
 30
0.0
 10
4.5665769174
 20
4.8798659981
 30
0.0
 10
4.5622488862
 20
4.8796061445
 30
0.0
 10
4.5585695216
 20
4.8793472608
 30
0.0
 10
4.5559134774
 20
4.8791218617
 30
0.0
 10
4.5541199106
 20
4.8789368415
 30
0.0
 10
4.5530236184
 20
4.8788068242
 30
0.0
 10
4.5520947112
 20
4.8786772611
 30
0.0
 10
4.5514262375
 20
4.8785644345
 30
0.0
 10
4.5509762464
 20
4.8784719469
 30
0.0
 10
4.5507010642
 20
4.8784068366
 30
0.0
 10
4.5504679163
 20
4.878341917
 30
0.0
 10
4.5502765843
 20
4.8782772883
 30
0.0
 10
4.550126992
 20
4.8782129089
 30
0.0
 10
4.550029687
 20
4.8781559853
 30
0.0
 10
4.5499750161
 20
4.8781084793
 30
0.0
 10
4.5499405708
 20
4.8780674398
 30
0.0
 10
4.5499266012
 20
4.8780303174
 30
0.0
 10
4.5499266146
 20
4.8780072981
 30
0.0
  0
SPLINE
  5
3C3
100
AcDbEntity
  8
0
100
AcDbSpline
 62
7
  6
CONTINUOUS
 70
0
 71
3
 72
20
 73
16
 74
0
 42
0.0000001
 43
0.0000001
 44
0.0000000001
 40
0.0
 40
0.0
 40
0.0
 40
0.0
 40
0.2280399651
 40
0.4263428567
 40
0.5948217436
 40
0.733428161
 40
0.7915384474
 40
0.8422114898
 40
0.885499221
 40
0.9214886744
 40
0.9503351848
 40
0.9723486727
 40
0.981007232
 40
0.9883032461
 40
1.0
 40
1.0
 40
1.0
 40
1.0
 10
4.5561020403
 20
4.9135822981
 30
0.0
 10
4.5556207994
 20
4.9135383093
 30
0.0
 10
4.5547214836
 20
4.9134514334
 30
0.0
 10
4.5534686039
 20
4.9133124093
 30
0.0
 10
4.5524065543
 20
4.9131738422
 30
0.0
 10
4.5516419313
 20
4.9130531938
 30
0.0
 10
4.5511270507
 20
4.9129542576
 30
0.0
 10
4.5508123418
 20
4.9128846326
 30
0.0
 10
4.5505457827
 20
4.9128152204
 30
0.0
 10
4.5503271136
 20
4.9127461596
 30
0.0
 10
4.5501562465
 20
4.9126773826
 30
0.0
 10
4.550044929
 20
4.9126166226
 30
0.0
 10
4.5499821742
 20
4.9125656705
 30
0.0
 10
4.5499429843
 20
4.9125222033
 30
0.0
 10
4.5499265589
 20
4.9124820851
 30
0.0
 10
4.5499265574
 20
4.9124572981
 30
0.0
  0
SPLINE
  5
3C4
100
AcDbEntity
  8
0
100
AcDbSpline
 62
7
  6
CONTINUOUS
 70
0
 71
3
 72
63
 73
59
 74
0
 42
0.0000001
 43
0.0000001
 44
0.0000000001
 40
0.0
 40
0.0
 40
0.0
 40
0.0
 40
0.0001173503
 40
0.0001890525
 40
0.0002732121
 40
0.0004849357
 40
0.000760347
 40
0.0011026511
 40
0.0015134589
 40
0.001993666
 40
0.0025438055
 40
0.0038550342
 40
0.0054486313
 40
0.0073246264
 40
0.0094824127
 40
0.0146398493
 40
0.0209118962
 40
0.0282845242
 40
0.0367420687
 40
0.046265109
 40
0.0568321721
 40
0.0684193409
 40
0.0809997342
 40
0.0945451259
 40
0.1090238517
 40
0.1406475711
 40
0.1755805938
 40
0.2135021151
 40
0.2540637297
 40
0.2968927547
 40
0.3415956492
 40
0.3877614841
 40
0.434966014
 40
0.4827752054
 40
0.530749689
 40
0.5784484726
 40
0.6254330993
 40
0.6712717844
 40
0.7155430653
 40
0.7578401327
 40
0.7977742279
 40
0.8349784811
 40
0.8691111592
 40
0.899858815
 40
0.9269393116
 40
0.9390252569
 40
0.9501044713
 40
0.9601510065
 40
0.9691426414
 40
0.9770586203
 40
0.983881473
 40
0.989596466
 40
0.9920345337
 40
0.9941916048
 40
0.9960669022
 40
0.9976598713
 40
0.9989704648
 40
1.0
 40
1.0
 40
1.0
 40
1.0
 10
5.1387265488
 20
5.1920322982
 30
0.0
 10
5.1387265606
 20
5.1920092777
 30
0.0
 10
5.1387125824
 20
5.1919721534
 30
0.0
 10
5.1386781245
 20
5.1919311173
 30
0.0
 10
5.1386234419
 20
5.1918836135
 30
0.0
 10
5.1385261327
 20
5.1918266895
 30
0.0
 10
5.1383765417
 20
5.1917623091
 30
0.0
 10
5.1381852186
 20
5.1916976796
 30
0.0
 10
5.137952083
 20
5.1916327597
 30
0.0
 10
5.1376769132
 20
5.1915676492
 30
0.0
 10
5.1372269281
 20
5.1914751602
 30
0.0
 10
5.1365584423
 20
5.1913623336
 30
0.0
 10
5.1356295196
 20
5.1912327764
 30
0.0
 10
5.1345332229
 20
5.191102756
 30
0.0
 10
5.1327396625
 20
5.1909177321
 30
0.0
 10
5.1300836226
 20
5.1906923361
 30
0.0
 10
5.1264042668
 20
5.1904334535
 30
0.0
 10
5.1220762315
 20
5.1901735955
 30
0.0
 10
5.1171095214
 20
5.1899129829
 30
0.0
 10
5.1115154273
 20
5.1896518838
 30
0.0
 10
5.1053068192
 20
5.1893904339
 30
0.0
 10
5.0984979827
 20
5.1891287395
 30
0.0
 10
5.0911045042
 20
5.1888668394
 30
0.0
 10
5.0831434687
 20
5.1886048
 30
0.0
 10
5.0714479611
 20
5.1882445627
 30
0.0
 10
5.0555575517
 20
5.1877987107
 30
0.0
 10
5.0350687921
 20
5.1872772105
 30
0.0
 10
5.0128261912
 20
5.1867550907
 30
0.0
 10
4.9890342574
 20
5.1862324814
 30
0.0
 10
4.963911735
 20
5.1857095357
 30
0.0
 10
4.9376896177
 20
5.1851863447
 30
0.0
 10
4.9106090017
 20
5.1846629834
 30
0.0
 10
4.8829189186
 20
5.1841395103
 30
0.0
 10
4.8548739739
 20
5.1836159751
 30
0.0
 10
4.8267320556
 20
5.1830924234
 30
0.0
 10
4.7987519186
 20
5.1825688993
 30
0.0
 10
4.7711908314
 20
5.182045449
 30
0.0
 10
4.7443022345
 20
5.1815221246
 30
0.0
 10
4.7183333658
 20
5.1809989878
 30
0.0
 10
4.6935230322
 20
5.1804761157
 30
0.0
 10
4.6700993438
 20
5.1799536165
 30
0.0
 10
4.6482776659
 20
5.179431624
 30
0.0
 10
4.628258614
 20
5.1789103937
 30
0.0
 10
4.6102262416
 20
5.1783901251
 30
0.0
 10
4.5965185182
 20
5.1779426826
 30
0.0
 10
4.5866685582
 20
5.177579678
 30
0.0
 10
4.5801586976
 20
5.1773180926
 30
0.0
 10
4.5742563652
 20
5.1770568001
 30
0.0
 10
4.5689752132
 20
5.1767959223
 30
0.0
 10
4.5643272669
 20
5.1765356675
 30
0.0
 10
4.5603232102
 20
5.176276175
 30
0.0
 10
4.5573939143
 20
5.176050951
 30
0.0
 10
4.5553797447
 20
5.1758669036
 30
0.0
 10
4.5541171206
 20
5.1757365217
 30
0.0
 10
4.5530212464
 20
5.175606489
 30
0.0
 10
4.5520926498
 20
5.1754770235
 30
0.0
 10
4.5513318345
 20
5.1753482705
 30
0.0
 10
4.5508825917
 20
5.1752521522
 30
0.0
 10
4.5506870947
 20
5.1752014586
 30
0.0
  0
LINE
  5
3C5
100
AcDbEntity
  8
0
100
AcDbLine
 62
7
  6
CONTINUOUS
 10
4.5561020403
 20
4.9003322981
 11
4.5506869474
 21
4.8996014584
  0
SPLINE
  5
3C6
100
AcDbEntity
  8
0
100
AcDbSpline
 62
7
  6
CONTINUOUS
 70
0
 71
3
 72
63
 73
59
 74
0
 42
0.0000001
 43
0.0000001
 44
0.0000000001
 40
0.0
 40
0.0
 40
0.0
 40
0.0
 40
0.0001173533
 40
0.0001890375
 40
0.0002731611
 40
0.0004847795
 40
0.0007600918
 40
0.0011023634
 40
0.0015132148
 40
0.0019935112
 40
0.0025437537
 40
0.0038550971
 40
0.0054485254
 40
0.0073243361
 40
0.0094822187
 40
0.0146398723
 40
0.0209116177
 40
0.0282845754
 40
0.036741826
 40
0.0462650514
 40
0.0568320456
 40
0.0684191647
 40
0.0809997564
 40
0.0945448891
 40
0.1090238669
 40
0.1406475066
 40
0.1755804523
 40
0.2135018918
 40
0.2540635535
 40
0.2968926349
 40
0.3415955704
 40
0.3877614207
 40
0.4349658723
 40
0.4827750753
 40
0.5307495558
 40
0.5784483488
 40
0.625433004
 40
0.6712715848
 40
0.7155428539
 40
0.7578399021
 40
0.7977740563
 40
0.8349784179
 40
0.8691111098
 40
0.8998587356
 40
0.926939079
 40
0.9390251827
 40
0.9501041414
 40
0.9601510076
 40
0.9691423486
 40
0.9770585423
 40
0.9838812794
 40
0.9895962261
 40
0.9920345153
 40
0.994191545
 40
0.9960666467
 40
0.9976595293
 40
0.9989703155
 40
1.0
 40
1.0
 40
1.0
 40
1.0
 10
5.1387264544
 20
5.2264822982
 30
0.0
 10
5.1387264566
 20
5.2264592771
 30
0.0
 10
5.1387124804
 20
5.2264221613
 30
0.0
 10
5.1386780442
 20
5.2263811199
 30
0.0
 10
5.138623404
 20
5.2263336152
 30
0.0
 10
5.1385261527
 20
5.226276684
 30
0.0
 10
5.1383766129
 20
5.2262123001
 30
0.0
 10
5.1381853067
 20
5.2261476733
 30
0.0
 10
5.1379521495
 20
5.2260827573
 30
0.0
 10
5.1376769316
 20
5.2260176491
 30
0.0
 10
5.1372268838
 20
5.2259251657
 30
0.0
 10
5.1365583873
 20
5.2258123469
 30
0.0
 10
5.1356295141
 20
5.2256827737
 30
0.0
 10
5.1345332689
 20
5.2255527449
 30
0.0
 10
5.1327396814
 20
5.2253677354
 30
0.0
 10
5.1300836384
 20
5.2251423508
 30
0.0
 10
5.1264042365
 20
5.2248834347
 30
0.0
 10
5.1220762509
 20
5.2246236125
 30
0.0
 10
5.1171094989
 20
5.2243629697
 30
0.0
 10
5.1115154383
 20
5.2241018903
 30
0.0
 10
5.1053068172
 20
5.2238404327
 30
0.0
 10
5.0984979647
 20
5.2235787359
 30
0.0
 10
5.0911045071
 20
5.2233168456
 30
0.0
 10
5.083143434
 20
5.2230547924
 30
0.0
 10
5.0714479423
 20
5.2226945703
 30
0.0
 10
5.0555575136
 20
5.2222487082
 30
0.0
 10
5.0350687997
 20
5.2217272105
 30
0.0
 10
5.0128262194
 20
5.2212050897
 30
0.0
 10
4.98903428
 20
5.220682481
 30
0.0
 10
4.9639117279
 20
5.2201595356
 30
0.0
 10
4.937689587
 20
5.2196363448
 30
0.0
 10
4.9106089738
 20
5.2191129834
 30
0.0
 10
4.8829188992
 20
5.21858951
 30
0.0
 10
4.8548739666
 20
5.2180659748
 30
0.0
 10
4.8267320432
 20
5.2175424232
 30
0.0
 10
4.7987518979
 20
5.2170188994
 30
0.0
 10
4.7711908222
 20
5.2164954493
 30
0.0
 10
4.7443022409
 20
5.2159721245
 30
0.0
 10
4.7183333974
 20
5.2154489873
 30
0.0
 10
4.693523057
 20
5.2149261153
 30
0.0
 10
4.6700993382
 20
5.2144036161
 30
0.0
 10
4.6482776235
 20
5.2138816245
 30
0.0
 10
4.6282585524
 20
5.2133603936
 30
0.0
 10
4.6102262121
 20
5.2128401287
 30
0.0
 10
4.5965184932
 20
5.2123926743
 30
0.0
 10
4.5866685813
 20
5.2120296863
 30
0.0
 10
4.5801586752
 20
5.2117680804
 30
0.0
 10
4.5742563842
 20
5.2115068134
 30
0.0
 10
4.5689751837
 20
5.2112459102
 30
0.0
 10
4.5643272745
 20
5.2109856744
 30
0.0
 10
4.5603232072
 20
5.2107261779
 30
0.0
 10
4.557393901
 20
5.2105009357
 30
0.0
 10
4.5553797029
 20
5.2103169116
 30
0.0
 10
4.5541170819
 20
5.2101865274
 30
0.0
 10
4.5530212724
 20
5.2100564869
 30
0.0
 10
4.5520926953
 20
5.2099270087
 30
0.0
 10
4.551331828
 20
5.209798267
 30
0.0
 10
4.5508825136
 20
5.20970216
 30
0.0
 10
4.5506869883
 20
5.2096514586
 30
0.0
  0
SPLINE
  5
3C7
100
AcDbEntity
  8
0
100
AcDbSpline
 62
7
  6
CONTINUOUS
 70
0
 71
3
 72
63
 73
59
 74
0
 42
0.0000001
 43
0.0000001
 44
0.0000000001
 40
0.0
 40
0.0
 40
0.0
 40
0.0
 40
0.0001173815
 40
0.0001890987
 40
0.0002732606
 40
0.0004849484
 40
0.0007602847
 40
0.0011025009
 40
0.0015132367
 40
0.001993417
 40
0.0025436034
 40
0.003855055
 40
0.0054486786
 40
0.0073245083
 40
0.0094821645
 40
0.0146399067
 40
0.0209117185
 40
0.0282844778
 40
0.036742011
 40
0.046264921
 40
0.0568322016
 40
0.0684191123
 40
0.0809997795
 40
0.0945449623
 40
0.1090238054
 40
0.1406474098
 40
0.1755804007
 40
0.2135019817
 40
0.2540636508
 40
0.2968927394
 40
0.3415956089
 40
0.3877614181
 40
0.4349659182
 40
0.4827751095
 40
0.5307496411
 40
0.5784483949
 40
0.6254330199
 40
0.6712716469
 40
0.7155429417
 40
0.7578400806
 40
0.7977742423
 40
0.8349785117
 40
0.8691111215
 40
0.899858686
 40
0.9269391139
 40
0.9390253227
 40
0.9501042972
 40
0.9601509876
 40
0.9691426002
 40
0.9770584936
 40
0.9838815621
 40
0.9895962584
 40
0.9920344658
 40
0.9941916921
 40
0.9960669366
 40
0.997659688
 40
0.9989702915
 40
1.0
 40
1.0
 40
1.0
 40
1.0
 10
5.1387265307
 20
5.2609322981
 30
0.0
 10
5.1387265174
 20
5.2609092715
 30
0.0
 10
5.1387125039
 20
5.2608721561
 30
0.0
 10
5.1386780329
 20
5.2608311202
 30
0.0
 10
5.1386233534
 20
5.260783619
 30
0.0
 10
5.1385260716
 20
5.260726692
 30
0.0
 10
5.1383765239
 20
5.2606623084
 30
0.0
 10
5.1381852501
 20
5.2605976768
 30
0.0
 10
5.1379521527
 20
5.2605327558
 30
0.0
 10
5.1376769935
 20
5.2604676444
 30
0.0
 10
5.1372269595
 20
5.2603751559
 30
0.0
 10
5.136558412
 20
5.2602623465
 30
0.0
 10
5.135629474
 20
5.260132782
 30
0.0
 10
5.1345332314
 20
5.2600027534
 30
0.0
 10
5.1327396703
 20
5.2598177168
 30
0.0
 10
5.130083639
 20
5.2595923573
 30
0.0
 10
5.1264042465
 20
5.2593334396
 30
0.0
 10
5.1220762326
 20
5.2590736014
 30
0.0
 10
5.1171095251
 20
5.2588129839
 30
0.0
 10
5.1115154167
 20
5.2585518773
 30
0.0
 10
5.1053068418
 20
5.2582904426
 30
0.0
 10
5.0984979604
 20
5.2580287302
 30
0.0
 10
5.0911045196
 20
5.2577668473
 30
0.0
 10
5.083143449
 20
5.2575047947
 30
0.0
 10
5.0714479821
 20
5.2571445678
 30
0.0
 10
5.0555575794
 20
5.2566987082
 30
0.0
 10
5.0350688378
 20
5.2561772104
 30
0.0
 10
5.0128262217
 20
5.2556550905
 30
0.0
 10
4.989034254
 20
5.2551324817
 30
0.0
 10
4.9639117144
 20
5.2546095361
 30
0.0
 10
4.9376895957
 20
5.2540863449
 30
0.0
 10
4.9106089966
 20
5.2535629834
 30
0.0
 10
4.8829189256
 20
5.2530395101
 30
0.0
 10
4.8548739786
 20
5.2525159751
 30
0.0
 10
4.826732058
 20
5.2519924237
 30
0.0
 10
4.798751919
 20
5.2514688996
 30
0.0
 10
4.7711908505
 20
5.2509454492
 30
0.0
 10
4.7443022637
 20
5.2504221245
 30
0.0
 10
4.7183333909
 20
5.2498989874
 30
0.0
 10
4.6935230285
 20
5.2493761158
 30
0.0
 10
4.6700993109
 20
5.248853617
 30
0.0
 10
4.6482776311
 20
5.248331625
 30
0.0
 10
4.6282586082
 20
5.2478103933
 30
0.0
 10
4.6102262812
 20
5.2472901282
 30
0.0
 10
4.5965185386
 20
5.2468426735
 30
0.0
 10
4.5866685872
 20
5.2464796864
 30
0.0
 10
4.5801586924
 20
5.2462180859
 30
0.0
 10
4.5742563808
 20
5.2459568031
 30
0.0
 10
4.5689752196
 20
5.245695926
 30
0.0
 10
4.5643272534
 20
5.2454356567
 30
0.0
 10
4.5603232274
 20
5.2451761935
 30
0.0
 10
4.5573939226
 20
5.2449509375
 30
0.0
 10
4.5553797524
 20
5.2447669026
 30
0.0
 10
4.5541170799
 20
5.2446365281
 30
0.0
 10
4.5530212278
 20
5.244506499
 30
0.0
 10
4.5520926856
 20
5.2443770139
 30
0.0
 10
4.5513318778
 20
5.2442482591
 30
0.0
 10
4.5508825966
 20
5.2441521507
 30
0.0
 10
4.550687064
 20
5.2441014587
 30
0.0
  0
SPLINE
  5
3C8
100
AcDbEntity
  8
0
100
AcDbSpline
 62
7
  6
CONTINUOUS
 70
0
 71
3
 72
63
 73
59
 74
0
 42
0.0000001
 43
0.0000001
 44
0.0000000001
 40
0.0
 40
0.0
 40
0.0
 40
0.0
 40
0.0010305488
 40
0.0023428763
 40
0.0039379092
 40
0.0058154627
 40
0.0079749741
 40
0.0104156864
 40
0.0161361879
 40
0.0229645197
 40
0.0308862536
 40
0.0398832882
 40
0.0499354205
 40
0.0610198261
 40
0.0731109087
 40
0.1002008843
 40
0.1309571577
 40
0.1650974078
 40
0.2023081681
 40
0.2422476303
 40
0.284548844
 40
0.3288231691
 40
0.3746637636
 40
0.4216493439
 40
0.4693481802
 40
0.5173217944
 40
0.5651293801
 40
0.6123315063
 40
0.6584944184
 40
0.7031939143
 40
0.7460192019
 40
0.7865768078
 40
0.8244940777
 40
0.8594226492
 40
0.8756647097
 40
0.8910418262
 40
0.9055184197
 40
0.9190613758
 40
0.9316397528
 40
0.9432244591
 40
0.9537894533
 40
0.9633100455
 40
0.9717652419
 40
0.979135424
 40
0.9854046854
 40
0.9905593093
 40
0.9927153186
 40
0.9945893618
 40
0.996180879
 40
0.9974896931
 40
0.9980383526
 40
0.9985168556
 40
0.9989256789
 40
0.9992656229
 40
0.9995381323
 40
0.9996499814
 40
0.9997463072
 40
1.0
 40
1.0
 40
1.0
 40
1.0
 10
5.1582556439
 20
5.2101491357
 30
0.0
 10
5.1580455686
 20
5.2100984181
 30
0.0
 10
5.1575634176
 20
5.210002298
 30
0.0
 10
5.1567476389
 20
5.2098735624
 30
0.0
 10
5.1557524975
 20
5.2097441102
 30
0.0
 10
5.1545785552
 20
5.2096140931
 30
0.0
 10
5.153226367
 20
5.2094837302
 30
0.0
 10
5.1510698666
 20
5.2092997235
 30
0.0
 10
5.14793444
 20
5.2090745334
 30
0.0
 10
5.1436494654
 20
5.208815052
 30
0.0
 10
5.1386763445
 20
5.2085548373
 30
0.0
 10
5.1330264133
 20
5.2082939736
 30
0.0
 10
5.1267126447
 20
5.2080327223
 30
0.0
 10
5.1197495541
 20
5.2077711565
 30
0.0
 10
5.1092148869
 20
5.2074082059
 30
0.0
 10
5.0945554723
 20
5.2069608137
 30
0.0
 10
5.0752724618
 20
5.206440602
 30
0.0
 10
5.0538664082
 20
5.2059194277
 30
0.0
 10
5.0305340986
 20
5.2053974927
 30
0.0
 10
5.005490012
 20
5.2048750512
 30
0.0
 10
4.9789643686
 20
5.204352237
 30
0.0
 10
4.9512010072
 20
5.2038291581
 30
0.0
 10
4.9224551483
 20
5.2033058918
 30
0.0
 10
4.8929910402
 20
5.2027825001
 30
0.0
 10
4.86307956
 20
5.2022590349
 30
0.0
 10
4.8329956759
 20
5.201735542
 30
0.0
 10
4.8030159696
 20
5.2012120657
 30
0.0
 10
4.7734160333
 20
5.2006886513
 30
0.0
 10
4.7444679795
 20
5.2001653486
 30
0.0
 10
4.7164379198
 20
5.1996422174
 30
0.0
 10
4.6895835267
 20
5.1991193279
 30
0.0
 10
4.6641516729
 20
5.1985967881
 30
0.0
 10
4.6403761592
 20
5.1980746943
 30
0.0
 10
4.6216992813
 20
5.1976301033
 30
0.0
 10
4.6077485065
 20
5.1972716259
 30
0.0
 10
4.59808556
 20
5.1970094034
 30
0.0
 10
4.5889888459
 20
5.1967472766
 30
0.0
 10
4.580479296
 20
5.1964852636
 30
0.0
 10
4.5725764907
 20
5.1962234062
 30
0.0
 10
4.5652985407
 20
5.1959617262
 30
0.0
 10
4.5586622621
 20
5.195700321
 30
0.0
 10
4.5526827991
 20
5.1954392447
 30
0.0
 10
4.547373991
 20
5.1951786656
 30
0.0
 10
4.5427478729
 20
5.1949188456
 30
0.0
 10
4.5388151199
 20
5.1946599769
 30
0.0
 10
4.535976105
 20
5.1944346399
 30
0.0
 10
4.5340588963
 20
5.1942496292
 30
0.0
 10
4.5328871563
 20
5.1941196279
 30
0.0
 10
4.5318943007
 20
5.1939900958
 30
0.0
 10
4.5311797069
 20
5.1938772788
 30
0.0
 10
4.5306986125
 20
5.1937847737
 30
0.0
 10
4.5304045406
 20
5.1937196513
 30
0.0
 10
4.5301554387
 20
5.1936548133
 30
0.0
 10
4.5299510318
 20
5.1935900568
 30
0.0
 10
4.5298100787
 20
5.1935337232
 30
0.0
 10
4.5297200987
 20
5.1934866437
 30
0.0
 10
4.5296400539
 20
5.1934363454
 30
0.0
 10
4.5295765714
 20
5.1933733665
 30
0.0
 10
4.5295765714
 20
5.193320166
 30
0.0
  0
LINE
  5
3C9
100
AcDbEntity
  8
0
100
AcDbLine
 62
7
  6
CONTINUOUS
 10
5.1379660446
 20
5.2048881376
 11
5.1375899511
 21
5.2048003665
  0
SPLINE
  5
3CA
100
AcDbEntity
  8
0
100
AcDbSpline
 62
7
  6
CONTINUOUS
 70
0
 71
3
 72
62
 73
58
 74
0
 42
0.0000001
 43
0.0000001
 44
0.0000000001
 40
0.0
 40
0.0
 40
0.0
 40
0.0
 40
0.0012106249
 40
0.0027005657
 40
0.0044702572
 40
0.0065192346
 40
0.0114518121
 40
0.0174901828
 40
0.0246212073
 40
0.0328297515
 40
0.0420975297
 40
0.0524035405
 40
0.0637250399
 40
0.076035826
 40
0.1035128693
 40
0.1345853974
 40
0.1689711664
 40
0.2063577145
 40
0.2464051642
 40
0.2887493777
 40
0.3330053415
 40
0.3787704166
 40
0.4256284013
 40
0.473152978
 40
0.5209119007
 40
0.5684707799
 40
0.6153969221
 40
0.6612635685
 40
0.7056533751
 40
0.7481627068
 40
0.7884049527
 40
0.8260141963
 40
0.8606485614
 40
0.8919932143
 40
0.9063415161
 40
0.9197634462
 40
0.9322279707
 40
0.9437073265
 40
0.9541753058
 40
0.9636082739
 40
0.9719853956
 40
0.9792874819
 40
0.9854992773
 40
0.9906070715
 40
0.992744012
 40
0.9946019037
 40
0.9961802096
 40
0.9974789046
 40
0.9980237945
 40
0.9984994401
 40
0.9989063818
 40
0.9992455218
 40
0.9995184762
 40
0.9997284487
 40
0.9998119893
 40
0.9998832301
 40
1.0
 40
1.0
 40
1.0
 40
1.0
 10
5.1375899511
 20
5.2048003665
 30
0.0
 10
5.1373577883
 20
5.2047511071
 30
0.0
 10
5.1368367162
 20
5.2046563312
 30
0.0
 10
5.13596979
 20
5.2045276817
 30
0.0
 10
5.134937065
 20
5.2043984734
 30
0.0
 10
5.1332313553
 20
5.204214069
 30
0.0
 10
5.1306885865
 20
5.203989817
 30
0.0
 10
5.1271491484
 20
5.2037324939
 30
0.0
 10
5.1229661168
 20
5.2034741459
 30
0.0
 10
5.1181490224
 20
5.2032149759
 30
0.0
 10
5.1127087372
 20
5.2029553112
 30
0.0
 10
5.1066575887
 20
5.2026952667
 30
0.0
 10
5.1000094018
 20
5.2024349629
 30
0.0
 10
5.0899964049
 20
5.2020742609
 30
0.0
 10
5.0761120074
 20
5.2016293427
 30
0.0
 10
5.0579002864
 20
5.2011115722
 30
0.0
 10
5.0377452241
 20
5.2005929025
 30
0.0
 10
5.0158302066
 20
5.2000735203
 30
0.0
 10
4.9923546201
 20
5.1995536609
 30
0.0
 10
4.9675320505
 20
5.1990334498
 30
0.0
 10
4.9415883682
 20
5.198512989
 30
0.0
 10
4.9147596382
 20
5.1979923512
 30
0.0
 10
4.8872900141
 20
5.1974715958
 30
0.0
 10
4.8594294483
 20
5.1969507723
 30
0.0
 10
4.8314314558
 20
5.1964299256
 30
0.0
 10
4.8035508004
 20
5.1959090989
 30
0.0
 10
4.776041171
 20
5.1953883364
 30
0.0
 10
4.7491529179
 20
5.1948676876
 30
0.0
 10
4.7231306999
 20
5.1943472095
 30
0.0
 10
4.6982113135
 20
5.193826977
 30
0.0
 10
4.6746214855
 20
5.1933070805
 30
0.0
 10
4.6525758517
 20
5.1927876716
 30
0.0
 10
4.6322750091
 20
5.1922688801
 30
0.0
 10
4.6165338509
 20
5.1918253204
 30
0.0
 10
4.6049504977
 20
5.1914669368
 30
0.0
 10
4.5970671729
 20
5.1912062621
 30
0.0
 10
4.5897466005
 20
5.1909457282
 30
0.0
 10
4.583005508
 20
5.1906853942
 30
0.0
 10
4.5768591932
 20
5.1904253107
 30
0.0
 10
4.5713216205
 20
5.1901655678
 30
0.0
 10
4.5664054251
 20
5.1899063165
 30
0.0
 10
4.5621216404
 20
5.1896478107
 30
0.0
 10
4.5584800766
 20
5.1893902737
 30
0.0
 10
4.5558514145
 20
5.1891660565
 30
0.0
 10
4.5540764044
 20
5.1889819929
 30
0.0
 10
4.5529914651
 20
5.1888526472
 30
0.0
 10
4.5520721606
 20
5.188723767
 30
0.0
 10
4.5514106021
 20
5.1886115307
 30
0.0
 10
4.550965298
 20
5.1885195231
 30
0.0
 10
4.5506929944
 20
5.1884547506
 30
0.0
 10
4.5504622891
 20
5.1883901671
 30
0.0
 10
4.5502729576
 20
5.1883258693
 30
0.0
 10
4.5501249148
 20
5.1882618174
 30
0.0
 10
4.5500286222
 20
5.1882051816
 30
0.0
 10
4.5499745169
 20
5.1881579377
 30
0.0
 10
4.5499403925
 20
5.1881170893
 30
0.0
 10
4.5499265697
 20
5.1880801897
 30
0.0
 10
4.5499265758
 20
5.1880572981
 30
0.0
  0
SPLINE
  5
3CB
100
AcDbEntity
  8
0
100
AcDbSpline
 62
7
  6
CONTINUOUS
 70
0
 71
3
 72
63
 73
59
 74
0
 42
0.0000001
 43
0.0000001
 44
0.0000000001
 40
0.0
 40
0.0
 40
0.0
 40
0.0
 40
0.0010305488
 40
0.0023428763
 40
0.0039379092
 40
0.0058154627
 40
0.0079749741
 40
0.0104156864
 40
0.0161361879
 40
0.0229645197
 40
0.0308862536
 40
0.0398832882
 40
0.0499354205
 40
0.0610198261
 40
0.0731109087
 40
0.1002008843
 40
0.1309571577
 40
0.1650974078
 40
0.2023081681
 40
0.2422476303
 40
0.284548844
 40
0.3288231691
 40
0.3746637636
 40
0.4216493439
 40
0.4693481802
 40
0.5173217944
 40
0.5651293801
 40
0.6123315063
 40
0.6584944184
 40
0.7031939143
 40
0.7460192019
 40
0.7865768078
 40
0.8244940777
 40
0.8594226492
 40
0.8756647097
 40
0.8910418262
 40
0.9055184197
 40
0.9190613758
 40
0.9316397528
 40
0.9432244591
 40
0.9537894533
 40
0.9633100455
 40
0.9717652419
 40
0.979135424
 40
0.9854046854
 40
0.9905593093
 40
0.9927153186
 40
0.9945893618
 40
0.996180879
 40
0.9974896931
 40
0.9980383526
 40
0.9985168556
 40
0.9989256789
 40
0.9992656229
 40
0.9995381323
 40
0.9996499814
 40
0.9997463072
 40
1.0
 40
1.0
 40
1.0
 40
1.0
 10
5.1582556439
 20
5.2445991357
 30
0.0
 10
5.1580455686
 20
5.2445484181
 30
0.0
 10
5.1575634176
 20
5.244452298
 30
0.0
 10
5.1567476389
 20
5.2443235624
 30
0.0
 10
5.1557524975
 20
5.2441941102
 30
0.0
 10
5.1545785552
 20
5.2440640931
 30
0.0
 10
5.153226367
 20
5.2439337302
 30
0.0
 10
5.1510698666
 20
5.2437497235
 30
0.0
 10
5.14793444
 20
5.2435245334
 30
0.0
 10
5.1436494654
 20
5.243265052
 30
0.0
 10
5.1386763445
 20
5.2430048373
 30
0.0
 10
5.1330264133
 20
5.2427439736
 30
0.0
 10
5.1267126447
 20
5.2424827223
 30
0.0
 10
5.1197495541
 20
5.2422211565
 30
0.0
 10
5.1092148869
 20
5.2418582059
 30
0.0
 10
5.0945554723
 20
5.2414108137
 30
0.0
 10
5.0752724618
 20
5.240890602
 30
0.0
 10
5.0538664082
 20
5.2403694277
 30
0.0
 10
5.0305340986
 20
5.2398474927
 30
0.0
 10
5.005490012
 20
5.2393250512
 30
0.0
 10
4.9789643686
 20
5.238802237
 30
0.0
 10
4.9512010072
 20
5.2382791581
 30
0.0
 10
4.9224551483
 20
5.2377558918
 30
0.0
 10
4.8929910402
 20
5.2372325001
 30
0.0
 10
4.86307956
 20
5.2367090349
 30
0.0
 10
4.8329956759
 20
5.236185542
 30
0.0
 10
4.8030159696
 20
5.2356620657
 30
0.0
 10
4.7734160333
 20
5.2351386513
 30
0.0
 10
4.7444679795
 20
5.2346153486
 30
0.0
 10
4.7164379198
 20
5.2340922174
 30
0.0
 10
4.6895835267
 20
5.2335693279
 30
0.0
 10
4.6641516729
 20
5.2330467881
 30
0.0
 10
4.6403761592
 20
5.2325246943
 30
0.0
 10
4.6216992813
 20
5.2320801033
 30
0.0
 10
4.6077485065
 20
5.2317216259
 30
0.0
 10
4.59808556
 20
5.2314594034
 30
0.0
 10
4.5889888459
 20
5.2311972766
 30
0.0
 10
4.580479296
 20
5.2309352636
 30
0.0
 10
4.5725764907
 20
5.2306734062
 30
0.0
 10
4.5652985407
 20
5.2304117262
 30
0.0
 10
4.5586622621
 20
5.230150321
 30
0.0
 10
4.5526827991
 20
5.2298892447
 30
0.0
 10
4.547373991
 20
5.2296286656
 30
0.0
 10
4.5427478729
 20
5.2293688456
 30
0.0
 10
4.5388151199
 20
5.2291099769
 30
0.0
 10
4.535976105
 20
5.2288846399
 30
0.0
 10
4.5340588963
 20
5.2286996292
 30
0.0
 10
4.5328871563
 20
5.2285696279
 30
0.0
 10
4.5318943007
 20
5.2284400958
 30
0.0
 10
4.5311797069
 20
5.2283272788
 30
0.0
 10
4.5306986125
 20
5.2282347737
 30
0.0
 10
4.5304045406
 20
5.2281696513
 30
0.0
 10
4.5301554387
 20
5.2281048133
 30
0.0
 10
4.5299510318
 20
5.2280400568
 30
0.0
 10
4.5298100787
 20
5.2279837232
 30
0.0
 10
4.5297200987
 20
5.2279366437
 30
0.0
 10
4.5296400539
 20
5.2278863454
 30
0.0
 10
4.5295765714
 20
5.2278233665
 30
0.0
 10
4.5295765714
 20
5.227770166
 30
0.0
  0
LINE
  5
3CC
100
AcDbEntity
  8
0
100
AcDbLine
 62
7
  6
CONTINUOUS
 10
5.1379661205
 20
5.2393381375
 11
5.1375459854
 21
5.2392411278
  0
SPLINE
  5
3CD
100
AcDbEntity
  8
0
100
AcDbSpline
 62
7
  6
CONTINUOUS
 70
0
 71
3
 72
62
 73
58
 74
0
 42
0.0000001
 43
0.0000001
 44
0.0000000001
 40
0.0
 40
0.0
 40
0.0
 40
0.0
 40
0.0012298088
 40
0.0027384684
 40
0.0045264414
 40
0.0065936185
 40
0.0115618052
 40
0.0176336646
 40
0.0247972066
 40
0.0330361442
 40
0.042332828
 40
0.0526660237
 40
0.0640126323
 40
0.0763471741
 40
0.1038655266
 40
0.1349718175
 40
0.1693838997
 40
0.2067893779
 40
0.2468486877
 40
0.2891978247
 40
0.3334521028
 40
0.3792094248
 40
0.4260540555
 40
0.473560418
 40
0.5212968255
 40
0.5688295131
 40
0.6157265892
 40
0.6615618978
 40
0.705919057
 40
0.7483950752
 40
0.7886040467
 40
0.8261807804
 40
0.8607838764
 40
0.8920993184
 40
0.9064342388
 40
0.9198430141
 40
0.9322957331
 40
0.9437636172
 40
0.9542213943
 40
0.963644981
 40
0.9720135552
 40
0.9793085456
 40
0.9855137405
 40
0.990616689
 40
0.9927514086
 40
0.9946072206
 40
0.9961838487
 40
0.99748143
 40
0.9980258812
 40
0.9985010902
 40
0.998907591
 40
0.9992463181
 40
0.9995189214
 40
0.9997286368
 40
0.9998120923
 40
0.9998832777
 40
1.0
 40
1.0
 40
1.0
 40
1.0
 10
5.1375459854
 20
5.2392411278
 30
0.0
 10
5.1373099709
 20
5.2391920001
 30
0.0
 10
5.1367813747
 20
5.2390973694
 30
0.0
 10
5.1359033838
 20
5.2389687311
 30
0.0
 10
5.1348598351
 20
5.2388395445
 30
0.0
 10
5.1331400247
 20
5.2386553328
 30
0.0
 10
5.1305802662
 20
5.2384312315
 30
0.0
 10
5.1270211258
 20
5.2381739601
 30
0.0
 10
5.1228194754
 20
5.2379157528
 30
0.0
 10
5.1179847215
 20
5.237656682
 30
0.0
 10
5.1125278751
 20
5.2373971529
 30
0.0
 10
5.1064612529
 20
5.2371372449
 30
0.0
 10
5.0997986517
 20
5.2368770648
 30
0.0
 10
5.0897687249
 20
5.2365166195
 30
0.0
 10
5.0758660004
 20
5.236071956
 30
0.0
 10
5.0576357844
 20
5.2355544521
 30
0.0
 10
5.037466766
 20
5.2350360511
 30
0.0
 10
5.0155422228
 20
5.2345169443
 30
0.0
 10
4.9920614245
 20
5.2339973635
 30
0.0
 10
4.9672377888
 20
5.2334774331
 30
0.0
 10
4.9412969718
 20
5.2329572539
 30
0.0
 10
4.9144747585
 20
5.2324368987
 30
0.0
 10
4.8870149407
 20
5.2319164268
 30
0.0
 10
4.8591671054
 20
5.2313958877
 30
0.0
 10
4.8311843708
 20
5.2308753261
 30
0.0
 10
4.8033210919
 20
5.2303547846
 30
0.0
 10
4.7758305404
 20
5.2298343074
 30
0.0
 10
4.7489625834
 20
5.2293139437
 30
0.0
 10
4.7229614282
 20
5.2287937512
 30
0.0
 10
4.6980633999
 20
5.2282738045
 30
0.0
 10
4.6744948017
 20
5.227754194
 30
0.0
 10
4.6524698788
 20
5.2272350704
 30
0.0
 10
4.6321888174
 20
5.2267165665
 30
0.0
 10
4.6164633423
 20
5.2262732377
 30
0.0
 10
4.6048918027
 20
5.2259150639
 30
0.0
 10
4.5970165975
 20
5.2256545168
 30
0.0
 10
4.5897037262
 20
5.2253941445
 30
0.0
 10
4.582969713
 20
5.2251339391
 30
0.0
 10
4.576829956
 20
5.2248740061
 30
0.0
 10
4.5712983213
 20
5.2246144107
 30
0.0
 10
4.566387409
 20
5.2243552837
 30
0.0
 10
4.5621083107
 20
5.2240969534
 30
0.0
 10
4.5584706638
 20
5.2238395156
 30
0.0
 10
4.5558448798
 20
5.2236154548
 30
0.0
 10
4.5540717993
 20
5.2234314883
 30
0.0
 10
4.5529881168
 20
5.2233022058
 30
0.0
 10
4.5520698401
 20
5.2231733842
 30
0.0
 10
4.551408964
 20
5.2230612207
 30
0.0
 10
4.5509640814
 20
5.2229692717
 30
0.0
 10
4.550692056
 20
5.2229045369
 30
0.0
 10
4.5504616224
 20
5.2228399879
 30
0.0
 10
4.5502725451
 20
5.2227757236
 30
0.0
 10
4.5501247193
 20
5.2227117039
 30
0.0
 10
4.550028579
 20
5.2226550944
 30
0.0
 10
4.5499745606
 20
5.2226078788
 30
0.0
 10
4.5499404812
 20
5.2225670456
 30
0.0
 10
4.5499266671
 20
5.2225301787
 30
0.0
 10
4.5499266549
 20
5.2225072982
 30
0.0
  0
SPLINE
  5
3CE
100
AcDbEntity
  8
0
100
AcDbSpline
 62
7
  6
CONTINUOUS
 70
0
 71
3
 72
63
 73
59
 74
0
 42
0.0000001
 43
0.0000001
 44
0.0000000001
 40
0.0
 40
0.0
 40
0.0
 40
0.0
 40
0.0010305488
 40
0.0023428763
 40
0.0039379092
 40
0.0058154627
 40
0.0079749741
 40
0.0104156864
 40
0.0161361879
 40
0.0229645197
 40
0.0308862536
 40
0.0398832882
 40
0.0499354205
 40
0.0610198261
 40
0.0731109087
 40
0.1002008843
 40
0.1309571577
 40
0.1650974078
 40
0.2023081681
 40
0.2422476303
 40
0.284548844
 40
0.3288231691
 40
0.3746637636
 40
0.4216493439
 40
0.4693481802
 40
0.5173217944
 40
0.5651293801
 40
0.6123315063
 40
0.6584944184
 40
0.7031939143
 40
0.7460192019
 40
0.7865768078
 40
0.8244940777
 40
0.8594226492
 40
0.8756647097
 40
0.8910418262
 40
0.9055184197
 40
0.9190613758
 40
0.9316397528
 40
0.9432244591
 40
0.9537894533
 40
0.9633100455
 40
0.9717652419
 40
0.979135424
 40
0.9854046854
 40
0.9905593093
 40
0.9927153186
 40
0.9945893618
 40
0.996180879
 40
0.9974896931
 40
0.9980383526
 40
0.9985168556
 40
0.9989256789
 40
0.9992656229
 40
0.9995381323
 40
0.9996499814
 40
0.9997463072
 40
1.0
 40
1.0
 40
1.0
 40
1.0
 10
5.1582556439
 20
5.2790491357
 30
0.0
 10
5.1580455686
 20
5.2789984181
 30
0.0
 10
5.1575634176
 20
5.278902298
 30
0.0
 10
5.1567476389
 20
5.2787735624
 30
0.0
 10
5.1557524975
 20
5.2786441102
 30
0.0
 10
5.1545785552
 20
5.2785140931
 30
0.0
 10
5.153226367
 20
5.2783837302
 30
0.0
 10
5.1510698666
 20
5.2781997235
 30
0.0
 10
5.14793444
 20
5.2779745334
 30
0.0
 10
5.1436494654
 20
5.277715052
 30
0.0
 10
5.1386763445
 20
5.2774548373
 30
0.0
 10
5.1330264133
 20
5.2771939736
 30
0.0
 10
5.1267126447
 20
5.2769327223
 30
0.0
 10
5.1197495541
 20
5.2766711565
 30
0.0
 10
5.1092148869
 20
5.2763082059
 30
0.0
 10
5.0945554723
 20
5.2758608137
 30
0.0
 10
5.0752724618
 20
5.275340602
 30
0.0
 10
5.0538664082
 20
5.2748194277
 30
0.0
 10
5.0305340986
 20
5.2742974927
 30
0.0
 10
5.005490012
 20
5.2737750512
 30
0.0
 10
4.9789643686
 20
5.273252237
 30
0.0
 10
4.9512010072
 20
5.2727291581
 30
0.0
 10
4.9224551483
 20
5.2722058918
 30
0.0
 10
4.8929910402
 20
5.2716825001
 30
0.0
 10
4.86307956
 20
5.2711590349
 30
0.0
 10
4.8329956759
 20
5.270635542
 30
0.0
 10
4.8030159696
 20
5.2701120657
 30
0.0
 10
4.7734160333
 20
5.2695886513
 30
0.0
 10
4.7444679795
 20
5.2690653486
 30
0.0
 10
4.7164379198
 20
5.2685422174
 30
0.0
 10
4.6895835267
 20
5.2680193279
 30
0.0
 10
4.6641516729
 20
5.2674967881
 30
0.0
 10
4.6403761592
 20
5.2669746943
 30
0.0
 10
4.6216992813
 20
5.2665301033
 30
0.0
 10
4.6077485065
 20
5.2661716259
 30
0.0
 10
4.59808556
 20
5.2659094034
 30
0.0
 10
4.5889888459
 20
5.2656472766
 30
0.0
 10
4.580479296
 20
5.2653852636
 30
0.0
 10
4.5725764907
 20
5.2651234062
 30
0.0
 10
4.5652985407
 20
5.2648617262
 30
0.0
 10
4.5586622621
 20
5.264600321
 30
0.0
 10
4.5526827991
 20
5.2643392447
 30
0.0
 10
4.547373991
 20
5.2640786656
 30
0.0
 10
4.5427478729
 20
5.2638188456
 30
0.0
 10
4.5388151199
 20
5.2635599769
 30
0.0
 10
4.535976105
 20
5.2633346399
 30
0.0
 10
4.5340588963
 20
5.2631496292
 30
0.0
 10
4.5328871563
 20
5.2630196279
 30
0.0
 10
4.5318943007
 20
5.2628900958
 30
0.0
 10
4.5311797069
 20
5.2627772788
 30
0.0
 10
4.5306986125
 20
5.2626847737
 30
0.0
 10
4.5304045406
 20
5.2626196513
 30
0.0
 10
4.5301554387
 20
5.2625548133
 30
0.0
 10
4.5299510318
 20
5.2624900568
 30
0.0
 10
4.5298100787
 20
5.2624337232
 30
0.0
 10
4.5297200987
 20
5.2623866437
 30
0.0
 10
4.5296400539
 20
5.2623363454
 30
0.0
 10
4.5295765714
 20
5.2622733665
 30
0.0
 10
4.5295765714
 20
5.262220166
 30
0.0
  0
LINE
  5
3CF
100
AcDbEntity
  8
0
100
AcDbLine
 62
7
  6
CONTINUOUS
 10
5.1379661225
 20
5.2737881377
 11
5.1375016525
 21
5.2736819643
  0
SPLINE
  5
3D0
100
AcDbEntity
  8
0
100
AcDbSpline
 62
7
  6
CONTINUOUS
 70
0
 71
3
 72
62
 73
58
 74
0
 42
0.0000001
 43
0.0000001
 44
0.0000000001
 40
0.0
 40
0.0
 40
0.0
 40
0.0
 40
0.0012487183
 40
0.0027761981
 40
0.0045825968
 40
0.006667606
 40
0.0116707611
 40
0.0177762949
 40
0.0249714762
 40
0.0332409982
 40
0.0425659767
 40
0.0529262243
 40
0.0642978068
 40
0.0766555345
 40
0.1042147867
 40
0.1353546305
 40
0.1697928829
 40
0.2072172401
 40
0.2472881192
 40
0.2896419955
 40
0.3338945348
 40
0.3796441209
 40
0.4264756426
 40
0.4739639021
 40
0.5216779759
 40
0.5691847009
 40
0.6160529419
 40
0.6618573587
 40
0.7061821595
 40
0.7486251352
 40
0.7888010179
 40
0.826345354
 40
0.8609175981
 40
0.8922042609
 40
0.9065257218
 40
0.9199218496
 40
0.9323623958
 40
0.943819441
 40
0.9542666682
 40
0.9636812081
 40
0.9720413258
 40
0.979329044
 40
0.9855281495
 40
0.990625699
 40
0.9927584723
 40
0.9946125484
 40
0.9961874565
 40
0.9974835598
 40
0.9980274434
 40
0.998502238
 40
0.9989084563
 40
0.9992469733
 40
0.9995193813
 40
0.9997288966
 40
0.9998122615
 40
0.9998833702
 40
1.0
 40
1.0
 40
1.0
 40
1.0
 10
5.1375016525
 20
5.2736819643
 30
0.0
 10
5.137261848
 20
5.2736329548
 30
0.0
 10
5.1367257679
 20
5.2735384594
 30
0.0
 10
5.1358367203
 20
5.2734098519
 30
0.0
 10
5.1347823734
 20
5.2732807074
 30
0.0
 10
5.1330486411
 20
5.273096653
 30
0.0
 10
5.1304720594
 20
5.2728726914
 30
0.0
 10
5.1268934802
 20
5.2726155254
 30
0.0
 10
5.1226733182
 20
5.2723573976
 30
0.0
 10
5.1178211617
 20
5.2720984773
 30
0.0
 10
5.1123478692
 20
5.2718390485
 30
0.0
 10
5.1062659502
 20
5.2715792897
 30
0.0
 10
5.099589104
 20
5.2713192356
 30
0.0
 10
5.0895424731
 20
5.2709590321
 30
0.0
 10
5.0756216632
 20
5.2705146299
 30
0.0
 10
5.0573731119
 20
5.2699973885
 30
0.0
 10
5.037190227
 20
5.2694792563
 30
0.0
 10
5.0152562635
 20
5.268960423
 30
0.0
 10
4.991770367
 20
5.2684411175
 30
0.0
 10
4.9669457789
 20
5.2679214649
 30
0.0
 10
4.9410078804
 20
5.2674015649
 30
0.0
 10
4.9141921526
 20
5.2668814903
 30
0.0
 10
4.8867420775
 20
5.2663613001
 30
0.0
 10
4.8589068766
 20
5.2658410432
 30
0.0
 10
4.8309393067
 20
5.2653207639
 30
0.0
 10
4.8030932871
 20
5.264800505
 30
0.0
 10
4.7756216442
 20
5.2642803106
 30
0.0
 10
4.7487738018
 20
5.2637602303
 30
0.0
 10
4.7227935194
 20
5.2632403214
 30
0.0
 10
4.6979167099
 20
5.2627206583
 30
0.0
 10
4.6743692361
 20
5.2622013307
 30
0.0
 10
4.6523648899
 20
5.2616824895
 30
0.0
 10
4.6321034263
 20
5.2611642676
 30
0.0
 10
4.6163934869
 20
5.2607211808
 30
0.0
 10
4.6048335956
 20
5.2603631974
 30
0.0
 10
4.596966499
 20
5.2601028003
 30
0.0
 10
4.5896611803
 20
5.2598425553
 30
0.0
 10
4.5829342627
 20
5.2595825131
 30
0.0
 10
4.5768009447
 20
5.2593226999
 30
0.0
 10
4.5712752336
 20
5.2590632661
 30
0.0
 10
4.5663695559
 20
5.2588042704
 30
0.0
 10
4.5620950642
 20
5.2585460758
 30
0.0
 10
4.5584613729
 20
5.2582888044
 30
0.0
 10
4.555838428
 20
5.2580648291
 30
0.0
 10
4.5540672626
 20
5.2578809832
 30
0.0
 10
4.5529847212
 20
5.2577517819
 30
0.0
 10
4.552067484
 20
5.2576230237
 30
0.0
 10
4.5514073999
 20
5.2575109128
 30
0.0
 10
4.5509630353
 20
5.2574190128
 30
0.0
 10
4.5506912786
 20
5.257354313
 30
0.0
 10
4.5504610382
 20
5.2572898026
 30
0.0
 10
4.5502721058
 20
5.2572255787
 30
0.0
 10
4.5501244052
 20
5.2571615997
 30
0.0
 10
4.5500283676
 20
5.257105017
 30
0.0
 10
4.5499744328
 20
5.2570578237
 30
0.0
 10
4.5499404179
 20
5.2570170062
 30
0.0
 10
4.54992666
 20
5.2569801587
 30
0.0
 10
4.5499266693
 20
5.2569572981
 30
0.0
  0
SPLINE
  5
3D1
100
AcDbEntity
  8
0
100
AcDbSpline
 62
7
  6
CONTINUOUS
 70
0
 71
3
 72
14
 73
10
 74
0
 42
0.0000001
 43
0.0000001
 44
0.0000000001
 40
0.0
 40
0.0
 40
0.0
 40
0.0
 40
0.1337966718
 40
0.2668479003
 40
0.3989050493
 40
0.5295636589
 40
0.6581058796
 40
0.783093791
 40
1.0
 40
1.0
 40
1.0
 40
1.0
 10
4.9107697194
 20
3.4797454969
 30
0.0
 10
4.9070098705
 20
3.4677531443
 30
0.0
 10
4.8996485738
 20
3.4437920122
 30
0.0
 10
4.8889832257
 20
3.4078711131
 30
0.0
 10
4.878681028
 20
3.3721511558
 30
0.0
 10
4.8687274704
 20
3.3367723886
 30
0.0
 10
4.8591450454
 20
3.3019796475
 30
0.0
 10
4.847609154
 20
3.2593223091
 30
0.0
 10
4.8393937941
 20
3.2282754204
 30
0.0
 10
4.8342357656
 20
3.2085644607
 30
0.0
  0
SPLINE
  5
3D2
100
AcDbEntity
  8
0
100
AcDbSpline
 62
7
  6
CONTINUOUS
 70
0
 71
3
 72
55
 73
51
 74
0
 42
0.0000001
 43
0.0000001
 44
0.0000000001
 40
0.0
 40
0.0
 40
0.0
 40
0.0
 40
0.0001128487
 40
0.0002596562
 40
0.000457645
 40
0.0007139239
 40
0.0010316698
 40
0.001412476
 40
0.0018572268
 40
0.0023664457
 40
0.003579402
 40
0.0050528135
 40
0.0067871488
 40
0.0087821368
 40
0.0110369688
 40
0.013550692
 40
0.01935056
 40
0.0261710095
 40
0.0339977836
 40
0.042815523
 40
0.0526054247
 40
0.0633473935
 40
0.0750190604
 40
0.0875956041
 40
0.1010512259
 40
0.1304836712
 40
0.1630693816
 40
0.1985345941
 40
0.2365811903
 40
0.2768891737
 40
0.3191195584
 40
0.3629172345
 40
0.4079138683
 40
0.4537309421
 40
0.4999830933
 40
0.5462811969
 40
0.6374606323
 40
0.7242078439
 40
0.7650006973
 40
0.8036105559
 40
0.8397128114
 40
0.8730038737
 40
0.9032039589
 40
0.9300593548
 40
0.9533450587
 40
0.9728658316
 40
0.9811625672
 40
0.9884605144
 40
0.9947442128
 40
1.0
 40
1.0
 40
1.0
 40
1.0
 10
5.1387264792
 20
4.9164322982
 30
0.0
 10
5.1387264892
 20
4.9164103665
 30
0.0
 10
5.1387082954
 20
4.9163600339
 30
0.0
 10
5.1386433018
 20
4.9162973658
 30
0.0
 10
5.138543648
 20
4.9162356609
 30
0.0
 10
5.1384064696
 20
4.9161741361
 30
0.0
 10
5.1382314104
 20
4.9161122382
 30
0.0
 10
5.1380179735
 20
4.9160501385
 30
0.0
 10
5.1377661053
 20
4.9159878419
 30
0.0
 10
5.1373543143
 20
4.9158993843
 30
0.0
 10
5.1367425316
 20
4.9157914548
 30
0.0
 10
5.1358923075
 20
4.9156674941
 30
0.0
 10
5.1348887903
 20
4.9155431272
 30
0.0
 10
5.1337324649
 20
4.9154184161
 30
0.0
 10
5.1324239218
 20
4.9152934715
 30
0.0
 10
5.1303774581
 20
4.9151181898
 30
0.0
 10
5.127444007
 20
4.9149029037
 30
0.0
 10
5.1234779381
 20
4.9146542411
 30
0.0
 10
5.1189243951
 20
4.9144049419
 30
0.0
 10
5.113793022
 20
4.9141551775
 30
0.0
 10
5.1080945089
 20
4.9139050695
 30
0.0
 10
5.1018408744
 20
4.9136547218
 30
0.0
 10
5.0950452773
 20
4.9134041988
 30
0.0
 10
5.0877219677
 20
4.9131535108
 30
0.0
 10
5.0769481463
 20
4.9128087389
 30
0.0
 10
5.0622862934
 20
4.9123819783
 30
0.0
 10
5.0433473385
 20
4.9118830394
 30
0.0
 10
5.0227337417
 20
4.9113834998
 30
0.0
 10
5.0006189565
 20
4.9108834863
 30
0.0
 10
4.977189079
 20
4.9103831415
 30
0.0
 10
4.9526412655
 20
4.9098825514
 30
0.0
 10
4.9271820531
 20
4.9093817855
 30
0.0
 10
4.9010256537
 20
4.9088808975
 30
0.0
 10
4.8743921528
 20
4.9083799303
 30
0.0
 10
4.8475056729
 20
4.9078789263
 30
0.0
 10
4.8118047144
 20
4.9072143116
 30
0.0
 10
4.7682352282
 20
4.9063943684
 30
0.0
 10
4.725736216
 20
4.9055554111
 30
0.0
 10
4.6934528114
 20
4.9048741887
 30
0.0
 10
4.6710104392
 20
4.9043740745
 30
0.0
 10
4.6500263838
 20
4.9038744032
 30
0.0
 10
4.630677215
 20
4.9033753323
 30
0.0
 10
4.6131257663
 20
4.9028770784
 30
0.0
 10
4.5975196336
 20
4.9023801756
 30
0.0
 10
4.5839901321
 20
4.9018849182
 30
0.0
 10
4.5740675793
 20
4.9014551067
 30
0.0
 10
4.5672520795
 20
4.9011029905
 30
0.0
 10
4.563007349
 20
4.9008539824
 30
0.0
 10
4.5593547383
 20
4.9006057961
 30
0.0
 10
4.5571192413
 20
4.9004252775
 30
0.0
 10
4.5561020403
 20
4.9003322981
 30
0.0
  0
SPLINE
  5
3D3
100
AcDbEntity
  8
0
100
AcDbSpline
 62
7
  6
CONTINUOUS
 70
0
 71
3
 72
63
 73
59
 74
0
 42
0.0000001
 43
0.0000001
 44
0.0000000001
 40
0.0
 40
0.0
 40
0.0
 40
0.0
 40
0.0001173745
 40
0.0001890798
 40
0.0002732254
 40
0.000484875
 40
0.0007601778
 40
0.0011023797
 40
0.0015131344
 40
0.0019933757
 40
0.0025436221
 40
0.0038550747
 40
0.0054486152
 40
0.0073243808
 40
0.0094820952
 40
0.0146399049
 40
0.0209116022
 40
0.0282845084
 40
0.0367418959
 40
0.0462649307
 40
0.0568321423
 40
0.0684190576
 40
0.0809997657
 40
0.0945448441
 40
0.1090238182
 40
0.1406474147
 40
0.1755803397
 40
0.2135018928
 40
0.2540635608
 40
0.296892685
 40
0.3415955662
 40
0.3877613864
 40
0.4349658639
 40
0.4827750488
 40
0.5307495757
 40
0.5784483452
 40
0.6254329662
 40
0.6712715709
 40
0.7155428474
 40
0.7578399499
 40
0.7977741552
 40
0.8349784605
 40
0.869111106
 40
0.8998586453
 40
0.926939027
 40
0.939025294
 40
0.9501041642
 40
0.9601509791
 40
0.9691424397
 40
0.9770584639
 40
0.9838814443
 40
0.9895961735
 40
0.992034455
 40
0.9941916586
 40
0.996066783
 40
0.9976595484
 40
0.9989702375
 40
1.0
 40
1.0
 40
1.0
 40
1.0
 10
5.1387264828
 20
4.9508822981
 30
0.0
 10
5.1387264715
 20
4.9508592729
 30
0.0
 10
5.1387124689
 20
4.9508221588
 30
0.0
 10
5.1386780109
 20
4.9507811204
 30
0.0
 10
5.1386233492
 20
4.9507336185
 30
0.0
 10
5.1385260879
 20
4.9506766898
 30
0.0
 10
5.1383765587
 20
4.9506123057
 30
0.0
 10
5.1381852908
 20
4.9505476739
 30
0.0
 10
5.1379521799
 20
4.9504827528
 30
0.0
 10
5.1376769915
 20
4.9504176452
 30
0.0
 10
5.1372269321
 20
4.9503251621
 30
0.0
 10
5.1365583899
 20
4.9502123487
 30
0.0
 10
5.1356294812
 20
4.9500827807
 30
0.0
 10
5.1345332564
 20
4.9499527488
 30
0.0
 10
5.1327396823
 20
4.9497677202
 30
0.0
 10
5.1300836488
 20
4.9495423618
 30
0.0
 10
5.1264042373
 20
4.949283432
 30
0.0
 10
5.1220762445
 20
4.9490236092
 30
0.0
 10
5.1171095129
 20
4.9487629772
 30
0.0
 10
5.1115154213
 20
4.9485018821
 30
0.0
 10
5.1053068347
 20
4.9482404406
 30
0.0
 10
5.0984979576
 20
4.9479787297
 30
0.0
 10
5.091104528
 20
4.9477168493
 30
0.0
 10
5.0831434441
 20
4.9474547918
 30
0.0
 10
5.0714479729
 20
4.9470945712
 30
0.0
 10
5.0555575585
 20
4.9466487076
 30
0.0
 10
5.0350688361
 20
4.9461272104
 30
0.0
 10
5.0128262378
 20
4.94560509
 30
0.0
 10
4.9890342679
 20
4.9450824815
 30
0.0
 10
4.9639117183
 20
4.9445595361
 30
0.0
 10
4.9376895873
 20
4.9440363449
 30
0.0
 10
4.9106089872
 20
4.9435129835
 30
0.0
 10
4.8829189187
 20
4.9429895101
 30
0.0
 10
4.8548739773
 20
4.942465975
 30
0.0
 10
4.8267320548
 20
4.9419424236
 30
0.0
 10
4.7987519134
 20
4.9414188996
 30
0.0
 10
4.771190846
 20
4.9408954494
 30
0.0
 10
4.744302267
 20
4.9403721246
 30
0.0
 10
4.7183334083
 20
4.9398489875
 30
0.0
 10
4.6935230473
 20
4.9393261156
 30
0.0
 10
4.6700993204
 20
4.9388036168
 30
0.0
 10
4.6482776171
 20
4.9382816255
 30
0.0
 10
4.6282585844
 20
4.9377603933
 30
0.0
 10
4.6102262638
 20
4.9372401296
 30
0.0
 10
4.5965185233
 20
4.9367926705
 30
0.0
 10
4.5866685895
 20
4.9364296895
 30
0.0
 10
4.5801586793
 20
4.9361680809
 30
0.0
 10
4.574256393
 20
4.9359068096
 30
0.0
 10
4.568975212
 20
4.9356459192
 30
0.0
 10
4.5643272663
 20
4.9353856622
 30
0.0
 10
4.5603232258
 20
4.9351261911
 30
0.0
 10
4.5573939173
 20
4.934900934
 30
0.0
 10
4.5553797299
 20
4.9347169051
 30
0.0
 10
4.5541170705
 20
4.9345865331
 30
0.0
 10
4.5530212452
 20
4.9344564935
 30
0.0
 10
4.5520927068
 20
4.93432701
 30
0.0
 10
4.551331868
 20
4.9341982589
 30
0.0
 10
4.550882558
 20
4.9341021531
 30
0.0
 10
4.5506870151
 20
4.9340514587
 30
0.0
  0
SPLINE
  5
3D4
100
AcDbEntity
  8
0
100
AcDbSpline
 62
7
  6
CONTINUOUS
 70
0
 71
3
 72
63
 73
59
 74
0
 42
0.0000001
 43
0.0000001
 44
0.0000000001
 40
0.0
 40
0.0
 40
0.0
 40
0.0
 40
0.0001173663
 40
0.0001890828
 40
0.000273253
 40
0.0004849829
 40
0.0007603818
 40
0.0011026613
 40
0.0015134407
 40
0.0019936237
 40
0.0025437524
 40
0.0038550326
 40
0.0054486812
 40
0.0073246381
 40
0.0094823645
 40
0.0146398742
 40
0.0209119025
 40
0.0282845075
 40
0.036742108
 40
0.0462650535
 40
0.0568322217
 40
0.0684193213
 40
0.080999783
 40
0.0945451367
 40
0.1090238346
 40
0.1406475476
 40
0.1755805902
 40
0.2135021255
 40
0.2540637705
 40
0.2968928026
 40
0.3415956605
 40
0.3877615218
 40
0.4349659949
 40
0.4827752425
 40
0.5307497035
 40
0.578448477
 40
0.6254331257
 40
0.6712717482
 40
0.715543107
 40
0.75784015
 40
0.7977742789
 40
0.834978513
 40
0.8691111495
 40
0.8998587974
 40
0.9269392726
 40
0.9390252863
 40
0.9501044751
 40
0.9601510051
 40
0.9691426973
 40
0.9770585858
 40
0.9838815318
 40
0.9895964191
 40
0.992034507
 40
0.9941916376
 40
0.9960669651
 40
0.9976598707
 40
0.9989704238
 40
1.0
 40
1.0
 40
1.0
 40
1.0
 10
5.13872657
 20
4.9853322982
 30
0.0
 10
5.1387265737
 20
4.9853092745
 30
0.0
 10
5.1387125727
 20
4.9852721521
 30
0.0
 10
5.1386781011
 20
4.9852311186
 30
0.0
 10
5.1386234094
 20
4.9851836161
 30
0.0
 10
5.1385261004
 20
4.9851266915
 30
0.0
 10
5.1383765164
 20
4.9850623095
 30
0.0
 10
5.1381852072
 20
4.9849976791
 30
0.0
 10
5.1379520875
 20
4.9849327586
 30
0.0
 10
5.1376769306
 20
4.9848676477
 30
0.0
 10
5.1372269426
 20
4.984775156
 30
0.0
 10
5.1365584376
 20
4.9846623342
 30
0.0
 10
5.1356295018
 20
4.9845327795
 30
0.0
 10
5.1345332147
 20
4.9844027556
 30
0.0
 10
5.1327396598
 20
4.9842177265
 30
0.0
 10
5.1300836201
 20
4.9839923406
 30
0.0
 10
5.1264042588
 20
4.9837334522
 30
0.0
 10
5.1220762207
 20
4.9834735932
 30
0.0
 10
5.1171095226
 20
4.9832129856
 30
0.0
 10
5.1115154159
 20
4.9829518796
 30
0.0
 10
5.1053068192
 20
4.9826904373
 30
0.0
 10
5.0984979625
 20
4.9824287364
 30
0.0
 10
5.0911044917
 20
4.9821668406
 30
0.0
 10
5.0831434558
 20
4.9819047991
 30
0.0
 10
5.0714479626
 20
4.9815445625
 30
0.0
 10
5.0555575563
 20
4.98109871
 30
0.0
 10
5.0350687918
 20
4.9805772101
 30
0.0
 10
5.0128261786
 20
4.9800550904
 30
0.0
 10
4.9890342351
 20
4.9795324813
 30
0.0
 10
4.963911713
 20
4.9790095356
 30
0.0
 10
4.9376895968
 20
4.9784863444
 30
0.0
 10
4.9106089944
 20
4.9779629831
 30
0.0
 10
4.8829189067
 20
4.97743951
 30
0.0
 10
4.8548739671
 20
4.976915975
 30
0.0
 10
4.8267320447
 20
4.9763924233
 30
0.0
 10
4.7987519104
 20
4.9758688992
 30
0.0
 10
4.7711908336
 20
4.975345449
 30
0.0
 10
4.7443022298
 20
4.9748221242
 30
0.0
 10
4.7183333634
 20
4.9742989877
 30
0.0
 10
4.6935230132
 20
4.9737761157
 30
0.0
 10
4.6700993272
 20
4.9732536165
 30
0.0
 10
4.6482776549
 20
4.9727316242
 30
0.0
 10
4.6282586168
 20
4.9722103933
 30
0.0
 10
4.6102262586
 20
4.9716901255
 30
0.0
 10
4.5965185279
 20
4.9712426806
 30
0.0
 10
4.5866685638
 20
4.9708796792
 30
0.0
 10
4.5801586959
 20
4.9706180925
 30
0.0
 10
4.5742563585
 20
4.970356798
 30
0.0
 10
4.5689752138
 20
4.9700959263
 30
0.0
 10
4.5643272564
 20
4.9698356617
 30
0.0
 10
4.5603232191
 20
4.9695761817
 30
0.0
 10
4.5573939225
 20
4.969350948
 30
0.0
 10
4.555379758
 20
4.9691669023
 30
0.0
 10
4.5541171121
 20
4.9690365218
 30
0.0
 10
4.5530212321
 20
4.9689064931
 30
0.0
 10
4.5520926507
 20
4.9687770232
 30
0.0
 10
4.5513318488
 20
4.9686482653
 30
0.0
 10
4.5508826054
 20
4.9685521509
 30
0.0
 10
4.5506870997
 20
4.9685014586
 30
0.0
  0
SPLINE
  5
3D5
100
AcDbEntity
  8
0
100
AcDbSpline
 62
7
  6
CONTINUOUS
 70
0
 71
3
 72
63
 73
59
 74
0
 42
0.0000001
 43
0.0000001
 44
0.0000000001
 40
0.0
 40
0.0
 40
0.0
 40
0.0
 40
0.0001173458
 40
0.0001890255
 40
0.0002731471
 40
0.0004847769
 40
0.0007601292
 40
0.0011024393
 40
0.0015133004
 40
0.0019935846
 40
0.0025438012
 40
0.0038550859
 40
0.0054485045
 40
0.0073243997
 40
0.0094822998
 40
0.0146398595
 40
0.0209116991
 40
0.0282845731
 40
0.0367418495
 40
0.0462650986
 40
0.0568320445
 40
0.0684192343
 40
0.0809997185
 40
0.0945449414
 40
0.1090238828
 40
0.1406475362
 40
0.1755804929
 40
0.2135019625
 40
0.2540635488
 40
0.2968926589
 40
0.3415955533
 40
0.3877614378
 40
0.4349659018
 40
0.482775086
 40
0.5307495808
 40
0.5784483598
 40
0.6254330219
 40
0.671271636
 40
0.7155428816
 40
0.7578399276
 40
0.7977740658
 40
0.8349783832
 40
0.869111126
 40
0.8998587591
 40
0.9269391627
 40
0.9390251783
 40
0.9501042071
 40
0.9601509834
 40
0.9691423798
 40
0.9770586027
 40
0.9838812918
 40
0.9895963114
 40
0.9920345276
 40
0.9941915174
 40
0.9960666636
 40
0.9976596052
 40
0.9989703952
 40
1.0
 40
1.0
 40
1.0
 40
1.0
 10
5.1387264663
 20
5.0197822982
 30
0.0
 10
5.1387264744
 20
5.0197592786
 30
0.0
 10
5.1387125066
 20
5.019722161
 30
0.0
 10
5.1386780747
 20
5.0196811193
 30
0.0
 10
5.1386234345
 20
5.019633613
 30
0.0
 10
5.1385261717
 20
5.019576681
 30
0.0
 10
5.1383766109
 20
5.0195123018
 30
0.0
 10
5.1381852861
 20
5.0194476764
 30
0.0
 10
5.1379521221
 20
5.0193827588
 30
0.0
 10
5.1376769101
 20
5.0193176499
 30
0.0
 10
5.1372268819
 20
5.0192251656
 30
0.0
 10
5.1365584045
 20
5.0191123445
 30
0.0
 10
5.1356295282
 20
5.0189827702
 30
0.0
 10
5.1345332639
 20
5.0188527487
 30
0.0
 10
5.1327396751
 20
5.0186677377
 30
0.0
 10
5.1300836292
 20
5.0184423444
 30
0.0
 10
5.1264042428
 20
5.0181834404
 30
0.0
 10
5.1220762507
 20
5.0179236093
 30
0.0
 10
5.1171095051
 20
5.017662971
 30
0.0
 10
5.1115154444
 20
5.0174018916
 30
0.0
 10
5.1053068145
 20
5.0171404303
 30
0.0
 10
5.0984979785
 20
5.0168787389
 30
0.0
 10
5.0911045107
 20
5.0166168431
 30
0.0
 10
5.083143448
 20
5.016354795
 30
0.0
 10
5.0714479433
 20
5.0159945685
 30
0.0
 10
5.0555575168
 20
5.015548709
 30
0.0
 10
5.0350687923
 20
5.0150272108
 30
0.0
 10
5.0128262189
 20
5.0145050901
 30
0.0
 10
4.9890342829
 20
5.0139824811
 30
0.0
 10
4.963911748
 20
5.0134595357
 30
0.0
 10
4.937689603
 20
5.0129363449
 30
0.0
 10
4.9106089889
 20
5.0124129836
 30
0.0
 10
4.882918909
 20
5.0118895102
 30
0.0
 10
4.854873975
 20
5.011365975
 30
0.0
 10
4.8267320554
 20
5.0108424234
 30
0.0
 10
4.7987519089
 20
5.0103188994
 30
0.0
 10
4.7711908281
 20
5.0097954495
 30
0.0
 10
4.7443022437
 20
5.0092721248
 30
0.0
 10
4.7183333989
 20
5.0087489877
 30
0.0
 10
4.6935230667
 20
5.0082261155
 30
0.0
 10
4.6700993603
 20
5.0077036164
 30
0.0
 10
4.6482776476
 20
5.0071816243
 30
0.0
 10
4.6282585738
 20
5.0066603938
 30
0.0
 10
4.6102262104
 20
5.0061401281
 30
0.0
 10
4.5965184955
 20
5.0056926777
 30
0.0
 10
4.5866685756
 20
5.0053296834
 30
0.0
 10
4.5801586904
 20
5.0050680839
 30
0.0
 10
4.5742563928
 20
5.0048068116
 30
0.0
 10
4.5689751932
 20
5.0045459105
 30
0.0
 10
4.5643272767
 20
5.004285677
 30
0.0
 10
4.5603231993
 20
5.0040261728
 30
0.0
 10
4.5573939017
 20
5.0038009419
 30
0.0
 10
4.555379712
 20
5.0036169116
 30
0.0
 10
4.5541171048
 20
5.0034865248
 30
0.0
 10
4.5530212825
 20
5.0033564864
 30
0.0
 10
4.552092684
 20
5.00322701
 30
0.0
 10
4.5513318188
 20
5.0030982741
 30
0.0
 10
4.5508825214
 20
5.0030021589
 30
0.0
 10
4.550687012
 20
5.0029514586
 30
0.0
  0
SPLINE
  5
3D6
100
AcDbEntity
  8
0
100
AcDbSpline
 62
7
  6
CONTINUOUS
 70
0
 71
3
 72
39
 73
35
 74
0
 42
0.0000001
 43
0.0000001
 44
0.0000000001
 40
0.0
 40
0.0
 40
0.0
 40
0.0
 40
0.0002487114
 40
0.0005722767
 40
0.0010086651
 40
0.0015735253
 40
0.0022738299
 40
0.0031130958
 40
0.0040932793
 40
0.0052155418
 40
0.0078887896
 40
0.0111361388
 40
0.0149586188
 40
0.0193554579
 40
0.0243249251
 40
0.0298649967
 40
0.0426477602
 40
0.0576795683
 40
0.0749294123
 40
0.0943632987
 40
0.1159396223
 40
0.139614566
 40
0.1653381667
 40
0.1930563413
 40
0.2227118007
 40
0.287579512
 40
0.359396749
 40
0.4375601407
 40
0.5214129365
 40
0.6102494623
 40
0.703324088
 40
0.7998493645
 40
0.8990248855
 40
1.0
 40
1.0
 40
1.0
 40
1.0
 10
5.1387264918
 20
5.2953822982
 30
0.0
 10
5.1387265029
 20
5.2953603666
 30
0.0
 10
5.1387083094
 20
5.2953100325
 30
0.0
 10
5.1386433105
 20
5.2952473644
 30
0.0
 10
5.1385436478
 20
5.2951856615
 30
0.0
 10
5.138406462
 20
5.2951241376
 30
0.0
 10
5.1382314002
 20
5.2950622388
 30
0.0
 10
5.1380179659
 20
5.2950001388
 30
0.0
 10
5.1377661038
 20
5.2949378419
 30
0.0
 10
5.137354322
 20
5.2948493837
 30
0.0
 10
5.1367425441
 20
5.2947414532
 30
0.0
 10
5.1358923134
 20
5.2946174931
 30
0.0
 10
5.1348887866
 20
5.2944931296
 30
0.0
 10
5.1337324603
 20
5.2943684166
 30
0.0
 10
5.1324239286
 20
5.2942434712
 30
0.0
 10
5.1303774621
 20
5.2940681874
 30
0.0
 10
5.1274440118
 20
5.2938529075
 30
0.0
 10
5.1234779376
 20
5.2936042389
 30
0.0
 10
5.1189243988
 20
5.2933549423
 30
0.0
 10
5.1137930305
 20
5.2931051789
 30
0.0
 10
5.1080945085
 20
5.292855067
 30
0.0
 10
5.1018408821
 20
5.2926047245
 30
0.0
 10
5.0950452728
 20
5.2923541966
 30
0.0
 10
5.0877219718
 20
5.2921035121
 30
0.0
 10
5.0769481363
 20
5.2917587378
 30
0.0
 10
5.0622862805
 20
5.291331979
 30
0.0
 10
5.0433473305
 20
5.2908330398
 30
0.0
 10
5.0227337445
 20
5.2903334994
 30
0.0
 10
5.0006189884
 20
5.2898334865
 30
0.0
 10
4.9771890398
 20
5.28933314
 30
0.0
 10
4.9526413849
 20
5.2888325547
 30
0.0
 10
4.927181851
 20
5.2883317811
 30
0.0
 10
4.9010255172
 20
5.2878308951
 30
0.0
 10
4.883379189
 20
5.2874989743
 30
0.0
 10
4.8744766796
 20
5.2873322981
 30
0.0
  0
SPLINE
  5
3D7
100
AcDbEntity
  8
0
100
AcDbSpline
 62
7
  6
CONTINUOUS
 70
0
 71
3
 72
29
 73
25
 74
0
 42
0.0000001
 43
0.0000001
 44
0.0000000001
 40
0.0
 40
0.0
 40
0.0
 40
0.0
 40
0.0020652296
 40
0.0046490818
 40
0.0077540712
 40
0.0113810477
 40
0.0201971754
 40
0.0310858373
 40
0.0440307175
 40
0.0590077029
 40
0.0759898521
 40
0.0949460499
 40
0.1158396907
 40
0.1386327322
 40
0.1897382978
 40
0.2478759471
 40
0.3126045545
 40
0.3834318234
 40
0.4598194564
 40
0.5411866736
 40
0.6269147029
 40
0.7163524982
 40
0.8088143944
 40
1.0
 40
1.0
 40
1.0
 40
1.0
 10
5.1379660547
 20
5.3082381376
 30
0.0
 10
5.1377903621
 20
5.3081925864
 30
0.0
 10
5.1373908921
 20
5.3081055097
 30
0.0
 10
5.136719542
 20
5.3079880973
 30
0.0
 10
5.1359092808
 20
5.3078700894
 30
0.0
 10
5.1345532846
 20
5.3077010171
 30
0.0
 10
5.1325128244
 20
5.3074959167
 30
0.0
 10
5.1296530075
 20
5.3072607818
 30
0.0
 10
5.1262502699
 20
5.3070247146
 30
0.0
 10
5.1223109904
 20
5.3067877804
 30
0.0
 10
5.1178426006
 20
5.3065503715
 30
0.0
 10
5.1128535993
 20
5.3063126149
 30
0.0
 10
5.1073534026
 20
5.3060745679
 30
0.0
 10
5.0990291828
 20
5.305744206
 30
0.0
 10
5.0874323548
 20
5.3053368084
 30
0.0
 10
5.0721502554
 20
5.3048632659
 30
0.0
 10
5.0551342085
 20
5.304388862
 30
0.0
 10
5.03651373
 20
5.3039137727
 30
0.0
 10
5.0164305511
 20
5.3034382214
 30
0.0
 10
4.9950374943
 20
5.3029623238
 30
0.0
 10
4.9724972699
 20
5.3024861741
 30
0.0
 10
4.9489817932
 20
5.302009837
 30
0.0
 10
4.9161997132
 20
5.3013673908
 30
0.0
 10
4.8912759655
 20
5.3008968208
 30
0.0
 10
4.8744766796
 20
5.3005822981
 30
0.0
  0
SPLINE
  5
3D8
100
AcDbEntity
  8
0
100
AcDbSpline
 62
7
  6
CONTINUOUS
 70
0
 71
3
 72
30
 73
26
 74
0
 42
0.0000001
 43
0.0000001
 44
0.0000000001
 40
0.0
 40
0.0
 40
0.0
 40
0.0
 40
0.0019559553
 40
0.0044345861
 40
0.0074380579
 40
0.0109669458
 40
0.0150210576
 40
0.0195994357
 40
0.0303207201
 40
0.0431127677
 40
0.0579537719
 40
0.0748150283
 40
0.0936659867
 40
0.1144705227
 40
0.137188912
 40
0.1881920069
 40
0.2462861229
 40
0.3110270161
 40
0.381919378
 40
0.458420804
 40
0.5399457558
 40
0.625869843
 40
0.7155361319
 40
0.8082532726
 40
1.0
 40
1.0
 40
1.0
 40
1.0
 10
5.1583649746
 20
5.3135264092
 30
0.0
 10
5.1581870209
 20
5.3134802848
 30
0.0
 10
5.1577792319
 20
5.3133926517
 30
0.0
 10
5.1570900365
 20
5.3132750606
 30
0.0
 10
5.1562513127
 20
5.3131568242
 30
0.0
 10
5.1552633898
 20
5.3130380969
 30
0.0
 10
5.154126558
 20
5.312919067
 30
0.0
 10
5.1523152949
 20
5.3127511286
 30
0.0
 10
5.1496829388
 20
5.3125455114
 30
0.0
 10
5.1460858784
 20
5.3123085991
 30
0.0
 10
5.1419107064
 20
5.3120710254
 30
0.0
 10
5.1371653155
 20
5.3118328527
 30
0.0
 10
5.1318588209
 20
5.3115943451
 30
0.0
 10
5.1260013472
 20
5.311355544
 30
0.0
 10
5.1171233193
 20
5.3110239518
 30
0.0
 10
5.1047410757
 20
5.3106151661
 30
0.0
 10
5.0884094583
 20
5.3101401181
 30
0.0
 10
5.0702078298
 20
5.30966419
 30
0.0
 10
5.0502756414
 20
5.3091875605
 30
0.0
 10
5.0287655682
 20
5.3087104598
 30
0.0
 10
5.0058423946
 20
5.3082330068
 30
0.0
 10
4.9816816491
 20
5.3077552961
 30
0.0
 10
4.9564687928
 20
5.3072773936
 30
0.0
 10
4.9213113785
 20
5.306632796
 30
0.0
 10
4.8945796764
 20
5.3061607113
 30
0.0
 10
4.8765607649
 20
5.305845166
 30
0.0
  0
ELLIPSE
  5
3D9
100
AcDbEntity
  8
0
100
AcDbEllipse
 62
7
  6
CONTINUOUS
 10
4.7056023585
 20
4.5768322981
 30
0.0
 11
-0.0398102322
 21
0.0
 31
0.0
 40
0.5023834047
 41
0.0
 42
1.5707963268
  0
ELLIPSE
  5
3DA
100
AcDbEntity
  8
0
100
AcDbEllipse
 62
7
  6
CONTINUOUS
 10
4.9830507844
 20
4.5768322981
 30
0.0
 11
-0.0398102322
 21
0.0
 31
0.0
 40
0.5023834047
 41
1.5707963268
 42
3.1415926536
  0
ELLIPSE
  5
3DB
100
AcDbEntity
  8
0
100
AcDbEllipse
 62
7
  6
CONTINUOUS
 10
4.6065938759
 20
4.5768322981
 30
0.0
 11
0.020289227
 21
0.0
 31
0.0
 40
0.985744801
 41
-1.5707963268
 42
0.0
  0
ELLIPSE
  5
3DC
100
AcDbEntity
  8
0
100
AcDbEllipse
 62
7
  6
CONTINUOUS
 10
5.082059267
 20
4.5768322981
 30
0.0
 11
0.020289227
 21
0.0
 31
0.0
 40
0.985744801
 41
-3.1415926536
 42
-1.5707963268
  0
ENDSEC
  0
SECTION
  2
OBJECTS
  0
DICTIONARY
  5
C
100
AcDbDictionary
280
0
281
1
  3
ACAD_GROUP
350
D
  3
ACAD_MLINESTYLE
350
17
  3
ACAD_LAYOUT
350
1A
  3
ACAD_PLOTSETTINGS
350
19
  3
ACAD_PLOTSTYLENAME
350
E
  0
DICTIONARY
  5
D
102
{ACAD_REACTORS
330
C
102
}
100
AcDbDictionary
280
0
281
1
  0
ACDBDICTIONARYWDFLT
  5
E
102
{ACAD_REACTORS
330
C
102
}
100
AcDbDictionary
281
1
  3
Normal
350
F
100
AcDbDictionaryWithDefault
340
F
  0
DICTIONARY
  5
17
102
{ACAD_REACTORS
330
C
102
}
100
AcDbDictionary
280
0
281
1
  3
Standard
350
18
  0
DICTIONARY
  5
19
102
{ACAD_REACTORS
330
C
102
}
100
AcDbDictionary
281
1
  0
DICTIONARY
  5
1A
102
{ACAD_REACTORS
330
C
102
}
100
AcDbDictionary
281
1
  3
Model
350
3DD
  3
Layout1
350
3DE
  0
ACDBPLACEHOLDER
  5
F
102
{ACAD_REACTORS
330
E
102
}
  0
MLINESTYLE
  5
18
102
{ACAD_REACTORS
330
17
102
}
100
AcDbMlineStyle
  2
STANDARD
 70
0
  3

 62
256
 51
90.0
 52
90.0
 71
2
 49
0.5
 62
256
  6
BYLAYER
 49
-0.5
 62
256
  6
BYLAYER
  0
LAYOUT
  5
3DD
102
{ACAD_REACTORS
330
1A
102
}
100
AcDbPlotSettings
  1

  2
none_device
  4
ANSI_A_(11.00_x_8.50_Inches)
  6

 40
0.0
 41
0.0
 42
0.0
 43
0.0
 44
279.4
 45
215.9
 46
0.0
 47
0.0
 48
0.0
 49
0.0
140
0.0
141
0.0
142
1.0
143
1.0
 70
1024
 72
0
 73
0
 74
0
  7

 75
0
147
1.0
148
0.0
149
0.0
100
AcDbLayout
  1
Model
 70
0
 71
0
 10
0.0
 20
0.0
 11
11.0
 21
8.5
 12
0.0
 22
0.0
 32
0.0
 14
0.0
 24
0.0
 34
0.0
 15
0.0
 25
0.0
 35
0.0
146
0.0
 13
0.0
 23
0.0
 33
0.0
 16
1.0
 26
0.0
 36
0.0
 17
0.0
 27
1.0
 37
0.0
 76
0
330
202
345
0
346
0
  0
LAYOUT
  5
3DE
102
{ACAD_REACTORS
330
1A
102
}
100
AcDbPlotSettings
  1

  2
none_device
  4
ANSI_A_(11.00_x_8.50_Inches)
  6

 40
0.0
 41
0.0
 42
0.0
 43
0.0
 44
279.4
 45
215.9
 46
0.0
 47
0.0
 48
0.0
 49
0.0
140
0.0
141
0.0
142
1.0
143
1.0
 70
0
 72
0
 73
0
 74
0
  7

 75
0
147
1.0
148
0.0
149
0.0
100
AcDbLayout
  1
Layout1
 70
0
 71
1
 10
0.0
 20
0.0
 11
11.0
 21
8.5
 12
0.0
 22
0.0
 32
0.0
 14
0.0
 24
0.0
 34
0.0
 15
0.0
 25
0.0
 35
0.0
146
0.0
 13
0.0
 23
0.0
 33
0.0
 16
1.0
 26
0.0
 36
0.0
 17
0.0
 27
1.0
 37
0.0
 76
0
330
203
345
0
346
0
  0
ENDSEC
  0
EOF
