999
DXF file: E:\BT Custom\CADOUTPUT\_TOP.dxf
999
Pro/ENGINEER 2018400 by Parametric Technology Corporation
  0
SECTION
  2
HEADER
  9
$ACADVER
  1
AC1018
  9
$DWGCODEPAGE
  3
ANSI_1252
  9
$EXTMAX
 10
22.0
 20
17.0
 30
0.0
  9
$EXTMIN
 10
0.0
 20
0.0
 30
0.0
  9
$LIMMIN
 10
0.0
 20
0.0
  9
$LIMMAX
 10
22.0
 20
17.0
  9
$VIEWCTR
 10
11.0
 20
8.5
  9
$VIEWSIZE
 40
17.0
  9
$CLAYER
  8
0
  9
$LTSCALE
 40
1.21
  9
$CELTYPE
  6
BYLAYER
  9
$DIMSCALE
 40
1.0
  9
$DIMASZ
 40
0.1
  9
$DIMEXO
 40
0.0625
  9
$DIMDLI
 40
0.836
  9
$DIMEXE
 40
0.125
  9
$DIMCEN
 40
0.198
  9
$DIMLFAC
 40
1.0
  9
$DIMBLK
  1
_FILLED
  9
$DIMALT
 70
1
  9
$DIMALTD
 70
2
  9
$DIMALTTD
 70
2
  9
$DIMALTF
 40
25.4
  9
$DIMTXT
 40
0.08
  9
$DIMTOL
 70
1
  9
$DIMLIM
 70
0
  9
$DIMTFAC
 40
1.0
  9
$DIMTP
 40
0.001
  9
$DIMTM
 40
0.001
  9
$DIMGAP
 40
0.09
  9
$DIMDSEP
 70
46
  9
$AUNITS
 70
0
  9
$PDMODE
 70
3
  9
$PDSIZE
 40
0.06
  9
$HANDSEED
  5
25D
  9
$TILEMODE
 70
1
  9
$MEASUREMENT
 70
0
  9
$INSUNITS
 70
1
  0
ENDSEC
  0
SECTION
  2
CLASSES
  0
CLASS
  1
ACDBDICTIONARYWDFLT
  2
AcDbDictionaryWithDefault
  3
AutoCAD 2000
 90
0
 91
1
280
0
281
0
  0
CLASS
  1
ACDBPLACEHOLDER
  2
AcDbPlaceHolder
  3
AutoCAD 2000
 90
0
 91
1
280
0
281
0
  0
CLASS
  1
LAYOUT
  2
AcDbLayout
  3
AutoCAD 2000
 90
0
 91
0
280
0
281
0
  0
ENDSEC
  0
SECTION
  2
TABLES
  0
TABLE
  2
VPORT
  5
8
100
AcDbSymbolTable
 70
2
  0
VPORT
  5
1F4
100
AcDbSymbolTableRecord
100
AcDbViewportTableRecord
  2
*ACTIVE
 70
0
 10
0.0
 20
0.0
 11
1.0
 21
1.0
 12
11.0
 22
8.5
 13
0.0
 23
0.0
 14
1.0
 24
1.0
 15
0.0
 25
0.0
 16
0.0
 26
0.0
 36
1.0
 17
0.0
 27
0.0
 37
0.0
 40
17.0
 41
1.2941176471
 42
50.0
 43
0.0
 44
0.0
 50
0.0
 51
0.0
 71
0
 72
100
 73
1
 74
1
 75
0
 76
0
 77
0
 78
0
  0
ENDTAB
  0
TABLE
  2
LTYPE
  5
5
100
AcDbSymbolTable
 70
6
  0
LTYPE
  5
14
100
AcDbSymbolTableRecord
100
AcDbLinetypeTableRecord
  2
BYBLOCK
 70
0
  3

 72
65
 73
0
 40
0.0
  0
LTYPE
  5
15
100
AcDbSymbolTableRecord
100
AcDbLinetypeTableRecord
  2
BYLAYER
 70
0
  3

 72
65
 73
0
 40
0.0
  0
LTYPE
  5
16
100
AcDbSymbolTableRecord
100
AcDbLinetypeTableRecord
  2
CONTINUOUS
 70
64
  3
Solid line
 72
65
 73
0
 40
0.0
  0
LTYPE
  5
1F5
100
AcDbSymbolTableRecord
100
AcDbLinetypeTableRecord
  2
CENTER
 70
64
  3
____ _ ____ _ ____ _ ____ _ ____ _ ____ _ ____
 72
65
 73
4
 40
0.6
 49
0.375
 74
0
 49
-0.075
 74
0
 49
0.075
 74
0
 49
-0.075
 74
0
  0
LTYPE
  5
1F6
100
AcDbSymbolTableRecord
100
AcDbLinetypeTableRecord
  2
HIDDEN
 70
64
  3
- - - - - - - - - - - - - - - - - - - -
 72
65
 73
2
 40
0.2
 49
0.1
 74
0
 49
-0.1
 74
0
  0
LTYPE
  5
1F7
100
AcDbSymbolTableRecord
100
AcDbLinetypeTableRecord
  2
PHANTOM
 70
64
  3
_____ _ _ _____ _ _ _____ _ _ _____
 72
65
 73
6
 40
0.8
 49
0.45
 74
0
 49
-0.05
 74
0
 49
0.1
 74
0
 49
-0.05
 74
0
 49
0.1
 74
0
 49
-0.05
 74
0
  0
LTYPE
  5
1F8
100
AcDbSymbolTableRecord
100
AcDbLinetypeTableRecord
  2
DOT
 70
64
  3
. . . . . . . . . . . . . . . . . . . .
 72
65
 73
2
 40
0.2
 49
0.1
 74
0
 49
-0.1
 74
0
  0
LTYPE
  5
1F9
100
AcDbSymbolTableRecord
100
AcDbLinetypeTableRecord
  2
DASHED
 70
64
  3
- - - - - - - - - - - - - - - - - - - -
 72
65
 73
2
 40
0.2
 49
0.1
 74
0
 49
-0.1
 74
0
  0
ENDTAB
  0
TABLE
  2
LAYER
  5
2
100
AcDbSymbolTable
 70
36
  0
LAYER
  5
10
100
AcDbSymbolTableRecord
100
AcDbLayerTableRecord
  2
0
 70
0
 62
7
  6
CONTINUOUS
370
-3
390
F
  0
LAYER
  5
1FA
100
AcDbSymbolTableRecord
100
AcDbLayerTableRecord
  2
DEFAULT_1
 70
0
 62
7
  6
CENTER
370
-3
390
F
  0
LAYER
  5
1FB
100
AcDbSymbolTableRecord
100
AcDbLayerTableRecord
  2
DEFAULT_2
 70
0
 62
8
  6
HIDDEN
370
-3
390
F
  0
LAYER
  5
1FC
100
AcDbSymbolTableRecord
100
AcDbLayerTableRecord
  2
DEFAULT_3
 70
0
 62
7
  6
PHANTOM
370
-3
390
F
  0
LAYER
  5
1FD
100
AcDbSymbolTableRecord
100
AcDbLayerTableRecord
  2
ALL_FEATURES
 70
0
 62
7
  6
CONTINUOUS
370
-3
390
F
  0
LAYER
  5
1FE
100
AcDbSymbolTableRecord
100
AcDbLayerTableRecord
  2
AXES_FEATURES
 70
0
 62
7
  6
CONTINUOUS
370
-3
390
F
  0
LAYER
  5
1FF
100
AcDbSymbolTableRecord
100
AcDbLayerTableRecord
  2
DEFAULT_COORDINATE_SYSTEM
 70
0
 62
7
  6
CONTINUOUS
370
-3
390
F
  0
LAYER
  5
200
100
AcDbSymbolTableRecord
100
AcDbLayerTableRecord
  2
DEFAULT_DATUM_AXES
 70
0
 62
7
  6
CONTINUOUS
370
-3
390
F
  0
LAYER
  5
201
100
AcDbSymbolTableRecord
100
AcDbLayerTableRecord
  2
DEFAULT_DATUM_PLANES
 70
0
 62
7
  6
CONTINUOUS
370
-3
390
F
  0
LAYER
  5
202
100
AcDbSymbolTableRecord
100
AcDbLayerTableRecord
  2
DIMENSIONS
 70
0
 62
7
  6
CONTINUOUS
370
-3
390
F
  0
ENDTAB
  0
TABLE
  2
STYLE
  5
3
100
AcDbSymbolTable
 70
1
  0
STYLE
  5
11
100
AcDbSymbolTableRecord
100
AcDbTextStyleTableRecord
  2
STANDARD
 70
0
 40
0.0
 41
0.8
 50
0.0
 71
0
 42
0.2
  3
txt
  4

  0
STYLE
  5
203
100
AcDbSymbolTableRecord
100
AcDbTextStyleTableRecord
  2
TEXTSTYLE_1
 70
0
 40
0.0
 41
0.8
 50
0.0
 71
0
 42
0.2
  3
gdt
  4

  0
ENDTAB
  0
TABLE
  2
VIEW
  5
6
100
AcDbSymbolTable
 70
0
  0
ENDTAB
  0
TABLE
  2
UCS
  5
7
100
AcDbSymbolTable
 70
0
  0
ENDTAB
  0
TABLE
  2
APPID
  5
9
100
AcDbSymbolTable
 70
1
  0
APPID
  5
204
100
AcDbSymbolTableRecord
100
AcDbRegAppTableRecord
  2
ACAD
 70
0
  0
ENDTAB
  0
TABLE
  2
BLOCK_RECORD
  5
1
100
AcDbSymbolTable
 70
0
  0
BLOCK_RECORD
  5
205
100
AcDbSymbolTableRecord
100
AcDbBlockTableRecord
  2
*Model_Space
  0
BLOCK_RECORD
  5
206
100
AcDbSymbolTableRecord
100
AcDbBlockTableRecord
  2
*Paper_Space
  0
BLOCK_RECORD
  5
207
100
AcDbSymbolTableRecord
100
AcDbBlockTableRecord
  2
_FILLED
  0
ENDTAB
  0
TABLE
  2
DIMSTYLE
  5
A
100
AcDbSymbolTable
 70
1
100
AcDbDimStyleTable
 71
0
  0
DIMSTYLE
105
208
100
AcDbSymbolTableRecord
100
AcDbDimStyleTableRecord
  2
STANDARD
 70
0
  3

  4

 40
1.0
 41
0.1
 42
0.0625
 43
0.38
 44
0.125
 45
0.0
 46
0.0
 47
0.001
 48
0.001
140
0.08
141
0.09
142
0.0
143
25.4
144
1.0
145
0.0
146
1.0
147
0.09
 71
1.0
 72
0.0
 73
1
 74
1
 75
0
 76
0
 77
0
 78
4
 79
1
170
1
171
2
172
0
173
0
174
0
175
0
176
0
177
0
178
0
270
2
179
3
271
3
272
3
273
2
274
2
275
0
280
0
281
0
282
0
283
1
284
4
285
0
286
0
287
3
288
0
340
11
278
46
341
207
342
207
343
207
344
207
  0
ENDTAB
  0
ENDSEC
  0
SECTION
  2
BLOCKS
  0
BLOCK
  5
20
100
AcDbEntity
  8
0
100
AcDbBlockBegin
  2
*Model_Space
 70
0
 10
0.0
 20
0.0
 30
0.0
  3
*Model_Space
  1

  0
ENDBLK
  5
21
100
AcDbEntity
  8
0
100
AcDbBlockEnd
  0
BLOCK
  5
1C
100
AcDbEntity
  8
0
100
AcDbBlockBegin
  2
*Paper_Space
 70
0
 10
0.0
 20
0.0
 30
0.0
  3
*Paper_Space
  1

  0
ENDBLK
  5
1D
100
AcDbEntity
  8
0
100
AcDbBlockEnd
  0
BLOCK
  5
209
100
AcDbEntity
  8
0
100
AcDbBlockBegin
  2
_FILLED
 70
64
 10
0.0
 20
0.0
  3
_FILLED
  1

  0
SOLID
  5
20A
100
AcDbEntity
  8
0
  6
BYBLOCK
 62
0
100
AcDbTrace
 10
0.0
 20
0.0
 11
-1.0
 21
0.2
 12
-1.0
 22
-0.2
 13
-1.0
 23
-0.2
  0
ENDBLK
  5
20B
100
AcDbEntity
  8
0
  6
BYBLOCK
 62
0
100
AcDbBlockEnd
  0
ENDSEC
  0
SECTION
  2
ENTITIES
  0
LINE
  5
20C
100
AcDbEntity
  8
0
100
AcDbLine
 62
9
  6
CONTINUOUS
 10
10.0513891239
 20
8.7289176789
 11
10.0860301401
 21
8.7489176789
  0
LINE
  5
20D
100
AcDbEntity
  8
0
100
AcDbLine
 62
9
  6
CONTINUOUS
 10
11.5452829455
 20
9.5914176789
 11
11.5799239616
 21
9.6114176789
  0
LINE
  5
20E
100
AcDbEntity
  8
0
100
AcDbLine
 62
9
  6
CONTINUOUS
 10
10.514712715
 20
9.6114176789
 11
10.0513891239
 21
8.8089176789
  0
LINE
  5
20F
100
AcDbEntity
  8
0
100
AcDbLine
 62
7
  6
CONTINUOUS
 10
10.532033223
 20
9.6014176789
 11
10.068709632
 21
8.7989176789
  0
LINE
  5
210
100
AcDbEntity
  8
0
100
AcDbLine
 62
9
  6
CONTINUOUS
 10
10.5493537311
 20
9.5914176789
 11
10.0860301401
 21
8.7889176789
  0
LINE
  5
211
100
AcDbEntity
  8
0
100
AcDbLine
 62
9
  6
CONTINUOUS
 10
11.2973183383
 20
6.1840679398
 11
10.7973183383
 21
6.1840679398
  0
LINE
  5
212
100
AcDbEntity
  8
0
100
AcDbLine
 62
9
  6
CONTINUOUS
 10
10.514712715
 20
7.9264176789
 11
10.5493537311
 21
7.9464176789
  0
LINE
  5
213
100
AcDbEntity
  8
0
100
AcDbLine
 62
9
  6
CONTINUOUS
 10
12.0086065365
 20
8.7889176789
 11
12.0432475526
 21
8.8089176789
  0
LINE
  5
214
100
AcDbEntity
  8
0
100
AcDbLine
 62
9
  6
CONTINUOUS
 10
10.5839947473
 20
7.8864176789
 11
10.5839947473
 21
7.9264176789
  0
LINE
  5
215
100
AcDbEntity
  8
0
100
AcDbLine
 62
9
  6
CONTINUOUS
 10
10.5839947473
 20
9.6114176789
 11
10.5839947473
 21
9.6514176789
  0
LINE
  5
216
100
AcDbEntity
  8
0
100
AcDbLine
 62
7
  6
CONTINUOUS
 10
10.7973183383
 20
8.0586163828
 11
10.7973183383
 21
5.2871781612
  0
LINE
  5
217
100
AcDbEntity
  8
0
100
AcDbLine
 62
9
  6
CONTINUOUS
 10
10.0513891239
 20
8.7289176789
 11
10.514712715
 21
7.9264176789
  0
LINE
  5
218
100
AcDbEntity
  8
0
100
AcDbLine
 62
7
  6
CONTINUOUS
 10
10.068709632
 20
8.7389176789
 11
10.532033223
 21
7.9364176789
  0
LINE
  5
219
100
AcDbEntity
  8
0
100
AcDbLine
 62
9
  6
CONTINUOUS
 10
10.0860301401
 20
8.7489176789
 11
10.5493537311
 21
7.9464176789
  0
LINE
  5
21A
100
AcDbEntity
  8
0
100
AcDbLine
 62
9
  6
CONTINUOUS
 10
11.5452829455
 20
7.9464176789
 11
12.0086065365
 21
8.7489176789
  0
LINE
  5
21B
100
AcDbEntity
  8
0
100
AcDbLine
 62
7
  6
CONTINUOUS
 10
11.2973183383
 20
8.0586180583
 11
11.2973183383
 21
5.2871781612
  0
LWPOLYLINE
  5
21C
100
AcDbEntity
  8
0
100
AcDbPolyline
 62
7
  6
CONTINUOUS
 90
24
 70
0
 10
11.2973181144
 20
8.0586180626
 10
11.2974411173
 20
8.0624579931
 10
11.2977817825
 20
8.066062835
 10
11.2983288139
 20
8.0695844324
 10
11.2990701409
 20
8.0730115192
 10
11.2999932672
 20
8.0763341256
 10
11.3010853887
 20
8.0795435583
 10
11.3023335043
 20
8.0826323736
 10
11.3037245192
 20
8.0855943407
 10
11.3052453408
 20
8.0884243996
 10
11.3068829666
 20
8.091118612
 10
11.3086245632
 20
8.0936741066
 10
11.3104575381
 20
8.0960890221
 10
11.3123696042
 20
8.0983624469
 10
11.314348835
 20
8.1004943555
 10
11.3163838635
 20
8.1024856838
 10
11.3184626193
 20
8.1043370937
 10
11.3205711799
 20
8.106048436
 10
11.3226957125
 20
8.1076207665
 10
11.3248228188
 20
8.1090564366
 10
11.3269400296
 20
8.1103591841
 10
11.3290314069
 20
8.1115314926
 10
11.3309586305
 20
8.112517426
 10
11.3331015474
 20
8.1135136818
  0
LINE
  5
21D
100
AcDbEntity
  8
0
100
AcDbLine
 62
7
  6
CONTINUOUS
 10
11.5626034535
 20
7.9364176789
 11
12.0259270446
 21
8.7389176789
  0
LINE
  5
21E
100
AcDbEntity
  8
0
100
AcDbLine
 62
9
  6
CONTINUOUS
 10
11.5799239616
 20
7.9264176789
 11
12.0432475526
 21
8.7289176789
  0
LINE
  5
21F
100
AcDbEntity
  8
0
100
AcDbLine
 62
9
  6
CONTINUOUS
 10
11.5106419293
 20
7.8864176789
 11
11.5106419293
 21
7.9264176789
  0
LINE
  5
220
100
AcDbEntity
  8
0
100
AcDbLine
 62
9
  6
CONTINUOUS
 10
11.5106419293
 20
9.6114176789
 11
11.5106419293
 21
9.6514176789
  0
LINE
  5
221
100
AcDbEntity
  8
0
100
AcDbLine
 62
9
  6
CONTINUOUS
 10
10.5839947473
 20
7.8864176789
 11
10.7973183383
 21
7.8864176789
  0
LINE
  5
222
100
AcDbEntity
  8
0
100
AcDbLine
 62
9
  6
CONTINUOUS
 10
11.2973183383
 20
7.8864176789
 11
11.5106419293
 21
7.8864176789
  0
LINE
  5
223
100
AcDbEntity
  8
0
100
AcDbLine
 62
7
  6
CONTINUOUS
 10
10.5839947473
 20
7.9064176789
 11
10.7973183383
 21
7.9064176789
  0
LINE
  5
224
100
AcDbEntity
  8
0
100
AcDbLine
 62
7
  6
CONTINUOUS
 10
11.2973183383
 20
7.9064176789
 11
11.5106419293
 21
7.9064176789
  0
LINE
  5
225
100
AcDbEntity
  8
0
100
AcDbLine
 62
9
  6
CONTINUOUS
 10
10.5839947473
 20
7.9264176789
 11
10.7973183383
 21
7.9264176789
  0
LINE
  5
226
100
AcDbEntity
  8
0
100
AcDbLine
 62
9
  6
CONTINUOUS
 10
11.2973183383
 20
7.9264176789
 11
11.5106419293
 21
7.9264176789
  0
LWPOLYLINE
  5
227
100
AcDbEntity
  8
0
100
AcDbPolyline
 62
7
  6
CONTINUOUS
 90
12
 70
0
 10
10.7613198131
 20
8.1136057282
 10
10.7660702369
 20
8.1112780622
 10
10.7710191263
 20
8.1082571956
 10
10.7758605231
 20
8.1045999017
 10
10.7804824372
 20
8.1002922243
 10
10.7847676947
 20
8.0953397324
 10
10.7885979061
 20
8.0897689196
 10
10.7918575359
 20
8.0836279023
 10
10.794438205
 20
8.0769859754
 10
10.7962425416
 20
8.0699333766
 10
10.7971885305
 20
8.0625792291
 10
10.7973195481
 20
8.0586163834
  0
LINE
  5
228
100
AcDbEntity
  8
0
100
AcDbLine
 62
9
  6
CONTINUOUS
 10
10.0513891239
 20
8.8089176789
 11
10.0860301401
 21
8.7889176789
  0
LINE
  5
229
100
AcDbEntity
  8
0
100
AcDbLine
 62
9
  6
CONTINUOUS
 10
11.5452829455
 20
7.9464176789
 11
11.5799239616
 21
7.9264176789
  0
LINE
  5
22A
100
AcDbEntity
  8
0
100
AcDbLine
 62
9
  6
CONTINUOUS
 10
10.514712715
 20
9.6114176789
 11
10.5493537311
 21
9.5914176789
  0
LINE
  5
22B
100
AcDbEntity
  8
0
100
AcDbLine
 62
9
  6
CONTINUOUS
 10
12.0086065365
 20
8.7489176789
 11
12.0432475526
 21
8.7289176789
  0
LINE
  5
22C
100
AcDbEntity
  8
0
100
AcDbLine
 62
9
  6
CONTINUOUS
 10
12.0086065365
 20
8.7889176789
 11
11.5452829455
 21
9.5914176789
  0
LINE
  5
22D
100
AcDbEntity
  8
0
100
AcDbLine
 62
7
  6
CONTINUOUS
 10
12.0259270446
 20
8.7989176789
 11
11.5626034535
 21
9.6014176789
  0
LINE
  5
22E
100
AcDbEntity
  8
0
100
AcDbLine
 62
9
  6
CONTINUOUS
 10
12.0432475526
 20
8.8089176789
 11
11.5799239616
 21
9.6114176789
  0
LINE
  5
22F
100
AcDbEntity
  8
0
100
AcDbLine
 62
9
  6
CONTINUOUS
 10
11.5106419293
 20
9.6114176789
 11
10.5839947473
 21
9.6114176789
  0
LINE
  5
230
100
AcDbEntity
  8
0
100
AcDbLine
 62
7
  6
CONTINUOUS
 10
11.5106419293
 20
9.6314176789
 11
10.5839947473
 21
9.6314176789
  0
LINE
  5
231
100
AcDbEntity
  8
0
100
AcDbLine
 62
9
  6
CONTINUOUS
 10
11.5106419293
 20
9.6514176789
 11
10.5839947473
 21
9.6514176789
  0
ARC
  5
232
100
AcDbEntity
  8
0
100
AcDbCircle
 62
9
  6
CONTINUOUS
 10
10.5839947473
 20
9.5714176789
 40
0.08
100
AcDbArc
 50
90.0
 51
150.0
  0
ARC
  5
233
100
AcDbEntity
  8
0
100
AcDbCircle
 62
9
  6
CONTINUOUS
 10
10.1206711562
 20
8.7689176789
 40
0.08
100
AcDbArc
 50
150.0
 51
210.0
  0
ARC
  5
234
100
AcDbEntity
  8
0
100
AcDbCircle
 62
9
  6
CONTINUOUS
 10
10.5839947473
 20
7.9664176789
 40
0.08
100
AcDbArc
 50
210.0
 51
270.0
  0
ARC
  5
235
100
AcDbEntity
  8
0
100
AcDbCircle
 62
7
  6
CONTINUOUS
 10
10.5839947473
 20
7.9664176789
 40
0.06
100
AcDbArc
 50
210.0
 51
270.0
  0
ARC
  5
236
100
AcDbEntity
  8
0
100
AcDbCircle
 62
7
  6
CONTINUOUS
 10
10.1206711562
 20
8.7689176789
 40
0.06
100
AcDbArc
 50
150.0
 51
210.0
  0
ARC
  5
237
100
AcDbEntity
  8
0
100
AcDbCircle
 62
7
  6
CONTINUOUS
 10
10.5839947473
 20
9.5714176789
 40
0.06
100
AcDbArc
 50
90.0
 51
150.0
  0
ARC
  5
238
100
AcDbEntity
  8
0
100
AcDbCircle
 62
9
  6
CONTINUOUS
 10
10.1206711562
 20
8.7689176789
 40
0.04
100
AcDbArc
 50
150.0
 51
210.0
  0
ARC
  5
239
100
AcDbEntity
  8
0
100
AcDbCircle
 62
9
  6
CONTINUOUS
 10
10.5839947473
 20
9.5714176789
 40
0.04
100
AcDbArc
 50
90.0
 51
150.0
  0
ARC
  5
23A
100
AcDbEntity
  8
0
100
AcDbCircle
 62
9
  6
CONTINUOUS
 10
10.5839947473
 20
7.9664176789
 40
0.04
100
AcDbArc
 50
210.0
 51
270.0
  0
ARC
  5
23B
100
AcDbEntity
  8
0
100
AcDbCircle
 62
9
  6
CONTINUOUS
 10
11.1336786319
 20
5.288310942
 40
0.1637537088
100
AcDbArc
 50
343.3309623441
 51
345.0349859062
  0
ARC
  5
23C
100
AcDbEntity
  8
0
100
AcDbCircle
 62
9
  6
CONTINUOUS
 10
11.1368032243
 20
5.2875512428
 40
0.1605389311
100
AcDbArc
 50
345.0089581765
 51
352.5962739904
  0
ARC
  5
23D
100
AcDbEntity
  8
0
100
AcDbCircle
 62
9
  6
CONTINUOUS
 10
11.1396355847
 20
5.287180615
 40
0.1576824256
100
AcDbArc
 50
352.5972040251
 51
359.9991083696
  0
ARC
  5
23E
100
AcDbEntity
  8
0
100
AcDbCircle
 62
7
  6
CONTINUOUS
 10
11.0473183383
 20
8.7689176789
 40
1.115
100
AcDbArc
 50
282.9792199105
 51
257.0207800895
  0
ARC
  5
23F
100
AcDbEntity
  8
0
100
AcDbCircle
 62
9
  6
CONTINUOUS
 10
11.0473183383
 20
8.7689176789
 40
1.105
100
AcDbArc
 50
283.0987666247
 51
256.9012333753
  0
ARC
  5
240
100
AcDbEntity
  8
0
100
AcDbCircle
 62
9
  6
CONTINUOUS
 10
11.0473183383
 20
8.7689176789
 40
1.0196410162
100
AcDbArc
 50
284.1985651763
 51
255.8014348239
  0
ARC
  5
241
100
AcDbEntity
  8
0
100
AcDbCircle
 62
9
  6
CONTINUOUS
 10
11.0473183383
 20
8.7689176789
 40
1.0096410162
100
AcDbArc
 50
284.3433728238
 51
255.6566271854
  0
ARC
  5
242
100
AcDbEntity
  8
0
100
AcDbCircle
 62
7
  6
CONTINUOUS
 10
11.0473183383
 20
8.7689176789
 40
0.715
100
AcDbArc
 50
281.5798750557
 51
258.4201249443
  0
CIRCLE
  5
243
100
AcDbEntity
  8
0
100
AcDbCircle
 62
9
  6
CONTINUOUS
 10
11.0473183383
 20
8.7689176789
 40
0.658087044
  0
ARC
  5
244
100
AcDbEntity
  8
0
100
AcDbCircle
 62
9
  6
CONTINUOUS
 10
11.5106419293
 20
7.9664176789
 40
0.08
100
AcDbArc
 50
270.0
 51
330.0
  0
ARC
  5
245
100
AcDbEntity
  8
0
100
AcDbCircle
 62
9
  6
CONTINUOUS
 10
11.9739655203
 20
8.7689176789
 40
0.08
100
AcDbArc
 50
330.0
 51
30.0
  0
ARC
  5
246
100
AcDbEntity
  8
0
100
AcDbCircle
 62
9
  6
CONTINUOUS
 10
11.5106419293
 20
9.5714176789
 40
0.08
100
AcDbArc
 50
30.0
 51
90.0
  0
ARC
  5
247
100
AcDbEntity
  8
0
100
AcDbCircle
 62
7
  6
CONTINUOUS
 10
11.5106419293
 20
7.9664176789
 40
0.06
100
AcDbArc
 50
270.0
 51
330.0
  0
ARC
  5
248
100
AcDbEntity
  8
0
100
AcDbCircle
 62
7
  6
CONTINUOUS
 10
11.9739655203
 20
8.7689176789
 40
0.06
100
AcDbArc
 50
330.0
 51
30.0
  0
ARC
  5
249
100
AcDbEntity
  8
0
100
AcDbCircle
 62
7
  6
CONTINUOUS
 10
11.5106419293
 20
9.5714176789
 40
0.06
100
AcDbArc
 50
30.0
 51
90.0
  0
ARC
  5
24A
100
AcDbEntity
  8
0
100
AcDbCircle
 62
9
  6
CONTINUOUS
 10
11.5106419293
 20
9.5714176789
 40
0.04
100
AcDbArc
 50
30.0
 51
90.0
  0
ARC
  5
24B
100
AcDbEntity
  8
0
100
AcDbCircle
 62
9
  6
CONTINUOUS
 10
11.9739655203
 20
8.7689176789
 40
0.04
100
AcDbArc
 50
330.0
 51
30.0
  0
ARC
  5
24C
100
AcDbEntity
  8
0
100
AcDbCircle
 62
9
  6
CONTINUOUS
 10
11.5106419293
 20
7.9664176789
 40
0.04
100
AcDbArc
 50
270.0
 51
330.0
  0
SPLINE
  5
24D
100
AcDbEntity
  8
0
100
AcDbSpline
 62
7
  6
CONTINUOUS
 70
0
 71
3
 72
22
 73
18
 74
0
 42
0.0000001
 43
0.0000001
 44
0.0000000001
 40
0.0
 40
0.0
 40
0.0
 40
0.0
 40
0.1351507195
 40
0.2022790265
 40
0.2688380151
 40
0.3346685782
 40
0.3996392072
 40
0.4636549571
 40
0.5266574883
 40
0.5886285878
 40
0.6495916285
 40
0.709609759
 40
0.7687826283
 40
0.8272425108
 40
0.8851460408
 40
0.9426705743
 40
1.0
 40
1.0
 40
1.0
 40
1.0
 10
11.0473183377
 20
5.0826271445
 30
0.0
 10
11.0311971251
 20
5.0826271445
 30
0.0
 10
11.0070094447
 20
5.0845297407
 30
0.0
 10
10.9755478871
 20
5.0908576892
 30
0.0
 10
10.9526460001
 20
5.097436489
 30
0.0
 10
10.9306122847
 20
5.1058042675
 30
0.0
 10
10.9096466532
 20
5.1158957933
 30
0.0
 10
10.8899454382
 20
5.1276323468
 30
0.0
 10
10.8716947316
 20
5.1409217605
 30
0.0
 10
10.8550722034
 20
5.1556589013
 30
0.0
 10
10.8402471137
 20
5.17172541
 30
0.0
 10
10.8273783241
 20
5.1889864486
 30
0.0
 10
10.8166125034
 20
5.2072893637
 30
0.0
 10
10.8080825458
 20
5.2264620399
 30
0.0
 10
10.8019015262
 20
5.2463129409
 30
0.0
 10
10.7981558513
 20
5.2666250647
 30
0.0
 10
10.7973183383
 20
5.2803397229
 30
0.0
 10
10.7973183383
 20
5.2871781612
 30
0.0
  0
SPLINE
  5
24E
100
AcDbEntity
  8
0
100
AcDbSpline
 62
7
  6
CONTINUOUS
 70
0
 71
3
 72
22
 73
18
 74
0
 42
0.0000001
 43
0.0000001
 44
0.0000000001
 40
0.0
 40
0.0
 40
0.0
 40
0.0
 40
0.057329219
 40
0.1148535262
 40
0.1727570757
 40
0.2312170568
 40
0.2903900864
 40
0.3504084318
 40
0.4113716981
 40
0.4733430143
 40
0.5363457305
 40
0.6003616188
 40
0.665332315
 40
0.7311628551
 40
0.7977217988
 40
0.8648499297
 40
1.0
 40
1.0
 40
1.0
 40
1.0
 10
11.2973183383
 20
5.2871781612
 30
0.0
 10
11.2973183383
 20
5.2803397475
 30
0.0
 10
11.2964808485
 20
5.2666251395
 30
0.0
 10
11.2927351697
 20
5.2463130663
 30
0.0
 10
11.2865541792
 20
5.2264621711
 30
0.0
 10
11.2780242276
 20
5.2072894546
 30
0.0
 10
11.2672583771
 20
5.188986491
 30
0.0
 10
11.2543895511
 20
5.1717253899
 30
0.0
 10
11.2395644013
 20
5.1556588288
 30
0.0
 10
11.2229418056
 20
5.1409216513
 30
0.0
 10
11.2046910401
 20
5.1276322083
 30
0.0
 10
11.184989768
 20
5.1158956582
 30
0.0
 10
11.1640241046
 20
5.1058041501
 30
0.0
 10
11.141990385
 20
5.0974363815
 30
0.0
 10
11.1190885142
 20
5.0908576301
 30
0.0
 10
11.0876270548
 20
5.0845297234
 30
0.0
 10
11.063439473
 20
5.0826271444
 30
0.0
 10
11.0473183377
 20
5.0826271445
 30
0.0
  0
SPLINE
  5
24F
100
AcDbEntity
  8
0
100
AcDbSpline
 62
9
  6
CONTINUOUS
 70
0
 71
3
 72
21
 73
17
 74
0
 42
0.0000001
 43
0.0000001
 44
0.0000000001
 40
0.0
 40
0.0
 40
0.0
 40
0.0
 40
0.0551689676
 40
0.1106472116
 40
0.166726835
 40
0.2236681808
 40
0.2816882125
 40
0.3409511545
 40
0.401565152
 40
0.4635817579
 40
0.5269961135
 40
0.5917518423
 40
0.7247180394
 40
0.7927248331
 40
0.8614412729
 40
1.0
 40
1.0
 40
1.0
 40
1.0
 10
11.2973180103
 20
5.3906542274
 30
0.0
 10
11.2973180103
 20
5.3841611484
 30
0.0
 10
11.2965091889
 20
5.3711243435
 30
0.0
 10
11.2928840311
 20
5.3517917597
 30
0.0
 10
11.2868838437
 20
5.3328394119
 30
0.0
 10
11.2785715816
 20
5.3144556217
 30
0.0
 10
11.2680300269
 20
5.296817666
 30
0.0
 10
11.2553652392
 20
5.2800947237
 30
0.0
 10
11.2407027263
 20
5.2644450483
 30
0.0
 10
11.224185048
 20
5.2500182174
 30
0.0
 10
11.2059707922
 20
5.2369490086
 30
0.0
 10
11.1794401543
 20
5.2213676982
 30
0.0
 10
11.1504479436
 20
5.2091679764
 30
0.0
 10
11.1198838044
 20
5.2005084162
 30
0.0
 10
11.0880784587
 20
5.194197204
 30
0.0
 10
11.0636259258
 20
5.1923007993
 30
0.0
 10
11.0473183383
 20
5.1923007993
 30
0.0
  0
SPLINE
  5
250
100
AcDbEntity
  8
0
100
AcDbSpline
 62
9
  6
CONTINUOUS
 70
0
 71
3
 72
22
 73
18
 74
0
 42
0.0000001
 43
0.0000001
 44
0.0000000001
 40
0.0
 40
0.0
 40
0.0
 40
0.0
 40
0.0552115796
 40
0.1111873772
 40
0.1680767429
 40
0.2259960828
 40
0.2850285087
 40
0.3452221506
 40
0.4065906335
 40
0.4691159195
 40
0.5327478435
 40
0.5974106417
 40
0.6630036549
 40
0.7294037965
 40
0.863967769
 40
0.9319139454
 40
1.0
 40
1.0
 40
1.0
 40
1.0
 10
11.290551024
 20
5.2413393572
 30
0.0
 10
11.2889321251
 20
5.2359320468
 30
0.0
 10
11.2851089246
 20
5.2252028969
 30
0.0
 10
11.2777467903
 20
5.2096479162
 30
0.0
 10
11.2687734118
 20
5.1946392621
 30
0.0
 10
11.2582546166
 20
5.1802833053
 30
0.0
 10
11.2462652529
 20
5.166678631
 30
0.0
 10
11.2328892288
 20
5.1539203274
 30
0.0
 10
11.2182220272
 20
5.1420945877
 30
0.0
 10
11.2023647275
 20
5.131285113
 30
0.0
 10
11.185429689
 20
5.1215636944
 30
0.0
 10
11.1675339205
 20
5.1129996516
 30
0.0
 10
11.1488013106
 20
5.1056499324
 30
0.0
 10
11.1227780684
 20
5.0975051481
 30
0.0
 10
11.0957320887
 20
5.0920353354
 30
0.0
 10
11.0681913238
 20
5.0892868845
 30
0.0
 10
11.0542789882
 20
5.0888247331
 30
0.0
 10
11.0473183383
 20
5.0888247331
 30
0.0
  0
SPLINE
  5
251
100
AcDbEntity
  8
0
100
AcDbSpline
 62
9
  6
CONTINUOUS
 70
0
 71
3
 72
37
 73
33
 74
0
 42
0.0000001
 43
0.0000001
 44
0.0000000001
 40
0.0
 40
0.0
 40
0.0
 40
0.0
 40
0.0000746624
 40
0.000166987
 40
0.0002959717
 40
0.0006639143
 40
0.001178476
 40
0.0018396428
 40
0.0026474005
 40
0.0047026317
 40
0.0073438007
 40
0.0105683053
 40
0.0143723919
 40
0.0187523007
 40
0.0237042752
 40
0.0292245635
 40
0.0419550924
 40
0.0569110408
 40
0.0740455528
 40
0.0933077321
 40
0.1146469471
 40
0.1380119294
 40
0.1633465269
 40
0.2196944176
 40
0.283235195
 40
0.3535178978
 40
0.4301019346
 40
0.5125689682
 40
0.600521566
 40
0.6935922269
 40
0.7914470238
 40
1.0
 40
1.0
 40
1.0
 40
1.0
 10
11.2973179196
 20
8.0586152383
 30
0.0
 10
11.2973146492
 20
8.0586145677
 30
0.0
 10
11.2973085603
 20
8.0586096595
 30
0.0
 10
11.2972966433
 20
8.0586041163
 30
0.0
 10
11.2972735745
 20
8.0585912481
 30
0.0
 10
11.2972336315
 20
8.0585701316
 30
0.0
 10
11.2971728966
 20
8.0585372872
 30
0.0
 10
11.2970947785
 20
8.0584953126
 30
0.0
 10
11.2969560361
 20
8.0584205922
 30
0.0
 10
11.2967393367
 20
8.0583039226
 30
0.0
 10
11.296427524
 20
8.0581359514
 30
0.0
 10
11.2960467816
 20
8.057931055
 30
0.0
 10
11.2955973927
 20
8.0576896572
 30
0.0
 10
11.2950796842
 20
8.0574122169
 30
0.0
 10
11.2944939828
 20
8.0570991921
 30
0.0
 10
11.2935783663
 20
8.056611303
 30
0.0
 10
11.2922665351
 20
8.0559157704
 30
0.0
 10
11.2904932119
 20
8.0549820287
 30
0.0
 10
11.2884574115
 20
8.0539199464
 30
0.0
 10
11.2861632541
 20
8.0527360577
 30
0.0
 10
11.2836150518
 20
8.051437032
 30
0.0
 10
11.28081737
 20
8.0500296376
 30
0.0
 10
11.2766089376
 20
8.0479434727
 30
0.0
 10
11.2707626157
 20
8.045116966
 30
0.0
 10
11.2630548503
 20
8.0415249518
 30
0.0
 10
11.2544636514
 20
8.0376890902
 30
0.0
 10
11.2450259824
 20
8.0336770492
 30
0.0
 10
11.2347783841
 20
8.0295556739
 30
0.0
 10
11.2237561232
 20
8.0253914996
 30
0.0
 10
11.2119931455
 20
8.0212491391
 30
0.0
 10
11.1950063684
 20
8.0157218393
 30
0.0
 10
11.18181512
 20
8.0119883671
 30
0.0
 10
11.172776986
 20
8.0096921707
 30
0.0
  0
SPLINE
  5
252
100
AcDbEntity
  8
0
100
AcDbSpline
 62
9
  6
CONTINUOUS
 70
0
 71
3
 72
20
 73
16
 74
0
 42
0.0000001
 43
0.0000001
 44
0.0000000001
 40
0.0
 40
0.0
 40
0.0
 40
0.0
 40
0.0411364931
 40
0.083369126
 40
0.1275820647
 40
0.1745251582
 40
0.2247648298
 40
0.2786594695
 40
0.3363730467
 40
0.3979364244
 40
0.4632454806
 40
0.532111666
 40
0.6792280049
 40
0.8364377497
 40
1.0
 40
1.0
 40
1.0
 40
1.0
 10
11.1908430312
 20
8.0684709197
 30
0.0
 10
11.1899516129
 20
8.0682882641
 30
0.0
 10
11.1881760056
 20
8.067745766
 30
0.0
 10
11.1856586965
 20
8.066439522
 30
0.0
 10
11.1832966136
 20
8.0646498316
 30
0.0
 10
11.1811101945
 20
8.0623988155
 30
0.0
 10
11.1791140848
 20
8.0597080418
 30
0.0
 10
11.1773220694
 20
8.0566008908
 30
0.0
 10
11.175746105
 20
8.0531034379
 30
0.0
 10
11.1744000242
 20
8.0492438278
 30
0.0
 10
11.1732921999
 20
8.0450541706
 30
0.0
 10
11.1721220259
 20
8.0389388821
 30
0.0
 10
11.1713456615
 20
8.0306997256
 30
0.0
 10
11.1714684046
 20
8.0203352922
 30
0.0
 10
11.1722287206
 20
8.0132683855
 30
0.0
 10
11.1727769858
 20
8.0096921706
 30
0.0
  0
SPLINE
  5
253
100
AcDbEntity
  8
0
100
AcDbSpline
 62
9
  6
CONTINUOUS
 70
0
 71
3
 72
21
 73
17
 74
0
 42
0.0000001
 43
0.0000001
 44
0.0000000001
 40
0.0
 40
0.0
 40
0.0
 40
0.0
 40
0.1385587271
 40
0.2072751669
 40
0.2752819606
 40
0.4082481577
 40
0.4730038865
 40
0.5364182421
 40
0.598434848
 40
0.6590488455
 40
0.7183117875
 40
0.7763318192
 40
0.833273165
 40
0.8893527884
 40
0.9448310324
 40
1.0
 40
1.0
 40
1.0
 40
1.0
 10
11.0473183383
 20
5.1923007993
 30
0.0
 10
11.0310107508
 20
5.1923007993
 30
0.0
 10
11.0065582179
 20
5.194197204
 30
0.0
 10
10.9747528722
 20
5.2005084162
 30
0.0
 10
10.944188733
 20
5.2091679764
 30
0.0
 10
10.9151965223
 20
5.2213676982
 30
0.0
 10
10.8886658843
 20
5.2369490086
 30
0.0
 10
10.8704516286
 20
5.2500182174
 30
0.0
 10
10.8539339503
 20
5.2644450483
 30
0.0
 10
10.8392714373
 20
5.2800947237
 30
0.0
 10
10.8266066496
 20
5.296817666
 30
0.0
 10
10.8160650949
 20
5.3144556217
 30
0.0
 10
10.8077528328
 20
5.3328394119
 30
0.0
 10
10.8017526454
 20
5.3517917597
 30
0.0
 10
10.7981274877
 20
5.3711243435
 30
0.0
 10
10.7973186662
 20
5.3841611484
 30
0.0
 10
10.7973186662
 20
5.3906542274
 30
0.0
  0
SPLINE
  5
254
100
AcDbEntity
  8
0
100
AcDbSpline
 62
9
  6
CONTINUOUS
 70
0
 71
3
 72
14
 73
10
 74
0
 42
0.0000001
 43
0.0000001
 44
0.0000000001
 40
0.0
 40
0.0
 40
0.0
 40
0.0
 40
0.2450508984
 40
0.3693597065
 40
0.4945079764
 40
0.6203363963
 40
0.7466542236
 40
0.8732731021
 40
1.0
 40
1.0
 40
1.0
 40
1.0
 10
11.1908430313
 20
8.0684709197
 30
0.0
 10
11.179308544
 20
8.066107528
 30
0.0
 10
11.1617345486
 20
8.0634451817
 30
0.0
 10
11.1380961887
 20
8.0610452222
 30
0.0
 10
11.1201117773
 20
8.0597074175
 30
0.0
 10
11.1020074798
 20
8.0587606019
 30
0.0
 10
11.0838191211
 20
8.0581209676
 30
0.0
 10
11.065580113
 20
8.0577606225
 30
0.0
 10
11.0534072705
 20
8.0576868888
 30
0.0
 10
11.0473183383
 20
8.0576868308
 30
0.0
  0
SPLINE
  5
255
100
AcDbEntity
  8
0
100
AcDbSpline
 62
9
  6
CONTINUOUS
 70
0
 71
3
 72
14
 73
10
 74
0
 42
0.0000001
 43
0.0000001
 44
0.0000000001
 40
0.0
 40
0.0
 40
0.0
 40
0.0
 40
0.1267268788
 40
0.2533457831
 40
0.3796637001
 40
0.5054922892
 40
0.6306406318
 40
0.754949187
 40
1.0
 40
1.0
 40
1.0
 40
1.0
 10
11.0473183383
 20
8.0576868308
 30
0.0
 10
11.0412294066
 20
8.0576868365
 30
0.0
 10
11.0290565624
 20
8.0577604969
 30
0.0
 10
11.0108175477
 20
8.0581208102
 30
0.0
 10
10.992629176
 20
8.0587605016
 30
0.0
 10
10.9745248652
 20
8.0597073813
 30
0.0
 10
10.9565404539
 20
8.0610451936
 30
0.0
 10
10.9329021099
 20
8.0634451909
 30
0.0
 10
10.9153281246
 20
8.0661075063
 30
0.0
 10
10.9037936453
 20
8.0684709197
 30
0.0
  0
SPLINE
  5
256
100
AcDbEntity
  8
0
100
AcDbSpline
 62
9
  6
CONTINUOUS
 70
0
 71
3
 72
42
 73
38
 74
0
 42
0.0000001
 43
0.0000001
 44
0.0000000001
 40
0.0
 40
0.0
 40
0.0
 40
0.0
 40
0.2085658179
 40
0.3064260789
 40
0.3995016574
 40
0.487458456
 40
0.5699286591
 40
0.6465144194
 40
0.7167976928
 40
0.7803394029
 40
0.8094418311
 40
0.8366890284
 40
0.8620232608
 40
0.8853863222
 40
0.9067217382
 40
0.9259789214
 40
0.943108135
 40
0.9580594033
 40
0.96470322
 40
0.9707865204
 40
0.9763055088
 40
0.9812563842
 40
0.9856353405
 40
0.9894385669
 40
0.9926622479
 40
0.9953025735
 40
0.9964030199
 40
0.9973568695
 40
0.9981640966
 40
0.9988246758
 40
0.9993385812
 40
0.9995405233
 40
0.9997057874
 40
0.9998343702
 40
0.9999262686
 40
0.9999814795
 40
1.0
 40
1.0
 40
1.0
 40
1.0
 10
10.9218596906
 20
8.0096921707
 30
0.0
 10
10.9128209173
 20
8.0119885046
 30
0.0
 10
10.8996287256
 20
8.0157220852
 30
0.0
 10
10.8826408486
 20
8.0212498592
 30
0.0
 10
10.8708772188
 20
8.0253926518
 30
0.0
 10
10.8598544219
 20
8.0295572463
 30
0.0
 10
10.8496064121
 20
8.0336789352
 30
0.0
 10
10.8401684096
 20
8.0376910425
 30
0.0
 10
10.8315769307
 20
8.0415268043
 30
0.0
 10
10.8249734311
 20
8.0446045592
 30
0.0
 10
10.8201397803
 20
8.0469230051
 30
0.0
 10
10.8168573126
 20
8.0485248786
 30
0.0
 10
10.8138149443
 20
8.0500334236
 30
0.0
 10
10.8110174893
 20
8.0514407185
 30
0.0
 10
10.8084694616
 20
8.0527390841
 30
0.0
 10
10.806175499
 20
8.0539220228
 30
0.0
 10
10.8041399289
 20
8.0549831408
 30
0.0
 10
10.8026076064
 20
8.055789502
 30
0.0
 10
10.8015137746
 20
8.0563685068
 30
0.0
 10
10.8007932773
 20
8.0567512855
 30
0.0
 10
10.8001401357
 20
8.0570994979
 30
0.0
 10
10.7995546746
 20
8.0574126664
 30
0.0
 10
10.7990372193
 20
8.057690314
 30
0.0
 10
10.7985880948
 20
8.0579319635
 30
0.0
 10
10.7982076279
 20
8.0581371421
 30
0.0
 10
10.7979336252
 20
8.0582851275
 30
0.0
 10
10.7977489354
 20
8.0583849031
 30
0.0
 10
10.7976363699
 20
8.0584457338
 30
0.0
 10
10.7975411073
 20
8.0584972197
 30
0.0
 10
10.7974631758
 20
8.0585393788
 30
0.0
 10
10.7974090101
 20
8.0585686359
 30
0.0
 10
10.7973744118
 20
8.0585874313
 30
0.0
 10
10.7973548125
 20
8.0585979016
 30
0.0
 10
10.7973399194
 20
8.0586063426
 30
0.0
 10
10.7973284685
 20
8.0586117158
 30
0.0
 10
10.7973230429
 20
8.0586161409
 30
0.0
 10
10.7973190269
 20
8.0586167999
 30
0.0
 10
10.7973187683
 20
8.0586175866
 30
0.0
  0
SPLINE
  5
257
100
AcDbEntity
  8
0
100
AcDbSpline
 62
9
  6
CONTINUOUS
 70
0
 71
3
 72
15
 73
11
 74
0
 42
0.0000001
 43
0.0000001
 44
0.0000000001
 40
0.0
 40
0.0
 40
0.0
 40
0.0
 40
0.1307326687
 40
0.2609709087
 40
0.3900596945
 40
0.5174236447
 40
0.6425531427
 40
0.7649535827
 40
0.8842290093
 40
1.0
 40
1.0
 40
1.0
 40
1.0
 10
11.0473183383
 20
8.0014559827
 30
0.0
 10
11.0418265312
 20
8.0014559912
 30
0.0
 10
11.0308636674
 20
8.0014635855
 30
0.0
 10
11.0144782344
 20
8.0015509168
 30
0.0
 10
10.9982351748
 20
8.0017583894
 30
0.0
 10
10.9822110466
 20
8.0022090006
 30
0.0
 10
10.9664818787
 20
8.003032209
 30
0.0
 10
10.9511285583
 20
8.0043949551
 30
0.0
 10
10.9362505208
 20
8.0064770857
 30
0.0
 10
10.9265732831
 20
8.0084947925
 30
0.0
 10
10.9218596906
 20
8.0096921707
 30
0.0
  0
SPLINE
  5
258
100
AcDbEntity
  8
0
100
AcDbSpline
 62
9
  6
CONTINUOUS
 70
0
 71
3
 72
21
 73
17
 74
0
 42
0.0000001
 43
0.0000001
 44
0.0000000001
 40
0.0
 40
0.0
 40
0.0
 40
0.0
 40
0.1385587271
 40
0.2072751669
 40
0.2752819606
 40
0.4082481577
 40
0.4730038865
 40
0.5364182421
 40
0.598434848
 40
0.6590488455
 40
0.7183117875
 40
0.7763318192
 40
0.833273165
 40
0.8893527884
 40
0.9448310324
 40
1.0
 40
1.0
 40
1.0
 40
1.0
 10
11.0473183383
 20
5.0888247331
 30
0.0
 10
11.0310107508
 20
5.0888247331
 30
0.0
 10
11.0065582179
 20
5.0907211377
 30
0.0
 10
10.9747528722
 20
5.0970323499
 30
0.0
 10
10.944188733
 20
5.1056919102
 30
0.0
 10
10.9151965223
 20
5.117891632
 30
0.0
 10
10.8886658843
 20
5.1334729423
 30
0.0
 10
10.8704516286
 20
5.1465421512
 30
0.0
 10
10.8539339503
 20
5.1609689821
 30
0.0
 10
10.8392714373
 20
5.1766186575
 30
0.0
 10
10.8266066496
 20
5.1933415998
 30
0.0
 10
10.8160650949
 20
5.2109795554
 30
0.0
 10
10.8077528328
 20
5.2293633457
 30
0.0
 10
10.8017526454
 20
5.2483156935
 30
0.0
 10
10.7981274877
 20
5.2676482772
 30
0.0
 10
10.7973186662
 20
5.2806850822
 30
0.0
 10
10.7973186662
 20
5.2871781612
 30
0.0
  0
SPLINE
  5
259
100
AcDbEntity
  8
0
100
AcDbSpline
 62
9
  6
CONTINUOUS
 70
0
 71
3
 72
15
 73
11
 74
0
 42
0.0000001
 43
0.0000001
 44
0.0000000001
 40
0.0
 40
0.0
 40
0.0
 40
0.0
 40
0.1157709602
 40
0.2350463355
 40
0.357447049
 40
0.4825769427
 40
0.6099409011
 40
0.7390293974
 40
0.8692674013
 40
1.0
 40
1.0
 40
1.0
 40
1.0
 10
11.172776986
 20
8.0096921707
 30
0.0
 10
11.1680633434
 20
8.0084950049
 30
0.0
 10
11.15838612
 20
8.0064773452
 30
0.0
 10
11.1435080959
 20
8.0043950688
 30
0.0
 10
11.1281547319
 20
8.0030325692
 30
0.0
 10
11.1124255338
 20
8.002209599
 30
0.0
 10
11.0964014116
 20
8.0017589389
 30
0.0
 10
11.0801583832
 20
8.0015513753
 30
0.0
 10
11.0637729847
 20
8.001463897
 30
0.0
 10
11.0528101396
 20
8.0014561103
 30
0.0
 10
11.0473183383
 20
8.0014559827
 30
0.0
  0
SPLINE
  5
25A
100
AcDbEntity
  8
0
100
AcDbSpline
 62
9
  6
CONTINUOUS
 70
0
 71
3
 72
20
 73
16
 74
0
 42
0.0000001
 43
0.0000001
 44
0.0000000001
 40
0.0
 40
0.0
 40
0.0
 40
0.0
 40
0.0411351497
 40
0.0833667664
 40
0.1275790096
 40
0.1745216952
 40
0.2247612001
 40
0.2786558669
 40
0.3363696213
 40
0.397933287
 40
0.4632427051
 40
0.5321092965
 40
0.6792264946
 40
0.8364370506
 40
1.0
 40
1.0
 40
1.0
 40
1.0
 10
10.9037936453
 20
8.0684709197
 30
0.0
 10
10.9046850315
 20
8.0682882707
 30
0.0
 10
10.906460581
 20
8.0677457822
 30
0.0
 10
10.9089778105
 20
8.0664395523
 30
0.0
 10
10.9113398306
 20
8.0646498736
 30
0.0
 10
10.9135262033
 20
8.0623988671
 30
0.0
 10
10.9155222822
 20
8.0597081004
 30
0.0
 10
10.9173142816
 20
8.0566009538
 30
0.0
 10
10.9188902435
 20
8.0531035024
 30
0.0
 10
10.9202363341
 20
8.0492438914
 30
0.0
 10
10.9213441788
 20
8.045054231
 30
0.0
 10
10.9225143927
 20
8.0389389352
 30
0.0
 10
10.9232908259
 20
8.030699768
 30
0.0
 10
10.9231681785
 20
8.0203353163
 30
0.0
 10
10.9224079234
 20
8.0132683937
 30
0.0
 10
10.9218596906
 20
8.0096921707
 30
0.0
  0
ENDSEC
  0
SECTION
  2
OBJECTS
  0
DICTIONARY
  5
C
100
AcDbDictionary
280
0
281
1
  3
ACAD_GROUP
350
D
  3
ACAD_MLINESTYLE
350
17
  3
ACAD_LAYOUT
350
1A
  3
ACAD_PLOTSETTINGS
350
19
  3
ACAD_PLOTSTYLENAME
350
E
  0
DICTIONARY
  5
D
102
{ACAD_REACTORS
330
C
102
}
100
AcDbDictionary
280
0
281
1
  0
ACDBDICTIONARYWDFLT
  5
E
102
{ACAD_REACTORS
330
C
102
}
100
AcDbDictionary
281
1
  3
Normal
350
F
100
AcDbDictionaryWithDefault
340
F
  0
DICTIONARY
  5
17
102
{ACAD_REACTORS
330
C
102
}
100
AcDbDictionary
280
0
281
1
  3
Standard
350
18
  0
DICTIONARY
  5
19
102
{ACAD_REACTORS
330
C
102
}
100
AcDbDictionary
281
1
  0
DICTIONARY
  5
1A
102
{ACAD_REACTORS
330
C
102
}
100
AcDbDictionary
281
1
  3
Model
350
25B
  3
Layout1
350
25C
  0
ACDBPLACEHOLDER
  5
F
102
{ACAD_REACTORS
330
E
102
}
  0
MLINESTYLE
  5
18
102
{ACAD_REACTORS
330
17
102
}
100
AcDbMlineStyle
  2
STANDARD
 70
0
  3

 62
256
 51
90.0
 52
90.0
 71
2
 49
0.5
 62
256
  6
BYLAYER
 49
-0.5
 62
256
  6
BYLAYER
  0
LAYOUT
  5
25B
102
{ACAD_REACTORS
330
1A
102
}
100
AcDbPlotSettings
  1

  2
none_device
  4
ANSI_C_(22.00_x_17.00_Inches)
  6

 40
0.0
 41
0.0
 42
0.0
 43
0.0
 44
558.8
 45
431.8
 46
0.0
 47
0.0
 48
0.0
 49
0.0
140
0.0
141
0.0
142
1.0
143
1.0
 70
1024
 72
0
 73
0
 74
0
  7

 75
0
147
1.0
148
0.0
149
0.0
100
AcDbLayout
  1
Model
 70
0
 71
0
 10
0.0
 20
0.0
 11
22.0
 21
17.0
 12
0.0
 22
0.0
 32
0.0
 14
0.0
 24
0.0
 34
0.0
 15
0.0
 25
0.0
 35
0.0
146
0.0
 13
0.0
 23
0.0
 33
0.0
 16
1.0
 26
0.0
 36
0.0
 17
0.0
 27
1.0
 37
0.0
 76
0
330
205
345
0
346
0
  0
LAYOUT
  5
25C
102
{ACAD_REACTORS
330
1A
102
}
100
AcDbPlotSettings
  1

  2
none_device
  4
ANSI_C_(22.00_x_17.00_Inches)
  6

 40
0.0
 41
0.0
 42
0.0
 43
0.0
 44
558.8
 45
431.8
 46
0.0
 47
0.0
 48
0.0
 49
0.0
140
0.0
141
0.0
142
1.0
143
1.0
 70
0
 72
0
 73
0
 74
0
  7

 75
0
147
1.0
148
0.0
149
0.0
100
AcDbLayout
  1
Layout1
 70
0
 71
1
 10
0.0
 20
0.0
 11
22.0
 21
17.0
 12
0.0
 22
0.0
 32
0.0
 14
0.0
 24
0.0
 34
0.0
 15
0.0
 25
0.0
 35
0.0
146
0.0
 13
0.0
 23
0.0
 33
0.0
 16
1.0
 26
0.0
 36
0.0
 17
0.0
 27
1.0
 37
0.0
 76
0
330
206
345
0
346
0
  0
ENDSEC
  0
EOF
