999
DXF file: 3220-5751_front.dxf
999
Pro/ENGINEER 2013150 by Parametric Technology Corporation
  0
SECTION
  2
HEADER
  9
$ACADVER
  1
AC1021
  9
$DWGCODEPAGE
  3
ANSI_1252
  9
$EXTMAX
 10
11.0
 20
8.5
 30
0.0
  9
$EXTMIN
 10
0.0
 20
0.0
 30
0.0
  9
$LIMMIN
 10
0.0
 20
0.0
  9
$LIMMAX
 10
11.0
 20
8.5
  9
$VIEWCTR
 10
5.5
 20
4.25
  9
$VIEWSIZE
 40
8.5
  9
$CLAYER
  8
0
  9
$LTSCALE
 40
0.605
  9
$CELTYPE
  6
BYLAYER
  9
$DIMSCALE
 40
1.0
  9
$DIMASZ
 40
0.1
  9
$DIMEXO
 40
0.0625
  9
$DIMDLI
 40
0.418
  9
$DIMEXE
 40
0.125
  9
$DIMCEN
 40
0.099
  9
$DIMLFAC
 40
1.0
  9
$DIMBLK
  1
_FILLED
  9
$DIMTXT
 40
0.08
  9
$DIMTOL
 70
1
  9
$DIMLIM
 70
0
  9
$DIMTFAC
 40
1.0
  9
$DIMTP
 40
0.001
  9
$DIMTM
 40
0.001
  9
$DIMGAP
 40
0.09
  9
$DIMDSEP
 70
46
  9
$PDMODE
 70
3
  9
$PDSIZE
 40
0.3125
  9
$HANDSEED
  5
265
  9
$TILEMODE
 70
1
  9
$MEASUREMENT
 70
0
  9
$INSUNITS
 70
1
  0
ENDSEC
  0
SECTION
  2
CLASSES
  0
CLASS
  1
ACDBDICTIONARYWDFLT
  2
AcDbDictionaryWithDefault
  3
AutoCAD 2000
 90
0
 91
1
280
0
281
0
  0
CLASS
  1
ACDBPLACEHOLDER
  2
AcDbPlaceHolder
  3
AutoCAD 2000
 90
0
 91
1
280
0
281
0
  0
CLASS
  1
LAYOUT
  2
AcDbLayout
  3
AutoCAD 2000
 90
0
 91
0
280
0
281
0
  0
ENDSEC
  0
SECTION
  2
TABLES
  0
TABLE
  2
VPORT
  5
8
100
AcDbSymbolTable
 70
2
  0
VPORT
  5
1F4
100
AcDbSymbolTableRecord
100
AcDbViewportTableRecord
  2
*ACTIVE
 70
0
 10
0.0
 20
0.0
 11
1.0
 21
1.0
 12
5.5
 22
4.25
 13
0.0
 23
0.0
 14
1.0
 24
1.0
 15
0.0
 25
0.0
 16
0.0
 26
0.0
 36
1.0
 17
0.0
 27
0.0
 37
0.0
 40
8.5
 41
1.2941176471
 42
50.0
 43
0.0
 44
0.0
 50
0.0
 51
0.0
 71
0
 72
100
 73
1
 74
1
 75
0
 76
0
 77
0
 78
0
  0
ENDTAB
  0
TABLE
  2
LTYPE
  5
5
100
AcDbSymbolTable
 70
6
  0
LTYPE
  5
14
100
AcDbSymbolTableRecord
100
AcDbLinetypeTableRecord
  2
BYBLOCK
 70
0
  3

 72
65
 73
0
 40
0.0
  0
LTYPE
  5
15
100
AcDbSymbolTableRecord
100
AcDbLinetypeTableRecord
  2
BYLAYER
 70
0
  3

 72
65
 73
0
 40
0.0
  0
LTYPE
  5
16
100
AcDbSymbolTableRecord
100
AcDbLinetypeTableRecord
  2
CONTINUOUS
 70
64
  3
Solid line
 72
65
 73
0
 40
0.0
  0
LTYPE
  5
1F5
100
AcDbSymbolTableRecord
100
AcDbLinetypeTableRecord
  2
CENTER
 70
64
  3
____ _ ____ _ ____ _ ____ _ ____ _ ____ _ ____
 72
65
 73
4
 40
0.6
 49
0.375
 74
0
 49
-0.075
 74
0
 49
0.075
 74
0
 49
-0.075
 74
0
  0
LTYPE
  5
1F6
100
AcDbSymbolTableRecord
100
AcDbLinetypeTableRecord
  2
HIDDEN
 70
64
  3
- - - - - - - - - - - - - - - - - - - -
 72
65
 73
2
 40
0.2
 49
0.1
 74
0
 49
-0.1
 74
0
  0
LTYPE
  5
1F7
100
AcDbSymbolTableRecord
100
AcDbLinetypeTableRecord
  2
PHANTOM
 70
64
  3
_____ _ _ _____ _ _ _____ _ _ _____
 72
65
 73
6
 40
0.8
 49
0.45
 74
0
 49
-0.05
 74
0
 49
0.1
 74
0
 49
-0.05
 74
0
 49
0.1
 74
0
 49
-0.05
 74
0
  0
LTYPE
  5
1F8
100
AcDbSymbolTableRecord
100
AcDbLinetypeTableRecord
  2
DOT
 70
64
  3
. . . . . . . . . . . . . . . . . . . .
 72
65
 73
2
 40
0.2
 49
0.1
 74
0
 49
-0.1
 74
0
  0
LTYPE
  5
1F9
100
AcDbSymbolTableRecord
100
AcDbLinetypeTableRecord
  2
DASHED
 70
64
  3
- - - - - - - - - - - - - - - - - - - -
 72
65
 73
2
 40
0.2
 49
0.1
 74
0
 49
-0.1
 74
0
  0
ENDTAB
  0
TABLE
  2
LAYER
  5
2
100
AcDbSymbolTable
 70
36
  0
LAYER
  5
10
100
AcDbSymbolTableRecord
100
AcDbLayerTableRecord
  2
0
 70
0
 62
7
  6
CONTINUOUS
370
-3
390
F
  0
LAYER
  5
1FA
100
AcDbSymbolTableRecord
100
AcDbLayerTableRecord
  2
DEFAULT_1
 70
0
 62
7
  6
CENTER
370
-3
390
F
  0
LAYER
  5
1FB
100
AcDbSymbolTableRecord
100
AcDbLayerTableRecord
  2
DEFAULT_2
 70
0
 62
8
  6
HIDDEN
370
-3
390
F
  0
LAYER
  5
1FC
100
AcDbSymbolTableRecord
100
AcDbLayerTableRecord
  2
DEFAULT_3
 70
0
 62
7
  6
PHANTOM
370
-3
390
F
  0
LAYER
  5
1FD
100
AcDbSymbolTableRecord
100
AcDbLayerTableRecord
  2
ALL_FEATURES
 70
0
 62
7
  6
CONTINUOUS
370
-3
390
F
  0
LAYER
  5
1FE
100
AcDbSymbolTableRecord
100
AcDbLayerTableRecord
  2
AXES_FEATURES
 70
0
 62
7
  6
CONTINUOUS
370
-3
390
F
  0
LAYER
  5
1FF
100
AcDbSymbolTableRecord
100
AcDbLayerTableRecord
  2
DATUM_CURVES
 70
0
 62
7
  6
CONTINUOUS
370
-3
390
F
  0
LAYER
  5
200
100
AcDbSymbolTableRecord
100
AcDbLayerTableRecord
  2
DEFAULT_COORDINATE_SYSTEM
 70
0
 62
7
  6
CONTINUOUS
370
-3
390
F
  0
LAYER
  5
201
100
AcDbSymbolTableRecord
100
AcDbLayerTableRecord
  2
DEFAULT_DATUM_AXES
 70
0
 62
7
  6
CONTINUOUS
370
-3
390
F
  0
LAYER
  5
202
100
AcDbSymbolTableRecord
100
AcDbLayerTableRecord
  2
DEFAULT_DATUM_CURVES
 70
0
 62
7
  6
CONTINUOUS
370
-3
390
F
  0
LAYER
  5
203
100
AcDbSymbolTableRecord
100
AcDbLayerTableRecord
  2
DEFAULT_DATUM_PLANES
 70
0
 62
7
  6
CONTINUOUS
370
-3
390
F
  0
LAYER
  5
204
100
AcDbSymbolTableRecord
100
AcDbLayerTableRecord
  2
DIMENSIONS
 70
0
 62
7
  6
CONTINUOUS
370
-3
390
F
  0
LAYER
  5
205
100
AcDbSymbolTableRecord
100
AcDbLayerTableRecord
  2
LAY0001
 70
0
 62
7
  6
CONTINUOUS
370
-3
390
F
  0
LAYER
  5
206
100
AcDbSymbolTableRecord
100
AcDbLayerTableRecord
  2
PROTRUSION_FEATURES
 70
0
 62
7
  6
CONTINUOUS
370
-3
390
F
  0
LAYER
  5
207
100
AcDbSymbolTableRecord
100
AcDbLayerTableRecord
  2
SIZE_REF
 70
0
 62
7
  6
CONTINUOUS
370
-3
390
F
  0
ENDTAB
  0
TABLE
  2
STYLE
  5
3
100
AcDbSymbolTable
 70
1
  0
STYLE
  5
11
100
AcDbSymbolTableRecord
100
AcDbTextStyleTableRecord
  2
STANDARD
 70
0
 40
0.0
 41
0.8
 50
0.0
 71
0
 42
0.2
  3
txt
  4

  0
STYLE
  5
208
100
AcDbSymbolTableRecord
100
AcDbTextStyleTableRecord
  2
TEXTSTYLE_1
 70
0
 40
0.0
 41
0.8
 50
0.0
 71
0
 42
0.2
  3
gdt
  4

  0
ENDTAB
  0
TABLE
  2
VIEW
  5
6
100
AcDbSymbolTable
 70
0
  0
ENDTAB
  0
TABLE
  2
UCS
  5
7
100
AcDbSymbolTable
 70
0
  0
ENDTAB
  0
TABLE
  2
APPID
  5
9
100
AcDbSymbolTable
 70
1
  0
APPID
  5
209
100
AcDbSymbolTableRecord
100
AcDbRegAppTableRecord
  2
ACAD
 70
0
  0
ENDTAB
  0
TABLE
  2
BLOCK_RECORD
  5
1
100
AcDbSymbolTable
 70
0
  0
BLOCK_RECORD
  5
20A
100
AcDbSymbolTableRecord
100
AcDbBlockTableRecord
  2
*Model_Space
  0
BLOCK_RECORD
  5
20B
100
AcDbSymbolTableRecord
100
AcDbBlockTableRecord
  2
*Paper_Space
  0
ENDTAB
  0
TABLE
  2
DIMSTYLE
  5
A
100
AcDbSymbolTable
 70
1
100
AcDbDimStyleTable
 71
0
  0
DIMSTYLE
105
20C
100
AcDbSymbolTableRecord
100
AcDbDimStyleTableRecord
  2
STANDARD
 70
0
  3

  4

 40
1.0
 41
0.1
 42
0.0625
 43
0.38
 44
0.125
 45
0.0
 46
0.0
 47
0.001
 48
0.001
140
0.08
141
0.09
142
0.0
143
25.4
144
1.0
145
0.0
146
1.0
147
0.09
 71
1.0
 72
0.0
 73
1
 74
1
 75
0
 76
0
 77
0
 78
4
170
0
171
2
172
0
173
0
174
0
175
0
176
0
177
0
178
0
270
2
271
3
272
3
273
2
274
2
275
0
280
0
281
0
282
0
283
1
284
4
285
0
286
0
287
3
288
0
340
11
278
46
  0
ENDTAB
  0
ENDSEC
  0
SECTION
  2
BLOCKS
  0
BLOCK
  5
20
100
AcDbEntity
  8
0
100
AcDbBlockBegin
  2
*Model_Space
 70
0
 10
0.0
 20
0.0
 30
0.0
  3
*Model_Space
  1

  0
ENDBLK
  5
21
100
AcDbEntity
  8
0
100
AcDbBlockEnd
  0
BLOCK
  5
1C
100
AcDbEntity
  8
0
100
AcDbBlockBegin
  2
*Paper_Space
 70
0
 10
0.0
 20
0.0
 30
0.0
  3
*Paper_Space
  1

  0
ENDBLK
  5
1D
100
AcDbEntity
  8
0
100
AcDbBlockEnd
  0
ENDSEC
  0
SECTION
  2
ENTITIES
  0
LINE
  5
20D
100
AcDbEntity
  8
0
100
AcDbLine
 62
7
  6
CONTINUOUS
 10
0.0
 20
0.0
 11
0.0
 21
8.5
  0
LINE
  5
20E
100
AcDbEntity
  8
0
100
AcDbLine
 62
7
  6
CONTINUOUS
 10
0.0
 20
0.0
 11
11.0
 21
0.0
  0
LINE
  5
20F
100
AcDbEntity
  8
0
100
AcDbLine
 62
7
  6
CONTINUOUS
 10
0.0
 20
8.5
 11
11.0
 21
8.5
  0
LINE
  5
210
100
AcDbEntity
  8
0
100
AcDbLine
 62
7
  6
CONTINUOUS
 10
11.0
 20
0.0
 11
11.0
 21
8.5
  0
LINE
  5
211
100
AcDbEntity
  8
0
100
AcDbLine
 62
7
  6
CONTINUOUS
 10
4.1719688275
 20
3.0115911911
 11
6.4019688275
 21
3.0115911911
  0
LINE
  5
212
100
AcDbEntity
  8
0
100
AcDbLine
 62
7
  6
CONTINUOUS
 10
6.4019688275
 20
3.1488091588
 11
4.1719688275
 21
3.1488091588
  0
LINE
  5
213
100
AcDbEntity
  8
0
100
AcDbLine
 62
7
  6
CONTINUOUS
 10
6.3919688275
 20
3.1661296668
 11
4.1819688275
 21
3.1661296668
  0
LINE
  5
214
100
AcDbEntity
  8
0
100
AcDbLine
 62
7
  6
CONTINUOUS
 10
4.1719688275
 20
3.0115911911
 11
4.1719688275
 21
3.1488091588
  0
LINE
  5
215
100
AcDbEntity
  8
0
100
AcDbLine
 62
7
  6
CONTINUOUS
 10
4.2673278114
 20
3.2154116991
 11
6.3066098437
 21
3.2154116991
  0
LINE
  5
216
100
AcDbEntity
  8
0
100
AcDbLine
 62
7
  6
CONTINUOUS
 10
6.2966098437
 20
3.2180911911
 11
4.2773278114
 21
3.2180911911
  0
LINE
  5
217
100
AcDbEntity
  8
0
100
AcDbLine
 62
7
  6
CONTINUOUS
 10
4.3003216455
 20
3.2380911911
 11
6.2736160096
 21
3.2380911911
  0
LINE
  5
218
100
AcDbEntity
  8
0
100
AcDbLine
 62
7
  6
CONTINUOUS
 10
4.3003216455
 20
3.4165911911
 11
4.3003216455
 21
3.2380911911
  0
LINE
  5
219
100
AcDbEntity
  8
0
100
AcDbLine
 62
7
  6
CONTINUOUS
 10
4.3083601213
 20
3.4165911911
 11
4.3083601213
 21
3.2380911911
  0
LINE
  5
21A
100
AcDbEntity
  8
0
100
AcDbLine
 62
7
  6
CONTINUOUS
 10
6.1216648734
 20
3.4408508698
 11
6.0919688275
 21
3.4365911911
  0
LINE
  5
21B
100
AcDbEntity
  8
0
100
AcDbLine
 62
7
  6
CONTINUOUS
 10
4.3003216455
 20
3.4165911911
 11
6.2736160096
 21
3.4165911911
  0
LINE
  5
21C
100
AcDbEntity
  8
0
100
AcDbLine
 62
7
  6
CONTINUOUS
 10
4.4522727817
 20
3.4408508698
 11
4.4819688275
 21
3.4365911911
  0
LINE
  5
21D
100
AcDbEntity
  8
0
100
AcDbLine
 62
7
  6
CONTINUOUS
 10
4.4694688275
 20
5.3965911911
 11
4.4694688275
 21
3.5607318749
  0
LINE
  5
21E
100
AcDbEntity
  8
0
100
AcDbLine
 62
7
  6
CONTINUOUS
 10
4.3203216455
 20
3.4365911911
 11
6.2536160096
 21
3.4365911911
  0
LINE
  5
21F
100
AcDbEntity
  8
0
100
AcDbLine
 62
7
  6
CONTINUOUS
 10
4.4522727817
 20
3.4408508698
 11
6.1216648734
 21
3.4408508698
  0
LINE
  5
220
100
AcDbEntity
  8
0
100
AcDbLine
 62
7
  6
CONTINUOUS
 10
4.4694688275
 20
3.5607318749
 11
4.4522727817
 21
3.4408508698
  0
LINE
  5
221
100
AcDbEntity
  8
0
100
AcDbLine
 62
7
  6
CONTINUOUS
 10
4.4694688275
 20
3.5607318749
 11
6.1044688275
 21
3.5607318749
  0
LINE
  5
222
100
AcDbEntity
  8
0
100
AcDbLine
 62
7
  6
CONTINUOUS
 10
4.7716837123
 20
3.4165911911
 11
4.7716837123
 21
3.2380911911
  0
LINE
  5
223
100
AcDbEntity
  8
0
100
AcDbLine
 62
7
  6
CONTINUOUS
 10
4.8236452365
 20
3.2180911911
 11
4.8236452365
 21
3.4365911911
  0
LINE
  5
224
100
AcDbEntity
  8
0
100
AcDbLine
 62
7
  6
CONTINUOUS
 10
6.3066098437
 20
3.2154116991
 11
6.3919688275
 21
3.1661296668
  0
LINE
  5
225
100
AcDbEntity
  8
0
100
AcDbLine
 62
7
  6
CONTINUOUS
 10
5.6829688275
 20
4.1165911911
 11
4.8989688275
 21
4.1165911911
  0
LINE
  5
226
100
AcDbEntity
  8
0
100
AcDbLine
 62
7
  6
CONTINUOUS
 10
6.1012514235
 20
4.2365911911
 11
6.0897169647
 21
4.2365911911
  0
LINE
  5
227
100
AcDbEntity
  8
0
100
AcDbLine
 62
7
  6
CONTINUOUS
 10
6.0680424875
 20
4.2365911911
 11
6.0636806467
 21
4.2365911911
  0
LINE
  5
228
100
AcDbEntity
  8
0
100
AcDbLine
 62
7
  6
CONTINUOUS
 10
6.0897169647
 20
4.2572720421
 11
6.1012514235
 21
4.2572720421
  0
LINE
  5
229
100
AcDbEntity
  8
0
100
AcDbLine
 62
7
  6
CONTINUOUS
 10
6.0454418
 20
4.3115911911
 11
5.9337348208
 21
4.3115911911
  0
LINE
  5
22A
100
AcDbEntity
  8
0
100
AcDbLine
 62
7
  6
CONTINUOUS
 10
5.6829688275
 20
4.3115911911
 11
4.8989688275
 21
4.3115911911
  0
LINE
  5
22B
100
AcDbEntity
  8
0
100
AcDbLine
 62
7
  6
CONTINUOUS
 10
6.0636806467
 20
4.3124209789
 11
6.0839559193
 21
4.3124209789
  0
LINE
  5
22C
100
AcDbEntity
  8
0
100
AcDbLine
 62
7
  6
CONTINUOUS
 10
6.0454418
 20
4.3165911911
 11
5.9337348208
 21
4.3165911911
  0
LINE
  5
22D
100
AcDbEntity
  8
0
100
AcDbLine
 62
7
  6
CONTINUOUS
 10
6.0636806467
 20
4.3331018275
 11
6.0839559193
 21
4.3331018275
  0
LINE
  5
22E
100
AcDbEntity
  8
0
100
AcDbLine
 62
7
  6
CONTINUOUS
 10
6.0636806467
 20
4.3779103425
 11
6.0859851487
 21
4.3779103425
  0
LINE
  5
22F
100
AcDbEntity
  8
0
100
AcDbLine
 62
7
  6
CONTINUOUS
 10
6.0922329702
 20
4.3985911911
 11
6.0897169647
 21
4.3985911911
  0
LINE
  5
230
100
AcDbEntity
  8
0
100
AcDbLine
 62
7
  6
CONTINUOUS
 10
6.0636806467
 20
4.3985911911
 11
6.0859851487
 21
4.3985911911
  0
LINE
  5
231
100
AcDbEntity
  8
0
100
AcDbLine
 62
7
  6
CONTINUOUS
 10
5.6829688275
 20
4.5105911911
 11
4.8989688275
 21
4.5105911911
  0
LINE
  5
232
100
AcDbEntity
  8
0
100
AcDbLine
 62
7
  6
CONTINUOUS
 10
5.7502924186
 20
3.2180911911
 11
5.7502924186
 21
3.4365911911
  0
LINE
  5
233
100
AcDbEntity
  8
0
100
AcDbLine
 62
7
  6
CONTINUOUS
 10
4.2673278114
 20
3.2154116991
 11
4.1819688275
 21
3.1661296668
  0
LINE
  5
234
100
AcDbEntity
  8
0
100
AcDbLine
 62
7
  6
CONTINUOUS
 10
5.6829688275
 20
4.7055911911
 11
4.8989688275
 21
4.7055911911
  0
LINE
  5
235
100
AcDbEntity
  8
0
100
AcDbLine
 62
7
  6
CONTINUOUS
 10
5.8022539428
 20
3.4165911911
 11
5.8022539428
 21
3.2380911911
  0
LINE
  5
236
100
AcDbEntity
  8
0
100
AcDbLine
 62
7
  6
CONTINUOUS
 10
5.9337348208
 20
4.3165911911
 11
5.9337348208
 21
4.3115911911
  0
LINE
  5
237
100
AcDbEntity
  8
0
100
AcDbLine
 62
7
  6
CONTINUOUS
 10
6.1044688275
 20
3.5607318749
 11
6.1216648734
 21
3.4408508698
  0
LINE
  5
238
100
AcDbEntity
  8
0
100
AcDbLine
 62
7
  6
CONTINUOUS
 10
6.0346527514
 20
4.3115911911
 11
6.0346527514
 21
4.3165911911
  0
LINE
  5
239
100
AcDbEntity
  8
0
100
AcDbLine
 62
7
  6
CONTINUOUS
 10
6.0454418
 20
4.3165911911
 11
6.0454418
 21
4.3115911911
  0
LINE
  5
23A
100
AcDbEntity
  8
0
100
AcDbLine
 62
7
  6
CONTINUOUS
 10
6.0636806467
 20
4.2365911911
 11
6.0636806467
 21
4.3985911911
  0
LINE
  5
23B
100
AcDbEntity
  8
0
100
AcDbLine
 62
7
  6
CONTINUOUS
 10
6.0680424875
 20
4.3779103425
 11
6.0680424875
 21
4.3331018275
  0
LINE
  5
23C
100
AcDbEntity
  8
0
100
AcDbLine
 62
7
  6
CONTINUOUS
 10
6.0680424875
 20
4.3124209789
 11
6.0680424875
 21
4.2365911911
  0
LINE
  5
23D
100
AcDbEntity
  8
0
100
AcDbLine
 62
7
  6
CONTINUOUS
 10
6.073695225
 20
4.3124209789
 11
6.073695225
 21
4.3331018275
  0
LINE
  5
23E
100
AcDbEntity
  8
0
100
AcDbLine
 62
7
  6
CONTINUOUS
 10
6.0757508516
 20
4.3779103425
 11
6.0757508516
 21
4.3985911911
  0
LINE
  5
23F
100
AcDbEntity
  8
0
100
AcDbLine
 62
7
  6
CONTINUOUS
 10
6.0839559193
 20
4.3331018275
 11
6.0839559193
 21
4.3124209789
  0
LINE
  5
240
100
AcDbEntity
  8
0
100
AcDbLine
 62
7
  6
CONTINUOUS
 10
6.0859851487
 20
4.3985911911
 11
6.0859851487
 21
4.3779103425
  0
LINE
  5
241
100
AcDbEntity
  8
0
100
AcDbLine
 62
7
  6
CONTINUOUS
 10
6.0897169647
 20
4.3985911911
 11
6.0897169647
 21
4.2365911911
  0
LINE
  5
242
100
AcDbEntity
  8
0
100
AcDbLine
 62
7
  6
CONTINUOUS
 10
6.0912114191
 20
4.2365911911
 11
6.0912114191
 21
4.2572720421
  0
LINE
  5
243
100
AcDbEntity
  8
0
100
AcDbLine
 62
7
  6
CONTINUOUS
 10
6.0922329702
 20
4.3985911911
 11
6.0922329702
 21
4.2572720421
  0
LINE
  5
244
100
AcDbEntity
  8
0
100
AcDbLine
 62
7
  6
CONTINUOUS
 10
6.1012514235
 20
4.2572720421
 11
6.1012514235
 21
4.2365911911
  0
LINE
  5
245
100
AcDbEntity
  8
0
100
AcDbLine
 62
7
  6
CONTINUOUS
 10
6.1044688275
 20
5.3965911911
 11
6.1044688275
 21
3.5607318749
  0
LINE
  5
246
100
AcDbEntity
  8
0
100
AcDbLine
 62
7
  6
CONTINUOUS
 10
6.2655775338
 20
3.4165911911
 11
6.2655775338
 21
3.2380911911
  0
LINE
  5
247
100
AcDbEntity
  8
0
100
AcDbLine
 62
7
  6
CONTINUOUS
 10
6.2736160096
 20
3.4165911911
 11
6.2736160096
 21
3.2380911911
  0
LINE
  5
248
100
AcDbEntity
  8
0
100
AcDbLine
 62
7
  6
CONTINUOUS
 10
6.4019688275
 20
3.0115911911
 11
6.4019688275
 21
3.1488091588
  0
LINE
  5
249
100
AcDbEntity
  8
0
100
AcDbLine
 62
7
  6
CONTINUOUS
 10
4.4694688275
 20
5.3965911911
 11
6.1044688275
 21
5.3965911911
  0
LINE
  5
24A
100
AcDbEntity
  8
0
100
AcDbLine
 62
7
  6
CONTINUOUS
 10
5.8744688275
 20
5.6265911911
 11
4.6994688275
 21
5.6265911911
  0
ARC
  5
24B
100
AcDbEntity
  8
0
100
AcDbCircle
 62
7
  6
CONTINUOUS
 10
4.8989688275
 20
4.2140911911
 40
0.0975
100
AcDbArc
 50
90.0
 51
270.0
  0
ARC
  5
24C
100
AcDbEntity
  8
0
100
AcDbCircle
 62
7
  6
CONTINUOUS
 10
4.2773278114
 20
3.1980911911
 40
0.02
100
AcDbArc
 50
90.0
 51
119.9999999998
  0
ARC
  5
24D
100
AcDbEntity
  8
0
100
AcDbCircle
 62
7
  6
CONTINUOUS
 10
4.3203216455
 20
3.4165911911
 40
0.02
100
AcDbArc
 50
90.0
 51
180.0
  0
ARC
  5
24E
100
AcDbEntity
  8
0
100
AcDbCircle
 62
7
  6
CONTINUOUS
 10
4.2803216455
 20
3.2380911911
 40
0.02
100
AcDbArc
 50
270.0
 51
360.0
  0
ARC
  5
24F
100
AcDbEntity
  8
0
100
AcDbCircle
 62
7
  6
CONTINUOUS
 10
4.1919688275
 20
3.1488091588
 40
0.02
100
AcDbArc
 50
119.9999999994
 51
180.0
  0
ARC
  5
250
100
AcDbEntity
  8
0
100
AcDbCircle
 62
7
  6
CONTINUOUS
 10
4.6994688275
 20
5.3965911911
 40
0.23
100
AcDbArc
 50
90.0
 51
180.0
  0
ARC
  5
251
100
AcDbEntity
  8
0
100
AcDbCircle
 62
7
  6
CONTINUOUS
 10
4.8989688275
 20
4.6080911911
 40
0.0975
100
AcDbArc
 50
90.0
 51
270.0
  0
ARC
  5
252
100
AcDbEntity
  8
0
100
AcDbCircle
 62
7
  6
CONTINUOUS
 10
5.6829688275
 20
4.2140911911
 40
0.0975
100
AcDbArc
 50
270.0
 51
90.0
  0
ARC
  5
253
100
AcDbEntity
  8
0
100
AcDbCircle
 62
7
  6
CONTINUOUS
 10
6.2966098437
 20
3.1980911911
 40
0.02
100
AcDbArc
 50
60.0000000002
 51
90.0
  0
ARC
  5
254
100
AcDbEntity
  8
0
100
AcDbCircle
 62
7
  6
CONTINUOUS
 10
6.2536160096
 20
3.4165911911
 40
0.02
100
AcDbArc
 50
0.0
 51
90.0
  0
ARC
  5
255
100
AcDbEntity
  8
0
100
AcDbCircle
 62
7
  6
CONTINUOUS
 10
6.2936160096
 20
3.2380911911
 40
0.02
100
AcDbArc
 50
180.0
 51
270.0
  0
ARC
  5
256
100
AcDbEntity
  8
0
100
AcDbCircle
 62
7
  6
CONTINUOUS
 10
6.3819688275
 20
3.1488091588
 40
0.02
100
AcDbArc
 50
0.0
 51
60.0000000006
  0
ARC
  5
257
100
AcDbEntity
  8
0
100
AcDbCircle
 62
7
  6
CONTINUOUS
 10
5.8744688275
 20
5.3965911911
 40
0.23
100
AcDbArc
 50
0.0
 51
90.0
  0
ARC
  5
258
100
AcDbEntity
  8
0
100
AcDbCircle
 62
7
  6
CONTINUOUS
 10
5.6829688275
 20
4.6080911911
 40
0.0975
100
AcDbArc
 50
270.0
 51
90.0
  0
SPLINE
  5
259
100
AcDbEntity
  8
0
100
AcDbSpline
 62
7
  6
CONTINUOUS
 70
0
 71
3
 72
17
 73
13
 74
0
 42
0.0000001
 43
0.0000001
 44
0.0000000001
 40
0.0
 40
0.0
 40
0.0
 40
0.0
 40
0.1159329531
 40
0.1745682915
 40
0.233685036
 40
0.3537222323
 40
0.4770852565
 40
0.6039262761
 40
0.7338991822
 40
0.7999499563
 40
0.8665081382
 40
1.0
 40
1.0
 40
1.0
 40
1.0
 10
4.2910396132
 20
3.2180911911
 30
0.0
 10
4.2921723019
 20
3.2180911911
 30
0.0
 10
4.2938853904
 20
3.2182892367
 30
0.0
 10
4.2960819592
 20
3.2189237834
 30
0.0
 10
4.2982329125
 20
3.219813374
 30
0.0
 10
4.3007647236
 20
3.221384699
 30
0.0
 10
4.3033986042
 20
3.2238983804
 30
0.0
 10
4.3055570733
 20
3.2269479584
 30
0.0
 10
4.3068837976
 20
3.2298300541
 30
0.0
 10
4.307642953
 20
3.232283632
 30
0.0
 10
4.3081921596
 20
3.2348272211
 30
0.0
 10
4.3083601213
 20
3.2367869483
 30
0.0
 10
4.3083601213
 20
3.2380911911
 30
0.0
  0
SPLINE
  5
25A
100
AcDbEntity
  8
0
100
AcDbSpline
 62
7
  6
CONTINUOUS
 70
0
 71
3
 72
17
 73
13
 74
0
 42
0.0000001
 43
0.0000001
 44
0.0000000001
 40
0.0
 40
0.0
 40
0.0
 40
0.0
 40
0.1159329521
 40
0.1745682898
 40
0.2336850341
 40
0.3537222316
 40
0.4770852574
 40
0.6039262786
 40
0.7338991853
 40
0.7999499587
 40
0.8665081395
 40
1.0
 40
1.0
 40
1.0
 40
1.0
 10
6.2828980419
 20
3.2180911911
 30
0.0
 10
6.2817653532
 20
3.2180911911
 30
0.0
 10
6.2800522647
 20
3.2182892367
 30
0.0
 10
6.277855696
 20
3.2189237834
 30
0.0
 10
6.2757047427
 20
3.219813374
 30
0.0
 10
6.2731729315
 20
3.221384699
 30
0.0
 10
6.2705390509
 20
3.2238983805
 30
0.0
 10
6.2683805817
 20
3.2269479584
 30
0.0
 10
6.2670538574
 20
3.2298300542
 30
0.0
 10
6.2662947021
 20
3.232283632
 30
0.0
 10
6.2657454955
 20
3.2348272212
 30
0.0
 10
6.2655775338
 20
3.2367869483
 30
0.0
 10
6.2655775338
 20
3.2380911911
 30
0.0
  0
SPLINE
  5
25B
100
AcDbEntity
  8
0
100
AcDbSpline
 62
7
  6
CONTINUOUS
 70
0
 71
3
 72
17
 73
13
 74
0
 42
0.0000001
 43
0.0000001
 44
0.0000000001
 40
0.0
 40
0.0
 40
0.0
 40
0.0
 40
0.1159329531
 40
0.1745682915
 40
0.233685036
 40
0.3537222323
 40
0.4770852565
 40
0.6039262761
 40
0.7338991822
 40
0.7999499563
 40
0.8665081382
 40
1.0
 40
1.0
 40
1.0
 40
1.0
 10
5.8195744509
 20
3.2180911911
 30
0.0
 10
5.8184417622
 20
3.2180911911
 30
0.0
 10
5.8167286737
 20
3.2182892367
 30
0.0
 10
5.8145321049
 20
3.2189237834
 30
0.0
 10
5.8123811516
 20
3.219813374
 30
0.0
 10
5.8098493405
 20
3.221384699
 30
0.0
 10
5.8072154599
 20
3.2238983804
 30
0.0
 10
5.8050569907
 20
3.2269479584
 30
0.0
 10
5.8037302664
 20
3.2298300541
 30
0.0
 10
5.8029711111
 20
3.232283632
 30
0.0
 10
5.8024219045
 20
3.2348272211
 30
0.0
 10
5.8022539428
 20
3.2367869483
 30
0.0
 10
5.8022539428
 20
3.2380911911
 30
0.0
  0
SPLINE
  5
25C
100
AcDbEntity
  8
0
100
AcDbSpline
 62
7
  6
CONTINUOUS
 70
0
 71
3
 72
10
 73
6
 74
0
 42
0.0000001
 43
0.0000001
 44
0.0000000001
 40
0.0
 40
0.0
 40
0.0
 40
0.0
 40
0.4957232567
 40
0.7467110763
 40
1.0
 40
1.0
 40
1.0
 40
1.0
 10
6.2482570257
 20
3.4365911911
 30
0.0
 10
6.2494652434
 20
3.4365911911
 30
0.0
 10
6.2512944336
 20
3.4363655056
 30
0.0
 10
6.2536263228
 20
3.4356447928
 30
0.0
 10
6.2547529344
 20
3.4351445097
 30
0.0
 10
6.2553019393
 20
3.4348622009
 30
0.0
  0
SPLINE
  5
25D
100
AcDbEntity
  8
0
100
AcDbSpline
 62
7
  6
CONTINUOUS
 70
0
 71
3
 72
14
 73
10
 74
0
 42
0.0000001
 43
0.0000001
 44
0.0000000001
 40
0.0
 40
0.0
 40
0.0
 40
0.0
 40
0.1173835849
 40
0.2371040598
 40
0.3593614002
 40
0.484046334
 40
0.7392492134
 40
0.8694669454
 40
1.0
 40
1.0
 40
1.0
 40
1.0
 10
6.2553019393
 20
3.4348622009
 30
0.0
 10
6.2560673615
 20
3.4344686063
 30
0.0
 10
6.257552732
 20
3.4335493473
 30
0.0
 10
6.2595635312
 20
3.4318323974
 30
0.0
 10
6.2613399027
 20
3.4298015898
 30
0.0
 10
6.263361293
 20
3.4267132075
 30
0.0
 10
6.2647542655
 20
3.4231865412
 30
0.0
 10
6.2654566247
 20
3.4194627001
 30
0.0
 10
6.2655775338
 20
3.4175482972
 30
0.0
 10
6.2655775338
 20
3.4165911911
 30
0.0
  0
SPLINE
  5
25E
100
AcDbEntity
  8
0
100
AcDbSpline
 62
7
  6
CONTINUOUS
 70
0
 71
3
 72
17
 73
13
 74
0
 42
0.0000001
 43
0.0000001
 44
0.0000000001
 40
0.0
 40
0.0
 40
0.0
 40
0.0
 40
0.1159329531
 40
0.1745682915
 40
0.233685036
 40
0.3537222323
 40
0.4770852565
 40
0.6039262761
 40
0.7338991822
 40
0.7999499563
 40
0.8665081382
 40
1.0
 40
1.0
 40
1.0
 40
1.0
 10
5.7849334347
 20
3.4365911911
 30
0.0
 10
5.7860661234
 20
3.4365911911
 30
0.0
 10
5.7877792119
 20
3.4363931454
 30
0.0
 10
5.7899757807
 20
3.4357585988
 30
0.0
 10
5.792126734
 20
3.4348690081
 30
0.0
 10
5.7946585451
 20
3.4332976831
 30
0.0
 10
5.7972924257
 20
3.4307840017
 30
0.0
 10
5.7994508948
 20
3.4277344237
 30
0.0
 10
5.8007776192
 20
3.424852328
 30
0.0
 10
5.8015367745
 20
3.4223987501
 30
0.0
 10
5.8020859811
 20
3.419855161
 30
0.0
 10
5.8022539428
 20
3.4178954339
 30
0.0
 10
5.8022539428
 20
3.4165911911
 30
0.0
  0
SPLINE
  5
25F
100
AcDbEntity
  8
0
100
AcDbSpline
 62
7
  6
CONTINUOUS
 70
0
 71
3
 72
17
 73
13
 74
0
 42
0.0000001
 43
0.0000001
 44
0.0000000001
 40
0.0
 40
0.0
 40
0.0
 40
0.0
 40
0.1159329519
 40
0.1745682893
 40
0.2336850332
 40
0.3537222299
 40
0.4770852556
 40
0.6039262769
 40
0.7338991841
 40
0.799949958
 40
0.8665081392
 40
1.0
 40
1.0
 40
1.0
 40
1.0
 10
4.7890042204
 20
3.4365911911
 30
0.0
 10
4.7878715317
 20
3.4365911911
 30
0.0
 10
4.7861584432
 20
3.4363931454
 30
0.0
 10
4.7839618744
 20
3.4357585988
 30
0.0
 10
4.7818109212
 20
3.4348690081
 30
0.0
 10
4.77927911
 20
3.4332976832
 30
0.0
 10
4.7766452294
 20
3.4307840017
 30
0.0
 10
4.7744867602
 20
3.4277344237
 30
0.0
 10
4.7731600359
 20
3.4248523279
 30
0.0
 10
4.7724008805
 20
3.4223987501
 30
0.0
 10
4.771851674
 20
3.419855161
 30
0.0
 10
4.7716837123
 20
3.4178954339
 30
0.0
 10
4.7716837123
 20
3.4165911911
 30
0.0
  0
SPLINE
  5
260
100
AcDbEntity
  8
0
100
AcDbSpline
 62
7
  6
CONTINUOUS
 70
0
 71
3
 72
10
 73
6
 74
0
 42
0.0000001
 43
0.0000001
 44
0.0000000001
 40
0.0
 40
0.0
 40
0.0
 40
0.0
 40
0.4957232479
 40
0.7467110703
 40
1.0
 40
1.0
 40
1.0
 40
1.0
 10
4.3256806293
 20
3.4365911911
 30
0.0
 10
4.3244724101
 20
3.4365911911
 30
0.0
 10
4.3226432174
 20
3.436365505
 30
0.0
 10
4.3203113253
 20
3.4356447903
 30
0.0
 10
4.3191847124
 20
3.4351445059
 30
0.0
 10
4.3186357069
 20
3.4348621964
 30
0.0
  0
SPLINE
  5
261
100
AcDbEntity
  8
0
100
AcDbSpline
 62
7
  6
CONTINUOUS
 70
0
 71
3
 72
14
 73
10
 74
0
 42
0.0000001
 43
0.0000001
 44
0.0000000001
 40
0.0
 40
0.0
 40
0.0
 40
0.0
 40
0.1173835885
 40
0.2371040663
 40
0.3593614082
 40
0.4840463414
 40
0.739249218
 40
0.8694669486
 40
1.0
 40
1.0
 40
1.0
 40
1.0
 10
4.3186357069
 20
3.4348621964
 30
0.0
 10
4.3178702853
 20
3.4344686014
 30
0.0
 10
4.3163849159
 20
3.4335493421
 30
0.0
 10
4.3143741185
 20
3.4318323919
 30
0.0
 10
4.3125977485
 20
3.4298015846
 30
0.0
 10
4.3105763601
 20
3.4267132031
 30
0.0
 10
4.3091833889
 20
3.4231865382
 30
0.0
 10
4.3084810302
 20
3.4194626988
 30
0.0
 10
4.3083601213
 20
3.4175482967
 30
0.0
 10
4.3083601213
 20
3.4165911911
 30
0.0
  0
SPLINE
  5
262
100
AcDbEntity
  8
0
100
AcDbSpline
 62
7
  6
CONTINUOUS
 70
0
 71
3
 72
17
 73
13
 74
0
 42
0.0000001
 43
0.0000001
 44
0.0000000001
 40
0.0
 40
0.0
 40
0.0
 40
0.0
 40
0.1159329521
 40
0.1745682898
 40
0.2336850341
 40
0.3537222316
 40
0.4770852574
 40
0.6039262786
 40
0.7338991853
 40
0.7999499587
 40
0.8665081395
 40
1.0
 40
1.0
 40
1.0
 40
1.0
 10
4.7543632042
 20
3.2180911911
 30
0.0
 10
4.7554958929
 20
3.2180911911
 30
0.0
 10
4.7572089814
 20
3.2182892367
 30
0.0
 10
4.7594055502
 20
3.2189237834
 30
0.0
 10
4.7615565035
 20
3.219813374
 30
0.0
 10
4.7640883146
 20
3.221384699
 30
0.0
 10
4.7667221952
 20
3.2238983805
 30
0.0
 10
4.7688806644
 20
3.2269479584
 30
0.0
 10
4.7702073887
 20
3.2298300542
 30
0.0
 10
4.7709665441
 20
3.232283632
 30
0.0
 10
4.7715157506
 20
3.2348272212
 30
0.0
 10
4.7716837123
 20
3.2367869483
 30
0.0
 10
4.7716837123
 20
3.2380911911
 30
0.0
  0
ENDSEC
  0
SECTION
  2
OBJECTS
  0
DICTIONARY
  5
C
100
AcDbDictionary
280
0
281
1
  3
ACAD_GROUP
350
D
  3
ACAD_MLINESTYLE
350
17
  3
ACAD_LAYOUT
350
1A
  3
ACAD_PLOTSETTINGS
350
19
  3
ACAD_PLOTSTYLENAME
350
E
  0
DICTIONARY
  5
D
102
{ACAD_REACTORS
330
C
102
}
100
AcDbDictionary
280
0
281
1
  0
ACDBDICTIONARYWDFLT
  5
E
102
{ACAD_REACTORS
330
C
102
}
100
AcDbDictionary
281
1
  3
Normal
350
F
100
AcDbDictionaryWithDefault
340
F
  0
DICTIONARY
  5
17
102
{ACAD_REACTORS
330
C
102
}
100
AcDbDictionary
280
0
281
1
  3
Standard
350
18
  0
DICTIONARY
  5
19
102
{ACAD_REACTORS
330
C
102
}
100
AcDbDictionary
281
1
  0
DICTIONARY
  5
1A
102
{ACAD_REACTORS
330
C
102
}
100
AcDbDictionary
281
1
  3
Model
350
263
  3
Layout1
350
264
  0
ACDBPLACEHOLDER
  5
F
102
{ACAD_REACTORS
330
E
102
}
  0
MLINESTYLE
  5
18
102
{ACAD_REACTORS
330
17
102
}
100
AcDbMlineStyle
  2
STANDARD
 70
0
  3

 62
256
 51
90.0
 52
90.0
 71
2
 49
0.5
 62
256
  6
BYLAYER
 49
-0.5
 62
256
  6
BYLAYER
  0
LAYOUT
  5
263
102
{ACAD_REACTORS
330
1A
102
}
100
AcDbPlotSettings
  1

  2
none_device
  4
ANSI_A_(11.00_x_8.50_Inches)
  6

 40
0.0
 41
0.0
 42
0.0
 43
0.0
 44
279.4
 45
215.9
 46
0.0
 47
0.0
 48
0.0
 49
0.0
140
0.0
141
0.0
142
1.0
143
1.0
 70
1024
 72
0
 73
0
 74
0
  7

 75
0
147
1.0
148
0.0
149
0.0
100
AcDbLayout
  1
Model
 70
0
 71
0
 10
0.0
 20
0.0
 11
11.0
 21
8.5
 12
0.0
 22
0.0
 32
0.0
 14
0.0
 24
0.0
 34
0.0
 15
0.0
 25
0.0
 35
0.0
146
0.0
 13
0.0
 23
0.0
 33
0.0
 16
1.0
 26
0.0
 36
0.0
 17
0.0
 27
1.0
 37
0.0
 76
0
330
20A
345
0
346
0
  0
LAYOUT
  5
264
102
{ACAD_REACTORS
330
1A
102
}
100
AcDbPlotSettings
  1

  2
none_device
  4
ANSI_A_(11.00_x_8.50_Inches)
  6

 40
0.0
 41
0.0
 42
0.0
 43
0.0
 44
279.4
 45
215.9
 46
0.0
 47
0.0
 48
0.0
 49
0.0
140
0.0
141
0.0
142
1.0
143
1.0
 70
0
 72
0
 73
0
 74
0
  7

 75
0
147
1.0
148
0.0
149
0.0
100
AcDbLayout
  1
Layout1
 70
0
 71
1
 10
0.0
 20
0.0
 11
11.0
 21
8.5
 12
0.0
 22
0.0
 32
0.0
 14
0.0
 24
0.0
 34
0.0
 15
0.0
 25
0.0
 35
0.0
146
0.0
 13
0.0
 23
0.0
 33
0.0
 16
1.0
 26
0.0
 36
0.0
 17
0.0
 27
1.0
 37
0.0
 76
0
330
20B
345
0
346
0
  0
ENDSEC
  0
EOF
